  0
SECTION
  2
HEADER
  9
$ACADVER
  1
AC1009
  9
$DWGCODEPAGE
  3
iso8859-1
  9
$INSBASE
 10
0.0
 20
0.0
 30
0.0
  9
$EXTMIN
 10
1.0E20
 20
1.0E20
  9
$EXTMAX
 10
-1.0E20
 20
-1.0E20
  9
$LIMMIN
 10
0.0
 20
0.0
  9
$LIMMAX
 10
12.0
 20
9.0
  9
$ORTHOMODE
 70
     0
  9
$REGENMODE
 70
     1
  9
$FILLMODE
 70
     1
  9
$QTEXTMODE
 70
     0
  9
$MIRRTEXT
 70
     1
  9
$DRAGMODE
 70
     2
  9
$LTSCALE
 40
15.0
  9
$OSMODE
 70
     0
  9
$ATTMODE
 70
     1
  9
$TEXTSIZE
 40
0.2
  9
$TRACEWID
 40
0.05
  9
$TEXTSTYLE
  7
STANDARD
  9
$CLAYER
  8
0
  9
$CELTYPE
  6
DASHED
  9
$CECOLOR
 62
   256
  9
$DIMSCALE
 40
1.0
  9
$DIMASZ
 40
0.18
  9
$DIMEXO
 40
0.0625
  9
$DIMDLI
 40
0.38
  9
$DIMRND
 40
0.0
  9
$DIMDLE
 40
0.0
  9
$DIMEXE
 40
0.18
  9
$DIMTP
 40
0.0
  9
$DIMTM
 40
0.0
  9
$DIMTXT
 40
0.18
  9
$DIMCEN
 40
0.09
  9
$DIMTSZ
 40
0.0
  9
$DIMTOL
 70
     0
  9
$DIMLIM
 70
     0
  9
$DIMTIH
 70
     1
  9
$DIMTOH
 70
     1
  9
$DIMSE1
 70
     0
  9
$DIMSE2
 70
     0
  9
$DIMTAD
 70
     0
  9
$DIMZIN
 70
     0
  9
$DIMBLK
  1

  9
$DIMASO
 70
     1
  9
$DIMSHO
 70
     1
  9
$DIMPOST
  1

  9
$DIMAPOST
  1

  9
$DIMALT
 70
     0
  9
$DIMALTD
 70
     2
  9
$DIMALTF
 40
25.4
  9
$DIMLFAC
 40
1.0
  9
$DIMTOFL
 70
     0
  9
$DIMTVP
 40
0.0
  9
$DIMTIX
 70
     0
  9
$DIMSOXD
 70
     0
  9
$DIMSAH
 70
     0
  9
$DIMBLK1
  1

  9
$DIMBLK2
  1

  9
$DIMSTYLE
  2
STANDARD
  9
$DIMCLRD
 70
     0
  9
$DIMCLRE
 70
     0
  9
$DIMCLRT
 70
     0
  9
$DIMTFAC
 40
1.0
  9
$DIMGAP
 40
0.09
  9
$LUNITS
 70
     2
  9
$LUPREC
 70
     4
  9
$AXISMODE
 70
     0
  9
$AXISUNIT
 10
0.0
 20
0.0
  9
$SKETCHINC
 40
0.1
  9
$FILLETRAD
 40
0.0
  9
$AUNITS
 70
     0
  9
$AUPREC
 70
     0
  9
$MENU
  1
acad
  9
$ELEVATION
 40
0.0
  9
$PELEVATION
 40
0.0
  9
$THICKNESS
 40
0.0
  9
$LIMCHECK
 70
     0
  9
$BLIPMODE
 70
     1
  9
$CHAMFERA
 40
0.0
  9
$CHAMFERB
 40
0.0
  9
$SKPOLY
 70
     0
  9
$TDCREATE
 40
0.000000000
  9
$TDUPDATE
 40
0.000000000
  9
$TDINDWG
 40
0.0
  9
$TDUSRTIMER
 40
0.0
  9
$USRTIMER
 70
     1
  9
$ANGBASE
 50
0.0
  9
$ANGDIR
 70
     0
  9
$PDMODE
 70
     0
  9
$PDSIZE
 40
0.0
  9
$PLINEWID
 40
0.0
  9
$COORDS
 70
     1
  9
$SPLFRAME
 70
     0
  9
$SPLINETYPE
 70
     6
  9
$SPLINESEGS
 70
     8
  9
$ATTDIA
 70
     0
  9
$ATTREQ
 70
     1
  9
$HANDLING
 70
     1
  9
$HANDSEED
  5
   6AB
  9
$SURFTAB1
 70
     6
  9
$SURFTAB2
 70
     6
  9
$SURFTYPE
 70
     6
  9
$SURFU
 70
     6
  9
$SURFV
 70
     6
  9
$UCSNAME
  2

  9
$UCSORG
 10
0.0
 20
0.0
 30
0.0
  9
$UCSXDIR
 10
1.0
 20
0.0
 30
0.0
  9
$UCSYDIR
 10
0.0
 20
1.0
 30
0.0
  9
$PUCSNAME
  2

  9
$PUCSORG
 10
0.0
 20
0.0
 30
0.0
  9
$PUCSXDIR
 10
1.0
 20
0.0
 30
0.0
  9
$PUCSYDIR
 10
0.0
 20
1.0
 30
0.0
  9
$USERI1
 70
     0
  9
$USERI2
 70
     0
  9
$USERI3
 70
     0
  9
$USERI4
 70
     0
  9
$USERI5
 70
     0
  9
$USERR1
 40
0.0
  9
$USERR2
 40
0.0
  9
$USERR3
 40
0.0
  9
$USERR4
 40
0.0
  9
$USERR5
 40
0.0
  9
$WORLDVIEW
 70
     1
  9
$SHADEDGE
 70
     3
  9
$SHADEDIF
 70
    70
  9
$TILEMODE
 70
     1
  9
$MAXACTVP
 70
    16
  9
$PINSBASE
 10
0.0
 20
0.0
 30
0.0
  9
$PLIMCHECK
 70
     0
  9
$PEXTMIN
 10
1.0E20
 20
1.0E20
 30
1.0E20
  9
$PEXTMAX
 10
-1.0E20
 20
-1.0E20
 30
-1.0E20
  9
$PLIMMIN
 10
0.0
 20
0.0
  9
$PLIMMAX
 10
12.0
 20
9.0
  9
$UNITMODE
 70
     0
  9
$VISRETAIN
 70
     0
  0
ENDSEC
  0
SECTION
  2
TABLES
  0
TABLE
  2
VPORT
 70
     1
  0
VPORT
  2
*ACTIVE
 70
     0
 10
0.0
 20
0.0
 11
1.0
 21
1.0
 12
6.801242
 22
4.5
 13
0.0
 23
0.0
 14
1.0
 24
1.0
 15
0.0
 25
0.0
 16
0.0
 26
0.0
 36
1.0
 17
0.0
 27
0.0
 37
0.0
 40
9.0
 41
1.511387
 42
50.0
 43
0.0
 44
0.0
 50
0.0
 51
0.0
 71
     0
 72
   100
 73
     1
 74
     1
 75
     0
 76
     0
 77
     0
 78
     0
  0
ENDTAB
  0
TABLE
  2
LTYPE
 70
    41
  0
LTYPE
  2
BYBLOCK
 70
     0
  3

 72
    65
 73
     0
 40
0.0
  0
LTYPE
  2
BYLAYER
 70
     0
  3

 72
    65
 73
     0
 40
0.0
  0
LTYPE
  2
CONTINUOUS
 70
     0
  3
Solid line
 72
    65
 73
     0
 40
0.0
  0
LTYPE
  2
BORDER
 70
    64
  3
__ __ . __ __ . __ __ . __ __ . __ __ . __ __ .
 72
    65
 73
     6
 40
1.75
 49
0.5
 49
-0.25
 49
0.5
 49
-0.25
 49
0.0
 49
-0.25
  0
LTYPE
  2
BORDER2
 70
    64
  3
__.__.__.__.__.__.__.__.__.__.__.__.__.__.__.__
 72
    65
 73
     6
 40
0.875
 49
0.25
 49
-0.125
 49
0.25
 49
-0.125
 49
0.0
 49
-0.125
  0
LTYPE
  2
BORDERX2
 70
    64
  3
____  ____  .  ____  ____  .  ____  ____  .  __
 72
    65
 73
     6
 40
3.5
 49
1.0
 49
-0.5
 49
1.0
 49
-0.5
 49
0.0
 49
-0.5
  0
LTYPE
  2
CENTER
 70
    64
  3
____ _ ____ _ ____ _ ____ _ ____ _ ____ _ ____
 72
    65
 73
     4
 40
2.0
 49
1.25
 49
-0.25
 49
0.25
 49
-0.25
  0
LTYPE
  2
CENTER2
 70
    64
  3
___ _ ___ _ ___ _ ___ _ ___ _ ___ _ ___ _ ___ _
 72
    65
 73
     4
 40
1.125
 49
0.75
 49
-0.125
 49
0.125
 49
-0.125
  0
LTYPE
  2
CENTERX2
 70
    64
  3
________  __  ________  __  ________  __  _____
 72
    65
 73
     4
 40
4.0
 49
2.5
 49
-0.5
 49
0.5
 49
-0.5
  0
LTYPE
  2
DASHDOT
 70
    64
  3
__ . __ . __ . __ . __ . __ . __ . __ . __ . __
 72
    65
 73
     4
 40
1.0
 49
0.5
 49
-0.25
 49
0.0
 49
-0.25
  0
LTYPE
  2
DASHDOT2
 70
    64
  3
_._._._._._._._._._._._._._._._._._._._._._._._
 72
    65
 73
     4
 40
0.5
 49
0.25
 49
-0.125
 49
0.0
 49
-0.125
  0
LTYPE
  2
DASHDOTX2
 70
    64
  3
____  .  ____  .  ____  .  ____  .  ____  .  __
 72
    65
 73
     4
 40
2.0
 49
1.0
 49
-0.5
 49
0.0
 49
-0.5
  0
LTYPE
  2
DASHED
 70
    64
  3
__ __ __ __ __ __ __ __ __ __ __ __ __ __ __ __
 72
    65
 73
     2
 40
0.75
 49
0.5
 49
-0.25
  0
LTYPE
  2
DASHED2
 70
    64
  3
_ _ _ _ _ _ _ _ _ _ _ _ _ _ _ _ _ _ _ _ _ _ _ _
 72
    65
 73
     2
 40
0.375
 49
0.25
 49
-0.125
  0
LTYPE
  2
DASHEDX2
 70
    64
  3
____  ____  ____  ____  ____  ____  ____  ____
 72
    65
 73
     2
 40
1.5
 49
1.0
 49
-0.5
  0
LTYPE
  2
DIVIDE
 70
    64
  3
____ . . ____ . . ____ . . ____ . . ____ . . __
 72
    65
 73
     6
 40
1.25
 49
0.5
 49
-0.25
 49
0.0
 49
-0.25
 49
0.0
 49
-0.25
  0
LTYPE
  2
DIVIDE2
 70
    64
  3
__..__..__..__..__..__..__..__..__..__..__..__.
 72
    65
 73
     6
 40
0.625
 49
0.25
 49
-0.125
 49
0.0
 49
-0.125
 49
0.0
 49
-0.125
  0
LTYPE
  2
DIVIDEX2
 70
    64
  3
________  .  .  ________  .  .  ________  .  .
 72
    65
 73
     6
 40
2.5
 49
1.0
 49
-0.5
 49
0.0
 49
-0.5
 49
0.0
 49
-0.5
  0
LTYPE
  2
DOT
 70
    64
  3
. . . . . . . . . . . . . . . . . . . . . . . .
 72
    65
 73
     2
 40
0.25
 49
0.0
 49
-0.25
  0
LTYPE
  2
DOT2
 70
    64
  3
...............................................
 72
    65
 73
     2
 40
0.125
 49
0.0
 49
-0.125
  0
LTYPE
  2
DOTX2
 70
    64
  3
.  .  .  .  .  .  .  .  .  .  .  .  .  .  .  .
 72
    65
 73
     2
 40
0.5
 49
0.0
 49
-0.5
  0
LTYPE
  2
HIDDEN
 70
    64
  3
__ __ __ __ __ __ __ __ __ __ __ __ __ __ __ __
 72
    65
 73
     2
 40
0.375
 49
0.25
 49
-0.125
  0
LTYPE
  2
HIDDEN2
 70
    64
  3
_ _ _ _ _ _ _ _ _ _ _ _ _ _ _ _ _ _ _ _ _ _ _ _
 72
    65
 73
     2
 40
0.1875
 49
0.125
 49
-0.0625
  0
LTYPE
  2
HIDDENX2
 70
    64
  3
____ ____ ____ ____ ____ ____ ____ ____ ____ __
 72
    65
 73
     2
 40
0.75
 49
0.5
 49
-0.25
  0
LTYPE
  2
PHANTOM
 70
    64
  3
______  __  __  ______  __  __  ______  __  __
 72
    65
 73
     6
 40
2.5
 49
1.25
 49
-0.25
 49
0.25
 49
-0.25
 49
0.25
 49
-0.25
  0
LTYPE
  2
PHANTOM2
 70
    64
  3
___ _ _ ___ _ _ ___ _ _ ___ _ _ ___ _ _ ___ _ _
 72
    65
 73
     6
 40
1.25
 49
0.625
 49
-0.125
 49
0.125
 49
-0.125
 49
0.125
 49
-0.125
  0
LTYPE
  2
PHANTOMX2
 70
    64
  3
____________    ____    ____    ____________
 72
    65
 73
     6
 40
5.0
 49
2.5
 49
-0.5
 49
0.5
 49
-0.5
 49
0.5
 49
-0.5
  0
LTYPE
  2
ACAD_ISO02W100
 70
    64
  3
__ __ __ __ __ __ __ __ __ __ __ __ __ __ __ __
 72
    65
 73
     2
 40
15.0
 49
12.0
 49
-3.0
  0
LTYPE
  2
ACAD_ISO03W100
 70
    64
  3
__    __    __    __    __    __    __    __
 72
    65
 73
     2
 40
30.0
 49
12.0
 49
-18.0
  0
LTYPE
  2
ACAD_ISO04W100
 70
    64
  3
____ . ____ . ____ . ____ . ____ . ____ . ____
 72
    65
 73
     4
 40
30.5
 49
24.0
 49
-3.0
 49
0.5
 49
-3.0
  0
LTYPE
  2
ACAD_ISO05W100
 70
    64
  3
____ .. ____ .. ____ .. ____ .. ____ .. ____ ..
 72
    65
 73
     6
 40
34.0
 49
24.0
 49
-3.0
 49
0.5
 49
-3.0
 49
0.5
 49
-3.0
  0
LTYPE
  2
ACAD_ISO06W100
 70
    64
  3
____ ... ____ ... ____ ... ____ ... ____ ... __
 72
    65
 73
     8
 40
37.5
 49
24.0
 49
-3.0
 49
0.5
 49
-3.0
 49
0.5
 49
-3.0
 49
0.5
 49
-3.0
  0
LTYPE
  2
ACAD_ISO07W100
 70
    64
  3
. . . . . . . . . . . . . . . . . . . . . . . .
 72
    65
 73
     2
 40
3.5
 49
0.5
 49
-3.0
  0
LTYPE
  2
ACAD_ISO08W100
 70
    64
  3
____ __ ____ __ ____ __ ____ ____ __ __ ____ __
 72
    65
 73
     4
 40
36.0
 49
24.0
 49
-3.0
 49
6.0
 49
-3.0
  0
LTYPE
  2
ACAD_ISO09W100
 70
    64
  3
____ __ __ ____ __ __ ____ __ __ ____ __ __ ___
 72
    65
 73
     6
 40
45.0
 49
24.0
 49
-3.0
 49
6.0
 49
-3.0
 49
6.0
 49
-3.0
  0
LTYPE
  2
ACAD_ISO10W100
 70
    64
  3
__ . __ . __ . __ . __ . __ . __ . __ . __ . __
 72
    65
 73
     4
 40
18.5
 49
12.0
 49
-3.0
 49
0.5
 49
-3.0
  0
LTYPE
  2
ACAD_ISO11W100
 70
    64
  3
__ __ . __ __ . __ __ . __ __ . __ __ . __ __ .
 72
    65
 73
     6
 40
33.5
 49
12.0
 49
-3.0
 49
12.0
 49
-3.0
 49
0.5
 49
-3.0
  0
LTYPE
  2
ACAD_ISO12W100
 70
    64
  3
__ . . __ . . __ . . __ . . __ . . __ . . __ .
 72
    65
 73
     6
 40
22.0
 49
12.0
 49
-3.0
 49
0.5
 49
-3.0
 49
0.5
 49
-3.0
  0
LTYPE
  2
ACAD_ISO13W100
 70
    64
  3
__ __ . . __ __ . . __ __ . . __ __ . . __ __ .
 72
    65
 73
     8
 40
37.0
 49
12.0
 49
-3.0
 49
12.0
 49
-3.0
 49
0.5
 49
-3.0
 49
0.5
 49
-3.0
  0
LTYPE
  2
ACAD_ISO14W100
 70
    64
  3
__ . . . __ . . . __ . . . __ . . . __ . . . __
 72
    65
 73
     8
 40
25.5
 49
12.0
 49
-3.0
 49
0.5
 49
-3.0
 49
0.5
 49
-3.0
 49
0.5
 49
-3.0
  0
LTYPE
  2
ACAD_ISO15W100
 70
    64
  3
__ __ . . . __ __ . . . __ __ . . . __ __ . . .
 72
    65
 73
    10
 40
40.5
 49
12.0
 49
-3.0
 49
12.0
 49
-3.0
 49
0.5
 49
-3.0
 49
0.5
 49
-3.0
 49
0.5
 49
-3.0
  0
ENDTAB
  0
TABLE
  2
STYLE
 70
     4
  0
STYLE
  2
STANDARD
 70
    64
 40
0.0
 41
1.0
 50
0.0
 71
     0
 42
0.2
  3
txt
  4

  0
STYLE
  2
TOLERANCE
 70
    64
 40
0.0
 41
1.0
 50
0.0
 71
     0
 42
0.2
  3
../igesfont/iges1003.shx
  4

  0
STYLE
  2
ROMANS
 70
    64
 40
0.0
 41
1.0
 50
0.0
 71
     0
 42
0.2
  3
romans.shx
  4

  0
STYLE
  2
ROMANC
 70
    64
 40
0.0
 41
1.0
 50
0.0
 71
     0
 42
0.2
  3
romanc.shx
  4

  0
ENDTAB
  0
TABLE
  2
DIMSTYLE
 70
     2
  0
DIMSTYLE
  2
UNNAMED
 70
     0
  3

  4

  5

  6

  7

 40
1.0
 41
0.18
 42
0.0625
 43
0.38
 44
0.18
 45
0.0
 46
0.0
 47
0.0
 48
0.0
140
0.18
141
0.09
142
0.0
143
25.4
144
1.0
145
0.0
146
1.0
147
0.09
 71
     0
 72
     0
 73
     1
 74
     1
 75
     0
 76
     0
 77
     0
 78
     0
170
     0
171
     2
172
     0
173
     0
174
     0
175
     0
176
     0
177
     0
178
     0
  0
DIMSTYLE
  2
STANDARD
 70
     0
  3

  4

  5

  6

  7

 40
1.0
 41
0.18
 42
0.0625
 43
0.38
 44
0.18
 45
0.0
 46
0.0
 47
0.0
 48
0.0
140
0.18
141
0.09
142
0.0
143
25.4
144
1.0
145
0.0
146
1.0
147
0.09
 71
     0
 72
     0
 73
     1
 74
     1
 75
     0
 76
     0
 77
     0
 78
     0
170
     0
171
     2
172
     0
173
     0
174
     0
175
     0
176
     0
177
     0
178
     0
  0
ENDTAB
  0
TABLE
  2
LAYER
 70
     2
  0
LAYER
  2
0
 70
     0
 62
     7
  6
CONTINUOUS
  0
LAYER
  2
255
 70
     0
 62
     7
  6
CONTINUOUS
  0
ENDTAB
  0
ENDSEC
  0
SECTION
  2
BLOCKS
  0
BLOCK
  5
     B
  8
0
  6
CONTINUOUS
 62
     7
  2
MANIGLIA
 70
    64
 10
0.0
 20
0.0
 30
0.0
  3
MANIGLIA
  0
LINE
  5
     C
  8
0
  6
CONTINUOUS
 62
   218
 10
205.788955688477
 20
137.294494628906
 30
0.0
 11
207.664886474609
 21
136.725448608399
 31
0.0
  0
LINE
  5
     D
  8
0
  6
CONTINUOUS
 62
   218
 10
203.83805847168
 20
137.48664855957
 30
0.0
 11
205.788955688477
 21
137.294494628906
 31
0.0
  0
LINE
  5
     E
  8
0
  6
CONTINUOUS
 62
   218
 10
207.664886474609
 20
136.725448608398
 30
0.0
 11
209.393753051758
 21
135.801345825195
 31
0.0
  0
LINE
  5
     F
  8
0
  6
CONTINUOUS
 62
   218
 10
209.393753051758
 20
135.801345825195
 30
0.0
 11
209.83805847168
 21
135.436721801758
 31
0.0
  0
LINE
  5
    10
  8
0
  6
CONTINUOUS
 62
   218
 10
173.83805847168
 20
137.48664855957
 30
0.0
 11
179.83805847168
 21
137.48664855957
 31
0.0
  0
LINE
  5
    11
  8
0
  6
CONTINUOUS
 62
   218
 10
179.83805847168
 20
137.48664855957
 30
0.0
 11
203.83805847168
 21
137.48664855957
 31
0.0
  0
LINE
  5
    12
  8
0
  6
CONTINUOUS
 62
   218
 10
87.5320663452148
 20
137.48664855957
 30
0.0
 11
173.83805847168
 21
137.48664855957
 31
0.0
  0
LINE
  5
    13
  8
0
  6
CONTINUOUS
 62
   218
 10
75.8728408813476
 20
141.23664855957
 30
0.0
 11
77.9805297851562
 21
139.914855957031
 31
0.0
  0
LINE
  5
    14
  8
0
  6
CONTINUOUS
 62
   218
 10
77.9805297851563
 20
139.914855957031
 30
0.0
 11
80.2360076904297
 21
138.864959716797
 31
0.0
  0
LINE
  5
    15
  8
0
  6
CONTINUOUS
 62
   218
 10
80.2360076904297
 20
138.864959716797
 30
0.0
 11
82.6043853759766
 21
138.10319519043
 31
0.0
  0
LINE
  5
    16
  8
0
  6
CONTINUOUS
 62
   218
 10
82.6043853759766
 20
138.10319519043
 30
0.0
 11
85.0490188598633
 21
137.641387939453
 31
0.0
  0
LINE
  5
    17
  8
0
  6
CONTINUOUS
 62
   218
 10
85.0490188598633
 20
137.641387939453
 30
0.0
 11
87.5320663452148
 21
137.48664855957
 31
0.0
  0
LINE
  5
    18
  8
0
  6
CONTINUOUS
 62
   218
 10
74.906494140625
 20
141.746353149414
 30
0.0
 11
75.8728408813477
 21
141.23664855957
 31
0.0
  0
LINE
  5
    19
  8
0
  6
CONTINUOUS
 62
   218
 10
73.8382720947266
 20
141.9755859375
 30
0.0
 11
74.906494140625
 21
141.746353149414
 31
0.0
  0
LINE
  5
    1A
  8
0
  6
CONTINUOUS
 62
   218
 10
72.7478790283203
 20
141.9072265625
 30
0.0
 11
73.8382720947265
 21
141.9755859375
 31
0.0
  0
LINE
  5
    1B
  8
0
  6
CONTINUOUS
 62
   218
 10
70.8215179443359
 20
140.919982910156
 30
0.0
 11
71.7166442871094
 21
141.54638671875
 31
0.0
  0
LINE
  5
    1C
  8
0
  6
CONTINUOUS
 62
   218
 10
71.7166442871094
 20
141.54638671875
 30
0.0
 11
72.7478790283203
 21
141.9072265625
 31
0.0
  0
LINE
  5
    1D
  8
0
  6
CONTINUOUS
 62
   218
 10
66.7888107299804
 20
136.186340332031
 30
0.0
 11
68.6658325195312
 21
138.671859741211
 31
0.0
  0
LINE
  5
    1E
  8
0
  6
CONTINUOUS
 62
   218
 10
66.3380584716797
 20
135.415618896484
 30
0.0
 11
66.7888107299805
 21
136.186340332031
 31
0.0
  0
LINE
  5
    1F
  8
0
  6
CONTINUOUS
 62
   218
 10
68.6658325195312
 20
138.671859741211
 30
0.0
 11
70.8215179443359
 21
140.919982910156
 31
0.0
  0
LINE
  5
    20
  8
0
  6
CONTINUOUS
 62
   218
 10
66.7888107299805
 20
106.786964416504
 30
0.0
 11
68.6658325195313
 21
104.30143737793
 31
0.0
  0
LINE
  5
    21
  8
0
  6
CONTINUOUS
 62
   218
 10
66.3380584716797
 20
107.557678222656
 30
0.0
 11
66.7888107299805
 21
106.786964416504
 31
0.0
  0
LINE
  5
    22
  8
0
  6
CONTINUOUS
 62
   218
 10
68.6658325195313
 20
104.30143737793
 30
0.0
 11
70.8215179443359
 21
102.053314208984
 31
0.0
  0
LINE
  5
    23
  8
0
  6
CONTINUOUS
 62
   218
 10
74.906494140625
 20
101.226936340332
 30
0.0
 11
75.8728408813477
 21
101.73664855957
 31
0.0
  0
LINE
  5
    24
  8
0
  6
CONTINUOUS
 62
   218
 10
73.8382720947266
 20
100.997711181641
 30
0.0
 11
74.906494140625
 21
101.226936340332
 31
0.0
  0
LINE
  5
    25
  8
0
  6
CONTINUOUS
 62
   218
 10
71.7166442871094
 20
101.426910400391
 30
0.0
 11
72.7478790283203
 21
101.066062927246
 31
0.0
  0
LINE
  5
    26
  8
0
  6
CONTINUOUS
 62
   218
 10
70.821517944336
 20
102.053314208984
 30
0.0
 11
71.7166442871094
 21
101.426910400391
 31
0.0
  0
LINE
  5
    27
  8
0
  6
CONTINUOUS
 62
   218
 10
72.7478790283203
 20
101.066062927246
 30
0.0
 11
73.8382720947266
 21
100.997711181641
 31
0.0
  0
LINE
  5
    28
  8
0
  6
CONTINUOUS
 62
   218
 10
75.8728408813477
 20
101.73664855957
 30
0.0
 11
77.9805297851563
 21
103.058448791504
 31
0.0
  0
LINE
  5
    29
  8
0
  6
CONTINUOUS
 62
   218
 10
77.9805297851563
 20
103.058448791504
 30
0.0
 11
80.2360076904297
 21
104.108345031738
 31
0.0
  0
LINE
  5
    2A
  8
0
  6
CONTINUOUS
 62
   218
 10
85.0490188598633
 20
105.331909179688
 30
0.0
 11
87.5320663452148
 21
105.48664855957
 31
0.0
  0
LINE
  5
    2B
  8
0
  6
CONTINUOUS
 62
   218
 10
82.6043853759766
 20
104.870094299316
 30
0.0
 11
85.0490188598633
 21
105.331909179688
 31
0.0
  0
LINE
  5
    2C
  8
0
  6
CONTINUOUS
 62
   218
 10
80.2360076904297
 20
104.108345031738
 30
0.0
 11
82.6043853759766
 21
104.870094299316
 31
0.0
  0
LINE
  5
    2D
  8
0
  6
CONTINUOUS
 62
   218
 10
87.5320663452148
 20
105.48664855957
 30
0.0
 11
173.83805847168
 21
105.48664855957
 31
0.0
  0
LINE
  5
    2E
  8
0
  6
CONTINUOUS
 62
   218
 10
173.83805847168
 20
105.48664855957
 30
0.0
 11
179.83805847168
 21
105.48664855957
 31
0.0
  0
LINE
  5
    2F
  8
0
  6
CONTINUOUS
 62
   218
 10
179.83805847168
 20
105.48664855957
 30
0.0
 11
203.83805847168
 21
105.48664855957
 31
0.0
  0
LINE
  5
    30
  8
0
  6
CONTINUOUS
 62
   218
 10
207.664886474609
 20
106.247856140137
 30
0.0
 11
209.393753051758
 21
107.171951293945
 31
0.0
  0
LINE
  5
    31
  8
0
  6
CONTINUOUS
 62
   218
 10
205.788955688477
 20
105.67879486084
 30
0.0
 11
207.664886474609
 21
106.247856140137
 31
0.0
  0
LINE
  5
    32
  8
0
  6
CONTINUOUS
 62
   218
 10
209.393753051758
 20
107.171951293945
 30
0.0
 11
209.83805847168
 21
107.536575317383
 31
0.0
  0
LINE
  5
    33
  8
0
  6
CONTINUOUS
 62
   218
 10
203.83805847168
 20
105.48664855957
 30
0.0
 11
205.788955688477
 21
105.67879486084
 31
0.0
  0
LINE
  5
    34
  8
0
  6
CONTINUOUS
 62
   218
 10
212.189193725586
 20
132.974166870117
 30
0.0
 11
213.074127197266
 21
131.318588256836
 31
0.0
  0
LINE
  5
    35
  8
0
  6
CONTINUOUS
 62
   218
 10
211.074127197266
 20
134.356658935547
 30
0.0
 11
212.152755737305
 21
133.042343139648
 31
0.0
  0
LINE
  5
    36
  8
0
  6
CONTINUOUS
 62
   218
 10
210.909118652344
 20
134.557708740234
 30
0.0
 11
211.074127197266
 21
134.356658935547
 31
0.0
  0
LINE
  5
    37
  8
0
  6
CONTINUOUS
 62
   218
 10
212.152755737305
 20
133.042343139649
 30
0.0
 11
212.189193725586
 21
132.974166870117
 31
0.0
  0
LINE
  5
    38
  8
0
  6
CONTINUOUS
 62
   218
 10
213.642288208008
 20
129.449508666992
 30
0.0
 11
213.645904541016
 21
129.437545776367
 31
0.0
  0
LINE
  5
    39
  8
0
  6
CONTINUOUS
 62
   218
 10
209.83805847168
 20
135.436721801758
 30
0.0
 11
210.909118652344
 21
134.557708740234
 31
0.0
  0
LINE
  5
    3A
  8
0
  6
CONTINUOUS
 62
   218
 10
213.645904541016
 20
129.437545776367
 30
0.0
 11
213.83805847168
 21
127.48664855957
 31
0.0
  0
LINE
  5
    3B
  8
0
  6
CONTINUOUS
 62
   218
 10
213.076858520508
 20
131.3134765625
 30
0.0
 11
213.642288208008
 21
129.449508666992
 31
0.0
  0
LINE
  5
    3C
  8
0
  6
CONTINUOUS
 62
   218
 10
213.074127197266
 20
131.318588256836
 30
0.0
 11
213.076858520508
 21
131.3134765625
 31
0.0
  0
LINE
  5
    3D
  8
0
  6
CONTINUOUS
 62
   218
 10
213.645904541016
 20
113.535743713379
 30
0.0
 11
213.83805847168
 21
115.486648559571
 31
0.0
  0
LINE
  5
    3E
  8
0
  6
CONTINUOUS
 62
   218
 10
212.189193725586
 20
109.999130249024
 30
0.0
 11
213.074127197266
 21
111.654708862305
 31
0.0
  0
LINE
  5
    3F
  8
0
  6
CONTINUOUS
 62
   218
 10
209.83805847168
 20
107.536575317383
 30
0.0
 11
210.909118652344
 21
108.415580749512
 31
0.0
  0
LINE
  5
    40
  8
0
  6
CONTINUOUS
 62
   218
 10
211.074127197266
 20
108.616630554199
 30
0.0
 11
212.152755737305
 21
109.930946350098
 31
0.0
  0
LINE
  5
    41
  8
0
  6
CONTINUOUS
 62
   218
 10
213.076858520508
 20
111.659812927246
 30
0.0
 11
213.642288208008
 21
113.523788452149
 31
0.0
  0
LINE
  5
    42
  8
0
  6
CONTINUOUS
 62
   218
 10
213.074127197266
 20
111.654708862305
 30
0.0
 11
213.076858520508
 21
111.659812927246
 31
0.0
  0
LINE
  5
    43
  8
0
  6
CONTINUOUS
 62
   218
 10
212.152755737305
 20
109.930946350098
 30
0.0
 11
212.189193725586
 21
109.999130249023
 31
0.0
  0
LINE
  5
    44
  8
0
  6
CONTINUOUS
 62
   218
 10
210.909118652344
 20
108.415580749512
 30
0.0
 11
211.074127197266
 21
108.616630554199
 31
0.0
  0
LINE
  5
    45
  8
0
  6
CONTINUOUS
 62
   218
 10
213.642288208008
 20
113.523788452149
 30
0.0
 11
213.645904541016
 21
113.535743713379
 31
0.0
  0
LINE
  5
    46
  8
0
  6
CONTINUOUS
 62
   218
 10
213.83805847168
 20
115.48664855957
 30
0.0
 11
213.83805847168
 21
127.48664855957
 31
0.0
  0
LINE
  5
    47
  8
0
  6
CONTINUOUS
 62
   218
 10
62.5210952758789
 20
118.377380371094
 30
0.0
 11
62.5338287353516
 21
118.305938720703
 31
0.0
  0
LINE
  5
    48
  8
0
  6
CONTINUOUS
 62
   218
 10
63.9869155883789
 20
130.681365966797
 30
0.0
 11
65.1019897460938
 21
133.235702514648
 31
0.0
  0
LINE
  5
    49
  8
0
  6
CONTINUOUS
 62
   218
 10
62.5210952758789
 20
124.595916748047
 30
0.0
 11
62.5338287353516
 21
124.667358398438
 31
0.0
  0
LINE
  5
    4A
  8
0
  6
CONTINUOUS
 62
   218
 10
63.9869155883789
 20
112.291923522949
 30
0.0
 11
65.1019897460937
 21
109.737594604492
 31
0.0
  0
LINE
  5
    4B
  8
0
  6
CONTINUOUS
 62
   218
 10
63.9702682495117
 20
112.330062866211
 30
0.0
 11
63.9869155883789
 21
112.291923522949
 31
0.0
  0
LINE
  5
    4C
  8
0
  6
CONTINUOUS
 62
   218
 10
65.2163848876953
 20
133.497741699219
 30
0.0
 11
66.3380584716797
 21
135.415618896484
 31
0.0
  0
LINE
  5
    4D
  8
0
  6
CONTINUOUS
 62
   218
 10
62.3380546569824
 20
121.48664855957
 30
0.0
 11
62.5210952758789
 21
124.595916748047
 31
0.0
  0
LINE
  5
    4E
  8
0
  6
CONTINUOUS
 62
   218
 10
62.3380546569824
 20
121.486648559571
 30
0.0
 11
62.5210952758789
 21
118.377380371094
 31
0.0
  0
LINE
  5
    4F
  8
0
  6
CONTINUOUS
 62
   218
 10
65.2163848876953
 20
109.475547790527
 30
0.0
 11
66.3380584716797
 21
107.557678222656
 31
0.0
  0
LINE
  5
    50
  8
0
  6
CONTINUOUS
 62
   218
 10
63.1019897460938
 20
115.197761535645
 30
0.0
 11
63.9702682495117
 21
112.330062866211
 31
0.0
  0
LINE
  5
    51
  8
0
  6
CONTINUOUS
 62
   218
 10
63.1019897460938
 20
127.775535583496
 30
0.0
 11
63.9702682495117
 21
130.64323425293
 31
0.0
  0
LINE
  5
    52
  8
0
  6
CONTINUOUS
 62
   218
 10
65.1019897460938
 20
133.235702514648
 30
0.0
 11
65.2163848876953
 21
133.497741699219
 31
0.0
  0
LINE
  5
    53
  8
0
  6
CONTINUOUS
 62
   218
 10
63.0676803588867
 20
115.311065673828
 30
0.0
 11
63.1019897460938
 21
115.197761535645
 31
0.0
  0
LINE
  5
    54
  8
0
  6
CONTINUOUS
 62
   218
 10
63.9702682495117
 20
130.64323425293
 30
0.0
 11
63.9869155883789
 21
130.681365966797
 31
0.0
  0
LINE
  5
    55
  8
0
  6
CONTINUOUS
 62
   218
 10
62.5338287353516
 20
124.667358398438
 30
0.0
 11
63.0676803588867
 21
127.662231445313
 31
0.0
  0
LINE
  5
    56
  8
0
  6
CONTINUOUS
 62
   218
 10
62.5338287353516
 20
118.305938720703
 30
0.0
 11
63.0676803588867
 21
115.311065673828
 31
0.0
  0
LINE
  5
    57
  8
0
  6
CONTINUOUS
 62
   218
 10
63.0676803588867
 20
127.662231445313
 30
0.0
 11
63.1019897460938
 21
127.775535583496
 31
0.0
  0
LINE
  5
    58
  8
0
  6
CONTINUOUS
 62
   218
 10
65.1019897460938
 20
109.737594604492
 30
0.0
 11
65.2163848876953
 21
109.475547790527
 31
0.0
  0
LINE
  5
    59
  8
0
  6
CONTINUOUS
 62
   218
 10
63.588737487793
 20
129.383148193359
 30
0.0
 11
63.6350593566895
 21
129.675598144531
 31
0.0
  0
LINE
  5
    5A
  8
0
  6
CONTINUOUS
 62
   218
 10
67.2918395996094
 20
136.852447509766
 30
0.0
 11
67.3991088867187
 21
137.062957763672
 31
0.0
  0
LINE
  5
    5B
  8
0
  6
CONTINUOUS
 62
   218
 10
67.3991088867188
 20
105.910339355469
 30
0.0
 11
67.6103439331055
 21
105.699104309082
 31
0.0
  0
LINE
  5
    5C
  8
0
  6
CONTINUOUS
 62
   218
 10
73.2617492675781
 20
142.925598144531
 30
0.0
 11
80.6491088867187
 21
146.689651489258
 31
0.0
  0
LINE
  5
    5D
  8
0
  6
CONTINUOUS
 62
   218
 10
63.6350593566894
 20
113.297698974609
 30
0.0
 11
63.7391319274902
 21
113.093444824219
 31
0.0
  0
LINE
  5
    5E
  8
0
  6
CONTINUOUS
 62
   218
 10
80.6491088867187
 20
146.689651489258
 30
0.0
 11
88.8380584716797
 21
147.98664855957
 31
0.0
  0
LINE
  5
    5F
  8
0
  6
CONTINUOUS
 62
   218
 10
88.8380584716797
 20
147.98664855957
 30
0.0
 11
97.0270080566406
 21
146.689651489258
 31
0.0
  0
LINE
  5
    60
  8
0
  6
CONTINUOUS
 62
   218
 10
73.2617492675781
 20
100.047698974609
 30
0.0
 11
80.6491088867188
 21
96.2836532592774
 31
0.0
  0
LINE
  5
    61
  8
0
  6
CONTINUOUS
 62
   218
 10
97.0270080566406
 20
146.689651489258
 30
0.0
 11
104.414367675781
 21
142.925598144531
 31
0.0
  0
LINE
  5
    62
  8
0
  6
CONTINUOUS
 62
   218
 10
104.414367675781
 20
100.047698974609
 30
0.0
 11
109.853317260742
 21
105.48664855957
 31
0.0
  0
LINE
  5
    63
  8
0
  6
CONTINUOUS
 62
   218
 10
97.0270080566406
 20
96.2836532592774
 30
0.0
 11
104.414367675781
 21
100.047698974609
 31
0.0
  0
LINE
  5
    64
  8
0
  6
CONTINUOUS
 62
   218
 10
71.9718246459961
 20
141.635681152344
 30
0.0
 11
73.2617492675781
 21
142.925598144531
 31
0.0
  0
LINE
  5
    65
  8
0
  6
CONTINUOUS
 62
   218
 10
71.9718246459961
 20
101.337615966797
 30
0.0
 11
73.2617492675781
 21
100.047698974609
 31
0.0
  0
LINE
  5
    66
  8
0
  6
CONTINUOUS
 62
   218
 10
67.2918395996094
 20
106.12085723877
 30
0.0
 11
67.3991088867188
 21
105.910339355469
 31
0.0
  0
LINE
  5
    67
  8
0
  6
CONTINUOUS
 62
   218
 10
63.588737487793
 20
113.590156555176
 30
0.0
 11
63.6350593566894
 21
113.297698974609
 31
0.0
  0
LINE
  5
    68
  8
0
  6
CONTINUOUS
 62
   218
 10
63.6350593566894
 20
129.675598144531
 30
0.0
 11
63.7391319274902
 21
129.879852294922
 31
0.0
  0
LINE
  5
    69
  8
0
  6
CONTINUOUS
 62
   218
 10
67.3991088867188
 20
137.062957763672
 30
0.0
 11
67.6103439331055
 21
137.274200439453
 31
0.0
  0
LINE
  5
    6A
  8
0
  6
CONTINUOUS
 62
   218
 10
104.414367675781
 20
142.925598144531
 30
0.0
 11
109.853317260742
 21
137.48664855957
 31
0.0
  0
LINE
  5
    6B
  8
0
  6
CONTINUOUS
 62
   218
 10
80.6491088867187
 20
96.2836532592774
 30
0.0
 11
88.8380584716797
 21
94.9866485595703
 31
0.0
  0
LINE
  5
    6C
  8
0
  6
CONTINUOUS
 62
   218
 10
88.8380584716797
 20
94.9866485595704
 30
0.0
 11
97.0270080566407
 21
96.2836532592774
 31
0.0
  0
LINE
  5
    6D
  8
0
  6
CONTINUOUS
 62
   218
 10
80.5380554199219
 20
117.23664855957
 30
0.0
 11
80.5380554199219
 21
125.73664855957
 31
0.0
  0
LINE
  5
    6E
  8
0
  6
CONTINUOUS
 62
   218
 10
72.3380584716797
 20
121.48664855957
 30
0.0
 11
80.5380554199219
 21
125.73664855957
 31
0.0
  0
LINE
  5
    6F
  8
0
  6
CONTINUOUS
 62
   218
 10
72.3380584716797
 20
121.48664855957
 30
0.0
 11
80.5380554199219
 21
117.23664855957
 31
0.0
  0
LINE
  5
    70
  8
0
  6
CONTINUOUS
 62
   218
 10
125.588981628418
 20
113.705055236816
 30
0.0
 11
127.578742980957
 21
115.429183959961
 31
0.0
  0
LINE
  5
    71
  8
0
  6
CONTINUOUS
 62
   218
 10
127.578742980957
 20
115.429183959961
 30
0.0
 11
129.002151489258
 21
117.644058227539
 31
0.0
  0
LINE
  5
    72
  8
0
  6
CONTINUOUS
 62
   218
 10
120.58805847168
 20
112.23664855957
 30
0.0
 11
123.19408416748
 21
112.611335754395
 31
0.0
  0
LINE
  5
    73
  8
0
  6
CONTINUOUS
 62
   218
 10
120.58805847168
 20
130.73664855957
 30
0.0
 11
123.19408416748
 21
130.361953735352
 31
0.0
  0
LINE
  5
    74
  8
0
  6
CONTINUOUS
 62
   218
 10
123.19408416748
 20
112.611335754395
 30
0.0
 11
125.588981628418
 21
113.705055236816
 31
0.0
  0
LINE
  5
    75
  8
0
  6
CONTINUOUS
 62
   218
 10
123.19408416748
 20
130.361953735352
 30
0.0
 11
125.588981628418
 21
129.268249511719
 31
0.0
  0
LINE
  5
    76
  8
0
  6
CONTINUOUS
 62
   218
 10
125.588981628418
 20
129.268249511719
 30
0.0
 11
127.578742980957
 21
127.54411315918
 31
0.0
  0
LINE
  5
    77
  8
0
  6
CONTINUOUS
 62
   218
 10
127.578742980957
 20
127.54411315918
 30
0.0
 11
129.002151489258
 21
125.329238891602
 31
0.0
  0
LINE
  5
    78
  8
0
  6
CONTINUOUS
 62
   218
 10
129.002151489258
 20
125.329238891602
 30
0.0
 11
129.743911743164
 21
122.803062438965
 31
0.0
  0
LINE
  5
    79
  8
0
  6
CONTINUOUS
 62
   218
 10
129.743911743164
 20
120.170234680176
 30
0.0
 11
129.743911743164
 21
122.803062438965
 31
0.0
  0
LINE
  5
    7A
  8
0
  6
CONTINUOUS
 62
   218
 10
129.002151489258
 20
117.644058227539
 30
0.0
 11
129.743911743164
 21
120.170234680176
 31
0.0
  0
LINE
  5
    7B
  8
0
  6
CONTINUOUS
 62
   218
 10
74.5880584716797
 20
130.73664855957
 30
0.0
 11
120.58805847168
 21
130.73664855957
 31
0.0
  0
LINE
  5
    7C
  8
0
  6
CONTINUOUS
 62
   218
 10
66.3380584716797
 20
117.388717651367
 30
0.0
 11
67.5973739624023
 21
115.429183959961
 31
0.0
  0
LINE
  5
    7D
  8
0
  6
CONTINUOUS
 62
   218
 10
71.9820327758789
 20
130.361953735352
 30
0.0
 11
74.5880584716797
 21
130.73664855957
 31
0.0
  0
LINE
  5
    7E
  8
0
  6
CONTINUOUS
 62
   218
 10
69.5871276855469
 20
129.268249511719
 30
0.0
 11
71.9820327758789
 21
130.361953735352
 31
0.0
  0
LINE
  5
    7F
  8
0
  6
CONTINUOUS
 62
   218
 10
67.5973739624023
 20
115.429183959961
 30
0.0
 11
69.5871276855469
 21
113.705055236816
 31
0.0
  0
LINE
  5
    80
  8
0
  6
CONTINUOUS
 62
   218
 10
66.3380584716797
 20
125.584571838379
 30
0.0
 11
67.5973739624024
 21
127.54411315918
 31
0.0
  0
LINE
  5
    81
  8
0
  6
CONTINUOUS
 62
   218
 10
67.5973739624023
 20
127.54411315918
 30
0.0
 11
69.5871276855469
 21
129.268249511719
 31
0.0
  0
LINE
  5
    82
  8
0
  6
CONTINUOUS
 62
   218
 10
71.9820327758789
 20
112.611335754395
 30
0.0
 11
74.5880584716797
 21
112.23664855957
 31
0.0
  0
LINE
  5
    83
  8
0
  6
CONTINUOUS
 62
   218
 10
69.5871276855469
 20
113.705055236816
 30
0.0
 11
71.9820327758789
 21
112.611335754395
 31
0.0
  0
LINE
  5
    84
  8
0
  6
CONTINUOUS
 62
   218
 10
65.4322052001953
 20
122.803062438965
 30
0.0
 11
66.173957824707
 21
125.329238891602
 31
0.0
  0
LINE
  5
    85
  8
0
  6
CONTINUOUS
 62
   218
 10
65.4322052001953
 20
120.170234680176
 30
0.0
 11
65.4322052001953
 21
122.803062438965
 31
0.0
  0
LINE
  5
    86
  8
0
  6
CONTINUOUS
 62
   218
 10
66.173957824707
 20
117.644058227539
 30
0.0
 11
66.3380584716797
 21
117.388717651367
 31
0.0
  0
LINE
  5
    87
  8
0
  6
CONTINUOUS
 62
   218
 10
65.4322052001953
 20
120.170234680176
 30
0.0
 11
66.173957824707
 21
117.644058227539
 31
0.0
  0
LINE
  5
    88
  8
0
  6
CONTINUOUS
 62
   218
 10
66.173957824707
 20
125.329238891602
 30
0.0
 11
66.3380584716797
 21
125.584571838379
 31
0.0
  0
LINE
  5
    89
  8
0
  6
CONTINUOUS
 62
   218
 10
74.5880584716797
 20
112.23664855957
 30
0.0
 11
120.58805847168
 21
112.23664855957
 31
0.0
  0
LINE
  5
    8A
  8
0
  6
CONTINUOUS
 62
   218
 10
72.2637634277344
 20
113.570831298828
 30
0.0
 11
74.5880584716797
 21
113.23664855957
 31
0.0
  0
LINE
  5
    8B
  8
0
  6
CONTINUOUS
 62
   218
 10
66.4220275878906
 20
120.312553405762
 30
0.0
 11
67.0835952758789
 21
118.059471130371
 31
0.0
  0
LINE
  5
    8C
  8
0
  6
CONTINUOUS
 62
   218
 10
70.1277694702148
 20
114.54630279541
 30
0.0
 11
72.2637634277344
 21
113.570831298828
 31
0.0
  0
LINE
  5
    8D
  8
0
  6
CONTINUOUS
 62
   218
 10
68.3531188964844
 20
116.084045410156
 30
0.0
 11
70.1277694702149
 21
114.54630279541
 31
0.0
  0
LINE
  5
    8E
  8
0
  6
CONTINUOUS
 62
   218
 10
66.4220275878906
 20
122.660743713379
 30
0.0
 11
67.0835952758789
 21
124.913818359375
 31
0.0
  0
LINE
  5
    8F
  8
0
  6
CONTINUOUS
 62
   218
 10
67.0835952758789
 20
124.913818359375
 30
0.0
 11
68.3531188964844
 21
126.889251708984
 31
0.0
  0
LINE
  5
    90
  8
0
  6
CONTINUOUS
 62
   218
 10
68.3531188964844
 20
126.889251708984
 30
0.0
 11
70.1277694702148
 21
128.426986694336
 31
0.0
  0
LINE
  5
    91
  8
0
  6
CONTINUOUS
 62
   218
 10
70.1277694702148
 20
128.426986694336
 30
0.0
 11
72.2637634277344
 21
129.402465820313
 31
0.0
  0
LINE
  5
    92
  8
0
  6
CONTINUOUS
 62
   218
 10
72.2637634277344
 20
129.402465820313
 30
0.0
 11
74.5880584716797
 21
129.73664855957
 31
0.0
  0
LINE
  5
    93
  8
0
  6
CONTINUOUS
 62
   218
 10
67.0835952758789
 20
118.059471130371
 30
0.0
 11
68.3531188964844
 21
116.084045410156
 31
0.0
  0
LINE
  5
    94
  8
0
  6
CONTINUOUS
 62
   218
 10
66.4220275878906
 20
120.312553405762
 30
0.0
 11
66.4220275878906
 21
122.660743713379
 31
0.0
  0
LINE
  5
    95
  8
0
  6
CONTINUOUS
 62
   218
 10
74.5880584716797
 20
129.73664855957
 30
0.0
 11
120.58805847168
 21
129.73664855957
 31
0.0
  0
LINE
  5
    96
  8
0
  6
CONTINUOUS
 62
   218
 10
122.912345886231
 20
129.402465820313
 30
0.0
 11
125.04833984375
 21
128.426986694336
 31
0.0
  0
LINE
  5
    97
  8
0
  6
CONTINUOUS
 62
   218
 10
126.82299041748
 20
126.889251708984
 30
0.0
 11
128.092514038086
 21
124.913818359375
 31
0.0
  0
LINE
  5
    98
  8
0
  6
CONTINUOUS
 62
   218
 10
125.04833984375
 20
128.426986694336
 30
0.0
 11
126.822990417481
 21
126.889251708984
 31
0.0
  0
LINE
  5
    99
  8
0
  6
CONTINUOUS
 62
   218
 10
120.58805847168
 20
129.73664855957
 30
0.0
 11
122.91234588623
 21
129.402465820313
 31
0.0
  0
LINE
  5
    9A
  8
0
  6
CONTINUOUS
 62
   218
 10
128.092514038086
 20
124.913818359375
 30
0.0
 11
128.754089355469
 21
122.660743713379
 31
0.0
  0
LINE
  5
    9B
  8
0
  6
CONTINUOUS
 62
   218
 10
120.58805847168
 20
113.23664855957
 30
0.0
 11
122.91234588623
 21
113.570831298828
 31
0.0
  0
LINE
  5
    9C
  8
0
  6
CONTINUOUS
 62
   218
 10
128.754089355469
 20
120.312553405762
 30
0.0
 11
128.754089355469
 21
122.660743713379
 31
0.0
  0
LINE
  5
    9D
  8
0
  6
CONTINUOUS
 62
   218
 10
125.04833984375
 20
114.54630279541
 30
0.0
 11
126.82299041748
 21
116.084045410156
 31
0.0
  0
LINE
  5
    9E
  8
0
  6
CONTINUOUS
 62
   218
 10
122.91234588623
 20
113.570831298828
 30
0.0
 11
125.04833984375
 21
114.54630279541
 31
0.0
  0
LINE
  5
    9F
  8
0
  6
CONTINUOUS
 62
   218
 10
128.092514038086
 20
118.059471130371
 30
0.0
 11
128.754089355469
 21
120.312553405762
 31
0.0
  0
LINE
  5
    A0
  8
0
  6
CONTINUOUS
 62
   218
 10
126.82299041748
 20
116.084045410156
 30
0.0
 11
128.092514038086
 21
118.059471130371
 31
0.0
  0
LINE
  5
    A1
  8
0
  6
CONTINUOUS
 62
   218
 10
74.5880584716797
 20
113.23664855957
 30
0.0
 11
120.58805847168
 21
113.23664855957
 31
0.0
  0
ENDBLK
  5
    A2
  8
0
  6
CONTINUOUS
 62
     7
  0
BLOCK
  5
    A3
  8
0
  6
CONTINUOUS
 62
     7
  2
*UDIM267
 70
    65
 10
0.0
 20
0.0
 30
0.0
  3
*UDIM267
  0
TEXT
  5
    A4
  8
0
  6
CONTINUOUS
 62
     7
 10
-17.3648170009295
 20
-49.4284119479713
 30
0.0
 40
3.00000001532688
  1
90
 50
403.83778972012
 41
0.933333333333333
 72
     1
 11
-16.6004866813055
 21
-46.6149089269394
 31
0.0
 73
     2
  0
TEXT
  5
    A5
  8
0
  6
CONTINUOUS
 62
     7
 10
-14.1738706044954
 20
-45.5325344657896
 30
0.0
 40
3.00000001532688
  1
°
 50
403.83778972012
 41
0.933333333333333
 72
     1
 11
-14.419365280501
 21
-43.6886981391578
 31
0.0
 73
     2
  0
ARC
  5
    A6
  8
0
  6
CONTINUOUS
 62
     7
 10
-25.1957250689044
 20
-36.0755281017125
 30
0.0
 40
16.0553189307449
 50
269.999999844103
 51
359.999999792138
  0
LINE
  5
    A7
  8
0
  6
CONTINUOUS
 62
     7
 10
-22.2413017916975
 20
-51.6099026025057
 30
0.0
 11
-25.1957250689044
 21
-52.1308470324574
 31
0.0
  0
LINE
  5
    A8
  8
0
  6
CONTINUOUS
 62
     7
 10
-25.1957250689044
 20
-52.1308470324574
 30
0.0
 11
-22.2413017916975
 21
-52.651791462409
 31
0.0
  0
LINE
  5
    A9
  8
0
  6
CONTINUOUS
 62
     7
 10
-8.61946170820789
 20
-39.0299513789194
 30
0.0
 11
-9.14040613815955
 21
-36.0755281017125
 31
0.0
  0
LINE
  5
    AA
  8
0
  6
CONTINUOUS
 62
     7
 10
-9.14040613815955
 20
-36.0755281017125
 30
0.0
 11
-9.66135056811121
 21
-39.0299513789194
 31
0.0
  0
ENDBLK
  5
    AB
  8
0
  6
CONTINUOUS
 62
     7
  0
BLOCK
  5
    AC
  8
0
  6
CONTINUOUS
 62
     7
  2
*UDIM268
 70
    65
 10
0.0
 20
0.0
 30
0.0
  3
*UDIM268
  0
TEXT
  5
    AD
  8
0
  6
CONTINUOUS
 62
     7
 10
-60.5811904557193
 20
-44.2753384875615
 30
0.0
 40
3.00000001532688
  1
105
 50
89.9999999480344
 41
0.933333333333334
 72
     1
 11
-62.0811904598504
 21
-40.375338466278
 31
0.0
 73
     2
  0
LINE
  5
    AE
  8
0
  6
CONTINUOUS
 62
     7
 10
-37.2206619016103
 20
-58.4753425057693
 30
0.0
 11
-61.581190452187
 21
-58.4753425057693
 31
0.0
  0
LINE
  5
    AF
  8
0
  6
CONTINUOUS
 62
     7
 10
-37.2206619016103
 20
-21.7253355797106
 30
0.0
 11
-61.581190452187
 21
-21.7253355797106
 31
0.0
  0
LINE
  5
    B0
  8
0
  6
CONTINUOUS
 62
     7
 10
-59.581190452187
 20
-58.4753425057693
 30
0.0
 11
-59.581190452187
 21
-21.7253355797106
 31
0.0
  0
LINE
  5
    B1
  8
0
  6
CONTINUOUS
 62
     7
 10
-60.1021348821387
 20
-55.5209192285623
 30
0.0
 11
-59.581190452187
 21
-58.4753425057693
 31
0.0
  0
LINE
  5
    B2
  8
0
  6
CONTINUOUS
 62
     7
 10
-59.581190452187
 20
-58.4753425057693
 30
0.0
 11
-59.0602460222353
 21
-55.5209192285623
 31
0.0
  0
LINE
  5
    B3
  8
0
  6
CONTINUOUS
 62
     7
 10
-59.0602460222353
 20
-24.6797588569176
 30
0.0
 11
-59.581190452187
 21
-21.7253355797106
 31
0.0
  0
LINE
  5
    B4
  8
0
  6
CONTINUOUS
 62
     7
 10
-59.581190452187
 20
-21.7253355797106
 30
0.0
 11
-60.1021348821387
 21
-24.6797588569176
 31
0.0
  0
ENDBLK
  5
    B5
  8
0
  6
CONTINUOUS
 62
     7
  0
BLOCK
  5
    B6
  8
0
  6
CONTINUOUS
 62
     7
  2
*UDIM269
 70
    65
 10
0.0
 20
0.0
 30
0.0
  3
*UDIM269
  0
TEXT
  5
    B7
  8
0
  6
CONTINUOUS
 62
     7
 10
-53.5206237015305
 20
-54.950416737036
 30
0.0
 40
3.00000001532688
  1
36
 50
89.9999999480344
 41
0.933333333333333
 72
     1
 11
-55.0206237069297
 21
-52.450416722905
 31
0.0
 73
     2
  0
LINE
  5
    B8
  8
0
  6
CONTINUOUS
 62
     7
 10
-37.2206619016103
 20
-58.4753425057693
 30
0.0
 11
-54.5206236992663
 21
-58.4753425057693
 31
0.0
  0
LINE
  5
    B9
  8
0
  6
CONTINUOUS
 62
     7
 10
-52.5206236992663
 20
-58.4753425057693
 30
0.0
 11
-52.5206236992663
 21
-45.8754908829906
 31
0.0
  0
LINE
  5
    BA
  8
0
  6
CONTINUOUS
 62
     7
 10
-53.0415681292179
 20
-55.5209192285623
 30
0.0
 11
-52.5206236992663
 21
-58.4753425057693
 31
0.0
  0
LINE
  5
    BB
  8
0
  6
CONTINUOUS
 62
     7
 10
-52.5206236992663
 20
-58.4753425057693
 30
0.0
 11
-51.9996792693146
 21
-55.5209192285623
 31
0.0
  0
LINE
  5
    BC
  8
0
  6
CONTINUOUS
 62
     7
 10
-51.9996792693146
 20
-48.8299141601975
 30
0.0
 11
-52.5206236992663
 21
-45.8754908829906
 31
0.0
  0
LINE
  5
    BD
  8
0
  6
CONTINUOUS
 62
     7
 10
-52.5206236992663
 20
-45.8754908829906
 30
0.0
 11
-53.0415681292179
 21
-48.8299141601975
 31
0.0
  0
ENDBLK
  5
    BE
  8
0
  6
CONTINUOUS
 62
     7
  0
BLOCK
  5
    BF
  8
0
  6
CONTINUOUS
 62
     7
  2
*UDIM270
 70
    65
 10
0.0
 20
0.0
 30
0.0
  3
*UDIM270
  0
TEXT
  5
    C0
  8
0
  6
CONTINUOUS
 62
     7
 10
-53.5206237015305
 20
-33.1005274466273
 30
0.0
 40
3.00000001532688
  1
28
 50
89.9999999480344
 41
0.933333333333333
 72
     1
 11
-55.0206237069297
 21
-30.6005274324964
 31
0.0
 73
     2
  0
LINE
  5
    C1
  8
0
  6
CONTINUOUS
 62
     7
 10
-36.1707571838199
 20
-36.0755281017125
 30
0.0
 11
-54.5206236992663
 21
-36.0755281017125
 31
0.0
  0
LINE
  5
    C2
  8
0
  6
CONTINUOUS
 62
     7
 10
-52.5206236992663
 20
-45.8754908829906
 30
0.0
 11
-52.5206236992663
 21
-28.100527419724
 31
0.0
  0
LINE
  5
    C3
  8
0
  6
CONTINUOUS
 62
     7
 10
-53.0415681292179
 20
-42.9210676057836
 30
0.0
 11
-52.5206236992663
 21
-45.8754908829906
 31
0.0
  0
LINE
  5
    C4
  8
0
  6
CONTINUOUS
 62
     7
 10
-52.5206236992663
 20
-45.8754908829906
 30
0.0
 11
-51.9996792693146
 21
-42.9210676057836
 31
0.0
  0
LINE
  5
    C5
  8
0
  6
CONTINUOUS
 62
     7
 10
-51.9996792693146
 20
-39.0299513789194
 30
0.0
 11
-52.5206236992663
 21
-36.0755281017125
 31
0.0
  0
LINE
  5
    C6
  8
0
  6
CONTINUOUS
 62
     7
 10
-52.5206236992663
 20
-36.0755281017125
 30
0.0
 11
-53.0415681292179
 21
-39.0299513789194
 31
0.0
  0
ENDBLK
  5
    C7
  8
0
  6
CONTINUOUS
 62
     7
  0
BLOCK
  5
    C8
  8
0
  6
CONTINUOUS
 62
     7
  2
*UDIM271
 70
    65
 10
0.0
 20
0.0
 30
0.0
  3
*UDIM271
  0
TEXT
  5
    C9
  8
0
  6
CONTINUOUS
 62
     7
 10
-22.3706632299329
 20
39.0216303697467
 30
0.0
 40
3.00000001532688
  1
105
 50
359.999999948034
 41
0.933333333333334
 72
     1
 11
-18.4706632086551
 21
40.5216303738926
 31
0.0
 73
     2
  0
LINE
  5
    CA
  8
0
  6
CONTINUOUS
 62
     7
 10
0.179337049347669
 20
-21.0753355439479
 30
0.0
 11
0.179337049347669
 21
40.0216303662291
 31
0.0
  0
LINE
  5
    CB
  8
0
  6
CONTINUOUS
 62
     7
 10
-36.5706618658475
 20
-21.0753355439479
 30
0.0
 11
-36.5706618658475
 21
40.0216303662291
 31
0.0
  0
LINE
  5
    CC
  8
0
  6
CONTINUOUS
 62
     7
 10
0.179337049347669
 20
38.0216303662291
 30
0.0
 11
-36.5706618658475
 21
38.0216303662291
 31
0.0
  0
LINE
  5
    CD
  8
0
  6
CONTINUOUS
 62
     7
 10
-2.77508622785929
 20
37.5006859362775
 30
0.0
 11
0.179337049347669
 21
38.0216303662291
 31
0.0
  0
LINE
  5
    CE
  8
0
  6
CONTINUOUS
 62
     7
 10
0.179337049347669
 20
38.0216303662291
 30
0.0
 11
-2.77508622785929
 21
38.5425747961808
 31
0.0
  0
LINE
  5
    CF
  8
0
  6
CONTINUOUS
 62
     7
 10
-33.6162385886406
 20
38.5425747961808
 30
0.0
 11
-36.5706618658475
 21
38.0216303662291
 31
0.0
  0
LINE
  5
    D0
  8
0
  6
CONTINUOUS
 62
     7
 10
-36.5706618658475
 20
38.0216303662291
 30
0.0
 11
-33.6162385886406
 21
37.5006859362775
 31
0.0
  0
ENDBLK
  5
    D1
  8
0
  6
CONTINUOUS
 62
     7
  0
BLOCK
  5
    D2
  8
0
  6
CONTINUOUS
 62
     7
  2
*UDIM272
 70
    65
 10
0.0
 20
0.0
 30
0.0
  3
*UDIM272
  0
TEXT
  5
    D3
  8
0
  6
CONTINUOUS
 62
     7
 10
-7.20596312614573
 20
33.4699311066518
 30
0.0
 40
3.00000001532688
  1
31
 50
359.999999948034
 41
0.933333333333333
 72
     1
 11
-4.70596311202041
 21
34.9699311120603
 31
0.0
 73
     2
  0
LINE
  5
    D4
  8
0
  6
CONTINUOUS
 62
     7
 10
0.179337049347669
 20
-21.0753355439479
 30
0.0
 11
0.179337049347669
 21
34.4699311043969
 31
0.0
  0
LINE
  5
    D5
  8
0
  6
CONTINUOUS
 62
     7
 10
0.179337049347669
 20
32.4699311043969
 30
0.0
 11
-10.6707248687744
 21
32.4699311043969
 31
0.0
  0
LINE
  5
    D6
  8
0
  6
CONTINUOUS
 62
     7
 10
-2.77508622785929
 20
31.9489866744452
 30
0.0
 11
0.179337049347669
 21
32.4699311043969
 31
0.0
  0
LINE
  5
    D7
  8
0
  6
CONTINUOUS
 62
     7
 10
0.179337049347669
 20
32.4699311043969
 30
0.0
 11
-2.77508622785929
 21
32.9908755343486
 31
0.0
  0
LINE
  5
    D8
  8
0
  6
CONTINUOUS
 62
     7
 10
-7.71630159156745
 20
32.9908755343486
 30
0.0
 11
-10.6707248687744
 21
32.4699311043969
 31
0.0
  0
LINE
  5
    D9
  8
0
  6
CONTINUOUS
 62
     7
 10
-10.6707248687744
 20
32.4699311043969
 30
0.0
 11
-7.71630159156745
 21
31.9489866744452
 31
0.0
  0
ENDBLK
  5
    DA
  8
0
  6
CONTINUOUS
 62
     7
  0
BLOCK
  5
    DB
  8
0
  6
CONTINUOUS
 62
     7
  2
*UDIM273
 70
    65
 10
0.0
 20
0.0
 30
0.0
  3
*UDIM273
  0
TEXT
  5
    DC
  8
0
  6
CONTINUOUS
 62
     7
 10
-23.3733677620024
 20
33.4699311091772
 30
0.0
 40
3.00000001532688
  1
41,5
 50
359.999999948034
 41
0.933333333333333
 72
     1
 11
-18.073367733572
 21
34.9699311120603
 31
0.0
 73
     2
  0
LINE
  5
    DD
  8
0
  6
CONTINUOUS
 62
     7
 10
-25.1957250689044
 20
-25.100495986797
 30
0.0
 11
-25.1957250689044
 21
34.4699311043969
 31
0.0
  0
LINE
  5
    DE
  8
0
  6
CONTINUOUS
 62
     7
 10
-10.6707248687744
 20
32.4699311043969
 30
0.0
 11
-25.1957250689044
 21
32.4699311043969
 31
0.0
  0
LINE
  5
    DF
  8
0
  6
CONTINUOUS
 62
     7
 10
-7.71630159156745
 20
32.9908755343486
 30
0.0
 11
-10.6707248687744
 21
32.4699311043969
 31
0.0
  0
LINE
  5
    E0
  8
0
  6
CONTINUOUS
 62
     7
 10
-10.6707248687744
 20
32.4699311043969
 30
0.0
 11
-7.71630159156745
 21
31.9489866744452
 31
0.0
  0
LINE
  5
    E1
  8
0
  6
CONTINUOUS
 62
     7
 10
-28.1501483461114
 20
31.9489866744452
 30
0.0
 11
-25.1957250689044
 21
32.4699311043969
 31
0.0
  0
LINE
  5
    E2
  8
0
  6
CONTINUOUS
 62
     7
 10
-25.1957250689044
 20
32.4699311043969
 30
0.0
 11
-28.1501483461114
 21
32.9908755343486
 31
0.0
  0
ENDBLK
  5
    E3
  8
0
  6
CONTINUOUS
 62
     7
  0
BLOCK
  5
    E4
  8
0
  6
CONTINUOUS
 62
     7
  2
*UDIM274
 70
    65
 10
0.0
 20
0.0
 30
0.0
  3
*UDIM274
  0
TEXT
  5
    E5
  8
0
  6
CONTINUOUS
 62
     7
 10
-14.8457267544002
 20
44.6700901807741
 30
0.0
 40
3.00000001532688
  1
210
 50
359.999999948034
 41
0.933333333333334
 72
     1
 11
-10.9457267331224
 21
46.1700901849199
 31
0.0
 73
     2
  0
LINE
  5
    E6
  8
0
  6
CONTINUOUS
 62
     7
 10
26.079271376133
 20
28.5369375288574
 30
0.0
 11
26.079271376133
 21
45.6700901772565
 31
0.0
  0
LINE
  5
    E7
  8
0
  6
CONTINUOUS
 62
     7
 10
-47.4207211136818
 20
28.5369375288574
 30
0.0
 11
-47.4207211136818
 21
45.6700901772565
 31
0.0
  0
LINE
  5
    E8
  8
0
  6
CONTINUOUS
 62
     7
 10
26.079271376133
 20
43.6700901772565
 30
0.0
 11
-47.4207211136818
 21
43.6700901772565
 31
0.0
  0
LINE
  5
    E9
  8
0
  6
CONTINUOUS
 62
     7
 10
23.124848098926
 20
43.1491457473048
 30
0.0
 11
26.079271376133
 21
43.6700901772565
 31
0.0
  0
LINE
  5
    EA
  8
0
  6
CONTINUOUS
 62
     7
 10
26.079271376133
 20
43.6700901772565
 30
0.0
 11
23.124848098926
 21
44.1910346072082
 31
0.0
  0
LINE
  5
    EB
  8
0
  6
CONTINUOUS
 62
     7
 10
-44.4662978364748
 20
44.1910346072082
 30
0.0
 11
-47.4207211136818
 21
43.6700901772565
 31
0.0
  0
LINE
  5
    EC
  8
0
  6
CONTINUOUS
 62
     7
 10
-47.4207211136818
 20
43.6700901772565
 30
0.0
 11
-44.4662978364748
 21
43.1491457473048
 31
0.0
  0
ENDBLK
  5
    ED
  8
0
  6
CONTINUOUS
 62
     7
  0
BLOCK
  5
    EE
  8
0
  6
CONTINUOUS
 62
     7
  2
*UDIM275
 70
    65
 10
0.0
 20
0.0
 30
0.0
  3
*UDIM275
  0
TEXT
  5
    EF
  8
0
  6
CONTINUOUS
 62
     7
 10
-75.1730209349496
 20
-47.1630464631173
 30
0.0
 40
3.00000001532688
  1
406
 50
89.9999999480344
 41
0.933333333333334
 72
     1
 11
-76.6730209390808
 21
-43.2630464418338
 31
0.0
 73
     2
  0
LINE
  5
    F0
  8
0
  6
CONTINUOUS
 62
     7
 10
-48.4207044274616
 20
-114.037957735657
 30
0.0
 11
-76.1730209314173
 21
-114.037957735657
 31
0.0
  0
LINE
  5
    F1
  8
0
  6
CONTINUOUS
 62
     7
 10
-47.8956984609175
 20
28.061866077291
 30
0.0
 11
-76.1730209314173
 21
28.061866077291
 31
0.0
  0
LINE
  5
    F2
  8
0
  6
CONTINUOUS
 62
     7
 10
-74.1730209314173
 20
-114.037957735657
 30
0.0
 11
-74.1730209314173
 21
28.061866077291
 31
0.0
  0
LINE
  5
    F3
  8
0
  6
CONTINUOUS
 62
     7
 10
-74.693965361369
 20
-111.083534458451
 30
0.0
 11
-74.1730209314173
 21
-114.037957735657
 31
0.0
  0
LINE
  5
    F4
  8
0
  6
CONTINUOUS
 62
     7
 10
-74.1730209314173
 20
-114.037957735657
 30
0.0
 11
-73.6520765014657
 21
-111.083534458451
 31
0.0
  0
LINE
  5
    F5
  8
0
  6
CONTINUOUS
 62
     7
 10
-73.6520765014657
 20
25.1074428000841
 30
0.0
 11
-74.1730209314173
 21
28.061866077291
 31
0.0
  0
LINE
  5
    F6
  8
0
  6
CONTINUOUS
 62
     7
 10
-74.1730209314173
 20
28.061866077291
 30
0.0
 11
-74.693965361369
 21
25.1074428000841
 31
0.0
  0
ENDBLK
  5
    F7
  8
0
  6
CONTINUOUS
 62
     7
  0
BLOCK
  5
    F8
  8
0
  6
CONTINUOUS
 62
     7
  2
*UDIM276
 70
    65
 10
0.0
 20
0.0
 30
0.0
  3
*UDIM276
  0
TEXT
  5
    F9
  8
0
  6
CONTINUOUS
 62
     7
 10
-67.8771056991385
 20
-17.2818125158392
 30
0.0
 40
3.00000001532688
  1
211,25
 50
89.9999999480344
 41
0.933333333333333
 72
     1
 11
-69.3771056994656
 21
-9.18181247309809
 31
0.0
 73
     2
  0
LINE
  5
    FA
  8
0
  6
CONTINUOUS
 62
     7
 10
-56.1933957900827
 20
-45.8754908829906
 30
0.0
 11
-68.8771056918022
 21
-45.8754908829906
 31
0.0
  0
LINE
  5
    FB
  8
0
  6
CONTINUOUS
 62
     7
 10
-47.8956984609175
 20
28.061866077291
 30
0.0
 11
-68.8771056918022
 21
28.061866077291
 31
0.0
  0
LINE
  5
    FC
  8
0
  6
CONTINUOUS
 62
     7
 10
-66.8771056918022
 20
-45.8754908829906
 30
0.0
 11
-66.8771056918022
 21
28.061866077291
 31
0.0
  0
LINE
  5
    FD
  8
0
  6
CONTINUOUS
 62
     7
 10
-67.3980501217538
 20
-42.9210676057836
 30
0.0
 11
-66.8771056918022
 21
-45.8754908829906
 31
0.0
  0
LINE
  5
    FE
  8
0
  6
CONTINUOUS
 62
     7
 10
-66.8771056918022
 20
-45.8754908829906
 30
0.0
 11
-66.3561612618505
 21
-42.9210676057836
 31
0.0
  0
LINE
  5
    FF
  8
0
  6
CONTINUOUS
 62
     7
 10
-66.3561612618505
 20
25.1074428000841
 30
0.0
 11
-66.8771056918022
 21
28.061866077291
 31
0.0
  0
LINE
  5
   100
  8
0
  6
CONTINUOUS
 62
     7
 10
-66.8771056918022
 20
28.061866077291
 30
0.0
 11
-67.3980501217538
 21
25.1074428000841
 31
0.0
  0
ENDBLK
  5
   101
  8
0
  6
CONTINUOUS
 62
     7
  0
BLOCK
  5
   102
  8
0
  6
CONTINUOUS
 62
   218
  2
*UDIM277
 70
    65
 10
0.0
 20
0.0
 30
0.0
  3
*UDIM277
  0
TEXT
  5
   103
  8
0
  6
CONTINUOUS
 62
   218
 10
79.2208471039466
 20
-123.465313632759
 30
0.0
 40
3.00000001532688
  1
205
 41
0.933333333333334
 72
     1
 11
83.1208471238716
 21
-121.965313625095
 31
0.0
 73
     2
  0
LINE
  5
   104
  8
0
  6
CONTINUOUS
 62
   218
 10
47.5190582275391
 20
-122.087844737152
 30
0.0
 11
47.5190582275391
 21
-126.465313632759
 31
0.0
  0
LINE
  5
   105
  8
0
  6
CONTINUOUS
 62
   218
 10
47.5190582275391
 20
-124.465313632759
 30
0.0
 11
119.272635868638
 21
-124.465313632759
 31
0.0
  0
LINE
  5
   106
  8
0
  6
CONTINUOUS
 62
   218
 10
50.473481504746
 20
-123.944369202807
 30
0.0
 11
47.5190582275391
 21
-124.465313632759
 31
0.0
  0
LINE
  5
   107
  8
0
  6
CONTINUOUS
 62
   218
 10
47.5190582275391
 20
-124.465313632759
 30
0.0
 11
50.473481504746
 21
-124.98625806271
 31
0.0
  0
LINE
  5
   108
  8
0
  6
CONTINUOUS
 62
   218
 10
116.318212591431
 20
-124.98625806271
 30
0.0
 11
119.272635868638
 21
-124.465313632759
 31
0.0
  0
LINE
  5
   109
  8
0
  6
CONTINUOUS
 62
   218
 10
119.272635868638
 20
-124.465313632759
 30
0.0
 11
116.318212591431
 21
-123.944369202807
 31
0.0
  0
ENDBLK
  5
   10A
  8
0
  6
CONTINUOUS
 62
   218
  0
BLOCK
  5
   10B
  8
0
  6
CONTINUOUS
 62
   218
  2
*UDIM278
 70
    65
 10
0.0
 20
0.0
 30
0.0
  3
*UDIM278
  0
TEXT
  5
   10C
  8
0
  6
CONTINUOUS
 62
   218
 10
106.54404535498
 20
11.4956413575292
 30
0.0
 40
3.00000001532688
  1
 
 41
0.933333333333333
 72
     1
 11
107.6440453606
 21
12.9956413651926
 31
0.0
 73
     2
  0
LINE
  5
   10D
  8
0
  6
CONTINUOUS
 62
   218
 10
96.6940478622919
 20
-28.5129741057185
 30
0.0
 11
96.6940478622919
 21
12.4956413575292
 31
0.0
  0
LINE
  5
   10E
  8
0
  6
CONTINUOUS
 62
   218
 10
121.894045287371
 20
-4.68383367366845
 30
0.0
 11
121.894045287371
 21
12.4956413575292
 31
0.0
  0
LINE
  5
   10F
  8
0
  6
CONTINUOUS
 62
   218
 10
96.6940478622919
 20
10.4956413575292
 30
0.0
 11
121.894045287371
 21
10.4956413575292
 31
0.0
  0
LINE
  5
   110
  8
0
  6
CONTINUOUS
 62
   218
 10
99.6484711394989
 20
11.0165857874808
 30
0.0
 11
96.6940478622919
 21
10.4956413575292
 31
0.0
  0
LINE
  5
   111
  8
0
  6
CONTINUOUS
 62
   218
 10
96.6940478622919
 20
10.4956413575292
 30
0.0
 11
99.6484711394989
 21
9.9746969275775
 31
0.0
  0
LINE
  5
   112
  8
0
  6
CONTINUOUS
 62
   218
 10
118.939622010164
 20
9.9746969275775
 30
0.0
 11
121.894045287371
 21
10.4956413575292
 31
0.0
  0
LINE
  5
   113
  8
0
  6
CONTINUOUS
 62
   218
 10
121.894045287371
 20
10.4956413575292
 30
0.0
 11
118.939622010164
 21
11.0165857874808
 31
0.0
  0
ENDBLK
  5
   114
  8
0
  6
CONTINUOUS
 62
   218
  0
BLOCK
  5
   115
  8
0
  6
CONTINUOUS
 62
     7
  2
*UDIM279
 70
    65
 10
0.0
 20
0.0
 30
0.0
  3
*UDIM279
  0
TEXT
  5
   116
  8
0
  6
CONTINUOUS
 62
     7
 10
130.144042909572
 20
11.4956413575292
 30
0.0
 40
3.00000001532688
  1
63
 41
0.933333333333333
 72
     1
 11
132.644042922344
 21
12.9956413651926
 31
0.0
 73
     2
  0
LINE
  5
   117
  8
0
  6
CONTINUOUS
 62
     7
 10
121.894045287371
 20
-4.68383367366845
 30
0.0
 11
121.894045287371
 21
12.4956413575292
 31
0.0
  0
LINE
  5
   118
  8
0
  6
CONTINUOUS
 62
     7
 10
143.944043034316
 20
-27.1865395964134
 30
0.0
 11
143.944043034316
 21
12.4956413575292
 31
0.0
  0
LINE
  5
   119
  8
0
  6
CONTINUOUS
 62
     7
 10
121.894045287371
 20
10.4956413575292
 30
0.0
 11
143.944043034316
 21
10.4956413575292
 31
0.0
  0
LINE
  5
   11A
  8
0
  6
CONTINUOUS
 62
     7
 10
124.848468564578
 20
11.0165857874808
 30
0.0
 11
121.894045287371
 21
10.4956413575292
 31
0.0
  0
LINE
  5
   11B
  8
0
  6
CONTINUOUS
 62
     7
 10
121.894045287371
 20
10.4956413575292
 30
0.0
 11
124.848468564578
 21
9.9746969275775
 31
0.0
  0
LINE
  5
   11C
  8
0
  6
CONTINUOUS
 62
     7
 10
140.989619757109
 20
9.9746969275775
 30
0.0
 11
143.944043034316
 21
10.4956413575292
 31
0.0
  0
LINE
  5
   11D
  8
0
  6
CONTINUOUS
 62
     7
 10
143.944043034316
 20
10.4956413575292
 30
0.0
 11
140.989619757109
 21
11.0165857874808
 31
0.0
  0
ENDBLK
  5
   11E
  8
0
  6
CONTINUOUS
 62
     7
  0
BLOCK
  5
   11F
  8
0
  6
CONTINUOUS
 62
   218
  2
*UDIM280
 70
    65
 10
0.0
 20
0.0
 30
0.0
  3
*UDIM280
  0
TEXT
  5
   120
  8
0
  6
CONTINUOUS
 62
   218
 10
113.895368993701
 20
-119.026430114153
 30
0.0
 40
3.00000001532688
  1
 
 41
0.933333333333333
 72
     1
 11
114.995368999321
 21
-117.52643010649
 31
0.0
 73
     2
  0
LINE
  5
   121
  8
0
  6
CONTINUOUS
 62
   218
 10
104.746690478651
 20
-38.8254839374658
 30
0.0
 11
104.746690478651
 21
-122.026430114153
 31
0.0
  0
LINE
  5
   122
  8
0
  6
CONTINUOUS
 62
   218
 10
128.544044607878
 20
-38.1254840089914
 30
0.0
 11
128.544044607878
 21
-122.026430114153
 31
0.0
  0
LINE
  5
   123
  8
0
  6
CONTINUOUS
 62
   218
 10
104.746690478651
 20
-120.026430114153
 30
0.0
 11
128.544044607878
 21
-120.026430114153
 31
0.0
  0
LINE
  5
   124
  8
0
  6
CONTINUOUS
 62
   218
 10
107.701113755858
 20
-119.505485684202
 30
0.0
 11
104.746690478651
 21
-120.026430114153
 31
0.0
  0
LINE
  5
   125
  8
0
  6
CONTINUOUS
 62
   218
 10
104.746690478651
 20
-120.026430114153
 30
0.0
 11
107.701113755858
 21
-120.547374544105
 31
0.0
  0
LINE
  5
   126
  8
0
  6
CONTINUOUS
 62
   218
 10
125.589621330671
 20
-120.547374544105
 30
0.0
 11
128.544044607878
 21
-120.026430114153
 31
0.0
  0
LINE
  5
   127
  8
0
  6
CONTINUOUS
 62
   218
 10
128.544044607878
 20
-120.026430114153
 30
0.0
 11
125.589621330671
 21
-119.505485684202
 31
0.0
  0
ENDBLK
  5
   128
  8
0
  6
CONTINUOUS
 62
   218
  0
BLOCK
  5
   129
  8
0
  6
CONTINUOUS
 62
   218
  2
*UDIM281
 70
    65
 10
0.0
 20
0.0
 30
0.0
  3
*UDIM281
  0
TEXT
  5
   12A
  8
0
  6
CONTINUOUS
 62
   218
 10
98.2632522672067
 20
4.20603833006084
 30
0.0
 40
3.00000001532688
  1
23
 41
0.933333333333333
 72
     1
 11
100.763252279979
 21
5.70603833772428
 31
0.0
 73
     2
  0
LINE
  5
   12B
  8
0
  6
CONTINUOUS
 62
   218
 10
96.6940478622919
 20
-28.5129741057185
 30
0.0
 11
96.6940478622919
 21
5.20603797431964
 31
0.0
  0
LINE
  5
   12C
  8
0
  6
CONTINUOUS
 62
   218
 10
104.746690478651
 20
-33.3254842950937
 30
0.0
 11
104.746690478651
 21
5.20603867830413
 31
0.0
  0
LINE
  5
   12D
  8
0
  6
CONTINUOUS
 62
   218
 10
96.6940478622919
 20
3.20603797431963
 30
0.0
 11
104.746690478651
 21
3.20603867830413
 31
0.0
  0
LINE
  5
   12E
  8
0
  6
CONTINUOUS
 62
   218
 10
99.6484710939564
 20
3.72698266255523
 30
0.0
 11
96.6940478622919
 21
3.20603797431963
 31
0.0
  0
LINE
  5
   12F
  8
0
  6
CONTINUOUS
 62
   218
 10
96.6940478622919
 20
3.20603797431963
 30
0.0
 11
99.6484711850413
 21
2.68509380265189
 31
0.0
  0
LINE
  5
   130
  8
0
  6
CONTINUOUS
 62
   218
 10
101.792267246987
 20
2.68509399006852
 30
0.0
 11
104.746690478651
 21
3.20603867830413
 31
0.0
  0
LINE
  5
   131
  8
0
  6
CONTINUOUS
 62
   218
 10
104.746690478651
 20
3.20603867830413
 30
0.0
 11
101.792267155902
 21
3.72698284997186
 31
0.0
  0
ENDBLK
  5
   132
  8
0
  6
CONTINUOUS
 62
   218
  0
BLOCK
  5
   133
  8
0
  6
CONTINUOUS
 62
     7
  2
*UDIM282
 70
    65
 10
0.0
 20
0.0
 30
0.0
  3
*UDIM282
  0
TEXT
  5
   134
  8
0
  6
CONTINUOUS
 62
     7
 10
122.142503959376
 20
4.20603833722058
 30
0.0
 40
3.00000001532688
  1
19
 41
0.933333333333333
 72
     1
 11
124.642503972148
 21
5.70603834488402
 31
0.0
 73
     2
  0
LINE
  5
   135
  8
0
  6
CONTINUOUS
 62
     7
 10
121.894045287371
 20
-4.68383367366845
 30
0.0
 11
121.894045287371
 21
5.20603809694265
 31
0.0
  0
LINE
  5
   136
  8
0
  6
CONTINUOUS
 62
     7
 10
128.544044607878
 20
-34.0254842235681
 30
0.0
 11
128.544044607878
 21
5.20603867830414
 31
0.0
  0
LINE
  5
   137
  8
0
  6
CONTINUOUS
 62
     7
 10
121.894045287371
 20
3.20603809694263
 30
0.0
 11
128.544044607878
 21
3.20603867830414
 31
0.0
  0
LINE
  5
   138
  8
0
  6
CONTINUOUS
 62
     7
 10
118.939622055707
 20
2.68509340870705
 30
0.0
 11
121.894045287371
 21
3.20603809694263
 31
0.0
  0
LINE
  5
   139
  8
0
  6
CONTINUOUS
 62
     7
 10
121.894045287371
 20
3.20603809694263
 30
0.0
 11
118.939621964622
 21
3.72698226861037
 31
0.0
  0
LINE
  5
   13A
  8
0
  6
CONTINUOUS
 62
     7
 10
131.498467839543
 20
3.72698336653973
 30
0.0
 11
128.544044607878
 21
3.20603867830414
 31
0.0
  0
LINE
  5
   13B
  8
0
  6
CONTINUOUS
 62
     7
 10
128.544044607878
 20
3.20603867830414
 30
0.0
 11
131.498467930628
 21
2.6850945066364
 31
0.0
  0
ENDBLK
  5
   13C
  8
0
  6
CONTINUOUS
 62
     7
  0
BLOCK
  5
   13D
  8
0
  6
CONTINUOUS
 62
     7
  2
*UDIM283
 70
    65
 10
0.0
 20
0.0
 30
0.0
  3
*UDIM283
  0
TEXT
  5
   13E
  8
0
  6
CONTINUOUS
 62
     7
 10
124.894044024371
 20
-68.6017048694453
 30
0.0
 40
3.00000001532688
  1
2
 41
0.933333333333333
 72
     1
 11
125.994044029991
 21
-67.1017048617819
 31
0.0
 73
     2
  0
LINE
  5
   13F
  8
0
  6
CONTINUOUS
 62
     7
 10
121.194045358897
 20
-63.4431454237903
 30
0.0
 11
121.194045358897
 21
-71.6017052890746
 31
0.0
  0
LINE
  5
   140
  8
0
  6
CONTINUOUS
 62
     7
 10
121.894045287371
 20
-59.4753522650809
 30
0.0
 11
121.894045287371
 21
-71.6017052278786
 31
0.0
  0
LINE
  5
   141
  8
0
  6
CONTINUOUS
 62
     7
 10
121.194045358897
 20
-69.6017052890746
 30
0.0
 11
127.094044385302
 21
-69.6017047732802
 31
0.0
  0
LINE
  5
   142
  8
0
  6
CONTINUOUS
 62
     7
 10
118.239622127232
 20
-70.1226499773101
 30
0.0
 11
121.194045358897
 21
-69.6017052890746
 31
0.0
  0
LINE
  5
   143
  8
0
  6
CONTINUOUS
 62
     7
 10
121.194045358897
 20
-69.6017052890746
 30
0.0
 11
118.239622036147
 21
-69.0807611174068
 31
0.0
  0
LINE
  5
   144
  8
0
  6
CONTINUOUS
 62
     7
 10
124.848468519036
 20
-69.0807605396431
 30
0.0
 11
121.894045287371
 21
-69.6017052278786
 31
0.0
  0
LINE
  5
   145
  8
0
  6
CONTINUOUS
 62
     7
 10
121.894045287371
 20
-69.6017052278786
 30
0.0
 11
124.848468610121
 21
-70.1226493995464
 31
0.0
  0
ENDBLK
  5
   146
  8
0
  6
CONTINUOUS
 62
     7
  0
BLOCK
  5
   147
  8
0
  6
CONTINUOUS
 62
     7
  2
*UDIM284
 70
    65
 10
0.0
 20
0.0
 30
0.0
  3
*UDIM284
  0
TEXT
  5
   148
  8
0
  6
CONTINUOUS
 62
     7
 10
154.613507955441
 20
11.4956418361693
 30
0.0
 40
3.00000001532688
  1
22
 41
0.933333333333333
 72
     1
 11
157.113507968214
 21
12.9956418438327
 31
0.0
 73
     2
  0
LINE
  5
   149
  8
0
  6
CONTINUOUS
 62
     7
 10
143.944043034316
 20
-31.4491996115158
 30
0.0
 11
143.944043034316
 21
12.4956406848579
 31
0.0
  0
LINE
  5
   14A
  8
0
  6
CONTINUOUS
 62
     7
 10
151.638503122114
 20
-45.1066041784122
 30
0.0
 11
151.638503122114
 21
12.4956413575291
 31
0.0
  0
LINE
  5
   14B
  8
0
  6
CONTINUOUS
 62
     7
 10
143.944043034316
 20
10.4956406848579
 30
0.0
 11
159.613508330677
 21
10.4956420547263
 31
0.0
  0
LINE
  5
   14C
  8
0
  6
CONTINUOUS
 62
     7
 10
140.989619802651
 20
9.97469599662232
 30
0.0
 11
143.944043034316
 21
10.4956406848579
 31
0.0
  0
LINE
  5
   14D
  8
0
  6
CONTINUOUS
 62
     7
 10
143.944043034316
 20
10.4956406848579
 30
0.0
 11
140.989619711566
 21
11.0165848565256
 31
0.0
  0
LINE
  5
   14E
  8
0
  6
CONTINUOUS
 62
     7
 10
154.592926353779
 20
11.0165860457647
 30
0.0
 11
151.638503122114
 21
10.4956413575291
 31
0.0
  0
LINE
  5
   14F
  8
0
  6
CONTINUOUS
 62
     7
 10
151.638503122114
 20
10.4956413575291
 30
0.0
 11
154.592926444864
 21
9.97469718586134
 31
0.0
  0
ENDBLK
  5
   150
  8
0
  6
CONTINUOUS
 62
     7
  0
BLOCK
  5
   151
  8
0
  6
CONTINUOUS
 62
     7
  2
*UDIM285
 70
    65
 10
0.0
 20
0.0
 30
0.0
  3
*UDIM285
  0
TEXT
  5
   152
  8
0
  6
CONTINUOUS
 62
     7
 10
65.1315472185898
 20
38.7967707700645
 30
0.0
 40
3.00000001532688
  1
140,5
 41
0.933333333333333
 72
     1
 11
71.8315472528198
 21
40.296770777728
 31
0.0
 73
     2
  0
LINE
  5
   153
  8
0
  6
CONTINUOUS
 62
     7
 10
47.5190582275391
 20
35.2704366152974
 30
0.0
 11
47.5190582275391
 21
39.7967707700645
 31
0.0
  0
LINE
  5
   154
  8
0
  6
CONTINUOUS
 62
     7
 10
96.6940369609995
 20
-28.5129925549009
 30
0.0
 11
96.6940369609995
 21
39.7967707700645
 31
0.0
  0
LINE
  5
   155
  8
0
  6
CONTINUOUS
 62
     7
 10
47.5190582275391
 20
37.7967707700645
 30
0.0
 11
96.6940369609995
 21
37.7967707700645
 31
0.0
  0
LINE
  5
   156
  8
0
  6
CONTINUOUS
 62
     7
 10
50.473481504746
 20
38.3177152000162
 30
0.0
 11
47.5190582275391
 21
37.7967707700645
 31
0.0
  0
LINE
  5
   157
  8
0
  6
CONTINUOUS
 62
     7
 10
47.5190582275391
 20
37.7967707700645
 30
0.0
 11
50.473481504746
 21
37.2758263401129
 31
0.0
  0
LINE
  5
   158
  8
0
  6
CONTINUOUS
 62
     7
 10
93.7396136837925
 20
37.2758263401129
 30
0.0
 11
96.6940369609995
 21
37.7967707700645
 31
0.0
  0
LINE
  5
   159
  8
0
  6
CONTINUOUS
 62
     7
 10
96.6940369609995
 20
37.7967707700645
 30
0.0
 11
93.7396136837925
 21
38.3177152000162
 31
0.0
  0
ENDBLK
  5
   15A
  8
0
  6
CONTINUOUS
 62
     7
  0
BLOCK
  5
   15B
  8
0
  6
CONTINUOUS
 62
     7
  2
*UDIM286
 70
    65
 10
0.0
 20
0.0
 30
0.0
  3
*UDIM286
  0
TEXT
  5
   15C
  8
0
  6
CONTINUOUS
 62
     7
 10
274.075340449207
 20
-130.864928203724
 30
0.0
 40
3.00000005960463
  1
3,6
 50
327.098546938087
 41
0.933333333333334
 72
     1
 11
278.164597892152
 21
-131.723982485544
 31
0.0
 73
     2
  0
TEXT
  5
   15D
  8
0
  6
CONTINUOUS
 62
     7
 10
271.430581236398
 20
-129.153861604629
 30
0.0
 40
3.00000005960463
  1
Ø
 50
327.098546938087
 41
0.933333333333334
 72
     1
 11
273.168941583507
 21
-128.491967775462
 31
0.0
 73
     2
  0
TEXT
  5
   15E
  8
0
  6
CONTINUOUS
 62
     7
 10
281.086051441853
 20
-135.400612734719
 30
0.0
 40
3.00000005960463
  1
 H12
 50
327.098546938087
 41
0.933333333333333
 72
     1
 11
286.350757432716
 21
-137.020141072033
 31
0.0
 73
     2
  0
LINE
  5
   15F
  8
0
  6
CONTINUOUS
 62
     7
 10
289.442680427683
 20
-141.998093809696
 30
0.0
 11
262.151948888353
 21
-124.341946081645
 31
0.0
  0
LINE
  5
   160
  8
0
  6
CONTINUOUS
 62
     7
 10
265.519991808912
 20
-125.900489019478
 30
0.0
 11
262.75646523709
 21
-124.733046992295
 31
0.0
  0
LINE
  5
   161
  8
0
  6
CONTINUOUS
 62
     7
 10
262.75646523709
 20
-124.733046992295
 30
0.0
 11
264.954042216978
 21
-126.775265251312
 31
0.0
  0
LINE
  5
   162
  8
0
  6
CONTINUOUS
 62
     7
 10
259.388422316531
 20
-123.174504054462
 30
0.0
 11
262.151948888353
 21
-124.341946081645
 31
0.0
  0
LINE
  5
   163
  8
0
  6
CONTINUOUS
 62
     7
 10
262.151948888353
 20
-124.341946081645
 30
0.0
 11
259.954371908464
 21
-122.299727822628
 31
0.0
  0
ENDBLK
  5
   164
  8
0
  6
CONTINUOUS
 62
     7
  0
BLOCK
  5
   165
  8
0
  6
CONTINUOUS
 62
     7
  2
*UDIM287
 70
    65
 10
0.0
 20
0.0
 30
0.0
  3
*UDIM287
  0
TEXT
  5
   166
  8
0
  6
CONTINUOUS
 62
     7
 10
282.983246302315
 20
-119.312496906747
 30
0.0
 40
3.00000005960463
  1
80
 50
449.999999896069
 41
0.933333333333334
 72
     1
 11
281.483246277032
 21
-116.812496854365
 31
0.0
 73
     2
  0
LINE
  5
   167
  8
0
  6
CONTINUOUS
 62
     7
 10
265.814206922054
 20
-108.537497490644
 30
0.0
 11
285.983246306834
 21
-108.537497490644
 31
0.0
  0
LINE
  5
   168
  8
0
  6
CONTINUOUS
 62
     7
 10
265.814206922054
 20
-124.53749653697
 30
0.0
 11
285.983246306834
 21
-124.53749653697
 31
0.0
  0
LINE
  5
   169
  8
0
  6
CONTINUOUS
 62
     7
 10
283.983246306834
 20
-108.537497490644
 30
0.0
 11
283.983246306834
 21
-124.53749653697
 31
0.0
  0
LINE
  5
   16A
  8
0
  6
CONTINUOUS
 62
     7
 10
284.504190736786
 20
-111.491920767851
 30
0.0
 11
283.983246306834
 21
-108.537497490644
 31
0.0
  0
LINE
  5
   16B
  8
0
  6
CONTINUOUS
 62
     7
 10
283.983246306834
 20
-108.537497490644
 30
0.0
 11
283.462301876883
 21
-111.491920767851
 31
0.0
  0
LINE
  5
   16C
  8
0
  6
CONTINUOUS
 62
     7
 10
283.462301876883
 20
-121.583073259763
 30
0.0
 11
283.983246306834
 21
-124.53749653697
 31
0.0
  0
LINE
  5
   16D
  8
0
  6
CONTINUOUS
 62
     7
 10
283.983246306834
 20
-124.53749653697
 30
0.0
 11
284.504190736786
 21
-121.583073259763
 31
0.0
  0
ENDBLK
  5
   16E
  8
0
  6
CONTINUOUS
 62
     7
  0
BLOCK
  5
   16F
  8
0
  6
CONTINUOUS
 62
     7
  2
*UDIM288
 70
    65
 10
0.0
 20
0.0
 30
0.0
  3
*UDIM288
  0
TEXT
  5
   170
  8
0
  6
CONTINUOUS
 62
     7
 10
236.279208548634
 20
-139.226249867254
 30
0.0
 40
3.00000005960463
  1
220
 50
359.999999896069
 41
0.933333333333334
 72
     1
 11
240.179208628833
 21
-137.726249844506
 31
0.0
 73
     2
  0
LINE
  5
   171
  8
0
  6
CONTINUOUS
 62
     7
 10
262.454207062721
 20
-127.897496396303
 30
0.0
 11
262.454207062721
 21
-142.226249874308
 31
0.0
  0
LINE
  5
   172
  8
0
  6
CONTINUOUS
 62
     7
 10
218.454209685326
 20
-127.897496396303
 30
0.0
 11
218.454209685326
 21
-142.226249874308
 31
0.0
  0
LINE
  5
   173
  8
0
  6
CONTINUOUS
 62
     7
 10
262.454207062721
 20
-140.226249874308
 30
0.0
 11
218.454209685326
 21
-140.226249874308
 31
0.0
  0
LINE
  5
   174
  8
0
  6
CONTINUOUS
 62
     7
 10
259.499783785514
 20
-140.74719430426
 30
0.0
 11
262.454207062721
 21
-140.226249874308
 31
0.0
  0
LINE
  5
   175
  8
0
  6
CONTINUOUS
 62
     7
 10
262.454207062721
 20
-140.226249874308
 30
0.0
 11
259.499783785514
 21
-139.705305444357
 31
0.0
  0
LINE
  5
   176
  8
0
  6
CONTINUOUS
 62
     7
 10
221.408632962533
 20
-139.705305444357
 30
0.0
 11
218.454209685326
 21
-140.226249874308
 31
0.0
  0
LINE
  5
   177
  8
0
  6
CONTINUOUS
 62
     7
 10
218.454209685326
 20
-140.226249874308
 30
0.0
 11
221.408632962533
 21
-140.74719430426
 31
0.0
  0
ENDBLK
  5
   178
  8
0
  6
CONTINUOUS
 62
     7
  0
BLOCK
  5
   179
  8
0
  6
CONTINUOUS
 62
     7
  2
*UDIM289
 70
    65
 10
0.0
 20
0.0
 30
0.0
  3
*UDIM289
  0
TEXT
  5
   17A
  8
0
  6
CONTINUOUS
 62
     7
 10
199.872771582072
 20
-41.8209086111217
 30
0.0
 40
2.00000009536742
  1
FORATURA DA ESEGUIRE SOLO PER ESECUZ.TERM.POST.
 50
359.999999896069
 41
0.937499979138376
 72
     2
 11
287.622773808943
 21
-39.8209086744867
 31
0.0
 73
     3
  0
TEXT
  5
   17B
  8
0
  6
CONTINUOUS
 62
     7
 10
201.747771629756
 20
-44.8209086128176
 30
0.0
 40
2.00000009536742
  1
REAR TERMINAL EXECUTION ONLY DRILLING TEMPLATE
 50
359.999999896069
 41
0.937499979138376
 72
     2
 11
287.622773808943
 21
-42.8209086727908
 31
0.0
 73
     3
  0
LINE
  5
   17C
  8
0
  6
CONTINUOUS
 62
     7
 10
256.288135347728
 20
-66.464605711275
 30
0.0
 11
287.622773807134
 21
-45.8209086904879
 31
0.0
  0
LINE
  5
   17D
  8
0
  6
CONTINUOUS
 62
     7
 10
199.797771588352
 20
-45.8209086904879
 30
0.0
 11
287.622773807134
 21
-45.8209086904879
 31
0.0
  0
LINE
  5
   17E
  8
0
  6
CONTINUOUS
 62
     7
 10
258.468670539606
 20
-64.4042013148076
 30
0.0
 11
256.288135347728
 21
-66.464605711275
 31
0.0
  0
LINE
  5
   17F
  8
0
  6
CONTINUOUS
 62
     7
 10
256.288135347728
 20
-66.464605711275
 30
0.0
 11
259.04186790085
 21
-65.2742456708342
 31
0.0
  0
ENDBLK
  5
   180
  8
0
  6
CONTINUOUS
 62
     7
  0
BLOCK
  5
   181
  8
0
  6
CONTINUOUS
 62
     7
  2
*UDIM290
 70
    65
 10
0.0
 20
0.0
 30
0.0
  3
*UDIM290
  0
TEXT
  5
   182
  8
0
  6
CONTINUOUS
 62
     7
 10
244.679208063849
 20
-102.495790938487
 30
0.0
 40
3.00000005960463
  1
70
 50
359.999999896069
 41
0.933333333333334
 72
     1
 11
247.179208116233
 21
-100.995790913207
 31
0.0
 73
     2
  0
LINE
  5
   183
  8
0
  6
CONTINUOUS
 62
     7
 10
254.454207539558
 20
-103.495790943009
 30
0.0
 11
240.454208374023
 21
-103.495790943009
 31
0.0
  0
LINE
  5
   184
  8
0
  6
CONTINUOUS
 62
     7
 10
251.499784262352
 20
-104.016735372961
 30
0.0
 11
254.454207539558
 21
-103.495790943009
 31
0.0
  0
LINE
  5
   185
  8
0
  6
CONTINUOUS
 62
     7
 10
254.454207539558
 20
-103.495790943009
 30
0.0
 11
251.499784262352
 21
-102.974846513057
 31
0.0
  0
LINE
  5
   186
  8
0
  6
CONTINUOUS
 62
     7
 10
243.40863165123
 20
-102.974846513057
 30
0.0
 11
240.454208374023
 21
-103.495790943009
 31
0.0
  0
LINE
  5
   187
  8
0
  6
CONTINUOUS
 62
     7
 10
240.454208374023
 20
-103.495790943009
 30
0.0
 11
243.40863165123
 21
-104.016735372961
 31
0.0
  0
ENDBLK
  5
   188
  8
0
  6
CONTINUOUS
 62
     7
  0
BLOCK
  5
   189
  8
0
  6
CONTINUOUS
 62
     7
  2
*UDIM291
 70
    65
 10
0.0
 20
0.0
 30
0.0
  3
*UDIM291
  0
TEXT
  5
   18A
  8
0
  6
CONTINUOUS
 62
     7
 10
230.679208898314
 20
-102.495790938487
 30
0.0
 40
3.00000005960463
  1
70
 50
359.999999896069
 41
0.933333333333334
 72
     1
 11
233.179208950698
 21
-100.995790913207
 31
0.0
 73
     2
  0
LINE
  5
   18B
  8
0
  6
CONTINUOUS
 62
     7
 10
240.454208374023
 20
-103.495790943009
 30
0.0
 11
226.454209208489
 21
-103.495790943009
 31
0.0
  0
LINE
  5
   18C
  8
0
  6
CONTINUOUS
 62
     7
 10
237.499785096817
 20
-104.016735372961
 30
0.0
 11
240.454208374023
 21
-103.495790943009
 31
0.0
  0
LINE
  5
   18D
  8
0
  6
CONTINUOUS
 62
     7
 10
240.454208374023
 20
-103.495790943009
 30
0.0
 11
237.499785096817
 21
-102.974846513057
 31
0.0
  0
LINE
  5
   18E
  8
0
  6
CONTINUOUS
 62
     7
 10
229.408632485695
 20
-102.974846513057
 30
0.0
 11
226.454209208489
 21
-103.495790943009
 31
0.0
  0
LINE
  5
   18F
  8
0
  6
CONTINUOUS
 62
     7
 10
226.454209208489
 20
-103.495790943009
 30
0.0
 11
229.408632485695
 21
-104.016735372961
 31
0.0
  0
ENDBLK
  5
   190
  8
0
  6
CONTINUOUS
 62
     7
  0
BLOCK
  5
   191
  8
0
  6
CONTINUOUS
 62
     7
  2
*UDIM292
 70
    65
 10
0.0
 20
0.0
 30
0.0
  3
*UDIM292
  0
TEXT
  5
   192
  8
0
  6
CONTINUOUS
 62
     7
 10
207.645658234115
 20
-106.037038856341
 30
0.0
 40
3.00000005960463
  1
40
 50
333.486988543552
 41
0.933333333333334
 72
     1
 11
210.552342369523
 21
-105.810791923261
 31
0.0
 73
     2
  0
TEXT
  5
   193
  8
0
  6
CONTINUOUS
 62
     7
 10
205.184867402829
 20
-104.809435992777
 30
0.0
 40
3.00000005960463
  1
R
 50
333.486988543552
 41
0.933333333333334
 72
     1
 11
206.838785299014
 21
-103.958227598688
 31
0.0
 73
     2
  0
LINE
  5
   194
  8
0
  6
CONTINUOUS
 62
     7
 10
204.73846637128
 20
-105.704269006815
 30
0.0
 11
232.718040712496
 21
-119.662304458295
 31
0.0
  0
LINE
  5
   195
  8
0
  6
CONTINUOUS
 62
     7
 10
222.171811155573
 20
-113.818988292239
 30
0.0
 11
219.295545546815
 21
-112.966288961951
 31
0.0
  0
LINE
  5
   196
  8
0
  6
CONTINUOUS
 62
     7
 10
219.295545546815
 20
-112.966288961951
 30
0.0
 11
221.706710892148
 21
-114.751304837921
 31
0.0
  0
ENDBLK
  5
   197
  8
0
  6
CONTINUOUS
 62
     7
  0
BLOCK
  5
   198
  8
0
  6
CONTINUOUS
 62
     7
  2
*UDIM293
 70
    65
 10
0.0
 20
0.0
 30
0.0
  3
*UDIM293
  0
TEXT
  5
   199
  8
0
  6
CONTINUOUS
 62
     7
 10
274.099399785935
 20
-70.1862272518931
 30
0.0
 40
3.00000005960463
  1
50
 50
449.999999896069
 41
0.933333333333334
 72
     1
 11
272.599399760652
 21
-67.6862271995111
 31
0.0
 73
     2
  0
LINE
  5
   19A
  8
0
  6
CONTINUOUS
 62
     7
 10
235.209210747856
 20
-62.5375002324581
 30
0.0
 11
277.099399790454
 21
-62.5375002324581
 31
0.0
  0
LINE
  5
   19B
  8
0
  6
CONTINUOUS
 62
     7
 10
235.209210747856
 20
-72.5374996364117
 30
0.0
 11
277.099399790454
 21
-72.5374996364117
 31
0.0
  0
LINE
  5
   19C
  8
0
  6
CONTINUOUS
 62
     7
 10
275.099399790454
 20
-62.5375002324581
 30
0.0
 11
275.099399790454
 21
-72.5374996364117
 31
0.0
  0
LINE
  5
   19D
  8
0
  6
CONTINUOUS
 62
     7
 10
274.578455360503
 20
-59.5830769552512
 30
0.0
 11
275.099399790454
 21
-62.5375002324581
 31
0.0
  0
LINE
  5
   19E
  8
0
  6
CONTINUOUS
 62
     7
 10
275.099399790454
 20
-62.5375002324581
 30
0.0
 11
275.620344220406
 21
-59.5830769552512
 31
0.0
  0
LINE
  5
   19F
  8
0
  6
CONTINUOUS
 62
     7
 10
275.620344220406
 20
-75.4919229136186
 30
0.0
 11
275.099399790454
 21
-72.5374996364117
 31
0.0
  0
LINE
  5
   1A0
  8
0
  6
CONTINUOUS
 62
     7
 10
275.099399790454
 20
-72.5374996364117
 30
0.0
 11
274.578455360503
 21
-75.4919229136186
 31
0.0
  0
ENDBLK
  5
   1A1
  8
0
  6
CONTINUOUS
 62
     7
  0
BLOCK
  5
   1A2
  8
0
  6
CONTINUOUS
 62
     7
  2
*UDIM294
 70
    65
 10
0.0
 20
0.0
 30
0.0
  3
*UDIM294
  0
TEXT
  5
   1A3
  8
0
  6
CONTINUOUS
 62
     7
 10
207.300294870631
 20
-87.5874989089663
 30
0.0
 40
3.00000005960463
  1
165,75
 50
449.999999896069
 41
0.933333333333334
 72
     1
 11
205.80029485547
 21
-79.4874987453223
 31
0.0
 73
     2
  0
LINE
  5
   1A4
  8
0
  6
CONTINUOUS
 62
     7
 10
211.733479162822
 20
-67.5374999344349
 30
0.0
 11
206.300294885273
 21
-67.5374999344349
 31
0.0
  0
LINE
  5
   1A5
  8
0
  6
CONTINUOUS
 62
     7
 10
211.112365630783
 20
-90.8874985426664
 30
0.0
 11
206.300294885273
 21
-90.8874985426664
 31
0.0
  0
LINE
  5
   1A6
  8
0
  6
CONTINUOUS
 62
     7
 10
208.300294885273
 20
-67.5374999344349
 30
0.0
 11
208.300294885273
 21
-90.8874985426664
 31
0.0
  0
LINE
  5
   1A7
  8
0
  6
CONTINUOUS
 62
     7
 10
208.821239315224
 20
-70.4919232116418
 30
0.0
 11
208.300294885273
 21
-67.5374999344349
 31
0.0
  0
LINE
  5
   1A8
  8
0
  6
CONTINUOUS
 62
     7
 10
208.300294885273
 20
-67.5374999344349
 30
0.0
 11
207.779350455321
 21
-70.4919232116418
 31
0.0
  0
LINE
  5
   1A9
  8
0
  6
CONTINUOUS
 62
     7
 10
207.779350455321
 20
-87.9330752654595
 30
0.0
 11
208.300294885273
 21
-90.8874985426664
 31
0.0
  0
LINE
  5
   1AA
  8
0
  6
CONTINUOUS
 62
     7
 10
208.300294885273
 20
-90.8874985426664
 30
0.0
 11
208.821239315224
 21
-87.9330752654595
 31
0.0
  0
ENDBLK
  5
   1AB
  8
0
  6
CONTINUOUS
 62
     7
  0
BLOCK
  5
   1AC
  8
0
  6
CONTINUOUS
 62
     7
  2
*UDIM295
 70
    65
 10
0.0
 20
0.0
 30
0.0
  3
*UDIM295
  0
TEXT
  5
   1AD
  8
0
  6
CONTINUOUS
 62
     7
 10
200.018816430397
 20
-101.212848810562
 30
0.0
 40
3.00000005960463
  1
315
 50
449.999999896069
 41
0.933333333333334
 72
     1
 11
198.518816407644
 21
-97.3128487303644
 31
0.0
 73
     2
  0
LINE
  5
   1AE
  8
0
  6
CONTINUOUS
 62
     7
 10
211.733479162822
 20
-67.5374999344349
 30
0.0
 11
199.018816437447
 21
-67.5374999344349
 31
0.0
  0
LINE
  5
   1AF
  8
0
  6
CONTINUOUS
 62
     7
 10
211.733479162822
 20
-116.537497013807
 30
0.0
 11
199.018816437447
 21
-116.537497013807
 31
0.0
  0
LINE
  5
   1B0
  8
0
  6
CONTINUOUS
 62
     7
 10
201.018816437447
 20
-67.5374999344349
 30
0.0
 11
201.018816437447
 21
-116.537497013807
 31
0.0
  0
LINE
  5
   1B1
  8
0
  6
CONTINUOUS
 62
     7
 10
201.539760867398
 20
-70.4919232116418
 30
0.0
 11
201.018816437447
 21
-67.5374999344349
 31
0.0
  0
LINE
  5
   1B2
  8
0
  6
CONTINUOUS
 62
     7
 10
201.018816437447
 20
-67.5374999344349
 30
0.0
 11
200.497872007495
 21
-70.4919232116418
 31
0.0
  0
LINE
  5
   1B3
  8
0
  6
CONTINUOUS
 62
     7
 10
200.497872007495
 20
-113.5830737366
 30
0.0
 11
201.018816437447
 21
-116.537497013807
 31
0.0
  0
LINE
  5
   1B4
  8
0
  6
CONTINUOUS
 62
     7
 10
201.018816437447
 20
-116.537497013807
 30
0.0
 11
201.539760867398
 21
-113.5830737366
 31
0.0
  0
ENDBLK
  5
   1B5
  8
0
  6
CONTINUOUS
 62
     7
  0
BLOCK
  5
   1B6
  8
0
  6
CONTINUOUS
 62
     7
  2
*UDIM296
 70
    65
 10
0.0
 20
0.0
 30
0.0
  3
*UDIM296
  0
TEXT
  5
   1B7
  8
0
  6
CONTINUOUS
 62
     7
 10
191.804391253243
 20
-84.4374990967209
 30
0.0
 40
3.00000005960463
  1
197,25
 50
449.999999896069
 41
0.933333333333334
 72
     1
 11
190.304391238083
 21
-76.3374989330769
 31
0.0
 73
     2
  0
LINE
  5
   1B8
  8
0
  6
CONTINUOUS
 62
     7
 10
211.28176023043
 20
-61.2375003099442
 30
0.0
 11
190.804391267885
 21
-61.2375003099442
 31
0.0
  0
LINE
  5
   1B9
  8
0
  6
CONTINUOUS
 62
     7
 10
211.112365630783
 20
-90.8874985426664
 30
0.0
 11
190.804391267885
 21
-90.8874985426664
 31
0.0
  0
LINE
  5
   1BA
  8
0
  6
CONTINUOUS
 62
     7
 10
192.804391267885
 20
-61.2375003099442
 30
0.0
 11
192.804391267885
 21
-90.8874985426664
 31
0.0
  0
LINE
  5
   1BB
  8
0
  6
CONTINUOUS
 62
     7
 10
193.325335697837
 20
-64.1919235871511
 30
0.0
 11
192.804391267885
 21
-61.2375003099442
 31
0.0
  0
LINE
  5
   1BC
  8
0
  6
CONTINUOUS
 62
     7
 10
192.804391267885
 20
-61.2375003099442
 30
0.0
 11
192.283446837933
 21
-64.1919235871511
 31
0.0
  0
LINE
  5
   1BD
  8
0
  6
CONTINUOUS
 62
     7
 10
192.283446837933
 20
-87.9330752654595
 30
0.0
 11
192.804391267885
 21
-90.8874985426664
 31
0.0
  0
LINE
  5
   1BE
  8
0
  6
CONTINUOUS
 62
     7
 10
192.804391267885
 20
-90.8874985426664
 30
0.0
 11
193.325335697837
 21
-87.9330752654595
 31
0.0
  0
ENDBLK
  5
   1BF
  8
0
  6
CONTINUOUS
 62
     7
  0
BLOCK
  5
   1C0
  8
0
  6
CONTINUOUS
 62
     7
  2
*UDIM297
 70
    65
 10
0.0
 20
0.0
 30
0.0
  3
*UDIM297
  0
TEXT
  5
   1C1
  8
0
  6
CONTINUOUS
 62
     7
 10
184.131842279678
 20
-96.2124979180979
 30
0.0
 40
3.00000005960463
  1
378
 50
449.999999896069
 41
0.933333333333334
 72
     1
 11
182.631842256926
 21
-92.3124978379004
 31
0.0
 73
     2
  0
LINE
  5
   1C2
  8
0
  6
CONTINUOUS
 62
     7
 10
211.28176023043
 20
-61.2374994859729
 30
0.0
 11
183.131842286729
 21
-61.2374762912488
 31
0.0
  0
LINE
  5
   1C3
  8
0
  6
CONTINUOUS
 62
     7
 10
211.733479162822
 20
-122.837495793778
 30
0.0
 11
183.131842286729
 21
-122.837471639132
 31
0.0
  0
LINE
  5
   1C4
  8
0
  6
CONTINUOUS
 62
     7
 10
185.131842286728
 20
-61.2374779391914
 30
0.0
 11
185.131842286728
 21
-122.837473328171
 31
0.0
  0
LINE
  5
   1C5
  8
0
  6
CONTINUOUS
 62
     7
 10
185.65278671668
 20
-64.1919012163983
 30
0.0
 11
185.131842286728
 21
-61.2374779391914
 31
0.0
  0
LINE
  5
   1C6
  8
0
  6
CONTINUOUS
 62
     7
 10
185.131842286728
 20
-61.2374779391914
 30
0.0
 11
184.610897856776
 21
-64.1919012163983
 31
0.0
  0
LINE
  5
   1C7
  8
0
  6
CONTINUOUS
 62
     7
 10
184.610897856776
 20
-119.883050050965
 30
0.0
 11
185.131842286728
 21
-122.837473328171
 31
0.0
  0
LINE
  5
   1C8
  8
0
  6
CONTINUOUS
 62
     7
 10
185.131842286728
 20
-122.837473328171
 30
0.0
 11
185.65278671668
 21
-119.883050050965
 31
0.0
  0
ENDBLK
  5
   1C9
  8
0
  6
CONTINUOUS
 62
     7
  0
BLOCK
  5
   1CA
  8
0
  6
CONTINUOUS
 62
     7
  2
*UDIM298
 70
    65
 10
0.0
 20
0.0
 30
0.0
  3
*UDIM298
  0
TEXT
  5
   1CB
  8
0
  6
CONTINUOUS
 62
     7
 10
274.459738937968
 20
-105.542794497521
 30
0.0
 40
3.00000005960463
  1
5,5
 50
390.84909686971
 41
0.933333333333334
 72
     1
 11
277.038802070408
 21
-102.255176202662
 31
0.0
 73
     2
  0
TEXT
  5
   1CC
  8
0
  6
CONTINUOUS
 62
     7
 10
271.755398361378
 20
-107.158047495066
 30
0.0
 40
3.00000005960463
  1
Ø
 50
390.84909686971
 41
0.933333333333334
 72
     1
 11
271.93060317511
 21
-105.306209648295
 31
0.0
 73
     2
  0
TEXT
  5
   1CD
  8
0
  6
CONTINUOUS
 62
     7
 10
281.628387843201
 20
-101.261092072009
 30
0.0
 40
3.00000005960463
  1
 - M5
 50
390.84909686971
 41
0.933333333333333
 72
     1
 11
286.611309294348
 21
-96.5376933290632
 31
0.0
 73
     2
  0
LINE
  5
   1CE
  8
0
  6
CONTINUOUS
 62
     7
 10
293.645345658816
 20
-95.248377868779
 30
0.0
 11
246.982021539366
 21
-123.119524919041
 31
0.0
  0
LINE
  5
   1CF
  8
0
  6
CONTINUOUS
 62
     7
 10
250.195699020164
 20
-120.593261328753
 30
0.0
 11
247.926394374215
 21
-122.555468357555
 31
0.0
  0
LINE
  5
   1D0
  8
0
  6
CONTINUOUS
 62
     7
 10
247.926394374215
 20
-122.555468357555
 30
0.0
 11
250.72995745907
 21
-121.487744596818
 31
0.0
  0
LINE
  5
   1D1
  8
0
  6
CONTINUOUS
 62
     7
 10
244.712716893418
 20
-125.081731947843
 30
0.0
 11
246.982021539366
 21
-123.119524919041
 31
0.0
  0
LINE
  5
   1D2
  8
0
  6
CONTINUOUS
 62
     7
 10
246.982021539366
 20
-123.119524919041
 30
0.0
 11
244.178458454512
 21
-124.187248679778
 31
0.0
  0
ENDBLK
  5
   1D3
  8
0
  6
CONTINUOUS
 62
     7
  0
BLOCK
  5
   1D4
  8
0
  6
CONTINUOUS
 62
     7
  2
*UDIM299
 70
    65
 10
0.0
 20
0.0
 30
0.0
  3
*UDIM299
  0
TEXT
  5
   1D5
  8
0
  6
CONTINUOUS
 62
     7
 10
237.679208481082
 20
-85.166388666346
 30
0.0
 40
3.00000005960463
  1
70
 50
359.999999896069
 41
0.933333333333334
 72
     1
 11
240.179208533466
 21
-83.666388641066
 31
0.0
 73
     2
  0
LINE
  5
   1D6
  8
0
  6
CONTINUOUS
 62
     7
 10
247.454207956791
 20
-86.1663886708683
 30
0.0
 11
233.454208791256
 21
-86.1663886708683
 31
0.0
  0
LINE
  5
   1D7
  8
0
  6
CONTINUOUS
 62
     7
 10
244.499784679584
 20
-86.68733310082
 30
0.0
 11
247.454207956791
 21
-86.1663886708683
 31
0.0
  0
LINE
  5
   1D8
  8
0
  6
CONTINUOUS
 62
     7
 10
247.454207956791
 20
-86.1663886708683
 30
0.0
 11
244.499784679584
 21
-85.6454442409166
 31
0.0
  0
LINE
  5
   1D9
  8
0
  6
CONTINUOUS
 62
     7
 10
236.408632068463
 20
-85.6454442409166
 30
0.0
 11
233.454208791256
 21
-86.1663886708683
 31
0.0
  0
LINE
  5
   1DA
  8
0
  6
CONTINUOUS
 62
     7
 10
233.454208791256
 20
-86.1663886708683
 30
0.0
 11
236.408632068463
 21
-86.68733310082
 31
0.0
  0
ENDBLK
  5
   1DB
  8
0
  6
CONTINUOUS
 62
     7
  0
BLOCK
  5
   1DC
  8
0
  6
CONTINUOUS
 62
     7
  2
MANIGLIA_ALTO
 70
    64
 10
0.0
 20
0.0
 30
0.0
  3
MANIGLIA_ALTO
  0
LINE
  5
   1DD
  8
0
  6
CONTINUOUS
 62
   218
 10
62.3380546569824
 20
-372.902191162109
 30
0.0
 11
62.3380546569824
 21
-361.402191162109
 31
0.0
  0
LINE
  5
   1DE
  8
0
  6
CONTINUOUS
 62
   218
 10
62.3380546569824
 20
-390.902191162109
 30
0.0
 11
62.3380546569824
 21
-372.902191162109
 31
0.0
  0
LINE
  5
   1DF
  8
0
  6
CONTINUOUS
 62
   218
 10
213.83805847168
 20
-390.902191162109
 30
0.0
 11
213.83805847168
 21
-376.902191162109
 31
0.0
  0
LINE
  5
   1E0
  8
0
  6
CONTINUOUS
 62
   218
 10
205.788955688477
 20
-394.902191162109
 30
0.0
 11
207.664886474609
 21
-394.902191162109
 31
0.0
  0
LINE
  5
   1E1
  8
0
  6
CONTINUOUS
 62
   218
 10
203.83805847168
 20
-394.902191162109
 30
0.0
 11
205.788955688477
 21
-394.902191162109
 31
0.0
  0
LINE
  5
   1E2
  8
0
  6
CONTINUOUS
 62
   218
 10
207.664886474609
 20
-394.902191162109
 30
0.0
 11
209.393753051758
 21
-394.902191162109
 31
0.0
  0
LINE
  5
   1E3
  8
0
  6
CONTINUOUS
 62
   218
 10
209.393753051758
 20
-394.902191162109
 30
0.0
 11
209.83805847168
 21
-394.902191162109
 31
0.0
  0
LINE
  5
   1E4
  8
0
  6
CONTINUOUS
 62
   218
 10
173.83805847168
 20
-394.902191162109
 30
0.0
 11
179.83805847168
 21
-394.902191162109
 31
0.0
  0
LINE
  5
   1E5
  8
0
  6
CONTINUOUS
 62
   218
 10
179.83805847168
 20
-394.902191162109
 30
0.0
 11
203.83805847168
 21
-394.902191162109
 31
0.0
  0
LINE
  5
   1E6
  8
0
  6
CONTINUOUS
 62
   218
 10
87.5320663452148
 20
-394.902191162109
 30
0.0
 11
173.83805847168
 21
-394.902191162109
 31
0.0
  0
LINE
  5
   1E7
  8
0
  6
CONTINUOUS
 62
   218
 10
75.8728408813477
 20
-394.902191162109
 30
0.0
 11
77.9805297851563
 21
-394.902191162109
 31
0.0
  0
LINE
  5
   1E8
  8
0
  6
CONTINUOUS
 62
   218
 10
77.9805297851563
 20
-394.902191162109
 30
0.0
 11
80.2360076904297
 21
-394.902191162109
 31
0.0
  0
LINE
  5
   1E9
  8
0
  6
CONTINUOUS
 62
   218
 10
80.2360076904297
 20
-394.902191162109
 30
0.0
 11
82.6043853759766
 21
-394.902191162109
 31
0.0
  0
LINE
  5
   1EA
  8
0
  6
CONTINUOUS
 62
   218
 10
82.6043853759766
 20
-394.902191162109
 30
0.0
 11
85.0490188598633
 21
-394.902191162109
 31
0.0
  0
LINE
  5
   1EB
  8
0
  6
CONTINUOUS
 62
   218
 10
85.0490188598633
 20
-394.902191162109
 30
0.0
 11
87.5320663452148
 21
-394.902191162109
 31
0.0
  0
LINE
  5
   1EC
  8
0
  6
CONTINUOUS
 62
   218
 10
74.906494140625
 20
-394.902191162109
 30
0.0
 11
75.8728408813477
 21
-394.902191162109
 31
0.0
  0
LINE
  5
   1ED
  8
0
  6
CONTINUOUS
 62
   218
 10
73.8382720947266
 20
-394.902191162109
 30
0.0
 11
74.906494140625
 21
-394.902191162109
 31
0.0
  0
LINE
  5
   1EE
  8
0
  6
CONTINUOUS
 62
   218
 10
72.7478790283203
 20
-394.902191162109
 30
0.0
 11
73.8382720947266
 21
-394.902191162109
 31
0.0
  0
LINE
  5
   1EF
  8
0
  6
CONTINUOUS
 62
   218
 10
70.8215179443359
 20
-394.902191162109
 30
0.0
 11
71.7166442871094
 21
-394.902191162109
 31
0.0
  0
LINE
  5
   1F0
  8
0
  6
CONTINUOUS
 62
   218
 10
71.7166442871094
 20
-394.902191162109
 30
0.0
 11
72.7478790283203
 21
-394.902191162109
 31
0.0
  0
LINE
  5
   1F1
  8
0
  6
CONTINUOUS
 62
   218
 10
66.7888107299805
 20
-394.902191162109
 30
0.0
 11
68.6658325195313
 21
-394.902191162109
 31
0.0
  0
LINE
  5
   1F2
  8
0
  6
CONTINUOUS
 62
   218
 10
66.3380584716797
 20
-394.902191162109
 30
0.0
 11
66.7888107299805
 21
-394.902191162109
 31
0.0
  0
LINE
  5
   1F3
  8
0
  6
CONTINUOUS
 62
   218
 10
68.6658325195313
 20
-394.902191162109
 30
0.0
 11
70.8215179443359
 21
-394.902191162109
 31
0.0
  0
LINE
  5
   1F4
  8
0
  6
CONTINUOUS
 62
   218
 10
109.853317260742
 20
-361.402191162109
 30
0.0
 11
114.688591003418
 21
-361.402191162109
 31
0.0
  0
LINE
  5
   1F5
  8
0
  6
CONTINUOUS
 62
   218
 10
70.8215179443359
 20
-361.402191162109
 30
0.0
 11
71.7166442871094
 21
-361.402191162109
 31
0.0
  0
LINE
  5
   1F6
  8
0
  6
CONTINUOUS
 62
   218
 10
71.7166442871094
 20
-361.402191162109
 30
0.0
 11
71.9718246459961
 21
-361.402191162109
 31
0.0
  0
LINE
  5
   1F7
  8
0
  6
CONTINUOUS
 62
   218
 10
62.3380546569824
 20
-361.402191162109
 30
0.0
 11
62.5210952758789
 21
-361.402191162109
 31
0.0
  0
LINE
  5
   1F8
  8
0
  6
CONTINUOUS
 62
   218
 10
62.5210952758789
 20
-361.402191162109
 30
0.0
 11
63.0676803588867
 21
-361.402191162109
 31
0.0
  0
LINE
  5
   1F9
  8
0
  6
CONTINUOUS
 62
   218
 10
67.6103439331055
 20
-361.402191162109
 30
0.0
 11
68.6658325195313
 21
-361.402191162109
 31
0.0
  0
LINE
  5
   1FA
  8
0
  6
CONTINUOUS
 62
   218
 10
63.7391319274902
 20
-361.402191162109
 30
0.0
 11
63.9702682495117
 21
-361.402191162109
 31
0.0
  0
LINE
  5
   1FB
  8
0
  6
CONTINUOUS
 62
   218
 10
63.9702682495117
 20
-361.402191162109
 30
0.0
 11
65.2163848876953
 21
-361.402191162109
 31
0.0
  0
LINE
  5
   1FC
  8
0
  6
CONTINUOUS
 62
   218
 10
65.2163848876953
 20
-361.402191162109
 30
0.0
 11
66.7888107299805
 21
-361.402191162109
 31
0.0
  0
LINE
  5
   1FD
  8
0
  6
CONTINUOUS
 62
   218
 10
63.0676803588867
 20
-361.402191162109
 30
0.0
 11
63.588737487793
 21
-361.402191162109
 31
0.0
  0
LINE
  5
   1FE
  8
0
  6
CONTINUOUS
 62
   218
 10
68.6658325195313
 20
-361.402191162109
 30
0.0
 11
70.8215179443359
 21
-361.402191162109
 31
0.0
  0
LINE
  5
   1FF
  8
0
  6
CONTINUOUS
 62
   218
 10
66.7888107299805
 20
-361.402191162109
 30
0.0
 11
67.2918395996094
 21
-361.402191162109
 31
0.0
  0
LINE
  5
   200
  8
0
  6
CONTINUOUS
 62
   218
 10
212.189193725586
 20
-394.138244628906
 30
0.0
 11
213.074127197266
 21
-393.253326416016
 31
0.0
  0
LINE
  5
   201
  8
0
  6
CONTINUOUS
 62
   218
 10
211.074127197266
 20
-394.706420898438
 30
0.0
 11
212.152755737305
 21
-394.156829833985
 31
0.0
  0
LINE
  5
   202
  8
0
  6
CONTINUOUS
 62
   218
 10
210.909118652344
 20
-394.732543945313
 30
0.0
 11
211.074127197266
 21
-394.706420898438
 31
0.0
  0
LINE
  5
   203
  8
0
  6
CONTINUOUS
 62
   218
 10
212.152755737305
 20
-394.156829833984
 30
0.0
 11
212.189193725586
 21
-394.138244628906
 31
0.0
  0
LINE
  5
   204
  8
0
  6
CONTINUOUS
 62
   218
 10
213.642288208008
 20
-392.138244628906
 30
0.0
 11
213.645904541016
 21
-392.115356445313
 31
0.0
  0
LINE
  5
   205
  8
0
  6
CONTINUOUS
 62
   218
 10
209.83805847168
 20
-394.90219116211
 30
0.0
 11
210.909118652344
 21
-394.732543945313
 31
0.0
  0
LINE
  5
   206
  8
0
  6
CONTINUOUS
 62
   218
 10
213.645904541016
 20
-392.115356445312
 30
0.0
 11
213.83805847168
 21
-390.902191162109
 31
0.0
  0
LINE
  5
   207
  8
0
  6
CONTINUOUS
 62
   218
 10
213.076858520508
 20
-393.247985839844
 30
0.0
 11
213.642288208008
 21
-392.138244628906
 31
0.0
  0
LINE
  5
   208
  8
0
  6
CONTINUOUS
 62
   218
 10
213.074127197266
 20
-393.253326416016
 30
0.0
 11
213.076858520508
 21
-393.247985839844
 31
0.0
  0
LINE
  5
   209
  8
0
  6
CONTINUOUS
 62
   218
 10
63.986915588379
 20
-394.138244628906
 30
0.0
 11
65.1019897460938
 21
-394.706420898438
 31
0.0
  0
LINE
  5
   20A
  8
0
  6
CONTINUOUS
 62
   218
 10
62.521095275879
 20
-392.057830810547
 30
0.0
 11
62.5338287353516
 21
-392.138244628906
 31
0.0
  0
LINE
  5
   20B
  8
0
  6
CONTINUOUS
 62
   218
 10
65.2163848876953
 20
-394.724517822266
 30
0.0
 11
66.3380584716797
 21
-394.90219116211
 31
0.0
  0
LINE
  5
   20C
  8
0
  6
CONTINUOUS
 62
   218
 10
62.3380546569825
 20
-390.902191162109
 30
0.0
 11
62.521095275879
 21
-392.057830810547
 31
0.0
  0
LINE
  5
   20D
  8
0
  6
CONTINUOUS
 62
   218
 10
63.1019897460938
 20
-393.253326416016
 30
0.0
 11
63.9702682495118
 21
-394.121612548828
 31
0.0
  0
LINE
  5
   20E
  8
0
  6
CONTINUOUS
 62
   218
 10
65.1019897460938
 20
-394.706420898437
 30
0.0
 11
65.2163848876953
 21
-394.724517822266
 31
0.0
  0
LINE
  5
   20F
  8
0
  6
CONTINUOUS
 62
   218
 10
63.9702682495117
 20
-394.121612548828
 30
0.0
 11
63.9869155883789
 21
-394.138244628906
 31
0.0
  0
LINE
  5
   210
  8
0
  6
CONTINUOUS
 62
   218
 10
62.5338287353516
 20
-392.138244628906
 30
0.0
 11
63.0676803588868
 21
-393.186004638672
 31
0.0
  0
LINE
  5
   211
  8
0
  6
CONTINUOUS
 62
   218
 10
63.0676803588867
 20
-393.186004638672
 30
0.0
 11
63.1019897460938
 21
-393.253326416016
 31
0.0
  0
LINE
  5
   212
  8
0
  6
CONTINUOUS
 62
   218
 10
104.266105651856
 20
-376.90219116211
 30
0.0
 11
106.404235839844
 21
-376.597717285156
 31
0.0
  0
LINE
  5
   213
  8
0
  6
CONTINUOUS
 62
   218
 10
106.404235839844
 20
-376.597717285156
 30
0.0
 11
108.216857910156
 21
-375.730621337891
 31
0.0
  0
LINE
  5
   214
  8
0
  6
CONTINUOUS
 62
   218
 10
108.216857910156
 20
-375.730621337891
 30
0.0
 11
109.428016662598
 21
-374.432922363281
 31
0.0
  0
LINE
  5
   215
  8
0
  6
CONTINUOUS
 62
   218
 10
109.428016662598
 20
-374.432922363281
 30
0.0
 11
109.853317260742
 21
-372.902191162109
 31
0.0
  0
LINE
  5
   216
  8
0
  6
CONTINUOUS
 62
   218
 10
75.8728408813477
 20
-376.648345947266
 30
0.0
 11
77.1174240112305
 21
-376.902191162109
 31
0.0
  0
LINE
  5
   217
  8
0
  6
CONTINUOUS
 62
   218
 10
75.6007385253907
 20
-376.597717285156
 30
0.0
 11
75.8728408813477
 21
-376.648345947266
 31
0.0
  0
LINE
  5
   218
  8
0
  6
CONTINUOUS
 62
   218
 10
74.906494140625
 20
-376.163757324219
 30
0.0
 11
75.6007385253907
 21
-376.597717285156
 31
0.0
  0
LINE
  5
   219
  8
0
  6
CONTINUOUS
 62
   218
 10
72.7478790283204
 20
-374.517761230469
 30
0.0
 11
73.8382720947266
 21
-375.612854003906
 31
0.0
  0
LINE
  5
   21A
  8
0
  6
CONTINUOUS
 62
   218
 10
72.6260528564454
 20
-374.432922363281
 30
0.0
 11
72.7478790283204
 21
-374.517761230469
 31
0.0
  0
LINE
  5
   21B
  8
0
  6
CONTINUOUS
 62
   218
 10
71.9718246459961
 20
-372.902191162109
 30
0.0
 11
72.6260528564454
 21
-374.432922363281
 31
0.0
  0
LINE
  5
   21C
  8
0
  6
CONTINUOUS
 62
   218
 10
73.8382720947265
 20
-375.612854003906
 30
0.0
 11
73.9287719726563
 21
-375.730621337891
 31
0.0
  0
LINE
  5
   21D
  8
0
  6
CONTINUOUS
 62
   218
 10
73.9729690551759
 20
-375.756286621094
 30
0.0
 11
74.9064941406251
 21
-376.163757324219
 31
0.0
  0
LINE
  5
   21E
  8
0
  6
CONTINUOUS
 62
   218
 10
73.9287719726563
 20
-375.730621337891
 30
0.0
 11
73.9729690551758
 21
-375.756286621094
 31
0.0
  0
LINE
  5
   21F
  8
0
  6
CONTINUOUS
 62
   218
 10
77.1174240112305
 20
-376.902191162109
 30
0.0
 11
81.8851699829102
 21
-376.902191162109
 31
0.0
  0
LINE
  5
   220
  8
0
  6
CONTINUOUS
 62
   218
 10
81.8851699829102
 20
-376.902191162109
 30
0.0
 11
88.8380584716797
 21
-376.902191162109
 31
0.0
  0
LINE
  5
   221
  8
0
  6
CONTINUOUS
 62
   218
 10
88.8380584716797
 20
-376.902191162109
 30
0.0
 11
95.7909393310547
 21
-376.902191162109
 31
0.0
  0
LINE
  5
   222
  8
0
  6
CONTINUOUS
 62
   218
 10
95.7909393310547
 20
-376.902191162109
 30
0.0
 11
102.06322479248
 21
-376.902191162109
 31
0.0
  0
LINE
  5
   223
  8
0
  6
CONTINUOUS
 62
   218
 10
102.06322479248
 20
-376.902191162109
 30
0.0
 11
104.266105651855
 21
-376.902191162109
 31
0.0
  0
LINE
  5
   224
  8
0
  6
CONTINUOUS
 62
   218
 10
109.853317260742
 20
-372.902191162109
 30
0.0
 11
109.853317260742
 21
-361.402191162109
 31
0.0
  0
LINE
  5
   225
  8
0
  6
CONTINUOUS
 62
   218
 10
71.9718246459961
 20
-372.902191162109
 30
0.0
 11
71.9718246459961
 21
-361.402191162109
 31
0.0
  0
LINE
  5
   226
  8
0
  6
CONTINUOUS
 62
   218
 10
80.6491088867188
 20
-361.402191162109
 30
0.0
 11
88.8380584716797
 21
-361.402191162109
 31
0.0
  0
LINE
  5
   227
  8
0
  6
CONTINUOUS
 62
   218
 10
88.8380584716797
 20
-361.402191162109
 30
0.0
 11
97.0270080566406
 21
-361.402191162109
 31
0.0
  0
LINE
  5
   228
  8
0
  6
CONTINUOUS
 62
   218
 10
97.0270080566406
 20
-361.402191162109
 30
0.0
 11
104.414367675781
 21
-361.402191162109
 31
0.0
  0
LINE
  5
   229
  8
0
  6
CONTINUOUS
 62
   218
 10
63.6350593566895
 20
-361.402191162109
 30
0.0
 11
63.7391319274902
 21
-361.402191162109
 31
0.0
  0
LINE
  5
   22A
  8
0
  6
CONTINUOUS
 62
   218
 10
67.3991088867188
 20
-361.402191162109
 30
0.0
 11
67.6103439331055
 21
-361.402191162109
 31
0.0
  0
LINE
  5
   22B
  8
0
  6
CONTINUOUS
 62
   218
 10
104.414367675781
 20
-361.402191162109
 30
0.0
 11
109.853317260742
 21
-361.402191162109
 31
0.0
  0
LINE
  5
   22C
  8
0
  6
CONTINUOUS
 62
   218
 10
63.588737487793
 20
-361.402191162109
 30
0.0
 11
63.6350593566895
 21
-361.402191162109
 31
0.0
  0
LINE
  5
   22D
  8
0
  6
CONTINUOUS
 62
   218
 10
67.2918395996094
 20
-361.402191162109
 30
0.0
 11
67.3991088867188
 21
-361.402191162109
 31
0.0
  0
LINE
  5
   22E
  8
0
  6
CONTINUOUS
 62
   218
 10
71.9718246459961
 20
-361.402191162109
 30
0.0
 11
73.2617492675781
 21
-361.402191162109
 31
0.0
  0
LINE
  5
   22F
  8
0
  6
CONTINUOUS
 62
   218
 10
73.2617492675781
 20
-361.402191162109
 30
0.0
 11
80.6491088867188
 21
-361.402191162109
 31
0.0
  0
LINE
  5
   230
  8
0
  6
CONTINUOUS
 62
   218
 10
114.688591003418
 20
-361.402191162109
 30
0.0
 11
115.809562683105
 21
-361.402191162109
 31
0.0
  0
LINE
  5
   231
  8
0
  6
CONTINUOUS
 62
   218
 10
117.699363708496
 20
-361.402191162109
 30
0.0
 11
118.316734313965
 21
-361.402191162109
 31
0.0
  0
LINE
  5
   232
  8
0
  6
CONTINUOUS
 62
   218
 10
116.840698242188
 20
-361.402191162109
 30
0.0
 11
117.699363708496
 21
-361.402191162109
 31
0.0
  0
LINE
  5
   233
  8
0
  6
CONTINUOUS
 62
   218
 10
115.809562683105
 20
-361.402191162109
 30
0.0
 11
116.840698242188
 21
-361.402191162109
 31
0.0
  0
LINE
  5
   234
  8
0
  6
CONTINUOUS
 62
   218
 10
118.316734313965
 20
-361.402191162109
 30
0.0
 11
119.62678527832
 21
-361.402191162109
 31
0.0
  0
LINE
  5
   235
  8
0
  6
CONTINUOUS
 62
   218
 10
120.573738098145
 20
-361.402191162109
 30
0.0
 11
121.10929107666
 21
-361.402191162109
 31
0.0
  0
LINE
  5
   236
  8
0
  6
CONTINUOUS
 62
   218
 10
119.62678527832
 20
-361.402191162109
 30
0.0
 11
120.573738098145
 21
-361.402191162109
 31
0.0
  0
LINE
  5
   237
  8
0
  6
CONTINUOUS
 62
   218
 10
203.83805847168
 20
-376.902191162109
 30
0.0
 11
205.788955688477
 21
-376.902191162109
 31
0.0
  0
LINE
  5
   238
  8
0
  6
CONTINUOUS
 62
   218
 10
213.645904541016
 20
-376.902191162109
 30
0.0
 11
213.83805847168
 21
-376.902191162109
 31
0.0
  0
LINE
  5
   239
  8
0
  6
CONTINUOUS
 62
   218
 10
213.076858520508
 20
-376.902191162109
 30
0.0
 11
213.645904541016
 21
-376.902191162109
 31
0.0
  0
LINE
  5
   23A
  8
0
  6
CONTINUOUS
 62
   218
 10
212.152755737305
 20
-376.902191162109
 30
0.0
 11
213.076858520508
 21
-376.902191162109
 31
0.0
  0
LINE
  5
   23B
  8
0
  6
CONTINUOUS
 62
   218
 10
210.909118652344
 20
-376.902191162109
 30
0.0
 11
212.152755737305
 21
-376.902191162109
 31
0.0
  0
LINE
  5
   23C
  8
0
  6
CONTINUOUS
 62
   218
 10
209.393753051758
 20
-376.902191162109
 30
0.0
 11
210.909118652344
 21
-376.902191162109
 31
0.0
  0
LINE
  5
   23D
  8
0
  6
CONTINUOUS
 62
   218
 10
207.664886474609
 20
-376.902191162109
 30
0.0
 11
209.393753051758
 21
-376.902191162109
 31
0.0
  0
LINE
  5
   23E
  8
0
  6
CONTINUOUS
 62
   218
 10
205.788955688477
 20
-376.902191162109
 30
0.0
 11
207.664886474609
 21
-376.902191162109
 31
0.0
  0
LINE
  5
   23F
  8
0
  6
CONTINUOUS
 62
   218
 10
173.83805847168
 20
-376.902191162109
 30
0.0
 11
203.83805847168
 21
-376.902191162109
 31
0.0
  0
LINE
  5
   240
  8
0
  6
CONTINUOUS
 62
   218
 10
124.794715881348
 20
-376.902191162109
 30
0.0
 11
173.83805847168
 21
-376.902191162109
 31
0.0
  0
LINE
  5
   241
  8
0
  6
CONTINUOUS
 62
   218
 10
122.163124084473
 20
-376.480041503906
 30
0.0
 11
123.458618164063
 21
-376.795837402344
 31
0.0
  0
LINE
  5
   242
  8
0
  6
CONTINUOUS
 62
   218
 10
120.94758605957
 20
-375.96435546875
 30
0.0
 11
122.163124084473
 21
-376.480041503906
 31
0.0
  0
LINE
  5
   243
  8
0
  6
CONTINUOUS
 62
   218
 10
118.131294250488
 20
-373.402191162109
 30
0.0
 11
118.900573730469
 21
-374.401702880859
 31
0.0
  0
LINE
  5
   244
  8
0
  6
CONTINUOUS
 62
   218
 10
118.900573730469
 20
-374.401702880859
 30
0.0
 11
119.848945617676
 21
-375.264495849609
 31
0.0
  0
LINE
  5
   245
  8
0
  6
CONTINUOUS
 62
   218
 10
117.564483642578
 20
-372.296325683594
 30
0.0
 11
118.131294250488
 21
-373.402191162109
 31
0.0
  0
LINE
  5
   246
  8
0
  6
CONTINUOUS
 62
   218
 10
119.848945617676
 20
-375.264495849609
 30
0.0
 11
120.94758605957
 21
-375.96435546875
 31
0.0
  0
LINE
  5
   247
  8
0
  6
CONTINUOUS
 62
   218
 10
117.217353820801
 20
-371.117706298828
 30
0.0
 11
117.564483642578
 21
-372.296325683594
 31
0.0
  0
LINE
  5
   248
  8
0
  6
CONTINUOUS
 62
   218
 10
123.458618164063
 20
-376.795837402344
 30
0.0
 11
124.794715881348
 21
-376.90219116211
 31
0.0
  0
LINE
  5
   249
  8
0
  6
CONTINUOUS
 62
   218
 10
117.100463867188
 20
-369.902191162109
 30
0.0
 11
117.217353820801
 21
-371.117706298828
 31
0.0
  0
LINE
  5
   24A
  8
0
  6
CONTINUOUS
 62
   218
 10
121.10929107666
 20
-371.037322998047
 30
0.0
 11
121.10929107666
 21
-361.402191162109
 31
0.0
  0
LINE
  5
   24B
  8
0
  6
CONTINUOUS
 62
   218
 10
121.10929107666
 20
-371.037322998047
 30
0.0
 11
121.116325378418
 21
-371.117706298828
 31
0.0
  0
ARC
  5
   24C
  8
0
  6
CONTINUOUS
 62
   218
 10
128.009921620958
 20
-369.902229724972
 30
0.0
 40
6.99993231801213
 50
189.662376711562
 51
270.0
  0
ENDBLK
  5
   24D
  8
0
  6
CONTINUOUS
 62
     7
  0
BLOCK
  5
   24E
  8
0
  6
CONTINUOUS
 62
     7
  2
*UDIM300
 70
    65
 10
0.0
 20
0.0
 30
0.0
  3
*UDIM300
  0
TEXT
  5
   24F
  8
0
  6
CONTINUOUS
 62
     7
 10
-21.0111572576777
 20
-174.032727432057
 30
0.0
 40
2.99999997871263
  1
R min.200
 50
359.999999896069
 41
0.933333333333333
 72
     1
 11
-8.71115734224257
 21
-172.53272746495
 31
0.0
 73
     2
  0
LINE
  5
   250
  8
0
  6
CONTINUOUS
 62
     7
 10
27.3013445240214
 20
-161.470711730849
 30
0.0
 11
27.3013445240214
 21
-177.032727454307
 31
0.0
  0
LINE
  5
   251
  8
0
  6
CONTINUOUS
 62
     7
 10
-25.198654581909
 20
-158.604016364471
 30
0.0
 11
-25.198654581909
 21
-177.032727454307
 31
0.0
  0
LINE
  5
   252
  8
0
  6
CONTINUOUS
 62
     7
 10
27.3013445240214
 20
-175.032727454307
 30
0.0
 11
-25.198654581909
 21
-175.032727454307
 31
0.0
  0
LINE
  5
   253
  8
0
  6
CONTINUOUS
 62
     7
 10
24.3469212468144
 20
-175.553671884258
 30
0.0
 11
27.3013445240214
 21
-175.032727454307
 31
0.0
  0
LINE
  5
   254
  8
0
  6
CONTINUOUS
 62
     7
 10
27.3013445240214
 20
-175.032727454307
 30
0.0
 11
24.3469212468144
 21
-174.511783024355
 31
0.0
  0
LINE
  5
   255
  8
0
  6
CONTINUOUS
 62
     7
 10
-22.244231304702
 20
-174.511783024355
 30
0.0
 11
-25.198654581909
 21
-175.032727454307
 31
0.0
  0
LINE
  5
   256
  8
0
  6
CONTINUOUS
 62
     7
 10
-25.198654581909
 20
-175.032727454307
 30
0.0
 11
-22.244231304702
 21
-175.553671884258
 31
0.0
  0
ENDBLK
  5
   257
  8
0
  6
CONTINUOUS
 62
     7
  0
BLOCK
  5
   258
  8
0
  6
CONTINUOUS
 62
     7
  2
*UDIM301
 70
    65
 10
0.0
 20
0.0
 30
0.0
  3
*UDIM301
  0
TEXT
  5
   259
  8
0
  6
CONTINUOUS
 62
     7
 10
204.792873908251
 20
7.16587456287387
 30
0.0
 40
2.99999997871263
  1
28
 50
90.0
 41
0.933333333333333
 72
     1
 11
203.292873918892
 21
9.6658745451325
 31
0.0
 73
     2
  0
LINE
  5
   25A
  8
0
  6
CONTINUOUS
 62
     7
 10
208.519114453722
 20
3.9191156097961
 30
0.0
 11
203.792873908248
 21
3.9191156097961
 31
0.0
  0
LINE
  5
   25B
  8
0
  6
CONTINUOUS
 62
     7
 10
211.857065602082
 20
13.7191154429031
 30
0.0
 11
203.792873908248
 21
13.7191154429031
 31
0.0
  0
LINE
  5
   25C
  8
0
  6
CONTINUOUS
 62
     7
 10
205.792873908248
 20
3.9191156097961
 30
0.0
 11
205.792873908248
 21
13.7191154429031
 31
0.0
  0
LINE
  5
   25D
  8
0
  6
CONTINUOUS
 62
     7
 10
205.271929478296
 20
6.87353888700306
 30
0.0
 11
205.792873908248
 21
3.9191156097961
 31
0.0
  0
LINE
  5
   25E
  8
0
  6
CONTINUOUS
 62
     7
 10
205.792873908248
 20
3.9191156097961
 30
0.0
 11
206.3138183382
 21
6.87353888700306
 31
0.0
  0
LINE
  5
   25F
  8
0
  6
CONTINUOUS
 62
     7
 10
206.3138183382
 20
10.7646921656961
 30
0.0
 11
205.792873908248
 21
13.7191154429031
 31
0.0
  0
LINE
  5
   260
  8
0
  6
CONTINUOUS
 62
     7
 10
205.792873908248
 20
13.7191154429031
 30
0.0
 11
205.271929478296
 21
10.7646921656961
 31
0.0
  0
ENDBLK
  5
   261
  8
0
  6
CONTINUOUS
 62
     7
  0
BLOCK
  5
   262
  8
0
  6
CONTINUOUS
 62
     7
  2
*UDIM302
 70
    65
 10
0.0
 20
0.0
 30
0.0
  3
*UDIM302
  0
TEXT
  5
   263
  8
0
  6
CONTINUOUS
 62
     7
 10
231.864889002511
 20
-29.9053478866106
 30
0.0
 40
2.99999997871263
  1
R min.200
 41
0.933333333333333
 72
     1
 11
244.164888915233
 21
-28.4053478972543
 31
0.0
 73
     2
  0
LINE
  5
   264
  8
0
  6
CONTINUOUS
 62
     7
 10
225.929214789096
 20
3.48394982831132
 30
0.0
 11
225.929214789096
 21
-32.9053478866106
 31
0.0
  0
LINE
  5
   265
  8
0
  6
CONTINUOUS
 62
     7
 10
225.929214789096
 20
-30.9053478866106
 30
0.0
 11
259.000034668342
 21
-30.9053478866106
 31
0.0
  0
LINE
  5
   266
  8
0
  6
CONTINUOUS
 62
     7
 10
228.883638066303
 20
-30.3844034566589
 30
0.0
 11
225.929214789096
 21
-30.9053478866106
 31
0.0
  0
LINE
  5
   267
  8
0
  6
CONTINUOUS
 62
     7
 10
225.929214789096
 20
-30.9053478866106
 30
0.0
 11
228.883638066303
 21
-31.4262923165622
 31
0.0
  0
LINE
  5
   268
  8
0
  6
CONTINUOUS
 62
     7
 10
256.045611391135
 20
-31.4262923165622
 30
0.0
 11
259.000034668342
 21
-30.9053478866106
 31
0.0
  0
LINE
  5
   269
  8
0
  6
CONTINUOUS
 62
     7
 10
259.000034668342
 20
-30.9053478866106
 30
0.0
 11
256.045611391135
 21
-30.3844034566589
 31
0.0
  0
ENDBLK
  5
   26A
  8
0
  6
CONTINUOUS
 62
     7
  0
BLOCK
  5
   26B
  8
0
  6
CONTINUOUS
 62
     7
  2
*UDIM303
 70
    65
 10
0.0
 20
0.0
 30
0.0
  3
*UDIM303
  0
TEXT
  5
   26C
  8
0
  6
CONTINUOUS
 62
     7
 10
228.758423446378
 20
34.9029674312192
 30
0.0
 40
2.99999997871263
  1
5
 41
0.933333333333333
 72
     1
 11
229.858423438572
 21
36.4029674205755
 31
0.0
 73
     2
  0
LINE
  5
   26D
  8
0
  6
CONTINUOUS
 62
     7
 10
234.508423645486
 20
22.7759232445592
 30
0.0
 11
234.508423645486
 21
35.9029674312192
 31
0.0
  0
LINE
  5
   26E
  8
0
  6
CONTINUOUS
 62
     7
 10
236.258423615683
 20
22.7759232445592
 30
0.0
 11
236.258423615683
 21
35.9029674312192
 31
0.0
  0
LINE
  5
   26F
  8
0
  6
CONTINUOUS
 62
     7
 10
228.758423446378
 20
33.9029674312192
 30
0.0
 11
236.258423615683
 21
33.9029674312192
 31
0.0
  0
LINE
  5
   270
  8
0
  6
CONTINUOUS
 62
     7
 10
231.554000368279
 20
33.3820230012675
 30
0.0
 11
234.508423645486
 21
33.9029674312192
 31
0.0
  0
LINE
  5
   271
  8
0
  6
CONTINUOUS
 62
     7
 10
234.508423645486
 20
33.9029674312192
 30
0.0
 11
231.554000368279
 21
34.4239118611708
 31
0.0
  0
LINE
  5
   272
  8
0
  6
CONTINUOUS
 62
     7
 10
239.21284689289
 20
34.4239118611708
 30
0.0
 11
236.258423615683
 21
33.9029674312192
 31
0.0
  0
LINE
  5
   273
  8
0
  6
CONTINUOUS
 62
     7
 10
236.258423615683
 20
33.9029674312192
 30
0.0
 11
239.21284689289
 21
33.3820230012675
 31
0.0
  0
ENDBLK
  5
   274
  8
0
  6
CONTINUOUS
 62
     7
  0
BLOCK
  5
   275
  8
0
  6
CONTINUOUS
 62
     7
  2
*UDIM304
 70
    65
 10
0.0
 20
0.0
 30
0.0
  3
*UDIM304
  0
TEXT
  5
   276
  8
0
  6
CONTINUOUS
 62
     7
 10
223.154214483693
 20
-1.83805977511611
 30
0.0
 40
2.99999997871263
  1
33
 41
0.933333333333333
 72
     1
 11
225.654214465954
 21
-0.338059785759796
 31
0.0
 73
     2
  0
LINE
  5
   277
  8
0
  6
CONTINUOUS
 62
     7
 10
220.154214887443
 20
12.7191154429031
 30
0.0
 11
220.154214887443
 21
-4.83805977511611
 31
0.0
  0
LINE
  5
   278
  8
0
  6
CONTINUOUS
 62
     7
 10
231.704214690748
 20
12.7191154429031
 30
0.0
 11
231.704214690748
 21
-4.83805977511611
 31
0.0
  0
LINE
  5
   279
  8
0
  6
CONTINUOUS
 62
     7
 10
220.154214887443
 20
-2.83805977511611
 30
0.0
 11
231.704214690748
 21
-2.83805977511611
 31
0.0
  0
LINE
  5
   27A
  8
0
  6
CONTINUOUS
 62
     7
 10
217.199791610236
 20
-3.35900420506777
 30
0.0
 11
220.154214887443
 21
-2.83805977511611
 31
0.0
  0
LINE
  5
   27B
  8
0
  6
CONTINUOUS
 62
     7
 10
220.154214887443
 20
-2.83805977511611
 30
0.0
 11
217.199791610236
 21
-2.31711534516444
 31
0.0
  0
LINE
  5
   27C
  8
0
  6
CONTINUOUS
 62
     7
 10
234.658637967955
 20
-2.31711534516444
 30
0.0
 11
231.704214690748
 21
-2.83805977511611
 31
0.0
  0
LINE
  5
   27D
  8
0
  6
CONTINUOUS
 62
     7
 10
231.704214690748
 20
-2.83805977511611
 30
0.0
 11
234.658637967955
 21
-3.35900420506777
 31
0.0
  0
ENDBLK
  5
   27E
  8
0
  6
CONTINUOUS
 62
     7
  0
BLOCK
  5
   27F
  8
0
  6
CONTINUOUS
 62
     7
  2
*UDIM305
 70
    65
 10
0.0
 20
0.0
 30
0.0
  3
*UDIM305
  0
TEXT
  5
   280
  8
0
  6
CONTINUOUS
 62
     7
 10
223.158428211241
 20
-24.0497152997164
 30
0.0
 40
2.99999997871263
  1
54
 41
0.933333333333333
 72
     1
 11
225.658428193501
 21
-22.5497153103601
 31
0.0
 73
     2
  0
LINE
  5
   281
  8
0
  6
CONTINUOUS
 62
     7
 10
216.483423952449
 20
-25.0497152997164
 30
0.0
 11
235.38343028538
 21
-25.0497152997164
 31
0.0
  0
LINE
  5
   282
  8
0
  6
CONTINUOUS
 62
     7
 10
219.437847229656
 20
-24.5287708697647
 30
0.0
 11
216.483423952449
 21
-25.0497152997164
 31
0.0
  0
LINE
  5
   283
  8
0
  6
CONTINUOUS
 62
     7
 10
216.483423952449
 20
-25.0497152997164
 30
0.0
 11
219.437847229656
 21
-25.5706597296681
 31
0.0
  0
LINE
  5
   284
  8
0
  6
CONTINUOUS
 62
     7
 10
232.429007008173
 20
-25.5706597296681
 30
0.0
 11
235.38343028538
 21
-25.0497152997164
 31
0.0
  0
LINE
  5
   285
  8
0
  6
CONTINUOUS
 62
     7
 10
235.38343028538
 20
-25.0497152997164
 30
0.0
 11
232.429007008173
 21
-24.5287708697647
 31
0.0
  0
ENDBLK
  5
   286
  8
0
  6
CONTINUOUS
 62
     7
  0
BLOCK
  5
   287
  8
0
  6
CONTINUOUS
 62
     7
  2
*UDIM306
 70
    65
 10
0.0
 20
0.0
 30
0.0
  3
*UDIM306
  0
TEXT
  5
   288
  8
0
  6
CONTINUOUS
 62
     7
 10
218.815408978753
 20
-9.11689647366802
 30
0.0
 40
2.99999997871263
  1
27
 41
0.933333333333333
 72
     1
 11
221.315408961014
 21
-7.61689648431171
 31
0.0
 73
     2
  0
LINE
  5
   289
  8
0
  6
CONTINUOUS
 62
     7
 10
225.929214789096
 20
3.48394982831132
 30
0.0
 11
225.929214789096
 21
-12.116896473668
 31
0.0
  0
LINE
  5
   28A
  8
0
  6
CONTINUOUS
 62
     7
 10
216.483423952449
 20
-10.116896473668
 30
0.0
 11
225.929214789096
 21
-10.116896473668
 31
0.0
  0
LINE
  5
   28B
  8
0
  6
CONTINUOUS
 62
     7
 10
213.529000675242
 20
-10.6378409036197
 30
0.0
 11
216.483423952449
 21
-10.116896473668
 31
0.0
  0
LINE
  5
   28C
  8
0
  6
CONTINUOUS
 62
     7
 10
216.483423952449
 20
-10.116896473668
 30
0.0
 11
213.529000675242
 21
-9.59595204371636
 31
0.0
  0
LINE
  5
   28D
  8
0
  6
CONTINUOUS
 62
     7
 10
228.883638066303
 20
-9.59595204371636
 30
0.0
 11
225.929214789096
 21
-10.116896473668
 31
0.0
  0
LINE
  5
   28E
  8
0
  6
CONTINUOUS
 62
     7
 10
225.929214789096
 20
-10.116896473668
 30
0.0
 11
228.883638066303
 21
-10.6378409036197
 31
0.0
  0
ENDBLK
  5
   28F
  8
0
  6
CONTINUOUS
 62
     7
  0
BLOCK
  5
   290
  8
0
  6
CONTINUOUS
 62
     7
  2
*UDIM307
 70
    65
 10
0.0
 20
0.0
 30
0.0
  3
*UDIM307
  0
TEXT
  5
   291
  8
0
  6
CONTINUOUS
 62
     7
 10
273.098176080209
 20
11.1352310193749
 30
0.0
 40
2.99999997871263
  1
46
 50
90.0
 41
0.933333333333333
 72
     1
 11
271.598176090849
 21
13.6352310016335
 31
0.0
 73
     2
  0
LINE
  5
   292
  8
0
  6
CONTINUOUS
 62
     7
 10
274.098176080206
 20
5.67592351874055
 30
0.0
 11
274.098176080206
 21
21.7759232445592
 31
0.0
  0
LINE
  5
   293
  8
0
  6
CONTINUOUS
 62
     7
 10
273.577231650254
 20
8.63034679594752
 30
0.0
 11
274.098176080206
 21
5.67592351874055
 31
0.0
  0
LINE
  5
   294
  8
0
  6
CONTINUOUS
 62
     7
 10
274.098176080206
 20
5.67592351874055
 30
0.0
 11
274.619120510157
 21
8.63034679594752
 31
0.0
  0
LINE
  5
   295
  8
0
  6
CONTINUOUS
 62
     7
 10
274.619120510157
 20
18.8214999673522
 30
0.0
 11
274.098176080206
 21
21.7759232445592
 31
0.0
  0
LINE
  5
   296
  8
0
  6
CONTINUOUS
 62
     7
 10
274.098176080206
 20
21.7759232445592
 30
0.0
 11
273.577231650254
 21
18.8214999673522
 31
0.0
  0
ENDBLK
  5
   297
  8
0
  6
CONTINUOUS
 62
     7
  0
BLOCK
  5
   298
  8
0
  6
CONTINUOUS
 62
     7
  2
*UDIM308
 70
    65
 10
0.0
 20
0.0
 30
0.0
  3
*UDIM308
  0
TEXT
  5
   299
  8
0
  6
CONTINUOUS
 62
     7
 10
266.01991005695
 20
7.08644163150984
 30
0.0
 40
2.99999997871263
  1
=
 50
90.0
 41
0.933333333333333
 72
     1
 11
264.519910067593
 21
8.18644162370258
 31
0.0
 73
     2
  0
LINE
  5
   29A
  8
0
  6
CONTINUOUS
 62
     7
 10
264.321965631018
 20
13.7191154429031
 30
0.0
 11
269.019910056949
 21
13.7191154429031
 31
0.0
  0
LINE
  5
   29B
  8
0
  6
CONTINUOUS
 62
     7
 10
267.019910056949
 20
5.6759310487808
 30
0.0
 11
267.019910056949
 21
13.7191154429031
 31
0.0
  0
LINE
  5
   29C
  8
0
  6
CONTINUOUS
 62
     7
 10
266.498965626997
 20
8.63035432598776
 30
0.0
 11
267.019910056949
 21
5.6759310487808
 31
0.0
  0
LINE
  5
   29D
  8
0
  6
CONTINUOUS
 62
     7
 10
267.019910056949
 20
5.6759310487808
 30
0.0
 11
267.540854486901
 21
8.63035432598776
 31
0.0
  0
LINE
  5
   29E
  8
0
  6
CONTINUOUS
 62
     7
 10
267.540854486901
 20
10.7646921656961
 30
0.0
 11
267.019910056949
 21
13.7191154429031
 31
0.0
  0
LINE
  5
   29F
  8
0
  6
CONTINUOUS
 62
     7
 10
267.019910056949
 20
13.7191154429031
 30
0.0
 11
266.498965626997
 21
10.7646921656961
 31
0.0
  0
ENDBLK
  5
   2A0
  8
0
  6
CONTINUOUS
 62
     7
  0
BLOCK
  5
   2A1
  8
0
  6
CONTINUOUS
 62
     7
  2
*UDIM309
 70
    65
 10
0.0
 20
0.0
 30
0.0
  3
*UDIM309
  0
TEXT
  5
   2A2
  8
0
  6
CONTINUOUS
 62
     7
 10
266.01991005695
 20
15.7059203551797
 30
0.0
 40
2.99999997871263
  1
=
 50
90.0
 41
0.933333333333333
 72
     1
 11
264.519910067593
 21
16.8059203473725
 31
0.0
 73
     2
  0
LINE
  5
   2A3
  8
0
  6
CONTINUOUS
 62
     7
 10
267.019910056949
 20
13.7191154429031
 30
0.0
 11
267.019910056949
 21
21.7759176874608
 31
0.0
  0
LINE
  5
   2A4
  8
0
  6
CONTINUOUS
 62
     7
 10
266.498965626997
 20
16.6735387201101
 30
0.0
 11
267.019910056949
 21
13.7191154429031
 31
0.0
  0
LINE
  5
   2A5
  8
0
  6
CONTINUOUS
 62
     7
 10
267.019910056949
 20
13.7191154429031
 30
0.0
 11
267.540854486901
 21
16.6735387201101
 31
0.0
  0
LINE
  5
   2A6
  8
0
  6
CONTINUOUS
 62
     7
 10
267.540854486901
 20
18.8214944102538
 30
0.0
 11
267.019910056949
 21
21.7759176874608
 31
0.0
  0
LINE
  5
   2A7
  8
0
  6
CONTINUOUS
 62
     7
 10
267.019910056949
 20
21.7759176874608
 30
0.0
 11
266.498965626997
 21
18.8214944102538
 31
0.0
  0
ENDBLK
  5
   2A8
  8
0
  6
CONTINUOUS
 62
     7
  0
BLOCK
  5
   2A9
  8
0
  6
CONTINUOUS
 62
     7
  2
*UDIM310
 70
    65
 10
0.0
 20
0.0
 30
0.0
  3
*UDIM310
  0
TEXT
  5
   2AA
  8
0
  6
CONTINUOUS
 62
     7
 10
227.238087437734
 20
42.98316291129
 30
0.0
 40
2.99999997871263
  1
41,5
 41
0.933333333333333
 72
     1
 11
232.538087400127
 21
44.4831629006463
 31
0.0
 73
     2
  0
LINE
  5
   2AB
  8
0
  6
CONTINUOUS
 62
     7
 10
225.929214789096
 20
39.5186474484209
 30
0.0
 11
225.929214789096
 21
43.98316291129
 31
0.0
  0
LINE
  5
   2AC
  8
0
  6
CONTINUOUS
 62
     7
 10
225.929214789096
 20
41.98316291129
 30
0.0
 11
240.454214541737
 21
41.98316291129
 31
0.0
  0
LINE
  5
   2AD
  8
0
  6
CONTINUOUS
 62
     7
 10
228.883638066303
 20
42.5041073412417
 30
0.0
 11
225.929214789096
 21
41.98316291129
 31
0.0
  0
LINE
  5
   2AE
  8
0
  6
CONTINUOUS
 62
     7
 10
225.929214789096
 20
41.98316291129
 30
0.0
 11
228.883638066303
 21
41.4622184813384
 31
0.0
  0
LINE
  5
   2AF
  8
0
  6
CONTINUOUS
 62
     7
 10
237.49979126453
 20
41.4622184813384
 30
0.0
 11
240.454214541737
 21
41.98316291129
 31
0.0
  0
LINE
  5
   2B0
  8
0
  6
CONTINUOUS
 62
     7
 10
240.454214541737
 20
41.98316291129
 30
0.0
 11
237.49979126453
 21
42.5041073412417
 31
0.0
  0
ENDBLK
  5
   2B1
  8
0
  6
CONTINUOUS
 62
     7
  0
ENDSEC
  0
SECTION
  2
ENTITIES
  0
LINE
  5
   2B2
  8
0
  6
CONTINUOUS
 62
     1
 10
-46.3246385099887
 20
-74.6629659196335
 30
0.0
 11
-46.983195571604
 21
-74.6629635831319
 31
0.0
  0
LINE
  5
   2B3
  8
0
  6
CONTINUOUS
 62
     1
 10
24.9831887724399
 20
-74.6629659196335
 30
0.0
 11
25.6417458340552
 21
-74.6629635831319
 31
0.0
  0
LINE
  5
   2B4
  8
0
  6
CONTINUOUS
 62
     1
 10
26.079270588581
 20
-0.987974107265472
 30
0.0
 11
-47.4207203261298
 21
-0.987974107265472
 31
0.0
  0
LINE
  5
   2B5
  8
0
  6
CONTINUOUS
 62
     1
 10
24.983187656343
 20
-74.6629662454129
 30
0.0
 11
-46.3246320533162
 21
-74.6629662454129
 31
0.0
  0
LINE
  5
   2B6
  8
0
  6
CONTINUOUS
 62
     1
 10
25.9917607039224
 20
-74.3129662811756
 30
0.0
 11
-47.3332104414712
 21
-74.3129662811756
 31
0.0
  0
LINE
  5
   2B7
  8
0
  6
CONTINUOUS
 62
     1
 10
-36.5706618658475
 20
-29.5129925549008
 30
0.0
 11
-47.4207163145432
 21
-29.5129925549008
 31
0.0
  0
LINE
  5
   2B8
  8
0
  6
CONTINUOUS
 62
     1
 10
25.9917607039224
 20
-29.5129925549008
 30
0.0
 11
13.9867555218952
 21
-29.5129925549008
 31
0.0
  0
LINE
  5
   2B9
  8
0
  6
CONTINUOUS
 62
     1
 10
25.9917607039224
 20
-66.2629731118673
 30
0.0
 11
-35.3282052594441
 21
-66.2629731118673
 31
0.0
  0
LINE
  5
   2BA
  8
0
  6
CONTINUOUS
 62
     1
 10
-35.1707238687034
 20
-66.2629731118673
 30
0.0
 11
-47.3332211226225
 21
-66.2629731118673
 31
0.0
  0
LINE
  5
   2BB
  8
0
  6
CONTINUOUS
 62
     1
 10
-46.6682126456508
 20
-29.5129925549008
 30
0.0
 11
-46.6682126456508
 21
-0.987979447841099
 31
0.0
  0
LINE
  5
   2BC
  8
0
  6
CONTINUOUS
 62
     1
 10
-45.4081999570153
 20
-29.5129925549008
 30
0.0
 11
-45.4081999570153
 21
-0.987979447841099
 31
0.0
  0
LINE
  5
   2BD
  8
0
  6
CONTINUOUS
 62
     1
 10
-44.1482086306824
 20
-29.5129925549008
 30
0.0
 11
-44.1482086306824
 21
-0.987979447841099
 31
0.0
  0
LINE
  5
   2BE
  8
0
  6
CONTINUOUS
 62
     1
 10
-42.8882173043494
 20
-29.5129925549008
 30
0.0
 11
-42.8882173043494
 21
-0.987979447841099
 31
0.0
  0
LINE
  5
   2BF
  8
0
  6
CONTINUOUS
 62
     1
 10
-41.6282046157139
 20
-29.5129925549008
 30
0.0
 11
-41.6282046157139
 21
-0.987979447841099
 31
0.0
  0
LINE
  5
   2C0
  8
0
  6
CONTINUOUS
 62
     1
 10
-40.368213289381
 20
-29.5129925549008
 30
0.0
 11
-40.368213289381
 21
-0.987979447841099
 31
0.0
  0
LINE
  5
   2C1
  8
0
  6
CONTINUOUS
 62
     1
 10
-39.1082006007455
 20
-29.5129925549008
 30
0.0
 11
-39.1082006007455
 21
-0.987979447841099
 31
0.0
  0
LINE
  5
   2C2
  8
0
  6
CONTINUOUS
 62
     1
 10
-37.8482092744125
 20
-29.5129925549008
 30
0.0
 11
-37.8482092744125
 21
-0.987979447841099
 31
0.0
  0
LINE
  5
   2C3
  8
0
  6
CONTINUOUS
 62
     1
 10
-36.5882179480795
 20
-29.5129925549008
 30
0.0
 11
-36.5882179480795
 21
-0.987979447841099
 31
0.0
  0
LINE
  5
   2C4
  8
0
  6
CONTINUOUS
 62
     1
 10
-35.3282052594441
 20
-21.7253355797106
 30
0.0
 11
-35.3282052594441
 21
-0.987979447841099
 31
0.0
  0
LINE
  5
   2C5
  8
0
  6
CONTINUOUS
 62
     1
 10
-46.6682126456508
 20
-66.2629620969301
 30
0.0
 11
-46.6682126456508
 21
-29.5129925549008
 31
0.0
  0
LINE
  5
   2C6
  8
0
  6
CONTINUOUS
 62
     1
 10
-45.4081999570153
 20
-66.2629620969301
 30
0.0
 11
-45.4081999570153
 21
-29.5129925549008
 31
0.0
  0
LINE
  5
   2C7
  8
0
  6
CONTINUOUS
 62
     1
 10
-44.1482086306824
 20
-66.2629620969301
 30
0.0
 11
-44.1482086306824
 21
-29.5129925549008
 31
0.0
  0
LINE
  5
   2C8
  8
0
  6
CONTINUOUS
 62
     1
 10
-42.8882173043494
 20
-66.2629620969301
 30
0.0
 11
-42.8882173043494
 21
-29.5129925549008
 31
0.0
  0
LINE
  5
   2C9
  8
0
  6
CONTINUOUS
 62
     1
 10
-41.6282046157139
 20
-66.2629620969301
 30
0.0
 11
-41.6282046157139
 21
-29.5129925549008
 31
0.0
  0
LINE
  5
   2CA
  8
0
  6
CONTINUOUS
 62
     1
 10
-40.368213289381
 20
-66.2629620969301
 30
0.0
 11
-40.368213289381
 21
-29.5129925549008
 31
0.0
  0
LINE
  5
   2CB
  8
0
  6
CONTINUOUS
 62
     1
 10
-39.1082006007455
 20
-66.2629620969301
 30
0.0
 11
-39.1082006007455
 21
-29.5129925549008
 31
0.0
  0
LINE
  5
   2CC
  8
0
  6
CONTINUOUS
 62
     1
 10
-37.8482092744125
 20
-66.2629620969301
 30
0.0
 11
-37.8482092744125
 21
-29.5129925549008
 31
0.0
  0
LINE
  5
   2CD
  8
0
  6
CONTINUOUS
 62
     1
 10
-36.5882179480795
 20
-66.2629620969301
 30
0.0
 11
-36.5882179480795
 21
-29.5129925549008
 31
0.0
  0
LINE
  5
   2CE
  8
0
  6
CONTINUOUS
 62
     1
 10
-35.3282052594441
 20
-66.2629620969301
 30
0.0
 11
-35.3282052594441
 21
-58.4753425057693
 31
0.0
  0
LINE
  5
   2CF
  8
0
  6
CONTINUOUS
 62
     7
 10
-46.6682126456508
 20
-114.037957735657
 30
0.0
 11
-46.6682126456508
 21
-89.0129602926967
 31
0.0
  0
LINE
  5
   2D0
  8
0
  6
CONTINUOUS
 62
     7
 10
-45.4081999570153
 20
-114.037957735657
 30
0.0
 11
-45.4081999570153
 21
-89.0129602926967
 31
0.0
  0
LINE
  5
   2D1
  8
0
  6
CONTINUOUS
 62
     7
 10
-44.1482086306824
 20
-114.037957735657
 30
0.0
 11
-44.1482086306824
 21
-89.0129602926967
 31
0.0
  0
LINE
  5
   2D2
  8
0
  6
CONTINUOUS
 62
     7
 10
-42.8882173043494
 20
-114.037957735657
 30
0.0
 11
-42.8882173043494
 21
-89.0129602926967
 31
0.0
  0
LINE
  5
   2D3
  8
0
  6
CONTINUOUS
 62
     7
 10
-41.6282046157139
 20
-114.037957735657
 30
0.0
 11
-41.6282046157139
 21
-89.0129602926967
 31
0.0
  0
LINE
  5
   2D4
  8
0
  6
CONTINUOUS
 62
     7
 10
-40.368213289381
 20
-114.037957735657
 30
0.0
 11
-40.368213289381
 21
-89.0129602926967
 31
0.0
  0
LINE
  5
   2D5
  8
0
  6
CONTINUOUS
 62
     7
 10
-39.1082006007455
 20
-114.037957735657
 30
0.0
 11
-39.1082006007455
 21
-89.0129602926967
 31
0.0
  0
LINE
  5
   2D6
  8
0
  6
CONTINUOUS
 62
     7
 10
-37.8482092744125
 20
-114.037957735657
 30
0.0
 11
-37.8482092744125
 21
-89.0129602926967
 31
0.0
  0
LINE
  5
   2D7
  8
0
  6
CONTINUOUS
 62
     7
 10
-36.5882179480795
 20
-114.037957735657
 30
0.0
 11
-36.5882179480795
 21
-89.0129602926967
 31
0.0
  0
LINE
  5
   2D8
  8
0
  6
CONTINUOUS
 62
     7
 10
-35.3282052594441
 20
-88.4879624962809
 30
0.0
 11
-35.3282052594441
 21
-74.8379638910296
 31
0.0
  0
LINE
  5
   2D9
  8
0
  6
CONTINUOUS
 62
     1
 10
25.326762908102
 20
-29.5129925549008
 30
0.0
 11
25.326762908102
 21
-0.987979447841099
 31
0.0
  0
LINE
  5
   2DA
  8
0
  6
CONTINUOUS
 62
     1
 10
24.0667502194665
 20
-29.5129925549008
 30
0.0
 11
24.0667502194665
 21
-0.987979447841099
 31
0.0
  0
LINE
  5
   2DB
  8
0
  6
CONTINUOUS
 62
     1
 10
22.8067588931335
 20
-29.5129925549008
 30
0.0
 11
22.8067588931335
 21
-0.987979447841099
 31
0.0
  0
LINE
  5
   2DC
  8
0
  6
CONTINUOUS
 62
     1
 10
21.5467675668006
 20
-29.5129925549008
 30
0.0
 11
21.5467675668006
 21
-0.987979447841099
 31
0.0
  0
LINE
  5
   2DD
  8
0
  6
CONTINUOUS
 62
     1
 10
20.2867548781651
 20
-29.5129925549008
 30
0.0
 11
20.2867548781651
 21
-0.987979447841099
 31
0.0
  0
LINE
  5
   2DE
  8
0
  6
CONTINUOUS
 62
     1
 10
19.0267635518321
 20
-29.5129925549008
 30
0.0
 11
19.0267635518321
 21
-0.987979447841099
 31
0.0
  0
LINE
  5
   2DF
  8
0
  6
CONTINUOUS
 62
     1
 10
17.7667508631966
 20
-31.7901463929051
 30
0.0
 11
17.7667508631966
 21
-0.987979447841099
 31
0.0
  0
LINE
  5
   2E0
  8
0
  6
CONTINUOUS
 62
     1
 10
16.5067595368637
 20
-30.8023675132334
 30
0.0
 11
16.5067595368637
 21
-0.987979447841099
 31
0.0
  0
LINE
  5
   2E1
  8
0
  6
CONTINUOUS
 62
     1
 10
15.2467682105307
 20
-30.4754949029098
 30
0.0
 11
15.2467682105307
 21
-0.987979447841099
 31
0.0
  0
LINE
  5
   2E2
  8
0
  6
CONTINUOUS
 62
     1
 10
13.9867555218952
 20
-30.4754949029098
 30
0.0
 11
13.9867555218952
 21
-0.987979447841099
 31
0.0
  0
LINE
  5
   2E3
  8
0
  6
CONTINUOUS
 62
     1
 10
25.326762908102
 20
-66.2629704415795
 30
0.0
 11
25.326762908102
 21
-29.5130008995503
 31
0.0
  0
LINE
  5
   2E4
  8
0
  6
CONTINUOUS
 62
     1
 10
24.0667502194665
 20
-66.2629704415795
 30
0.0
 11
24.0667502194665
 21
-29.5130008995503
 31
0.0
  0
LINE
  5
   2E5
  8
0
  6
CONTINUOUS
 62
     1
 10
22.8067588931335
 20
-66.2629704415795
 30
0.0
 11
22.8067588931335
 21
-29.5130008995503
 31
0.0
  0
LINE
  5
   2E6
  8
0
  6
CONTINUOUS
 62
     1
 10
21.5467675668006
 20
-66.2629704415795
 30
0.0
 11
21.5467675668006
 21
-29.5130008995503
 31
0.0
  0
LINE
  5
   2E7
  8
0
  6
CONTINUOUS
 62
     1
 10
20.2867548781651
 20
-66.2629704415795
 30
0.0
 11
20.2867548781651
 21
-29.5130008995503
 31
0.0
  0
LINE
  5
   2E8
  8
0
  6
CONTINUOUS
 62
     1
 10
19.0267635518321
 20
-66.2629704415795
 30
0.0
 11
19.0267635518321
 21
-29.5130008995503
 31
0.0
  0
LINE
  5
   2E9
  8
0
  6
CONTINUOUS
 62
     1
 10
17.7667508631966
 20
-66.2629704415795
 30
0.0
 11
17.7667508631966
 21
-40.4897853289031
 31
0.0
  0
LINE
  5
   2EA
  8
0
  6
CONTINUOUS
 62
     1
 10
16.5067595368637
 20
-66.2629704415795
 30
0.0
 11
16.5067595368637
 21
-41.5324363936313
 31
0.0
  0
LINE
  5
   2EB
  8
0
  6
CONTINUOUS
 62
     1
 10
15.2467682105307
 20
-66.2629704415795
 30
0.0
 11
15.2467682105307
 21
-41.6754937585006
 31
0.0
  0
LINE
  5
   2EC
  8
0
  6
CONTINUOUS
 62
     1
 10
13.9867555218952
 20
-66.2629704415795
 30
0.0
 11
13.9867555218952
 21
-41.6754937585006
 31
0.0
  0
LINE
  5
   2ED
  8
0
  6
CONTINUOUS
 62
     1
 10
25.326762908102
 20
-74.3129662811756
 30
0.0
 11
25.326762908102
 21
-66.2629724442954
 31
0.0
  0
LINE
  5
   2EE
  8
0
  6
CONTINUOUS
 62
     1
 10
24.0667502194665
 20
-74.3129662811756
 30
0.0
 11
24.0667502194665
 21
-66.2629724442954
 31
0.0
  0
LINE
  5
   2EF
  8
0
  6
CONTINUOUS
 62
     1
 10
22.8067588931335
 20
-74.3129662811756
 30
0.0
 11
22.8067588931335
 21
-66.2629724442954
 31
0.0
  0
LINE
  5
   2F0
  8
0
  6
CONTINUOUS
 62
     1
 10
21.5467675668006
 20
-74.3129662811756
 30
0.0
 11
21.5467675668006
 21
-66.2629724442954
 31
0.0
  0
LINE
  5
   2F1
  8
0
  6
CONTINUOUS
 62
     1
 10
20.2867548781651
 20
-74.3129662811756
 30
0.0
 11
20.2867548781651
 21
-66.2629724442954
 31
0.0
  0
LINE
  5
   2F2
  8
0
  6
CONTINUOUS
 62
     1
 10
19.0267635518321
 20
-74.3129662811756
 30
0.0
 11
19.0267635518321
 21
-66.2629724442954
 31
0.0
  0
LINE
  5
   2F3
  8
0
  6
CONTINUOUS
 62
     1
 10
17.7667508631966
 20
-74.3129662811756
 30
0.0
 11
17.7667508631966
 21
-66.2629724442954
 31
0.0
  0
LINE
  5
   2F4
  8
0
  6
CONTINUOUS
 62
     1
 10
16.5067595368637
 20
-74.3129662811756
 30
0.0
 11
16.5067595368637
 21
-66.2629724442954
 31
0.0
  0
LINE
  5
   2F5
  8
0
  6
CONTINUOUS
 62
     1
 10
15.2467682105307
 20
-74.3129662811756
 30
0.0
 11
15.2467682105307
 21
-66.2629724442954
 31
0.0
  0
LINE
  5
   2F6
  8
0
  6
CONTINUOUS
 62
     1
 10
13.9867555218952
 20
-74.3129662811756
 30
0.0
 11
13.9867555218952
 21
-66.2629724442954
 31
0.0
  0
LINE
  5
   2F7
  8
0
  6
CONTINUOUS
 62
     1
 10
13.3042687720659
 20
-21.3755236619566
 30
0.0
 11
13.3042613371304
 21
-2.73797504543293
 31
0.0
  0
LINE
  5
   2F8
  8
0
  6
CONTINUOUS
 62
     1
 10
-34.6457103067092
 20
-21.3755236619566
 30
0.0
 11
-34.6457177416435
 21
-2.73797815202659
 31
0.0
  0
LINE
  5
   2F9
  8
0
  6
CONTINUOUS
 62
     1
 10
13.3042620003234
 20
-2.73797392845154
 30
0.0
 11
-34.6457170784479
 21
-2.73797392845154
 31
0.0
  0
LINE
  5
   2FA
  8
0
  6
CONTINUOUS
 62
     1
 10
25.6417500585339
 20
-74.662963908911
 30
0.0
 11
25.6417500585339
 21
-74.3129662811756
 31
0.0
  0
LINE
  5
   2FB
  8
0
  6
CONTINUOUS
 62
     1
 10
-46.9831997960828
 20
-74.662963908911
 30
0.0
 11
-46.9831997960828
 21
-74.3129662811756
 31
0.0
  0
LINE
  5
   2FC
  8
0
  6
CONTINUOUS
 62
     1
 10
-10.1281261765114
 20
-114.037957735657
 30
0.0
 11
-10.1281417559922
 21
-89.0129602926967
 31
0.0
  0
LINE
  5
   2FD
  8
0
  6
CONTINUOUS
 62
     1
 10
-8.8681280084558
 20
-114.037957735657
 30
0.0
 11
-8.86814329398422
 21
-89.0129602926967
 31
0.0
  0
LINE
  5
   2FE
  8
0
  6
CONTINUOUS
 62
     1
 10
-7.43312651864151
 20
-114.037957735657
 30
0.0
 11
-7.43314209812235
 21
-89.0129602926967
 31
0.0
  0
LINE
  5
   2FF
  8
0
  6
CONTINUOUS
 62
     1
 10
-6.17312684765889
 20
-114.037957735657
 30
0.0
 11
-6.17314242713973
 21
-89.0129602926967
 31
0.0
  0
LINE
  5
   300
  8
0
  6
CONTINUOUS
 62
     1
 10
-4.91314370353298
 20
-114.037957735657
 30
0.0
 11
-4.91315781325174
 21
-89.0129602926967
 31
0.0
  0
LINE
  5
   301
  8
0
  6
CONTINUOUS
 62
     1
 10
-3.65314169604856
 20
-114.037957735657
 30
0.0
 11
-3.65315580576732
 21
-89.0129602926967
 31
0.0
  0
LINE
  5
   302
  8
0
  6
CONTINUOUS
 62
     1
 10
-2.39312098230628
 20
-114.037957735657
 30
0.0
 11
-2.39313979526368
 21
-89.0129602926967
 31
0.0
  0
LINE
  5
   303
  8
0
  6
CONTINUOUS
 62
     1
 10
-1.13314302165535
 20
-114.037957735657
 30
0.0
 11
-1.13315713137411
 21
-89.0129602926967
 31
0.0
  0
LINE
  5
   304
  8
0
  6
CONTINUOUS
 62
     1
 10
0.126797526476366
 20
-114.037957735657
 30
0.0
 11
0.126797526476366
 21
-98.8990191354621
 31
0.0
  0
LINE
  5
   305
  8
0
  6
CONTINUOUS
 62
     1
 10
1.38678885280933
 20
-114.037957735657
 30
0.0
 11
1.38678885280933
 21
-99.852066093778
 31
0.0
  0
LINE
  5
   306
  8
0
  6
CONTINUOUS
 62
     1
 10
2.64679086029355
 20
-114.037957735657
 30
0.0
 11
2.64679086029355
 21
-99.4473331099683
 31
0.0
  0
LINE
  5
   307
  8
0
  6
CONTINUOUS
 62
     1
 10
3.90687303338971
 20
-114.037957735657
 30
0.0
 11
3.90685422043231
 21
-89.0129602926967
 31
0.0
  0
LINE
  5
   308
  8
0
  6
CONTINUOUS
 62
     1
 10
5.16687504087428
 20
-114.037957735657
 30
0.0
 11
5.16685622791688
 21
-89.0129602926967
 31
0.0
  0
LINE
  5
   309
  8
0
  6
CONTINUOUS
 62
     1
 10
6.42687704835885
 20
-114.037957735657
 30
0.0
 11
6.42685823540145
 21
-89.0129602926967
 31
0.0
  0
LINE
  5
   30A
  8
0
  6
CONTINUOUS
 62
     1
 10
7.68682562159656
 20
-114.037957735657
 30
0.0
 11
7.68681621511786
 21
-89.0129602926967
 31
0.0
  0
LINE
  5
   30B
  8
0
  6
CONTINUOUS
 62
     1
 10
8.94687038217675
 20
-114.037957735657
 30
0.0
 11
8.94685156921935
 21
-89.0129602926967
 31
0.0
  0
LINE
  5
   30C
  8
0
  6
CONTINUOUS
 62
     1
 10
10.2068723896613
 20
-114.037957735657
 30
0.0
 11
10.2068535767039
 21
-89.0129602926967
 31
0.0
  0
LINE
  5
   30D
  8
0
  6
CONTINUOUS
 62
     1
 10
11.4668743971459
 20
-114.037957735657
 30
0.0
 11
11.4668555841885
 21
-89.0129602926967
 31
0.0
  0
LINE
  5
   30E
  8
0
  6
CONTINUOUS
 62
     1
 10
12.7268657234792
 20
-114.037957735657
 30
0.0
 11
12.7268469105218
 21
-89.0129602926967
 31
0.0
  0
LINE
  5
   30F
  8
0
  6
CONTINUOUS
 62
     1
 10
26.0792706624131
 20
-0.462979501485279
 30
0.0
 11
-10.6707248687744
 21
-0.462979501485279
 31
0.0
  0
LINE
  5
   310
  8
0
  6
CONTINUOUS
 62
     1
 10
25.9917500227712
 20
-0.462979501485279
 30
0.0
 11
25.9555302388744
 21
-0.462979501485279
 31
0.0
  0
LINE
  5
   311
  8
0
  6
CONTINUOUS
 62
     1
 10
-11.3883270470187
 20
-114.037957735657
 30
0.0
 11
-11.3883117614903
 21
-89.0129602926967
 31
0.0
  0
LINE
  5
   312
  8
0
  6
CONTINUOUS
 62
     1
 10
-12.6483323959235
 20
-114.037957735657
 30
0.0
 11
-12.6483159345854
 21
-89.0129602926967
 31
0.0
  0
LINE
  5
   313
  8
0
  6
CONTINUOUS
 62
     1
 10
-13.9083285594829
 20
-114.037957735657
 30
0.0
 11
-13.9083129800021
 21
-89.0129602926967
 31
0.0
  0
LINE
  5
   314
  8
0
  6
CONTINUOUS
 62
     1
 10
-15.1683282304656
 20
-114.037957735657
 30
0.0
 11
-15.1683126509847
 21
-89.0129602926967
 31
0.0
  0
LINE
  5
   315
  8
0
  6
CONTINUOUS
 62
     1
 10
-16.4283113745187
 20
-114.037957735657
 30
0.0
 11
-16.4282972648426
 21
-89.0129602926967
 31
0.0
  0
LINE
  5
   316
  8
0
  6
CONTINUOUS
 62
     1
 10
-17.6883133820031
 20
-114.037957735657
 30
0.0
 11
-17.688299272327
 21
-89.0129602926967
 31
0.0
  0
LINE
  5
   317
  8
0
  6
CONTINUOUS
 62
     1
 10
-18.9483340957235
 20
-114.037957735657
 30
0.0
 11
-18.9483152828216
 21
-89.0129602926967
 31
0.0
  0
LINE
  5
   318
  8
0
  6
CONTINUOUS
 62
     1
 10
-20.2083120563963
 20
-114.037957735657
 30
0.0
 11
-20.2082979467202
 21
-89.0129602926967
 31
0.0
  0
LINE
  5
   319
  8
0
  6
CONTINUOUS
 62
     1
 10
-21.4682526046008
 20
-114.037957735657
 30
0.0
 11
-21.4682526046008
 21
-98.8990561466539
 31
0.0
  0
LINE
  5
   31A
  8
0
  6
CONTINUOUS
 62
     1
 10
-21.4682506524059
 20
12.8894041365207
 30
0.0
 11
-21.468229135991
 21
28.0618520260031
 31
0.0
  0
LINE
  5
   31B
  8
0
  6
CONTINUOUS
 62
     1
 10
-22.5532486463225
 20
13.8295296865575
 30
0.0
 11
-22.5532271197581
 21
28.0618520260032
 31
0.0
  0
LINE
  5
   31C
  8
0
  6
CONTINUOUS
 62
     1
 10
-22.7282385903582
 20
-114.037957735657
 30
0.0
 11
-22.7282385903582
 21
-99.8520236344766
 31
0.0
  0
LINE
  5
   31D
  8
0
  6
CONTINUOUS
 62
     1
 10
-23.8132369931073
 20
13.6039346841856
 30
0.0
 11
-23.8132154691187
 21
28.0618520260031
 31
0.0
  0
LINE
  5
   31E
  8
0
  6
CONTINUOUS
 62
     1
 10
-23.9882405978424
 20
-114.037957735657
 30
0.0
 11
-23.9882405978424
 21
-99.4470683316841
 31
0.0
  0
LINE
  5
   31F
  8
0
  6
CONTINUOUS
 62
     1
 10
-25.2483227708536
 20
-114.037957735657
 30
0.0
 11
-25.248303957946
 21
-89.0129602926967
 31
0.0
  0
LINE
  5
   320
  8
0
  6
CONTINUOUS
 62
     1
 10
-26.5083247783382
 20
-114.037957735657
 30
0.0
 11
-26.5083059654305
 21
-89.0129602926967
 31
0.0
  0
LINE
  5
   321
  8
0
  6
CONTINUOUS
 62
     1
 10
-27.7683267858227
 20
-114.037957735657
 30
0.0
 11
-27.7683079729151
 21
-89.0129602926967
 31
0.0
  0
LINE
  5
   322
  8
0
  6
CONTINUOUS
 62
     1
 10
-29.0283287933073
 20
-114.037957735657
 30
0.0
 11
-29.0283099803997
 21
-89.0129602926967
 31
0.0
  0
LINE
  5
   323
  8
0
  6
CONTINUOUS
 62
     1
 10
-30.2883201196406
 20
-114.037957735657
 30
0.0
 11
-30.288301306733
 21
-89.0129602926967
 31
0.0
  0
LINE
  5
   324
  8
0
  6
CONTINUOUS
 62
     1
 10
-31.5483221271252
 20
-114.037957735657
 30
0.0
 11
-31.5483033142176
 21
-89.0129602926967
 31
0.0
  0
LINE
  5
   325
  8
0
  6
CONTINUOUS
 62
     1
 10
-32.8083241346171
 20
-114.037957735657
 30
0.0
 11
-32.8083053217052
 21
-89.0129602926967
 31
0.0
  0
LINE
  5
   326
  8
0
  6
CONTINUOUS
 62
     1
 10
-34.0683261421016
 20
-114.037957735657
 30
0.0
 11
-34.0683073291898
 21
-89.0129602926967
 31
0.0
  0
LINE
  5
   327
  8
0
  6
CONTINUOUS
 62
     1
 10
-35.3282373028978
 20
-0.462958139182774
 30
0.0
 11
-35.3282373028978
 21
28.0618520260032
 31
0.0
  0
LINE
  5
   328
  8
0
  6
CONTINUOUS
 62
     1
 10
-36.5882340320469
 20
-0.463033846447402
 30
0.0
 11
-36.5882233100445
 21
28.0618520260031
 31
0.0
  0
LINE
  5
   329
  8
0
  6
CONTINUOUS
 62
     1
 10
-37.8482361017676
 20
-0.463023157256799
 30
0.0
 11
-37.8482146577708
 21
28.0618520260031
 31
0.0
  0
LINE
  5
   32A
  8
0
  6
CONTINUOUS
 62
     1
 10
-39.1082326441992
 20
-0.462958139182774
 30
0.0
 11
-39.1082326441992
 21
28.0618520260032
 31
0.0
  0
LINE
  5
   32B
  8
0
  6
CONTINUOUS
 62
     1
 10
-40.368229373348
 20
-0.46303242561369
 30
0.0
 11
-40.3682186513462
 21
28.0618520260032
 31
0.0
  0
LINE
  5
   32C
  8
0
  6
CONTINUOUS
 62
     1
 10
-41.6282366591677
 20
-0.462958139182774
 30
0.0
 11
-41.6282366591677
 21
28.0618520260032
 31
0.0
  0
LINE
  5
   32D
  8
0
  6
CONTINUOUS
 62
     1
 10
-42.8882333883163
 20
-0.463031478388558
 30
0.0
 11
-42.8882226662862
 21
28.0619280224656
 31
0.0
  0
LINE
  5
   32E
  8
0
  6
CONTINUOUS
 62
     1
 10
-44.1482247146492
 20
-0.463031004780007
 30
0.0
 11
-44.1482139926157
 21
28.0619374752132
 31
0.0
  0
LINE
  5
   32F
  8
0
  6
CONTINUOUS
 62
     1
 10
-45.4082320004691
 20
-0.462958139182774
 30
0.0
 11
-45.4082320004691
 21
28.0619152811943
 31
0.0
  0
LINE
  5
   330
  8
0
  6
CONTINUOUS
 62
     1
 10
-46.6682287296053
 20
-0.463019376399515
 30
0.0
 11
-46.6682180076015
 21
28.0618617834349
 31
0.0
  0
LINE
  5
   331
  8
0
  6
CONTINUOUS
 62
     1
 10
-10.6707270278947
 20
-0.462979501464872
 30
0.0
 11
-47.4207203999657
 21
-0.462952708358358
 31
0.0
  0
LINE
  5
   332
  8
0
  6
CONTINUOUS
 62
   130
 10
26.079271376133
 20
1.28702031970079
 30
0.0
 11
26.079271376133
 21
27.5369375288574
 31
0.0
  0
LINE
  5
   333
  8
0
  6
CONTINUOUS
 62
   130
 10
25.8167522159104
 20
27.9915404370312
 30
0.0
 11
25.5538438321987
 21
28.0619745491079
 31
0.0
  0
LINE
  5
   334
  8
0
  6
CONTINUOUS
 62
   130
 10
26.0088822095754
 20
27.7993914877217
 30
0.0
 11
25.8167229600318
 21
27.9915667575703
 31
0.0
  0
LINE
  5
   335
  8
0
  6
CONTINUOUS
 62
   130
 10
26.0792862327539
 20
27.5368740693424
 30
0.0
 11
26.0089455173722
 21
27.7993740405955
 31
0.0
  0
LINE
  5
   336
  8
0
  6
CONTINUOUS
 62
   130
 10
-47.4207211136818
 20
1.28702031970079
 30
0.0
 11
-47.4207211136818
 21
27.5369375288574
 31
0.0
  0
LINE
  5
   337
  8
0
  6
CONTINUOUS
 62
   130
 10
-47.1581984270326
 20
27.9915413817737
 30
0.0
 11
-46.8956984609175
 21
28.061866077291
 31
0.0
  0
LINE
  5
   338
  8
0
  6
CONTINUOUS
 62
   130
 10
-47.3503319471242
 20
27.7993914877217
 30
0.0
 11
-47.1581726975806
 21
27.9915667575703
 31
0.0
  0
LINE
  5
   339
  8
0
  6
CONTINUOUS
 62
   130
 10
-47.4207359703028
 20
27.5368740693424
 30
0.0
 11
-47.3503952549211
 21
27.7993740405955
 31
0.0
  0
LINE
  5
   33A
  8
0
  6
CONTINUOUS
 62
     1
 10
26.0792582831101
 20
-88.4879624962809
 30
0.0
 11
26.0792709085218
 21
1.28701515140433
 31
0.0
  0
LINE
  5
   33B
  8
0
  6
CONTINUOUS
 62
     1
 10
-47.4207080206589
 20
-88.4879624962809
 30
0.0
 11
-47.4207206460706
 21
1.28701515140433
 31
0.0
  0
CIRCLE
  5
   33C
  8
0
  6
CONTINUOUS
 62
     1
 10
-22.9206899063361
 20
12.3120173382721
 30
0.0
 40
1.57569269749607
  0
LINE
  5
   33D
  8
0
  6
DASHDOT
 62
     7
 10
-22.9206899063361
 20
7.23632499840386
 30
0.0
 11
-22.9206899063361
 21
28.0618520260032
 31
0.0
  0
LINE
  5
   33E
  8
0
  6
DASHDOT
 62
     7
 10
-17.8449975664679
 20
12.3120173382721
 30
0.0
 11
-27.9963822462043
 21
12.3120173382721
 31
0.0
  0
LINE
  5
   33F
  8
0
  6
CONTINUOUS
 62
     1
 10
26.0792546899128
 20
-114.037957735657
 30
0.0
 11
-47.4207044274616
 21
-114.037957735657
 31
0.0
  0
LINE
  5
   340
  8
0
  6
CONTINUOUS
 62
     1
 10
26.0792582092776
 20
-89.0129602926967
 30
0.0
 11
-47.4207079468264
 21
-89.0129602926967
 31
0.0
  0
LINE
  5
   341
  8
0
  6
CONTINUOUS
 62
     1
 10
25.7292582942622
 20
-88.6629603284595
 30
0.0
 11
-47.070708031811
 21
-88.6629603284595
 31
0.0
  0
LINE
  5
   342
  8
0
  6
CONTINUOUS
 62
     1
 10
26.0792582831101
 20
-88.4879624962809
 30
0.0
 11
-47.4207080206589
 21
-88.4879624962809
 31
0.0
  0
LINE
  5
   343
  8
0
  6
CONTINUOUS
 62
     1
 10
26.0792546899128
 20
-114.037957735657
 30
0.0
 11
26.0792582092775
 21
-89.0129602926967
 31
0.0
  0
LINE
  5
   344
  8
0
  6
CONTINUOUS
 62
     1
 10
-47.4207044274616
 20
-114.037957735657
 30
0.0
 11
-47.4207079468264
 21
-89.0129602926967
 31
0.0
  0
LINE
  5
   345
  8
0
  6
CONTINUOUS
 62
     1
 10
-47.0707079825892
 20
-89.0129602926967
 30
0.0
 11
-47.0707080318111
 21
-88.6629603284595
 31
0.0
  0
LINE
  5
   346
  8
0
  6
CONTINUOUS
 62
     1
 10
25.7292582450403
 20
-89.0129602926967
 30
0.0
 11
25.7292582942622
 21
-88.6629603284595
 31
0.0
  0
LINE
  5
   347
  8
0
  6
CONTINUOUS
 62
     1
 10
-35.1707223653793
 20
-88.4879624962809
 30
0.0
 11
-35.1707223653793
 21
-74.8379638910296
 31
0.0
  0
LINE
  5
   348
  8
0
  6
CONTINUOUS
 62
     1
 10
13.8292726278305
 20
-88.4879624962809
 30
0.0
 11
13.8292726278305
 21
-74.8379638910296
 31
0.0
  0
LINE
  5
   349
  8
0
  6
CONTINUOUS
 62
     7
 10
-46.6682126456508
 20
-88.4879624962809
 30
0.0
 11
-46.6682126456508
 21
-74.8379638910296
 31
0.0
  0
LINE
  5
   34A
  8
0
  6
CONTINUOUS
 62
     7
 10
-45.4081999570153
 20
-88.4879624962809
 30
0.0
 11
-45.4081999570153
 21
-74.8379638910296
 31
0.0
  0
LINE
  5
   34B
  8
0
  6
CONTINUOUS
 62
     7
 10
-44.1482086306824
 20
-88.4879624962809
 30
0.0
 11
-44.1482086306824
 21
-74.8379638910296
 31
0.0
  0
LINE
  5
   34C
  8
0
  6
CONTINUOUS
 62
     7
 10
-42.8882173043494
 20
-88.4879624962809
 30
0.0
 11
-42.8882173043494
 21
-74.8379638910296
 31
0.0
  0
LINE
  5
   34D
  8
0
  6
CONTINUOUS
 62
     7
 10
-41.6282046157139
 20
-88.4879624962809
 30
0.0
 11
-41.6282046157139
 21
-74.8379638910296
 31
0.0
  0
LINE
  5
   34E
  8
0
  6
CONTINUOUS
 62
     7
 10
-40.368213289381
 20
-88.4879624962809
 30
0.0
 11
-40.368213289381
 21
-74.8379638910296
 31
0.0
  0
LINE
  5
   34F
  8
0
  6
CONTINUOUS
 62
     7
 10
-39.1082006007455
 20
-88.4879624962809
 30
0.0
 11
-39.1082006007455
 21
-74.8379638910296
 31
0.0
  0
LINE
  5
   350
  8
0
  6
CONTINUOUS
 62
     7
 10
-37.8482092744125
 20
-88.4879624962809
 30
0.0
 11
-37.8482092744125
 21
-74.8379638910296
 31
0.0
  0
LINE
  5
   351
  8
0
  6
CONTINUOUS
 62
     7
 10
-36.5882179480795
 20
-88.4879624962809
 30
0.0
 11
-36.5882179480795
 21
-74.8379638910296
 31
0.0
  0
LINE
  5
   352
  8
0
  6
CONTINUOUS
 62
     1
 10
-35.3282052594441
 20
-74.3129662811756
 30
0.0
 11
-35.3282052594441
 21
-66.2629724442954
 31
0.0
  0
LINE
  5
   353
  8
0
  6
CONTINUOUS
 62
     1
 10
-46.6682126456508
 20
-74.3129662811756
 30
0.0
 11
-46.6682126456508
 21
-66.2629724442954
 31
0.0
  0
LINE
  5
   354
  8
0
  6
CONTINUOUS
 62
     1
 10
-45.4081999570153
 20
-74.3129662811756
 30
0.0
 11
-45.4081999570153
 21
-66.2629724442954
 31
0.0
  0
LINE
  5
   355
  8
0
  6
CONTINUOUS
 62
     1
 10
-44.1482086306824
 20
-74.3129662811756
 30
0.0
 11
-44.1482086306824
 21
-66.2629724442954
 31
0.0
  0
LINE
  5
   356
  8
0
  6
CONTINUOUS
 62
     1
 10
-42.8882173043494
 20
-74.3129662811756
 30
0.0
 11
-42.8882173043494
 21
-66.2629724442954
 31
0.0
  0
LINE
  5
   357
  8
0
  6
CONTINUOUS
 62
     1
 10
-41.6282046157139
 20
-74.3129662811756
 30
0.0
 11
-41.6282046157139
 21
-66.2629724442954
 31
0.0
  0
LINE
  5
   358
  8
0
  6
CONTINUOUS
 62
     1
 10
-40.368213289381
 20
-74.3129662811756
 30
0.0
 11
-40.368213289381
 21
-66.2629724442954
 31
0.0
  0
LINE
  5
   359
  8
0
  6
CONTINUOUS
 62
     1
 10
-39.1082006007455
 20
-74.3129662811756
 30
0.0
 11
-39.1082006007455
 21
-66.2629724442954
 31
0.0
  0
LINE
  5
   35A
  8
0
  6
CONTINUOUS
 62
     1
 10
-37.8482092744125
 20
-74.3129662811756
 30
0.0
 11
-37.8482092744125
 21
-66.2629724442954
 31
0.0
  0
LINE
  5
   35B
  8
0
  6
CONTINUOUS
 62
     1
 10
-36.5882179480795
 20
-74.3129662811756
 30
0.0
 11
-36.5882179480795
 21
-66.2629724442954
 31
0.0
  0
LINE
  5
   35C
  8
0
  6
CONTINUOUS
 62
     7
 10
-35.3282180768256
 20
-114.037957735657
 30
0.0
 11
-35.3282180768256
 21
-89.0129602926967
 31
0.0
  0
LINE
  5
   35D
  8
0
  6
CONTINUOUS
 62
     1
 10
25.326762908102
 20
-88.4879624962809
 30
0.0
 11
25.326762908102
 21
-74.8379638910296
 31
0.0
  0
LINE
  5
   35E
  8
0
  6
CONTINUOUS
 62
     1
 10
24.0667502194665
 20
-88.4879624962809
 30
0.0
 11
24.0667502194665
 21
-74.8379638910296
 31
0.0
  0
LINE
  5
   35F
  8
0
  6
CONTINUOUS
 62
     1
 10
22.8067588931335
 20
-88.4879624962809
 30
0.0
 11
22.8067588931335
 21
-74.8379638910296
 31
0.0
  0
LINE
  5
   360
  8
0
  6
CONTINUOUS
 62
     1
 10
21.5467675668006
 20
-88.4879624962809
 30
0.0
 11
21.5467675668006
 21
-74.8379638910296
 31
0.0
  0
LINE
  5
   361
  8
0
  6
CONTINUOUS
 62
     1
 10
20.2867548781651
 20
-88.4879624962809
 30
0.0
 11
20.2867548781651
 21
-74.8379638910296
 31
0.0
  0
LINE
  5
   362
  8
0
  6
CONTINUOUS
 62
     1
 10
19.0267635518321
 20
-88.4879624962809
 30
0.0
 11
19.0267635518321
 21
-74.8379638910296
 31
0.0
  0
LINE
  5
   363
  8
0
  6
CONTINUOUS
 62
     1
 10
17.7667508631966
 20
-88.4879624962809
 30
0.0
 11
17.7667508631966
 21
-74.8379638910296
 31
0.0
  0
LINE
  5
   364
  8
0
  6
CONTINUOUS
 62
     1
 10
16.5067595368637
 20
-88.4879624962809
 30
0.0
 11
16.5067595368637
 21
-74.8379638910296
 31
0.0
  0
LINE
  5
   365
  8
0
  6
CONTINUOUS
 62
     1
 10
15.2467682105307
 20
-88.4879624962809
 30
0.0
 11
15.2467682105307
 21
-74.8379638910296
 31
0.0
  0
LINE
  5
   366
  8
0
  6
CONTINUOUS
 62
     1
 10
13.9867555218952
 20
-88.4879624962809
 30
0.0
 11
13.9867555218952
 21
-74.8379638910296
 31
0.0
  0
LINE
  5
   367
  8
0
  6
CONTINUOUS
 62
     1
 10
25.326762908102
 20
-114.037957735657
 30
0.0
 11
25.326762908102
 21
-89.0129602926967
 31
0.0
  0
LINE
  5
   368
  8
0
  6
CONTINUOUS
 62
     1
 10
24.0667502194665
 20
-114.037957735657
 30
0.0
 11
24.0667502194665
 21
-89.0129602926967
 31
0.0
  0
LINE
  5
   369
  8
0
  6
CONTINUOUS
 62
     1
 10
22.8067588931335
 20
-114.037957735657
 30
0.0
 11
22.8067588931335
 21
-89.0129602926967
 31
0.0
  0
LINE
  5
   36A
  8
0
  6
CONTINUOUS
 62
     1
 10
21.5467675668006
 20
-114.037957735657
 30
0.0
 11
21.5467675668006
 21
-89.0129602926967
 31
0.0
  0
LINE
  5
   36B
  8
0
  6
CONTINUOUS
 62
     1
 10
20.2867548781651
 20
-114.037957735657
 30
0.0
 11
20.2867548781651
 21
-89.0129602926967
 31
0.0
  0
LINE
  5
   36C
  8
0
  6
CONTINUOUS
 62
     1
 10
19.0267635518321
 20
-114.037957735657
 30
0.0
 11
19.0267635518321
 21
-89.0129602926967
 31
0.0
  0
LINE
  5
   36D
  8
0
  6
CONTINUOUS
 62
     1
 10
17.7667508631966
 20
-114.037957735657
 30
0.0
 11
17.7667508631966
 21
-89.0129602926967
 31
0.0
  0
LINE
  5
   36E
  8
0
  6
CONTINUOUS
 62
     1
 10
16.5067595368637
 20
-114.037957735657
 30
0.0
 11
16.5067595368637
 21
-89.0129602926967
 31
0.0
  0
LINE
  5
   36F
  8
0
  6
CONTINUOUS
 62
     1
 10
15.2467682105307
 20
-114.037957735657
 30
0.0
 11
15.2467682105307
 21
-89.0129602926967
 31
0.0
  0
LINE
  5
   370
  8
0
  6
CONTINUOUS
 62
     1
 10
13.9867683392767
 20
-114.037957735657
 30
0.0
 11
13.9867683392767
 21
-89.0129602926967
 31
0.0
  0
CIRCLE
  5
   371
  8
0
  6
CONTINUOUS
 62
     1
 10
-22.9206899063361
 20
-98.2881278681542
 30
0.0
 40
1.57569269749607
  0
CIRCLE
  5
   372
  8
0
  6
CONTINUOUS
 62
     1
 10
1.57939336585571
 20
-98.2880105911197
 30
0.0
 40
1.57586995460973
  0
LINE
  5
   373
  8
0
  6
DASHDOT
 62
     1
 10
1.57939336585571
 20
-103.363880188102
 30
0.0
 11
1.57939336585571
 21
-89.0129602926967
 31
0.0
  0
LINE
  5
   374
  8
0
  6
DASHDOT
 62
     1
 10
6.65526296283757
 20
-98.2880105911197
 30
0.0
 11
-3.49647623112614
 21
-98.2880105911197
 31
0.0
  0
LINE
  5
   375
  8
0
  6
DASHDOT
 62
     1
 10
-22.9206899063361
 20
-103.363820208022
 30
0.0
 11
-22.9206899063361
 21
-89.0129602926967
 31
0.0
  0
LINE
  5
   376
  8
0
  6
DASHDOT
 62
     1
 10
-17.8449975664679
 20
-98.2881278681542
 30
0.0
 11
-27.9963822462043
 21
-98.2881278681542
 31
0.0
  0
LINE
  5
   377
  8
0
  6
CONTINUOUS
 62
     1
 10
-10.1281968833796
 20
-0.462979501485293
 30
0.0
 11
-10.1282146417058
 21
28.0618520260031
 31
0.0
  0
LINE
  5
   378
  8
0
  6
CONTINUOUS
 62
     1
 10
-8.86819738123243
 20
-0.462979501485293
 30
0.0
 11
-8.86821480449587
 21
28.0618520260031
 31
0.0
  0
LINE
  5
   379
  8
0
  6
CONTINUOUS
 62
     1
 10
-7.43319722550975
 20
-0.462979501485293
 30
0.0
 11
-7.43321498383589
 21
28.0618520260031
 31
0.0
  0
LINE
  5
   37A
  8
0
  6
CONTINUOUS
 62
     1
 10
-6.17319755452713
 20
-0.462979501485293
 30
0.0
 11
-6.17321531285326
 21
28.0618520260031
 31
0.0
  0
LINE
  5
   37B
  8
0
  6
CONTINUOUS
 62
     1
 10
-4.91320773994317
 20
-0.462979501485293
 30
0.0
 11
-4.91322382295582
 21
28.0618520260031
 31
0.0
  0
LINE
  5
   37C
  8
0
  6
CONTINUOUS
 62
     1
 10
-3.65320573245875
 20
-0.462979501485293
 30
0.0
 11
-3.6532218154714
 21
28.0618520260031
 31
0.0
  0
LINE
  5
   37D
  8
0
  6
CONTINUOUS
 62
     1
 10
-2.39320636418223
 20
-0.462979501485293
 30
0.0
 11
-2.39322780819803
 21
28.0618520260031
 31
0.0
  0
LINE
  5
   37E
  8
0
  6
CONTINUOUS
 62
     1
 10
-1.13320705806554
 20
-0.462979501485293
 30
0.0
 11
-1.13322314107819
 21
28.0618520260031
 31
0.0
  0
LINE
  5
   37F
  8
0
  6
CONTINUOUS
 62
     1
 10
-11.3882576742421
 20
-0.462979501485279
 30
0.0
 11
-11.3882402509786
 21
28.0618520260032
 31
0.0
  0
LINE
  5
   380
  8
0
  6
CONTINUOUS
 62
     1
 10
-12.6482576867804
 20
-0.462979501485279
 30
0.0
 11
-12.6482389232662
 21
28.0618520260031
 31
0.0
  0
LINE
  5
   381
  8
0
  6
CONTINUOUS
 62
     1
 10
-13.9082578526147
 20
-0.462979501485293
 30
0.0
 11
-13.9082400942886
 21
28.0618520260031
 31
0.0
  0
LINE
  5
   382
  8
0
  6
CONTINUOUS
 62
     1
 10
-15.1682575235973
 20
-0.462979501485293
 30
0.0
 11
-15.1682397652712
 21
28.0618520260031
 31
0.0
  0
LINE
  5
   383
  8
0
  6
CONTINUOUS
 62
     1
 10
-16.4282473383022
 20
-0.462979501485293
 30
0.0
 11
-16.4282312553381
 21
28.0618520260031
 31
0.0
  0
LINE
  5
   384
  8
0
  6
CONTINUOUS
 62
     1
 10
-17.6882493457866
 20
-0.462979501485293
 30
0.0
 11
-17.6882332628226
 21
28.0618520260031
 31
0.0
  0
LINE
  5
   385
  8
0
  6
CONTINUOUS
 62
     1
 10
-18.9482487140993
 20
-0.462979501485293
 30
0.0
 11
-18.9482272701468
 21
28.0618520260031
 31
0.0
  0
LINE
  5
   386
  8
0
  6
CONTINUOUS
 62
     1
 10
-20.2082480201798
 20
-0.462979501485293
 30
0.0
 11
-20.2082319372158
 21
28.0618520260031
 31
0.0
  0
LINE
  5
   387
  8
0
  6
CONTINUOUS
 62
     1
 10
-21.4682526046008
 20
-0.462979501485279
 30
0.0
 11
-21.4682526046008
 21
11.734590815895
 31
0.0
  0
LINE
  5
   388
  8
0
  6
CONTINUOUS
 62
     1
 10
-22.7282385903582
 20
-0.462979501485279
 30
0.0
 11
-22.7282385903582
 21
10.766814425524
 31
0.0
  0
LINE
  5
   389
  8
0
  6
CONTINUOUS
 62
     1
 10
-23.9882405978424
 20
-0.462979501485279
 30
0.0
 11
-23.9882405978424
 21
11.1786262120586
 31
0.0
  0
LINE
  5
   38A
  8
0
  6
CONTINUOUS
 62
     1
 10
-25.2482373892036
 20
-0.462979501485293
 30
0.0
 11
-25.2482159452446
 21
28.0618520260031
 31
0.0
  0
LINE
  5
   38B
  8
0
  6
CONTINUOUS
 62
     1
 10
-26.5082393966882
 20
-0.462979501485293
 30
0.0
 11
-26.5082179527291
 21
28.0618520260031
 31
0.0
  0
LINE
  5
   38C
  8
0
  6
CONTINUOUS
 62
     1
 10
-27.7682414041727
 20
-0.462979501485293
 30
0.0
 11
-27.7682199602137
 21
28.0618520260031
 31
0.0
  0
LINE
  5
   38D
  8
0
  6
CONTINUOUS
 62
     1
 10
-29.0282434116573
 20
-0.462979501485293
 30
0.0
 11
-29.0282219676983
 21
28.0618520260031
 31
0.0
  0
LINE
  5
   38E
  8
0
  6
CONTINUOUS
 62
     1
 10
-30.2882347379906
 20
-0.462979501485293
 30
0.0
 11
-30.2882132940316
 21
28.0618520260031
 31
0.0
  0
LINE
  5
   38F
  8
0
  6
CONTINUOUS
 62
     1
 10
-31.5482367454752
 20
-0.462979501485293
 30
0.0
 11
-31.5482153015162
 21
28.0618520260031
 31
0.0
  0
LINE
  5
   390
  8
0
  6
CONTINUOUS
 62
     1
 10
-32.8082387529477
 20
-0.462979501485293
 30
0.0
 11
-32.8082173089838
 21
28.0618520260031
 31
0.0
  0
LINE
  5
   391
  8
0
  6
CONTINUOUS
 62
     1
 10
-34.0682407604323
 20
-0.462979501485293
 30
0.0
 11
-34.0682193164684
 21
28.0618520260031
 31
0.0
  0
LINE
  5
   392
  8
0
  6
CONTINUOUS
 62
     1
 10
1.38678885280933
 20
-96.7239550884613
 30
0.0
 11
1.38678885280933
 21
-89.0129602926967
 31
0.0
  0
LINE
  5
   393
  8
0
  6
CONTINUOUS
 62
     1
 10
2.64679086029355
 20
-97.128688072271
 30
0.0
 11
2.64679086029355
 21
-89.0129602926967
 31
0.0
  0
LINE
  5
   394
  8
0
  6
CONTINUOUS
 62
     1
 10
0.126797526476366
 20
-97.6770020467772
 30
0.0
 11
0.126797526476366
 21
-89.0129602926967
 31
0.0
  0
LINE
  5
   395
  8
0
  6
CONTINUOUS
 62
     1
 10
-21.4682526046008
 20
-97.6771995896546
 30
0.0
 11
-21.4682526046008
 21
-89.0129602926967
 31
0.0
  0
LINE
  5
   396
  8
0
  6
CONTINUOUS
 62
     1
 10
-22.7282385903582
 20
-96.7242321018319
 30
0.0
 11
-22.7282385903582
 21
-89.0129602926967
 31
0.0
  0
LINE
  5
   397
  8
0
  6
CONTINUOUS
 62
     1
 10
-23.9882405978424
 20
-97.1291874046243
 30
0.0
 11
-23.9882405978424
 21
-89.0129602926967
 31
0.0
  0
LINE
  5
   398
  8
0
  6
DASHDOT
 62
     7
 10
-10.6707248687744
 20
-38.8578565374742
 30
0.0
 11
-10.6707248687744
 21
36.6639126805291
 31
0.0
  0
LINE
  5
   399
  8
0
  6
CONTINUOUS
 62
   130
 10
5.95427343249321
 20
3.38693999648967
 30
0.0
 11
5.95427343249321
 21
3.56193997860828
 31
0.0
  0
LINE
  5
   39A
  8
0
  6
CONTINUOUS
 62
   130
 10
21.7042718231678
 20
3.38693999648967
 30
0.0
 11
21.7042718231678
 21
3.56193997860828
 31
0.0
  0
LINE
  5
   39B
  8
0
  6
CONTINUOUS
 62
   130
 10
-46.8956984609175
 20
28.061866077291
 30
0.0
 11
25.5538438321987
 21
28.0619745491079
 31
0.0
  0
LINE
  5
   39C
  8
0
  6
CONTINUOUS
 62
     1
 10
0.126792813188224
 20
-0.462978791065893
 30
0.0
 11
0.1267859547602
 21
11.7011292690673
 31
0.0
  0
LINE
  5
   39D
  8
0
  6
CONTINUOUS
 62
     1
 10
1.38679268444199
 20
-0.462978080646494
 30
0.0
 11
1.38678636334371
 21
10.7481218783029
 31
0.0
  0
LINE
  5
   39E
  8
0
  6
CONTINUOUS
 62
     1
 10
2.64679255569575
 20
-0.46297737022708
 30
0.0
 11
2.64678600627662
 21
11.1530724035139
 31
0.0
  0
LINE
  5
   39F
  8
0
  6
CONTINUOUS
 62
     1
 10
3.90679242694951
 20
-0.462976659807666
 30
0.0
 11
3.90677634388743
 21
28.0619421390103
 31
0.0
  0
LINE
  5
   3A0
  8
0
  6
CONTINUOUS
 62
     1
 10
5.16679229820328
 20
-0.462975949388252
 30
0.0
 11
5.16677621514046
 21
28.0619440254884
 31
0.0
  0
LINE
  5
   3A1
  8
0
  6
CONTINUOUS
 62
     1
 10
6.42679216945704
 20
-0.462975238968838
 30
0.0
 11
6.42677608639354
 21
28.0619459119665
 31
0.0
  0
LINE
  5
   3A2
  8
0
  6
CONTINUOUS
 62
     1
 10
7.68679204071081
 20
-0.462974528549424
 30
0.0
 11
7.68677595764655
 21
28.0619477984446
 31
0.0
  0
LINE
  5
   3A3
  8
0
  6
CONTINUOUS
 62
     1
 10
8.94679191196457
 20
-0.46297381813001
 30
0.0
 11
8.94677582889956
 21
28.0619496849227
 31
0.0
  0
LINE
  5
   3A4
  8
0
  6
CONTINUOUS
 62
     1
 10
10.2067917832183
 20
-0.462973107710596
 30
0.0
 11
10.2067757001526
 21
28.0619515714008
 31
0.0
  0
LINE
  5
   3A5
  8
0
  6
CONTINUOUS
 62
     1
 10
11.4667916544721
 20
-0.462972397291168
 30
0.0
 11
11.4667755714056
 21
28.0619534578789
 31
0.0
  0
LINE
  5
   3A6
  8
0
  6
CONTINUOUS
 62
     1
 10
12.7267915257259
 20
-0.462971686871725
 30
0.0
 11
12.7267754426586
 21
28.061955344357
 31
0.0
  0
LINE
  5
   3A7
  8
0
  6
CONTINUOUS
 62
     1
 10
13.9867913969796
 20
-0.462970976452297
 30
0.0
 11
13.9867753139117
 21
28.0619572308351
 31
0.0
  0
LINE
  5
   3A8
  8
0
  6
CONTINUOUS
 62
     1
 10
15.2467912682334
 20
-0.462970266032841
 30
0.0
 11
15.2467751851647
 21
28.0619591173133
 31
0.0
  0
LINE
  5
   3A9
  8
0
  6
CONTINUOUS
 62
     1
 10
16.5067911394872
 20
-0.462969555613412
 30
0.0
 11
16.5067750564177
 21
28.0619610037914
 31
0.0
  0
LINE
  5
   3AA
  8
0
  6
CONTINUOUS
 62
     1
 10
17.7667910107409
 20
-0.462968845193956
 30
0.0
 11
17.7667749276706
 21
28.0619628902695
 31
0.0
  0
LINE
  5
   3AB
  8
0
  6
CONTINUOUS
 62
     1
 10
19.0267908819947
 20
-0.462968134774513
 30
0.0
 11
19.0267747989236
 21
28.0619647767476
 31
0.0
  0
LINE
  5
   3AC
  8
0
  6
CONTINUOUS
 62
     1
 10
20.2867907532484
 20
-0.462967424355057
 30
0.0
 11
20.2867746701766
 21
28.0619666632257
 31
0.0
  0
LINE
  5
   3AD
  8
0
  6
CONTINUOUS
 62
     1
 10
21.5467906245022
 20
-0.462966713935586
 30
0.0
 11
21.5467745414296
 21
28.0619685497038
 31
0.0
  0
LINE
  5
   3AE
  8
0
  6
CONTINUOUS
 62
     1
 10
22.806790495756
 20
-0.462966003516115
 30
0.0
 11
22.8067744126826
 21
28.0619704361819
 31
0.0
  0
LINE
  5
   3AF
  8
0
  6
CONTINUOUS
 62
     1
 10
24.0667903670097
 20
-0.462965293096644
 30
0.0
 11
24.0667742839355
 21
28.06197232266
 31
0.0
  0
LINE
  5
   3B0
  8
0
  6
CONTINUOUS
 62
     1
 10
25.3267902382635
 20
-0.462964582677174
 30
0.0
 11
25.3267741551885
 21
28.0619742091381
 31
0.0
  0
LINE
  5
   3B1
  8
0
  6
DASHDOT
 62
     7
 10
-21.8751882515755
 20
-45.8754908829906
 30
0.0
 11
-55.1933957900827
 21
-45.8754908829906
 31
0.0
  0
LINE
  5
   3B2
  8
0
  6
DASHDOT
 62
     7
 10
1.57924016878723
 20
7.23632499840386
 30
0.0
 11
1.57924016878723
 21
28.0618520260032
 31
0.0
  0
LINE
  5
   3B3
  8
0
  6
DASHDOT
 62
     7
 10
6.65493250865545
 20
12.3120173382721
 30
0.0
 11
-3.49645217108096
 21
12.3120173382721
 31
0.0
  0
CIRCLE
  5
   3B4
  8
0
  6
CONTINUOUS
 62
     1
 10
1.57924016878724
 20
12.3120173382721
 30
0.0
 40
1.57569269749607
  0
LINE
  5
   3B5
  8
0
  6
CONTINUOUS
 62
     1
 10
2.64678469939171
 20
13.4709634768476
 30
0.0
 11
2.6467764726344
 21
28.0619402525322
 31
0.0
  0
LINE
  5
   3B6
  8
0
  6
CONTINUOUS
 62
     1
 10
1.38678459981716
 20
13.8759125812197
 30
0.0
 11
1.38677660138137
 21
28.0619383660541
 31
0.0
  0
LINE
  5
   3B7
  8
0
  6
CONTINUOUS
 62
     1
 10
0.126785265893213
 20
12.9229037696165
 30
0.0
 11
0.126776730128348
 21
28.061936479576
 31
0.0
  0
LINE
  5
   3B8
  8
0
  6
CONTINUOUS
 62
     1
 10
13.9867555218952
 20
-21.3755236619566
 30
0.0
 11
-35.3282052594441
 21
-21.3755236619566
 31
0.0
  0
LINE
  5
   3B9
  8
0
  6
CONTINUOUS
 62
   253
 10
-21.8923454105721
 20
-25.9253342974431
 30
0.0
 11
-21.8969650085593
 21
-25.9229791035409
 31
0.0
  0
LINE
  5
   3BA
  8
0
  6
CONTINUOUS
 62
   253
 10
-28.4991001349302
 20
-25.9253351721097
 30
0.0
 11
-28.4944778666104
 21
-25.9229799782592
 31
0.0
  0
LINE
  5
   3BB
  8
0
  6
CONTINUOUS
 62
   253
 10
-0.170662914889544
 20
-21.7253355797106
 30
0.0
 11
-36.2206619016103
 21
-21.7253355797106
 31
0.0
  0
LINE
  5
   3BC
  8
0
  6
CONTINUOUS
 62
   253
 10
-36.4681488986171
 20
-21.8278471445281
 30
0.0
 11
-36.2206612834811
 21
-21.7253347952046
 31
0.0
  0
LINE
  5
   3BD
  8
0
  6
CONTINUOUS
 62
   253
 10
-36.5706614024807
 20
-22.0753343282722
 30
0.0
 11
-36.4681490531571
 21
-21.8278467131361
 31
0.0
  0
LINE
  5
   3BE
  8
0
  6
CONTINUOUS
 62
   253
 10
-36.5706618658475
 20
-58.1253745849858
 30
0.0
 11
-36.5706618658475
 21
-22.0753355439479
 31
0.0
  0
LINE
  5
   3BF
  8
0
  6
CONTINUOUS
 62
   253
 10
-36.4681493472617
 20
-58.372861868494
 30
0.0
 11
-36.5706616965853
 21
-58.1253742533579
 31
0.0
  0
LINE
  5
   3C0
  8
0
  6
CONTINUOUS
 62
   253
 10
-36.2206626184925
 20
-58.4753429006599
 30
0.0
 11
-36.4681502399497
 21
-58.3728625954439
 31
0.0
  0
LINE
  5
   3C1
  8
0
  6
CONTINUOUS
 62
   253
 10
-0.170662914889544
 20
-58.4753425057693
 30
0.0
 11
-36.2206619016103
 21
-58.4753425057693
 31
0.0
  0
LINE
  5
   3C2
  8
0
  6
CONTINUOUS
 62
   253
 10
-0.170665631062935
 20
-58.4753435543047
 30
0.0
 11
0.076821990394313
 21
-58.3728632490887
 31
0.0
  0
LINE
  5
   3C3
  8
0
  6
CONTINUOUS
 62
   253
 10
7.68254810612454E-2
 20
-58.3728615754311
 30
0.0
 11
0.17933783038478
 21
-58.125373960295
 31
0.0
  0
LINE
  5
   3C4
  8
0
  6
CONTINUOUS
 62
   253
 10
0.179337049347669
 20
-30.4754949029098
 30
0.0
 11
0.179337049347669
 21
-22.0753355439479
 31
0.0
  0
LINE
  5
   3C5
  8
0
  6
CONTINUOUS
 62
   253
 10
0.179337536280165
 20
-22.0753346213351
 30
0.0
 11
7.68251869566416E-2
 21
-21.827847006199
 31
0.0
  0
LINE
  5
   3C6
  8
0
  6
CONTINUOUS
 62
   253
 10
7.68256132035248E-2
 20
-21.8278474355394
 30
0.0
 11
-0.170662001932557
 21
-21.7253350862159
 31
0.0
  0
LINE
  5
   3C7
  8
0
  6
CONTINUOUS
 62
   253
 10
-30.178267880957
 20
-58.4391040298578
 30
0.0
 11
-30.178267880957
 21
-43.8181887757673
 31
0.0
  0
LINE
  5
   3C8
  8
0
  6
CONTINUOUS
 62
   253
 10
-29.8282679167198
 20
-58.4391040298578
 30
0.0
 11
-29.8282679167198
 21
-43.9965239473645
 31
0.0
  0
LINE
  5
   3C9
  8
0
  6
CONTINUOUS
 62
   253
 10
-20.5532688644336
 20
-58.4391040298578
 30
0.0
 11
-20.5532688644336
 21
-43.9914771033978
 31
0.0
  0
LINE
  5
   3CA
  8
0
  6
CONTINUOUS
 62
   253
 10
-20.2032689001964
 20
-58.4391040298578
 30
0.0
 11
-20.2032689001964
 21
-43.8131419318006
 31
0.0
  0
LINE
  5
   3CB
  8
0
  6
CONTINUOUS
 62
   253
 10
-0.608216275942322
 20
-25.9253351505572
 30
0.0
 11
-35.7832153520701
 21
-25.9253351505572
 31
0.0
  0
LINE
  5
   3CC
  8
0
  6
CONTINUOUS
 62
   253
 10
-0.608216275942322
 20
-22.4253355081851
 30
0.0
 11
-35.7832153520701
 21
-22.4253355081851
 31
0.0
  0
LINE
  5
   3CD
  8
0
  6
CONTINUOUS
 62
   253
 10
-35.7832153520701
 20
-25.9253351505572
 30
0.0
 11
-35.7832153520701
 21
-22.4253355081851
 31
0.0
  0
LINE
  5
   3CE
  8
0
  6
CONTINUOUS
 62
   253
 10
-0.608216275942322
 20
-25.9253351505572
 30
0.0
 11
-0.608216275942322
 21
-22.4253355081851
 31
0.0
  0
LINE
  5
   3CF
  8
0
  6
CONTINUOUS
 62
   253
 10
-36.133161910551
 20
-58.0378318693215
 30
0.0
 11
-36.133161910551
 21
-22.1628355350072
 31
0.0
  0
LINE
  5
   3D0
  8
0
  6
CONTINUOUS
 62
   253
 10
-0.258162905948847
 20
-58.0378318693215
 30
0.0
 11
-0.258162905948847
 21
-41.6754937585006
 31
0.0
  0
LINE
  5
   3D1
  8
0
  6
CONTINUOUS
 62
   253
 10
-0.258162905948847
 20
-30.4754949029098
 30
0.0
 11
-0.258162905948847
 21
-22.1628355350072
 31
0.0
  0
LINE
  5
   3D2
  8
0
  6
CONTINUOUS
 62
   253
 10
-30.178267880957
 20
-58.0378318693215
 30
0.0
 11
-36.133161910551
 21
-58.0378318693215
 31
0.0
  0
LINE
  5
   3D3
  8
0
  6
CONTINUOUS
 62
   253
 10
-36.4425187193957
 20
-58.347188651153
 30
0.0
 11
-36.1331591889234
 21
-58.0378291206807
 31
0.0
  0
LINE
  5
   3D4
  8
0
  6
CONTINUOUS
 62
   253
 10
-20.5532688644336
 20
-58.0378318693215
 30
0.0
 11
-29.8282679167198
 21
-58.0378318693215
 31
0.0
  0
LINE
  5
   3D5
  8
0
  6
CONTINUOUS
 62
   253
 10
7.68358319875055E-2
 20
-58.3728365859926
 30
0.0
 11
-0.258167277305539
 21
-58.0378320365252
 31
0.0
  0
LINE
  5
   3D6
  8
0
  6
CONTINUOUS
 62
   253
 10
-0.258162905948847
 20
-58.0378318693215
 30
0.0
 11
-20.2032689001964
 21
-58.0378318693215
 31
0.0
  0
LINE
  5
   3D7
  8
0
  6
CONTINUOUS
 62
   253
 10
0.076819421438957
 20
-58.372862353907
 30
0.0
 11
5.11899999913794E-2
 21
-58.3471915425369
 31
0.0
  0
LINE
  5
   3D8
  8
0
  6
CONTINUOUS
 62
   253
 10
-36.4681514922749
 20
-58.372864197249
 30
0.0
 11
-36.4425234058743
 21
-58.3471933858327
 31
0.0
  0
LINE
  5
   3D9
  8
0
  6
CONTINUOUS
 62
   253
 10
-36.4425214517875
 20
-21.8534786136608
 30
0.0
 11
-36.4681495392963
 21
-21.8278491910603
 31
0.0
  0
LINE
  5
   3DA
  8
0
  6
CONTINUOUS
 62
   253
 10
0.051202864091259
 20
-21.853469737954
 30
0.0
 11
7.68322869630413E-2
 21
-21.8278403150823
 31
0.0
  0
LINE
  5
   3DB
  8
0
  6
CONTINUOUS
 62
   253
 10
-0.258162905948847
 20
-22.1628355350072
 30
0.0
 11
-36.133161910551
 21
-22.1628355350072
 31
0.0
  0
LINE
  5
   3DC
  8
0
  6
CONTINUOUS
 62
   253
 10
-0.258164827244977
 20
-22.162837463185
 30
0.0
 11
5.11933495246844E-2
 21
-21.8534792864153
 31
0.0
  0
LINE
  5
   3DD
  8
0
  6
CONTINUOUS
 62
   253
 10
-36.1331620300981
 20
-22.1628399540201
 30
0.0
 11
-36.442521537357
 21
-21.8534817766884
 31
0.0
  0
LINE
  5
   3DE
  8
0
  6
CONTINUOUS
 62
   253
 10
-29.8282679167198
 20
-58.4391040298579
 30
0.0
 11
-30.178267880957
 21
-58.4391040298579
 31
0.0
  0
LINE
  5
   3DF
  8
0
  6
CONTINUOUS
 62
   253
 10
-20.2032689001964
 20
-58.4391040298579
 30
0.0
 11
-20.5532688644336
 21
-58.4391040298579
 31
0.0
  0
LINE
  5
   3E0
  8
0
  6
DASHDOT
 62
     7
 10
-25.1957250689044
 20
-61.1182541156451
 30
0.0
 11
-25.1957250689044
 21
-26.100495986797
 31
0.0
  0
LINE
  5
   3E1
  8
0
  6
DASHDOT
 62
     7
 10
10.2258171834309
 20
-36.0755281017125
 30
0.0
 11
-35.1707571838199
 21
-36.0755281017125
 31
0.0
  0
LINE
  5
   3E2
  8
0
  6
CONTINUOUS
 62
   253
 10
0.179337049347669
 20
-58.1253758458924
 30
0.0
 11
0.179337049347669
 21
-41.6754937585006
 31
0.0
  0
LINE
  5
   3E3
  8
0
  6
DASHDOT
 62
   218
 10
-80.4267153587398
 20
-45.8754908829906
 30
0.0
 11
-84.496720514486
 21
-45.8754908829906
 31
0.0
  0
LINE
  5
   3E4
  8
0
  6
DASHDOT
 62
   218
 10
-10.6707248687744
 20
-115.657084258945
 30
0.0
 11
-10.6707248687744
 21
-45.0513426440444
 31
0.0
  0
INSERT
  5
   3E5
  8
255
  6
CONTINUOUS
 62
     7
  2
MANIGLIA
 10
-56.2890417327491
 20
-78.5958169818537
 30
0.0
 41
0.349999964237213
 42
0.349999964237213
 50
3.50835464724173E-15
 43
0.349999964237213
  0
INSERT
  5
   3E6
  8
0
  6
CONTINUOUS
 62
     7
  2
*UDIM267
 10
0.0
 20
0.0
 30
0.0
  0
INSERT
  5
   3E7
  8
0
  6
CONTINUOUS
 62
     7
  2
*UDIM268
 10
0.0
 20
0.0
 30
0.0
  0
INSERT
  5
   3E8
  8
0
  6
CONTINUOUS
 62
     7
  2
*UDIM269
 10
0.0
 20
0.0
 30
0.0
  0
INSERT
  5
   3E9
  8
0
  6
CONTINUOUS
 62
     7
  2
*UDIM270
 10
0.0
 20
0.0
 30
0.0
  0
INSERT
  5
   3EA
  8
0
  6
CONTINUOUS
 62
     7
  2
*UDIM271
 10
0.0
 20
0.0
 30
0.0
  0
INSERT
  5
   3EB
  8
0
  6
CONTINUOUS
 62
     7
  2
*UDIM272
 10
0.0
 20
0.0
 30
0.0
  0
INSERT
  5
   3EC
  8
0
  6
CONTINUOUS
 62
     7
  2
*UDIM273
 10
0.0
 20
0.0
 30
0.0
  0
INSERT
  5
   3ED
  8
0
  6
CONTINUOUS
 62
     7
  2
*UDIM274
 10
0.0
 20
0.0
 30
0.0
  0
INSERT
  5
   3EE
  8
0
  6
CONTINUOUS
 62
     7
  2
*UDIM275
 10
0.0
 20
0.0
 30
0.0
  0
INSERT
  5
   3EF
  8
0
  6
CONTINUOUS
 62
     7
  2
*UDIM276
 10
0.0
 20
0.0
 30
0.0
  0
TEXT
  5
   3F0
  8
0
  6
CONTINUOUS
 62
     7
 10
-11.7304747253022
 20
50.2599447031587
 30
0.0
 40
3.00000001532688
  1
Y
 50
359.999999948034
 41
0.916666616797451
 72
     2
 11
-9.53047483088762
 21
50.2599447011744
 31
0.0
  0
TEXT
  5
   3F1
  8
0
  6
CONTINUOUS
 62
     7
 10
34.7396203331969
 20
-47.3392430933797
 30
0.0
 40
3.00000001532688
  1
X
 50
359.999999948034
 41
0.916666616797451
 72
     2
 11
36.9396202276115
 21
-47.339243095364
 31
0.0
  0
TEXT
  5
   3F2
  8
0
  6
CONTINUOUS
 62
     7
 10
-89.5471581965026
 20
-47.8826493336312
 30
0.0
 40
3.00000001532688
  1
X
 50
359.999999948034
 41
0.916666616797451
 72
     2
 11
-87.3471583020879
 21
-47.8826493356155
 31
0.0
  0
TEXT
  5
   3F3
  8
0
  6
CONTINUOUS
 62
     7
 10
-11.6944871167924
 20
-121.685240642252
 30
0.0
 40
3.00000001532688
  1
Y
 50
359.999999948034
 41
0.916666616797451
 72
     2
 11
-9.49448722237781
 21
-121.685240644236
 31
0.0
  0
LINE
  5
   3F4
  8
0
  6
CONTINUOUS
 62
   130
 10
48.0440577942956
 20
28.0620176034822
 30
0.0
 11
48.0440587956534
 21
1.28702033933537
 31
0.0
  0
LINE
  5
   3F5
  8
0
  6
CONTINUOUS
 62
   130
 10
81.1190341651495
 20
1.28700021398274
 30
0.0
 11
81.1190501868877
 21
28.0619365762218
 31
0.0
  0
LINE
  5
   3F6
  8
0
  6
CONTINUOUS
 62
   130
 10
49.0940513083706
 20
-38.7879739732293
 30
0.0
 11
49.3565516125829
 21
-38.7176386032537
 31
0.0
  0
LINE
  5
   3F7
  8
0
  6
CONTINUOUS
 62
   130
 10
47.5190582275391
 20
-71.3379808905848
 30
0.0
 11
82.5190332889635
 21
-71.3379669189422
 31
0.0
  0
LINE
  5
   3F8
  8
0
  6
CONTINUOUS
 62
   130
 10
82.5190226079274
 20
-34.587954652073
 30
0.0
 11
82.5190279485027
 21
-36.337954473259
 31
0.0
  0
LINE
  5
   3F9
  8
0
  6
CONTINUOUS
 62
   130
 10
82.5190226078093
 20
-40.8879425294253
 30
0.0
 11
82.5190279483836
 21
-71.3379714615166
 31
0.0
  0
LINE
  5
   3FA
  8
0
  6
CONTINUOUS
 62
   130
 10
48.0440585556164
 20
1.28701499325616
 30
0.0
 11
48.0440595569743
 21
-35.9159368328099
 31
0.0
  0
LINE
  5
   3FB
  8
0
  6
CONTINUOUS
 62
   130
 10
48.0440588758785
 20
-55.587968540544
 30
0.0
 11
48.0440592096644
 21
-41.3099609662591
 31
0.0
  0
LINE
  5
   3FC
  8
0
  6
CONTINUOUS
 62
   130
 10
48.044058750435
 20
-60.8379699399251
 30
0.0
 11
48.0440597517925
 21
-70.4629689564485
 31
0.0
  0
LINE
  5
   3FD
  8
0
  6
CONTINUOUS
 62
   130
 10
48.0440598428248
 20
-70.4629686772822
 30
0.0
 11
48.3940574705601
 21
-70.4629686772822
 31
0.0
  0
LINE
  5
   3FE
  8
0
  6
CONTINUOUS
 62
   130
 10
48.3940578043461
 20
-41.2161857865658
 30
0.0
 11
48.3940578043461
 21
-38.7879755854601
 31
0.0
  0
LINE
  5
   3FF
  8
0
  6
CONTINUOUS
 62
   130
 10
48.3940578043461
 20
-36.5129704773426
 30
0.0
 11
48.3940578043461
 21
-36.0097387172391
 31
0.0
  0
LINE
  5
   400
  8
0
  6
CONTINUOUS
 62
   130
 10
47.5190582275391
 20
-55.5879685282707
 30
0.0
 11
48.0440591752528
 21
-55.5879685282707
 31
0.0
  0
LINE
  5
   401
  8
0
  6
CONTINUOUS
 62
   130
 10
47.5190582275391
 20
-60.8379679918289
 30
0.0
 11
48.0440588414668
 21
-60.8379679918289
 31
0.0
  0
LINE
  5
   402
  8
0
  6
CONTINUOUS
 62
   130
 10
47.5190582275391
 20
-60.8379679918289
 30
0.0
 11
47.5190582275391
 21
-55.5879685282707
 31
0.0
  0
LINE
  5
   403
  8
0
  6
CONTINUOUS
 62
   130
 10
49.0940513083706
 20
-38.7879739732293
 30
0.0
 11
49.3565516125829
 21
-38.7176386032537
 31
0.0
  0
LINE
  5
   404
  8
0
  6
CONTINUOUS
 62
   130
 10
49.3565546161537
 20
-38.7176472925722
 30
0.0
 11
49.5487178698088
 21
-38.5254827106642
 31
0.0
  0
LINE
  5
   405
  8
0
  6
CONTINUOUS
 62
   130
 10
49.5487215608245
 20
-38.5254798247166
 30
0.0
 11
49.6190412518488
 21
-38.2629958818465
 31
0.0
  0
LINE
  5
   406
  8
0
  6
CONTINUOUS
 62
   130
 10
49.6190403223042
 20
-38.2629714429182
 30
0.0
 11
49.6190409898761
 21
-37.037971568088
 31
0.0
  0
LINE
  5
   407
  8
0
  6
CONTINUOUS
 62
   130
 10
49.5487139364882
 20
-36.7754785438627
 30
0.0
 11
49.6190389613612
 21
-37.0379785095919
 31
0.0
  0
LINE
  5
   408
  8
0
  6
CONTINUOUS
 62
   130
 10
49.3565501220255
 20
-36.5833166121668
 30
0.0
 11
49.5487133783543
 21
-36.775475851396
 31
0.0
  0
LINE
  5
   409
  8
0
  6
CONTINUOUS
 62
   130
 10
49.0940524647115
 20
-36.512978016034
 30
0.0
 11
49.3565524359647
 21
-36.5833187314157
 31
0.0
  0
LINE
  5
   40A
  8
0
  6
CONTINUOUS
 62
   130
 10
48.3940578043461
 20
-36.5129704773426
 30
0.0
 11
49.0940527260309
 21
-36.5129704773426
 31
0.0
  0
LINE
  5
   40B
  8
0
  6
CONTINUOUS
 62
   130
 10
48.3940578043461
 20
-38.7879702448845
 30
0.0
 11
49.0940527260309
 21
-38.7879702448845
 31
0.0
  0
LINE
  5
   40C
  8
0
  6
CONTINUOUS
 62
   130
 10
81.119033562264
 20
-34.5879863570892
 30
0.0
 11
81.1190389028386
 21
1.28700997722511
 31
0.0
  0
LINE
  5
   40D
  8
0
  6
CONTINUOUS
 62
   130
 10
81.119033432009
 20
-34.5879813551892
 30
0.0
 11
82.5190226078066
 21
-34.5879813551892
 31
0.0
  0
LINE
  5
   40E
  8
0
  6
CONTINUOUS
 62
   130
 10
81.1190256201335
 20
-17.4630819169901
 30
0.0
 11
81.2940309375363
 21
-17.416191666798
 31
0.0
  0
LINE
  5
   40F
  8
0
  6
CONTINUOUS
 62
   130
 10
81.1190215001243
 20
-20.2128190701586
 30
0.0
 11
81.2940321621429
 21
-20.2597146550971
 31
0.0
  0
LINE
  5
   410
  8
0
  6
CONTINUOUS
 62
   130
 10
48.3940571981317
 20
-70.4629687386398
 30
0.0
 11
72.1940547662622
 21
-70.4629704075685
 31
0.0
  0
LINE
  5
   411
  8
0
  6
CONTINUOUS
 62
   130
 10
72.1940557062626
 20
-71.3379650351308
 30
0.0
 11
72.1940557062626
 21
-70.4629704651134
 31
0.0
  0
LINE
  5
   412
  8
0
  6
CONTINUOUS
 62
   130
 10
50.9252473136233
 20
-36.6879514260636
 30
0.0
 11
82.169024638731
 21
-36.6879727883655
 31
0.0
  0
LINE
  5
   413
  8
0
  6
CONTINUOUS
 62
   130
 10
50.9252443474779
 20
-40.5379510326718
 30
0.0
 11
82.1690216725855
 21
-40.5379723949737
 31
0.0
  0
LINE
  5
   414
  8
0
  6
CONTINUOUS
 62
   130
 10
48.0440613189238
 20
-35.9159408684897
 30
0.0
 11
48.3940578043461
 21
-36.009722188093
 31
0.0
  0
LINE
  5
   415
  8
0
  6
CONTINUOUS
 62
   130
 10
48.0440541390739
 20
-41.30996540113
 30
0.0
 11
48.3940578043461
 21
-41.2161820928975
 31
0.0
  0
LINE
  5
   416
  8
0
  6
CONTINUOUS
 62
   130
 10
82.1690488415241
 20
-36.6879536763831
 30
0.0
 11
82.5190381138306
 21
-36.3379590641953
 31
0.0
  0
LINE
  5
   417
  8
0
  6
CONTINUOUS
 62
   130
 10
82.1690245435225
 20
-40.5379675067023
 30
0.0
 11
82.5190244957797
 21
-40.8879674589595
 31
0.0
  0
LINE
  5
   418
  8
0
  6
CONTINUOUS
 62
   130
 10
81.2941188633376
 20
-0.812963443995613
 30
0.0
 11
81.2941188633376
 21
28.0619361263132
 31
0.0
  0
LINE
  5
   419
  8
0
  6
CONTINUOUS
 62
     1
 10
81.2941188633376
 20
28.0619374752132
 30
0.0
 11
82.5190973758654
 21
28.0619374752132
 31
0.0
  0
LINE
  5
   41A
  8
0
  6
CONTINUOUS
 62
   130
 10
95.6441387593659
 20
-0.462979501485279
 30
0.0
 11
95.8189838647913
 21
-0.462979501485279
 31
0.0
  0
LINE
  5
   41B
  8
0
  6
CONTINUOUS
 62
     1
 10
91.4441285073681
 20
28.0619374752132
 30
0.0
 11
92.494139081231
 21
28.0619374752132
 31
0.0
  0
LINE
  5
   41C
  8
0
  6
CONTINUOUS
 62
   130
 10
95.9941382242716
 20
27.6244316638513
 30
0.0
 11
95.9941595865727
 21
-0.462953314096936
 31
0.0
  0
LINE
  5
   41D
  8
0
  6
CONTINUOUS
 62
   130
 10
94.9440533816814
 20
-0.81296894359447
 30
0.0
 11
95.6441337480945
 21
-0.81294758166932
 31
0.0
  0
LINE
  5
   41E
  8
0
  6
CONTINUOUS
 62
   130
 10
93.7890417504323
 20
-0.812963443995613
 30
0.0
 11
94.9440533816814
 21
-0.812963443995613
 31
0.0
  0
LINE
  5
   41F
  8
0
  6
CONTINUOUS
 62
     1
 10
92.494139081231
 20
28.0619374752132
 30
0.0
 11
95.1190747261026
 21
28.0619374752132
 31
0.0
  0
LINE
  5
   420
  8
0
  6
CONTINUOUS
 62
   130
 10
82.5190973758654
 20
28.0619374752132
 30
0.0
 11
91.4441285073681
 21
28.0619374752132
 31
0.0
  0
LINE
  5
   421
  8
0
  6
CONTINUOUS
 62
   130
 10
95.6441387593659
 20
-0.462952798607148
 30
0.0
 11
95.9941600859056
 21
-0.462952798607148
 31
0.0
  0
LINE
  5
   422
  8
0
  6
CONTINUOUS
 62
   130
 10
95.6441387593659
 20
-0.812947422268735
 30
0.0
 11
95.6441387593659
 21
-0.462952798607148
 31
0.0
  0
LINE
  5
   423
  8
0
  6
CONTINUOUS
 62
     1
 10
95.5565880524318
 20
28.0618156308088
 30
0.0
 11
95.8659462341989
 21
27.9336418285406
 31
0.0
  0
LINE
  5
   424
  8
0
  6
CONTINUOUS
 62
     1
 10
95.8660125825126
 20
27.9337134967669
 30
0.0
 11
95.9941543532611
 21
27.6243873700673
 31
0.0
  0
LINE
  5
   425
  8
0
  6
CONTINUOUS
 62
   130
 10
81.6441401898774
 20
-0.462947458031522
 30
0.0
 11
81.6441401898774
 21
28.0619374752132
 31
0.0
  0
LINE
  5
   426
  8
0
  6
CONTINUOUS
 62
   130
 10
81.6441351831004
 20
-0.462949794558114
 30
0.0
 11
95.6441337525889
 21
-0.462955135133427
 31
0.0
  0
LINE
  5
   427
  8
0
  6
CONTINUOUS
 62
   130
 10
95.6440479695802
 20
-74.662963908911
 30
0.0
 11
95.6440479695802
 21
-74.3129662811756
 31
0.0
  0
LINE
  5
   428
  8
0
  6
CONTINUOUS
 62
   130
 10
94.2440429887416
 20
-0.987979048734445
 30
0.0
 11
94.2440483293134
 21
-74.312966215855
 31
0.0
  0
LINE
  5
   429
  8
0
  6
CONTINUOUS
 62
   130
 10
93.8940430488458
 20
-0.987976753770624
 30
0.0
 11
93.8940483894176
 21
-74.6629638851284
 31
0.0
  0
LINE
  5
   42A
  8
0
  6
CONTINUOUS
 62
   130
 10
93.8940428078186
 20
-0.987974107265472
 30
0.0
 11
94.2440429887413
 21
-0.987974107265472
 31
0.0
  0
LINE
  5
   42B
  8
0
  6
CONTINUOUS
 62
   130
 10
93.8940481483942
 20
-74.662963908911
 30
0.0
 11
94.5940534174442
 21
-74.662963908911
 31
0.0
  0
LINE
  5
   42C
  8
0
  6
CONTINUOUS
 62
   130
 10
94.2440429887413
 20
-0.987974107265472
 30
0.0
 11
95.9940479338175
 21
-0.987974107265472
 31
0.0
  0
LINE
  5
   42D
  8
0
  6
CONTINUOUS
 62
   130
 10
95.9940479338175
 20
-74.3129662811756
 30
0.0
 11
95.9940479338175
 21
-66.262977784871
 31
0.0
  0
LINE
  5
   42E
  8
0
  6
CONTINUOUS
 62
   130
 10
95.9940479338175
 20
-29.5129925549008
 30
0.0
 11
95.9940479338175
 21
-0.987979447841099
 31
0.0
  0
LINE
  5
   42F
  8
0
  6
CONTINUOUS
 62
   130
 10
96.6065442312712
 20
-29.513000744914
 30
0.0
 11
96.6940388794119
 21
-29.6005007328973
 31
0.0
  0
LINE
  5
   430
  8
0
  6
CONTINUOUS
 62
   130
 10
96.6065363991435
 20
-66.2629762061731
 30
0.0
 11
96.6940363872075
 21
-66.175475886202
 31
0.0
  0
LINE
  5
   431
  8
0
  6
CONTINUOUS
 62
   130
 10
96.6940478622919
 20
-66.175472787022
 30
0.0
 11
96.6940478622919
 21
-29.6004978865358
 31
0.0
  0
LINE
  5
   432
  8
0
  6
CONTINUOUS
 62
   130
 10
94.2440481126314
 20
-74.3129662811756
 30
0.0
 11
95.6440479695802
 21
-74.3129662811756
 31
0.0
  0
LINE
  5
   433
  8
0
  6
CONTINUOUS
 62
   130
 10
82.5190332889579
 20
-40.8879967331859
 30
0.0
 11
82.5190332889579
 21
-36.3380078792534
 31
0.0
  0
LINE
  5
   434
  8
0
  6
CONTINUOUS
 62
   130
 10
82.5190332889579
 20
-34.5880133986429
 30
0.0
 11
82.5190332889579
 21
-34.2380080938301
 31
0.0
  0
LINE
  5
   435
  8
0
  6
CONTINUOUS
 62
   130
 10
82.5190332889579
 20
-71.3379669189451
 30
0.0
 11
93.8940481483942
 21
-71.3379669189451
 31
0.0
  0
LINE
  5
   436
  8
0
  6
CONTINUOUS
 62
   130
 10
94.9440533816814
 20
-0.987974107265472
 30
0.0
 11
94.9440533816814
 21
-0.812979465722492
 31
0.0
  0
LINE
  5
   437
  8
0
  6
CONTINUOUS
 62
   130
 10
81.2940334141276
 20
-34.2379707098007
 30
0.0
 11
81.2940334141276
 21
-0.812974125146866
 31
0.0
  0
LINE
  5
   438
  8
0
  6
CONTINUOUS
 62
   130
 10
81.2940334141276
 20
-34.2379707098007
 30
0.0
 11
82.5190332889579
 21
-34.2379707098007
 31
0.0
  0
LINE
  5
   439
  8
0
  6
CONTINUOUS
 62
   130
 10
81.2940334141276
 20
-0.812974125146866
 30
0.0
 11
82.5190332889579
 21
-0.812974125146866
 31
0.0
  0
LINE
  5
   43A
  8
0
  6
CONTINUOUS
 62
   130
 10
82.5190293249504
 20
-0.812974689015093
 30
0.0
 11
93.7890431270004
 21
-0.812980029590221
 31
0.0
  0
LINE
  5
   43B
  8
0
  6
CONTINUOUS
 62
   130
 10
93.7890470910079
 20
-16.8254671484237
 30
0.0
 11
93.7890470910079
 21
-0.812979465722492
 31
0.0
  0
LINE
  5
   43C
  8
0
  6
CONTINUOUS
 62
   130
 10
93.7890310692821
 20
-71.3379709211274
 30
0.0
 11
93.7890470910074
 21
-20.8504707393338
 31
0.0
  0
LINE
  5
   43D
  8
0
  6
CONTINUOUS
 62
   130
 10
93.7890417504323
 20
-9.91297319531441
 30
0.0
 11
93.8940428078186
 21
-9.91297319531441
 31
0.0
  0
LINE
  5
   43E
  8
0
  6
CONTINUOUS
 62
   130
 10
93.7890417504323
 20
-11.3129730522633
 30
0.0
 11
93.8940428078186
 21
-11.3129730522633
 31
0.0
  0
LINE
  5
   43F
  8
0
  6
CONTINUOUS
 62
   130
 10
82.5190332889579
 20
-70.4629670083523
 30
0.0
 11
93.7890470910079
 21
-70.4629670083523
 31
0.0
  0
LINE
  5
   440
  8
0
  6
CONTINUOUS
 62
   130
 10
92.1440323054812
 20
-16.8254671484237
 30
0.0
 11
93.8940481483942
 21
-16.8254671484237
 31
0.0
  0
LINE
  5
   441
  8
0
  6
CONTINUOUS
 62
   130
 10
92.1440323054812
 20
-20.8504667371517
 30
0.0
 11
92.1440323054812
 21
-16.8254671484237
 31
0.0
  0
LINE
  5
   442
  8
0
  6
CONTINUOUS
 62
   130
 10
92.1440323054812
 20
-20.8504667371517
 30
0.0
 11
93.8940428078186
 21
-20.8504667371517
 31
0.0
  0
LINE
  5
   443
  8
0
  6
CONTINUOUS
 62
   130
 10
96.6940478622919
 20
-66.2629731118673
 30
0.0
 11
96.6940478622919
 21
-66.175473120808
 31
0.0
  0
LINE
  5
   444
  8
0
  6
CONTINUOUS
 62
   130
 10
96.694047329348
 20
-29.6005130197203
 30
0.0
 11
96.6940526699233
 21
-29.5129916663585
 31
0.0
  0
LINE
  5
   445
  8
0
  6
CONTINUOUS
 62
   130
 10
96.606542530657
 20
-66.2629731118673
 30
0.0
 11
96.6940478622919
 21
-66.2629731118673
 31
0.0
  0
LINE
  5
   446
  8
0
  6
CONTINUOUS
 62
   130
 10
47.5190582275391
 20
21.0619381904689
 30
0.0
 11
48.0440581738949
 21
21.0619381904689
 31
0.0
  0
LINE
  5
   447
  8
0
  6
CONTINUOUS
 62
   130
 10
47.5190582275391
 20
25.2619377613155
 30
0.0
 11
48.0440581738949
 21
25.2619377613155
 31
0.0
  0
LINE
  5
   448
  8
0
  6
CONTINUOUS
 62
   130
 10
49.6190330429392
 20
-40.3629556502053
 30
0.0
 11
50.5986945193364
 21
-40.6254609228744
 31
0.0
  0
LINE
  5
   449
  8
0
  6
CONTINUOUS
 62
   130
 10
49.6190261386534
 20
-40.3629520580573
 30
0.0
 11
49.6190401576632
 21
-38.2629736349366
 31
0.0
  0
LINE
  5
   44A
  8
0
  6
CONTINUOUS
 62
   130
 10
49.6190295834799
 20
-36.8629516230838
 30
0.0
 11
49.6190409322029
 21
-37.0379729675049
 31
0.0
  0
LINE
  5
   44B
  8
0
  6
CONTINUOUS
 62
   130
 10
49.6190203521678
 20
-36.8629639257846
 30
0.0
 11
50.5986838436414
 21
-36.6004693445969
 31
0.0
  0
LINE
  5
   44C
  8
0
  6
CONTINUOUS
 62
     1
 10
95.1190747261026
 20
28.0619374752132
 30
0.0
 11
95.5566387683066
 21
28.0619374752132
 31
0.0
  0
LINE
  5
   44D
  8
0
  6
CONTINUOUS
 62
   130
 10
95.6440479695802
 20
-74.3129662811756
 30
0.0
 11
95.9940479338175
 21
-74.3129662811756
 31
0.0
  0
LINE
  5
   44E
  8
0
  6
CONTINUOUS
 62
   130
 10
95.9940479338175
 20
-29.5129925549008
 30
0.0
 11
96.6065532118082
 21
-29.5129925549008
 31
0.0
  0
LINE
  5
   44F
  8
0
  6
CONTINUOUS
 62
   130
 10
95.9940479338175
 20
-66.2629731118673
 30
0.0
 11
96.6065478712326
 21
-66.2629731118673
 31
0.0
  0
LINE
  5
   450
  8
0
  6
CONTINUOUS
 62
   130
 10
94.5940534174442
 20
-88.6629603284595
 30
0.0
 11
94.5940534174442
 21
-88.4879624962809
 31
0.0
  0
LINE
  5
   451
  8
0
  6
CONTINUOUS
 62
   130
 10
95.9940532743931
 20
-114.037957735657
 30
0.0
 11
95.9940532743931
 21
-89.0129602926967
 31
0.0
  0
LINE
  5
   452
  8
0
  6
CONTINUOUS
 62
   130
 10
94.5940534174442
 20
-114.037957735657
 30
0.0
 11
95.9940532743931
 21
-114.037957735657
 31
0.0
  0
LINE
  5
   453
  8
0
  6
CONTINUOUS
 62
   130
 10
82.694054633379
 20
-88.6629603284595
 30
0.0
 11
94.5940534174442
 21
-88.6629603284595
 31
0.0
  0
LINE
  5
   454
  8
0
  6
CONTINUOUS
 62
   130
 10
95.9940532743931
 20
-88.4879624962809
 30
0.0
 11
95.9940532743931
 21
-74.8379638910296
 31
0.0
  0
LINE
  5
   455
  8
0
  6
CONTINUOUS
 62
   130
 10
82.694054633379
 20
-114.037962486019
 30
0.0
 11
82.694054633379
 21
-88.6629603284595
 31
0.0
  0
LINE
  5
   456
  8
0
  6
CONTINUOUS
 62
   130
 10
82.694054633379
 20
-89.0129602926967
 30
0.0
 11
95.9940532743931
 21
-89.0129602926967
 31
0.0
  0
LINE
  5
   457
  8
0
  6
CONTINUOUS
 62
   130
 10
95.6440533101559
 20
-89.0129602926967
 30
0.0
 11
95.6440533101559
 21
-88.6629603284595
 31
0.0
  0
LINE
  5
   458
  8
0
  6
CONTINUOUS
 62
   130
 10
93.8940481483942
 20
-74.8379638910296
 30
0.0
 11
94.2440481126314
 21
-74.8379638910296
 31
0.0
  0
LINE
  5
   459
  8
0
  6
CONTINUOUS
 62
   130
 10
93.8940481483941
 20
-88.4879624962809
 30
0.0
 11
94.2440481126314
 21
-88.4879624962809
 31
0.0
  0
LINE
  5
   45A
  8
0
  6
CONTINUOUS
 62
   130
 10
93.8940481483941
 20
-88.4879624962809
 30
0.0
 11
93.8940481483941
 21
-74.8379638910296
 31
0.0
  0
LINE
  5
   45B
  8
0
  6
CONTINUOUS
 62
   130
 10
94.2440481126314
 20
-88.4879624962809
 30
0.0
 11
94.2440481126314
 21
-74.8379638910296
 31
0.0
  0
LINE
  5
   45C
  8
0
  6
CONTINUOUS
 62
   130
 10
94.5940534174442
 20
-74.8379638910296
 30
0.0
 11
94.5940534174442
 21
-74.662963908911
 31
0.0
  0
LINE
  5
   45D
  8
0
  6
CONTINUOUS
 62
   130
 10
82.8690546154976
 20
-114.037962486019
 30
0.0
 11
82.8690546154976
 21
-89.0129602926967
 31
0.0
  0
LINE
  5
   45E
  8
0
  6
CONTINUOUS
 62
   130
 10
47.5190582275391
 20
-121.087844737152
 30
0.0
 11
47.5190582275391
 21
34.2704366152974
 31
0.0
  0
LINE
  5
   45F
  8
0
  6
CONTINUOUS
 62
   130
 10
46.4690583348274
 20
-121.087844737152
 30
0.0
 11
46.4690583348274
 21
34.4765566363898
 31
0.0
  0
LINE
  5
   460
  8
0
  6
CONTINUOUS
 62
   130
 10
94.5940534174442
 20
-88.6629603284595
 30
0.0
 11
95.6440533101559
 21
-88.6629603284595
 31
0.0
  0
LINE
  5
   461
  8
0
  6
CONTINUOUS
 62
   130
 10
94.5940534174442
 20
-74.662963908911
 30
0.0
 11
95.6440479695802
 21
-74.662963908911
 31
0.0
  0
LINE
  5
   462
  8
0
  6
CONTINUOUS
 62
   130
 10
94.2440481126314
 20
-74.8379638910296
 30
0.0
 11
95.9940532743931
 21
-74.8379638910296
 31
0.0
  0
LINE
  5
   463
  8
0
  6
CONTINUOUS
 62
   130
 10
94.2440481126314
 20
-88.4879624962809
 30
0.0
 11
95.9940532743931
 21
-88.4879624962809
 31
0.0
  0
LINE
  5
   464
  8
0
  6
CONTINUOUS
 62
   130
 10
48.3940578043461
 20
-36.009722188093
 30
0.0
 11
50.9252486341646
 21
-36.6879530449023
 31
0.0
  0
LINE
  5
   465
  8
0
  6
CONTINUOUS
 62
   130
 10
48.3940578043461
 20
-41.2161820928975
 30
0.0
 11
50.9252391974273
 21
-40.5379532960787
 31
0.0
  0
LINE
  5
   466
  8
0
  6
CONTINUOUS
 62
   130
 10
47.5190582275391
 20
-114.037976527528
 30
0.0
 11
94.5940534174442
 21
-114.037957735657
 31
0.0
  0
LINE
  5
   467
  8
0
  6
CONTINUOUS
 62
   130
 10
48.0440576078196
 20
28.0620215755569
 30
0.0
 11
81.2940969349599
 21
28.0619361263695
 31
0.0
  0
LINE
  5
   468
  8
0
  6
CONTINUOUS
 62
     1
 10
44.8972386950271
 20
34.7851123796408
 30
0.0
 11
48.9616616505661
 21
33.9872466359019
 31
0.0
  0
LINE
  5
   469
  8
0
  6
CONTINUOUS
 62
     1
 10
45.5169612293995
 20
-121.087844737152
 30
0.0
 11
48.5769632900453
 21
-121.087844737152
 31
0.0
  0
LINE
  5
   46A
  8
0
  6
CONTINUOUS
 62
     7
 10
93.7888633045994
 20
-9.74011313218386
 30
0.0
 11
93.8938631937348
 21
-9.74011313218386
 31
0.0
  0
LINE
  5
   46B
  8
0
  6
CONTINUOUS
 62
     7
 10
96.2563628299676
 20
-23.740111161128
 30
0.0
 11
96.3182346603174
 21
-23.76574058369
 31
0.0
  0
LINE
  5
   46C
  8
0
  6
CONTINUOUS
 62
     7
 10
96.3182351510703
 20
-23.7657428483386
 30
0.0
 11
96.3438633122397
 21
-23.8276134155388
 31
0.0
  0
LINE
  5
   46D
  8
0
  6
CONTINUOUS
 62
     7
 10
96.3182344377697
 20
-60.4644808157995
 30
0.0
 11
96.3438625570342
 21
-60.4026089135271
 31
0.0
  0
LINE
  5
   46E
  8
0
  6
CONTINUOUS
 62
     7
 10
94.1390417146695
 20
-4.83786180457678
 30
0.0
 11
94.2440427720558
 21
-4.83786180457678
 31
0.0
  0
LINE
  5
   46F
  8
0
  6
CONTINUOUS
 62
   212
 10
96.6940369609995
 20
-66.2629731118673
 30
0.0
 11
96.6940369609995
 21
-29.5129925549008
 31
0.0
  0
LINE
  5
   470
  8
0
  6
CONTINUOUS
 62
   212
 10
96.6940369609995
 20
-57.6003323807498
 30
0.0
 11
96.6956090929494
 21
-57.6003323807498
 31
0.0
  0
LINE
  5
   471
  8
0
  6
CONTINUOUS
 62
   212
 10
96.6955829741973
 20
-57.1628057212978
 30
0.0
 11
96.6955840590017
 21
-57.6003310410393
 31
0.0
  0
LINE
  5
   472
  8
0
  6
CONTINUOUS
 62
     7
 10
94.1390481493862
 20
-7.72760188101246
 30
0.0
 11
94.2440480385216
 21
-7.72760188101246
 31
0.0
  0
LINE
  5
   473
  8
0
  6
CONTINUOUS
 62
     7
 10
96.6065476747544
 20
-21.7275999099566
 30
0.0
 11
96.6684195051042
 21
-21.7532293325186
 31
0.0
  0
LINE
  5
   474
  8
0
  6
CONTINUOUS
 62
     7
 10
96.6684199958572
 20
-21.7532315971672
 30
0.0
 11
96.6940481570266
 21
-21.8151021643674
 31
0.0
  0
LINE
  5
   475
  8
0
  6
CONTINUOUS
 62
     7
 10
96.6684192825565
 20
-58.4519695646281
 30
0.0
 11
96.694047401821
 21
-58.3900976623557
 31
0.0
  0
LINE
  5
   476
  8
0
  6
CONTINUOUS
 62
     7
 10
96.7353829794692
 20
-48.5565015417892
 30
0.0
 11
96.8907396719485
 21
-48.3599550003047
 31
0.0
  0
LINE
  5
   477
  8
0
  6
DASHDOT
 62
   218
 10
-11.7674979487609
 20
-45.8753326489754
 30
0.0
 11
33.3602541594798
 21
-45.8753326489754
 31
0.0
  0
LINE
  5
   478
  8
0
  6
DASHDOT
 62
     7
 10
43.2252495090984
 20
-45.8753231080731
 30
0.0
 11
152.271407633994
 21
-45.8756256379925
 31
0.0
  0
LINE
  5
   479
  8
0
  6
CONTINUOUS
 62
     7
 10
47.5190689086916
 20
-101.619965920826
 30
0.0
 11
47.5190689086916
 21
-73.7004642500913
 31
0.0
  0
LINE
  5
   47A
  8
0
  6
CONTINUOUS
 62
     7
 10
111.569035587112
 20
-51.4753902378236
 30
0.0
 11
111.569035587112
 21
-47.2753867182152
 31
0.0
  0
LINE
  5
   47B
  8
0
  6
DASHDOT
 62
     3
 10
125.163605232469
 20
-40.1003421797501
 30
0.0
 11
128.585249403815
 21
-40.1003421797501
 31
0.0
  0
LINE
  5
   47C
  8
0
  6
CONTINUOUS
 62
   212
 10
111.569034251969
 20
-70.3754806115267
 30
0.0
 11
111.569034251969
 21
-21.3754856183168
 31
0.0
  0
LINE
  5
   47D
  8
0
  6
CONTINUOUS
 62
   212
 10
111.569031584283
 20
-26.8027067374247
 30
0.0
 11
114.022484083048
 21
-26.802744173996
 31
0.0
  0
LINE
  5
   47E
  8
0
  6
CONTINUOUS
 62
   212
 10
111.569032923821
 20
-45.1022478641239
 30
0.0
 11
114.022109993057
 21
-45.1021917548864
 31
0.0
  0
LINE
  5
   47F
  8
0
  6
DASHDOT
 62
     7
 10
99.4443223726178
 20
-36.0754841162798
 30
0.0
 11
131.282226283095
 21
-36.0754841162798
 31
0.0
  0
LINE
  5
   480
  8
0
  6
CONTINUOUS
 62
     3
 10
96.6940478622919
 20
-58.4753256156243
 30
0.0
 11
96.6940478622919
 21
-29.5129741057185
 31
0.0
  0
LINE
  5
   481
  8
0
  6
DASHED
 62
     7
 10
143.944043034316
 20
-78.420046595073
 30
0.0
 11
143.944043034316
 21
-28.1865395964134
 31
0.0
  0
LINE
  5
   482
  8
0
  6
DASHED
 62
     7
 10
132.219044232369
 20
-47.4416069172985
 30
0.0
 11
135.194043928385
 21
-47.4416069172985
 31
0.0
  0
LINE
  5
   483
  8
0
  6
DASHED
 62
     7
 10
131.869044268132
 20
-26.8004850639936
 30
0.0
 11
142.544043177356
 21
-26.8004850639936
 31
0.0
  0
ARC
  5
   484
  8
0
  6
DASHED
 62
     7
 10
135.194043928385
 20
-49.891606666959
 30
0.0
 40
2.44999974966049
 50
0.0
 51
90.0
  0
ARC
  5
   485
  8
0
  6
DASHED
 62
     7
 10
135.194043928385
 20
-48.6611140100972
 30
0.0
 40
2.44999974966049
 50
0.0
 51
90.0
  0
LINE
  5
   486
  8
0
  6
DASHED
 62
     7
 10
137.644043678046
 20
-79.8254817320938
 30
0.0
 11
137.644043678046
 21
-48.6611140100972
 31
0.0
  0
LINE
  5
   487
  8
0
  6
DASHED
 62
     7
 10
146.744042748213
 20
-45.5254831506845
 30
0.0
 11
146.744042748213
 21
-39.9254837228891
 31
0.0
  0
ARC
  5
   488
  8
0
  6
DASHED
 62
     7
 10
145.344042891265
 20
-45.5254831506845
 30
0.0
 40
1.39999985694885
 50
180.0
 51
360.0
  0
ARC
  5
   489
  8
0
  6
DASHED
 62
     7
 10
145.344042891265
 20
-39.9254837228891
 30
0.0
 40
1.39999985694885
 50
0.0
 51
180.0
  0
LINE
  5
   48A
  8
0
  6
DASHDOT
 62
     7
 10
143.244043105841
 20
-45.5254831506845
 30
0.0
 11
147.444042676688
 21
-45.5254831506845
 31
0.0
  0
LINE
  5
   48B
  8
0
  6
DASHDOT
 62
     7
 10
145.344042891265
 20
-47.6254829361078
 30
0.0
 11
145.344042891265
 21
-37.8254839374658
 31
0.0
  0
LINE
  5
   48C
  8
0
  6
DASHDOT
 62
     7
 10
143.244043105841
 20
-39.9254837228891
 30
0.0
 11
147.444042676688
 21
-39.9254837228891
 31
0.0
  0
ARC
  5
   48D
  8
0
  6
DASHED
 62
     7
 10
140.794043356181
 20
-33.2754844023821
 30
0.0
 40
14.4547866570591
 50
282.586944950843
 51
307.750050331541
  0
ARC
  5
   48E
  8
0
  6
DASHED
 62
     7
 10
140.794043356181
 20
-33.2754844023821
 30
0.0
 40
15.5047865497708
 50
281.72198665881
 51
307.180704244992
  0
LINE
  5
   48F
  8
0
  6
DASHED
 62
     7
 10
143.944043034316
 20
-34.5883419195712
 30
0.0
 11
150.723697436054
 21
-46.621997553852
 31
0.0
  0
LINE
  5
   490
  8
0
  6
DASHED
 62
     7
 10
143.944043034316
 20
-32.4491996115158
 30
0.0
 11
151.638503122114
 21
-46.1066041784122
 31
0.0
  0
LINE
  5
   491
  8
0
  6
DASHED
 62
     7
 10
150.723697436054
 20
-46.621997553852
 30
0.0
 11
151.638503122114
 21
-46.1066041784123
 31
0.0
  0
LINE
  5
   492
  8
0
  6
DASHED
 62
     7
 10
132.219044232369
 20
-47.4416069172985
 30
0.0
 11
132.219044232369
 21
-45.1754911973107
 31
0.0
  0
LINE
  5
   493
  8
0
  6
CONTINUOUS
 62
   212
 10
114.022109998597
 20
-45.1019207378934
 30
0.0
 11
114.022484083704
 21
-26.8027120930119
 31
0.0
  0
LINE
  5
   494
  8
0
  6
CONTINUOUS
 62
   253
 10
127.319044733048
 20
-45.350516493742
 30
0.0
 11
127.319044733048
 21
-39.5754837586519
 31
0.0
  0
LINE
  5
   495
  8
0
  6
CONTINUOUS
 62
   253
 10
121.894045287371
 20
-39.2254824058492
 30
0.0
 11
121.894045287371
 21
-37.4754825846631
 31
0.0
  0
LINE
  5
   496
  8
0
  6
CONTINUOUS
 62
   253
 10
121.894045287371
 20
-21.7253453390222
 30
0.0
 11
126.531544813514
 21
-21.7253453390222
 31
0.0
  0
LINE
  5
   497
  8
0
  6
CONTINUOUS
 62
   253
 10
121.894045287371
 20
-58.4753522650809
 30
0.0
 11
126.531544813514
 21
-58.4753522650809
 31
0.0
  0
LINE
  5
   498
  8
0
  6
CONTINUOUS
 62
   253
 10
126.969044768811
 20
-58.0378416286331
 30
0.0
 11
126.969044768811
 21
-39.5754837586519
 31
0.0
  0
LINE
  5
   499
  8
0
  6
CONTINUOUS
 62
   253
 10
121.894045287371
 20
-58.4753522650809
 30
0.0
 11
121.894045287371
 21
-39.2254824058492
 31
0.0
  0
LINE
  5
   49A
  8
0
  6
CONTINUOUS
 62
   253
 10
121.894045287371
 20
-36.0755201117436
 30
0.0
 11
121.894045287371
 21
-21.7253453390222
 31
0.0
  0
LINE
  5
   49B
  8
0
  6
CONTINUOUS
 62
   253
 10
121.894045287371
 20
-37.4754825846631
 30
0.0
 11
121.894045287371
 21
-36.0755174414558
 31
0.0
  0
LINE
  5
   49C
  8
0
  6
CONTINUOUS
 62
   253
 10
126.840905272404
 20
-58.3471984716796
 30
0.0
 11
126.969047048275
 21
-58.0378389492385
 31
0.0
  0
LINE
  5
   49D
  8
0
  6
CONTINUOUS
 62
   253
 10
126.779015929906
 20
-58.3728375064959
 30
0.0
 11
126.840902521666
 21
-58.3472014074359
 31
0.0
  0
LINE
  5
   49E
  8
0
  6
CONTINUOUS
 62
   253
 10
126.531544666429
 20
-58.4753523482119
 30
0.0
 11
126.778933482257
 21
-58.3728720390666
 31
0.0
  0
LINE
  5
   49F
  8
0
  6
CONTINUOUS
 62
   253
 10
126.531546197864
 20
-21.7253430721043
 30
0.0
 11
126.840904383578
 21
-21.8534848459761
 31
0.0
  0
LINE
  5
   4A0
  8
0
  6
CONTINUOUS
 62
   253
 10
126.840903561876
 20
-21.8534832229048
 30
0.0
 11
126.969045335748
 21
-22.1628414086184
 31
0.0
  0
LINE
  5
   4A1
  8
0
  6
CONTINUOUS
 62
   130
 10
114.197261794416
 20
-45.3504791224983
 30
0.0
 11
114.197307189308
 21
-26.8004463036627
 31
0.0
  0
LINE
  5
   4A2
  8
0
  6
CONTINUOUS
 62
   130
 10
114.722261740773
 20
-45.3504764520929
 30
0.0
 11
114.722307135666
 21
-26.8004516412337
 31
0.0
  0
LINE
  5
   4A3
  8
0
  6
CONTINUOUS
 62
   130
 10
115.072301152051
 20
-29.0755113874169
 30
0.0
 11
118.922805213312
 21
-29.0755250498134
 31
0.0
  0
LINE
  5
   4A4
  8
0
  6
CONTINUOUS
 62
   130
 10
115.07226745214
 20
-43.0755097501166
 30
0.0
 11
118.922634870421
 21
-43.0755211350432
 31
0.0
  0
LINE
  5
   4A5
  8
0
  6
CONTINUOUS
 62
   130
 10
114.722755747615
 20
-33.2754563071603
 30
0.0
 11
119.272755282699
 21
-33.2755150534928
 31
0.0
  0
LINE
  5
   4A6
  8
0
  6
CONTINUOUS
 62
   130
 10
114.722684985111
 20
-38.8754557354225
 30
0.0
 11
119.272684520195
 21
-38.875514481755
 31
0.0
  0
LINE
  5
   4A7
  8
0
  6
CONTINUOUS
 62
   130
 10
114.722684982643
 20
-38.8754557328407
 30
0.0
 11
114.72275574527
 21
-33.2754563050725
 31
0.0
  0
LINE
  5
   4A8
  8
0
  6
CONTINUOUS
 62
   130
 10
119.272635868638
 20
-42.7255255942944
 30
0.0
 11
119.272803929846
 21
-29.425529437846
 31
0.0
  0
LINE
  5
   4A9
  8
0
  6
CONTINUOUS
 62
   253
 10
126.969044768811
 20
-45.350516493742
 30
0.0
 11
127.319044733048
 21
-45.350516493742
 31
0.0
  0
LINE
  5
   4AA
  8
0
  6
CONTINUOUS
 62
   253
 10
126.969044768811
 20
-26.8005210594575
 30
0.0
 11
127.319044733048
 21
-26.8005210594575
 31
0.0
  0
LINE
  5
   4AB
  8
0
  6
CONTINUOUS
 62
   130
 10
114.022281839409
 20
-41.1504474954123
 30
0.0
 11
114.197281821528
 21
-41.1504474954123
 31
0.0
  0
LINE
  5
   4AC
  8
0
  6
CONTINUOUS
 62
   130
 10
114.022307207143
 20
-31.000477905699
 30
0.0
 11
114.197307189262
 21
-31.000477905699
 31
0.0
  0
LINE
  5
   4AD
  8
0
  6
CONTINUOUS
 62
   130
 10
114.197261793909
 20
-45.3504791092825
 30
0.0
 11
114.722261740265
 21
-45.3504764389946
 31
0.0
  0
LINE
  5
   4AE
  8
0
  6
CONTINUOUS
 62
   130
 10
114.197307190146
 20
-26.8004462887189
 30
0.0
 11
114.722307136501
 21
-26.8004516292947
 31
0.0
  0
ARC
  5
   4AF
  8
0
  6
CONTINUOUS
 62
     7
 10
118.922803965637
 20
-29.4255250140485
 30
0.0
 40
0.349999964237213
 50
359.999275999948
 51
450.0
  0
ARC
  5
   4B0
  8
0
  6
CONTINUOUS
 62
     7
 10
118.922635904429
 20
-42.7255211708076
 30
0.0
 40
0.349999964237213
 50
269.999830585454
 51
359.999275999948
  0
ARC
  5
   4B1
  8
0
  6
CONTINUOUS
 62
     7
 10
115.072302388974
 20
-28.725511423182
 30
0.0
 40
0.349999964237213
 50
179.999859788015
 51
269.99979670255
  0
ARC
  5
   4B2
  8
0
  6
CONTINUOUS
 62
     7
 10
115.072266415714
 20
-43.4255097143523
 30
0.0
 40
0.349999964237213
 50
90.0
 51
179.999859788015
  0
LINE
  5
   4B3
  8
0
  6
CONTINUOUS
 62
   212
 10
126.969044768811
 20
-26.8031994607273
 30
0.0
 11
126.969044768811
 21
-21.9028345784252
 31
0.0
  0
LINE
  5
   4B4
  8
0
  6
CONTINUOUS
 62
     7
 10
121.194045358897
 20
-62.4431454237903
 30
0.0
 11
121.194045358897
 21
-5.68383367366845
 31
0.0
  0
LINE
  5
   4B5
  8
0
  6
CONTINUOUS
 62
     7
 10
121.894045287371
 20
-21.7278345963066
 30
0.0
 11
121.894045287371
 21
-5.68383367366845
 31
0.0
  0
LINE
  5
   4B6
  8
0
  6
CONTINUOUS
 62
   170
 10
120.144045466185
 20
-40.8031486303046
 30
0.0
 11
120.144045466185
 21
-31.3531455901936
 31
0.0
  0
LINE
  5
   4B7
  8
0
  6
CONTINUOUS
 62
   170
 10
120.66904140711
 20
-30.8281536546544
 30
0.0
 11
121.194045358897
 21
-30.8281576601162
 31
0.0
  0
LINE
  5
   4B8
  8
0
  6
CONTINUOUS
 62
   170
 10
120.66905342348
 20
-41.3281525821681
 30
0.0
 11
121.194045358897
 21
-41.3281565875382
 31
0.0
  0
LINE
  5
   4B9
  8
0
  6
CONTINUOUS
 62
   170
 10
120.144045466185
 20
-31.3531495956248
 30
0.0
 11
121.194045358897
 21
-31.3531576064872
 31
0.0
  0
LINE
  5
   4BA
  8
0
  6
CONTINUOUS
 62
   170
 10
120.144045466185
 20
-40.8031486303046
 30
0.0
 11
121.194045358897
 21
-40.8031566411671
 31
0.0
  0
LINE
  5
   4BB
  8
0
  6
CONTINUOUS
 62
   170
 10
120.144045466185
 20
-31.3531455901936
 30
0.0
 11
120.669049417972
 21
-30.8281456438531
 31
0.0
  0
LINE
  5
   4BC
  8
0
  6
CONTINUOUS
 62
   170
 10
120.144045466185
 20
-40.8031446248733
 30
0.0
 11
120.669045412541
 21
-41.3281445712292
 31
0.0
  0
LINE
  5
   4BD
  8
0
  6
CONTINUOUS
 62
     7
 10
119.447119092241
 20
-34.3281359637396
 30
0.0
 11
120.144045466185
 21
-34.3281412808652
 31
0.0
  0
LINE
  5
   4BE
  8
0
  6
CONTINUOUS
 62
     7
 10
119.447074865966
 20
-37.8281356058761
 30
0.0
 11
120.144045466185
 21
-37.8281409233392
 31
0.0
  0
LINE
  5
   4BF
  8
0
  6
DASHDOT
 62
     7
 10
116.9946686588
 20
-44.5405877588869
 30
0.0
 11
116.9946686588
 21
-26.8031019952338
 31
0.0
  0
LINE
  5
   4C0
  8
0
  6
CONTINUOUS
 62
     7
 10
117.869668569393
 20
-27.6755131843845
 30
0.0
 11
117.869668569393
 21
-25.5781261529553
 31
0.0
  0
LINE
  5
   4C1
  8
0
  6
CONTINUOUS
 62
     7
 10
116.119668748207
 20
-27.675499832947
 30
0.0
 11
116.119668748207
 21
-25.5781128015178
 31
0.0
  0
LINE
  5
   4C2
  8
0
  6
CONTINUOUS
 62
     7
 10
116.119668748642
 20
-25.5781128015178
 30
0.0
 11
117.869668569771
 21
-25.5781261529553
 31
0.0
  0
LINE
  5
   4C3
  8
0
  6
CONTINUOUS
 62
     7
 10
117.86958304114
 20
-46.5781240108835
 30
0.0
 11
117.869615124117
 21
-44.4755338127381
 31
0.0
  0
LINE
  5
   4C4
  8
0
  6
CONTINUOUS
 62
     7
 10
116.11957795772
 20
-46.5781106556691
 30
0.0
 11
117.869583041268
 21
-46.5781240071467
 31
0.0
  0
LINE
  5
   4C5
  8
0
  6
CONTINUOUS
 62
     7
 10
116.119583219954
 20
-46.5781106594364
 30
0.0
 11
116.119615302931
 21
-44.4755204606391
 31
0.0
  0
LINE
  5
   4C6
  8
0
  6
CONTINUOUS
 62
   132
 10
115.704920792651
 20
-27.6754966686716
 30
0.0
 11
118.284420529165
 21
-27.6755163486905
 31
0.0
  0
LINE
  5
   4C7
  8
0
  6
CONTINUOUS
 62
   132
 10
115.442418817408
 20
-28.812994548684
 30
0.0
 11
115.442418817408
 21
-27.9379966417067
 31
0.0
  0
LINE
  5
   4C8
  8
0
  6
CONTINUOUS
 62
   132
 10
118.546918500192
 20
-28.8130142297412
 30
0.0
 11
118.546918500192
 21
-27.9380163217251
 31
0.0
  0
LINE
  5
   4C9
  8
0
  6
CONTINUOUS
 62
   132
 10
115.967418763764
 20
-28.812994548684
 30
0.0
 11
115.967418763764
 21
-27.9379966417067
 31
0.0
  0
LINE
  5
   4CA
  8
0
  6
CONTINUOUS
 62
   132
 10
118.021918553836
 20
-28.8130182352026
 30
0.0
 11
118.021918553836
 21
-27.9380143191451
 31
0.0
  0
LINE
  5
   4CB
  8
0
  6
CONTINUOUS
 62
   132
 10
115.879295901955
 20
-29.0755182083804
 30
0.0
 11
118.458795638383
 21
-29.0755182083804
 31
0.0
  0
ARC
  5
   4CC
  8
0
  6
CONTINUOUS
 62
   132
 10
115.704918790586
 20
-28.812994548684
 30
0.0
 40
0.262499974246549
 50
180.00517004828
 51
360.0
  0
ARC
  5
   4CD
  8
0
  6
CONTINUOUS
 62
   132
 10
116.9946686588
 20
-26.9342825938373
 30
0.0
 40
2.14123561454313
 50
241.331165258311
 51
298.668834741688
  0
ARC
  5
   4CE
  8
0
  6
CONTINUOUS
 62
   132
 10
118.284418527014
 20
-28.8130142297412
 30
0.0
 40
0.262499973208507
 50
180.0
 51
359.999125729333
  0
ARC
  5
   4CF
  8
0
  6
CONTINUOUS
 62
   132
 10
118.284418527014
 20
-27.9380163217251
 30
0.0
 40
0.262499973185519
 50
359.999562838353
 51
540.0
  0
ARC
  5
   4D0
  8
0
  6
CONTINUOUS
 62
   132
 10
116.994654325186
 20
-29.8167421232719
 30
0.0
 40
2.14123561465398
 50
61.3307281269688
 51
118.668397608924
  0
ARC
  5
   4D1
  8
0
  6
CONTINUOUS
 62
   132
 10
115.704918790586
 20
-27.9379966417067
 30
0.0
 40
0.26249997318575
 50
0.0
 51
179.999562897457
  0
LINE
  5
   4D2
  8
0
  6
CONTINUOUS
 62
   132
 10
115.704830003393
 20
-44.4755172928507
 30
0.0
 11
118.28432973999
 21
-44.4755369728695
 31
0.0
  0
ARC
  5
   4D3
  8
0
  6
CONTINUOUS
 62
   132
 10
116.99459620807
 20
-42.3342915182693
 30
0.0
 40
2.14123561465398
 50
241.330728126966
 51
298.668397608922
  0
ARC
  5
   4D4
  8
0
  6
CONTINUOUS
 62
   132
 10
118.284331742671
 20
-44.2130369998348
 30
0.0
 40
0.262499973185519
 50
179.99912573589
 51
359.999562897537
  0
LINE
  5
   4D5
  8
0
  6
CONTINUOUS
 62
   132
 10
118.021831769493
 20
-44.2130350021744
 30
0.0
 11
118.021845120991
 21
-43.3380310862136
 31
0.0
  0
LINE
  5
   4D6
  8
0
  6
CONTINUOUS
 62
   132
 10
115.96733197939
 20
-44.2130213283359
 30
0.0
 11
115.967345330797
 21
-43.3380234218272
 31
0.0
  0
LINE
  5
   4D7
  8
0
  6
CONTINUOUS
 62
   132
 10
115.442332033095
 20
-44.2130133174696
 30
0.0
 11
115.442345384502
 21
-43.3380154109609
 31
0.0
  0
LINE
  5
   4D8
  8
0
  6
CONTINUOUS
 62
   132
 10
118.546831715818
 20
-44.2130410103246
 30
0.0
 11
118.546845067225
 21
-43.338043102512
 31
0.0
  0
ARC
  5
   4D9
  8
0
  6
CONTINUOUS
 62
   132
 10
118.284345094078
 20
-43.3380390919206
 30
0.0
 40
0.262499973208507
 50
6.5571192756364E-9
 51
179.99912573589
  0
LINE
  5
   4DA
  8
0
  6
CONTINUOUS
 62
   132
 10
115.879226476621
 20
-43.0754957532743
 30
0.0
 11
118.458726213027
 21
-43.075535113312
 31
0.0
  0
ARC
  5
   4DB
  8
0
  6
CONTINUOUS
 62
   132
 10
115.704845357649
 20
-43.3380194129401
 30
0.0
 40
0.262499974246549
 50
359.99912573589
 51
539.99395568761
  0
ARC
  5
   4DC
  8
0
  6
CONTINUOUS
 62
   132
 10
116.994566558847
 20
-45.216751047587
 30
0.0
 40
2.14123561454313
 50
61.3302909942027
 51
118.667960477579
  0
ARC
  5
   4DD
  8
0
  6
CONTINUOUS
 62
   132
 10
115.704832006242
 20
-44.2130173198156
 30
0.0
 40
0.26249997318575
 50
179.999562838433
 51
359.99912573589
  0
ARC
  5
   4DE
  8
0
  6
CONTINUOUS
 62
     7
 10
122.244045251608
 20
-28.0254849388239
 30
0.0
 40
2.02999979257584
 50
184.945429717883
 51
220.282118355986
  0
LINE
  5
   4DF
  8
0
  6
CONTINUOUS
 62
     7
 10
120.221602628413
 20
-28.2004849209425
 30
0.0
 11
120.56404542327
 21
-28.2004849209425
 31
0.0
  0
LINE
  5
   4E0
  8
0
  6
CONTINUOUS
 62
     7
 10
120.221602628413
 20
-27.8504849567053
 30
0.0
 11
120.56404542327
 21
-27.8504849567053
 31
0.0
  0
ARC
  5
   4E1
  8
0
  6
CONTINUOUS
 62
     7
 10
122.244045251608
 20
-28.0254849388239
 30
0.0
 40
2.02999979257584
 50
139.717881644014
 51
175.054570282117
  0
LINE
  5
   4E2
  8
0
  6
CONTINUOUS
 62
     7
 10
120.695419002348
 20
-26.7129850729343
 30
0.0
 11
121.194045358897
 21
-26.7129850729343
 31
0.0
  0
LINE
  5
   4E3
  8
0
  6
CONTINUOUS
 62
     7
 10
120.695419002348
 20
-29.3379848047134
 30
0.0
 11
121.194045358897
 21
-29.3379848047134
 31
0.0
  0
LINE
  5
   4E4
  8
0
  6
CONTINUOUS
 62
     7
 10
120.56404542327
 20
-28.2004849209425
 30
0.0
 11
120.56404542327
 21
-27.8504849567053
 31
0.0
  0
LINE
  5
   4E5
  8
0
  6
DASHDOT
 62
     7
 10
119.977818250573
 20
-28.0254849388239
 30
0.0
 11
125.86336020542
 21
-28.0254849388239
 31
0.0
  0
LINE
  5
   4E6
  8
0
  6
CONTINUOUS
 62
     7
 10
119.46235776781
 20
-5.68383367366845
 30
0.0
 11
123.995636019024
 21
-5.68383367366845
 31
0.0
  0
LINE
  5
   4E7
  8
0
  6
CONTINUOUS
 62
     7
 10
119.46235776781
 20
-62.4431454237903
 30
0.0
 11
122.840094504009
 21
-62.4431454237903
 31
0.0
  0
LINE
  5
   4E8
  8
0
  6
CONTINUOUS
 62
     7
 10
121.894045287371
 20
-62.4431454237903
 30
0.0
 11
121.894045287371
 21
-58.4753522650809
 31
0.0
  0
LINE
  5
   4E9
  8
0
  6
CONTINUOUS
 62
     7
 10
128.544044607878
 20
-37.1254840089914
 30
0.0
 11
128.544044607878
 21
-35.0254842235681
 31
0.0
  0
LINE
  5
   4EA
  8
0
  6
CONTINUOUS
 62
     7
 10
121.894045287371
 20
-34.3254842950937
 30
0.0
 11
127.844044679404
 21
-34.3254842950937
 31
0.0
  0
LINE
  5
   4EB
  8
0
  6
CONTINUOUS
 62
     7
 10
121.894045287371
 20
-37.8254839374658
 30
0.0
 11
127.844044679404
 21
-37.8254839374658
 31
0.0
  0
LINE
  5
   4EC
  8
0
  6
CONTINUOUS
 62
     7
 10
127.844044679404
 20
-34.3254842950936
 30
0.0
 11
128.544044607878
 21
-35.025484223568
 31
0.0
  0
LINE
  5
   4ED
  8
0
  6
CONTINUOUS
 62
     7
 10
127.844044679404
 20
-37.8254839374658
 30
0.0
 11
128.544044607878
 21
-37.1254840089914
 31
0.0
  0
CIRCLE
  5
   4EE
  8
0
  6
CONTINUOUS
 62
     7
 10
126.444044822455
 20
-36.0754841162798
 30
0.0
 40
0.962499901652336
  0
LINE
  5
   4EF
  8
0
  6
DASHDOT
 62
     7
 10
126.444044822455
 20
-37.3879839821693
 30
0.0
 11
126.444044822455
 21
-34.7629842503902
 31
0.0
  0
LINE
  5
   4F0
  8
0
  6
CONTINUOUS
 62
     7
 10
121.894045287371
 20
-32.5754844739076
 30
0.0
 11
130.294044429064
 21
-32.5754844739076
 31
0.0
  0
LINE
  5
   4F1
  8
0
  6
CONTINUOUS
 62
     7
 10
121.894045287371
 20
-39.5754837586519
 30
0.0
 11
130.294044429064
 21
-39.5754837586519
 31
0.0
  0
LINE
  5
   4F2
  8
0
  6
CONTINUOUS
 62
     7
 10
130.294044429064
 20
-39.5754837586519
 30
0.0
 11
130.294044429064
 21
-32.5754844739076
 31
0.0
  0
LINE
  5
   4F3
  8
0
  6
CONTINUOUS
 62
   253
 10
126.969044768811
 20
-32.5754844739076
 30
0.0
 11
126.969044768811
 21
-22.1628452943188
 31
0.0
  0
LINE
  5
   4F4
  8
0
  6
CONTINUOUS
 62
   253
 10
127.319044733048
 20
-32.5754844739076
 30
0.0
 11
127.319044733048
 21
-26.8005210594575
 31
0.0
  0
LINE
  5
   4F5
  8
0
  6
CONTINUOUS
 62
     7
 10
120.695419002348
 20
-42.8129834278461
 30
0.0
 11
121.194045358897
 21
-42.8129834278461
 31
0.0
  0
ARC
  5
   4F6
  8
0
  6
CONTINUOUS
 62
     7
 10
122.244045251608
 20
-44.1254832937357
 30
0.0
 40
2.02999979257584
 50
139.717881644014
 51
175.054570282117
  0
LINE
  5
   4F7
  8
0
  6
CONTINUOUS
 62
     7
 10
120.221602628413
 20
-43.9504833116171
 30
0.0
 11
120.56404542327
 21
-43.9504833116171
 31
0.0
  0
LINE
  5
   4F8
  8
0
  6
CONTINUOUS
 62
     7
 10
120.56404542327
 20
-44.3004832758543
 30
0.0
 11
120.56404542327
 21
-43.9504833116171
 31
0.0
  0
LINE
  5
   4F9
  8
0
  6
CONTINUOUS
 62
     7
 10
120.221602628413
 20
-44.3004832758543
 30
0.0
 11
120.56404542327
 21
-44.3004832758543
 31
0.0
  0
ARC
  5
   4FA
  8
0
  6
CONTINUOUS
 62
     7
 10
122.244045251608
 20
-44.1254832937357
 30
0.0
 40
2.02999979257584
 50
184.945429717883
 51
220.282118355986
  0
LINE
  5
   4FB
  8
0
  6
CONTINUOUS
 62
     7
 10
120.695419002348
 20
-45.4379831596252
 30
0.0
 11
121.194045358897
 21
-45.4379831596252
 31
0.0
  0
LINE
  5
   4FC
  8
0
  6
DASHDOT
 62
     7
 10
119.977818250573
 20
-44.1254832937357
 30
0.0
 11
125.86336020542
 21
-44.1254832937357
 31
0.0
  0
LINE
  5
   4FD
  8
0
  6
DOT
 62
     7
 10
104.746690478651
 20
-37.8254839374658
 30
0.0
 11
104.746690478651
 21
-34.3254842950937
 31
0.0
  0
LINE
  5
   4FE
  8
0
  6
DOT
 62
     7
 10
104.746690478651
 20
-34.3254842950937
 30
0.0
 11
119.44711912448
 21
-34.3254842950937
 31
0.0
  0
LINE
  5
   4FF
  8
0
  6
DOT
 62
     7
 10
104.746690478651
 20
-37.8254839374658
 30
0.0
 11
119.44711912448
 21
-37.8254839374658
 31
0.0
  0
LINE
  5
   500
  8
0
  6
CONTINUOUS
 62
     7
 10
95.9940479338175
 20
-21.3754856183168
 30
0.0
 11
111.569034251969
 21
-21.3754856183168
 31
0.0
  0
LINE
  5
   501
  8
0
  6
CONTINUOUS
 62
     7
 10
95.9940479338175
 20
-70.3754806115267
 30
0.0
 11
111.569034251969
 21
-70.3754806115267
 31
0.0
  0
LINE
  5
   502
  8
0
  6
CONTINUOUS
 62
     7
 10
119.272635868638
 20
-67.7740892289132
 30
0.0
 11
119.272635868638
 21
-41.6445078192086
 31
0.0
  0
LINE
  5
   503
  8
0
  6
CONTINUOUS
 62
     7
 10
119.272635868638
 20
-106.588715831158
 30
0.0
 11
119.272635868638
 21
-74.4174949518503
 31
0.0
  0
LINE
  5
   504
  8
0
  6
CONTINUOUS
 62
     7
 10
119.272635868638
 20
-124.167662481438
 30
0.0
 11
119.272635868638
 21
-122.381759031658
 31
0.0
  0
LINE
  5
   505
  8
0
  6
DASHED
 62
     7
 10
137.644043678046
 20
-79.8254817320938
 30
0.0
 11
142.548153398058
 21
-79.8254817320938
 31
0.0
  0
LINE
  5
   506
  8
0
  6
CONTINUOUS
 62
   130
 10
132.219044232369
 20
-28.5343136221836
 30
0.0
 11
132.219044232369
 21
-28.3582508655154
 31
0.0
  0
LINE
  5
   507
  8
0
  6
CONTINUOUS
 62
   130
 10
132.219044232369
 20
-29.7697009166068
 30
0.0
 11
132.219044232369
 21
-29.0152110950185
 31
0.0
  0
LINE
  5
   508
  8
0
  6
CONTINUOUS
 62
   130
 10
132.219044232369
 20
-28.3582508655154
 30
0.0
 11
132.219044232369
 21
-27.8078992066621
 31
0.0
  0
LINE
  5
   509
  8
0
  6
CONTINUOUS
 62
   130
 10
132.219044232369
 20
-27.8078992066621
 30
0.0
 11
132.219044232369
 21
-27.3717610981503
 31
0.0
  0
LINE
  5
   50A
  8
0
  6
CONTINUOUS
 62
   130
 10
132.219044232369
 20
-27.2382253451933
 30
0.0
 11
132.219044232369
 21
-27.0558553687106
 31
0.0
  0
LINE
  5
   50B
  8
0
  6
CONTINUOUS
 62
   130
 10
132.219044232369
 20
-29.0152110950185
 30
0.0
 11
132.219044232369
 21
-28.6457874572288
 31
0.0
  0
LINE
  5
   50C
  8
0
  6
CONTINUOUS
 62
   130
 10
132.219044232369
 20
-27.3717610981503
 30
0.0
 11
132.219044232369
 21
-27.2908620585649
 31
0.0
  0
LINE
  5
   50D
  8
0
  6
CONTINUOUS
 62
   130
 10
132.219044232369
 20
-30.0829951045653
 30
0.0
 11
132.219044232369
 21
-29.7697009166068
 31
0.0
  0
LINE
  5
   50E
  8
0
  6
CONTINUOUS
 62
   130
 10
132.219044232369
 20
-30.1723055507618
 30
0.0
 11
132.219044232369
 21
-30.0829951045653
 31
0.0
  0
LINE
  5
   50F
  8
0
  6
CONTINUOUS
 62
   130
 10
132.219044232369
 20
-45.1231722481889
 30
0.0
 11
132.219044232369
 21
-43.4308266111752
 31
0.0
  0
LINE
  5
   510
  8
0
  6
CONTINUOUS
 62
   130
 10
143.365071230682
 20
-79.5590601074764
 30
0.0
 11
143.366940432151
 21
-79.5581055630297
 31
0.0
  0
LINE
  5
   511
  8
0
  6
CONTINUOUS
 62
   130
 10
142.968650983102
 20
-79.7582301997352
 30
0.0
 11
142.976661846541
 21
-79.7569608951125
 31
0.0
  0
LINE
  5
   512
  8
0
  6
CONTINUOUS
 62
   130
 10
137.644043678046
 20
-32.9179862699657
 30
0.0
 11
137.669721165657
 21
-33.0647719910512
 31
0.0
  0
LINE
  5
   513
  8
0
  6
CONTINUOUS
 62
   130
 10
137.644043678046
 20
-40.2531013346771
 30
0.0
 11
137.659563390816
 21
-40.1441242187371
 31
0.0
  0
LINE
  5
   514
  8
0
  6
CONTINUOUS
 62
   130
 10
137.537477832001
 20
-31.4424279490575
 30
0.0
 11
137.555197861929
 21
-31.5376610936235
 31
0.0
  0
LINE
  5
   515
  8
0
  6
CONTINUOUS
 62
   130
 10
136.779799686764
 20
-30.4012827307342
 30
0.0
 11
136.809493287246
 21
-30.4439218865336
 31
0.0
  0
LINE
  5
   516
  8
0
  6
CONTINUOUS
 62
   130
 10
136.809493287245
 20
-30.4439218865336
 30
0.0
 11
137.192775718785
 21
-30.8255647613559
 31
0.0
  0
LINE
  5
   517
  8
0
  6
CONTINUOUS
 62
   130
 10
137.192775718785
 20
-30.825564761356
 30
0.0
 11
137.233994281468
 21
-30.8572343748192
 31
0.0
  0
LINE
  5
   518
  8
0
  6
CONTINUOUS
 62
   130
 10
136.244043821097
 20
-30.1723055507618
 30
0.0
 11
136.779799686764
 21
-30.4012827307342
 31
0.0
  0
LINE
  5
   519
  8
0
  6
CONTINUOUS
 62
   130
 10
137.385591861193
 20
-31.1994370986421
 30
0.0
 11
137.537477832001
 21
-31.4424279490576
 31
0.0
  0
LINE
  5
   51A
  8
0
  6
CONTINUOUS
 62
   130
 10
137.242977129671
 20
-30.8727060224081
 30
0.0
 11
137.385591861193
 21
-31.199437098642
 31
0.0
  0
LINE
  5
   51B
  8
0
  6
CONTINUOUS
 62
   130
 10
137.233994281468
 20
-30.8572343748192
 30
0.0
 11
137.242977129671
 21
-30.8727060224083
 31
0.0
  0
LINE
  5
   51C
  8
0
  6
CONTINUOUS
 62
   130
 10
137.555197861929
 20
-31.5376610936234
 30
0.0
 11
137.644043678046
 21
-31.9732651445726
 31
0.0
  0
LINE
  5
   51D
  8
0
  6
CONTINUOUS
 62
   130
 10
136.779799686764
 20
-43.2819714170346
 30
0.0
 11
137.233994281468
 21
-42.8580658969945
 31
0.0
  0
LINE
  5
   51E
  8
0
  6
CONTINUOUS
 62
   130
 10
136.244043821097
 20
-43.4308266111752
 30
0.0
 11
136.779799686764
 21
-43.2819714170346
 31
0.0
  0
LINE
  5
   51F
  8
0
  6
CONTINUOUS
 62
   130
 10
137.537477832001
 20
-42.2236482372098
 30
0.0
 11
137.644043678046
 21
-41.4753027478794
 31
0.0
  0
LINE
  5
   520
  8
0
  6
CONTINUOUS
 62
   130
 10
137.233994281468
 20
-42.8580658969945
 30
0.0
 11
137.537477832001
 21
-42.2236482372095
 31
0.0
  0
LINE
  5
   521
  8
0
  6
CONTINUOUS
 62
   130
 10
137.644043678046
 20
-33.6419760641529
 30
0.0
 11
137.644043678046
 21
-31.9732651445729
 31
0.0
  0
LINE
  5
   522
  8
0
  6
CONTINUOUS
 62
   130
 10
137.644043678046
 20
-41.4753027478791
 30
0.0
 11
137.644043678046
 21
-40.704294525879
 31
0.0
  0
LINE
  5
   523
  8
0
  6
CONTINUOUS
 62
   130
 10
137.644043678046
 20
-40.704294525879
 30
0.0
 11
137.644043678046
 21
-38.5089948386944
 31
0.0
  0
LINE
  5
   524
  8
0
  6
CONTINUOUS
 62
   130
 10
137.644043678046
 20
-36.0754867865676
 30
0.0
 11
137.644043678046
 21
-33.6419760641529
 31
0.0
  0
LINE
  5
   525
  8
0
  6
CONTINUOUS
 62
   130
 10
137.644043678046
 20
-38.5089948386944
 30
0.0
 11
137.644043678046
 21
-36.0754867865676
 31
0.0
  0
LINE
  5
   526
  8
0
  6
CONTINUOUS
 62
   130
 10
132.219044232369
 20
-30.1723055507619
 30
0.0
 11
136.244043821097
 21
-30.1723055507619
 31
0.0
  0
LINE
  5
   527
  8
0
  6
CONTINUOUS
 62
   130
 10
132.219044232369
 20
-43.4308266111752
 30
0.0
 11
136.244043821097
 21
-43.4308266111752
 31
0.0
  0
LINE
  5
   528
  8
0
  6
CONTINUOUS
 62
   130
 10
132.219044232369
 20
-43.4308266111752
 30
0.0
 11
132.219044232369
 21
-41.5271944509509
 31
0.0
  0
LINE
  5
   529
  8
0
  6
CONTINUOUS
 62
   130
 10
132.219044232369
 20
-33.2093520544031
 30
0.0
 11
132.219044232369
 21
-30.6237764518964
 31
0.0
  0
LINE
  5
   52A
  8
0
  6
CONTINUOUS
 62
   130
 10
132.219044232369
 20
-41.5271944509509
 30
0.0
 11
132.219044232369
 21
-38.9416188484442
 31
0.0
  0
LINE
  5
   52B
  8
0
  6
CONTINUOUS
 62
   130
 10
132.219044232369
 20
-28.57185252826
 30
0.0
 11
132.219044232369
 21
-28.5343136221836
 31
0.0
  0
LINE
  5
   52C
  8
0
  6
CONTINUOUS
 62
   130
 10
132.219044232369
 20
-27.2544393327944
 30
0.0
 11
132.219044232369
 21
-27.2382253451933
 31
0.0
  0
LINE
  5
   52D
  8
0
  6
CONTINUOUS
 62
   130
 10
132.219044232369
 20
-27.2908620585649
 30
0.0
 11
132.219044232369
 21
-27.2544393327944
 31
0.0
  0
LINE
  5
   52E
  8
0
  6
CONTINUOUS
 62
   130
 10
132.219044232369
 20
-30.6237764518964
 30
0.0
 11
132.219044232369
 21
-30.1723055507618
 31
0.0
  0
LINE
  5
   52F
  8
0
  6
CONTINUOUS
 62
   130
 10
132.219044232369
 20
-28.6457874572288
 30
0.0
 11
132.219044232369
 21
-28.57185252826
 31
0.0
  0
LINE
  5
   530
  8
0
  6
CONTINUOUS
 62
   130
 10
132.219044232369
 20
-38.9416188484442
 30
0.0
 11
132.219044232369
 21
-36.0754867865676
 31
0.0
  0
LINE
  5
   531
  8
0
  6
CONTINUOUS
 62
   130
 10
132.219044232369
 20
-36.0754867865676
 30
0.0
 11
132.219044232369
 21
-33.2093520544031
 31
0.0
  0
LINE
  5
   532
  8
0
  6
CONTINUOUS
 62
    52
 10
131.869044268132
 20
-45.1754911973107
 30
0.0
 11
132.219044232369
 21
-45.1754911973107
 31
0.0
  0
LINE
  5
   533
  8
0
  6
CONTINUOUS
 62
    52
 10
131.869044268132
 20
-26.9754850461122
 30
0.0
 11
132.219044232369
 21
-26.9754850461122
 31
0.0
  0
LINE
  5
   534
  8
0
  6
CONTINUOUS
 62
    52
 10
127.494044715167
 20
-45.3504911794294
 30
0.0
 11
131.869044268132
 21
-45.3504911794294
 31
0.0
  0
LINE
  5
   535
  8
0
  6
CONTINUOUS
 62
    52
 10
127.494044715167
 20
-26.8004850639936
 30
0.0
 11
131.869044268132
 21
-26.8004850639936
 31
0.0
  0
LINE
  5
   536
  8
0
  6
CONTINUOUS
 62
    52
 10
132.219044232369
 20
-36.0754894568554
 30
0.0
 11
132.219044232369
 21
-34.3001672963378
 31
0.0
  0
LINE
  5
   537
  8
0
  6
CONTINUOUS
 62
    52
 10
132.219044232369
 20
-42.5101621086906
 30
0.0
 11
132.219044232369
 21
-41.1311800871185
 31
0.0
  0
LINE
  5
   538
  8
0
  6
CONTINUOUS
 62
    52
 10
132.219044232369
 20
-27.1503408326889
 30
0.0
 11
132.219044232369
 21
-26.9754850461122
 31
0.0
  0
LINE
  5
   539
  8
0
  6
CONTINUOUS
 62
    52
 10
132.219044232369
 20
-41.1311800871185
 30
0.0
 11
132.219044232369
 21
-39.5579105945539
 31
0.0
  0
LINE
  5
   53A
  8
0
  6
CONTINUOUS
 62
    52
 10
132.219044232369
 20
-27.6681844077057
 30
0.0
 11
132.219044232369
 21
-27.1503408326889
 31
0.0
  0
LINE
  5
   53B
  8
0
  6
CONTINUOUS
 62
    52
 10
132.219044232369
 20
-28.5091114458037
 30
0.0
 11
132.219044232369
 21
-27.6681844077057
 31
0.0
  0
LINE
  5
   53C
  8
0
  6
CONTINUOUS
 62
    52
 10
132.219044232369
 20
-29.6408168050202
 30
0.0
 11
132.219044232369
 21
-28.5091114458037
 31
0.0
  0
LINE
  5
   53D
  8
0
  6
CONTINUOUS
 62
    52
 10
132.219044232369
 20
-43.6418647976193
 30
0.0
 11
132.219044232369
 21
-42.5101621086906
 31
0.0
  0
LINE
  5
   53E
  8
0
  6
CONTINUOUS
 62
    52
 10
132.219044232369
 20
-37.850811617373
 30
0.0
 11
132.219044232369
 21
-36.0754894568554
 31
0.0
  0
LINE
  5
   53F
  8
0
  6
CONTINUOUS
 62
    52
 10
132.219044232369
 20
-34.3001672963378
 30
0.0
 11
132.219044232369
 21
-32.5930709894446
 31
0.0
  0
LINE
  5
   540
  8
0
  6
CONTINUOUS
 62
    52
 10
132.219044232369
 20
-32.5930709894446
 30
0.0
 11
132.219044232369
 21
-31.0198014968801
 31
0.0
  0
LINE
  5
   541
  8
0
  6
CONTINUOUS
 62
    52
 10
132.219044232369
 20
-44.4827945060051
 30
0.0
 11
132.219044232369
 21
-43.6418647976193
 31
0.0
  0
LINE
  5
   542
  8
0
  6
CONTINUOUS
 62
    52
 10
132.219044232369
 20
-39.5579105945539
 30
0.0
 11
132.219044232369
 21
-37.850811617373
 31
0.0
  0
LINE
  5
   543
  8
0
  6
CONTINUOUS
 62
    52
 10
132.219044232369
 20
-45.0006380810219
 30
0.0
 11
132.219044232369
 21
-44.4827945060051
 31
0.0
  0
LINE
  5
   544
  8
0
  6
CONTINUOUS
 62
    52
 10
132.219044232369
 20
-31.0198014968801
 30
0.0
 11
132.219044232369
 21
-29.6408168050202
 31
0.0
  0
LINE
  5
   545
  8
0
  6
CONTINUOUS
 62
    52
 10
132.219044232369
 20
-45.1754911973107
 30
0.0
 11
132.219044232369
 21
-45.0006380810219
 31
0.0
  0
LINE
  5
   546
  8
0
  6
CONTINUOUS
 62
    52
 10
131.869044268132
 20
-43.7873714508423
 30
0.0
 11
131.869044268132
 21
-42.6339059162369
 31
0.0
  0
LINE
  5
   547
  8
0
  6
CONTINUOUS
 62
    52
 10
131.869044268132
 20
-42.6339059162369
 30
0.0
 11
131.869044268132
 21
-41.2284052663931
 31
0.0
  0
LINE
  5
   548
  8
0
  6
CONTINUOUS
 62
    52
 10
131.869044268132
 20
-44.644475092512
 30
0.0
 11
131.869044268132
 21
-43.7873714508423
 31
0.0
  0
LINE
  5
   549
  8
0
  6
CONTINUOUS
 62
    52
 10
131.869044268132
 20
-45.1722761707838
 30
0.0
 11
131.869044268132
 21
-44.644475092512
 31
0.0
  0
LINE
  5
   54A
  8
0
  6
CONTINUOUS
 62
    52
 10
131.869044268132
 20
-26.9787054132148
 30
0.0
 11
131.869044268132
 21
-26.8004850639936
 31
0.0
  0
LINE
  5
   54B
  8
0
  6
CONTINUOUS
 62
    52
 10
131.869044268132
 20
-41.2284052663931
 30
0.0
 11
131.869044268132
 21
-39.6248787426184
 31
0.0
  0
LINE
  5
   54C
  8
0
  6
CONTINUOUS
 62
    52
 10
131.869044268132
 20
-27.5065038211987
 30
0.0
 11
131.869044268132
 21
-26.9787054132148
 31
0.0
  0
LINE
  5
   54D
  8
0
  6
CONTINUOUS
 62
    52
 10
131.869044268132
 20
-30.9225763176055
 30
0.0
 11
131.869044268132
 21
-29.517070327186
 31
0.0
  0
LINE
  5
   54E
  8
0
  6
CONTINUOUS
 62
    52
 10
131.869044268132
 20
-29.517070327186
 30
0.0
 11
131.869044268132
 21
-28.3636074628685
 31
0.0
  0
LINE
  5
   54F
  8
0
  6
CONTINUOUS
 62
    52
 10
131.869044268132
 20
-39.6248787426184
 30
0.0
 11
131.869044268132
 21
-37.8849539173511
 31
0.0
  0
LINE
  5
   550
  8
0
  6
CONTINUOUS
 62
    52
 10
131.869044268132
 20
-45.3504911794293
 30
0.0
 11
131.869044268132
 21
-45.1722761707838
 31
0.0
  0
LINE
  5
   551
  8
0
  6
CONTINUOUS
 62
    52
 10
131.869044268132
 20
-36.0754894568554
 30
0.0
 11
131.869044268132
 21
-34.2660276666475
 31
0.0
  0
LINE
  5
   552
  8
0
  6
CONTINUOUS
 62
    52
 10
131.869044268132
 20
-37.8849539173511
 30
0.0
 11
131.869044268132
 21
-36.0754894568554
 31
0.0
  0
LINE
  5
   553
  8
0
  6
CONTINUOUS
 62
    52
 10
131.869044268132
 20
-32.5261001710924
 30
0.0
 11
131.869044268132
 21
-30.9225763176055
 31
0.0
  0
LINE
  5
   554
  8
0
  6
CONTINUOUS
 62
    52
 10
131.869044268132
 20
-28.3636074628685
 30
0.0
 11
131.869044268132
 21
-27.5065038211987
 31
0.0
  0
LINE
  5
   555
  8
0
  6
CONTINUOUS
 62
    52
 10
131.869044268132
 20
-34.2660276666475
 30
0.0
 11
131.869044268132
 21
-32.5261001710924
 31
0.0
  0
LINE
  5
   556
  8
0
  6
CONTINUOUS
 62
    52
 10
127.494044715167
 20
-26.9787054132148
 30
0.0
 11
127.494044715167
 21
-26.8004850639936
 31
0.0
  0
LINE
  5
   557
  8
0
  6
CONTINUOUS
 62
    52
 10
127.494044715167
 20
-28.3636074628685
 30
0.0
 11
127.494044715167
 21
-27.5065038211987
 31
0.0
  0
LINE
  5
   558
  8
0
  6
CONTINUOUS
 62
    52
 10
127.494044715167
 20
-29.517070327186
 30
0.0
 11
127.494044715167
 21
-28.3636074628685
 31
0.0
  0
LINE
  5
   559
  8
0
  6
CONTINUOUS
 62
    52
 10
127.494044715167
 20
-41.2284052663931
 30
0.0
 11
127.494044715167
 21
-39.5754837586519
 31
0.0
  0
LINE
  5
   55A
  8
0
  6
CONTINUOUS
 62
    52
 10
127.494044715167
 20
-32.5754844739076
 30
0.0
 11
127.494044715167
 21
-30.9225763176055
 31
0.0
  0
LINE
  5
   55B
  8
0
  6
CONTINUOUS
 62
    52
 10
127.494044715167
 20
-30.9225763176055
 30
0.0
 11
127.494044715167
 21
-29.517070327186
 31
0.0
  0
LINE
  5
   55C
  8
0
  6
CONTINUOUS
 62
    52
 10
127.494044715167
 20
-27.5065038211987
 30
0.0
 11
127.494044715167
 21
-26.9787054132148
 31
0.0
  0
LINE
  5
   55D
  8
0
  6
CONTINUOUS
 62
    52
 10
127.494044715167
 20
-42.6339059162369
 30
0.0
 11
127.494044715167
 21
-41.2284052663931
 31
0.0
  0
LINE
  5
   55E
  8
0
  6
CONTINUOUS
 62
    52
 10
127.494044715167
 20
-43.7873714508423
 30
0.0
 11
127.494044715167
 21
-42.6339059162369
 31
0.0
  0
LINE
  5
   55F
  8
0
  6
CONTINUOUS
 62
    52
 10
127.494044715167
 20
-45.3504911794294
 30
0.0
 11
127.494044715167
 21
-45.1722761707838
 31
0.0
  0
LINE
  5
   560
  8
0
  6
CONTINUOUS
 62
    52
 10
127.494044715167
 20
-45.1722761707838
 30
0.0
 11
127.494044715167
 21
-44.644475092512
 31
0.0
  0
LINE
  5
   561
  8
0
  6
CONTINUOUS
 62
    52
 10
127.494044715167
 20
-44.644475092512
 30
0.0
 11
127.494044715167
 21
-43.7873714508423
 31
0.0
  0
ARC
  5
   562
  8
0
  6
DASHED
 62
     7
 10
142.544012914754
 20
-78.4254473182709
 30
0.0
 40
1.40004053637416
 50
270.169446925366
 51
360.0
  0
ARC
  5
   563
  8
0
  6
DASHED
 62
     7
 10
142.557784927201
 20
-28.1865395964134
 30
0.0
 40
1.38612265060848
 50
0.0
 51
90.5680284977809
  0
LINE
  5
   564
  8
0
  6
DASHED
 62
     7
 10
132.219044232369
 20
-26.9754850461122
 30
0.0
 11
132.219044232369
 21
-26.8004850639936
 31
0.0
  0
INSERT
  5
   565
  8
0
  6
CONTINUOUS
 62
   218
  2
*UDIM277
 10
0.0
 20
0.0
 30
0.0
  0
INSERT
  5
   566
  8
0
  6
CONTINUOUS
 62
   218
  2
*UDIM278
 10
0.0
 20
0.0
 30
0.0
  0
INSERT
  5
   567
  8
0
  6
CONTINUOUS
 62
     7
  2
*UDIM279
 10
0.0
 20
0.0
 30
0.0
  0
INSERT
  5
   568
  8
0
  6
CONTINUOUS
 62
   218
  2
*UDIM280
 10
0.0
 20
0.0
 30
0.0
  0
INSERT
  5
   569
  8
0
  6
CONTINUOUS
 62
   218
  2
*UDIM281
 10
0.0
 20
0.0
 30
0.0
  0
INSERT
  5
   56A
  8
0
  6
CONTINUOUS
 62
     7
  2
*UDIM282
 10
0.0
 20
0.0
 30
0.0
  0
INSERT
  5
   56B
  8
0
  6
CONTINUOUS
 62
     7
  2
*UDIM283
 10
0.0
 20
0.0
 30
0.0
  0
INSERT
  5
   56C
  8
0
  6
CONTINUOUS
 62
     7
  2
*UDIM284
 10
0.0
 20
0.0
 30
0.0
  0
TEXT
  5
   56D
  8
0
  6
CONTINUOUS
 62
     7
 10
154.258585831315
 20
-47.2591700067897
 30
0.0
 40
3.00000001532688
  1
X
 41
0.916666616797451
 72
     1
 11
155.358585778522
 21
-45.7591699991263
 31
0.0
 73
     2
  0
INSERT
  5
   56E
  8
0
  6
CONTINUOUS
 62
     7
  2
*UDIM285
 10
0.0
 20
0.0
 30
0.0
  0
LINE
  5
   56F
  8
0
  6
DASHDOT
 62
     7
 10
256.395234630387
 20
-61.2375003099442
 30
0.0
 11
212.28176023043
 21
-61.2375003099442
 31
0.0
  0
LINE
  5
   570
  8
0
  6
DASHDOT
 62
     7
 10
259.387666884303
 20
-122.837496638298
 30
0.0
 11
212.733479162822
 21
-122.837496638298
 31
0.0
  0
LINE
  5
   571
  8
0
  6
DASHDOT
 62
     7
 10
233.454208791256
 20
-56.0226608899689
 30
0.0
 11
233.454208791256
 21
-96.9528281926666
 31
0.0
  0
LINE
  5
   572
  8
0
  6
DASHDOT
 62
     7
 10
247.454207956791
 20
-56.1996176358709
 30
0.0
 11
247.454207956791
 21
-95.776067426762
 31
0.0
  0
LINE
  5
   573
  8
0
  6
CONTINUOUS
 62
     1
 10
265.454206883907
 20
-57.2375005483627
 30
0.0
 11
265.454206883907
 21
-105.747506488433
 31
0.0
  0
LINE
  5
   574
  8
0
  6
CONTINUOUS
 62
     1
 10
266.762420100999
 20
-57.2375005483627
 30
0.0
 11
209.428434428748
 21
-57.2375005483627
 31
0.0
  0
LINE
  5
   575
  8
0
  6
CONTINUOUS
 62
     1
 10
215.45420986414
 20
-57.2375005483627
 30
0.0
 11
215.45420986414
 21
-126.837496399879
 31
0.0
  0
LINE
  5
   576
  8
0
  6
CONTINUOUS
 62
     1
 10
266.231549863293
 20
-126.837496399879
 30
0.0
 11
209.428434428748
 21
-126.837496399879
 31
0.0
  0
LINE
  5
   577
  8
0
  6
DASHDOT
 62
     7
 10
270.666432242099
 20
-90.8874985426664
 30
0.0
 11
212.112365630783
 21
-90.8874985426664
 31
0.0
  0
LINE
  5
   578
  8
0
  6
DASHDOT
 62
     7
 10
240.454208374023
 20
-89.656911444058
 30
0.0
 11
240.454208374023
 21
-130.006235987136
 31
0.0
  0
CIRCLE
  5
   579
  8
0
  6
CONTINUOUS
 62
     7
 10
233.454208791256
 20
-61.2375003099442
 30
0.0
 40
0.549999967217445
  0
CIRCLE
  5
   57A
  8
0
  6
CONTINUOUS
 62
     7
 10
247.454207956791
 20
-61.2375003099442
 30
0.0
 40
0.549999967217445
  0
CIRCLE
  5
   57B
  8
0
  6
CONTINUOUS
 62
     7
 10
233.454208791256
 20
-122.837496638298
 30
0.0
 40
0.549999967217445
  0
CIRCLE
  5
   57C
  8
0
  6
CONTINUOUS
 62
     7
 10
247.454207956791
 20
-122.837496638298
 30
0.0
 40
0.549999967217445
  0
LINE
  5
   57D
  8
0
  6
DASHDOT
 62
     7
 10
210.418826184168
 20
-90.8874985426664
 30
0.0
 11
205.547030868823
 21
-90.8874985426664
 31
0.0
  0
LINE
  5
   57E
  8
0
  6
DASHDOT
 62
     7
 10
226.454209208489
 20
-55.6687473981649
 30
0.0
 11
226.454209208489
 21
-130.006235987136
 31
0.0
  0
LINE
  5
   57F
  8
0
  6
DASHDOT
 62
     7
 10
254.454207539558
 20
-55.6687473981649
 30
0.0
 11
254.454207539558
 21
-130.006235987136
 31
0.0
  0
LINE
  5
   580
  8
0
  6
DASHDOT
 62
     7
 10
266.375102384374
 20
-67.5374999344349
 30
0.0
 11
212.733479162822
 21
-67.5374999344349
 31
0.0
  0
LINE
  5
   581
  8
0
  6
DASHDOT
 62
     7
 10
278.42682453797
 20
-116.537497013807
 30
0.0
 11
212.733479162822
 21
-116.537497013807
 31
0.0
  0
ARC
  5
   582
  8
0
  6
CONTINUOUS
 62
     7
 10
254.454207539558
 20
-67.5374999344349
 30
0.0
 40
7.99999952316284
 50
218.682187349558
 51
269.999999896069
  0
ARC
  5
   583
  8
0
  6
CONTINUOUS
 62
     7
 10
240.454208374023
 20
-67.5374999344349
 30
0.0
 40
7.99999952316284
 50
218.682187349558
 51
321.317812442579
  0
ARC
  5
   584
  8
0
  6
CONTINUOUS
 62
     7
 10
226.454209208489
 20
-67.5374999344349
 30
0.0
 40
7.99999952316284
 50
179.999999896069
 51
269.999999896069
  0
ARC
  5
   585
  8
0
  6
CONTINUOUS
 62
     7
 10
240.454208374023
 20
-67.5374999344349
 30
0.0
 40
7.99999952316284
 50
398.682187349558
 51
449.999999896069
  0
ARC
  5
   586
  8
0
  6
CONTINUOUS
 62
     7
 10
240.454208374023
 20
-67.5374999344349
 30
0.0
 40
7.99999952316284
 50
449.999999896069
 51
501.317812442579
  0
ARC
  5
   587
  8
0
  6
CONTINUOUS
 62
     7
 10
226.454209208489
 20
-67.5374999344349
 30
0.0
 40
7.99999952316284
 50
269.999999896069
 51
321.317812442579
  0
ARC
  5
   588
  8
0
  6
CONTINUOUS
 62
     7
 10
226.454209208489
 20
-67.5374999344349
 30
0.0
 40
7.99999952316284
 50
398.682187349558
 51
539.999999896069
  0
ARC
  5
   589
  8
0
  6
CONTINUOUS
 62
     7
 10
254.454207539558
 20
-67.5374999344349
 30
0.0
 40
7.99999952316284
 50
269.999999896069
 51
449.999999896069
  0
ARC
  5
   58A
  8
0
  6
CONTINUOUS
 62
     7
 10
254.454207539558
 20
-67.5374999344349
 30
0.0
 40
7.99999952316284
 50
449.999999896069
 51
501.317812442579
  0
LINE
  5
   58B
  8
0
  6
CONTINUOUS
 62
     7
 10
248.209209913391
 20
-62.5375002324581
 30
0.0
 11
246.699206000191
 21
-62.5375002324581
 31
0.0
  0
LINE
  5
   58C
  8
0
  6
CONTINUOUS
 62
     7
 10
234.209210747856
 20
-62.5375002324581
 30
0.0
 11
232.699206834656
 21
-62.5375002324581
 31
0.0
  0
LINE
  5
   58D
  8
0
  6
CONTINUOUS
 62
     7
 10
234.209210747856
 20
-72.5374996364117
 30
0.0
 11
232.699206834656
 21
-72.5374996364117
 31
0.0
  0
LINE
  5
   58E
  8
0
  6
CONTINUOUS
 62
     7
 10
248.209209913391
 20
-72.5374996364117
 30
0.0
 11
246.699206000191
 21
-72.5374996364117
 31
0.0
  0
ARC
  5
   58F
  8
0
  6
CONTINUOUS
 62
     7
 10
226.454209208489
 20
-116.537497013807
 30
0.0
 40
7.99999952316284
 50
398.682187349558
 51
539.999999896069
  0
ARC
  5
   590
  8
0
  6
CONTINUOUS
 62
     7
 10
226.454209208489
 20
-116.537497013807
 30
0.0
 40
7.99999952316284
 50
179.999999896069
 51
269.999999896069
  0
ARC
  5
   591
  8
0
  6
CONTINUOUS
 62
     7
 10
226.454209208489
 20
-116.537497013807
 30
0.0
 40
7.99999952316284
 50
269.999999896069
 51
321.317812442579
  0
ARC
  5
   592
  8
0
  6
CONTINUOUS
 62
     7
 10
240.454208374023
 20
-116.537497013807
 30
0.0
 40
7.99999952316284
 50
218.682187349558
 51
321.317812442579
  0
ARC
  5
   593
  8
0
  6
CONTINUOUS
 62
     7
 10
240.454208374023
 20
-116.537497013807
 30
0.0
 40
7.99999952316284
 50
449.999999896069
 51
501.317812442579
  0
ARC
  5
   594
  8
0
  6
CONTINUOUS
 62
     7
 10
240.454208374023
 20
-116.537497013807
 30
0.0
 40
7.99999952316284
 50
398.682187349558
 51
449.999999896069
  0
ARC
  5
   595
  8
0
  6
CONTINUOUS
 62
     7
 10
254.454207539558
 20
-116.537497013807
 30
0.0
 40
7.99999952316284
 50
449.999999896069
 51
501.317812442579
  0
ARC
  5
   596
  8
0
  6
CONTINUOUS
 62
     7
 10
254.454207539558
 20
-116.537497013807
 30
0.0
 40
7.99999952316284
 50
269.999999896069
 51
449.999999896069
  0
ARC
  5
   597
  8
0
  6
CONTINUOUS
 62
     7
 10
254.454207539558
 20
-116.537497013807
 30
0.0
 40
7.99999952316284
 50
218.682187349558
 51
269.999999896069
  0
LINE
  5
   598
  8
0
  6
CONTINUOUS
 62
     7
 10
248.209209913391
 20
-111.537497311831
 30
0.0
 11
246.699206000191
 21
-111.537497311831
 31
0.0
  0
LINE
  5
   599
  8
0
  6
CONTINUOUS
 62
     7
 10
248.209209913391
 20
-121.537496715784
 30
0.0
 11
246.699206000191
 21
-121.537496715784
 31
0.0
  0
LINE
  5
   59A
  8
0
  6
CONTINUOUS
 62
     7
 10
234.209210747856
 20
-111.537497311831
 30
0.0
 11
232.699206834656
 21
-111.537497311831
 31
0.0
  0
LINE
  5
   59B
  8
0
  6
CONTINUOUS
 62
     7
 10
234.209210747856
 20
-121.537496715784
 30
0.0
 11
232.699206834656
 21
-121.537496715784
 31
0.0
  0
LINE
  5
   59C
  8
0
  6
DASHDOT
 62
     7
 10
247.454207956791
 20
-105.42550570718
 30
0.0
 11
247.454207956791
 21
-129.196073178453
 31
0.0
  0
LINE
  5
   59D
  8
0
  6
DASHDOT
 62
     7
 10
233.454208791256
 20
-105.190153553999
 30
0.0
 11
233.454208791256
 21
-130.608186097539
 31
0.0
  0
LINE
  5
   59E
  8
0
  6
DASHDOT
 62
     7
 10
240.454208374023
 20
-50.8909152588107
 30
0.0
 11
240.454208374023
 21
-79.7721210104592
 31
0.0
  0
LINE
  5
   59F
  8
0
  6
CONTINUOUS
 62
     1
 10
265.454206883907
 20
-114.949257275337
 30
0.0
 11
265.454206883907
 21
-126.837496399879
 31
0.0
  0
CIRCLE
  5
   5A0
  8
0
  6
CONTINUOUS
 62
     7
 10
218.454209685326
 20
-59.5375004112721
 30
0.0
 40
0.359999978542328
  0
CIRCLE
  5
   5A1
  8
0
  6
CONTINUOUS
 62
     7
 10
262.454207062721
 20
-59.5375004112721
 30
0.0
 40
0.359999978542328
  0
CIRCLE
  5
   5A2
  8
0
  6
CONTINUOUS
 62
     7
 10
262.454207062721
 20
-75.5374994575977
 30
0.0
 40
0.359999978542328
  0
CIRCLE
  5
   5A3
  8
0
  6
CONTINUOUS
 62
     7
 10
218.454209685326
 20
-75.5374994575977
 30
0.0
 40
0.359999978542328
  0
CIRCLE
  5
   5A4
  8
0
  6
CONTINUOUS
 62
     7
 10
218.454209685326
 20
-108.537497490644
 30
0.0
 40
0.359999978542328
  0
CIRCLE
  5
   5A5
  8
0
  6
CONTINUOUS
 62
     7
 10
262.454207062721
 20
-108.537497490644
 30
0.0
 40
0.359999978542328
  0
CIRCLE
  5
   5A6
  8
0
  6
CONTINUOUS
 62
     7
 10
218.454209685326
 20
-124.53749653697
 30
0.0
 40
0.359999978542328
  0
CIRCLE
  5
   5A7
  8
0
  6
CONTINUOUS
 62
     7
 10
262.454207062721
 20
-124.53749653697
 30
0.0
 40
0.359999978542328
  0
LINE
  5
   5A8
  8
0
  6
DASHDOT
 62
     7
 10
218.454209685326
 20
-57.177500551939
 30
0.0
 11
218.454209685326
 21
-61.8975002706051
 31
0.0
  0
LINE
  5
   5A9
  8
0
  6
DASHDOT
 62
     7
 10
220.814209544659
 20
-59.5375004112721
 30
0.0
 11
216.094209825993
 21
-59.5375004112721
 31
0.0
  0
LINE
  5
   5AA
  8
0
  6
DASHDOT
 62
     7
 10
218.454209685326
 20
-73.1774995982647
 30
0.0
 11
218.454209685326
 21
-77.8974993169308
 31
0.0
  0
LINE
  5
   5AB
  8
0
  6
DASHDOT
 62
     7
 10
220.814209544659
 20
-75.5374994575977
 30
0.0
 11
216.094209825993
 21
-75.5374994575977
 31
0.0
  0
LINE
  5
   5AC
  8
0
  6
DASHDOT
 62
     7
 10
262.454207062721
 20
-73.1774995982647
 30
0.0
 11
262.454207062721
 21
-77.8974993169308
 31
0.0
  0
LINE
  5
   5AD
  8
0
  6
DASHDOT
 62
     7
 10
264.814206922054
 20
-75.5374994575977
 30
0.0
 11
260.094207203388
 21
-75.5374994575977
 31
0.0
  0
LINE
  5
   5AE
  8
0
  6
DASHDOT
 62
     7
 10
262.454207062721
 20
-57.177500551939
 30
0.0
 11
262.454207062721
 21
-61.8975002706051
 31
0.0
  0
LINE
  5
   5AF
  8
0
  6
DASHDOT
 62
     7
 10
264.814206922054
 20
-59.5375004112721
 30
0.0
 11
260.094207203388
 21
-59.5375004112721
 31
0.0
  0
LINE
  5
   5B0
  8
0
  6
DASHDOT
 62
     7
 10
262.454207062721
 20
-106.177497631311
 30
0.0
 11
262.454207062721
 21
-110.897497349978
 31
0.0
  0
LINE
  5
   5B1
  8
0
  6
DASHDOT
 62
     7
 10
264.814206922054
 20
-108.537497490644
 30
0.0
 11
260.094207203388
 21
-108.537497490644
 31
0.0
  0
LINE
  5
   5B2
  8
0
  6
DASHDOT
 62
     7
 10
218.454209685326
 20
-106.177497631311
 30
0.0
 11
218.454209685326
 21
-110.897497349978
 31
0.0
  0
LINE
  5
   5B3
  8
0
  6
DASHDOT
 62
     7
 10
220.814209544659
 20
-108.537497490644
 30
0.0
 11
216.094209825993
 21
-108.537497490644
 31
0.0
  0
LINE
  5
   5B4
  8
0
  6
DASHDOT
 62
     7
 10
218.454209685326
 20
-122.177496677637
 30
0.0
 11
218.454209685326
 21
-126.897496396303
 31
0.0
  0
LINE
  5
   5B5
  8
0
  6
DASHDOT
 62
     7
 10
220.814209544659
 20
-124.53749653697
 30
0.0
 11
216.094209825993
 21
-124.53749653697
 31
0.0
  0
LINE
  5
   5B6
  8
0
  6
DASHDOT
 62
     7
 10
262.454207062721
 20
-122.177496677637
 30
0.0
 11
262.454207062721
 21
-126.897496396303
 31
0.0
  0
LINE
  5
   5B7
  8
0
  6
DASHDOT
 62
     7
 10
264.814206922054
 20
-124.53749653697
 30
0.0
 11
260.094207203388
 21
-124.53749653697
 31
0.0
  0
INSERT
  5
   5B8
  8
0
  6
CONTINUOUS
 62
     7
  2
*UDIM286
 10
0.0
 20
0.0
 30
0.0
  0
INSERT
  5
   5B9
  8
0
  6
CONTINUOUS
 62
     7
  2
*UDIM287
 10
0.0
 20
0.0
 30
0.0
  0
INSERT
  5
   5BA
  8
0
  6
CONTINUOUS
 62
     7
  2
*UDIM288
 10
0.0
 20
0.0
 30
0.0
  0
TEXT
  5
   5BB
  8
0
  6
CONTINUOUS
 62
     7
 10
242.559999935251
 20
-53.0987435880526
 30
0.0
 40
3.00000005960463
  1
Y
 50
359.999999896069
 41
0.916666707727641
 72
     1
 11
243.66000001545
 21
-51.5987435602401
 31
0.0
 73
     2
  0
INSERT
  5
   5BC
  8
0
  6
CONTINUOUS
 62
     7
  2
*UDIM289
 10
0.0
 20
0.0
 30
0.0
  0
INSERT
  5
   5BD
  8
0
  6
CONTINUOUS
 62
     7
  2
*UDIM290
 10
0.0
 20
0.0
 30
0.0
  0
INSERT
  5
   5BE
  8
0
  6
CONTINUOUS
 62
     7
  2
*UDIM291
 10
0.0
 20
0.0
 30
0.0
  0
INSERT
  5
   5BF
  8
0
  6
CONTINUOUS
 62
     7
  2
*UDIM292
 10
0.0
 20
0.0
 30
0.0
  0
INSERT
  5
   5C0
  8
0
  6
CONTINUOUS
 62
     7
  2
*UDIM293
 10
0.0
 20
0.0
 30
0.0
  0
INSERT
  5
   5C1
  8
0
  6
CONTINUOUS
 62
     7
  2
*UDIM294
 10
0.0
 20
0.0
 30
0.0
  0
INSERT
  5
   5C2
  8
0
  6
CONTINUOUS
 62
     7
  2
*UDIM295
 10
0.0
 20
0.0
 30
0.0
  0
INSERT
  5
   5C3
  8
0
  6
CONTINUOUS
 62
     7
  2
*UDIM296
 10
0.0
 20
0.0
 30
0.0
  0
TEXT
  5
   5C4
  8
0
  6
CONTINUOUS
 62
     7
 10
242.006505775582
 20
-88.8271080480222
 30
0.0
 40
3.00000005960463
  1
=
 50
359.999999896069
 41
0.916666581564485
 72
     2
 11
244.206505596768
 21
-88.8271080520019
 31
0.0
  0
TEXT
  5
   5C5
  8
0
  6
CONTINUOUS
 62
     7
 10
237.012034716999
 20
-88.5805015351586
 30
0.0
 40
3.00000005960463
  1
=
 50
359.999999896069
 41
0.916666581564485
 72
     2
 11
239.212034538185
 21
-88.5805015391382
 31
0.0
  0
TEXT
  5
   5C6
  8
0
  6
CONTINUOUS
 62
     7
 10
238.967540254661
 20
-133.936605099887
 30
0.0
 40
3.00000005960463
  1
Y
 50
359.999999896069
 41
0.916666581564485
 72
     2
 11
241.167540075847
 21
-133.936605103867
 31
0.0
  0
TEXT
  5
   5C7
  8
0
  6
CONTINUOUS
 62
     7
 10
271.706577724344
 20
-92.3730777997397
 30
0.0
 40
3.00000005960463
  1
X
 50
359.999999896069
 41
0.916666581564485
 72
     2
 11
273.90657754553
 21
-92.3730778037193
 31
0.0
  0
TEXT
  5
   5C8
  8
0
  6
CONTINUOUS
 62
     7
 10
173.592292190575
 20
-93.2572967259179
 30
0.0
 40
3.00000005960463
  1
X
 50
359.999999896069
 41
0.916666581564485
 72
     2
 11
175.792292011762
 21
-93.2572967298976
 31
0.0
  0
INSERT
  5
   5C9
  8
0
  6
CONTINUOUS
 62
     7
  2
*UDIM297
 10
0.0
 20
0.0
 30
0.0
  0
INSERT
  5
   5CA
  8
0
  6
CONTINUOUS
 62
     7
  2
*UDIM298
 10
0.0
 20
0.0
 30
0.0
  0
INSERT
  5
   5CB
  8
0
  6
CONTINUOUS
 62
     7
  2
*UDIM299
 10
0.0
 20
0.0
 30
0.0
  0
LINE
  5
   5CC
  8
0
  6
CONTINUOUS
 62
   212
 10
-35.1736297203206
 20
-125.102698679002
 30
0.0
 11
-35.1736297203206
 21
-128.341704797227
 31
0.0
  0
LINE
  5
   5CD
  8
0
  6
CONTINUOUS
 62
   212
 10
13.8263880788682
 20
-128.342719105988
 30
0.0
 11
13.8263844878337
 21
-125.106766621621
 31
0.0
  0
LINE
  5
   5CE
  8
0
  6
CONTINUOUS
 62
   212
 10
13.4178527191265
 20
-128.779260379076
 30
0.0
 11
-34.0361324285759
 21
-128.779260379076
 31
0.0
  0
LINE
  5
   5CF
  8
0
  6
CONTINUOUS
 62
   212
 10
-23.0986219336883
 20
-129.129257702828
 30
0.0
 11
-25.1837003283554
 21
-129.129257702828
 31
0.0
  0
LINE
  5
   5D0
  8
0
  6
CONTINUOUS
 62
   212
 10
-35.136807341973
 20
-128.430606996871
 30
0.0
 11
-35.1737147281242
 21
-128.430612337447
 31
0.0
  0
LINE
  5
   5D1
  8
0
  6
CONTINUOUS
 62
   212
 10
-15.9236318100399
 20
-129.127850637766
 30
0.0
 11
-16.3729718597607
 21
-129.127918730113
 31
0.0
  0
LINE
  5
   5D2
  8
0
  6
CONTINUOUS
 62
   212
 10
-16.3729718707427
 20
-129.127918729985
 30
0.0
 11
-17.6862248696184
 21
-129.128117666435
 31
0.0
  0
LINE
  5
   5D3
  8
0
  6
CONTINUOUS
 62
   212
 10
-17.6862275657217
 20
-129.128119002454
 30
0.0
 11
-19.7348485177724
 21
-129.128430091014
 31
0.0
  0
LINE
  5
   5D4
  8
0
  6
CONTINUOUS
 62
   212
 10
-19.7348485642646
 20
-129.128430091175
 30
0.0
 11
-25.1836994846549
 21
-129.129257880456
 31
0.0
  0
LINE
  5
   5D5
  8
0
  6
CONTINUOUS
 62
   212
 10
-23.798621581279
 20
-129.129257783498
 30
0.0
 11
-28.0505586121404
 21
-129.129693040442
 31
0.0
  0
LINE
  5
   5D6
  8
0
  6
CONTINUOUS
 62
   212
 10
-28.0505605869502
 20
-129.129444177562
 30
0.0
 11
-30.6382512904
 21
-129.130085046676
 31
0.0
  0
LINE
  5
   5D7
  8
0
  6
CONTINUOUS
 62
   212
 10
-30.6382515579186
 20
-129.129962084372
 30
0.0
 11
-32.6934761766854
 21
-129.130396006182
 31
0.0
  0
LINE
  5
   5D8
  8
0
  6
CONTINUOUS
 62
   212
 10
-32.693473283119
 20
-129.130334133834
 30
0.0
 11
-34.0150468995287
 21
-129.130597157199
 31
0.0
  0
LINE
  5
   5D9
  8
0
  6
CONTINUOUS
 62
   212
 10
-34.0150469865193
 20
-129.13057578294
 30
0.0
 11
-35.1736094323001
 21
-129.130801791247
 31
0.0
  0
LINE
  5
   5DA
  8
0
  6
CONTINUOUS
 62
   212
 10
-32.6934736709527
 20
-129.1303940888
 30
0.0
 11
-32.7110147930905
 21
-129.130396759088
 31
0.0
  0
LINE
  5
   5DB
  8
0
  6
CONTINUOUS
 62
   212
 10
-30.6382489374593
 20
-129.130081698547
 30
0.0
 11
-30.6623936819212
 21
-129.130085703979
 31
0.0
  0
LINE
  5
   5DC
  8
0
  6
CONTINUOUS
 62
   212
 10
-23.798621581279
 20
-129.129257783498
 30
0.0
 11
-28.0505586121404
 21
-129.129693040442
 31
0.0
  0
LINE
  5
   5DD
  8
0
  6
CONTINUOUS
 62
   212
 10
-23.4486219277278
 20
-129.129257702828
 30
0.0
 11
-25.1837003283554
 21
-129.129257702828
 31
0.0
  0
LINE
  5
   5DE
  8
0
  6
CONTINUOUS
 62
   212
 10
-19.734847591776
 20
-129.128430295872
 30
0.0
 11
-23.4486201115387
 21
-129.129258085155
 31
0.0
  0
LINE
  5
   5DF
  8
0
  6
CONTINUOUS
 62
   212
 10
-19.7348473126381
 20
-129.128430354619
 30
0.0
 11
-23.1924030246303
 21
-129.129258143935
 31
0.0
  0
LINE
  5
   5E0
  8
0
  6
CONTINUOUS
 62
   212
 10
-19.7348471941756
 20
-129.12843037955
 30
0.0
 11
-23.0986197198987
 21
-129.129258168861
 31
0.0
  0
LINE
  5
   5E1
  8
0
  6
CONTINUOUS
 62
   212
 10
-23.0986219336883
 20
-129.129257702828
 30
0.0
 11
-23.7986219217673
 21
-129.129257702828
 31
0.0
  0
LINE
  5
   5E2
  8
0
  6
CONTINUOUS
 62
   212
 10
-19.7348473652347
 20
-129.12843034355
 30
0.0
 11
-23.3100586385777
 21
-129.129275489714
 31
0.0
  0
LINE
  5
   5E3
  8
0
  6
CONTINUOUS
 62
   212
 10
-11.3736548173473
 20
-127.204261741042
 30
0.0
 11
-11.8986548084066
 21
-127.204261741042
 31
0.0
  0
LINE
  5
   5E4
  8
0
  6
CONTINUOUS
 62
   212
 10
-9.44865485012985
 20
-127.204261741042
 30
0.0
 11
-9.97365484118915
 21
-127.204261741042
 31
0.0
  0
LINE
  5
   5E5
  8
0
  6
CONTINUOUS
 62
   212
 10
-9.97365484118915
 20
-127.204261741042
 30
0.0
 11
-11.3736548173473
 21
-127.204261741042
 31
0.0
  0
LINE
  5
   5E6
  8
0
  6
CONTINUOUS
 62
   212
 10
-11.3736548173473
 20
-127.204261741042
 30
0.0
 11
-11.3736548173473
 21
-127.904204317928
 31
0.0
  0
LINE
  5
   5E7
  8
0
  6
CONTINUOUS
 62
   212
 10
-9.97365484118915
 20
-127.204261741042
 30
0.0
 11
-9.97365484118915
 21
-127.904204317928
 31
0.0
  0
LINE
  5
   5E8
  8
0
  6
CONTINUOUS
 62
   212
 10
-9.44865485012985
 20
-126.85420433581
 30
0.0
 11
-11.8986548084066
 21
-126.85420433581
 31
0.0
  0
LINE
  5
   5E9
  8
0
  6
CONTINUOUS
 62
   212
 10
-9.44865485012985
 20
-126.85420433581
 30
0.0
 11
-9.44865485012985
 21
-127.904204317928
 31
0.0
  0
LINE
  5
   5EA
  8
0
  6
CONTINUOUS
 62
   212
 10
-9.44865485012985
 20
-127.904204317928
 30
0.0
 11
-11.8986548084066
 21
-127.904204317928
 31
0.0
  0
LINE
  5
   5EB
  8
0
  6
CONTINUOUS
 62
   212
 10
-11.8986548084066
 20
-126.85420433581
 30
0.0
 11
-11.8986548084066
 21
-127.904204317928
 31
0.0
  0
LINE
  5
   5EC
  8
0
  6
CONTINUOUS
 62
   212
 10
11.4669909937685
 20
-125.105217980193
 30
0.0
 11
11.4669909937685
 21
-125.805215297984
 31
0.0
  0
LINE
  5
   5ED
  8
0
  6
CONTINUOUS
 62
   212
 10
10.5013881354568
 20
-125.105216645049
 30
0.0
 11
10.5013881354568
 21
-125.805216633128
 31
0.0
  0
LINE
  5
   5EE
  8
0
  6
CONTINUOUS
 62
   212
 10
12.0763453840591
 20
-125.105217980196
 30
0.0
 11
8.57633476251159
 21
-125.105215309908
 31
0.0
  0
LINE
  5
   5EF
  8
0
  6
CONTINUOUS
 62
   212
 10
8.5763454498377
 20
-125.805219306388
 30
0.0
 11
8.57633476868554
 21
-125.105215312854
 31
0.0
  0
LINE
  5
   5F0
  8
0
  6
CONTINUOUS
 62
   212
 10
12.0763453841583
 20
-125.805213962854
 30
0.0
 11
8.57634544376297
 21
-125.80521930343
 31
0.0
  0
LINE
  5
   5F1
  8
0
  6
CONTINUOUS
 62
   212
 10
12.076345384026
 20
-125.105217980193
 30
0.0
 11
12.076345384026
 21
-125.80521396284
 31
0.0
  0
LINE
  5
   5F2
  8
0
  6
CONTINUOUS
 62
   212
 10
9.82882803218915
 20
-125.805163227923
 30
0.0
 11
8.57634544853833
 21
-125.805175244219
 31
0.0
  0
LINE
  5
   5F3
  8
0
  6
CONTINUOUS
 62
   253
 10
-15.9236888130788
 20
-143.822346747039
 30
0.0
 11
-34.4736884971742
 21
-143.822346747039
 31
0.0
  0
LINE
  5
   5F4
  8
0
  6
CONTINUOUS
 62
   253
 10
-36.5736283799295
 20
-138.747346833468
 30
0.0
 11
-36.5736297150735
 21
-143.034846760453
 31
0.0
  0
LINE
  5
   5F5
  8
0
  6
CONTINUOUS
 62
   253
 10
0.176372329364767
 20
-138.747346833466
 30
0.0
 11
0.176372329364767
 21
-143.03484676045
 31
0.0
  0
LINE
  5
   5F6
  8
0
  6
CONTINUOUS
 62
   253
 10
-0.261127663184652
 20
-143.472346753
 30
0.0
 11
-36.1361297225251
 21
-143.472346753
 31
0.0
  0
LINE
  5
   5F7
  8
0
  6
CONTINUOUS
 62
   253
 10
0.176370994220747
 20
-138.747346833466
 30
0.0
 11
-36.5736283799305
 21
-138.747346833466
 31
0.0
  0
LINE
  5
   5F8
  8
0
  6
CONTINUOUS
 62
   253
 10
-36.4454893929116
 20
-143.344204737252
 30
0.0
 11
-36.5736298384813
 21
-143.034846528719
 31
0.0
  0
LINE
  5
   5F9
  8
0
  6
CONTINUOUS
 62
   253
 10
-36.1361270468651
 20
-143.47234905697
 30
0.0
 11
-36.4454865956481
 21
-143.344207270188
 31
0.0
  0
LINE
  5
   5FA
  8
0
  6
CONTINUOUS
 62
   253
 10
4.82344222540121E-2
 20
-143.344205549294
 30
0.0
 11
-0.261123789801267
 21
-143.472347334077
 31
0.0
  0
LINE
  5
   5FB
  8
0
  6
CONTINUOUS
 62
   253
 10
0.176374572165152
 20
-143.034848177421
 30
0.0
 11
4.82327873822044E-2
 21
-143.344206389477
 31
0.0
  0
LINE
  5
   5FC
  8
0
  6
CONTINUOUS
 62
   253
 10
-18.8986273457899
 20
-141.897346779822
 30
0.0
 11
-19.4236273368492
 21
-141.897346779822
 31
0.0
  0
LINE
  5
   5FD
  8
0
  6
CONTINUOUS
 62
   253
 10
-16.9736273785725
 20
-141.897346779822
 30
0.0
 11
-17.4986273696318
 21
-141.897346779822
 31
0.0
  0
LINE
  5
   5FE
  8
0
  6
CONTINUOUS
 62
   253
 10
-17.4986273696318
 20
-141.897346779822
 30
0.0
 11
-18.8986273457899
 21
-141.897346779822
 31
0.0
  0
LINE
  5
   5FF
  8
0
  6
CONTINUOUS
 62
   253
 10
-16.9736273785725
 20
-141.547288039445
 30
0.0
 11
-19.4236273368492
 21
-141.547288039445
 31
0.0
  0
LINE
  5
   600
  8
0
  6
CONTINUOUS
 62
   253
 10
-16.9736273785725
 20
-141.547288039445
 30
0.0
 11
-16.9736273785725
 21
-142.597288021564
 31
0.0
  0
LINE
  5
   601
  8
0
  6
CONTINUOUS
 62
   253
 10
-16.9736273785725
 20
-142.597288021564
 30
0.0
 11
-19.4236273368492
 21
-142.597288021564
 31
0.0
  0
LINE
  5
   602
  8
0
  6
CONTINUOUS
 62
   253
 10
-19.4236273368492
 20
-141.547288039445
 30
0.0
 11
-19.4236273368492
 21
-142.597288021564
 31
0.0
  0
LINE
  5
   603
  8
0
  6
CONTINUOUS
 62
   253
 10
-18.8986273457899
 20
-141.897346779822
 30
0.0
 11
-18.8986273457899
 21
-142.597288021564
 31
0.0
  0
LINE
  5
   604
  8
0
  6
CONTINUOUS
 62
   253
 10
-17.4986273696318
 20
-141.897346779822
 30
0.0
 11
-17.4986273696318
 21
-142.597288021564
 31
0.0
  0
LINE
  5
   605
  8
0
  6
CONTINUOUS
 62
   130
 10
-20.1236700495149
 20
-129.30424968899
 30
0.0
 11
-30.273640503493
 21
-129.304240342982
 31
0.0
  0
LINE
  5
   606
  8
0
  6
CONTINUOUS
 62
   130
 10
-15.9236380775839
 20
-129.479244345435
 30
0.0
 11
-34.4736711402798
 21
-129.479225653419
 31
0.0
  0
LINE
  5
   607
  8
0
  6
CONTINUOUS
 62
   130
 10
-15.9236407478531
 20
-130.004244336494
 30
0.0
 11
-34.4736684699729
 21
-130.004225644479
 31
0.0
  0
LINE
  5
   608
  8
0
  6
CONTINUOUS
 62
   130
 10
-22.923656650413
 20
-130.004253682494
 30
0.0
 11
-22.923656650413
 21
-134.204700884216
 31
0.0
  0
LINE
  5
   609
  8
0
  6
CONTINUOUS
 62
   130
 10
-27.473656572927
 20
-130.004249677062
 30
0.0
 11
-27.473656572927
 21
-134.204700884216
 31
0.0
  0
LINE
  5
   60A
  8
0
  6
CONTINUOUS
 62
   130
 10
-27.9986565639863
 20
-130.004232169053
 30
0.0
 11
-27.9986565639863
 21
-134.204700884216
 31
0.0
  0
LINE
  5
   60B
  8
0
  6
CONTINUOUS
 62
   130
 10
-22.3986566593537
 20
-130.004237811917
 30
0.0
 11
-22.3986566593537
 21
-134.204700884216
 31
0.0
  0
LINE
  5
   60C
  8
0
  6
CONTINUOUS
 62
   130
 10
-22.7486566533933
 20
-134.554700878255
 30
0.0
 11
-27.6486565699468
 21
-134.554700878255
 31
0.0
  0
LINE
  5
   60D
  8
0
  6
CONTINUOUS
 62
   130
 10
-20.1166498622786
 20
-130.00425902307
 30
0.0
 11
-20.1166498622786
 21
-130.35424566567
 31
0.0
  0
LINE
  5
   60E
  8
0
  6
CONTINUOUS
 62
   130
 10
-16.6166499218832
 20
-130.35424566567
 30
0.0
 11
-20.1166498622786
 21
-130.35424566567
 31
0.0
  0
LINE
  5
   60F
  8
0
  6
CONTINUOUS
 62
     7
 10
-33.9983518582354
 20
-143.997346744059
 30
0.0
 11
-34.0380016302042
 21
-143.997346744059
 31
0.0
  0
LINE
  5
   610
  8
0
  6
CONTINUOUS
 62
   212
 10
-15.9236322632457
 20
-129.12785081435
 30
0.0
 11
-15.9236856690089
 21
-128.779259397252
 31
0.0
  0
LINE
  5
   611
  8
0
  6
CONTINUOUS
 62
   212
 10
-35.1736094616267
 20
-129.130607164872
 30
0.0
 11
-35.1737149380043
 21
-128.430612517378
 31
0.0
  0
LINE
  5
   612
  8
0
  6
CONTINUOUS
 62
   212
 10
-16.0081820550676
 20
-128.779261718353
 30
0.0
 11
-34.7179574613554
 21
-128.778823880886
 31
0.0
  0
LINE
  5
   613
  8
0
  6
CONTINUOUS
 62
   212
 10
-9.87986631434398
 20
-126.85420433581
 30
0.0
 11
-9.87986631434398
 21
-127.204259070754
 31
0.0
  0
LINE
  5
   614
  8
0
  6
CONTINUOUS
 62
   212
 10
-11.3505514852212
 20
-126.85420433581
 30
0.0
 11
-11.3505514852212
 21
-127.204259070754
 31
0.0
  0
LINE
  5
   615
  8
0
  6
CONTINUOUS
 62
   253
 10
-34.4736884971742
 20
-143.472346753
 30
0.0
 11
-34.4736884971742
 21
-143.822346747039
 31
0.0
  0
LINE
  5
   616
  8
0
  6
CONTINUOUS
 62
   253
 10
-15.9236888130788
 20
-143.472346753
 30
0.0
 11
-15.9236888130788
 21
-143.822346747039
 31
0.0
  0
LINE
  5
   617
  8
0
  6
CONTINUOUS
 62
   130
 10
-29.8361538624058
 20
-129.129963994014
 30
0.0
 11
-29.8361538624058
 21
-129.304241678119
 31
0.0
  0
LINE
  5
   618
  8
0
  6
CONTINUOUS
 62
   130
 10
-20.5611540203581
 20
-129.128555417073
 30
0.0
 11
-20.5611540203581
 21
-129.304251024127
 31
0.0
  0
LINE
  5
   619
  8
0
  6
CONTINUOUS
 62
   130
 10
-30.273640503515
 20
-129.304240342975
 30
0.0
 11
-30.273640503515
 21
-129.479240339995
 31
0.0
  0
LINE
  5
   61A
  8
0
  6
CONTINUOUS
 62
   130
 10
-20.1236673750383
 20
-129.479249689629
 30
0.0
 11
-20.1236700453264
 21
-129.30424969261
 31
0.0
  0
LINE
  5
   61B
  8
0
  6
CONTINUOUS
 62
   130
 10
-34.4736684697316
 20
-130.004225644877
 30
0.0
 11
-34.4736711400197
 21
-129.479225653818
 31
0.0
  0
LINE
  5
   61C
  8
0
  6
CONTINUOUS
 62
   130
 10
-15.9236380770839
 20
-129.479244345834
 30
0.0
 11
-15.923640747372
 21
-130.004244336894
 31
0.0
  0
LINE
  5
   61D
  8
0
  6
CONTINUOUS
 62
   130
 10
-16.6166499218832
 20
-130.00424567163
 30
0.0
 11
-16.6166499218832
 21
-130.35424566567
 31
0.0
  0
CIRCLE
  5
   61E
  8
0
  6
CONTINUOUS
 62
   130
 10
-25.198654581909
 20
-132.279253687877
 30
0.0
 40
0.875001746648938
  0
ARC
  5
   61F
  8
0
  6
CONTINUOUS
 62
     7
 10
-27.6486565699468
 20
-134.204700884216
 30
0.0
 40
0.349999994039536
 50
179.999999896069
 51
269.999999896069
  0
ARC
  5
   620
  8
0
  6
CONTINUOUS
 62
     7
 10
-22.7486566533933
 20
-134.204700884216
 30
0.0
 40
0.349999994039536
 50
269.999999896069
 51
359.999999896069
  0
LINE
  5
   621
  8
0
  6
DASHDOT
 62
     7
 10
-25.198654581909
 20
-130.704251953149
 30
0.0
 11
-25.198654581909
 21
-157.604016364471
 31
0.0
  0
LINE
  5
   622
  8
0
  6
DASHDOT
 62
     7
 10
-23.6236528471809
 20
-132.279253687877
 30
0.0
 11
-26.773656316637
 21
-132.279253687877
 31
0.0
  0
LINE
  5
   623
  8
0
  6
CONTINUOUS
 62
     7
 10
-23.4486546117113
 20
-134.554700878255
 30
0.0
 11
-23.4486546117113
 21
-135.94734688115
 31
0.0
  0
LINE
  5
   624
  8
0
  6
CONTINUOUS
 62
     7
 10
-26.9486545521066
 20
-134.554700878255
 30
0.0
 11
-26.9486545521066
 21
-135.94734688115
 31
0.0
  0
LINE
  5
   625
  8
0
  6
CONTINUOUS
 62
     7
 10
28.7013445001795
 20
-138.047346845387
 30
0.0
 11
-41.3880606131585
 21
-138.047346845387
 31
0.0
  0
LINE
  5
   626
  8
0
  6
CONTINUOUS
 62
   170
 10
-20.4736546623752
 20
-135.94734688115
 30
0.0
 11
-29.9236545014427
 21
-135.94734688115
 31
0.0
  0
LINE
  5
   627
  8
0
  6
CONTINUOUS
 62
   170
 10
-20.4736546623752
 20
-135.94734688115
 30
0.0
 11
-20.4736546623752
 21
-138.047346845387
 31
0.0
  0
LINE
  5
   628
  8
0
  6
CONTINUOUS
 62
   170
 10
-29.9236545014427
 20
-135.94734688115
 30
0.0
 11
-29.9236545014427
 21
-138.047346845387
 31
0.0
  0
LINE
  5
   629
  8
0
  6
CONTINUOUS
 62
   170
 10
-19.9486546713159
 20
-136.472346872209
 30
0.0
 11
-19.9486546713159
 21
-138.047346845387
 31
0.0
  0
LINE
  5
   62A
  8
0
  6
CONTINUOUS
 62
   170
 10
-30.448654492502
 20
-136.472346872209
 30
0.0
 11
-30.448654492502
 21
-138.047346845387
 31
0.0
  0
LINE
  5
   62B
  8
0
  6
CONTINUOUS
 62
   170
 10
-29.9236545014427
 20
-135.94734688115
 30
0.0
 11
-30.448654492502
 21
-136.472346872209
 31
0.0
  0
LINE
  5
   62C
  8
0
  6
CONTINUOUS
 62
   170
 10
-19.9486546713159
 20
-136.472346872209
 30
0.0
 11
-20.4736546623752
 21
-135.94734688115
 31
0.0
  0
LINE
  5
   62D
  8
0
  6
CONTINUOUS
 62
     7
 10
28.7013445001795
 20
-135.451662840582
 30
0.0
 11
28.7013445001795
 21
-140.876827835348
 31
0.0
  0
LINE
  5
   62E
  8
0
  6
CONTINUOUS
 62
     7
 10
13.8263844878337
 20
-125.106766629281
 30
0.0
 11
-35.1736297203206
 21
-125.10269867909
 31
0.0
  0
LINE
  5
   62F
  8
0
  6
CONTINUOUS
 62
     7
 10
28.7013445001795
 20
-138.747346833466
 30
0.0
 11
-41.3880606131585
 21
-138.747346833466
 31
0.0
  0
CIRCLE
  5
   630
  8
0
  6
CONTINUOUS
 62
     7
 10
27.3013445240214
 20
-137.347346857308
 30
0.0
 40
0.699999988079071
  0
LINE
  5
   631
  8
0
  6
DASHDOT
 62
     7
 10
27.3013445240214
 20
-135.94734688115
 30
0.0
 11
27.3013445240214
 21
-160.470711730849
 31
0.0
  0
LINE
  5
   632
  8
0
  6
DASHDOT
 62
     7
 10
28.7013445001795
 20
-137.347346857308
 30
0.0
 11
25.9013445478632
 21
-137.347346857308
 31
0.0
  0
LINE
  5
   633
  8
0
  6
CONTINUOUS
 62
     7
 10
-41.3880606131585
 20
-135.282102049975
 30
0.0
 11
-41.3880606131585
 21
-141.742694313529
 31
0.0
  0
ARC
  5
   634
  8
0
  6
CONTINUOUS
 62
     7
 10
-23.2736566444526
 20
-134.204700884216
 30
0.0
 40
0.349999994039536
 50
269.999999896069
 51
359.999999896069
  0
ARC
  5
   635
  8
0
  6
CONTINUOUS
 62
     7
 10
-27.1236565788874
 20
-134.204700884216
 30
0.0
 40
0.349999994039536
 50
179.999999896069
 51
269.999999896069
  0
LINE
  5
   636
  8
0
  6
DASHDOT
 62
     7
 10
-10.6736548292682
 20
-122.759796255634
 30
0.0
 11
-10.6736548292682
 21
-157.564352738718
 31
0.0
  0
ARC
  5
   637
  8
0
  6
CONTINUOUS
 62
   212
 10
13.3889032287146
 20
-128.342736056291
 30
0.0
 40
0.437483208109691
 50
273.794194733193
 51
360.000063478932
  0
ARC
  5
   638
  8
0
  6
CONTINUOUS
 62
   212
 10
-34.7361395698479
 20
-128.341709330412
 30
0.0
 40
0.437492536285825
 50
539.999267555261
 51
632.381887852422
  0
CIRCLE
  5
   639
  8
0
  6
CONTINUOUS
 62
     3
 10
-25.198654581909
 20
-132.279253687877
 30
0.0
 40
1.39999997615814
  0
LINE
  5
   63A
  8
0
  6
CONTINUOUS
 62
     3
 10
-25.198654581909
 20
-130.662672961677
 30
0.0
 11
-26.5986545580671
 21
-131.470963324777
 31
0.0
  0
LINE
  5
   63B
  8
0
  6
CONTINUOUS
 62
     3
 10
-23.7986546057508
 20
-131.470963324777
 30
0.0
 11
-25.198654581909
 21
-130.662672961677
 31
0.0
  0
LINE
  5
   63C
  8
0
  6
CONTINUOUS
 62
     3
 10
-23.7986546057508
 20
-133.087544050978
 30
0.0
 11
-25.198654581909
 21
-133.895834414078
 31
0.0
  0
LINE
  5
   63D
  8
0
  6
CONTINUOUS
 62
     3
 10
-25.198654581909
 20
-133.895834414078
 30
0.0
 11
-26.5986545580671
 21
-133.087544050978
 31
0.0
  0
LINE
  5
   63E
  8
0
  6
CONTINUOUS
 62
     3
 10
-26.5986545580671
 20
-131.470963324777
 30
0.0
 11
-26.5986545580671
 21
-133.087544050978
 31
0.0
  0
LINE
  5
   63F
  8
0
  6
CONTINUOUS
 62
     3
 10
-23.7986546057508
 20
-131.470963324777
 30
0.0
 11
-23.7986546057508
 21
-133.087544050978
 31
0.0
  0
LINE
  5
   640
  8
0
  6
DASHDOT
 62
     7
 10
-25.198654581909
 20
-130.17925372364
 30
0.0
 11
-25.198654581909
 21
-134.379253652115
 31
0.0
  0
LINE
  5
   641
  8
0
  6
DASHDOT
 62
     7
 10
-23.0986546176717
 20
-132.279253687877
 30
0.0
 11
-27.2986545461462
 21
-132.279253687877
 31
0.0
  0
CIRCLE
  5
   642
  8
0
  6
CONTINUOUS
 62
     3
 10
-25.198654581909
 20
-132.279253687877
 30
0.0
 40
0.874999985098839
  0
ARC
  5
   643
  8
0
  6
CONTINUOUS
 62
     7
 10
-25.198654581909
 20
-132.279253687877
 30
0.0
 40
0.734999987483024
 50
269.999999896069
 51
539.999999896069
  0
INSERT
  5
   644
  8
255
  6
CONTINUOUS
 62
     7
  2
MANIGLIA_ALTO
 10
-56.2920112609863
 20
-22.2315819109795
 30
0.0
 41
0.349999994039536
 42
0.349999994039536
 50
359.999999792138
 43
0.349999994039536
  0
LINE
  5
   645
  8
0
  6
CONTINUOUS
 62
    52
 10
-34.2986925055865
 20
-148.372346669553
 30
0.0
 11
-34.2986925055865
 21
-148.722346663593
 31
0.0
  0
LINE
  5
   646
  8
0
  6
CONTINUOUS
 62
    52
 10
-16.0986861398105
 20
-148.372346669553
 30
0.0
 11
-16.0986861398105
 21
-148.722346663593
 31
0.0
  0
LINE
  5
   647
  8
0
  6
CONTINUOUS
 62
    52
 10
-34.4736925026062
 20
-143.997346744059
 30
0.0
 11
-34.4736925026062
 21
-148.372346669553
 31
0.0
  0
LINE
  5
   648
  8
0
  6
CONTINUOUS
 62
    52
 10
-15.9236861427908
 20
-143.997346744059
 30
0.0
 11
-15.9236861427908
 21
-148.372346669553
 31
0.0
  0
LINE
  5
   649
  8
0
  6
CONTINUOUS
 62
    52
 10
-15.9236861427908
 20
-148.372346669553
 30
0.0
 11
-16.1019011666112
 21
-148.372346669553
 31
0.0
  0
LINE
  5
   64A
  8
0
  6
CONTINUOUS
 62
    52
 10
-25.1986886551265
 20
-148.372346669553
 30
0.0
 11
-27.0081532696972
 21
-148.372346669553
 31
0.0
  0
LINE
  5
   64B
  8
0
  6
CONTINUOUS
 62
    52
 10
-20.0457724068206
 20
-148.372346669553
 30
0.0
 11
-21.6492990671347
 21
-148.372346669553
 31
0.0
  0
LINE
  5
   64C
  8
0
  6
CONTINUOUS
 62
    52
 10
-23.3892240405557
 20
-148.372346669553
 30
0.0
 11
-25.1986886551265
 21
-148.372346669553
 31
0.0
  0
LINE
  5
   64D
  8
0
  6
CONTINUOUS
 62
    52
 10
-21.6492990671347
 20
-148.372346669553
 30
0.0
 11
-23.3892240405557
 21
-148.372346669553
 31
0.0
  0
LINE
  5
   64E
  8
0
  6
CONTINUOUS
 62
    52
 10
-18.6402716372991
 20
-148.372346669553
 30
0.0
 11
-20.0457724068206
 21
-148.372346669553
 31
0.0
  0
LINE
  5
   64F
  8
0
  6
CONTINUOUS
 62
    52
 10
-16.629702289825
 20
-148.372346669553
 30
0.0
 11
-17.4868060044766
 21
-148.372346669553
 31
0.0
  0
LINE
  5
   650
  8
0
  6
CONTINUOUS
 62
    52
 10
-27.0081532696972
 20
-148.372346669553
 30
0.0
 11
-28.7480782431182
 21
-148.372346669553
 31
0.0
  0
LINE
  5
   651
  8
0
  6
CONTINUOUS
 62
    52
 10
-31.7571056729539
 20
-148.372346669553
 30
0.0
 11
-32.9105713057763
 21
-148.372346669553
 31
0.0
  0
LINE
  5
   652
  8
0
  6
CONTINUOUS
 62
    52
 10
-30.3516049034324
 20
-148.372346669553
 30
0.0
 11
-31.7571056729539
 21
-148.372346669553
 31
0.0
  0
LINE
  5
   653
  8
0
  6
CONTINUOUS
 62
    52
 10
-34.2954748084977
 20
-148.372346669553
 30
0.0
 11
-34.4736925026062
 21
-148.372346669553
 31
0.0
  0
LINE
  5
   654
  8
0
  6
CONTINUOUS
 62
    52
 10
-16.1019011666112
 20
-148.372346669553
 30
0.0
 11
-16.629702289825
 21
-148.372346669553
 31
0.0
  0
LINE
  5
   655
  8
0
  6
CONTINUOUS
 62
    52
 10
-17.4868060044766
 20
-148.372346669553
 30
0.0
 11
-18.6402716372991
 21
-148.372346669553
 31
0.0
  0
LINE
  5
   656
  8
0
  6
CONTINUOUS
 62
    52
 10
-32.9105713057763
 20
-148.372346669553
 30
0.0
 11
-33.767675020428
 21
-148.372346669553
 31
0.0
  0
LINE
  5
   657
  8
0
  6
CONTINUOUS
 62
    52
 10
-28.7480782431182
 20
-148.372346669553
 30
0.0
 11
-30.3516049034324
 21
-148.372346669553
 31
0.0
  0
LINE
  5
   658
  8
0
  6
CONTINUOUS
 62
    52
 10
-33.767675020428
 20
-148.372346669553
 30
0.0
 11
-34.2954748084977
 21
-148.372346669553
 31
0.0
  0
LINE
  5
   659
  8
0
  6
CONTINUOUS
 62
    52
 10
-23.3892240405557
 20
-143.997346744059
 30
0.0
 11
-25.1986886551265
 21
-143.997346744059
 31
0.0
  0
LINE
  5
   65A
  8
0
  6
CONTINUOUS
 62
    52
 10
-25.1986886551265
 20
-143.997346744059
 30
0.0
 11
-27.0081532696972
 21
-143.997346744059
 31
0.0
  0
LINE
  5
   65B
  8
0
  6
CONTINUOUS
 62
    52
 10
-28.7480782431182
 20
-143.997346744059
 30
0.0
 11
-30.3516049034324
 21
-143.997346744059
 31
0.0
  0
LINE
  5
   65C
  8
0
  6
CONTINUOUS
 62
    52
 10
-30.3516049034324
 20
-143.997346744059
 30
0.0
 11
-31.7571056729539
 21
-143.997346744059
 31
0.0
  0
LINE
  5
   65D
  8
0
  6
CONTINUOUS
 62
    52
 10
-16.629702289825
 20
-143.997346744059
 30
0.0
 11
-17.4868060044766
 21
-143.997346744059
 31
0.0
  0
LINE
  5
   65E
  8
0
  6
CONTINUOUS
 62
    52
 10
-32.9105713057763
 20
-143.997346744059
 30
0.0
 11
-33.767675020428
 21
-143.997346744059
 31
0.0
  0
LINE
  5
   65F
  8
0
  6
CONTINUOUS
 62
    52
 10
-31.7571056729539
 20
-143.997346744059
 30
0.0
 11
-32.9105713057763
 21
-143.997346744059
 31
0.0
  0
LINE
  5
   660
  8
0
  6
CONTINUOUS
 62
    52
 10
-27.0081532696972
 20
-143.997346744059
 30
0.0
 11
-28.7480782431182
 21
-143.997346744059
 31
0.0
  0
LINE
  5
   661
  8
0
  6
CONTINUOUS
 62
    52
 10
-21.6492990671347
 20
-143.997346744059
 30
0.0
 11
-23.3892240405557
 21
-143.997346744059
 31
0.0
  0
LINE
  5
   662
  8
0
  6
CONTINUOUS
 62
    52
 10
-20.0457724068206
 20
-143.997346744059
 30
0.0
 11
-21.6492990671347
 21
-143.997346744059
 31
0.0
  0
LINE
  5
   663
  8
0
  6
CONTINUOUS
 62
    52
 10
-17.4868060044766
 20
-143.997346744059
 30
0.0
 11
-18.6402716372991
 21
-143.997346744059
 31
0.0
  0
LINE
  5
   664
  8
0
  6
CONTINUOUS
 62
    52
 10
-18.6402716372991
 20
-143.997346744059
 30
0.0
 11
-20.0457724068206
 21
-143.997346744059
 31
0.0
  0
LINE
  5
   665
  8
0
  6
CONTINUOUS
 62
    52
 10
-33.767675020428
 20
-143.997346744059
 30
0.0
 11
-34.2954748084977
 21
-143.997346744059
 31
0.0
  0
LINE
  5
   666
  8
0
  6
CONTINUOUS
 62
    52
 10
-34.2954748084977
 20
-143.997346744059
 30
0.0
 11
-34.4736925026062
 21
-143.997346744059
 31
0.0
  0
LINE
  5
   667
  8
0
  6
CONTINUOUS
 62
    52
 10
-16.1019011666112
 20
-143.997346744059
 30
0.0
 11
-16.629702289825
 21
-143.997346744059
 31
0.0
  0
LINE
  5
   668
  8
0
  6
CONTINUOUS
 62
    52
 10
-15.9236861427908
 20
-143.997346744059
 30
0.0
 11
-16.1019011666112
 21
-143.997346744059
 31
0.0
  0
INSERT
  5
   669
  8
0
  6
CONTINUOUS
 62
     7
  2
*UDIM300
 10
0.0
 20
0.0
 30
0.0
  0
TEXT
  5
   66A
  8
0
  6
CONTINUOUS
 62
     7
 10
-11.3371756720154
 20
-166.583472767151
 30
0.0
 40
2.99999997871263
  1
Y
 50
359.999999896069
 41
0.916666703091727
 11
-11.3371756665887
 21
-163.583472788438
 31
0.0
 73
     3
  0
CIRCLE
  5
   66B
  8
0
  6
CONTINUOUS
 62
   253
 10
225.929214789096
 20
13.7191154429031
 30
0.0
 40
5.77499990165234
  0
CIRCLE
  5
   66C
  8
0
  6
CONTINUOUS
 62
   253
 10
216.48341645995
 20
21.7759176874608
 30
0.0
 40
0.874999985098839
  0
CIRCLE
  5
   66D
  8
0
  6
CONTINUOUS
 62
   253
 10
235.383423630584
 20
21.7759232445592
 30
0.0
 40
0.874999985098839
  0
CIRCLE
  5
   66E
  8
0
  6
CONTINUOUS
 62
   253
 10
235.38343028538
 20
5.67592351874055
 30
0.0
 40
0.874999985098839
  0
CIRCLE
  5
   66F
  8
0
  6
CONTINUOUS
 62
   253
 10
216.483423952449
 20
5.6759310487808
 30
0.0
 40
0.874999985098839
  0
LINE
  5
   670
  8
0
  6
DASHDOT
 62
     7
 10
212.857065602082
 20
13.7191154429031
 30
0.0
 11
263.321965631018
 21
13.7191154429031
 31
0.0
  0
LINE
  5
   671
  8
0
  6
DASHDOT
 62
     7
 10
225.929214789096
 20
4.48394982831132
 30
0.0
 11
225.929214789096
 21
38.5186474484209
 31
0.0
  0
LINE
  5
   672
  8
0
  6
DASHDOT
 62
     7
 10
215.214677344921
 20
5.6759310487808
 30
0.0
 11
271.559290992351
 21
5.6759310487808
 31
0.0
  0
LINE
  5
   673
  8
0
  6
DASHDOT
 62
     7
 10
216.483423952449
 20
-27.5239430042942
 30
0.0
 11
216.483423952449
 21
7.6743943851515
 31
0.0
  0
LINE
  5
   674
  8
0
  6
DASHDOT
 62
     7
 10
232.518447230112
 20
5.67592351874055
 30
0.0
 11
276.972390515512
 21
5.67592351874055
 31
0.0
  0
LINE
  5
   675
  8
0
  6
DASHDOT
 62
     7
 10
235.38343028538
 20
-25.4057736256659
 30
0.0
 11
235.38343028538
 21
8.89992279442566
 31
0.0
  0
LINE
  5
   676
  8
0
  6
DASHDOT
 62
     7
 10
271.083237420583
 20
21.7759232445592
 30
0.0
 11
276.030981902788
 21
21.7759232445592
 31
0.0
  0
LINE
  5
   677
  8
0
  6
DASHDOT
 62
     7
 10
235.383423630584
 20
20.2525440914332
 30
0.0
 11
235.383423630584
 21
23.782826389147
 31
0.0
  0
LINE
  5
   678
  8
0
  6
DASHDOT
 62
     7
 10
214.604069922567
 20
21.7759176874608
 30
0.0
 11
271.794643145532
 21
21.7759176874608
 31
0.0
  0
LINE
  5
   679
  8
0
  6
DASHDOT
 62
     7
 10
216.48341645995
 20
19.1755071491091
 30
0.0
 11
216.48341645995
 21
23.0446750419548
 31
0.0
  0
LINE
  5
   67A
  8
0
  6
DASHDOT
 62
     7
 10
240.454214541737
 20
-23.9936607065804
 30
0.0
 11
240.454214541737
 21
42.0069417860914
 31
0.0
  0
LINE
  5
   67B
  8
0
  6
CONTINUOUS
 62
     7
 10
212.983416519555
 20
-15.8557248326099
 30
0.0
 11
212.983416519555
 21
25.2759176278561
 31
0.0
  0
LINE
  5
   67C
  8
0
  6
CONTINUOUS
 62
     7
 10
212.983416519555
 20
-15.8557248326099
 30
0.0
 11
258.300034680263
 21
-15.8557248326099
 31
0.0
  0
LINE
  5
   67D
  8
0
  6
CONTINUOUS
 62
     7
 10
258.300034680263
 20
-15.8557248326099
 30
0.0
 11
258.300034680263
 21
25.2759176278561
 31
0.0
  0
LINE
  5
   67E
  8
0
  6
CONTINUOUS
 62
     7
 10
212.983416519555
 20
25.2759176278561
 30
0.0
 11
258.300034680263
 21
25.2759176278561
 31
0.0
  0
LINE
  5
   67F
  8
0
  6
DASHDOT
 62
     1
 10
209.519114453722
 20
3.9191156097961
 30
0.0
 11
263.79266993738
 21
3.9191156097961
 31
0.0
  0
POINT
  5
   680
  8
0
  6
CONTINUOUS
 62
     7
 10
231.704214690748
 20
13.7191154429031
 30
0.0
  0
POINT
  5
   681
  8
0
  6
CONTINUOUS
 62
     7
 10
220.154214887443
 20
13.7191154429031
 30
0.0
  0
POINT
  5
   682
  8
0
  6
CONTINUOUS
 62
     7
 10
236.258423615683
 20
21.7759232445592
 30
0.0
  0
POINT
  5
   683
  8
0
  6
CONTINUOUS
 62
     7
 10
234.508423645486
 20
21.7759232445592
 30
0.0
  0
LINE
  5
   684
  8
0
  6
CONTINUOUS
 62
     7
 10
258.650034674303
 20
-10.0808841517853
 30
0.0
 11
258.650034674303
 21
-6.58088421138996
 31
0.0
  0
LINE
  5
   685
  8
0
  6
CONTINUOUS
 62
     7
 10
259.350034662382
 20
-10.0808841517853
 30
0.0
 11
259.350034662382
 21
-6.58088421138996
 31
0.0
  0
LINE
  5
   686
  8
0
  6
CONTINUOUS
 62
     7
 10
258.650034674303
 20
10.9191154905868
 30
0.0
 11
259.350034662382
 21
10.9191154905868
 31
0.0
  0
LINE
  5
   687
  8
0
  6
CONTINUOUS
 62
     7
 10
258.650034674303
 20
14.4191154309822
 30
0.0
 11
259.350034662382
 21
14.4191154309822
 31
0.0
  0
LINE
  5
   688
  8
0
  6
CONTINUOUS
 62
     7
 10
258.650034674303
 20
-10.0808841517853
 30
0.0
 11
259.350034662382
 21
-10.0808841517853
 31
0.0
  0
LINE
  5
   689
  8
0
  6
CONTINUOUS
 62
     7
 10
258.650034674303
 20
10.9191154905868
 30
0.0
 11
258.650034674303
 21
14.4191154309822
 31
0.0
  0
LINE
  5
   68A
  8
0
  6
CONTINUOUS
 62
     7
 10
259.350034662382
 20
10.9191154905868
 30
0.0
 11
259.350034662382
 21
14.4191154309822
 31
0.0
  0
LINE
  5
   68B
  8
0
  6
CONTINUOUS
 62
     7
 10
258.650034674303
 20
-6.58088421138996
 30
0.0
 11
259.350034662382
 21
-6.58088421138996
 31
0.0
  0
LINE
  5
   68C
  8
0
  6
DASHDOT
 62
     7
 10
259.000034668342
 20
-34.0984290997201
 30
0.0
 11
259.000034668342
 21
10.9191154905868
 31
0.0
  0
LINE
  5
   68D
  8
0
  6
DASHDOT
 62
     7
 10
225.929214789096
 20
-18.8159133366001
 30
0.0
 11
225.929214789096
 21
-12.2260530475342
 31
0.0
  0
LINE
  5
   68E
  8
0
  6
DASHDOT
 62
     1
 10
269.320345497586
 20
3.9191156097961
 30
0.0
 11
279.406880014001
 21
3.9191156097961
 31
0.0
  0
LINE
  5
   68F
  8
0
  6
DASHDOT
 62
     1
 10
200.130257849901
 20
3.91911560979609
 30
0.0
 11
209.519114453722
 21
3.91911560979609
 31
0.0
  0
LINE
  5
   690
  8
0
  6
DASHDOT
 62
     7
 10
225.929214789096
 20
-11.2061981500432
 30
0.0
 11
225.929214789096
 21
-4.83575529757092
 31
0.0
  0
LINE
  5
   691
  8
0
  6
DASHDOT
 62
     7
 10
225.929214789096
 20
-31.379267182872
 30
0.0
 11
225.929214789096
 21
-26.4244782976158
 31
0.0
  0
TEXT
  5
   692
  8
0
  6
CONTINUOUS
 62
     7
 10
186.696983268197
 20
-207.167989748078
 30
0.0
 40
2.00000003448554
  1
M 3212 95-12-06
 41
0.749999888539317
 72
     1
 11
197.796981811523
 21
-206.167989730835
 31
0.0
 73
     2
  0
TEXT
  5
   693
  8
0
  6
CONTINUOUS
 62
     7
 10
137.016990592416
 20
-211.401365297394
 30
0.0
 40
2.00000003448554
  1
M 4352 96-12-17
 41
0.749999888539317
 72
     1
 11
148.116989135742
 21
-210.401365280151
 31
0.0
 73
     2
  0
TEXT
  5
   694
  8
0
  6
CONTINUOUS
 62
     7
 10
161.706985893253
 20
-207.167991798106
 30
0.0
 40
2.00000003448554
  1
M 3142 95-06-12
 41
0.749999888539317
 72
     1
 11
172.806984436579
 21
-206.167991780864
 31
0.0
 73
     2
  0
TEXT
  5
   695
  8
0
  6
CONTINUOUS
 62
     7
 10
136.866989215445
 20
-207.167991798106
 30
0.0
 40
2.00000003448554
  1
M 3076 95-01-16
 41
0.749999888539317
 72
     1
 11
147.966987758772
 21
-206.167991780864
 31
0.0
 73
     2
  0
INSERT
  5
   696
  8
0
  6
CONTINUOUS
 62
     7
  2
*UDIM301
 10
0.0
 20
0.0
 30
0.0
  0
INSERT
  5
   697
  8
0
  6
CONTINUOUS
 62
     7
  2
*UDIM302
 10
0.0
 20
0.0
 30
0.0
  0
INSERT
  5
   698
  8
0
  6
CONTINUOUS
 62
     7
  2
*UDIM303
 10
0.0
 20
0.0
 30
0.0
  0
INSERT
  5
   699
  8
0
  6
CONTINUOUS
 62
     7
  2
*UDIM304
 10
0.0
 20
0.0
 30
0.0
  0
INSERT
  5
   69A
  8
0
  6
CONTINUOUS
 62
     7
  2
*UDIM305
 10
0.0
 20
0.0
 30
0.0
  0
INSERT
  5
   69B
  8
0
  6
CONTINUOUS
 62
     7
  2
*UDIM306
 10
0.0
 20
0.0
 30
0.0
  0
INSERT
  5
   69C
  8
0
  6
CONTINUOUS
 62
     7
  2
*UDIM307
 10
0.0
 20
0.0
 30
0.0
  0
INSERT
  5
   69D
  8
0
  6
CONTINUOUS
 62
     7
  2
*UDIM308
 10
0.0
 20
0.0
 30
0.0
  0
INSERT
  5
   69E
  8
0
  6
CONTINUOUS
 62
     7
  2
*UDIM309
 10
0.0
 20
0.0
 30
0.0
  0
INSERT
  5
   69F
  8
0
  6
CONTINUOUS
 62
     7
  2
*UDIM310
 10
0.0
 20
0.0
 30
0.0
  0
TEXT
  5
   6A0
  8
0
  6
CONTINUOUS
 62
     7
 10
239.84299744909
 20
-37.3579616460326
 30
0.0
 40
2.99999997871263
  1
Y
 41
0.916666703091727
 11
239.84299744909
 21
-34.35796166732
 31
0.0
 73
     3
  0
TEXT
  5
   6A1
  8
0
  6
CONTINUOUS
 62
     7
 10
279.696835500242
 20
1.87933437133662
 30
0.0
 40
2.99999997871263
  1
X
 41
0.916666703091727
 11
279.696835500242
 21
4.87933435004925
 31
0.0
 73
     3
  0
TEXT
  5
   6A2
  8
0
  6
CONTINUOUS
 62
     7
 10
195.486267695677
 20
2.22827159073606
 30
0.0
 40
2.99999997871263
  1
X
 41
0.916666703091727
 11
195.486267695677
 21
5.22827156944868
 31
0.0
 73
     3
  0
TEXT
  5
   6A3
  8
0
  6
CONTINUOUS
 62
     7
 10
240.266748128519
 20
47.1250687692634
 30
0.0
 40
2.99999997871263
  1
Y
 41
0.916666703091727
 11
240.266748128519
 21
50.125068747976
 31
0.0
 73
     3
  0
TEXT
  5
   6A4
  8
0
  6
CONTINUOUS
 62
     7
 10
130.243329374298
 20
-191.841892345928
 30
0.0
 40
2.00000003448554
  1
94-02-07 BARCELLA
 41
0.749999888539317
 72
     2
 11
155.443326066836
 21
-191.841892345928
 31
0.0
  0
TEXT
  5
   6A5
  8
0
  6
CONTINUOUS
 62
     7
 10
231.973709504165
 20
-218.083685285954
 30
0.0
 40
4.00000006897109
  1
601840/321
 41
0.937499981746078
 72
     2
 11
268.72370940768
 21
-218.083685285954
 31
0.0
  0
TEXT
  5
   6A6
  8
0
  6
CONTINUOUS
 62
     7
 10
249.0594032918
 20
-209.102099502405
 30
0.0
 40
2.99999997871263
  1
S7
 41
0.91666663951344
 72
     2
 11
254.009403126539
 21
-209.102099502405
 31
0.0
  0
TEXT
  5
   6A7
  8
0
  6
CONTINUOUS
 62
     7
 10
219.837476488268
 20
-190.791827804748
 30
0.0
 40
2.00000003448554
  1
ROTARY HANDLE OPERATING MECHANISM APPLICATION
 41
0.687500013932585
 72
     1
 11
250.637477643332
 21
-189.791827787505
 31
0.0
 73
     2
  0
TEXT
  5
   6A8
  8
0
  6
CONTINUOUS
 62
     7
 10
224.649976931046
 20
-193.791827804748
 30
0.0
 40
2.00000003448554
  1
WITH ADJUSTABLE DEPTH ON ISOMAX SERIES
 41
0.687500013932585
 72
     1
 11
250.6374779056
 21
-192.791827787505
 31
0.0
 73
     2
  0
TEXT
  5
   6A9
  8
0
  6
CONTINUOUS
 62
     7
 10
227.289871065279
 20
-198.862089813308
 30
0.0
 40
2.00000003448554
  1
APPLICAZIONE MANIGLIA ROTANTE
 41
0.687500013932585
 72
     1
 11
247.089871807751
 21
-197.862089796065
 31
0.0
 73
     2
  0
TEXT
  5
   6AA
  8
0
  6
CONTINUOUS
 62
     7
 10
223.852371198613
 20
-201.862089813308
 30
0.0
 40
2.00000003448554
  1
A DISTANZA REGOLABILE SERIE ISOMAX
 41
0.687500013932585
 72
     1
 11
247.089872070019
 21
-200.862089796065
 31
0.0
 73
     2
  0
ENDSEC
  0
EOF
