  0
SECTION
  2
HEADER
  9
$ACADVER
  1
AC1009
  9
$INSBASE
 10
0.0
 20
0.0
 30
0.0
  9
$EXTMIN
 10
0.998607
 20
1.013467
 30
0.0
  9
$EXTMAX
 10
392.998607
 20
263.513467
 30
0.0
  9
$LIMMIN
 10
0.0
 20
0.0
  9
$LIMMAX
 10
12.0
 20
9.0
  9
$ORTHOMODE
 70
     1
  9
$REGENMODE
 70
     1
  9
$FILLMODE
 70
     1
  9
$QTEXTMODE
 70
     0
  9
$MIRRTEXT
 70
     1
  9
$DRAGMODE
 70
     2
  9
$LTSCALE
 40
5.0
  9
$OSMODE
 70
     0
  9
$ATTMODE
 70
     1
  9
$TEXTSIZE
 40
2.0
  9
$TRACEWID
 40
0.05
  9
$TEXTSTYLE
  7
STANDARD
  9
$CLAYER
  8
0
  9
$CELTYPE
  6
CONTINUOUS
  9
$CECOLOR
 62
   256
  9
$DIMSCALE
 40
1.0
  9
$DIMASZ
 40
0.18
  9
$DIMEXO
 40
0.0625
  9
$DIMDLI
 40
0.38
  9
$DIMRND
 40
0.0
  9
$DIMDLE
 40
0.0
  9
$DIMEXE
 40
0.18
  9
$DIMTP
 40
0.0
  9
$DIMTM
 40
0.0
  9
$DIMTXT
 40
0.18
  9
$DIMCEN
 40
0.09
  9
$DIMTSZ
 40
0.0
  9
$DIMTOL
 70
     0
  9
$DIMLIM
 70
     0
  9
$DIMTIH
 70
     1
  9
$DIMTOH
 70
     1
  9
$DIMSE1
 70
     0
  9
$DIMSE2
 70
     0
  9
$DIMTAD
 70
     0
  9
$DIMZIN
 70
     0
  9
$DIMBLK
  1

  9
$DIMASO
 70
     1
  9
$DIMSHO
 70
     1
  9
$DIMPOST
  1

  9
$DIMAPOST
  1

  9
$DIMALT
 70
     0
  9
$DIMALTD
 70
     2
  9
$DIMALTF
 40
25.4
  9
$DIMLFAC
 40
1.0
  9
$DIMTOFL
 70
     0
  9
$DIMTVP
 40
0.0
  9
$DIMTIX
 70
     0
  9
$DIMSOXD
 70
     0
  9
$DIMSAH
 70
     0
  9
$DIMBLK1
  1

  9
$DIMBLK2
  1

  9
$DIMSTYLE
  2
*UNNAMED
  9
$DIMCLRD
 70
     0
  9
$DIMCLRE
 70
     0
  9
$DIMCLRT
 70
     0
  9
$DIMTFAC
 40
1.0
  9
$DIMGAP
 40
0.09
  9
$LUNITS
 70
     2
  9
$LUPREC
 70
     4
  9
$SKETCHINC
 40
0.1
  9
$FILLETRAD
 40
0.0
  9
$AUNITS
 70
     0
  9
$AUPREC
 70
     0
  9
$MENU
  1
acad
  9
$ELEVATION
 40
0.0
  9
$PELEVATION
 40
0.0
  9
$THICKNESS
 40
0.0
  9
$LIMCHECK
 70
     0
  9
$BLIPMODE
 70
     1
  9
$CHAMFERA
 40
0.0
  9
$CHAMFERB
 40
0.0
  9
$SKPOLY
 70
     0
  9
$TDCREATE
 40
2448641.016693750
  9
$TDUPDATE
 40
2448936.869813773
  9
$TDINDWG
 40
0.0173035880
  9
$TDUSRTIMER
 40
0.0173035880
  9
$USRTIMER
 70
     1
  9
$ANGBASE
 50
0.0
  9
$ANGDIR
 70
     0
  9
$PDMODE
 70
     0
  9
$PDSIZE
 40
0.0
  9
$PLINEWID
 40
0.0
  9
$COORDS
 70
     2
  9
$SPLFRAME
 70
     0
  9
$SPLINETYPE
 70
     6
  9
$SPLINESEGS
 70
     8
  9
$ATTDIA
 70
     0
  9
$ATTREQ
 70
     1
  9
$HANDLING
 70
     0
  9
$HANDSEED
  5
0
  9
$SURFTAB1
 70
   250
  9
$SURFTAB2
 70
   250
  9
$SURFTYPE
 70
     6
  9
$SURFU
 70
     6
  9
$SURFV
 70
     6
  9
$UCSNAME
  2

  9
$UCSORG
 10
0.0
 20
0.0
 30
0.0
  9
$UCSXDIR
 10
1.0
 20
0.0
 30
0.0
  9
$UCSYDIR
 10
0.0
 20
1.0
 30
0.0
  9
$PUCSNAME
  2

  9
$PUCSORG
 10
0.0
 20
0.0
 30
0.0
  9
$PUCSXDIR
 10
1.0
 20
0.0
 30
0.0
  9
$PUCSYDIR
 10
0.0
 20
1.0
 30
0.0
  9
$USERI1
 70
     0
  9
$USERI2
 70
     0
  9
$USERI3
 70
     0
  9
$USERI4
 70
     0
  9
$USERI5
 70
     0
  9
$USERR1
 40
0.0
  9
$USERR2
 40
0.0
  9
$USERR3
 40
0.0
  9
$USERR4
 40
0.0
  9
$USERR5
 40
0.0
  9
$WORLDVIEW
 70
     1
  9
$SHADEDGE
 70
     3
  9
$SHADEDIF
 70
    70
  9
$TILEMODE
 70
     1
  9
$MAXACTVP
 70
    16
  9
$PINSBASE
 10
0.0
 20
0.0
 30
0.0
  9
$PLIMCHECK
 70
     0
  9
$PEXTMIN
 10
1.000000E+20
 20
1.000000E+20
 30
1.000000E+20
  9
$PEXTMAX
 10
-1.000000E+20
 20
-1.000000E+20
 30
-1.000000E+20
  9
$PLIMMIN
 10
0.0
 20
0.0
  9
$PLIMMAX
 10
12.0
 20
9.0
  9
$UNITMODE
 70
     0
  9
$VISRETAIN
 70
     0
  9
$PLINEGEN
 70
     0
  9
$PSLTSCALE
 70
     0
  9
$TREEDEPTH
 70
  3020
  9
$DWGCODEPAGE
  3
undefined
  0
ENDSEC
  0
SECTION
  2
TABLES
  0
TABLE
  2
VPORT
 70
     2
  0
VPORT
  2
*ACTIVE
 70
     0
 10
0.0
 20
0.0
 11
1.0
 21
1.0
 12
234.455017
 22
142.316249
 13
0.0
 23
0.0
 14
2.5
 24
2.5
 15
0.0
 25
0.0
 16
0.0
 26
0.0
 36
1.0
 17
0.0
 27
0.0
 37
0.0
 40
284.632499
 41
1.647423
 42
50.0
 43
0.0
 44
0.0
 50
0.0
 51
0.0
 71
     0
 72
   100
 73
     1
 74
     1
 75
     1
 76
     0
 77
     0
 78
     0
  0
ENDTAB
  0
TABLE
  2
LTYPE
 70
     4
  0
LTYPE
  2
CONTINUOUS
 70
    64
  3
Solid line
 72
    65
 73
     0
 40
0.0
  0
LTYPE
  2
DASHED
 70
    64
  3
__ __ __ __ __ __ __ __ __ __ __ __ __ __ __ __
 72
    65
 73
     2
 40
0.75
 49
0.5
 49
-0.25
  0
LTYPE
  2
CENTER
 70
    64
  3
____ _ ____ _ ____ _ ____ _ ____ _ ____ _ ____ 
 72
    65
 73
     4
 40
2.0
 49
1.25
 49
-0.25
 49
0.25
 49
-0.25
  0
LTYPE
  2
HIDDEN
 70
    64
  3
__ __ __ __ __ __ __ __ __ __ __ __ __ __ __ __
 72
    65
 73
     2
 40
0.375
 49
0.25
 49
-0.125
  0
ENDTAB
  0
TABLE
  2
LAYER
 70
    13
  0
LAYER
  2
0
 70
    64
 62
     7
  6
CONTINUOUS
  0
LAYER
  2
RAAMI
 70
    64
 62
    -4
  6
CONTINUOUS
  0
LAYER
  2
PAKSU
 70
    64
 62
    -3
  6
CONTINUOUS
  0
LAYER
  2
OHUT
 70
    64
 62
    -6
  6
CONTINUOUS
  0
LAYER
  2
SWEDEN
 70
    64
 62
    -7
  6
CONTINUOUS
  0
LAYER
  2
SWEDEN2
 70
    64
 62
    -5
  6
CONTINUOUS
  0
LAYER
  2
BASE
 70
    64
 62
    -7
  6
CONTINUOUS
  0
LAYER
  2
21
 70
    64
 62
    -2
  6
CONTINUOUS
  0
LAYER
  2
HEL035
 70
    64
 62
    -7
  6
CONTINUOUS
  0
LAYER
  2
MUO
 70
    64
 62
    -7
  6
CONTINUOUS
  0
LAYER
  2
1
 70
    64
 62
    -2
  6
CONTINUOUS
  0
LAYER
  2
BASE1
 70
    64
 62
    -1
  6
CONTINUOUS
  0
LAYER
  2
TEKS
 70
    64
 62
    -5
  6
CONTINUOUS
  0
ENDTAB
  0
TABLE
  2
STYLE
 70
     4
  0
STYLE
  2
STANDARD
 70
    64
 40
0.0
 41
1.0
 50
0.0
 71
     0
 42
2.0
  3
txt
  4

  0
STYLE
  2
ROMANS
 70
    64
 40
2.5
 41
1.0
 50
0.0
 71
     0
 42
2.5
  3
romans
  4

  0
STYLE
  2
GREEKS
 70
    64
 40
10.949018
 41
1.0
 50
0.0
 71
     0
 42
2.0
  3
GREEKS
  4

  0
STYLE
  2
STAND
 70
    64
 40
0.0
 41
1.0
 50
0.0
 71
     0
 42
2.0
  3
TXT
  4

  0
ENDTAB
  0
TABLE
  2
VIEW
 70
     0
  0
ENDTAB
  0
TABLE
  2
UCS
 70
     0
  0
ENDTAB
  0
TABLE
  2
APPID
 70
     1
  0
APPID
  2
ACAD
 70
    64
  0
ENDTAB
  0
TABLE
  2
DIMSTYLE
 70
     0
  0
ENDTAB
  0
ENDSEC
  0
SECTION
  2
BLOCKS
  0
BLOCK
  8
0
  2
1
 70
    64
 10
0.0
 20
0.0
 30
0.0
  3
1
  0
ENDBLK
  8
0
  0
BLOCK
  8
0
  2
BLC16
 70
     0
 10
0.0
 20
0.0
 30
0.0
  3
BLC16
  0
LINE
  8
0
  6
CONTINUOUS
 10
0.007689
 20
38.054928
 30
0.0
 11
19.983683
 21
38.054928
 31
0.0
  0
LINE
  8
0
  6
CONTINUOUS
 10
19.983683
 20
38.054928
 30
0.0
 11
19.983683
 21
-0.003751
 31
0.0
  0
LINE
  8
0
  6
CONTINUOUS
 10
19.983683
 20
-0.003751
 30
0.0
 11
0.007689
 21
-0.003751
 31
0.0
  0
LINE
  8
0
  6
CONTINUOUS
 10
0.007689
 20
-0.003751
 30
0.0
 11
0.007689
 21
38.054928
 31
0.0
  0
LINE
  8
0
  6
CONTINUOUS
 10
14.152643
 20
36.919738
 30
0.0
 11
14.152643
 21
33.528469
 31
0.0
  0
LINE
  8
0
  6
CONTINUOUS
 10
14.152643
 20
33.528469
 30
0.0
 11
11.560435
 21
33.528469
 31
0.0
  0
LINE
  8
0
  6
CONTINUOUS
 10
11.560435
 20
33.528469
 30
0.0
 11
11.560435
 21
30.778433
 31
0.0
  0
LINE
  8
0
  6
CONTINUOUS
 10
11.560435
 20
30.778433
 30
0.0
 11
14.152643
 21
30.778433
 31
0.0
  0
LINE
  8
0
  6
CONTINUOUS
 10
14.152643
 20
30.778433
 30
0.0
 11
14.152643
 21
27.387164
 31
0.0
  0
TEXT
  8
0
  6
CONTINUOUS
 10
6.558569
 20
30.805266
 30
0.0
 40
2.5
  1
2
 11
6.558569
 21
29.971932
 31
0.0
 73
     1
  0
TEXT
  8
0
  6
CONTINUOUS
 10
6.553289
 20
23.854078
 30
0.0
 40
2.5
  1
2 I
 11
6.553289
 21
23.020744
 31
0.0
 73
     1
  0
LINE
  8
0
  6
CONTINUOUS
 10
12.942534
 20
26.359129
 30
0.0
 11
15.288299
 21
25.023775
 31
0.0
  0
LINE
  8
0
  6
CONTINUOUS
 10
15.288299
 20
25.023775
 30
0.0
 11
12.942534
 21
23.833856
 31
0.0
  0
LINE
  8
0
  6
CONTINUOUS
 10
14.169823
 20
26.359129
 30
0.0
 11
16.515589
 21
25.023775
 31
0.0
  0
LINE
  8
0
  6
CONTINUOUS
 10
16.515589
 20
25.023775
 30
0.0
 11
14.169823
 21
23.833856
 31
0.0
  0
TEXT
  8
0
  6
CONTINUOUS
 10
11.566446
 20
19.235679
 30
0.0
 40
2.5
  1
I
 11
11.566446
 21
18.402346
 31
0.0
 73
     1
  0
TEXT
  8
0
  6
CONTINUOUS
 10
13.018181
 20
18.902346
 30
0.0
 40
1.5
  1
2
 11
13.018181
 21
18.402346
 31
0.0
 73
     1
  0
LINE
  8
0
  6
CONTINUOUS
 10
10.65733
 20
12.773825
 30
0.0
 11
13.003095
 21
13.963744
 31
0.0
  0
LINE
  8
0
  6
CONTINUOUS
 10
13.003095
 20
11.438471
 30
0.0
 11
10.65733
 21
12.773825
 31
0.0
  0
LINE
  8
0
  6
CONTINUOUS
 10
6.557002
 20
16.714658
 30
0.0
 11
15.281743
 21
16.714658
 31
0.0
  0
LINE
  8
0
  6
CONTINUOUS
 10
6.557002
 20
17.523984
 30
0.0
 11
6.557002
 21
15.908791
 31
0.0
  0
LINE
  8
0
  6
CONTINUOUS
 10
15.286518
 20
17.523984
 30
0.0
 11
15.286518
 21
15.908791
 31
0.0
  0
ARC
  8
0
  6
CONTINUOUS
 10
12.684846
 20
18.508045
 30
0.0
 40
2.922744
 50
193.105513
 51
283.105513
  0
TEXT
  8
0
  6
CONTINUOUS
 10
6.557002
 20
11.567974
 30
0.0
 40
2.5
  1
2I
 11
6.557002
 21
10.734641
 31
0.0
 73
     1
  0
LINE
  8
0
  6
CONTINUOUS
 10
6.557002
 20
9.441103
 30
0.0
 11
15.281743
 21
9.441103
 31
0.0
  0
LINE
  8
0
  6
CONTINUOUS
 10
15.286518
 20
10.250429
 30
0.0
 11
15.286518
 21
8.635236
 31
0.0
  0
LINE
  8
0
  6
CONTINUOUS
 10
6.557002
 20
10.250429
 30
0.0
 11
6.557002
 21
8.635236
 31
0.0
  0
TEXT
  8
0
  6
CONTINUOUS
 10
6.557002
 20
4.778631
 30
0.0
 40
2.5
  1
I
 11
6.557002
 21
3.945298
 31
0.0
 73
     1
  0
LINE
  8
0
  6
CONTINUOUS
 10
9.509029
 20
6.822462
 30
0.0
 11
9.509029
 21
5.477736
 31
0.0
  0
LINE
  8
0
  6
CONTINUOUS
 10
8.615065
 20
5.477736
 30
0.0
 11
9.52622
 21
5.477736
 31
0.0
  0
LINE
  8
0
  6
CONTINUOUS
 10
9.509029
 20
5.477736
 30
0.0
 11
10.402992
 21
5.477736
 31
0.0
  0
LINE
  8
0
  6
CONTINUOUS
 10
8.901592
 20
5.082328
 30
0.0
 11
9.509029
 21
5.082328
 31
0.0
  0
LINE
  8
0
  6
CONTINUOUS
 10
9.509029
 20
5.082328
 30
0.0
 11
10.150849
 21
5.082328
 31
0.0
  0
LINE
  8
0
  6
CONTINUOUS
 10
9.981861
 20
4.719969
 30
0.0
 11
9.072041
 21
4.719969
 31
0.0
  0
LINE
  8
0
  6
CONTINUOUS
 10
15.286518
 20
2.797924
 30
0.0
 11
15.286518
 21
1.182731
 31
0.0
  0
LINE
  8
0
  6
CONTINUOUS
 10
6.557002
 20
1.988598
 30
0.0
 11
15.281743
 21
1.988598
 31
0.0
  0
LINE
  8
0
  6
CONTINUOUS
 10
6.557002
 20
2.797924
 30
0.0
 11
6.557002
 21
1.182731
 31
0.0
  0
ENDBLK
  8
0
  0
BLOCK
  8
0
  2
BLC27
 70
    64
 10
0.0
 20
0.0
 30
0.0
  3
BLC27
  0
INSERT
  8
SWEDEN2
  6
CENTER
  2
BLC26
 10
0.08063
 20
0.037985
 30
0.0
 41
1.006225
 42
1.006225
 43
1.006225
  0
ENDBLK
  8
0
  0
BLOCK
  8
0
  2
BLC26
 70
    64
 10
0.0
 20
0.0
 30
0.0
  3
BLC26
  0
ARC
  8
0
  6
CONTINUOUS
 10
-0.180576
 20
1.17922
 30
0.0
 40
1.196859
 50
90.0
 51
265.706237
  0
LINE
  8
0
  6
CONTINUOUS
 10
-0.186638
 20
-0.01092
 30
0.0
 11
0.458942
 21
-0.01092
 31
0.0
  0
LINE
  8
0
  6
CONTINUOUS
 10
-0.186638
 20
2.375671
 30
0.0
 11
0.45288
 21
2.375671
 31
0.0
  0
LINE
  8
0
  6
CONTINUOUS
 10
-0.185509
 20
-2.404629
 30
0.0
 11
0.460071
 21
-2.404629
 31
0.0
  0
ARC
  8
0
  6
CONTINUOUS
 10
-0.180576
 20
-1.207779
 30
0.0
 40
1.196859
 50
90.0
 51
270.0
  0
LINE
  8
0
  6
CONTINUOUS
 10
0.451525
 20
-2.404586
 30
0.0
 11
1.401805
 21
-2.404586
 31
0.0
  0
LINE
  8
0
  6
CONTINUOUS
 10
0.446785
 20
2.375674
 30
0.0
 11
1.418544
 21
2.375674
 31
0.0
  0
LINE
  8
0
  6
CONTINUOUS
 10
0.456627
 20
-0.010911
 30
0.0
 11
1.422749
 21
-0.010911
 31
0.0
  0
ENDBLK
  8
0
  0
BLOCK
  8
0
  2
BLC22
 70
    64
 10
0.0
 20
0.0
 30
0.0
  3
BLC22
  0
LINE
  8
HEL035
 10
0.0
 20
-0.00155
 30
0.0
 11
0.0
 21
9.99845
 31
0.0
  0
LINE
  8
21
 10
2.5
 20
10.0
 30
0.0
 11
5.0
 21
10.0
 31
0.0
  0
LINE
  8
HEL035
 10
0.0
 20
9.99845
 30
0.0
 11
2.5
 21
9.99845
 31
0.0
  0
LINE
  8
HEL035
 10
-2.5
 20
5.0
 30
0.0
 11
2.5
 21
5.0
 31
0.0
  0
LINE
  8
21
 10
2.5
 20
5.0
 30
0.0
 11
5.0
 21
5.0
 31
0.0
  0
LINE
  8
21
 10
5.0
 20
5.0
 30
0.0
 11
5.0
 21
7.9
 31
0.0
  0
LINE
  8
HEL035
 10
3.88095
 20
6.944425
 30
0.0
 11
4.560313
 21
6.008681
 31
0.0
  0
LINE
  8
21
 10
10.0
 20
10.0
 30
0.0
 11
4.2
 21
6.5
 31
0.0
  0
LINE
  8
HEL035
 10
2.5
 20
-0.00155
 30
0.0
 11
0.0
 21
-0.00155
 31
0.0
  0
LINE
  8
21
 10
2.5
 20
0.0
 30
0.0
 11
5.0
 21
0.0
 31
0.0
  0
ENDBLK
  8
0
  0
BLOCK
  8
0
  2
BLC18
 70
     0
 10
0.0
 20
0.0
 30
0.0
  3
BLC18
  0
LINE
  8
MUO
 10
-0.056268
 20
0.849555
 30
0.0
 11
8.307242
 21
9.215502
 31
0.0
  0
LINE
  8
MUO
 10
0.928025
 20
-0.107047
 30
0.0
 11
9.268386
 21
8.2307
 31
0.0
  0
LINE
  8
MUO
 10
-0.056268
 20
-0.107047
 30
0.0
 11
-0.056268
 21
9.215502
 31
0.0
  0
LINE
  8
MUO
 10
9.268386
 20
-0.107047
 30
0.0
 11
-0.056268
 21
-0.107047
 31
0.0
  0
LINE
  8
MUO
 10
9.268386
 20
9.215502
 30
0.0
 11
9.268386
 21
-0.107047
 31
0.0
  0
LINE
  8
MUO
 10
-0.056268
 20
9.215502
 30
0.0
 11
9.268386
 21
9.215502
 31
0.0
  0
ENDBLK
  8
0
  0
BLOCK
  8
0
  2
BLC29
 70
    64
 10
0.0
 20
0.0
 30
0.0
  3
BLC29
  0
LINE
  8
0
  6
CONTINUOUS
 10
0.004865
 20
1.206889
 30
0.0
 11
2.350631
 21
-0.128465
 31
0.0
  0
LINE
  8
0
  6
CONTINUOUS
 10
2.350631
 20
-0.128465
 30
0.0
 11
0.004865
 21
-1.318384
 31
0.0
  0
ENDBLK
  8
0
  0
BLOCK
  8
0
  2
WKU130
 70
    64
 10
190.0
 20
250.0
 30
0.0
  3
WKU130
  0
ARC
  8
21
 10
191.083333
 20
249.916667
 30
0.0
 40
1.086534
 50
32.471192
 51
175.601295
  0
ARC
  8
21
 10
192.916667
 20
251.083333
 30
0.0
 40
1.086534
 50
212.471192
 51
355.601295
  0
ENDBLK
  8
0
  0
BLOCK
  8
0
  2
BLC38
 70
    64
 10
0.0
 20
0.0
 30
0.0
  3
BLC38
  0
LINE
  8
BASE
  6
CONTINUOUS
 10
5.0
 20
0.429605
 30
0.0
 11
5.0
 21
-2.5
 31
0.0
  0
LINE
  8
BASE
  6
CONTINUOUS
 10
0.0
 20
0.429605
 30
0.0
 11
0.0
 21
-2.5
 31
0.0
  0
LINE
  8
BASE
  6
CONTINUOUS
 10
5.0
 20
15.0
 30
0.0
 11
5.0
 21
9.752154
 31
0.0
  0
LINE
  8
BASE
  6
CONTINUOUS
 10
0.0
 20
15.0
 30
0.0
 11
0.0
 21
9.752154
 31
0.0
  0
INSERT
  8
HEL035
  2
WKU130
 10
2.806261
 20
1.002888
 30
0.0
 41
0.8
 42
0.8
 43
0.8
  0
LINE
  8
HEL035
 10
2.466311
 20
2.72844
 30
0.0
 11
6.466311
 21
2.72844
 31
0.0
  0
LINE
  8
HEL035
 10
-1.290099
 20
7.674464
 30
0.0
 11
2.709901
 21
7.674464
 31
0.0
  0
LINE
  8
MUO
 10
-2.204897
 20
1.386207
 30
0.0
 11
6.158613
 21
9.752154
 31
0.0
  0
LINE
  8
MUO
 10
-1.220605
 20
0.429605
 30
0.0
 11
7.119756
 21
8.767352
 31
0.0
  0
LINE
  8
MUO
 10
-2.204897
 20
0.429605
 30
0.0
 11
-2.204897
 21
9.752154
 31
0.0
  0
LINE
  8
MUO
 10
7.119756
 20
0.429605
 30
0.0
 11
-2.204897
 21
0.429605
 31
0.0
  0
LINE
  8
MUO
 10
7.119756
 20
9.752154
 30
0.0
 11
7.119756
 21
0.429605
 31
0.0
  0
LINE
  8
MUO
 10
-2.204897
 20
9.752154
 30
0.0
 11
7.119756
 21
9.752154
 31
0.0
  0
TEXT
  8
SWEDEN2
  6
CONTINUOUS
 10
-0.633266
 20
15.55315
 30
0.0
 40
2.0
  1
+
  0
TEXT
  8
SWEDEN2
  6
CONTINUOUS
 10
4.297086
 20
15.577719
 30
0.0
 40
2.0
  1
-
  0
ENDBLK
  8
0
  0
BLOCK
  8
0
  2
ABBA3
 70
     0
 10
0.0
 20
0.0
 30
0.0
  3
ABBA3
  0
LINE
  8
PAKSU
 10
0.0
 20
0.0
 30
0.0
 11
0.0
 21
262.5
 31
0.0
  0
LINE
  8
PAKSU
 10
392.0
 20
262.5
 30
0.0
 11
392.0
 21
0.0
 31
0.0
  0
LINE
  8
PAKSU
 10
0.0
 20
0.0
 30
0.0
 11
392.0
 21
0.0
 31
0.0
  0
TEXT
  8
RAAMI
 10
42.0
 20
0.952381
 30
0.0
 40
2.5
  1
C
  7
ROMANS
  0
TEXT
  8
RAAMI
 10
42.0
 20
5.354421
 30
0.0
 40
2.5
  1
B
  7
ROMANS
  0
TEXT
  8
RAAMI
 10
257.169907
 20
1.503784
 30
0.0
 40
3.0
  1
Power
 41
0.8
  7
ROMANS
  0
TEXT
  8
RAAMI
 10
273.0
 20
7.0
 30
0.0
 40
1.4
  1
VAST.OSASTO RESP.DEPT.
  7
ROMANS
  0
TEXT
  8
RAAMI
 10
210.0
 20
32.0
 30
0.0
 40
1.4
  1
TEKI  PREPARED
  7
ROMANS
  0
LINE
  8
OHUT
 10
271.0
 20
9.5
 30
0.0
 11
271.0
 21
0.0
 31
0.0
  0
LINE
  8
OHUT
 10
257.0
 20
9.5
 30
0.0
 11
257.0
 21
35.0
 31
0.0
  0
LINE
  8
OHUT
 10
40.5
 20
4.5
 30
0.0
 11
209.0
 21
4.5
 31
0.0
  0
LINE
  8
OHUT
 10
46.5
 20
0.0
 30
0.0
 11
46.5
 21
9.0
 31
0.0
  0
LINE
  8
OHUT
 10
46.5
 20
9.0
 30
0.0
 11
209.0
 21
9.0
 31
0.0
  0
TEXT
  8
RAAMI
 10
27.5
 20
2.233333
 30
0.0
 40
1.4
  1
REVISION
  7
ROMANS
  0
TEXT
  8
RAAMI
 10
27.5
 20
4.5
 30
0.0
 40
1.4
  1
MUUTOS
  7
ROMANS
  0
LINE
  8
OHUT
 10
282.0
 20
9.5
 30
0.0
 11
282.0
 21
18.0
 31
0.0
  0
TEXT
  8
RAAMI
 10
237.5
 20
1.5
 30
0.0
 40
3.0
  1
Strömberg
 41
0.8
  7
ROMANS
  0
TEXT
  8
RAAMI
 10
229.5
 20
1.5
 30
0.0
 40
3.0
  1
ABB 
 41
0.8
  7
ROMANS
  0
LINE
  8
RAAMI
 10
222.9
 20
1.5
 30
0.0
 11
222.9
 21
4.86
 31
0.0
  0
LINE
  8
RAAMI
 10
222.9
 20
8.5
 30
0.0
 11
224.86
 21
8.5
 31
0.0
  0
LINE
  8
RAAMI
 10
224.86
 20
8.5
 30
0.0
 11
224.86
 21
5.14
 31
0.0
  0
LINE
  8
RAAMI
 10
224.86
 20
5.14
 30
0.0
 11
222.9
 21
5.14
 31
0.0
  0
LINE
  8
RAAMI
 10
222.9
 20
4.86
 30
0.0
 11
224.86
 21
4.86
 31
0.0
  0
LINE
  8
RAAMI
 10
224.86
 20
4.86
 30
0.0
 11
224.86
 21
1.5
 31
0.0
  0
LINE
  8
RAAMI
 10
224.86
 20
1.5
 30
0.0
 11
222.9
 21
1.5
 31
0.0
  0
LINE
  8
RAAMI
 10
222.9
 20
5.14
 30
0.0
 11
222.9
 21
8.5
 31
0.0
  0
ARC
  8
RAAMI
 10
225.7
 20
6.925
 30
0.0
 40
1.575
 50
298.455859
 51
90.052437
  0
LINE
  8
RAAMI
 10
225.14
 20
8.5
 30
0.0
 11
225.698559
 21
8.499999
 31
0.0
  0
LINE
  8
RAAMI
 10
225.14
 20
8.5
 30
0.0
 11
225.14
 21
5.14
 31
0.0
  0
LINE
  8
RAAMI
 10
225.14
 20
5.14
 30
0.0
 11
227.124443
 21
5.14
 31
0.0
  0
LINE
  8
RAAMI
 10
227.38
 20
4.86
 30
0.0
 11
225.14
 21
4.86
 31
0.0
  0
LINE
  8
RAAMI
 10
225.14
 20
4.86
 30
0.0
 11
225.14
 21
1.5
 31
0.0
  0
ARC
  8
RAAMI
 10
225.7
 20
3.6
 30
0.0
 40
2.1
 50
269.937724
 51
37.056553
  0
LINE
  8
RAAMI
 10
225.14
 20
1.5
 30
0.0
 11
225.697717
 21
1.500001
 31
0.0
  0
ARC
  8
RAAMI
 10
225.7
 20
3.6
 30
0.0
 40
2.1
 50
47.28622
 51
68.787999
  0
INSERT
  8
RAAMI
  2
*X14
 10
215.41
 20
1.5
 30
0.0
 41
0.7
 42
0.7
 43
0.7
  0
INSERT
  8
RAAMI
  2
*X15
 10
215.41
 20
1.5
 30
0.0
 41
0.7
 42
0.7
 43
0.7
  0
INSERT
  8
RAAMI
  2
*X16
 10
215.41
 20
1.5
 30
0.0
 41
0.7
 42
0.7
 43
0.7
  0
INSERT
  8
RAAMI
  2
*X17
 10
215.41
 20
1.5
 30
0.0
 41
0.7
 42
0.7
 43
0.7
  0
INSERT
  8
RAAMI
  2
*X17
 10
209.95
 20
1.5
 30
0.0
 41
0.7
 42
0.7
 43
0.7
  0
INSERT
  8
RAAMI
  2
*X16
 10
209.95
 20
1.5
 30
0.0
 41
0.7
 42
0.7
 43
0.7
  0
INSERT
  8
RAAMI
  2
*X15
 10
209.95
 20
1.5
 30
0.0
 41
0.7
 42
0.7
 43
0.7
  0
INSERT
  8
RAAMI
  2
*X14
 10
209.95
 20
1.5
 30
0.0
 41
0.7
 42
0.7
 43
0.7
  0
ARC
  8
RAAMI
 10
220.24
 20
3.6
 30
0.0
 40
2.1
 50
47.28622
 51
68.787999
  0
LINE
  8
RAAMI
 10
219.68
 20
1.5
 30
0.0
 11
220.237717
 21
1.500001
 31
0.0
  0
ARC
  8
RAAMI
 10
220.24
 20
3.6
 30
0.0
 40
2.1
 50
269.937724
 51
37.056553
  0
LINE
  8
RAAMI
 10
219.68
 20
4.86
 30
0.0
 11
219.68
 21
1.5
 31
0.0
  0
LINE
  8
RAAMI
 10
221.92
 20
4.86
 30
0.0
 11
219.68
 21
4.86
 31
0.0
  0
LINE
  8
RAAMI
 10
219.68
 20
5.14
 30
0.0
 11
221.664443
 21
5.14
 31
0.0
  0
LINE
  8
RAAMI
 10
219.68
 20
8.5
 30
0.0
 11
219.68
 21
5.14
 31
0.0
  0
LINE
  8
RAAMI
 10
219.68
 20
8.5
 30
0.0
 11
220.238559
 21
8.499999
 31
0.0
  0
ARC
  8
RAAMI
 10
220.24
 20
6.925
 30
0.0
 40
1.575
 50
298.455859
 51
90.052437
  0
LINE
  8
RAAMI
 10
217.44
 20
5.14
 30
0.0
 11
217.44
 21
8.5
 31
0.0
  0
LINE
  8
RAAMI
 10
219.4
 20
1.5
 30
0.0
 11
217.44
 21
1.5
 31
0.0
  0
LINE
  8
RAAMI
 10
219.4
 20
4.86
 30
0.0
 11
219.4
 21
1.5
 31
0.0
  0
LINE
  8
RAAMI
 10
217.44
 20
4.86
 30
0.0
 11
219.4
 21
4.86
 31
0.0
  0
LINE
  8
RAAMI
 10
219.4
 20
5.14
 30
0.0
 11
217.44
 21
5.14
 31
0.0
  0
LINE
  8
RAAMI
 10
219.4
 20
8.5
 30
0.0
 11
219.4
 21
5.14
 31
0.0
  0
LINE
  8
RAAMI
 10
217.44
 20
8.5
 30
0.0
 11
219.4
 21
8.5
 31
0.0
  0
LINE
  8
RAAMI
 10
217.44
 20
1.5
 30
0.0
 11
217.44
 21
4.86
 31
0.0
  0
INSERT
  8
RAAMI
  2
*X13
 10
209.95
 20
1.5
 30
0.0
 41
0.7
 42
0.7
 43
0.7
  0
INSERT
  8
RAAMI
  2
*X12
 10
209.95
 20
1.5
 30
0.0
 41
0.7
 42
0.7
 43
0.7
  0
INSERT
  8
RAAMI
  2
*X11
 10
209.95
 20
1.5
 30
0.0
 41
0.7
 42
0.7
 43
0.7
  0
INSERT
  8
RAAMI
  2
*X10
 10
209.95
 20
1.5
 30
0.0
 41
0.7
 42
0.7
 43
0.7
  0
LINE
  8
RAAMI
 10
211.119889
 20
4.842539
 30
0.0
 11
209.95
 21
1.5
 31
0.0
  0
LINE
  8
RAAMI
 10
213.31
 20
4.86
 30
0.0
 11
213.31
 21
2.9
 31
0.0
  0
LINE
  8
RAAMI
 10
213.59
 20
4.86
 30
0.0
 11
213.59
 21
2.9
 31
0.0
  0
LINE
  8
RAAMI
 10
213.59
 20
4.86
 30
0.0
 11
215.773257
 21
4.86
 31
0.0
  0
LINE
  8
RAAMI
 10
213.59
 20
5.14
 30
0.0
 11
215.675114
 21
5.14
 31
0.0
  0
LINE
  8
RAAMI
 10
215.774492
 20
4.858595
 30
0.0
 11
216.95
 21
1.5
 31
0.0
  0
LINE
  8
RAAMI
 10
211.122982
 20
4.86
 30
0.0
 11
213.31
 21
4.86
 31
0.0
  0
LINE
  8
RAAMI
 10
211.221941
 20
5.14
 30
0.0
 11
213.31
 21
5.14
 31
0.0
  0
LINE
  8
RAAMI
 10
213.31
 20
8.5
 30
0.0
 11
212.4
 21
8.5
 31
0.0
  0
LINE
  8
RAAMI
 10
213.59
 20
2.9
 30
0.0
 11
214.709893
 21
2.9
 31
0.0
  0
LINE
  8
RAAMI
 10
213.59
 20
8.5
 30
0.0
 11
213.59
 21
5.14
 31
0.0
  0
LINE
  8
RAAMI
 10
213.31
 20
8.5
 30
0.0
 11
213.31
 21
5.14
 31
0.0
  0
LINE
  8
RAAMI
 10
214.5
 20
8.5
 30
0.0
 11
213.59
 21
8.5
 31
0.0
  0
LINE
  8
RAAMI
 10
214.711098
 20
2.896864
 30
0.0
 11
215.2
 21
1.5
 31
0.0
  0
LINE
  8
RAAMI
 10
214.5
 20
8.5
 30
0.0
 11
215.676353
 21
5.138992
 31
0.0
  0
LINE
  8
RAAMI
 10
212.18879
 20
2.896543
 30
0.0
 11
211.7
 21
1.5
 31
0.0
  0
LINE
  8
RAAMI
 10
212.188787
 20
2.9
 30
0.0
 11
213.31
 21
2.9
 31
0.0
  0
LINE
  8
RAAMI
 10
212.4
 20
8.5
 30
0.0
 11
211.222472
 21
5.135635
 31
0.0
  0
LINE
  8
RAAMI
 10
215.2
 20
1.5
 30
0.0
 11
216.95
 21
1.5
 31
0.0
  0
LINE
  8
RAAMI
 10
209.95
 20
1.5
 30
0.0
 11
211.7
 21
1.5
 31
0.0
  0
LINE
  8
OHUT
 10
369.5
 20
9.5
 30
0.0
 11
369.5
 21
0.0
 31
0.0
  0
TEXT
  8
RAAMI
 10
371.0
 20
7.0
 30
0.0
 40
1.4
  1
PAINOS  REVISION
  7
ROMANS
  0
LINE
  8
OHUT
 10
349.5
 20
9.5
 30
0.0
 11
349.5
 21
18.0
 31
0.0
  0
TEXT
  8
RAAMI
 10
309.0
 20
7.0
 30
0.0
 40
1.4
  1
PIIRUSTUS NO  DRAWING NR
  7
ROMANS
  0
TEXT
  8
RAAMI
 10
351.5
 20
15.5
 30
0.0
 40
1.4
  1
JAKELU  DISTRIBUTION
  7
ROMANS
  0
TEXT
  8
RAAMI
 10
309.0
 20
15.5
 30
0.0
 40
1.4
  1
KOODI  CODE
  7
ROMANS
  0
TEXT
  8
RAAMI
 10
309.0
 20
32.5
 30
0.0
 40
1.4
  1
NIMITYS  NAME
  7
ROMANS
  0
TEXT
  8
RAAMI
 10
283.5
 20
15.0
 30
0.0
 40
1.4
  1
PROJ
  7
ROMANS
  0
TEXT
  8
RAAMI
 10
259.0
 20
15.5
 30
0.0
 40
1.4
  1
SUHDE  SCALE
  7
ROMANS
  0
TEXT
  8
RAAMI
 10
259.0
 20
23.5
 30
0.0
 40
1.4
  1
TOLERANSSIT  TOLERANCES
  7
ROMANS
  0
TEXT
  8
RAAMI
 10
259.0
 20
32.5
 30
0.0
 40
1.4
  1
LIITTYY  CONCERNING
  7
ROMANS
  0
LINE
  8
OHUT
 10
307.0
 20
0.0
 30
0.0
 11
307.0
 21
35.0
 31
0.0
  0
TEXT
  8
RAAMI
 10
209.742835
 20
15.466667
 30
0.0
 40
1.4
  1
HYVÄKSYI  APPROVED
  7
ROMANS
  0
TEXT
  8
RAAMI
 10
210.0
 20
23.733333
 30
0.0
 40
1.4
  1
TARKASTI  CHECKED
  7
ROMANS
  0
LINE
  8
PAKSU
 10
209.0
 20
35.0
 30
0.0
 11
392.0
 21
35.0
 31
0.0
  0
LINE
  8
OHUT
 10
209.0
 20
26.5
 30
0.0
 11
307.0
 21
26.5
 31
0.0
  0
LINE
  8
OHUT
 10
209.0
 20
9.5
 30
0.0
 11
392.0
 21
9.5
 31
0.0
  0
LINE
  8
OHUT
 10
209.0
 20
18.0
 30
0.0
 11
392.0
 21
18.0
 31
0.0
  0
LINE
  8
PAKSU
 10
392.0
 20
0.0
 30
0.0
 11
392.0
 21
35.0
 31
0.0
  0
LINE
  8
PAKSU
 10
209.0
 20
0.0
 30
0.0
 11
209.0
 21
35.0
 31
0.0
  0
LINE
  8
RAAMI
 10
291.043267
 20
12.19521
 30
0.0
 11
296.053761
 21
11.040875
 31
0.0
  0
LINE
  8
RAAMI
 10
296.053761
 20
15.658214
 30
0.0
 11
291.043267
 21
14.388446
 31
0.0
  0
LINE
  8
RAAMI
 10
296.053761
 20
11.040875
 30
0.0
 11
296.053761
 21
15.658214
 31
0.0
  0
LINE
  8
RAAMI
 10
291.043267
 20
14.388446
 30
0.0
 11
291.043267
 21
12.19521
 31
0.0
  0
CIRCLE
  8
RAAMI
 10
301.462194
 20
13.405639
 30
0.0
 40
1.114665
  0
CIRCLE
  8
RAAMI
 10
301.462194
 20
13.405639
 30
0.0
 40
2.343654
  0
LINE
  8
PAKSU
 10
209.0
 20
0.0
 30
0.0
 11
392.0
 21
0.0
 31
0.0
  0
LINE
  8
RAAMI
 10
18.0
 20
0.0
 30
0.0
 11
0.0
 21
0.0
 31
0.0
  0
LINE
  8
PAKSU
 10
0.0
 20
262.5
 30
0.0
 11
392.0
 21
262.5
 31
0.0
  0
ENDBLK
  8
0
  0
BLOCK
  8
0
  2
*X10
 70
    65
 10
0.0
 20
0.0
 30
0.0
  3
*X
  0
LINE
  8
0
 62
     0
 10
2.284499
 20
6.52714
 30
0.0
 11
4.8
 21
9.042641
 31
0.0
  0
LINE
  8
0
 62
     0
 10
2.379686
 20
6.799104
 30
0.0
 11
4.8
 21
9.219417
 31
0.0
  0
LINE
  8
0
 62
     0
 10
2.474874
 20
7.071068
 30
0.0
 11
4.8
 21
9.396194
 31
0.0
  0
LINE
  8
0
 62
     0
 10
2.570061
 20
7.343032
 30
0.0
 11
4.8
 21
9.572971
 31
0.0
  0
LINE
  8
0
 62
     0
 10
2.665249
 20
7.614996
 30
0.0
 11
4.8
 21
9.749747
 31
0.0
  0
LINE
  8
0
 62
     0
 10
2.760436
 20
7.88696
 30
0.0
 11
4.8
 21
9.926524
 31
0.0
  0
LINE
  8
0
 62
     0
 10
2.855624
 20
8.158924
 30
0.0
 11
4.696699
 21
10.0
 31
0.0
  0
LINE
  8
0
 62
     0
 10
2.950811
 20
8.430889
 30
0.0
 11
4.519922
 21
10.0
 31
0.0
  0
LINE
  8
0
 62
     0
 10
3.045998
 20
8.702853
 30
0.0
 11
4.343146
 21
10.0
 31
0.0
  0
LINE
  8
0
 62
     0
 10
3.141186
 20
8.974817
 30
0.0
 11
4.166369
 21
10.0
 31
0.0
  0
LINE
  8
0
 62
     0
 10
3.236373
 20
9.246781
 30
0.0
 11
3.989592
 21
10.0
 31
0.0
  0
LINE
  8
0
 62
     0
 10
3.331561
 20
9.518745
 30
0.0
 11
3.812816
 21
10.0
 31
0.0
  0
LINE
  8
0
 62
     0
 10
3.426748
 20
9.790709
 30
0.0
 11
3.636039
 21
10.0
 31
0.0
  0
LINE
  8
0
 62
     0
 10
2.189311
 20
6.255175
 30
0.0
 11
4.8
 21
8.865864
 31
0.0
  0
LINE
  8
0
 62
     0
 10
2.094124
 20
5.983211
 30
0.0
 11
4.8
 21
8.689087
 31
0.0
  0
LINE
  8
0
 62
     0
 10
1.998936
 20
5.711247
 30
0.0
 11
4.8
 21
8.512311
 31
0.0
  0
LINE
  8
0
 62
     0
 10
1.903749
 20
5.439283
 30
0.0
 11
4.8
 21
8.335534
 31
0.0
  0
LINE
  8
0
 62
     0
 10
1.841243
 20
5.2
 30
0.0
 11
4.8
 21
8.158757
 31
0.0
  0
LINE
  8
0
 62
     0
 10
2.018019
 20
5.2
 30
0.0
 11
4.8
 21
7.981981
 31
0.0
  0
LINE
  8
0
 62
     0
 10
2.194796
 20
5.2
 30
0.0
 11
4.8
 21
7.805204
 31
0.0
  0
LINE
  8
0
 62
     0
 10
2.371573
 20
5.2
 30
0.0
 11
4.8
 21
7.628427
 31
0.0
  0
LINE
  8
0
 62
     0
 10
2.54835
 20
5.2
 30
0.0
 11
4.8
 21
7.45165
 31
0.0
  0
LINE
  8
0
 62
     0
 10
2.725126
 20
5.2
 30
0.0
 11
4.8
 21
7.274874
 31
0.0
  0
LINE
  8
0
 62
     0
 10
2.901903
 20
5.2
 30
0.0
 11
4.8
 21
7.098097
 31
0.0
  0
LINE
  8
0
 62
     0
 10
3.07868
 20
5.2
 30
0.0
 11
4.8
 21
6.92132
 31
0.0
  0
LINE
  8
0
 62
     0
 10
3.255456
 20
5.2
 30
0.0
 11
4.8
 21
6.744544
 31
0.0
  0
LINE
  8
0
 62
     0
 10
3.432233
 20
5.2
 30
0.0
 11
4.8
 21
6.567767
 31
0.0
  0
LINE
  8
0
 62
     0
 10
3.60901
 20
5.2
 30
0.0
 11
4.8
 21
6.39099
 31
0.0
  0
LINE
  8
0
 62
     0
 10
3.785786
 20
5.2
 30
0.0
 11
4.8
 21
6.214214
 31
0.0
  0
LINE
  8
0
 62
     0
 10
3.962563
 20
5.2
 30
0.0
 11
4.8
 21
6.037437
 31
0.0
  0
LINE
  8
0
 62
     0
 10
4.13934
 20
5.2
 30
0.0
 11
4.8
 21
5.86066
 31
0.0
  0
LINE
  8
0
 62
     0
 10
4.316117
 20
5.2
 30
0.0
 11
4.8
 21
5.683883
 31
0.0
  0
LINE
  8
0
 62
     0
 10
4.492893
 20
5.2
 30
0.0
 11
4.8
 21
5.507107
 31
0.0
  0
LINE
  8
0
 62
     0
 10
4.66967
 20
5.2
 30
0.0
 11
4.8
 21
5.33033
 31
0.0
  0
ENDBLK
  8
0
  0
BLOCK
  8
0
  2
*X11
 70
    65
 10
0.0
 20
0.0
 30
0.0
  3
*X
  0
LINE
  8
0
 62
     0
 10
5.2
 20
6.083883
 30
0.0
 11
7.178252
 21
8.062136
 31
0.0
  0
LINE
  8
0
 62
     0
 10
5.2
 20
6.26066
 30
0.0
 11
7.132421
 21
8.193082
 31
0.0
  0
LINE
  8
0
 62
     0
 10
5.2
 20
6.437437
 30
0.0
 11
7.08659
 21
8.324027
 31
0.0
  0
LINE
  8
0
 62
     0
 10
5.2
 20
6.614214
 30
0.0
 11
7.040759
 21
8.454973
 31
0.0
  0
LINE
  8
0
 62
     0
 10
5.2
 20
6.79099
 30
0.0
 11
6.994928
 21
8.585919
 31
0.0
  0
LINE
  8
0
 62
     0
 10
5.2
 20
6.967767
 30
0.0
 11
6.949097
 21
8.716864
 31
0.0
  0
LINE
  8
0
 62
     0
 10
5.2
 20
7.144544
 30
0.0
 11
6.903266
 21
8.84781
 31
0.0
  0
LINE
  8
0
 62
     0
 10
5.2
 20
7.32132
 30
0.0
 11
6.857435
 21
8.978756
 31
0.0
  0
LINE
  8
0
 62
     0
 10
5.2
 20
7.498097
 30
0.0
 11
6.811604
 21
9.109702
 31
0.0
  0
LINE
  8
0
 62
     0
 10
5.2
 20
7.674874
 30
0.0
 11
6.765773
 21
9.240647
 31
0.0
  0
LINE
  8
0
 62
     0
 10
5.2
 20
7.85165
 30
0.0
 11
6.719942
 21
9.371593
 31
0.0
  0
LINE
  8
0
 62
     0
 10
5.2
 20
8.028427
 30
0.0
 11
6.674111
 21
9.502539
 31
0.0
  0
LINE
  8
0
 62
     0
 10
5.2
 20
8.205204
 30
0.0
 11
6.62828
 21
9.633484
 31
0.0
  0
LINE
  8
0
 62
     0
 10
5.2
 20
8.381981
 30
0.0
 11
6.582449
 21
9.76443
 31
0.0
  0
LINE
  8
0
 62
     0
 10
5.2
 20
8.558757
 30
0.0
 11
6.536619
 21
9.895376
 31
0.0
  0
LINE
  8
0
 62
     0
 10
5.2
 20
8.735534
 30
0.0
 11
6.464466
 21
10.0
 31
0.0
  0
LINE
  8
0
 62
     0
 10
5.2
 20
8.912311
 30
0.0
 11
6.287689
 21
10.0
 31
0.0
  0
LINE
  8
0
 62
     0
 10
5.2
 20
9.089087
 30
0.0
 11
6.110913
 21
10.0
 31
0.0
  0
LINE
  8
0
 62
     0
 10
5.2
 20
9.265864
 30
0.0
 11
5.934136
 21
10.0
 31
0.0
  0
LINE
  8
0
 62
     0
 10
5.2
 20
9.442641
 30
0.0
 11
5.757359
 21
10.0
 31
0.0
  0
LINE
  8
0
 62
     0
 10
5.2
 20
9.619417
 30
0.0
 11
5.580583
 21
10.0
 31
0.0
  0
LINE
  8
0
 62
     0
 10
5.2
 20
9.796194
 30
0.0
 11
5.403806
 21
10.0
 31
0.0
  0
LINE
  8
0
 62
     0
 10
5.2
 20
9.972971
 30
0.0
 11
5.227029
 21
10.0
 31
0.0
  0
LINE
  8
0
 62
     0
 10
5.2
 20
5.907107
 30
0.0
 11
7.224083
 21
7.93119
 31
0.0
  0
LINE
  8
0
 62
     0
 10
5.2
 20
5.73033
 30
0.0
 11
7.269914
 21
7.800245
 31
0.0
  0
LINE
  8
0
 62
     0
 10
5.2
 20
5.553553
 30
0.0
 11
7.315745
 21
7.669299
 31
0.0
  0
LINE
  8
0
 62
     0
 10
5.2
 20
5.376777
 30
0.0
 11
7.361576
 21
7.538353
 31
0.0
  0
LINE
  8
0
 62
     0
 10
5.2
 20
5.2
 30
0.0
 11
7.407407
 21
7.407407
 31
0.0
  0
LINE
  8
0
 62
     0
 10
5.376777
 20
5.2
 30
0.0
 11
7.453238
 21
7.276462
 31
0.0
  0
LINE
  8
0
 62
     0
 10
5.553553
 20
5.2
 30
0.0
 11
7.499069
 21
7.145516
 31
0.0
  0
LINE
  8
0
 62
     0
 10
5.73033
 20
5.2
 30
0.0
 11
7.5449
 21
7.01457
 31
0.0
  0
LINE
  8
0
 62
     0
 10
5.907107
 20
5.2
 30
0.0
 11
7.590731
 21
6.883625
 31
0.0
  0
LINE
  8
0
 62
     0
 10
6.083883
 20
5.2
 30
0.0
 11
7.636562
 21
6.752679
 31
0.0
  0
LINE
  8
0
 62
     0
 10
6.26066
 20
5.2
 30
0.0
 11
7.682393
 21
6.621733
 31
0.0
  0
LINE
  8
0
 62
     0
 10
6.437437
 20
5.2
 30
0.0
 11
7.728224
 21
6.490788
 31
0.0
  0
LINE
  8
0
 62
     0
 10
6.614214
 20
5.2
 30
0.0
 11
7.774055
 21
6.359842
 31
0.0
  0
LINE
  8
0
 62
     0
 10
6.79099
 20
5.2
 30
0.0
 11
7.819886
 21
6.228896
 31
0.0
  0
LINE
  8
0
 62
     0
 10
6.967767
 20
5.2
 30
0.0
 11
7.865717
 21
6.09795
 31
0.0
  0
LINE
  8
0
 62
     0
 10
7.144544
 20
5.2
 30
0.0
 11
7.911548
 21
5.967005
 31
0.0
  0
LINE
  8
0
 62
     0
 10
7.32132
 20
5.2
 30
0.0
 11
7.957379
 21
5.836059
 31
0.0
  0
LINE
  8
0
 62
     0
 10
7.498097
 20
5.2
 30
0.0
 11
8.00321
 21
5.705113
 31
0.0
  0
LINE
  8
0
 62
     0
 10
7.674874
 20
5.2
 30
0.0
 11
8.049041
 21
5.574168
 31
0.0
  0
LINE
  8
0
 62
     0
 10
7.85165
 20
5.2
 30
0.0
 11
8.094872
 21
5.443222
 31
0.0
  0
LINE
  8
0
 62
     0
 10
8.028427
 20
5.2
 30
0.0
 11
8.140703
 21
5.312276
 31
0.0
  0
ENDBLK
  8
0
  0
BLOCK
  8
0
  2
*X12
 70
    65
 10
0.0
 20
0.0
 30
0.0
  3
*X
  0
LINE
  8
0
 62
     0
 10
0.0
 20
0.0
 30
0.0
 11
4.8
 21
4.8
 31
0.0
  0
LINE
  8
0
 62
     0
 10
0.095187
 20
0.271964
 30
0.0
 11
4.623223
 21
4.8
 31
0.0
  0
LINE
  8
0
 62
     0
 10
0.190375
 20
0.543928
 30
0.0
 11
4.446447
 21
4.8
 31
0.0
  0
LINE
  8
0
 62
     0
 10
0.285562
 20
0.815892
 30
0.0
 11
4.26967
 21
4.8
 31
0.0
  0
LINE
  8
0
 62
     0
 10
0.38075
 20
1.087857
 30
0.0
 11
4.092893
 21
4.8
 31
0.0
  0
LINE
  8
0
 62
     0
 10
0.475937
 20
1.359821
 30
0.0
 11
3.916117
 21
4.8
 31
0.0
  0
LINE
  8
0
 62
     0
 10
0.571125
 20
1.631785
 30
0.0
 11
3.73934
 21
4.8
 31
0.0
  0
LINE
  8
0
 62
     0
 10
0.666312
 20
1.903749
 30
0.0
 11
3.562563
 21
4.8
 31
0.0
  0
LINE
  8
0
 62
     0
 10
0.7615
 20
2.175713
 30
0.0
 11
3.385786
 21
4.8
 31
0.0
  0
LINE
  8
0
 62
     0
 10
0.856687
 20
2.447677
 30
0.0
 11
3.20901
 21
4.8
 31
0.0
  0
LINE
  8
0
 62
     0
 10
0.951875
 20
2.719641
 30
0.0
 11
3.032233
 21
4.8
 31
0.0
  0
LINE
  8
0
 62
     0
 10
1.047062
 20
2.991606
 30
0.0
 11
2.855456
 21
4.8
 31
0.0
  0
LINE
  8
0
 62
     0
 10
1.142249
 20
3.26357
 30
0.0
 11
2.67868
 21
4.8
 31
0.0
  0
LINE
  8
0
 62
     0
 10
1.237437
 20
3.535534
 30
0.0
 11
2.501903
 21
4.8
 31
0.0
  0
LINE
  8
0
 62
     0
 10
1.332624
 20
3.807498
 30
0.0
 11
2.325126
 21
4.8
 31
0.0
  0
LINE
  8
0
 62
     0
 10
1.427812
 20
4.079462
 30
0.0
 11
2.14835
 21
4.8
 31
0.0
  0
LINE
  8
0
 62
     0
 10
1.522999
 20
4.351426
 30
0.0
 11
1.971573
 21
4.8
 31
0.0
  0
LINE
  8
0
 62
     0
 10
1.618187
 20
4.62339
 30
0.0
 11
1.794796
 21
4.8
 31
0.0
  0
LINE
  8
0
 62
     0
 10
0.176777
 20
0.0
 30
0.0
 11
4.8
 21
4.623223
 31
0.0
  0
LINE
  8
0
 62
     0
 10
0.353553
 20
0.0
 30
0.0
 11
4.8
 21
4.446447
 31
0.0
  0
LINE
  8
0
 62
     0
 10
0.53033
 20
0.0
 30
0.0
 11
4.8
 21
4.26967
 31
0.0
  0
LINE
  8
0
 62
     0
 10
0.707107
 20
0.0
 30
0.0
 11
4.8
 21
4.092893
 31
0.0
  0
LINE
  8
0
 62
     0
 10
0.883883
 20
0.0
 30
0.0
 11
4.8
 21
3.916117
 31
0.0
  0
LINE
  8
0
 62
     0
 10
1.06066
 20
0.0
 30
0.0
 11
4.8
 21
3.73934
 31
0.0
  0
LINE
  8
0
 62
     0
 10
1.237437
 20
0.0
 30
0.0
 11
3.179842
 21
1.942405
 31
0.0
  0
LINE
  8
0
 62
     0
 10
3.237437
 20
2.0
 30
0.0
 11
4.8
 21
3.562563
 31
0.0
  0
LINE
  8
0
 62
     0
 10
1.414214
 20
0.0
 30
0.0
 11
3.084654
 21
1.670441
 31
0.0
  0
LINE
  8
0
 62
     0
 10
3.414214
 20
2.0
 30
0.0
 11
4.8
 21
3.385786
 31
0.0
  0
LINE
  8
0
 62
     0
 10
1.59099
 20
0.0
 30
0.0
 11
2.989467
 21
1.398477
 31
0.0
  0
LINE
  8
0
 62
     0
 10
3.59099
 20
2.0
 30
0.0
 11
4.8
 21
3.20901
 31
0.0
  0
LINE
  8
0
 62
     0
 10
1.767767
 20
0.0
 30
0.0
 11
2.894279
 21
1.126512
 31
0.0
  0
LINE
  8
0
 62
     0
 10
3.767767
 20
2.0
 30
0.0
 11
4.8
 21
3.032233
 31
0.0
  0
LINE
  8
0
 62
     0
 10
1.944544
 20
0.0
 30
0.0
 11
2.799092
 21
0.854548
 31
0.0
  0
LINE
  8
0
 62
     0
 10
3.944544
 20
2.0
 30
0.0
 11
4.8
 21
2.855456
 31
0.0
  0
LINE
  8
0
 62
     0
 10
2.12132
 20
0.0
 30
0.0
 11
2.703904
 21
0.582584
 31
0.0
  0
LINE
  8
0
 62
     0
 10
4.12132
 20
2.0
 30
0.0
 11
4.8
 21
2.67868
 31
0.0
  0
LINE
  8
0
 62
     0
 10
2.298097
 20
0.0
 30
0.0
 11
2.608717
 21
0.31062
 31
0.0
  0
LINE
  8
0
 62
     0
 10
4.298097
 20
2.0
 30
0.0
 11
4.8
 21
2.501903
 31
0.0
  0
LINE
  8
0
 62
     0
 10
2.474874
 20
0.0
 30
0.0
 11
2.51353
 21
0.038656
 31
0.0
  0
LINE
  8
0
 62
     0
 10
4.474874
 20
2.0
 30
0.0
 11
4.8
 21
2.325126
 31
0.0
  0
LINE
  8
0
 62
     0
 10
4.65165
 20
2.0
 30
0.0
 11
4.8
 21
2.14835
 31
0.0
  0
ENDBLK
  8
0
  0
BLOCK
  8
0
  2
*X13
 70
    65
 10
0.0
 20
0.0
 30
0.0
  3
*X
  0
LINE
  8
0
 62
     0
 10
6.884654
 20
1.75813
 30
0.0
 11
8.736506
 21
3.609982
 31
0.0
  0
LINE
  8
0
 62
     0
 10
6.838823
 20
1.889076
 30
0.0
 11
8.690675
 21
3.740928
 31
0.0
  0
LINE
  8
0
 62
     0
 10
6.772971
 20
2.0
 30
0.0
 11
8.644844
 21
3.871874
 31
0.0
  0
LINE
  8
0
 62
     0
 10
6.596194
 20
2.0
 30
0.0
 11
8.599013
 21
4.002819
 31
0.0
  0
LINE
  8
0
 62
     0
 10
6.419417
 20
2.0
 30
0.0
 11
8.553182
 21
4.133765
 31
0.0
  0
LINE
  8
0
 62
     0
 10
6.242641
 20
2.0
 30
0.0
 11
8.507351
 21
4.264711
 31
0.0
  0
LINE
  8
0
 62
     0
 10
6.065864
 20
2.0
 30
0.0
 11
8.46152
 21
4.395656
 31
0.0
  0
LINE
  8
0
 62
     0
 10
5.889087
 20
2.0
 30
0.0
 11
8.415689
 21
4.526602
 31
0.0
  0
LINE
  8
0
 62
     0
 10
5.712311
 20
2.0
 30
0.0
 11
8.369858
 21
4.657548
 31
0.0
  0
LINE
  8
0
 62
     0
 10
5.535534
 20
2.0
 30
0.0
 11
8.324027
 21
4.788493
 31
0.0
  0
LINE
  8
0
 62
     0
 10
5.358757
 20
2.0
 30
0.0
 11
8.158757
 21
4.8
 31
0.0
  0
LINE
  8
0
 62
     0
 10
5.2
 20
2.018019
 30
0.0
 11
7.981981
 21
4.8
 31
0.0
  0
LINE
  8
0
 62
     0
 10
5.2
 20
2.194796
 30
0.0
 11
7.805204
 21
4.8
 31
0.0
  0
LINE
  8
0
 62
     0
 10
5.2
 20
2.371573
 30
0.0
 11
7.628427
 21
4.8
 31
0.0
  0
LINE
  8
0
 62
     0
 10
5.2
 20
2.54835
 30
0.0
 11
7.45165
 21
4.8
 31
0.0
  0
LINE
  8
0
 62
     0
 10
5.2
 20
2.725126
 30
0.0
 11
7.274874
 21
4.8
 31
0.0
  0
LINE
  8
0
 62
     0
 10
5.2
 20
2.901903
 30
0.0
 11
7.098097
 21
4.8
 31
0.0
  0
LINE
  8
0
 62
     0
 10
5.2
 20
3.07868
 30
0.0
 11
6.92132
 21
4.8
 31
0.0
  0
LINE
  8
0
 62
     0
 10
5.2
 20
3.255456
 30
0.0
 11
6.744544
 21
4.8
 31
0.0
  0
LINE
  8
0
 62
     0
 10
5.2
 20
3.432233
 30
0.0
 11
6.567767
 21
4.8
 31
0.0
  0
LINE
  8
0
 62
     0
 10
5.2
 20
3.60901
 30
0.0
 11
6.39099
 21
4.8
 31
0.0
  0
LINE
  8
0
 62
     0
 10
5.2
 20
3.785786
 30
0.0
 11
6.214214
 21
4.8
 31
0.0
  0
LINE
  8
0
 62
     0
 10
5.2
 20
3.962563
 30
0.0
 11
6.037437
 21
4.8
 31
0.0
  0
LINE
  8
0
 62
     0
 10
5.2
 20
4.13934
 30
0.0
 11
5.86066
 21
4.8
 31
0.0
  0
LINE
  8
0
 62
     0
 10
5.2
 20
4.316117
 30
0.0
 11
5.683883
 21
4.8
 31
0.0
  0
LINE
  8
0
 62
     0
 10
5.2
 20
4.492893
 30
0.0
 11
5.507107
 21
4.8
 31
0.0
  0
LINE
  8
0
 62
     0
 10
5.2
 20
4.66967
 30
0.0
 11
5.33033
 21
4.8
 31
0.0
  0
LINE
  8
0
 62
     0
 10
6.930485
 20
1.627185
 30
0.0
 11
8.782337
 21
3.479036
 31
0.0
  0
LINE
  8
0
 62
     0
 10
6.976316
 20
1.496239
 30
0.0
 11
8.828168
 21
3.348091
 31
0.0
  0
LINE
  8
0
 62
     0
 10
7.022147
 20
1.365293
 30
0.0
 11
8.873999
 21
3.217145
 31
0.0
  0
LINE
  8
0
 62
     0
 10
7.067978
 20
1.234347
 30
0.0
 11
8.91983
 21
3.086199
 31
0.0
  0
LINE
  8
0
 62
     0
 10
7.113809
 20
1.103402
 30
0.0
 11
8.965661
 21
2.955254
 31
0.0
  0
LINE
  8
0
 62
     0
 10
7.15964
 20
0.972456
 30
0.0
 11
9.011492
 21
2.824308
 31
0.0
  0
LINE
  8
0
 62
     0
 10
7.205471
 20
0.84151
 30
0.0
 11
9.057323
 21
2.693362
 31
0.0
  0
LINE
  8
0
 62
     0
 10
7.251302
 20
0.710565
 30
0.0
 11
9.103154
 21
2.562416
 31
0.0
  0
LINE
  8
0
 62
     0
 10
7.297133
 20
0.579619
 30
0.0
 11
9.148985
 21
2.431471
 31
0.0
  0
LINE
  8
0
 62
     0
 10
7.342964
 20
0.448673
 30
0.0
 11
9.194816
 21
2.300525
 31
0.0
  0
LINE
  8
0
 62
     0
 10
7.388795
 20
0.317728
 30
0.0
 11
9.240647
 21
2.169579
 31
0.0
  0
LINE
  8
0
 62
     0
 10
7.434626
 20
0.186782
 30
0.0
 11
9.286478
 21
2.038634
 31
0.0
  0
LINE
  8
0
 62
     0
 10
7.480457
 20
0.055836
 30
0.0
 11
9.332309
 21
1.907688
 31
0.0
  0
LINE
  8
0
 62
     0
 10
7.601398
 20
0.0
 30
0.0
 11
9.37814
 21
1.776742
 31
0.0
  0
LINE
  8
0
 62
     0
 10
7.778175
 20
0.0
 30
0.0
 11
9.423971
 21
1.645797
 31
0.0
  0
LINE
  8
0
 62
     0
 10
7.954951
 20
0.0
 30
0.0
 11
9.469802
 21
1.514851
 31
0.0
  0
LINE
  8
0
 62
     0
 10
8.131728
 20
0.0
 30
0.0
 11
9.515633
 21
1.383905
 31
0.0
  0
LINE
  8
0
 62
     0
 10
8.308505
 20
0.0
 30
0.0
 11
9.561464
 21
1.252959
 31
0.0
  0
LINE
  8
0
 62
     0
 10
8.485281
 20
0.0
 30
0.0
 11
9.607295
 21
1.122014
 31
0.0
  0
LINE
  8
0
 62
     0
 10
8.662058
 20
0.0
 30
0.0
 11
9.653126
 21
0.991068
 31
0.0
  0
LINE
  8
0
 62
     0
 10
8.838835
 20
0.0
 30
0.0
 11
9.698957
 21
0.860122
 31
0.0
  0
LINE
  8
0
 62
     0
 10
9.015611
 20
0.0
 30
0.0
 11
9.744788
 21
0.729177
 31
0.0
  0
LINE
  8
0
 62
     0
 10
9.192388
 20
0.0
 30
0.0
 11
9.790619
 21
0.598231
 31
0.0
  0
LINE
  8
0
 62
     0
 10
9.369165
 20
0.0
 30
0.0
 11
9.83645
 21
0.467285
 31
0.0
  0
LINE
  8
0
 62
     0
 10
9.545942
 20
0.0
 30
0.0
 11
9.882281
 21
0.33634
 31
0.0
  0
LINE
  8
0
 62
     0
 10
9.722718
 20
0.0
 30
0.0
 11
9.928112
 21
0.205394
 31
0.0
  0
LINE
  8
0
 62
     0
 10
9.899495
 20
0.0
 30
0.0
 11
9.973943
 21
0.074448
 31
0.0
  0
ENDBLK
  8
0
  0
BLOCK
  8
0
  2
*X14
 70
    65
 10
0.0
 20
0.0
 30
0.0
  3
*X
  0
LINE
  8
0
 62
     0
 10
10.7
 20
6.280583
 30
0.0
 11
13.5
 21
9.080583
 31
0.0
  0
LINE
  8
0
 62
     0
 10
10.7
 20
6.457359
 30
0.0
 11
13.5
 21
9.257359
 31
0.0
  0
LINE
  8
0
 62
     0
 10
10.7
 20
6.634136
 30
0.0
 11
13.5
 21
9.434136
 31
0.0
  0
LINE
  8
0
 62
     0
 10
10.7
 20
6.810913
 30
0.0
 11
13.5
 21
9.610913
 31
0.0
  0
LINE
  8
0
 62
     0
 10
10.7
 20
6.987689
 30
0.0
 11
13.5
 21
9.787689
 31
0.0
  0
LINE
  8
0
 62
     0
 10
10.7
 20
7.164466
 30
0.0
 11
13.5
 21
9.964466
 31
0.0
  0
LINE
  8
0
 62
     0
 10
10.7
 20
7.341243
 30
0.0
 11
13.358757
 21
10.0
 31
0.0
  0
LINE
  8
0
 62
     0
 10
10.7
 20
7.518019
 30
0.0
 11
13.181981
 21
10.0
 31
0.0
  0
LINE
  8
0
 62
     0
 10
10.7
 20
7.694796
 30
0.0
 11
13.005204
 21
10.0
 31
0.0
  0
LINE
  8
0
 62
     0
 10
10.7
 20
7.871573
 30
0.0
 11
12.828427
 21
10.0
 31
0.0
  0
LINE
  8
0
 62
     0
 10
10.7
 20
8.04835
 30
0.0
 11
12.65165
 21
10.0
 31
0.0
  0
LINE
  8
0
 62
     0
 10
10.7
 20
8.225126
 30
0.0
 11
12.474874
 21
10.0
 31
0.0
  0
LINE
  8
0
 62
     0
 10
10.7
 20
8.401903
 30
0.0
 11
12.298097
 21
10.0
 31
0.0
  0
LINE
  8
0
 62
     0
 10
10.7
 20
8.57868
 30
0.0
 11
12.12132
 21
10.0
 31
0.0
  0
LINE
  8
0
 62
     0
 10
10.7
 20
8.755456
 30
0.0
 11
11.944544
 21
10.0
 31
0.0
  0
LINE
  8
0
 62
     0
 10
10.7
 20
8.932233
 30
0.0
 11
11.767767
 21
10.0
 31
0.0
  0
LINE
  8
0
 62
     0
 10
10.7
 20
9.10901
 30
0.0
 11
11.59099
 21
10.0
 31
0.0
  0
LINE
  8
0
 62
     0
 10
10.7
 20
9.285786
 30
0.0
 11
11.414214
 21
10.0
 31
0.0
  0
LINE
  8
0
 62
     0
 10
10.7
 20
9.462563
 30
0.0
 11
11.237437
 21
10.0
 31
0.0
  0
LINE
  8
0
 62
     0
 10
10.7
 20
9.63934
 30
0.0
 11
11.06066
 21
10.0
 31
0.0
  0
LINE
  8
0
 62
     0
 10
10.7
 20
9.816117
 30
0.0
 11
10.883883
 21
10.0
 31
0.0
  0
LINE
  8
0
 62
     0
 10
10.7
 20
9.992893
 30
0.0
 11
10.707107
 21
10.0
 31
0.0
  0
LINE
  8
0
 62
     0
 10
10.7
 20
6.103806
 30
0.0
 11
13.5
 21
8.903806
 31
0.0
  0
LINE
  8
0
 62
     0
 10
10.7
 20
5.927029
 30
0.0
 11
13.5
 21
8.727029
 31
0.0
  0
LINE
  8
0
 62
     0
 10
10.7
 20
5.750253
 30
0.0
 11
13.5
 21
8.550253
 31
0.0
  0
LINE
  8
0
 62
     0
 10
10.7
 20
5.573476
 30
0.0
 11
13.5
 21
8.373476
 31
0.0
  0
LINE
  8
0
 62
     0
 10
10.7
 20
5.396699
 30
0.0
 11
13.5
 21
8.196699
 31
0.0
  0
LINE
  8
0
 62
     0
 10
10.7
 20
5.219922
 30
0.0
 11
13.5
 21
8.019922
 31
0.0
  0
LINE
  8
0
 62
     0
 10
10.856854
 20
5.2
 30
0.0
 11
13.5
 21
7.843146
 31
0.0
  0
LINE
  8
0
 62
     0
 10
11.033631
 20
5.2
 30
0.0
 11
13.5
 21
7.666369
 31
0.0
  0
LINE
  8
0
 62
     0
 10
11.210408
 20
5.2
 30
0.0
 11
13.5
 21
7.489592
 31
0.0
  0
LINE
  8
0
 62
     0
 10
11.387184
 20
5.2
 30
0.0
 11
13.5
 21
7.312816
 31
0.0
  0
LINE
  8
0
 62
     0
 10
11.563961
 20
5.2
 30
0.0
 11
13.5
 21
7.136039
 31
0.0
  0
LINE
  8
0
 62
     0
 10
11.740738
 20
5.2
 30
0.0
 11
13.5
 21
6.959262
 31
0.0
  0
LINE
  8
0
 62
     0
 10
11.917514
 20
5.2
 30
0.0
 11
13.5
 21
6.782486
 31
0.0
  0
LINE
  8
0
 62
     0
 10
12.094291
 20
5.2
 30
0.0
 11
13.5
 21
6.605709
 31
0.0
  0
LINE
  8
0
 62
     0
 10
12.271068
 20
5.2
 30
0.0
 11
13.5
 21
6.428932
 31
0.0
  0
LINE
  8
0
 62
     0
 10
12.447845
 20
5.2
 30
0.0
 11
13.5
 21
6.252155
 31
0.0
  0
LINE
  8
0
 62
     0
 10
12.624621
 20
5.2
 30
0.0
 11
13.5
 21
6.075379
 31
0.0
  0
LINE
  8
0
 62
     0
 10
12.801398
 20
5.2
 30
0.0
 11
13.5
 21
5.898602
 31
0.0
  0
LINE
  8
0
 62
     0
 10
12.978175
 20
5.2
 30
0.0
 11
13.5
 21
5.721825
 31
0.0
  0
LINE
  8
0
 62
     0
 10
13.154951
 20
5.2
 30
0.0
 11
13.5
 21
5.545049
 31
0.0
  0
LINE
  8
0
 62
     0
 10
13.331728
 20
5.2
 30
0.0
 11
13.5
 21
5.368272
 31
0.0
  0
ENDBLK
  8
0
  0
BLOCK
  8
0
  2
*X15
 70
    65
 10
0.0
 20
0.0
 30
0.0
  3
*X
  0
LINE
  8
0
 62
     0
 10
10.7
 20
1.154058
 30
0.0
 11
13.5
 21
3.954058
 31
0.0
  0
LINE
  8
0
 62
     0
 10
10.7
 20
1.330835
 30
0.0
 11
13.5
 21
4.130835
 31
0.0
  0
LINE
  8
0
 62
     0
 10
10.7
 20
1.507612
 30
0.0
 11
13.5
 21
4.307612
 31
0.0
  0
LINE
  8
0
 62
     0
 10
10.7
 20
1.684389
 30
0.0
 11
13.5
 21
4.484389
 31
0.0
  0
LINE
  8
0
 62
     0
 10
10.7
 20
1.861165
 30
0.0
 11
13.5
 21
4.661165
 31
0.0
  0
LINE
  8
0
 62
     0
 10
10.7
 20
2.037942
 30
0.0
 11
13.462058
 21
4.8
 31
0.0
  0
LINE
  8
0
 62
     0
 10
10.7
 20
2.214719
 30
0.0
 11
13.285281
 21
4.8
 31
0.0
  0
LINE
  8
0
 62
     0
 10
10.7
 20
2.391495
 30
0.0
 11
13.108505
 21
4.8
 31
0.0
  0
LINE
  8
0
 62
     0
 10
10.7
 20
2.568272
 30
0.0
 11
12.931728
 21
4.8
 31
0.0
  0
LINE
  8
0
 62
     0
 10
10.7
 20
2.745049
 30
0.0
 11
12.754951
 21
4.8
 31
0.0
  0
LINE
  8
0
 62
     0
 10
10.7
 20
2.921825
 30
0.0
 11
12.578175
 21
4.8
 31
0.0
  0
LINE
  8
0
 62
     0
 10
10.7
 20
3.098602
 30
0.0
 11
12.401398
 21
4.8
 31
0.0
  0
LINE
  8
0
 62
     0
 10
10.7
 20
3.275379
 30
0.0
 11
12.224621
 21
4.8
 31
0.0
  0
LINE
  8
0
 62
     0
 10
10.7
 20
3.452155
 30
0.0
 11
12.047845
 21
4.8
 31
0.0
  0
LINE
  8
0
 62
     0
 10
10.7
 20
3.628932
 30
0.0
 11
11.871068
 21
4.8
 31
0.0
  0
LINE
  8
0
 62
     0
 10
10.7
 20
3.805709
 30
0.0
 11
11.694291
 21
4.8
 31
0.0
  0
LINE
  8
0
 62
     0
 10
10.7
 20
3.982486
 30
0.0
 11
11.517514
 21
4.8
 31
0.0
  0
LINE
  8
0
 62
     0
 10
10.7
 20
4.159262
 30
0.0
 11
11.340738
 21
4.8
 31
0.0
  0
LINE
  8
0
 62
     0
 10
10.7
 20
4.336039
 30
0.0
 11
11.163961
 21
4.8
 31
0.0
  0
LINE
  8
0
 62
     0
 10
10.7
 20
4.512816
 30
0.0
 11
10.987184
 21
4.8
 31
0.0
  0
LINE
  8
0
 62
     0
 10
10.7
 20
4.689592
 30
0.0
 11
10.810408
 21
4.8
 31
0.0
  0
LINE
  8
0
 62
     0
 10
10.7
 20
0.977282
 30
0.0
 11
13.5
 21
3.777282
 31
0.0
  0
LINE
  8
0
 62
     0
 10
10.7
 20
0.800505
 30
0.0
 11
13.5
 21
3.600505
 31
0.0
  0
LINE
  8
0
 62
     0
 10
10.7
 20
0.623728
 30
0.0
 11
13.5
 21
3.423728
 31
0.0
  0
LINE
  8
0
 62
     0
 10
10.7
 20
0.446952
 30
0.0
 11
13.5
 21
3.246952
 31
0.0
  0
LINE
  8
0
 62
     0
 10
10.7
 20
0.270175
 30
0.0
 11
13.5
 21
3.070175
 31
0.0
  0
LINE
  8
0
 62
     0
 10
10.7
 20
0.093398
 30
0.0
 11
13.5
 21
2.893398
 31
0.0
  0
LINE
  8
0
 62
     0
 10
10.783378
 20
0.0
 30
0.0
 11
13.5
 21
2.716622
 31
0.0
  0
LINE
  8
0
 62
     0
 10
10.960155
 20
0.0
 30
0.0
 11
13.5
 21
2.539845
 31
0.0
  0
LINE
  8
0
 62
     0
 10
11.136932
 20
0.0
 30
0.0
 11
13.5
 21
2.363068
 31
0.0
  0
LINE
  8
0
 62
     0
 10
11.313708
 20
0.0
 30
0.0
 11
13.5
 21
2.186292
 31
0.0
  0
LINE
  8
0
 62
     0
 10
11.490485
 20
0.0
 30
0.0
 11
13.5
 21
2.009515
 31
0.0
  0
LINE
  8
0
 62
     0
 10
11.667262
 20
0.0
 30
0.0
 11
13.5
 21
1.832738
 31
0.0
  0
LINE
  8
0
 62
     0
 10
11.844039
 20
0.0
 30
0.0
 11
13.5
 21
1.655961
 31
0.0
  0
LINE
  8
0
 62
     0
 10
12.020815
 20
0.0
 30
0.0
 11
13.5
 21
1.479185
 31
0.0
  0
LINE
  8
0
 62
     0
 10
12.197592
 20
0.0
 30
0.0
 11
13.5
 21
1.302408
 31
0.0
  0
LINE
  8
0
 62
     0
 10
12.374369
 20
0.0
 30
0.0
 11
13.5
 21
1.125631
 31
0.0
  0
LINE
  8
0
 62
     0
 10
12.551145
 20
0.0
 30
0.0
 11
13.5
 21
0.948855
 31
0.0
  0
LINE
  8
0
 62
     0
 10
12.727922
 20
0.0
 30
0.0
 11
13.5
 21
0.772078
 31
0.0
  0
LINE
  8
0
 62
     0
 10
12.904699
 20
0.0
 30
0.0
 11
13.5
 21
0.595301
 31
0.0
  0
LINE
  8
0
 62
     0
 10
13.081475
 20
0.0
 30
0.0
 11
13.5
 21
0.418525
 31
0.0
  0
LINE
  8
0
 62
     0
 10
13.258252
 20
0.0
 30
0.0
 11
13.5
 21
0.241748
 31
0.0
  0
LINE
  8
0
 62
     0
 10
13.435029
 20
0.0
 30
0.0
 11
13.5
 21
0.064971
 31
0.0
  0
ENDBLK
  8
0
  0
BLOCK
  8
0
  2
*X16
 70
    65
 10
0.0
 20
0.0
 30
0.0
  3
*X
  0
LINE
  8
0
 62
     0
 10
13.9
 20
6.298602
 30
0.0
 11
16.582995
 21
8.981597
 31
0.0
  0
LINE
  8
0
 62
     0
 10
13.9
 20
6.475379
 30
0.0
 11
16.510503
 21
9.085882
 31
0.0
  0
LINE
  8
0
 62
     0
 10
13.9
 20
6.652155
 30
0.0
 11
16.432927
 21
9.185083
 31
0.0
  0
LINE
  8
0
 62
     0
 10
13.9
 20
6.828932
 30
0.0
 11
16.350372
 21
9.279304
 31
0.0
  0
LINE
  8
0
 62
     0
 10
13.9
 20
7.005709
 30
0.0
 11
16.262892
 21
9.368601
 31
0.0
  0
LINE
  8
0
 62
     0
 10
13.9
 20
7.182486
 30
0.0
 11
16.170495
 21
9.452981
 31
0.0
  0
LINE
  8
0
 62
     0
 10
13.9
 20
7.359262
 30
0.0
 11
16.073145
 21
9.532407
 31
0.0
  0
LINE
  8
0
 62
     0
 10
13.9
 20
7.536039
 30
0.0
 11
15.970755
 21
9.606794
 31
0.0
  0
LINE
  8
0
 62
     0
 10
13.9
 20
7.712816
 30
0.0
 11
15.863189
 21
9.676004
 31
0.0
  0
LINE
  8
0
 62
     0
 10
13.9
 20
7.889592
 30
0.0
 11
15.75025
 21
9.739843
 31
0.0
  0
LINE
  8
0
 62
     0
 10
13.9
 20
8.066369
 30
0.0
 11
15.631675
 21
9.798044
 31
0.0
  0
LINE
  8
0
 62
     0
 10
13.9
 20
8.243146
 30
0.0
 11
15.50711
 21
9.850256
 31
0.0
  0
LINE
  8
0
 62
     0
 10
13.9
 20
8.419922
 30
0.0
 11
15.376096
 21
9.896018
 31
0.0
  0
LINE
  8
0
 62
     0
 10
13.9
 20
8.596699
 30
0.0
 11
15.238027
 21
9.934726
 31
0.0
  0
LINE
  8
0
 62
     0
 10
13.9
 20
8.773476
 30
0.0
 11
15.092096
 21
9.965572
 31
0.0
  0
LINE
  8
0
 62
     0
 10
13.9
 20
8.950253
 30
0.0
 11
14.937209
 21
9.987461
 31
0.0
  0
LINE
  8
0
 62
     0
 10
13.9
 20
9.127029
 30
0.0
 11
14.771824
 21
9.998853
 31
0.0
  0
LINE
  8
0
 62
     0
 10
13.9
 20
9.303806
 30
0.0
 11
14.596193
 21
9.999999
 31
0.0
  0
LINE
  8
0
 62
     0
 10
13.9
 20
9.480583
 30
0.0
 11
14.419417
 21
9.999999
 31
0.0
  0
LINE
  8
0
 62
     0
 10
13.9
 20
9.657359
 30
0.0
 11
14.24264
 21
10.0
 31
0.0
  0
LINE
  8
0
 62
     0
 10
13.9
 20
9.834136
 30
0.0
 11
14.065864
 21
10.0
 31
0.0
  0
LINE
  8
0
 62
     0
 10
13.9
 20
6.121825
 30
0.0
 11
16.650245
 21
8.872071
 31
0.0
  0
LINE
  8
0
 62
     0
 10
13.9
 20
5.945049
 30
0.0
 11
16.712035
 21
8.757083
 31
0.0
  0
LINE
  8
0
 62
     0
 10
13.9
 20
5.768272
 30
0.0
 11
16.768067
 21
8.636339
 31
0.0
  0
LINE
  8
0
 62
     0
 10
13.9
 20
5.591495
 30
0.0
 11
16.817955
 21
8.509451
 31
0.0
  0
LINE
  8
0
 62
     0
 10
13.9
 20
5.414719
 30
0.0
 11
16.861189
 21
8.375908
 31
0.0
  0
LINE
  8
0
 62
     0
 10
13.9
 20
5.237942
 30
0.0
 11
16.897097
 21
8.235039
 31
0.0
  0
LINE
  8
0
 62
     0
 10
14.038835
 20
5.2
 30
0.0
 11
16.924779
 21
8.085944
 31
0.0
  0
LINE
  8
0
 62
     0
 10
14.215611
 20
5.2
 30
0.0
 11
16.942997
 21
7.927385
 31
0.0
  0
LINE
  8
0
 62
     0
 10
14.392388
 20
5.2
 30
0.0
 11
16.949987
 21
7.757599
 31
0.0
  0
LINE
  8
0
 62
     0
 10
14.569165
 20
5.2
 30
0.0
 11
16.943101
 21
7.573936
 31
0.0
  0
LINE
  8
0
 62
     0
 10
14.745942
 20
5.2
 30
0.0
 11
16.918037
 21
7.372095
 31
0.0
  0
LINE
  8
0
 62
     0
 10
14.922718
 20
5.2
 30
0.0
 11
16.866909
 21
7.144191
 31
0.0
  0
LINE
  8
0
 62
     0
 10
15.099495
 20
5.2
 30
0.0
 11
16.771715
 21
6.87222
 31
0.0
  0
LINE
  8
0
 62
     0
 10
15.276272
 20
5.2
 30
0.0
 11
15.847951
 21
5.77168
 31
0.0
  0
LINE
  8
0
 62
     0
 10
15.96673
 20
5.890458
 30
0.0
 11
16.559542
 21
6.48327
 31
0.0
  0
LINE
  8
0
 62
     0
 10
15.453048
 20
5.2
 30
0.0
 11
15.970661
 21
5.717613
 31
0.0
  0
LINE
  8
0
 62
     0
 10
15.629825
 20
5.2
 30
0.0
 11
16.088934
 21
5.659109
 31
0.0
  0
LINE
  8
0
 62
     0
 10
15.806602
 20
5.2
 30
0.0
 11
16.202964
 21
5.596363
 31
0.0
  0
LINE
  8
0
 62
     0
 10
15.983378
 20
5.2
 30
0.0
 11
16.312909
 21
5.529531
 31
0.0
  0
LINE
  8
0
 62
     0
 10
16.160155
 20
5.2
 30
0.0
 11
16.418895
 21
5.45874
 31
0.0
  0
LINE
  8
0
 62
     0
 10
16.336932
 20
5.2
 30
0.0
 11
16.521021
 21
5.384089
 31
0.0
  0
LINE
  8
0
 62
     0
 10
16.513708
 20
5.2
 30
0.0
 11
16.619363
 21
5.305655
 31
0.0
  0
LINE
  8
0
 62
     0
 10
16.690485
 20
5.2
 30
0.0
 11
16.713975
 21
5.22349
 31
0.0
  0
ENDBLK
  8
0
  0
BLOCK
  8
0
  2
*X17
 70
    65
 10
0.0
 20
0.0
 30
0.0
  3
*X
  0
LINE
  8
0
 62
     0
 10
13.9
 20
0.818525
 30
0.0
 11
17.39645
 21
4.314974
 31
0.0
  0
LINE
  8
0
 62
     0
 10
13.9
 20
0.995301
 30
0.0
 11
17.336354
 21
4.431655
 31
0.0
  0
LINE
  8
0
 62
     0
 10
13.9
 20
1.172078
 30
0.0
 11
17.272078
 21
4.544156
 31
0.0
  0
LINE
  8
0
 62
     0
 10
13.9
 20
1.348855
 30
0.0
 11
17.203766
 21
4.652621
 31
0.0
  0
LINE
  8
0
 62
     0
 10
13.9
 20
1.525631
 30
0.0
 11
17.131535
 21
4.757167
 31
0.0
  0
LINE
  8
0
 62
     0
 10
13.9
 20
1.702408
 30
0.0
 11
16.997592
 21
4.8
 31
0.0
  0
LINE
  8
0
 62
     0
 10
13.9
 20
1.879185
 30
0.0
 11
16.820815
 21
4.8
 31
0.0
  0
LINE
  8
0
 62
     0
 10
13.9
 20
2.055961
 30
0.0
 11
16.644039
 21
4.8
 31
0.0
  0
LINE
  8
0
 62
     0
 10
13.9
 20
2.232738
 30
0.0
 11
16.467262
 21
4.8
 31
0.0
  0
LINE
  8
0
 62
     0
 10
13.9
 20
2.409515
 30
0.0
 11
16.290485
 21
4.8
 31
0.0
  0
LINE
  8
0
 62
     0
 10
13.9
 20
2.586292
 30
0.0
 11
16.113708
 21
4.8
 31
0.0
  0
LINE
  8
0
 62
     0
 10
13.9
 20
2.763068
 30
0.0
 11
15.936932
 21
4.8
 31
0.0
  0
LINE
  8
0
 62
     0
 10
13.9
 20
2.939845
 30
0.0
 11
15.760155
 21
4.8
 31
0.0
  0
LINE
  8
0
 62
     0
 10
13.9
 20
3.116622
 30
0.0
 11
15.583378
 21
4.8
 31
0.0
  0
LINE
  8
0
 62
     0
 10
13.9
 20
3.293398
 30
0.0
 11
15.406602
 21
4.8
 31
0.0
  0
LINE
  8
0
 62
     0
 10
13.9
 20
3.470175
 30
0.0
 11
15.229825
 21
4.8
 31
0.0
  0
LINE
  8
0
 62
     0
 10
13.9
 20
3.646952
 30
0.0
 11
15.053048
 21
4.8
 31
0.0
  0
LINE
  8
0
 62
     0
 10
13.9
 20
3.823728
 30
0.0
 11
14.876272
 21
4.8
 31
0.0
  0
LINE
  8
0
 62
     0
 10
13.9
 20
4.000505
 30
0.0
 11
14.699495
 21
4.8
 31
0.0
  0
LINE
  8
0
 62
     0
 10
13.9
 20
4.177282
 30
0.0
 11
14.522718
 21
4.8
 31
0.0
  0
LINE
  8
0
 62
     0
 10
13.9
 20
4.354058
 30
0.0
 11
14.345942
 21
4.8
 31
0.0
  0
LINE
  8
0
 62
     0
 10
13.9
 20
4.530835
 30
0.0
 11
14.169165
 21
4.8
 31
0.0
  0
LINE
  8
0
 62
     0
 10
13.9
 20
4.707612
 30
0.0
 11
13.992388
 21
4.8
 31
0.0
  0
LINE
  8
0
 62
     0
 10
13.9
 20
0.641748
 30
0.0
 11
17.452185
 21
4.193933
 31
0.0
  0
LINE
  8
0
 62
     0
 10
13.9
 20
0.464971
 30
0.0
 11
17.503339
 21
4.068311
 31
0.0
  0
LINE
  8
0
 62
     0
 10
13.9
 20
0.288194
 30
0.0
 11
17.549642
 21
3.937837
 31
0.0
  0
LINE
  8
0
 62
     0
 10
13.9
 20
0.111418
 30
0.0
 11
17.590762
 21
3.80218
 31
0.0
  0
LINE
  8
0
 62
     0
 10
13.965359
 20
0.0
 30
0.0
 11
17.62629
 21
3.660931
 31
0.0
  0
LINE
  8
0
 62
     0
 10
14.142136
 20
0.000001
 30
0.0
 11
17.655713
 21
3.513577
 31
0.0
  0
LINE
  8
0
 62
     0
 10
14.318913
 20
0.000001
 30
0.0
 11
17.678385
 21
3.359473
 31
0.0
  0
LINE
  8
0
 62
     0
 10
14.49569
 20
0.000001
 30
0.0
 11
17.693473
 21
3.197784
 31
0.0
  0
LINE
  8
0
 62
     0
 10
14.672467
 20
0.000002
 30
0.0
 11
17.699875
 21
3.027409
 31
0.0
  0
LINE
  8
0
 62
     0
 10
14.853154
 20
0.003912
 30
0.0
 11
17.696088
 21
2.846846
 31
0.0
  0
LINE
  8
0
 62
     0
 10
15.046044
 20
0.020025
 30
0.0
 11
17.679975
 21
2.653956
 31
0.0
  0
LINE
  8
0
 62
     0
 10
15.254483
 20
0.051687
 30
0.0
 11
17.648313
 21
2.445517
 31
0.0
  0
LINE
  8
0
 62
     0
 10
15.483762
 20
0.10419
 30
0.0
 11
17.59581
 21
2.216238
 31
0.0
  0
LINE
  8
0
 62
     0
 10
15.743786
 20
0.187437
 30
0.0
 11
17.512563
 21
1.956214
 31
0.0
  0
LINE
  8
0
 62
     0
 10
16.058176
 20
0.32505
 30
0.0
 11
17.37495
 21
1.641824
 31
0.0
  0
LINE
  8
0
 62
     0
 10
16.54193
 20
0.632028
 30
0.0
 11
17.067972
 21
1.15807
 31
0.0
  0
ENDBLK
  8
0
  0
BLOCK
  8
0
  2
BLC15
 70
    64
 10
0.0
 20
0.0
 30
0.0
  3
BLC15
  0
LINE
  8
0
  6
CONTINUOUS
 10
0.142084
 20
3.490022
 30
0.0
 11
0.142084
 21
0.844365
 31
0.0
  0
LINE
  8
0
  6
CONTINUOUS
 10
-0.461611
 20
-0.937188
 30
0.0
 11
0.745779
 21
-0.937188
 31
0.0
  0
LINE
  8
0
  6
CONTINUOUS
 10
-0.894108
 20
-0.049675
 30
0.0
 11
1.169267
 21
-0.049675
 31
0.0
  0
LINE
  8
0
  6
CONTINUOUS
 10
-1.389679
 20
0.844365
 30
0.0
 11
1.673848
 21
0.844365
 31
0.0
  0
ENDBLK
  8
0
  0
BLOCK
  8
0
  2
BLC55
 70
    64
 10
0.0
 20
0.0
 30
0.0
  3
BLC55
  0
INSERT
  8
SWEDEN
  6
CENTER
  2
BLC5
 10
0.087066
 20
-0.756831
 30
0.0
 41
0.6
 42
0.6
 43
0.6
  0
ENDBLK
  8
0
  0
BLOCK
  8
0
  2
BLC5
 70
    64
 10
0.0
 20
0.0
 30
0.0
  3
BLC5
  0
TEXT
  8
0
 10
-3.043704
 20
-6.645912
 30
0.0
 40
3.2
  1
PE
  0
LINE
  8
0
 10
-2.946392
 20
1.181176
 30
0.0
 11
2.135458
 21
1.181176
 31
0.0
  0
LINE
  8
0
 10
-0.48656
 20
2.238362
 30
0.0
 11
-0.48656
 21
6.930438
 31
0.0
  0
LINE
  8
0
 10
-1.973271
 20
0.065258
 30
0.0
 11
1.225411
 21
0.065258
 31
0.0
  0
LINE
  8
0
 10
2.685091
 20
2.238362
 30
0.0
 11
1.68494
 21
2.238362
 31
0.0
  0
LINE
  8
0
 10
-3.505035
 20
2.238362
 30
0.0
 11
2.649049
 21
2.238362
 31
0.0
  0
CIRCLE
  8
0
 10
-0.47755
 20
1.422632
 30
0.0
 40
3.804563
  0
ENDBLK
  8
0
  0
BLOCK
  8
0
  2
BLC43
 70
    64
 10
0.0
 20
0.0
 30
0.0
  3
BLC43
  0
TEXT
  8
SWEDEN2
  6
CONTINUOUS
 10
-0.646672
 20
-0.986365
 30
0.0
 40
2.0
  1
+
  0
ENDBLK
  8
0
  0
BLOCK
  8
0
  2
BLC42
 70
    64
 10
0.0
 20
0.0
 30
0.0
  3
BLC42
  0
TEXT
  8
SWEDEN2
  6
CONTINUOUS
 10
-0.655237
 20
-0.99442
 30
0.0
 40
2.0
  1
-
  0
ENDBLK
  8
0
  0
BLOCK
  8
0
  2
BLC44
 70
    64
 10
0.0
 20
0.0
 30
0.0
  3
BLC44
  0
LINE
  8
HEL035
 10
-2.520993
 20
1.697877
 30
0.0
 11
1.479007
 21
1.697877
 31
0.0
  0
INSERT
  8
HEL035
  2
WKU130
 10
-2.181043
 20
-0.027675
 30
0.0
 41
0.8
 42
0.8
 43
0.8
  0
ENDBLK
  8
0
  0
BLOCK
  8
0
  2
BLC46
 70
    64
 10
0.0
 20
0.0
 30
0.0
  3
BLC46
  0
LINE
  8
BASE
  6
CONTINUOUS
 10
0.0
 20
0.0
 30
0.0
 11
5.0
 21
0.0
 31
0.0
  0
LINE
  8
BASE
  6
CONTINUOUS
 10
5.0
 20
-5.0
 30
0.0
 11
0.0
 21
-5.0
 31
0.0
  0
LINE
  8
BASE
  6
CONTINUOUS
 10
5.0
 20
-5.0
 30
0.0
 11
5.0
 21
-2.5
 31
0.0
  0
LINE
  8
BASE
  6
CONTINUOUS
 10
10.0
 20
0.0
 30
0.0
 11
15.0
 21
0.0
 31
0.0
  0
LINE
  8
BASE
  6
CONTINUOUS
 10
10.0
 20
0.0
 30
0.0
 11
4.256076
 21
-3.214703
 31
0.0
  0
ENDBLK
  8
0
  0
BLOCK
  8
0
  2
BLC25
 70
     0
 10
0.0
 20
0.0
 30
0.0
  3
BLC25
  0
TEXT
  8
0
  6
CONTINUOUS
 10
2.0
 20
30.666667
 30
0.0
 40
2.0
  1
1)
 11
2.0
 21
30.0
 31
0.0
 73
     1
  0
TEXT
  8
0
 10
6.0
 20
2.0
 30
0.0
 40
2.0
  1
7B    27     26
 11
6.0
 21
1.333333
 31
0.0
 73
     1
  0
TEXT
  8
0
 10
6.0
 20
5.333333
 30
0.0
 40
2.0
  1
5B     9      8
 11
6.0
 21
4.666667
 31
0.0
 73
     1
  0
TEXT
  8
0
 10
6.0
 20
8.666667
 30
0.0
 40
2.0
  1
3B     3      2
 11
6.0
 21
8.0
 31
0.0
 73
     1
  0
TEXT
  8
0
 10
32.0
 20
12.666667
 30
0.0
 40
2.0
  1
In=5A
 11
32.0
 21
12.0
 31
0.0
 73
     1
  0
TEXT
  8
0
 10
16.0
 20
12.666667
 30
0.0
 40
2.0
  1
In=1A 
 11
16.0
 21
12.0
 31
0.0
 73
     1
  0
TEXT
  8
0
 10
26.0
 20
18.666667
 30
0.0
 40
2.0
  1
108:
 11
26.0
 21
18.0
 31
0.0
 73
     1
  0
TEXT
  8
0
 10
6.0
 20
18.666667
 30
0.0
 40
2.0
  1
101:       
 11
6.0
 21
18.0
 31
0.0
 73
     1
  0
TEXT
  8
0
 10
6.0
 20
24.666667
 30
0.0
 40
2.0
  1
TERMINALS / UTTAG
 11
6.0
 21
24.0
 31
0.0
 73
     1
  0
LINE
  8
0
 10
0.0
 20
12.0
 30
0.0
 11
44.0
 21
12.0
 31
0.0
  0
LINE
  8
0
 10
28.0
 20
18.0
 30
0.0
 11
28.0
 21
0.0
 31
0.0
  0
LINE
  8
0
 10
14.0
 20
18.0
 30
0.0
 11
44.0
 21
18.0
 31
0.0
  0
LINE
  8
0
 10
14.0
 20
24.0
 30
0.0
 11
14.0
 21
0.0
 31
0.0
  0
LINE
  8
0
 10
0.0
 20
24.0
 30
0.0
 11
44.0
 21
24.0
 31
0.0
  0
LINE
  8
0
 10
44.0
 20
0.0
 30
0.0
 11
44.0
 21
30.0
 31
0.0
  0
LINE
  8
0
 10
0.0
 20
0.0
 30
0.0
 11
44.0
 21
0.0
 31
0.0
  0
LINE
  8
0
 10
0.0
 20
30.0
 30
0.0
 11
0.0
 21
0.0
 31
0.0
  0
LINE
  8
0
 10
44.0
 20
30.0
 30
0.0
 11
0.0
 21
30.0
 31
0.0
  0
ENDBLK
  8
0
  0
BLOCK
  8
0
  2
B13
 70
     0
 10
0.0
 20
0.0
 30
0.0
  3
B13
  0
LINE
  8
BASE
  6
CONTINUOUS
 10
0.00793
 20
5.0
 30
0.0
 11
0.00793
 21
-5.0
 31
0.0
  0
LINE
  8
BASE
  6
CONTINUOUS
 10
0.0
 20
-11.000004
 30
0.0
 11
0.0
 21
-17.5
 31
0.0
  0
LINE
  8
BASE
  6
CONTINUOUS
 10
5.0
 20
-11.000004
 30
0.0
 11
5.0
 21
-17.5
 31
0.0
  0
LINE
  8
BASE
  6
CONTINUOUS
 10
4.982972
 20
5.0
 30
0.0
 11
4.982972
 21
-5.0
 31
0.0
  0
LINE
  8
BASE
  6
CONTINUOUS
 10
10.0
 20
-5.0
 30
0.0
 11
10.0
 21
-1.412306
 31
0.0
  0
LINE
  8
BASE
  6
CONTINUOUS
 10
10.0
 20
-0.21377
 30
0.0
 11
10.0
 21
2.28623
 31
0.0
  0
LINE
  8
BASE
  6
CONTINUOUS
 10
10.0
 20
-11.000004
 30
0.0
 11
10.0
 21
-17.5
 31
0.0
  0
LINE
  8
BASE
  6
CONTINUOUS
 10
10.0
 20
-11.000004
 30
0.0
 11
12.434804
 21
-4.337159
 31
0.0
  0
LINE
  8
BASE
  6
CONTINUOUS
 10
10.0
 20
-5.0
 30
0.0
 11
12.765661
 21
-5.0
 31
0.0
  0
LINE
  8
BASE
  6
CONTINUOUS
 10
12.434804
 20
-4.337159
 30
0.0
 11
11.549106
 21
-3.892266
 31
0.0
  0
LINE
  8
BASE
  6
CONTINUOUS
 10
5.0
 20
-5.0
 30
0.0
 11
7.765661
 21
-5.0
 31
0.0
  0
LINE
  8
BASE
  6
CONTINUOUS
 10
7.434804
 20
-4.337159
 30
0.0
 11
6.549106
 21
-3.892266
 31
0.0
  0
LINE
  8
BASE
  6
CONTINUOUS
 10
5.0
 20
-11.000004
 30
0.0
 11
7.434804
 21
-4.337159
 31
0.0
  0
LINE
  8
BASE
  6
CONTINUOUS
 10
0.0
 20
-11.000004
 30
0.0
 11
2.434804
 21
-4.337159
 31
0.0
  0
LINE
  8
BASE
  6
CONTINUOUS
 10
0.0
 20
-5.0
 30
0.0
 11
2.765661
 21
-5.0
 31
0.0
  0
ENDBLK
  8
0
  0
BLOCK
  8
0
  2
B37
 70
     0
 10
0.0
 20
0.0
 30
0.0
  3
B37
  0
LINE
  8
BASE
  6
CONTINUOUS
 10
-0.006589
 20
-6.018035
 30
0.0
 11
2.434804
 21
0.662841
 31
0.0
  0
LINE
  8
BASE
  6
CONTINUOUS
 10
0.0
 20
0.0
 30
0.0
 11
2.765661
 21
0.0
 31
0.0
  0
LINE
  8
BASE
  6
CONTINUOUS
 10
2.434804
 20
0.662841
 30
0.0
 11
1.549106
 21
1.107734
 31
0.0
  0
CIRCLE
  8
BASE
  6
CONTINUOUS
 10
0.0
 20
-6.758945
 30
0.0
 40
0.740939
  0
ENDBLK
  8
0
  0
BLOCK
  8
0
  2
B22
 70
     0
 10
0.0
 20
0.0
 30
0.0
  3
B22
  0
CIRCLE
  8
BASE
  6
CONTINUOUS
 10
-2.949561
 20
-1.638589
 30
0.0
 40
0.705054
  0
CIRCLE
  8
BASE
  6
CONTINUOUS
 10
-2.949561
 20
-1.638589
 30
0.0
 40
1.252595
  0
LINE
  8
BASE
  6
CONTINUOUS
 10
-10.000117
 20
0.000025
 30
0.0
 11
0.011081
 21
0.000025
 31
0.0
  0
LINE
  8
BASE
  6
CONTINUOUS
 10
-27.5
 20
-0.008493
 30
0.0
 11
-17.5
 21
-0.008493
 31
0.0
  0
LINE
  8
BASE
  6
CONTINUOUS
 10
-11.481965
 20
-0.006589
 30
0.0
 11
-18.162841
 21
2.434804
 31
0.0
  0
LINE
  8
BASE
  6
CONTINUOUS
 10
-17.5
 20
-0.008493
 30
0.0
 11
-17.5
 21
2.765661
 31
0.0
  0
LINE
  8
BASE
  6
CONTINUOUS
 10
-18.162841
 20
2.434804
 30
0.0
 11
-18.607734
 21
1.549106
 31
0.0
  0
CIRCLE
  8
BASE
  6
CONTINUOUS
 10
-10.741055
 20
0.0
 30
0.0
 40
0.740939
  0
ENDBLK
  8
0
  0
BLOCK
  8
0
  2
ABBA3SX
 70
    64
 10
0.0
 20
0.0
 30
0.0
  3
ABBA3SX
  0
TEXT
  8
RAAMI
  6
DASHED
 10
354.190282
 20
15.793111
 30
0.0
 40
1.4
  1
LEHTI SHEET
  7
STAND
  0
LINE
  8
PAKSU
 10
0.236802
 20
0.237701
 30
0.0
 11
0.236802
 21
262.737701
 31
0.0
  0
LINE
  8
PAKSU
 10
392.236802
 20
262.737701
 30
0.0
 11
392.236802
 21
0.237701
 31
0.0
  0
LINE
  8
PAKSU
 10
0.236802
 20
0.237701
 30
0.0
 11
392.236802
 21
0.237701
 31
0.0
  0
TEXT
  8
RAAMI
 10
42.236802
 20
5.587211
 30
0.0
 40
2.5
  1
C
  7
ROMANS
  0
TEXT
  8
RAAMI
 10
42.236802
 20
1.194994
 30
0.0
 40
2.5
  1
B
  7
ROMANS
  0
TEXT
  8
RAAMI
 10
257.406709
 20
1.741485
 30
0.0
 40
3.0
  1
Power
 41
0.8
  7
ROMANS
  0
TEXT
  8
RAAMI
 10
273.236802
 20
7.237701
 30
0.0
 40
1.4
  1
VAST.OSASTO RESP.DEPT.
  7
ROMANS
  0
TEXT
  8
RAAMI
 10
210.236802
 20
32.237701
 30
0.0
 40
1.4
  1
TEKI  PREPARED
  7
ROMANS
  0
LINE
  8
OHUT
 10
271.236802
 20
9.737701
 30
0.0
 11
271.236802
 21
0.237701
 31
0.0
  0
LINE
  8
OHUT
 10
257.236802
 20
9.737701
 30
0.0
 11
257.236802
 21
35.237701
 31
0.0
  0
LINE
  8
OHUT
 10
40.736802
 20
4.737701
 30
0.0
 11
209.236802
 21
4.737701
 31
0.0
  0
LINE
  8
OHUT
 10
46.736802
 20
0.237701
 30
0.0
 11
46.736802
 21
9.237701
 31
0.0
  0
LINE
  8
OHUT
 10
46.736802
 20
9.237701
 30
0.0
 11
209.236802
 21
9.237701
 31
0.0
  0
TEXT
  8
RAAMI
 10
27.736802
 20
2.471035
 30
0.0
 40
1.4
  1
REVISION
  7
ROMANS
  0
TEXT
  8
RAAMI
 10
27.736802
 20
4.737701
 30
0.0
 40
1.4
  1
MUUTOS
  7
ROMANS
  0
LINE
  8
OHUT
 10
282.236802
 20
9.737701
 30
0.0
 11
282.236802
 21
18.237701
 31
0.0
  0
TEXT
  8
RAAMI
 10
237.736802
 20
1.737701
 30
0.0
 40
3.0
  1
Strömberg
 41
0.8
  7
ROMANS
  0
TEXT
  8
RAAMI
 10
229.736802
 20
1.737701
 30
0.0
 40
3.0
  1
ABB 
 41
0.8
  7
ROMANS
  0
LINE
  8
RAAMI
 10
223.136802
 20
1.737701
 30
0.0
 11
223.136802
 21
5.097701
 31
0.0
  0
LINE
  8
RAAMI
 10
223.136802
 20
8.737701
 30
0.0
 11
225.096802
 21
8.737701
 31
0.0
  0
LINE
  8
RAAMI
 10
225.096802
 20
8.737701
 30
0.0
 11
225.096802
 21
5.377701
 31
0.0
  0
LINE
  8
RAAMI
 10
225.096802
 20
5.377701
 30
0.0
 11
223.136802
 21
5.377701
 31
0.0
  0
LINE
  8
RAAMI
 10
223.136802
 20
5.097701
 30
0.0
 11
225.096802
 21
5.097701
 31
0.0
  0
LINE
  8
RAAMI
 10
225.096802
 20
5.097701
 30
0.0
 11
225.096802
 21
1.737701
 31
0.0
  0
LINE
  8
RAAMI
 10
225.096802
 20
1.737701
 30
0.0
 11
223.136802
 21
1.737701
 31
0.0
  0
LINE
  8
RAAMI
 10
223.136802
 20
5.377701
 30
0.0
 11
223.136802
 21
8.737701
 31
0.0
  0
ARC
  8
RAAMI
 10
225.936802
 20
7.162701
 30
0.0
 40
1.575
 50
298.455859
 51
90.052437
  0
LINE
  8
RAAMI
 10
225.376802
 20
8.737701
 30
0.0
 11
225.935361
 21
8.737701
 31
0.0
  0
LINE
  8
RAAMI
 10
225.376802
 20
8.737701
 30
0.0
 11
225.376802
 21
5.377701
 31
0.0
  0
LINE
  8
RAAMI
 10
225.376802
 20
5.377701
 30
0.0
 11
227.361245
 21
5.377701
 31
0.0
  0
LINE
  8
RAAMI
 10
227.616802
 20
5.097701
 30
0.0
 11
225.376802
 21
5.097701
 31
0.0
  0
LINE
  8
RAAMI
 10
225.376802
 20
5.097701
 30
0.0
 11
225.376802
 21
1.737701
 31
0.0
  0
ARC
  8
RAAMI
 10
225.936802
 20
3.837701
 30
0.0
 40
2.1
 50
269.937724
 51
37.056553
  0
LINE
  8
RAAMI
 10
225.376802
 20
1.737701
 30
0.0
 11
225.93452
 21
1.737703
 31
0.0
  0
ARC
  8
RAAMI
 10
225.936802
 20
3.837701
 30
0.0
 40
2.1
 50
47.28622
 51
68.787999
  0
INSERT
  8
RAAMI
  2
*X34
 10
215.646802
 20
1.737701
 30
0.0
 41
0.7
 42
0.7
 43
0.7
  0
INSERT
  8
RAAMI
  2
*X35
 10
215.646802
 20
1.737701
 30
0.0
 41
0.7
 42
0.7
 43
0.7
  0
INSERT
  8
RAAMI
  2
*X36
 10
215.646802
 20
1.737701
 30
0.0
 41
0.7
 42
0.7
 43
0.7
  0
INSERT
  8
RAAMI
  2
*X37
 10
215.646802
 20
1.737701
 30
0.0
 41
0.7
 42
0.7
 43
0.7
  0
INSERT
  8
RAAMI
  2
*X37
 10
210.186802
 20
1.737701
 30
0.0
 41
0.7
 42
0.7
 43
0.7
  0
INSERT
  8
RAAMI
  2
*X36
 10
210.186802
 20
1.737701
 30
0.0
 41
0.7
 42
0.7
 43
0.7
  0
INSERT
  8
RAAMI
  2
*X35
 10
210.186802
 20
1.737701
 30
0.0
 41
0.7
 42
0.7
 43
0.7
  0
INSERT
  8
RAAMI
  2
*X34
 10
210.186802
 20
1.737701
 30
0.0
 41
0.7
 42
0.7
 43
0.7
  0
ARC
  8
RAAMI
 10
220.476802
 20
3.837701
 30
0.0
 40
2.1
 50
47.28622
 51
68.787999
  0
LINE
  8
RAAMI
 10
219.916802
 20
1.737701
 30
0.0
 11
220.47452
 21
1.737703
 31
0.0
  0
ARC
  8
RAAMI
 10
220.476802
 20
3.837701
 30
0.0
 40
2.1
 50
269.937724
 51
37.056553
  0
LINE
  8
RAAMI
 10
219.916802
 20
5.097701
 30
0.0
 11
219.916802
 21
1.737701
 31
0.0
  0
LINE
  8
RAAMI
 10
222.156802
 20
5.097701
 30
0.0
 11
219.916802
 21
5.097701
 31
0.0
  0
LINE
  8
RAAMI
 10
219.916802
 20
5.377701
 30
0.0
 11
221.901245
 21
5.377701
 31
0.0
  0
LINE
  8
RAAMI
 10
219.916802
 20
8.737701
 30
0.0
 11
219.916802
 21
5.377701
 31
0.0
  0
LINE
  8
RAAMI
 10
219.916802
 20
8.737701
 30
0.0
 11
220.475361
 21
8.737701
 31
0.0
  0
ARC
  8
RAAMI
 10
220.476802
 20
7.162701
 30
0.0
 40
1.575
 50
298.455859
 51
90.052437
  0
LINE
  8
RAAMI
 10
217.676802
 20
5.377701
 30
0.0
 11
217.676802
 21
8.737701
 31
0.0
  0
LINE
  8
RAAMI
 10
219.636802
 20
1.737701
 30
0.0
 11
217.676802
 21
1.737701
 31
0.0
  0
LINE
  8
RAAMI
 10
219.636802
 20
5.097701
 30
0.0
 11
219.636802
 21
1.737701
 31
0.0
  0
LINE
  8
RAAMI
 10
217.676802
 20
5.097701
 30
0.0
 11
219.636802
 21
5.097701
 31
0.0
  0
LINE
  8
RAAMI
 10
219.636802
 20
5.377701
 30
0.0
 11
217.676802
 21
5.377701
 31
0.0
  0
LINE
  8
RAAMI
 10
219.636802
 20
8.737701
 30
0.0
 11
219.636802
 21
5.377701
 31
0.0
  0
LINE
  8
RAAMI
 10
217.676802
 20
8.737701
 30
0.0
 11
219.636802
 21
8.737701
 31
0.0
  0
LINE
  8
RAAMI
 10
217.676802
 20
1.737701
 30
0.0
 11
217.676802
 21
5.097701
 31
0.0
  0
INSERT
  8
RAAMI
  2
*X33
 10
210.186802
 20
1.737701
 30
0.0
 41
0.7
 42
0.7
 43
0.7
  0
INSERT
  8
RAAMI
  2
*X32
 10
210.186802
 20
1.737701
 30
0.0
 41
0.7
 42
0.7
 43
0.7
  0
INSERT
  8
RAAMI
  2
*X31
 10
210.186802
 20
1.737701
 30
0.0
 41
0.7
 42
0.7
 43
0.7
  0
INSERT
  8
RAAMI
  2
*X30
 10
210.186802
 20
1.737701
 30
0.0
 41
0.7
 42
0.7
 43
0.7
  0
LINE
  8
RAAMI
 10
211.356691
 20
5.08024
 30
0.0
 11
210.186802
 21
1.737701
 31
0.0
  0
LINE
  8
RAAMI
 10
213.546802
 20
5.097701
 30
0.0
 11
213.546802
 21
3.137701
 31
0.0
  0
LINE
  8
RAAMI
 10
213.826802
 20
5.097701
 30
0.0
 11
213.826802
 21
3.137701
 31
0.0
  0
LINE
  8
RAAMI
 10
213.826802
 20
5.097701
 30
0.0
 11
216.010059
 21
5.097701
 31
0.0
  0
LINE
  8
RAAMI
 10
213.826802
 20
5.377701
 30
0.0
 11
215.911916
 21
5.377701
 31
0.0
  0
LINE
  8
RAAMI
 10
216.011294
 20
5.096296
 30
0.0
 11
217.186802
 21
1.737701
 31
0.0
  0
LINE
  8
RAAMI
 10
211.359785
 20
5.097701
 30
0.0
 11
213.546802
 21
5.097701
 31
0.0
  0
LINE
  8
RAAMI
 10
211.458743
 20
5.377701
 30
0.0
 11
213.546802
 21
5.377701
 31
0.0
  0
LINE
  8
RAAMI
 10
213.546802
 20
8.737701
 30
0.0
 11
212.636802
 21
8.737701
 31
0.0
  0
LINE
  8
RAAMI
 10
213.826802
 20
3.137701
 30
0.0
 11
214.946696
 21
3.137701
 31
0.0
  0
LINE
  8
RAAMI
 10
213.826802
 20
8.737701
 30
0.0
 11
213.826802
 21
5.377701
 31
0.0
  0
LINE
  8
RAAMI
 10
213.546802
 20
8.737701
 30
0.0
 11
213.546802
 21
5.377701
 31
0.0
  0
LINE
  8
RAAMI
 10
214.736802
 20
8.737701
 30
0.0
 11
213.826802
 21
8.737701
 31
0.0
  0
LINE
  8
RAAMI
 10
214.9479
 20
3.134565
 30
0.0
 11
215.436802
 21
1.737701
 31
0.0
  0
LINE
  8
RAAMI
 10
214.736802
 20
8.737701
 30
0.0
 11
215.913155
 21
5.376693
 31
0.0
  0
LINE
  8
RAAMI
 10
212.425592
 20
3.134244
 30
0.0
 11
211.936802
 21
1.737701
 31
0.0
  0
LINE
  8
RAAMI
 10
212.425589
 20
3.137701
 30
0.0
 11
213.546802
 21
3.137701
 31
0.0
  0
LINE
  8
RAAMI
 10
212.636802
 20
8.737701
 30
0.0
 11
211.459274
 21
5.373336
 31
0.0
  0
LINE
  8
RAAMI
 10
215.436802
 20
1.737701
 30
0.0
 11
217.186802
 21
1.737701
 31
0.0
  0
LINE
  8
RAAMI
 10
210.186802
 20
1.737701
 30
0.0
 11
211.936802
 21
1.737701
 31
0.0
  0
LINE
  8
OHUT
 10
369.736802
 20
9.737701
 30
0.0
 11
369.736802
 21
0.237701
 31
0.0
  0
TEXT
  8
RAAMI
 10
371.236802
 20
7.237701
 30
0.0
 40
1.4
  1
PAINOS  REVISION
  7
ROMANS
  0
LINE
  8
OHUT
 10
349.736802
 20
9.737701
 30
0.0
 11
349.736802
 21
18.237701
 31
0.0
  0
TEXT
  8
RAAMI
 10
309.236802
 20
7.237701
 30
0.0
 40
1.4
  1
PIIRUSTUS NO  DRAWING NR
  7
ROMANS
  0
TEXT
  8
RAAMI
 10
309.236802
 20
15.737701
 30
0.0
 40
1.4
  1
KOODI  CODE
  7
ROMANS
  0
TEXT
  8
RAAMI
 10
309.236802
 20
32.737701
 30
0.0
 40
1.4
  1
NIMITYS  NAME
  7
ROMANS
  0
TEXT
  8
RAAMI
 10
259.236802
 20
15.737701
 30
0.0
 40
1.4
  1
SUHDE  SCALE
  7
ROMANS
  0
TEXT
  8
RAAMI
 10
259.236802
 20
23.737701
 30
0.0
 40
1.4
  1
TOLERANSSIT  TOLERANCES
  7
ROMANS
  0
TEXT
  8
RAAMI
 10
259.236802
 20
32.737701
 30
0.0
 40
1.4
  1
LIITTYY  CONCERNING
  7
ROMANS
  0
LINE
  8
OHUT
 10
307.236802
 20
0.237701
 30
0.0
 11
307.236802
 21
35.237701
 31
0.0
  0
TEXT
  8
RAAMI
 10
209.979637
 20
15.704368
 30
0.0
 40
1.4
  1
HYVÄKSYI  APPROVED
  7
ROMANS
  0
TEXT
  8
RAAMI
 10
210.236802
 20
23.971035
 30
0.0
 40
1.4
  1
TARKASTI  CHECKED
  7
ROMANS
  0
LINE
  8
PAKSU
 10
209.236802
 20
35.237701
 30
0.0
 11
392.236802
 21
35.237701
 31
0.0
  0
LINE
  8
OHUT
 10
209.236802
 20
26.737701
 30
0.0
 11
307.236802
 21
26.737701
 31
0.0
  0
LINE
  8
OHUT
 10
209.236802
 20
9.737701
 30
0.0
 11
392.236802
 21
9.737701
 31
0.0
  0
LINE
  8
OHUT
 10
209.236802
 20
18.237701
 30
0.0
 11
392.236802
 21
18.237701
 31
0.0
  0
LINE
  8
PAKSU
 10
392.236802
 20
0.237701
 30
0.0
 11
392.236802
 21
35.237701
 31
0.0
  0
LINE
  8
PAKSU
 10
209.236802
 20
0.237701
 30
0.0
 11
209.236802
 21
35.237701
 31
0.0
  0
LINE
  8
PAKSU
 10
209.236802
 20
0.237701
 30
0.0
 11
392.236802
 21
0.237701
 31
0.0
  0
LINE
  8
RAAMI
 10
18.236802
 20
0.237701
 30
0.0
 11
0.236802
 21
0.237701
 31
0.0
  0
LINE
  8
PAKSU
 10
0.236802
 20
262.737701
 30
0.0
 11
392.236802
 21
262.737701
 31
0.0
  0
TEXT
  8
RAAMI
  6
DASHED
 10
292.216898
 20
11.813061
 30
0.0
 40
3.0
  1
A3
  7
GREEKS
  0
ENDBLK
  8
0
  0
BLOCK
  8
0
  2
*X30
 70
    65
 10
0.0
 20
0.0
 30
0.0
  3
*X
  0
LINE
  8
0
 62
     0
 10
2.284499
 20
6.52714
 30
0.0
 11
4.8
 21
9.042641
 31
0.0
  0
LINE
  8
0
 62
     0
 10
2.379686
 20
6.799104
 30
0.0
 11
4.8
 21
9.219417
 31
0.0
  0
LINE
  8
0
 62
     0
 10
2.474874
 20
7.071068
 30
0.0
 11
4.8
 21
9.396194
 31
0.0
  0
LINE
  8
0
 62
     0
 10
2.570061
 20
7.343032
 30
0.0
 11
4.8
 21
9.572971
 31
0.0
  0
LINE
  8
0
 62
     0
 10
2.665249
 20
7.614996
 30
0.0
 11
4.8
 21
9.749747
 31
0.0
  0
LINE
  8
0
 62
     0
 10
2.760436
 20
7.88696
 30
0.0
 11
4.8
 21
9.926524
 31
0.0
  0
LINE
  8
0
 62
     0
 10
2.855624
 20
8.158924
 30
0.0
 11
4.696699
 21
10.0
 31
0.0
  0
LINE
  8
0
 62
     0
 10
2.950811
 20
8.430889
 30
0.0
 11
4.519922
 21
10.0
 31
0.0
  0
LINE
  8
0
 62
     0
 10
3.045998
 20
8.702853
 30
0.0
 11
4.343146
 21
10.0
 31
0.0
  0
LINE
  8
0
 62
     0
 10
3.141186
 20
8.974817
 30
0.0
 11
4.166369
 21
10.0
 31
0.0
  0
LINE
  8
0
 62
     0
 10
3.236373
 20
9.246781
 30
0.0
 11
3.989592
 21
10.0
 31
0.0
  0
LINE
  8
0
 62
     0
 10
3.331561
 20
9.518745
 30
0.0
 11
3.812816
 21
10.0
 31
0.0
  0
LINE
  8
0
 62
     0
 10
3.426748
 20
9.790709
 30
0.0
 11
3.636039
 21
10.0
 31
0.0
  0
LINE
  8
0
 62
     0
 10
2.189311
 20
6.255175
 30
0.0
 11
4.8
 21
8.865864
 31
0.0
  0
LINE
  8
0
 62
     0
 10
2.094124
 20
5.983211
 30
0.0
 11
4.8
 21
8.689087
 31
0.0
  0
LINE
  8
0
 62
     0
 10
1.998936
 20
5.711247
 30
0.0
 11
4.8
 21
8.512311
 31
0.0
  0
LINE
  8
0
 62
     0
 10
1.903749
 20
5.439283
 30
0.0
 11
4.8
 21
8.335534
 31
0.0
  0
LINE
  8
0
 62
     0
 10
1.841243
 20
5.2
 30
0.0
 11
4.8
 21
8.158757
 31
0.0
  0
LINE
  8
0
 62
     0
 10
2.018019
 20
5.2
 30
0.0
 11
4.8
 21
7.981981
 31
0.0
  0
LINE
  8
0
 62
     0
 10
2.194796
 20
5.2
 30
0.0
 11
4.8
 21
7.805204
 31
0.0
  0
LINE
  8
0
 62
     0
 10
2.371573
 20
5.2
 30
0.0
 11
4.8
 21
7.628427
 31
0.0
  0
LINE
  8
0
 62
     0
 10
2.54835
 20
5.2
 30
0.0
 11
4.8
 21
7.45165
 31
0.0
  0
LINE
  8
0
 62
     0
 10
2.725126
 20
5.2
 30
0.0
 11
4.8
 21
7.274874
 31
0.0
  0
LINE
  8
0
 62
     0
 10
2.901903
 20
5.2
 30
0.0
 11
4.8
 21
7.098097
 31
0.0
  0
LINE
  8
0
 62
     0
 10
3.07868
 20
5.2
 30
0.0
 11
4.8
 21
6.92132
 31
0.0
  0
LINE
  8
0
 62
     0
 10
3.255456
 20
5.2
 30
0.0
 11
4.8
 21
6.744544
 31
0.0
  0
LINE
  8
0
 62
     0
 10
3.432233
 20
5.2
 30
0.0
 11
4.8
 21
6.567767
 31
0.0
  0
LINE
  8
0
 62
     0
 10
3.60901
 20
5.2
 30
0.0
 11
4.8
 21
6.39099
 31
0.0
  0
LINE
  8
0
 62
     0
 10
3.785786
 20
5.2
 30
0.0
 11
4.8
 21
6.214214
 31
0.0
  0
LINE
  8
0
 62
     0
 10
3.962563
 20
5.2
 30
0.0
 11
4.8
 21
6.037437
 31
0.0
  0
LINE
  8
0
 62
     0
 10
4.13934
 20
5.2
 30
0.0
 11
4.8
 21
5.86066
 31
0.0
  0
LINE
  8
0
 62
     0
 10
4.316117
 20
5.2
 30
0.0
 11
4.8
 21
5.683883
 31
0.0
  0
LINE
  8
0
 62
     0
 10
4.492893
 20
5.2
 30
0.0
 11
4.8
 21
5.507107
 31
0.0
  0
LINE
  8
0
 62
     0
 10
4.66967
 20
5.2
 30
0.0
 11
4.8
 21
5.33033
 31
0.0
  0
ENDBLK
  8
0
  0
BLOCK
  8
0
  2
*X31
 70
    65
 10
0.0
 20
0.0
 30
0.0
  3
*X
  0
LINE
  8
0
 62
     0
 10
5.2
 20
6.083883
 30
0.0
 11
7.178252
 21
8.062136
 31
0.0
  0
LINE
  8
0
 62
     0
 10
5.2
 20
6.26066
 30
0.0
 11
7.132421
 21
8.193082
 31
0.0
  0
LINE
  8
0
 62
     0
 10
5.2
 20
6.437437
 30
0.0
 11
7.08659
 21
8.324027
 31
0.0
  0
LINE
  8
0
 62
     0
 10
5.2
 20
6.614214
 30
0.0
 11
7.040759
 21
8.454973
 31
0.0
  0
LINE
  8
0
 62
     0
 10
5.2
 20
6.79099
 30
0.0
 11
6.994928
 21
8.585919
 31
0.0
  0
LINE
  8
0
 62
     0
 10
5.2
 20
6.967767
 30
0.0
 11
6.949097
 21
8.716864
 31
0.0
  0
LINE
  8
0
 62
     0
 10
5.2
 20
7.144544
 30
0.0
 11
6.903266
 21
8.84781
 31
0.0
  0
LINE
  8
0
 62
     0
 10
5.2
 20
7.32132
 30
0.0
 11
6.857435
 21
8.978756
 31
0.0
  0
LINE
  8
0
 62
     0
 10
5.2
 20
7.498097
 30
0.0
 11
6.811604
 21
9.109702
 31
0.0
  0
LINE
  8
0
 62
     0
 10
5.2
 20
7.674874
 30
0.0
 11
6.765773
 21
9.240647
 31
0.0
  0
LINE
  8
0
 62
     0
 10
5.2
 20
7.85165
 30
0.0
 11
6.719942
 21
9.371593
 31
0.0
  0
LINE
  8
0
 62
     0
 10
5.2
 20
8.028427
 30
0.0
 11
6.674111
 21
9.502539
 31
0.0
  0
LINE
  8
0
 62
     0
 10
5.2
 20
8.205204
 30
0.0
 11
6.62828
 21
9.633484
 31
0.0
  0
LINE
  8
0
 62
     0
 10
5.2
 20
8.381981
 30
0.0
 11
6.582449
 21
9.76443
 31
0.0
  0
LINE
  8
0
 62
     0
 10
5.2
 20
8.558757
 30
0.0
 11
6.536619
 21
9.895376
 31
0.0
  0
LINE
  8
0
 62
     0
 10
5.2
 20
8.735534
 30
0.0
 11
6.464466
 21
10.0
 31
0.0
  0
LINE
  8
0
 62
     0
 10
5.2
 20
8.912311
 30
0.0
 11
6.287689
 21
10.0
 31
0.0
  0
LINE
  8
0
 62
     0
 10
5.2
 20
9.089087
 30
0.0
 11
6.110913
 21
10.0
 31
0.0
  0
LINE
  8
0
 62
     0
 10
5.2
 20
9.265864
 30
0.0
 11
5.934136
 21
10.0
 31
0.0
  0
LINE
  8
0
 62
     0
 10
5.2
 20
9.442641
 30
0.0
 11
5.757359
 21
10.0
 31
0.0
  0
LINE
  8
0
 62
     0
 10
5.2
 20
9.619417
 30
0.0
 11
5.580583
 21
10.0
 31
0.0
  0
LINE
  8
0
 62
     0
 10
5.2
 20
9.796194
 30
0.0
 11
5.403806
 21
10.0
 31
0.0
  0
LINE
  8
0
 62
     0
 10
5.2
 20
9.972971
 30
0.0
 11
5.227029
 21
10.0
 31
0.0
  0
LINE
  8
0
 62
     0
 10
5.2
 20
5.907107
 30
0.0
 11
7.224083
 21
7.93119
 31
0.0
  0
LINE
  8
0
 62
     0
 10
5.2
 20
5.73033
 30
0.0
 11
7.269914
 21
7.800245
 31
0.0
  0
LINE
  8
0
 62
     0
 10
5.2
 20
5.553553
 30
0.0
 11
7.315745
 21
7.669299
 31
0.0
  0
LINE
  8
0
 62
     0
 10
5.2
 20
5.376777
 30
0.0
 11
7.361576
 21
7.538353
 31
0.0
  0
LINE
  8
0
 62
     0
 10
5.2
 20
5.2
 30
0.0
 11
7.407407
 21
7.407407
 31
0.0
  0
LINE
  8
0
 62
     0
 10
5.376777
 20
5.2
 30
0.0
 11
7.453238
 21
7.276462
 31
0.0
  0
LINE
  8
0
 62
     0
 10
5.553553
 20
5.2
 30
0.0
 11
7.499069
 21
7.145516
 31
0.0
  0
LINE
  8
0
 62
     0
 10
5.73033
 20
5.2
 30
0.0
 11
7.5449
 21
7.01457
 31
0.0
  0
LINE
  8
0
 62
     0
 10
5.907107
 20
5.2
 30
0.0
 11
7.590731
 21
6.883625
 31
0.0
  0
LINE
  8
0
 62
     0
 10
6.083883
 20
5.2
 30
0.0
 11
7.636562
 21
6.752679
 31
0.0
  0
LINE
  8
0
 62
     0
 10
6.26066
 20
5.2
 30
0.0
 11
7.682393
 21
6.621733
 31
0.0
  0
LINE
  8
0
 62
     0
 10
6.437437
 20
5.2
 30
0.0
 11
7.728224
 21
6.490788
 31
0.0
  0
LINE
  8
0
 62
     0
 10
6.614214
 20
5.2
 30
0.0
 11
7.774055
 21
6.359842
 31
0.0
  0
LINE
  8
0
 62
     0
 10
6.79099
 20
5.2
 30
0.0
 11
7.819886
 21
6.228896
 31
0.0
  0
LINE
  8
0
 62
     0
 10
6.967767
 20
5.2
 30
0.0
 11
7.865717
 21
6.09795
 31
0.0
  0
LINE
  8
0
 62
     0
 10
7.144544
 20
5.2
 30
0.0
 11
7.911548
 21
5.967005
 31
0.0
  0
LINE
  8
0
 62
     0
 10
7.32132
 20
5.2
 30
0.0
 11
7.957379
 21
5.836059
 31
0.0
  0
LINE
  8
0
 62
     0
 10
7.498097
 20
5.2
 30
0.0
 11
8.00321
 21
5.705113
 31
0.0
  0
LINE
  8
0
 62
     0
 10
7.674874
 20
5.2
 30
0.0
 11
8.049041
 21
5.574168
 31
0.0
  0
LINE
  8
0
 62
     0
 10
7.85165
 20
5.2
 30
0.0
 11
8.094872
 21
5.443222
 31
0.0
  0
LINE
  8
0
 62
     0
 10
8.028427
 20
5.2
 30
0.0
 11
8.140703
 21
5.312276
 31
0.0
  0
ENDBLK
  8
0
  0
BLOCK
  8
0
  2
*X32
 70
    65
 10
0.0
 20
0.0
 30
0.0
  3
*X
  0
LINE
  8
0
 62
     0
 10
0.0
 20
0.0
 30
0.0
 11
4.8
 21
4.8
 31
0.0
  0
LINE
  8
0
 62
     0
 10
0.095187
 20
0.271964
 30
0.0
 11
4.623223
 21
4.8
 31
0.0
  0
LINE
  8
0
 62
     0
 10
0.190375
 20
0.543928
 30
0.0
 11
4.446447
 21
4.8
 31
0.0
  0
LINE
  8
0
 62
     0
 10
0.285562
 20
0.815892
 30
0.0
 11
4.26967
 21
4.8
 31
0.0
  0
LINE
  8
0
 62
     0
 10
0.38075
 20
1.087857
 30
0.0
 11
4.092893
 21
4.8
 31
0.0
  0
LINE
  8
0
 62
     0
 10
0.475937
 20
1.359821
 30
0.0
 11
3.916117
 21
4.8
 31
0.0
  0
LINE
  8
0
 62
     0
 10
0.571125
 20
1.631785
 30
0.0
 11
3.73934
 21
4.8
 31
0.0
  0
LINE
  8
0
 62
     0
 10
0.666312
 20
1.903749
 30
0.0
 11
3.562563
 21
4.8
 31
0.0
  0
LINE
  8
0
 62
     0
 10
0.7615
 20
2.175713
 30
0.0
 11
3.385786
 21
4.8
 31
0.0
  0
LINE
  8
0
 62
     0
 10
0.856687
 20
2.447677
 30
0.0
 11
3.20901
 21
4.8
 31
0.0
  0
LINE
  8
0
 62
     0
 10
0.951875
 20
2.719641
 30
0.0
 11
3.032233
 21
4.8
 31
0.0
  0
LINE
  8
0
 62
     0
 10
1.047062
 20
2.991606
 30
0.0
 11
2.855456
 21
4.8
 31
0.0
  0
LINE
  8
0
 62
     0
 10
1.142249
 20
3.26357
 30
0.0
 11
2.67868
 21
4.8
 31
0.0
  0
LINE
  8
0
 62
     0
 10
1.237437
 20
3.535534
 30
0.0
 11
2.501903
 21
4.8
 31
0.0
  0
LINE
  8
0
 62
     0
 10
1.332624
 20
3.807498
 30
0.0
 11
2.325126
 21
4.8
 31
0.0
  0
LINE
  8
0
 62
     0
 10
1.427812
 20
4.079462
 30
0.0
 11
2.14835
 21
4.8
 31
0.0
  0
LINE
  8
0
 62
     0
 10
1.522999
 20
4.351426
 30
0.0
 11
1.971573
 21
4.8
 31
0.0
  0
LINE
  8
0
 62
     0
 10
1.618187
 20
4.62339
 30
0.0
 11
1.794796
 21
4.8
 31
0.0
  0
LINE
  8
0
 62
     0
 10
0.176777
 20
0.0
 30
0.0
 11
4.8
 21
4.623223
 31
0.0
  0
LINE
  8
0
 62
     0
 10
0.353553
 20
0.0
 30
0.0
 11
4.8
 21
4.446447
 31
0.0
  0
LINE
  8
0
 62
     0
 10
0.53033
 20
0.0
 30
0.0
 11
4.8
 21
4.26967
 31
0.0
  0
LINE
  8
0
 62
     0
 10
0.707107
 20
0.0
 30
0.0
 11
4.8
 21
4.092893
 31
0.0
  0
LINE
  8
0
 62
     0
 10
0.883883
 20
0.0
 30
0.0
 11
4.8
 21
3.916117
 31
0.0
  0
LINE
  8
0
 62
     0
 10
1.06066
 20
0.0
 30
0.0
 11
4.8
 21
3.73934
 31
0.0
  0
LINE
  8
0
 62
     0
 10
1.237437
 20
0.0
 30
0.0
 11
3.179842
 21
1.942405
 31
0.0
  0
LINE
  8
0
 62
     0
 10
3.237437
 20
2.0
 30
0.0
 11
4.8
 21
3.562563
 31
0.0
  0
LINE
  8
0
 62
     0
 10
1.414214
 20
0.0
 30
0.0
 11
3.084654
 21
1.670441
 31
0.0
  0
LINE
  8
0
 62
     0
 10
3.414214
 20
2.0
 30
0.0
 11
4.8
 21
3.385786
 31
0.0
  0
LINE
  8
0
 62
     0
 10
1.59099
 20
0.0
 30
0.0
 11
2.989467
 21
1.398477
 31
0.0
  0
LINE
  8
0
 62
     0
 10
3.59099
 20
2.0
 30
0.0
 11
4.8
 21
3.20901
 31
0.0
  0
LINE
  8
0
 62
     0
 10
1.767767
 20
0.0
 30
0.0
 11
2.894279
 21
1.126512
 31
0.0
  0
LINE
  8
0
 62
     0
 10
3.767767
 20
2.0
 30
0.0
 11
4.8
 21
3.032233
 31
0.0
  0
LINE
  8
0
 62
     0
 10
1.944544
 20
0.0
 30
0.0
 11
2.799092
 21
0.854548
 31
0.0
  0
LINE
  8
0
 62
     0
 10
3.944544
 20
2.0
 30
0.0
 11
4.8
 21
2.855456
 31
0.0
  0
LINE
  8
0
 62
     0
 10
2.12132
 20
0.0
 30
0.0
 11
2.703904
 21
0.582584
 31
0.0
  0
LINE
  8
0
 62
     0
 10
4.12132
 20
2.0
 30
0.0
 11
4.8
 21
2.67868
 31
0.0
  0
LINE
  8
0
 62
     0
 10
2.298097
 20
0.0
 30
0.0
 11
2.608717
 21
0.31062
 31
0.0
  0
LINE
  8
0
 62
     0
 10
4.298097
 20
2.0
 30
0.0
 11
4.8
 21
2.501903
 31
0.0
  0
LINE
  8
0
 62
     0
 10
2.474874
 20
0.0
 30
0.0
 11
2.51353
 21
0.038656
 31
0.0
  0
LINE
  8
0
 62
     0
 10
4.474874
 20
2.0
 30
0.0
 11
4.8
 21
2.325126
 31
0.0
  0
LINE
  8
0
 62
     0
 10
4.65165
 20
2.0
 30
0.0
 11
4.8
 21
2.14835
 31
0.0
  0
ENDBLK
  8
0
  0
BLOCK
  8
0
  2
*X33
 70
    65
 10
0.0
 20
0.0
 30
0.0
  3
*X
  0
LINE
  8
0
 62
     0
 10
6.884654
 20
1.75813
 30
0.0
 11
8.736506
 21
3.609982
 31
0.0
  0
LINE
  8
0
 62
     0
 10
6.838823
 20
1.889076
 30
0.0
 11
8.690675
 21
3.740928
 31
0.0
  0
LINE
  8
0
 62
     0
 10
6.772971
 20
2.0
 30
0.0
 11
8.644844
 21
3.871874
 31
0.0
  0
LINE
  8
0
 62
     0
 10
6.596194
 20
2.0
 30
0.0
 11
8.599013
 21
4.002819
 31
0.0
  0
LINE
  8
0
 62
     0
 10
6.419417
 20
2.0
 30
0.0
 11
8.553182
 21
4.133765
 31
0.0
  0
LINE
  8
0
 62
     0
 10
6.242641
 20
2.0
 30
0.0
 11
8.507351
 21
4.264711
 31
0.0
  0
LINE
  8
0
 62
     0
 10
6.065864
 20
2.0
 30
0.0
 11
8.46152
 21
4.395656
 31
0.0
  0
LINE
  8
0
 62
     0
 10
5.889087
 20
2.0
 30
0.0
 11
8.415689
 21
4.526602
 31
0.0
  0
LINE
  8
0
 62
     0
 10
5.712311
 20
2.0
 30
0.0
 11
8.369858
 21
4.657548
 31
0.0
  0
LINE
  8
0
 62
     0
 10
5.535534
 20
2.0
 30
0.0
 11
8.324027
 21
4.788493
 31
0.0
  0
LINE
  8
0
 62
     0
 10
5.358757
 20
2.0
 30
0.0
 11
8.158757
 21
4.8
 31
0.0
  0
LINE
  8
0
 62
     0
 10
5.2
 20
2.018019
 30
0.0
 11
7.981981
 21
4.8
 31
0.0
  0
LINE
  8
0
 62
     0
 10
5.2
 20
2.194796
 30
0.0
 11
7.805204
 21
4.8
 31
0.0
  0
LINE
  8
0
 62
     0
 10
5.2
 20
2.371573
 30
0.0
 11
7.628427
 21
4.8
 31
0.0
  0
LINE
  8
0
 62
     0
 10
5.2
 20
2.54835
 30
0.0
 11
7.45165
 21
4.8
 31
0.0
  0
LINE
  8
0
 62
     0
 10
5.2
 20
2.725126
 30
0.0
 11
7.274874
 21
4.8
 31
0.0
  0
LINE
  8
0
 62
     0
 10
5.2
 20
2.901903
 30
0.0
 11
7.098097
 21
4.8
 31
0.0
  0
LINE
  8
0
 62
     0
 10
5.2
 20
3.07868
 30
0.0
 11
6.92132
 21
4.8
 31
0.0
  0
LINE
  8
0
 62
     0
 10
5.2
 20
3.255456
 30
0.0
 11
6.744544
 21
4.8
 31
0.0
  0
LINE
  8
0
 62
     0
 10
5.2
 20
3.432233
 30
0.0
 11
6.567767
 21
4.8
 31
0.0
  0
LINE
  8
0
 62
     0
 10
5.2
 20
3.60901
 30
0.0
 11
6.39099
 21
4.8
 31
0.0
  0
LINE
  8
0
 62
     0
 10
5.2
 20
3.785786
 30
0.0
 11
6.214214
 21
4.8
 31
0.0
  0
LINE
  8
0
 62
     0
 10
5.2
 20
3.962563
 30
0.0
 11
6.037437
 21
4.8
 31
0.0
  0
LINE
  8
0
 62
     0
 10
5.2
 20
4.13934
 30
0.0
 11
5.86066
 21
4.8
 31
0.0
  0
LINE
  8
0
 62
     0
 10
5.2
 20
4.316117
 30
0.0
 11
5.683883
 21
4.8
 31
0.0
  0
LINE
  8
0
 62
     0
 10
5.2
 20
4.492893
 30
0.0
 11
5.507107
 21
4.8
 31
0.0
  0
LINE
  8
0
 62
     0
 10
5.2
 20
4.66967
 30
0.0
 11
5.33033
 21
4.8
 31
0.0
  0
LINE
  8
0
 62
     0
 10
6.930485
 20
1.627185
 30
0.0
 11
8.782337
 21
3.479036
 31
0.0
  0
LINE
  8
0
 62
     0
 10
6.976316
 20
1.496239
 30
0.0
 11
8.828168
 21
3.348091
 31
0.0
  0
LINE
  8
0
 62
     0
 10
7.022147
 20
1.365293
 30
0.0
 11
8.873999
 21
3.217145
 31
0.0
  0
LINE
  8
0
 62
     0
 10
7.067978
 20
1.234347
 30
0.0
 11
8.91983
 21
3.086199
 31
0.0
  0
LINE
  8
0
 62
     0
 10
7.113809
 20
1.103402
 30
0.0
 11
8.965661
 21
2.955254
 31
0.0
  0
LINE
  8
0
 62
     0
 10
7.15964
 20
0.972456
 30
0.0
 11
9.011492
 21
2.824308
 31
0.0
  0
LINE
  8
0
 62
     0
 10
7.205471
 20
0.84151
 30
0.0
 11
9.057323
 21
2.693362
 31
0.0
  0
LINE
  8
0
 62
     0
 10
7.251302
 20
0.710565
 30
0.0
 11
9.103154
 21
2.562416
 31
0.0
  0
LINE
  8
0
 62
     0
 10
7.297133
 20
0.579619
 30
0.0
 11
9.148985
 21
2.431471
 31
0.0
  0
LINE
  8
0
 62
     0
 10
7.342964
 20
0.448673
 30
0.0
 11
9.194816
 21
2.300525
 31
0.0
  0
LINE
  8
0
 62
     0
 10
7.388795
 20
0.317728
 30
0.0
 11
9.240647
 21
2.169579
 31
0.0
  0
LINE
  8
0
 62
     0
 10
7.434626
 20
0.186782
 30
0.0
 11
9.286478
 21
2.038634
 31
0.0
  0
LINE
  8
0
 62
     0
 10
7.480457
 20
0.055836
 30
0.0
 11
9.332309
 21
1.907688
 31
0.0
  0
LINE
  8
0
 62
     0
 10
7.601398
 20
0.0
 30
0.0
 11
9.37814
 21
1.776742
 31
0.0
  0
LINE
  8
0
 62
     0
 10
7.778175
 20
0.0
 30
0.0
 11
9.423971
 21
1.645797
 31
0.0
  0
LINE
  8
0
 62
     0
 10
7.954951
 20
0.0
 30
0.0
 11
9.469802
 21
1.514851
 31
0.0
  0
LINE
  8
0
 62
     0
 10
8.131728
 20
0.0
 30
0.0
 11
9.515633
 21
1.383905
 31
0.0
  0
LINE
  8
0
 62
     0
 10
8.308505
 20
0.0
 30
0.0
 11
9.561464
 21
1.252959
 31
0.0
  0
LINE
  8
0
 62
     0
 10
8.485281
 20
0.0
 30
0.0
 11
9.607295
 21
1.122014
 31
0.0
  0
LINE
  8
0
 62
     0
 10
8.662058
 20
0.0
 30
0.0
 11
9.653126
 21
0.991068
 31
0.0
  0
LINE
  8
0
 62
     0
 10
8.838835
 20
0.0
 30
0.0
 11
9.698957
 21
0.860122
 31
0.0
  0
LINE
  8
0
 62
     0
 10
9.015611
 20
0.0
 30
0.0
 11
9.744788
 21
0.729177
 31
0.0
  0
LINE
  8
0
 62
     0
 10
9.192388
 20
0.0
 30
0.0
 11
9.790619
 21
0.598231
 31
0.0
  0
LINE
  8
0
 62
     0
 10
9.369165
 20
0.0
 30
0.0
 11
9.83645
 21
0.467285
 31
0.0
  0
LINE
  8
0
 62
     0
 10
9.545942
 20
0.0
 30
0.0
 11
9.882281
 21
0.33634
 31
0.0
  0
LINE
  8
0
 62
     0
 10
9.722718
 20
0.0
 30
0.0
 11
9.928112
 21
0.205394
 31
0.0
  0
LINE
  8
0
 62
     0
 10
9.899495
 20
0.0
 30
0.0
 11
9.973943
 21
0.074448
 31
0.0
  0
ENDBLK
  8
0
  0
BLOCK
  8
0
  2
*X34
 70
    65
 10
0.0
 20
0.0
 30
0.0
  3
*X
  0
LINE
  8
0
 62
     0
 10
10.7
 20
6.280583
 30
0.0
 11
13.5
 21
9.080583
 31
0.0
  0
LINE
  8
0
 62
     0
 10
10.7
 20
6.457359
 30
0.0
 11
13.5
 21
9.257359
 31
0.0
  0
LINE
  8
0
 62
     0
 10
10.7
 20
6.634136
 30
0.0
 11
13.5
 21
9.434136
 31
0.0
  0
LINE
  8
0
 62
     0
 10
10.7
 20
6.810913
 30
0.0
 11
13.5
 21
9.610913
 31
0.0
  0
LINE
  8
0
 62
     0
 10
10.7
 20
6.987689
 30
0.0
 11
13.5
 21
9.787689
 31
0.0
  0
LINE
  8
0
 62
     0
 10
10.7
 20
7.164466
 30
0.0
 11
13.5
 21
9.964466
 31
0.0
  0
LINE
  8
0
 62
     0
 10
10.7
 20
7.341243
 30
0.0
 11
13.358757
 21
10.0
 31
0.0
  0
LINE
  8
0
 62
     0
 10
10.7
 20
7.518019
 30
0.0
 11
13.181981
 21
10.0
 31
0.0
  0
LINE
  8
0
 62
     0
 10
10.7
 20
7.694796
 30
0.0
 11
13.005204
 21
10.0
 31
0.0
  0
LINE
  8
0
 62
     0
 10
10.7
 20
7.871573
 30
0.0
 11
12.828427
 21
10.0
 31
0.0
  0
LINE
  8
0
 62
     0
 10
10.7
 20
8.04835
 30
0.0
 11
12.65165
 21
10.0
 31
0.0
  0
LINE
  8
0
 62
     0
 10
10.7
 20
8.225126
 30
0.0
 11
12.474874
 21
10.0
 31
0.0
  0
LINE
  8
0
 62
     0
 10
10.7
 20
8.401903
 30
0.0
 11
12.298097
 21
10.0
 31
0.0
  0
LINE
  8
0
 62
     0
 10
10.7
 20
8.57868
 30
0.0
 11
12.12132
 21
10.0
 31
0.0
  0
LINE
  8
0
 62
     0
 10
10.7
 20
8.755456
 30
0.0
 11
11.944544
 21
10.0
 31
0.0
  0
LINE
  8
0
 62
     0
 10
10.7
 20
8.932233
 30
0.0
 11
11.767767
 21
10.0
 31
0.0
  0
LINE
  8
0
 62
     0
 10
10.7
 20
9.10901
 30
0.0
 11
11.59099
 21
10.0
 31
0.0
  0
LINE
  8
0
 62
     0
 10
10.7
 20
9.285786
 30
0.0
 11
11.414214
 21
10.0
 31
0.0
  0
LINE
  8
0
 62
     0
 10
10.7
 20
9.462563
 30
0.0
 11
11.237437
 21
10.0
 31
0.0
  0
LINE
  8
0
 62
     0
 10
10.7
 20
9.63934
 30
0.0
 11
11.06066
 21
10.0
 31
0.0
  0
LINE
  8
0
 62
     0
 10
10.7
 20
9.816117
 30
0.0
 11
10.883883
 21
10.0
 31
0.0
  0
LINE
  8
0
 62
     0
 10
10.7
 20
9.992893
 30
0.0
 11
10.707107
 21
10.0
 31
0.0
  0
LINE
  8
0
 62
     0
 10
10.7
 20
6.103806
 30
0.0
 11
13.5
 21
8.903806
 31
0.0
  0
LINE
  8
0
 62
     0
 10
10.7
 20
5.927029
 30
0.0
 11
13.5
 21
8.727029
 31
0.0
  0
LINE
  8
0
 62
     0
 10
10.7
 20
5.750253
 30
0.0
 11
13.5
 21
8.550253
 31
0.0
  0
LINE
  8
0
 62
     0
 10
10.7
 20
5.573476
 30
0.0
 11
13.5
 21
8.373476
 31
0.0
  0
LINE
  8
0
 62
     0
 10
10.7
 20
5.396699
 30
0.0
 11
13.5
 21
8.196699
 31
0.0
  0
LINE
  8
0
 62
     0
 10
10.7
 20
5.219922
 30
0.0
 11
13.5
 21
8.019922
 31
0.0
  0
LINE
  8
0
 62
     0
 10
10.856854
 20
5.2
 30
0.0
 11
13.5
 21
7.843146
 31
0.0
  0
LINE
  8
0
 62
     0
 10
11.033631
 20
5.2
 30
0.0
 11
13.5
 21
7.666369
 31
0.0
  0
LINE
  8
0
 62
     0
 10
11.210408
 20
5.2
 30
0.0
 11
13.5
 21
7.489592
 31
0.0
  0
LINE
  8
0
 62
     0
 10
11.387184
 20
5.2
 30
0.0
 11
13.5
 21
7.312816
 31
0.0
  0
LINE
  8
0
 62
     0
 10
11.563961
 20
5.2
 30
0.0
 11
13.5
 21
7.136039
 31
0.0
  0
LINE
  8
0
 62
     0
 10
11.740738
 20
5.2
 30
0.0
 11
13.5
 21
6.959262
 31
0.0
  0
LINE
  8
0
 62
     0
 10
11.917514
 20
5.2
 30
0.0
 11
13.5
 21
6.782486
 31
0.0
  0
LINE
  8
0
 62
     0
 10
12.094291
 20
5.2
 30
0.0
 11
13.5
 21
6.605709
 31
0.0
  0
LINE
  8
0
 62
     0
 10
12.271068
 20
5.2
 30
0.0
 11
13.5
 21
6.428932
 31
0.0
  0
LINE
  8
0
 62
     0
 10
12.447845
 20
5.2
 30
0.0
 11
13.5
 21
6.252155
 31
0.0
  0
LINE
  8
0
 62
     0
 10
12.624621
 20
5.2
 30
0.0
 11
13.5
 21
6.075379
 31
0.0
  0
LINE
  8
0
 62
     0
 10
12.801398
 20
5.2
 30
0.0
 11
13.5
 21
5.898602
 31
0.0
  0
LINE
  8
0
 62
     0
 10
12.978175
 20
5.2
 30
0.0
 11
13.5
 21
5.721825
 31
0.0
  0
LINE
  8
0
 62
     0
 10
13.154951
 20
5.2
 30
0.0
 11
13.5
 21
5.545049
 31
0.0
  0
LINE
  8
0
 62
     0
 10
13.331728
 20
5.2
 30
0.0
 11
13.5
 21
5.368272
 31
0.0
  0
ENDBLK
  8
0
  0
BLOCK
  8
0
  2
*X35
 70
    65
 10
0.0
 20
0.0
 30
0.0
  3
*X
  0
LINE
  8
0
 62
     0
 10
10.7
 20
1.154058
 30
0.0
 11
13.5
 21
3.954058
 31
0.0
  0
LINE
  8
0
 62
     0
 10
10.7
 20
1.330835
 30
0.0
 11
13.5
 21
4.130835
 31
0.0
  0
LINE
  8
0
 62
     0
 10
10.7
 20
1.507612
 30
0.0
 11
13.5
 21
4.307612
 31
0.0
  0
LINE
  8
0
 62
     0
 10
10.7
 20
1.684389
 30
0.0
 11
13.5
 21
4.484389
 31
0.0
  0
LINE
  8
0
 62
     0
 10
10.7
 20
1.861165
 30
0.0
 11
13.5
 21
4.661165
 31
0.0
  0
LINE
  8
0
 62
     0
 10
10.7
 20
2.037942
 30
0.0
 11
13.462058
 21
4.8
 31
0.0
  0
LINE
  8
0
 62
     0
 10
10.7
 20
2.214719
 30
0.0
 11
13.285281
 21
4.8
 31
0.0
  0
LINE
  8
0
 62
     0
 10
10.7
 20
2.391495
 30
0.0
 11
13.108505
 21
4.8
 31
0.0
  0
LINE
  8
0
 62
     0
 10
10.7
 20
2.568272
 30
0.0
 11
12.931728
 21
4.8
 31
0.0
  0
LINE
  8
0
 62
     0
 10
10.7
 20
2.745049
 30
0.0
 11
12.754951
 21
4.8
 31
0.0
  0
LINE
  8
0
 62
     0
 10
10.7
 20
2.921825
 30
0.0
 11
12.578175
 21
4.8
 31
0.0
  0
LINE
  8
0
 62
     0
 10
10.7
 20
3.098602
 30
0.0
 11
12.401398
 21
4.8
 31
0.0
  0
LINE
  8
0
 62
     0
 10
10.7
 20
3.275379
 30
0.0
 11
12.224621
 21
4.8
 31
0.0
  0
LINE
  8
0
 62
     0
 10
10.7
 20
3.452155
 30
0.0
 11
12.047845
 21
4.8
 31
0.0
  0
LINE
  8
0
 62
     0
 10
10.7
 20
3.628932
 30
0.0
 11
11.871068
 21
4.8
 31
0.0
  0
LINE
  8
0
 62
     0
 10
10.7
 20
3.805709
 30
0.0
 11
11.694291
 21
4.8
 31
0.0
  0
LINE
  8
0
 62
     0
 10
10.7
 20
3.982486
 30
0.0
 11
11.517514
 21
4.8
 31
0.0
  0
LINE
  8
0
 62
     0
 10
10.7
 20
4.159262
 30
0.0
 11
11.340738
 21
4.8
 31
0.0
  0
LINE
  8
0
 62
     0
 10
10.7
 20
4.336039
 30
0.0
 11
11.163961
 21
4.8
 31
0.0
  0
LINE
  8
0
 62
     0
 10
10.7
 20
4.512816
 30
0.0
 11
10.987184
 21
4.8
 31
0.0
  0
LINE
  8
0
 62
     0
 10
10.7
 20
4.689592
 30
0.0
 11
10.810408
 21
4.8
 31
0.0
  0
LINE
  8
0
 62
     0
 10
10.7
 20
0.977282
 30
0.0
 11
13.5
 21
3.777282
 31
0.0
  0
LINE
  8
0
 62
     0
 10
10.7
 20
0.800505
 30
0.0
 11
13.5
 21
3.600505
 31
0.0
  0
LINE
  8
0
 62
     0
 10
10.7
 20
0.623728
 30
0.0
 11
13.5
 21
3.423728
 31
0.0
  0
LINE
  8
0
 62
     0
 10
10.7
 20
0.446952
 30
0.0
 11
13.5
 21
3.246952
 31
0.0
  0
LINE
  8
0
 62
     0
 10
10.7
 20
0.270175
 30
0.0
 11
13.5
 21
3.070175
 31
0.0
  0
LINE
  8
0
 62
     0
 10
10.7
 20
0.093398
 30
0.0
 11
13.5
 21
2.893398
 31
0.0
  0
LINE
  8
0
 62
     0
 10
10.783378
 20
0.0
 30
0.0
 11
13.5
 21
2.716622
 31
0.0
  0
LINE
  8
0
 62
     0
 10
10.960155
 20
0.0
 30
0.0
 11
13.5
 21
2.539845
 31
0.0
  0
LINE
  8
0
 62
     0
 10
11.136932
 20
0.0
 30
0.0
 11
13.5
 21
2.363068
 31
0.0
  0
LINE
  8
0
 62
     0
 10
11.313708
 20
0.0
 30
0.0
 11
13.5
 21
2.186292
 31
0.0
  0
LINE
  8
0
 62
     0
 10
11.490485
 20
0.0
 30
0.0
 11
13.5
 21
2.009515
 31
0.0
  0
LINE
  8
0
 62
     0
 10
11.667262
 20
0.0
 30
0.0
 11
13.5
 21
1.832738
 31
0.0
  0
LINE
  8
0
 62
     0
 10
11.844039
 20
0.0
 30
0.0
 11
13.5
 21
1.655961
 31
0.0
  0
LINE
  8
0
 62
     0
 10
12.020815
 20
0.0
 30
0.0
 11
13.5
 21
1.479185
 31
0.0
  0
LINE
  8
0
 62
     0
 10
12.197592
 20
0.0
 30
0.0
 11
13.5
 21
1.302408
 31
0.0
  0
LINE
  8
0
 62
     0
 10
12.374369
 20
0.0
 30
0.0
 11
13.5
 21
1.125631
 31
0.0
  0
LINE
  8
0
 62
     0
 10
12.551145
 20
0.0
 30
0.0
 11
13.5
 21
0.948855
 31
0.0
  0
LINE
  8
0
 62
     0
 10
12.727922
 20
0.0
 30
0.0
 11
13.5
 21
0.772078
 31
0.0
  0
LINE
  8
0
 62
     0
 10
12.904699
 20
0.0
 30
0.0
 11
13.5
 21
0.595301
 31
0.0
  0
LINE
  8
0
 62
     0
 10
13.081475
 20
0.0
 30
0.0
 11
13.5
 21
0.418525
 31
0.0
  0
LINE
  8
0
 62
     0
 10
13.258252
 20
0.0
 30
0.0
 11
13.5
 21
0.241748
 31
0.0
  0
LINE
  8
0
 62
     0
 10
13.435029
 20
0.0
 30
0.0
 11
13.5
 21
0.064971
 31
0.0
  0
ENDBLK
  8
0
  0
BLOCK
  8
0
  2
*X36
 70
    65
 10
0.0
 20
0.0
 30
0.0
  3
*X
  0
LINE
  8
0
 62
     0
 10
13.9
 20
6.298602
 30
0.0
 11
16.582995
 21
8.981597
 31
0.0
  0
LINE
  8
0
 62
     0
 10
13.9
 20
6.475379
 30
0.0
 11
16.510503
 21
9.085882
 31
0.0
  0
LINE
  8
0
 62
     0
 10
13.9
 20
6.652155
 30
0.0
 11
16.432927
 21
9.185083
 31
0.0
  0
LINE
  8
0
 62
     0
 10
13.9
 20
6.828932
 30
0.0
 11
16.350372
 21
9.279304
 31
0.0
  0
LINE
  8
0
 62
     0
 10
13.9
 20
7.005709
 30
0.0
 11
16.262892
 21
9.368601
 31
0.0
  0
LINE
  8
0
 62
     0
 10
13.9
 20
7.182486
 30
0.0
 11
16.170495
 21
9.452981
 31
0.0
  0
LINE
  8
0
 62
     0
 10
13.9
 20
7.359262
 30
0.0
 11
16.073145
 21
9.532407
 31
0.0
  0
LINE
  8
0
 62
     0
 10
13.9
 20
7.536039
 30
0.0
 11
15.970755
 21
9.606794
 31
0.0
  0
LINE
  8
0
 62
     0
 10
13.9
 20
7.712816
 30
0.0
 11
15.863189
 21
9.676004
 31
0.0
  0
LINE
  8
0
 62
     0
 10
13.9
 20
7.889592
 30
0.0
 11
15.75025
 21
9.739843
 31
0.0
  0
LINE
  8
0
 62
     0
 10
13.9
 20
8.066369
 30
0.0
 11
15.631675
 21
9.798044
 31
0.0
  0
LINE
  8
0
 62
     0
 10
13.9
 20
8.243146
 30
0.0
 11
15.50711
 21
9.850256
 31
0.0
  0
LINE
  8
0
 62
     0
 10
13.9
 20
8.419922
 30
0.0
 11
15.376096
 21
9.896018
 31
0.0
  0
LINE
  8
0
 62
     0
 10
13.9
 20
8.596699
 30
0.0
 11
15.238027
 21
9.934726
 31
0.0
  0
LINE
  8
0
 62
     0
 10
13.9
 20
8.773476
 30
0.0
 11
15.092096
 21
9.965572
 31
0.0
  0
LINE
  8
0
 62
     0
 10
13.9
 20
8.950253
 30
0.0
 11
14.937209
 21
9.987461
 31
0.0
  0
LINE
  8
0
 62
     0
 10
13.9
 20
9.127029
 30
0.0
 11
14.771824
 21
9.998853
 31
0.0
  0
LINE
  8
0
 62
     0
 10
13.9
 20
9.303806
 30
0.0
 11
14.596193
 21
9.999999
 31
0.0
  0
LINE
  8
0
 62
     0
 10
13.9
 20
9.480583
 30
0.0
 11
14.419417
 21
9.999999
 31
0.0
  0
LINE
  8
0
 62
     0
 10
13.9
 20
9.657359
 30
0.0
 11
14.24264
 21
10.0
 31
0.0
  0
LINE
  8
0
 62
     0
 10
13.9
 20
9.834136
 30
0.0
 11
14.065864
 21
10.0
 31
0.0
  0
LINE
  8
0
 62
     0
 10
13.9
 20
6.121825
 30
0.0
 11
16.650245
 21
8.872071
 31
0.0
  0
LINE
  8
0
 62
     0
 10
13.9
 20
5.945049
 30
0.0
 11
16.712035
 21
8.757083
 31
0.0
  0
LINE
  8
0
 62
     0
 10
13.9
 20
5.768272
 30
0.0
 11
16.768067
 21
8.636339
 31
0.0
  0
LINE
  8
0
 62
     0
 10
13.9
 20
5.591495
 30
0.0
 11
16.817955
 21
8.509451
 31
0.0
  0
LINE
  8
0
 62
     0
 10
13.9
 20
5.414719
 30
0.0
 11
16.861189
 21
8.375908
 31
0.0
  0
LINE
  8
0
 62
     0
 10
13.9
 20
5.237942
 30
0.0
 11
16.897097
 21
8.235039
 31
0.0
  0
LINE
  8
0
 62
     0
 10
14.038835
 20
5.2
 30
0.0
 11
16.924779
 21
8.085944
 31
0.0
  0
LINE
  8
0
 62
     0
 10
14.215611
 20
5.2
 30
0.0
 11
16.942997
 21
7.927385
 31
0.0
  0
LINE
  8
0
 62
     0
 10
14.392388
 20
5.2
 30
0.0
 11
16.949987
 21
7.757599
 31
0.0
  0
LINE
  8
0
 62
     0
 10
14.569165
 20
5.2
 30
0.0
 11
16.943101
 21
7.573936
 31
0.0
  0
LINE
  8
0
 62
     0
 10
14.745942
 20
5.2
 30
0.0
 11
16.918037
 21
7.372095
 31
0.0
  0
LINE
  8
0
 62
     0
 10
14.922718
 20
5.2
 30
0.0
 11
16.866909
 21
7.144191
 31
0.0
  0
LINE
  8
0
 62
     0
 10
15.099495
 20
5.2
 30
0.0
 11
16.771715
 21
6.87222
 31
0.0
  0
LINE
  8
0
 62
     0
 10
15.276272
 20
5.2
 30
0.0
 11
15.847951
 21
5.77168
 31
0.0
  0
LINE
  8
0
 62
     0
 10
15.96673
 20
5.890458
 30
0.0
 11
16.559542
 21
6.48327
 31
0.0
  0
LINE
  8
0
 62
     0
 10
15.453048
 20
5.2
 30
0.0
 11
15.970661
 21
5.717613
 31
0.0
  0
LINE
  8
0
 62
     0
 10
15.629825
 20
5.2
 30
0.0
 11
16.088934
 21
5.659109
 31
0.0
  0
LINE
  8
0
 62
     0
 10
15.806602
 20
5.2
 30
0.0
 11
16.202964
 21
5.596363
 31
0.0
  0
LINE
  8
0
 62
     0
 10
15.983378
 20
5.2
 30
0.0
 11
16.312909
 21
5.529531
 31
0.0
  0
LINE
  8
0
 62
     0
 10
16.160155
 20
5.2
 30
0.0
 11
16.418895
 21
5.45874
 31
0.0
  0
LINE
  8
0
 62
     0
 10
16.336932
 20
5.2
 30
0.0
 11
16.521021
 21
5.384089
 31
0.0
  0
LINE
  8
0
 62
     0
 10
16.513708
 20
5.2
 30
0.0
 11
16.619363
 21
5.305655
 31
0.0
  0
LINE
  8
0
 62
     0
 10
16.690485
 20
5.2
 30
0.0
 11
16.713975
 21
5.22349
 31
0.0
  0
ENDBLK
  8
0
  0
BLOCK
  8
0
  2
*X37
 70
    65
 10
0.0
 20
0.0
 30
0.0
  3
*X
  0
LINE
  8
0
 62
     0
 10
13.9
 20
0.818525
 30
0.0
 11
17.39645
 21
4.314974
 31
0.0
  0
LINE
  8
0
 62
     0
 10
13.9
 20
0.995301
 30
0.0
 11
17.336354
 21
4.431655
 31
0.0
  0
LINE
  8
0
 62
     0
 10
13.9
 20
1.172078
 30
0.0
 11
17.272078
 21
4.544156
 31
0.0
  0
LINE
  8
0
 62
     0
 10
13.9
 20
1.348855
 30
0.0
 11
17.203766
 21
4.652621
 31
0.0
  0
LINE
  8
0
 62
     0
 10
13.9
 20
1.525631
 30
0.0
 11
17.131535
 21
4.757167
 31
0.0
  0
LINE
  8
0
 62
     0
 10
13.9
 20
1.702408
 30
0.0
 11
16.997592
 21
4.8
 31
0.0
  0
LINE
  8
0
 62
     0
 10
13.9
 20
1.879185
 30
0.0
 11
16.820815
 21
4.8
 31
0.0
  0
LINE
  8
0
 62
     0
 10
13.9
 20
2.055961
 30
0.0
 11
16.644039
 21
4.8
 31
0.0
  0
LINE
  8
0
 62
     0
 10
13.9
 20
2.232738
 30
0.0
 11
16.467262
 21
4.8
 31
0.0
  0
LINE
  8
0
 62
     0
 10
13.9
 20
2.409515
 30
0.0
 11
16.290485
 21
4.8
 31
0.0
  0
LINE
  8
0
 62
     0
 10
13.9
 20
2.586292
 30
0.0
 11
16.113708
 21
4.8
 31
0.0
  0
LINE
  8
0
 62
     0
 10
13.9
 20
2.763068
 30
0.0
 11
15.936932
 21
4.8
 31
0.0
  0
LINE
  8
0
 62
     0
 10
13.9
 20
2.939845
 30
0.0
 11
15.760155
 21
4.8
 31
0.0
  0
LINE
  8
0
 62
     0
 10
13.9
 20
3.116622
 30
0.0
 11
15.583378
 21
4.8
 31
0.0
  0
LINE
  8
0
 62
     0
 10
13.9
 20
3.293398
 30
0.0
 11
15.406602
 21
4.8
 31
0.0
  0
LINE
  8
0
 62
     0
 10
13.9
 20
3.470175
 30
0.0
 11
15.229825
 21
4.8
 31
0.0
  0
LINE
  8
0
 62
     0
 10
13.9
 20
3.646952
 30
0.0
 11
15.053048
 21
4.8
 31
0.0
  0
LINE
  8
0
 62
     0
 10
13.9
 20
3.823728
 30
0.0
 11
14.876272
 21
4.8
 31
0.0
  0
LINE
  8
0
 62
     0
 10
13.9
 20
4.000505
 30
0.0
 11
14.699495
 21
4.8
 31
0.0
  0
LINE
  8
0
 62
     0
 10
13.9
 20
4.177282
 30
0.0
 11
14.522718
 21
4.8
 31
0.0
  0
LINE
  8
0
 62
     0
 10
13.9
 20
4.354058
 30
0.0
 11
14.345942
 21
4.8
 31
0.0
  0
LINE
  8
0
 62
     0
 10
13.9
 20
4.530835
 30
0.0
 11
14.169165
 21
4.8
 31
0.0
  0
LINE
  8
0
 62
     0
 10
13.9
 20
4.707612
 30
0.0
 11
13.992388
 21
4.8
 31
0.0
  0
LINE
  8
0
 62
     0
 10
13.9
 20
0.641748
 30
0.0
 11
17.452185
 21
4.193933
 31
0.0
  0
LINE
  8
0
 62
     0
 10
13.9
 20
0.464971
 30
0.0
 11
17.503339
 21
4.068311
 31
0.0
  0
LINE
  8
0
 62
     0
 10
13.9
 20
0.288194
 30
0.0
 11
17.549642
 21
3.937837
 31
0.0
  0
LINE
  8
0
 62
     0
 10
13.9
 20
0.111418
 30
0.0
 11
17.590762
 21
3.80218
 31
0.0
  0
LINE
  8
0
 62
     0
 10
13.965359
 20
0.0
 30
0.0
 11
17.62629
 21
3.660931
 31
0.0
  0
LINE
  8
0
 62
     0
 10
14.142136
 20
0.000001
 30
0.0
 11
17.655713
 21
3.513577
 31
0.0
  0
LINE
  8
0
 62
     0
 10
14.318913
 20
0.000001
 30
0.0
 11
17.678385
 21
3.359473
 31
0.0
  0
LINE
  8
0
 62
     0
 10
14.49569
 20
0.000001
 30
0.0
 11
17.693473
 21
3.197784
 31
0.0
  0
LINE
  8
0
 62
     0
 10
14.672467
 20
0.000002
 30
0.0
 11
17.699875
 21
3.027409
 31
0.0
  0
LINE
  8
0
 62
     0
 10
14.853154
 20
0.003912
 30
0.0
 11
17.696088
 21
2.846846
 31
0.0
  0
LINE
  8
0
 62
     0
 10
15.046044
 20
0.020025
 30
0.0
 11
17.679975
 21
2.653956
 31
0.0
  0
LINE
  8
0
 62
     0
 10
15.254483
 20
0.051687
 30
0.0
 11
17.648313
 21
2.445517
 31
0.0
  0
LINE
  8
0
 62
     0
 10
15.483762
 20
0.10419
 30
0.0
 11
17.59581
 21
2.216238
 31
0.0
  0
LINE
  8
0
 62
     0
 10
15.743786
 20
0.187437
 30
0.0
 11
17.512563
 21
1.956214
 31
0.0
  0
LINE
  8
0
 62
     0
 10
16.058176
 20
0.32505
 30
0.0
 11
17.37495
 21
1.641824
 31
0.0
  0
LINE
  8
0
 62
     0
 10
16.54193
 20
0.632028
 30
0.0
 11
17.067972
 21
1.15807
 31
0.0
  0
ENDBLK
  8
0
  0
ENDSEC
  0
SECTION
  2
ENTITIES
  0
INSERT
  8
0
  2
1
 10
65.405438
 20
98.713066
 30
0.0
  0
INSERT
  8
0
  2
1
 10
72.541652
 20
49.71056
 30
0.0
  0
INSERT
  8
0
  2
1
 10
85.390443
 20
73.497234
 30
0.0
  0
LINE
  8
0
  6
CENTER
 62
     7
 10
250.0
 20
190.0
 30
0.0
 11
250.0
 21
82.5
 31
0.0
  0
LINE
  8
0
  6
CENTER
 62
     7
 10
250.0
 20
82.5
 30
0.0
 11
250.0
 21
60.0
 31
0.0
  0
LINE
  8
0
  6
CONTINUOUS
 62
     7
 10
232.5
 20
75.0
 30
0.0
 11
242.5
 21
75.0
 31
0.0
  0
LINE
  8
0
  6
CONTINUOUS
 62
     7
 10
232.5
 20
75.0
 30
0.0
 11
235.0
 21
77.5
 31
0.0
  0
LINE
  8
0
  6
CONTINUOUS
 62
     7
 10
237.5
 20
75.0
 30
0.0
 11
240.0
 21
77.5
 31
0.0
  0
LINE
  8
0
  6
CONTINUOUS
 62
     7
 10
242.5
 20
75.0
 30
0.0
 11
245.0
 21
77.5
 31
0.0
  0
LINE
  8
0
  6
CONTINUOUS
 62
     7
 10
237.5
 20
75.0
 30
0.0
 11
237.5
 21
60.0
 31
0.0
  0
LINE
  8
0
  6
CONTINUOUS
 62
     7
 10
225.0
 20
77.5
 30
0.0
 11
225.0
 21
60.0
 31
0.0
  0
LINE
  8
0
  6
CONTINUOUS
 62
     7
 10
220.0
 20
77.5
 30
0.0
 11
220.0
 21
60.0
 31
0.0
  0
LINE
  8
0
  6
DASHED
 62
     7
 10
225.0
 20
60.0
 30
0.0
 11
225.0
 21
52.5
 31
0.0
  0
LINE
  8
0
  6
DASHED
 62
     7
 10
237.5
 20
60.0
 30
0.0
 11
237.5
 21
52.5
 31
0.0
  0
LINE
  8
0
  6
DASHED
 62
     7
 10
220.0
 20
60.0
 30
0.0
 11
220.0
 21
52.5
 31
0.0
  0
LINE
  8
0
  6
DASHED
 62
     7
 10
205.0
 20
60.0
 30
0.0
 11
205.0
 21
52.5
 31
0.0
  0
LINE
  8
0
  6
DASHED
 62
     7
 10
185.0
 20
60.0
 30
0.0
 11
185.0
 21
52.5
 31
0.0
  0
LINE
  8
0
  6
DASHED
 62
     7
 10
175.0
 20
60.0
 30
0.0
 11
175.0
 21
52.5
 31
0.0
  0
LINE
  8
0
  6
CONTINUOUS
 62
     7
 10
187.5
 20
132.732891
 30
0.0
 11
217.950615
 21
132.732891
 31
0.0
  0
TEXT
  8
0
  6
CONTINUOUS
 62
     7
 10
199.408766
 20
128.795815
 30
0.0
 40
2.5
  1
IRF
 11
199.408766
 21
127.962481
 31
0.0
 73
     1
  0
LINE
  8
0
  6
CONTINUOUS
 62
     7
 10
217.950615
 20
127.5
 30
0.0
 11
187.5
 21
127.5
 31
0.0
  0
LINE
  8
0
  6
CONTINUOUS
 62
     7
 10
217.950615
 20
182.209828
 30
0.0
 11
217.950615
 21
127.5
 31
0.0
  0
LINE
  8
0
  6
CONTINUOUS
 62
     7
 10
217.950615
 20
205.0
 30
0.0
 11
217.950615
 21
182.18832
 31
0.0
  0
LINE
  8
0
  6
CONTINUOUS
 62
     7
 10
187.5
 20
137.5
 30
0.0
 11
217.950615
 21
137.5
 31
0.0
  0
CIRCLE
  8
0
  6
CONTINUOUS
 62
     7
 10
186.512659
 20
129.998324
 30
0.0
 40
1.0
  0
LINE
  8
0
  6
CONTINUOUS
 62
     7
 10
215.906026
 20
191.997804
 30
0.0
 11
213.56026
 21
190.807885
 31
0.0
  0
LINE
  8
0
  6
CONTINUOUS
 62
     7
 10
213.56026
 20
193.333158
 30
0.0
 11
215.906026
 21
191.997804
 31
0.0
  0
LINE
  8
0
  6
CONTINUOUS
 62
     7
 10
198.926606
 20
195.320238
 30
0.0
 11
198.926606
 21
193.532107
 31
0.0
  0
LINE
  8
0
  6
CONTINUOUS
 62
     7
 10
198.957637
 20
194.47496
 30
0.0
 11
206.745842
 21
194.47496
 31
0.0
  0
LINE
  8
0
  6
CONTINUOUS
 62
     7
 10
201.341782
 20
193.307357
 30
0.0
 11
204.217892
 21
196.135916
 31
0.0
  0
LINE
  8
0
  6
CONTINUOUS
 62
     7
 10
203.787189
 20
196.673123
 30
0.0
 11
204.687866
 21
195.549374
 31
0.0
  0
LINE
  8
0
  6
CONTINUOUS
 62
     7
 10
206.741301
 20
195.320238
 30
0.0
 11
206.741301
 21
193.532107
 31
0.0
  0
ARC
  8
0
  6
HIDDEN
 62
     7
 10
205.652505
 20
198.403504
 30
0.0
 40
4.998196
 50
206.402922
 51
282.21115
  0
TEXT
  8
0
  6
CONTINUOUS
 62
     7
 10
189.300457
 20
188.565833
 30
0.0
 40
2.5
  1
I
 11
189.300457
 21
187.7325
 31
0.0
 73
     1
  0
LINE
  8
0
  6
CONTINUOUS
 62
     7
 10
193.455418
 20
189.746469
 30
0.0
 11
191.109652
 21
188.55655
 31
0.0
  0
LINE
  8
0
  6
CONTINUOUS
 62
     7
 10
195.054525
 20
189.746469
 30
0.0
 11
192.708759
 21
188.55655
 31
0.0
  0
LINE
  8
0
  6
CONTINUOUS
 62
     7
 10
191.109652
 20
191.081823
 30
0.0
 11
193.455418
 21
189.746469
 31
0.0
  0
LINE
  8
0
  6
CONTINUOUS
 62
     7
 10
192.708759
 20
191.081823
 30
0.0
 11
195.054525
 21
189.746469
 31
0.0
  0
TEXT
  8
0
  6
CONTINUOUS
 62
     7
 10
189.300457
 20
193.246654
 30
0.0
 40
2.5
  1
I
 11
189.300457
 21
192.413321
 31
0.0
 73
     1
  0
LINE
  8
0
  6
CONTINUOUS
 62
     7
 10
193.455418
 20
194.42729
 30
0.0
 11
191.109652
 21
193.237371
 31
0.0
  0
LINE
  8
0
  6
CONTINUOUS
 62
     7
 10
191.109652
 20
195.762644
 30
0.0
 11
193.455418
 21
194.42729
 31
0.0
  0
LINE
  8
0
  6
CONTINUOUS
 62
     7
 10
187.5
 20
195.0
 30
0.0
 11
187.5
 21
180.0
 31
0.0
  0
LINE
  8
0
  6
CONTINUOUS
 62
     7
 10
187.5
 20
195.0
 30
0.0
 11
187.5
 21
200.0
 31
0.0
  0
LINE
  8
0
  6
CONTINUOUS
 62
     7
 10
187.5
 20
180.0
 30
0.0
 11
187.5
 21
127.5
 31
0.0
  0
TEXT
  8
0
  6
CONTINUOUS
 62
     7
 10
209.077329
 20
190.859446
 30
0.0
 40
2.5
  1
3I
  0
LINE
  8
0
  6
CENTER
 62
     7
 10
57.5
 20
220.0
 30
0.0
 11
57.5
 21
60.0
 31
0.0
  0
LINE
  8
0
  6
CONTINUOUS
 62
     7
 10
85.0
 20
122.5
 30
0.0
 11
90.0
 21
122.5
 31
0.0
  0
LINE
  8
0
  6
CONTINUOUS
 62
     7
 10
85.0
 20
122.5
 30
0.0
 11
79.256076
 21
119.285297
 31
0.0
  0
TEXT
  8
0
  6
DASHED
 62
     7
 10
78.197373
 20
123.403492
 30
0.0
 40
2.0
  1
A
  0
TEXT
  8
0
  6
DASHED
 62
     7
 10
104.143373
 20
113.774588
 30
0.0
 40
2.0
  1
B
  0
TEXT
  8
0
  6
DASHED
 62
     7
 10
145.671573
 20
83.364654
 30
0.0
 40
2.0
  1
E
  0
TEXT
  8
0
  6
DASHED
 62
     7
 10
161.066284
 20
73.236332
 30
0.0
 40
2.0
  1
F
  0
LINE
  8
0
  6
CENTER
 62
     7
 10
57.5
 20
60.0
 30
0.0
 11
250.0
 21
60.0
 31
0.0
  0
LINE
  8
0
  6
CONTINUOUS
 62
     7
 10
172.5
 20
72.5
 30
0.0
 11
175.0
 21
72.5
 31
0.0
  0
LINE
  8
0
  6
CONTINUOUS
 62
     7
 10
175.0
 20
72.5
 30
0.0
 11
175.0
 21
60.0
 31
0.0
  0
LINE
  8
0
  6
CONTINUOUS
 62
     7
 10
157.5
 20
72.5
 30
0.0
 11
162.5
 21
72.5
 31
0.0
  0
LINE
  8
0
  6
CONTINUOUS
 62
     7
 10
162.5
 20
67.5
 30
0.0
 11
157.5
 21
67.5
 31
0.0
  0
LINE
  8
0
  6
CONTINUOUS
 62
     7
 10
162.5
 20
67.5
 30
0.0
 11
162.5
 21
70.0
 31
0.0
  0
LINE
  8
0
  6
CONTINUOUS
 62
     7
 10
167.5
 20
72.5
 30
0.0
 11
172.5
 21
72.5
 31
0.0
  0
LINE
  8
0
  6
CONTINUOUS
 62
     7
 10
167.5
 20
72.5
 30
0.0
 11
161.756076
 21
69.285297
 31
0.0
  0
LINE
  8
0
  6
CENTER
 62
     7
 10
250.0
 20
212.5
 30
0.0
 11
250.0
 21
220.0
 31
0.0
  0
LINE
  8
0
  6
CENTER
 62
     7
 10
250.0
 20
220.0
 30
0.0
 11
57.5
 21
220.0
 31
0.0
  0
LINE
  8
0
  6
DASHED
 62
     7
 10
195.0
 20
60.0
 30
0.0
 11
195.0
 21
52.5
 31
0.0
  0
LINE
  8
0
  6
DASHED
 62
     7
 10
200.0
 20
60.0
 30
0.0
 11
200.0
 21
52.5
 31
0.0
  0
TEXT
  8
0
  6
CONTINUOUS
 62
     7
 10
263.732328
 20
239.006967
 30
0.0
 40
2.0
  1
L3(T)
 11
263.732328
 21
238.3403
 31
0.0
 73
     1
  0
TEXT
  8
0
  6
CONTINUOUS
 62
     7
 10
263.732328
 20
246.428359
 30
0.0
 40
2.0
  1
L2(S)
 11
263.732328
 21
245.761693
 31
0.0
 73
     1
  0
TEXT
  8
0
  6
CONTINUOUS
 62
     7
 10
263.732328
 20
253.985054
 30
0.0
 40
2.0
  1
L1(R)
 11
263.732328
 21
253.318387
 31
0.0
 73
     1
  0
LINE
  8
0
  6
DASHED
 62
     7
 10
300.0
 20
210.189992
 30
0.0
 11
292.5
 21
210.189992
 31
0.0
  0
LINE
  8
0
  6
CONTINUOUS
 62
     7
 10
315.0
 20
227.5
 30
0.0
 11
314.5
 21
227.0
 31
0.0
  0
LINE
  8
0
  6
CONTINUOUS
 62
     7
 10
315.0
 20
227.5
 30
0.0
 11
314.5
 21
228.0
 31
0.0
  0
LINE
  8
0
  6
CONTINUOUS
 62
     7
 10
315.0
 20
227.5
 30
0.0
 11
315.5
 21
228.0
 31
0.0
  0
LINE
  8
0
  6
CONTINUOUS
 62
     7
 10
315.0
 20
227.5
 30
0.0
 11
315.5
 21
227.0
 31
0.0
  0
LINE
  8
0
  6
CONTINUOUS
 62
     7
 10
307.5
 20
227.5
 30
0.0
 11
307.0
 21
228.0
 31
0.0
  0
LINE
  8
0
  6
CONTINUOUS
 62
     7
 10
307.5
 20
227.5
 30
0.0
 11
307.0
 21
227.0
 31
0.0
  0
LINE
  8
0
  6
CONTINUOUS
 62
     7
 10
307.5
 20
227.5
 30
0.0
 11
308.0
 21
227.0
 31
0.0
  0
LINE
  8
0
  6
CONTINUOUS
 62
     7
 10
307.5
 20
227.5
 30
0.0
 11
308.0
 21
228.0
 31
0.0
  0
LINE
  8
0
  6
CONTINUOUS
 62
     7
 10
300.0
 20
227.5
 30
0.0
 11
299.5
 21
227.0
 31
0.0
  0
LINE
  8
0
  6
CONTINUOUS
 62
     7
 10
300.0
 20
227.5
 30
0.0
 11
300.5
 21
228.0
 31
0.0
  0
LINE
  8
0
  6
CONTINUOUS
 62
     7
 10
300.0
 20
227.5
 30
0.0
 11
300.5
 21
227.0
 31
0.0
  0
LINE
  8
0
  6
CONTINUOUS
 62
     7
 10
300.0
 20
227.5
 30
0.0
 11
299.5
 21
228.0
 31
0.0
  0
LINE
  8
0
  6
CONTINUOUS
 62
     7
 10
315.0
 20
220.0
 30
0.0
 11
312.5
 21
227.5
 31
0.0
  0
LINE
  8
0
  6
CONTINUOUS
 62
     7
 10
307.5
 20
220.0
 30
0.0
 11
305.0
 21
227.5
 31
0.0
  0
LINE
  8
0
  6
CONTINUOUS
 62
     7
 10
300.0
 20
220.0
 30
0.0
 11
297.5
 21
227.5
 31
0.0
  0
LINE
  8
0
  6
DASHED
 62
     7
 10
300.0
 20
240.0
 30
0.0
 11
300.0
 21
255.0
 31
0.0
  0
LINE
  8
0
  6
DASHED
 62
     7
 10
307.5
 20
240.0
 30
0.0
 11
307.5
 21
247.5
 31
0.0
  0
LINE
  8
0
  6
DASHED
 62
     7
 10
330.0
 20
255.0
 30
0.0
 11
272.5
 21
255.0
 31
0.0
  0
LINE
  8
0
  6
DASHED
 62
     7
 10
330.0
 20
247.5
 30
0.0
 11
272.5
 21
247.5
 31
0.0
  0
LINE
  8
0
  6
DASHED
 62
     7
 10
330.0
 20
240.0
 30
0.0
 11
272.5
 21
240.0
 31
0.0
  0
LINE
  8
0
  6
DASHED
 62
     7
 10
315.0
 20
220.0
 30
0.0
 11
315.0
 21
187.5
 31
0.0
  0
LINE
  8
0
  6
DASHED
 62
     7
 10
315.0
 20
240.0
 30
0.0
 11
315.0
 21
227.5
 31
0.0
  0
LINE
  8
0
  6
DASHED
 62
     7
 10
307.5
 20
220.0
 30
0.0
 11
307.5
 21
187.5
 31
0.0
  0
LINE
  8
0
  6
DASHED
 62
     7
 10
307.5
 20
240.0
 30
0.0
 11
307.5
 21
227.5
 31
0.0
  0
LINE
  8
0
  6
DASHED
 62
     7
 10
300.0
 20
227.5
 30
0.0
 11
300.0
 21
240.0
 31
0.0
  0
LINE
  8
0
  6
DASHED
 62
     7
 10
300.0
 20
220.0
 30
0.0
 11
300.0
 21
187.5
 31
0.0
  0
LINE
  8
0
  6
DASHED
 62
     7
 10
250.0
 20
205.0
 30
0.0
 11
260.0
 21
205.0
 31
0.0
  0
LINE
  8
0
  6
DASHED
 62
     7
 10
250.0
 20
215.0
 30
0.0
 11
300.0
 21
215.0
 31
0.0
  0
LINE
  8
0
  6
DASHED
 62
     7
 10
315.0
 20
187.5
 30
0.0
 11
315.0
 21
162.5
 31
0.0
  0
LINE
  8
0
  6
DASHED
 62
     7
 10
307.5
 20
187.5
 30
0.0
 11
307.5
 21
162.5
 31
0.0
  0
LINE
  8
0
  6
DASHED
 62
     7
 10
300.0
 20
187.5
 30
0.0
 11
300.0
 21
162.5
 31
0.0
  0
LINE
  8
0
  6
DASHED
 62
     7
 10
292.5
 20
210.189992
 30
0.0
 11
292.5
 21
162.5
 31
0.0
  0
LINE
  8
0
  6
DASHED
 62
     7
 10
250.0
 20
185.0
 30
0.0
 11
260.0
 21
185.0
 31
0.0
  0
LINE
  8
0
  6
DASHED
 62
     7
 10
250.0
 20
165.0
 30
0.0
 11
260.0
 21
165.0
 31
0.0
  0
LINE
  8
0
  6
DASHED
 62
     7
 10
250.0
 20
175.0
 30
0.0
 11
315.0
 21
175.0
 31
0.0
  0
LINE
  8
0
  6
DASHED
 62
     7
 10
250.0
 20
195.0
 30
0.0
 11
307.5
 21
195.0
 31
0.0
  0
LINE
  8
0
  6
DASHED
 62
     7
 10
307.569797
 20
190.189984
 30
0.0
 11
292.5
 21
190.189984
 31
0.0
  0
LINE
  8
0
  6
DASHED
 62
     7
 10
315.006921
 20
170.189984
 30
0.0
 11
292.5
 21
170.189984
 31
0.0
  0
ARC
  8
0
  6
CONTINUOUS
 62
     7
 10
252.5
 20
135.0
 30
0.0
 40
2.5
 50
90.0
 51
270.0
  0
TEXT
  8
0
  6
DASHED
 62
     7
 10
363.943359
 20
250.768474
 30
0.0
 40
2.5
  1
3I
  0
LINE
  8
0
  6
CONTINUOUS
 62
     7
 10
368.350579
 20
253.316754
 30
0.0
 11
370.696345
 21
251.9814
 31
0.0
  0
LINE
  8
0
  6
CONTINUOUS
 62
     7
 10
370.696345
 20
251.9814
 30
0.0
 11
368.350579
 21
250.791481
 31
0.0
  0
LINE
  8
0
  6
CONTINUOUS
 62
     7
 10
363.100275
 20
247.706143
 30
0.0
 11
363.100275
 21
245.918012
 31
0.0
  0
LINE
  8
0
  6
CONTINUOUS
 62
     7
 10
363.131307
 20
246.860865
 30
0.0
 11
370.919512
 21
246.860865
 31
0.0
  0
LINE
  8
0
  6
CONTINUOUS
 62
     7
 10
367.960859
 20
249.059027
 30
0.0
 11
368.861536
 21
247.935278
 31
0.0
  0
ARC
  8
0
  6
HIDDEN
 62
     7
 10
369.826175
 20
250.789409
 30
0.0
 40
4.998196
 50
206.402922
 51
282.21115
  0
LINE
  8
0
  6
CONTINUOUS
 62
     7
 10
365.515452
 20
245.693262
 30
0.0
 11
368.391562
 21
248.521821
 31
0.0
  0
LINE
  8
0
  6
CONTINUOUS
 62
     7
 10
370.914971
 20
247.706143
 30
0.0
 11
370.914971
 21
245.918012
 31
0.0
  0
TEXT
  8
0
  6
DASHED
 62
     7
 10
363.943359
 20
240.782752
 30
0.0
 40
2.5
  1
3I
  0
LINE
  8
0
  6
CONTINUOUS
 62
     7
 10
370.938869
 20
242.00956
 30
0.0
 11
368.593104
 21
240.819641
 31
0.0
  0
LINE
  8
0
  6
CONTINUOUS
 62
     7
 10
368.593104
 20
243.344914
 30
0.0
 11
370.938869
 21
242.00956
 31
0.0
  0
LINE
  8
0
  6
CONTINUOUS
 62
     7
 10
370.144234
 20
243.344914
 30
0.0
 11
372.49
 21
242.00956
 31
0.0
  0
LINE
  8
0
  6
CONTINUOUS
 62
     7
 10
372.49
 20
242.00956
 30
0.0
 11
370.144234
 21
240.819641
 31
0.0
  0
LINE
  8
0
  6
CONTINUOUS
 62
     7
 10
370.914971
 20
238.052173
 30
0.0
 11
370.914971
 21
236.264041
 31
0.0
  0
LINE
  8
0
  6
CONTINUOUS
 62
     7
 10
367.960859
 20
239.405057
 30
0.0
 11
368.861536
 21
238.281308
 31
0.0
  0
LINE
  8
0
  6
CONTINUOUS
 62
     7
 10
365.515452
 20
236.039291
 30
0.0
 11
368.391562
 21
238.86785
 31
0.0
  0
LINE
  8
0
  6
CONTINUOUS
 62
     7
 10
363.131307
 20
237.206894
 30
0.0
 11
370.919512
 21
237.206894
 31
0.0
  0
LINE
  8
0
  6
CONTINUOUS
 62
     7
 10
363.100275
 20
238.052173
 30
0.0
 11
363.100275
 21
236.264041
 31
0.0
  0
TEXT
  8
0
  6
DASHED
 62
     7
 10
31.869019
 20
207.5
 30
0.0
 40
2.0
  1
1)
  0
TEXT
  8
0
  6
CONTINUOUS
 62
     7
 10
199.490407
 20
133.566424
 30
0.0
 40
2.5
  1
I/O
  0
TEXT
  8
0
  6
CONTINUOUS
 62
     7
 10
212.347994
 20
200.823751
 30
0.0
 40
2.5
  1
U1
  0
LINE
  8
0
  6
CONTINUOUS
 62
     7
 10
187.5
 20
160.0
 30
0.0
 11
217.950615
 21
160.0
 31
0.0
  0
LINE
  8
0
  6
CONTINUOUS
 62
     7
 10
187.5
 20
180.0
 30
0.0
 11
207.5
 21
180.0
 31
0.0
  0
LINE
  8
0
  6
CONTINUOUS
 62
     7
 10
207.5
 20
180.0
 30
0.0
 11
217.950615
 21
180.0
 31
0.0
  0
LINE
  8
0
  6
CONTINUOUS
 62
     7
 10
187.5
 20
187.5
 30
0.0
 11
207.5
 21
187.5
 31
0.0
  0
LINE
  8
0
  6
CONTINUOUS
 62
     7
 10
197.5
 20
198.021206
 30
0.0
 11
200.0
 21
198.021206
 31
0.0
  0
LINE
  8
0
  6
CONTINUOUS
 62
     7
 10
197.5
 20
198.021206
 30
0.0
 11
195.275553
 21
197.460564
 31
0.0
  0
LINE
  8
0
  6
CONTINUOUS
 62
     7
 10
192.5
 20
198.021206
 30
0.0
 11
195.0
 21
198.021206
 31
0.0
  0
TEXT
  8
0
  6
CONTINUOUS
 62
     7
 10
188.406909
 20
197.263189
 30
0.0
 40
1.5
  1
EN
  0
TEXT
  8
0
  6
CONTINUOUS
 62
     7
 10
189.320715
 20
181.050653
 30
0.0
 40
2.5
  1
I
 11
189.320715
 21
180.21732
 31
0.0
 73
     1
  0
LINE
  8
0
  6
CONTINUOUS
 62
     7
 10
195.218071
 20
182.199119
 30
0.0
 11
192.872306
 21
181.0092
 31
0.0
  0
LINE
  8
0
  6
CONTINUOUS
 62
     7
 10
192.872306
 20
183.534473
 30
0.0
 11
195.218071
 21
182.199119
 31
0.0
  0
LINE
  8
0
  6
CONTINUOUS
 62
     7
 10
191.273199
 20
183.534473
 30
0.0
 11
193.618965
 21
182.199119
 31
0.0
  0
LINE
  8
0
  6
CONTINUOUS
 62
     7
 10
193.618965
 20
182.199119
 30
0.0
 11
191.273199
 21
181.0092
 31
0.0
  0
CIRCLE
  8
0
  6
CONTINUOUS
 62
     7
 10
186.512659
 20
198.016691
 30
0.0
 40
1.0
  0
LINE
  8
0
  6
CONTINUOUS
 62
     7
 10
198.653232
 20
182.457095
 30
0.0
 11
198.653232
 21
180.668963
 31
0.0
  0
LINE
  8
0
  6
CONTINUOUS
 62
     7
 10
198.684263
 20
181.611816
 30
0.0
 11
206.472468
 21
181.611816
 31
0.0
  0
LINE
  8
0
  6
CONTINUOUS
 62
     7
 10
201.068408
 20
180.444214
 30
0.0
 11
203.944519
 21
183.272772
 31
0.0
  0
LINE
  8
0
  6
CONTINUOUS
 62
     7
 10
203.490396
 20
183.809979
 30
0.0
 11
204.391073
 21
182.68623
 31
0.0
  0
LINE
  8
0
  6
CONTINUOUS
 62
     7
 10
206.467927
 20
182.457095
 30
0.0
 11
206.467927
 21
180.668963
 31
0.0
  0
LINE
  8
0
  6
CONTINUOUS
 62
     7
 10
187.5
 20
192.5
 30
0.0
 11
207.5
 21
192.5
 31
0.0
  0
LINE
  8
0
  6
CONTINUOUS
 62
     7
 10
187.5
 20
200.0
 30
0.0
 11
207.5
 21
200.0
 31
0.0
  0
LINE
  8
0
  6
CONTINUOUS
 62
     7
 10
187.5
 20
200.0
 30
0.0
 11
187.5
 21
205.0
 31
0.0
  0
LINE
  8
0
  6
CONTINUOUS
 62
     7
 10
187.5
 20
205.0
 30
0.0
 11
217.950615
 21
205.0
 31
0.0
  0
LINE
  8
0
  6
CONTINUOUS
 62
     7
 10
207.5
 20
180.0
 30
0.0
 11
207.5
 21
205.0
 31
0.0
  0
CIRCLE
  8
0
  6
CONTINUOUS
 62
     7
 10
186.512659
 20
185.784079
 30
0.0
 40
1.0
  0
TEXT
  8
0
  6
CONTINUOUS
 62
     7
 10
188.406909
 20
185.030577
 30
0.0
 40
1.5
  1
EN
  0
LINE
  8
0
  6
CONTINUOUS
 62
     7
 10
192.5
 20
185.788594
 30
0.0
 11
195.0
 21
185.788594
 31
0.0
  0
LINE
  8
0
  6
CONTINUOUS
 62
     7
 10
197.5
 20
185.788594
 30
0.0
 11
195.275553
 21
185.227951
 31
0.0
  0
LINE
  8
0
  6
CONTINUOUS
 62
     7
 10
197.5
 20
185.788594
 30
0.0
 11
200.0
 21
185.788594
 31
0.0
  0
TEXT
  8
0
  6
CONTINUOUS
 62
     7
 10
189.300457
 20
201.265669
 30
0.0
 40
2.5
  1
I
 11
189.300457
 21
200.432336
 31
0.0
 73
     1
  0
LINE
  8
0
  6
CONTINUOUS
 62
     7
 10
193.455418
 20
202.446305
 30
0.0
 11
191.109652
 21
201.256386
 31
0.0
  0
LINE
  8
0
  6
CONTINUOUS
 62
     7
 10
191.109652
 20
203.781659
 30
0.0
 11
193.455418
 21
202.446305
 31
0.0
  0
LINE
  8
0
  6
CONTINUOUS
 62
     7
 10
147.5
 20
140.0
 30
0.0
 11
155.0
 21
140.0
 31
0.0
  0
LINE
  8
0
  6
CONTINUOUS
 62
     7
 10
147.5
 20
145.0
 30
0.0
 11
147.5
 21
140.0
 31
0.0
  0
LINE
  8
0
  6
CONTINUOUS
 62
     7
 10
155.0
 20
145.0
 30
0.0
 11
147.5
 21
145.0
 31
0.0
  0
LINE
  8
0
  6
CONTINUOUS
 62
     7
 10
152.5
 20
137.5
 30
0.0
 11
152.5
 21
132.5
 31
0.0
  0
LINE
  8
0
  6
CONTINUOUS
 62
     7
 10
152.5
 20
140.0
 30
0.0
 11
152.5
 21
137.5
 31
0.0
  0
LINE
  8
0
  6
CONTINUOUS
 62
     7
 10
151.357426
 20
142.789195
 30
0.0
 11
149.011661
 21
141.599276
 31
0.0
  0
LINE
  8
0
  6
CONTINUOUS
 62
     7
 10
149.003619
 20
140.799262
 30
0.0
 11
151.387079
 21
141.987454
 31
0.0
  0
LINE
  8
0
  6
CONTINUOUS
 62
     7
 10
149.011661
 20
144.124549
 30
0.0
 11
151.357426
 21
142.789195
 31
0.0
  0
TEXT
  8
0
  6
CONTINUOUS
 62
     7
 10
153.445522
 20
141.464455
 30
0.0
 40
2.5
  1
1
 11
153.445522
 21
140.631122
 31
0.0
 73
     1
  0
LINE
  8
0
  6
CONTINUOUS
 62
     7
 10
155.0
 20
145.0
 30
0.0
 11
155.0
 21
140.0
 31
0.0
  0
LINE
  8
0
  6
CONTINUOUS
 62
     7
 10
150.0
 20
145.0
 30
0.0
 11
150.0
 21
147.5
 31
0.0
  0
LINE
  8
0
  6
CONTINUOUS
 62
     7
 10
152.5
 20
145.0
 30
0.0
 11
152.5
 21
147.5
 31
0.0
  0
LINE
  8
0
  6
CONTINUOUS
 62
     7
 10
110.0
 20
145.0
 30
0.0
 11
110.0
 21
147.5
 31
0.0
  0
LINE
  8
0
  6
CONTINUOUS
 62
     7
 10
107.5
 20
145.0
 30
0.0
 11
107.5
 21
147.5
 31
0.0
  0
LINE
  8
0
  6
CONTINUOUS
 62
     7
 10
112.5
 20
145.0
 30
0.0
 11
112.5
 21
140.0
 31
0.0
  0
TEXT
  8
0
  6
CONTINUOUS
 62
     7
 10
110.945522
 20
141.464455
 30
0.0
 40
2.5
  1
1
 11
110.945522
 21
140.631122
 31
0.0
 73
     1
  0
LINE
  8
0
  6
CONTINUOUS
 62
     7
 10
106.511661
 20
144.124549
 30
0.0
 11
108.857426
 21
142.789195
 31
0.0
  0
LINE
  8
0
  6
CONTINUOUS
 62
     7
 10
106.503619
 20
140.799262
 30
0.0
 11
108.887079
 21
141.987454
 31
0.0
  0
LINE
  8
0
  6
CONTINUOUS
 62
     7
 10
108.857426
 20
142.789195
 30
0.0
 11
106.511661
 21
141.599276
 31
0.0
  0
LINE
  8
0
  6
CONTINUOUS
 62
     7
 10
110.0
 20
140.0
 30
0.0
 11
110.0
 21
137.5
 31
0.0
  0
LINE
  8
0
  6
CONTINUOUS
 62
     7
 10
110.0
 20
137.5
 30
0.0
 11
110.0
 21
132.5
 31
0.0
  0
LINE
  8
0
  6
CONTINUOUS
 62
     7
 10
112.5
 20
145.0
 30
0.0
 11
105.0
 21
145.0
 31
0.0
  0
LINE
  8
0
  6
CONTINUOUS
 62
     7
 10
105.0
 20
145.0
 30
0.0
 11
105.0
 21
140.0
 31
0.0
  0
LINE
  8
0
  6
CONTINUOUS
 62
     7
 10
105.0
 20
140.0
 30
0.0
 11
112.5
 21
140.0
 31
0.0
  0
LINE
  8
0
  6
CONTINUOUS
 62
     7
 10
117.5
 20
112.5
 30
0.0
 11
195.00793
 21
112.5
 31
0.0
  0
LINE
  8
0
  6
CONTINUOUS
 62
     7
 10
90.0
 20
122.5
 30
0.0
 11
199.982972
 21
122.5
 31
0.0
  0
LINE
  8
0
  6
CONTINUOUS
 62
     7
 10
160.0
 20
82.5
 30
0.0
 11
185.0
 21
82.5
 31
0.0
  0
LINE
  8
0
  6
CONTINUOUS
 62
     7
 10
102.5
 20
112.5
 30
0.0
 11
57.5
 21
112.5
 31
0.0
  0
LINE
  8
0
  6
CONTINUOUS
 62
     7
 10
102.5
 20
107.5
 30
0.0
 11
57.5
 21
107.5
 31
0.0
  0
LINE
  8
0
  6
CONTINUOUS
 62
     7
 10
145.0
 20
82.5
 30
0.0
 11
57.5
 21
82.5
 31
0.0
  0
LINE
  8
0
  6
CONTINUOUS
 62
     7
 10
145.0
 20
77.5
 30
0.0
 11
57.5
 21
77.5
 31
0.0
  0
LINE
  8
0
  6
CONTINUOUS
 62
     7
 10
157.5
 20
72.5
 30
0.0
 11
57.5
 21
72.5
 31
0.0
  0
LINE
  8
0
  6
CONTINUOUS
 62
     7
 10
157.5
 20
67.5
 30
0.0
 11
57.5
 21
67.5
 31
0.0
  0
LINE
  8
0
  6
CONTINUOUS
 62
     7
 10
185.51266
 20
130.0
 30
0.0
 11
165.0
 21
130.0
 31
0.0
  0
LINE
  8
0
  6
CONTINUOUS
 62
     7
 10
165.0
 20
130.0
 30
0.0
 11
165.0
 21
127.5
 31
0.0
  0
LINE
  8
0
  6
DASHED
 62
     7
 10
165.0
 20
127.5
 30
0.0
 11
165.0
 21
70.0
 31
0.0
  0
LINE
  8
0
  6
DASHED
 62
     7
 10
152.5
 20
132.5
 30
0.0
 11
152.5
 21
80.0
 31
0.0
  0
LINE
  8
0
  6
DASHED
 62
     7
 10
110.0
 20
132.5
 30
0.0
 11
110.0
 21
110.0
 31
0.0
  0
LINE
  8
0
  6
DASHED
 62
     7
 10
82.5
 20
132.5
 30
0.0
 11
82.5
 21
120.0
 31
0.0
  0
LINE
  8
0
  6
CONTINUOUS
 62
     7
 10
152.5
 20
147.5
 30
0.0
 11
152.5
 21
190.0
 31
0.0
  0
LINE
  8
0
  6
CONTINUOUS
 62
     7
 10
152.5
 20
190.0
 30
0.0
 11
187.5
 21
190.0
 31
0.0
  0
LINE
  8
0
  6
CONTINUOUS
 62
     7
 10
150.0
 20
152.5
 30
0.0
 11
150.0
 21
202.5
 31
0.0
  0
LINE
  8
0
  6
CONTINUOUS
 62
     7
 10
150.0
 20
202.5
 30
0.0
 11
187.5
 21
202.5
 31
0.0
  0
LINE
  8
0
  6
CONTINUOUS
 62
     7
 10
110.0
 20
207.5
 30
0.0
 11
167.5
 21
207.5
 31
0.0
  0
LINE
  8
0
  6
CONTINUOUS
 62
     7
 10
167.5
 20
207.5
 30
0.0
 11
167.5
 21
185.825312
 31
0.0
  0
LINE
  8
0
  6
CONTINUOUS
 62
     7
 10
110.0
 20
207.5
 30
0.0
 11
104.835918
 21
206.218969
 31
0.0
  0
LINE
  8
0
  6
CONTINUOUS
 62
     7
 10
150.0
 20
147.5
 30
0.0
 11
148.285914
 21
152.586297
 31
0.0
  0
TEXT
  8
0
  6
CONTINUOUS
 62
     7
 10
149.906707
 20
150.0
 30
0.0
 40
2.0
  1
1
  0
TEXT
  8
0
  6
CONTINUOUS
 62
     7
 10
104.592576
 20
208.565192
 30
0.0
 40
2.0
  1
SGR
  0
TEXT
  8
0
  6
CONTINUOUS
 62
     7
 10
108.136237
 20
204.566699
 30
0.0
 40
2.0
  1
8
  0
LINE
  8
0
  6
CONTINUOUS
 62
     7
 10
80.0
 20
145.0
 30
0.0
 11
80.0
 21
194.493304
 31
0.0
  0
LINE
  8
0
  6
CONTINUOUS
 62
     7
 10
80.0
 20
194.493304
 30
0.0
 11
187.5
 21
194.493304
 31
0.0
  0
LINE
  8
0
  6
CONTINUOUS
 62
     7
 10
82.5
 20
145.0
 30
0.0
 11
82.5
 21
181.993304
 31
0.0
  0
LINE
  8
0
  6
CONTINUOUS
 62
     7
 10
82.5
 20
181.993304
 30
0.0
 11
187.5
 21
181.993304
 31
0.0
  0
LINE
  8
0
  6
CONTINUOUS
 62
     7
 10
187.5
 20
162.5
 30
0.0
 11
187.5
 21
157.5
 31
0.0
  0
LINE
  8
0
  6
CONTINUOUS
 62
     7
 10
110.0
 20
147.5
 30
0.0
 11
110.0
 21
181.993304
 31
0.0
  0
LINE
  8
0
  6
CONTINUOUS
 62
     7
 10
107.5
 20
147.5
 30
0.0
 11
107.5
 21
194.493304
 31
0.0
  0
TEXT
  8
0
  6
CONTINUOUS
 62
     7
 10
141.778198
 20
155.802715
 30
0.0
 40
2.0
  1
SGR
  0
LINE
  8
0
  6
CONTINUOUS
 62
     7
 10
185.513814
 20
197.968636
 30
0.0
 11
167.5
 21
197.968636
 31
0.0
  0
LINE
  8
0
  6
CONTINUOUS
 62
     7
 10
185.513509
 20
185.825312
 30
0.0
 11
167.5
 21
185.825312
 31
0.0
  0
LINE
  8
0
  6
CENTER
 62
     7
 10
250.0
 20
212.5
 30
0.0
 11
250.0
 21
190.0
 31
0.0
  0
LINE
  8
0
  6
CONTINUOUS
 62
     7
 10
250.0
 20
177.5
 30
0.0
 11
250.0
 21
177.5
 31
0.0
  0
LINE
  8
0
  6
DASHED
 62
     7
 10
260.0
 20
165.0
 30
0.0
 11
292.5
 21
165.0
 31
0.0
  0
LINE
  8
0
  6
DASHED
 62
     7
 10
260.0
 20
205.0
 30
0.0
 11
260.0
 21
165.0
 31
0.0
  0
LINE
  8
0
  6
CONTINUOUS
 62
     7
 10
357.5
 20
235.0
 30
0.0
 11
377.5
 21
235.0
 31
0.0
  0
LINE
  8
0
  6
CONTINUOUS
 62
     7
 10
357.5
 20
255.0
 30
0.0
 11
377.5
 21
255.0
 31
0.0
  0
LINE
  8
0
  6
CONTINUOUS
 62
     7
 10
377.5
 20
255.0
 30
0.0
 11
377.5
 21
235.0
 31
0.0
  0
LINE
  8
0
  6
CONTINUOUS
 62
     7
 10
357.5
 20
235.0
 30
0.0
 11
357.5
 21
255.0
 31
0.0
  0
TEXT
  8
0
  6
CONTINUOUS
 62
     7
 10
355.0
 20
230.0
 30
0.0
 40
2.0
  1
OVERCURRENT RELAY
  0
TEXT
  8
0
  6
CONTINUOUS
 62
     7
 10
355.0
 20
226.666667
 30
0.0
 40
2.0
  1
ÖVERSTRÖMSRELÄ
  0
TEXT
  8
0
  6
CONTINUOUS
 62
     7
 10
332.5
 20
132.5
 30
0.0
 40
2.0
  1
EXTERNAL BLOCKING
  0
TEXT
  8
0
  6
CONTINUOUS
 62
     7
 10
332.5
 20
129.166667
 30
0.0
 40
2.0
  1
EXTERN BLOCKERING
  0
TEXT
  8
0
  6
CONTINUOUS
 62
     7
 10
332.5
 20
120.833333
 30
0.0
 40
2.0
  1
I/O-MODULE RX/TX
  0
TEXT
  8
0
  6
CONTINUOUS
 62
     7
 10
332.5
 20
117.5
 30
0.0
 40
2.0
  1
IN/UTGÅNGSMODUL
  0
TEXT
  8
0
  6
CONTINUOUS
 62
     7
 10
332.5
 20
109.166667
 30
0.0
 40
2.0
  1
TRIP
  0
TEXT
  8
0
  6
CONTINUOUS
 62
     7
 10
332.5
 20
105.833333
 30
0.0
 40
2.0
  1
UTLÖSNING
  0
TEXT
  8
0
  6
CONTINUOUS
 62
     7
 10
332.5
 20
97.5
 30
0.0
 40
2.0
  1
ALARM ETC.
  0
TEXT
  8
0
  6
CONTINUOUS
 62
     7
 10
332.5
 20
94.166667
 30
0.0
 40
2.0
  1
SIGNAL MM.
  0
TEXT
  8
0
  6
CONTINUOUS
 62
     7
 10
332.5
 20
85.833333
 30
0.0
 40
2.0
  1
START, BLOCKING ETC.
  0
TEXT
  8
0
  6
CONTINUOUS
 62
     7
 10
332.5
 20
82.5
 30
0.0
 40
2.0
  1
START, BLOCKERING MM.
  0
TEXT
  8
0
  6
CONTINUOUS
 62
     7
 10
332.5
 20
74.166667
 30
0.0
 40
2.0
  1
INTERNAL RELAY FAULT
  0
TEXT
  8
0
  6
CONTINUOUS
 62
     7
 10
325.0
 20
132.701531
 30
0.0
 40
2.0
  1
1)
  0
TEXT
  8
0
  6
CONTINUOUS
 62
     7
 10
325.0
 20
120.827468
 30
0.0
 40
2.0
  1
2)
  0
TEXT
  8
0
  6
CONTINUOUS
 62
     7
 10
325.0
 20
109.172532
 30
0.0
 40
2.0
  1
3)
  0
TEXT
  8
0
  6
CONTINUOUS
 62
     7
 10
325.0
 20
97.5
 30
0.0
 40
2.0
  1
4)
  0
TEXT
  8
0
  6
CONTINUOUS
 62
     7
 10
325.0
 20
85.815972
 30
0.0
 40
2.0
  1
5)
  0
TEXT
  8
0
  6
CONTINUOUS
 62
     7
 10
325.0
 20
74.184028
 30
0.0
 40
2.0
  1
6)
  0
LINE
  8
0
  6
DASHED
 62
     7
 10
57.5
 20
210.0
 30
0.0
 11
47.5
 21
210.0
 31
0.0
  0
LINE
  8
0
  6
DASHED
 62
     7
 10
57.5
 20
205.0
 30
0.0
 11
47.5
 21
205.0
 31
0.0
  0
LINE
  8
0
  6
DASHED
 62
     7
 10
255.0
 20
135.0
 30
0.0
 11
265.0
 21
135.0
 31
0.0
  0
LINE
  8
0
  6
CONTINUOUS
 62
     7
 10
259.324012
 20
134.25712
 30
0.0
 11
260.540719
 21
135.667057
 31
0.0
  0
TEXT
  8
0
  6
CONTINUOUS
 62
     7
 10
260.297378
 20
136.570297
 30
0.0
 40
2.0
  1
9
  0
LINE
  8
0
  6
DASHED
 62
     7
 10
57.5
 20
122.5
 30
0.0
 11
47.5
 21
122.5
 31
0.0
  0
LINE
  8
0
  6
DASHED
 62
     7
 10
57.5
 20
112.5
 30
0.0
 11
47.5
 21
112.5
 31
0.0
  0
LINE
  8
0
  6
DASHED
 62
     7
 10
57.5
 20
82.5
 30
0.0
 11
47.5
 21
82.5
 31
0.0
  0
LINE
  8
0
  6
DASHED
 62
     7
 10
57.5
 20
67.5
 30
0.0
 11
47.5
 21
67.5
 31
0.0
  0
TEXT
  8
0
  6
CONTINUOUS
 62
     7
 10
268.490615
 20
134.14082
 30
0.0
 40
2.0
  1
2)
  0
TEXT
  8
0
  6
CONTINUOUS
 62
     7
 10
37.5
 20
121.532746
 30
0.0
 40
2.0
  1
3)
  0
TEXT
  8
0
  6
CONTINUOUS
 62
     7
 10
37.5
 20
111.655058
 30
0.0
 40
2.0
  1
4)
  0
TEXT
  8
0
  6
CONTINUOUS
 62
     7
 10
37.5
 20
81.481329
 30
0.0
 40
2.0
  1
5)
  0
TEXT
  8
0
  6
CONTINUOUS
 62
     7
 10
37.5
 20
66.491877
 30
0.0
 40
2.0
  1
6)
  0
LINE
  8
0
  6
CONTINUOUS
 62
     7
 10
80.0
 20
122.5
 30
0.0
 11
73.500004
 21
122.5
 31
0.0
  0
TEXT
  8
0
  6
CONTINUOUS
 62
     7
 10
59.194179
 20
124.519744
 30
0.0
 40
2.0
  1
101
  0
TEXT
  8
0
  6
CONTINUOUS
 62
     7
 10
59.194179
 20
119.324854
 30
0.0
 40
2.0
  1
17A
  0
TEXT
  8
0
  6
CONTINUOUS
 62
     7
 10
59.194179
 20
109.823047
 30
0.0
 40
2.0
  1
108:68
  0
TEXT
  8
0
  6
CONTINUOUS
 62
     7
 10
59.194179
 20
104.815414
 30
0.0
 40
2.0
  1
108:67
  0
TEXT
  8
0
  6
CONTINUOUS
 62
     7
 10
59.194179
 20
79.744203
 30
0.0
 40
2.0
  1
108:74
  0
TEXT
  8
0
  6
CONTINUOUS
 62
     7
 10
59.194179
 20
74.725554
 30
0.0
 40
2.0
  1
108:73
  0
TEXT
  8
0
  6
CONTINUOUS
 62
     7
 10
59.194179
 20
69.706906
 30
0.0
 40
2.0
  1
108:70
  0
TEXT
  8
0
  6
CONTINUOUS
 62
     7
 10
59.194179
 20
64.875515
 30
0.0
 40
2.0
  1
108:71
  0
TEXT
  8
0
  6
CONTINUOUS
 62
     7
 10
177.838365
 20
60.918379
 30
0.0
 40
2.0
  1
108:72
 50
90.0
  0
TEXT
  8
0
  6
CONTINUOUS
 62
     7
 10
183.863663
 20
60.918379
 30
0.0
 40
2.0
  1
101
 50
90.0
  0
TEXT
  8
0
  6
CONTINUOUS
 62
     7
 10
187.759724
 20
60.918379
 30
0.0
 40
2.0
  1
13A
 50
90.0
  0
TEXT
  8
0
  6
CONTINUOUS
 62
     7
 10
197.89141
 20
60.918379
 30
0.0
 40
2.0
  1
2A
 50
90.0
  0
TEXT
  8
0
  6
CONTINUOUS
 62
     7
 10
202.654375
 20
60.918379
 30
0.0
 40
2.0
  1
1A
 50
90.0
  0
TEXT
  8
0
  6
CONTINUOUS
 62
     7
 10
207.964858
 20
60.918379
 30
0.0
 40
2.0
  1
18A
 50
90.0
  0
TEXT
  8
0
  6
CONTINUOUS
 62
     7
 10
222.628779
 20
60.918379
 30
0.0
 40
2.0
  1
108:61
 50
90.0
  0
TEXT
  8
0
  6
CONTINUOUS
 62
     7
 10
227.802382
 20
60.918379
 30
0.0
 40
2.0
  1
108:62
 50
90.0
  0
TEXT
  8
0
  6
CONTINUOUS
 62
     7
 10
240.352275
 20
60.918379
 30
0.0
 40
2.0
  1
108:63
 50
90.0
  0
TEXT
  8
0
  6
CONTINUOUS
 62
     7
 10
231.555999
 20
130.567051
 30
0.0
 40
2.0
  1
108:RX/TX
  0
TEXT
  8
0
  6
CONTINUOUS
 62
     7
 10
123.116947
 20
215.262391
 30
0.0
 40
2.0
  1
RS 10005-AA SPAJ 320 C3
  0
LINE
  8
0
  6
CONTINUOUS
 62
     7
 10
77.5
 20
145.0
 30
0.0
 11
77.5
 21
140.0
 31
0.0
  0
LINE
  8
0
  6
CONTINUOUS
 62
     7
 10
77.5
 20
140.0
 30
0.0
 11
85.0
 21
140.0
 31
0.0
  0
LINE
  8
0
  6
CONTINUOUS
 62
     7
 10
85.0
 20
145.0
 30
0.0
 11
77.5
 21
145.0
 31
0.0
  0
LINE
  8
0
  6
CONTINUOUS
 62
     7
 10
81.357426
 20
142.789195
 30
0.0
 11
79.011661
 21
141.599276
 31
0.0
  0
LINE
  8
0
  6
CONTINUOUS
 62
     7
 10
79.003619
 20
140.799262
 30
0.0
 11
81.387079
 21
141.987454
 31
0.0
  0
LINE
  8
0
  6
CONTINUOUS
 62
     7
 10
79.011661
 20
144.124549
 30
0.0
 11
81.357426
 21
142.789195
 31
0.0
  0
TEXT
  8
0
  6
CONTINUOUS
 62
     7
 10
83.445522
 20
141.464455
 30
0.0
 40
2.5
  1
1
 11
83.445522
 21
140.631122
 31
0.0
 73
     1
  0
LINE
  8
0
  6
CONTINUOUS
 62
     7
 10
85.0
 20
145.0
 30
0.0
 11
85.0
 21
140.0
 31
0.0
  0
LINE
  8
0
  6
CONTINUOUS
 62
     7
 10
82.5
 20
140.0
 30
0.0
 11
82.5
 21
137.5
 31
0.0
  0
LINE
  8
0
  6
CONTINUOUS
 62
     7
 10
82.5
 20
137.5
 30
0.0
 11
82.5
 21
132.5
 31
0.0
  0
LINE
  8
0
  6
CONTINUOUS
 62
     7
 10
67.5
 20
205.0
 30
0.0
 11
57.5
 21
205.0
 31
0.0
  0
LINE
  8
0
  6
CONTINUOUS
 62
     7
 10
80.298812
 20
205.0
 30
0.0
 11
65.598812
 21
205.0
 31
0.0
  0
LINE
  8
0
  6
CONTINUOUS
 62
     7
 10
67.5
 20
210.0
 30
0.0
 11
57.5
 21
210.0
 31
0.0
  0
LINE
  8
0
  6
CONTINUOUS
 62
     7
 10
80.298812
 20
210.0
 30
0.0
 11
73.500004
 21
210.0
 31
0.0
  0
TEXT
  8
0
  6
CONTINUOUS
 62
     7
 10
59.933769
 20
201.81442
 30
0.0
 40
2.0
  1
108:11
  0
TEXT
  8
0
  6
CONTINUOUS
 62
     7
 10
59.933769
 20
206.839772
 30
0.0
 40
2.0
  1
14A
  0
TEXT
  8
0
  6
CONTINUOUS
 62
     7
 10
60.005198
 20
212.263196
 30
0.0
 40
2.0
  1
101
  0
LINE
  8
0
 62
     7
 10
80.298812
 20
211.589925
 30
0.0
 11
80.298812
 21
203.4
 31
0.0
  0
LINE
  8
0
 62
     7
 10
84.504853
 20
211.59384
 30
0.0
 11
82.59105
 21
209.315018
 31
0.0
  0
LINE
  8
0
 62
     7
 10
85.996971
 20
211.59384
 30
0.0
 11
84.142636
 21
209.315018
 31
0.0
  0
LINE
  8
0
 62
     7
 10
87.721556
 20
211.589925
 30
0.0
 11
80.298812
 21
211.589925
 31
0.0
  0
LINE
  8
0
 62
     7
 10
80.298812
 20
203.4
 30
0.0
 11
87.721556
 21
203.4
 31
0.0
  0
LINE
  8
0
 62
     7
 10
87.721556
 20
203.4
 30
0.0
 11
87.721556
 21
211.589925
 31
0.0
  0
TEXT
  8
0
  6
CONTINUOUS
 62
     7
 10
245.420304
 20
162.152419
 30
0.0
 40
2.0
  1
8A
  0
TEXT
  8
0
  6
CONTINUOUS
 62
     7
 10
245.420304
 20
171.962947
 30
0.0
 40
2.0
  1
7A
  0
TEXT
  8
0
  6
CONTINUOUS
 62
     7
 10
245.420304
 20
182.07474
 30
0.0
 40
2.0
  1
6A
  0
TEXT
  8
0
  6
CONTINUOUS
 62
     7
 10
245.420304
 20
192.186533
 30
0.0
 40
2.0
  1
5A
  0
TEXT
  8
0
  6
CONTINUOUS
 62
     7
 10
245.420304
 20
202.448958
 30
0.0
 40
2.0
  1
4A
  0
TEXT
  8
0
  6
CONTINUOUS
 62
     7
 10
245.420304
 20
211.958222
 30
0.0
 40
2.0
  1
3A
  0
LINE
  8
0
  6
CONTINUOUS
 62
     7
 10
230.0
 20
160.0
 30
0.0
 11
232.5
 21
160.0
 31
0.0
  0
LINE
  8
0
  6
CONTINUOUS
 62
     7
 10
230.0
 20
170.0
 30
0.0
 11
232.5
 21
170.0
 31
0.0
  0
LINE
  8
0
  6
CONTINUOUS
 62
     7
 10
230.0
 20
180.0
 30
0.0
 11
232.5
 21
180.0
 31
0.0
  0
LINE
  8
0
  6
CONTINUOUS
 62
     7
 10
230.0
 20
190.0
 30
0.0
 11
232.5
 21
190.0
 31
0.0
  0
LINE
  8
0
  6
CONTINUOUS
 62
     7
 10
230.0
 20
200.0
 30
0.0
 11
232.5
 21
200.0
 31
0.0
  0
LINE
  8
0
  6
CONTINUOUS
 62
     7
 10
230.0
 20
210.0
 30
0.0
 11
232.5
 21
210.0
 31
0.0
  0
LINE
  8
0
  6
CONTINUOUS
 62
     7
 10
227.5
 20
160.0
 30
0.0
 11
228.5
 21
159.0
 31
0.0
  0
LINE
  8
0
  6
CONTINUOUS
 62
     7
 10
227.5
 20
210.0
 30
0.0
 11
228.5
 21
211.0
 31
0.0
  0
LINE
  8
0
 62
     7
 10
245.0
 20
165.0
 30
0.0
 11
239.2
 21
161.5
 31
0.0
  0
LINE
  8
0
 62
     7
 10
238.88095
 20
161.944425
 30
0.0
 11
239.560313
 21
161.008681
 31
0.0
  0
LINE
  8
0
 62
     7
 10
240.0
 20
160.0
 30
0.0
 11
240.0
 21
162.9
 31
0.0
  0
LINE
  8
0
 62
     7
 10
237.5
 20
160.0
 30
0.0
 11
240.0
 21
160.0
 31
0.0
  0
LINE
  8
0
 62
     7
 10
232.5
 20
160.0
 30
0.0
 11
237.5
 21
160.0
 31
0.0
  0
LINE
  8
0
 62
     7
 10
232.5
 20
180.0
 30
0.0
 11
237.5
 21
180.0
 31
0.0
  0
LINE
  8
0
 62
     7
 10
237.5
 20
180.0
 30
0.0
 11
240.0
 21
180.0
 31
0.0
  0
LINE
  8
0
 62
     7
 10
240.0
 20
180.0
 30
0.0
 11
240.0
 21
182.9
 31
0.0
  0
LINE
  8
0
 62
     7
 10
238.88095
 20
181.944425
 30
0.0
 11
239.560313
 21
181.008681
 31
0.0
  0
LINE
  8
0
 62
     7
 10
245.0
 20
185.0
 30
0.0
 11
239.2
 21
181.5
 31
0.0
  0
LINE
  8
0
 62
     7
 10
245.0
 20
205.0
 30
0.0
 11
239.2
 21
201.5
 31
0.0
  0
LINE
  8
0
 62
     7
 10
238.88095
 20
201.944425
 30
0.0
 11
239.560313
 21
201.008681
 31
0.0
  0
LINE
  8
0
 62
     7
 10
240.0
 20
200.0
 30
0.0
 11
240.0
 21
202.9
 31
0.0
  0
LINE
  8
0
 62
     7
 10
237.5
 20
200.0
 30
0.0
 11
240.0
 21
200.0
 31
0.0
  0
LINE
  8
0
 62
     7
 10
232.5
 20
200.0
 30
0.0
 11
237.5
 21
200.0
 31
0.0
  0
LINE
  8
0
  6
CONTINUOUS
 62
     7
 10
245.0
 20
215.0
 30
0.0
 11
250.0
 21
215.0
 31
0.0
  0
LINE
  8
0
  6
CONTINUOUS
 62
     7
 10
245.0
 20
205.0
 30
0.0
 11
250.0
 21
205.0
 31
0.0
  0
LINE
  8
0
  6
CONTINUOUS
 62
     7
 10
245.0
 20
195.0
 30
0.0
 11
250.0
 21
195.0
 31
0.0
  0
LINE
  8
0
  6
CONTINUOUS
 62
     7
 10
245.0
 20
185.0
 30
0.0
 11
250.0
 21
185.0
 31
0.0
  0
LINE
  8
0
  6
CONTINUOUS
 62
     7
 10
245.0
 20
175.0
 30
0.0
 11
250.0
 21
175.0
 31
0.0
  0
LINE
  8
0
  6
CONTINUOUS
 62
     7
 10
245.0
 20
165.0
 30
0.0
 11
250.0
 21
165.0
 31
0.0
  0
LINE
  8
0
  6
CONTINUOUS
 62
     7
 10
227.5
 20
210.0
 30
0.0
 11
227.5
 21
160.0
 31
0.0
  0
TEXT
  8
0
  6
CONTINUOUS
 62
     7
 10
236.164278
 20
216.187662
 30
0.0
 40
2.0
  1
101
  0
LINE
  8
0
  6
CONTINUOUS
 62
     7
 10
227.5
 20
182.5
 30
0.0
 11
220.0
 21
182.5
 31
0.0
  0
LINE
  8
0
  6
CONTINUOUS
 62
     7
 10
220.0
 20
182.5
 30
0.0
 11
220.0
 21
192.5
 31
0.0
  0
LINE
  8
0
  6
CONTINUOUS
 62
     7
 10
220.0
 20
192.5
 30
0.0
 11
217.950615
 21
192.5
 31
0.0
  0
LINE
  8
0
  6
DASHED
 62
     7
 10
300.0
 20
162.5
 30
0.0
 11
300.0
 21
147.5
 31
0.0
  0
LINE
  8
0
  6
DASHED
 62
     7
 10
307.5
 20
162.5
 30
0.0
 11
307.5
 21
147.5
 31
0.0
  0
LINE
  8
0
  6
DASHED
 62
     7
 10
315.0
 20
162.5
 30
0.0
 11
315.0
 21
147.5
 31
0.0
  0
TEXT
  8
0
  6
DASHED
 62
     7
 10
212.5
 20
28.645574
 30
0.0
 40
2.0
  1
1992-01-02 J RANTALA
  0
TEXT
  8
0
  6
DASHED
 62
     7
 10
315.0
 20
27.5
 30
0.0
 40
2.0
  1
TERMINAL DIAGRAM / UTTAGSSCHEMA
  0
TEXT
  8
0
  6
DASHED
 62
     7
 10
315.0
 20
24.166667
 30
0.0
 40
2.0
  1
SPAJ 320 C3 WITH TEST SWITCH
  0
TEXT
  8
0
  6
DASHED
 62
     7
 10
315.0
 20
20.833333
 30
0.0
 40
2.0
  1
SPAJ 320 C3 MED PROVDON
  0
TEXT
  8
0
  6
DASHED
 62
     7
 10
320.0
 20
2.5
 30
0.0
 40
2.5
  1
RS 10005-AAD
  0
TEXT
  8
0
  6
DASHED
 62
     7
 10
60.0
 20
55.0
 30
0.0
 40
2.0
  1
DIM. 160 X 192,5
  0
TEXT
  8
0
  6
DASHED
 62
     7
 10
60.0
 20
51.666667
 30
0.0
 40
2.0
  1
RS 10005-AAD
  0
LINE
  8
0
  6
CONTINUOUS
 62
     7
 10
195.00793
 20
112.5
 30
0.0
 11
195.00793
 21
72.5
 31
0.0
  0
LINE
  8
0
  6
CONTINUOUS
 62
     7
 10
195.0
 20
66.499996
 30
0.0
 11
195.0
 21
60.0
 31
0.0
  0
LINE
  8
0
  6
CONTINUOUS
 62
     7
 10
200.0
 20
66.499996
 30
0.0
 11
200.0
 21
60.0
 31
0.0
  0
LINE
  8
0
  6
CONTINUOUS
 62
     7
 10
199.982972
 20
122.5
 30
0.0
 11
199.982972
 21
72.5
 31
0.0
  0
LINE
  8
0
  6
CONTINUOUS
 62
     7
 10
205.0
 20
72.5
 30
0.0
 11
205.0
 21
76.087694
 31
0.0
  0
LINE
  8
0
  6
CONTINUOUS
 62
     7
 10
205.0
 20
77.28623
 30
0.0
 11
205.0
 21
79.78623
 31
0.0
  0
LINE
  8
0
  6
CONTINUOUS
 62
     7
 10
205.0
 20
66.499996
 30
0.0
 11
205.0
 21
60.0
 31
0.0
  0
LINE
  8
0
  6
CONTINUOUS
 62
     7
 10
205.0
 20
66.499996
 30
0.0
 11
207.434804
 21
73.162841
 31
0.0
  0
LINE
  8
0
  6
CONTINUOUS
 62
     7
 10
205.0
 20
72.5
 30
0.0
 11
207.765661
 21
72.5
 31
0.0
  0
LINE
  8
0
  6
CONTINUOUS
 62
     7
 10
207.434804
 20
73.162841
 30
0.0
 11
206.549106
 21
73.607734
 31
0.0
  0
LINE
  8
0
  6
CONTINUOUS
 62
     7
 10
200.0
 20
72.5
 30
0.0
 11
202.765661
 21
72.5
 31
0.0
  0
LINE
  8
0
  6
CONTINUOUS
 62
     7
 10
202.434804
 20
73.162841
 30
0.0
 11
201.549106
 21
73.607734
 31
0.0
  0
LINE
  8
0
  6
CONTINUOUS
 62
     7
 10
200.0
 20
66.499996
 30
0.0
 11
202.434804
 21
73.162841
 31
0.0
  0
LINE
  8
0
  6
CONTINUOUS
 62
     7
 10
195.0
 20
66.499996
 30
0.0
 11
197.434804
 21
73.162841
 31
0.0
  0
LINE
  8
0
  6
CONTINUOUS
 62
     7
 10
195.0
 20
72.5
 30
0.0
 11
197.765661
 21
72.5
 31
0.0
  0
LINE
  8
0
  6
CONTINUOUS
 62
     7
 10
185.0
 20
66.499996
 30
0.0
 11
187.434804
 21
73.162841
 31
0.0
  0
LINE
  8
0
  6
CONTINUOUS
 62
     7
 10
185.0
 20
72.5
 30
0.0
 11
187.765661
 21
72.5
 31
0.0
  0
LINE
  8
0
  6
CONTINUOUS
 62
     7
 10
185.00793
 20
82.5
 30
0.0
 11
185.00793
 21
72.5
 31
0.0
  0
LINE
  8
0
  6
CONTINUOUS
 62
     7
 10
185.0
 20
66.499996
 30
0.0
 11
185.0
 21
60.0
 31
0.0
  0
LINE
  8
0
  6
CONTINUOUS
 62
     7
 10
57.5
 20
122.491507
 30
0.0
 11
67.5
 21
122.491507
 31
0.0
  0
LINE
  8
0
  6
CONTINUOUS
 62
     7
 10
73.500004
 20
122.5
 30
0.0
 11
66.837159
 21
124.934804
 31
0.0
  0
LINE
  8
0
  6
CONTINUOUS
 62
     7
 10
67.5
 20
122.491507
 30
0.0
 11
67.5
 21
125.265661
 31
0.0
  0
LINE
  8
0
  6
CONTINUOUS
 62
     7
 10
87.721556
 20
207.5
 30
0.0
 11
105.0
 21
207.5
 31
0.0
  0
LINE
  8
0
  6
CONTINUOUS
 62
     7
 10
217.950615
 20
135.0
 30
0.0
 11
250.0
 21
135.0
 31
0.0
  0
TEXT
  8
0
  6
CONTINUOUS
 62
     7
 10
332.502113
 20
70.820982
 30
0.0
 40
2.0
  1
INTERNT RELÄFEL
  0
TEXT
  8
0
  6
CONTINUOUS
 62
     7
 10
372.5
 20
12.5
 30
0.0
 40
2.0
  1
1
  0
TEXT
  8
0
  6
CONTINUOUS
 62
     7
 10
380.0
 20
2.5
 30
0.0
 40
2.5
  1
B
  0
TEXT
  8
0
  6
CONTINUOUS
 62
     7
 10
51.483296
 20
2.196718
 30
0.0
 40
2.0
  1
REDRAWN WITH AUTOCAD 1992-01-02  JR / RITU Power
  0
LINE
  8
0
  6
CONTINUOUS
 62
     7
 10
73.500004
 20
210.0
 30
0.0
 11
66.837159
 21
212.434804
 31
0.0
  0
LINE
  8
0
  6
CONTINUOUS
 62
     7
 10
67.5
 20
210.0
 30
0.0
 11
67.5
 21
212.765661
 31
0.0
  0
LINE
  8
0
  6
CONTINUOUS
 62
     7
 10
66.837159
 20
212.434804
 30
0.0
 11
66.392266
 21
211.549106
 31
0.0
  0
LINE
  8
0
  6
CONTINUOUS
 62
     7
 10
187.434804
 20
73.162841
 30
0.0
 11
186.549106
 21
73.607734
 31
0.0
  0
TEXT
  8
0
  6
DASHED
 62
     7
 10
354.952086
 20
16.568877
 30
0.0
 40
1.4
  1
LEHTI SHEET
  7
STAND
  0
LINE
  8
0
 62
     7
 10
0.998607
 20
1.013467
 30
0.0
 11
0.998607
 21
263.513467
 31
0.0
  0
LINE
  8
0
 62
     7
 10
392.998607
 20
263.513467
 30
0.0
 11
392.998607
 21
1.013467
 31
0.0
  0
LINE
  8
0
 62
     7
 10
0.998607
 20
1.013467
 30
0.0
 11
392.998607
 21
1.013467
 31
0.0
  0
TEXT
  8
0
 62
     7
 10
42.998607
 20
6.362976
 30
0.0
 40
2.5
  1
C
  7
ROMANS
  0
TEXT
  8
0
 62
     7
 10
42.998607
 20
1.97076
 30
0.0
 40
2.5
  1
B
  7
ROMANS
  0
TEXT
  8
0
 62
     7
 10
258.168513
 20
2.517251
 30
0.0
 40
3.0
  1
Power
 41
0.8
  7
ROMANS
  0
TEXT
  8
0
 62
     7
 10
273.998607
 20
8.013467
 30
0.0
 40
1.4
  1
VAST.OSASTO RESP.DEPT.
  7
ROMANS
  0
TEXT
  8
0
 62
     7
 10
210.998607
 20
33.013467
 30
0.0
 40
1.4
  1
TEKI  PREPARED
  7
ROMANS
  0
LINE
  8
0
 62
     7
 10
271.998607
 20
10.513467
 30
0.0
 11
271.998607
 21
1.013467
 31
0.0
  0
LINE
  8
0
 62
     7
 10
257.998607
 20
10.513467
 30
0.0
 11
257.998607
 21
36.013467
 31
0.0
  0
LINE
  8
0
 62
     7
 10
41.498607
 20
5.513467
 30
0.0
 11
209.998607
 21
5.513467
 31
0.0
  0
LINE
  8
0
 62
     7
 10
47.498607
 20
1.013467
 30
0.0
 11
47.498607
 21
10.013467
 31
0.0
  0
LINE
  8
0
 62
     7
 10
47.498607
 20
10.013467
 30
0.0
 11
209.998607
 21
10.013467
 31
0.0
  0
TEXT
  8
0
 62
     7
 10
28.498607
 20
3.2468
 30
0.0
 40
1.4
  1
REVISION
  7
ROMANS
  0
TEXT
  8
0
 62
     7
 10
28.498607
 20
5.513467
 30
0.0
 40
1.4
  1
MUUTOS
  7
ROMANS
  0
LINE
  8
0
 62
     7
 10
282.998607
 20
10.513467
 30
0.0
 11
282.998607
 21
19.013467
 31
0.0
  0
TEXT
  8
0
 62
     7
 10
238.498607
 20
2.513467
 30
0.0
 40
3.0
  1
Strömberg
 41
0.8
  7
ROMANS
  0
TEXT
  8
0
 62
     7
 10
230.498607
 20
2.513467
 30
0.0
 40
3.0
  1
ABB 
 41
0.8
  7
ROMANS
  0
LINE
  8
0
 62
     7
 10
223.898607
 20
2.513467
 30
0.0
 11
223.898607
 21
5.873467
 31
0.0
  0
LINE
  8
0
 62
     7
 10
223.898607
 20
9.513467
 30
0.0
 11
225.858607
 21
9.513467
 31
0.0
  0
LINE
  8
0
 62
     7
 10
225.858607
 20
9.513467
 30
0.0
 11
225.858607
 21
6.153467
 31
0.0
  0
LINE
  8
0
 62
     7
 10
225.858607
 20
6.153467
 30
0.0
 11
223.898607
 21
6.153467
 31
0.0
  0
LINE
  8
0
 62
     7
 10
223.898607
 20
5.873467
 30
0.0
 11
225.858607
 21
5.873467
 31
0.0
  0
LINE
  8
0
 62
     7
 10
225.858607
 20
5.873467
 30
0.0
 11
225.858607
 21
2.513467
 31
0.0
  0
LINE
  8
0
 62
     7
 10
225.858607
 20
2.513467
 30
0.0
 11
223.898607
 21
2.513467
 31
0.0
  0
LINE
  8
0
 62
     7
 10
223.898607
 20
6.153467
 30
0.0
 11
223.898607
 21
9.513467
 31
0.0
  0
ARC
  8
0
 62
     7
 10
226.698607
 20
7.938467
 30
0.0
 40
1.575
 50
298.455859
 51
90.052437
  0
LINE
  8
0
 62
     7
 10
226.138607
 20
9.513467
 30
0.0
 11
226.697165
 21
9.513466
 31
0.0
  0
LINE
  8
0
 62
     7
 10
226.138607
 20
9.513467
 30
0.0
 11
226.138607
 21
6.153467
 31
0.0
  0
LINE
  8
0
 62
     7
 10
226.138607
 20
6.153467
 30
0.0
 11
228.123049
 21
6.153467
 31
0.0
  0
LINE
  8
0
 62
     7
 10
228.378607
 20
5.873467
 30
0.0
 11
226.138607
 21
5.873467
 31
0.0
  0
LINE
  8
0
 62
     7
 10
226.138607
 20
5.873467
 30
0.0
 11
226.138607
 21
2.513467
 31
0.0
  0
ARC
  8
0
 62
     7
 10
226.698607
 20
4.613467
 30
0.0
 40
2.1
 50
269.937724
 51
37.056553
  0
LINE
  8
0
 62
     7
 10
226.138607
 20
2.513467
 30
0.0
 11
226.696324
 21
2.513468
 31
0.0
  0
ARC
  8
0
 62
     7
 10
226.698607
 20
4.613467
 30
0.0
 40
2.1
 50
47.28622
 51
68.787999
  0
INSERT
  8
0
 62
     7
  2
*X34
 10
216.408607
 20
2.513467
 30
0.0
 41
0.7
 42
0.7
 43
0.7
  0
INSERT
  8
0
 62
     7
  2
*X35
 10
216.408607
 20
2.513467
 30
0.0
 41
0.7
 42
0.7
 43
0.7
  0
INSERT
  8
0
 62
     7
  2
*X36
 10
216.408607
 20
2.513467
 30
0.0
 41
0.7
 42
0.7
 43
0.7
  0
INSERT
  8
0
 62
     7
  2
*X37
 10
216.408607
 20
2.513467
 30
0.0
 41
0.7
 42
0.7
 43
0.7
  0
INSERT
  8
0
 62
     7
  2
*X37
 10
210.948607
 20
2.513467
 30
0.0
 41
0.7
 42
0.7
 43
0.7
  0
INSERT
  8
0
 62
     7
  2
*X36
 10
210.948607
 20
2.513467
 30
0.0
 41
0.7
 42
0.7
 43
0.7
  0
INSERT
  8
0
 62
     7
  2
*X35
 10
210.948607
 20
2.513467
 30
0.0
 41
0.7
 42
0.7
 43
0.7
  0
INSERT
  8
0
 62
     7
  2
*X34
 10
210.948607
 20
2.513467
 30
0.0
 41
0.7
 42
0.7
 43
0.7
  0
ARC
  8
0
 62
     7
 10
221.238607
 20
4.613467
 30
0.0
 40
2.1
 50
47.28622
 51
68.787999
  0
LINE
  8
0
 62
     7
 10
220.678607
 20
2.513467
 30
0.0
 11
221.236324
 21
2.513468
 31
0.0
  0
ARC
  8
0
 62
     7
 10
221.238607
 20
4.613467
 30
0.0
 40
2.1
 50
269.937724
 51
37.056553
  0
LINE
  8
0
 62
     7
 10
220.678607
 20
5.873467
 30
0.0
 11
220.678607
 21
2.513467
 31
0.0
  0
LINE
  8
0
 62
     7
 10
222.918607
 20
5.873467
 30
0.0
 11
220.678607
 21
5.873467
 31
0.0
  0
LINE
  8
0
 62
     7
 10
220.678607
 20
6.153467
 30
0.0
 11
222.663049
 21
6.153467
 31
0.0
  0
LINE
  8
0
 62
     7
 10
220.678607
 20
9.513467
 30
0.0
 11
220.678607
 21
6.153467
 31
0.0
  0
LINE
  8
0
 62
     7
 10
220.678607
 20
9.513467
 30
0.0
 11
221.237165
 21
9.513466
 31
0.0
  0
ARC
  8
0
 62
     7
 10
221.238607
 20
7.938467
 30
0.0
 40
1.575
 50
298.455859
 51
90.052437
  0
LINE
  8
0
 62
     7
 10
218.438607
 20
6.153467
 30
0.0
 11
218.438607
 21
9.513467
 31
0.0
  0
LINE
  8
0
 62
     7
 10
220.398607
 20
2.513467
 30
0.0
 11
218.438607
 21
2.513467
 31
0.0
  0
LINE
  8
0
 62
     7
 10
220.398607
 20
5.873467
 30
0.0
 11
220.398607
 21
2.513467
 31
0.0
  0
LINE
  8
0
 62
     7
 10
218.438607
 20
5.873467
 30
0.0
 11
220.398607
 21
5.873467
 31
0.0
  0
LINE
  8
0
 62
     7
 10
220.398607
 20
6.153467
 30
0.0
 11
218.438607
 21
6.153467
 31
0.0
  0
LINE
  8
0
 62
     7
 10
220.398607
 20
9.513467
 30
0.0
 11
220.398607
 21
6.153467
 31
0.0
  0
LINE
  8
0
 62
     7
 10
218.438607
 20
9.513467
 30
0.0
 11
220.398607
 21
9.513467
 31
0.0
  0
LINE
  8
0
 62
     7
 10
218.438607
 20
2.513467
 30
0.0
 11
218.438607
 21
5.873467
 31
0.0
  0
INSERT
  8
0
 62
     7
  2
*X33
 10
210.948607
 20
2.513467
 30
0.0
 41
0.7
 42
0.7
 43
0.7
  0
INSERT
  8
0
 62
     7
  2
*X32
 10
210.948607
 20
2.513467
 30
0.0
 41
0.7
 42
0.7
 43
0.7
  0
INSERT
  8
0
 62
     7
  2
*X31
 10
210.948607
 20
2.513467
 30
0.0
 41
0.7
 42
0.7
 43
0.7
  0
INSERT
  8
0
 62
     7
  2
*X30
 10
210.948607
 20
2.513467
 30
0.0
 41
0.7
 42
0.7
 43
0.7
  0
LINE
  8
0
 62
     7
 10
212.118495
 20
5.856006
 30
0.0
 11
210.948607
 21
2.513467
 31
0.0
  0
LINE
  8
0
 62
     7
 10
214.308607
 20
5.873467
 30
0.0
 11
214.308607
 21
3.913467
 31
0.0
  0
LINE
  8
0
 62
     7
 10
214.588607
 20
5.873467
 30
0.0
 11
214.588607
 21
3.913467
 31
0.0
  0
LINE
  8
0
 62
     7
 10
214.588607
 20
5.873467
 30
0.0
 11
216.771863
 21
5.873467
 31
0.0
  0
LINE
  8
0
 62
     7
 10
214.588607
 20
6.153467
 30
0.0
 11
216.67372
 21
6.153467
 31
0.0
  0
LINE
  8
0
 62
     7
 10
216.773098
 20
5.872062
 30
0.0
 11
217.948607
 21
2.513467
 31
0.0
  0
LINE
  8
0
 62
     7
 10
212.121589
 20
5.873467
 30
0.0
 11
214.308607
 21
5.873467
 31
0.0
  0
LINE
  8
0
 62
     7
 10
212.220547
 20
6.153467
 30
0.0
 11
214.308607
 21
6.153467
 31
0.0
  0
LINE
  8
0
 62
     7
 10
214.308607
 20
9.513467
 30
0.0
 11
213.398607
 21
9.513467
 31
0.0
  0
LINE
  8
0
 62
     7
 10
214.588607
 20
3.913467
 30
0.0
 11
215.7085
 21
3.913467
 31
0.0
  0
LINE
  8
0
 62
     7
 10
214.588607
 20
9.513467
 30
0.0
 11
214.588607
 21
6.153467
 31
0.0
  0
LINE
  8
0
 62
     7
 10
214.308607
 20
9.513467
 30
0.0
 11
214.308607
 21
6.153467
 31
0.0
  0
LINE
  8
0
 62
     7
 10
215.498607
 20
9.513467
 30
0.0
 11
214.588607
 21
9.513467
 31
0.0
  0
LINE
  8
0
 62
     7
 10
215.709704
 20
3.910331
 30
0.0
 11
216.198607
 21
2.513467
 31
0.0
  0
LINE
  8
0
 62
     7
 10
215.498607
 20
9.513467
 30
0.0
 11
216.674959
 21
6.152459
 31
0.0
  0
LINE
  8
0
 62
     7
 10
213.187396
 20
3.91001
 30
0.0
 11
212.698607
 21
2.513467
 31
0.0
  0
LINE
  8
0
 62
     7
 10
213.187393
 20
3.913467
 30
0.0
 11
214.308607
 21
3.913467
 31
0.0
  0
LINE
  8
0
 62
     7
 10
213.398607
 20
9.513467
 30
0.0
 11
212.221079
 21
6.149102
 31
0.0
  0
LINE
  8
0
 62
     7
 10
216.198607
 20
2.513467
 30
0.0
 11
217.948607
 21
2.513467
 31
0.0
  0
LINE
  8
0
 62
     7
 10
210.948607
 20
2.513467
 30
0.0
 11
212.698607
 21
2.513467
 31
0.0
  0
LINE
  8
0
 62
     7
 10
370.498607
 20
10.513467
 30
0.0
 11
370.498607
 21
1.013467
 31
0.0
  0
TEXT
  8
0
 62
     7
 10
371.998607
 20
8.013467
 30
0.0
 40
1.4
  1
PAINOS  REVISION
  7
ROMANS
  0
LINE
  8
0
 62
     7
 10
350.498607
 20
10.513467
 30
0.0
 11
350.498607
 21
19.013467
 31
0.0
  0
TEXT
  8
0
 62
     7
 10
309.998607
 20
8.013467
 30
0.0
 40
1.4
  1
PIIRUSTUS NO  DRAWING NR
  7
ROMANS
  0
TEXT
  8
0
 62
     7
 10
309.998607
 20
16.513467
 30
0.0
 40
1.4
  1
KOODI  CODE
  7
ROMANS
  0
TEXT
  8
0
 62
     7
 10
309.998607
 20
33.513467
 30
0.0
 40
1.4
  1
NIMITYS  NAME
  7
ROMANS
  0
TEXT
  8
0
 62
     7
 10
259.998607
 20
16.513467
 30
0.0
 40
1.4
  1
SUHDE  SCALE
  7
ROMANS
  0
TEXT
  8
0
 62
     7
 10
259.998607
 20
24.513467
 30
0.0
 40
1.4
  1
TOLERANSSIT  TOLERANCES
  7
ROMANS
  0
TEXT
  8
0
 62
     7
 10
259.998607
 20
33.513467
 30
0.0
 40
1.4
  1
LIITTYY  CONCERNING
  7
ROMANS
  0
LINE
  8
0
 62
     7
 10
307.998607
 20
1.013467
 30
0.0
 11
307.998607
 21
36.013467
 31
0.0
  0
TEXT
  8
0
 62
     7
 10
210.741441
 20
16.480134
 30
0.0
 40
1.4
  1
HYVÄKSYI  APPROVED
  7
ROMANS
  0
TEXT
  8
0
 62
     7
 10
210.998607
 20
24.7468
 30
0.0
 40
1.4
  1
TARKASTI  CHECKED
  7
ROMANS
  0
LINE
  8
0
 62
     7
 10
209.998607
 20
36.013467
 30
0.0
 11
392.998607
 21
36.013467
 31
0.0
  0
LINE
  8
0
 62
     7
 10
209.998607
 20
27.513467
 30
0.0
 11
307.998607
 21
27.513467
 31
0.0
  0
LINE
  8
0
 62
     7
 10
209.998607
 20
10.513467
 30
0.0
 11
392.998607
 21
10.513467
 31
0.0
  0
LINE
  8
0
 62
     7
 10
209.998607
 20
19.013467
 30
0.0
 11
392.998607
 21
19.013467
 31
0.0
  0
LINE
  8
0
 62
     7
 10
392.998607
 20
1.013467
 30
0.0
 11
392.998607
 21
36.013467
 31
0.0
  0
LINE
  8
0
 62
     7
 10
209.998607
 20
1.013467
 30
0.0
 11
209.998607
 21
36.013467
 31
0.0
  0
LINE
  8
0
 62
     7
 10
209.998607
 20
1.013467
 30
0.0
 11
392.998607
 21
1.013467
 31
0.0
  0
LINE
  8
0
 62
     7
 10
18.998607
 20
1.013467
 30
0.0
 11
0.998607
 21
1.013467
 31
0.0
  0
LINE
  8
0
 62
     7
 10
0.998607
 20
263.513467
 30
0.0
 11
392.998607
 21
263.513467
 31
0.0
  0
TEXT
  8
0
  6
DASHED
 62
     7
 10
292.978702
 20
12.588827
 30
0.0
 40
3.0
  1
A3
  7
GREEKS
  0
TEXT
  8
0
  6
CONTINUOUS
 62
     7
 10
174.353328
 20
46.513635
 30
0.0
 40
2.0
  1
+
  0
TEXT
  8
0
  6
CONTINUOUS
 62
     7
 10
184.353328
 20
46.513635
 30
0.0
 40
2.0
  1
+
  0
TEXT
  8
0
  6
CONTINUOUS
 62
     7
 10
194.353328
 20
46.513635
 30
0.0
 40
2.0
  1
+
  0
LINE
  8
0
  6
CONTINUOUS
 62
     7
 10
102.5
 20
112.5
 30
0.0
 11
107.5
 21
112.5
 31
0.0
  0
LINE
  8
0
  6
CONTINUOUS
 62
     7
 10
107.5
 20
107.5
 30
0.0
 11
102.5
 21
107.5
 31
0.0
  0
LINE
  8
0
  6
CONTINUOUS
 62
     7
 10
107.5
 20
107.5
 30
0.0
 11
107.5
 21
110.0
 31
0.0
  0
LINE
  8
0
  6
CONTINUOUS
 62
     7
 10
112.5
 20
112.5
 30
0.0
 11
117.5
 21
112.5
 31
0.0
  0
LINE
  8
0
  6
CONTINUOUS
 62
     7
 10
112.5
 20
112.5
 30
0.0
 11
106.756076
 21
109.285297
 31
0.0
  0
LINE
  8
0
  6
CONTINUOUS
 62
     7
 10
145.0
 20
82.5
 30
0.0
 11
150.0
 21
82.5
 31
0.0
  0
LINE
  8
0
  6
CONTINUOUS
 62
     7
 10
150.0
 20
77.5
 30
0.0
 11
145.0
 21
77.5
 31
0.0
  0
LINE
  8
0
  6
CONTINUOUS
 62
     7
 10
150.0
 20
77.5
 30
0.0
 11
150.0
 21
80.0
 31
0.0
  0
LINE
  8
0
  6
CONTINUOUS
 62
     7
 10
155.0
 20
82.5
 30
0.0
 11
160.0
 21
82.5
 31
0.0
  0
LINE
  8
0
  6
CONTINUOUS
 62
     7
 10
155.0
 20
82.5
 30
0.0
 11
149.256076
 21
79.285297
 31
0.0
  0
LINE
  8
0
  6
CONTINUOUS
 62
     7
 10
178.898107
 20
128.664646
 30
0.0
 11
176.552341
 21
130.0
 31
0.0
  0
LINE
  8
0
  6
CONTINUOUS
 62
     7
 10
176.552341
 20
130.0
 30
0.0
 11
178.898107
 21
131.189919
 31
0.0
  0
LINE
  8
0
 62
     7
 10
36.002721
 20
208.135937
 30
0.0
 11
40.002721
 21
208.135937
 31
0.0
  0
INSERT
  8
0
 62
     7
  2
WKU130
 10
36.34267
 20
206.410384
 30
0.0
 41
0.8
 42
0.8
 43
0.8
  0
TEXT
  8
0
  6
CONTINUOUS
 62
     7
 10
41.356411
 20
204.00558
 30
0.0
 40
2.0
  1
-
  0
TEXT
  8
0
  6
CONTINUOUS
 62
     7
 10
41.364976
 20
209.013635
 30
0.0
 40
2.0
  1
+
  0
ARC
  8
0
  6
CONTINUOUS
 62
     7
 10
110.0
 20
181.993304
 30
0.0
 40
0.5
 50
180.0
 51
0.0
  0
ARC
  8
0
  6
CONTINUOUS
 62
     7
 10
110.0
 20
181.993304
 30
0.0
 40
0.5
 50
0.0
 51
180.0
  0
ARC
  8
0
  6
CONTINUOUS
 62
     7
 10
107.5
 20
194.493304
 30
0.0
 40
0.5
 50
180.0
 51
0.0
  0
ARC
  8
0
  6
CONTINUOUS
 62
     7
 10
107.5
 20
194.493304
 30
0.0
 40
0.5
 50
0.0
 51
180.0
  0
LINE
  8
0
  6
CONTINUOUS
 62
     7
 10
178.898107
 20
193.15795
 30
0.0
 11
176.552341
 21
194.493304
 31
0.0
  0
LINE
  8
0
  6
CONTINUOUS
 62
     7
 10
176.552341
 20
194.493304
 30
0.0
 11
178.898107
 21
195.683223
 31
0.0
  0
LINE
  8
0
  6
CONTINUOUS
 62
     7
 10
178.898107
 20
180.65795
 30
0.0
 11
176.552341
 21
181.993304
 31
0.0
  0
LINE
  8
0
  6
CONTINUOUS
 62
     7
 10
176.552341
 20
181.993304
 30
0.0
 11
178.898107
 21
183.183223
 31
0.0
  0
LINE
  8
0
  6
CONTINUOUS
 62
     7
 10
178.898107
 20
188.664636
 30
0.0
 11
176.552341
 21
189.99999
 31
0.0
  0
LINE
  8
0
  6
CONTINUOUS
 62
     7
 10
176.552341
 20
189.99999
 30
0.0
 11
178.898107
 21
191.189909
 31
0.0
  0
ARC
  8
0
  6
CONTINUOUS
 62
     7
 10
167.5
 20
197.968636
 30
0.0
 40
0.5
 50
180.0
 51
0.0
  0
ARC
  8
0
  6
CONTINUOUS
 62
     7
 10
167.5
 20
197.968636
 30
0.0
 40
0.5
 50
0.0
 51
180.0
  0
LINE
  8
0
  6
CONTINUOUS
 62
     7
 10
178.898107
 20
201.164646
 30
0.0
 11
176.552341
 21
202.5
 31
0.0
  0
LINE
  8
0
  6
CONTINUOUS
 62
     7
 10
176.552341
 20
202.5
 30
0.0
 11
178.898107
 21
203.689919
 31
0.0
  0
INSERT
  8
0
  6
CENTER
 62
     7
  2
BLC5
 10
237.791926
 20
48.342005
 30
0.0
 41
0.6
 42
0.6
 43
0.6
  0
TEXT
  8
0
  6
CONTINUOUS
 62
     7
 10
199.353328
 20
46.513635
 30
0.0
 40
2.0
  1
+
  0
TEXT
  8
0
  6
CONTINUOUS
 62
     7
 10
204.344763
 20
46.50558
 30
0.0
 40
2.0
  1
-
  0
TEXT
  8
0
  6
CONTINUOUS
 62
     7
 10
219.353328
 20
46.513635
 30
0.0
 40
2.0
  1
+
  0
LINE
  8
0
 62
     7
 10
219.979007
 20
45.783527
 30
0.0
 11
223.979007
 21
45.783527
 31
0.0
  0
INSERT
  8
0
 62
     7
  2
WKU130
 10
220.318957
 20
44.057974
 30
0.0
 41
0.8
 42
0.8
 43
0.8
  0
TEXT
  8
0
  6
CONTINUOUS
 62
     7
 10
224.344763
 20
46.50558
 30
0.0
 40
2.0
  1
-
  0
LINE
  8
0
  6
CONTINUOUS
 62
     7
 10
225.0
 20
80.429605
 30
0.0
 11
225.0
 21
77.5
 31
0.0
  0
LINE
  8
0
  6
CONTINUOUS
 62
     7
 10
220.0
 20
80.429605
 30
0.0
 11
220.0
 21
77.5
 31
0.0
  0
LINE
  8
0
  6
CONTINUOUS
 62
     7
 10
225.0
 20
95.0
 30
0.0
 11
225.0
 21
89.752154
 31
0.0
  0
LINE
  8
0
  6
CONTINUOUS
 62
     7
 10
220.0
 20
95.0
 30
0.0
 11
220.0
 21
89.752154
 31
0.0
  0
INSERT
  8
0
 62
     7
  2
WKU130
 10
222.806261
 20
81.002888
 30
0.0
 41
0.8
 42
0.8
 43
0.8
  0
LINE
  8
0
 62
     7
 10
222.466311
 20
82.72844
 30
0.0
 11
226.466311
 21
82.72844
 31
0.0
  0
LINE
  8
0
 62
     7
 10
218.709901
 20
87.674464
 30
0.0
 11
222.709901
 21
87.674464
 31
0.0
  0
LINE
  8
0
 62
     7
 10
217.795103
 20
81.386207
 30
0.0
 11
226.158613
 21
89.752154
 31
0.0
  0
LINE
  8
0
 62
     7
 10
218.779395
 20
80.429605
 30
0.0
 11
227.119756
 21
88.767352
 31
0.0
  0
LINE
  8
0
 62
     7
 10
217.795103
 20
80.429605
 30
0.0
 11
217.795103
 21
89.752154
 31
0.0
  0
LINE
  8
0
 62
     7
 10
227.119756
 20
80.429605
 30
0.0
 11
217.795103
 21
80.429605
 31
0.0
  0
LINE
  8
0
 62
     7
 10
227.119756
 20
89.752154
 30
0.0
 11
227.119756
 21
80.429605
 31
0.0
  0
LINE
  8
0
 62
     7
 10
217.795103
 20
89.752154
 30
0.0
 11
227.119756
 21
89.752154
 31
0.0
  0
TEXT
  8
0
  6
CONTINUOUS
 62
     7
 10
219.366734
 20
95.55315
 30
0.0
 40
2.0
  1
+
  0
TEXT
  8
0
  6
CONTINUOUS
 62
     7
 10
224.297086
 20
95.577719
 30
0.0
 40
2.0
  1
-
  0
LINE
  8
0
 62
     7
 10
235.0
 20
204.99845
 30
0.0
 11
235.0
 21
214.99845
 31
0.0
  0
LINE
  8
0
 62
     7
 10
237.5
 20
215.0
 30
0.0
 11
240.0
 21
215.0
 31
0.0
  0
LINE
  8
0
 62
     7
 10
235.0
 20
214.99845
 30
0.0
 11
237.5
 21
214.99845
 31
0.0
  0
LINE
  8
0
 62
     7
 10
232.5
 20
210.0
 30
0.0
 11
237.5
 21
210.0
 31
0.0
  0
LINE
  8
0
 62
     7
 10
237.5
 20
210.0
 30
0.0
 11
240.0
 21
210.0
 31
0.0
  0
LINE
  8
0
 62
     7
 10
240.0
 20
210.0
 30
0.0
 11
240.0
 21
212.9
 31
0.0
  0
LINE
  8
0
 62
     7
 10
238.88095
 20
211.944425
 30
0.0
 11
239.560313
 21
211.008681
 31
0.0
  0
LINE
  8
0
 62
     7
 10
245.0
 20
215.0
 30
0.0
 11
239.2
 21
211.5
 31
0.0
  0
LINE
  8
0
 62
     7
 10
237.5
 20
204.99845
 30
0.0
 11
235.0
 21
204.99845
 31
0.0
  0
LINE
  8
0
 62
     7
 10
237.5
 20
205.0
 30
0.0
 11
240.0
 21
205.0
 31
0.0
  0
INSERT
  8
0
  6
CENTER
 62
     7
  2
BLC26
 10
301.410524
 20
212.580448
 30
0.0
 41
1.006225
 42
1.006225
 50
180.0
 43
1.006225
  0
LINE
  8
0
 62
     7
 10
235.0
 20
164.99845
 30
0.0
 11
235.0
 21
174.99845
 31
0.0
  0
LINE
  8
0
 62
     7
 10
237.5
 20
175.0
 30
0.0
 11
240.0
 21
175.0
 31
0.0
  0
LINE
  8
0
 62
     7
 10
235.0
 20
174.99845
 30
0.0
 11
237.5
 21
174.99845
 31
0.0
  0
LINE
  8
0
 62
     7
 10
232.5
 20
170.0
 30
0.0
 11
237.5
 21
170.0
 31
0.0
  0
LINE
  8
0
 62
     7
 10
237.5
 20
170.0
 30
0.0
 11
240.0
 21
170.0
 31
0.0
  0
LINE
  8
0
 62
     7
 10
240.0
 20
170.0
 30
0.0
 11
240.0
 21
172.9
 31
0.0
  0
LINE
  8
0
 62
     7
 10
238.88095
 20
171.944425
 30
0.0
 11
239.560313
 21
171.008681
 31
0.0
  0
LINE
  8
0
 62
     7
 10
245.0
 20
175.0
 30
0.0
 11
239.2
 21
171.5
 31
0.0
  0
LINE
  8
0
 62
     7
 10
237.5
 20
164.99845
 30
0.0
 11
235.0
 21
164.99845
 31
0.0
  0
LINE
  8
0
 62
     7
 10
237.5
 20
165.0
 30
0.0
 11
240.0
 21
165.0
 31
0.0
  0
LINE
  8
0
  6
CONTINUOUS
 62
     7
 10
226.774752
 20
133.664646
 30
0.0
 11
224.428986
 21
135.0
 31
0.0
  0
LINE
  8
0
  6
CONTINUOUS
 62
     7
 10
224.428986
 20
135.0
 30
0.0
 11
226.774752
 21
136.189919
 31
0.0
  0
LINE
  8
0
  6
CONTINUOUS
 62
     7
 10
231.157154
 20
136.335354
 30
0.0
 11
233.50292
 21
135.0
 31
0.0
  0
LINE
  8
0
  6
CONTINUOUS
 62
     7
 10
233.50292
 20
135.0
 30
0.0
 11
231.157154
 21
133.810081
 31
0.0
  0
3DFACE
  8
0
  6
CONTINUOUS
 62
     7
 10
251.634024
 20
134.44
 30
0.0
 11
251.649704
 21
134.44
 31
0.0
 12
251.649704
 22
135.56
 32
0.0
 13
251.634024
 23
135.56
 33
0.0
  0
3DFACE
  8
0
  6
CONTINUOUS
 62
     7
 10
251.649704
 20
134.44
 30
0.0
 11
251.665384
 21
134.44
 31
0.0
 12
251.665384
 22
135.56
 32
0.0
 13
251.649704
 23
135.56
 33
0.0
  0
3DFACE
  8
0
  6
CONTINUOUS
 62
     7
 10
251.665384
 20
134.44
 30
0.0
 11
251.681064
 21
134.44
 31
0.0
 12
251.681064
 22
135.56
 32
0.0
 13
251.665384
 23
135.56
 33
0.0
  0
3DFACE
  8
0
  6
CONTINUOUS
 62
     7
 10
251.681064
 20
134.44
 30
0.0
 11
251.696744
 21
134.44
 31
0.0
 12
251.696744
 22
135.56
 32
0.0
 13
251.681064
 23
135.56
 33
0.0
  0
3DFACE
  8
0
  6
CONTINUOUS
 62
     7
 10
251.696744
 20
134.44
 30
0.0
 11
251.712424
 21
134.44
 31
0.0
 12
251.712424
 22
135.56
 32
0.0
 13
251.696744
 23
135.56
 33
0.0
  0
3DFACE
  8
0
  6
CONTINUOUS
 62
     7
 10
251.712424
 20
134.44
 30
0.0
 11
251.728104
 21
134.44
 31
0.0
 12
251.728104
 22
135.56
 32
0.0
 13
251.712424
 23
135.56
 33
0.0
  0
3DFACE
  8
0
  6
CONTINUOUS
 62
     7
 10
251.728104
 20
134.44
 30
0.0
 11
251.743784
 21
134.44
 31
0.0
 12
251.743784
 22
135.56
 32
0.0
 13
251.728104
 23
135.56
 33
0.0
  0
3DFACE
  8
0
  6
CONTINUOUS
 62
     7
 10
251.743784
 20
134.44
 30
0.0
 11
251.759464
 21
134.44
 31
0.0
 12
251.759464
 22
135.56
 32
0.0
 13
251.743784
 23
135.56
 33
0.0
  0
3DFACE
  8
0
  6
CONTINUOUS
 62
     7
 10
251.759464
 20
134.44
 30
0.0
 11
251.775144
 21
134.44
 31
0.0
 12
251.775144
 22
135.56
 32
0.0
 13
251.759464
 23
135.56
 33
0.0
  0
3DFACE
  8
0
  6
CONTINUOUS
 62
     7
 10
251.775144
 20
134.44
 30
0.0
 11
251.790824
 21
134.44
 31
0.0
 12
251.790824
 22
135.56
 32
0.0
 13
251.775144
 23
135.56
 33
0.0
  0
3DFACE
  8
0
  6
CONTINUOUS
 62
     7
 10
251.790824
 20
134.44
 30
0.0
 11
251.806504
 21
134.44
 31
0.0
 12
251.806504
 22
135.56
 32
0.0
 13
251.790824
 23
135.56
 33
0.0
  0
3DFACE
  8
0
  6
CONTINUOUS
 62
     7
 10
251.806504
 20
134.44
 30
0.0
 11
251.822184
 21
134.44
 31
0.0
 12
251.822184
 22
135.56
 32
0.0
 13
251.806504
 23
135.56
 33
0.0
  0
3DFACE
  8
0
  6
CONTINUOUS
 62
     7
 10
251.822184
 20
134.44
 30
0.0
 11
251.837864
 21
134.44
 31
0.0
 12
251.837864
 22
135.56
 32
0.0
 13
251.822184
 23
135.56
 33
0.0
  0
3DFACE
  8
0
  6
CONTINUOUS
 62
     7
 10
251.837864
 20
134.44
 30
0.0
 11
251.853544
 21
134.44
 31
0.0
 12
251.853544
 22
135.56
 32
0.0
 13
251.837864
 23
135.56
 33
0.0
  0
3DFACE
  8
0
  6
CONTINUOUS
 62
     7
 10
251.853544
 20
134.44
 30
0.0
 11
251.869224
 21
134.44
 31
0.0
 12
251.869224
 22
135.56
 32
0.0
 13
251.853544
 23
135.56
 33
0.0
  0
3DFACE
  8
0
  6
CONTINUOUS
 62
     7
 10
251.869224
 20
134.44
 30
0.0
 11
251.884904
 21
134.44
 31
0.0
 12
251.884904
 22
135.56
 32
0.0
 13
251.869224
 23
135.56
 33
0.0
  0
3DFACE
  8
0
  6
CONTINUOUS
 62
     7
 10
251.884904
 20
134.44
 30
0.0
 11
251.900584
 21
134.44
 31
0.0
 12
251.900584
 22
135.56
 32
0.0
 13
251.884904
 23
135.56
 33
0.0
  0
3DFACE
  8
0
  6
CONTINUOUS
 62
     7
 10
251.900584
 20
134.44
 30
0.0
 11
251.916264
 21
134.44
 31
0.0
 12
251.916264
 22
135.56
 32
0.0
 13
251.900584
 23
135.56
 33
0.0
  0
3DFACE
  8
0
  6
CONTINUOUS
 62
     7
 10
251.916264
 20
134.44
 30
0.0
 11
251.931944
 21
134.44
 31
0.0
 12
251.931944
 22
135.56
 32
0.0
 13
251.916264
 23
135.56
 33
0.0
  0
3DFACE
  8
0
  6
CONTINUOUS
 62
     7
 10
251.931944
 20
134.44
 30
0.0
 11
251.947624
 21
134.44
 31
0.0
 12
251.947624
 22
135.56
 32
0.0
 13
251.931944
 23
135.56
 33
0.0
  0
3DFACE
  8
0
  6
CONTINUOUS
 62
     7
 10
251.947624
 20
134.44
 30
0.0
 11
251.963304
 21
134.44
 31
0.0
 12
251.963304
 22
135.56
 32
0.0
 13
251.947624
 23
135.56
 33
0.0
  0
3DFACE
  8
0
  6
CONTINUOUS
 62
     7
 10
251.963304
 20
134.44
 30
0.0
 11
251.978984
 21
134.44
 31
0.0
 12
251.978984
 22
135.56
 32
0.0
 13
251.963304
 23
135.56
 33
0.0
  0
3DFACE
  8
0
  6
CONTINUOUS
 62
     7
 10
251.978984
 20
134.44
 30
0.0
 11
251.994664
 21
134.44
 31
0.0
 12
251.994664
 22
135.56
 32
0.0
 13
251.978984
 23
135.56
 33
0.0
  0
3DFACE
  8
0
  6
CONTINUOUS
 62
     7
 10
251.994664
 20
134.44
 30
0.0
 11
252.010344
 21
134.44
 31
0.0
 12
252.010344
 22
135.56
 32
0.0
 13
251.994664
 23
135.56
 33
0.0
  0
3DFACE
  8
0
  6
CONTINUOUS
 62
     7
 10
252.010344
 20
134.44
 30
0.0
 11
252.026024
 21
134.44
 31
0.0
 12
252.026024
 22
135.56
 32
0.0
 13
252.010344
 23
135.56
 33
0.0
  0
3DFACE
  8
0
  6
CONTINUOUS
 62
     7
 10
252.026024
 20
134.44
 30
0.0
 11
252.041704
 21
134.44
 31
0.0
 12
252.041704
 22
135.56
 32
0.0
 13
252.026024
 23
135.56
 33
0.0
  0
3DFACE
  8
0
  6
CONTINUOUS
 62
     7
 10
252.041704
 20
134.44
 30
0.0
 11
252.057384
 21
134.44
 31
0.0
 12
252.057384
 22
135.56
 32
0.0
 13
252.041704
 23
135.56
 33
0.0
  0
3DFACE
  8
0
  6
CONTINUOUS
 62
     7
 10
252.057384
 20
134.44
 30
0.0
 11
252.073064
 21
134.44
 31
0.0
 12
252.073064
 22
135.56
 32
0.0
 13
252.057384
 23
135.56
 33
0.0
  0
3DFACE
  8
0
  6
CONTINUOUS
 62
     7
 10
252.073064
 20
134.44
 30
0.0
 11
252.088744
 21
134.44
 31
0.0
 12
252.088744
 22
135.56
 32
0.0
 13
252.073064
 23
135.56
 33
0.0
  0
3DFACE
  8
0
  6
CONTINUOUS
 62
     7
 10
252.088744
 20
134.44
 30
0.0
 11
252.104424
 21
134.44
 31
0.0
 12
252.104424
 22
135.56
 32
0.0
 13
252.088744
 23
135.56
 33
0.0
  0
3DFACE
  8
0
  6
CONTINUOUS
 62
     7
 10
252.104424
 20
134.44
 30
0.0
 11
252.120104
 21
134.44
 31
0.0
 12
252.120104
 22
135.56
 32
0.0
 13
252.104424
 23
135.56
 33
0.0
  0
3DFACE
  8
0
  6
CONTINUOUS
 62
     7
 10
252.120104
 20
134.44
 30
0.0
 11
252.135784
 21
134.44
 31
0.0
 12
252.135784
 22
135.56
 32
0.0
 13
252.120104
 23
135.56
 33
0.0
  0
3DFACE
  8
0
  6
CONTINUOUS
 62
     7
 10
252.135784
 20
134.44
 30
0.0
 11
252.151464
 21
134.44
 31
0.0
 12
252.151464
 22
135.56
 32
0.0
 13
252.135784
 23
135.56
 33
0.0
  0
3DFACE
  8
0
  6
CONTINUOUS
 62
     7
 10
252.151464
 20
134.44
 30
0.0
 11
252.167144
 21
134.44
 31
0.0
 12
252.167144
 22
135.56
 32
0.0
 13
252.151464
 23
135.56
 33
0.0
  0
3DFACE
  8
0
  6
CONTINUOUS
 62
     7
 10
252.167144
 20
134.44
 30
0.0
 11
252.182824
 21
134.44
 31
0.0
 12
252.182824
 22
135.56
 32
0.0
 13
252.167144
 23
135.56
 33
0.0
  0
3DFACE
  8
0
  6
CONTINUOUS
 62
     7
 10
252.182824
 20
134.44
 30
0.0
 11
252.198504
 21
134.44
 31
0.0
 12
252.198504
 22
135.56
 32
0.0
 13
252.182824
 23
135.56
 33
0.0
  0
3DFACE
  8
0
  6
CONTINUOUS
 62
     7
 10
252.198504
 20
134.44
 30
0.0
 11
252.214184
 21
134.44
 31
0.0
 12
252.214184
 22
135.56
 32
0.0
 13
252.198504
 23
135.56
 33
0.0
  0
3DFACE
  8
0
  6
CONTINUOUS
 62
     7
 10
252.214184
 20
134.44
 30
0.0
 11
252.229864
 21
134.44
 31
0.0
 12
252.229864
 22
135.56
 32
0.0
 13
252.214184
 23
135.56
 33
0.0
  0
3DFACE
  8
0
  6
CONTINUOUS
 62
     7
 10
252.229864
 20
134.44
 30
0.0
 11
252.245544
 21
134.44
 31
0.0
 12
252.245544
 22
135.56
 32
0.0
 13
252.229864
 23
135.56
 33
0.0
  0
3DFACE
  8
0
  6
CONTINUOUS
 62
     7
 10
252.245544
 20
134.44
 30
0.0
 11
252.261224
 21
134.44
 31
0.0
 12
252.261224
 22
135.56
 32
0.0
 13
252.245544
 23
135.56
 33
0.0
  0
3DFACE
  8
0
  6
CONTINUOUS
 62
     7
 10
252.261224
 20
134.44
 30
0.0
 11
252.276904
 21
134.44
 31
0.0
 12
252.276904
 22
135.56
 32
0.0
 13
252.261224
 23
135.56
 33
0.0
  0
3DFACE
  8
0
  6
CONTINUOUS
 62
     7
 10
252.276904
 20
134.44
 30
0.0
 11
252.292584
 21
134.44
 31
0.0
 12
252.292584
 22
135.56
 32
0.0
 13
252.276904
 23
135.56
 33
0.0
  0
3DFACE
  8
0
  6
CONTINUOUS
 62
     7
 10
252.292584
 20
134.44
 30
0.0
 11
252.308264
 21
134.44
 31
0.0
 12
252.308264
 22
135.56
 32
0.0
 13
252.292584
 23
135.56
 33
0.0
  0
3DFACE
  8
0
  6
CONTINUOUS
 62
     7
 10
252.308264
 20
134.44
 30
0.0
 11
252.323944
 21
134.44
 31
0.0
 12
252.323944
 22
135.56
 32
0.0
 13
252.308264
 23
135.56
 33
0.0
  0
3DFACE
  8
0
  6
CONTINUOUS
 62
     7
 10
252.323944
 20
134.44
 30
0.0
 11
252.339624
 21
134.44
 31
0.0
 12
252.339624
 22
135.56
 32
0.0
 13
252.323944
 23
135.56
 33
0.0
  0
3DFACE
  8
0
  6
CONTINUOUS
 62
     7
 10
252.339624
 20
134.44
 30
0.0
 11
252.355304
 21
134.44
 31
0.0
 12
252.355304
 22
135.56
 32
0.0
 13
252.339624
 23
135.56
 33
0.0
  0
3DFACE
  8
0
  6
CONTINUOUS
 62
     7
 10
252.355304
 20
134.44
 30
0.0
 11
252.370984
 21
134.44
 31
0.0
 12
252.370984
 22
135.56
 32
0.0
 13
252.355304
 23
135.56
 33
0.0
  0
3DFACE
  8
0
  6
CONTINUOUS
 62
     7
 10
252.370984
 20
134.44
 30
0.0
 11
252.386664
 21
134.44
 31
0.0
 12
252.386664
 22
135.56
 32
0.0
 13
252.370984
 23
135.56
 33
0.0
  0
3DFACE
  8
0
  6
CONTINUOUS
 62
     7
 10
252.386664
 20
134.44
 30
0.0
 11
252.402344
 21
134.44
 31
0.0
 12
252.402344
 22
135.56
 32
0.0
 13
252.386664
 23
135.56
 33
0.0
  0
3DFACE
  8
0
  6
CONTINUOUS
 62
     7
 10
252.402344
 20
134.44
 30
0.0
 11
252.418024
 21
134.44
 31
0.0
 12
252.418024
 22
135.56
 32
0.0
 13
252.402344
 23
135.56
 33
0.0
  0
3DFACE
  8
0
  6
CONTINUOUS
 62
     7
 10
252.418024
 20
134.44
 30
0.0
 11
252.433704
 21
134.44
 31
0.0
 12
252.433704
 22
135.56
 32
0.0
 13
252.418024
 23
135.56
 33
0.0
  0
3DFACE
  8
0
  6
CONTINUOUS
 62
     7
 10
252.433704
 20
134.44
 30
0.0
 11
252.449384
 21
134.44
 31
0.0
 12
252.449384
 22
135.56
 32
0.0
 13
252.433704
 23
135.56
 33
0.0
  0
3DFACE
  8
0
  6
CONTINUOUS
 62
     7
 10
252.449384
 20
134.44
 30
0.0
 11
252.465064
 21
134.44
 31
0.0
 12
252.465064
 22
135.56
 32
0.0
 13
252.449384
 23
135.56
 33
0.0
  0
3DFACE
  8
0
  6
CONTINUOUS
 62
     7
 10
252.465064
 20
134.44
 30
0.0
 11
252.480744
 21
134.44
 31
0.0
 12
252.480744
 22
135.56
 32
0.0
 13
252.465064
 23
135.56
 33
0.0
  0
3DFACE
  8
0
  6
CONTINUOUS
 62
     7
 10
252.480744
 20
134.44
 30
0.0
 11
252.496424
 21
134.44
 31
0.0
 12
252.496424
 22
135.56
 32
0.0
 13
252.480744
 23
135.56
 33
0.0
  0
3DFACE
  8
0
  6
CONTINUOUS
 62
     7
 10
252.496424
 20
134.44
 30
0.0
 11
252.512104
 21
134.44
 31
0.0
 12
252.512104
 22
135.56
 32
0.0
 13
252.496424
 23
135.56
 33
0.0
  0
3DFACE
  8
0
  6
CONTINUOUS
 62
     7
 10
252.512104
 20
134.44
 30
0.0
 11
252.527784
 21
134.44
 31
0.0
 12
252.527784
 22
135.56
 32
0.0
 13
252.512104
 23
135.56
 33
0.0
  0
3DFACE
  8
0
  6
CONTINUOUS
 62
     7
 10
252.527784
 20
134.44
 30
0.0
 11
252.543464
 21
134.44
 31
0.0
 12
252.543464
 22
135.56
 32
0.0
 13
252.527784
 23
135.56
 33
0.0
  0
3DFACE
  8
0
  6
CONTINUOUS
 62
     7
 10
252.543464
 20
134.44
 30
0.0
 11
252.559144
 21
134.44
 31
0.0
 12
252.559144
 22
135.56
 32
0.0
 13
252.543464
 23
135.56
 33
0.0
  0
3DFACE
  8
0
  6
CONTINUOUS
 62
     7
 10
252.559144
 20
134.44
 30
0.0
 11
252.574824
 21
134.44
 31
0.0
 12
252.574824
 22
135.56
 32
0.0
 13
252.559144
 23
135.56
 33
0.0
  0
3DFACE
  8
0
  6
CONTINUOUS
 62
     7
 10
252.574824
 20
134.44
 30
0.0
 11
252.590504
 21
134.44
 31
0.0
 12
252.590504
 22
135.56
 32
0.0
 13
252.574824
 23
135.56
 33
0.0
  0
3DFACE
  8
0
  6
CONTINUOUS
 62
     7
 10
252.590504
 20
134.44
 30
0.0
 11
252.606184
 21
134.44
 31
0.0
 12
252.606184
 22
135.56
 32
0.0
 13
252.590504
 23
135.56
 33
0.0
  0
3DFACE
  8
0
  6
CONTINUOUS
 62
     7
 10
252.606184
 20
134.44
 30
0.0
 11
252.621864
 21
134.44
 31
0.0
 12
252.621864
 22
135.56
 32
0.0
 13
252.606184
 23
135.56
 33
0.0
  0
3DFACE
  8
0
  6
CONTINUOUS
 62
     7
 10
252.621864
 20
134.44
 30
0.0
 11
252.637544
 21
134.44
 31
0.0
 12
252.637544
 22
135.56
 32
0.0
 13
252.621864
 23
135.56
 33
0.0
  0
3DFACE
  8
0
  6
CONTINUOUS
 62
     7
 10
252.637544
 20
134.44
 30
0.0
 11
252.653224
 21
134.44
 31
0.0
 12
252.653224
 22
135.56
 32
0.0
 13
252.637544
 23
135.56
 33
0.0
  0
3DFACE
  8
0
  6
CONTINUOUS
 62
     7
 10
252.653224
 20
134.44
 30
0.0
 11
252.668904
 21
134.44
 31
0.0
 12
252.668904
 22
135.56
 32
0.0
 13
252.653224
 23
135.56
 33
0.0
  0
3DFACE
  8
0
  6
CONTINUOUS
 62
     7
 10
252.668904
 20
134.44
 30
0.0
 11
252.684584
 21
134.44
 31
0.0
 12
252.684584
 22
135.56
 32
0.0
 13
252.668904
 23
135.56
 33
0.0
  0
3DFACE
  8
0
  6
CONTINUOUS
 62
     7
 10
252.684584
 20
134.44
 30
0.0
 11
252.700264
 21
134.44
 31
0.0
 12
252.700264
 22
135.56
 32
0.0
 13
252.684584
 23
135.56
 33
0.0
  0
3DFACE
  8
0
  6
CONTINUOUS
 62
     7
 10
252.700264
 20
134.44
 30
0.0
 11
252.715944
 21
134.44
 31
0.0
 12
252.715944
 22
135.56
 32
0.0
 13
252.700264
 23
135.56
 33
0.0
  0
3DFACE
  8
0
  6
CONTINUOUS
 62
     7
 10
252.715944
 20
134.44
 30
0.0
 11
252.731624
 21
134.44
 31
0.0
 12
252.731624
 22
135.56
 32
0.0
 13
252.715944
 23
135.56
 33
0.0
  0
3DFACE
  8
0
  6
CONTINUOUS
 62
     7
 10
252.731624
 20
134.44
 30
0.0
 11
252.747304
 21
134.44
 31
0.0
 12
252.747304
 22
135.56
 32
0.0
 13
252.731624
 23
135.56
 33
0.0
  0
3DFACE
  8
0
  6
CONTINUOUS
 62
     7
 10
252.747304
 20
134.44
 30
0.0
 11
252.762984
 21
134.44
 31
0.0
 12
252.762984
 22
135.56
 32
0.0
 13
252.747304
 23
135.56
 33
0.0
  0
3DFACE
  8
0
  6
CONTINUOUS
 62
     7
 10
252.762984
 20
134.44
 30
0.0
 11
252.778664
 21
134.44
 31
0.0
 12
252.778664
 22
135.56
 32
0.0
 13
252.762984
 23
135.56
 33
0.0
  0
3DFACE
  8
0
  6
CONTINUOUS
 62
     7
 10
252.778664
 20
134.44
 30
0.0
 11
252.794344
 21
134.44
 31
0.0
 12
252.794344
 22
135.56
 32
0.0
 13
252.778664
 23
135.56
 33
0.0
  0
3DFACE
  8
0
  6
CONTINUOUS
 62
     7
 10
252.794344
 20
134.44
 30
0.0
 11
252.810024
 21
134.44
 31
0.0
 12
252.810024
 22
135.56
 32
0.0
 13
252.794344
 23
135.56
 33
0.0
  0
3DFACE
  8
0
  6
CONTINUOUS
 62
     7
 10
252.810024
 20
134.44
 30
0.0
 11
252.825704
 21
134.44
 31
0.0
 12
252.825704
 22
135.56
 32
0.0
 13
252.810024
 23
135.56
 33
0.0
  0
3DFACE
  8
0
  6
CONTINUOUS
 62
     7
 10
252.825704
 20
134.44
 30
0.0
 11
252.841384
 21
134.44
 31
0.0
 12
252.841384
 22
135.56
 32
0.0
 13
252.825704
 23
135.56
 33
0.0
  0
3DFACE
  8
0
  6
CONTINUOUS
 62
     7
 10
252.841384
 20
134.44
 30
0.0
 11
252.857064
 21
134.44
 31
0.0
 12
252.857064
 22
135.56
 32
0.0
 13
252.841384
 23
135.56
 33
0.0
  0
3DFACE
  8
0
  6
CONTINUOUS
 62
     7
 10
252.857064
 20
134.44
 30
0.0
 11
252.872744
 21
134.44
 31
0.0
 12
252.872744
 22
135.56
 32
0.0
 13
252.857064
 23
135.56
 33
0.0
  0
3DFACE
  8
0
  6
CONTINUOUS
 62
     7
 10
252.872744
 20
134.44
 30
0.0
 11
252.888424
 21
134.44
 31
0.0
 12
252.888424
 22
135.56
 32
0.0
 13
252.872744
 23
135.56
 33
0.0
  0
3DFACE
  8
0
  6
CONTINUOUS
 62
     7
 10
252.888424
 20
134.44
 30
0.0
 11
252.904104
 21
134.44
 31
0.0
 12
252.904104
 22
135.56
 32
0.0
 13
252.888424
 23
135.56
 33
0.0
  0
3DFACE
  8
0
  6
CONTINUOUS
 62
     7
 10
252.904104
 20
134.44
 30
0.0
 11
252.919784
 21
134.44
 31
0.0
 12
252.919784
 22
135.56
 32
0.0
 13
252.904104
 23
135.56
 33
0.0
  0
3DFACE
  8
0
  6
CONTINUOUS
 62
     7
 10
252.919784
 20
134.44
 30
0.0
 11
252.935464
 21
134.44
 31
0.0
 12
252.935464
 22
135.56
 32
0.0
 13
252.919784
 23
135.56
 33
0.0
  0
3DFACE
  8
0
  6
CONTINUOUS
 62
     7
 10
252.935464
 20
134.44
 30
0.0
 11
252.951144
 21
134.44
 31
0.0
 12
252.951144
 22
135.56
 32
0.0
 13
252.935464
 23
135.56
 33
0.0
  0
3DFACE
  8
0
  6
CONTINUOUS
 62
     7
 10
252.951144
 20
134.44
 30
0.0
 11
252.966824
 21
134.44
 31
0.0
 12
252.966824
 22
135.56
 32
0.0
 13
252.951144
 23
135.56
 33
0.0
  0
3DFACE
  8
0
  6
CONTINUOUS
 62
     7
 10
252.966824
 20
134.44
 30
0.0
 11
252.982504
 21
134.44
 31
0.0
 12
252.982504
 22
135.56
 32
0.0
 13
252.966824
 23
135.56
 33
0.0
  0
3DFACE
  8
0
  6
CONTINUOUS
 62
     7
 10
252.982504
 20
134.44
 30
0.0
 11
252.998184
 21
134.44
 31
0.0
 12
252.998184
 22
135.56
 32
0.0
 13
252.982504
 23
135.56
 33
0.0
  0
3DFACE
  8
0
  6
CONTINUOUS
 62
     7
 10
252.998184
 20
134.44
 30
0.0
 11
253.013864
 21
134.44
 31
0.0
 12
253.013864
 22
135.56
 32
0.0
 13
252.998184
 23
135.56
 33
0.0
  0
3DFACE
  8
0
  6
CONTINUOUS
 62
     7
 10
253.013864
 20
134.44
 30
0.0
 11
253.029544
 21
134.44
 31
0.0
 12
253.029544
 22
135.56
 32
0.0
 13
253.013864
 23
135.56
 33
0.0
  0
3DFACE
  8
0
  6
CONTINUOUS
 62
     7
 10
253.029544
 20
134.44
 30
0.0
 11
253.045224
 21
134.44
 31
0.0
 12
253.045224
 22
135.56
 32
0.0
 13
253.029544
 23
135.56
 33
0.0
  0
3DFACE
  8
0
  6
CONTINUOUS
 62
     7
 10
253.045224
 20
134.44
 30
0.0
 11
253.060904
 21
134.44
 31
0.0
 12
253.060904
 22
135.56
 32
0.0
 13
253.045224
 23
135.56
 33
0.0
  0
3DFACE
  8
0
  6
CONTINUOUS
 62
     7
 10
253.060904
 20
134.44
 30
0.0
 11
253.076584
 21
134.44
 31
0.0
 12
253.076584
 22
135.56
 32
0.0
 13
253.060904
 23
135.56
 33
0.0
  0
3DFACE
  8
0
  6
CONTINUOUS
 62
     7
 10
253.076584
 20
134.44
 30
0.0
 11
253.092264
 21
134.44
 31
0.0
 12
253.092264
 22
135.56
 32
0.0
 13
253.076584
 23
135.56
 33
0.0
  0
3DFACE
  8
0
  6
CONTINUOUS
 62
     7
 10
253.092264
 20
134.44
 30
0.0
 11
253.107944
 21
134.44
 31
0.0
 12
253.107944
 22
135.56
 32
0.0
 13
253.092264
 23
135.56
 33
0.0
  0
3DFACE
  8
0
  6
CONTINUOUS
 62
     7
 10
253.107944
 20
134.44
 30
0.0
 11
253.123624
 21
134.44
 31
0.0
 12
253.123624
 22
135.56
 32
0.0
 13
253.107944
 23
135.56
 33
0.0
  0
3DFACE
  8
0
  6
CONTINUOUS
 62
     7
 10
253.123624
 20
134.44
 30
0.0
 11
253.139304
 21
134.44
 31
0.0
 12
253.139304
 22
135.56
 32
0.0
 13
253.123624
 23
135.56
 33
0.0
  0
3DFACE
  8
0
  6
CONTINUOUS
 62
     7
 10
253.139304
 20
134.44
 30
0.0
 11
253.154984
 21
134.44
 31
0.0
 12
253.154984
 22
135.56
 32
0.0
 13
253.139304
 23
135.56
 33
0.0
  0
3DFACE
  8
0
  6
CONTINUOUS
 62
     7
 10
253.154984
 20
134.44
 30
0.0
 11
253.170664
 21
134.44
 31
0.0
 12
253.170664
 22
135.56
 32
0.0
 13
253.154984
 23
135.56
 33
0.0
  0
3DFACE
  8
0
  6
CONTINUOUS
 62
     7
 10
253.170664
 20
134.44
 30
0.0
 11
253.186344
 21
134.44
 31
0.0
 12
253.186344
 22
135.56
 32
0.0
 13
253.170664
 23
135.56
 33
0.0
  0
3DFACE
  8
0
  6
CONTINUOUS
 62
     7
 10
253.186344
 20
134.44
 30
0.0
 11
253.202024
 21
134.44
 31
0.0
 12
253.202024
 22
135.56
 32
0.0
 13
253.186344
 23
135.56
 33
0.0
  0
3DFACE
  8
0
  6
CONTINUOUS
 62
     7
 10
253.202024
 20
134.44
 30
0.0
 11
253.217704
 21
134.44
 31
0.0
 12
253.217704
 22
135.56
 32
0.0
 13
253.202024
 23
135.56
 33
0.0
  0
3DFACE
  8
0
  6
CONTINUOUS
 62
     7
 10
253.217704
 20
134.44
 30
0.0
 11
253.233384
 21
134.44
 31
0.0
 12
253.233384
 22
135.56
 32
0.0
 13
253.217704
 23
135.56
 33
0.0
  0
3DFACE
  8
0
  6
CONTINUOUS
 62
     7
 10
253.233384
 20
134.44
 30
0.0
 11
253.249064
 21
134.44
 31
0.0
 12
253.249064
 22
135.56
 32
0.0
 13
253.233384
 23
135.56
 33
0.0
  0
3DFACE
  8
0
  6
CONTINUOUS
 62
     7
 10
253.249064
 20
134.44
 30
0.0
 11
253.264744
 21
134.44
 31
0.0
 12
253.264744
 22
135.56
 32
0.0
 13
253.249064
 23
135.56
 33
0.0
  0
3DFACE
  8
0
  6
CONTINUOUS
 62
     7
 10
253.264744
 20
134.44
 30
0.0
 11
253.280424
 21
134.44
 31
0.0
 12
253.280424
 22
135.56
 32
0.0
 13
253.264744
 23
135.56
 33
0.0
  0
3DFACE
  8
0
  6
CONTINUOUS
 62
     7
 10
253.280424
 20
134.44
 30
0.0
 11
253.296104
 21
134.44
 31
0.0
 12
253.296104
 22
135.56
 32
0.0
 13
253.280424
 23
135.56
 33
0.0
  0
3DFACE
  8
0
  6
CONTINUOUS
 62
     7
 10
253.296104
 20
134.44
 30
0.0
 11
253.311784
 21
134.44
 31
0.0
 12
253.311784
 22
135.56
 32
0.0
 13
253.296104
 23
135.56
 33
0.0
  0
3DFACE
  8
0
  6
CONTINUOUS
 62
     7
 10
253.311784
 20
134.44
 30
0.0
 11
253.327464
 21
134.44
 31
0.0
 12
253.327464
 22
135.56
 32
0.0
 13
253.311784
 23
135.56
 33
0.0
  0
3DFACE
  8
0
  6
CONTINUOUS
 62
     7
 10
253.327464
 20
134.44
 30
0.0
 11
253.343144
 21
134.44
 31
0.0
 12
253.343144
 22
135.56
 32
0.0
 13
253.327464
 23
135.56
 33
0.0
  0
3DFACE
  8
0
  6
CONTINUOUS
 62
     7
 10
253.343144
 20
134.44
 30
0.0
 11
253.358824
 21
134.44
 31
0.0
 12
253.358824
 22
135.56
 32
0.0
 13
253.343144
 23
135.56
 33
0.0
  0
3DFACE
  8
0
  6
CONTINUOUS
 62
     7
 10
253.358824
 20
134.44
 30
0.0
 11
253.374504
 21
134.44
 31
0.0
 12
253.374504
 22
135.56
 32
0.0
 13
253.358824
 23
135.56
 33
0.0
  0
3DFACE
  8
0
  6
CONTINUOUS
 62
     7
 10
253.374504
 20
134.44
 30
0.0
 11
253.390184
 21
134.44
 31
0.0
 12
253.390184
 22
135.56
 32
0.0
 13
253.374504
 23
135.56
 33
0.0
  0
3DFACE
  8
0
  6
CONTINUOUS
 62
     7
 10
253.390184
 20
134.44
 30
0.0
 11
253.405864
 21
134.44
 31
0.0
 12
253.405864
 22
135.56
 32
0.0
 13
253.390184
 23
135.56
 33
0.0
  0
3DFACE
  8
0
  6
CONTINUOUS
 62
     7
 10
253.405864
 20
134.44
 30
0.0
 11
253.421544
 21
134.44
 31
0.0
 12
253.421544
 22
135.56
 32
0.0
 13
253.405864
 23
135.56
 33
0.0
  0
3DFACE
  8
0
  6
CONTINUOUS
 62
     7
 10
253.421544
 20
134.44
 30
0.0
 11
253.437224
 21
134.44
 31
0.0
 12
253.437224
 22
135.56
 32
0.0
 13
253.421544
 23
135.56
 33
0.0
  0
3DFACE
  8
0
  6
CONTINUOUS
 62
     7
 10
253.437224
 20
134.44
 30
0.0
 11
253.452904
 21
134.44
 31
0.0
 12
253.452904
 22
135.56
 32
0.0
 13
253.437224
 23
135.56
 33
0.0
  0
3DFACE
  8
0
  6
CONTINUOUS
 62
     7
 10
253.452904
 20
134.44
 30
0.0
 11
253.468584
 21
134.44
 31
0.0
 12
253.468584
 22
135.56
 32
0.0
 13
253.452904
 23
135.56
 33
0.0
  0
3DFACE
  8
0
  6
CONTINUOUS
 62
     7
 10
253.468584
 20
134.44
 30
0.0
 11
253.484264
 21
134.44
 31
0.0
 12
253.484264
 22
135.56
 32
0.0
 13
253.468584
 23
135.56
 33
0.0
  0
3DFACE
  8
0
  6
CONTINUOUS
 62
     7
 10
253.484264
 20
134.44
 30
0.0
 11
253.499944
 21
134.44
 31
0.0
 12
253.499944
 22
135.56
 32
0.0
 13
253.484264
 23
135.56
 33
0.0
  0
3DFACE
  8
0
  6
CONTINUOUS
 62
     7
 10
253.499944
 20
134.44
 30
0.0
 11
253.515624
 21
134.44
 31
0.0
 12
253.515624
 22
135.56
 32
0.0
 13
253.499944
 23
135.56
 33
0.0
  0
3DFACE
  8
0
  6
CONTINUOUS
 62
     7
 10
253.515624
 20
134.44
 30
0.0
 11
253.531304
 21
134.44
 31
0.0
 12
253.531304
 22
135.56
 32
0.0
 13
253.515624
 23
135.56
 33
0.0
  0
3DFACE
  8
0
  6
CONTINUOUS
 62
     7
 10
253.531304
 20
134.44
 30
0.0
 11
253.546984
 21
134.44
 31
0.0
 12
253.546984
 22
135.56
 32
0.0
 13
253.531304
 23
135.56
 33
0.0
  0
3DFACE
  8
0
  6
CONTINUOUS
 62
     7
 10
253.546984
 20
134.44
 30
0.0
 11
253.562664
 21
134.44
 31
0.0
 12
253.562664
 22
135.56
 32
0.0
 13
253.546984
 23
135.56
 33
0.0
  0
3DFACE
  8
0
  6
CONTINUOUS
 62
     7
 10
253.562664
 20
134.44
 30
0.0
 11
253.578344
 21
134.44
 31
0.0
 12
253.578344
 22
135.56
 32
0.0
 13
253.562664
 23
135.56
 33
0.0
  0
3DFACE
  8
0
  6
CONTINUOUS
 62
     7
 10
253.578344
 20
134.44
 30
0.0
 11
253.594024
 21
134.44
 31
0.0
 12
253.594024
 22
135.56
 32
0.0
 13
253.578344
 23
135.56
 33
0.0
  0
3DFACE
  8
0
  6
CONTINUOUS
 62
     7
 10
253.594024
 20
134.44
 30
0.0
 11
253.609704
 21
134.44
 31
0.0
 12
253.609704
 22
135.56
 32
0.0
 13
253.594024
 23
135.56
 33
0.0
  0
3DFACE
  8
0
  6
CONTINUOUS
 62
     7
 10
253.609704
 20
134.44
 30
0.0
 11
253.625384
 21
134.44
 31
0.0
 12
253.625384
 22
135.56
 32
0.0
 13
253.609704
 23
135.56
 33
0.0
  0
3DFACE
  8
0
  6
CONTINUOUS
 62
     7
 10
253.625384
 20
134.44
 30
0.0
 11
253.641064
 21
134.44
 31
0.0
 12
253.641064
 22
135.56
 32
0.0
 13
253.625384
 23
135.56
 33
0.0
  0
3DFACE
  8
0
  6
CONTINUOUS
 62
     7
 10
253.641064
 20
134.44
 30
0.0
 11
253.656744
 21
134.44
 31
0.0
 12
253.656744
 22
135.56
 32
0.0
 13
253.641064
 23
135.56
 33
0.0
  0
3DFACE
  8
0
  6
CONTINUOUS
 62
     7
 10
253.656744
 20
134.44
 30
0.0
 11
253.672424
 21
134.44
 31
0.0
 12
253.672424
 22
135.56
 32
0.0
 13
253.656744
 23
135.56
 33
0.0
  0
3DFACE
  8
0
  6
CONTINUOUS
 62
     7
 10
253.672424
 20
134.44
 30
0.0
 11
253.688104
 21
134.44
 31
0.0
 12
253.688104
 22
135.56
 32
0.0
 13
253.672424
 23
135.56
 33
0.0
  0
3DFACE
  8
0
  6
CONTINUOUS
 62
     7
 10
253.688104
 20
134.44
 30
0.0
 11
253.703784
 21
134.44
 31
0.0
 12
253.703784
 22
135.56
 32
0.0
 13
253.688104
 23
135.56
 33
0.0
  0
3DFACE
  8
0
  6
CONTINUOUS
 62
     7
 10
253.703784
 20
134.44
 30
0.0
 11
253.719464
 21
134.44
 31
0.0
 12
253.719464
 22
135.56
 32
0.0
 13
253.703784
 23
135.56
 33
0.0
  0
3DFACE
  8
0
  6
CONTINUOUS
 62
     7
 10
253.719464
 20
134.44
 30
0.0
 11
253.735144
 21
134.44
 31
0.0
 12
253.735144
 22
135.56
 32
0.0
 13
253.719464
 23
135.56
 33
0.0
  0
3DFACE
  8
0
  6
CONTINUOUS
 62
     7
 10
253.735144
 20
134.44
 30
0.0
 11
253.750824
 21
134.44
 31
0.0
 12
253.750824
 22
135.56
 32
0.0
 13
253.735144
 23
135.56
 33
0.0
  0
3DFACE
  8
0
  6
CONTINUOUS
 62
     7
 10
253.750824
 20
134.44
 30
0.0
 11
253.766504
 21
134.44
 31
0.0
 12
253.766504
 22
135.56
 32
0.0
 13
253.750824
 23
135.56
 33
0.0
  0
3DFACE
  8
0
  6
CONTINUOUS
 62
     7
 10
253.766504
 20
134.44
 30
0.0
 11
253.782184
 21
134.44
 31
0.0
 12
253.782184
 22
135.56
 32
0.0
 13
253.766504
 23
135.56
 33
0.0
  0
3DFACE
  8
0
  6
CONTINUOUS
 62
     7
 10
253.782184
 20
134.44
 30
0.0
 11
253.797864
 21
134.44
 31
0.0
 12
253.797864
 22
135.56
 32
0.0
 13
253.782184
 23
135.56
 33
0.0
  0
3DFACE
  8
0
  6
CONTINUOUS
 62
     7
 10
253.797864
 20
134.44
 30
0.0
 11
253.813544
 21
134.44
 31
0.0
 12
253.813544
 22
135.56
 32
0.0
 13
253.797864
 23
135.56
 33
0.0
  0
3DFACE
  8
0
  6
CONTINUOUS
 62
     7
 10
253.813544
 20
134.44
 30
0.0
 11
253.829224
 21
134.44
 31
0.0
 12
253.829224
 22
135.56
 32
0.0
 13
253.813544
 23
135.56
 33
0.0
  0
3DFACE
  8
0
  6
CONTINUOUS
 62
     7
 10
253.829224
 20
134.44
 30
0.0
 11
253.844904
 21
134.44
 31
0.0
 12
253.844904
 22
135.56
 32
0.0
 13
253.829224
 23
135.56
 33
0.0
  0
3DFACE
  8
0
  6
CONTINUOUS
 62
     7
 10
253.844904
 20
134.44
 30
0.0
 11
253.860584
 21
134.44
 31
0.0
 12
253.860584
 22
135.56
 32
0.0
 13
253.844904
 23
135.56
 33
0.0
  0
3DFACE
  8
0
  6
CONTINUOUS
 62
     7
 10
253.860584
 20
134.44
 30
0.0
 11
253.876264
 21
134.44
 31
0.0
 12
253.876264
 22
135.56
 32
0.0
 13
253.860584
 23
135.56
 33
0.0
  0
3DFACE
  8
0
  6
CONTINUOUS
 62
     7
 10
253.876264
 20
134.44
 30
0.0
 11
253.891944
 21
134.44
 31
0.0
 12
253.891944
 22
135.56
 32
0.0
 13
253.876264
 23
135.56
 33
0.0
  0
3DFACE
  8
0
  6
CONTINUOUS
 62
     7
 10
253.891944
 20
134.44
 30
0.0
 11
253.907624
 21
134.44
 31
0.0
 12
253.907624
 22
135.56
 32
0.0
 13
253.891944
 23
135.56
 33
0.0
  0
3DFACE
  8
0
  6
CONTINUOUS
 62
     7
 10
253.907624
 20
134.44
 30
0.0
 11
253.923304
 21
134.44
 31
0.0
 12
253.923304
 22
135.56
 32
0.0
 13
253.907624
 23
135.56
 33
0.0
  0
3DFACE
  8
0
  6
CONTINUOUS
 62
     7
 10
253.923304
 20
134.44
 30
0.0
 11
253.938984
 21
134.44
 31
0.0
 12
253.938984
 22
135.56
 32
0.0
 13
253.923304
 23
135.56
 33
0.0
  0
3DFACE
  8
0
  6
CONTINUOUS
 62
     7
 10
253.938984
 20
134.44
 30
0.0
 11
253.954664
 21
134.44
 31
0.0
 12
253.954664
 22
135.56
 32
0.0
 13
253.938984
 23
135.56
 33
0.0
  0
3DFACE
  8
0
  6
CONTINUOUS
 62
     7
 10
253.954664
 20
134.44
 30
0.0
 11
253.970344
 21
134.44
 31
0.0
 12
253.970344
 22
135.56
 32
0.0
 13
253.954664
 23
135.56
 33
0.0
  0
3DFACE
  8
0
  6
CONTINUOUS
 62
     7
 10
253.970344
 20
134.44
 30
0.0
 11
253.986024
 21
134.44
 31
0.0
 12
253.986024
 22
135.56
 32
0.0
 13
253.970344
 23
135.56
 33
0.0
  0
3DFACE
  8
0
  6
CONTINUOUS
 62
     7
 10
253.986024
 20
134.44
 30
0.0
 11
254.001704
 21
134.44
 31
0.0
 12
254.001704
 22
135.56
 32
0.0
 13
253.986024
 23
135.56
 33
0.0
  0
3DFACE
  8
0
  6
CONTINUOUS
 62
     7
 10
254.001704
 20
134.44
 30
0.0
 11
254.017384
 21
134.44
 31
0.0
 12
254.017384
 22
135.56
 32
0.0
 13
254.001704
 23
135.56
 33
0.0
  0
3DFACE
  8
0
  6
CONTINUOUS
 62
     7
 10
254.017384
 20
134.44
 30
0.0
 11
254.033064
 21
134.44
 31
0.0
 12
254.033064
 22
135.56
 32
0.0
 13
254.017384
 23
135.56
 33
0.0
  0
3DFACE
  8
0
  6
CONTINUOUS
 62
     7
 10
254.033064
 20
134.44
 30
0.0
 11
254.048744
 21
134.44
 31
0.0
 12
254.048744
 22
135.56
 32
0.0
 13
254.033064
 23
135.56
 33
0.0
  0
3DFACE
  8
0
  6
CONTINUOUS
 62
     7
 10
254.048744
 20
134.44
 30
0.0
 11
254.064424
 21
134.44
 31
0.0
 12
254.064424
 22
135.56
 32
0.0
 13
254.048744
 23
135.56
 33
0.0
  0
3DFACE
  8
0
  6
CONTINUOUS
 62
     7
 10
254.064424
 20
134.44
 30
0.0
 11
254.080104
 21
134.44
 31
0.0
 12
254.080104
 22
135.56
 32
0.0
 13
254.064424
 23
135.56
 33
0.0
  0
3DFACE
  8
0
  6
CONTINUOUS
 62
     7
 10
254.080104
 20
134.44
 30
0.0
 11
254.095784
 21
134.44
 31
0.0
 12
254.095784
 22
135.56
 32
0.0
 13
254.080104
 23
135.56
 33
0.0
  0
3DFACE
  8
0
  6
CONTINUOUS
 62
     7
 10
254.095784
 20
134.44
 30
0.0
 11
254.111464
 21
134.44
 31
0.0
 12
254.111464
 22
135.56
 32
0.0
 13
254.095784
 23
135.56
 33
0.0
  0
3DFACE
  8
0
  6
CONTINUOUS
 62
     7
 10
254.111464
 20
134.44
 30
0.0
 11
254.127144
 21
134.44
 31
0.0
 12
254.127144
 22
135.56
 32
0.0
 13
254.111464
 23
135.56
 33
0.0
  0
3DFACE
  8
0
  6
CONTINUOUS
 62
     7
 10
254.127144
 20
134.44
 30
0.0
 11
254.142824
 21
134.44
 31
0.0
 12
254.142824
 22
135.56
 32
0.0
 13
254.127144
 23
135.56
 33
0.0
  0
3DFACE
  8
0
  6
CONTINUOUS
 62
     7
 10
254.142824
 20
134.44
 30
0.0
 11
254.158504
 21
134.44
 31
0.0
 12
254.158504
 22
135.56
 32
0.0
 13
254.142824
 23
135.56
 33
0.0
  0
3DFACE
  8
0
  6
CONTINUOUS
 62
     7
 10
254.158504
 20
134.44
 30
0.0
 11
254.174184
 21
134.44
 31
0.0
 12
254.174184
 22
135.56
 32
0.0
 13
254.158504
 23
135.56
 33
0.0
  0
3DFACE
  8
0
  6
CONTINUOUS
 62
     7
 10
254.174184
 20
134.44
 30
0.0
 11
254.189864
 21
134.44
 31
0.0
 12
254.189864
 22
135.56
 32
0.0
 13
254.174184
 23
135.56
 33
0.0
  0
3DFACE
  8
0
  6
CONTINUOUS
 62
     7
 10
254.189864
 20
134.44
 30
0.0
 11
254.205544
 21
134.44
 31
0.0
 12
254.205544
 22
135.56
 32
0.0
 13
254.189864
 23
135.56
 33
0.0
  0
3DFACE
  8
0
  6
CONTINUOUS
 62
     7
 10
254.205544
 20
134.44
 30
0.0
 11
254.221224
 21
134.44
 31
0.0
 12
254.221224
 22
135.56
 32
0.0
 13
254.205544
 23
135.56
 33
0.0
  0
3DFACE
  8
0
  6
CONTINUOUS
 62
     7
 10
254.221224
 20
134.44
 30
0.0
 11
254.236904
 21
134.44
 31
0.0
 12
254.236904
 22
135.56
 32
0.0
 13
254.221224
 23
135.56
 33
0.0
  0
3DFACE
  8
0
  6
CONTINUOUS
 62
     7
 10
254.236904
 20
134.44
 30
0.0
 11
254.252584
 21
134.44
 31
0.0
 12
254.252584
 22
135.56
 32
0.0
 13
254.236904
 23
135.56
 33
0.0
  0
3DFACE
  8
0
  6
CONTINUOUS
 62
     7
 10
254.252584
 20
134.44
 30
0.0
 11
254.268264
 21
134.44
 31
0.0
 12
254.268264
 22
135.56
 32
0.0
 13
254.252584
 23
135.56
 33
0.0
  0
3DFACE
  8
0
  6
CONTINUOUS
 62
     7
 10
254.268264
 20
134.44
 30
0.0
 11
254.283944
 21
134.44
 31
0.0
 12
254.283944
 22
135.56
 32
0.0
 13
254.268264
 23
135.56
 33
0.0
  0
3DFACE
  8
0
  6
CONTINUOUS
 62
     7
 10
254.283944
 20
134.44
 30
0.0
 11
254.299624
 21
134.44
 31
0.0
 12
254.299624
 22
135.56
 32
0.0
 13
254.283944
 23
135.56
 33
0.0
  0
3DFACE
  8
0
  6
CONTINUOUS
 62
     7
 10
254.299624
 20
134.44
 30
0.0
 11
254.315304
 21
134.44
 31
0.0
 12
254.315304
 22
135.56
 32
0.0
 13
254.299624
 23
135.56
 33
0.0
  0
3DFACE
  8
0
  6
CONTINUOUS
 62
     7
 10
254.315304
 20
134.44
 30
0.0
 11
254.330984
 21
134.44
 31
0.0
 12
254.330984
 22
135.56
 32
0.0
 13
254.315304
 23
135.56
 33
0.0
  0
3DFACE
  8
0
  6
CONTINUOUS
 62
     7
 10
254.330984
 20
134.44
 30
0.0
 11
254.346664
 21
134.44
 31
0.0
 12
254.346664
 22
135.56
 32
0.0
 13
254.330984
 23
135.56
 33
0.0
  0
3DFACE
  8
0
  6
CONTINUOUS
 62
     7
 10
254.346664
 20
134.44
 30
0.0
 11
254.362344
 21
134.44
 31
0.0
 12
254.362344
 22
135.56
 32
0.0
 13
254.346664
 23
135.56
 33
0.0
  0
3DFACE
  8
0
  6
CONTINUOUS
 62
     7
 10
254.362344
 20
134.44
 30
0.0
 11
254.378024
 21
134.44
 31
0.0
 12
254.378024
 22
135.56
 32
0.0
 13
254.362344
 23
135.56
 33
0.0
  0
3DFACE
  8
0
  6
CONTINUOUS
 62
     7
 10
254.378024
 20
134.44
 30
0.0
 11
254.393704
 21
134.44
 31
0.0
 12
254.393704
 22
135.56
 32
0.0
 13
254.378024
 23
135.56
 33
0.0
  0
3DFACE
  8
0
  6
CONTINUOUS
 62
     7
 10
254.393704
 20
134.44
 30
0.0
 11
254.409384
 21
134.44
 31
0.0
 12
254.409384
 22
135.56
 32
0.0
 13
254.393704
 23
135.56
 33
0.0
  0
3DFACE
  8
0
  6
CONTINUOUS
 62
     7
 10
254.409384
 20
134.44
 30
0.0
 11
254.425064
 21
134.44
 31
0.0
 12
254.425064
 22
135.56
 32
0.0
 13
254.409384
 23
135.56
 33
0.0
  0
3DFACE
  8
0
  6
CONTINUOUS
 62
     7
 10
254.425064
 20
134.44
 30
0.0
 11
254.440744
 21
134.44
 31
0.0
 12
254.440744
 22
135.56
 32
0.0
 13
254.425064
 23
135.56
 33
0.0
  0
3DFACE
  8
0
  6
CONTINUOUS
 62
     7
 10
254.440744
 20
134.44
 30
0.0
 11
254.456424
 21
134.44
 31
0.0
 12
254.456424
 22
135.56
 32
0.0
 13
254.440744
 23
135.56
 33
0.0
  0
3DFACE
  8
0
  6
CONTINUOUS
 62
     7
 10
254.456424
 20
134.44
 30
0.0
 11
254.472104
 21
134.44
 31
0.0
 12
254.472104
 22
135.56
 32
0.0
 13
254.456424
 23
135.56
 33
0.0
  0
3DFACE
  8
0
  6
CONTINUOUS
 62
     7
 10
254.472104
 20
134.44
 30
0.0
 11
254.487784
 21
134.44
 31
0.0
 12
254.487784
 22
135.56
 32
0.0
 13
254.472104
 23
135.56
 33
0.0
  0
3DFACE
  8
0
  6
CONTINUOUS
 62
     7
 10
254.487784
 20
134.44
 30
0.0
 11
254.503464
 21
134.44
 31
0.0
 12
254.503464
 22
135.56
 32
0.0
 13
254.487784
 23
135.56
 33
0.0
  0
3DFACE
  8
0
  6
CONTINUOUS
 62
     7
 10
254.503464
 20
134.44
 30
0.0
 11
254.519144
 21
134.44
 31
0.0
 12
254.519144
 22
135.56
 32
0.0
 13
254.503464
 23
135.56
 33
0.0
  0
3DFACE
  8
0
  6
CONTINUOUS
 62
     7
 10
254.519144
 20
134.44
 30
0.0
 11
254.534824
 21
134.44
 31
0.0
 12
254.534824
 22
135.56
 32
0.0
 13
254.519144
 23
135.56
 33
0.0
  0
3DFACE
  8
0
  6
CONTINUOUS
 62
     7
 10
254.534824
 20
134.44
 30
0.0
 11
254.550504
 21
134.44
 31
0.0
 12
254.550504
 22
135.56
 32
0.0
 13
254.534824
 23
135.56
 33
0.0
  0
3DFACE
  8
0
  6
CONTINUOUS
 62
     7
 10
254.550504
 20
134.44
 30
0.0
 11
254.566184
 21
134.44
 31
0.0
 12
254.566184
 22
135.56
 32
0.0
 13
254.550504
 23
135.56
 33
0.0
  0
3DFACE
  8
0
  6
CONTINUOUS
 62
     7
 10
254.566184
 20
134.44
 30
0.0
 11
254.581864
 21
134.44
 31
0.0
 12
254.581864
 22
135.56
 32
0.0
 13
254.566184
 23
135.56
 33
0.0
  0
3DFACE
  8
0
  6
CONTINUOUS
 62
     7
 10
254.581864
 20
134.44
 30
0.0
 11
254.597544
 21
134.44
 31
0.0
 12
254.597544
 22
135.56
 32
0.0
 13
254.581864
 23
135.56
 33
0.0
  0
3DFACE
  8
0
  6
CONTINUOUS
 62
     7
 10
254.597544
 20
134.44
 30
0.0
 11
254.613224
 21
134.44
 31
0.0
 12
254.613224
 22
135.56
 32
0.0
 13
254.597544
 23
135.56
 33
0.0
  0
3DFACE
  8
0
  6
CONTINUOUS
 62
     7
 10
254.613224
 20
134.44
 30
0.0
 11
254.628904
 21
134.44
 31
0.0
 12
254.628904
 22
135.56
 32
0.0
 13
254.613224
 23
135.56
 33
0.0
  0
3DFACE
  8
0
  6
CONTINUOUS
 62
     7
 10
254.628904
 20
134.44
 30
0.0
 11
254.644584
 21
134.44
 31
0.0
 12
254.644584
 22
135.56
 32
0.0
 13
254.628904
 23
135.56
 33
0.0
  0
3DFACE
  8
0
  6
CONTINUOUS
 62
     7
 10
254.644584
 20
134.44
 30
0.0
 11
254.660264
 21
134.44
 31
0.0
 12
254.660264
 22
135.56
 32
0.0
 13
254.644584
 23
135.56
 33
0.0
  0
3DFACE
  8
0
  6
CONTINUOUS
 62
     7
 10
254.660264
 20
134.44
 30
0.0
 11
254.675944
 21
134.44
 31
0.0
 12
254.675944
 22
135.56
 32
0.0
 13
254.660264
 23
135.56
 33
0.0
  0
3DFACE
  8
0
  6
CONTINUOUS
 62
     7
 10
254.675944
 20
134.44
 30
0.0
 11
254.691624
 21
134.44
 31
0.0
 12
254.691624
 22
135.56
 32
0.0
 13
254.675944
 23
135.56
 33
0.0
  0
3DFACE
  8
0
  6
CONTINUOUS
 62
     7
 10
254.691624
 20
134.44
 30
0.0
 11
254.707304
 21
134.44
 31
0.0
 12
254.707304
 22
135.56
 32
0.0
 13
254.691624
 23
135.56
 33
0.0
  0
3DFACE
  8
0
  6
CONTINUOUS
 62
     7
 10
254.707304
 20
134.44
 30
0.0
 11
254.722984
 21
134.44
 31
0.0
 12
254.722984
 22
135.56
 32
0.0
 13
254.707304
 23
135.56
 33
0.0
  0
3DFACE
  8
0
  6
CONTINUOUS
 62
     7
 10
254.722984
 20
134.44
 30
0.0
 11
254.738664
 21
134.44
 31
0.0
 12
254.738664
 22
135.56
 32
0.0
 13
254.722984
 23
135.56
 33
0.0
  0
3DFACE
  8
0
  6
CONTINUOUS
 62
     7
 10
254.738664
 20
134.44
 30
0.0
 11
254.754344
 21
134.44
 31
0.0
 12
254.754344
 22
135.56
 32
0.0
 13
254.738664
 23
135.56
 33
0.0
  0
3DFACE
  8
0
  6
CONTINUOUS
 62
     7
 10
254.754344
 20
134.44
 30
0.0
 11
254.770024
 21
134.44
 31
0.0
 12
254.770024
 22
135.56
 32
0.0
 13
254.754344
 23
135.56
 33
0.0
  0
3DFACE
  8
0
  6
CONTINUOUS
 62
     7
 10
254.770024
 20
134.44
 30
0.0
 11
254.785704
 21
134.44
 31
0.0
 12
254.785704
 22
135.56
 32
0.0
 13
254.770024
 23
135.56
 33
0.0
  0
3DFACE
  8
0
  6
CONTINUOUS
 62
     7
 10
254.785704
 20
134.44
 30
0.0
 11
254.801384
 21
134.44
 31
0.0
 12
254.801384
 22
135.56
 32
0.0
 13
254.785704
 23
135.56
 33
0.0
  0
3DFACE
  8
0
  6
CONTINUOUS
 62
     7
 10
254.801384
 20
134.44
 30
0.0
 11
254.817064
 21
134.44
 31
0.0
 12
254.817064
 22
135.56
 32
0.0
 13
254.801384
 23
135.56
 33
0.0
  0
3DFACE
  8
0
  6
CONTINUOUS
 62
     7
 10
254.817064
 20
134.44
 30
0.0
 11
254.832744
 21
134.44
 31
0.0
 12
254.832744
 22
135.56
 32
0.0
 13
254.817064
 23
135.56
 33
0.0
  0
3DFACE
  8
0
  6
CONTINUOUS
 62
     7
 10
254.832744
 20
134.44
 30
0.0
 11
254.848424
 21
134.44
 31
0.0
 12
254.848424
 22
135.56
 32
0.0
 13
254.832744
 23
135.56
 33
0.0
  0
3DFACE
  8
0
  6
CONTINUOUS
 62
     7
 10
254.848424
 20
134.44
 30
0.0
 11
254.864104
 21
134.44
 31
0.0
 12
254.864104
 22
135.56
 32
0.0
 13
254.848424
 23
135.56
 33
0.0
  0
3DFACE
  8
0
  6
CONTINUOUS
 62
     7
 10
254.864104
 20
134.44
 30
0.0
 11
254.879784
 21
134.44
 31
0.0
 12
254.879784
 22
135.56
 32
0.0
 13
254.864104
 23
135.56
 33
0.0
  0
3DFACE
  8
0
  6
CONTINUOUS
 62
     7
 10
254.879784
 20
134.44
 30
0.0
 11
254.895464
 21
134.44
 31
0.0
 12
254.895464
 22
135.56
 32
0.0
 13
254.879784
 23
135.56
 33
0.0
  0
3DFACE
  8
0
  6
CONTINUOUS
 62
     7
 10
254.895464
 20
134.44
 30
0.0
 11
254.911144
 21
134.44
 31
0.0
 12
254.911144
 22
135.56
 32
0.0
 13
254.895464
 23
135.56
 33
0.0
  0
3DFACE
  8
0
  6
CONTINUOUS
 62
     7
 10
254.911144
 20
134.44
 30
0.0
 11
254.926824
 21
134.44
 31
0.0
 12
254.926824
 22
135.56
 32
0.0
 13
254.911144
 23
135.56
 33
0.0
  0
3DFACE
  8
0
  6
CONTINUOUS
 62
     7
 10
254.926824
 20
134.44
 30
0.0
 11
254.942504
 21
134.44
 31
0.0
 12
254.942504
 22
135.56
 32
0.0
 13
254.926824
 23
135.56
 33
0.0
  0
3DFACE
  8
0
  6
CONTINUOUS
 62
     7
 10
254.942504
 20
134.44
 30
0.0
 11
254.958184
 21
134.44
 31
0.0
 12
254.958184
 22
135.56
 32
0.0
 13
254.942504
 23
135.56
 33
0.0
  0
3DFACE
  8
0
  6
CONTINUOUS
 62
     7
 10
254.958184
 20
134.44
 30
0.0
 11
254.973864
 21
134.44
 31
0.0
 12
254.973864
 22
135.56
 32
0.0
 13
254.958184
 23
135.56
 33
0.0
  0
3DFACE
  8
0
  6
CONTINUOUS
 62
     7
 10
254.973864
 20
134.44
 30
0.0
 11
254.989544
 21
134.44
 31
0.0
 12
254.989544
 22
135.56
 32
0.0
 13
254.973864
 23
135.56
 33
0.0
  0
3DFACE
  8
0
  6
CONTINUOUS
 62
     7
 10
254.989544
 20
134.44
 30
0.0
 11
255.005224
 21
134.44
 31
0.0
 12
255.005224
 22
135.56
 32
0.0
 13
254.989544
 23
135.56
 33
0.0
  0
3DFACE
  8
0
  6
CONTINUOUS
 62
     7
 10
255.005224
 20
134.44
 30
0.0
 11
255.020904
 21
134.44
 31
0.0
 12
255.020904
 22
135.56
 32
0.0
 13
255.005224
 23
135.56
 33
0.0
  0
3DFACE
  8
0
  6
CONTINUOUS
 62
     7
 10
255.020904
 20
134.44
 30
0.0
 11
255.036584
 21
134.44
 31
0.0
 12
255.036584
 22
135.56
 32
0.0
 13
255.020904
 23
135.56
 33
0.0
  0
3DFACE
  8
0
  6
CONTINUOUS
 62
     7
 10
255.036584
 20
134.44
 30
0.0
 11
255.052264
 21
134.44
 31
0.0
 12
255.052264
 22
135.56
 32
0.0
 13
255.036584
 23
135.56
 33
0.0
  0
3DFACE
  8
0
  6
CONTINUOUS
 62
     7
 10
255.052264
 20
134.44
 30
0.0
 11
255.067944
 21
134.44
 31
0.0
 12
255.067944
 22
135.56
 32
0.0
 13
255.052264
 23
135.56
 33
0.0
  0
3DFACE
  8
0
  6
CONTINUOUS
 62
     7
 10
255.067944
 20
134.44
 30
0.0
 11
255.083624
 21
134.44
 31
0.0
 12
255.083624
 22
135.56
 32
0.0
 13
255.067944
 23
135.56
 33
0.0
  0
3DFACE
  8
0
  6
CONTINUOUS
 62
     7
 10
255.083624
 20
134.44
 30
0.0
 11
255.099304
 21
134.44
 31
0.0
 12
255.099304
 22
135.56
 32
0.0
 13
255.083624
 23
135.56
 33
0.0
  0
3DFACE
  8
0
  6
CONTINUOUS
 62
     7
 10
255.099304
 20
134.44
 30
0.0
 11
255.114984
 21
134.44
 31
0.0
 12
255.114984
 22
135.56
 32
0.0
 13
255.099304
 23
135.56
 33
0.0
  0
3DFACE
  8
0
  6
CONTINUOUS
 62
     7
 10
255.114984
 20
134.44
 30
0.0
 11
255.130664
 21
134.44
 31
0.0
 12
255.130664
 22
135.56
 32
0.0
 13
255.114984
 23
135.56
 33
0.0
  0
3DFACE
  8
0
  6
CONTINUOUS
 62
     7
 10
255.130664
 20
134.44
 30
0.0
 11
255.146344
 21
134.44
 31
0.0
 12
255.146344
 22
135.56
 32
0.0
 13
255.130664
 23
135.56
 33
0.0
  0
3DFACE
  8
0
  6
CONTINUOUS
 62
     7
 10
255.146344
 20
134.44
 30
0.0
 11
255.162024
 21
134.44
 31
0.0
 12
255.162024
 22
135.56
 32
0.0
 13
255.146344
 23
135.56
 33
0.0
  0
3DFACE
  8
0
  6
CONTINUOUS
 62
     7
 10
255.162024
 20
134.44
 30
0.0
 11
255.177704
 21
134.44
 31
0.0
 12
255.177704
 22
135.56
 32
0.0
 13
255.162024
 23
135.56
 33
0.0
  0
3DFACE
  8
0
  6
CONTINUOUS
 62
     7
 10
255.177704
 20
134.44
 30
0.0
 11
255.193384
 21
134.44
 31
0.0
 12
255.193384
 22
135.56
 32
0.0
 13
255.177704
 23
135.56
 33
0.0
  0
3DFACE
  8
0
  6
CONTINUOUS
 62
     7
 10
255.193384
 20
134.44
 30
0.0
 11
255.209064
 21
134.44
 31
0.0
 12
255.209064
 22
135.56
 32
0.0
 13
255.193384
 23
135.56
 33
0.0
  0
3DFACE
  8
0
  6
CONTINUOUS
 62
     7
 10
255.209064
 20
134.44
 30
0.0
 11
255.224744
 21
134.44
 31
0.0
 12
255.224744
 22
135.56
 32
0.0
 13
255.209064
 23
135.56
 33
0.0
  0
3DFACE
  8
0
  6
CONTINUOUS
 62
     7
 10
255.224744
 20
134.44
 30
0.0
 11
255.240424
 21
134.44
 31
0.0
 12
255.240424
 22
135.56
 32
0.0
 13
255.224744
 23
135.56
 33
0.0
  0
3DFACE
  8
0
  6
CONTINUOUS
 62
     7
 10
255.240424
 20
134.44
 30
0.0
 11
255.256104
 21
134.44
 31
0.0
 12
255.256104
 22
135.56
 32
0.0
 13
255.240424
 23
135.56
 33
0.0
  0
3DFACE
  8
0
  6
CONTINUOUS
 62
     7
 10
255.256104
 20
134.44
 30
0.0
 11
255.271784
 21
134.44
 31
0.0
 12
255.271784
 22
135.56
 32
0.0
 13
255.256104
 23
135.56
 33
0.0
  0
3DFACE
  8
0
  6
CONTINUOUS
 62
     7
 10
255.271784
 20
134.44
 30
0.0
 11
255.287464
 21
134.44
 31
0.0
 12
255.287464
 22
135.56
 32
0.0
 13
255.271784
 23
135.56
 33
0.0
  0
3DFACE
  8
0
  6
CONTINUOUS
 62
     7
 10
255.287464
 20
134.44
 30
0.0
 11
255.303144
 21
134.44
 31
0.0
 12
255.303144
 22
135.56
 32
0.0
 13
255.287464
 23
135.56
 33
0.0
  0
3DFACE
  8
0
  6
CONTINUOUS
 62
     7
 10
255.303144
 20
134.44
 30
0.0
 11
255.318824
 21
134.44
 31
0.0
 12
255.318824
 22
135.56
 32
0.0
 13
255.303144
 23
135.56
 33
0.0
  0
3DFACE
  8
0
  6
CONTINUOUS
 62
     7
 10
255.318824
 20
134.44
 30
0.0
 11
255.334504
 21
134.44
 31
0.0
 12
255.334504
 22
135.56
 32
0.0
 13
255.318824
 23
135.56
 33
0.0
  0
3DFACE
  8
0
  6
CONTINUOUS
 62
     7
 10
255.334504
 20
134.44
 30
0.0
 11
255.350184
 21
134.44
 31
0.0
 12
255.350184
 22
135.56
 32
0.0
 13
255.334504
 23
135.56
 33
0.0
  0
3DFACE
  8
0
  6
CONTINUOUS
 62
     7
 10
255.350184
 20
134.44
 30
0.0
 11
255.365864
 21
134.44
 31
0.0
 12
255.365864
 22
135.56
 32
0.0
 13
255.350184
 23
135.56
 33
0.0
  0
3DFACE
  8
0
  6
CONTINUOUS
 62
     7
 10
255.365864
 20
134.44
 30
0.0
 11
255.381544
 21
134.44
 31
0.0
 12
255.381544
 22
135.56
 32
0.0
 13
255.365864
 23
135.56
 33
0.0
  0
3DFACE
  8
0
  6
CONTINUOUS
 62
     7
 10
255.381544
 20
134.44
 30
0.0
 11
255.397224
 21
134.44
 31
0.0
 12
255.397224
 22
135.56
 32
0.0
 13
255.381544
 23
135.56
 33
0.0
  0
3DFACE
  8
0
  6
CONTINUOUS
 62
     7
 10
255.397224
 20
134.44
 30
0.0
 11
255.412904
 21
134.44
 31
0.0
 12
255.412904
 22
135.56
 32
0.0
 13
255.397224
 23
135.56
 33
0.0
  0
3DFACE
  8
0
  6
CONTINUOUS
 62
     7
 10
255.412904
 20
134.44
 30
0.0
 11
255.428584
 21
134.44
 31
0.0
 12
255.428584
 22
135.56
 32
0.0
 13
255.412904
 23
135.56
 33
0.0
  0
3DFACE
  8
0
  6
CONTINUOUS
 62
     7
 10
255.428584
 20
134.44
 30
0.0
 11
255.444264
 21
134.44
 31
0.0
 12
255.444264
 22
135.56
 32
0.0
 13
255.428584
 23
135.56
 33
0.0
  0
3DFACE
  8
0
  6
CONTINUOUS
 62
     7
 10
255.444264
 20
134.44
 30
0.0
 11
255.459944
 21
134.44
 31
0.0
 12
255.459944
 22
135.56
 32
0.0
 13
255.444264
 23
135.56
 33
0.0
  0
3DFACE
  8
0
  6
CONTINUOUS
 62
     7
 10
255.459944
 20
134.44
 30
0.0
 11
255.475624
 21
134.44
 31
0.0
 12
255.475624
 22
135.56
 32
0.0
 13
255.459944
 23
135.56
 33
0.0
  0
3DFACE
  8
0
  6
CONTINUOUS
 62
     7
 10
255.475624
 20
134.44
 30
0.0
 11
255.491304
 21
134.44
 31
0.0
 12
255.491304
 22
135.56
 32
0.0
 13
255.475624
 23
135.56
 33
0.0
  0
3DFACE
  8
0
  6
CONTINUOUS
 62
     7
 10
255.491304
 20
134.44
 30
0.0
 11
255.506984
 21
134.44
 31
0.0
 12
255.506984
 22
135.56
 32
0.0
 13
255.491304
 23
135.56
 33
0.0
  0
3DFACE
  8
0
  6
CONTINUOUS
 62
     7
 10
255.506984
 20
134.44
 30
0.0
 11
255.522664
 21
134.44
 31
0.0
 12
255.522664
 22
135.56
 32
0.0
 13
255.506984
 23
135.56
 33
0.0
  0
3DFACE
  8
0
  6
CONTINUOUS
 62
     7
 10
255.522664
 20
134.44
 30
0.0
 11
255.538344
 21
134.44
 31
0.0
 12
255.538344
 22
135.56
 32
0.0
 13
255.522664
 23
135.56
 33
0.0
  0
3DFACE
  8
0
  6
CONTINUOUS
 62
     7
 10
255.538344
 20
134.44
 30
0.0
 11
255.554024
 21
134.44
 31
0.0
 12
255.554024
 22
135.56
 32
0.0
 13
255.538344
 23
135.56
 33
0.0
  0
LINE
  8
0
  6
CONTINUOUS
 62
     7
 10
224.252198
 20
181.164843
 30
0.0
 11
221.906432
 21
182.500196
 31
0.0
  0
LINE
  8
0
  6
CONTINUOUS
 62
     7
 10
221.906432
 20
182.500196
 30
0.0
 11
224.252198
 21
183.690116
 31
0.0
  0
LINE
  8
0
 62
     7
 10
235.0
 20
184.99845
 30
0.0
 11
235.0
 21
194.99845
 31
0.0
  0
LINE
  8
0
 62
     7
 10
237.5
 20
195.0
 30
0.0
 11
240.0
 21
195.0
 31
0.0
  0
LINE
  8
0
 62
     7
 10
235.0
 20
194.99845
 30
0.0
 11
237.5
 21
194.99845
 31
0.0
  0
LINE
  8
0
 62
     7
 10
232.5
 20
190.0
 30
0.0
 11
237.5
 21
190.0
 31
0.0
  0
LINE
  8
0
 62
     7
 10
237.5
 20
190.0
 30
0.0
 11
240.0
 21
190.0
 31
0.0
  0
LINE
  8
0
 62
     7
 10
240.0
 20
190.0
 30
0.0
 11
240.0
 21
192.9
 31
0.0
  0
LINE
  8
0
 62
     7
 10
238.88095
 20
191.944425
 30
0.0
 11
239.560313
 21
191.008681
 31
0.0
  0
LINE
  8
0
 62
     7
 10
245.0
 20
195.0
 30
0.0
 11
239.2
 21
191.5
 31
0.0
  0
LINE
  8
0
 62
     7
 10
237.5
 20
184.99845
 30
0.0
 11
235.0
 21
184.99845
 31
0.0
  0
LINE
  8
0
 62
     7
 10
237.5
 20
185.0
 30
0.0
 11
240.0
 21
185.0
 31
0.0
  0
INSERT
  8
0
  6
CENTER
 62
     7
  2
BLC26
 10
316.410526
 20
172.580446
 30
0.0
 41
1.006225
 42
1.006225
 50
180.0
 43
1.006225
  0
ARC
  8
0
  6
CONTINUOUS
 62
     7
 10
260.0
 20
165.0
 30
0.0
 40
0.5
 50
180.0
 51
0.0
  0
ARC
  8
0
  6
CONTINUOUS
 62
     7
 10
260.0
 20
165.0
 30
0.0
 40
0.5
 50
0.0
 51
180.0
  0
LINE
  8
0
  6
CONTINUOUS
 62
     7
 10
292.5
 20
163.490022
 30
0.0
 11
292.5
 21
160.844365
 31
0.0
  0
LINE
  8
0
  6
CONTINUOUS
 62
     7
 10
291.896305
 20
159.062812
 30
0.0
 11
293.103695
 21
159.062812
 31
0.0
  0
LINE
  8
0
  6
CONTINUOUS
 62
     7
 10
291.463807
 20
159.950325
 30
0.0
 11
293.527182
 21
159.950325
 31
0.0
  0
LINE
  8
0
  6
CONTINUOUS
 62
     7
 10
290.968237
 20
160.844365
 30
0.0
 11
294.031763
 21
160.844365
 31
0.0
  0
ARC
  8
0
  6
CONTINUOUS
 62
     7
 10
292.5
 20
165.0
 30
0.0
 40
0.5
 50
180.0
 51
0.0
  0
ARC
  8
0
  6
CONTINUOUS
 62
     7
 10
292.5
 20
165.0
 30
0.0
 40
0.5
 50
0.0
 51
180.0
  0
ARC
  8
0
  6
CONTINUOUS
 62
     7
 10
292.5
 20
170.189984
 30
0.0
 40
0.5
 50
180.0
 51
0.0
  0
ARC
  8
0
  6
CONTINUOUS
 62
     7
 10
292.5
 20
170.189984
 30
0.0
 40
0.5
 50
0.0
 51
180.0
  0
ARC
  8
0
  6
CONTINUOUS
 62
     7
 10
260.0
 20
185.0
 30
0.0
 40
0.5
 50
180.0
 51
0.0
  0
ARC
  8
0
  6
CONTINUOUS
 62
     7
 10
260.0
 20
185.0
 30
0.0
 40
0.5
 50
0.0
 51
180.0
  0
INSERT
  8
0
  6
CENTER
 62
     7
  2
BLC26
 10
308.93164
 20
192.580445
 30
0.0
 41
1.006225
 42
1.006225
 50
180.0
 43
1.006225
  0
ARC
  8
0
  6
CONTINUOUS
 62
     7
 10
292.5
 20
190.189984
 30
0.0
 40
0.5
 50
180.0
 51
0.0
  0
ARC
  8
0
  6
CONTINUOUS
 62
     7
 10
292.5
 20
190.189984
 30
0.0
 40
0.5
 50
0.0
 51
180.0
  0
ARC
  8
0
  6
CONTINUOUS
 62
     7
 10
300.0
 20
255.0
 30
0.0
 40
0.5
 50
180.0
 51
0.0
  0
ARC
  8
0
  6
CONTINUOUS
 62
     7
 10
300.0
 20
255.0
 30
0.0
 40
0.5
 50
0.0
 51
180.0
  0
ARC
  8
0
  6
CONTINUOUS
 62
     7
 10
315.0
 20
240.0
 30
0.0
 40
0.5
 50
180.0
 51
0.0
  0
ARC
  8
0
  6
CONTINUOUS
 62
     7
 10
315.0
 20
240.0
 30
0.0
 40
0.5
 50
0.0
 51
180.0
  0
ARC
  8
0
  6
CONTINUOUS
 62
     7
 10
307.5
 20
247.5
 30
0.0
 40
0.5
 50
180.0
 51
0.0
  0
ARC
  8
0
  6
CONTINUOUS
 62
     7
 10
307.5
 20
247.5
 30
0.0
 40
0.5
 50
0.0
 51
180.0
  0
ENDSEC
  0
EOF
