  0
SECTION
  2
HEADER
  9
$ACADVER
  1
AC1009
  9
$DWGCODEPAGE
  3
iso8859-1
  9
$INSBASE
 10
0.0
 20
0.0
 30
0.0
  9
$EXTMIN
 10
1.0E20
 20
1.0E20
  9
$EXTMAX
 10
-1.0E20
 20
-1.0E20
  9
$LIMMIN
 10
0.0
 20
0.0
  9
$LIMMAX
 10
12.0
 20
9.0
  9
$ORTHOMODE
 70
     0
  9
$REGENMODE
 70
     1
  9
$FILLMODE
 70
     1
  9
$QTEXTMODE
 70
     0
  9
$MIRRTEXT
 70
     1
  9
$DRAGMODE
 70
     2
  9
$LTSCALE
 40
15.0
  9
$OSMODE
 70
     0
  9
$ATTMODE
 70
     1
  9
$TEXTSIZE
 40
0.2
  9
$TRACEWID
 40
0.05
  9
$TEXTSTYLE
  7
STANDARD
  9
$CLAYER
  8
0
  9
$CELTYPE
  6
DASHED
  9
$CECOLOR
 62
   256
  9
$DIMSCALE
 40
1.0
  9
$DIMASZ
 40
0.18
  9
$DIMEXO
 40
0.0625
  9
$DIMDLI
 40
0.38
  9
$DIMRND
 40
0.0
  9
$DIMDLE
 40
0.0
  9
$DIMEXE
 40
0.18
  9
$DIMTP
 40
0.0
  9
$DIMTM
 40
0.0
  9
$DIMTXT
 40
0.18
  9
$DIMCEN
 40
0.09
  9
$DIMTSZ
 40
0.0
  9
$DIMTOL
 70
     0
  9
$DIMLIM
 70
     0
  9
$DIMTIH
 70
     1
  9
$DIMTOH
 70
     1
  9
$DIMSE1
 70
     0
  9
$DIMSE2
 70
     0
  9
$DIMTAD
 70
     0
  9
$DIMZIN
 70
     0
  9
$DIMBLK
  1

  9
$DIMASO
 70
     1
  9
$DIMSHO
 70
     1
  9
$DIMPOST
  1

  9
$DIMAPOST
  1

  9
$DIMALT
 70
     0
  9
$DIMALTD
 70
     2
  9
$DIMALTF
 40
25.4
  9
$DIMLFAC
 40
1.0
  9
$DIMTOFL
 70
     0
  9
$DIMTVP
 40
0.0
  9
$DIMTIX
 70
     0
  9
$DIMSOXD
 70
     0
  9
$DIMSAH
 70
     0
  9
$DIMBLK1
  1

  9
$DIMBLK2
  1

  9
$DIMSTYLE
  2
STANDARD
  9
$DIMCLRD
 70
     0
  9
$DIMCLRE
 70
     0
  9
$DIMCLRT
 70
     0
  9
$DIMTFAC
 40
1.0
  9
$DIMGAP
 40
0.09
  9
$LUNITS
 70
     2
  9
$LUPREC
 70
     4
  9
$AXISMODE
 70
     0
  9
$AXISUNIT
 10
0.0
 20
0.0
  9
$SKETCHINC
 40
0.1
  9
$FILLETRAD
 40
0.0
  9
$AUNITS
 70
     0
  9
$AUPREC
 70
     0
  9
$MENU
  1
acad
  9
$ELEVATION
 40
0.0
  9
$PELEVATION
 40
0.0
  9
$THICKNESS
 40
0.0
  9
$LIMCHECK
 70
     0
  9
$BLIPMODE
 70
     1
  9
$CHAMFERA
 40
0.0
  9
$CHAMFERB
 40
0.0
  9
$SKPOLY
 70
     0
  9
$TDCREATE
 40
0.000000000
  9
$TDUPDATE
 40
0.000000000
  9
$TDINDWG
 40
0.0
  9
$TDUSRTIMER
 40
0.0
  9
$USRTIMER
 70
     1
  9
$ANGBASE
 50
0.0
  9
$ANGDIR
 70
     0
  9
$PDMODE
 70
     0
  9
$PDSIZE
 40
0.0
  9
$PLINEWID
 40
0.0
  9
$COORDS
 70
     1
  9
$SPLFRAME
 70
     0
  9
$SPLINETYPE
 70
     6
  9
$SPLINESEGS
 70
     8
  9
$ATTDIA
 70
     0
  9
$ATTREQ
 70
     1
  9
$HANDLING
 70
     1
  9
$HANDSEED
  5
   742
  9
$SURFTAB1
 70
     6
  9
$SURFTAB2
 70
     6
  9
$SURFTYPE
 70
     6
  9
$SURFU
 70
     6
  9
$SURFV
 70
     6
  9
$UCSNAME
  2

  9
$UCSORG
 10
0.0
 20
0.0
 30
0.0
  9
$UCSXDIR
 10
1.0
 20
0.0
 30
0.0
  9
$UCSYDIR
 10
0.0
 20
1.0
 30
0.0
  9
$PUCSNAME
  2

  9
$PUCSORG
 10
0.0
 20
0.0
 30
0.0
  9
$PUCSXDIR
 10
1.0
 20
0.0
 30
0.0
  9
$PUCSYDIR
 10
0.0
 20
1.0
 30
0.0
  9
$USERI1
 70
     0
  9
$USERI2
 70
     0
  9
$USERI3
 70
     0
  9
$USERI4
 70
     0
  9
$USERI5
 70
     0
  9
$USERR1
 40
0.0
  9
$USERR2
 40
0.0
  9
$USERR3
 40
0.0
  9
$USERR4
 40
0.0
  9
$USERR5
 40
0.0
  9
$WORLDVIEW
 70
     1
  9
$SHADEDGE
 70
     3
  9
$SHADEDIF
 70
    70
  9
$TILEMODE
 70
     1
  9
$MAXACTVP
 70
    16
  9
$PINSBASE
 10
0.0
 20
0.0
 30
0.0
  9
$PLIMCHECK
 70
     0
  9
$PEXTMIN
 10
1.0E20
 20
1.0E20
 30
1.0E20
  9
$PEXTMAX
 10
-1.0E20
 20
-1.0E20
 30
-1.0E20
  9
$PLIMMIN
 10
0.0
 20
0.0
  9
$PLIMMAX
 10
12.0
 20
9.0
  9
$UNITMODE
 70
     0
  9
$VISRETAIN
 70
     0
  0
ENDSEC
  0
SECTION
  2
TABLES
  0
TABLE
  2
VPORT
 70
     1
  0
VPORT
  2
*ACTIVE
 70
     0
 10
0.0
 20
0.0
 11
1.0
 21
1.0
 12
6.801242
 22
4.5
 13
0.0
 23
0.0
 14
1.0
 24
1.0
 15
0.0
 25
0.0
 16
0.0
 26
0.0
 36
1.0
 17
0.0
 27
0.0
 37
0.0
 40
9.0
 41
1.511387
 42
50.0
 43
0.0
 44
0.0
 50
0.0
 51
0.0
 71
     0
 72
   100
 73
     1
 74
     1
 75
     0
 76
     0
 77
     0
 78
     0
  0
ENDTAB
  0
TABLE
  2
LTYPE
 70
    41
  0
LTYPE
  2
BYBLOCK
 70
     0
  3

 72
    65
 73
     0
 40
0.0
  0
LTYPE
  2
BYLAYER
 70
     0
  3

 72
    65
 73
     0
 40
0.0
  0
LTYPE
  2
CONTINUOUS
 70
     0
  3
Solid line
 72
    65
 73
     0
 40
0.0
  0
LTYPE
  2
BORDER
 70
    64
  3
__ __ . __ __ . __ __ . __ __ . __ __ . __ __ .
 72
    65
 73
     6
 40
1.75
 49
0.5
 49
-0.25
 49
0.5
 49
-0.25
 49
0.0
 49
-0.25
  0
LTYPE
  2
BORDER2
 70
    64
  3
__.__.__.__.__.__.__.__.__.__.__.__.__.__.__.__
 72
    65
 73
     6
 40
0.875
 49
0.25
 49
-0.125
 49
0.25
 49
-0.125
 49
0.0
 49
-0.125
  0
LTYPE
  2
BORDERX2
 70
    64
  3
____  ____  .  ____  ____  .  ____  ____  .  __
 72
    65
 73
     6
 40
3.5
 49
1.0
 49
-0.5
 49
1.0
 49
-0.5
 49
0.0
 49
-0.5
  0
LTYPE
  2
CENTER
 70
    64
  3
____ _ ____ _ ____ _ ____ _ ____ _ ____ _ ____
 72
    65
 73
     4
 40
2.0
 49
1.25
 49
-0.25
 49
0.25
 49
-0.25
  0
LTYPE
  2
CENTER2
 70
    64
  3
___ _ ___ _ ___ _ ___ _ ___ _ ___ _ ___ _ ___ _
 72
    65
 73
     4
 40
1.125
 49
0.75
 49
-0.125
 49
0.125
 49
-0.125
  0
LTYPE
  2
CENTERX2
 70
    64
  3
________  __  ________  __  ________  __  _____
 72
    65
 73
     4
 40
4.0
 49
2.5
 49
-0.5
 49
0.5
 49
-0.5
  0
LTYPE
  2
DASHDOT
 70
    64
  3
__ . __ . __ . __ . __ . __ . __ . __ . __ . __
 72
    65
 73
     4
 40
1.0
 49
0.5
 49
-0.25
 49
0.0
 49
-0.25
  0
LTYPE
  2
DASHDOT2
 70
    64
  3
_._._._._._._._._._._._._._._._._._._._._._._._
 72
    65
 73
     4
 40
0.5
 49
0.25
 49
-0.125
 49
0.0
 49
-0.125
  0
LTYPE
  2
DASHDOTX2
 70
    64
  3
____  .  ____  .  ____  .  ____  .  ____  .  __
 72
    65
 73
     4
 40
2.0
 49
1.0
 49
-0.5
 49
0.0
 49
-0.5
  0
LTYPE
  2
DASHED
 70
    64
  3
__ __ __ __ __ __ __ __ __ __ __ __ __ __ __ __
 72
    65
 73
     2
 40
0.75
 49
0.5
 49
-0.25
  0
LTYPE
  2
DASHED2
 70
    64
  3
_ _ _ _ _ _ _ _ _ _ _ _ _ _ _ _ _ _ _ _ _ _ _ _
 72
    65
 73
     2
 40
0.375
 49
0.25
 49
-0.125
  0
LTYPE
  2
DASHEDX2
 70
    64
  3
____  ____  ____  ____  ____  ____  ____  ____
 72
    65
 73
     2
 40
1.5
 49
1.0
 49
-0.5
  0
LTYPE
  2
DIVIDE
 70
    64
  3
____ . . ____ . . ____ . . ____ . . ____ . . __
 72
    65
 73
     6
 40
1.25
 49
0.5
 49
-0.25
 49
0.0
 49
-0.25
 49
0.0
 49
-0.25
  0
LTYPE
  2
DIVIDE2
 70
    64
  3
__..__..__..__..__..__..__..__..__..__..__..__.
 72
    65
 73
     6
 40
0.625
 49
0.25
 49
-0.125
 49
0.0
 49
-0.125
 49
0.0
 49
-0.125
  0
LTYPE
  2
DIVIDEX2
 70
    64
  3
________  .  .  ________  .  .  ________  .  .
 72
    65
 73
     6
 40
2.5
 49
1.0
 49
-0.5
 49
0.0
 49
-0.5
 49
0.0
 49
-0.5
  0
LTYPE
  2
DOT
 70
    64
  3
. . . . . . . . . . . . . . . . . . . . . . . .
 72
    65
 73
     2
 40
0.25
 49
0.0
 49
-0.25
  0
LTYPE
  2
DOT2
 70
    64
  3
...............................................
 72
    65
 73
     2
 40
0.125
 49
0.0
 49
-0.125
  0
LTYPE
  2
DOTX2
 70
    64
  3
.  .  .  .  .  .  .  .  .  .  .  .  .  .  .  .
 72
    65
 73
     2
 40
0.5
 49
0.0
 49
-0.5
  0
LTYPE
  2
HIDDEN
 70
    64
  3
__ __ __ __ __ __ __ __ __ __ __ __ __ __ __ __
 72
    65
 73
     2
 40
0.375
 49
0.25
 49
-0.125
  0
LTYPE
  2
HIDDEN2
 70
    64
  3
_ _ _ _ _ _ _ _ _ _ _ _ _ _ _ _ _ _ _ _ _ _ _ _
 72
    65
 73
     2
 40
0.1875
 49
0.125
 49
-0.0625
  0
LTYPE
  2
HIDDENX2
 70
    64
  3
____ ____ ____ ____ ____ ____ ____ ____ ____ __
 72
    65
 73
     2
 40
0.75
 49
0.5
 49
-0.25
  0
LTYPE
  2
PHANTOM
 70
    64
  3
______  __  __  ______  __  __  ______  __  __
 72
    65
 73
     6
 40
2.5
 49
1.25
 49
-0.25
 49
0.25
 49
-0.25
 49
0.25
 49
-0.25
  0
LTYPE
  2
PHANTOM2
 70
    64
  3
___ _ _ ___ _ _ ___ _ _ ___ _ _ ___ _ _ ___ _ _
 72
    65
 73
     6
 40
1.25
 49
0.625
 49
-0.125
 49
0.125
 49
-0.125
 49
0.125
 49
-0.125
  0
LTYPE
  2
PHANTOMX2
 70
    64
  3
____________    ____    ____    ____________
 72
    65
 73
     6
 40
5.0
 49
2.5
 49
-0.5
 49
0.5
 49
-0.5
 49
0.5
 49
-0.5
  0
LTYPE
  2
ACAD_ISO02W100
 70
    64
  3
__ __ __ __ __ __ __ __ __ __ __ __ __ __ __ __
 72
    65
 73
     2
 40
15.0
 49
12.0
 49
-3.0
  0
LTYPE
  2
ACAD_ISO03W100
 70
    64
  3
__    __    __    __    __    __    __    __
 72
    65
 73
     2
 40
30.0
 49
12.0
 49
-18.0
  0
LTYPE
  2
ACAD_ISO04W100
 70
    64
  3
____ . ____ . ____ . ____ . ____ . ____ . ____
 72
    65
 73
     4
 40
30.5
 49
24.0
 49
-3.0
 49
0.5
 49
-3.0
  0
LTYPE
  2
ACAD_ISO05W100
 70
    64
  3
____ .. ____ .. ____ .. ____ .. ____ .. ____ ..
 72
    65
 73
     6
 40
34.0
 49
24.0
 49
-3.0
 49
0.5
 49
-3.0
 49
0.5
 49
-3.0
  0
LTYPE
  2
ACAD_ISO06W100
 70
    64
  3
____ ... ____ ... ____ ... ____ ... ____ ... __
 72
    65
 73
     8
 40
37.5
 49
24.0
 49
-3.0
 49
0.5
 49
-3.0
 49
0.5
 49
-3.0
 49
0.5
 49
-3.0
  0
LTYPE
  2
ACAD_ISO07W100
 70
    64
  3
. . . . . . . . . . . . . . . . . . . . . . . .
 72
    65
 73
     2
 40
3.5
 49
0.5
 49
-3.0
  0
LTYPE
  2
ACAD_ISO08W100
 70
    64
  3
____ __ ____ __ ____ __ ____ ____ __ __ ____ __
 72
    65
 73
     4
 40
36.0
 49
24.0
 49
-3.0
 49
6.0
 49
-3.0
  0
LTYPE
  2
ACAD_ISO09W100
 70
    64
  3
____ __ __ ____ __ __ ____ __ __ ____ __ __ ___
 72
    65
 73
     6
 40
45.0
 49
24.0
 49
-3.0
 49
6.0
 49
-3.0
 49
6.0
 49
-3.0
  0
LTYPE
  2
ACAD_ISO10W100
 70
    64
  3
__ . __ . __ . __ . __ . __ . __ . __ . __ . __
 72
    65
 73
     4
 40
18.5
 49
12.0
 49
-3.0
 49
0.5
 49
-3.0
  0
LTYPE
  2
ACAD_ISO11W100
 70
    64
  3
__ __ . __ __ . __ __ . __ __ . __ __ . __ __ .
 72
    65
 73
     6
 40
33.5
 49
12.0
 49
-3.0
 49
12.0
 49
-3.0
 49
0.5
 49
-3.0
  0
LTYPE
  2
ACAD_ISO12W100
 70
    64
  3
__ . . __ . . __ . . __ . . __ . . __ . . __ .
 72
    65
 73
     6
 40
22.0
 49
12.0
 49
-3.0
 49
0.5
 49
-3.0
 49
0.5
 49
-3.0
  0
LTYPE
  2
ACAD_ISO13W100
 70
    64
  3
__ __ . . __ __ . . __ __ . . __ __ . . __ __ .
 72
    65
 73
     8
 40
37.0
 49
12.0
 49
-3.0
 49
12.0
 49
-3.0
 49
0.5
 49
-3.0
 49
0.5
 49
-3.0
  0
LTYPE
  2
ACAD_ISO14W100
 70
    64
  3
__ . . . __ . . . __ . . . __ . . . __ . . . __
 72
    65
 73
     8
 40
25.5
 49
12.0
 49
-3.0
 49
0.5
 49
-3.0
 49
0.5
 49
-3.0
 49
0.5
 49
-3.0
  0
LTYPE
  2
ACAD_ISO15W100
 70
    64
  3
__ __ . . . __ __ . . . __ __ . . . __ __ . . .
 72
    65
 73
    10
 40
40.5
 49
12.0
 49
-3.0
 49
12.0
 49
-3.0
 49
0.5
 49
-3.0
 49
0.5
 49
-3.0
 49
0.5
 49
-3.0
  0
ENDTAB
  0
TABLE
  2
STYLE
 70
     4
  0
STYLE
  2
STANDARD
 70
    64
 40
0.0
 41
1.0
 50
0.0
 71
     0
 42
0.2
  3
txt
  4

  0
STYLE
  2
TOLERANCE
 70
    64
 40
0.0
 41
1.0
 50
0.0
 71
     0
 42
0.2
  3
../igesfont/iges1003.shx
  4

  0
STYLE
  2
ROMANS
 70
    64
 40
0.0
 41
1.0
 50
0.0
 71
     0
 42
0.2
  3
romans.shx
  4

  0
STYLE
  2
ROMANC
 70
    64
 40
0.0
 41
1.0
 50
0.0
 71
     0
 42
0.2
  3
romanc.shx
  4

  0
ENDTAB
  0
TABLE
  2
DIMSTYLE
 70
     2
  0
DIMSTYLE
  2
UNNAMED
 70
     0
  3

  4

  5

  6

  7

 40
1.0
 41
0.18
 42
0.0625
 43
0.38
 44
0.18
 45
0.0
 46
0.0
 47
0.0
 48
0.0
140
0.18
141
0.09
142
0.0
143
25.4
144
1.0
145
0.0
146
1.0
147
0.09
 71
     0
 72
     0
 73
     1
 74
     1
 75
     0
 76
     0
 77
     0
 78
     0
170
     0
171
     2
172
     0
173
     0
174
     0
175
     0
176
     0
177
     0
178
     0
  0
DIMSTYLE
  2
STANDARD
 70
     0
  3

  4

  5

  6

  7

 40
1.0
 41
0.18
 42
0.0625
 43
0.38
 44
0.18
 45
0.0
 46
0.0
 47
0.0
 48
0.0
140
0.18
141
0.09
142
0.0
143
25.4
144
1.0
145
0.0
146
1.0
147
0.09
 71
     0
 72
     0
 73
     1
 74
     1
 75
     0
 76
     0
 77
     0
 78
     0
170
     0
171
     2
172
     0
173
     0
174
     0
175
     0
176
     0
177
     0
178
     0
  0
ENDTAB
  0
TABLE
  2
LAYER
 70
     2
  0
LAYER
  2
0
 70
     0
 62
     7
  6
CONTINUOUS
  0
LAYER
  2
255
 70
     0
 62
     7
  6
CONTINUOUS
  0
ENDTAB
  0
ENDSEC
  0
SECTION
  2
BLOCKS
  0
BLOCK
  5
     B
  8
0
  6
CONTINUOUS
 62
     0
  2
FIANCATA
 70
    64
 10
0.0
 20
0.0
 30
0.0
  3
FIANCATA
  0
LINE
  5
     C
  8
0
  6
CONTINUOUS
 62
     0
 10
-16.4999618530273
 20
0.0
 30
0.0
 11
7.62939453125E-6
 21
0.0
 31
0.0
  0
LINE
  5
     D
  8
0
  6
CONTINUOUS
 62
     0
 10
-17.2070610469019
 20
-0.292902217944532
 30
0.0
 11
-16.8826439390779
 21
-7.61358696114147E-2
 31
0.0
  0
LINE
  5
     E
  8
0
  6
CONTINUOUS
 62
     0
 10
-17.4238394855521
 20
-0.617305997289576
 30
0.0
 11
-17.2070693104552
 21
-0.292888874313344
 31
0.0
  0
LINE
  5
     F
  8
0
  6
CONTINUOUS
 62
     0
 10
-16.8826439375328
 20
-7.61276888051592E-2
 30
0.0
 11
-16.4999611388804
 21
-1.59191401971626E-6
 31
0.0
  0
LINE
  5
    10
  8
0
  6
CONTINUOUS
 62
     0
 10
-17.4999809265137
 20
-1.0
 30
0.0
 11
-1.0
 21
-1.0
 31
0.0
  0
LINE
  5
    11
  8
0
  6
CONTINUOUS
 62
     0
 10
-17.4999808470354
 20
-1.00000102283533
 30
0.0
 11
-17.4238394874954
 21
-0.61731059266227
 31
0.0
  0
LINE
  5
    12
  8
0
  6
CONTINUOUS
 62
     0
 10
-1.0
 20
-13.2497711181641
 30
0.0
 11
-1.0
 21
0.0
 31
0.0
  0
LINE
  5
    13
  8
0
  6
CONTINUOUS
 62
     0
 10
-17.5000063905665
 20
-139.000133514403
 30
0.0
 11
-17.5000063905665
 21
-0.999996185301853
 31
0.0
  0
LINE
  5
    14
  8
0
  6
CONTINUOUS
 62
     0
 10
-1.00000000993256
 20
-4.00001523769052
 30
0.0
 11
3.80476470240865E-6
 21
-3.99999997890146
 31
0.0
  0
LINE
  5
    15
  8
0
  6
CONTINUOUS
 62
     0
 10
-8.26048155815329E-5
 20
-12.0001983642166
 30
0.0
 11
-8.26048155815329E-5
 21
-4.00010681148223
 31
0.0
  0
LINE
  5
    16
  8
0
  6
CONTINUOUS
 62
     0
 10
7.62939453125E-6
 20
-4.00010681152344
 30
0.0
 11
7.62939453125E-6
 21
0.0
 31
0.0
  0
LINE
  5
    17
  8
0
  6
CONTINUOUS
 62
     0
 10
-12.7500076293945
 20
-10.249755859375
 30
0.0
 11
-1.0
 21
-10.249755859375
 31
0.0
  0
LINE
  5
    18
  8
0
  6
CONTINUOUS
 62
     0
 10
-15.75
 20
-10.249755859375
 30
0.0
 11
-12.7500076293945
 21
-10.249755859375
 31
0.0
  0
LINE
  5
    19
  8
0
  6
CONTINUOUS
 62
     0
 10
-0.999996185302734
 20
-12.0001983642578
 30
0.0
 11
0.0
 21
-12.0001983642578
 31
0.0
  0
LINE
  5
    1A
  8
0
  6
CONTINUOUS
 62
     0
 10
0.0
 20
-19.5001983642578
 30
0.0
 11
0.0
 21
-12.0001983642578
 31
0.0
  0
LINE
  5
    1B
  8
0
  6
CONTINUOUS
 62
     0
 10
0.0
 20
-28.0001983642578
 30
0.0
 11
0.0
 21
-26.5001983642578
 31
0.0
  0
LINE
  5
    1C
  8
0
  6
CONTINUOUS
 62
     0
 10
0.0
 20
-26.0001831054688
 30
0.0
 11
0.0
 21
-20.0001831054688
 31
0.0
  0
LINE
  5
    1D
  8
0
  6
CONTINUOUS
 62
     0
 10
0.0
 20
-26.5001983642578
 30
0.0
 11
0.0
 21
-26.0001831054688
 31
0.0
  0
LINE
  5
    1E
  8
0
  6
CONTINUOUS
 62
     0
 10
0.0
 20
-20.0001831054688
 30
0.0
 11
0.0
 21
-19.5001983642578
 31
0.0
  0
LINE
  5
    1F
  8
0
  6
CONTINUOUS
 62
     0
 10
0.0
 20
-118.000198364258
 30
0.0
 11
0.0
 21
-28.0001983642578
 31
0.0
  0
LINE
  5
    20
  8
0
  6
CONTINUOUS
 62
     0
 10
-18.5
 20
-67.0002059936524
 30
0.0
 11
-17.5
 21
-67.0002059936524
 31
0.0
  0
LINE
  5
    21
  8
0
  6
CONTINUOUS
 62
     0
 10
-16.4999618543408
 20
-139.999942778846
 30
0.0
 11
7.62808107168667E-6
 21
-140.000034331579
 31
0.0
  0
LINE
  5
    22
  8
0
  6
CONTINUOUS
 62
     0
 10
-18.5
 20
-87.0002059936524
 30
0.0
 11
-17.5
 21
-87.0002059936524
 31
0.0
  0
LINE
  5
    23
  8
0
  6
CONTINUOUS
 62
     0
 10
-16.8826434644807
 20
-139.923760014085
 30
0.0
 11
-16.4999606589061
 21
-139.999943335591
 31
0.0
  0
LINE
  5
    24
  8
0
  6
CONTINUOUS
 62
     0
 10
-17.207067522486
 20
-139.70699062553
 30
0.0
 11
-16.8826427725272
 21
-139.923760792348
 31
0.0
  0
LINE
  5
    25
  8
0
  6
CONTINUOUS
 62
     0
 10
-17.4238389066516
 20
-139.382565244232
 30
0.0
 11
-17.2071030722885
 21
-139.707241750507
 31
0.0
  0
LINE
  5
    26
  8
0
  6
CONTINUOUS
 62
     0
 10
-17.4999809548187
 20
-138.999881732886
 30
0.0
 11
-14.250000028305
 21
-138.999809253639
 31
0.0
  0
LINE
  5
    27
  8
0
  6
CONTINUOUS
 62
     0
 10
-17.4999814369327
 20
-138.999881016927
 30
0.0
 11
-17.4238782240544
 21
-139.382815590198
 31
0.0
  0
LINE
  5
    28
  8
0
  6
CONTINUOUS
 62
     0
 10
-3.75000000120068
 20
-125.000259398635
 30
0.0
 11
-1.20067511488742E-9
 21
-125.000278472122
 31
0.0
  0
LINE
  5
    29
  8
0
  6
CONTINUOUS
 62
     0
 10
-3.75
 20
-129.0002784729
 30
0.0
 11
0.0
 21
-129.0002784729
 31
0.0
  0
LINE
  5
    2A
  8
0
  6
CONTINUOUS
 62
     0
 10
-8.5
 20
-125.000232696533
 30
0.0
 11
-8.5
 21
-123.999771118164
 31
0.0
  0
LINE
  5
    2B
  8
0
  6
CONTINUOUS
 62
     0
 10
-3.75
 20
-134.000186920166
 30
0.0
 11
0.0
 21
-134.000186920166
 31
0.0
  0
LINE
  5
    2C
  8
0
  6
CONTINUOUS
 62
     0
 10
-5.0
 20
-118.000183105469
 30
0.0
 11
0.0
 21
-118.000183105469
 31
0.0
  0
LINE
  5
    2D
  8
0
  6
CONTINUOUS
 62
     0
 10
-7.7500000001834
 20
-131.500053405664
 30
0.0
 11
-3.7500000001834
 21
-131.500061035059
 31
0.0
  0
LINE
  5
    2E
  8
0
  6
CONTINUOUS
 62
     0
 10
-3.75
 20
-135.999771118164
 30
0.0
 11
-3.75
 21
-131.500061035156
 31
0.0
  0
LINE
  5
    2F
  8
0
  6
CONTINUOUS
 62
     0
 10
-7.75
 20
-135.999771118164
 30
0.0
 11
-7.75
 21
-131.500053405762
 31
0.0
  0
LINE
  5
    30
  8
0
  6
CONTINUOUS
 62
     0
 10
-11.2500114444405
 20
-125.000148772999
 30
0.0
 11
-3.75000000034867
 21
-125.000129699512
 31
0.0
  0
LINE
  5
    31
  8
0
  6
CONTINUOUS
 62
     0
 10
-3.75
 20
-131.500129699707
 30
0.0
 11
-3.75
 21
-125.000129699707
 31
0.0
  0
LINE
  5
    32
  8
0
  6
CONTINUOUS
 62
     0
 10
-11.2500105770662
 20
-125.000149859739
 30
0.0
 11
-11.1736632270959
 21
-124.923802509768
 31
0.0
  0
LINE
  5
    33
  8
0
  6
CONTINUOUS
 62
     0
 10
-11.2500085637054
 20
-125.000011478497
 30
0.0
 11
-10.249745345394
 21
-123.999774987966
 31
0.0
  0
LINE
  5
    34
  8
0
  6
CONTINUOUS
 62
     0
 10
-4.99999185108586
 20
-123.999771118161
 30
0.0
 11
-4.99999185108586
 21
-37.9999694824193
 31
0.0
  0
LINE
  5
    35
  8
0
  6
CONTINUOUS
 62
     0
 10
-11.25
 20
-123.999771118164
 30
0.0
 11
-5.0
 21
-123.999771118164
 31
0.0
  0
LINE
  5
    36
  8
0
  6
CONTINUOUS
 62
     0
 10
-11.25
 20
-135.999771118164
 30
0.0
 11
-1.0
 21
-135.999771118164
 31
0.0
  0
LINE
  5
    37
  8
0
  6
CONTINUOUS
 62
     0
 10
-11.25
 20
-135.999771118164
 30
0.0
 11
-11.25
 21
-123.999771118164
 31
0.0
  0
LINE
  5
    38
  8
0
  6
CONTINUOUS
 62
     0
 10
-8.5
 20
-124.000225067139
 30
0.0
 11
0.0
 21
-124.000225067139
 31
0.0
  0
LINE
  5
    39
  8
0
  6
CONTINUOUS
 62
     0
 10
-3.75
 20
-130.000225067139
 30
0.0
 11
0.0
 21
-130.000225067139
 31
0.0
  0
LINE
  5
    3A
  8
0
  6
CONTINUOUS
 62
     0
 10
-14.25
 20
-138.999809265137
 30
0.0
 11
-14.25
 21
-120.99976348877
 31
0.0
  0
LINE
  5
    3B
  8
0
  6
CONTINUOUS
 62
     0
 10
-14.25
 20
-120.99976348877
 30
0.0
 11
-11.25
 21
-120.99976348877
 31
0.0
  0
LINE
  5
    3C
  8
0
  6
CONTINUOUS
 62
     0
 10
-14.2499979894038
 20
-120.999765624734
 30
0.0
 11
-11.2499979235071
 21
-123.999773277073
 31
0.0
  0
LINE
  5
    3D
  8
0
  6
CONTINUOUS
 62
     0
 10
-14.2500000007845
 20
-138.9998092648
 30
0.0
 11
-11.2500000007845
 21
-138.999797820709
 31
0.0
  0
LINE
  5
    3E
  8
0
  6
CONTINUOUS
 62
     0
 10
-14.250001559504
 20
-138.999808240469
 30
0.0
 11
-11.2500014937232
 21
-135.9997699894
 31
0.0
  0
LINE
  5
    3F
  8
0
  6
CONTINUOUS
 62
     0
 10
-4.75
 20
-135.999794006348
 30
0.0
 11
-4.75
 21
-131.500061035156
 31
0.0
  0
LINE
  5
    40
  8
0
  6
CONTINUOUS
 62
     0
 10
-11.25
 20
-120.99976348877
 30
0.0
 11
-5.0
 21
-120.99976348877
 31
0.0
  0
LINE
  5
    41
  8
0
  6
CONTINUOUS
 62
     0
 10
-11.2500000004898
 20
-138.999797820785
 30
0.0
 11
-1.00000000048984
 21
-138.99976348851
 31
0.0
  0
LINE
  5
    42
  8
0
  6
CONTINUOUS
 62
     0
 10
-1.0
 20
-139.999881744385
 30
0.0
 11
-1.0
 21
-136.000141143799
 31
0.0
  0
LINE
  5
    43
  8
0
  6
CONTINUOUS
 62
     0
 10
-1.00000000571825
 20
-136.000129696483
 30
0.0
 11
3.80897901663957E-6
 21
-136.000141140575
 31
0.0
  0
LINE
  5
    44
  8
0
  6
CONTINUOUS
 62
     0
 10
0.0
 20
-134.000186920166
 30
0.0
 11
0.0
 21
-130.500225067139
 31
0.0
  0
LINE
  5
    45
  8
0
  6
CONTINUOUS
 62
     0
 10
0.0
 20
-130.500225067139
 30
0.0
 11
0.0
 21
-130.000225067139
 31
0.0
  0
LINE
  5
    46
  8
0
  6
CONTINUOUS
 62
     0
 10
0.0
 20
-129.999378204346
 30
0.0
 11
0.0
 21
-124.001041412354
 31
0.0
  0
LINE
  5
    47
  8
0
  6
CONTINUOUS
 62
     0
 10
-7.76125830270757E-11
 20
-134.000198370265
 30
0.0
 11
3.81461965304197E-6
 21
-136.000141151443
 31
0.0
  0
LINE
  5
    48
  8
0
  6
CONTINUOUS
 62
     0
 10
0.0
 20
-123.500225067139
 30
0.0
 11
0.0
 21
-118.000183105469
 31
0.0
  0
LINE
  5
    49
  8
0
  6
CONTINUOUS
 62
     0
 10
7.62939453125E-6
 20
-140.000034332275
 30
0.0
 11
7.62939453125E-6
 21
-136.000160217285
 31
0.0
  0
LINE
  5
    4A
  8
0
  6
CONTINUOUS
 62
     0
 10
0.0
 20
-124.000225067139
 30
0.0
 11
0.0
 21
-123.500225067139
 31
0.0
  0
LINE
  5
    4B
  8
0
  6
CONTINUOUS
 62
     0
 10
-1.0
 20
-21.0001373291016
 30
0.0
 11
0.0
 21
-21.0001373291016
 31
0.0
  0
LINE
  5
    4C
  8
0
  6
CONTINUOUS
 62
     0
 10
-1.0
 20
-25.0001373291016
 30
0.0
 11
0.0
 21
-25.0001373291016
 31
0.0
  0
LINE
  5
    4D
  8
0
  6
CONTINUOUS
 62
     0
 10
-5.0
 20
-28.0001983642578
 30
0.0
 11
0.0
 21
-28.0001983642578
 31
0.0
  0
LINE
  5
    4E
  8
0
  6
CONTINUOUS
 62
     0
 10
-12.7500267028809
 20
-13.2502136230469
 30
0.0
 11
-9.25
 21
-13.2502136230469
 31
0.0
  0
LINE
  5
    4F
  8
0
  6
CONTINUOUS
 62
     0
 10
-12.7500267028809
 20
-13.2502136230469
 30
0.0
 11
-9.25
 21
-13.2502136230469
 31
0.0
  0
LINE
  5
    50
  8
0
  6
CONTINUOUS
 62
     0
 10
-5.0
 20
-27.0001220703125
 30
0.0
 11
-1.0
 21
-27.0001220703125
 31
0.0
  0
LINE
  5
    51
  8
0
  6
CONTINUOUS
 62
     0
 10
-1.0
 20
-27.0001220703125
 30
0.0
 11
-1.0
 21
-13.2502136230469
 31
0.0
  0
LINE
  5
    52
  8
0
  6
CONTINUOUS
 62
     0
 10
-7.00000381747164
 20
-31.9998779252276
 30
0.0
 11
-5.00002670565524
 21
-31.9998931840167
 31
0.0
  0
LINE
  5
    53
  8
0
  6
CONTINUOUS
 62
     0
 10
-5.00002670307592
 20
-31.9998931857682
 30
0.0
 11
-5.00001525898414
 21
-27.9999999994064
 31
0.0
  0
LINE
  5
    54
  8
0
  6
CONTINUOUS
 62
     0
 10
-7.00000382626054
 20
-29.4998626527678
 30
0.0
 11
-5.00002289974687
 21
-29.499893170346
 31
0.0
  0
LINE
  5
    55
  8
0
  6
CONTINUOUS
 62
     0
 10
-9.25
 20
-19.0002136230469
 30
0.0
 11
-9.25
 21
-13.2502136230469
 31
0.0
  0
LINE
  5
    56
  8
0
  6
CONTINUOUS
 62
     0
 10
-9.25001064636107
 20
-19.0001952963912
 30
0.0
 11
-7.7500106134102
 21
-20.500195329342
 31
0.0
  0
LINE
  5
    57
  8
0
  6
CONTINUOUS
 62
     0
 10
-7.75
 20
-20.5002136230469
 30
0.0
 11
-4.25
 21
-20.5002136230469
 31
0.0
  0
LINE
  5
    58
  8
0
  6
CONTINUOUS
 62
     0
 10
-4.25
 20
-20.5002136230469
 30
0.0
 11
-4.25
 21
-13.2497711181641
 31
0.0
  0
LINE
  5
    59
  8
0
  6
CONTINUOUS
 62
     0
 10
-9.25
 20
-13.2499847412109
 30
0.0
 11
-1.0
 21
-13.2499847412109
 31
0.0
  0
LINE
  5
    5A
  8
0
  6
CONTINUOUS
 62
     0
 10
-5.0
 20
-37.9999694824219
 30
0.0
 11
-5.0
 21
-31.9999389648438
 31
0.0
  0
LINE
  5
    5B
  8
0
  6
CONTINUOUS
 62
     0
 10
-5.0
 20
-28.0
 30
0.0
 11
-5.0
 21
-23.4997711181641
 31
0.0
  0
LINE
  5
    5C
  8
0
  6
CONTINUOUS
 62
     0
 10
-12.7500076293945
 20
-23.4997711181641
 30
0.0
 11
-5.0
 21
-23.4997711181641
 31
0.0
  0
LINE
  5
    5D
  8
0
  6
CONTINUOUS
 62
     0
 10
-12.7500076293945
 20
-23.4997711181641
 30
0.0
 11
-12.7500076293945
 21
-13.2497711181641
 31
0.0
  0
LINE
  5
    5E
  8
0
  6
CONTINUOUS
 62
     0
 10
-6.0
 20
-28.0
 30
0.0
 11
-5.0
 21
-28.0
 31
0.0
  0
LINE
  5
    5F
  8
0
  6
CONTINUOUS
 62
     0
 10
-6.38268221855326
 20
-28.0761274508566
 30
0.0
 11
-5.99999941990089
 21
-28.0000013539655
 31
0.0
  0
LINE
  5
    60
  8
0
  6
CONTINUOUS
 62
     0
 10
-6.70710710140417
 20
-28.2928997997314
 30
0.0
 11
-6.38268236658192
 21
-28.0761334364442
 31
0.0
  0
LINE
  5
    61
  8
0
  6
CONTINUOUS
 62
     0
 10
-6.92387762239532
 20
-28.6173065311374
 30
0.0
 11
-6.70710744729848
 21
-28.2928894081612
 31
0.0
  0
LINE
  5
    62
  8
0
  6
CONTINUOUS
 62
     0
 10
-6.99999998430753
 20
-29.000000215221
 30
0.0
 11
-6.92387770149458
 21
-28.6173097873719
 31
0.0
  0
LINE
  5
    63
  8
0
  6
CONTINUOUS
 62
     0
 10
-7.0
 20
-36.9999694824219
 30
0.0
 11
-7.0
 21
-29.0
 31
0.0
  0
LINE
  5
    64
  8
0
  6
CONTINUOUS
 62
     0
 10
-6.99999994108155
 20
-36.9999697013245
 30
0.0
 11
-6.92387765826859
 21
-37.3826601291737
 31
0.0
  0
LINE
  5
    65
  8
0
  6
CONTINUOUS
 62
     0
 10
-6.92387938634333
 20
-37.3826564832097
 30
0.0
 11
-6.70710921124649
 21
-37.707073606186
 31
0.0
  0
LINE
  5
    66
  8
0
  6
CONTINUOUS
 62
     0
 10
-6.70710144431341
 20
-37.7070857090506
 30
0.0
 11
-6.38267670949118
 21
-37.9238520723378
 31
0.0
  0
LINE
  5
    67
  8
0
  6
CONTINUOUS
 62
     0
 10
-6.38268170616414
 20
-37.9238448111811
 30
0.0
 11
-5.99999890751177
 21
-37.9999709080722
 31
0.0
  0
LINE
  5
    68
  8
0
  6
CONTINUOUS
 62
     0
 10
-6.0
 20
-37.9999694824219
 30
0.0
 11
-5.0000114440918
 21
-37.9999694824219
 31
0.0
  0
LINE
  5
    69
  8
0
  6
CONTINUOUS
 62
     0
 10
-1.0
 20
-20.0001831054688
 30
0.0
 11
0.0
 21
-20.0001831054688
 31
0.0
  0
LINE
  5
    6A
  8
0
  6
CONTINUOUS
 62
     0
 10
-1.0
 20
-26.0001831054688
 30
0.0
 11
0.0
 21
-26.0001831054688
 31
0.0
  0
LINE
  5
    6B
  8
0
  6
CONTINUOUS
 62
     0
 10
-8.50000010269963
 20
-19.7502174335287
 30
0.0
 11
-6.25000007434671
 21
-17.5002174051758
 31
0.0
  0
LINE
  5
    6C
  8
0
  6
CONTINUOUS
 62
     0
 10
-15.75
 20
-26.499755859375
 30
0.0
 11
-15.75
 21
-10.249755859375
 31
0.0
  0
LINE
  5
    6D
  8
0
  6
CONTINUOUS
 62
     0
 10
-15.7499970043624
 20
-10.2497608492948
 30
0.0
 11
-12.7500045249082
 21
-13.2497760880768
 31
0.0
  0
LINE
  5
    6E
  8
0
  6
CONTINUOUS
 62
     0
 10
-15.7500005541712
 20
-26.4997418254346
 30
0.0
 11
-12.7500081590114
 21
-23.4997570166781
 31
0.0
  0
LINE
  5
    6F
  8
0
  6
CONTINUOUS
 62
     0
 10
-6.25
 20
-17.5002136230469
 30
0.0
 11
-4.25
 21
-17.5002136230469
 31
0.0
  0
LINE
  5
    70
  8
0
  6
CONTINUOUS
 62
     0
 10
-6.25
 20
-17.5002136230469
 30
0.0
 11
-6.25
 21
-13.2499847412109
 31
0.0
  0
LINE
  5
    71
  8
0
  6
CONTINUOUS
 62
     0
 10
-15.75
 20
-26.499755859375
 30
0.0
 11
-5.0
 21
-26.499755859375
 31
0.0
  0
ENDBLK
  5
    72
  8
0
  6
CONTINUOUS
 62
     0
  0
BLOCK
  5
    73
  8
0
  6
CONTINUOUS
 62
     7
  2
*UDIM1199
 70
    65
 10
0.0
 20
0.0
 30
0.0
  3
*UDIM1199
  0
TEXT
  5
    74
  8
0
  6
CONTINUOUS
 62
     7
 10
-44.334190290423
 20
-75.1662786077926
 30
0.0
 40
2.99999998416219
  1
131
 50
359.999999948034
 41
0.933333333333333
 72
     1
 11
-40.4341903096592
 21
-73.6662786192291
 31
0.0
 73
     2
  0
LINE
  5
    75
  8
0
  6
CONTINUOUS
 62
     7
 10
-21.8191923321028
 20
-8.59244587060612
 30
0.0
 11
-21.8191923321028
 21
-78.1662786113102
 31
0.0
  0
LINE
  5
    76
  8
0
  6
CONTINUOUS
 62
     7
 10
-58.4991912841797
 20
-57.3200320283603
 30
0.0
 11
-58.4991912841797
 21
-78.1662786113102
 31
0.0
  0
LINE
  5
    77
  8
0
  6
CONTINUOUS
 62
     7
 10
-21.8191923321028
 20
-76.1662786113102
 30
0.0
 11
-58.4991912841797
 21
-76.1662786113102
 31
0.0
  0
LINE
  5
    78
  8
0
  6
CONTINUOUS
 62
     7
 10
-24.7736156093098
 20
-76.6872230412618
 30
0.0
 11
-21.8191923321028
 21
-76.1662786113102
 31
0.0
  0
LINE
  5
    79
  8
0
  6
CONTINUOUS
 62
     7
 10
-21.8191923321028
 20
-76.1662786113102
 30
0.0
 11
-24.7736156093098
 21
-75.6453341813585
 31
0.0
  0
LINE
  5
    7A
  8
0
  6
CONTINUOUS
 62
     7
 10
-55.5447680069727
 20
-75.6453341813585
 30
0.0
 11
-58.4991912841797
 21
-76.1662786113102
 31
0.0
  0
LINE
  5
    7B
  8
0
  6
CONTINUOUS
 62
     7
 10
-58.4991912841797
 20
-76.1662786113102
 30
0.0
 11
-55.5447680069727
 21
-76.6872230412619
 31
0.0
  0
ENDBLK
  5
    7C
  8
0
  6
CONTINUOUS
 62
     7
  0
BLOCK
  5
    7D
  8
0
  6
CONTINUOUS
 62
     7
  2
*UDIM1200
 70
    65
 10
0.0
 20
0.0
 30
0.0
  3
*UDIM1200
  0
TEXT
  5
    7E
  8
0
  6
CONTINUOUS
 62
     7
 10
-74.7141907335239
 20
-75.1662786090553
 30
0.0
 40
2.99999998416219
  1
96
 50
359.999999948034
 41
0.933333333333333
 72
     1
 11
-72.2141907453692
 21
-73.6662786192291
 31
0.0
 73
     2
  0
LINE
  5
    7F
  8
0
  6
CONTINUOUS
 62
     7
 10
-85.3791926027079
 20
-8.59244747277896
 30
0.0
 11
-85.3791926027079
 21
-78.1662786113102
 31
0.0
  0
LINE
  5
    80
  8
0
  6
CONTINUOUS
 62
     7
 10
-58.4991912841797
 20
-76.1662786113102
 30
0.0
 11
-85.3791926027079
 21
-76.1662786113102
 31
0.0
  0
LINE
  5
    81
  8
0
  6
CONTINUOUS
 62
     7
 10
-61.4536145613867
 20
-76.6872230412618
 30
0.0
 11
-58.4991912841797
 21
-76.1662786113102
 31
0.0
  0
LINE
  5
    82
  8
0
  6
CONTINUOUS
 62
     7
 10
-58.4991912841797
 20
-76.1662786113102
 30
0.0
 11
-61.4536145613867
 21
-75.6453341813585
 31
0.0
  0
LINE
  5
    83
  8
0
  6
CONTINUOUS
 62
     7
 10
-82.424769325501
 20
-75.6453341813585
 30
0.0
 11
-85.3791926027079
 21
-76.1662786113102
 31
0.0
  0
LINE
  5
    84
  8
0
  6
CONTINUOUS
 62
     7
 10
-85.3791926027079
 20
-76.1662786113102
 30
0.0
 11
-82.424769325501
 21
-76.6872230412619
 31
0.0
  0
ENDBLK
  5
    85
  8
0
  6
CONTINUOUS
 62
     7
  0
BLOCK
  5
    86
  8
0
  6
CONTINUOUS
 62
     7
  2
*UDIM1201
 70
    65
 10
0.0
 20
0.0
 30
0.0
  3
*UDIM1201
  0
TEXT
  5
    87
  8
0
  6
CONTINUOUS
 62
     7
 10
-101.901712830544
 20
15.3225538932398
 30
0.0
 40
2.99999998416219
  1
196
 50
89.9999999480344
 41
0.933333333333333
 72
     1
 11
-103.401712819093
 21
19.2225538740093
 31
0.0
 73
     2
  0
LINE
  5
    88
  8
0
  6
CONTINUOUS
 62
     7
 10
-86.0291932493229
 20
-7.94244747426909
 30
0.0
 11
-102.901712827012
 21
-7.94244747426909
 31
0.0
  0
LINE
  5
    89
  8
0
  6
CONTINUOUS
 62
     7
 10
-83.8591925919791
 20
46.937554361554
 30
0.0
 11
-102.901712827012
 21
46.937554361554
 31
0.0
  0
LINE
  5
    8A
  8
0
  6
CONTINUOUS
 62
     7
 10
-100.901712827012
 20
-7.94244747426909
 30
0.0
 11
-100.901712827012
 21
46.937554361554
 31
0.0
  0
LINE
  5
    8B
  8
0
  6
CONTINUOUS
 62
     7
 10
-101.422657256964
 20
-4.98802419706212
 30
0.0
 11
-100.901712827012
 21
-7.94244747426909
 31
0.0
  0
LINE
  5
    8C
  8
0
  6
CONTINUOUS
 62
     7
 10
-100.901712827012
 20
-7.94244747426909
 30
0.0
 11
-100.38076839706
 21
-4.98802419706212
 31
0.0
  0
LINE
  5
    8D
  8
0
  6
CONTINUOUS
 62
     7
 10
-100.38076839706
 20
43.983131084347
 30
0.0
 11
-100.901712827012
 21
46.937554361554
 31
0.0
  0
LINE
  5
    8E
  8
0
  6
CONTINUOUS
 62
     7
 10
-100.901712827012
 20
46.937554361554
 30
0.0
 11
-101.422657256964
 21
43.983131084347
 31
0.0
  0
ENDBLK
  5
    8F
  8
0
  6
CONTINUOUS
 62
     7
  0
BLOCK
  5
    90
  8
0
  6
CONTINUOUS
 62
     7
  2
*UDIM1202
 70
    65
 10
0.0
 20
0.0
 30
0.0
  3
*UDIM1202
  0
TEXT
  5
    91
  8
0
  6
CONTINUOUS
 62
     7
 10
-101.901712829276
 20
88.0575441199153
 30
0.0
 40
2.99999998416219
  1
22
 50
89.9999999480344
 41
0.933333333333333
 72
     1
 11
-103.401712819093
 21
90.5575441080757
 31
0.0
 73
     2
  0
LINE
  5
    92
  8
0
  6
CONTINUOUS
 62
     7
 10
-77.8391913622618
 20
87.3275575339794
 30
0.0
 11
-102.901712827012
 21
87.3275575339794
 31
0.0
  0
LINE
  5
    93
  8
0
  6
CONTINUOUS
 62
     7
 10
-83.9991913884878
 20
93.4875575602055
 30
0.0
 11
-102.901712827012
 21
93.4875575602055
 31
0.0
  0
LINE
  5
    94
  8
0
  6
CONTINUOUS
 62
     7
 10
-100.901712827012
 20
87.3275575339794
 30
0.0
 11
-100.901712827012
 21
93.4875575602055
 31
0.0
  0
LINE
  5
    95
  8
0
  6
CONTINUOUS
 62
     7
 10
-100.38076839706
 20
84.3731342567724
 30
0.0
 11
-100.901712827012
 21
87.3275575339794
 31
0.0
  0
LINE
  5
    96
  8
0
  6
CONTINUOUS
 62
     7
 10
-100.901712827012
 20
87.3275575339794
 30
0.0
 11
-101.422657256964
 21
84.3731342567724
 31
0.0
  0
LINE
  5
    97
  8
0
  6
CONTINUOUS
 62
     7
 10
-101.422657256964
 20
96.4419808374124
 30
0.0
 11
-100.901712827012
 21
93.4875575602055
 31
0.0
  0
LINE
  5
    98
  8
0
  6
CONTINUOUS
 62
     7
 10
-100.901712827012
 20
93.4875575602055
 30
0.0
 11
-100.38076839706
 21
96.4419808374124
 31
0.0
  0
ENDBLK
  5
    99
  8
0
  6
CONTINUOUS
 62
     7
  0
BLOCK
  5
    9A
  8
0
  6
CONTINUOUS
 62
     7
  2
*UDIM1203
 70
    65
 10
0.0
 20
0.0
 30
0.0
  3
*UDIM1203
  0
TEXT
  5
    9B
  8
0
  6
CONTINUOUS
 62
     7
 10
-101.901712829276
 20
100.382559824568
 30
0.0
 40
2.99999998416219
  1
14
 50
89.9999999480344
 41
0.933333333333333
 72
     1
 11
-103.401712819093
 21
102.882559812729
 31
0.0
 73
     2
  0
LINE
  5
    9C
  8
0
  6
CONTINUOUS
 62
     7
 10
-86.0991876590252
 20
97.4075575768948
 30
0.0
 11
-102.901712827012
 21
97.4075575768948
 31
0.0
  0
LINE
  5
    9D
  8
0
  6
CONTINUOUS
 62
     7
 10
-100.901712827012
 20
93.4875575602055
 30
0.0
 11
-100.901712827012
 21
105.382559799531
 31
0.0
  0
LINE
  5
    9E
  8
0
  6
CONTINUOUS
 62
     7
 10
-100.38076839706
 20
90.5331342829985
 30
0.0
 11
-100.901712827012
 21
93.4875575602055
 31
0.0
  0
LINE
  5
    9F
  8
0
  6
CONTINUOUS
 62
     7
 10
-100.901712827012
 20
93.4875575602055
 30
0.0
 11
-101.422657256964
 21
90.5331342829985
 31
0.0
  0
LINE
  5
    A0
  8
0
  6
CONTINUOUS
 62
     7
 10
-101.422657256964
 20
100.361980854102
 30
0.0
 11
-100.901712827012
 21
97.4075575768948
 31
0.0
  0
LINE
  5
    A1
  8
0
  6
CONTINUOUS
 62
     7
 10
-100.901712827012
 20
97.4075575768948
 30
0.0
 11
-100.38076839706
 21
100.361980854102
 31
0.0
  0
ENDBLK
  5
    A2
  8
0
  6
CONTINUOUS
 62
     7
  0
BLOCK
  5
    A3
  8
0
  6
CONTINUOUS
 62
     7
  2
*UDIM1204
 70
    65
 10
0.0
 20
0.0
 30
0.0
  3
*UDIM1204
  0
TEXT
  5
    A4
  8
0
  6
CONTINUOUS
 62
     7
 10
-128.974136045312
 20
50.0775549788769
 30
0.0
 40
2.99999998416219
  1
278,25
 50
89.9999999480344
 41
0.933333333333333
 72
     1
 11
-130.474136030056
 21
58.1775549374734
 31
0.0
 73
     2
  0
LINE
  5
    A5
  8
0
  6
CONTINUOUS
 62
     7
 10
-101.604139607317
 20
19.497552972734
 30
0.0
 11
-129.974136037975
 21
19.497552972734
 31
0.0
  0
LINE
  5
    A6
  8
0
  6
CONTINUOUS
 62
     7
 10
-86.0991876590252
 20
97.4075575768948
 30
0.0
 11
-129.974136037975
 21
97.4075575768948
 31
0.0
  0
LINE
  5
    A7
  8
0
  6
CONTINUOUS
 62
     7
 10
-127.974136037975
 20
19.497552972734
 30
0.0
 11
-127.974136037975
 21
97.4075575768948
 31
0.0
  0
LINE
  5
    A8
  8
0
  6
CONTINUOUS
 62
     7
 10
-128.495080467927
 20
22.4519762499409
 30
0.0
 11
-127.974136037975
 21
19.497552972734
 31
0.0
  0
LINE
  5
    A9
  8
0
  6
CONTINUOUS
 62
     7
 10
-127.974136037975
 20
19.497552972734
 30
0.0
 11
-127.453191608024
 21
22.4519762499409
 31
0.0
  0
LINE
  5
    AA
  8
0
  6
CONTINUOUS
 62
     7
 10
-127.453191608024
 20
94.4531342996878
 30
0.0
 11
-127.974136037975
 21
97.4075575768948
 31
0.0
  0
LINE
  5
    AB
  8
0
  6
CONTINUOUS
 62
     7
 10
-127.974136037975
 20
97.4075575768948
 30
0.0
 11
-128.495080467927
 21
94.4531342996878
 31
0.0
  0
ENDBLK
  5
    AC
  8
0
  6
CONTINUOUS
 62
     7
  0
BLOCK
  5
    AD
  8
0
  6
CONTINUOUS
 62
     7
  2
*UDIM1205
 70
    65
 10
0.0
 20
0.0
 30
0.0
  3
*UDIM1205
  0
TEXT
  5
    AE
  8
0
  6
CONTINUOUS
 62
     7
 10
-46.3641918065496
 20
-84.0439226860323
 30
0.0
 40
2.99999998416219
  1
136,5
 50
359.999999948034
 41
0.933333333333333
 72
     1
 11
-39.6641918405678
 21
-82.5439226999942
 31
0.0
 73
     2
  0
LINE
  5
    AF
  8
0
  6
CONTINUOUS
 62
     7
 10
-20.279191121459
 20
18.0075465619564
 30
0.0
 11
-20.279191121459
 21
-87.0439226920753
 31
0.0
  0
LINE
  5
    B0
  8
0
  6
CONTINUOUS
 62
     7
 10
-58.4991912841797
 20
-57.3200320283603
 30
0.0
 11
-58.4991912841797
 21
-87.0439226920753
 31
0.0
  0
LINE
  5
    B1
  8
0
  6
CONTINUOUS
 62
     7
 10
-20.279191121459
 20
-85.0439226920753
 30
0.0
 11
-58.4991912841797
 21
-85.0439226920753
 31
0.0
  0
LINE
  5
    B2
  8
0
  6
CONTINUOUS
 62
     7
 10
-23.233614398666
 20
-85.5648671220269
 30
0.0
 11
-20.279191121459
 21
-85.0439226920753
 31
0.0
  0
LINE
  5
    B3
  8
0
  6
CONTINUOUS
 62
     7
 10
-20.279191121459
 20
-85.0439226920753
 30
0.0
 11
-23.233614398666
 21
-84.5229782621236
 31
0.0
  0
LINE
  5
    B4
  8
0
  6
CONTINUOUS
 62
     7
 10
-55.5447680069727
 20
-84.5229782621236
 30
0.0
 11
-58.4991912841797
 21
-85.0439226920753
 31
0.0
  0
LINE
  5
    B5
  8
0
  6
CONTINUOUS
 62
     7
 10
-58.4991912841797
 20
-85.0439226920753
 30
0.0
 11
-55.5447680069727
 21
-85.564867122027
 31
0.0
  0
ENDBLK
  5
    B6
  8
0
  6
CONTINUOUS
 62
     7
  0
BLOCK
  5
    B7
  8
0
  6
CONTINUOUS
 62
     7
  2
*UDIM1206
 70
    65
 10
0.0
 20
0.0
 30
0.0
  3
*UDIM1206
  0
TEXT
  5
    B8
  8
0
  6
CONTINUOUS
 62
     7
 10
-82.7641919615217
 20
-84.0439226860323
 30
0.0
 40
2.99999998416219
  1
123,5
 50
359.999999948034
 41
0.933333333333333
 72
     1
 11
-76.0641919955398
 21
-82.5439226999942
 31
0.0
 73
     2
  0
LINE
  5
    B9
  8
0
  6
CONTINUOUS
 62
     7
 10
-93.0791914314032
 20
18.0075038373468
 30
0.0
 11
-93.0791914314032
 21
-87.0439226920753
 31
0.0
  0
LINE
  5
    BA
  8
0
  6
CONTINUOUS
 62
     7
 10
-58.4991912841797
 20
-85.0439226920753
 30
0.0
 11
-93.0791914314032
 21
-85.0439226920753
 31
0.0
  0
LINE
  5
    BB
  8
0
  6
CONTINUOUS
 62
     7
 10
-61.4536145613867
 20
-85.5648671220269
 30
0.0
 11
-58.4991912841797
 21
-85.0439226920753
 31
0.0
  0
LINE
  5
    BC
  8
0
  6
CONTINUOUS
 62
     7
 10
-58.4991912841797
 20
-85.0439226920753
 30
0.0
 11
-61.4536145613867
 21
-84.5229782621236
 31
0.0
  0
LINE
  5
    BD
  8
0
  6
CONTINUOUS
 62
     7
 10
-90.1247681541962
 20
-84.5229782621236
 30
0.0
 11
-93.0791914314032
 21
-85.0439226920753
 31
0.0
  0
LINE
  5
    BE
  8
0
  6
CONTINUOUS
 62
     7
 10
-93.0791914314032
 20
-85.0439226920753
 30
0.0
 11
-90.1247681541962
 21
-85.564867122027
 31
0.0
  0
ENDBLK
  5
    BF
  8
0
  6
CONTINUOUS
 62
     7
  0
BLOCK
  5
    C0
  8
0
  6
CONTINUOUS
 62
     7
  2
*UDIM1207
 70
    65
 10
0.0
 20
0.0
 30
0.0
  3
*UDIM1207
  0
TEXT
  5
    C1
  8
0
  6
CONTINUOUS
 62
     7
 10
-62.6741925035067
 20
108.670196784262
 30
0.0
 40
2.99999998416219
  1
210
 50
359.999999948034
 41
0.933333333333333
 72
     1
 11
-58.7741925227429
 21
110.170196772825
 31
0.0
 73
     2
  0
LINE
  5
    C2
  8
0
  6
CONTINUOUS
 62
     7
 10
-29.0991911590099
 20
79.6475574970245
 30
0.0
 11
-29.0991911590099
 21
109.670196780744
 31
0.0
  0
LINE
  5
    C3
  8
0
  6
CONTINUOUS
 62
     7
 10
-87.8991914093494
 20
79.6475574970245
 30
0.0
 11
-87.8991914093494
 21
109.670196780744
 31
0.0
  0
LINE
  5
    C4
  8
0
  6
CONTINUOUS
 62
     7
 10
-29.0991911590099
 20
107.670196780744
 30
0.0
 11
-87.8991914093494
 21
107.670196780744
 31
0.0
  0
LINE
  5
    C5
  8
0
  6
CONTINUOUS
 62
     7
 10
-32.0536144362169
 20
107.149252350792
 30
0.0
 11
-29.0991911590099
 21
107.670196780744
 31
0.0
  0
LINE
  5
    C6
  8
0
  6
CONTINUOUS
 62
     7
 10
-29.0991911590099
 20
107.670196780744
 30
0.0
 11
-32.0536144362169
 21
108.191141210696
 31
0.0
  0
LINE
  5
    C7
  8
0
  6
CONTINUOUS
 62
     7
 10
-84.9447681321425
 20
108.191141210696
 30
0.0
 11
-87.8991914093494
 21
107.670196780744
 31
0.0
  0
LINE
  5
    C8
  8
0
  6
CONTINUOUS
 62
     7
 10
-87.8991914093494
 20
107.670196780744
 30
0.0
 11
-84.9447681321425
 21
107.149252350792
 31
0.0
  0
ENDBLK
  5
    C9
  8
0
  6
CONTINUOUS
 62
     7
  0
BLOCK
  5
    CA
  8
0
  6
CONTINUOUS
 62
     7
  2
*UDIM1208
 70
    65
 10
0.0
 20
0.0
 30
0.0
  3
*UDIM1208
  0
TEXT
  5
    CB
  8
0
  6
CONTINUOUS
 62
     7
 10
-62.6741903672762
 20
103.439619369414
 30
0.0
 40
2.99999998416219
  1
140
 50
359.999999948034
 41
0.933333333333333
 72
     1
 11
-58.7741903865124
 21
104.939619357978
 31
0.0
 73
     2
  0
LINE
  5
    CC
  8
0
  6
CONTINUOUS
 62
     7
 10
-38.8991912007332
 20
39.5375530537963
 30
0.0
 11
-38.8991912007332
 21
104.439619365897
 31
0.0
  0
LINE
  5
    CD
  8
0
  6
CONTINUOUS
 62
     7
 10
-78.0991913676262
 20
39.5375530537963
 30
0.0
 11
-78.0991913676262
 21
104.439619365897
 31
0.0
  0
LINE
  5
    CE
  8
0
  6
CONTINUOUS
 62
     7
 10
-38.8991912007332
 20
102.439619365897
 30
0.0
 11
-78.0991913676262
 21
102.439619365897
 31
0.0
  0
LINE
  5
    CF
  8
0
  6
CONTINUOUS
 62
     7
 10
-41.8536144779401
 20
101.918674935945
 30
0.0
 11
-38.8991912007332
 21
102.439619365897
 31
0.0
  0
LINE
  5
    D0
  8
0
  6
CONTINUOUS
 62
     7
 10
-38.8991912007332
 20
102.439619365897
 30
0.0
 11
-41.8536144779401
 21
102.960563795848
 31
0.0
  0
LINE
  5
    D1
  8
0
  6
CONTINUOUS
 62
     7
 10
-75.1447680904192
 20
102.960563795848
 30
0.0
 11
-78.0991913676262
 21
102.439619365897
 31
0.0
  0
LINE
  5
    D2
  8
0
  6
CONTINUOUS
 62
     7
 10
-78.0991913676262
 20
102.439619365897
 30
0.0
 11
-75.1447680904192
 21
101.918674935945
 31
0.0
  0
ENDBLK
  5
    D3
  8
0
  6
CONTINUOUS
 62
     7
  0
BLOCK
  5
    D4
  8
0
  6
CONTINUOUS
 62
     7
  2
*UDIM1209
 70
    65
 10
0.0
 20
0.0
 30
0.0
  3
*UDIM1209
  0
TEXT
  5
    D5
  8
0
  6
CONTINUOUS
 62
     7
 10
-51.4741927695818
 20
-66.8160185637387
 30
0.0
 40
2.99999998416219
  1
70
 50
359.999999948034
 41
0.933333333333333
 72
     1
 11
-48.9741927814271
 21
-65.3160185739124
 31
0.0
 73
     2
  0
LINE
  5
    D6
  8
0
  6
CONTINUOUS
 62
     7
 10
-38.8991949391365
 20
-54.7924430668354
 30
0.0
 11
-38.8991949391365
 21
-69.8160185659935
 31
0.0
  0
LINE
  5
    D7
  8
0
  6
CONTINUOUS
 62
     7
 10
-58.4991912841797
 20
-57.3200320283603
 30
0.0
 11
-58.4991912841797
 21
-69.8160185659935
 31
0.0
  0
LINE
  5
    D8
  8
0
  6
CONTINUOUS
 62
     7
 10
-38.8991949391365
 20
-67.8160185659936
 30
0.0
 11
-58.4991912841797
 21
-67.8160185659936
 31
0.0
  0
LINE
  5
    D9
  8
0
  6
CONTINUOUS
 62
     7
 10
-41.8536182163435
 20
-68.3369629959452
 30
0.0
 11
-38.8991949391365
 21
-67.8160185659936
 31
0.0
  0
LINE
  5
    DA
  8
0
  6
CONTINUOUS
 62
     7
 10
-38.8991949391365
 20
-67.8160185659936
 30
0.0
 11
-41.8536182163435
 21
-67.2950741360419
 31
0.0
  0
LINE
  5
    DB
  8
0
  6
CONTINUOUS
 62
     7
 10
-55.5447680069727
 20
-67.2950741360419
 30
0.0
 11
-58.4991912841797
 21
-67.8160185659936
 31
0.0
  0
LINE
  5
    DC
  8
0
  6
CONTINUOUS
 62
     7
 10
-58.4991912841797
 20
-67.8160185659936
 30
0.0
 11
-55.5447680069727
 21
-68.3369629959452
 31
0.0
  0
ENDBLK
  5
    DD
  8
0
  6
CONTINUOUS
 62
     7
  0
BLOCK
  5
    DE
  8
0
  6
CONTINUOUS
 62
     7
  2
*UDIM1210
 70
    65
 10
0.0
 20
0.0
 30
0.0
  3
*UDIM1210
  0
TEXT
  5
    DF
  8
0
  6
CONTINUOUS
 62
     7
 10
-71.0741907167978
 20
-66.8160185637387
 30
0.0
 40
2.99999998416219
  1
70
 50
359.999999948034
 41
0.933333333333333
 72
     1
 11
-68.5741907286431
 21
-65.3160185739124
 31
0.0
 73
     2
  0
LINE
  5
    E0
  8
0
  6
CONTINUOUS
 62
     7
 10
-78.0991876292229
 20
-58.8456171724974
 30
0.0
 11
-78.0991876292229
 21
-69.8160185659935
 31
0.0
  0
LINE
  5
    E1
  8
0
  6
CONTINUOUS
 62
     7
 10
-58.4991912841797
 20
-67.8160185659936
 30
0.0
 11
-78.0991876292229
 21
-67.8160185659936
 31
0.0
  0
LINE
  5
    E2
  8
0
  6
CONTINUOUS
 62
     7
 10
-61.4536145613867
 20
-68.3369629959452
 30
0.0
 11
-58.4991912841797
 21
-67.8160185659936
 31
0.0
  0
LINE
  5
    E3
  8
0
  6
CONTINUOUS
 62
     7
 10
-58.4991912841797
 20
-67.8160185659936
 30
0.0
 11
-61.4536145613867
 21
-67.2950741360419
 31
0.0
  0
LINE
  5
    E4
  8
0
  6
CONTINUOUS
 62
     7
 10
-75.1447643520159
 20
-67.2950741360419
 30
0.0
 11
-78.0991876292229
 21
-67.8160185659936
 31
0.0
  0
LINE
  5
    E5
  8
0
  6
CONTINUOUS
 62
     7
 10
-78.0991876292229
 20
-67.8160185659936
 30
0.0
 11
-75.1447643520159
 21
-68.3369629959452
 31
0.0
  0
ENDBLK
  5
    E6
  8
0
  6
CONTINUOUS
 62
     7
  0
BLOCK
  5
    E7
  8
0
  6
CONTINUOUS
 62
     7
  2
*UDIM1211
 70
    65
 10
0.0
 20
0.0
 30
0.0
  3
*UDIM1211
  0
TEXT
  5
    E8
  8
0
  6
CONTINUOUS
 62
     7
 10
-61.2741869366713
 20
-59.6523747344115
 30
0.0
 40
2.99999998416219
  1
50
 50
359.999999948034
 41
0.933333333333333
 72
     1
 11
-58.7741869485165
 21
-58.1523747445853
 31
0.0
 73
     2
  0
LINE
  5
    E9
  8
0
  6
CONTINUOUS
 62
     7
 10
-51.499187515974
 20
-54.7924430668354
 30
0.0
 11
-51.499187515974
 21
-62.6523747366664
 31
0.0
  0
LINE
  5
    EA
  8
0
  6
CONTINUOUS
 62
     7
 10
-65.4991875755787
 20
-54.7924430668354
 30
0.0
 11
-65.4991875755787
 21
-62.6523747366664
 31
0.0
  0
LINE
  5
    EB
  8
0
  6
CONTINUOUS
 62
     7
 10
-51.499187515974
 20
-60.6523747366664
 30
0.0
 11
-65.4991875755787
 21
-60.6523747366664
 31
0.0
  0
LINE
  5
    EC
  8
0
  6
CONTINUOUS
 62
     7
 10
-54.453610793181
 20
-61.1733191666181
 30
0.0
 11
-51.499187515974
 21
-60.6523747366664
 31
0.0
  0
LINE
  5
    ED
  8
0
  6
CONTINUOUS
 62
     7
 10
-51.499187515974
 20
-60.6523747366664
 30
0.0
 11
-54.453610793181
 21
-60.1314303067147
 31
0.0
  0
LINE
  5
    EE
  8
0
  6
CONTINUOUS
 62
     7
 10
-62.5447642983717
 20
-60.1314303067147
 30
0.0
 11
-65.4991875755787
 21
-60.6523747366664
 31
0.0
  0
LINE
  5
    EF
  8
0
  6
CONTINUOUS
 62
     7
 10
-65.4991875755787
 20
-60.6523747366664
 30
0.0
 11
-62.5447642983717
 21
-61.1733191666181
 31
0.0
  0
ENDBLK
  5
    F0
  8
0
  6
CONTINUOUS
 62
     7
  0
BLOCK
  5
    F1
  8
0
  6
CONTINUOUS
 62
     7
  2
*UDIM1212
 70
    65
 10
0.0
 20
0.0
 30
0.0
  3
*UDIM1212
  0
TEXT
  5
    F2
  8
0
  6
CONTINUOUS
 62
     7
 10
-96.4674101605749
 20
-61.6061152841728
 30
0.0
 40
2.99999998416219
  1
11
 50
400.480501824425
 41
0.933333333333333
 72
     1
 11
-95.5396266901679
 21
-58.8422018010312
 31
0.0
 73
     2
  0
TEXT
  5
    F3
  8
0
  6
CONTINUOUS
 62
     7
 10
-98.8633849805774
 20
-63.6510613748171
 30
0.0
 40
2.99999998416219
  1
Ø
 50
400.480501824425
 41
0.933333333333333
 72
     1
 11
-99.0004792114671
 21
-61.7960128214568
 31
0.0
 73
     2
  0
LINE
  5
    F4
  8
0
  6
CONTINUOUS
 62
     7
 10
-98.2141957392344
 20
-64.4116883076216
 30
0.0
 11
-80.007825899043
 21
-48.8726916167965
 31
0.0
  0
LINE
  5
    F5
  8
0
  6
CONTINUOUS
 62
     7
 10
-84.2595792599574
 20
-53.1864186484717
 30
0.0
 11
-82.3505568624354
 21
-50.8721944834956
 31
0.0
  0
LINE
  5
    F6
  8
0
  6
CONTINUOUS
 62
     7
 10
-82.3505568624354
 20
-50.8721944834956
 30
0.0
 11
-84.9359622967397
 21
-52.3939299205116
 31
0.0
  0
LINE
  5
    F7
  8
0
  6
CONTINUOUS
 62
     7
 10
-78.098803501521
 20
-46.5584674518204
 30
0.0
 11
-80.007825899043
 21
-48.8726916167965
 31
0.0
  0
LINE
  5
    F8
  8
0
  6
CONTINUOUS
 62
     7
 10
-80.007825899043
 20
-48.8726916167965
 30
0.0
 11
-77.4224204647388
 21
-47.3509561797805
 31
0.0
  0
ENDBLK
  5
    F9
  8
0
  6
CONTINUOUS
 62
     7
  0
BLOCK
  5
    FA
  8
0
  6
CONTINUOUS
 62
     7
  2
*UDIM1213
 70
    65
 10
0.0
 20
0.0
 30
0.0
  3
*UDIM1213
  0
TEXT
  5
    FB
  8
0
  6
CONTINUOUS
 62
     7
 10
-81.0059064406348
 20
-59.6523747344115
 30
0.0
 40
2.99999998416219
  1
22
 50
359.999999948034
 41
0.933333333333333
 72
     1
 11
-78.50590645248
 21
-58.1523747445853
 31
0.0
 73
     2
  0
LINE
  5
    FC
  8
0
  6
CONTINUOUS
 62
     7
 10
-75.0191913545132
 20
-46.5324430316686
 30
0.0
 11
-75.0191913545132
 21
-62.6523747366664
 31
0.0
  0
LINE
  5
    FD
  8
0
  6
CONTINUOUS
 62
     7
 10
-81.1791913807392
 20
-52.6924430578947
 30
0.0
 11
-81.1791913807392
 21
-62.6523747366664
 31
0.0
  0
LINE
  5
    FE
  8
0
  6
CONTINUOUS
 62
     7
 10
-75.0191913545132
 20
-60.6523747366664
 30
0.0
 11
-81.1791913807392
 21
-60.6523747366664
 31
0.0
  0
LINE
  5
    FF
  8
0
  6
CONTINUOUS
 62
     7
 10
-72.0647680773062
 20
-60.1314303067147
 30
0.0
 11
-75.0191913545132
 21
-60.6523747366664
 31
0.0
  0
LINE
  5
   100
  8
0
  6
CONTINUOUS
 62
     7
 10
-75.0191913545132
 20
-60.6523747366664
 30
0.0
 11
-72.0647680773062
 21
-61.1733191666181
 31
0.0
  0
LINE
  5
   101
  8
0
  6
CONTINUOUS
 62
     7
 10
-84.1336146579462
 20
-61.1733191666181
 30
0.0
 11
-81.1791913807392
 21
-60.6523747366664
 31
0.0
  0
LINE
  5
   102
  8
0
  6
CONTINUOUS
 62
     7
 10
-81.1791913807392
 20
-60.6523747366664
 30
0.0
 11
-84.1336146579462
 21
-60.1314303067147
 31
0.0
  0
ENDBLK
  5
   103
  8
0
  6
CONTINUOUS
 62
     7
  0
BLOCK
  5
   104
  8
0
  6
CONTINUOUS
 62
     7
  2
*UDIM1214
 70
    65
 10
0.0
 20
0.0
 30
0.0
  3
*UDIM1214
  0
TEXT
  5
   105
  8
0
  6
CONTINUOUS
 62
     7
 10
-110.647513042482
 20
40.6975549389417
 30
0.0
 40
2.99999998416219
  1
211,25
 50
89.9999999480344
 41
0.933333333333333
 72
     1
 11
-112.147513027227
 21
48.7975548975382
 31
0.0
 73
     2
  0
LINE
  5
   106
  8
0
  6
CONTINUOUS
 62
     7
 10
-101.604139607317
 20
19.497552972734
 30
0.0
 11
-111.647513035146
 21
19.497552972734
 31
0.0
  0
LINE
  5
   107
  8
0
  6
CONTINUOUS
 62
     7
 10
-88.8991914093494
 20
78.6475574970245
 30
0.0
 11
-111.647513035146
 21
78.6475574970245
 31
0.0
  0
LINE
  5
   108
  8
0
  6
CONTINUOUS
 62
     7
 10
-109.647513035146
 20
19.497552972734
 30
0.0
 11
-109.647513035146
 21
78.6475574970245
 31
0.0
  0
LINE
  5
   109
  8
0
  6
CONTINUOUS
 62
     7
 10
-110.168457465097
 20
22.4519762499409
 30
0.0
 11
-109.647513035146
 21
19.497552972734
 31
0.0
  0
LINE
  5
   10A
  8
0
  6
CONTINUOUS
 62
     7
 10
-109.647513035146
 20
19.497552972734
 30
0.0
 11
-109.126568605194
 21
22.4519762499409
 31
0.0
  0
LINE
  5
   10B
  8
0
  6
CONTINUOUS
 62
     7
 10
-109.126568605194
 20
75.6931342198176
 30
0.0
 11
-109.647513035146
 21
78.6475574970245
 31
0.0
  0
LINE
  5
   10C
  8
0
  6
CONTINUOUS
 62
     7
 10
-109.647513035146
 20
78.6475574970245
 30
0.0
 11
-110.168457465097
 21
75.6931342198176
 31
0.0
  0
ENDBLK
  5
   10D
  8
0
  6
CONTINUOUS
 62
     7
  0
BLOCK
  5
   10E
  8
0
  6
CONTINUOUS
 62
     7
  2
*UDIM1215
 70
    65
 10
0.0
 20
0.0
 30
0.0
  3
*UDIM1215
  0
TEXT
  5
   10F
  8
0
  6
CONTINUOUS
 62
     7
 10
-120.228340105835
 20
27.3028655417996
 30
0.0
 40
2.99999998416219
  1
406
 50
89.9999999480344
 41
0.933333333333333
 72
     1
 11
-121.728340094384
 21
31.202865522569
 31
0.0
 73
     2
  0
LINE
  5
   110
  8
0
  6
CONTINUOUS
 62
     7
 10
-88.8991914093494
 20
-35.0324429869652
 30
0.0
 11
-121.228340102303
 21
-35.0324429869652
 31
0.0
  0
LINE
  5
   111
  8
0
  6
CONTINUOUS
 62
     7
 10
-88.8991914093494
 20
78.6475574970245
 30
0.0
 11
-121.228340102303
 21
78.6475574970245
 31
0.0
  0
LINE
  5
   112
  8
0
  6
CONTINUOUS
 62
     7
 10
-119.228340102303
 20
-35.0324429869652
 30
0.0
 11
-119.228340102303
 21
78.6475574970245
 31
0.0
  0
LINE
  5
   113
  8
0
  6
CONTINUOUS
 62
     7
 10
-119.749284532254
 20
-32.0780197097582
 30
0.0
 11
-119.228340102303
 21
-35.0324429869652
 31
0.0
  0
LINE
  5
   114
  8
0
  6
CONTINUOUS
 62
     7
 10
-119.228340102303
 20
-35.0324429869652
 30
0.0
 11
-118.707395672351
 21
-32.0780197097582
 31
0.0
  0
LINE
  5
   115
  8
0
  6
CONTINUOUS
 62
     7
 10
-118.707395672351
 20
75.6931342198176
 30
0.0
 11
-119.228340102303
 21
78.6475574970245
 31
0.0
  0
LINE
  5
   116
  8
0
  6
CONTINUOUS
 62
     7
 10
-119.228340102303
 20
78.6475574970245
 30
0.0
 11
-119.749284532254
 21
75.6931342198176
 31
0.0
  0
ENDBLK
  5
   117
  8
0
  6
CONTINUOUS
 62
     7
  0
BLOCK
  5
   118
  8
0
  6
CONTINUOUS
 62
     7
  2
*UDIM1216
 70
    65
 10
0.0
 20
0.0
 30
0.0
  3
*UDIM1216
  0
TEXT
  5
   119
  8
0
  6
CONTINUOUS
 62
     7
 10
-138.24732028509
 20
17.632556035697
 30
0.0
 40
2.99999998416219
  1
540
 50
89.9999999480344
 41
0.933333333333333
 72
     1
 11
-139.747320273638
 21
21.5325560164665
 31
0.0
 73
     2
  0
LINE
  5
   11A
  8
0
  6
CONTINUOUS
 62
     7
 10
-86.0991876590252
 20
-53.7924430668354
 30
0.0
 11
-139.247320281557
 21
-53.7924430668354
 31
0.0
  0
LINE
  5
   11B
  8
0
  6
CONTINUOUS
 62
     7
 10
-86.0991876590252
 20
97.4075575768948
 30
0.0
 11
-139.247320281557
 21
97.4075575768948
 31
0.0
  0
LINE
  5
   11C
  8
0
  6
CONTINUOUS
 62
     7
 10
-137.247320281557
 20
-53.7924430668354
 30
0.0
 11
-137.247320281557
 21
97.4075575768948
 31
0.0
  0
LINE
  5
   11D
  8
0
  6
CONTINUOUS
 62
     7
 10
-137.768264711509
 20
-50.8380197896284
 30
0.0
 11
-137.247320281557
 21
-53.7924430668354
 31
0.0
  0
LINE
  5
   11E
  8
0
  6
CONTINUOUS
 62
     7
 10
-137.247320281557
 20
-53.7924430668354
 30
0.0
 11
-136.726375851606
 21
-50.8380197896284
 31
0.0
  0
LINE
  5
   11F
  8
0
  6
CONTINUOUS
 62
     7
 10
-136.726375851606
 20
94.4531342996878
 30
0.0
 11
-137.247320281557
 21
97.4075575768948
 31
0.0
  0
LINE
  5
   120
  8
0
  6
CONTINUOUS
 62
     7
 10
-137.247320281557
 20
97.4075575768948
 30
0.0
 11
-137.768264711509
 21
94.4531342996878
 31
0.0
  0
ENDBLK
  5
   121
  8
0
  6
CONTINUOUS
 62
     7
  0
BLOCK
  5
   122
  8
0
  6
CONTINUOUS
 62
     0
  2
$1MOSTRA
 70
    64
 10
0.0
 20
0.0
 30
0.0
  3
$1MOSTRA
  0
LINE
  5
   123
  8
0
  6
CONTINUOUS
 62
     0
 10
131.0
 20
-24.0000152587891
 30
0.0
 11
131.0
 21
169.499984741211
 31
0.0
  0
LINE
  5
   124
  8
0
  6
CONTINUOUS
 62
     0
 10
-94.7500023146612
 20
-25.250020980835
 30
0.0
 11
129.75
 21
-25.250020980835
 31
0.0
  0
LINE
  5
   125
  8
0
  6
CONTINUOUS
 62
     0
 10
-96.0
 20
-24.000020980835
 30
0.0
 11
-96.0
 21
169.499979019165
 31
0.0
  0
LINE
  5
   126
  8
0
  6
CONTINUOUS
 62
     0
 10
-87.0
 20
170.749984741211
 30
0.0
 11
129.75
 21
170.749984741211
 31
0.0
  0
LINE
  5
   127
  8
0
  6
CONTINUOUS
 62
     0
 10
-94.7500138961029
 20
170.749984741211
 30
0.0
 11
-87.0
 21
170.749984741211
 31
0.0
  0
LINE
  5
   128
  8
0
  6
CONTINUOUS
 62
     0
 10
78.0
 20
-5.25002145767212
 30
0.0
 11
78.0
 21
-4.2500216960907
 31
0.0
  0
LINE
  5
   129
  8
0
  6
CONTINUOUS
 62
     0
 10
-87.0
 20
-5.25002145767211
 30
0.0
 11
-87.0
 21
-4.25002169609069
 31
0.0
  0
LINE
  5
   12A
  8
0
  6
CONTINUOUS
 62
     0
 10
-86.0
 20
-5.25002145767211
 30
0.0
 11
77.0
 21
-5.25002145767212
 31
0.0
  0
LINE
  5
   12B
  8
0
  6
CONTINUOUS
 62
     0
 10
78.0
 20
149.749984741211
 30
0.0
 11
78.0
 21
150.749984741211
 31
0.0
  0
LINE
  5
   12C
  8
0
  6
CONTINUOUS
 62
     0
 10
-87.0
 20
149.749984741211
 30
0.0
 11
-87.0
 21
150.749984741211
 31
0.0
  0
LINE
  5
   12D
  8
0
  6
CONTINUOUS
 62
     0
 10
-86.0
 20
-25.250020980835
 30
0.0
 11
-86.0
 21
-5.25002098083496
 31
0.0
  0
LINE
  5
   12E
  8
0
  6
CONTINUOUS
 62
     0
 10
-87.0
 20
-25.250020980835
 30
0.0
 11
-87.0
 21
-5.25002098083496
 31
0.0
  0
LINE
  5
   12F
  8
0
  6
CONTINUOUS
 62
     0
 10
-87.0
 20
-4.25002169609069
 30
0.0
 11
-87.0
 21
149.749978303909
 31
0.0
  0
LINE
  5
   130
  8
0
  6
CONTINUOUS
 62
     0
 10
-87.0
 20
150.749984741211
 30
0.0
 11
-87.0
 21
170.749984741211
 31
0.0
  0
LINE
  5
   131
  8
0
  6
CONTINUOUS
 62
     0
 10
78.0
 20
-25.250020980835
 30
0.0
 11
78.0
 21
-5.25002098083497
 31
0.0
  0
LINE
  5
   132
  8
0
  6
CONTINUOUS
 62
     0
 10
78.0
 20
-4.2500216960907
 30
0.0
 11
78.0
 21
22.6249783039093
 31
0.0
  0
LINE
  5
   133
  8
0
  6
CONTINUOUS
 62
     0
 10
78.0
 20
23.624979019165
 30
0.0
 11
78.0
 21
64.624979019165
 31
0.0
  0
LINE
  5
   134
  8
0
  6
CONTINUOUS
 62
     0
 10
78.0
 20
65.6249771118164
 30
0.0
 11
78.0
 21
149.749984741211
 31
0.0
  0
LINE
  5
   135
  8
0
  6
CONTINUOUS
 62
     0
 10
78.0
 20
150.749984741211
 30
0.0
 11
78.0
 21
170.749984741211
 31
0.0
  0
LINE
  5
   136
  8
0
  6
CONTINUOUS
 62
     0
 10
77.0
 20
-25.250020980835
 30
0.0
 11
77.0
 21
-5.25002098083497
 31
0.0
  0
LINE
  5
   137
  8
0
  6
CONTINUOUS
 62
     0
 10
112.0
 20
23.624979019165
 30
0.0
 11
112.0
 21
64.624979019165
 31
0.0
  0
LINE
  5
   138
  8
0
  6
CONTINUOUS
 62
     0
 10
-86.0
 20
150.749984741211
 30
0.0
 11
77.0
 21
150.749984741211
 31
0.0
  0
LINE
  5
   139
  8
0
  6
DOT
 62
     0
 10
78.0
 20
22.6249809265137
 30
0.0
 11
78.0
 21
23.6249809265137
 31
0.0
  0
LINE
  5
   13A
  8
0
  6
DOT
 62
     0
 10
78.0
 20
64.6249847412109
 30
0.0
 11
78.0
 21
65.6249847412109
 31
0.0
  0
LINE
  5
   13B
  8
0
  6
CONTINUOUS
 62
     0
 10
-95.2283575359481
 20
170.654833276614
 30
0.0
 11
-94.7500021275396
 21
170.749987082197
 31
0.0
  0
LINE
  5
   13C
  8
0
  6
CONTINUOUS
 62
     0
 10
-95.6338828572815
 20
170.383870758251
 30
0.0
 11
-95.2283576589463
 21
170.654836342308
 31
0.0
  0
LINE
  5
   13D
  8
0
  6
CONTINUOUS
 62
     0
 10
-95.9048442813714
 20
169.978321294716
 30
0.0
 11
-95.6338787006842
 21
170.38385412157
 31
0.0
  0
LINE
  5
   13E
  8
0
  6
CONTINUOUS
 62
     0
 10
-96.0000009070014
 20
169.49998927381
 30
0.0
 11
-95.9048471000262
 21
169.978337054874
 31
0.0
  0
LINE
  5
   13F
  8
0
  6
CONTINUOUS
 62
     0
 10
129.750003154688
 20
170.749986935154
 30
0.0
 11
130.228350935752
 21
170.654833128179
 31
0.0
  0
LINE
  5
   140
  8
0
  6
CONTINUOUS
 62
     0
 10
130.228341409222
 20
170.654823450862
 30
0.0
 11
130.633874236076
 21
170.383857870175
 31
0.0
  0
LINE
  5
   141
  8
0
  6
CONTINUOUS
 62
     0
 10
130.633876465973
 20
170.383854910394
 30
0.0
 11
130.90484204666
 21
169.97832208354
 31
0.0
  0
LINE
  5
   142
  8
0
  6
CONTINUOUS
 62
     0
 10
130.90484765696
 20
169.978336952213
 30
0.0
 11
131.000001463935
 21
169.499989171149
 31
0.0
  0
LINE
  5
   143
  8
0
  6
CONTINUOUS
 62
     0
 10
129.750001912704
 20
-25.2500209810903
 30
0.0
 11
130.228349689786
 21
-25.1548709896053
 31
0.0
  0
LINE
  5
   144
  8
0
  6
CONTINUOUS
 62
     0
 10
130.228338306514
 20
-25.1548722950462
 30
0.0
 11
130.633871133368
 21
-24.8839067143591
 31
0.0
  0
LINE
  5
   145
  8
0
  6
CONTINUOUS
 62
     0
 10
130.633879356188
 20
-24.8839055654524
 30
0.0
 11
130.904844938572
 21
-24.4783765528653
 31
0.0
  0
LINE
  5
   146
  8
0
  6
CONTINUOUS
 62
     0
 10
130.904848088874
 20
-24.4783766972257
 30
0.0
 11
131.000001894457
 21
-24.0000212888173
 31
0.0
  0
LINE
  5
   147
  8
0
  6
CONTINUOUS
 62
     0
 10
-95.2283572980338
 20
-25.1548710672825
 30
0.0
 11
-94.750001893597
 21
-25.2500210645891
 31
0.0
  0
LINE
  5
   148
  8
0
  6
CONTINUOUS
 62
     0
 10
-95.6338848795916
 20
-24.8839050834456
 30
0.0
 11
-95.2283596812563
 21
-25.1548706675021
 31
0.0
  0
LINE
  5
   149
  8
0
  6
CONTINUOUS
 62
     0
 10
-95.9048453281177
 20
-24.4783764153605
 30
0.0
 11
-95.6338797457343
 21
-24.8839054279476
 31
0.0
  0
LINE
  5
   14A
  8
0
  6
CONTINUOUS
 62
     0
 10
-96.0000013278323
 20
-24.0000213932639
 30
0.0
 11
-95.9048475222492
 21
-24.4783768016722
 31
0.0
  0
LINE
  5
   14B
  8
0
  6
CONTINUOUS
 62
     0
 10
71.0
 20
161.499984741211
 30
0.0
 11
71.5
 21
161.499984741211
 31
0.0
  0
LINE
  5
   14C
  8
0
  6
CONTINUOUS
 62
     0
 10
70.6249985834239
 20
161.39948892087
 30
0.0
 11
70.9999985887286
 21
161.499983299907
 31
0.0
  0
LINE
  5
   14D
  8
0
  6
CONTINUOUS
 62
     0
 10
70.3504841000321
 20
161.124991898345
 30
0.0
 11
70.6250049664647
 21
161.399497515692
 31
0.0
  0
LINE
  5
   14E
  8
0
  6
CONTINUOUS
 62
     0
 10
70.2500005005121
 20
160.74998610992
 30
0.0
 11
70.3504796223163
 21
161.124986104743
 31
0.0
  0
LINE
  5
   14F
  8
0
  6
CONTINUOUS
 62
     0
 10
70.2500001717027
 20
160.749985945318
 30
0.0
 11
70.3504792935069
 21
160.374985950495
 31
0.0
  0
LINE
  5
   150
  8
0
  6
CONTINUOUS
 62
     0
 10
70.3504785443499
 20
160.374981262897
 30
0.0
 11
70.6249994243228
 21
160.100460382924
 31
0.0
  0
LINE
  5
   151
  8
0
  6
CONTINUOUS
 62
     0
 10
70.6250004494111
 20
160.100464493128
 30
0.0
 11
71.000000444234
 21
159.999985371324
 31
0.0
  0
LINE
  5
   152
  8
0
  6
CONTINUOUS
 62
     0
 10
71.0
 20
159.999984741211
 30
0.0
 11
71.5
 21
159.999984741211
 31
0.0
  0
LINE
  5
   153
  8
0
  6
CONTINUOUS
 62
     0
 10
-71.0000005237262
 20
159.999985364975
 30
0.0
 11
-70.6250005289034
 21
160.100464486779
 31
0.0
  0
LINE
  5
   154
  8
0
  6
CONTINUOUS
 62
     0
 10
-70.6249991572831
 20
160.100460461707
 30
0.0
 11
-70.3504782773103
 21
160.37498134168
 31
0.0
  0
LINE
  5
   155
  8
0
  6
CONTINUOUS
 62
     0
 10
-70.3504793419514
 20
160.374985939145
 30
0.0
 11
-70.2500002201472
 21
160.749985933968
 31
0.0
  0
LINE
  5
   156
  8
0
  6
CONTINUOUS
 62
     0
 10
-70.3504796707608
 20
161.124986116093
 30
0.0
 11
-70.2500005489566
 21
160.74998612127
 31
0.0
  0
LINE
  5
   157
  8
0
  6
CONTINUOUS
 62
     0
 10
-70.625005364328
 20
161.399497643651
 30
0.0
 11
-70.3504844978953
 21
161.124992026304
 31
0.0
  0
LINE
  5
   158
  8
0
  6
CONTINUOUS
 62
     0
 10
-70.9999984404592
 20
161.499983275092
 30
0.0
 11
-70.6249984351544
 21
161.399488896056
 31
0.0
  0
LINE
  5
   159
  8
0
  6
CONTINUOUS
 62
     0
 10
-71.5
 20
161.499984741211
 30
0.0
 11
-71.0
 21
161.499984741211
 31
0.0
  0
LINE
  5
   15A
  8
0
  6
CONTINUOUS
 62
     0
 10
-71.5
 20
159.999984741211
 30
0.0
 11
-71.0
 21
159.999984741211
 31
0.0
  0
LINE
  5
   15B
  8
0
  6
DOT
 62
     0
 10
129.207102522664
 20
93.2070806462287
 30
0.0
 11
129.423868885951
 21
92.8826559114065
 31
0.0
  0
LINE
  5
   15C
  8
0
  6
CONTINUOUS
 62
     0
 10
78.0
 20
64.6249771118164
 30
0.0
 11
112.0
 21
64.6249771118164
 31
0.0
  0
LINE
  5
   15D
  8
0
  6
CONTINUOUS
 62
     0
 10
78.0
 20
23.624979019165
 30
0.0
 11
112.0
 21
23.624979019165
 31
0.0
  0
LINE
  5
   15E
  8
0
  6
CONTINUOUS
 62
     0
 10
78.0
 20
22.624979019165
 30
0.0
 11
131.0
 21
22.624979019165
 31
0.0
  0
LINE
  5
   15F
  8
0
  6
CONTINUOUS
 62
     0
 10
113.0
 20
22.6249771118164
 30
0.0
 11
113.0
 21
65.6249771118164
 31
0.0
  0
LINE
  5
   160
  8
0
  6
CONTINUOUS
 62
     0
 10
121.443762073863
 20
22.6249762341869
 30
0.0
 11
121.469671496571
 21
22.655306892856
 31
0.0
  0
LINE
  5
   161
  8
0
  6
CONTINUOUS
 62
     0
 10
122.530331822982
 20
22.6553070669901
 30
0.0
 11
122.556233618116
 21
22.6249802236221
 31
0.0
  0
LINE
  5
   162
  8
0
  6
CONTINUOUS
 62
     0
 10
77.0
 20
-4.2500216960907
 30
0.0
 11
77.0
 21
149.749978303909
 31
0.0
  0
LINE
  5
   163
  8
0
  6
CONTINUOUS
 62
     0
 10
-86.0
 20
149.749984741211
 30
0.0
 11
77.0
 21
149.749984741211
 31
0.0
  0
LINE
  5
   164
  8
0
  6
CONTINUOUS
 62
     0
 10
-86.0
 20
-4.25002169609069
 30
0.0
 11
77.0
 21
-4.2500216960907
 31
0.0
  0
LINE
  5
   165
  8
0
  6
CONTINUOUS
 62
     0
 10
-86.0
 20
-4.25002169609069
 30
0.0
 11
-86.0
 21
149.749978303909
 31
0.0
  0
LINE
  5
   166
  8
0
  6
CONTINUOUS
 62
     0
 10
70.0000086006236
 20
142.749981641769
 30
0.0
 11
77.0000047406314
 21
149.749991353068
 31
0.0
  0
LINE
  5
   167
  8
0
  6
CONTINUOUS
 62
     0
 10
70.0000002534282
 20
2.74998164176941
 30
0.0
 11
77.0000028943928
 21
-4.25002276936366
 31
0.0
  0
LINE
  5
   168
  8
0
  6
CONTINUOUS
 62
     0
 10
-86.0000010794079
 20
149.749986269664
 30
0.0
 11
-70.0
 21
142.220568727026
 31
0.0
  0
LINE
  5
   169
  8
0
  6
CONTINUOUS
 62
     0
 10
-86.0000042824209
 20
-4.25002269924179
 30
0.0
 11
-70.0
 21
3.27939166971828
 31
0.0
  0
LINE
  5
   16A
  8
0
  6
CONTINUOUS
 62
     0
 10
71.5
 20
150.749984741211
 30
0.0
 11
71.5
 21
170.749984741211
 31
0.0
  0
LINE
  5
   16B
  8
0
  6
CONTINUOUS
 62
     0
 10
77.0
 20
150.749984741211
 30
0.0
 11
77.0
 21
170.749984741211
 31
0.0
  0
LINE
  5
   16C
  8
0
  6
CONTINUOUS
 62
     0
 10
-71.5
 20
150.749984741211
 30
0.0
 11
-71.5
 21
170.749984741211
 31
0.0
  0
LINE
  5
   16D
  8
0
  6
CONTINUOUS
 62
     0
 10
-86.0
 20
150.749984741211
 30
0.0
 11
-86.0
 21
170.749984741211
 31
0.0
  0
LINE
  5
   16E
  8
0
  6
CONTINUOUS
 62
     0
 10
78.0
 20
65.6249771118164
 30
0.0
 11
131.0
 21
65.6249771118164
 31
0.0
  0
POINT
  5
   16F
  8
0
  6
CONTINUOUS
 62
     0
 10
4.30031180087553E-6
 20
72.749980198372
 30
0.0
  0
ENDBLK
  5
   170
  8
0
  6
CONTINUOUS
 62
     0
  0
BLOCK
  5
   171
  8
0
  6
CONTINUOUS
 62
     7
  2
*HATCH263
 70
    65
 10
0.0
 20
0.0
 30
0.0
  3
*HATCH263
  0
LINE
  5
   172
  8
0
  6
CONTINUOUS
 62
    52
 10
45.8568267822266
 20
179.5
 30
0.0
 11
43.8568267822266
 21
177.5
 31
0.0
  0
LINE
  5
   173
  8
0
  6
CONTINUOUS
 62
    52
 10
52.2207832336426
 20
179.5
 30
0.0
 11
50.2207832336426
 21
177.5
 31
0.0
  0
LINE
  5
   174
  8
0
  6
CONTINUOUS
 62
    52
 10
58.5847396850586
 20
179.5
 30
0.0
 11
56.5847396850586
 21
177.5
 31
0.0
  0
LINE
  5
   175
  8
0
  6
CONTINUOUS
 62
    52
 10
64.9486999511719
 20
179.5
 30
0.0
 11
62.9486961364746
 21
177.5
 31
0.0
  0
ENDBLK
  5
   176
  8
0
  6
CONTINUOUS
 62
     7
  0
BLOCK
  5
   177
  8
0
  6
CONTINUOUS
 62
     7
  2
*HATCH264
 70
    65
 10
0.0
 20
0.0
 30
0.0
  3
*HATCH264
  0
LINE
  5
   178
  8
0
  6
CONTINUOUS
 62
    52
 10
-7.17618036270142
 20
179.5
 30
0.0
 11
-9.17617988586426
 21
177.5
 31
0.0
  0
LINE
  5
   179
  8
0
  6
CONTINUOUS
 62
    52
 10
-0.812219619750977
 20
179.5
 30
0.0
 11
-2.81221795082092
 21
177.5
 31
0.0
  0
LINE
  5
   17A
  8
0
  6
CONTINUOUS
 62
    52
 10
5.55174112319946
 20
179.5
 30
0.0
 11
3.55174350738525
 21
177.5
 31
0.0
  0
LINE
  5
   17B
  8
0
  6
CONTINUOUS
 62
    52
 10
11.9157028198242
 20
179.5
 30
0.0
 11
9.91570568084717
 21
177.5
 31
0.0
  0
LINE
  5
   17C
  8
0
  6
CONTINUOUS
 62
    52
 10
18.2796649932861
 20
179.5
 30
0.0
 11
16.2796669006348
 21
177.5
 31
0.0
  0
LINE
  5
   17D
  8
0
  6
CONTINUOUS
 62
    52
 10
24.643627166748
 20
179.5
 30
0.0
 11
22.6436290740967
 21
177.5
 31
0.0
  0
ENDBLK
  5
   17E
  8
0
  6
CONTINUOUS
 62
     7
  0
BLOCK
  5
   17F
  8
0
  6
CONTINUOUS
 62
     7
  2
*HATCH265
 70
    65
 10
0.0
 20
0.0
 30
0.0
  3
*HATCH265
  0
LINE
  5
   180
  8
0
  6
CONTINUOUS
 62
    52
 10
-70.815788269043
 20
179.5
 30
0.0
 11
-72.815788269043
 21
177.5
 31
0.0
  0
LINE
  5
   181
  8
0
  6
CONTINUOUS
 62
    52
 10
-64.4518203735352
 20
179.5
 30
0.0
 11
-66.4518203735352
 21
177.5
 31
0.0
  0
LINE
  5
   182
  8
0
  6
CONTINUOUS
 62
    52
 10
-58.0878639221191
 20
179.5
 30
0.0
 11
-60.0878601074219
 21
177.5
 31
0.0
  0
LINE
  5
   183
  8
0
  6
CONTINUOUS
 62
    52
 10
-51.7239074707031
 20
179.5
 30
0.0
 11
-53.7239036560059
 21
177.5
 31
0.0
  0
LINE
  5
   184
  8
0
  6
CONTINUOUS
 62
    52
 10
-45.3599510192871
 20
179.5
 30
0.0
 11
-47.3599472045898
 21
177.5
 31
0.0
  0
LINE
  5
   185
  8
0
  6
CONTINUOUS
 62
    52
 10
-38.9959945678711
 20
179.5
 30
0.0
 11
-40.9959907531738
 21
177.5
 31
0.0
  0
LINE
  5
   186
  8
0
  6
CONTINUOUS
 62
    52
 10
-32.6320381164551
 20
179.5
 30
0.0
 11
-34.6320343017578
 21
177.5
 31
0.0
  0
LINE
  5
   187
  8
0
  6
CONTINUOUS
 62
    52
 10
-26.2680759429932
 20
179.5
 30
0.0
 11
-28.2680740356445
 21
177.5
 31
0.0
  0
LINE
  5
   188
  8
0
  6
CONTINUOUS
 62
    52
 10
-19.9041137695313
 20
179.5
 30
0.0
 11
-21.9041118621826
 21
177.5
 31
0.0
  0
ENDBLK
  5
   189
  8
0
  6
CONTINUOUS
 62
     7
  0
BLOCK
  5
   18A
  8
0
  6
CONTINUOUS
 62
     7
  2
*HATCH266
 70
    65
 10
0.0
 20
0.0
 30
0.0
  3
*HATCH266
  0
LINE
  5
   18B
  8
0
  6
CONTINUOUS
 62
    52
 10
81.9192733764648
 20
179.5
 30
0.0
 11
79.9192733764648
 21
177.5
 31
0.0
  0
LINE
  5
   18C
  8
0
  6
CONTINUOUS
 62
    52
 10
88.2832412719727
 20
179.5
 30
0.0
 11
86.2832412719727
 21
177.5
 31
0.0
  0
LINE
  5
   18D
  8
0
  6
CONTINUOUS
 62
    52
 10
94.6472091674805
 20
179.5
 30
0.0
 11
92.6472091674805
 21
177.5
 31
0.0
  0
LINE
  5
   18E
  8
0
  6
CONTINUOUS
 62
    52
 10
101.011177062988
 20
179.5
 30
0.0
 11
99.0111770629883
 21
177.5
 31
0.0
  0
LINE
  5
   18F
  8
0
  6
CONTINUOUS
 62
    52
 10
107.375144958496
 20
179.5
 30
0.0
 11
105.375144958496
 21
177.5
 31
0.0
  0
LINE
  5
   190
  8
0
  6
CONTINUOUS
 62
    52
 10
113.739112854004
 20
179.5
 30
0.0
 11
111.739112854004
 21
177.5
 31
0.0
  0
LINE
  5
   191
  8
0
  6
CONTINUOUS
 62
    52
 10
120.103080749512
 20
179.5
 30
0.0
 11
118.103080749512
 21
177.5
 31
0.0
  0
LINE
  5
   192
  8
0
  6
CONTINUOUS
 62
    52
 10
126.46704864502
 20
179.5
 30
0.0
 11
124.46704864502
 21
177.5
 31
0.0
  0
LINE
  5
   193
  8
0
  6
CONTINUOUS
 62
    52
 10
132.831008911133
 20
179.5
 30
0.0
 11
130.831008911133
 21
177.5
 31
0.0
  0
LINE
  5
   194
  8
0
  6
CONTINUOUS
 62
    52
 10
139.194976806641
 20
179.5
 30
0.0
 11
137.194976806641
 21
177.5
 31
0.0
  0
LINE
  5
   195
  8
0
  6
CONTINUOUS
 62
    52
 10
145.558944702148
 20
179.5
 30
0.0
 11
143.558944702148
 21
177.5
 31
0.0
  0
LINE
  5
   196
  8
0
  6
CONTINUOUS
 62
    52
 10
151.922912597656
 20
179.5
 30
0.0
 11
149.922912597656
 21
177.5
 31
0.0
  0
LINE
  5
   197
  8
0
  6
CONTINUOUS
 62
    52
 10
157.749984741211
 20
178.963165283203
 30
0.0
 11
156.286804199219
 21
177.5
 31
0.0
  0
ENDBLK
  5
   198
  8
0
  6
CONTINUOUS
 62
     7
  0
BLOCK
  5
   199
  8
0
  6
CONTINUOUS
 62
     7
  2
*HATCH267
 70
    65
 10
0.0
 20
0.0
 30
0.0
  3
*HATCH267
  0
LINE
  5
   19A
  8
0
  6
CONTINUOUS
 62
    52
 10
171.014739990234
 20
179.5
 30
0.0
 11
169.014739990234
 21
177.5
 31
0.0
  0
LINE
  5
   19B
  8
0
  6
CONTINUOUS
 62
    52
 10
177.378707885742
 20
179.5
 30
0.0
 11
175.378707885742
 21
177.5
 31
0.0
  0
LINE
  5
   19C
  8
0
  6
CONTINUOUS
 62
    52
 10
183.74267578125
 20
179.5
 30
0.0
 11
181.74267578125
 21
177.5
 31
0.0
  0
LINE
  5
   19D
  8
0
  6
CONTINUOUS
 62
    52
 10
190.106643676758
 20
179.5
 30
0.0
 11
188.106643676758
 21
177.5
 31
0.0
  0
ENDBLK
  5
   19E
  8
0
  6
CONTINUOUS
 62
     7
  0
BLOCK
  5
   19F
  8
0
  6
CONTINUOUS
 62
     7
  2
*HATCH268
 70
    65
 10
0.0
 20
0.0
 30
0.0
  3
*HATCH268
  0
LINE
  5
   1A0
  8
0
  6
CONTINUOUS
 62
    52
 10
149.286819458008
 20
170.500015258789
 30
0.0
 11
146.786819458008
 21
168.0
 31
0.0
  0
LINE
  5
   1A1
  8
0
  6
CONTINUOUS
 62
    52
 10
153.249984741211
 20
168.099212646484
 30
0.0
 11
153.150772094727
 21
168.0
 31
0.0
  0
ENDBLK
  5
   1A2
  8
0
  6
CONTINUOUS
 62
     7
  0
BLOCK
  5
   1A3
  8
0
  6
CONTINUOUS
 62
     7
  2
*UDIM1217
 70
    65
 10
0.0
 20
0.0
 30
0.0
  3
*UDIM1217
  0
TEXT
  5
   1A4
  8
0
  6
CONTINUOUS
 62
     7
 10
-270.133660833998
 20
-14.8087475959115
 30
0.0
 40
2.99999998416219
  1
5,5
 50
359.999999948034
 41
0.933333333333333
 72
     1
 11
-266.233660853234
 21
-13.308747607348
 31
0.0
 73
     2
  0
TEXT
  5
   1A5
  8
0
  6
CONTINUOUS
 62
     7
 10
-273.283660810463
 20
-14.808747598437
 30
0.0
 40
2.99999998416219
  1
Ø
 50
359.999999948034
 41
0.933333333333333
 72
     1
 11
-272.183660814917
 21
-13.308747607348
 31
0.0
 73
     2
  0
LINE
  5
   1A6
  8
0
  6
CONTINUOUS
 62
     7
 10
-242.983383103073
 20
20.8075498926451
 30
0.0
 11
-242.983383103073
 21
-17.8087475994291
 31
0.0
  0
LINE
  5
   1A7
  8
0
  6
CONTINUOUS
 62
     7
 10
-244.523379293
 20
20.8075498926451
 30
0.0
 11
-244.523379293
 21
-17.8087475994291
 31
0.0
  0
LINE
  5
   1A8
  8
0
  6
CONTINUOUS
 62
     7
 10
-242.983383103073
 20
-15.8087475994291
 30
0.0
 11
-273.28366080911
 21
-15.8087475994291
 31
0.0
  0
LINE
  5
   1A9
  8
0
  6
CONTINUOUS
 62
     7
 10
-240.028959825866
 20
-15.2878031694774
 30
0.0
 11
-242.983383103073
 21
-15.8087475994291
 31
0.0
  0
LINE
  5
   1AA
  8
0
  6
CONTINUOUS
 62
     7
 10
-242.983383103073
 20
-15.8087475994291
 30
0.0
 11
-240.028959825866
 21
-16.3296920293808
 31
0.0
  0
LINE
  5
   1AB
  8
0
  6
CONTINUOUS
 62
     7
 10
-247.477802570207
 20
-16.3296920293808
 30
0.0
 11
-244.523379293
 21
-15.8087475994291
 31
0.0
  0
LINE
  5
   1AC
  8
0
  6
CONTINUOUS
 62
     7
 10
-244.523379293
 20
-15.8087475994291
 30
0.0
 11
-247.477802570207
 21
-15.2878031694774
 31
0.0
  0
ENDBLK
  5
   1AD
  8
0
  6
CONTINUOUS
 62
     7
  0
BLOCK
  5
   1AE
  8
0
  6
CONTINUOUS
 62
     7
  2
*UDIM1218
 70
    65
 10
0.0
 20
0.0
 30
0.0
  3
*UDIM1218
  0
TEXT
  5
   1AF
  8
0
  6
CONTINUOUS
 62
     7
 10
-274.582979087044
 20
-45.0424359408753
 30
0.0
 40
2.99999998416219
  1
27,5
 50
359.999999948034
 41
0.933333333333333
 72
     1
 11
-269.282979113671
 21
-43.5424359535745
 31
0.0
 73
     2
  0
TEXT
  5
   1B0
  8
0
  6
CONTINUOUS
 62
     7
 10
-263.432979131083
 20
-45.0424359156208
 30
0.0
 40
2.99999998416219
  1
   CORSA DI SEZIONAMENTO
 50
359.999999948034
 41
0.933333333333333
 72
     1
 11
-230.13297930553
 21
-43.5424359535745
 31
0.0
 73
     2
  0
LINE
  5
   1B1
  8
0
  6
CONTINUOUS
 62
     7
 10
-251.7333779037
 20
-8.94244701212112
 30
0.0
 11
-251.7333779037
 21
-48.0424359456556
 31
0.0
  0
LINE
  5
   1B2
  8
0
  6
CONTINUOUS
 62
     7
 10
-259.433377936482
 20
-1.10244814502846
 30
0.0
 11
-259.433377936482
 21
-48.0424359456556
 31
0.0
  0
LINE
  5
   1B3
  8
0
  6
CONTINUOUS
 62
     7
 10
-196.832979481329
 20
-46.0424359456556
 30
0.0
 11
-274.582979085691
 21
-46.0424359456556
 31
0.0
  0
LINE
  5
   1B4
  8
0
  6
CONTINUOUS
 62
     7
 10
-248.778954626493
 20
-45.5214915157039
 30
0.0
 11
-251.7333779037
 21
-46.0424359456556
 31
0.0
  0
LINE
  5
   1B5
  8
0
  6
CONTINUOUS
 62
     7
 10
-251.7333779037
 20
-46.0424359456556
 30
0.0
 11
-248.778954626493
 21
-46.5633803756073
 31
0.0
  0
LINE
  5
   1B6
  8
0
  6
CONTINUOUS
 62
     7
 10
-262.387801213689
 20
-46.5633803756073
 30
0.0
 11
-259.433377936482
 21
-46.0424359456556
 31
0.0
  0
LINE
  5
   1B7
  8
0
  6
CONTINUOUS
 62
     7
 10
-259.433377936482
 20
-46.0424359456556
 30
0.0
 11
-262.387801213689
 21
-45.5214915157039
 31
0.0
  0
ENDBLK
  5
   1B8
  8
0
  6
CONTINUOUS
 62
     7
  0
BLOCK
  5
   1B9
  8
0
  6
CONTINUOUS
 62
     7
  2
*UDIM1219
 70
    65
 10
0.0
 20
0.0
 30
0.0
  3
*UDIM1219
  0
TEXT
  5
   1BA
  8
0
  6
CONTINUOUS
 62
     7
 10
-223.358378356928
 20
121.255117258629
 30
0.0
 40
2.99999998416219
  1
241,5
 50
359.999999948034
 41
0.933333333333333
 72
     1
 11
-216.658378390947
 21
122.755117244667
 31
0.0
 73
     2
  0
LINE
  5
   1BB
  8
0
  6
CONTINUOUS
 62
     7
 10
-182.573377609253
 20
90.8613164131187
 30
0.0
 11
-182.573377609253
 21
122.255117252586
 31
0.0
  0
LINE
  5
   1BC
  8
0
  6
CONTINUOUS
 62
     7
 10
-250.193378965259
 20
53.8517079197035
 30
0.0
 11
-250.193378965259
 21
122.255117252586
 31
0.0
  0
LINE
  5
   1BD
  8
0
  6
CONTINUOUS
 62
     7
 10
-182.573377609253
 20
120.255117252586
 30
0.0
 11
-250.193378965259
 21
120.255117252586
 31
0.0
  0
LINE
  5
   1BE
  8
0
  6
CONTINUOUS
 62
     7
 10
-185.52780088646
 20
119.734172822635
 30
0.0
 11
-182.573377609253
 21
120.255117252586
 31
0.0
  0
LINE
  5
   1BF
  8
0
  6
CONTINUOUS
 62
     7
 10
-182.573377609253
 20
120.255117252586
 30
0.0
 11
-185.52780088646
 21
120.776061682538
 31
0.0
  0
LINE
  5
   1C0
  8
0
  6
CONTINUOUS
 62
     7
 10
-247.238955688052
 20
120.776061682538
 30
0.0
 11
-250.193378965259
 21
120.255117252586
 31
0.0
  0
LINE
  5
   1C1
  8
0
  6
CONTINUOUS
 62
     7
 10
-250.193378965259
 20
120.255117252586
 30
0.0
 11
-247.238955688052
 21
119.734172822635
 31
0.0
  0
ENDBLK
  5
   1C2
  8
0
  6
CONTINUOUS
 62
     7
  0
BLOCK
  5
   1C3
  8
0
  6
CONTINUOUS
 62
     7
  2
*UDIM1220
 70
    65
 10
0.0
 20
0.0
 30
0.0
  3
*UDIM1220
  0
TEXT
  5
   1C4
  8
0
  6
CONTINUOUS
 62
     7
 10
-256.50337539717
 20
121.255117253579
 30
0.0
 40
2.99999998416219
  1
2
 50
359.999999948034
 41
0.933333333333333
 72
     1
 11
-255.403375401625
 21
122.755117244667
 31
0.0
 73
     2
  0
LINE
  5
   1C5
  8
0
  6
CONTINUOUS
 62
     7
 10
-250.753378967643
 20
54.005256307454
 30
0.0
 11
-250.753378967643
 21
122.255117252586
 31
0.0
  0
LINE
  5
   1C6
  8
0
  6
CONTINUOUS
 62
     7
 10
-250.193378965259
 20
120.255117252586
 30
0.0
 11
-256.503375395817
 21
120.255117252586
 31
0.0
  0
LINE
  5
   1C7
  8
0
  6
CONTINUOUS
 62
     7
 10
-247.238955688052
 20
120.776061682538
 30
0.0
 11
-250.193378965259
 21
120.255117252586
 31
0.0
  0
LINE
  5
   1C8
  8
0
  6
CONTINUOUS
 62
     7
 10
-250.193378965259
 20
120.255117252586
 30
0.0
 11
-247.238955688052
 21
119.734172822635
 31
0.0
  0
LINE
  5
   1C9
  8
0
  6
CONTINUOUS
 62
     7
 10
-253.70780224485
 20
119.734172822635
 30
0.0
 11
-250.753378967643
 21
120.255117252586
 31
0.0
  0
LINE
  5
   1CA
  8
0
  6
CONTINUOUS
 62
     7
 10
-250.753378967643
 20
120.255117252586
 30
0.0
 11
-253.70780224485
 21
120.776061682538
 31
0.0
  0
ENDBLK
  5
   1CB
  8
0
  6
CONTINUOUS
 62
     7
  0
BLOCK
  5
   1CC
  8
0
  6
CONTINUOUS
 62
     7
  2
*UDIM1221
 70
    65
 10
0.0
 20
0.0
 30
0.0
  3
*UDIM1221
  0
TEXT
  5
   1CD
  8
0
  6
CONTINUOUS
 62
     7
 10
-220.138382610795
 20
112.808453404309
 30
0.0
 40
2.99999998416219
  1
218,5
 50
359.999999948034
 41
0.933333333333333
 72
     1
 11
-213.438382644813
 21
114.308453390347
 31
0.0
 73
     2
  0
LINE
  5
   1CE
  8
0
  6
CONTINUOUS
 62
     7
 10
-182.573377609253
 20
90.8613164131187
 30
0.0
 11
-182.573377609253
 21
113.808453398266
 31
0.0
  0
LINE
  5
   1CF
  8
0
  6
CONTINUOUS
 62
     7
 10
-243.753380163079
 20
25.8875478944327
 30
0.0
 11
-243.753380163079
 21
113.808453398266
 31
0.0
  0
LINE
  5
   1D0
  8
0
  6
CONTINUOUS
 62
     7
 10
-182.573377609253
 20
111.808453398266
 30
0.0
 11
-243.753380163079
 21
111.808453398266
 31
0.0
  0
LINE
  5
   1D1
  8
0
  6
CONTINUOUS
 62
     7
 10
-185.52780088646
 20
111.287508968314
 30
0.0
 11
-182.573377609253
 21
111.808453398266
 31
0.0
  0
LINE
  5
   1D2
  8
0
  6
CONTINUOUS
 62
     7
 10
-182.573377609253
 20
111.808453398266
 30
0.0
 11
-185.52780088646
 21
112.329397828217
 31
0.0
  0
LINE
  5
   1D3
  8
0
  6
CONTINUOUS
 62
     7
 10
-240.798956885872
 20
112.329397828217
 30
0.0
 11
-243.753380163079
 21
111.808453398266
 31
0.0
  0
LINE
  5
   1D4
  8
0
  6
CONTINUOUS
 62
     7
 10
-243.753380163079
 20
111.808453398266
 30
0.0
 11
-240.798956885872
 21
111.287508968314
 31
0.0
  0
ENDBLK
  5
   1D5
  8
0
  6
CONTINUOUS
 62
     7
  0
BLOCK
  5
   1D6
  8
0
  6
CONTINUOUS
 62
     7
  2
*UDIM1222
 70
    65
 10
0.0
 20
0.0
 30
0.0
  3
*UDIM1222
  0
TEXT
  5
   1D7
  8
0
  6
CONTINUOUS
 62
     7
 10
-160.502549877843
 20
13.9678975976247
 30
0.0
 40
2.99999998416219
  1
160
 50
89.9999999480344
 41
0.933333333333333
 72
     1
 11
-162.002549866392
 21
17.8678975783941
 31
0.0
 73
     2
  0
TEXT
  5
   1D8
  8
0
  6
CONTINUOUS
 62
     7
 10
-160.502549879111
 20
22.3178975683674
 30
0.0
 40
2.99999998416219
  1
 MAX
 50
89.9999999480344
 41
0.933333333333333
 72
     1
 11
-162.002549866392
 21
27.6178975417458
 31
0.0
 73
     2
  0
LINE
  5
   1D9
  8
0
  6
CONTINUOUS
 62
     7
 10
-175.973377585411
 20
-0.592440634965897
 30
0.0
 11
-157.502549874311
 21
-0.592440634965897
 31
0.0
  0
LINE
  5
   1DA
  8
0
  6
CONTINUOUS
 62
     7
 10
-175.973377585411
 20
44.207559555769
 30
0.0
 11
-157.502549874311
 21
44.207559555769
 31
0.0
  0
LINE
  5
   1DB
  8
0
  6
CONTINUOUS
 62
     7
 10
-159.502549874311
 20
-0.592440634965897
 30
0.0
 11
-159.502549874311
 21
44.207559555769
 31
0.0
  0
LINE
  5
   1DC
  8
0
  6
CONTINUOUS
 62
     7
 10
-160.023494304262
 20
2.36198264224107
 30
0.0
 11
-159.502549874311
 21
-0.592440634965897
 31
0.0
  0
LINE
  5
   1DD
  8
0
  6
CONTINUOUS
 62
     7
 10
-159.502549874311
 20
-0.592440634965897
 30
0.0
 11
-158.981605444359
 21
2.36198264224107
 31
0.0
  0
LINE
  5
   1DE
  8
0
  6
CONTINUOUS
 62
     7
 10
-158.981605444359
 20
41.253136278562
 30
0.0
 11
-159.502549874311
 21
44.207559555769
 31
0.0
  0
LINE
  5
   1DF
  8
0
  6
CONTINUOUS
 62
     7
 10
-159.502549874311
 20
44.207559555769
 30
0.0
 11
-160.023494304262
 21
41.253136278562
 31
0.0
  0
ENDBLK
  5
   1E0
  8
0
  6
CONTINUOUS
 62
     7
  0
BLOCK
  5
   1E1
  8
0
  6
CONTINUOUS
 62
     7
  2
*UDIM1223
 70
    65
 10
0.0
 20
0.0
 30
0.0
  3
*UDIM1223
  0
TEXT
  5
   1E2
  8
0
  6
CONTINUOUS
 62
     7
 10
-221.328378975803
 20
-57.3648157553424
 30
0.0
 40
2.99999998416219
  1
247
 50
359.999999948034
 41
0.933333333333333
 72
     1
 11
-217.42837899504
 21
-55.8648157667789
 31
0.0
 73
     2
  0
LINE
  5
   1E3
  8
0
  6
CONTINUOUS
 62
     7
 10
-182.573377609253
 20
-3.4124406427145
 30
0.0
 11
-182.573377609253
 21
-60.36481575886
 31
0.0
  0
LINE
  5
   1E4
  8
0
  6
CONTINUOUS
 62
     7
 10
-251.7333779037
 20
-8.94244701212112
 30
0.0
 11
-251.7333779037
 21
-60.36481575886
 31
0.0
  0
LINE
  5
   1E5
  8
0
  6
CONTINUOUS
 62
     7
 10
-182.573377609253
 20
-58.36481575886
 30
0.0
 11
-251.7333779037
 21
-58.36481575886
 31
0.0
  0
LINE
  5
   1E6
  8
0
  6
CONTINUOUS
 62
     7
 10
-185.52780088646
 20
-58.8857601888117
 30
0.0
 11
-182.573377609253
 21
-58.36481575886
 31
0.0
  0
LINE
  5
   1E7
  8
0
  6
CONTINUOUS
 62
     7
 10
-182.573377609253
 20
-58.36481575886
 30
0.0
 11
-185.52780088646
 21
-57.8438713289083
 31
0.0
  0
LINE
  5
   1E8
  8
0
  6
CONTINUOUS
 62
     7
 10
-248.778954626493
 20
-57.8438713289083
 30
0.0
 11
-251.7333779037
 21
-58.36481575886
 31
0.0
  0
LINE
  5
   1E9
  8
0
  6
CONTINUOUS
 62
     7
 10
-251.7333779037
 20
-58.36481575886
 30
0.0
 11
-248.778954626493
 21
-58.8857601888117
 31
0.0
  0
ENDBLK
  5
   1EA
  8
0
  6
CONTINUOUS
 62
     7
  0
BLOCK
  5
   1EB
  8
0
  6
CONTINUOUS
 62
     7
  2
*UDIM1224
 70
    65
 10
0.0
 20
0.0
 30
0.0
  3
*UDIM1224
  0
TEXT
  5
   1EC
  8
0
  6
CONTINUOUS
 62
     7
 10
-268.616114792527
 20
5.42255281880619
 30
0.0
 40
2.99999998416219
  1
8,25
 50
89.9999999480344
 41
0.933333333333333
 72
     1
 11
-270.116114779808
 21
10.7225527921846
 31
0.0
 73
     2
  0
LINE
  5
   1ED
  8
0
  6
CONTINUOUS
 62
     7
 10
-266.128456312322
 20
19.497553104704
 30
0.0
 11
-269.616114787727
 21
19.497553104704
 31
0.0
  0
LINE
  5
   1EE
  8
0
  6
CONTINUOUS
 62
     7
 10
-247.833379155402
 20
21.8075489021094
 30
0.0
 11
-269.616114787727
 21
21.8075489021094
 31
0.0
  0
LINE
  5
   1EF
  8
0
  6
CONTINUOUS
 62
     7
 10
-267.616114787727
 20
5.42255282016477
 30
0.0
 11
-267.616114787727
 21
21.8075489021094
 31
0.0
  0
LINE
  5
   1F0
  8
0
  6
CONTINUOUS
 62
     7
 10
-267.095170357775
 20
16.543129827497
 30
0.0
 11
-267.616114787727
 21
19.497553104704
 31
0.0
  0
LINE
  5
   1F1
  8
0
  6
CONTINUOUS
 62
     7
 10
-267.616114787727
 20
19.497553104704
 30
0.0
 11
-268.137059217678
 21
16.543129827497
 31
0.0
  0
LINE
  5
   1F2
  8
0
  6
CONTINUOUS
 62
     7
 10
-268.137059217678
 20
24.7619721793163
 30
0.0
 11
-267.616114787727
 21
21.8075489021094
 31
0.0
  0
LINE
  5
   1F3
  8
0
  6
CONTINUOUS
 62
     7
 10
-267.616114787727
 20
21.8075489021094
 30
0.0
 11
-267.095170357775
 21
24.7619721793163
 31
0.0
  0
ENDBLK
  5
   1F4
  8
0
  6
CONTINUOUS
 62
     7
  0
BLOCK
  5
   1F5
  8
0
  6
CONTINUOUS
 62
     7
  2
*UDIM1225
 70
    65
 10
0.0
 20
0.0
 30
0.0
  3
*UDIM1225
  0
TEXT
  5
   1F6
  8
0
  6
CONTINUOUS
 62
     7
 10
-280.744896581178
 20
15.3225539509176
 30
0.0
 40
2.99999998416219
  1
140
 50
89.9999999480344
 41
0.933333333333333
 72
     1
 11
-282.244896569727
 21
19.222553931687
 31
0.0
 73
     2
  0
LINE
  5
   1F7
  8
0
  6
CONTINUOUS
 62
     7
 10
-249.933377891779
 20
-0.10244678632304
 30
0.0
 11
-281.744896577646
 21
-0.10244678632304
 31
0.0
  0
LINE
  5
   1F8
  8
0
  6
CONTINUOUS
 62
     7
 10
-251.193377897143
 20
39.0975545236479
 30
0.0
 11
-281.744896577646
 21
39.0975530945984
 31
0.0
  0
LINE
  5
   1F9
  8
0
  6
CONTINUOUS
 62
     7
 10
-279.744896577646
 20
-0.10244678632304
 30
0.0
 11
-279.744896577646
 21
39.0975531881485
 31
0.0
  0
LINE
  5
   1FA
  8
0
  6
CONTINUOUS
 62
     7
 10
-280.265841007597
 20
2.85197649088392
 30
0.0
 11
-279.744896577646
 21
-0.10244678632304
 31
0.0
  0
LINE
  5
   1FB
  8
0
  6
CONTINUOUS
 62
     7
 10
-279.744896577646
 20
-0.10244678632304
 30
0.0
 11
-279.223952147694
 21
2.85197649088392
 31
0.0
  0
LINE
  5
   1FC
  8
0
  6
CONTINUOUS
 62
     7
 10
-279.223952147694
 20
36.1431299109416
 30
0.0
 11
-279.744896577646
 21
39.0975531881485
 31
0.0
  0
LINE
  5
   1FD
  8
0
  6
CONTINUOUS
 62
     7
 10
-279.744896577646
 20
39.0975531881485
 30
0.0
 11
-280.265841007597
 21
36.1431299109416
 31
0.0
  0
ENDBLK
  5
   1FE
  8
0
  6
CONTINUOUS
 62
     7
  0
BLOCK
  5
   1FF
  8
0
  6
CONTINUOUS
 62
     7
  2
*UDIM1226
 70
    65
 10
0.0
 20
0.0
 30
0.0
  3
*UDIM1226
  0
TEXT
  5
   200
  8
0
  6
CONTINUOUS
 62
     7
 10
-173.80658724907
 20
101.351311016495
 30
0.0
 40
2.99999998416219
  1
3
 50
359.999999948034
 41
0.933333333333333
 72
     1
 11
-172.706587253525
 21
102.851311007584
 31
0.0
 73
     2
  0
TEXT
  5
   201
  8
0
  6
CONTINUOUS
 62
     7
 10
-176.556587249377
 20
101.351311016495
 30
0.0
 40
2.99999998416219
  1
_
 50
359.999999948034
 41
0.933333333333333
 72
     1
 11
-175.456587253831
 21
102.851311007584
 31
0.0
 73
     2
  0
LINE
  5
   202
  8
0
  6
CONTINUOUS
 62
     7
 10
-181.733377605677
 20
92.6048432907389
 30
0.0
 11
-181.733377605677
 21
102.351311015503
 31
0.0
  0
LINE
  5
   203
  8
0
  6
CONTINUOUS
 62
     7
 10
-182.573377609253
 20
47.0275595635176
 30
0.0
 11
-182.573377609253
 21
102.351311015503
 31
0.0
  0
LINE
  5
   204
  8
0
  6
CONTINUOUS
 62
     7
 10
-171.606587259332
 20
100.351311015503
 30
0.0
 11
-182.573377609253
 21
100.351311015503
 31
0.0
  0
LINE
  5
   205
  8
0
  6
CONTINUOUS
 62
     7
 10
-178.77895432847
 20
100.872255445454
 30
0.0
 11
-181.733377605677
 21
100.351311015503
 31
0.0
  0
LINE
  5
   206
  8
0
  6
CONTINUOUS
 62
     7
 10
-181.733377605677
 20
100.351311015503
 30
0.0
 11
-178.77895432847
 21
99.830366585551
 31
0.0
  0
LINE
  5
   207
  8
0
  6
CONTINUOUS
 62
     7
 10
-185.52780088646
 20
99.830366585551
 30
0.0
 11
-182.573377609253
 21
100.351311015503
 31
0.0
  0
LINE
  5
   208
  8
0
  6
CONTINUOUS
 62
     7
 10
-182.573377609253
 20
100.351311015503
 30
0.0
 11
-185.52780088646
 21
100.872255445454
 31
0.0
  0
ENDBLK
  5
   209
  8
0
  6
CONTINUOUS
 62
     7
  0
BLOCK
  5
   20A
  8
0
  6
CONTINUOUS
 62
     7
  2
*UDIM1227
 70
    65
 10
0.0
 20
0.0
 30
0.0
  3
*UDIM1227
  0
TEXT
  5
   20B
  8
0
  6
CONTINUOUS
 62
     7
 10
-188.303064682005
 20
101.351311017758
 30
0.0
 40
2.99999998416219
  1
31
 50
359.999999948034
 41
0.933333333333333
 72
     1
 11
-185.80306469385
 21
102.851311007584
 31
0.0
 73
     2
  0
LINE
  5
   20C
  8
0
  6
CONTINUOUS
 62
     7
 10
-191.253377646208
 20
98.4075597822666
 30
0.0
 11
-191.253377646208
 21
102.351311015503
 31
0.0
  0
LINE
  5
   20D
  8
0
  6
CONTINUOUS
 62
     7
 10
-182.573377609253
 20
100.351311015503
 30
0.0
 11
-191.253377646208
 21
100.351311015503
 31
0.0
  0
LINE
  5
   20E
  8
0
  6
CONTINUOUS
 62
     7
 10
-179.618954332046
 20
100.872255445454
 30
0.0
 11
-182.573377609253
 21
100.351311015503
 31
0.0
  0
LINE
  5
   20F
  8
0
  6
CONTINUOUS
 62
     7
 10
-182.573377609253
 20
100.351311015503
 30
0.0
 11
-179.618954332046
 21
99.830366585551
 31
0.0
  0
LINE
  5
   210
  8
0
  6
CONTINUOUS
 62
     7
 10
-194.207800923415
 20
99.830366585551
 30
0.0
 11
-191.253377646208
 21
100.351311015503
 31
0.0
  0
LINE
  5
   211
  8
0
  6
CONTINUOUS
 62
     7
 10
-191.253377646208
 20
100.351311015503
 30
0.0
 11
-194.207800923415
 21
100.872255445454
 31
0.0
  0
ENDBLK
  5
   212
  8
0
  6
CONTINUOUS
 62
     7
  0
BLOCK
  5
   213
  8
0
  6
CONTINUOUS
 62
     7
  2
*UDIM1228
 70
    65
 10
0.0
 20
0.0
 30
0.0
  3
*UDIM1228
  0
TEXT
  5
   214
  8
0
  6
CONTINUOUS
 62
     7
 10
-204.258379128672
 20
101.351311017758
 30
0.0
 40
2.99999998416219
  1
16
 50
359.999999948034
 41
0.933333333333333
 72
     1
 11
-201.758379140518
 21
102.851311007584
 31
0.0
 73
     2
  0
LINE
  5
   215
  8
0
  6
CONTINUOUS
 62
     7
 10
-195.733377665281
 20
98.4075597822666
 30
0.0
 11
-195.733377665281
 21
102.351311015503
 31
0.0
  0
LINE
  5
   216
  8
0
  6
CONTINUOUS
 62
     7
 10
-191.253377646208
 20
100.351311015503
 30
0.0
 11
-204.258379127319
 21
100.351311015503
 31
0.0
  0
LINE
  5
   217
  8
0
  6
CONTINUOUS
 62
     7
 10
-188.298954369001
 20
100.872255445454
 30
0.0
 11
-191.253377646208
 21
100.351311015503
 31
0.0
  0
LINE
  5
   218
  8
0
  6
CONTINUOUS
 62
     7
 10
-191.253377646208
 20
100.351311015503
 30
0.0
 11
-188.298954369001
 21
99.830366585551
 31
0.0
  0
LINE
  5
   219
  8
0
  6
CONTINUOUS
 62
     7
 10
-198.687800942488
 20
99.830366585551
 30
0.0
 11
-195.733377665281
 21
100.351311015503
 31
0.0
  0
LINE
  5
   21A
  8
0
  6
CONTINUOUS
 62
     7
 10
-195.733377665281
 20
100.351311015503
 30
0.0
 11
-198.687800942488
 21
100.872255445454
 31
0.0
  0
ENDBLK
  5
   21B
  8
0
  6
CONTINUOUS
 62
     7
  0
BLOCK
  5
   21C
  8
0
  6
CONTINUOUS
 62
     7
  2
*UDIM1229
 70
    65
 10
0.0
 20
0.0
 30
0.0
  3
*UDIM1229
  0
TEXT
  5
   21D
  8
0
  6
CONTINUOUS
 62
     7
 10
-260.760073021664
 20
-85.0189421947891
 30
0.0
 40
3.00000009059906
  1
120,5
 50
449.999999896069
 41
0.933333333333333
 72
     1
 11
-262.260073054852
 21
-78.3189419897397
 31
0.0
 73
     2
  0
LINE
  5
   21E
  8
0
  6
CONTINUOUS
 62
     7
 10
-239.794516146183
 20
-67.1989415884018
 30
0.0
 11
-261.760073009553
 21
-67.1989415884018
 31
0.0
  0
LINE
  5
   21F
  8
0
  6
CONTINUOUS
 62
     7
 10
-239.794516146183
 20
-88.888942450285
 30
0.0
 11
-261.760073009553
 21
-88.888942450285
 31
0.0
  0
LINE
  5
   220
  8
0
  6
CONTINUOUS
 62
     7
 10
-259.760073009553
 20
-67.1989415884018
 30
0.0
 11
-259.760073009553
 21
-88.888942450285
 31
0.0
  0
LINE
  5
   221
  8
0
  6
CONTINUOUS
 62
     7
 10
-259.239128579601
 20
-70.1533648656088
 30
0.0
 11
-259.760073009553
 21
-67.1989415884018
 31
0.0
  0
LINE
  5
   222
  8
0
  6
CONTINUOUS
 62
     7
 10
-259.760073009553
 20
-67.1989415884018
 30
0.0
 11
-260.281017439504
 21
-70.1533648656088
 31
0.0
  0
LINE
  5
   223
  8
0
  6
CONTINUOUS
 62
     7
 10
-260.281017439504
 20
-85.934519173078
 30
0.0
 11
-259.760073009553
 21
-88.888942450285
 31
0.0
  0
LINE
  5
   224
  8
0
  6
CONTINUOUS
 62
     7
 10
-259.760073009553
 20
-88.888942450285
 30
0.0
 11
-259.239128579601
 21
-85.934519173078
 31
0.0
  0
ENDBLK
  5
   225
  8
0
  6
CONTINUOUS
 62
     7
  0
BLOCK
  5
   226
  8
0
  6
CONTINUOUS
 62
     7
  2
*UDIM1230
 70
    65
 10
0.0
 20
0.0
 30
0.0
  3
*UDIM1230
  0
TEXT
  5
   227
  8
0
  6
CONTINUOUS
 62
     7
 10
-260.760073019133
 20
-102.661676447351
 30
0.0
 40
3.00000009059906
  1
92.5
 50
449.999999896069
 41
0.933333333333333
 72
     1
 11
-262.260073054852
 21
-97.3616762845808
 31
0.0
 73
     2
  0
LINE
  5
   228
  8
0
  6
CONTINUOUS
 62
     7
 10
-243.690807512778
 20
-105.583943113685
 30
0.0
 11
-261.760073009553
 21
-105.583943113685
 31
0.0
  0
LINE
  5
   229
  8
0
  6
CONTINUOUS
 62
     7
 10
-259.760073009553
 20
-88.888942450285
 30
0.0
 11
-259.760073009553
 21
-105.583943113685
 31
0.0
  0
LINE
  5
   22A
  8
0
  6
CONTINUOUS
 62
     7
 10
-259.239128579601
 20
-91.8433657274919
 30
0.0
 11
-259.760073009553
 21
-88.888942450285
 31
0.0
  0
LINE
  5
   22B
  8
0
  6
CONTINUOUS
 62
     7
 10
-259.760073009553
 20
-88.888942450285
 30
0.0
 11
-260.281017439504
 21
-91.8433657274919
 31
0.0
  0
LINE
  5
   22C
  8
0
  6
CONTINUOUS
 62
     7
 10
-260.281017439504
 20
-102.629519836478
 30
0.0
 11
-259.760073009553
 21
-105.583943113685
 31
0.0
  0
LINE
  5
   22D
  8
0
  6
CONTINUOUS
 62
     7
 10
-259.760073009553
 20
-105.583943113685
 30
0.0
 11
-259.239128579601
 21
-102.629519836478
 31
0.0
  0
ENDBLK
  5
   22E
  8
0
  6
CONTINUOUS
 62
     7
  0
BLOCK
  5
   22F
  8
0
  6
CONTINUOUS
 62
     7
  2
*UDIM1231
 70
    65
 10
0.0
 20
0.0
 30
0.0
  3
*UDIM1231
  0
TEXT
  5
   230
  8
0
  6
CONTINUOUS
 62
     7
 10
-260.760073014072
 20
-115.555336907094
 30
0.0
 40
3.00000009059906
  1
76
 50
449.999999896069
 41
0.933333333333333
 72
     1
 11
-262.260073054852
 21
-113.055336828883
 31
0.0
 73
     2
  0
LINE
  5
   231
  8
0
  6
CONTINUOUS
 62
     7
 10
-239.794516146183
 20
-119.308943659067
 30
0.0
 11
-261.760073009553
 21
-119.308943659067
 31
0.0
  0
LINE
  5
   232
  8
0
  6
CONTINUOUS
 62
     7
 10
-259.760073009553
 20
-105.583943113685
 30
0.0
 11
-259.760073009553
 21
-119.308943659067
 31
0.0
  0
LINE
  5
   233
  8
0
  6
CONTINUOUS
 62
     7
 10
-259.239128579601
 20
-108.538366390892
 30
0.0
 11
-259.760073009553
 21
-105.583943113685
 31
0.0
  0
LINE
  5
   234
  8
0
  6
CONTINUOUS
 62
     7
 10
-259.760073009553
 20
-105.583943113685
 30
0.0
 11
-260.281017439504
 21
-108.538366390892
 31
0.0
  0
LINE
  5
   235
  8
0
  6
CONTINUOUS
 62
     7
 10
-260.281017439504
 20
-116.35452038186
 30
0.0
 11
-259.760073009553
 21
-119.308943659067
 31
0.0
  0
LINE
  5
   236
  8
0
  6
CONTINUOUS
 62
     7
 10
-259.760073009553
 20
-119.308943659067
 30
0.0
 11
-259.239128579601
 21
-116.35452038186
 31
0.0
  0
ENDBLK
  5
   237
  8
0
  6
CONTINUOUS
 62
     7
  0
BLOCK
  5
   238
  8
0
  6
CONTINUOUS
 62
     7
  2
*UDIM1232
 70
    65
 10
0.0
 20
0.0
 30
0.0
  3
*UDIM1232
  0
TEXT
  5
   239
  8
0
  6
CONTINUOUS
 62
     7
 10
-260.760073021664
 20
-137.128941518872
 30
0.0
 40
3.00000009059906
  1
120,5
 50
449.999999896069
 41
0.933333333333333
 72
     1
 11
-262.260073054852
 21
-130.428941313823
 31
0.0
 73
     2
  0
LINE
  5
   23A
  8
0
  6
CONTINUOUS
 62
     7
 10
-239.794516146183
 20
-140.99894452095
 30
0.0
 11
-261.760073009553
 21
-140.99894452095
 31
0.0
  0
LINE
  5
   23B
  8
0
  6
CONTINUOUS
 62
     7
 10
-259.760073009553
 20
-119.308943659067
 30
0.0
 11
-259.760073009553
 21
-140.99894452095
 31
0.0
  0
LINE
  5
   23C
  8
0
  6
CONTINUOUS
 62
     7
 10
-259.239128579601
 20
-122.263366936274
 30
0.0
 11
-259.760073009553
 21
-119.308943659067
 31
0.0
  0
LINE
  5
   23D
  8
0
  6
CONTINUOUS
 62
     7
 10
-259.760073009553
 20
-119.308943659067
 30
0.0
 11
-260.281017439504
 21
-122.263366936274
 31
0.0
  0
LINE
  5
   23E
  8
0
  6
CONTINUOUS
 62
     7
 10
-260.281017439504
 20
-138.044521243743
 30
0.0
 11
-259.760073009553
 21
-140.99894452095
 31
0.0
  0
LINE
  5
   23F
  8
0
  6
CONTINUOUS
 62
     7
 10
-259.760073009553
 20
-140.99894452095
 30
0.0
 11
-259.239128579601
 21
-138.044521243743
 31
0.0
  0
ENDBLK
  5
   240
  8
0
  6
CONTINUOUS
 62
     7
  0
BLOCK
  5
   241
  8
0
  6
CONTINUOUS
 62
     7
  2
*UDIM1233
 70
    65
 10
0.0
 20
0.0
 30
0.0
  3
*UDIM1233
  0
TEXT
  5
   242
  8
0
  6
CONTINUOUS
 62
     7
 10
-223.709516587547
 20
-77.9777881797674
 30
0.0
 40
3.00000009059906
  1
214
 50
359.999999896069
 41
0.933333333333333
 72
     1
 11
-219.809516467055
 21
-76.4777881415227
 31
0.0
 73
     2
  0
LINE
  5
   243
  8
0
  6
CONTINUOUS
 62
     7
 10
-200.274514615536
 20
-78.9777881868222
 30
0.0
 11
-238.794516146183
 21
-78.9777881868222
 31
0.0
  0
LINE
  5
   244
  8
0
  6
CONTINUOUS
 62
     7
 10
-203.228937892743
 20
-79.4987326167739
 30
0.0
 11
-200.274514615536
 21
-78.9777881868222
 31
0.0
  0
LINE
  5
   245
  8
0
  6
CONTINUOUS
 62
     7
 10
-200.274514615536
 20
-78.9777881868222
 30
0.0
 11
-203.228937892743
 21
-78.4568437568705
 31
0.0
  0
LINE
  5
   246
  8
0
  6
CONTINUOUS
 62
     7
 10
-235.840092868976
 20
-78.4568437568705
 30
0.0
 11
-238.794516146183
 21
-78.9777881868222
 31
0.0
  0
LINE
  5
   247
  8
0
  6
CONTINUOUS
 62
     7
 10
-238.794516146183
 20
-78.9777881868222
 30
0.0
 11
-235.840092868976
 21
-79.4987326167739
 31
0.0
  0
ENDBLK
  5
   248
  8
0
  6
CONTINUOUS
 62
     7
  0
BLOCK
  5
   249
  8
0
  6
CONTINUOUS
 62
     7
  2
*UDIM1234
 70
    65
 10
0.0
 20
0.0
 30
0.0
  3
*UDIM1234
  0
TEXT
  5
   24A
  8
0
  6
CONTINUOUS
 62
     7
 10
-195.831291559899
 20
-112.734418989875
 30
0.0
 40
3.00000009059906
  1
8,5
 50
365.959648461357
 41
0.933333333333333
 72
     1
 11
-192.108111957533
 21
-110.837596725378
 31
0.0
 73
     2
  0
TEXT
  5
   24B
  8
0
  6
CONTINUOUS
 62
     7
 10
-198.964266696789
 20
-113.061477295227
 30
0.0
 40
3.00000009059906
  1
Ø
 50
365.959648461357
 41
0.933333333333333
 72
     1
 11
-198.025953919664
 21
-111.455373518609
 31
0.0
 73
     2
  0
TEXT
  5
   24C
  8
0
  6
CONTINUOUS
 62
     7
 10
-187.526420855666
 20
-111.867454908234
 30
0.0
 40
3.00000009059906
  1
 - M8
 50
365.959648461357
 41
0.933333333333333
 72
     1
 11
-181.018374428057
 21
-109.679914155858
 31
0.0
 73
     2
  0
LINE
  5
   24D
  8
0
  6
CONTINUOUS
 62
     7
 10
-174.095015874802
 20
-111.470754539839
 30
0.0
 11
-207.695380287761
 21
-114.978371929973
 31
0.0
  0
LINE
  5
   24E
  8
0
  6
CONTINUOUS
 62
     7
 10
-203.289282705673
 20
-113.994634225783
 30
0.0
 11
-206.1736494726
 21
-114.819515037686
 31
0.0
  0
LINE
  5
   24F
  8
0
  6
CONTINUOUS
 62
     7
 10
-206.1736494726
 20
-114.819515037686
 30
0.0
 11
-203.181105437819
 21
-115.030891951983
 31
0.0
  0
LINE
  5
   250
  8
0
  6
CONTINUOUS
 62
     7
 10
-210.579747054688
 20
-115.803252741876
 30
0.0
 11
-207.695380287761
 21
-114.978371929973
 31
0.0
  0
LINE
  5
   251
  8
0
  6
CONTINUOUS
 62
     7
 10
-207.695380287761
 20
-114.978371929973
 30
0.0
 11
-210.687924322542
 21
-114.766995015676
 31
0.0
  0
ENDBLK
  5
   252
  8
0
  6
CONTINUOUS
 62
     7
  0
BLOCK
  5
   253
  8
0
  6
CONTINUOUS
 62
     7
  2
*UDIM1235
 70
    65
 10
0.0
 20
0.0
 30
0.0
  3
*UDIM1235
  0
TEXT
  5
   254
  8
0
  6
CONTINUOUS
 62
     7
 10
-251.022895505659
 20
-108.273944347192
 30
0.0
 40
3.00000009059906
  1
120
 50
449.999999896069
 41
0.933333333333333
 72
     1
 11
-252.522895543908
 21
-104.373944226702
 31
0.0
 73
     2
  0
LINE
  5
   255
  8
0
  6
CONTINUOUS
 62
     7
 10
-235.699515983462
 20
-93.2989426255226
 30
0.0
 11
-252.022895498609
 21
-93.2989426255226
 31
0.0
  0
LINE
  5
   256
  8
0
  6
CONTINUOUS
 62
     7
 10
-235.699515983462
 20
-114.89894348383
 30
0.0
 11
-252.022895498609
 21
-114.89894348383
 31
0.0
  0
LINE
  5
   257
  8
0
  6
CONTINUOUS
 62
     7
 10
-250.022895498609
 20
-93.2989426255226
 30
0.0
 11
-250.022895498609
 21
-114.89894348383
 31
0.0
  0
LINE
  5
   258
  8
0
  6
CONTINUOUS
 62
     7
 10
-249.501951068657
 20
-96.2533659027296
 30
0.0
 11
-250.022895498609
 21
-93.2989426255226
 31
0.0
  0
LINE
  5
   259
  8
0
  6
CONTINUOUS
 62
     7
 10
-250.022895498609
 20
-93.2989426255226
 30
0.0
 11
-250.54383992856
 21
-96.2533659027296
 31
0.0
  0
LINE
  5
   25A
  8
0
  6
CONTINUOUS
 62
     7
 10
-250.54383992856
 20
-111.944520206623
 30
0.0
 11
-250.022895498609
 21
-114.89894348383
 31
0.0
  0
LINE
  5
   25B
  8
0
  6
CONTINUOUS
 62
     7
 10
-250.022895498609
 20
-114.89894348383
 30
0.0
 11
-249.501951068657
 21
-111.944520206623
 31
0.0
  0
ENDBLK
  5
   25C
  8
0
  6
CONTINUOUS
 62
     7
  0
BLOCK
  5
   25D
  8
0
  6
CONTINUOUS
 62
     7
  2
*UDIM1236
 70
    65
 10
0.0
 20
0.0
 30
0.0
  3
*UDIM1236
  0
TEXT
  5
   25E
  8
0
  6
CONTINUOUS
 62
     7
 10
-246.740490555396
 20
-90.3989433646297
 30
0.0
 40
3.00000009059906
  1
68,25
 50
449.999999896069
 41
0.933333333333333
 72
     1
 11
-248.240490588585
 21
-83.6989431595803
 31
0.0
 73
     2
  0
LINE
  5
   25F
  8
0
  6
CONTINUOUS
 62
     7
 10
-210.499514982104
 20
-93.2989426255226
 30
0.0
 11
-247.740490543285
 21
-93.2989426255226
 31
0.0
  0
LINE
  5
   260
  8
0
  6
CONTINUOUS
 62
     7
 10
-243.690807512778
 20
-105.583943113685
 30
0.0
 11
-247.740490543285
 21
-105.583943113685
 31
0.0
  0
LINE
  5
   261
  8
0
  6
CONTINUOUS
 62
     7
 10
-245.740490543285
 20
-76.9989429572424
 30
0.0
 11
-245.740490543285
 21
-105.583943113685
 31
0.0
  0
LINE
  5
   262
  8
0
  6
CONTINUOUS
 62
     7
 10
-245.219546113333
 20
-96.2533659027296
 30
0.0
 11
-245.740490543285
 21
-93.2989426255226
 31
0.0
  0
LINE
  5
   263
  8
0
  6
CONTINUOUS
 62
     7
 10
-245.740490543285
 20
-93.2989426255226
 30
0.0
 11
-246.261434973237
 21
-96.2533659027296
 31
0.0
  0
LINE
  5
   264
  8
0
  6
CONTINUOUS
 62
     7
 10
-246.261434973237
 20
-102.629519836478
 30
0.0
 11
-245.740490543285
 21
-105.583943113685
 31
0.0
  0
LINE
  5
   265
  8
0
  6
CONTINUOUS
 62
     7
 10
-245.740490543285
 20
-105.583943113685
 30
0.0
 11
-245.219546113333
 21
-102.629519836478
 31
0.0
  0
ENDBLK
  5
   266
  8
0
  6
CONTINUOUS
 62
     7
  0
BLOCK
  5
   267
  8
0
  6
CONTINUOUS
 62
     7
  2
*UDIM1237
 70
    65
 10
0.0
 20
0.0
 30
0.0
  3
*UDIM1237
  0
TEXT
  5
   268
  8
0
  6
CONTINUOUS
 62
     7
 10
-223.709516587547
 20
-125.969810808235
 30
0.0
 40
3.00000009059906
  1
140
 50
359.999999896069
 41
0.933333333333333
 72
     1
 11
-219.809516467055
 21
-124.46981076999
 31
0.0
 73
     2
  0
LINE
  5
   269
  8
0
  6
CONTINUOUS
 62
     7
 10
-206.93451488018
 20
-117.003074869659
 30
0.0
 11
-206.93451488018
 21
-128.969810815289
 31
0.0
  0
LINE
  5
   26A
  8
0
  6
CONTINUOUS
 62
     7
 10
-232.134515881538
 20
-100.958942890167
 30
0.0
 11
-232.134515881538
 21
-128.969810815289
 31
0.0
  0
LINE
  5
   26B
  8
0
  6
CONTINUOUS
 62
     7
 10
-206.93451488018
 20
-126.969810815289
 30
0.0
 11
-232.134515881538
 21
-126.969810815289
 31
0.0
  0
LINE
  5
   26C
  8
0
  6
CONTINUOUS
 62
     7
 10
-209.888938157387
 20
-127.490755245241
 30
0.0
 11
-206.93451488018
 21
-126.969810815289
 31
0.0
  0
LINE
  5
   26D
  8
0
  6
CONTINUOUS
 62
     7
 10
-206.93451488018
 20
-126.969810815289
 30
0.0
 11
-209.888938157387
 21
-126.448866385338
 31
0.0
  0
LINE
  5
   26E
  8
0
  6
CONTINUOUS
 62
     7
 10
-229.180092604331
 20
-126.448866385338
 30
0.0
 11
-232.134515881538
 21
-126.969810815289
 31
0.0
  0
LINE
  5
   26F
  8
0
  6
CONTINUOUS
 62
     7
 10
-232.134515881538
 20
-126.969810815289
 30
0.0
 11
-229.180092604331
 21
-127.490755245241
 31
0.0
  0
ENDBLK
  5
   270
  8
0
  6
CONTINUOUS
 62
     7
  0
BLOCK
  5
   271
  8
0
  6
CONTINUOUS
 62
     7
  2
*UDIM1238
 70
    65
 10
0.0
 20
0.0
 30
0.0
  3
*UDIM1238
  0
TEXT
  5
   272
  8
0
  6
CONTINUOUS
 62
     7
 10
5.60081096081205
 20
106.597381334904
 30
0.0
 40
3.00000002980232
  1
7
 50
325.634128836236
 41
0.933333333333334
 72
     1
 11
7.35551897020926
 21
107.214633204485
 31
0.0
 73
     2
  0
TEXT
  5
   273
  8
0
  6
CONTINUOUS
 62
     7
 10
2.29901140891592
 20
108.855283006261
 30
0.0
 40
3.00000002980232
  1
Ø
 50
325.634128836236
 41
1.2
 72
     1
 11
4.38389937377076
 21
109.246744707338
 31
0.0
 73
     2
  0
LINE
  5
   274
  8
0
  6
CONTINUOUS
 62
     7
 10
1.73453599656989
 20
108.02983311862
 30
0.0
 11
23.501251455054
 21
93.1448885868449
 31
0.0
  0
LINE
  5
   275
  8
0
  6
CONTINUOUS
 62
     7
 10
15.0992037040853
 20
97.949895296391
 30
0.0
 11
17.9294647517074
 21
96.9550976273582
 31
0.0
  0
LINE
  5
   276
  8
0
  6
CONTINUOUS
 62
     7
 10
17.9294647517074
 20
96.9550976273582
 30
0.0
 11
15.9757856528134
 21
99.2317482326432
 31
0.0
  0
LINE
  5
   277
  8
0
  6
CONTINUOUS
 62
     7
 10
22.2042630927897
 20
94.972467984859
 30
0.0
 11
19.3740020451676
 21
95.9672656538918
 31
0.0
  0
LINE
  5
   278
  8
0
  6
CONTINUOUS
 62
     7
 10
19.3740020451676
 20
95.9672656538918
 30
0.0
 11
21.3276811440616
 21
93.6906150486068
 31
0.0
  0
ENDBLK
  5
   279
  8
0
  6
CONTINUOUS
 62
     7
  0
BLOCK
  5
   27A
  8
0
  6
CONTINUOUS
 62
     7
  2
*UDIM1239
 70
    65
 10
0.0
 20
0.0
 30
0.0
  3
*UDIM1239
  0
TEXT
  5
   27B
  8
0
  6
CONTINUOUS
 62
     7
 10
48.0081863653365
 20
56.8200470138075
 30
0.0
 40
3.00000002980232
  1
7
 50
342.466776217944
 41
0.933333333333334
 72
     1
 11
49.508971207377
 21
57.9189760045278
 31
0.0
 73
     2
  0
TEXT
  5
   27C
  8
0
  6
CONTINUOUS
 62
     7
 10
44.1940166466322
 20
58.025082115096
 30
0.0
 40
3.00000002980232
  1
Ø
 50
342.466776217944
 41
1.2
 72
     1
 11
46.0762184611958
 21
59.0035075944558
 31
0.0
 73
     2
  0
LINE
  5
   27D
  8
0
  6
CONTINUOUS
 62
     7
 10
43.8927578764711
 20
57.0715396873302
 30
0.0
 11
64.8787951315265
 21
50.4412863503159
 31
0.0
  0
LINE
  5
   27E
  8
0
  6
CONTINUOUS
 62
     7
 10
55.4453154964111
 20
52.607379114304
 30
0.0
 11
58.4423837786158
 21
52.4747830668412
 31
0.0
  0
LINE
  5
   27F
  8
0
  6
CONTINUOUS
 62
     7
 10
58.4423837786158
 20
52.4747830668412
 30
0.0
 11
55.9131445565888
 21
54.0881487903399
 31
0.0
  0
LINE
  5
   280
  8
0
  6
CONTINUOUS
 62
     7
 10
63.1081513004639
 20
51.814984166946
 30
0.0
 11
60.1110830182592
 21
51.9475802144088
 31
0.0
  0
LINE
  5
   281
  8
0
  6
CONTINUOUS
 62
     7
 10
60.1110830182592
 20
51.9475802144088
 30
0.0
 11
62.6403222402862
 21
50.3342144909101
 31
0.0
  0
ENDBLK
  5
   282
  8
0
  6
CONTINUOUS
 62
     7
  0
BLOCK
  5
   283
  8
0
  6
CONTINUOUS
 62
     7
  2
*UDIM1240
 70
    65
 10
0.0
 20
0.0
 30
0.0
  3
*UDIM1240
  0
TEXT
  5
   284
  8
0
  6
CONTINUOUS
 62
     7
 10
65.5638927572624
 20
104.920898145378
 30
0.0
 40
3.00000002980232
  1
8
 50
407.936580148673
 41
0.933333333333334
 72
     1
 11
65.1872352236396
 21
106.742471413493
 31
0.0
 73
     2
  0
TEXT
  5
   285
  8
0
  6
CONTINUOUS
 62
     7
 10
63.4535415242109
 20
102.582326415509
 30
0.0
 40
3.00000002980232
  1
Ø
 50
407.936580148673
 41
0.933333333333334
 72
     1
 11
63.0768839905881
 21
104.403899683624
 31
0.0
 73
     2
  0
TEXT
  5
   286
  8
0
  6
CONTINUOUS
 62
     7
 10
67.4062628784183
 20
106.962508422204
 30
0.0
 40
3.00000002980232
  1
(5 fori)
 50
407.936580148673
 41
0.933333333333333
 72
     1
 11
73.5951425785608
 21
116.059638214749
 31
0.0
 73
     2
  0
LINE
  5
   287
  8
0
  6
CONTINUOUS
 62
     7
 10
82.7536371618345
 20
122.476956922994
 30
0.0
 11
58.606780628153
 21
95.7187779191983
 31
0.0
  0
LINE
  5
   288
  8
0
  6
CONTINUOUS
 62
     7
 10
61.5392591444272
 20
99.7459683617301
 30
0.0
 11
59.946686168722
 21
97.2035853620517
 31
0.0
  0
LINE
  5
   289
  8
0
  6
CONTINUOUS
 62
     7
 10
59.946686168722
 20
97.2035853620517
 30
0.0
 11
62.3127613113324
 21
99.0479520337093
 31
0.0
  0
LINE
  5
   28A
  8
0
  6
CONTINUOUS
 62
     7
 10
57.0142076524478
 20
93.1763949195199
 30
0.0
 11
58.606780628153
 21
95.7187779191983
 31
0.0
  0
LINE
  5
   28B
  8
0
  6
CONTINUOUS
 62
     7
 10
58.606780628153
 20
95.7187779191983
 30
0.0
 11
56.2407054855426
 21
93.8744112475407
 31
0.0
  0
ENDBLK
  5
   28C
  8
0
  6
CONTINUOUS
 62
     7
  0
BLOCK
  5
   28D
  8
0
  6
CONTINUOUS
 62
     7
  2
*UDIM1241
 70
    65
 10
0.0
 20
0.0
 30
0.0
  3
*UDIM1241
  0
TEXT
  5
   28E
  8
0
  6
CONTINUOUS
 62
     7
 10
46.2604757652873
 20
16.0293083524972
 30
0.0
 40
3.00000002980232
  1
R min.200
 50
359.999999844103
 41
0.933333333333333
 72
     1
 11
58.5604758915507
 21
17.529308333993
 31
0.0
 73
     2
  0
LINE
  5
   28F
  8
0
  6
CONTINUOUS
 62
     7
 10
34.0267333984375
 20
43.664972966091
 30
0.0
 11
34.0267333984375
 21
13.0293083190918
 31
0.0
  0
LINE
  5
   290
  8
0
  6
CONTINUOUS
 62
     7
 10
75.3942200059102
 20
49.1414824504564
 30
0.0
 11
75.3942200059102
 21
13.0293083190918
 31
0.0
  0
LINE
  5
   291
  8
0
  6
CONTINUOUS
 62
     7
 10
34.0267333984375
 20
15.0293083190918
 30
0.0
 11
75.3942200059102
 21
15.0293083190918
 31
0.0
  0
LINE
  5
   292
  8
0
  6
CONTINUOUS
 62
     7
 10
36.9811566756445
 20
15.5502527490435
 30
0.0
 11
34.0267333984375
 21
15.0293083190918
 31
0.0
  0
LINE
  5
   293
  8
0
  6
CONTINUOUS
 62
     7
 10
34.0267333984375
 20
15.0293083190918
 30
0.0
 11
36.9811566756445
 21
14.5083638891401
 31
0.0
  0
LINE
  5
   294
  8
0
  6
CONTINUOUS
 62
     7
 10
72.4397967287032
 20
14.5083638891401
 30
0.0
 11
75.3942200059102
 21
15.0293083190918
 31
0.0
  0
LINE
  5
   295
  8
0
  6
CONTINUOUS
 62
     7
 10
75.3942200059102
 20
15.0293083190918
 30
0.0
 11
72.4397967287032
 21
15.5502527490435
 31
0.0
  0
ENDBLK
  5
   296
  8
0
  6
CONTINUOUS
 62
     7
  0
BLOCK
  5
   297
  8
0
  6
CONTINUOUS
 62
     7
  2
*UDIM1242
 70
    65
 10
0.0
 20
0.0
 30
0.0
  3
*UDIM1242
  0
TEXT
  5
   298
  8
0
  6
CONTINUOUS
 62
     7
 10
-2.2454032965815
 20
82.8111816057573
 30
0.0
 40
3.00000002980232
  1
90
 50
449.999999844103
 41
0.933333333333333
 72
     1
 11
-3.74540330469608
 21
85.3111816346645
 31
0.0
 73
     2
  0
LINE
  5
   299
  8
0
  6
CONTINUOUS
 62
     7
 10
30.6692333984375
 20
96.836181640625
 30
0.0
 11
-3.24540328979492
 21
96.836181640625
 31
0.0
  0
LINE
  5
   29A
  8
0
  6
CONTINUOUS
 62
     7
 10
3.22070870790162
 20
74.336181640625
 30
0.0
 11
-3.24540328979492
 21
74.336181640625
 31
0.0
  0
LINE
  5
   29B
  8
0
  6
CONTINUOUS
 62
     7
 10
-1.24540328979492
 20
96.836181640625
 30
0.0
 11
-1.24540328979492
 21
74.336181640625
 31
0.0
  0
LINE
  5
   29C
  8
0
  6
CONTINUOUS
 62
     7
 10
-0.72445885984326
 20
93.8817583634181
 30
0.0
 11
-1.24540328979492
 21
96.836181640625
 31
0.0
  0
LINE
  5
   29D
  8
0
  6
CONTINUOUS
 62
     7
 10
-1.24540328979492
 20
96.836181640625
 30
0.0
 11
-1.76634771974658
 21
93.8817583634181
 31
0.0
  0
LINE
  5
   29E
  8
0
  6
CONTINUOUS
 62
     7
 10
-1.76634771974658
 20
77.290604917832
 30
0.0
 11
-1.24540328979492
 21
74.336181640625
 31
0.0
  0
LINE
  5
   29F
  8
0
  6
CONTINUOUS
 62
     7
 10
-1.24540328979492
 20
74.336181640625
 30
0.0
 11
-0.72445885984326
 21
77.290604917832
 31
0.0
  0
ENDBLK
  5
   2A0
  8
0
  6
CONTINUOUS
 62
     7
  0
BLOCK
  5
   2A1
  8
0
  6
CONTINUOUS
 62
     7
  2
*UDIM1243
 70
    65
 10
0.0
 20
0.0
 30
0.0
  3
*UDIM1243
  0
TEXT
  5
   2A2
  8
0
  6
CONTINUOUS
 62
     7
 10
4.00852202310435
 20
70.1611815918496
 30
0.0
 40
3.00000002980232
  1
161
 50
449.999999844103
 41
0.933333333333333
 72
     1
 11
2.50852201879025
 21
74.0611816346645
 31
0.0
 73
     2
  0
LINE
  5
   2A3
  8
0
  6
CONTINUOUS
 62
     7
 10
10.6517333984375
 20
94.461181640625
 30
0.0
 11
3.00852203369141
 21
94.461181640625
 31
0.0
  0
LINE
  5
   2A4
  8
0
  6
CONTINUOUS
 62
     7
 10
10.6517333984375
 20
54.211181640625
 30
0.0
 11
3.00852203369141
 21
54.211181640625
 31
0.0
  0
LINE
  5
   2A5
  8
0
  6
CONTINUOUS
 62
     7
 10
5.00852203369141
 20
94.461181640625
 30
0.0
 11
5.00852203369141
 21
54.211181640625
 31
0.0
  0
LINE
  5
   2A6
  8
0
  6
CONTINUOUS
 62
     7
 10
5.52946646364307
 20
91.506758363418
 30
0.0
 11
5.00852203369141
 21
94.461181640625
 31
0.0
  0
LINE
  5
   2A7
  8
0
  6
CONTINUOUS
 62
     7
 10
5.00852203369141
 20
94.461181640625
 30
0.0
 11
4.48757760373974
 21
91.506758363418
 31
0.0
  0
LINE
  5
   2A8
  8
0
  6
CONTINUOUS
 62
     7
 10
4.48757760373974
 20
57.165604917832
 30
0.0
 11
5.00852203369141
 21
54.211181640625
 31
0.0
  0
LINE
  5
   2A9
  8
0
  6
CONTINUOUS
 62
     7
 10
5.00852203369141
 20
54.211181640625
 30
0.0
 11
5.52946646364307
 21
57.165604917832
 31
0.0
  0
ENDBLK
  5
   2AA
  8
0
  6
CONTINUOUS
 62
     7
  0
BLOCK
  5
   2AB
  8
0
  6
CONTINUOUS
 62
     7
  2
*UDIM1244
 70
    65
 10
0.0
 20
0.0
 30
0.0
  3
*UDIM1244
  0
TEXT
  5
   2AC
  8
0
  6
CONTINUOUS
 62
     7
 10
88.5694923295008
 20
70.1611815918496
 30
0.0
 40
3.00000002980232
  1
177
 50
449.999999844103
 41
0.933333333333333
 72
     1
 11
87.0694923251867
 21
74.0611816346645
 31
0.0
 73
     2
  0
LINE
  5
   2AD
  8
0
  6
CONTINUOUS
 62
     7
 10
61.9017333984375
 20
96.461181640625
 30
0.0
 11
91.5694923400879
 21
96.461181640625
 31
0.0
  0
LINE
  5
   2AE
  8
0
  6
CONTINUOUS
 62
     7
 10
61.9017333984375
 20
52.211181640625
 30
0.0
 11
91.5694923400879
 21
52.211181640625
 31
0.0
  0
LINE
  5
   2AF
  8
0
  6
CONTINUOUS
 62
     7
 10
89.5694923400879
 20
96.461181640625
 30
0.0
 11
89.5694923400879
 21
52.211181640625
 31
0.0
  0
LINE
  5
   2B0
  8
0
  6
CONTINUOUS
 62
     7
 10
90.0904367700396
 20
93.5067583634181
 30
0.0
 11
89.5694923400879
 21
96.461181640625
 31
0.0
  0
LINE
  5
   2B1
  8
0
  6
CONTINUOUS
 62
     7
 10
89.5694923400879
 20
96.461181640625
 30
0.0
 11
89.0485479101362
 21
93.5067583634181
 31
0.0
  0
LINE
  5
   2B2
  8
0
  6
CONTINUOUS
 62
     7
 10
89.0485479101362
 20
55.165604917832
 30
0.0
 11
89.5694923400879
 21
52.211181640625
 31
0.0
  0
LINE
  5
   2B3
  8
0
  6
CONTINUOUS
 62
     7
 10
89.5694923400879
 20
52.211181640625
 30
0.0
 11
90.0904367700396
 21
55.165604917832
 31
0.0
  0
ENDBLK
  5
   2B4
  8
0
  6
CONTINUOUS
 62
     7
  0
BLOCK
  5
   2B5
  8
0
  6
CONTINUOUS
 62
     7
  2
*UDIM1245
 70
    65
 10
0.0
 20
0.0
 30
0.0
  3
*UDIM1245
  0
TEXT
  5
   2B6
  8
0
  6
CONTINUOUS
 62
     7
 10
81.9224624603928
 20
83.585022935173
 30
0.0
 40
3.00000002980232
  1
=
 50
449.999999844103
 41
0.933333333333334
 72
     1
 11
80.4224624484777
 21
84.6850229501724
 31
0.0
 73
     2
  0
LINE
  5
   2B7
  8
0
  6
CONTINUOUS
 62
     7
 10
61.9017333984375
 20
96.461181640625
 30
0.0
 11
84.9224624633789
 21
96.461181640625
 31
0.0
  0
LINE
  5
   2B8
  8
0
  6
CONTINUOUS
 62
     7
 10
76.2342013910815
 20
74.336181640625
 30
0.0
 11
84.9224624633789
 21
74.336181640625
 31
0.0
  0
LINE
  5
   2B9
  8
0
  6
CONTINUOUS
 62
     7
 10
82.9224624633789
 20
96.461181640625
 30
0.0
 11
82.9224624633789
 21
74.336181640625
 31
0.0
  0
LINE
  5
   2BA
  8
0
  6
CONTINUOUS
 62
     7
 10
83.4434068933306
 20
93.5067583634181
 30
0.0
 11
82.9224624633789
 21
96.461181640625
 31
0.0
  0
LINE
  5
   2BB
  8
0
  6
CONTINUOUS
 62
     7
 10
82.9224624633789
 20
96.461181640625
 30
0.0
 11
82.4015180334272
 21
93.5067583634181
 31
0.0
  0
LINE
  5
   2BC
  8
0
  6
CONTINUOUS
 62
     7
 10
82.4015180334272
 20
77.290604917832
 30
0.0
 11
82.9224624633789
 21
74.336181640625
 31
0.0
  0
LINE
  5
   2BD
  8
0
  6
CONTINUOUS
 62
     7
 10
82.9224624633789
 20
74.336181640625
 30
0.0
 11
83.4434068933306
 21
77.290604917832
 31
0.0
  0
ENDBLK
  5
   2BE
  8
0
  6
CONTINUOUS
 62
     7
  0
BLOCK
  5
   2BF
  8
0
  6
CONTINUOUS
 62
     7
  2
*UDIM1246
 70
    65
 10
0.0
 20
0.0
 30
0.0
  3
*UDIM1246
  0
TEXT
  5
   2C0
  8
0
  6
CONTINUOUS
 62
     7
 10
81.9224624603928
 20
61.285308846733
 30
0.0
 40
3.00000002980232
  1
=
 50
449.999999844103
 41
0.933333333333334
 72
     1
 11
80.4224624484777
 21
62.3853088617325
 31
0.0
 73
     2
  0
LINE
  5
   2C1
  8
0
  6
CONTINUOUS
 62
     7
 10
61.9017333984375
 20
52.211181640625
 30
0.0
 11
84.9224624633789
 21
52.211181640625
 31
0.0
  0
LINE
  5
   2C2
  8
0
  6
CONTINUOUS
 62
     7
 10
82.9224624633789
 20
74.336181640625
 30
0.0
 11
82.9224624633789
 21
52.211181640625
 31
0.0
  0
LINE
  5
   2C3
  8
0
  6
CONTINUOUS
 62
     7
 10
83.4434068933306
 20
71.381758363418
 30
0.0
 11
82.9224624633789
 21
74.336181640625
 31
0.0
  0
LINE
  5
   2C4
  8
0
  6
CONTINUOUS
 62
     7
 10
82.9224624633789
 20
74.336181640625
 30
0.0
 11
82.4015180334272
 21
71.381758363418
 31
0.0
  0
LINE
  5
   2C5
  8
0
  6
CONTINUOUS
 62
     7
 10
82.4015180334272
 20
55.165604917832
 30
0.0
 11
82.9224624633789
 21
52.211181640625
 31
0.0
  0
LINE
  5
   2C6
  8
0
  6
CONTINUOUS
 62
     7
 10
82.9224624633789
 20
52.211181640625
 30
0.0
 11
83.4434068933306
 21
55.165604917832
 31
0.0
  0
ENDBLK
  5
   2C7
  8
0
  6
CONTINUOUS
 62
     7
  0
BLOCK
  5
   2C8
  8
0
  6
CONTINUOUS
 62
     7
  2
*UDIM1247
 70
    65
 10
0.0
 20
0.0
 30
0.0
  3
*UDIM1247
  0
TEXT
  5
   2C9
  8
0
  6
CONTINUOUS
 62
     7
 10
47.5206575363816
 20
77.3361815302581
 30
0.0
 40
3.00000002980232
  1
9
 50
449.999999844103
 41
0.933333333333334
 72
     1
 11
46.0206575244665
 21
78.4361815452576
 31
0.0
 73
     2
  0
LINE
  5
   2CA
  8
0
  6
CONTINUOUS
 62
     7
 10
63.2767333984375
 20
72.086181640625
 30
0.0
 11
46.5206575393677
 21
72.086181640625
 31
0.0
  0
LINE
  5
   2CB
  8
0
  6
CONTINUOUS
 62
     7
 10
48.5206575393677
 20
79.5361815561851
 30
0.0
 11
48.5206575393677
 21
72.086181640625
 31
0.0
  0
LINE
  5
   2CC
  8
0
  6
CONTINUOUS
 62
     7
 10
47.999713109416
 20
77.290604917832
 30
0.0
 11
48.5206575393677
 21
74.336181640625
 31
0.0
  0
LINE
  5
   2CD
  8
0
  6
CONTINUOUS
 62
     7
 10
48.5206575393677
 20
74.336181640625
 30
0.0
 11
49.0416019693193
 21
77.290604917832
 31
0.0
  0
LINE
  5
   2CE
  8
0
  6
CONTINUOUS
 62
     7
 10
49.0416019693193
 20
69.131758363418
 30
0.0
 11
48.5206575393677
 21
72.086181640625
 31
0.0
  0
LINE
  5
   2CF
  8
0
  6
CONTINUOUS
 62
     7
 10
48.5206575393677
 20
72.086181640625
 30
0.0
 11
47.999713109416
 21
69.131758363418
 31
0.0
  0
ENDBLK
  5
   2D0
  8
0
  6
CONTINUOUS
 62
     7
  0
BLOCK
  5
   2D1
  8
0
  6
CONTINUOUS
 62
     7
  2
*UDIM1248
 70
    65
 10
0.0
 20
0.0
 30
0.0
  3
*UDIM1248
  0
TEXT
  5
   2D2
  8
0
  6
CONTINUOUS
 62
     7
 10
47.5206575325811
 20
64.9200750002275
 30
0.0
 40
3.00000002980232
  1
39
 50
449.999999844103
 41
0.933333333333333
 72
     1
 11
46.0206575244665
 21
67.4200750291348
 31
0.0
 73
     2
  0
LINE
  5
   2D3
  8
0
  6
CONTINUOUS
 62
     7
 10
63.2767333984375
 20
62.336181640625
 30
0.0
 11
46.5206575393677
 21
62.336181640625
 31
0.0
  0
LINE
  5
   2D4
  8
0
  6
CONTINUOUS
 62
     7
 10
48.5206575393677
 20
72.086181640625
 30
0.0
 11
48.5206575393677
 21
62.336181640625
 31
0.0
  0
LINE
  5
   2D5
  8
0
  6
CONTINUOUS
 62
     7
 10
47.999713109416
 20
75.040604917832
 30
0.0
 11
48.5206575393677
 21
72.086181640625
 31
0.0
  0
LINE
  5
   2D6
  8
0
  6
CONTINUOUS
 62
     7
 10
48.5206575393677
 20
72.086181640625
 30
0.0
 11
49.0416019693193
 21
75.040604917832
 31
0.0
  0
LINE
  5
   2D7
  8
0
  6
CONTINUOUS
 62
     7
 10
49.0416019693193
 20
59.381758363418
 30
0.0
 11
48.5206575393677
 21
62.336181640625
 31
0.0
  0
LINE
  5
   2D8
  8
0
  6
CONTINUOUS
 62
     7
 10
48.5206575393677
 20
62.336181640625
 30
0.0
 11
47.999713109416
 21
59.381758363418
 31
0.0
  0
ENDBLK
  5
   2D9
  8
0
  6
CONTINUOUS
 62
     7
  0
BLOCK
  5
   2DA
  8
0
  6
CONTINUOUS
 62
     7
  2
*UDIM1249
 70
    65
 10
0.0
 20
0.0
 30
0.0
  3
*UDIM1249
  0
TEXT
  5
   2DB
  8
0
  6
CONTINUOUS
 62
     7
 10
44.9767333496602
 20
25.0588111983361
 30
0.0
 40
3.00000002980232
  1
121
 50
359.999999844103
 41
0.933333333333333
 72
     1
 11
48.876733392477
 21
26.5588112026453
 31
0.0
 73
     2
  0
LINE
  5
   2DC
  8
0
  6
CONTINUOUS
 62
     7
 10
34.0267333984375
 20
43.664972966091
 30
0.0
 11
34.0267333984375
 21
22.0588111877441
 31
0.0
  0
LINE
  5
   2DD
  8
0
  6
CONTINUOUS
 62
     7
 10
64.2767333984375
 20
60.586181640625
 30
0.0
 11
64.2767333984375
 21
22.0588111877441
 31
0.0
  0
LINE
  5
   2DE
  8
0
  6
CONTINUOUS
 62
     7
 10
34.0267333984375
 20
24.0588111877441
 30
0.0
 11
64.2767333984375
 21
24.0588111877441
 31
0.0
  0
LINE
  5
   2DF
  8
0
  6
CONTINUOUS
 62
     7
 10
36.9811566756445
 20
24.5797556176958
 30
0.0
 11
34.0267333984375
 21
24.0588111877441
 31
0.0
  0
LINE
  5
   2E0
  8
0
  6
CONTINUOUS
 62
     7
 10
34.0267333984375
 20
24.0588111877441
 30
0.0
 11
36.9811566756445
 21
23.5378667577925
 31
0.0
  0
LINE
  5
   2E1
  8
0
  6
CONTINUOUS
 62
     7
 10
61.3223101212305
 20
23.5378667577925
 30
0.0
 11
64.2767333984375
 21
24.0588111877441
 31
0.0
  0
LINE
  5
   2E2
  8
0
  6
CONTINUOUS
 62
     7
 10
64.2767333984375
 20
24.0588111877441
 30
0.0
 11
61.3223101212305
 21
24.5797556176958
 31
0.0
  0
ENDBLK
  5
   2E3
  8
0
  6
CONTINUOUS
 62
     7
  0
BLOCK
  5
   2E4
  8
0
  6
CONTINUOUS
 62
     7
  2
*UDIM1250
 70
    65
 10
0.0
 20
0.0
 30
0.0
  3
*UDIM1250
  0
TEXT
  5
   2E5
  8
0
  6
CONTINUOUS
 62
     7
 10
68.8529295632235
 20
43.7491169043727
 30
0.0
 40
3.00000002980232
  1
16
 50
359.999999844103
 41
0.933333333333333
 72
     1
 11
71.3529295921326
 21
45.2491169124842
 31
0.0
 73
     2
  0
LINE
  5
   2E6
  8
0
  6
CONTINUOUS
 62
     7
 10
62.2767333984375
 20
63.336181640625
 30
0.0
 11
62.2767333984375
 21
40.749116897583
 31
0.0
  0
LINE
  5
   2E7
  8
0
  6
CONTINUOUS
 62
     7
 10
66.2767333984375
 20
63.336181640625
 30
0.0
 11
66.2767333984375
 21
40.749116897583
 31
0.0
  0
LINE
  5
   2E8
  8
0
  6
CONTINUOUS
 62
     7
 10
62.2767333984375
 20
42.749116897583
 30
0.0
 11
73.8529296169678
 21
42.749116897583
 31
0.0
  0
LINE
  5
   2E9
  8
0
  6
CONTINUOUS
 62
     7
 10
59.3223101212305
 20
42.2281724676313
 30
0.0
 11
62.2767333984375
 21
42.749116897583
 31
0.0
  0
LINE
  5
   2EA
  8
0
  6
CONTINUOUS
 62
     7
 10
62.2767333984375
 20
42.749116897583
 30
0.0
 11
59.3223101212305
 21
43.2700613275347
 31
0.0
  0
LINE
  5
   2EB
  8
0
  6
CONTINUOUS
 62
     7
 10
69.2311566756445
 20
43.2700613275347
 30
0.0
 11
66.2767333984375
 21
42.749116897583
 31
0.0
  0
LINE
  5
   2EC
  8
0
  6
CONTINUOUS
 62
     7
 10
66.2767333984375
 20
42.749116897583
 30
0.0
 11
69.2311566756445
 21
42.2281724676313
 31
0.0
  0
ENDBLK
  5
   2ED
  8
0
  6
CONTINUOUS
 62
     7
  0
BLOCK
  5
   2EE
  8
0
  6
CONTINUOUS
 62
     7
  2
*UDIM1251
 70
    65
 10
0.0
 20
0.0
 30
0.0
  3
*UDIM1251
  0
TEXT
  5
   2EF
  8
0
  6
CONTINUOUS
 62
     7
 10
31.9892333218447
 20
30.9911079588703
 30
0.0
 40
3.00000002980232
  1
162,5
 50
359.999999844103
 41
0.933333333333333
 72
     1
 11
38.689233392477
 21
32.491107955575
 31
0.0
 73
     2
  0
LINE
  5
   2F0
  8
0
  6
CONTINUOUS
 62
     7
 10
18.6517333984375
 20
49.586181640625
 30
0.0
 11
18.6517333984375
 21
27.9911079406738
 31
0.0
  0
LINE
  5
   2F1
  8
0
  6
CONTINUOUS
 62
     7
 10
59.2767333984375
 20
49.586181640625
 30
0.0
 11
59.2767333984375
 21
27.9911079406738
 31
0.0
  0
LINE
  5
   2F2
  8
0
  6
CONTINUOUS
 62
     7
 10
18.6517333984375
 20
29.9911079406738
 30
0.0
 11
59.2767333984375
 21
29.9911079406738
 31
0.0
  0
LINE
  5
   2F3
  8
0
  6
CONTINUOUS
 62
     7
 10
21.6061566756445
 20
30.5120523706255
 30
0.0
 11
18.6517333984375
 21
29.9911079406738
 31
0.0
  0
LINE
  5
   2F4
  8
0
  6
CONTINUOUS
 62
     7
 10
18.6517333984375
 20
29.9911079406738
 30
0.0
 11
21.6061566756445
 21
29.4701635107222
 31
0.0
  0
LINE
  5
   2F5
  8
0
  6
CONTINUOUS
 62
     7
 10
56.3223101212305
 20
29.4701635107222
 30
0.0
 11
59.2767333984375
 21
29.9911079406738
 31
0.0
  0
LINE
  5
   2F6
  8
0
  6
CONTINUOUS
 62
     7
 10
59.2767333984375
 20
29.9911079406738
 30
0.0
 11
56.3223101212305
 21
30.5120523706255
 31
0.0
  0
ENDBLK
  5
   2F7
  8
0
  6
CONTINUOUS
 62
     7
  0
BLOCK
  5
   2F8
  8
0
  6
CONTINUOUS
 62
     7
  2
*UDIM1252
 70
    65
 10
0.0
 20
0.0
 30
0.0
  3
*UDIM1252
  0
TEXT
  5
   2F9
  8
0
  6
CONTINUOUS
 62
     7
 10
42.4767333496602
 20
37.6381378279748
 30
0.0
 40
3.00000002980232
  1
101
 50
359.999999844103
 41
0.933333333333333
 72
     1
 11
46.376733392477
 21
39.138137832284
 31
0.0
 73
     2
  0
LINE
  5
   2FA
  8
0
  6
CONTINUOUS
 62
     7
 10
34.0267333984375
 20
43.664972966091
 30
0.0
 11
34.0267333984375
 21
34.6381378173828
 31
0.0
  0
LINE
  5
   2FB
  8
0
  6
CONTINUOUS
 62
     7
 10
59.2767333984375
 20
49.586181640625
 30
0.0
 11
59.2767333984375
 21
34.6381378173828
 31
0.0
  0
LINE
  5
   2FC
  8
0
  6
CONTINUOUS
 62
     7
 10
34.0267333984375
 20
36.6381378173828
 30
0.0
 11
59.2767333984375
 21
36.6381378173828
 31
0.0
  0
LINE
  5
   2FD
  8
0
  6
CONTINUOUS
 62
     7
 10
36.9811566756445
 20
37.1590822473345
 30
0.0
 11
34.0267333984375
 21
36.6381378173828
 31
0.0
  0
LINE
  5
   2FE
  8
0
  6
CONTINUOUS
 62
     7
 10
34.0267333984375
 20
36.6381378173828
 30
0.0
 11
36.9811566756445
 21
36.1171933874312
 31
0.0
  0
LINE
  5
   2FF
  8
0
  6
CONTINUOUS
 62
     7
 10
56.3223101212305
 20
36.1171933874312
 30
0.0
 11
59.2767333984375
 21
36.6381378173828
 31
0.0
  0
LINE
  5
   300
  8
0
  6
CONTINUOUS
 62
     7
 10
59.2767333984375
 20
36.6381378173828
 30
0.0
 11
56.3223101212305
 21
37.1590822473345
 31
0.0
  0
ENDBLK
  5
   301
  8
0
  6
CONTINUOUS
 62
     7
  0
BLOCK
  5
   302
  8
0
  6
CONTINUOUS
 62
     7
  2
*UDIM1253
 70
    65
 10
0.0
 20
0.0
 30
0.0
  3
*UDIM1253
  0
TEXT
  5
   303
  8
0
  6
CONTINUOUS
 62
     7
 10
17.1767337092749
 20
44.4281139555744
 30
0.0
 40
3.00000002980232
  1
19,75
 50
359.999999844103
 41
0.933333333333333
 72
     1
 11
23.8767337799072
 21
45.9281139522791
 31
0.0
 73
     2
  0
LINE
  5
   304
  8
0
  6
CONTINUOUS
 62
     7
 10
34.0267333984375
 20
43.664972966091
 30
0.0
 11
34.0267333984375
 21
41.4281139373779
 31
0.0
  0
LINE
  5
   305
  8
0
  6
CONTINUOUS
 62
     7
 10
38.9642333984375
 20
49.586181640625
 30
0.0
 11
38.9642333984375
 21
41.4281139373779
 31
0.0
  0
LINE
  5
   306
  8
0
  6
CONTINUOUS
 62
     7
 10
17.1767337133487
 20
43.4281139373779
 30
0.0
 11
38.9642333984375
 21
43.4281139373779
 31
0.0
  0
LINE
  5
   307
  8
0
  6
CONTINUOUS
 62
     7
 10
31.0723101212305
 20
42.9071695074263
 30
0.0
 11
34.0267333984375
 21
43.4281139373779
 31
0.0
  0
LINE
  5
   308
  8
0
  6
CONTINUOUS
 62
     7
 10
34.0267333984375
 20
43.4281139373779
 30
0.0
 11
31.0723101212305
 21
43.9490583673296
 31
0.0
  0
LINE
  5
   309
  8
0
  6
CONTINUOUS
 62
     7
 10
41.9186566756445
 20
43.9490583673296
 30
0.0
 11
38.9642333984375
 21
43.4281139373779
 31
0.0
  0
LINE
  5
   30A
  8
0
  6
CONTINUOUS
 62
     7
 10
38.9642333984375
 20
43.4281139373779
 30
0.0
 11
41.9186566756445
 21
42.9071695074263
 31
0.0
  0
ENDBLK
  5
   30B
  8
0
  6
CONTINUOUS
 62
     7
  0
BLOCK
  5
   30C
  8
0
  6
CONTINUOUS
 62
     7
  2
*UDIM1254
 70
    65
 10
0.0
 20
0.0
 30
0.0
  3
*UDIM1254
  0
TEXT
  5
   30D
  8
0
  6
CONTINUOUS
 62
     7
 10
28.7267333496602
 20
116.802410136324
 30
0.0
 40
3.00000002980232
  1
170
 50
359.999999844103
 41
0.933333333333333
 72
     1
 11
32.626733392477
 21
118.302410140634
 31
0.0
 73
     2
  0
LINE
  5
   30E
  8
0
  6
CONTINUOUS
 62
     7
 10
11.6517333984375
 20
95.461181640625
 30
0.0
 11
11.6517333984375
 21
117.802410125732
 31
0.0
  0
LINE
  5
   30F
  8
0
  6
CONTINUOUS
 62
     7
 10
54.1517333984375
 20
95.461181640625
 30
0.0
 11
54.1517333984375
 21
117.802410125732
 31
0.0
  0
LINE
  5
   310
  8
0
  6
CONTINUOUS
 62
     7
 10
11.6517333984375
 20
115.802410125732
 30
0.0
 11
54.1517333984375
 21
115.802410125732
 31
0.0
  0
LINE
  5
   311
  8
0
  6
CONTINUOUS
 62
     7
 10
14.6061566756445
 20
116.323354555684
 30
0.0
 11
11.6517333984375
 21
115.802410125732
 31
0.0
  0
LINE
  5
   312
  8
0
  6
CONTINUOUS
 62
     7
 10
11.6517333984375
 20
115.802410125732
 30
0.0
 11
14.6061566756445
 21
115.281465695781
 31
0.0
  0
LINE
  5
   313
  8
0
  6
CONTINUOUS
 62
     7
 10
51.1973101212305
 20
115.281465695781
 30
0.0
 11
54.1517333984375
 21
115.802410125732
 31
0.0
  0
LINE
  5
   314
  8
0
  6
CONTINUOUS
 62
     7
 10
54.1517333984375
 20
115.802410125732
 30
0.0
 11
51.1973101212305
 21
116.323354555684
 31
0.0
  0
ENDBLK
  5
   315
  8
0
  6
CONTINUOUS
 62
     7
  0
BLOCK
  5
   316
  8
0
  6
CONTINUOUS
 62
     7
  2
*UDIM1255
 70
    65
 10
0.0
 20
0.0
 30
0.0
  3
*UDIM1255
  0
TEXT
  5
   317
  8
0
  6
CONTINUOUS
 62
     7
 10
38.5142333357524
 20
111.191745772451
 30
0.0
 40
3.00000002980232
  1
80,5
 50
359.999999844103
 41
0.933333333333333
 72
     1
 11
43.814233392477
 21
112.691745772958
 31
0.0
 73
     2
  0
LINE
  5
   318
  8
0
  6
CONTINUOUS
 62
     7
 10
34.0267333984375
 20
106.413879555245
 30
0.0
 11
34.0267333984375
 21
112.191745758057
 31
0.0
  0
LINE
  5
   319
  8
0
  6
CONTINUOUS
 62
     7
 10
54.1517333984375
 20
95.461181640625
 30
0.0
 11
54.1517333984375
 21
112.191745758057
 31
0.0
  0
LINE
  5
   31A
  8
0
  6
CONTINUOUS
 62
     7
 10
34.0267333984375
 20
110.191745758057
 30
0.0
 11
54.1517333984375
 21
110.191745758057
 31
0.0
  0
LINE
  5
   31B
  8
0
  6
CONTINUOUS
 62
     7
 10
36.9811566756445
 20
110.712690188008
 30
0.0
 11
34.0267333984375
 21
110.191745758057
 31
0.0
  0
LINE
  5
   31C
  8
0
  6
CONTINUOUS
 62
     7
 10
34.0267333984375
 20
110.191745758057
 30
0.0
 11
36.9811566756445
 21
109.670801328105
 31
0.0
  0
LINE
  5
   31D
  8
0
  6
CONTINUOUS
 62
     7
 10
51.1973101212305
 20
109.670801328105
 30
0.0
 11
54.1517333984375
 21
110.191745758057
 31
0.0
  0
LINE
  5
   31E
  8
0
  6
CONTINUOUS
 62
     7
 10
54.1517333984375
 20
110.191745758057
 30
0.0
 11
51.1973101212305
 21
110.712690188008
 31
0.0
  0
ENDBLK
  5
   31F
  8
0
  6
CONTINUOUS
 62
     7
  0
BLOCK
  5
   320
  8
0
  6
CONTINUOUS
 62
     7
  2
*UDIM1256
 70
    65
 10
0.0
 20
0.0
 30
0.0
  3
*UDIM1256
  0
TEXT
  5
   321
  8
0
  6
CONTINUOUS
 62
     7
 10
36.8813536772123
 20
105.795499808425
 30
0.0
 40
3.00000002980232
  1
45
 50
359.999999844103
 41
0.933333333333333
 72
     1
 11
39.3813537061214
 21
107.295499816537
 31
0.0
 73
     2
  0
LINE
  5
   322
  8
0
  6
CONTINUOUS
 62
     7
 10
33.3392333984375
 20
99.506181640625
 30
0.0
 11
33.3392333984375
 21
106.795499801636
 31
0.0
  0
LINE
  5
   323
  8
0
  6
CONTINUOUS
 62
     7
 10
44.5892333984375
 20
99.506181640625
 30
0.0
 11
44.5892333984375
 21
106.795499801636
 31
0.0
  0
LINE
  5
   324
  8
0
  6
CONTINUOUS
 62
     7
 10
33.3392333984375
 20
104.795499801636
 30
0.0
 11
44.5892333984375
 21
104.795499801636
 31
0.0
  0
LINE
  5
   325
  8
0
  6
CONTINUOUS
 62
     7
 10
30.3848101212305
 20
104.274555371684
 30
0.0
 11
33.3392333984375
 21
104.795499801636
 31
0.0
  0
LINE
  5
   326
  8
0
  6
CONTINUOUS
 62
     7
 10
33.3392333984375
 20
104.795499801636
 30
0.0
 11
30.3848101212305
 21
105.316444231587
 31
0.0
  0
LINE
  5
   327
  8
0
  6
CONTINUOUS
 62
     7
 10
47.5436566756445
 20
105.316444231587
 30
0.0
 11
44.5892333984375
 21
104.795499801636
 31
0.0
  0
LINE
  5
   328
  8
0
  6
CONTINUOUS
 62
     7
 10
44.5892333984375
 20
104.795499801636
 30
0.0
 11
47.5436566756445
 21
104.274555371684
 31
0.0
  0
ENDBLK
  5
   329
  8
0
  6
CONTINUOUS
 62
     7
  0
BLOCK
  5
   32A
  8
0
  6
CONTINUOUS
 62
     7
  2
*HATCH269
 70
    65
 10
0.0
 20
0.0
 30
0.0
  3
*HATCH269
  0
LINE
  5
   32B
  8
0
  6
CONTINUOUS
 62
    52
 10
-11.7279224395752
 20
1.0
 30
0.0
 11
-11.9763488769531
 21
0.75157368183136
 31
0.0
  0
LINE
  5
   32C
  8
0
  6
CONTINUOUS
 62
    52
 10
-9.60660171508789
 20
1.0
 30
0.0
 11
-11.6066026687622
 21
-1.0
 31
0.0
  0
LINE
  5
   32D
  8
0
  6
CONTINUOUS
 62
    52
 10
-7.48528146743774
 20
1.0
 30
0.0
 11
-9.48528289794922
 21
-1.0
 31
0.0
  0
LINE
  5
   32E
  8
0
  6
CONTINUOUS
 62
    52
 10
-5.3639612197876
 20
1.0
 30
0.0
 11
-7.36396265029907
 21
-1.0
 31
0.0
  0
LINE
  5
   32F
  8
0
  6
CONTINUOUS
 62
    52
 10
-3.47947335243225
 20
0.763167560100555
 30
0.0
 11
-5.24264097213745
 21
-1.0
 31
0.0
  0
LINE
  5
   330
  8
0
  6
CONTINUOUS
 62
    52
 10
-2.51160907745361
 20
-0.390288293361664
 30
0.0
 11
-3.1213207244873
 21
-1.0
 31
0.0
  0
ENDBLK
  5
   331
  8
0
  6
CONTINUOUS
 62
     7
  0
BLOCK
  5
   332
  8
0
  6
CONTINUOUS
 62
     7
  2
*HATCH270
 70
    65
 10
0.0
 20
0.0
 30
0.0
  3
*HATCH270
  0
LINE
  5
   333
  8
0
  6
CONTINUOUS
 62
    52
 10
5.24264097213745
 20
1.0
 30
0.0
 11
3.24264073371887
 21
-1.0
 31
0.0
  0
LINE
  5
   334
  8
0
  6
CONTINUOUS
 62
    52
 10
7.3639612197876
 20
1.0
 30
0.0
 11
5.3639612197876
 21
-1.0
 31
0.0
  0
LINE
  5
   335
  8
0
  6
CONTINUOUS
 62
    52
 10
9.48528099060059
 20
1.0
 30
0.0
 11
7.4852819442749
 21
-1.0
 31
0.0
  0
ENDBLK
  5
   336
  8
0
  6
CONTINUOUS
 62
     7
  0
BLOCK
  5
   337
  8
0
  6
CONTINUOUS
 62
     7
  2
*UDIM1257
 70
    65
 10
0.0
 20
0.0
 30
0.0
  3
*UDIM1257
  0
TEXT
  5
   338
  8
0
  6
CONTINUOUS
 62
     7
 10
-104.898546453549
 20
-104.012874676059
 30
0.0
 40
3.00000002980232
  1
80
 50
449.241125536518
 41
0.933333333333333
 72
     1
 11
-106.365303723484
 21
-101.493227224535
 31
0.0
 73
     2
  0
TEXT
  5
   339
  8
0
  6
CONTINUOUS
 62
     7
 10
-105.432271487811
 20
-99.0053665046129
 30
0.0
 40
3.00000002980232
  1
°
 50
449.241125536518
 41
0.933333333333334
 72
     1
 11
-106.917571016973
 21
-97.885596270406
 31
0.0
 73
     2
  0
LINE
  5
   33A
  8
0
  6
CONTINUOUS
 62
     7
 10
-121.960975820553
 20
-104.43933404001
 30
0.0
 11
-107.759008654322
 21
-116.356199451186
 31
0.0
  0
LINE
  5
   33B
  8
0
  6
CONTINUOUS
 62
     7
 10
-121.960975820553
 20
-95.7973602959276
 30
0.0
 11
-107.759008654322
 21
-83.8804948847518
 31
0.0
  0
ARC
  5
   33C
  8
0
  6
CONTINUOUS
 62
     7
 10
-127.11052744886
 20
-100.118347167969
 30
0.0
 40
23.2616136940404
 50
319.999999815233
 51
399.999999769042
  0
LINE
  5
   33D
  8
0
  6
CONTINUOUS
 62
     7
 10
-107.79109744994
 20
-112.472548072779
 30
0.0
 11
-109.29109754056
 21
-115.070624231813
 31
0.0
  0
LINE
  5
   33E
  8
0
  6
CONTINUOUS
 62
     7
 10
-109.29109754056
 20
-115.070624231813
 30
0.0
 11
-106.992964278464
 21
-113.142261322595
 31
0.0
  0
LINE
  5
   33F
  8
0
  6
CONTINUOUS
 62
     7
 10
-106.992964278464
 20
-87.0944330133425
 30
0.0
 11
-109.29109754056
 21
-85.1660701041249
 31
0.0
  0
LINE
  5
   340
  8
0
  6
CONTINUOUS
 62
     7
 10
-109.29109754056
 20
-85.1660701041249
 30
0.0
 11
-107.79109744994
 21
-87.7641462631588
 31
0.0
  0
ENDBLK
  5
   341
  8
0
  6
CONTINUOUS
 62
     7
  0
BLOCK
  5
   342
  8
0
  6
CONTINUOUS
 62
     7
  2
*UDIM1258
 70
    65
 10
0.0
 20
0.0
 30
0.0
  3
*UDIM1258
  0
TEXT
  5
   343
  8
0
  6
CONTINUOUS
 62
     7
 10
-145.172687537304
 20
-94.233280210792
 30
0.0
 40
3.00000002980232
  1
Ø4
 50
449.999999844103
 41
0.933333333333333
 72
     1
 11
-146.672687545419
 21
-91.7332801818848
 31
0.0
 73
     2
  0
LINE
  5
   344
  8
0
  6
CONTINUOUS
 62
     7
 10
-125.727020263672
 20
-98.1183471679688
 30
0.0
 11
-146.172687530518
 21
-98.1183471679688
 31
0.0
  0
LINE
  5
   345
  8
0
  6
CONTINUOUS
 62
     7
 10
-125.727020263672
 20
-102.118347167969
 30
0.0
 11
-146.172687530518
 21
-102.118347167969
 31
0.0
  0
LINE
  5
   346
  8
0
  6
CONTINUOUS
 62
     7
 10
-144.172687530518
 20
-89.2332801570495
 30
0.0
 11
-144.172687530518
 21
-102.118347167969
 31
0.0
  0
LINE
  5
   347
  8
0
  6
CONTINUOUS
 62
     7
 10
-144.693631960469
 20
-95.1639238907618
 30
0.0
 11
-144.172687530518
 21
-98.1183471679688
 31
0.0
  0
LINE
  5
   348
  8
0
  6
CONTINUOUS
 62
     7
 10
-144.172687530518
 20
-98.1183471679688
 30
0.0
 11
-143.651743100566
 21
-95.1639238907618
 31
0.0
  0
LINE
  5
   349
  8
0
  6
CONTINUOUS
 62
     7
 10
-143.651743100566
 20
-105.072770445176
 30
0.0
 11
-144.172687530518
 21
-102.118347167969
 31
0.0
  0
LINE
  5
   34A
  8
0
  6
CONTINUOUS
 62
     7
 10
-144.172687530518
 20
-102.118347167969
 30
0.0
 11
-144.693631960469
 21
-105.072770445176
 31
0.0
  0
ENDBLK
  5
   34B
  8
0
  6
CONTINUOUS
 62
     7
  0
ENDSEC
  0
SECTION
  2
ENTITIES
  0
LINE
  5
   34C
  8
0
  6
CONTINUOUS
 62
     1
 10
-41.9791912138462
 20
16.5575508239865
 30
0.0
 11
-41.9791912138462
 21
22.4375508490205
 31
0.0
  0
LINE
  5
   34D
  8
0
  6
CONTINUOUS
 62
     1
 10
-40.0191912055016
 20
16.5575508239865
 30
0.0
 11
-40.0191912055016
 21
22.4375508490205
 31
0.0
  0
LINE
  5
   34E
  8
0
  6
CONTINUOUS
 62
     1
 10
-41.9791912138462
 20
22.4375508490205
 30
0.0
 11
-41.9791912138462
 21
22.7175508502125
 31
0.0
  0
LINE
  5
   34F
  8
0
  6
CONTINUOUS
 62
     1
 10
-40.0191912033502
 20
22.4375508544477
 30
0.0
 11
-40.0191954758112
 21
22.7175508556398
 31
0.0
  0
LINE
  5
   350
  8
0
  6
CONTINUOUS
 62
     1
 10
-40.0191954622851
 20
22.7175508966987
 30
0.0
 11
-40.0942220131472
 21
22.9975508957606
 31
0.0
  0
LINE
  5
   351
  8
0
  6
CONTINUOUS
 62
     1
 10
-40.0942222967976
 20
22.9975503961221
 30
0.0
 11
-40.2991957402466
 21
23.2025238395712
 31
0.0
  0
LINE
  5
   352
  8
0
  6
CONTINUOUS
 62
     1
 10
-40.299194416625
 20
23.2025250721467
 30
0.0
 11
-40.5791901413295
 21
23.277551622984
 31
0.0
  0
LINE
  5
   353
  8
0
  6
CONTINUOUS
 62
     1
 10
-40.5791912078857
 20
23.2775508525967
 30
0.0
 11
-41.4191933476925
 21
23.2775508525967
 31
0.0
  0
LINE
  5
   354
  8
0
  6
CONTINUOUS
 62
     1
 10
-41.6991961287367
 20
23.2025238057874
 30
0.0
 11
-41.4191939924931
 21
23.2775503566506
 31
0.0
  0
LINE
  5
   355
  8
0
  6
CONTINUOUS
 62
     1
 10
-41.9041706441999
 20
22.9975500896573
 30
0.0
 11
-41.699196122281
 21
23.2025235403393
 31
0.0
  0
LINE
  5
   356
  8
0
  6
CONTINUOUS
 62
     1
 10
-41.97919159535
 20
22.7175500437033
 30
0.0
 11
-41.9041703833841
 21
22.9975500512781
 31
0.0
  0
LINE
  5
   357
  8
0
  6
CONTINUOUS
 62
     1
 10
-41.9791912138462
 20
16.2775508227944
 30
0.0
 11
-41.9791912138462
 21
16.5575508239865
 31
0.0
  0
LINE
  5
   358
  8
0
  6
CONTINUOUS
 62
     1
 10
-40.0191954758111
 20
16.2775508267875
 30
0.0
 11
-40.0191912033502
 21
16.5575508279796
 31
0.0
  0
LINE
  5
   359
  8
0
  6
CONTINUOUS
 62
     1
 10
-40.094222001514
 20
15.9975508638136
 30
0.0
 11
-40.0191954506518
 21
16.2775508628755
 31
0.0
  0
LINE
  5
   35A
  8
0
  6
CONTINUOUS
 62
     1
 10
-40.2991960888564
 20
15.7925757194687
 30
0.0
 11
-40.0942226381745
 21
15.9975502413877
 31
0.0
  0
LINE
  5
   35B
  8
0
  6
CONTINUOUS
 62
     1
 10
-40.5791897702252
 20
15.7175505657313
 30
0.0
 11
-40.2991940455207
 21
15.7925771165686
 31
0.0
  0
LINE
  5
   35C
  8
0
  6
CONTINUOUS
 62
     1
 10
-40.5791912078857
 20
15.717549752295
 30
0.0
 11
-41.4191933476925
 21
15.717549752295
 31
0.0
  0
LINE
  5
   35D
  8
0
  6
CONTINUOUS
 62
     1
 10
-41.4191929248169
 20
15.7175499490427
 30
0.0
 11
-41.6991950598176
 21
15.792577571153
 31
0.0
  0
LINE
  5
   35E
  8
0
  6
CONTINUOUS
 62
     1
 10
-41.6991957737329
 20
15.7925770870254
 30
0.0
 11
-41.9041702956519
 21
15.9975505377073
 31
0.0
  0
LINE
  5
   35F
  8
0
  6
CONTINUOUS
 62
     1
 10
-41.9041702225771
 20
15.9975503600178
 30
0.0
 11
-41.979191434543
 21
16.2775503675926
 31
0.0
  0
LINE
  5
   360
  8
0
  6
CONTINUOUS
 62
     3
 10
-38.8991912007332
 20
39.0975530561805
 30
0.0
 11
-78.0991913676262
 21
39.0975530561805
 31
0.0
  0
LINE
  5
   361
  8
0
  6
CONTINUOUS
 62
     3
 10
-38.8991912007332
 20
-0.102448913157012
 30
0.0
 11
-78.0991913676262
 21
-0.102448913157012
 31
0.0
  0
LINE
  5
   362
  8
0
  6
CONTINUOUS
 62
     1
 10
-39.5291912034154
 20
35.7375530418753
 30
0.0
 11
-77.469191364944
 21
35.7375530418753
 31
0.0
  0
LINE
  5
   363
  8
0
  6
CONTINUOUS
 62
     1
 10
-39.5291912034154
 20
38.5375530537963
 30
0.0
 11
-77.469191364944
 21
38.5375530537963
 31
0.0
  0
LINE
  5
   364
  8
0
  6
CONTINUOUS
 62
     3
 10
-78.0991913676262
 20
-0.102448913157012
 30
0.0
 11
-78.0991913676262
 21
35.7375555118918
 31
0.0
  0
LINE
  5
   365
  8
0
  6
CONTINUOUS
 62
     3
 10
-78.0991913676262
 20
38.5375530537963
 30
0.0
 11
-78.0991913676262
 21
39.0975530561805
 31
0.0
  0
LINE
  5
   366
  8
0
  6
CONTINUOUS
 62
     3
 10
-38.8991912007332
 20
38.5375530537963
 30
0.0
 11
-38.8991912007332
 21
39.0975530561805
 31
0.0
  0
LINE
  5
   367
  8
0
  6
CONTINUOUS
 62
     3
 10
-38.8991912007332
 20
-0.102447110712546
 30
0.0
 11
-38.8991912007332
 21
35.7375530418753
 31
0.0
  0
LINE
  5
   368
  8
0
  6
CONTINUOUS
 62
     3
 10
-48.8391955155134
 20
34.8975509020686
 30
0.0
 11
-77.1191934996843
 21
34.8975509020686
 31
0.0
  0
LINE
  5
   369
  8
0
  6
CONTINUOUS
 62
     3
 10
-48.8391955155134
 20
0.877550623714896
 30
0.0
 11
-77.1191934996843
 21
0.877550623714896
 31
0.0
  0
LINE
  5
   36A
  8
0
  6
CONTINUOUS
 62
     3
 10
-77.1191934996843
 20
0.877550623714896
 30
0.0
 11
-77.1191934996843
 21
34.8975507685542
 31
0.0
  0
LINE
  5
   36B
  8
0
  6
CONTINUOUS
 62
     3
 10
-48.8391955155134
 20
0.877550623714896
 30
0.0
 11
-48.8391955155134
 21
34.8975507685542
 31
0.0
  0
LINE
  5
   36C
  8
0
  6
CONTINUOUS
 62
     1
 10
-39.5291912034154
 20
35.7375530418753
 30
0.0
 11
-39.5291912034154
 21
38.5375530537963
 31
0.0
  0
LINE
  5
   36D
  8
0
  6
CONTINUOUS
 62
     3
 10
-38.8991912007332
 20
35.7375530418753
 30
0.0
 11
-38.8991912007332
 21
38.5375530537963
 31
0.0
  0
LINE
  5
   36E
  8
0
  6
CONTINUOUS
 62
     1
 10
-77.469191364944
 20
35.7375530418753
 30
0.0
 11
-77.469191364944
 21
38.5375530537963
 31
0.0
  0
LINE
  5
   36F
  8
0
  6
CONTINUOUS
 62
     3
 10
-78.0991913676262
 20
35.7375530418753
 30
0.0
 11
-78.0991913676262
 21
38.5375530537963
 31
0.0
  0
LINE
  5
   370
  8
0
  6
CONTINUOUS
 62
     1
 10
-40.4391997522116
 20
9.06758924424662
 30
0.0
 11
-40.4971813198413
 21
9.06758924424662
 31
0.0
  0
LINE
  5
   371
  8
0
  6
CONTINUOUS
 62
     1
 10
-41.5012010995065
 20
5.98758869707598
 30
0.0
 11
-41.5591986888647
 21
5.98758869707598
 31
0.0
  0
LINE
  5
   372
  8
0
  6
CONTINUOUS
 62
     1
 10
-40.0187266117683
 20
1.28355062695734
 30
0.0
 11
-39.9211927366631
 21
1.64755054771438
 31
0.0
  0
LINE
  5
   373
  8
0
  6
CONTINUOUS
 62
     1
 10
-40.2851908357587
 20
1.01708445472635
 30
0.0
 11
-40.0187260003086
 21
1.28355090739547
 31
0.0
  0
LINE
  5
   374
  8
0
  6
CONTINUOUS
 62
     1
 10
-40.649189260311
 20
0.919551540663935
 30
0.0
 11
-40.2851883958519
 21
1.0170850192376
 31
0.0
  0
LINE
  5
   375
  8
0
  6
CONTINUOUS
 62
     1
 10
-40.6491891813073
 20
0.919551032861947
 30
0.0
 11
-41.013188978903
 21
1.01708450193319
 31
0.0
  0
LINE
  5
   376
  8
0
  6
CONTINUOUS
 62
     1
 10
-41.0131914288191
 20
1.01708476015822
 30
0.0
 11
-41.2796584045169
 21
1.28355119678085
 31
0.0
  0
LINE
  5
   377
  8
0
  6
CONTINUOUS
 62
     1
 10
-41.2796577069516
 20
1.28355110401463
 30
0.0
 11
-41.3771905160023
 21
1.64755102659908
 31
0.0
  0
LINE
  5
   378
  8
0
  6
CONTINUOUS
 62
     1
 10
-41.3771909349472
 20
1.64755095445938
 30
0.0
 11
-41.2796581250328
 21
2.0115510060089
 31
0.0
  0
LINE
  5
   379
  8
0
  6
CONTINUOUS
 62
     1
 10
-41.2796584476434
 20
2.01155086242666
 30
0.0
 11
-41.0131914719457
 21
2.2780172990493
 31
0.0
  0
LINE
  5
   37A
  8
0
  6
CONTINUOUS
 62
     1
 10
-41.0131920043737
 20
2.27801730273643
 30
0.0
 11
-40.6491922096798
 21
2.37555091262361
 31
0.0
  0
LINE
  5
   37B
  8
0
  6
CONTINUOUS
 62
     1
 10
-40.2851895078704
 20
2.27801750031156
 30
0.0
 11
-40.6491903596477
 21
2.37555111106245
 31
0.0
  0
LINE
  5
   37C
  8
0
  6
CONTINUOUS
 62
     1
 10
-40.0187259568763
 20
2.01155116657274
 30
0.0
 11
-40.2851907923264
 21
2.27801761924187
 31
0.0
  0
LINE
  5
   37D
  8
0
  6
CONTINUOUS
 62
     1
 10
-39.921190764893
 20
1.64755103778084
 30
0.0
 11
-40.0187246434538
 21
2.01155110018451
 31
0.0
  0
LINE
  5
   37E
  8
0
  6
CONTINUOUS
 62
     1
 10
-39.5011928261144
 20
1.64755128715698
 30
0.0
 11
-39.654995004053
 21
2.22155134581142
 31
0.0
  0
LINE
  5
   37F
  8
0
  6
CONTINUOUS
 62
     1
 10
-39.6549931473977
 20
2.22155123073037
 30
0.0
 11
-40.0751896705034
 21
2.64174828513521
 31
0.0
  0
LINE
  5
   380
  8
0
  6
CONTINUOUS
 62
     1
 10
-40.075189642828
 20
2.64174840199843
 30
0.0
 11
-40.6491905043352
 21
2.79555112333068
 31
0.0
  0
LINE
  5
   381
  8
0
  6
CONTINUOUS
 62
     1
 10
-41.2231922935048
 20
2.64174810464342
 30
0.0
 11
-40.6491925054953
 21
2.79555083245537
 31
0.0
  0
LINE
  5
   382
  8
0
  6
CONTINUOUS
 62
     1
 10
-41.6433902222586
 20
2.22155054104842
 30
0.0
 11
-41.2231926368197
 21
2.64174759518747
 31
0.0
  0
LINE
  5
   383
  8
0
  6
CONTINUOUS
 62
     1
 10
-41.7971919089709
 20
1.64755074387263
 30
0.0
 11
-41.6433897310323
 21
2.22155080252707
 31
0.0
  0
LINE
  5
   384
  8
0
  6
CONTINUOUS
 62
     1
 10
-41.6433896652833
 20
1.07355126624836
 30
0.0
 11
-41.7971918432218
 21
1.6475513249028
 31
0.0
  0
LINE
  5
   385
  8
0
  6
CONTINUOUS
 62
     1
 10
-41.2231903674047
 20
0.653353877211326
 30
0.0
 11
-41.6433879646281
 21
1.07355108481479
 31
0.0
  0
LINE
  5
   386
  8
0
  6
CONTINUOUS
 62
     1
 10
-40.6491906148482
 20
0.499551130784387
 30
0.0
 11
-41.2231904028578
 21
0.653353982566198
 31
0.0
  0
LINE
  5
   387
  8
0
  6
CONTINUOUS
 62
     1
 10
-40.6491929511663
 20
0.499550889105759
 30
0.0
 11
-40.0751920960166
 21
0.653353733976074
 31
0.0
  0
LINE
  5
   388
  8
0
  6
CONTINUOUS
 62
     1
 10
-40.0751896403414
 20
0.65335432404728
 30
0.0
 11
-39.6549930936667
 21
1.07355154370102
 31
0.0
  0
LINE
  5
   389
  8
0
  6
CONTINUOUS
 62
     1
 10
-39.654995069802
 20
1.07355072296401
 30
0.0
 11
-39.5011928918635
 21
1.64755078161845
 31
0.0
  0
LINE
  5
   38A
  8
0
  6
CONTINUOUS
 62
     1
 10
-42.4551991735865
 20
5.09698252538549
 30
0.0
 11
-42.7908917815644
 21
5.49701145106507
 31
0.0
  0
LINE
  5
   38B
  8
0
  6
CONTINUOUS
 62
     1
 10
-42.7908925567738
 20
5.49701137943986
 30
0.0
 11
-43.2149108096413
 21
5.80184025761888
 31
0.0
  0
LINE
  5
   38C
  8
0
  6
CONTINUOUS
 62
     1
 10
-43.2149116886154
 20
5.80184017469964
 30
0.0
 11
-43.7010344170942
 21
5.9926194412225
 31
0.0
  0
LINE
  5
   38D
  8
0
  6
CONTINUOUS
 62
     1
 10
-43.7010349611296
 20
5.99261926839789
 30
0.0
 11
-44.2192011536777
 21
6.05755106067818
 31
0.0
  0
LINE
  5
   38E
  8
0
  6
CONTINUOUS
 62
     1
 10
-44.7373673875332
 20
5.99261909106992
 30
0.0
 11
-44.2192011949852
 21
6.05755088335021
 31
0.0
  0
LINE
  5
   38F
  8
0
  6
CONTINUOUS
 62
     1
 10
-45.2234896208011
 20
5.80183984283053
 30
0.0
 11
-44.7373668923222
 21
5.99261910935339
 31
0.0
  0
LINE
  5
   390
  8
0
  6
CONTINUOUS
 62
     1
 10
-45.6475069489251
 20
5.4970113847588
 30
0.0
 11
-45.2234886960576
 21
5.80184026293782
 31
0.0
  0
LINE
  5
   391
  8
0
  6
CONTINUOUS
 62
     1
 10
-45.9831987251224
 20
5.09698309608382
 30
0.0
 11
-45.6475061171445
 21
5.4970120217634
 31
0.0
  0
LINE
  5
   392
  8
0
  6
CONTINUOUS
 62
     1
 10
-45.983199562192
 20
2.81811961314747
 30
0.0
 11
-45.983199562192
 21
5.09698246159479
 31
0.0
  0
LINE
  5
   393
  8
0
  6
CONTINUOUS
 62
     1
 10
-45.6475067789222
 20
2.41809095066098
 30
0.0
 11
-45.9831993826682
 21
2.81811959842233
 31
0.0
  0
LINE
  5
   394
  8
0
  6
CONTINUOUS
 62
     1
 10
-45.2234891036343
 20
2.11326186543925
 30
0.0
 11
-45.6475073675049
 21
2.41809099667019
 31
0.0
  0
LINE
  5
   395
  8
0
  6
CONTINUOUS
 62
     1
 10
-44.737366784105
 20
1.92248260470188
 30
0.0
 11
-45.2234895125839
 21
2.11326187122474
 31
0.0
  0
LINE
  5
   396
  8
0
  6
CONTINUOUS
 62
     1
 10
-44.2192012186816
 20
1.85755097609526
 30
0.0
 11
-44.7373674092367
 21
1.92248250353955
 31
0.0
  0
LINE
  5
   397
  8
0
  6
CONTINUOUS
 62
     1
 10
-44.2192012968664
 20
1.85755078588508
 30
0.0
 11
-43.7010351063113
 21
1.92248231332938
 31
0.0
  0
LINE
  5
   398
  8
0
  6
CONTINUOUS
 62
     1
 10
-43.7010345253114
 20
1.92248227283277
 30
0.0
 11
-43.2149117968326
 21
2.11326153935563
 31
0.0
  0
LINE
  5
   399
  8
0
  6
CONTINUOUS
 62
     1
 10
-43.2149113596384
 20
2.11326160714666
 30
0.0
 11
-42.7908930957678
 21
2.4180907383776
 31
0.0
  0
LINE
  5
   39A
  8
0
  6
CONTINUOUS
 62
     1
 10
-42.7908923053086
 20
2.41809110828459
 30
0.0
 11
-42.4551997015626
 21
2.81811975604594
 31
0.0
  0
LINE
  5
   39B
  8
0
  6
CONTINUOUS
 62
     1
 10
-42.4551999744177
 20
2.81811961314747
 30
0.0
 11
-42.4551999744177
 21
5.09698246159479
 31
0.0
  0
LINE
  5
   39C
  8
0
  6
CONTINUOUS
 62
     1
 10
-40.4391995651798
 20
9.06758937523306
 30
0.0
 11
-40.4802045092737
 21
9.16658443182422
 31
0.0
  0
LINE
  5
   39D
  8
0
  6
CONTINUOUS
 62
     1
 10
-40.4802043714686
 20
9.16658435672758
 30
0.0
 11
-40.5791994280597
 21
9.20758930082143
 31
0.0
  0
LINE
  5
   39E
  8
0
  6
CONTINUOUS
 62
     1
 10
-40.5791997528077
 20
9.20758924484267
 30
0.0
 11
-40.7191912084818
 21
9.20758924484267
 31
0.0
  0
LINE
  5
   39F
  8
0
  6
CONTINUOUS
 62
     1
 10
-41.279191210866
 20
9.20758924484267
 30
0.0
 11
-41.4191997563839
 21
9.20758924484267
 31
0.0
  0
LINE
  5
   3A0
  8
0
  6
CONTINUOUS
 62
     1
 10
-41.5181944297554
 20
9.1665844921805
 30
0.0
 11
-41.4191993731643
 21
9.20758943627436
 31
0.0
  0
LINE
  5
   3A1
  8
0
  6
CONTINUOUS
 62
     1
 10
-41.5591995074469
 20
9.06758950986533
 30
0.0
 11
-41.518194563353
 21
9.16658456645649
 31
0.0
  0
LINE
  5
   3A2
  8
0
  6
CONTINUOUS
 62
     1
 10
-41.55919975698
 20
8.36758924126639
 30
0.0
 11
-41.55919975698
 21
9.06758924424662
 31
0.0
  0
LINE
  5
   3A3
  8
0
  6
CONTINUOUS
 62
     1
 10
-41.55919975698
 20
7.80758870482458
 30
0.0
 11
-41.55919975698
 21
8.36758924126639
 31
0.0
  0
LINE
  5
   3A4
  8
0
  6
CONTINUOUS
 62
     1
 10
-41.55919975698
 20
7.2475887024404
 30
0.0
 11
-41.55919975698
 21
7.80758870482458
 31
0.0
  0
LINE
  5
   3A5
  8
0
  6
CONTINUOUS
 62
     1
 10
-41.55919975698
 20
6.68758870005621
 30
0.0
 11
-41.55919975698
 21
7.2475887024404
 31
0.0
  0
LINE
  5
   3A6
  8
0
  6
CONTINUOUS
 62
     1
 10
-41.55919975698
 20
5.98758869707598
 30
0.0
 11
-41.55919975698
 21
6.68758870005621
 31
0.0
  0
LINE
  5
   3A7
  8
0
  6
CONTINUOUS
 62
     1
 10
-41.5181946271561
 20
5.88859371152956
 30
0.0
 11
-41.55919957125
 21
5.98758876812073
 31
0.0
  0
LINE
  5
   3A8
  8
0
  6
CONTINUOUS
 62
     1
 10
-41.419199437788
 20
5.84758871460027
 30
0.0
 11
-41.5181944943792
 21
5.88859365869412
 31
0.0
  0
LINE
  5
   3A9
  8
0
  6
CONTINUOUS
 62
     1
 10
-40.5791997528077
 20
5.84758869647993
 30
0.0
 11
-40.7191912084818
 21
5.84758869647993
 31
0.0
  0
LINE
  5
   3AA
  8
0
  6
CONTINUOUS
 62
     1
 10
-41.279191210866
 20
5.84758869647993
 30
0.0
 11
-41.4191997563839
 21
5.84758869647993
 31
0.0
  0
LINE
  5
   3AB
  8
0
  6
CONTINUOUS
 62
     1
 10
-40.579199363436
 20
5.84758885005319
 30
0.0
 11
-40.4802043068448
 21
5.88859379414704
 31
0.0
  0
LINE
  5
   3AC
  8
0
  6
CONTINUOUS
 62
     1
 10
-40.4802044454706
 20
5.88859384616183
 30
0.0
 11
-40.4391995013767
 21
5.987588902753
 31
0.0
  0
LINE
  5
   3AD
  8
0
  6
CONTINUOUS
 62
     1
 10
-40.4391997522116
 20
5.98758869707598
 30
0.0
 11
-40.4391997522116
 21
6.68758870005621
 31
0.0
  0
LINE
  5
   3AE
  8
0
  6
CONTINUOUS
 62
     1
 10
-40.4391997522116
 20
6.68758870005621
 30
0.0
 11
-40.4391997522116
 21
7.2475887024404
 31
0.0
  0
LINE
  5
   3AF
  8
0
  6
CONTINUOUS
 62
     1
 10
-40.4391997522116
 20
7.2475887024404
 30
0.0
 11
-40.4391997522116
 21
7.80758870482458
 31
0.0
  0
LINE
  5
   3B0
  8
0
  6
CONTINUOUS
 62
     1
 10
-40.4391997522116
 20
7.80758870482458
 30
0.0
 11
-40.4391997522116
 21
8.36758817315115
 31
0.0
  0
LINE
  5
   3B1
  8
0
  6
CONTINUOUS
 62
     1
 10
-40.4391997522116
 20
8.36758817315115
 30
0.0
 11
-40.4391997522116
 21
9.06758924424662
 31
0.0
  0
LINE
  5
   3B2
  8
0
  6
CONTINUOUS
 62
     1
 10
-41.419191211462
 20
33.007550894022
 30
0.0
 11
-41.419191211462
 21
33.8475508975982
 31
0.0
  0
LINE
  5
   3B3
  8
0
  6
CONTINUOUS
 62
     1
 10
-41.3389779995456
 20
32.7606809876475
 30
0.0
 11
-41.41919132035
 21
33.007550193557
 31
0.0
  0
LINE
  5
   3B4
  8
0
  6
CONTINUOUS
 62
     1
 10
-41.1289779808391
 20
32.6081075841776
 30
0.0
 11
-41.3389779798792
 21
32.7606814417604
 31
0.0
  0
LINE
  5
   3B5
  8
0
  6
CONTINUOUS
 62
     1
 10
-40.8694045269924
 20
32.6081078381221
 30
0.0
 11
-41.1289778923553
 21
32.6081078381221
 31
0.0
  0
LINE
  5
   3B6
  8
0
  6
CONTINUOUS
 62
     1
 10
-40.8694048392893
 20
32.6081074627876
 30
0.0
 11
-40.6594048402492
 21
32.7606813203705
 31
0.0
  0
LINE
  5
   3B7
  8
0
  6
CONTINUOUS
 62
     1
 10
-40.6594048770039
 20
32.7606808649912
 30
0.0
 11
-40.5791915561995
 21
33.0075500709007
 31
0.0
  0
LINE
  5
   3B8
  8
0
  6
CONTINUOUS
 62
     1
 10
-40.5791912078857
 20
33.007550894022
 30
0.0
 11
-40.5791912078857
 21
33.8475508975982
 31
0.0
  0
LINE
  5
   3B9
  8
0
  6
CONTINUOUS
 62
     1
 10
-40.579191320298
 20
33.847550171915
 30
0.0
 11
-40.6594046411024
 21
34.0944193778246
 31
0.0
  0
LINE
  5
   3BA
  8
0
  6
CONTINUOUS
 62
     1
 10
-40.6594046150662
 20
34.0944198341016
 30
0.0
 11
-40.8694046141063
 21
34.2469936916845
 31
0.0
  0
LINE
  5
   3BB
  8
0
  6
CONTINUOUS
 62
     1
 10
-40.8694045269924
 20
34.2469939534981
 30
0.0
 11
-41.1289778923553
 21
34.2469939534981
 31
0.0
  0
LINE
  5
   3BC
  8
0
  6
CONTINUOUS
 62
     1
 10
-41.3389782050623
 20
34.0944197127116
 30
0.0
 11
-41.1289782060222
 21
34.2469935702945
 31
0.0
  0
LINE
  5
   3BD
  8
0
  6
CONTINUOUS
 62
     1
 10
-41.4191915562515
 20
33.8475500492587
 30
0.0
 11
-41.338978235447
 21
34.0944192551683
 31
0.0
  0
LINE
  5
   3BE
  8
0
  6
CONTINUOUS
 62
     1
 10
-40.9991912096739
 20
5.84758816242231
 30
0.0
 11
-41.279191210866
 21
5.84758816242231
 31
0.0
  0
LINE
  5
   3BF
  8
0
  6
CONTINUOUS
 62
     1
 10
-40.7191912084818
 20
5.84758816242231
 30
0.0
 11
-40.9991912096739
 21
5.84758816242231
 31
0.0
  0
LINE
  5
   3C0
  8
0
  6
CONTINUOUS
 62
     1
 10
-40.7191890323026
 20
5.84758902445799
 30
0.0
 11
-40.5211989129217
 21
5.92959944913051
 31
0.0
  0
LINE
  5
   3C1
  8
0
  6
CONTINUOUS
 62
     1
 10
-40.5212021046319
 20
5.92959775289815
 30
0.0
 11
-40.439192216444
 21
6.12758732951812
 31
0.0
  0
LINE
  5
   3C2
  8
0
  6
CONTINUOUS
 62
     1
 10
-40.4391912072897
 20
6.1275881636144
 30
0.0
 11
-40.4391912072897
 21
7.24758816838278
 31
0.0
  0
LINE
  5
   3C3
  8
0
  6
CONTINUOUS
 62
     1
 10
-40.4391912072897
 20
7.24758816838278
 30
0.0
 11
-40.4391912072897
 21
7.80758817076696
 31
0.0
  0
LINE
  5
   3C4
  8
0
  6
CONTINUOUS
 62
     1
 10
-40.4391912072897
 20
7.80758817076696
 30
0.0
 11
-40.4391912072897
 21
8.92758817553533
 31
0.0
  0
LINE
  5
   3C5
  8
0
  6
CONTINUOUS
 62
     1
 10
-40.4391910197193
 20
8.9275883036984
 30
0.0
 11
-40.521200907907
 21
9.12557841688072
 31
0.0
  0
LINE
  5
   3C6
  8
0
  6
CONTINUOUS
 62
     1
 10
-40.5212007712379
 20
9.12557834423633
 30
0.0
 11
-40.7191908844202
 21
9.20758823242403
 31
0.0
  0
LINE
  5
   3C7
  8
0
  6
CONTINUOUS
 62
     1
 10
-40.7191912084818
 20
9.20758817672743
 30
0.0
 11
-40.9991912096739
 21
9.20758817672743
 31
0.0
  0
LINE
  5
   3C8
  8
0
  6
CONTINUOUS
 62
     1
 10
-40.9991912096739
 20
9.20758817672743
 30
0.0
 11
-41.279191210866
 21
9.20758817672743
 31
0.0
  0
LINE
  5
   3C9
  8
0
  6
CONTINUOUS
 62
     1
 10
-41.4771809380052
 20
9.12557848050996
 30
0.0
 11
-41.2791908248228
 21
9.20758836869766
 31
0.0
  0
LINE
  5
   3CA
  8
0
  6
CONTINUOUS
 62
     1
 10
-41.5591909630634
 20
8.92758843833073
 30
0.0
 11
-41.4771810748757
 21
9.12557855151306
 31
0.0
  0
LINE
  5
   3CB
  8
0
  6
CONTINUOUS
 62
     1
 10
-41.5591912120581
 20
7.80758817076696
 30
0.0
 11
-41.5591912120581
 21
8.92758817553533
 31
0.0
  0
LINE
  5
   3CC
  8
0
  6
CONTINUOUS
 62
     1
 10
-41.5591912120581
 20
7.24758816838278
 30
0.0
 11
-41.5591912120581
 21
7.80758817076696
 31
0.0
  0
LINE
  5
   3CD
  8
0
  6
CONTINUOUS
 62
     1
 10
-41.5591912120581
 20
6.1275881636144
 30
0.0
 11
-41.5591912120581
 21
7.24758816838278
 31
0.0
  0
LINE
  5
   3CE
  8
0
  6
CONTINUOUS
 62
     1
 10
-41.477182074329
 20
5.92959829554609
 30
0.0
 11
-41.559191962517
 21
6.12758787216607
 31
0.0
  0
LINE
  5
   3CF
  8
0
  6
CONTINUOUS
 62
     1
 10
-41.2791894063045
 20
5.84758826113162
 30
0.0
 11
-41.4771795256854
 21
5.92959868580414
 31
0.0
  0
LINE
  5
   3D0
  8
0
  6
CONTINUOUS
 62
     1
 10
-20.8391911238432
 20
34.2675637167692
 30
0.0
 11
-21.8191923321028
 21
34.2675637167692
 31
0.0
  0
LINE
  5
   3D1
  8
0
  6
CONTINUOUS
 62
     1
 10
-20.8391911238432
 20
26.0075572729111
 30
0.0
 11
-20.8391911238432
 21
34.2675637167692
 31
0.0
  0
LINE
  5
   3D2
  8
0
  6
CONTINUOUS
 62
     1
 10
-48.8391955155134
 20
27.423183804817
 30
0.0
 11
-77.1191934996843
 21
27.423183804817
 31
0.0
  0
LINE
  5
   3D3
  8
0
  6
CONTINUOUS
 62
     1
 10
-48.8391955155134
 20
27.7031838060091
 30
0.0
 11
-77.1191934996843
 21
27.7031838060091
 31
0.0
  0
LINE
  5
   3D4
  8
0
  6
CONTINUOUS
 62
   132
 10
-64.3791913092136
 20
5.33799358627812
 30
0.0
 11
-64.3791913092136
 21
26.657105920696
 31
0.0
  0
LINE
  5
   3D5
  8
0
  6
CONTINUOUS
 62
   132
 10
-52.6191912591457
 20
5.33799358627812
 30
0.0
 11
-52.6191912591457
 21
26.657105920696
 31
0.0
  0
LINE
  5
   3D6
  8
0
  6
CONTINUOUS
 62
     1
 10
-64.3791913092136
 20
22.1031837821672
 30
0.0
 11
-77.1191934996843
 21
22.1031837821672
 31
0.0
  0
LINE
  5
   3D7
  8
0
  6
CONTINUOUS
 62
     1
 10
-48.8391955155134
 20
22.1031837821672
 30
0.0
 11
-52.6191912591457
 21
22.1031837821672
 31
0.0
  0
LINE
  5
   3D8
  8
0
  6
CONTINUOUS
 62
     1
 10
-48.8391955155134
 20
22.3831837833593
 30
0.0
 11
-52.6191912591457
 21
22.3831837833593
 31
0.0
  0
LINE
  5
   3D9
  8
0
  6
CONTINUOUS
 62
     1
 10
-64.3791913092136
 20
22.3831837833593
 30
0.0
 11
-77.1191934996843
 21
22.3831837833593
 31
0.0
  0
LINE
  5
   3DA
  8
0
  6
CONTINUOUS
 62
     1
 10
-48.8391955155134
 20
9.8308611896349
 30
0.0
 11
-52.6191912591457
 21
9.8308611896349
 31
0.0
  0
LINE
  5
   3DB
  8
0
  6
CONTINUOUS
 62
     1
 10
-64.3791913092136
 20
9.8308611896349
 30
0.0
 11
-77.1191934996843
 21
9.8308611896349
 31
0.0
  0
LINE
  5
   3DC
  8
0
  6
CONTINUOUS
 62
     1
 10
-64.3791913092136
 20
9.55086118844281
 30
0.0
 11
-77.1191934996843
 21
9.55086118844281
 31
0.0
  0
LINE
  5
   3DD
  8
0
  6
CONTINUOUS
 62
     1
 10
-48.8391955155134
 20
9.55086118844281
 30
0.0
 11
-52.6191912591457
 21
9.55086118844281
 31
0.0
  0
LINE
  5
   3DE
  8
0
  6
CONTINUOUS
 62
     1
 10
-48.8391955155134
 20
4.51086116698514
 30
0.0
 11
-77.1191934996843
 21
4.51086116698514
 31
0.0
  0
LINE
  5
   3DF
  8
0
  6
CONTINUOUS
 62
     1
 10
-48.8391955155134
 20
4.23086116579304
 30
0.0
 11
-77.1191934996843
 21
4.23086116579304
 31
0.0
  0
LINE
  5
   3E0
  8
0
  6
CONTINUOUS
 62
     7
 10
-53.0207668071201
 20
10.9017909122119
 30
0.0
 11
-63.9776157612393
 21
10.9017909122119
 31
0.0
  0
LINE
  5
   3E1
  8
0
  6
CONTINUOUS
 62
     7
 10
-64.0608434623758
 20
10.8743662454367
 30
0.0
 11
-63.9776159212964
 21
10.901791173538
 31
0.0
  0
LINE
  5
   3E2
  8
0
  6
CONTINUOUS
 62
     7
 10
-64.1114634813577
 20
10.8028369814165
 30
0.0
 11
-64.0608433637978
 21
10.8743665217196
 31
0.0
  0
LINE
  5
   3E3
  8
0
  6
CONTINUOUS
 62
     7
 10
-64.3045739464525
 20
9.9519272391328
 30
0.0
 11
-64.1114635188935
 21
10.8028369801902
 31
0.0
  0
LINE
  5
   3E4
  8
0
  6
CONTINUOUS
 62
     7
 10
-64.3694211725959
 20
9.08179057914783
 30
0.0
 11
-64.3045737594762
 21
9.95192639306432
 31
0.0
  0
LINE
  5
   3E5
  8
0
  6
CONTINUOUS
 62
     7
 10
-64.3045737809259
 20
8.21165597816071
 30
0.0
 11
-64.3694211926756
 21
9.08179072691587
 31
0.0
  0
LINE
  5
   3E6
  8
0
  6
CONTINUOUS
 62
     7
 10
-64.1114633941825
 20
7.36074584515091
 30
0.0
 11
-64.3045738229203
 21
8.21165610702222
 31
0.0
  0
LINE
  5
   3E7
  8
0
  6
CONTINUOUS
 62
     7
 10
-64.0608427420448
 20
7.2892150192239
 30
0.0
 11
-64.1114628591522
 21
7.36074509290159
 31
0.0
  0
LINE
  5
   3E8
  8
0
  6
CONTINUOUS
 62
     7
 10
-63.9776157092612
 20
7.26179138802033
 30
0.0
 11
-64.0608432485251
 21
7.2892157807513
 31
0.0
  0
LINE
  5
   3E9
  8
0
  6
CONTINUOUS
 62
     7
 10
-53.0207668071201
 20
7.26179143077235
 30
0.0
 11
-63.9776157612393
 21
7.26179143077235
 31
0.0
  0
LINE
  5
   3EA
  8
0
  6
CONTINUOUS
 62
     7
 10
-53.0207668596192
 20
7.26179138788426
 30
0.0
 11
-52.9375393203553
 21
7.28921578061522
 31
0.0
  0
LINE
  5
   3EB
  8
0
  6
CONTINUOUS
 62
     7
 10
-52.9375398263146
 20
7.2892150192239
 30
0.0
 11
-52.8869197092072
 21
7.36074509290159
 31
0.0
  0
LINE
  5
   3EC
  8
0
  6
CONTINUOUS
 62
     7
 10
-52.8869191741769
 20
7.36074584515091
 30
0.0
 11
-52.6938087454391
 21
8.21165610702222
 31
0.0
  0
LINE
  5
   3ED
  8
0
  6
CONTINUOUS
 62
     7
 10
-52.6938087874335
 20
8.21165597816071
 30
0.0
 11
-52.6289613756837
 21
9.08179072691587
 31
0.0
  0
LINE
  5
   3EE
  8
0
  6
CONTINUOUS
 62
     7
 10
-52.6289613957635
 20
9.08179057914783
 30
0.0
 11
-52.6938088088832
 21
9.95192639306432
 31
0.0
  0
LINE
  5
   3EF
  8
0
  6
CONTINUOUS
 62
     7
 10
-52.6938086219069
 20
9.9519272391328
 30
0.0
 11
-52.8869190494658
 21
10.8028369801902
 31
0.0
  0
LINE
  5
   3F0
  8
0
  6
CONTINUOUS
 62
     7
 10
-52.8869190870016
 20
10.8028369814165
 30
0.0
 11
-52.9375392045615
 21
10.8743665217196
 31
0.0
  0
LINE
  5
   3F1
  8
0
  6
CONTINUOUS
 62
     7
 10
-52.9375391037963
 20
10.8743662453948
 30
0.0
 11
-53.0207666448757
 21
10.9017911734962
 31
0.0
  0
LINE
  5
   3F2
  8
0
  6
CONTINUOUS
 62
     1
 10
-40.5791912078857
 20
33.4975508961081
 30
0.0
 11
-41.2212010983144
 21
33.4975508961081
 31
0.0
  0
LINE
  5
   3F3
  8
0
  6
CONTINUOUS
 62
     1
 10
-41.3201956742582
 20
33.4565464471833
 30
0.0
 11
-41.2212006176671
 21
33.4975513912771
 31
0.0
  0
LINE
  5
   3F4
  8
0
  6
CONTINUOUS
 62
     1
 10
-41.4191919439584
 20
33.3575498695061
 30
0.0
 11
-41.320196889655
 21
33.4565449238095
 31
0.0
  0
LINE
  5
   3F5
  8
0
  6
CONTINUOUS
 62
     1
 10
-41.4844780238759
 20
5.87462727143628
 30
0.0
 11
-41.4353949239052
 21
5.91229008298764
 31
0.0
  0
LINE
  5
   3F6
  8
0
  6
CONTINUOUS
 62
   152
 10
-29.0991911590099
 20
78.6475574970245
 30
0.0
 11
-87.8991914093494
 21
78.6475574970245
 31
0.0
  0
LINE
  5
   3F7
  8
0
  6
CONTINUOUS
 62
   152
 10
-29.0991911590099
 20
-35.0324429869652
 30
0.0
 11
-87.8991914093494
 21
-35.0324429869652
 31
0.0
  0
LINE
  5
   3F8
  8
0
  6
CONTINUOUS
 62
   152
 10
-85.3791926027079
 20
3.18755263626574
 30
0.0
 11
-87.8991914093494
 21
3.18755263626574
 31
0.0
  0
LINE
  5
   3F9
  8
0
  6
CONTINUOUS
 62
   152
 10
-87.8991914093494
 20
-35.0324429869652
 30
0.0
 11
-87.8991914093494
 21
78.6475574970245
 31
0.0
  0
LINE
  5
   3FA
  8
0
  6
CONTINUOUS
 62
   152
 10
-29.0991911590099
 20
46.937554361554
 30
0.0
 11
-29.0991911590099
 21
78.6475574970245
 31
0.0
  0
LINE
  5
   3FB
  8
0
  6
CONTINUOUS
 62
   152
 10
-29.0991911590099
 20
-35.0324451231957
 30
0.0
 11
-29.0991911590099
 21
-7.94244747426909
 31
0.0
  0
LINE
  5
   3FC
  8
0
  6
CONTINUOUS
 62
   152
 10
-39.3191912025213
 20
54.0075573921204
 30
0.0
 11
-77.6791913658381
 21
54.0075573921204
 31
0.0
  0
LINE
  5
   3FD
  8
0
  6
CONTINUOUS
 62
     1
 10
-87.8991914093494
 20
16.3475636404753
 30
0.0
 11
-88.0391999548674
 21
16.3475636404753
 31
0.0
  0
LINE
  5
   3FE
  8
0
  6
CONTINUOUS
 62
     1
 10
-87.8991914093494
 20
9.90756361305716
 30
0.0
 11
-88.0392020910979
 21
9.90756361305716
 31
0.0
  0
LINE
  5
   3FF
  8
0
  6
CONTINUOUS
 62
     1
 10
-87.8991914093494
 20
28.3875636917353
 30
0.0
 11
-88.0391999548674
 21
28.3875636917353
 31
0.0
  0
LINE
  5
   400
  8
0
  6
CONTINUOUS
 62
     1
 10
-88.0392006184883
 20
36.5775631038029
 30
0.0
 11
-88.063777950006
 21
36.7956337879623
 31
0.0
  0
LINE
  5
   401
  8
0
  6
CONTINUOUS
 62
     1
 10
-88.0637764943883
 20
36.7956308391065
 30
0.0
 11
-88.1362566551341
 21
37.002768289603
 31
0.0
  0
LINE
  5
   402
  8
0
  6
CONTINUOUS
 62
     1
 10
-88.1362589268772
 20
37.0027718228172
 30
0.0
 11
-88.2530146052893
 21
37.1885854259387
 31
0.0
  0
LINE
  5
   403
  8
0
  6
CONTINUOUS
 62
     1
 10
-88.2530147222667
 20
37.1885851247513
 30
0.0
 11
-88.408188373243
 21
37.3437609078084
 31
0.0
  0
LINE
  5
   404
  8
0
  6
CONTINUOUS
 62
     1
 10
-88.4081868246502
 20
37.3437591506276
 30
0.0
 11
-88.5940004217059
 21
37.460512694862
 31
0.0
  0
LINE
  5
   405
  8
0
  6
CONTINUOUS
 62
     1
 10
-88.5939982151914
 20
37.4605110181673
 30
0.0
 11
-88.8011335344322
 21
37.5329933192476
 31
0.0
  0
LINE
  5
   406
  8
0
  6
CONTINUOUS
 62
     1
 10
-88.8011375267713
 20
37.5329961487397
 30
0.0
 11
-89.0192082071629
 21
37.5575627997346
 31
0.0
  0
LINE
  5
   407
  8
0
  6
CONTINUOUS
 62
     1
 10
-89.0192063678762
 20
37.5575615946372
 30
0.0
 11
-90.9791999675294
 21
37.5575658670982
 31
0.0
  0
LINE
  5
   408
  8
0
  6
CONTINUOUS
 62
     1
 10
-90.9791999673844
 20
36.8575615915656
 30
0.0
 11
-90.9791999673844
 21
37.5575658670068
 31
0.0
  0
LINE
  5
   409
  8
0
  6
CONTINUOUS
 62
     1
 10
-90.9791999675294
 20
36.8575615916554
 30
0.0
 11
-89.0192085041067
 21
36.8575658641162
 31
0.0
  0
LINE
  5
   40A
  8
0
  6
CONTINUOUS
 62
     1
 10
-88.9120567312161
 20
36.8362501608863
 30
0.0
 11
-89.019207915295
 21
36.8575654681066
 31
0.0
  0
LINE
  5
   40B
  8
0
  6
CONTINUOUS
 62
     1
 10
-88.8212156285227
 20
36.7755534309552
 30
0.0
 11
-88.9120545546597
 21
36.836248012934
 31
0.0
  0
LINE
  5
   40C
  8
0
  6
CONTINUOUS
 62
     1
 10
-88.7605196996999
 20
36.684712224076
 30
0.0
 11
-88.8212164158327
 21
36.7755532877443
 31
0.0
  0
LINE
  5
   40D
  8
0
  6
CONTINUOUS
 62
     1
 10
-88.7392075395877
 20
36.5775638828244
 30
0.0
 11
-88.7605207109239
 21
36.684712929018
 31
0.0
  0
LINE
  5
   40E
  8
0
  6
CONTINUOUS
 62
     1
 10
-88.7392085027695
 20
9.90756361305716
 30
0.0
 11
-88.7392085027695
 21
36.5775658628345
 31
0.0
  0
LINE
  5
   40F
  8
0
  6
CONTINUOUS
 62
     1
 10
-88.0392063636276
 20
9.90756254495447
 30
0.0
 11
-88.7392085028383
 21
9.90756361306973
 31
0.0
  0
LINE
  5
   410
  8
0
  6
CONTINUOUS
 62
     1
 10
-88.0392063635597
 20
9.90756254494255
 30
0.0
 11
-88.0391999548683
 21
36.5775626584894
 31
0.0
  0
LINE
  5
   411
  8
0
  6
CONTINUOUS
 62
     1
 10
-20.5591953951121
 20
34.4075637173653
 30
0.0
 11
-20.8391911238432
 21
34.4075637173653
 31
0.0
  0
LINE
  5
   412
  8
0
  6
CONTINUOUS
 62
   253
 10
-20.5591953951121
 20
43.3675616192818
 30
0.0
 11
-20.8391911238432
 21
43.3675616192818
 31
0.0
  0
LINE
  5
   413
  8
0
  6
CONTINUOUS
 62
   253
 10
-20.8391911238432
 20
43.3675616192818
 30
0.0
 11
-21.8191923321028
 21
43.3675616192818
 31
0.0
  0
LINE
  5
   414
  8
0
  6
CONTINUOUS
 62
     1
 10
-20.8391911238432
 20
34.4075637173653
 30
0.0
 11
-21.6791911274195
 21
34.4075637173653
 31
0.0
  0
LINE
  5
   415
  8
0
  6
CONTINUOUS
 62
   253
 10
-20.5591911226511
 20
2.83755503803491
 30
0.0
 11
-21.8191923321028
 21
2.83755503803491
 31
0.0
  0
LINE
  5
   416
  8
0
  6
CONTINUOUS
 62
   253
 10
-20.5591911226511
 20
2.83755503803491
 30
0.0
 11
-20.5591911226511
 21
4.16755290746687
 31
0.0
  0
LINE
  5
   417
  8
0
  6
CONTINUOUS
 62
     1
 10
-20.5591911226511
 20
26.0075572729111
 30
0.0
 11
-20.8391911238432
 21
26.0075572729111
 31
0.0
  0
LINE
  5
   418
  8
0
  6
CONTINUOUS
 62
   253
 10
-20.5591911226508
 20
4.16755290746739
 30
0.0
 11
-20.5591953951118
 21
43.3675616192823
 31
0.0
  0
LINE
  5
   419
  8
0
  6
CONTINUOUS
 62
   253
 10
-20.279191121459
 20
19.0075465619564
 30
0.0
 11
-20.279191121459
 21
24.6075465857982
 31
0.0
  0
LINE
  5
   41A
  8
0
  6
CONTINUOUS
 62
   253
 10
-51.499187515974
 20
97.4075575768948
 30
0.0
 11
-65.4991875755787
 21
97.4075575768948
 31
0.0
  0
LINE
  5
   41B
  8
0
  6
CONTINUOUS
 62
   253
 10
-65.4991875755787
 20
78.6475574970245
 30
0.0
 11
-65.4991875755787
 21
97.4075575768948
 31
0.0
  0
LINE
  5
   41C
  8
0
  6
CONTINUOUS
 62
   253
 10
-51.499187515974
 20
78.6475574970245
 30
0.0
 11
-51.499187515974
 21
97.4075575768948
 31
0.0
  0
LINE
  5
   41D
  8
0
  6
CONTINUOUS
 62
   132
 10
-52.6191912591457
 20
26.3513707509374
 30
0.0
 11
-64.3791913092136
 21
26.3513707509374
 31
0.0
  0
LINE
  5
   41E
  8
0
  6
CONTINUOUS
 62
   132
 10
-52.6191912591457
 20
26.657105920696
 30
0.0
 11
-64.3791913092136
 21
26.657105920696
 31
0.0
  0
LINE
  5
   41F
  8
0
  6
CONTINUOUS
 62
   132
 10
-52.6191912591457
 20
5.33799358627812
 30
0.0
 11
-64.3791913092136
 21
5.33799358627812
 31
0.0
  0
LINE
  5
   420
  8
0
  6
CONTINUOUS
 62
   132
 10
-52.6191912591457
 20
5.64372822197919
 30
0.0
 11
-64.3791913092136
 21
5.64372822197919
 31
0.0
  0
LINE
  5
   421
  8
0
  6
CONTINUOUS
 62
     1
 10
-88.0391993480348
 20
32.158402495597
 30
0.0
 11
-87.8991929421595
 21
32.4273496405454
 31
0.0
  0
LINE
  5
   422
  8
0
  6
CONTINUOUS
 62
     1
 10
-87.8991949076121
 20
35.8277842298542
 30
0.0
 11
-88.0392013134874
 21
36.0967313748025
 31
0.0
  0
LINE
  5
   423
  8
0
  6
CONTINUOUS
 62
   253
 10
-20.279191121459
 20
24.6075465857982
 30
0.0
 11
-20.5591911226511
 21
24.6075465857982
 31
0.0
  0
LINE
  5
   424
  8
0
  6
CONTINUOUS
 62
   253
 10
-20.279191121459
 20
19.0075465619564
 30
0.0
 11
-20.5591911226511
 21
19.0075465619564
 31
0.0
  0
INSERT
  5
   425
  8
255
  6
CONTINUOUS
 62
     1
  2
FIANCATA
 10
-87.8991914093494
 20
43.3675616192818
 30
0.0
 41
0.280000001192093
 42
0.280000001192093
 50
3.50835464724173E-15
 43
0.280000001192093
  0
LINE
  5
   426
  8
0
  6
CONTINUOUS
 62
     1
 10
-93.0791914314032
 20
19.0075038373468
 30
0.0
 11
-93.0791914314032
 21
24.6075038611887
 31
0.0
  0
CIRCLE
  5
   427
  8
0
  6
CONTINUOUS
 62
   253
 10
-61.5791912972927
 20
93.4875575602055
 30
0.0
 40
1.54000000655651
  0
CIRCLE
  5
   428
  8
0
  6
CONTINUOUS
 62
   253
 10
-55.4191912710667
 20
87.3275575339794
 30
0.0
 40
1.54000000655651
  0
LINE
  5
   429
  8
0
  6
DASHDOT
 62
     7
 10
-61.5791912972927
 20
91.6675575524569
 30
0.0
 11
-61.5791912972927
 21
95.3075575679541
 31
0.0
  0
LINE
  5
   42A
  8
0
  6
DASHDOT
 62
     7
 10
-59.7591912895441
 20
93.4875575602055
 30
0.0
 11
-63.3991913050413
 21
93.4875575602055
 31
0.0
  0
LINE
  5
   42B
  8
0
  6
DASHDOT
 62
     7
 10
-55.4191912710667
 20
85.5075575262308
 30
0.0
 11
-55.4191912710667
 21
89.147557541728
 31
0.0
  0
LINE
  5
   42C
  8
0
  6
DASHDOT
 62
     7
 10
-53.5991912633181
 20
87.3275575339794
 30
0.0
 11
-57.2391912788153
 21
87.3275575339794
 31
0.0
  0
LINE
  5
   42D
  8
0
  6
CONTINUOUS
 62
   253
 10
-71.0991875994205
 20
97.4075575768948
 30
0.0
 11
-85.0991876590252
 21
97.4075575768948
 31
0.0
  0
LINE
  5
   42E
  8
0
  6
CONTINUOUS
 62
   253
 10
-85.0991876590252
 20
78.6475574970245
 30
0.0
 11
-85.0991876590252
 21
97.4075575768948
 31
0.0
  0
LINE
  5
   42F
  8
0
  6
CONTINUOUS
 62
   253
 10
-71.0991875994205
 20
78.6475574970245
 30
0.0
 11
-71.0991875994205
 21
97.4075575768948
 31
0.0
  0
CIRCLE
  5
   430
  8
0
  6
CONTINUOUS
 62
   253
 10
-81.1791913807392
 20
93.4875575602055
 30
0.0
 40
1.54000000655651
  0
CIRCLE
  5
   431
  8
0
  6
CONTINUOUS
 62
   253
 10
-75.0191913545132
 20
87.3275575339794
 30
0.0
 40
1.54000000655651
  0
LINE
  5
   432
  8
0
  6
CONTINUOUS
 62
   253
 10
-45.8991949689388
 20
78.6475574970245
 30
0.0
 11
-45.8991949689388
 21
97.4075575768948
 31
0.0
  0
CIRCLE
  5
   433
  8
0
  6
CONTINUOUS
 62
   253
 10
-41.9791912138462
 20
87.3275575339794
 30
0.0
 40
1.54000000655651
  0
CIRCLE
  5
   434
  8
0
  6
CONTINUOUS
 62
   253
 10
-35.8191911876202
 20
93.4875575602055
 30
0.0
 40
1.54000000655651
  0
LINE
  5
   435
  8
0
  6
CONTINUOUS
 62
   253
 10
-31.8991949093342
 20
97.4075575768948
 30
0.0
 11
-45.8991949689389
 21
97.4075575768948
 31
0.0
  0
LINE
  5
   436
  8
0
  6
CONTINUOUS
 62
   253
 10
-31.8991949093342
 20
78.6475574970245
 30
0.0
 11
-31.8991949093342
 21
97.4075575768948
 31
0.0
  0
LINE
  5
   437
  8
0
  6
DASHDOT
 62
     7
 10
-81.1791913807392
 20
91.6675575524569
 30
0.0
 11
-81.1791913807392
 21
95.3075575679541
 31
0.0
  0
LINE
  5
   438
  8
0
  6
DASHDOT
 62
     7
 10
-79.3591913729906
 20
93.4875575602055
 30
0.0
 11
-82.9991913884878
 21
93.4875575602055
 31
0.0
  0
LINE
  5
   439
  8
0
  6
DASHDOT
 62
     7
 10
-75.0191913545132
 20
85.5075575262308
 30
0.0
 11
-75.0191913545132
 21
89.147557541728
 31
0.0
  0
LINE
  5
   43A
  8
0
  6
DASHDOT
 62
     7
 10
-73.1991913467646
 20
87.3275575339794
 30
0.0
 11
-76.8391913622618
 21
87.3275575339794
 31
0.0
  0
LINE
  5
   43B
  8
0
  6
DASHDOT
 62
     7
 10
-41.9791912138462
 20
85.5075575262308
 30
0.0
 11
-41.9791912138462
 21
89.147557541728
 31
0.0
  0
LINE
  5
   43C
  8
0
  6
DASHDOT
 62
     7
 10
-40.1591912060976
 20
87.3275575339794
 30
0.0
 11
-43.7991912215948
 21
87.3275575339794
 31
0.0
  0
LINE
  5
   43D
  8
0
  6
DASHDOT
 62
     7
 10
-35.8191911876202
 20
91.6675575524569
 30
0.0
 11
-35.8191911876202
 21
95.3075575679541
 31
0.0
  0
LINE
  5
   43E
  8
0
  6
DASHDOT
 62
     7
 10
-33.9991911798716
 20
93.4875575602055
 30
0.0
 11
-37.6391911953688
 21
93.4875575602055
 31
0.0
  0
LINE
  5
   43F
  8
0
  6
CONTINUOUS
 62
   253
 10
-31.8991949093342
 20
-53.7924430668354
 30
0.0
 11
-31.8991949093342
 21
-35.0324429869651
 31
0.0
  0
LINE
  5
   440
  8
0
  6
CONTINUOUS
 62
   253
 10
-31.8991949093342
 20
-53.7924430668354
 30
0.0
 11
-45.8991949689389
 21
-53.7924430668354
 31
0.0
  0
LINE
  5
   441
  8
0
  6
CONTINUOUS
 62
   253
 10
-45.8991949689388
 20
-53.7924430668354
 30
0.0
 11
-45.8991949689388
 21
-35.0324429869651
 31
0.0
  0
LINE
  5
   442
  8
0
  6
CONTINUOUS
 62
   253
 10
-51.499187515974
 20
-53.7924430668354
 30
0.0
 11
-51.499187515974
 21
-35.0324429869651
 31
0.0
  0
LINE
  5
   443
  8
0
  6
CONTINUOUS
 62
   253
 10
-51.499187515974
 20
-53.7924430668354
 30
0.0
 11
-65.4991875755787
 21
-53.7924430668354
 31
0.0
  0
LINE
  5
   444
  8
0
  6
CONTINUOUS
 62
   253
 10
-65.4991875755787
 20
-53.7924430668354
 30
0.0
 11
-65.4991875755787
 21
-35.0324429869651
 31
0.0
  0
LINE
  5
   445
  8
0
  6
CONTINUOUS
 62
   253
 10
-71.0991875994205
 20
-53.7924430668354
 30
0.0
 11
-71.0991875994205
 21
-35.0324429869651
 31
0.0
  0
LINE
  5
   446
  8
0
  6
CONTINUOUS
 62
   253
 10
-71.0991875994205
 20
-53.7924430668354
 30
0.0
 11
-85.0991876590252
 21
-53.7924430668354
 31
0.0
  0
LINE
  5
   447
  8
0
  6
CONTINUOUS
 62
   253
 10
-85.0991876590252
 20
-53.7924430668354
 30
0.0
 11
-85.0991876590252
 21
-35.0324429869651
 31
0.0
  0
CIRCLE
  5
   448
  8
0
  6
CONTINUOUS
 62
   253
 10
-81.1791913807392
 20
-49.8724430501461
 30
0.0
 40
1.54000000655651
  0
CIRCLE
  5
   449
  8
0
  6
CONTINUOUS
 62
   253
 10
-75.0191913545132
 20
-43.71244302392
 30
0.0
 40
1.54000000655651
  0
CIRCLE
  5
   44A
  8
0
  6
CONTINUOUS
 62
   253
 10
-61.5791912972927
 20
-49.8724430501461
 30
0.0
 40
1.54000000655651
  0
CIRCLE
  5
   44B
  8
0
  6
CONTINUOUS
 62
   253
 10
-55.4191912710667
 20
-43.71244302392
 30
0.0
 40
1.54000000655651
  0
CIRCLE
  5
   44C
  8
0
  6
CONTINUOUS
 62
   253
 10
-41.9791912138462
 20
-43.71244302392
 30
0.0
 40
1.54000000655651
  0
CIRCLE
  5
   44D
  8
0
  6
CONTINUOUS
 62
   253
 10
-35.8191911876202
 20
-49.8724430501461
 30
0.0
 40
1.54000000655651
  0
LINE
  5
   44E
  8
0
  6
DASHDOT
 62
     7
 10
-75.0191913545132
 20
-45.5324430316686
 30
0.0
 11
-75.0191913545132
 21
-41.8924430161714
 31
0.0
  0
LINE
  5
   44F
  8
0
  6
DASHDOT
 62
     7
 10
-73.1991913467646
 20
-43.71244302392
 30
0.0
 11
-76.8391913622618
 21
-43.71244302392
 31
0.0
  0
LINE
  5
   450
  8
0
  6
DASHDOT
 62
     7
 10
-81.1791913807392
 20
-51.6924430578947
 30
0.0
 11
-81.1791913807392
 21
-48.0524430423975
 31
0.0
  0
LINE
  5
   451
  8
0
  6
DASHDOT
 62
     7
 10
-79.3591913729906
 20
-49.8724430501461
 30
0.0
 11
-82.9991913884878
 21
-49.8724430501461
 31
0.0
  0
LINE
  5
   452
  8
0
  6
DASHDOT
 62
     7
 10
-61.5791912972927
 20
-51.6924430578947
 30
0.0
 11
-61.5791912972927
 21
-48.0524430423975
 31
0.0
  0
LINE
  5
   453
  8
0
  6
DASHDOT
 62
     7
 10
-59.7591912895441
 20
-49.8724430501461
 30
0.0
 11
-63.3991913050413
 21
-49.8724430501461
 31
0.0
  0
LINE
  5
   454
  8
0
  6
DASHDOT
 62
     7
 10
-55.4191912710667
 20
-45.5324430316686
 30
0.0
 11
-55.4191912710667
 21
-41.8924430161714
 31
0.0
  0
LINE
  5
   455
  8
0
  6
DASHDOT
 62
     7
 10
-53.5991912633181
 20
-43.71244302392
 30
0.0
 11
-57.2391912788153
 21
-43.71244302392
 31
0.0
  0
LINE
  5
   456
  8
0
  6
DASHDOT
 62
     7
 10
-41.9791912138462
 20
-45.5324430316686
 30
0.0
 11
-41.9791912138462
 21
-41.8924430161714
 31
0.0
  0
LINE
  5
   457
  8
0
  6
DASHDOT
 62
     7
 10
-40.1591912060976
 20
-43.71244302392
 30
0.0
 11
-43.7991912215948
 21
-43.71244302392
 31
0.0
  0
LINE
  5
   458
  8
0
  6
DASHDOT
 62
     7
 10
-35.8191911876202
 20
-51.6924430578947
 30
0.0
 11
-35.8191911876202
 21
-48.0524430423975
 31
0.0
  0
LINE
  5
   459
  8
0
  6
DASHDOT
 62
     7
 10
-33.9991911798716
 20
-49.8724430501461
 30
0.0
 11
-37.6391911953688
 21
-49.8724430501461
 31
0.0
  0
LINE
  5
   45A
  8
0
  6
DASHDOT
 62
     7
 10
-14.1022506344934
 20
19.497552972734
 30
0.0
 11
-100.604139607317
 21
19.497552972734
 31
0.0
  0
LINE
  5
   45B
  8
0
  6
CONTINUOUS
 62
     1
 10
-85.3791926027079
 20
-3.60219607999169
 30
0.0
 11
-87.5491709389742
 21
-3.60218838110246
 31
0.0
  0
LINE
  5
   45C
  8
0
  6
CONTINUOUS
 62
     1
 10
-29.0991917890516
 20
55.3378094729793
 30
0.0
 11
-87.8991907793078
 21
55.3378094729793
 31
0.0
  0
LINE
  5
   45D
  8
0
  6
CONTINUOUS
 62
     1
 10
-85.3791926027079
 20
32.5177922859799
 30
0.0
 11
-87.8991875700381
 21
32.5177922859799
 31
0.0
  0
LINE
  5
   45E
  8
0
  6
CONTINUOUS
 62
     1
 10
-85.3791926027079
 20
3.11780471116418
 30
0.0
 11
-87.8291914090514
 21
3.11780471116418
 31
0.0
  0
LINE
  5
   45F
  8
0
  6
CONTINUOUS
 62
     1
 10
-87.2971845708489
 20
32.5177922859799
 30
0.0
 11
-87.2971845708489
 21
55.3378052005183
 31
0.0
  0
LINE
  5
   460
  8
0
  6
CONTINUOUS
 62
     1
 10
-86.2891743126511
 20
32.5177922859799
 30
0.0
 11
-86.2891743126511
 21
55.3378052005183
 31
0.0
  0
LINE
  5
   461
  8
0
  6
CONTINUOUS
 62
     1
 10
-84.2731879759431
 20
46.937554361554
 30
0.0
 11
-84.2731879759431
 21
55.3378052005183
 31
0.0
  0
LINE
  5
   462
  8
0
  6
CONTINUOUS
 62
     1
 10
-83.2651777177452
 20
46.937554361554
 30
0.0
 11
-83.2651777177452
 21
55.3378052005183
 31
0.0
  0
LINE
  5
   463
  8
0
  6
CONTINUOUS
 62
     1
 10
-82.2571845493913
 20
46.937554361554
 30
0.0
 11
-82.2571845493913
 21
55.3378052005183
 31
0.0
  0
LINE
  5
   464
  8
0
  6
CONTINUOUS
 62
     1
 10
-81.2491742911934
 20
46.937554361554
 30
0.0
 11
-81.2491742911934
 21
55.3378052005183
 31
0.0
  0
LINE
  5
   465
  8
0
  6
CONTINUOUS
 62
     1
 10
-80.2411811228394
 20
46.937554361554
 30
0.0
 11
-80.2411811228394
 21
55.3378052005183
 31
0.0
  0
LINE
  5
   466
  8
0
  6
CONTINUOUS
 62
     1
 10
-79.2331879544854
 20
46.937554361554
 30
0.0
 11
-79.2331879544854
 21
55.3378052005183
 31
0.0
  0
LINE
  5
   467
  8
0
  6
CONTINUOUS
 62
     1
 10
-87.2971845708489
 20
3.1178135231149
 30
0.0
 11
-87.2971845708489
 21
32.5177922859799
 31
0.0
  0
LINE
  5
   468
  8
0
  6
CONTINUOUS
 62
     1
 10
-86.2891743126511
 20
3.1178135231149
 30
0.0
 11
-86.2891743126511
 21
32.5177922859799
 31
0.0
  0
LINE
  5
   469
  8
0
  6
CONTINUOUS
 62
     2
 10
-87.2971845708489
 20
-35.102187055884
 30
0.0
 11
-87.2971845708489
 21
-15.0821869706494
 31
0.0
  0
LINE
  5
   46A
  8
0
  6
CONTINUOUS
 62
     2
 10
-86.2891743126511
 20
-35.102187055884
 30
0.0
 11
-86.2891743126511
 21
-15.0821869706494
 31
0.0
  0
LINE
  5
   46B
  8
0
  6
CONTINUOUS
 62
     2
 10
-85.2811811442971
 20
-35.102187055884
 30
0.0
 11
-85.2811811442971
 21
-15.0821869706494
 31
0.0
  0
LINE
  5
   46C
  8
0
  6
CONTINUOUS
 62
     2
 10
-84.2731879759431
 20
-35.102187055884
 30
0.0
 11
-84.2731879759431
 21
-15.0821869706494
 31
0.0
  0
LINE
  5
   46D
  8
0
  6
CONTINUOUS
 62
     2
 10
-83.2651777177452
 20
-35.102187055884
 30
0.0
 11
-83.2651777177452
 21
-15.0821869706494
 31
0.0
  0
LINE
  5
   46E
  8
0
  6
CONTINUOUS
 62
     2
 10
-82.2571845493913
 20
-35.102187055884
 30
0.0
 11
-82.2571845493913
 21
-15.0821869706494
 31
0.0
  0
LINE
  5
   46F
  8
0
  6
CONTINUOUS
 62
     2
 10
-81.2491742911934
 20
-35.102187055884
 30
0.0
 11
-81.2491742911934
 21
-15.0821869706494
 31
0.0
  0
LINE
  5
   470
  8
0
  6
CONTINUOUS
 62
     2
 10
-80.2411811228394
 20
-35.102187055884
 30
0.0
 11
-80.2411811228394
 21
-15.0821869706494
 31
0.0
  0
LINE
  5
   471
  8
0
  6
CONTINUOUS
 62
     2
 10
-79.2331879544854
 20
-35.102187055884
 30
0.0
 11
-79.2331879544854
 21
-15.0821869706494
 31
0.0
  0
LINE
  5
   472
  8
0
  6
CONTINUOUS
 62
     2
 10
-78.2251776962876
 20
-14.6621886888135
 30
0.0
 11
-78.2251776962876
 21
-7.94244747426909
 31
0.0
  0
LINE
  5
   473
  8
0
  6
CONTINUOUS
 62
     1
 10
-29.7011979975105
 20
46.937554361554
 30
0.0
 11
-29.7011979975105
 21
55.3378052005183
 31
0.0
  0
LINE
  5
   474
  8
0
  6
CONTINUOUS
 62
     1
 10
-30.7092082557083
 20
46.937554361554
 30
0.0
 11
-30.7092082557083
 21
55.3378052005183
 31
0.0
  0
LINE
  5
   475
  8
0
  6
CONTINUOUS
 62
     1
 10
-31.7172014240623
 20
46.937554361554
 30
0.0
 11
-31.7172014240623
 21
55.3378052005183
 31
0.0
  0
LINE
  5
   476
  8
0
  6
CONTINUOUS
 62
     1
 10
-32.7251945924163
 20
46.937554361554
 30
0.0
 11
-32.7251945924163
 21
55.3378052005183
 31
0.0
  0
LINE
  5
   477
  8
0
  6
CONTINUOUS
 62
     1
 10
-33.7332048506141
 20
46.937554361554
 30
0.0
 11
-33.7332048506141
 21
55.3378052005183
 31
0.0
  0
LINE
  5
   478
  8
0
  6
CONTINUOUS
 62
     1
 10
-34.7411980189681
 20
46.937554361554
 30
0.0
 11
-34.7411980189681
 21
55.3378052005183
 31
0.0
  0
LINE
  5
   479
  8
0
  6
CONTINUOUS
 62
     1
 10
-35.749208277166
 20
46.937554361554
 30
0.0
 11
-35.749208277166
 21
55.3378052005183
 31
0.0
  0
LINE
  5
   47A
  8
0
  6
CONTINUOUS
 62
     1
 10
-36.75720144552
 20
46.937554361554
 30
0.0
 11
-36.75720144552
 21
55.3378052005183
 31
0.0
  0
LINE
  5
   47B
  8
0
  6
CONTINUOUS
 62
     1
 10
-37.765194613874
 20
46.937554361554
 30
0.0
 11
-37.765194613874
 21
55.3378052005183
 31
0.0
  0
LINE
  5
   47C
  8
0
  6
CONTINUOUS
 62
     1
 10
-38.7732048720718
 20
46.937554361554
 30
0.0
 11
-38.7732048720718
 21
55.3378052005183
 31
0.0
  0
LINE
  5
   47D
  8
0
  6
CONTINUOUS
 62
     1
 10
-36.75720144552
 20
-3.32219050973539
 30
0.0
 11
-36.75720144552
 21
2.97755130022762
 31
0.0
  0
LINE
  5
   47E
  8
0
  6
CONTINUOUS
 62
     1
 10
-39.31917838514
 20
46.937554361554
 30
0.0
 11
-39.31917838514
 21
53.9378085734336
 31
0.0
  0
LINE
  5
   47F
  8
0
  6
CONTINUOUS
 62
     1
 10
-77.6791657310708
 20
46.937554361554
 30
0.0
 11
-77.6791657310708
 21
53.9378060881584
 31
0.0
  0
LINE
  5
   480
  8
0
  6
CONTINUOUS
 62
     1
 10
-39.3191997474432
 20
53.9378094670188
 30
0.0
 11
-77.6791870933771
 21
53.9378094670188
 31
0.0
  0
LINE
  5
   481
  8
0
  6
CONTINUOUS
 62
     1
 10
-87.5491743180155
 20
-3.60218864172581
 30
0.0
 11
-87.5491743180155
 21
-3.32219050973538
 31
0.0
  0
LINE
  5
   482
  8
0
  6
CONTINUOUS
 62
     1
 10
-58.0651335507034
 20
-35.102187055884
 30
0.0
 11
-58.0651335507034
 21
-15.0821869706494
 31
0.0
  0
LINE
  5
   483
  8
0
  6
CONTINUOUS
 62
     1
 10
-57.0571345077157
 20
-35.102187055884
 30
0.0
 11
-57.0571345077157
 21
-15.0821869706494
 31
0.0
  0
LINE
  5
   484
  8
0
  6
CONTINUOUS
 62
     1
 10
-55.9091335949304
 20
-35.102187055884
 30
0.0
 11
-55.9091335949304
 21
-15.0821869706494
 31
0.0
  0
LINE
  5
   485
  8
0
  6
CONTINUOUS
 62
     1
 10
-54.9011337508564
 20
-35.102187055884
 30
0.0
 11
-54.9011337508564
 21
-15.0821869706494
 31
0.0
  0
LINE
  5
   486
  8
0
  6
CONTINUOUS
 62
     1
 10
-53.8931451219922
 20
-35.102187055884
 30
0.0
 11
-53.8931451219922
 21
-15.0821869706494
 31
0.0
  0
LINE
  5
   487
  8
0
  6
CONTINUOUS
 62
     1
 10
-52.8851434087164
 20
-35.102187055884
 30
0.0
 11
-52.8851434087164
 21
-15.0821869706494
 31
0.0
  0
LINE
  5
   488
  8
0
  6
CONTINUOUS
 62
     1
 10
-51.8771331505196
 20
-35.102187055884
 30
0.0
 11
-51.8771331505196
 21
-15.0821869706494
 31
0.0
  0
LINE
  5
   489
  8
0
  6
CONTINUOUS
 62
     1
 10
-50.8691442546259
 20
-35.102187055884
 30
0.0
 11
-50.8691442546259
 21
-15.0821869706494
 31
0.0
  0
LINE
  5
   48A
  8
0
  6
CONTINUOUS
 62
     1
 10
-49.8611724485754
 20
-35.102187055884
 30
0.0
 11
-49.8611724485754
 21
-22.9910348866547
 31
0.0
  0
LINE
  5
   48B
  8
0
  6
CONTINUOUS
 62
     1
 10
-48.8531792802214
 20
-35.102187055884
 30
0.0
 11
-48.8531792802214
 21
-23.7534725344589
 31
0.0
  0
LINE
  5
   48C
  8
0
  6
CONTINUOUS
 62
     1
 10
-47.8451775669455
 20
-35.102187055884
 30
0.0
 11
-47.8451775669455
 21
-23.4296861129483
 31
0.0
  0
LINE
  5
   48D
  8
0
  6
CONTINUOUS
 62
     1
 10
-46.8371374015243
 20
-35.102187055884
 30
0.0
 11
-46.8371374015243
 21
-15.0821869706494
 31
0.0
  0
LINE
  5
   48E
  8
0
  6
CONTINUOUS
 62
     1
 10
-45.8291356882486
 20
-35.102187055884
 30
0.0
 11
-45.8291356882486
 21
-15.0821869706494
 31
0.0
  0
LINE
  5
   48F
  8
0
  6
CONTINUOUS
 62
     1
 10
-44.821133974973
 20
-35.102187055884
 30
0.0
 11
-44.821133974973
 21
-15.0821869706494
 31
0.0
  0
LINE
  5
   490
  8
0
  6
CONTINUOUS
 62
     1
 10
-43.813162168921
 20
-35.102187055884
 30
0.0
 11
-43.813162168921
 21
-15.0821869706494
 31
0.0
  0
LINE
  5
   491
  8
0
  6
CONTINUOUS
 62
     1
 10
-42.8051390933437
 20
-35.102187055884
 30
0.0
 11
-42.8051390933437
 21
-15.0821869706494
 31
0.0
  0
LINE
  5
   492
  8
0
  6
CONTINUOUS
 62
     1
 10
-41.797137380068
 20
-35.102187055884
 30
0.0
 11
-41.797137380068
 21
-15.0821869706494
 31
0.0
  0
LINE
  5
   493
  8
0
  6
CONTINUOUS
 62
     1
 10
-40.7891356667924
 20
-35.102187055884
 30
0.0
 11
-40.7891356667924
 21
-15.0821869706494
 31
0.0
  0
LINE
  5
   494
  8
0
  6
CONTINUOUS
 62
     1
 10
-39.7811424984387
 20
-35.102187055884
 30
0.0
 11
-39.7811424984387
 21
-15.0821869706494
 31
0.0
  0
LINE
  5
   495
  8
0
  6
CONTINUOUS
 62
     1
 10
-29.0991917299859
 20
55.7578052023065
 30
0.0
 11
-58.4991912841797
 21
55.7578052023065
 31
0.0
  0
LINE
  5
   496
  8
0
  6
CONTINUOUS
 62
     1
 10
-59.0732522225978
 20
-35.1021870558841
 30
0.0
 11
-59.0732522225978
 21
-15.0821869706494
 31
0.0
  0
LINE
  5
   497
  8
0
  6
CONTINUOUS
 62
     1
 10
-60.0812550039887
 20
-35.1021870558841
 30
0.0
 11
-60.0812550039887
 21
-15.0821869706494
 31
0.0
  0
LINE
  5
   498
  8
0
  6
CONTINUOUS
 62
     1
 10
-61.0892532458899
 20
-35.102187055884
 30
0.0
 11
-61.0892532458899
 21
-15.0821869706494
 31
0.0
  0
LINE
  5
   499
  8
0
  6
CONTINUOUS
 62
     1
 10
-62.097253089964
 20
-35.102187055884
 30
0.0
 11
-62.097253089964
 21
-15.0821869706494
 31
0.0
  0
LINE
  5
   49A
  8
0
  6
CONTINUOUS
 62
     1
 10
-63.1052417188282
 20
-35.102187055884
 30
0.0
 11
-63.1052417188282
 21
-15.0821869706494
 31
0.0
  0
LINE
  5
   49B
  8
0
  6
CONTINUOUS
 62
     1
 10
-64.1132434321039
 20
-35.102187055884
 30
0.0
 11
-64.1132434321039
 21
-15.0821869706494
 31
0.0
  0
LINE
  5
   49C
  8
0
  6
CONTINUOUS
 62
     1
 10
-65.1212536903008
 20
-35.102187055884
 30
0.0
 11
-65.1212536903008
 21
-15.0821869706494
 31
0.0
  0
LINE
  5
   49D
  8
0
  6
CONTINUOUS
 62
     1
 10
-66.1292425861945
 20
-35.102187055884
 30
0.0
 11
-66.1292425861945
 21
-15.0821869706494
 31
0.0
  0
LINE
  5
   49E
  8
0
  6
CONTINUOUS
 62
     1
 10
-67.1372143922449
 20
-35.102187055884
 30
0.0
 11
-67.1372143922449
 21
-22.9910644956113
 31
0.0
  0
LINE
  5
   49F
  8
0
  6
CONTINUOUS
 62
     1
 10
-67.1372128304888
 20
66.4397132491527
 30
0.0
 11
-67.1371956173551
 21
78.5776728530401
 31
0.0
  0
LINE
  5
   4A0
  8
0
  6
CONTINUOUS
 62
     1
 10
-68.0052113180091
 20
67.1918137742646
 30
0.0
 11
-68.0051940967558
 21
78.5776728575833
 31
0.0
  0
LINE
  5
   4A1
  8
0
  6
CONTINUOUS
 62
     1
 10
-68.145203288138
 20
-35.102187055884
 30
0.0
 11
-68.145203288138
 21
-23.7534385670141
 31
0.0
  0
LINE
  5
   4A2
  8
0
  6
CONTINUOUS
 62
     1
 10
-69.0132021027244
 20
67.01133775149
 30
0.0
 11
-69.0131848835317
 21
78.5776728557443
 31
0.0
  0
LINE
  5
   4A3
  8
0
  6
CONTINUOUS
 62
     1
 10
-69.1532050014139
 20
-35.102187055884
 30
0.0
 11
-69.1532050014139
 21
-23.4294742902984
 31
0.0
  0
LINE
  5
   4A4
  8
0
  6
CONTINUOUS
 62
     1
 10
-70.1612451668351
 20
-35.102187055884
 30
0.0
 11
-70.1612451668351
 21
-15.0821869706494
 31
0.0
  0
LINE
  5
   4A5
  8
0
  6
CONTINUOUS
 62
     1
 10
-71.1692468801107
 20
-35.102187055884
 30
0.0
 11
-71.1692468801107
 21
-15.0821869706494
 31
0.0
  0
LINE
  5
   4A6
  8
0
  6
CONTINUOUS
 62
     1
 10
-72.1772485933864
 20
-35.102187055884
 30
0.0
 11
-72.1772485933864
 21
-15.0821869706494
 31
0.0
  0
LINE
  5
   4A7
  8
0
  6
CONTINUOUS
 62
     1
 10
-73.185250306662
 20
-35.102187055884
 30
0.0
 11
-73.185250306662
 21
-15.0821869706494
 31
0.0
  0
LINE
  5
   4A8
  8
0
  6
CONTINUOUS
 62
     1
 10
-74.1932434750157
 20
-35.102187055884
 30
0.0
 11
-74.1932434750157
 21
-15.0821869706494
 31
0.0
  0
LINE
  5
   4A9
  8
0
  6
CONTINUOUS
 62
     1
 10
-75.2012451882914
 20
-35.102187055884
 30
0.0
 11
-75.2012451882914
 21
-15.0821869706494
 31
0.0
  0
LINE
  5
   4AA
  8
0
  6
CONTINUOUS
 62
     1
 10
-76.209246901567
 20
-35.102187055884
 30
0.0
 11
-76.209246901567
 21
-15.0821869706494
 31
0.0
  0
LINE
  5
   4AB
  8
0
  6
CONTINUOUS
 62
     1
 10
-77.2172486148426
 20
-35.102187055884
 30
0.0
 11
-77.2172486148426
 21
-15.0821869706494
 31
0.0
  0
LINE
  5
   4AC
  8
0
  6
CONTINUOUS
 62
     1
 10
-78.2252033310533
 20
55.7578222921503
 30
0.0
 11
-78.2252033310533
 21
78.5776728531724
 31
0.0
  0
LINE
  5
   4AD
  8
0
  6
CONTINUOUS
 62
     1
 10
-79.2332221341716
 20
55.7577617263321
 30
0.0
 11
-79.2332221341716
 21
78.5776728531724
 31
0.0
  0
LINE
  5
   4AE
  8
0
  6
CONTINUOUS
 62
     1
 10
-80.2412452097476
 20
55.7577702776855
 30
0.0
 11
-80.2412452097476
 21
78.5776728531724
 31
0.0
  0
LINE
  5
   4AF
  8
0
  6
CONTINUOUS
 62
     1
 10
-81.2491999259592
 20
55.7578222921503
 30
0.0
 11
-81.2491999259592
 21
78.5776728531724
 31
0.0
  0
LINE
  5
   4B0
  8
0
  6
CONTINUOUS
 62
     1
 10
-82.2572187290772
 20
55.7577628629992
 30
0.0
 11
-82.2572187290772
 21
78.5776728531724
 31
0.0
  0
LINE
  5
   4B1
  8
0
  6
CONTINUOUS
 62
     1
 10
-83.265203352511
 20
55.7578222921503
 30
0.0
 11
-83.265203352511
 21
78.5776728531724
 31
0.0
  0
LINE
  5
   4B2
  8
0
  6
CONTINUOUS
 62
     1
 10
-84.2732221556289
 20
55.7577636207794
 30
0.0
 11
-84.2732221556289
 21
78.5777336503488
 31
0.0
  0
LINE
  5
   4B3
  8
0
  6
CONTINUOUS
 62
     1
 10
-85.2812153239828
 20
55.7577639996663
 30
0.0
 11
-85.2812153239828
 21
78.5777412125477
 31
0.0
  0
LINE
  5
   4B4
  8
0
  6
CONTINUOUS
 62
     1
 10
-86.2891999474168
 20
55.7578222921503
 30
0.0
 11
-86.2891999474168
 21
78.5777234573306
 31
0.0
  0
LINE
  5
   4B5
  8
0
  6
CONTINUOUS
 62
     1
 10
-87.2972187505345
 20
55.7577733023717
 30
0.0
 11
-87.2972187505345
 21
78.5776806591186
 31
0.0
  0
LINE
  5
   4B6
  8
0
  6
CONTINUOUS
 62
     1
 10
-58.4991930114761
 20
55.7578052023022
 30
0.0
 11
-87.8991908383765
 21
55.7578052023022
 31
0.0
  0
CIRCLE
  5
   4B7
  8
0
  6
CONTINUOUS
 62
     1
 10
-68.2991643573074
 20
65.977803761897
 30
0.0
 40
1.26055429216631
  0
LINE
  5
   4B8
  8
0
  6
DASHDOT
 62
     7
 10
-68.2991643573074
 20
61.9172494578097
 30
0.0
 11
-68.2991643573074
 21
78.5776728531724
 31
0.0
  0
LINE
  5
   4B9
  8
0
  6
DASHDOT
 62
     7
 10
-64.2386100532202
 20
65.977803761897
 30
0.0
 11
-72.3597186613947
 21
65.977803761897
 31
0.0
  0
LINE
  5
   4BA
  8
0
  6
CONTINUOUS
 62
     1
 10
-29.0992016924954
 20
-15.0821869706494
 30
0.0
 11
-87.899180875864
 21
-15.0821869706494
 31
0.0
  0
LINE
  5
   4BB
  8
0
  6
CONTINUOUS
 62
     1
 10
-29.37920165431
 20
-14.8021869694573
 30
0.0
 11
-87.6191809140494
 21
-14.8021869694573
 31
0.0
  0
LINE
  5
   4BC
  8
0
  6
CONTINUOUS
 62
     1
 10
-29.0992016334294
 20
-14.6621886888135
 30
0.0
 11
-87.89918093493
 21
-14.6621886888135
 31
0.0
  0
LINE
  5
   4BD
  8
0
  6
CONTINUOUS
 62
     1
 10
-87.6191828632352
 20
-15.0821869706494
 30
0.0
 11
-87.6191828632352
 21
-14.8021869694573
 31
0.0
  0
LINE
  5
   4BE
  8
0
  6
CONTINUOUS
 62
     1
 10
-29.3791997051242
 20
-15.0821869706494
 30
0.0
 11
-29.3791997051242
 21
-14.8021869694573
 31
0.0
  0
LINE
  5
   4BF
  8
0
  6
CONTINUOUS
 62
     1
 10
-78.0991913676262
 20
-14.6621886888135
 30
0.0
 11
-78.0991913676262
 21
-7.94244747426909
 31
0.0
  0
LINE
  5
   4C0
  8
0
  6
CONTINUOUS
 62
     1
 10
-38.8991912007332
 20
-14.6621886888135
 30
0.0
 11
-38.8991912007332
 21
-7.94244747426909
 31
0.0
  0
LINE
  5
   4C1
  8
0
  6
CONTINUOUS
 62
     2
 10
-87.2971845708489
 20
-14.6621886888135
 30
0.0
 11
-87.2971845708489
 21
-3.74218864232185
 31
0.0
  0
LINE
  5
   4C2
  8
0
  6
CONTINUOUS
 62
     2
 10
-86.2891743126511
 20
-14.6621886888135
 30
0.0
 11
-86.2891743126511
 21
-3.74218864232185
 31
0.0
  0
LINE
  5
   4C3
  8
0
  6
CONTINUOUS
 62
     2
 10
-85.2811811442971
 20
-14.6621886888135
 30
0.0
 11
-85.2811811442971
 21
-7.94244747426909
 31
0.0
  0
LINE
  5
   4C4
  8
0
  6
CONTINUOUS
 62
     2
 10
-84.2731879759431
 20
-14.6621886888135
 30
0.0
 11
-84.2731879759431
 21
-7.94244747426909
 31
0.0
  0
LINE
  5
   4C5
  8
0
  6
CONTINUOUS
 62
     2
 10
-83.2651777177452
 20
-14.6621886888135
 30
0.0
 11
-83.2651777177452
 21
-7.94244747426909
 31
0.0
  0
LINE
  5
   4C6
  8
0
  6
CONTINUOUS
 62
     2
 10
-82.2571845493913
 20
-14.6621886888135
 30
0.0
 11
-82.2571845493913
 21
-7.94244747426909
 31
0.0
  0
LINE
  5
   4C7
  8
0
  6
CONTINUOUS
 62
     2
 10
-81.2491742911934
 20
-14.6621886888135
 30
0.0
 11
-81.2491742911934
 21
-7.94244747426909
 31
0.0
  0
LINE
  5
   4C8
  8
0
  6
CONTINUOUS
 62
     2
 10
-80.2411811228394
 20
-14.6621886888135
 30
0.0
 11
-80.2411811228394
 21
-7.94244747426909
 31
0.0
  0
LINE
  5
   4C9
  8
0
  6
CONTINUOUS
 62
     2
 10
-79.2331879544854
 20
-14.6621886888135
 30
0.0
 11
-79.2331879544854
 21
-7.94244747426909
 31
0.0
  0
LINE
  5
   4CA
  8
0
  6
CONTINUOUS
 62
     1
 10
-78.2251776962876
 20
46.937554361554
 30
0.0
 11
-78.2251776962876
 21
55.3378052005183
 31
0.0
  0
LINE
  5
   4CB
  8
0
  6
CONTINUOUS
 62
     1
 10
-87.2971845708489
 20
-3.32219050973538
 30
0.0
 11
-87.2971845708489
 21
3.1178052452218
 31
0.0
  0
LINE
  5
   4CC
  8
0
  6
CONTINUOUS
 62
     1
 10
-86.2891743126511
 20
-3.32219050973538
 30
0.0
 11
-86.2891743126511
 21
3.1178052452218
 31
0.0
  0
LINE
  5
   4CD
  8
0
  6
CONTINUOUS
 62
     2
 10
-78.2251879501939
 20
-35.102187055884
 30
0.0
 11
-78.2251879501939
 21
-15.0821869706494
 31
0.0
  0
LINE
  5
   4CE
  8
0
  6
CONTINUOUS
 62
     1
 10
-29.7011979975105
 20
-14.6621886888135
 30
0.0
 11
-29.7011979975105
 21
-7.94244747426909
 31
0.0
  0
LINE
  5
   4CF
  8
0
  6
CONTINUOUS
 62
     1
 10
-30.7092082557083
 20
-14.6621886888135
 30
0.0
 11
-30.7092082557083
 21
-7.94244747426909
 31
0.0
  0
LINE
  5
   4D0
  8
0
  6
CONTINUOUS
 62
     1
 10
-31.7172014240623
 20
-14.6621886888135
 30
0.0
 11
-31.7172014240623
 21
-7.94244747426909
 31
0.0
  0
LINE
  5
   4D1
  8
0
  6
CONTINUOUS
 62
     1
 10
-32.7251945924163
 20
-14.6621886888135
 30
0.0
 11
-32.7251945924163
 21
-7.94244747426909
 31
0.0
  0
LINE
  5
   4D2
  8
0
  6
CONTINUOUS
 62
     1
 10
-33.7332048506141
 20
-14.6621886888135
 30
0.0
 11
-33.7332048506141
 21
-7.94244747426909
 31
0.0
  0
LINE
  5
   4D3
  8
0
  6
CONTINUOUS
 62
     1
 10
-34.7411980189681
 20
-14.6621886888135
 30
0.0
 11
-34.7411980189681
 21
-7.94244747426909
 31
0.0
  0
LINE
  5
   4D4
  8
0
  6
CONTINUOUS
 62
     1
 10
-35.749208277166
 20
-14.6621886888135
 30
0.0
 11
-35.749208277166
 21
-7.94244747426909
 31
0.0
  0
LINE
  5
   4D5
  8
0
  6
CONTINUOUS
 62
     1
 10
-36.75720144552
 20
-14.6621886888135
 30
0.0
 11
-36.75720144552
 21
-7.94244747426909
 31
0.0
  0
LINE
  5
   4D6
  8
0
  6
CONTINUOUS
 62
     1
 10
-37.765194613874
 20
-14.6621886888135
 30
0.0
 11
-37.765194613874
 21
-7.94244747426909
 31
0.0
  0
LINE
  5
   4D7
  8
0
  6
CONTINUOUS
 62
     1
 10
-38.7732048720718
 20
-14.6621886888135
 30
0.0
 11
-38.7732048720718
 21
-7.94244747426909
 31
0.0
  0
LINE
  5
   4D8
  8
0
  6
CONTINUOUS
 62
     1
 10
-29.7011979975105
 20
-35.102187055884
 30
0.0
 11
-29.7011979975105
 21
-15.0821869706494
 31
0.0
  0
LINE
  5
   4D9
  8
0
  6
CONTINUOUS
 62
     1
 10
-30.7092082557083
 20
-35.102187055884
 30
0.0
 11
-30.7092082557083
 21
-15.0821869706494
 31
0.0
  0
LINE
  5
   4DA
  8
0
  6
CONTINUOUS
 62
     1
 10
-31.7172014240623
 20
-35.102187055884
 30
0.0
 11
-31.7172014240623
 21
-15.0821869706494
 31
0.0
  0
LINE
  5
   4DB
  8
0
  6
CONTINUOUS
 62
     1
 10
-32.7251945924163
 20
-35.102187055884
 30
0.0
 11
-32.7251945924163
 21
-15.0821869706494
 31
0.0
  0
LINE
  5
   4DC
  8
0
  6
CONTINUOUS
 62
     1
 10
-33.7332048506141
 20
-35.102187055884
 30
0.0
 11
-33.7332048506141
 21
-15.0821869706494
 31
0.0
  0
LINE
  5
   4DD
  8
0
  6
CONTINUOUS
 62
     1
 10
-34.7411980189681
 20
-35.102187055884
 30
0.0
 11
-34.7411980189681
 21
-15.0821869706494
 31
0.0
  0
LINE
  5
   4DE
  8
0
  6
CONTINUOUS
 62
     1
 10
-35.749208277166
 20
-35.102187055884
 30
0.0
 11
-35.749208277166
 21
-15.0821869706494
 31
0.0
  0
LINE
  5
   4DF
  8
0
  6
CONTINUOUS
 62
     1
 10
-36.75720144552
 20
-35.102187055884
 30
0.0
 11
-36.75720144552
 21
-15.0821869706494
 31
0.0
  0
LINE
  5
   4E0
  8
0
  6
CONTINUOUS
 62
     1
 10
-37.765194613874
 20
-35.102187055884
 30
0.0
 11
-37.765194613874
 21
-15.0821869706494
 31
0.0
  0
LINE
  5
   4E1
  8
0
  6
CONTINUOUS
 62
     1
 10
-38.7731946181655
 20
-35.102187055884
 30
0.0
 11
-38.7731946181655
 21
-15.0821869706494
 31
0.0
  0
CIRCLE
  5
   4E2
  8
0
  6
CONTINUOUS
 62
     1
 10
-68.2991643573074
 20
-22.5023218207913
 30
0.0
 40
1.26055429216631
  0
CIRCLE
  5
   4E3
  8
0
  6
CONTINUOUS
 62
     1
 10
-48.6990956533841
 20
-22.5022279991537
 30
0.0
 40
1.26069609787232
  0
LINE
  5
   4E4
  8
0
  6
DASHDOT
 62
     1
 10
-48.6990956533841
 20
-26.5629241089469
 30
0.0
 11
-48.6990956533841
 21
-15.0821869706494
 31
0.0
  0
LINE
  5
   4E5
  8
0
  6
DASHDOT
 62
     1
 10
-44.6383995435909
 20
-22.5022279991537
 30
0.0
 11
-52.7597917631774
 21
-22.5022279991537
 31
0.0
  0
LINE
  5
   4E6
  8
0
  6
DASHDOT
 62
     1
 10
-68.2991643573074
 20
-26.5628761248785
 30
0.0
 11
-68.2991643573074
 21
-15.0821869706494
 31
0.0
  0
LINE
  5
   4E7
  8
0
  6
DASHDOT
 62
     1
 10
-64.2386100532202
 20
-22.5023218207913
 30
0.0
 11
-72.3597186613947
 21
-22.5023218207913
 31
0.0
  0
LINE
  5
   4E8
  8
0
  6
CONTINUOUS
 62
     1
 10
-58.0651335507034
 20
55.7578052023064
 30
0.0
 11
-58.0651335507034
 21
78.5776728531723
 31
0.0
  0
LINE
  5
   4E9
  8
0
  6
CONTINUOUS
 62
     1
 10
-57.0571345077157
 20
55.7578052023064
 30
0.0
 11
-57.0571345077157
 21
78.5776728531724
 31
0.0
  0
LINE
  5
   4EA
  8
0
  6
CONTINUOUS
 62
     1
 10
-55.9091335949304
 20
55.7578052023064
 30
0.0
 11
-55.9091335949304
 21
78.5776728531723
 31
0.0
  0
LINE
  5
   4EB
  8
0
  6
CONTINUOUS
 62
     1
 10
-54.9011337508564
 20
55.7578052023064
 30
0.0
 11
-54.9011337508564
 21
78.5776728531723
 31
0.0
  0
LINE
  5
   4EC
  8
0
  6
CONTINUOUS
 62
     1
 10
-53.8931451219922
 20
55.7578052023064
 30
0.0
 11
-53.8931451219922
 21
78.5776728531723
 31
0.0
  0
LINE
  5
   4ED
  8
0
  6
CONTINUOUS
 62
     1
 10
-52.8851434087164
 20
55.7578052023064
 30
0.0
 11
-52.8851434087164
 21
78.5776728531723
 31
0.0
  0
LINE
  5
   4EE
  8
0
  6
CONTINUOUS
 62
     1
 10
-51.8771331505196
 20
55.7578052023064
 30
0.0
 11
-51.8771331505196
 21
78.5776728531723
 31
0.0
  0
LINE
  5
   4EF
  8
0
  6
CONTINUOUS
 62
     1
 10
-50.8691442546259
 20
55.7578052023064
 30
0.0
 11
-50.8691442546259
 21
78.5776728531723
 31
0.0
  0
LINE
  5
   4F0
  8
0
  6
CONTINUOUS
 62
     1
 10
-59.0732522225978
 20
55.7578052023065
 30
0.0
 11
-59.0732522225978
 21
78.5776728531724
 31
0.0
  0
LINE
  5
   4F1
  8
0
  6
CONTINUOUS
 62
     1
 10
-60.0812550039887
 20
55.7578052023065
 30
0.0
 11
-60.0812550039887
 21
78.5776728531724
 31
0.0
  0
LINE
  5
   4F2
  8
0
  6
CONTINUOUS
 62
     1
 10
-61.0892532458899
 20
55.7578052023064
 30
0.0
 11
-61.0892532458899
 21
78.5776728531723
 31
0.0
  0
LINE
  5
   4F3
  8
0
  6
CONTINUOUS
 62
     1
 10
-62.097253089964
 20
55.7578052023064
 30
0.0
 11
-62.097253089964
 21
78.5776728531723
 31
0.0
  0
LINE
  5
   4F4
  8
0
  6
CONTINUOUS
 62
     1
 10
-63.1052417188282
 20
55.7578052023064
 30
0.0
 11
-63.1052417188282
 21
78.5776728531723
 31
0.0
  0
LINE
  5
   4F5
  8
0
  6
CONTINUOUS
 62
     1
 10
-64.1132434321039
 20
55.7578052023064
 30
0.0
 11
-64.1132434321039
 21
78.5776728531723
 31
0.0
  0
LINE
  5
   4F6
  8
0
  6
CONTINUOUS
 62
     1
 10
-65.1212536903008
 20
55.7578052023064
 30
0.0
 11
-65.1212536903008
 21
78.5776728531723
 31
0.0
  0
LINE
  5
   4F7
  8
0
  6
CONTINUOUS
 62
     1
 10
-66.1292425861945
 20
55.7578052023064
 30
0.0
 11
-66.1292425861945
 21
78.5776728531723
 31
0.0
  0
LINE
  5
   4F8
  8
0
  6
CONTINUOUS
 62
     1
 10
-67.1372143922449
 20
55.7578052023065
 30
0.0
 11
-67.1372143922449
 21
65.5158624948277
 31
0.0
  0
LINE
  5
   4F9
  8
0
  6
CONTINUOUS
 62
     1
 10
-68.145203288138
 20
55.7578052023065
 30
0.0
 11
-68.145203288138
 21
64.7416413001252
 31
0.0
  0
LINE
  5
   4FA
  8
0
  6
CONTINUOUS
 62
     1
 10
-69.1532050014139
 20
55.7578052023065
 30
0.0
 11
-69.1532050014139
 21
65.0710907644185
 31
0.0
  0
LINE
  5
   4FB
  8
0
  6
CONTINUOUS
 62
     1
 10
-70.1612451668351
 20
55.7578052023064
 30
0.0
 11
-70.1612451668351
 21
78.5776728531723
 31
0.0
  0
LINE
  5
   4FC
  8
0
  6
CONTINUOUS
 62
     1
 10
-71.1692468801107
 20
55.7578052023064
 30
0.0
 11
-71.1692468801107
 21
78.5776728531723
 31
0.0
  0
LINE
  5
   4FD
  8
0
  6
CONTINUOUS
 62
     1
 10
-72.1772485933864
 20
55.7578052023064
 30
0.0
 11
-72.1772485933864
 21
78.5776728531723
 31
0.0
  0
LINE
  5
   4FE
  8
0
  6
CONTINUOUS
 62
     1
 10
-73.185250306662
 20
55.7578052023064
 30
0.0
 11
-73.185250306662
 21
78.5776728531723
 31
0.0
  0
LINE
  5
   4FF
  8
0
  6
CONTINUOUS
 62
     1
 10
-74.1932434750157
 20
55.7578052023064
 30
0.0
 11
-74.1932434750157
 21
78.5776728531723
 31
0.0
  0
LINE
  5
   500
  8
0
  6
CONTINUOUS
 62
     1
 10
-75.2012451882914
 20
55.7578052023064
 30
0.0
 11
-75.2012451882914
 21
78.5776728531723
 31
0.0
  0
LINE
  5
   501
  8
0
  6
CONTINUOUS
 62
     1
 10
-76.209246901567
 20
55.7578052023064
 30
0.0
 11
-76.209246901567
 21
78.5776728531723
 31
0.0
  0
LINE
  5
   502
  8
0
  6
CONTINUOUS
 62
     1
 10
-77.2172486148426
 20
55.7578052023064
 30
0.0
 11
-77.2172486148426
 21
78.5776728531723
 31
0.0
  0
LINE
  5
   503
  8
0
  6
CONTINUOUS
 62
     1
 10
-48.8531792802214
 20
-21.2509834638484
 30
0.0
 11
-48.8531792802214
 21
-15.0821869706494
 31
0.0
  0
LINE
  5
   504
  8
0
  6
CONTINUOUS
 62
     1
 10
-47.8451775669455
 20
-21.574769885359
 30
0.0
 11
-47.8451775669455
 21
-15.0821869706494
 31
0.0
  0
LINE
  5
   505
  8
0
  6
CONTINUOUS
 62
     1
 10
-49.8611724485754
 20
-22.0134211116526
 30
0.0
 11
-49.8611724485754
 21
-15.0821869706494
 31
0.0
  0
LINE
  5
   506
  8
0
  6
CONTINUOUS
 62
     1
 10
-67.1372143922449
 20
-22.0135791459713
 30
0.0
 11
-67.1372143922449
 21
-15.0821869706494
 31
0.0
  0
LINE
  5
   507
  8
0
  6
CONTINUOUS
 62
     1
 10
-68.145203288138
 20
-21.2512050745685
 30
0.0
 11
-68.145203288138
 21
-15.0821869706494
 31
0.0
  0
LINE
  5
   508
  8
0
  6
CONTINUOUS
 62
     1
 10
-69.1532050014139
 20
-21.5751693512841
 30
0.0
 11
-69.1532050014139
 21
-15.0821869706494
 31
0.0
  0
LINE
  5
   509
  8
0
  6
DASHDOT
 62
     7
 10
-58.4991912841797
 20
-56.3200320283603
 30
0.0
 11
-58.4991912841797
 21
101.754660324146
 31
0.0
  0
LINE
  5
   50A
  8
0
  6
DASHDOT
 62
     7
 10
-38.8991912007332
 20
47.9176755629192
 30
0.0
 11
-38.8991912007332
 21
83.7479359010884
 31
0.0
  0
LINE
  5
   50B
  8
0
  6
DASHDOT
 62
     7
 10
-78.0991913676262
 20
46.937554361554
 30
0.0
 11
-78.0991913676262
 21
83.7479359010884
 31
0.0
  0
LINE
  5
   50C
  8
0
  6
CONTINUOUS
 62
     1
 10
-49.8611442503345
 20
55.757805770642
 30
0.0
 11
-49.8611442503345
 21
65.48900420918
 31
0.0
  0
LINE
  5
   50D
  8
0
  6
CONTINUOUS
 62
     1
 10
-48.8531442460429
 20
55.7578063389776
 30
0.0
 11
-48.8531442460429
 21
64.7266827049041
 31
0.0
  0
LINE
  5
   50E
  8
0
  6
CONTINUOUS
 62
     1
 10
-47.8451442417514
 20
55.7578069073132
 30
0.0
 11
-47.8451442417514
 21
65.050681990789
 31
0.0
  0
LINE
  5
   50F
  8
0
  6
CONTINUOUS
 62
     1
 10
-46.8371442374599
 20
55.7578074756488
 30
0.0
 11
-46.8371442374599
 21
78.5777449436529
 31
0.0
  0
LINE
  5
   510
  8
0
  6
CONTINUOUS
 62
     1
 10
-45.8291442331684
 20
55.7578080439844
 30
0.0
 11
-45.8291442331684
 21
78.5777464528355
 31
0.0
  0
LINE
  5
   511
  8
0
  6
CONTINUOUS
 62
     1
 10
-44.821144228877
 20
55.75780861232
 30
0.0
 11
-44.821144228877
 21
78.5777479620182
 31
0.0
  0
LINE
  5
   512
  8
0
  6
CONTINUOUS
 62
     1
 10
-42.8051442202939
 20
55.7578097489912
 30
0.0
 11
-42.8051442202939
 21
78.5777509803835
 31
0.0
  0
LINE
  5
   513
  8
0
  6
CONTINUOUS
 62
     1
 10
-41.7971442160023
 20
55.7578103173267
 30
0.0
 11
-41.7971442160023
 21
78.5777524895661
 31
0.0
  0
LINE
  5
   514
  8
0
  6
CONTINUOUS
 62
     1
 10
-40.7891442117109
 20
55.7578108856623
 30
0.0
 11
-40.7891442117109
 21
78.5777539987487
 31
0.0
  0
LINE
  5
   515
  8
0
  6
CONTINUOUS
 62
     1
 10
-39.7811442074193
 20
55.757811453998
 30
0.0
 11
-39.7811442074193
 21
78.5777555079314
 31
0.0
  0
LINE
  5
   516
  8
0
  6
CONTINUOUS
 62
     1
 10
-38.7731442031278
 20
55.7578120223336
 30
0.0
 11
-38.7731442031278
 21
57.4113412507485
 31
0.0
  0
LINE
  5
   517
  8
0
  6
CONTINUOUS
 62
     1
 10
-37.7651441988362
 20
55.7578125906692
 30
0.0
 11
-37.7651441988362
 21
78.5777585262967
 31
0.0
  0
LINE
  5
   518
  8
0
  6
CONTINUOUS
 62
     1
 10
-36.7571441945447
 20
55.7578131590048
 30
0.0
 11
-36.7571441945447
 21
78.5777600354793
 31
0.0
  0
LINE
  5
   519
  8
0
  6
CONTINUOUS
 62
     1
 10
-35.749144190253
 20
55.7578137273404
 30
0.0
 11
-35.749144190253
 21
78.577761544662
 31
0.0
  0
LINE
  5
   51A
  8
0
  6
CONTINUOUS
 62
     1
 10
-34.7411441859614
 20
55.757814295676
 30
0.0
 11
-34.7411441859614
 21
78.5777630538446
 31
0.0
  0
LINE
  5
   51B
  8
0
  6
CONTINUOUS
 62
     1
 10
-33.7331441816698
 20
55.7578148640117
 30
0.0
 11
-33.7331441816698
 21
78.5777645630273
 31
0.0
  0
LINE
  5
   51C
  8
0
  6
CONTINUOUS
 62
     1
 10
-32.7251441773782
 20
55.7578154323473
 30
0.0
 11
-32.7251441773782
 21
78.5777660722099
 31
0.0
  0
LINE
  5
   51D
  8
0
  6
CONTINUOUS
 62
     1
 10
-31.7171441730866
 20
55.7578160006829
 30
0.0
 11
-31.7171441730866
 21
78.5777675813926
 31
0.0
  0
LINE
  5
   51E
  8
0
  6
CONTINUOUS
 62
     1
 10
-30.709144168795
 20
55.7578165690186
 30
0.0
 11
-30.709144168795
 21
78.5777690905752
 31
0.0
  0
LINE
  5
   51F
  8
0
  6
CONTINUOUS
 62
     1
 10
-29.7011441645034
 20
55.7578171373542
 30
0.0
 11
-29.7011441645034
 21
78.5777705997579
 31
0.0
  0
LINE
  5
   520
  8
0
  6
CONTINUOUS
 62
     1
 10
-43.8131442245854
 20
55.7578097489912
 30
0.0
 11
-43.8131442245854
 21
78.5777494712008
 31
0.0
  0
CIRCLE
  5
   521
  8
0
  6
CONTINUOUS
 62
     1
 10
-48.699218211052
 20
65.977803761897
 30
0.0
 40
1.26055429216631
  0
LINE
  5
   522
  8
0
  6
DASHDOT
 62
     7
 10
-48.699218211052
 20
64.4372494685385
 30
0.0
 11
-48.699218211052
 21
67.5183580552553
 31
0.0
  0
LINE
  5
   523
  8
0
  6
DASHDOT
 62
     7
 10
-47.1586639176936
 20
65.977803761897
 30
0.0
 11
-50.2397725044104
 21
65.977803761897
 31
0.0
  0
LINE
  5
   524
  8
0
  6
CONTINUOUS
 62
     1
 10
-47.8451442417514
 20
66.9049255330049
 30
0.0
 11
-47.8451442417514
 21
78.5777434344702
 31
0.0
  0
LINE
  5
   525
  8
0
  6
CONTINUOUS
 62
     1
 10
-49.8611442503345
 20
66.4666033146139
 30
0.0
 11
-49.8611442503345
 21
78.5777404161049
 31
0.0
  0
LINE
  5
   526
  8
0
  6
CONTINUOUS
 62
     1
 10
-48.8531442460429
 20
67.2289248188898
 30
0.0
 11
-48.8531442460429
 21
78.5777419252876
 31
0.0
  0
LINE
  5
   527
  8
0
  6
CONTINUOUS
 62
     1
 10
-36.75720144552
 20
16.1375508221984
 30
0.0
 11
-36.75720144552
 21
32.5177856102596
 31
0.0
  0
LINE
  5
   528
  8
0
  6
DASHDOT
 62
     7
 10
-78.0991876292229
 20
-57.8456171724974
 30
0.0
 11
-78.0991876292229
 21
-29.9434678257794
 31
0.0
  0
LINE
  5
   529
  8
0
  6
DASHDOT
 62
     7
 10
-38.8991949391365
 20
-53.7924430668354
 30
0.0
 11
-38.8991949391365
 21
-34.1187534834177
 31
0.0
  0
LINE
  5
   52A
  8
0
  6
DASHDOT
 62
     7
 10
-33.9991986566782
 20
-43.71244302392
 30
0.0
 11
-37.6391986721754
 21
-43.71244302392
 31
0.0
  0
LINE
  5
   52B
  8
0
  6
DASHDOT
 62
     7
 10
-35.8191986644268
 20
-45.5324430316686
 30
0.0
 11
-35.8191986644268
 21
-41.8924430161714
 31
0.0
  0
CIRCLE
  5
   52C
  8
0
  6
CONTINUOUS
 62
   253
 10
-35.8191986644268
 20
-43.71244302392
 30
0.0
 40
1.54000000655651
  0
LINE
  5
   52D
  8
0
  6
DASHDOT
 62
     7
 10
-41.9791986906529
 20
-51.6924430578947
 30
0.0
 11
-41.9791986906529
 21
-48.0524430423975
 31
0.0
  0
LINE
  5
   52E
  8
0
  6
DASHDOT
 62
     7
 10
-40.1591986829043
 20
-49.8724430501461
 30
0.0
 11
-43.7991986984015
 21
-49.8724430501461
 31
0.0
  0
CIRCLE
  5
   52F
  8
0
  6
CONTINUOUS
 62
   253
 10
-41.9791986906529
 20
-49.8724430501461
 30
0.0
 40
1.54000000655651
  0
CIRCLE
  5
   530
  8
0
  6
CONTINUOUS
 62
   253
 10
-41.9791986906529
 20
93.4875575602055
 30
0.0
 40
1.54000000655651
  0
LINE
  5
   531
  8
0
  6
DASHDOT
 62
     7
 10
-41.9791986906529
 20
91.6675575524569
 30
0.0
 11
-41.9791986906529
 21
95.3075575679541
 31
0.0
  0
LINE
  5
   532
  8
0
  6
DASHDOT
 62
     7
 10
-40.1591986829043
 20
93.4875575602055
 30
0.0
 11
-43.7991986984015
 21
93.4875575602055
 31
0.0
  0
CIRCLE
  5
   533
  8
0
  6
CONTINUOUS
 62
   253
 10
-35.8191986644268
 20
87.3275575339794
 30
0.0
 40
1.54000000655651
  0
LINE
  5
   534
  8
0
  6
DASHDOT
 62
     7
 10
-33.9991986566782
 20
87.3275575339794
 30
0.0
 11
-37.6391986721754
 21
87.3275575339794
 31
0.0
  0
LINE
  5
   535
  8
0
  6
DASHDOT
 62
     7
 10
-33.9991986566782
 20
87.3275575339794
 30
0.0
 11
-37.6391986721754
 21
87.3275575339794
 31
0.0
  0
LINE
  5
   536
  8
0
  6
DASHDOT
 62
     7
 10
-35.8191986644268
 20
85.5075575262308
 30
0.0
 11
-35.8191986644268
 21
89.147557541728
 31
0.0
  0
CIRCLE
  5
   537
  8
0
  6
CONTINUOUS
 62
   253
 10
-61.5791912972927
 20
-43.71244302392
 30
0.0
 40
1.54000000655651
  0
LINE
  5
   538
  8
0
  6
DASHDOT
 62
     7
 10
-59.7591912895441
 20
-43.71244302392
 30
0.0
 11
-63.3991913050413
 21
-43.71244302392
 31
0.0
  0
LINE
  5
   539
  8
0
  6
DASHDOT
 62
     7
 10
-61.5791912972927
 20
-45.5324430316686
 30
0.0
 11
-61.5791912972927
 21
-41.8924430161714
 31
0.0
  0
CIRCLE
  5
   53A
  8
0
  6
CONTINUOUS
 62
   253
 10
-55.4191912710667
 20
-49.8724430501461
 30
0.0
 40
1.54000000655651
  0
LINE
  5
   53B
  8
0
  6
DASHDOT
 62
     7
 10
-55.4191912710667
 20
-51.6924430578947
 30
0.0
 11
-55.4191912710667
 21
-48.0524430423975
 31
0.0
  0
LINE
  5
   53C
  8
0
  6
DASHDOT
 62
     7
 10
-53.5991912633181
 20
-49.8724430501461
 30
0.0
 11
-57.2391912788153
 21
-49.8724430501461
 31
0.0
  0
CIRCLE
  5
   53D
  8
0
  6
CONTINUOUS
 62
   253
 10
-81.1791839039326
 20
-43.71244302392
 30
0.0
 40
1.54000000655651
  0
LINE
  5
   53E
  8
0
  6
DASHDOT
 62
     7
 10
-79.3591838961839
 20
-43.71244302392
 30
0.0
 11
-82.9991839116811
 21
-43.71244302392
 31
0.0
  0
LINE
  5
   53F
  8
0
  6
DASHDOT
 62
     7
 10
-81.1791839039326
 20
-45.5324430316686
 30
0.0
 11
-81.1791839039326
 21
-41.8924430161714
 31
0.0
  0
CIRCLE
  5
   540
  8
0
  6
CONTINUOUS
 62
   253
 10
-75.0191838777065
 20
-49.8724430501461
 30
0.0
 40
1.54000000655651
  0
LINE
  5
   541
  8
0
  6
DASHDOT
 62
     7
 10
-75.0191838777065
 20
-51.6924430578947
 30
0.0
 11
-75.0191838777065
 21
-48.0524430423975
 31
0.0
  0
LINE
  5
   542
  8
0
  6
DASHDOT
 62
     7
 10
-73.1991838699579
 20
-49.8724430501461
 30
0.0
 11
-76.8391838854551
 21
-49.8724430501461
 31
0.0
  0
LINE
  5
   543
  8
0
  6
DASHDOT
 62
     7
 10
-75.0191838777065
 20
91.6675575524569
 30
0.0
 11
-75.0191838777065
 21
95.3075575679541
 31
0.0
  0
LINE
  5
   544
  8
0
  6
DASHDOT
 62
     7
 10
-73.1991838699579
 20
93.4875575602055
 30
0.0
 11
-76.8391838854551
 21
93.4875575602055
 31
0.0
  0
CIRCLE
  5
   545
  8
0
  6
CONTINUOUS
 62
   253
 10
-75.0191838777065
 20
93.4875575602055
 30
0.0
 40
1.54000000655651
  0
CIRCLE
  5
   546
  8
0
  6
CONTINUOUS
 62
   253
 10
-81.1791839039326
 20
87.3275575339794
 30
0.0
 40
1.54000000655651
  0
LINE
  5
   547
  8
0
  6
DASHDOT
 62
     7
 10
-81.1791839039326
 20
85.5075575262308
 30
0.0
 11
-81.1791839039326
 21
89.147557541728
 31
0.0
  0
LINE
  5
   548
  8
0
  6
DASHDOT
 62
     7
 10
-79.3591838961839
 20
87.3275575339794
 30
0.0
 11
-82.9991839116811
 21
87.3275575339794
 31
0.0
  0
CIRCLE
  5
   549
  8
0
  6
CONTINUOUS
 62
   253
 10
-55.4191912710667
 20
93.4875575602055
 30
0.0
 40
1.54000000655651
  0
CIRCLE
  5
   54A
  8
0
  6
CONTINUOUS
 62
   253
 10
-61.5791912972927
 20
87.3275575339794
 30
0.0
 40
1.54000000655651
  0
LINE
  5
   54B
  8
0
  6
DASHDOT
 62
     7
 10
-55.4191912710667
 20
91.6675575524569
 30
0.0
 11
-55.4191912710667
 21
95.3075575679541
 31
0.0
  0
LINE
  5
   54C
  8
0
  6
DASHDOT
 62
     7
 10
-53.5991912633181
 20
93.4875575602055
 30
0.0
 11
-57.2391912788153
 21
93.4875575602055
 31
0.0
  0
LINE
  5
   54D
  8
0
  6
DASHDOT
 62
     7
 10
-59.7591912895441
 20
87.3275575339794
 30
0.0
 11
-63.3991913050413
 21
87.3275575339794
 31
0.0
  0
LINE
  5
   54E
  8
0
  6
DASHDOT
 62
     7
 10
-61.5791912972927
 20
85.5075575262308
 30
0.0
 11
-61.5791912972927
 21
89.147557541728
 31
0.0
  0
CIRCLE
  5
   54F
  8
0
  6
CONTINUOUS
 62
     3
 10
-24.3392139050788
 20
14.6675490153742
 30
0.0
 40
1.47002112952056
  0
LINE
  5
   550
  8
0
  6
CONTINUOUS
 62
     1
 10
-85.3791926027079
 20
-3.32219050973538
 30
0.0
 11
-87.8991914093494
 21
-3.32219050973538
 31
0.0
  0
LINE
  5
   551
  8
0
  6
CONTINUOUS
 62
     1
 10
-85.3791926027079
 20
-3.74218864232185
 30
0.0
 11
-87.8991914093494
 21
-3.74218864232185
 31
0.0
  0
LINE
  5
   552
  8
0
  6
DOT
 62
     7
 10
-29.0991911590099
 20
-7.94244747426909
 30
0.0
 11
-29.0991911590099
 21
46.937554361554
 31
0.0
  0
LINE
  5
   553
  8
0
  6
DOT
 62
     7
 10
-21.8191923321028
 20
43.3675616192818
 30
0.0
 11
-29.0991911590099
 21
43.3675616192818
 31
0.0
  0
LINE
  5
   554
  8
0
  6
DOT
 62
     7
 10
-21.8191923321028
 20
2.83755503803491
 30
0.0
 11
-29.0991911590099
 21
2.83755503803491
 31
0.0
  0
LINE
  5
   555
  8
0
  6
DASHDOT
 62
     7
 10
-24.3392139050788
 20
12.3575278822773
 30
0.0
 11
-24.3392139050788
 21
16.977570148471
 31
0.0
  0
LINE
  5
   556
  8
0
  6
DASHDOT
 62
     7
 10
-22.029192771982
 20
14.6675490153742
 30
0.0
 11
-26.6492350381757
 21
14.6675490153742
 31
0.0
  0
POINT
  5
   557
  8
0
  6
CONTINUOUS
 62
     7
 10
-25.2659286952665
 20
45.000400116379
 30
0.0
  0
CIRCLE
  5
   558
  8
0
  6
CONTINUOUS
 62
     7
 10
-25.2659286952665
 20
45.000400116379
 30
0.0
 40
0.1
  0
TEXT
  5
   559
  8
0
  6
CONTINUOUS
 62
     1
 10
-70.3849487313707
 20
-127.948707562702
 30
0.0
 40
1.99999998944146
  1
SCARPELLINI
 50
359.999999948034
 41
0.749999871015548
 72
     2
 11
-54.1849516068691
 21
-127.948707577314
 31
0.0
  0
TEXT
  5
   55A
  8
0
  6
CONTINUOUS
 62
     1
 10
-32.4197367770666
 20
-134.870977363793
 30
0.0
 40
1.99999998944146
  1
M 4504 98-11-17
 50
359.999999948034
 41
0.749999871015548
 72
     1
 11
-21.3197387456894
 21
-133.870977379084
 31
0.0
 73
     2
  0
TEXT
  5
   55B
  8
0
  6
CONTINUOUS
 62
     7
 10
-97.1877125990696
 20
4.94802714000451
 30
0.0
 40
3.99999997888293
  1
=      =
 50
89.9999999480344
 41
0.915625085663796
 72
     1
 11
-99.1877125755741
 21
19.2317783988819
 31
0.0
 73
     2
  0
INSERT
  5
   55C
  8
0
  6
CONTINUOUS
 62
     7
  2
*UDIM1199
 10
0.0
 20
0.0
 30
0.0
  0
INSERT
  5
   55D
  8
0
  6
CONTINUOUS
 62
     7
  2
*UDIM1200
 10
0.0
 20
0.0
 30
0.0
  0
INSERT
  5
   55E
  8
0
  6
CONTINUOUS
 62
     7
  2
*UDIM1201
 10
0.0
 20
0.0
 30
0.0
  0
TEXT
  5
   55F
  8
0
  6
CONTINUOUS
 62
     1
 10
-57.2597327566078
 20
-134.870973667703
 30
0.0
 40
1.99999998944146
  1
M 3076 95-01-16
 50
359.999999948034
 41
0.749999871015548
 72
     1
 11
-46.1597347252307
 21
-133.870973682994
 31
0.0
 73
     2
  0
TEXT
  5
   560
  8
0
  6
CONTINUOUS
 62
     7
 10
-10.7779693147805
 20
17.1599794518227
 30
0.0
 40
3.99999997888293
  1
X
 50
359.999999948034
 41
0.915625085663796
 72
     1
 11
-9.31296918753014
 21
19.1599794399428
 31
0.0
 73
     2
  0
INSERT
  5
   561
  8
0
  6
CONTINUOUS
 62
     7
  2
*UDIM1202
 10
0.0
 20
0.0
 30
0.0
  0
INSERT
  5
   562
  8
0
  6
CONTINUOUS
 62
     7
  2
*UDIM1203
 10
0.0
 20
0.0
 30
0.0
  0
INSERT
  5
   563
  8
0
  6
CONTINUOUS
 62
     7
  2
*UDIM1204
 10
0.0
 20
0.0
 30
0.0
  0
TEXT
  5
   564
  8
0
  6
CONTINUOUS
 62
     1
 10
-70.3849490434384
 20
-119.481958079245
 30
0.0
 40
1.99999998944146
  1
93-04-05 FERRARI M.
 50
359.999999948034
 41
0.749999871015548
 72
     2
 11
-42.1849540460392
 21
-119.48195810468
 31
0.0
  0
TEXT
  5
   565
  8
0
  6
CONTINUOUS
 62
     1
 10
37.5993077457323
 20
-146.016795628905
 30
0.0
 40
3.99999997888293
  1
601840/161
 50
359.999999948034
 41
0.9375
 72
     2
 11
74.3493075517192
 21
-146.016795662052
 31
0.0
  0
TEXT
  5
   566
  8
0
  6
CONTINUOUS
 62
     1
 10
38.6849998676218
 20
-137.035215192291
 30
0.0
 40
2.99999998416219
  1
     S7
 50
359.999999948034
 41
0.916666624585787
 72
     2
 11
57.3849989179836
 21
-137.035215209158
 31
0.0
  0
TEXT
  5
   567
  8
0
  6
CONTINUOUS
 62
     1
 10
27.1505762854451
 20
-118.724943320443
 30
0.0
 40
1.99999998944146
  1
3POLE LOW VOLTAGE M.C.C.B SERIES ISOMAX
 50
359.999999948034
 41
0.749999871015548
 72
     1
 11
56.2505711261685
 21
-117.724943351969
 31
0.0
 73
     2
  0
TEXT
  5
   568
  8
0
  6
CONTINUOUS
 62
     1
 10
29.4005760177475
 20
-121.724943322473
 30
0.0
 40
1.99999998944146
  1
WITHDRAWABLE VERSION FRONT TERMINALS
 50
359.999999948034
 41
0.749999871015548
 72
     1
 11
56.2505712573027
 21
-120.724943351969
 31
0.0
 73
     2
  0
TEXT
  5
   569
  8
0
  6
CONTINUOUS
 62
     1
 10
30.3529713140805
 20
-126.795211915578
 30
0.0
 40
1.99999998944146
  1
INTERR.AUTOMATICO SERIE ISOMAX
 50
359.999999948034
 41
0.749999871015548
 72
     1
 11
52.7029673512991
 21
-125.795211941016
 31
0.0
 73
     2
  0
TEXT
  5
   56A
  8
0
  6
CONTINUOUS
 62
     1
 10
19.1029734393732
 20
-129.795211905431
 30
0.0
 40
1.99999998944146
  1
TRIPOL.ESECUZIONE ESTRAIBILE TERMIN.ANTERIORI
 50
359.999999948034
 41
0.749999871015548
 72
     1
 11
52.7029674824332
 21
-128.795211941016
 31
0.0
 73
     2
  0
TEXT
  5
   56B
  8
0
  6
CONTINUOUS
 62
     7
 10
-59.5851279927296
 20
113.827409978128
 30
0.0
 40
3.99999997888293
  1
Y
 50
359.999999948034
 41
0.915625085663796
 72
     1
 11
-58.1201278654792
 21
115.827409966248
 31
0.0
 73
     2
  0
TEXT
  5
   56C
  8
0
  6
CONTINUOUS
 62
     7
 10
-59.3995038502462
 20
-92.8891106773531
 30
0.0
 40
3.99999997888293
  1
Y
 50
359.999999948034
 41
0.915625085663796
 72
     1
 11
-57.9345037229958
 21
-90.889110689233
 31
0.0
 73
     2
  0
INSERT
  5
   56D
  8
0
  6
CONTINUOUS
 62
     7
  2
*UDIM1205
 10
0.0
 20
0.0
 30
0.0
  0
INSERT
  5
   56E
  8
0
  6
CONTINUOUS
 62
     7
  2
*UDIM1206
 10
0.0
 20
0.0
 30
0.0
  0
INSERT
  5
   56F
  8
0
  6
CONTINUOUS
 62
     7
  2
*UDIM1207
 10
0.0
 20
0.0
 30
0.0
  0
TEXT
  5
   570
  8
0
  6
CONTINUOUS
 62
     7
 10
-73.3379114040024
 20
98.9451638325789
 30
0.0
 40
3.99999997888293
  1
=      =
 50
359.999999948034
 41
0.915625085663796
 72
     1
 11
-59.0541601451325
 21
100.945163809137
 31
0.0
 73
     2
  0
INSERT
  5
   571
  8
0
  6
CONTINUOUS
 62
     7
  2
*UDIM1208
 10
0.0
 20
0.0
 30
0.0
  0
INSERT
  5
   572
  8
0
  6
CONTINUOUS
 62
     7
  2
*UDIM1209
 10
0.0
 20
0.0
 30
0.0
  0
INSERT
  5
   573
  8
0
  6
CONTINUOUS
 62
     7
  2
*UDIM1210
 10
0.0
 20
0.0
 30
0.0
  0
INSERT
  5
   574
  8
0
  6
CONTINUOUS
 62
     7
  2
*UDIM1211
 10
0.0
 20
0.0
 30
0.0
  0
INSERT
  5
   575
  8
0
  6
CONTINUOUS
 62
     7
  2
*UDIM1212
 10
0.0
 20
0.0
 30
0.0
  0
INSERT
  5
   576
  8
0
  6
CONTINUOUS
 62
     7
  2
*UDIM1213
 10
0.0
 20
0.0
 30
0.0
  0
INSERT
  5
   577
  8
0
  6
CONTINUOUS
 62
     7
  2
*UDIM1214
 10
0.0
 20
0.0
 30
0.0
  0
INSERT
  5
   578
  8
0
  6
CONTINUOUS
 62
     7
  2
*UDIM1215
 10
0.0
 20
0.0
 30
0.0
  0
INSERT
  5
   579
  8
0
  6
CONTINUOUS
 62
     7
  2
*UDIM1216
 10
0.0
 20
0.0
 30
0.0
  0
INSERT
  5
   57A
  8
255
  6
CONTINUOUS
 62
     2
  2
$1MOSTRA
 10
-58.499192488267
 20
-0.872441569534926
 30
0.0
 41
0.280000001192093
 42
0.280000001192093
 50
359.999999792138
 43
0.280000001192093
  0
LINE
  5
   57B
  8
0
  6
CONTINUOUS
 62
   253
 10
-247.113347979178
 20
7.24755405889998
 30
0.0
 11
-247.113360796561
 21
8.36756154047502
 31
0.0
  0
LINE
  5
   57C
  8
0
  6
CONTINUOUS
 62
   253
 10
-243.220505870691
 20
5.28755298256868
 30
0.0
 11
-243.193360790004
 21
5.28755351662629
 31
0.0
  0
LINE
  5
   57D
  8
0
  6
CONTINUOUS
 62
   253
 10
-247.113360796561
 20
4.16755511349878
 30
0.0
 11
-247.113347979178
 21
5.28755084580619
 31
0.0
  0
LINE
  5
   57E
  8
0
  6
CONTINUOUS
 62
   253
 10
-199.933376813101
 20
4.16752201124978
 30
0.0
 11
-200.493377750086
 21
4.16755725905444
 31
0.0
  0
LINE
  5
   57F
  8
0
  6
CONTINUOUS
 62
   253
 10
-212.253382008076
 20
4.16755733845154
 30
0.0
 11
-245.713362924457
 21
4.16755733845154
 31
0.0
  0
LINE
  5
   580
  8
0
  6
CONTINUOUS
 62
   253
 10
-183.693377614021
 20
43.3675638246536
 30
0.0
 11
-247.113360193372
 21
43.3675638246536
 31
0.0
  0
LINE
  5
   581
  8
0
  6
CONTINUOUS
 62
   253
 10
-183.693377614021
 20
4.1674750042532
 30
0.0
 11
-210.853386335379
 21
4.16755360277042
 31
0.0
  0
LINE
  5
   582
  8
0
  6
CONTINUOUS
 62
   253
 10
-211.413364914656
 20
34.4075659227371
 30
0.0
 11
-247.113360794187
 21
34.4075659227371
 31
0.0
  0
LINE
  5
   583
  8
0
  6
CONTINUOUS
 62
   253
 10
-211.41336384654
 20
26.0075530695915
 30
0.0
 11
-221.073369228244
 21
26.0075530695915
 31
0.0
  0
LINE
  5
   584
  8
0
  6
CONTINUOUS
 62
   253
 10
-247.113347976804
 20
5.28755084514614
 30
0.0
 11
-247.113347976804
 21
7.24755405783651
 31
0.0
  0
LINE
  5
   585
  8
0
  6
CONTINUOUS
 62
   253
 10
-247.113360794187
 20
34.4075659227371
 30
0.0
 11
-247.113360794187
 21
43.3675638246536
 31
0.0
  0
LINE
  5
   586
  8
0
  6
CONTINUOUS
 62
   253
 10
-218.483381567068
 20
5.28756793500035
 30
0.0
 11
-211.413377798643
 21
5.28758075238296
 31
0.0
  0
LINE
  5
   587
  8
0
  6
CONTINUOUS
 62
   253
 10
-219.603381505314
 20
5.28757283203668
 30
0.0
 11
-229.928364459429
 21
5.28757283203668
 31
0.0
  0
LINE
  5
   588
  8
0
  6
CONTINUOUS
 62
   253
 10
-231.048364998259
 20
5.28757398224313
 30
0.0
 11
-245.9933308822
 21
5.28757398224313
 31
0.0
  0
LINE
  5
   589
  8
0
  6
CONTINUOUS
 62
   253
 10
-231.048362862029
 20
6.54757665789401
 30
0.0
 11
-245.993328745969
 21
6.54757665789401
 31
0.0
  0
LINE
  5
   58A
  8
0
  6
CONTINUOUS
 62
   253
 10
-219.603380971256
 20
6.54757657580485
 30
0.0
 11
-229.928362857256
 21
6.54757657580485
 31
0.0
  0
LINE
  5
   58B
  8
0
  6
CONTINUOUS
 62
   253
 10
-211.413377798796
 20
6.54757686598879
 30
0.0
 11
-218.483381033242
 21
6.54757686598879
 31
0.0
  0
LINE
  5
   58C
  8
0
  6
CONTINUOUS
 62
   253
 10
-245.993330882242
 20
5.28755137922147
 30
0.0
 11
-245.993328746012
 21
6.54755405487398
 31
0.0
  0
LINE
  5
   58D
  8
0
  6
CONTINUOUS
 62
   253
 10
-211.413377798796
 20
5.28758075237283
 30
0.0
 11
-211.413377798796
 21
6.54757648527629
 31
0.0
  0
LINE
  5
   58E
  8
0
  6
CONTINUOUS
 62
   253
 10
-218.483381500545
 20
5.2875679349953
 30
0.0
 11
-218.48338043243
 21
6.54757701933925
 31
0.0
  0
LINE
  5
   58F
  8
0
  6
CONTINUOUS
 62
   253
 10
-219.603381505314
 20
5.28756740093677
 30
0.0
 11
-219.603380437198
 21
6.54757701933834
 31
0.0
  0
LINE
  5
   590
  8
0
  6
CONTINUOUS
 62
   253
 10
-229.92836499351
 20
5.28756099226224
 30
0.0
 11
-229.92836285728
 21
6.54757061066381
 31
0.0
  0
LINE
  5
   591
  8
0
  6
CONTINUOUS
 62
   253
 10
-231.04836499828
 20
5.28756099225862
 30
0.0
 11
-231.04836286205
 21
6.54756954254495
 31
0.0
  0
LINE
  5
   592
  8
0
  6
CONTINUOUS
 62
   253
 10
-238.15336075604
 20
3.04755724430083
 30
0.0
 11
-238.15336075604
 21
4.1675572490692
 31
0.0
  0
LINE
  5
   593
  8
0
  6
CONTINUOUS
 62
   253
 10
-237.033360751271
 20
3.04755724430083
 30
0.0
 11
-237.033360751271
 21
4.1675572490692
 31
0.0
  0
LINE
  5
   594
  8
0
  6
CONTINUOUS
 62
   253
 10
-237.033360751271
 20
3.04755724430083
 30
0.0
 11
-238.15336075604
 21
3.04755724430083
 31
0.0
  0
LINE
  5
   595
  8
0
  6
CONTINUOUS
 62
   253
 10
-214.703360923231
 20
3.04757219791418
 30
0.0
 11
-214.703360923231
 21
4.16755351066587
 31
0.0
  0
LINE
  5
   596
  8
0
  6
CONTINUOUS
 62
   253
 10
-213.583360651433
 20
3.04757219791418
 30
0.0
 11
-213.583360651433
 21
4.16755297660825
 31
0.0
  0
LINE
  5
   597
  8
0
  6
CONTINUOUS
 62
   253
 10
-213.583360651433
 20
3.04757219791418
 30
0.0
 11
-214.703360923231
 21
3.04757219791418
 31
0.0
  0
LINE
  5
   598
  8
0
  6
CONTINUOUS
 62
   253
 10
-245.713360788226
 20
2.83755724340676
 30
0.0
 11
-245.713360788226
 21
3.537557246387
 31
0.0
  0
LINE
  5
   599
  8
0
  6
CONTINUOUS
 62
   253
 10
-247.113360794187
 20
2.83755724340676
 30
0.0
 11
-247.113360794187
 21
4.16755511283873
 31
0.0
  0
LINE
  5
   59A
  8
0
  6
CONTINUOUS
 62
   253
 10
-245.713360788226
 20
2.83755724340676
 30
0.0
 11
-247.113360794187
 21
2.83755724340676
 31
0.0
  0
LINE
  5
   59B
  8
0
  6
CONTINUOUS
 62
   253
 10
-245.713360788226
 20
3.537557246387
 30
0.0
 11
-245.713360788226
 21
4.1675572490692
 31
0.0
  0
LINE
  5
   59C
  8
0
  6
CONTINUOUS
 62
   253
 10
-212.253386280537
 20
2.83755724340676
 30
0.0
 11
-212.253386280537
 21
3.537557246387
 31
0.0
  0
LINE
  5
   59D
  8
0
  6
CONTINUOUS
 62
   253
 10
-210.853386335379
 20
2.83755724340676
 30
0.0
 11
-212.253386341339
 21
2.83755724340676
 31
0.0
  0
LINE
  5
   59E
  8
0
  6
CONTINUOUS
 62
   253
 10
-200.493386291271
 20
2.8375572435599
 30
0.0
 11
-200.493377746349
 21
4.16755724922234
 31
0.0
  0
LINE
  5
   59F
  8
0
  6
CONTINUOUS
 62
   253
 10
-212.253386280569
 20
3.53755724658982
 30
0.0
 11
-212.253382008108
 21
4.16755297681107
 31
0.0
  0
LINE
  5
   5A0
  8
0
  6
CONTINUOUS
 62
   253
 10
-247.113360794187
 20
8.36756153941155
 30
0.0
 11
-247.113360794187
 21
26.0075594782829
 31
0.0
  0
LINE
  5
   5A1
  8
0
  6
CONTINUOUS
 62
   253
 10
-221.073369228244
 20
26.0075573420527
 30
0.0
 11
-236.75336075008
 21
26.0075594782832
 31
0.0
  0
LINE
  5
   5A2
  8
0
  6
CONTINUOUS
 62
   253
 10
-211.413363846541
 20
26.0075530695919
 30
0.0
 11
-211.413364914656
 21
34.4075659227376
 31
0.0
  0
LINE
  5
   5A3
  8
0
  6
CONTINUOUS
 62
   253
 10
-232.413360731602
 20
34.2675659221411
 30
0.0
 11
-232.413360731602
 21
34.4075659227371
 31
0.0
  0
LINE
  5
   5A4
  8
0
  6
CONTINUOUS
 62
   253
 10
-211.413377732039
 20
39.6575684197246
 30
0.0
 11
-218.483380966485
 21
39.6575684197246
 31
0.0
  0
LINE
  5
   5A5
  8
0
  6
CONTINUOUS
 62
   253
 10
-218.483380966485
 20
37.6275638002157
 30
0.0
 11
-218.483380966485
 21
39.6575638088584
 31
0.0
  0
LINE
  5
   5A6
  8
0
  6
CONTINUOUS
 62
   253
 10
-211.413377798796
 20
37.6275684110823
 30
0.0
 11
-218.483381033242
 21
37.6275684110823
 31
0.0
  0
LINE
  5
   5A7
  8
0
  6
CONTINUOUS
 62
   253
 10
-211.413377798796
 20
37.6275680726767
 30
0.0
 11
-211.413377732039
 21
39.6575680813194
 31
0.0
  0
LINE
  5
   5A8
  8
0
  6
CONTINUOUS
 62
   253
 10
-231.048364998251
 20
37.6275638002157
 30
0.0
 11
-231.048364998251
 21
39.6575638088584
 31
0.0
  0
LINE
  5
   5A9
  8
0
  6
CONTINUOUS
 62
   253
 10
-219.603381505311
 20
37.6275638002157
 30
0.0
 11
-231.048364464194
 21
37.6275638002157
 31
0.0
  0
LINE
  5
   5AA
  8
0
  6
CONTINUOUS
 62
   253
 10
-219.603381505311
 20
37.6275638002157
 30
0.0
 11
-219.603381505311
 21
39.6575638088584
 31
0.0
  0
LINE
  5
   5AB
  8
0
  6
CONTINUOUS
 62
   253
 10
-219.603381505311
 20
39.6575638088584
 30
0.0
 11
-231.048364464194
 21
39.6575638088584
 31
0.0
  0
LINE
  5
   5AC
  8
0
  6
CONTINUOUS
 62
   253
 10
-232.16836500302
 20
37.6275680726767
 30
0.0
 11
-245.993360789418
 21
37.6275680726767
 31
0.0
  0
LINE
  5
   5AD
  8
0
  6
CONTINUOUS
 62
   253
 10
-232.16836500302
 20
37.6275680726767
 30
0.0
 11
-232.16836500302
 21
39.6575680813194
 31
0.0
  0
LINE
  5
   5AE
  8
0
  6
CONTINUOUS
 62
   253
 10
-232.16836500302
 20
39.6575680813194
 30
0.0
 11
-245.993360789418
 21
39.6575680813194
 31
0.0
  0
LINE
  5
   5AF
  8
0
  6
CONTINUOUS
 62
   253
 10
-245.993360789418
 20
37.6275680726767
 30
0.0
 11
-245.993360789418
 21
39.6575680813194
 31
0.0
  0
LINE
  5
   5B0
  8
0
  6
CONTINUOUS
 62
   253
 10
-245.993251841714
 20
5.2875439024148
 30
0.0
 11
-245.993249705484
 21
6.54755405487398
 31
0.0
  0
LINE
  5
   5B1
  8
0
  6
CONTINUOUS
 62
   253
 10
-247.113360794187
 20
4.16755511283873
 30
0.0
 11
-247.113360794187
 21
4.44755992054939
 31
0.0
  0
LINE
  5
   5B2
  8
0
  6
CONTINUOUS
 62
   253
 10
-199.933380086275
 20
4.16752200192869
 30
0.0
 11
-200.493377752157
 21
4.16753108090803
 31
0.0
  0
LINE
  5
   5B3
  8
0
  6
CONTINUOUS
 62
   253
 10
-218.468804931877
 20
5.28756259441377
 30
0.0
 11
-218.468804931877
 21
6.54757167875772
 31
0.0
  0
LINE
  5
   5B4
  8
0
  6
CONTINUOUS
 62
   253
 10
-219.603722768129
 20
5.2875497770309
 30
0.0
 11
-219.603722768129
 21
6.5475711447001
 31
0.0
  0
LINE
  5
   5B5
  8
0
  6
CONTINUOUS
 62
   253
 10
-234.513377830386
 20
16.1375487551093
 30
0.0
 11
-238.293360756636
 21
16.1375487551093
 31
0.0
  0
LINE
  5
   5B6
  8
0
  6
CONTINUOUS
 62
   253
 10
-234.513377830386
 20
13.1975487425923
 30
0.0
 11
-238.293360756636
 21
13.1975487425923
 31
0.0
  0
LINE
  5
   5B7
  8
0
  6
CONTINUOUS
 62
   253
 10
-238.293360756636
 20
13.1975487425923
 30
0.0
 11
-238.293360756636
 21
16.1375487551093
 31
0.0
  0
LINE
  5
   5B8
  8
0
  6
CONTINUOUS
 62
   253
 10
-234.513377830386
 20
13.1975487425923
 30
0.0
 11
-234.513377830386
 21
16.1375487551093
 31
0.0
  0
LINE
  5
   5B9
  8
0
  6
CONTINUOUS
 62
   132
 10
-225.833360703587
 20
34.2675659221411
 30
0.0
 11
-247.113360794187
 21
34.2675659221411
 31
0.0
  0
LINE
  5
   5BA
  8
0
  6
CONTINUOUS
 62
   132
 10
-236.753360750081
 20
26.007557342053
 30
0.0
 11
-247.113360794188
 21
26.0075594782836
 31
0.0
  0
LINE
  5
   5BB
  8
0
  6
CONTINUOUS
 62
   132
 10
-225.833360703587
 20
26.0075530695915
 30
0.0
 11
-225.833360703587
 21
34.2675659221411
 31
0.0
  0
LINE
  5
   5BC
  8
0
  6
CONTINUOUS
 62
   132
 10
-247.113360794187
 20
26.0075594782829
 30
0.0
 11
-247.113360794187
 21
34.2675659221411
 31
0.0
  0
LINE
  5
   5BD
  8
0
  6
CONTINUOUS
 62
     7
 10
-179.633377596736
 20
78.6475597023964
 30
0.0
 11
-200.493377685547
 21
78.6475597023964
 31
0.0
  0
LINE
  5
   5BE
  8
0
  6
CONTINUOUS
 62
     7
 10
-179.633377596736
 20
46.0275595635176
 30
0.0
 11
-179.633377596736
 21
78.6475597023964
 31
0.0
  0
LINE
  5
   5BF
  8
0
  6
CONTINUOUS
 62
     7
 10
-179.633377596736
 20
46.0275595635176
 30
0.0
 11
-182.573377609253
 21
46.0275595635176
 31
0.0
  0
LINE
  5
   5C0
  8
0
  6
CONTINUOUS
 62
     7
 10
-179.633377596736
 20
-2.4124406427145
 30
0.0
 11
-182.573377609253
 21
-2.4124406427145
 31
0.0
  0
LINE
  5
   5C1
  8
0
  6
CONTINUOUS
 62
     7
 10
-179.633377596736
 20
-35.0324407815933
 30
0.0
 11
-179.633377596736
 21
-2.4124406427145
 31
0.0
  0
LINE
  5
   5C2
  8
0
  6
CONTINUOUS
 62
     7
 10
-179.633377596736
 20
-35.0324407815933
 30
0.0
 11
-200.493377685547
 21
-35.0324407815933
 31
0.0
  0
LINE
  5
   5C3
  8
0
  6
CONTINUOUS
 62
     7
 10
-200.493377685547
 20
-35.0324407815933
 30
0.0
 11
-200.493377685547
 21
2.83755937963724
 31
0.0
  0
LINE
  5
   5C4
  8
0
  6
CONTINUOUS
 62
     7
 10
-200.493377685547
 20
43.3675595521927
 30
0.0
 11
-200.493377685547
 21
78.6475597023964
 31
0.0
  0
LINE
  5
   5C5
  8
0
  6
CONTINUOUS
 62
     7
 10
-174.87337757647
 20
51.4875595867634
 30
0.0
 11
-179.633377596736
 21
51.4875595867634
 31
0.0
  0
LINE
  5
   5C6
  8
0
  6
CONTINUOUS
 62
     7
 10
-174.87337757647
 20
67.7275596559048
 30
0.0
 11
-179.633377596736
 21
67.7275596559048
 31
0.0
  0
LINE
  5
   5C7
  8
0
  6
CONTINUOUS
 62
     7
 10
-174.87337757647
 20
51.4875595867634
 30
0.0
 11
-174.87337757647
 21
67.7275596559048
 31
0.0
  0
LINE
  5
   5C8
  8
0
  6
CONTINUOUS
 62
     7
 10
-174.87337757647
 20
-7.87244066596031
 30
0.0
 11
-179.633377596736
 21
-7.87244066596031
 31
0.0
  0
LINE
  5
   5C9
  8
0
  6
CONTINUOUS
 62
     7
 10
-174.87337757647
 20
-24.1124407351017
 30
0.0
 11
-179.633377596736
 21
-24.1124407351017
 31
0.0
  0
LINE
  5
   5CA
  8
0
  6
CONTINUOUS
 62
     7
 10
-174.87337757647
 20
-24.1124407351017
 30
0.0
 11
-174.87337757647
 21
-7.87244066596031
 31
0.0
  0
LINE
  5
   5CB
  8
0
  6
CONTINUOUS
 62
     7
 10
-179.633377596736
 20
74.0275596827269
 30
0.0
 11
-200.493377685547
 21
74.0275596827269
 31
0.0
  0
LINE
  5
   5CC
  8
0
  6
CONTINUOUS
 62
   152
 10
-239.273377850652
 20
43.3675638246536
 30
0.0
 11
-239.273377850652
 21
78.6475597023964
 31
0.0
  0
LINE
  5
   5CD
  8
0
  6
CONTINUOUS
 62
   152
 10
-200.913377687335
 20
78.6475597023964
 30
0.0
 11
-239.273377850652
 21
78.6475597023964
 31
0.0
  0
LINE
  5
   5CE
  8
0
  6
CONTINUOUS
 62
   152
 10
-200.913377687335
 20
43.3675595521927
 30
0.0
 11
-200.913377687335
 21
78.6475597023964
 31
0.0
  0
LINE
  5
   5CF
  8
0
  6
CONTINUOUS
 62
   152
 10
-200.913377687335
 20
-0.116440686345101
 30
0.0
 11
-200.913377687335
 21
4.16752483731791
 31
0.0
  0
LINE
  5
   5D0
  8
0
  6
CONTINUOUS
 62
   152
 10
-200.493377685547
 20
-0.116440619587898
 30
0.0
 11
-200.913377687335
 21
-0.116440619587898
 31
0.0
  0
LINE
  5
   5D1
  8
0
  6
CONTINUOUS
 62
   152
 10
-200.493377685547
 20
-14.7324406951666
 30
0.0
 11
-200.913377687335
 21
-14.7324406951666
 31
0.0
  0
LINE
  5
   5D2
  8
0
  6
CONTINUOUS
 62
   152
 10
-200.913377687335
 20
-35.0324407815933
 30
0.0
 11
-200.913377687335
 21
-14.7324406951666
 31
0.0
  0
LINE
  5
   5D3
  8
0
  6
CONTINUOUS
 62
   152
 10
-200.913377687335
 20
-35.0324407815933
 30
0.0
 11
-239.273377850652
 21
-35.0324407815933
 31
0.0
  0
LINE
  5
   5D4
  8
0
  6
CONTINUOUS
 62
   152
 10
-239.273377850652
 20
-35.0324407815933
 30
0.0
 11
-239.273377850652
 21
-3.53243851125239
 31
0.0
  0
LINE
  5
   5D5
  8
0
  6
CONTINUOUS
 62
   152
 10
-239.273377850652
 20
-3.25244064629078
 30
0.0
 11
-239.273377850652
 21
3.1875551086664
 31
0.0
  0
LINE
  5
   5D6
  8
0
  6
CONTINUOUS
 62
   152
 10
-239.693377852456
 20
3.18755484163841
 30
0.0
 11
-239.273377850667
 21
3.18755510866722
 31
0.0
  0
LINE
  5
   5D7
  8
0
  6
CONTINUOUS
 62
   152
 10
-239.693374078761
 20
3.18755389870595
 30
0.0
 11
-239.79236699659
 21
3.22855884278871
 31
0.0
  0
LINE
  5
   5D8
  8
0
  6
CONTINUOUS
 62
   152
 10
-239.792371946161
 20
3.22856032803763
 30
0.0
 11
-239.833379026626
 21
3.3275553865165
 31
0.0
  0
LINE
  5
   5D9
  8
0
  6
CONTINUOUS
 62
   152
 10
-238.99337784946
 20
-3.25244064629078
 30
0.0
 11
-239.273377850652
 21
-3.25244064629078
 31
0.0
  0
LINE
  5
   5DA
  8
0
  6
CONTINUOUS
 62
   152
 10
-238.99337784946
 20
-3.53243851125239
 30
0.0
 11
-238.99337784946
 21
-3.25244064629078
 31
0.0
  0
LINE
  5
   5DB
  8
0
  6
CONTINUOUS
 62
   152
 10
-238.99337784946
 20
-3.53243851125239
 30
0.0
 11
-239.273377850652
 21
-3.53243851125239
 31
0.0
  0
LINE
  5
   5DC
  8
0
  6
CONTINUOUS
 62
   152
 10
-200.577377680898
 20
46.8675638395551
 30
0.0
 11
-200.577377764344
 21
47.9875638443234
 31
0.0
  0
LINE
  5
   5DD
  8
0
  6
CONTINUOUS
 62
     3
 10
-247.113360794187
 20
39.0975531881485
 30
0.0
 11
-250.193377897143
 21
39.097554570423
 31
0.0
  0
LINE
  5
   5DE
  8
0
  6
CONTINUOUS
 62
     3
 10
-242.213377863169
 20
-0.102446974813965
 30
0.0
 11
-248.933377891779
 21
-0.10244678632304
 31
0.0
  0
LINE
  5
   5DF
  8
0
  6
CONTINUOUS
 62
     3
 10
-251.7333779037
 20
-0.102446707785155
 30
0.0
 11
-251.7333779037
 21
35.7375534448027
 31
0.0
  0
LINE
  5
   5E0
  8
0
  6
CONTINUOUS
 62
     3
 10
-251.7333779037
 20
38.5375552591681
 30
0.0
 11
-251.7333779037
 21
39.0975552615523
 31
0.0
  0
LINE
  5
   5E1
  8
0
  6
CONTINUOUS
 62
     3
 10
-251.7333779037
 20
35.7375552472472
 30
0.0
 11
-251.7333779037
 21
38.5375552591681
 31
0.0
  0
LINE
  5
   5E2
  8
0
  6
CONTINUOUS
 62
   218
 10
-239.273377850652
 20
-0.102447041571168
 30
0.0
 11
-242.213377863169
 21
-0.102447041571168
 31
0.0
  0
LINE
  5
   5E3
  8
0
  6
CONTINUOUS
 62
   218
 10
-242.213377863169
 20
-0.102447041571168
 30
0.0
 11
-242.213377863169
 21
4.16755733845154
 31
0.0
  0
LINE
  5
   5E4
  8
0
  6
CONTINUOUS
 62
   253
 10
-191.253377646208
 20
97.4075597822666
 30
0.0
 11
-195.733377665281
 21
97.4075597822666
 31
0.0
  0
LINE
  5
   5E5
  8
0
  6
CONTINUOUS
 62
   253
 10
-237.593360753655
 20
13.9325487457215
 30
0.0
 11
-237.593360753655
 21
14.2870850326314
 31
0.0
  0
LINE
  5
   5E6
  8
0
  6
CONTINUOUS
 62
   253
 10
-237.593360753655
 20
14.2870850326314
 30
0.0
 11
-237.593360753655
 21
14.6675487488508
 31
0.0
  0
LINE
  5
   5E7
  8
0
  6
CONTINUOUS
 62
   253
 10
-237.593360753655
 20
14.6675487488508
 30
0.0
 11
-237.593360753655
 21
15.0480124650702
 31
0.0
  0
LINE
  5
   5E8
  8
0
  6
CONTINUOUS
 62
   253
 10
-237.593360753655
 20
15.0480124650702
 30
0.0
 11
-237.593360753655
 21
15.40254875198
 31
0.0
  0
LINE
  5
   5E9
  8
0
  6
CONTINUOUS
 62
   253
 10
-237.593360753655
 20
15.40254875198
 30
0.0
 11
-237.593360753655
 21
15.7069957747606
 31
0.0
  0
LINE
  5
   5EA
  8
0
  6
CONTINUOUS
 62
   253
 10
-237.593360753655
 20
15.7069957747606
 30
0.0
 11
-237.593360753655
 21
15.940606463011
 31
0.0
  0
LINE
  5
   5EB
  8
0
  6
CONTINUOUS
 62
   253
 10
-237.593360753655
 20
15.940606463011
 30
0.0
 11
-237.593360753655
 21
16.08745949098
 31
0.0
  0
LINE
  5
   5EC
  8
0
  6
CONTINUOUS
 62
   253
 10
-237.593360753655
 20
16.08745949098
 30
0.0
 11
-237.593360753655
 21
16.1375487551093
 31
0.0
  0
LINE
  5
   5ED
  8
0
  6
CONTINUOUS
 62
   253
 10
-237.593360753655
 20
13.1975487425923
 30
0.0
 11
-237.593360753655
 21
13.2476380067216
 31
0.0
  0
LINE
  5
   5EE
  8
0
  6
CONTINUOUS
 62
   253
 10
-237.593360753655
 20
13.2476380067216
 30
0.0
 11
-237.593360753655
 21
13.3944910346905
 31
0.0
  0
LINE
  5
   5EF
  8
0
  6
CONTINUOUS
 62
   253
 10
-237.593360753655
 20
13.3944910346905
 30
0.0
 11
-237.593360753655
 21
13.628101722941
 31
0.0
  0
LINE
  5
   5F0
  8
0
  6
CONTINUOUS
 62
   253
 10
-237.593360753655
 20
13.628101722941
 30
0.0
 11
-237.593360753655
 21
13.9325487457215
 31
0.0
  0
LINE
  5
   5F1
  8
0
  6
CONTINUOUS
 62
   152
 10
-200.493377685547
 20
-29.4324407577515
 30
0.0
 11
-200.913377687335
 21
-29.4324407577515
 31
0.0
  0
LINE
  5
   5F2
  8
0
  6
CONTINUOUS
 62
   152
 10
-200.493377685547
 20
-32.7924407720566
 30
0.0
 11
-200.913377687335
 21
-32.7924407720566
 31
0.0
  0
LINE
  5
   5F3
  8
0
  6
CONTINUOUS
 62
   152
 10
-200.493377685547
 20
73.0475596785545
 30
0.0
 11
-200.913377687335
 21
73.0475596785545
 31
0.0
  0
LINE
  5
   5F4
  8
0
  6
CONTINUOUS
 62
   152
 10
-200.493377685547
 20
76.4075596928597
 30
0.0
 11
-200.913377687335
 21
76.4075596928597
 31
0.0
  0
LINE
  5
   5F5
  8
0
  6
CONTINUOUS
 62
   152
 10
-200.577377672553
 20
46.8675638395548
 30
0.0
 11
-200.913377687335
 21
46.8675638395548
 31
0.0
  0
LINE
  5
   5F6
  8
0
  6
CONTINUOUS
 62
   152
 10
-200.577377772689
 20
47.9875638443232
 30
0.0
 11
-200.913377754092
 21
47.9875638443232
 31
0.0
  0
LINE
  5
   5F7
  8
0
  6
CONTINUOUS
 62
     7
 10
-210.853386335379
 20
2.83755724340676
 30
0.0
 11
-210.853386335379
 21
4.16755733845154
 31
0.0
  0
LINE
  5
   5F8
  8
0
  6
CONTINUOUS
 62
     7
 10
-239.833379026626
 20
3.3275553865165
 30
0.0
 11
-239.833379026626
 21
4.16755733845154
 31
0.0
  0
LINE
  5
   5F9
  8
0
  6
CONTINUOUS
 62
     7
 10
-182.573377609253
 20
-2.4124406427145
 30
0.0
 11
-182.573377609253
 21
46.0275595635176
 31
0.0
  0
LINE
  5
   5FA
  8
0
  6
CONTINUOUS
 62
   253
 10
-191.253377646208
 20
78.6475597023964
 30
0.0
 11
-191.253377646208
 21
97.4075597822666
 31
0.0
  0
LINE
  5
   5FB
  8
0
  6
CONTINUOUS
 62
   253
 10
-195.733377665281
 20
78.6475597023964
 30
0.0
 11
-195.733377665281
 21
97.4075597822666
 31
0.0
  0
LINE
  5
   5FC
  8
0
  6
CONTINUOUS
 62
   253
 10
-193.493377655745
 20
78.6475597023964
 30
0.0
 11
-193.493377655745
 21
97.4075597822666
 31
0.0
  0
LINE
  5
   5FD
  8
0
  6
CONTINUOUS
 62
   253
 10
-191.253377646208
 20
-53.7924408614635
 30
0.0
 11
-195.733377665281
 21
-53.7924408614635
 31
0.0
  0
LINE
  5
   5FE
  8
0
  6
CONTINUOUS
 62
   253
 10
-195.733377665281
 20
-53.7924408614635
 30
0.0
 11
-195.733377665281
 21
-35.0324407815933
 31
0.0
  0
LINE
  5
   5FF
  8
0
  6
CONTINUOUS
 62
   253
 10
-193.493377655745
 20
-53.7924408614635
 30
0.0
 11
-193.493377655745
 21
-35.0324407815933
 31
0.0
  0
LINE
  5
   600
  8
0
  6
CONTINUOUS
 62
   253
 10
-191.253377646208
 20
-53.7924408614635
 30
0.0
 11
-191.253377646208
 21
-35.0324407815933
 31
0.0
  0
LINE
  5
   601
  8
0
  6
DASHDOT
 62
     7
 10
-169.138506425158
 20
59.6075553488731
 30
0.0
 11
-188.430814806148
 21
59.6075553488731
 31
0.0
  0
LINE
  5
   602
  8
0
  6
DASHDOT
 62
     7
 10
-169.138506425158
 20
-15.9924364280701
 30
0.0
 11
-188.430814806148
 21
-15.9924364280701
 31
0.0
  0
LINE
  5
   603
  8
0
  6
DASHDOT
 62
     7
 10
-165.795282381877
 20
19.497553104704
 30
0.0
 11
-265.128456312322
 21
19.497553104704
 31
0.0
  0
LINE
  5
   604
  8
0
  6
CONTINUOUS
 62
   253
 10
-183.693377614021
 20
4.1674750042532
 30
0.0
 11
-183.693377614021
 21
43.3675638246536
 31
0.0
  0
LINE
  5
   605
  8
0
  6
CONTINUOUS
 62
   132
 10
-253.365101289009
 20
10.434521183278
 30
0.0
 11
-254.063486328924
 21
12.5946774066941
 31
0.0
  0
LINE
  5
   606
  8
0
  6
CONTINUOUS
 62
   132
 10
-253.233022411776
 20
10.2749961919429
 30
0.0
 11
-253.365096991687
 21
10.4345234704559
 31
0.0
  0
LINE
  5
   607
  8
0
  6
CONTINUOUS
 62
   132
 10
-253.027450308718
 20
10.2498670831676
 30
0.0
 11
-253.23302404155
 21
10.2749955615293
 31
0.0
  0
LINE
  5
   608
  8
0
  6
CONTINUOUS
 62
   132
 10
-253.027450457999
 20
10.2498670156635
 30
0.0
 11
-251.7333779037
 21
10.590241395833
 31
0.0
  0
LINE
  5
   609
  8
0
  6
CONTINUOUS
 62
   132
 10
-253.897844754179
 20
12.9420475391233
 30
0.0
 11
-251.7333779037
 21
13.7770714395472
 31
0.0
  0
LINE
  5
   60A
  8
0
  6
CONTINUOUS
 62
   132
 10
-254.049802810664
 20
12.8013291832386
 30
0.0
 11
-253.897844186301
 21
12.9420469592238
 31
0.0
  0
LINE
  5
   60B
  8
0
  6
CONTINUOUS
 62
   132
 10
-254.063484488169
 20
12.5946786005114
 30
0.0
 11
-254.049799795866
 21
12.8013311336121
 31
0.0
  0
LINE
  5
   60C
  8
0
  6
DASHDOT
 62
     7
 10
-189.28439504611
 20
87.3275597393513
 30
0.0
 11
-197.78427126894
 21
87.3275597393513
 31
0.0
  0
LINE
  5
   60D
  8
0
  6
DASHDOT
 62
     7
 10
-189.28439504611
 20
93.4875597655773
 30
0.0
 11
-197.903987835458
 21
93.4875597655773
 31
0.0
  0
LINE
  5
   60E
  8
0
  6
DASHDOT
 62
     7
 10
-189.404111612629
 20
-49.8724408447742
 30
0.0
 11
-198.143420968496
 21
-49.8724408447742
 31
0.0
  0
LINE
  5
   60F
  8
0
  6
DASHDOT
 62
     7
 10
-189.643544745666
 20
-43.7124408185482
 30
0.0
 11
-198.143420968496
 21
-43.7124408185482
 31
0.0
  0
LINE
  5
   610
  8
0
  6
DOT
 62
     7
 10
-181.733377605677
 20
-47.2546187482977
 30
0.0
 11
-181.733377605677
 21
91.6048432907389
 31
0.0
  0
LINE
  5
   611
  8
0
  6
DASHDOT
 62
     7
 10
-177.552171527274
 20
21.8075594604015
 30
0.0
 11
-187.608363114848
 21
21.8075594604015
 31
0.0
  0
LINE
  5
   612
  8
0
  6
DOT
 62
     7
 10
-176.973377585411
 20
44.207559555769
 30
0.0
 11
-182.573377609253
 21
44.207559555769
 31
0.0
  0
LINE
  5
   613
  8
0
  6
DOT
 62
     7
 10
-176.973377585411
 20
-0.592440634965897
 30
0.0
 11
-182.573377609253
 21
-0.592440634965897
 31
0.0
  0
LINE
  5
   614
  8
0
  6
DOT
 62
     7
 10
-176.973377585411
 20
43.3675595521927
 30
0.0
 11
-181.733377605677
 21
43.3675595521927
 31
0.0
  0
LINE
  5
   615
  8
0
  6
DOT
 62
     7
 10
-176.973377585411
 20
0.247559368610382
 30
0.0
 11
-181.733377605677
 21
0.247559368610382
 31
0.0
  0
LINE
  5
   616
  8
0
  6
DOT
 62
     7
 10
-176.973377585411
 20
-0.592440634965897
 30
0.0
 11
-176.973377585411
 21
0.247559368610382
 31
0.0
  0
LINE
  5
   617
  8
0
  6
DOT
 62
     7
 10
-176.973377585411
 20
43.3675595521927
 30
0.0
 11
-176.973377585411
 21
44.207559555769
 31
0.0
  0
CIRCLE
  5
   618
  8
0
  6
CONTINUOUS
 62
   253
 10
-243.753380163079
 20
21.8075489021094
 30
0.0
 40
2.79999899113124
  0
CIRCLE
  5
   619
  8
0
  6
CONTINUOUS
 62
   253
 10
-243.753381198036
 20
21.8075498926451
 30
0.0
 40
0.769998094963305
  0
LINE
  5
   61A
  8
0
  6
DASHDOT
 62
     7
 10
-243.753380163079
 20
18.727549909786
 30
0.0
 11
-243.753380163079
 21
24.8875478944327
 31
0.0
  0
LINE
  5
   61B
  8
0
  6
DASHDOT
 62
     7
 10
-240.673381170755
 20
21.8075489021094
 30
0.0
 11
-246.833379155402
 21
21.8075489021094
 31
0.0
  0
CIRCLE
  5
   61C
  8
0
  6
CONTINUOUS
 62
   253
 10
-193.493378953119
 20
36.9275578388218
 30
0.0
 40
1.67999992968917
  0
CIRCLE
  5
   61D
  8
0
  6
CONTINUOUS
 62
   253
 10
-193.493375708844
 20
36.92755744178
 30
0.0
 40
0.909999007111326
  0
CIRCLE
  5
   61E
  8
0
  6
CONTINUOUS
 62
   253
 10
-193.493377295571
 20
8.92756347076007
 30
0.0
 40
1.6799996624082
  0
CIRCLE
  5
   61F
  8
0
  6
CONTINUOUS
 62
   253
 10
-193.493378196757
 20
8.9275604374736
 30
0.0
 40
0.909999973193807
  0
LINE
  5
   620
  8
0
  6
DASHDOT
 62
     7
 10
-193.493377295571
 20
6.96756380715977
 30
0.0
 11
-193.493377295571
 21
10.8875631343604
 31
0.0
  0
LINE
  5
   621
  8
0
  6
DASHDOT
 62
     7
 10
-191.533377631971
 20
8.92756347076007
 30
0.0
 11
-195.453376959171
 21
8.92756347076007
 31
0.0
  0
LINE
  5
   622
  8
0
  6
DASHDOT
 62
     7
 10
-193.493378953119
 20
34.9675579079405
 30
0.0
 11
-193.493378953119
 21
38.887557769703
 31
0.0
  0
LINE
  5
   623
  8
0
  6
DASHDOT
 62
     7
 10
-191.533379022238
 20
36.9275578388218
 30
0.0
 11
-195.453378884
 21
36.9275578388218
 31
0.0
  0
LINE
  5
   624
  8
0
  6
CONTINUOUS
 62
     7
 10
-248.903458831916
 20
52.4980201412063
 30
0.0
 11
-251.433143677308
 21
53.1916434052655
 31
0.0
  0
LINE
  5
   625
  8
0
  6
CONTINUOUS
 62
     7
 10
-250.753378967643
 20
45.1175532137805
 30
0.0
 11
-250.753378967643
 21
53.005256307454
 31
0.0
  0
LINE
  5
   626
  8
0
  6
CONTINUOUS
 62
     7
 10
-250.193378965259
 20
45.1175532137805
 30
0.0
 11
-250.193378965259
 21
52.8517079197035
 31
0.0
  0
LINE
  5
   627
  8
0
  6
CONTINUOUS
 62
     7
 10
-250.193378965259
 20
45.2575532143765
 30
0.0
 11
-250.753377899528
 21
45.2575532143765
 31
0.0
  0
LINE
  5
   628
  8
0
  6
CONTINUOUS
 62
     1
 10
-250.753377899528
 20
-3.04244805937474
 30
0.0
 11
-250.753377899528
 21
45.1175532137805
 31
0.0
  0
LINE
  5
   629
  8
0
  6
CONTINUOUS
 62
     1
 10
-251.7333779037
 20
14.2475514801794
 30
0.0
 11
-251.7333779037
 21
46.9375532215291
 31
0.0
  0
LINE
  5
   62A
  8
0
  6
CONTINUOUS
 62
     7
 10
-249.213377892971
 20
45.1175532137805
 30
0.0
 11
-250.753377899528
 21
45.1175532137805
 31
0.0
  0
LINE
  5
   62B
  8
0
  6
CONTINUOUS
 62
     7
 10
-248.933377480223
 20
44.9558953991284
 30
0.0
 11
-249.213377490634
 21
45.1175525063356
 31
0.0
  0
LINE
  5
   62C
  8
0
  6
CONTINUOUS
 62
     7
 10
-249.213377892971
 20
43.4375526353173
 30
0.0
 11
-249.213377892971
 21
45.1175527386234
 31
0.0
  0
LINE
  5
   62D
  8
0
  6
CONTINUOUS
 62
     7
 10
-248.933377891779
 20
43.5992103118084
 30
0.0
 11
-248.933377891779
 21
44.9558961086
 31
0.0
  0
LINE
  5
   62E
  8
0
  6
CONTINUOUS
 62
     7
 10
-250.193378965259
 20
43.2975532060319
 30
0.0
 11
-250.753377899528
 21
43.2975532060319
 31
0.0
  0
LINE
  5
   62F
  8
0
  6
CONTINUOUS
 62
     1
 10
-250.193377897143
 20
20.3375536423379
 30
0.0
 11
-250.193377897143
 21
43.4375532066279
 31
0.0
  0
LINE
  5
   630
  8
0
  6
CONTINUOUS
 62
     7
 10
-249.213377892971
 20
43.4375532066279
 30
0.0
 11
-250.753377899528
 21
43.4375532066279
 31
0.0
  0
LINE
  5
   631
  8
0
  6
CONTINUOUS
 62
     7
 10
-249.213377943767
 20
43.4375526059905
 30
0.0
 11
-248.933377933355
 21
43.5992097131978
 31
0.0
  0
LINE
  5
   632
  8
0
  6
CONTINUOUS
 62
     7
 10
-250.193377897143
 20
20.4775536429339
 30
0.0
 11
-250.753377899528
 21
20.4775536429339
 31
0.0
  0
LINE
  5
   633
  8
0
  6
CONTINUOUS
 62
     7
 10
-249.213377892971
 20
20.3375536423379
 30
0.0
 11
-250.753377899528
 21
20.3375536423379
 31
0.0
  0
LINE
  5
   634
  8
0
  6
CONTINUOUS
 62
     7
 10
-250.193377897143
 20
18.5175536345893
 30
0.0
 11
-250.753377899528
 21
18.5175536345893
 31
0.0
  0
LINE
  5
   635
  8
0
  6
CONTINUOUS
 62
     7
 10
-249.213377892971
 20
18.6575536351853
 30
0.0
 11
-250.753377899528
 21
18.6575536351853
 31
0.0
  0
LINE
  5
   636
  8
0
  6
CONTINUOUS
 62
     7
 10
-249.213377854886
 20
18.6575532911241
 30
0.0
 11
-248.933377844475
 21
18.8192103983313
 31
0.0
  0
LINE
  5
   637
  8
0
  6
CONTINUOUS
 62
     7
 10
-248.933377891779
 20
18.8192107403658
 30
0.0
 11
-248.933377891779
 21
20.175894400927
 31
0.0
  0
LINE
  5
   638
  8
0
  6
CONTINUOUS
 62
     7
 10
-249.213377892971
 20
18.6575536351853
 30
0.0
 11
-249.213377892971
 21
20.3375536423379
 31
0.0
  0
LINE
  5
   639
  8
0
  6
CONTINUOUS
 62
     7
 10
-248.933377443891
 20
20.1758937705944
 30
0.0
 11
-249.213377454303
 21
20.3375530113648
 31
0.0
  0
LINE
  5
   63A
  8
0
  6
CONTINUOUS
 62
     1
 10
-250.193377897143
 20
10.117551462596
 30
0.0
 11
-250.193377897143
 21
18.6575557714158
 31
0.0
  0
INSERT
  5
   63B
  8
0
  6
CONTINUOUS
 62
     7
  2
*HATCH263
 10
-200.493377685547
 20
-0.87244063615799
 30
0.0
 41
0.280000001192093
 42
0.280000001192093
 50
89.9999999480344
 43
0.280000001192093
  0
LINE
  5
   63C
  8
0
  6
CONTINUOUS
 62
     7
 10
-250.193377897143
 20
10.3975514637881
 30
0.0
 11
-250.753377899528
 21
10.3975514637881
 31
0.0
  0
LINE
  5
   63D
  8
0
  6
CONTINUOUS
 62
     1
 10
-251.7333779037
 20
10.3975514637881
 30
0.0
 11
-251.7333779037
 21
14.2475536164099
 31
0.0
  0
LINE
  5
   63E
  8
0
  6
CONTINUOUS
 62
     7
 10
-251.173377901316
 20
5.07755144113833
 30
0.0
 11
-251.173377901316
 21
11.5175514685565
 31
0.0
  0
LINE
  5
   63F
  8
0
  6
CONTINUOUS
 62
     7
 10
-251.453377902508
 20
10.3975514637881
 30
0.0
 11
-251.7333779037
 21
10.3975514637881
 31
0.0
  0
LINE
  5
   640
  8
0
  6
CONTINUOUS
 62
     7
 10
-251.453377902508
 20
10.3975514637881
 30
0.0
 11
-251.453377902508
 21
11.5175514685565
 31
0.0
  0
LINE
  5
   641
  8
0
  6
CONTINUOUS
 62
     7
 10
-251.173377901316
 20
11.5175514685565
 30
0.0
 11
-251.453377902508
 21
11.5175514685565
 31
0.0
  0
LINE
  5
   642
  8
0
  6
CONTINUOUS
 62
     7
 10
-247.953377887607
 20
10.117551462596
 30
0.0
 11
-250.753377899528
 21
10.117551462596
 31
0.0
  0
LINE
  5
   643
  8
0
  6
CONTINUOUS
 62
     7
 10
-251.453377902508
 20
5.07755144113833
 30
0.0
 11
-251.453377902508
 21
6.1975514459067
 31
0.0
  0
LINE
  5
   644
  8
0
  6
CONTINUOUS
 62
     7
 10
-251.453377902508
 20
6.19755144590671
 30
0.0
 11
-251.7333779037
 21
6.19755144590671
 31
0.0
  0
LINE
  5
   645
  8
0
  6
CONTINUOUS
 62
     7
 10
-247.953377887607
 20
6.4776091253217
 30
0.0
 11
-250.753377899528
 21
6.4776091253217
 31
0.0
  0
LINE
  5
   646
  8
0
  6
CONTINUOUS
 62
     7
 10
-247.953377887607
 20
6.4776091253217
 30
0.0
 11
-247.953377887607
 21
10.117551462596
 31
0.0
  0
LINE
  5
   647
  8
0
  6
CONTINUOUS
 62
     7
 10
-251.173377901316
 20
5.07755144113834
 30
0.0
 11
-251.453377902508
 21
5.07755144113834
 31
0.0
  0
LINE
  5
   648
  8
0
  6
CONTINUOUS
 62
     7
 10
-250.193377897143
 20
6.19760912412961
 30
0.0
 11
-250.753377899528
 21
6.19760912412961
 31
0.0
  0
LINE
  5
   649
  8
0
  6
CONTINUOUS
 62
     7
 10
-250.193378965259
 20
-4.44244699721997
 30
0.0
 11
-250.193378965259
 21
6.47760912532171
 31
0.0
  0
LINE
  5
   64A
  8
0
  6
CONTINUOUS
 62
     1
 10
-251.7333779037
 20
-7.94244701212112
 30
0.0
 11
-251.7333779037
 21
6.19755144590671
 31
0.0
  0
LINE
  5
   64B
  8
0
  6
CONTINUOUS
 62
     7
 10
-250.753378967643
 20
-22.1158029259182
 30
0.0
 11
-250.753378967643
 21
6.4776091253217
 31
0.0
  0
LINE
  5
   64C
  8
0
  6
CONTINUOUS
 62
     7
 10
-250.193378965259
 20
-21.9991617040475
 30
0.0
 11
-250.193378965259
 21
-6.12244700437252
 31
0.0
  0
LINE
  5
   64D
  8
0
  6
CONTINUOUS
 62
     7
 10
-252.553893560669
 20
-22.4908283209759
 30
0.0
 11
-248.370378931275
 21
-21.6194528638177
 31
0.0
  0
LINE
  5
   64E
  8
0
  6
CONTINUOUS
 62
     1
 10
-228.913377806544
 20
43.3675595521927
 30
0.0
 11
-228.913377806544
 21
78.6475597023964
 31
0.0
  0
LINE
  5
   64F
  8
0
  6
CONTINUOUS
 62
     1
 10
-200.913377687335
 20
-2.55244064331055
 30
0.0
 11
-239.273377850652
 21
-2.55244064331055
 31
0.0
  0
LINE
  5
   650
  8
0
  6
CONTINUOUS
 62
     1
 10
-228.913377806544
 20
-2.55244064331055
 30
0.0
 11
-228.913377806544
 21
4.16755733845154
 31
0.0
  0
CIRCLE
  5
   651
  8
0
  6
CONTINUOUS
 62
     7
 10
-217.528597821251
 20
69.8039584794212
 30
0.0
 40
5.00000007450581E-2
  0
CIRCLE
  5
   652
  8
0
  6
CONTINUOUS
 62
     7
 10
-192.798824550065
 20
79.8562028598379
 30
0.0
 40
5.00000007450581E-2
  0
LINE
  5
   653
  8
0
  6
CONTINUOUS
 62
   253
 10
-203.223374492824
 20
39.6575691011084
 30
0.0
 11
-210.29337772727
 21
39.6575691011084
 31
0.0
  0
LINE
  5
   654
  8
0
  6
CONTINUOUS
 62
   253
 10
-203.223374559581
 20
37.6275690924662
 30
0.0
 11
-210.293377794027
 21
37.6275690924662
 31
0.0
  0
LINE
  5
   655
  8
0
  6
CONTINUOUS
 62
   253
 10
-210.293377794027
 20
37.6275680358452
 30
0.0
 11
-210.29337772727
 21
39.6575680444878
 31
0.0
  0
LINE
  5
   656
  8
0
  6
CONTINUOUS
 62
   253
 10
-203.223374626339
 20
37.6275632983855
 30
0.0
 11
-203.223374492824
 21
39.6575633070282
 31
0.0
  0
LINE
  5
   657
  8
0
  6
CONTINUOUS
 62
   253
 10
-203.223376603732
 20
6.54757754737273
 30
0.0
 11
-210.293379838178
 21
6.54757754737273
 31
0.0
  0
LINE
  5
   658
  8
0
  6
CONTINUOUS
 62
   253
 10
-210.293379921049
 20
5.28758071554134
 30
0.0
 11
-210.293379838178
 21
6.5475764484448
 31
0.0
  0
LINE
  5
   659
  8
0
  6
CONTINUOUS
 62
   253
 10
-203.223376153171
 20
5.28756743317016
 30
0.0
 11
-210.293379921582
 21
5.28758071555147
 31
0.0
  0
LINE
  5
   65A
  8
0
  6
CONTINUOUS
 62
   253
 10
-203.237952787969
 20
5.2875620935423
 30
0.0
 11
-203.237952705098
 21
6.54757117788625
 31
0.0
  0
LINE
  5
   65B
  8
0
  6
DASHDOT
 62
     7
 10
-177.552171527274
 20
38.6075595319271
 30
0.0
 11
-187.800445682463
 21
38.6075595319271
 31
0.0
  0
LINE
  5
   65C
  8
0
  6
DASHDOT
 62
     7
 10
-177.552171527274
 20
5.00755938887596
 30
0.0
 11
-187.608363114848
 21
5.00755938887596
 31
0.0
  0
LINE
  5
   65D
  8
0
  6
CONTINUOUS
 62
     7
 10
-180.333377599716
 20
2.99435938030481
 30
0.0
 11
-181.733377605677
 21
2.99435938030481
 31
0.0
  0
LINE
  5
   65E
  8
0
  6
CONTINUOUS
 62
     7
 10
-180.333377599716
 20
7.02075939744711
 30
0.0
 11
-181.733377605677
 21
7.02075939744711
 31
0.0
  0
LINE
  5
   65F
  8
0
  6
CONTINUOUS
 62
     7
 10
-180.333377599716
 20
2.99435938030481
 30
0.0
 11
-180.333377599716
 21
7.02075939744711
 31
0.0
  0
LINE
  5
   660
  8
0
  6
CONTINUOUS
 62
     7
 10
-180.333377599716
 20
36.594359523356
 30
0.0
 11
-180.333377599716
 21
40.6207595404983
 31
0.0
  0
LINE
  5
   661
  8
0
  6
CONTINUOUS
 62
     7
 10
-180.333377599716
 20
40.6207595404983
 30
0.0
 11
-181.733377605677
 21
40.6207595404983
 31
0.0
  0
LINE
  5
   662
  8
0
  6
CONTINUOUS
 62
     7
 10
-180.333377599716
 20
36.594359523356
 30
0.0
 11
-181.733377605677
 21
36.594359523356
 31
0.0
  0
LINE
  5
   663
  8
0
  6
CONTINUOUS
 62
     7
 10
-250.753377899528
 20
46.9375532215291
 30
0.0
 11
-251.7333779037
 21
46.9375532215291
 31
0.0
  0
LINE
  5
   664
  8
0
  6
CONTINUOUS
 62
     7
 10
-250.753377899528
 20
-7.94244701212112
 30
0.0
 11
-251.7333779037
 21
-7.94244701212112
 31
0.0
  0
LINE
  5
   665
  8
0
  6
CONTINUOUS
 62
     7
 10
-250.193378965259
 20
-6.26244700496857
 30
0.0
 11
-250.753377899528
 21
-6.26244700496857
 31
0.0
  0
LINE
  5
   666
  8
0
  6
CONTINUOUS
 62
     7
 10
-249.213377892971
 20
-6.12244700437252
 30
0.0
 11
-250.753377899528
 21
-6.12244700437252
 31
0.0
  0
LINE
  5
   667
  8
0
  6
CONTINUOUS
 62
     7
 10
-249.213377892971
 20
-4.44244699721997
 30
0.0
 11
-250.753377899528
 21
-4.44244699721997
 31
0.0
  0
LINE
  5
   668
  8
0
  6
CONTINUOUS
 62
     7
 10
-250.193378965259
 20
-4.30244699662392
 30
0.0
 11
-250.753377899528
 21
-4.30244699662392
 31
0.0
  0
LINE
  5
   669
  8
0
  6
CONTINUOUS
 62
     7
 10
-249.213377892971
 20
-6.12244652921543
 30
0.0
 11
-249.213377892971
 21
-4.44244642590937
 31
0.0
  0
LINE
  5
   66A
  8
0
  6
CONTINUOUS
 62
     7
 10
-248.933377891779
 20
-5.96078989919209
 30
0.0
 11
-248.933377891779
 21
-4.6041041024004
 31
0.0
  0
LINE
  5
   66B
  8
0
  6
CONTINUOUS
 62
     7
 10
-249.213377490634
 20
-6.12244629692766
 30
0.0
 11
-248.933377480223
 21
-5.96078918972043
 31
0.0
  0
LINE
  5
   66C
  8
0
  6
CONTINUOUS
 62
     7
 10
-248.933377933355
 20
-4.60410350378981
 30
0.0
 11
-249.213377943767
 21
-4.44244639658258
 31
0.0
  0
INSERT
  5
   66D
  8
0
  6
CONTINUOUS
 62
     7
  2
*HATCH264
 10
-200.493377685547
 20
-0.87244063615799
 30
0.0
 41
0.280000001192093
 42
0.280000001192093
 50
89.9999999480344
 43
0.280000001192093
  0
INSERT
  5
   66E
  8
0
  6
CONTINUOUS
 62
     7
  2
*HATCH265
 10
-200.493377685547
 20
-0.87244063615799
 30
0.0
 41
0.280000001192093
 42
0.280000001192093
 50
89.9999999480344
 43
0.280000001192093
  0
INSERT
  5
   66F
  8
0
  6
CONTINUOUS
 62
     7
  2
*HATCH266
 10
-200.493377685547
 20
-0.87244063615799
 30
0.0
 41
0.280000001192093
 42
0.280000001192093
 50
89.9999999480344
 43
0.280000001192093
  0
INSERT
  5
   670
  8
0
  6
CONTINUOUS
 62
     7
  2
*HATCH267
 10
-200.493377685547
 20
-0.87244063615799
 30
0.0
 41
0.280000001192093
 42
0.280000001192093
 50
89.9999999480344
 43
0.280000001192093
  0
LINE
  5
   671
  8
0
  6
CONTINUOUS
 62
     7
 10
-247.533379487991
 20
39.5175531899386
 30
0.0
 11
-248.233381093144
 21
39.5175531899386
 31
0.0
  0
LINE
  5
   672
  8
0
  6
CONTINUOUS
 62
     7
 10
-247.533379487991
 20
39.5175531899386
 30
0.0
 11
-247.533379487991
 21
42.4575532024556
 31
0.0
  0
LINE
  5
   673
  8
0
  6
CONTINUOUS
 62
     7
 10
-248.513381094337
 20
43.4375532066279
 30
0.0
 11
-249.213381097317
 21
43.4375532066279
 31
0.0
  0
LINE
  5
   674
  8
0
  6
CONTINUOUS
 62
     7
 10
-249.493381098509
 20
45.1175532137805
 30
0.0
 11
-249.493381098509
 21
45.9575532173568
 31
0.0
  0
LINE
  5
   675
  8
0
  6
CONTINUOUS
 62
     7
 10
-249.493381098509
 20
45.9575532173568
 30
0.0
 11
-250.193378965259
 21
45.9575532173568
 31
0.0
  0
LINE
  5
   676
  8
0
  6
CONTINUOUS
 62
     7
 10
-248.513381094337
 20
42.7375532036477
 30
0.0
 11
-249.213381097317
 21
42.7375532036477
 31
0.0
  0
LINE
  5
   677
  8
0
  6
CONTINUOUS
 62
     7
 10
-248.233381093144
 20
39.5175531899386
 30
0.0
 11
-248.233381093144
 21
42.4575532024556
 31
0.0
  0
ARC
  5
   678
  8
0
  6
CONTINUOUS
 62
     7
 10
-248.513385197318
 20
42.4575496502903
 30
0.0
 40
0.980005171044693
 50
360.000319242658
 51
449.999813057862
  0
ARC
  5
   679
  8
0
  6
CONTINUOUS
 62
     7
 10
-248.513368704855
 20
42.4575646529947
 30
0.0
 40
0.279985951140214
 50
359.998830132094
 51
450.002235749312
  0
ARC
  5
   67A
  8
0
  6
CONTINUOUS
 62
     7
 10
-249.213386515984
 20
43.7175442346784
 30
0.0
 40
0.979991899836675
 50
196.601143374768
 51
270.000346548696
  0
LINE
  5
   67B
  8
0
  6
CONTINUOUS
 62
     7
 10
-247.533379487991
 20
42.0375532006675
 30
0.0
 11
-248.233381093144
 21
42.0375532006675
 31
0.0
  0
INSERT
  5
   67C
  8
0
  6
CONTINUOUS
 62
     7
  2
*HATCH268
 10
-200.493377685547
 20
-0.87244063615799
 30
0.0
 41
0.280000001192093
 42
0.280000001192093
 50
89.9999999480344
 43
0.280000001192093
  0
LINE
  5
   67D
  8
0
  6
DOT
 62
     7
 10
-182.573377609253
 20
-47.1923499312399
 30
0.0
 11
-182.573377609253
 21
-2.4124406427145
 31
0.0
  0
LINE
  5
   67E
  8
0
  6
DOT
 62
     7
 10
-182.573377609253
 20
46.0275595635176
 30
0.0
 11
-182.573377609253
 21
89.8613164131187
 31
0.0
  0
LINE
  5
   67F
  8
0
  6
CONTINUOUS
 62
     1
 10
-236.473377838731
 20
78.6475597023964
 30
0.0
 11
-236.473377838731
 21
80.6075597107411
 31
0.0
  0
LINE
  5
   680
  8
0
  6
CONTINUOUS
 62
     1
 10
-236.473377838731
 20
-36.992440789938
 30
0.0
 11
-236.473377838731
 21
-35.0324407815933
 31
0.0
  0
LINE
  5
   681
  8
0
  6
CONTINUOUS
 62
     1
 10
-200.913377687335
 20
-36.992440789938
 30
0.0
 11
-236.473377838731
 21
-36.992440789938
 31
0.0
  0
LINE
  5
   682
  8
0
  6
CONTINUOUS
 62
     1
 10
-200.913377687335
 20
80.6075597107411
 30
0.0
 11
-236.473377838731
 21
80.6075597107411
 31
0.0
  0
LINE
  5
   683
  8
0
  6
CONTINUOUS
 62
     1
 10
-200.913377687335
 20
78.6475597023964
 30
0.0
 11
-200.913377687335
 21
80.6075597107411
 31
0.0
  0
LINE
  5
   684
  8
0
  6
CONTINUOUS
 62
     1
 10
-200.913377687335
 20
-36.992440789938
 30
0.0
 11
-200.913377687335
 21
-35.0324407815933
 31
0.0
  0
LINE
  5
   685
  8
0
  6
DOT
 62
     7
 10
-254.813360826969
 20
39.0975322656554
 30
0.0
 11
-259.433377936482
 21
39.0975322656554
 31
0.0
  0
LINE
  5
   686
  8
0
  6
DOT
 62
     7
 10
-259.433377936482
 20
-0.10244814502846
 30
0.0
 11
-259.433377936482
 21
39.0975322656554
 31
0.0
  0
LINE
  5
   687
  8
0
  6
DOT
 62
     7
 10
-261.597844786962
 20
12.9420475391233
 30
0.0
 11
-259.433377936482
 21
13.7770714395472
 31
0.0
  0
LINE
  5
   688
  8
0
  6
DOT
 62
     7
 10
-261.763484520952
 20
12.5946786005114
 30
0.0
 11
-261.749799828649
 21
12.8013311336121
 31
0.0
  0
LINE
  5
   689
  8
0
  6
DOT
 62
     7
 10
-261.065101321792
 20
10.434521183278
 30
0.0
 11
-261.763486361706
 21
12.5946774066941
 31
0.0
  0
LINE
  5
   68A
  8
0
  6
DOT
 62
     7
 10
-261.749802843446
 20
12.8013291832386
 30
0.0
 11
-261.597844219084
 21
12.9420469592238
 31
0.0
  0
LINE
  5
   68B
  8
0
  6
DOT
 62
     7
 10
-260.933022444559
 20
10.2749961919429
 30
0.0
 11
-261.06509702447
 21
10.4345234704559
 31
0.0
  0
LINE
  5
   68C
  8
0
  6
DOT
 62
     7
 10
-260.727450341501
 20
10.2498670831676
 30
0.0
 11
-260.933024074332
 21
10.2749955615293
 31
0.0
  0
LINE
  5
   68D
  8
0
  6
DOT
 62
     7
 10
-260.727450490782
 20
10.2498670156635
 30
0.0
 11
-259.433377936482
 21
10.590241395833
 31
0.0
  0
LINE
  5
   68E
  8
0
  6
CONTINUOUS
 62
     3
 10
-254.313580680839
 20
-0.10244814502846
 30
0.0
 11
-259.433377936482
 21
-0.10244814502846
 31
0.0
  0
LINE
  5
   68F
  8
0
  6
CONTINUOUS
 62
     7
 10
-179.213377594948
 20
6.12755939364433
 30
0.0
 11
-181.733377605677
 21
6.12755939364433
 31
0.0
  0
LINE
  5
   690
  8
0
  6
CONTINUOUS
 62
     7
 10
-179.213377594948
 20
3.88755938410759
 30
0.0
 11
-181.733377605677
 21
3.88755938410759
 31
0.0
  0
LINE
  5
   691
  8
0
  6
CONTINUOUS
 62
     7
 10
-179.213377594948
 20
39.7275595366955
 30
0.0
 11
-181.733377605677
 21
39.7275595366955
 31
0.0
  0
LINE
  5
   692
  8
0
  6
CONTINUOUS
 62
     7
 10
-179.213377594948
 20
37.4875595271587
 30
0.0
 11
-181.733377605677
 21
37.4875595271587
 31
0.0
  0
LINE
  5
   693
  8
0
  6
CONTINUOUS
 62
     7
 10
-179.213377594948
 20
3.88755938410759
 30
0.0
 11
-179.213377594948
 21
6.12755939364433
 31
0.0
  0
LINE
  5
   694
  8
0
  6
CONTINUOUS
 62
     7
 10
-179.213377594948
 20
37.4875595271587
 30
0.0
 11
-179.213377594948
 21
39.7275595366955
 31
0.0
  0
POINT
  5
   695
  8
0
  6
CONTINUOUS
 62
     7
 10
-180.844473547107
 20
4.65545543446099
 30
0.0
  0
CIRCLE
  5
   696
  8
0
  6
CONTINUOUS
 62
     7
 10
-180.844473547107
 20
4.65545543446099
 30
0.0
 40
0.112000000476837
  0
TEXT
  5
   697
  8
0
  6
CONTINUOUS
 62
     7
 10
-248.620298205477
 20
-51.0772949427796
 30
0.0
 40
2.99999998416219
  1
ISOLATING DISTANCE
 50
359.999999948034
 41
0.916666624585787
 72
     1
 11
-224.145299453126
 21
-49.5772949727736
 31
0.0
 73
     2
  0
INSERT
  5
   698
  8
0
  6
CONTINUOUS
 62
     7
  2
*UDIM1217
 10
0.0
 20
0.0
 30
0.0
  0
INSERT
  5
   699
  8
0
  6
CONTINUOUS
 62
     7
  2
*UDIM1218
 10
0.0
 20
0.0
 30
0.0
  0
INSERT
  5
   69A
  8
0
  6
CONTINUOUS
 62
     7
  2
*UDIM1219
 10
0.0
 20
0.0
 30
0.0
  0
INSERT
  5
   69B
  8
0
  6
CONTINUOUS
 62
     7
  2
*UDIM1220
 10
0.0
 20
0.0
 30
0.0
  0
INSERT
  5
   69C
  8
0
  6
CONTINUOUS
 62
     7
  2
*UDIM1221
 10
0.0
 20
0.0
 30
0.0
  0
INSERT
  5
   69D
  8
0
  6
CONTINUOUS
 62
     7
  2
*UDIM1222
 10
0.0
 20
0.0
 30
0.0
  0
TEXT
  5
   69E
  8
0
  6
CONTINUOUS
 62
     7
 10
-274.167633400659
 20
7.45586001528791
 30
0.0
 40
3.99999997888293
  1
=     =
 50
89.9999999480344
 41
0.915625085663796
 72
     1
 11
-276.167633378822
 21
19.9083611125054
 31
0.0
 73
     2
  0
INSERT
  5
   69F
  8
0
  6
CONTINUOUS
 62
     7
  2
*UDIM1223
 10
0.0
 20
0.0
 30
0.0
  0
INSERT
  5
   6A0
  8
0
  6
CONTINUOUS
 62
     7
  2
*UDIM1224
 10
0.0
 20
0.0
 30
0.0
  0
INSERT
  5
   6A1
  8
0
  6
CONTINUOUS
 62
     7
  2
*UDIM1225
 10
0.0
 20
0.0
 30
0.0
  0
INSERT
  5
   6A2
  8
0
  6
CONTINUOUS
 62
     7
  2
*UDIM1226
 10
0.0
 20
0.0
 30
0.0
  0
INSERT
  5
   6A3
  8
0
  6
CONTINUOUS
 62
     7
  2
*UDIM1227
 10
0.0
 20
0.0
 30
0.0
  0
INSERT
  5
   6A4
  8
0
  6
CONTINUOUS
 62
     7
  2
*UDIM1228
 10
0.0
 20
0.0
 30
0.0
  0
TEXT
  5
   6A5
  8
0
  6
CONTINUOUS
 62
     7
 10
-288.031783977559
 20
17.8833605665243
 30
0.0
 40
3.99999997888293
  1
x
 50
359.999999948034
 41
0.915625085663796
 72
     1
 11
-286.566783850309
 21
19.8833605546444
 31
0.0
 73
     2
  0
TEXT
  5
   6A6
  8
0
  6
CONTINUOUS
 62
     7
 10
-149.846015566971
 20
17.6859258733009
 30
0.0
 40
3.99999997888293
  1
x
 50
359.999999948034
 41
0.915625085663796
 72
     1
 11
-148.381015439721
 21
19.685925861421
 31
0.0
 73
     2
  0
LINE
  5
   6A7
  8
0
  6
DASHDOT
 62
     2
 10
-219.534515380859
 20
-63.7892803616623
 30
0.0
 11
-219.534515380859
 21
-145.543741155028
 31
0.0
  0
LINE
  5
   6A8
  8
0
  6
DASHDOT
 62
     2
 10
-189.552909782685
 20
-105.583943113685
 30
0.0
 11
-242.690807512778
 21
-105.583943113685
 31
0.0
  0
CIRCLE
  5
   6A9
  8
0
  6
CONTINUOUS
 62
     7
 10
-232.134515881538
 20
-93.2989426255226
 30
0.0
 40
0.765000030398369
  0
CIRCLE
  5
   6AA
  8
0
  6
CONTINUOUS
 62
     7
 10
-206.93451488018
 20
-93.2989426255226
 30
0.0
 40
0.765000030398369
  0
CIRCLE
  5
   6AB
  8
0
  6
CONTINUOUS
 62
     7
 10
-206.93451488018
 20
-114.89894348383
 30
0.0
 40
0.765000030398369
  0
CIRCLE
  5
   6AC
  8
0
  6
CONTINUOUS
 62
     7
 10
-232.134515881538
 20
-114.89894348383
 30
0.0
 40
0.765000030398369
  0
LINE
  5
   6AD
  8
0
  6
DASHDOT
 62
     7
 10
-232.134515881538
 20
-94.8289426863194
 30
0.0
 11
-232.134515881538
 21
-99.9589428901673
 31
0.0
  0
LINE
  5
   6AE
  8
0
  6
DASHDOT
 62
     7
 10
-229.569515779614
 20
-93.2989426255226
 30
0.0
 11
-234.699515983462
 21
-93.2989426255226
 31
0.0
  0
LINE
  5
   6AF
  8
0
  6
DASHDOT
 62
     7
 10
-206.93451488018
 20
-91.8080579429799
 30
0.0
 11
-206.93451488018
 21
-116.003074869659
 31
0.0
  0
LINE
  5
   6B0
  8
0
  6
DASHDOT
 62
     7
 10
-204.369514778256
 20
-93.2989426255226
 30
0.0
 11
-209.499514982104
 21
-93.2989426255226
 31
0.0
  0
LINE
  5
   6B1
  8
0
  6
DASHDOT
 62
     7
 10
-206.93451488018
 20
-112.333943381906
 30
0.0
 11
-206.93451488018
 21
-117.463943585753
 31
0.0
  0
LINE
  5
   6B2
  8
0
  6
DASHDOT
 62
     7
 10
-204.369514778256
 20
-114.89894348383
 30
0.0
 11
-228.197030977922
 21
-114.89894348383
 31
0.0
  0
LINE
  5
   6B3
  8
0
  6
DASHDOT
 62
     7
 10
-232.134515881538
 20
-91.8080579429799
 30
0.0
 11
-232.134515881538
 21
-117.463943585753
 31
0.0
  0
LINE
  5
   6B4
  8
0
  6
DASHDOT
 62
     7
 10
-229.569515779614
 20
-114.89894348383
 30
0.0
 11
-234.699515983462
 21
-114.89894348383
 31
0.0
  0
CIRCLE
  5
   6B5
  8
0
  6
CONTINUOUS
 62
     7
 10
-204.787395615818
 20
-98.7182287452833
 30
0.0
 40
4.50000017881393E-2
  0
LINE
  5
   6B6
  8
0
  6
CONTINUOUS
 62
     7
 10
-200.274514615536
 20
-88.888942450285
 30
0.0
 11
-238.794516146183
 21
-88.888942450285
 31
0.0
  0
LINE
  5
   6B7
  8
0
  6
CONTINUOUS
 62
     7
 10
-200.274514615536
 20
-67.1989415884018
 30
0.0
 11
-238.794516146183
 21
-67.1989415884018
 31
0.0
  0
LINE
  5
   6B8
  8
0
  6
CONTINUOUS
 62
     7
 10
-200.274514615536
 20
-67.1989415884018
 30
0.0
 11
-200.274514615536
 21
-88.888942450285
 31
0.0
  0
LINE
  5
   6B9
  8
0
  6
CONTINUOUS
 62
     7
 10
-238.794516146183
 20
-67.1989415884018
 30
0.0
 11
-238.794516146183
 21
-88.888942450285
 31
0.0
  0
LINE
  5
   6BA
  8
0
  6
CONTINUOUS
 62
     7
 10
-200.274514615536
 20
-119.308943659067
 30
0.0
 11
-200.274514615536
 21
-140.99894452095
 31
0.0
  0
LINE
  5
   6BB
  8
0
  6
CONTINUOUS
 62
     7
 10
-238.794516146183
 20
-119.308943659067
 30
0.0
 11
-238.794516146183
 21
-140.99894452095
 31
0.0
  0
LINE
  5
   6BC
  8
0
  6
CONTINUOUS
 62
     7
 10
-200.274514615536
 20
-140.99894452095
 30
0.0
 11
-238.794516146183
 21
-140.99894452095
 31
0.0
  0
LINE
  5
   6BD
  8
0
  6
CONTINUOUS
 62
     7
 10
-200.274514615536
 20
-119.308943659067
 30
0.0
 11
-238.794516146183
 21
-119.308943659067
 31
0.0
  0
LINE
  5
   6BE
  8
0
  6
CONTINUOUS
 62
     7
 10
-196.274814934389
 20
-64.8741736802472
 30
0.0
 11
-240.677948616473
 21
-64.8741736802472
 31
0.0
  0
LINE
  5
   6BF
  8
0
  6
CONTINUOUS
 62
     7
 10
-240.677948616473
 20
-64.8741736802472
 30
0.0
 11
-240.677948616473
 21
-142.90900263968
 31
0.0
  0
LINE
  5
   6C0
  8
0
  6
CONTINUOUS
 62
     7
 10
-196.274814934389
 20
-64.8741736802472
 30
0.0
 11
-196.274814934389
 21
-142.90900263968
 31
0.0
  0
LINE
  5
   6C1
  8
0
  6
CONTINUOUS
 62
     7
 10
-196.274814934389
 20
-142.90900263968
 30
0.0
 11
-240.677948616473
 21
-142.90900263968
 31
0.0
  0
INSERT
  5
   6C2
  8
0
  6
CONTINUOUS
 62
     7
  2
*UDIM1229
 10
0.0
 20
0.0
 30
0.0
  0
INSERT
  5
   6C3
  8
0
  6
CONTINUOUS
 62
     7
  2
*UDIM1230
 10
0.0
 20
0.0
 30
0.0
  0
INSERT
  5
   6C4
  8
0
  6
CONTINUOUS
 62
     7
  2
*UDIM1231
 10
0.0
 20
0.0
 30
0.0
  0
INSERT
  5
   6C5
  8
0
  6
CONTINUOUS
 62
     7
  2
*UDIM1232
 10
0.0
 20
0.0
 30
0.0
  0
TEXT
  5
   6C6
  8
0
  6
CONTINUOUS
 62
     7
 10
-227.85002064114
 20
-82.0276378276209
 30
0.0
 40
3.00000009059906
  1
=    =
 50
359.999999896069
 41
0.916666568954785
 72
     1
 11
-219.8750212606
 21
-80.5276377967475
 31
0.0
 73
     2
  0
INSERT
  5
   6C7
  8
0
  6
CONTINUOUS
 62
     7
  2
*UDIM1233
 10
0.0
 20
0.0
 30
0.0
  0
INSERT
  5
   6C8
  8
0
  6
CONTINUOUS
 62
     7
  2
*UDIM1234
 10
0.0
 20
0.0
 30
0.0
  0
TEXT
  5
   6C9
  8
0
  6
CONTINUOUS
 62
     7
 10
-227.851128339167
 20
-130.299450186788
 30
0.0
 40
3.00000009059906
  1
=    =
 50
359.999999896069
 41
0.916666568954785
 72
     2
 11
-211.901129583514
 21
-130.29945021564
 31
0.0
  0
INSERT
  5
   6CA
  8
0
  6
CONTINUOUS
 62
     7
  2
*UDIM1235
 10
0.0
 20
0.0
 30
0.0
  0
INSERT
  5
   6CB
  8
0
  6
CONTINUOUS
 62
     7
  2
*UDIM1236
 10
0.0
 20
0.0
 30
0.0
  0
INSERT
  5
   6CC
  8
0
  6
CONTINUOUS
 62
     7
  2
*UDIM1237
 10
0.0
 20
0.0
 30
0.0
  0
TEXT
  5
   6CD
  8
0
  6
CONTINUOUS
 62
     7
 10
-220.374945056785
 20
-148.233773269047
 30
0.0
 40
3.00000009059906
  1
Y
 50
359.999999896069
 41
0.916666568954785
 72
     2
 11
-218.174945250699
 21
-148.233773273027
 31
0.0
  0
TEXT
  5
   6CE
  8
0
  6
CONTINUOUS
 62
     7
 10
-220.607422206449
 20
-63.3796176755667
 30
0.0
 40
3.00000009059906
  1
Y
 50
359.999999896069
 41
0.916666568954785
 72
     2
 11
-218.407422400363
 21
-63.3796176795463
 31
0.0
  0
TEXT
  5
   6CF
  8
0
  6
CONTINUOUS
 62
     7
 10
-279.889092366809
 20
-107.162812851023
 30
0.0
 40
3.00000009059906
  1
X
 50
359.999999896069
 41
0.916666568954785
 72
     2
 11
-277.689092560723
 21
-107.162812855003
 31
0.0
  0
TEXT
  5
   6D0
  8
0
  6
CONTINUOUS
 62
     7
 10
-188.155814185523
 20
-107.606647478645
 30
0.0
 40
3.00000009059906
  1
X
 50
359.999999896069
 41
0.916666568954785
 72
     2
 11
-185.955814379437
 21
-107.606647482625
 31
0.0
  0
LINE
  5
   6D1
  8
0
  6
DASHDOT
 62
     2
 10
34.0267333984375
 20
105.413879555245
 30
0.0
 11
34.0267333984375
 21
44.664972966091
 31
0.0
  0
LINE
  5
   6D2
  8
0
  6
DASHDOT
 62
     2
 10
4.22070870790162
 20
74.336181640625
 30
0.0
 11
75.2342013910815
 21
74.336181640625
 31
0.0
  0
LINE
  5
   6D3
  8
0
  6
CONTINUOUS
 62
     7
 10
11.6517333984375
 20
94.461181640625
 30
0.0
 11
54.1517333984375
 21
94.461181640625
 31
0.0
  0
LINE
  5
   6D4
  8
0
  6
CONTINUOUS
 62
     7
 10
11.6517333984375
 20
54.211181640625
 30
0.0
 11
54.1517333984375
 21
54.211181640625
 31
0.0
  0
CIRCLE
  5
   6D5
  8
0
  6
CONTINUOUS
 62
     7
 10
59.2767333984375
 20
74.336181640625
 30
0.0
 40
1.0
  0
CIRCLE
  5
   6D6
  8
0
  6
CONTINUOUS
 62
     7
 10
38.9642333984375
 20
96.461181640625
 30
0.0
 40
1.0
  0
CIRCLE
  5
   6D7
  8
0
  6
CONTINUOUS
 62
     7
 10
18.6517333984375
 20
96.461181640625
 30
0.0
 40
0.875
  0
CIRCLE
  5
   6D8
  8
0
  6
CONTINUOUS
 62
     7
 10
59.2767333984375
 20
52.211181640625
 30
0.0
 40
0.875
  0
CIRCLE
  5
   6D9
  8
0
  6
CONTINUOUS
 62
     7
 10
38.9642333984375
 20
52.211181640625
 30
0.0
 40
1.0
  0
CIRCLE
  5
   6DA
  8
0
  6
CONTINUOUS
 62
     7
 10
18.6517333984375
 20
52.211181640625
 30
0.0
 40
1.0
  0
CIRCLE
  5
   6DB
  8
0
  6
CONTINUOUS
 62
     7
 10
59.2767333984375
 20
96.461181640625
 30
0.0
 40
1.0
  0
LINE
  5
   6DC
  8
0
  6
DASHDOT
 62
     7
 10
59.2767333984375
 20
98.086181640625
 30
0.0
 11
59.2767333984375
 21
75.7606308391697
 31
0.0
  0
LINE
  5
   6DD
  8
0
  6
DASHDOT
 62
     7
 10
57.6517333984375
 20
96.461181640625
 30
0.0
 11
60.9017333984375
 21
96.461181640625
 31
0.0
  0
LINE
  5
   6DE
  8
0
  6
DASHDOT
 62
     7
 10
38.9642333984375
 20
105.482633986686
 30
0.0
 11
38.9642333984375
 21
94.836181640625
 31
0.0
  0
LINE
  5
   6DF
  8
0
  6
DASHDOT
 62
     7
 10
37.3392333984375
 20
96.461181640625
 30
0.0
 11
40.5892333984375
 21
96.461181640625
 31
0.0
  0
LINE
  5
   6E0
  8
0
  6
DASHDOT
 62
     7
 10
18.6517333984375
 20
98.086181640625
 30
0.0
 11
18.6517333984375
 21
94.836181640625
 31
0.0
  0
LINE
  5
   6E1
  8
0
  6
DASHDOT
 62
     7
 10
17.0267333984375
 20
96.461181640625
 30
0.0
 11
20.2767333984375
 21
96.461181640625
 31
0.0
  0
LINE
  5
   6E2
  8
0
  6
DASHDOT
 62
     7
 10
38.9642333984375
 20
53.836181640625
 30
0.0
 11
38.9642333984375
 21
50.586181640625
 31
0.0
  0
LINE
  5
   6E3
  8
0
  6
DASHDOT
 62
     7
 10
37.3392333984375
 20
52.211181640625
 30
0.0
 11
40.5892333984375
 21
52.211181640625
 31
0.0
  0
LINE
  5
   6E4
  8
0
  6
DASHDOT
 62
     7
 10
59.2767333984375
 20
53.836181640625
 30
0.0
 11
59.2767333984375
 21
50.586181640625
 31
0.0
  0
LINE
  5
   6E5
  8
0
  6
DASHDOT
 62
     7
 10
57.6517333984375
 20
52.211181640625
 30
0.0
 11
60.9017333984375
 21
52.211181640625
 31
0.0
  0
LINE
  5
   6E6
  8
0
  6
DASHDOT
 62
     7
 10
18.6517333984375
 20
53.836181640625
 30
0.0
 11
18.6517333984375
 21
50.586181640625
 31
0.0
  0
LINE
  5
   6E7
  8
0
  6
DASHDOT
 62
     7
 10
17.0267333984375
 20
52.211181640625
 30
0.0
 11
20.2767333984375
 21
52.211181640625
 31
0.0
  0
LINE
  5
   6E8
  8
0
  6
DASHDOT
 62
     7
 10
59.2767333984375
 20
75.961181640625
 30
0.0
 11
59.2767333984375
 21
54.0574046861148
 31
0.0
  0
ARC
  5
   6E9
  8
0
  6
CONTINUOUS
 62
     7
 10
64.2767333984375
 20
70.086181640625
 30
0.0
 40
2.0
 50
359.999999844103
 51
539.999999844103
  0
ARC
  5
   6EA
  8
0
  6
CONTINUOUS
 62
     7
 10
64.2767333984375
 20
64.336181640625
 30
0.0
 40
2.0
 50
539.999999844103
 51
719.999999844103
  0
LINE
  5
   6EB
  8
0
  6
CONTINUOUS
 62
     7
 10
66.2767333984375
 20
70.086181640625
 30
0.0
 11
66.2767333984375
 21
64.336181640625
 31
0.0
  0
LINE
  5
   6EC
  8
0
  6
CONTINUOUS
 62
     7
 10
62.2767333984375
 20
70.086181640625
 30
0.0
 11
62.2767333984375
 21
64.336181640625
 31
0.0
  0
LINE
  5
   6ED
  8
0
  6
DASHDOT
 62
     7
 10
64.2767333984375
 20
72.836181640625
 30
0.0
 11
64.2767333984375
 21
67.336181640625
 31
0.0
  0
LINE
  5
   6EE
  8
0
  6
DASHDOT
 62
     7
 10
61.5267333984375
 20
70.086181640625
 30
0.0
 11
67.0267333984375
 21
70.086181640625
 31
0.0
  0
LINE
  5
   6EF
  8
0
  6
DASHDOT
 62
     7
 10
64.2767333984375
 20
67.086181640625
 30
0.0
 11
64.2767333984375
 21
61.586181640625
 31
0.0
  0
LINE
  5
   6F0
  8
0
  6
DASHDOT
 62
     7
 10
61.5267333984375
 20
64.336181640625
 30
0.0
 11
67.0267333984375
 21
64.336181640625
 31
0.0
  0
POINT
  5
   6F1
  8
0
  6
CONTINUOUS
 62
     7
 10
64.2767333984375
 20
72.086181640625
 30
0.0
  0
POINT
  5
   6F2
  8
0
  6
CONTINUOUS
 62
     7
 10
64.2767333984375
 20
62.336181640625
 30
0.0
  0
CIRCLE
  5
   6F3
  8
0
  6
CONTINUOUS
 62
     7
 10
44.5892333984375
 20
96.836181640625
 30
0.0
 40
0.5
  0
CIRCLE
  5
   6F4
  8
0
  6
CONTINUOUS
 62
     7
 10
33.3392333984375
 20
96.836181640625
 30
0.0
 40
0.5
  0
CIRCLE
  5
   6F5
  8
0
  6
CONTINUOUS
 62
     7
 10
33.3392333984375
 20
96.836181640625
 30
0.0
 40
0.92
  0
CIRCLE
  5
   6F6
  8
0
  6
CONTINUOUS
 62
     7
 10
44.5892333984375
 20
96.836181640625
 30
0.0
 40
0.92
  0
LINE
  5
   6F7
  8
0
  6
DASHDOT
 62
     7
 10
44.5892333984375
 20
98.506181640625
 30
0.0
 11
44.5892333984375
 21
95.166181640625
 31
0.0
  0
LINE
  5
   6F8
  8
0
  6
DASHDOT
 62
     7
 10
42.9192333984375
 20
96.836181640625
 30
0.0
 11
46.2592333984375
 21
96.836181640625
 31
0.0
  0
LINE
  5
   6F9
  8
0
  6
DASHDOT
 62
     7
 10
33.3392333984375
 20
98.506181640625
 30
0.0
 11
33.3392333984375
 21
95.166181640625
 31
0.0
  0
LINE
  5
   6FA
  8
0
  6
DASHDOT
 62
     7
 10
31.6692333984375
 20
96.836181640625
 30
0.0
 11
35.0092333984375
 21
96.836181640625
 31
0.0
  0
LINE
  5
   6FB
  8
0
  6
CONTINUOUS
 62
     7
 10
9.01755776491382
 20
100.952474488234
 30
0.0
 11
70.5715299300697
 21
100.952474488234
 31
0.0
  0
LINE
  5
   6FC
  8
0
  6
CONTINUOUS
 62
     7
 10
9.01755776491382
 20
49.0928336341022
 30
0.0
 11
70.5715299300697
 21
49.0928336341022
 31
0.0
  0
LINE
  5
   6FD
  8
0
  6
CONTINUOUS
 62
     7
 10
9.01755776491382
 20
100.952474488234
 30
0.0
 11
9.01755776491382
 21
49.0928336341022
 31
0.0
  0
LINE
  5
   6FE
  8
0
  6
CONTINUOUS
 62
     7
 10
70.5715299300697
 20
100.952474488234
 30
0.0
 11
70.5715299300697
 21
49.0928336341022
 31
0.0
  0
LINE
  5
   6FF
  8
0
  6
CONTINUOUS
 62
     7
 10
54.1517333984375
 20
94.461181640625
 30
0.0
 11
54.1517333984375
 21
54.211181640625
 31
0.0
  0
LINE
  5
   700
  8
0
  6
CONTINUOUS
 62
     7
 10
11.6517333984375
 20
94.461181640625
 30
0.0
 11
11.6517333984375
 21
54.211181640625
 31
0.0
  0
LINE
  5
   701
  8
0
  6
CONTINUOUS
 62
     7
 10
73.923039581294
 20
94.5220919263768
 30
0.0
 11
73.923039581294
 21
85.3026945987823
 31
0.0
  0
LINE
  5
   702
  8
0
  6
CONTINUOUS
 62
     7
 10
76.8654004305263
 20
94.5220919263768
 30
0.0
 11
76.8654004305263
 21
85.3026945987823
 31
0.0
  0
LINE
  5
   703
  8
0
  6
CONTINUOUS
 62
     7
 10
73.923039581294
 20
94.5220919263768
 30
0.0
 11
76.8654004305263
 21
94.5220919263768
 31
0.0
  0
LINE
  5
   704
  8
0
  6
CONTINUOUS
 62
     7
 10
73.923039581294
 20
85.3026945987823
 30
0.0
 11
76.8654004305263
 21
85.3026945987823
 31
0.0
  0
LINE
  5
   705
  8
0
  6
CONTINUOUS
 62
     7
 10
73.923039581294
 20
63.3696686824677
 30
0.0
 11
73.923039581294
 21
54.1502713548732
 31
0.0
  0
LINE
  5
   706
  8
0
  6
CONTINUOUS
 62
     7
 10
76.8654004305263
 20
63.3696686824677
 30
0.0
 11
76.8654004305263
 21
54.1502713548732
 31
0.0
  0
LINE
  5
   707
  8
0
  6
CONTINUOUS
 62
     7
 10
73.923039581294
 20
63.3696686824677
 30
0.0
 11
76.8654004305263
 21
63.3696686824677
 31
0.0
  0
LINE
  5
   708
  8
0
  6
CONTINUOUS
 62
     7
 10
73.923039581294
 20
54.1502713548732
 30
0.0
 11
76.8654004305263
 21
54.1502713548732
 31
0.0
  0
LINE
  5
   709
  8
0
  6
DASHDOT
 62
     2
 10
75.3942200059102
 20
98.9356332002252
 30
0.0
 11
75.3942200059102
 21
50.1414824504564
 31
0.0
  0
LINE
  5
   70A
  8
0
  6
CONTINUOUS
 62
     2
 10
3.02347842764157
 20
118.548618989135
 30
0.0
 11
31.8193713737108
 21
98.1026323048567
 31
0.0
  0
LINE
  5
   70B
  8
0
  6
CONTINUOUS
 62
     2
 10
-19.6404897853695
 20
118.548618989135
 30
0.0
 11
3.02347842764157
 21
118.548618989135
 31
0.0
  0
POINT
  5
   70C
  8
0
  6
CONTINUOUS
 62
     7
 10
3.02347842764157
 20
118.548618989135
 30
0.0
  0
POINT
  5
   70D
  8
0
  6
CONTINUOUS
 62
     7
 10
31.8193713737108
 20
98.1026323048567
 30
0.0
  0
LINE
  5
   70E
  8
0
  6
CONTINUOUS
 62
     7
 10
26.8228062627393
 20
99.9584507945384
 30
0.0
 11
31.8193713737108
 21
98.1026323048567
 31
0.0
  0
LINE
  5
   70F
  8
0
  6
CONTINUOUS
 62
     7
 10
29.0200051913076
 20
101.483593733586
 30
0.0
 11
31.8193713737108
 21
98.1026323048567
 31
0.0
  0
INSERT
  5
   710
  8
0
  6
CONTINUOUS
 62
     7
  2
*UDIM1238
 10
0.0
 20
0.0
 30
0.0
  0
INSERT
  5
   711
  8
0
  6
CONTINUOUS
 62
     7
  2
*UDIM1239
 10
0.0
 20
0.0
 30
0.0
  0
INSERT
  5
   712
  8
0
  6
CONTINUOUS
 62
     7
  2
*UDIM1240
 10
0.0
 20
0.0
 30
0.0
  0
TEXT
  5
   713
  8
0
  6
CONTINUOUS
 62
     7
 10
-17.3114313240854
 20
119.311977384946
 30
0.0
 40
3.00000002980232
  1
PART. Z
 50
359.999999844103
 41
0.916666604744064
 72
     1
 11
-7.96143186092377
 21
120.811977374454
 31
0.0
 73
     2
  0
INSERT
  5
   714
  8
0
  6
CONTINUOUS
 62
     7
  2
*UDIM1241
 10
0.0
 20
0.0
 30
0.0
  0
TEXT
  5
   715
  8
0
  6
CONTINUOUS
 62
     7
 10
-7.0330237250555
 20
73.0612922215512
 30
0.0
 40
3.00000002980232
  1
X
 50
359.999999844103
 41
0.916666604744064
 72
     2
 11
-4.83302385618571
 21
73.0612922155763
 31
0.0
  0
TEXT
  5
   716
  8
0
  6
CONTINUOUS
 62
     7
 10
90.4567490715754
 20
72.8826085829786
 30
0.0
 40
3.00000002980232
  1
X
 50
359.999999844103
 41
0.916666604744064
 72
     2
 11
92.6567489404451
 21
72.8826085770036
 31
0.0
  0
TEXT
  5
   717
  8
0
  6
CONTINUOUS
 62
     7
 10
32.5275250572931
 20
121.234390189653
 30
0.0
 40
3.00000002980232
  1
Y
 50
359.999999844103
 41
0.916666604744064
 72
     2
 11
34.7275249261629
 21
121.234390183678
 31
0.0
  0
TEXT
  5
   718
  8
0
  6
CONTINUOUS
 62
     7
 10
32.87330924461
 20
8.01668541670353
 30
0.0
 40
3.00000002980232
  1
Y
 50
359.999999844103
 41
0.916666604744064
 72
     2
 11
35.0733091134798
 21
8.01668541072859
 31
0.0
  0
TEXT
  5
   719
  8
0
  6
CONTINUOUS
 62
     7
 10
7.47435527295418
 20
69.922114945141
 30
0.0
 40
2.50000005960464
  1
=  =
 50
449.999999844103
 41
0.899999932169916
 72
     2
 11
7.47435529616426
 21
78.4721144900596
 31
0.0
  0
INSERT
  5
   71A
  8
0
  6
CONTINUOUS
 62
     7
  2
*UDIM1242
 10
0.0
 20
0.0
 30
0.0
  0
INSERT
  5
   71B
  8
0
  6
CONTINUOUS
 62
     7
  2
*UDIM1243
 10
0.0
 20
0.0
 30
0.0
  0
INSERT
  5
   71C
  8
0
  6
CONTINUOUS
 62
     7
  2
*UDIM1244
 10
0.0
 20
0.0
 30
0.0
  0
INSERT
  5
   71D
  8
0
  6
CONTINUOUS
 62
     7
  2
*UDIM1245
 10
0.0
 20
0.0
 30
0.0
  0
INSERT
  5
   71E
  8
0
  6
CONTINUOUS
 62
     7
  2
*UDIM1246
 10
0.0
 20
0.0
 30
0.0
  0
INSERT
  5
   71F
  8
0
  6
CONTINUOUS
 62
     7
  2
*UDIM1247
 10
0.0
 20
0.0
 30
0.0
  0
INSERT
  5
   720
  8
0
  6
CONTINUOUS
 62
     7
  2
*UDIM1248
 10
0.0
 20
0.0
 30
0.0
  0
INSERT
  5
   721
  8
0
  6
CONTINUOUS
 62
     7
  2
*UDIM1249
 10
0.0
 20
0.0
 30
0.0
  0
INSERT
  5
   722
  8
0
  6
CONTINUOUS
 62
     7
  2
*UDIM1250
 10
0.0
 20
0.0
 30
0.0
  0
INSERT
  5
   723
  8
0
  6
CONTINUOUS
 62
     7
  2
*UDIM1251
 10
0.0
 20
0.0
 30
0.0
  0
INSERT
  5
   724
  8
0
  6
CONTINUOUS
 62
     7
  2
*UDIM1252
 10
0.0
 20
0.0
 30
0.0
  0
INSERT
  5
   725
  8
0
  6
CONTINUOUS
 62
     7
  2
*UDIM1253
 10
0.0
 20
0.0
 30
0.0
  0
INSERT
  5
   726
  8
0
  6
CONTINUOUS
 62
     7
  2
*UDIM1254
 10
0.0
 20
0.0
 30
0.0
  0
INSERT
  5
   727
  8
0
  6
CONTINUOUS
 62
     7
  2
*UDIM1255
 10
0.0
 20
0.0
 30
0.0
  0
TEXT
  5
   728
  8
0
  6
CONTINUOUS
 62
     7
 10
34.8186020172447
 20
102.508350177389
 30
0.0
 40
2.50000005960464
  1
=  =
 50
359.999999844103
 41
0.899999932169916
 72
     2
 11
43.3686015621632
 21
102.508350154168
 31
0.0
  0
INSERT
  5
   729
  8
0
  6
CONTINUOUS
 62
     7
  2
*UDIM1256
 10
0.0
 20
0.0
 30
0.0
  0
LINE
  5
   72A
  8
0
  6
CONTINUOUS
 62
     7
 10
-122.727020263672
 20
-88.1600864248674
 30
0.0
 11
-122.727020263672
 21
-112.07660791107
 31
0.0
  0
LINE
  5
   72B
  8
0
  6
CONTINUOUS
 62
     7
 10
-124.727020263672
 20
-88.1600864248674
 30
0.0
 11
-124.727020263672
 21
-112.07660791107
 31
0.0
  0
LINE
  5
   72C
  8
0
  6
DASHDOT
 62
     7
 10
-127.929623366069
 20
-100.118347167969
 30
0.0
 11
-119.503404173632
 21
-100.118347167969
 31
0.0
  0
POINT
  5
   72D
  8
0
  6
CONTINUOUS
 62
     7
 10
-124.727020263672
 20
-98.1183471679688
 30
0.0
  0
POINT
  5
   72E
  8
0
  6
CONTINUOUS
 62
     7
 10
-124.727020263672
 20
-102.118347167969
 30
0.0
  0
LINE
  5
   72F
  8
0
  6
CONTINUOUS
 62
     7
 10
-122.727020263672
 20
-96.4401479056142
 30
0.0
 11
-124.727020263672
 21
-98.1183471679688
 31
0.0
  0
LINE
  5
   730
  8
0
  6
CONTINUOUS
 62
     7
 10
-124.727020263672
 20
-102.118347167969
 30
0.0
 11
-122.727020263672
 21
-103.796546430323
 31
0.0
  0
LINE
  5
   731
  8
0
  6
CONTINUOUS
 62
     7
 10
-124.727020263672
 20
-109.618347167969
 30
0.0
 11
-122.727020263672
 21
-109.618347167969
 31
0.0
  0
CIRCLE
  5
   732
  8
0
  6
CONTINUOUS
 62
     7
 10
-123.727020263672
 20
-100.118347167969
 30
0.0
 40
12.0
  0
LINE
  5
   733
  8
0
  6
CONTINUOUS
 62
     7
 10
-130.727012634277
 20
-104.618347167969
 30
0.0
 11
-128.227012634277
 21
-104.618347167969
 31
0.0
  0
LINE
  5
   734
  8
0
  6
CONTINUOUS
 62
     7
 10
-127.227012634277
 20
-95.6183471679688
 30
0.0
 11
-127.227012634277
 21
-103.618347167969
 31
0.0
  0
LINE
  5
   735
  8
0
  6
CONTINUOUS
 62
     7
 10
-127.227012634277
 20
-95.6183471679688
 30
0.0
 11
-124.727020263672
 21
-95.6183471679688
 31
0.0
  0
LINE
  5
   736
  8
0
  6
CONTINUOUS
 62
     7
 10
-130.727012634277
 20
-107.118347167969
 30
0.0
 11
-128.227012634277
 21
-107.118347167969
 31
0.0
  0
LINE
  5
   737
  8
0
  6
CONTINUOUS
 62
     7
 10
-131.727012634277
 20
-108.118347167969
 30
0.0
 11
-131.727012634277
 21
-109.0626259019
 31
0.0
  0
ARC
  5
   738
  8
0
  6
CONTINUOUS
 62
     7
 10
-128.227008486997
 20
-103.618347839307
 30
0.0
 40
0.999996977799109
 50
629.999840735313
 51
720.000252836193
  0
ARC
  5
   739
  8
0
  6
CONTINUOUS
 62
     7
 10
-130.726997980771
 20
-108.118359854273
 30
0.0
 40
3.50001845311552
 50
450.000186734275
 51
513.408761128067
  0
ARC
  5
   73A
  8
0
  6
CONTINUOUS
 62
     7
 10
-130.727056882427
 20
-108.118306273186
 30
0.0
 40
0.999949821243504
 50
449.997764042825
 51
540.001169660043
  0
ARC
  5
   73B
  8
0
  6
CONTINUOUS
 62
     7
 10
-128.226993281896
 20
-103.618379214903
 30
0.0
 40
3.49997105594423
 50
629.999653243441
 51
720.000420168909
  0
INSERT
  5
   73C
  8
0
  6
CONTINUOUS
 62
     7
  2
*HATCH269
 10
-123.727020263672
 20
-100.118347167969
 30
0.0
 50
269.999999844103
  0
INSERT
  5
   73D
  8
0
  6
CONTINUOUS
 62
     7
  2
*HATCH270
 10
-123.727020263672
 20
-100.118347167969
 30
0.0
 50
269.999999844103
  0
LINE
  5
   73E
  8
0
  6
CONTINUOUS
 62
     7
 10
-144.030235952935
 20
-88.1488924697515
 30
0.0
 11
-144.030235952935
 21
-112.731080256335
 31
0.0
  0
TEXT
  5
   73F
  8
0
  6
CONTINUOUS
 62
     7
 10
-100.454871570667
 20
-105.71286010895
 30
0.0
 40
3.00000002980232
  1
PART. Z
 50
359.999999844103
 41
0.916666604744064
 72
     1
 11
-91.1048721075058
 21
-104.212860119443
 31
0.0
 73
     2
  0
INSERT
  5
   740
  8
0
  6
CONTINUOUS
 62
     7
  2
*UDIM1257
 10
0.0
 20
0.0
 30
0.0
  0
INSERT
  5
   741
  8
0
  6
CONTINUOUS
 62
     7
  2
*UDIM1258
 10
0.0
 20
0.0
 30
0.0
  0
ENDSEC
  0
EOF
