999
DXF file: 2cdg510013f0011.dxf
999
Pro/ENGINEER 2019164 by Parametric Technology Corporation
  0
SECTION
  2
HEADER
  9
$ACADVER
  1
AC1032
  9
$DWGCODEPAGE
  3
ANSI_1252
  9
$EXTMAX
 10
420.0
 20
297.0
 30
0.0
  9
$EXTMIN
 10
0.0
 20
0.0
 30
0.0
  9
$LIMMIN
 10
0.0
 20
0.0
  9
$LIMMAX
 10
420.0
 20
297.0
  9
$VIEWCTR
 10
210.0
 20
148.5
  9
$VIEWSIZE
 40
297.0
  9
$CLAYER
  8
0
  9
$LTSCALE
 40
23.1
  9
$CELTYPE
  6
BYLAYER
  9
$DIMSCALE
 40
1.0
  9
$DIMASZ
 40
2.5
  9
$DIMEXO
 40
0.0
  9
$DIMDLI
 40
15.96
  9
$DIMEXE
 40
1.0
  9
$DIMCEN
 40
3.78
  9
$DIMLFAC
 40
1.0
  9
$DIMBLK
  1
_FILLED
  9
$DIMALT
 70
0
  9
$DIMALTF
 40
0.0393700787
  9
$DIMTXT
 40
2.5
  9
$DIMTOL
 70
1
  9
$DIMLIM
 70
0
  9
$DIMTFAC
 40
1.0
  9
$DIMTP
 40
0.01
  9
$DIMTM
 40
0.01
  9
$DIMGAP
 40
0.625
  9
$DIMDSEP
 70
44
  9
$AUNITS
 70
0
  9
$PDMODE
 70
3
  9
$PDSIZE
 40
0.3125
  9
$HANDSEED
  5
4C5
  9
$TILEMODE
 70
1
  9
$MEASUREMENT
 70
1
  9
$INSUNITS
 70
4
  0
ENDSEC
  0
SECTION
  2
CLASSES
  0
CLASS
  1
ACDBDICTIONARYWDFLT
  2
AcDbDictionaryWithDefault
  3
AutoCAD 2000
 90
0
 91
1
280
0
281
0
  0
CLASS
  1
ACDBPLACEHOLDER
  2
AcDbPlaceHolder
  3
AutoCAD 2000
 90
0
 91
1
280
0
281
0
  0
CLASS
  1
LAYOUT
  2
AcDbLayout
  3
AutoCAD 2000
 90
0
 91
0
280
0
281
0
  0
ENDSEC
  0
SECTION
  2
TABLES
  0
TABLE
  2
VPORT
  5
8
100
AcDbSymbolTable
 70
2
  0
VPORT
  5
1F4
100
AcDbSymbolTableRecord
100
AcDbViewportTableRecord
  2
*ACTIVE
 70
0
 10
0.0
 20
0.0
 11
1.0
 21
1.0
 12
210.0
 22
148.5
 13
0.0
 23
0.0
 14
1.0
 24
1.0
 15
0.0
 25
0.0
 16
0.0
 26
0.0
 36
1.0
 17
0.0
 27
0.0
 37
0.0
 40
297.0
 41
1.4141414141
 42
50.0
 43
0.0
 44
0.0
 50
0.0
 51
0.0
 71
0
 72
100
 73
1
 74
1
 75
0
 76
0
 77
0
 78
0
  0
ENDTAB
  0
TABLE
  2
LTYPE
  5
5
100
AcDbSymbolTable
 70
6
  0
LTYPE
  5
14
100
AcDbSymbolTableRecord
100
AcDbLinetypeTableRecord
  2
BYBLOCK
 70
0
  3

 72
65
 73
0
 40
0.0
  0
LTYPE
  5
15
100
AcDbSymbolTableRecord
100
AcDbLinetypeTableRecord
  2
BYLAYER
 70
0
  3

 72
65
 73
0
 40
0.0
  0
LTYPE
  5
16
100
AcDbSymbolTableRecord
100
AcDbLinetypeTableRecord
  2
CONTINUOUS
 70
64
  3
Solid line
 72
65
 73
0
 40
0.0
  0
LTYPE
  5
1F5
100
AcDbSymbolTableRecord
100
AcDbLinetypeTableRecord
  2
CENTER
 70
64
  3
____ _ ____ _ ____ _ ____ _ ____ _ ____ _ ____
 72
65
 73
4
 40
0.6
 49
0.375
 74
0
 49
-0.075
 74
0
 49
0.075
 74
0
 49
-0.075
 74
0
  0
LTYPE
  5
1F6
100
AcDbSymbolTableRecord
100
AcDbLinetypeTableRecord
  2
HIDDEN
 70
64
  3
- - - - - - - - - - - - - - - - - - - -
 72
65
 73
2
 40
0.2
 49
0.1
 74
0
 49
-0.1
 74
0
  0
LTYPE
  5
1F7
100
AcDbSymbolTableRecord
100
AcDbLinetypeTableRecord
  2
PHANTOM
 70
64
  3
_____ _ _ _____ _ _ _____ _ _ _____
 72
65
 73
6
 40
0.8
 49
0.45
 74
0
 49
-0.05
 74
0
 49
0.1
 74
0
 49
-0.05
 74
0
 49
0.1
 74
0
 49
-0.05
 74
0
  0
LTYPE
  5
1F8
100
AcDbSymbolTableRecord
100
AcDbLinetypeTableRecord
  2
DOT
 70
64
  3
. . . . . . . . . . . . . . . . . . . .
 72
65
 73
2
 40
0.2
 49
0.1
 74
0
 49
-0.1
 74
0
  0
LTYPE
  5
1F9
100
AcDbSymbolTableRecord
100
AcDbLinetypeTableRecord
  2
DASHED
 70
64
  3
- - - - - - - - - - - - - - - - - - - -
 72
65
 73
2
 40
0.2
 49
0.1
 74
0
 49
-0.1
 74
0
  0
ENDTAB
  0
TABLE
  2
LAYER
  5
2
100
AcDbSymbolTable
 70
36
  0
LAYER
  5
10
100
AcDbSymbolTableRecord
100
AcDbLayerTableRecord
  2
0
 70
0
 62
7
  6
CONTINUOUS
370
-3
390
F
  0
LAYER
  5
1FA
100
AcDbSymbolTableRecord
100
AcDbLayerTableRecord
  2
DEFAULT_1
 70
0
 62
7
  6
CENTER
370
-3
390
F
  0
LAYER
  5
1FB
100
AcDbSymbolTableRecord
100
AcDbLayerTableRecord
  2
DEFAULT_2
 70
0
 62
8
  6
HIDDEN
370
-3
390
F
  0
LAYER
  5
1FC
100
AcDbSymbolTableRecord
100
AcDbLayerTableRecord
  2
DEFAULT_3
 70
0
 62
7
  6
PHANTOM
370
-3
390
F
  0
LAYER
  5
1FD
100
AcDbSymbolTableRecord
100
AcDbLayerTableRecord
  2
01_STD_A_DATUMS
 70
0
 62
7
  6
CONTINUOUS
370
-3
390
F
  0
LAYER
  5
1FE
100
AcDbSymbolTableRecord
100
AcDbLayerTableRecord
  2
01_STD_DATUMS
 70
0
 62
7
  6
CONTINUOUS
370
-3
390
F
  0
LAYER
  5
1FF
100
AcDbSymbolTableRecord
100
AcDbLayerTableRecord
  2
02_PLANES
 70
0
 62
7
  6
CONTINUOUS
370
-3
390
F
  0
LAYER
  5
200
100
AcDbSymbolTableRecord
100
AcDbLayerTableRecord
  2
03_AXES
 70
0
 62
7
  6
CONTINUOUS
370
-3
390
F
  0
LAYER
  5
201
100
AcDbSymbolTableRecord
100
AcDbLayerTableRecord
  2
04_POINTS
 70
0
 62
7
  6
CONTINUOUS
370
-3
390
F
  0
LAYER
  5
202
100
AcDbSymbolTableRecord
100
AcDbLayerTableRecord
  2
05_CSYS
 70
0
 62
7
  6
CONTINUOUS
370
-3
390
F
  0
LAYER
  5
203
100
AcDbSymbolTableRecord
100
AcDbLayerTableRecord
  2
06_CURVES
 70
0
 62
7
  6
CONTINUOUS
370
-3
390
F
  0
LAYER
  5
204
100
AcDbSymbolTableRecord
100
AcDbLayerTableRecord
  2
07_SURFACES
 70
0
 62
7
  6
CONTINUOUS
370
-3
390
F
  0
LAYER
  5
205
100
AcDbSymbolTableRecord
100
AcDbLayerTableRecord
  2
08_DRAFTS
 70
0
 62
7
  6
CONTINUOUS
370
-3
390
F
  0
LAYER
  5
206
100
AcDbSymbolTableRecord
100
AcDbLayerTableRecord
  2
09_ROUNDS
 70
0
 62
7
  6
CONTINUOUS
370
-3
390
F
  0
LAYER
  5
207
100
AcDbSymbolTableRecord
100
AcDbLayerTableRecord
  2
10_CHAMFER
 70
0
 62
7
  6
CONTINUOUS
370
-3
390
F
  0
LAYER
  5
208
100
AcDbSymbolTableRecord
100
AcDbLayerTableRecord
  2
11_COSMETIC
 70
0
 62
7
  6
CONTINUOUS
370
-3
390
F
  0
LAYER
  5
209
100
AcDbSymbolTableRecord
100
AcDbLayerTableRecord
  2
12_DATUM_TOL
 70
0
 62
7
  6
CONTINUOUS
370
-3
390
F
  0
LAYER
  5
20A
100
AcDbSymbolTableRecord
100
AcDbLayerTableRecord
  2
13_NOTES
 70
0
 62
7
  6
CONTINUOUS
370
-3
390
F
  0
LAYER
  5
20B
100
AcDbSymbolTableRecord
100
AcDbLayerTableRecord
  2
14_SYMBOLS
 70
0
 62
7
  6
CONTINUOUS
370
-3
390
F
  0
LAYER
  5
20C
100
AcDbSymbolTableRecord
100
AcDbLayerTableRecord
  2
15_THREADS
 70
0
 62
7
  6
CONTINUOUS
370
-3
390
F
  0
ENDTAB
  0
TABLE
  2
STYLE
  5
3
100
AcDbSymbolTable
 70
1
  0
STYLE
  5
11
100
AcDbSymbolTableRecord
100
AcDbTextStyleTableRecord
  2
STANDARD
 70
0
 40
0.0
 41
0.8
 50
0.0
 71
0
 42
0.2
  3
txt
  4

  0
STYLE
  5
20D
100
AcDbSymbolTableRecord
100
AcDbTextStyleTableRecord
  2
TEXTSTYLE_1
 70
0
 40
0.0
 41
0.8
 50
0.0
 71
0
 42
0.2
  3
gdt
  4

  0
ENDTAB
  0
TABLE
  2
VIEW
  5
6
100
AcDbSymbolTable
 70
0
  0
ENDTAB
  0
TABLE
  2
UCS
  5
7
100
AcDbSymbolTable
 70
0
  0
ENDTAB
  0
TABLE
  2
APPID
  5
9
100
AcDbSymbolTable
 70
1
  0
APPID
  5
20E
100
AcDbSymbolTableRecord
100
AcDbRegAppTableRecord
  2
ACAD
 70
0
  0
ENDTAB
  0
TABLE
  2
BLOCK_RECORD
  5
1
100
AcDbSymbolTable
 70
0
  0
BLOCK_RECORD
  5
20F
100
AcDbSymbolTableRecord
100
AcDbBlockTableRecord
  2
*Model_Space
  0
BLOCK_RECORD
  5
210
100
AcDbSymbolTableRecord
100
AcDbBlockTableRecord
  2
*Paper_Space
  0
BLOCK_RECORD
  5
211
100
AcDbSymbolTableRecord
100
AcDbBlockTableRecord
  2
_FILLED
  0
ENDTAB
  0
TABLE
  2
DIMSTYLE
  5
A
100
AcDbSymbolTable
 70
1
100
AcDbDimStyleTable
 71
0
  0
DIMSTYLE
105
212
100
AcDbSymbolTableRecord
100
AcDbDimStyleTableRecord
  2
STANDARD
 70
0
  3

  4

 40
1.0
 41
2.5
 42
0.0
 43
0.38
 44
1.0
 45
0.0
 46
0.0
 47
0.01
 48
0.01
140
2.5
141
0.09
142
0.0
143
25.4
144
1.0
145
0.0
146
1.0
147
0.625
 71
1.0
 72
0.0
 73
0
 74
0
 75
0
 76
0
 77
1
 78
8
 79
2
170
0
171
1
172
0
173
0
174
0
175
0
176
0
177
0
178
5
270
2
179
2
271
2
272
2
273
2
274
2
275
0
280
0
281
0
282
0
283
1
284
8
285
0
286
0
287
3
288
0
340
11
278
44
341
211
342
211
343
211
344
211
  0
ENDTAB
  0
ENDSEC
  0
SECTION
  2
BLOCKS
  0
BLOCK
  5
20
100
AcDbEntity
  8
0
100
AcDbBlockBegin
  2
*Model_Space
 70
0
 10
0.0
 20
0.0
 30
0.0
  3
*Model_Space
  1

  0
ENDBLK
  5
21
100
AcDbEntity
  8
0
100
AcDbBlockEnd
  0
BLOCK
  5
1C
100
AcDbEntity
  8
0
100
AcDbBlockBegin
  2
*Paper_Space
 70
0
 10
0.0
 20
0.0
 30
0.0
  3
*Paper_Space
  1

  0
ENDBLK
  5
1D
100
AcDbEntity
  8
0
100
AcDbBlockEnd
  0
BLOCK
  5
213
100
AcDbEntity
  8
0
100
AcDbBlockBegin
  2
_FILLED
 70
64
 10
0.0
 20
0.0
  3
_FILLED
  1

  0
SOLID
  5
214
100
AcDbEntity
  8
0
  6
BYBLOCK
 62
0
100
AcDbTrace
 10
0.0
 20
0.0
 11
-1.0
 21
0.166
 12
-1.0
 22
-0.166
 13
-1.0
 23
-0.166
  0
ENDBLK
  5
215
100
AcDbEntity
  8
0
  6
BYBLOCK
 62
0
100
AcDbBlockEnd
  0
ENDSEC
  0
SECTION
  2
ENTITIES
  0
LINE
  5
216
100
AcDbEntity
  8
0
100
AcDbLine
 62
4
  6
CONTINUOUS
 10
201.8548377021
 20
176.825051239
 11
202.231639637
 21
177.9279403776
  0
LINE
  5
217
100
AcDbEntity
  8
0
100
AcDbLine
 62
4
  6
CONTINUOUS
 10
201.4394066016
 20
175.5750537709
 11
201.8144446476
 21
176.6706404096
  0
LINE
  5
218
100
AcDbEntity
  8
0
100
AcDbLine
 62
4
  6
CONTINUOUS
 10
202.1931163046
 20
176.0309484815
 11
202.0238888089
 21
175.5750537709
  0
LINE
  5
219
100
AcDbEntity
  8
0
100
AcDbLine
 62
4
  6
CONTINUOUS
 10
203.2304805882
 20
155.6495403852
 11
202.4938761098
 21
154.6589354762
  0
LINE
  5
21A
100
AcDbEntity
  8
09_ROUNDS
100
AcDbLine
 62
7
  6
CONTINUOUS
 10
235.0992654508
 20
112.0177793526
 11
232.8992654508
 21
112.0177793526
  0
LINE
  5
21B
100
AcDbEntity
  8
09_ROUNDS
100
AcDbLine
 62
7
  6
CONTINUOUS
 10
218.7992654508
 20
112.0177793526
 11
200.0992654508
 21
112.0177793526
  0
LINE
  5
21C
100
AcDbEntity
  8
0
100
AcDbLine
 62
7
  6
CONTINUOUS
 10
218.7992654508
 20
112.0177793526
 11
220.8492654508
 21
112.0177793526
  0
LINE
  5
21D
100
AcDbEntity
  8
09_ROUNDS
100
AcDbLine
 62
7
  6
CONTINUOUS
 10
220.8492654508
 20
112.0177793526
 11
230.8492654508
 21
112.0177793526
  0
LINE
  5
21E
100
AcDbEntity
  8
0
100
AcDbLine
 62
7
  6
CONTINUOUS
 10
230.8492654508
 20
112.0177793526
 11
232.8992654508
 21
112.0177793526
  0
LINE
  5
21F
100
AcDbEntity
  8
0
100
AcDbLine
 62
7
  6
CONTINUOUS
 10
218.0992654508
 20
113.0177793526
 11
218.7992654508
 21
113.0177793526
  0
LINE
  5
220
100
AcDbEntity
  8
0
100
AcDbLine
 62
7
  6
CONTINUOUS
 10
232.8992654508
 20
113.0177793526
 11
233.5992654508
 21
113.0177793526
  0
LINE
  5
221
100
AcDbEntity
  8
0
100
AcDbLine
 62
7
  6
CONTINUOUS
 10
218.0992654508
 20
114.6177793526
 11
220.8492654508
 21
114.6177793526
  0
LINE
  5
222
100
AcDbEntity
  8
09_ROUNDS
100
AcDbLine
 62
7
  6
CONTINUOUS
 10
223.9992654508
 20
114.6177793526
 11
228.1992654508
 21
114.6177793526
  0
LINE
  5
223
100
AcDbEntity
  8
0
100
AcDbLine
 62
7
  6
CONTINUOUS
 10
230.8492654508
 20
114.6177793526
 11
233.5992654508
 21
114.6177793526
  0
LINE
  5
224
100
AcDbEntity
  8
09_ROUNDS
100
AcDbLine
 62
7
  6
CONTINUOUS
 10
199.5992654508
 20
112.5177793526
 11
199.5992654508
 21
201.5177793526
  0
LINE
  5
225
100
AcDbEntity
  8
0
100
AcDbLine
 62
4
  6
CONTINUOUS
 10
202.3109384981
 20
151.3101159955
 11
202.0260247218
 21
150.4974374076
  0
LINE
  5
226
100
AcDbEntity
  8
0
100
AcDbLine
 62
4
  6
CONTINUOUS
 10
201.9363008238
 20
150.2462548369
 11
201.7595008697
 21
149.7457316726
  0
LINE
  5
227
100
AcDbEntity
  8
0
100
AcDbLine
 62
4
  6
CONTINUOUS
 10
201.4188161204
 20
149.7457316726
 11
202.1419072529
 21
151.6360777195
  0
LINE
  5
228
100
AcDbEntity
  8
0
100
AcDbLine
 62
4
  6
CONTINUOUS
 10
205.9990777453
 20
154.3033370265
 11
206.659481018
 21
154.6589354762
  0
LINE
  5
229
100
AcDbEntity
  8
0
100
AcDbLine
 62
7
  6
CONTINUOUS
 10
219.6392654508
 20
115.4977793526
 11
225.3392654508
 21
115.4977793526
  0
LINE
  5
22A
100
AcDbEntity
  8
0
100
AcDbLine
 62
7
  6
CONTINUOUS
 10
225.3492654508
 20
115.4977793526
 11
231.0492654508
 21
115.4977793526
  0
LINE
  5
22B
100
AcDbEntity
  8
0
100
AcDbLine
 62
4
  6
CONTINUOUS
 10
202.5238807406
 20
176.6706404096
 11
202.527620185
 21
176.0309484815
  0
LINE
  5
22C
100
AcDbEntity
  8
0
100
AcDbLine
 62
4
  6
CONTINUOUS
 10
200.3469320419
 20
175.0977454498
 11
200.3469320419
 21
178.3977345322
  0
LINE
  5
22D
100
AcDbEntity
  8
03_AXES
100
AcDbLine
 62
7
  6
CONTINUOUS
 10
201.5992654508
 20
200.0009763704
 11
201.5992654508
 21
182.0009763704
  0
LINE
  5
22E
100
AcDbEntity
  8
0
100
AcDbLine
 62
4
  6
CONTINUOUS
 10
202.527620185
 20
177.9279403776
 11
202.527620185
 21
176.825051239
  0
LINE
  5
22F
100
AcDbEntity
  8
0
100
AcDbLine
 62
4
  6
CONTINUOUS
 10
202.6820310144
 20
177.9279403776
 11
202.6820310144
 21
176.825051239
  0
LINE
  5
230
100
AcDbEntity
  8
0
100
AcDbLine
 62
4
  6
CONTINUOUS
 10
203.4773832836
 20
149.7457316726
 11
203.4773832836
 21
151.6360777195
  0
LINE
  5
231
100
AcDbEntity
  8
0
100
AcDbLine
 62
4
  6
CONTINUOUS
 10
203.8074510816
 20
151.3658102195
 11
203.8074510816
 21
150.8445221746
  0
LINE
  5
232
100
AcDbEntity
  8
0
100
AcDbLine
 62
4
  6
CONTINUOUS
 10
203.8074510816
 20
150.6060202517
 11
203.8074510816
 21
150.0159138959
  0
LINE
  5
233
100
AcDbEntity
  8
0
100
AcDbLine
 62
4
  6
CONTINUOUS
 10
203.9511137598
 20
175.5661637712
 11
203.9511137598
 21
176.6706404096
  0
LINE
  5
234
100
AcDbEntity
  8
0
100
AcDbLine
 62
4
  6
CONTINUOUS
 10
203.9511137598
 20
176.825051239
 11
203.9511137598
 21
177.9295631553
  0
LINE
  5
235
100
AcDbEntity
  8
0
100
AcDbLine
 62
4
  6
CONTINUOUS
 10
204.5917229101
 20
177.9295631553
 11
204.5917229101
 21
176.825051239
  0
LINE
  5
236
100
AcDbEntity
  8
0
100
AcDbLine
 62
4
  6
CONTINUOUS
 10
204.5917229101
 20
176.6706404096
 11
204.5917229101
 21
175.5661637712
  0
LINE
  5
237
100
AcDbEntity
  8
0
100
AcDbLine
 62
4
  6
CONTINUOUS
 10
204.6836736153
 20
150.7653853809
 11
204.6836736153
 21
150.7599361987
  0
LINE
  5
238
100
AcDbEntity
  8
0
100
AcDbLine
 62
4
  6
CONTINUOUS
 10
204.7461337395
 20
176.6706404096
 11
204.7461337395
 21
175.5639412712
  0
LINE
  5
239
100
AcDbEntity
  8
0
100
AcDbLine
 62
4
  6
CONTINUOUS
 10
202.685735181
 20
176.6706404096
 11
202.6820310144
 21
176.0309484815
  0
LINE
  5
23A
100
AcDbEntity
  8
09_ROUNDS
100
AcDbLine
 62
7
  6
CONTINUOUS
 10
210.1190128874
 20
148.2053372084
 11
210.1184891915
 21
148.2047193431
  0
LINE
  5
23B
100
AcDbEntity
  8
0
100
AcDbLine
 62
7
  6
CONTINUOUS
 10
205.1492654508
 20
137.8509763704
 11
205.2593217873
 21
135.7509763704
  0
LINE
  5
23C
100
AcDbEntity
  8
09_ROUNDS
100
AcDbLine
 62
7
  6
CONTINUOUS
 10
205.2999337594
 20
147.8372114836
 11
205.2993209183
 21
148.0052002669
  0
LINE
  5
23D
100
AcDbEntity
  8
10_CHAMFER
100
AcDbLine
 62
7
  6
CONTINUOUS
 10
205.5998083738
 20
148.0709953219
 11
205.5994462404
 21
148.1702614211
  0
LINE
  5
23E
100
AcDbEntity
  8
0
100
AcDbLine
 62
4
  6
CONTINUOUS
 10
204.7461337395
 20
177.9353487107
 11
204.7498379061
 21
176.8286495723
  0
LINE
  5
23F
100
AcDbEntity
  8
0
100
AcDbLine
 62
4
  6
CONTINUOUS
 10
206.633247858
 20
177.9353487107
 11
206.6368461913
 21
176.8286495723
  0
LINE
  5
240
100
AcDbEntity
  8
09_ROUNDS
100
AcDbLine
 62
7
  6
CONTINUOUS
 10
206.4994947917
 20
135.8722719619
 11
206.499659088
 21
134.8565622569
  0
LINE
  5
241
100
AcDbEntity
  8
0
100
AcDbLine
 62
7
  6
CONTINUOUS
 10
205.1492654508
 20
148.49792991
 11
205.1492654508
 21
137.8509763704
  0
LINE
  5
242
100
AcDbEntity
  8
09_ROUNDS
100
AcDbLine
 62
7
  6
CONTINUOUS
 10
205.2993209183
 20
148.0052002669
 11
205.2993209353
 21
147.8372114835
  0
LINE
  5
243
100
AcDbEntity
  8
0
100
AcDbLine
 62
4
  6
CONTINUOUS
 10
205.414478027
 20
149.7457316726
 11
205.414478027
 21
151.6360777195
  0
LINE
  5
244
100
AcDbEntity
  8
0
100
AcDbLine
 62
7
  6
CONTINUOUS
 10
205.4492654508
 20
135.8697854535
 11
205.4492654508
 21
135.7509763704
  0
LINE
  5
245
100
AcDbEntity
  8
0
100
AcDbLine
 62
4
  6
CONTINUOUS
 10
205.7446055187
 20
151.3658102195
 11
205.7446055187
 21
150.8445221746
  0
LINE
  5
246
100
AcDbEntity
  8
0
100
AcDbLine
 62
4
  6
CONTINUOUS
 10
205.7446055187
 20
150.6060202517
 11
205.7446055187
 21
150.0159138959
  0
LINE
  5
247
100
AcDbEntity
  8
0
100
AcDbLine
 62
4
  6
CONTINUOUS
 10
205.838122045
 20
175.5661637712
 11
205.838122045
 21
176.6706404096
  0
LINE
  5
248
100
AcDbEntity
  8
0
100
AcDbLine
 62
4
  6
CONTINUOUS
 10
205.838122045
 20
176.825051239
 11
205.838122045
 21
177.9295631553
  0
LINE
  5
249
100
AcDbEntity
  8
0
100
AcDbLine
 62
4
  6
CONTINUOUS
 10
205.9228765396
 20
154.7351366819
 11
205.9228765396
 21
154.6589354762
  0
LINE
  5
24A
100
AcDbEntity
  8
0
100
AcDbLine
 62
4
  6
CONTINUOUS
 10
205.9990777453
 20
155.039941505
 11
205.9990777453
 21
154.3033370265
  0
LINE
  5
24B
100
AcDbEntity
  8
09_ROUNDS
100
AcDbLine
 62
7
  6
CONTINUOUS
 10
206.2992654508
 20
135.8876608673
 11
206.2992654508
 21
134.5009763704
  0
LINE
  5
24C
100
AcDbEntity
  8
0
100
AcDbLine
 62
4
  6
CONTINUOUS
 10
206.4788370286
 20
177.9295631553
 11
206.4788370286
 21
176.825051239
  0
LINE
  5
24D
100
AcDbEntity
  8
0
100
AcDbLine
 62
4
  6
CONTINUOUS
 10
206.4788370286
 20
176.6706404096
 11
206.4788370286
 21
175.5661637712
  0
LINE
  5
24E
100
AcDbEntity
  8
0
100
AcDbLine
 62
4
  6
CONTINUOUS
 10
206.6206873458
 20
150.7653853809
 11
206.6206873458
 21
150.7599361987
  0
LINE
  5
24F
100
AcDbEntity
  8
0
100
AcDbLine
 62
4
  6
CONTINUOUS
 10
206.633247858
 20
176.6706404096
 11
206.633247858
 21
175.5639412712
  0
LINE
  5
250
100
AcDbEntity
  8
0
100
AcDbLine
 62
4
  6
CONTINUOUS
 10
207.3097189574
 20
150.550888854
 11
207.3097189574
 21
150.3974845673
  0
LINE
  5
251
100
AcDbEntity
  8
0
100
AcDbLine
 62
4
  6
CONTINUOUS
 10
207.9695475573
 20
150.3974845673
 11
207.9695475573
 21
150.550888854
  0
LINE
  5
252
100
AcDbEntity
  8
0
100
AcDbLine
 62
4
  6
CONTINUOUS
 10
208.2227725053
 20
150.9711069337
 11
208.2227725053
 21
151.1120267089
  0
LINE
  5
253
100
AcDbEntity
  8
0
100
AcDbLine
 62
4
  6
CONTINUOUS
 10
208.4550918662
 20
149.7457316726
 11
208.4550918662
 21
150.9711069337
  0
LINE
  5
254
100
AcDbEntity
  8
0
100
AcDbLine
 62
4
  6
CONTINUOUS
 10
208.4550918662
 20
151.1120267089
 11
208.4550918662
 21
151.2364539671
  0
LINE
  5
255
100
AcDbEntity
  8
0
100
AcDbLine
 62
4
  6
CONTINUOUS
 10
208.6212748689
 20
151.2309792019
 11
208.6212748689
 21
151.1120267089
  0
LINE
  5
256
100
AcDbEntity
  8
0
100
AcDbLine
 62
4
  6
CONTINUOUS
 10
208.6212748689
 20
150.9711069337
 11
208.6212748689
 21
149.7457316726
  0
LINE
  5
257
100
AcDbEntity
  8
0
100
AcDbLine
 62
4
  6
CONTINUOUS
 10
208.8906768103
 20
151.1120267089
 11
208.8906768103
 21
150.9711069337
  0
LINE
  5
258
100
AcDbEntity
  8
0
100
AcDbLine
 62
4
  6
CONTINUOUS
 10
208.9248770377
 20
151.6257080707
 11
208.9248770377
 21
151.4825540455
  0
LINE
  5
259
100
AcDbEntity
  8
0
100
AcDbLine
 62
4
  6
CONTINUOUS
 10
209.1275797947
 20
149.7451688463
 11
209.1275797947
 21
151.1120267089
  0
LINE
  5
25A
100
AcDbEntity
  8
0
100
AcDbLine
 62
4
  6
CONTINUOUS
 10
209.2811034688
 20
151.1120267089
 11
209.2811034688
 21
150.7910622005
  0
LINE
  5
25B
100
AcDbEntity
  8
09_ROUNDS
100
AcDbLine
 62
7
  6
CONTINUOUS
 10
205.2999337594
 20
147.8372114836
 11
205.2996514256
 21
136.0627096153
  0
LINE
  5
25C
100
AcDbEntity
  8
09_ROUNDS
100
AcDbLine
 62
7
  6
CONTINUOUS
 10
206.499659088
 20
134.8565622569
 11
206.4999348693
 21
136.387941765
  0
LINE
  5
25D
100
AcDbEntity
  8
03_AXES
100
AcDbLine
 62
7
  6
CONTINUOUS
 10
205.2997856063
 20
137.0787137048
 11
205.2995633948
 21
136.3181608872
  0
LINE
  5
25E
100
AcDbEntity
  8
03_AXES
100
AcDbLine
 62
7
  6
CONTINUOUS
 10
205.8996561848
 20
135.8627227205
 11
205.8997260258
 21
135.8876523287
  0
LINE
  5
25F
100
AcDbEntity
  8
09_ROUNDS
100
AcDbLine
 62
7
  6
CONTINUOUS
 10
206.499659088
 20
134.8565622569
 11
206.4996686066
 21
134.8578976668
  0
LINE
  5
260
100
AcDbEntity
  8
09_ROUNDS
100
AcDbLine
 62
7
  6
CONTINUOUS
 10
205.2996721346
 20
136.0651275893
 11
205.2996514256
 21
136.0627096153
  0
LINE
  5
261
100
AcDbEntity
  8
10_CHAMFER
100
AcDbLine
 62
7
  6
CONTINUOUS
 10
210.1186145454
 20
148.170358001
 11
210.0792919283
 21
148.0710922733
  0
LINE
  5
262
100
AcDbEntity
  8
0
100
AcDbLine
 62
7
  6
CONTINUOUS
 10
225.9492654508
 20
159.6177793526
 11
227.9492654508
 21
161.6177793526
  0
LINE
  5
263
100
AcDbEntity
  8
0
100
AcDbLine
 62
7
  6
CONTINUOUS
 10
219.6392654508
 20
125.4977793526
 11
225.3392654508
 21
125.4977793526
  0
LINE
  5
264
100
AcDbEntity
  8
0
100
AcDbLine
 62
7
  6
CONTINUOUS
 10
225.3492654508
 20
125.4977793526
 11
231.0492654508
 21
125.4977793526
  0
LINE
  5
265
100
AcDbEntity
  8
0
100
AcDbLine
 62
7
  6
CONTINUOUS
 10
219.4992654508
 20
126.0177793526
 11
232.1992654508
 21
126.0177793526
  0
LINE
  5
266
100
AcDbEntity
  8
0
100
AcDbLine
 62
7
  6
CONTINUOUS
 10
229.1492654508
 20
126.4677793526
 11
229.6492654508
 21
126.4677793526
  0
LINE
  5
267
100
AcDbEntity
  8
0
100
AcDbLine
 62
7
  6
CONTINUOUS
 10
220.9992654508
 20
127.5177793526
 11
223.5992654508
 21
127.5177793526
  0
LINE
  5
268
100
AcDbEntity
  8
0
100
AcDbLine
 62
7
  6
CONTINUOUS
 10
228.0992654508
 20
127.5177793526
 11
229.1492654508
 21
127.5177793526
  0
LINE
  5
269
100
AcDbEntity
  8
0
100
AcDbLine
 62
7
  6
CONTINUOUS
 10
229.6492654508
 20
127.5177793526
 11
230.6992654508
 21
127.5177793526
  0
LINE
  5
26A
100
AcDbEntity
  8
0
100
AcDbLine
 62
7
  6
CONTINUOUS
 10
230.6992654508
 20
128.0177793526
 11
229.6492654508
 21
128.0177793526
  0
LINE
  5
26B
100
AcDbEntity
  8
0
100
AcDbLine
 62
7
  6
CONTINUOUS
 10
229.1492654508
 20
128.0177793526
 11
228.0992654508
 21
128.0177793526
  0
LINE
  5
26C
100
AcDbEntity
  8
0
100
AcDbLine
 62
7
  6
CONTINUOUS
 10
223.5992654508
 20
128.0177793526
 11
220.9992654508
 21
128.0177793526
  0
LINE
  5
26D
100
AcDbEntity
  8
0
100
AcDbLine
 62
7
  6
CONTINUOUS
 10
219.4992654508
 20
121.2177793526
 11
219.6392654508
 21
121.1369503149
  0
LINE
  5
26E
100
AcDbEntity
  8
0
100
AcDbLine
 62
7
  6
CONTINUOUS
 10
225.3492654508
 20
121.2146555807
 11
225.3392654508
 21
121.2204290834
  0
LINE
  5
26F
100
AcDbEntity
  8
0
100
AcDbLine
 62
4
  6
CONTINUOUS
 10
202.493379507
 20
151.6360777195
 11
203.2188498599
 21
149.7457316726
  0
LINE
  5
270
100
AcDbEntity
  8
0
100
AcDbLine
 62
4
  6
CONTINUOUS
 10
202.8654205052
 20
149.7457316726
 11
202.688313555
 21
150.2462548369
  0
LINE
  5
271
100
AcDbEntity
  8
0
100
AcDbLine
 62
4
  6
CONTINUOUS
 10
202.6011863329
 20
150.4974374076
 11
202.318707207
 21
151.3101159955
  0
LINE
  5
272
100
AcDbEntity
  8
09_ROUNDS
100
AcDbLine
 62
7
  6
CONTINUOUS
 10
210.1186145454
 20
148.170358001
 11
210.1184891915
 21
148.2047193431
  0
LINE
  5
273
100
AcDbEntity
  8
0
100
AcDbLine
 62
4
  6
CONTINUOUS
 10
209.2941806534
 20
150.4739095613
 11
209.2941806534
 21
149.7451688463
  0
LINE
  5
274
100
AcDbEntity
  8
0
100
AcDbLine
 62
4
  6
CONTINUOUS
 10
209.8004855791
 20
151.1299945133
 11
209.8004855791
 21
150.9635087782
  0
LINE
  5
275
100
AcDbEntity
  8
0
100
AcDbLine
 62
4
  6
CONTINUOUS
 10
211.0781963738
 20
164.8349652158
 11
211.0781963738
 21
165.9640952611
  0
LINE
  5
276
100
AcDbEntity
  8
0
100
AcDbLine
 62
4
  6
CONTINUOUS
 10
211.0978334181
 20
158.2350235399
 11
211.0978334181
 21
159.9990846832
  0
LINE
  5
277
100
AcDbEntity
  8
0
100
AcDbLine
 62
4
  6
CONTINUOUS
 10
211.3868769293
 20
165.9640952611
 11
211.3868769293
 21
164.9362510231
  0
LINE
  5
278
100
AcDbEntity
  8
0
100
AcDbLine
 62
4
  6
CONTINUOUS
 10
211.4068584831
 20
159.7470759484
 11
211.4068584831
 21
159.2604562111
  0
LINE
  5
279
100
AcDbEntity
  8
0
100
AcDbLine
 62
4
  6
CONTINUOUS
 10
211.4068584831
 20
159.0380752976
 11
211.4068584831
 21
158.4868600199
  0
LINE
  5
27A
100
AcDbEntity
  8
0
100
AcDbLine
 62
4
  6
CONTINUOUS
 10
212.2171449412
 20
164.9362510231
 11
212.2171449412
 21
165.9640952611
  0
LINE
  5
27B
100
AcDbEntity
  8
0
100
AcDbLine
 62
4
  6
CONTINUOUS
 10
212.2271357181
 20
159.1862144034
 11
212.2271357181
 21
159.1813912697
  0
LINE
  5
27C
100
AcDbEntity
  8
0
100
AcDbLine
 62
4
  6
CONTINUOUS
 10
212.5258254967
 20
165.9640952611
 11
212.5258254967
 21
164.8349652158
  0
LINE
  5
27D
100
AcDbEntity
  8
0
100
AcDbLine
 62
4
  6
CONTINUOUS
 10
212.7966100018
 20
158.7018339782
 11
212.7966100018
 21
159.5124649459
  0
LINE
  5
27E
100
AcDbEntity
  8
0
100
AcDbLine
 62
4
  6
CONTINUOUS
 10
212.9623190947
 20
170.200012415
 11
212.9623190947
 21
171.9640735582
  0
LINE
  5
27F
100
AcDbEntity
  8
0
100
AcDbLine
 62
4
  6
CONTINUOUS
 10
213.0784188125
 20
159.5124649459
 11
213.0784188125
 21
158.7293947421
  0
LINE
  5
280
100
AcDbEntity
  8
0
100
AcDbLine
 62
4
  6
CONTINUOUS
 10
213.2565302491
 20
171.4970908652
 11
213.2565302491
 21
170.200012415
  0
LINE
  5
281
100
AcDbEntity
  8
0
100
AcDbLine
 62
4
  6
CONTINUOUS
 10
213.6368687907
 20
158.771424907
 11
213.6368687907
 21
159.5124649459
  0
LINE
  5
282
100
AcDbEntity
  8
0
100
AcDbLine
 62
4
  6
CONTINUOUS
 10
213.6416919244
 20
158.2350235399
 11
213.6416919244
 21
158.4131349765
  0
LINE
  5
283
100
AcDbEntity
  8
0
100
AcDbLine
 62
7
  6
CONTINUOUS
 10
210.3996561319
 20
134.6563588641
 11
210.3997259731
 21
134.6812811851
  0
LINE
  5
284
100
AcDbEntity
  8
0
100
AcDbLine
 62
7
  6
CONTINUOUS
 10
212.3997258955
 20
134.6813239275
 11
212.3996560543
 21
134.6564016064
  0
LINE
  5
285
100
AcDbEntity
  8
0
100
AcDbLine
 62
4
  6
CONTINUOUS
 10
214.3534606798
 20
151.1802054444
 11
214.1636688179
 21
150.4848335088
  0
LINE
  5
286
100
AcDbEntity
  8
0
100
AcDbLine
 62
4
  6
CONTINUOUS
 10
214.1214397875
 20
151.0290865737
 11
214.1687513102
 21
151.1802054444
  0
LINE
  5
287
100
AcDbEntity
  8
0
100
AcDbLine
 62
7
  6
CONTINUOUS
 10
229.6492654508
 20
129.0677793526
 11
229.1492654508
 21
129.0677793526
  0
LINE
  5
288
100
AcDbEntity
  8
0
100
AcDbLine
 62
7
  6
CONTINUOUS
 10
221.5992654508
 20
129.9177793526
 11
224.5992654508
 21
129.9177793526
  0
LINE
  5
289
100
AcDbEntity
  8
03_AXES
100
AcDbLine
 62
7
  6
CONTINUOUS
 10
221.5992654508
 20
130.0177793526
 11
224.5992654508
 21
130.0177793526
  0
LINE
  5
28A
100
AcDbEntity
  8
03_AXES
100
AcDbLine
 62
7
  6
CONTINUOUS
 10
221.5992654508
 20
130.8979754498
 11
224.5992654508
 21
130.8979754498
  0
LINE
  5
28B
100
AcDbEntity
  8
09_ROUNDS
100
AcDbLine
 62
7
  6
CONTINUOUS
 10
200.0992654508
 20
132.0177793526
 11
219.6017670153
 21
132.0177793526
  0
LINE
  5
28C
100
AcDbEntity
  8
0
100
AcDbLine
 62
7
  6
CONTINUOUS
 10
226.5967638864
 20
132.0177793526
 11
228.1026024961
 21
132.0177793526
  0
LINE
  5
28D
100
AcDbEntity
  8
09_ROUNDS
100
AcDbLine
 62
7
  6
CONTINUOUS
 10
231.0959284055
 20
132.0177793526
 11
235.0992654508
 21
132.0177793526
  0
LINE
  5
28E
100
AcDbEntity
  8
03_AXES
100
AcDbLine
 62
7
  6
CONTINUOUS
 10
221.5992654508
 20
132.9375832553
 11
224.5992654508
 21
132.9375832553
  0
LINE
  5
28F
100
AcDbEntity
  8
0
100
AcDbLine
 62
7
  6
CONTINUOUS
 10
231.1992654508
 20
121.1177793526
 11
232.1992654508
 21
120.5404290834
  0
LINE
  5
290
100
AcDbEntity
  8
0
100
AcDbLine
 62
7
  6
CONTINUOUS
 10
231.0492654508
 20
121.2204290834
 11
232.0492654508
 21
120.6430788142
  0
LINE
  5
291
100
AcDbEntity
  8
0
100
AcDbLine
 62
4
  6
CONTINUOUS
 10
213.9183330918
 20
159.5124649459
 11
213.9183330918
 21
158.2350235399
  0
LINE
  5
292
100
AcDbEntity
  8
0
100
AcDbLine
 62
4
  6
CONTINUOUS
 10
214.0988560953
 20
170.6645835412
 11
214.0988560953
 21
171.9640735582
  0
LINE
  5
293
100
AcDbEntity
  8
0
100
AcDbLine
 62
4
  6
CONTINUOUS
 10
214.3930672497
 20
171.9640735582
 11
214.3930672497
 21
170.200012415
  0
LINE
  5
294
100
AcDbEntity
  8
0
100
AcDbLine
 62
4
  6
CONTINUOUS
 10
214.4809171846
 20
164.2000341179
 11
214.4809171846
 21
165.9640952611
  0
LINE
  5
295
100
AcDbEntity
  8
0
100
AcDbLine
 62
4
  6
CONTINUOUS
 10
214.7899422496
 20
165.7120865264
 11
214.7899422496
 21
165.2254667891
  0
LINE
  5
296
100
AcDbEntity
  8
0
100
AcDbLine
 62
4
  6
CONTINUOUS
 10
214.7899422496
 20
165.0030858755
 11
214.7899422496
 21
164.4520428526
  0
LINE
  5
297
100
AcDbEntity
  8
0
100
AcDbLine
 62
4
  6
CONTINUOUS
 10
215.0792593481
 20
149.7451688463
 11
215.0792593481
 21
151.6360777195
  0
LINE
  5
298
100
AcDbEntity
  8
0
100
AcDbLine
 62
4
  6
CONTINUOUS
 10
215.3806613776
 20
151.6360777195
 11
215.3806613776
 21
150.9340200893
  0
LINE
  5
299
100
AcDbEntity
  8
0
100
AcDbLine
 62
4
  6
CONTINUOUS
 10
215.3806613776
 20
150.5536006536
 11
215.3806613776
 21
149.7451688463
  0
LINE
  5
29A
100
AcDbEntity
  8
0
100
AcDbLine
 62
4
  6
CONTINUOUS
 10
215.6102194846
 20
165.1512249814
 11
215.6102194846
 21
165.1464018477
  0
LINE
  5
29B
100
AcDbEntity
  8
0
100
AcDbLine
 62
4
  6
CONTINUOUS
 10
215.9766347715
 20
149.7451688463
 11
215.9766347715
 21
150.6060202517
  0
LINE
  5
29C
100
AcDbEntity
  8
0
100
AcDbLine
 62
4
  6
CONTINUOUS
 10
216.2777809709
 20
150.6857198717
 11
216.2777809709
 21
149.7451688463
  0
LINE
  5
29D
100
AcDbEntity
  8
0
100
AcDbLine
 62
7
  6
CONTINUOUS
 10
216.3492654508
 20
170.09792991
 11
216.3492654508
 21
156.89792991
  0
LINE
  5
29E
100
AcDbEntity
  8
0
100
AcDbLine
 62
7
  6
CONTINUOUS
 10
217.3492654508
 20
157.89792991
 11
217.3492654508
 21
169.09792991
  0
LINE
  5
29F
100
AcDbEntity
  8
0
100
AcDbLine
 62
7
420
5056038
  6
CONTINUOUS
 10
217.4492654508
 20
158.2177793526
 11
217.4492654508
 21
168.9177793526
  0
LINE
  5
2A0
100
AcDbEntity
  8
0
100
AcDbLine
 62
7
  6
CONTINUOUS
 10
217.4742654508
 20
169.0177793526
 11
217.4742654508
 21
158.0177793526
  0
LINE
  5
2A1
100
AcDbEntity
  8
0
100
AcDbLine
 62
7
  6
CONTINUOUS
 10
218.0992654508
 20
114.6177793526
 11
218.0992654508
 21
113.0177793526
  0
LINE
  5
2A2
100
AcDbEntity
  8
03_AXES
100
AcDbLine
 62
7
  6
CONTINUOUS
 10
215.3999902184
 20
136.5551468262
 11
215.3998843151
 21
134.9697098676
  0
LINE
  5
2A3
100
AcDbEntity
  8
0
100
AcDbLine
 62
7
  6
CONTINUOUS
 10
217.3996558603
 20
134.6565084623
 11
217.3997257015
 21
134.6814307833
  0
LINE
  5
2A4
100
AcDbEntity
  8
0
100
AcDbLine
 62
4
  6
CONTINUOUS
 10
226.241095133
 20
173.5693157996
 11
225.8828052026
 21
171.9614897366
  0
LINE
  5
2A5
100
AcDbEntity
  8
03_AXES
100
AcDbLine
 62
7
  6
CONTINUOUS
 10
224.5992654508
 20
133.8177793526
 11
221.5992654508
 21
133.8177793526
  0
LINE
  5
2A6
100
AcDbEntity
  8
0
100
AcDbLine
 62
7
  6
CONTINUOUS
 10
224.5992654508
 20
133.9177793526
 11
221.5992654508
 21
133.9177793526
  0
LINE
  5
2A7
100
AcDbEntity
  8
09_ROUNDS
100
AcDbLine
 62
7
  6
CONTINUOUS
 10
235.0992654508
 20
134.5009763704
 11
232.4992654508
 21
134.5009763704
  0
LINE
  5
2A8
100
AcDbEntity
  8
09_ROUNDS
100
AcDbLine
 62
7
  6
CONTINUOUS
 10
206.2992654508
 20
134.5009763704
 11
200.0992654508
 21
134.5009763704
  0
LINE
  5
2A9
100
AcDbEntity
  8
0
100
AcDbLine
 62
7
  6
CONTINUOUS
 10
206.2992654508
 20
134.5009763704
 11
232.4992654508
 21
134.5009763704
  0
LINE
  5
2AA
100
AcDbEntity
  8
09_ROUNDS
100
AcDbLine
 62
7
  6
CONTINUOUS
 10
232.0996552901
 20
134.656813527
 11
228.3996554337
 21
134.6567344537
  0
LINE
  5
2AB
100
AcDbEntity
  8
09_ROUNDS
100
AcDbLine
 62
7
  6
CONTINUOUS
 10
226.3996555113
 20
134.6566917113
 11
221.3996557053
 21
134.6565848555
  0
LINE
  5
2AC
100
AcDbEntity
  8
09_ROUNDS
100
AcDbLine
 62
7
  6
CONTINUOUS
 10
217.3996558605
 20
134.6564993708
 11
212.3996560545
 21
134.6563925149
  0
LINE
  5
2AD
100
AcDbEntity
  8
09_ROUNDS
100
AcDbLine
 62
7
  6
CONTINUOUS
 10
210.3996561321
 20
134.6563497726
 11
206.6996562756
 21
134.6562706992
  0
LINE
  5
2AE
100
AcDbEntity
  8
09_ROUNDS
100
AcDbLine
 62
7
  6
CONTINUOUS
 10
228.3997252747
 20
134.6816658662
 11
226.3997253523
 21
134.6816231239
  0
LINE
  5
2AF
100
AcDbEntity
  8
09_ROUNDS
100
AcDbLine
 62
7
  6
CONTINUOUS
 10
221.3997255463
 20
134.681516268
 11
217.3997257015
 21
134.6814307833
  0
LINE
  5
2B0
100
AcDbEntity
  8
09_ROUNDS
100
AcDbLine
 62
7
  6
CONTINUOUS
 10
212.3997258955
 20
134.6813239275
 11
210.3997259731
 21
134.6812811851
  0
LINE
  5
2B1
100
AcDbEntity
  8
0
100
AcDbLine
 62
7
  6
CONTINUOUS
 10
205.2593217873
 20
135.7509763704
 11
206.2992654508
 21
135.7509763704
  0
LINE
  5
2B2
100
AcDbEntity
  8
0
100
AcDbLine
 62
7
  6
CONTINUOUS
 10
232.4992654508
 20
135.7509763704
 11
233.5392091143
 21
135.7509763704
  0
LINE
  5
2B3
100
AcDbEntity
  8
03_AXES
100
AcDbLine
 62
7
  6
CONTINUOUS
 10
205.4996562003
 20
135.8627123677
 11
205.8996561848
 21
135.8627209161
  0
LINE
  5
2B4
100
AcDbEntity
  8
03_AXES
100
AcDbLine
 62
7
  6
CONTINUOUS
 10
232.8996551372
 20
135.8632979378
 11
233.2996551217
 21
135.8633064862
  0
LINE
  5
2B5
100
AcDbEntity
  8
03_AXES
100
AcDbLine
 62
7
  6
CONTINUOUS
 10
206.4997260025
 20
135.8876651514
 11
205.8997260258
 21
135.8876523287
  0
LINE
  5
2B6
100
AcDbEntity
  8
03_AXES
100
AcDbLine
 62
7
  6
CONTINUOUS
 10
232.2997250015
 20
135.8882165276
 11
232.8997249783
 21
135.8882293503
  0
LINE
  5
2B7
100
AcDbEntity
  8
03_AXES
100
AcDbLine
 62
7
  6
CONTINUOUS
 10
215.4002130698
 20
136.4940599959
 11
223.4002127594
 21
136.4942309653
  0
LINE
  5
2B8
100
AcDbEntity
  8
03_AXES
100
AcDbLine
 62
7
  6
CONTINUOUS
 10
215.3999902184
 20
136.5551468262
 11
223.3999899081
 21
136.5553177956
  0
LINE
  5
2B9
100
AcDbEntity
  8
10_CHAMFER
100
AcDbLine
 62
7
  6
CONTINUOUS
 10
205.6919468557
 20
148.070997291
 11
205.5994462404
 21
148.1702614211
  0
LINE
  5
2BA
100
AcDbEntity
  8
0
100
AcDbLine
 62
4
  6
CONTINUOUS
 10
203.9924818799
 20
153.7191349596
 11
203.2558774015
 21
154.6335386629
  0
LINE
  5
2BB
100
AcDbEntity
  8
0
100
AcDbLine
 62
4
  6
CONTINUOUS
 10
203.0166407281
 20
176.0309484815
 11
203.1856918349
 21
175.5750537709
  0
LINE
  5
2BC
100
AcDbEntity
  8
0
100
AcDbLine
 62
4
  6
CONTINUOUS
 10
203.7703151533
 20
175.5750537709
 11
203.3953476628
 21
176.6706404096
  0
LINE
  5
2BD
100
AcDbEntity
  8
0
100
AcDbLine
 62
4
  6
CONTINUOUS
 10
203.3548134972
 20
176.825051239
 11
202.9780468402
 21
177.9279403776
  0
LINE
  5
2BE
100
AcDbEntity
  8
0
100
AcDbLine
 62
4
  6
CONTINUOUS
 10
218.3178302949
 20
149.7457316726
 11
218.3178302949
 21
151.1141500992
  0
LINE
  5
2BF
100
AcDbEntity
  8
0
100
AcDbLine
 62
4
  6
CONTINUOUS
 10
218.6025180879
 20
151.1141500992
 11
218.6025180879
 21
150.9230961418
  0
LINE
  5
2C0
100
AcDbEntity
  8
0
100
AcDbLine
 62
4
  6
CONTINUOUS
 10
218.6181066718
 20
150.5584955372
 11
218.6181066718
 21
149.7457316726
  0
LINE
  5
2C1
100
AcDbEntity
  8
09_ROUNDS
100
AcDbLine
 62
7
  6
CONTINUOUS
 10
218.7992654508
 20
112.0177793526
 11
218.7992654508
 21
113.0177793526
  0
LINE
  5
2C2
100
AcDbEntity
  8
0
100
AcDbLine
 62
7
  6
CONTINUOUS
 10
219.1492654508
 20
167.4177793526
 11
219.1492654508
 21
161.6177793526
  0
LINE
  5
2C3
100
AcDbEntity
  8
0
100
AcDbLine
 62
4
  6
CONTINUOUS
 10
219.1568252777
 20
149.7457316726
 11
219.1568252777
 21
150.6245508824
  0
LINE
  5
2C4
100
AcDbEntity
  8
0
100
AcDbLine
 62
4
  6
CONTINUOUS
 10
219.2003534898
 20
172.5707548732
 11
219.2003534898
 21
173.9754925573
  0
LINE
  5
2C5
100
AcDbEntity
  8
0
100
AcDbLine
 62
4
  6
CONTINUOUS
 10
219.4572807357
 20
150.5481258884
 11
219.4572807357
 21
149.7457316726
  0
LINE
  5
2C6
100
AcDbEntity
  8
0
100
AcDbLine
 62
7
  6
CONTINUOUS
 10
219.4992654508
 20
114.6177793526
 11
219.4992654508
 21
126.0177793526
  0
LINE
  5
2C7
100
AcDbEntity
  8
0
100
AcDbLine
 62
4
  6
CONTINUOUS
 10
219.6065302475
 20
173.9754925573
 11
219.6065302475
 21
172.5707548732
  0
LINE
  5
2C8
100
AcDbEntity
  8
0
100
AcDbLine
 62
7
  6
CONTINUOUS
 10
219.6392654508
 20
125.4977793526
 11
219.6392654508
 21
115.4977793526
  0
LINE
  5
2C9
100
AcDbEntity
  8
0
100
AcDbLine
 62
4
  6
CONTINUOUS
 10
219.9955814857
 20
149.7457316726
 11
219.9955814857
 21
150.5454396718
  0
LINE
  5
2CA
100
AcDbEntity
  8
0
100
AcDbLine
 62
4
  6
CONTINUOUS
 10
220.0805753863
 20
172.5707548732
 11
220.0805753863
 21
173.9754925573
  0
LINE
  5
2CB
100
AcDbEntity
  8
0
100
AcDbLine
 62
4
  6
CONTINUOUS
 10
220.2966424083
 20
150.6906403383
 11
220.2966424083
 21
149.7457316726
  0
LINE
  5
2CC
100
AcDbEntity
  8
0
100
AcDbLine
 62
4
  6
CONTINUOUS
 10
220.486752144
 20
173.9754925573
 11
220.486752144
 21
172.5707548732
  0
LINE
  5
2CD
100
AcDbEntity
  8
0
100
AcDbLine
 62
7
  6
CONTINUOUS
 10
220.5492654508
 20
162.0176421845
 11
220.5492654508
 21
165.0176421845
  0
LINE
  5
2CE
100
AcDbEntity
  8
0
100
AcDbLine
 62
4
  6
CONTINUOUS
 10
220.6652080902
 20
172.5087431544
 11
220.6652080902
 21
172.5905641722
  0
LINE
  5
2CF
100
AcDbEntity
  8
09_ROUNDS
100
AcDbLine
 62
7
  6
CONTINUOUS
 10
220.8492654508
 20
112.0177793526
 11
220.8492654508
 21
114.6177793526
  0
LINE
  5
2D0
100
AcDbEntity
  8
0
100
AcDbLine
 62
7
  6
CONTINUOUS
 10
220.9992654508
 20
128.0177793526
 11
220.9992654508
 21
127.5177793526
  0
LINE
  5
2D1
100
AcDbEntity
  8
0
100
AcDbLine
 62
4
  6
CONTINUOUS
 10
221.0713848479
 20
172.5905641722
 11
221.0713848479
 21
172.5313085299
  0
LINE
  5
2D2
100
AcDbEntity
  8
0
100
AcDbLine
 62
7
420
5056038
  6
CONTINUOUS
 10
221.5492654508
 20
157.89792991
 11
221.5492654508
 21
158.0177793526
  0
LINE
  5
2D3
100
AcDbEntity
  8
0
100
AcDbLine
 62
2
  6
CONTINUOUS
 10
221.6492654508
 20
157.89792991
 11
221.6492654508
 21
158.0177793526
  0
LINE
  5
2D4
100
AcDbEntity
  8
0
100
AcDbLine
 62
4
  6
CONTINUOUS
 10
221.9402379292
 20
173.4733698903
 11
221.9402379292
 21
173.4170425791
  0
LINE
  5
2D5
100
AcDbEntity
  8
0
100
AcDbLine
 62
4
  6
CONTINUOUS
 10
222.2089553771
 20
171.9614897366
 11
222.2089553771
 21
173.9754925573
  0
LINE
  5
2D6
100
AcDbEntity
  8
0
100
AcDbLine
 62
4
  6
CONTINUOUS
 10
222.6151321348
 20
173.6764582692
 11
222.6151321348
 21
173.1490141504
  0
LINE
  5
2D7
100
AcDbEntity
  8
0
100
AcDbLine
 62
4
  6
CONTINUOUS
 10
222.6151321348
 20
172.8668608301
 11
222.6151321348
 21
172.2605240247
  0
LINE
  5
2D8
100
AcDbEntity
  8
0
100
AcDbLine
 62
4
  6
CONTINUOUS
 10
222.6689042399
 20
150.9415670788
 11
222.6689042399
 21
151.5042654977
  0
LINE
  5
2D9
100
AcDbEntity
  8
0
100
AcDbLine
 62
4
  6
CONTINUOUS
 10
222.7597751098
 20
151.4280622231
 11
222.7597751098
 21
151.2581654193
  0
LINE
  5
2DA
100
AcDbEntity
  8
0
100
AcDbLine
 62
4
  6
CONTINUOUS
 10
222.7597751098
 20
151.1805380236
 11
222.7597751098
 21
150.9415670788
  0
LINE
  5
2DB
100
AcDbEntity
  8
0
100
AcDbLine
 62
7
  6
CONTINUOUS
 10
221.3997255463
 20
134.681516268
 11
221.3996557051
 21
134.6565939469
  0
LINE
  5
2DC
100
AcDbEntity
  8
0
100
AcDbLine
 62
4
  6
CONTINUOUS
 10
225.7277759057
 20
172.5538739053
 11
226.0181974551
 21
173.9754925573
  0
LINE
  5
2DD
100
AcDbEntity
  8
10_CHAMFER
100
AcDbLine
 62
7
  6
CONTINUOUS
 10
233.1069960932
 20
148.0715831828
 11
233.1994451695
 21
148.1708512654
  0
LINE
  5
2DE
100
AcDbEntity
  8
09_ROUNDS
100
AcDbLine
 62
7
  6
CONTINUOUS
 10
235.6992654508
 20
140.5009763704
 11
235.5992654508
 21
140.5009763704
  0
LINE
  5
2DF
100
AcDbEntity
  8
09_ROUNDS
100
AcDbLine
 62
7
  6
CONTINUOUS
 10
223.9992654508
 20
114.6177793526
 11
224.0957937025
 21
112.7759105876
  0
LINE
  5
2E0
100
AcDbEntity
  8
0
100
AcDbLine
 62
4
  6
CONTINUOUS
 10
223.1567011451
 20
173.0248184581
 11
223.1567011451
 21
173.0193063054
  0
LINE
  5
2E1
100
AcDbEntity
  8
0
100
AcDbLine
 62
7
  6
CONTINUOUS
 10
223.5992654508
 20
127.5177793526
 11
223.5992654508
 21
128.0177793526
  0
LINE
  5
2E2
100
AcDbEntity
  8
0
100
AcDbLine
 62
4
  6
CONTINUOUS
 10
223.7613154027
 20
172.6102012165
 11
223.7613154027
 21
172.9429974404
  0
LINE
  5
2E3
100
AcDbEntity
  8
0
100
AcDbLine
 62
4
  6
CONTINUOUS
 10
224.5564434407
 20
172.9429974404
 11
224.5564434407
 21
172.6102012165
  0
LINE
  5
2E4
100
AcDbEntity
  8
0
100
AcDbLine
 62
4
  6
CONTINUOUS
 10
224.8306730414
 20
171.9614897366
 11
224.8306730414
 21
173.9754925573
  0
LINE
  5
2E5
100
AcDbEntity
  8
0
100
AcDbLine
 62
4
  6
CONTINUOUS
 10
225.2030878633
 20
173.5693157996
 11
225.2030878633
 21
171.9614897366
  0
LINE
  5
2E6
100
AcDbEntity
  8
0
100
AcDbLine
 62
7
  6
CONTINUOUS
 10
225.3392654508
 20
125.4977793526
 11
225.3392654508
 21
115.4977793526
  0
LINE
  5
2E7
100
AcDbEntity
  8
0
100
AcDbLine
 62
7
  6
CONTINUOUS
 10
225.3492654508
 20
125.4977793526
 11
225.3492654508
 21
115.4977793526
  0
LINE
  5
2E8
100
AcDbEntity
  8
0
100
AcDbLine
 62
4
  6
CONTINUOUS
 10
226.2466072858
 20
171.9614897366
 11
226.2466072858
 21
173.5693157996
  0
LINE
  5
2E9
100
AcDbEntity
  8
0
100
AcDbLine
 62
7
  6
CONTINUOUS
 10
226.5492654508
 20
165.0176421845
 11
226.5492654508
 21
162.0176421845
  0
LINE
  5
2EA
100
AcDbEntity
  8
0
100
AcDbLine
 62
4
  6
CONTINUOUS
 10
226.6190221078
 20
173.9754925573
 11
226.6190221078
 21
171.9614897366
  0
LINE
  5
2EB
100
AcDbEntity
  8
0
100
AcDbLine
 62
4
  6
CONTINUOUS
 10
226.8939407275
 20
172.6102012165
 11
226.8939407275
 21
172.9429974404
  0
LINE
  5
2EC
100
AcDbEntity
  8
03_AXES
100
AcDbLine
 62
7
  6
CONTINUOUS
 10
223.3999899081
 20
136.5553177956
 11
223.3998840047
 21
134.969880837
  0
LINE
  5
2ED
100
AcDbEntity
  8
0
100
AcDbLine
 62
7
  6
CONTINUOUS
 10
226.3996555111
 20
134.6567008028
 11
226.3997253523
 21
134.6816231239
  0
LINE
  5
2EE
100
AcDbEntity
  8
09_ROUNDS
100
AcDbLine
 62
7
  6
CONTINUOUS
 10
228.8802768568
 20
148.1707589598
 11
228.8801515029
 21
148.2051203018
  0
LINE
  5
2EF
100
AcDbEntity
  8
0
100
AcDbLine
 62
4
  6
CONTINUOUS
 10
227.6890687655
 20
172.9429974404
 11
227.6890687655
 21
172.6102012165
  0
LINE
  5
2F0
100
AcDbEntity
  8
0
100
AcDbLine
 62
4
  6
CONTINUOUS
 10
227.9295364304
 20
173.3719118283
 11
227.9295364304
 21
173.6370119259
  0
LINE
  5
2F1
100
AcDbEntity
  8
0
100
AcDbLine
 62
7
  6
CONTINUOUS
 10
227.9492654508
 20
161.6177793526
 11
227.9492654508
 21
167.4177793526
  0
LINE
  5
2F2
100
AcDbEntity
  8
0
100
AcDbLine
 62
7
  6
CONTINUOUS
 10
228.0992654508
 20
128.0177793526
 11
228.0992654508
 21
127.5177793526
  0
LINE
  5
2F3
100
AcDbEntity
  8
0
100
AcDbLine
 62
4
  6
CONTINUOUS
 10
228.3271004493
 20
171.9614897366
 11
228.3271004493
 21
173.3719118283
  0
LINE
  5
2F4
100
AcDbEntity
  8
0
100
AcDbLine
 62
4
  6
CONTINUOUS
 10
228.7332772071
 20
173.9586115894
 11
228.7332772071
 21
171.9614897366
  0
LINE
  5
2F5
100
AcDbEntity
  8
0
100
AcDbLine
 62
7
  6
CONTINUOUS
 10
229.1492654508
 20
129.0677793526
 11
229.1492654508
 21
128.0177793526
  0
LINE
  5
2F6
100
AcDbEntity
  8
0
100
AcDbLine
 62
7
  6
CONTINUOUS
 10
229.1492654508
 20
127.5177793526
 11
229.1492654508
 21
126.4677793526
  0
LINE
  5
2F7
100
AcDbEntity
  8
0
100
AcDbLine
 62
4
  6
CONTINUOUS
 10
229.3210104968
 20
171.9614897366
 11
229.3210104968
 21
172.4014284301
  0
LINE
  5
2F8
100
AcDbEntity
  8
0
100
AcDbLine
 62
7
  6
CONTINUOUS
 10
229.6242654508
 20
169.0177793526
 11
229.6242654508
 21
158.0177793526
  0
LINE
  5
2F9
100
AcDbEntity
  8
0
100
AcDbLine
 62
7
420
5056038
  6
CONTINUOUS
 10
229.6492654508
 20
168.9177793526
 11
229.6492654508
 21
158.2177793526
  0
LINE
  5
2FA
100
AcDbEntity
  8
0
100
AcDbLine
 62
7
  6
CONTINUOUS
 10
229.6492654508
 20
126.4677793526
 11
229.6492654508
 21
127.5177793526
  0
LINE
  5
2FB
100
AcDbEntity
  8
0
100
AcDbLine
 62
7
  6
CONTINUOUS
 10
229.6492654508
 20
128.0177793526
 11
229.6492654508
 21
129.0677793526
  0
LINE
  5
2FC
100
AcDbEntity
  8
0
100
AcDbLine
 62
4
  6
CONTINUOUS
 10
229.6934253188
 20
172.4014284301
 11
229.6934253188
 21
171.9614897366
  0
LINE
  5
2FD
100
AcDbEntity
  8
0
100
AcDbLine
 62
7
  6
CONTINUOUS
 10
229.7492654508
 20
169.09792991
 11
229.7492654508
 21
157.89792991
  0
LINE
  5
2FE
100
AcDbEntity
  8
0
100
AcDbLine
 62
4
  6
CONTINUOUS
 10
229.9614537476
 20
173.3719118283
 11
229.9614537476
 21
173.6370119259
  0
LINE
  5
2FF
100
AcDbEntity
  8
0
100
AcDbLine
 62
4
  6
CONTINUOUS
 10
230.3593622761
 20
171.9614897366
 11
230.3593622761
 21
173.3719118283
  0
LINE
  5
300
100
AcDbEntity
  8
0
100
AcDbLine
 62
7
  6
CONTINUOUS
 10
230.6992654508
 20
127.5177793526
 11
230.6992654508
 21
128.0177793526
  0
LINE
  5
301
100
AcDbEntity
  8
0
100
AcDbLine
 62
7
  6
CONTINUOUS
 10
230.7492654508
 20
170.09792991
 11
230.7492654508
 21
156.89792991
  0
LINE
  5
302
100
AcDbEntity
  8
0
100
AcDbLine
 62
4
  6
CONTINUOUS
 10
230.7655390338
 20
173.9586115894
 11
230.7655390338
 21
171.9614897366
  0
LINE
  5
303
100
AcDbEntity
  8
09_ROUNDS
100
AcDbLine
 62
7
  6
CONTINUOUS
 10
230.8492654508
 20
114.6177793526
 11
230.8492654508
 21
112.0177793526
  0
LINE
  5
304
100
AcDbEntity
  8
0
100
AcDbLine
 62
7
  6
CONTINUOUS
 10
231.0492654508
 20
125.4977793526
 11
231.0492654508
 21
115.4977793526
  0
LINE
  5
305
100
AcDbEntity
  8
0
100
AcDbLine
 62
7
  6
CONTINUOUS
 10
231.1992654508
 20
114.6177793526
 11
231.1992654508
 21
121.1177793526
  0
LINE
  5
306
100
AcDbEntity
  8
0
100
AcDbLine
 62
7
  6
CONTINUOUS
 10
231.1992654508
 20
123.7177793526
 11
231.1992654508
 21
126.0177793526
  0
LINE
  5
307
100
AcDbEntity
  8
0
100
AcDbLine
 62
7
  6
CONTINUOUS
 10
228.3997252747
 20
134.6816658662
 11
228.3996554335
 21
134.6567435451
  0
LINE
  5
308
100
AcDbEntity
  8
09_ROUNDS
100
AcDbLine
 62
7
  6
CONTINUOUS
 10
228.1027371991
 20
112.7759105876
 11
228.1992654508
 21
114.6177793526
  0
LINE
  5
309
100
AcDbEntity
  8
0
100
AcDbLine
 62
7
  6
CONTINUOUS
 10
219.4992654508
 20
123.6177793526
 11
219.6392654508
 21
123.6986083902
  0
LINE
  5
30A
100
AcDbEntity
  8
10_CHAMFER
100
AcDbLine
 62
7
  6
CONTINUOUS
 10
233.1998073029
 20
148.0715851663
 11
205.5998083738
 21
148.0709953219
  0
LINE
  5
30B
100
AcDbEntity
  8
10_CHAMFER
100
AcDbLine
 62
7
  6
CONTINUOUS
 10
205.5994462404
 20
148.1702614211
 11
210.1186145454
 21
148.170358001
  0
LINE
  5
30C
100
AcDbEntity
  8
10_CHAMFER
100
AcDbLine
 62
7
  6
CONTINUOUS
 10
228.8802768568
 20
148.1707589598
 11
233.1994451695
 21
148.1708512654
  0
LINE
  5
30D
100
AcDbEntity
  8
09_ROUNDS
100
AcDbLine
 62
7
  6
CONTINUOUS
 10
233.2993155577
 20
148.2057986596
 11
228.8795870039
 21
148.2057042048
  0
LINE
  5
30E
100
AcDbEntity
  8
09_ROUNDS
100
AcDbLine
 62
7
  6
CONTINUOUS
 10
210.1190451824
 20
148.2053032701
 11
205.4993166363
 21
148.205204541
  0
LINE
  5
30F
100
AcDbEntity
  8
03_AXES
100
AcDbLine
 62
7
  6
CONTINUOUS
 10
205.1492654508
 20
148.49792991
 11
233.6492654508
 21
148.49792991
  0
LINE
  5
310
100
AcDbEntity
  8
0
100
AcDbLine
 62
4
  6
CONTINUOUS
 10
216.2777809709
 20
149.7451688463
 11
215.9766347715
 21
149.7451688463
  0
LINE
  5
311
100
AcDbEntity
  8
0
100
AcDbLine
 62
4
  6
CONTINUOUS
 10
215.3806613776
 20
149.7451688463
 11
215.0792593481
 21
149.7451688463
  0
LINE
  5
312
100
AcDbEntity
  8
0
100
AcDbLine
 62
4
  6
CONTINUOUS
 10
209.2941806534
 20
149.7451688463
 11
209.1275797947
 21
149.7451688463
  0
LINE
  5
313
100
AcDbEntity
  8
0
100
AcDbLine
 62
4
  6
CONTINUOUS
 10
220.2966424083
 20
149.7457316726
 11
219.9955814857
 21
149.7457316726
  0
LINE
  5
314
100
AcDbEntity
  8
0
100
AcDbLine
 62
4
  6
CONTINUOUS
 10
219.4572807357
 20
149.7457316726
 11
219.1568252777
 21
149.7457316726
  0
LINE
  5
315
100
AcDbEntity
  8
0
100
AcDbLine
 62
4
  6
CONTINUOUS
 10
218.6181066718
 20
149.7457316726
 11
218.3178302949
 21
149.7457316726
  0
LINE
  5
316
100
AcDbEntity
  8
0
100
AcDbLine
 62
4
  6
CONTINUOUS
 10
208.6212748689
 20
149.7457316726
 11
208.4550918662
 21
149.7457316726
  0
LINE
  5
317
100
AcDbEntity
  8
0
100
AcDbLine
 62
4
  6
CONTINUOUS
 10
206.2800836094
 20
149.7457316726
 11
205.414478027
 21
149.7457316726
  0
LINE
  5
318
100
AcDbEntity
  8
0
100
AcDbLine
 62
4
  6
CONTINUOUS
 10
204.342988866
 20
149.7457316726
 11
203.4773832836
 21
149.7457316726
  0
LINE
  5
319
100
AcDbEntity
  8
0
100
AcDbLine
 62
4
  6
CONTINUOUS
 10
203.2188498599
 20
149.7457316726
 11
202.8654205052
 21
149.7457316726
  0
LINE
  5
31A
100
AcDbEntity
  8
0
100
AcDbLine
 62
4
  6
CONTINUOUS
 10
201.7595008697
 20
149.7457316726
 11
201.4188161204
 21
149.7457316726
  0
LINE
  5
31B
100
AcDbEntity
  8
0
100
AcDbLine
 62
4
  6
CONTINUOUS
 10
203.8074510816
 20
150.0159138959
 11
204.3909101173
 21
150.0159138959
  0
LINE
  5
31C
100
AcDbEntity
  8
0
100
AcDbLine
 62
4
  6
CONTINUOUS
 10
205.7446055187
 20
150.0159138959
 11
206.3280091245
 21
150.0159138959
  0
LINE
  5
31D
100
AcDbEntity
  8
0
100
AcDbLine
 62
4
  6
CONTINUOUS
 10
214.4459773904
 20
150.1349004995
 11
214.6308487857
 21
150.1349004995
  0
LINE
  5
31E
100
AcDbEntity
  8
0
100
AcDbLine
 62
4
  6
CONTINUOUS
 10
221.626976253
 20
150.1748014755
 11
221.9118857654
 21
150.1748014755
  0
LINE
  5
31F
100
AcDbEntity
  8
0
100
AcDbLine
 62
4
  6
CONTINUOUS
 10
210.9646961147
 20
150.1960353781
 11
211.1312969734
 21
150.1960353781
  0
LINE
  5
320
100
AcDbEntity
  8
0
100
AcDbLine
 62
4
  6
CONTINUOUS
 10
212.4136200262
 20
150.1960353781
 11
212.5804170213
 21
150.1960353781
  0
LINE
  5
321
100
AcDbEntity
  8
0
100
AcDbLine
 62
4
  6
CONTINUOUS
 10
202.688313555
 20
150.2462548369
 11
201.9363008238
 21
150.2462548369
  0
LINE
  5
322
100
AcDbEntity
  8
0
100
AcDbLine
 62
4
  6
CONTINUOUS
 10
213.9342744484
 20
150.2696974065
 11
213.9287485171
 21
150.2696974065
  0
LINE
  5
323
100
AcDbEntity
  8
0
100
AcDbLine
 62
4
  6
CONTINUOUS
 10
221.9305272558
 20
150.3521599921
 11
220.9275536733
 21
150.3521599921
  0
LINE
  5
324
100
AcDbEntity
  8
0
100
AcDbLine
 62
4
  6
CONTINUOUS
 10
212.5858917866
 20
150.3837635435
 11
211.537956055
 21
150.3837635435
  0
LINE
  5
325
100
AcDbEntity
  8
0
100
AcDbLine
 62
4
  6
CONTINUOUS
 10
211.1365756022
 20
150.3837635435
 11
210.0890321435
 21
150.3837635435
  0
LINE
  5
326
100
AcDbEntity
  8
0
100
AcDbLine
 62
4
  6
CONTINUOUS
 10
207.3097189574
 20
150.3974845673
 11
207.9695475573
 21
150.3974845673
  0
LINE
  5
327
100
AcDbEntity
  8
0
100
AcDbLine
 62
4
  6
CONTINUOUS
 10
202.0260247218
 20
150.4974374076
 11
202.6011863329
 21
150.4974374076
  0
LINE
  5
328
100
AcDbEntity
  8
0
100
AcDbLine
 62
4
  6
CONTINUOUS
 10
210.0890321435
 20
150.5241204925
 11
210.9702561566
 21
150.5241204925
  0
LINE
  5
329
100
AcDbEntity
  8
0
100
AcDbLine
 62
4
  6
CONTINUOUS
 10
211.537956055
 20
150.5241204925
 11
212.4192397619
 21
150.5241204925
  0
LINE
  5
32A
100
AcDbEntity
  8
0
100
AcDbLine
 62
4
  6
CONTINUOUS
 10
207.9695475573
 20
150.550888854
 11
207.3097189574
 21
150.550888854
  0
LINE
  5
32B
100
AcDbEntity
  8
0
100
AcDbLine
 62
4
  6
CONTINUOUS
 10
220.9275536733
 20
150.550888854
 11
221.6296880526
 21
150.550888854
  0
LINE
  5
32C
100
AcDbEntity
  8
0
100
AcDbLine
 62
4
  6
CONTINUOUS
 10
206.3280091245
 20
150.6060202517
 11
205.7446055187
 21
150.6060202517
  0
LINE
  5
32D
100
AcDbEntity
  8
0
100
AcDbLine
 62
4
  6
CONTINUOUS
 10
204.3909101173
 20
150.6060202517
 11
203.8074510816
 21
150.6060202517
  0
LINE
  5
32E
100
AcDbEntity
  8
0
100
AcDbLine
 62
4
  6
CONTINUOUS
 10
209.2811034688
 20
150.7910622005
 11
209.2864119444
 21
150.7910622005
  0
LINE
  5
32F
100
AcDbEntity
  8
0
100
AcDbLine
 62
4
  6
CONTINUOUS
 10
203.8074510816
 20
150.8445221746
 11
204.3457816785
 21
150.8445221746
  0
LINE
  5
330
100
AcDbEntity
  8
0
100
AcDbLine
 62
4
  6
CONTINUOUS
 10
205.7446055187
 20
150.8445221746
 11
206.2828508388
 21
150.8445221746
  0
LINE
  5
331
100
AcDbEntity
  8
0
100
AcDbLine
 62
4
  6
CONTINUOUS
 10
218.6025180879
 20
150.9230961418
 11
218.6109775382
 21
150.9230961418
  0
LINE
  5
332
100
AcDbEntity
  8
0
100
AcDbLine
 62
4
  6
CONTINUOUS
 10
215.3806613776
 20
150.9340200893
 11
215.3859655894
 21
150.9340200893
  0
LINE
  5
333
100
AcDbEntity
  8
0
100
AcDbLine
 62
4
  6
CONTINUOUS
 10
223.1416271943
 20
150.9415670788
 11
223.0306651298
 21
150.9415670788
  0
LINE
  5
334
100
AcDbEntity
  8
0
100
AcDbLine
 62
4
  6
CONTINUOUS
 10
222.7597751098
 20
150.9415670788
 11
222.6689042399
 21
150.9415670788
  0
LINE
  5
335
100
AcDbEntity
  8
0
100
AcDbLine
 62
4
  6
CONTINUOUS
 10
208.8906768103
 20
150.9711069337
 11
208.6212748689
 21
150.9711069337
  0
LINE
  5
336
100
AcDbEntity
  8
0
100
AcDbLine
 62
4
  6
CONTINUOUS
 10
208.4550918662
 20
150.9711069337
 11
208.2227725053
 21
150.9711069337
  0
LINE
  5
337
100
AcDbEntity
  8
0
100
AcDbLine
 62
4
  6
CONTINUOUS
 10
208.2227725053
 20
151.1120267089
 11
208.4550918662
 21
151.1120267089
  0
LINE
  5
338
100
AcDbEntity
  8
0
100
AcDbLine
 62
4
  6
CONTINUOUS
 10
208.6212748689
 20
151.1120267089
 11
208.8906768103
 21
151.1120267089
  0
LINE
  5
339
100
AcDbEntity
  8
0
100
AcDbLine
 62
4
  6
CONTINUOUS
 10
209.1275797947
 20
151.1120267089
 11
209.2811034688
 21
151.1120267089
  0
LINE
  5
33A
100
AcDbEntity
  8
0
100
AcDbLine
 62
4
  6
CONTINUOUS
 10
218.3178302949
 20
151.1141500992
 11
218.6025180879
 21
151.1141500992
  0
LINE
  5
33B
100
AcDbEntity
  8
0
100
AcDbLine
 62
4
  6
CONTINUOUS
 10
206.659481018
 20
154.6589354762
 11
205.9990777453
 21
155.039941505
  0
LINE
  5
33C
100
AcDbEntity
  8
0
100
AcDbLine
 62
4
  6
CONTINUOUS
 10
223.0730476583
 20
151.0515825717
 11
223.1416271943
 21
150.9415670788
  0
LINE
  5
33D
100
AcDbEntity
  8
0
100
AcDbLine
 62
4
  6
CONTINUOUS
 10
223.0306651298
 20
150.9415670788
 11
222.9807526672
 21
151.0303486692
  0
LINE
  5
33E
100
AcDbEntity
  8
10_CHAMFER
100
AcDbLine
 62
7
  6
CONTINUOUS
 10
233.1994451695
 20
148.1708512654
 11
233.1998073029
 21
148.0715851663
  0
LINE
  5
33F
100
AcDbEntity
  8
09_ROUNDS
100
AcDbLine
 62
7
  6
CONTINUOUS
 10
233.4993198242
 20
148.0058029339
 11
233.4999326653
 21
147.8378141506
  0
LINE
  5
340
100
AcDbEntity
  8
0
100
AcDbLine
 62
7
  6
CONTINUOUS
 10
231.7966114894
 20
120.7889486468
 11
231.7966114894
 21
124.0519095199
  0
LINE
  5
341
100
AcDbEntity
  8
0
100
AcDbLine
 62
7
  6
CONTINUOUS
 10
232.0492654508
 20
124.1977793526
 11
232.0492654508
 21
120.6430788142
  0
LINE
  5
342
100
AcDbEntity
  8
0
100
AcDbLine
 62
7
  6
CONTINUOUS
 10
232.1992654508
 20
126.0177793526
 11
232.1992654508
 21
114.6177793526
  0
LINE
  5
343
100
AcDbEntity
  8
09_ROUNDS
100
AcDbLine
 62
7
  6
CONTINUOUS
 10
232.4992654508
 20
134.5009763704
 11
232.4992654508
 21
135.888220792
  0
LINE
  5
344
100
AcDbEntity
  8
09_ROUNDS
100
AcDbLine
 62
7
  6
CONTINUOUS
 10
232.8992654508
 20
112.0177793526
 11
232.8992654508
 21
113.0177793526
  0
LINE
  5
345
100
AcDbEntity
  8
0
100
AcDbLine
 62
7
  6
CONTINUOUS
 10
233.3492654508
 20
135.870108732
 11
233.3492654508
 21
135.7509763704
  0
LINE
  5
346
100
AcDbEntity
  8
03_AXES
100
AcDbLine
 62
7
  6
CONTINUOUS
 10
233.5992654508
 20
200.0009763704
 11
233.5992654508
 21
182.0009763704
  0
LINE
  5
347
100
AcDbEntity
  8
0
100
AcDbLine
 62
7
  6
CONTINUOUS
 10
233.5992654508
 20
113.0177793526
 11
233.5992654508
 21
114.6177793526
  0
LINE
  5
348
100
AcDbEntity
  8
0
100
AcDbLine
 62
7
  6
CONTINUOUS
 10
233.6492654508
 20
148.49792991
 11
233.6492654508
 21
137.8509763704
  0
LINE
  5
349
100
AcDbEntity
  8
0
100
AcDbLine
 62
4
  6
CONTINUOUS
 10
234.8469321382
 20
178.3977345322
 11
234.8469321382
 21
175.0977454498
  0
LINE
  5
34A
100
AcDbEntity
  8
09_ROUNDS
100
AcDbLine
 62
7
  6
CONTINUOUS
 10
235.5992654508
 20
112.5177793526
 11
235.5992654508
 21
201.5177793526
  0
LINE
  5
34B
100
AcDbEntity
  8
09_ROUNDS
100
AcDbLine
 62
7
  6
CONTINUOUS
 10
235.6992654508
 20
187.5009763704
 11
235.6992654508
 21
179.5009763704
  0
LINE
  5
34C
100
AcDbEntity
  8
09_ROUNDS
100
AcDbLine
 62
7
  6
CONTINUOUS
 10
235.6992654508
 20
173.5009763704
 11
235.6992654508
 21
140.5009763704
  0
LINE
  5
34D
100
AcDbEntity
  8
0
100
AcDbLine
 62
7
  6
CONTINUOUS
 10
235.7492654508
 20
172.0009763704
 11
235.7492654508
 21
166.0009763704
  0
LINE
  5
34E
100
AcDbEntity
  8
09_ROUNDS
100
AcDbLine
 62
7
  6
CONTINUOUS
 10
232.2999338683
 20
136.3884931412
 11
232.299658087
 21
134.8571136331
  0
LINE
  5
34F
100
AcDbEntity
  8
09_ROUNDS
100
AcDbLine
 62
7
  6
CONTINUOUS
 10
233.4999326653
 20
147.8378141506
 11
233.4996710406
 21
136.0657302851
  0
LINE
  5
350
100
AcDbEntity
  8
03_AXES
100
AcDbLine
 62
7
  6
CONTINUOUS
 10
232.8997249783
 20
135.8882293503
 11
232.8996551372
 21
135.8632997421
  0
LINE
  5
351
100
AcDbEntity
  8
09_ROUNDS
100
AcDbLine
 62
7
  6
CONTINUOUS
 10
232.299658087
 20
134.8571136331
 11
232.2996676056
 21
134.8584490431
  0
LINE
  5
352
100
AcDbEntity
  8
09_ROUNDS
100
AcDbLine
 62
7
  6
CONTINUOUS
 10
233.4996710406
 20
136.0657302851
 11
233.4996503316
 21
136.0633122816
  0
LINE
  5
353
100
AcDbEntity
  8
0
100
AcDbLine
 62
7
  6
CONTINUOUS
 10
233.5392091143
 20
135.7509763704
 11
233.6492654508
 21
137.8509763704
  0
LINE
  5
354
100
AcDbEntity
  8
0
100
AcDbLine
 62
7
  6
CONTINUOUS
 10
225.3392654508
 20
123.6204290834
 11
225.3492654508
 21
123.6262025861
  0
LINE
  5
355
100
AcDbEntity
  8
0
100
AcDbLine
 62
7
  6
CONTINUOUS
 10
232.1992654508
 20
124.2951296218
 11
231.1992654508
 21
123.7177793526
  0
LINE
  5
356
100
AcDbEntity
  8
0
100
AcDbLine
 62
7
  6
CONTINUOUS
 10
231.0492654508
 20
123.6204290834
 11
232.0492654508
 21
124.1977793526
  0
LINE
  5
357
100
AcDbEntity
  8
0
100
AcDbLine
 62
4
  6
CONTINUOUS
 10
214.1687513102
 20
151.1802054444
 11
214.3534606798
 21
151.1802054444
  0
LINE
  5
358
100
AcDbEntity
  8
0
100
AcDbLine
 62
4
  6
CONTINUOUS
 10
222.8129792537
 20
151.1805380236
 11
222.7597751098
 21
151.1805380236
  0
LINE
  5
359
100
AcDbEntity
  8
0
100
AcDbLine
 62
4
  6
CONTINUOUS
 10
222.7597751098
 20
151.2581654193
 11
222.8700123222
 21
151.2581654193
  0
LINE
  5
35A
100
AcDbEntity
  8
0
100
AcDbLine
 62
4
  6
CONTINUOUS
 10
202.318707207
 20
151.3101159955
 11
202.3109384981
 21
151.3101159955
  0
LINE
  5
35B
100
AcDbEntity
  8
0
100
AcDbLine
 62
4
  6
CONTINUOUS
 10
206.2828508388
 20
151.3658102195
 11
205.7446055187
 21
151.3658102195
  0
LINE
  5
35C
100
AcDbEntity
  8
0
100
AcDbLine
 62
4
  6
CONTINUOUS
 10
204.3457816785
 20
151.3658102195
 11
203.8074510816
 21
151.3658102195
  0
LINE
  5
35D
100
AcDbEntity
  8
0
100
AcDbLine
 62
4
  6
CONTINUOUS
 10
222.8628917163
 20
151.4280622231
 11
222.7597751098
 21
151.4280622231
  0
LINE
  5
35E
100
AcDbEntity
  8
0
100
AcDbLine
 62
4
  6
CONTINUOUS
 10
222.6689042399
 20
151.5042654977
 11
222.8621924472
 21
151.5042654977
  0
LINE
  5
35F
100
AcDbEntity
  8
0
100
AcDbLine
 62
4
  6
CONTINUOUS
 10
202.1419072529
 20
151.6360777195
 11
202.493379507
 21
151.6360777195
  0
LINE
  5
360
100
AcDbEntity
  8
0
100
AcDbLine
 62
4
  6
CONTINUOUS
 10
203.4773832836
 20
151.6360777195
 11
204.3934513635
 21
151.6360777195
  0
LINE
  5
361
100
AcDbEntity
  8
0
100
AcDbLine
 62
4
  6
CONTINUOUS
 10
205.414478027
 20
151.6360777195
 11
206.3306910772
 21
151.6360777195
  0
LINE
  5
362
100
AcDbEntity
  8
0
100
AcDbLine
 62
4
  6
CONTINUOUS
 10
215.0792593481
 20
151.6360777195
 11
215.3806613776
 21
151.6360777195
  0
LINE
  5
363
100
AcDbEntity
  8
0
100
AcDbLine
 62
4
  6
CONTINUOUS
 10
205.2878808461
 20
153.7191349596
 11
203.9924818799
 21
153.7191349596
  0
LINE
  5
364
100
AcDbEntity
  8
0
100
AcDbLine
 62
4
  6
CONTINUOUS
 10
205.9228765396
 20
154.6589354762
 11
202.1382776602
 21
154.6589354762
  0
LINE
  5
365
100
AcDbEntity
  8
0
100
AcDbLine
 62
7
  6
CONTINUOUS
 10
219.1492654508
 20
161.6177793526
 11
221.1492654508
 21
159.6177793526
  0
LINE
  5
366
100
AcDbEntity
  8
09_ROUNDS
100
AcDbLine
 62
7
  6
CONTINUOUS
 10
228.8801515029
 20
148.2051203018
 11
228.879619296
 21
148.2057381446
  0
LINE
  5
367
100
AcDbEntity
  8
0
100
AcDbLine
 62
4
  6
CONTINUOUS
 10
213.2885696371
 20
171.9640735582
 11
214.0940329616
 21
170.6645835412
  0
LINE
  5
368
100
AcDbEntity
  8
0
100
AcDbLine
 62
4
  6
CONTINUOUS
 10
214.0668167073
 20
170.200012415
 11
213.2637649496
 21
171.4970908652
  0
LINE
  5
369
100
AcDbEntity
  8
10_CHAMFER
100
AcDbLine
 62
7
  6
CONTINUOUS
 10
228.919645682
 20
148.0714936942
 11
228.8802768568
 21
148.1707589598
  0
LINE
  5
36A
100
AcDbEntity
  8
0
100
AcDbLine
 62
4
  6
CONTINUOUS
 10
225.5668899466
 20
171.9614897366
 11
225.2086000161
 21
173.5693157996
  0
LINE
  5
36B
100
AcDbEntity
  8
0
100
AcDbLine
 62
4
  6
CONTINUOUS
 10
225.4342537704
 20
173.9754925573
 11
225.7219192434
 21
172.5538739053
  0
LINE
  5
36C
100
AcDbEntity
  8
0
100
AcDbLine
 62
4
  6
CONTINUOUS
 10
204.2718791238
 20
155.6495403852
 11
203.2304805882
 21
155.6495403852
  0
LINE
  5
36D
100
AcDbEntity
  8
0
100
AcDbLine
 62
7
  6
CONTINUOUS
 10
216.3492654508
 20
156.89792991
 11
230.7492654508
 21
156.89792991
  0
LINE
  5
36E
100
AcDbEntity
  8
0
100
AcDbLine
 62
7
  6
CONTINUOUS
 10
229.7492654508
 20
157.89792991
 11
217.3492654508
 21
157.89792991
  0
LINE
  5
36F
100
AcDbEntity
  8
0
100
AcDbLine
 62
7
  6
CONTINUOUS
 10
229.6242654508
 20
158.0177793526
 11
217.4742654508
 21
158.0177793526
  0
LINE
  5
370
100
AcDbEntity
  8
0
100
AcDbLine
 62
7
420
5056038
  6
CONTINUOUS
 10
229.6492654508
 20
158.2177793526
 11
229.6242654508
 21
158.2177793526
  0
LINE
  5
371
100
AcDbEntity
  8
0
100
AcDbLine
 62
7
420
5056038
  6
CONTINUOUS
 10
217.4742654508
 20
158.2177793526
 11
217.4492654508
 21
158.2177793526
  0
LINE
  5
372
100
AcDbEntity
  8
0
100
AcDbLine
 62
4
  6
CONTINUOUS
 10
213.9183330918
 20
158.2350235399
 11
213.6416919244
 21
158.2350235399
  0
LINE
  5
373
100
AcDbEntity
  8
0
100
AcDbLine
 62
4
  6
CONTINUOUS
 10
211.9081198762
 20
158.2350235399
 11
211.0978334181
 21
158.2350235399
  0
LINE
  5
374
100
AcDbEntity
  8
0
100
AcDbLine
 62
4
  6
CONTINUOUS
 10
213.6416919244
 20
158.4131349765
 11
213.6368687907
 21
158.4131349765
  0
LINE
  5
375
100
AcDbEntity
  8
0
100
AcDbLine
 62
4
  6
CONTINUOUS
 10
211.4068584831
 20
158.4868600199
 11
211.9529061175
 21
158.4868600199
  0
LINE
  5
376
100
AcDbEntity
  8
0
100
AcDbLine
 62
4
  6
CONTINUOUS
 10
214.1450203748
 20
158.6453344122
 11
214.4268291855
 21
158.6453344122
  0
LINE
  5
377
100
AcDbEntity
  8
0
100
AcDbLine
 62
4
  6
CONTINUOUS
 10
211.9529061175
 20
159.0380752976
 11
211.4068584831
 21
159.0380752976
  0
LINE
  5
378
100
AcDbEntity
  8
0
100
AcDbLine
 62
4
  6
CONTINUOUS
 10
215.23987172
 20
159.1541750154
 11
214.9456605655
 21
159.1541750154
  0
LINE
  5
379
100
AcDbEntity
  8
0
100
AcDbLine
 62
4
  6
CONTINUOUS
 10
211.4068584831
 20
159.2604562111
 11
211.9108759526
 21
159.2604562111
  0
LINE
  5
37A
100
AcDbEntity
  8
0
100
AcDbLine
 62
4
  6
CONTINUOUS
 10
212.7966100018
 20
159.5124649459
 11
213.0784188125
 21
159.5124649459
  0
LINE
  5
37B
100
AcDbEntity
  8
0
100
AcDbLine
 62
4
  6
CONTINUOUS
 10
213.6368687907
 20
159.5124649459
 11
213.9183330918
 21
159.5124649459
  0
LINE
  5
37C
100
AcDbEntity
  8
0
100
AcDbLine
 62
7
  6
CONTINUOUS
 10
221.1492654508
 20
159.6177793526
 11
225.9492654508
 21
159.6177793526
  0
LINE
  5
37D
100
AcDbEntity
  8
0
100
AcDbLine
 62
4
  6
CONTINUOUS
 10
211.9108759526
 20
159.7470759484
 11
211.4068584831
 21
159.7470759484
  0
LINE
  5
37E
100
AcDbEntity
  8
0
100
AcDbLine
 62
4
  6
CONTINUOUS
 10
211.0978334181
 20
159.9990846832
 11
211.9553176843
 21
159.9990846832
  0
LINE
  5
37F
100
AcDbEntity
  8
0
100
AcDbLine
 62
7
  6
CONTINUOUS
 10
226.5492654508
 20
162.0176421845
 11
220.5492654508
 21
162.0176421845
  0
LINE
  5
380
100
AcDbEntity
  8
0
100
AcDbLine
 62
2
  6
CONTINUOUS
 10
229.6242654508
 20
162.1177793526
 11
229.7492654508
 21
162.1177793526
  0
LINE
  5
381
100
AcDbEntity
  8
0
100
AcDbLine
 62
7
420
5056038
  6
CONTINUOUS
 10
229.6242654508
 20
163.8427793526
 11
229.7492654508
 21
163.8427793526
  0
LINE
  5
382
100
AcDbEntity
  8
0
100
AcDbLine
 62
4
  6
CONTINUOUS
 10
215.2912036427
 20
164.2000341179
 11
214.4809171846
 21
164.2000341179
  0
LINE
  5
383
100
AcDbEntity
  8
0
100
AcDbLine
 62
4
  6
CONTINUOUS
 10
214.7899422496
 20
164.4520428526
 11
215.335989884
 21
164.4520428526
  0
LINE
  5
384
100
AcDbEntity
  8
0
100
AcDbLine
 62
4
  6
CONTINUOUS
 10
212.7745613907
 20
164.7881119172
 11
213.0832419462
 21
164.7881119172
  0
LINE
  5
385
100
AcDbEntity
  8
0
100
AcDbLine
 62
7
420
5056038
  6
CONTINUOUS
 10
229.7492654508
 20
164.9677793526
 11
229.6492654508
 21
164.9677793526
  0
LINE
  5
386
100
AcDbEntity
  8
0
100
AcDbLine
 62
4
  6
CONTINUOUS
 10
215.335989884
 20
165.0030858755
 11
214.7899422496
 21
165.0030858755
  0
LINE
  5
387
100
AcDbEntity
  8
0
100
AcDbLine
 62
7
  6
CONTINUOUS
 10
220.5492654508
 20
165.0176421845
 11
226.5492654508
 21
165.0176421845
  0
LINE
  5
388
100
AcDbEntity
  8
0
100
AcDbLine
 62
4
  6
CONTINUOUS
 10
214.7899422496
 20
165.2254667891
 11
215.2939597191
 21
165.2254667891
  0
LINE
  5
389
100
AcDbEntity
  8
0
100
AcDbLine
 62
4
  6
CONTINUOUS
 10
214.1629348713
 20
165.4428523142
 11
213.8542543158
 21
165.4428523142
  0
LWPOLYLINE
  5
38A
100
AcDbEntity
  8
0
100
AcDbPolyline
 62
7
420
8405056
  6
CONTINUOUS
 90
2
 70
0
 43
0.105
 10
229.7492654508
 20
165.5677793526
 10
229.6242654508
 20
165.5677793526
  0
LINE
  5
38B
100
AcDbEntity
  8
0
100
AcDbLine
 62
4
  6
CONTINUOUS
 10
215.2939597191
 20
165.7120865264
 11
214.7899422496
 21
165.7120865264
  0
LINE
  5
38C
100
AcDbEntity
  8
0
100
AcDbLine
 62
4
  6
CONTINUOUS
 10
211.0781963738
 20
165.9640952611
 11
211.3868769293
 21
165.9640952611
  0
LINE
  5
38D
100
AcDbEntity
  8
0
100
AcDbLine
 62
4
  6
CONTINUOUS
 10
212.2171449412
 20
165.9640952611
 11
212.5258254967
 21
165.9640952611
  0
LINE
  5
38E
100
AcDbEntity
  8
0
100
AcDbLine
 62
4
  6
CONTINUOUS
 10
214.4809171846
 20
165.9640952611
 11
215.3384014509
 21
165.9640952611
  0
LINE
  5
38F
100
AcDbEntity
  8
0
100
AcDbLine
 62
7
  6
CONTINUOUS
 10
235.6992654508
 20
166.0009763704
 11
235.7492654508
 21
166.0009763704
  0
LINE
  5
390
100
AcDbEntity
  8
0
100
AcDbLine
 62
7
420
5056038
  6
CONTINUOUS
 10
229.6492654508
 20
166.1677793526
 11
229.7492654508
 21
166.1677793526
  0
LINE
  5
391
100
AcDbEntity
  8
0
100
AcDbLine
 62
7
420
5056038
  6
CONTINUOUS
 10
229.7492654508
 20
166.6177793526
 11
229.6492654508
 21
166.6177793526
  0
LWPOLYLINE
  5
392
100
AcDbEntity
  8
0
100
AcDbPolyline
 62
7
420
8405056
  6
CONTINUOUS
 90
2
 70
0
 43
0.105
 10
229.6242654508
 20
167.2177793526
 10
229.7492654508
 20
167.2177793526
  0
LINE
  5
393
100
AcDbEntity
  8
0
100
AcDbLine
 62
7
  6
CONTINUOUS
 10
227.9492654508
 20
167.4177793526
 11
219.1492654508
 21
167.4177793526
  0
LINE
  5
394
100
AcDbEntity
  8
0
100
AcDbLine
 62
7
420
5056038
  6
CONTINUOUS
 10
229.6492654508
 20
167.8177793526
 11
229.7492654508
 21
167.8177793526
  0
LINE
  5
395
100
AcDbEntity
  8
0
100
AcDbLine
 62
7
420
5056038
  6
CONTINUOUS
 10
229.7492654508
 20
168.9177793526
 11
229.6242654508
 21
168.9177793526
  0
LINE
  5
396
100
AcDbEntity
  8
0
100
AcDbLine
 62
7
420
5056038
  6
CONTINUOUS
 10
217.4742654508
 20
168.9177793526
 11
217.3492654508
 21
168.9177793526
  0
LINE
  5
397
100
AcDbEntity
  8
0
100
AcDbLine
 62
7
  6
CONTINUOUS
 10
229.7492654508
 20
169.0177793526
 11
217.3492654508
 21
169.0177793526
  0
LINE
  5
398
100
AcDbEntity
  8
0
100
AcDbLine
 62
7
  6
CONTINUOUS
 10
217.3492654508
 20
169.09792991
 11
229.7492654508
 21
169.09792991
  0
LINE
  5
399
100
AcDbEntity
  8
0
100
AcDbLine
 62
7
  6
CONTINUOUS
 10
216.3492654508
 20
170.09792991
 11
230.7492654508
 21
170.09792991
  0
LINE
  5
39A
100
AcDbEntity
  8
0
100
AcDbLine
 62
4
  6
CONTINUOUS
 10
214.3930672497
 20
170.200012415
 11
214.0668167073
 21
170.200012415
  0
LINE
  5
39B
100
AcDbEntity
  8
0
100
AcDbLine
 62
4
  6
CONTINUOUS
 10
213.2565302491
 20
170.200012415
 11
212.9623190947
 21
170.200012415
  0
LINE
  5
39C
100
AcDbEntity
  8
0
100
AcDbLine
 62
4
  6
CONTINUOUS
 10
214.0940329616
 20
170.6645835412
 11
214.0988560953
 21
170.6645835412
  0
LINE
  5
39D
100
AcDbEntity
  8
0
100
AcDbLine
 62
4
  6
CONTINUOUS
 10
213.2637649496
 20
171.4970908652
 11
213.2565302491
 21
171.4970908652
  0
LINE
  5
39E
100
AcDbEntity
  8
0
100
AcDbLine
 62
4
  6
CONTINUOUS
 10
230.7655390338
 20
171.9614897366
 11
230.3593622761
 21
171.9614897366
  0
LINE
  5
39F
100
AcDbEntity
  8
0
100
AcDbLine
 62
4
  6
CONTINUOUS
 10
229.6934253188
 20
171.9614897366
 11
229.3210104968
 21
171.9614897366
  0
LINE
  5
3A0
100
AcDbEntity
  8
0
100
AcDbLine
 62
4
  6
CONTINUOUS
 10
228.7332772071
 20
171.9614897366
 11
228.3271004493
 21
171.9614897366
  0
LINE
  5
3A1
100
AcDbEntity
  8
0
100
AcDbLine
 62
4
  6
CONTINUOUS
 10
226.6190221078
 20
171.9614897366
 11
226.2466072858
 21
171.9614897366
  0
LINE
  5
3A2
100
AcDbEntity
  8
0
100
AcDbLine
 62
4
  6
CONTINUOUS
 10
225.8828052026
 20
171.9614897366
 11
225.5668899466
 21
171.9614897366
  0
LINE
  5
3A3
100
AcDbEntity
  8
0
100
AcDbLine
 62
4
  6
CONTINUOUS
 10
225.2030878633
 20
171.9614897366
 11
224.8306730414
 21
171.9614897366
  0
LINE
  5
3A4
100
AcDbEntity
  8
0
100
AcDbLine
 62
4
  6
CONTINUOUS
 10
222.8945293787
 20
171.9614897366
 11
222.2089553771
 21
171.9614897366
  0
LINE
  5
3A5
100
AcDbEntity
  8
0
100
AcDbLine
 62
4
  6
CONTINUOUS
 10
212.9623190947
 20
171.9640735582
 11
213.2885696371
 21
171.9640735582
  0
LINE
  5
3A6
100
AcDbEntity
  8
0
100
AcDbLine
 62
4
  6
CONTINUOUS
 10
214.0988560953
 20
171.9640735582
 11
214.3930672497
 21
171.9640735582
  0
LINE
  5
3A7
100
AcDbEntity
  8
0
100
AcDbLine
 62
7
  6
CONTINUOUS
 10
235.6992654508
 20
172.0009763704
 11
235.7492654508
 21
172.0009763704
  0
LINE
  5
3A8
100
AcDbEntity
  8
0
100
AcDbLine
 62
4
  6
CONTINUOUS
 10
222.6151321348
 20
172.2605240247
 11
222.7732620176
 21
172.2605240247
  0
LINE
  5
3A9
100
AcDbEntity
  8
0
100
AcDbLine
 62
4
  6
CONTINUOUS
 10
229.3210104968
 20
172.4014284301
 11
229.6934253188
 21
172.4014284301
  0
LINE
  5
3AA
100
AcDbEntity
  8
0
100
AcDbLine
 62
4
  6
CONTINUOUS
 10
225.7219192434
 20
172.5538739053
 11
225.7277759057
 21
172.5538739053
  0
LINE
  5
3AB
100
AcDbEntity
  8
0
100
AcDbLine
 62
4
  6
CONTINUOUS
 10
220.6652080902
 20
172.5905641722
 11
221.0713848479
 21
172.5905641722
  0
LINE
  5
3AC
100
AcDbEntity
  8
0
100
AcDbLine
 62
4
  6
CONTINUOUS
 10
227.6890687655
 20
172.6102012165
 11
226.8939407275
 21
172.6102012165
  0
LINE
  5
3AD
100
AcDbEntity
  8
0
100
AcDbLine
 62
4
  6
CONTINUOUS
 10
224.5564434407
 20
172.6102012165
 11
223.7613154027
 21
172.6102012165
  0
LINE
  5
3AE
100
AcDbEntity
  8
0
100
AcDbLine
 62
4
  6
CONTINUOUS
 10
222.7901429855
 20
172.8668608301
 11
222.6151321348
 21
172.8668608301
  0
LINE
  5
3AF
100
AcDbEntity
  8
0
100
AcDbLine
 62
4
  6
CONTINUOUS
 10
223.7613154027
 20
172.9429974404
 11
224.5564434407
 21
172.9429974404
  0
LINE
  5
3B0
100
AcDbEntity
  8
0
100
AcDbLine
 62
4
  6
CONTINUOUS
 10
226.8939407275
 20
172.9429974404
 11
227.6890687655
 21
172.9429974404
  0
LINE
  5
3B1
100
AcDbEntity
  8
0
100
AcDbLine
 62
4
  6
CONTINUOUS
 10
222.6151321348
 20
173.1490141504
 11
222.7308873431
 21
173.1490141504
  0
LINE
  5
3B2
100
AcDbEntity
  8
0
100
AcDbLine
 62
4
  6
CONTINUOUS
 10
230.3593622761
 20
173.3719118283
 11
229.9614537476
 21
173.3719118283
  0
LINE
  5
3B3
100
AcDbEntity
  8
0
100
AcDbLine
 62
4
  6
CONTINUOUS
 10
228.3271004493
 20
173.3719118283
 11
227.9295364304
 21
173.3719118283
  0
LINE
  5
3B4
100
AcDbEntity
  8
0
100
AcDbLine
 62
4
  6
CONTINUOUS
 10
221.9402379292
 20
173.4170425791
 11
221.5509421394
 21
173.4170425791
  0
LINE
  5
3B5
100
AcDbEntity
  8
09_ROUNDS
100
AcDbLine
 62
7
  6
CONTINUOUS
 10
235.6992654508
 20
173.5009763704
 11
235.5992654508
 21
173.5009763704
  0
LINE
  5
3B6
100
AcDbEntity
  8
0
100
AcDbLine
 62
4
  6
CONTINUOUS
 10
226.2466072858
 20
173.5693157996
 11
226.241095133
 21
173.5693157996
  0
LINE
  5
3B7
100
AcDbEntity
  8
0
100
AcDbLine
 62
4
  6
CONTINUOUS
 10
225.2086000161
 20
173.5693157996
 11
225.2030878633
 21
173.5693157996
  0
LINE
  5
3B8
100
AcDbEntity
  8
0
100
AcDbLine
 62
4
  6
CONTINUOUS
 10
221.3084074172
 20
173.2082697927
 11
221.6212220873
 21
173.0728775401
  0
LINE
  5
3B9
100
AcDbEntity
  8
0
100
AcDbLine
 62
4
  6
CONTINUOUS
 10
227.9295364304
 20
173.6370119259
 11
227.9660544425
 21
173.6370119259
  0
LINE
  5
3BA
100
AcDbEntity
  8
0
100
AcDbLine
 62
4
  6
CONTINUOUS
 10
229.9614537476
 20
173.6370119259
 11
229.9983162692
 21
173.6370119259
  0
LINE
  5
3BB
100
AcDbEntity
  8
0
100
AcDbLine
 62
4
  6
CONTINUOUS
 10
222.7618932025
 20
173.6764582692
 11
222.6151321348
 21
173.6764582692
  0
LINE
  5
3BC
100
AcDbEntity
  8
0
100
AcDbLine
 62
4
  6
CONTINUOUS
 10
228.4345874285
 20
173.9586115894
 11
228.7332772071
 21
173.9586115894
  0
LINE
  5
3BD
100
AcDbEntity
  8
0
100
AcDbLine
 62
4
  6
CONTINUOUS
 10
230.4665047457
 20
173.9586115894
 11
230.7655390338
 21
173.9586115894
  0
LINE
  5
3BE
100
AcDbEntity
  8
0
100
AcDbLine
 62
4
  6
CONTINUOUS
 10
219.2003534898
 20
173.9754925573
 11
219.6065302475
 21
173.9754925573
  0
LINE
  5
3BF
100
AcDbEntity
  8
0
100
AcDbLine
 62
4
  6
CONTINUOUS
 10
220.0805753863
 20
173.9754925573
 11
220.486752144
 21
173.9754925573
  0
LINE
  5
3C0
100
AcDbEntity
  8
0
100
AcDbLine
 62
4
  6
CONTINUOUS
 10
222.2089553771
 20
173.9754925573
 11
222.8886727163
 21
173.9754925573
  0
LINE
  5
3C1
100
AcDbEntity
  8
0
100
AcDbLine
 62
4
  6
CONTINUOUS
 10
224.8306730414
 20
173.9754925573
 11
225.4342537704
 21
173.9754925573
  0
LINE
  5
3C2
100
AcDbEntity
  8
0
100
AcDbLine
 62
4
  6
CONTINUOUS
 10
226.0181974551
 20
173.9754925573
 11
226.6190221078
 21
173.9754925573
  0
LINE
  5
3C3
100
AcDbEntity
  8
0
100
AcDbLine
 62
4
  6
CONTINUOUS
 10
234.8469321382
 20
175.0977454498
 11
200.3469320419
 21
175.0977454498
  0
LINE
  5
3C4
100
AcDbEntity
  8
0
100
AcDbLine
 62
4
  6
CONTINUOUS
 10
206.4788370286
 20
175.5661637712
 11
205.838122045
 21
175.5661637712
  0
LINE
  5
3C5
100
AcDbEntity
  8
0
100
AcDbLine
 62
4
  6
CONTINUOUS
 10
204.5917229101
 20
175.5661637712
 11
203.9511137598
 21
175.5661637712
  0
LINE
  5
3C6
100
AcDbEntity
  8
0
100
AcDbLine
 62
4
  6
CONTINUOUS
 10
202.0238888089
 20
175.5750537709
 11
201.4394066016
 21
175.5750537709
  0
LINE
  5
3C7
100
AcDbEntity
  8
0
100
AcDbLine
 62
4
  6
CONTINUOUS
 10
203.1856918349
 20
175.5750537709
 11
203.7703151533
 21
175.5750537709
  0
LINE
  5
3C8
100
AcDbEntity
  8
0
100
AcDbLine
 62
4
  6
CONTINUOUS
 10
202.527620185
 20
176.0309484815
 11
202.1931163046
 21
176.0309484815
  0
LINE
  5
3C9
100
AcDbEntity
  8
0
100
AcDbLine
 62
4
  6
CONTINUOUS
 10
202.6820310144
 20
176.0309484815
 11
203.0166407281
 21
176.0309484815
  0
LINE
  5
3CA
100
AcDbEntity
  8
0
100
AcDbLine
 62
4
  6
CONTINUOUS
 10
207.3832181167
 20
176.6706404096
 11
206.633247858
 21
176.6706404096
  0
LINE
  5
3CB
100
AcDbEntity
  8
0
100
AcDbLine
 62
4
  6
CONTINUOUS
 10
205.4961039981
 20
176.6706404096
 11
204.7461337395
 21
176.6706404096
  0
LINE
  5
3CC
100
AcDbEntity
  8
0
100
AcDbLine
 62
4
  6
CONTINUOUS
 10
203.3953476628
 20
176.6706404096
 11
202.685735181
 21
176.6706404096
  0
LINE
  5
3CD
100
AcDbEntity
  8
0
100
AcDbLine
 62
4
  6
CONTINUOUS
 10
201.8144446476
 20
176.6706404096
 11
202.5238807406
 21
176.6706404096
  0
LINE
  5
3CE
100
AcDbEntity
  8
0
100
AcDbLine
 62
4
  6
CONTINUOUS
 10
203.9511137598
 20
176.6706404096
 11
204.5917229101
 21
176.6706404096
  0
LINE
  5
3CF
100
AcDbEntity
  8
0
100
AcDbLine
 62
4
  6
CONTINUOUS
 10
205.838122045
 20
176.6706404096
 11
206.4788370286
 21
176.6706404096
  0
LINE
  5
3D0
100
AcDbEntity
  8
0
100
AcDbLine
 62
4
  6
CONTINUOUS
 10
206.4788370286
 20
176.825051239
 11
205.838122045
 21
176.825051239
  0
LINE
  5
3D1
100
AcDbEntity
  8
0
100
AcDbLine
 62
4
  6
CONTINUOUS
 10
204.5917229101
 20
176.825051239
 11
203.9511137598
 21
176.825051239
  0
LINE
  5
3D2
100
AcDbEntity
  8
0
100
AcDbLine
 62
4
  6
CONTINUOUS
 10
202.527620185
 20
176.825051239
 11
201.8548377021
 21
176.825051239
  0
LINE
  5
3D3
100
AcDbEntity
  8
0
100
AcDbLine
 62
4
  6
CONTINUOUS
 10
202.6820310144
 20
176.825051239
 11
203.3548134972
 21
176.825051239
  0
LINE
  5
3D4
100
AcDbEntity
  8
0
100
AcDbLine
 62
4
  6
CONTINUOUS
 10
202.9780468402
 20
177.9279403776
 11
202.6820310144
 21
177.9279403776
  0
LINE
  5
3D5
100
AcDbEntity
  8
0
100
AcDbLine
 62
4
  6
CONTINUOUS
 10
202.231639637
 20
177.9279403776
 11
202.527620185
 21
177.9279403776
  0
LINE
  5
3D6
100
AcDbEntity
  8
0
100
AcDbLine
 62
4
  6
CONTINUOUS
 10
203.9511137598
 20
177.9295631553
 11
204.5917229101
 21
177.9295631553
  0
LINE
  5
3D7
100
AcDbEntity
  8
0
100
AcDbLine
 62
4
  6
CONTINUOUS
 10
205.838122045
 20
177.9295631553
 11
206.4788370286
 21
177.9295631553
  0
LINE
  5
3D8
100
AcDbEntity
  8
0
100
AcDbLine
 62
4
  6
CONTINUOUS
 10
206.8206786866
 20
177.9353487107
 11
206.633247858
 21
177.9353487107
  0
LINE
  5
3D9
100
AcDbEntity
  8
0
100
AcDbLine
 62
4
  6
CONTINUOUS
 10
204.9336351236
 20
177.9353487107
 11
204.7461337395
 21
177.9353487107
  0
LINE
  5
3DA
100
AcDbEntity
  8
0
100
AcDbLine
 62
4
  6
CONTINUOUS
 10
204.7498379061
 20
176.8286495723
 11
205.3969459296
 21
176.825051239
  0
LINE
  5
3DB
100
AcDbEntity
  8
0
100
AcDbLine
 62
4
  6
CONTINUOUS
 10
206.6368461913
 20
176.8286495723
 11
207.2839542624
 21
176.825051239
  0
LINE
  5
3DC
100
AcDbEntity
  8
0
100
AcDbLine
 62
4
  6
CONTINUOUS
 10
200.3469320419
 20
178.3977345322
 11
234.8469321382
 21
178.3977345322
  0
LINE
  5
3DD
100
AcDbEntity
  8
09_ROUNDS
100
AcDbLine
 62
7
  6
CONTINUOUS
 10
235.6992654508
 20
179.5009763704
 11
235.5992654508
 21
179.5009763704
  0
LINE
  5
3DE
100
AcDbEntity
  8
09_ROUNDS
100
AcDbLine
 62
7
  6
CONTINUOUS
 10
235.0992654508
 20
179.5009763704
 11
200.0992654508
 21
179.5009763704
  0
LINE
  5
3DF
100
AcDbEntity
  8
03_AXES
100
AcDbLine
 62
7
  6
CONTINUOUS
 10
200.0992654508
 20
182.0009763704
 11
235.0992654508
 21
182.0009763704
  0
LINE
  5
3E0
100
AcDbEntity
  8
09_ROUNDS
100
AcDbLine
 62
7
  6
CONTINUOUS
 10
235.6992654508
 20
187.5009763704
 11
235.5992654508
 21
187.5009763704
  0
LINE
  5
3E1
100
AcDbEntity
  8
03_AXES
100
AcDbLine
 62
7
  6
CONTINUOUS
 10
201.5992654508
 20
200.0009763704
 11
233.5992654508
 21
200.0009763704
  0
LINE
  5
3E2
100
AcDbEntity
  8
09_ROUNDS
100
AcDbLine
 62
7
  6
CONTINUOUS
 10
235.0992654508
 20
202.0177793526
 11
200.0992654508
 21
202.0177793526
  0
ARC
  5
3E3
100
AcDbEntity
  8
03_AXES
100
AcDbCircle
 62
7
  6
CONTINUOUS
 10
206.1995448214
 20
137.1856348885
 40
1.25
100
AcDbArc
 50
218.6563575844
 51
223.9467451445
  0
ARC
  5
3E4
100
AcDbEntity
  8
03_AXES
100
AcDbCircle
 62
7
  6
CONTINUOUS
 10
206.1995448214
 20
137.1856348885
 40
1.25
100
AcDbArc
 50
136.0557038115
 51
147.3325838729
  0
ARC
  5
3E5
100
AcDbEntity
  8
09_ROUNDS
100
AcDbCircle
 62
7
  6
CONTINUOUS
 10
200.0992654508
 20
135.0009763704
 40
0.5
100
AcDbArc
 50
180.0
 51
270.0
  0
ARC
  5
3E6
100
AcDbEntity
  8
09_ROUNDS
100
AcDbCircle
 62
7
  6
CONTINUOUS
 10
200.0992654508
 20
112.5177793526
 40
0.5
100
AcDbArc
 50
180.0
 51
270.0
  0
CIRCLE
  5
3E7
100
AcDbEntity
  8
0
100
AcDbCircle
 62
4
  6
CONTINUOUS
 10
201.8829525782
 20
154.6715077457
 40
0.4233916884
  0
ARC
  5
3E8
100
AcDbEntity
  8
0
100
AcDbCircle
 62
4
  6
CONTINUOUS
 10
204.2967458042
 20
155.6196145813
 40
0.4233837617
100
AcDbArc
 50
270.004723251
 51
89.9952765516
  0
CIRCLE
  5
3E9
100
AcDbEntity
  8
0
100
AcDbCircle
 62
4
  6
CONTINUOUS
 10
205.226327687
 20
153.6792862574
 40
0.4233755954
  0
ARC
  5
3EA
100
AcDbEntity
  8
09_ROUNDS
100
AcDbCircle
 62
7
  6
CONTINUOUS
 10
206.7016313488
 20
134.8564440593
 40
0.2019722955
100
AcDbArc
 50
179.9664695446
 51
191.9724675989
  0
ARC
  5
3EB
100
AcDbEntity
  8
09_ROUNDS
100
AcDbCircle
 62
7
  6
CONTINUOUS
 10
205.4993209114
 20
148.0052045403
 40
0.2000000008
100
AcDbArc
 50
90.0012247257
 51
180.0000160323
  0
ARC
  5
3EC
100
AcDbEntity
  8
09_ROUNDS
100
AcDbCircle
 62
7
  6
CONTINUOUS
 10
206.6996520014
 20
134.8562706992
 40
0.2
100
AcDbArc
 50
192.0415181409
 51
270.001224478
  0
ARC
  5
3ED
100
AcDbEntity
  8
09_ROUNDS
100
AcDbCircle
 62
7
  6
CONTINUOUS
 10
205.4996519261
 20
136.0627123676
 40
0.2
100
AcDbArc
 50
180.001224478
 51
270.001224478
  0
CIRCLE
  5
3EE
100
AcDbEntity
  8
0
100
AcDbCircle
 62
4
  6
CONTINUOUS
 10
205.9228705021
 20
154.6589383031
 40
0.076209042
  0
CIRCLE
  5
3EF
100
AcDbEntity
  8
03_AXES
100
AcDbCircle
 62
7
  6
CONTINUOUS
 10
208.6992654508
 20
164.99792991
 40
1.4
  0
CIRCLE
  5
3F0
100
AcDbEntity
  8
03_AXES
100
AcDbCircle
 62
7
  6
CONTINUOUS
 10
208.6992654508
 20
170.99792991
 40
1.4
  0
CIRCLE
  5
3F1
100
AcDbEntity
  8
03_AXES
100
AcDbCircle
 62
7
  6
CONTINUOUS
 10
208.6992654508
 20
158.99792991
 40
1.4
  0
CIRCLE
  5
3F2
100
AcDbEntity
  8
10_CHAMFER
100
AcDbCircle
 62
7
  6
CONTINUOUS
 10
208.6992654508
 20
158.99792991
 40
1.2
  0
CIRCLE
  5
3F3
100
AcDbEntity
  8
10_CHAMFER
100
AcDbCircle
 62
7
  6
CONTINUOUS
 10
208.6992654508
 20
170.99792991
 40
1.2
  0
CIRCLE
  5
3F4
100
AcDbEntity
  8
10_CHAMFER
100
AcDbCircle
 62
7
  6
CONTINUOUS
 10
208.6992654508
 20
164.99792991
 40
1.2
  0
ARC
  5
3F5
100
AcDbEntity
  8
09_ROUNDS
100
AcDbCircle
 62
7
  6
CONTINUOUS
 10
200.0992654508
 20
179.0009763704
 40
0.5
100
AcDbArc
 50
90.0
 51
180.0
  0
ARC
  5
3F6
100
AcDbEntity
  8
09_ROUNDS
100
AcDbCircle
 62
7
  6
CONTINUOUS
 10
200.0992654508
 20
201.5177793526
 40
0.5
100
AcDbArc
 50
90.0
 51
180.0
  0
ARC
  5
3F7
100
AcDbEntity
  8
03_AXES
100
AcDbCircle
 62
7
  6
CONTINUOUS
 10
219.3992654508
 20
138.1776047986
 40
11.2204157354
100
AcDbArc
 50
66.8950830257
 51
113.1049169743
  0
ARC
  5
3F8
100
AcDbEntity
  8
0
100
AcDbCircle
 62
7
  6
CONTINUOUS
 10
221.5992654508
 20
131.9177793526
 40
2.0
100
AcDbArc
 50
90.0
 51
270.0
  0
ARC
  5
3F9
100
AcDbEntity
  8
0
100
AcDbCircle
 62
7
  6
CONTINUOUS
 10
224.5992654508
 20
131.9177793526
 40
2.0
100
AcDbArc
 50
270.0
 51
90.0
  0
ARC
  5
3FA
100
AcDbEntity
  8
03_AXES
100
AcDbCircle
 62
7
  6
CONTINUOUS
 10
221.5992654508
 20
131.9177793526
 40
1.9
100
AcDbArc
 50
90.0
 51
270.0
  0
ARC
  5
3FB
100
AcDbEntity
  8
03_AXES
100
AcDbCircle
 62
7
  6
CONTINUOUS
 10
224.5992654508
 20
131.9177793526
 40
1.9
100
AcDbArc
 50
270.0
 51
90.0
  0
ARC
  5
3FC
100
AcDbEntity
  8
0
100
AcDbCircle
 62
7
  6
CONTINUOUS
 10
229.5992654508
 20
131.9177793526
 40
1.5
100
AcDbArc
 50
3.8225537293
 51
176.1774462707
  0
CIRCLE
  5
3FD
100
AcDbEntity
  8
0
100
AcDbCircle
 62
7
  6
CONTINUOUS
 10
229.5992654508
 20
131.9177793526
 40
1.45
  0
CIRCLE
  5
3FE
100
AcDbEntity
  8
10_CHAMFER
100
AcDbCircle
 62
7
  6
CONTINUOUS
 10
229.5992654508
 20
131.9177793526
 40
1.4
  0
CIRCLE
  5
3FF
100
AcDbEntity
  8
10_CHAMFER
100
AcDbCircle
 62
7
  6
CONTINUOUS
 10
229.5992654508
 20
131.9177793526
 40
1.25
  0
ARC
  5
400
100
AcDbEntity
  8
03_AXES
100
AcDbCircle
 62
7
  6
CONTINUOUS
 10
232.5995437971
 20
137.1861990875
 40
1.25
100
AcDbArc
 50
316.0557038115
 51
321.3037994991
  0
ARC
  5
401
100
AcDbEntity
  8
03_AXES
100
AcDbCircle
 62
7
  6
CONTINUOUS
 10
232.5995437971
 20
137.1861990875
 40
1.25
100
AcDbArc
 50
32.7132912321
 51
43.9467451445
  0
ARC
  5
402
100
AcDbEntity
  8
03_AXES
100
AcDbCircle
 62
7
  6
CONTINUOUS
 10
224.5992654508
 20
131.9177793526
 40
1.0198039027
100
AcDbArc
 50
270.0
 51
90.0
  0
ARC
  5
403
100
AcDbEntity
  8
03_AXES
100
AcDbCircle
 62
7
  6
CONTINUOUS
 10
221.5992654508
 20
131.9177793526
 40
1.0198039027
100
AcDbArc
 50
90.0
 51
270.0
  0
ARC
  5
404
100
AcDbEntity
  8
03_AXES
100
AcDbCircle
 62
7
  6
CONTINUOUS
 10
233.119542801
 20
146.8479195155
 40
0.89
100
AcDbArc
 50
295.2764105314
 51
306.6297976269
  0
ARC
  5
405
100
AcDbEntity
  8
03_AXES
100
AcDbCircle
 62
7
  6
CONTINUOUS
 10
233.119542801
 20
146.8479195155
 40
0.89
100
AcDbArc
 50
53.3701410397
 51
64.7260384246
  0
ARC
  5
406
100
AcDbEntity
  8
0
100
AcDbCircle
 62
4
  6
CONTINUOUS
 10
221.113550942
 20
150.4519987735
 40
0.823054117
100
AcDbArc
 50
353.0327023018
 51
359.3990856698
  0
ARC
  5
407
100
AcDbEntity
  8
09_ROUNDS
100
AcDbCircle
 62
7
  6
CONTINUOUS
 10
227.3038335713
 20
112.8177793526
 40
0.8
100
AcDbArc
 50
270.0
 51
357.0
  0
ARC
  5
408
100
AcDbEntity
  8
09_ROUNDS
100
AcDbCircle
 62
7
  6
CONTINUOUS
 10
224.8946973303
 20
112.8177793526
 40
0.8
100
AcDbArc
 50
183.0
 51
270.0
  0
ARC
  5
409
100
AcDbEntity
  8
09_ROUNDS
100
AcDbCircle
 62
7
  6
CONTINUOUS
 10
235.0992654508
 20
135.0009763704
 40
0.5
100
AcDbArc
 50
270.0
 51
360.0
  0
ARC
  5
40A
100
AcDbEntity
  8
09_ROUNDS
100
AcDbCircle
 62
7
  6
CONTINUOUS
 10
235.0992654508
 20
112.5177793526
 40
0.5
100
AcDbArc
 50
270.0
 51
360.0
  0
ARC
  5
40B
100
AcDbEntity
  8
09_ROUNDS
100
AcDbCircle
 62
7
  6
CONTINUOUS
 10
232.0976729889
 20
134.8570547828
 40
0.2019851066
100
AcDbArc
 50
348.0110389839
 51
0.0166936653
  0
ARC
  5
40C
100
AcDbEntity
  8
09_ROUNDS
100
AcDbCircle
 62
7
  6
CONTINUOUS
 10
233.2993179073
 20
148.0057967206
 40
0.2000022
100
AcDbArc
 50
0.2095737019
 51
90.0006733514
  0
ARC
  5
40D
100
AcDbEntity
  8
09_ROUNDS
100
AcDbCircle
 62
7
  6
CONTINUOUS
 10
232.0996510159
 20
134.856813527
 40
0.2
100
AcDbArc
 50
270.001224478
 51
347.9609308151
  0
ARC
  5
40E
100
AcDbEntity
  8
09_ROUNDS
100
AcDbCircle
 62
7
  6
CONTINUOUS
 10
233.2996508475
 20
136.0633064862
 40
0.2
100
AcDbArc
 50
270.001224478
 51
0.001224478
  0
ARC
  5
40F
100
AcDbEntity
  8
10_CHAMFER
100
AcDbCircle
 62
7
  6
CONTINUOUS
 10
219.5335902353
 20
157.16408559
 40
12.9707545917
100
AcDbArc
 50
315.4705132468
 51
316.1037904477
  0
ARC
  5
410
100
AcDbEntity
  8
10_CHAMFER
100
AcDbCircle
 62
7
  6
CONTINUOUS
 10
219.464520519
 20
157.1633052311
 40
12.9699290033
100
AcDbArc
 50
223.8973928947
 51
224.5306969387
  0
ARC
  5
411
100
AcDbEntity
  8
09_ROUNDS
100
AcDbCircle
 62
7
  6
CONTINUOUS
 10
235.0992654508
 20
179.0009763704
 40
0.5
100
AcDbArc
 50
0.0
 51
90.0
  0
ARC
  5
412
100
AcDbEntity
  8
09_ROUNDS
100
AcDbCircle
 62
7
  6
CONTINUOUS
 10
235.0992654508
 20
201.5177793526
 40
0.5
100
AcDbArc
 50
0.0
 51
90.0
  0
SPLINE
  5
413
100
AcDbEntity
  8
09_ROUNDS
100
AcDbSpline
 62
7
  6
CONTINUOUS
 70
0
 71
3
 72
18
 73
14
 74
0
 42
0.0000001
 43
0.0000001
 44
0.0000000001
 40
0.0
 40
0.0
 40
0.0
 40
0.0
 40
0.0114950748
 40
0.0335152665
 40
0.0655978897
 40
0.1068530373
 40
0.156223336
 40
0.2126786758
 40
0.34302079
 40
0.4913007893
 40
0.652542381
 40
0.8230385407
 40
1.0
 40
1.0
 40
1.0
 40
1.0
 10
228.8795851667
 20
148.2057022413
 30
0.0
 10
228.8788289737
 20
148.2057020458
 30
0.0
 10
228.876807735
 20
148.2045096628
 30
0.0
 10
228.8733029446
 20
148.2021602856
 30
0.0
 10
228.8683655379
 20
148.1982077552
 30
0.0
 10
228.8622089218
 20
148.1930164411
 30
0.0
 10
228.8549473972
 20
148.1866108411
 30
0.0
 10
228.8434356363
 20
148.1761817116
 30
0.0
 10
228.8273223837
 20
148.1611362326
 30
0.0
 10
228.8063825614
 20
148.1411664697
 30
0.0
 10
228.7836845629
 20
148.1192127132
 30
0.0
 10
228.7597423851
 20
148.0958325238
 30
0.0
 10
228.7434451407
 20
148.0798058812
 30
0.0
 10
228.7351560438
 20
148.0716321717
 30
0.0
  0
SPLINE
  5
414
100
AcDbEntity
  8
09_ROUNDS
100
AcDbSpline
 62
7
  6
CONTINUOUS
 70
0
 71
3
 72
18
 73
14
 74
0
 42
0.0000001
 43
0.0000001
 44
0.0000000001
 40
0.0
 40
0.0
 40
0.0
 40
0.0
 40
0.1770126354
 40
0.3475500411
 40
0.5088213545
 40
0.6571174867
 40
0.7874595124
 40
0.8439077156
 40
0.8932655301
 40
0.9345023256
 40
0.9665600658
 40
0.9885477667
 40
1.0
 40
1.0
 40
1.0
 40
1.0
 10
210.2633769852
 20
148.0712374082
 30
0.0
 10
210.2550893004
 20
148.0794105893
 30
0.0
 10
210.2387955236
 20
148.0954361461
 30
0.0
 10
210.2148600903
 20
148.1188152248
 30
0.0
 10
210.1921709523
 20
148.1407678769
 30
0.0
 10
210.1712422091
 20
148.1607365222
 30
0.0
 10
210.1551400039
 20
148.1757815387
 30
0.0
 10
210.1436384271
 20
148.1862104984
 30
0.0
 10
210.1363851289
 20
148.1926157892
 30
0.0
 10
210.1302372418
 20
148.1978063494
 30
0.0
 10
210.1253091398
 20
148.2017591491
 30
0.0
 10
210.1218139347
 20
148.2041063091
 30
0.0
 10
210.1198000875
 20
148.2053011427
 30
0.0
 10
210.1190470197
 20
148.2053013066
 30
0.0
  0
SPLINE
  5
415
100
AcDbEntity
  8
09_ROUNDS
100
AcDbSpline
 62
7
  6
CONTINUOUS
 70
0
 71
3
 72
13
 73
9
 74
0
 42
0.0000001
 43
0.0000001
 44
0.0000000001
 40
0.0
 40
0.0
 40
0.0
 40
0.0
 40
0.1109150014
 40
0.2274811794
 40
0.3488874196
 40
0.4742464076
 40
0.7335816235
 40
1.0
 40
1.0
 40
1.0
 40
1.0
 10
206.4999348693
 20
136.387941765
 30
0.0
 10
206.4999397048
 20
136.4141112007
 30
0.0
 10
206.5044942284
 20
136.4677911452
 30
0.0
 10
206.5200432632
 20
136.5486998693
 30
0.0
 10
206.5420487607
 20
136.6316055363
 30
0.0
 10
206.5781083124
 20
136.7454691593
 30
0.0
 10
206.6313609558
 20
136.8896294356
 30
0.0
 10
206.6769795614
 20
137.0049760618
 30
0.0
 10
206.6999905046
 20
137.0634719136
 30
0.0
  0
SPLINE
  5
416
100
AcDbEntity
  8
09_ROUNDS
100
AcDbSpline
 62
7
  6
CONTINUOUS
 70
0
 71
3
 72
13
 73
9
 74
0
 42
0.0000001
 43
0.0000001
 44
0.0000000001
 40
0.0
 40
0.0
 40
0.0
 40
0.0
 40
0.266423523
 40
0.5257575022
 40
0.6511142592
 40
0.7725180641
 40
0.889082911
 40
1.0
 40
1.0
 40
1.0
 40
1.0
 10
232.0999895191
 20
137.0640147413
 30
0.0
 10
232.1230001765
 20
137.0055206299
 30
0.0
 10
232.1686139452
 20
136.8901773276
 30
0.0
 10
232.2218503932
 20
136.7460180921
 30
0.0
 10
232.2578894406
 20
136.6321552237
 30
0.0
 10
232.2798760225
 20
136.5492500587
 30
0.0
 10
232.2954024755
 20
136.4683411878
 30
0.0
 10
232.2999387036
 20
136.4146618462
 30
0.0
 10
232.2999338683
 20
136.3884931412
 30
0.0
  0
SPLINE
  5
417
100
AcDbEntity
  8
0
100
AcDbSpline
 62
4
  6
CONTINUOUS
 70
0
 71
3
 72
26
 73
22
 74
0
 42
0.0000001
 43
0.0000001
 44
0.0000000001
 40
0.0
 40
0.0
 40
0.0
 40
0.0
 40
0.0018390827
 40
0.0031622597
 40
0.0049571096
 40
0.0077017551
 40
0.0163590166
 40
0.0292191022
 40
0.0460712875
 40
0.0666597625
 40
0.0907144431
 40
0.1179593677
 40
0.1809024541
 40
0.2532453913
 40
0.3327343252
 40
0.4171132061
 40
0.5915196811
 40
0.7584894554
 40
0.9002586993
 40
0.9563501803
 40
1.0
 40
1.0
 40
1.0
 40
1.0
 10
207.2839542624
 20
176.825051239
 30
0.0
 10
207.2841032522
 20
176.8250499351
 30
0.0
 10
207.2843860242
 20
176.8250578597
 30
0.0
 10
207.2846482068
 20
176.8254277307
 30
0.0
 10
207.2845105041
 20
176.82591918
 30
0.0
 10
207.2840154136
 20
176.8268501745
 30
0.0
 10
207.2827394636
 20
176.8283819105
 30
0.0
 10
207.2805930013
 20
176.8306147616
 30
0.0
 10
207.2776213388
 20
176.8334124815
 30
0.0
 10
207.2739008955
 20
176.8367237516
 30
0.0
 10
207.2694708789
 20
176.8405061311
 30
0.0
 10
207.2623413774
 20
176.8464081909
 30
0.0
 10
207.2520428012
 20
176.8546154009
 30
0.0
 10
207.2382538371
 20
176.8652290679
 30
0.0
 10
207.2229232509
 20
176.876684314
 30
0.0
 10
207.2007528015
 20
176.8927949784
 30
0.0
 10
207.1724490556
 20
176.9125232898
 30
0.0
 10
207.1396261594
 20
176.9338472801
 30
0.0
 10
207.1140886636
 20
176.9488120569
 30
0.0
 10
207.0964512347
 20
176.9572886467
 30
0.0
 10
207.0888602552
 20
176.9601545247
 30
0.0
 10
207.085438402
 20
176.9610470689
 30
0.0
  0
SPLINE
  5
418
100
AcDbEntity
  8
0
100
AcDbSpline
 62
4
  6
CONTINUOUS
 70
0
 71
3
 72
26
 73
22
 74
0
 42
0.0000001
 43
0.0000001
 44
0.0000000001
 40
0.0
 40
0.0
 40
0.0
 40
0.0
 40
0.0018390827
 40
0.0031622597
 40
0.0049571097
 40
0.0077017551
 40
0.0163590166
 40
0.0292191022
 40
0.0460712875
 40
0.0666597625
 40
0.0907144431
 40
0.1179593677
 40
0.1809024541
 40
0.2532453913
 40
0.3327343252
 40
0.4171132061
 40
0.5915196811
 40
0.7584894554
 40
0.9002586993
 40
0.9563501803
 40
1.0
 40
1.0
 40
1.0
 40
1.0
 10
207.2839542624
 20
176.825051239
 30
0.0
 10
207.2841032522
 20
176.8250499351
 30
0.0
 10
207.2843860242
 20
176.8250578597
 30
0.0
 10
207.2846482068
 20
176.8254277307
 30
0.0
 10
207.2845105041
 20
176.82591918
 30
0.0
 10
207.2840154136
 20
176.8268501745
 30
0.0
 10
207.2827394636
 20
176.8283819105
 30
0.0
 10
207.2805930013
 20
176.8306147616
 30
0.0
 10
207.2776213388
 20
176.8334124815
 30
0.0
 10
207.2739008955
 20
176.8367237516
 30
0.0
 10
207.2694708789
 20
176.8405061311
 30
0.0
 10
207.2623413774
 20
176.8464081909
 30
0.0
 10
207.2520428012
 20
176.8546154009
 30
0.0
 10
207.2382538371
 20
176.8652290679
 30
0.0
 10
207.2229232509
 20
176.876684314
 30
0.0
 10
207.2007528015
 20
176.8927949784
 30
0.0
 10
207.1724490556
 20
176.9125232898
 30
0.0
 10
207.1396261594
 20
176.9338472801
 30
0.0
 10
207.1140886636
 20
176.9488120569
 30
0.0
 10
207.0964512347
 20
176.9572886467
 30
0.0
 10
207.0888602552
 20
176.9601545247
 30
0.0
 10
207.085438402
 20
176.9610470689
 30
0.0
  0
SPLINE
  5
419
100
AcDbEntity
  8
0
100
AcDbSpline
 62
4
  6
CONTINUOUS
 70
0
 71
3
 72
27
 73
23
 74
0
 42
0.0000001
 43
0.0000001
 44
0.0000000001
 40
0.0
 40
0.0
 40
0.0
 40
0.0
 40
0.0008167413
 40
0.001787596
 40
0.0034500136
 40
0.0059016235
 40
0.009152289
 40
0.0131921918
 40
0.0235719065
 40
0.0368877596
 40
0.0529738129
 40
0.0716618919
 40
0.0927845939
 40
0.1416747807
 40
0.1983628448
 40
0.261636843
 40
0.3303770867
 40
0.4035830079
 40
0.4804066977
 40
0.6423807699
 40
0.8143776518
 40
1.0
 40
1.0
 40
1.0
 40
1.0
 10
207.085438402
 20
176.9610470689
 30
0.0
 10
207.0852781265
 20
176.9610887653
 30
0.0
 10
207.0849121746
 20
176.9613439047
 30
0.0
 10
207.0851532839
 20
176.9621150285
 30
0.0
 10
207.085713841
 20
176.9629337212
 30
0.0
 10
207.0866986402
 20
176.9640845508
 30
0.0
 10
207.0880814014
 20
176.9654854773
 30
0.0
 10
207.0906887136
 20
176.9679491787
 30
0.0
 10
207.0949081936
 20
176.9716651669
 30
0.0
 10
207.101036472
 20
176.9769117246
 30
0.0
 10
207.1084680693
 20
176.9832245342
 30
0.0
 10
207.1170812263
 20
176.9905921133
 30
0.0
 10
207.1306578963
 20
177.0023891654
 30
0.0
 10
207.1497515031
 20
177.0195834665
 30
0.0
 10
207.1744438203
 20
177.0433122877
 30
0.0
 10
207.200945816
 20
177.070929181
 30
0.0
 10
207.2282795605
 20
177.1023297846
 30
0.0
 10
207.2554698972
 20
177.1374191973
 30
0.0
 10
207.2908467784
 20
177.1899106613
 30
0.0
 10
207.3292612808
 20
177.2643324357
 30
0.0
 10
207.3583931543
 20
177.3664318214
 30
0.0
 10
207.3608213347
 20
177.4398608089
 30
0.0
 10
207.3573320402
 20
177.4773373335
 30
0.0
  0
SPLINE
  5
41A
100
AcDbEntity
  8
0
100
AcDbSpline
 62
4
  6
CONTINUOUS
 70
0
 71
3
 72
15
 73
11
 74
0
 42
0.0000001
 43
0.0000001
 44
0.0000000001
 40
0.0
 40
0.0
 40
0.0
 40
0.0
 40
0.1174237684
 40
0.2276261915
 40
0.3325145961
 40
0.43651693
 40
0.5467243281
 40
0.6718032778
 40
0.8203581635
 40
1.0
 40
1.0
 40
1.0
 40
1.0
 10
207.3573320402
 20
177.4773373335
 30
0.0
 10
207.3544348837
 20
177.5083968429
 30
0.0
 10
207.3467230569
 20
177.5684698089
 30
0.0
 10
207.3252109943
 20
177.6544465474
 30
0.0
 10
207.2905479758
 20
177.7324344053
 30
0.0
 10
207.238866548
 20
177.8007323133
 30
0.0
 10
207.1670900339
 20
177.8568583199
 30
0.0
 10
207.0733274389
 20
177.8989664917
 30
0.0
 10
206.9555116658
 20
177.9263643586
 30
0.0
 10
206.8683716163
 20
177.9336564198
 30
0.0
 10
206.8206786866
 20
177.9353487107
 30
0.0
  0
SPLINE
  5
41B
100
AcDbEntity
  8
0
100
AcDbSpline
 62
4
  6
CONTINUOUS
 70
0
 71
3
 72
22
 73
18
 74
0
 42
0.0000001
 43
0.0000001
 44
0.0000000001
 40
0.0
 40
0.0
 40
0.0
 40
0.0
 40
0.0024320104
 40
0.0087044473
 40
0.0187639492
 40
0.0324193035
 40
0.0494620677
 40
0.0696790206
 40
0.1187740972
 40
0.1779762635
 40
0.2455518188
 40
0.3197653252
 40
0.3988806477
 40
0.5648708893
 40
0.7296342204
 40
0.8792923656
 40
1.0
 40
1.0
 40
1.0
 40
1.0
 10
206.633247858
 20
175.5639412712
 30
0.0
 10
206.633247858
 20
175.5637857202
 30
0.0
 10
206.6340112976
 20
175.5636351805
 30
0.0
 10
206.6349923461
 20
175.5634101736
 30
0.0
 10
206.6370068349
 20
175.5631978382
 30
0.0
 10
206.6395575968
 20
175.562964507
 30
0.0
 10
206.6428232374
 20
175.5627358089
 30
0.0
 10
206.6483291459
 20
175.562408132
 30
0.0
 10
206.6565450866
 20
175.562026982
 30
0.0
 10
206.6677843864
 20
175.5616119642
 30
0.0
 10
206.6806347925
 20
175.5612293979
 30
0.0
 10
206.6947595678
 20
175.5608888434
 30
0.0
 10
206.7151795953
 20
175.5604986371
 30
0.0
 10
206.7413931246
 20
175.5601830437
 30
0.0
 10
206.772121121
 20
175.5601104851
 30
0.0
 10
206.7999501645
 20
175.5604110399
 30
0.0
 10
206.8172390978
 20
175.56093136
 30
0.0
 10
206.8249472976
 20
175.5613659935
 30
0.0
  0
SPLINE
  5
41C
100
AcDbEntity
  8
0
100
AcDbSpline
 62
4
  6
CONTINUOUS
 70
0
 71
3
 72
15
 73
11
 74
0
 42
0.0000001
 43
0.0000001
 44
0.0000000001
 40
0.0
 40
0.0
 40
0.0
 40
0.0
 40
0.0963485728
 40
0.1875187962
 40
0.2793028821
 40
0.3783378221
 40
0.4920930955
 40
0.6284320159
 40
0.7951908077
 40
1.0
 40
1.0
 40
1.0
 40
1.0
 10
206.8249472976
 20
175.5613659935
 30
0.0
 10
206.8401882598
 20
175.5622136508
 30
0.0
 10
206.8698645916
 20
175.5635683446
 30
0.0
 10
206.914016734
 20
175.5667692427
 30
0.0
 10
206.958253648
 20
175.573519155
 30
0.0
 10
207.0049241428
 20
175.5862331347
 30
0.0
 10
207.0562795858
 20
175.6070926754
 30
0.0
 10
207.1146759976
 20
175.6381291698
 30
0.0
 10
207.1825822749
 20
175.6814103322
 30
0.0
 10
207.2303360663
 20
175.7158795615
 30
0.0
 10
207.2562886755
 20
175.7353559891
 30
0.0
  0
SPLINE
  5
41D
100
AcDbEntity
  8
0
100
AcDbSpline
 62
4
  6
CONTINUOUS
 70
0
 71
3
 72
15
 73
11
 74
0
 42
0.0000001
 43
0.0000001
 44
0.0000000001
 40
0.0
 40
0.0
 40
0.0
 40
0.0
 40
0.1009962491
 40
0.2091652038
 40
0.3234189441
 40
0.4431098775
 40
0.5684656532
 40
0.7009343576
 40
0.8433745737
 40
1.0
 40
1.0
 40
1.0
 40
1.0
 10
207.2562886755
 20
175.7353559891
 30
0.0
 10
207.2841779334
 20
175.7562672053
 30
0.0
 10
207.3375355055
 20
175.8056457726
 30
0.0
 10
207.4050987822
 20
175.8951482556
 30
0.0
 10
207.4594562169
 20
176.0006361092
 30
0.0
 10
207.4964572508
 20
176.1196858829
 30
0.0
 10
207.5118379053
 20
176.2498543358
 30
0.0
 10
207.5011500938
 20
176.3885101383
 30
0.0
 10
207.4599940564
 20
176.5326609193
 30
0.0
 10
207.4122009419
 20
176.6250084086
 30
0.0
 10
207.3832181167
 20
176.6706404096
 30
0.0
  0
SPLINE
  5
41E
100
AcDbEntity
  8
0
100
AcDbSpline
 62
4
  6
CONTINUOUS
 70
0
 71
3
 72
26
 73
22
 74
0
 42
0.0000001
 43
0.0000001
 44
0.0000000001
 40
0.0
 40
0.0
 40
0.0
 40
0.0
 40
0.0018384469
 40
0.00316116
 40
0.0049553851
 40
0.0076990924
 40
0.016353459
 40
0.0292093508
 40
0.0460561772
 40
0.0666382784
 40
0.0906857259
 40
0.1179227162
 40
0.1808484685
 40
0.2531731929
 40
0.3326443363
 40
0.4170071649
 40
0.5913920988
 40
0.7583637211
 40
0.9001703498
 40
0.9562984608
 40
1.0
 40
1.0
 40
1.0
 40
1.0
 10
205.3969459296
 20
176.825051239
 30
0.0
 10
205.3970949199
 20
176.8250499351
 30
0.0
 10
205.3973776925
 20
176.825057859
 30
0.0
 10
205.3976398762
 20
176.8254277312
 30
0.0
 10
205.3975021659
 20
176.8259191819
 30
0.0
 10
205.3970070545
 20
176.8268501786
 30
0.0
 10
205.3957310482
 20
176.8283819184
 30
0.0
 10
205.3935844755
 20
176.8306147717
 30
0.0
 10
205.3906126294
 20
176.8334124944
 30
0.0
 10
205.3868919132
 20
176.8367237674
 30
0.0
 10
205.3824615155
 20
176.8405061501
 30
0.0
 10
205.375331262
 20
176.8464082487
 30
0.0
 10
205.3650313491
 20
176.8546155205
 30
0.0
 10
205.3512401845
 20
176.8652292234
 30
0.0
 10
205.3359065371
 20
176.876684512
 30
0.0
 10
205.3137301004
 20
176.8927956127
 30
0.0
 10
205.2854157644
 20
176.9125248081
 30
0.0
 10
205.252575353
 20
176.9338496646
 30
0.0
 10
205.2270184502
 20
176.9488141822
 30
0.0
 10
205.2093616354
 20
176.957289926
 30
0.0
 10
205.201759607
 20
176.9601549207
 30
0.0
 10
205.1983320407
 20
176.9610470689
 30
0.0
  0
SPLINE
  5
41F
100
AcDbEntity
  8
0
100
AcDbSpline
 62
4
  6
CONTINUOUS
 70
0
 71
3
 72
26
 73
22
 74
0
 42
0.0000001
 43
0.0000001
 44
0.0000000001
 40
0.0
 40
0.0
 40
0.0
 40
0.0
 40
0.0018384469
 40
0.00316116
 40
0.0049553851
 40
0.0076990924
 40
0.016353459
 40
0.0292093508
 40
0.0460561772
 40
0.0666382784
 40
0.0906857259
 40
0.1179227162
 40
0.1808484685
 40
0.2531731929
 40
0.3326443363
 40
0.4170071649
 40
0.5913920988
 40
0.7583637211
 40
0.9001703498
 40
0.9562984608
 40
1.0
 40
1.0
 40
1.0
 40
1.0
 10
205.3969459296
 20
176.825051239
 30
0.0
 10
205.3970949199
 20
176.8250499351
 30
0.0
 10
205.3973776925
 20
176.825057859
 30
0.0
 10
205.3976398762
 20
176.8254277312
 30
0.0
 10
205.3975021659
 20
176.8259191819
 30
0.0
 10
205.3970070545
 20
176.8268501786
 30
0.0
 10
205.3957310482
 20
176.8283819184
 30
0.0
 10
205.3935844755
 20
176.8306147717
 30
0.0
 10
205.3906126294
 20
176.8334124944
 30
0.0
 10
205.3868919132
 20
176.8367237674
 30
0.0
 10
205.3824615155
 20
176.8405061501
 30
0.0
 10
205.375331262
 20
176.8464082487
 30
0.0
 10
205.3650313491
 20
176.8546155205
 30
0.0
 10
205.3512401845
 20
176.8652292234
 30
0.0
 10
205.3359065371
 20
176.876684512
 30
0.0
 10
205.3137301004
 20
176.8927956127
 30
0.0
 10
205.2854157644
 20
176.9125248081
 30
0.0
 10
205.252575353
 20
176.9338496646
 30
0.0
 10
205.2270184502
 20
176.9488141822
 30
0.0
 10
205.2093616354
 20
176.957289926
 30
0.0
 10
205.201759607
 20
176.9601549207
 30
0.0
 10
205.1983320407
 20
176.9610470689
 30
0.0
  0
SPLINE
  5
420
100
AcDbEntity
  8
0
100
AcDbSpline
 62
4
  6
CONTINUOUS
 70
0
 71
3
 72
27
 73
23
 74
0
 42
0.0000001
 43
0.0000001
 44
0.0000000001
 40
0.0
 40
0.0
 40
0.0
 40
0.0
 40
0.0008144061
 40
0.0017855263
 40
0.0034494365
 40
0.0059029804
 40
0.0091558028
 40
0.0131979997
 40
0.023582555
 40
0.0369034295
 40
0.0529945661
 40
0.071687697
 40
0.0928153388
 40
0.1417147708
 40
0.1984107829
 40
0.2616909289
 40
0.3304350721
 40
0.4036422719
 40
0.4804643556
 40
0.6424262102
 40
0.8144012577
 40
1.0
 40
1.0
 40
1.0
 40
1.0
 10
205.1983320407
 20
176.9610470689
 30
0.0
 10
205.1981722306
 20
176.9610887536
 30
0.0
 10
205.1978073213
 20
176.9613448679
 30
0.0
 10
205.1980514919
 20
176.9621151305
 30
0.0
 10
205.1986131433
 20
176.9629336581
 30
0.0
 10
205.1996002635
 20
176.9640844722
 30
0.0
 10
205.2009850764
 20
176.9654854053
 30
0.0
 10
205.2035957148
 20
176.9679490227
 30
0.0
 10
205.2078193822
 20
176.9716649673
 30
0.0
 10
205.2139529404
 20
176.9769115511
 30
0.0
 10
205.2213901072
 20
176.9832243805
 30
0.0
 10
205.2300091001
 20
176.9905919705
 30
0.0
 10
205.2435940041
 20
177.0023888393
 30
0.0
 10
205.2626980612
 20
177.0195829408
 30
0.0
 10
205.287402776
 20
177.0433117362
 30
0.0
 10
205.3139168529
 20
177.0709285848
 30
0.0
 10
205.3412619231
 20
177.1023291302
 30
0.0
 10
205.3684623985
 20
177.1374184909
 30
0.0
 10
205.403850154
 20
177.189908901
 30
0.0
 10
205.4422735819
 20
177.264329898
 30
0.0
 10
205.4714048418
 20
177.3664317082
 30
0.0
 10
205.473821277
 20
177.439861776
 30
0.0
 10
205.4703237073
 20
177.4773373335
 30
0.0
  0
SPLINE
  5
421
100
AcDbEntity
  8
0
100
AcDbSpline
 62
4
  6
CONTINUOUS
 70
0
 71
3
 72
15
 73
11
 74
0
 42
0.0000001
 43
0.0000001
 44
0.0000000001
 40
0.0
 40
0.0
 40
0.0
 40
0.0
 40
0.1174191701
 40
0.2276174185
 40
0.3325023859
 40
0.4365025749
 40
0.5467097775
 40
0.6717909503
 40
0.8203506664
 40
1.0
 40
1.0
 40
1.0
 40
1.0
 10
205.4703237073
 20
177.4773373335
 30
0.0
 10
205.4674265563
 20
177.5083968459
 30
0.0
 10
205.4597147376
 20
177.568469859
 30
0.0
 10
205.4382022403
 20
177.6544467482
 30
0.0
 10
205.4035378021
 20
177.7324348572
 30
0.0
 10
205.351853461
 20
177.8007329196
 30
0.0
 10
205.2800723386
 20
177.8568587972
 30
0.0
 10
205.1863032693
 20
177.8989667272
 30
0.0
 10
205.0684786739
 20
177.9263644364
 30
0.0
 10
204.9813319202
 20
177.9336564248
 30
0.0
 10
204.9336351236
 20
177.9353487107
 30
0.0
  0
SPLINE
  5
422
100
AcDbEntity
  8
0
100
AcDbSpline
 62
4
  6
CONTINUOUS
 70
0
 71
3
 72
22
 73
18
 74
0
 42
0.0000001
 43
0.0000001
 44
0.0000000001
 40
0.0
 40
0.0
 40
0.0
 40
0.0
 40
0.0024320355
 40
0.0087055372
 40
0.0187668787
 40
0.0324247324
 40
0.0494705623
 40
0.0696910595
 40
0.1187943224
 40
0.1780055809
 40
0.2455904708
 40
0.3198128931
 40
0.3989360526
 40
0.5649360917
 40
0.7296969832
 40
0.8793351617
 40
1.0
 40
1.0
 40
1.0
 40
1.0
 10
204.7461337395
 20
175.5639412712
 30
0.0
 10
204.7461337395
 20
175.5637856329
 30
0.0
 10
204.7468978588
 20
175.5636352667
 30
0.0
 10
204.7478794997
 20
175.5634101174
 30
0.0
 10
204.7498955487
 20
175.5631978627
 30
0.0
 10
204.7524481651
 20
175.562964498
 30
0.0
 10
204.755716212
 20
175.5627358127
 30
0.0
 10
204.761226107
 20
175.5624081313
 30
0.0
 10
204.7694479215
 20
175.5620269859
 30
0.0
 10
204.7806951248
 20
175.5616119669
 30
0.0
 10
204.793554368
 20
175.5612294013
 30
0.0
 10
204.8076885996
 20
175.5608888468
 30
0.0
 10
204.8281215812
 20
175.5604986456
 30
0.0
 10
204.8543505267
 20
175.5601830547
 30
0.0
 10
204.8850946459
 20
175.5601104767
 30
0.0
 10
204.9129348484
 20
175.5604110109
 30
0.0
 10
204.9302293001
 20
175.5609312747
 30
0.0
 10
204.9379390124
 20
175.5613659935
 30
0.0
  0
SPLINE
  5
423
100
AcDbEntity
  8
0
100
AcDbSpline
 62
4
  6
CONTINUOUS
 70
0
 71
3
 72
15
 73
11
 74
0
 42
0.0000001
 43
0.0000001
 44
0.0000000001
 40
0.0
 40
0.0
 40
0.0
 40
0.0
 40
0.0963485728
 40
0.1875187962
 40
0.2793028821
 40
0.3783378221
 40
0.4920930955
 40
0.6284320159
 40
0.7951908077
 40
1.0
 40
1.0
 40
1.0
 40
1.0
 10
204.9379390124
 20
175.5613659935
 30
0.0
 10
204.9531799746
 20
175.5622136508
 30
0.0
 10
204.9828563064
 20
175.5635683446
 30
0.0
 10
205.0270084488
 20
175.5667692427
 30
0.0
 10
205.0712453628
 20
175.573519155
 30
0.0
 10
205.1179158577
 20
175.5862331347
 30
0.0
 10
205.1692713006
 20
175.6070926754
 30
0.0
 10
205.2276677124
 20
175.6381291698
 30
0.0
 10
205.2955739897
 20
175.6814103322
 30
0.0
 10
205.3433277811
 20
175.7158795615
 30
0.0
 10
205.3692803903
 20
175.7353559891
 30
0.0
  0
SPLINE
  5
424
100
AcDbEntity
  8
0
100
AcDbSpline
 62
4
  6
CONTINUOUS
 70
0
 71
3
 72
15
 73
11
 74
0
 42
0.0000001
 43
0.0000001
 44
0.0000000001
 40
0.0
 40
0.0
 40
0.0
 40
0.0
 40
0.1009943581
 40
0.2091606
 40
0.3234106276
 40
0.4430973038
 40
0.5684494896
 40
0.7009172862
 40
0.8433619311
 40
1.0
 40
1.0
 40
1.0
 40
1.0
 10
205.3692803903
 20
175.7353559891
 30
0.0
 10
205.3971696075
 20
175.7562671748
 30
0.0
 10
205.4505269524
 20
175.8056455072
 30
0.0
 10
205.518088957
 20
175.8951478764
 30
0.0
 10
205.5724427822
 20
176.0006359143
 30
0.0
 10
205.6094364647
 20
176.119686296
 30
0.0
 10
205.6248044834
 20
176.2498558043
 30
0.0
 10
205.6140971693
 20
176.388512862
 30
0.0
 10
205.5729134637
 20
176.5326645793
 30
0.0
 10
205.5250985756
 20
176.6250095992
 30
0.0
 10
205.4961039981
 20
176.6706404096
 30
0.0
  0
SPLINE
  5
425
100
AcDbEntity
  8
0
100
AcDbSpline
 62
4
  6
CONTINUOUS
 70
0
 71
3
 72
47
 73
43
 74
0
 42
0.0000001
 43
0.0000001
 44
0.0000000001
 40
0.0
 40
0.0
 40
0.0
 40
0.0
 40
0.0082160162
 40
0.0163863426
 40
0.0325991155
 40
0.0486596363
 40
0.0645863549
 40
0.0960948432
 40
0.1272529678
 40
0.158157986
 40
0.1888894394
 40
0.2500154754
 40
0.3111420252
 40
0.3418741883
 40
0.3727803127
 40
0.4039400493
 40
0.43545079
 40
0.4513789241
 40
0.4674410798
 40
0.4836557287
 40
0.4918270904
 40
0.5000442103
 40
0.5082580144
 40
0.5164262517
 40
0.5326351838
 40
0.5486922558
 40
0.5646158543
 40
0.5961188698
 40
0.6272721781
 40
0.6581726858
 40
0.6888996614
 40
0.7500161908
 40
0.8111319199
 40
0.8418582237
 40
0.8727583354
 40
0.9039120562
 40
0.935416956
 40
0.9513422951
 40
0.9674017735
 40
0.9836138872
 40
0.9917840422
 40
1.0
 40
1.0
 40
1.0
 40
1.0
 10
204.2967807046
 20
156.0429595237
 30
0.0
 10
204.2931400529
 20
156.0429595134
 30
0.0
 10
204.2858789952
 20
156.0428676774
 30
0.0
 10
204.2714433893
 20
156.0423187511
 30
0.0
 10
204.2535661129
 20
156.0409588613
 30
0.0
 10
204.2323699838
 20
156.0382631864
 30
0.0
 10
204.2046641318
 20
156.033311438
 30
0.0
 10
204.1708765282
 20
156.0246175368
 30
0.0
 10
204.1318836107
 20
156.0103337279
 30
0.0
 10
204.0947841195
 20
155.9924480725
 30
0.0
 10
204.0482393045
 20
155.9641594504
 30
0.0
 10
203.9956136061
 20
155.9207362806
 30
0.0
 10
203.9521874871
 20
155.8681125628
 30
0.0
 10
203.9238962872
 20
155.8215680909
 30
0.0
 10
203.9060086389
 20
155.7844678592
 30
0.0
 10
203.8917230317
 20
155.7454732355
 30
0.0
 10
203.8830279954
 20
155.7116834956
 30
0.0
 10
203.8780755141
 20
155.6839753797
 30
0.0
 10
203.875379517
 20
155.6627771011
 30
0.0
 10
203.874019127
 20
155.6448978164
 30
0.0
 10
203.8734707111
 20
155.6304604378
 30
0.0
 10
203.8733309828
 20
155.6195587468
 30
0.0
 10
203.8734756444
 20
155.6086585065
 30
0.0
 10
203.8740301597
 20
155.5942267537
 30
0.0
 10
203.8753974535
 20
155.5763541978
 30
0.0
 10
203.8781005867
 20
155.5551636948
 30
0.0
 10
203.8830611674
 20
155.5274648523
 30
0.0
 10
203.8917638236
 20
155.4936857363
 30
0.0
 10
203.9060547719
 20
155.4547025136
 30
0.0
 10
203.9239445655
 20
155.4176119029
 30
0.0
 10
203.9522351062
 20
155.3710779454
 30
0.0
 10
203.9956546446
 20
155.3184640292
 30
0.0
 10
204.0482699855
 20
155.275046335
 30
0.0
 10
204.0948059156
 20
155.2467604753
 30
0.0
 10
204.131898947
 20
155.2288761852
 30
0.0
 10
204.1708860841
 20
155.2145931909
 30
0.0
 10
204.2046695198
 20
155.2058997432
 30
0.0
 10
204.2323727022
 20
155.2009481599
 30
0.0
 10
204.2535674633
 20
155.1982526356
 30
0.0
 10
204.2714439125
 20
155.1968924972
 30
0.0
 10
204.2858791199
 20
155.1963441609
 30
0.0
 10
204.2931400852
 20
155.1962511345
 30
0.0
 10
204.2967807046
 20
155.1962519467
 30
0.0
  0
SPLINE
  5
426
100
AcDbEntity
  8
0
100
AcDbSpline
 62
4
  6
CONTINUOUS
 70
0
 71
3
 72
56
 73
52
 74
0
 42
0.0000001
 43
0.0000001
 44
0.0000000001
 40
0.0
 40
0.0
 40
0.0
 40
0.0
 40
0.0083284252
 40
0.0166139102
 40
0.0330572297
 40
0.0493348233
 40
0.0654509522
 40
0.097210527
 40
0.1283847431
 40
0.1590259241
 40
0.1892004111
 40
0.2484348717
 40
0.2778037054
 40
0.3071836712
 40
0.336760396
 40
0.3667470982
 40
0.3973822675
 40
0.413029361
 40
0.4289373581
 40
0.4451411828
 40
0.4616764074
 40
0.4700802453
 40
0.4785804682
 40
0.487181625
 40
0.4915215628
 40
0.495888443
 40
0.5002524916
 40
0.5045896426
 40
0.51318536
 40
0.5216803228
 40
0.5300790803
 40
0.5466046818
 40
0.5627995983
 40
0.5786993946
 40
0.5943389831
 40
0.6249611594
 40
0.6549374032
 40
0.6845059625
 40
0.7138797693
 40
0.7432441389
 40
0.8024735449
 40
0.8326468133
 40
0.863287329
 40
0.8944612333
 40
0.9262206946
 40
0.9423368043
 40
0.9586143909
 40
0.9750577089
 40
0.9833431938
 40
0.991671619
 40
1.0
 40
1.0
 40
1.0
 40
1.0
 10
212.6939461564
 20
171.082129114
 30
0.0
 10
212.6939461564
 20
171.074274224
 30
0.0
 10
212.6937929248
 20
171.0586049428
 30
0.0
 10
212.6928735043
 20
171.0274397431
 30
0.0
 10
212.6905864534
 20
170.9888222849
 30
0.0
 10
212.6860192621
 20
170.9429768204
 30
0.0
 10
212.6775769719
 20
170.883050589
 30
0.0
 10
212.6626344581
 20
170.8099123465
 30
0.0
 10
212.6376505182
 20
170.7251599656
 30
0.0
 10
212.6058314827
 20
170.6443101503
 30
0.0
 10
212.5548698156
 20
170.543079928
 30
0.0
 10
212.4902957133
 20
170.450468581
 30
0.0
 10
212.4132064369
 20
170.369997442
 30
0.0
 10
212.3494109475
 20
170.3161704346
 30
0.0
 10
212.2796587211
 20
170.2692721607
 30
0.0
 10
212.204107361
 20
170.2298031165
 30
0.0
 10
212.136905102
 20
170.2037095818
 30
0.0
 10
212.0806532053
 20
170.1870163412
 30
0.0
 10
212.0368164267
 20
170.1765630136
 30
0.0
 10
211.9916594278
 20
170.168330946
 30
0.0
 10
211.953151679
 20
170.1633992312
 30
0.0
 10
211.921735207
 20
170.1606079689
 30
0.0
 10
211.8977254795
 20
170.1590956291
 30
0.0
 10
211.8775155348
 20
170.1583379478
 30
0.0
 10
211.8611944537
 20
170.1580330645
 30
0.0
 10
211.8488669044
 20
170.1579567663
 30
0.0
 10
211.8365419832
 20
170.1580330563
 30
0.0
 10
211.8202313325
 20
170.1583379548
 30
0.0
 10
211.8000341148
 20
170.1590956356
 30
0.0
 10
211.7760392982
 20
170.1606079822
 30
0.0
 10
211.7446417293
 20
170.163399271
 30
0.0
 10
211.7061564315
 20
170.1683310599
 30
0.0
 10
211.6610250605
 20
170.1765631733
 30
0.0
 10
211.6172121529
 20
170.1870165481
 30
0.0
 10
211.5609885901
 20
170.2037101524
 30
0.0
 10
211.4938179403
 20
170.2298044613
 30
0.0
 10
211.4183003833
 20
170.2692737404
 30
0.0
 10
211.3485764641
 20
170.3161721221
 30
0.0
 10
211.2848042375
 20
170.3699990883
 30
0.0
 10
211.2077381831
 20
170.4504718818
 30
0.0
 10
211.1431817449
 20
170.5430825228
 30
0.0
 10
211.0922311236
 20
170.6443108832
 30
0.0
 10
211.060417289
 20
170.7251604479
 30
0.0
 10
211.0354364561
 20
170.8099126214
 30
0.0
 10
211.0204952417
 20
170.8830506701
 30
0.0
 10
211.0120534622
 20
170.9429768376
 30
0.0
 10
211.0074864609
 20
170.9888222924
 30
0.0
 10
211.0051994624
 20
171.0274397445
 30
0.0
 10
211.0042800524
 20
171.0586049429
 30
0.0
 10
211.0040500075
 20
171.0821290724
 30
0.0
 10
211.0042036339
 20
171.0978388107
 30
0.0
 10
211.0043580595
 20
171.1056920839
 30
0.0
  0
SPLINE
  5
427
100
AcDbEntity
  8
0
100
AcDbSpline
 62
4
  6
CONTINUOUS
 70
0
 71
3
 72
45
 73
41
 74
0
 42
0.0000001
 43
0.0000001
 44
0.0000000001
 40
0.0
 40
0.0
 40
0.0
 40
0.0
 40
0.0327753316
 40
0.0653607799
 40
0.1294695153
 40
0.1916615624
 40
0.2517551939
 40
0.2812080058
 40
0.3104482687
 40
0.3397209958
 40
0.3693461308
 40
0.3997127012
 40
0.4153193927
 40
0.4312816274
 40
0.4476605973
 40
0.4645185401
 40
0.4731476497
 40
0.4819199951
 40
0.490843391
 40
0.4953642767
 40
0.4999258378
 40
0.5044915434
 40
0.509016508
 40
0.5179478641
 40
0.5267279046
 40
0.5353644426
 40
0.5522364383
 40
0.5686283832
 40
0.5846025169
 40
0.600220042
 40
0.6306051739
 40
0.6602449694
 40
0.689528871
 40
0.7187773314
 40
0.7482359105
 40
0.80833579
 40
0.8705300022
 40
0.9346391915
 40
0.9672246671
 40
1.0
 40
1.0
 40
1.0
 40
1.0
 10
211.3128073763
 20
171.082129114
 30
0.0
 10
211.312807376
 20
171.0610065207
 30
0.0
 10
211.3140335179
 20
171.0188837107
 30
0.0
 10
211.3214916212
 20
170.9357558484
 30
0.0
 10
211.3402580606
 20
170.8347731065
 30
0.0
 10
211.3790900749
 20
170.7206379933
 30
0.0
 10
211.4262607131
 20
170.6342528353
 30
0.0
 10
211.4729880487
 20
170.57346339
 30
0.0
 10
211.512418237
 20
170.5325658153
 30
0.0
 10
211.556555861
 20
170.4966003735
 30
0.0
 10
211.605491379
 20
170.4660826166
 30
0.0
 10
211.6499450938
 20
170.4458056951
 30
0.0
 10
211.6876963828
 20
170.4327969161
 30
0.0
 10
211.7175089687
 20
170.4246077704
 30
0.0
 10
211.7485635937
 20
170.4181407166
 30
0.0
 10
211.775278061
 20
170.4142660995
 30
0.0
 10
211.7972456639
 20
170.4120670254
 30
0.0
 10
211.814168221
 20
170.4108712635
 30
0.0
 10
211.8284729282
 20
170.4102725336
 30
0.0
 10
211.8400727023
 20
170.410031164
 30
0.0
 10
211.8488669044
 20
170.4099708029
 30
0.0
 10
211.8576637344
 20
170.4100311731
 30
0.0
 10
211.8692739384
 20
170.4102725264
 30
0.0
 10
211.8835913708
 20
170.4108712583
 30
0.0
 10
211.9005288373
 20
170.4120670133
 30
0.0
 10
211.9225153341
 20
170.4142660621
 30
0.0
 10
211.9492522337
 20
170.4181406022
 30
0.0
 10
211.9803324785
 20
170.4246076003
 30
0.0
 10
212.010168932
 20
170.4327966853
 30
0.0
 10
212.0479484987
 20
170.4458050343
 30
0.0
 10
212.0924338238
 20
170.4660810061
 30
0.0
 10
212.1414032824
 20
170.4965984786
 30
0.0
 10
212.1855693522
 20
170.5325638499
 30
0.0
 10
212.2250228887
 20
170.5734615623
 30
0.0
 10
212.2717738497
 20
170.6342494251
 30
0.0
 10
212.3189655986
 20
170.7206342623
 30
0.0
 10
212.3578106285
 20
170.8347715255
 30
0.0
 10
212.3765806667
 20
170.9357555647
 30
0.0
 10
212.3840394582
 20
171.0188836868
 30
0.0
 10
212.3852656013
 20
171.0610065184
 30
0.0
 10
212.3852656009
 20
171.082129114
 30
0.0
  0
SPLINE
  5
428
100
AcDbEntity
  8
0
100
AcDbSpline
 62
4
  6
CONTINUOUS
 70
0
 71
3
 72
43
 73
39
 74
0
 42
0.0000001
 43
0.0000001
 44
0.0000000001
 40
0.0
 40
0.0
 40
0.0
 40
0.0
 40
0.0586144335
 40
0.1172921053
 40
0.1744081959
 40
0.2295425524
 40
0.2568443179
 40
0.2844967265
 40
0.3131366213
 40
0.343540461
 40
0.3765650853
 40
0.3943438395
 40
0.4131037591
 40
0.4329494769
 40
0.4539823117
 40
0.464975429
 40
0.4763016532
 40
0.4879726388
 40
0.4939410899
 40
0.5
 40
0.5060589101
 40
0.5120273612
 40
0.5236983468
 40
0.535024571
 40
0.5460176883
 40
0.5670505231
 40
0.5868962409
 40
0.6056561605
 40
0.6234349147
 40
0.656459539
 40
0.6868633787
 40
0.7155032735
 40
0.7431556821
 40
0.7704574476
 40
0.8255918041
 40
0.8827078947
 40
0.9413855665
 40
1.0
 40
1.0
 40
1.0
 40
1.0
 10
211.3868769293
 20
164.9362510231
 30
0.0
 10
211.3868769293
 20
164.9062219254
 30
0.0
 10
211.3873592973
 20
164.8461217825
 30
0.0
 10
211.3936515294
 20
164.7568788373
 30
0.0
 10
211.4098133001
 20
164.6705352594
 30
0.0
 10
211.4358489614
 20
164.603224398
 30
0.0
 10
211.4661870506
 20
164.5554718216
 30
0.0
 10
211.4942985331
 20
164.5229409143
 30
0.0
 10
211.5283776446
 20
164.4941662818
 30
0.0
 10
211.5689108859
 20
164.4696827712
 30
0.0
 10
211.6074715489
 20
164.4536676585
 30
0.0
 10
211.6415895795
 20
164.4433074875
 30
0.0
 10
211.6697247147
 20
164.4366749992
 30
0.0
 10
211.6998406579
 20
164.4314290444
 30
0.0
 10
211.7262444637
 20
164.4283054931
 30
0.0
 10
211.7483843779
 20
164.4265213228
 30
0.0
 10
211.7657724562
 20
164.4255441284
 30
0.0
 10
211.7806053646
 20
164.4250565246
 30
0.0
 10
211.7927449984
 20
164.4248593225
 30
0.0
 10
211.8020109352
 20
164.4248101131
 30
0.0
 10
211.8112768721
 20
164.4248593225
 30
0.0
 10
211.8234165059
 20
164.4250565246
 30
0.0
 10
211.8382494143
 20
164.4255441284
 30
0.0
 10
211.8556374926
 20
164.4265213228
 30
0.0
 10
211.8777774068
 20
164.4283054931
 30
0.0
 10
211.9041812126
 20
164.4314290444
 30
0.0
 10
211.9342971558
 20
164.4366749992
 30
0.0
 10
211.962432291
 20
164.4433074875
 30
0.0
 10
211.9965503216
 20
164.4536676585
 30
0.0
 10
212.0351109846
 20
164.4696827712
 30
0.0
 10
212.0756442259
 20
164.4941662818
 30
0.0
 10
212.1097233374
 20
164.5229409143
 30
0.0
 10
212.1378348199
 20
164.5554718216
 30
0.0
 10
212.1681729091
 20
164.603224398
 30
0.0
 10
212.1942085704
 20
164.6705352594
 30
0.0
 10
212.2103703411
 20
164.7568788373
 30
0.0
 10
212.2166625732
 20
164.8461217825
 30
0.0
 10
212.2171449412
 20
164.9062219254
 30
0.0
 10
212.2171449412
 20
164.9362510231
 30
0.0
  0
SPLINE
  5
429
100
AcDbEntity
  8
0
100
AcDbSpline
 62
4
  6
CONTINUOUS
 70
0
 71
3
 72
43
 73
39
 74
0
 42
0.0000001
 43
0.0000001
 44
0.0000000001
 40
0.0
 40
0.0
 40
0.0
 40
0.0
 40
0.0708464219
 40
0.134360004
 40
0.1930295075
 40
0.2495595206
 40
0.2778990717
 40
0.3066559543
 40
0.336090202
 40
0.3664249018
 40
0.3978459398
 40
0.4140156354
 40
0.4305106836
 40
0.4473450443
 40
0.4645309621
 40
0.4732594758
 40
0.4820797499
 40
0.4909928916
 40
0.4954846488
 40
0.5
 40
0.5045153512
 40
0.5090071084
 40
0.5179202501
 40
0.5267405242
 40
0.5354690379
 40
0.5526549557
 40
0.5694893164
 40
0.5859843646
 40
0.6021540602
 40
0.6335750982
 40
0.663909798
 40
0.6933440457
 40
0.7221009283
 40
0.7504404794
 40
0.8069704925
 40
0.865639996
 40
0.9291535781
 40
1.0
 40
1.0
 40
1.0
 40
1.0
 10
212.5258254967
 20
164.8349652158
 30
0.0
 10
212.5258254967
 20
164.7818108509
 30
0.0
 10
212.5182858004
 20
164.6806904317
 30
0.0
 10
212.479975438
 20
164.5399799274
 30
0.0
 10
212.4166573989
 20
164.4204367702
 30
0.0
 10
212.3443931552
 20
164.3391114148
 30
0.0
 10
212.2774007557
 20
164.2861460953
 30
0.0
 10
212.2222025093
 20
164.251715151
 30
0.0
 10
212.1623507531
 20
164.2226565144
 30
0.0
 10
212.0980680345
 20
164.1989381362
 30
0.0
 10
212.0415260524
 20
164.1837542929
 30
0.0
 10
211.9943940171
 20
164.1741926088
 30
0.0
 10
211.9577205085
 20
164.1682725906
 30
0.0
 10
211.9200916462
 20
164.1636726618
 30
0.0
 10
211.8881262357
 20
164.1609528381
 30
0.0
 10
211.8621093563
 20
164.1594259332
 30
0.0
 10
211.8422716175
 20
164.1586042581
 30
0.0
 10
211.8256008003
 20
164.1581951143
 30
0.0
 10
211.8121565439
 20
164.158031178
 30
0.0
 10
211.8020109353
 20
164.1579903048
 30
0.0
 10
211.7918653266
 20
164.158031178
 30
0.0
 10
211.7784210702
 20
164.1581951143
 30
0.0
 10
211.761750253
 20
164.1586042581
 30
0.0
 10
211.7419125142
 20
164.1594259332
 30
0.0
 10
211.7158956348
 20
164.1609528381
 30
0.0
 10
211.6839302243
 20
164.1636726618
 30
0.0
 10
211.646301362
 20
164.1682725906
 30
0.0
 10
211.6096278534
 20
164.1741926088
 30
0.0
 10
211.5624958181
 20
164.1837542929
 30
0.0
 10
211.505953836
 20
164.1989381362
 30
0.0
 10
211.4416711174
 20
164.2226565144
 30
0.0
 10
211.3818193612
 20
164.251715151
 30
0.0
 10
211.3266211148
 20
164.2861460953
 30
0.0
 10
211.2596287153
 20
164.3391114148
 30
0.0
 10
211.1873644716
 20
164.4204367702
 30
0.0
 10
211.1240464325
 20
164.5399799274
 30
0.0
 10
211.0857360701
 20
164.6806904317
 30
0.0
 10
211.0781963738
 20
164.7818108509
 30
0.0
 10
211.0781963738
 20
164.8349652158
 30
0.0
  0
SPLINE
  5
42A
100
AcDbEntity
  8
0
100
AcDbSpline
 62
4
  6
CONTINUOUS
 70
0
 71
3
 72
35
 73
31
 74
0
 42
0.0000001
 43
0.0000001
 44
0.0000000001
 40
0.0
 40
0.0
 40
0.0
 40
0.0
 40
0.0803499034
 40
0.1512844784
 40
0.2168128398
 40
0.2807098623
 40
0.3459347485
 40
0.3797036993
 40
0.4144121551
 40
0.4501369109
 40
0.4869076437
 40
0.5056860209
 40
0.5247196828
 40
0.5440026513
 40
0.5537355575
 40
0.5635278383
 40
0.5742303702
 40
0.584724912
 40
0.6051051103
 40
0.6247009515
 40
0.6435448085
 40
0.6791019623
 40
0.7120515792
 40
0.7426699158
 40
0.7712386335
 40
0.823285339
 40
0.8704668934
 40
0.9147392161
 40
0.9576019438
 40
1.0
 40
1.0
 40
1.0
 40
1.0
 10
213.0832419462
 20
164.7881119172
 30
0.0
 10
213.0832419462
 20
164.7565371011
 30
0.0
 10
213.0883085488
 20
164.696826477
 30
0.0
 10
213.1143735094
 20
164.6148780062
 30
0.0
 10
213.1566808532
 20
164.5474405922
 30
0.0
 10
213.2128877835
 20
164.4944577936
 30
0.0
 10
213.2686520653
 20
164.4620264954
 30
0.0
 10
213.317396166
 20
164.4422859738
 30
0.0
 10
213.3565853918
 20
164.4302387187
 30
0.0
 10
213.3977344725
 20
164.4210414117
 30
0.0
 10
213.4332328503
 20
164.4157071155
 30
0.0
 10
213.4623945789
 20
164.4127417483
 30
0.0
 10
213.4847785238
 20
164.4111570769
 30
0.0
 10
213.5036469338
 20
164.4103755712
 30
0.0
 10
213.5188944556
 20
164.4100642407
 30
0.0
 10
213.5307730311
 20
164.4099839809
 30
0.0
 10
213.5429509737
 20
164.4100758307
 30
0.0
 10
213.5592855546
 20
164.4104568696
 30
0.0
 10
213.5791004819
 20
164.4113925806
 30
0.0
 10
213.6021440121
 20
164.4132606741
 30
0.0
 10
213.6310307508
 20
164.4166325772
 30
0.0
 10
213.6648950229
 20
164.4224641004
 30
0.0
 10
213.7026671833
 20
164.4321603687
 30
0.0
 10
213.7368620521
 20
164.4442289367
 30
0.0
 10
213.7765618083
 20
164.4626374216
 30
0.0
 10
213.8188480266
 20
164.490489407
 30
0.0
 10
213.8581363342
 20
164.5316322357
 30
0.0
 10
213.8850037585
 20
164.5776160015
 30
0.0
 10
213.9003209884
 20
164.6265640024
 30
0.0
 10
213.9035191813
 20
164.6601743195
 30
0.0
 10
213.9035191813
 20
164.676835333
 30
0.0
  0
SPLINE
  5
42B
100
AcDbEntity
  8
0
100
AcDbSpline
 62
4
  6
CONTINUOUS
 70
0
 71
3
 72
12
 73
8
 74
0
 42
0.0000001
 43
0.0000001
 44
0.0000000001
 40
0.0
 40
0.0
 40
0.0
 40
0.0
 40
0.3147431054
 40
0.4459684146
 40
0.566428536
 40
0.7892829293
 40
1.0
 40
1.0
 40
1.0
 40
1.0
 10
213.9035191813
 20
164.676835333
 30
0.0
 10
213.9035191813
 20
164.7063081855
 30
0.0
 10
213.8985547629
 20
164.7487633694
 30
0.0
 10
213.8777509194
 20
164.7978518796
 30
0.0
 10
213.853030649
 20
164.8350696111
 30
0.0
 10
213.8131909434
 20
164.8698060768
 30
0.0
 10
213.7762377383
 20
164.8873871437
 30
0.0
 10
213.7577916422
 20
164.8943931129
 30
0.0
  0
SPLINE
  5
42C
100
AcDbEntity
  8
0
100
AcDbSpline
 62
4
  6
CONTINUOUS
 70
0
 71
3
 72
11
 73
7
 74
0
 42
0.0000001
 43
0.0000001
 44
0.0000000001
 40
0.0
 40
0.0
 40
0.0
 40
0.0
 40
0.1934697565
 40
0.4180643575
 40
0.6837169281
 40
1.0
 40
1.0
 40
1.0
 40
1.0
 10
213.7577916422
 20
164.8943931129
 30
0.0
 10
213.7248411231
 20
164.9068757608
 30
0.0
 10
213.6522254023
 20
164.9300732811
 30
0.0
 10
213.5318581606
 20
164.9619679516
 30
0.0
 10
213.3894130845
 20
164.9978339678
 30
0.0
 10
213.2869186941
 20
165.0248339752
 30
0.0
 10
213.2313810521
 20
165.040120652
 30
0.0
  0
SPLINE
  5
42D
100
AcDbEntity
  8
0
100
AcDbSpline
 62
4
  6
CONTINUOUS
 70
0
 71
3
 72
41
 73
37
 74
0
 42
0.0000001
 43
0.0000001
 44
0.0000000001
 40
0.0
 40
0.0
 40
0.0
 40
0.0
 40
0.1110425428
 40
0.1571366974
 40
0.1990770472
 40
0.2383976477
 40
0.2574982742
 40
0.2763787905
 40
0.2951319464
 40
0.3138241477
 40
0.3231626998
 40
0.3324995698
 40
0.341836368
 40
0.3511734242
 40
0.3601244002
 40
0.368933285
 40
0.3861539863
 40
0.4028995433
 40
0.4192312712
 40
0.4508748393
 40
0.4815536034
 40
0.5116703569
 40
0.5415636013
 40
0.6015852084
 40
0.6630107361
 40
0.7261579766
 40
0.7583047861
 40
0.7907082114
 40
0.8232613349
 40
0.8395591621
 40
0.8558488255
 40
0.8745676295
 40
0.89309215
 40
0.9295395118
 40
0.9651769578
 40
1.0
 40
1.0
 40
1.0
 40
1.0
 10
213.2313810521
 20
165.040120652
 30
0.0
 10
213.1658182392
 20
165.0578616191
 30
0.0
 10
213.0743358139
 20
165.0931072001
 30
0.0
 10
212.9757921147
 20
165.1656374876
 30
0.0
 10
212.9223682027
 20
165.2229817907
 30
0.0
 10
212.889698921
 20
165.2754220913
 30
0.0
 10
212.8705104704
 20
165.3186929811
 30
0.0
 10
212.8592609947
 20
165.3515685697
 30
0.0
 10
212.8508431562
 20
165.3850139134
 30
0.0
 10
212.8460277156
 20
165.4132511618
 30
0.0
 10
212.8434072673
 20
165.4359605718
 30
0.0
 10
212.8420327421
 20
165.4530429116
 30
0.0
 10
212.8412257589
 20
165.4701600384
 30
0.0
 10
212.8409690961
 20
165.4870578873
 30
0.0
 10
212.8412074533
 20
165.5036328003
 30
0.0
 10
212.8421409838
 20
165.525011283
 30
0.0
 10
212.8444427973
 20
165.5510909123
 30
0.0
 10
212.8490224119
 20
165.5815342509
 30
0.0
 10
212.8573497171
 20
165.6202573323
 30
0.0
 10
212.8718992191
 20
165.6662647759
 30
0.0
 10
212.8958035432
 20
165.7176717509
 30
0.0
 10
212.9254573623
 20
165.7647269695
 30
0.0
 10
212.9719709282
 20
165.8217318223
 30
0.0
 10
213.0426245141
 20
165.8827714612
 30
0.0
 10
213.1415088403
 20
165.9384922949
 30
0.0
 10
213.2321288256
 20
165.9710273883
 30
0.0
 10
213.3081367593
 20
165.9892276456
 30
0.0
 10
213.3667723404
 20
165.9989970717
 30
0.0
 10
213.416273123
 20
166.0038566876
 30
0.0
 10
213.4560757233
 20
166.0058044283
 30
0.0
 10
213.4874594537
 20
166.006300577
 30
0.0
 10
213.5202055517
 20
166.0057471279
 30
0.0
 10
213.5652297714
 20
166.0034909276
 30
0.0
 10
213.6204152313
 20
165.9978730894
 30
0.0
 10
213.684889851
 20
165.9865898641
 30
0.0
 10
213.7266903337
 20
165.9759643687
 30
0.0
 10
213.7471172292
 20
165.9698792534
 30
0.0
  0
SPLINE
  5
42E
100
AcDbEntity
  8
0
100
AcDbSpline
 62
4
  6
CONTINUOUS
 70
0
 71
3
 72
15
 73
11
 74
0
 42
0.0000001
 43
0.0000001
 44
0.0000000001
 40
0.0
 40
0.0
 40
0.0
 40
0.0
 40
0.1435789855
 40
0.2701353723
 40
0.3861228976
 40
0.498186174
 40
0.6121669347
 40
0.7323321555
 40
0.8612314614
 40
1.0
 40
1.0
 40
1.0
 40
1.0
 10
213.8542543158
 20
165.4428523142
 30
0.0
 10
213.8525303601
 20
165.4693130298
 30
0.0
 10
213.8455539061
 20
165.5190263473
 30
0.0
 10
213.8216562751
 20
165.5867950986
 30
0.0
 10
213.7858139331
 20
165.6423829115
 30
0.0
 10
213.7392017111
 20
165.6859194142
 30
0.0
 10
213.6833297236
 20
165.7179934152
 30
0.0
 10
213.6195007939
 20
165.7396072493
 30
0.0
 10
213.5486925737
 20
165.7517871621
 30
0.0
 10
213.4991996649
 20
165.7541166913
 30
0.0
 10
213.4735712647
 20
165.7541166913
 30
0.0
  0
SPLINE
  5
42F
100
AcDbEntity
  8
0
100
AcDbSpline
 62
4
  6
CONTINUOUS
 70
0
 71
3
 72
35
 73
31
 74
0
 42
0.0000001
 43
0.0000001
 44
0.0000000001
 40
0.0
 40
0.0
 40
0.0
 40
0.0
 40
0.0705299905
 40
0.1429353516
 40
0.2150385483
 40
0.2853286446
 40
0.3534186564
 40
0.3870528376
 40
0.4208400208
 40
0.4553155248
 40
0.4911503314
 40
0.5098278594
 40
0.5291391566
 40
0.5491881743
 40
0.5595233441
 40
0.5700819997
 40
0.5774412218
 40
0.5847026697
 40
0.5989474259
 40
0.6128498077
 40
0.6264432264
 40
0.6528314351
 40
0.678395192
 40
0.7034088435
 40
0.728137248
 40
0.777644544
 40
0.8286422713
 40
0.8822987168
 40
0.9393120433
 40
1.0
 40
1.0
 40
1.0
 40
1.0
 10
213.4735712647
 20
165.7541166913
 30
0.0
 10
213.4552020231
 20
165.7541166913
 30
0.0
 10
213.417951269
 20
165.7524081935
 30
0.0
 10
213.3624269212
 20
165.7443428107
 30
0.0
 10
213.3082370724
 20
165.729794555
 30
0.0
 10
213.257760604
 20
165.7077914575
 30
0.0
 10
213.2205927897
 20
165.6820457616
 30
0.0
 10
213.1957611906
 20
165.6568349732
 30
0.0
 10
213.179826134
 20
165.6355001824
 30
0.0
 10
213.1668785522
 20
165.61156936
 30
0.0
 10
213.1589776741
 20
165.5896830892
 30
0.0
 10
213.154442659
 20
165.5709849217
 30
0.0
 10
213.1519339178
 20
165.5560656639
 30
0.0
 10
213.1506746695
 20
165.5431735068
 30
0.0
 10
213.1501618279
 20
165.5325209472
 30
0.0
 10
213.1500472883
 20
165.5251620727
 30
0.0
 10
213.1501171226
 20
165.5186041285
 30
0.0
 10
213.1503593505
 20
165.5110896558
 30
0.0
 10
213.1509601542
 20
165.5018839248
 30
0.0
 10
213.1521638618
 20
165.4910755071
 30
0.0
 10
213.1543735228
 20
165.4772124634
 30
0.0
 10
213.1582743424
 20
165.4605619775
 30
0.0
 10
213.1648060374
 20
165.4415744678
 30
0.0
 10
213.1730810427
 20
165.42375248
 30
0.0
 10
213.1863407004
 20
165.40151763
 30
0.0
 10
213.2072511397
 20
165.3761912855
 30
0.0
 10
213.2381939678
 20
165.3503135041
 30
0.0
 10
213.2744119954
 20
165.3285629077
 30
0.0
 10
213.3153818897
 20
165.3106249901
 30
0.0
 10
213.3446389584
 20
165.3013012561
 30
0.0
 10
213.3598831137
 20
165.2971247752
 30
0.0
  0
SPLINE
  5
430
100
AcDbEntity
  8
0
100
AcDbSpline
 62
4
  6
CONTINUOUS
 70
0
 71
3
 72
15
 73
11
 74
0
 42
0.0000001
 43
0.0000001
 44
0.0000000001
 40
0.0
 40
0.0
 40
0.0
 40
0.0
 40
0.0509007683
 40
0.1533411947
 40
0.2921366896
 40
0.4521026268
 40
0.6180546236
 40
0.7748088675
 40
0.9071830223
 40
1.0
 40
1.0
 40
1.0
 40
1.0
 10
213.3598831137
 20
165.2971247752
 30
0.0
 10
213.368511184
 20
165.2947766294
 30
0.0
 10
213.3945829282
 20
165.287997806
 30
0.0
 10
213.444212166
 20
165.2749329693
 30
0.0
 10
213.5123909933
 20
165.2570681789
 30
0.0
 10
213.5913382586
 20
165.2362829746
 30
0.0
 10
213.6733094586
 20
165.2145927611
 30
0.0
 10
213.7505535272
 20
165.1939843548
 30
0.0
 10
213.8153082361
 20
165.1764129661
 30
0.0
 10
213.8534295743
 20
165.1658309244
 30
0.0
 10
213.8690682264
 20
165.1612157583
 30
0.0
  0
SPLINE
  5
431
100
AcDbEntity
  8
0
100
AcDbSpline
 62
4
  6
CONTINUOUS
 70
0
 71
3
 72
13
 73
9
 74
0
 42
0.0000001
 43
0.0000001
 44
0.0000000001
 40
0.0
 40
0.0
 40
0.0
 40
0.0
 40
0.1441616412
 40
0.2791785714
 40
0.4076775566
 40
0.5316606629
 40
0.7701678781
 40
1.0
 40
1.0
 40
1.0
 40
1.0
 10
213.8690682264
 20
165.1612157583
 30
0.0
 10
213.8969800556
 20
165.1528919042
 30
0.0
 10
213.9498937608
 20
165.1324801552
 30
0.0
 10
214.0209553554
 20
165.0900807155
 30
0.0
 10
214.0806800511
 20
165.0388581738
 30
0.0
 10
214.1444249989
 20
164.9623387847
 30
0.0
 10
214.1979248885
 20
164.8530300016
 30
0.0
 10
214.2125442463
 20
164.757894058
 30
0.0
 10
214.2125442463
 20
164.7114585427
 30
0.0
  0
SPLINE
  5
432
100
AcDbEntity
  8
0
100
AcDbSpline
 62
4
  6
CONTINUOUS
 70
0
 71
3
 72
33
 73
29
 74
0
 42
0.0000001
 43
0.0000001
 44
0.0000000001
 40
0.0
 40
0.0
 40
0.0
 40
0.0
 40
0.0659007294
 40
0.1251505414
 40
0.1814391119
 40
0.2375823282
 40
0.2952138357
 40
0.324818974
 40
0.3549298345
 40
0.3854946563
 40
0.4164300384
 40
0.4476280007
 40
0.4632881034
 40
0.4789651261
 40
0.4879411788
 40
0.4968632039
 40
0.5145425464
 40
0.5320002275
 40
0.5492340466
 40
0.5830229732
 40
0.6159270781
 40
0.6479897009
 40
0.6792905676
 40
0.7400635311
 40
0.7998775394
 40
0.8611078339
 40
0.9267438119
 40
1.0
 40
1.0
 40
1.0
 40
1.0
 10
214.2125442463
 20
164.7114585427
 30
0.0
 10
214.2125442463
 20
164.6653967386
 30
0.0
 10
214.203417402
 20
164.5773950977
 30
0.0
 10
214.1579906065
 20
164.4574336915
 30
0.0
 10
214.0865448547
 20
164.359336863
 30
0.0
 10
213.9945863788
 20
164.2824509132
 30
0.0
 10
213.9056015939
 20
164.2350214325
 30
0.0
 10
213.8288727957
 20
164.2058628346
 30
0.0
 10
213.7682621546
 20
164.1880765709
 30
0.0
 10
213.7056450102
 20
164.1744588923
 30
0.0
 10
213.6415205696
 20
164.1648837122
 30
0.0
 10
213.5873147417
 20
164.1601809973
 30
0.0
 10
213.5436405945
 20
164.1583112895
 30
0.0
 10
213.5154618914
 20
164.157919074
 30
0.0
 10
213.4919942414
 20
164.1580978517
 30
0.0
 10
213.467132682
 20
164.1586602331
 30
0.0
 10
213.4363641734
 20
164.1600698593
 30
0.0
 10
213.399863022
 20
164.1629139733
 30
0.0
 10
213.3522855469
 20
164.1682145701
 30
0.0
 10
213.2943412697
 20
164.1777005701
 30
0.0
 10
213.2271770014
 20
164.1939079848
 30
0.0
 10
213.1631759379
 20
164.2149591818
 30
0.0
 10
213.0833709381
 20
164.2492289594
 30
0.0
 10
212.9920423257
 20
164.304907794
 30
0.0
 10
212.8998897395
 20
164.3940597905
 30
0.0
 10
212.8298270978
 20
164.5056779404
 30
0.0
 10
212.7854143634
 20
164.6395862707
 30
0.0
 10
212.7754082714
 20
164.7369159647
 30
0.0
 10
212.7745613907
 20
164.7881119172
 30
0.0
  0
SPLINE
  5
433
100
AcDbEntity
  8
0
100
AcDbSpline
 62
4
  6
CONTINUOUS
 70
0
 71
3
 72
15
 73
11
 74
0
 42
0.0000001
 43
0.0000001
 44
0.0000000001
 40
0.0
 40
0.0
 40
0.0
 40
0.0
 40
0.1467367572
 40
0.2811035727
 40
0.4047236449
 40
0.5203549686
 40
0.6321154661
 40
0.7453616879
 40
0.8660692096
 40
1.0
 40
1.0
 40
1.0
 40
1.0
 10
215.3384014509
 20
165.9640952611
 30
0.0
 10
215.3762353666
 20
165.9640952611
 30
0.0
 10
215.4488209521
 20
165.960197165
 30
0.0
 10
215.5516803135
 20
165.9405170173
 30
0.0
 10
215.6425394211
 20
165.9069525367
 30
0.0
 10
215.720142428
 20
165.8590287159
 30
0.0
 10
215.7828686687
 20
165.7963218561
 30
0.0
 10
215.8288558906
 20
165.7188872468
 30
0.0
 10
215.8566226768
 20
165.6273527326
 30
0.0
 10
215.8620559646
 20
165.5614447294
 30
0.0
 10
215.8620559646
 20
165.526912644
 30
0.0
  0
SPLINE
  5
434
100
AcDbEntity
  8
0
100
AcDbSpline
 62
4
  6
CONTINUOUS
 70
0
 71
3
 72
11
 73
7
 74
0
 42
0.0000001
 43
0.0000001
 44
0.0000000001
 40
0.0
 40
0.0
 40
0.0
 40
0.0
 40
0.2605975523
 40
0.5009941477
 40
0.7414408314
 40
1.0
 40
1.0
 40
1.0
 40
1.0
 10
215.8620559646
 20
165.526912644
 30
0.0
 10
215.8620559646
 20
165.4851924653
 30
0.0
 10
215.8523043598
 20
165.4042941231
 30
0.0
 10
215.8016162445
 20
165.294682936
 30
0.0
 10
215.7185908276
 20
165.2076358384
 30
0.0
 10
215.6482283591
 20
165.1676193671
 30
0.0
 10
215.6102194846
 20
165.1512249814
 30
0.0
  0
SPLINE
  5
435
100
AcDbEntity
  8
0
100
AcDbSpline
 62
4
  6
CONTINUOUS
 70
0
 71
3
 72
14
 73
10
 74
0
 42
0.0000001
 43
0.0000001
 44
0.0000000001
 40
0.0
 40
0.0
 40
0.0
 40
0.0
 40
0.1295004812
 40
0.2512355287
 40
0.3685572729
 40
0.484931415
 40
0.6036691822
 40
0.7276895823
 40
1.0
 40
1.0
 40
1.0
 40
1.0
 10
215.6102194846
 20
165.1464018477
 30
0.0
 10
215.6360791361
 20
165.1407450489
 30
0.0
 10
215.6855384484
 20
165.1259085959
 30
0.0
 10
215.7531203977
 20
165.0916925479
 30
0.0
 10
215.8109118365
 20
165.0469062917
 30
0.0
 10
215.8585123117
 20
164.9922401235
 30
0.0
 10
215.8956608886
 20
164.9284373385
 30
0.0
 10
215.9321555387
 20
164.8292342824
 30
0.0
 10
215.9412931608
 20
164.7473120918
 30
0.0
 10
215.9412931608
 20
164.6916492436
 30
0.0
  0
SPLINE
  5
436
100
AcDbEntity
  8
0
100
AcDbSpline
 62
4
  6
CONTINUOUS
 70
0
 71
3
 72
15
 73
11
 74
0
 42
0.0000001
 43
0.0000001
 44
0.0000000001
 40
0.0
 40
0.0
 40
0.0
 40
0.0
 40
0.1097215413
 40
0.215268977
 40
0.3199499504
 40
0.4282489545
 40
0.5453647329
 40
0.6765606067
 40
0.8266845695
 40
1.0
 40
1.0
 40
1.0
 40
1.0
 10
215.9412931608
 20
164.6916492436
 30
0.0
 10
215.9412931608
 20
164.6579929809
 30
0.0
 10
215.9356750989
 20
164.5917450808
 30
0.0
 10
215.9075548878
 20
164.4969342927
 30
0.0
 10
215.8586815833
 20
164.4112540278
 30
0.0
 10
215.7881792492
 20
164.3372250371
 30
0.0
 10
215.6957198536
 20
164.2771180611
 30
0.0
 10
215.5810759997
 20
164.2326860989
 30
0.0
 10
215.4437522871
 20
164.2053891077
 30
0.0
 10
215.3443668555
 20
164.2000341179
 30
0.0
 10
215.2912036427
 20
164.2000341179
 30
0.0
  0
SPLINE
  5
437
100
AcDbEntity
  8
0
100
AcDbSpline
 62
4
  6
CONTINUOUS
 70
0
 71
3
 72
14
 73
10
 74
0
 42
0.0000001
 43
0.0000001
 44
0.0000000001
 40
0.0
 40
0.0
 40
0.0
 40
0.0
 40
0.259746517
 40
0.3802093339
 40
0.4969406341
 40
0.6131143855
 40
0.7326940794
 40
0.8601386005
 40
1.0
 40
1.0
 40
1.0
 40
1.0
 10
215.2939597191
 20
165.2254667891
 30
0.0
 10
215.3287137474
 20
165.2254667891
 30
0.0
 10
215.380333773
 20
165.2325234524
 30
0.0
 10
215.4414889064
 20
165.2595022019
 30
0.0
 10
215.4803116356
 20
165.2871258944
 30
0.0
 10
215.5120897398
 20
165.3225097735
 30
0.0
 10
215.5357746322
 20
165.3654180631
 30
0.0
 10
215.550390893
 20
165.4154663545
 30
0.0
 10
215.5533754091
 20
165.4513551433
 30
0.0
 10
215.5533754091
 20
165.4700685685
 30
0.0
  0
SPLINE
  5
438
100
AcDbEntity
  8
0
100
AcDbSpline
 62
4
  6
CONTINUOUS
 70
0
 71
3
 72
15
 73
11
 74
0
 42
0.0000001
 43
0.0000001
 44
0.0000000001
 40
0.0
 40
0.0
 40
0.0
 40
0.0
 40
0.1504373914
 40
0.27969093
 40
0.3940390562
 40
0.5012250855
 40
0.6094379785
 40
0.7256948695
 40
0.8549058502
 40
1.0
 40
1.0
 40
1.0
 40
1.0
 10
215.5533754091
 20
165.4700685685
 30
0.0
 10
215.5533754091
 20
165.4905971161
 30
0.0
 10
215.5511531339
 20
165.5288560473
 30
0.0
 10
215.5388928389
 20
165.5815516043
 30
0.0
 10
215.5177799474
 20
165.6250584002
 30
0.0
 10
215.4877857484
 20
165.6593526097
 30
0.0
 10
215.4495622276
 20
165.6844829955
 30
0.0
 10
215.4039251306
 20
165.7011749967
 30
0.0
 10
215.3512402539
 20
165.7104293841
 30
0.0
 10
215.3137591329
 20
165.7120865264
 30
0.0
 10
215.2939597191
 20
165.7120865264
 30
0.0
  0
SPLINE
  5
439
100
AcDbEntity
  8
0
100
AcDbSpline
 62
4
  6
CONTINUOUS
 70
0
 71
3
 72
35
 73
31
 74
0
 42
0.0000001
 43
0.0000001
 44
0.0000000001
 40
0.0
 40
0.0
 40
0.0
 40
0.0
 40
0.0726983419
 40
0.138522424
 40
0.1990807318
 40
0.2564396045
 40
0.3130428584
 40
0.3419160199
 40
0.3715560164
 40
0.4022533737
 40
0.434273365
 40
0.4508587966
 40
0.4678615708
 40
0.4853070834
 40
0.4942037879
 40
0.5032199533
 40
0.5119833669
 40
0.5206315304
 40
0.5375929436
 40
0.5541296002
 40
0.5702676744
 40
0.6014521363
 40
0.6313981102
 40
0.6603759832
 40
0.6886797063
 40
0.7444235328
 40
0.8012647616
 40
0.8615705961
 40
0.9273102341
 40
1.0
 40
1.0
 40
1.0
 40
1.0
 10
215.335989884
 20
164.4520428526
 30
0.0
 10
215.3582576237
 20
164.4520428526
 30
0.0
 10
215.4007785381
 20
164.4547402943
 30
0.0
 10
215.4605261637
 20
164.4683659935
 30
0.0
 10
215.5123854244
 20
164.4912462955
 30
0.0
 10
215.5557862771
 20
164.5232424283
 30
0.0
 10
215.5842024093
 20
164.5570843808
 30
0.0
 10
215.6019172441
 20
164.5876416871
 30
0.0
 10
215.61294927
 20
164.6127029645
 30
0.0
 10
215.6215765519
 20
164.6396943444
 30
0.0
 10
215.6266757643
 20
164.6634836034
 30
0.0
 10
215.6295575315
 20
164.683376946
 30
0.0
 10
215.6311239118
 20
164.6989350701
 30
0.0
 10
215.6319026708
 20
164.7121928222
 30
0.0
 10
215.6322159695
 20
164.7230192352
 30
0.0
 10
215.6322942481
 20
164.7311904189
 30
0.0
 10
215.6322163465
 20
164.7392854876
 30
0.0
 10
215.6319024133
 20
164.7498099547
 30
0.0
 10
215.6311237773
 20
164.7626999747
 30
0.0
 10
215.6295570906
 20
164.7778278992
 30
0.0
 10
215.6266741726
 20
164.7971797416
 30
0.0
 10
215.6215705952
 20
164.8203313478
 30
0.0
 10
215.6129386621
 20
164.8465980565
 30
0.0
 10
215.6019010916
 20
164.8709922841
 30
0.0
 10
215.584151547
 20
164.9007876763
 30
0.0
 10
215.5556628851
 20
164.933781419
 30
0.0
 10
215.5122675655
 20
164.9649131537
 30
0.0
 10
215.4604463435
 20
164.9871824105
 30
0.0
 10
215.4007429498
 20
165.0004557393
 30
0.0
 10
215.3582549969
 20
165.0030858755
 30
0.0
 10
215.335989884
 20
165.0030858755
 30
0.0
  0
SPLINE
  5
43A
100
AcDbEntity
  8
0
100
AcDbSpline
 62
4
  6
CONTINUOUS
 70
0
 71
3
 72
15
 73
11
 74
0
 42
0.0000001
 43
0.0000001
 44
0.0000000001
 40
0.0
 40
0.0
 40
0.0
 40
0.0
 40
0.1467277417
 40
0.2810824769
 40
0.4046857106
 40
0.5202971795
 40
0.632041042
 40
0.7452840834
 40
0.8660132813
 40
1.0
 40
1.0
 40
1.0
 40
1.0
 10
211.9553176843
 20
159.9990846832
 30
0.0
 10
211.9931514604
 20
159.9990846832
 30
0.0
 10
212.0657356108
 20
159.9951914965
 30
0.0
 10
212.1685942352
 20
159.9755297082
 30
0.0
 10
212.2594540465
 20
159.9419878001
 30
0.0
 10
212.3370594727
 20
159.8940834271
 30
0.0
 10
212.399788413
 20
159.831385372
 30
0.0
 10
212.44577617
 20
159.7539435831
 30
0.0
 10
212.4735410939
 20
159.6623823986
 30
0.0
 10
212.4789721981
 20
159.596450567
 30
0.0
 10
212.4789721981
 20
159.5619020661
 30
0.0
  0
SPLINE
  5
43B
100
AcDbEntity
  8
0
100
AcDbSpline
 62
4
  6
CONTINUOUS
 70
0
 71
3
 72
11
 73
7
 74
0
 42
0.0000001
 43
0.0000001
 44
0.0000000001
 40
0.0
 40
0.0
 40
0.0
 40
0.0
 40
0.2605975523
 40
0.5009941477
 40
0.7414408314
 40
1.0
 40
1.0
 40
1.0
 40
1.0
 10
212.4789721981
 20
159.5619020661
 30
0.0
 10
212.4789721981
 20
159.5201818873
 30
0.0
 10
212.4692205933
 20
159.4392835452
 30
0.0
 10
212.4185324779
 20
159.3296723581
 30
0.0
 10
212.3355070611
 20
159.2426252604
 30
0.0
 10
212.2651445925
 20
159.2026087892
 30
0.0
 10
212.2271357181
 20
159.1862144034
 30
0.0
  0
SPLINE
  5
43C
100
AcDbEntity
  8
0
100
AcDbSpline
 62
4
  6
CONTINUOUS
 70
0
 71
3
 72
14
 73
10
 74
0
 42
0.0000001
 43
0.0000001
 44
0.0000000001
 40
0.0
 40
0.0
 40
0.0
 40
0.0
 40
0.1295004812
 40
0.2512355287
 40
0.3685572729
 40
0.484931415
 40
0.6036691822
 40
0.7276895823
 40
1.0
 40
1.0
 40
1.0
 40
1.0
 10
212.2271357181
 20
159.1813912697
 30
0.0
 10
212.2529953696
 20
159.175734471
 30
0.0
 10
212.3024546819
 20
159.1608980179
 30
0.0
 10
212.3700366312
 20
159.12668197
 30
0.0
 10
212.4278280699
 20
159.0818957138
 30
0.0
 10
212.4754285452
 20
159.0272295456
 30
0.0
 10
212.5125771221
 20
158.9634267606
 30
0.0
 10
212.5490717722
 20
158.8642237045
 30
0.0
 10
212.5582093943
 20
158.7823015139
 30
0.0
 10
212.5582093943
 20
158.7266386657
 30
0.0
  0
SPLINE
  5
43D
100
AcDbEntity
  8
0
100
AcDbSpline
 62
4
  6
CONTINUOUS
 70
0
 71
3
 72
15
 73
11
 74
0
 42
0.0000001
 43
0.0000001
 44
0.0000000001
 40
0.0
 40
0.0
 40
0.0
 40
0.0
 40
0.1097215413
 40
0.215268977
 40
0.3199499504
 40
0.4282489545
 40
0.5453647329
 40
0.6765606067
 40
0.8266845695
 40
1.0
 40
1.0
 40
1.0
 40
1.0
 10
212.5582093943
 20
158.7266386657
 30
0.0
 10
212.5582093943
 20
158.692982403
 30
0.0
 10
212.5525913324
 20
158.6267345029
 30
0.0
 10
212.5244711213
 20
158.5319237147
 30
0.0
 10
212.4755978168
 20
158.4462434499
 30
0.0
 10
212.4050954827
 20
158.3722144592
 30
0.0
 10
212.3126360871
 20
158.3121074832
 30
0.0
 10
212.1979922332
 20
158.2676755209
 30
0.0
 10
212.0606685206
 20
158.2403785298
 30
0.0
 10
211.961283089
 20
158.2350235399
 30
0.0
 10
211.9081198762
 20
158.2350235399
 30
0.0
  0
SPLINE
  5
43E
100
AcDbEntity
  8
0
100
AcDbSpline
 62
4
  6
CONTINUOUS
 70
0
 71
3
 72
14
 73
10
 74
0
 42
0.0000001
 43
0.0000001
 44
0.0000000001
 40
0.0
 40
0.0
 40
0.0
 40
0.0
 40
0.259746517
 40
0.3802093339
 40
0.4969406341
 40
0.6131143855
 40
0.7326940794
 40
0.8601386005
 40
1.0
 40
1.0
 40
1.0
 40
1.0
 10
211.9108759526
 20
159.2604562111
 30
0.0
 10
211.9456299809
 20
159.2604562111
 30
0.0
 10
211.9972500065
 20
159.2675128744
 30
0.0
 10
212.0584051399
 20
159.294491624
 30
0.0
 10
212.0972278691
 20
159.3221153164
 30
0.0
 10
212.1290059733
 20
159.3574991956
 30
0.0
 10
212.1526908657
 20
159.4004074852
 30
0.0
 10
212.1673071264
 20
159.4504557766
 30
0.0
 10
212.1702916426
 20
159.4863445653
 30
0.0
 10
212.1702916426
 20
159.5050579906
 30
0.0
  0
SPLINE
  5
43F
100
AcDbEntity
  8
0
100
AcDbSpline
 62
4
  6
CONTINUOUS
 70
0
 71
3
 72
15
 73
11
 74
0
 42
0.0000001
 43
0.0000001
 44
0.0000000001
 40
0.0
 40
0.0
 40
0.0
 40
0.0
 40
0.1504373914
 40
0.27969093
 40
0.3940390562
 40
0.5012250855
 40
0.6094379785
 40
0.7256948695
 40
0.8549058502
 40
1.0
 40
1.0
 40
1.0
 40
1.0
 10
212.1702916426
 20
159.5050579906
 30
0.0
 10
212.1702916426
 20
159.5255865382
 30
0.0
 10
212.1680693674
 20
159.5638454693
 30
0.0
 10
212.1558090724
 20
159.6165410263
 30
0.0
 10
212.1346961809
 20
159.6600478223
 30
0.0
 10
212.1047019819
 20
159.6943420317
 30
0.0
 10
212.0664784611
 20
159.7194724175
 30
0.0
 10
212.0208413641
 20
159.7361644187
 30
0.0
 10
211.9681564873
 20
159.7454188062
 30
0.0
 10
211.9306753664
 20
159.7470759484
 30
0.0
 10
211.9108759526
 20
159.7470759484
 30
0.0
  0
SPLINE
  5
440
100
AcDbEntity
  8
0
100
AcDbSpline
 62
4
  6
CONTINUOUS
 70
0
 71
3
 72
35
 73
31
 74
0
 42
0.0000001
 43
0.0000001
 44
0.0000000001
 40
0.0
 40
0.0
 40
0.0
 40
0.0
 40
0.0726863829
 40
0.1385002028
 40
0.1990513803
 40
0.2564088811
 40
0.31301989
 40
0.3419013853
 40
0.3715531121
 40
0.4022658392
 40
0.4343050157
 40
0.4509015073
 40
0.4679163369
 40
0.4853749095
 40
0.4942785225
 40
0.5033018501
 40
0.512063819
 40
0.5207105568
 40
0.5376691738
 40
0.5542031043
 40
0.570338518
 40
0.601517839
 40
0.6314588762
 40
0.660431972
 40
0.6887310291
 40
0.7444656659
 40
0.8012975242
 40
0.8615934169
 40
0.9273222173
 40
1.0
 40
1.0
 40
1.0
 40
1.0
 10
211.9529061175
 20
158.4868600199
 30
0.0
 10
211.9751738651
 20
158.4868600199
 30
0.0
 10
212.017694999
 20
158.4895574421
 30
0.0
 10
212.0774434127
 20
158.5031852925
 30
0.0
 10
212.1293038981
 20
158.5260724525
 30
0.0
 10
212.1727057145
 20
158.5580825149
 30
0.0
 10
212.2011203304
 20
158.5919413802
 30
0.0
 10
212.2188341288
 20
158.6225158533
 30
0.0
 10
212.2298660191
 20
158.6475939833
 30
0.0
 10
212.238493147
 20
158.6746051851
 30
0.0
 10
212.2435921205
 20
158.6984128643
 30
0.0
 10
212.2464738049
 20
158.7183226569
 30
0.0
 10
212.2480401686
 20
158.7338945082
 30
0.0
 10
212.2488189143
 20
158.7471642784
 30
0.0
 10
212.2491321977
 20
158.7580007926
 30
0.0
 10
212.2492104822
 20
158.7661771914
 30
0.0
 10
212.2491325863
 20
158.7742749097
 30
0.0
 10
212.2488186432
 20
158.7847993768
 30
0.0
 10
212.2480400119
 20
158.7976893967
 30
0.0
 10
212.2464733238
 20
158.8128173213
 30
0.0
 10
212.2435904063
 20
158.8321691636
 30
0.0
 10
212.2384868286
 20
158.8553207699
 30
0.0
 10
212.2298548956
 20
158.8815874785
 30
0.0
 10
212.2188173251
 20
158.9059817061
 30
0.0
 10
212.2010677804
 20
158.9357770983
 30
0.0
 10
212.1725791186
 20
158.9687708411
 30
0.0
 10
212.1291837989
 20
158.9999025757
 30
0.0
 10
212.077362577
 20
159.0221718326
 30
0.0
 10
212.0176591833
 20
159.0354451613
 30
0.0
 10
211.9751712303
 20
159.0380752976
 30
0.0
 10
211.9529061175
 20
159.0380752976
 30
0.0
  0
SPLINE
  5
441
100
AcDbEntity
  8
0
100
AcDbSpline
 62
4
  6
CONTINUOUS
 70
0
 71
3
 72
11
 73
7
 74
0
 42
0.0000001
 43
0.0000001
 44
0.0000000001
 40
0.0
 40
0.0
 40
0.0
 40
0.0
 40
0.2499216246
 40
0.5030542689
 40
0.7551869874
 40
1.0
 40
1.0
 40
1.0
 40
1.0
 10
213.6368687907
 20
158.4131349765
 30
0.0
 10
213.6195403831
 20
158.3808920688
 30
0.0
 10
213.5738031753
 20
158.3214733323
 30
0.0
 10
213.4843701801
 20
158.2545256049
 30
0.0
 10
213.3822932411
 20
158.2112582293
 30
0.0
 10
213.3092673477
 20
158.2002280755
 30
0.0
 10
213.273411217
 20
158.2002280755
 30
0.0
  0
SPLINE
  5
442
100
AcDbEntity
  8
0
100
AcDbSpline
 62
4
  6
CONTINUOUS
 70
0
 71
3
 72
15
 73
11
 74
0
 42
0.0000001
 43
0.0000001
 44
0.0000000001
 40
0.0
 40
0.0
 40
0.0
 40
0.0
 40
0.1462547406
 40
0.2739678876
 40
0.3883777387
 40
0.4962465948
 40
0.6051505858
 40
0.7220986306
 40
0.8524938462
 40
1.0
 40
1.0
 40
1.0
 40
1.0
 10
213.273411217
 20
158.2002280755
 30
0.0
 10
213.2345776254
 20
158.2002280755
 30
0.0
 10
213.161670311
 20
158.2044201652
 30
0.0
 10
213.060509524
 20
158.2272729563
 30
0.0
 10
212.9754648891
 20
158.2668402588
 30
0.0
 10
212.9069230104
 20
158.3235650255
 30
0.0
 10
212.8553660018
 20
158.3968043269
 30
0.0
 10
212.8202296081
 20
158.4853848499
 30
0.0
 10
212.8002656568
 20
158.5887604269
 30
0.0
 10
212.7966100018
 20
158.6626681111
 30
0.0
 10
212.7966100018
 20
158.7018339782
 30
0.0
  0
SPLINE
  5
443
100
AcDbEntity
  8
0
100
AcDbSpline
 62
4
  6
CONTINUOUS
 70
0
 71
3
 72
15
 73
11
 74
0
 42
0.0000001
 43
0.0000001
 44
0.0000000001
 40
0.0
 40
0.0
 40
0.0
 40
0.0
 40
0.1733714275
 40
0.3207241265
 40
0.4470562016
 40
0.5586638067
 40
0.6629681527
 40
0.7674951913
 40
0.8784545107
 40
1.0
 40
1.0
 40
1.0
 40
1.0
 10
213.0784188125
 20
158.7293947421
 30
0.0
 10
213.0784188125
 20
158.7034022119
 30
0.0
 10
213.0806136362
 20
158.655247774
 30
0.0
 10
213.0924949578
 20
158.5890332468
 30
0.0
 10
213.1125714763
 20
158.53446398
 30
0.0
 10
213.1408695977
 20
158.4910375711
 30
0.0
 10
213.1771194262
 20
158.4586325401
 30
0.0
 10
213.2204268997
 20
158.4369303394
 30
0.0
 10
213.2698545627
 20
158.4249502731
 30
0.0
 10
213.3047980114
 20
158.4227812439
 30
0.0
 10
213.323020592
 20
158.4227812439
 30
0.0
  0
SPLINE
  5
444
100
AcDbEntity
  8
0
100
AcDbSpline
 62
4
  6
CONTINUOUS
 70
0
 71
3
 72
15
 73
11
 74
0
 42
0.0000001
 43
0.0000001
 44
0.0000000001
 40
0.0
 40
0.0
 40
0.0
 40
0.0
 40
0.151343418
 40
0.281965591
 40
0.399208695
 40
0.5106543302
 40
0.6228874628
 40
0.7405038243
 40
0.8659590074
 40
1.0
 40
1.0
 40
1.0
 40
1.0
 10
213.323020592
 20
158.4227812439
 30
0.0
 10
213.3500659443
 20
158.4227812439
 30
0.0
 10
213.4006329878
 20
158.4264685378
 30
0.0
 10
213.4698484957
 20
158.4459984241
 30
0.0
 10
213.5262361364
 20
158.4781682865
 30
0.0
 10
213.5699750457
 20
158.521545403
 30
0.0
 10
213.6017749418
 20
158.5742032343
 30
0.0
 10
213.6229002716
 20
158.6344557856
 30
0.0
 10
213.634640556
 20
158.7010418874
 30
0.0
 10
213.6368687907
 20
158.7474715305
 30
0.0
 10
213.6368687907
 20
158.771424907
 30
0.0
  0
SPLINE
  5
445
100
AcDbEntity
  8
0
100
AcDbSpline
 62
4
  6
CONTINUOUS
 70
0
 71
3
 72
14
 73
10
 74
0
 42
0.0000001
 43
0.0000001
 44
0.0000000001
 40
0.0
 40
0.0
 40
0.0
 40
0.0
 40
0.1410165155
 40
0.266717994
 40
0.3837079589
 40
0.4981176171
 40
0.6147346986
 40
0.7365948128
 40
1.0
 40
1.0
 40
1.0
 40
1.0
 10
214.4268291855
 20
158.6453344122
 30
0.0
 10
214.4285582635
 20
158.6262743428
 30
0.0
 10
214.4348613009
 20
158.5903521691
 30
0.0
 10
214.45475772
 20
158.5417502378
 30
0.0
 10
214.4834830412
 20
158.5021268702
 30
0.0
 10
214.519760959
 20
158.4712489855
 30
0.0
 10
214.5622691633
 20
158.4485117832
 30
0.0
 10
214.6273541684
 20
158.4275442303
 30
0.0
 10
214.6801241368
 20
158.4227812439
 30
0.0
 10
214.7158726967
 20
158.4227812439
 30
0.0
  0
SPLINE
  5
446
100
AcDbEntity
  8
0
100
AcDbSpline
 62
4
  6
CONTINUOUS
 70
0
 71
3
 72
59
 73
55
 74
0
 42
0.0000001
 43
0.0000001
 44
0.0000000001
 40
0.0
 40
0.0
 40
0.0
 40
0.0
 40
0.0289482848
 40
0.0608432408
 40
0.0938312197
 40
0.1263341369
 40
0.1420610541
 40
0.157342454
 40
0.1722105475
 40
0.1868067573
 40
0.2014037233
 40
0.2088335898
 40
0.2164269818
 40
0.2242520138
 40
0.2323806709
 40
0.2408869383
 40
0.2453058768
 40
0.2498469765
 40
0.2544601545
 40
0.2589656417
 40
0.2676962592
 40
0.2761323743
 40
0.2843652154
 40
0.2924832169
 40
0.3005692607
 40
0.3169204258
 40
0.3339180439
 40
0.3518783338
 40
0.3709734584
 40
0.3912651987
 40
0.4353049304
 40
0.4833338683
 40
0.5085081263
 40
0.5342511552
 40
0.5472866872
 40
0.5604053226
 40
0.5735876311
 40
0.5801966959
 40
0.5835046766
 40
0.5868145687
 40
0.5901607178
 40
0.5935068522
 40
0.6001979222
 40
0.613567349
 40
0.6269053335
 40
0.6401952358
 40
0.6665687269
 40
0.6925803289
 40
0.7432057837
 40
0.791912696
 40
0.8394373562
 40
0.887732805
 40
0.9399659973
 40
1.0
 40
1.0
 40
1.0
 40
1.0
 10
214.7158726967
 20
158.4227812439
 30
0.0
 10
214.7302362798
 20
158.4227812439
 30
0.0
 10
214.7604322488
 20
158.4236145452
 30
0.0
 10
214.8068361486
 20
158.4278955229
 30
0.0
 10
214.8544635711
 20
158.4364571447
 30
0.0
 10
214.8931568971
 20
158.4482936007
 30
0.0
 10
214.9218683132
 20
158.4613944699
 30
0.0
 10
214.9415076413
 20
158.4730039035
 30
0.0
 10
214.9590886141
 20
158.4866793997
 30
0.0
 10
214.9741961306
 20
158.5026112774
 30
0.0
 10
214.9842939243
 20
158.5178503885
 30
0.0
 10
214.990631512
 20
158.5311312668
 30
0.0
 10
214.9945312935
 20
158.5417950782
 30
0.0
 10
214.9974933256
 20
158.5531146438
 30
0.0
 10
214.9994682327
 20
158.5651061683
 30
0.0
 10
215.0002414814
 20
158.5755383854
 30
0.0
 10
215.0003363419
 20
158.584206144
 30
0.0
 10
215.0001407377
 20
158.5909400899
 30
0.0
 10
214.9996485654
 20
158.597702259
 30
0.0
 10
214.9986175591
 20
158.6065008054
 30
0.0
 10
214.9966394657
 20
158.6170879992
 30
0.0
 10
214.9931442176
 20
158.6292167261
 30
0.0
 10
214.9885886684
 20
158.6406621562
 30
0.0
 10
214.9830101284
 20
158.6514499662
 30
0.0
 10
214.9742353118
 20
158.6650376124
 30
0.0
 10
214.9607132411
 20
158.6806763799
 30
0.0
 10
214.9411249412
 20
158.6970724045
 30
0.0
 10
214.9184367718
 20
158.7114889864
 30
0.0
 10
214.8929398896
 20
158.7242080187
 30
0.0
 10
214.8545055582
 20
158.7396704327
 30
0.0
 10
214.800996655
 20
158.7556517185
 30
0.0
 10
214.7443120885
 20
158.7687581725
 30
0.0
 10
214.6962793484
 20
158.7789196512
 30
0.0
 10
214.6652022555
 20
158.7853338702
 30
0.0
 10
214.6399938845
 20
158.7905895574
 30
0.0
 10
214.620899518
 20
158.7946341998
 30
0.0
 10
214.6049408657
 20
158.7980942359
 30
0.0
 10
214.5937534351
 20
158.8005856071
 30
0.0
 10
214.5873494166
 20
158.8020211438
 30
0.0
 10
214.5825333739
 20
158.8031391503
 30
0.0
 10
214.577678246
 20
158.8041684817
 30
0.0
 10
214.571193182
 20
158.805597097
 30
0.0
 10
214.559856487
 20
158.8081196603
 30
0.0
 10
214.543711023
 20
158.811855602
 30
0.0
 10
214.5244312575
 20
158.8165648667
 30
0.0
 10
214.498975741
 20
158.823170927
 30
0.0
 10
214.4676329858
 20
158.8321219922
 30
0.0
 10
214.4190941102
 20
158.848162761
 30
0.0
 10
214.3615109928
 20
158.8720635745
 30
0.0
 10
214.2986055674
 20
158.9095073337
 30
0.0
 10
214.244851142
 20
158.9578517763
 30
0.0
 10
214.203281594
 20
159.0194210428
 30
0.0
 10
214.177210778
 20
159.0956034438
 30
0.0
 10
214.1722366291
 20
159.1516035503
 30
0.0
 10
214.1722366291
 20
159.1813912697
 30
0.0
  0
SPLINE
  5
447
100
AcDbEntity
  8
0
100
AcDbSpline
 62
4
  6
CONTINUOUS
 70
0
 71
3
 72
30
 73
26
 74
0
 42
0.0000001
 43
0.0000001
 44
0.0000000001
 40
0.0
 40
0.0
 40
0.0
 40
0.0
 40
0.0664698151
 40
0.1265096573
 40
0.1558126924
 40
0.1852011789
 40
0.2451698626
 40
0.3073668089
 40
0.3711319742
 40
0.4031500815
 40
0.4349251649
 40
0.466183966
 40
0.4815305284
 40
0.4966379261
 40
0.5134470017
 40
0.5301458048
 40
0.5631721553
 40
0.595657329
 40
0.627560013
 40
0.6895432801
 40
0.749447054
 40
0.8082607313
 40
0.8678058772
 40
0.9306873346
 40
1.0
 40
1.0
 40
1.0
 40
1.0
 10
214.1722366291
 20
159.1813912697
 30
0.0
 10
214.1722366291
 20
159.2136464252
 30
0.0
 10
214.1800479973
 20
159.2755960429
 30
0.0
 10
214.2128618472
 20
159.3451079545
 30
0.0
 10
214.248566354
 20
159.3905329736
 30
0.0
 10
214.2899923553
 20
159.4307472518
 30
0.0
 10
214.3517248054
 20
159.4718721236
 30
0.0
 10
214.4351048185
 20
159.5072739937
 30
0.0
 10
214.5094227194
 20
159.5269750157
 30
0.0
 10
214.5704171357
 20
159.5376409607
 30
0.0
 10
214.6162310612
 20
159.5431723093
 30
0.0
 10
214.6541861774
 20
159.5458631794
 30
0.0
 10
214.6841167764
 20
159.5469148453
 30
0.0
 10
214.7070521416
 20
159.5471834808
 30
0.0
 10
214.7306441317
 20
159.5468774953
 30
0.0
 10
214.7629081915
 20
159.5455938495
 30
0.0
 10
214.8026929877
 20
159.5423562584
 30
0.0
 10
214.849528475
 20
159.5357152157
 30
0.0
 10
214.9095927527
 20
159.5231957867
 30
0.0
 10
214.9809631267
 20
159.5003548533
 30
0.0
 10
215.0592796983
 20
159.4598585065
 30
0.0
 10
215.1273032117
 20
159.4053737721
 30
0.0
 10
215.1824750258
 20
159.3358622886
 30
0.0
 10
215.2221090476
 20
159.2507952357
 30
0.0
 10
215.2357820929
 20
159.1875601391
 30
0.0
 10
215.23987172
 20
159.1541750154
 30
0.0
  0
SPLINE
  5
448
100
AcDbEntity
  8
0
100
AcDbSpline
 62
4
  6
CONTINUOUS
 70
0
 71
3
 72
14
 73
10
 74
0
 42
0.0000001
 43
0.0000001
 44
0.0000000001
 40
0.0
 40
0.0
 40
0.0
 40
0.0
 40
0.139039578
 40
0.2635224474
 40
0.3805108576
 40
0.4960558601
 40
0.6143748125
 40
0.7376848203
 40
1.0
 40
1.0
 40
1.0
 40
1.0
 10
214.9456605655
 20
159.1541750154
 30
0.0
 10
214.9427659194
 20
159.1697337383
 30
0.0
 10
214.9346551573
 20
159.1988689972
 30
0.0
 10
214.91390698
 20
159.2373237717
 30
0.0
 10
214.8864087216
 20
159.2677633643
 30
0.0
 10
214.8533790319
 20
159.2907400465
 30
0.0
 10
214.8159400847
 20
159.3071213573
 30
0.0
 10
214.7602738865
 20
159.3216354809
 30
0.0
 10
214.7161019984
 20
159.3247072419
 30
0.0
 10
214.6862448755
 20
159.3247072419
 30
0.0
  0
SPLINE
  5
449
100
AcDbEntity
  8
0
100
AcDbSpline
 62
4
  6
CONTINUOUS
 70
0
 71
3
 72
83
 73
79
 74
0
 42
0.0000001
 43
0.0000001
 44
0.0000000001
 40
0.0
 40
0.0
 40
0.0
 40
0.0
 40
0.014134281
 40
0.0299849326
 40
0.0466010369
 40
0.0631506101
 40
0.0790259256
 40
0.0866456508
 40
0.0940875339
 40
0.1014545438
 40
0.1089178412
 40
0.1127612607
 40
0.1167210005
 40
0.1208330791
 40
0.1229583188
 40
0.1251355513
 40
0.1278406694
 40
0.1304799265
 40
0.1355900177
 40
0.1405299674
 40
0.1453622649
 40
0.1549274547
 40
0.164719034
 40
0.175043624
 40
0.1860904842
 40
0.1979523621
 40
0.2106519228
 40
0.2384242825
 40
0.2688952942
 40
0.3013009344
 40
0.317965688
 40
0.3263668708
 40
0.3347964435
 40
0.3431396259
 40
0.3514918638
 40
0.3681749901
 40
0.4011479959
 40
0.4331540935
 40
0.4639655023
 40
0.4790121919
 40
0.4939375997
 40
0.5089020212
 40
0.5241195072
 40
0.5398518487
 40
0.5480071975
 40
0.5564045509
 40
0.5650838983
 40
0.5740854418
 40
0.5787200163
 40
0.5834500904
 40
0.5882805757
 40
0.5907350468
 40
0.5932164384
 40
0.5962121347
 40
0.5991789187
 40
0.6050289522
 40
0.6107735302
 40
0.6164194589
 40
0.6274408716
 40
0.6381485983
 40
0.6485952244
 40
0.6588313774
 40
0.678848286
 40
0.6985533376
 40
0.7182191069
 40
0.7380434207
 40
0.7581514668
 40
0.7993669265
 40
0.8418064063
 40
0.8632968682
 40
0.8848051956
 40
0.906195409
 40
0.9168015081
 40
0.9273221867
 40
0.9399452795
 40
0.9523653529
 40
0.9765901184
 40
1.0
 40
1.0
 40
1.0
 40
1.0
 10
214.6862448755
 20
159.3247072419
 30
0.0
 10
214.6750993681
 20
159.3247072419
 30
0.0
 10
214.6514493046
 20
159.3239429755
 30
0.0
 10
214.6148500625
 20
159.3203211443
 30
0.0
 10
214.5767777451
 20
159.3132983487
 30
0.0
 10
214.5396797897
 20
159.3020454458
 30
0.0
 10
214.5110804118
 20
159.2881269206
 30
0.0
 10
214.4912985042
 20
159.2737432667
 30
0.0
 10
214.4785287532
 20
159.2614090388
 30
0.0
 10
214.4679838353
 20
159.2472578877
 30
0.0
 10
214.4614277227
 20
159.2339683619
 30
0.0
 10
214.4576701846
 20
159.2225158222
 30
0.0
 10
214.4555897103
 20
159.2133388935
 30
0.0
 10
214.4545432103
 20
159.2053546116
 30
0.0
 10
214.4541157515
 20
159.1987313762
 30
0.0
 10
214.4540032579
 20
159.1932050942
 30
0.0
 10
214.4541436442
 20
159.1872731933
 30
0.0
 10
214.4547333401
 20
159.179047954
 30
0.0
 10
214.4561938031
 20
159.1691298646
 30
0.0
 10
214.4591204458
 20
159.157741886
 30
0.0
 10
214.4644846011
 20
159.1434409192
 30
0.0
 10
214.4740426615
 20
159.126759201
 30
0.0
 10
214.4895453739
 20
159.1090557352
 30
0.0
 10
214.5086323247
 20
159.0934359402
 30
0.0
 10
214.5309662132
 20
159.0796165551
 30
0.0
 10
214.5562527289
 20
159.0673258016
 30
0.0
 10
214.5946871869
 20
159.0522147383
 30
0.0
 10
214.6484377349
 20
159.0364057344
 30
0.0
 10
214.7181024799
 20
159.0203646161
 30
0.0
 10
214.7795490435
 20
159.0077689649
 30
0.0
 10
214.8239161571
 20
158.9985296322
 30
0.0
 10
214.8497361182
 20
158.992965297
 30
0.0
 10
214.8691233068
 20
158.9886985476
 30
0.0
 10
214.8884111655
 20
158.9841689
 30
0.0
 10
214.913987494
 20
158.9779524738
 30
0.0
 10
214.9582439333
 20
158.9663817751
 30
0.0
 10
215.0198231824
 20
158.9473316719
 30
0.0
 10
215.0897221099
 20
158.9183281002
 30
0.0
 10
215.1429782198
 20
158.8871632147
 30
0.0
 10
215.180584108
 20
158.8573237868
 30
0.0
 10
215.205898428
 20
158.8324214462
 30
0.0
 10
215.2281967386
 20
158.8045945479
 30
0.0
 10
215.2471372723
 20
158.7736222961
 30
0.0
 10
215.259688182
 20
158.7453517556
 30
0.0
 10
215.2677424564
 20
158.7211866831
 30
0.0
 10
215.2728283617
 20
158.7019367675
 30
0.0
 10
215.2768451866
 20
158.6817565934
 30
0.0
 10
215.2792467868
 20
158.6643135544
 30
0.0
 10
215.2806115923
 20
158.6498939444
 30
0.0
 10
215.2813551099
 20
158.6387236906
 30
0.0
 10
215.2817269423
 20
158.629255393
 30
0.0
 10
215.281876915
 20
158.6215554724
 30
0.0
 10
215.2819171285
 20
158.6153010422
 30
0.0
 10
215.2818650294
 20
158.6086425816
 30
0.0
 10
215.2816434813
 20
158.5993302029
 30
0.0
 10
215.2810945227
 20
158.5878588628
 30
0.0
 10
215.2799989272
 20
158.5743055605
 30
0.0
 10
215.2779870706
 20
158.5567449907
 30
0.0
 10
215.2744468155
 20
158.5354320309
 30
0.0
 10
215.2685512874
 20
158.5107336495
 30
0.0
 10
215.2611058597
 20
158.4871040234
 30
0.0
 10
215.2492940978
 20
158.4572390862
 30
0.0
 10
215.2309232189
 20
158.4222281623
 30
0.0
 10
215.2035284868
 20
158.3840743834
 30
0.0
 10
215.1715026356
 20
158.3499467222
 30
0.0
 10
215.1353918659
 20
158.3197088881
 30
0.0
 10
215.0820951033
 20
158.2841101078
 30
0.0
 10
215.0077621986
 20
158.2488363374
 30
0.0
 10
214.9280497388
 20
158.2250899347
 30
0.0
 10
214.8619221506
 20
158.2120350925
 30
0.0
 10
214.811586732
 20
158.2051591278
 30
0.0
 10
214.7695090893
 20
158.2017836359
 30
0.0
 10
214.7360057943
 20
158.2004468099
 30
0.0
 10
214.7093917257
 20
158.2001046076
 30
0.0
 10
214.6813467732
 20
158.2005036339
 30
0.0
 10
214.6425278758
 20
158.2021598096
 30
0.0
 10
214.5953208071
 20
158.2062939094
 30
0.0
 10
214.558162057
 20
158.2119920062
 30
0.0
 10
214.5400260571
 20
158.2154433532
 30
0.0
  0
SPLINE
  5
44A
100
AcDbEntity
  8
0
100
AcDbSpline
 62
4
  6
CONTINUOUS
 70
0
 71
3
 72
42
 73
38
 74
0
 42
0.0000001
 43
0.0000001
 44
0.0000000001
 40
0.0
 40
0.0
 40
0.0
 40
0.0
 40
0.0752249775
 40
0.1447734558
 40
0.2083463155
 40
0.2664126948
 40
0.2938992865
 40
0.3207754801
 40
0.3475073588
 40
0.3746536944
 40
0.4028351255
 40
0.41752349
 40
0.432710336
 40
0.4484728873
 40
0.4648856018
 40
0.4733589912
 40
0.4820213288
 40
0.4908809747
 40
0.4999460666
 40
0.5045131192
 40
0.5090275528
 40
0.5179023823
 40
0.5265788879
 40
0.5350654465
 40
0.5515015774
 40
0.5672837836
 40
0.5824867106
 40
0.5971878002
 40
0.6253856209
 40
0.6525383104
 40
0.6792692094
 40
0.7061397983
 40
0.7336185307
 40
0.7916689632
 40
0.855231289
 40
0.9247755135
 40
1.0
 40
1.0
 40
1.0
 40
1.0
 10
219.6065302475
 20
172.5707548732
 30
0.0
 10
219.6065302475
 20
172.546557895
 30
0.0
 10
219.6078589196
 20
172.4999663999
 30
0.0
 10
219.6154232981
 20
172.4332644187
 30
0.0
 10
219.6296049263
 20
172.3732363926
 30
0.0
 10
219.6484463871
 20
172.3287314313
 30
0.0
 10
219.6681708729
 20
172.2983170897
 30
0.0
 10
219.6851223506
 20
172.2783847952
 30
0.0
 10
219.7046396062
 20
172.2611051919
 30
0.0
 10
219.7268457469
 20
172.2466599673
 30
0.0
 10
219.7474018879
 20
172.2372549052
 30
0.0
 10
219.7651064244
 20
172.2312794974
 30
0.0
 10
219.7793095875
 20
172.227524336
 30
0.0
 10
219.7942661244
 20
172.2245778124
 30
0.0
 10
219.8072319308
 20
172.2228289929
 30
0.0
 10
219.8179786732
 20
172.2218383417
 30
0.0
 10
219.8263241192
 20
172.2212998212
 30
0.0
 10
219.8348709563
 20
172.2209759272
 30
0.0
 10
219.8421059854
 20
172.2208874941
 30
0.0
 10
219.8479430557
 20
172.2209233673
 30
0.0
 10
219.8537180322
 20
172.2210314607
 30
0.0
 10
219.8608115146
 20
172.2212998035
 30
0.0
 10
219.8691706421
 20
172.2218383158
 30
0.0
 10
219.8799337899
 20
172.222828913
 30
0.0
 10
219.8929178603
 20
172.2245775861
 30
0.0
 10
219.9078938052
 20
172.2275240217
 30
0.0
 10
219.9221131196
 20
172.2312790986
 30
0.0
 10
219.9398332175
 20
172.237253856
 30
0.0
 10
219.9604025957
 20
172.2466576817
 30
0.0
 10
219.9826173107
 20
172.2611030018
 30
0.0
 10
220.0021343295
 20
172.278383172
 30
0.0
 10
220.0190780629
 20
172.2983162675
 30
0.0
 10
220.0387839407
 20
172.3287316997
 30
0.0
 10
220.0575912876
 20
172.3732397102
 30
0.0
 10
220.071728052
 20
172.4332677701
 30
0.0
 10
220.0792565185
 20
172.499968308
 30
0.0
 10
220.0805753863
 20
172.5465580529
 30
0.0
 10
220.0805753863
 20
172.5707548732
 30
0.0
  0
SPLINE
  5
44B
100
AcDbEntity
  8
0
100
AcDbSpline
 62
4
  6
CONTINUOUS
 70
0
 71
3
 72
15
 73
11
 74
0
 42
0.0000001
 43
0.0000001
 44
0.0000000001
 40
0.0
 40
0.0
 40
0.0
 40
0.0
 40
0.168321216
 40
0.3101651805
 40
0.4336769311
 40
0.5470147841
 40
0.6570533405
 40
0.7682861422
 40
0.882642946
 40
1.0
 40
1.0
 40
1.0
 40
1.0
 10
220.486752144
 20
172.5707548732
 30
0.0
 10
220.486752144
 20
172.5121483962
 30
0.0
 10
220.47936181
 20
172.4038015652
 30
0.0
 10
220.4401652142
 20
172.2568163823
 30
0.0
 10
220.3767492573
 20
172.1396247252
 30
0.0
 10
220.2928973928
 20
172.0508160189
 30
0.0
 10
220.1934966676
 20
171.9880362559
 30
0.0
 10
220.0830651461
 20
171.9477069576
 30
0.0
 10
219.9651943365
 20
171.9261117016
 30
0.0
 10
219.884414472
 20
171.9220433933
 30
0.0
 10
219.8435528169
 20
171.9220433933
 30
0.0
  0
SPLINE
  5
44C
100
AcDbEntity
  8
0
100
AcDbSpline
 62
4
  6
CONTINUOUS
 70
0
 71
3
 72
15
 73
11
 74
0
 42
0.0000001
 43
0.0000001
 44
0.0000000001
 40
0.0
 40
0.0
 40
0.0
 40
0.0
 40
0.1165533018
 40
0.2297495061
 40
0.3392585192
 40
0.4471602008
 40
0.558640765
 40
0.6817336594
 40
0.8258174232
 40
1.0
 40
1.0
 40
1.0
 40
1.0
 10
219.8435528169
 20
171.9220433933
 30
0.0
 10
219.8027090711
 20
171.9220433933
 30
0.0
 10
219.7221177016
 20
171.9253267191
 30
0.0
 10
219.6043614946
 20
171.9441937262
 30
0.0
 10
219.4938349058
 20
171.9811696848
 30
0.0
 10
219.3940528539
 20
172.0410914579
 30
0.0
 10
219.309828263
 20
172.1286869927
 30
0.0
 10
219.2464328842
 20
172.2469679935
 30
0.0
 10
219.2075170319
 20
172.3978392508
 30
0.0
 10
219.2003534898
 20
172.5097161143
 30
0.0
 10
219.2003534898
 20
172.5707548732
 30
0.0
  0
SPLINE
  5
44D
100
AcDbEntity
  8
0
100
AcDbSpline
 62
4
  6
CONTINUOUS
 70
0
 71
3
 72
15
 73
11
 74
0
 42
0.0000001
 43
0.0000001
 44
0.0000000001
 40
0.0
 40
0.0
 40
0.0
 40
0.0
 40
0.1424381986
 40
0.271495531
 40
0.3884590438
 40
0.4968266536
 40
0.6030293615
 40
0.7160514192
 40
0.8455452147
 40
1.0
 40
1.0
 40
1.0
 40
1.0
 10
221.0713848479
 20
172.5313085299
 30
0.0
 10
221.0713848479
 20
172.5087601046
 30
0.0
 10
221.0727985243
 20
172.4657469472
 30
0.0
 10
221.0812167861
 20
172.4046746724
 30
0.0
 10
221.0972886244
 20
172.3506117138
 30
0.0
 10
221.122811324
 20
172.304153033
 30
0.0
 10
221.1596128416
 20
172.2666025775
 30
0.0
 10
221.2085550144
 20
172.2395783099
 30
0.0
 10
221.2698750356
 20
172.2237228762
 30
0.0
 10
221.314962587
 20
172.2209054266
 30
0.0
 10
221.3394132766
 20
172.2209054266
 30
0.0
  0
SPLINE
  5
44E
100
AcDbEntity
  8
0
100
AcDbSpline
 62
4
  6
CONTINUOUS
 70
0
 71
3
 72
14
 73
10
 74
0
 42
0.0000001
 43
0.0000001
 44
0.0000000001
 40
0.0
 40
0.0
 40
0.0
 40
0.0
 40
0.2346405298
 40
0.3505725939
 40
0.4667467105
 40
0.5856282159
 40
0.7109061911
 40
0.8472762799
 40
1.0
 40
1.0
 40
1.0
 40
1.0
 10
221.3394132766
 20
172.2209054266
 30
0.0
 10
221.369898893
 20
172.2209054266
 30
0.0
 10
221.4160418848
 20
172.2281502078
 30
0.0
 10
221.4714284629
 20
172.2535524964
 30
0.0
 10
221.5085659374
 20
172.2806076501
 30
0.0
 10
221.5398515741
 20
172.3159437421
 30
0.0
 10
221.5637776373
 20
172.3596813456
 30
0.0
 10
221.5788651713
 20
172.4117619137
 30
0.0
 10
221.5819479988
 20
172.4494542172
 30
0.0
 10
221.5819479988
 20
172.4692968111
 30
0.0
  0
SPLINE
  5
44F
100
AcDbEntity
  8
0
100
AcDbSpline
 62
4
  6
CONTINUOUS
 70
0
 71
3
 72
15
 73
11
 74
0
 42
0.0000001
 43
0.0000001
 44
0.0000000001
 40
0.0
 40
0.0
 40
0.0
 40
0.0
 40
0.11744337
 40
0.2210286873
 40
0.3187568862
 40
0.4198039493
 40
0.5326679606
 40
0.6639603816
 40
0.8185134524
 40
1.0
 40
1.0
 40
1.0
 40
1.0
 10
221.5819479988
 20
172.4692968111
 30
0.0
 10
221.5819479988
 20
172.4905459375
 30
0.0
 10
221.5796582945
 20
172.5306473311
 30
0.0
 10
221.5656953916
 20
172.5870601662
 30
0.0
 10
221.5398980096
 20
172.6359716905
 30
0.0
 10
221.5016418131
 20
172.67808157
 30
0.0
 10
221.4508994486
 20
172.7150101416
 30
0.0
 10
221.3870713586
 20
172.7489357593
 30
0.0
 10
221.3091179321
 20
172.7818498165
 30
0.0
 10
221.2519234953
 20
172.802523778
 30
0.0
 10
221.2209019919
 20
172.8132895953
 30
0.0
  0
SPLINE
  5
450
100
AcDbEntity
  8
0
100
AcDbSpline
 62
4
  6
CONTINUOUS
 70
0
 71
3
 72
59
 73
55
 74
0
 42
0.0000001
 43
0.0000001
 44
0.0000000001
 40
0.0
 40
0.0
 40
0.0
 40
0.0
 40
0.0624091022
 40
0.1179912391
 40
0.1678657142
 40
0.2136533826
 40
0.2357139595
 40
0.2576287103
 40
0.279744522
 40
0.3024137881
 40
0.3259798017
 40
0.3382039012
 40
0.3507707905
 40
0.3637163529
 40
0.3770745435
 40
0.3839187245
 40
0.390877916
 40
0.3979558327
 40
0.4015404718
 40
0.4051561343
 40
0.4093827351
 40
0.4135772965
 40
0.4218717402
 40
0.4300427011
 40
0.4380934043
 40
0.4538464785
 40
0.4691594463
 40
0.4840614381
 40
0.4985831022
 40
0.5266061195
 40
0.5535110692
 40
0.5795912658
 40
0.6051525379
 40
0.6305039871
 40
0.6559474139
 40
0.681767163
 40
0.7082220453
 40
0.7355403178
 40
0.7639178193
 40
0.7785594795
 40
0.793524929
 40
0.808830148
 40
0.8244894962
 40
0.8405158269
 40
0.8486705344
 40
0.8569211729
 40
0.8647021802
 40
0.8724162601
 40
0.8876424524
 40
0.9025993282
 40
0.9172874565
 40
0.9458631069
 40
0.9734105974
 40
1.0
 40
1.0
 40
1.0
 40
1.0
 10
221.2209019919
 20
172.8132895953
 30
0.0
 10
221.1782982201
 20
172.827944805
 30
0.0
 10
221.0984353281
 20
172.8577790383
 30
0.0
 10
220.9887009469
 20
172.9096754759
 30
0.0
 10
220.8960414901
 20
172.9680767154
 30
0.0
 10
220.8321354513
 20
173.0249093306
 30
0.0
 10
220.7907642954
 20
173.0749237236
 30
0.0
 10
220.7643365004
 20
173.1147586491
 30
0.0
 10
220.7421288234
 20
173.1575861307
 30
0.0
 10
220.7241049379
 20
173.2036116869
 30
0.0
 10
220.7126736837
 20
173.244307682
 30
0.0
 10
220.7055178345
 20
173.2784845988
 30
0.0
 10
220.7010883099
 20
173.30537332
 30
0.0
 10
220.6976572223
 20
173.3332310159
 30
0.0
 10
220.6956415241
 20
173.357081821
 30
0.0
 10
220.6945105783
 20
173.3766582321
 30
0.0
 10
220.6939012744
 20
173.3917211427
 30
0.0
 10
220.6935989974
 20
173.4044395195
 30
0.0
 10
220.6934780012
 20
173.4147465261
 30
0.0
 10
220.6934457805
 20
173.4229957742
 30
0.0
 10
220.6934867179
 20
173.4316853565
 30
0.0
 10
220.6936610172
 20
173.4437514632
 30
0.0
 10
220.6940943581
 20
173.4586608994
 30
0.0
 10
220.6949633752
 20
173.4763393125
 30
0.0
 10
220.6965699566
 20
173.4993676059
 30
0.0
 10
220.6994169612
 20
173.527472116
 30
0.0
 10
220.704212589
 20
173.5603195488
 30
0.0
 10
220.7103456909
 20
173.5920408188
 30
0.0
 10
220.7201644296
 20
173.6323460825
 30
0.0
 10
220.7356306881
 20
173.6801387137
 30
0.0
 10
220.7595346444
 20
173.7336389186
 30
0.0
 10
220.788428251
 20
173.7825757894
 30
0.0
 10
220.8221670202
 20
173.8269094583
 30
0.0
 10
220.8605969171
 20
173.8666064303
 30
0.0
 10
220.9035557524
 20
173.9016399977
 30
0.0
 10
220.9508784623
 20
173.9319940996
 30
0.0
 10
221.002403387
 20
173.9576623059
 30
0.0
 10
221.0579720523
 20
173.978643559
 30
0.0
 10
221.1070141256
 20
173.9920835252
 30
0.0
 10
221.1480167339
 20
174.0005572041
 30
0.0
 10
221.180020259
 20
174.0058123491
 30
0.0
 10
221.2129329825
 20
174.0098987772
 30
0.0
 10
221.2467381886
 20
174.0128157162
 30
0.0
 10
221.2754694179
 20
174.0142613676
 30
0.0
 10
221.2988759209
 20
174.0148435602
 30
0.0
 10
221.3163366327
 20
174.0149815929
 30
0.0
 10
221.3334791082
 20
174.0148633752
 30
0.0
 10
221.3556531408
 20
174.0144108348
 30
0.0
 10
221.3829919993
 20
174.0132740253
 30
0.0
 10
221.4153082147
 20
174.0109678507
 30
0.0
 10
221.4571229506
 20
174.0066643096
 30
0.0
 10
221.507700058
 20
173.9989396091
 30
0.0
 10
221.5659637631
 20
173.9856063231
 30
0.0
 10
221.6032676465
 20
173.9737889465
 30
0.0
 10
221.6212856735
 20
173.9671514479
 30
0.0
  0
SPLINE
  5
451
100
AcDbEntity
  8
0
100
AcDbSpline
 62
4
  6
CONTINUOUS
 70
0
 71
3
 72
15
 73
11
 74
0
 42
0.0000001
 43
0.0000001
 44
0.0000000001
 40
0.0
 40
0.0
 40
0.0
 40
0.0
 40
0.1589007798
 40
0.301027977
 40
0.428029756
 40
0.5429269454
 40
0.6505701985
 40
0.7576448648
 40
0.8717533373
 40
1.0
 40
1.0
 40
1.0
 40
1.0
 10
221.5509421394
 20
173.4170425791
 30
0.0
 10
221.5509421394
 20
173.4394314193
 30
0.0
 10
221.5492384557
 20
173.4818871078
 30
0.0
 10
221.5401719905
 20
173.5416662725
 30
0.0
 10
221.5243343239
 20
173.5936627685
 30
0.0
 10
221.5011628049
 20
173.6375475343
 30
0.0
 10
221.4700073977
 20
173.6726885908
 30
0.0
 10
221.4305734987
 20
173.6981054302
 30
0.0
 10
221.3831654627
 20
173.7131064343
 30
0.0
 10
221.3488702669
 20
173.7159046125
 30
0.0
 10
221.3308005379
 20
173.7159046125
 30
0.0
  0
SPLINE
  5
452
100
AcDbEntity
  8
0
100
AcDbSpline
 62
4
  6
CONTINUOUS
 70
0
 71
3
 72
15
 73
11
 74
0
 42
0.0000001
 43
0.0000001
 44
0.0000000001
 40
0.0
 40
0.0
 40
0.0
 40
0.0
 40
0.1669716673
 40
0.3078782305
 40
0.4310610671
 40
0.5447048928
 40
0.6554900388
 40
0.7675788606
 40
0.8825563746
 40
1.0
 40
1.0
 40
1.0
 40
1.0
 10
221.3308005379
 20
173.7159046125
 30
0.0
 10
221.3098773242
 20
173.7159046125
 30
0.0
 10
221.2711626496
 20
173.7131729255
 30
0.0
 10
221.21867868
 20
173.6987092097
 30
0.0
 10
221.1769044382
 20
173.6753759615
 30
0.0
 10
221.1453305595
 20
173.6446646302
 30
0.0
 10
221.1230508985
 20
173.6084257299
 30
0.0
 10
221.1087458164
 20
173.5683209688
 30
0.0
 10
221.1010859093
 20
173.5256866521
 30
0.0
 10
221.0996346308
 20
173.4965272307
 30
0.0
 10
221.0996346308
 20
173.4818103742
 30
0.0
  0
SPLINE
  5
453
100
AcDbEntity
  8
0
100
AcDbSpline
 62
4
  6
CONTINUOUS
 70
0
 71
3
 72
15
 73
11
 74
0
 42
0.0000001
 43
0.0000001
 44
0.0000000001
 40
0.0
 40
0.0
 40
0.0
 40
0.0
 40
0.119420172
 40
0.229470698
 40
0.3342064662
 40
0.4393159103
 40
0.5516930994
 40
0.6784393341
 40
0.8260194103
 40
1.0
 40
1.0
 40
1.0
 40
1.0
 10
221.0996346308
 20
173.4818103742
 30
0.0
 10
221.0996346308
 20
173.4670126553
 30
0.0
 10
221.1006107946
 20
173.4385500855
 30
0.0
 10
221.1068161072
 20
173.3974741487
 30
0.0
 10
221.1190942046
 20
173.359549719
 30
0.0
 10
221.1388155599
 20
173.3245072974
 30
0.0
 10
221.1670314279
 20
173.2921624151
 30
0.0
 10
221.2045780134
 20
173.262072713
 30
0.0
 10
221.2524045802
 20
173.2335690323
 30
0.0
 10
221.2885736401
 20
173.2167189818
 30
0.0
 10
221.3084074172
 20
173.2082697927
 30
0.0
  0
SPLINE
  5
454
100
AcDbEntity
  8
0
100
AcDbSpline
 62
4
  6
CONTINUOUS
 70
0
 71
3
 72
60
 73
56
 74
0
 42
0.0000001
 43
0.0000001
 44
0.0000000001
 40
0.0
 40
0.0
 40
0.0
 40
0.0
 40
0.0542499073
 40
0.101200013
 40
0.1424959137
 40
0.1800431056
 40
0.2159040037
 40
0.2338491947
 40
0.2520906876
 40
0.2708210293
 40
0.2902042075
 40
0.3001852321
 40
0.3103784884
 40
0.3207972139
 40
0.3260949805
 40
0.3314534848
 40
0.3361098874
 40
0.340726591
 40
0.3498427667
 40
0.3588061581
 40
0.367620938
 40
0.3848210103
 40
0.4014801439
 40
0.4176368825
 40
0.4333321513
 40
0.4635023738
 40
0.4923735475
 40
0.5203474446
 40
0.5478422879
 40
0.5752756814
 40
0.603046158
 40
0.6315172006
 40
0.6610066108
 40
0.691782065
 40
0.7240618832
 40
0.7408246146
 40
0.7580248727
 40
0.7756782109
 40
0.7937981051
 40
0.8030369626
 40
0.8123966535
 40
0.8218783596
 40
0.8266653399
 40
0.8314832229
 40
0.8365045216
 40
0.8414783575
 40
0.8512852112
 40
0.8609072003
 40
0.8703477777
 40
0.8886983818
 40
0.9063675543
 40
0.9233872089
 40
0.9397914178
 40
0.9708931369
 40
1.0
 40
1.0
 40
1.0
 40
1.0
 10
221.6212220873
 20
173.0728775401
 30
0.0
 10
221.6566245358
 20
173.057476475
 30
0.0
 10
221.7216455327
 20
173.0262195279
 30
0.0
 10
221.8078787898
 20
172.972366482
 30
0.0
 10
221.8765190111
 20
172.9142955131
 30
0.0
 10
221.9288965893
 20
172.8510647776
 30
0.0
 10
221.9600581086
 20
172.793514615
 30
0.0
 10
221.9779904538
 20
172.745422863
 30
0.0
 10
221.9884909835
 20
172.70772996
 30
0.0
 10
221.9962440655
 20
172.6683464206
 30
0.0
 10
222.0005673141
 20
172.6343694296
 30
0.0
 10
222.0029107028
 20
172.6063132186
 30
0.0
 10
222.0041419358
 20
172.5845737606
 30
0.0
 10
222.004734557
 20
172.5661426926
 30
0.0
 10
222.0049676586
 20
172.5511461082
 30
0.0
 10
222.0050230356
 20
172.5402486686
 30
0.0
 10
222.0049746472
 20
172.5298359351
 30
0.0
 10
222.0047859928
 20
172.516750258
 30
0.0
 10
222.0043172714
 20
172.5006039701
 30
0.0
 10
222.0033756823
 20
172.4814861889
 30
0.0
 10
222.0016349658
 20
172.4566531872
 30
0.0
 10
221.998548388
 20
172.4264305352
 30
0.0
 10
221.9933343799
 20
172.3912079023
 30
0.0
 10
221.9866540354
 20
172.3573219543
 30
0.0
 10
221.9759539975
 20
172.3144850819
 30
0.0
 10
221.9590535408
 20
172.2639339736
 30
0.0
 10
221.9327887614
 20
172.2076984697
 30
0.0
 10
221.9009138047
 20
172.1566593066
 30
0.0
 10
221.8635540651
 20
172.1107963574
 30
0.0
 10
221.8208518325
 20
172.0700770105
 30
0.0
 10
221.7729599516
 20
172.0344527842
 30
0.0
 10
221.7200302947
 20
172.0038565041
 30
0.0
 10
221.6622045079
 20
171.9782079703
 30
0.0
 10
221.5996143864
 20
171.9574227415
 30
0.0
 10
221.5442895184
 20
171.9442517725
 30
0.0
 10
221.4978704435
 20
171.9359804275
 30
0.0
 10
221.4614872321
 20
171.9308617698
 30
0.0
 10
221.4239904642
 20
171.926898155
 30
0.0
 10
221.3920365117
 20
171.9245661671
 30
0.0
 10
221.3659375323
 20
171.9232587604
 30
0.0
 10
221.345965647
 20
171.922555607
 30
0.0
 10
221.3291533681
 20
171.9222063774
 30
0.0
 10
221.315570905
 20
171.9220666106
 30
0.0
 10
221.3051620698
 20
171.9220311206
 30
0.0
 10
221.2946202505
 20
171.922069138
 30
0.0
 10
221.2805287764
 20
171.9222247046
 30
0.0
 10
221.2631660267
 20
171.9226116399
 30
0.0
 10
221.242634726
 20
171.9233895623
 30
0.0
 10
221.2160472785
 20
171.9248266384
 30
0.0
 10
221.1837884736
 20
171.9273728817
 30
0.0
 10
221.1462813227
 20
171.9316834777
 30
0.0
 10
221.1103326579
 20
171.9372100446
 30
0.0
 10
221.065257879
 20
171.9460305199
 30
0.0
 10
221.0124483551
 20
171.959914107
 30
0.0
 10
220.9722002404
 20
171.974830299
 30
0.0
 10
220.9532014192
 20
171.9831084678
 30
0.0
  0
SPLINE
  5
455
100
AcDbEntity
  8
0
100
AcDbSpline
 62
4
  6
CONTINUOUS
 70
0
 71
3
 72
15
 73
11
 74
0
 42
0.0000001
 43
0.0000001
 44
0.0000000001
 40
0.0
 40
0.0
 40
0.0
 40
0.0
 40
0.136784744
 40
0.2634493134
 40
0.3809920333
 40
0.4922394496
 40
0.6023076602
 40
0.7183619108
 40
0.8484202444
 40
1.0
 40
1.0
 40
1.0
 40
1.0
 10
222.8886727163
 20
173.9754925573
 30
0.0
 10
222.9287747298
 20
173.9754925573
 30
0.0
 10
223.006100093
 20
173.9720644037
 30
0.0
 10
223.1166057759
 20
173.9535272179
 30
0.0
 10
223.2158327364
 20
173.9198204959
 30
0.0
 10
223.3019941937
 20
173.8685972565
 30
0.0
 10
223.3724815604
 20
173.7975678691
 30
0.0
 10
223.4242922259
 20
173.7055392824
 30
0.0
 10
223.4554497691
 20
173.5922192928
 30
0.0
 10
223.461247586
 20
173.5093689632
 30
0.0
 10
223.461247586
 20
173.4649294064
 30
0.0
  0
SPLINE
  5
456
100
AcDbEntity
  8
0
100
AcDbSpline
 62
4
  6
CONTINUOUS
 70
0
 71
3
 72
14
 73
10
 74
0
 42
0.0000001
 43
0.0000001
 44
0.0000000001
 40
0.0
 40
0.0
 40
0.0
 40
0.0
 40
0.2659208374
 40
0.3897171669
 40
0.5094967924
 40
0.6275661742
 40
0.7466538373
 40
0.8697680512
 40
1.0
 40
1.0
 40
1.0
 40
1.0
 10
223.461247586
 20
173.4649294064
 30
0.0
 10
223.461247586
 20
173.4136983859
 30
0.0
 10
223.4526696045
 20
173.3378790994
 30
0.0
 10
223.41974533
 20
173.2450510806
 30
0.0
 10
223.3859028817
 20
173.1837510815
 30
0.0
 10
223.3423915539
 20
173.1300251821
 30
0.0
 10
223.2893219796
 20
173.0846828498
 30
0.0
 10
223.2269168254
 20
173.0485356442
 30
0.0
 10
223.1808474767
 20
173.0316342901
 30
0.0
 10
223.1567011451
 20
173.0248184581
 30
0.0
  0
SPLINE
  5
457
100
AcDbEntity
  8
0
100
AcDbSpline
 62
4
  6
CONTINUOUS
 70
0
 71
3
 72
14
 73
10
 74
0
 42
0.0000001
 43
0.0000001
 44
0.0000000001
 40
0.0
 40
0.0
 40
0.0
 40
0.0
 40
0.1248866045
 40
0.2437652535
 40
0.3594725587
 40
0.4751574881
 40
0.5940939442
 40
0.719462109
 40
1.0
 40
1.0
 40
1.0
 40
1.0
 10
223.1567011451
 20
173.0193063054
 30
0.0
 10
223.1837001421
 20
173.0155297841
 30
0.0
 10
223.2359507492
 20
173.0039350801
 30
0.0
 10
223.3086429818
 20
172.9732064114
 30
0.0
 10
223.3723830737
 20
172.9300533697
 30
0.0
 10
223.4261878681
 20
172.874987376
 30
0.0
 10
223.4691737293
 20
172.8085976017
 30
0.0
 10
223.5126250144
 20
172.7020090641
 30
0.0
 10
223.5236038143
 20
172.6121849625
 30
0.0
 10
223.5236038143
 20
172.5509455741
 30
0.0
  0
SPLINE
  5
458
100
AcDbEntity
  8
0
100
AcDbSpline
 62
4
  6
CONTINUOUS
 70
0
 71
3
 72
15
 73
11
 74
0
 42
0.0000001
 43
0.0000001
 44
0.0000000001
 40
0.0
 40
0.0
 40
0.0
 40
0.0
 40
0.1183609294
 40
0.2323337478
 40
0.3428817101
 40
0.4527856119
 40
0.5668406615
 40
0.6914316252
 40
0.8335696477
 40
1.0
 40
1.0
 40
1.0
 40
1.0
 10
223.5236038143
 20
172.5509455741
 30
0.0
 10
223.5236038143
 20
172.5121858613
 30
0.0
 10
223.5190363465
 20
172.4359738757
 30
0.0
 10
223.4955338198
 20
172.325663938
 30
0.0
 10
223.4531082623
 20
172.2238795687
 30
0.0
 10
223.3891647382
 20
172.1336833621
 30
0.0
 10
223.3015079507
 20
172.058744336
 30
0.0
 10
223.1888677878
 20
172.0026496668
 30
0.0
 10
223.050361259
 20
171.968105368
 30
0.0
 10
222.9490304095
 20
171.9614897366
 30
0.0
 10
222.8945293787
 20
171.9614897366
 30
0.0
  0
SPLINE
  5
459
100
AcDbEntity
  8
0
100
AcDbSpline
 62
4
  6
CONTINUOUS
 70
0
 71
3
 72
37
 73
33
 74
0
 42
0.0000001
 43
0.0000001
 44
0.0000000001
 40
0.0
 40
0.0
 40
0.0
 40
0.0
 40
0.0830161321
 40
0.1550569123
 40
0.2178945179
 40
0.274227758
 40
0.3011567865
 40
0.3279414794
 40
0.3551438706
 40
0.3833068788
 40
0.4129266657
 40
0.4444367141
 40
0.4610217578
 40
0.4782114275
 40
0.4960419159
 40
0.5052082096
 40
0.5145467471
 40
0.524024646
 40
0.5333167603
 40
0.5513578042
 40
0.5687018086
 40
0.5853830198
 40
0.6169021805
 40
0.646264082
 40
0.6738730519
 40
0.7001957551
 40
0.7257511038
 40
0.7510875517
 40
0.8031463198
 40
0.8603168109
 40
0.9253512921
 40
1.0
 40
1.0
 40
1.0
 40
1.0
 10
222.7308873431
 20
173.1490141504
 30
0.0
 10
222.7568909319
 20
173.1490141504
 30
0.0
 10
222.8055124222
 20
173.1508979556
 30
0.0
 10
222.8731474182
 20
173.1615038957
 30
0.0
 10
222.9303724206
 20
173.1803084485
 30
0.0
 10
222.9701064303
 20
173.2040289105
 30
0.0
 10
222.9955956901
 20
173.2273817625
 30
0.0
 10
223.0118166855
 20
173.2469630064
 30
0.0
 10
223.0254169135
 20
173.2688977386
 30
0.0
 10
223.0364284148
 20
173.293209552
 30
0.0
 10
223.0448917473
 20
173.3199283411
 30
0.0
 10
223.0497764153
 20
173.343818499
 30
0.0
 10
223.0525163418
 20
173.3640882836
 30
0.0
 10
223.0540009241
 20
173.3801894072
 30
0.0
 10
223.0547297202
 20
173.3940143726
 30
0.0
 10
223.0550230959
 20
173.4053925833
 30
0.0
 10
223.0550941053
 20
173.4141579085
 30
0.0
 10
223.0550264076
 20
173.422962604
 30
0.0
 10
223.0547584286
 20
173.4344903988
 30
0.0
 10
223.0540904301
 20
173.4484717701
 30
0.0
 10
223.0527307453
 20
173.4647280769
 30
0.0
 10
223.0502268609
 20
173.4851095089
 30
0.0
 10
223.0457772772
 20
173.5090294969
 30
0.0
 10
223.0380639449
 20
173.5357047352
 30
0.0
 10
223.0280414512
 20
173.5598596651
 30
0.0
 10
223.0156754252
 20
173.5815505486
 30
0.0
 10
223.0009349135
 20
173.6008235935
 30
0.0
 10
222.9779314361
 20
173.6235587041
 30
0.0
 10
222.9420184619
 20
173.6465947795
 30
0.0
 10
222.8901357998
 20
173.6646814814
 30
0.0
 10
222.8290811777
 20
173.6747092984
 30
0.0
 10
222.7852758181
 20
173.6764582692
 30
0.0
 10
222.7618932025
 20
173.6764582692
 30
0.0
  0
SPLINE
  5
45A
100
AcDbEntity
  8
0
100
AcDbSpline
 62
4
  6
CONTINUOUS
 70
0
 71
3
 72
43
 73
39
 74
0
 42
0.0000001
 43
0.0000001
 44
0.0000000001
 40
0.0
 40
0.0
 40
0.0
 40
0.0
 40
0.0691296526
 40
0.1325609605
 40
0.1910573737
 40
0.2464271965
 40
0.2739092184
 40
0.3018511437
 40
0.3307816987
 40
0.3612421069
 40
0.3937597541
 40
0.41095189
 40
0.4288403709
 40
0.4474805154
 40
0.4669249067
 40
0.4769648968
 40
0.487224445
 40
0.4977093977
 40
0.5030382417
 40
0.5084255608
 40
0.5138123843
 40
0.5191397512
 40
0.5296188605
 40
0.5398687929
 40
0.5498954745
 40
0.5693024032
 40
0.5878907542
 40
0.6057129478
 40
0.6228237245
 40
0.6551293201
 40
0.6852991449
 40
0.7138394341
 40
0.7412642639
 40
0.7680716354
 40
0.8214983357
 40
0.8770621377
 40
0.936370329
 40
1.0
 40
1.0
 40
1.0
 40
1.0
 10
222.7732620176
 20
172.2605240247
 30
0.0
 10
222.7966020753
 20
172.2605240247
 30
0.0
 10
222.8414095399
 20
172.2624333899
 30
0.0
 10
222.9052464741
 20
172.2730978452
 30
0.0
 10
222.9621652106
 20
172.2927544305
 30
0.0
 10
223.0032034947
 20
172.3181113824
 30
0.0
 10
223.0306534126
 20
172.3436688318
 30
0.0
 10
223.0487929911
 20
172.3657373232
 30
0.0
 10
223.0643835669
 20
172.3908620973
 30
0.0
 10
223.0773217989
 20
172.4191503295
 30
0.0
 10
223.0856551434
 20
172.4449653254
 30
0.0
 10
223.0909712809
 20
172.4671678574
 30
0.0
 10
223.094319425
 20
172.4850014415
 30
0.0
 10
223.0969416709
 20
172.5037227745
 30
0.0
 10
223.0984949352
 20
172.5199017166
 30
0.0
 10
223.0993744456
 20
172.5332921746
 30
0.0
 10
223.0998520722
 20
172.5436755567
 30
0.0
 10
223.1000899354
 20
172.5524759544
 30
0.0
 10
223.1001856938
 20
172.5596334688
 30
0.0
 10
223.1002095644
 20
172.5650702983
 30
0.0
 10
223.1001856981
 20
172.570506629
 30
0.0
 10
223.1000900182
 20
172.5776615051
 30
0.0
 10
223.0998525233
 20
172.5864561903
 30
0.0
 10
223.0993760836
 20
172.5968298988
 30
0.0
 10
223.0984998379
 20
172.6102001331
 30
0.0
 10
223.0969547026
 20
172.6263449944
 30
0.0
 10
223.0943511997
 20
172.6450158029
 30
0.0
 10
223.091034228
 20
172.6627865243
 30
0.0
 10
223.0857822162
 20
172.6848792949
 30
0.0
 10
223.0775794543
 20
172.71052688
 30
0.0
 10
223.0648973363
 20
172.7385967771
 30
0.0
 10
223.0496918526
 20
172.7634789763
 30
0.0
 10
223.0320902759
 20
172.7852916892
 30
0.0
 10
223.0056899563
 20
172.8104112377
 30
0.0
 10
222.9665867414
 20
172.8352844407
 30
0.0
 10
222.9127626732
 20
172.8545662187
 30
0.0
 10
222.8531842119
 20
172.8649772311
 30
0.0
 10
222.8116260993
 20
172.8668608301
 30
0.0
 10
222.7901429855
 20
172.8668608301
 30
0.0
  0
SPLINE
  5
45B
100
AcDbEntity
  8
0
100
AcDbSpline
 62
4
  6
CONTINUOUS
 70
0
 71
3
 72
15
 73
11
 74
0
 42
0.0000001
 43
0.0000001
 44
0.0000000001
 40
0.0
 40
0.0
 40
0.0
 40
0.0
 40
0.1513568285
 40
0.2888519375
 40
0.4145322138
 40
0.5313728937
 40
0.643382688
 40
0.7554237898
 40
0.8726790354
 40
1.0
 40
1.0
 40
1.0
 40
1.0
 10
227.9660544425
 20
173.6370119259
 30
0.0
 10
227.9976512929
 20
173.6370119259
 30
0.0
 10
228.0580187634
 20
173.6397312286
 30
0.0
 10
228.1436496877
 20
173.6537719349
 30
0.0
 10
228.2195732626
 20
173.677924075
 30
0.0
 10
228.2854534455
 20
173.7126335472
 30
0.0
 10
228.3407414158
 20
173.7583062398
 30
0.0
 10
228.3847516658
 20
173.8150756116
 30
0.0
 10
228.4169895635
 20
173.8827364525
 30
0.0
 10
228.4298796388
 20
173.9324526539
 30
0.0
 10
228.4345874285
 20
173.9586115894
 30
0.0
  0
SPLINE
  5
45C
100
AcDbEntity
  8
0
100
AcDbSpline
 62
4
  6
CONTINUOUS
 70
0
 71
3
 72
15
 73
11
 74
0
 42
0.0000001
 43
0.0000001
 44
0.0000000001
 40
0.0
 40
0.0
 40
0.0
 40
0.0
 40
0.1513972288
 40
0.288889041
 40
0.4145386875
 40
0.5313397196
 40
0.6433192252
 40
0.7553536063
 40
0.8726312995
 40
1.0
 40
1.0
 40
1.0
 40
1.0
 10
229.9983162692
 20
173.6370119259
 30
0.0
 10
230.0299081916
 20
173.6370119259
 30
0.0
 10
230.0902579784
 20
173.6397298458
 30
0.0
 10
230.1758536255
 20
173.6537696885
 30
0.0
 10
230.2517262898
 20
173.6779223949
 30
0.0
 10
230.3175466925
 20
173.7126346789
 30
0.0
 10
230.3727718398
 20
173.7583116458
 30
0.0
 10
230.4167237354
 20
173.8150836154
 30
0.0
 10
230.4489185956
 20
173.8827432784
 30
0.0
 10
230.4617971821
 20
173.9324539097
 30
0.0
 10
230.4665047457
 20
173.9586115894
 30
0.0
  0
SPLINE
  5
45D
100
AcDbEntity
  8
0
100
AcDbSpline
 62
4
  6
CONTINUOUS
 70
0
 71
3
 72
11
 73
7
 74
0
 42
0.0000001
 43
0.0000001
 44
0.0000000001
 40
0.0
 40
0.0
 40
0.0
 40
0.0
 40
0.3244582437
 40
0.5958979757
 40
0.81853861
 40
1.0
 40
1.0
 40
1.0
 40
1.0
 10
222.8700123222
 20
151.2581654193
 30
0.0
 10
222.8821202507
 20
151.2581654193
 30
0.0
 10
222.9043747015
 20
151.2589264126
 30
0.0
 10
222.9347129763
 20
151.2631077223
 30
0.0
 10
222.95902253
 20
151.2701640783
 30
0.0
 10
222.9724299839
 20
151.2775645582
 30
0.0
 10
222.9776827054
 20
151.281838236
 30
0.0
  0
SPLINE
  5
45E
100
AcDbEntity
  8
0
100
AcDbSpline
 62
4
  6
CONTINUOUS
 70
0
 71
3
 72
9
 73
5
 74
0
 42
0.0000001
 43
0.0000001
 44
0.0000000001
 40
0.0
 40
0.0
 40
0.0
 40
0.0
 40
0.4928987051
 40
1.0
 40
1.0
 40
1.0
 40
1.0
 10
222.9776827054
 20
151.281838236
 30
0.0
 10
222.9866818269
 20
151.2891720397
 30
0.0
 10
223.0022464943
 20
151.3081957849
 30
0.0
 10
223.0064891805
 20
151.3323172872
 30
0.0
 10
223.0064891805
 20
151.3442607931
 30
0.0
  0
SPLINE
  5
45F
100
AcDbEntity
  8
0
100
AcDbSpline
 62
4
  6
CONTINUOUS
 70
0
 71
3
 72
17
 73
13
 74
0
 42
0.0000001
 43
0.0000001
 44
0.0000000001
 40
0.0
 40
0.0
 40
0.0
 40
0.0
 40
0.1258321787
 40
0.2481701031
 40
0.3697109729
 40
0.4310557686
 40
0.493172237
 40
0.5549528375
 40
0.6166142633
 40
0.7406120425
 40
0.8675965611
 40
1.0
 40
1.0
 40
1.0
 40
1.0
 10
223.0064891805
 20
151.3442607931
 30
0.0
 10
223.0064891805
 20
151.3483086201
 30
0.0
 10
223.0059247441
 20
151.3563071318
 30
0.0
 10
223.0032699807
 20
151.3679459205
 30
0.0
 10
222.9996063978
 20
151.3771034888
 30
0.0
 10
222.9958471078
 20
151.3840354773
 30
0.0
 10
222.9926588357
 20
151.3890789884
 30
0.0
 10
222.988982278
 20
151.3937911152
 30
0.0
 10
222.9836818138
 20
151.3997351843
 30
0.0
 10
222.9761490771
 20
151.4064629666
 30
0.0
 10
222.9657993296
 20
151.4132457002
 30
0.0
 10
222.958203548
 20
151.4167773684
 30
0.0
 10
222.9542316082
 20
151.4183150943
 30
0.0
  0
SPLINE
  5
460
100
AcDbEntity
  8
0
100
AcDbSpline
 62
4
  6
CONTINUOUS
 70
0
 71
3
 72
10
 73
6
 74
0
 42
0.0000001
 43
0.0000001
 44
0.0000000001
 40
0.0
 40
0.0
 40
0.0
 40
0.0
 40
0.169325834
 40
0.39067546
 40
1.0
 40
1.0
 40
1.0
 40
1.0
 10
222.9542316082
 20
151.4183150943
 30
0.0
 10
222.9494031608
 20
151.4202608865
 30
0.0
 10
222.9377132407
 20
151.4233331668
 30
0.0
 10
222.9072393433
 20
151.4275312718
 30
0.0
 10
222.881624839
 20
151.4280622231
 30
0.0
 10
222.8628917163
 20
151.4280622231
 30
0.0
  0
SPLINE
  5
461
100
AcDbEntity
  8
0
100
AcDbSpline
 62
4
  6
CONTINUOUS
 70
0
 71
3
 72
10
 73
6
 74
0
 42
0.0000001
 43
0.0000001
 44
0.0000000001
 40
0.0
 40
0.0
 40
0.0
 40
0.0
 40
0.5909197844
 40
0.8173129634
 40
1.0
 40
1.0
 40
1.0
 40
1.0
 10
222.8621924472
 20
151.5042654977
 30
0.0
 10
222.8907403752
 20
151.5042654977
 30
0.0
 10
222.9303297202
 20
151.5032230205
 30
0.0
 10
222.9782176969
 20
151.4965686718
 30
0.0
 10
222.9974701154
 20
151.4917587997
 30
0.0
 10
223.0057899114
 20
151.4888133565
 30
0.0
  0
SPLINE
  5
462
100
AcDbEntity
  8
0
100
AcDbSpline
 62
4
  6
CONTINUOUS
 70
0
 71
3
 72
21
 73
17
 74
0
 42
0.0000001
 43
0.0000001
 44
0.0000000001
 40
0.0
 40
0.0
 40
0.0
 40
0.0
 40
0.128705946
 40
0.2538781966
 40
0.3163077203
 40
0.3791837342
 40
0.4429249185
 40
0.4752495069
 40
0.5079352232
 40
0.5405891956
 40
0.572802588
 40
0.6360461981
 40
0.6979856347
 40
0.7589520817
 40
0.8792785605
 40
1.0
 40
1.0
 40
1.0
 40
1.0
 10
223.0057899114
 20
151.4888133565
 30
0.0
 10
223.0130242302
 20
151.4862811367
 30
0.0
 10
223.0269521309
 20
151.4802162072
 30
0.0
 10
223.0428400105
 20
151.4699308011
 30
0.0
 10
223.0542734987
 20
151.460328572
 30
0.0
 10
223.0622896041
 20
151.4524065349
 30
0.0
 10
223.0684874311
 20
151.4452389314
 30
0.0
 10
223.0731634933
 20
151.4391611653
 30
0.0
 10
223.076556995
 20
151.4344353389
 30
0.0
 10
223.0797099082
 20
151.4295538522
 30
0.0
 10
223.0836638111
 20
151.4230282437
 30
0.0
 10
223.0881008479
 20
151.4147620175
 30
0.0
 10
223.092639067
 20
151.4046370206
 30
0.0
 10
223.0975684138
 20
151.3910043057
 30
0.0
 10
223.1017275164
 20
151.373428665
 30
0.0
 10
223.1028092326
 20
151.3590481477
 30
0.0
 10
223.1028092326
 20
151.3518589486
 30
0.0
  0
SPLINE
  5
463
100
AcDbEntity
  8
0
100
AcDbSpline
 62
4
  6
CONTINUOUS
 70
0
 71
3
 72
9
 73
5
 74
0
 42
0.0000001
 43
0.0000001
 44
0.0000000001
 40
0.0
 40
0.0
 40
0.0
 40
0.0
 40
0.4960284848
 40
1.0
 40
1.0
 40
1.0
 40
1.0
 10
223.1028092326
 20
151.3518589486
 30
0.0
 10
223.1028092326
 20
151.3322769539
 30
0.0
 10
223.0956965182
 20
151.2921925051
 30
0.0
 10
223.072573884
 20
151.2587744625
 30
0.0
 10
223.0587723358
 20
151.2444443955
 30
0.0
  0
SPLINE
  5
464
100
AcDbEntity
  8
0
100
AcDbSpline
 62
4
  6
CONTINUOUS
 70
0
 71
3
 72
10
 73
6
 74
0
 42
0.0000001
 43
0.0000001
 44
0.0000000001
 40
0.0
 40
0.0
 40
0.0
 40
0.0
 40
0.2406607
 40
0.4819962217
 40
1.0
 40
1.0
 40
1.0
 40
1.0
 10
223.0587723358
 20
151.2444443955
 30
0.0
 10
223.0515469544
 20
151.2369034034
 30
0.0
 10
223.0355535586
 20
151.2231620643
 30
0.0
 10
222.9974212764
 20
151.2019437894
 30
0.0
 10
222.9643568685
 20
151.1948608925
 30
0.0
 10
222.9419432332
 20
151.1931419224
 30
0.0
  0
SPLINE
  5
465
100
AcDbEntity
  8
0
100
AcDbSpline
 62
4
  6
CONTINUOUS
 70
0
 71
3
 72
9
 73
5
 74
0
 42
0.0000001
 43
0.0000001
 44
0.0000000001
 40
0.0
 40
0.0
 40
0.0
 40
0.0
 40
0.2765291631
 40
1.0
 40
1.0
 40
1.0
 40
1.0
 10
222.9419432332
 20
151.1931419224
 30
0.0
 10
222.9467497791
 20
151.1911311256
 30
0.0
 10
222.9638602539
 20
151.183308135
 30
0.0
 10
222.9800187634
 20
151.1728414615
 30
0.0
 10
222.9897237779
 20
151.1632694883
 30
0.0
  0
SPLINE
  5
466
100
AcDbEntity
  8
0
100
AcDbSpline
 62
4
  6
CONTINUOUS
 70
0
 71
3
 72
10
 73
6
 74
0
 42
0.0000001
 43
0.0000001
 44
0.0000000001
 40
0.0
 40
0.0
 40
0.0
 40
0.0
 40
0.1898566158
 40
0.4189753449
 40
1.0
 40
1.0
 40
1.0
 40
1.0
 10
222.9897237779
 20
151.1632694883
 30
0.0
 10
222.9960325441
 20
151.1570862344
 30
0.0
 10
223.0091440095
 20
151.1426155611
 30
0.0
 10
223.0378311319
 20
151.1059589223
 30
0.0
 10
223.058645129
 20
151.0744604642
 30
0.0
 10
223.0730476583
 20
151.0515825717
 30
0.0
  0
SPLINE
  5
467
100
AcDbEntity
  8
0
100
AcDbSpline
 62
4
  6
CONTINUOUS
 70
0
 71
3
 72
11
 73
7
 74
0
 42
0.0000001
 43
0.0000001
 44
0.0000000001
 40
0.0
 40
0.0
 40
0.0
 40
0.0
 40
0.3386000971
 40
0.6170615887
 40
0.8366087155
 40
1.0
 40
1.0
 40
1.0
 40
1.0
 10
222.9807526672
 20
151.0303486692
 30
0.0
 10
222.9717380977
 20
151.0463076075
 30
0.0
 10
222.9548323797
 20
151.0751238147
 30
0.0
 10
222.9299033807
 20
151.1129863431
 30
0.0
 10
222.9078937718
 20
151.1412414748
 30
0.0
 10
222.893013971
 20
151.1559242359
 30
0.0
 10
222.8858567363
 20
151.1611205151
 30
0.0
  0
SPLINE
  5
468
100
AcDbEntity
  8
0
100
AcDbSpline
 62
4
  6
CONTINUOUS
 70
0
 71
3
 72
10
 73
6
 74
0
 42
0.0000001
 43
0.0000001
 44
0.0000000001
 40
0.0
 40
0.0
 40
0.0
 40
0.0
 40
0.2126260179
 40
0.5715060383
 40
1.0
 40
1.0
 40
1.0
 40
1.0
 10
222.8858567363
 20
151.1611205151
 30
0.0
 10
222.8815951634
 20
151.164490233
 30
0.0
 10
222.868971273
 20
151.1721189171
 30
0.0
 10
222.8441093666
 20
151.1792298229
 30
0.0
 10
222.8239278152
 20
151.1805380236
 30
0.0
 10
222.8129792537
 20
151.1805380236
 30
0.0
  0
SPLINE
  5
469
100
AcDbEntity
  8
0
100
AcDbSpline
 62
4
  6
CONTINUOUS
 70
0
 71
3
 72
9
 73
5
 74
0
 42
0.0000001
 43
0.0000001
 44
0.0000000001
 40
0.0
 40
0.0
 40
0.0
 40
0.0
 40
0.4905309891
 40
1.0
 40
1.0
 40
1.0
 40
1.0
 10
222.8983753583
 20
151.6672889981
 30
0.0
 10
222.8618034938
 20
151.6672889981
 30
0.0
 10
222.7869105521
 20
151.6574578636
 30
0.0
 10
222.7172143638
 20
151.6287997079
 30
0.0
 10
222.6838020824
 20
151.6107334792
 30
0.0
  0
SPLINE
  5
46A
100
AcDbEntity
  8
0
100
AcDbSpline
 62
4
  6
CONTINUOUS
 70
0
 71
3
 72
64
 73
60
 74
0
 42
0.0000001
 43
0.0000001
 44
0.0000000001
 40
0.0
 40
0.0
 40
0.0
 40
0.0
 40
0.0425033384
 40
0.0843061613
 40
0.1052231039
 40
0.1262818325
 40
0.1475847044
 40
0.1583601276
 40
0.1692330219
 40
0.1801399238
 40
0.1909335179
 40
0.2122177099
 40
0.233169568
 40
0.2538746803
 40
0.274421752
 40
0.2949015768
 40
0.3154058766
 40
0.3256972021
 40
0.3360288275
 40
0.3462682428
 40
0.356466461
 40
0.3767799733
 40
0.3970594706
 40
0.417392475
 40
0.4378654989
 40
0.4585629801
 40
0.4795663355
 40
0.4902083114
 40
0.5009554943
 40
0.5117027255
 40
0.5223643927
 40
0.5434755397
 40
0.5643896668
 40
0.5852075435
 40
0.6060315968
 40
0.6269644228
 40
0.6481072923
 40
0.6587899555
 40
0.6695617688
 40
0.6803286824
 40
0.690988287
 40
0.7120220668
 40
0.732746138
 40
0.7532453152
 40
0.7736076483
 40
0.7939233958
 40
0.8142838656
 40
0.8245107463
 40
0.8347828895
 40
0.8450285145
 40
0.855235869
 40
0.8755753128
 40
0.8958890152
 40
0.9162621497
 40
0.9367789034
 40
0.957521472
 40
0.9785691679
 40
0.989232426
 40
1.0
 40
1.0
 40
1.0
 40
1.0
 10
222.6838020824
 20
151.6107334792
 30
0.0
 10
222.6666802018
 20
151.6014671745
 30
0.0
 10
222.6339069331
 20
151.5807688372
 30
0.0
 10
222.5971420036
 20
151.5493308975
 30
0.0
 10
222.5708338411
 20
151.5213549511
 30
0.0
 10
222.5525188807
 20
151.4988583683
 30
0.0
 10
222.5384988967
 20
151.4789372111
 30
0.0
 10
222.5280073546
 20
151.4622910806
 30
0.0
 10
222.5204752149
 20
151.4494178766
 30
0.0
 10
222.5133816245
 20
151.4362890802
 30
0.0
 10
222.504509619
 20
151.4187099742
 30
0.0
 10
222.4945503761
 20
151.3965372523
 30
0.0
 10
222.4843877751
 20
151.3695378154
 30
0.0
 10
222.476074151
 20
151.3422643556
 30
0.0
 10
222.4696095246
 20
151.314716044
 30
0.0
 10
222.4649946914
 20
151.2868918044
 30
0.0
 10
222.4626933341
 20
151.2634995696
 30
0.0
 10
222.4617746793
 20
151.2446810273
 30
0.0
 10
222.4615462083
 20
151.2305438891
 30
0.0
 10
222.4617726305
 20
151.2164494113
 30
0.0
 10
222.4626793283
 20
151.1978028044
 30
0.0
 10
222.4649488697
 20
151.1746306714
 30
0.0
 10
222.4694972356
 20
151.1470768102
 30
0.0
 10
222.4758642324
 20
151.119810181
 30
0.0
 10
222.4840468357
 20
151.092832698
 30
0.0
 10
222.4940418926
 20
151.066146051
 30
0.0
 10
222.5038349452
 20
151.044244052
 30
0.0
 10
222.5125511018
 20
151.0268899921
 30
0.0
 10
222.5195354156
 20
151.0139300091
 30
0.0
 10
222.5269211033
 20
151.0011833967
 30
0.0
 10
222.5372536417
 20
150.9846704165
 30
0.0
 10
222.5510872562
 20
150.9648705817
 30
0.0
 10
222.5691933501
 20
150.94246316
 30
0.0
 10
222.5887492304
 20
150.9214873784
 30
0.0
 10
222.6097531503
 20
150.9019491332
 30
0.0
 10
222.6322015864
 20
150.8838524562
 30
0.0
 10
222.6520453642
 20
150.8700245908
 30
0.0
 10
222.6686012408
 20
150.8596937711
 30
0.0
 10
222.6813848409
 20
150.852312364
 30
0.0
 10
222.6943749218
 20
150.8453242515
 30
0.0
 10
222.7117633298
 20
150.8366072849
 30
0.0
 10
222.7337016978
 20
150.8268120849
 30
0.0
 10
222.7604281446
 20
150.8168147326
 30
0.0
 10
222.7874443989
 20
150.808630469
 30
0.0
 10
222.8147539743
 20
150.8022625244
 30
0.0
 10
222.8423600456
 20
150.7977138708
 30
0.0
 10
222.8655837097
 20
150.795444817
 30
0.0
 10
222.8842800069
 20
150.7945385196
 30
0.0
 10
222.898363211
 20
150.7943125651
 30
0.0
 10
222.9124374714
 20
150.7945385593
 30
0.0
 10
222.9311029945
 20
150.7954454736
 30
0.0
 10
222.9543069089
 20
150.7977156071
 30
0.0
 10
222.9819071899
 20
150.8022643139
 30
0.0
 10
223.0092291882
 20
150.8086317075
 30
0.0
 10
223.0362681198
 20
150.8168149504
 30
0.0
 10
223.0630195731
 20
150.8268108082
 30
0.0
 10
223.0849761562
 20
150.8366058609
 30
0.0
 10
223.1023738538
 20
150.8453230357
 30
0.0
 10
223.1110196278
 20
150.8499747305
 30
0.0
 10
223.1153278547
 20
150.8523761602
 30
0.0
  0
SPLINE
  5
46B
100
AcDbEntity
  8
0
100
AcDbSpline
 62
4
  6
CONTINUOUS
 70
0
 71
3
 72
9
 73
5
 74
0
 42
0.0000001
 43
0.0000001
 44
0.0000000001
 40
0.0
 40
0.0
 40
0.0
 40
0.0
 40
0.5009713854
 40
1.0
 40
1.0
 40
1.0
 40
1.0
 10
223.2757248322
 20
151.4493899301
 30
0.0
 10
223.2568437581
 20
151.4832088768
 30
0.0
 10
223.2099526597
 20
151.5461899235
 30
0.0
 10
223.1464452559
 20
151.5924321668
 30
0.0
 10
223.1124796124
 20
151.6107334792
 30
0.0
  0
SPLINE
  5
46C
100
AcDbEntity
  8
0
100
AcDbSpline
 62
4
  6
CONTINUOUS
 70
0
 71
3
 72
9
 73
5
 74
0
 42
0.0000001
 43
0.0000001
 44
0.0000000001
 40
0.0
 40
0.0
 40
0.0
 40
0.0
 40
0.5110076904
 40
1.0
 40
1.0
 40
1.0
 40
1.0
 10
223.1124796124
 20
151.6107334792
 30
0.0
 10
223.0790131262
 20
151.6287715144
 30
0.0
 10
223.0094758245
 20
151.6573540372
 30
0.0
 10
222.9347555577
 20
151.6672889981
 30
0.0
 10
222.8983753583
 20
151.6672889981
 30
0.0
  0
SPLINE
  5
46D
100
AcDbEntity
  8
0
100
AcDbSpline
 62
4
  6
CONTINUOUS
 70
0
 71
3
 72
9
 73
5
 74
0
 42
0.0000001
 43
0.0000001
 44
0.0000000001
 40
0.0
 40
0.0
 40
0.0
 40
0.0
 40
0.4896446722
 40
1.0
 40
1.0
 40
1.0
 40
1.0
 10
222.8983753583
 20
151.7538619214
 30
0.0
 10
222.9421111606
 20
151.7538619214
 30
0.0
 10
223.0318249145
 20
151.7421214985
 30
0.0
 10
223.1153987946
 20
151.7080076648
 30
0.0
 10
223.1555699376
 20
151.6864592041
 30
0.0
  0
SPLINE
  5
46E
100
AcDbEntity
  8
0
100
AcDbSpline
 62
4
  6
CONTINUOUS
 70
0
 71
3
 72
34
 73
30
 74
0
 42
0.0000001
 43
0.0000001
 44
0.0000000001
 40
0.0
 40
0.0
 40
0.0
 40
0.0
 40
0.0849578179
 40
0.1267938467
 40
0.1684676837
 40
0.2101993228
 40
0.2522106572
 40
0.2733935782
 40
0.2947286681
 40
0.3162426629
 40
0.3270753713
 40
0.337962601
 40
0.3596329526
 40
0.3810939472
 40
0.42345802
 40
0.4652146576
 40
0.5065258241
 40
0.5475587561
 40
0.5884840999
 40
0.6294738449
 40
0.6500491608
 40
0.6707045607
 40
0.6911365591
 40
0.7114909458
 40
0.7520449483
 40
0.7925408219
 40
0.833149507
 40
0.9153440482
 40
1.0
 40
1.0
 40
1.0
 40
1.0
 10
223.1555699376
 20
151.6864592041
 30
0.0
 10
223.1761132958
 20
151.675328317
 30
0.0
 10
223.2057323449
 20
151.6566448308
 30
0.0
 10
223.2420495284
 20
151.6278279556
 30
0.0
 10
223.2674317962
 20
151.6044958106
 30
0.0
 10
223.2910703171
 20
151.5793371057
 30
0.0
 10
223.3092630534
 20
151.5569022652
 30
0.0
 10
223.3229172076
 20
151.5380825504
 30
0.0
 10
223.3327493208
 20
151.5234682509
 30
0.0
 10
223.3405567215
 20
151.5109343769
 30
0.0
 10
223.346584816
 20
151.5006848722
 30
0.0
 10
223.3524453599
 20
151.4902895184
 30
0.0
 10
223.3595051879
 20
151.4772155806
 30
0.0
 10
223.3700366299
 20
151.456189738
 30
0.0
 10
223.3818757789
 20
151.4296545573
 30
0.0
 10
223.3939472253
 20
151.3973153044
 30
0.0
 10
223.4038255942
 20
151.3646212414
 30
0.0
 10
223.4115077018
 20
151.3315766636
 30
0.0
 10
223.4169927
 20
151.2981872944
 30
0.0
 10
223.4197283955
 20
151.270111478
 30
0.0
 10
223.4208208437
 20
151.2475224073
 30
0.0
 10
223.4210922028
 20
151.2305630903
 30
0.0
 10
223.4208245039
 20
151.213664565
 30
0.0
 10
223.4197529772
 20
151.1913168622
 30
0.0
 10
223.4170677722
 20
151.1635369631
 30
0.0
 10
223.4116762569
 20
151.1304912567
 30
0.0
 10
223.4015595243
 20
151.0867065328
 30
0.0
 10
223.3832846441
 20
151.0324832575
 30
0.0
 10
223.363247109
 20
150.9910600239
 30
0.0
 10
223.3519281068
 20
150.9707146608
 30
0.0
  0
SPLINE
  5
46F
100
AcDbEntity
  8
0
100
AcDbSpline
 62
4
  6
CONTINUOUS
 70
0
 71
3
 72
67
 73
63
 74
0
 42
0.0000001
 43
0.0000001
 44
0.0000000001
 40
0.0
 40
0.0
 40
0.0
 40
0.0
 40
0.0423604086
 40
0.0838461556
 40
0.1045342379
 40
0.1253156248
 40
0.146291888
 40
0.156885398
 40
0.1675639469
 40
0.1782737727
 40
0.1888772319
 40
0.2098024727
 40
0.2304242873
 40
0.2508285815
 40
0.2711039481
 40
0.2913405984
 40
0.3116291881
 40
0.3218224325
 40
0.3320622298
 40
0.3423034937
 40
0.3525007213
 40
0.3728023134
 40
0.393054479
 40
0.4133429273
 40
0.43375314
 40
0.4543693121
 40
0.4752733749
 40
0.4858593301
 40
0.4965465035
 40
0.5072486578
 40
0.517862603
 40
0.5388720093
 40
0.5596791017
 40
0.5803885613
 40
0.6011069168
 40
0.6219409263
 40
0.6324359349
 40
0.6429991438
 40
0.6536432517
 40
0.6589997295
 40
0.6643810696
 40
0.6750950792
 40
0.68570223
 40
0.7066319153
 40
0.7272515839
 40
0.7476433807
 40
0.767891655
 40
0.7880819852
 40
0.8083001182
 40
0.8184475101
 40
0.8286335176
 40
0.8389308897
 40
0.8491883546
 40
0.8696232678
 40
0.8900267565
 40
0.910485295
 40
0.9310849332
 40
0.9519102378
 40
0.9730433296
 40
0.983751292
 40
0.9945654461
 40
1.0
 40
1.0
 40
1.0
 40
1.0
 10
223.3519281068
 20
150.9707146608
 30
0.0
 10
223.3406616382
 20
150.950241411
 30
0.0
 10
223.3156422174
 20
150.9111352177
 30
0.0
 10
223.2778302854
 20
150.867317988
 30
0.0
 10
223.2443298744
 20
150.8360917395
 30
0.0
 10
223.2174943014
 20
150.8144444402
 30
0.0
 10
223.1937749294
 20
150.7979251994
 30
0.0
 10
223.1739902827
 20
150.7855988264
 30
0.0
 10
223.1587046623
 20
150.77678123
 30
0.0
 10
223.1431406557
 20
150.7684547464
 30
0.0
 10
223.1222873218
 20
150.7580524596
 30
0.0
 10
223.095972968
 20
150.7463754295
 30
0.0
 10
223.0639144008
 20
150.7344692107
 30
0.0
 10
223.0315042526
 20
150.7247329232
 30
0.0
 10
222.9987378019
 20
150.7171654539
 30
0.0
 10
222.9656103343
 20
150.7117658861
 30
0.0
 10
222.9377390872
 20
150.7090757346
 30
0.0
 10
222.915297154
 20
150.7080017534
 30
0.0
 10
222.8983745488
 20
150.7077343036
 30
0.0
 10
222.8814497487
 20
150.7080018229
 30
0.0
 10
222.8589976337
 20
150.7090759452
 30
0.0
 10
222.8311084157
 20
150.7117662167
 30
0.0
 10
222.797957624
 20
150.7171651268
 30
0.0
 10
222.7651713201
 20
150.724731392
 30
0.0
 10
222.7327530382
 20
150.7344663527
 30
0.0
 10
222.7007055079
 20
150.7463700489
 30
0.0
 10
222.6744194094
 20
150.7580504748
 30
0.0
 10
222.6536019737
 20
150.768449707
 30
0.0
 10
222.6380640232
 20
150.7768047217
 30
0.0
 10
222.6227492924
 20
150.7855946566
 30
0.0
 10
222.6029161628
 20
150.7979242632
 30
0.0
 10
222.5791413169
 20
150.8144405774
 30
0.0
 10
222.5522506633
 20
150.836088581
 30
0.0
 10
222.5270938432
 20
150.859495921
 30
0.0
 10
222.5036771974
 20
150.8846631135
 30
0.0
 10
222.4856576453
 20
150.9070508751
 30
0.0
 10
222.4721350104
 20
150.9257964716
 30
0.0
 10
222.4624009434
 20
150.9403304552
 30
0.0
 10
222.4546699175
 20
150.9527828421
 30
0.0
 10
222.4486995701
 20
150.9629565016
 30
0.0
 10
222.4428968864
 20
150.9732706629
 30
0.0
 10
222.4358849962
 20
150.9862277505
 30
0.0
 10
222.4254434937
 20
151.0070696946
 30
0.0
 10
222.4137108593
 20
151.0333627105
 30
0.0
 10
222.40176198
 20
151.0653999539
 30
0.0
 10
222.3919949388
 20
151.0977768739
 30
0.0
 10
222.3844085054
 20
151.1304904508
 30
0.0
 10
222.378998247
 20
151.1635358305
 30
0.0
 10
222.3763030974
 20
151.1913165572
 30
0.0
 10
222.3752275713
 20
151.2136644971
 30
0.0
 10
222.3749590595
 20
151.230563088
 30
0.0
 10
222.3752307103
 20
151.2475224206
 30
0.0
 10
222.3763238816
 20
151.2701115967
 30
0.0
 10
222.3790625775
 20
151.2981878441
 30
0.0
 10
222.3845566284
 20
151.3315778021
 30
0.0
 10
222.3922556682
 20
151.3646231286
 30
0.0
 10
222.4021611166
 20
151.3973180785
 30
0.0
 10
222.4142722878
 20
151.4296581915
 30
0.0
 10
222.4261553838
 20
151.4561924838
 30
0.0
 10
222.4367309219
 20
151.4772165771
 30
0.0
 10
222.4438200174
 20
151.4902915076
 30
0.0
 10
222.4482407898
 20
151.4980896161
 30
0.0
 10
222.4497427793
 20
151.5006842526
 30
0.0
  0
SPLINE
  5
470
100
AcDbEntity
  8
0
100
AcDbSpline
 62
4
  6
CONTINUOUS
 70
0
 71
3
 72
9
 73
5
 74
0
 42
0.0000001
 43
0.0000001
 44
0.0000000001
 40
0.0
 40
0.0
 40
0.0
 40
0.0
 40
0.5101832852
 40
1.0
 40
1.0
 40
1.0
 40
1.0
 10
222.6411807791
 20
151.6864592041
 30
0.0
 10
222.6813241772
 20
151.7080279353
 30
0.0
 10
222.7649110967
 20
151.742127394
 30
0.0
 10
222.8546236993
 20
151.7538619214
 30
0.0
 10
222.8983753583
 20
151.7538619214
 30
0.0
  0
SPLINE
  5
471
100
AcDbEntity
  8
0
100
AcDbSpline
 62
4
  6
CONTINUOUS
 70
0
 71
3
 72
15
 73
11
 74
0
 42
0.0000001
 43
0.0000001
 44
0.0000000001
 40
0.0
 40
0.0
 40
0.0
 40
0.0
 40
0.1464004609
 40
0.2805012405
 40
0.4039383104
 40
0.519486995
 40
0.6312825305
 40
0.7446903123
 40
0.8656806456
 40
1.0
 40
1.0
 40
1.0
 40
1.0
 10
204.3934513635
 20
151.6360777195
 30
0.0
 10
204.4338408121
 20
151.6360777195
 30
0.0
 10
204.5113416565
 20
151.6319002245
 30
0.0
 10
204.6211757256
 20
151.6108071147
 30
0.0
 10
204.7182150297
 20
151.5748220831
 30
0.0
 10
204.801107161
 20
151.5234285662
 30
0.0
 10
204.8681087421
 20
151.4561715805
 30
0.0
 10
204.9172270951
 20
151.3731134467
 30
0.0
 10
204.9468850613
 20
151.2749198281
 30
0.0
 10
204.9526875476
 20
151.2042145792
 30
0.0
 10
204.9526875476
 20
151.1671581067
 30
0.0
  0
SPLINE
  5
472
100
AcDbEntity
  8
0
100
AcDbSpline
 62
4
  6
CONTINUOUS
 70
0
 71
3
 72
13
 73
9
 74
0
 42
0.0000001
 43
0.0000001
 44
0.0000000001
 40
0.0
 40
0.0
 40
0.0
 40
0.0
 40
0.260606198
 40
0.3823713948
 40
0.5015591818
 40
0.620711612
 40
0.7422282211
 40
1.0
 40
1.0
 40
1.0
 40
1.0
 10
204.9526875476
 20
151.1671581067
 30
0.0
 10
204.9526875476
 20
151.1224851631
 30
0.0
 10
204.9446263109
 20
151.0562485827
 30
0.0
 10
204.9144518172
 20
150.9754263114
 30
0.0
 10
204.8838224424
 20
150.9215162055
 30
0.0
 10
204.8449938652
 20
150.8732433769
 30
0.0
 10
204.7816416833
 20
150.8155130628
 30
0.0
 10
204.7242683801
 20
150.7828370905
 30
0.0
 10
204.6836736153
 20
150.7653853809
 30
0.0
  0
SPLINE
  5
473
100
AcDbEntity
  8
0
100
AcDbSpline
 62
4
  6
CONTINUOUS
 70
0
 71
3
 72
15
 73
11
 74
0
 42
0.0000001
 43
0.0000001
 44
0.0000000001
 40
0.0
 40
0.0
 40
0.0
 40
0.0
 40
0.1302121843
 40
0.2520380739
 40
0.3690320301
 40
0.4848894955
 40
0.6031355756
 40
0.7268468862
 40
0.8585064035
 40
1.0
 40
1.0
 40
1.0
 40
1.0
 10
204.6836736153
 20
150.7599361987
 30
0.0
 10
204.7115511246
 20
150.7538436375
 30
0.0
 10
204.764761211
 20
150.7379503631
 30
0.0
 10
204.8373532216
 20
150.7012970878
 30
0.0
 10
204.8991586621
 20
150.6533395831
 30
0.0
 10
204.949825193
 20
150.5947855738
 30
0.0
 10
204.9891620869
 20
150.5264422216
 30
0.0
 10
205.0171222791
 20
150.4490881208
 30
0.0
 10
205.0337282581
 20
150.3634171173
 30
0.0
 10
205.03710297
 20
150.3034681515
 30
0.0
 10
205.03710297
 20
150.2724603721
 30
0.0
  0
SPLINE
  5
474
100
AcDbEntity
  8
0
100
AcDbSpline
 62
4
  6
CONTINUOUS
 70
0
 71
3
 72
15
 73
11
 74
0
 42
0.0000001
 43
0.0000001
 44
0.0000000001
 40
0.0
 40
0.0
 40
0.0
 40
0.0
 40
0.1099340606
 40
0.2156491603
 40
0.3204251094
 40
0.4287330945
 40
0.5457790712
 40
0.6768503801
 40
0.8268260942
 40
1.0
 40
1.0
 40
1.0
 40
1.0
 10
205.03710297
 20
150.2724603721
 30
0.0
 10
205.03710297
 20
150.2364020952
 30
0.0
 10
205.0311182117
 20
150.1654403607
 30
0.0
 10
205.0011455201
 20
150.0638733296
 30
0.0
 10
204.9490264037
 20
149.9720757835
 30
0.0
 10
204.8737988716
 20
149.8927469296
 30
0.0
 10
204.7750935051
 20
149.8283310713
 30
0.0
 10
204.6526612241
 20
149.7807161057
 30
0.0
 10
204.5059683791
 20
149.7514671358
 30
0.0
 10
204.3997897575
 20
149.7457316726
 30
0.0
 10
204.342988866
 20
149.7457316726
 30
0.0
  0
SPLINE
  5
475
100
AcDbEntity
  8
0
100
AcDbSpline
 62
4
  6
CONTINUOUS
 70
0
 71
3
 72
14
 73
10
 74
0
 42
0.0000001
 43
0.0000001
 44
0.0000000001
 40
0.0
 40
0.0
 40
0.0
 40
0.0
 40
0.2593161264
 40
0.3796380157
 40
0.4962786292
 40
0.6124311137
 40
0.7320904942
 40
0.8597517973
 40
1.0
 40
1.0
 40
1.0
 40
1.0
 10
204.3457816785
 20
150.8445221746
 30
0.0
 10
204.382920453
 20
150.8445221746
 30
0.0
 10
204.4380905406
 20
150.8520522891
 30
0.0
 10
204.5034711755
 20
150.8808753492
 30
0.0
 10
204.5449990039
 20
150.9104211928
 30
0.0
 10
204.5790008742
 20
150.9483030075
 30
0.0
 10
204.6043467566
 20
150.994281223
 30
0.0
 10
204.6199879611
 20
151.0479558007
 30
0.0
 10
204.6231783121
 20
151.0864573287
 30
0.0
 10
204.6231783121
 20
151.106543416
 30
0.0
  0
SPLINE
  5
476
100
AcDbEntity
  8
0
100
AcDbSpline
 62
4
  6
CONTINUOUS
 70
0
 71
3
 72
15
 73
11
 74
0
 42
0.0000001
 43
0.0000001
 44
0.0000000001
 40
0.0
 40
0.0
 40
0.0
 40
0.0
 40
0.1506381527
 40
0.2800330159
 40
0.394463479
 40
0.5016723645
 40
0.6098507404
 40
0.7260202832
 40
0.8550940242
 40
1.0
 40
1.0
 40
1.0
 40
1.0
 10
204.6231783121
 20
151.106543416
 30
0.0
 10
204.6231783121
 20
151.1285434171
 30
0.0
 10
204.6208005104
 20
151.169539868
 30
0.0
 10
204.6076828512
 20
151.2260012729
 30
0.0
 10
204.585097906
 20
151.2726091909
 30
0.0
 10
204.5530162507
 20
151.30934339
 30
0.0
 10
204.512136514
 20
151.3362578953
 30
0.0
 10
204.4633360533
 20
151.3541305787
 30
0.0
 10
204.4070112274
 20
151.3640366521
 30
0.0
 10
204.3669445218
 20
151.3658102195
 30
0.0
 10
204.3457816785
 20
151.3658102195
 30
0.0
  0
SPLINE
  5
477
100
AcDbEntity
  8
0
100
AcDbSpline
 62
4
  6
CONTINUOUS
 70
0
 71
3
 72
35
 73
31
 74
0
 42
0.0000001
 43
0.0000001
 44
0.0000000001
 40
0.0
 40
0.0
 40
0.0
 40
0.0
 40
0.072496642
 40
0.138200532
 40
0.1987204093
 40
0.2561070313
 40
0.3127707218
 40
0.3416720414
 40
0.3713312837
 40
0.4020336133
 40
0.4340396286
 40
0.450609719
 40
0.4675910265
 40
0.4850085837
 40
0.4938887774
 40
0.502886694
 40
0.5117789517
 40
0.5205481018
 40
0.5377285244
 40
0.5544546151
 40
0.5707538926
 40
0.6021818795
 40
0.6322769363
 40
0.6613236578
 40
0.6896314005
 40
0.7452502752
 40
0.8018857712
 40
0.8619798905
 40
0.927521657
 40
1.0
 40
1.0
 40
1.0
 40
1.0
 10
204.3909101173
 20
150.0159138959
 30
0.0
 10
204.4146665815
 20
150.0159138959
 30
0.0
 10
204.4600522231
 20
150.0188251473
 30
0.0
 10
204.5238320006
 20
150.0334961206
 30
0.0
 10
204.5792124062
 20
150.0580958744
 30
0.0
 10
204.6255742424
 20
150.0924436957
 30
0.0
 10
204.655943474
 20
150.128719643
 30
0.0
 10
204.6748900676
 20
150.1614538153
 30
0.0
 10
204.6866920661
 20
150.1882834466
 30
0.0
 10
204.6959243451
 20
150.2171619004
 30
0.0
 10
204.7013837863
 20
150.2426030744
 30
0.0
 10
204.7044694104
 20
150.2638682544
 30
0.0
 10
204.7061466025
 20
150.2804912352
 30
0.0
 10
204.7069805588
 20
150.2946530091
 30
0.0
 10
204.7073163023
 20
150.3062147952
 30
0.0
 10
204.7074000041
 20
150.3149873563
 30
0.0
 10
204.7073165328
 20
150.3237235371
 30
0.0
 10
204.7069807381
 20
150.3351365541
 30
0.0
 10
204.7061476046
 20
150.3491003657
 30
0.0
 10
204.7044707498
 20
150.3654721419
 30
0.0
 10
204.7013872841
 20
150.3863721073
 30
0.0
 10
204.695931589
 20
150.4113271021
 30
0.0
 10
204.6866971615
 20
150.4395876215
 30
0.0
 10
204.6748895839
 20
150.4657663009
 30
0.0
 10
204.6559196095
 20
150.49763472
 30
0.0
 10
204.6254603186
 20
150.5328180295
 30
0.0
 10
204.5790532903
 20
150.5658534163
 30
0.0
 10
204.5236945862
 20
150.5893484205
 30
0.0
 10
204.4599779262
 20
150.6032763426
 30
0.0
 10
204.4146605851
 20
150.6060202517
 30
0.0
 10
204.3909101173
 20
150.6060202517
 30
0.0
  0
SPLINE
  5
478
100
AcDbEntity
  8
0
100
AcDbSpline
 62
4
  6
CONTINUOUS
 70
0
 71
3
 72
15
 73
11
 74
0
 42
0.0000001
 43
0.0000001
 44
0.0000000001
 40
0.0
 40
0.0
 40
0.0
 40
0.0
 40
0.1464334513
 40
0.2805432489
 40
0.4039726437
 40
0.5195052969
 40
0.631284977
 40
0.7446836827
 40
0.865674027
 40
1.0
 40
1.0
 40
1.0
 40
1.0
 10
206.3306910772
 20
151.6360777195
 30
0.0
 10
206.3710873924
 20
151.6360777195
 30
0.0
 10
206.4485955795
 20
151.6319013459
 30
0.0
 10
206.5584333289
 20
151.6108090497
 30
0.0
 10
206.655462591
 20
151.5748239266
 30
0.0
 10
206.7383352136
 20
151.523428814
 30
0.0
 10
206.805311329
 20
151.4561692258
 30
0.0
 10
206.8544030121
 20
151.3731096902
 30
0.0
 10
206.8840402512
 20
151.2749171863
 30
0.0
 10
206.8898377208
 20
151.204214355
 30
0.0
 10
206.8898377208
 20
151.1671581067
 30
0.0
  0
SPLINE
  5
479
100
AcDbEntity
  8
0
100
AcDbSpline
 62
4
  6
CONTINUOUS
 70
0
 71
3
 72
13
 73
9
 74
0
 42
0.0000001
 43
0.0000001
 44
0.0000000001
 40
0.0
 40
0.0
 40
0.0
 40
0.0
 40
0.2605047635
 40
0.3822032331
 40
0.5013234454
 40
0.620428236
 40
0.7419462969
 40
1.0
 40
1.0
 40
1.0
 40
1.0
 10
206.8898377208
 20
151.1671581067
 30
0.0
 10
206.8898377208
 20
151.1224871779
 30
0.0
 10
206.8818083363
 20
151.0562574205
 30
0.0
 10
206.8516852153
 20
150.9754268745
 30
0.0
 10
206.8210829791
 20
150.9215119074
 30
0.0
 10
206.7822560813
 20
150.873233843
 30
0.0
 10
206.7188306275
 20
150.8154771463
 30
0.0
 10
206.6613579479
 20
150.7828215484
 30
0.0
 10
206.6206873458
 20
150.7653853809
 30
0.0
  0
SPLINE
  5
47A
100
AcDbEntity
  8
0
100
AcDbSpline
 62
4
  6
CONTINUOUS
 70
0
 71
3
 72
15
 73
11
 74
0
 42
0.0000001
 43
0.0000001
 44
0.0000000001
 40
0.0
 40
0.0
 40
0.0
 40
0.0
 40
0.130153383
 40
0.2519516772
 40
0.3689416235
 40
0.4848102653
 40
0.6030750409
 40
0.7268070905
 40
0.8584867682
 40
1.0
 40
1.0
 40
1.0
 40
1.0
 10
206.6206873458
 20
150.7599361987
 30
0.0
 10
206.6485475271
 20
150.7538429513
 30
0.0
 10
206.701729148
 20
150.7379468532
 30
0.0
 10
206.7742859086
 20
150.7012929108
 30
0.0
 10
206.8360720634
 20
150.6533360022
 30
0.0
 10
206.8867322417
 20
150.5947836004
 30
0.0
 10
206.9260721031
 20
150.526441924
 30
0.0
 10
206.9540401555
 20
150.4490887673
 30
0.0
 10
206.9706542199
 20
150.3634178019
 30
0.0
 10
206.9740314238
 20
150.3034682191
 30
0.0
 10
206.9740314238
 20
150.2724603721
 30
0.0
  0
SPLINE
  5
47B
100
AcDbEntity
  8
0
100
AcDbSpline
 62
4
  6
CONTINUOUS
 70
0
 71
3
 72
15
 73
11
 74
0
 42
0.0000001
 43
0.0000001
 44
0.0000000001
 40
0.0
 40
0.0
 40
0.0
 40
0.0
 40
0.1099448363
 40
0.2156640005
 40
0.3204342111
 40
0.4287281012
 40
0.5457575987
 40
0.6768185741
 40
0.82679886
 40
1.0
 40
1.0
 40
1.0
 40
1.0
 10
206.9740314238
 20
150.2724603721
 30
0.0
 10
206.9740314238
 20
150.2364023792
 30
0.0
 10
206.9680536368
 20
150.1654436218
 30
0.0
 10
206.9381079748
 20
150.0638779933
 30
0.0
 10
206.8860247335
 20
149.972079048
 30
0.0
 10
206.8108337647
 20
149.8927471087
 30
0.0
 10
206.7121597601
 20
149.8283290934
 30
0.0
 10
206.5897496695
 20
149.780713885
 30
0.0
 10
206.4430652947
 20
149.75146589
 30
0.0
 10
206.3368874184
 20
149.7457316726
 30
0.0
 10
206.2800836094
 20
149.7457316726
 30
0.0
  0
SPLINE
  5
47C
100
AcDbEntity
  8
0
100
AcDbSpline
 62
4
  6
CONTINUOUS
 70
0
 71
3
 72
14
 73
10
 74
0
 42
0.0000001
 43
0.0000001
 44
0.0000000001
 40
0.0
 40
0.0
 40
0.0
 40
0.0
 40
0.2591933541
 40
0.3795304331
 40
0.4962094258
 40
0.6124024802
 40
0.7320890029
 40
0.859758165
 40
1.0
 40
1.0
 40
1.0
 40
1.0
 10
206.2828508388
 20
150.8445221746
 30
0.0
 10
206.3199742295
 20
150.8445221746
 30
0.0
 10
206.3751299711
 20
150.8520615344
 30
0.0
 10
206.4405060022
 20
150.8808781351
 30
0.0
 10
206.4820549199
 20
150.9104216642
 30
0.0
 10
206.5160868156
 20
150.9483003802
 30
0.0
 10
206.5414649081
 20
150.994276967
 30
0.0
 10
206.5571316687
 20
151.0479526461
 30
0.0
 10
206.5603284853
 20
151.0864570506
 30
0.0
 10
206.5603284853
 20
151.106543416
 30
0.0
  0
SPLINE
  5
47D
100
AcDbEntity
  8
0
100
AcDbSpline
 62
4
  6
CONTINUOUS
 70
0
 71
3
 72
15
 73
11
 74
0
 42
0.0000001
 43
0.0000001
 44
0.0000000001
 40
0.0
 40
0.0
 40
0.0
 40
0.0
 40
0.1506125815
 40
0.2799858546
 40
0.394399421
 40
0.5015982031
 40
0.6097759932
 40
0.7259566936
 40
0.8550548916
 40
1.0
 40
1.0
 40
1.0
 40
1.0
 10
206.5603284853
 20
151.106543416
 30
0.0
 10
206.5603284853
 20
151.1285434167
 30
0.0
 10
206.5579508121
 20
151.1695399276
 30
0.0
 10
206.5448326203
 20
151.226001729
 30
0.0
 10
206.5222448912
 20
151.2726103163
 30
0.0
 10
206.4901569435
 20
151.3093448447
 30
0.0
 10
206.4492669285
 20
151.3362590277
 30
0.0
 10
206.4004515115
 20
151.3541311987
 30
0.0
 10
206.344105761
 20
151.3640368898
 30
0.0
 10
206.3040229909
 20
151.3658102195
 30
0.0
 10
206.2828508388
 20
151.3658102195
 30
0.0
  0
SPLINE
  5
47E
100
AcDbEntity
  8
0
100
AcDbSpline
 62
4
  6
CONTINUOUS
 70
0
 71
3
 72
35
 73
31
 74
0
 42
0.0000001
 43
0.0000001
 44
0.0000000001
 40
0.0
 40
0.0
 40
0.0
 40
0.0
 40
0.0724858173
 40
0.1381764927
 40
0.1986842332
 40
0.2560633681
 40
0.3127270003
 40
0.3416314608
 40
0.3712959149
 40
0.402005352
 40
0.4340201103
 40
0.450595082
 40
0.4675815576
 40
0.4850045252
 40
0.4938875001
 40
0.5028882414
 40
0.5117832906
 40
0.5205551869
 40
0.5377409446
 40
0.5544721208
 40
0.5707761893
 40
0.6022127136
 40
0.6323146362
 40
0.6613662905
 40
0.6896768631
 40
0.7452950161
 40
0.8019224507
 40
0.8620040787
 40
0.9275324959
 40
1.0
 40
1.0
 40
1.0
 40
1.0
 10
206.3280091245
 20
150.0159138959
 30
0.0
 10
206.351754585
 20
150.0159138959
 30
0.0
 10
206.3971182048
 20
150.018824841
 30
0.0
 10
206.4608650407
 20
150.0334960242
 30
0.0
 10
206.516212867
 20
150.0580968056
 30
0.0
 10
206.5625433613
 20
150.0924462345
 30
0.0
 10
206.5928877479
 20
150.1287216951
 30
0.0
 10
206.6118179972
 20
150.1614546801
 30
0.0
 10
206.6236098143
 20
150.1882842261
 30
0.0
 10
206.6328338038
 20
150.2171625236
 30
0.0
 10
206.6382881207
 20
150.2426033341
 30
0.0
 10
206.6413708204
 20
150.2638683343
 30
0.0
 10
206.6430464069
 20
150.2804912881
 30
0.0
 10
206.6438795506
 20
150.294653026
 30
0.0
 10
206.6442149645
 20
150.3062147985
 30
0.0
 10
206.6442985832
 20
150.3149873563
 30
0.0
 10
206.6442151947
 20
150.3237235338
 30
0.0
 10
206.6438797297
 20
150.3351365369
 30
0.0
 10
206.6430474081
 20
150.3491003119
 30
0.0
 10
206.641372159
 20
150.3654720603
 30
0.0
 10
206.6382916168
 20
150.386371842
 30
0.0
 10
206.6328410481
 20
150.4113264642
 30
0.0
 10
206.6236149188
 20
150.4395868251
 30
0.0
 10
206.6118175322
 20
150.4657654227
 30
0.0
 10
206.5928639472
 20
150.4976326636
 30
0.0
 10
206.5624295279
 20
150.5328155899
 30
0.0
 10
206.5160537292
 20
150.5658526009
 30
0.0
 10
206.4607275558
 20
150.589348557
 30
0.0
 10
206.3970438677
 20
150.6032766397
 30
0.0
 10
206.3517485858
 20
150.6060202517
 30
0.0
 10
206.3280091245
 20
150.6060202517
 30
0.0
  0
SPLINE
  5
47F
100
AcDbEntity
  8
0
100
AcDbSpline
 62
4
  6
CONTINUOUS
 70
0
 71
3
 72
15
 73
11
 74
0
 42
0.0000001
 43
0.0000001
 44
0.0000000001
 40
0.0
 40
0.0
 40
0.0
 40
0.0
 40
0.1414837041
 40
0.2711505014
 40
0.3895259609
 40
0.4992651997
 40
0.6060405116
 40
0.7185374982
 40
0.8467752625
 40
1.0
 40
1.0
 40
1.0
 40
1.0
 10
208.4550918662
 20
151.2364539671
 30
0.0
 10
208.4550918662
 20
151.2647122685
 30
0.0
 10
208.4567285654
 20
151.3189054398
 30
0.0
 10
208.4665845859
 20
151.3962502284
 30
0.0
 10
208.4856664931
 20
151.4654646572
 30
0.0
 10
208.5163104276
 20
151.5256080007
 30
0.0
 10
208.5610896026
 20
151.5749270013
 30
0.0
 10
208.6215269589
 20
151.6109567075
 30
0.0
 10
208.6980032597
 20
151.6322838826
 30
0.0
 10
208.7544199033
 20
151.6360777195
 30
0.0
 10
208.7850232214
 20
151.6360777195
 30
0.0
  0
SPLINE
  5
480
100
AcDbEntity
  8
0
100
AcDbSpline
 62
4
  6
CONTINUOUS
 70
0
 71
3
 72
9
 73
5
 74
0
 42
0.0000001
 43
0.0000001
 44
0.0000000001
 40
0.0
 40
0.0
 40
0.0
 40
0.0
 40
0.4915861871
 40
1.0
 40
1.0
 40
1.0
 40
1.0
 10
208.7850232214
 20
151.6360777195
 30
0.0
 10
208.8080207869
 20
151.6360777195
 30
0.0
 10
208.8548449621
 20
151.6347784918
 30
0.0
 10
208.901335415
 20
151.6291005316
 30
0.0
 10
208.9248770377
 20
151.6257080707
 30
0.0
  0
SPLINE
  5
481
100
AcDbEntity
  8
0
100
AcDbSpline
 62
4
  6
CONTINUOUS
 70
0
 71
3
 72
31
 73
27
 74
0
 42
0.0000001
 43
0.0000001
 44
0.0000000001
 40
0.0
 40
0.0
 40
0.0
 40
0.0
 40
0.0652299905
 40
0.0962274068
 40
0.1264546588
 40
0.1561507993
 40
0.1855624957
 40
0.2002414353
 40
0.2149455415
 40
0.2297079504
 40
0.2371215686
 40
0.2445624005
 40
0.2613781482
 40
0.2776758789
 40
0.3087801939
 40
0.3380121562
 40
0.36551464
 40
0.4159180899
 40
0.4613243824
 40
0.503156465
 40
0.5428696616
 40
0.6209333004
 40
0.7037233576
 40
0.7946366684
 40
0.8938746139
 40
1.0
 40
1.0
 40
1.0
 40
1.0
 10
208.9248770377
 20
151.4825540455
 30
0.0
 10
208.91416345
 20
151.4844009684
 30
0.0
 10
208.8983453075
 20
151.4870543265
 30
0.0
 10
208.8774931552
 20
151.4901213784
 30
0.0
 10
208.8624631251
 20
151.492059111
 30
0.0
 10
208.8476562283
 20
151.4936349522
 30
0.0
 10
208.8353957307
 20
151.4946142789
 30
0.0
 10
208.8256124078
 20
151.4951756843
 30
0.0
 10
208.8182609405
 20
151.4954822995
 30
0.0
 10
208.8121159572
 20
151.4956384199
 30
0.0
 10
208.807180185
 20
151.4957015722
 30
0.0
 10
208.8019018481
 20
151.4957245
 30
0.0
 10
208.7951425887
 20
151.4956566708
 30
0.0
 10
208.7844443783
 20
151.4953179603
 30
0.0
 10
208.7716941777
 20
151.4944875381
 30
0.0
 10
208.7571437597
 20
151.4928073765
 30
0.0
 10
208.739538449
 20
151.4897860466
 30
0.0
 10
208.7196047469
 20
151.4845340156
 30
0.0
 10
208.6983935423
 20
151.4755682324
 30
0.0
 10
208.6804052735
 20
151.4642365713
 30
0.0
 10
208.6605602015
 20
151.446333114
 30
0.0
 10
208.6420059478
 20
151.4178026584
 30
0.0
 10
208.629383786
 20
151.3774553417
 30
0.0
 10
208.6232498613
 20
151.3322647734
 30
0.0
 10
208.6212581118
 20
151.2828943302
 30
0.0
 10
208.6212748689
 20
151.2486666903
 30
0.0
 10
208.6212748689
 20
151.2309792019
 30
0.0
  0
SPLINE
  5
482
100
AcDbEntity
  8
0
100
AcDbSpline
 62
4
  6
CONTINUOUS
 70
0
 71
3
 72
13
 73
9
 74
0
 42
0.0000001
 43
0.0000001
 44
0.0000000001
 40
0.0
 40
0.0
 40
0.0
 40
0.0
 40
0.2559654376
 40
0.377242616
 40
0.4965324181
 40
0.6161357477
 40
0.7384593519
 40
1.0
 40
1.0
 40
1.0
 40
1.0
 10
209.2864119444
 20
150.7910622005
 30
0.0
 10
209.3064222762
 20
150.8437636597
 30
0.0
 10
209.3463067073
 20
150.9184460075
 30
0.0
 10
209.4196192814
 20
151.0001113112
 30
0.0
 10
209.4818984327
 20
151.0498591452
 30
0.0
 10
209.5519156769
 20
151.0884485296
 30
0.0
 10
209.6569973322
 20
151.1251262697
 30
0.0
 10
209.7429425291
 20
151.1325629172
 30
0.0
 10
209.8004855791
 20
151.1299945133
 30
0.0
  0
SPLINE
  5
483
100
AcDbEntity
  8
0
100
AcDbSpline
 62
4
  6
CONTINUOUS
 70
0
 71
3
 72
15
 73
11
 74
0
 42
0.0000001
 43
0.0000001
 44
0.0000000001
 40
0.0
 40
0.0
 40
0.0
 40
0.0
 40
0.1363176342
 40
0.2637185272
 40
0.3854173705
 40
0.5043389352
 40
0.6230738475
 40
0.743904951
 40
0.86889421
 40
1.0
 40
1.0
 40
1.0
 40
1.0
 10
209.8004855791
 20
150.9635087782
 30
0.0
 10
209.7644878803
 20
150.9650762739
 30
0.0
 10
209.694335437
 20
150.9617967549
 30
0.0
 10
209.5949304445
 20
150.936477356
 30
0.0
 10
209.5071283165
 20
150.8928974373
 30
0.0
 10
209.4324209408
 20
150.8330722635
 30
0.0
 10
209.3721601182
 20
150.7590493586
 30
0.0
 10
209.3276450715
 20
150.6728368018
 30
0.0
 10
209.3001467431
 20
150.5764494609
 30
0.0
 10
209.2941806534
 20
150.5085637644
 30
0.0
 10
209.2941806534
 20
150.4739095613
 30
0.0
  0
SPLINE
  5
484
100
AcDbEntity
  8
0
100
AcDbSpline
 62
4
  6
CONTINUOUS
 70
0
 71
3
 72
14
 73
10
 74
0
 42
0.0000001
 43
0.0000001
 44
0.0000000001
 40
0.0
 40
0.0
 40
0.0
 40
0.0
 40
0.2411560992
 40
0.3641815076
 40
0.4862502995
 40
0.6073291814
 40
0.7296241115
 40
0.8580576519
 40
1.0
 40
1.0
 40
1.0
 40
1.0
 10
210.0890321435
 20
150.3837635435
 30
0.0
 10
210.0890321435
 20
150.3209786135
 30
0.0
 10
210.1019305777
 20
150.2254859252
 30
0.0
 10
210.1448619288
 20
150.1060109839
 30
0.0
 10
210.1917114358
 20
150.0223641384
 30
0.0
 10
210.2539961089
 20
149.9494933506
 30
0.0
 10
210.3329839615
 20
149.8918086066
 30
0.0
 10
210.4293492261
 20
149.8543678279
 30
0.0
 10
210.500176791
 20
149.8466310845
 30
0.0
 10
210.5371314458
 20
149.8466310845
 30
0.0
  0
SPLINE
  5
485
100
AcDbEntity
  8
0
100
AcDbSpline
 62
4
  6
CONTINUOUS
 70
0
 71
3
 72
14
 73
10
 74
0
 42
0.0000001
 43
0.0000001
 44
0.0000000001
 40
0.0
 40
0.0
 40
0.0
 40
0.0
 40
0.2725524263
 40
0.3936653655
 40
0.5102328902
 40
0.6263138961
 40
0.7452109716
 40
0.8692872167
 40
1.0
 40
1.0
 40
1.0
 40
1.0
 10
210.5371314458
 20
149.8466310845
 30
0.0
 10
210.591779865
 20
149.8466310845
 30
0.0
 10
210.6720656851
 20
149.8571323142
 30
0.0
 10
210.7657901446
 20
149.8995566176
 30
0.0
 10
210.8238034887
 20
149.9411823037
 30
0.0
 10
210.8724047992
 20
149.9927851944
 30
0.0
 10
210.9120372475
 20
150.0532752134
 30
0.0
 10
210.9432163483
 20
150.1216667018
 30
0.0
 10
210.9583020065
 20
150.1706186168
 30
0.0
 10
210.9646961147
 20
150.1960353781
 30
0.0
  0
SPLINE
  5
486
100
AcDbEntity
  8
0
100
AcDbSpline
 62
4
  6
CONTINUOUS
 70
0
 71
3
 72
15
 73
11
 74
0
 42
0.0000001
 43
0.0000001
 44
0.0000000001
 40
0.0
 40
0.0
 40
0.0
 40
0.0
 40
0.1353952969
 40
0.2608680829
 40
0.3787641583
 40
0.4925030806
 40
0.6065140527
 40
0.7258317651
 40
0.855485097
 40
1.0
 40
1.0
 40
1.0
 40
1.0
 10
211.1312969734
 20
150.1960353781
 30
0.0
 10
211.1227748795
 20
150.1588221837
 30
0.0
 10
211.1027738608
 20
150.0878418389
 30
0.0
 10
211.0606123432
 20
149.9893291074
 30
0.0
 10
211.0065132044
 20
149.9037999759
 30
0.0
 10
210.9394806771
 20
149.8321697844
 30
0.0
 10
210.8588052203
 20
149.7755352404
 30
0.0
 10
210.7641656346
 20
149.7348347795
 30
0.0
 10
210.6553487614
 20
149.7105897789
 30
0.0
 10
210.5778793785
 20
149.7058818626
 30
0.0
 10
210.5371314458
 20
149.7058818626
 30
0.0
  0
SPLINE
  5
487
100
AcDbEntity
  8
0
100
AcDbSpline
 62
4
  6
CONTINUOUS
 70
0
 71
3
 72
15
 73
11
 74
0
 42
0.0000001
 43
0.0000001
 44
0.0000000001
 40
0.0
 40
0.0
 40
0.0
 40
0.0
 40
0.1412011257
 40
0.2671165103
 40
0.3845441108
 40
0.4995615483
 40
0.6166944899
 40
0.7386259117
 40
0.8664292164
 40
1.0
 40
1.0
 40
1.0
 40
1.0
 10
210.5371314458
 20
149.7058818626
 30
0.0
 10
210.4866623186
 20
149.7058818626
 30
0.0
 10
210.3907483334
 20
149.7144711346
 30
0.0
 10
210.2589477485
 20
149.7578148809
 30
0.0
 10
210.1498259307
 20
149.8274578124
 30
0.0
 10
210.0633448694
 20
149.9192396296
 30
0.0
 10
209.9984505519
 20
150.0289173079
 30
0.0
 10
209.9536969745
 20
150.1528558593
 30
0.0
 10
209.927780583
 20
150.2878493593
 30
0.0
 10
209.9224611316
 20
150.3813974496
 30
0.0
 10
209.9224611316
 20
150.4291392848
 30
0.0
  0
SPLINE
  5
488
100
AcDbEntity
  8
0
100
AcDbSpline
 62
4
  6
CONTINUOUS
 70
0
 71
3
 72
43
 73
39
 74
0
 42
0.0000001
 43
0.0000001
 44
0.0000000001
 40
0.0
 40
0.0
 40
0.0
 40
0.0
 40
0.0620143111
 40
0.1233168968
 40
0.1833245065
 40
0.2419670615
 40
0.2709995439
 40
0.3000315988
 40
0.3293073059
 40
0.3591369941
 40
0.389890475
 40
0.4057499432
 40
0.4219994435
 40
0.4386957238
 40
0.4558964076
 40
0.4647048895
 40
0.4736612172
 40
0.4827726313
 40
0.4873888536
 40
0.4920465492
 40
0.4967394998
 40
0.5013896359
 40
0.5105651901
 40
0.5195813814
 40
0.5284461949
 40
0.5457517806
 40
0.5625480312
 40
0.5788988008
 40
0.594867017
 40
0.6258824556
 40
0.6560716334
 40
0.6858400382
 40
0.7155235911
 40
0.7453817681
 40
0.8062140712
 40
0.8691106221
 40
0.9339294177
 40
1.0
 40
1.0
 40
1.0
 40
1.0
 10
209.9224611316
 20
150.4291392848
 30
0.0
 10
209.9224611316
 20
150.4739487964
 30
0.0
 10
209.9280694541
 20
150.563168836
 30
0.0
 10
209.9541721694
 20
150.6934803913
 30
0.0
 10
209.9989284231
 20
150.8161598845
 30
0.0
 10
210.0530764321
 20
150.9089725222
 30
0.0
 10
210.1065448677
 20
150.9743745053
 30
0.0
 10
210.1517931582
 20
151.0185719092
 30
0.0
 10
210.202413716
 20
151.0574716018
 30
0.0
 10
210.2585024974
 20
151.0905044264
 30
0.0
 10
210.3093623709
 20
151.1124429268
 30
0.0
 10
210.3525646164
 20
151.1265428926
 30
0.0
 10
210.3867142794
 20
151.1354325994
 30
0.0
 10
210.4222818711
 20
151.1424562153
 30
0.0
 10
210.4528695396
 20
151.1466655486
 30
0.0
 10
210.4780237389
 20
151.1490559623
 30
0.0
 10
210.4974025907
 20
151.1503561876
 30
0.0
 10
210.5137824669
 20
151.1510074776
 30
0.0
 10
210.5270648326
 20
151.1512698544
 30
0.0
 10
210.5371569176
 20
151.1513362717
 30
0.0
 10
210.5472735231
 20
151.1512676052
 30
0.0
 10
210.5606519627
 20
151.1509898705
 30
0.0
 10
210.5771447624
 20
151.1503015711
 30
0.0
 10
210.5966493836
 20
151.1489266742
 30
0.0
 10
210.6219510222
 20
151.1463990738
 30
0.0
 10
210.6526971936
 20
151.1419470667
 30
0.0
 10
210.6884103133
 20
151.134515914
 30
0.0
 10
210.7226559741
 20
151.125108012
 30
0.0
 10
210.7659414051
 20
151.1101754187
 30
0.0
 10
210.8168101793
 20
151.0869129332
 30
0.0
 10
210.8726553641
 20
151.0518958488
 30
0.0
 10
210.9228169361
 20
151.0106492894
 30
0.0
 10
210.9673944498
 20
150.9637750692
 30
0.0
 10
211.0198420875
 20
150.8941885229
 30
0.0
 10
211.0720607875
 20
150.7953783293
 30
0.0
 10
211.1135965409
 20
150.6650243295
 30
0.0
 10
211.1357602394
 20
150.526314571
 30
0.0
 10
211.1382432661
 20
150.4314748477
 30
0.0
 10
211.1365756022
 20
150.3837635435
 30
0.0
  0
SPLINE
  5
489
100
AcDbEntity
  8
0
100
AcDbSpline
 62
4
  6
CONTINUOUS
 70
0
 71
3
 72
37
 73
33
 74
0
 42
0.0000001
 43
0.0000001
 44
0.0000000001
 40
0.0
 40
0.0
 40
0.0
 40
0.0
 40
0.0644256937
 40
0.12782679
 40
0.1899322835
 40
0.2507065977
 40
0.2807296001
 40
0.3106110424
 40
0.3404954224
 40
0.3705738051
 40
0.4010845959
 40
0.4323110284
 40
0.4482987142
 40
0.4645886929
 40
0.4812258149
 40
0.4896897483
 40
0.4982578223
 40
0.5070563536
 40
0.5157307062
 40
0.5327319766
 40
0.5493165231
 40
0.5655367394
 40
0.5970731484
 40
0.6277405711
 40
0.6578832575
 40
0.6877935605
 40
0.7177059322
 40
0.7477956998
 40
0.8088756812
 40
0.8714841939
 40
0.9353987373
 40
1.0
 40
1.0
 40
1.0
 40
1.0
 10
210.9702561566
 20
150.5241204925
 30
0.0
 10
210.9692606825
 20
150.5552866121
 30
0.0
 10
210.9626881529
 20
150.617077803
 30
0.0
 10
210.9392460505
 20
150.7063276827
 30
0.0
 10
210.9027015749
 20
150.7891845213
 30
0.0
 10
210.8613605414
 20
150.8511141108
 30
0.0
 10
210.822198166
 20
150.8945610867
 30
0.0
 10
210.789919544
 20
150.9237793986
 30
0.0
 10
210.7546837289
 20
150.9494076952
 30
0.0
 10
210.7165438741
 20
150.9711131936
 30
0.0
 10
210.6755653842
 20
150.9885562277
 30
0.0
 10
210.6393796778
 20
150.9991766879
 30
0.0
 10
210.6092343942
 20
151.0052447274
 30
0.0
 10
210.5857806321
 20
151.0085694728
 30
0.0
 10
210.5658058386
 20
151.0102426073
 30
0.0
 10
210.5495223494
 20
151.010920788
 30
0.0
 10
210.5370198975
 20
151.011090582
 30
0.0
 10
210.5244156166
 20
151.0109194012
 30
0.0
 10
210.5077423841
 20
151.0102371748
 30
0.0
 10
210.4873463818
 20
151.0085522513
 30
0.0
 10
210.4634604932
 20
151.0052010245
 30
0.0
 10
210.4329096348
 20
150.9990939474
 30
0.0
 10
210.396387083
 20
150.9884102763
 30
0.0
 10
210.3551807434
 20
150.9708372766
 30
0.0
 10
210.3169861439
 20
150.9489812526
 30
0.0
 10
210.2817909203
 20
150.9231959647
 30
0.0
 10
210.2495683883
 20
150.8938292469
 30
0.0
 10
210.2103545194
 20
150.8501689232
 30
0.0
 10
210.168602572
 20
150.7880590595
 30
0.0
 10
210.1303740314
 20
150.7053527542
 30
0.0
 10
210.1033396058
 20
150.6166252444
 30
0.0
 10
210.0926205777
 20
150.5551808812
 30
0.0
 10
210.0890321435
 20
150.5241204925
 30
0.0
  0
SPLINE
  5
48A
100
AcDbEntity
  8
0
100
AcDbSpline
 62
4
  6
CONTINUOUS
 70
0
 71
3
 72
14
 73
10
 74
0
 42
0.0000001
 43
0.0000001
 44
0.0000000001
 40
0.0
 40
0.0
 40
0.0
 40
0.0
 40
0.2410830115
 40
0.3640780515
 40
0.4861268443
 40
0.6072019828
 40
0.7295150547
 40
0.85799161
 40
1.0
 40
1.0
 40
1.0
 40
1.0
 10
211.537956055
 20
150.3837635435
 30
0.0
 10
211.537956055
 20
150.3209780415
 30
0.0
 10
211.5508609852
 20
150.2254819158
 30
0.0
 10
211.5938166207
 20
150.1060073696
 30
0.0
 10
211.6406963883
 20
150.0223588303
 30
0.0
 10
211.7030245732
 20
149.9494873067
 30
0.0
 10
211.7820697731
 20
149.8918040945
 30
0.0
 10
211.8785055553
 20
149.8543664147
 30
0.0
 10
211.9493832231
 20
149.8466310845
 30
0.0
 10
211.9863666174
 20
149.8466310845
 30
0.0
  0
SPLINE
  5
48B
100
AcDbEntity
  8
0
100
AcDbSpline
 62
4
  6
CONTINUOUS
 70
0
 71
3
 72
14
 73
10
 74
0
 42
0.0000001
 43
0.0000001
 44
0.0000000001
 40
0.0
 40
0.0
 40
0.0
 40
0.0
 40
0.2722869221
 40
0.3934377629
 40
0.5100876983
 40
0.6262511124
 40
0.7452029009
 40
0.8692976325
 40
1.0
 40
1.0
 40
1.0
 40
1.0
 10
211.9863666174
 20
149.8466310845
 30
0.0
 10
212.0409415485
 20
149.8466310845
 30
0.0
 10
212.1211460228
 20
149.8571620234
 30
0.0
 10
212.2148033314
 20
149.8995644436
 30
0.0
 10
212.2728384002
 20
149.9411825512
 30
0.0
 10
212.3214738685
 20
149.9927779763
 30
0.0
 10
212.361122422
 20
150.0532649357
 30
0.0
 10
212.3922674816
 20
150.1216582002
 30
0.0
 10
212.4072800085
 20
150.1706172421
 30
0.0
 10
212.4136200262
 20
150.1960353781
 30
0.0
  0
SPLINE
  5
48C
100
AcDbEntity
  8
0
100
AcDbSpline
 62
4
  6
CONTINUOUS
 70
0
 71
3
 72
15
 73
11
 74
0
 42
0.0000001
 43
0.0000001
 44
0.0000000001
 40
0.0
 40
0.0
 40
0.0
 40
0.0
 40
0.1355033387
 40
0.2610687433
 40
0.3790275353
 40
0.4927873159
 40
0.6067725123
 40
0.726023571
 40
0.8555843277
 40
1.0
 40
1.0
 40
1.0
 40
1.0
 10
212.5804170213
 20
150.1960353781
 30
0.0
 10
212.5718210712
 20
150.1588215848
 30
0.0
 10
212.5517013156
 20
150.0878449183
 30
0.0
 10
212.5094389546
 20
149.9893386002
 30
0.0
 10
212.455311758
 20
149.9038139644
 30
0.0
 10
212.3883094827
 20
149.8321831618
 30
0.0
 10
212.3077054785
 20
149.7755431419
 30
0.0
 10
212.2131637169
 20
149.7348368135
 30
0.0
 10
212.1044609795
 20
149.7105891869
 30
0.0
 10
212.0270723685
 20
149.7058818626
 30
0.0
 10
211.9863666174
 20
149.7058818626
 30
0.0
  0
SPLINE
  5
48D
100
AcDbEntity
  8
0
100
AcDbSpline
 62
4
  6
CONTINUOUS
 70
0
 71
3
 72
15
 73
11
 74
0
 42
0.0000001
 43
0.0000001
 44
0.0000000001
 40
0.0
 40
0.0
 40
0.0
 40
0.0
 40
0.1411350841
 40
0.2670431616
 40
0.384498233
 40
0.4995526998
 40
0.6167133341
 40
0.7386542939
 40
0.8664491472
 40
1.0
 40
1.0
 40
1.0
 40
1.0
 10
211.9863666174
 20
149.7058818626
 30
0.0
 10
211.9359130131
 20
149.7058818626
 30
0.0
 10
211.8400103376
 20
149.7144773318
 30
0.0
 10
211.7082066326
 20
149.7578239831
 30
0.0
 10
211.599036202
 20
149.8274618871
 30
0.0
 10
211.5124716724
 20
149.9192351916
 30
0.0
 10
211.4474773766
 20
150.0289077514
 30
0.0
 10
211.4026288882
 20
150.1528463376
 30
0.0
 10
211.3766421097
 20
150.2878434213
 30
0.0
 10
211.3713040303
 20
150.3813969256
 30
0.0
 10
211.3713040303
 20
150.4291392848
 30
0.0
  0
SPLINE
  5
48E
100
AcDbEntity
  8
0
100
AcDbSpline
 62
4
  6
CONTINUOUS
 70
0
 71
3
 72
43
 73
39
 74
0
 42
0.0000001
 43
0.0000001
 44
0.0000000001
 40
0.0
 40
0.0
 40
0.0
 40
0.0
 40
0.0620199192
 40
0.1233334186
 40
0.1833601641
 40
0.2420300024
 40
0.2710780641
 40
0.3001258627
 40
0.3294162776
 40
0.3592582214
 40
0.3900199805
 40
0.4058816149
 40
0.4221317352
 40
0.4388269257
 40
0.4560246618
 40
0.464830931
 40
0.4737845334
 40
0.4828926955
 40
0.4875070903
 40
0.492162822
 40
0.4968507218
 40
0.5014958527
 40
0.5106615412
 40
0.5196680744
 40
0.5285234539
 40
0.5458109087
 40
0.5625901208
 40
0.5789250636
 40
0.5948787709
 40
0.6258694761
 40
0.6560399795
 40
0.6857958208
 40
0.7154725894
 40
0.7453291145
 40
0.8061702356
 40
0.8690844036
 40
0.933920835
 40
1.0
 40
1.0
 40
1.0
 40
1.0
 10
211.3713040303
 20
150.4291392848
 30
0.0
 10
211.3713040303
 20
150.4739493547
 30
0.0
 10
211.3769319207
 20
150.5631748907
 30
0.0
 10
211.4031051582
 20
150.6934894903
 30
0.0
 10
211.4479558192
 20
150.8161687422
 30
0.0
 10
211.5021856307
 20
150.9089753711
 30
0.0
 10
211.5557135026
 20
150.9743746283
 30
0.0
 10
211.601002034
 20
151.0185710551
 30
0.0
 10
211.6516555229
 20
151.0574699115
 30
0.0
 10
211.7077679182
 20
151.0905022627
 30
0.0
 10
211.7586403052
 20
151.1124417656
 30
0.0
 10
211.8018469952
 20
151.12654241
 30
0.0
 10
211.8359950443
 20
151.1354321858
 30
0.0
 10
211.8715572103
 20
151.1424558931
 30
0.0
 10
211.9021378606
 20
151.1466654268
 30
0.0
 10
211.927284351
 20
151.1490559212
 30
0.0
 10
211.9466557539
 20
151.1503561595
 30
0.0
 10
211.9630287075
 20
151.1510074724
 30
0.0
 10
211.9763049473
 20
151.1512698489
 30
0.0
 10
211.9863898569
 20
151.1513362723
 30
0.0
 10
211.9964969893
 20
151.151267609
 30
0.0
 10
212.0098599891
 20
151.1509898682
 30
0.0
 10
212.0263337654
 20
151.1503015698
 30
0.0
 10
212.0458158872
 20
151.1489266683
 30
0.0
 10
212.0710885071
 20
151.1463990483
 30
0.0
 10
212.1017996806
 20
151.1419469634
 30
0.0
 10
212.1374722655
 20
151.1345157217
 30
0.0
 10
212.1716795453
 20
151.1251077063
 30
0.0
 10
212.2149188922
 20
151.1101744091
 30
0.0
 10
212.2657360833
 20
151.0869101096
 30
0.0
 10
212.3215267506
 20
151.0518920799
 30
0.0
 10
212.3716454576
 20
151.0106449836
 30
0.0
 10
212.4161931177
 20
150.9637707827
 30
0.0
 10
212.4686235028
 20
150.8941799405
 30
0.0
 10
212.520854804
 20
150.7953698449
 30
0.0
 10
212.5624758844
 20
150.6650249309
 30
0.0
 10
212.5848059168
 20
150.5263244723
 30
0.0
 10
212.5874589268
 20
150.4314807357
 30
0.0
 10
212.5858917866
 20
150.3837635435
 30
0.0
  0
SPLINE
  5
48F
100
AcDbEntity
  8
0
100
AcDbSpline
 62
4
  6
CONTINUOUS
 70
0
 71
3
 72
37
 73
33
 74
0
 42
0.0000001
 43
0.0000001
 44
0.0000000001
 40
0.0
 40
0.0
 40
0.0
 40
0.0
 40
0.064429325
 40
0.1278409584
 40
0.1899654392
 40
0.2507611491
 40
0.2807916126
 40
0.310675337
 40
0.3405540354
 40
0.3706157519
 40
0.401095828
 40
0.4322746217
 40
0.4482313534
 40
0.4644852735
 40
0.4810810189
 40
0.4895222167
 40
0.4980661655
 40
0.5068680768
 40
0.5155460181
 40
0.5325550428
 40
0.549148024
 40
0.5653772437
 40
0.5969329081
 40
0.6276204369
 40
0.6577831578
 40
0.6877126094
 40
0.7176425912
 40
0.7477479627
 40
0.8088521012
 40
0.8714753217
 40
0.9353966992
 40
1.0
 40
1.0
 40
1.0
 40
1.0
 10
212.4192397619
 20
150.5241204925
 30
0.0
 10
212.4182543351
 20
150.5552868643
 30
0.0
 10
212.4116797704
 20
150.6170832596
 30
0.0
 10
212.3881938292
 20
150.7063339642
 30
0.0
 10
212.351591286
 20
150.7891865732
 30
0.0
 10
212.3102112917
 20
150.8511113542
 30
0.0
 10
212.2710321139
 20
150.8945584165
 30
0.0
 10
212.2387537613
 20
150.9237757009
 30
0.0
 10
212.2035330279
 20
150.9494033301
 30
0.0
 10
212.1654259492
 20
150.9711086978
 30
0.0
 10
212.1245007396
 20
150.9885522401
 30
0.0
 10
212.088373223
 20
150.9991750942
 30
0.0
 10
212.0582865685
 20
151.0052441747
 30
0.0
 10
212.0348872054
 20
151.0085691154
 30
0.0
 10
212.0149622367
 20
151.0102424843
 30
0.0
 10
211.9987224418
 20
151.0109208127
 30
0.0
 10
211.9862417624
 20
151.0110905919
 30
0.0
 10
211.973646524
 20
151.0109193469
 30
0.0
 10
211.9569671381
 20
151.0102371816
 30
0.0
 10
211.9365627426
 20
151.0085521703
 30
0.0
 10
211.9126659801
 20
151.0052009335
 30
0.0
 10
211.8820989061
 20
150.999093724
 30
0.0
 10
211.8455544174
 20
150.9884099102
 30
0.0
 10
211.8043196792
 20
150.9708371695
 30
0.0
 10
211.7660948671
 20
150.9489815336
 30
0.0
 10
211.7308684983
 20
150.9231966737
 30
0.0
 10
211.6986148138
 20
150.8938303324
 30
0.0
 10
211.6593621144
 20
150.8501722066
 30
0.0
 10
211.6175653983
 20
150.7880654893
 30
0.0
 10
211.5792966027
 20
150.7053583106
 30
0.0
 10
211.5522447053
 20
150.6166287867
 30
0.0
 10
211.5415338905
 20
150.5551812552
 30
0.0
 10
211.537956055
 20
150.5241204925
 30
0.0
  0
SPLINE
  5
490
100
AcDbEntity
  8
0
100
AcDbSpline
 62
4
  6
CONTINUOUS
 70
0
 71
3
 72
10
 73
6
 74
0
 42
0.0000001
 43
0.0000001
 44
0.0000000001
 40
0.0
 40
0.0
 40
0.0
 40
0.0
 40
0.529624226
 40
0.7764105178
 40
1.0
 40
1.0
 40
1.0
 40
1.0
 10
214.1636688179
 20
150.4848335088
 30
0.0
 10
214.1569833141
 20
150.4638116883
 30
0.0
 10
214.148433563
 20
150.4325300348
 30
0.0
 10
214.1415299289
 20
150.3914270714
 30
0.0
 10
214.1400812779
 20
150.3718338073
 30
0.0
 10
214.1400812779
 20
150.3625211132
 30
0.0
  0
SPLINE
  5
491
100
AcDbEntity
  8
0
100
AcDbSpline
 62
4
  6
CONTINUOUS
 70
0
 71
3
 72
12
 73
8
 74
0
 42
0.0000001
 43
0.0000001
 44
0.0000000001
 40
0.0
 40
0.0
 40
0.0
 40
0.0
 40
0.2722227562
 40
0.5118253764
 40
0.6255312863
 40
0.7408601407
 40
1.0
 40
1.0
 40
1.0
 40
1.0
 10
214.1400812779
 20
150.3625211132
 30
0.0
 10
214.1400812779
 20
150.3544731638
 30
0.0
 10
214.1415871798
 20
150.3392479714
 30
0.0
 10
214.1492119137
 20
150.3218474927
 30
0.0
 10
214.1588308294
 20
150.3116895815
 30
0.0
 10
214.1711452512
 20
150.3038959628
 30
0.0
 10
214.1825542912
 20
150.3019405333
 30
0.0
 10
214.1902154599
 20
150.3019405333
 30
0.0
  0
SPLINE
  5
492
100
AcDbEntity
  8
0
100
AcDbSpline
 62
4
  6
CONTINUOUS
 70
0
 71
3
 72
14
 73
10
 74
0
 42
0.0000001
 43
0.0000001
 44
0.0000000001
 40
0.0
 40
0.0
 40
0.0
 40
0.0
 40
0.0866788497
 40
0.1820376695
 40
0.2891609307
 40
0.4087805229
 40
0.5404902036
 40
0.6834914716
 40
1.0
 40
1.0
 40
1.0
 40
1.0
 10
214.1902154599
 20
150.3019405333
 30
0.0
 10
214.2110828188
 20
150.3019405333
 30
0.0
 10
214.2551019338
 20
150.3106735047
 30
0.0
 10
214.3166317196
 20
150.3448427797
 30
0.0
 10
214.3743020159
 20
150.3975174527
 30
0.0
 10
214.4263310167
 20
150.4668773053
 30
0.0
 10
214.4707356804
 20
150.5512105933
 30
0.0
 10
214.5184134016
 20
150.6856830017
 30
0.0
 10
214.5327976162
 20
150.7972421781
 30
0.0
 10
214.5327976162
 20
150.8734395094
 30
0.0
  0
SPLINE
  5
493
100
AcDbEntity
  8
0
100
AcDbSpline
 62
4
  6
CONTINUOUS
 70
0
 71
3
 72
35
 73
31
 74
0
 42
0.0000001
 43
0.0000001
 44
0.0000000001
 40
0.0
 40
0.0
 40
0.0
 40
0.0
 40
0.0618023567
 40
0.1194115648
 40
0.174806718
 40
0.2296618102
 40
0.2852588335
 40
0.3136599537
 40
0.3425548163
 40
0.3720086074
 40
0.4020739956
 40
0.4173530709
 40
0.4328007852
 40
0.4484216914
 40
0.4562988392
 40
0.464220912
 40
0.4733776199
 40
0.4824482412
 40
0.5003449522
 40
0.5179423175
 40
0.5352695488
 40
0.5692152264
 40
0.6024105968
 40
0.6350575248
 40
0.6673411105
 40
0.7313893817
 40
0.7957947874
 40
0.8614969352
 40
0.9293070138
 40
1.0
 40
1.0
 40
1.0
 40
1.0
 10
214.5327976162
 20
150.8734395094
 30
0.0
 10
214.5327976162
 20
150.9205578952
 30
0.0
 10
214.5239957941
 20
151.0119645936
 30
0.0
 10
214.4823987845
 20
151.139700821
 30
0.0
 10
214.4160874181
 20
151.2504170392
 30
0.0
 10
214.3284042988
 20
151.3428233668
 30
0.0
 10
214.2407311682
 20
151.4034735832
 30
0.0
 10
214.1636569007
 20
151.4419956267
 30
0.0
 10
214.1019613669
 20
151.4660888717
 30
0.0
 10
214.0371860536
 20
151.4850284086
 30
0.0
 10
213.9812237164
 20
151.4963607552
 30
0.0
 10
213.9353105074
 20
151.502769635
 30
0.0
 10
213.9001358062
 20
151.5062398727
 30
0.0
 10
213.8704860233
 20
151.507978524
 30
0.0
 10
213.8465401048
 20
151.5086764439
 30
0.0
 10
213.8275133198
 20
151.5088642439
 30
0.0
 10
213.807576223
 20
151.5086250824
 30
0.0
 10
213.780051554
 20
151.5076080215
 30
0.0
 10
213.7461531137
 20
151.5050946008
 30
0.0
 10
213.7061756847
 20
151.5000934382
 30
0.0
 10
213.6544560117
 20
151.4909285739
 30
0.0
 10
213.5919702306
 20
151.4748372137
 30
0.0
 10
213.5205433902
 20
151.4482550105
 30
0.0
 10
213.4534134346
 20
151.4149117672
 30
0.0
 10
213.3702514541
 20
151.3621604161
 30
0.0
 10
213.2774644462
 20
151.2806784669
 30
0.0
 10
213.1875683465
 20
151.1618879771
 30
0.0
 10
213.1210840687
 20
151.0253952915
 30
0.0
 10
213.0799379454
 20
150.8743734484
 30
0.0
 10
213.0709073798
 20
150.7685082639
 30
0.0
 10
213.0709073798
 20
150.7146116235
 30
0.0
  0
SPLINE
  5
494
100
AcDbEntity
  8
0
100
AcDbSpline
 62
4
  6
CONTINUOUS
 70
0
 71
3
 72
31
 73
27
 74
0
 42
0.0000001
 43
0.0000001
 44
0.0000000001
 40
0.0
 40
0.0
 40
0.0
 40
0.0
 40
0.0945634922
 40
0.1818063489
 40
0.2636281228
 40
0.3419651419
 40
0.4187484689
 40
0.4571997948
 40
0.4959581283
 40
0.5352420125
 40
0.5752625134
 40
0.5956188468
 40
0.6162350046
 40
0.637135328
 40
0.647700252
 40
0.6583451569
 40
0.6694549713
 40
0.6805186502
 40
0.7025136865
 40
0.7243473249
 40
0.7460341104
 40
0.7890086281
 40
0.8315628989
 40
0.8738126001
 40
0.9158862607
 40
1.0
 40
1.0
 40
1.0
 40
1.0
 10
213.0709073798
 20
150.7146116235
 30
0.0
 10
213.0709073798
 20
150.652927636
 30
0.0
 10
213.0801281872
 20
150.5340184893
 30
0.0
 10
213.1239901552
 20
150.3667461994
 30
0.0
 10
213.1947415287
 20
150.2204847174
 30
0.0
 10
213.2897211766
 20
150.0971540191
 30
0.0
 10
213.3869038226
 20
150.0149321899
 30
0.0
 10
213.4729982543
 20
149.9628911374
 30
0.0
 10
213.5418900214
 20
149.9304882532
 30
0.0
 10
213.6146891481
 20
149.9049753368
 30
0.0
 10
213.6779948572
 20
149.8896939236
 30
0.0
 10
213.7301325404
 20
149.8810564127
 30
0.0
 10
213.7702357153
 20
149.8763745576
 30
0.0
 10
213.8041408832
 20
149.8740302834
 30
0.0
 10
213.8315952475
 20
149.8730882667
 30
0.0
 10
213.852677925
 20
149.8728450543
 30
0.0
 10
213.8740861566
 20
149.8731139329
 30
0.0
 10
213.9028788294
 20
149.8742189171
 30
0.0
 10
213.9385969496
 20
149.8769611413
 30
0.0
 10
213.9810023922
 20
149.8824197472
 30
0.0
 10
214.0365362275
 20
149.8924992256
 30
0.0
 10
214.1043101006
 20
149.9103106455
 30
0.0
 10
214.1824037389
 20
149.9398607843
 30
0.0
 10
214.2564172195
 20
149.9772846836
 30
0.0
 10
214.3486764812
 20
150.0372105262
 30
0.0
 10
214.410021101
 20
150.0934565905
 30
0.0
 10
214.4459773904
 20
150.1349004995
 30
0.0
  0
SPLINE
  5
495
100
AcDbEntity
  8
0
100
AcDbSpline
 62
4
  6
CONTINUOUS
 70
0
 71
3
 72
35
 73
31
 74
0
 42
0.0000001
 43
0.0000001
 44
0.0000000001
 40
0.0
 40
0.0
 40
0.0
 40
0.0
 40
0.0474134345
 40
0.0939342038
 40
0.1399245347
 40
0.1857164925
 40
0.2316177632
 40
0.254712336
 40
0.2779423965
 40
0.3013431079
 40
0.3249496738
 40
0.3368426437
 40
0.3488004253
 40
0.3608275451
 40
0.3668687098
 40
0.3729289286
 40
0.3829995278
 40
0.3930116624
 40
0.4128703793
 40
0.4325287209
 40
0.4520080743
 40
0.4904999207
 40
0.5285150974
 40
0.56620189
 40
0.6037019446
 40
0.6785982037
 40
0.7544065131
 40
0.8323145744
 40
0.9136652305
 40
1.0
 40
1.0
 40
1.0
 40
1.0
 10
214.6308487857
 20
150.1349004995
 30
0.0
 10
214.6099882021
 20
150.1008895706
 30
0.0
 10
214.5643002571
 20
150.0360631252
 30
0.0
 10
214.4843115485
 20
149.9492219696
 30
0.0
 10
214.3947355447
 20
149.8743936006
 30
0.0
 10
214.2966733042
 20
149.8120963171
 30
0.0
 10
214.2088959403
 20
149.7710920514
 30
0.0
 10
214.1357341616
 20
149.745072974
 30
0.0
 10
214.0792810101
 20
149.7289317918
 30
0.0
 10
214.0215090345
 20
149.7162742805
 30
0.0
 10
213.9724913957
 20
149.7086977829
 30
0.0
 10
213.9327794365
 20
149.7044285535
 30
0.0
 10
213.9026709723
 20
149.7021263206
 30
0.0
 10
213.8774259593
 20
149.7009730704
 30
0.0
 10
213.8571262747
 20
149.7005096381
 30
0.0
 10
213.8384682895
 20
149.7003696849
 30
0.0
 10
213.8164680275
 20
149.70063734
 30
0.0
 10
213.7828766289
 20
149.7018598627
 30
0.0
 10
213.7412902992
 20
149.7048962659
 30
0.0
 10
213.6919925569
 20
149.7109364942
 30
0.0
 10
213.6275999729
 20
149.7220659303
 30
0.0
 10
213.549099143
 20
149.7416948413
 30
0.0
 10
213.4585060454
 20
149.7742010429
 30
0.0
 10
213.3723463629
 20
149.815223338
 30
0.0
 10
213.2641503015
 20
149.8807060395
 30
0.0
 10
213.1415780571
 20
149.9828186413
 30
0.0
 10
213.0205274843
 20
150.1339509295
 30
0.0
 10
212.929315415
 20
150.3109598737
 30
0.0
 10
212.872028186
 20
150.5108272897
 30
0.0
 10
212.8595703553
 20
150.6523555878
 30
0.0
 10
212.8595703553
 20
150.7250068553
 30
0.0
  0
SPLINE
  5
496
100
AcDbEntity
  8
0
100
AcDbSpline
 62
4
  6
CONTINUOUS
 70
0
 71
3
 72
35
 73
31
 74
0
 42
0.0000001
 43
0.0000001
 44
0.0000000001
 40
0.0
 40
0.0
 40
0.0
 40
0.0
 40
0.0694918131
 40
0.1367143506
 40
0.2027739281
 40
0.2683958833
 40
0.3340585126
 40
0.3670641149
 40
0.4002313723
 40
0.4336247004
 40
0.4673238971
 40
0.4843235715
 40
0.501438872
 40
0.518685911
 40
0.5273649887
 40
0.5360837915
 40
0.5438925145
 40
0.5516727936
 40
0.5671492887
 40
0.5825179533
 40
0.5977819019
 40
0.6279985865
 40
0.65782186
 40
0.687264291
 40
0.7163397076
 40
0.7734178622
 40
0.8294270773
 40
0.8850170525
 40
0.9413158698
 40
1.0
 40
1.0
 40
1.0
 40
1.0
 10
212.8595703553
 20
150.7250068553
 30
0.0
 10
212.8595703553
 20
150.7902323486
 30
0.0
 10
212.8727046373
 20
150.9189802155
 30
0.0
 10
212.9309125449
 20
151.1015062238
 30
0.0
 10
213.022527111
 20
151.2655860698
 30
0.0
 10
213.1430459122
 20
151.4076970218
 30
0.0
 10
213.2639929213
 20
151.5049666939
 30
0.0
 10
213.3705373957
 20
151.568195035
 30
0.0
 10
213.4552046515
 20
151.6081077381
 30
0.0
 10
213.5439125226
 20
151.6399367779
 30
0.0
 10
213.6205720087
 20
151.6592991125
 30
0.0
 10
213.6832834564
 20
151.6703174386
 30
0.0
 10
213.7311388569
 20
151.6763084514
 30
0.0
 10
213.771442653
 20
151.6793304711
 30
0.0
 10
213.8039405245
 20
151.6805507549
 30
0.0
 10
213.8276003968
 20
151.6808434098
 30
0.0
 10
213.8504162944
 20
151.6805982755
 30
0.0
 10
213.8795616252
 20
151.6796705038
 30
0.0
 10
213.9157540429
 20
151.6773646567
 30
0.0
 10
213.9588028334
 20
151.6727860167
 30
0.0
 10
214.0153034295
 20
151.6643464477
 30
0.0
 10
214.0844989933
 20
151.6494851186
 30
0.0
 10
214.1649129422
 20
151.6249040347
 30
0.0
 10
214.2419335999
 20
151.5938945855
 30
0.0
 10
214.3387498777
 20
151.5446750362
 30
0.0
 10
214.4492462479
 20
151.4684167509
 30
0.0
 10
214.5607347893
 20
151.3545648464
 30
0.0
 10
214.6460709722
 20
151.2206031517
 30
0.0
 10
214.7004909571
 20
151.068607258
 30
0.0
 10
214.7125353532
 20
150.9602096654
 30
0.0
 10
214.7125353532
 20
150.9051283375
 30
0.0
  0
SPLINE
  5
497
100
AcDbEntity
  8
0
100
AcDbSpline
 62
4
  6
CONTINUOUS
 70
0
 71
3
 72
15
 73
11
 74
0
 42
0.0000001
 43
0.0000001
 44
0.0000000001
 40
0.0
 40
0.0
 40
0.0
 40
0.0
 40
0.1699672479
 40
0.3228836218
 40
0.4631730751
 40
0.5932245091
 40
0.7134780977
 40
0.8228122573
 40
0.9191037685
 40
1.0
 40
1.0
 40
1.0
 40
1.0
 10
214.7125353532
 20
150.9051283375
 30
0.0
 10
214.7125353532
 20
150.8428718149
 30
0.0
 10
214.7016966739
 20
150.7241705336
 30
0.0
 10
214.6520871681
 20
150.560754731
 30
0.0
 10
214.5778805137
 20
150.4234907562
 30
0.0
 10
214.48677384
 20
150.3121384144
 30
0.0
 10
214.3861785777
 20
150.2260895348
 30
0.0
 10
214.2831053064
 20
150.164681842
 30
0.0
 10
214.1845191085
 20
150.1273038287
 30
0.0
 10
214.1196378986
 20
150.1168985845
 30
0.0
 10
214.0900067895
 20
150.1168985845
 30
0.0
  0
SPLINE
  5
498
100
AcDbEntity
  8
0
100
AcDbSpline
 62
4
  6
CONTINUOUS
 70
0
 71
3
 72
13
 73
9
 74
0
 42
0.0000001
 43
0.0000001
 44
0.0000000001
 40
0.0
 40
0.0
 40
0.0
 40
0.0
 40
0.2411783879
 40
0.3566578498
 40
0.4716714478
 40
0.5896007711
 40
0.7143829065
 40
1.0
 40
1.0
 40
1.0
 40
1.0
 10
214.0900067895
 20
150.1168985845
 30
0.0
 10
214.0705055633
 20
150.1168985845
 30
0.0
 10
214.0412338073
 20
150.1211764126
 30
0.0
 10
214.0064026576
 20
150.1372122316
 30
0.0
 10
213.9835476509
 20
150.1540446274
 30
0.0
 10
213.9642609898
 20
150.1758966686
 30
0.0
 10
213.9431130532
 20
150.2133145903
 30
0.0
 10
213.9360283819
 20
150.2466696496
 30
0.0
 10
213.9342744484
 20
150.2696974065
 30
0.0
  0
SPLINE
  5
499
100
AcDbEntity
  8
0
100
AcDbSpline
 62
4
  6
CONTINUOUS
 70
0
 71
3
 72
11
 73
7
 74
0
 42
0.0000001
 43
0.0000001
 44
0.0000000001
 40
0.0
 40
0.0
 40
0.0
 40
0.0
 40
0.2456671172
 40
0.4987252126
 40
0.7510591195
 40
1.0
 40
1.0
 40
1.0
 40
1.0
 10
213.9287485171
 20
150.2696974065
 30
0.0
 10
213.9104187115
 20
150.2486597886
 30
0.0
 10
213.869309563
 20
150.2092169033
 30
0.0
 10
213.798184201
 20
150.1613067464
 30
0.0
 10
213.7186175203
 20
150.1278977795
 30
0.0
 10
213.6614881025
 20
150.1191328345
 30
0.0
 10
213.6332135258
 20
150.1191328345
 30
0.0
  0
SPLINE
  5
49A
100
AcDbEntity
  8
0
100
AcDbSpline
 62
4
  6
CONTINUOUS
 70
0
 71
3
 72
13
 73
9
 74
0
 42
0.0000001
 43
0.0000001
 44
0.0000000001
 40
0.0
 40
0.0
 40
0.0
 40
0.0
 40
0.1282084412
 40
0.2515617319
 40
0.3729309616
 40
0.4943293291
 40
0.7410193967
 40
1.0
 40
1.0
 40
1.0
 40
1.0
 10
213.6332135258
 20
150.1191328345
 30
0.0
 10
213.6063584356
 20
150.1191328345
 30
0.0
 10
213.5534645732
 20
150.1247087687
 30
0.0
 10
213.4788596747
 20
150.1497475193
 30
0.0
 10
213.4124410018
 20
150.1892134049
 30
0.0
 10
213.3361731497
 20
150.2586102287
 30
0.0
 10
213.2666631539
 20
150.3738485705
 30
0.0
 10
213.2477627638
 20
150.4807972515
 30
0.0
 10
213.2477627638
 20
150.5350444399
 30
0.0
  0
SPLINE
  5
49B
100
AcDbEntity
  8
0
100
AcDbSpline
 62
4
  6
CONTINUOUS
 70
0
 71
3
 72
14
 73
10
 74
0
 42
0.0000001
 43
0.0000001
 44
0.0000000001
 40
0.0
 40
0.0
 40
0.0
 40
0.0
 40
0.2546840686
 40
0.3819647902
 40
0.5074366914
 40
0.6305604174
 40
0.7518865522
 40
0.873618736
 40
1.0
 40
1.0
 40
1.0
 40
1.0
 10
213.2477627638
 20
150.5350444399
 30
0.0
 10
213.2477627638
 20
150.6190809457
 30
0.0
 10
213.2696675315
 20
150.7462093277
 30
0.0
 10
213.3362502052
 20
150.900335307
 30
0.0
 10
213.4038761063
 20
151.0050956332
 30
0.0
 10
213.4880130012
 20
151.0945381685
 30
0.0
 10
213.5877902933
 20
151.1644025976
 30
0.0
 10
213.7021596081
 20
151.2098499111
 30
0.0
 10
213.7844593928
 20
151.2200552544
 30
0.0
 10
213.8261606263
 20
151.2200552544
 30
0.0
  0
SPLINE
  5
49C
100
AcDbEntity
  8
0
100
AcDbSpline
 62
4
  6
CONTINUOUS
 70
0
 71
3
 72
11
 73
7
 74
0
 42
0.0000001
 43
0.0000001
 44
0.0000000001
 40
0.0
 40
0.0
 40
0.0
 40
0.0
 40
0.2413402975
 40
0.475628691
 40
0.7211166946
 40
1.0
 40
1.0
 40
1.0
 40
1.0
 10
213.8261606263
 20
151.2200552544
 30
0.0
 10
213.8560741557
 20
151.2200552544
 30
0.0
 10
213.9154179138
 20
151.2136120341
 30
0.0
 10
213.9992062055
 20
151.1786779894
 30
0.0
 10
214.0713102519
 20
151.1159836215
 30
0.0
 10
214.1062904013
 20
151.0601569151
 30
0.0
 10
214.1214397875
 20
151.0290865737
 30
0.0
  0
SPLINE
  5
49D
100
AcDbEntity
  8
0
100
AcDbSpline
 62
4
  6
CONTINUOUS
 70
0
 71
3
 72
12
 73
8
 74
0
 42
0.0000001
 43
0.0000001
 44
0.0000000001
 40
0.0
 40
0.0
 40
0.0
 40
0.0
 40
0.2655021837
 40
0.5173714901
 40
0.7590404385
 40
0.8787380339
 40
1.0
 40
1.0
 40
1.0
 40
1.0
 10
214.0451000702
 20
150.7882992349
 30
0.0
 10
214.0451000702
 20
150.8188643095
 30
0.0
 10
214.0340846849
 20
150.8790131847
 30
0.0
 10
213.9881958473
 20
150.9554115345
 30
0.0
 10
213.9308134026
 20
150.9999303244
 30
0.0
 10
213.8781194502
 20
151.0187160999
 30
0.0
 10
213.8502684448
 20
151.0219659678
 30
0.0
 10
213.8363085556
 20
151.0219659678
 30
0.0
  0
SPLINE
  5
49E
100
AcDbEntity
  8
0
100
AcDbSpline
 62
4
  6
CONTINUOUS
 70
0
 71
3
 72
35
 73
31
 74
0
 42
0.0000001
 43
0.0000001
 44
0.0000000001
 40
0.0
 40
0.0
 40
0.0
 40
0.0
 40
0.0781057242
 40
0.1548395145
 40
0.1938078021
 40
0.2333753832
 40
0.3142593491
 40
0.3968140833
 40
0.4793327723
 40
0.519944758
 40
0.5597392864
 40
0.5984502527
 40
0.6173268591
 40
0.6358454622
 40
0.6612838435
 40
0.6858685286
 40
0.7326724098
 40
0.7768425961
 40
0.8190874966
 40
0.860322694
 40
0.8809412948
 40
0.9017515541
 40
0.9229244354
 40
0.9446374626
 40
0.9557568506
 40
0.9670790527
 40
0.9786266313
 40
0.9844923966
 40
0.9904228789
 40
1.0
 40
1.0
 40
1.0
 40
1.0
 10
213.8363085556
 20
151.0219659678
 30
0.0
 10
213.8098574304
 20
151.0219659678
 30
0.0
 10
213.7570773167
 20
151.0140211896
 30
0.0
 10
213.6970283676
 20
150.985626901
 30
0.0
 10
213.6542312469
 20
150.9549269696
 30
0.0
 10
213.6139705652
 20
150.9188141359
 30
0.0
 10
213.569868944
 20
150.8655393995
 30
0.0
 10
213.5277151254
 20
150.7933555641
 30
0.0
 10
213.5015229642
 20
150.7285321086
 30
0.0
 10
213.486388788
 20
150.6754321815
 30
0.0
 10
213.4781700337
 20
150.6359001241
 30
0.0
 10
213.4739277971
 20
150.6031566262
 30
0.0
 10
213.4722211237
 20
150.5774324369
 30
0.0
 10
213.4717129775
 20
150.5561531462
 30
0.0
 10
213.4725333143
 20
150.5329313648
 30
0.0
 10
213.476233514
 20
150.5003243437
 30
0.0
 10
213.4852461229
 20
150.4620390838
 30
0.0
 10
213.5032619546
 20
150.4203961811
 30
0.0
 10
213.5279389644
 20
150.3845472622
 30
0.0
 10
213.553810687
 20
150.3601542769
 30
0.0
 10
213.5771217252
 20
150.3445643209
 30
0.0
 10
213.5959859314
 20
150.3347891009
 30
0.0
 10
213.6161626615
 20
150.3270391707
 30
0.0
 10
213.6338883704
 20
150.3223791101
 30
0.0
 10
213.6486114546
 20
150.3197339174
 30
0.0
 10
213.6600369479
 20
150.3182926315
 30
0.0
 10
213.6697460882
 20
150.3175704358
 30
0.0
 10
213.6776469801
 20
150.3172793875
 30
0.0
 10
213.6848853532
 20
150.3171901079
 30
0.0
 10
213.6901376818
 20
150.3172983806
 30
0.0
 10
213.6933784369
 20
150.3174331864
 30
0.0
  0
SPLINE
  5
49F
100
AcDbEntity
  8
0
100
AcDbSpline
 62
4
  6
CONTINUOUS
 70
0
 71
3
 72
12
 73
8
 74
0
 42
0.0000001
 43
0.0000001
 44
0.0000000001
 40
0.0
 40
0.0
 40
0.0
 40
0.0
 40
0.2302102415
 40
0.4732867413
 40
0.5998917614
 40
0.7297722768
 40
1.0
 40
1.0
 40
1.0
 40
1.0
 10
215.3859655894
 20
150.9340200893
 30
0.0
 10
215.4047901493
 20
150.9658787151
 30
0.0
 10
215.453690476
 20
151.025664441
 30
0.0
 10
215.5328508153
 20
151.0825067747
 30
0.0
 10
215.6056765279
 20
151.1167754263
 30
0.0
 10
215.6862947943
 20
151.143151811
 30
0.0
 10
215.7510125462
 20
151.1513136926
 30
0.0
 10
215.7944495928
 20
151.1513136926
 30
0.0
  0
SPLINE
  5
4A0
100
AcDbEntity
  8
0
100
AcDbSpline
 62
4
  6
CONTINUOUS
 70
0
 71
3
 72
15
 73
11
 74
0
 42
0.0000001
 43
0.0000001
 44
0.0000000001
 40
0.0
 40
0.0
 40
0.0
 40
0.0
 40
0.1397772283
 40
0.2674688877
 40
0.3858478088
 40
0.4988252086
 40
0.611361315
 40
0.7289645088
 40
0.8569685997
 40
1.0
 40
1.0
 40
1.0
 40
1.0
 10
215.7944495928
 20
151.1513136926
 30
0.0
 10
215.8300114158
 20
151.1513136926
 30
0.0
 10
215.8981977725
 20
151.1470961518
 30
0.0
 10
215.9944769763
 20
151.1256515447
 30
0.0
 10
216.078900653
 20
151.0891101348
 30
0.0
 10
216.1502773184
 20
151.0371615143
 30
0.0
 10
216.2071672716
 20
150.9698356727
 30
0.0
 10
216.2483112279
 20
150.8876526586
 30
0.0
 10
216.2729648009
 20
150.7912563004
 30
0.0
 10
216.2777809709
 20
150.7221096142
 30
0.0
 10
216.2777809709
 20
150.6857198717
 30
0.0
  0
SPLINE
  5
4A1
100
AcDbEntity
  8
0
100
AcDbSpline
 62
4
  6
CONTINUOUS
 70
0
 71
3
 72
15
 73
11
 74
0
 42
0.0000001
 43
0.0000001
 44
0.0000000001
 40
0.0
 40
0.0
 40
0.0
 40
0.0
 40
0.1609892229
 40
0.3006743973
 40
0.4228062545
 40
0.5328060983
 40
0.6378736776
 40
0.7461142449
 40
0.8649367654
 40
1.0
 40
1.0
 40
1.0
 40
1.0
 10
215.9766347715
 20
150.6060202517
 30
0.0
 10
215.9757291404
 20
150.6309633804
 30
0.0
 10
215.9721583893
 20
150.6775346341
 30
0.0
 10
215.9593243594
 20
150.7420278799
 30
0.0
 10
215.938843593
 20
150.7962823003
 30
0.0
 10
215.9099417309
 20
150.8404633216
 30
0.0
 10
215.8720793765
 20
150.8742389253
 30
0.0
 10
215.8254682977
 20
150.8973740932
 30
0.0
 10
215.7704842674
 20
150.9104085444
 30
0.0
 10
215.7310253682
 20
150.9127350207
 30
0.0
 10
215.7100853364
 20
150.9127350207
 30
0.0
  0
SPLINE
  5
4A2
100
AcDbEntity
  8
0
100
AcDbSpline
 62
4
  6
CONTINUOUS
 70
0
 71
3
 72
14
 73
10
 74
0
 42
0.0000001
 43
0.0000001
 44
0.0000000001
 40
0.0
 40
0.0
 40
0.0
 40
0.0
 40
0.1322803344
 40
0.2563446535
 40
0.3759761137
 40
0.494444934
 40
0.6143847633
 40
0.7378123637
 40
1.0
 40
1.0
 40
1.0
 40
1.0
 10
215.7100853364
 20
150.9127350207
 30
0.0
 10
215.6860754146
 20
150.9127350207
 30
0.0
 10
215.6393709138
 20
150.9082885522
 30
0.0
 10
215.5738535654
 20
150.8874233727
 30
0.0
 10
215.516593164
 20
150.854073076
 30
0.0
 10
215.4683919951
 20
150.8097729992
 30
0.0
 10
215.4298952145
 20
150.7560024775
 30
0.0
 10
215.3915643058
 20
150.6721606031
 30
0.0
 10
215.3806613776
 20
150.6011897731
 30
0.0
 10
215.3806613776
 20
150.5536006536
 30
0.0
  0
SPLINE
  5
4A3
100
AcDbEntity
  8
0
100
AcDbSpline
 62
4
  6
CONTINUOUS
 70
0
 71
3
 72
50
 73
46
 74
0
 42
0.0000001
 43
0.0000001
 44
0.0000000001
 40
0.0
 40
0.0
 40
0.0
 40
0.0
 40
0.0156873976
 40
0.0314008792
 40
0.0628343659
 40
0.0941757547
 40
0.1253107209
 40
0.1865654449
 40
0.2462539746
 40
0.2756176765
 40
0.3047917097
 40
0.3339768201
 40
0.3634486891
 40
0.3935558734
 40
0.4089824038
 40
0.4247265558
 40
0.440847137
 40
0.4574047519
 40
0.4658676901
 40
0.4744631011
 40
0.4831987943
 40
0.4876218042
 40
0.492082813
 40
0.4965429619
 40
0.5009650968
 40
0.5096989971
 40
0.5182925619
 40
0.5267536053
 40
0.5433073036
 40
0.5594238343
 40
0.5751638451
 40
0.5905861876
 40
0.6206850243
 40
0.6501488647
 40
0.6793265445
 40
0.7084939515
 40
0.7378519596
 40
0.79753208
 40
0.8587820932
 40
0.8899158275
 40
0.9212565613
 40
0.9526898022
 40
0.968403252
 40
0.984090646
 40
1.0
 40
1.0
 40
1.0
 40
1.0
 10
217.6873368859
 20
150.4319363611
 30
0.0
 10
217.687335922
 20
150.4392944877
 30
0.0
 10
217.6871037841
 20
150.4540229898
 30
0.0
 10
217.6856984949
 20
150.4834644874
 30
0.0
 10
217.6821760168
 20
150.5201362034
 30
0.0
 10
217.6750756083
 20
150.5636416142
 30
0.0
 10
217.6617880035
 20
150.6201713861
 30
0.0
 10
217.6379363537
 20
150.6877056198
 30
0.0
 10
217.6033905131
 20
150.7496656764
 30
0.0
 10
217.5693521601
 20
150.7935562529
 30
0.0
 10
217.5407000573
 20
150.8232077859
 30
0.0
 10
217.5087410342
 20
150.8493584274
 30
0.0
 10
217.4734267113
 20
150.8716110004
 30
0.0
 10
217.4414147692
 20
150.8864535968
 30
0.0
 10
217.414285239
 20
150.8959902005
 30
0.0
 10
217.3929160394
 20
150.9019944392
 30
0.0
 10
217.3706915885
 20
150.9067414342
 30
0.0
 10
217.3515933835
 20
150.909590184
 30
0.0
 10
217.3359079216
 20
150.9112075211
 30
0.0
 10
217.3238400301
 20
150.9120870073
 30
0.0
 10
217.3136447744
 20
150.9125277338
 30
0.0
 10
217.3053823689
 20
150.9127054205
 30
0.0
 10
217.2991235615
 20
150.9127498837
 30
0.0
 10
217.2928651645
 20
150.9127054222
 30
0.0
 10
217.284604414
 20
150.9125277339
 30
0.0
 10
217.274411277
 20
150.912087011
 30
0.0
 10
217.2623459872
 20
150.9112075258
 30
0.0
 10
217.2466641346
 20
150.9095901972
 30
0.0
 10
217.2275705994
 20
150.9067414648
 30
0.0
 10
217.2053519498
 20
150.9019944716
 30
0.0
 10
217.1839887761
 20
150.8959902286
 30
0.0
 10
217.1568675268
 20
150.8864536339
 30
0.0
 10
217.1248662035
 20
150.8716109584
 30
0.0
 10
217.0895651375
 20
150.8493582149
 30
0.0
 10
217.0576196031
 20
150.8232074013
 30
0.0
 10
217.0289809573
 20
150.7935557335
 30
0.0
 10
216.9949596199
 20
150.749664256
 30
0.0
 10
216.9604341397
 20
150.6877030784
 30
0.0
 10
216.9365997476
 20
150.6201701685
 30
0.0
 10
216.9233224158
 20
150.5636412103
 30
0.0
 10
216.916227783
 20
150.520135915
 30
0.0
 10
216.9127083672
 20
150.4834643883
 30
0.0
 10
216.9113043407
 20
150.4540229697
 30
0.0
 10
216.9109549154
 20
150.4318322442
 30
0.0
 10
216.911187679
 20
150.4170119005
 30
0.0
 10
216.9114213859
 20
150.409553456
 30
0.0
  0
SPLINE
  5
4A4
100
AcDbEntity
  8
0
100
AcDbSpline
 62
4
  6
CONTINUOUS
 70
0
 71
3
 72
57
 73
53
 74
0
 42
0.0000001
 43
0.0000001
 44
0.0000000001
 40
0.0
 40
0.0
 40
0.0
 40
0.0
 40
0.0085514595
 40
0.0170328696
 40
0.0337896464
 40
0.0502814052
 40
0.066519164
 40
0.0982734696
 40
0.1291653113
 40
0.1593172197
 40
0.1888705403
 40
0.2467686332
 40
0.2755792717
 40
0.3045596895
 40
0.3339460986
 40
0.3639853481
 40
0.3949300276
 40
0.4108263404
 40
0.4270437657
 40
0.4436134183
 40
0.4605659907
 40
0.469195902
 40
0.4779328119
 40
0.4867804059
 40
0.4912469189
 40
0.495742467
 40
0.5002344798
 40
0.5046974502
 40
0.5135379411
 40
0.522267731
 40
0.5308905136
 40
0.5478288359
 40
0.564384308
 40
0.5805876939
 40
0.5964701813
 40
0.6273881308
 40
0.6574023571
 40
0.6867659547
 40
0.715726183
 40
0.7445195372
 40
0.7733673673
 40
0.802472553
 40
0.832017523
 40
0.8621636607
 40
0.8930519205
 40
0.9248043607
 40
0.9410416561
 40
0.9575331767
 40
0.9742898672
 40
0.9827712666
 40
0.9913227248
 40
1.0
 40
1.0
 40
1.0
 40
1.0
 10
216.6100616997
 20
150.4319363611
 30
0.0
 10
216.6100622237
 20
150.4383898783
 30
0.0
 10
216.6101836688
 20
150.451244054
 30
0.0
 10
216.610919234
 20
150.4767342885
 30
0.0
 10
216.6127470849
 20
150.5081816885
 30
0.0
 10
216.6164093376
 20
150.5453575425
 30
0.0
 10
216.6231694542
 20
150.5935597949
 30
0.0
 10
216.6351398522
 20
150.6519564752
 30
0.0
 10
216.6552584426
 20
150.7191315842
 30
0.0
 10
216.6809417402
 20
150.7826161344
 30
0.0
 10
216.7221263892
 20
150.861347447
 30
0.0
 10
216.7746105408
 20
150.9326237718
 30
0.0
 10
216.837233672
 20
150.9936566288
 30
0.0
 10
216.8892012031
 20
151.0342268934
 30
0.0
 10
216.9461033732
 20
151.0693120488
 30
0.0
 10
217.0078230719
 20
151.0986295352
 30
0.0
 10
217.0626896316
 20
151.1178410418
 30
0.0
 10
217.1086885894
 20
151.1300957755
 30
0.0
 10
217.1446356375
 20
151.1377613267
 30
0.0
 10
217.1817004601
 20
151.1437806533
 30
0.0
 10
217.2133200454
 20
151.1473743913
 30
0.0
 10
217.2391413805
 20
151.1494058626
 30
0.0
 10
217.2588953972
 20
151.1505055857
 30
0.0
 10
217.2755286984
 20
151.1510556618
 30
0.0
 10
217.2889672471
 20
151.1512768617
 30
0.0
 10
217.2991204902
 20
151.1513321657
 30
0.0
 10
217.3092710601
 20
151.1512768696
 30
0.0
 10
217.3226989059
 20
151.1510556591
 30
0.0
 10
217.3393187942
 20
151.1505055925
 30
0.0
 10
217.3590566743
 20
151.1494058696
 30
0.0
 10
217.3848564386
 20
151.1473744107
 30
0.0
 10
217.4164490306
 20
151.1437806935
 30
0.0
 10
217.4534813958
 20
151.137761363
 30
0.0
 10
217.4893960142
 20
151.13009579
 30
0.0
 10
217.5353523298
 20
151.1178410205
 30
0.0
 10
217.5901664987
 20
151.0986290283
 30
0.0
 10
217.6518235839
 20
151.0693115826
 30
0.0
 10
217.708665848
 20
151.0342238316
 30
0.0
 10
217.7605727406
 20
150.9936602737
 30
0.0
 10
217.8074327733
 20
150.9479181238
 30
0.0
 10
217.8491381333
 20
150.8972966535
 30
0.0
 10
217.8855863239
 20
150.8420944899
 30
0.0
 10
217.9166786111
 20
150.7826082681
 30
0.0
 10
217.9423187828
 20
150.7191305171
 30
0.0
 10
217.962410948
 20
150.6519540979
 30
0.0
 10
217.9743631129
 20
150.5935590103
 30
0.0
 10
217.9811132263
 20
150.5453572724
 30
0.0
 10
217.984769958
 20
150.5081815169
 30
0.0
 10
217.9865950223
 20
150.4767342314
 30
0.0
 10
217.9873294567
 20
150.451244043
 30
0.0
 10
217.9875124873
 20
150.4318414084
 30
0.0
 10
217.9873901549
 20
150.4188394316
 30
0.0
 10
217.9872662045
 20
150.4122921861
 30
0.0
  0
SPLINE
  5
4A5
100
AcDbEntity
  8
0
100
AcDbSpline
 62
4
  6
CONTINUOUS
 70
0
 71
3
 72
13
 73
9
 74
0
 42
0.0000001
 43
0.0000001
 44
0.0000000001
 40
0.0
 40
0.0
 40
0.0
 40
0.0
 40
0.2367278302
 40
0.3508992263
 40
0.4652564971
 40
0.5831793923
 40
0.7087472967
 40
1.0
 40
1.0
 40
1.0
 40
1.0
 10
218.6109775382
 20
150.9230961418
 30
0.0
 10
218.6331776248
 20
150.9557325705
 30
0.0
 10
218.6688566833
 20
151.0025771099
 30
0.0
 10
218.7255214198
 20
151.0558254667
 30
0.0
 10
218.7726679644
 20
151.0895433038
 30
0.0
 10
218.8260388548
 20
151.1167463456
 30
0.0
 10
218.91099396
 20
151.1447757169
 30
0.0
 10
218.9812089301
 20
151.1513136926
 30
0.0
 10
219.0297714967
 20
151.1513136926
 30
0.0
  0
SPLINE
  5
4A6
100
AcDbEntity
  8
0
100
AcDbSpline
 62
4
  6
CONTINUOUS
 70
0
 71
3
 72
13
 73
9
 74
0
 42
0.0000001
 43
0.0000001
 44
0.0000000001
 40
0.0
 40
0.0
 40
0.0
 40
0.0
 40
0.2581735245
 40
0.505451978
 40
0.6265556253
 40
0.7476603348
 40
0.8711221691
 40
1.0
 40
1.0
 40
1.0
 40
1.0
 10
219.0297714967
 20
151.1513136926
 30
0.0
 10
219.0705857249
 20
151.1513136926
 30
0.0
 10
219.150821235
 20
151.1430176498
 30
0.0
 10
219.2450745032
 20
151.1083160053
 30
0.0
 10
219.3098857158
 20
151.0654692636
 30
0.0
 10
219.3523198341
 20
151.0257715897
 30
0.0
 10
219.387735443
 20
150.9781466418
 30
0.0
 10
219.4054095672
 20
150.9420956671
 30
0.0
 10
219.4127662893
 20
150.9230961418
 30
0.0
  0
SPLINE
  5
4A7
100
AcDbEntity
  8
0
100
AcDbSpline
 62
4
  6
CONTINUOUS
 70
0
 71
3
 72
13
 73
9
 74
0
 42
0.0000001
 43
0.0000001
 44
0.0000000001
 40
0.0
 40
0.0
 40
0.0
 40
0.0
 40
0.2485289842
 40
0.3672527265
 40
0.4847576849
 40
0.6036660588
 40
0.7270486599
 40
1.0
 40
1.0
 40
1.0
 40
1.0
 10
219.4127662893
 20
150.9230961418
 30
0.0
 10
219.437473019
 20
150.9568912506
 30
0.0
 10
219.477463417
 20
151.0046625231
 30
0.0
 10
219.5394330155
 20
151.0580871621
 30
0.0
 10
219.5893639478
 20
151.0913445351
 30
0.0
 10
219.6440796746
 20
151.117871828
 30
0.0
 10
219.7269192396
 20
151.1445485253
 30
0.0
 10
219.7942643627
 20
151.1513136926
 30
0.0
 10
219.8402414176
 20
151.1513136926
 30
0.0
  0
SPLINE
  5
4A8
100
AcDbEntity
  8
0
100
AcDbSpline
 62
4
  6
CONTINUOUS
 70
0
 71
3
 72
15
 73
11
 74
0
 42
0.0000001
 43
0.0000001
 44
0.0000000001
 40
0.0
 40
0.0
 40
0.0
 40
0.0
 40
0.1375175295
 40
0.261680164
 40
0.3755452677
 40
0.4839963127
 40
0.5936353046
 40
0.7118264287
 40
0.8454114784
 40
1.0
 40
1.0
 40
1.0
 40
1.0
 10
219.8402414176
 20
151.1513136926
 30
0.0
 10
219.8743967336
 20
151.1513136926
 30
0.0
 10
219.9395015609
 20
151.1479006735
 30
0.0
 10
220.031351156
 20
151.1293988159
 30
0.0
 10
220.1115667232
 20
151.0964655266
 30
0.0
 10
220.1790869679
 20
151.047632226
 30
0.0
 10
220.2323329554
 20
150.982057148
 30
0.0
 10
220.270200978
 20
150.8997820854
 30
0.0
 10
220.2925025121
 20
150.8007711158
 30
0.0
 10
220.2966424083
 20
150.7290355875
 30
0.0
 10
220.2966424083
 20
150.6906403383
 30
0.0
  0
SPLINE
  5
4A9
100
AcDbEntity
  8
0
100
AcDbSpline
 62
4
  6
CONTINUOUS
 70
0
 71
3
 72
15
 73
11
 74
0
 42
0.0000001
 43
0.0000001
 44
0.0000000001
 40
0.0
 40
0.0
 40
0.0
 40
0.0
 40
0.1519468969
 40
0.2895157385
 40
0.4121770812
 40
0.5215099953
 40
0.6230231677
 40
0.7274632869
 40
0.8487994848
 40
1.0
 40
1.0
 40
1.0
 40
1.0
 10
219.9955814857
 20
150.5454396718
 30
0.0
 10
219.9955814857
 20
150.5717014625
 30
0.0
 10
219.995268554
 20
150.6217451226
 30
0.0
 10
219.9913005226
 20
150.6929299518
 30
0.0
 10
219.9813871585
 20
150.7562041527
 30
0.0
 10
219.9626887706
 20
150.8112046601
 30
0.0
 10
219.931381606
 20
150.8569408688
 30
0.0
 10
219.8843598954
 20
150.8904089855
 30
0.0
 10
219.8212349682
 20
150.9096022218
 30
0.0
 10
219.7739342456
 20
150.9127350207
 30
0.0
 10
219.747801456
 20
150.9127350207
 30
0.0
  0
SPLINE
  5
4AA
100
AcDbEntity
  8
0
100
AcDbSpline
 62
4
  6
CONTINUOUS
 70
0
 71
3
 72
15
 73
11
 74
0
 42
0.0000001
 43
0.0000001
 44
0.0000000001
 40
0.0
 40
0.0
 40
0.0
 40
0.0
 40
0.1334005034
 40
0.2516048133
 40
0.3610638039
 40
0.4690477661
 40
0.5824191182
 40
0.7065443068
 40
0.8450215414
 40
1.0
 40
1.0
 40
1.0
 40
1.0
 10
219.747801456
 20
150.9127350207
 30
0.0
 10
219.7241241354
 20
150.9127350207
 30
0.0
 10
219.6793050193
 20
150.9093806345
 30
0.0
 10
219.6172160048
 20
150.8914264093
 30
0.0
 10
219.5652636597
 20
150.8608840977
 30
0.0
 10
219.5238696561
 20
150.8183031709
 30
0.0
 10
219.4929168891
 20
150.7647679497
 30
0.0
 10
219.4717178096
 20
150.7011204503
 30
0.0
 10
219.4595641484
 20
150.6277794794
 30
0.0
 10
219.4572807357
 20
150.5756330909
 30
0.0
 10
219.4572807357
 20
150.5481258884
 30
0.0
  0
SPLINE
  5
4AB
100
AcDbEntity
  8
0
100
AcDbSpline
 62
4
  6
CONTINUOUS
 70
0
 71
3
 72
15
 73
11
 74
0
 42
0.0000001
 43
0.0000001
 44
0.0000000001
 40
0.0
 40
0.0
 40
0.0
 40
0.0
 40
0.1545623546
 40
0.2904379284
 40
0.4102622757
 40
0.5187202099
 40
0.6230428771
 40
0.7323235501
 40
0.8555435717
 40
1.0
 40
1.0
 40
1.0
 40
1.0
 10
219.1568252777
 20
150.6245508824
 30
0.0
 10
219.1568252777
 20
150.6469318781
 30
0.0
 10
219.1553554905
 20
150.6890264629
 30
0.0
 10
219.1468168292
 20
150.7479795201
 30
0.0
 10
219.1311232315
 20
150.7986324631
 30
0.0
 10
219.107010184
 20
150.8408976786
 30
0.0
 10
219.0732840867
 20
150.8740373717
 30
0.0
 10
219.0296717132
 20
150.8971831099
 30
0.0
 10
218.9763002621
 20
150.9104083479
 30
0.0
 10
218.9374331221
 20
150.9127350207
 30
0.0
 10
218.9165154885
 20
150.9127350207
 30
0.0
  0
SPLINE
  5
4AC
100
AcDbEntity
  8
0
100
AcDbSpline
 62
4
  6
CONTINUOUS
 70
0
 71
3
 72
14
 73
10
 74
0
 42
0.0000001
 43
0.0000001
 44
0.0000000001
 40
0.0
 40
0.0
 40
0.0
 40
0.0
 40
0.1121062751
 40
0.2237124417
 40
0.3366810341
 40
0.4530010615
 40
0.5749085865
 40
0.7049504986
 40
1.0
 40
1.0
 40
1.0
 40
1.0
 10
218.9165154885
 20
150.9127350207
 30
0.0
 10
218.8972334152
 20
150.9127350207
 30
0.0
 10
218.8586305887
 20
150.9087410894
 30
0.0
 10
218.8031517381
 20
150.8907763166
 30
0.0
 10
218.7519771529
 20
150.861279539
 30
0.0
 10
218.706700119
 20
150.8206523873
 30
0.0
 10
218.6688895928
 20
150.7692819167
 30
0.0
 10
218.6288467742
 20
150.6835970757
 30
0.0
 10
218.6181066718
 20
150.6092435091
 30
0.0
 10
218.6181066718
 20
150.5584955372
 30
0.0
  0
SPLINE
  5
4AD
100
AcDbEntity
  8
0
100
AcDbSpline
 62
4
  6
CONTINUOUS
 70
0
 71
3
 72
14
 73
10
 74
0
 42
0.0000001
 43
0.0000001
 44
0.0000000001
 40
0.0
 40
0.0
 40
0.0
 40
0.0
 40
0.2526287107
 40
0.373112337
 40
0.4905974888
 40
0.6075074888
 40
0.7277716508
 40
0.8566206633
 40
1.0
 40
1.0
 40
1.0
 40
1.0
 10
220.9275536733
 20
150.3521599921
 30
0.0
 10
220.9275536733
 20
150.3003784118
 30
0.0
 10
220.9375552046
 20
150.223009203
 30
0.0
 10
220.9751394003
 20
150.1292588718
 30
0.0
 10
221.0148341038
 20
150.0676819057
 30
0.0
 10
221.0669071668
 20
150.0160676358
 30
0.0
 10
221.1316619799
 20
149.976775825
 30
0.0
 10
221.2089738368
 20
149.9521560186
 30
0.0
 10
221.2650084378
 20
149.9471723341
 30
0.0
 10
221.2943970557
 20
149.9471723341
 30
0.0
  0
SPLINE
  5
4AE
100
AcDbEntity
  8
0
100
AcDbSpline
 62
4
  6
CONTINUOUS
 70
0
 71
3
 72
13
 73
9
 74
0
 42
0.0000001
 43
0.0000001
 44
0.0000000001
 40
0.0
 40
0.0
 40
0.0
 40
0.0
 40
0.2761469747
 40
0.3980492505
 40
0.5140291262
 40
0.6283565392
 40
0.7452198806
 40
1.0
 40
1.0
 40
1.0
 40
1.0
 10
221.2943970557
 20
149.9471723341
 30
0.0
 10
221.3344086963
 20
149.9471723341
 30
0.0
 10
221.3927568871
 20
149.9527917905
 30
0.0
 10
221.4632770045
 20
149.9777200808
 30
0.0
 10
221.5078959166
 20
150.0030801551
 30
0.0
 10
221.5464942187
 20
150.0357885161
 30
0.0
 10
221.5914133091
 20
150.0904170203
 30
0.0
 10
221.6147455578
 20
150.1399707114
 30
0.0
 10
221.626976253
 20
150.1748014755
 30
0.0
  0
SPLINE
  5
4AF
100
AcDbEntity
  8
0
100
AcDbSpline
 62
4
  6
CONTINUOUS
 70
0
 71
3
 72
14
 73
10
 74
0
 42
0.0000001
 43
0.0000001
 44
0.0000000001
 40
0.0
 40
0.0
 40
0.0
 40
0.0
 40
0.1320404731
 40
0.2574601272
 40
0.3792193361
 40
0.4997804977
 40
0.6210437147
 40
0.7443773676
 40
1.0
 40
1.0
 40
1.0
 40
1.0
 10
221.9118857654
 20
150.1748014755
 30
0.0
 10
221.9042495026
 20
150.1386683121
 30
0.0
 10
221.8831768922
 20
150.0693086234
 30
0.0
 10
221.8336132808
 20
149.9748455589
 30
0.0
 10
221.769145792
 20
149.8939169026
 30
0.0
 10
221.6918465182
 20
149.8270033718
 30
0.0
 10
221.6036742929
 20
149.7744357467
 30
0.0
 10
221.4729400195
 20
149.7233201624
 30
0.0
 10
221.3658938159
 20
149.7085936623
 30
0.0
 10
221.2943970557
 20
149.7085936623
 30
0.0
  0
SPLINE
  5
4B0
100
AcDbEntity
  8
0
100
AcDbSpline
 62
4
  6
CONTINUOUS
 70
0
 71
3
 72
15
 73
11
 74
0
 42
0.0000001
 43
0.0000001
 44
0.0000000001
 40
0.0
 40
0.0
 40
0.0
 40
0.0
 40
0.1377552969
 40
0.2633723603
 40
0.3813553159
 40
0.4963126194
 40
0.6125182656
 40
0.7335348406
 40
0.8620615265
 40
1.0
 40
1.0
 40
1.0
 40
1.0
 10
221.2943970557
 20
149.7085936623
 30
0.0
 10
221.2434716318
 20
149.7085936623
 30
0.0
 10
221.1457802863
 20
149.7165625192
 30
0.0
 10
221.0093449328
 20
149.7558925183
 30
0.0
 10
220.8921054628
 20
149.8201658454
 30
0.0
 10
220.7952498318
 20
149.9071774569
 30
0.0
 10
220.7195796465
 20
150.0143625576
 30
0.0
 10
220.6654767573
 20
150.1392064285
 30
0.0
 10
220.6331301529
 20
150.2794372665
 30
0.0
 10
220.6264842231
 20
150.3781461441
 30
0.0
 10
220.6264842231
 20
150.4291392848
 30
0.0
  0
SPLINE
  5
4B1
100
AcDbEntity
  8
0
100
AcDbSpline
 62
4
  6
CONTINUOUS
 70
0
 71
3
 72
43
 73
39
 74
0
 42
0.0000001
 43
0.0000001
 44
0.0000000001
 40
0.0
 40
0.0
 40
0.0
 40
0.0
 40
0.0660523653
 40
0.1299860844
 40
0.1921060733
 40
0.2528780319
 40
0.283020527
 40
0.3131435864
 40
0.3434073666
 40
0.3740017431
 40
0.4051457803
 40
0.4210058196
 40
0.4370973933
 40
0.4534547352
 40
0.4701131771
 40
0.4785673496
 40
0.4871104463
 40
0.49574711
 40
0.5001020808
 40
0.504482199
 40
0.5091271884
 40
0.5137446994
 40
0.5228999558
 40
0.5319539631
 40
0.5409124084
 40
0.5585630452
 40
0.575897428
 40
0.5929575078
 40
0.6097832696
 40
0.642866238
 40
0.6754350973
 40
0.7077230593
 40
0.739922253
 40
0.7721859416
 40
0.8372676546
 40
0.9037040262
 40
0.9718868566
 40
1.0
 40
1.0
 40
1.0
 40
1.0
 10
220.6264842231
 20
150.4291392848
 30
0.0
 10
220.6264842231
 20
150.4768342107
 30
0.0
 10
220.6340274386
 20
150.5708945472
 30
0.0
 10
220.6682503986
 20
150.7059994973
 30
0.0
 10
220.7240509996
 20
150.8296170504
 30
0.0
 10
220.7879884857
 20
150.92068342
 30
0.0
 10
220.8485182628
 20
150.9839102481
 30
0.0
 10
220.8984691168
 20
151.0262707321
 30
0.0
 10
220.9529283844
 20
151.0632422128
 30
0.0
 10
221.0117451516
 20
151.0944084109
 30
0.0
 10
221.063962871
 20
151.1150684667
 30
0.0
 10
221.1075801026
 20
151.1282949363
 30
0.0
 10
221.1414849246
 20
151.1365749908
 30
0.0
 10
221.1763557731
 20
151.1431001232
 30
0.0
 10
221.2060591936
 20
151.147014
 30
0.0
 10
221.2302623357
 20
151.1492293951
 30
0.0
 10
221.2487352779
 20
151.150429537
 30
0.0
 10
221.2642752649
 20
151.1510312707
 30
0.0
 10
221.2768169693
 20
151.1512732283
 30
0.0
 10
221.2864784944
 20
151.1513355425
 30
0.0
 10
221.2963296234
 20
151.15126677
 30
0.0
 10
221.3096260481
 20
151.1509846755
 30
0.0
 10
221.3260962786
 20
151.150284538
 30
0.0
 10
221.3456665674
 20
151.1488888696
 30
0.0
 10
221.3712920628
 20
151.1463150689
 30
0.0
 10
221.4027158358
 20
151.1417728365
 30
0.0
 10
221.4395499717
 20
151.1342142769
 30
0.0
 10
221.4752983107
 20
151.1246413584
 30
0.0
 10
221.5212061325
 20
151.1093744193
 30
0.0
 10
221.575969448
 20
151.0855844826
 30
0.0
 10
221.6371974033
 20
151.0498794961
 30
0.0
 10
221.6933779531
 20
151.0077298613
 30
0.0
 10
221.7442981717
 20
150.959683428
 30
0.0
 10
221.8050439385
 20
150.888347388
 30
0.0
 10
221.8669778091
 20
150.7865334957
 30
0.0
 10
221.9163806423
 20
150.650116849
 30
0.0
 10
221.9348885061
 20
150.5334033135
 30
0.0
 10
221.9367703272
 20
150.4637031649
 30
0.0
 10
221.9365597928
 20
150.4433667948
 30
0.0
  0
SPLINE
  5
4B2
100
AcDbEntity
  8
0
100
AcDbSpline
 62
4
  6
CONTINUOUS
 70
0
 71
3
 72
35
 73
31
 74
0
 42
0.0000001
 43
0.0000001
 44
0.0000000001
 40
0.0
 40
0.0
 40
0.0
 40
0.0
 40
0.0633631963
 40
0.1256181179
 40
0.1866272193
 40
0.2464968888
 40
0.3057320478
 40
0.3354566025
 40
0.3654662737
 40
0.3959888663
 40
0.4272883224
 40
0.4433265009
 40
0.4596713667
 40
0.4763632909
 40
0.4848530236
 40
0.4934450663
 40
0.5021396903
 40
0.5107513586
 40
0.5277385328
 40
0.5444355013
 40
0.5608694756
 40
0.5930442278
 40
0.6244785139
 40
0.6553656791
 40
0.6858851015
 40
0.7463863749
 40
0.8071981662
 40
0.8692409615
 40
0.9332800401
 40
1.0
 40
1.0
 40
1.0
 40
1.0
 10
221.6296880526
 20
150.550888854
 30
0.0
 10
221.6280464396
 20
150.5744359059
 30
0.0
 10
221.6213885136
 20
150.6209580711
 30
0.0
 10
221.6013037559
 20
150.6877881151
 30
0.0
 10
221.5714583967
 20
150.7494849928
 30
0.0
 10
221.5320894265
 20
150.8042564293
 30
0.0
 10
221.4914643433
 20
150.8425832399
 30
0.0
 10
221.4548209764
 20
150.8676388954
 30
0.0
 10
221.4251257367
 20
150.8835560165
 30
0.0
 10
221.3933138723
 20
150.8963218432
 30
0.0
 10
221.3652984845
 20
150.9040798129
 30
0.0
 10
221.3419830249
 20
150.908510891
 30
0.0
 10
221.3238538591
 20
150.9109377181
 30
0.0
 10
221.3084245787
 20
150.9121580841
 30
0.0
 10
221.2958516399
 20
150.9126531282
 30
0.0
 10
221.2862490079
 20
150.9127749084
 30
0.0
 10
221.2766010519
 20
150.9126583077
 30
0.0
 10
221.2638331233
 20
150.9122023957
 30
0.0
 10
221.2481109588
 20
150.911071192
 30
0.0
 10
221.2295691329
 20
150.9088204937
 30
0.0
 10
221.2055856014
 20
150.9046941056
 30
0.0
 10
221.176605251
 20
150.897445355
 30
0.0
 10
221.1434456279
 20
150.8854533249
 30
0.0
 10
221.1122410287
 20
150.870392585
 30
0.0
 10
221.0735182598
 20
150.8465408607
 30
0.0
 10
221.0301142157
 20
150.8096245004
 30
0.0
 10
220.9875924106
 20
150.7556346405
 30
0.0
 10
220.9554489464
 20
150.6934177842
 30
0.0
 10
220.9344541294
 20
150.6243534846
 30
0.0
 10
220.9285388811
 20
150.5757239956
 30
0.0
 10
220.9275536733
 20
150.550888854
 30
0.0
  0
SPLINE
  5
4B3
100
AcDbEntity
  8
0
100
AcDbSpline
 62
4
  6
CONTINUOUS
 70
0
 71
3
 72
54
 73
50
 74
0
 42
0.0000001
 43
0.0000001
 44
0.0000000001
 40
0.0
 40
0.0
 40
0.0
 40
0.0
 40
0.0084264276
 40
0.0251492059
 40
0.0417031168
 40
0.0580925135
 40
0.0903897457
 40
0.122090644
 40
0.1532485105
 40
0.1839308637
 40
0.2441594523
 40
0.2740196349
 40
0.3038899784
 40
0.3339590774
 40
0.3644435495
 40
0.3955856874
 40
0.4114910978
 40
0.4276612912
 40
0.4441317523
 40
0.4609386256
 40
0.4694803605
 40
0.4781199517
 40
0.4868620218
 40
0.49127302
 40
0.4957113743
 40
0.5001526084
 40
0.5045664409
 40
0.513314043
 40
0.5219589838
 40
0.5305058857
 40
0.547322546
 40
0.5638020671
 40
0.579980601
 40
0.5958936444
 40
0.6270489971
 40
0.6575441066
 40
0.6876215109
 40
0.7174981189
 40
0.7473628424
 40
0.8075965723
 40
0.8382801651
 40
0.8694387084
 40
0.9011399238
 40
0.9334372714
 40
0.9498266877
 40
0.9663806056
 40
0.9831033856
 40
0.9915298132
 40
1.0
 40
1.0
 40
1.0
 40
1.0
 10
211.0043580595
 20
171.1056920839
 30
0.0
 10
211.0045116874
 20
171.1135047851
 30
0.0
 10
211.0051994523
 20
171.1368176333
 30
0.0
 10
211.0074864253
 20
171.1754337123
 30
0.0
 10
211.0120534126
 20
171.2212768717
 30
0.0
 10
211.0204951087
 20
171.2811984253
 30
0.0
 10
211.0354361577
 20
171.3543290454
 30
0.0
 10
211.0604169954
 20
171.4390704746
 30
0.0
 10
211.0922309043
 20
171.5199072702
 30
0.0
 10
211.143181635
 20
171.6211165968
 30
0.0
 10
211.2077388133
 20
171.7137064726
 30
0.0
 10
211.2848048102
 20
171.7941574036
 30
0.0
 10
211.3485772557
 20
171.8479687379
 30
0.0
 10
211.418301326
 20
171.8948523973
 30
0.0
 10
211.4938189321
 20
171.9343084054
 30
0.0
 10
211.5609891256
 20
171.9603932353
 30
0.0
 10
211.6172123568
 20
171.9770806307
 30
0.0
 10
211.6610252342
 20
171.9875300785
 30
0.0
 10
211.7061565692
 20
171.9957590275
 30
0.0
 10
211.7446417876
 20
172.0006888724
 30
0.0
 10
211.7760393164
 20
172.0034790501
 30
0.0
 10
211.8000341271
 20
172.00499079
 30
0.0
 10
211.8202313366
 20
172.0057481635
 30
0.0
 10
211.836541984
 20
172.0060529377
 30
0.0
 10
211.8488669044
 20
172.0061291964
 30
0.0
 10
211.8611944529
 20
172.0060529296
 30
0.0
 10
211.8775155308
 20
172.0057481706
 30
0.0
 10
211.8977254673
 20
172.0049907965
 30
0.0
 10
211.9217351888
 20
172.0034790634
 30
0.0
 10
211.9531516207
 20
172.0006889122
 30
0.0
 10
211.9916592902
 20
171.9957591413
 30
0.0
 10
212.036816253
 20
171.9875302381
 30
0.0
 10
212.0806530014
 20
171.9770808374
 30
0.0
 10
212.1369045666
 20
171.9603938057
 30
0.0
 10
212.2041063692
 20
171.9343097495
 30
0.0
 10
212.2796577781
 20
171.8948539764
 30
0.0
 10
212.3494101555
 20
171.8479704249
 30
0.0
 10
212.4132058637
 20
171.7941590497
 30
0.0
 10
212.4902950822
 20
171.7137097733
 30
0.0
 10
212.5548699252
 20
171.6211191919
 30
0.0
 10
212.6058317019
 20
171.5199080031
 30
0.0
 10
212.6376508117
 20
171.439070957
 30
0.0
 10
212.6626347565
 20
171.3543293202
 30
0.0
 10
212.6775771049
 20
171.2811985064
 30
0.0
 10
212.6860193116
 20
171.221276889
 30
0.0
 10
212.690586489
 20
171.1754337198
 30
0.0
 10
212.6928735144
 20
171.1368176347
 30
0.0
 10
212.6937929272
 20
171.105653079
 30
0.0
 10
212.6939461564
 20
171.0899839623
 30
0.0
 10
212.6939461564
 20
171.082129114
 30
0.0
  0
SPLINE
  5
4B4
100
AcDbEntity
  8
0
100
AcDbSpline
 62
4
  6
CONTINUOUS
 70
0
 71
3
 72
45
 73
41
 74
0
 42
0.0000001
 43
0.0000001
 44
0.0000000001
 40
0.0
 40
0.0
 40
0.0
 40
0.0
 40
0.0327786897
 40
0.0653656803
 40
0.1294734733
 40
0.1916624672
 40
0.2517560297
 40
0.2812119452
 40
0.3104585084
 40
0.3397415551
 40
0.3693817253
 40
0.399768529
 40
0.4153873557
 40
0.4313630782
 40
0.4477568703
 40
0.4646309359
 40
0.473268579
 40
0.4820497646
 40
0.4909823002
 40
0.4955078653
 40
0.5000741777
 40
0.5046363452
 40
0.5091578309
 40
0.5180824051
 40
0.5268558945
 40
0.5354861083
 40
0.552346119
 40
0.568726934
 40
0.5846907556
 40
0.6002987467
 40
0.630666985
 40
0.660292491
 40
0.6895643599
 40
0.7188027229
 40
0.7482528691
 40
0.8083401813
 40
0.8705270094
 40
0.9346343484
 40
0.9672213115
 40
1.0
 40
1.0
 40
1.0
 40
1.0
 10
212.3852656009
 20
171.082129114
 30
0.0
 10
212.3852656005
 20
171.1032510649
 30
0.0
 10
212.3840395651
 20
171.1453714426
 30
0.0
 10
212.3765810485
 20
171.2284907055
 30
0.0
 10
212.3578116547
 20
171.3294578001
 30
0.0
 10
212.3189662225
 20
171.443569526
 30
0.0
 10
212.2717734962
 20
171.5299288782
 30
0.0
 10
212.225022418
 20
171.5906950037
 30
0.0
 10
212.1855686074
 20
171.6315771441
 30
0.0
 10
212.1414023045
 20
171.6675278114
 30
0.0
 10
212.0924327239
 20
171.6980319779
 30
0.0
 10
212.0479478852
 20
171.7182983851
 30
0.0
 10
212.0101686962
 20
171.7313004986
 30
0.0
 10
211.9803322771
 20
171.73948565
 30
0.0
 10
211.9492520749
 20
171.7459494796
 30
0.0
 10
211.9225152675
 20
171.7498220779
 30
0.0
 10
211.9005288166
 20
171.7520200176
 30
0.0
 10
211.883591357
 20
171.7532151662
 30
0.0
 10
211.8692739339
 20
171.7538135916
 30
0.0
 10
211.8576637336
 20
171.7540548209
 30
0.0
 10
211.8488669044
 20
171.7541151599
 30
0.0
 10
211.8400727031
 20
171.75405483
 30
0.0
 10
211.8284729327
 20
171.7538135844
 30
0.0
 10
211.8141682349
 20
171.753215161
 30
0.0
 10
211.7972456846
 20
171.7520200055
 30
0.0
 10
211.7752781277
 20
171.7498220404
 30
0.0
 10
211.7485637526
 20
171.7459493653
 30
0.0
 10
211.7175091702
 20
171.73948548
 30
0.0
 10
211.6876966186
 20
171.731300268
 30
0.0
 10
211.6499457074
 20
171.7182977249
 30
0.0
 10
211.6054924788
 20
171.6980303685
 30
0.0
 10
211.5565568384
 20
171.6675259174
 30
0.0
 10
211.512418981
 20
171.6315751793
 30
0.0
 10
211.4729885188
 20
171.5906931762
 30
0.0
 10
211.4262610655
 20
171.5299254677
 30
0.0
 10
211.3790894506
 20
171.443565794
 30
0.0
 10
211.3402570345
 20
171.3294562188
 30
0.0
 10
211.3214912395
 20
171.2284904217
 30
0.0
 10
211.314033411
 20
171.1453714187
 30
0.0
 10
211.3128073767
 20
171.1032510626
 30
0.0
 10
211.3128073763
 20
171.082129114
 30
0.0
  0
SPLINE
  5
4B5
100
AcDbEntity
  8
0
100
AcDbSpline
 62
4
  6
CONTINUOUS
 70
0
 71
3
 72
13
 73
9
 74
0
 42
0.0000001
 43
0.0000001
 44
0.0000000001
 40
0.0
 40
0.0
 40
0.0
 40
0.0
 40
0.1705431741
 40
0.334165464
 40
0.4935196031
 40
0.6531308392
 40
0.8193928538
 40
1.0
 40
1.0
 40
1.0
 40
1.0
 10
213.7471172292
 20
165.9698792534
 30
0.0
 10
213.7865521004
 20
165.9581317151
 30
0.0
 10
213.8621289403
 20
165.929024571
 30
0.0
 10
213.9641992638
 20
165.866420497
 30
0.0
 10
214.0493229607
 20
165.7857026381
 30
0.0
 10
214.1139932721
 20
165.6868451698
 30
0.0
 10
214.1545597499
 20
165.570436949
 30
0.0
 10
214.1629348713
 20
165.4863993149
 30
0.0
 10
214.1629348713
 20
165.4428523142
 30
0.0
  0
SPLINE
  5
4B6
100
AcDbEntity
  8
0
100
AcDbSpline
 62
4
  6
CONTINUOUS
 70
0
 71
3
 72
14
 73
10
 74
0
 42
0.0000001
 43
0.0000001
 44
0.0000000001
 40
0.0
 40
0.0
 40
0.0
 40
0.0
 40
0.0837987567
 40
0.2429351867
 40
0.3927696593
 40
0.5370380236
 40
0.6814062827
 40
0.8331088974
 40
1.0
 40
1.0
 40
1.0
 40
1.0
 10
214.5400260571
 20
158.2154433532
 30
0.0
 10
214.5225094839
 20
158.218776821
 30
0.0
 10
214.4720679013
 20
158.2302013008
 30
0.0
 10
214.3927820283
 20
158.2578882314
 30
0.0
 10
214.3085432945
 20
158.3061225011
 30
0.0
 10
214.2388703833
 20
158.3694141148
 30
0.0
 10
214.1862414101
 20
158.4481048242
 30
0.0
 10
214.1530863034
 20
158.541851381
 30
0.0
 10
214.1456283027
 20
158.6098314219
 30
0.0
 10
214.1450203748
 20
158.6453344122
 30
0.0
  0
SPLINE
  5
4B7
100
AcDbEntity
  8
0
100
AcDbSpline
 62
4
  6
CONTINUOUS
 70
0
 71
3
 72
14
 73
10
 74
0
 42
0.0000001
 43
0.0000001
 44
0.0000000001
 40
0.0
 40
0.0
 40
0.0
 40
0.0
 40
0.0884240502
 40
0.1744569329
 40
0.2587937103
 40
0.4257041129
 40
0.5981627098
 40
0.7862857412
 40
1.0
 40
1.0
 40
1.0
 40
1.0
 10
221.6212856735
 20
173.9671514479
 30
0.0
 10
221.6387281447
 20
173.9607259731
 30
0.0
 10
221.672579663
 20
173.9465079252
 30
0.0
 10
221.7204503216
 20
173.9204752346
 30
0.0
 10
221.7787600111
 20
173.8799746327
 30
0.0
 10
221.842500181
 20
173.8164058393
 30
0.0
 10
221.8991775121
 20
173.7197742493
 30
0.0
 10
221.9336183315
 20
173.6030455295
 30
0.0
 10
221.9402379292
 20
173.5182813523
 30
0.0
 10
221.9402379292
 20
173.4733698903
 30
0.0
  0
SPLINE
  5
4B8
100
AcDbEntity
  8
0
100
AcDbSpline
 62
4
  6
CONTINUOUS
 70
0
 71
3
 72
14
 73
10
 74
0
 42
0.0000001
 43
0.0000001
 44
0.0000000001
 40
0.0
 40
0.0
 40
0.0
 40
0.0
 40
0.0918785082
 40
0.1796185023
 40
0.264638861
 40
0.4319705249
 40
0.6051021358
 40
0.7925711296
 40
1.0
 40
1.0
 40
1.0
 40
1.0
 10
220.9532014192
 20
171.9831084678
 30
0.0
 10
220.9352695085
 20
171.9909217621
 30
0.0
 10
220.9010118634
 20
172.0080549613
 30
0.0
 10
220.8538668761
 20
172.0391193445
 30
0.0
 10
220.798757663
 20
172.0862820776
 30
0.0
 10
220.7420065913
 20
172.1582136532
 30
0.0
 10
220.6958686111
 20
172.2616884362
 30
0.0
 10
220.6699665299
 20
172.3804059383
 30
0.0
 10
220.6652080902
 20
172.4646042668
 30
0.0
 10
220.6652080902
 20
172.5087431544
 30
0.0
  0
SPLINE
  5
4B9
100
AcDbEntity
  8
0
100
AcDbSpline
 62
4
  6
CONTINUOUS
 70
0
 71
3
 72
34
 73
30
 74
0
 42
0.0000001
 43
0.0000001
 44
0.0000000001
 40
0.0
 40
0.0
 40
0.0
 40
0.0
 40
0.0215547508
 40
0.0429245894
 40
0.0852013726
 40
0.1270375372
 40
0.1686397546
 40
0.2102173726
 40
0.2519793018
 40
0.2941309141
 40
0.3154184175
 40
0.3368772383
 40
0.3583462954
 40
0.3796072031
 40
0.4215752827
 40
0.4629422106
 40
0.5038709726
 40
0.5445298245
 40
0.5850903812
 40
0.6257255027
 40
0.6461275013
 40
0.6666123844
 40
0.6872817357
 40
0.7078699473
 40
0.7488863635
 40
0.7898468283
 40
0.830932711
 40
0.9141572928
 40
1.0
 40
1.0
 40
1.0
 40
1.0
 10
223.1153278547
 20
150.8523761602
 30
0.0
 10
223.1196387167
 20
150.8547790587
 30
0.0
 10
223.1281522742
 20
150.8596923696
 30
0.0
 10
223.1447038161
 20
150.8700221346
 30
0.0
 10
223.16453092
 20
150.8838481093
 30
0.0
 10
223.1869434184
 20
150.9019453829
 30
0.0
 10
223.2078936241
 20
150.9214843663
 30
0.0
 10
223.2273791124
 20
150.9424611153
 30
0.0
 10
223.2453997093
 20
150.9648694684
 30
0.0
 10
223.2591499301
 20
150.9846705999
 30
0.0
 10
223.2694109326
 20
151.001183115
 30
0.0
 10
223.2767363423
 20
151.0139337706
 30
0.0
 10
223.2836771177
 20
151.026890221
 30
0.0
 10
223.2923326932
 20
151.0442459267
 30
0.0
 10
223.3020545554
 20
151.0661492073
 30
0.0
 10
223.3119692346
 20
151.0928361558
 30
0.0
 10
223.3200808693
 20
151.1198135331
 30
0.0
 10
223.3263884234
 20
151.1470797669
 30
0.0
 10
223.3308913264
 20
151.1746329212
 30
0.0
 10
223.3331365634
 20
151.1978035985
 30
0.0
 10
223.3340332518
 20
151.2164495734
 30
0.0
 10
223.3342570228
 20
151.2305438887
 30
0.0
 10
223.3340313831
 20
151.2446808441
 30
0.0
 10
223.3331238257
 20
151.2634987162
 30
0.0
 10
223.3308492334
 20
151.2868892611
 30
0.0
 10
223.3262829925
 20
151.3147134309
 30
0.0
 10
223.3177143978
 20
151.3515944362
 30
0.0
 10
223.3022347236
 20
151.3972990076
 30
0.0
 10
223.2852908093
 20
151.4322208701
 30
0.0
 10
223.2757248322
 20
151.4493899301
 30
0.0
  0
SPLINE
  5
4BA
100
AcDbEntity
  8
0
100
AcDbSpline
 62
4
  6
CONTINUOUS
 70
0
 71
3
 72
16
 73
12
 74
0
 42
0.0000001
 43
0.0000001
 44
0.0000000001
 40
0.0
 40
0.0
 40
0.0
 40
0.0
 40
0.0331218415
 40
0.0988990593
 40
0.1641247351
 40
0.2288810101
 40
0.3573000841
 40
0.4848576388
 40
0.6122431418
 40
0.7401433581
 40
1.0
 40
1.0
 40
1.0
 40
1.0
 10
222.4497427793
 20
151.5006842526
 30
0.0
 10
222.4512371941
 20
151.5032658042
 30
0.0
 10
222.4557686039
 20
151.5109341262
 30
0.0
 10
222.463609036
 20
151.5234677091
 30
0.0
 10
222.4734762234
 20
151.538082089
 30
0.0
 10
222.4871715981
 20
151.5569014381
 30
0.0
 10
222.5054083309
 20
151.5793364222
 30
0.0
 10
222.5290935812
 20
151.604496257
 30
0.0
 10
222.554521451
 20
151.627829624
 30
0.0
 10
222.5909115548
 20
151.6566528456
 30
0.0
 10
222.6205923255
 20
151.6753334278
 30
0.0
 10
222.6411807791
 20
151.6864592041
 30
0.0
  0
SPLINE
  5
4BB
100
AcDbEntity
  8
0
100
AcDbSpline
 62
4
  6
CONTINUOUS
 70
0
 71
3
 72
20
 73
16
 74
0
 42
0.0000001
 43
0.0000001
 44
0.0000000001
 40
0.0
 40
0.0
 40
0.0
 40
0.0
 40
0.0151666851
 40
0.0452653502
 40
0.0751902342
 40
0.1050799964
 40
0.1651640079
 40
0.2262465114
 40
0.2886977861
 40
0.3526249513
 40
0.4842321905
 40
0.6187778325
 40
0.7524523854
 40
0.8809195105
 40
1.0
 40
1.0
 40
1.0
 40
1.0
 10
213.6933784369
 20
150.3174331864
 30
0.0
 10
213.6965969896
 20
150.3175670687
 30
0.0
 10
213.7061941384
 20
150.318166641
 30
0.0
 10
213.72205967
 20
150.320144841
 30
0.0
 10
213.7407768126
 20
150.3240304012
 30
0.0
 10
213.7652529748
 20
150.3311338314
 30
0.0
 10
213.7949786905
 20
150.3435161029
 30
0.0
 10
213.828725755
 20
150.3632577204
 30
0.0
 10
213.860528784
 20
150.3873509726
 30
0.0
 10
213.9005440036
 20
150.4248987494
 30
0.0
 10
213.9446746731
 20
150.4798483108
 30
0.0
 10
213.9873462797
 20
150.5535712609
 30
0.0
 10
214.019373697
 20
150.6317818052
 30
0.0
 10
214.0397288212
 20
150.7103895871
 30
0.0
 10
214.0451000702
 20
150.7630085485
 30
0.0
 10
214.0451000702
 20
150.7882992349
 30
0.0
  0
SPLINE
  5
4BC
100
AcDbEntity
  8
0
100
AcDbSpline
 62
4
  6
CONTINUOUS
 70
0
 71
3
 72
48
 73
44
 74
0
 42
0.0000001
 43
0.0000001
 44
0.0000000001
 40
0.0
 40
0.0
 40
0.0
 40
0.0
 40
0.0163534281
 40
0.0490372954
 40
0.0815867182
 40
0.1138842718
 40
0.1773183031
 40
0.238989931
 40
0.2692776695
 40
0.2993369196
 40
0.3293768867
 40
0.359684693
 40
0.3906232411
 40
0.4064692132
 40
0.422638102
 40
0.4391910473
 40
0.4561910206
 40
0.4648796631
 40
0.473704163
 40
0.4826726212
 40
0.4872134868
 40
0.4917933781
 40
0.4963741524
 40
0.5009159165
 40
0.5098862157
 40
0.5187126113
 40
0.5274031993
 40
0.5444071939
 40
0.5609642975
 40
0.577137437
 40
0.5929877069
 40
0.6239348179
 40
0.654250854
 40
0.6842984311
 40
0.7143644607
 40
0.7446580186
 40
0.8063382271
 40
0.8697770545
 40
0.9020758602
 40
0.934625948
 40
0.9673100645
 40
0.9836635248
 40
1.0
 40
1.0
 40
1.0
 40
1.0
 10
216.9114213859
 20
150.409553456
 30
0.0
 10
216.9116553354
 20
150.4020872698
 30
0.0
 10
216.9127069395
 20
150.3797105716
 30
0.0
 10
216.9162246281
 20
150.3425838747
 30
0.0
 10
216.9233174677
 20
150.2985685839
 30
0.0
 10
216.93658567
 20
150.2414585206
 30
0.0
 10
216.9603955549
 20
150.1733095216
 30
0.0
 10
216.9949282541
 20
150.110790948
 30
0.0
 10
217.0289666244
 20
150.0665425963
 30
0.0
 10
217.0576044953
 20
150.0366805748
 30
0.0
 10
217.089550229
 20
150.0103553815
 30
0.0
 10
217.1248527023
 20
149.9879630549
 30
0.0
 10
217.1568610337
 20
149.973030652
 30
0.0
 10
217.1839865229
 20
149.963440209
 30
0.0
 10
217.2053501619
 20
149.957403931
 30
0.0
 10
217.2275692836
 20
149.9526324408
 30
0.0
 10
217.246663613
 20
149.9497694333
 30
0.0
 10
217.2623458318
 20
149.9481442275
 30
0.0
 10
217.2744111766
 20
149.9472605451
 30
0.0
 10
217.2846043822
 20
149.9468177541
 30
0.0
 10
217.2928651585
 20
149.946639242
 30
0.0
 10
217.2991235615
 20
149.9465945767
 30
0.0
 10
217.305382375
 20
149.9466392437
 30
0.0
 10
217.3136448062
 20
149.9468177542
 30
0.0
 10
217.3238401304
 20
149.9472605488
 30
0.0
 10
217.335908077
 20
149.9481442323
 30
0.0
 10
217.351593905
 20
149.9497694465
 30
0.0
 10
217.370692904
 20
149.9526324715
 30
0.0
 10
217.3929178269
 20
149.9574039632
 30
0.0
 10
217.4142874916
 20
149.9634402369
 30
0.0
 10
217.4414212606
 20
149.9730306879
 30
0.0
 10
217.4734402101
 20
149.9879630087
 30
0.0
 10
217.5087559421
 20
150.0103551627
 30
0.0
 10
217.5407151673
 20
150.0366801832
 30
0.0
 10
217.5693664978
 20
150.0665420704
 30
0.0
 10
217.603421896
 20
150.1107895161
 30
0.0
 10
217.6379749734
 20
150.1733069767
 30
0.0
 10
217.6618020964
 20
150.2414573082
 30
0.0
 10
217.6750805617
 20
150.2985681828
 30
0.0
 10
217.6821791751
 20
150.342583589
 30
0.0
 10
217.6856999241
 20
150.3797104736
 30
0.0
 10
217.6871031242
 20
150.4095419086
 30
0.0
 10
217.6873378634
 20
150.4244741249
 30
0.0
 10
217.6873368859
 20
150.4319363611
 30
0.0
  0
SPLINE
  5
4BD
100
AcDbEntity
  8
0
100
AcDbSpline
 62
4
  6
CONTINUOUS
 70
0
 71
3
 72
55
 73
51
 74
0
 42
0.0000001
 43
0.0000001
 44
0.0000000001
 40
0.0
 40
0.0
 40
0.0
 40
0.0
 40
0.0087220243
 40
0.0259409365
 40
0.0428699394
 40
0.0595208018
 40
0.0920322225
 40
0.1235956131
 40
0.1543424435
 40
0.1844242471
 40
0.2140139819
 40
0.243306354
 40
0.272516798
 40
0.3018789627
 40
0.3316407951
 40
0.3620595994
 40
0.3933966643
 40
0.4094962021
 40
0.4259223681
 40
0.4427067689
 40
0.4598804568
 40
0.4686233936
 40
0.4774749986
 40
0.4864389679
 40
0.4909643003
 40
0.4955190886
 40
0.5000774617
 40
0.5046063861
 40
0.5135775578
 40
0.5224363825
 40
0.5311865478
 40
0.5483746862
 40
0.5651734678
 40
0.5816138725
 40
0.5977274333
 40
0.6290916129
 40
0.6595358025
 40
0.6893207746
 40
0.7187034129
 40
0.747931374
 40
0.8067566832
 40
0.8368469192
 40
0.8675995669
 40
0.8991665614
 40
0.9316798552
 40
0.9483311823
 40
0.9652604237
 40
0.9824794223
 40
0.9912014574
 40
1.0
 40
1.0
 40
1.0
 40
1.0
 10
217.9872662045
 20
150.4122921861
 30
0.0
 10
217.9871433321
 20
150.4058018793
 30
0.0
 10
217.9865956935
 20
150.3865020492
 30
0.0
 10
217.9847713734
 20
150.3546394514
 30
0.0
 10
217.9811155099
 20
150.3169987785
 30
0.0
 10
217.974369689
 20
150.2682638543
 30
0.0
 10
217.9624283014
 20
150.2093006474
 30
0.0
 10
217.9423405424
 20
150.1415493444
 30
0.0
 10
217.9167032339
 20
150.0776308973
 30
0.0
 10
217.8856117982
 20
150.0178229854
 30
0.0
 10
217.8491621683
 20
149.9624032479
 30
0.0
 10
217.8074531222
 20
149.9116535701
 30
0.0
 10
217.7605876241
 20
149.8658578166
 30
0.0
 10
217.7086743581
 20
149.8253002435
 30
0.0
 10
217.6518259306
 20
149.7902625949
 30
0.0
 10
217.5901639536
 20
149.7610233677
 30
0.0
 10
217.5353494213
 20
149.7418862984
 30
0.0
 10
217.4893945625
 20
149.729688719
 30
0.0
 10
217.4534799676
 20
149.7220627689
 30
0.0
 10
217.4164477715
 20
149.7160777333
 30
0.0
 10
217.3848558648
 20
149.7125064175
 30
0.0
 10
217.3590564856
 20
149.7104882695
 30
0.0
 10
217.3393186622
 20
149.7093960172
 30
0.0
 10
217.3226988615
 20
149.7088498304
 30
0.0
 10
217.3092710513
 20
149.708630214
 30
0.0
 10
217.2991204902
 20
149.7085753251
 30
0.0
 10
217.288967256
 20
149.7086302219
 30
0.0
 10
217.2755287427
 20
149.7088498277
 30
0.0
 10
217.258895529
 20
149.709396024
 30
0.0
 10
217.2391415691
 20
149.7104882765
 30
0.0
 10
217.2133206187
 20
149.7125064369
 30
0.0
 10
217.1817017181
 20
149.7160777736
 30
0.0
 10
217.1446370645
 20
149.7220628055
 30
0.0
 10
217.1086900399
 20
149.729688734
 30
0.0
 10
217.0626925381
 20
149.7418862789
 30
0.0
 10
217.007825615
 20
149.7610228627
 30
0.0
 10
216.9461010341
 20
149.7902621319
 30
0.0
 10
216.8891926818
 20
149.8252971598
 30
0.0
 10
216.8372188478
 20
149.8658614992
 30
0.0
 10
216.7745566489
 20
149.9269961808
 30
0.0
 10
216.7220712018
 20
149.9985212221
 30
0.0
 10
216.6809172555
 20
150.0776229093
 30
0.0
 10
216.6552365943
 20
150.1415483072
 30
0.0
 10
216.6351224844
 20
150.2092982641
 30
0.0
 10
216.6231628639
 20
150.2682630767
 30
0.0
 10
216.6164070505
 20
150.3169985103
 30
0.0
 10
216.6127456669
 20
150.3546392819
 30
0.0
 10
216.6109185617
 20
150.3865019928
 30
0.0
 10
216.6101840482
 20
150.4123479064
 30
0.0
 10
216.610061168
 20
150.4253878938
 30
0.0
 10
216.6100616997
 20
150.4319363611
 30
0.0
  0
SPLINE
  5
4BE
100
AcDbEntity
  8
09_ROUNDS
100
AcDbSpline
 62
7
  6
CONTINUOUS
 70
0
 71
3
 72
21
 73
17
 74
0
 42
0.0000001
 43
0.0000001
 44
0.0000000001
 40
0.0
 40
0.0
 40
0.0
 40
0.0
 40
0.1946713237
 40
0.3818507795
 40
0.5543581519
 40
0.6330118177
 40
0.7055747508
 40
0.7713513564
 40
0.829713981
 40
0.8801082587
 40
0.9220588391
 40
0.955177715
 40
0.979180301
 40
0.9939288227
 40
0.9979115815
 40
1.0
 40
1.0
 40
1.0
 40
1.0
 10
200.0992654508
 20
182.0009763704
 30
0.0
 10
200.0667399916
 20
182.0009763704
 30
0.0
 10
200.0029405617
 20
182.0007611657
 30
0.0
 10
199.9103233055
 20
181.9997992173
 30
0.0
 10
199.8370969666
 20
181.9984661645
 30
0.0
 10
199.7830271214
 20
181.9970763263
 30
0.0
 10
199.7467898917
 20
181.9959389183
 30
0.0
 10
199.7139482878
 20
181.9946861926
 30
0.0
 10
199.684819735
 20
181.9933329284
 30
0.0
 10
199.6596764272
 20
181.9918913224
 30
0.0
 10
199.6387780392
 20
181.9903911877
 30
0.0
 10
199.622267404
 20
181.9888281696
 30
0.0
 10
199.6104210711
 20
181.9873150927
 30
0.0
 10
199.6032960506
 20
181.9858438077
 30
0.0
 10
199.6001309385
 20
181.984685235
 30
0.0
 10
199.5992654508
 20
181.9838649162
 30
0.0
 10
199.5992654508
 20
181.9835159857
 30
0.0
  0
SPLINE
  5
4BF
100
AcDbEntity
  8
09_ROUNDS
100
AcDbSpline
 62
7
  6
CONTINUOUS
 70
0
 71
3
 72
21
 73
17
 74
0
 42
0.0000001
 43
0.0000001
 44
0.0000000001
 40
0.0
 40
0.0
 40
0.0
 40
0.0
 40
0.1946713237
 40
0.3818507795
 40
0.5543581519
 40
0.6330118177
 40
0.7055747508
 40
0.7713513564
 40
0.829713981
 40
0.8801082587
 40
0.9220588391
 40
0.955177715
 40
0.979180301
 40
0.9939288227
 40
0.9979115815
 40
1.0
 40
1.0
 40
1.0
 40
1.0
 10
235.0992654508
 20
182.0009763704
 30
0.0
 10
235.13179091
 20
182.0009763704
 30
0.0
 10
235.19559034
 20
182.0007611657
 30
0.0
 10
235.2882075961
 20
181.9997992173
 30
0.0
 10
235.3614339351
 20
181.9984661645
 30
0.0
 10
235.4155037803
 20
181.9970763263
 30
0.0
 10
235.4517410099
 20
181.9959389183
 30
0.0
 10
235.4845826139
 20
181.9946861926
 30
0.0
 10
235.5137111666
 20
181.9933329284
 30
0.0
 10
235.5388544745
 20
181.9918913224
 30
0.0
 10
235.5597528624
 20
181.9903911877
 30
0.0
 10
235.5762634976
 20
181.9888281696
 30
0.0
 10
235.5881098305
 20
181.9873150927
 30
0.0
 10
235.5952348511
 20
181.9858438077
 30
0.0
 10
235.5983999632
 20
181.984685235
 30
0.0
 10
235.5992654508
 20
181.9838649162
 30
0.0
 10
235.5992654508
 20
181.9835159857
 30
0.0
  0
SPLINE
  5
4C0
100
AcDbEntity
  8
09_ROUNDS
100
AcDbSpline
 62
7
  6
CONTINUOUS
 70
0
 71
3
 72
21
 73
17
 74
0
 42
0.0000001
 43
0.0000001
 44
0.0000000001
 40
0.0
 40
0.0
 40
0.0
 40
0.0
 40
0.1946713237
 40
0.3818507795
 40
0.5543581519
 40
0.6330118177
 40
0.7055747508
 40
0.7713513564
 40
0.829713981
 40
0.8801082587
 40
0.9220588391
 40
0.955177715
 40
0.979180301
 40
0.9939288227
 40
0.9979115815
 40
1.0
 40
1.0
 40
1.0
 40
1.0
 10
200.0992654508
 20
132.0177793526
 30
0.0
 10
200.0667399916
 20
132.0177793526
 30
0.0
 10
200.0029405617
 20
132.0179945573
 30
0.0
 10
199.9103233055
 20
132.0189565057
 30
0.0
 10
199.8370969666
 20
132.0202895585
 30
0.0
 10
199.7830271214
 20
132.0216793967
 30
0.0
 10
199.7467898917
 20
132.0228168047
 30
0.0
 10
199.7139482878
 20
132.0240695304
 30
0.0
 10
199.684819735
 20
132.0254227946
 30
0.0
 10
199.6596764272
 20
132.0268644006
 30
0.0
 10
199.6387780392
 20
132.0283645353
 30
0.0
 10
199.622267404
 20
132.0299275534
 30
0.0
 10
199.6104210711
 20
132.0314406303
 30
0.0
 10
199.6032960506
 20
132.0329119153
 30
0.0
 10
199.6001309385
 20
132.034070488
 30
0.0
 10
199.5992654508
 20
132.0348908068
 30
0.0
 10
199.5992654508
 20
132.0352397373
 30
0.0
  0
SPLINE
  5
4C1
100
AcDbEntity
  8
09_ROUNDS
100
AcDbSpline
 62
7
  6
CONTINUOUS
 70
0
 71
3
 72
21
 73
17
 74
0
 42
0.0000001
 43
0.0000001
 44
0.0000000001
 40
0.0
 40
0.0
 40
0.0
 40
0.0
 40
0.1946713237
 40
0.3818507795
 40
0.5543581519
 40
0.6330118177
 40
0.7055747508
 40
0.7713513564
 40
0.829713981
 40
0.8801082587
 40
0.9220588391
 40
0.955177715
 40
0.979180301
 40
0.9939288227
 40
0.9979115815
 40
1.0
 40
1.0
 40
1.0
 40
1.0
 10
235.0992654508
 20
132.0177793526
 30
0.0
 10
235.13179091
 20
132.0177793526
 30
0.0
 10
235.19559034
 20
132.0179945573
 30
0.0
 10
235.2882075961
 20
132.0189565057
 30
0.0
 10
235.3614339351
 20
132.0202895585
 30
0.0
 10
235.4155037803
 20
132.0216793967
 30
0.0
 10
235.4517410099
 20
132.0228168047
 30
0.0
 10
235.4845826139
 20
132.0240695304
 30
0.0
 10
235.5137111666
 20
132.0254227946
 30
0.0
 10
235.5388544745
 20
132.0268644006
 30
0.0
 10
235.5597528624
 20
132.0283645353
 30
0.0
 10
235.5762634976
 20
132.0299275534
 30
0.0
 10
235.5881098305
 20
132.0314406303
 30
0.0
 10
235.5952348511
 20
132.0329119153
 30
0.0
 10
235.5983999632
 20
132.034070488
 30
0.0
 10
235.5992654508
 20
132.0348908068
 30
0.0
 10
235.5992654508
 20
132.0352397373
 30
0.0
  0
ELLIPSE
  5
4C2
100
AcDbEntity
  8
0
100
AcDbEllipse
 62
7
  6
CONTINUOUS
 10
229.5992654508
 20
131.9181736698
 30
0.0
 11
-0.0
 21
1.4999738154
 31
0.0
 40
0.9999999654
 41
1.5043424786
 42
4.7788428286
  0
ENDSEC
  0
SECTION
  2
OBJECTS
  0
DICTIONARY
  5
C
100
AcDbDictionary
280
0
281
1
  3
ACAD_GROUP
350
D
  3
ACAD_MLINESTYLE
350
17
  3
ACAD_LAYOUT
350
1A
  3
ACAD_PLOTSETTINGS
350
19
  3
ACAD_PLOTSTYLENAME
350
E
  0
DICTIONARY
  5
D
102
{ACAD_REACTORS
330
C
102
}
100
AcDbDictionary
280
0
281
1
  0
ACDBDICTIONARYWDFLT
  5
E
102
{ACAD_REACTORS
330
C
102
}
100
AcDbDictionary
281
1
  3
Normal
350
F
100
AcDbDictionaryWithDefault
340
F
  0
DICTIONARY
  5
17
102
{ACAD_REACTORS
330
C
102
}
100
AcDbDictionary
280
0
281
1
  3
Standard
350
18
  0
DICTIONARY
  5
19
102
{ACAD_REACTORS
330
C
102
}
100
AcDbDictionary
281
1
  0
DICTIONARY
  5
1A
102
{ACAD_REACTORS
330
C
102
}
100
AcDbDictionary
281
1
  3
Model
350
4C3
  3
Layout1
350
4C4
  0
ACDBPLACEHOLDER
  5
F
102
{ACAD_REACTORS
330
E
102
}
  0
MLINESTYLE
  5
18
102
{ACAD_REACTORS
330
17
102
}
100
AcDbMlineStyle
  2
STANDARD
 70
0
  3

 62
256
 51
90.0
 52
90.0
 71
2
 49
0.5
 62
256
  6
BYLAYER
 49
-0.5
 62
256
  6
BYLAYER
  0
LAYOUT
  5
4C3
102
{ACAD_REACTORS
330
1A
102
}
100
AcDbPlotSettings
  1

  2
none_device
  4
ISO_A3_(420.00_x_297.00_MM)
  6

 40
0.0
 41
0.0
 42
0.0
 43
0.0
 44
420.0
 45
297.0
 46
0.0
 47
0.0
 48
0.0
 49
0.0
140
0.0
141
0.0
142
1.0
143
1.0
 70
1024
 72
1
 73
0
 74
0
  7

 75
0
147
1.0
148
0.0
149
0.0
100
AcDbLayout
  1
Model
 70
0
 71
0
 10
0.0
 20
0.0
 11
420.0
 21
297.0
 12
0.0
 22
0.0
 32
0.0
 14
0.0
 24
0.0
 34
0.0
 15
0.0
 25
0.0
 35
0.0
146
0.0
 13
0.0
 23
0.0
 33
0.0
 16
1.0
 26
0.0
 36
0.0
 17
0.0
 27
1.0
 37
0.0
 76
0
330
20F
345
0
346
0
  0
LAYOUT
  5
4C4
102
{ACAD_REACTORS
330
1A
102
}
100
AcDbPlotSettings
  1

  2
none_device
  4
ISO_A3_(420.00_x_297.00_MM)
  6

 40
0.0
 41
0.0
 42
0.0
 43
0.0
 44
420.0
 45
297.0
 46
0.0
 47
0.0
 48
0.0
 49
0.0
140
0.0
141
0.0
142
1.0
143
1.0
 70
0
 72
1
 73
0
 74
0
  7

 75
0
147
1.0
148
0.0
149
0.0
100
AcDbLayout
  1
Layout1
 70
0
 71
1
 10
0.0
 20
0.0
 11
420.0
 21
297.0
 12
0.0
 22
0.0
 32
0.0
 14
0.0
 24
0.0
 34
0.0
 15
0.0
 25
0.0
 35
0.0
146
0.0
 13
0.0
 23
0.0
 33
0.0
 16
1.0
 26
0.0
 36
0.0
 17
0.0
 27
1.0
 37
0.0
 76
0
330
210
345
0
346
0
  0
ENDSEC
  0
EOF
