  0
SECTION
  2
HEADER
  9
$ACADVER
  1
AC1009
  9
$DWGCODEPAGE
  3
iso8859-1
  9
$INSBASE
 10
0.0
 20
0.0
 30
0.0
  9
$EXTMIN
 10
1.0E20
 20
1.0E20
  9
$EXTMAX
 10
-1.0E20
 20
-1.0E20
  9
$LIMMIN
 10
0.0
 20
0.0
  9
$LIMMAX
 10
12.0
 20
9.0
  9
$ORTHOMODE
 70
     0
  9
$REGENMODE
 70
     1
  9
$FILLMODE
 70
     1
  9
$QTEXTMODE
 70
     0
  9
$MIRRTEXT
 70
     1
  9
$DRAGMODE
 70
     2
  9
$LTSCALE
 40
15.0
  9
$OSMODE
 70
     0
  9
$ATTMODE
 70
     1
  9
$TEXTSIZE
 40
0.2
  9
$TRACEWID
 40
0.05
  9
$TEXTSTYLE
  7
STANDARD
  9
$CLAYER
  8
0
  9
$CELTYPE
  6
DASHED
  9
$CECOLOR
 62
   256
  9
$DIMSCALE
 40
1.0
  9
$DIMASZ
 40
0.18
  9
$DIMEXO
 40
0.0625
  9
$DIMDLI
 40
0.38
  9
$DIMRND
 40
0.0
  9
$DIMDLE
 40
0.0
  9
$DIMEXE
 40
0.18
  9
$DIMTP
 40
0.0
  9
$DIMTM
 40
0.0
  9
$DIMTXT
 40
0.18
  9
$DIMCEN
 40
0.09
  9
$DIMTSZ
 40
0.0
  9
$DIMTOL
 70
     0
  9
$DIMLIM
 70
     0
  9
$DIMTIH
 70
     1
  9
$DIMTOH
 70
     1
  9
$DIMSE1
 70
     0
  9
$DIMSE2
 70
     0
  9
$DIMTAD
 70
     0
  9
$DIMZIN
 70
     0
  9
$DIMBLK
  1

  9
$DIMASO
 70
     1
  9
$DIMSHO
 70
     1
  9
$DIMPOST
  1

  9
$DIMAPOST
  1

  9
$DIMALT
 70
     0
  9
$DIMALTD
 70
     2
  9
$DIMALTF
 40
25.4
  9
$DIMLFAC
 40
1.0
  9
$DIMTOFL
 70
     0
  9
$DIMTVP
 40
0.0
  9
$DIMTIX
 70
     0
  9
$DIMSOXD
 70
     0
  9
$DIMSAH
 70
     0
  9
$DIMBLK1
  1

  9
$DIMBLK2
  1

  9
$DIMSTYLE
  2
STANDARD
  9
$DIMCLRD
 70
     0
  9
$DIMCLRE
 70
     0
  9
$DIMCLRT
 70
     0
  9
$DIMTFAC
 40
1.0
  9
$DIMGAP
 40
0.09
  9
$LUNITS
 70
     2
  9
$LUPREC
 70
     4
  9
$AXISMODE
 70
     0
  9
$AXISUNIT
 10
0.0
 20
0.0
  9
$SKETCHINC
 40
0.1
  9
$FILLETRAD
 40
0.0
  9
$AUNITS
 70
     0
  9
$AUPREC
 70
     0
  9
$MENU
  1
acad
  9
$ELEVATION
 40
0.0
  9
$PELEVATION
 40
0.0
  9
$THICKNESS
 40
0.0
  9
$LIMCHECK
 70
     0
  9
$BLIPMODE
 70
     1
  9
$CHAMFERA
 40
0.0
  9
$CHAMFERB
 40
0.0
  9
$SKPOLY
 70
     0
  9
$TDCREATE
 40
0.000000000
  9
$TDUPDATE
 40
0.000000000
  9
$TDINDWG
 40
0.0
  9
$TDUSRTIMER
 40
0.0
  9
$USRTIMER
 70
     1
  9
$ANGBASE
 50
0.0
  9
$ANGDIR
 70
     0
  9
$PDMODE
 70
     0
  9
$PDSIZE
 40
0.0
  9
$PLINEWID
 40
0.0
  9
$COORDS
 70
     1
  9
$SPLFRAME
 70
     0
  9
$SPLINETYPE
 70
     6
  9
$SPLINESEGS
 70
     8
  9
$ATTDIA
 70
     0
  9
$ATTREQ
 70
     1
  9
$HANDLING
 70
     1
  9
$HANDSEED
  5
   630
  9
$SURFTAB1
 70
     6
  9
$SURFTAB2
 70
     6
  9
$SURFTYPE
 70
     6
  9
$SURFU
 70
     6
  9
$SURFV
 70
     6
  9
$UCSNAME
  2

  9
$UCSORG
 10
0.0
 20
0.0
 30
0.0
  9
$UCSXDIR
 10
1.0
 20
0.0
 30
0.0
  9
$UCSYDIR
 10
0.0
 20
1.0
 30
0.0
  9
$PUCSNAME
  2

  9
$PUCSORG
 10
0.0
 20
0.0
 30
0.0
  9
$PUCSXDIR
 10
1.0
 20
0.0
 30
0.0
  9
$PUCSYDIR
 10
0.0
 20
1.0
 30
0.0
  9
$USERI1
 70
     0
  9
$USERI2
 70
     0
  9
$USERI3
 70
     0
  9
$USERI4
 70
     0
  9
$USERI5
 70
     0
  9
$USERR1
 40
0.0
  9
$USERR2
 40
0.0
  9
$USERR3
 40
0.0
  9
$USERR4
 40
0.0
  9
$USERR5
 40
0.0
  9
$WORLDVIEW
 70
     1
  9
$SHADEDGE
 70
     3
  9
$SHADEDIF
 70
    70
  9
$TILEMODE
 70
     1
  9
$MAXACTVP
 70
    16
  9
$PINSBASE
 10
0.0
 20
0.0
 30
0.0
  9
$PLIMCHECK
 70
     0
  9
$PEXTMIN
 10
1.0E20
 20
1.0E20
 30
1.0E20
  9
$PEXTMAX
 10
-1.0E20
 20
-1.0E20
 30
-1.0E20
  9
$PLIMMIN
 10
0.0
 20
0.0
  9
$PLIMMAX
 10
12.0
 20
9.0
  9
$UNITMODE
 70
     0
  9
$VISRETAIN
 70
     0
  0
ENDSEC
  0
SECTION
  2
TABLES
  0
TABLE
  2
VPORT
 70
     1
  0
VPORT
  2
*ACTIVE
 70
     0
 10
0.0
 20
0.0
 11
1.0
 21
1.0
 12
6.801242
 22
4.5
 13
0.0
 23
0.0
 14
1.0
 24
1.0
 15
0.0
 25
0.0
 16
0.0
 26
0.0
 36
1.0
 17
0.0
 27
0.0
 37
0.0
 40
9.0
 41
1.511387
 42
50.0
 43
0.0
 44
0.0
 50
0.0
 51
0.0
 71
     0
 72
   100
 73
     1
 74
     1
 75
     0
 76
     0
 77
     0
 78
     0
  0
ENDTAB
  0
TABLE
  2
LTYPE
 70
    41
  0
LTYPE
  2
BYBLOCK
 70
     0
  3

 72
    65
 73
     0
 40
0.0
  0
LTYPE
  2
BYLAYER
 70
     0
  3

 72
    65
 73
     0
 40
0.0
  0
LTYPE
  2
CONTINUOUS
 70
     0
  3
Solid line
 72
    65
 73
     0
 40
0.0
  0
LTYPE
  2
BORDER
 70
    64
  3
__ __ . __ __ . __ __ . __ __ . __ __ . __ __ .
 72
    65
 73
     6
 40
1.75
 49
0.5
 49
-0.25
 49
0.5
 49
-0.25
 49
0.0
 49
-0.25
  0
LTYPE
  2
BORDER2
 70
    64
  3
__.__.__.__.__.__.__.__.__.__.__.__.__.__.__.__
 72
    65
 73
     6
 40
0.875
 49
0.25
 49
-0.125
 49
0.25
 49
-0.125
 49
0.0
 49
-0.125
  0
LTYPE
  2
BORDERX2
 70
    64
  3
____  ____  .  ____  ____  .  ____  ____  .  __
 72
    65
 73
     6
 40
3.5
 49
1.0
 49
-0.5
 49
1.0
 49
-0.5
 49
0.0
 49
-0.5
  0
LTYPE
  2
CENTER
 70
    64
  3
____ _ ____ _ ____ _ ____ _ ____ _ ____ _ ____
 72
    65
 73
     4
 40
2.0
 49
1.25
 49
-0.25
 49
0.25
 49
-0.25
  0
LTYPE
  2
CENTER2
 70
    64
  3
___ _ ___ _ ___ _ ___ _ ___ _ ___ _ ___ _ ___ _
 72
    65
 73
     4
 40
1.125
 49
0.75
 49
-0.125
 49
0.125
 49
-0.125
  0
LTYPE
  2
CENTERX2
 70
    64
  3
________  __  ________  __  ________  __  _____
 72
    65
 73
     4
 40
4.0
 49
2.5
 49
-0.5
 49
0.5
 49
-0.5
  0
LTYPE
  2
DASHDOT
 70
    64
  3
__ . __ . __ . __ . __ . __ . __ . __ . __ . __
 72
    65
 73
     4
 40
1.0
 49
0.5
 49
-0.25
 49
0.0
 49
-0.25
  0
LTYPE
  2
DASHDOT2
 70
    64
  3
_._._._._._._._._._._._._._._._._._._._._._._._
 72
    65
 73
     4
 40
0.5
 49
0.25
 49
-0.125
 49
0.0
 49
-0.125
  0
LTYPE
  2
DASHDOTX2
 70
    64
  3
____  .  ____  .  ____  .  ____  .  ____  .  __
 72
    65
 73
     4
 40
2.0
 49
1.0
 49
-0.5
 49
0.0
 49
-0.5
  0
LTYPE
  2
DASHED
 70
    64
  3
__ __ __ __ __ __ __ __ __ __ __ __ __ __ __ __
 72
    65
 73
     2
 40
0.75
 49
0.5
 49
-0.25
  0
LTYPE
  2
DASHED2
 70
    64
  3
_ _ _ _ _ _ _ _ _ _ _ _ _ _ _ _ _ _ _ _ _ _ _ _
 72
    65
 73
     2
 40
0.375
 49
0.25
 49
-0.125
  0
LTYPE
  2
DASHEDX2
 70
    64
  3
____  ____  ____  ____  ____  ____  ____  ____
 72
    65
 73
     2
 40
1.5
 49
1.0
 49
-0.5
  0
LTYPE
  2
DIVIDE
 70
    64
  3
____ . . ____ . . ____ . . ____ . . ____ . . __
 72
    65
 73
     6
 40
1.25
 49
0.5
 49
-0.25
 49
0.0
 49
-0.25
 49
0.0
 49
-0.25
  0
LTYPE
  2
DIVIDE2
 70
    64
  3
__..__..__..__..__..__..__..__..__..__..__..__.
 72
    65
 73
     6
 40
0.625
 49
0.25
 49
-0.125
 49
0.0
 49
-0.125
 49
0.0
 49
-0.125
  0
LTYPE
  2
DIVIDEX2
 70
    64
  3
________  .  .  ________  .  .  ________  .  .
 72
    65
 73
     6
 40
2.5
 49
1.0
 49
-0.5
 49
0.0
 49
-0.5
 49
0.0
 49
-0.5
  0
LTYPE
  2
DOT
 70
    64
  3
. . . . . . . . . . . . . . . . . . . . . . . .
 72
    65
 73
     2
 40
0.25
 49
0.0
 49
-0.25
  0
LTYPE
  2
DOT2
 70
    64
  3
...............................................
 72
    65
 73
     2
 40
0.125
 49
0.0
 49
-0.125
  0
LTYPE
  2
DOTX2
 70
    64
  3
.  .  .  .  .  .  .  .  .  .  .  .  .  .  .  .
 72
    65
 73
     2
 40
0.5
 49
0.0
 49
-0.5
  0
LTYPE
  2
HIDDEN
 70
    64
  3
__ __ __ __ __ __ __ __ __ __ __ __ __ __ __ __
 72
    65
 73
     2
 40
0.375
 49
0.25
 49
-0.125
  0
LTYPE
  2
HIDDEN2
 70
    64
  3
_ _ _ _ _ _ _ _ _ _ _ _ _ _ _ _ _ _ _ _ _ _ _ _
 72
    65
 73
     2
 40
0.1875
 49
0.125
 49
-0.0625
  0
LTYPE
  2
HIDDENX2
 70
    64
  3
____ ____ ____ ____ ____ ____ ____ ____ ____ __
 72
    65
 73
     2
 40
0.75
 49
0.5
 49
-0.25
  0
LTYPE
  2
PHANTOM
 70
    64
  3
______  __  __  ______  __  __  ______  __  __
 72
    65
 73
     6
 40
2.5
 49
1.25
 49
-0.25
 49
0.25
 49
-0.25
 49
0.25
 49
-0.25
  0
LTYPE
  2
PHANTOM2
 70
    64
  3
___ _ _ ___ _ _ ___ _ _ ___ _ _ ___ _ _ ___ _ _
 72
    65
 73
     6
 40
1.25
 49
0.625
 49
-0.125
 49
0.125
 49
-0.125
 49
0.125
 49
-0.125
  0
LTYPE
  2
PHANTOMX2
 70
    64
  3
____________    ____    ____    ____________
 72
    65
 73
     6
 40
5.0
 49
2.5
 49
-0.5
 49
0.5
 49
-0.5
 49
0.5
 49
-0.5
  0
LTYPE
  2
ACAD_ISO02W100
 70
    64
  3
__ __ __ __ __ __ __ __ __ __ __ __ __ __ __ __
 72
    65
 73
     2
 40
15.0
 49
12.0
 49
-3.0
  0
LTYPE
  2
ACAD_ISO03W100
 70
    64
  3
__    __    __    __    __    __    __    __
 72
    65
 73
     2
 40
30.0
 49
12.0
 49
-18.0
  0
LTYPE
  2
ACAD_ISO04W100
 70
    64
  3
____ . ____ . ____ . ____ . ____ . ____ . ____
 72
    65
 73
     4
 40
30.5
 49
24.0
 49
-3.0
 49
0.5
 49
-3.0
  0
LTYPE
  2
ACAD_ISO05W100
 70
    64
  3
____ .. ____ .. ____ .. ____ .. ____ .. ____ ..
 72
    65
 73
     6
 40
34.0
 49
24.0
 49
-3.0
 49
0.5
 49
-3.0
 49
0.5
 49
-3.0
  0
LTYPE
  2
ACAD_ISO06W100
 70
    64
  3
____ ... ____ ... ____ ... ____ ... ____ ... __
 72
    65
 73
     8
 40
37.5
 49
24.0
 49
-3.0
 49
0.5
 49
-3.0
 49
0.5
 49
-3.0
 49
0.5
 49
-3.0
  0
LTYPE
  2
ACAD_ISO07W100
 70
    64
  3
. . . . . . . . . . . . . . . . . . . . . . . .
 72
    65
 73
     2
 40
3.5
 49
0.5
 49
-3.0
  0
LTYPE
  2
ACAD_ISO08W100
 70
    64
  3
____ __ ____ __ ____ __ ____ ____ __ __ ____ __
 72
    65
 73
     4
 40
36.0
 49
24.0
 49
-3.0
 49
6.0
 49
-3.0
  0
LTYPE
  2
ACAD_ISO09W100
 70
    64
  3
____ __ __ ____ __ __ ____ __ __ ____ __ __ ___
 72
    65
 73
     6
 40
45.0
 49
24.0
 49
-3.0
 49
6.0
 49
-3.0
 49
6.0
 49
-3.0
  0
LTYPE
  2
ACAD_ISO10W100
 70
    64
  3
__ . __ . __ . __ . __ . __ . __ . __ . __ . __
 72
    65
 73
     4
 40
18.5
 49
12.0
 49
-3.0
 49
0.5
 49
-3.0
  0
LTYPE
  2
ACAD_ISO11W100
 70
    64
  3
__ __ . __ __ . __ __ . __ __ . __ __ . __ __ .
 72
    65
 73
     6
 40
33.5
 49
12.0
 49
-3.0
 49
12.0
 49
-3.0
 49
0.5
 49
-3.0
  0
LTYPE
  2
ACAD_ISO12W100
 70
    64
  3
__ . . __ . . __ . . __ . . __ . . __ . . __ .
 72
    65
 73
     6
 40
22.0
 49
12.0
 49
-3.0
 49
0.5
 49
-3.0
 49
0.5
 49
-3.0
  0
LTYPE
  2
ACAD_ISO13W100
 70
    64
  3
__ __ . . __ __ . . __ __ . . __ __ . . __ __ .
 72
    65
 73
     8
 40
37.0
 49
12.0
 49
-3.0
 49
12.0
 49
-3.0
 49
0.5
 49
-3.0
 49
0.5
 49
-3.0
  0
LTYPE
  2
ACAD_ISO14W100
 70
    64
  3
__ . . . __ . . . __ . . . __ . . . __ . . . __
 72
    65
 73
     8
 40
25.5
 49
12.0
 49
-3.0
 49
0.5
 49
-3.0
 49
0.5
 49
-3.0
 49
0.5
 49
-3.0
  0
LTYPE
  2
ACAD_ISO15W100
 70
    64
  3
__ __ . . . __ __ . . . __ __ . . . __ __ . . .
 72
    65
 73
    10
 40
40.5
 49
12.0
 49
-3.0
 49
12.0
 49
-3.0
 49
0.5
 49
-3.0
 49
0.5
 49
-3.0
 49
0.5
 49
-3.0
  0
ENDTAB
  0
TABLE
  2
STYLE
 70
     4
  0
STYLE
  2
STANDARD
 70
    64
 40
0.0
 41
1.0
 50
0.0
 71
     0
 42
0.2
  3
txt
  4

  0
STYLE
  2
TOLERANCE
 70
    64
 40
0.0
 41
1.0
 50
0.0
 71
     0
 42
0.2
  3
../igesfont/iges1003.shx
  4

  0
STYLE
  2
ROMANS
 70
    64
 40
0.0
 41
1.0
 50
0.0
 71
     0
 42
0.2
  3
romans.shx
  4

  0
STYLE
  2
ROMANC
 70
    64
 40
0.0
 41
1.0
 50
0.0
 71
     0
 42
0.2
  3
romanc.shx
  4

  0
ENDTAB
  0
TABLE
  2
DIMSTYLE
 70
     2
  0
DIMSTYLE
  2
UNNAMED
 70
     0
  3

  4

  5

  6

  7

 40
1.0
 41
0.18
 42
0.0625
 43
0.38
 44
0.18
 45
0.0
 46
0.0
 47
0.0
 48
0.0
140
0.18
141
0.09
142
0.0
143
25.4
144
1.0
145
0.0
146
1.0
147
0.09
 71
     0
 72
     0
 73
     1
 74
     1
 75
     0
 76
     0
 77
     0
 78
     0
170
     0
171
     2
172
     0
173
     0
174
     0
175
     0
176
     0
177
     0
178
     0
  0
DIMSTYLE
  2
STANDARD
 70
     0
  3

  4

  5

  6

  7

 40
1.0
 41
0.18
 42
0.0625
 43
0.38
 44
0.18
 45
0.0
 46
0.0
 47
0.0
 48
0.0
140
0.18
141
0.09
142
0.0
143
25.4
144
1.0
145
0.0
146
1.0
147
0.09
 71
     0
 72
     0
 73
     1
 74
     1
 75
     0
 76
     0
 77
     0
 78
     0
170
     0
171
     2
172
     0
173
     0
174
     0
175
     0
176
     0
177
     0
178
     0
  0
ENDTAB
  0
TABLE
  2
LAYER
 70
     2
  0
LAYER
  2
0
 70
     0
 62
     7
  6
CONTINUOUS
  0
LAYER
  2
255
 70
     0
 62
     7
  6
CONTINUOUS
  0
ENDTAB
  0
ENDSEC
  0
SECTION
  2
BLOCKS
  0
BLOCK
  5
     B
  8
0
  6
CONTINUOUS
 62
     7
  2
*UDIM721
 70
    65
 10
0.0
 20
0.0
 30
0.0
  3
*UDIM721
  0
TEXT
  5
     C
  8
0
  6
CONTINUOUS
 62
     7
 10
-357.912213607017
 20
-37.0358613425383
 30
0.0
 40
3.00000002980232
  1
6
 50
378.15626938813
 41
0.933333333333334
 72
     1
 11
-357.334397074669
 21
-35.2677753367994
 31
0.0
 73
     2
  0
TEXT
  5
     D
  8
0
  6
CONTINUOUS
 62
     7
 10
-360.905375625901
 20
-38.0174321200658
 30
0.0
 40
3.00000002980232
  1
Ø
 50
378.15626938813
 41
0.933333333333334
 72
     1
 11
-360.327559093553
 21
-36.2493461143269
 31
0.0
 73
     2
  0
TEXT
  5
     E
  8
0
  6
CONTINUOUS
 62
     7
 10
-355.299135633326
 20
-36.1789344558216
 30
0.0
 40
3.00000002980232
  1
 (M5)
 50
378.15626938813
 41
0.933333333333333
 72
     1
 11
-349.400142139282
 21
-32.6658337322704
 31
0.0
 73
     2
  0
LINE
  5
     F
  8
0
  6
CONTINUOUS
 62
     7
 10
-342.254709563662
 20
-32.953573673282
 30
0.0
 11
-366.939037015828
 21
-41.0484961456051
 31
0.0
  0
LINE
  5
    10
  8
0
  6
CONTINUOUS
 62
     7
 10
-362.86873012701
 20
-39.1654476431864
 30
0.0
 11
-365.513721773235
 21
-40.5810814911137
 31
0.0
  0
LINE
  5
    11
  8
0
  6
CONTINUOUS
 62
     7
 10
-365.513721773235
 20
-40.5810814911137
 30
0.0
 11
-362.544067379363
 21
-40.1554610252581
 31
0.0
  0
LINE
  5
    12
  8
0
  6
CONTINUOUS
 62
     7
 10
-369.584028662053
 20
-42.4641299935323
 30
0.0
 11
-366.939037015828
 21
-41.0484961456051
 31
0.0
  0
LINE
  5
    13
  8
0
  6
CONTINUOUS
 62
     7
 10
-366.939037015828
 20
-41.0484961456051
 30
0.0
 11
-369.9086914097
 21
-41.4741166114606
 31
0.0
  0
ENDBLK
  5
    14
  8
0
  6
CONTINUOUS
 62
     7
  0
BLOCK
  5
    15
  8
0
  6
CONTINUOUS
 62
     7
  2
*UDIM722
 70
    65
 10
0.0
 20
0.0
 30
0.0
  3
*UDIM722
  0
TEXT
  5
    16
  8
0
  6
CONTINUOUS
 62
     7
 10
-317.814624790896
 20
1.0352111481334
 30
0.0
 40
3.00000002980232
  1
52
 50
449.999999896069
 41
0.933333333333333
 72
     1
 11
-319.314624801278
 21
3.53521117568016
 31
0.0
 73
     2
  0
LINE
  5
    17
  8
0
  6
CONTINUOUS
 62
     7
 10
-335.288879394531
 20
10.3102111816406
 30
0.0
 11
-314.814624786377
 21
10.3102111816406
 31
0.0
  0
LINE
  5
    18
  8
0
  6
CONTINUOUS
 62
     7
 10
-335.288879394531
 20
-2.68978881835938
 30
0.0
 11
-314.814624786377
 21
-2.68978881835938
 31
0.0
  0
LINE
  5
    19
  8
0
  6
CONTINUOUS
 62
     7
 10
-316.814624786377
 20
10.3102111816406
 30
0.0
 11
-316.814624786377
 21
-2.68978881835938
 31
0.0
  0
LINE
  5
    1A
  8
0
  6
CONTINUOUS
 62
     7
 10
-316.293680356425
 20
7.35578790443366
 30
0.0
 11
-316.814624786377
 21
10.3102111816406
 31
0.0
  0
LINE
  5
    1B
  8
0
  6
CONTINUOUS
 62
     7
 10
-316.814624786377
 20
10.3102111816406
 30
0.0
 11
-317.335569216329
 21
7.35578790443366
 31
0.0
  0
LINE
  5
    1C
  8
0
  6
CONTINUOUS
 62
     7
 10
-317.335569216329
 20
0.264634458847585
 30
0.0
 11
-316.814624786377
 21
-2.68978881835938
 31
0.0
  0
LINE
  5
    1D
  8
0
  6
CONTINUOUS
 62
     7
 10
-316.814624786377
 20
-2.68978881835938
 30
0.0
 11
-316.293680356425
 21
0.264634458847585
 31
0.0
  0
ENDBLK
  5
    1E
  8
0
  6
CONTINUOUS
 62
     7
  0
BLOCK
  5
    1F
  8
0
  6
CONTINUOUS
 62
     7
  2
*UDIM723
 70
    65
 10
0.0
 20
0.0
 30
0.0
  3
*UDIM723
  0
TEXT
  5
    20
  8
0
  6
CONTINUOUS
 62
     7
 10
-317.814624798488
 20
-20.0710388935899
 30
0.0
 40
3.00000002980232
  1
83,25
 50
449.999999896069
 41
0.933333333333333
 72
     1
 11
-319.314624801278
 21
-13.3710388243198
 31
0.0
 73
     2
  0
LINE
  5
    21
  8
0
  6
CONTINUOUS
 62
     7
 10
-324.408148701343
 20
-23.5022888183594
 30
0.0
 11
-314.814624786377
 21
-23.5022888183594
 31
0.0
  0
LINE
  5
    22
  8
0
  6
CONTINUOUS
 62
     7
 10
-316.814624786377
 20
-2.68978881835938
 30
0.0
 11
-316.814624786377
 21
-23.5022888183594
 31
0.0
  0
LINE
  5
    23
  8
0
  6
CONTINUOUS
 62
     7
 10
-316.293680356425
 20
-5.64421209556634
 30
0.0
 11
-316.814624786377
 21
-2.68978881835938
 31
0.0
  0
LINE
  5
    24
  8
0
  6
CONTINUOUS
 62
     7
 10
-316.814624786377
 20
-2.68978881835938
 30
0.0
 11
-317.335569216329
 21
-5.64421209556634
 31
0.0
  0
LINE
  5
    25
  8
0
  6
CONTINUOUS
 62
     7
 10
-317.335569216329
 20
-20.5478655411524
 30
0.0
 11
-316.814624786377
 21
-23.5022888183594
 31
0.0
  0
LINE
  5
    26
  8
0
  6
CONTINUOUS
 62
     7
 10
-316.814624786377
 20
-23.5022888183594
 30
0.0
 11
-316.293680356425
 21
-20.5478655411524
 31
0.0
  0
ENDBLK
  5
    27
  8
0
  6
CONTINUOUS
 62
     7
  0
BLOCK
  5
    28
  8
0
  6
CONTINUOUS
 62
     7
  2
*UDIM724
 70
    65
 10
0.0
 20
0.0
 30
0.0
  3
*UDIM724
  0
TEXT
  5
    29
  8
0
  6
CONTINUOUS
 62
     7
 10
-317.814624798488
 20
-41.3210388935899
 30
0.0
 40
3.00000002980232
  1
86,75
 50
449.999999896069
 41
0.933333333333333
 72
     1
 11
-319.314624801278
 21
-34.6210388243198
 31
0.0
 73
     2
  0
LINE
  5
    2A
  8
0
  6
CONTINUOUS
 62
     7
 10
-335.288879394531
 20
-45.1897888183594
 30
0.0
 11
-314.814624786377
 21
-45.1897888183594
 31
0.0
  0
LINE
  5
    2B
  8
0
  6
CONTINUOUS
 62
     7
 10
-316.814624786377
 20
-23.5022888183594
 30
0.0
 11
-316.814624786377
 21
-45.1897888183594
 31
0.0
  0
LINE
  5
    2C
  8
0
  6
CONTINUOUS
 62
     7
 10
-316.293680356425
 20
-26.4567120955663
 30
0.0
 11
-316.814624786377
 21
-23.5022888183594
 31
0.0
  0
LINE
  5
    2D
  8
0
  6
CONTINUOUS
 62
     7
 10
-316.814624786377
 20
-23.5022888183594
 30
0.0
 11
-317.335569216329
 21
-26.4567120955663
 31
0.0
  0
LINE
  5
    2E
  8
0
  6
CONTINUOUS
 62
     7
 10
-317.335569216329
 20
-42.2353655411524
 30
0.0
 11
-316.814624786377
 21
-45.1897888183594
 31
0.0
  0
LINE
  5
    2F
  8
0
  6
CONTINUOUS
 62
     7
 10
-316.814624786377
 20
-45.1897888183594
 30
0.0
 11
-316.293680356425
 21
-42.2353655411524
 31
0.0
  0
ENDBLK
  5
    30
  8
0
  6
CONTINUOUS
 62
     7
  0
BLOCK
  5
    31
  8
0
  6
CONTINUOUS
 62
     7
  2
*UDIM725
 70
    65
 10
0.0
 20
0.0
 30
0.0
  3
*UDIM725
  0
TEXT
  5
    32
  8
0
  6
CONTINUOUS
 62
     7
 10
-317.814624790896
 20
-54.4647888518666
 30
0.0
 40
3.00000002980232
  1
52
 50
449.999999896069
 41
0.933333333333333
 72
     1
 11
-319.314624801278
 21
-51.9647888243198
 31
0.0
 73
     2
  0
LINE
  5
    33
  8
0
  6
CONTINUOUS
 62
     7
 10
-335.288879394531
 20
-58.1897888183594
 30
0.0
 11
-314.814624786377
 21
-58.1897888183594
 31
0.0
  0
LINE
  5
    34
  8
0
  6
CONTINUOUS
 62
     7
 10
-316.814624786377
 20
-45.1897888183594
 30
0.0
 11
-316.814624786377
 21
-58.1897888183594
 31
0.0
  0
LINE
  5
    35
  8
0
  6
CONTINUOUS
 62
     7
 10
-316.293680356425
 20
-48.1442120955663
 30
0.0
 11
-316.814624786377
 21
-45.1897888183594
 31
0.0
  0
LINE
  5
    36
  8
0
  6
CONTINUOUS
 62
     7
 10
-316.814624786377
 20
-45.1897888183594
 30
0.0
 11
-317.335569216329
 21
-48.1442120955663
 31
0.0
  0
LINE
  5
    37
  8
0
  6
CONTINUOUS
 62
     7
 10
-317.335569216329
 20
-55.2353655411524
 30
0.0
 11
-316.814624786377
 21
-58.1897888183594
 31
0.0
  0
LINE
  5
    38
  8
0
  6
CONTINUOUS
 62
     7
 10
-316.814624786377
 20
-58.1897888183594
 30
0.0
 11
-316.293680356425
 21
-55.2353655411524
 31
0.0
  0
ENDBLK
  5
    39
  8
0
  6
CONTINUOUS
 62
     7
  0
BLOCK
  5
    3A
  8
0
  6
CONTINUOUS
 62
     7
  2
*UDIM726
 70
    65
 10
0.0
 20
0.0
 30
0.0
  3
*UDIM726
  0
TEXT
  5
    3B
  8
0
  6
CONTINUOUS
 62
     7
 10
-358.826379469764
 20
-81.1801605103412
 30
0.0
 40
3.00000002980232
  1
132,5
 50
359.999999896069
 41
0.933333333333333
 72
     1
 11
-352.126379400492
 21
-79.6801605075598
 31
0.0
 73
     2
  0
LINE
  5
    3C
  8
0
  6
CONTINUOUS
 62
     7
 10
-335.288879394531
 20
-58.1897888183594
 30
0.0
 11
-335.288879394531
 21
-84.1801605224609
 31
0.0
  0
LINE
  5
    3D
  8
0
  6
CONTINUOUS
 62
     7
 10
-368.413879394531
 20
-58.1897888183594
 30
0.0
 11
-368.413879394531
 21
-84.1801605224609
 31
0.0
  0
LINE
  5
    3E
  8
0
  6
CONTINUOUS
 62
     7
 10
-335.288879394531
 20
-82.1801605224609
 30
0.0
 11
-368.413879394531
 21
-82.1801605224609
 31
0.0
  0
LINE
  5
    3F
  8
0
  6
CONTINUOUS
 62
     7
 10
-338.243302671738
 20
-82.7011049524126
 30
0.0
 11
-335.288879394531
 21
-82.1801605224609
 31
0.0
  0
LINE
  5
    40
  8
0
  6
CONTINUOUS
 62
     7
 10
-335.288879394531
 20
-82.1801605224609
 30
0.0
 11
-338.243302671738
 21
-81.6592160925093
 31
0.0
  0
LINE
  5
    41
  8
0
  6
CONTINUOUS
 62
     7
 10
-365.459456117324
 20
-81.6592160925093
 30
0.0
 11
-368.413879394531
 21
-82.1801605224609
 31
0.0
  0
LINE
  5
    42
  8
0
  6
CONTINUOUS
 62
     7
 10
-368.413879394531
 20
-82.1801605224609
 30
0.0
 11
-365.459456117324
 21
-82.7011049524126
 31
0.0
  0
ENDBLK
  5
    43
  8
0
  6
CONTINUOUS
 62
     7
  0
BLOCK
  5
    44
  8
0
  6
CONTINUOUS
 62
     5
  2
*UDIM727
 70
    65
 10
0.0
 20
0.0
 30
0.0
  3
*UDIM727
  0
TEXT
  5
    45
  8
0
  6
CONTINUOUS
 62
     5
 10
-381.622552883815
 20
-21.7086788929795
 30
0.0
 40
3.00000002980232
  1
65,75
 50
449.999999896069
 41
0.933333333333333
 72
     1
 11
-383.122552886605
 21
-15.0086788237095
 31
0.0
 73
     2
  0
LINE
  5
    46
  8
0
  6
CONTINUOUS
 62
     5
 10
-370.222592203487
 20
-7.06478881835938
 30
0.0
 11
-382.622552871704
 21
-7.06478881835938
 31
0.0
  0
LINE
  5
    47
  8
0
  6
CONTINUOUS
 62
     5
 10
-380.622552871704
 20
-7.06478881835938
 30
0.0
 11
-380.622552871704
 21
-23.5022888183594
 31
0.0
  0
LINE
  5
    48
  8
0
  6
CONTINUOUS
 62
     5
 10
-380.101608441752
 20
-10.0192120955663
 30
0.0
 11
-380.622552871704
 21
-7.06478881835938
 31
0.0
  0
LINE
  5
    49
  8
0
  6
CONTINUOUS
 62
     5
 10
-380.622552871704
 20
-7.06478881835938
 30
0.0
 11
-381.143497301656
 21
-10.0192120955663
 31
0.0
  0
LINE
  5
    4A
  8
0
  6
CONTINUOUS
 62
     5
 10
-381.143497301656
 20
-20.5478655411524
 30
0.0
 11
-380.622552871704
 21
-23.5022888183594
 31
0.0
  0
LINE
  5
    4B
  8
0
  6
CONTINUOUS
 62
     5
 10
-380.622552871704
 20
-23.5022888183594
 30
0.0
 11
-380.101608441752
 21
-20.5478655411524
 31
0.0
  0
ENDBLK
  5
    4C
  8
0
  6
CONTINUOUS
 62
     5
  0
BLOCK
  5
    4D
  8
0
  6
CONTINUOUS
 62
     7
  2
*UDIM728
 70
    65
 10
0.0
 20
0.0
 30
0.0
  3
*UDIM728
  0
TEXT
  5
    4E
  8
0
  6
CONTINUOUS
 62
     7
 10
-354.453957384558
 20
-74.7287063528085
 30
0.0
 40
3.00000002980232
  1
115
 50
359.999999896069
 41
0.933333333333333
 72
     1
 11
-350.553957343102
 21
-73.2287063449621
 31
0.0
 73
     2
  0
LINE
  5
    4F
  8
0
  6
CONTINUOUS
 62
     7
 10
-337.476379394531
 20
-46.6038370573083
 30
0.0
 11
-337.476379394531
 21
-77.7287063598633
 31
0.0
  0
LINE
  5
    50
  8
0
  6
CONTINUOUS
 62
     7
 10
-366.226379394531
 20
-45.7754842815427
 30
0.0
 11
-366.226379394531
 21
-77.7287063598633
 31
0.0
  0
LINE
  5
    51
  8
0
  6
CONTINUOUS
 62
     7
 10
-337.476379394531
 20
-75.7287063598633
 30
0.0
 11
-366.226379394531
 21
-75.7287063598633
 31
0.0
  0
LINE
  5
    52
  8
0
  6
CONTINUOUS
 62
     7
 10
-340.430802671738
 20
-76.249650789815
 30
0.0
 11
-337.476379394531
 21
-75.7287063598633
 31
0.0
  0
LINE
  5
    53
  8
0
  6
CONTINUOUS
 62
     7
 10
-337.476379394531
 20
-75.7287063598633
 30
0.0
 11
-340.430802671738
 21
-75.2077619299116
 31
0.0
  0
LINE
  5
    54
  8
0
  6
CONTINUOUS
 62
     7
 10
-363.271956117324
 20
-75.2077619299116
 30
0.0
 11
-366.226379394531
 21
-75.7287063598633
 31
0.0
  0
LINE
  5
    55
  8
0
  6
CONTINUOUS
 62
     7
 10
-366.226379394531
 20
-75.7287063598633
 30
0.0
 11
-363.271956117324
 21
-76.249650789815
 31
0.0
  0
ENDBLK
  5
    56
  8
0
  6
CONTINUOUS
 62
     7
  0
BLOCK
  5
    57
  8
0
  6
CONTINUOUS
 62
     7
  2
*UDIM729
 70
    65
 10
0.0
 20
0.0
 30
0.0
  3
*UDIM729
  0
TEXT
  5
    58
  8
0
  6
CONTINUOUS
 62
     7
 10
-388.311668403046
 20
-28.114788392551
 30
0.0
 40
3.00000002980232
  1
135
 50
449.999999896069
 41
0.933333333333333
 72
     1
 11
-389.811668410897
 21
-24.2147883510965
 31
0.0
 73
     2
  0
LINE
  5
    59
  8
0
  6
CONTINUOUS
 62
     7
 10
-370.222592203487
 20
-7.06478789594153
 30
0.0
 11
-389.311668395995
 21
-7.06477028783691
 31
0.0
  0
LINE
  5
    5A
  8
0
  6
CONTINUOUS
 62
     7
 10
-370.274364251972
 20
-40.8147878932939
 30
0.0
 11
-389.311668395995
 21
-40.8147702825417
 31
0.0
  0
LINE
  5
    5B
  8
0
  6
CONTINUOUS
 62
     7
 10
-387.311668395996
 20
-7.06477213267261
 30
0.0
 11
-387.311668395996
 21
-40.8147721326726
 31
0.0
  0
LINE
  5
    5C
  8
0
  6
CONTINUOUS
 62
     7
 10
-386.790723966045
 20
-10.0191954098796
 30
0.0
 11
-387.311668395996
 21
-7.06477213267261
 31
0.0
  0
LINE
  5
    5D
  8
0
  6
CONTINUOUS
 62
     7
 10
-387.311668395996
 20
-7.06477213267261
 30
0.0
 11
-387.832612825948
 21
-10.0191954098796
 31
0.0
  0
LINE
  5
    5E
  8
0
  6
CONTINUOUS
 62
     7
 10
-387.832612825948
 20
-37.8603488554656
 30
0.0
 11
-387.311668395996
 21
-40.8147721326726
 31
0.0
  0
LINE
  5
    5F
  8
0
  6
CONTINUOUS
 62
     7
 10
-387.311668395996
 20
-40.8147721326726
 30
0.0
 11
-386.790723966045
 21
-37.8603488554656
 31
0.0
  0
ENDBLK
  5
    60
  8
0
  6
CONTINUOUS
 62
     7
  0
BLOCK
  5
    61
  8
0
  6
CONTINUOUS
 62
     7
  2
MOSTRA
 70
    64
 10
0.0
 20
0.0
 30
0.0
  3
MOSTRA
  0
LINE
  5
    62
  8
0
  6
CONTINUOUS
 62
     2
 10
175.338317871094
 20
34.312744140625
 30
0.0
 11
210.838317871094
 21
34.312744140625
 31
0.0
  0
LINE
  5
    63
  8
0
  6
CONTINUOUS
 62
     2
 10
175.338317871094
 20
49.312744140625
 30
0.0
 11
210.838317871094
 21
49.312744140625
 31
0.0
  0
LINE
  5
    64
  8
0
  6
CONTINUOUS
 62
     2
 10
210.838317871094
 20
33.312744140625
 30
0.0
 11
210.838317871094
 21
50.312744140625
 31
0.0
  0
LINE
  5
    65
  8
0
  6
CONTINUOUS
 62
     2
 10
175.338317871094
 20
34.312744140625
 30
0.0
 11
175.338317871094
 21
49.312744140625
 31
0.0
  0
LINE
  5
    66
  8
0
  6
CONTINUOUS
 62
     2
 10
210.838317871094
 20
50.312744140625
 30
0.0
 11
210.838317871094
 21
148.306442260742
 31
0.0
  0
LINE
  5
    67
  8
0
  6
CONTINUOUS
 62
     2
 10
210.838317871094
 20
-10.187255859375
 30
0.0
 11
210.838317871094
 21
33.3127403259278
 31
0.0
  0
LINE
  5
    68
  8
0
  6
CONTINUOUS
 62
     2
 10
37.5883140563965
 20
-11.437255859375
 30
0.0
 11
209.588317871094
 21
-11.437255859375
 31
0.0
  0
LINE
  5
    69
  8
0
  6
CONTINUOUS
 62
     2
 10
36.3383140563965
 20
-10.187255859375
 30
0.0
 11
36.3383140563965
 21
148.306442260742
 31
0.0
  0
LINE
  5
    6A
  8
0
  6
CONTINUOUS
 62
     2
 10
175.338317871094
 20
128.562744140625
 30
0.0
 11
175.338317871094
 21
129.562744140625
 31
0.0
  0
LINE
  5
    6B
  8
0
  6
CONTINUOUS
 62
     2
 10
45.3383140563965
 20
128.562744140625
 30
0.0
 11
45.3383140563965
 21
129.562744140625
 31
0.0
  0
LINE
  5
    6C
  8
0
  6
CONTINUOUS
 62
     2
 10
175.338317871094
 20
8.56274414062501
 30
0.0
 11
175.338317871094
 21
9.56274414062501
 31
0.0
  0
LINE
  5
    6D
  8
0
  6
CONTINUOUS
 62
     2
 10
46.3383140563965
 20
8.562744140625
 30
0.0
 11
174.338314056396
 21
8.56274414062501
 31
0.0
  0
LINE
  5
    6E
  8
0
  6
CONTINUOUS
 62
     2
 10
45.3383140563965
 20
8.562744140625
 30
0.0
 11
45.3383140563965
 21
9.562744140625
 31
0.0
  0
LINE
  5
    6F
  8
0
  6
CONTINUOUS
 62
     2
 10
174.338317871094
 20
-11.437255859375
 30
0.0
 11
174.338317871094
 21
8.56274414062501
 31
0.0
  0
LINE
  5
    70
  8
0
  6
CONTINUOUS
 62
     2
 10
175.338317871094
 20
129.562744140625
 30
0.0
 11
175.338317871094
 21
149.562744140625
 31
0.0
  0
LINE
  5
    71
  8
0
  6
CONTINUOUS
 62
     2
 10
175.338317871094
 20
9.56274414062501
 30
0.0
 11
175.338317871094
 21
33.312744140625
 31
0.0
  0
LINE
  5
    72
  8
0
  6
CONTINUOUS
 62
     2
 10
175.338317871094
 20
50.312744140625
 30
0.0
 11
175.338317871094
 21
128.562744140625
 31
0.0
  0
LINE
  5
    73
  8
0
  6
CONTINUOUS
 62
     2
 10
175.338317871094
 20
-11.437255859375
 30
0.0
 11
175.338317871094
 21
8.56274414062501
 31
0.0
  0
LINE
  5
    74
  8
0
  6
CONTINUOUS
 62
     2
 10
45.3383140563965
 20
129.562744140625
 30
0.0
 11
45.3383140563965
 21
149.562744140625
 31
0.0
  0
LINE
  5
    75
  8
0
  6
CONTINUOUS
 62
     2
 10
45.3383140563965
 20
9.562744140625
 30
0.0
 11
45.3383140563965
 21
128.562744140625
 31
0.0
  0
LINE
  5
    76
  8
0
  6
CONTINUOUS
 62
     2
 10
45.3383140563965
 20
-11.437255859375
 30
0.0
 11
45.3383140563965
 21
8.562744140625
 31
0.0
  0
LINE
  5
    77
  8
0
  6
CONTINUOUS
 62
     2
 10
46.3383140563965
 20
-11.437255859375
 30
0.0
 11
46.3383140563965
 21
8.562744140625
 31
0.0
  0
LINE
  5
    78
  8
0
  6
CONTINUOUS
 62
     2
 10
175.338317871094
 20
33.312744140625
 30
0.0
 11
210.838317871094
 21
33.312744140625
 31
0.0
  0
LINE
  5
    79
  8
0
  6
CONTINUOUS
 62
     2
 10
175.338317871094
 20
50.312744140625
 30
0.0
 11
210.838317871094
 21
50.312744140625
 31
0.0
  0
LINE
  5
    7A
  8
0
  6
CONTINUOUS
 62
     2
 10
175.388320922852
 20
49.312744140625
 30
0.0
 11
175.388320922852
 21
50.312744140625
 31
0.0
  0
LINE
  5
    7B
  8
0
  6
CONTINUOUS
 62
     2
 10
175.388320922852
 20
33.312744140625
 30
0.0
 11
175.388320922852
 21
34.312744140625
 31
0.0
  0
LINE
  5
    7C
  8
0
  6
CONTINUOUS
 62
     2
 10
46.3383140563965
 20
128.562744140625
 30
0.0
 11
174.338314056396
 21
128.562744140625
 31
0.0
  0
LINE
  5
    7D
  8
0
  6
CONTINUOUS
 62
     2
 10
46.3383140563965
 20
9.562744140625
 30
0.0
 11
174.338314056396
 21
9.56274414062501
 31
0.0
  0
LINE
  5
    7E
  8
0
  6
CONTINUOUS
 62
     2
 10
174.338317871094
 20
9.56274414062501
 30
0.0
 11
174.338317871094
 21
128.562744140625
 31
0.0
  0
LINE
  5
    7F
  8
0
  6
CONTINUOUS
 62
     2
 10
46.3383140563965
 20
9.562744140625
 30
0.0
 11
46.3383140563965
 21
128.562744140625
 31
0.0
  0
LINE
  5
    80
  8
0
  6
CONTINUOUS
 62
     2
 10
167.338315963745
 20
121.562743016692
 30
0.0
 11
174.338312295455
 21
128.562739348402
 31
0.0
  0
LINE
  5
    81
  8
0
  6
CONTINUOUS
 62
     2
 10
46.3383156391412
 20
128.562746004959
 30
0.0
 11
62.3383159637451
 21
121.033336629486
 31
0.0
  0
LINE
  5
    82
  8
0
  6
CONTINUOUS
 62
     2
 10
167.338315963745
 20
16.5627619426901
 30
0.0
 11
174.338335117812
 21
9.56273924827786
 31
0.0
  0
LINE
  5
    83
  8
0
  6
CONTINUOUS
 62
     2
 10
46.3383186567184
 20
9.56274576222224
 30
0.0
 11
62.3383159637451
 21
17.092157375641
 31
0.0
  0
LINE
  5
    84
  8
0
  6
CONTINUOUS
 62
     2
 10
174.338256835938
 20
129.556442260742
 30
0.0
 11
174.338256835938
 21
149.556442260742
 31
0.0
  0
LINE
  5
    85
  8
0
  6
CONTINUOUS
 62
     2
 10
45.3383140563965
 20
129.556442260742
 30
0.0
 11
175.338317871094
 21
129.556442260742
 31
0.0
  0
LINE
  5
    86
  8
0
  6
CONTINUOUS
 62
     2
 10
37.5883140563965
 20
149.556442260742
 30
0.0
 11
45.3383140563965
 21
149.556442260742
 31
0.0
  0
LINE
  5
    87
  8
0
  6
CONTINUOUS
 62
     2
 10
115.343585020102
 20
149.556442260742
 30
0.0
 11
175.338317871094
 21
149.556442260742
 31
0.0
  0
ARC
  5
    88
  8
0
  6
CONTINUOUS
 62
     2
 10
110.338285446167
 20
153.703627621259
 30
0.0
 40
6.50016693934245
 50
219.643748317915
 51
320.356251682085
  0
LINE
  5
    89
  8
0
  6
CONTINUOUS
 62
     2
 10
105.332985872232
 20
149.556442260742
 30
0.0
 11
115.343585020102
 21
149.556442260742
 31
0.0
  0
LINE
  5
    8A
  8
0
  6
CONTINUOUS
 62
     2
 10
46.3383140563965
 20
129.562744140625
 30
0.0
 11
46.3383140563965
 21
149.562744140625
 31
0.0
  0
LINE
  5
    8B
  8
0
  6
CONTINUOUS
 62
     2
 10
45.3383140563965
 20
149.556442260742
 30
0.0
 11
105.332985872232
 21
149.556442260742
 31
0.0
  0
LINE
  5
    8C
  8
0
  6
CONTINUOUS
 62
     2
 10
175.338317871094
 20
149.556442260742
 30
0.0
 11
209.588317871094
 21
149.556442260742
 31
0.0
  0
POINT
  5
    8D
  8
0
  6
CONTINUOUS
 62
     2
 10
114.838315963745
 20
69.062744140625
 30
0.0
  0
ARC
  5
    8E
  8
0
  6
CONTINUOUS
 62
     2
 10
37.5883140563965
 20
148.306442260742
 30
0.0
 40
1.25
 50
90.0
 51
180.0
  0
ARC
  5
    8F
  8
0
  6
CONTINUOUS
 62
     2
 10
37.5883140563965
 20
-10.187255859375
 30
0.0
 40
1.25
 50
180.0
 51
270.0
  0
ARC
  5
    90
  8
0
  6
CONTINUOUS
 62
     2
 10
209.588317871094
 20
-10.187255859375
 30
0.0
 40
1.25
 50
270.0
 51
360.0
  0
ARC
  5
    91
  8
0
  6
CONTINUOUS
 62
     2
 10
209.588317871094
 20
148.306442260742
 30
0.0
 40
1.25
 50
0.0
 51
90.0
  0
ENDBLK
  5
    92
  8
0
  6
CONTINUOUS
 62
     7
  0
BLOCK
  5
    93
  8
0
  6
CONTINUOUS
 62
     7
  2
*UDIM730
 70
    65
 10
0.0
 20
0.0
 30
0.0
  3
*UDIM730
  0
TEXT
  5
    94
  8
0
  6
CONTINUOUS
 62
     7
 10
-303.264273339331
 20
152.051093122146
 30
0.0
 40
2.99999997871263
  1
270
 50
89.9999999480344
 41
0.933333333333333
 72
     1
 11
-304.764273325155
 21
155.951093095831
 31
0.0
 73
     2
  0
LINE
  5
    95
  8
0
  6
CONTINUOUS
 62
     7
 10
-327.576352228661
 20
108.976114694038
 30
0.0
 11
-300.264273335799
 21
108.976114694038
 31
0.0
  0
LINE
  5
    96
  8
0
  6
CONTINUOUS
 62
     7
 10
-327.576352228661
 20
203.476070600149
 30
0.0
 11
-300.264273335799
 21
203.476070600149
 31
0.0
  0
LINE
  5
    97
  8
0
  6
CONTINUOUS
 62
     7
 10
-302.264273335799
 20
108.976114694038
 30
0.0
 11
-302.264273335799
 21
203.476070600149
 31
0.0
  0
LINE
  5
    98
  8
0
  6
CONTINUOUS
 62
     7
 10
-302.785217765751
 20
111.930537971245
 30
0.0
 11
-302.264273335799
 21
108.976114694038
 31
0.0
  0
LINE
  5
    99
  8
0
  6
CONTINUOUS
 62
     7
 10
-302.264273335799
 20
108.976114694038
 30
0.0
 11
-301.743328905847
 21
111.930537971245
 31
0.0
  0
LINE
  5
    9A
  8
0
  6
CONTINUOUS
 62
     7
 10
-301.743328905847
 20
200.521647322942
 30
0.0
 11
-302.264273335799
 21
203.476070600149
 31
0.0
  0
LINE
  5
    9B
  8
0
  6
CONTINUOUS
 62
     7
 10
-302.264273335799
 20
203.476070600149
 30
0.0
 11
-302.785217765751
 21
200.521647322942
 31
0.0
  0
ENDBLK
  5
    9C
  8
0
  6
CONTINUOUS
 62
     7
  0
BLOCK
  5
    9D
  8
0
  6
CONTINUOUS
 62
     7
  2
*UDIM731
 70
    65
 10
0.0
 20
0.0
 30
0.0
  3
*UDIM731
  0
TEXT
  5
    9E
  8
0
  6
CONTINUOUS
 62
     7
 10
-309.666716166231
 20
171.782332518637
 30
0.0
 40
2.99999997871263
  1
133,25
 50
89.9999999480344
 41
0.933333333333333
 72
     1
 11
-311.166716148251
 21
179.882332462519
 31
0.0
 73
     2
  0
LINE
  5
    9F
  8
0
  6
CONTINUOUS
 62
     7
 10
-310.329759678457
 20
156.838601062769
 30
0.0
 11
-306.666716158895
 21
156.838601062769
 31
0.0
  0
LINE
  5
    A0
  8
0
  6
CONTINUOUS
 62
     7
 10
-327.576352228661
 20
203.476070600149
 30
0.0
 11
-306.666716158895
 21
203.476070600149
 31
0.0
  0
LINE
  5
    A1
  8
0
  6
CONTINUOUS
 62
     7
 10
-308.666716158895
 20
156.838601062769
 30
0.0
 11
-308.666716158895
 21
203.476070600149
 31
0.0
  0
LINE
  5
    A2
  8
0
  6
CONTINUOUS
 62
     7
 10
-309.187660588847
 20
159.793024339976
 30
0.0
 11
-308.666716158895
 21
156.838601062769
 31
0.0
  0
LINE
  5
    A3
  8
0
  6
CONTINUOUS
 62
     7
 10
-308.666716158895
 20
156.838601062769
 30
0.0
 11
-308.145771728943
 21
159.793024339976
 31
0.0
  0
LINE
  5
    A4
  8
0
  6
CONTINUOUS
 62
     7
 10
-308.145771728943
 20
200.521647322942
 30
0.0
 11
-308.666716158895
 21
203.476070600149
 31
0.0
  0
LINE
  5
    A5
  8
0
  6
CONTINUOUS
 62
     7
 10
-308.666716158895
 20
203.476070600149
 30
0.0
 11
-309.187660588847
 21
200.521647322942
 31
0.0
  0
ENDBLK
  5
    A6
  8
0
  6
CONTINUOUS
 62
     7
  0
BLOCK
  5
    A7
  8
0
  6
CONTINUOUS
 62
     7
  2
*UDIM732
 70
    65
 10
0.0
 20
0.0
 30
0.0
  3
*UDIM732
  0
TEXT
  5
    A8
  8
0
  6
CONTINUOUS
 62
     7
 10
-356.026364217059
 20
214.000074685464
 30
0.0
 40
2.99999997871263
  1
140
 50
359.999999948034
 41
0.933333333333333
 72
     1
 11
-352.12636424338
 21
215.500074671303
 31
0.0
 73
     2
  0
LINE
  5
    A9
  8
0
  6
CONTINUOUS
 62
     7
 10
-327.351365422279
 20
202.11358041254
 30
0.0
 11
-327.351365422279
 21
215.000074681947
 31
0.0
  0
LINE
  5
    AA
  8
0
  6
CONTINUOUS
 62
     7
 10
-376.351364587804
 20
202.113581299217
 30
0.0
 11
-376.351364587804
 21
215.000074681947
 31
0.0
  0
LINE
  5
    AB
  8
0
  6
CONTINUOUS
 62
     7
 10
-327.351365422279
 20
213.000074681947
 30
0.0
 11
-376.351364587804
 21
213.000074681947
 31
0.0
  0
LINE
  5
    AC
  8
0
  6
CONTINUOUS
 62
     7
 10
-330.305788699486
 20
212.479130251995
 30
0.0
 11
-327.351365422279
 21
213.000074681947
 31
0.0
  0
LINE
  5
    AD
  8
0
  6
CONTINUOUS
 62
     7
 10
-327.351365422279
 20
213.000074681947
 30
0.0
 11
-330.305788699486
 21
213.521019111899
 31
0.0
  0
LINE
  5
    AE
  8
0
  6
CONTINUOUS
 62
     7
 10
-373.396941310597
 20
213.521019111899
 30
0.0
 11
-376.351364587804
 21
213.000074681947
 31
0.0
  0
LINE
  5
    AF
  8
0
  6
CONTINUOUS
 62
     7
 10
-376.351364587804
 20
213.000074681947
 30
0.0
 11
-373.396941310597
 21
212.479130251995
 31
0.0
  0
ENDBLK
  5
    B0
  8
0
  6
CONTINUOUS
 62
     7
  0
BLOCK
  5
    B1
  8
0
  6
CONTINUOUS
 62
     3
  2
*UDIM733
 70
    65
 10
0.0
 20
0.0
 30
0.0
  3
*UDIM733
  0
TEXT
  5
    B2
  8
0
  6
CONTINUOUS
 62
     3
 10
-383.997815360443
 20
152.662498291629
 30
0.0
 40
2.99999997871263
  1
161
 50
89.9999999480344
 41
0.933333333333333
 72
     1
 11
-385.497815346267
 21
156.562498265314
 31
0.0
 73
     2
  0
LINE
  5
    B3
  8
0
  6
CONTINUOUS
 62
     3
 10
-379.888862717443
 20
128.663601542586
 30
0.0
 11
-384.997815356911
 21
128.663601542586
 31
0.0
  0
LINE
  5
    B4
  8
0
  6
CONTINUOUS
 62
     3
 10
-377.176362763636
 20
185.01139492503
 30
0.0
 11
-384.997815356911
 21
185.01139492503
 31
0.0
  0
LINE
  5
    B5
  8
0
  6
CONTINUOUS
 62
     3
 10
-382.997815356911
 20
128.663601542586
 30
0.0
 11
-382.997815356911
 21
185.01139492503
 31
0.0
  0
LINE
  5
    B6
  8
0
  6
CONTINUOUS
 62
     3
 10
-383.518759786863
 20
131.618024819793
 30
0.0
 11
-382.997815356911
 21
128.663601542586
 31
0.0
  0
LINE
  5
    B7
  8
0
  6
CONTINUOUS
 62
     3
 10
-382.997815356911
 20
128.663601542586
 30
0.0
 11
-382.476870926959
 21
131.618024819793
 31
0.0
  0
LINE
  5
    B8
  8
0
  6
CONTINUOUS
 62
     3
 10
-382.476870926959
 20
182.056971647823
 30
0.0
 11
-382.997815356911
 21
185.01139492503
 31
0.0
  0
LINE
  5
    B9
  8
0
  6
CONTINUOUS
 62
     3
 10
-382.997815356911
 20
185.01139492503
 30
0.0
 11
-383.518759786863
 21
182.056971647823
 31
0.0
  0
ENDBLK
  5
    BA
  8
0
  6
CONTINUOUS
 62
     3
  0
BLOCK
  5
    BB
  8
0
  6
CONTINUOUS
 62
     7
  2
*UDIM734
 70
    65
 10
0.0
 20
0.0
 30
0.0
  3
*UDIM734
  0
TEXT
  5
    BC
  8
0
  6
CONTINUOUS
 62
     7
 10
-337.826362435603
 20
101.739128033372
 30
0.0
 40
2.99999997871263
  1
96
 50
359.999999948034
 41
0.933333333333333
 72
     1
 11
-335.326362451989
 21
103.239128020474
 31
0.0
 73
     2
  0
LINE
  5
    BD
  8
0
  6
CONTINUOUS
 62
     7
 10
-318.251362414949
 20
128.101101535136
 30
0.0
 11
-318.251362414949
 21
98.7391280311174
 31
0.0
  0
LINE
  5
    BE
  8
0
  6
CONTINUOUS
 62
     7
 10
-318.251362414949
 20
100.739128031117
 30
0.0
 11
-351.851362510316
 21
100.739128031117
 31
0.0
  0
LINE
  5
    BF
  8
0
  6
CONTINUOUS
 62
     7
 10
-321.205785692156
 20
100.218183601166
 30
0.0
 11
-318.251362414949
 21
100.739128031117
 31
0.0
  0
LINE
  5
    C0
  8
0
  6
CONTINUOUS
 62
     7
 10
-318.251362414949
 20
100.739128031117
 30
0.0
 11
-321.205785692156
 21
101.260072461069
 31
0.0
  0
LINE
  5
    C1
  8
0
  6
CONTINUOUS
 62
     7
 10
-348.89693923311
 20
101.260072461069
 30
0.0
 11
-351.851362510316
 21
100.739128031117
 31
0.0
  0
LINE
  5
    C2
  8
0
  6
CONTINUOUS
 62
     7
 10
-351.851362510316
 20
100.739128031117
 30
0.0
 11
-348.89693923311
 21
100.218183601166
 31
0.0
  0
ENDBLK
  5
    C3
  8
0
  6
CONTINUOUS
 62
     7
  0
BLOCK
  5
    C4
  8
0
  6
CONTINUOUS
 62
     7
  2
*UDIM735
 70
    65
 10
0.0
 20
0.0
 30
0.0
  3
*UDIM735
  0
TEXT
  5
    C5
  8
0
  6
CONTINUOUS
 62
     7
 10
-371.163859371427
 20
101.739128035898
 30
0.0
 40
2.99999997871263
  1
78,5
 50
359.999999948034
 41
0.933333333333333
 72
     1
 11
-365.863859407682
 21
103.239128020474
 31
0.0
 73
     2
  0
LINE
  5
    C6
  8
0
  6
CONTINUOUS
 62
     7
 10
-379.326362709992
 20
128.101101535136
 30
0.0
 11
-379.326362709992
 21
98.7391280311174
 31
0.0
  0
LINE
  5
    C7
  8
0
  6
CONTINUOUS
 62
     7
 10
-351.851362510316
 20
100.739128031117
 30
0.0
 11
-379.326362709992
 21
100.739128031117
 31
0.0
  0
LINE
  5
    C8
  8
0
  6
CONTINUOUS
 62
     7
 10
-354.805785787523
 20
100.218183601166
 30
0.0
 11
-351.851362510316
 21
100.739128031117
 31
0.0
  0
LINE
  5
    C9
  8
0
  6
CONTINUOUS
 62
     7
 10
-351.851362510316
 20
100.739128031117
 30
0.0
 11
-354.805785787523
 21
101.260072461069
 31
0.0
  0
LINE
  5
    CA
  8
0
  6
CONTINUOUS
 62
     7
 10
-376.371939432785
 20
101.260072461069
 30
0.0
 11
-379.326362709992
 21
100.739128031117
 31
0.0
  0
LINE
  5
    CB
  8
0
  6
CONTINUOUS
 62
     7
 10
-379.326362709992
 20
100.739128031117
 30
0.0
 11
-376.371939432785
 21
100.218183601166
 31
0.0
  0
ENDBLK
  5
    CC
  8
0
  6
CONTINUOUS
 62
     7
  0
BLOCK
  5
    CD
  8
0
  6
CONTINUOUS
 62
     5
  2
*UDIM736
 70
    65
 10
0.0
 20
0.0
 30
0.0
  3
*UDIM736
  0
TEXT
  5
    CE
  8
0
  6
CONTINUOUS
 62
     5
 10
-390.42828019004
 20
170.819832535028
 30
0.0
 40
2.99999997871263
  1
127,75
 50
89.9999999480344
 41
0.933333333333333
 72
     1
 11
-391.92828017206
 21
178.919832478911
 31
0.0
 73
     2
  0
LINE
  5
    CF
  8
0
  6
CONTINUOUS
 62
     5
 10
-376.913864172396
 20
201.551070632931
 30
0.0
 11
-391.428280182704
 21
201.551070632931
 31
0.0
  0
LINE
  5
    D0
  8
0
  6
CONTINUOUS
 62
     5
 10
-389.428280182704
 20
156.838601062769
 30
0.0
 11
-389.428280182704
 21
201.551070632931
 31
0.0
  0
LINE
  5
    D1
  8
0
  6
CONTINUOUS
 62
     5
 10
-389.949224612655
 20
159.793024339976
 30
0.0
 11
-389.428280182704
 21
156.838601062769
 31
0.0
  0
LINE
  5
    D2
  8
0
  6
CONTINUOUS
 62
     5
 10
-389.428280182704
 20
156.838601062769
 30
0.0
 11
-388.907335752752
 21
159.793024339976
 31
0.0
  0
LINE
  5
    D3
  8
0
  6
CONTINUOUS
 62
     5
 10
-388.907335752752
 20
198.596647355724
 30
0.0
 11
-389.428280182704
 21
201.551070632931
 31
0.0
  0
LINE
  5
    D4
  8
0
  6
CONTINUOUS
 62
     5
 10
-389.428280182704
 20
201.551070632931
 30
0.0
 11
-389.949224612655
 21
198.596647355724
 31
0.0
  0
ENDBLK
  5
    D5
  8
0
  6
CONTINUOUS
 62
     5
  0
BLOCK
  5
    D6
  8
0
  6
CONTINUOUS
 62
     7
  2
*UDIM737
 70
    65
 10
0.0
 20
0.0
 30
0.0
  3
*UDIM737
  0
TEXT
  5
    D7
  8
0
  6
CONTINUOUS
 62
     7
 10
-341.06385796794
 20
96.0580421658912
 30
0.0
 40
2.99999997871263
  1
101,5
 50
359.999999948034
 41
0.933333333333333
 72
     1
 11
-334.363858014129
 21
97.5580421492045
 31
0.0
 73
     2
  0
LINE
  5
    D8
  8
0
  6
CONTINUOUS
 62
     7
 10
-316.326348615885
 20
151.726079355258
 30
0.0
 11
-316.326348615885
 21
93.0580421598481
 31
0.0
  0
LINE
  5
    D9
  8
0
  6
CONTINUOUS
 62
     7
 10
-351.851362510316
 20
98.8151086675461
 30
0.0
 11
-351.851362510316
 21
93.0580421598481
 31
0.0
  0
LINE
  5
    DA
  8
0
  6
CONTINUOUS
 62
     7
 10
-316.326348615885
 20
95.0580421598481
 30
0.0
 11
-351.851362510316
 21
95.0580421598481
 31
0.0
  0
LINE
  5
    DB
  8
0
  6
CONTINUOUS
 62
     7
 10
-319.280771893092
 20
94.5370977298965
 30
0.0
 11
-316.326348615885
 21
95.0580421598481
 31
0.0
  0
LINE
  5
    DC
  8
0
  6
CONTINUOUS
 62
     7
 10
-316.326348615885
 20
95.0580421598481
 30
0.0
 11
-319.280771893092
 21
95.5789865897998
 31
0.0
  0
LINE
  5
    DD
  8
0
  6
CONTINUOUS
 62
     7
 10
-348.89693923311
 20
95.5789865897998
 30
0.0
 11
-351.851362510316
 21
95.0580421598481
 31
0.0
  0
LINE
  5
    DE
  8
0
  6
CONTINUOUS
 62
     7
 10
-351.851362510316
 20
95.0580421598481
 30
0.0
 11
-348.89693923311
 21
94.5370977298965
 31
0.0
  0
ENDBLK
  5
    DF
  8
0
  6
CONTINUOUS
 62
     7
  0
BLOCK
  5
    E0
  8
0
  6
CONTINUOUS
 62
     7
  2
*UDIM738
 70
    65
 10
0.0
 20
0.0
 30
0.0
  3
*UDIM738
  0
TEXT
  5
    E1
  8
0
  6
CONTINUOUS
 62
     7
 10
-397.074296003231
 20
149.246769910907
 30
0.0
 40
2.99999997871263
  1
259
 50
89.9999999480344
 41
0.933333333333333
 72
     1
 11
-398.574295989055
 21
153.146769884592
 31
0.0
 73
     2
  0
LINE
  5
    E2
  8
0
  6
CONTINUOUS
 62
     7
 10
-376.913864172396
 20
110.901114661255
 30
0.0
 11
-398.074295999698
 21
110.901114661255
 31
0.0
  0
LINE
  5
    E3
  8
0
  6
CONTINUOUS
 62
     7
 10
-376.913864172396
 20
201.551070632931
 30
0.0
 11
-398.074295999698
 21
201.551070632931
 31
0.0
  0
LINE
  5
    E4
  8
0
  6
CONTINUOUS
 62
     7
 10
-396.074295999698
 20
110.901114661255
 30
0.0
 11
-396.074295999698
 21
201.551070632931
 31
0.0
  0
LINE
  5
    E5
  8
0
  6
CONTINUOUS
 62
     7
 10
-396.59524042965
 20
113.855537938462
 30
0.0
 11
-396.074295999698
 21
110.901114661255
 31
0.0
  0
LINE
  5
    E6
  8
0
  6
CONTINUOUS
 62
     7
 10
-396.074295999698
 20
110.901114661255
 30
0.0
 11
-395.553351569747
 21
113.855537938462
 31
0.0
  0
LINE
  5
    E7
  8
0
  6
CONTINUOUS
 62
     7
 10
-395.553351569747
 20
198.596647355724
 30
0.0
 11
-396.074295999698
 21
201.551070632931
 31
0.0
  0
LINE
  5
    E8
  8
0
  6
CONTINUOUS
 62
     7
 10
-396.074295999698
 20
201.551070632931
 30
0.0
 11
-396.59524042965
 21
198.596647355724
 31
0.0
  0
ENDBLK
  5
    E9
  8
0
  6
CONTINUOUS
 62
     7
  0
BLOCK
  5
    EA
  8
0
  6
CONTINUOUS
 62
     7
  2
*HATCH177
 70
    65
 10
0.0
 20
0.0
 30
0.0
  3
*HATCH177
  0
LINE
  5
    EB
  8
0
  6
CONTINUOUS
 62
    52
 10
187.992431640625
 20
39.5
 30
0.0
 11
185.992431640625
 21
37.5
 31
0.0
  0
LINE
  5
    EC
  8
0
  6
CONTINUOUS
 62
    52
 10
192.235076904297
 20
39.5
 30
0.0
 11
190.235076904297
 21
37.5
 31
0.0
  0
LINE
  5
    ED
  8
0
  6
CONTINUOUS
 62
    52
 10
196.477722167969
 20
39.5
 30
0.0
 11
194.477722167969
 21
37.5
 31
0.0
  0
LINE
  5
    EE
  8
0
  6
CONTINUOUS
 62
    52
 10
200.720367431641
 20
39.5
 30
0.0
 11
198.720367431641
 21
37.5
 31
0.0
  0
LINE
  5
    EF
  8
0
  6
CONTINUOUS
 62
    52
 10
204.963012695313
 20
39.5
 30
0.0
 11
202.963012695313
 21
37.5
 31
0.0
  0
LINE
  5
    F0
  8
0
  6
CONTINUOUS
 62
    52
 10
209.205657958984
 20
39.5
 30
0.0
 11
207.205657958984
 21
37.5
 31
0.0
  0
LINE
  5
    F1
  8
0
  6
CONTINUOUS
 62
    52
 10
213.448303222656
 20
39.5
 30
0.0
 11
211.448303222656
 21
37.5
 31
0.0
  0
LINE
  5
    F2
  8
0
  6
CONTINUOUS
 62
    52
 10
217.690948486328
 20
39.5
 30
0.0
 11
215.690948486328
 21
37.5
 31
0.0
  0
LINE
  5
    F3
  8
0
  6
CONTINUOUS
 62
    52
 10
221.93359375
 20
39.5
 30
0.0
 11
219.93359375
 21
37.5
 31
0.0
  0
LINE
  5
    F4
  8
0
  6
CONTINUOUS
 62
    52
 10
226.176239013672
 20
39.5
 30
0.0
 11
224.176239013672
 21
37.5
 31
0.0
  0
LINE
  5
    F5
  8
0
  6
CONTINUOUS
 62
    52
 10
229.369522094727
 20
38.4506874084473
 30
0.0
 11
228.418838500977
 21
37.5
 31
0.0
  0
ENDBLK
  5
    F6
  8
0
  6
CONTINUOUS
 62
     7
  0
BLOCK
  5
    F7
  8
0
  6
CONTINUOUS
 62
     7
  2
*HATCH178
 70
    65
 10
0.0
 20
0.0
 30
0.0
  3
*HATCH178
  0
LINE
  5
    F8
  8
0
  6
CONTINUOUS
 62
    52
 10
115.867530822754
 20
39.4999961853027
 30
0.0
 11
113.867530822754
 21
37.4999961853027
 31
0.0
  0
LINE
  5
    F9
  8
0
  6
CONTINUOUS
 62
    52
 10
120.110176086426
 20
39.4999961853027
 30
0.0
 11
118.110176086426
 21
37.4999961853027
 31
0.0
  0
LINE
  5
    FA
  8
0
  6
CONTINUOUS
 62
    52
 10
124.352821350098
 20
39.4999961853027
 30
0.0
 11
122.352821350098
 21
37.4999961853027
 31
0.0
  0
LINE
  5
    FB
  8
0
  6
CONTINUOUS
 62
    52
 10
128.595458984375
 20
39.4999961853027
 30
0.0
 11
126.59546661377
 21
37.4999961853027
 31
0.0
  0
LINE
  5
    FC
  8
0
  6
CONTINUOUS
 62
    52
 10
132.838104248047
 20
39.4999961853027
 30
0.0
 11
130.838104248047
 21
37.4999961853027
 31
0.0
  0
LINE
  5
    FD
  8
0
  6
CONTINUOUS
 62
    52
 10
137.080749511719
 20
39.4999961853027
 30
0.0
 11
135.080749511719
 21
37.4999961853027
 31
0.0
  0
LINE
  5
    FE
  8
0
  6
CONTINUOUS
 62
    52
 10
141.323394775391
 20
39.4999961853027
 30
0.0
 11
139.323394775391
 21
37.4999961853027
 31
0.0
  0
LINE
  5
    FF
  8
0
  6
CONTINUOUS
 62
    52
 10
145.566040039063
 20
39.4999961853027
 30
0.0
 11
143.566040039063
 21
37.4999961853027
 31
0.0
  0
LINE
  5
   100
  8
0
  6
CONTINUOUS
 62
    52
 10
149.808685302734
 20
39.4999961853027
 30
0.0
 11
147.808685302734
 21
37.4999961853027
 31
0.0
  0
LINE
  5
   101
  8
0
  6
CONTINUOUS
 62
    52
 10
154.051330566406
 20
39.4999961853027
 30
0.0
 11
152.051330566406
 21
37.4999961853027
 31
0.0
  0
LINE
  5
   102
  8
0
  6
CONTINUOUS
 62
    52
 10
158.293975830078
 20
39.4999961853027
 30
0.0
 11
156.293975830078
 21
37.4999961853027
 31
0.0
  0
LINE
  5
   103
  8
0
  6
CONTINUOUS
 62
    52
 10
162.53662109375
 20
39.4999961853027
 30
0.0
 11
160.53662109375
 21
37.4999961853027
 31
0.0
  0
LINE
  5
   104
  8
0
  6
CONTINUOUS
 62
    52
 10
166.779266357422
 20
39.4999961853027
 30
0.0
 11
164.779266357422
 21
37.4999961853027
 31
0.0
  0
LINE
  5
   105
  8
0
  6
CONTINUOUS
 62
    52
 10
171.021911621094
 20
39.4999961853027
 30
0.0
 11
169.021911621094
 21
37.4999961853027
 31
0.0
  0
LINE
  5
   106
  8
0
  6
CONTINUOUS
 62
    52
 10
175.264556884766
 20
39.4999961853027
 30
0.0
 11
173.264556884766
 21
37.4999961853027
 31
0.0
  0
ENDBLK
  5
   107
  8
0
  6
CONTINUOUS
 62
     7
  0
BLOCK
  5
   108
  8
0
  6
CONTINUOUS
 62
     7
  2
*HATCH179
 70
    65
 10
0.0
 20
0.0
 30
0.0
  3
*HATCH179
  0
LINE
  5
   109
  8
0
  6
CONTINUOUS
 62
    52
 10
92.5330123901367
 20
39.4999961853027
 30
0.0
 11
90.5330123901367
 21
37.4999961853027
 31
0.0
  0
LINE
  5
   10A
  8
0
  6
CONTINUOUS
 62
    52
 10
96.7756576538086
 20
39.4999961853027
 30
0.0
 11
94.7756576538086
 21
37.4999961853027
 31
0.0
  0
LINE
  5
   10B
  8
0
  6
CONTINUOUS
 62
    52
 10
101.01830291748
 20
39.4999961853027
 30
0.0
 11
99.0183029174805
 21
37.4999961853027
 31
0.0
  0
LINE
  5
   10C
  8
0
  6
CONTINUOUS
 62
    52
 10
105.260948181152
 20
39.4999961853027
 30
0.0
 11
103.260948181152
 21
37.4999961853027
 31
0.0
  0
ENDBLK
  5
   10D
  8
0
  6
CONTINUOUS
 62
     7
  0
BLOCK
  5
   10E
  8
0
  6
CONTINUOUS
 62
     7
  2
*HATCH180
 70
    65
 10
0.0
 20
0.0
 30
0.0
  3
*HATCH180
  0
LINE
  5
   10F
  8
0
  6
CONTINUOUS
 62
    52
 10
45.8639602661133
 20
39.4999961853027
 30
0.0
 11
43.8639640808105
 21
37.5
 31
0.0
  0
LINE
  5
   110
  8
0
  6
CONTINUOUS
 62
    52
 10
50.1065979003906
 20
39.4999961853027
 30
0.0
 11
48.1066017150879
 21
37.5
 31
0.0
  0
LINE
  5
   111
  8
0
  6
CONTINUOUS
 62
    52
 10
54.349235534668
 20
39.4999961853027
 30
0.0
 11
52.3492393493652
 21
37.5
 31
0.0
  0
LINE
  5
   112
  8
0
  6
CONTINUOUS
 62
    52
 10
58.5918731689453
 20
39.4999961853027
 30
0.0
 11
56.5918769836426
 21
37.5
 31
0.0
  0
LINE
  5
   113
  8
0
  6
CONTINUOUS
 62
    52
 10
62.8345108032227
 20
39.4999961853027
 30
0.0
 11
60.8345146179199
 21
37.5
 31
0.0
  0
LINE
  5
   114
  8
0
  6
CONTINUOUS
 62
    52
 10
67.0771560668945
 20
39.4999961853027
 30
0.0
 11
65.0771560668945
 21
37.5
 31
0.0
  0
LINE
  5
   115
  8
0
  6
CONTINUOUS
 62
    52
 10
71.3198013305664
 20
39.4999961853027
 30
0.0
 11
69.3198013305664
 21
37.5
 31
0.0
  0
LINE
  5
   116
  8
0
  6
CONTINUOUS
 62
    52
 10
75.2370758056641
 20
39.1746253967285
 30
0.0
 11
73.5624465942383
 21
37.4999961853027
 31
0.0
  0
ENDBLK
  5
   117
  8
0
  6
CONTINUOUS
 62
     7
  0
BLOCK
  5
   118
  8
0
  6
CONTINUOUS
 62
     7
  2
*HATCH181
 70
    65
 10
0.0
 20
0.0
 30
0.0
  3
*HATCH181
  0
LINE
  5
   119
  8
0
  6
CONTINUOUS
 62
    52
 10
-34.7462120056152
 20
39.5
 30
0.0
 11
-36.7462120056152
 21
37.5
 31
0.0
  0
LINE
  5
   11A
  8
0
  6
CONTINUOUS
 62
    52
 10
-30.5035724639893
 20
39.5
 30
0.0
 11
-32.5035743713379
 21
37.5
 31
0.0
  0
LINE
  5
   11B
  8
0
  6
CONTINUOUS
 62
    52
 10
-26.2609310150147
 20
39.5
 30
0.0
 11
-28.2609329223633
 21
37.5
 31
0.0
  0
LINE
  5
   11C
  8
0
  6
CONTINUOUS
 62
    52
 10
-22.01828956604
 20
39.5
 30
0.0
 11
-24.0182914733887
 21
37.5
 31
0.0
  0
LINE
  5
   11D
  8
0
  6
CONTINUOUS
 62
    52
 10
-17.7756481170654
 20
39.5
 30
0.0
 11
-19.7756500244141
 21
37.5
 31
0.0
  0
LINE
  5
   11E
  8
0
  6
CONTINUOUS
 62
    52
 10
-13.5330066680908
 20
39.5
 30
0.0
 11
-15.5330085754395
 21
37.5
 31
0.0
  0
LINE
  5
   11F
  8
0
  6
CONTINUOUS
 62
    52
 10
-9.29036521911621
 20
39.5
 30
0.0
 11
-11.2903671264648
 21
37.5
 31
0.0
  0
LINE
  5
   120
  8
0
  6
CONTINUOUS
 62
    52
 10
-5.0477237701416
 20
39.5
 30
0.0
 11
-7.04772567749023
 21
37.5
 31
0.0
  0
LINE
  5
   121
  8
0
  6
CONTINUOUS
 62
    52
 10
-0.80508279800415
 20
39.5
 30
0.0
 11
-2.8050844669342
 21
37.5
 31
0.0
  0
LINE
  5
   122
  8
0
  6
CONTINUOUS
 62
    52
 10
3.4375581741333
 20
39.5
 30
0.0
 11
1.43755650520325
 21
37.5
 31
0.0
  0
LINE
  5
   123
  8
0
  6
CONTINUOUS
 62
    52
 10
7.68019962310791
 20
39.5
 30
0.0
 11
5.68019771575928
 21
37.5
 31
0.0
  0
LINE
  5
   124
  8
0
  6
CONTINUOUS
 62
    52
 10
11.9228410720825
 20
39.5
 30
0.0
 11
9.92283916473389
 21
37.5
 31
0.0
  0
LINE
  5
   125
  8
0
  6
CONTINUOUS
 62
    52
 10
16.1654815673828
 20
39.5
 30
0.0
 11
14.1654806137085
 21
37.5
 31
0.0
  0
LINE
  5
   126
  8
0
  6
CONTINUOUS
 62
    52
 10
20.4081230163574
 20
39.5
 30
0.0
 11
18.4081211090088
 21
37.5
 31
0.0
  0
LINE
  5
   127
  8
0
  6
CONTINUOUS
 62
    52
 10
24.650764465332
 20
39.5
 30
0.0
 11
22.6507625579834
 21
37.5
 31
0.0
  0
LINE
  5
   128
  8
0
  6
CONTINUOUS
 62
    52
 10
28.8934059143066
 20
39.5
 30
0.0
 11
26.893404006958
 21
37.5
 31
0.0
  0
LINE
  5
   129
  8
0
  6
CONTINUOUS
 62
    52
 10
33.1360473632813
 20
39.5
 30
0.0
 11
31.1360454559326
 21
37.5
 31
0.0
  0
LINE
  5
   12A
  8
0
  6
CONTINUOUS
 62
    52
 10
35.486873626709
 20
37.6081924438477
 30
0.0
 11
35.3786811828613
 21
37.5
 31
0.0
  0
ENDBLK
  5
   12B
  8
0
  6
CONTINUOUS
 62
     7
  0
BLOCK
  5
   12C
  8
0
  6
CONTINUOUS
 62
     7
  2
*HATCH182
 70
    65
 10
0.0
 20
0.0
 30
0.0
  3
*HATCH182
  0
LINE
  5
   12D
  8
0
  6
CONTINUOUS
 62
    52
 10
166.264526367187
 20
30.5000076293945
 30
0.0
 11
163.987060546875
 21
28.2225513458252
 31
0.0
  0
LINE
  5
   12E
  8
0
  6
CONTINUOUS
 62
    52
 10
170.50715637207
 20
30.5000076293945
 30
0.0
 11
168.00715637207
 21
28.0000019073486
 31
0.0
  0
LINE
  5
   12F
  8
0
  6
CONTINUOUS
 62
    52
 10
172.987060546875
 20
28.7372703552246
 30
0.0
 11
172.249786376953
 21
28.0000019073486
 31
0.0
  0
ENDBLK
  5
   130
  8
0
  6
CONTINUOUS
 62
     7
  0
BLOCK
  5
   131
  8
0
  6
CONTINUOUS
 62
     7
  2
*UDIM739
 70
    65
 10
0.0
 20
0.0
 30
0.0
  3
*UDIM739
  0
TEXT
  5
   132
  8
0
  6
CONTINUOUS
 62
     7
 10
-449.959925421717
 20
90.5710827981482
 30
0.0
 40
2.99999997871263
  1
88
 50
359.999999948034
 41
0.933333333333333
 72
     1
 11
-447.459925438103
 21
92.0710827852496
 31
0.0
 73
     2
  0
LINE
  5
   133
  8
0
  6
CONTINUOUS
 62
     7
 10
-432.920036983276
 20
113.40108777701
 30
0.0
 11
-432.920036983276
 21
87.5710827958933
 31
0.0
  0
LINE
  5
   134
  8
0
  6
CONTINUOUS
 62
     7
 10
-463.720020458102
 20
100.068581128214
 30
0.0
 11
-463.720020458102
 21
87.5710827958933
 31
0.0
  0
LINE
  5
   135
  8
0
  6
CONTINUOUS
 62
     7
 10
-432.920036983276
 20
89.5710827958933
 30
0.0
 11
-463.720020458102
 21
89.5710827958933
 31
0.0
  0
LINE
  5
   136
  8
0
  6
CONTINUOUS
 62
     7
 10
-435.874460260483
 20
89.0501383659416
 30
0.0
 11
-432.920036983276
 21
89.5710827958933
 31
0.0
  0
LINE
  5
   137
  8
0
  6
CONTINUOUS
 62
     7
 10
-432.920036983276
 20
89.5710827958933
 30
0.0
 11
-435.874460260483
 21
90.092027225845
 31
0.0
  0
LINE
  5
   138
  8
0
  6
CONTINUOUS
 62
     7
 10
-460.765597180895
 20
90.092027225845
 30
0.0
 11
-463.720020458102
 21
89.5710827958933
 31
0.0
  0
LINE
  5
   139
  8
0
  6
CONTINUOUS
 62
     7
 10
-463.720020458102
 20
89.5710827958933
 30
0.0
 11
-460.765597180895
 21
89.0501383659416
 31
0.0
  0
ENDBLK
  5
   13A
  8
0
  6
CONTINUOUS
 62
     7
  0
BLOCK
  5
   13B
  8
0
  6
CONTINUOUS
 62
     7
  2
*UDIM740
 70
    65
 10
0.0
 20
0.0
 30
0.0
  3
*UDIM740
  0
TEXT
  5
   13C
  8
0
  6
CONTINUOUS
 62
     7
 10
-461.938518687382
 20
96.6390667061255
 30
0.0
 40
2.99999997871263
  1
39,5
 50
359.999999948034
 41
0.933333333333333
 72
     1
 11
-456.638518723637
 21
98.1390666907015
 31
0.0
 73
     2
  0
LINE
  5
   13D
  8
0
  6
CONTINUOUS
 62
     7
 10
-449.895036694194
 20
113.40108777701
 30
0.0
 11
-449.895036694194
 21
93.6390667013452
 31
0.0
  0
LINE
  5
   13E
  8
0
  6
CONTINUOUS
 62
     7
 10
-463.720020458102
 20
100.068581128214
 30
0.0
 11
-463.720020458102
 21
93.6390667013452
 31
0.0
  0
LINE
  5
   13F
  8
0
  6
CONTINUOUS
 62
     7
 10
-449.895036694194
 20
95.6390667013452
 30
0.0
 11
-463.720020458102
 21
95.6390667013452
 31
0.0
  0
LINE
  5
   140
  8
0
  6
CONTINUOUS
 62
     7
 10
-452.849459971401
 20
95.1181222713935
 30
0.0
 11
-449.895036694194
 21
95.6390667013452
 31
0.0
  0
LINE
  5
   141
  8
0
  6
CONTINUOUS
 62
     7
 10
-449.895036694194
 20
95.6390667013452
 30
0.0
 11
-452.849459971401
 21
96.1600111312969
 31
0.0
  0
LINE
  5
   142
  8
0
  6
CONTINUOUS
 62
     7
 10
-460.765597180895
 20
96.1600111312969
 30
0.0
 11
-463.720020458102
 21
95.6390667013452
 31
0.0
  0
LINE
  5
   143
  8
0
  6
CONTINUOUS
 62
     7
 10
-463.720020458102
 20
95.6390667013452
 30
0.0
 11
-460.765597180895
 21
95.1181222713935
 31
0.0
  0
ENDBLK
  5
   144
  8
0
  6
CONTINUOUS
 62
     7
  0
BLOCK
  5
   145
  8
0
  6
CONTINUOUS
 62
     7
  2
*UDIM741
 70
    65
 10
0.0
 20
0.0
 30
0.0
  3
*UDIM741
  0
TEXT
  5
   146
  8
0
  6
CONTINUOUS
 62
     7
 10
-418.797389406487
 20
114.601083739378
 30
0.0
 40
2.99999997871263
  1
40
 50
89.9999999480344
 41
0.933333333333333
 72
     1
 11
-420.297389393579
 21
117.101083722997
 31
0.0
 73
     2
  0
LINE
  5
   147
  8
0
  6
CONTINUOUS
 62
     7
 10
-424.920039793849
 20
110.376084248795
 30
0.0
 11
-415.797389404223
 21
110.376084248795
 31
0.0
  0
LINE
  5
   148
  8
0
  6
CONTINUOUS
 62
     7
 10
-424.920039793849
 20
124.376084010376
 30
0.0
 11
-415.797389404223
 21
124.376084010376
 31
0.0
  0
LINE
  5
   149
  8
0
  6
CONTINUOUS
 62
     7
 10
-417.797389404222
 20
110.376084248795
 30
0.0
 11
-417.797389404222
 21
124.376084010376
 31
0.0
  0
LINE
  5
   14A
  8
0
  6
CONTINUOUS
 62
     7
 10
-418.318333834174
 20
113.330507526002
 30
0.0
 11
-417.797389404222
 21
110.376084248795
 31
0.0
  0
LINE
  5
   14B
  8
0
  6
CONTINUOUS
 62
     7
 10
-417.797389404222
 20
110.376084248795
 30
0.0
 11
-417.276444974271
 21
113.330507526002
 31
0.0
  0
LINE
  5
   14C
  8
0
  6
CONTINUOUS
 62
     7
 10
-417.276444974271
 20
121.421660733169
 30
0.0
 11
-417.797389404222
 21
124.376084010376
 31
0.0
  0
LINE
  5
   14D
  8
0
  6
CONTINUOUS
 62
     7
 10
-417.797389404222
 20
124.376084010376
 30
0.0
 11
-418.318333834174
 21
121.421660733169
 31
0.0
  0
ENDBLK
  5
   14E
  8
0
  6
CONTINUOUS
 62
     7
  0
BLOCK
  5
   14F
  8
0
  6
CONTINUOUS
 62
     7
  2
*UDIM742
 70
    65
 10
0.0
 20
0.0
 30
0.0
  3
*UDIM742
  0
TEXT
  5
   150
  8
0
  6
CONTINUOUS
 62
     7
 10
-418.797389411559
 20
167.416677858198
 30
0.0
 40
2.99999997871263
  1
109,25
 50
89.9999999480344
 41
0.933333333333333
 72
     1
 11
-420.297389393579
 21
175.51667780208
 31
0.0
 73
     2
  0
LINE
  5
   151
  8
0
  6
CONTINUOUS
 62
     7
 10
-456.210451305366
 20
156.838602554875
 30
0.0
 11
-415.797389404223
 21
156.838602554875
 31
0.0
  0
LINE
  5
   152
  8
0
  6
CONTINUOUS
 62
     7
 10
-428.945040651776
 20
195.07608662383
 30
0.0
 11
-415.797389404223
 21
195.07608662383
 31
0.0
  0
LINE
  5
   153
  8
0
  6
CONTINUOUS
 62
     7
 10
-417.797389404222
 20
156.838602554875
 30
0.0
 11
-417.797389404222
 21
195.07608662383
 31
0.0
  0
LINE
  5
   154
  8
0
  6
CONTINUOUS
 62
     7
 10
-418.318333834174
 20
159.793025832082
 30
0.0
 11
-417.797389404222
 21
156.838602554875
 31
0.0
  0
LINE
  5
   155
  8
0
  6
CONTINUOUS
 62
     7
 10
-417.797389404222
 20
156.838602554875
 30
0.0
 11
-417.276444974271
 21
159.793025832082
 31
0.0
  0
LINE
  5
   156
  8
0
  6
CONTINUOUS
 62
     7
 10
-417.276444974271
 20
192.121663346623
 30
0.0
 11
-417.797389404222
 21
195.07608662383
 31
0.0
  0
LINE
  5
   157
  8
0
  6
CONTINUOUS
 62
     7
 10
-417.797389404222
 20
195.07608662383
 30
0.0
 11
-418.318333834174
 21
192.121663346623
 31
0.0
  0
ENDBLK
  5
   158
  8
0
  6
CONTINUOUS
 62
     7
  0
BLOCK
  5
   159
  8
0
  6
CONTINUOUS
 62
     7
  2
*UDIM743
 70
    65
 10
0.0
 20
0.0
 30
0.0
  3
*UDIM743
  0
TEXT
  5
   15A
  8
0
  6
CONTINUOUS
 62
     7
 10
-412.852933025787
 20
101.851085310918
 30
0.0
 40
2.99999997871263
  1
20
 50
89.9999999480344
 41
0.933333333333333
 72
     1
 11
-414.352933012879
 21
104.351085294537
 31
0.0
 73
     2
  0
LINE
  5
   15B
  8
0
  6
CONTINUOUS
 62
     7
 10
-424.920039793849
 20
110.376084248795
 30
0.0
 11
-409.852933023522
 21
110.376084248795
 31
0.0
  0
LINE
  5
   15C
  8
0
  6
CONTINUOUS
 62
     7
 10
-428.945040651776
 20
117.376084108511
 30
0.0
 11
-409.852933023522
 21
117.376084108511
 31
0.0
  0
LINE
  5
   15D
  8
0
  6
CONTINUOUS
 62
     7
 10
-411.852933023522
 20
101.851085312276
 30
0.0
 11
-411.852933023522
 21
117.376084108511
 31
0.0
  0
LINE
  5
   15E
  8
0
  6
CONTINUOUS
 62
     7
 10
-412.373877453474
 20
113.330507526002
 30
0.0
 11
-411.852933023522
 21
110.376084248795
 31
0.0
  0
LINE
  5
   15F
  8
0
  6
CONTINUOUS
 62
     7
 10
-411.852933023522
 20
110.376084248795
 30
0.0
 11
-411.331988593571
 21
113.330507526002
 31
0.0
  0
LINE
  5
   160
  8
0
  6
CONTINUOUS
 62
     7
 10
-411.331988593571
 20
114.421660831304
 30
0.0
 11
-411.852933023522
 21
117.376084108511
 31
0.0
  0
LINE
  5
   161
  8
0
  6
CONTINUOUS
 62
     7
 10
-411.852933023522
 20
117.376084108511
 30
0.0
 11
-412.373877453474
 21
114.421660831304
 31
0.0
  0
ENDBLK
  5
   162
  8
0
  6
CONTINUOUS
 62
     7
  0
BLOCK
  5
   163
  8
0
  6
CONTINUOUS
 62
     7
  2
*UDIM744
 70
    65
 10
0.0
 20
0.0
 30
0.0
  3
*UDIM744
  0
TEXT
  5
   164
  8
0
  6
CONTINUOUS
 62
     7
 10
-412.852933027055
 20
152.051087030336
 30
0.0
 40
2.99999997871263
  1
222
 50
89.9999999480344
 41
0.933333333333333
 72
     1
 11
-414.352933012879
 21
155.951087004021
 31
0.0
 73
     2
  0
LINE
  5
   165
  8
0
  6
CONTINUOUS
 62
     7
 10
-428.945040651776
 20
195.07608662383
 30
0.0
 11
-409.852933023522
 21
195.07608662383
 31
0.0
  0
LINE
  5
   166
  8
0
  6
CONTINUOUS
 62
     7
 10
-411.852933023522
 20
117.376084108511
 30
0.0
 11
-411.852933023522
 21
195.07608662383
 31
0.0
  0
LINE
  5
   167
  8
0
  6
CONTINUOUS
 62
     7
 10
-412.373877453474
 20
120.330507385717
 30
0.0
 11
-411.852933023522
 21
117.376084108511
 31
0.0
  0
LINE
  5
   168
  8
0
  6
CONTINUOUS
 62
     7
 10
-411.852933023522
 20
117.376084108511
 30
0.0
 11
-411.331988593571
 21
120.330507385717
 31
0.0
  0
LINE
  5
   169
  8
0
  6
CONTINUOUS
 62
     7
 10
-411.331988593571
 20
192.121663346623
 30
0.0
 11
-411.852933023522
 21
195.07608662383
 31
0.0
  0
LINE
  5
   16A
  8
0
  6
CONTINUOUS
 62
     7
 10
-411.852933023522
 20
195.07608662383
 30
0.0
 11
-412.373877453474
 21
192.121663346623
 31
0.0
  0
ENDBLK
  5
   16B
  8
0
  6
CONTINUOUS
 62
     7
  0
BLOCK
  5
   16C
  8
0
  6
CONTINUOUS
 62
     7
  2
*UDIM745
 70
    65
 10
0.0
 20
0.0
 30
0.0
  3
*UDIM745
  0
TEXT
  5
   16D
  8
0
  6
CONTINUOUS
 62
     7
 10
-412.852933025787
 20
205.051084912422
 30
0.0
 40
2.99999997871263
  1
20
 50
89.9999999480344
 41
0.933333333333333
 72
     1
 11
-414.352933012879
 21
207.551084896041
 31
0.0
 73
     2
  0
LINE
  5
   16E
  8
0
  6
CONTINUOUS
 62
     7
 10
-424.920039793849
 20
202.076086525696
 30
0.0
 11
-409.852933023522
 21
202.076086525696
 31
0.0
  0
LINE
  5
   16F
  8
0
  6
CONTINUOUS
 62
     7
 10
-411.852933023522
 20
195.07608662383
 30
0.0
 11
-411.852933023522
 21
210.051084878301
 31
0.0
  0
LINE
  5
   170
  8
0
  6
CONTINUOUS
 62
     7
 10
-412.373877453474
 20
198.030509901037
 30
0.0
 11
-411.852933023522
 21
195.07608662383
 31
0.0
  0
LINE
  5
   171
  8
0
  6
CONTINUOUS
 62
     7
 10
-411.852933023522
 20
195.07608662383
 30
0.0
 11
-411.331988593571
 21
198.030509901037
 31
0.0
  0
LINE
  5
   172
  8
0
  6
CONTINUOUS
 62
     7
 10
-411.331988593571
 20
199.121663248489
 30
0.0
 11
-411.852933023522
 21
202.076086525696
 31
0.0
  0
LINE
  5
   173
  8
0
  6
CONTINUOUS
 62
     7
 10
-411.852933023522
 20
202.076086525696
 30
0.0
 11
-412.373877453474
 21
199.121663248489
 31
0.0
  0
ENDBLK
  5
   174
  8
0
  6
CONTINUOUS
 62
     7
  0
BLOCK
  5
   175
  8
0
  6
CONTINUOUS
 62
     7
  2
*UDIM746
 70
    65
 10
0.0
 20
0.0
 30
0.0
  3
*UDIM746
  0
TEXT
  5
   176
  8
0
  6
CONTINUOUS
 62
     7
 10
-437.409755672624
 20
205.053921495231
 30
0.0
 40
2.99999997871263
  1
11
 50
395.04346659447
 41
0.933333333333333
 72
     1
 11
-436.224260560902
 21
207.717490758355
 31
0.0
 73
     2
  0
TEXT
  5
   177
  8
0
  6
CONTINUOUS
 62
     7
 10
-439.988713168742
 20
203.245198724941
 30
0.0
 40
2.99999997871263
  1
Ø
 50
395.04346659447
 41
0.933333333333333
 72
     1
 11
-439.94942139156
 21
205.104891201439
 31
0.0
 73
     2
  0
LINE
  5
   178
  8
0
  6
CONTINUOUS
 62
     7
 10
-451.471063300551
 20
193.970758129133
 30
0.0
 11
-432.741974625625
 21
207.106193348694
 31
0.0
  0
LINE
  5
   179
  8
0
  6
CONTINUOUS
 62
     7
 10
-453.590773797689
 20
191.847829159921
 30
0.0
 11
-451.471063300551
 21
193.970758129133
 31
0.0
  0
LINE
  5
   17A
  8
0
  6
CONTINUOUS
 62
     7
 10
-451.471063300551
 20
193.970758129133
 30
0.0
 11
-454.189023994646
 21
192.700840940749
 31
0.0
  0
LINE
  5
   17B
  8
0
  6
CONTINUOUS
 62
     7
 10
-446.199299590698
 20
198.30434408774
 30
0.0
 11
-448.319010087837
 21
196.181415118527
 31
0.0
  0
LINE
  5
   17C
  8
0
  6
CONTINUOUS
 62
     7
 10
-448.319010087837
 20
196.181415118527
 30
0.0
 11
-445.601049393742
 21
197.451332306911
 31
0.0
  0
ENDBLK
  5
   17D
  8
0
  6
CONTINUOUS
 62
     7
  0
BLOCK
  5
   17E
  8
0
  6
CONTINUOUS
 62
     7
  2
*UDIM747
 70
    65
 10
0.0
 20
0.0
 30
0.0
  3
*UDIM747
  0
TEXT
  5
   17F
  8
0
  6
CONTINUOUS
 62
     7
 10
-448.951887142191
 20
220.483325002302
 30
0.0
 40
2.99999997871263
  1
108
 50
359.999999948034
 41
0.933333333333333
 72
     1
 11
-445.051887168512
 21
221.98332498814
 31
0.0
 73
     2
  0
LINE
  5
   180
  8
0
  6
CONTINUOUS
 62
     7
 10
-425.920039793849
 20
203.076086525696
 30
0.0
 11
-425.920039793849
 21
221.483324998784
 31
0.0
  0
LINE
  5
   181
  8
0
  6
CONTINUOUS
 62
     7
 10
-463.720020458102
 20
212.266031210864
 30
0.0
 11
-463.720020458102
 21
221.483324998784
 31
0.0
  0
LINE
  5
   182
  8
0
  6
CONTINUOUS
 62
     7
 10
-425.920039793849
 20
219.483324998784
 30
0.0
 11
-463.720020458102
 21
219.483324998784
 31
0.0
  0
LINE
  5
   183
  8
0
  6
CONTINUOUS
 62
     7
 10
-428.874463071056
 20
218.962380568833
 30
0.0
 11
-425.920039793849
 21
219.483324998784
 31
0.0
  0
LINE
  5
   184
  8
0
  6
CONTINUOUS
 62
     7
 10
-425.920039793849
 20
219.483324998784
 30
0.0
 11
-428.874463071056
 21
220.004269428736
 31
0.0
  0
LINE
  5
   185
  8
0
  6
CONTINUOUS
 62
     7
 10
-460.765597180895
 20
220.004269428736
 30
0.0
 11
-463.720020458102
 21
219.483324998784
 31
0.0
  0
LINE
  5
   186
  8
0
  6
CONTINUOUS
 62
     7
 10
-463.720020458102
 20
219.483324998784
 30
0.0
 11
-460.765597180895
 21
218.962380568833
 31
0.0
  0
ENDBLK
  5
   187
  8
0
  6
CONTINUOUS
 62
     7
  0
BLOCK
  5
   188
  8
0
  6
CONTINUOUS
 62
     7
  2
*UDIM748
 70
    65
 10
0.0
 20
0.0
 30
0.0
  3
*UDIM748
  0
TEXT
  5
   189
  8
0
  6
CONTINUOUS
 62
     7
 10
-458.882534232031
 20
214.654235747365
 30
0.0
 40
2.99999997871263
  1
59,5
 50
359.999999948034
 41
0.933333333333333
 72
     1
 11
-453.582534268285
 21
216.154235731941
 31
0.0
 73
     2
  0
LINE
  5
   18A
  8
0
  6
CONTINUOUS
 62
     7
 10
-442.895039504766
 20
203.076086525696
 30
0.0
 11
-442.895039504766
 21
215.654235742584
 31
0.0
  0
LINE
  5
   18B
  8
0
  6
CONTINUOUS
 62
     7
 10
-463.720020458102
 20
212.266031210864
 30
0.0
 11
-463.720020458102
 21
215.654235742584
 31
0.0
  0
LINE
  5
   18C
  8
0
  6
CONTINUOUS
 62
     7
 10
-442.895039504766
 20
213.654235742584
 30
0.0
 11
-463.720020458102
 21
213.654235742584
 31
0.0
  0
LINE
  5
   18D
  8
0
  6
CONTINUOUS
 62
     7
 10
-445.849462781973
 20
213.133291312633
 30
0.0
 11
-442.895039504766
 21
213.654235742584
 31
0.0
  0
LINE
  5
   18E
  8
0
  6
CONTINUOUS
 62
     7
 10
-442.895039504766
 20
213.654235742584
 30
0.0
 11
-445.849462781973
 21
214.175180172536
 31
0.0
  0
LINE
  5
   18F
  8
0
  6
CONTINUOUS
 62
     7
 10
-460.765597180895
 20
214.175180172536
 30
0.0
 11
-463.720020458102
 21
213.654235742584
 31
0.0
  0
LINE
  5
   190
  8
0
  6
CONTINUOUS
 62
     7
 10
-463.720020458102
 20
213.654235742584
 30
0.0
 11
-460.765597180895
 21
213.133291312633
 31
0.0
  0
ENDBLK
  5
   191
  8
0
  6
CONTINUOUS
 62
     7
  0
BLOCK
  5
   192
  8
0
  6
CONTINUOUS
 62
     7
  2
*UDIM749
 70
    65
 10
0.0
 20
0.0
 30
0.0
  3
*UDIM749
  0
TEXT
  5
   193
  8
0
  6
CONTINUOUS
 62
     7
 10
-517.390602711855
 20
149.97251491393
 30
0.0
 40
2.99999997871263
  1
5,5
 50
306.27250751355
 41
0.933333333333333
 72
     1
 11
-513.873941395862
 21
147.715726722537
 31
0.0
 73
     2
  0
TEXT
  5
   194
  8
0
  6
CONTINUOUS
 62
     7
 10
-519.254225855312
 20
152.512083500467
 30
0.0
 40
2.99999997871263
  1
Ø
 50
306.27250751355
 41
0.933333333333333
 72
     1
 11
-517.394118443488
 21
152.512689614754
 31
0.0
 73
     2
  0
LINE
  5
   195
  8
0
  6
CONTINUOUS
 62
     7
 10
-513.58212908953
 20
143.092432949825
 30
0.0
 11
-523.789481305023
 21
157.002042933372
 31
0.0
  0
LINE
  5
   196
  8
0
  6
CONTINUOUS
 62
     7
 10
-520.482692242082
 20
153.376394302316
 30
0.0
 11
-522.650598832257
 21
155.450082084089
 31
0.0
  0
LINE
  5
   197
  8
0
  6
CONTINUOUS
 62
     7
 10
-522.650598832257
 20
155.450082084089
 30
0.0
 11
-521.322675811592
 21
152.75998534769
 31
0.0
  0
LINE
  5
   198
  8
0
  6
CONTINUOUS
 62
     7
 10
-525.957387895198
 20
159.075730715145
 30
0.0
 11
-523.789481305023
 21
157.002042933372
 31
0.0
  0
LINE
  5
   199
  8
0
  6
CONTINUOUS
 62
     7
 10
-523.789481305023
 20
157.002042933372
 30
0.0
 11
-525.117404325688
 21
159.692139669772
 31
0.0
  0
ENDBLK
  5
   19A
  8
0
  6
CONTINUOUS
 62
     7
  0
BLOCK
  5
   19B
  8
0
  6
CONTINUOUS
 62
     7
  2
*UDIM750
 70
    65
 10
0.0
 20
0.0
 30
0.0
  3
*UDIM750
  0
TEXT
  5
   19C
  8
0
  6
CONTINUOUS
 62
     7
 10
-543.571349623285
 20
207.439539367545
 30
0.0
 40
2.99999997871263
  1
27,5
 50
359.999999948034
 41
0.933333333333333
 72
     1
 11
-538.27134965954
 21
208.939539352121
 31
0.0
 73
     2
  0
LINE
  5
   19D
  8
0
  6
CONTINUOUS
 62
     7
 10
-533.195017939806
 20
186.013537988145
 30
0.0
 11
-533.195017939806
 21
208.439539362764
 31
0.0
  0
LINE
  5
   19E
  8
0
  6
CONTINUOUS
 62
     7
 10
-542.820017775893
 20
176.213602241951
 30
0.0
 11
-542.820017775893
 21
208.439539362764
 31
0.0
  0
LINE
  5
   19F
  8
0
  6
CONTINUOUS
 62
     7
 10
-532.971349697147
 20
206.439539362764
 30
0.0
 11
-543.571349621932
 21
206.439539362764
 31
0.0
  0
LINE
  5
   1A0
  8
0
  6
CONTINUOUS
 62
     7
 10
-530.240594662599
 20
206.960483792716
 30
0.0
 11
-533.195017939806
 21
206.439539362764
 31
0.0
  0
LINE
  5
   1A1
  8
0
  6
CONTINUOUS
 62
     7
 10
-533.195017939806
 20
206.439539362764
 30
0.0
 11
-530.240594662599
 21
205.918594932813
 31
0.0
  0
LINE
  5
   1A2
  8
0
  6
CONTINUOUS
 62
     7
 10
-545.7744410531
 20
205.918594932813
 30
0.0
 11
-542.820017775893
 21
206.439539362764
 31
0.0
  0
LINE
  5
   1A3
  8
0
  6
CONTINUOUS
 62
     7
 10
-542.820017775893
 20
206.439539362764
 30
0.0
 11
-545.7744410531
 21
206.960483792716
 31
0.0
  0
ENDBLK
  5
   1A4
  8
0
  6
CONTINUOUS
 62
     7
  0
BLOCK
  5
   1A5
  8
0
  6
CONTINUOUS
 62
     7
  2
*UDIM751
 70
    65
 10
0.0
 20
0.0
 30
0.0
  3
*UDIM751
  0
TEXT
  5
   1A6
  8
0
  6
CONTINUOUS
 62
     7
 10
-505.51180971556
 20
84.1686373085523
 30
0.0
 40
2.99999997871263
  1
195,5
 50
359.999999948034
 41
0.933333333333333
 72
     1
 11
-498.811809761749
 21
85.6686372918656
 31
0.0
 73
     2
  0
LINE
  5
   1A7
  8
0
  6
CONTINUOUS
 62
     7
 10
-464.770020440221
 20
98.657315484939
 30
0.0
 11
-464.770020440221
 21
81.1686373025093
 31
0.0
  0
LINE
  5
   1A8
  8
0
  6
CONTINUOUS
 62
     7
 10
-533.195017939806
 20
127.663536945064
 30
0.0
 11
-533.195017939806
 21
81.1686373025093
 31
0.0
  0
LINE
  5
   1A9
  8
0
  6
CONTINUOUS
 62
     7
 10
-464.770020440221
 20
83.1686373025093
 30
0.0
 11
-533.195017939806
 21
83.1686373025093
 31
0.0
  0
LINE
  5
   1AA
  8
0
  6
CONTINUOUS
 62
     7
 10
-467.724443717428
 20
82.6476928725576
 30
0.0
 11
-464.770020440221
 21
83.1686373025093
 31
0.0
  0
LINE
  5
   1AB
  8
0
  6
CONTINUOUS
 62
     7
 10
-464.770020440221
 20
83.1686373025093
 30
0.0
 11
-467.724443717428
 21
83.689581732461
 31
0.0
  0
LINE
  5
   1AC
  8
0
  6
CONTINUOUS
 62
     7
 10
-530.240594662599
 20
83.689581732461
 30
0.0
 11
-533.195017939806
 21
83.1686373025093
 31
0.0
  0
LINE
  5
   1AD
  8
0
  6
CONTINUOUS
 62
     7
 10
-533.195017939806
 20
83.1686373025093
 30
0.0
 11
-530.240594662599
 21
82.6476928725576
 31
0.0
  0
ENDBLK
  5
   1AE
  8
0
  6
CONTINUOUS
 62
     7
  0
BLOCK
  5
   1AF
  8
0
  6
CONTINUOUS
 62
     7
  2
*UDIM752
 70
    65
 10
0.0
 20
0.0
 30
0.0
  3
*UDIM752
  0
TEXT
  5
   1B0
  8
0
  6
CONTINUOUS
 62
     7
 10
-502.054839957946
 20
90.5710801291228
 30
0.0
 40
2.99999997871263
  1
190
 50
359.999999948034
 41
0.933333333333333
 72
     1
 11
-498.154839984267
 21
92.0710801149616
 31
0.0
 73
     2
  0
LINE
  5
   1B1
  8
0
  6
CONTINUOUS
 62
     7
 10
-464.770020440221
 20
98.657315484939
 30
0.0
 11
-464.770020440221
 21
87.5710801256053
 31
0.0
  0
LINE
  5
   1B2
  8
0
  6
CONTINUOUS
 62
     7
 10
-531.270019307733
 20
103.874488524658
 30
0.0
 11
-531.270019307733
 21
87.5710801256053
 31
0.0
  0
LINE
  5
   1B3
  8
0
  6
CONTINUOUS
 62
     7
 10
-464.770020440221
 20
89.5710801256052
 30
0.0
 11
-531.270019307733
 21
89.5710801256052
 31
0.0
  0
LINE
  5
   1B4
  8
0
  6
CONTINUOUS
 62
     7
 10
-467.724443717428
 20
89.0501356956536
 30
0.0
 11
-464.770020440221
 21
89.5710801256052
 31
0.0
  0
LINE
  5
   1B5
  8
0
  6
CONTINUOUS
 62
     7
 10
-464.770020440221
 20
89.5710801256052
 30
0.0
 11
-467.724443717428
 21
90.0920245555569
 31
0.0
  0
LINE
  5
   1B6
  8
0
  6
CONTINUOUS
 62
     7
 10
-528.315596030526
 20
90.0920245555569
 30
0.0
 11
-531.270019307733
 21
89.5710801256052
 31
0.0
  0
LINE
  5
   1B7
  8
0
  6
CONTINUOUS
 62
     7
 10
-531.270019307733
 20
89.5710801256052
 30
0.0
 11
-528.315596030526
 21
89.0501356956536
 31
0.0
  0
ENDBLK
  5
   1B8
  8
0
  6
CONTINUOUS
 62
     7
  0
BLOCK
  5
   1B9
  8
0
  6
CONTINUOUS
 62
     7
  2
*UDIM753
 70
    65
 10
0.0
 20
0.0
 30
0.0
  3
*UDIM753
  0
TEXT
  5
   1BA
  8
0
  6
CONTINUOUS
 62
     7
 10
-527.697195141127
 20
90.5710801265974
 30
0.0
 40
2.99999997871263
  1
2
 50
359.999999948034
 41
0.933333333333333
 72
     1
 11
-526.597195147579
 21
92.0710801149616
 31
0.0
 73
     2
  0
LINE
  5
   1BB
  8
0
  6
CONTINUOUS
 62
     7
 10
-531.970019295812
 20
103.756510998577
 30
0.0
 11
-531.970019295812
 21
87.5710801256053
 31
0.0
  0
LINE
  5
   1BC
  8
0
  6
CONTINUOUS
 62
     7
 10
-525.497195155385
 20
89.5710801256052
 30
0.0
 11
-531.970019295812
 21
89.5710801256052
 31
0.0
  0
LINE
  5
   1BD
  8
0
  6
CONTINUOUS
 62
     7
 10
-528.315596030526
 20
90.0920245555569
 30
0.0
 11
-531.270019307733
 21
89.5710801256052
 31
0.0
  0
LINE
  5
   1BE
  8
0
  6
CONTINUOUS
 62
     7
 10
-531.270019307733
 20
89.5710801256052
 30
0.0
 11
-528.315596030526
 21
89.0501356956536
 31
0.0
  0
LINE
  5
   1BF
  8
0
  6
CONTINUOUS
 62
     7
 10
-534.924442573019
 20
89.0501356956536
 30
0.0
 11
-531.970019295812
 21
89.5710801256052
 31
0.0
  0
LINE
  5
   1C0
  8
0
  6
CONTINUOUS
 62
     7
 10
-531.970019295812
 20
89.5710801256052
 30
0.0
 11
-534.924442573019
 21
90.0920245555569
 31
0.0
  0
ENDBLK
  5
   1C1
  8
0
  6
CONTINUOUS
 62
     7
  0
BLOCK
  5
   1C2
  8
0
  6
CONTINUOUS
 62
     7
  2
*UDIM754
 70
    65
 10
0.0
 20
0.0
 30
0.0
  3
*UDIM754
  0
TEXT
  5
   1C3
  8
0
  6
CONTINUOUS
 62
     7
 10
-498.170030153423
 20
96.6390667048628
 30
0.0
 40
2.99999997871263
  1
167
 50
359.999999948034
 41
0.933333333333333
 72
     1
 11
-494.270030179744
 21
98.1390666907015
 31
0.0
 73
     2
  0
LINE
  5
   1C4
  8
0
  6
CONTINUOUS
 62
     7
 10
-464.770020440221
 20
98.657315484939
 30
0.0
 11
-464.770020440221
 21
93.6390667013452
 31
0.0
  0
LINE
  5
   1C5
  8
0
  6
CONTINUOUS
 62
     7
 10
-523.220043111521
 20
151.376067651372
 30
0.0
 11
-523.220043111521
 21
93.6390667013452
 31
0.0
  0
LINE
  5
   1C6
  8
0
  6
CONTINUOUS
 62
     7
 10
-464.770020440221
 20
95.6390667013452
 30
0.0
 11
-523.220043111521
 21
95.6390667013452
 31
0.0
  0
LINE
  5
   1C7
  8
0
  6
CONTINUOUS
 62
     7
 10
-467.724443717428
 20
95.1181222713935
 30
0.0
 11
-464.770020440221
 21
95.6390667013452
 31
0.0
  0
LINE
  5
   1C8
  8
0
  6
CONTINUOUS
 62
     7
 10
-464.770020440221
 20
95.6390667013452
 30
0.0
 11
-467.724443717428
 21
96.1600111312969
 31
0.0
  0
LINE
  5
   1C9
  8
0
  6
CONTINUOUS
 62
     7
 10
-520.265619834313
 20
96.1600111312969
 30
0.0
 11
-523.220043111521
 21
95.6390667013452
 31
0.0
  0
LINE
  5
   1CA
  8
0
  6
CONTINUOUS
 62
     7
 10
-523.220043111521
 20
95.6390667013452
 30
0.0
 11
-520.265619834313
 21
95.1181222713935
 31
0.0
  0
ENDBLK
  5
   1CB
  8
0
  6
CONTINUOUS
 62
     7
  0
BLOCK
  5
   1CC
  8
0
  6
CONTINUOUS
 62
     7
  2
*UDIM755
 70
    65
 10
0.0
 20
0.0
 30
0.0
  3
*UDIM755
  0
TEXT
  5
   1CD
  8
0
  6
CONTINUOUS
 62
     7
 10
-550.709215393121
 20
152.663595019064
 30
0.0
 40
2.99999997871263
  1
105
 50
89.9999999480344
 41
0.933333333333333
 72
     1
 11
-552.209215378945
 21
156.563594992749
 31
0.0
 73
     2
  0
LINE
  5
   1CE
  8
0
  6
CONTINUOUS
 62
     7
 10
-532.270017972589
 20
138.463585510927
 30
0.0
 11
-551.709215389589
 21
138.463585510927
 31
0.0
  0
LINE
  5
   1CF
  8
0
  6
CONTINUOUS
 62
     7
 10
-532.270017972589
 20
175.213602241951
 30
0.0
 11
-551.709215389589
 21
175.213602241951
 31
0.0
  0
LINE
  5
   1D0
  8
0
  6
CONTINUOUS
 62
     7
 10
-549.709215389589
 20
138.463585510927
 30
0.0
 11
-549.709215389589
 21
175.213602241951
 31
0.0
  0
LINE
  5
   1D1
  8
0
  6
CONTINUOUS
 62
     7
 10
-550.230159819541
 20
141.418008788134
 30
0.0
 11
-549.709215389589
 21
138.463585510927
 31
0.0
  0
LINE
  5
   1D2
  8
0
  6
CONTINUOUS
 62
     7
 10
-549.709215389589
 20
138.463585510927
 30
0.0
 11
-549.188270959637
 21
141.418008788134
 31
0.0
  0
LINE
  5
   1D3
  8
0
  6
CONTINUOUS
 62
     7
 10
-549.188270959637
 20
172.259178964744
 30
0.0
 11
-549.709215389589
 21
175.213602241951
 31
0.0
  0
LINE
  5
   1D4
  8
0
  6
CONTINUOUS
 62
     7
 10
-549.709215389589
 20
175.213602241951
 30
0.0
 11
-550.230159819541
 21
172.259178964744
 31
0.0
  0
ENDBLK
  5
   1D5
  8
0
  6
CONTINUOUS
 62
     7
  0
BLOCK
  5
   1D6
  8
0
  6
CONTINUOUS
 62
     7
  2
*UDIM756
 70
    65
 10
0.0
 20
0.0
 30
0.0
  3
*UDIM756
  0
TEXT
  5
   1D7
  8
0
  6
CONTINUOUS
 62
     7
 10
-505.427637720095
 20
145.195513974955
 30
0.0
 40
2.99999997871263
  1
1,75
 50
89.9999999480344
 41
0.933333333333333
 72
     1
 11
-506.927637704651
 21
150.495513938706
 31
0.0
 73
     2
  0
LINE
  5
   1D8
  8
0
  6
CONTINUOUS
 62
     7
 10
-518.370046157749
 20
156.226064605144
 30
0.0
 11
-502.427637715295
 21
156.226064605144
 31
0.0
  0
LINE
  5
   1D9
  8
0
  6
CONTINUOUS
 62
     7
 10
-504.427637715295
 20
145.195513976314
 30
0.0
 11
-504.427637715295
 21
156.838602554875
 31
0.0
  0
LINE
  5
   1DA
  8
0
  6
CONTINUOUS
 62
     7
 10
-503.906693285343
 20
153.271641327937
 30
0.0
 11
-504.427637715295
 21
156.226064605144
 31
0.0
  0
LINE
  5
   1DB
  8
0
  6
CONTINUOUS
 62
     7
 10
-504.427637715295
 20
156.226064605144
 30
0.0
 11
-504.948582145247
 21
153.271641327937
 31
0.0
  0
LINE
  5
   1DC
  8
0
  6
CONTINUOUS
 62
     7
 10
-504.948582145247
 20
159.793025832082
 30
0.0
 11
-504.427637715295
 21
156.838602554875
 31
0.0
  0
LINE
  5
   1DD
  8
0
  6
CONTINUOUS
 62
     7
 10
-504.427637715295
 20
156.838602554875
 30
0.0
 11
-503.906693285343
 21
159.793025832082
 31
0.0
  0
ENDBLK
  5
   1DE
  8
0
  6
CONTINUOUS
 62
     7
  0
BLOCK
  5
   1DF
  8
0
  6
CONTINUOUS
 62
     7
  2
*UDIM757
 70
    65
 10
0.0
 20
0.0
 30
0.0
  3
*UDIM757
  0
TEXT
  5
   1E0
  8
0
  6
CONTINUOUS
 62
     7
 10
-510.683120219004
 20
11.748005546604
 30
0.0
 40
3.50000458955765
  1
PART. Z
 50
359.999999844103
 41
0.933333333333333
 72
     1
 11
-499.599772347319
 21
13.4980078112817
 31
0.0
 73
     2
  0
LINE
  5
   1E1
  8
0
  6
CONTINUOUS
 62
     7
 10
-472.932514913697
 20
-4.81083476716125
 30
0.0
 11
-483.516424525104
 21
9.7480053247109
 31
0.0
  0
LINE
  5
   1E2
  8
0
  6
CONTINUOUS
 62
     7
 10
-510.683120258969
 20
9.7480056486705
 30
0.0
 11
-483.516424525104
 21
9.7480053247109
 31
0.0
  0
LINE
  5
   1E3
  8
0
  6
CONTINUOUS
 62
     7
 10
-475.264486740045
 20
-2.92353314815161
 30
0.0
 11
-472.932514913697
 21
-4.81083476716125
 31
0.0
  0
LINE
  5
   1E4
  8
0
  6
CONTINUOUS
 62
     7
 10
-472.932514913697
 20
-4.81083476716125
 30
0.0
 11
-474.008410905916
 21
-2.0103976916448
 31
0.0
  0
ENDBLK
  5
   1E5
  8
0
  6
CONTINUOUS
 62
     7
  0
BLOCK
  5
   1E6
  8
0
  6
CONTINUOUS
 62
     7
  2
*UDIM758
 70
    65
 10
0.0
 20
0.0
 30
0.0
  3
*UDIM758
  0
TEXT
  5
   1E7
  8
0
  6
CONTINUOUS
 62
     7
 10
-489.26832278311
 20
2.83721418320784
 30
0.0
 40
3.00000002980232
  1
7
 50
327.636338641529
 41
0.933333333333334
 72
     1
 11
-487.536251629065
 21
3.51539526969509
 31
0.0
 73
     2
  0
TEXT
  5
   1E8
  8
0
  6
CONTINUOUS
 62
     7
 10
-492.646993183631
 20
4.97837895105421
 30
0.0
 40
3.00000002980232
  1
Ø
 50
327.636338641529
 41
1.2
 72
     1
 11
-490.577054989218
 21
5.44244355939907
 31
0.0
 73
     2
  0
LINE
  5
   1E9
  8
0
  6
CONTINUOUS
 62
     7
 10
-493.182284370114
 20
4.13371135144934
 30
0.0
 11
-472.620158451761
 21
-8.89712454635491
 31
0.0
  0
LINE
  5
   1EA
  8
0
  6
CONTINUOUS
 62
     7
 10
-481.184954110825
 20
-4.38860248177332
 30
0.0
 11
-478.321664711141
 21
-5.28390902908344
 31
0.0
  0
LINE
  5
   1EB
  8
0
  6
CONTINUOUS
 62
     7
 10
-478.321664711141
 20
-5.28390902908344
 30
0.0
 11
-480.353692763842
 21
-3.07690608548867
 31
0.0
  0
LINE
  5
   1EC
  8
0
  6
CONTINUOUS
 62
     7
 10
-473.980207021988
 20
-7.11597515494543
 30
0.0
 11
-476.843496421672
 21
-6.22066860763531
 31
0.0
  0
LINE
  5
   1ED
  8
0
  6
CONTINUOUS
 62
     7
 10
-476.843496421672
 20
-6.22066860763531
 30
0.0
 11
-474.811468368971
 21
-8.42767155123007
 31
0.0
  0
ENDBLK
  5
   1EE
  8
0
  6
CONTINUOUS
 62
     7
  0
BLOCK
  5
   1EF
  8
0
  6
CONTINUOUS
 62
     7
  2
*UDIM759
 70
    65
 10
0.0
 20
0.0
 30
0.0
  3
*UDIM759
  0
TEXT
  5
   1F0
  8
0
  6
CONTINUOUS
 62
     7
 10
-434.982881766615
 20
-52.7424499660874
 30
0.0
 40
3.00000002980232
  1
7
 50
311.097760617497
 41
0.933333333333334
 72
     1
 11
-433.129417748916
 21
-52.5853792691348
 31
0.0
 73
     2
  0
TEXT
  5
   1F1
  8
0
  6
CONTINUOUS
 62
     7
 10
-437.612264963867
 20
-49.728093610176
 30
0.0
 40
3.00000002980232
  1
Ø
 50
311.097760617497
 41
1.2
 72
     1
 11
-435.495862626528
 21
-49.872458550206
 31
0.0
 73
     2
  0
LINE
  5
   1F2
  8
0
  6
CONTINUOUS
 62
     7
 10
-450.1944871098
 20
-36.8249529546497
 30
0.0
 11
-434.290310086842
 21
-55.0576917652187
 31
0.0
  0
LINE
  5
   1F3
  8
0
  6
CONTINUOUS
 62
     7
 10
-449.397729609097
 20
-38.9195657477376
 30
0.0
 11
-446.907758136699
 21
-40.5928983705728
 31
0.0
  0
LINE
  5
   1F4
  8
0
  6
CONTINUOUS
 62
     7
 10
-446.907758136699
 20
-40.5928983705728
 30
0.0
 11
-448.227470335822
 21
-37.8987640547885
 31
0.0
  0
LINE
  5
   1F5
  8
0
  6
CONTINUOUS
 62
     7
 10
-443.267431523716
 20
-43.5850118889812
 30
0.0
 11
-445.757402996114
 21
-41.911679266146
 31
0.0
  0
LINE
  5
   1F6
  8
0
  6
CONTINUOUS
 62
     7
 10
-445.757402996114
 20
-41.911679266146
 30
0.0
 11
-444.437690796991
 21
-44.6058135819303
 31
0.0
  0
ENDBLK
  5
   1F7
  8
0
  6
CONTINUOUS
 62
     7
  0
BLOCK
  5
   1F8
  8
0
  6
CONTINUOUS
 62
     7
  2
*UDIM760
 70
    65
 10
0.0
 20
0.0
 30
0.0
  3
*UDIM760
  0
TEXT
  5
   1F9
  8
0
  6
CONTINUOUS
 62
     7
 10
-425.840986151967
 20
8.649833780882
 30
0.0
 40
3.00000002980232
  1
8
 50
392.812542019881
 41
0.933333333333334
 72
     1
 11
-425.729331642242
 21
10.506587221488
 31
0.0
 73
     2
  0
TEXT
  5
   1FA
  8
0
  6
CONTINUOUS
 62
     7
 10
-428.48839736726
 20
6.94287334791208
 30
0.0
 40
3.00000002980232
  1
Ø
 50
392.812542019881
 41
0.933333333333334
 72
     1
 11
-428.376742857535
 21
8.79962678851804
 31
0.0
 73
     2
  0
TEXT
  5
   1FB
  8
0
  6
CONTINUOUS
 62
     7
 10
-442.565901559759
 20
-2.13382106694803
 30
0.0
 40
3.00000002980232
  1
3 fori
 50
392.812542019881
 41
0.933333333333333
 72
     1
 11
-436.571110965859
 21
3.51617779000232
 31
0.0
 73
     2
  0
LINE
  5
   1FC
  8
0
  6
CONTINUOUS
 62
     7
 10
-423.450108324473
 20
9.00154862853194
 30
0.0
 11
-447.173028568611
 21
-6.29418101759326
 31
0.0
  0
LINE
  5
   1FD
  8
0
  6
CONTINUOUS
 62
     7
 10
-443.291389146032
 20
-3.17159098655964
 30
0.0
 11
-445.492132564202
 21
-5.21039661912549
 31
0.0
  0
LINE
  5
   1FE
  8
0
  6
CONTINUOUS
 62
     7
 10
-445.492132564202
 20
-5.21039661912549
 30
0.0
 11
-442.726797700382
 21
-4.04724439738448
 31
0.0
  0
LINE
  5
   1FF
  8
0
  6
CONTINUOUS
 62
     7
 10
-449.373771986781
 20
-8.33298665015911
 30
0.0
 11
-447.173028568611
 21
-6.29418101759326
 31
0.0
  0
LINE
  5
   200
  8
0
  6
CONTINUOUS
 62
     7
 10
-447.173028568611
 20
-6.29418101759326
 30
0.0
 11
-449.938363432431
 21
-7.45733323933427
 31
0.0
  0
ENDBLK
  5
   201
  8
0
  6
CONTINUOUS
 62
     7
  0
BLOCK
  5
   202
  8
0
  6
CONTINUOUS
 62
     7
  2
*UDIM761
 70
    65
 10
0.0
 20
0.0
 30
0.0
  3
*UDIM761
  0
TEXT
  5
   203
  8
0
  6
CONTINUOUS
 62
     7
 10
-464.588422139163
 20
-62.0828818940848
 30
0.0
 40
3.00000002980232
  1
R min.200
 50
359.999999844103
 41
0.933333333333333
 72
     1
 11
-452.2884220129
 21
-60.5828819125891
 31
0.0
 73
     2
  0
LINE
  5
   204
  8
0
  6
CONTINUOUS
 62
     7
 10
-466.582580566406
 20
-47.6474701359108
 30
0.0
 11
-466.582580566406
 21
-65.0828819274902
 31
0.0
  0
LINE
  5
   205
  8
0
  6
CONTINUOUS
 62
     7
 10
-437.940204602131
 20
-60.0831506267515
 30
0.0
 11
-437.940204602131
 21
-65.0828819274902
 31
0.0
  0
LINE
  5
   206
  8
0
  6
CONTINUOUS
 62
     7
 10
-466.582580566406
 20
-63.0828819274902
 30
0.0
 11
-437.940204602131
 21
-63.0828819274902
 31
0.0
  0
LINE
  5
   207
  8
0
  6
CONTINUOUS
 62
     7
 10
-469.537003843613
 20
-63.6038263574419
 30
0.0
 11
-466.582580566406
 21
-63.0828819274902
 31
0.0
  0
LINE
  5
   208
  8
0
  6
CONTINUOUS
 62
     7
 10
-466.582580566406
 20
-63.0828819274902
 30
0.0
 11
-469.537003843613
 21
-62.5619374975386
 31
0.0
  0
LINE
  5
   209
  8
0
  6
CONTINUOUS
 62
     7
 10
-434.985781324924
 20
-62.5619374975386
 30
0.0
 11
-437.940204602131
 21
-63.0828819274902
 31
0.0
  0
LINE
  5
   20A
  8
0
  6
CONTINUOUS
 62
     7
 10
-437.940204602131
 20
-63.0828819274902
 30
0.0
 11
-434.985781324924
 21
-63.6038263574419
 31
0.0
  0
ENDBLK
  5
   20B
  8
0
  6
CONTINUOUS
 62
     7
  0
BLOCK
  5
   20C
  8
0
  6
CONTINUOUS
 62
     7
  2
*UDIM762
 70
    65
 10
0.0
 20
0.0
 30
0.0
  3
*UDIM762
  0
TEXT
  5
   20D
  8
0
  6
CONTINUOUS
 62
     7
 10
-504.122501387679
 20
-20.0147888810426
 30
0.0
 40
3.00000002980232
  1
72,5
 50
449.999999844103
 41
0.933333333333333
 72
     1
 11
-505.622501388192
 21
-14.7147888243198
 31
0.0
 73
     2
  0
LINE
  5
   20E
  8
0
  6
CONTINUOUS
 62
     7
 10
-474.877580566406
 20
-5.37728881835938
 30
0.0
 11
-505.122501373291
 21
-5.37728881835938
 31
0.0
  0
LINE
  5
   20F
  8
0
  6
CONTINUOUS
 62
     7
 10
-495.04330532955
 20
-23.5022888183594
 30
0.0
 11
-505.122501373291
 21
-23.5022888183594
 31
0.0
  0
LINE
  5
   210
  8
0
  6
CONTINUOUS
 62
     7
 10
-503.122501373291
 20
-5.37728881835938
 30
0.0
 11
-503.122501373291
 21
-23.5022888183594
 31
0.0
  0
LINE
  5
   211
  8
0
  6
CONTINUOUS
 62
     7
 10
-502.601556943339
 20
-8.33171209556634
 30
0.0
 11
-503.122501373291
 21
-5.37728881835938
 31
0.0
  0
LINE
  5
   212
  8
0
  6
CONTINUOUS
 62
     7
 10
-503.122501373291
 20
-5.37728881835938
 30
0.0
 11
-503.643445803243
 21
-8.33171209556634
 31
0.0
  0
LINE
  5
   213
  8
0
  6
CONTINUOUS
 62
     7
 10
-503.643445803243
 20
-20.5478655411524
 30
0.0
 11
-503.122501373291
 21
-23.5022888183594
 31
0.0
  0
LINE
  5
   214
  8
0
  6
CONTINUOUS
 62
     7
 10
-503.122501373291
 20
-23.5022888183594
 30
0.0
 11
-502.601556943339
 21
-20.5478655411524
 31
0.0
  0
ENDBLK
  5
   215
  8
0
  6
CONTINUOUS
 62
     7
  0
BLOCK
  5
   216
  8
0
  6
CONTINUOUS
 62
     7
  2
*UDIM763
 70
    65
 10
0.0
 20
0.0
 30
0.0
  3
*UDIM763
  0
TEXT
  5
   217
  8
0
  6
CONTINUOUS
 62
     7
 10
-457.278561621011
 20
5.35526848518327
 30
0.0
 40
3.00000002980232
  1
45
 50
359.999999844103
 41
0.933333333333333
 72
     1
 11
-454.778561592102
 21
6.85526849329472
 31
0.0
 73
     2
  0
LINE
  5
   218
  8
0
  6
CONTINUOUS
 62
     7
 10
-472.207580566406
 20
-2.70728881835937
 30
0.0
 11
-472.207580566406
 21
6.35526847839355
 31
0.0
  0
LINE
  5
   219
  8
0
  6
CONTINUOUS
 62
     7
 10
-460.957580566406
 20
-2.70728881835937
 30
0.0
 11
-460.957580566406
 21
6.35526847839355
 31
0.0
  0
LINE
  5
   21A
  8
0
  6
CONTINUOUS
 62
     7
 10
-472.207580566406
 20
4.35526847839355
 30
0.0
 11
-452.278561567267
 21
4.35526847839355
 31
0.0
  0
LINE
  5
   21B
  8
0
  6
CONTINUOUS
 62
     7
 10
-475.162003843613
 20
3.83432404844189
 30
0.0
 11
-472.207580566406
 21
4.35526847839355
 31
0.0
  0
LINE
  5
   21C
  8
0
  6
CONTINUOUS
 62
     7
 10
-472.207580566406
 20
4.35526847839355
 30
0.0
 11
-475.162003843613
 21
4.87621290834522
 31
0.0
  0
LINE
  5
   21D
  8
0
  6
CONTINUOUS
 62
     7
 10
-458.003157289199
 20
4.87621290834522
 30
0.0
 11
-460.957580566406
 21
4.35526847839355
 31
0.0
  0
LINE
  5
   21E
  8
0
  6
CONTINUOUS
 62
     7
 10
-460.957580566406
 20
4.35526847839355
 30
0.0
 11
-458.003157289199
 21
3.83432404844189
 31
0.0
  0
ENDBLK
  5
   21F
  8
0
  6
CONTINUOUS
 62
     7
  0
BLOCK
  5
   220
  8
0
  6
CONTINUOUS
 62
     7
  2
*UDIM764
 70
    65
 10
0.0
 20
0.0
 30
0.0
  3
*UDIM764
  0
TEXT
  5
   221
  8
0
  6
CONTINUOUS
 62
     7
 10
-428.290924090454
 20
-20.6022885075201
 30
0.0
 40
3.00000002980232
  1
27,25
 50
449.999999844103
 41
0.933333333333333
 72
     1
 11
-429.790924087167
 21
-13.9022884368896
 31
0.0
 73
     2
  0
LINE
  5
   222
  8
0
  6
CONTINUOUS
 62
     7
 10
-437.589852266269
 20
-23.5022888183594
 30
0.0
 11
-425.290924072266
 21
-23.5022888183594
 31
0.0
  0
LINE
  5
   223
  8
0
  6
CONTINUOUS
 62
     7
 10
-440.327274166965
 20
-30.3147888183594
 30
0.0
 11
-425.290924072266
 21
-30.3147888183594
 31
0.0
  0
LINE
  5
   224
  8
0
  6
CONTINUOUS
 62
     7
 10
-427.290924072266
 20
-7.20228837033113
 30
0.0
 11
-427.290924072266
 21
-30.3147888183594
 31
0.0
  0
LINE
  5
   225
  8
0
  6
CONTINUOUS
 62
     7
 10
-427.811868502217
 20
-20.5478655411524
 30
0.0
 11
-427.290924072266
 21
-23.5022888183594
 31
0.0
  0
LINE
  5
   226
  8
0
  6
CONTINUOUS
 62
     7
 10
-427.290924072266
 20
-23.5022888183594
 30
0.0
 11
-426.769979642314
 21
-20.5478655411524
 31
0.0
  0
LINE
  5
   227
  8
0
  6
CONTINUOUS
 62
     7
 10
-426.769979642314
 20
-33.2692120955663
 30
0.0
 11
-427.290924072266
 21
-30.3147888183594
 31
0.0
  0
LINE
  5
   228
  8
0
  6
CONTINUOUS
 62
     7
 10
-427.290924072266
 20
-30.3147888183594
 30
0.0
 11
-427.811868502217
 21
-33.2692120955663
 31
0.0
  0
ENDBLK
  5
   229
  8
0
  6
CONTINUOUS
 62
     7
  0
BLOCK
  5
   22A
  8
0
  6
CONTINUOUS
 62
     7
  2
*UDIM765
 70
    65
 10
0.0
 20
0.0
 30
0.0
  3
*UDIM765
  0
TEXT
  5
   22B
  8
0
  6
CONTINUOUS
 62
     7
 10
-422.873447421199
 20
-15.0690231234818
 30
0.0
 40
3.00000002980232
  1
=
 50
449.999999844103
 41
0.933333333333334
 72
     1
 11
-424.373447433114
 21
-13.9690231084824
 31
0.0
 73
     2
  0
LINE
  5
   22C
  8
0
  6
CONTINUOUS
 62
     7
 10
-443.707580566406
 20
-5.75228881835938
 30
0.0
 11
-419.873447418213
 21
-5.75228881835938
 31
0.0
  0
LINE
  5
   22D
  8
0
  6
CONTINUOUS
 62
     7
 10
-443.707580566406
 20
-23.5022888183594
 30
0.0
 11
-419.873447418213
 21
-23.5022888183594
 31
0.0
  0
LINE
  5
   22E
  8
0
  6
CONTINUOUS
 62
     7
 10
-421.873447418213
 20
-5.75228881835938
 30
0.0
 11
-421.873447418213
 21
-23.5022888183594
 31
0.0
  0
LINE
  5
   22F
  8
0
  6
CONTINUOUS
 62
     7
 10
-421.352502988261
 20
-8.70671209556634
 30
0.0
 11
-421.873447418213
 21
-5.75228881835938
 31
0.0
  0
LINE
  5
   230
  8
0
  6
CONTINUOUS
 62
     7
 10
-421.873447418213
 20
-5.75228881835938
 30
0.0
 11
-422.394391848165
 21
-8.70671209556634
 31
0.0
  0
LINE
  5
   231
  8
0
  6
CONTINUOUS
 62
     7
 10
-422.394391848165
 20
-20.5478655411524
 30
0.0
 11
-421.873447418213
 21
-23.5022888183594
 31
0.0
  0
LINE
  5
   232
  8
0
  6
CONTINUOUS
 62
     7
 10
-421.873447418213
 20
-23.5022888183594
 30
0.0
 11
-421.352502988261
 21
-20.5478655411524
 31
0.0
  0
ENDBLK
  5
   233
  8
0
  6
CONTINUOUS
 62
     7
  0
BLOCK
  5
   234
  8
0
  6
CONTINUOUS
 62
     7
  2
*UDIM766
 70
    65
 10
0.0
 20
0.0
 30
0.0
  3
*UDIM766
  0
TEXT
  5
   235
  8
0
  6
CONTINUOUS
 62
     7
 10
-422.873447421199
 20
-32.8190231234818
 30
0.0
 40
3.00000002980232
  1
=
 50
449.999999844103
 41
0.933333333333334
 72
     1
 11
-424.373447433114
 21
-31.7190231084824
 31
0.0
 73
     2
  0
LINE
  5
   236
  8
0
  6
CONTINUOUS
 62
     7
 10
-443.707580566406
 20
-41.2522888183594
 30
0.0
 11
-419.873447418213
 21
-41.2522888183594
 31
0.0
  0
LINE
  5
   237
  8
0
  6
CONTINUOUS
 62
     7
 10
-421.873447418213
 20
-23.5022888183594
 30
0.0
 11
-421.873447418213
 21
-41.2522888183594
 31
0.0
  0
LINE
  5
   238
  8
0
  6
CONTINUOUS
 62
     7
 10
-421.352502988261
 20
-26.4567120955663
 30
0.0
 11
-421.873447418213
 21
-23.5022888183594
 31
0.0
  0
LINE
  5
   239
  8
0
  6
CONTINUOUS
 62
     7
 10
-421.873447418213
 20
-23.5022888183594
 30
0.0
 11
-422.394391848165
 21
-26.4567120955663
 31
0.0
  0
LINE
  5
   23A
  8
0
  6
CONTINUOUS
 62
     7
 10
-422.394391848165
 20
-38.2978655411524
 30
0.0
 11
-421.873447418213
 21
-41.2522888183594
 31
0.0
  0
LINE
  5
   23B
  8
0
  6
CONTINUOUS
 62
     7
 10
-421.873447418213
 20
-41.2522888183594
 30
0.0
 11
-421.352502988261
 21
-38.2978655411524
 31
0.0
  0
ENDBLK
  5
   23C
  8
0
  6
CONTINUOUS
 62
     7
  0
BLOCK
  5
   23D
  8
0
  6
CONTINUOUS
 62
     7
  2
*UDIM767
 70
    65
 10
0.0
 20
0.0
 30
0.0
  3
*UDIM767
  0
TEXT
  5
   23E
  8
0
  6
CONTINUOUS
 62
     7
 10
-496.725919734098
 20
-27.6772888671348
 30
0.0
 40
3.00000002980232
  1
126
 50
449.999999844103
 41
0.933333333333333
 72
     1
 11
-498.225919738412
 21
-23.7772888243198
 31
0.0
 73
     2
  0
LINE
  5
   23F
  8
0
  6
CONTINUOUS
 62
     7
 10
-485.582580566406
 20
-7.75228881835938
 30
0.0
 11
-497.725919723511
 21
-7.75228881835938
 31
0.0
  0
LINE
  5
   240
  8
0
  6
CONTINUOUS
 62
     7
 10
-485.582580566406
 20
-39.2522888183594
 30
0.0
 11
-497.725919723511
 21
-39.2522888183594
 31
0.0
  0
LINE
  5
   241
  8
0
  6
CONTINUOUS
 62
     7
 10
-495.725919723511
 20
-7.75228881835938
 30
0.0
 11
-495.725919723511
 21
-39.2522888183594
 31
0.0
  0
LINE
  5
   242
  8
0
  6
CONTINUOUS
 62
     7
 10
-495.204975293559
 20
-10.7067120955663
 30
0.0
 11
-495.725919723511
 21
-7.75228881835938
 31
0.0
  0
LINE
  5
   243
  8
0
  6
CONTINUOUS
 62
     7
 10
-495.725919723511
 20
-7.75228881835938
 30
0.0
 11
-496.246864153462
 21
-10.7067120955663
 31
0.0
  0
LINE
  5
   244
  8
0
  6
CONTINUOUS
 62
     7
 10
-496.246864153462
 20
-36.2978655411524
 30
0.0
 11
-495.725919723511
 21
-39.2522888183594
 31
0.0
  0
LINE
  5
   245
  8
0
  6
CONTINUOUS
 62
     7
 10
-495.725919723511
 20
-39.2522888183594
 30
0.0
 11
-495.204975293559
 21
-36.2978655411524
 31
0.0
  0
ENDBLK
  5
   246
  8
0
  6
CONTINUOUS
 62
     7
  0
BLOCK
  5
   247
  8
0
  6
CONTINUOUS
 62
     7
  2
*UDIM768
 70
    65
 10
0.0
 20
0.0
 30
0.0
  3
*UDIM768
  0
TEXT
  5
   248
  8
0
  6
CONTINUOUS
 62
     7
 10
-416.17643357382
 20
-27.6772888671348
 30
0.0
 40
3.00000002980232
  1
142
 50
449.999999844103
 41
0.933333333333333
 72
     1
 11
-417.676433578134
 21
-23.7772888243198
 31
0.0
 73
     2
  0
LINE
  5
   249
  8
0
  6
CONTINUOUS
 62
     7
 10
-474.957580566406
 20
-5.75228881835938
 30
0.0
 11
-413.176433563233
 21
-5.75228881835938
 31
0.0
  0
LINE
  5
   24A
  8
0
  6
CONTINUOUS
 62
     7
 10
-443.707580566406
 20
-41.2522888183594
 30
0.0
 11
-413.176433563233
 21
-41.2522888183594
 31
0.0
  0
LINE
  5
   24B
  8
0
  6
CONTINUOUS
 62
     7
 10
-415.176433563232
 20
-5.75228881835938
 30
0.0
 11
-415.176433563232
 21
-41.2522888183594
 31
0.0
  0
LINE
  5
   24C
  8
0
  6
CONTINUOUS
 62
     7
 10
-414.655489133281
 20
-8.70671209556634
 30
0.0
 11
-415.176433563232
 21
-5.75228881835938
 31
0.0
  0
LINE
  5
   24D
  8
0
  6
CONTINUOUS
 62
     7
 10
-415.176433563232
 20
-5.75228881835938
 30
0.0
 11
-415.697377993184
 21
-8.70671209556634
 31
0.0
  0
LINE
  5
   24E
  8
0
  6
CONTINUOUS
 62
     7
 10
-415.697377993184
 20
-38.2978655411524
 30
0.0
 11
-415.176433563232
 21
-41.2522888183594
 31
0.0
  0
LINE
  5
   24F
  8
0
  6
CONTINUOUS
 62
     7
 10
-415.176433563232
 20
-41.2522888183594
 30
0.0
 11
-414.655489133281
 21
-38.2978655411524
 31
0.0
  0
ENDBLK
  5
   250
  8
0
  6
CONTINUOUS
 62
     7
  0
BLOCK
  5
   251
  8
0
  6
CONTINUOUS
 62
     7
  2
*UDIM769
 70
    65
 10
0.0
 20
0.0
 30
0.0
  3
*UDIM769
  0
TEXT
  5
   252
  8
0
  6
CONTINUOUS
 62
     7
 10
-459.565111167065
 20
-33.0045265546431
 30
0.0
 40
3.00000002980232
  1
16
 50
449.999999844103
 41
0.933333333333333
 72
     1
 11
-461.06511117518
 21
-30.5045265257359
 31
0.0
 73
     2
  0
LINE
  5
   253
  8
0
  6
CONTINUOUS
 62
     7
 10
-451.832580566406
 20
-28.3147888183594
 30
0.0
 11
-460.565111160278
 21
-28.3147888183594
 31
0.0
  0
LINE
  5
   254
  8
0
  6
CONTINUOUS
 62
     7
 10
-451.832580566406
 20
-32.3147888183594
 30
0.0
 11
-460.565111160278
 21
-32.3147888183594
 31
0.0
  0
LINE
  5
   255
  8
0
  6
CONTINUOUS
 62
     7
 10
-458.565111160278
 20
-28.0045265009006
 30
0.0
 11
-458.565111160278
 21
-33.0045265505711
 31
0.0
  0
LINE
  5
   256
  8
0
  6
CONTINUOUS
 62
     7
 10
-459.08605559023
 20
-25.3603655411524
 30
0.0
 11
-458.565111160278
 21
-28.3147888183594
 31
0.0
  0
LINE
  5
   257
  8
0
  6
CONTINUOUS
 62
     7
 10
-458.565111160278
 20
-28.3147888183594
 30
0.0
 11
-458.044166730327
 21
-25.3603655411524
 31
0.0
  0
LINE
  5
   258
  8
0
  6
CONTINUOUS
 62
     7
 10
-458.044166730327
 20
-35.2692120955663
 30
0.0
 11
-458.565111160278
 21
-32.3147888183594
 31
0.0
  0
LINE
  5
   259
  8
0
  6
CONTINUOUS
 62
     7
 10
-458.565111160278
 20
-32.3147888183594
 30
0.0
 11
-459.08605559023
 21
-35.2692120955663
 31
0.0
  0
ENDBLK
  5
   25A
  8
0
  6
CONTINUOUS
 62
     7
  0
BLOCK
  5
   25B
  8
0
  6
CONTINUOUS
 62
     7
  2
*UDIM770
 70
    65
 10
0.0
 20
0.0
 30
0.0
  3
*UDIM770
  0
TEXT
  5
   25C
  8
0
  6
CONTINUOUS
 62
     7
 10
-457.607580601276
 20
-18.953707449799
 30
0.0
 40
3.00000002980232
  1
94
 50
359.999999844103
 41
0.933333333333333
 72
     1
 11
-455.107580572367
 21
-17.4537074416876
 31
0.0
 73
     2
  0
LINE
  5
   25D
  8
0
  6
CONTINUOUS
 62
     7
 10
-443.082580566406
 20
-29.4397888183594
 30
0.0
 11
-443.082580566406
 21
-17.9537074565887
 31
0.0
  0
LINE
  5
   25E
  8
0
  6
CONTINUOUS
 62
     7
 10
-466.582580566406
 20
-19.9537074565887
 30
0.0
 11
-443.082580566406
 21
-19.9537074565887
 31
0.0
  0
LINE
  5
   25F
  8
0
  6
CONTINUOUS
 62
     7
 10
-463.628157289199
 20
-19.4327630266371
 30
0.0
 11
-466.582580566406
 21
-19.9537074565887
 31
0.0
  0
LINE
  5
   260
  8
0
  6
CONTINUOUS
 62
     7
 10
-466.582580566406
 20
-19.9537074565887
 30
0.0
 11
-463.628157289199
 21
-20.4746518865404
 31
0.0
  0
LINE
  5
   261
  8
0
  6
CONTINUOUS
 62
     7
 10
-446.037003843613
 20
-20.4746518865404
 30
0.0
 11
-443.082580566406
 21
-19.9537074565887
 31
0.0
  0
LINE
  5
   262
  8
0
  6
CONTINUOUS
 62
     7
 10
-443.082580566406
 20
-19.9537074565887
 30
0.0
 11
-446.037003843613
 21
-19.4327630266371
 31
0.0
  0
ENDBLK
  5
   263
  8
0
  6
CONTINUOUS
 62
     7
  0
BLOCK
  5
   264
  8
0
  6
CONTINUOUS
 62
     7
  2
*UDIM771
 70
    65
 10
0.0
 20
0.0
 30
0.0
  3
*UDIM771
  0
TEXT
  5
   265
  8
0
  6
CONTINUOUS
 62
     7
 10
-466.132580644986
 20
-56.0251502884803
 30
0.0
 40
3.00000002980232
  1
125
 50
359.999999844103
 41
0.933333333333333
 72
     1
 11
-462.232580602169
 21
-54.5251502841711
 31
0.0
 73
     2
  0
LINE
  5
   266
  8
0
  6
CONTINUOUS
 62
     7
 10
-477.582580566406
 20
-43.8772888183594
 30
0.0
 11
-477.582580566406
 21
-59.0251502990723
 31
0.0
  0
LINE
  5
   267
  8
0
  6
CONTINUOUS
 62
     7
 10
-446.332580566406
 20
-43.8772888183594
 30
0.0
 11
-446.332580566406
 21
-59.0251502990723
 31
0.0
  0
LINE
  5
   268
  8
0
  6
CONTINUOUS
 62
     7
 10
-477.582580566406
 20
-57.0251502990723
 30
0.0
 11
-446.332580566406
 21
-57.0251502990723
 31
0.0
  0
LINE
  5
   269
  8
0
  6
CONTINUOUS
 62
     7
 10
-474.628157289199
 20
-56.5042058691206
 30
0.0
 11
-477.582580566406
 21
-57.0251502990723
 31
0.0
  0
LINE
  5
   26A
  8
0
  6
CONTINUOUS
 62
     7
 10
-477.582580566406
 20
-57.0251502990723
 30
0.0
 11
-474.628157289199
 21
-57.5460947290239
 31
0.0
  0
LINE
  5
   26B
  8
0
  6
CONTINUOUS
 62
     7
 10
-449.287003843613
 20
-57.5460947290239
 30
0.0
 11
-446.332580566406
 21
-57.0251502990723
 31
0.0
  0
LINE
  5
   26C
  8
0
  6
CONTINUOUS
 62
     7
 10
-446.332580566406
 20
-57.0251502990723
 30
0.0
 11
-449.287003843613
 21
-56.5042058691206
 31
0.0
  0
ENDBLK
  5
   26D
  8
0
  6
CONTINUOUS
 62
     7
  0
BLOCK
  5
   26E
  8
0
  6
CONTINUOUS
 62
     7
  2
*UDIM772
 70
    65
 10
0.0
 20
0.0
 30
0.0
  3
*UDIM772
  0
TEXT
  5
   26F
  8
0
  6
CONTINUOUS
 62
     7
 10
-459.232580601276
 20
-49.7460594109349
 30
0.0
 40
3.00000002980232
  1
81
 50
359.999999844103
 41
0.933333333333333
 72
     1
 11
-456.732580572367
 21
-48.2460594028235
 31
0.0
 73
     2
  0
LINE
  5
   270
  8
0
  6
CONTINUOUS
 62
     7
 10
-466.582580566406
 20
-47.6474701359108
 30
0.0
 11
-466.582580566406
 21
-52.7460594177246
 31
0.0
  0
LINE
  5
   271
  8
0
  6
CONTINUOUS
 62
     7
 10
-446.332580566406
 20
-43.8772888183594
 30
0.0
 11
-446.332580566406
 21
-52.7460594177246
 31
0.0
  0
LINE
  5
   272
  8
0
  6
CONTINUOUS
 62
     7
 10
-466.582580566406
 20
-50.7460594177246
 30
0.0
 11
-446.332580566406
 21
-50.7460594177246
 31
0.0
  0
LINE
  5
   273
  8
0
  6
CONTINUOUS
 62
     7
 10
-463.628157289199
 20
-50.2251149877729
 30
0.0
 11
-466.582580566406
 21
-50.7460594177246
 31
0.0
  0
LINE
  5
   274
  8
0
  6
CONTINUOUS
 62
     7
 10
-466.582580566406
 20
-50.7460594177246
 30
0.0
 11
-463.628157289199
 21
-51.2670038476763
 31
0.0
  0
LINE
  5
   275
  8
0
  6
CONTINUOUS
 62
     7
 10
-449.287003843613
 20
-51.2670038476763
 30
0.0
 11
-446.332580566406
 21
-50.7460594177246
 31
0.0
  0
LINE
  5
   276
  8
0
  6
CONTINUOUS
 62
     7
 10
-446.332580566406
 20
-50.7460594177246
 30
0.0
 11
-449.287003843613
 21
-50.2251149877729
 31
0.0
  0
ENDBLK
  5
   277
  8
0
  6
CONTINUOUS
 62
     7
  0
BLOCK
  5
   278
  8
0
  6
CONTINUOUS
 62
     7
  2
*UDIM773
 70
    65
 10
0.0
 20
0.0
 30
0.0
  3
*UDIM773
  0
TEXT
  5
   279
  8
0
  6
CONTINUOUS
 62
     7
 10
-471.882580615184
 20
20.1823387251916
 30
0.0
 40
3.00000002980232
  1
135
 50
359.999999844103
 41
0.933333333333333
 72
     1
 11
-467.982580572367
 21
21.6823387295008
 31
0.0
 73
     2
  0
LINE
  5
   27A
  8
0
  6
CONTINUOUS
 62
     7
 10
-484.582580566406
 20
-6.75228881835938
 30
0.0
 11
-484.582580566406
 21
21.1823387145996
 31
0.0
  0
LINE
  5
   27B
  8
0
  6
CONTINUOUS
 62
     7
 10
-450.832580566406
 20
-6.75228881835938
 30
0.0
 11
-450.832580566406
 21
21.1823387145996
 31
0.0
  0
LINE
  5
   27C
  8
0
  6
CONTINUOUS
 62
     7
 10
-484.582580566406
 20
19.1823387145996
 30
0.0
 11
-450.832580566406
 21
19.1823387145996
 31
0.0
  0
LINE
  5
   27D
  8
0
  6
CONTINUOUS
 62
     7
 10
-481.628157289199
 20
19.7032831445513
 30
0.0
 11
-484.582580566406
 21
19.1823387145996
 31
0.0
  0
LINE
  5
   27E
  8
0
  6
CONTINUOUS
 62
     7
 10
-484.582580566406
 20
19.1823387145996
 30
0.0
 11
-481.628157289199
 21
18.6613942846479
 31
0.0
  0
LINE
  5
   27F
  8
0
  6
CONTINUOUS
 62
     7
 10
-453.787003843613
 20
18.6613942846479
 30
0.0
 11
-450.832580566406
 21
19.1823387145996
 31
0.0
  0
LINE
  5
   280
  8
0
  6
CONTINUOUS
 62
     7
 10
-450.832580566406
 20
19.1823387145996
 30
0.0
 11
-453.787003843613
 21
19.7032831445513
 31
0.0
  0
ENDBLK
  5
   281
  8
0
  6
CONTINUOUS
 62
     7
  0
BLOCK
  5
   282
  8
0
  6
CONTINUOUS
 62
     7
  2
*UDIM774
 70
    65
 10
0.0
 20
0.0
 30
0.0
  3
*UDIM774
  0
TEXT
  5
   283
  8
0
  6
CONTINUOUS
 62
     7
 10
-461.482581078113
 20
12.7938766547389
 30
0.0
 40
3.00000002980232
  1
63
 50
359.999999844103
 41
0.933333333333333
 72
     1
 11
-458.982581049204
 21
14.2938766628504
 31
0.0
 73
     2
  0
LINE
  5
   284
  8
0
  6
CONTINUOUS
 62
     7
 10
-466.582580566406
 20
3.12520234249573
 30
0.0
 11
-466.582580566406
 21
13.7938766479492
 31
0.0
  0
LINE
  5
   285
  8
0
  6
CONTINUOUS
 62
     7
 10
-450.832580566406
 20
-6.75228881835938
 30
0.0
 11
-450.832580566406
 21
13.7938766479492
 31
0.0
  0
LINE
  5
   286
  8
0
  6
CONTINUOUS
 62
     7
 10
-466.582580566406
 20
11.7938766479492
 30
0.0
 11
-450.832580566406
 21
11.7938766479492
 31
0.0
  0
LINE
  5
   287
  8
0
  6
CONTINUOUS
 62
     7
 10
-463.628157289199
 20
12.3148210779009
 30
0.0
 11
-466.582580566406
 21
11.7938766479492
 31
0.0
  0
LINE
  5
   288
  8
0
  6
CONTINUOUS
 62
     7
 10
-466.582580566406
 20
11.7938766479492
 30
0.0
 11
-463.628157289199
 21
11.2729322179976
 31
0.0
  0
LINE
  5
   289
  8
0
  6
CONTINUOUS
 62
     7
 10
-453.787003843613
 20
11.2729322179976
 30
0.0
 11
-450.832580566406
 21
11.7938766479492
 31
0.0
  0
LINE
  5
   28A
  8
0
  6
CONTINUOUS
 62
     7
 10
-450.832580566406
 20
11.7938766479492
 30
0.0
 11
-453.787003843613
 21
12.3148210779009
 31
0.0
  0
ENDBLK
  5
   28B
  8
0
  6
CONTINUOUS
 62
     7
  0
BLOCK
  5
   28C
  8
0
  6
CONTINUOUS
 62
     7
  2
*HATCH183
 70
    65
 10
0.0
 20
0.0
 30
0.0
  3
*HATCH183
  0
LINE
  5
   28D
  8
0
  6
CONTINUOUS
 62
    52
 10
-11.7279224395752
 20
1.0
 30
0.0
 11
-11.9763488769531
 21
0.75157368183136
 31
0.0
  0
LINE
  5
   28E
  8
0
  6
CONTINUOUS
 62
    52
 10
-9.60660171508789
 20
1.0
 30
0.0
 11
-11.6066026687622
 21
-1.0
 31
0.0
  0
LINE
  5
   28F
  8
0
  6
CONTINUOUS
 62
    52
 10
-7.48528146743774
 20
1.0
 30
0.0
 11
-9.48528289794922
 21
-1.0
 31
0.0
  0
LINE
  5
   290
  8
0
  6
CONTINUOUS
 62
    52
 10
-5.3639612197876
 20
1.0
 30
0.0
 11
-7.36396265029907
 21
-1.0
 31
0.0
  0
LINE
  5
   291
  8
0
  6
CONTINUOUS
 62
    52
 10
-3.47947335243225
 20
0.763167560100555
 30
0.0
 11
-5.24264097213745
 21
-1.0
 31
0.0
  0
LINE
  5
   292
  8
0
  6
CONTINUOUS
 62
    52
 10
-2.51160907745361
 20
-0.390288293361664
 30
0.0
 11
-3.1213207244873
 21
-1.0
 31
0.0
  0
ENDBLK
  5
   293
  8
0
  6
CONTINUOUS
 62
     7
  0
BLOCK
  5
   294
  8
0
  6
CONTINUOUS
 62
     7
  2
*HATCH184
 70
    65
 10
0.0
 20
0.0
 30
0.0
  3
*HATCH184
  0
LINE
  5
   295
  8
0
  6
CONTINUOUS
 62
    52
 10
5.24264097213745
 20
1.0
 30
0.0
 11
3.24264073371887
 21
-1.0
 31
0.0
  0
LINE
  5
   296
  8
0
  6
CONTINUOUS
 62
    52
 10
7.3639612197876
 20
1.0
 30
0.0
 11
5.3639612197876
 21
-1.0
 31
0.0
  0
LINE
  5
   297
  8
0
  6
CONTINUOUS
 62
    52
 10
9.48528099060059
 20
1.0
 30
0.0
 11
7.4852819442749
 21
-1.0
 31
0.0
  0
ENDBLK
  5
   298
  8
0
  6
CONTINUOUS
 62
     7
  0
BLOCK
  5
   299
  8
0
  6
CONTINUOUS
 62
     7
  2
*UDIM775
 70
    65
 10
0.0
 20
0.0
 30
0.0
  3
*UDIM775
  0
TEXT
  5
   29A
  8
0
  6
CONTINUOUS
 62
     7
 10
-518.30543732269
 20
-20.8965225947602
 30
0.0
 40
3.00000002980232
  1
80
 50
449.241125536518
 41
0.933333333333333
 72
     1
 11
-519.772194592625
 21
-18.3768751432358
 31
0.0
 73
     2
  0
TEXT
  5
   29B
  8
0
  6
CONTINUOUS
 62
     7
 10
-518.839162356951
 20
-15.8890144233141
 30
0.0
 40
3.00000002980232
  1
°
 50
449.241125536518
 41
0.933333333333334
 72
     1
 11
-520.324461886113
 21
-14.7692441891072
 31
0.0
 73
     2
  0
LINE
  5
   29C
  8
0
  6
CONTINUOUS
 62
     7
 10
-535.367866689694
 20
-21.322981958711
 30
0.0
 11
-521.165899523463
 21
-33.2398473698869
 31
0.0
  0
LINE
  5
   29D
  8
0
  6
CONTINUOUS
 62
     7
 10
-535.367866689694
 20
-12.6810082146288
 30
0.0
 11
-521.165899523463
 21
-0.764142803452966
 31
0.0
  0
ARC
  5
   29E
  8
0
  6
CONTINUOUS
 62
     7
 10
-540.517418318001
 20
-17.0019950866699
 30
0.0
 40
23.2616136940404
 50
319.999999815233
 51
399.999999769042
  0
LINE
  5
   29F
  8
0
  6
CONTINUOUS
 62
     7
 10
-521.197988319081
 20
-29.3561959914799
 30
0.0
 11
-522.697988409701
 21
-31.9542721505138
 31
0.0
  0
LINE
  5
   2A0
  8
0
  6
CONTINUOUS
 62
     7
 10
-522.697988409701
 20
-31.9542721505138
 30
0.0
 11
-520.399855147605
 21
-30.0259092412962
 31
0.0
  0
LINE
  5
   2A1
  8
0
  6
CONTINUOUS
 62
     7
 10
-520.399855147605
 20
-3.97808093204365
 30
0.0
 11
-522.697988409701
 21
-2.04971802282605
 31
0.0
  0
LINE
  5
   2A2
  8
0
  6
CONTINUOUS
 62
     7
 10
-522.697988409701
 20
-2.04971802282605
 30
0.0
 11
-521.197988319081
 21
-4.64779418185995
 31
0.0
  0
ENDBLK
  5
   2A3
  8
0
  6
CONTINUOUS
 62
     7
  0
BLOCK
  5
   2A4
  8
0
  6
CONTINUOUS
 62
     7
  2
*UDIM776
 70
    65
 10
0.0
 20
0.0
 30
0.0
  3
*UDIM776
  0
TEXT
  5
   2A5
  8
0
  6
CONTINUOUS
 62
     7
 10
-558.579578406445
 20
-11.1169281294932
 30
0.0
 40
3.00000002980232
  1
Ø4
 50
449.999999844103
 41
0.933333333333333
 72
     1
 11
-560.079578414559
 21
-8.61692810058594
 31
0.0
 73
     2
  0
LINE
  5
   2A6
  8
0
  6
CONTINUOUS
 62
     7
 10
-539.133911132813
 20
-15.0019950866699
 30
0.0
 11
-559.579578399658
 21
-15.0019950866699
 31
0.0
  0
LINE
  5
   2A7
  8
0
  6
CONTINUOUS
 62
     7
 10
-539.133911132813
 20
-19.0019950866699
 30
0.0
 11
-559.579578399658
 21
-19.0019950866699
 31
0.0
  0
LINE
  5
   2A8
  8
0
  6
CONTINUOUS
 62
     7
 10
-557.579578399658
 20
-6.11692807575067
 30
0.0
 11
-557.579578399658
 21
-19.0019950866699
 31
0.0
  0
LINE
  5
   2A9
  8
0
  6
CONTINUOUS
 62
     7
 10
-558.10052282961
 20
-12.047571809463
 30
0.0
 11
-557.579578399658
 21
-15.0019950866699
 31
0.0
  0
LINE
  5
   2AA
  8
0
  6
CONTINUOUS
 62
     7
 10
-557.579578399658
 20
-15.0019950866699
 30
0.0
 11
-557.058633969707
 21
-12.047571809463
 31
0.0
  0
LINE
  5
   2AB
  8
0
  6
CONTINUOUS
 62
     7
 10
-557.058633969707
 20
-21.9564183638769
 30
0.0
 11
-557.579578399658
 21
-19.0019950866699
 31
0.0
  0
LINE
  5
   2AC
  8
0
  6
CONTINUOUS
 62
     7
 10
-557.579578399658
 20
-19.0019950866699
 30
0.0
 11
-558.10052282961
 21
-21.9564183638769
 31
0.0
  0
ENDBLK
  5
   2AD
  8
0
  6
CONTINUOUS
 62
     7
  0
BLOCK
  5
   2AE
  8
0
  6
CONTINUOUS
 62
     7
  2
*UDIM777
 70
    65
 10
0.0
 20
0.0
 30
0.0
  3
*UDIM777
  0
TEXT
  5
   2AF
  8
0
  6
CONTINUOUS
 62
     7
 10
-374.177584273812
 20
72.6410324400172
 30
0.0
 40
2.99999997871263
  1
8
 50
359.999999896069
 41
0.933333333333333
 72
     1
 11
-373.077584278904
 21
74.1410324273837
 31
0.0
 73
     2
  0
LINE
  5
   2B0
  8
0
  6
CONTINUOUS
 62
     7
 10
-365.763876288831
 20
64.5559697151184
 30
0.0
 11
-365.763876288831
 21
72.6410324380274
 31
0.0
  0
LINE
  5
   2B1
  8
0
  6
CONTINUOUS
 62
     7
 10
-368.563876241148
 20
64.5559697151184
 30
0.0
 11
-368.563876241148
 21
72.6410324380274
 31
0.0
  0
LINE
  5
   2B2
  8
0
  6
CONTINUOUS
 62
     7
 10
-360.763876288831
 20
70.6410324380274
 30
0.0
 11
-374.177584271098
 21
70.6410324380274
 31
0.0
  0
LINE
  5
   2B3
  8
0
  6
CONTINUOUS
 62
     7
 10
-362.866098815621
 20
71.4174895944459
 30
0.0
 11
-365.763876288831
 21
70.6410324380274
 31
0.0
  0
LINE
  5
   2B4
  8
0
  6
CONTINUOUS
 62
     7
 10
-365.763876288831
 20
70.6410324380274
 30
0.0
 11
-362.866098815621
 21
69.8645752816089
 31
0.0
  0
LINE
  5
   2B5
  8
0
  6
CONTINUOUS
 62
     7
 10
-371.461653714358
 20
69.8645752816089
 30
0.0
 11
-368.563876241148
 21
70.6410324380274
 31
0.0
  0
LINE
  5
   2B6
  8
0
  6
CONTINUOUS
 62
     7
 10
-368.563876241148
 20
70.6410324380274
 30
0.0
 11
-371.461653714358
 21
71.4174895944459
 31
0.0
  0
ENDBLK
  5
   2B7
  8
0
  6
CONTINUOUS
 62
     7
  0
BLOCK
  5
   2B8
  8
0
  6
CONTINUOUS
 62
     7
  2
*UDIM778
 70
    65
 10
0.0
 20
0.0
 30
0.0
  3
*UDIM778
  0
TEXT
  5
   2B9
  8
0
  6
CONTINUOUS
 62
     7
 10
-333.638878812537
 20
30.819248213911
 30
0.0
 40
2.99999997871263
  1
43,75
 50
359.999999896069
 41
0.933333333333333
 72
     1
 11
-326.938878857366
 21
32.3192481911476
 31
0.0
 73
     2
  0
LINE
  5
   2BA
  8
0
  6
CONTINUOUS
 62
     7
 10
-336.53887678653
 20
35.8076063015676
 30
0.0
 11
-336.53887678653
 21
27.8192482017913
 31
0.0
  0
LINE
  5
   2BB
  8
0
  6
CONTINUOUS
 62
     7
 10
-351.85137652576
 20
35.7588883521476
 30
0.0
 11
-351.85137652576
 21
27.8192482017913
 31
0.0
  0
LINE
  5
   2BC
  8
0
  6
CONTINUOUS
 62
     7
 10
-320.238878904908
 20
29.8192482017913
 30
0.0
 11
-351.85137652576
 21
29.8192482017913
 31
0.0
  0
LINE
  5
   2BD
  8
0
  6
CONTINUOUS
 62
     7
 10
-339.493300063737
 20
29.2983037718396
 30
0.0
 11
-336.53887678653
 21
29.8192482017913
 31
0.0
  0
LINE
  5
   2BE
  8
0
  6
CONTINUOUS
 62
     7
 10
-336.53887678653
 20
29.8192482017913
 30
0.0
 11
-339.493300063737
 21
30.3401926317429
 31
0.0
  0
LINE
  5
   2BF
  8
0
  6
CONTINUOUS
 62
     7
 10
-348.896953248553
 20
30.3401926317429
 30
0.0
 11
-351.85137652576
 21
29.8192482017913
 31
0.0
  0
LINE
  5
   2C0
  8
0
  6
CONTINUOUS
 62
     7
 10
-351.85137652576
 20
29.8192482017913
 30
0.0
 11
-348.896953248553
 21
29.2983037718396
 31
0.0
  0
ENDBLK
  5
   2C1
  8
0
  6
CONTINUOUS
 62
     7
  0
BLOCK
  5
   2C2
  8
0
  6
CONTINUOUS
 62
     7
  2
*UDIM779
 70
    65
 10
0.0
 20
0.0
 30
0.0
  3
*UDIM779
  0
TEXT
  5
   2C3
  8
0
  6
CONTINUOUS
 62
     7
 10
-384.013877382452
 20
30.819248213911
 30
0.0
 40
2.99999997871263
  1
43,75
 50
359.999999896069
 41
0.933333333333333
 72
     1
 11
-377.31387742728
 21
32.3192481911476
 31
0.0
 73
     2
  0
LINE
  5
   2C4
  8
0
  6
CONTINUOUS
 62
     7
 10
-367.16387626499
 20
35.8076063015676
 30
0.0
 11
-367.16387626499
 21
27.8192482017913
 31
0.0
  0
LINE
  5
   2C5
  8
0
  6
CONTINUOUS
 62
     7
 10
-351.85137652576
 20
29.8192482017913
 30
0.0
 11
-384.013877379738
 21
29.8192482017913
 31
0.0
  0
LINE
  5
   2C6
  8
0
  6
CONTINUOUS
 62
     7
 10
-354.805799802967
 20
29.2983037718396
 30
0.0
 11
-351.85137652576
 21
29.8192482017913
 31
0.0
  0
LINE
  5
   2C7
  8
0
  6
CONTINUOUS
 62
     7
 10
-351.85137652576
 20
29.8192482017913
 30
0.0
 11
-354.805799802967
 21
30.3401926317429
 31
0.0
  0
LINE
  5
   2C8
  8
0
  6
CONTINUOUS
 62
     7
 10
-364.209452987783
 20
30.3401926317429
 30
0.0
 11
-367.16387626499
 21
29.8192482017913
 31
0.0
  0
LINE
  5
   2C9
  8
0
  6
CONTINUOUS
 62
     7
 10
-367.16387626499
 20
29.8192482017913
 30
0.0
 11
-364.209452987783
 21
29.2983037718396
 31
0.0
  0
ENDBLK
  5
   2CA
  8
0
  6
CONTINUOUS
 62
     7
  0
ENDSEC
  0
SECTION
  2
ENTITIES
  0
LINE
  5
   2CB
  8
0
  6
DASHDOT
 62
     7
 10
-351.851379394531
 20
18.625818599694
 30
0.0
 11
-351.851379394531
 21
-69.262315174265
 31
0.0
  0
LINE
  5
   2CC
  8
0
  6
CONTINUOUS
 62
     7
 10
-372.538879394531
 20
15.7296080321079
 30
0.0
 11
-372.538879394531
 21
-65.6897888183594
 31
0.0
  0
LINE
  5
   2CD
  8
0
  6
CONTINUOUS
 62
     7
 10
-331.163879394531
 20
15.7296080321079
 30
0.0
 11
-331.163879394531
 21
-65.6897888183594
 31
0.0
  0
LINE
  5
   2CE
  8
0
  6
CONTINUOUS
 62
     7
 10
-327.984602910185
 20
-65.6897888183594
 30
0.0
 11
-373.972171993739
 21
-65.6897888183594
 31
0.0
  0
LINE
  5
   2CF
  8
0
  6
DASHDOT
 62
     7
 10
-334.158399347814
 20
-7.06478881835938
 30
0.0
 11
-369.222592203487
 21
-7.06478881835938
 31
0.0
  0
LINE
  5
   2D0
  8
0
  6
DASHDOT
 62
     7
 10
-334.158399347814
 20
-40.8147888183594
 30
0.0
 11
-369.274364251972
 21
-40.8147888183594
 31
0.0
  0
LINE
  5
   2D1
  8
0
  6
DASHDOT
 62
     7
 10
-366.226379394531
 20
-3.31470211952505
 30
0.0
 11
-366.226379394531
 21
-44.7754842815427
 31
0.0
  0
LINE
  5
   2D2
  8
0
  6
DASHDOT
 62
     7
 10
-337.476379394531
 20
-4.08265417205774
 30
0.0
 11
-337.476379394531
 21
-45.6038370573083
 31
0.0
  0
CIRCLE
  5
   2D3
  8
0
  6
CONTINUOUS
 62
     7
 10
-366.226379394531
 20
-7.06478881835938
 30
0.0
 40
0.75
  0
CIRCLE
  5
   2D4
  8
0
  6
CONTINUOUS
 62
     7
 10
-337.476379394531
 20
-7.06478881835938
 30
0.0
 40
0.75
  0
CIRCLE
  5
   2D5
  8
0
  6
CONTINUOUS
 62
     7
 10
-366.226379394531
 20
-40.8147888183594
 30
0.0
 40
0.75
  0
CIRCLE
  5
   2D6
  8
0
  6
CONTINUOUS
 62
     7
 10
-337.476379394531
 20
-40.8147888183594
 30
0.0
 40
0.75
  0
LINE
  5
   2D7
  8
0
  6
CONTINUOUS
 62
     7
 10
-329.292802521848
 20
15.7296080321079
 30
0.0
 11
-373.806251945421
 21
15.7296080321079
 31
0.0
  0
LINE
  5
   2D8
  8
0
  6
DASHDOT
 62
     7
 10
-325.408148701343
 20
-23.5022888183594
 30
0.0
 11
-391.49385133222
 21
-23.5022888183594
 31
0.0
  0
TEXT
  5
   2D9
  8
0
  6
CONTINUOUS
 62
     1
 10
-455.522125475568
 20
-159.787588565834
 30
0.0
 40
2.00000008940697
  1
M 4329 96-09-24
 50
359.999999896069
 41
0.749999861419206
 72
     1
 11
-444.42212703242
 21
-158.78758854121
 31
0.0
 73
     2
  0
LINE
  5
   2DA
  8
0
  6
CONTINUOUS
 62
     7
 10
-336.288879394531
 20
-45.1897888183594
 30
0.0
 11
-367.413879394531
 21
-45.1897888183594
 31
0.0
  0
LINE
  5
   2DB
  8
0
  6
CONTINUOUS
 62
     7
 10
-368.413879394531
 20
-46.1897888183594
 30
0.0
 11
-368.413879394531
 21
-57.1897888183594
 31
0.0
  0
LINE
  5
   2DC
  8
0
  6
CONTINUOUS
 62
     7
 10
-335.288879394531
 20
-46.1897888183594
 30
0.0
 11
-335.288879394531
 21
-57.1897888183594
 31
0.0
  0
ARC
  5
   2DD
  8
0
  6
CONTINUOUS
 62
     7
 10
-336.288879394531
 20
-46.1897888183594
 30
0.0
 40
1.0
 50
359.999999896069
 51
449.999999896069
  0
ARC
  5
   2DE
  8
0
  6
CONTINUOUS
 62
     7
 10
-367.413879394531
 20
-46.1897888183594
 30
0.0
 40
1.0
 50
449.999999896069
 51
539.999999896069
  0
LINE
  5
   2DF
  8
0
  6
CONTINUOUS
 62
     7
 10
-336.288879394531
 20
-2.68978881835938
 30
0.0
 11
-367.413879394531
 21
-2.68978881835938
 31
0.0
  0
LINE
  5
   2E0
  8
0
  6
CONTINUOUS
 62
     7
 10
-336.288879394531
 20
10.3102111816406
 30
0.0
 11
-367.413879394531
 21
10.3102111816406
 31
0.0
  0
LINE
  5
   2E1
  8
0
  6
CONTINUOUS
 62
     7
 10
-335.288879394531
 20
9.31021118164063
 30
0.0
 11
-335.288879394531
 21
-1.68978881835938
 31
0.0
  0
LINE
  5
   2E2
  8
0
  6
CONTINUOUS
 62
     7
 10
-368.413879394531
 20
9.31021118164063
 30
0.0
 11
-368.413879394531
 21
-1.68978881835938
 31
0.0
  0
ARC
  5
   2E3
  8
0
  6
CONTINUOUS
 62
     7
 10
-367.413879394531
 20
9.31021118164063
 30
0.0
 40
1.0
 50
449.999999896069
 51
539.999999896069
  0
ARC
  5
   2E4
  8
0
  6
CONTINUOUS
 62
     7
 10
-367.413879394531
 20
-1.68978881835938
 30
0.0
 40
1.0
 50
179.999999896069
 51
269.999999896069
  0
ARC
  5
   2E5
  8
0
  6
CONTINUOUS
 62
     7
 10
-336.288879394531
 20
-1.68978881835938
 30
0.0
 40
1.0
 50
269.999999896069
 51
359.999999896069
  0
ARC
  5
   2E6
  8
0
  6
CONTINUOUS
 62
     7
 10
-336.288879394531
 20
9.31021118164063
 30
0.0
 40
1.0
 50
359.999999896069
 51
449.999999896069
  0
LINE
  5
   2E7
  8
0
  6
CONTINUOUS
 62
     7
 10
-336.288879394531
 20
-58.1897888183594
 30
0.0
 11
-367.413879394531
 21
-58.1897888183594
 31
0.0
  0
ARC
  5
   2E8
  8
0
  6
CONTINUOUS
 62
     7
 10
-367.413879394531
 20
-57.1897888183594
 30
0.0
 40
1.0
 50
179.999999896069
 51
269.999999896069
  0
ARC
  5
   2E9
  8
0
  6
CONTINUOUS
 62
     7
 10
-336.288879394531
 20
-57.1897888183594
 30
0.0
 40
1.0
 50
269.999999896069
 51
359.999999896069
  0
TEXT
  5
   2EA
  8
0
  6
CONTINUOUS
 62
     1
 10
-429.932125580621
 20
-159.787588567191
 30
0.0
 40
2.00000008940697
  1
M4504 98-11-17
 50
359.999999896069
 41
0.749999861419206
 72
     1
 11
-419.58212703242
 21
-158.78758854121
 31
0.0
 73
     2
  0
TEXT
  5
   2EB
  8
0
  6
CONTINUOUS
 62
     1
 10
-469.410064699075
 20
-153.722269132982
 30
0.0
 40
2.00000008940697
  1
SCARPELLINI
 50
359.999999896069
 41
0.749999861419206
 72
     2
 11
-453.210066975972
 21
-153.722269162287
 31
0.0
  0
INSERT
  5
   2EC
  8
0
  6
CONTINUOUS
 62
     7
  2
*UDIM721
 10
0.0
 20
0.0
 30
0.0
  0
INSERT
  5
   2ED
  8
0
  6
CONTINUOUS
 62
     7
  2
*UDIM722
 10
0.0
 20
0.0
 30
0.0
  0
INSERT
  5
   2EE
  8
0
  6
CONTINUOUS
 62
     7
  2
*UDIM723
 10
0.0
 20
0.0
 30
0.0
  0
INSERT
  5
   2EF
  8
0
  6
CONTINUOUS
 62
     7
  2
*UDIM724
 10
0.0
 20
0.0
 30
0.0
  0
INSERT
  5
   2F0
  8
0
  6
CONTINUOUS
 62
     7
  2
*UDIM725
 10
0.0
 20
0.0
 30
0.0
  0
INSERT
  5
   2F1
  8
0
  6
CONTINUOUS
 62
     7
  2
*UDIM726
 10
0.0
 20
0.0
 30
0.0
  0
TEXT
  5
   2F2
  8
0
  6
CONTINUOUS
 62
     1
 10
-469.410064699075
 20
-145.255523745542
 30
0.0
 40
2.00000008940697
  1
96-11-29 M.COLLEONI
 50
359.999999896069
 41
0.749999861419206
 72
     2
 11
-441.210068656823
 21
-145.255523796553
 31
0.0
  0
TEXT
  5
   2F3
  8
0
  6
CONTINUOUS
 62
     5
 10
-350.093297722669
 20
17.1894187649121
 30
0.0
 40
3.00000002980232
  1
Y
 50
359.999999896069
 41
0.916666604744064
 72
     2
 11
-347.893297853799
 21
17.1894187609325
 31
0.0
  0
INSERT
  5
   2F4
  8
0
  6
CONTINUOUS
 62
     5
  2
*UDIM727
 10
0.0
 20
0.0
 30
0.0
  0
TEXT
  5
   2F5
  8
0
  6
CONTINUOUS
 62
     7
 10
-359.989910128446
 20
-78.4020729218704
 30
0.0
 40
3.00000002980232
  1
=    =
 50
359.999999896069
 41
0.916666604744064
 72
     2
 11
-344.039911051821
 21
-78.4020729507226
 31
0.0
  0
INSERT
  5
   2F6
  8
0
  6
CONTINUOUS
 62
     7
  2
*UDIM728
 10
0.0
 20
0.0
 30
0.0
  0
INSERT
  5
   2F7
  8
0
  6
CONTINUOUS
 62
     7
  2
*UDIM729
 10
0.0
 20
0.0
 30
0.0
  0
TEXT
  5
   2F8
  8
0
  6
CONTINUOUS
 62
     7
 10
-377.434919360013
 20
-21.8861494342456
 30
0.0
 40
3.00000002980232
  1
X
 50
359.999999896069
 41
0.916666604744064
 72
     2
 11
-375.234919491143
 21
-21.8861494382252
 31
0.0
  0
TEXT
  5
   2F9
  8
0
  6
CONTINUOUS
 62
     7
 10
-310.960350039334
 20
-27.2504264394412
 30
0.0
 40
3.00000002980232
  1
X
 50
359.999999896069
 41
0.916666604744064
 72
     2
 11
-308.760350170465
 21
-27.2504264434209
 31
0.0
  0
TEXT
  5
   2FA
  8
0
  6
CONTINUOUS
 62
     7
 10
-355.81101393971
 20
-70.6060676852832
 30
0.0
 40
3.00000002980232
  1
Y
 50
359.999999896069
 41
0.916666604744064
 72
     2
 11
-353.61101407084
 21
-70.6060676892628
 31
0.0
  0
TEXT
  5
   2FB
  8
0
  6
CONTINUOUS
 62
     1
 10
-360.440429691118
 20
-170.888488915106
 30
0.0
 40
4.00000017881393
  1
601812/911
 50
359.999999896069
 41
0.937499973922969
 72
     2
 11
-323.690429091346
 21
-170.888488981584
 31
0.0
  0
TEXT
  5
   2FC
  8
0
  6
CONTINUOUS
 62
     1
 10
-349.354736330838
 20
-161.906906143306
 30
0.0
 40
3.00000002980232
  1
S5/630
 50
359.999999896069
 41
0.916666604744064
 72
     2
 11
-333.404737254214
 21
-161.906906172158
 31
0.0
  0
TEXT
  5
   2FD
  8
0
  6
CONTINUOUS
 62
     1
 10
-370.889156054279
 20
-143.596633903197
 30
0.0
 40
2.00000008940697
  1
3POLE LOW VOLTAGE M.C.C.B SERIES ISOMAX
 50
359.999999896069
 41
0.749999861419206
 72
     1
 11
-341.789160132408
 21
-142.596633911133
 31
0.0
 73
     2
  0
TEXT
  5
   2FE
  8
0
  6
CONTINUOUS
 62
     1
 10
-367.889156474492
 20
-146.596633908624
 30
0.0
 40
2.00000008940697
  1
WITHDRAWABLE VERSION REAR TERMINALS
 50
359.999999896069
 41
0.749999861419206
 72
     1
 11
-341.789160132408
 21
-145.596633911133
 31
0.0
 73
     2
  0
TEXT
  5
   2FF
  8
0
  6
CONTINUOUS
 62
     1
 10
-367.686764421633
 20
-151.66690063904
 30
0.0
 40
2.00000008940697
  1
INTERR.AUTOMATICO SERIE ISOMAX
 50
359.999999896069
 41
0.749999861419206
 72
     1
 11
-345.336767554283
 21
-150.666900634766
 31
0.0
 73
     2
  0
TEXT
  5
   300
  8
0
  6
CONTINUOUS
 62
     1
 10
-379.686762740782
 20
-154.666900617333
 30
0.0
 40
2.00000008940697
  1
TRIPOL.ESECUZIONE ESTRAIBILE TERMIN.POSTERIORI
 50
359.999999896069
 41
0.749999861419206
 72
     1
 11
-345.336767554283
 21
-153.666900634766
 31
0.0
 73
     2
  0
LINE
  5
   301
  8
0
  6
CONTINUOUS
 62
     7
 10
-376.351345592422
 20
192.276097373741
 30
0.0
 11
-376.351345592422
 21
199.696091906803
 31
0.0
  0
LINE
  5
   302
  8
0
  6
CONTINUOUS
 62
     7
 10
-327.35136279061
 20
112.756111758952
 30
0.0
 11
-327.35136279061
 21
128.663601542586
 31
0.0
  0
LINE
  5
   303
  8
0
  6
CONTINUOUS
 62
     7
 10
-376.351361956145
 20
112.756110674148
 30
0.0
 11
-376.351361956145
 21
128.663601542586
 31
0.0
  0
LINE
  5
   304
  8
0
  6
CONTINUOUS
 62
     1
 10
-327.351362927549
 20
185.01139492503
 30
0.0
 11
-327.351362927549
 21
192.276097373741
 31
0.0
  0
LINE
  5
   305
  8
0
  6
CONTINUOUS
 62
     1
 10
-376.351362093084
 20
185.01139492503
 30
0.0
 11
-376.351362093084
 21
192.276097373741
 31
0.0
  0
LINE
  5
   306
  8
0
  6
DOT
 62
     1
 10
-327.351362927549
 20
128.663601542586
 30
0.0
 11
-327.351362927549
 21
185.01139492503
 31
0.0
  0
LINE
  5
   307
  8
0
  6
CONTINUOUS
 62
     1
 10
-333.353866029673
 20
138.638592946606
 30
0.0
 11
-333.353866029673
 21
175.388592320758
 31
0.0
  0
LINE
  5
   308
  8
0
  6
CONTINUOUS
 62
     1
 10
-333.353866029673
 20
185.01139492503
 30
0.0
 11
-333.353866029673
 21
192.276092033165
 31
0.0
  0
LINE
  5
   309
  8
0
  6
CONTINUOUS
 62
     1
 10
-333.353866029673
 20
110.901114661255
 30
0.0
 11
-333.353866029673
 21
128.663601542586
 31
0.0
  0
LINE
  5
   30A
  8
0
  6
CONTINUOUS
 62
     1
 10
-369.701362206333
 20
185.01139492503
 30
0.0
 11
-369.701362206333
 21
190.526097403544
 31
0.0
  0
LINE
  5
   30B
  8
0
  6
CONTINUOUS
 62
     1
 10
-334.0013628143
 20
185.01139492503
 30
0.0
 11
-334.0013628143
 21
190.526097403544
 31
0.0
  0
LINE
  5
   30C
  8
0
  6
CONTINUOUS
 62
     1
 10
-334.0013628143
 20
190.526097403544
 30
0.0
 11
-369.701362206333
 21
190.526097403544
 31
0.0
  0
LINE
  5
   30D
  8
0
  6
DASHDOT
 62
     3
 10
-351.851362510316
 20
99.8151086675461
 30
0.0
 11
-351.851362510316
 21
167.759439291949
 31
0.0
  0
LINE
  5
   30E
  8
0
  6
DASHDOT
 62
     3
 10
-351.851362510316
 20
167.488982847173
 30
0.0
 11
-351.851362510316
 21
210.92490725873
 31
0.0
  0
LINE
  5
   30F
  8
0
  6
CONTINUOUS
 62
     7
 10
-348.088862574392
 20
149.288403584713
 30
0.0
 11
-355.613862446241
 21
149.288403584713
 31
0.0
  0
LINE
  5
   310
  8
0
  6
CONTINUOUS
 62
     7
 10
-348.088862574392
 20
151.019545966812
 30
0.0
 11
-355.613862446241
 21
151.019545966812
 31
0.0
  0
LINE
  5
   311
  8
0
  6
CONTINUOUS
 62
     7
 10
-348.088862574392
 20
146.516070553501
 30
0.0
 11
-355.613862446241
 21
146.516070553501
 31
0.0
  0
LINE
  5
   312
  8
0
  6
CONTINUOUS
 62
     3
 10
-376.351364587804
 20
191.751080058364
 30
0.0
 11
-376.351364587804
 21
201.113581299217
 31
0.0
  0
LINE
  5
   313
  8
0
  6
CONTINUOUS
 62
     3
 10
-327.701365416309
 20
191.401080085184
 30
0.0
 11
-376.001364593765
 21
191.401080085184
 31
0.0
  0
LINE
  5
   314
  8
0
  6
CONTINUOUS
 62
     3
 10
-327.351365422279
 20
191.751080098815
 30
0.0
 11
-327.351365422279
 21
201.11358041254
 31
0.0
  0
LINE
  5
   315
  8
0
  6
CONTINUOUS
 62
     3
 10
-373.673864766917
 20
110.901114661255
 30
0.0
 11
-373.673864766917
 21
128.663601542586
 31
0.0
  0
LINE
  5
   316
  8
0
  6
CONTINUOUS
 62
     3
 10
-372.413864988646
 20
110.901114661255
 30
0.0
 11
-372.413864988646
 21
128.663601542586
 31
0.0
  0
LINE
  5
   317
  8
0
  6
CONTINUOUS
 62
     3
 10
-369.893865765891
 20
191.751080058364
 30
0.0
 11
-369.893865765891
 21
201.551070632931
 31
0.0
  0
LINE
  5
   318
  8
0
  6
CONTINUOUS
 62
     3
 10
-368.633868991694
 20
191.751080058364
 30
0.0
 11
-368.633868991694
 21
201.551070632931
 31
0.0
  0
LINE
  5
   319
  8
0
  6
CONTINUOUS
 62
     3
 10
-367.373866876921
 20
191.751080058364
 30
0.0
 11
-367.373866876921
 21
201.551070632931
 31
0.0
  0
LINE
  5
   31A
  8
0
  6
CONTINUOUS
 62
     3
 10
-366.113870102724
 20
191.751080058364
 30
0.0
 11
-366.113870102724
 21
201.551070632931
 31
0.0
  0
LINE
  5
   31B
  8
0
  6
CONTINUOUS
 62
     3
 10
-364.853867987952
 20
191.751080058364
 30
0.0
 11
-364.853867987952
 21
201.551070632931
 31
0.0
  0
LINE
  5
   31C
  8
0
  6
CONTINUOUS
 62
     3
 10
-363.593865873179
 20
191.751080058364
 30
0.0
 11
-363.593865873179
 21
201.551070632931
 31
0.0
  0
LINE
  5
   31D
  8
0
  6
CONTINUOUS
 62
     3
 10
-362.333869098982
 20
191.751080058364
 30
0.0
 11
-362.333869098982
 21
201.551070632931
 31
0.0
  0
LINE
  5
   31E
  8
0
  6
CONTINUOUS
 62
     3
 10
-361.073866984209
 20
191.751080058364
 30
0.0
 11
-361.073866984209
 21
201.551070632931
 31
0.0
  0
LINE
  5
   31F
  8
0
  6
CONTINUOUS
 62
     3
 10
-359.813870210013
 20
191.751080058364
 30
0.0
 11
-359.813870210013
 21
201.551070632931
 31
0.0
  0
LINE
  5
   320
  8
0
  6
CONTINUOUS
 62
     3
 10
-358.55386809524
 20
191.751080058364
 30
0.0
 11
-358.55386809524
 21
201.551070632931
 31
0.0
  0
LINE
  5
   321
  8
0
  6
CONTINUOUS
 62
     3
 10
-357.293865980467
 20
191.751080058364
 30
0.0
 11
-357.293865980467
 21
201.551070632931
 31
0.0
  0
LINE
  5
   322
  8
0
  6
CONTINUOUS
 62
     3
 10
-356.033869206271
 20
191.751080058364
 30
0.0
 11
-356.033869206271
 21
201.551070632931
 31
0.0
  0
LINE
  5
   323
  8
0
  6
CONTINUOUS
 62
     3
 10
-354.773867091498
 20
191.751080058364
 30
0.0
 11
-354.773867091498
 21
201.551070632931
 31
0.0
  0
LINE
  5
   324
  8
0
  6
CONTINUOUS
 62
     3
 10
-353.513870317301
 20
191.751080058364
 30
0.0
 11
-353.513870317301
 21
201.551070632931
 31
0.0
  0
LINE
  5
   325
  8
0
  6
CONTINUOUS
 62
     3
 10
-352.253868202528
 20
191.751080058364
 30
0.0
 11
-352.253868202528
 21
201.551070632931
 31
0.0
  0
LINE
  5
   326
  8
0
  6
CONTINUOUS
 62
     3
 10
-350.993866087756
 20
191.751080058364
 30
0.0
 11
-350.993866087756
 21
201.551070632931
 31
0.0
  0
LINE
  5
   327
  8
0
  6
CONTINUOUS
 62
     3
 10
-349.733869313559
 20
191.751080058364
 30
0.0
 11
-349.733869313559
 21
201.551070632931
 31
0.0
  0
LINE
  5
   328
  8
0
  6
CONTINUOUS
 62
     3
 10
-348.473867198786
 20
191.751080058364
 30
0.0
 11
-348.473867198786
 21
201.551070632931
 31
0.0
  0
LINE
  5
   329
  8
0
  6
CONTINUOUS
 62
     3
 10
-347.213870424589
 20
191.751080058364
 30
0.0
 11
-347.213870424589
 21
201.551070632931
 31
0.0
  0
LINE
  5
   32A
  8
0
  6
CONTINUOUS
 62
     3
 10
-345.953868309817
 20
191.751080058364
 30
0.0
 11
-345.953868309817
 21
201.551070632931
 31
0.0
  0
LINE
  5
   32B
  8
0
  6
CONTINUOUS
 62
     3
 10
-344.693866195044
 20
191.751080058364
 30
0.0
 11
-344.693866195044
 21
201.551070632931
 31
0.0
  0
LINE
  5
   32C
  8
0
  6
CONTINUOUS
 62
     3
 10
-343.433869420847
 20
191.751080058364
 30
0.0
 11
-343.433869420847
 21
201.551070632931
 31
0.0
  0
LINE
  5
   32D
  8
0
  6
CONTINUOUS
 62
     3
 10
-342.173867306074
 20
191.751080058364
 30
0.0
 11
-342.173867306074
 21
201.551070632931
 31
0.0
  0
LINE
  5
   32E
  8
0
  6
CONTINUOUS
 62
     3
 10
-340.913870531878
 20
191.751080058364
 30
0.0
 11
-340.913870531878
 21
201.551070632931
 31
0.0
  0
LINE
  5
   32F
  8
0
  6
CONTINUOUS
 62
     3
 10
-339.653868417105
 20
191.751080058364
 30
0.0
 11
-339.653868417105
 21
201.551070632931
 31
0.0
  0
LINE
  5
   330
  8
0
  6
CONTINUOUS
 62
     3
 10
-338.393866302332
 20
191.751080058364
 30
0.0
 11
-338.393866302332
 21
201.551070632931
 31
0.0
  0
LINE
  5
   331
  8
0
  6
CONTINUOUS
 62
     3
 10
-337.133869528136
 20
191.751080058364
 30
0.0
 11
-337.133869528136
 21
201.551070632931
 31
0.0
  0
LINE
  5
   332
  8
0
  6
CONTINUOUS
 62
     3
 10
-335.873867413363
 20
191.751080058364
 30
0.0
 11
-335.873867413363
 21
201.551070632931
 31
0.0
  0
LINE
  5
   333
  8
0
  6
CONTINUOUS
 62
     3
 10
-334.613870639166
 20
191.751080058364
 30
0.0
 11
-334.613870639166
 21
201.551070632931
 31
0.0
  0
LINE
  5
   334
  8
0
  6
CONTINUOUS
 62
     3
 10
-333.353868524393
 20
191.751080058364
 30
0.0
 11
-333.353868524393
 21
201.551070632931
 31
0.0
  0
LINE
  5
   335
  8
0
  6
CONTINUOUS
 62
     3
 10
-332.093866409621
 20
110.901114661255
 30
0.0
 11
-332.093866409621
 21
128.663601542586
 31
0.0
  0
LINE
  5
   336
  8
0
  6
CONTINUOUS
 62
     3
 10
-329.573867520651
 20
110.901114661255
 30
0.0
 11
-329.573867520651
 21
128.663601542586
 31
0.0
  0
LINE
  5
   337
  8
0
  6
CONTINUOUS
 62
     3
 10
-327.38761472845
 20
191.751080058364
 30
0.0
 11
-376.315120914263
 21
191.751080058364
 31
0.0
  0
LINE
  5
   338
  8
0
  6
CONTINUOUS
 62
     3
 10
-327.351365479249
 20
191.75107607785
 30
0.0
 11
-327.479507261735
 21
191.75107607785
 31
0.0
  0
LINE
  5
   339
  8
0
  6
CONTINUOUS
 62
     3
 10
-327.701365416309
 20
191.401080085186
 30
0.0
 11
-327.701365416309
 21
191.751080058364
 31
0.0
  0
LINE
  5
   33A
  8
0
  6
CONTINUOUS
 62
     3
 10
-376.315120914262
 20
191.751080058364
 30
0.0
 11
-376.351364587804
 21
191.751080058364
 31
0.0
  0
LINE
  5
   33B
  8
0
  6
CONTINUOUS
 62
     3
 10
-376.001364593765
 20
191.401080085184
 30
0.0
 11
-376.001364593765
 21
191.751080058362
 31
0.0
  0
ARC
  5
   33C
  8
0
  6
CONTINUOUS
 62
     3
 10
-375.913874414445
 20
201.113581299217
 30
0.0
 40
0.437490505257948
 50
449.998658602021
 51
540.001080379242
  0
ARC
  5
   33D
  8
0
  6
CONTINUOUS
 62
     3
 10
-327.788861146324
 20
201.11358041254
 30
0.0
 40
0.43748904916687
 50
359.998931305817
 51
450.001731127297
  0
LINE
  5
   33E
  8
0
  6
CONTINUOUS
 62
     7
 10
-327.788874364959
 20
201.551070632931
 30
0.0
 11
-375.913864172396
 21
201.551070632931
 31
0.0
  0
LINE
  5
   33F
  8
0
  6
CONTINUOUS
 62
     3
 10
-376.351364587804
 20
111.338603994969
 30
0.0
 11
-376.351364587804
 21
120.701105235822
 31
0.0
  0
LINE
  5
   340
  8
0
  6
CONTINUOUS
 62
     3
 10
-327.701365416309
 20
121.051105209002
 30
0.0
 11
-376.001364593765
 21
121.051105209002
 31
0.0
  0
LINE
  5
   341
  8
0
  6
CONTINUOUS
 62
     3
 10
-327.351365422279
 20
111.338604881646
 30
0.0
 11
-327.351365422279
 21
120.701105195371
 31
0.0
  0
LINE
  5
   342
  8
0
  6
CONTINUOUS
 62
     3
 10
-374.933864878973
 20
110.901114661255
 30
0.0
 11
-374.933864878973
 21
128.663601542586
 31
0.0
  0
LINE
  5
   343
  8
0
  6
CONTINUOUS
 62
     3
 10
-371.153864876589
 20
110.901114661255
 30
0.0
 11
-371.153864876589
 21
128.663601542586
 31
0.0
  0
LINE
  5
   344
  8
0
  6
CONTINUOUS
 62
     3
 10
-369.89386576589
 20
110.901114661255
 30
0.0
 11
-369.89386576589
 21
120.701105235822
 31
0.0
  0
LINE
  5
   345
  8
0
  6
CONTINUOUS
 62
     3
 10
-368.633868991694
 20
110.901114661255
 30
0.0
 11
-368.633868991694
 21
120.701105235822
 31
0.0
  0
LINE
  5
   346
  8
0
  6
CONTINUOUS
 62
     3
 10
-367.373866876921
 20
110.901114661255
 30
0.0
 11
-367.373866876921
 21
120.701105235822
 31
0.0
  0
LINE
  5
   347
  8
0
  6
CONTINUOUS
 62
     3
 10
-366.113870102724
 20
110.901114661255
 30
0.0
 11
-366.113870102724
 21
120.701105235822
 31
0.0
  0
LINE
  5
   348
  8
0
  6
CONTINUOUS
 62
     3
 10
-364.853867987952
 20
110.901114661255
 30
0.0
 11
-364.853867987952
 21
120.701105235822
 31
0.0
  0
LINE
  5
   349
  8
0
  6
CONTINUOUS
 62
     3
 10
-363.593865873179
 20
110.901114661255
 30
0.0
 11
-363.593865873179
 21
120.701105235822
 31
0.0
  0
LINE
  5
   34A
  8
0
  6
CONTINUOUS
 62
     3
 10
-362.333869098982
 20
110.901114661255
 30
0.0
 11
-362.333869098982
 21
120.701105235822
 31
0.0
  0
LINE
  5
   34B
  8
0
  6
CONTINUOUS
 62
     3
 10
-361.073866984209
 20
110.901114661255
 30
0.0
 11
-361.073866984209
 21
120.701105235822
 31
0.0
  0
LINE
  5
   34C
  8
0
  6
CONTINUOUS
 62
     3
 10
-359.813870210013
 20
110.901114661255
 30
0.0
 11
-359.813870210013
 21
120.701105235822
 31
0.0
  0
LINE
  5
   34D
  8
0
  6
CONTINUOUS
 62
     3
 10
-358.55386809524
 20
110.901114661255
 30
0.0
 11
-358.55386809524
 21
120.701105235822
 31
0.0
  0
LINE
  5
   34E
  8
0
  6
CONTINUOUS
 62
     3
 10
-357.293865980467
 20
110.901114661255
 30
0.0
 11
-357.293865980467
 21
120.701105235822
 31
0.0
  0
LINE
  5
   34F
  8
0
  6
CONTINUOUS
 62
     3
 10
-356.03386920627
 20
110.901114661255
 30
0.0
 11
-356.03386920627
 21
120.701105235822
 31
0.0
  0
LINE
  5
   350
  8
0
  6
CONTINUOUS
 62
     3
 10
-354.773867091498
 20
110.901114661255
 30
0.0
 11
-354.773867091498
 21
120.701105235822
 31
0.0
  0
LINE
  5
   351
  8
0
  6
CONTINUOUS
 62
     3
 10
-353.513870317301
 20
110.901114661255
 30
0.0
 11
-353.513870317301
 21
120.701105235822
 31
0.0
  0
LINE
  5
   352
  8
0
  6
CONTINUOUS
 62
     3
 10
-352.253868202528
 20
110.901114661255
 30
0.0
 11
-352.253868202528
 21
120.701105235822
 31
0.0
  0
LINE
  5
   353
  8
0
  6
CONTINUOUS
 62
     3
 10
-350.993866087755
 20
110.901114661255
 30
0.0
 11
-350.993866087755
 21
120.701105235822
 31
0.0
  0
LINE
  5
   354
  8
0
  6
CONTINUOUS
 62
     3
 10
-349.733869313559
 20
110.901114661255
 30
0.0
 11
-349.733869313559
 21
120.701105235822
 31
0.0
  0
LINE
  5
   355
  8
0
  6
CONTINUOUS
 62
     3
 10
-348.473867198786
 20
110.901114661255
 30
0.0
 11
-348.473867198786
 21
120.701105235822
 31
0.0
  0
LINE
  5
   356
  8
0
  6
CONTINUOUS
 62
     3
 10
-347.213870424589
 20
110.901114661255
 30
0.0
 11
-347.213870424589
 21
120.701105235822
 31
0.0
  0
LINE
  5
   357
  8
0
  6
CONTINUOUS
 62
     3
 10
-345.953868309817
 20
110.901114661255
 30
0.0
 11
-345.953868309817
 21
120.701105235822
 31
0.0
  0
LINE
  5
   358
  8
0
  6
CONTINUOUS
 62
     3
 10
-344.693866195044
 20
110.901114661255
 30
0.0
 11
-344.693866195044
 21
120.701105235822
 31
0.0
  0
LINE
  5
   359
  8
0
  6
CONTINUOUS
 62
     3
 10
-343.433869420847
 20
110.901114661255
 30
0.0
 11
-343.433869420847
 21
120.701105235822
 31
0.0
  0
LINE
  5
   35A
  8
0
  6
CONTINUOUS
 62
     3
 10
-342.173867306074
 20
110.901114661255
 30
0.0
 11
-342.173867306074
 21
120.701105235822
 31
0.0
  0
LINE
  5
   35B
  8
0
  6
CONTINUOUS
 62
     3
 10
-340.913870531878
 20
110.901114661255
 30
0.0
 11
-340.913870531878
 21
120.701105235822
 31
0.0
  0
LINE
  5
   35C
  8
0
  6
CONTINUOUS
 62
     3
 10
-339.653868417105
 20
110.901114661255
 30
0.0
 11
-339.653868417105
 21
120.701105235822
 31
0.0
  0
LINE
  5
   35D
  8
0
  6
CONTINUOUS
 62
     3
 10
-338.393866302332
 20
110.901114661255
 30
0.0
 11
-338.393866302332
 21
120.701105235822
 31
0.0
  0
LINE
  5
   35E
  8
0
  6
CONTINUOUS
 62
     3
 10
-337.133869528136
 20
110.901114661255
 30
0.0
 11
-337.133869528136
 21
120.701105235822
 31
0.0
  0
LINE
  5
   35F
  8
0
  6
CONTINUOUS
 62
     3
 10
-335.873867413363
 20
110.901114661255
 30
0.0
 11
-335.873867413363
 21
120.701105235822
 31
0.0
  0
LINE
  5
   360
  8
0
  6
CONTINUOUS
 62
     3
 10
-334.613870639166
 20
110.901114661255
 30
0.0
 11
-334.613870639166
 21
120.701105235822
 31
0.0
  0
LINE
  5
   361
  8
0
  6
CONTINUOUS
 62
     3
 10
-330.833869635424
 20
110.901114661255
 30
0.0
 11
-330.833869635424
 21
128.663601542586
 31
0.0
  0
LINE
  5
   362
  8
0
  6
CONTINUOUS
 62
     3
 10
-328.313870746454
 20
110.901114661255
 30
0.0
 11
-328.313870746454
 21
128.663601542586
 31
0.0
  0
LINE
  5
   363
  8
0
  6
CONTINUOUS
 62
     3
 10
-327.38761472845
 20
120.701105235822
 30
0.0
 11
-376.315120914263
 21
120.701105235822
 31
0.0
  0
LINE
  5
   364
  8
0
  6
CONTINUOUS
 62
     3
 10
-327.351365479249
 20
120.701109216336
 30
0.0
 11
-327.479507261735
 21
120.701109216336
 31
0.0
  0
LINE
  5
   365
  8
0
  6
CONTINUOUS
 62
     3
 10
-327.701365416309
 20
120.701105235822
 30
0.0
 11
-327.701365416309
 21
121.051105209
 31
0.0
  0
LINE
  5
   366
  8
0
  6
CONTINUOUS
 62
     3
 10
-376.315120914262
 20
120.701105235822
 30
0.0
 11
-376.351364587804
 21
120.701105235822
 31
0.0
  0
LINE
  5
   367
  8
0
  6
CONTINUOUS
 62
     3
 10
-376.001364593765
 20
120.701105235824
 30
0.0
 11
-376.001364593765
 21
121.051105209002
 31
0.0
  0
ARC
  5
   368
  8
0
  6
CONTINUOUS
 62
     3
 10
-375.913874414445
 20
111.338603994969
 30
0.0
 40
0.437490505257948
 50
179.998919516826
 51
270.001341294048
  0
ARC
  5
   369
  8
0
  6
CONTINUOUS
 62
     3
 10
-327.788861146324
 20
111.338604881646
 30
0.0
 40
0.43748904916687
 50
269.998268768772
 51
360.001068590252
  0
LINE
  5
   36A
  8
0
  6
CONTINUOUS
 62
     7
 10
-327.788874364959
 20
110.901114661255
 30
0.0
 11
-375.913864172396
 21
110.901114661255
 31
0.0
  0
LINE
  5
   36B
  8
0
  6
CONTINUOUS
 62
   130
 10
-316.676350529194
 20
183.176097528713
 30
0.0
 11
-318.251362414949
 21
183.176097528713
 31
0.0
  0
LINE
  5
   36C
  8
0
  6
CONTINUOUS
 62
   130
 10
-316.676345438957
 20
132.513591715771
 30
0.0
 11
-318.251362414949
 21
132.513591715771
 31
0.0
  0
LINE
  5
   36D
  8
0
  6
CONTINUOUS
 62
   130
 10
-316.676345438957
 20
132.513591715771
 30
0.0
 11
-316.67634560585
 21
134.17608901717
 31
0.0
  0
LINE
  5
   36E
  8
0
  6
CONTINUOUS
 62
   130
 10
-316.676345605851
 20
134.176087682027
 30
0.0
 11
-316.676350529194
 21
183.176097528714
 31
0.0
  0
LINE
  5
   36F
  8
0
  6
CONTINUOUS
 62
   130
 10
-316.326348615885
 20
152.726079355258
 30
0.0
 11
-316.326348282099
 21
159.726079236048
 31
0.0
  0
LINE
  5
   370
  8
0
  6
CONTINUOUS
 62
   130
 10
-316.326348282099
 20
159.726079236048
 30
0.0
 11
-316.676347358227
 21
159.726079236048
 31
0.0
  0
LINE
  5
   371
  8
0
  6
CONTINUOUS
 62
   130
 10
-316.326348615885
 20
152.726079355258
 30
0.0
 11
-316.676347692013
 21
152.726079355258
 31
0.0
  0
CIRCLE
  5
   372
  8
0
  6
CONTINUOUS
 62
   130
 10
-321.401294106243
 20
147.301083490053
 30
0.0
 40
1.8374785624272
  0
LINE
  5
   373
  8
0
  6
DASHDOT
 62
     7
 10
-321.401294106243
 20
145.113604933587
 30
0.0
 11
-321.401294106243
 21
149.48856204652
 31
0.0
  0
LINE
  5
   374
  8
0
  6
DASHDOT
 62
     7
 10
-319.213815549776
 20
147.301083490053
 30
0.0
 11
-323.58877266271
 21
147.301083490053
 31
0.0
  0
LINE
  5
   375
  8
0
  6
CONTINUOUS
 62
   150
 10
-345.026343934519
 20
139.688565254588
 30
0.0
 11
-345.026343934519
 21
169.963564739008
 31
0.0
  0
LINE
  5
   376
  8
0
  6
CONTINUOUS
 62
   150
 10
-370.175102300117
 20
175.162340978246
 30
0.0
 11
-370.051355809536
 21
175.213605168852
 31
0.0
  0
LINE
  5
   377
  8
0
  6
CONTINUOUS
 62
   150
 10
-370.226358919464
 20
175.038598226556
 30
0.0
 11
-370.175102740459
 21
175.162344718128
 31
0.0
  0
LINE
  5
   378
  8
0
  6
CONTINUOUS
 62
   150
 10
-370.226367537958
 20
138.648893491585
 30
0.0
 11
-370.226367537958
 21
138.989031128806
 31
0.0
  0
LINE
  5
   379
  8
0
  6
CONTINUOUS
 62
   150
 10
-370.226362197382
 20
171.013563385983
 30
0.0
 11
-370.226362197382
 21
175.038590020318
 31
0.0
  0
LINE
  5
   37A
  8
0
  6
CONTINUOUS
 62
   150
 10
-370.175106290153
 20
138.514831686401
 30
0.0
 11
-370.226367810142
 21
138.638575501227
 31
0.0
  0
LINE
  5
   37B
  8
0
  6
CONTINUOUS
 62
   150
 10
-370.051367603952
 20
138.46359789689
 30
0.0
 11
-370.17510474905
 21
138.514832714051
 31
0.0
  0
LINE
  5
   37C
  8
0
  6
CONTINUOUS
 62
   150
 10
-369.876362203343
 20
138.463597318906
 30
0.0
 11
-370.051368876083
 21
138.463597318906
 31
0.0
  0
LINE
  5
   37D
  8
0
  6
CONTINUOUS
 62
   150
 10
-333.621650117244
 20
138.463219129661
 30
0.0
 11
-333.476336917711
 21
138.814019248136
 31
0.0
  0
LINE
  5
   37E
  8
0
  6
CONTINUOUS
 62
   150
 10
-333.476335812907
 20
138.814019115491
 30
0.0
 11
-333.476335812907
 21
175.214034517331
 31
0.0
  0
LINE
  5
   37F
  8
0
  6
CONTINUOUS
 62
   150
 10
-333.476342385562
 20
175.038593147404
 30
0.0
 11
-333.52761191741
 21
175.162339634591
 31
0.0
  0
LINE
  5
   380
  8
0
  6
CONTINUOUS
 62
   150
 10
-333.52761432846
 20
175.162336170405
 30
0.0
 11
-333.651360819326
 21
175.213589678946
 31
0.0
  0
LINE
  5
   381
  8
0
  6
CONTINUOUS
 62
   150
 10
-333.651360149961
 20
175.213600749845
 30
0.0
 11
-370.051359530073
 21
175.213600749845
 31
0.0
  0
LINE
  5
   382
  8
0
  6
CONTINUOUS
 62
     3
 10
-343.031366398914
 20
142.114264256553
 30
0.0
 11
-343.031366398914
 21
144.962842088901
 31
0.0
  0
LINE
  5
   383
  8
0
  6
CONTINUOUS
 62
     3
 10
-342.542114916609
 20
141.551906126602
 30
0.0
 11
-343.03137041408
 21
142.114263443027
 31
0.0
  0
LINE
  5
   384
  8
0
  6
CONTINUOUS
 62
     3
 10
-341.914477100778
 20
141.149724522107
 30
0.0
 11
-342.54210695371
 21
141.551907271725
 31
0.0
  0
LINE
  5
   385
  8
0
  6
CONTINUOUS
 62
     3
 10
-341.199100182485
 20
140.9401813312
 30
0.0
 11
-341.914481043802
 21
141.149724165324
 31
0.0
  0
LINE
  5
   386
  8
0
  6
CONTINUOUS
 62
     3
 10
-340.453667925966
 20
140.94018132977
 30
0.0
 11
-341.199100194765
 21
140.94018132977
 31
0.0
  0
LINE
  5
   387
  8
0
  6
CONTINUOUS
 62
     3
 10
-340.453668586882
 20
140.94018108489
 30
0.0
 11
-339.738287735398
 21
141.149721264168
 31
0.0
  0
LINE
  5
   388
  8
0
  6
CONTINUOUS
 62
     3
 10
-339.738279799593
 20
141.149725387147
 30
0.0
 11
-339.110644597561
 21
141.551908168641
 31
0.0
  0
LINE
  5
   389
  8
0
  6
CONTINUOUS
 62
     3
 10
-339.110655743516
 20
141.551901503449
 30
0.0
 11
-338.621384188567
 21
142.114293540387
 31
0.0
  0
LINE
  5
   38A
  8
0
  6
CONTINUOUS
 62
     3
 10
-338.621380358668
 20
142.114296296834
 30
0.0
 11
-338.621364336941
 21
144.962858108052
 31
0.0
  0
LINE
  5
   38B
  8
0
  6
CONTINUOUS
 62
     3
 10
-338.621365338165
 20
144.962857868407
 30
0.0
 11
-339.110636886023
 21
145.525236556088
 31
0.0
  0
LINE
  5
   38C
  8
0
  6
CONTINUOUS
 62
     3
 10
-339.110630230051
 20
145.525237592105
 30
0.0
 11
-339.738265432083
 21
145.927420373598
 31
0.0
  0
LINE
  5
   38D
  8
0
  6
CONTINUOUS
 62
     3
 10
-339.73826886512
 20
145.927419925391
 30
0.0
 11
-340.453644351647
 21
146.136960094377
 31
0.0
  0
LINE
  5
   38E
  8
0
  6
CONTINUOUS
 62
     3
 10
-340.453646563662
 20
146.136959729429
 30
0.0
 11
-341.199084173037
 21
146.136959729429
 31
0.0
  0
LINE
  5
   38F
  8
0
  6
CONTINUOUS
 62
     3
 10
-341.914457181797
 20
145.927420590135
 30
0.0
 11
-341.19908169527
 21
146.136960759121
 31
0.0
  0
LINE
  5
   390
  8
0
  6
CONTINUOUS
 62
     3
 10
-342.542087785275
 20
145.525240994433
 30
0.0
 11
-341.914452583243
 21
145.927423775926
 31
0.0
  0
LINE
  5
   391
  8
0
  6
CONTINUOUS
 62
     3
 10
-343.031370445428
 20
144.962838881114
 30
0.0
 11
-342.542098908923
 21
145.525233584217
 31
0.0
  0
LINE
  5
   392
  8
0
  6
CONTINUOUS
 62
     3
 10
-344.326343943938
 20
171.013568726661
 30
0.0
 11
-333.476344128712
 21
171.013590088965
 31
0.0
  0
LINE
  5
   393
  8
0
  6
CONTINUOUS
 62
     3
 10
-333.476344131215
 20
174.513590029259
 30
0.0
 11
-370.22636486767
 21
174.513590029259
 31
0.0
  0
LINE
  5
   394
  8
0
  6
CONTINUOUS
 62
     3
 10
-337.499802024536
 20
168.476044811896
 30
0.0
 11
-337.539765553839
 21
168.67695728243
 31
0.0
  0
LINE
  5
   395
  8
0
  6
CONTINUOUS
 62
     3
 10
-337.539763536748
 20
168.676960665588
 30
0.0
 11
-337.653565878167
 21
168.847282317543
 31
0.0
  0
LINE
  5
   396
  8
0
  6
CONTINUOUS
 62
     3
 10
-337.653567762208
 20
168.847280780577
 30
0.0
 11
-337.823894757176
 21
168.961083112049
 31
0.0
  0
LINE
  5
   397
  8
0
  6
CONTINUOUS
 62
     3
 10
-337.823898277998
 20
168.961081782029
 30
0.0
 11
-338.024805405312
 21
169.001045312352
 31
0.0
  0
LINE
  5
   398
  8
0
  6
CONTINUOUS
 62
     3
 10
-338.225713475857
 20
168.961080756101
 30
0.0
 11
-338.024806348543
 21
169.001044286425
 31
0.0
  0
LINE
  5
   399
  8
0
  6
CONTINUOUS
 62
     3
 10
-338.396027910973
 20
168.847282720567
 30
0.0
 11
-338.225706259018
 21
168.961085061987
 31
0.0
  0
LINE
  5
   39A
  8
0
  6
CONTINUOUS
 62
     3
 10
-338.509836837926
 20
168.676960173458
 30
0.0
 11
-338.396029163401
 21
168.847281822171
 31
0.0
  0
LINE
  5
   39B
  8
0
  6
CONTINUOUS
 62
     3
 10
-338.549802540844
 20
168.476044201617
 30
0.0
 11
-338.50983901154
 21
168.676956672151
 31
0.0
  0
LINE
  5
   39C
  8
0
  6
CONTINUOUS
 62
     3
 10
-338.549800618301
 20
167.426047425349
 30
0.0
 11
-338.549800618301
 21
168.476047407468
 31
0.0
  0
LINE
  5
   39D
  8
0
  6
CONTINUOUS
 62
     3
 10
-338.509839373458
 20
167.225136057079
 30
0.0
 11
-338.549802903782
 21
167.426043184393
 31
0.0
  0
LINE
  5
   39E
  8
0
  6
CONTINUOUS
 62
     3
 10
-338.396029283612
 20
167.054818795454
 30
0.0
 11
-338.509836958137
 21
167.225140444166
 31
0.0
  0
LINE
  5
   39F
  8
0
  6
CONTINUOUS
 62
     3
 10
-338.225707575421
 20
166.941011068707
 30
0.0
 11
-338.396029224133
 21
167.054818743232
 31
0.0
  0
LINE
  5
   3A0
  8
0
  6
CONTINUOUS
 62
     3
 10
-338.024805409587
 20
166.90104545247
 30
0.0
 11
-338.225712536901
 21
166.941008982793
 31
0.0
  0
LINE
  5
   3A1
  8
0
  6
CONTINUOUS
 62
     3
 10
-338.024806344268
 20
166.901044426542
 30
0.0
 11
-337.823899216954
 21
166.941007956866
 31
0.0
  0
LINE
  5
   3A2
  8
0
  6
CONTINUOUS
 62
     3
 10
-337.823893033839
 20
166.941011322045
 30
0.0
 11
-337.653566042143
 21
167.054818998877
 31
0.0
  0
LINE
  5
   3A3
  8
0
  6
CONTINUOUS
 62
     3
 10
-337.653565274628
 20
167.054820050808
 30
0.0
 11
-337.539762933209
 21
167.225141702763
 31
0.0
  0
LINE
  5
   3A4
  8
0
  6
CONTINUOUS
 62
     3
 10
-337.539767427988
 20
167.225135034614
 30
0.0
 11
-337.499803897664
 21
167.426042161928
 31
0.0
  0
LINE
  5
   3A5
  8
0
  6
CONTINUOUS
 62
     3
 10
-337.499800636182
 20
167.426047425349
 30
0.0
 11
-337.499800636182
 21
168.476047407468
 31
0.0
  0
LINE
  5
   3A6
  8
0
  6
CONTINUOUS
 62
     3
 10
-337.50134406267
 20
159.901055564363
 30
0.0
 11
-338.551344044788
 21
159.901055564363
 31
0.0
  0
LINE
  5
   3A7
  8
0
  6
CONTINUOUS
 62
     3
 10
-338.551344044788
 20
150.451055725296
 30
0.0
 11
-338.551344044788
 21
159.901055564363
 31
0.0
  0
LINE
  5
   3A8
  8
0
  6
CONTINUOUS
 62
     3
 10
-337.50134406267
 20
150.451055725296
 30
0.0
 11
-338.551344044788
 21
150.451055725296
 31
0.0
  0
LINE
  5
   3A9
  8
0
  6
CONTINUOUS
 62
     3
 10
-337.50134406267
 20
150.451055725296
 30
0.0
 11
-337.50134406267
 21
159.901055564363
 31
0.0
  0
LINE
  5
   3AA
  8
0
  6
CONTINUOUS
 62
     3
 10
-344.32634394644
 20
171.013563385983
 30
0.0
 11
-369.001372899396
 21
171.013563385983
 31
0.0
  0
LINE
  5
   3AB
  8
0
  6
CONTINUOUS
 62
   150
 10
-345.376343928559
 20
170.313563397904
 30
0.0
 11
-369.001372899396
 21
170.313563397904
 31
0.0
  0
LINE
  5
   3AC
  8
0
  6
CONTINUOUS
 62
   150
 10
-345.026344699825
 20
169.963562481037
 30
0.0
 11
-345.376344681884
 21
170.313562463097
 31
0.0
  0
LINE
  5
   3AD
  8
0
  6
CONTINUOUS
 62
   150
 10
-369.351372411809
 20
169.963564532167
 30
0.0
 11
-369.248860053757
 21
170.211052168376
 31
0.0
  0
LINE
  5
   3AE
  8
0
  6
CONTINUOUS
 62
   150
 10
-369.248859870988
 20
170.211051776733
 30
0.0
 11
-369.001372234778
 21
170.313564134786
 31
0.0
  0
LINE
  5
   3AF
  8
0
  6
CONTINUOUS
 62
     3
 10
-369.001372888179
 20
171.013563386483
 30
0.0
 11
-370.226363521381
 21
171.013568727059
 31
0.0
  0
LINE
  5
   3B0
  8
0
  6
CONTINUOUS
 62
   150
 10
-370.226365716461
 20
138.989031128806
 30
0.0
 11
-370.226365716461
 21
171.189014558715
 31
0.0
  0
LINE
  5
   3B1
  8
0
  6
CONTINUOUS
 62
   150
 10
-345.128855626041
 20
139.441078224365
 30
0.0
 11
-345.026343267989
 21
139.688565860575
 31
0.0
  0
LINE
  5
   3B2
  8
0
  6
CONTINUOUS
 62
   150
 10
-345.376342901312
 20
139.338565703999
 30
0.0
 11
-345.128855265102
 21
139.441078062052
 31
0.0
  0
LINE
  5
   3B3
  8
0
  6
CONTINUOUS
 62
   150
 10
-345.376343928559
 20
139.338565260549
 30
0.0
 11
-369.001372899396
 21
139.338565260549
 31
0.0
  0
LINE
  5
   3B4
  8
0
  6
CONTINUOUS
 62
   150
 10
-369.001372515452
 20
139.338565433792
 30
0.0
 11
-369.248860151661
 21
139.441077791844
 31
0.0
  0
LINE
  5
   3B5
  8
0
  6
CONTINUOUS
 62
   150
 10
-369.248860332379
 20
139.441077956209
 30
0.0
 11
-369.351372690431
 21
139.688565592419
 31
0.0
  0
LINE
  5
   3B6
  8
0
  6
CONTINUOUS
 62
   150
 10
-369.351372893436
 20
139.688565254588
 30
0.0
 11
-369.351372893436
 21
169.963564739008
 31
0.0
  0
LINE
  5
   3B7
  8
0
  6
CONTINUOUS
 62
   150
 10
-355.61385176508
 20
145.875920381457
 30
0.0
 11
-355.61385176508
 21
160.497913006592
 31
0.0
  0
LINE
  5
   3B8
  8
0
  6
CONTINUOUS
 62
   150
 10
-348.08885189323
 20
145.875920381457
 30
0.0
 11
-348.08885189323
 21
160.497913006592
 31
0.0
  0
LINE
  5
   3B9
  8
0
  6
CONTINUOUS
 62
     3
 10
-335.226338760836
 20
147.885701993959
 30
0.0
 11
-335.926338748916
 21
147.885701993959
 31
0.0
  0
LINE
  5
   3BA
  8
0
  6
CONTINUOUS
 62
     3
 10
-336.050076913397
 20
147.834449722246
 30
0.0
 11
-335.926330421825
 21
147.885705901251
 31
0.0
  0
LINE
  5
   3BB
  8
0
  6
CONTINUOUS
 62
     3
 10
-336.101338979357
 20
147.710701764473
 30
0.0
 11
-336.05008547076
 21
147.834445580204
 31
0.0
  0
LINE
  5
   3BC
  8
0
  6
CONTINUOUS
 62
     3
 10
-336.101338745935
 20
143.860702062505
 30
0.0
 11
-336.101338745935
 21
147.710701996939
 31
0.0
  0
LINE
  5
   3BD
  8
0
  6
CONTINUOUS
 62
     3
 10
-336.050085410248
 20
143.736958158991
 30
0.0
 11
-336.101338918845
 21
143.860701974722
 31
0.0
  0
LINE
  5
   3BE
  8
0
  6
CONTINUOUS
 62
     3
 10
-335.92633183348
 20
143.68570273574
 30
0.0
 11
-336.050078325052
 21
143.736958914746
 31
0.0
  0
LINE
  5
   3BF
  8
0
  6
CONTINUOUS
 62
     3
 10
-335.226338760836
 20
143.685702065485
 30
0.0
 11
-335.926338748916
 21
143.685702065485
 31
0.0
  0
LINE
  5
   3C0
  8
0
  6
CONTINUOUS
 62
     3
 10
-334.701338769777
 20
143.685702065485
 30
0.0
 11
-335.226338760836
 21
143.685702065485
 31
0.0
  0
LINE
  5
   3C1
  8
0
  6
CONTINUOUS
 62
     3
 10
-334.701344648932
 20
143.685699547871
 30
0.0
 11
-334.57760350428
 21
143.736955726883
 31
0.0
  0
LINE
  5
   3C2
  8
0
  6
CONTINUOUS
 62
     3
 10
-334.577595733106
 20
143.736959944689
 30
0.0
 11
-334.526336883616
 21
143.860703765153
 31
0.0
  0
LINE
  5
   3C3
  8
0
  6
CONTINUOUS
 62
     3
 10
-334.526338772757
 20
143.860702062505
 30
0.0
 11
-334.526338772757
 21
147.710701996939
 31
0.0
  0
LINE
  5
   3C4
  8
0
  6
CONTINUOUS
 62
     3
 10
-334.526337370923
 20
147.710702857268
 30
0.0
 11
-334.577596220414
 21
147.834446677732
 31
0.0
  0
LINE
  5
   3C5
  8
0
  6
CONTINUOUS
 62
     3
 10
-334.577602515967
 20
147.834445127846
 30
0.0
 11
-334.701343660619
 21
147.885701306858
 31
0.0
  0
LINE
  5
   3C6
  8
0
  6
CONTINUOUS
 62
     3
 10
-334.701338769777
 20
147.885701993959
 30
0.0
 11
-335.226338760836
 21
147.885701993959
 31
0.0
  0
LINE
  5
   3C7
  8
0
  6
CONTINUOUS
 62
   150
 10
-345.026359956248
 20
161.739016054792
 30
0.0
 11
-345.026359956248
 21
162.089016048831
 31
0.0
  0
LINE
  5
   3C8
  8
0
  6
CONTINUOUS
 62
     3
 10
-345.026359956248
 20
161.913571551819
 30
0.0
 11
-369.351375563724
 21
161.913571551819
 31
0.0
  0
LINE
  5
   3C9
  8
0
  6
CONTINUOUS
 62
     3
 10
-345.026359956248
 20
161.563571557779
 30
0.0
 11
-369.351375563724
 21
161.563571557779
 31
0.0
  0
LINE
  5
   3CA
  8
0
  6
CONTINUOUS
 62
   150
 10
-345.026359956248
 20
144.589016346854
 30
0.0
 11
-345.026359956248
 21
144.939016340894
 31
0.0
  0
LINE
  5
   3CB
  8
0
  6
CONTINUOUS
 62
     3
 10
-345.026359956248
 20
144.763571843882
 30
0.0
 11
-369.351375563724
 21
144.763571843882
 31
0.0
  0
LINE
  5
   3CC
  8
0
  6
CONTINUOUS
 62
     3
 10
-345.026359956248
 20
144.413571849842
 30
0.0
 11
-369.351375563724
 21
144.413571849842
 31
0.0
  0
LINE
  5
   3CD
  8
0
  6
CONTINUOUS
 62
     3
 10
-355.613862446232
 20
157.363571629305
 30
0.0
 11
-369.351375563724
 21
157.363571629305
 31
0.0
  0
LINE
  5
   3CE
  8
0
  6
CONTINUOUS
 62
     3
 10
-355.613862446232
 20
157.013571635265
 30
0.0
 11
-369.351375563724
 21
157.013571635265
 31
0.0
  0
LINE
  5
   3CF
  8
0
  6
CONTINUOUS
 62
     3
 10
-355.61386511652
 20
149.313571766396
 30
0.0
 11
-369.351375563724
 21
149.313571766396
 31
0.0
  0
LINE
  5
   3D0
  8
0
  6
CONTINUOUS
 62
     3
 10
-355.61386511652
 20
148.963571772356
 30
0.0
 11
-369.351375563724
 21
148.963571772356
 31
0.0
  0
LINE
  5
   3D1
  8
0
  6
CONTINUOUS
 62
   150
 10
-345.026359956248
 20
157.189016132278
 30
0.0
 11
-345.026359956248
 21
157.539016126317
 31
0.0
  0
LINE
  5
   3D2
  8
0
  6
CONTINUOUS
 62
     3
 10
-345.026359956248
 20
157.363571629305
 30
0.0
 11
-348.08885189323
 21
157.363571629305
 31
0.0
  0
LINE
  5
   3D3
  8
0
  6
CONTINUOUS
 62
     3
 10
-345.026359956248
 20
157.013571635265
 30
0.0
 11
-348.08885189323
 21
157.013571635265
 31
0.0
  0
LINE
  5
   3D4
  8
0
  6
CONTINUOUS
 62
   150
 10
-345.026359956248
 20
149.139016269368
 30
0.0
 11
-345.026359956248
 21
149.489016263408
 31
0.0
  0
LINE
  5
   3D5
  8
0
  6
CONTINUOUS
 62
     3
 10
-345.026359956248
 20
149.313571766396
 30
0.0
 11
-348.088854563518
 21
149.313571766396
 31
0.0
  0
LINE
  5
   3D6
  8
0
  6
CONTINUOUS
 62
     3
 10
-345.026359956248
 20
148.963571772356
 30
0.0
 11
-348.088854563518
 21
148.963571772356
 31
0.0
  0
LINE
  5
   3D7
  8
0
  6
CONTINUOUS
 62
   150
 10
-333.621650117244
 20
138.463219129661
 30
0.0
 11
-370.052605206001
 21
138.464104679578
 31
0.0
  0
LINE
  5
   3D8
  8
0
  6
CONTINUOUS
 62
   150
 10
-348.08885189323
 20
160.343626433902
 30
0.0
 11
-355.61385176508
 21
160.343626433902
 31
0.0
  0
LINE
  5
   3D9
  8
0
  6
CONTINUOUS
 62
   150
 10
-348.08885189323
 20
160.497913006592
 30
0.0
 11
-355.61385176508
 21
160.497913006592
 31
0.0
  0
LINE
  5
   3DA
  8
0
  6
CONTINUOUS
 62
   150
 10
-348.08885189323
 20
146.051364878469
 30
0.0
 11
-355.61385176508
 21
146.051364878469
 31
0.0
  0
LINE
  5
   3DB
  8
0
  6
CONTINUOUS
 62
   150
 10
-348.08885189323
 20
146.110377011986
 30
0.0
 11
-355.61385176508
 21
146.110377011986
 31
0.0
  0
LINE
  5
   3DC
  8
0
  6
DASHDOT
 62
     3
 10
-311.329759678457
 20
156.838601062769
 30
0.0
 11
-400.042428474645
 21
156.838601062769
 31
0.0
  0
INSERT
  5
   3DD
  8
255
  6
CONTINUOUS
 62
     7
  2
MOSTRA
 10
-392.044772413138
 20
132.666641025196
 30
0.0
 41
0.349999994039536
 42
0.349999994039536
 50
359.999999792138
 43
0.349999994039536
  0
LINE
  5
   3DE
  8
0
  6
CONTINUOUS
 62
     3
 10
-374.933864878973
 20
185.01139492503
 30
0.0
 11
-374.933864878973
 21
201.551070632931
 31
0.0
  0
LINE
  5
   3DF
  8
0
  6
CONTINUOUS
 62
     3
 10
-373.673864766917
 20
185.01139492503
 30
0.0
 11
-373.673864766917
 21
201.551070632931
 31
0.0
  0
LINE
  5
   3E0
  8
0
  6
CONTINUOUS
 62
     3
 10
-372.413864988646
 20
185.01139492503
 30
0.0
 11
-372.413864988646
 21
201.551070632931
 31
0.0
  0
LINE
  5
   3E1
  8
0
  6
CONTINUOUS
 62
     3
 10
-371.153864876589
 20
185.01139492503
 30
0.0
 11
-371.153864876589
 21
201.551070632931
 31
0.0
  0
LINE
  5
   3E2
  8
0
  6
CONTINUOUS
 62
     3
 10
-332.093866409621
 20
185.01139492503
 30
0.0
 11
-332.093866409621
 21
201.551070632931
 31
0.0
  0
LINE
  5
   3E3
  8
0
  6
CONTINUOUS
 62
     3
 10
-330.833869635424
 20
185.01139492503
 30
0.0
 11
-330.833869635424
 21
201.551070632931
 31
0.0
  0
LINE
  5
   3E4
  8
0
  6
CONTINUOUS
 62
     3
 10
-329.573867520651
 20
185.01139492503
 30
0.0
 11
-329.573867520651
 21
201.551070632931
 31
0.0
  0
LINE
  5
   3E5
  8
0
  6
CONTINUOUS
 62
     3
 10
-328.313870746454
 20
185.01139492503
 30
0.0
 11
-328.313870746454
 21
201.551070632931
 31
0.0
  0
LINE
  5
   3E6
  8
0
  6
DOT
 62
     1
 10
-318.251362414949
 20
183.176097528713
 30
0.0
 11
-327.351355771422
 21
183.176097528713
 31
0.0
  0
LINE
  5
   3E7
  8
0
  6
DOT
 62
     1
 10
-318.251362414949
 20
132.513591715771
 30
0.0
 11
-327.351362927549
 21
132.513591715771
 31
0.0
  0
LINE
  5
   3E8
  8
0
  6
CONTINUOUS
 62
   210
 10
-328.576352228661
 20
203.476070600149
 30
0.0
 11
-375.126343206636
 21
203.476070600149
 31
0.0
  0
LINE
  5
   3E9
  8
0
  6
CONTINUOUS
 62
   210
 10
-328.226352234622
 20
201.551070632931
 30
0.0
 11
-328.226352234622
 21
203.126070606109
 31
0.0
  0
LINE
  5
   3EA
  8
0
  6
CONTINUOUS
 62
   210
 10
-375.476343200676
 20
201.551070632931
 30
0.0
 11
-375.476343200676
 21
203.126070606109
 31
0.0
  0
ARC
  5
   3EB
  8
0
  6
CONTINUOUS
 62
   210
 10
-375.126343206636
 20
203.126070606109
 30
0.0
 40
0.349999994039536
 50
89.9999999480344
 51
179.999999948034
  0
ARC
  5
   3EC
  8
0
  6
CONTINUOUS
 62
   210
 10
-328.576352228661
 20
203.126070606109
 30
0.0
 40
0.349999994039536
 50
359.999999948034
 51
449.999999948034
  0
LINE
  5
   3ED
  8
0
  6
DASHDOT
 62
     7
 10
-351.851343603007
 20
91.0510469049883
 30
0.0
 11
-351.851343603007
 21
99.1645991464295
 31
0.0
  0
LINE
  5
   3EE
  8
0
  6
CONTINUOUS
 62
   210
 10
-375.476343200676
 20
109.326114688077
 30
0.0
 11
-375.476343200676
 21
110.901114661255
 31
0.0
  0
ARC
  5
   3EF
  8
0
  6
CONTINUOUS
 62
   210
 10
-375.126343206636
 20
109.326114688077
 30
0.0
 40
0.349999994039536
 50
179.999999948034
 51
269.999999948034
  0
LINE
  5
   3F0
  8
0
  6
CONTINUOUS
 62
   210
 10
-328.576352228661
 20
108.976114694038
 30
0.0
 11
-375.126343206636
 21
108.976114694038
 31
0.0
  0
ARC
  5
   3F1
  8
0
  6
CONTINUOUS
 62
   210
 10
-328.576352228661
 20
109.326114688077
 30
0.0
 40
0.349999994039536
 50
269.999999948034
 51
359.999999948034
  0
LINE
  5
   3F2
  8
0
  6
CONTINUOUS
 62
   210
 10
-328.226352234622
 20
109.326114688077
 30
0.0
 11
-328.226352234622
 21
110.901114661255
 31
0.0
  0
LINE
  5
   3F3
  8
0
  6
DASHDOT
 62
     3
 10
-351.851315196134
 20
93.7510838561675
 30
0.0
 11
-351.851315196134
 21
99.7011577354964
 31
0.0
  0
INSERT
  5
   3F4
  8
0
  6
CONTINUOUS
 62
     7
  2
*UDIM730
 10
0.0
 20
0.0
 30
0.0
  0
INSERT
  5
   3F5
  8
0
  6
CONTINUOUS
 62
     7
  2
*UDIM731
 10
0.0
 20
0.0
 30
0.0
  0
INSERT
  5
   3F6
  8
0
  6
CONTINUOUS
 62
     7
  2
*UDIM732
 10
0.0
 20
0.0
 30
0.0
  0
TEXT
  5
   3F7
  8
0
  6
CONTINUOUS
 62
     3
 10
-379.920580768126
 20
147.460546767759
 30
0.0
 40
2.99999997871263
  1
=     =
 50
89.9999999480344
 41
0.91666663951344
 72
     2
 11
-379.920580751189
 21
166.160546097633
 31
0.0
  0
INSERT
  5
   3F8
  8
0
  6
CONTINUOUS
 62
     3
  2
*UDIM733
 10
0.0
 20
0.0
 30
0.0
  0
INSERT
  5
   3F9
  8
0
  6
CONTINUOUS
 62
     7
  2
*UDIM734
 10
0.0
 20
0.0
 30
0.0
  0
INSERT
  5
   3FA
  8
0
  6
CONTINUOUS
 62
     7
  2
*UDIM735
 10
0.0
 20
0.0
 30
0.0
  0
INSERT
  5
   3FB
  8
0
  6
CONTINUOUS
 62
     5
  2
*UDIM736
 10
0.0
 20
0.0
 30
0.0
  0
INSERT
  5
   3FC
  8
0
  6
CONTINUOUS
 62
     7
  2
*UDIM737
 10
0.0
 20
0.0
 30
0.0
  0
INSERT
  5
   3FD
  8
0
  6
CONTINUOUS
 62
     7
  2
*UDIM738
 10
0.0
 20
0.0
 30
0.0
  0
TEXT
  5
   3FE
  8
0
  6
CONTINUOUS
 62
     7
 10
-351.280194310128
 20
87.3902855020969
 30
0.0
 40
2.99999997871263
  1
Y
 50
359.999999948034
 41
0.91666663951344
 72
     2
 11
-349.080194374416
 21
87.3902855001126
 31
0.0
  0
TEXT
  5
   3FF
  8
0
  6
CONTINUOUS
 62
     7
 10
-402.764247941955
 20
158.784618315513
 30
0.0
 40
2.99999997871263
  1
X
 50
359.999999948034
 41
0.91666663951344
 72
     1
 11
-401.664247972746
 21
160.284618303877
 31
0.0
 73
     2
  0
TEXT
  5
   400
  8
0
  6
CONTINUOUS
 62
     7
 10
-350.111324110235
 20
207.035940812279
 30
0.0
 40
2.99999997871263
  1
Y
 50
359.999999948034
 41
0.91666663951344
 72
     1
 11
-349.011324141026
 21
208.535940800643
 31
0.0
 73
     2
  0
LINE
  5
   401
  8
0
  6
DASHDOT
 62
     3
 10
-457.210451305366
 20
156.838602554875
 30
0.0
 11
-547.994331360153
 21
156.838602554875
 31
0.0
  0
LINE
  5
   402
  8
0
  6
CONTINUOUS
 62
     5
 10
-482.795036154985
 20
201.551085771698
 30
0.0
 11
-517.270030227303
 21
201.551085771698
 31
0.0
  0
LINE
  5
   403
  8
0
  6
CONTINUOUS
 62
     5
 10
-517.620030221343
 20
192.451097889548
 30
0.0
 11
-517.620030221343
 21
201.201085777658
 31
0.0
  0
ARC
  5
   404
  8
0
  6
CONTINUOUS
 62
     5
 10
-517.270030227303
 20
201.201085777658
 30
0.0
 40
0.349999994039536
 50
89.9999999480344
 51
179.999999948034
  0
LINE
  5
   405
  8
0
  6
CONTINUOUS
 62
     5
 10
-517.270030227303
 20
192.101097895508
 30
0.0
 11
-517.270030227303
 21
192.451097889548
 31
0.0
  0
LINE
  5
   406
  8
0
  6
CONTINUOUS
 62
     5
 10
-517.270030227303
 20
192.451097889548
 30
0.0
 11
-517.620030221343
 21
192.451097889548
 31
0.0
  0
LINE
  5
   407
  8
0
  6
CONTINUOUS
 62
     5
 10
-482.795035821199
 20
110.901109959488
 30
0.0
 11
-517.270030227303
 21
110.901109959488
 31
0.0
  0
LINE
  5
   408
  8
0
  6
CONTINUOUS
 62
     5
 10
-517.620030221343
 20
111.251109953528
 30
0.0
 11
-517.620030221343
 21
119.82610446692
 31
0.0
  0
ARC
  5
   409
  8
0
  6
CONTINUOUS
 62
     5
 10
-517.270030227303
 20
111.251109953528
 30
0.0
 40
0.349999994039536
 50
179.999999948034
 51
269.999999948034
  0
LINE
  5
   40A
  8
0
  6
CONTINUOUS
 62
     5
 10
-517.270030227303
 20
119.82610446692
 30
0.0
 11
-517.620030221343
 21
119.82610446692
 31
0.0
  0
LINE
  5
   40B
  8
0
  6
CONTINUOUS
 62
     5
 10
-517.270030227303
 20
119.82610446692
 30
0.0
 11
-517.270030227303
 21
120.17610446096
 31
0.0
  0
LINE
  5
   40C
  8
0
  6
CONTINUOUS
 62
     2
 10
-482.795004111366
 20
185.626070021171
 30
0.0
 11
-482.795004111366
 21
192.841188306501
 31
0.0
  0
LINE
  5
   40D
  8
0
  6
CONTINUOUS
 62
     7
 10
-506.770025065541
 20
191.926069913882
 30
0.0
 11
-507.99502504468
 21
191.926069913882
 31
0.0
  0
LINE
  5
   40E
  8
0
  6
CONTINUOUS
 62
     7
 10
-506.76998768126
 20
185.801066966466
 30
0.0
 11
-506.76998768126
 21
191.926066862158
 31
0.0
  0
LINE
  5
   40F
  8
0
  6
CONTINUOUS
 62
     7
 10
-482.795025473833
 20
186.501070006269
 30
0.0
 11
-484.195025449991
 21
186.501070006269
 31
0.0
  0
LINE
  5
   410
  8
0
  6
CONTINUOUS
 62
     7
 10
-484.195026339959
 20
186.501065562504
 30
0.0
 11
-484.195059896623
 21
199.696086016899
 31
0.0
  0
LINE
  5
   411
  8
0
  6
CONTINUOUS
 62
     2
 10
-482.620036157966
 20
185.626070021171
 30
0.0
 11
-482.795025473833
 21
185.626070021171
 31
0.0
  0
LINE
  5
   412
  8
0
  6
CONTINUOUS
 62
     2
 10
-482.095036166906
 20
191.226069925803
 30
0.0
 11
-482.795036154985
 21
191.226069925803
 31
0.0
  0
LINE
  5
   413
  8
0
  6
CONTINUOUS
 62
     2
 10
-482.095036166906
 20
195.076069860238
 30
0.0
 11
-482.795036154985
 21
195.076069860238
 31
0.0
  0
LINE
  5
   414
  8
0
  6
CONTINUOUS
 62
     2
 10
-482.095036166906
 20
194.135145803996
 30
0.0
 11
-482.795036154985
 21
194.135145803996
 31
0.0
  0
LINE
  5
   415
  8
0
  6
CONTINUOUS
 62
     2
 10
-482.095036166906
 20
192.841188306501
 30
0.0
 11
-482.795036154985
 21
192.841188306501
 31
0.0
  0
LINE
  5
   416
  8
0
  6
CONTINUOUS
 62
     7
 10
-507.99502504468
 20
191.751076539164
 30
0.0
 11
-507.99502504468
 21
192.10108187378
 31
0.0
  0
LINE
  5
   417
  8
0
  6
CONTINUOUS
 62
     7
 10
-515.765023844242
 20
192.10108187378
 30
0.0
 11
-515.870024910569
 21
192.10108187378
 31
0.0
  0
LINE
  5
   418
  8
0
  6
CONTINUOUS
 62
     7
 10
-506.945025062561
 20
191.751087220317
 30
0.0
 11
-507.99502504468
 21
191.751087220317
 31
0.0
  0
LINE
  5
   419
  8
0
  6
CONTINUOUS
 62
     7
 10
-506.945025062561
 20
183.176080744046
 30
0.0
 11
-506.945025062561
 21
191.751087220317
 31
0.0
  0
LINE
  5
   41A
  8
0
  6
CONTINUOUS
 62
     7
 10
-515.765013163089
 20
183.176080744046
 30
0.0
 11
-515.765013163089
 21
192.101077494305
 31
0.0
  0
LINE
  5
   41B
  8
0
  6
CONTINUOUS
 62
     2
 10
-482.795004111366
 20
199.696086016899
 30
0.0
 11
-515.765029184818
 21
199.696086016899
 31
0.0
  0
LINE
  5
   41C
  8
0
  6
CONTINUOUS
 62
     2
 10
-515.764991800781
 20
192.101079461942
 30
0.0
 11
-515.764991800781
 21
199.696083605061
 31
0.0
  0
LINE
  5
   41D
  8
0
  6
CONTINUOUS
 62
     7
 10
-507.99502504468
 20
192.101087214356
 30
0.0
 11
-507.99502504468
 21
199.696086016899
 31
0.0
  0
LINE
  5
   41E
  8
0
  6
CONTINUOUS
 62
     7
 10
-517.620030221343
 20
132.776109586959
 30
0.0
 11
-517.620030221343
 21
134.176073567647
 31
0.0
  0
LINE
  5
   41F
  8
0
  6
CONTINUOUS
 62
     7
 10
-517.620030221343
 20
183.176080744046
 30
0.0
 11
-517.620030221343
 21
192.101097895508
 31
0.0
  0
LINE
  5
   420
  8
0
  6
CONTINUOUS
 62
     7
 10
-515.870030251145
 20
192.101097895508
 30
0.0
 11
-517.620030221343
 21
192.101097895508
 31
0.0
  0
LINE
  5
   421
  8
0
  6
CONTINUOUS
 62
     7
 10
-515.870030251145
 20
132.776109586959
 30
0.0
 11
-517.620030221343
 21
132.776109586959
 31
0.0
  0
LINE
  5
   422
  8
0
  6
CONTINUOUS
 62
   218
 10
-482.795035821199
 20
112.756109660869
 30
0.0
 11
-515.765028851032
 21
112.756109660869
 31
0.0
  0
LINE
  5
   423
  8
0
  6
CONTINUOUS
 62
   218
 10
-515.765031654394
 20
121.576104436804
 30
0.0
 11
-515.87003025083
 21
121.576105669226
 31
0.0
  0
LINE
  5
   424
  8
0
  6
CONTINUOUS
 62
   218
 10
-515.765034525394
 20
120.17610446096
 30
0.0
 11
-517.270030227303
 21
120.17610446096
 31
0.0
  0
LINE
  5
   425
  8
0
  6
CONTINUOUS
 62
   218
 10
-515.765034525394
 20
112.756110996013
 30
0.0
 11
-515.765034525394
 21
121.576109777694
 31
0.0
  0
LINE
  5
   426
  8
0
  6
CONTINUOUS
 62
   218
 10
-515.765034525394
 20
121.576109777694
 30
0.0
 11
-515.765034525394
 21
132.776074926633
 31
0.0
  0
LINE
  5
   427
  8
0
  6
CONTINUOUS
 62
     7
 10
-515.765034525394
 20
132.426109592919
 30
0.0
 11
-515.870030251145
 21
132.426109592919
 31
0.0
  0
LINE
  5
   428
  8
0
  6
CONTINUOUS
 62
   218
 10
-482.095036166793
 20
123.676104401701
 30
0.0
 11
-482.79503582107
 21
123.676109742277
 31
0.0
  0
LINE
  5
   429
  8
0
  6
CONTINUOUS
 62
   218
 10
-482.795035821199
 20
110.901109959488
 30
0.0
 11
-482.795035821199
 21
123.676104401355
 31
0.0
  0
LINE
  5
   42A
  8
0
  6
CONTINUOUS
 62
   218
 10
-482.095036166906
 20
119.91360446543
 30
0.0
 11
-482.795036154985
 21
119.91360446543
 31
0.0
  0
LINE
  5
   42B
  8
0
  6
CONTINUOUS
 62
   218
 10
-482.095036166906
 20
116.862447567394
 30
0.0
 11
-482.795036154985
 21
116.862447567394
 31
0.0
  0
LINE
  5
   42C
  8
0
  6
CONTINUOUS
 62
   218
 10
-482.095036166906
 20
117.720993571373
 30
0.0
 11
-482.795036154985
 21
117.720993571373
 31
0.0
  0
LINE
  5
   42D
  8
0
  6
CONTINUOUS
 62
     7
 10
-515.870030251145
 20
132.601109589939
 30
0.0
 11
-517.620030221343
 21
132.601109589939
 31
0.0
  0
LINE
  5
   42E
  8
0
  6
CONTINUOUS
 62
     7
 10
-515.870030251145
 20
120.351109798556
 30
0.0
 11
-517.620030221343
 21
120.351109798556
 31
0.0
  0
LINE
  5
   42F
  8
0
  6
CONTINUOUS
 62
     7
 10
-517.620030221343
 20
120.351109798556
 30
0.0
 11
-517.620030221343
 21
132.601109589939
 31
0.0
  0
LINE
  5
   430
  8
0
  6
CONTINUOUS
 62
     7
 10
-516.920030233264
 20
120.351109798556
 30
0.0
 11
-516.920030233264
 21
132.601109589939
 31
0.0
  0
LINE
  5
   431
  8
0
  6
CONTINUOUS
 62
     7
 10
-515.870030251145
 20
120.351109798556
 30
0.0
 11
-515.870030251145
 21
132.601109589939
 31
0.0
  0
LINE
  5
   432
  8
0
  6
CONTINUOUS
 62
     2
 10
-482.795004111366
 20
194.135145803996
 30
0.0
 11
-482.795004111366
 21
201.551085771698
 31
0.0
  0
LINE
  5
   433
  8
0
  6
CONTINUOUS
 62
     7
 10
-482.095036166906
 20
191.226069925803
 30
0.0
 11
-482.095036166906
 21
195.076069860238
 31
0.0
  0
LINE
  5
   434
  8
0
  6
CONTINUOUS
 62
     7
 10
-482.095036166906
 20
116.862447567393
 30
0.0
 11
-482.095036166906
 21
119.91360446543
 31
0.0
  0
LINE
  5
   435
  8
0
  6
CONTINUOUS
 62
     7
 10
-465.4700204283
 20
144.676070718545
 30
0.0
 11
-466.170021202976
 21
144.676070718545
 31
0.0
  0
LINE
  5
   436
  8
0
  6
CONTINUOUS
 62
     7
 10
-465.4700204283
 20
147.126065336246
 30
0.0
 11
-466.170021492774
 21
147.126065336246
 31
0.0
  0
LINE
  5
   437
  8
0
  6
CONTINUOUS
 62
     7
 10
-482.095036166906
 20
112.756092691201
 30
0.0
 11
-482.095036166906
 21
118.076076512116
 31
0.0
  0
LINE
  5
   438
  8
0
  6
CONTINUOUS
 62
     3
 10
-464.945020437241
 20
135.576081554669
 30
0.0
 11
-465.4700204283
 21
135.576081554669
 31
0.0
  0
LINE
  5
   439
  8
0
  6
CONTINUOUS
 62
     3
 10
-464.945020437241
 20
129.626081655997
 30
0.0
 11
-465.4700204283
 21
129.626081655997
 31
0.0
  0
LINE
  5
   43A
  8
0
  6
CONTINUOUS
 62
     3
 10
-464.945020437241
 20
125.776081721562
 30
0.0
 11
-465.4700204283
 21
125.776081721562
 31
0.0
  0
LINE
  5
   43B
  8
0
  6
CONTINUOUS
 62
     3
 10
-464.945020437241
 20
186.676080684441
 30
0.0
 11
-465.4700204283
 21
186.676080684441
 31
0.0
  0
LINE
  5
   43C
  8
0
  6
CONTINUOUS
 62
     3
 10
-464.945020437241
 20
182.826080750006
 30
0.0
 11
-465.4700204283
 21
182.826080750006
 31
0.0
  0
LINE
  5
   43D
  8
0
  6
CONTINUOUS
 62
     3
 10
-464.945020437241
 20
176.876080851334
 30
0.0
 11
-465.4700204283
 21
176.876080851334
 31
0.0
  0
LINE
  5
   43E
  8
0
  6
CONTINUOUS
 62
     3
 10
-465.4700204283
 20
182.476086096543
 30
0.0
 11
-465.4700204283
 21
186.676080684441
 31
0.0
  0
LINE
  5
   43F
  8
0
  6
CONTINUOUS
 62
     3
 10
-465.4700204283
 20
135.22613496639
 30
0.0
 11
-465.4700204283
 21
177.226096867102
 31
0.0
  0
LINE
  5
   440
  8
0
  6
CONTINUOUS
 62
     3
 10
-465.4700204283
 20
125.776081721562
 30
0.0
 11
-465.4700204283
 21
129.976135055797
 31
0.0
  0
LINE
  5
   441
  8
0
  6
CONTINUOUS
 62
     3
 10
-464.945020437241
 20
125.776081721562
 30
0.0
 11
-464.945020437241
 21
129.976103012341
 31
0.0
  0
LINE
  5
   442
  8
0
  6
CONTINUOUS
 62
     3
 10
-464.945020437241
 20
135.226097582358
 30
0.0
 11
-464.945020437241
 21
177.226048801917
 31
0.0
  0
LINE
  5
   443
  8
0
  6
CONTINUOUS
 62
     3
 10
-464.945020437241
 20
182.476059393663
 30
0.0
 11
-464.945020437241
 21
186.676080684441
 31
0.0
  0
LINE
  5
   444
  8
0
  6
DASHDOT
 62
     7
 10
-464.770020440221
 20
135.22610826351
 30
0.0
 11
-464.770020440221
 21
177.22608618595
 31
0.0
  0
LINE
  5
   445
  8
0
  6
DASHDOT
 62
     7
 10
-464.770020440221
 20
99.657315484939
 30
0.0
 11
-464.770020440221
 21
129.976108352917
 31
0.0
  0
LINE
  5
   446
  8
0
  6
DASHDOT
 62
     7
 10
-464.770020440221
 20
182.476086096543
 30
0.0
 11
-464.770020440221
 21
211.113857300412
 31
0.0
  0
LINE
  5
   447
  8
0
  6
DASHDOT
 62
     7
 10
-463.720020458102
 20
101.068581128214
 30
0.0
 11
-463.720020458102
 21
211.266031210864
 31
0.0
  0
LINE
  5
   448
  8
0
  6
CONTINUOUS
 62
     7
 10
-466.181197873138
 20
210.909338831873
 30
0.0
 11
-462.308318516476
 21
211.470625695157
 31
0.0
  0
LINE
  5
   449
  8
0
  6
CONTINUOUS
 62
     7
 10
-466.231457114361
 20
99.8321815435946
 30
0.0
 11
-462.482508898688
 21
101.677817588234
 31
0.0
  0
LINE
  5
   44A
  8
0
  6
DASHDOT
 62
     7
 10
-460.287009428442
 20
179.851086141246
 30
0.0
 11
-471.045336483749
 21
179.851086141246
 31
0.0
  0
LINE
  5
   44B
  8
0
  6
DASHDOT
 62
     7
 10
-460.48440992487
 20
132.601086945909
 30
0.0
 11
-471.83493846946
 21
132.601086945909
 31
0.0
  0
LINE
  5
   44C
  8
0
  6
CONTINUOUS
 62
   130
 10
-527.419996009046
 20
138.026069499912
 30
0.0
 11
-527.420014033491
 21
139.426078822079
 31
0.0
  0
LINE
  5
   44D
  8
0
  6
CONTINUOUS
 62
   130
 10
-527.420014033434
 20
134.176070899792
 30
0.0
 11
-527.419996676562
 21
135.576065535375
 31
0.0
  0
LINE
  5
   44E
  8
0
  6
CONTINUOUS
 62
   130
 10
-481.395036033235
 20
134.176029539253
 30
0.0
 11
-482.095036021314
 21
134.176073599005
 31
0.0
  0
LINE
  5
   44F
  8
0
  6
CONTINUOUS
 62
   130
 10
-483.84504147768
 20
134.176073567647
 30
0.0
 11
-525.670014062524
 21
134.176073567647
 31
0.0
  0
LINE
  5
   450
  8
0
  6
CONTINUOUS
 62
   130
 10
-466.170025756955
 20
183.176080744046
 30
0.0
 11
-481.395041519403
 21
183.176080744046
 31
0.0
  0
LINE
  5
   451
  8
0
  6
CONTINUOUS
 62
   130
 10
-466.17002575652
 20
134.175985448208
 30
0.0
 11
-481.395036178392
 21
134.17602950796
 31
0.0
  0
LINE
  5
   452
  8
0
  6
CONTINUOUS
 62
   130
 10
-466.170025756905
 20
134.175985448172
 30
0.0
 11
-466.170020416329
 21
138.026061485816
 31
0.0
  0
LINE
  5
   453
  8
0
  6
CONTINUOUS
 62
     7
 10
-495.74501991272
 20
171.976086275357
 30
0.0
 11
-527.420014032722
 21
171.976086275357
 31
0.0
  0
LINE
  5
   454
  8
0
  6
CONTINUOUS
 62
     7
 10
-495.74501991272
 20
161.476067762155
 30
0.0
 11
-527.420014032722
 21
161.476067762155
 31
0.0
  0
LINE
  5
   455
  8
0
  6
CONTINUOUS
 62
   130
 10
-527.41999667585
 20
135.576065532942
 30
0.0
 11
-527.419996008278
 21
138.026069496651
 31
0.0
  0
LINE
  5
   456
  8
0
  6
CONTINUOUS
 62
   130
 10
-481.395041519403
 20
183.176080744046
 30
0.0
 11
-527.420014032722
 21
183.176080744046
 31
0.0
  0
LINE
  5
   457
  8
0
  6
CONTINUOUS
 62
   130
 10
-527.420014032722
 20
171.976086275357
 30
0.0
 11
-527.420014032722
 21
183.176080744046
 31
0.0
  0
LINE
  5
   458
  8
0
  6
CONTINUOUS
 62
     7
 10
-491.632541344943
 20
135.576086895274
 30
0.0
 11
-482.795036154869
 21
135.576102917002
 31
0.0
  0
LINE
  5
   459
  8
0
  6
CONTINUOUS
 62
     7
 10
-505.938769739112
 20
135.576078884385
 30
0.0
 11
-493.032541321208
 21
135.576086895249
 31
0.0
  0
LINE
  5
   45A
  8
0
  6
CONTINUOUS
 62
     7
 10
-526.019976004955
 20
135.576066868089
 30
0.0
 11
-507.338769047703
 21
135.576078884385
 31
0.0
  0
LINE
  5
   45B
  8
0
  6
CONTINUOUS
 62
     7
 10
-526.019972667094
 20
137.151069511555
 30
0.0
 11
-507.338768380131
 21
137.151081527851
 31
0.0
  0
LINE
  5
   45C
  8
0
  6
CONTINUOUS
 62
     7
 10
-505.938768403968
 20
137.151082862995
 30
0.0
 11
-493.03253865092
 21
137.151090873859
 31
0.0
  0
LINE
  5
   45D
  8
0
  6
CONTINUOUS
 62
     7
 10
-491.632538674759
 20
137.151092209003
 30
0.0
 11
-482.795036154972
 21
137.151097549579
 31
0.0
  0
LINE
  5
   45E
  8
0
  6
CONTINUOUS
 62
     7
 10
-526.01997600497
 20
135.576066868134
 30
0.0
 11
-526.019973334682
 21
137.1510695116
 31
0.0
  0
LINE
  5
   45F
  8
0
  6
CONTINUOUS
 62
     7
 10
-482.795036154985
 20
135.576102916973
 30
0.0
 11
-482.795036154985
 21
137.151097549575
 31
0.0
  0
LINE
  5
   460
  8
0
  6
CONTINUOUS
 62
     7
 10
-491.632541345021
 20
135.576086895299
 30
0.0
 11
-491.632538674734
 21
137.151100219917
 31
0.0
  0
LINE
  5
   461
  8
0
  6
CONTINUOUS
 62
     7
 10
-493.032541321182
 20
135.576086895295
 30
0.0
 11
-493.032538650894
 21
137.151098884769
 31
0.0
  0
LINE
  5
   462
  8
0
  6
CONTINUOUS
 62
     7
 10
-505.938769739117
 20
135.576078884395
 30
0.0
 11
-505.938768403973
 21
137.151090873869
 31
0.0
  0
LINE
  5
   463
  8
0
  6
CONTINUOUS
 62
     7
 10
-507.338769047703
 20
135.576078884394
 30
0.0
 11
-507.33876771256
 21
137.151089538724
 31
0.0
  0
LINE
  5
   464
  8
0
  6
CONTINUOUS
 62
   130
 10
-516.220014724136
 20
132.776074926633
 30
0.0
 11
-516.220014724136
 21
134.176074902791
 31
0.0
  0
LINE
  5
   465
  8
0
  6
CONTINUOUS
 62
   130
 10
-514.820014581084
 20
132.776074926633
 30
0.0
 11
-514.820014581084
 21
134.176074902791
 31
0.0
  0
LINE
  5
   466
  8
0
  6
CONTINUOUS
 62
   130
 10
-514.820014581084
 20
132.776074926633
 30
0.0
 11
-516.220014724136
 21
132.776074926633
 31
0.0
  0
LINE
  5
   467
  8
0
  6
CONTINUOUS
 62
   130
 10
-486.907514722645
 20
132.776093618649
 30
0.0
 11
-486.907514722645
 21
134.176068227071
 31
0.0
  0
LINE
  5
   468
  8
0
  6
CONTINUOUS
 62
   130
 10
-485.507514746487
 20
132.776093618649
 30
0.0
 11
-485.507514746487
 21
134.176068227071
 31
0.0
  0
LINE
  5
   469
  8
0
  6
CONTINUOUS
 62
   130
 10
-485.507514746487
 20
132.776093618649
 30
0.0
 11
-486.907514722645
 21
132.776093618649
 31
0.0
  0
LINE
  5
   46A
  8
0
  6
CONTINUOUS
 62
   130
 10
-525.670014062524
 20
132.513573595959
 30
0.0
 11
-525.670014062524
 21
133.388573581058
 31
0.0
  0
LINE
  5
   46B
  8
0
  6
CONTINUOUS
 62
   130
 10
-527.420014032722
 20
132.513573595959
 30
0.0
 11
-527.420014032722
 21
134.176070897359
 31
0.0
  0
LINE
  5
   46C
  8
0
  6
CONTINUOUS
 62
   130
 10
-525.670014062524
 20
132.513573595959
 30
0.0
 11
-527.420014032722
 21
132.513573595959
 31
0.0
  0
LINE
  5
   46D
  8
0
  6
CONTINUOUS
 62
   130
 10
-525.670014062524
 20
133.388573581058
 30
0.0
 11
-525.670014062524
 21
134.176073567647
 31
0.0
  0
LINE
  5
   46E
  8
0
  6
CONTINUOUS
 62
   130
 10
-483.845046818256
 20
132.513573595959
 30
0.0
 11
-483.845046818256
 21
133.388573581058
 31
0.0
  0
LINE
  5
   46F
  8
0
  6
CONTINUOUS
 62
   130
 10
-482.095046848058
 20
132.513573595959
 30
0.0
 11
-483.845046818256
 21
132.513573595959
 31
0.0
  0
LINE
  5
   470
  8
0
  6
CONTINUOUS
 62
   130
 10
-482.095046847314
 20
132.513573596544
 30
0.0
 11
-482.095036166162
 21
134.176073568232
 31
0.0
  0
LINE
  5
   471
  8
0
  6
CONTINUOUS
 62
   130
 10
-483.845046817467
 20
133.38857358175
 30
0.0
 11
-483.845041476891
 21
134.176068227763
 31
0.0
  0
LINE
  5
   472
  8
0
  6
CONTINUOUS
 62
     7
 10
-524.970016698908
 20
176.001092246204
 30
0.0
 11
-526.020016704092
 21
177.051092251388
 31
0.0
  0
LINE
  5
   473
  8
0
  6
CONTINUOUS
 62
   130
 10
-527.420014032722
 20
139.426078818816
 30
0.0
 11
-527.420014032722
 21
161.476075773019
 31
0.0
  0
LINE
  5
   474
  8
0
  6
CONTINUOUS
 62
     7
 10
-495.74501991272
 20
161.476067762155
 30
0.0
 11
-495.74501991272
 21
171.976086275357
 31
0.0
  0
LINE
  5
   475
  8
0
  6
CONTINUOUS
 62
     7
 10
-521.995014458895
 20
171.801086278337
 30
0.0
 11
-521.995014458895
 21
171.976086275357
 31
0.0
  0
LINE
  5
   476
  8
0
  6
CONTINUOUS
 62
     7
 10
-491.632541345047
 20
178.538580823033
 30
0.0
 11
-482.795036154972
 21
178.538586163609
 31
0.0
  0
LINE
  5
   477
  8
0
  6
CONTINUOUS
 62
     7
 10
-491.63254134506
 20
176.001080866236
 30
0.0
 11
-491.63254134506
 21
178.538580823022
 31
0.0
  0
LINE
  5
   478
  8
0
  6
CONTINUOUS
 62
     7
 10
-491.632541345047
 20
176.001080866246
 30
0.0
 11
-482.795036154972
 21
176.001086206822
 31
0.0
  0
LINE
  5
   479
  8
0
  6
CONTINUOUS
 62
     7
 10
-482.795036154985
 20
176.001086206812
 30
0.0
 11
-482.795036154985
 21
178.538586163598
 31
0.0
  0
LINE
  5
   47A
  8
0
  6
CONTINUOUS
 62
     7
 10
-507.338769047707
 20
176.001086206812
 30
0.0
 11
-507.338769047707
 21
178.538586163598
 31
0.0
  0
LINE
  5
   47B
  8
0
  6
CONTINUOUS
 62
     7
 10
-493.032541321218
 20
176.001086206812
 30
0.0
 11
-507.338769715279
 21
176.001086206812
 31
0.0
  0
LINE
  5
   47C
  8
0
  6
CONTINUOUS
 62
     7
 10
-493.032541321218
 20
176.001086206812
 30
0.0
 11
-493.032541321218
 21
178.538586163598
 31
0.0
  0
LINE
  5
   47D
  8
0
  6
CONTINUOUS
 62
     7
 10
-493.032541321218
 20
178.538586163598
 30
0.0
 11
-507.338769715279
 21
178.538586163598
 31
0.0
  0
LINE
  5
   47E
  8
0
  6
CONTINUOUS
 62
     7
 10
-508.738769023866
 20
176.001086206812
 30
0.0
 11
-526.020013388991
 21
176.001086206812
 31
0.0
  0
LINE
  5
   47F
  8
0
  6
CONTINUOUS
 62
     7
 10
-508.738769023866
 20
176.001086206812
 30
0.0
 11
-508.738769023866
 21
178.538586163598
 31
0.0
  0
LINE
  5
   480
  8
0
  6
CONTINUOUS
 62
     7
 10
-508.738769023866
 20
178.538586163598
 30
0.0
 11
-526.020013388991
 21
178.538586163598
 31
0.0
  0
LINE
  5
   481
  8
0
  6
CONTINUOUS
 62
     7
 10
-526.020014056564
 20
176.001086206812
 30
0.0
 11
-526.020014056564
 21
178.538586163598
 31
0.0
  0
LINE
  5
   482
  8
0
  6
CONTINUOUS
 62
     7
 10
-522.520014449954
 20
135.576069538373
 30
0.0
 11
-522.520014449954
 21
137.151080192703
 31
0.0
  0
LINE
  5
   483
  8
0
  6
CONTINUOUS
 62
     7
 10
-521.120013472438
 20
135.576070873517
 30
0.0
 11
-521.120013472438
 21
137.151080192703
 31
0.0
  0
LINE
  5
   484
  8
0
  6
CONTINUOUS
 62
     7
 10
-526.019877204302
 20
135.576058857224
 30
0.0
 11
-526.01987653673
 21
137.151069511554
 31
0.0
  0
LINE
  5
   485
  8
0
  6
CONTINUOUS
 62
   130
 10
-527.420014032789
 20
134.176054875861
 30
0.0
 11
-527.420012697645
 21
134.526080237637
 31
0.0
  0
LINE
  5
   486
  8
0
  6
CONTINUOUS
 62
   130
 10
-481.395038840559
 20
134.176032180025
 30
0.0
 11
-482.09503615835
 21
134.176042861178
 31
0.0
  0
LINE
  5
   487
  8
0
  6
CONTINUOUS
 62
   130
 10
-466.170020416379
 20
138.026061485786
 30
0.0
 11
-466.170025756955
 21
183.17608207919
 31
0.0
  0
LINE
  5
   488
  8
0
  6
CONTINUOUS
 62
     7
 10
-491.614319299471
 20
135.576081554669
 30
0.0
 11
-491.614319299471
 21
137.151092208999
 31
0.0
  0
LINE
  5
   489
  8
0
  6
CONTINUOUS
 62
     7
 10
-493.032965897016
 20
135.576065532941
 30
0.0
 11
-493.032965897016
 21
137.151090873855
 31
0.0
  0
LINE
  5
   48A
  8
0
  6
CONTINUOUS
 62
     7
 10
-500.820014485717
 20
171.801086278337
 30
0.0
 11
-527.420014032722
 21
171.801086278337
 31
0.0
  0
LINE
  5
   48B
  8
0
  6
CONTINUOUS
 62
     7
 10
-500.820014485717
 20
161.476067762155
 30
0.0
 11
-500.820014485717
 21
171.801086278337
 31
0.0
  0
LINE
  5
   48C
  8
0
  6
CONTINUOUS
 62
     7
 10
-527.420014032722
 20
161.476075773019
 30
0.0
 11
-527.420014032722
 21
171.801086278337
 31
0.0
  0
LINE
  5
   48D
  8
0
  6
CONTINUOUS
 62
   150
 10
-527.420001348854
 20
138.463585510927
 30
0.0
 11
-531.270017972589
 21
138.463585510927
 31
0.0
  0
LINE
  5
   48E
  8
0
  6
CONTINUOUS
 62
   150
 10
-527.420014032722
 20
175.213602241951
 30
0.0
 11
-531.270017972589
 21
175.213602241951
 31
0.0
  0
LINE
  5
   48F
  8
0
  6
CONTINUOUS
 62
   150
 10
-533.195119563329
 20
138.638395045269
 30
0.0
 11
-533.195019427524
 21
138.639120028485
 31
0.0
  0
LINE
  5
   490
  8
0
  6
CONTINUOUS
 62
     7
 10
-524.969972684981
 20
135.576076214096
 30
0.0
 11
-524.969973352553
 21
137.151078857562
 31
0.0
  0
LINE
  5
   491
  8
0
  6
CONTINUOUS
 62
     7
 10
-482.795036154985
 20
176.526086197871
 30
0.0
 11
-491.632536004483
 21
176.526086197871
 31
0.0
  0
LINE
  5
   492
  8
0
  6
CONTINUOUS
 62
     7
 10
-493.03253865093
 20
176.526086197871
 30
0.0
 11
-507.338765709847
 21
176.526086197871
 31
0.0
  0
LINE
  5
   493
  8
0
  6
CONTINUOUS
 62
     7
 10
-508.738765686005
 20
176.526086197871
 30
0.0
 11
-524.970014074445
 21
176.526086197871
 31
0.0
  0
LINE
  5
   494
  8
0
  6
CONTINUOUS
 62
     7
 10
-525.232512809141
 20
176.263591830372
 30
0.0
 11
-524.970012807845
 21
176.526091831668
 31
0.0
  0
LINE
  5
   495
  8
0
  6
CONTINUOUS
 62
     7
 10
-524.970014074445
 20
176.526086197871
 30
0.0
 11
-524.970014074445
 21
178.538586163598
 31
0.0
  0
CIRCLE
  5
   496
  8
0
  6
CONTINUOUS
 62
   130
 10
-523.220043111521
 20
156.226064605144
 30
0.0
 40
3.49999695973229
  0
CIRCLE
  5
   497
  8
0
  6
CONTINUOUS
 62
   130
 10
-523.22004006864
 20
156.226062508731
 30
0.0
 40
0.962501397983491
  0
CIRCLE
  5
   498
  8
0
  6
CONTINUOUS
 62
   130
 10
-473.34502320013
 20
175.126058592652
 30
0.0
 40
2.10002360565626
  0
CIRCLE
  5
   499
  8
0
  6
CONTINUOUS
 62
   130
 10
-473.345036844553
 20
175.126074183299
 30
0.0
 40
1.13750330518346
  0
CIRCLE
  5
   49A
  8
0
  6
CONTINUOUS
 62
   130
 10
-473.345037666283
 20
140.126076590802
 30
0.0
 40
2.10000079410038
  0
CIRCLE
  5
   49B
  8
0
  6
CONTINUOUS
 62
   130
 10
-473.345034270113
 20
140.126079573617
 30
0.0
 40
1.1375029235037
  0
LINE
  5
   49C
  8
0
  6
DASHDOT
 62
     7
 10
-473.34502320013
 20
172.676034992956
 30
0.0
 11
-473.34502320013
 21
177.576082192348
 31
0.0
  0
LINE
  5
   49D
  8
0
  6
DASHDOT
 62
     7
 10
-470.894999600435
 20
175.126058592652
 30
0.0
 11
-475.795046799826
 21
175.126058592652
 31
0.0
  0
LINE
  5
   49E
  8
0
  6
DASHDOT
 62
     7
 10
-473.345037666283
 20
137.676075802662
 30
0.0
 11
-473.345037666283
 21
142.576077378942
 31
0.0
  0
LINE
  5
   49F
  8
0
  6
DASHDOT
 62
     7
 10
-470.895036878143
 20
140.126076590802
 30
0.0
 11
-475.795038454423
 21
140.126076590802
 31
0.0
  0
LINE
  5
   4A0
  8
0
  6
CONTINUOUS
 62
     7
 10
-482.620036157966
 20
183.176080744046
 30
0.0
 11
-482.620036157966
 21
185.626070021171
 31
0.0
  0
LINE
  5
   4A1
  8
0
  6
CONTINUOUS
 62
     7
 10
-531.270019307733
 20
104.874488524658
 30
0.0
 11
-531.270019307733
 21
130.938537573893
 31
0.0
  0
LINE
  5
   4A2
  8
0
  6
CONTINUOUS
 62
     7
 10
-531.970019295812
 20
104.756510998577
 30
0.0
 11
-531.970019295812
 21
138.463585510927
 31
0.0
  0
LINE
  5
   4A3
  8
0
  6
CONTINUOUS
 62
     7
 10
-533.788757645436
 20
104.449982063247
 30
0.0
 11
-529.249605499323
 21
105.215007705851
 31
0.0
  0
LINE
  5
   4A4
  8
0
  6
CONTINUOUS
 62
     7
 10
-529.657619175378
 20
198.089120717902
 30
0.0
 11
-532.819725164805
 21
198.956149779519
 31
0.0
  0
LINE
  5
   4A5
  8
0
  6
CONTINUOUS
 62
     7
 10
-531.970019295812
 20
175.213602241951
 30
0.0
 11
-531.970019295812
 21
198.723165912214
 31
0.0
  0
LINE
  5
   4A6
  8
0
  6
DASHDOT
 62
     7
 10
-523.220043111521
 20
152.376067651372
 30
0.0
 11
-523.220043111521
 21
160.076061558916
 31
0.0
  0
LINE
  5
   4A7
  8
0
  6
DASHDOT
 62
     7
 10
-519.370046157749
 20
156.226064605144
 30
0.0
 11
-527.070040065292
 21
156.226064605144
 31
0.0
  0
LINE
  5
   4A8
  8
0
  6
CONTINUOUS
 62
     7
 10
-528.470018020272
 20
145.026108096617
 30
0.0
 11
-528.470018020272
 21
149.576035921354
 31
0.0
  0
LINE
  5
   4A9
  8
0
  6
CONTINUOUS
 62
     1
 10
-531.970017960668
 20
128.663536945064
 30
0.0
 11
-531.970017960668
 21
185.013535985429
 31
0.0
  0
LINE
  5
   4AA
  8
0
  6
CONTINUOUS
 62
     1
 10
-531.970017960668
 20
128.663536945064
 30
0.0
 11
-533.195017939806
 21
128.663536945064
 31
0.0
  0
LINE
  5
   4AB
  8
0
  6
CONTINUOUS
 62
     1
 10
-533.195017939806
 20
128.663536945064
 30
0.0
 11
-533.195017939806
 21
144.326036678333
 31
0.0
  0
LINE
  5
   4AC
  8
0
  6
CONTINUOUS
 62
     1
 10
-533.195017939806
 20
150.276035909433
 30
0.0
 11
-533.195017939806
 21
185.013537988145
 31
0.0
  0
LINE
  5
   4AD
  8
0
  6
CONTINUOUS
 62
     1
 10
-531.970017960668
 20
185.013537988145
 30
0.0
 11
-533.195017939806
 21
185.013537988145
 31
0.0
  0
LINE
  5
   4AE
  8
0
  6
CONTINUOUS
 62
     1
 10
-531.270017972589
 20
157.888538450081
 30
0.0
 11
-531.270017972589
 21
180.638538062651
 31
0.0
  0
LINE
  5
   4AF
  8
0
  6
CONTINUOUS
 62
     1
 10
-531.270017972589
 20
149.576038591642
 30
0.0
 11
-531.270017972589
 21
155.788541156132
 31
0.0
  0
LINE
  5
   4B0
  8
0
  6
CONTINUOUS
 62
     7
 10
-529.695017999411
 20
131.140610286211
 30
0.0
 11
-529.695017999411
 21
132.836464825812
 31
0.0
  0
LINE
  5
   4B1
  8
0
  6
CONTINUOUS
 62
     7
 10
-529.695017999411
 20
180.840609439825
 30
0.0
 11
-529.695017999411
 21
182.536466649714
 31
0.0
  0
LINE
  5
   4B2
  8
0
  6
CONTINUOUS
 62
     7
 10
-529.695017999411
 20
155.990609863018
 30
0.0
 11
-529.695017999411
 21
157.686464402619
 31
0.0
  0
LINE
  5
   4B3
  8
0
  6
CONTINUOUS
 62
     1
 10
-532.845017945766
 20
144.326036010761
 30
0.0
 11
-533.195017939806
 21
144.326036010761
 31
0.0
  0
LINE
  5
   4B4
  8
0
  6
CONTINUOUS
 62
     1
 10
-532.845017945766
 20
150.276035909433
 30
0.0
 11
-533.195017939806
 21
150.276035909433
 31
0.0
  0
LINE
  5
   4B5
  8
0
  6
CONTINUOUS
 62
     3
 10
-533.195017939806
 20
144.6760360048
 30
0.0
 11
-533.195017939806
 21
149.926035915393
 31
0.0
  0
LINE
  5
   4B6
  8
0
  6
CONTINUOUS
 62
     7
 10
-532.845017945766
 20
144.6760360048
 30
0.0
 11
-533.195017939806
 21
144.6760360048
 31
0.0
  0
LINE
  5
   4B7
  8
0
  6
CONTINUOUS
 62
     7
 10
-532.845017945766
 20
143.276036028642
 30
0.0
 11
-532.845017945766
 21
144.6760360048
 31
0.0
  0
LINE
  5
   4B8
  8
0
  6
CONTINUOUS
 62
     7
 10
-532.495017951727
 20
143.276036028642
 30
0.0
 11
-532.845017945766
 21
143.276036028642
 31
0.0
  0
LINE
  5
   4B9
  8
0
  6
CONTINUOUS
 62
     7
 10
-532.495017951727
 20
143.276036028642
 30
0.0
 11
-532.495017951727
 21
151.326035891552
 31
0.0
  0
LINE
  5
   4BA
  8
0
  6
CONTINUOUS
 62
     7
 10
-532.495017951727
 20
151.326035891552
 30
0.0
 11
-532.845017945766
 21
151.326035891552
 31
0.0
  0
LINE
  5
   4BB
  8
0
  6
CONTINUOUS
 62
     7
 10
-532.845017945766
 20
149.926035915393
 30
0.0
 11
-532.845017945766
 21
151.326035891552
 31
0.0
  0
LINE
  5
   4BC
  8
0
  6
CONTINUOUS
 62
     7
 10
-532.845017945766
 20
149.926035915393
 30
0.0
 11
-533.195017939806
 21
149.926035915393
 31
0.0
  0
LINE
  5
   4BD
  8
0
  6
CONTINUOUS
 62
     7
 10
-528.470018020272
 20
145.026108096617
 30
0.0
 11
-531.970017960668
 21
145.026108096617
 31
0.0
  0
LINE
  5
   4BE
  8
0
  6
CONTINUOUS
 62
     7
 10
-528.470018020272
 20
149.576035921354
 30
0.0
 11
-531.970017960668
 21
149.576035921354
 31
0.0
  0
LINE
  5
   4BF
  8
0
  6
CONTINUOUS
 62
     1
 10
-533.195017939806
 20
144.326038681049
 30
0.0
 11
-533.195017939806
 21
144.6760360048
 31
0.0
  0
LINE
  5
   4C0
  8
0
  6
CONTINUOUS
 62
     1
 10
-533.195017939806
 20
149.926035915393
 30
0.0
 11
-533.195017939806
 21
150.276038579721
 31
0.0
  0
LINE
  5
   4C1
  8
0
  6
CONTINUOUS
 62
     7
 10
-530.04501799345
 20
130.938537573893
 30
0.0
 11
-531.970017960668
 21
130.938537573893
 31
0.0
  0
LINE
  5
   4C2
  8
0
  6
CONTINUOUS
 62
     7
 10
-530.04501799345
 20
133.03853753813
 30
0.0
 11
-531.970017960668
 21
133.03853753813
 31
0.0
  0
LINE
  5
   4C3
  8
0
  6
CONTINUOUS
 62
     7
 10
-530.04501799345
 20
132.958611811647
 30
0.0
 11
-530.04501799345
 21
133.03853753813
 31
0.0
  0
LINE
  5
   4C4
  8
0
  6
CONTINUOUS
 62
     7
 10
-530.04501799345
 20
132.73100046451
 30
0.0
 11
-530.04501799345
 21
132.958611811647
 31
0.0
  0
LINE
  5
   4C5
  8
0
  6
CONTINUOUS
 62
     7
 10
-530.04501799345
 20
132.39035582462
 30
0.0
 11
-530.04501799345
 21
132.73100046451
 31
0.0
  0
LINE
  5
   4C6
  8
0
  6
CONTINUOUS
 62
     7
 10
-530.04501799345
 20
131.988537556011
 30
0.0
 11
-530.04501799345
 21
132.39035582462
 31
0.0
  0
LINE
  5
   4C7
  8
0
  6
CONTINUOUS
 62
     7
 10
-530.04501799345
 20
131.586720622547
 30
0.0
 11
-530.04501799345
 21
131.988537556011
 31
0.0
  0
LINE
  5
   4C8
  8
0
  6
CONTINUOUS
 62
     7
 10
-530.04501799345
 20
131.246075982657
 30
0.0
 11
-530.04501799345
 21
131.586720622547
 31
0.0
  0
LINE
  5
   4C9
  8
0
  6
CONTINUOUS
 62
     7
 10
-530.04501799345
 20
131.01846463552
 30
0.0
 11
-530.04501799345
 21
131.246075982657
 31
0.0
  0
LINE
  5
   4CA
  8
0
  6
CONTINUOUS
 62
     7
 10
-530.04501799345
 20
130.938537573893
 30
0.0
 11
-530.04501799345
 21
131.01846463552
 31
0.0
  0
LINE
  5
   4CB
  8
0
  6
CONTINUOUS
 62
     7
 10
-530.045017573937
 20
130.938537284827
 30
0.0
 11
-529.695017568373
 21
131.140609985965
 31
0.0
  0
LINE
  5
   4CC
  8
0
  6
CONTINUOUS
 62
     7
 10
-529.69501724585
 20
132.836464195015
 30
0.0
 11
-530.045017251415
 21
133.038536896154
 31
0.0
  0
LINE
  5
   4CD
  8
0
  6
CONTINUOUS
 62
     7
 10
-530.04501799345
 20
180.638538062651
 30
0.0
 11
-531.970017960668
 21
180.638538062651
 31
0.0
  0
LINE
  5
   4CE
  8
0
  6
CONTINUOUS
 62
     7
 10
-530.04501799345
 20
182.738538026888
 30
0.0
 11
-531.970017960668
 21
182.738538026888
 31
0.0
  0
LINE
  5
   4CF
  8
0
  6
CONTINUOUS
 62
     7
 10
-530.04501799345
 20
182.658610965261
 30
0.0
 11
-530.04501799345
 21
182.738538026888
 31
0.0
  0
LINE
  5
   4D0
  8
0
  6
CONTINUOUS
 62
     7
 10
-530.04501799345
 20
182.431000953268
 30
0.0
 11
-530.04501799345
 21
182.658610965261
 31
0.0
  0
LINE
  5
   4D1
  8
0
  6
CONTINUOUS
 62
     7
 10
-530.04501799345
 20
182.090352307946
 30
0.0
 11
-530.04501799345
 21
182.431000953268
 31
0.0
  0
LINE
  5
   4D2
  8
0
  6
CONTINUOUS
 62
     7
 10
-530.04501799345
 20
181.688538044769
 30
0.0
 11
-530.04501799345
 21
182.090352307946
 31
0.0
  0
LINE
  5
   4D3
  8
0
  6
CONTINUOUS
 62
     7
 10
-530.04501799345
 20
181.286718441017
 30
0.0
 11
-530.04501799345
 21
181.688538044769
 31
0.0
  0
LINE
  5
   4D4
  8
0
  6
CONTINUOUS
 62
     7
 10
-530.04501799345
 20
180.946075136271
 30
0.0
 11
-530.04501799345
 21
181.286718441017
 31
0.0
  0
LINE
  5
   4D5
  8
0
  6
CONTINUOUS
 62
     7
 10
-530.04501799345
 20
180.718465124278
 30
0.0
 11
-530.04501799345
 21
180.946075136271
 31
0.0
  0
LINE
  5
   4D6
  8
0
  6
CONTINUOUS
 62
     7
 10
-530.04501799345
 20
180.638538062651
 30
0.0
 11
-530.04501799345
 21
180.718465124278
 31
0.0
  0
LINE
  5
   4D7
  8
0
  6
CONTINUOUS
 62
     7
 10
-530.045018056945
 20
180.638537311854
 30
0.0
 11
-529.695018051381
 21
180.840608691561
 31
0.0
  0
LINE
  5
   4D8
  8
0
  6
CONTINUOUS
 62
     7
 10
-529.695017484966
 20
182.536465762874
 30
0.0
 11
-530.045017490529
 21
182.738537142582
 31
0.0
  0
LINE
  5
   4D9
  8
0
  6
CONTINUOUS
 62
     7
 10
-530.04501799345
 20
155.788538485844
 30
0.0
 11
-531.970017960668
 21
155.788538485844
 31
0.0
  0
LINE
  5
   4DA
  8
0
  6
CONTINUOUS
 62
     7
 10
-530.04501799345
 20
157.888538450081
 30
0.0
 11
-531.970017960668
 21
157.888538450081
 31
0.0
  0
LINE
  5
   4DB
  8
0
  6
CONTINUOUS
 62
     7
 10
-530.04501799345
 20
157.808611388454
 30
0.0
 11
-530.04501799345
 21
157.888538450081
 31
0.0
  0
LINE
  5
   4DC
  8
0
  6
CONTINUOUS
 62
     7
 10
-530.04501799345
 20
157.580998706173
 30
0.0
 11
-530.04501799345
 21
157.808611388454
 31
0.0
  0
LINE
  5
   4DD
  8
0
  6
CONTINUOUS
 62
     7
 10
-530.04501799345
 20
157.240355401427
 30
0.0
 11
-530.04501799345
 21
157.580998706173
 31
0.0
  0
LINE
  5
   4DE
  8
0
  6
CONTINUOUS
 62
     7
 10
-530.04501799345
 20
156.838538467962
 30
0.0
 11
-530.04501799345
 21
157.240355401427
 31
0.0
  0
LINE
  5
   4DF
  8
0
  6
CONTINUOUS
 62
     7
 10
-530.04501799345
 20
156.43671886421
 30
0.0
 11
-530.04501799345
 21
156.838538467962
 31
0.0
  0
LINE
  5
   4E0
  8
0
  6
CONTINUOUS
 62
     7
 10
-530.04501799345
 20
156.096075559464
 30
0.0
 11
-530.04501799345
 21
156.43671886421
 31
0.0
  0
LINE
  5
   4E1
  8
0
  6
CONTINUOUS
 62
     7
 10
-530.04501799345
 20
155.868462877183
 30
0.0
 11
-530.04501799345
 21
156.096075559464
 31
0.0
  0
LINE
  5
   4E2
  8
0
  6
CONTINUOUS
 62
     7
 10
-530.04501799345
 20
155.788538485844
 30
0.0
 11
-530.04501799345
 21
155.868462877183
 31
0.0
  0
LINE
  5
   4E3
  8
0
  6
CONTINUOUS
 62
     7
 10
-530.045017945844
 20
155.788538055767
 30
0.0
 11
-529.69501794028
 21
155.990609435475
 31
0.0
  0
LINE
  5
   4E4
  8
0
  6
CONTINUOUS
 62
     7
 10
-529.695017439551
 20
157.686463614703
 30
0.0
 11
-530.045017445115
 21
157.888537661365
 31
0.0
  0
LINE
  5
   4E5
  8
0
  6
CONTINUOUS
 62
     7
 10
-531.270019307733
 20
133.21353753515
 30
0.0
 11
-531.970017960668
 21
133.21353753515
 31
0.0
  0
LINE
  5
   4E6
  8
0
  6
CONTINUOUS
 62
     7
 10
-531.270019307733
 20
130.763537576873
 30
0.0
 11
-531.970017960668
 21
130.763537576873
 31
0.0
  0
LINE
  5
   4E7
  8
0
  6
CONTINUOUS
 62
     7
 10
-531.270019307733
 20
133.03853753813
 30
0.0
 11
-531.270019307733
 21
145.026041339416
 31
0.0
  0
LINE
  5
   4E8
  8
0
  6
CONTINUOUS
 62
     7
 10
-531.270017972589
 20
144.676108102577
 30
0.0
 11
-531.970017960668
 21
144.676108102577
 31
0.0
  0
LINE
  5
   4E9
  8
0
  6
CONTINUOUS
 62
     7
 10
-531.270017972589
 20
149.926035915393
 30
0.0
 11
-531.970017960668
 21
149.926035915393
 31
0.0
  0
LINE
  5
   4EA
  8
0
  6
CONTINUOUS
 62
     7
 10
-531.270017972589
 20
158.063538447101
 30
0.0
 11
-531.970017960668
 21
158.063538447101
 31
0.0
  0
LINE
  5
   4EB
  8
0
  6
CONTINUOUS
 62
     7
 10
-531.270017972589
 20
155.613538488824
 30
0.0
 11
-531.970017960668
 21
155.613538488824
 31
0.0
  0
LINE
  5
   4EC
  8
0
  6
CONTINUOUS
 62
     7
 10
-531.270019307733
 20
182.738538026888
 30
0.0
 11
-531.270019307733
 21
198.531230431612
 31
0.0
  0
LINE
  5
   4ED
  8
0
  6
CONTINUOUS
 62
     7
 10
-531.270019307733
 20
182.913538023908
 30
0.0
 11
-531.970017960668
 21
182.913538023908
 31
0.0
  0
LINE
  5
   4EE
  8
0
  6
CONTINUOUS
 62
     7
 10
-531.270019307733
 20
180.463538065631
 30
0.0
 11
-531.970017960668
 21
180.463538065631
 31
0.0
  0
INSERT
  5
   4EF
  8
0
  6
CONTINUOUS
 62
     7
  2
*HATCH177
 10
-518.14501953125
 20
118.343132019043
 30
0.0
 41
0.349999994039536
 42
0.349999994039536
 50
89.9999999480344
 43
0.349999994039536
  0
INSERT
  5
   4F0
  8
0
  6
CONTINUOUS
 62
     7
  2
*HATCH178
 10
-518.14501953125
 20
118.343132019043
 30
0.0
 41
0.349999994039536
 42
0.349999994039536
 50
89.9999999480344
 43
0.349999994039536
  0
INSERT
  5
   4F1
  8
0
  6
CONTINUOUS
 62
     7
  2
*HATCH179
 10
-518.14501953125
 20
118.343132019043
 30
0.0
 41
0.349999994039536
 42
0.349999994039536
 50
89.9999999480344
 43
0.349999994039536
  0
INSERT
  5
   4F2
  8
0
  6
CONTINUOUS
 62
     7
  2
*HATCH180
 10
-518.14501953125
 20
118.343132019043
 30
0.0
 41
0.349999994039536
 42
0.349999994039536
 50
89.9999999480344
 43
0.349999994039536
  0
INSERT
  5
   4F3
  8
0
  6
CONTINUOUS
 62
     7
  2
*HATCH181
 10
-518.14501953125
 20
118.343132019043
 30
0.0
 41
0.349999994039536
 42
0.349999994039536
 50
89.9999999480344
 43
0.349999994039536
  0
CIRCLE
  5
   4F4
  8
0
  6
CONTINUOUS
 62
     7
 10
-531.828834530606
 20
106.552064634728
 30
0.0
 40
8.74999985098839E-2
  0
LINE
  5
   4F5
  8
0
  6
CONTINUOUS
 62
     3
 10
-530.04501799345
 20
175.213602241951
 30
0.0
 11
-530.04501799345
 21
177.663602200228
 31
0.0
  0
LINE
  5
   4F6
  8
0
  6
CONTINUOUS
 62
     3
 10
-529.345018005371
 20
175.213602241951
 30
0.0
 11
-529.345018005371
 21
177.663602200228
 31
0.0
  0
LINE
  5
   4F7
  8
0
  6
CONTINUOUS
 62
     3
 10
-529.345018005371
 20
177.663602200228
 30
0.0
 11
-530.04501799345
 21
177.663602200228
 31
0.0
  0
LINE
  5
   4F8
  8
0
  6
CONTINUOUS
 62
     7
 10
-527.945020031929
 20
175.73860223301
 30
0.0
 11
-528.820022019744
 21
175.73860223301
 31
0.0
  0
LINE
  5
   4F9
  8
0
  6
CONTINUOUS
 62
     7
 10
-527.945020031929
 20
175.73860223301
 30
0.0
 11
-527.945020031929
 21
179.413602170425
 31
0.0
  0
LINE
  5
   4FA
  8
0
  6
CONTINUOUS
 62
     7
 10
-529.170022013783
 20
180.638602149564
 30
0.0
 11
-530.045021998882
 21
180.638602149564
 31
0.0
  0
LINE
  5
   4FB
  8
0
  6
CONTINUOUS
 62
     7
 10
-530.395021992922
 20
182.738538026888
 30
0.0
 11
-530.395021992922
 21
183.788602095919
 31
0.0
  0
LINE
  5
   4FC
  8
0
  6
CONTINUOUS
 62
     7
 10
-530.395021992922
 20
183.788602095919
 30
0.0
 11
-531.270019307733
 21
183.788602095919
 31
0.0
  0
LINE
  5
   4FD
  8
0
  6
CONTINUOUS
 62
     7
 10
-529.170022013783
 20
179.763602164465
 30
0.0
 11
-530.045021998882
 21
179.763602164465
 31
0.0
  0
LINE
  5
   4FE
  8
0
  6
CONTINUOUS
 62
     7
 10
-528.820022019744
 20
175.73860223301
 30
0.0
 11
-528.820022019744
 21
179.413602170425
 31
0.0
  0
ARC
  5
   4FF
  8
0
  6
CONTINUOUS
 62
     7
 10
-529.170027142511
 20
179.413597730219
 30
0.0
 40
1.2250064377287
 50
360.000319242658
 51
449.999813057862
  0
ARC
  5
   500
  8
0
  6
CONTINUOUS
 62
     7
 10
-529.170006526931
 20
179.413616483599
 30
0.0
 40
0.349982431475061
 50
359.998830132094
 51
450.002235749312
  0
ARC
  5
   501
  8
0
  6
CONTINUOUS
 62
     7
 10
-530.045028772216
 20
180.988590927176
 30
0.0
 40
1.22498984871903
 50
196.604271282219
 51
270.000346548696
  0
LINE
  5
   502
  8
0
  6
CONTINUOUS
 62
     7
 10
-527.945020031929
 20
178.888602179366
 30
0.0
 11
-528.820022019744
 21
178.888602179366
 31
0.0
  0
INSERT
  5
   503
  8
0
  6
CONTINUOUS
 62
     7
  2
*HATCH182
 10
-518.14501953125
 20
118.343132019043
 30
0.0
 41
0.349999994039536
 42
0.349999994039536
 50
89.9999999480344
 43
0.349999994039536
  0
LINE
  5
   504
  8
0
  6
DOT
 62
     3
 10
-542.820017775893
 20
138.463585510927
 30
0.0
 11
-542.820017775893
 21
175.213602241951
 31
0.0
  0
LINE
  5
   505
  8
0
  6
DOT
 62
     3
 10
-536.235124074722
 20
175.213602241951
 30
0.0
 11
-542.820017775893
 21
175.213602241951
 31
0.0
  0
LINE
  5
   506
  8
0
  6
DOT
 62
     3
 10
-536.970074530061
 20
138.463585510927
 30
0.0
 11
-542.820017775893
 21
138.463585510927
 31
0.0
  0
LINE
  5
   507
  8
0
  6
CONTINUOUS
 62
     3
 10
-462.320020481944
 20
178.451086165088
 30
0.0
 11
-462.320020481944
 21
181.251086117405
 31
0.0
  0
LINE
  5
   508
  8
0
  6
CONTINUOUS
 62
     3
 10
-460.920020505786
 20
178.976086156148
 30
0.0
 11
-460.920020505786
 21
180.726086126345
 31
0.0
  0
LINE
  5
   509
  8
0
  6
CONTINUOUS
 62
     3
 10
-462.320020481944
 20
181.251086117405
 30
0.0
 11
-463.720020458102
 21
181.251086117405
 31
0.0
  0
LINE
  5
   50A
  8
0
  6
CONTINUOUS
 62
     3
 10
-462.320020481944
 20
178.451086165088
 30
0.0
 11
-463.720020458102
 21
178.451086165088
 31
0.0
  0
LINE
  5
   50B
  8
0
  6
CONTINUOUS
 62
     3
 10
-460.920020505786
 20
180.726086126345
 30
0.0
 11
-463.720020458102
 21
180.726086126345
 31
0.0
  0
LINE
  5
   50C
  8
0
  6
CONTINUOUS
 62
     3
 10
-460.920020505786
 20
178.976086156148
 30
0.0
 11
-463.720020458102
 21
178.976086156148
 31
0.0
  0
LINE
  5
   50D
  8
0
  6
CONTINUOUS
 62
     3
 10
-462.320020481944
 20
134.001086922067
 30
0.0
 11
-463.720020458102
 21
134.001086922067
 31
0.0
  0
LINE
  5
   50E
  8
0
  6
CONTINUOUS
 62
     3
 10
-460.920020505786
 20
133.476086931008
 30
0.0
 11
-463.720020458102
 21
133.476086931008
 31
0.0
  0
LINE
  5
   50F
  8
0
  6
CONTINUOUS
 62
     3
 10
-460.920020505786
 20
131.72608696081
 30
0.0
 11
-463.720020458102
 21
131.72608696081
 31
0.0
  0
LINE
  5
   510
  8
0
  6
CONTINUOUS
 62
     3
 10
-462.320020481944
 20
131.201086969751
 30
0.0
 11
-463.720020458102
 21
131.201086969751
 31
0.0
  0
LINE
  5
   511
  8
0
  6
CONTINUOUS
 62
     3
 10
-462.320020481944
 20
131.201086969751
 30
0.0
 11
-462.320020481944
 21
134.001086922067
 31
0.0
  0
LINE
  5
   512
  8
0
  6
CONTINUOUS
 62
     3
 10
-460.920020505786
 20
131.72608696081
 30
0.0
 11
-460.920020505786
 21
133.476086931008
 31
0.0
  0
LINE
  5
   513
  8
0
  6
CONTINUOUS
 62
     3
 10
-463.720020458102
 20
208.726101671236
 30
0.0
 11
-464.770020440221
 21
208.726101671236
 31
0.0
  0
LINE
  5
   514
  8
0
  6
CONTINUOUS
 62
     3
 10
-463.720020458102
 20
185.976102058667
 30
0.0
 11
-464.770020440221
 21
185.976102058667
 31
0.0
  0
LINE
  5
   515
  8
0
  6
CONTINUOUS
 62
   210
 10
-482.095035373375
 20
121.576114504116
 30
0.0
 11
-482.095035373375
 21
132.513573595959
 31
0.0
  0
LINE
  5
   516
  8
0
  6
CONTINUOUS
 62
   210
 10
-482.095040813997
 20
183.176080744046
 30
0.0
 11
-482.095040813997
 21
185.626102064627
 31
0.0
  0
LINE
  5
   517
  8
0
  6
CONTINUOUS
 62
   210
 10
-469.145039057731
 20
125.776105754155
 30
0.0
 11
-469.145039057731
 21
134.175994057617
 31
0.0
  0
LINE
  5
   518
  8
0
  6
CONTINUOUS
 62
   210
 10
-469.145039057731
 20
183.176080744046
 30
0.0
 11
-469.145039057731
 21
186.676102046746
 31
0.0
  0
LINE
  5
   519
  8
0
  6
CONTINUOUS
 62
   210
 10
-465.470039120316
 20
144.676100091713
 30
0.0
 11
-466.170021202979
 21
144.676100091713
 31
0.0
  0
LINE
  5
   51A
  8
0
  6
CONTINUOUS
 62
   210
 10
-465.470039120316
 20
147.12610004999
 30
0.0
 11
-466.170021492778
 21
147.12610004999
 31
0.0
  0
LINE
  5
   51B
  8
0
  6
CONTINUOUS
 62
   210
 10
-465.470039120316
 20
144.676100091713
 30
0.0
 11
-465.470039120316
 21
147.12610004999
 31
0.0
  0
LINE
  5
   51C
  8
0
  6
CONTINUOUS
 62
   210
 10
-464.770039132237
 20
177.226107548254
 30
0.0
 11
-464.770039132237
 21
182.476107458847
 31
0.0
  0
LINE
  5
   51D
  8
0
  6
CONTINUOUS
 62
   210
 10
-464.770039132237
 20
129.976109688061
 30
0.0
 11
-464.770039132237
 21
135.226109598654
 31
0.0
  0
LINE
  5
   51E
  8
0
  6
CONTINUOUS
 62
   210
 10
-464.770039132237
 20
182.476107458847
 30
0.0
 11
-466.170025674158
 21
182.476107458847
 31
0.0
  0
LINE
  5
   51F
  8
0
  6
CONTINUOUS
 62
   210
 10
-464.770039132237
 20
177.226107548254
 30
0.0
 11
-466.170025053161
 21
177.226107548254
 31
0.0
  0
LINE
  5
   520
  8
0
  6
CONTINUOUS
 62
   210
 10
-464.770039132237
 20
135.226109598654
 30
0.0
 11
-466.170024300241
 21
135.226109598654
 31
0.0
  0
LINE
  5
   521
  8
0
  6
CONTINUOUS
 62
   210
 10
-464.770039132237
 20
129.976109688061
 30
0.0
 11
-469.145039057731
 21
129.976109688061
 31
0.0
  0
LINE
  5
   522
  8
0
  6
DASHDOT
 62
   210
 10
-473.345038866354
 20
105.026043096095
 30
0.0
 11
-473.345038866354
 21
141.963609960444
 31
0.0
  0
LINE
  5
   523
  8
0
  6
DASHDOT
 62
   210
 10
-471.507539120915
 20
140.126110215005
 30
0.0
 11
-475.182538611793
 21
140.126110215005
 31
0.0
  0
LINE
  5
   524
  8
0
  6
DASHDOT
 62
   210
 10
-473.345036130144
 20
142.155636881494
 30
0.0
 11
-473.345036130144
 21
206.367993192712
 31
0.0
  0
LINE
  5
   525
  8
0
  6
DASHDOT
 62
   210
 10
-471.507533133685
 20
175.126110394908
 30
0.0
 11
-475.182539126604
 21
175.126110394908
 31
0.0
  0
LINE
  5
   526
  8
0
  6
DASHDOT
 62
   210
 10
-461.969661043544
 20
179.851107503551
 30
0.0
 11
-470.452615794448
 21
179.851107503551
 31
0.0
  0
LINE
  5
   527
  8
0
  6
DASHDOT
 62
   210
 10
-463.268072485009
 20
132.601109643358
 30
0.0
 11
-471.794307617295
 21
132.601109643358
 31
0.0
  0
LINE
  5
   528
  8
0
  6
CONTINUOUS
 62
   210
 10
-469.145039057731
 20
183.876110245896
 30
0.0
 11
-482.095035349768
 21
183.876110245896
 31
0.0
  0
LINE
  5
   529
  8
0
  6
CONTINUOUS
 62
   210
 10
-469.145039057731
 20
131.376110364016
 30
0.0
 11
-482.095037413042
 21
131.376110364016
 31
0.0
  0
LINE
  5
   52A
  8
0
  6
CONTINUOUS
 62
   210
 10
-465.120033785701
 20
108.976107375401
 30
0.0
 11
-482.095038150026
 21
108.976107375401
 31
0.0
  0
LINE
  5
   52B
  8
0
  6
CONTINUOUS
 62
   210
 10
-465.120033785701
 20
112.756109714287
 30
0.0
 11
-482.095038837194
 21
112.756109714287
 31
0.0
  0
LINE
  5
   52C
  8
0
  6
CONTINUOUS
 62
   210
 10
-465.120033785701
 20
199.696106097477
 30
0.0
 11
-482.095038837194
 21
199.696106097477
 31
0.0
  0
LINE
  5
   52D
  8
0
  6
CONTINUOUS
 62
   210
 10
-465.120033785701
 20
108.976107375401
 30
0.0
 11
-465.120033785701
 21
125.776105754155
 31
0.0
  0
LINE
  5
   52E
  8
0
  6
CONTINUOUS
 62
   210
 10
-465.120033785701
 20
186.676102046746
 30
0.0
 11
-465.120033785701
 21
203.476101760643
 31
0.0
  0
LINE
  5
   52F
  8
0
  6
CONTINUOUS
 62
   210
 10
-465.120033785701
 20
125.776105754155
 30
0.0
 11
-469.145039057731
 21
125.776105754155
 31
0.0
  0
LINE
  5
   530
  8
0
  6
CONTINUOUS
 62
   210
 10
-465.120033785701
 20
186.676102046746
 30
0.0
 11
-469.145039057731
 21
186.676102046746
 31
0.0
  0
LINE
  5
   531
  8
0
  6
CONTINUOUS
 62
   210
 10
-458.645039236545
 20
186.676102046746
 30
0.0
 11
-465.120036455989
 21
186.676102046746
 31
0.0
  0
LINE
  5
   532
  8
0
  6
CONTINUOUS
 62
   210
 10
-463.370037820935
 20
203.476101760643
 30
0.0
 11
-465.120036455989
 21
203.476101760643
 31
0.0
  0
LINE
  5
   533
  8
0
  6
CONTINUOUS
 62
   210
 10
-463.370039156079
 20
186.676102046746
 30
0.0
 11
-463.370039156079
 21
190.432823479351
 31
0.0
  0
LINE
  5
   534
  8
0
  6
CONTINUOUS
 62
   210
 10
-463.370068077269
 20
199.719374987473
 30
0.0
 11
-463.370068077269
 21
203.476101760654
 31
0.0
  0
LINE
  5
   535
  8
0
  6
CONTINUOUS
 62
   210
 10
-458.645039236545
 20
186.676102046746
 30
0.0
 11
-458.645039236545
 21
203.476096420067
 31
0.0
  0
LINE
  5
   536
  8
0
  6
CONTINUOUS
 62
   210
 10
-458.645039235615
 20
125.776095673814
 30
0.0
 11
-465.120036455714
 21
125.776103083871
 31
0.0
  0
LINE
  5
   537
  8
0
  6
CONTINUOUS
 62
   210
 10
-463.370039155933
 20
108.976101367242
 30
0.0
 11
-465.120036455684
 21
108.97610403753
 31
0.0
  0
LINE
  5
   538
  8
0
  6
CONTINUOUS
 62
   210
 10
-463.370039156079
 20
108.976101367253
 30
0.0
 11
-463.370039156079
 21
112.732826137718
 31
0.0
  0
LINE
  5
   539
  8
0
  6
CONTINUOUS
 62
   210
 10
-463.370039156079
 20
122.019377312043
 30
0.0
 11
-463.370039156079
 21
125.77610108115
 31
0.0
  0
LINE
  5
   53A
  8
0
  6
CONTINUOUS
 62
   210
 10
-458.645039236545
 20
108.976099364537
 30
0.0
 11
-458.645039236545
 21
125.776095673814
 31
0.0
  0
LINE
  5
   53B
  8
0
  6
CONTINUOUS
 62
   210
 10
-458.645039236545
 20
203.476096420067
 30
0.0
 11
-463.370037820935
 21
203.476096420067
 31
0.0
  0
LINE
  5
   53C
  8
0
  6
CONTINUOUS
 62
   210
 10
-458.645039236545
 20
190.432823479351
 30
0.0
 11
-463.370039156079
 21
190.432823479351
 31
0.0
  0
LINE
  5
   53D
  8
0
  6
CONTINUOUS
 62
   210
 10
-458.645039236545
 20
199.719374987462
 30
0.0
 11
-463.370039156079
 21
199.719374987462
 31
0.0
  0
LINE
  5
   53E
  8
0
  6
CONTINUOUS
 62
   210
 10
-458.645039236545
 20
108.976099364537
 30
0.0
 11
-463.370039156079
 21
108.976099364537
 31
0.0
  0
LINE
  5
   53F
  8
0
  6
CONTINUOUS
 62
   210
 10
-458.645039236545
 20
112.732826137718
 30
0.0
 11
-463.370039156079
 21
112.732826137718
 31
0.0
  0
LINE
  5
   540
  8
0
  6
CONTINUOUS
 62
   210
 10
-458.645039236545
 20
122.019377312043
 30
0.0
 11
-463.370039156079
 21
122.019377312043
 31
0.0
  0
LINE
  5
   541
  8
0
  6
DASHDOT
 62
   210
 10
-457.002618653423
 20
195.076101903695
 30
0.0
 11
-483.767685671799
 21
195.076101903695
 31
0.0
  0
LINE
  5
   542
  8
0
  6
DASHDOT
 62
   210
 10
-456.665951578713
 20
117.376097123485
 30
0.0
 11
-483.823797615187
 21
117.376128203221
 31
0.0
  0
LINE
  5
   543
  8
0
  6
CONTINUOUS
 62
   210
 10
-465.120033785699
 20
203.47609619036
 30
0.0
 11
-482.095038837194
 21
203.47609619036
 31
0.0
  0
LINE
  5
   544
  8
0
  6
CONTINUOUS
 62
   210
 10
-481.395037180185
 20
185.626102064627
 30
0.0
 11
-482.09503775239
 21
185.626102064627
 31
0.0
  0
LINE
  5
   545
  8
0
  6
CONTINUOUS
 62
   210
 10
-481.395037180185
 20
190.87610197522
 30
0.0
 11
-482.09503775239
 21
190.87610197522
 31
0.0
  0
LINE
  5
   546
  8
0
  6
CONTINUOUS
 62
   210
 10
-481.395037180185
 20
185.626102064627
 30
0.0
 11
-481.395037180185
 21
190.87610197522
 31
0.0
  0
LINE
  5
   547
  8
0
  6
CONTINUOUS
 62
   210
 10
-481.395037096739
 20
199.696090075749
 30
0.0
 11
-481.395037096739
 21
203.476096420067
 31
0.0
  0
LINE
  5
   548
  8
0
  6
CONTINUOUS
 62
   210
 10
-481.395037096739
 20
126.826114414709
 30
0.0
 11
-482.09503775239
 21
126.826114414709
 31
0.0
  0
LINE
  5
   549
  8
0
  6
CONTINUOUS
 62
   210
 10
-481.395037096739
 20
121.576114504116
 30
0.0
 11
-482.09503775239
 21
121.576114504116
 31
0.0
  0
LINE
  5
   54A
  8
0
  6
CONTINUOUS
 62
   210
 10
-481.395037013292
 20
108.976112715977
 30
0.0
 11
-481.395037013292
 21
112.756111383217
 31
0.0
  0
LINE
  5
   54B
  8
0
  6
CONTINUOUS
 62
   210
 10
-481.395037096739
 20
121.57611417033
 30
0.0
 11
-481.395037096739
 21
126.826114414709
 31
0.0
  0
LINE
  5
   54C
  8
0
  6
CONTINUOUS
 62
   210
 10
-482.095038837194
 20
185.626102064627
 30
0.0
 11
-482.095038837194
 21
203.47609619036
 31
0.0
  0
LINE
  5
   54D
  8
0
  6
CONTINUOUS
 62
   210
 10
-482.095038150026
 20
108.976107375401
 30
0.0
 11
-482.095038150026
 21
121.576114504116
 31
0.0
  0
LINE
  5
   54E
  8
0
  6
CONTINUOUS
 62
     3
 10
-463.720020458102
 20
126.476105041273
 30
0.0
 11
-464.770020440221
 21
126.476106242904
 31
0.0
  0
LINE
  5
   54F
  8
0
  6
DASHDOT
 62
     7
 10
-463.074141099872
 20
195.075955039368
 30
0.0
 11
-471.693741014895
 21
195.075955039368
 31
0.0
  0
LINE
  5
   550
  8
0
  6
DASHDOT
 62
     7
 10
-463.074141099872
 20
117.376240745236
 30
0.0
 11
-471.693741014895
 21
117.376240745236
 31
0.0
  0
LINE
  5
   551
  8
0
  6
CONTINUOUS
 62
     3
 10
-463.720025665172
 20
103.726105428694
 30
0.0
 11
-464.77002564729
 21
103.726106630325
 31
0.0
  0
LINE
  5
   552
  8
0
  6
CONTINUOUS
 62
   130
 10
-442.895039504766
 20
188.076086764115
 30
0.0
 11
-458.645039236545
 21
188.076086764115
 31
0.0
  0
LINE
  5
   553
  8
0
  6
CONTINUOUS
 62
   130
 10
-442.895039504766
 20
188.076086764115
 30
0.0
 11
-442.895039504766
 21
202.076086525696
 31
0.0
  0
LINE
  5
   554
  8
0
  6
CONTINUOUS
 62
   130
 10
-442.895039504766
 20
202.076086525696
 30
0.0
 11
-458.645039236545
 21
202.076086525696
 31
0.0
  0
CIRCLE
  5
   555
  8
0
  6
CONTINUOUS
 62
   130
 10
-449.895036694194
 20
195.07608662383
 30
0.0
 40
1.92499634938196
  0
LINE
  5
   556
  8
0
  6
CONTINUOUS
 62
     7
 10
-425.920039793849
 20
188.076086764115
 30
0.0
 11
-425.920039793849
 21
202.076086525696
 31
0.0
  0
LINE
  5
   557
  8
0
  6
CONTINUOUS
 62
     7
 10
-425.920039793849
 20
202.076086525696
 30
0.0
 11
-442.895039504766
 21
202.076086525696
 31
0.0
  0
LINE
  5
   558
  8
0
  6
CONTINUOUS
 62
     7
 10
-425.920039793849
 20
188.076086764115
 30
0.0
 11
-442.895039504766
 21
188.076086764115
 31
0.0
  0
CIRCLE
  5
   559
  8
0
  6
CONTINUOUS
 62
     7
 10
-432.920036983276
 20
195.07608662383
 30
0.0
 40
1.92499634938196
  0
LINE
  5
   55A
  8
0
  6
DASHDOT
 62
    90
 10
-449.895036694194
 20
192.10109029233
 30
0.0
 11
-449.895036694194
 21
198.051082955331
 31
0.0
  0
LINE
  5
   55B
  8
0
  6
DASHDOT
 62
     7
 10
-446.920040362693
 20
195.07608662383
 30
0.0
 11
-452.870033025695
 21
195.07608662383
 31
0.0
  0
LINE
  5
   55C
  8
0
  6
DASHDOT
 62
     7
 10
-432.920036983276
 20
192.10109029233
 30
0.0
 11
-432.920036983276
 21
198.051082955331
 31
0.0
  0
LINE
  5
   55D
  8
0
  6
DASHDOT
 62
     7
 10
-429.945040651776
 20
195.07608662383
 30
0.0
 11
-435.895033314777
 21
195.07608662383
 31
0.0
  0
LINE
  5
   55E
  8
0
  6
CONTINUOUS
 62
   130
 10
-442.895039504766
 20
110.376084248795
 30
0.0
 11
-458.645039236545
 21
110.376084248795
 31
0.0
  0
CIRCLE
  5
   55F
  8
0
  6
CONTINUOUS
 62
   130
 10
-449.895036694194
 20
117.376084108511
 30
0.0
 40
1.92499634938196
  0
LINE
  5
   560
  8
0
  6
DASHDOT
 62
    90
 10
-449.895036694194
 20
114.40108777701
 30
0.0
 11
-449.895036694194
 21
120.351080440011
 31
0.0
  0
LINE
  5
   561
  8
0
  6
DASHDOT
 62
     7
 10
-446.920040362693
 20
117.376084108511
 30
0.0
 11
-452.870033025695
 21
117.376084108511
 31
0.0
  0
LINE
  5
   562
  8
0
  6
CONTINUOUS
 62
   130
 10
-442.895039504766
 20
124.376084010376
 30
0.0
 11
-458.645039236545
 21
124.376084010376
 31
0.0
  0
LINE
  5
   563
  8
0
  6
CONTINUOUS
 62
   130
 10
-442.895039504766
 20
110.376084248795
 30
0.0
 11
-442.895039504766
 21
124.376084010376
 31
0.0
  0
LINE
  5
   564
  8
0
  6
CONTINUOUS
 62
     7
 10
-425.920039793849
 20
110.376084248795
 30
0.0
 11
-442.895039504766
 21
110.376084248795
 31
0.0
  0
CIRCLE
  5
   565
  8
0
  6
CONTINUOUS
 62
     7
 10
-432.920036983276
 20
117.376084108511
 30
0.0
 40
1.92499634938196
  0
LINE
  5
   566
  8
0
  6
DASHDOT
 62
     7
 10
-432.920036983276
 20
114.40108777701
 30
0.0
 11
-432.920036983276
 21
120.351080440011
 31
0.0
  0
LINE
  5
   567
  8
0
  6
DASHDOT
 62
     7
 10
-429.945040651776
 20
117.376084108511
 30
0.0
 11
-435.895033314777
 21
117.376084108511
 31
0.0
  0
LINE
  5
   568
  8
0
  6
CONTINUOUS
 62
     7
 10
-425.920039793849
 20
110.376084248795
 30
0.0
 11
-425.920039793849
 21
124.376084010376
 31
0.0
  0
LINE
  5
   569
  8
0
  6
CONTINUOUS
 62
     7
 10
-425.920039793849
 20
124.376084010376
 30
0.0
 11
-442.895039504766
 21
124.376084010376
 31
0.0
  0
INSERT
  5
   56A
  8
0
  6
CONTINUOUS
 62
     7
  2
*UDIM739
 10
0.0
 20
0.0
 30
0.0
  0
INSERT
  5
   56B
  8
0
  6
CONTINUOUS
 62
     7
  2
*UDIM740
 10
0.0
 20
0.0
 30
0.0
  0
INSERT
  5
   56C
  8
0
  6
CONTINUOUS
 62
     7
  2
*UDIM741
 10
0.0
 20
0.0
 30
0.0
  0
INSERT
  5
   56D
  8
0
  6
CONTINUOUS
 62
     7
  2
*UDIM742
 10
0.0
 20
0.0
 30
0.0
  0
INSERT
  5
   56E
  8
0
  6
CONTINUOUS
 62
     7
  2
*UDIM743
 10
0.0
 20
0.0
 30
0.0
  0
INSERT
  5
   56F
  8
0
  6
CONTINUOUS
 62
     7
  2
*UDIM744
 10
0.0
 20
0.0
 30
0.0
  0
INSERT
  5
   570
  8
0
  6
CONTINUOUS
 62
     7
  2
*UDIM745
 10
0.0
 20
0.0
 30
0.0
  0
INSERT
  5
   571
  8
0
  6
CONTINUOUS
 62
     7
  2
*UDIM746
 10
0.0
 20
0.0
 30
0.0
  0
INSERT
  5
   572
  8
0
  6
CONTINUOUS
 62
     7
  2
*UDIM747
 10
0.0
 20
0.0
 30
0.0
  0
INSERT
  5
   573
  8
0
  6
CONTINUOUS
 62
     7
  2
*UDIM748
 10
0.0
 20
0.0
 30
0.0
  0
TEXT
  5
   574
  8
0
  6
CONTINUOUS
 62
     7
 10
-560.894545226555
 20
215.969850092632
 30
0.0
 40
2.4999999335834
  1
INSULATING DISTANCE
 50
359.999999948034
 41
0.899999947857856
 72
     1
 11
-539.744547016002
 21
217.219850040347
 31
0.0
 73
     2
  0
TEXT
  5
   575
  8
0
  6
CONTINUOUS
 62
     7
 10
-563.144545189414
 20
212.469850094661
 30
0.0
 40
2.4999999335834
  1
CORSA DI SEZIONAMENTO
 50
359.999999948034
 41
0.899999947857856
 72
     1
 11
-539.744547168992
 21
213.719850040347
 31
0.0
 73
     2
  0
INSERT
  5
   576
  8
0
  6
CONTINUOUS
 62
     7
  2
*UDIM749
 10
0.0
 20
0.0
 30
0.0
  0
INSERT
  5
   577
  8
0
  6
CONTINUOUS
 62
     7
  2
*UDIM750
 10
0.0
 20
0.0
 30
0.0
  0
INSERT
  5
   578
  8
0
  6
CONTINUOUS
 62
     7
  2
*UDIM751
 10
0.0
 20
0.0
 30
0.0
  0
INSERT
  5
   579
  8
0
  6
CONTINUOUS
 62
     7
  2
*UDIM752
 10
0.0
 20
0.0
 30
0.0
  0
INSERT
  5
   57A
  8
0
  6
CONTINUOUS
 62
     7
  2
*UDIM753
 10
0.0
 20
0.0
 30
0.0
  0
TEXT
  5
   57B
  8
0
  6
CONTINUOUS
 62
     7
 10
-559.388748863094
 20
155.71527920657
 30
0.0
 40
2.99999997871263
  1
X
 50
359.999999948034
 41
0.91666663951344
 72
     2
 11
-557.188748927382
 21
155.715279204585
 31
0.0
  0
INSERT
  5
   57C
  8
0
  6
CONTINUOUS
 62
     7
  2
*UDIM754
 10
0.0
 20
0.0
 30
0.0
  0
TEXT
  5
   57D
  8
0
  6
CONTINUOUS
 62
     5
 10
-547.189384739725
 20
145.804559355414
 30
0.0
 40
2.99999997871263
  1
=       =
 50
89.9999999480344
 41
0.91666663951344
 72
     2
 11
-547.189384717807
 21
170.004558483342
 31
0.0
  0
INSERT
  5
   57E
  8
0
  6
CONTINUOUS
 62
     7
  2
*UDIM755
 10
0.0
 20
0.0
 30
0.0
  0
INSERT
  5
   57F
  8
0
  6
CONTINUOUS
 62
     7
  2
*UDIM756
 10
0.0
 20
0.0
 30
0.0
  0
LINE
  5
   580
  8
0
  6
CONTINUOUS
 62
     7
 10
-484.582580566406
 20
-39.2522888183594
 30
0.0
 11
-450.832580566406
 21
-39.2522888183594
 31
0.0
  0
LINE
  5
   581
  8
0
  6
CONTINUOUS
 62
     7
 10
-484.582580566406
 20
-7.75228881835938
 30
0.0
 11
-450.832580566406
 21
-7.75228881835938
 31
0.0
  0
LINE
  5
   582
  8
0
  6
CONTINUOUS
 62
     7
 10
-450.832580566406
 20
-7.75228881835938
 30
0.0
 11
-450.832580566406
 21
-28.3147888183594
 31
0.0
  0
LINE
  5
   583
  8
0
  6
CONTINUOUS
 62
     7
 10
-484.582580566406
 20
-7.75228881835938
 30
0.0
 11
-484.582580566406
 21
-39.2522888183594
 31
0.0
  0
LINE
  5
   584
  8
0
  6
DASHDOT
 62
     7
 10
-455.307567113001
 20
-30.3147888183594
 30
0.0
 11
-441.327274166965
 21
-30.3147888183594
 31
0.0
  0
LINE
  5
   585
  8
0
  6
CONTINUOUS
 62
     7
 10
-450.832580566406
 20
-28.3147888183594
 30
0.0
 11
-445.082580566406
 21
-28.3147888183594
 31
0.0
  0
LINE
  5
   586
  8
0
  6
CONTINUOUS
 62
     7
 10
-450.832580566406
 20
-32.3147888183594
 30
0.0
 11
-445.082580566406
 21
-32.3147888183594
 31
0.0
  0
ARC
  5
   587
  8
0
  6
CONTINUOUS
 62
     7
 10
-445.082580566406
 20
-30.3147888183594
 30
0.0
 40
2.0
 50
269.999999844103
 51
449.999999844103
  0
LINE
  5
   588
  8
0
  6
CONTINUOUS
 62
     7
 10
-450.832580566406
 20
-32.3147888183594
 30
0.0
 11
-450.832580566406
 21
-39.2522888183594
 31
0.0
  0
LINE
  5
   589
  8
0
  6
DASHDOT
 62
     7
 10
-466.582580566406
 20
2.12520234249573
 30
0.0
 11
-466.582580566406
 21
-46.6474701359108
 31
0.0
  0
CIRCLE
  5
   58A
  8
0
  6
CONTINUOUS
 62
     7
 10
-477.582580566406
 20
-5.75228881835938
 30
0.0
 40
0.875
  0
CIRCLE
  5
   58B
  8
0
  6
CONTINUOUS
 62
     7
 10
-446.332580566406
 20
-5.75228881835938
 30
0.0
 40
1.0
  0
CIRCLE
  5
   58C
  8
0
  6
CONTINUOUS
 62
     7
 10
-446.332580566406
 20
-23.5022888183594
 30
0.0
 40
1.0
  0
CIRCLE
  5
   58D
  8
0
  6
CONTINUOUS
 62
     7
 10
-446.332580566406
 20
-41.2522888183594
 30
0.0
 40
0.875
  0
CIRCLE
  5
   58E
  8
0
  6
CONTINUOUS
 62
     7
 10
-477.582580566406
 20
-41.2522888183594
 30
0.0
 40
1.0
  0
LINE
  5
   58F
  8
0
  6
DASHDOT
 62
     7
 10
-477.582580566406
 20
-4.12728881835938
 30
0.0
 11
-477.582580566406
 21
-7.37728881835938
 31
0.0
  0
LINE
  5
   590
  8
0
  6
DASHDOT
 62
     7
 10
-479.207580566406
 20
-5.75228881835938
 30
0.0
 11
-475.957580566406
 21
-5.75228881835938
 31
0.0
  0
LINE
  5
   591
  8
0
  6
DASHDOT
 62
     7
 10
-446.332580566406
 20
-4.12728881835938
 30
0.0
 11
-446.332580566406
 21
-7.37728881835938
 31
0.0
  0
LINE
  5
   592
  8
0
  6
DASHDOT
 62
     7
 10
-447.957580566406
 20
-5.75228881835938
 30
0.0
 11
-444.707580566406
 21
-5.75228881835938
 31
0.0
  0
LINE
  5
   593
  8
0
  6
DASHDOT
 62
     7
 10
-446.332580566406
 20
-21.8772888183594
 30
0.0
 11
-446.332580566406
 21
-25.1272888183594
 31
0.0
  0
LINE
  5
   594
  8
0
  6
DASHDOT
 62
     7
 10
-447.957580566406
 20
-23.5022888183594
 30
0.0
 11
-444.707580566406
 21
-23.5022888183594
 31
0.0
  0
LINE
  5
   595
  8
0
  6
DASHDOT
 62
     7
 10
-446.332580566406
 20
-39.6272888183594
 30
0.0
 11
-446.332580566406
 21
-42.8772888183594
 31
0.0
  0
LINE
  5
   596
  8
0
  6
DASHDOT
 62
     7
 10
-447.957580566406
 20
-41.2522888183594
 30
0.0
 11
-444.707580566406
 21
-41.2522888183594
 31
0.0
  0
LINE
  5
   597
  8
0
  6
DASHDOT
 62
     7
 10
-477.582580566406
 20
-39.6272888183594
 30
0.0
 11
-477.582580566406
 21
-42.8772888183594
 31
0.0
  0
LINE
  5
   598
  8
0
  6
DASHDOT
 62
     7
 10
-479.207580566406
 20
-41.2522888183594
 30
0.0
 11
-475.957580566406
 21
-41.2522888183594
 31
0.0
  0
LINE
  5
   599
  8
0
  6
CONTINUOUS
 62
     7
 10
-490.507139643799
 20
-2.75228881835938
 30
0.0
 11
-440.920081168536
 21
-2.75228881835938
 31
0.0
  0
LINE
  5
   59A
  8
0
  6
CONTINUOUS
 62
     7
 10
-491.140550974688
 20
-44.2522888183594
 30
0.0
 11
-440.467644503616
 21
-44.2522888183594
 31
0.0
  0
LINE
  5
   59B
  8
0
  6
CONTINUOUS
 62
     7
 10
-441.332580566406
 20
-1.92224377076258
 30
0.0
 11
-441.332580566406
 21
-45.1751889371417
 31
0.0
  0
LINE
  5
   59C
  8
0
  6
CONTINUOUS
 62
     7
 10
-489.582580566406
 20
-1.92224377076258
 30
0.0
 11
-489.582580566406
 21
-45.763356601538
 31
0.0
  0
POINT
  5
   59D
  8
0
  6
CONTINUOUS
 62
     7
 10
-443.082580566406
 20
-30.4397888183594
 30
0.0
  0
LINE
  5
   59E
  8
0
  6
DASHDOT
 62
     7
 10
-494.04330532955
 20
-23.5022888183594
 30
0.0
 11
-438.589852266269
 21
-23.5022888183594
 31
0.0
  0
CIRCLE
  5
   59F
  8
0
  6
CONTINUOUS
 62
     7
 10
-460.957580566406
 20
-5.37728881835938
 30
0.0
 40
0.5
  0
CIRCLE
  5
   5A0
  8
0
  6
CONTINUOUS
 62
     7
 10
-472.207580566406
 20
-5.37728881835938
 30
0.0
 40
0.5
  0
CIRCLE
  5
   5A1
  8
0
  6
CONTINUOUS
 62
     7
 10
-460.957580566406
 20
-5.37728881835938
 30
0.0
 40
0.92
  0
CIRCLE
  5
   5A2
  8
0
  6
CONTINUOUS
 62
     7
 10
-472.207580566406
 20
-5.37728881835938
 30
0.0
 40
0.92
  0
LINE
  5
   5A3
  8
0
  6
DASHDOT
 62
     7
 10
-460.957580566406
 20
-3.70728881835937
 30
0.0
 11
-460.957580566406
 21
-7.04728881835937
 31
0.0
  0
LINE
  5
   5A4
  8
0
  6
DASHDOT
 62
     7
 10
-462.627580566406
 20
-5.37728881835938
 30
0.0
 11
-459.287580566406
 21
-5.37728881835938
 31
0.0
  0
LINE
  5
   5A5
  8
0
  6
DASHDOT
 62
     7
 10
-472.207580566406
 20
-3.70728881835937
 30
0.0
 11
-472.207580566406
 21
-7.04728881835937
 31
0.0
  0
LINE
  5
   5A6
  8
0
  6
DASHDOT
 62
     7
 10
-473.877580566406
 20
-5.37728881835938
 30
0.0
 11
-470.537580566406
 21
-5.37728881835938
 31
0.0
  0
LINE
  5
   5A7
  8
0
  6
CONTINUOUS
 62
     7
 10
-439.240116994257
 20
-7.03665831126455
 30
0.0
 11
-439.240116994257
 21
-15.3360989686813
 31
0.0
  0
LINE
  5
   5A8
  8
0
  6
CONTINUOUS
 62
     7
 10
-436.640292210005
 20
-7.03665831126455
 30
0.0
 11
-436.640292210005
 21
-15.3360989686813
 31
0.0
  0
LINE
  5
   5A9
  8
0
  6
CONTINUOUS
 62
     7
 10
-439.240116994257
 20
-7.03665831126455
 30
0.0
 11
-436.640292210005
 21
-7.03665831126455
 31
0.0
  0
LINE
  5
   5AA
  8
0
  6
CONTINUOUS
 62
     7
 10
-439.240116994257
 20
-15.3360989686813
 30
0.0
 11
-436.640292210005
 21
-15.3360989686813
 31
0.0
  0
LINE
  5
   5AB
  8
0
  6
CONTINUOUS
 62
     7
 10
-439.240116994257
 20
-39.9679193254542
 30
0.0
 11
-436.640292210005
 21
-39.9679193254542
 31
0.0
  0
LINE
  5
   5AC
  8
0
  6
CONTINUOUS
 62
     7
 10
-436.640292210005
 20
-31.6684786680374
 30
0.0
 11
-436.640292210005
 21
-39.9679193254542
 31
0.0
  0
LINE
  5
   5AD
  8
0
  6
CONTINUOUS
 62
     7
 10
-439.240116994257
 20
-31.6684786680374
 30
0.0
 11
-436.640292210005
 21
-31.6684786680374
 31
0.0
  0
LINE
  5
   5AE
  8
0
  6
CONTINUOUS
 62
     7
 10
-439.240116994257
 20
-31.6684786680374
 30
0.0
 11
-439.240116994257
 21
-39.9679193254542
 31
0.0
  0
LINE
  5
   5AF
  8
0
  6
DASHDOT
 62
     7
 10
-437.940204602131
 20
-2.63695483022435
 30
0.0
 11
-437.940204602131
 21
-59.0831506267515
 31
0.0
  0
INSERT
  5
   5B0
  8
0
  6
CONTINUOUS
 62
     7
  2
*UDIM757
 10
0.0
 20
0.0
 30
0.0
  0
INSERT
  5
   5B1
  8
0
  6
CONTINUOUS
 62
     7
  2
*UDIM758
 10
0.0
 20
0.0
 30
0.0
  0
INSERT
  5
   5B2
  8
0
  6
CONTINUOUS
 62
     7
  2
*UDIM759
 10
0.0
 20
0.0
 30
0.0
  0
INSERT
  5
   5B3
  8
0
  6
CONTINUOUS
 62
     7
  2
*UDIM760
 10
0.0
 20
0.0
 30
0.0
  0
INSERT
  5
   5B4
  8
0
  6
CONTINUOUS
 62
     7
  2
*UDIM761
 10
0.0
 20
0.0
 30
0.0
  0
INSERT
  5
   5B5
  8
0
  6
CONTINUOUS
 62
     7
  2
*UDIM762
 10
0.0
 20
0.0
 30
0.0
  0
INSERT
  5
   5B6
  8
0
  6
CONTINUOUS
 62
     7
  2
*UDIM763
 10
0.0
 20
0.0
 30
0.0
  0
TEXT
  5
   5B7
  8
0
  6
CONTINUOUS
 62
     7
 10
-492.103709158079
 20
-32.6927544425874
 30
0.0
 40
3.00000002980232
  1
=     =
 50
449.999999844103
 41
0.916666604744064
 72
     2
 11
-492.103709107316
 21
-13.9927555244117
 31
0.0
  0
INSERT
  5
   5B8
  8
0
  6
CONTINUOUS
 62
     7
  2
*UDIM764
 10
0.0
 20
0.0
 30
0.0
  0
INSERT
  5
   5B9
  8
0
  6
CONTINUOUS
 62
     7
  2
*UDIM765
 10
0.0
 20
0.0
 30
0.0
  0
INSERT
  5
   5BA
  8
0
  6
CONTINUOUS
 62
     7
  2
*UDIM766
 10
0.0
 20
0.0
 30
0.0
  0
INSERT
  5
   5BB
  8
0
  6
CONTINUOUS
 62
     7
  2
*UDIM767
 10
0.0
 20
0.0
 30
0.0
  0
INSERT
  5
   5BC
  8
0
  6
CONTINUOUS
 62
     7
  2
*UDIM768
 10
0.0
 20
0.0
 30
0.0
  0
INSERT
  5
   5BD
  8
0
  6
CONTINUOUS
 62
     7
  2
*UDIM769
 10
0.0
 20
0.0
 30
0.0
  0
INSERT
  5
   5BE
  8
0
  6
CONTINUOUS
 62
     7
  2
*UDIM770
 10
0.0
 20
0.0
 30
0.0
  0
INSERT
  5
   5BF
  8
0
  6
CONTINUOUS
 62
     7
  2
*UDIM771
 10
0.0
 20
0.0
 30
0.0
  0
INSERT
  5
   5C0
  8
0
  6
CONTINUOUS
 62
     7
  2
*UDIM772
 10
0.0
 20
0.0
 30
0.0
  0
INSERT
  5
   5C1
  8
0
  6
CONTINUOUS
 62
     7
  2
*UDIM773
 10
0.0
 20
0.0
 30
0.0
  0
INSERT
  5
   5C2
  8
0
  6
CONTINUOUS
 62
     7
  2
*UDIM774
 10
0.0
 20
0.0
 30
0.0
  0
TEXT
  5
   5C3
  8
0
  6
CONTINUOUS
 62
     7
 10
-467.388405213856
 20
-68.1325417256305
 30
0.0
 40
3.00000002980232
  1
Y
 50
359.999999844103
 41
0.916666604744064
 72
     2
 11
-465.188405344986
 21
-68.1325417316054
 31
0.0
  0
TEXT
  5
   5C4
  8
0
  6
CONTINUOUS
 62
     7
 10
-467.880969653629
 20
27.6376876139692
 30
0.0
 40
3.00000002980232
  1
Y
 50
359.999999844103
 41
0.916666604744064
 72
     2
 11
-465.680969784759
 21
27.6376876079942
 31
0.0
  0
TEXT
  5
   5C5
  8
0
  6
CONTINUOUS
 62
     7
 10
-414.080722699665
 20
-24.2066115832278
 30
0.0
 40
3.00000002980232
  1
X
 50
359.999999844103
 41
0.916666604744064
 72
     2
 11
-411.880722830795
 21
-24.2066115892028
 31
0.0
  0
TEXT
  5
   5C6
  8
0
  6
CONTINUOUS
 62
     7
 10
-511.264118085407
 20
-24.7495356297442
 30
0.0
 40
3.00000002980232
  1
X
 50
359.999999844103
 41
0.916666604744064
 72
     2
 11
-509.064118216537
 21
-24.7495356357192
 31
0.0
  0
LINE
  5
   5C7
  8
0
  6
CONTINUOUS
 62
     7
 10
-536.133911132813
 20
-5.04373434356852
 30
0.0
 11
-536.133911132813
 21
-28.9602558297713
 31
0.0
  0
LINE
  5
   5C8
  8
0
  6
CONTINUOUS
 62
     7
 10
-538.133911132813
 20
-5.04373434356852
 30
0.0
 11
-538.133911132813
 21
-28.9602558297713
 31
0.0
  0
LINE
  5
   5C9
  8
0
  6
DASHDOT
 62
     7
 10
-541.33651423521
 20
-17.0019950866699
 30
0.0
 11
-532.910295042772
 21
-17.0019950866699
 31
0.0
  0
POINT
  5
   5CA
  8
0
  6
CONTINUOUS
 62
     7
 10
-538.133911132813
 20
-15.0019950866699
 30
0.0
  0
POINT
  5
   5CB
  8
0
  6
CONTINUOUS
 62
     7
 10
-538.133911132813
 20
-19.0019950866699
 30
0.0
  0
LINE
  5
   5CC
  8
0
  6
CONTINUOUS
 62
     7
 10
-536.133911132813
 20
-13.3237958243154
 30
0.0
 11
-538.133911132813
 21
-15.0019950866699
 31
0.0
  0
LINE
  5
   5CD
  8
0
  6
CONTINUOUS
 62
     7
 10
-538.133911132813
 20
-19.0019950866699
 30
0.0
 11
-536.133911132813
 21
-20.6801943490245
 31
0.0
  0
LINE
  5
   5CE
  8
0
  6
CONTINUOUS
 62
     7
 10
-538.133911132813
 20
-26.5019950866699
 30
0.0
 11
-536.133911132813
 21
-26.5019950866699
 31
0.0
  0
CIRCLE
  5
   5CF
  8
0
  6
CONTINUOUS
 62
     7
 10
-537.133911132813
 20
-17.0019950866699
 30
0.0
 40
12.0
  0
LINE
  5
   5D0
  8
0
  6
CONTINUOUS
 62
     7
 10
-544.133903503418
 20
-21.5019950866699
 30
0.0
 11
-541.633903503418
 21
-21.5019950866699
 31
0.0
  0
LINE
  5
   5D1
  8
0
  6
CONTINUOUS
 62
     7
 10
-540.633903503418
 20
-12.5019950866699
 30
0.0
 11
-540.633903503418
 21
-20.5019950866699
 31
0.0
  0
LINE
  5
   5D2
  8
0
  6
CONTINUOUS
 62
     7
 10
-540.633903503418
 20
-12.5019950866699
 30
0.0
 11
-538.133911132813
 21
-12.5019950866699
 31
0.0
  0
LINE
  5
   5D3
  8
0
  6
CONTINUOUS
 62
     7
 10
-544.133903503418
 20
-24.0019950866699
 30
0.0
 11
-541.633903503418
 21
-24.0019950866699
 31
0.0
  0
LINE
  5
   5D4
  8
0
  6
CONTINUOUS
 62
     7
 10
-545.133903503418
 20
-25.0019950866699
 30
0.0
 11
-545.133903503418
 21
-25.9462738206011
 31
0.0
  0
ARC
  5
   5D5
  8
0
  6
CONTINUOUS
 62
     7
 10
-541.633899356138
 20
-20.5019957580086
 30
0.0
 40
0.999996977799109
 50
629.999840735313
 51
720.000252836193
  0
ARC
  5
   5D6
  8
0
  6
CONTINUOUS
 62
     7
 10
-544.133888849911
 20
-25.0020077729744
 30
0.0
 40
3.50001845311552
 50
450.000186734275
 51
513.408761128067
  0
ARC
  5
   5D7
  8
0
  6
CONTINUOUS
 62
     7
 10
-544.133947751568
 20
-25.0019541918875
 30
0.0
 40
0.999949821243504
 50
449.997764042825
 51
540.001169660043
  0
ARC
  5
   5D8
  8
0
  6
CONTINUOUS
 62
     7
 10
-541.633884151036
 20
-20.5020271336042
 30
0.0
 40
3.49997105594423
 50
629.999653243441
 51
720.000420168909
  0
INSERT
  5
   5D9
  8
0
  6
CONTINUOUS
 62
     7
  2
*HATCH183
 10
-537.133911132813
 20
-17.0019950866699
 30
0.0
 50
269.999999844103
  0
INSERT
  5
   5DA
  8
0
  6
CONTINUOUS
 62
     7
  2
*HATCH184
 10
-537.133911132813
 20
-17.0019950866699
 30
0.0
 50
269.999999844103
  0
TEXT
  5
   5DB
  8
0
  6
CONTINUOUS
 62
     7
 10
-549.521506875113
 20
-43.8500061634705
 30
0.0
 40
4.00000017881393
  1
PART. Z
 50
359.999999844103
 41
0.915624995566905
 72
     1
 11
-537.069006383419
 21
-41.8500061078831
 31
0.0
 73
     2
  0
INSERT
  5
   5DC
  8
0
  6
CONTINUOUS
 62
     7
  2
*UDIM775
 10
0.0
 20
0.0
 30
0.0
  0
INSERT
  5
   5DD
  8
0
  6
CONTINUOUS
 62
     7
  2
*UDIM776
 10
0.0
 20
0.0
 30
0.0
  0
INSERT
  5
   5DE
  8
0
  6
CONTINUOUS
 62
     7
  2
*UDIM777
 10
0.0
 20
0.0
 30
0.0
  0
INSERT
  5
   5DF
  8
0
  6
CONTINUOUS
 62
     7
  2
*UDIM778
 10
0.0
 20
0.0
 30
0.0
  0
INSERT
  5
   5E0
  8
0
  6
CONTINUOUS
 62
     7
  2
*UDIM779
 10
0.0
 20
0.0
 30
0.0
  0
LINE
  5
   5E1
  8
0
  6
CONTINUOUS
 62
   210
 10
-374.601384149194
 20
41.6809700876474
 30
0.0
 11
-374.601384149194
 21
41.330975434184
 31
0.0
  0
LINE
  5
   5E2
  8
0
  6
CONTINUOUS
 62
   210
 10
-329.101386259198
 20
41.6809700876474
 30
0.0
 11
-329.101386259198
 21
41.330975434184
 31
0.0
  0
LINE
  5
   5E3
  8
0
  6
CONTINUOUS
 62
   210
 10
-375.476368112564
 20
41.330975434184
 30
0.0
 11
-375.476368112564
 21
38.7563242783664
 31
0.0
  0
LINE
  5
   5E4
  8
0
  6
CONTINUOUS
 62
   210
 10
-376.351373438239
 20
41.330975434184
 30
0.0
 11
-376.351373438239
 21
38.7563242783664
 31
0.0
  0
LINE
  5
   5E5
  8
0
  6
CONTINUOUS
 62
   210
 10
-327.351386289001
 20
41.330975434184
 30
0.0
 11
-327.351386289001
 21
38.7563242783664
 31
0.0
  0
LINE
  5
   5E6
  8
0
  6
CONTINUOUS
 62
   210
 10
-328.226382268667
 20
41.330975434184
 30
0.0
 11
-328.226382268667
 21
38.7563242783664
 31
0.0
  0
LINE
  5
   5E7
  8
0
  6
CONTINUOUS
 62
   210
 10
-375.126368118525
 20
41.330975434184
 30
0.0
 11
-375.126368118525
 21
38.7563242783664
 31
0.0
  0
LINE
  5
   5E8
  8
0
  6
CONTINUOUS
 62
   210
 10
-328.576382262707
 20
41.330975434184
 30
0.0
 11
-328.576382262707
 21
38.7563242783664
 31
0.0
  0
LINE
  5
   5E9
  8
0
  6
CONTINUOUS
 62
   210
 10
-375.126368118525
 20
41.330975434184
 30
0.0
 11
-375.476368112564
 21
41.330975434184
 31
0.0
  0
LINE
  5
   5EA
  8
0
  6
CONTINUOUS
 62
   210
 10
-375.476368112564
 20
41.330975434184
 30
0.0
 11
-376.351373438239
 21
41.330975434184
 31
0.0
  0
LINE
  5
   5EB
  8
0
  6
CONTINUOUS
 62
   210
 10
-327.351386289001
 20
41.330975434184
 30
0.0
 11
-328.226382268667
 21
41.330975434184
 31
0.0
  0
LINE
  5
   5EC
  8
0
  6
CONTINUOUS
 62
   210
 10
-328.226382268667
 20
41.330975434184
 30
0.0
 11
-328.253024400019
 21
41.330975434184
 31
0.0
  0
LINE
  5
   5ED
  8
0
  6
CONTINUOUS
 62
   210
 10
-328.328894626541
 20
41.330975434184
 30
0.0
 11
-328.442443284885
 21
41.330975434184
 31
0.0
  0
LINE
  5
   5EE
  8
0
  6
CONTINUOUS
 62
   210
 10
-328.442443284885
 20
41.330975434184
 30
0.0
 11
-328.576382262707
 21
41.330975434184
 31
0.0
  0
LINE
  5
   5EF
  8
0
  6
CONTINUOUS
 62
   210
 10
-328.253024400019
 20
41.330975434184
 30
0.0
 11
-328.328894626541
 21
41.330975434184
 31
0.0
  0
LINE
  5
   5F0
  8
0
  6
CONTINUOUS
 62
   210
 10
-373.463873487413
 20
41.3309727638959
 30
0.0
 11
-375.126368118525
 21
41.330975434184
 31
0.0
  0
LINE
  5
   5F1
  8
0
  6
CONTINUOUS
 62
   210
 10
-328.576382262707
 20
41.330975434184
 30
0.0
 11
-330.238875558675
 21
41.3309727638959
 31
0.0
  0
LINE
  5
   5F2
  8
0
  6
CONTINUOUS
 62
   210
 10
-329.538872900307
 20
43.0809713989496
 30
0.0
 11
-329.538872900307
 21
41.33097409904
 31
0.0
  0
LINE
  5
   5F3
  8
0
  6
CONTINUOUS
 62
   210
 10
-329.538872900307
 20
43.0809713989496
 30
0.0
 11
-329.573136701299
 21
43.0809713989496
 31
0.0
  0
LINE
  5
   5F4
  8
0
  6
CONTINUOUS
 62
   210
 10
-330.022563535381
 20
43.0809713989496
 30
0.0
 11
-330.238875558675
 21
43.0809713989496
 31
0.0
  0
LINE
  5
   5F5
  8
0
  6
CONTINUOUS
 62
   210
 10
-329.573136701299
 20
43.0809713989496
 30
0.0
 11
-329.672563541341
 21
43.0809713989496
 31
0.0
  0
LINE
  5
   5F6
  8
0
  6
CONTINUOUS
 62
   210
 10
-329.672563541341
 20
43.0809713989496
 30
0.0
 11
-329.827426896248
 21
43.0809713989496
 31
0.0
  0
LINE
  5
   5F7
  8
0
  6
CONTINUOUS
 62
   210
 10
-329.827426896248
 20
43.0809713989496
 30
0.0
 11
-330.022563535381
 21
43.0809713989496
 31
0.0
  0
LINE
  5
   5F8
  8
0
  6
CONTINUOUS
 62
   210
 10
-336.538875451386
 20
43.0809713989496
 30
0.0
 11
-343.582621326
 21
43.0809713989496
 31
0.0
  0
LINE
  5
   5F9
  8
0
  6
CONTINUOUS
 62
   210
 10
-344.807621305138
 20
43.0809713989496
 30
0.0
 11
-351.85137652576
 21
43.0809713989496
 31
0.0
  0
LINE
  5
   5FA
  8
0
  6
CONTINUOUS
 62
   210
 10
-330.238875558675
 20
43.0809713989496
 30
0.0
 11
-336.538875451386
 21
43.0809713989496
 31
0.0
  0
LINE
  5
   5FB
  8
0
  6
CONTINUOUS
 62
   210
 10
-351.85137652576
 20
43.0809713989496
 30
0.0
 11
-358.895121065229
 21
43.0809713989496
 31
0.0
  0
LINE
  5
   5FC
  8
0
  6
CONTINUOUS
 62
   210
 10
-360.163873713911
 20
47.8059699833393
 30
0.0
 11
-374.163873475492
 21
47.8059699833393
 31
0.0
  0
LINE
  5
   5FD
  8
0
  6
CONTINUOUS
 62
   210
 10
-358.851373736263
 20
47.8059699833393
 30
0.0
 11
-358.851373736263
 21
43.0809713989496
 31
0.0
  0
LINE
  5
   5FE
  8
0
  6
CONTINUOUS
 62
   210
 10
-344.851373974681
 20
47.8059699833393
 30
0.0
 11
-344.851373974681
 21
43.0809713989496
 31
0.0
  0
LINE
  5
   5FF
  8
0
  6
CONTINUOUS
 62
   210
 10
-344.851373974681
 20
47.8059699833393
 30
0.0
 11
-358.851373736263
 21
47.8059699833393
 31
0.0
  0
LINE
  5
   600
  8
0
  6
CONTINUOUS
 62
   210
 10
-343.538873997033
 20
47.8059699833393
 30
0.0
 11
-343.538873997033
 21
43.0809713989496
 31
0.0
  0
LINE
  5
   601
  8
0
  6
CONTINUOUS
 62
   210
 10
-329.538874235451
 20
43.0809713989496
 30
0.0
 11
-329.538875570595
 21
47.8059699833393
 31
0.0
  0
LINE
  5
   602
  8
0
  6
CONTINUOUS
 62
   210
 10
-329.538875570595
 20
47.8059699833393
 30
0.0
 11
-343.538873997033
 21
47.8059699833393
 31
0.0
  0
LINE
  5
   603
  8
0
  6
CONTINUOUS
 62
   210
 10
-374.472905910415
 20
41.6809700876474
 30
0.0
 11
-374.601384149194
 21
41.6809700876474
 31
0.0
  0
LINE
  5
   604
  8
0
  6
CONTINUOUS
 62
   210
 10
-374.163873475492
 20
41.6809700876474
 30
0.0
 11
-374.472905910415
 21
41.6809700876474
 31
0.0
  0
LINE
  5
   605
  8
0
  6
CONTINUOUS
 62
   210
 10
-329.101386259198
 20
41.6809700876474
 30
0.0
 11
-329.229863162833
 21
41.6809700876474
 31
0.0
  0
LINE
  5
   606
  8
0
  6
CONTINUOUS
 62
   210
 10
-329.229863162833
 20
41.6809700876474
 30
0.0
 11
-329.538872900307
 21
41.6809700876474
 31
0.0
  0
LINE
  5
   607
  8
0
  6
CONTINUOUS
 62
   210
 10
-344.807621305138
 20
41.3309727638959
 30
0.0
 11
-344.807621305138
 21
38.7563242783664
 31
0.0
  0
LINE
  5
   608
  8
0
  6
CONTINUOUS
 62
   210
 10
-344.807621305138
 20
43.0809713989496
 30
0.0
 11
-344.807621305138
 21
41.3309727638959
 31
0.0
  0
LINE
  5
   609
  8
0
  6
CONTINUOUS
 62
   210
 10
-343.582621326
 20
41.3309727638959
 30
0.0
 11
-343.582621326
 21
38.7563242783664
 31
0.0
  0
LINE
  5
   60A
  8
0
  6
CONTINUOUS
 62
   210
 10
-343.582621326
 20
43.0809713989496
 30
0.0
 11
-343.582621326
 21
41.3309727638959
 31
0.0
  0
LINE
  5
   60B
  8
0
  6
CONTINUOUS
 62
   210
 10
-343.582621326
 20
41.5059700906277
 30
0.0
 11
-344.807621305138
 21
41.5059700906277
 31
0.0
  0
LINE
  5
   60C
  8
0
  6
CONTINUOUS
 62
   210
 10
-343.582621326
 20
43.0809700638056
 30
0.0
 11
-344.807621305138
 21
43.0809700638056
 31
0.0
  0
LINE
  5
   60D
  8
0
  6
CONTINUOUS
 62
   210
 10
-343.582621326
 20
42.3809700757265
 30
0.0
 11
-344.807621305138
 21
42.3809700757265
 31
0.0
  0
LINE
  5
   60E
  8
0
  6
CONTINUOUS
 62
   210
 10
-358.895121065229
 20
41.3309727638959
 30
0.0
 11
-358.895121065229
 21
38.7563242783664
 31
0.0
  0
LINE
  5
   60F
  8
0
  6
CONTINUOUS
 62
   210
 10
-358.895121065229
 20
43.0809713989496
 30
0.0
 11
-358.895121065229
 21
41.3309727638959
 31
0.0
  0
LINE
  5
   610
  8
0
  6
CONTINUOUS
 62
   210
 10
-357.451373760104
 20
40.2809714466333
 30
0.0
 11
-357.451373760104
 21
38.7563242783664
 31
0.0
  0
LINE
  5
   611
  8
0
  6
CONTINUOUS
 62
   210
 10
-346.251373950839
 20
40.2809714466333
 30
0.0
 11
-346.251373950839
 21
38.7563242783664
 31
0.0
  0
LINE
  5
   612
  8
0
  6
CONTINUOUS
 62
   210
 10
-346.251373950839
 20
40.2809714466333
 30
0.0
 11
-357.451373760104
 21
40.2809714466333
 31
0.0
  0
LINE
  5
   613
  8
0
  6
CONTINUOUS
 62
   210
 10
-342.138874020875
 20
40.2809714466333
 30
0.0
 11
-342.138874020875
 21
38.7563242783664
 31
0.0
  0
LINE
  5
   614
  8
0
  6
CONTINUOUS
 62
   210
 10
-330.93887421161
 20
40.2809714466333
 30
0.0
 11
-330.93887421161
 21
38.7563242783664
 31
0.0
  0
LINE
  5
   615
  8
0
  6
CONTINUOUS
 62
   210
 10
-330.93887421161
 20
40.2809714466333
 30
0.0
 11
-342.138874020875
 21
40.2809714466333
 31
0.0
  0
LINE
  5
   616
  8
0
  6
CONTINUOUS
 62
     7
 10
-323.715617573276
 20
38.7563242783664
 30
0.0
 11
-379.858050732144
 21
38.7563242783664
 31
0.0
  0
LINE
  5
   617
  8
0
  6
DASHDOT
 62
     7
 10
-351.85137652576
 20
84.5594880097075
 30
0.0
 11
-351.85137652576
 21
36.7588883521476
 31
0.0
  0
LINE
  5
   618
  8
0
  6
DASHDOT
 62
     7
 10
-336.53887678653
 20
67.0529809123049
 30
0.0
 11
-336.53887678653
 21
36.8076063015676
 31
0.0
  0
LINE
  5
   619
  8
0
  6
DASHDOT
 62
     7
 10
-367.16387626499
 20
67.6509894999253
 30
0.0
 11
-367.16387626499
 21
36.8076063015676
 31
0.0
  0
LINE
  5
   61A
  8
0
  6
CONTINUOUS
 62
   210
 10
-361.563873690069
 20
40.2809714466333
 30
0.0
 11
-372.763873499334
 21
40.2809714466333
 31
0.0
  0
LINE
  5
   61B
  8
0
  6
CONTINUOUS
 62
   210
 10
-361.563873690069
 20
40.2809714466333
 30
0.0
 11
-361.563873690069
 21
38.7563242783664
 31
0.0
  0
LINE
  5
   61C
  8
0
  6
CONTINUOUS
 62
   210
 10
-372.763873499334
 20
40.2809714466333
 30
0.0
 11
-372.763873499334
 21
38.7563242783664
 31
0.0
  0
LINE
  5
   61D
  8
0
  6
CONTINUOUS
 62
   210
 10
-374.207620804459
 20
43.0809713989496
 30
0.0
 11
-374.207620804459
 21
41.3309727638959
 31
0.0
  0
LINE
  5
   61E
  8
0
  6
CONTINUOUS
 62
   210
 10
-358.895121065229
 20
42.3809700757265
 30
0.0
 11
-360.120121044368
 21
42.3809700757265
 31
0.0
  0
LINE
  5
   61F
  8
0
  6
CONTINUOUS
 62
   210
 10
-358.895121065229
 20
43.0809700638056
 30
0.0
 11
-360.120121044368
 21
43.0809700638056
 31
0.0
  0
LINE
  5
   620
  8
0
  6
CONTINUOUS
 62
   210
 10
-358.895121065229
 20
41.5059700906277
 30
0.0
 11
-360.120121044368
 21
41.5059700906277
 31
0.0
  0
LINE
  5
   621
  8
0
  6
CONTINUOUS
 62
   210
 10
-360.120121044368
 20
43.0809713989496
 30
0.0
 11
-360.120121044368
 21
41.3309727638959
 31
0.0
  0
LINE
  5
   622
  8
0
  6
CONTINUOUS
 62
   210
 10
-360.120121044368
 20
41.3309727638959
 30
0.0
 11
-360.120121044368
 21
38.7563242783664
 31
0.0
  0
LINE
  5
   623
  8
0
  6
CONTINUOUS
 62
   210
 10
-360.163873713911
 20
47.8059699833393
 30
0.0
 11
-360.163873713911
 21
43.0809713989496
 31
0.0
  0
LINE
  5
   624
  8
0
  6
CONTINUOUS
 62
   210
 10
-374.163873475492
 20
47.8059699833393
 30
0.0
 11
-374.163873475492
 21
43.0809713989496
 31
0.0
  0
LINE
  5
   625
  8
0
  6
CONTINUOUS
 62
   210
 10
-367.16387626499
 20
43.0809713989496
 30
0.0
 11
-374.207620804459
 21
43.0809713989496
 31
0.0
  0
LINE
  5
   626
  8
0
  6
CONTINUOUS
 62
   210
 10
-360.120121044368
 20
43.0809713989496
 30
0.0
 11
-367.16387626499
 21
43.0809713989496
 31
0.0
  0
LINE
  5
   627
  8
0
  6
CONTINUOUS
 62
     7
 10
-350.451376549602
 20
80.5309694260359
 30
0.0
 11
-353.251376501918
 21
80.5309694260359
 31
0.0
  0
LINE
  5
   628
  8
0
  6
CONTINUOUS
 62
     7
 10
-350.451376549602
 20
80.5309694260359
 30
0.0
 11
-350.451376549602
 21
47.8059699833393
 31
0.0
  0
LINE
  5
   629
  8
0
  6
CONTINUOUS
 62
     7
 10
-353.251376501918
 20
80.5309694260359
 30
0.0
 11
-353.251376501918
 21
47.8059699833393
 31
0.0
  0
LINE
  5
   62A
  8
0
  6
CONTINUOUS
 62
   130
 10
-365.763876288831
 20
63.5559697151184
 30
0.0
 11
-368.563876241148
 21
63.5559697151184
 31
0.0
  0
LINE
  5
   62B
  8
0
  6
CONTINUOUS
 62
   130
 10
-365.763876288831
 20
63.5559697151184
 30
0.0
 11
-365.763876288831
 21
47.8059699833393
 31
0.0
  0
LINE
  5
   62C
  8
0
  6
CONTINUOUS
 62
   130
 10
-368.563876241148
 20
63.5559697151184
 30
0.0
 11
-368.563876241148
 21
47.8059699833393
 31
0.0
  0
LINE
  5
   62D
  8
0
  6
CONTINUOUS
 62
   130
 10
-337.938876762688
 20
63.5559697151184
 30
0.0
 11
-337.938876762688
 21
47.8059699833393
 31
0.0
  0
LINE
  5
   62E
  8
0
  6
CONTINUOUS
 62
   130
 10
-335.138876810372
 20
63.5559697151184
 30
0.0
 11
-337.938876762688
 21
63.5559697151184
 31
0.0
  0
LINE
  5
   62F
  8
0
  6
CONTINUOUS
 62
   130
 10
-335.138876810372
 20
63.5559697151184
 30
0.0
 11
-335.138876810372
 21
47.8059699833393
 31
0.0
  0
ENDSEC
  0
EOF
