  0
SECTION
  2
HEADER
  9
$ACADVER
  1
AC1009
  9
$DWGCODEPAGE
  3
iso8859-1
  9
$INSBASE
 10
0.0
 20
0.0
 30
0.0
  9
$EXTMIN
 10
1.0E20
 20
1.0E20
  9
$EXTMAX
 10
-1.0E20
 20
-1.0E20
  9
$LIMMIN
 10
0.0
 20
0.0
  9
$LIMMAX
 10
12.0
 20
9.0
  9
$ORTHOMODE
 70
     0
  9
$REGENMODE
 70
     1
  9
$FILLMODE
 70
     1
  9
$QTEXTMODE
 70
     0
  9
$MIRRTEXT
 70
     1
  9
$DRAGMODE
 70
     2
  9
$LTSCALE
 40
15.0
  9
$OSMODE
 70
     0
  9
$ATTMODE
 70
     1
  9
$TEXTSIZE
 40
0.2
  9
$TRACEWID
 40
0.05
  9
$TEXTSTYLE
  7
STANDARD
  9
$CLAYER
  8
0
  9
$CELTYPE
  6
DASHED
  9
$CECOLOR
 62
   256
  9
$DIMSCALE
 40
1.0
  9
$DIMASZ
 40
0.18
  9
$DIMEXO
 40
0.0625
  9
$DIMDLI
 40
0.38
  9
$DIMRND
 40
0.0
  9
$DIMDLE
 40
0.0
  9
$DIMEXE
 40
0.18
  9
$DIMTP
 40
0.0
  9
$DIMTM
 40
0.0
  9
$DIMTXT
 40
0.18
  9
$DIMCEN
 40
0.09
  9
$DIMTSZ
 40
0.0
  9
$DIMTOL
 70
     0
  9
$DIMLIM
 70
     0
  9
$DIMTIH
 70
     1
  9
$DIMTOH
 70
     1
  9
$DIMSE1
 70
     0
  9
$DIMSE2
 70
     0
  9
$DIMTAD
 70
     0
  9
$DIMZIN
 70
     0
  9
$DIMBLK
  1

  9
$DIMASO
 70
     1
  9
$DIMSHO
 70
     1
  9
$DIMPOST
  1

  9
$DIMAPOST
  1

  9
$DIMALT
 70
     0
  9
$DIMALTD
 70
     2
  9
$DIMALTF
 40
25.4
  9
$DIMLFAC
 40
1.0
  9
$DIMTOFL
 70
     0
  9
$DIMTVP
 40
0.0
  9
$DIMTIX
 70
     0
  9
$DIMSOXD
 70
     0
  9
$DIMSAH
 70
     0
  9
$DIMBLK1
  1

  9
$DIMBLK2
  1

  9
$DIMSTYLE
  2
STANDARD
  9
$DIMCLRD
 70
     0
  9
$DIMCLRE
 70
     0
  9
$DIMCLRT
 70
     0
  9
$DIMTFAC
 40
1.0
  9
$DIMGAP
 40
0.09
  9
$LUNITS
 70
     2
  9
$LUPREC
 70
     4
  9
$AXISMODE
 70
     0
  9
$AXISUNIT
 10
0.0
 20
0.0
  9
$SKETCHINC
 40
0.1
  9
$FILLETRAD
 40
0.0
  9
$AUNITS
 70
     0
  9
$AUPREC
 70
     0
  9
$MENU
  1
acad
  9
$ELEVATION
 40
0.0
  9
$PELEVATION
 40
0.0
  9
$THICKNESS
 40
0.0
  9
$LIMCHECK
 70
     0
  9
$BLIPMODE
 70
     1
  9
$CHAMFERA
 40
0.0
  9
$CHAMFERB
 40
0.0
  9
$SKPOLY
 70
     0
  9
$TDCREATE
 40
0.000000000
  9
$TDUPDATE
 40
0.000000000
  9
$TDINDWG
 40
0.0
  9
$TDUSRTIMER
 40
0.0
  9
$USRTIMER
 70
     1
  9
$ANGBASE
 50
0.0
  9
$ANGDIR
 70
     0
  9
$PDMODE
 70
     0
  9
$PDSIZE
 40
0.0
  9
$PLINEWID
 40
0.0
  9
$COORDS
 70
     1
  9
$SPLFRAME
 70
     0
  9
$SPLINETYPE
 70
     6
  9
$SPLINESEGS
 70
     8
  9
$ATTDIA
 70
     0
  9
$ATTREQ
 70
     1
  9
$HANDLING
 70
     1
  9
$HANDSEED
  5
   5C5
  9
$SURFTAB1
 70
     6
  9
$SURFTAB2
 70
     6
  9
$SURFTYPE
 70
     6
  9
$SURFU
 70
     6
  9
$SURFV
 70
     6
  9
$UCSNAME
  2

  9
$UCSORG
 10
0.0
 20
0.0
 30
0.0
  9
$UCSXDIR
 10
1.0
 20
0.0
 30
0.0
  9
$UCSYDIR
 10
0.0
 20
1.0
 30
0.0
  9
$PUCSNAME
  2

  9
$PUCSORG
 10
0.0
 20
0.0
 30
0.0
  9
$PUCSXDIR
 10
1.0
 20
0.0
 30
0.0
  9
$PUCSYDIR
 10
0.0
 20
1.0
 30
0.0
  9
$USERI1
 70
     0
  9
$USERI2
 70
     0
  9
$USERI3
 70
     0
  9
$USERI4
 70
     0
  9
$USERI5
 70
     0
  9
$USERR1
 40
0.0
  9
$USERR2
 40
0.0
  9
$USERR3
 40
0.0
  9
$USERR4
 40
0.0
  9
$USERR5
 40
0.0
  9
$WORLDVIEW
 70
     1
  9
$SHADEDGE
 70
     3
  9
$SHADEDIF
 70
    70
  9
$TILEMODE
 70
     1
  9
$MAXACTVP
 70
    16
  9
$PINSBASE
 10
0.0
 20
0.0
 30
0.0
  9
$PLIMCHECK
 70
     0
  9
$PEXTMIN
 10
1.0E20
 20
1.0E20
 30
1.0E20
  9
$PEXTMAX
 10
-1.0E20
 20
-1.0E20
 30
-1.0E20
  9
$PLIMMIN
 10
0.0
 20
0.0
  9
$PLIMMAX
 10
12.0
 20
9.0
  9
$UNITMODE
 70
     0
  9
$VISRETAIN
 70
     0
  0
ENDSEC
  0
SECTION
  2
TABLES
  0
TABLE
  2
VPORT
 70
     1
  0
VPORT
  2
*ACTIVE
 70
     0
 10
0.0
 20
0.0
 11
1.0
 21
1.0
 12
6.801242
 22
4.5
 13
0.0
 23
0.0
 14
1.0
 24
1.0
 15
0.0
 25
0.0
 16
0.0
 26
0.0
 36
1.0
 17
0.0
 27
0.0
 37
0.0
 40
9.0
 41
1.511387
 42
50.0
 43
0.0
 44
0.0
 50
0.0
 51
0.0
 71
     0
 72
   100
 73
     1
 74
     1
 75
     0
 76
     0
 77
     0
 78
     0
  0
ENDTAB
  0
TABLE
  2
LTYPE
 70
    41
  0
LTYPE
  2
BYBLOCK
 70
     0
  3

 72
    65
 73
     0
 40
0.0
  0
LTYPE
  2
BYLAYER
 70
     0
  3

 72
    65
 73
     0
 40
0.0
  0
LTYPE
  2
CONTINUOUS
 70
     0
  3
Solid line
 72
    65
 73
     0
 40
0.0
  0
LTYPE
  2
BORDER
 70
    64
  3
__ __ . __ __ . __ __ . __ __ . __ __ . __ __ .
 72
    65
 73
     6
 40
1.75
 49
0.5
 49
-0.25
 49
0.5
 49
-0.25
 49
0.0
 49
-0.25
  0
LTYPE
  2
BORDER2
 70
    64
  3
__.__.__.__.__.__.__.__.__.__.__.__.__.__.__.__
 72
    65
 73
     6
 40
0.875
 49
0.25
 49
-0.125
 49
0.25
 49
-0.125
 49
0.0
 49
-0.125
  0
LTYPE
  2
BORDERX2
 70
    64
  3
____  ____  .  ____  ____  .  ____  ____  .  __
 72
    65
 73
     6
 40
3.5
 49
1.0
 49
-0.5
 49
1.0
 49
-0.5
 49
0.0
 49
-0.5
  0
LTYPE
  2
CENTER
 70
    64
  3
____ _ ____ _ ____ _ ____ _ ____ _ ____ _ ____
 72
    65
 73
     4
 40
2.0
 49
1.25
 49
-0.25
 49
0.25
 49
-0.25
  0
LTYPE
  2
CENTER2
 70
    64
  3
___ _ ___ _ ___ _ ___ _ ___ _ ___ _ ___ _ ___ _
 72
    65
 73
     4
 40
1.125
 49
0.75
 49
-0.125
 49
0.125
 49
-0.125
  0
LTYPE
  2
CENTERX2
 70
    64
  3
________  __  ________  __  ________  __  _____
 72
    65
 73
     4
 40
4.0
 49
2.5
 49
-0.5
 49
0.5
 49
-0.5
  0
LTYPE
  2
DASHDOT
 70
    64
  3
__ . __ . __ . __ . __ . __ . __ . __ . __ . __
 72
    65
 73
     4
 40
1.0
 49
0.5
 49
-0.25
 49
0.0
 49
-0.25
  0
LTYPE
  2
DASHDOT2
 70
    64
  3
_._._._._._._._._._._._._._._._._._._._._._._._
 72
    65
 73
     4
 40
0.5
 49
0.25
 49
-0.125
 49
0.0
 49
-0.125
  0
LTYPE
  2
DASHDOTX2
 70
    64
  3
____  .  ____  .  ____  .  ____  .  ____  .  __
 72
    65
 73
     4
 40
2.0
 49
1.0
 49
-0.5
 49
0.0
 49
-0.5
  0
LTYPE
  2
DASHED
 70
    64
  3
__ __ __ __ __ __ __ __ __ __ __ __ __ __ __ __
 72
    65
 73
     2
 40
0.75
 49
0.5
 49
-0.25
  0
LTYPE
  2
DASHED2
 70
    64
  3
_ _ _ _ _ _ _ _ _ _ _ _ _ _ _ _ _ _ _ _ _ _ _ _
 72
    65
 73
     2
 40
0.375
 49
0.25
 49
-0.125
  0
LTYPE
  2
DASHEDX2
 70
    64
  3
____  ____  ____  ____  ____  ____  ____  ____
 72
    65
 73
     2
 40
1.5
 49
1.0
 49
-0.5
  0
LTYPE
  2
DIVIDE
 70
    64
  3
____ . . ____ . . ____ . . ____ . . ____ . . __
 72
    65
 73
     6
 40
1.25
 49
0.5
 49
-0.25
 49
0.0
 49
-0.25
 49
0.0
 49
-0.25
  0
LTYPE
  2
DIVIDE2
 70
    64
  3
__..__..__..__..__..__..__..__..__..__..__..__.
 72
    65
 73
     6
 40
0.625
 49
0.25
 49
-0.125
 49
0.0
 49
-0.125
 49
0.0
 49
-0.125
  0
LTYPE
  2
DIVIDEX2
 70
    64
  3
________  .  .  ________  .  .  ________  .  .
 72
    65
 73
     6
 40
2.5
 49
1.0
 49
-0.5
 49
0.0
 49
-0.5
 49
0.0
 49
-0.5
  0
LTYPE
  2
DOT
 70
    64
  3
. . . . . . . . . . . . . . . . . . . . . . . .
 72
    65
 73
     2
 40
0.25
 49
0.0
 49
-0.25
  0
LTYPE
  2
DOT2
 70
    64
  3
...............................................
 72
    65
 73
     2
 40
0.125
 49
0.0
 49
-0.125
  0
LTYPE
  2
DOTX2
 70
    64
  3
.  .  .  .  .  .  .  .  .  .  .  .  .  .  .  .
 72
    65
 73
     2
 40
0.5
 49
0.0
 49
-0.5
  0
LTYPE
  2
HIDDEN
 70
    64
  3
__ __ __ __ __ __ __ __ __ __ __ __ __ __ __ __
 72
    65
 73
     2
 40
0.375
 49
0.25
 49
-0.125
  0
LTYPE
  2
HIDDEN2
 70
    64
  3
_ _ _ _ _ _ _ _ _ _ _ _ _ _ _ _ _ _ _ _ _ _ _ _
 72
    65
 73
     2
 40
0.1875
 49
0.125
 49
-0.0625
  0
LTYPE
  2
HIDDENX2
 70
    64
  3
____ ____ ____ ____ ____ ____ ____ ____ ____ __
 72
    65
 73
     2
 40
0.75
 49
0.5
 49
-0.25
  0
LTYPE
  2
PHANTOM
 70
    64
  3
______  __  __  ______  __  __  ______  __  __
 72
    65
 73
     6
 40
2.5
 49
1.25
 49
-0.25
 49
0.25
 49
-0.25
 49
0.25
 49
-0.25
  0
LTYPE
  2
PHANTOM2
 70
    64
  3
___ _ _ ___ _ _ ___ _ _ ___ _ _ ___ _ _ ___ _ _
 72
    65
 73
     6
 40
1.25
 49
0.625
 49
-0.125
 49
0.125
 49
-0.125
 49
0.125
 49
-0.125
  0
LTYPE
  2
PHANTOMX2
 70
    64
  3
____________    ____    ____    ____________
 72
    65
 73
     6
 40
5.0
 49
2.5
 49
-0.5
 49
0.5
 49
-0.5
 49
0.5
 49
-0.5
  0
LTYPE
  2
ACAD_ISO02W100
 70
    64
  3
__ __ __ __ __ __ __ __ __ __ __ __ __ __ __ __
 72
    65
 73
     2
 40
15.0
 49
12.0
 49
-3.0
  0
LTYPE
  2
ACAD_ISO03W100
 70
    64
  3
__    __    __    __    __    __    __    __
 72
    65
 73
     2
 40
30.0
 49
12.0
 49
-18.0
  0
LTYPE
  2
ACAD_ISO04W100
 70
    64
  3
____ . ____ . ____ . ____ . ____ . ____ . ____
 72
    65
 73
     4
 40
30.5
 49
24.0
 49
-3.0
 49
0.5
 49
-3.0
  0
LTYPE
  2
ACAD_ISO05W100
 70
    64
  3
____ .. ____ .. ____ .. ____ .. ____ .. ____ ..
 72
    65
 73
     6
 40
34.0
 49
24.0
 49
-3.0
 49
0.5
 49
-3.0
 49
0.5
 49
-3.0
  0
LTYPE
  2
ACAD_ISO06W100
 70
    64
  3
____ ... ____ ... ____ ... ____ ... ____ ... __
 72
    65
 73
     8
 40
37.5
 49
24.0
 49
-3.0
 49
0.5
 49
-3.0
 49
0.5
 49
-3.0
 49
0.5
 49
-3.0
  0
LTYPE
  2
ACAD_ISO07W100
 70
    64
  3
. . . . . . . . . . . . . . . . . . . . . . . .
 72
    65
 73
     2
 40
3.5
 49
0.5
 49
-3.0
  0
LTYPE
  2
ACAD_ISO08W100
 70
    64
  3
____ __ ____ __ ____ __ ____ ____ __ __ ____ __
 72
    65
 73
     4
 40
36.0
 49
24.0
 49
-3.0
 49
6.0
 49
-3.0
  0
LTYPE
  2
ACAD_ISO09W100
 70
    64
  3
____ __ __ ____ __ __ ____ __ __ ____ __ __ ___
 72
    65
 73
     6
 40
45.0
 49
24.0
 49
-3.0
 49
6.0
 49
-3.0
 49
6.0
 49
-3.0
  0
LTYPE
  2
ACAD_ISO10W100
 70
    64
  3
__ . __ . __ . __ . __ . __ . __ . __ . __ . __
 72
    65
 73
     4
 40
18.5
 49
12.0
 49
-3.0
 49
0.5
 49
-3.0
  0
LTYPE
  2
ACAD_ISO11W100
 70
    64
  3
__ __ . __ __ . __ __ . __ __ . __ __ . __ __ .
 72
    65
 73
     6
 40
33.5
 49
12.0
 49
-3.0
 49
12.0
 49
-3.0
 49
0.5
 49
-3.0
  0
LTYPE
  2
ACAD_ISO12W100
 70
    64
  3
__ . . __ . . __ . . __ . . __ . . __ . . __ .
 72
    65
 73
     6
 40
22.0
 49
12.0
 49
-3.0
 49
0.5
 49
-3.0
 49
0.5
 49
-3.0
  0
LTYPE
  2
ACAD_ISO13W100
 70
    64
  3
__ __ . . __ __ . . __ __ . . __ __ . . __ __ .
 72
    65
 73
     8
 40
37.0
 49
12.0
 49
-3.0
 49
12.0
 49
-3.0
 49
0.5
 49
-3.0
 49
0.5
 49
-3.0
  0
LTYPE
  2
ACAD_ISO14W100
 70
    64
  3
__ . . . __ . . . __ . . . __ . . . __ . . . __
 72
    65
 73
     8
 40
25.5
 49
12.0
 49
-3.0
 49
0.5
 49
-3.0
 49
0.5
 49
-3.0
 49
0.5
 49
-3.0
  0
LTYPE
  2
ACAD_ISO15W100
 70
    64
  3
__ __ . . . __ __ . . . __ __ . . . __ __ . . .
 72
    65
 73
    10
 40
40.5
 49
12.0
 49
-3.0
 49
12.0
 49
-3.0
 49
0.5
 49
-3.0
 49
0.5
 49
-3.0
 49
0.5
 49
-3.0
  0
ENDTAB
  0
TABLE
  2
STYLE
 70
     4
  0
STYLE
  2
STANDARD
 70
    64
 40
0.0
 41
1.0
 50
0.0
 71
     0
 42
0.2
  3
txt
  4

  0
STYLE
  2
TOLERANCE
 70
    64
 40
0.0
 41
1.0
 50
0.0
 71
     0
 42
0.2
  3
../igesfont/iges1003.shx
  4

  0
STYLE
  2
ROMANS
 70
    64
 40
0.0
 41
1.0
 50
0.0
 71
     0
 42
0.2
  3
romans.shx
  4

  0
STYLE
  2
ROMANC
 70
    64
 40
0.0
 41
1.0
 50
0.0
 71
     0
 42
0.2
  3
romanc.shx
  4

  0
ENDTAB
  0
TABLE
  2
DIMSTYLE
 70
     2
  0
DIMSTYLE
  2
UNNAMED
 70
     0
  3

  4

  5

  6

  7

 40
1.0
 41
0.18
 42
0.0625
 43
0.38
 44
0.18
 45
0.0
 46
0.0
 47
0.0
 48
0.0
140
0.18
141
0.09
142
0.0
143
25.4
144
1.0
145
0.0
146
1.0
147
0.09
 71
     0
 72
     0
 73
     1
 74
     1
 75
     0
 76
     0
 77
     0
 78
     0
170
     0
171
     2
172
     0
173
     0
174
     0
175
     0
176
     0
177
     0
178
     0
  0
DIMSTYLE
  2
STANDARD
 70
     0
  3

  4

  5

  6

  7

 40
1.0
 41
0.18
 42
0.0625
 43
0.38
 44
0.18
 45
0.0
 46
0.0
 47
0.0
 48
0.0
140
0.18
141
0.09
142
0.0
143
25.4
144
1.0
145
0.0
146
1.0
147
0.09
 71
     0
 72
     0
 73
     1
 74
     1
 75
     0
 76
     0
 77
     0
 78
     0
170
     0
171
     2
172
     0
173
     0
174
     0
175
     0
176
     0
177
     0
178
     0
  0
ENDTAB
  0
TABLE
  2
LAYER
 70
     2
  0
LAYER
  2
0
 70
     0
 62
     7
  6
CONTINUOUS
  0
LAYER
  2
255
 70
     0
 62
     7
  6
CONTINUOUS
  0
ENDTAB
  0
ENDSEC
  0
SECTION
  2
BLOCKS
  0
BLOCK
  5
     B
  8
0
  6
CONTINUOUS
 62
     7
  2
MOSTRINA
 70
    64
 10
0.0
 20
0.0
 30
0.0
  3
MOSTRINA
  0
LINE
  5
     C
  8
0
  6
CONTINUOUS
 62
     3
 10
208.338256835938
 20
30.7306251525879
 30
0.0
 11
208.338256835938
 21
189.230621337891
 31
0.0
  0
LINE
  5
     D
  8
0
  6
CONTINUOUS
 62
     3
 10
57.5882568359375
 20
29.4806251525879
 30
0.0
 11
207.088256835938
 21
29.4806251525879
 31
0.0
  0
LINE
  5
     E
  8
0
  6
CONTINUOUS
 62
     3
 10
56.3382568359375
 20
30.7306251525879
 30
0.0
 11
56.3382568359375
 21
189.230621337891
 31
0.0
  0
LINE
  5
     F
  8
0
  6
CONTINUOUS
 62
     3
 10
57.5882568359375
 20
190.480621337891
 30
0.0
 11
207.088256835938
 21
190.480621337891
 31
0.0
  0
LINE
  5
    10
  8
0
  6
CONTINUOUS
 62
     3
 10
202.838256835938
 20
56.9806251525879
 30
0.0
 11
202.838256835938
 21
162.980625152588
 31
0.0
  0
LINE
  5
    11
  8
0
  6
CONTINUOUS
 62
     3
 10
61.8382568359375
 20
56.9806251525879
 30
0.0
 11
202.838256835938
 21
56.9806251525879
 31
0.0
  0
LINE
  5
    12
  8
0
  6
CONTINUOUS
 62
     3
 10
61.8382568359375
 20
56.9806251525879
 30
0.0
 11
61.8382568359375
 21
162.980625152588
 31
0.0
  0
LINE
  5
    13
  8
0
  6
CONTINUOUS
 62
     3
 10
61.8382568359375
 20
162.980621337891
 30
0.0
 11
202.838256835938
 21
162.980621337891
 31
0.0
  0
LINE
  5
    14
  8
0
  6
CONTINUOUS
 62
     3
 10
203.838256835938
 20
48.4806251525879
 30
0.0
 11
203.838256835938
 21
49.4806251525879
 31
0.0
  0
LINE
  5
    15
  8
0
  6
CONTINUOUS
 62
     3
 10
61.8382568359375
 20
50.4806251525879
 30
0.0
 11
202.838256835938
 21
50.4806251525879
 31
0.0
  0
LINE
  5
    16
  8
0
  6
CONTINUOUS
 62
     3
 10
60.8382568359375
 20
48.4806251525879
 30
0.0
 11
60.8382568359375
 21
49.4806251525879
 31
0.0
  0
LINE
  5
    17
  8
0
  6
CONTINUOUS
 62
     3
 10
61.8382568359375
 20
49.4806251525879
 30
0.0
 11
202.838256835938
 21
49.4806251525879
 31
0.0
  0
LINE
  5
    18
  8
0
  6
CONTINUOUS
 62
     3
 10
60.8382568359375
 20
29.4806251525879
 30
0.0
 11
60.8382568359375
 21
48.4806251525879
 31
0.0
  0
LINE
  5
    19
  8
0
  6
CONTINUOUS
 62
     3
 10
60.8382568359375
 20
49.4806213378906
 30
0.0
 11
60.8382568359375
 21
190.480621337891
 31
0.0
  0
LINE
  5
    1A
  8
0
  6
CONTINUOUS
 62
     3
 10
61.8382568359375
 20
29.4806251525879
 30
0.0
 11
61.8382568359375
 21
49.4806251525879
 31
0.0
  0
LINE
  5
    1B
  8
0
  6
CONTINUOUS
 62
     3
 10
61.8382568359375
 20
162.980621337891
 30
0.0
 11
61.8382568359375
 21
169.480621337891
 31
0.0
  0
LINE
  5
    1C
  8
0
  6
CONTINUOUS
 62
     3
 10
61.8382568359375
 20
50.4806251525879
 30
0.0
 11
61.8382568359375
 21
56.9806251525879
 31
0.0
  0
LINE
  5
    1D
  8
0
  6
CONTINUOUS
 62
     3
 10
203.838256835938
 20
29.4806251525879
 30
0.0
 11
203.838256835938
 21
48.4806251525879
 31
0.0
  0
LINE
  5
    1E
  8
0
  6
CONTINUOUS
 62
     3
 10
203.838256835938
 20
49.4806251525879
 30
0.0
 11
203.838256835938
 21
190.480621337891
 31
0.0
  0
LINE
  5
    1F
  8
0
  6
CONTINUOUS
 62
     3
 10
202.838256835938
 20
50.4806251525879
 30
0.0
 11
202.838256835938
 21
56.9806251525879
 31
0.0
  0
LINE
  5
    20
  8
0
  6
CONTINUOUS
 62
     3
 10
202.838256835938
 20
162.980621337891
 30
0.0
 11
202.838256835938
 21
169.480621337891
 31
0.0
  0
LINE
  5
    21
  8
0
  6
CONTINUOUS
 62
     3
 10
202.838256835938
 20
29.4806251525879
 30
0.0
 11
202.838256835938
 21
49.4806251525879
 31
0.0
  0
LINE
  5
    22
  8
0
  6
CONTINUOUS
 62
     3
 10
60.8382568359375
 20
170.480621337891
 30
0.0
 11
203.838256835938
 21
170.480621337891
 31
0.0
  0
LINE
  5
    23
  8
0
  6
CONTINUOUS
 62
     3
 10
61.8382568359375
 20
169.480621337891
 30
0.0
 11
202.838256835938
 21
169.480621337891
 31
0.0
  0
ARC
  5
    24
  8
0
  6
CONTINUOUS
 62
     3
 10
57.5882568359375
 20
30.7306251525879
 30
0.0
 40
1.25
 50
180.0
 51
270.0
  0
ARC
  5
    25
  8
0
  6
CONTINUOUS
 62
     3
 10
207.088256835938
 20
30.7306251525879
 30
0.0
 40
1.25
 50
270.0
 51
360.0
  0
ARC
  5
    26
  8
0
  6
CONTINUOUS
 62
     3
 10
207.088256835938
 20
189.230621337891
 30
0.0
 40
1.25
 50
0.0
 51
90.0
  0
ARC
  5
    27
  8
0
  6
CONTINUOUS
 62
     3
 10
57.5882568359375
 20
189.230621337891
 30
0.0
 40
1.25
 50
90.0
 51
180.0
  0
LINE
  5
    28
  8
0
  6
DOT
 62
     3
 10
60.3382577409677
 20
179.7306252571
 30
0.0
 11
60.8382568359375
 21
179.7306252571
 31
0.0
  0
LINE
  5
    29
  8
0
  6
DOT
 62
     3
 10
60.3382577409676
 20
181.2306252571
 30
0.0
 11
60.8382568359375
 21
181.2306252571
 31
0.0
  0
LINE
  5
    2A
  8
0
  6
CONTINUOUS
 62
     3
 10
203.338257745313
 20
179.730625257273
 30
0.0
 11
203.838256835938
 21
179.730625257273
 31
0.0
  0
LINE
  5
    2B
  8
0
  6
CONTINUOUS
 62
     3
 10
203.338257745314
 20
181.230625257273
 30
0.0
 11
203.838256835938
 21
181.230625257273
 31
0.0
  0
ARC
  5
    2C
  8
0
  6
DOT
 62
     3
 10
60.3382577401871
 20
180.480625257147
 30
0.0
 40
0.749999999345164
 50
90.0
 51
270.0
  0
ARC
  5
    2D
  8
0
  6
CONTINUOUS
 62
     3
 10
61.338257740822
 20
180.480625256974
 30
0.0
 40
0.750000000009701
 50
270.0
 51
450.0
  0
LINE
  5
    2E
  8
0
  6
CONTINUOUS
 62
     3
 10
60.8382568359375
 20
181.2306252571
 30
0.0
 11
61.3382577409688
 21
181.2306252571
 31
0.0
  0
LINE
  5
    2F
  8
0
  6
CONTINUOUS
 62
     3
 10
60.8382568359375
 20
179.7306252571
 30
0.0
 11
61.3382577409689
 21
179.7306252571
 31
0.0
  0
ARC
  5
    30
  8
0
  6
CONTINUOUS
 62
     3
 10
203.338257745503
 20
180.480625256952
 30
0.0
 40
0.750000000048506
 50
90.0000000038822
 51
269.999999996024
  0
ARC
  5
    31
  8
0
  6
DOT
 62
     3
 10
204.338257745421
 20
180.480625256965
 30
0.0
 40
0.750000000029104
 50
270.000000002449
 51
449.999999997486
  0
LINE
  5
    32
  8
0
  6
DOT
 62
     3
 10
203.838256835938
 20
181.230625257273
 30
0.0
 11
204.338257745315
 21
181.230625257273
 31
0.0
  0
LINE
  5
    33
  8
0
  6
DOT
 62
     3
 10
203.838256835938
 20
179.730625257273
 30
0.0
 11
204.338257745315
 21
179.730625257273
 31
0.0
  0
POINT
  5
    34
  8
0
  6
CONTINUOUS
 62
     7
 10
132.338256835938
 20
109.980623245239
 30
0.0
  0
ENDBLK
  5
    35
  8
0
  6
CONTINUOUS
 62
     7
  0
BLOCK
  5
    36
  8
0
  6
CONTINUOUS
 62
     7
  2
*UDIM520
 70
    65
 10
0.0
 20
0.0
 30
0.0
  3
*UDIM520
  0
TEXT
  5
    37
  8
0
  6
CONTINUOUS
 62
     7
 10
34.0407412516008
 20
-52.0629898926982
 30
0.0
 40
3.00000001532688
  1
161
 50
89.9999999480344
 41
0.933333333333334
 72
     1
 11
32.5407412474696
 21
-48.1629898714147
 31
0.0
 73
     2
  0
LINE
  5
    38
  8
0
  6
CONTINUOUS
 62
     7
 10
16.4917724579573
 20
-76.0629871308782
 30
0.0
 11
37.0407412551331
 21
-76.0629871308782
 31
0.0
  0
LINE
  5
    39
  8
0
  6
CONTINUOUS
 62
     7
 10
16.4917724579573
 20
-19.7129942238308
 30
0.0
 11
37.0407412551331
 21
-19.7129942238308
 31
0.0
  0
LINE
  5
    3A
  8
0
  6
CONTINUOUS
 62
     7
 10
35.0407412551331
 20
-76.0629871308782
 30
0.0
 11
35.0407412551331
 21
-19.7129942238308
 31
0.0
  0
LINE
  5
    3B
  8
0
  6
CONTINUOUS
 62
     7
 10
34.5197968251814
 20
-73.1085638536713
 30
0.0
 11
35.0407412551331
 21
-76.0629871308782
 31
0.0
  0
LINE
  5
    3C
  8
0
  6
CONTINUOUS
 62
     7
 10
35.0407412551331
 20
-76.0629871308782
 30
0.0
 11
35.5616856850847
 21
-73.1085638536713
 31
0.0
  0
LINE
  5
    3D
  8
0
  6
CONTINUOUS
 62
     7
 10
35.5616856850847
 20
-22.6674175010378
 30
0.0
 11
35.0407412551331
 21
-19.7129942238308
 31
0.0
  0
LINE
  5
    3E
  8
0
  6
CONTINUOUS
 62
     7
 10
35.0407412551331
 20
-19.7129942238308
 30
0.0
 11
34.5197968251814
 21
-22.6674175010378
 31
0.0
  0
ENDBLK
  5
    3F
  8
0
  6
CONTINUOUS
 62
     7
  0
BLOCK
  5
    40
  8
0
  6
CONTINUOUS
 62
     7
  2
*UDIM521
 70
    65
 10
0.0
 20
0.0
 30
0.0
  3
*UDIM521
  0
TEXT
  5
    41
  8
0
  6
CONTINUOUS
 62
     7
 10
-14.8457267544002
 20
46.7267778978691
 30
0.0
 40
3.00000001532688
  1
152
 50
359.999999948034
 41
0.933333333333334
 72
     1
 11
-10.9457267331224
 21
48.2267779020149
 31
0.0
 73
     2
  0
LINE
  5
    42
  8
0
  6
CONTINUOUS
 62
     7
 10
15.9292724132538
 20
-19.1504941791274
 30
0.0
 11
15.9292724132538
 21
47.7267778943515
 31
0.0
  0
LINE
  5
    43
  8
0
  6
CONTINUOUS
 62
     7
 10
-37.2707221508026
 20
-19.1504941791273
 30
0.0
 11
-37.2707221508026
 21
47.7267778943515
 31
0.0
  0
LINE
  5
    44
  8
0
  6
CONTINUOUS
 62
     7
 10
15.9292724132538
 20
45.7267778943515
 30
0.0
 11
-37.2707221508026
 21
45.7267778943515
 31
0.0
  0
LINE
  5
    45
  8
0
  6
CONTINUOUS
 62
     7
 10
12.9748491360468
 20
45.2058334643998
 30
0.0
 11
15.9292724132538
 21
45.7267778943515
 31
0.0
  0
LINE
  5
    46
  8
0
  6
CONTINUOUS
 62
     7
 10
15.9292724132538
 20
45.7267778943515
 30
0.0
 11
12.9748491360468
 21
46.2477223243031
 31
0.0
  0
LINE
  5
    47
  8
0
  6
CONTINUOUS
 62
     7
 10
-34.3162988735956
 20
46.2477223243031
 30
0.0
 11
-37.2707221508026
 21
45.7267778943515
 31
0.0
  0
LINE
  5
    48
  8
0
  6
CONTINUOUS
 62
     7
 10
-37.2707221508026
 20
45.7267778943515
 30
0.0
 11
-34.3162988735956
 21
45.2058334643998
 31
0.0
  0
ENDBLK
  5
    49
  8
0
  6
CONTINUOUS
 62
     7
  0
BLOCK
  5
    4A
  8
0
  6
CONTINUOUS
 62
     7
  2
*UDIM522
 70
    65
 10
0.0
 20
0.0
 30
0.0
  3
*UDIM522
  0
TEXT
  5
    4B
  8
0
  6
CONTINUOUS
 62
     7
 10
-79.4461116238161
 20
-14.0880765601008
 30
0.0
 40
3.00000001532688
  1
217
 50
89.9999999480344
 41
0.933333333333334
 72
     1
 11
-80.9461116279472
 21
-10.1880765388172
 31
0.0
 73
     2
  0
LINE
  5
    4C
  8
0
  6
CONTINUOUS
 62
     7
 10
-72.3958328788582
 20
28.0618293955673
 30
0.0
 11
-80.4461116202838
 21
28.0618293955673
 31
0.0
  0
LINE
  5
    4D
  8
0
  6
CONTINUOUS
 62
     7
 10
-78.4461116202838
 20
-47.8879906773545
 30
0.0
 11
-78.4461116202838
 21
28.0618293955673
 31
0.0
  0
LINE
  5
    4E
  8
0
  6
CONTINUOUS
 62
     7
 10
-78.9670560502354
 20
-44.9335674001476
 30
0.0
 11
-78.4461116202838
 21
-47.8879906773545
 31
0.0
  0
LINE
  5
    4F
  8
0
  6
CONTINUOUS
 62
     7
 10
-78.4461116202838
 20
-47.8879906773545
 30
0.0
 11
-77.9251671903321
 21
-44.9335674001476
 31
0.0
  0
LINE
  5
    50
  8
0
  6
CONTINUOUS
 62
     7
 10
-77.9251671903321
 20
25.1074061183603
 30
0.0
 11
-78.4461116202838
 21
28.0618293955673
 31
0.0
  0
LINE
  5
    51
  8
0
  6
CONTINUOUS
 62
     7
 10
-78.4461116202838
 20
28.0618293955673
 30
0.0
 11
-78.9670560502354
 21
25.1074061183603
 31
0.0
  0
ENDBLK
  5
    52
  8
0
  6
CONTINUOUS
 62
     7
  0
BLOCK
  5
    53
  8
0
  6
CONTINUOUS
 62
     7
  2
*UDIM523
 70
    65
 10
0.0
 20
0.0
 30
0.0
  3
*UDIM523
  0
TEXT
  5
    54
  8
0
  6
CONTINUOUS
 62
     7
 10
-86.1069095857033
 20
-122.238176095853
 30
0.0
 40
3.00000001532688
  1
7
 50
89.9999999480344
 41
0.933333333333333
 72
     1
 11
-87.6069095923704
 21
-121.138176088874
 31
0.0
 73
     2
  0
LINE
  5
    55
  8
0
  6
CONTINUOUS
 62
     7
 10
24.6419908660946
 20
-116.488010549049
 30
0.0
 11
-87.106909584707
 21
-116.488010549049
 31
0.0
  0
LINE
  5
    56
  8
0
  6
CONTINUOUS
 62
     7
 10
-72.5705058938356
 20
-114.037957735657
 30
0.0
 11
-87.106909584707
 21
-114.037957735657
 31
0.0
  0
LINE
  5
    57
  8
0
  6
CONTINUOUS
 62
     7
 10
-85.106909584707
 20
-122.238176094494
 30
0.0
 11
-85.106909584707
 21
-114.037957735657
 31
0.0
  0
LINE
  5
    58
  8
0
  6
CONTINUOUS
 62
     7
 10
-84.5859651547553
 20
-119.442433826256
 30
0.0
 11
-85.106909584707
 21
-116.488010549049
 31
0.0
  0
LINE
  5
    59
  8
0
  6
CONTINUOUS
 62
     7
 10
-85.106909584707
 20
-116.488010549049
 30
0.0
 11
-85.6278540146586
 21
-119.442433826256
 31
0.0
  0
LINE
  5
    5A
  8
0
  6
CONTINUOUS
 62
     7
 10
-85.6278540146586
 20
-111.083534458451
 30
0.0
 11
-85.106909584707
 21
-114.037957735657
 31
0.0
  0
LINE
  5
    5B
  8
0
  6
CONTINUOUS
 62
     7
 10
-85.106909584707
 20
-114.037957735657
 30
0.0
 11
-84.5859651547553
 21
-111.083534458451
 31
0.0
  0
ENDBLK
  5
    5C
  8
0
  6
CONTINUOUS
 62
     7
  0
BLOCK
  5
    5D
  8
0
  6
CONTINUOUS
 62
     7
  2
*UDIM524
 70
    65
 10
0.0
 20
0.0
 30
0.0
  3
*UDIM524
  0
TEXT
  5
    5E
  8
0
  6
CONTINUOUS
 62
     7
 10
-86.1069095882393
 20
-47.1631586187002
 30
0.0
 40
3.00000001532688
  1
406
 50
89.9999999480344
 41
0.933333333333334
 72
     1
 11
-87.6069095923704
 21
-43.2631585974167
 31
0.0
 73
     2
  0
LINE
  5
    5F
  8
0
  6
CONTINUOUS
 62
     7
 10
-72.3958328788582
 20
28.0618293955673
 30
0.0
 11
-87.106909584707
 21
28.0618293955673
 31
0.0
  0
LINE
  5
    60
  8
0
  6
CONTINUOUS
 62
     7
 10
-85.106909584707
 20
-114.037957735657
 30
0.0
 11
-85.106909584707
 21
28.0618293955673
 31
0.0
  0
LINE
  5
    61
  8
0
  6
CONTINUOUS
 62
     7
 10
-85.6278540146586
 20
-111.083534458451
 30
0.0
 11
-85.106909584707
 21
-114.037957735657
 31
0.0
  0
LINE
  5
    62
  8
0
  6
CONTINUOUS
 62
     7
 10
-85.106909584707
 20
-114.037957735657
 30
0.0
 11
-84.5859651547553
 21
-111.083534458451
 31
0.0
  0
LINE
  5
    63
  8
0
  6
CONTINUOUS
 62
     7
 10
-84.5859651547553
 20
25.1074061183603
 30
0.0
 11
-85.106909584707
 21
28.0618293955673
 31
0.0
  0
LINE
  5
    64
  8
0
  6
CONTINUOUS
 62
     7
 10
-85.106909584707
 20
28.0618293955673
 30
0.0
 11
-85.6278540146586
 21
25.1074061183603
 31
0.0
  0
ENDBLK
  5
    65
  8
0
  6
CONTINUOUS
 62
     7
  0
BLOCK
  5
    66
  8
0
  6
CONTINUOUS
 62
     7
  2
*UDIM525
 70
    65
 10
0.0
 20
0.0
 30
0.0
  3
*UDIM525
  0
TEXT
  5
    67
  8
0
  6
CONTINUOUS
 62
     7
 10
-86.1069095857033
 20
33.5118133474263
 30
0.0
 40
3.00000001532688
  1
7
 50
89.9999999480344
 41
0.933333333333333
 72
     1
 11
-87.6069095923704
 21
34.6118133544047
 31
0.0
 73
     2
  0
LINE
  5
    68
  8
0
  6
CONTINUOUS
 62
     7
 10
-72.4832193100173
 20
30.5118290143951
 30
0.0
 11
-87.106909584707
 21
30.5118290143951
 31
0.0
  0
LINE
  5
    69
  8
0
  6
CONTINUOUS
 62
     7
 10
-85.106909584707
 20
28.0618293955673
 30
0.0
 11
-85.106909584707
 21
35.7118133600246
 31
0.0
  0
LINE
  5
    6A
  8
0
  6
CONTINUOUS
 62
     7
 10
-84.5859651547553
 20
25.1074061183603
 30
0.0
 11
-85.106909584707
 21
28.0618293955673
 31
0.0
  0
LINE
  5
    6B
  8
0
  6
CONTINUOUS
 62
     7
 10
-85.106909584707
 20
28.0618293955673
 30
0.0
 11
-85.6278540146586
 21
25.1074061183603
 31
0.0
  0
LINE
  5
    6C
  8
0
  6
CONTINUOUS
 62
     7
 10
-85.6278540146586
 20
33.4662522916021
 30
0.0
 11
-85.106909584707
 21
30.5118290143951
 31
0.0
  0
LINE
  5
    6D
  8
0
  6
CONTINUOUS
 62
     7
 10
-85.106909584707
 20
30.5118290143951
 30
0.0
 11
-84.5859651547553
 21
33.4662522916021
 31
0.0
  0
ENDBLK
  5
    6E
  8
0
  6
CONTINUOUS
 62
     7
  0
BLOCK
  5
    6F
  8
0
  6
CONTINUOUS
 62
     7
  2
*UDIM526
 70
    65
 10
0.0
 20
0.0
 30
0.0
  3
*UDIM526
  0
TEXT
  5
    70
  8
0
  6
CONTINUOUS
 62
     7
 10
-14.8457214140623
 20
-122.367659780217
 30
0.0
 40
3.00000001532688
  1
140
 50
359.999999948034
 41
0.933333333333334
 72
     1
 11
-10.9457213927845
 21
-120.867659776071
 31
0.0
 73
     2
  0
LINE
  5
    71
  8
0
  6
CONTINUOUS
 62
     7
 10
13.8292726278305
 20
-57.9004683941603
 30
0.0
 11
13.8292726278305
 21
-125.367659783735
 31
0.0
  0
LINE
  5
    72
  8
0
  6
CONTINUOUS
 62
     7
 10
-35.1707285888129
 20
-57.9004618872297
 30
0.0
 11
-35.1707177469642
 21
-125.367659783735
 31
0.0
  0
LINE
  5
    73
  8
0
  6
CONTINUOUS
 62
     7
 10
13.8292726278305
 20
-123.367659783735
 30
0.0
 11
-35.1707180683603
 21
-123.367659783735
 31
0.0
  0
LINE
  5
    74
  8
0
  6
CONTINUOUS
 62
     7
 10
10.8748493506235
 20
-123.888604213686
 30
0.0
 11
13.8292726278305
 21
-123.367659783735
 31
0.0
  0
LINE
  5
    75
  8
0
  6
CONTINUOUS
 62
     7
 10
13.8292726278305
 20
-123.367659783735
 30
0.0
 11
10.8748493506235
 21
-122.846715353783
 31
0.0
  0
LINE
  5
    76
  8
0
  6
CONTINUOUS
 62
     7
 10
-32.2162947911534
 20
-122.846715353783
 30
0.0
 11
-35.1707180683603
 21
-123.367659783735
 31
0.0
  0
LINE
  5
    77
  8
0
  6
CONTINUOUS
 62
     7
 10
-35.1707180683603
 20
-123.367659783735
 30
0.0
 11
-32.2162947911534
 21
-123.888604213686
 31
0.0
  0
ENDBLK
  5
    78
  8
0
  6
CONTINUOUS
 62
     7
  0
BLOCK
  5
    79
  8
0
  6
CONTINUOUS
 62
     7
  2
*UDIM527
 70
    65
 10
0.0
 20
0.0
 30
0.0
  3
*UDIM527
  0
TEXT
  5
    7A
  8
0
  6
CONTINUOUS
 62
     7
 10
-50.1957197003122
 20
38.5569468832502
 30
0.0
 40
3.00000001532688
  1
70
 50
359.999999948034
 41
0.933333333333333
 72
     1
 11
-47.6957196861869
 21
40.0569468886588
 31
0.0
 73
     2
  0
LINE
  5
    7B
  8
0
  6
CONTINUOUS
 62
     7
 10
-35.1707174147881
 20
35.5246801480027
 30
0.0
 11
-35.1706974526836
 21
39.5569468809709
 31
0.0
  0
LINE
  5
    7C
  8
0
  6
CONTINUOUS
 62
     7
 10
-59.6707195480403
 20
31.5118467001283
 30
0.0
 11
-59.6707170225508
 21
39.5569468809953
 31
0.0
  0
LINE
  5
    7D
  8
0
  6
CONTINUOUS
 62
     7
 10
-35.1707073538662
 20
37.5569468809954
 30
0.0
 11
-59.6707176503838
 21
37.5569468809954
 31
0.0
  0
LINE
  5
    7E
  8
0
  6
CONTINUOUS
 62
     7
 10
-38.1251306310731
 20
37.0360024510437
 30
0.0
 11
-35.1707073538662
 21
37.5569468809954
 31
0.0
  0
LINE
  5
    7F
  8
0
  6
CONTINUOUS
 62
     7
 10
-35.1707073538662
 20
37.5569468809954
 30
0.0
 11
-38.1251306310731
 21
38.0778913109471
 31
0.0
  0
LINE
  5
    80
  8
0
  6
CONTINUOUS
 62
     7
 10
-56.7162943731768
 20
38.0778913109471
 30
0.0
 11
-59.6707176503838
 21
37.5569468809954
 31
0.0
  0
LINE
  5
    81
  8
0
  6
CONTINUOUS
 62
     7
 10
-59.6707176503838
 20
37.5569468809954
 30
0.0
 11
-56.7162943731768
 21
37.0360024510437
 31
0.0
  0
ENDBLK
  5
    82
  8
0
  6
CONTINUOUS
 62
     7
  0
BLOCK
  5
    83
  8
0
  6
CONTINUOUS
 62
     7
  2
*UDIM528
 70
    65
 10
0.0
 20
0.0
 30
0.0
  3
*UDIM528
  0
TEXT
  5
    84
  8
0
  6
CONTINUOUS
 62
     7
 10
-1.19572605143472
 20
38.556936202099
 30
0.0
 40
3.00000001532688
  1
70
 50
359.999999948034
 41
0.933333333333333
 72
     1
 11
1.30427396269059
 21
40.0569362075076
 31
0.0
 73
     2
  0
LINE
  5
    85
  8
0
  6
CONTINUOUS
 62
     7
 10
13.8292775784381
 20
35.5246801480027
 30
0.0
 11
13.8292975405555
 21
39.5569361998196
 31
0.0
  0
LINE
  5
    86
  8
0
  6
CONTINUOUS
 62
     7
 10
13.8292876393403
 20
37.5569361998441
 30
0.0
 11
-10.670675820341
 21
37.5569361998441
 31
0.0
  0
LINE
  5
    87
  8
0
  6
CONTINUOUS
 62
     7
 10
10.8748643621334
 20
37.0359917698925
 30
0.0
 11
13.8292876393403
 21
37.5569361998441
 31
0.0
  0
LINE
  5
    88
  8
0
  6
CONTINUOUS
 62
     7
 10
13.8292876393403
 20
37.5569361998441
 30
0.0
 11
10.8748643621334
 21
38.0778806297958
 31
0.0
  0
LINE
  5
    89
  8
0
  6
CONTINUOUS
 62
     7
 10
-7.716252543134
 20
38.0778806297958
 30
0.0
 11
-10.670675820341
 21
37.5569361998441
 31
0.0
  0
LINE
  5
    8A
  8
0
  6
CONTINUOUS
 62
     7
 10
-10.670675820341
 20
37.5569361998441
 30
0.0
 11
-7.716252543134
 21
37.0359917698925
 31
0.0
  0
ENDBLK
  5
    8B
  8
0
  6
CONTINUOUS
 62
     7
  0
BLOCK
  5
    8C
  8
0
  6
CONTINUOUS
 62
     7
  2
*UDIM529
 70
    65
 10
0.0
 20
0.0
 30
0.0
  3
*UDIM529
  0
TEXT
  5
    8D
  8
0
  6
CONTINUOUS
 62
     7
 10
-25.6957222081008
 20
38.556936202099
 30
0.0
 40
3.00000001532688
  1
70
 50
359.999999948034
 41
0.933333333333333
 72
     1
 11
-23.1957221939755
 21
40.0569362075076
 31
0.0
 73
     2
  0
LINE
  5
    8E
  8
0
  6
CONTINUOUS
 62
     7
 10
-35.1707174147717
 20
-9.26314050763301
 30
0.0
 11
-35.1704757257295
 21
39.5569361998196
 31
0.0
  0
LINE
  5
    8F
  8
0
  6
CONTINUOUS
 62
     7
 10
-10.670675820341
 20
37.5569361998441
 30
0.0
 11
-35.1704856269446
 21
37.5569361998441
 31
0.0
  0
LINE
  5
    90
  8
0
  6
CONTINUOUS
 62
     7
 10
-13.6250990975479
 20
37.0359917698925
 30
0.0
 11
-10.670675820341
 21
37.5569361998441
 31
0.0
  0
LINE
  5
    91
  8
0
  6
CONTINUOUS
 62
     7
 10
-10.670675820341
 20
37.5569361998441
 30
0.0
 11
-13.6250990975479
 21
38.0778806297958
 31
0.0
  0
LINE
  5
    92
  8
0
  6
CONTINUOUS
 62
     7
 10
-32.2160623497377
 20
38.0778806297958
 30
0.0
 11
-35.1704856269446
 21
37.5569361998441
 31
0.0
  0
LINE
  5
    93
  8
0
  6
CONTINUOUS
 62
     7
 10
-35.1704856269446
 20
37.5569361998441
 30
0.0
 11
-32.2160623497377
 21
37.0359917698925
 31
0.0
  0
ENDBLK
  5
    94
  8
0
  6
CONTINUOUS
 62
     7
  0
BLOCK
  5
    95
  8
0
  6
CONTINUOUS
 62
     7
  2
*UDIM530
 70
    65
 10
0.0
 20
0.0
 30
0.0
  3
*UDIM530
  0
TEXT
  5
    96
  8
0
  6
CONTINUOUS
 62
     7
 10
-27.0956988074103
 20
-129.911035932047
 30
0.0
 40
3.00000001532688
  1
280
 50
359.999999948034
 41
0.933333333333334
 72
     1
 11
-23.1956987861325
 21
-128.411035927901
 31
0.0
 73
     2
  0
LINE
  5
    97
  8
0
  6
CONTINUOUS
 62
     7
 10
26.0792579691936
 20
-89.4879624962809
 30
0.0
 11
26.0792443379755
 21
-132.911035935564
 31
0.0
  0
LINE
  5
    98
  8
0
  6
CONTINUOUS
 62
     7
 10
-71.9207058311803
 20
-89.4879624962809
 30
0.0
 11
-71.9207194623984
 21
-132.911035935564
 31
0.0
  0
LINE
  5
    99
  8
0
  6
CONTINUOUS
 62
     7
 10
26.0792449658085
 20
-130.911035935565
 30
0.0
 11
-71.9207188345654
 21
-130.911035935565
 31
0.0
  0
LINE
  5
    9A
  8
0
  6
CONTINUOUS
 62
     7
 10
23.1248216886015
 20
-131.431980365516
 30
0.0
 11
26.0792449658085
 21
-130.911035935565
 31
0.0
  0
LINE
  5
    9B
  8
0
  6
CONTINUOUS
 62
     7
 10
26.0792449658085
 20
-130.911035935565
 30
0.0
 11
23.1248216886015
 21
-130.390091505613
 31
0.0
  0
LINE
  5
    9C
  8
0
  6
CONTINUOUS
 62
     7
 10
-68.9662955573585
 20
-130.390091505613
 30
0.0
 11
-71.9207188345654
 21
-130.911035935565
 31
0.0
  0
LINE
  5
    9D
  8
0
  6
CONTINUOUS
 62
     7
 10
-71.9207188345654
 20
-130.911035935565
 30
0.0
 11
-68.9662955573585
 21
-131.431980365516
 31
0.0
  0
ENDBLK
  5
    9E
  8
0
  6
CONTINUOUS
 62
     7
  0
BLOCK
  5
    9F
  8
0
  6
CONTINUOUS
 62
     7
  2
*HATCH329
 70
    65
 10
0.0
 20
0.0
 30
0.0
  3
*HATCH329
  0
LINE
  5
    A0
  8
0
  6
CONTINUOUS
 62
    52
 10
148.096954345703
 20
228.707122802734
 30
0.0
 11
146.5
 21
227.110153198242
 31
0.0
  0
LINE
  5
    A1
  8
0
  6
CONTINUOUS
 62
    52
 10
148.5
 20
224.867523193359
 30
0.0
 11
146.5
 21
222.867523193359
 31
0.0
  0
LINE
  5
    A2
  8
0
  6
CONTINUOUS
 62
    52
 10
148.5
 20
220.624877929688
 30
0.0
 11
146.5
 21
218.624877929688
 31
0.0
  0
LINE
  5
    A3
  8
0
  6
CONTINUOUS
 62
    52
 10
148.5
 20
216.382232666016
 30
0.0
 11
146.5
 21
214.382232666016
 31
0.0
  0
LINE
  5
    A4
  8
0
  6
CONTINUOUS
 62
    52
 10
148.5
 20
212.139587402344
 30
0.0
 11
146.5
 21
210.139587402344
 31
0.0
  0
LINE
  5
    A5
  8
0
  6
CONTINUOUS
 62
    52
 10
148.5
 20
207.896942138672
 30
0.0
 11
146.5
 21
205.896942138672
 31
0.0
  0
LINE
  5
    A6
  8
0
  6
CONTINUOUS
 62
    52
 10
148.5
 20
203.654296875
 30
0.0
 11
146.5
 21
201.654296875
 31
0.0
  0
LINE
  5
    A7
  8
0
  6
CONTINUOUS
 62
    52
 10
148.5
 20
199.411651611328
 30
0.0
 11
146.5
 21
197.411651611328
 31
0.0
  0
LINE
  5
    A8
  8
0
  6
CONTINUOUS
 62
    52
 10
148.5
 20
195.169006347656
 30
0.0
 11
146.5
 21
193.169006347656
 31
0.0
  0
LINE
  5
    A9
  8
0
  6
CONTINUOUS
 62
    52
 10
148.5
 20
190.926361083984
 30
0.0
 11
146.5
 21
188.926361083984
 31
0.0
  0
LINE
  5
    AA
  8
0
  6
CONTINUOUS
 62
    52
 10
148.5
 20
186.683715820313
 30
0.0
 11
146.5
 21
184.683715820313
 31
0.0
  0
LINE
  5
    AB
  8
0
  6
CONTINUOUS
 62
    52
 10
148.5
 20
182.441070556641
 30
0.0
 11
146.5
 21
180.441070556641
 31
0.0
  0
LINE
  5
    AC
  8
0
  6
CONTINUOUS
 62
    52
 10
148.5
 20
178.198425292969
 30
0.0
 11
146.5
 21
176.198425292969
 31
0.0
  0
LINE
  5
    AD
  8
0
  6
CONTINUOUS
 62
    52
 10
148.5
 20
173.955780029297
 30
0.0
 11
146.5
 21
171.955780029297
 31
0.0
  0
LINE
  5
    AE
  8
0
  6
CONTINUOUS
 62
    52
 10
148.5
 20
169.713134765625
 30
0.0
 11
146.5
 21
167.713134765625
 31
0.0
  0
LINE
  5
    AF
  8
0
  6
CONTINUOUS
 62
    52
 10
148.5
 20
165.470489501953
 30
0.0
 11
146.5
 21
163.470489501953
 31
0.0
  0
LINE
  5
    B0
  8
0
  6
CONTINUOUS
 62
    52
 10
148.5
 20
161.227844238281
 30
0.0
 11
146.5
 21
159.227844238281
 31
0.0
  0
LINE
  5
    B1
  8
0
  6
CONTINUOUS
 62
    52
 10
148.5
 20
156.985198974609
 30
0.0
 11
146.5
 21
154.985198974609
 31
0.0
  0
LINE
  5
    B2
  8
0
  6
CONTINUOUS
 62
    52
 10
148.5
 20
152.742553710938
 30
0.0
 11
146.5
 21
150.742553710938
 31
0.0
  0
ENDBLK
  5
    B3
  8
0
  6
CONTINUOUS
 62
     7
  0
BLOCK
  5
    B4
  8
0
  6
CONTINUOUS
 62
     7
  2
*HATCH330
 70
    65
 10
0.0
 20
0.0
 30
0.0
  3
*HATCH330
  0
LINE
  5
    B5
  8
0
  6
CONTINUOUS
 62
    52
 10
148.5
 20
142.136032104492
 30
0.0
 11
146.5
 21
140.136032104492
 31
0.0
  0
LINE
  5
    B6
  8
0
  6
CONTINUOUS
 62
    52
 10
148.5
 20
137.89338684082
 30
0.0
 11
146.5
 21
135.89338684082
 31
0.0
  0
LINE
  5
    B7
  8
0
  6
CONTINUOUS
 62
    52
 10
148.5
 20
133.650741577148
 30
0.0
 11
146.5
 21
131.650741577148
 31
0.0
  0
ENDBLK
  5
    B8
  8
0
  6
CONTINUOUS
 62
     7
  0
BLOCK
  5
    B9
  8
0
  6
CONTINUOUS
 62
     7
  2
*HATCH331
 70
    65
 10
0.0
 20
0.0
 30
0.0
  3
*HATCH331
  0
LINE
  5
    BA
  8
0
  6
CONTINUOUS
 62
    52
 10
148.5
 20
19.0994529724121
 30
0.0
 11
146.5
 21
17.0994529724121
 31
0.0
  0
LINE
  5
    BB
  8
0
  6
CONTINUOUS
 62
    52
 10
148.5
 20
14.8568115234375
 30
0.0
 11
146.5
 21
12.8568115234375
 31
0.0
  0
LINE
  5
    BC
  8
0
  6
CONTINUOUS
 62
    52
 10
148.5
 20
10.6141700744629
 30
0.0
 11
146.5
 21
8.61417007446289
 31
0.0
  0
ENDBLK
  5
    BD
  8
0
  6
CONTINUOUS
 62
     7
  0
BLOCK
  5
    BE
  8
0
  6
CONTINUOUS
 62
     7
  2
*HATCH332
 70
    65
 10
0.0
 20
0.0
 30
0.0
  3
*HATCH332
  0
LINE
  5
    BF
  8
0
  6
CONTINUOUS
 62
    52
 10
148.5
 20
7.57034495472908E-3
 30
0.0
 11
146.5
 21
-1.99242949485779
 31
0.0
  0
LINE
  5
    C0
  8
0
  6
CONTINUOUS
 62
    52
 10
148.5
 20
-4.23507022857666
 30
0.0
 11
146.5
 21
-6.2350697517395
 31
0.0
  0
LINE
  5
    C1
  8
0
  6
CONTINUOUS
 62
    52
 10
148.5
 20
-8.47771072387695
 30
0.0
 11
146.5
 21
-10.477710723877
 31
0.0
  0
LINE
  5
    C2
  8
0
  6
CONTINUOUS
 62
    52
 10
148.5
 20
-12.7203521728516
 30
0.0
 11
146.5
 21
-14.7203521728516
 31
0.0
  0
LINE
  5
    C3
  8
0
  6
CONTINUOUS
 62
    52
 10
148.5
 20
-16.9629936218262
 30
0.0
 11
146.5
 21
-18.9629936218262
 31
0.0
  0
LINE
  5
    C4
  8
0
  6
CONTINUOUS
 62
    52
 10
148.5
 20
-21.2056350708008
 30
0.0
 11
146.5
 21
-23.2056350708008
 31
0.0
  0
LINE
  5
    C5
  8
0
  6
CONTINUOUS
 62
    52
 10
148.5
 20
-25.4482765197754
 30
0.0
 11
146.5
 21
-27.4482765197754
 31
0.0
  0
LINE
  5
    C6
  8
0
  6
CONTINUOUS
 62
    52
 10
148.5
 20
-29.69091796875
 30
0.0
 11
146.5
 21
-31.69091796875
 31
0.0
  0
LINE
  5
    C7
  8
0
  6
CONTINUOUS
 62
    52
 10
148.5
 20
-33.9335594177246
 30
0.0
 11
146.5
 21
-35.9335556030273
 31
0.0
  0
LINE
  5
    C8
  8
0
  6
CONTINUOUS
 62
    52
 10
148.5
 20
-38.176197052002
 30
0.0
 11
146.5
 21
-40.1761932373047
 31
0.0
  0
LINE
  5
    C9
  8
0
  6
CONTINUOUS
 62
    52
 10
148.5
 20
-42.4188346862793
 30
0.0
 11
146.5
 21
-44.418830871582
 31
0.0
  0
LINE
  5
    CA
  8
0
  6
CONTINUOUS
 62
    52
 10
148.5
 20
-46.6614723205566
 30
0.0
 11
146.5
 21
-48.6614685058594
 31
0.0
  0
LINE
  5
    CB
  8
0
  6
CONTINUOUS
 62
    52
 10
148.5
 20
-50.904109954834
 30
0.0
 11
146.5
 21
-52.9041061401367
 31
0.0
  0
LINE
  5
    CC
  8
0
  6
CONTINUOUS
 62
    52
 10
148.5
 20
-55.1467475891113
 30
0.0
 11
146.5
 21
-57.1467437744141
 31
0.0
  0
LINE
  5
    CD
  8
0
  6
CONTINUOUS
 62
    52
 10
148.5
 20
-59.3893852233887
 30
0.0
 11
146.5
 21
-61.3893814086914
 31
0.0
  0
LINE
  5
    CE
  8
0
  6
CONTINUOUS
 62
    52
 10
148.5
 20
-63.632022857666
 30
0.0
 11
146.5
 21
-65.6320190429688
 31
0.0
  0
LINE
  5
    CF
  8
0
  6
CONTINUOUS
 62
    52
 10
148.5
 20
-67.8746643066406
 30
0.0
 11
146.5
 21
-69.8746643066406
 31
0.0
  0
LINE
  5
    D0
  8
0
  6
CONTINUOUS
 62
    52
 10
148.5
 20
-72.1173095703125
 30
0.0
 11
146.5
 21
-74.1173095703125
 31
0.0
  0
LINE
  5
    D1
  8
0
  6
CONTINUOUS
 62
    52
 10
148.5
 20
-76.3599548339844
 30
0.0
 11
146.5
 21
-78.3599548339844
 31
0.0
  0
LINE
  5
    D2
  8
0
  6
CONTINUOUS
 62
    52
 10
148.5
 20
-80.6026000976563
 30
0.0
 11
146.5
 21
-82.6026000976563
 31
0.0
  0
LINE
  5
    D3
  8
0
  6
CONTINUOUS
 62
    52
 10
148.5
 20
-84.8452453613281
 30
0.0
 11
146.5
 21
-86.8452453613281
 31
0.0
  0
LINE
  5
    D4
  8
0
  6
CONTINUOUS
 62
    52
 10
148.5
 20
-89.087890625
 30
0.0
 11
146.5
 21
-91.087890625
 31
0.0
  0
LINE
  5
    D5
  8
0
  6
CONTINUOUS
 62
    52
 10
148.5
 20
-93.3305358886719
 30
0.0
 11
146.5
 21
-95.3305358886719
 31
0.0
  0
LINE
  5
    D6
  8
0
  6
CONTINUOUS
 62
    52
 10
148.5
 20
-97.5731811523438
 30
0.0
 11
146.5
 21
-99.5731811523438
 31
0.0
  0
ENDBLK
  5
    D7
  8
0
  6
CONTINUOUS
 62
     7
  0
BLOCK
  5
    D8
  8
0
  6
CONTINUOUS
 62
     7
  2
*UDIM531
 70
    65
 10
0.0
 20
0.0
 30
0.0
  3
*UDIM531
  0
TEXT
  5
    D9
  8
0
  6
CONTINUOUS
 62
     7
 10
80.572490007111
 20
-156.077811063373
 30
0.0
 40
3.00000001532688
  1
85
 41
0.933333333333333
 72
     1
 11
83.0724900198834
 21
-154.577811055709
 31
0.0
 73
     2
  0
LINE
  5
    DA
  8
0
  6
CONTINUOUS
 62
     7
 10
68.4724914431572
 20
-107.862989136568
 30
0.0
 11
68.4724914431572
 21
-159.077811063373
 31
0.0
  0
LINE
  5
    DB
  8
0
  6
CONTINUOUS
 62
     7
 10
98.2224884033203
 20
-122.087844737152
 30
0.0
 11
98.2224884033203
 21
-159.077811063373
 31
0.0
  0
LINE
  5
    DC
  8
0
  6
CONTINUOUS
 62
     7
 10
68.4724914431572
 20
-157.077811063373
 30
0.0
 11
98.2224884033203
 21
-157.077811063373
 31
0.0
  0
LINE
  5
    DD
  8
0
  6
CONTINUOUS
 62
     7
 10
71.4269147203642
 20
-156.556866633421
 30
0.0
 11
68.4724914431572
 21
-157.077811063373
 31
0.0
  0
LINE
  5
    DE
  8
0
  6
CONTINUOUS
 62
     7
 10
68.4724914431572
 20
-157.077811063373
 30
0.0
 11
71.4269147203642
 21
-157.598755493324
 31
0.0
  0
LINE
  5
    DF
  8
0
  6
CONTINUOUS
 62
     7
 10
95.2680651261134
 20
-157.598755493324
 30
0.0
 11
98.2224884033203
 21
-157.077811063373
 31
0.0
  0
LINE
  5
    E0
  8
0
  6
CONTINUOUS
 62
     7
 10
98.2224884033203
 20
-157.077811063373
 30
0.0
 11
95.2680651261134
 21
-156.556866633421
 31
0.0
  0
ENDBLK
  5
    E1
  8
0
  6
CONTINUOUS
 62
     7
  0
BLOCK
  5
    E2
  8
0
  6
CONTINUOUS
 62
     7
  2
*UDIM532
 70
    65
 10
0.0
 20
0.0
 30
0.0
  3
*UDIM532
  0
TEXT
  5
    E3
  8
0
  6
CONTINUOUS
 62
     7
 10
128.785573329677
 20
-156.077811063373
 30
0.0
 40
3.00000001532688
  1
214,5
 41
0.933333333333333
 72
     1
 11
135.485573363907
 21
-154.577811055709
 31
0.0
 73
     2
  0
LINE
  5
    E4
  8
0
  6
CONTINUOUS
 62
     7
 10
173.298654584729
 20
-52.8998788086924
 30
0.0
 11
173.298654584729
 21
-159.077811063373
 31
0.0
  0
LINE
  5
    E5
  8
0
  6
CONTINUOUS
 62
     7
 10
98.2224884033203
 20
-157.077811063373
 30
0.0
 11
173.298654584729
 21
-157.077811063373
 31
0.0
  0
LINE
  5
    E6
  8
0
  6
CONTINUOUS
 62
     7
 10
101.176911680527
 20
-156.556866633421
 30
0.0
 11
98.2224884033203
 21
-157.077811063373
 31
0.0
  0
LINE
  5
    E7
  8
0
  6
CONTINUOUS
 62
     7
 10
98.2224884033203
 20
-157.077811063373
 30
0.0
 11
101.176911680527
 21
-157.598755493324
 31
0.0
  0
LINE
  5
    E8
  8
0
  6
CONTINUOUS
 62
     7
 10
170.344231307522
 20
-157.598755493324
 30
0.0
 11
173.298654584729
 21
-157.077811063373
 31
0.0
  0
LINE
  5
    E9
  8
0
  6
CONTINUOUS
 62
     7
 10
173.298654584729
 20
-157.077811063373
 30
0.0
 11
170.344231307522
 21
-156.556866633421
 31
0.0
  0
ENDBLK
  5
    EA
  8
0
  6
CONTINUOUS
 62
     7
  0
BLOCK
  5
    EB
  8
0
  6
CONTINUOUS
 62
     7
  2
*UDIM533
 70
    65
 10
0.0
 20
0.0
 30
0.0
  3
*UDIM533
  0
TEXT
  5
    EC
  8
0
  6
CONTINUOUS
 62
     7
 10
59.947490329402
 20
-127.612110389217
 30
0.0
 40
3.00000001532688
  1
14
 41
0.933333333333333
 72
     1
 11
62.4474903421744
 21
-126.112110381554
 31
0.0
 73
     2
  0
LINE
  5
    ED
  8
0
  6
CONTINUOUS
 62
     7
 10
68.4724914431572
 20
-107.862989136568
 30
0.0
 11
68.4724914431572
 21
-130.612110389217
 31
0.0
  0
LINE
  5
    EE
  8
0
  6
CONTINUOUS
 62
     7
 10
73.3724909424782
 20
-105.587976907432
 30
0.0
 11
73.3724909424782
 21
-130.612110389217
 31
0.0
  0
LINE
  5
    EF
  8
0
  6
CONTINUOUS
 62
     7
 10
59.947490329402
 20
-128.612110389217
 30
0.0
 11
73.3724909424782
 21
-128.612110389217
 31
0.0
  0
LINE
  5
    F0
  8
0
  6
CONTINUOUS
 62
     7
 10
65.5180681659502
 20
-129.133054819169
 30
0.0
 11
68.4724914431572
 21
-128.612110389217
 31
0.0
  0
LINE
  5
    F1
  8
0
  6
CONTINUOUS
 62
     7
 10
68.4724914431572
 20
-128.612110389217
 30
0.0
 11
65.5180681659502
 21
-128.091165959266
 31
0.0
  0
LINE
  5
    F2
  8
0
  6
CONTINUOUS
 62
     7
 10
76.3269142196851
 20
-128.091165959266
 30
0.0
 11
73.3724909424782
 21
-128.612110389217
 31
0.0
  0
LINE
  5
    F3
  8
0
  6
CONTINUOUS
 62
     7
 10
73.3724909424782
 20
-128.612110389217
 30
0.0
 11
76.3269142196851
 21
-129.133054819169
 31
0.0
  0
ENDBLK
  5
    F4
  8
0
  6
CONTINUOUS
 62
     7
  0
BLOCK
  5
    F5
  8
0
  6
CONTINUOUS
 62
     7
  2
*UDIM534
 70
    65
 10
0.0
 20
0.0
 30
0.0
  3
*UDIM534
  0
TEXT
  5
    F6
  8
0
  6
CONTINUOUS
 62
     7
 10
84.0474907279014
 20
-127.612110389217
 30
0.0
 40
3.00000001532688
  1
22
 41
0.933333333333333
 72
     1
 11
86.5474907406738
 21
-126.112110381554
 31
0.0
 73
     2
  0
LINE
  5
    F7
  8
0
  6
CONTINUOUS
 62
     7
 10
81.0724901556969
 20
-105.587976907432
 30
0.0
 11
81.0724901556969
 21
-130.612110389217
 31
0.0
  0
LINE
  5
    F8
  8
0
  6
CONTINUOUS
 62
     7
 10
73.3724909424782
 20
-128.612110389217
 30
0.0
 11
89.0474907534462
 21
-128.612110389217
 31
0.0
  0
LINE
  5
    F9
  8
0
  6
CONTINUOUS
 62
     7
 10
76.3269142196851
 20
-128.091165959266
 30
0.0
 11
73.3724909424782
 21
-128.612110389217
 31
0.0
  0
LINE
  5
    FA
  8
0
  6
CONTINUOUS
 62
     7
 10
73.3724909424782
 20
-128.612110389217
 30
0.0
 11
76.3269142196851
 21
-129.133054819169
 31
0.0
  0
LINE
  5
    FB
  8
0
  6
CONTINUOUS
 62
     7
 10
78.1180668784899
 20
-129.133054819169
 30
0.0
 11
81.0724901556969
 21
-128.612110389217
 31
0.0
  0
LINE
  5
    FC
  8
0
  6
CONTINUOUS
 62
     7
 10
81.0724901556969
 20
-128.612110389217
 30
0.0
 11
78.1180668784899
 21
-128.091165959266
 31
0.0
  0
ENDBLK
  5
    FD
  8
0
  6
CONTINUOUS
 62
     7
  0
BLOCK
  5
    FE
  8
0
  6
CONTINUOUS
 62
     7
  2
*UDIM535
 70
    65
 10
0.0
 20
0.0
 30
0.0
  3
*UDIM535
  0
TEXT
  5
    FF
  8
0
  6
CONTINUOUS
 62
     7
 10
86.4979270696193
 20
-117.587780511398
 30
0.0
 40
3.00000001532688
  1
11
 41
0.933333333333333
 72
     1
 11
88.9979270823917
 21
-116.087780503734
 31
0.0
 73
     2
  0
LINE
  5
   100
  8
0
  6
CONTINUOUS
 62
     7
 10
79.1474903523922
 20
-102.962977175653
 30
0.0
 11
79.1474903523922
 21
-120.587780511398
 31
0.0
  0
LINE
  5
   101
  8
0
  6
CONTINUOUS
 62
     7
 10
82.9974899590015
 20
-102.962977175653
 30
0.0
 11
82.9974899590015
 21
-120.587780511398
 31
0.0
  0
LINE
  5
   102
  8
0
  6
CONTINUOUS
 62
     7
 10
79.1474903523922
 20
-118.587780511398
 30
0.0
 11
91.4979270951641
 21
-118.587780511398
 31
0.0
  0
LINE
  5
   103
  8
0
  6
CONTINUOUS
 62
     7
 10
76.1930670751852
 20
-119.108724941349
 30
0.0
 11
79.1474903523922
 21
-118.587780511398
 31
0.0
  0
LINE
  5
   104
  8
0
  6
CONTINUOUS
 62
     7
 10
79.1474903523922
 20
-118.587780511398
 30
0.0
 11
76.1930670751852
 21
-118.066836081446
 31
0.0
  0
LINE
  5
   105
  8
0
  6
CONTINUOUS
 62
     7
 10
85.9519132362085
 20
-118.066836081446
 30
0.0
 11
82.9974899590015
 21
-118.587780511398
 31
0.0
  0
LINE
  5
   106
  8
0
  6
CONTINUOUS
 62
     7
 10
82.9974899590015
 20
-118.587780511398
 30
0.0
 11
85.9519132362085
 21
-119.108724941349
 31
0.0
  0
ENDBLK
  5
   107
  8
0
  6
CONTINUOUS
 62
     7
  0
BLOCK
  5
   108
  8
0
  6
CONTINUOUS
 62
     7
  2
*UDIM536
 70
    65
 10
0.0
 20
0.0
 30
0.0
  3
*UDIM536
  0
TEXT
  5
   109
  8
0
  6
CONTINUOUS
 62
     7
 10
52.5737674558595
 20
-100.887997477809
 30
0.0
 40
3.00000001532688
  1
50
 50
90.0
 41
0.933333333333333
 72
     1
 11
51.0737674481929
 21
-98.3879974650386
 31
0.0
 73
     2
  0
LINE
  5
   10A
  8
0
  6
CONTINUOUS
 62
     7
 10
67.4724914431572
 20
-106.862989136568
 30
0.0
 11
51.5737674558563
 21
-106.862989136568
 31
0.0
  0
LINE
  5
   10B
  8
0
  6
CONTINUOUS
 62
     7
 10
67.4724914431572
 20
-89.3629909247061
 30
0.0
 11
51.5737674558563
 21
-89.3629909247061
 31
0.0
  0
LINE
  5
   10C
  8
0
  6
CONTINUOUS
 62
     7
 10
53.5737674558563
 20
-106.862989136568
 30
0.0
 11
53.5737674558563
 21
-89.3629909247061
 31
0.0
  0
LINE
  5
   10D
  8
0
  6
CONTINUOUS
 62
     7
 10
53.0528230259047
 20
-103.908565859361
 30
0.0
 11
53.5737674558563
 21
-106.862989136568
 31
0.0
  0
LINE
  5
   10E
  8
0
  6
CONTINUOUS
 62
     7
 10
53.5737674558563
 20
-106.862989136568
 30
0.0
 11
54.094711885808
 21
-103.908565859361
 31
0.0
  0
LINE
  5
   10F
  8
0
  6
CONTINUOUS
 62
     7
 10
54.094711885808
 20
-92.3174142019131
 30
0.0
 11
53.5737674558563
 21
-89.3629909247061
 31
0.0
  0
LINE
  5
   110
  8
0
  6
CONTINUOUS
 62
     7
 10
53.5737674558563
 20
-89.3629909247061
 30
0.0
 11
53.0528230259047
 21
-92.3174142019131
 31
0.0
  0
ENDBLK
  5
   111
  8
0
  6
CONTINUOUS
 62
     7
  0
BLOCK
  5
   112
  8
0
  6
CONTINUOUS
 62
     7
  2
*UDIM537
 70
    65
 10
0.0
 20
0.0
 30
0.0
  3
*UDIM537
  0
TEXT
  5
   113
  8
0
  6
CONTINUOUS
 62
     7
 10
60.5678508065093
 20
-86.1711825639376
 30
0.0
 40
3.00000001532688
  1
22
 50
90.0
 41
0.933333333333333
 72
     1
 11
59.0678507988427
 21
-83.6711825511671
 31
0.0
 73
     2
  0
LINE
  5
   114
  8
0
  6
CONTINUOUS
 62
     7
 10
69.7474912106991
 20
-101.962977175653
 30
0.0
 11
59.5678508065062
 21
-101.962977175653
 31
0.0
  0
LINE
  5
   115
  8
0
  6
CONTINUOUS
 62
     7
 10
69.7474912106991
 20
-94.2629779624341
 30
0.0
 11
59.5678508065062
 21
-94.2629779624341
 31
0.0
  0
LINE
  5
   116
  8
0
  6
CONTINUOUS
 62
     7
 10
61.5678508065062
 20
-101.962977175653
 30
0.0
 11
61.5678508065062
 21
-81.1711825383947
 31
0.0
  0
LINE
  5
   117
  8
0
  6
CONTINUOUS
 62
     7
 10
62.0887952364578
 20
-104.91740045286
 30
0.0
 11
61.5678508065062
 21
-101.962977175653
 31
0.0
  0
LINE
  5
   118
  8
0
  6
CONTINUOUS
 62
     7
 10
61.5678508065062
 20
-101.962977175653
 30
0.0
 11
61.0469063765545
 21
-104.91740045286
 31
0.0
  0
LINE
  5
   119
  8
0
  6
CONTINUOUS
 62
     7
 10
61.0469063765545
 20
-91.3085546852271
 30
0.0
 11
61.5678508065062
 21
-94.2629779624341
 31
0.0
  0
LINE
  5
   11A
  8
0
  6
CONTINUOUS
 62
     7
 10
61.5678508065062
 20
-94.2629779624341
 30
0.0
 11
62.0887952364578
 21
-91.3085546852271
 31
0.0
  0
ENDBLK
  5
   11B
  8
0
  6
CONTINUOUS
 62
     7
  0
BLOCK
  5
   11C
  8
0
  6
CONTINUOUS
 62
     7
  2
*UDIM538
 70
    65
 10
0.0
 20
0.0
 30
0.0
  3
*UDIM538
  0
TEXT
  5
   11D
  8
0
  6
CONTINUOUS
 62
     7
 10
61.3715059673122
 20
0.812018383403399
 30
0.0
 40
3.00000001532688
  1
16
 50
90.0
 41
0.933333333333333
 72
     1
 11
59.8715059596456
 21
3.31201839617391
 31
0.0
 73
     2
  0
LINE
  5
   11E
  8
0
  6
CONTINUOUS
 62
     7
 10
67.4724914431572
 20
9.33701949715667
 30
0.0
 11
60.3715059673091
 21
9.33701949715667
 31
0.0
  0
LINE
  5
   11F
  8
0
  6
CONTINUOUS
 62
     7
 10
67.4724914431572
 20
14.9370189249521
 30
0.0
 11
60.3715059673091
 21
14.9370189249521
 31
0.0
  0
LINE
  5
   120
  8
0
  6
CONTINUOUS
 62
     7
 10
62.3715059673091
 20
0.812018383401522
 30
0.0
 11
62.3715059673091
 21
14.9370189249521
 31
0.0
  0
LINE
  5
   121
  8
0
  6
CONTINUOUS
 62
     7
 10
62.8924503972607
 20
6.38259621994972
 30
0.0
 11
62.3715059673091
 21
9.33701949715667
 31
0.0
  0
LINE
  5
   122
  8
0
  6
CONTINUOUS
 62
     7
 10
62.3715059673091
 20
9.33701949715667
 30
0.0
 11
61.8505615373574
 21
6.38259621994972
 31
0.0
  0
LINE
  5
   123
  8
0
  6
CONTINUOUS
 62
     7
 10
61.8505615373574
 20
17.8914422021591
 30
0.0
 11
62.3715059673091
 21
14.9370189249521
 31
0.0
  0
LINE
  5
   124
  8
0
  6
CONTINUOUS
 62
     7
 10
62.3715059673091
 20
14.9370189249521
 30
0.0
 11
62.8924503972607
 21
17.8914422021591
 31
0.0
  0
ENDBLK
  5
   125
  8
0
  6
CONTINUOUS
 62
     7
  0
BLOCK
  5
   126
  8
0
  6
CONTINUOUS
 62
     7
  2
*UDIM539
 70
    65
 10
0.0
 20
0.0
 30
0.0
  3
*UDIM539
  0
TEXT
  5
   127
  8
0
  6
CONTINUOUS
 62
     7
 10
54.3771837144639
 20
-24.8505182619285
 30
0.0
 40
3.00000001532688
  1
171,5
 50
90.0
 41
0.933333333333333
 72
     1
 11
52.877183706792
 21
-18.1505182277004
 31
0.0
 73
     2
  0
LINE
  5
   128
  8
0
  6
CONTINUOUS
 62
     7
 10
171.639543633163
 20
-47.8880529391172
 30
0.0
 11
53.3771837144554
 21
-47.8880529391172
 31
0.0
  0
LINE
  5
   129
  8
0
  6
CONTINUOUS
 62
     7
 10
98.0141550611718
 20
12.1370192110544
 30
0.0
 11
53.3771837144554
 21
12.1370192110544
 31
0.0
  0
LINE
  5
   12A
  8
0
  6
CONTINUOUS
 62
     7
 10
55.3771837144554
 20
-47.8880529391172
 30
0.0
 11
55.3771837144554
 21
12.1370192110544
 31
0.0
  0
LINE
  5
   12B
  8
0
  6
CONTINUOUS
 62
     7
 10
54.8562392845038
 20
-44.9336296619102
 30
0.0
 11
55.3771837144554
 21
-47.8880529391172
 31
0.0
  0
LINE
  5
   12C
  8
0
  6
CONTINUOUS
 62
     7
 10
55.3771837144554
 20
-47.8880529391172
 30
0.0
 11
55.8981281444071
 21
-44.9336296619102
 31
0.0
  0
LINE
  5
   12D
  8
0
  6
CONTINUOUS
 62
     7
 10
55.8981281444071
 20
9.18259593384742
 30
0.0
 11
55.3771837144554
 21
12.1370192110544
 31
0.0
  0
LINE
  5
   12E
  8
0
  6
CONTINUOUS
 62
     7
 10
55.3771837144554
 20
12.1370192110544
 30
0.0
 11
54.8562392845038
 21
9.18259593384742
 31
0.0
  0
ENDBLK
  5
   12F
  8
0
  6
CONTINUOUS
 62
     7
  0
BLOCK
  5
   130
  8
0
  6
CONTINUOUS
 62
     7
  2
*UDIM540
 70
    65
 10
0.0
 20
0.0
 30
0.0
  3
*UDIM540
  0
TEXT
  5
   131
  8
0
  6
CONTINUOUS
 62
     7
 10
116.884985303709
 20
-146.645638870408
 30
0.0
 40
3.00000001532688
  1
146,5
 41
0.933333333333333
 72
     1
 11
123.584985337939
 21
-145.145638862745
 31
0.0
 73
     2
  0
LINE
  5
   132
  8
0
  6
CONTINUOUS
 62
     7
 10
98.2224884033203
 20
-122.087844737152
 30
0.0
 11
98.2224884033203
 21
-149.645638870408
 31
0.0
  0
LINE
  5
   133
  8
0
  6
CONTINUOUS
 62
     7
 10
149.497483164072
 20
-108.135557076463
 30
0.0
 11
149.497483164072
 21
-149.645638870408
 31
0.0
  0
LINE
  5
   134
  8
0
  6
CONTINUOUS
 62
     7
 10
98.2224884033203
 20
-147.645638870408
 30
0.0
 11
149.497483164072
 21
-147.645638870408
 31
0.0
  0
LINE
  5
   135
  8
0
  6
CONTINUOUS
 62
     7
 10
101.176911680527
 20
-147.124694440457
 30
0.0
 11
98.2224884033203
 21
-147.645638870408
 31
0.0
  0
LINE
  5
   136
  8
0
  6
CONTINUOUS
 62
     7
 10
98.2224884033203
 20
-147.645638870408
 30
0.0
 11
101.176911680527
 21
-148.16658330036
 31
0.0
  0
LINE
  5
   137
  8
0
  6
CONTINUOUS
 62
     7
 10
146.543059886865
 20
-148.16658330036
 30
0.0
 11
149.497483164072
 21
-147.645638870408
 31
0.0
  0
LINE
  5
   138
  8
0
  6
CONTINUOUS
 62
     7
 10
149.497483164072
 20
-147.645638870408
 30
0.0
 11
146.543059886865
 21
-147.124694440457
 31
0.0
  0
ENDBLK
  5
   139
  8
0
  6
CONTINUOUS
 62
     7
  0
BLOCK
  5
   13A
  8
0
  6
CONTINUOUS
 62
     7
  2
*UDIM541
 70
    65
 10
0.0
 20
0.0
 30
0.0
  3
*UDIM541
  0
TEXT
  5
   13B
  8
0
  6
CONTINUOUS
 62
     7
 10
153.197482048103
 20
-146.645638870408
 30
0.0
 40
3.00000001532688
  1
2
 41
0.933333333333333
 72
     1
 11
154.297482053723
 21
-145.145638862745
 31
0.0
 73
     2
  0
LINE
  5
   13C
  8
0
  6
CONTINUOUS
 62
     7
 10
150.197483092546
 20
-107.932068725162
 30
0.0
 11
150.197483092546
 21
-149.645638870408
 31
0.0
  0
LINE
  5
   13D
  8
0
  6
CONTINUOUS
 62
     7
 10
149.497483164072
 20
-147.645638870408
 30
0.0
 11
155.397482059343
 21
-147.645638870408
 31
0.0
  0
LINE
  5
   13E
  8
0
  6
CONTINUOUS
 62
     7
 10
146.543059886865
 20
-148.16658330036
 30
0.0
 11
149.497483164072
 21
-147.645638870408
 31
0.0
  0
LINE
  5
   13F
  8
0
  6
CONTINUOUS
 62
     7
 10
149.497483164072
 20
-147.645638870408
 30
0.0
 11
146.543059886865
 21
-147.124694440457
 31
0.0
  0
LINE
  5
   140
  8
0
  6
CONTINUOUS
 62
     7
 10
153.151906369753
 20
-147.124694440457
 30
0.0
 11
150.197483092546
 21
-147.645638870408
 31
0.0
  0
LINE
  5
   141
  8
0
  6
CONTINUOUS
 62
     7
 10
150.197483092546
 20
-147.645638870408
 30
0.0
 11
153.151906369753
 21
-148.16658330036
 31
0.0
  0
ENDBLK
  5
   142
  8
0
  6
CONTINUOUS
 62
     7
  0
BLOCK
  5
   143
  8
0
  6
CONTINUOUS
 62
     7
  2
*UDIM542
 70
    65
 10
0.0
 20
0.0
 30
0.0
  3
*UDIM542
  0
TEXT
  5
   144
  8
0
  6
CONTINUOUS
 62
     7
 10
115.484982776472
 20
-127.781294484479
 30
0.0
 40
3.00000001532688
  1
138,5
 41
0.933333333333333
 72
     1
 11
122.184982810702
 21
-126.281294476816
 31
0.0
 73
     2
  0
LINE
  5
   145
  8
0
  6
CONTINUOUS
 62
     7
 10
98.2224884033203
 20
-107.862977260665
 30
0.0
 11
98.2224884033203
 21
-130.781294484479
 31
0.0
  0
LINE
  5
   146
  8
0
  6
CONTINUOUS
 62
     7
 10
146.697478109599
 20
-75.3129662811757
 30
0.0
 11
146.697478109599
 21
-130.781294484479
 31
0.0
  0
LINE
  5
   147
  8
0
  6
CONTINUOUS
 62
     7
 10
98.2224884033203
 20
-128.781294484479
 30
0.0
 11
146.697478109599
 21
-128.781294484479
 31
0.0
  0
LINE
  5
   148
  8
0
  6
CONTINUOUS
 62
     7
 10
101.176911680527
 20
-128.260350054527
 30
0.0
 11
98.2224884033203
 21
-128.781294484479
 31
0.0
  0
LINE
  5
   149
  8
0
  6
CONTINUOUS
 62
     7
 10
98.2224884033203
 20
-128.781294484479
 30
0.0
 11
101.176911680527
 21
-129.302238914431
 31
0.0
  0
LINE
  5
   14A
  8
0
  6
CONTINUOUS
 62
     7
 10
143.743054832392
 20
-129.302238914431
 30
0.0
 11
146.697478109599
 21
-128.781294484479
 31
0.0
  0
LINE
  5
   14B
  8
0
  6
CONTINUOUS
 62
     7
 10
146.697478109599
 20
-128.781294484479
 30
0.0
 11
143.743054832392
 21
-128.260350054527
 31
0.0
  0
ENDBLK
  5
   14C
  8
0
  6
CONTINUOUS
 62
     7
  0
BLOCK
  5
   14D
  8
0
  6
CONTINUOUS
 62
     7
  2
*UDIM543
 70
    65
 10
0.0
 20
0.0
 30
0.0
  3
*UDIM543
  0
TEXT
  5
   14E
  8
0
  6
CONTINUOUS
 62
     7
 10
46.6187452524522
 20
-47.1629877350254
 30
0.0
 40
3.00000001532688
  1
315
 50
90.0
 41
0.933333333333334
 72
     1
 11
45.1187452447839
 21
-43.2629877151023
 31
0.0
 73
     2
  0
LINE
  5
   14F
  8
0
  6
CONTINUOUS
 62
     7
 10
98.6896848745216
 20
-98.1129769540765
 30
0.0
 11
45.6187452524477
 21
-98.1129443172038
 31
0.0
  0
LINE
  5
   150
  8
0
  6
CONTINUOUS
 62
     7
 10
98.0141550611719
 20
12.1370196556872
 30
0.0
 11
45.6187452524475
 21
12.1370429524035
 31
0.0
  0
LINE
  5
   151
  8
0
  6
CONTINUOUS
 62
     7
 10
47.6187452524473
 20
-98.1129455471377
 30
0.0
 11
47.6187452524473
 21
12.1370420631379
 31
0.0
  0
LINE
  5
   152
  8
0
  6
CONTINUOUS
 62
     7
 10
47.0978008224956
 20
-95.1585222699307
 30
0.0
 11
47.6187452524473
 21
-98.1129455471377
 31
0.0
  0
LINE
  5
   153
  8
0
  6
CONTINUOUS
 62
     7
 10
47.6187452524473
 20
-98.1129455471377
 30
0.0
 11
48.139689682399
 21
-95.1585222699307
 31
0.0
  0
LINE
  5
   154
  8
0
  6
CONTINUOUS
 62
     7
 10
48.139689682399
 20
9.18261878593096
 30
0.0
 11
47.6187452524473
 21
12.1370420631379
 31
0.0
  0
LINE
  5
   155
  8
0
  6
CONTINUOUS
 62
     7
 10
47.6187452524473
 20
12.1370420631379
 30
0.0
 11
47.0978008224956
 21
9.18261878593096
 31
0.0
  0
ENDBLK
  5
   156
  8
0
  6
CONTINUOUS
 62
     7
  0
BLOCK
  5
   157
  8
0
  6
CONTINUOUS
 62
     7
  2
*UDIM544
 70
    65
 10
0.0
 20
0.0
 30
0.0
  3
*UDIM544
  0
TEXT
  5
   158
  8
0
  6
CONTINUOUS
 62
     7
 10
182.432606191968
 20
-52.0629805473324
 30
0.0
 40
3.00000001532688
  1
105
 50
90.0
 41
0.933333333333334
 72
     1
 11
180.932606184299
 21
-48.1629805274094
 31
0.0
 73
     2
  0
LINE
  5
   159
  8
0
  6
CONTINUOUS
 62
     7
 10
150.497483164072
 20
-66.2629734257838
 30
0.0
 11
185.432606191963
 21
-66.2629843924946
 31
0.0
  0
LINE
  5
   15A
  8
0
  6
CONTINUOUS
 62
     7
 10
150.497483164072
 20
-29.5129909268196
 30
0.0
 11
185.432606191963
 21
-29.5130018935303
 31
0.0
  0
LINE
  5
   15B
  8
0
  6
CONTINUOUS
 62
     7
 10
183.432606191963
 20
-66.2629837646616
 30
0.0
 11
183.432606191963
 21
-29.5130012656973
 31
0.0
  0
LINE
  5
   15C
  8
0
  6
CONTINUOUS
 62
     7
 10
182.911661762011
 20
-63.3085604874547
 30
0.0
 11
183.432606191963
 21
-66.2629837646616
 31
0.0
  0
LINE
  5
   15D
  8
0
  6
CONTINUOUS
 62
     7
 10
183.432606191963
 20
-66.2629837646616
 30
0.0
 11
183.953550621914
 21
-63.3085604874547
 31
0.0
  0
LINE
  5
   15E
  8
0
  6
CONTINUOUS
 62
     7
 10
183.953550621914
 20
-32.4674245429043
 30
0.0
 11
183.432606191963
 21
-29.5130012656973
 31
0.0
  0
LINE
  5
   15F
  8
0
  6
CONTINUOUS
 62
     7
 10
183.432606191963
 20
-29.5130012656973
 30
0.0
 11
182.911661762011
 21
-32.4674245429043
 31
0.0
  0
ENDBLK
  5
   160
  8
0
  6
CONTINUOUS
 62
     7
  0
BLOCK
  5
   161
  8
0
  6
CONTINUOUS
 62
     7
  2
*UDIM545
 70
    65
 10
0.0
 20
0.0
 30
0.0
  3
*UDIM545
  0
TEXT
  5
   162
  8
0
  6
CONTINUOUS
 62
     7
 10
91.4224883602347
 20
-137.171169318484
 30
0.0
 40
3.00000001532688
  1
3
 41
0.933333333333333
 72
     1
 11
92.5224883658546
 21
-135.671169310821
 31
0.0
 73
     2
  0
TEXT
  5
   163
  8
0
  6
CONTINUOUS
 62
     7
 10
88.6724883370741
 20
-137.171169318484
 30
0.0
 40
3.00000001532688
  1
_
 41
0.933333333333333
 72
     1
 11
89.772488342694
 21
-135.671169310821
 31
0.0
 73
     2
  0
LINE
  5
   164
  8
0
  6
CONTINUOUS
 62
     7
 10
97.1724885106087
 20
-122.087844737152
 30
0.0
 11
97.1724885106087
 21
-140.171169318484
 31
0.0
  0
LINE
  5
   165
  8
0
  6
CONTINUOUS
 62
     7
 10
98.2224884033203
 20
-122.087844737152
 30
0.0
 11
98.2224884033203
 21
-140.171169318484
 31
0.0
  0
LINE
  5
   166
  8
0
  6
CONTINUOUS
 62
     7
 10
88.6724883370741
 20
-138.171169318484
 30
0.0
 11
98.2224884033203
 21
-138.171169318484
 31
0.0
  0
LINE
  5
   167
  8
0
  6
CONTINUOUS
 62
     7
 10
94.2180652334017
 20
-138.692113748436
 30
0.0
 11
97.1724885106087
 21
-138.171169318484
 31
0.0
  0
LINE
  5
   168
  8
0
  6
CONTINUOUS
 62
     7
 10
97.1724885106087
 20
-138.171169318484
 30
0.0
 11
94.2180652334017
 21
-137.650224888533
 31
0.0
  0
LINE
  5
   169
  8
0
  6
CONTINUOUS
 62
     7
 10
101.176911680527
 20
-137.650224888533
 30
0.0
 11
98.2224884033203
 21
-138.171169318484
 31
0.0
  0
LINE
  5
   16A
  8
0
  6
CONTINUOUS
 62
     7
 10
98.2224884033203
 20
-138.171169318484
 30
0.0
 11
101.176911680527
 21
-138.692113748436
 31
0.0
  0
ENDBLK
  5
   16B
  8
0
  6
CONTINUOUS
 62
     7
  0
BLOCK
  5
   16C
  8
0
  6
CONTINUOUS
 62
     7
  2
*UDIM546
 70
    65
 10
0.0
 20
0.0
 30
0.0
  3
*UDIM546
  0
TEXT
  5
   16D
  8
0
  6
CONTINUOUS
 62
     7
 10
115.834982740709
 20
-137.171169318484
 30
0.0
 40
3.00000001532688
  1
140,5
 41
0.933333333333333
 72
     1
 11
122.534982774939
 21
-135.671169310821
 31
0.0
 73
     2
  0
LINE
  5
   16E
  8
0
  6
CONTINUOUS
 62
     7
 10
147.397478038073
 20
-67.1754727870221
 30
0.0
 11
147.397478038073
 21
-140.171169318484
 31
0.0
  0
LINE
  5
   16F
  8
0
  6
CONTINUOUS
 62
     7
 10
98.2224884033203
 20
-138.171169318484
 30
0.0
 11
147.397478038073
 21
-138.171169318484
 31
0.0
  0
LINE
  5
   170
  8
0
  6
CONTINUOUS
 62
     7
 10
101.176911680527
 20
-137.650224888533
 30
0.0
 11
98.2224884033203
 21
-138.171169318484
 31
0.0
  0
LINE
  5
   171
  8
0
  6
CONTINUOUS
 62
     7
 10
98.2224884033203
 20
-138.171169318484
 30
0.0
 11
101.176911680527
 21
-138.692113748436
 31
0.0
  0
LINE
  5
   172
  8
0
  6
CONTINUOUS
 62
     7
 10
144.443054760866
 20
-138.692113748436
 30
0.0
 11
147.397478038073
 21
-138.171169318484
 31
0.0
  0
LINE
  5
   173
  8
0
  6
CONTINUOUS
 62
     7
 10
147.397478038073
 20
-138.171169318484
 30
0.0
 11
144.443054760866
 21
-137.650224888533
 31
0.0
  0
ENDBLK
  5
   174
  8
0
  6
CONTINUOUS
 62
     7
  0
BLOCK
  5
   175
  8
0
  6
CONTINUOUS
 62
     7
  2
*UDIM547
 70
    65
 10
0.0
 20
0.0
 30
0.0
  3
*UDIM547
  0
TEXT
  5
   176
  8
0
  6
CONTINUOUS
 62
     7
 10
22.0071292841085
 20
-143.327389290465
 30
0.0
 40
3.00000005960463
  1
3,6
 50
369.362231397563
 41
0.933333333333334
 72
     1
 11
25.6111664451396
 21
-141.212935026191
 31
0.0
 73
     2
  0
TEXT
  5
   177
  8
0
  6
CONTINUOUS
 62
     7
 10
18.8990884845174
 20
-143.8398174204
 30
0.0
 40
3.00000005960463
  1
Ø
 50
369.362231397563
 41
0.933333333333334
 72
     1
 11
19.7404226840131
 21
-142.180854822194
 31
0.0
 73
     2
  0
TEXT
  5
   178
  8
0
  6
CONTINUOUS
 62
     7
 10
30.2459041853701
 20
-141.969048054452
 30
0.0
 40
3.00000005960463
  1
 H12
 50
369.362231397563
 41
0.933333333333333
 72
     1
 11
35.2312928271689
 21
-139.626847957145
 31
0.0
 73
     2
  0
LINE
  5
   179
  8
0
  6
CONTINUOUS
 62
     7
 10
40.8673838487342
 20
-141.231366346518
 30
0.0
 11
10.9740701354494
 21
-146.15992928309
 31
0.0
  0
LINE
  5
   17A
  8
0
  6
CONTINUOUS
 62
     7
 10
14.5148036720142
 20
-145.048185055829
 30
0.0
 11
11.6844794117461
 21
-146.042802862696
 31
0.0
  0
LINE
  5
   17B
  8
0
  6
CONTINUOUS
 62
     7
 10
11.6844794117461
 20
-146.042802862696
 30
0.0
 11
14.6842935607399
 21
-146.076195548971
 31
0.0
  0
LINE
  5
   17C
  8
0
  6
CONTINUOUS
 62
     7
 10
8.14374587518127
 20
-147.154547089958
 30
0.0
 11
10.9740701354494
 21
-146.15992928309
 31
0.0
  0
LINE
  5
   17D
  8
0
  6
CONTINUOUS
 62
     7
 10
10.9740701354494
 20
-146.15992928309
 30
0.0
 11
7.97425598645556
 21
-146.126536596816
 31
0.0
  0
ENDBLK
  5
   17E
  8
0
  6
CONTINUOUS
 62
     7
  0
BLOCK
  5
   17F
  8
0
  6
CONTINUOUS
 62
     7
  2
*UDIM548
 70
    65
 10
0.0
 20
0.0
 30
0.0
  3
*UDIM548
  0
TEXT
  5
   180
  8
0
  6
CONTINUOUS
 62
     7
 10
-21.8457233232571
 20
-136.967720920759
 30
0.0
 40
3.00000005960463
  1
290
 50
359.999999896069
 41
0.933333333333334
 72
     1
 11
-17.9457232430577
 21
-135.467720898011
 31
0.0
 73
     2
  0
LINE
  5
   181
  8
0
  6
CONTINUOUS
 62
     7
 10
11.3292747735977
 20
-143.176366187632
 30
0.0
 11
11.3292747735977
 21
-135.967720927813
 31
0.0
  0
LINE
  5
   182
  8
0
  6
CONTINUOUS
 62
     7
 10
-46.6707217693329
 20
-143.176366187632
 30
0.0
 11
-46.6707217693329
 21
-135.967720927813
 31
0.0
  0
LINE
  5
   183
  8
0
  6
CONTINUOUS
 62
     7
 10
11.3292747735977
 20
-137.967720927813
 30
0.0
 11
-46.6707217693329
 21
-137.967720927813
 31
0.0
  0
LINE
  5
   184
  8
0
  6
CONTINUOUS
 62
     7
 10
8.37485149639075
 20
-138.488665357765
 30
0.0
 11
11.3292747735977
 21
-137.967720927813
 31
0.0
  0
LINE
  5
   185
  8
0
  6
CONTINUOUS
 62
     7
 10
11.3292747735977
 20
-137.967720927813
 30
0.0
 11
8.37485149639075
 21
-137.446776497862
 31
0.0
  0
LINE
  5
   186
  8
0
  6
CONTINUOUS
 62
     7
 10
-43.7162984921259
 20
-137.446776497862
 30
0.0
 11
-46.6707217693329
 21
-137.967720927813
 31
0.0
  0
LINE
  5
   187
  8
0
  6
CONTINUOUS
 62
     7
 10
-46.6707217693329
 20
-137.967720927813
 30
0.0
 11
-43.7162984921259
 21
-138.488665357765
 31
0.0
  0
ENDBLK
  5
   188
  8
0
  6
CONTINUOUS
 62
     7
  0
BLOCK
  5
   189
  8
0
  6
CONTINUOUS
 62
     7
  2
*UDIM549
 70
    65
 10
0.0
 20
0.0
 30
0.0
  3
*UDIM549
  0
TEXT
  5
   18A
  8
0
  6
CONTINUOUS
 62
     7
 10
36.285932157488
 20
-156.876365488996
 30
0.0
 40
3.00000005960463
  1
80
 50
449.999999896069
 41
0.933333333333334
 72
     1
 11
34.7859321322048
 21
-154.376365436614
 31
0.0
 73
     2
  0
LINE
  5
   18B
  8
0
  6
CONTINUOUS
 62
     7
 10
14.2542746588588
 20
-146.101366072893
 30
0.0
 11
39.2859321620072
 21
-146.101366072893
 31
0.0
  0
LINE
  5
   18C
  8
0
  6
CONTINUOUS
 62
     7
 10
14.2542746588588
 20
-162.101365119219
 30
0.0
 11
39.2859321620072
 21
-162.101365119219
 31
0.0
  0
LINE
  5
   18D
  8
0
  6
CONTINUOUS
 62
     7
 10
37.2859321620072
 20
-146.101366072893
 30
0.0
 11
37.2859321620072
 21
-162.101365119219
 31
0.0
  0
LINE
  5
   18E
  8
0
  6
CONTINUOUS
 62
     7
 10
37.8068765919588
 20
-149.0557893501
 30
0.0
 11
37.2859321620072
 21
-146.101366072893
 31
0.0
  0
LINE
  5
   18F
  8
0
  6
CONTINUOUS
 62
     7
 10
37.2859321620072
 20
-146.101366072893
 30
0.0
 11
36.7649877320555
 21
-149.0557893501
 31
0.0
  0
LINE
  5
   190
  8
0
  6
CONTINUOUS
 62
     7
 10
36.7649877320555
 20
-159.146941842012
 30
0.0
 11
37.2859321620072
 21
-162.101365119219
 31
0.0
  0
LINE
  5
   191
  8
0
  6
CONTINUOUS
 62
     7
 10
37.2859321620072
 20
-162.101365119219
 30
0.0
 11
37.8068765919588
 21
-159.146941842012
 31
0.0
  0
ENDBLK
  5
   192
  8
0
  6
CONTINUOUS
 62
     7
  0
BLOCK
  5
   193
  8
0
  6
CONTINUOUS
 62
     7
  2
*UDIM550
 70
    65
 10
0.0
 20
0.0
 30
0.0
  3
*UDIM550
  0
TEXT
  5
   194
  8
0
  6
CONTINUOUS
 62
     7
 10
-58.356495638423
 20
-193.259546777014
 30
0.0
 40
3.00000005960463
  1
40
 50
336.041640856291
 41
0.933333333333334
 72
     1
 11
-55.4627846326677
 21
-192.903967035001
 31
0.0
 73
     2
  0
TEXT
  5
   195
  8
0
  6
CONTINUOUS
 62
     7
 10
-60.8695579483059
 20
-192.142847116131
 30
0.0
 40
3.00000005960463
  1
R
 50
336.041640856291
 41
0.933333333333334
 72
     1
 11
-59.2552241164766
 21
-191.21876572529
 31
0.0
 73
     2
  0
LINE
  5
   196
  8
0
  6
CONTINUOUS
 62
     7
 10
-61.2756305432186
 20
-193.056687940149
 30
0.0
 11
-32.2738360627385
 21
-205.943871045151
 31
0.0
  0
LINE
  5
   197
  8
0
  6
CONTINUOUS
 62
     7
 10
-43.0700345283346
 20
-200.576432142355
 30
0.0
 11
-45.9814483791919
 21
-199.852782096382
 31
0.0
  0
LINE
  5
   198
  8
0
  6
CONTINUOUS
 62
     7
 10
-45.9814483791919
 20
-199.852782096382
 30
0.0
 11
-43.4931170430281
 21
-201.52855271358
 31
0.0
  0
ENDBLK
  5
   199
  8
0
  6
CONTINUOUS
 62
     7
  0
BLOCK
  5
   19A
  8
0
  6
CONTINUOUS
 62
     7
  2
*UDIM551
 70
    65
 10
0.0
 20
0.0
 30
0.0
  3
*UDIM551
  0
TEXT
  5
   19B
  8
0
  6
CONTINUOUS
 62
     7
 10
-66.7030326536873
 20
-187.873369739859
 30
0.0
 40
3.00000005960463
  1
315
 50
449.999999896069
 41
0.933333333333334
 72
     1
 11
-68.2030326764398
 21
-183.973369659662
 31
0.0
 73
     2
  0
LINE
  5
   19C
  8
0
  6
CONTINUOUS
 62
     7
 10
-53.5910445106436
 20
-154.101365596056
 30
0.0
 11
-67.7030326466374
 21
-154.101365596056
 31
0.0
  0
LINE
  5
   19D
  8
0
  6
CONTINUOUS
 62
     7
 10
-53.5910445106436
 20
-203.101362675428
 30
0.0
 11
-67.7030326466374
 21
-203.101362675428
 31
0.0
  0
LINE
  5
   19E
  8
0
  6
CONTINUOUS
 62
     7
 10
-65.7030326466374
 20
-154.101365596056
 30
0.0
 11
-65.7030326466374
 21
-203.101362675428
 31
0.0
  0
LINE
  5
   19F
  8
0
  6
CONTINUOUS
 62
     7
 10
-65.1820882166858
 20
-157.055788873263
 30
0.0
 11
-65.7030326466374
 21
-154.101365596056
 31
0.0
  0
LINE
  5
   1A0
  8
0
  6
CONTINUOUS
 62
     7
 10
-65.7030326466374
 20
-154.101365596056
 30
0.0
 11
-66.2239770765891
 21
-157.055788873263
 31
0.0
  0
LINE
  5
   1A1
  8
0
  6
CONTINUOUS
 62
     7
 10
-66.2239770765891
 20
-200.146939398221
 30
0.0
 11
-65.7030326466374
 21
-203.101362675428
 31
0.0
  0
LINE
  5
   1A2
  8
0
  6
CONTINUOUS
 62
     7
 10
-65.7030326466374
 20
-203.101362675428
 30
0.0
 11
-65.1820882166858
 21
-200.146939398221
 31
0.0
  0
ENDBLK
  5
   1A3
  8
0
  6
CONTINUOUS
 62
     7
  0
BLOCK
  5
   1A4
  8
0
  6
CONTINUOUS
 62
     7
  2
*UDIM552
 70
    65
 10
0.0
 20
0.0
 30
0.0
  3
*UDIM552
  0
TEXT
  5
   1A5
  8
0
  6
CONTINUOUS
 62
     7
 10
-57.7361234031792
 20
-173.326364603867
 30
0.0
 40
3.00000005960463
  1
171,5
 50
449.999999896069
 41
0.933333333333333
 72
     1
 11
-59.2361234208702
 21
-166.626364468038
 31
0.0
 73
     2
  0
LINE
  5
   1A6
  8
0
  6
CONTINUOUS
 62
     7
 10
-53.5910445106436
 20
-154.101365596056
 30
0.0
 11
-58.7361233910678
 21
-154.101365596056
 31
0.0
  0
LINE
  5
   1A7
  8
0
  6
CONTINUOUS
 62
     7
 10
-39.4626740567484
 20
-178.601364135742
 30
0.0
 11
-58.7361233910678
 21
-178.601364135742
 31
0.0
  0
LINE
  5
   1A8
  8
0
  6
CONTINUOUS
 62
     7
 10
-56.7361233910679
 20
-154.101365596056
 30
0.0
 11
-56.7361233910679
 21
-178.601364135742
 31
0.0
  0
LINE
  5
   1A9
  8
0
  6
CONTINUOUS
 62
     7
 10
-56.2151789611162
 20
-157.055788873263
 30
0.0
 11
-56.7361233910679
 21
-154.101365596056
 31
0.0
  0
LINE
  5
   1AA
  8
0
  6
CONTINUOUS
 62
     7
 10
-56.7361233910679
 20
-154.101365596056
 30
0.0
 11
-57.2570678210195
 21
-157.055788873263
 31
0.0
  0
LINE
  5
   1AB
  8
0
  6
CONTINUOUS
 62
     7
 10
-57.2570678210195
 20
-175.646940858535
 30
0.0
 11
-56.7361233910679
 21
-178.601364135742
 31
0.0
  0
LINE
  5
   1AC
  8
0
  6
CONTINUOUS
 62
     7
 10
-56.7361233910679
 20
-178.601364135742
 30
0.0
 11
-56.2151789611162
 21
-175.646940858535
 31
0.0
  0
ENDBLK
  5
   1AD
  8
0
  6
CONTINUOUS
 62
     7
  0
BLOCK
  5
   1AE
  8
0
  6
CONTINUOUS
 62
     7
  2
*UDIM553
 70
    65
 10
0.0
 20
0.0
 30
0.0
  3
*UDIM553
  0
TEXT
  5
   1AF
  8
0
  6
CONTINUOUS
 62
     7
 10
27.7032849639756
 20
-156.759554888048
 30
0.0
 40
3.00000005960463
  1
50
 50
449.999999896069
 41
0.933333333333334
 72
     1
 11
26.2032849386924
 21
-154.259554835666
 31
0.0
 73
     2
  0
LINE
  5
   1B0
  8
0
  6
CONTINUOUS
 62
     7
 10
-29.9157207068026
 20
-149.101365894079
 30
0.0
 11
30.7032849684947
 21
-149.101365894079
 31
0.0
  0
LINE
  5
   1B1
  8
0
  6
CONTINUOUS
 62
     7
 10
-29.9157207068026
 20
-159.101365298033
 30
0.0
 11
30.7032849684947
 21
-159.101365298033
 31
0.0
  0
LINE
  5
   1B2
  8
0
  6
CONTINUOUS
 62
     7
 10
28.7032849684947
 20
-149.101365894079
 30
0.0
 11
28.7032849684947
 21
-159.101365298033
 31
0.0
  0
LINE
  5
   1B3
  8
0
  6
CONTINUOUS
 62
     7
 10
28.182340538543
 20
-146.146942616872
 30
0.0
 11
28.7032849684947
 21
-149.101365894079
 31
0.0
  0
LINE
  5
   1B4
  8
0
  6
CONTINUOUS
 62
     7
 10
28.7032849684947
 20
-149.101365894079
 30
0.0
 11
29.2242293984464
 21
-146.146942616872
 31
0.0
  0
LINE
  5
   1B5
  8
0
  6
CONTINUOUS
 62
     7
 10
29.2242293984464
 20
-162.05578857524
 30
0.0
 11
28.7032849684947
 21
-159.101365298033
 31
0.0
  0
LINE
  5
   1B6
  8
0
  6
CONTINUOUS
 62
     7
 10
28.7032849684947
 20
-159.101365298033
 30
0.0
 11
28.182340538543
 21
-162.05578857524
 31
0.0
  0
ENDBLK
  5
   1B7
  8
0
  6
CONTINUOUS
 62
     7
  0
BLOCK
  5
   1B8
  8
0
  6
CONTINUOUS
 62
     7
  2
*UDIM554
 70
    65
 10
0.0
 20
0.0
 30
0.0
  3
*UDIM554
  0
TEXT
  5
   1B9
  8
0
  6
CONTINUOUS
 62
     7
 10
-6.44572422527409
 20
-185.806112177335
 30
0.0
 40
3.00000005960463
  1
70
 50
359.999999896069
 41
0.933333333333334
 72
     1
 11
-3.94572417289019
 21
-184.306112152055
 31
0.0
 73
     2
  0
LINE
  5
   1BA
  8
0
  6
CONTINUOUS
 62
     7
 10
3.32927525043488
 20
-186.806112181857
 30
0.0
 11
-10.6707239151001
 21
-186.806112181857
 31
0.0
  0
LINE
  5
   1BB
  8
0
  6
CONTINUOUS
 62
     7
 10
0.374851973227912
 20
-187.327056611809
 30
0.0
 11
3.32927525043488
 21
-186.806112181857
 31
0.0
  0
LINE
  5
   1BC
  8
0
  6
CONTINUOUS
 62
     7
 10
3.32927525043488
 20
-186.806112181857
 30
0.0
 11
0.374851973227912
 21
-186.285167751906
 31
0.0
  0
LINE
  5
   1BD
  8
0
  6
CONTINUOUS
 62
     7
 10
-7.71630063789313
 20
-186.285167751906
 30
0.0
 11
-10.6707239151001
 21
-186.806112181857
 31
0.0
  0
LINE
  5
   1BE
  8
0
  6
CONTINUOUS
 62
     7
 10
-10.6707239151001
 20
-186.806112181857
 30
0.0
 11
-7.71630063789313
 21
-187.327056611809
 31
0.0
  0
ENDBLK
  5
   1BF
  8
0
  6
CONTINUOUS
 62
     7
  0
BLOCK
  5
   1C0
  8
0
  6
CONTINUOUS
 62
     7
  2
*UDIM555
 70
    65
 10
0.0
 20
0.0
 30
0.0
  3
*UDIM555
  0
TEXT
  5
   1C1
  8
0
  6
CONTINUOUS
 62
     7
 10
-20.4457233908091
 20
-185.806112177335
 30
0.0
 40
3.00000005960463
  1
70
 50
359.999999896069
 41
0.933333333333334
 72
     1
 11
-17.9457233384252
 21
-184.306112152055
 31
0.0
 73
     2
  0
LINE
  5
   1C2
  8
0
  6
CONTINUOUS
 62
     7
 10
-10.6707239151001
 20
-186.806112181857
 30
0.0
 11
-24.6707230806351
 21
-186.806112181857
 31
0.0
  0
LINE
  5
   1C3
  8
0
  6
CONTINUOUS
 62
     7
 10
-13.6251471923071
 20
-187.327056611809
 30
0.0
 11
-10.6707239151001
 21
-186.806112181857
 31
0.0
  0
LINE
  5
   1C4
  8
0
  6
CONTINUOUS
 62
     7
 10
-10.6707239151001
 20
-186.806112181857
 30
0.0
 11
-13.6251471923071
 21
-186.285167751906
 31
0.0
  0
LINE
  5
   1C5
  8
0
  6
CONTINUOUS
 62
     7
 10
-21.7162998034281
 20
-186.285167751906
 30
0.0
 11
-24.6707230806351
 21
-186.806112181857
 31
0.0
  0
LINE
  5
   1C6
  8
0
  6
CONTINUOUS
 62
     7
 10
-24.6707230806351
 20
-186.806112181857
 30
0.0
 11
-21.7162998034281
 21
-187.327056611809
 31
0.0
  0
ENDBLK
  5
   1C7
  8
0
  6
CONTINUOUS
 62
     7
  0
BLOCK
  5
   1C8
  8
0
  6
CONTINUOUS
 62
     7
  2
*UDIM556
 70
    65
 10
0.0
 20
0.0
 30
0.0
  3
*UDIM556
  0
TEXT
  5
   1C9
  8
0
  6
CONTINUOUS
 62
     7
 10
-34.445722556344
 20
-185.806112177335
 30
0.0
 40
3.00000005960463
  1
70
 50
359.999999896069
 41
0.933333333333334
 72
     1
 11
-31.9457225039601
 21
-184.306112152055
 31
0.0
 73
     2
  0
LINE
  5
   1CA
  8
0
  6
CONTINUOUS
 62
     7
 10
-24.6707230806351
 20
-186.806112181857
 30
0.0
 11
-38.67072224617
 21
-186.806112181857
 31
0.0
  0
LINE
  5
   1CB
  8
0
  6
CONTINUOUS
 62
     7
 10
-27.625146357842
 20
-187.327056611809
 30
0.0
 11
-24.6707230806351
 21
-186.806112181857
 31
0.0
  0
LINE
  5
   1CC
  8
0
  6
CONTINUOUS
 62
     7
 10
-24.6707230806351
 20
-186.806112181857
 30
0.0
 11
-27.625146357842
 21
-186.285167751906
 31
0.0
  0
LINE
  5
   1CD
  8
0
  6
CONTINUOUS
 62
     7
 10
-35.7162989689631
 20
-186.285167751906
 30
0.0
 11
-38.67072224617
 21
-186.806112181857
 31
0.0
  0
LINE
  5
   1CE
  8
0
  6
CONTINUOUS
 62
     7
 10
-38.67072224617
 20
-186.806112181857
 30
0.0
 11
-35.7162989689631
 21
-187.327056611809
 31
0.0
  0
ENDBLK
  5
   1CF
  8
0
  6
CONTINUOUS
 62
     7
  0
BLOCK
  5
   1D0
  8
0
  6
CONTINUOUS
 62
     7
  2
*UDIM557
 70
    65
 10
0.0
 20
0.0
 30
0.0
  3
*UDIM557
  0
TEXT
  5
   1D1
  8
0
  6
CONTINUOUS
 62
     7
 10
-74.4856310667614
 20
-167.376364879041
 30
0.0
 40
3.00000005960463
  1
203
 50
449.999999896069
 41
0.933333333333334
 72
     1
 11
-75.9856310895138
 21
-163.476364798844
 31
0.0
 73
     2
  0
LINE
  5
   1D2
  8
0
  6
CONTINUOUS
 62
     7
 10
-24.9946707182239
 20
-147.801365971565
 30
0.0
 11
-75.4856310597115
 21
-147.801365971565
 31
0.0
  0
LINE
  5
   1D3
  8
0
  6
CONTINUOUS
 62
     7
 10
-46.5779014203002
 20
-178.601364135742
 30
0.0
 11
-75.4856310597115
 21
-178.601364135742
 31
0.0
  0
LINE
  5
   1D4
  8
0
  6
CONTINUOUS
 62
     7
 10
-73.4856310597115
 20
-147.801365971565
 30
0.0
 11
-73.4856310597115
 21
-178.601364135742
 31
0.0
  0
LINE
  5
   1D5
  8
0
  6
CONTINUOUS
 62
     7
 10
-72.9646866297599
 20
-150.755789248772
 30
0.0
 11
-73.4856310597115
 21
-147.801365971565
 31
0.0
  0
LINE
  5
   1D6
  8
0
  6
CONTINUOUS
 62
     7
 10
-73.4856310597115
 20
-147.801365971565
 30
0.0
 11
-74.0065754896632
 21
-150.755789248772
 31
0.0
  0
LINE
  5
   1D7
  8
0
  6
CONTINUOUS
 62
     7
 10
-74.0065754896632
 20
-175.646940858535
 30
0.0
 11
-73.4856310597115
 21
-178.601364135742
 31
0.0
  0
LINE
  5
   1D8
  8
0
  6
CONTINUOUS
 62
     7
 10
-73.4856310597115
 20
-178.601364135742
 30
0.0
 11
-72.9646866297599
 21
-175.646940858535
 31
0.0
  0
ENDBLK
  5
   1D9
  8
0
  6
CONTINUOUS
 62
     7
  0
BLOCK
  5
   1DA
  8
0
  6
CONTINUOUS
 62
     7
  2
*UDIM558
 70
    65
 10
0.0
 20
0.0
 30
0.0
  3
*UDIM558
  0
TEXT
  5
   1DB
  8
0
  6
CONTINUOUS
 62
     7
 10
-9.64079506151587
 20
-168.295261933221
 30
0.0
 40
3.00000005960463
  1
35
 50
359.999999896069
 41
0.933333333333334
 72
     1
 11
-7.14079500913197
 21
-166.795261907941
 31
0.0
 73
     2
  0
LINE
  5
   1DC
  8
0
  6
CONTINUOUS
 62
     7
 10
-3.67072433233261
 20
-169.295261937744
 30
0.0
 11
-10.6707239151001
 21
-169.295261937744
 31
0.0
  0
LINE
  5
   1DD
  8
0
  6
CONTINUOUS
 62
     7
 10
-0.716301055125648
 20
-168.774317507792
 30
0.0
 11
-3.67072433233261
 21
-169.295261937744
 31
0.0
  0
LINE
  5
   1DE
  8
0
  6
CONTINUOUS
 62
     7
 10
-3.67072433233261
 20
-169.295261937744
 30
0.0
 11
-0.716301055125648
 21
-169.816206367695
 31
0.0
  0
LINE
  5
   1DF
  8
0
  6
CONTINUOUS
 62
     7
 10
-13.6251471923071
 20
-169.816206367695
 30
0.0
 11
-10.6707239151001
 21
-169.295261937744
 31
0.0
  0
LINE
  5
   1E0
  8
0
  6
CONTINUOUS
 62
     7
 10
-10.6707239151001
 20
-169.295261937744
 30
0.0
 11
-13.6251471923071
 21
-168.774317507792
 31
0.0
  0
ENDBLK
  5
   1E1
  8
0
  6
CONTINUOUS
 62
     7
  0
BLOCK
  5
   1E2
  8
0
  6
CONTINUOUS
 62
     7
  2
*UDIM559
 70
    65
 10
0.0
 20
0.0
 30
0.0
  3
*UDIM559
  0
TEXT
  5
   1E3
  8
0
  6
CONTINUOUS
 62
     7
 10
-81.6337751719488
 20
-182.776363586183
 30
0.0
 40
3.00000005960463
  1
378
 50
449.999999896069
 41
0.933333333333334
 72
     1
 11
-83.1337751947012
 21
-178.876363505985
 31
0.0
 73
     2
  0
LINE
  5
   1E4
  8
0
  6
CONTINUOUS
 62
     7
 10
-24.9946707182238
 20
-147.801365657649
 30
0.0
 11
-82.6337751648988
 21
-147.801347563784
 31
0.0
  0
LINE
  5
   1E5
  8
0
  6
CONTINUOUS
 62
     7
 10
-26.6684040127872
 20
-209.401361986003
 30
0.0
 11
-82.6337751648988
 21
-209.401344417551
 31
0.0
  0
LINE
  5
   1E6
  8
0
  6
CONTINUOUS
 62
     7
 10
-80.6337751648989
 20
-147.801348191617
 30
0.0
 11
-80.6337751648989
 21
-209.401345045384
 31
0.0
  0
LINE
  5
   1E7
  8
0
  6
CONTINUOUS
 62
     7
 10
-80.1128307349472
 20
-150.755771468824
 30
0.0
 11
-80.6337751648989
 21
-147.801348191617
 31
0.0
  0
LINE
  5
   1E8
  8
0
  6
CONTINUOUS
 62
     7
 10
-80.6337751648989
 20
-147.801348191617
 30
0.0
 11
-81.1547195948506
 21
-150.755771468824
 31
0.0
  0
LINE
  5
   1E9
  8
0
  6
CONTINUOUS
 62
     7
 10
-81.1547195948506
 20
-206.446921768177
 30
0.0
 11
-80.6337751648989
 21
-209.401345045384
 31
0.0
  0
LINE
  5
   1EA
  8
0
  6
CONTINUOUS
 62
     7
 10
-80.6337751648989
 20
-209.401345045384
 30
0.0
 11
-80.1128307349472
 21
-206.446921768177
 31
0.0
  0
ENDBLK
  5
   1EB
  8
0
  6
CONTINUOUS
 62
     7
  0
BLOCK
  5
   1EC
  8
0
  6
CONTINUOUS
 62
     7
  2
*UDIM560
 70
    65
 10
0.0
 20
0.0
 30
0.0
  3
*UDIM560
  0
TEXT
  5
   1ED
  8
0
  6
CONTINUOUS
 62
     7
 10
21.8928344049799
 20
-194.396247456763
 30
0.0
 40
3.00000005960463
  1
5,5
 50
388.478485351186
 41
0.933333333333334
 72
     1
 11
24.6056766401773
 21
-191.218121011713
 31
0.0
 73
     2
  0
TEXT
  5
   1EE
  8
0
  6
CONTINUOUS
 62
     7
 10
19.1239962749658
 20
-195.89825797938
 30
0.0
 40
3.00000005960463
  1
Ø
 50
388.478485351186
 41
0.933333333333334
 72
     1
 11
19.3756490326394
 21
-194.055252003523
 31
0.0
 73
     2
  0
TEXT
  5
   1EF
  8
0
  6
CONTINUOUS
 62
     7
 10
29.2324530167107
 20
-190.414727467934
 30
0.0
 40
3.00000005960463
  1
 - M5
 50
388.478485351186
 41
0.933333333333333
 72
     1
 11
34.406484729432
 21
-185.90148055369
 31
0.0
 73
     2
  0
LINE
  5
   1F0
  8
0
  6
CONTINUOUS
 62
     7
 10
41.4878313868667
 20
-184.904218577067
 30
0.0
 11
-4.15417222652237
 21
-209.6636180864
 31
0.0
  0
LINE
  5
   1F1
  8
0
  6
CONTINUOUS
 62
     7
 10
-0.838750805939556
 20
-207.272444424338
 30
0.0
 11
-3.18727643814285
 21
-209.139106513438
 31
0.0
  0
LINE
  5
   1F2
  8
0
  6
CONTINUOUS
 62
     7
 10
-3.18727643814285
 20
-209.139106513438
 30
0.0
 11
-0.34194826291044
 21
-208.188260797652
 31
0.0
  0
LINE
  5
   1F3
  8
0
  6
CONTINUOUS
 62
     7
 10
-6.50269785872567
 20
-211.5302801755
 30
0.0
 11
-4.15417222652237
 21
-209.6636180864
 31
0.0
  0
LINE
  5
   1F4
  8
0
  6
CONTINUOUS
 62
     7
 10
-4.15417222652237
 20
-209.6636180864
 30
0.0
 11
-6.99950040175478
 21
-210.614463802186
 31
0.0
  0
ENDBLK
  5
   1F5
  8
0
  6
CONTINUOUS
 62
     7
  0
BLOCK
  5
   1F6
  8
0
  6
CONTINUOUS
 62
     7
  2
*UDIM561
 70
    65
 10
0.0
 20
0.0
 30
0.0
  3
*UDIM561
  0
TEXT
  5
   1F7
  8
0
  6
CONTINUOUS
 62
     7
 10
-21.8457233232571
 20
-192.461116660946
 30
0.0
 40
3.00000005960463
  1
140
 50
359.999999896069
 41
0.933333333333334
 72
     1
 11
-17.9457232430577
 21
-190.961116638198
 31
0.0
 73
     2
  0
LINE
  5
   1F8
  8
0
  6
CONTINUOUS
 62
     7
 10
-3.67072433233261
 20
-193.461116668001
 30
0.0
 11
-31.6707226634026
 21
-193.461116668001
 31
0.0
  0
LINE
  5
   1F9
  8
0
  6
CONTINUOUS
 62
     7
 10
-6.62514760953958
 20
-193.982061097952
 30
0.0
 11
-3.67072433233261
 21
-193.461116668001
 31
0.0
  0
LINE
  5
   1FA
  8
0
  6
CONTINUOUS
 62
     7
 10
-3.67072433233261
 20
-193.461116668001
 30
0.0
 11
-6.62514760953958
 21
-192.940172238049
 31
0.0
  0
LINE
  5
   1FB
  8
0
  6
CONTINUOUS
 62
     7
 10
-28.7162993861956
 20
-192.940172238049
 30
0.0
 11
-31.6707226634026
 21
-193.461116668001
 31
0.0
  0
LINE
  5
   1FC
  8
0
  6
CONTINUOUS
 62
     7
 10
-31.6707226634026
 20
-193.461116668001
 30
0.0
 11
-28.7162993861956
 21
-193.982061097952
 31
0.0
  0
ENDBLK
  5
   1FD
  8
0
  6
CONTINUOUS
 62
     7
  0
BLOCK
  5
   1FE
  8
0
  6
CONTINUOUS
 62
     7
  2
*UDIM562
 70
    65
 10
0.0
 20
0.0
 30
0.0
  3
*UDIM562
  0
TEXT
  5
   1FF
  8
0
  6
CONTINUOUS
 62
     7
 10
241.412234448293
 20
-34.5478029145179
 30
0.0
 40
3.00000002980232
  1
147
 50
359.999999844103
 41
0.933333333333333
 72
     1
 11
245.31223449111
 21
-33.0478029102087
 31
0.0
 73
     2
  0
LINE
  5
   200
  8
0
  6
CONTINUOUS
 62
     7
 10
227.21223449707
 20
-21.3678407669067
 30
0.0
 11
227.21223449707
 21
-37.5478029251099
 31
0.0
  0
LINE
  5
   201
  8
0
  6
CONTINUOUS
 62
     7
 10
263.96223449707
 20
-21.3678407669067
 30
0.0
 11
263.96223449707
 21
-37.5478029251099
 31
0.0
  0
LINE
  5
   202
  8
0
  6
CONTINUOUS
 62
     7
 10
227.21223449707
 20
-35.5478029251099
 30
0.0
 11
263.96223449707
 21
-35.5478029251099
 31
0.0
  0
LINE
  5
   203
  8
0
  6
CONTINUOUS
 62
     7
 10
230.166657774277
 20
-35.0268584951582
 30
0.0
 11
227.21223449707
 21
-35.5478029251099
 31
0.0
  0
LINE
  5
   204
  8
0
  6
CONTINUOUS
 62
     7
 10
227.21223449707
 20
-35.5478029251099
 30
0.0
 11
230.166657774277
 21
-36.0687473550615
 31
0.0
  0
LINE
  5
   205
  8
0
  6
CONTINUOUS
 62
     7
 10
261.007811219863
 20
-36.0687473550615
 30
0.0
 11
263.96223449707
 21
-35.5478029251099
 31
0.0
  0
LINE
  5
   206
  8
0
  6
CONTINUOUS
 62
     7
 10
263.96223449707
 20
-35.5478029251099
 30
0.0
 11
261.007811219863
 21
-35.0268584951582
 31
0.0
  0
ENDBLK
  5
   207
  8
0
  6
CONTINUOUS
 62
     7
  0
BLOCK
  5
   208
  8
0
  6
CONTINUOUS
 62
     7
  2
*UDIM563
 70
    65
 10
0.0
 20
0.0
 30
0.0
  3
*UDIM563
  0
TEXT
  5
   209
  8
0
  6
CONTINUOUS
 62
     7
 10
241.412234448293
 20
20.6901846037926
 30
0.0
 40
3.00000002980232
  1
115
 50
359.999999844103
 41
0.933333333333333
 72
     1
 11
245.31223449111
 21
22.1901846081018
 31
0.0
 73
     2
  0
LINE
  5
   20A
  8
0
  6
CONTINUOUS
 62
     7
 10
231.21223449707
 20
14.5071592330933
 30
0.0
 11
231.21223449707
 21
21.6901845932007
 31
0.0
  0
LINE
  5
   20B
  8
0
  6
CONTINUOUS
 62
     7
 10
259.96223449707
 20
14.5071592330933
 30
0.0
 11
259.96223449707
 21
21.6901845932007
 31
0.0
  0
LINE
  5
   20C
  8
0
  6
CONTINUOUS
 62
     7
 10
231.21223449707
 20
19.6901845932007
 30
0.0
 11
259.96223449707
 21
19.6901845932007
 31
0.0
  0
LINE
  5
   20D
  8
0
  6
CONTINUOUS
 62
     7
 10
234.166657774277
 20
20.2111290231523
 30
0.0
 11
231.21223449707
 21
19.6901845932007
 31
0.0
  0
LINE
  5
   20E
  8
0
  6
CONTINUOUS
 62
     7
 10
231.21223449707
 20
19.6901845932007
 30
0.0
 11
234.166657774277
 21
19.169240163249
 31
0.0
  0
LINE
  5
   20F
  8
0
  6
CONTINUOUS
 62
     7
 10
257.007811219863
 20
19.169240163249
 30
0.0
 11
259.96223449707
 21
19.6901845932007
 31
0.0
  0
LINE
  5
   210
  8
0
  6
CONTINUOUS
 62
     7
 10
259.96223449707
 20
19.6901845932007
 30
0.0
 11
257.007811219863
 21
20.2111290231523
 31
0.0
  0
ENDBLK
  5
   211
  8
0
  6
CONTINUOUS
 62
     7
  0
BLOCK
  5
   212
  8
0
  6
CONTINUOUS
 62
     7
  2
*UDIM564
 70
    65
 10
0.0
 20
0.0
 30
0.0
  3
*UDIM564
  0
TEXT
  5
   213
  8
0
  6
CONTINUOUS
 62
     7
 10
204.183315266513
 20
-10.5428408156822
 30
0.0
 40
3.00000002980232
  1
142
 50
449.999999844103
 41
0.933333333333333
 72
     1
 11
202.683315262198
 21
-6.6428407728672
 31
0.0
 73
     2
  0
LINE
  5
   214
  8
0
  6
CONTINUOUS
 62
     7
 10
228.08723449707
 20
11.3821592330933
 30
0.0
 11
203.1833152771
 21
11.3821592330933
 31
0.0
  0
LINE
  5
   215
  8
0
  6
CONTINUOUS
 62
     7
 10
228.08723449707
 20
-24.1178407669067
 30
0.0
 11
203.1833152771
 21
-24.1178407669067
 31
0.0
  0
LINE
  5
   216
  8
0
  6
CONTINUOUS
 62
     7
 10
205.1833152771
 20
11.3821592330933
 30
0.0
 11
205.1833152771
 21
-24.1178407669067
 31
0.0
  0
LINE
  5
   217
  8
0
  6
CONTINUOUS
 62
     7
 10
205.704259707051
 20
8.4277359558863
 30
0.0
 11
205.1833152771
 21
11.3821592330933
 31
0.0
  0
LINE
  5
   218
  8
0
  6
CONTINUOUS
 62
     7
 10
205.1833152771
 20
11.3821592330933
 30
0.0
 11
204.662370847148
 21
8.4277359558863
 31
0.0
  0
LINE
  5
   219
  8
0
  6
CONTINUOUS
 62
     7
 10
204.662370847148
 20
-21.1634174896998
 30
0.0
 11
205.1833152771
 21
-24.1178407669067
 31
0.0
  0
LINE
  5
   21A
  8
0
  6
CONTINUOUS
 62
     7
 10
205.1833152771
 20
-24.1178407669067
 30
0.0
 11
205.704259707051
 21
-21.1634174896998
 31
0.0
  0
ENDBLK
  5
   21B
  8
0
  6
CONTINUOUS
 62
     7
  0
BLOCK
  5
   21C
  8
0
  6
CONTINUOUS
 62
     7
  2
*UDIM565
 70
    65
 10
0.0
 20
0.0
 30
0.0
  3
*UDIM565
  0
TEXT
  5
   21D
  8
0
  6
CONTINUOUS
 62
     7
 10
214.196783055209
 20
-10.5428408156822
 30
0.0
 40
3.00000002980232
  1
112
 50
449.999999844103
 41
0.933333333333333
 72
     1
 11
212.696783050895
 21
-6.6428407728672
 31
0.0
 73
     2
  0
LINE
  5
   21E
  8
0
  6
CONTINUOUS
 62
     7
 10
226.21223449707
 20
7.63215923309326
 30
0.0
 11
213.196783065796
 21
7.63215923309326
 31
0.0
  0
LINE
  5
   21F
  8
0
  6
CONTINUOUS
 62
     7
 10
226.21223449707
 20
-20.3678407669067
 30
0.0
 11
213.196783065796
 21
-20.3678407669067
 31
0.0
  0
LINE
  5
   220
  8
0
  6
CONTINUOUS
 62
     7
 10
215.196783065796
 20
7.63215923309326
 30
0.0
 11
215.196783065796
 21
-20.3678407669067
 31
0.0
  0
LINE
  5
   221
  8
0
  6
CONTINUOUS
 62
     7
 10
215.717727495748
 20
4.6777359558863
 30
0.0
 11
215.196783065796
 21
7.63215923309326
 31
0.0
  0
LINE
  5
   222
  8
0
  6
CONTINUOUS
 62
     7
 10
215.196783065796
 20
7.63215923309326
 30
0.0
 11
214.675838635844
 21
4.6777359558863
 31
0.0
  0
LINE
  5
   223
  8
0
  6
CONTINUOUS
 62
     7
 10
214.675838635844
 20
-17.4134174896998
 30
0.0
 11
215.196783065796
 21
-20.3678407669067
 31
0.0
  0
LINE
  5
   224
  8
0
  6
CONTINUOUS
 62
     7
 10
215.196783065796
 20
-20.3678407669067
 30
0.0
 11
215.717727495748
 21
-17.4134174896998
 31
0.0
  0
ENDBLK
  5
   225
  8
0
  6
CONTINUOUS
 62
     7
  0
BLOCK
  5
   226
  8
0
  6
CONTINUOUS
 62
     7
  2
*UDIM566
 70
    65
 10
0.0
 20
0.0
 30
0.0
  3
*UDIM566
  0
TEXT
  5
   227
  8
0
  6
CONTINUOUS
 62
     7
 10
271.876990660623
 20
24.6532896125463
 30
0.0
 40
3.00000002980232
  1
7
 50
404.868411918951
 41
0.933333333333334
 72
     1
 11
271.598371018553
 21
26.4924120021106
 31
0.0
 73
     2
  0
TEXT
  5
   228
  8
0
  6
CONTINUOUS
 62
     7
 10
269.644494661298
 20
22.4310246248409
 30
0.0
 40
3.00000002980232
  1
Ø
 50
404.868411918951
 41
0.933333333333334
 72
     1
 11
269.365875019228
 21
24.2701470144052
 31
0.0
 73
     2
  0
LINE
  5
   229
  8
0
  6
CONTINUOUS
 62
     7
 10
274.141675177527
 20
25.4966188240383
 30
0.0
 11
259.342096721436
 21
10.7648634051219
 31
0.0
  0
LINE
  5
   22A
  8
0
  6
CONTINUOUS
 62
     7
 10
262.308741022644
 20
14.4529527560372
 30
0.0
 11
260.582372272705
 21
11.9994550610647
 31
0.0
  0
LINE
  5
   22B
  8
0
  6
CONTINUOUS
 62
     7
 10
260.582372272705
 20
11.9994550610647
 30
0.0
 11
263.043773761419
 21
13.7145360245641
 31
0.0
  0
LINE
  5
   22C
  8
0
  6
CONTINUOUS
 62
     7
 10
257.615727971497
 20
8.31136571014933
 30
0.0
 11
259.342096721436
 21
10.7648634051219
 31
0.0
  0
LINE
  5
   22D
  8
0
  6
CONTINUOUS
 62
     7
 10
259.342096721436
 20
10.7648634051219
 30
0.0
 11
256.880695232722
 21
9.04978244162244
 31
0.0
  0
ENDBLK
  5
   22E
  8
0
  6
CONTINUOUS
 62
     7
  0
ENDSEC
  0
SECTION
  2
ENTITIES
  0
LINE
  5
   22F
  8
0
  6
CONTINUOUS
 62
   130
 10
-34.8207010388396
 20
-63.9004569977533
 30
0.0
 11
-34.8207010388396
 21
-63.5504570335161
 31
0.0
  0
LINE
  5
   230
  8
0
  6
CONTINUOUS
 62
   130
 10
-35.0426660638765
 20
-63.9004569977533
 30
0.0
 11
-35.1707330465306
 21
-63.9004569977533
 31
0.0
  0
LINE
  5
   231
  8
0
  6
CONTINUOUS
 62
   130
 10
-34.8207010388396
 20
-63.9004569977533
 30
0.0
 11
-35.0426660430148
 21
-63.9004569977533
 31
0.0
  0
LINE
  5
   232
  8
0
  6
CONTINUOUS
 62
   130
 10
-34.8207010388396
 20
-63.5504570335161
 30
0.0
 11
-35.1707330465306
 21
-63.5504570335161
 31
0.0
  0
LINE
  5
   233
  8
0
  6
CONTINUOUS
 62
   130
 10
13.4792513012908
 20
-63.9004623383289
 30
0.0
 11
13.4792513012908
 21
-63.5504623740917
 31
0.0
  0
LINE
  5
   234
  8
0
  6
CONTINUOUS
 62
   130
 10
13.8292833089818
 20
-63.9004623383289
 30
0.0
 11
13.4792513012908
 21
-63.9004623383289
 31
0.0
  0
LINE
  5
   235
  8
0
  6
CONTINUOUS
 62
   130
 10
13.8292833089818
 20
-63.5504623740917
 30
0.0
 11
13.7012056243148
 21
-63.5504623740917
 31
0.0
  0
LINE
  5
   236
  8
0
  6
CONTINUOUS
 62
   130
 10
13.7012056243148
 20
-63.5504623740917
 30
0.0
 11
13.4792513012908
 21
-63.5504623740917
 31
0.0
  0
LINE
  5
   237
  8
0
  6
CONTINUOUS
 62
     1
 10
13.4792520462636
 20
-64.6004649370909
 30
0.0
 11
-3.32072561979294
 21
-64.6004630795002
 31
0.0
  0
LINE
  5
   238
  8
0
  6
CONTINUOUS
 62
   130
 10
-34.8207010388396
 20
-57.2504576772462
 30
0.0
 11
-34.8207010388396
 21
-56.900457713009
 31
0.0
  0
LINE
  5
   239
  8
0
  6
CONTINUOUS
 62
   130
 10
-35.0426660638765
 20
-57.2504576772462
 30
0.0
 11
-35.1707330465306
 21
-57.2504576772462
 31
0.0
  0
LINE
  5
   23A
  8
0
  6
CONTINUOUS
 62
   130
 10
-34.8207010388396
 20
-57.2504576772462
 30
0.0
 11
-35.0426660430148
 21
-57.2504576772462
 31
0.0
  0
LINE
  5
   23B
  8
0
  6
CONTINUOUS
 62
   130
 10
-34.8207010388396
 20
-56.900457713009
 30
0.0
 11
-35.1707330465306
 21
-56.900457713009
 31
0.0
  0
LINE
  5
   23C
  8
0
  6
CONTINUOUS
 62
   130
 10
13.4792513012908
 20
-57.2504683583975
 30
0.0
 11
13.4792513012908
 21
-56.9004683941603
 31
0.0
  0
LINE
  5
   23D
  8
0
  6
CONTINUOUS
 62
   130
 10
13.8292726278305
 20
-57.2504683583975
 30
0.0
 11
13.4792513012908
 21
-57.2504683583975
 31
0.0
  0
LINE
  5
   23E
  8
0
  6
CONTINUOUS
 62
   130
 10
13.8292726278305
 20
-56.9004683941603
 30
0.0
 11
13.4792513012908
 21
-56.9004683941603
 31
0.0
  0
LINE
  5
   23F
  8
0
  6
CONTINUOUS
 62
     1
 10
13.4792513012908
 20
-57.9504682868719
 30
0.0
 11
-3.32072561979294
 21
-57.9504682868719
 31
0.0
  0
LINE
  5
   240
  8
0
  6
CONTINUOUS
 62
     1
 10
-18.020715606209
 20
-57.9504689544423
 30
0.0
 11
-34.8206978678684
 21
-57.9504582732913
 31
0.0
  0
LINE
  5
   241
  8
0
  6
CONTINUOUS
 62
   130
 10
-34.8207117199909
 20
-41.6754699498415
 30
0.0
 11
-34.8207117199909
 21
-41.3254699856043
 31
0.0
  0
LINE
  5
   242
  8
0
  6
CONTINUOUS
 62
   130
 10
-35.0426660638765
 20
-41.6754699498415
 30
0.0
 11
-35.1707223653793
 21
-41.6754699498415
 31
0.0
  0
LINE
  5
   243
  8
0
  6
CONTINUOUS
 62
   130
 10
-34.8207117199909
 20
-41.6754699498415
 30
0.0
 11
-35.0426607024392
 21
-41.6754699498415
 31
0.0
  0
LINE
  5
   244
  8
0
  6
CONTINUOUS
 62
   130
 10
-34.8207117199909
 20
-41.3254699856043
 30
0.0
 11
-35.0426607024392
 21
-41.3254699856043
 31
0.0
  0
LINE
  5
   245
  8
0
  6
CONTINUOUS
 62
   130
 10
-35.0426607024392
 20
-41.3254699856043
 30
0.0
 11
-35.1707223653793
 21
-41.3254699856043
 31
0.0
  0
LINE
  5
   246
  8
0
  6
CONTINUOUS
 62
   130
 10
13.479261982442
 20
-41.6754592686902
 30
0.0
 11
13.479261982442
 21
-41.325459304453
 31
0.0
  0
LINE
  5
   247
  8
0
  6
CONTINUOUS
 62
   130
 10
13.7012002837391
 20
-41.6754592686902
 30
0.0
 11
13.479261982442
 21
-41.6754592686902
 31
0.0
  0
LINE
  5
   248
  8
0
  6
CONTINUOUS
 62
   130
 10
13.8292726069689
 20
-41.6754592686902
 30
0.0
 11
13.7012002837391
 21
-41.6754592686902
 31
0.0
  0
LINE
  5
   249
  8
0
  6
CONTINUOUS
 62
   130
 10
13.8292726278305
 20
-41.325459304453
 30
0.0
 11
13.7012056451764
 21
-41.325459304453
 31
0.0
  0
LINE
  5
   24A
  8
0
  6
CONTINUOUS
 62
   130
 10
13.7012002837391
 20
-41.325459304453
 30
0.0
 11
13.479261982442
 21
-41.325459304453
 31
0.0
  0
LINE
  5
   24B
  8
0
  6
CONTINUOUS
 62
     1
 10
13.479261982442
 20
-42.3754591971647
 30
0.0
 11
-3.32072561979294
 21
-42.3754591971647
 31
0.0
  0
LINE
  5
   24C
  8
0
  6
CONTINUOUS
 62
     1
 10
-34.8207087715604
 20
-42.3754745513097
 30
0.0
 11
-18.0207158287497
 21
-42.3754638701586
 31
0.0
  0
LINE
  5
   24D
  8
0
  6
CONTINUOUS
 62
   130
 10
-34.8207117199909
 20
-35.0254706293344
 30
0.0
 11
-34.8207117199909
 21
-34.6754706650972
 31
0.0
  0
LINE
  5
   24E
  8
0
  6
CONTINUOUS
 62
   130
 10
-34.8207117199909
 20
-35.0254706293344
 30
0.0
 11
-35.1707330465306
 21
-35.0254706293344
 31
0.0
  0
LINE
  5
   24F
  8
0
  6
CONTINUOUS
 62
   130
 10
-34.8207117199909
 20
-34.6754706650972
 30
0.0
 11
-35.1707330465306
 21
-34.6754706650972
 31
0.0
  0
LINE
  5
   250
  8
0
  6
CONTINUOUS
 62
   130
 10
13.479261982442
 20
-35.0254599481832
 30
0.0
 11
13.479261982442
 21
-34.675459983946
 31
0.0
  0
LINE
  5
   251
  8
0
  6
CONTINUOUS
 62
   130
 10
13.7012109648904
 20
-35.0254599481832
 30
0.0
 11
13.479261982442
 21
-35.0254599481832
 31
0.0
  0
LINE
  5
   252
  8
0
  6
CONTINUOUS
 62
   130
 10
13.8292726278305
 20
-35.0254599481832
 30
0.0
 11
13.7012109648904
 21
-35.0254599481832
 31
0.0
  0
LINE
  5
   253
  8
0
  6
CONTINUOUS
 62
   130
 10
13.8292726278305
 20
-34.675459983946
 30
0.0
 11
13.479261982442
 21
-34.675459983946
 31
0.0
  0
LINE
  5
   254
  8
0
  6
CONTINUOUS
 62
     1
 10
-34.820708914259
 20
-35.7254705578079
 30
0.0
 11
13.4792594475982
 21
-35.7254598766568
 31
0.0
  0
LINE
  5
   255
  8
0
  6
CONTINUOUS
 62
     1
 10
24.9831887724399
 20
-74.6629659196335
 30
0.0
 11
25.6417458340552
 21
-74.6629635831319
 31
0.0
  0
LINE
  5
   256
  8
0
  6
CONTINUOUS
 62
     1
 10
26.079270588581
 20
-0.987974107265472
 30
0.0
 11
-71.9207178227348
 21
-0.987974107265472
 31
0.0
  0
LINE
  5
   257
  8
0
  6
CONTINUOUS
 62
     1
 10
24.983187656343
 20
-74.6629662454129
 30
0.0
 11
15.9292724132538
 21
-74.6629662454129
 31
0.0
  0
LINE
  5
   258
  8
0
  6
CONTINUOUS
 62
     1
 10
25.9917607039224
 20
-74.3129662811756
 30
0.0
 11
15.9292724132538
 21
-74.3129662811756
 31
0.0
  0
LINE
  5
   259
  8
0
  6
CONTINUOUS
 62
     1
 10
-37.2707221508026
 20
-29.5129925549008
 30
0.0
 11
-71.9207138111481
 21
-29.5129925549008
 31
0.0
  0
LINE
  5
   25A
  8
0
  6
CONTINUOUS
 62
     1
 10
25.9917607039224
 20
-29.5129925549008
 30
0.0
 11
15.9292724132538
 21
-29.5129925549008
 31
0.0
  0
LINE
  5
   25B
  8
0
  6
CONTINUOUS
 62
     1
 10
25.9917607039224
 20
-66.2629731118673
 30
0.0
 11
15.9292724132538
 21
-66.2629731118673
 31
0.0
  0
LINE
  5
   25C
  8
0
  6
CONTINUOUS
 62
     1
 10
-37.2707221508026
 20
-66.2629731118673
 30
0.0
 11
-71.9207086428524
 21
-66.2629731118673
 31
0.0
  0
LINE
  5
   25D
  8
0
  6
CONTINUOUS
 62
     1
 10
-46.6682126456508
 20
-29.5129925549008
 30
0.0
 11
-46.6682126456508
 21
-0.987979447841099
 31
0.0
  0
LINE
  5
   25E
  8
0
  6
CONTINUOUS
 62
     1
 10
-45.4081999570153
 20
-29.5129925549008
 30
0.0
 11
-45.4081999570153
 21
-0.987979447841099
 31
0.0
  0
LINE
  5
   25F
  8
0
  6
CONTINUOUS
 62
     1
 10
-44.1482086306824
 20
-29.5129925549008
 30
0.0
 11
-44.1482086306824
 21
-0.987979447841099
 31
0.0
  0
LINE
  5
   260
  8
0
  6
CONTINUOUS
 62
     1
 10
-42.8882173043494
 20
-29.5129925549008
 30
0.0
 11
-42.8882173043494
 21
-0.987979447841099
 31
0.0
  0
LINE
  5
   261
  8
0
  6
CONTINUOUS
 62
     1
 10
-41.6282046157139
 20
-29.5129925549008
 30
0.0
 11
-41.6282046157139
 21
-0.987979447841099
 31
0.0
  0
LINE
  5
   262
  8
0
  6
CONTINUOUS
 62
     1
 10
-40.368213289381
 20
-29.5129925549008
 30
0.0
 11
-40.368213289381
 21
-0.987979447841099
 31
0.0
  0
LINE
  5
   263
  8
0
  6
CONTINUOUS
 62
     1
 10
-39.1082006007455
 20
-29.5129925549008
 30
0.0
 11
-39.1082006007455
 21
-0.987979447841099
 31
0.0
  0
LINE
  5
   264
  8
0
  6
CONTINUOUS
 62
     1
 10
-37.8482092744125
 20
-29.5129925549008
 30
0.0
 11
-37.8482092744125
 21
-0.987979447841099
 31
0.0
  0
LINE
  5
   265
  8
0
  6
CONTINUOUS
 62
     1
 10
-36.5882179480795
 20
-19.7129942238308
 30
0.0
 11
-36.5882179480795
 21
-0.987979447841099
 31
0.0
  0
LINE
  5
   266
  8
0
  6
CONTINUOUS
 62
     1
 10
-35.3282052594441
 20
-19.7129942238308
 30
0.0
 11
-35.3282052594441
 21
-0.987979447841099
 31
0.0
  0
LINE
  5
   267
  8
0
  6
CONTINUOUS
 62
     1
 10
-46.6682126456508
 20
-66.2629620969301
 30
0.0
 11
-46.6682126456508
 21
-29.5129925549008
 31
0.0
  0
LINE
  5
   268
  8
0
  6
CONTINUOUS
 62
     1
 10
-45.4081999570153
 20
-66.2629620969301
 30
0.0
 11
-45.4081999570153
 21
-29.5129925549008
 31
0.0
  0
LINE
  5
   269
  8
0
  6
CONTINUOUS
 62
     1
 10
-44.1482086306824
 20
-66.2629620969301
 30
0.0
 11
-44.1482086306824
 21
-29.5129925549008
 31
0.0
  0
LINE
  5
   26A
  8
0
  6
CONTINUOUS
 62
     1
 10
-42.8882173043494
 20
-66.2629620969301
 30
0.0
 11
-42.8882173043494
 21
-29.5129925549008
 31
0.0
  0
LINE
  5
   26B
  8
0
  6
CONTINUOUS
 62
     1
 10
-41.6282046157139
 20
-66.2629620969301
 30
0.0
 11
-41.6282046157139
 21
-29.5129925549008
 31
0.0
  0
LINE
  5
   26C
  8
0
  6
CONTINUOUS
 62
     1
 10
-40.368213289381
 20
-66.2629620969301
 30
0.0
 11
-40.368213289381
 21
-29.5129925549008
 31
0.0
  0
LINE
  5
   26D
  8
0
  6
CONTINUOUS
 62
     1
 10
-39.1082006007455
 20
-66.2629620969301
 30
0.0
 11
-39.1082006007455
 21
-29.5129925549008
 31
0.0
  0
LINE
  5
   26E
  8
0
  6
CONTINUOUS
 62
     1
 10
-37.8482092744125
 20
-66.2629620969301
 30
0.0
 11
-37.8482092744125
 21
-29.5129925549008
 31
0.0
  0
LINE
  5
   26F
  8
0
  6
CONTINUOUS
 62
     1
 10
-35.3282052594441
 20
-66.2629620969301
 30
0.0
 11
-35.3282052594441
 21
-29.5129925549008
 31
0.0
  0
LINE
  5
   270
  8
0
  6
CONTINUOUS
 62
     2
 10
-46.6682126456508
 20
-116.488118812247
 30
0.0
 11
-46.6682126456508
 21
-89.0129602926967
 31
0.0
  0
LINE
  5
   271
  8
0
  6
CONTINUOUS
 62
     2
 10
-45.4081999570153
 20
-116.48811692575
 30
0.0
 11
-45.4081999570153
 21
-89.0129602926967
 31
0.0
  0
LINE
  5
   272
  8
0
  6
CONTINUOUS
 62
     2
 10
-44.1482086306824
 20
-116.488115039285
 30
0.0
 11
-44.1482086306824
 21
-89.0129602926967
 31
0.0
  0
LINE
  5
   273
  8
0
  6
CONTINUOUS
 62
     2
 10
-42.8882173043494
 20
-116.488113152819
 30
0.0
 11
-42.8882173043494
 21
-89.0129602926967
 31
0.0
  0
LINE
  5
   274
  8
0
  6
CONTINUOUS
 62
     2
 10
-41.6282046157139
 20
-116.488111266322
 30
0.0
 11
-41.6282046157139
 21
-89.0129602926967
 31
0.0
  0
LINE
  5
   275
  8
0
  6
CONTINUOUS
 62
     2
 10
-40.368213289381
 20
-116.488109379857
 30
0.0
 11
-40.368213289381
 21
-89.0129602926967
 31
0.0
  0
LINE
  5
   276
  8
0
  6
CONTINUOUS
 62
     2
 10
-39.1082006007455
 20
-116.488107493359
 30
0.0
 11
-39.1082006007455
 21
-89.0129602926967
 31
0.0
  0
LINE
  5
   277
  8
0
  6
CONTINUOUS
 62
     2
 10
-37.8482092744125
 20
-116.488105606894
 30
0.0
 11
-37.8482092744125
 21
-89.0129602926967
 31
0.0
  0
LINE
  5
   278
  8
0
  6
CONTINUOUS
 62
     2
 10
-36.5882179480795
 20
-116.488103720429
 30
0.0
 11
-36.5882179480795
 21
-89.0129602926967
 31
0.0
  0
LINE
  5
   279
  8
0
  6
CONTINUOUS
 62
     2
 10
-35.3282052594441
 20
-88.4879624962809
 30
0.0
 11
-35.3282052594441
 21
-76.0629871308782
 31
0.0
  0
LINE
  5
   27A
  8
0
  6
CONTINUOUS
 62
     1
 10
25.326762908102
 20
-29.5129925549008
 30
0.0
 11
25.326762908102
 21
-0.987979447841099
 31
0.0
  0
LINE
  5
   27B
  8
0
  6
CONTINUOUS
 62
     1
 10
24.0667502194665
 20
-29.5129925549008
 30
0.0
 11
24.0667502194665
 21
-0.987979447841099
 31
0.0
  0
LINE
  5
   27C
  8
0
  6
CONTINUOUS
 62
     1
 10
22.8067588931335
 20
-29.5129925549008
 30
0.0
 11
22.8067588931335
 21
-0.987979447841099
 31
0.0
  0
LINE
  5
   27D
  8
0
  6
CONTINUOUS
 62
     1
 10
21.5467675668006
 20
-29.5129925549008
 30
0.0
 11
21.5467675668006
 21
-0.987979447841099
 31
0.0
  0
LINE
  5
   27E
  8
0
  6
CONTINUOUS
 62
     1
 10
20.2867548781651
 20
-29.5129925549008
 30
0.0
 11
20.2867548781651
 21
-0.987979447841099
 31
0.0
  0
LINE
  5
   27F
  8
0
  6
CONTINUOUS
 62
     1
 10
19.0267635518321
 20
-29.5129925549008
 30
0.0
 11
19.0267635518321
 21
-0.987979447841099
 31
0.0
  0
LINE
  5
   280
  8
0
  6
CONTINUOUS
 62
     1
 10
17.7667508631966
 20
-29.5129925549008
 30
0.0
 11
17.7667508631966
 21
-0.987979447841099
 31
0.0
  0
LINE
  5
   281
  8
0
  6
CONTINUOUS
 62
     1
 10
16.5067595368637
 20
-29.5129925549008
 30
0.0
 11
16.5067595368637
 21
-0.987979447841099
 31
0.0
  0
LINE
  5
   282
  8
0
  6
CONTINUOUS
 62
     1
 10
15.2467682105307
 20
-19.7129942238308
 30
0.0
 11
15.2467682105307
 21
-0.987979447841099
 31
0.0
  0
LINE
  5
   283
  8
0
  6
CONTINUOUS
 62
     1
 10
13.9867555218952
 20
-19.7129942238308
 30
0.0
 11
13.9867555218952
 21
-0.987979447841099
 31
0.0
  0
LINE
  5
   284
  8
0
  6
CONTINUOUS
 62
     1
 10
25.326762908102
 20
-66.2629704415795
 30
0.0
 11
25.326762908102
 21
-29.5130008995503
 31
0.0
  0
LINE
  5
   285
  8
0
  6
CONTINUOUS
 62
     1
 10
24.0667502194665
 20
-66.2629704415795
 30
0.0
 11
24.0667502194665
 21
-29.5130008995503
 31
0.0
  0
LINE
  5
   286
  8
0
  6
CONTINUOUS
 62
     1
 10
22.8067588931335
 20
-66.2629704415795
 30
0.0
 11
22.8067588931335
 21
-29.5130008995503
 31
0.0
  0
LINE
  5
   287
  8
0
  6
CONTINUOUS
 62
     1
 10
21.5467675668006
 20
-66.2629704415795
 30
0.0
 11
21.5467675668006
 21
-29.5130008995503
 31
0.0
  0
LINE
  5
   288
  8
0
  6
CONTINUOUS
 62
     1
 10
20.2867548781651
 20
-66.2629704415795
 30
0.0
 11
20.2867548781651
 21
-29.5130008995503
 31
0.0
  0
LINE
  5
   289
  8
0
  6
CONTINUOUS
 62
     1
 10
19.0267635518321
 20
-66.2629704415795
 30
0.0
 11
19.0267635518321
 21
-29.5130008995503
 31
0.0
  0
LINE
  5
   28A
  8
0
  6
CONTINUOUS
 62
     1
 10
17.7667508631966
 20
-66.2629704415795
 30
0.0
 11
17.7667508631966
 21
-29.5130008995503
 31
0.0
  0
LINE
  5
   28B
  8
0
  6
CONTINUOUS
 62
     1
 10
16.5067595368637
 20
-66.2629704415795
 30
0.0
 11
16.5067595368637
 21
-29.5130008995503
 31
0.0
  0
LINE
  5
   28C
  8
0
  6
CONTINUOUS
 62
     1
 10
13.9867555218952
 20
-66.2629704415795
 30
0.0
 11
13.9867555218952
 21
-29.5130008995503
 31
0.0
  0
LINE
  5
   28D
  8
0
  6
CONTINUOUS
 62
     1
 10
25.326762908102
 20
-74.3129662811756
 30
0.0
 11
25.326762908102
 21
-66.2629724442954
 31
0.0
  0
LINE
  5
   28E
  8
0
  6
CONTINUOUS
 62
     1
 10
24.0667502194665
 20
-74.3129662811756
 30
0.0
 11
24.0667502194665
 21
-66.2629724442954
 31
0.0
  0
LINE
  5
   28F
  8
0
  6
CONTINUOUS
 62
     1
 10
22.8067588931335
 20
-74.3129662811756
 30
0.0
 11
22.8067588931335
 21
-66.2629724442954
 31
0.0
  0
LINE
  5
   290
  8
0
  6
CONTINUOUS
 62
     1
 10
21.5467675668006
 20
-74.3129662811756
 30
0.0
 11
21.5467675668006
 21
-66.2629724442954
 31
0.0
  0
LINE
  5
   291
  8
0
  6
CONTINUOUS
 62
     1
 10
20.2867548781651
 20
-74.3129662811756
 30
0.0
 11
20.2867548781651
 21
-66.2629724442954
 31
0.0
  0
LINE
  5
   292
  8
0
  6
CONTINUOUS
 62
     1
 10
19.0267635518321
 20
-74.3129662811756
 30
0.0
 11
19.0267635518321
 21
-66.2629724442954
 31
0.0
  0
LINE
  5
   293
  8
0
  6
CONTINUOUS
 62
     1
 10
17.7667508631966
 20
-74.3129662811756
 30
0.0
 11
17.7667508631966
 21
-66.2629724442954
 31
0.0
  0
LINE
  5
   294
  8
0
  6
CONTINUOUS
 62
     1
 10
16.5067595368637
 20
-74.3129662811756
 30
0.0
 11
16.5067595368637
 21
-66.2629724442954
 31
0.0
  0
LINE
  5
   295
  8
0
  6
CONTINUOUS
 62
     1
 10
13.3042681088457
 20
-19.7129942238308
 30
0.0
 11
13.3042613371304
 21
-2.73797504543293
 31
0.0
  0
LINE
  5
   296
  8
0
  6
CONTINUOUS
 62
     1
 10
-34.6457109699294
 20
-19.7129942238308
 30
0.0
 11
-34.6457177416435
 21
-2.73797815202659
 31
0.0
  0
LINE
  5
   297
  8
0
  6
CONTINUOUS
 62
     1
 10
13.3042620003234
 20
-2.73797392845154
 30
0.0
 11
-34.6457170784479
 21
-2.73797392845154
 31
0.0
  0
LINE
  5
   298
  8
0
  6
CONTINUOUS
 62
     1
 10
25.6417500585339
 20
-74.662963908911
 30
0.0
 11
25.6417500585339
 21
-74.3129662811756
 31
0.0
  0
LINE
  5
   299
  8
0
  6
CONTINUOUS
 62
     1
 10
-71.4831972926827
 20
-74.6629483322177
 30
0.0
 11
-71.4831972926827
 21
-74.3129507044824
 31
0.0
  0
LINE
  5
   29A
  8
0
  6
CONTINUOUS
 62
     1
 10
-10.1281246511811
 20
-116.488064104245
 30
0.0
 11
-10.1281417559922
 21
-89.0129602926967
 31
0.0
  0
LINE
  5
   29B
  8
0
  6
CONTINUOUS
 62
     1
 10
-8.86812651190653
 20
-116.488062217769
 30
0.0
 11
-8.86814329398422
 21
-89.0129602926967
 31
0.0
  0
LINE
  5
   29C
  8
0
  6
CONTINUOUS
 62
     1
 10
-7.43312499331379
 20
-116.488060069278
 30
0.0
 11
-7.43314209812235
 21
-89.0129602926967
 31
0.0
  0
LINE
  5
   29D
  8
0
  6
CONTINUOUS
 62
     1
 10
-6.17312532233234
 20
-116.4880581828
 30
0.0
 11
-6.17314242713973
 21
-89.0129602926967
 31
0.0
  0
LINE
  5
   29E
  8
0
  6
CONTINUOUS
 62
     1
 10
-4.9131423221062
 20
-116.488056296347
 30
0.0
 11
-4.91315781325174
 21
-89.0129602926967
 31
0.0
  0
LINE
  5
   29F
  8
0
  6
CONTINUOUS
 62
     1
 10
-3.65314031462284
 20
-116.488054409866
 30
0.0
 11
-3.65315580576732
 21
-89.0129602926967
 31
0.0
  0
LINE
  5
   2A0
  8
0
  6
CONTINUOUS
 62
     1
 10
-2.39311914040684
 20
-116.488052523356
 30
0.0
 11
-2.39313979526368
 21
-89.0129602926967
 31
0.0
  0
LINE
  5
   2A1
  8
0
  6
CONTINUOUS
 62
     1
 10
-1.13314164023176
 20
-116.488050636911
 30
0.0
 11
-1.13315713137411
 21
-89.0129602926967
 31
0.0
  0
LINE
  5
   2A2
  8
0
  6
CONTINUOUS
 62
     1
 10
0.126797526476366
 20
-116.488048750524
 30
0.0
 11
0.126797526476366
 21
-98.8990191354621
 31
0.0
  0
LINE
  5
   2A3
  8
0
  6
CONTINUOUS
 62
     1
 10
1.38678885280933
 20
-116.488046864059
 30
0.0
 11
1.38678885280933
 21
-99.852066093778
 31
0.0
  0
LINE
  5
   2A4
  8
0
  6
CONTINUOUS
 62
     1
 10
2.64679086029355
 20
-116.488044977577
 30
0.0
 11
2.64679086029355
 21
-99.4473331099683
 31
0.0
  0
LINE
  5
   2A5
  8
0
  6
CONTINUOUS
 62
     1
 10
3.90687487528206
 20
-116.488043090973
 30
0.0
 11
3.90685422043231
 21
-89.0129602926967
 31
0.0
  0
LINE
  5
   2A6
  8
0
  6
CONTINUOUS
 62
     1
 10
5.16687688276522
 20
-116.488041204492
 30
0.0
 11
5.16685622791688
 21
-89.0129602926967
 31
0.0
  0
LINE
  5
   2A7
  8
0
  6
CONTINUOUS
 62
     1
 10
6.42687889024837
 20
-116.488039318011
 30
0.0
 11
6.42685823540145
 21
-89.0129602926967
 31
0.0
  0
LINE
  5
   2A8
  8
0
  6
CONTINUOUS
 62
     1
 10
7.68682654254061
 20
-116.488037431611
 30
0.0
 11
7.68681621511786
 21
-89.0129602926967
 31
0.0
  0
LINE
  5
   2A9
  8
0
  6
CONTINUOUS
 62
     1
 10
8.94687222406343
 20
-116.488035545064
 30
0.0
 11
8.94685156921935
 21
-89.0129602926967
 31
0.0
  0
LINE
  5
   2AA
  8
0
  6
CONTINUOUS
 62
     1
 10
10.2068742315466
 20
-116.488033658583
 30
0.0
 11
10.2068535767039
 21
-89.0129602926967
 31
0.0
  0
LINE
  5
   2AB
  8
0
  6
CONTINUOUS
 62
     1
 10
11.4668762390297
 20
-116.488031772101
 30
0.0
 11
11.4668555841885
 21
-89.0129602926967
 31
0.0
  0
LINE
  5
   2AC
  8
0
  6
CONTINUOUS
 62
     1
 10
12.7268675653616
 20
-116.488029885636
 30
0.0
 11
12.7268469105218
 21
-89.0129602926967
 31
0.0
  0
LINE
  5
   2AD
  8
0
  6
CONTINUOUS
 62
     1
 10
26.0792706624131
 20
-0.462979501485279
 30
0.0
 11
-10.6707248687744
 21
-0.462979501485279
 31
0.0
  0
LINE
  5
   2AE
  8
0
  6
CONTINUOUS
 62
     1
 10
-11.3883285435703
 20
-116.488065991028
 30
0.0
 11
-11.3883117614903
 21
-89.0129602926967
 31
0.0
  0
LINE
  5
   2AF
  8
0
  6
CONTINUOUS
 62
     1
 10
-12.6483340075957
 20
-116.488067877515
 30
0.0
 11
-12.6483159345854
 21
-89.0129602926967
 31
0.0
  0
LINE
  5
   2B0
  8
0
  6
CONTINUOUS
 62
     1
 10
-13.9083300848167
 20
-116.488069763987
 30
0.0
 11
-13.9083129800021
 21
-89.0129602926967
 31
0.0
  0
LINE
  5
   2B1
  8
0
  6
CONTINUOUS
 62
     1
 10
-15.1683297558005
 20
-116.488071650465
 30
0.0
 11
-15.1683126509847
 21
-89.0129602926967
 31
0.0
  0
LINE
  5
   2B2
  8
0
  6
CONTINUOUS
 62
     1
 10
-16.428312755951
 20
-116.488073536918
 30
0.0
 11
-16.4282972648426
 21
-89.0129602926967
 31
0.0
  0
LINE
  5
   2B3
  8
0
  6
CONTINUOUS
 62
     1
 10
-17.6883147634365
 20
-116.488075423399
 30
0.0
 11
-17.688299272327
 21
-89.0129602926967
 31
0.0
  0
LINE
  5
   2B4
  8
0
  6
CONTINUOUS
 62
     1
 10
-18.9483359376362
 20
-116.488077309909
 30
0.0
 11
-18.9483152828216
 21
-89.0129602926967
 31
0.0
  0
LINE
  5
   2B5
  8
0
  6
CONTINUOUS
 62
     1
 10
-20.2083134378318
 20
-116.488079196354
 30
0.0
 11
-20.2082979467202
 21
-89.0129602926967
 31
0.0
  0
LINE
  5
   2B6
  8
0
  6
CONTINUOUS
 62
     1
 10
-21.4682526046008
 20
-116.488081082741
 30
0.0
 11
-21.4682526046008
 21
-98.8990561466539
 31
0.0
  0
LINE
  5
   2B7
  8
0
  6
CONTINUOUS
 62
     1
 10
-21.4682506524059
 20
12.8894041365207
 30
0.0
 11
-21.4682256615133
 21
30.5119038970936
 31
0.0
  0
LINE
  5
   2B8
  8
0
  6
CONTINUOUS
 62
     1
 10
-22.5532486463225
 20
13.8295296865575
 30
0.0
 11
-22.5532234140266
 21
30.5119022726296
 31
0.0
  0
LINE
  5
   2B9
  8
0
  6
CONTINUOUS
 62
     1
 10
-22.7282385903582
 20
-116.488082969198
 30
0.0
 11
-22.7282385903582
 21
-99.8520236344766
 31
0.0
  0
LINE
  5
   2BA
  8
0
  6
CONTINUOUS
 62
     1
 10
-23.8132369931073
 20
13.6039346841856
 30
0.0
 11
-23.8132118216492
 21
30.5119003861686
 31
0.0
  0
LINE
  5
   2BB
  8
0
  6
CONTINUOUS
 62
     1
 10
-23.9882405978424
 20
-116.48808485568
 30
0.0
 11
-23.9882405978424
 21
-99.4470683316841
 31
0.0
  0
LINE
  5
   2BC
  8
0
  6
CONTINUOUS
 62
     1
 10
-25.2483246127739
 20
-116.488086742284
 30
0.0
 11
-25.248303957946
 21
-89.0129602926967
 31
0.0
  0
LINE
  5
   2BD
  8
0
  6
CONTINUOUS
 62
     1
 10
-26.5083266202599
 20
-116.488088628765
 30
0.0
 11
-26.5083059654305
 21
-89.0129602926967
 31
0.0
  0
LINE
  5
   2BE
  8
0
  6
CONTINUOUS
 62
     1
 10
-27.7683286277459
 20
-116.488090515246
 30
0.0
 11
-27.7683079729151
 21
-89.0129602926967
 31
0.0
  0
LINE
  5
   2BF
  8
0
  6
CONTINUOUS
 62
     1
 10
-29.0283306352319
 20
-116.488092401728
 30
0.0
 11
-29.0283099803997
 21
-89.0129602926967
 31
0.0
  0
LINE
  5
   2C0
  8
0
  6
CONTINUOUS
 62
     1
 10
-30.2883219615666
 20
-116.488094288193
 30
0.0
 11
-30.288301306733
 21
-89.0129602926967
 31
0.0
  0
LINE
  5
   2C1
  8
0
  6
CONTINUOUS
 62
     1
 10
-31.5483239690526
 20
-116.488096174674
 30
0.0
 11
-31.5483033142176
 21
-89.0129602926967
 31
0.0
  0
LINE
  5
   2C2
  8
0
  6
CONTINUOUS
 62
     1
 10
-32.8083259765463
 20
-116.488098061156
 30
0.0
 11
-32.8083053217052
 21
-89.0129602926967
 31
0.0
  0
LINE
  5
   2C3
  8
0
  6
CONTINUOUS
 62
     1
 10
-34.0683279840323
 20
-116.488099947637
 30
0.0
 11
-34.0683073291898
 21
-89.0129602926967
 31
0.0
  0
LINE
  5
   2C4
  8
0
  6
CONTINUOUS
 62
     1
 10
-35.3282373028978
 20
-0.462958139182774
 30
0.0
 11
-35.3282373028978
 21
30.5118831458149
 31
0.0
  0
LINE
  5
   2C5
  8
0
  6
CONTINUOUS
 62
     1
 10
-36.5882340320469
 20
-0.463033846447402
 30
0.0
 11
-36.5882223891217
 21
30.511881259359
 31
0.0
  0
LINE
  5
   2C6
  8
0
  6
CONTINUOUS
 62
     1
 10
-37.8482361017676
 20
-0.463023157256799
 30
0.0
 11
-37.8482128159265
 21
30.511879372895
 31
0.0
  0
LINE
  5
   2C7
  8
0
  6
CONTINUOUS
 62
     1
 10
-39.1082326441992
 20
-0.462958139182774
 30
0.0
 11
-39.1082326441992
 21
30.511877486387
 31
0.0
  0
LINE
  5
   2C8
  8
0
  6
CONTINUOUS
 62
     1
 10
-40.368229373348
 20
-0.46303242561369
 30
0.0
 11
-40.3682177304255
 21
30.5118755999311
 31
0.0
  0
LINE
  5
   2C9
  8
0
  6
CONTINUOUS
 62
     1
 10
-41.6282366591677
 20
-0.462958139182774
 30
0.0
 11
-41.6282366591677
 21
30.5118737134244
 31
0.0
  0
LINE
  5
   2CA
  8
0
  6
CONTINUOUS
 62
     1
 10
-42.8882333883163
 20
-0.463031478388558
 30
0.0
 11
-42.8882217453955
 21
30.5118718269685
 31
0.0
  0
LINE
  5
   2CB
  8
0
  6
CONTINUOUS
 62
     1
 10
-44.1482247146492
 20
-0.463031004780007
 30
0.0
 11
-44.1482130717293
 21
30.5118699405031
 31
0.0
  0
LINE
  5
   2CC
  8
0
  6
CONTINUOUS
 62
     1
 10
-45.4082320004691
 20
-0.462958139182774
 30
0.0
 11
-45.4082320004691
 21
30.5118680539965
 31
0.0
  0
LINE
  5
   2CD
  8
0
  6
CONTINUOUS
 62
     1
 10
-46.6682287296053
 20
-0.463019376399515
 30
0.0
 11
-46.6682170866877
 21
30.5118661675405
 31
0.0
  0
LINE
  5
   2CE
  8
0
  6
CONTINUOUS
 62
     1
 10
-10.6707270278947
 20
-0.462979501464872
 30
0.0
 11
-71.9207186102867
 21
-0.462934846285435
 31
0.0
  0
LINE
  5
   2CF
  8
0
  6
CONTINUOUS
 62
     3
 10
26.079271376133
 20
1.28702031970079
 30
0.0
 11
26.079271376133
 21
27.5369375288574
 31
0.0
  0
LINE
  5
   2D0
  8
0
  6
CONTINUOUS
 62
     3
 10
25.8167522159104
 20
27.9915404370312
 30
0.0
 11
25.5538438321987
 21
28.0619745491079
 31
0.0
  0
LINE
  5
   2D1
  8
0
  6
CONTINUOUS
 62
     3
 10
26.0088822095754
 20
27.7993914877217
 30
0.0
 11
25.8167229600318
 21
27.9915667575703
 31
0.0
  0
LINE
  5
   2D2
  8
0
  6
CONTINUOUS
 62
     3
 10
26.0792862327539
 20
27.5368740693424
 30
0.0
 11
26.0089455173722
 21
27.7993740405955
 31
0.0
  0
LINE
  5
   2D3
  8
0
  6
CONTINUOUS
 62
     3
 10
-71.9207186102867
 20
1.28702031970079
 30
0.0
 11
-71.9207186102867
 21
27.5369375288574
 31
0.0
  0
LINE
  5
   2D4
  8
0
  6
CONTINUOUS
 62
     3
 10
-71.6581959236375
 20
27.9915413817737
 30
0.0
 11
-71.3956959575225
 21
28.061866077291
 31
0.0
  0
LINE
  5
   2D5
  8
0
  6
CONTINUOUS
 62
     3
 10
-71.8503294437292
 20
27.7993914877217
 30
0.0
 11
-71.6581701941855
 21
27.9915667575703
 31
0.0
  0
LINE
  5
   2D6
  8
0
  6
CONTINUOUS
 62
     3
 10
-71.9207334669077
 20
27.5368740693424
 30
0.0
 11
-71.850392751526
 21
27.7993740405955
 31
0.0
  0
LINE
  5
   2D7
  8
0
  6
CONTINUOUS
 62
     3
 10
26.0792582831101
 20
-88.4879624962809
 30
0.0
 11
26.0792709085218
 21
1.28701515140433
 31
0.0
  0
LINE
  5
   2D8
  8
0
  6
CONTINUOUS
 62
     3
 10
-71.9207055172638
 20
-88.4879624962809
 30
0.0
 11
-71.9207181426755
 21
1.28701515140433
 31
0.0
  0
LINE
  5
   2D9
  8
0
  6
CONTINUOUS
 62
   130
 10
13.8292954154926
 20
-65.5629731833929
 30
0.0
 11
-35.1707572615164
 21
-65.5629731833929
 31
0.0
  0
LINE
  5
   2DA
  8
0
  6
CONTINUOUS
 62
     1
 10
13.3918474405928
 20
-33.7129921257474
 30
0.0
 11
-34.7333185404441
 21
-33.7129921257474
 31
0.0
  0
LINE
  5
   2DB
  8
0
  6
CONTINUOUS
 62
   130
 10
13.3918474405928
 20
-29.5129925549008
 30
0.0
 11
-34.7333185404441
 21
-29.5129925549008
 31
0.0
  0
LINE
  5
   2DC
  8
0
  6
CONTINUOUS
 62
   130
 10
13.8292726278305
 20
-33.012992197273
 30
0.0
 11
13.8292726278305
 21
-29.5129925549008
 31
0.0
  0
LINE
  5
   2DD
  8
0
  6
CONTINUOUS
 62
   130
 10
-35.1707223653793
 20
-33.012992197273
 30
0.0
 11
-35.1707223653793
 21
-29.5129925549008
 31
0.0
  0
LINE
  5
   2DE
  8
0
  6
CONTINUOUS
 62
   130
 10
-3.32072561979294
 20
-36.2290120712987
 30
0.0
 11
-18.0207241177559
 21
-36.2290120712987
 31
0.0
  0
LINE
  5
   2DF
  8
0
  6
CONTINUOUS
 62
   130
 10
-3.32072561979294
 20
-35.9879918932893
 30
0.0
 11
-18.0207241177559
 21
-35.9879918932893
 31
0.0
  0
LINE
  5
   2E0
  8
0
  6
CONTINUOUS
 62
   130
 10
-18.0207160632813
 20
-41.3254613181133
 30
0.0
 11
-18.0207214038524
 21
-35.9879939069496
 31
0.0
  0
LINE
  5
   2E1
  8
0
  6
CONTINUOUS
 62
   130
 10
-18.0207187771803
 20
-56.110467833217
 30
0.0
 11
-18.0207187771803
 21
-41.6754592686902
 31
0.0
  0
LINE
  5
   2E2
  8
0
  6
CONTINUOUS
 62
   130
 10
-18.0207187771803
 20
-60.4879733681673
 30
0.0
 11
-18.0207187771803
 21
-57.2504683583975
 31
0.0
  0
LINE
  5
   2E3
  8
0
  6
CONTINUOUS
 62
   130
 10
-18.0207196673901
 20
-62.5879811644646
 30
0.0
 11
-18.0207143268155
 21
-60.4879760384657
 31
0.0
  0
LINE
  5
   2E4
  8
0
  6
CONTINUOUS
 62
   130
 10
-3.32072561979294
 20
-62.5879784941662
 30
0.0
 11
-3.32072561979294
 21
-60.4879733681673
 31
0.0
  0
LINE
  5
   2E5
  8
0
  6
CONTINUOUS
 62
   130
 10
-3.32072561979294
 20
-60.4879733681673
 30
0.0
 11
-3.32072561979294
 21
-57.2504683583975
 31
0.0
  0
LINE
  5
   2E6
  8
0
  6
CONTINUOUS
 62
   130
 10
-3.32072561979294
 20
-56.110467833217
 30
0.0
 11
-3.32072561979294
 21
-41.6754592686902
 31
0.0
  0
LINE
  5
   2E7
  8
0
  6
CONTINUOUS
 62
   130
 10
-3.32072561979294
 20
-41.325459304453
 30
0.0
 11
-3.32072561979294
 21
-35.9879918932893
 31
0.0
  0
LINE
  5
   2E8
  8
0
  6
CONTINUOUS
 62
     1
 10
-34.7333185404441
 20
-33.7129921257474
 30
0.0
 11
-35.0426660430148
 21
-33.7129921257474
 31
0.0
  0
LINE
  5
   2E9
  8
0
  6
CONTINUOUS
 62
   130
 10
-34.7333185404441
 20
-65.5629731833929
 30
0.0
 11
-34.8207117199909
 21
-65.5629731833929
 31
0.0
  0
LINE
  5
   2EA
  8
0
  6
CONTINUOUS
 62
   130
 10
-34.7333138589568
 20
-29.5129948271446
 30
0.0
 11
-35.0426613614375
 21
-29.5129841459945
 31
0.0
  0
LINE
  5
   2EB
  8
0
  6
CONTINUOUS
 62
   130
 10
-35.1707572615164
 20
-65.5629731833929
 30
0.0
 11
-35.170730202703
 21
-63.900458781048
 31
0.0
  0
LINE
  5
   2EC
  8
0
  6
CONTINUOUS
 62
   130
 10
-35.1707330465306
 20
-63.5504570335161
 30
0.0
 11
-35.1707330465306
 21
-57.2504576772462
 31
0.0
  0
LINE
  5
   2ED
  8
0
  6
CONTINUOUS
 62
   130
 10
-35.170728749511
 20
-56.9004618872297
 30
0.0
 11
-35.1707180683603
 21
-41.6754741240622
 31
0.0
  0
LINE
  5
   2EE
  8
0
  6
CONTINUOUS
 62
   130
 10
-35.1707186566715
 20
-41.3254741392923
 30
0.0
 11
-35.1707293378221
 21
-35.0254747830225
 31
0.0
  0
LINE
  5
   2EF
  8
0
  6
CONTINUOUS
 62
     1
 10
-35.0426660638765
 20
-33.7129921257474
 30
0.0
 11
-35.1707650899843
 21
-33.7129921257474
 31
0.0
  0
LINE
  5
   2F0
  8
0
  6
CONTINUOUS
 62
   130
 10
-35.1707319355755
 20
-34.6754729066267
 30
0.0
 11
-35.1707639790275
 21
-33.0129944388025
 31
0.0
  0
LINE
  5
   2F1
  8
0
  6
CONTINUOUS
 62
   130
 10
-35.1707603516848
 20
-29.512995173499
 30
0.0
 11
-35.0426613255893
 21
-29.5129844923486
 31
0.0
  0
LINE
  5
   2F2
  8
0
  6
CONTINUOUS
 62
   130
 10
13.391842856698
 20
-29.5129948853079
 30
0.0
 11
13.7012117216072
 21
-29.5129842041584
 31
0.0
  0
LINE
  5
   2F3
  8
0
  6
CONTINUOUS
 62
     1
 10
13.3918462039487
 20
-33.7129944581249
 30
0.0
 11
13.7012150688219
 21
-33.7129837769755
 31
0.0
  0
LINE
  5
   2F4
  8
0
  6
CONTINUOUS
 62
   130
 10
13.479261982442
 20
-65.5629731833929
 30
0.0
 11
13.3918474405928
 21
-65.5629731833929
 31
0.0
  0
LINE
  5
   2F5
  8
0
  6
CONTINUOUS
 62
   130
 10
13.8292954154926
 20
-65.5629731833929
 30
0.0
 11
13.8292818860879
 21
-63.9004658998742
 31
0.0
  0
LINE
  5
   2F6
  8
0
  6
CONTINUOUS
 62
   130
 10
13.8292819738603
 20
-63.5504635608303
 30
0.0
 11
13.829271292713
 21
-57.250469545136
 31
0.0
  0
LINE
  5
   2F7
  8
0
  6
CONTINUOUS
 62
   130
 10
13.8292726278305
 20
-56.9004683941603
 30
0.0
 11
13.8292726278305
 21
-41.6754592686902
 31
0.0
  0
LINE
  5
   2F8
  8
0
  6
CONTINUOUS
 62
   130
 10
13.8292726278305
 20
-41.325459304453
 30
0.0
 11
13.8292726278305
 21
-35.0254599481832
 31
0.0
  0
LINE
  5
   2F9
  8
0
  6
CONTINUOUS
 62
   130
 10
13.8292715212678
 20
-34.6754622281217
 30
0.0
 11
13.8293035647075
 21
-33.0129944414487
 31
0.0
  0
LINE
  5
   2FA
  8
0
  6
CONTINUOUS
 62
   130
 10
13.8293020890607
 20
-33.0129949973666
 30
0.0
 11
13.7012137232573
 21
-33.012984316216
 31
0.0
  0
LINE
  5
   2FB
  8
0
  6
CONTINUOUS
 62
   130
 10
13.8293002186294
 20
-29.5129953426695
 30
0.0
 11
13.701211852826
 21
-29.5129846615189
 31
0.0
  0
LINE
  5
   2FC
  8
0
  6
CONTINUOUS
 62
   130
 10
-3.32073096036856
 20
-57.2504683583975
 30
0.0
 11
-3.32073096036856
 21
-56.9004683941603
 31
0.0
  0
LINE
  5
   2FD
  8
0
  6
CONTINUOUS
 62
   130
 10
-18.0207241177559
 20
-57.2504683583975
 30
0.0
 11
-18.0207241177559
 21
-56.9004683941603
 31
0.0
  0
LINE
  5
   2FE
  8
0
  6
CONTINUOUS
 62
   130
 10
-3.32073096036856
 20
-41.6754592686902
 30
0.0
 11
-3.32073096036856
 21
-41.325459304453
 31
0.0
  0
LINE
  5
   2FF
  8
0
  6
CONTINUOUS
 62
   130
 10
-18.0207187771803
 20
-41.6754592686902
 30
0.0
 11
-18.0207187771803
 21
-41.325459304453
 31
0.0
  0
LINE
  5
   300
  8
0
  6
CONTINUOUS
 62
   210
 10
-3.32072561979294
 20
-59.2391520191088
 30
0.0
 11
-18.0207187771803
 21
-59.2391520191088
 31
0.0
  0
LINE
  5
   301
  8
0
  6
CONTINUOUS
 62
   210
 10
-3.32072561979294
 20
-56.8104677616914
 30
0.0
 11
-18.0207187771803
 21
-56.8104677616914
 31
0.0
  0
LINE
  5
   302
  8
0
  6
CONTINUOUS
 62
   210
 10
-3.32072561979294
 20
-62.3591608180862
 30
0.0
 11
-18.0207187771803
 21
-62.3591608180862
 31
0.0
  0
LINE
  5
   303
  8
0
  6
CONTINUOUS
 62
   210
 10
-3.32072561979294
 20
-65.0765476080284
 30
0.0
 11
-18.0207187771803
 21
-65.0765476080284
 31
0.0
  0
LINE
  5
   304
  8
0
  6
CONTINUOUS
 62
   210
 10
-18.0207187771803
 20
-65.0765476080284
 30
0.0
 11
-18.0207187771803
 21
-56.8104677616914
 31
0.0
  0
LINE
  5
   305
  8
0
  6
CONTINUOUS
 62
   210
 10
-3.32072561979294
 20
-65.0765476080284
 30
0.0
 11
-3.32072561979294
 21
-56.8104677616914
 31
0.0
  0
LINE
  5
   306
  8
0
  6
CONTINUOUS
 62
     1
 10
-18.0207187771803
 20
-64.600461454107
 30
0.0
 11
-34.8207002938668
 21
-64.6004595965158
 31
0.0
  0
CIRCLE
  5
   307
  8
0
  6
CONTINUOUS
 62
     1
 10
-22.9206899063361
 20
12.3120173382721
 30
0.0
 40
1.57569269749607
  0
LINE
  5
   308
  8
0
  6
DASHDOT
 62
     7
 10
-22.9206899063361
 20
7.23632499840386
 30
0.0
 11
-22.9206899063361
 21
31.5572460296072
 31
0.0
  0
LINE
  5
   309
  8
0
  6
DASHDOT
 62
     7
 10
-17.8449975664679
 20
12.3120173382721
 30
0.0
 11
-27.9963822462043
 21
12.3120173382721
 31
0.0
  0
LINE
  5
   30A
  8
0
  6
CONTINUOUS
 62
     1
 10
26.0792546899128
 20
-114.037957735657
 30
0.0
 11
25.7294841645466
 21
-114.037957735657
 31
0.0
  0
LINE
  5
   30B
  8
0
  6
CONTINUOUS
 62
     1
 10
26.0792582092776
 20
-89.0129602926967
 30
0.0
 11
-71.9207054434313
 21
-89.0129602926967
 31
0.0
  0
LINE
  5
   30C
  8
0
  6
CONTINUOUS
 62
     1
 10
25.7292582942622
 20
-88.6629603284595
 30
0.0
 11
-71.5707055284088
 21
-88.6629603284595
 31
0.0
  0
LINE
  5
   30D
  8
0
  6
CONTINUOUS
 62
     1
 10
26.0792582831101
 20
-88.4879624962809
 30
0.0
 11
-71.9207055172638
 21
-88.4879624962809
 31
0.0
  0
LINE
  5
   30E
  8
0
  6
CONTINUOUS
 62
     1
 10
26.0792602027636
 20
-74.8379638910296
 30
0.0
 11
15.9292724132538
 21
-74.8379638910296
 31
0.0
  0
LINE
  5
   30F
  8
0
  6
CONTINUOUS
 62
     1
 10
26.0792546899128
 20
-114.037957735657
 30
0.0
 11
26.0792582092775
 21
-89.0129602926967
 31
0.0
  0
LINE
  5
   310
  8
0
  6
CONTINUOUS
 62
     1
 10
-71.9207019240665
 20
-114.037957735657
 30
0.0
 11
-71.9207054434313
 21
-89.0129602926967
 31
0.0
  0
LINE
  5
   311
  8
0
  6
CONTINUOUS
 62
     1
 10
-71.5707054791891
 20
-89.0129447160034
 30
0.0
 11
-71.570705528411
 21
-88.6629447517662
 31
0.0
  0
LINE
  5
   312
  8
0
  6
CONTINUOUS
 62
     1
 10
25.7292582450403
 20
-89.0129602926967
 30
0.0
 11
25.7292582942622
 21
-88.6629603284595
 31
0.0
  0
LINE
  5
   313
  8
0
  6
CONTINUOUS
 62
     1
 10
-35.1707223653793
 20
-88.4879624962809
 30
0.0
 11
-35.1707223653793
 21
-76.0629871308782
 31
0.0
  0
LINE
  5
   314
  8
0
  6
CONTINUOUS
 62
     1
 10
13.8292726278305
 20
-88.4879624962809
 30
0.0
 11
13.8292726278305
 21
-76.0629871308782
 31
0.0
  0
LINE
  5
   315
  8
0
  6
CONTINUOUS
 62
     2
 10
-46.6682126456508
 20
-88.4879624962809
 30
0.0
 11
-46.6682126456508
 21
-74.8379638910296
 31
0.0
  0
LINE
  5
   316
  8
0
  6
CONTINUOUS
 62
     2
 10
-45.4081999570153
 20
-88.4879624962809
 30
0.0
 11
-45.4081999570153
 21
-74.8379638910296
 31
0.0
  0
LINE
  5
   317
  8
0
  6
CONTINUOUS
 62
     2
 10
-44.1482086306824
 20
-88.4879624962809
 30
0.0
 11
-44.1482086306824
 21
-74.8379638910296
 31
0.0
  0
LINE
  5
   318
  8
0
  6
CONTINUOUS
 62
     2
 10
-42.8882173043494
 20
-88.4879624962809
 30
0.0
 11
-42.8882173043494
 21
-74.8379638910296
 31
0.0
  0
LINE
  5
   319
  8
0
  6
CONTINUOUS
 62
     2
 10
-41.6282046157139
 20
-88.4879624962809
 30
0.0
 11
-41.6282046157139
 21
-74.8379638910296
 31
0.0
  0
LINE
  5
   31A
  8
0
  6
CONTINUOUS
 62
     2
 10
-40.368213289381
 20
-88.4879624962809
 30
0.0
 11
-40.368213289381
 21
-74.8379638910296
 31
0.0
  0
LINE
  5
   31B
  8
0
  6
CONTINUOUS
 62
     2
 10
-39.1082006007455
 20
-88.4879624962809
 30
0.0
 11
-39.1082006007455
 21
-74.8379638910296
 31
0.0
  0
LINE
  5
   31C
  8
0
  6
CONTINUOUS
 62
     2
 10
-37.8482092744125
 20
-88.4879624962809
 30
0.0
 11
-37.8482092744125
 21
-74.8379638910296
 31
0.0
  0
LINE
  5
   31D
  8
0
  6
CONTINUOUS
 62
     2
 10
-36.5882179480795
 20
-88.4879624962809
 30
0.0
 11
-36.5882179480795
 21
-76.0629871308782
 31
0.0
  0
LINE
  5
   31E
  8
0
  6
CONTINUOUS
 62
     1
 10
-35.3282052594441
 20
-74.3129662811756
 30
0.0
 11
-35.3282052594441
 21
-66.2629724442954
 31
0.0
  0
LINE
  5
   31F
  8
0
  6
CONTINUOUS
 62
     1
 10
-46.6682126456508
 20
-74.3129662811756
 30
0.0
 11
-46.6682126456508
 21
-66.2629724442954
 31
0.0
  0
LINE
  5
   320
  8
0
  6
CONTINUOUS
 62
     1
 10
-45.4081999570153
 20
-74.3129662811756
 30
0.0
 11
-45.4081999570153
 21
-66.2629724442954
 31
0.0
  0
LINE
  5
   321
  8
0
  6
CONTINUOUS
 62
     1
 10
-44.1482086306824
 20
-74.3129662811756
 30
0.0
 11
-44.1482086306824
 21
-66.2629724442954
 31
0.0
  0
LINE
  5
   322
  8
0
  6
CONTINUOUS
 62
     1
 10
-42.8882173043494
 20
-74.3129662811756
 30
0.0
 11
-42.8882173043494
 21
-66.2629724442954
 31
0.0
  0
LINE
  5
   323
  8
0
  6
CONTINUOUS
 62
     1
 10
-41.6282046157139
 20
-74.3129662811756
 30
0.0
 11
-41.6282046157139
 21
-66.2629724442954
 31
0.0
  0
LINE
  5
   324
  8
0
  6
CONTINUOUS
 62
     1
 10
-40.368213289381
 20
-74.3129662811756
 30
0.0
 11
-40.368213289381
 21
-66.2629724442954
 31
0.0
  0
LINE
  5
   325
  8
0
  6
CONTINUOUS
 62
     1
 10
-39.1082006007455
 20
-74.3129662811756
 30
0.0
 11
-39.1082006007455
 21
-66.2629724442954
 31
0.0
  0
LINE
  5
   326
  8
0
  6
CONTINUOUS
 62
     1
 10
-37.8482092744125
 20
-74.3129662811756
 30
0.0
 11
-37.8482092744125
 21
-66.2629724442954
 31
0.0
  0
LINE
  5
   327
  8
0
  6
CONTINUOUS
 62
     2
 10
-35.3282180768256
 20
-116.488101833951
 30
0.0
 11
-35.3282180768256
 21
-89.0129602926967
 31
0.0
  0
LINE
  5
   328
  8
0
  6
CONTINUOUS
 62
     1
 10
25.326762908102
 20
-88.4879624962809
 30
0.0
 11
25.326762908102
 21
-74.8379638910296
 31
0.0
  0
LINE
  5
   329
  8
0
  6
CONTINUOUS
 62
     1
 10
24.0667502194665
 20
-88.4879624962809
 30
0.0
 11
24.0667502194665
 21
-74.8379638910296
 31
0.0
  0
LINE
  5
   32A
  8
0
  6
CONTINUOUS
 62
     1
 10
22.8067588931335
 20
-88.4879624962809
 30
0.0
 11
22.8067588931335
 21
-74.8379638910296
 31
0.0
  0
LINE
  5
   32B
  8
0
  6
CONTINUOUS
 62
     1
 10
21.5467675668006
 20
-88.4879624962809
 30
0.0
 11
21.5467675668006
 21
-74.8379638910296
 31
0.0
  0
LINE
  5
   32C
  8
0
  6
CONTINUOUS
 62
     1
 10
20.2867548781651
 20
-88.4879624962809
 30
0.0
 11
20.2867548781651
 21
-74.8379638910296
 31
0.0
  0
LINE
  5
   32D
  8
0
  6
CONTINUOUS
 62
     1
 10
19.0267635518321
 20
-88.4879624962809
 30
0.0
 11
19.0267635518321
 21
-74.8379638910296
 31
0.0
  0
LINE
  5
   32E
  8
0
  6
CONTINUOUS
 62
     1
 10
17.7667508631966
 20
-88.4879624962809
 30
0.0
 11
17.7667508631966
 21
-74.8379638910296
 31
0.0
  0
LINE
  5
   32F
  8
0
  6
CONTINUOUS
 62
     1
 10
16.5067595368637
 20
-88.4879624962809
 30
0.0
 11
16.5067595368637
 21
-74.8379638910296
 31
0.0
  0
LINE
  5
   330
  8
0
  6
CONTINUOUS
 62
     1
 10
15.2467682105307
 20
-88.4879624962809
 30
0.0
 11
15.2467682105307
 21
-76.0629871308782
 31
0.0
  0
LINE
  5
   331
  8
0
  6
CONTINUOUS
 62
     1
 10
13.9867555218952
 20
-88.4879624962809
 30
0.0
 11
13.9867555218952
 21
-76.0629871308782
 31
0.0
  0
LINE
  5
   332
  8
0
  6
CONTINUOUS
 62
     1
 10
25.326762908102
 20
-116.48801102101
 30
0.0
 11
25.326762908102
 21
-89.0129602926967
 31
0.0
  0
LINE
  5
   333
  8
0
  6
CONTINUOUS
 62
     1
 10
24.0667502194665
 20
-116.488012907507
 30
0.0
 11
24.0667502194665
 21
-89.0129602926967
 31
0.0
  0
LINE
  5
   334
  8
0
  6
CONTINUOUS
 62
     1
 10
22.8067588931335
 20
-116.488014793972
 30
0.0
 11
22.8067588931335
 21
-89.0129602926967
 31
0.0
  0
LINE
  5
   335
  8
0
  6
CONTINUOUS
 62
     1
 10
21.5467675668006
 20
-116.488016680438
 30
0.0
 11
21.5467675668006
 21
-89.0129602926967
 31
0.0
  0
LINE
  5
   336
  8
0
  6
CONTINUOUS
 62
     1
 10
20.2867548781651
 20
-116.488018566935
 30
0.0
 11
20.2867548781651
 21
-89.0129602926967
 31
0.0
  0
LINE
  5
   337
  8
0
  6
CONTINUOUS
 62
     1
 10
19.0267635518321
 20
-116.4880204534
 30
0.0
 11
19.0267635518321
 21
-89.0129602926967
 31
0.0
  0
LINE
  5
   338
  8
0
  6
CONTINUOUS
 62
     1
 10
17.7667508631966
 20
-116.488022339898
 30
0.0
 11
17.7667508631966
 21
-89.0129602926967
 31
0.0
  0
LINE
  5
   339
  8
0
  6
CONTINUOUS
 62
     1
 10
16.5067595368637
 20
-116.488024226363
 30
0.0
 11
16.5067595368637
 21
-89.0129602926967
 31
0.0
  0
LINE
  5
   33A
  8
0
  6
CONTINUOUS
 62
     1
 10
15.2467682105307
 20
-116.488026112828
 30
0.0
 11
15.2467682105307
 21
-89.0129602926967
 31
0.0
  0
LINE
  5
   33B
  8
0
  6
CONTINUOUS
 62
     1
 10
13.9867683392767
 20
-116.488027999306
 30
0.0
 11
13.9867683392767
 21
-89.0129602926967
 31
0.0
  0
CIRCLE
  5
   33C
  8
0
  6
CONTINUOUS
 62
     1
 10
-22.9206899063361
 20
-98.2881278681542
 30
0.0
 40
1.57569269749607
  0
CIRCLE
  5
   33D
  8
0
  6
CONTINUOUS
 62
     1
 10
1.57939336585571
 20
-98.2880105911197
 30
0.0
 40
1.57586995460973
  0
LINE
  5
   33E
  8
0
  6
DASHDOT
 62
     1
 10
1.57939336585571
 20
-103.363880188102
 30
0.0
 11
1.57939336585571
 21
-89.0129602926967
 31
0.0
  0
LINE
  5
   33F
  8
0
  6
DASHDOT
 62
     1
 10
6.65526296283757
 20
-98.2880105911197
 30
0.0
 11
-3.49647623112614
 21
-98.2880105911197
 31
0.0
  0
LINE
  5
   340
  8
0
  6
DASHDOT
 62
     1
 10
-22.9206899063361
 20
-103.363820208022
 30
0.0
 11
-22.9206899063361
 21
-89.0129602926967
 31
0.0
  0
LINE
  5
   341
  8
0
  6
DASHDOT
 62
     1
 10
-17.8449975664679
 20
-98.2881278681542
 30
0.0
 11
-27.9963822462043
 21
-98.2881278681542
 31
0.0
  0
LINE
  5
   342
  8
0
  6
CONTINUOUS
 62
     1
 10
-10.1281968833796
 20
-0.462979501485293
 30
0.0
 11
-10.1282161670126
 21
30.5119208754125
 31
0.0
  0
LINE
  5
   343
  8
0
  6
CONTINUOUS
 62
     1
 10
-8.86819738123243
 20
-0.462979501485293
 30
0.0
 11
-8.86821630102453
 21
30.5119227618907
 31
0.0
  0
LINE
  5
   344
  8
0
  6
CONTINUOUS
 62
     1
 10
-7.43319722550975
 20
-0.462979501485293
 30
0.0
 11
-7.43321650914528
 21
30.5119249103795
 31
0.0
  0
LINE
  5
   345
  8
0
  6
CONTINUOUS
 62
     1
 10
-6.17319755452713
 20
-0.462979501485293
 30
0.0
 11
-6.17321683816383
 21
30.5119267968573
 31
0.0
  0
LINE
  5
   346
  8
0
  6
CONTINUOUS
 62
     1
 10
-4.91320773994317
 20
-0.462979501485293
 30
0.0
 11
-4.91322520437025
 21
30.5119286833231
 31
0.0
  0
LINE
  5
   347
  8
0
  6
CONTINUOUS
 62
     1
 10
-3.65320573245875
 20
-0.462979501485293
 30
0.0
 11
-3.6532231968869
 21
30.5119305698044
 31
0.0
  0
LINE
  5
   348
  8
0
  6
CONTINUOUS
 62
     1
 10
-2.39320636418223
 20
-0.462979501485293
 30
0.0
 11
-2.39322965008668
 21
30.511932456273
 31
0.0
  0
LINE
  5
   349
  8
0
  6
CONTINUOUS
 62
     1
 10
-1.13320705806554
 20
-0.462979501485293
 30
0.0
 11
-1.13322452249581
 21
30.511934342759
 31
0.0
  0
LINE
  5
   34A
  8
0
  6
CONTINUOUS
 62
     1
 10
-11.3882576742421
 20
-0.462979501485279
 30
0.0
 11
-11.3882387544523
 21
30.5119189889004
 31
0.0
  0
LINE
  5
   34B
  8
0
  6
CONTINUOUS
 62
     1
 10
-12.6482576867804
 20
-0.462979501485279
 30
0.0
 11
-12.6482373116237
 21
30.5119171024243
 31
0.0
  0
LINE
  5
   34C
  8
0
  6
CONTINUOUS
 62
     1
 10
-13.9082578526147
 20
-0.462979501485293
 30
0.0
 11
-13.9082385689852
 21
30.5119152159441
 31
0.0
  0
LINE
  5
   34D
  8
0
  6
CONTINUOUS
 62
     1
 10
-15.1682575235973
 20
-0.462979501485293
 30
0.0
 11
-15.168238239969
 21
30.5119133294663
 31
0.0
  0
LINE
  5
   34E
  8
0
  6
CONTINUOUS
 62
     1
 10
-16.4282473383022
 20
-0.462979501485293
 30
0.0
 11
-16.4282298739376
 21
30.5119114430005
 31
0.0
  0
LINE
  5
   34F
  8
0
  6
CONTINUOUS
 62
     1
 10
-17.6882493457866
 20
-0.462979501485293
 30
0.0
 11
-17.6882318814231
 21
30.5119095565192
 31
0.0
  0
LINE
  5
   350
  8
0
  6
CONTINUOUS
 62
     1
 10
-18.9482487140993
 20
-0.462979501485293
 30
0.0
 11
-18.9482254282822
 21
30.5119076700506
 31
0.0
  0
LINE
  5
   351
  8
0
  6
CONTINUOUS
 62
     1
 10
-20.2082480201798
 20
-0.462979501485293
 30
0.0
 11
-20.2082305558184
 21
30.5119057835646
 31
0.0
  0
LINE
  5
   352
  8
0
  6
CONTINUOUS
 62
     1
 10
-21.4682526046008
 20
-0.462979501485279
 30
0.0
 11
-21.4682526046008
 21
11.734590815895
 31
0.0
  0
LINE
  5
   353
  8
0
  6
CONTINUOUS
 62
     1
 10
-22.7282385903582
 20
-0.462979501485279
 30
0.0
 11
-22.7282385903582
 21
10.766814425524
 31
0.0
  0
LINE
  5
   354
  8
0
  6
CONTINUOUS
 62
     1
 10
-23.9882405978424
 20
-0.462979501485279
 30
0.0
 11
-23.9882405978424
 21
11.1786262120586
 31
0.0
  0
LINE
  5
   355
  8
0
  6
CONTINUOUS
 62
     1
 10
-25.2482373892036
 20
-0.462979501485293
 30
0.0
 11
-25.2482141033865
 21
30.5118982376761
 31
0.0
  0
LINE
  5
   356
  8
0
  6
CONTINUOUS
 62
     1
 10
-26.5082393966882
 20
-0.462979501485293
 30
0.0
 11
-26.5082161108725
 21
30.5118963511947
 31
0.0
  0
LINE
  5
   357
  8
0
  6
CONTINUOUS
 62
     1
 10
-27.7682414041727
 20
-0.462979501485293
 30
0.0
 11
-27.7682181183585
 21
30.5118944647134
 31
0.0
  0
LINE
  5
   358
  8
0
  6
CONTINUOUS
 62
     1
 10
-29.0282434116573
 20
-0.462979501485293
 30
0.0
 11
-29.0282201258445
 21
30.5118925782321
 31
0.0
  0
LINE
  5
   359
  8
0
  6
CONTINUOUS
 62
     1
 10
-30.2882347379906
 20
-0.462979501485293
 30
0.0
 11
-30.2882114521792
 21
30.5118906917668
 31
0.0
  0
LINE
  5
   35A
  8
0
  6
CONTINUOUS
 62
     1
 10
-31.5482367454752
 20
-0.462979501485293
 30
0.0
 11
-31.5482134596652
 21
30.5118888052855
 31
0.0
  0
LINE
  5
   35B
  8
0
  6
CONTINUOUS
 62
     1
 10
-32.8082387529477
 20
-0.462979501485293
 30
0.0
 11
-32.8082154671338
 21
30.5118869188042
 31
0.0
  0
LINE
  5
   35C
  8
0
  6
CONTINUOUS
 62
     1
 10
-34.0682407604323
 20
-0.462979501485293
 30
0.0
 11
-34.0682174746198
 21
30.5118850323229
 31
0.0
  0
LINE
  5
   35D
  8
0
  6
CONTINUOUS
 62
     1
 10
1.38678885280933
 20
-96.7239550884613
 30
0.0
 11
1.38678885280933
 21
-89.0129602926967
 31
0.0
  0
LINE
  5
   35E
  8
0
  6
CONTINUOUS
 62
     1
 10
2.64679086029355
 20
-97.128688072271
 30
0.0
 11
2.64679086029355
 21
-89.0129602926967
 31
0.0
  0
LINE
  5
   35F
  8
0
  6
CONTINUOUS
 62
     1
 10
0.126797526476366
 20
-97.6770020467772
 30
0.0
 11
0.126797526476366
 21
-89.0129602926967
 31
0.0
  0
LINE
  5
   360
  8
0
  6
CONTINUOUS
 62
     1
 10
-21.4682526046008
 20
-97.6771995896546
 30
0.0
 11
-21.4682526046008
 21
-89.0129602926967
 31
0.0
  0
LINE
  5
   361
  8
0
  6
CONTINUOUS
 62
     1
 10
-22.7282385903582
 20
-96.7242321018319
 30
0.0
 11
-22.7282385903582
 21
-89.0129602926967
 31
0.0
  0
LINE
  5
   362
  8
0
  6
CONTINUOUS
 62
     1
 10
-23.9882405978424
 20
-97.1291874046243
 30
0.0
 11
-23.9882405978424
 21
-89.0129602926967
 31
0.0
  0
LINE
  5
   363
  8
0
  6
DASHDOT
 62
     7
 10
-10.6707248687744
 20
-118.68982594651
 30
0.0
 11
-10.6707248687744
 21
36.6639126805291
 31
0.0
  0
LINE
  5
   364
  8
0
  6
DASHDOT
 62
     7
 10
13.8292726278305
 20
-10.2631405076208
 30
0.0
 11
13.8292726278305
 21
34.524680148015
 31
0.0
  0
LINE
  5
   365
  8
0
  6
DASHDOT
 62
     7
 10
-35.1707223653793
 20
-10.2631405076208
 30
0.0
 11
-35.1707223653793
 21
34.524680148015
 31
0.0
  0
LINE
  5
   366
  8
0
  6
CONTINUOUS
 62
     1
 10
-71.3958328788582
 20
28.0618293955673
 30
0.0
 11
25.5538438321987
 21
28.0619745491079
 31
0.0
  0
LINE
  5
   367
  8
0
  6
CONTINUOUS
 62
     1
 10
0.126792813188224
 20
-0.462978791065893
 30
0.0
 11
0.1267859547602
 21
11.7011292690673
 31
0.0
  0
LINE
  5
   368
  8
0
  6
CONTINUOUS
 62
     1
 10
1.38679268444199
 20
-0.462978080646494
 30
0.0
 11
1.38678636334371
 21
10.7481218783029
 31
0.0
  0
LINE
  5
   369
  8
0
  6
CONTINUOUS
 62
     1
 10
2.64679255569575
 20
-0.46297737022708
 30
0.0
 11
2.64678600627662
 21
11.1530724035139
 31
0.0
  0
LINE
  5
   36A
  8
0
  6
CONTINUOUS
 62
     1
 10
3.90679242694951
 20
-0.462976659807666
 30
0.0
 11
3.90677496251634
 21
30.5119418886714
 31
0.0
  0
LINE
  5
   36B
  8
0
  6
CONTINUOUS
 62
     1
 10
5.16679229820328
 20
-0.462975949388252
 30
0.0
 11
5.16677483376936
 21
30.5119437751495
 31
0.0
  0
LINE
  5
   36C
  8
0
  6
CONTINUOUS
 62
     1
 10
6.42679216945704
 20
-0.462975238968838
 30
0.0
 11
6.42677470502245
 21
30.5119456616276
 31
0.0
  0
LINE
  5
   36D
  8
0
  6
CONTINUOUS
 62
     1
 10
7.68679204071081
 20
-0.462974528549424
 30
0.0
 11
7.68677457627545
 21
30.5119475481057
 31
0.0
  0
LINE
  5
   36E
  8
0
  6
CONTINUOUS
 62
     1
 10
8.94679191196457
 20
-0.46297381813001
 30
0.0
 11
8.94677444752845
 21
30.5119494345838
 31
0.0
  0
LINE
  5
   36F
  8
0
  6
CONTINUOUS
 62
     1
 10
10.2067917832183
 20
-0.462973107710596
 30
0.0
 11
10.2067743187814
 21
30.5119513210619
 31
0.0
  0
LINE
  5
   370
  8
0
  6
CONTINUOUS
 62
     1
 10
11.4667916544721
 20
-0.462972397291168
 30
0.0
 11
11.4667741900345
 21
30.51195320754
 31
0.0
  0
LINE
  5
   371
  8
0
  6
CONTINUOUS
 62
     1
 10
12.7267915257259
 20
-0.462971686871725
 30
0.0
 11
12.7267740612875
 21
30.5119550940182
 31
0.0
  0
LINE
  5
   372
  8
0
  6
CONTINUOUS
 62
     1
 10
13.9867913969796
 20
-0.462970976452297
 30
0.0
 11
13.9867739325405
 21
30.5119569804963
 31
0.0
  0
LINE
  5
   373
  8
0
  6
CONTINUOUS
 62
     1
 10
15.2467912682334
 20
-0.462970266032841
 30
0.0
 11
15.2467738037935
 21
30.5119588669744
 31
0.0
  0
LINE
  5
   374
  8
0
  6
CONTINUOUS
 62
     1
 10
16.5067911394872
 20
-0.462969555613412
 30
0.0
 11
16.5067736750465
 21
30.5119607534525
 31
0.0
  0
LINE
  5
   375
  8
0
  6
CONTINUOUS
 62
     1
 10
17.7667910107409
 20
-0.462968845193956
 30
0.0
 11
17.7667735462995
 21
30.5119626399306
 31
0.0
  0
LINE
  5
   376
  8
0
  6
CONTINUOUS
 62
     1
 10
19.0267908819947
 20
-0.462968134774513
 30
0.0
 11
19.0267734175524
 21
30.5119645264087
 31
0.0
  0
LINE
  5
   377
  8
0
  6
CONTINUOUS
 62
     1
 10
20.2867907532484
 20
-0.462967424355057
 30
0.0
 11
20.2867732888054
 21
30.5119664128868
 31
0.0
  0
LINE
  5
   378
  8
0
  6
CONTINUOUS
 62
     1
 10
21.5467906245022
 20
-0.462966713935586
 30
0.0
 11
21.5467731600584
 21
30.5119682993649
 31
0.0
  0
LINE
  5
   379
  8
0
  6
CONTINUOUS
 62
     1
 10
22.806790495756
 20
-0.462966003516115
 30
0.0
 11
22.8067730313114
 21
30.511970185843
 31
0.0
  0
LINE
  5
   37A
  8
0
  6
CONTINUOUS
 62
     1
 10
24.0667903670097
 20
-0.462965293096644
 30
0.0
 11
24.0667729025643
 21
30.5119720723211
 31
0.0
  0
LINE
  5
   37B
  8
0
  6
CONTINUOUS
 62
     1
 10
25.3267902382635
 20
-0.462964582677174
 30
0.0
 11
25.3267727738173
 21
30.5119739587992
 31
0.0
  0
LINE
  5
   37C
  8
0
  6
DASHDOT
 62
     7
 10
-47.420687402941
 20
7.23632499840386
 30
0.0
 11
-47.420687402941
 21
32.0465328003526
 31
0.0
  0
LINE
  5
   37D
  8
0
  6
DASHDOT
 62
     7
 10
-42.3449950630728
 20
12.3120173382721
 30
0.0
 11
-52.4963797428092
 21
12.3120173382721
 31
0.0
  0
CIRCLE
  5
   37E
  8
0
  6
CONTINUOUS
 62
     1
 10
-47.420687402941
 20
12.3120173382721
 30
0.0
 40
1.57569269749607
  0
LINE
  5
   37F
  8
0
  6
DASHDOT
 62
     7
 10
-47.420687402941
 20
-103.363820208022
 30
0.0
 11
-47.420687402941
 21
-89.0129602926967
 31
0.0
  0
LINE
  5
   380
  8
0
  6
DASHDOT
 62
     7
 10
-42.3449950630728
 20
-98.2881278681542
 30
0.0
 11
-52.4963797428092
 21
-98.2881278681542
 31
0.0
  0
CIRCLE
  5
   381
  8
0
  6
CONTINUOUS
 62
     1
 10
-47.420687402941
 20
-98.2881278681542
 30
0.0
 40
1.57569269749607
  0
LINE
  5
   382
  8
0
  6
CONTINUOUS
 62
     1
 10
-59.6707198619568
 20
-10.2631771891395
 30
0.0
 11
-59.6707198619568
 21
30.5118467001283
 31
0.0
  0
LINE
  5
   383
  8
0
  6
CONTINUOUS
 62
     1
 10
-47.9282125169048
 20
-116.488120698725
 30
0.0
 11
-47.9282125169048
 21
-89.0129602926967
 31
0.0
  0
LINE
  5
   384
  8
0
  6
CONTINUOUS
 62
     1
 10
-49.1882123881587
 20
-116.488122585203
 30
0.0
 11
-49.1882123881587
 21
-89.0129602926967
 31
0.0
  0
LINE
  5
   385
  8
0
  6
CONTINUOUS
 62
     1
 10
-50.4482122594127
 20
-116.488124471681
 30
0.0
 11
-50.4482122594127
 21
-89.0129602926967
 31
0.0
  0
LINE
  5
   386
  8
0
  6
CONTINUOUS
 62
     1
 10
-51.7082121306666
 20
-116.48812635816
 30
0.0
 11
-51.7082121306666
 21
-89.0129602926967
 31
0.0
  0
LINE
  5
   387
  8
0
  6
CONTINUOUS
 62
     1
 10
-52.9682120019206
 20
-116.488128244638
 30
0.0
 11
-52.9682120019206
 21
-89.0129602926967
 31
0.0
  0
LINE
  5
   388
  8
0
  6
CONTINUOUS
 62
     1
 10
-54.2282118731746
 20
-116.488130131116
 30
0.0
 11
-54.2282118731746
 21
-89.0129602926967
 31
0.0
  0
LINE
  5
   389
  8
0
  6
CONTINUOUS
 62
     1
 10
-55.4882117444285
 20
-116.488132017594
 30
0.0
 11
-55.4882117444285
 21
-89.0129602926967
 31
0.0
  0
LINE
  5
   38A
  8
0
  6
CONTINUOUS
 62
     1
 10
-56.7482116156825
 20
-116.488133904072
 30
0.0
 11
-56.7482116156825
 21
-89.0129602926967
 31
0.0
  0
LINE
  5
   38B
  8
0
  6
CONTINUOUS
 62
     1
 10
-58.0082114869365
 20
-116.48813579055
 30
0.0
 11
-58.0082114869365
 21
-89.0129602926967
 31
0.0
  0
LINE
  5
   38C
  8
0
  6
CONTINUOUS
 62
     1
 10
-59.2682113581904
 20
-116.488137677028
 30
0.0
 11
-59.2682113581904
 21
-89.0129602926967
 31
0.0
  0
LINE
  5
   38D
  8
0
  6
CONTINUOUS
 62
     1
 10
-60.5282112294444
 20
-116.488139563506
 30
0.0
 11
-60.5282112294444
 21
-89.0129602926967
 31
0.0
  0
LINE
  5
   38E
  8
0
  6
CONTINUOUS
 62
     1
 10
-61.7882111006984
 20
-116.488141449984
 30
0.0
 11
-61.7882111006984
 21
-89.0129602926967
 31
0.0
  0
LINE
  5
   38F
  8
0
  6
CONTINUOUS
 62
     1
 10
-63.0482109719523
 20
-116.488143336463
 30
0.0
 11
-63.0482109719523
 21
-89.0129602926967
 31
0.0
  0
LINE
  5
   390
  8
0
  6
CONTINUOUS
 62
     1
 10
-64.3082108432063
 20
-116.488145222941
 30
0.0
 11
-64.3082108432063
 21
-89.0129602926967
 31
0.0
  0
LINE
  5
   391
  8
0
  6
CONTINUOUS
 62
     1
 10
-65.5682107144602
 20
-116.488147109419
 30
0.0
 11
-65.5682107144602
 21
-89.0129602926967
 31
0.0
  0
LINE
  5
   392
  8
0
  6
CONTINUOUS
 62
     1
 10
-66.8282105857142
 20
-116.488148995897
 30
0.0
 11
-66.8282105857142
 21
-89.0129602926967
 31
0.0
  0
LINE
  5
   393
  8
0
  6
CONTINUOUS
 62
     1
 10
-68.0882104569682
 20
-116.488150882375
 30
0.0
 11
-68.0882104569682
 21
-89.0129602926967
 31
0.0
  0
LINE
  5
   394
  8
0
  6
CONTINUOUS
 62
     1
 10
-69.3482103282221
 20
-116.488152768853
 30
0.0
 11
-69.3482103282221
 21
-89.0129602926967
 31
0.0
  0
LINE
  5
   395
  8
0
  6
CONTINUOUS
 62
     1
 10
-70.6082101994761
 20
-116.488154655331
 30
0.0
 11
-70.6082101994761
 21
-89.0129602926967
 31
0.0
  0
LINE
  5
   396
  8
0
  6
CONTINUOUS
 62
     1
 10
-47.9282125169048
 20
-0.462952338363991
 30
0.0
 11
-47.9282125169048
 21
30.511864281069
 31
0.0
  0
LINE
  5
   397
  8
0
  6
CONTINUOUS
 62
     1
 10
-49.1882123881587
 20
-0.462951419743121
 30
0.0
 11
-49.1882123881587
 21
30.5118623945909
 31
0.0
  0
LINE
  5
   398
  8
0
  6
CONTINUOUS
 62
     1
 10
-50.4482122594127
 20
-0.462950501122251
 30
0.0
 11
-50.4482122594127
 21
30.5118605081128
 31
0.0
  0
LINE
  5
   399
  8
0
  6
CONTINUOUS
 62
     1
 10
-51.7082121306666
 20
-0.462949582501381
 30
0.0
 11
-51.7082121306666
 21
30.5118586216347
 31
0.0
  0
LINE
  5
   39A
  8
0
  6
CONTINUOUS
 62
     1
 10
-52.9682120019206
 20
-0.462948663880525
 30
0.0
 11
-52.9682120019206
 21
30.5118567351566
 31
0.0
  0
LINE
  5
   39B
  8
0
  6
CONTINUOUS
 62
     1
 10
-54.2282118731746
 20
-0.462947745259655
 30
0.0
 11
-54.2282118731746
 21
30.5118548486785
 31
0.0
  0
LINE
  5
   39C
  8
0
  6
CONTINUOUS
 62
     1
 10
-55.4882117444285
 20
-0.462946826638785
 30
0.0
 11
-55.4882117444285
 21
30.5118529622004
 31
0.0
  0
LINE
  5
   39D
  8
0
  6
CONTINUOUS
 62
     1
 10
-56.7482116156825
 20
-0.462945908017929
 30
0.0
 11
-56.7482116156825
 21
30.5118510757223
 31
0.0
  0
LINE
  5
   39E
  8
0
  6
CONTINUOUS
 62
     1
 10
-58.0082114869365
 20
-0.462944989397059
 30
0.0
 11
-58.0082114869365
 21
30.5118491892442
 31
0.0
  0
LINE
  5
   39F
  8
0
  6
CONTINUOUS
 62
     1
 10
-59.2682113581904
 20
-0.462944070776189
 30
0.0
 11
-59.2682113581904
 21
30.5118473027661
 31
0.0
  0
LINE
  5
   3A0
  8
0
  6
CONTINUOUS
 62
     1
 10
-60.5282112294444
 20
-0.462943152155333
 30
0.0
 11
-60.5282112294444
 21
30.511845416288
 31
0.0
  0
LINE
  5
   3A1
  8
0
  6
CONTINUOUS
 62
     1
 10
-61.7882111006984
 20
-0.462942233534463
 30
0.0
 11
-61.7882111006984
 21
30.5118435298099
 31
0.0
  0
LINE
  5
   3A2
  8
0
  6
CONTINUOUS
 62
     1
 10
-63.0482109719523
 20
-0.462941314913593
 30
0.0
 11
-63.0482109719523
 21
30.5118416433318
 31
0.0
  0
LINE
  5
   3A3
  8
0
  6
CONTINUOUS
 62
     1
 10
-64.3082108432063
 20
-0.462940396292723
 30
0.0
 11
-64.3082108432063
 21
30.5118397568537
 31
0.0
  0
LINE
  5
   3A4
  8
0
  6
CONTINUOUS
 62
     1
 10
-65.5682107144602
 20
-0.462939477671853
 30
0.0
 11
-65.5682107144602
 21
30.5118378703756
 31
0.0
  0
LINE
  5
   3A5
  8
0
  6
CONTINUOUS
 62
     1
 10
-66.8282105857142
 20
-0.462938559050997
 30
0.0
 11
-66.8282105857142
 21
30.5118359838975
 31
0.0
  0
LINE
  5
   3A6
  8
0
  6
CONTINUOUS
 62
     1
 10
-68.0882104569682
 20
-0.462937640430127
 30
0.0
 11
-68.0882104569682
 21
30.5118340974193
 31
0.0
  0
LINE
  5
   3A7
  8
0
  6
CONTINUOUS
 62
     1
 10
-69.3482103282221
 20
-0.462936721809257
 30
0.0
 11
-69.3482103282221
 21
30.5118322109412
 31
0.0
  0
LINE
  5
   3A8
  8
0
  6
CONTINUOUS
 62
     1
 10
-70.6082101994761
 20
-0.462935803188387
 30
0.0
 11
-70.6082101994761
 21
30.5118303244631
 31
0.0
  0
LINE
  5
   3A9
  8
0
  6
CONTINUOUS
 62
     1
 10
-47.9282125169048
 20
-74.3129662811756
 30
0.0
 11
-47.9282125169048
 21
-0.462952338363991
 31
0.0
  0
LINE
  5
   3AA
  8
0
  6
CONTINUOUS
 62
     1
 10
-49.1882123881587
 20
-74.3129662811756
 30
0.0
 11
-49.1882123881587
 21
-0.462951419743121
 31
0.0
  0
LINE
  5
   3AB
  8
0
  6
CONTINUOUS
 62
     1
 10
-50.4482122594127
 20
-74.3129662811756
 30
0.0
 11
-50.4482122594127
 21
-0.462950501122251
 31
0.0
  0
LINE
  5
   3AC
  8
0
  6
CONTINUOUS
 62
     1
 10
-51.7082121306666
 20
-74.3129662811756
 30
0.0
 11
-51.7082121306666
 21
-0.462949582501381
 31
0.0
  0
LINE
  5
   3AD
  8
0
  6
CONTINUOUS
 62
     1
 10
-52.9682120019206
 20
-74.3129662811756
 30
0.0
 11
-52.9682120019206
 21
-0.462948663880525
 31
0.0
  0
LINE
  5
   3AE
  8
0
  6
CONTINUOUS
 62
     1
 10
-54.2282118731746
 20
-74.3129662811756
 30
0.0
 11
-54.2282118731746
 21
-0.462947745259655
 31
0.0
  0
LINE
  5
   3AF
  8
0
  6
CONTINUOUS
 62
     1
 10
-55.4882117444285
 20
-74.3129662811756
 30
0.0
 11
-55.4882117444285
 21
-0.462946826638785
 31
0.0
  0
LINE
  5
   3B0
  8
0
  6
CONTINUOUS
 62
     1
 10
-56.7482116156825
 20
-74.3129662811756
 30
0.0
 11
-56.7482116156825
 21
-0.462945908017929
 31
0.0
  0
LINE
  5
   3B1
  8
0
  6
CONTINUOUS
 62
     1
 10
-58.0082114869365
 20
-74.3129662811756
 30
0.0
 11
-58.0082114869365
 21
-0.462944989397059
 31
0.0
  0
LINE
  5
   3B2
  8
0
  6
CONTINUOUS
 62
     1
 10
-59.2682113581904
 20
-74.3129662811756
 30
0.0
 11
-59.2682113581904
 21
-0.462944070776189
 31
0.0
  0
LINE
  5
   3B3
  8
0
  6
CONTINUOUS
 62
     1
 10
-60.5282112294444
 20
-74.3129662811756
 30
0.0
 11
-60.5282112294444
 21
-0.462943152155333
 31
0.0
  0
LINE
  5
   3B4
  8
0
  6
CONTINUOUS
 62
     1
 10
-61.7882111006984
 20
-74.3129662811756
 30
0.0
 11
-61.7882111006984
 21
-0.462942233534463
 31
0.0
  0
LINE
  5
   3B5
  8
0
  6
CONTINUOUS
 62
     1
 10
-63.0482109719523
 20
-74.3129662811756
 30
0.0
 11
-63.0482109719523
 21
-0.462941314913593
 31
0.0
  0
LINE
  5
   3B6
  8
0
  6
CONTINUOUS
 62
     1
 10
-64.3082108432063
 20
-74.3129662811756
 30
0.0
 11
-64.3082108432063
 21
-0.462940396292723
 31
0.0
  0
LINE
  5
   3B7
  8
0
  6
CONTINUOUS
 62
     1
 10
-65.5682107144602
 20
-74.3129662811756
 30
0.0
 11
-65.5682107144602
 21
-0.987974107265472
 31
0.0
  0
LINE
  5
   3B8
  8
0
  6
CONTINUOUS
 62
     1
 10
-66.8282105857142
 20
-74.3129662811756
 30
0.0
 11
-66.8282105857142
 21
-0.987974107265472
 31
0.0
  0
LINE
  5
   3B9
  8
0
  6
CONTINUOUS
 62
     1
 10
-68.0882104569682
 20
-74.3129662811756
 30
0.0
 11
-68.0882104569682
 21
-0.987974107265472
 31
0.0
  0
LINE
  5
   3BA
  8
0
  6
CONTINUOUS
 62
     1
 10
-69.3482103282221
 20
-74.3129662811756
 30
0.0
 11
-69.3482103282221
 21
-0.987974107265472
 31
0.0
  0
LINE
  5
   3BB
  8
0
  6
CONTINUOUS
 62
     1
 10
-70.6082101994761
 20
-74.3129662811756
 30
0.0
 11
-70.6082101994761
 21
-0.987974107265472
 31
0.0
  0
LINE
  5
   3BC
  8
0
  6
CONTINUOUS
 62
     1
 10
-47.9282125169048
 20
-88.4879624962809
 30
0.0
 11
-47.9282125169048
 21
-74.8379638910296
 31
0.0
  0
LINE
  5
   3BD
  8
0
  6
CONTINUOUS
 62
     1
 10
-49.1882123881587
 20
-88.4879624962809
 30
0.0
 11
-49.1882123881587
 21
-74.8379638910296
 31
0.0
  0
LINE
  5
   3BE
  8
0
  6
CONTINUOUS
 62
     1
 10
-50.4482122594127
 20
-88.4879624962809
 30
0.0
 11
-50.4482122594127
 21
-74.8379638910296
 31
0.0
  0
LINE
  5
   3BF
  8
0
  6
CONTINUOUS
 62
     1
 10
-51.7082121306666
 20
-88.4879624962809
 30
0.0
 11
-51.7082121306666
 21
-74.8379638910296
 31
0.0
  0
LINE
  5
   3C0
  8
0
  6
CONTINUOUS
 62
     1
 10
-52.9682120019206
 20
-88.4879624962809
 30
0.0
 11
-52.9682120019206
 21
-74.8379638910296
 31
0.0
  0
LINE
  5
   3C1
  8
0
  6
CONTINUOUS
 62
     1
 10
-54.2282118731746
 20
-88.4879624962809
 30
0.0
 11
-54.2282118731746
 21
-74.8379638910296
 31
0.0
  0
LINE
  5
   3C2
  8
0
  6
CONTINUOUS
 62
     1
 10
-55.4882117444285
 20
-88.4879624962809
 30
0.0
 11
-55.4882117444285
 21
-74.8379638910296
 31
0.0
  0
LINE
  5
   3C3
  8
0
  6
CONTINUOUS
 62
     1
 10
-56.7482116156825
 20
-88.4879624962809
 30
0.0
 11
-56.7482116156825
 21
-74.8379638910296
 31
0.0
  0
LINE
  5
   3C4
  8
0
  6
CONTINUOUS
 62
     1
 10
-58.0082114869365
 20
-88.4879624962809
 30
0.0
 11
-58.0082114869365
 21
-74.8379638910296
 31
0.0
  0
LINE
  5
   3C5
  8
0
  6
CONTINUOUS
 62
     1
 10
-59.2682113581904
 20
-88.4879624962809
 30
0.0
 11
-59.2682113581904
 21
-74.8379638910296
 31
0.0
  0
LINE
  5
   3C6
  8
0
  6
CONTINUOUS
 62
     1
 10
-60.5282112294444
 20
-88.4879624962809
 30
0.0
 11
-60.5282112294444
 21
-74.8379638910296
 31
0.0
  0
LINE
  5
   3C7
  8
0
  6
CONTINUOUS
 62
     1
 10
-61.7882111006984
 20
-88.4879624962809
 30
0.0
 11
-61.7882111006984
 21
-74.8379638910296
 31
0.0
  0
LINE
  5
   3C8
  8
0
  6
CONTINUOUS
 62
     1
 10
-63.0482109719523
 20
-88.4879624962809
 30
0.0
 11
-63.0482109719523
 21
-74.8379638910296
 31
0.0
  0
LINE
  5
   3C9
  8
0
  6
CONTINUOUS
 62
     1
 10
-64.3082108432063
 20
-88.4879624962809
 30
0.0
 11
-64.3082108432063
 21
-74.8379638910296
 31
0.0
  0
LINE
  5
   3CA
  8
0
  6
CONTINUOUS
 62
     1
 10
-65.5682107144602
 20
-88.4879624962809
 30
0.0
 11
-65.5682107144602
 21
-74.8379638910296
 31
0.0
  0
LINE
  5
   3CB
  8
0
  6
CONTINUOUS
 62
     1
 10
-66.8282105857142
 20
-88.4879624962809
 30
0.0
 11
-66.8282105857142
 21
-74.8379638910296
 31
0.0
  0
LINE
  5
   3CC
  8
0
  6
CONTINUOUS
 62
     1
 10
-68.0882104569682
 20
-88.4879624962809
 30
0.0
 11
-68.0882104569682
 21
-74.8379638910296
 31
0.0
  0
LINE
  5
   3CD
  8
0
  6
CONTINUOUS
 62
     1
 10
-69.3482103282221
 20
-88.4879624962809
 30
0.0
 11
-69.3482103282221
 21
-74.8379638910296
 31
0.0
  0
LINE
  5
   3CE
  8
0
  6
CONTINUOUS
 62
     1
 10
-70.6082101994761
 20
-88.4879624962809
 30
0.0
 11
-70.6082101994761
 21
-74.8379638910296
 31
0.0
  0
LINE
  5
   3CF
  8
0
  6
DASHDOT
 62
     7
 10
32.0588491065613
 20
-47.8879906773545
 30
0.0
 11
-79.8052627570283
 21
-47.8879906773545
 31
0.0
  0
LINE
  5
   3D0
  8
0
  6
DASHDOT
 62
     7
 10
6.65493250865545
 20
12.3120173382721
 30
0.0
 11
-3.49645217108096
 21
12.3120173382721
 31
0.0
  0
CIRCLE
  5
   3D1
  8
0
  6
CONTINUOUS
 62
     1
 10
1.57924016878724
 20
12.3120173382721
 30
0.0
 40
1.57569269749607
  0
LINE
  5
   3D2
  8
0
  6
DASHDOT
 62
     7
 10
1.57924016878723
 20
7.23632499840386
 30
0.0
 11
1.57924016878723
 21
32.4385656152327
 31
0.0
  0
LINE
  5
   3D3
  8
0
  6
CONTINUOUS
 62
     1
 10
0.126785265893213
 20
12.9229037696165
 30
0.0
 11
0.126775348757281
 21
30.5119362292371
 31
0.0
  0
LINE
  5
   3D4
  8
0
  6
CONTINUOUS
 62
     1
 10
1.38678459981716
 20
13.8759125812197
 30
0.0
 11
1.38677522001029
 21
30.5119381157153
 31
0.0
  0
LINE
  5
   3D5
  8
0
  6
CONTINUOUS
 62
     1
 10
2.64678469939171
 20
13.4709634768476
 30
0.0
 11
2.64677509126332
 21
30.5119400021933
 31
0.0
  0
LINE
  5
   3D6
  8
0
  6
CONTINUOUS
 62
     5
 10
-71.4832193100173
 20
30.5118290143951
 30
0.0
 11
25.6417707658093
 21
30.5119744304158
 31
0.0
  0
LINE
  5
   3D7
  8
0
  6
CONTINUOUS
 62
     5
 10
-71.9207186102867
 20
28.4118285739434
 30
0.0
 11
-71.9207186102867
 21
30.0743290590991
 31
0.0
  0
LINE
  5
   3D8
  8
0
  6
CONTINUOUS
 62
     5
 10
-71.9207186102867
 20
28.4118285739434
 30
0.0
 11
-71.5707186460495
 21
28.4118290979651
 31
0.0
  0
LINE
  5
   3D9
  8
0
  6
CONTINUOUS
 62
     5
 10
-71.5707186460495
 20
28.0618291337275
 30
0.0
 11
-71.5707186460495
 21
28.4118290979651
 31
0.0
  0
ARC
  5
   3DA
  8
0
  6
CONTINUOUS
 62
     5
 10
-71.4832186549902
 20
30.0743290590991
 30
0.0
 40
0.437499955296516
 50
89.9999999480344
 51
179.999999948034
  0
LINE
  5
   3DB
  8
0
  6
CONTINUOUS
 62
     5
 10
26.079271376133
 20
28.4091089512242
 30
0.0
 11
26.079271376133
 21
30.0744744751198
 31
0.0
  0
LINE
  5
   3DC
  8
0
  6
CONTINUOUS
 62
     5
 10
25.7292714118965
 20
28.0619748117587
 30
0.0
 11
25.7292714118965
 21
28.4119747759966
 31
0.0
  0
LINE
  5
   3DD
  8
0
  6
CONTINUOUS
 62
     5
 10
25.7292714118965
 20
28.4119747759967
 30
0.0
 11
26.079271376133
 21
28.4119753000184
 31
0.0
  0
ARC
  5
   3DE
  8
0
  6
CONTINUOUS
 62
     5
 10
25.6417714208365
 20
30.0744744751198
 30
0.0
 40
0.437499955296516
 50
359.999999948034
 51
449.999999948034
  0
LINE
  5
   3DF
  8
0
  6
CONTINUOUS
 62
     5
 10
25.7292714118965
 20
28.0619748117587
 30
0.0
 11
25.5538438321987
 21
28.0619748117587
 31
0.0
  0
LINE
  5
   3E0
  8
0
  6
CONTINUOUS
 62
     5
 10
-71.3956959575225
 20
28.0618291337275
 30
0.0
 11
-71.5707186460495
 21
28.0618291337275
 31
0.0
  0
LINE
  5
   3E1
  8
0
  6
CONTINUOUS
 62
     5
 10
-71.5705048451975
 20
-114.388156310658
 30
0.0
 11
-71.5705058932409
 21
-114.038156346422
 31
0.0
  0
LINE
  5
   3E2
  8
0
  6
CONTINUOUS
 62
     5
 10
-71.920504809702
 20
-114.38815683468
 30
0.0
 11
-71.5705048518529
 21
-114.388156310658
 31
0.0
  0
LINE
  5
   3E3
  8
0
  6
CONTINUOUS
 62
     5
 10
-71.9204998312267
 20
-116.050657319828
 30
0.0
 11
-71.9205048094347
 21
-114.38815683468
 31
0.0
  0
ARC
  5
   3E4
  8
0
  6
CONTINUOUS
 62
     5
 10
-71.4829998759321
 20
-116.050656009774
 30
0.0
 40
0.437499955296517
 50
180.000171515089
 51
270.000171515089
  0
LINE
  5
   3E5
  8
0
  6
CONTINUOUS
 62
     5
 10
-71.4829992213643
 20
-116.48815596507
 30
0.0
 11
25.6419908660946
 21
-116.488010549049
 31
0.0
  0
ARC
  5
   3E6
  8
0
  6
CONTINUOUS
 62
     5
 10
25.6419901998946
 20
-116.050510593753
 30
0.0
 40
0.437499955296517
 50
270.000171515089
 51
360.000171515089
  0
LINE
  5
   3E7
  8
0
  6
CONTINUOUS
 62
     5
 10
26.0794901551891
 20
-116.050509283699
 30
0.0
 11
26.079485168402
 21
-114.385143759811
 31
0.0
  0
LINE
  5
   3E8
  8
0
  6
CONTINUOUS
 62
     5
 10
25.7294852168876
 20
-114.388010632626
 30
0.0
 11
26.0794851840916
 21
-114.388010108605
 31
0.0
  0
LINE
  5
   3E9
  8
0
  6
CONTINUOUS
 62
     5
 10
25.7294852127485
 20
-114.388010632626
 30
0.0
 11
25.7294841647051
 21
-114.03801066839
 31
0.0
  0
LINE
  5
   3EA
  8
0
  6
CONTINUOUS
 62
     1
 10
-71.5705058938356
 20
-114.037957735657
 30
0.0
 11
-71.9207019240665
 21
-114.037957735657
 31
0.0
  0
LINE
  5
   3EB
  8
0
  6
CONTINUOUS
 62
     1
 10
25.7294841645466
 20
-114.037957735657
 30
0.0
 11
-71.5705058938356
 21
-114.037957735657
 31
0.0
  0
INSERT
  5
   3EC
  8
255
  6
CONTINUOUS
 62
     7
  2
MOSTRINA
 10
-56.9891100285677
 20
-86.3812048799747
 30
0.0
 41
0.349999964237213
 42
0.349999964237213
 50
359.999999792138
 43
0.349999964237213
  0
LINE
  5
   3ED
  8
0
  6
CONTINUOUS
 62
     1
 10
-37.2707221508026
 20
-74.3129662811756
 30
0.0
 11
-71.9207075107499
 21
-74.3129662811756
 31
0.0
  0
LINE
  5
   3EE
  8
0
  6
CONTINUOUS
 62
     1
 10
-37.2707221508026
 20
-74.6629662454129
 30
0.0
 11
-71.4831972926827
 21
-74.6629662454129
 31
0.0
  0
LINE
  5
   3EF
  8
0
  6
CONTINUOUS
 62
     1
 10
-37.2707221508026
 20
-74.8379638910296
 30
0.0
 11
-71.9207074369174
 21
-74.8379638910296
 31
0.0
  0
TEXT
  5
   3F0
  8
0
  6
CONTINUOUS
 62
     7
 10
38.3627907775508
 20
-62.035172232799
 30
0.0
 40
3.00000001532688
  1
=        =
 50
89.9999999480344
 41
0.916666680375734
 72
     1
 11
36.8627907820919
 21
-48.5601719629217
 31
0.0
 73
     2
  0
TEXT
  5
   3F1
  8
0
  6
CONTINUOUS
 62
     7
 10
-24.20175584871
 20
42.8161609895687
 30
0.0
 40
3.00000001532688
  1
=        =
 50
359.999999948034
 41
0.916666680375734
 72
     1
 11
-10.7267555788383
 21
44.3161609850784
 31
0.0
 73
     2
  0
INSERT
  5
   3F2
  8
0
  6
CONTINUOUS
 62
     7
  2
*UDIM520
 10
0.0
 20
0.0
 30
0.0
  0
INSERT
  5
   3F3
  8
0
  6
CONTINUOUS
 62
     7
  2
*UDIM521
 10
0.0
 20
0.0
 30
0.0
  0
INSERT
  5
   3F4
  8
0
  6
CONTINUOUS
 62
     7
  2
*UDIM522
 10
0.0
 20
0.0
 30
0.0
  0
INSERT
  5
   3F5
  8
0
  6
CONTINUOUS
 62
     7
  2
*UDIM523
 10
0.0
 20
0.0
 30
0.0
  0
INSERT
  5
   3F6
  8
0
  6
CONTINUOUS
 62
     7
  2
*UDIM524
 10
0.0
 20
0.0
 30
0.0
  0
INSERT
  5
   3F7
  8
0
  6
CONTINUOUS
 62
     7
  2
*UDIM525
 10
0.0
 20
0.0
 30
0.0
  0
INSERT
  5
   3F8
  8
0
  6
CONTINUOUS
 62
     7
  2
*UDIM526
 10
0.0
 20
0.0
 30
0.0
  0
INSERT
  5
   3F9
  8
0
  6
CONTINUOUS
 62
     7
  2
*UDIM527
 10
0.0
 20
0.0
 30
0.0
  0
TEXT
  5
   3FA
  8
0
  6
CONTINUOUS
 62
     7
 10
37.5805662404205
 20
-49.1374202472895
 30
0.0
 40
3.00000001532688
  1
X
 50
359.999999948034
 41
0.916666616797451
 72
     2
 11
39.7805661348351
 21
-49.1374202492738
 31
0.0
  0
TEXT
  5
   3FB
  8
0
  6
CONTINUOUS
 62
     7
 10
-91.7781943454897
 20
-49.9598996020308
 30
0.0
 40
3.00000001532688
  1
X
 50
359.999999948034
 41
0.916666616797451
 72
     2
 11
-89.5781944510751
 21
-49.9598996040151
 31
0.0
  0
INSERT
  5
   3FC
  8
0
  6
CONTINUOUS
 62
     7
  2
*UDIM528
 10
0.0
 20
0.0
 30
0.0
  0
INSERT
  5
   3FD
  8
0
  6
CONTINUOUS
 62
     7
  2
*UDIM529
 10
0.0
 20
0.0
 30
0.0
  0
INSERT
  5
   3FE
  8
0
  6
CONTINUOUS
 62
     7
  2
*UDIM530
 10
0.0
 20
0.0
 30
0.0
  0
LINE
  5
   3FF
  8
0
  6
CONTINUOUS
 62
     3
 10
98.7474878784491
 20
30.5120213252253
 30
0.0
 11
98.7474889714347
 21
1.28702033933537
 31
0.0
  0
LINE
  5
   400
  8
0
  6
CONTINUOUS
 62
     3
 10
98.2224884033203
 20
21.0619381904689
 30
0.0
 11
98.2224884033203
 21
25.2619377613155
 31
0.0
  0
LINE
  5
   401
  8
0
  6
CONTINUOUS
 62
   130
 10
131.822464340931
 20
1.28700021398274
 30
0.0
 11
131.822480362669
 21
28.0619365762218
 31
0.0
  0
LINE
  5
   402
  8
0
  6
CONTINUOUS
 62
     3
 10
99.7974814841519
 20
-38.7879739732293
 30
0.0
 11
100.059981788364
 21
-38.7176386032537
 31
0.0
  0
LINE
  5
   403
  8
0
  6
CONTINUOUS
 62
   130
 10
98.2224884033203
 20
-71.3379808905848
 30
0.0
 11
133.222463464745
 21
-71.3379669189422
 31
0.0
  0
LINE
  5
   404
  8
0
  6
CONTINUOUS
 62
   130
 10
133.222452783709
 20
-34.587954652073
 30
0.0
 11
133.222458124284
 21
-36.337954473259
 31
0.0
  0
LINE
  5
   405
  8
0
  6
CONTINUOUS
 62
   130
 10
133.222452783591
 20
-40.8879425294253
 30
0.0
 11
133.222458124165
 21
-71.3379714615166
 31
0.0
  0
LINE
  5
   406
  8
0
  6
CONTINUOUS
 62
     3
 10
98.7474887313976
 20
1.28701499325616
 30
0.0
 11
98.7474897327555
 21
-35.9159368328099
 31
0.0
  0
LINE
  5
   407
  8
0
  6
CONTINUOUS
 62
     3
 10
98.7474890516597
 20
-55.587968540544
 30
0.0
 11
98.7474893854456
 21
-41.3099609662591
 31
0.0
  0
LINE
  5
   408
  8
0
  6
CONTINUOUS
 62
     3
 10
98.7474889262162
 20
-60.8379699399251
 30
0.0
 11
98.7474899275737
 21
-70.4629689564485
 31
0.0
  0
LINE
  5
   409
  8
0
  6
CONTINUOUS
 62
     3
 10
98.747490018606
 20
-70.4629686772822
 30
0.0
 11
99.0974876463414
 21
-70.4629686772822
 31
0.0
  0
LINE
  5
   40A
  8
0
  6
CONTINUOUS
 62
     3
 10
99.0974879801274
 20
-71.3379805412952
 30
0.0
 11
99.0974879801274
 21
-70.4629676130491
 31
0.0
  0
LINE
  5
   40B
  8
0
  6
CONTINUOUS
 62
     3
 10
99.0974879801274
 20
-41.2161857865658
 30
0.0
 11
99.0974879801274
 21
-38.7879755854601
 31
0.0
  0
LINE
  5
   40C
  8
0
  6
CONTINUOUS
 62
     3
 10
99.0974879801274
 20
-36.5129704773426
 30
0.0
 11
99.0974879801274
 21
-36.0097387172391
 31
0.0
  0
LINE
  5
   40D
  8
0
  6
CONTINUOUS
 62
     3
 10
98.2224884033203
 20
-55.5879685282707
 30
0.0
 11
98.7474893510341
 21
-55.5879685282707
 31
0.0
  0
LINE
  5
   40E
  8
0
  6
CONTINUOUS
 62
     3
 10
98.2224884033203
 20
-60.8379679918289
 30
0.0
 11
98.7474890172481
 21
-60.8379679918289
 31
0.0
  0
LINE
  5
   40F
  8
0
  6
CONTINUOUS
 62
     3
 10
98.2224884033203
 20
-60.8379679918289
 30
0.0
 11
98.2224884033203
 21
-55.5879685282707
 31
0.0
  0
LINE
  5
   410
  8
0
  6
CONTINUOUS
 62
     3
 10
99.7974814841519
 20
-38.7879739732293
 30
0.0
 11
100.059981788364
 21
-38.7176386032537
 31
0.0
  0
LINE
  5
   411
  8
0
  6
CONTINUOUS
 62
     3
 10
100.059984791935
 20
-38.7176472925722
 30
0.0
 11
100.25214804559
 21
-38.5254827106642
 31
0.0
  0
LINE
  5
   412
  8
0
  6
CONTINUOUS
 62
     3
 10
100.252151736606
 20
-38.5254798247166
 30
0.0
 11
100.32247142763
 21
-38.2629958818465
 31
0.0
  0
LINE
  5
   413
  8
0
  6
CONTINUOUS
 62
     3
 10
100.322470498085
 20
-38.2629714429182
 30
0.0
 11
100.322471165657
 21
-37.037971568088
 31
0.0
  0
LINE
  5
   414
  8
0
  6
CONTINUOUS
 62
     3
 10
100.252144112269
 20
-36.7754785438627
 30
0.0
 11
100.322469137142
 21
-37.0379785095919
 31
0.0
  0
LINE
  5
   415
  8
0
  6
CONTINUOUS
 62
     3
 10
100.059980297807
 20
-36.5833166121668
 30
0.0
 11
100.252143554136
 21
-36.775475851396
 31
0.0
  0
LINE
  5
   416
  8
0
  6
CONTINUOUS
 62
     3
 10
99.7974826404928
 20
-36.512978016034
 30
0.0
 11
100.059982611746
 21
-36.5833187314157
 31
0.0
  0
LINE
  5
   417
  8
0
  6
CONTINUOUS
 62
     3
 10
99.0974879801274
 20
-36.5129704773426
 30
0.0
 11
99.7974829018121
 21
-36.5129704773426
 31
0.0
  0
LINE
  5
   418
  8
0
  6
CONTINUOUS
 62
     3
 10
99.0974879801274
 20
-38.7879702448845
 30
0.0
 11
99.7974829018121
 21
-38.7879702448845
 31
0.0
  0
LINE
  5
   419
  8
0
  6
CONTINUOUS
 62
   130
 10
131.822463738045
 20
-34.5879863570892
 30
0.0
 11
131.82246907862
 21
1.28700997722511
 31
0.0
  0
LINE
  5
   41A
  8
0
  6
CONTINUOUS
 62
   130
 10
131.82246360779
 20
-34.5879813551892
 30
0.0
 11
133.222452783588
 21
-34.5879813551892
 31
0.0
  0
LINE
  5
   41B
  8
0
  6
CONTINUOUS
 62
   130
 10
131.822455795915
 20
-17.4630819169901
 30
0.0
 11
131.997461113318
 21
-17.416191666798
 31
0.0
  0
LINE
  5
   41C
  8
0
  6
CONTINUOUS
 62
   130
 10
131.822451675906
 20
-20.2128190701586
 30
0.0
 11
131.997462337924
 21
-20.2597146550971
 31
0.0
  0
LINE
  5
   41D
  8
0
  6
CONTINUOUS
 62
   130
 10
99.097487373913
 20
-70.4629687386398
 30
0.0
 11
122.897484942043
 21
-70.4629704075685
 31
0.0
  0
LINE
  5
   41E
  8
0
  6
CONTINUOUS
 62
   130
 10
122.897485882044
 20
-71.3379650351308
 30
0.0
 11
122.897485882044
 21
-70.4629704651134
 31
0.0
  0
LINE
  5
   41F
  8
0
  6
CONTINUOUS
 62
   130
 10
101.628677489405
 20
-36.6879514260636
 30
0.0
 11
132.872454814512
 21
-36.6879727883655
 31
0.0
  0
LINE
  5
   420
  8
0
  6
CONTINUOUS
 62
   130
 10
101.628674523259
 20
-40.5379510326718
 30
0.0
 11
132.872451848367
 21
-40.5379723949737
 31
0.0
  0
LINE
  5
   421
  8
0
  6
CONTINUOUS
 62
     3
 10
98.747491494705
 20
-35.9159408684897
 30
0.0
 11
99.0974879801274
 21
-36.009722188093
 31
0.0
  0
LINE
  5
   422
  8
0
  6
CONTINUOUS
 62
     3
 10
98.7474843148551
 20
-41.30996540113
 30
0.0
 11
99.0974879801274
 21
-41.2161820928975
 31
0.0
  0
LINE
  5
   423
  8
0
  6
CONTINUOUS
 62
   130
 10
132.872479017305
 20
-36.6879536763831
 30
0.0
 11
133.222468289612
 21
-36.3379590641953
 31
0.0
  0
LINE
  5
   424
  8
0
  6
CONTINUOUS
 62
   130
 10
132.872454719304
 20
-40.5379675067023
 30
0.0
 11
133.222454671561
 21
-40.8879674589595
 31
0.0
  0
LINE
  5
   425
  8
0
  6
CONTINUOUS
 62
   130
 10
131.997549039119
 20
-0.812963443995613
 30
0.0
 11
131.997549039119
 21
28.0619361263132
 31
0.0
  0
LINE
  5
   426
  8
0
  6
CONTINUOUS
 62
   130
 10
131.997549039119
 20
28.0619374752132
 30
0.0
 11
133.222527551647
 21
28.0619374752132
 31
0.0
  0
LINE
  5
   427
  8
0
  6
CONTINUOUS
 62
     2
 10
146.347568935147
 20
-0.462979501485279
 30
0.0
 11
146.522414040573
 21
-0.462979501485279
 31
0.0
  0
LINE
  5
   428
  8
0
  6
CONTINUOUS
 62
   130
 10
142.147558683149
 20
28.0619374752132
 30
0.0
 11
142.84748346397
 21
28.0619374752132
 31
0.0
  0
LINE
  5
   429
  8
0
  6
CONTINUOUS
 62
     2
 10
146.697568400053
 20
27.6244316638513
 30
0.0
 11
146.697589762354
 21
-0.462953314096936
 31
0.0
  0
LINE
  5
   42A
  8
0
  6
CONTINUOUS
 62
     2
 10
145.647483557463
 20
-0.81296894359447
 30
0.0
 11
146.347563923876
 21
-0.81294758166932
 31
0.0
  0
LINE
  5
   42B
  8
0
  6
CONTINUOUS
 62
   130
 10
144.492471926214
 20
-0.812963443995613
 30
0.0
 11
145.647483557463
 21
-0.812963443995613
 31
0.0
  0
LINE
  5
   42C
  8
0
  6
CONTINUOUS
 62
     2
 10
143.197569257012
 20
28.0619374752132
 30
0.0
 11
145.822504901884
 21
28.0619374752132
 31
0.0
  0
LINE
  5
   42D
  8
0
  6
CONTINUOUS
 62
   130
 10
133.222527551647
 20
28.0619374752132
 30
0.0
 11
142.147558683149
 21
28.0619374752132
 31
0.0
  0
LINE
  5
   42E
  8
0
  6
CONTINUOUS
 62
     2
 10
146.347568935147
 20
-0.462952798607148
 30
0.0
 11
146.697590261687
 21
-0.462952798607148
 31
0.0
  0
LINE
  5
   42F
  8
0
  6
CONTINUOUS
 62
     2
 10
146.347568935147
 20
-0.812947422268735
 30
0.0
 11
146.347568935147
 21
-0.462952798607148
 31
0.0
  0
LINE
  5
   430
  8
0
  6
CONTINUOUS
 62
     2
 10
146.260018228213
 20
28.0618156308088
 30
0.0
 11
146.56937640998
 21
27.9336418285406
 31
0.0
  0
LINE
  5
   431
  8
0
  6
CONTINUOUS
 62
     2
 10
146.569442758294
 20
27.9337134967669
 30
0.0
 11
146.697584529042
 21
27.6243873700673
 31
0.0
  0
LINE
  5
   432
  8
0
  6
CONTINUOUS
 62
   130
 10
132.347570365659
 20
-0.462947458031522
 30
0.0
 11
132.347570365659
 21
28.0619374752132
 31
0.0
  0
LINE
  5
   433
  8
0
  6
CONTINUOUS
 62
   130
 10
132.347565358882
 20
-0.462949794558114
 30
0.0
 11
146.34756392837
 21
-0.462955135133427
 31
0.0
  0
LINE
  5
   434
  8
0
  6
CONTINUOUS
 62
     2
 10
146.347478145362
 20
-74.662963908911
 30
0.0
 11
146.347478145362
 21
-74.3129662811756
 31
0.0
  0
LINE
  5
   435
  8
0
  6
CONTINUOUS
 62
     2
 10
144.947473164523
 20
-0.987979048734445
 30
0.0
 11
144.947478505095
 21
-74.312966215855
 31
0.0
  0
LINE
  5
   436
  8
0
  6
CONTINUOUS
 62
   130
 10
144.597473224627
 20
-0.987976753770624
 30
0.0
 11
144.597478565199
 21
-74.6629638851284
 31
0.0
  0
LINE
  5
   437
  8
0
  6
CONTINUOUS
 62
   130
 10
144.5974729836
 20
-0.987974107265472
 30
0.0
 11
144.947473164523
 21
-0.987974107265472
 31
0.0
  0
LINE
  5
   438
  8
0
  6
CONTINUOUS
 62
   130
 10
144.597478324175
 20
-74.662963908911
 30
0.0
 11
145.297483593225
 21
-74.662963908911
 31
0.0
  0
LINE
  5
   439
  8
0
  6
CONTINUOUS
 62
     2
 10
144.947473164523
 20
-0.987974107265472
 30
0.0
 11
146.697478109599
 21
-0.987974107265472
 31
0.0
  0
LINE
  5
   43A
  8
0
  6
CONTINUOUS
 62
     2
 10
146.697478109599
 20
-74.3129662811756
 30
0.0
 11
146.697478109599
 21
-66.262977784871
 31
0.0
  0
LINE
  5
   43B
  8
0
  6
CONTINUOUS
 62
     2
 10
146.697478109599
 20
-29.5129925549008
 30
0.0
 11
146.697478109599
 21
-0.987979447841099
 31
0.0
  0
LINE
  5
   43C
  8
0
  6
CONTINUOUS
 62
     2
 10
147.309974407052
 20
-29.513000744914
 30
0.0
 11
147.397469055193
 21
-29.6005007328973
 31
0.0
  0
LINE
  5
   43D
  8
0
  6
CONTINUOUS
 62
     2
 10
147.309966574925
 20
-66.2629762061731
 30
0.0
 11
147.397466562989
 21
-66.175475886202
 31
0.0
  0
LINE
  5
   43E
  8
0
  6
CONTINUOUS
 62
     2
 10
147.397478038073
 20
-66.175472787022
 30
0.0
 11
147.397478038073
 21
-29.6004978865358
 31
0.0
  0
LINE
  5
   43F
  8
0
  6
CONTINUOUS
 62
     2
 10
144.947478288413
 20
-74.3129662811756
 30
0.0
 11
146.347478145362
 21
-74.3129662811756
 31
0.0
  0
LINE
  5
   440
  8
0
  6
CONTINUOUS
 62
   130
 10
133.222463464739
 20
-40.8879967331859
 30
0.0
 11
133.222463464739
 21
-36.3380078792534
 31
0.0
  0
LINE
  5
   441
  8
0
  6
CONTINUOUS
 62
   130
 10
133.222463464739
 20
-34.5880133986429
 30
0.0
 11
133.222463464739
 21
-34.2380080938301
 31
0.0
  0
LINE
  5
   442
  8
0
  6
CONTINUOUS
 62
   130
 10
133.222463464739
 20
-71.3379669189451
 30
0.0
 11
144.597478324175
 21
-71.3379669189451
 31
0.0
  0
LINE
  5
   443
  8
0
  6
CONTINUOUS
 62
     7
 10
145.647483557463
 20
-0.987974107265472
 30
0.0
 11
145.647483557463
 21
-0.812979465722492
 31
0.0
  0
LINE
  5
   444
  8
0
  6
CONTINUOUS
 62
   130
 10
131.997463589909
 20
-34.2379707098007
 30
0.0
 11
131.997463589909
 21
-0.812974125146866
 31
0.0
  0
LINE
  5
   445
  8
0
  6
CONTINUOUS
 62
   130
 10
131.997463589909
 20
-34.2379707098007
 30
0.0
 11
133.222463464739
 21
-34.2379707098007
 31
0.0
  0
LINE
  5
   446
  8
0
  6
CONTINUOUS
 62
   130
 10
131.997463589909
 20
-0.812974125146866
 30
0.0
 11
133.222463464739
 21
-0.812974125146866
 31
0.0
  0
LINE
  5
   447
  8
0
  6
CONTINUOUS
 62
   130
 10
133.222459500732
 20
-0.812974689015093
 30
0.0
 11
144.492473302782
 21
-0.812980029590221
 31
0.0
  0
LINE
  5
   448
  8
0
  6
CONTINUOUS
 62
   130
 10
144.492477266789
 20
-16.8254671484237
 30
0.0
 11
144.492477266789
 21
-0.812979465722492
 31
0.0
  0
LINE
  5
   449
  8
0
  6
CONTINUOUS
 62
   130
 10
144.492461245063
 20
-71.3379709211274
 30
0.0
 11
144.492477266789
 21
-20.8504707393338
 31
0.0
  0
LINE
  5
   44A
  8
0
  6
CONTINUOUS
 62
   130
 10
144.492471926214
 20
-9.91297319531441
 30
0.0
 11
144.5974729836
 21
-9.91297319531441
 31
0.0
  0
LINE
  5
   44B
  8
0
  6
CONTINUOUS
 62
   130
 10
144.492471926214
 20
-11.3129730522633
 30
0.0
 11
144.5974729836
 21
-11.3129730522633
 31
0.0
  0
LINE
  5
   44C
  8
0
  6
CONTINUOUS
 62
   130
 10
133.222463464739
 20
-70.4629670083523
 30
0.0
 11
144.492477266789
 21
-70.4629670083523
 31
0.0
  0
LINE
  5
   44D
  8
0
  6
CONTINUOUS
 62
   130
 10
142.847462481262
 20
-16.8254671484237
 30
0.0
 11
144.597478324175
 21
-16.8254671484237
 31
0.0
  0
LINE
  5
   44E
  8
0
  6
CONTINUOUS
 62
   130
 10
142.847462481262
 20
-20.8504667371517
 30
0.0
 11
142.847462481262
 21
-16.8254671484237
 31
0.0
  0
LINE
  5
   44F
  8
0
  6
CONTINUOUS
 62
   130
 10
142.847462481262
 20
-20.8504667371517
 30
0.0
 11
144.5974729836
 21
-20.8504667371517
 31
0.0
  0
LINE
  5
   450
  8
0
  6
CONTINUOUS
 62
   130
 10
147.397478038073
 20
-66.2629731118673
 30
0.0
 11
147.397478038073
 21
-66.175473120808
 31
0.0
  0
LINE
  5
   451
  8
0
  6
CONTINUOUS
 62
   130
 10
147.397477505129
 20
-29.6005130197203
 30
0.0
 11
147.397482845705
 21
-29.5129916663585
 31
0.0
  0
LINE
  5
   452
  8
0
  6
CONTINUOUS
 62
   130
 10
147.397478038073
 20
-66.2629731118673
 30
0.0
 11
149.497483164072
 21
-66.2629731118673
 31
0.0
  0
LINE
  5
   453
  8
0
  6
CONTINUOUS
 62
   130
 10
151.422482967377
 20
-66.2629731118673
 30
0.0
 11
151.422482967377
 21
-64.6004569262277
 31
0.0
  0
LINE
  5
   454
  8
0
  6
CONTINUOUS
 62
   130
 10
151.422482967377
 20
-57.6004576414834
 30
0.0
 11
151.422482967377
 21
-42.3754698783159
 31
0.0
  0
LINE
  5
   455
  8
0
  6
CONTINUOUS
 62
   130
 10
151.422482967377
 20
-61.1879732966418
 30
0.0
 11
151.422482967377
 21
-57.9504576057207
 31
0.0
  0
LINE
  5
   456
  8
0
  6
CONTINUOUS
 62
   130
 10
151.422482967377
 20
-34.5879920363404
 30
0.0
 11
151.422482967377
 21
-33.7129921257474
 31
0.0
  0
LINE
  5
   457
  8
0
  6
CONTINUOUS
 62
   130
 10
151.247472020463
 20
-29.5129980567131
 30
0.0
 11
151.37121849586
 21
-29.5642568938691
 31
0.0
  0
LINE
  5
   458
  8
0
  6
CONTINUOUS
 62
   130
 10
147.397481922625
 20
-29.5129847868088
 30
0.0
 11
149.497483164072
 21
-29.5129906129032
 31
0.0
  0
LINE
  5
   459
  8
0
  6
CONTINUOUS
 62
   130
 10
147.309972706438
 20
-66.2629731118673
 30
0.0
 11
147.397478038073
 21
-66.2629731118673
 31
0.0
  0
LINE
  5
   45A
  8
0
  6
CONTINUOUS
 62
   130
 10
151.386279205207
 20
-57.6004576414834
 30
0.0
 11
151.422482967377
 21
-57.6004576414834
 31
0.0
  0
LINE
  5
   45B
  8
0
  6
CONTINUOUS
 62
   130
 10
151.386279205207
 20
-42.3754698783159
 30
0.0
 11
151.422482967377
 21
-42.3754698783159
 31
0.0
  0
LINE
  5
   45C
  8
0
  6
CONTINUOUS
 62
     3
 10
98.2224884033203
 20
21.0619381904689
 30
0.0
 11
98.7474883496761
 21
21.0619381904689
 31
0.0
  0
LINE
  5
   45D
  8
0
  6
CONTINUOUS
 62
     3
 10
98.2224884033203
 20
25.2619377613155
 30
0.0
 11
98.7474883496761
 21
25.2619377613155
 31
0.0
  0
LINE
  5
   45E
  8
0
  6
CONTINUOUS
 62
   130
 10
100.32246321872
 20
-40.3629556502053
 30
0.0
 11
101.302124695118
 21
-40.6254609228744
 31
0.0
  0
LINE
  5
   45F
  8
0
  6
CONTINUOUS
 62
   130
 10
100.322456314435
 20
-40.3629520580573
 30
0.0
 11
100.322470333444
 21
-38.2629736349366
 31
0.0
  0
LINE
  5
   460
  8
0
  6
CONTINUOUS
 62
   130
 10
100.322459759261
 20
-36.8629516230838
 30
0.0
 11
100.322471107984
 21
-37.0379729675049
 31
0.0
  0
LINE
  5
   461
  8
0
  6
CONTINUOUS
 62
   130
 10
100.322450527949
 20
-36.8629639257846
 30
0.0
 11
101.302114019423
 21
-36.6004693445969
 31
0.0
  0
LINE
  5
   462
  8
0
  6
CONTINUOUS
 62
     2
 10
145.822504901884
 20
28.0619374752132
 30
0.0
 11
146.260068944088
 21
28.0619374752132
 31
0.0
  0
LINE
  5
   463
  8
0
  6
CONTINUOUS
 62
     2
 10
146.347478145362
 20
-74.3129662811756
 30
0.0
 11
146.697478109599
 21
-74.3129662811756
 31
0.0
  0
LINE
  5
   464
  8
0
  6
CONTINUOUS
 62
     2
 10
146.697478109599
 20
-29.5129925549008
 30
0.0
 11
147.309983387589
 21
-29.5129925549008
 31
0.0
  0
LINE
  5
   465
  8
0
  6
CONTINUOUS
 62
     2
 10
146.697478109599
 20
-66.2629731118673
 30
0.0
 11
147.309978047014
 21
-66.2629731118673
 31
0.0
  0
LINE
  5
   466
  8
0
  6
CONTINUOUS
 62
   210
 10
171.004091675123
 20
-66.8130627722394
 30
0.0
 11
171.783291352625
 21
-64.0956759822972
 31
0.0
  0
LINE
  5
   467
  8
0
  6
CONTINUOUS
 62
   210
 10
151.422482967377
 20
-61.9123394043122
 30
0.0
 11
162.235736209433
 21
-65.0129823947864
 31
0.0
  0
LINE
  5
   468
  8
0
  6
CONTINUOUS
 62
   210
 10
162.235558120466
 20
-65.012938802333
 30
0.0
 11
170.584391565731
 21
-67.0565585676993
 31
0.0
  0
LINE
  5
   469
  8
0
  6
CONTINUOUS
 62
   210
 10
170.58441008357
 20
-67.0565641554882
 30
0.0
 11
170.843273948468
 21
-67.0193365135357
 31
0.0
  0
LINE
  5
   46A
  8
0
  6
CONTINUOUS
 62
   210
 10
170.843287049925
 20
-67.0193366956175
 30
0.0
 11
171.004088444759
 21
-66.8130685568881
 31
0.0
  0
LINE
  5
   46B
  8
0
  6
CONTINUOUS
 62
   210
 10
171.75622294093
 20
-63.8355556737048
 30
0.0
 11
171.783281629031
 21
-64.0956834256421
 31
0.0
  0
LINE
  5
   46C
  8
0
  6
CONTINUOUS
 62
   210
 10
171.556422598901
 20
-63.6668001042588
 30
0.0
 11
171.756224008757
 21
-63.8355520318099
 31
0.0
  0
LINE
  5
   46D
  8
0
  6
CONTINUOUS
 62
   210
 10
163.39323373038
 20
-60.9756555546541
 30
0.0
 11
171.556394202772
 21
-63.6667910589613
 31
0.0
  0
LINE
  5
   46E
  8
0
  6
CONTINUOUS
 62
   210
 10
151.422482967377
 20
-57.5431021474451
 30
0.0
 11
163.393330139202
 21
-60.9756873375897
 31
0.0
  0
LINE
  5
   46F
  8
0
  6
CONTINUOUS
 62
   130
 10
162.235591661786
 20
-65.012942981232
 30
0.0
 11
163.393269771816
 21
-60.9756649029752
 31
0.0
  0
LINE
  5
   470
  8
0
  6
CONTINUOUS
 62
     5
 10
98.2224884033203
 20
-96.7129782977847
 30
0.0
 11
98.7474883496761
 21
-96.71297808821
 31
0.0
  0
LINE
  5
   471
  8
0
  6
CONTINUOUS
 62
     5
 10
98.2224884033203
 20
-111.23797681363
 30
0.0
 11
98.2224884033203
 21
-107.037977242783
 31
0.0
  0
LINE
  5
   472
  8
0
  6
CONTINUOUS
 62
     5
 10
98.2224884033203
 20
-106.862977260665
 30
0.0
 11
98.2224884033203
 21
-71.3379669189453
 31
0.0
  0
LINE
  5
   473
  8
0
  6
CONTINUOUS
 62
     5
 10
98.7474883496761
 20
-116.487976067614
 30
0.0
 11
98.7474883496761
 21
-96.71297808821
 31
0.0
  0
LINE
  5
   474
  8
0
  6
CONTINUOUS
 62
     5
 10
98.2224884033203
 20
-107.037977242783
 30
0.0
 11
98.7474855553459
 21
-107.03797703321
 31
0.0
  0
LINE
  5
   475
  8
0
  6
CONTINUOUS
 62
     5
 10
98.2224884033203
 20
-111.23797681363
 30
0.0
 11
98.7474872319441
 21
-111.237976604056
 31
0.0
  0
LINE
  5
   476
  8
0
  6
CONTINUOUS
 62
     5
 10
145.297483593225
 20
-88.6629603284595
 30
0.0
 11
145.297483593225
 21
-88.4879624962809
 31
0.0
  0
LINE
  5
   477
  8
0
  6
CONTINUOUS
 62
     1
 10
146.697483450174
 20
-114.037957735657
 30
0.0
 11
146.697483450174
 21
-89.0129602926967
 31
0.0
  0
LINE
  5
   478
  8
0
  6
CONTINUOUS
 62
     1
 10
145.297483593225
 20
-114.037957735657
 30
0.0
 11
146.697483450174
 21
-114.037957735657
 31
0.0
  0
LINE
  5
   479
  8
0
  6
CONTINUOUS
 62
   130
 10
133.39748480916
 20
-88.6629603284595
 30
0.0
 11
145.297483593225
 21
-88.6629603284595
 31
0.0
  0
LINE
  5
   47A
  8
0
  6
CONTINUOUS
 62
     1
 10
146.697483450174
 20
-88.4879624962809
 30
0.0
 11
146.697483450174
 21
-74.8379638910296
 31
0.0
  0
LINE
  5
   47B
  8
0
  6
CONTINUOUS
 62
   130
 10
133.39748480916
 20
-114.037962486019
 30
0.0
 11
133.39748480916
 21
-88.6629603284595
 31
0.0
  0
LINE
  5
   47C
  8
0
  6
CONTINUOUS
 62
   130
 10
133.39748480916
 20
-89.0129602926967
 30
0.0
 11
146.697483450174
 21
-89.0129602926967
 31
0.0
  0
LINE
  5
   47D
  8
0
  6
CONTINUOUS
 62
     1
 10
146.347483485937
 20
-89.0129602926967
 30
0.0
 11
146.347483485937
 21
-88.6629603284595
 31
0.0
  0
LINE
  5
   47E
  8
0
  6
CONTINUOUS
 62
   130
 10
144.597478324175
 20
-74.8379638910296
 30
0.0
 11
144.947478288413
 21
-74.8379638910296
 31
0.0
  0
LINE
  5
   47F
  8
0
  6
CONTINUOUS
 62
   130
 10
144.597478324175
 20
-88.4879624962809
 30
0.0
 11
144.947478288413
 21
-88.4879624962809
 31
0.0
  0
LINE
  5
   480
  8
0
  6
CONTINUOUS
 62
   130
 10
144.597478324175
 20
-88.4879624962809
 30
0.0
 11
144.597478324175
 21
-74.8379638910296
 31
0.0
  0
LINE
  5
   481
  8
0
  6
CONTINUOUS
 62
     1
 10
144.947478288413
 20
-88.4879624962809
 30
0.0
 11
144.947478288413
 21
-74.8379638910296
 31
0.0
  0
LINE
  5
   482
  8
0
  6
CONTINUOUS
 62
     5
 10
145.297483593225
 20
-74.8379638910296
 30
0.0
 11
145.297483593225
 21
-74.662963908911
 31
0.0
  0
LINE
  5
   483
  8
0
  6
CONTINUOUS
 62
   130
 10
133.572484791279
 20
-114.037962486019
 30
0.0
 11
133.572484791279
 21
-89.0129602926967
 31
0.0
  0
LINE
  5
   484
  8
0
  6
DASHDOT
 62
     7
 10
99.0141550611718
 20
12.1370192110544
 30
0.0
 11
120.415445901411
 21
12.1370192110544
 31
0.0
  0
LINE
  5
   485
  8
0
  6
DASHDOT
 62
     7
 10
98.2224884033203
 20
-121.087844737152
 30
0.0
 11
98.2224884033203
 21
-111.937978338445
 31
0.0
  0
LINE
  5
   486
  8
0
  6
DASHDOT
 62
     7
 10
97.1724885106087
 20
-121.087844737152
 30
0.0
 11
97.1724885106087
 21
-111.937978338445
 31
0.0
  0
LINE
  5
   487
  8
0
  6
CONTINUOUS
 62
     1
 10
145.297483593225
 20
-88.6629603284595
 30
0.0
 11
146.347483485937
 21
-88.6629603284595
 31
0.0
  0
LINE
  5
   488
  8
0
  6
CONTINUOUS
 62
     2
 10
145.297483593225
 20
-74.662963908911
 30
0.0
 11
146.347478145362
 21
-74.662963908911
 31
0.0
  0
LINE
  5
   489
  8
0
  6
CONTINUOUS
 62
     1
 10
144.947478288413
 20
-74.8379638910296
 30
0.0
 11
146.697483450174
 21
-74.8379638910296
 31
0.0
  0
LINE
  5
   48A
  8
0
  6
CONTINUOUS
 62
     1
 10
144.947478288413
 20
-88.4879624962809
 30
0.0
 11
146.697483450174
 21
-88.4879624962809
 31
0.0
  0
LINE
  5
   48B
  8
0
  6
CONTINUOUS
 62
   130
 10
99.0974879801274
 20
-36.009722188093
 30
0.0
 11
101.628678809946
 21
-36.6879530449023
 31
0.0
  0
LINE
  5
   48C
  8
0
  6
CONTINUOUS
 62
   130
 10
99.0974879801274
 20
-41.2161820928975
 30
0.0
 11
101.628669373209
 21
-40.5379532960787
 31
0.0
  0
LINE
  5
   48D
  8
0
  6
DASHDOT
 62
     7
 10
99.6896848745214
 20
-98.1129775690435
 30
0.0
 11
121.672346694417
 21
-98.1129687937831
 31
0.0
  0
LINE
  5
   48E
  8
0
  6
CONTINUOUS
 62
   130
 10
98.7474883496761
 20
-114.037976317953
 30
0.0
 11
142.847483773707
 21
-114.037958713673
 31
0.0
  0
LINE
  5
   48F
  8
0
  6
CONTINUOUS
 62
   130
 10
98.7474877836009
 20
28.0620215755569
 30
0.0
 11
131.997527110741
 21
28.0619361263695
 31
0.0
  0
ARC
  5
   490
  8
0
  6
CONTINUOUS
 62
   130
 10
124.1236596094
 20
-51.8998788086924
 30
0.0
 40
49.1749949753284
 50
333.054582767096
 51
360.0
  0
LINE
  5
   491
  8
0
  6
CONTINUOUS
 62
   130
 10
173.298654584729
 20
-51.8998788086924
 30
0.0
 11
173.298654584729
 21
-46.0936748082168
 31
0.0
  0
LINE
  5
   492
  8
0
  6
CONTINUOUS
 62
     1
 10
95.6006688708084
 20
34.7851123796408
 30
0.0
 11
99.6650918263474
 21
33.9872466359019
 31
0.0
  0
LINE
  5
   493
  8
0
  6
CONTINUOUS
 62
     1
 10
96.2203914051808
 20
-121.087844737152
 30
0.0
 11
99.2803934658265
 21
-121.087844737152
 31
0.0
  0
LINE
  5
   494
  8
0
  6
DASHDOT
 62
     7
 10
85.9439886494484
 20
-47.8878124171244
 30
0.0
 11
172.639543633163
 21
-47.8880529391172
 31
0.0
  0
LINE
  5
   495
  8
0
  6
CONTINUOUS
 62
     7
 10
68.4724914431572
 20
9.33701949715667
 30
0.0
 11
68.4724914431572
 21
14.9370189249521
 31
0.0
  0
LINE
  5
   496
  8
0
  6
CONTINUOUS
 62
     7
 10
68.4724914431572
 20
14.9370189249521
 30
0.0
 11
98.7474884609385
 21
14.9370189249521
 31
0.0
  0
LINE
  5
   497
  8
0
  6
CONTINUOUS
 62
     7
 10
68.4724914431572
 20
12.1370192110544
 30
0.0
 11
98.7474884609385
 21
12.1370192110544
 31
0.0
  0
LINE
  5
   498
  8
0
  6
CONTINUOUS
 62
     7
 10
68.4724914431572
 20
9.33701949715667
 30
0.0
 11
98.7474884609385
 21
9.33701949715667
 31
0.0
  0
LINE
  5
   499
  8
0
  6
DASHDOT
 62
     7
 10
73.3724909424782
 20
5.04018560584971
 30
0.0
 11
73.3724909424782
 21
17.644269887108
 31
0.0
  0
LINE
  5
   49A
  8
0
  6
DASHDOT
 62
     7
 10
81.0724901556969
 20
5.04018560584971
 30
0.0
 11
81.0724901556969
 21
17.644269887108
 31
0.0
  0
LINE
  5
   49B
  8
0
  6
CONTINUOUS
 62
     7
 10
68.4724914431572
 20
-106.862989136568
 30
0.0
 11
68.4724914431572
 21
-89.3629909247061
 31
0.0
  0
LINE
  5
   49C
  8
0
  6
CONTINUOUS
 62
     7
 10
68.4724914431572
 20
-89.3629909247061
 30
0.0
 11
98.2224884033203
 21
-89.3629790488027
 31
0.0
  0
LINE
  5
   49D
  8
0
  6
CONTINUOUS
 62
     7
 10
68.4724914431572
 20
-106.862989136568
 30
0.0
 11
98.7474883496761
 21
-106.86297705109
 31
0.0
  0
CIRCLE
  5
   49E
  8
0
  6
CONTINUOUS
 62
     7
 10
73.3724909424782
 20
-94.2629779624341
 30
0.0
 40
1.92499980330467
  0
CIRCLE
  5
   49F
  8
0
  6
CONTINUOUS
 62
     7
 10
81.0724901556969
 20
-94.2629779624341
 30
0.0
 40
1.92499980330467
  0
CIRCLE
  5
   4A0
  8
0
  6
CONTINUOUS
 62
     7
 10
73.3724909424782
 20
-101.962977175653
 30
0.0
 40
1.92499980330467
  0
CIRCLE
  5
   4A1
  8
0
  6
CONTINUOUS
 62
     7
 10
81.0724901556969
 20
-101.962977175653
 30
0.0
 40
1.92499980330467
  0
LINE
  5
   4A2
  8
0
  6
DASHDOT
 62
     7
 10
81.0724901556969
 20
-96.8879776942132
 30
0.0
 11
81.0724901556969
 21
-91.637978230655
 31
0.0
  0
LINE
  5
   4A3
  8
0
  6
DASHDOT
 62
     7
 10
78.4474904239178
 20
-94.2629779624341
 30
0.0
 11
83.697489887476
 21
-94.2629779624341
 31
0.0
  0
LINE
  5
   4A4
  8
0
  6
DASHDOT
 62
     7
 10
81.0724901556969
 20
-104.587976907432
 30
0.0
 11
81.0724901556969
 21
-99.3379774438737
 31
0.0
  0
LINE
  5
   4A5
  8
0
  6
DASHDOT
 62
     7
 10
78.4474904239178
 20
-101.962977175653
 30
0.0
 11
83.697489887476
 21
-101.962977175653
 31
0.0
  0
LINE
  5
   4A6
  8
0
  6
DASHDOT
 62
     7
 10
73.3724909424782
 20
-104.587976907432
 30
0.0
 11
73.3724909424782
 21
-99.3379774438737
 31
0.0
  0
LINE
  5
   4A7
  8
0
  6
DASHDOT
 62
     7
 10
70.7474912106991
 20
-101.962977175653
 30
0.0
 11
75.9974906742573
 21
-101.962977175653
 31
0.0
  0
LINE
  5
   4A8
  8
0
  6
DASHDOT
 62
     7
 10
73.3724909424782
 20
-96.8879776942132
 30
0.0
 11
73.3724909424782
 21
-91.637978230655
 31
0.0
  0
LINE
  5
   4A9
  8
0
  6
DASHDOT
 62
     7
 10
70.7474912106991
 20
-94.2629779624341
 30
0.0
 11
75.9974906742573
 21
-94.2629779624341
 31
0.0
  0
LINE
  5
   4AA
  8
0
  6
CONTINUOUS
 62
     3
 10
98.7474940798487
 20
30.5120213252093
 30
0.0
 11
142.584984615122
 21
30.5119086673593
 31
0.0
  0
LINE
  5
   4AB
  8
0
  6
CONTINUOUS
 62
     3
 10
143.022483446088
 20
28.2369374573318
 30
0.0
 11
143.022483446088
 21
30.0744087120643
 31
0.0
  0
ARC
  5
   4AC
  8
0
  6
CONTINUOUS
 62
     3
 10
142.584983490792
 20
30.0744087120643
 30
0.0
 40
0.437499955296516
 50
0.0
 51
89.999852755729
  0
ARC
  5
   4AD
  8
0
  6
CONTINUOUS
 62
     3
 10
142.84748346397
 20
28.2369374573318
 30
0.0
 40
0.174999982118607
 50
270.0
 51
360.0
  0
LINE
  5
   4AE
  8
0
  6
CONTINUOUS
 62
     2
 10
142.84748346397
 20
28.0619374752132
 30
0.0
 11
143.197569257012
 21
28.0619374752132
 31
0.0
  0
LINE
  5
   4AF
  8
0
  6
CONTINUOUS
 62
     5
 10
98.7474893276917
 20
-116.487976067614
 30
0.0
 11
142.584984045033
 21
-116.487958568121
 31
0.0
  0
LINE
  5
   4B0
  8
0
  6
CONTINUOUS
 62
     5
 10
143.022483825684
 20
-116.050458612825
 30
0.0
 11
143.022483825684
 21
-114.212958695792
 31
0.0
  0
ARC
  5
   4B1
  8
0
  6
CONTINUOUS
 62
     5
 10
142.847483843565
 20
-114.212958695792
 30
0.0
 40
0.174999982118607
 50
0.0
 51
90.0000228719063
  0
ARC
  5
   4B2
  8
0
  6
CONTINUOUS
 62
     5
 10
142.584983870387
 20
-116.050458612825
 30
0.0
 40
0.437499955296516
 50
270.000022871906
 51
360.0
  0
LINE
  5
   4B3
  8
0
  6
CONTINUOUS
 62
     5
 10
142.847483773707
 20
-114.037958713673
 30
0.0
 11
145.297483593225
 21
-114.037957735657
 31
0.0
  0
LINE
  5
   4B4
  8
0
  6
CONTINUOUS
 62
     1
 10
149.497483164072
 20
-64.2505031720237
 30
0.0
 11
149.497483164072
 21
-63.5505032435492
 31
0.0
  0
LINE
  5
   4B5
  8
0
  6
CONTINUOUS
 62
     1
 10
149.497483164072
 20
-64.2505031720237
 30
0.0
 11
150.197483092546
 21
-64.2505031720237
 31
0.0
  0
LINE
  5
   4B6
  8
0
  6
CONTINUOUS
 62
     1
 10
149.497483164072
 20
-26.4505083695485
 30
0.0
 11
149.497483164072
 21
-25.7505084410741
 31
0.0
  0
LINE
  5
   4B7
  8
0
  6
CONTINUOUS
 62
     1
 10
149.497483164072
 20
-25.7505084410741
 30
0.0
 11
150.197483092546
 21
-25.7505084410741
 31
0.0
  0
LINE
  5
   4B8
  8
0
  6
CONTINUOUS
 62
     1
 10
149.497483164072
 20
-63.5505032435492
 30
0.0
 11
149.497483164072
 21
-26.4505070344046
 31
0.0
  0
LINE
  5
   4B9
  8
0
  6
CONTINUOUS
 62
     1
 10
147.922483325005
 20
-20.9984375460226
 30
0.0
 11
147.922483325005
 21
-19.3025804805348
 31
0.0
  0
LINE
  5
   4BA
  8
0
  6
CONTINUOUS
 62
     1
 10
147.922483325005
 20
-70.6984297974191
 30
0.0
 11
147.922483325005
 21
-69.002575402219
 31
0.0
  0
LINE
  5
   4BB
  8
0
  6
CONTINUOUS
 62
     1
 10
150.197483092546
 20
-73.1755035952165
 30
0.0
 11
150.197483092546
 21
-16.8255093530252
 31
0.0
  0
LINE
  5
   4BC
  8
0
  6
CONTINUOUS
 62
     1
 10
150.197483092546
 20
-73.1755022600726
 30
0.0
 11
151.422482967377
 21
-73.1755022600726
 31
0.0
  0
LINE
  5
   4BD
  8
0
  6
CONTINUOUS
 62
     1
 10
151.422482967377
 20
-73.1755022600726
 30
0.0
 11
151.422482967377
 21
-16.8255080178813
 31
0.0
  0
LINE
  5
   4BE
  8
0
  6
CONTINUOUS
 62
     1
 10
150.197483092546
 20
-16.8255093530252
 30
0.0
 11
150.722483038902
 21
-16.8255093530252
 31
0.0
  0
LINE
  5
   4BF
  8
0
  6
CONTINUOUS
 62
     1
 10
151.07248300314
 20
-16.8255093530252
 30
0.0
 11
151.422482967377
 21
-16.8255093530252
 31
0.0
  0
LINE
  5
   4C0
  8
0
  6
CONTINUOUS
 62
     1
 10
147.922483395717
 20
-20.9984383009638
 30
0.0
 11
148.272483371478
 21
-21.200509663465
 31
0.0
  0
LINE
  5
   4C1
  8
0
  6
CONTINUOUS
 62
     1
 10
147.922482829321
 20
-19.3025813606398
 30
0.0
 11
148.272482805082
 21
-19.1005099981386
 31
0.0
  0
LINE
  5
   4C2
  8
0
  6
CONTINUOUS
 62
     1
 10
148.272483289242
 20
-21.2005089059903
 30
0.0
 11
148.272483289242
 21
-21.1741798681533
 31
0.0
  0
LINE
  5
   4C3
  8
0
  6
CONTINUOUS
 62
     1
 10
148.272483289242
 20
-21.2005089059903
 30
0.0
 11
150.197483092546
 21
-21.2005089059903
 31
0.0
  0
LINE
  5
   4C4
  8
0
  6
CONTINUOUS
 62
     1
 10
148.272483289242
 20
-21.1741798681533
 30
0.0
 11
148.272483289242
 21
-21.096522557973
 31
0.0
  0
LINE
  5
   4C5
  8
0
  6
CONTINUOUS
 62
     1
 10
148.272483289242
 20
-21.096522557973
 30
0.0
 11
148.272483289242
 21
-20.9714302550811
 31
0.0
  0
LINE
  5
   4C6
  8
0
  6
CONTINUOUS
 62
     1
 10
148.272483289242
 20
-20.9714302550811
 30
0.0
 11
148.272483289242
 21
-20.8051727952625
 31
0.0
  0
LINE
  5
   4C7
  8
0
  6
CONTINUOUS
 62
     1
 10
148.272483289242
 20
-20.8051727952625
 30
0.0
 11
148.272483289242
 21
-20.6060868170698
 31
0.0
  0
LINE
  5
   4C8
  8
0
  6
CONTINUOUS
 62
     1
 10
148.272483289242
 20
-20.6060868170698
 30
0.0
 11
148.272483289242
 21
-20.3841538563484
 31
0.0
  0
LINE
  5
   4C9
  8
0
  6
CONTINUOUS
 62
     1
 10
148.272483289242
 20
-20.3841538563484
 30
0.0
 11
148.272483289242
 21
-20.1505090132787
 31
0.0
  0
LINE
  5
   4CA
  8
0
  6
CONTINUOUS
 62
     1
 10
148.272483289242
 20
-20.1505090132787
 30
0.0
 11
148.272483289242
 21
-19.9168588296334
 31
0.0
  0
LINE
  5
   4CB
  8
0
  6
CONTINUOUS
 62
     1
 10
148.272483289242
 20
-19.9168588296334
 30
0.0
 11
148.272483289242
 21
-19.6949312094876
 31
0.0
  0
LINE
  5
   4CC
  8
0
  6
CONTINUOUS
 62
     1
 10
148.272483289242
 20
-19.6949312094876
 30
0.0
 11
148.272483289242
 21
-19.4958452312949
 31
0.0
  0
LINE
  5
   4CD
  8
0
  6
CONTINUOUS
 62
     1
 10
148.272483289242
 20
-19.4958452312949
 30
0.0
 11
148.272483289242
 21
-19.3295824309007
 31
0.0
  0
LINE
  5
   4CE
  8
0
  6
CONTINUOUS
 62
     1
 10
148.272483289242
 20
-19.3295824309007
 30
0.0
 11
148.272483289242
 21
-19.2044901280088
 31
0.0
  0
LINE
  5
   4CF
  8
0
  6
CONTINUOUS
 62
     1
 10
148.272483289242
 20
-19.2044901280088
 30
0.0
 11
148.272483289242
 21
-19.1268328178285
 31
0.0
  0
LINE
  5
   4D0
  8
0
  6
CONTINUOUS
 62
     1
 10
148.272483289242
 20
-19.1005091205671
 30
0.0
 11
150.197483092546
 21
-19.1005091205671
 31
0.0
  0
LINE
  5
   4D1
  8
0
  6
CONTINUOUS
 62
     1
 10
147.92248292457
 20
-70.6984300974398
 30
0.0
 11
148.272482900332
 21
-70.9005027813718
 31
0.0
  0
LINE
  5
   4D2
  8
0
  6
CONTINUOUS
 62
     1
 10
147.922482602099
 20
-69.0025760330907
 30
0.0
 11
148.272482577861
 21
-68.8005033491588
 31
0.0
  0
LINE
  5
   4D3
  8
0
  6
CONTINUOUS
 62
     1
 10
148.272483289242
 20
-70.9005024925307
 30
0.0
 11
150.197483092546
 21
-70.9005024925307
 31
0.0
  0
LINE
  5
   4D4
  8
0
  6
CONTINUOUS
 62
     1
 10
148.272483289242
 20
-70.7965201499451
 30
0.0
 11
148.272483289242
 21
-70.6714251767653
 31
0.0
  0
LINE
  5
   4D5
  8
0
  6
CONTINUOUS
 62
     1
 10
148.272483289242
 20
-70.6714251767653
 30
0.0
 11
148.272483289242
 21
-70.5051663818029
 31
0.0
  0
LINE
  5
   4D6
  8
0
  6
CONTINUOUS
 62
     1
 10
148.272483289242
 20
-70.5051663818029
 30
0.0
 11
148.272483289242
 21
-70.3060804036102
 31
0.0
  0
LINE
  5
   4D7
  8
0
  6
CONTINUOUS
 62
     1
 10
148.272483289242
 20
-70.3060804036102
 30
0.0
 11
148.272483289242
 21
-70.0841501131766
 31
0.0
  0
LINE
  5
   4D8
  8
0
  6
CONTINUOUS
 62
     1
 10
148.272483289242
 20
-70.0841501131766
 30
0.0
 11
148.272483289242
 21
-69.8505025998191
 31
0.0
  0
LINE
  5
   4D9
  8
0
  6
CONTINUOUS
 62
     1
 10
148.272483289242
 20
-69.8505025998191
 30
0.0
 11
148.272483289242
 21
-69.6168550864616
 31
0.0
  0
LINE
  5
   4DA
  8
0
  6
CONTINUOUS
 62
     1
 10
148.272483289242
 20
-69.6168550864616
 30
0.0
 11
148.272483289242
 21
-69.3949247960279
 31
0.0
  0
LINE
  5
   4DB
  8
0
  6
CONTINUOUS
 62
     1
 10
148.272483289242
 20
-69.3949247960279
 30
0.0
 11
148.272483289242
 21
-69.1958388178353
 31
0.0
  0
LINE
  5
   4DC
  8
0
  6
CONTINUOUS
 62
     1
 10
148.272483289242
 20
-69.1958388178353
 30
0.0
 11
148.272483289242
 21
-69.0295800228728
 31
0.0
  0
LINE
  5
   4DD
  8
0
  6
CONTINUOUS
 62
     1
 10
148.272483289242
 20
-69.0295800228728
 30
0.0
 11
148.272483289242
 21
-68.904485049693
 31
0.0
  0
LINE
  5
   4DE
  8
0
  6
CONTINUOUS
 62
     1
 10
148.272483289242
 20
-68.904485049693
 30
0.0
 11
148.272483289242
 21
-68.8268277395128
 31
0.0
  0
LINE
  5
   4DF
  8
0
  6
CONTINUOUS
 62
     1
 10
148.272483289242
 20
-68.8005027071074
 30
0.0
 11
150.197483092546
 21
-68.8005027071074
 31
0.0
  0
LINE
  5
   4E0
  8
0
  6
CONTINUOUS
 62
     1
 10
150.722483038902
 20
-16.8255093530252
 30
0.0
 11
151.07248300314
 21
-16.8255093530252
 31
0.0
  0
LINE
  5
   4E1
  8
0
  6
CONTINUOUS
 62
     7
 10
150.197483092546
 20
-16.8255093530252
 30
0.0
 11
150.197483092546
 21
8.61958961128542
 31
0.0
  0
LINE
  5
   4E2
  8
0
  6
CONTINUOUS
 62
     7
 10
149.497483164072
 20
-25.7505084410741
 30
0.0
 11
149.497483164072
 21
-21.2005089059903
 31
0.0
  0
LINE
  5
   4E3
  8
0
  6
CONTINUOUS
 62
     7
 10
150.197483092546
 20
-106.932068725162
 30
0.0
 11
150.197483092546
 21
-73.1755022600726
 31
0.0
  0
LINE
  5
   4E4
  8
0
  6
CONTINUOUS
 62
     7
 10
149.497483164072
 20
-107.135557076463
 30
0.0
 11
149.497483164072
 21
-70.9005024925307
 31
0.0
  0
LINE
  5
   4E5
  8
0
  6
CONTINUOUS
 62
     7
 10
147.053346378919
 20
-107.846061955868
 30
0.0
 11
152.642130509636
 21
-106.221415406241
 31
0.0
  0
LINE
  5
   4E6
  8
0
  6
CONTINUOUS
 62
     7
 10
147.768190860755
 20
10.1682634090528
 30
0.0
 11
152.967059819562
 21
6.85398444781332
 31
0.0
  0
LINE
  5
   4E7
  8
0
  6
CONTINUOUS
 62
     7
 10
149.497483164072
 20
-18.9255091384485
 30
0.0
 11
150.197483092546
 21
-18.9255091384485
 31
0.0
  0
LINE
  5
   4E8
  8
0
  6
CONTINUOUS
 62
     7
 10
149.497483164072
 20
-21.375508888109
 30
0.0
 11
150.197483092546
 21
-21.375508888109
 31
0.0
  0
LINE
  5
   4E9
  8
0
  6
CONTINUOUS
 62
     7
 10
149.497483164072
 20
-68.6255027249888
 30
0.0
 11
150.197483092546
 21
-68.6255027249888
 31
0.0
  0
LINE
  5
   4EA
  8
0
  6
CONTINUOUS
 62
     7
 10
149.497483164072
 20
-71.0755024746493
 30
0.0
 11
150.197483092546
 21
-71.0755024746493
 31
0.0
  0
LINE
  5
   4EB
  8
0
  6
CONTINUOUS
 62
     7
 10
149.497483164072
 20
-64.6005031362609
 30
0.0
 11
150.197483092546
 21
-64.6005031362609
 31
0.0
  0
LINE
  5
   4EC
  8
0
  6
CONTINUOUS
 62
     7
 10
149.497483164072
 20
-25.4005084768369
 30
0.0
 11
150.197483092546
 21
-25.4005084768369
 31
0.0
  0
LINE
  5
   4ED
  8
0
  6
CONTINUOUS
 62
     7
 10
149.497483164072
 20
-19.1005091205671
 30
0.0
 11
149.497483164072
 21
9.06583956568788
 31
0.0
  0
LINE
  5
   4EE
  8
0
  6
CONTINUOUS
 62
     7
 10
149.497483164072
 20
-68.8005027071074
 30
0.0
 11
149.497483164072
 21
-64.2505031720237
 31
0.0
  0
INSERT
  5
   4EF
  8
0
  6
CONTINUOUS
 62
     7
  2
*HATCH329
 10
98.2224884033203
 20
-71.3379669189453
 30
0.0
 41
0.349999964237213
 42
0.349999964237213
 43
0.349999964237213
  0
INSERT
  5
   4F0
  8
0
  6
CONTINUOUS
 62
     7
  2
*HATCH330
 10
98.2224884033203
 20
-71.3379669189453
 30
0.0
 41
0.349999964237213
 42
0.349999964237213
 43
0.349999964237213
  0
INSERT
  5
   4F1
  8
0
  6
CONTINUOUS
 62
     7
  2
*HATCH331
 10
98.2224884033203
 20
-71.3379669189453
 30
0.0
 41
0.349999964237213
 42
0.349999964237213
 43
0.349999964237213
  0
INSERT
  5
   4F2
  8
0
  6
CONTINUOUS
 62
     7
  2
*HATCH332
 10
98.2224884033203
 20
-71.3379669189453
 30
0.0
 41
0.349999964237213
 42
0.349999964237213
 43
0.349999964237213
  0
LINE
  5
   4F3
  8
0
  6
DASHDOT
 62
     7
 10
91.0541135370414
 20
23.1621661461356
 30
0.0
 11
101.281108991501
 21
23.1621377730855
 31
0.0
  0
LINE
  5
   4F4
  8
0
  6
CONTINUOUS
 62
     7
 10
95.7724886536598
 20
21.7621531988564
 30
0.0
 11
95.7724886536598
 21
24.5621529127649
 31
0.0
  0
LINE
  5
   4F5
  8
0
  6
CONTINUOUS
 62
     7
 10
94.372488796711
 20
22.2871570292745
 30
0.0
 11
94.372488796711
 21
24.0371568504673
 31
0.0
  0
LINE
  5
   4F6
  8
0
  6
CONTINUOUS
 62
     7
 10
95.7724886536598
 20
24.5621529127649
 30
0.0
 11
96.4724885225296
 21
24.5621509707349
 31
0.0
  0
LINE
  5
   4F7
  8
0
  6
CONTINUOUS
 62
     7
 10
95.7724886536598
 20
21.7621531988564
 30
0.0
 11
96.4724885225296
 21
21.7621512568265
 31
0.0
  0
LINE
  5
   4F8
  8
0
  6
CONTINUOUS
 62
     7
 10
94.372488796711
 20
24.0371568504673
 30
0.0
 11
96.4724885225296
 21
24.0371510243771
 31
0.0
  0
LINE
  5
   4F9
  8
0
  6
CONTINUOUS
 62
     7
 10
94.372488796711
 20
22.2871570292745
 30
0.0
 11
96.4724885225296
 21
22.2871512031843
 31
0.0
  0
LINE
  5
   4FA
  8
0
  6
CONTINUOUS
 62
     7
 10
95.7724886536598
 20
-107.737833569411
 30
0.0
 11
96.4724885225296
 21
-107.737835511441
 31
0.0
  0
LINE
  5
   4FB
  8
0
  6
CONTINUOUS
 62
     7
 10
94.372488796711
 20
-108.262829631708
 30
0.0
 11
96.4724885225296
 21
-108.262835457799
 31
0.0
  0
LINE
  5
   4FC
  8
0
  6
DASHDOT
 62
     7
 10
91.0541135370414
 20
-109.13782033604
 30
0.0
 11
101.281108991501
 21
-109.13784870909
 31
0.0
  0
LINE
  5
   4FD
  8
0
  6
CONTINUOUS
 62
     7
 10
94.372488796711
 20
-110.012829452901
 30
0.0
 11
96.4724885225296
 21
-110.012835278991
 31
0.0
  0
LINE
  5
   4FE
  8
0
  6
CONTINUOUS
 62
     7
 10
95.7724886536598
 20
-110.537833283319
 30
0.0
 11
96.4724885225296
 21
-110.537835225349
 31
0.0
  0
LINE
  5
   4FF
  8
0
  6
CONTINUOUS
 62
     7
 10
95.7724886536598
 20
-110.537833283319
 30
0.0
 11
95.7724886536598
 21
-107.737833569411
 31
0.0
  0
LINE
  5
   500
  8
0
  6
CONTINUOUS
 62
     7
 10
94.372488796711
 20
-110.012829452901
 30
0.0
 11
94.372488796711
 21
-108.262829631708
 31
0.0
  0
LINE
  5
   501
  8
0
  6
CONTINUOUS
 62
     2
 10
96.4724885225296
 20
-113.862978305662
 30
0.0
 11
97.1724885106087
 21
-113.862978305662
 31
0.0
  0
LINE
  5
   502
  8
0
  6
CONTINUOUS
 62
     2
 10
96.4724885225296
 20
-82.3629788421041
 30
0.0
 11
97.1724885106087
 21
-82.3629788421041
 31
0.0
  0
LINE
  5
   503
  8
0
  6
CONTINUOUS
 62
     2
 10
97.1724885106087
 20
-84.2879788093216
 30
0.0
 11
97.1724885106087
 21
-82.3629788421041
 31
0.0
  0
LINE
  5
   504
  8
0
  6
CONTINUOUS
 62
     2
 10
97.1724885106087
 20
-113.862978305662
 30
0.0
 11
97.1724885106087
 21
-111.937978338445
 31
0.0
  0
LINE
  5
   505
  8
0
  6
CONTINUOUS
 62
     2
 10
97.1724885106087
 20
-111.237978350366
 30
0.0
 11
97.1724885106087
 21
-106.862977679814
 31
0.0
  0
LINE
  5
   506
  8
0
  6
CONTINUOUS
 62
     2
 10
96.4724885225296
 20
-113.862978305662
 30
0.0
 11
96.4724885225296
 21
-106.862977959247
 31
0.0
  0
LINE
  5
   507
  8
0
  6
CONTINUOUS
 62
     2
 10
96.4724885225296
 20
-88.3129787407762
 30
0.0
 11
97.1724885106087
 21
-88.3129787407762
 31
0.0
  0
LINE
  5
   508
  8
0
  6
CONTINUOUS
 62
     2
 10
98.2224884927273
 20
-111.937978338445
 30
0.0
 11
98.2224884927273
 21
-106.862977260665
 31
0.0
  0
LINE
  5
   509
  8
0
  6
CONTINUOUS
 62
     2
 10
97.1724885106087
 20
-111.937978338445
 30
0.0
 11
98.2224884927273
 21
-111.937978338445
 31
0.0
  0
LINE
  5
   50A
  8
0
  6
CONTINUOUS
 62
     2
 10
97.1724885106087
 20
-111.237978350366
 30
0.0
 11
98.2224884927273
 21
-111.237978350366
 31
0.0
  0
LINE
  5
   50B
  8
0
  6
CONTINUOUS
 62
     2
 10
97.1724885106087
 20
-84.9879787974006
 30
0.0
 11
98.2224884927273
 21
-84.9879787974006
 31
0.0
  0
LINE
  5
   50C
  8
0
  6
CONTINUOUS
 62
     2
 10
97.1724885106087
 20
-84.2879788093216
 30
0.0
 11
98.2224884927273
 21
-84.2879788093216
 31
0.0
  0
LINE
  5
   50D
  8
0
  6
CONTINUOUS
 62
     2
 10
96.4724885225296
 20
-3.6129805207247
 30
0.0
 11
97.1724885106087
 21
-3.6129805207247
 31
0.0
  0
LINE
  5
   50E
  8
0
  6
CONTINUOUS
 62
     2
 10
96.4724885225296
 20
27.8870189428335
 30
0.0
 11
97.1724885106087
 21
27.8870189428335
 31
0.0
  0
LINE
  5
   50F
  8
0
  6
CONTINUOUS
 62
     2
 10
97.1724885106087
 20
25.962018975616
 30
0.0
 11
97.1724885106087
 21
27.8870189428335
 31
0.0
  0
LINE
  5
   510
  8
0
  6
CONTINUOUS
 62
     2
 10
97.1724885106087
 20
-3.6129805207247
 30
0.0
 11
97.1724885106087
 21
-1.68798055350726
 31
0.0
  0
LINE
  5
   511
  8
0
  6
CONTINUOUS
 62
     2
 10
97.1724885106087
 20
-0.987980565428188
 30
0.0
 11
97.1724885106087
 21
9.33701949715667
 31
0.0
  0
LINE
  5
   512
  8
0
  6
CONTINUOUS
 62
     2
 10
96.4724885225296
 20
-3.6129805207247
 30
0.0
 11
96.4724885225296
 21
9.33701949715667
 31
0.0
  0
LINE
  5
   513
  8
0
  6
CONTINUOUS
 62
     2
 10
96.4724885225296
 20
2.3370193779474
 30
0.0
 11
97.1724885106087
 21
2.3370193779474
 31
0.0
  0
LINE
  5
   514
  8
0
  6
CONTINUOUS
 62
     2
 10
96.4724885225296
 20
8.2870192766195
 30
0.0
 11
97.1724885106087
 21
8.2870192766195
 31
0.0
  0
LINE
  5
   515
  8
0
  6
CONTINUOUS
 62
     2
 10
96.4724885225296
 20
15.9870191454893
 30
0.0
 11
97.1724885106087
 21
15.9870191454893
 31
0.0
  0
LINE
  5
   516
  8
0
  6
CONTINUOUS
 62
     2
 10
98.2224884927273
 20
-1.68798055350726
 30
0.0
 11
98.2224884927273
 21
9.33701949715667
 31
0.0
  0
LINE
  5
   517
  8
0
  6
CONTINUOUS
 62
     2
 10
97.1724885106087
 20
5.41615789057346
 30
0.0
 11
98.2224884927273
 21
5.41615789057346
 31
0.0
  0
LINE
  5
   518
  8
0
  6
CONTINUOUS
 62
     2
 10
97.1724885106087
 20
18.8578805315353
 30
0.0
 11
98.2224884927273
 21
18.8578805315353
 31
0.0
  0
LINE
  5
   519
  8
0
  6
CONTINUOUS
 62
     2
 10
97.1724885106087
 20
-1.68798055350726
 30
0.0
 11
98.2224884927273
 21
-1.68798055350726
 31
0.0
  0
LINE
  5
   51A
  8
0
  6
CONTINUOUS
 62
     2
 10
97.1724885106087
 20
-0.987980565428188
 30
0.0
 11
98.2224884927273
 21
-0.987980565428188
 31
0.0
  0
LINE
  5
   51B
  8
0
  6
CONTINUOUS
 62
     2
 10
97.1724885106087
 20
25.262018987537
 30
0.0
 11
98.2224884927273
 21
25.262018987537
 31
0.0
  0
LINE
  5
   51C
  8
0
  6
CONTINUOUS
 62
     2
 10
97.1724885106087
 20
25.962018975616
 30
0.0
 11
98.2224884927273
 21
25.962018975616
 31
0.0
  0
LINE
  5
   51D
  8
0
  6
CONTINUOUS
 62
     2
 10
96.4724885225296
 20
14.9370189249521
 30
0.0
 11
96.4724885225296
 21
27.8870189428335
 31
0.0
  0
LINE
  5
   51E
  8
0
  6
CONTINUOUS
 62
     2
 10
97.1724885106087
 20
14.9370189249521
 30
0.0
 11
97.1724885106087
 21
25.262018987537
 31
0.0
  0
LINE
  5
   51F
  8
0
  6
CONTINUOUS
 62
     2
 10
98.2224884927273
 20
14.9370189249521
 30
0.0
 11
98.2224884927273
 21
25.962018975616
 31
0.0
  0
LINE
  5
   520
  8
0
  6
CONTINUOUS
 62
     2
 10
96.4724885225296
 20
-89.3629797473853
 30
0.0
 11
96.4724885225296
 21
-82.3629788421041
 31
0.0
  0
LINE
  5
   521
  8
0
  6
CONTINUOUS
 62
     2
 10
97.1724885106087
 20
-89.3629794679522
 30
0.0
 11
97.1724885106087
 21
-84.9879787974006
 31
0.0
  0
LINE
  5
   522
  8
0
  6
CONTINUOUS
 62
     2
 10
98.2224884927273
 20
-89.3629790488026
 30
0.0
 11
98.2224884927273
 21
-84.2879788093216
 31
0.0
  0
LINE
  5
   523
  8
0
  6
DASHDOT
 62
     7
 10
97.1724885106087
 20
-84.2879788093216
 30
0.0
 11
97.1724885106087
 21
-1.68798055350726
 31
0.0
  0
LINE
  5
   524
  8
0
  6
DASHDOT
 62
     7
 10
98.2224884033203
 20
-84.2879788093216
 30
0.0
 11
98.2224884033203
 21
-1.68798055350726
 31
0.0
  0
LINE
  5
   525
  8
0
  6
DASHDOT
 62
     7
 10
97.1724885106087
 20
25.962018975616
 30
0.0
 11
97.1724885106087
 21
34.4765566363898
 31
0.0
  0
LINE
  5
   526
  8
0
  6
DASHDOT
 62
     7
 10
98.2224884033203
 20
25.962018975616
 30
0.0
 11
98.2224884033203
 21
34.2704366152974
 31
0.0
  0
LINE
  5
   527
  8
0
  6
CONTINUOUS
 62
     2
 10
96.4724963466551
 20
-107.912978965853
 30
0.0
 11
97.172496334734
 21
-107.912978406987
 31
0.0
  0
INSERT
  5
   528
  8
0
  6
CONTINUOUS
 62
     7
  2
*UDIM531
 10
0.0
 20
0.0
 30
0.0
  0
INSERT
  5
   529
  8
0
  6
CONTINUOUS
 62
     7
  2
*UDIM532
 10
0.0
 20
0.0
 30
0.0
  0
INSERT
  5
   52A
  8
0
  6
CONTINUOUS
 62
     7
  2
*UDIM533
 10
0.0
 20
0.0
 30
0.0
  0
INSERT
  5
   52B
  8
0
  6
CONTINUOUS
 62
     7
  2
*UDIM534
 10
0.0
 20
0.0
 30
0.0
  0
INSERT
  5
   52C
  8
0
  6
CONTINUOUS
 62
     7
  2
*UDIM535
 10
0.0
 20
0.0
 30
0.0
  0
INSERT
  5
   52D
  8
0
  6
CONTINUOUS
 62
     7
  2
*UDIM536
 10
0.0
 20
0.0
 30
0.0
  0
INSERT
  5
   52E
  8
0
  6
CONTINUOUS
 62
     7
  2
*UDIM537
 10
0.0
 20
0.0
 30
0.0
  0
INSERT
  5
   52F
  8
0
  6
CONTINUOUS
 62
     7
  2
*UDIM538
 10
0.0
 20
0.0
 30
0.0
  0
TEXT
  5
   530
  8
0
  6
CONTINUOUS
 62
     7
 10
187.130378704098
 20
-62.2548743256256
 30
0.0
 40
3.00000001532688
  1
=         =
 50
90.0
 41
0.916666616797451
 72
     2
 11
187.13037870406
 21
-32.5548757867911
 31
0.0
  0
INSERT
  5
   531
  8
0
  6
CONTINUOUS
 62
     7
  2
*UDIM539
 10
0.0
 20
0.0
 30
0.0
  0
INSERT
  5
   532
  8
0
  6
CONTINUOUS
 62
     7
  2
*UDIM540
 10
0.0
 20
0.0
 30
0.0
  0
INSERT
  5
   533
  8
0
  6
CONTINUOUS
 62
     7
  2
*UDIM541
 10
0.0
 20
0.0
 30
0.0
  0
TEXT
  5
   534
  8
0
  6
CONTINUOUS
 62
     7
 10
185.173266744533
 20
-48.7740932163186
 30
0.0
 40
3.00000001532688
  1
X
 41
0.916666616797451
 72
     2
 11
187.373266638948
 21
-48.7740932163186
 31
0.0
  0
INSERT
  5
   535
  8
0
  6
CONTINUOUS
 62
     7
  2
*UDIM542
 10
0.0
 20
0.0
 30
0.0
  0
INSERT
  5
   536
  8
0
  6
CONTINUOUS
 62
     7
  2
*UDIM543
 10
0.0
 20
0.0
 30
0.0
  0
INSERT
  5
   537
  8
0
  6
CONTINUOUS
 62
     7
  2
*UDIM544
 10
0.0
 20
0.0
 30
0.0
  0
INSERT
  5
   538
  8
0
  6
CONTINUOUS
 62
     7
  2
*UDIM545
 10
0.0
 20
0.0
 30
0.0
  0
INSERT
  5
   539
  8
0
  6
CONTINUOUS
 62
     7
  2
*UDIM546
 10
0.0
 20
0.0
 30
0.0
  0
LINE
  5
   53A
  8
0
  6
DASHDOT
 62
     7
 10
8.6123355632155
 20
-147.801365971565
 30
0.0
 11
-23.9946707182239
 21
-147.801365971565
 31
0.0
  0
LINE
  5
   53B
  8
0
  6
DASHDOT
 62
     7
 10
8.2627345951798
 20
-209.401362299919
 30
0.0
 11
-25.6684040127873
 21
-209.401362299919
 31
0.0
  0
LINE
  5
   53C
  8
0
  6
DASHDOT
 62
     7
 10
-31.6707226634026
 20
-139.141836163594
 30
0.0
 11
-31.6707226634026
 21
-220.241822163803
 31
0.0
  0
LINE
  5
   53D
  8
0
  6
DASHDOT
 62
     7
 10
-3.67072433233261
 20
-138.482486683918
 30
0.0
 11
-3.67072433233261
 21
-220.241822163803
 31
0.0
  0
LINE
  5
   53E
  8
0
  6
CONTINUOUS
 62
     1
 10
14.3292745947838
 20
-143.801366209984
 30
0.0
 11
14.3292745947838
 21
-177.601364195347
 31
0.0
  0
LINE
  5
   53F
  8
0
  6
CONTINUOUS
 62
     1
 10
18.2982885949458
 20
-143.801366209984
 30
0.0
 11
-52.1680771293453
 21
-143.801366209984
 31
0.0
  0
LINE
  5
   540
  8
0
  6
CONTINUOUS
 62
     1
 10
-49.670721590519
 20
-143.801366209984
 30
0.0
 11
-49.670721590519
 21
-177.601364195347
 31
0.0
  0
LINE
  5
   541
  8
0
  6
CONTINUOUS
 62
     1
 10
18.0868049042967
 20
-213.401362061501
 30
0.0
 11
-51.6182195336576
 21
-213.401362061501
 31
0.0
  0
LINE
  5
   542
  8
0
  6
DASHDOT
 62
     7
 10
17.9176179517773
 20
-178.601364135742
 30
0.0
 11
-38.4626740567484
 21
-178.601364135742
 31
0.0
  0
LINE
  5
   543
  8
0
  6
DASHDOT
 62
     7
 10
-10.6707239151001
 20
-141.335662564646
 30
0.0
 11
-10.6707239151001
 21
-216.570101648757
 31
0.0
  0
CIRCLE
  5
   544
  8
0
  6
CONTINUOUS
 62
     7
 10
-31.6707226634026
 20
-147.801365971565
 30
0.0
 40
0.549999967217445
  0
CIRCLE
  5
   545
  8
0
  6
CONTINUOUS
 62
     7
 10
-3.67072433233261
 20
-147.801365971565
 30
0.0
 40
0.549999967217445
  0
CIRCLE
  5
   546
  8
0
  6
CONTINUOUS
 62
     7
 10
-31.6707226634026
 20
-209.401362299919
 30
0.0
 40
0.549999967217445
  0
CIRCLE
  5
   547
  8
0
  6
CONTINUOUS
 62
     7
 10
-3.67072433233261
 20
-209.401362299919
 30
0.0
 40
0.549999967217445
  0
LINE
  5
   548
  8
0
  6
CONTINUOUS
 62
     1
 10
15.7181875690264
 20
-177.601364195347
 30
0.0
 11
-51.9565934386962
 21
-177.601364195347
 31
0.0
  0
LINE
  5
   549
  8
0
  6
CONTINUOUS
 62
     1
 10
15.5067038783772
 20
-179.601364076138
 30
0.0
 11
-51.4067358430084
 21
-179.601364076138
 31
0.0
  0
LINE
  5
   54A
  8
0
  6
CONTINUOUS
 62
     1
 10
-49.670721590519
 20
-179.601364076138
 30
0.0
 11
-49.670721590519
 21
-213.401362061501
 31
0.0
  0
LINE
  5
   54B
  8
0
  6
CONTINUOUS
 62
     1
 10
14.3292745947838
 20
-179.601364076138
 30
0.0
 11
14.3292745947838
 21
-213.401362061501
 31
0.0
  0
LINE
  5
   54C
  8
0
  6
DASHDOT
 62
     7
 10
-40.7061061049554
 20
-178.601364135742
 30
0.0
 11
-45.5779014203002
 21
-178.601364135742
 31
0.0
  0
LINE
  5
   54D
  8
0
  6
DASHDOT
 62
     7
 10
-24.6707230806351
 20
-141.335662564646
 30
0.0
 11
-24.6707230806351
 21
-216.570101648757
 31
0.0
  0
LINE
  5
   54E
  8
0
  6
DASHDOT
 62
     7
 10
3.32927525043488
 20
-141.335662564646
 30
0.0
 11
3.32927525043488
 21
-216.570101648757
 31
0.0
  0
LINE
  5
   54F
  8
0
  6
DASHDOT
 62
     7
 10
-38.67072224617
 20
-141.335662564646
 30
0.0
 11
-38.67072224617
 21
-216.570101648757
 31
0.0
  0
LINE
  5
   550
  8
0
  6
DASHDOT
 62
     7
 10
18.8904429287633
 20
-154.101365596056
 30
0.0
 11
-52.5910445106436
 21
-154.101365596056
 31
0.0
  0
LINE
  5
   551
  8
0
  6
DASHDOT
 62
     7
 10
18.8904429287633
 20
-203.101362675428
 30
0.0
 11
-52.5910445106436
 21
-203.101362675428
 31
0.0
  0
ARC
  5
   552
  8
0
  6
CONTINUOUS
 62
     7
 10
-38.67072224617
 20
-154.101365596056
 30
0.0
 40
7.99999952316284
 50
179.999999896069
 51
321.317812442579
  0
ARC
  5
   553
  8
0
  6
CONTINUOUS
 62
     7
 10
-24.6707230806351
 20
-154.101365596056
 30
0.0
 40
7.99999952316284
 50
218.682187349558
 51
321.317812442579
  0
ARC
  5
   554
  8
0
  6
CONTINUOUS
 62
     7
 10
-10.6707239151001
 20
-154.101365596056
 30
0.0
 40
7.99999952316284
 50
218.682187349558
 51
321.317812442579
  0
ARC
  5
   555
  8
0
  6
CONTINUOUS
 62
     7
 10
3.32927525043488
 20
-154.101365596056
 30
0.0
 40
7.99999952316284
 50
218.682187349558
 51
501.317812442579
  0
LINE
  5
   556
  8
0
  6
CONTINUOUS
 62
     7
 10
-2.91572237573263
 20
-149.101365894079
 30
0.0
 11
-4.42572628893259
 21
-149.101365894079
 31
0.0
  0
LINE
  5
   557
  8
0
  6
CONTINUOUS
 62
     7
 10
-2.91572237573263
 20
-159.101365298033
 30
0.0
 11
-4.42572628893259
 21
-159.101365298033
 31
0.0
  0
LINE
  5
   558
  8
0
  6
CONTINUOUS
 62
     7
 10
-16.9157215412676
 20
-149.101365894079
 30
0.0
 11
-18.4257254544676
 21
-149.101365894079
 31
0.0
  0
LINE
  5
   559
  8
0
  6
CONTINUOUS
 62
     7
 10
-16.9157215412676
 20
-159.101365298033
 30
0.0
 11
-18.4257254544676
 21
-159.101365298033
 31
0.0
  0
LINE
  5
   55A
  8
0
  6
CONTINUOUS
 62
     7
 10
-30.9157207068026
 20
-149.101365894079
 30
0.0
 11
-32.4257246200025
 21
-149.101365894079
 31
0.0
  0
LINE
  5
   55B
  8
0
  6
CONTINUOUS
 62
     7
 10
-30.9157207068026
 20
-159.101365298033
 30
0.0
 11
-32.4257246200025
 21
-159.101365298033
 31
0.0
  0
ARC
  5
   55C
  8
0
  6
CONTINUOUS
 62
     7
 10
-38.67072224617
 20
-154.101365596056
 30
0.0
 40
7.99999952316284
 50
398.682187349558
 51
539.999999896069
  0
ARC
  5
   55D
  8
0
  6
CONTINUOUS
 62
     7
 10
-24.6707230806351
 20
-154.101365596056
 30
0.0
 40
7.99999952316284
 50
398.682187349558
 51
501.317812442579
  0
ARC
  5
   55E
  8
0
  6
CONTINUOUS
 62
     7
 10
-10.6707239151001
 20
-154.101365596056
 30
0.0
 40
7.99999952316284
 50
398.682187349558
 51
501.317812442579
  0
ARC
  5
   55F
  8
0
  6
CONTINUOUS
 62
     7
 10
-38.67072224617
 20
-203.101362675428
 30
0.0
 40
7.99999952316284
 50
179.999999896069
 51
321.317812442579
  0
ARC
  5
   560
  8
0
  6
CONTINUOUS
 62
     7
 10
-38.67072224617
 20
-203.101362675428
 30
0.0
 40
7.99999952316284
 50
398.682187349558
 51
539.999999896069
  0
LINE
  5
   561
  8
0
  6
CONTINUOUS
 62
     7
 10
-30.9157207068026
 20
-198.101362973452
 30
0.0
 11
-32.4257246200025
 21
-198.101362973452
 31
0.0
  0
LINE
  5
   562
  8
0
  6
CONTINUOUS
 62
     7
 10
-30.9157207068026
 20
-208.101362377405
 30
0.0
 11
-32.4257246200025
 21
-208.101362377405
 31
0.0
  0
ARC
  5
   563
  8
0
  6
CONTINUOUS
 62
     7
 10
-24.6707230806351
 20
-203.101362675428
 30
0.0
 40
7.99999952316284
 50
398.682187349558
 51
501.317812442579
  0
ARC
  5
   564
  8
0
  6
CONTINUOUS
 62
     7
 10
-24.6707230806351
 20
-203.101362675428
 30
0.0
 40
7.99999952316284
 50
218.682187349558
 51
321.317812442579
  0
ARC
  5
   565
  8
0
  6
CONTINUOUS
 62
     7
 10
-10.6707239151001
 20
-203.101362675428
 30
0.0
 40
7.99999952316284
 50
218.682187349558
 51
321.317812442579
  0
ARC
  5
   566
  8
0
  6
CONTINUOUS
 62
     7
 10
-10.6707239151001
 20
-203.101362675428
 30
0.0
 40
7.99999952316284
 50
398.682187349558
 51
501.317812442579
  0
ARC
  5
   567
  8
0
  6
CONTINUOUS
 62
     7
 10
3.32927525043488
 20
-203.101362675428
 30
0.0
 40
7.99999952316284
 50
218.682187349558
 51
501.317812442579
  0
LINE
  5
   568
  8
0
  6
CONTINUOUS
 62
     7
 10
-16.9157215412676
 20
-198.101362973452
 30
0.0
 11
-18.4257254544676
 21
-198.101362973452
 31
0.0
  0
LINE
  5
   569
  8
0
  6
CONTINUOUS
 62
     7
 10
-16.9157215412676
 20
-208.101362377405
 30
0.0
 11
-18.4257254544676
 21
-208.101362377405
 31
0.0
  0
LINE
  5
   56A
  8
0
  6
CONTINUOUS
 62
     7
 10
-2.91572237573263
 20
-198.101362973452
 30
0.0
 11
-4.42572628893259
 21
-198.101362973452
 31
0.0
  0
LINE
  5
   56B
  8
0
  6
CONTINUOUS
 62
     7
 10
-2.91572237573263
 20
-208.101362377405
 30
0.0
 11
-4.42572628893259
 21
-208.101362377405
 31
0.0
  0
LINE
  5
   56C
  8
0
  6
DASHDOT
 62
     7
 10
11.3292747735977
 20
-144.176366187632
 30
0.0
 11
11.3292747735977
 21
-148.026365958154
 31
0.0
  0
LINE
  5
   56D
  8
0
  6
DASHDOT
 62
     7
 10
13.2542746588588
 20
-146.101366072893
 30
0.0
 11
9.40427488833665
 21
-146.101366072893
 31
0.0
  0
LINE
  5
   56E
  8
0
  6
DASHDOT
 62
     7
 10
-46.6707217693329
 20
-144.176366187632
 30
0.0
 11
-46.6707217693329
 21
-148.026365958154
 31
0.0
  0
LINE
  5
   56F
  8
0
  6
DASHDOT
 62
     7
 10
-44.7457218840718
 20
-146.101366072893
 30
0.0
 11
-48.5957216545939
 21
-146.101366072893
 31
0.0
  0
LINE
  5
   570
  8
0
  6
DASHDOT
 62
     7
 10
-46.6707217693329
 20
-160.176365233958
 30
0.0
 11
-46.6707217693329
 21
-164.02636500448
 31
0.0
  0
LINE
  5
   571
  8
0
  6
DASHDOT
 62
     7
 10
-44.7457218840718
 20
-162.101365119219
 30
0.0
 11
-48.5957216545939
 21
-162.101365119219
 31
0.0
  0
LINE
  5
   572
  8
0
  6
DASHDOT
 62
     7
 10
11.3292747735977
 20
-160.176365233958
 30
0.0
 11
11.3292747735977
 21
-164.02636500448
 31
0.0
  0
LINE
  5
   573
  8
0
  6
DASHDOT
 62
     7
 10
13.2542746588588
 20
-162.101365119219
 30
0.0
 11
9.40427488833665
 21
-162.101365119219
 31
0.0
  0
LINE
  5
   574
  8
0
  6
DASHDOT
 62
     7
 10
11.3292747735977
 20
-193.176363267005
 30
0.0
 11
11.3292747735977
 21
-197.026363037527
 31
0.0
  0
LINE
  5
   575
  8
0
  6
DASHDOT
 62
     7
 10
13.2542746588588
 20
-195.101363152266
 30
0.0
 11
9.40427488833665
 21
-195.101363152266
 31
0.0
  0
LINE
  5
   576
  8
0
  6
DASHDOT
 62
     7
 10
11.3292747735977
 20
-209.17636231333
 30
0.0
 11
11.3292747735977
 21
-213.026362083852
 31
0.0
  0
LINE
  5
   577
  8
0
  6
DASHDOT
 62
     7
 10
13.2542746588588
 20
-211.101362198591
 30
0.0
 11
9.40427488833665
 21
-211.101362198591
 31
0.0
  0
LINE
  5
   578
  8
0
  6
DASHDOT
 62
     7
 10
-46.6707217693329
 20
-209.17636231333
 30
0.0
 11
-46.6707217693329
 21
-213.026362083852
 31
0.0
  0
LINE
  5
   579
  8
0
  6
DASHDOT
 62
     7
 10
-44.7457218840718
 20
-211.101362198591
 30
0.0
 11
-48.5957216545939
 21
-211.101362198591
 31
0.0
  0
LINE
  5
   57A
  8
0
  6
DASHDOT
 62
     7
 10
-46.6707217693329
 20
-193.176363267005
 30
0.0
 11
-46.6707217693329
 21
-197.026363037527
 31
0.0
  0
LINE
  5
   57B
  8
0
  6
DASHDOT
 62
     7
 10
-44.7457218840718
 20
-195.101363152266
 30
0.0
 11
-48.5957216545939
 21
-195.101363152266
 31
0.0
  0
CIRCLE
  5
   57C
  8
0
  6
CONTINUOUS
 62
     7
 10
11.3292747735977
 20
-146.101366072893
 30
0.0
 40
0.359999978542328
  0
CIRCLE
  5
   57D
  8
0
  6
CONTINUOUS
 62
     7
 10
11.3292747735977
 20
-162.101365119219
 30
0.0
 40
0.359999978542328
  0
CIRCLE
  5
   57E
  8
0
  6
CONTINUOUS
 62
     7
 10
11.3292747735977
 20
-195.101363152266
 30
0.0
 40
0.359999978542328
  0
CIRCLE
  5
   57F
  8
0
  6
CONTINUOUS
 62
     7
 10
11.3292747735977
 20
-211.101362198591
 30
0.0
 40
0.359999978542328
  0
CIRCLE
  5
   580
  8
0
  6
CONTINUOUS
 62
     7
 10
-46.6707217693329
 20
-211.101362198591
 30
0.0
 40
0.359999978542328
  0
CIRCLE
  5
   581
  8
0
  6
CONTINUOUS
 62
     7
 10
-46.6707217693329
 20
-195.101363152266
 30
0.0
 40
0.359999978542328
  0
CIRCLE
  5
   582
  8
0
  6
CONTINUOUS
 62
     7
 10
-46.6707217693329
 20
-146.101366072893
 30
0.0
 40
0.359999978542328
  0
CIRCLE
  5
   583
  8
0
  6
CONTINUOUS
 62
     7
 10
-46.6707217693329
 20
-162.101365119219
 30
0.0
 40
0.359999978542328
  0
INSERT
  5
   584
  8
0
  6
CONTINUOUS
 62
     7
  2
*UDIM547
 10
0.0
 20
0.0
 30
0.0
  0
INSERT
  5
   585
  8
0
  6
CONTINUOUS
 62
     7
  2
*UDIM548
 10
0.0
 20
0.0
 30
0.0
  0
INSERT
  5
   586
  8
0
  6
CONTINUOUS
 62
     7
  2
*UDIM549
 10
0.0
 20
0.0
 30
0.0
  0
INSERT
  5
   587
  8
0
  6
CONTINUOUS
 62
     7
  2
*UDIM550
 10
0.0
 20
0.0
 30
0.0
  0
INSERT
  5
   588
  8
0
  6
CONTINUOUS
 62
     7
  2
*UDIM551
 10
0.0
 20
0.0
 30
0.0
  0
INSERT
  5
   589
  8
0
  6
CONTINUOUS
 62
     7
  2
*UDIM552
 10
0.0
 20
0.0
 30
0.0
  0
INSERT
  5
   58A
  8
0
  6
CONTINUOUS
 62
     7
  2
*UDIM553
 10
0.0
 20
0.0
 30
0.0
  0
INSERT
  5
   58B
  8
0
  6
CONTINUOUS
 62
     7
  2
*UDIM554
 10
0.0
 20
0.0
 30
0.0
  0
INSERT
  5
   58C
  8
0
  6
CONTINUOUS
 62
     7
  2
*UDIM555
 10
0.0
 20
0.0
 30
0.0
  0
INSERT
  5
   58D
  8
0
  6
CONTINUOUS
 62
     7
  2
*UDIM556
 10
0.0
 20
0.0
 30
0.0
  0
INSERT
  5
   58E
  8
0
  6
CONTINUOUS
 62
     7
  2
*UDIM557
 10
0.0
 20
0.0
 30
0.0
  0
INSERT
  5
   58F
  8
0
  6
CONTINUOUS
 62
     7
  2
*UDIM558
 10
0.0
 20
0.0
 30
0.0
  0
TEXT
  5
   590
  8
0
  6
CONTINUOUS
 62
     7
 10
-11.8676008491901
 20
-219.443039794263
 30
0.0
 40
3.00000005960463
  1
Y
 50
359.999999896069
 41
0.916666581564485
 72
     2
 11
-9.66760102800404
 21
-219.443039798242
 31
0.0
  0
TEXT
  5
   591
  8
0
  6
CONTINUOUS
 62
     7
 10
-11.8676008491901
 20
-141.819390246188
 30
0.0
 40
3.00000005960463
  1
Y
 50
359.999999896069
 41
0.916666581564485
 72
     2
 11
-9.66760102800404
 21
-141.819390250168
 31
0.0
  0
TEXT
  5
   592
  8
0
  6
CONTINUOUS
 62
     7
 10
19.5671893189288
 20
-179.99326873867
 30
0.0
 40
3.00000005960463
  1
X
 50
359.999999896069
 41
0.916666581564485
 72
     2
 11
21.7671891401149
 21
-179.993268742649
 31
0.0
  0
TEXT
  5
   593
  8
0
  6
CONTINUOUS
 62
     7
 10
-90.3197365043465
 20
-179.570301234584
 30
0.0
 40
3.00000005960463
  1
X
 50
359.999999896069
 41
0.916666581564485
 72
     2
 11
-88.1197366831604
 21
-179.570301238563
 31
0.0
  0
INSERT
  5
   594
  8
0
  6
CONTINUOUS
 62
     7
  2
*UDIM559
 10
0.0
 20
0.0
 30
0.0
  0
INSERT
  5
   595
  8
0
  6
CONTINUOUS
 62
     7
  2
*UDIM560
 10
0.0
 20
0.0
 30
0.0
  0
INSERT
  5
   596
  8
0
  6
CONTINUOUS
 62
     7
  2
*UDIM561
 10
0.0
 20
0.0
 30
0.0
  0
LINE
  5
   597
  8
0
  6
DASHDOT
 62
     2
 10
221.125810061458
 20
-6.36784076690674
 30
0.0
 11
275.804617075325
 21
-6.36784076690674
 31
0.0
  0
LINE
  5
   598
  8
0
  6
CONTINUOUS
 62
     7
 10
227.21223449707
 20
-20.3678407669067
 30
0.0
 11
263.96223449707
 21
-20.3678407669067
 31
0.0
  0
LINE
  5
   599
  8
0
  6
CONTINUOUS
 62
     7
 10
227.21223449707
 20
7.63215923309326
 30
0.0
 11
263.96223449707
 21
7.63215923309326
 31
0.0
  0
LINE
  5
   59A
  8
0
  6
CONTINUOUS
 62
     7
 10
227.21223449707
 20
7.63215923309326
 30
0.0
 11
227.21223449707
 21
-20.3678407669067
 31
0.0
  0
LINE
  5
   59B
  8
0
  6
CONTINUOUS
 62
     7
 10
263.96223449707
 20
7.63215923309326
 30
0.0
 11
263.96223449707
 21
-20.3678407669067
 31
0.0
  0
LINE
  5
   59C
  8
0
  6
DASHDOT
 62
     2
 10
245.58723449707
 20
17.7406084606821
 30
0.0
 11
245.58723449707
 21
-32.2056734256238
 31
0.0
  0
CIRCLE
  5
   59D
  8
0
  6
CONTINUOUS
 62
     7
 10
231.21223449707
 20
11.3821592330933
 30
0.0
 40
0.875
  0
CIRCLE
  5
   59E
  8
0
  6
CONTINUOUS
 62
     7
 10
259.96223449707
 20
11.3821592330933
 30
0.0
 40
0.875
  0
CIRCLE
  5
   59F
  8
0
  6
CONTINUOUS
 62
     7
 10
259.96223449707
 20
-24.1178407669067
 30
0.0
 40
0.875
  0
CIRCLE
  5
   5A0
  8
0
  6
CONTINUOUS
 62
     7
 10
231.21223449707
 20
-24.1178407669067
 30
0.0
 40
0.875
  0
LINE
  5
   5A1
  8
0
  6
DASHDOT
 62
     7
 10
259.96223449707
 20
13.5071592330933
 30
0.0
 11
259.96223449707
 21
9.25715923309326
 31
0.0
  0
LINE
  5
   5A2
  8
0
  6
DASHDOT
 62
     7
 10
257.83723449707
 20
11.3821592330933
 30
0.0
 11
262.08723449707
 21
11.3821592330933
 31
0.0
  0
LINE
  5
   5A3
  8
0
  6
DASHDOT
 62
     7
 10
231.21223449707
 20
13.5071592330933
 30
0.0
 11
231.21223449707
 21
9.25715923309326
 31
0.0
  0
LINE
  5
   5A4
  8
0
  6
DASHDOT
 62
     7
 10
229.08723449707
 20
11.3821592330933
 30
0.0
 11
233.33723449707
 21
11.3821592330933
 31
0.0
  0
LINE
  5
   5A5
  8
0
  6
DASHDOT
 62
     7
 10
231.21223449707
 20
-21.9928407669067
 30
0.0
 11
231.21223449707
 21
-26.2428407669067
 31
0.0
  0
LINE
  5
   5A6
  8
0
  6
DASHDOT
 62
     7
 10
229.08723449707
 20
-24.1178407669067
 30
0.0
 11
233.33723449707
 21
-24.1178407669067
 31
0.0
  0
LINE
  5
   5A7
  8
0
  6
DASHDOT
 62
     7
 10
259.96223449707
 20
-21.9928407669067
 30
0.0
 11
259.96223449707
 21
-26.2428407669067
 31
0.0
  0
LINE
  5
   5A8
  8
0
  6
DASHDOT
 62
     7
 10
257.83723449707
 20
-24.1178407669067
 30
0.0
 11
262.08723449707
 21
-24.1178407669067
 31
0.0
  0
LINE
  5
   5A9
  8
0
  6
CONTINUOUS
 62
     7
 10
224.487335505686
 20
14.4913150294169
 30
0.0
 11
266.449639246597
 21
14.4913150294169
 31
0.0
  0
LINE
  5
   5AA
  8
0
  6
CONTINUOUS
 62
     7
 10
224.487335505686
 20
-27.8423365322105
 30
0.0
 11
266.449639246597
 21
-27.8423365322105
 31
0.0
  0
LINE
  5
   5AB
  8
0
  6
CONTINUOUS
 62
     7
 10
266.449639246597
 20
14.4913150294169
 30
0.0
 11
266.449639246597
 21
-27.8423365322105
 31
0.0
  0
LINE
  5
   5AC
  8
0
  6
CONTINUOUS
 62
     7
 10
224.487335505686
 20
14.4913150294169
 30
0.0
 11
224.487335505686
 21
-27.8423365322105
 31
0.0
  0
TEXT
  5
   5AD
  8
0
  6
CONTINUOUS
 62
     1
 10
188.160758897181
 20
-207.157068269158
 30
0.0
 40
2.00000008940697
  1
M4380 97-11-03
 50
359.999999844103
 41
0.749999861419206
 72
     1
 11
198.510757446289
 21
-206.157068252564
 31
0.0
 73
     2
  0
TEXT
  5
   5AE
  8
0
  6
CONTINUOUS
 62
     1
 10
128.583435055878
 20
-200.284309436283
 30
0.0
 40
2.00000008940697
  1
97-11-03 SCARPELLINI
 50
359.999999844103
 41
0.749999861419206
 72
     2
 11
158.283430888023
 21
-200.284309516945
 31
0.0
  0
TEXT
  5
   5AF
  8
0
  6
CONTINUOUS
 62
     1
 10
162.420762688186
 20
-207.157071129932
 30
0.0
 40
2.00000008940697
  1
M 3167 95-08-25
 50
359.999999844103
 41
0.749999861419206
 72
     1
 11
173.52076113224
 21
-206.157071115375
 31
0.0
 73
     2
  0
TEXT
  5
   5B0
  8
0
  6
CONTINUOUS
 62
     1
 10
137.580766350295
 20
-207.157071129932
 30
0.0
 40
2.00000008940697
  1
M 3142 95-06-12
 50
359.999999844103
 41
0.749999861419206
 72
     1
 11
148.68076479435
 21
-206.157071115375
 31
0.0
 73
     2
  0
TEXT
  5
   5B1
  8
0
  6
CONTINUOUS
 62
     7
 10
244.946574320294
 20
-41.5822077488848
 30
0.0
 40
3.00000002980232
  1
Y
 50
359.999999844103
 41
0.916666604744064
 72
     2
 11
247.146574189163
 21
-41.5822077548598
 31
0.0
  0
TEXT
  5
   5B2
  8
0
  6
CONTINUOUS
 62
     7
 10
244.203878750302
 20
26.7457913661054
 30
0.0
 40
3.00000002980232
  1
Y
 50
359.999999844103
 41
0.916666604744064
 72
     2
 11
246.403878619171
 21
26.7457913601304
 31
0.0
  0
TEXT
  5
   5B3
  8
0
  6
CONTINUOUS
 62
     7
 10
194.000919451214
 20
-7.27091021298855
 30
0.0
 40
3.00000002980232
  1
X
 50
359.999999844103
 41
0.916666604744064
 72
     2
 11
196.200919320084
 21
-7.2709102189635
 31
0.0
  0
TEXT
  5
   5B4
  8
0
  6
CONTINUOUS
 62
     7
 10
277.007301439739
 20
-7.53442258595913
 30
0.0
 40
3.00000002980232
  1
X
 50
359.999999844103
 41
0.916666604744064
 72
     2
 11
279.207301308609
 21
-7.53442259193408
 31
0.0
  0
TEXT
  5
   5B5
  8
0
  6
CONTINUOUS
 62
     7
 10
235.722966458795
 20
-38.9827723371922
 30
0.0
 40
3.00000002980232
  1
=      =
 50
359.999999844103
 41
0.916666604744064
 72
     2
 11
257.172965218521
 21
-38.9827723954479
 31
0.0
  0
TEXT
  5
   5B6
  8
0
  6
CONTINUOUS
 62
     7
 10
234.980270650384
 20
16.6265645158352
 30
0.0
 40
3.00000002980232
  1
=      =
 50
359.999999844103
 41
0.916666604744064
 72
     2
 11
256.430269410111
 21
16.6265644575795
 31
0.0
  0
INSERT
  5
   5B7
  8
0
  6
CONTINUOUS
 62
     7
  2
*UDIM562
 10
0.0
 20
0.0
 30
0.0
  0
INSERT
  5
   5B8
  8
0
  6
CONTINUOUS
 62
     7
  2
*UDIM563
 10
0.0
 20
0.0
 30
0.0
  0
INSERT
  5
   5B9
  8
0
  6
CONTINUOUS
 62
     7
  2
*UDIM564
 10
0.0
 20
0.0
 30
0.0
  0
INSERT
  5
   5BA
  8
0
  6
CONTINUOUS
 62
     7
  2
*UDIM565
 10
0.0
 20
0.0
 30
0.0
  0
INSERT
  5
   5BB
  8
0
  6
CONTINUOUS
 62
     7
  2
*UDIM566
 10
0.0
 20
0.0
 30
0.0
  0
TEXT
  5
   5BC
  8
0
  6
CONTINUOUS
 62
     1
 10
128.583435067803
 20
-191.817562961879
 30
0.0
 40
2.00000008940697
  1
93-10-04 BARCELLA
 50
359.999999844103
 41
0.749999861419206
 72
     2
 11
153.783431530267
 21
-191.817563030319
 31
0.0
  0
TEXT
  5
   5BD
  8
0
  6
CONTINUOUS
 62
     7
 10
219.940003457888
 20
-14.9263665031343
 30
0.0
 40
3.00000002980232
  1
=     =
 50
449.999999844103
 41
0.916666604744064
 72
     2
 11
219.940003508651
 21
3.77363241504139
 31
0.0
  0
TEXT
  5
   5BE
  8
0
  6
CONTINUOUS
 62
     7
 10
209.13599688135
 20
-15.058123285666
 30
0.0
 40
3.00000002980232
  1
=     =
 50
449.999999844103
 41
0.916666604744064
 72
     2
 11
209.135996932113
 21
3.64187563250965
 31
0.0
  0
TEXT
  5
   5BF
  8
0
  6
CONTINUOUS
 62
     1
 10
231.973709124863
 20
-218.083676247986
 30
0.0
 40
4.00000017881393
  1
601840/132
 50
359.999999844103
 41
0.937499973922969
 72
     2
 11
268.723709724635
 21
-218.083676347794
 31
0.0
  0
TEXT
  5
   5C0
  8
0
  6
CONTINUOUS
 62
     1
 10
250.059402479634
 20
-209.102093690161
 30
0.0
 40
3.00000002980232
  1
S7
 50
359.999999844103
 41
0.916666604744064
 72
     2
 11
255.009402190055
 21
-209.102093703604
 31
0.0
  0
TEXT
  5
   5C1
  8
0
  6
CONTINUOUS
 62
     1
 10
221.524982720872
 20
-190.791821447257
 30
0.0
 40
2.00000008940697
  1
4POLE LOW VOLTAGE M.C.C.B SERIES ISOMAX
 50
359.999999844103
 41
0.749999861419206
 72
     1
 11
250.62497864365
 21
-189.791821481586
 31
0.0
 73
     2
  0
TEXT
  5
   5C2
  8
0
  6
CONTINUOUS
 62
     1
 10
229.774981601062
 20
-193.791821469663
 30
0.0
 40
2.00000008940697
  1
FIXED VERSION REAR TERMINALS
 50
359.999999844103
 41
0.749999861419206
 72
     1
 11
250.624978679425
 21
-192.791821481586
 31
0.0
 73
     2
  0
TEXT
  5
   5C3
  8
0
  6
CONTINUOUS
 62
     1
 10
224.727374353518
 20
-198.862088189222
 30
0.0
 40
2.00000008940697
  1
INTERR.AUTOMATICO SERIE ISOMAX
 50
359.999999844103
 41
0.749999861419206
 72
     1
 11
247.077371221775
 21
-197.862088205219
 31
0.0
 73
     2
  0
TEXT
  5
   5C4
  8
0
  6
CONTINUOUS
 62
     1
 10
214.227375860038
 20
-201.862088160706
 30
0.0
 40
2.00000008940697
  1
TETRAP.ESECUZIONE FISSA TERMINALI POSTERIORI
 50
359.999999844103
 41
0.749999861419206
 72
     1
 11
247.077371257549
 21
-200.862088205219
 31
0.0
 73
     2
  0
ENDSEC
  0
EOF
