  0
SECTION
  2
HEADER
  9
$ACADVER
  1
AC1009
  9
$DWGCODEPAGE
  3
iso8859-1
  9
$INSBASE
 10
0.0
 20
0.0
 30
0.0
  9
$EXTMIN
 10
1.0E20
 20
1.0E20
  9
$EXTMAX
 10
-1.0E20
 20
-1.0E20
  9
$LIMMIN
 10
0.0
 20
0.0
  9
$LIMMAX
 10
12.0
 20
9.0
  9
$ORTHOMODE
 70
     0
  9
$REGENMODE
 70
     1
  9
$FILLMODE
 70
     1
  9
$QTEXTMODE
 70
     0
  9
$MIRRTEXT
 70
     1
  9
$DRAGMODE
 70
     2
  9
$LTSCALE
 40
15.0
  9
$OSMODE
 70
     0
  9
$ATTMODE
 70
     1
  9
$TEXTSIZE
 40
0.2
  9
$TRACEWID
 40
0.05
  9
$TEXTSTYLE
  7
STANDARD
  9
$CLAYER
  8
0
  9
$CELTYPE
  6
DASHED
  9
$CECOLOR
 62
   256
  9
$DIMSCALE
 40
1.0
  9
$DIMASZ
 40
0.18
  9
$DIMEXO
 40
0.0625
  9
$DIMDLI
 40
0.38
  9
$DIMRND
 40
0.0
  9
$DIMDLE
 40
0.0
  9
$DIMEXE
 40
0.18
  9
$DIMTP
 40
0.0
  9
$DIMTM
 40
0.0
  9
$DIMTXT
 40
0.18
  9
$DIMCEN
 40
0.09
  9
$DIMTSZ
 40
0.0
  9
$DIMTOL
 70
     0
  9
$DIMLIM
 70
     0
  9
$DIMTIH
 70
     1
  9
$DIMTOH
 70
     1
  9
$DIMSE1
 70
     0
  9
$DIMSE2
 70
     0
  9
$DIMTAD
 70
     0
  9
$DIMZIN
 70
     0
  9
$DIMBLK
  1

  9
$DIMASO
 70
     1
  9
$DIMSHO
 70
     1
  9
$DIMPOST
  1

  9
$DIMAPOST
  1

  9
$DIMALT
 70
     0
  9
$DIMALTD
 70
     2
  9
$DIMALTF
 40
25.4
  9
$DIMLFAC
 40
1.0
  9
$DIMTOFL
 70
     0
  9
$DIMTVP
 40
0.0
  9
$DIMTIX
 70
     0
  9
$DIMSOXD
 70
     0
  9
$DIMSAH
 70
     0
  9
$DIMBLK1
  1

  9
$DIMBLK2
  1

  9
$DIMSTYLE
  2
STANDARD
  9
$DIMCLRD
 70
     0
  9
$DIMCLRE
 70
     0
  9
$DIMCLRT
 70
     0
  9
$DIMTFAC
 40
1.0
  9
$DIMGAP
 40
0.09
  9
$LUNITS
 70
     2
  9
$LUPREC
 70
     4
  9
$AXISMODE
 70
     0
  9
$AXISUNIT
 10
0.0
 20
0.0
  9
$SKETCHINC
 40
0.1
  9
$FILLETRAD
 40
0.0
  9
$AUNITS
 70
     0
  9
$AUPREC
 70
     0
  9
$MENU
  1
acad
  9
$ELEVATION
 40
0.0
  9
$PELEVATION
 40
0.0
  9
$THICKNESS
 40
0.0
  9
$LIMCHECK
 70
     0
  9
$BLIPMODE
 70
     1
  9
$CHAMFERA
 40
0.0
  9
$CHAMFERB
 40
0.0
  9
$SKPOLY
 70
     0
  9
$TDCREATE
 40
0.000000000
  9
$TDUPDATE
 40
0.000000000
  9
$TDINDWG
 40
0.0
  9
$TDUSRTIMER
 40
0.0
  9
$USRTIMER
 70
     1
  9
$ANGBASE
 50
0.0
  9
$ANGDIR
 70
     0
  9
$PDMODE
 70
     0
  9
$PDSIZE
 40
0.0
  9
$PLINEWID
 40
0.0
  9
$COORDS
 70
     1
  9
$SPLFRAME
 70
     0
  9
$SPLINETYPE
 70
     6
  9
$SPLINESEGS
 70
     8
  9
$ATTDIA
 70
     0
  9
$ATTREQ
 70
     1
  9
$HANDLING
 70
     1
  9
$HANDSEED
  5
   432
  9
$SURFTAB1
 70
     6
  9
$SURFTAB2
 70
     6
  9
$SURFTYPE
 70
     6
  9
$SURFU
 70
     6
  9
$SURFV
 70
     6
  9
$UCSNAME
  2

  9
$UCSORG
 10
0.0
 20
0.0
 30
0.0
  9
$UCSXDIR
 10
1.0
 20
0.0
 30
0.0
  9
$UCSYDIR
 10
0.0
 20
1.0
 30
0.0
  9
$PUCSNAME
  2

  9
$PUCSORG
 10
0.0
 20
0.0
 30
0.0
  9
$PUCSXDIR
 10
1.0
 20
0.0
 30
0.0
  9
$PUCSYDIR
 10
0.0
 20
1.0
 30
0.0
  9
$USERI1
 70
     0
  9
$USERI2
 70
     0
  9
$USERI3
 70
     0
  9
$USERI4
 70
     0
  9
$USERI5
 70
     0
  9
$USERR1
 40
0.0
  9
$USERR2
 40
0.0
  9
$USERR3
 40
0.0
  9
$USERR4
 40
0.0
  9
$USERR5
 40
0.0
  9
$WORLDVIEW
 70
     1
  9
$SHADEDGE
 70
     3
  9
$SHADEDIF
 70
    70
  9
$TILEMODE
 70
     1
  9
$MAXACTVP
 70
    16
  9
$PINSBASE
 10
0.0
 20
0.0
 30
0.0
  9
$PLIMCHECK
 70
     0
  9
$PEXTMIN
 10
1.0E20
 20
1.0E20
 30
1.0E20
  9
$PEXTMAX
 10
-1.0E20
 20
-1.0E20
 30
-1.0E20
  9
$PLIMMIN
 10
0.0
 20
0.0
  9
$PLIMMAX
 10
12.0
 20
9.0
  9
$UNITMODE
 70
     0
  9
$VISRETAIN
 70
     0
  0
ENDSEC
  0
SECTION
  2
TABLES
  0
TABLE
  2
VPORT
 70
     1
  0
VPORT
  2
*ACTIVE
 70
     0
 10
0.0
 20
0.0
 11
1.0
 21
1.0
 12
6.801242
 22
4.5
 13
0.0
 23
0.0
 14
1.0
 24
1.0
 15
0.0
 25
0.0
 16
0.0
 26
0.0
 36
1.0
 17
0.0
 27
0.0
 37
0.0
 40
9.0
 41
1.511387
 42
50.0
 43
0.0
 44
0.0
 50
0.0
 51
0.0
 71
     0
 72
   100
 73
     1
 74
     1
 75
     0
 76
     0
 77
     0
 78
     0
  0
ENDTAB
  0
TABLE
  2
LTYPE
 70
    41
  0
LTYPE
  2
BYBLOCK
 70
     0
  3

 72
    65
 73
     0
 40
0.0
  0
LTYPE
  2
BYLAYER
 70
     0
  3

 72
    65
 73
     0
 40
0.0
  0
LTYPE
  2
CONTINUOUS
 70
     0
  3
Solid line
 72
    65
 73
     0
 40
0.0
  0
LTYPE
  2
BORDER
 70
    64
  3
__ __ . __ __ . __ __ . __ __ . __ __ . __ __ .
 72
    65
 73
     6
 40
1.75
 49
0.5
 49
-0.25
 49
0.5
 49
-0.25
 49
0.0
 49
-0.25
  0
LTYPE
  2
BORDER2
 70
    64
  3
__.__.__.__.__.__.__.__.__.__.__.__.__.__.__.__
 72
    65
 73
     6
 40
0.875
 49
0.25
 49
-0.125
 49
0.25
 49
-0.125
 49
0.0
 49
-0.125
  0
LTYPE
  2
BORDERX2
 70
    64
  3
____  ____  .  ____  ____  .  ____  ____  .  __
 72
    65
 73
     6
 40
3.5
 49
1.0
 49
-0.5
 49
1.0
 49
-0.5
 49
0.0
 49
-0.5
  0
LTYPE
  2
CENTER
 70
    64
  3
____ _ ____ _ ____ _ ____ _ ____ _ ____ _ ____
 72
    65
 73
     4
 40
2.0
 49
1.25
 49
-0.25
 49
0.25
 49
-0.25
  0
LTYPE
  2
CENTER2
 70
    64
  3
___ _ ___ _ ___ _ ___ _ ___ _ ___ _ ___ _ ___ _
 72
    65
 73
     4
 40
1.125
 49
0.75
 49
-0.125
 49
0.125
 49
-0.125
  0
LTYPE
  2
CENTERX2
 70
    64
  3
________  __  ________  __  ________  __  _____
 72
    65
 73
     4
 40
4.0
 49
2.5
 49
-0.5
 49
0.5
 49
-0.5
  0
LTYPE
  2
DASHDOT
 70
    64
  3
__ . __ . __ . __ . __ . __ . __ . __ . __ . __
 72
    65
 73
     4
 40
1.0
 49
0.5
 49
-0.25
 49
0.0
 49
-0.25
  0
LTYPE
  2
DASHDOT2
 70
    64
  3
_._._._._._._._._._._._._._._._._._._._._._._._
 72
    65
 73
     4
 40
0.5
 49
0.25
 49
-0.125
 49
0.0
 49
-0.125
  0
LTYPE
  2
DASHDOTX2
 70
    64
  3
____  .  ____  .  ____  .  ____  .  ____  .  __
 72
    65
 73
     4
 40
2.0
 49
1.0
 49
-0.5
 49
0.0
 49
-0.5
  0
LTYPE
  2
DASHED
 70
    64
  3
__ __ __ __ __ __ __ __ __ __ __ __ __ __ __ __
 72
    65
 73
     2
 40
0.75
 49
0.5
 49
-0.25
  0
LTYPE
  2
DASHED2
 70
    64
  3
_ _ _ _ _ _ _ _ _ _ _ _ _ _ _ _ _ _ _ _ _ _ _ _
 72
    65
 73
     2
 40
0.375
 49
0.25
 49
-0.125
  0
LTYPE
  2
DASHEDX2
 70
    64
  3
____  ____  ____  ____  ____  ____  ____  ____
 72
    65
 73
     2
 40
1.5
 49
1.0
 49
-0.5
  0
LTYPE
  2
DIVIDE
 70
    64
  3
____ . . ____ . . ____ . . ____ . . ____ . . __
 72
    65
 73
     6
 40
1.25
 49
0.5
 49
-0.25
 49
0.0
 49
-0.25
 49
0.0
 49
-0.25
  0
LTYPE
  2
DIVIDE2
 70
    64
  3
__..__..__..__..__..__..__..__..__..__..__..__.
 72
    65
 73
     6
 40
0.625
 49
0.25
 49
-0.125
 49
0.0
 49
-0.125
 49
0.0
 49
-0.125
  0
LTYPE
  2
DIVIDEX2
 70
    64
  3
________  .  .  ________  .  .  ________  .  .
 72
    65
 73
     6
 40
2.5
 49
1.0
 49
-0.5
 49
0.0
 49
-0.5
 49
0.0
 49
-0.5
  0
LTYPE
  2
DOT
 70
    64
  3
. . . . . . . . . . . . . . . . . . . . . . . .
 72
    65
 73
     2
 40
0.25
 49
0.0
 49
-0.25
  0
LTYPE
  2
DOT2
 70
    64
  3
...............................................
 72
    65
 73
     2
 40
0.125
 49
0.0
 49
-0.125
  0
LTYPE
  2
DOTX2
 70
    64
  3
.  .  .  .  .  .  .  .  .  .  .  .  .  .  .  .
 72
    65
 73
     2
 40
0.5
 49
0.0
 49
-0.5
  0
LTYPE
  2
HIDDEN
 70
    64
  3
__ __ __ __ __ __ __ __ __ __ __ __ __ __ __ __
 72
    65
 73
     2
 40
0.375
 49
0.25
 49
-0.125
  0
LTYPE
  2
HIDDEN2
 70
    64
  3
_ _ _ _ _ _ _ _ _ _ _ _ _ _ _ _ _ _ _ _ _ _ _ _
 72
    65
 73
     2
 40
0.1875
 49
0.125
 49
-0.0625
  0
LTYPE
  2
HIDDENX2
 70
    64
  3
____ ____ ____ ____ ____ ____ ____ ____ ____ __
 72
    65
 73
     2
 40
0.75
 49
0.5
 49
-0.25
  0
LTYPE
  2
PHANTOM
 70
    64
  3
______  __  __  ______  __  __  ______  __  __
 72
    65
 73
     6
 40
2.5
 49
1.25
 49
-0.25
 49
0.25
 49
-0.25
 49
0.25
 49
-0.25
  0
LTYPE
  2
PHANTOM2
 70
    64
  3
___ _ _ ___ _ _ ___ _ _ ___ _ _ ___ _ _ ___ _ _
 72
    65
 73
     6
 40
1.25
 49
0.625
 49
-0.125
 49
0.125
 49
-0.125
 49
0.125
 49
-0.125
  0
LTYPE
  2
PHANTOMX2
 70
    64
  3
____________    ____    ____    ____________
 72
    65
 73
     6
 40
5.0
 49
2.5
 49
-0.5
 49
0.5
 49
-0.5
 49
0.5
 49
-0.5
  0
LTYPE
  2
ACAD_ISO02W100
 70
    64
  3
__ __ __ __ __ __ __ __ __ __ __ __ __ __ __ __
 72
    65
 73
     2
 40
15.0
 49
12.0
 49
-3.0
  0
LTYPE
  2
ACAD_ISO03W100
 70
    64
  3
__    __    __    __    __    __    __    __
 72
    65
 73
     2
 40
30.0
 49
12.0
 49
-18.0
  0
LTYPE
  2
ACAD_ISO04W100
 70
    64
  3
____ . ____ . ____ . ____ . ____ . ____ . ____
 72
    65
 73
     4
 40
30.5
 49
24.0
 49
-3.0
 49
0.5
 49
-3.0
  0
LTYPE
  2
ACAD_ISO05W100
 70
    64
  3
____ .. ____ .. ____ .. ____ .. ____ .. ____ ..
 72
    65
 73
     6
 40
34.0
 49
24.0
 49
-3.0
 49
0.5
 49
-3.0
 49
0.5
 49
-3.0
  0
LTYPE
  2
ACAD_ISO06W100
 70
    64
  3
____ ... ____ ... ____ ... ____ ... ____ ... __
 72
    65
 73
     8
 40
37.5
 49
24.0
 49
-3.0
 49
0.5
 49
-3.0
 49
0.5
 49
-3.0
 49
0.5
 49
-3.0
  0
LTYPE
  2
ACAD_ISO07W100
 70
    64
  3
. . . . . . . . . . . . . . . . . . . . . . . .
 72
    65
 73
     2
 40
3.5
 49
0.5
 49
-3.0
  0
LTYPE
  2
ACAD_ISO08W100
 70
    64
  3
____ __ ____ __ ____ __ ____ ____ __ __ ____ __
 72
    65
 73
     4
 40
36.0
 49
24.0
 49
-3.0
 49
6.0
 49
-3.0
  0
LTYPE
  2
ACAD_ISO09W100
 70
    64
  3
____ __ __ ____ __ __ ____ __ __ ____ __ __ ___
 72
    65
 73
     6
 40
45.0
 49
24.0
 49
-3.0
 49
6.0
 49
-3.0
 49
6.0
 49
-3.0
  0
LTYPE
  2
ACAD_ISO10W100
 70
    64
  3
__ . __ . __ . __ . __ . __ . __ . __ . __ . __
 72
    65
 73
     4
 40
18.5
 49
12.0
 49
-3.0
 49
0.5
 49
-3.0
  0
LTYPE
  2
ACAD_ISO11W100
 70
    64
  3
__ __ . __ __ . __ __ . __ __ . __ __ . __ __ .
 72
    65
 73
     6
 40
33.5
 49
12.0
 49
-3.0
 49
12.0
 49
-3.0
 49
0.5
 49
-3.0
  0
LTYPE
  2
ACAD_ISO12W100
 70
    64
  3
__ . . __ . . __ . . __ . . __ . . __ . . __ .
 72
    65
 73
     6
 40
22.0
 49
12.0
 49
-3.0
 49
0.5
 49
-3.0
 49
0.5
 49
-3.0
  0
LTYPE
  2
ACAD_ISO13W100
 70
    64
  3
__ __ . . __ __ . . __ __ . . __ __ . . __ __ .
 72
    65
 73
     8
 40
37.0
 49
12.0
 49
-3.0
 49
12.0
 49
-3.0
 49
0.5
 49
-3.0
 49
0.5
 49
-3.0
  0
LTYPE
  2
ACAD_ISO14W100
 70
    64
  3
__ . . . __ . . . __ . . . __ . . . __ . . . __
 72
    65
 73
     8
 40
25.5
 49
12.0
 49
-3.0
 49
0.5
 49
-3.0
 49
0.5
 49
-3.0
 49
0.5
 49
-3.0
  0
LTYPE
  2
ACAD_ISO15W100
 70
    64
  3
__ __ . . . __ __ . . . __ __ . . . __ __ . . .
 72
    65
 73
    10
 40
40.5
 49
12.0
 49
-3.0
 49
12.0
 49
-3.0
 49
0.5
 49
-3.0
 49
0.5
 49
-3.0
 49
0.5
 49
-3.0
  0
ENDTAB
  0
TABLE
  2
STYLE
 70
     4
  0
STYLE
  2
STANDARD
 70
    64
 40
0.0
 41
1.0
 50
0.0
 71
     0
 42
0.2
  3
txt
  4

  0
STYLE
  2
TOLERANCE
 70
    64
 40
0.0
 41
1.0
 50
0.0
 71
     0
 42
0.2
  3
../igesfont/iges1003.shx
  4

  0
STYLE
  2
ROMANS
 70
    64
 40
0.0
 41
1.0
 50
0.0
 71
     0
 42
0.2
  3
romans.shx
  4

  0
STYLE
  2
ROMANC
 70
    64
 40
0.0
 41
1.0
 50
0.0
 71
     0
 42
0.2
  3
romanc.shx
  4

  0
ENDTAB
  0
TABLE
  2
DIMSTYLE
 70
     2
  0
DIMSTYLE
  2
UNNAMED
 70
     0
  3

  4

  5

  6

  7

 40
1.0
 41
0.18
 42
0.0625
 43
0.38
 44
0.18
 45
0.0
 46
0.0
 47
0.0
 48
0.0
140
0.18
141
0.09
142
0.0
143
25.4
144
1.0
145
0.0
146
1.0
147
0.09
 71
     0
 72
     0
 73
     1
 74
     1
 75
     0
 76
     0
 77
     0
 78
     0
170
     0
171
     2
172
     0
173
     0
174
     0
175
     0
176
     0
177
     0
178
     0
  0
DIMSTYLE
  2
STANDARD
 70
     0
  3

  4

  5

  6

  7

 40
1.0
 41
0.18
 42
0.0625
 43
0.38
 44
0.18
 45
0.0
 46
0.0
 47
0.0
 48
0.0
140
0.18
141
0.09
142
0.0
143
25.4
144
1.0
145
0.0
146
1.0
147
0.09
 71
     0
 72
     0
 73
     1
 74
     1
 75
     0
 76
     0
 77
     0
 78
     0
170
     0
171
     2
172
     0
173
     0
174
     0
175
     0
176
     0
177
     0
178
     0
  0
ENDTAB
  0
TABLE
  2
LAYER
 70
     2
  0
LAYER
  2
0
 70
     0
 62
     7
  6
CONTINUOUS
  0
LAYER
  2
255
 70
     0
 62
     7
  6
CONTINUOUS
  0
ENDTAB
  0
ENDSEC
  0
SECTION
  2
BLOCKS
  0
BLOCK
  5
     B
  8
0
  6
CONTINUOUS
 62
     2
  2
*HATCH41
 70
    65
 10
0.0
 20
0.0
 30
0.0
  3
*HATCH41
  0
LINE
  5
     C
  8
0
  6
DOT2
 62
    10
 10
-28.75
 20
111.0
 30
0.0
 11
-25.5
 21
111.0
 31
0.0
  0
LINE
  5
     D
  8
0
  6
DOT2
 62
    10
 10
25.5
 20
111.0
 30
0.0
 11
28.75
 21
111.0
 31
0.0
  0
LINE
  5
     E
  8
0
  6
DOT2
 62
    10
 10
-28.75
 20
113.0
 30
0.0
 11
-25.5
 21
113.0
 31
0.0
  0
LINE
  5
     F
  8
0
  6
DOT2
 62
    10
 10
25.5
 20
113.0
 30
0.0
 11
28.75
 21
113.0
 31
0.0
  0
LINE
  5
    10
  8
0
  6
DOT2
 62
    10
 10
-28.75
 20
115.0
 30
0.0
 11
-25.5
 21
115.0
 31
0.0
  0
LINE
  5
    11
  8
0
  6
DOT2
 62
    10
 10
25.5
 20
115.0
 30
0.0
 11
28.75
 21
115.0
 31
0.0
  0
LINE
  5
    12
  8
0
  6
DOT2
 62
    10
 10
-28.75
 20
117.0
 30
0.0
 11
-25.5
 21
117.0
 31
0.0
  0
LINE
  5
    13
  8
0
  6
DOT2
 62
    10
 10
25.5
 20
117.0
 30
0.0
 11
28.75
 21
117.0
 31
0.0
  0
LINE
  5
    14
  8
0
  6
DOT2
 62
    10
 10
-28.75
 20
119.0
 30
0.0
 11
-25.5
 21
119.0
 31
0.0
  0
LINE
  5
    15
  8
0
  6
DOT2
 62
    10
 10
25.5
 20
119.0
 30
0.0
 11
28.75
 21
119.0
 31
0.0
  0
LINE
  5
    16
  8
0
  6
DOT2
 62
    10
 10
-28.75
 20
121.0
 30
0.0
 11
-25.5
 21
121.0
 31
0.0
  0
LINE
  5
    17
  8
0
  6
DOT2
 62
    10
 10
25.5
 20
121.0
 30
0.0
 11
28.75
 21
121.0
 31
0.0
  0
LINE
  5
    18
  8
0
  6
DOT2
 62
    10
 10
-28.75
 20
123.0
 30
0.0
 11
-25.5
 21
123.0
 31
0.0
  0
LINE
  5
    19
  8
0
  6
DOT2
 62
    10
 10
25.5
 20
123.0
 30
0.0
 11
28.75
 21
123.0
 31
0.0
  0
LINE
  5
    1A
  8
0
  6
DOT2
 62
    10
 10
-28.75
 20
125.0
 30
0.0
 11
28.75
 21
125.0
 31
0.0
  0
LINE
  5
    1B
  8
0
  6
DOT2
 62
    10
 10
-28.75
 20
127.0
 30
0.0
 11
28.75
 21
127.0
 31
0.0
  0
ENDBLK
  5
    1C
  8
0
  6
CONTINUOUS
 62
     2
  0
BLOCK
  5
    1D
  8
0
  6
CONTINUOUS
 62
     2
  2
*HATCH42
 70
    65
 10
0.0
 20
0.0
 30
0.0
  3
*HATCH42
  0
LINE
  5
    1E
  8
0
  6
DOT2
 62
    10
 10
-28.75
 20
17.0
 30
0.0
 11
28.75
 21
17.0
 31
0.0
  0
LINE
  5
    1F
  8
0
  6
DOT2
 62
    10
 10
-28.75
 20
19.0
 30
0.0
 11
-25.5
 21
19.0
 31
0.0
  0
LINE
  5
    20
  8
0
  6
DOT2
 62
    10
 10
25.5
 20
19.0
 30
0.0
 11
28.75
 21
19.0
 31
0.0
  0
LINE
  5
    21
  8
0
  6
DOT2
 62
    10
 10
-28.75
 20
21.0
 30
0.0
 11
-25.5
 21
21.0
 31
0.0
  0
LINE
  5
    22
  8
0
  6
DOT2
 62
    10
 10
25.5
 20
21.0
 30
0.0
 11
28.75
 21
21.0
 31
0.0
  0
LINE
  5
    23
  8
0
  6
DOT2
 62
    10
 10
-28.75
 20
23.0
 30
0.0
 11
-25.5
 21
23.0
 31
0.0
  0
LINE
  5
    24
  8
0
  6
DOT2
 62
    10
 10
25.5
 20
23.0
 30
0.0
 11
28.75
 21
23.0
 31
0.0
  0
LINE
  5
    25
  8
0
  6
DOT2
 62
    10
 10
-28.75
 20
25.0
 30
0.0
 11
-25.5
 21
25.0
 31
0.0
  0
LINE
  5
    26
  8
0
  6
DOT2
 62
    10
 10
25.5
 20
25.0
 30
0.0
 11
28.75
 21
25.0
 31
0.0
  0
LINE
  5
    27
  8
0
  6
DOT2
 62
    10
 10
-28.75
 20
27.0
 30
0.0
 11
-25.5
 21
27.0
 31
0.0
  0
LINE
  5
    28
  8
0
  6
DOT2
 62
    10
 10
25.5
 20
27.0
 30
0.0
 11
28.75
 21
27.0
 31
0.0
  0
LINE
  5
    29
  8
0
  6
DOT2
 62
    10
 10
-28.75
 20
29.0
 30
0.0
 11
-25.5
 21
29.0
 31
0.0
  0
LINE
  5
    2A
  8
0
  6
DOT2
 62
    10
 10
25.5
 20
29.0
 30
0.0
 11
28.75
 21
29.0
 31
0.0
  0
LINE
  5
    2B
  8
0
  6
DOT2
 62
    10
 10
-28.75
 20
31.0
 30
0.0
 11
-25.5
 21
31.0
 31
0.0
  0
LINE
  5
    2C
  8
0
  6
DOT2
 62
    10
 10
25.5
 20
31.0
 30
0.0
 11
28.75
 21
31.0
 31
0.0
  0
LINE
  5
    2D
  8
0
  6
DOT2
 62
    10
 10
-28.75
 20
33.0
 30
0.0
 11
-25.5
 21
33.0
 31
0.0
  0
LINE
  5
    2E
  8
0
  6
DOT2
 62
    10
 10
25.5
 20
33.0
 30
0.0
 11
28.75
 21
33.0
 31
0.0
  0
ENDBLK
  5
    2F
  8
0
  6
CONTINUOUS
 62
     2
  0
BLOCK
  5
    30
  8
0
  6
CONTINUOUS
 62
     7
  2
MOTORE_FRONTE
 70
    64
 10
0.0
 20
0.0
 30
0.0
  3
MOTORE_FRONTE
  0
LINE
  5
    31
  8
0
  6
CONTINUOUS
 62
     1
 10
-68.75
 20
0.0
 30
0.0
 11
68.75
 21
0.0
 31
0.0
  0
LINE
  5
    32
  8
0
  6
CONTINUOUS
 62
     1
 10
-68.75
 20
270.0
 30
0.0
 11
68.75
 21
270.0
 31
0.0
  0
LINE
  5
    33
  8
0
  6
CONTINUOUS
 62
     1
 10
-70.25
 20
1.5
 30
0.0
 11
-70.25
 21
268.5
 31
0.0
  0
LINE
  5
    34
  8
0
  6
CONTINUOUS
 62
     1
 10
70.25
 20
1.5
 30
0.0
 11
70.25
 21
268.5
 31
0.0
  0
ARC
  5
    35
  8
0
  6
CONTINUOUS
 62
     1
 10
68.75
 20
268.5
 30
0.0
 40
1.5
 50
0.0
 51
90.0
  0
ARC
  5
    36
  8
0
  6
CONTINUOUS
 62
     1
 10
-68.75
 20
268.5
 30
0.0
 40
1.5
 50
90.0
 51
180.0
  0
ARC
  5
    37
  8
0
  6
CONTINUOUS
 62
     1
 10
-68.75
 20
1.5
 30
0.0
 40
1.5
 50
180.0
 51
270.0
  0
ARC
  5
    38
  8
0
  6
CONTINUOUS
 62
     1
 10
68.75
 20
1.5
 30
0.0
 40
1.5
 50
270.0
 51
360.0
  0
LINE
  5
    39
  8
0
  6
CONTINUOUS
 62
     1
 10
-70.25
 20
268.0
 30
0.0
 11
70.25
 21
268.0
 31
0.0
  0
LINE
  5
    3A
  8
0
  6
CONTINUOUS
 62
     1
 10
-70.25
 20
258.0
 30
0.0
 11
70.25
 21
258.0
 31
0.0
  0
LINE
  5
    3B
  8
0
  6
CONTINUOUS
 62
     1
 10
-70.25
 20
236.75
 30
0.0
 11
70.25
 21
236.75
 31
0.0
  0
LINE
  5
    3C
  8
0
  6
CONTINUOUS
 62
     1
 10
-70.25
 20
235.75
 30
0.0
 11
-25.5
 21
235.75
 31
0.0
  0
LINE
  5
    3D
  8
0
  6
CONTINUOUS
 62
     1
 10
-70.25
 20
212.25
 30
0.0
 11
-25.5
 21
212.25
 31
0.0
  0
LINE
  5
    3E
  8
0
  6
CONTINUOUS
 62
     1
 10
-70.25
 20
211.25
 30
0.0
 11
70.25
 21
211.25
 31
0.0
  0
LINE
  5
    3F
  8
0
  6
CONTINUOUS
 62
     1
 10
-24.5
 20
212.25
 30
0.0
 11
-24.5
 21
235.75
 31
0.0
  0
LINE
  5
    40
  8
0
  6
CONTINUOUS
 62
     1
 10
24.5
 20
212.25
 30
0.0
 11
24.5
 21
235.75
 31
0.0
  0
LINE
  5
    41
  8
0
  6
CONTINUOUS
 62
     1
 10
-25.5
 20
212.25
 30
0.0
 11
-25.5
 21
235.75
 31
0.0
  0
LINE
  5
    42
  8
0
  6
CONTINUOUS
 62
     1
 10
25.5
 20
212.25
 30
0.0
 11
25.5
 21
235.75
 31
0.0
  0
LINE
  5
    43
  8
0
  6
CONTINUOUS
 62
     1
 10
-24.5
 20
235.75
 30
0.0
 11
24.5
 21
235.75
 31
0.0
  0
LINE
  5
    44
  8
0
  6
CONTINUOUS
 62
     1
 10
25.5
 20
235.75
 30
0.0
 11
70.25
 21
235.75
 31
0.0
  0
LINE
  5
    45
  8
0
  6
CONTINUOUS
 62
     1
 10
25.5
 20
212.25
 30
0.0
 11
70.25
 21
212.25
 31
0.0
  0
LINE
  5
    46
  8
0
  6
CONTINUOUS
 62
     1
 10
-24.5
 20
212.25
 30
0.0
 11
24.5
 21
212.25
 31
0.0
  0
LINE
  5
    47
  8
0
  6
CONTINUOUS
 62
     1
 10
-70.25
 20
189.25
 30
0.0
 11
70.25
 21
189.25
 31
0.0
  0
POINT
  5
    48
  8
0
  6
CONTINUOUS
 62
     1
 10
-35.25
 20
152.5
 30
0.0
  0
LINE
  5
    49
  8
0
  6
CONTINUOUS
 62
     1
 10
23.25
 20
141.5
 30
0.0
 11
23.25
 21
163.5
 31
0.0
  0
LINE
  5
    4A
  8
0
  6
CONTINUOUS
 62
     1
 10
-68.25
 20
141.5
 30
0.0
 11
-68.25
 21
163.5
 31
0.0
  0
LINE
  5
    4B
  8
0
  6
CONTINUOUS
 62
     1
 10
-66.75
 20
165.0
 30
0.0
 11
21.75
 21
165.0
 31
0.0
  0
LINE
  5
    4C
  8
0
  6
CONTINUOUS
 62
     1
 10
-66.75
 20
140.0
 30
0.0
 11
21.75
 21
140.0
 31
0.0
  0
ARC
  5
    4D
  8
0
  6
CONTINUOUS
 62
     1
 10
-66.75
 20
163.5
 30
0.0
 40
1.5
 50
90.0
 51
180.0
  0
ARC
  5
    4E
  8
0
  6
CONTINUOUS
 62
     1
 10
-66.75
 20
141.5
 30
0.0
 40
1.5
 50
180.0
 51
270.0
  0
ARC
  5
    4F
  8
0
  6
CONTINUOUS
 62
     1
 10
21.75
 20
141.5
 30
0.0
 40
1.5
 50
270.0
 51
360.0
  0
ARC
  5
    50
  8
0
  6
CONTINUOUS
 62
     1
 10
21.75
 20
163.5
 30
0.0
 40
1.5
 50
0.0
 51
90.0
  0
CIRCLE
  5
    51
  8
0
  6
CONTINUOUS
 62
     1
 10
48.0
 20
46.5
 30
0.0
 40
8.25
  0
CIRCLE
  5
    52
  8
0
  6
CONTINUOUS
 62
     1
 10
48.0
 20
46.5
 30
0.0
 40
7.0
  0
LINE
  5
    53
  8
0
  6
CONTINUOUS
 62
     1
 10
-70.25
 20
128.0
 30
0.0
 11
70.25
 21
128.0
 31
0.0
  0
LINE
  5
    54
  8
0
  6
CONTINUOUS
 62
     1
 10
-70.25
 20
127.0
 30
0.0
 11
70.25
 21
127.0
 31
0.0
  0
LINE
  5
    55
  8
0
  6
CONTINUOUS
 62
     1
 10
-70.25
 20
108.0
 30
0.0
 11
-25.5
 21
108.0
 31
0.0
  0
LINE
  5
    56
  8
0
  6
CONTINUOUS
 62
     1
 10
-70.25
 20
109.0
 30
0.0
 11
-25.5
 21
109.0
 31
0.0
  0
LINE
  5
    57
  8
0
  6
CONTINUOUS
 62
     1
 10
-70.25
 20
34.0
 30
0.0
 11
-25.5
 21
34.0
 31
0.0
  0
LINE
  5
    58
  8
0
  6
CONTINUOUS
 62
     1
 10
-70.25
 20
14.0
 30
0.0
 11
70.25
 21
14.0
 31
0.0
  0
LINE
  5
    59
  8
0
  6
CONTINUOUS
 62
     1
 10
-70.25
 20
15.0
 30
0.0
 11
70.25
 21
15.0
 31
0.0
  0
LINE
  5
    5A
  8
0
  6
CONTINUOUS
 62
     1
 10
-70.25
 20
33.0
 30
0.0
 11
-25.5
 21
33.0
 31
0.0
  0
LINE
  5
    5B
  8
0
  6
CONTINUOUS
 62
     1
 10
-25.5
 20
18.25
 30
0.0
 11
-25.5
 21
123.75
 31
0.0
  0
LINE
  5
    5C
  8
0
  6
CONTINUOUS
 62
     1
 10
25.5
 20
18.25
 30
0.0
 11
25.5
 21
123.75
 31
0.0
  0
LINE
  5
    5D
  8
0
  6
CONTINUOUS
 62
     1
 10
-25.5
 20
123.75
 30
0.0
 11
25.5
 21
123.75
 31
0.0
  0
LINE
  5
    5E
  8
0
  6
CONTINUOUS
 62
     1
 10
-25.5
 20
18.25
 30
0.0
 11
25.5
 21
18.25
 31
0.0
  0
LINE
  5
    5F
  8
0
  6
CONTINUOUS
 62
     1
 10
25.5
 20
109.0
 30
0.0
 11
70.25
 21
109.0
 31
0.0
  0
LINE
  5
    60
  8
0
  6
CONTINUOUS
 62
     1
 10
25.5
 20
108.0
 30
0.0
 11
70.25
 21
108.0
 31
0.0
  0
LINE
  5
    61
  8
0
  6
CONTINUOUS
 62
     1
 10
25.5
 20
33.0
 30
0.0
 11
70.25
 21
33.0
 31
0.0
  0
LINE
  5
    62
  8
0
  6
CONTINUOUS
 62
     1
 10
25.5
 20
34.0
 30
0.0
 11
70.25
 21
34.0
 31
0.0
  0
LINE
  5
    63
  8
0
  6
CONTINUOUS
 62
     1
 10
-28.75
 20
15.0
 30
0.0
 11
-28.75
 21
33.0
 31
0.0
  0
LINE
  5
    64
  8
0
  6
CONTINUOUS
 62
     1
 10
28.75
 20
15.0
 30
0.0
 11
28.75
 21
33.0
 31
0.0
  0
LINE
  5
    65
  8
0
  6
CONTINUOUS
 62
     1
 10
28.75
 20
109.0
 30
0.0
 11
28.75
 21
127.0
 31
0.0
  0
LINE
  5
    66
  8
0
  6
CONTINUOUS
 62
     1
 10
-28.75
 20
109.0
 30
0.0
 11
-28.75
 21
127.0
 31
0.0
  0
CIRCLE
  5
    67
  8
0
  6
CONTINUOUS
 62
     2
 10
-63.0
 20
7.0
 30
0.0
 40
4.0
  0
CIRCLE
  5
    68
  8
0
  6
CONTINUOUS
 62
     2
 10
-63.0
 20
135.0
 30
0.0
 40
4.0
  0
CIRCLE
  5
    69
  8
0
  6
CONTINUOUS
 62
     2
 10
-63.0
 20
263.0
 30
0.0
 40
4.0
  0
LINE
  5
    6A
  8
0
  6
CONTINUOUS
 62
     2
 10
-63.75
 20
137.75
 30
0.0
 11
-62.25
 21
137.75
 31
0.0
  0
LINE
  5
    6B
  8
0
  6
CONTINUOUS
 62
     2
 10
-63.75
 20
135.75
 30
0.0
 11
-63.75
 21
137.75
 31
0.0
  0
LINE
  5
    6C
  8
0
  6
CONTINUOUS
 62
     2
 10
-62.25
 20
135.75
 30
0.0
 11
-62.25
 21
137.75
 31
0.0
  0
LINE
  5
    6D
  8
0
  6
CONTINUOUS
 62
     2
 10
-62.25
 20
135.75
 30
0.0
 11
-60.25
 21
135.75
 31
0.0
  0
LINE
  5
    6E
  8
0
  6
CONTINUOUS
 62
     2
 10
-65.75
 20
135.75
 30
0.0
 11
-63.75
 21
135.75
 31
0.0
  0
LINE
  5
    6F
  8
0
  6
CONTINUOUS
 62
     2
 10
-65.75
 20
134.25
 30
0.0
 11
-65.75
 21
135.75
 31
0.0
  0
LINE
  5
    70
  8
0
  6
CONTINUOUS
 62
     2
 10
-60.25
 20
134.25
 30
0.0
 11
-60.25
 21
135.75
 31
0.0
  0
LINE
  5
    71
  8
0
  6
CONTINUOUS
 62
     2
 10
-62.25
 20
134.25
 30
0.0
 11
-60.25
 21
134.25
 31
0.0
  0
LINE
  5
    72
  8
0
  6
CONTINUOUS
 62
     2
 10
-65.75
 20
134.25
 30
0.0
 11
-63.75
 21
134.25
 31
0.0
  0
LINE
  5
    73
  8
0
  6
CONTINUOUS
 62
     2
 10
-63.75
 20
132.25
 30
0.0
 11
-63.75
 21
134.25
 31
0.0
  0
LINE
  5
    74
  8
0
  6
CONTINUOUS
 62
     2
 10
-62.25
 20
132.25
 30
0.0
 11
-62.25
 21
134.25
 31
0.0
  0
LINE
  5
    75
  8
0
  6
CONTINUOUS
 62
     2
 10
-63.75
 20
132.25
 30
0.0
 11
-62.25
 21
132.25
 31
0.0
  0
LINE
  5
    76
  8
0
  6
CONTINUOUS
 62
     2
 10
-63.75
 20
9.75
 30
0.0
 11
-62.25
 21
9.75
 31
0.0
  0
LINE
  5
    77
  8
0
  6
CONTINUOUS
 62
     2
 10
-63.75
 20
7.75
 30
0.0
 11
-63.75
 21
9.75
 31
0.0
  0
LINE
  5
    78
  8
0
  6
CONTINUOUS
 62
     2
 10
-62.25
 20
7.75
 30
0.0
 11
-62.25
 21
9.75
 31
0.0
  0
LINE
  5
    79
  8
0
  6
CONTINUOUS
 62
     2
 10
-62.25
 20
7.75
 30
0.0
 11
-60.25
 21
7.75
 31
0.0
  0
LINE
  5
    7A
  8
0
  6
CONTINUOUS
 62
     2
 10
-65.75
 20
7.75
 30
0.0
 11
-63.75
 21
7.75
 31
0.0
  0
LINE
  5
    7B
  8
0
  6
CONTINUOUS
 62
     2
 10
-65.75
 20
6.25
 30
0.0
 11
-65.75
 21
7.75
 31
0.0
  0
LINE
  5
    7C
  8
0
  6
CONTINUOUS
 62
     2
 10
-65.75
 20
6.25
 30
0.0
 11
-63.75
 21
6.25
 31
0.0
  0
LINE
  5
    7D
  8
0
  6
CONTINUOUS
 62
     2
 10
-62.25
 20
4.24999999999994
 30
0.0
 11
-62.25
 21
6.25
 31
0.0
  0
LINE
  5
    7E
  8
0
  6
CONTINUOUS
 62
     2
 10
-62.25
 20
6.25
 30
0.0
 11
-60.25
 21
6.25
 31
0.0
  0
LINE
  5
    7F
  8
0
  6
CONTINUOUS
 62
     2
 10
-60.25
 20
6.25
 30
0.0
 11
-60.25
 21
7.75
 31
0.0
  0
LINE
  5
    80
  8
0
  6
CONTINUOUS
 62
     2
 10
-63.75
 20
4.24999999999994
 30
0.0
 11
-63.75
 21
6.25
 31
0.0
  0
LINE
  5
    81
  8
0
  6
CONTINUOUS
 62
     2
 10
-63.75
 20
4.24999999999994
 30
0.0
 11
-62.25
 21
4.24999999999994
 31
0.0
  0
CIRCLE
  5
    82
  8
0
  6
CONTINUOUS
 62
     2
 10
63.0
 20
7.0
 30
0.0
 40
4.0
  0
LINE
  5
    83
  8
0
  6
CONTINUOUS
 62
     2
 10
62.25
 20
9.75
 30
0.0
 11
63.75
 21
9.75
 31
0.0
  0
LINE
  5
    84
  8
0
  6
CONTINUOUS
 62
     2
 10
63.75
 20
7.75
 30
0.0
 11
63.75
 21
9.75
 31
0.0
  0
LINE
  5
    85
  8
0
  6
CONTINUOUS
 62
     2
 10
62.25
 20
7.75
 30
0.0
 11
62.25
 21
9.75
 31
0.0
  0
LINE
  5
    86
  8
0
  6
CONTINUOUS
 62
     2
 10
60.25
 20
7.75
 30
0.0
 11
62.25
 21
7.75
 31
0.0
  0
LINE
  5
    87
  8
0
  6
CONTINUOUS
 62
     2
 10
63.75
 20
7.75
 30
0.0
 11
65.75
 21
7.75
 31
0.0
  0
LINE
  5
    88
  8
0
  6
CONTINUOUS
 62
     2
 10
65.75
 20
6.25
 30
0.0
 11
65.75
 21
7.75
 31
0.0
  0
LINE
  5
    89
  8
0
  6
CONTINUOUS
 62
     2
 10
60.25
 20
6.25
 30
0.0
 11
60.25
 21
7.75
 31
0.0
  0
LINE
  5
    8A
  8
0
  6
CONTINUOUS
 62
     2
 10
60.25
 20
6.25
 30
0.0
 11
62.25
 21
6.25
 31
0.0
  0
LINE
  5
    8B
  8
0
  6
CONTINUOUS
 62
     2
 10
63.75
 20
6.25
 30
0.0
 11
65.75
 21
6.25
 31
0.0
  0
LINE
  5
    8C
  8
0
  6
CONTINUOUS
 62
     2
 10
63.75
 20
4.24999999999994
 30
0.0
 11
63.75
 21
6.25
 31
0.0
  0
LINE
  5
    8D
  8
0
  6
CONTINUOUS
 62
     2
 10
62.25
 20
4.24999999999994
 30
0.0
 11
62.25
 21
6.25
 31
0.0
  0
LINE
  5
    8E
  8
0
  6
CONTINUOUS
 62
     2
 10
62.25
 20
4.24999999999994
 30
0.0
 11
63.75
 21
4.24999999999994
 31
0.0
  0
CIRCLE
  5
    8F
  8
0
  6
CONTINUOUS
 62
     2
 10
63.0
 20
135.0
 30
0.0
 40
4.0
  0
LINE
  5
    90
  8
0
  6
CONTINUOUS
 62
     2
 10
62.25
 20
137.75
 30
0.0
 11
63.75
 21
137.75
 31
0.0
  0
LINE
  5
    91
  8
0
  6
CONTINUOUS
 62
     2
 10
63.75
 20
135.75
 30
0.0
 11
63.75
 21
137.75
 31
0.0
  0
LINE
  5
    92
  8
0
  6
CONTINUOUS
 62
     2
 10
62.25
 20
135.75
 30
0.0
 11
62.25
 21
137.75
 31
0.0
  0
LINE
  5
    93
  8
0
  6
CONTINUOUS
 62
     2
 10
60.25
 20
135.75
 30
0.0
 11
62.25
 21
135.75
 31
0.0
  0
LINE
  5
    94
  8
0
  6
CONTINUOUS
 62
     2
 10
63.75
 20
135.75
 30
0.0
 11
65.75
 21
135.75
 31
0.0
  0
LINE
  5
    95
  8
0
  6
CONTINUOUS
 62
     2
 10
65.75
 20
134.25
 30
0.0
 11
65.75
 21
135.75
 31
0.0
  0
LINE
  5
    96
  8
0
  6
CONTINUOUS
 62
     2
 10
63.75
 20
134.25
 30
0.0
 11
65.75
 21
134.25
 31
0.0
  0
LINE
  5
    97
  8
0
  6
CONTINUOUS
 62
     2
 10
63.75
 20
132.25
 30
0.0
 11
63.75
 21
134.25
 31
0.0
  0
LINE
  5
    98
  8
0
  6
CONTINUOUS
 62
     2
 10
62.25
 20
132.25
 30
0.0
 11
63.75
 21
132.25
 31
0.0
  0
LINE
  5
    99
  8
0
  6
CONTINUOUS
 62
     2
 10
62.25
 20
132.25
 30
0.0
 11
62.25
 21
134.25
 31
0.0
  0
LINE
  5
    9A
  8
0
  6
CONTINUOUS
 62
     2
 10
60.25
 20
134.25
 30
0.0
 11
62.25
 21
134.25
 31
0.0
  0
LINE
  5
    9B
  8
0
  6
CONTINUOUS
 62
     2
 10
60.25
 20
134.25
 30
0.0
 11
60.25
 21
135.75
 31
0.0
  0
CIRCLE
  5
    9C
  8
0
  6
CONTINUOUS
 62
     2
 10
63.0
 20
263.0
 30
0.0
 40
4.0
  0
INSERT
  5
    9D
  8
0
  6
CONTINUOUS
 62
     2
  2
*HATCH41
 10
0.0
 20
0.0
 30
0.0
  0
INSERT
  5
    9E
  8
0
  6
CONTINUOUS
 62
     2
  2
*HATCH42
 10
0.0
 20
0.0
 30
0.0
  0
CIRCLE
  5
    9F
  8
0
  6
CONTINUOUS
 62
     2
 10
0.0
 20
224.0
 30
0.0
 40
9.5
  0
CIRCLE
  5
    A0
  8
0
  6
CONTINUOUS
 62
     2
 10
0.0
 20
224.0
 30
0.0
 40
7.75
  0
CIRCLE
  5
    A1
  8
0
  6
CONTINUOUS
 62
     2
 10
0.0
 20
224.0
 30
0.0
 40
6.25
  0
ARC
  5
    A2
  8
0
  6
DOT
 62
     2
 10
39.25
 20
224.0
 30
0.0
 40
5.5
 50
90.0
 51
270.0
  0
ARC
  5
    A3
  8
0
  6
CONTINUOUS
 62
     2
 10
50.75
 20
224.0
 30
0.0
 40
5.5
 50
270.0
 51
450.0
  0
LINE
  5
    A4
  8
0
  6
CONTINUOUS
 62
     2
 10
45.25
 20
216.5
 30
0.0
 11
45.25
 21
231.5
 31
0.0
  0
LINE
  5
    A5
  8
0
  6
DOT
 62
     2
 10
39.25
 20
229.5
 30
0.0
 11
45.25
 21
229.5
 31
0.0
  0
LINE
  5
    A6
  8
0
  6
DOT
 62
     2
 10
39.25
 20
218.5
 30
0.0
 11
45.25
 21
218.5
 31
0.0
  0
ARC
  5
    A7
  8
0
  6
CONTINUOUS
 62
     2
 10
39.25
 20
224.0
 30
0.0
 40
7.5
 50
90.0
 51
270.0
  0
LINE
  5
    A8
  8
0
  6
CONTINUOUS
 62
     2
 10
39.25
 20
231.5
 30
0.0
 11
45.25
 21
231.5
 31
0.0
  0
LINE
  5
    A9
  8
0
  6
CONTINUOUS
 62
     2
 10
39.25
 20
216.5
 30
0.0
 11
45.25
 21
216.5
 31
0.0
  0
LINE
  5
    AA
  8
0
  6
CONTINUOUS
 62
     2
 10
49.25
 20
218.5
 30
0.0
 11
49.25
 21
229.5
 31
0.0
  0
LINE
  5
    AB
  8
0
  6
CONTINUOUS
 62
     2
 10
52.25
 20
218.708497377871
 30
0.0
 11
52.25
 21
229.291502622129
 31
0.0
  0
LINE
  5
    AC
  8
0
  6
CONTINUOUS
 62
     2
 10
45.25
 20
229.5
 30
0.0
 11
50.75
 21
229.5
 31
0.0
  0
LINE
  5
    AD
  8
0
  6
CONTINUOUS
 62
     2
 10
45.25
 20
218.5
 30
0.0
 11
50.75
 21
218.5
 31
0.0
  0
LINE
  5
    AE
  8
0
  6
DASHDOT
 62
     2
 10
48.0
 20
29.5
 30
0.0
 11
48.0
 21
63.5
 31
0.0
  0
LINE
  5
    AF
  8
0
  6
DASHDOT
 62
     2
 10
31.0
 20
46.5
 30
0.0
 11
65.0
 21
46.5
 31
0.0
  0
LINE
  5
    B0
  8
0
  6
DASHDOT
 62
     2
 10
63.0
 20
-7.0
 30
0.0
 11
63.0
 21
21.0
 31
0.0
  0
LINE
  5
    B1
  8
0
  6
DASHDOT
 62
     2
 10
49.0
 20
7.0
 30
0.0
 11
77.0
 21
7.0
 31
0.0
  0
LINE
  5
    B2
  8
0
  6
DASHDOT
 62
     2
 10
-63.0
 20
-7.0
 30
0.0
 11
-63.0
 21
21.0
 31
0.0
  0
LINE
  5
    B3
  8
0
  6
DASHDOT
 62
     2
 10
-77.0
 20
7.0
 30
0.0
 11
-49.0
 21
7.0
 31
0.0
  0
LINE
  5
    B4
  8
0
  6
DASHDOT
 62
     2
 10
-63.0
 20
121.0
 30
0.0
 11
-63.0
 21
149.0
 31
0.0
  0
LINE
  5
    B5
  8
0
  6
DASHDOT
 62
     2
 10
-77.0
 20
135.0
 30
0.0
 11
-49.0
 21
135.0
 31
0.0
  0
LINE
  5
    B6
  8
0
  6
DASHDOT
 62
     2
 10
63.0
 20
121.0
 30
0.0
 11
63.0
 21
149.0
 31
0.0
  0
LINE
  5
    B7
  8
0
  6
DASHDOT
 62
     2
 10
49.0
 20
135.0
 30
0.0
 11
77.0
 21
135.0
 31
0.0
  0
LINE
  5
    B8
  8
0
  6
DASHDOT
 62
     2
 10
0.0
 20
206.25
 30
0.0
 11
0.0
 21
241.75
 31
0.0
  0
LINE
  5
    B9
  8
0
  6
DASHDOT
 62
     2
 10
-17.75
 20
224.0
 30
0.0
 11
17.75
 21
224.0
 31
0.0
  0
LINE
  5
    BA
  8
0
  6
DASHDOT
 62
     2
 10
39.25
 20
206.5
 30
0.0
 11
39.25
 21
241.5
 31
0.0
  0
LINE
  5
    BB
  8
0
  6
DASHDOT
 62
     2
 10
21.75
 20
224.0
 30
0.0
 11
56.75
 21
224.0
 31
0.0
  0
LINE
  5
    BC
  8
0
  6
DASHDOT
 62
     2
 10
50.75
 20
208.5
 30
0.0
 11
50.75
 21
239.5
 31
0.0
  0
LINE
  5
    BD
  8
0
  6
DASHDOT
 62
     2
 10
35.25
 20
224.0
 30
0.0
 11
66.25
 21
224.0
 31
0.0
  0
LINE
  5
    BE
  8
0
  6
DASHDOT
 62
     2
 10
63.0
 20
249.0
 30
0.0
 11
63.0
 21
277.0
 31
0.0
  0
LINE
  5
    BF
  8
0
  6
DASHDOT
 62
     2
 10
49.0
 20
263.0
 30
0.0
 11
77.0
 21
263.0
 31
0.0
  0
LINE
  5
    C0
  8
0
  6
CONTINUOUS
 62
     2
 10
-69.25
 20
190.25
 30
0.0
 11
-69.25
 21
210.25
 31
0.0
  0
LINE
  5
    C1
  8
0
  6
CONTINUOUS
 62
     2
 10
69.25
 20
190.25
 30
0.0
 11
69.25
 21
210.25
 31
0.0
  0
LINE
  5
    C2
  8
0
  6
CONTINUOUS
 62
     2
 10
-41.75
 20
190.25
 30
0.0
 11
-41.75
 21
210.25
 31
0.0
  0
LINE
  5
    C3
  8
0
  6
CONTINUOUS
 62
     2
 10
-25.25
 20
190.25
 30
0.0
 11
-25.25
 21
210.25
 31
0.0
  0
LINE
  5
    C4
  8
0
  6
CONTINUOUS
 62
     2
 10
-8.75
 20
190.25
 30
0.0
 11
-8.75
 21
210.25
 31
0.0
  0
LINE
  5
    C5
  8
0
  6
CONTINUOUS
 62
     2
 10
7.75
 20
190.25
 30
0.0
 11
7.75
 21
210.25
 31
0.0
  0
LINE
  5
    C6
  8
0
  6
CONTINUOUS
 62
     2
 10
24.25
 20
190.25
 30
0.0
 11
24.25
 21
210.25
 31
0.0
  0
LINE
  5
    C7
  8
0
  6
CONTINUOUS
 62
     2
 10
40.75
 20
190.25
 30
0.0
 11
40.75
 21
210.25
 31
0.0
  0
LINE
  5
    C8
  8
0
  6
CONTINUOUS
 62
     2
 10
57.25
 20
190.25
 30
0.0
 11
57.25
 21
210.113559719484
 31
0.0
  0
LINE
  5
    C9
  8
0
  6
CONTINUOUS
 62
     2
 10
-69.25
 20
203.916666666667
 30
0.0
 11
69.25
 21
203.916666666667
 31
0.0
  0
LINE
  5
    CA
  8
0
  6
CONTINUOUS
 62
     2
 10
-69.25
 20
196.583333333333
 30
0.0
 11
69.25
 21
196.583333333333
 31
0.0
  0
LINE
  5
    CB
  8
0
  6
CONTINUOUS
 62
     2
 10
-69.25
 20
210.25
 30
0.0
 11
69.25
 21
210.25
 31
0.0
  0
LINE
  5
    CC
  8
0
  6
CONTINUOUS
 62
     2
 10
-69.25
 20
190.25
 30
0.0
 11
69.25
 21
190.25
 31
0.0
  0
CIRCLE
  5
    CD
  8
0
  6
CONTINUOUS
 62
     7
 10
-35.25
 20
152.5
 30
0.0
 40
8.0
  0
LINE
  5
    CE
  8
0
  6
DASHDOT
 62
     7
 10
-63.0
 20
249.0
 30
0.0
 11
-63.0
 21
277.0
 31
0.0
  0
LINE
  5
    CF
  8
0
  6
DASHDOT
 62
     7
 10
-77.0
 20
263.0
 30
0.0
 11
-49.0
 21
263.0
 31
0.0
  0
LINE
  5
    D0
  8
0
  6
CONTINUOUS
 62
     7
 10
-70.25
 20
178.428172712697
 30
0.0
 11
70.25
 21
178.428172712697
 31
0.0
  0
LINE
  5
    D1
  8
0
  6
CONTINUOUS
 62
     7
 10
-70.25
 20
171.499969482422
 30
0.0
 11
70.25
 21
171.499969482422
 31
0.0
  0
ENDBLK
  5
    D2
  8
0
  6
CONTINUOUS
 62
     7
  0
BLOCK
  5
    D3
  8
0
  6
CONTINUOUS
 62
     7
  2
*UDIM415
 70
    65
 10
0.0
 20
0.0
 30
0.0
  3
*UDIM415
  0
TEXT
  5
    D4
  8
0
  6
CONTINUOUS
 62
     7
 10
-25.9048667757644
 20
-157.23710293489
 30
0.0
 40
3.00000001532688
  1
285,5
 50
359.999999948034
 41
0.933333333333333
 72
     1
 11
-19.2048667401814
 21
-155.73710293327
 31
0.0
 73
     2
  0
LINE
  5
    D5
  8
0
  6
CONTINUOUS
 62
     7
 10
31.0326133433791
 20
-71.7688155205599
 30
0.0
 11
31.0326133433791
 21
-160.237102940933
 31
0.0
  0
LINE
  5
    D6
  8
0
  6
CONTINUOUS
 62
     7
 10
-68.8923525244999
 20
-138.968759127259
 30
0.0
 11
-68.8923525244999
 21
-160.237102940933
 31
0.0
  0
LINE
  5
    D7
  8
0
  6
CONTINUOUS
 62
     7
 10
31.0326133433791
 20
-158.237102940933
 30
0.0
 11
-68.8923525244999
 21
-158.237102940933
 31
0.0
  0
LINE
  5
    D8
  8
0
  6
CONTINUOUS
 62
     7
 10
28.0781900661721
 20
-158.758047370885
 30
0.0
 11
31.0326133433791
 21
-158.237102940933
 31
0.0
  0
LINE
  5
    D9
  8
0
  6
CONTINUOUS
 62
     7
 10
31.0326133433791
 20
-158.237102940933
 30
0.0
 11
28.0781900661721
 21
-157.716158510982
 31
0.0
  0
LINE
  5
    DA
  8
0
  6
CONTINUOUS
 62
     7
 10
-65.9379292472929
 20
-157.716158510982
 30
0.0
 11
-68.8923525244999
 21
-158.237102940933
 31
0.0
  0
LINE
  5
    DB
  8
0
  6
CONTINUOUS
 62
     7
 10
-68.8923525244999
 20
-158.237102940933
 30
0.0
 11
-65.9379292472929
 21
-158.758047370885
 31
0.0
  0
ENDBLK
  5
    DC
  8
0
  6
CONTINUOUS
 62
     7
  0
BLOCK
  5
    DD
  8
0
  6
CONTINUOUS
 62
     7
  2
*UDIM416
 70
    65
 10
0.0
 20
0.0
 30
0.0
  3
*UDIM416
  0
TEXT
  5
    DE
  8
0
  6
CONTINUOUS
 62
     7
 10
-13.6548706977497
 20
-147.554975780894
 30
0.0
 40
3.00000001532688
  1
215,5
 50
359.999999948034
 41
0.933333333333333
 72
     1
 11
-6.95487066216677
 21
-146.054975779273
 31
0.0
 73
     2
  0
LINE
  5
    DF
  8
0
  6
CONTINUOUS
 62
     7
 10
31.0326133433791
 20
-71.7688155205599
 30
0.0
 11
31.0326133433791
 21
-150.554975786937
 31
0.0
  0
LINE
  5
    E0
  8
0
  6
CONTINUOUS
 62
     7
 10
-44.3923550278949
 20
-138.968759127259
 30
0.0
 11
-44.3923550278949
 21
-150.554975786937
 31
0.0
  0
LINE
  5
    E1
  8
0
  6
CONTINUOUS
 62
     7
 10
31.0326133433791
 20
-148.554975786937
 30
0.0
 11
-44.3923550278949
 21
-148.554975786937
 31
0.0
  0
LINE
  5
    E2
  8
0
  6
CONTINUOUS
 62
     7
 10
28.0781900661721
 20
-149.075920216888
 30
0.0
 11
31.0326133433791
 21
-148.554975786937
 31
0.0
  0
LINE
  5
    E3
  8
0
  6
CONTINUOUS
 62
     7
 10
31.0326133433791
 20
-148.554975786937
 30
0.0
 11
28.0781900661721
 21
-148.034031356985
 31
0.0
  0
LINE
  5
    E4
  8
0
  6
CONTINUOUS
 62
     7
 10
-41.437931750688
 20
-148.034031356985
 30
0.0
 11
-44.3923550278949
 21
-148.554975786937
 31
0.0
  0
LINE
  5
    E5
  8
0
  6
CONTINUOUS
 62
     7
 10
-44.3923550278949
 20
-148.554975786937
 30
0.0
 11
-41.437931750688
 21
-149.075920216888
 31
0.0
  0
ENDBLK
  5
    E6
  8
0
  6
CONTINUOUS
 62
     7
  0
BLOCK
  5
    E7
  8
0
  6
CONTINUOUS
 62
     7
  2
*UDIM417
 70
    65
 10
0.0
 20
0.0
 30
0.0
  3
*UDIM417
  0
TEXT
  5
    E8
  8
0
  6
CONTINUOUS
 62
     7
 10
-29.2298736813995
 20
25.4280151179846
 30
0.0
 40
3.00000001532688
  1
91,5
 50
359.999999948034
 41
0.933333333333333
 72
     1
 11
-23.9298736529691
 21
26.9280151208677
 31
0.0
 73
     2
  0
LINE
  5
    E9
  8
0
  6
CONTINUOUS
 62
     7
 10
-7.64237546920776
 20
13.7331112889275
 30
0.0
 11
-7.64237546920776
 21
26.4280151132043
 31
0.0
  0
LINE
  5
    EA
  8
0
  6
CONTINUOUS
 62
     7
 10
-39.6673721969128
 20
9.15619397362359
 30
0.0
 11
-39.6673721969128
 21
26.4280151132043
 31
0.0
  0
LINE
  5
    EB
  8
0
  6
CONTINUOUS
 62
     7
 10
-7.64237546920776
 20
24.4280151132043
 30
0.0
 11
-39.6673721969128
 21
24.4280151132043
 31
0.0
  0
LINE
  5
    EC
  8
0
  6
CONTINUOUS
 62
     7
 10
-10.5967987464147
 20
23.9070706832526
 30
0.0
 11
-7.64237546920776
 21
24.4280151132043
 31
0.0
  0
LINE
  5
    ED
  8
0
  6
CONTINUOUS
 62
     7
 10
-7.64237546920776
 20
24.4280151132043
 30
0.0
 11
-10.5967987464147
 21
24.948959543156
 31
0.0
  0
LINE
  5
    EE
  8
0
  6
CONTINUOUS
 62
     7
 10
-36.7129489197058
 20
24.948959543156
 30
0.0
 11
-39.6673721969128
 21
24.4280151132043
 31
0.0
  0
LINE
  5
    EF
  8
0
  6
CONTINUOUS
 62
     7
 10
-39.6673721969128
 20
24.4280151132043
 30
0.0
 11
-36.7129489197058
 21
23.9070706832526
 31
0.0
  0
ENDBLK
  5
    F0
  8
0
  6
CONTINUOUS
 62
     7
  0
BLOCK
  5
    F1
  8
0
  6
CONTINUOUS
 62
     7
  2
*UDIM418
 70
    65
 10
0.0
 20
0.0
 30
0.0
  3
*UDIM418
  0
TEXT
  5
    F2
  8
0
  6
CONTINUOUS
 62
     7
 10
-7.70487402829872
 20
33.7371817506904
 30
0.0
 40
3.00000001532688
  1
222,5
 50
359.999999948034
 41
0.933333333333333
 72
     1
 11
-1.00487399271578
 21
35.2371817523108
 31
0.0
 73
     2
  0
LINE
  5
    F3
  8
0
  6
CONTINUOUS
 62
     7
 10
38.2076198458672
 20
9.15619397362359
 30
0.0
 11
38.2076198458672
 21
34.7371817446474
 31
0.0
  0
LINE
  5
    F4
  8
0
  6
CONTINUOUS
 62
     7
 10
-39.6673721969128
 20
9.15619397362359
 30
0.0
 11
-39.6673721969128
 21
34.7371817446474
 31
0.0
  0
LINE
  5
    F5
  8
0
  6
CONTINUOUS
 62
     7
 10
38.2076198458672
 20
32.7371817446474
 30
0.0
 11
-39.6673721969128
 21
32.7371817446474
 31
0.0
  0
LINE
  5
    F6
  8
0
  6
CONTINUOUS
 62
     7
 10
35.2531965686602
 20
32.2162373146957
 30
0.0
 11
38.2076198458672
 21
32.7371817446474
 31
0.0
  0
LINE
  5
    F7
  8
0
  6
CONTINUOUS
 62
     7
 10
38.2076198458672
 20
32.7371817446474
 30
0.0
 11
35.2531965686602
 21
33.2581261745991
 31
0.0
  0
LINE
  5
    F8
  8
0
  6
CONTINUOUS
 62
     7
 10
-36.7129489197058
 20
33.2581261745991
 30
0.0
 11
-39.6673721969128
 21
32.7371817446474
 31
0.0
  0
LINE
  5
    F9
  8
0
  6
CONTINUOUS
 62
     7
 10
-39.6673721969128
 20
32.7371817446474
 30
0.0
 11
-36.7129489197058
 21
32.2162373146957
 31
0.0
  0
ENDBLK
  5
    FA
  8
0
  6
CONTINUOUS
 62
     7
  0
BLOCK
  5
    FB
  8
0
  6
CONTINUOUS
 62
     7
  2
*UDIM419
 70
    65
 10
0.0
 20
0.0
 30
0.0
  3
*UDIM419
  0
TEXT
  5
    FC
  8
0
  6
CONTINUOUS
 62
     7
 10
43.918592510962
 20
-99.1375432434046
 30
0.0
 40
3.00000001532688
  1
108,25
 50
89.9999999480344
 41
0.933333333333333
 72
     1
 11
42.4185925106348
 21
-91.0375432006635
 31
0.0
 73
     2
  0
LINE
  5
    FD
  8
0
  6
CONTINUOUS
 62
     7
 10
38.7701198905706
 20
-109.706293983258
 30
0.0
 11
46.9185925182983
 21
-109.706293983258
 31
0.0
  0
LINE
  5
    FE
  8
0
  6
CONTINUOUS
 62
     7
 10
44.9185925182983
 20
-109.706293983258
 30
0.0
 11
44.9185925182983
 21
-71.8187920689561
 31
0.0
  0
LINE
  5
    FF
  8
0
  6
CONTINUOUS
 62
     7
 10
44.3976480883466
 20
-106.751870706051
 30
0.0
 11
44.9185925182983
 21
-109.706293983258
 31
0.0
  0
LINE
  5
   100
  8
0
  6
CONTINUOUS
 62
     7
 10
44.9185925182983
 20
-109.706293983258
 30
0.0
 11
45.43953694825
 21
-106.751870706051
 31
0.0
  0
LINE
  5
   101
  8
0
  6
CONTINUOUS
 62
     7
 10
45.43953694825
 20
-74.7732153461631
 30
0.0
 11
44.9185925182983
 21
-71.8187920689561
 31
0.0
  0
LINE
  5
   102
  8
0
  6
CONTINUOUS
 62
     7
 10
44.9185925182983
 20
-71.8187920689561
 30
0.0
 11
44.3976480883466
 21
-74.7732153461631
 31
0.0
  0
ENDBLK
  5
   103
  8
0
  6
CONTINUOUS
 62
     7
  0
BLOCK
  5
   104
  8
0
  6
CONTINUOUS
 62
     7
  2
*UDIM420
 70
    65
 10
0.0
 20
0.0
 30
0.0
  3
*UDIM420
  0
TEXT
  5
   105
  8
0
  6
CONTINUOUS
 62
     7
 10
48.7867408210525
 20
-54.7313014747063
 30
0.0
 40
3.00000001532688
  1
338
 50
89.9999999480344
 41
0.933333333333334
 72
     1
 11
47.2867408169213
 21
-50.8313014534228
 31
0.0
 73
     2
  0
LINE
  5
   106
  8
0
  6
CONTINUOUS
 62
     7
 10
38.7701198905706
 20
-109.706293983258
 30
0.0
 11
51.7867408245847
 21
-109.706293983258
 31
0.0
  0
LINE
  5
   107
  8
0
  6
CONTINUOUS
 62
     7
 10
38.85761988163
 20
8.5936939289201
 30
0.0
 11
51.7867408245847
 21
8.5936939289201
 31
0.0
  0
LINE
  5
   108
  8
0
  6
CONTINUOUS
 62
     7
 10
49.7867408245847
 20
-109.706293983258
 30
0.0
 11
49.7867408245847
 21
8.5936939289201
 31
0.0
  0
LINE
  5
   109
  8
0
  6
CONTINUOUS
 62
     7
 10
49.2657963946331
 20
-106.751870706051
 30
0.0
 11
49.7867408245847
 21
-109.706293983258
 31
0.0
  0
LINE
  5
   10A
  8
0
  6
CONTINUOUS
 62
     7
 10
49.7867408245847
 20
-109.706293983258
 30
0.0
 11
50.3076852545364
 21
-106.751870706051
 31
0.0
  0
LINE
  5
   10B
  8
0
  6
CONTINUOUS
 62
     7
 10
50.3076852545364
 20
5.63927065171315
 30
0.0
 11
49.7867408245847
 21
8.5936939289201
 31
0.0
  0
LINE
  5
   10C
  8
0
  6
CONTINUOUS
 62
     7
 10
49.7867408245847
 20
8.5936939289201
 30
0.0
 11
49.2657963946331
 21
5.63927065171315
 31
0.0
  0
ENDBLK
  5
   10D
  8
0
  6
CONTINUOUS
 62
     7
  0
BLOCK
  5
   10E
  8
0
  6
CONTINUOUS
 62
     7
  2
*UDIM421
 70
    65
 10
0.0
 20
0.0
 30
0.0
  3
*UDIM421
  0
TEXT
  5
   10F
  8
0
  6
CONTINUOUS
 62
     7
 10
-11.8173746845458
 20
15.8737146403379
 30
0.0
 40
3.00000001532688
  1
140
 50
359.999999948034
 41
0.933333333333334
 72
     1
 11
-7.9173746632679
 21
17.3737146444837
 31
0.0
 73
     2
  0
LINE
  5
   110
  8
0
  6
CONTINUOUS
 62
     7
 10
16.8576220273972
 20
8.72959779043227
 30
0.0
 11
16.8576220273972
 21
16.8737146368203
 31
0.0
  0
LINE
  5
   111
  8
0
  6
CONTINUOUS
 62
     7
 10
-32.1423729658127
 20
11.5938787564134
 30
0.0
 11
-32.1423729658127
 21
16.8737146368203
 31
0.0
  0
LINE
  5
   112
  8
0
  6
CONTINUOUS
 62
     7
 10
16.8576220273972
 20
14.8737146368203
 30
0.0
 11
-32.1423729658127
 21
14.8737146368203
 31
0.0
  0
LINE
  5
   113
  8
0
  6
CONTINUOUS
 62
     7
 10
13.9031987501902
 20
14.3527702068686
 30
0.0
 11
16.8576220273972
 21
14.8737146368203
 31
0.0
  0
LINE
  5
   114
  8
0
  6
CONTINUOUS
 62
     7
 10
16.8576220273972
 20
14.8737146368203
 30
0.0
 11
13.9031987501902
 21
15.394659066772
 31
0.0
  0
LINE
  5
   115
  8
0
  6
CONTINUOUS
 62
     7
 10
-29.1879496886057
 20
15.394659066772
 30
0.0
 11
-32.1423729658127
 21
14.8737146368203
 31
0.0
  0
LINE
  5
   116
  8
0
  6
CONTINUOUS
 62
     7
 10
-32.1423729658127
 20
14.8737146368203
 30
0.0
 11
-29.1879496886057
 21
14.3527702068686
 31
0.0
  0
ENDBLK
  5
   117
  8
0
  6
CONTINUOUS
 62
     7
  0
BLOCK
  5
   118
  8
0
  6
CONTINUOUS
 62
     7
  2
*UDIM422
 70
    65
 10
0.0
 20
0.0
 30
0.0
  3
*UDIM422
  0
TEXT
  5
   119
  8
0
  6
CONTINUOUS
 62
     7
 10
-75.7652400168957
 20
-45.9375386727228
 30
0.0
 40
3.00000001532688
  1
195,75
 50
89.9999999480344
 41
0.933333333333333
 72
     1
 11
-77.2652400172229
 21
-37.8375386299817
 31
0.0
 73
     2
  0
LINE
  5
   11A
  8
0
  6
CONTINUOUS
 62
     7
 10
-32.7048730105162
 20
-3.30628338158073
 30
0.0
 11
-76.7652400095594
 21
-3.30628338158073
 31
0.0
  0
LINE
  5
   11B
  8
0
  6
CONTINUOUS
 62
     7
 10
-74.7652400095594
 20
-71.8187920689561
 30
0.0
 11
-74.7652400095594
 21
-3.30628338158073
 31
0.0
  0
LINE
  5
   11C
  8
0
  6
CONTINUOUS
 62
     7
 10
-75.2861844395111
 20
-68.8643687917491
 30
0.0
 11
-74.7652400095594
 21
-71.8187920689561
 31
0.0
  0
LINE
  5
   11D
  8
0
  6
CONTINUOUS
 62
     7
 10
-74.7652400095594
 20
-71.8187920689561
 30
0.0
 11
-74.2442955796078
 21
-68.8643687917491
 31
0.0
  0
LINE
  5
   11E
  8
0
  6
CONTINUOUS
 62
     7
 10
-74.2442955796078
 20
-6.2607066587877
 30
0.0
 11
-74.7652400095594
 21
-3.30628338158073
 31
0.0
  0
LINE
  5
   11F
  8
0
  6
CONTINUOUS
 62
     7
 10
-74.7652400095594
 20
-3.30628338158073
 30
0.0
 11
-75.2861844395111
 21
-6.2607066587877
 31
0.0
  0
ENDBLK
  5
   120
  8
0
  6
CONTINUOUS
 62
     7
  0
BLOCK
  5
   121
  8
0
  6
CONTINUOUS
 62
     7
  2
*UDIM423
 70
    65
 10
0.0
 20
0.0
 30
0.0
  3
*UDIM423
  0
TEXT
  5
   122
  8
0
  6
CONTINUOUS
 62
     7
 10
-83.5799387690338
 20
-54.7312774351622
 30
0.0
 40
3.00000001532688
  1
270
 50
89.9999999480344
 41
0.933333333333334
 72
     1
 11
-85.079938773165
 21
-50.8312774138787
 31
0.0
 73
     2
  0
LINE
  5
   123
  8
0
  6
CONTINUOUS
 62
     7
 10
-32.7048730105162
 20
-97.8062737256283
 30
0.0
 11
-84.5799387655015
 21
-97.8062737256283
 31
0.0
  0
LINE
  5
   124
  8
0
  6
CONTINUOUS
 62
     7
 10
-32.7048730105162
 20
-3.30628338158073
 30
0.0
 11
-84.5799387655015
 21
-3.30628338158073
 31
0.0
  0
LINE
  5
   125
  8
0
  6
CONTINUOUS
 62
     7
 10
-82.5799387655015
 20
-97.8062737256283
 30
0.0
 11
-82.5799387655015
 21
-3.30628338158073
 31
0.0
  0
LINE
  5
   126
  8
0
  6
CONTINUOUS
 62
     7
 10
-83.1008831954532
 20
-94.8518504484213
 30
0.0
 11
-82.5799387655015
 21
-97.8062737256283
 31
0.0
  0
LINE
  5
   127
  8
0
  6
CONTINUOUS
 62
     7
 10
-82.5799387655015
 20
-97.8062737256283
 30
0.0
 11
-82.0589943355499
 21
-94.8518504484213
 31
0.0
  0
LINE
  5
   128
  8
0
  6
CONTINUOUS
 62
     7
 10
-82.0589943355499
 20
-6.2607066587877
 30
0.0
 11
-82.5799387655015
 21
-3.30628338158073
 31
0.0
  0
LINE
  5
   129
  8
0
  6
CONTINUOUS
 62
     7
 10
-82.5799387655015
 20
-3.30628338158073
 30
0.0
 11
-83.1008831954532
 21
-6.2607066587877
 31
0.0
  0
ENDBLK
  5
   12A
  8
0
  6
CONTINUOUS
 62
     7
  0
BLOCK
  5
   12B
  8
0
  6
CONTINUOUS
 62
     7
  2
MOTORE
 70
    64
 10
0.0
 20
0.0
 30
0.0
  3
MOTORE
  0
LINE
  5
   12C
  8
0
  6
CONTINUOUS
 62
     2
 10
-1.5
 20
-21.75
 30
0.0
 11
-1.5
 21
0.0
 31
0.0
  0
LINE
  5
   12D
  8
0
  6
CONTINUOUS
 62
     2
 10
18.0
 20
-21.75
 30
0.0
 11
18.0
 21
248.25
 31
0.0
  0
LINE
  5
   12E
  8
0
  6
CONTINUOUS
 62
     2
 10
-1.5
 20
-21.75
 30
0.0
 11
18.5
 21
-21.75
 31
0.0
  0
LINE
  5
   12F
  8
0
  6
CONTINUOUS
 62
     2
 10
0.0
 20
0.0
 30
0.0
 11
0.0
 21
105.0
 31
0.0
  0
LINE
  5
   130
  8
0
  6
CONTINUOUS
 62
     2
 10
-1.5
 20
248.25
 30
0.0
 11
18.5
 21
248.25
 31
0.0
  0
LINE
  5
   131
  8
0
  6
CONTINUOUS
 62
     2
 10
-1.5
 20
105.0
 30
0.0
 11
-1.5
 21
248.25
 31
0.0
  0
LINE
  5
   132
  8
0
  6
CONTINUOUS
 62
     3
 10
96.5
 20
-21.75
 30
0.0
 11
96.5
 21
-7.75
 31
0.0
  0
LINE
  5
   133
  8
0
  6
CONTINUOUS
 62
     3
 10
18.5
 20
-21.75
 30
0.0
 11
96.5
 21
-21.75
 31
0.0
  0
LINE
  5
   134
  8
0
  6
CONTINUOUS
 62
     3
 10
79.5
 20
106.25
 30
0.0
 11
79.5
 21
248.25
 31
0.0
  0
LINE
  5
   135
  8
0
  6
CONTINUOUS
 62
     3
 10
18.5
 20
248.25
 30
0.0
 11
79.5
 21
248.25
 31
0.0
  0
LINE
  5
   136
  8
0
  6
CONTINUOUS
 62
     3
 10
79.5
 20
106.25
 30
0.0
 11
97.0
 21
106.25
 31
0.0
  0
LINE
  5
   137
  8
0
  6
CONTINUOUS
 62
     3
 10
95.5
 20
105.25
 30
0.0
 11
96.5
 21
105.25
 31
0.0
  0
LINE
  5
   138
  8
0
  6
CONTINUOUS
 62
     3
 10
95.5
 20
105.25
 30
0.0
 11
95.5
 21
106.25
 31
0.0
  0
LINE
  5
   139
  8
0
  6
CONTINUOUS
 62
     3
 10
95.5
 20
86.25
 30
0.0
 11
96.5
 21
86.25
 31
0.0
  0
LINE
  5
   13A
  8
0
  6
CONTINUOUS
 62
     3
 10
95.5
 20
87.25
 30
0.0
 11
96.5
 21
87.25
 31
0.0
  0
LINE
  5
   13B
  8
0
  6
CONTINUOUS
 62
     3
 10
95.5
 20
-7.75
 30
0.0
 11
95.5
 21
-6.75
 31
0.0
  0
LINE
  5
   13C
  8
0
  6
CONTINUOUS
 62
     3
 10
95.5
 20
86.25
 30
0.0
 11
95.5
 21
87.25
 31
0.0
  0
LINE
  5
   13D
  8
0
  6
CONTINUOUS
 62
     3
 10
96.5
 20
87.25
 30
0.0
 11
96.5
 21
105.25
 31
0.0
  0
LINE
  5
   13E
  8
0
  6
CONTINUOUS
 62
     3
 10
95.5
 20
12.25
 30
0.0
 11
96.5
 21
12.25
 31
0.0
  0
LINE
  5
   13F
  8
0
  6
CONTINUOUS
 62
     3
 10
95.5
 20
11.25
 30
0.0
 11
96.5
 21
11.25
 31
0.0
  0
LINE
  5
   140
  8
0
  6
CONTINUOUS
 62
     3
 10
95.5
 20
-7.75
 30
0.0
 11
96.5
 21
-7.75
 31
0.0
  0
LINE
  5
   141
  8
0
  6
CONTINUOUS
 62
     3
 10
95.5
 20
-6.75
 30
0.0
 11
96.5
 21
-6.75
 31
0.0
  0
LINE
  5
   142
  8
0
  6
CONTINUOUS
 62
     3
 10
96.5
 20
12.25
 30
0.0
 11
96.5
 21
86.25
 31
0.0
  0
LINE
  5
   143
  8
0
  6
CONTINUOUS
 62
     3
 10
95.5
 20
11.25
 30
0.0
 11
95.5
 21
12.25
 31
0.0
  0
LINE
  5
   144
  8
0
  6
CONTINUOUS
 62
     3
 10
96.5
 20
-6.75
 30
0.0
 11
96.5
 21
11.25
 31
0.0
  0
LINE
  5
   145
  8
0
  6
CONTINUOUS
 62
     3
 10
117.0
 20
169.25
 30
0.0
 11
117.0
 21
189.5
 31
0.0
  0
LINE
  5
   146
  8
0
  6
CONTINUOUS
 62
     3
 10
79.5
 20
248.25
 30
0.0
 11
117.0
 21
248.25
 31
0.0
  0
LINE
  5
   147
  8
0
  6
CONTINUOUS
 62
     3
 10
101.0
 20
169.25
 30
0.0
 11
117.0
 21
169.25
 31
0.0
  0
LINE
  5
   148
  8
0
  6
CONTINUOUS
 62
     3
 10
96.5
 20
106.25
 30
0.0
 11
96.5
 21
152.25
 31
0.0
  0
LINE
  5
   149
  8
0
  6
CONTINUOUS
 62
     3
 10
101.0
 20
160.04422863406
 30
0.0
 11
101.0
 21
169.25
 31
0.0
  0
LINE
  5
   14A
  8
0
  6
CONTINUOUS
 62
     3
 10
96.5
 20
152.25
 30
0.0
 11
101.0
 21
160.04422863406
 31
0.0
  0
LINE
  5
   14B
  8
0
  6
CONTINUOUS
 62
     3
 10
116.0
 20
214.0
 30
0.0
 11
117.0
 21
214.0
 31
0.0
  0
LINE
  5
   14C
  8
0
  6
CONTINUOUS
 62
     3
 10
116.0
 20
215.0
 30
0.0
 11
117.0
 21
215.0
 31
0.0
  0
LINE
  5
   14D
  8
0
  6
CONTINUOUS
 62
     3
 10
116.0
 20
190.5
 30
0.0
 11
117.0
 21
190.5
 31
0.0
  0
LINE
  5
   14E
  8
0
  6
CONTINUOUS
 62
     3
 10
116.0
 20
189.5
 30
0.0
 11
117.0
 21
189.5
 31
0.0
  0
LINE
  5
   14F
  8
0
  6
CONTINUOUS
 62
     3
 10
116.0
 20
189.5
 30
0.0
 11
116.0
 21
190.5
 31
0.0
  0
LINE
  5
   150
  8
0
  6
CONTINUOUS
 62
     3
 10
116.0
 20
214.0
 30
0.0
 11
116.0
 21
215.0
 31
0.0
  0
LINE
  5
   151
  8
0
  6
CONTINUOUS
 62
     3
 10
117.0
 20
215.0
 30
0.0
 11
117.0
 21
248.25
 31
0.0
  0
LINE
  5
   152
  8
0
  6
CONTINUOUS
 62
     3
 10
117.0
 20
190.5
 30
0.0
 11
117.0
 21
214.0
 31
0.0
  0
LINE
  5
   153
  8
0
  6
CONTINUOUS
 62
     7
 10
117.0
 20
117.25
 30
0.0
 11
117.0
 21
169.25
 31
0.0
  0
LINE
  5
   154
  8
0
  6
CONTINUOUS
 62
     7
 10
-1.5
 20
0.0
 30
0.0
 11
0.0
 21
0.0
 31
0.0
  0
LINE
  5
   155
  8
0
  6
CONTINUOUS
 62
     7
 10
-1.5
 20
105.0
 30
0.0
 11
0.0
 21
105.0
 31
0.0
  0
LINE
  5
   156
  8
0
  6
CONTINUOUS
 62
     7
 10
97.0
 20
142.25
 30
0.0
 11
117.0
 21
142.25
 31
0.0
  0
LINE
  5
   157
  8
0
  6
CONTINUOUS
 62
     7
 10
97.0
 20
117.25
 30
0.0
 11
117.0
 21
117.25
 31
0.0
  0
ENDBLK
  5
   158
  8
0
  6
CONTINUOUS
 62
     7
  0
BLOCK
  5
   159
  8
0
  6
CONTINUOUS
 62
     7
  2
*HATCH43
 70
    65
 10
0.0
 20
0.0
 30
0.0
  3
*HATCH43
  0
LINE
  5
   15A
  8
0
  6
CONTINUOUS
 62
    52
 10
233.499984741211
 20
282.290344238281
 30
0.0
 11
231.499984741211
 21
280.290344238281
 31
0.0
  0
ENDBLK
  5
   15B
  8
0
  6
CONTINUOUS
 62
     7
  0
BLOCK
  5
   15C
  8
0
  6
CONTINUOUS
 62
     7
  2
*HATCH44
 70
    65
 10
0.0
 20
0.0
 30
0.0
  3
*HATCH44
  0
LINE
  5
   15D
  8
0
  6
CONTINUOUS
 62
    52
 10
233.499984741211
 20
322.595428466797
 30
0.0
 11
231.499984741211
 21
320.595428466797
 31
0.0
  0
LINE
  5
   15E
  8
0
  6
CONTINUOUS
 62
    52
 10
233.499984741211
 20
318.352813720703
 30
0.0
 11
231.499984741211
 21
316.352813720703
 31
0.0
  0
LINE
  5
   15F
  8
0
  6
CONTINUOUS
 62
    52
 10
233.499984741211
 20
314.110198974609
 30
0.0
 11
231.499984741211
 21
312.110198974609
 31
0.0
  0
LINE
  5
   160
  8
0
  6
CONTINUOUS
 62
    52
 10
233.499984741211
 20
309.867584228516
 30
0.0
 11
231.499984741211
 21
307.867584228516
 31
0.0
  0
LINE
  5
   161
  8
0
  6
CONTINUOUS
 62
    52
 10
233.499984741211
 20
305.624969482422
 30
0.0
 11
231.499984741211
 21
303.624969482422
 31
0.0
  0
LINE
  5
   162
  8
0
  6
CONTINUOUS
 62
    52
 10
233.499984741211
 20
301.382354736328
 30
0.0
 11
231.499984741211
 21
299.382354736328
 31
0.0
  0
LINE
  5
   163
  8
0
  6
CONTINUOUS
 62
    52
 10
233.499984741211
 20
297.139739990234
 30
0.0
 11
231.499984741211
 21
295.139739990234
 31
0.0
  0
LINE
  5
   164
  8
0
  6
CONTINUOUS
 62
    52
 10
233.499984741211
 20
292.896942138672
 30
0.0
 11
231.85302734375
 21
291.249969482422
 31
0.0
  0
ENDBLK
  5
   165
  8
0
  6
CONTINUOUS
 62
     7
  0
BLOCK
  5
   166
  8
0
  6
CONTINUOUS
 62
     7
  2
*HATCH45
 70
    65
 10
0.0
 20
0.0
 30
0.0
  3
*HATCH45
  0
LINE
  5
   167
  8
0
  6
CONTINUOUS
 62
    52
 10
233.499954223633
 20
-25.3011360168457
 30
0.0
 11
231.499938964844
 21
-27.301155090332
 31
0.0
  0
ENDBLK
  5
   168
  8
0
  6
CONTINUOUS
 62
     7
  0
BLOCK
  5
   169
  8
0
  6
CONTINUOUS
 62
     7
  2
*HATCH46
 70
    65
 10
0.0
 20
0.0
 30
0.0
  3
*HATCH46
  0
LINE
  5
   16A
  8
0
  6
CONTINUOUS
 62
    52
 10
233.499938964844
 20
-35.9077529907227
 30
0.0
 11
231.499984741211
 21
-37.9077072143555
 31
0.0
  0
LINE
  5
   16B
  8
0
  6
CONTINUOUS
 62
    52
 10
233.499938964844
 20
-40.150390625
 30
0.0
 11
231.499984741211
 21
-42.1503448486328
 31
0.0
  0
LINE
  5
   16C
  8
0
  6
CONTINUOUS
 62
    52
 10
233.499938964844
 20
-44.3930282592773
 30
0.0
 11
231.499984741211
 21
-46.3929824829102
 31
0.0
  0
LINE
  5
   16D
  8
0
  6
CONTINUOUS
 62
    52
 10
233.499938964844
 20
-48.6356658935547
 30
0.0
 11
231.499984741211
 21
-50.6356201171875
 31
0.0
  0
LINE
  5
   16E
  8
0
  6
CONTINUOUS
 62
    52
 10
233.499938964844
 20
-52.878303527832
 30
0.0
 11
231.499984741211
 21
-54.8782577514648
 31
0.0
  0
LINE
  5
   16F
  8
0
  6
CONTINUOUS
 62
    52
 10
233.499938964844
 20
-57.1209411621094
 30
0.0
 11
231.499984741211
 21
-59.1208953857422
 31
0.0
  0
LINE
  5
   170
  8
0
  6
CONTINUOUS
 62
    52
 10
233.499938964844
 20
-61.3635787963867
 30
0.0
 11
231.499984741211
 21
-63.3635330200195
 31
0.0
  0
LINE
  5
   171
  8
0
  6
CONTINUOUS
 62
    52
 10
233.499938964844
 20
-65.6062164306641
 30
0.0
 11
231.499984741211
 21
-67.6061782836914
 31
0.0
  0
LINE
  5
   172
  8
0
  6
CONTINUOUS
 62
    52
 10
233.499938964844
 20
-69.8488464355469
 30
0.0
 11
231.499984741211
 21
-71.8488235473633
 31
0.0
  0
LINE
  5
   173
  8
0
  6
CONTINUOUS
 62
    52
 10
233.499938964844
 20
-74.0914764404297
 30
0.0
 11
231.499984741211
 21
-76.0914688110352
 31
0.0
  0
LINE
  5
   174
  8
0
  6
CONTINUOUS
 62
    52
 10
233.499938964844
 20
-78.3341064453125
 30
0.0
 11
231.499984741211
 21
-80.334114074707
 31
0.0
  0
ENDBLK
  5
   175
  8
0
  6
CONTINUOUS
 62
     7
  0
BLOCK
  5
   176
  8
0
  6
CONTINUOUS
 62
     7
  2
*UDIM424
 70
    65
 10
0.0
 20
0.0
 30
0.0
  3
*UDIM424
  0
TEXT
  5
   177
  8
0
  6
CONTINUOUS
 62
     7
 10
139.094006836841
 20
-122.66981139855
 30
0.0
 40
3.00000001532688
  1
91
 41
0.933333333333333
 72
     1
 11
141.594006849613
 21
-121.169811390887
 31
0.0
 73
     2
  0
LINE
  5
   178
  8
0
  6
CONTINUOUS
 62
     7
 10
125.944009715319
 20
-91.193919461965
 30
0.0
 11
125.944009715319
 21
-125.66981139855
 31
0.0
  0
LINE
  5
   179
  8
0
  6
CONTINUOUS
 62
     7
 10
125.944009715319
 20
-123.66981139855
 30
0.0
 11
157.794006460906
 21
-123.66981139855
 31
0.0
  0
LINE
  5
   17A
  8
0
  6
CONTINUOUS
 62
     7
 10
128.898432992526
 20
-123.148866968599
 30
0.0
 11
125.944009715319
 21
-123.66981139855
 31
0.0
  0
LINE
  5
   17B
  8
0
  6
CONTINUOUS
 62
     7
 10
125.944009715319
 20
-123.66981139855
 30
0.0
 11
128.898432992526
 21
-124.190755828502
 31
0.0
  0
LINE
  5
   17C
  8
0
  6
CONTINUOUS
 62
     7
 10
154.839583183699
 20
-124.190755828502
 30
0.0
 11
157.794006460906
 21
-123.66981139855
 31
0.0
  0
LINE
  5
   17D
  8
0
  6
CONTINUOUS
 62
     7
 10
157.794006460906
 20
-123.66981139855
 30
0.0
 11
154.839583183699
 21
-123.148866968599
 31
0.0
  0
ENDBLK
  5
   17E
  8
0
  6
CONTINUOUS
 62
     7
  0
BLOCK
  5
   17F
  8
0
  6
CONTINUOUS
 62
     7
  2
*UDIM425
 70
    65
 10
0.0
 20
0.0
 30
0.0
  3
*UDIM425
  0
TEXT
  5
   180
  8
0
  6
CONTINUOUS
 62
     7
 10
170.229652204618
 20
34.879012072297
 30
0.0
 40
3.00000001532688
  1
23.5
 41
0.933333333333333
 72
     1
 11
175.529652231696
 21
36.3790120799604
 31
0.0
 73
     2
  0
LINE
  5
   181
  8
0
  6
CONTINUOUS
 62
     7
 10
158.49400638938
 20
19.2668381169583
 30
0.0
 11
158.49400638938
 21
35.879012072297
 31
0.0
  0
LINE
  5
   182
  8
0
  6
CONTINUOUS
 62
     7
 10
166.894005531073
 20
-2.30642834007683
 30
0.0
 11
166.894005531073
 21
35.879012072297
 31
0.0
  0
LINE
  5
   183
  8
0
  6
CONTINUOUS
 62
     7
 10
158.49400638938
 20
33.879012072297
 30
0.0
 11
180.829652258773
 21
33.879012072297
 31
0.0
  0
LINE
  5
   184
  8
0
  6
CONTINUOUS
 62
     7
 10
161.448429666587
 20
34.3999565022486
 30
0.0
 11
158.49400638938
 21
33.879012072297
 31
0.0
  0
LINE
  5
   185
  8
0
  6
CONTINUOUS
 62
     7
 10
158.49400638938
 20
33.879012072297
 30
0.0
 11
161.448429666587
 21
33.3580676423453
 31
0.0
  0
LINE
  5
   186
  8
0
  6
CONTINUOUS
 62
     7
 10
163.939582253866
 20
33.3580676423453
 30
0.0
 11
166.894005531073
 21
33.879012072297
 31
0.0
  0
LINE
  5
   187
  8
0
  6
CONTINUOUS
 62
     7
 10
166.894005531073
 20
33.879012072297
 30
0.0
 11
163.939582253866
 21
34.3999565022486
 31
0.0
  0
ENDBLK
  5
   188
  8
0
  6
CONTINUOUS
 62
     7
  0
BLOCK
  5
   189
  8
0
  6
CONTINUOUS
 62
     7
  2
*UDIM426
 70
    65
 10
0.0
 20
0.0
 30
0.0
  3
*UDIM426
  0
TEXT
  5
   18A
  8
0
  6
CONTINUOUS
 62
     7
 10
66.4403809542643
 20
10.1821728599365
 30
0.0
 40
3.00000001532688
  1
7
 50
90.0
 41
0.933333333333333
 72
     1
 11
64.9403809465995
 21
11.2821728655545
 31
0.0
 73
     2
  0
LINE
  5
   18B
  8
0
  6
CONTINUOUS
 62
     7
 10
109.544058787987
 20
4.13098977627189
 30
0.0
 11
65.4403809542629
 21
4.13098977627189
 31
0.0
  0
LINE
  5
   18C
  8
0
  6
CONTINUOUS
 62
     7
 10
117.244100792557
 20
6.58096973762305
 30
0.0
 11
65.4403809542629
 21
6.58096973762305
 31
0.0
  0
LINE
  5
   18D
  8
0
  6
CONTINUOUS
 62
     7
 10
67.4403809542629
 20
4.13098977627189
 30
0.0
 11
67.4403809542629
 21
12.3821728711743
 31
0.0
  0
LINE
  5
   18E
  8
0
  6
CONTINUOUS
 62
     7
 10
67.9613253842146
 20
1.17656649906492
 30
0.0
 11
67.4403809542629
 21
4.13098977627189
 31
0.0
  0
LINE
  5
   18F
  8
0
  6
CONTINUOUS
 62
     7
 10
67.4403809542629
 20
4.13098977627189
 30
0.0
 11
66.9194365243112
 21
1.17656649906492
 31
0.0
  0
LINE
  5
   190
  8
0
  6
CONTINUOUS
 62
     7
 10
66.9194365243112
 20
9.53539301483001
 30
0.0
 11
67.4403809542629
 21
6.58096973762305
 31
0.0
  0
LINE
  5
   191
  8
0
  6
CONTINUOUS
 62
     7
 10
67.4403809542629
 20
6.58096973762305
 30
0.0
 11
67.9613253842146
 21
9.53539301483001
 31
0.0
  0
ENDBLK
  5
   192
  8
0
  6
CONTINUOUS
 62
     7
  0
BLOCK
  5
   193
  8
0
  6
CONTINUOUS
 62
     7
  2
*UDIM427
 70
    65
 10
0.0
 20
0.0
 30
0.0
  3
*UDIM427
  0
TEXT
  5
   194
  8
0
  6
CONTINUOUS
 62
     7
 10
110.306512790748
 20
34.6544088237624
 30
0.0
 40
3.00000001532688
  1
231,5
 41
0.933333333333333
 72
     1
 11
117.006512824978
 21
36.1544088314259
 31
0.0
 73
     2
  0
LINE
  5
   195
  8
0
  6
CONTINUOUS
 62
     7
 10
76.7690200805664
 20
11.3394902651998
 30
0.0
 11
76.7690200805664
 21
35.6544088237624
 31
0.0
  0
LINE
  5
   196
  8
0
  6
CONTINUOUS
 62
     7
 10
157.794006460906
 20
19.3418381092948
 30
0.0
 11
157.794006460906
 21
35.6544088237624
 31
0.0
  0
LINE
  5
   197
  8
0
  6
CONTINUOUS
 62
     7
 10
76.7690200805664
 20
33.6544088237624
 30
0.0
 11
157.794006460906
 21
33.6544088237624
 31
0.0
  0
LINE
  5
   198
  8
0
  6
CONTINUOUS
 62
     7
 10
79.7234433577734
 20
34.1753532537141
 30
0.0
 11
76.7690200805664
 21
33.6544088237624
 31
0.0
  0
LINE
  5
   199
  8
0
  6
CONTINUOUS
 62
     7
 10
76.7690200805664
 20
33.6544088237624
 30
0.0
 11
79.7234433577734
 21
33.1334643938108
 31
0.0
  0
LINE
  5
   19A
  8
0
  6
CONTINUOUS
 62
     7
 10
154.839583183699
 20
33.1334643938108
 30
0.0
 11
157.794006460906
 21
33.6544088237624
 31
0.0
  0
LINE
  5
   19B
  8
0
  6
CONTINUOUS
 62
     7
 10
157.794006460906
 20
33.6544088237624
 30
0.0
 11
154.839583183699
 21
34.1753532537141
 31
0.0
  0
ENDBLK
  5
   19C
  8
0
  6
CONTINUOUS
 62
     7
  0
BLOCK
  5
   19D
  8
0
  6
CONTINUOUS
 62
     7
  2
*UDIM428
 70
    65
 10
0.0
 20
0.0
 30
0.0
  3
*UDIM428
  0
TEXT
  5
   19E
  8
0
  6
CONTINUOUS
 62
     7
 10
161.494005344936
 20
34.6544088237624
 30
0.0
 40
3.00000001532688
  1
2
 41
0.933333333333333
 72
     1
 11
162.594005350556
 21
36.1544088314259
 31
0.0
 73
     2
  0
LINE
  5
   19F
  8
0
  6
CONTINUOUS
 62
     7
 10
158.49400638938
 20
19.2668381169583
 30
0.0
 11
158.49400638938
 21
35.6544088237624
 31
0.0
  0
LINE
  5
   1A0
  8
0
  6
CONTINUOUS
 62
     7
 10
157.794006460906
 20
33.6544088237624
 30
0.0
 11
163.694005356176
 21
33.6544088237624
 31
0.0
  0
LINE
  5
   1A1
  8
0
  6
CONTINUOUS
 62
     7
 10
154.839583183699
 20
33.1334643938108
 30
0.0
 11
157.794006460906
 21
33.6544088237624
 31
0.0
  0
LINE
  5
   1A2
  8
0
  6
CONTINUOUS
 62
     7
 10
157.794006460906
 20
33.6544088237624
 30
0.0
 11
154.839583183699
 21
34.1753532537141
 31
0.0
  0
LINE
  5
   1A3
  8
0
  6
CONTINUOUS
 62
     7
 10
161.448429666587
 20
34.1753532537141
 30
0.0
 11
158.49400638938
 21
33.6544088237624
 31
0.0
  0
LINE
  5
   1A4
  8
0
  6
CONTINUOUS
 62
     7
 10
158.49400638938
 20
33.6544088237624
 30
0.0
 11
161.448429666587
 21
33.1334643938108
 31
0.0
  0
ENDBLK
  5
   1A5
  8
0
  6
CONTINUOUS
 62
     7
  0
BLOCK
  5
   1A6
  8
0
  6
CONTINUOUS
 62
     7
  2
*UDIM429
 70
    65
 10
0.0
 20
0.0
 30
0.0
  3
*UDIM429
  0
TEXT
  5
   1A7
  8
0
  6
CONTINUOUS
 62
     7
 10
66.4403829569836
 20
-38.0189000779764
 30
0.0
 40
3.00000001532688
  1
217
 50
90.0
 41
0.933333333333334
 72
     1
 11
64.9403829493153
 21
-34.1189000580533
 31
0.0
 73
     2
  0
LINE
  5
   1A8
  8
0
  6
CONTINUOUS
 62
     7
 10
74.7190201878548
 20
-71.8187899187749
 30
0.0
 11
65.4403829569787
 21
-71.8187899187749
 31
0.0
  0
LINE
  5
   1A9
  8
0
  6
CONTINUOUS
 62
     7
 10
109.544058787987
 20
4.13098977627189
 30
0.0
 11
65.4403829569787
 21
4.13098977627189
 31
0.0
  0
LINE
  5
   1AA
  8
0
  6
CONTINUOUS
 62
     7
 10
67.4403829569787
 20
-71.8187899187749
 30
0.0
 11
67.4403829569787
 21
4.13098977627189
 31
0.0
  0
LINE
  5
   1AB
  8
0
  6
CONTINUOUS
 62
     7
 10
66.9194385270271
 20
-68.8643666415679
 30
0.0
 11
67.4403829569787
 21
-71.8187899187749
 31
0.0
  0
LINE
  5
   1AC
  8
0
  6
CONTINUOUS
 62
     7
 10
67.4403829569787
 20
-71.8187899187749
 30
0.0
 11
67.9613273869304
 21
-68.8643666415679
 31
0.0
  0
LINE
  5
   1AD
  8
0
  6
CONTINUOUS
 62
     7
 10
67.9613273869304
 20
1.17656649906492
 30
0.0
 11
67.4403829569787
 21
4.13098977627189
 31
0.0
  0
LINE
  5
   1AE
  8
0
  6
CONTINUOUS
 62
     7
 10
67.4403829569787
 20
4.13098977627189
 30
0.0
 11
66.9194385270271
 21
1.17656649906492
 31
0.0
  0
ENDBLK
  5
   1AF
  8
0
  6
CONTINUOUS
 62
     7
  0
BLOCK
  5
   1B0
  8
0
  6
CONTINUOUS
 62
     2
  2
*UDIM430
 70
    65
 10
0.0
 20
0.0
 30
0.0
  3
*UDIM430
  0
TEXT
  5
   1B1
  8
0
  6
CONTINUOUS
 62
     2
 10
194.313401745939
 20
-89.4696387872553
 30
0.0
 40
3.00000002980232
  1
R.min,=200
 50
359.999999844103
 41
0.933333333333333
 72
     1
 11
208.01340188611
 21
-87.9696388095617
 31
0.0
 73
     2
  0
LINE
  5
   1B2
  8
0
  6
CONTINUOUS
 62
     2
 10
225.193332699975
 20
-79.792300958819
 30
0.0
 11
225.193332699975
 21
-92.4696388244629
 31
0.0
  0
LINE
  5
   1B3
  8
0
  6
CONTINUOUS
 62
     2
 10
261.443341982888
 20
-61.426185216283
 30
0.0
 11
261.443341982888
 21
-92.4696388244629
 31
0.0
  0
LINE
  5
   1B4
  8
0
  6
CONTINUOUS
 62
     2
 10
194.313401750012
 20
-90.4696388244629
 30
0.0
 11
261.443341982888
 21
-90.4696388244629
 31
0.0
  0
LINE
  5
   1B5
  8
0
  6
CONTINUOUS
 62
     2
 10
228.147755977182
 20
-89.9486943945112
 30
0.0
 11
225.193332699975
 21
-90.4696388244629
 31
0.0
  0
LINE
  5
   1B6
  8
0
  6
CONTINUOUS
 62
     2
 10
225.193332699975
 20
-90.4696388244629
 30
0.0
 11
228.147755977182
 21
-90.9905832544146
 31
0.0
  0
LINE
  5
   1B7
  8
0
  6
CONTINUOUS
 62
     2
 10
258.488918705682
 20
-90.9905832544146
 30
0.0
 11
261.443341982888
 21
-90.4696388244629
 31
0.0
  0
LINE
  5
   1B8
  8
0
  6
CONTINUOUS
 62
     2
 10
261.443341982888
 20
-90.4696388244629
 30
0.0
 11
258.488918705682
 21
-89.9486943945112
 31
0.0
  0
ENDBLK
  5
   1B9
  8
0
  6
CONTINUOUS
 62
     2
  0
BLOCK
  5
   1BA
  8
0
  6
CONTINUOUS
 62
     2
  2
*UDIM431
 70
    65
 10
0.0
 20
0.0
 30
0.0
  3
*UDIM431
  0
TEXT
  5
   1BB
  8
0
  6
CONTINUOUS
 62
     2
 10
180.013679486207
 20
-54.3482319687787
 30
0.0
 40
3.00000002980232
  1
98,75
 50
449.999999844103
 41
0.933333333333333
 72
     1
 11
178.513679489493
 21
-47.6482318981482
 31
0.0
 73
     2
  0
LINE
  5
   1BC
  8
0
  6
CONTINUOUS
 62
     2
 10
181.193669308802
 20
-35.0294815009289
 30
0.0
 11
179.013679504395
 21
-35.0294815009289
 31
0.0
  0
LINE
  5
   1BD
  8
0
  6
CONTINUOUS
 62
     2
 10
207.443347274036
 20
-59.7169818066094
 30
0.0
 11
179.013679504395
 21
-59.7169818066094
 31
0.0
  0
LINE
  5
   1BE
  8
0
  6
CONTINUOUS
 62
     2
 10
181.013679504395
 20
-35.0294815009289
 30
0.0
 11
181.013679504395
 21
-59.7169818066094
 31
0.0
  0
LINE
  5
   1BF
  8
0
  6
CONTINUOUS
 62
     2
 10
181.534623934346
 20
-37.9839047781359
 30
0.0
 11
181.013679504395
 21
-35.0294815009289
 31
0.0
  0
LINE
  5
   1C0
  8
0
  6
CONTINUOUS
 62
     2
 10
181.013679504395
 20
-35.0294815009289
 30
0.0
 11
180.492735074443
 21
-37.9839047781359
 31
0.0
  0
LINE
  5
   1C1
  8
0
  6
CONTINUOUS
 62
     2
 10
180.492735074443
 20
-56.7625585294025
 30
0.0
 11
181.013679504395
 21
-59.7169818066094
 31
0.0
  0
LINE
  5
   1C2
  8
0
  6
CONTINUOUS
 62
     2
 10
181.013679504395
 20
-59.7169818066094
 30
0.0
 11
181.534623934346
 21
-56.7625585294025
 31
0.0
  0
ENDBLK
  5
   1C3
  8
0
  6
CONTINUOUS
 62
     2
  0
BLOCK
  5
   1C4
  8
0
  6
CONTINUOUS
 62
     2
  2
*UDIM432
 70
    65
 10
0.0
 20
0.0
 30
0.0
  3
*UDIM432
  0
TEXT
  5
   1C5
  8
0
  6
CONTINUOUS
 62
     2
 10
285.997364033602
 20
-24.0169800239152
 30
0.0
 40
3.00000002980232
  1
319
 50
449.999999844103
 41
0.933333333333333
 72
     1
 11
284.497364029288
 21
-20.1169799811003
 31
0.0
 73
     2
  0
LINE
  5
   1C6
  8
0
  6
CONTINUOUS
 62
     2
 10
252.818343030407
 20
20.0330202772058
 30
0.0
 11
288.997364044189
 21
20.0330202772058
 31
0.0
  0
LINE
  5
   1C7
  8
0
  6
CONTINUOUS
 62
     2
 10
252.818341622168
 20
-59.716982313648
 30
0.0
 11
288.997364044189
 21
-59.716982313648
 31
0.0
  0
LINE
  5
   1C8
  8
0
  6
CONTINUOUS
 62
     2
 10
286.997364044189
 20
20.0330202772058
 30
0.0
 11
286.997364044189
 21
-59.716982313648
 31
0.0
  0
LINE
  5
   1C9
  8
0
  6
CONTINUOUS
 62
     2
 10
287.518308474141
 20
17.0785969999988
 30
0.0
 11
286.997364044189
 21
20.0330202772058
 31
0.0
  0
LINE
  5
   1CA
  8
0
  6
CONTINUOUS
 62
     2
 10
286.997364044189
 20
20.0330202772058
 30
0.0
 11
286.476419614238
 21
17.0785969999988
 31
0.0
  0
LINE
  5
   1CB
  8
0
  6
CONTINUOUS
 62
     2
 10
286.476419614238
 20
-56.762559036441
 30
0.0
 11
286.997364044189
 21
-59.716982313648
 31
0.0
  0
LINE
  5
   1CC
  8
0
  6
CONTINUOUS
 62
     2
 10
286.997364044189
 20
-59.716982313648
 30
0.0
 11
287.518308474141
 21
-56.762559036441
 31
0.0
  0
ENDBLK
  5
   1CD
  8
0
  6
CONTINUOUS
 62
     2
  0
BLOCK
  5
   1CE
  8
0
  6
CONTINUOUS
 62
     2
  2
*UDIM433
 70
    65
 10
0.0
 20
0.0
 30
0.0
  3
*UDIM433
  0
TEXT
  5
   1CF
  8
0
  6
CONTINUOUS
 62
     2
 10
231.751011285399
 20
-81.5682067794986
 30
0.0
 40
3.00000002980232
  1
122
 50
359.999999844103
 41
0.933333333333333
 72
     1
 11
235.651011328216
 21
-80.0682067751894
 31
0.0
 73
     2
  0
TEXT
  5
   1D0
  8
0
  6
CONTINUOUS
 62
     2
 10
241.351011381989
 20
-81.1182068068368
 30
0.0
 40
2.1000000834465
  1
±0,1
 50
359.999999844103
 41
0.933333333333333
 72
     1
 11
245.061011532262
 21
-80.0682067751894
 31
0.0
 73
     2
  0
LINE
  5
   1D1
  8
0
  6
CONTINUOUS
 62
     2
 10
225.193332699975
 20
-79.792300958819
 30
0.0
 11
225.193332699975
 21
-84.5682067900906
 31
0.0
  0
LINE
  5
   1D2
  8
0
  6
CONTINUOUS
 62
     2
 10
255.693340161035
 20
-46.9669822794066
 30
0.0
 11
255.693340161035
 21
-84.5682067900906
 31
0.0
  0
LINE
  5
   1D3
  8
0
  6
CONTINUOUS
 62
     2
 10
225.193332699975
 20
-82.5682067900906
 30
0.0
 11
255.693340161035
 21
-82.5682067900906
 31
0.0
  0
LINE
  5
   1D4
  8
0
  6
CONTINUOUS
 62
     2
 10
228.147755977182
 20
-82.0472623601389
 30
0.0
 11
225.193332699975
 21
-82.5682067900906
 31
0.0
  0
LINE
  5
   1D5
  8
0
  6
CONTINUOUS
 62
     2
 10
225.193332699975
 20
-82.5682067900906
 30
0.0
 11
228.147755977182
 21
-83.0891512200423
 31
0.0
  0
LINE
  5
   1D6
  8
0
  6
CONTINUOUS
 62
     2
 10
252.738916883828
 20
-83.0891512200423
 30
0.0
 11
255.693340161035
 21
-82.5682067900906
 31
0.0
  0
LINE
  5
   1D7
  8
0
  6
CONTINUOUS
 62
     2
 10
255.693340161035
 20
-82.5682067900906
 30
0.0
 11
252.738916883828
 21
-82.0472623601389
 31
0.0
  0
ENDBLK
  5
   1D8
  8
0
  6
CONTINUOUS
 62
     2
  0
BLOCK
  5
   1D9
  8
0
  6
CONTINUOUS
 62
     2
  2
*UDIM434
 70
    65
 10
0.0
 20
0.0
 30
0.0
  3
*UDIM434
  0
TEXT
  5
   1DA
  8
0
  6
CONTINUOUS
 62
     2
 10
221.018340255135
 20
-72.8830385132023
 30
0.0
 40
3.00000002980232
  1
174
 50
359.999999844103
 41
0.933333333333333
 72
     1
 11
224.918340297952
 21
-71.3830385088931
 31
0.0
 73
     2
  0
LINE
  5
   1DB
  8
0
  6
CONTINUOUS
 62
     2
 10
203.443341985449
 20
-58.8419852256775
 30
0.0
 11
203.443341985449
 21
-75.8830385237942
 31
0.0
  0
LINE
  5
   1DC
  8
0
  6
CONTINUOUS
 62
     2
 10
246.943340350911
 20
-58.8419852256775
 30
0.0
 11
246.943340350911
 21
-75.8830385237942
 31
0.0
  0
LINE
  5
   1DD
  8
0
  6
CONTINUOUS
 62
     2
 10
203.443341985449
 20
-73.8830385237942
 30
0.0
 11
246.943340350911
 21
-73.8830385237942
 31
0.0
  0
LINE
  5
   1DE
  8
0
  6
CONTINUOUS
 62
     2
 10
206.397765262656
 20
-73.3620940938425
 30
0.0
 11
203.443341985449
 21
-73.8830385237942
 31
0.0
  0
LINE
  5
   1DF
  8
0
  6
CONTINUOUS
 62
     2
 10
203.443341985449
 20
-73.8830385237942
 30
0.0
 11
206.397765262656
 21
-74.4039829537459
 31
0.0
  0
LINE
  5
   1E0
  8
0
  6
CONTINUOUS
 62
     2
 10
243.988917073704
 20
-74.4039829537459
 30
0.0
 11
246.943340350911
 21
-73.8830385237942
 31
0.0
  0
LINE
  5
   1E1
  8
0
  6
CONTINUOUS
 62
     2
 10
246.943340350911
 20
-73.8830385237942
 30
0.0
 11
243.988917073704
 21
-73.3620940938425
 31
0.0
  0
ENDBLK
  5
   1E2
  8
0
  6
CONTINUOUS
 62
     2
  0
BLOCK
  5
   1E3
  8
0
  6
CONTINUOUS
 62
     2
  2
*UDIM435
 70
    65
 10
0.0
 20
0.0
 30
0.0
  3
*UDIM435
  0
TEXT
  5
   1E4
  8
0
  6
CONTINUOUS
 62
     2
 10
233.030846767477
 20
30.8564834746879
 30
0.0
 40
3.00000002980232
  1
19,75
 50
359.999999844103
 41
0.933333333333333
 72
     1
 11
239.73084683811
 21
32.3564834713926
 31
0.0
 73
     2
  0
LINE
  5
   1E5
  8
0
  6
CONTINUOUS
 62
     2
 10
230.130846861864
 20
22.4080170234162
 30
0.0
 11
230.130846861864
 21
31.8564834564914
 31
0.0
  0
LINE
  5
   1E6
  8
0
  6
CONTINUOUS
 62
     2
 10
225.193332699975
 20
29.8564834564914
 30
0.0
 11
246.430846904668
 21
29.8564834564914
 31
0.0
  0
LINE
  5
   1E7
  8
0
  6
CONTINUOUS
 62
     2
 10
222.238909422768
 20
29.3355390265398
 30
0.0
 11
225.193332699975
 21
29.8564834564914
 31
0.0
  0
LINE
  5
   1E8
  8
0
  6
CONTINUOUS
 62
     2
 10
225.193332699975
 20
29.8564834564914
 30
0.0
 11
222.238909422768
 21
30.3774278864431
 31
0.0
  0
LINE
  5
   1E9
  8
0
  6
CONTINUOUS
 62
     2
 10
233.085270139071
 20
30.3774278864431
 30
0.0
 11
230.130846861864
 21
29.8564834564914
 31
0.0
  0
LINE
  5
   1EA
  8
0
  6
CONTINUOUS
 62
     2
 10
230.130846861864
 20
29.8564834564914
 30
0.0
 11
233.085270139071
 21
29.3355390265398
 31
0.0
  0
ENDBLK
  5
   1EB
  8
0
  6
CONTINUOUS
 62
     2
  0
BLOCK
  5
   1EC
  8
0
  6
CONTINUOUS
 62
     7
  2
*UDIM436
 70
    65
 10
0.0
 20
0.0
 30
0.0
  3
*UDIM436
  0
TEXT
  5
   1ED
  8
0
  6
CONTINUOUS
 62
     7
 10
235.108176002932
 20
39.1797714385551
 30
0.0
 40
3.00000002980232
  1
81,25
 50
359.999999844103
 41
0.933333333333333
 72
     1
 11
241.808176073565
 21
40.6797714352598
 31
0.0
 73
     2
  0
TEXT
  5
   1EE
  8
0
  6
CONTINUOUS
 62
     7
 10
250.308176155153
 20
39.6297714036125
 30
0.0
 40
2.1000000834465
  1
±0,1
 50
359.999999844103
 41
0.933333333333333
 72
     1
 11
254.018176305427
 21
40.6797714352598
 31
0.0
 73
     2
  0
LINE
  5
   1EF
  8
0
  6
CONTINUOUS
 62
     2
 10
230.130843860758
 20
-57.3419819496217
 30
0.0
 11
230.130843860758
 21
40.1797714203586
 31
0.0
  0
LINE
  5
   1F0
  8
0
  6
CONTINUOUS
 62
     2
 10
250.443341622168
 20
-57.341982313648
 30
0.0
 11
250.443341622168
 21
40.1797714203586
 31
0.0
  0
LINE
  5
   1F1
  8
0
  6
CONTINUOUS
 62
     2
 10
230.130843860758
 20
38.1797714203586
 30
0.0
 11
257.728176452849
 21
38.1797714203586
 31
0.0
  0
LINE
  5
   1F2
  8
0
  6
CONTINUOUS
 62
     2
 10
233.085267137965
 20
38.7007158503103
 30
0.0
 11
230.130843860758
 21
38.1797714203586
 31
0.0
  0
LINE
  5
   1F3
  8
0
  6
CONTINUOUS
 62
     2
 10
230.130843860758
 20
38.1797714203586
 30
0.0
 11
233.085267137965
 21
37.658826990407
 31
0.0
  0
LINE
  5
   1F4
  8
0
  6
CONTINUOUS
 62
     2
 10
247.488918344961
 20
37.658826990407
 30
0.0
 11
250.443341622168
 21
38.1797714203586
 31
0.0
  0
LINE
  5
   1F5
  8
0
  6
CONTINUOUS
 62
     2
 10
250.443341622168
 20
38.1797714203586
 30
0.0
 11
247.488918344961
 21
38.7007158503103
 31
0.0
  0
ENDBLK
  5
   1F6
  8
0
  6
CONTINUOUS
 62
     7
  0
BLOCK
  5
   1F7
  8
0
  6
CONTINUOUS
 62
     7
  2
*UDIM437
 70
    65
 10
0.0
 20
0.0
 30
0.0
  3
*UDIM437
  0
TEXT
  5
   1F8
  8
0
  6
CONTINUOUS
 62
     7
 10
204.082271789224
 20
39.1797714385551
 30
0.0
 40
3.00000002980232
  1
81,25
 50
359.999999844103
 41
0.933333333333333
 72
     1
 11
210.782271859856
 21
40.6797714352598
 31
0.0
 73
     2
  0
TEXT
  5
   1F9
  8
0
  6
CONTINUOUS
 62
     7
 10
219.282271941444
 20
39.6297714036125
 30
0.0
 40
2.1000000834465
  1
±0,1
 50
359.999999844103
 41
0.933333333333333
 72
     1
 11
222.992272091718
 21
40.6797714352598
 31
0.0
 73
     2
  0
LINE
  5
   1FA
  8
0
  6
CONTINUOUS
 62
     2
 10
209.818347274036
 20
-57.3419818066094
 30
0.0
 11
209.818347274036
 21
40.1797714203586
 31
0.0
  0
LINE
  5
   1FB
  8
0
  6
CONTINUOUS
 62
     2
 10
204.082271793297
 20
38.1797714203586
 30
0.0
 11
230.130843860758
 21
38.1797714203586
 31
0.0
  0
LINE
  5
   1FC
  8
0
  6
CONTINUOUS
 62
     2
 10
212.772770551243
 20
38.7007158503103
 30
0.0
 11
209.818347274036
 21
38.1797714203586
 31
0.0
  0
LINE
  5
   1FD
  8
0
  6
CONTINUOUS
 62
     2
 10
209.818347274036
 20
38.1797714203586
 30
0.0
 11
212.772770551243
 21
37.658826990407
 31
0.0
  0
LINE
  5
   1FE
  8
0
  6
CONTINUOUS
 62
     2
 10
227.176420583551
 20
37.658826990407
 30
0.0
 11
230.130843860758
 21
38.1797714203586
 31
0.0
  0
LINE
  5
   1FF
  8
0
  6
CONTINUOUS
 62
     2
 10
230.130843860758
 20
38.1797714203586
 30
0.0
 11
227.176420583551
 21
38.7007158503103
 31
0.0
  0
ENDBLK
  5
   200
  8
0
  6
CONTINUOUS
 62
     7
  0
BLOCK
  5
   201
  8
0
  6
CONTINUOUS
 62
     2
  2
*UDIM438
 70
    65
 10
0.0
 20
0.0
 30
0.0
  3
*UDIM438
  0
TEXT
  5
   202
  8
0
  6
CONTINUOUS
 62
     2
 10
186.954204548739
 20
-24.0169876586387
 30
0.0
 40
3.00000002980232
  1
304
 50
449.999999844103
 41
0.933333333333333
 72
     1
 11
185.454204544425
 21
-20.1169876158237
 31
0.0
 73
     2
  0
LINE
  5
   203
  8
0
  6
CONTINUOUS
 62
     2
 10
202.44332312906
 20
18.1580123901367
 30
0.0
 11
185.954204559326
 21
18.1580123901367
 31
0.0
  0
LINE
  5
   204
  8
0
  6
CONTINUOUS
 62
     2
 10
202.443341985449
 20
-57.8419852256775
 30
0.0
 11
185.954204559326
 21
-57.8419852256775
 31
0.0
  0
LINE
  5
   205
  8
0
  6
CONTINUOUS
 62
     2
 10
187.954204559326
 20
18.1580123901367
 30
0.0
 11
187.954204559326
 21
-57.8419852256775
 31
0.0
  0
LINE
  5
   206
  8
0
  6
CONTINUOUS
 62
     2
 10
188.475148989278
 20
15.2035891129297
 30
0.0
 11
187.954204559326
 21
18.1580123901367
 31
0.0
  0
LINE
  5
   207
  8
0
  6
CONTINUOUS
 62
     2
 10
187.954204559326
 20
18.1580123901367
 30
0.0
 11
187.433260129375
 21
15.2035891129297
 31
0.0
  0
LINE
  5
   208
  8
0
  6
CONTINUOUS
 62
     2
 10
187.433260129375
 20
-54.8875619484705
 30
0.0
 11
187.954204559326
 21
-57.8419852256775
 31
0.0
  0
LINE
  5
   209
  8
0
  6
CONTINUOUS
 62
     2
 10
187.954204559326
 20
-57.8419852256775
 30
0.0
 11
188.475148989278
 21
-54.8875619484705
 31
0.0
  0
ENDBLK
  5
   20A
  8
0
  6
CONTINUOUS
 62
     2
  0
BLOCK
  5
   20B
  8
0
  6
CONTINUOUS
 62
     2
  2
*UDIM439
 70
    65
 10
0.0
 20
0.0
 30
0.0
  3
*UDIM439
  0
TEXT
  5
   20C
  8
0
  6
CONTINUOUS
 62
     2
 10
251.607675602069
 20
-31.2221588589788
 30
0.0
 40
3.00000002980232
  1
8
 50
308.777452407068
 41
0.933333333333334
 72
     1
 11
253.465979135454
 21
-31.1402561938641
 31
0.0
 73
     2
  0
TEXT
  5
   20D
  8
0
  6
CONTINUOUS
 62
     2
 10
249.88535863206
 20
-29.0783014848546
 30
0.0
 40
3.00000002980232
  1
R
 50
308.777452407068
 41
0.933333333333334
 72
     1
 11
251.743662165445
 21
-28.9963988197399
 31
0.0
 73
     2
  0
LINE
  5
   20E
  8
0
  6
CONTINUOUS
 62
     2
 10
249.105774142176
 20
-29.7045985622138
 30
0.0
 11
263.83520355018
 21
-48.0390842595981
 31
0.0
  0
LINE
  5
   20F
  8
0
  6
CONTINUOUS
 62
     2
 10
256.697214312195
 20
-38.3222735008047
 30
0.0
 11
254.440747465515
 21
-36.3453169079998
 31
0.0
  0
LINE
  5
   210
  8
0
  6
CONTINUOUS
 62
     2
 10
254.440747465515
 20
-36.3453169079998
 30
0.0
 11
255.8849739166
 21
-38.9748054434356
 31
0.0
  0
ENDBLK
  5
   211
  8
0
  6
CONTINUOUS
 62
     2
  0
BLOCK
  5
   212
  8
0
  6
CONTINUOUS
 62
     7
  2
*UDIM440
 70
    65
 10
0.0
 20
0.0
 30
0.0
  3
*UDIM440
  0
TEXT
  5
   213
  8
0
  6
CONTINUOUS
 62
     7
 10
268.177097302369
 20
-34.2782665906714
 30
0.0
 40
3.00000002980232
  1
72,25
 50
449.999999844103
 41
0.933333333333333
 72
     1
 11
266.677097305655
 21
-27.5782665200409
 31
0.0
 73
     2
  0
LINE
  5
   214
  8
0
  6
CONTINUOUS
 62
     2
 10
263.733763197693
 20
-19.8419815009289
 30
0.0
 11
271.177097320557
 21
-19.8419815009289
 31
0.0
  0
LINE
  5
   215
  8
0
  6
CONTINUOUS
 62
     2
 10
259.068341610137
 20
-37.9044858882129
 30
0.0
 11
271.177097320557
 21
-37.9044858882129
 31
0.0
  0
LINE
  5
   216
  8
0
  6
CONTINUOUS
 62
     2
 10
269.177097320557
 20
-19.8419815009289
 30
0.0
 11
269.177097320557
 21
-37.9044858882129
 31
0.0
  0
LINE
  5
   217
  8
0
  6
CONTINUOUS
 62
     2
 10
269.698041750508
 20
-22.7964047781359
 30
0.0
 11
269.177097320557
 21
-19.8419815009289
 31
0.0
  0
LINE
  5
   218
  8
0
  6
CONTINUOUS
 62
     2
 10
269.177097320557
 20
-19.8419815009289
 30
0.0
 11
268.656152890605
 21
-22.7964047781359
 31
0.0
  0
LINE
  5
   219
  8
0
  6
CONTINUOUS
 62
     2
 10
268.656152890605
 20
-34.9500626110059
 30
0.0
 11
269.177097320557
 21
-37.9044858882129
 31
0.0
  0
LINE
  5
   21A
  8
0
  6
CONTINUOUS
 62
     2
 10
269.177097320557
 20
-37.9044858882129
 30
0.0
 11
269.698041750508
 21
-34.9500626110059
 31
0.0
  0
ENDBLK
  5
   21B
  8
0
  6
CONTINUOUS
 62
     7
  0
BLOCK
  5
   21C
  8
0
  6
CONTINUOUS
 62
     7
  2
*UDIM441
 70
    65
 10
0.0
 20
0.0
 30
0.0
  3
*UDIM441
  0
TEXT
  5
   21D
  8
0
  6
CONTINUOUS
 62
     7
 10
268.177097302369
 20
-58.4763122336638
 30
0.0
 40
3.00000002980232
  1
22,75
 50
449.999999844103
 41
0.933333333333333
 72
     1
 11
266.677097305655
 21
-51.7763121630334
 31
0.0
 73
     2
  0
LINE
  5
   21E
  8
0
  6
CONTINUOUS
 62
     2
 10
259.068340161035
 20
-43.5919822794066
 30
0.0
 11
271.177097320557
 21
-43.5919822794066
 31
0.0
  0
LINE
  5
   21F
  8
0
  6
CONTINUOUS
 62
     2
 10
269.177097320557
 20
-37.9044858882129
 30
0.0
 11
269.177097320557
 21
-58.4763122295919
 31
0.0
  0
LINE
  5
   220
  8
0
  6
CONTINUOUS
 62
     2
 10
268.656152890605
 20
-34.9500626110059
 30
0.0
 11
269.177097320557
 21
-37.9044858882129
 31
0.0
  0
LINE
  5
   221
  8
0
  6
CONTINUOUS
 62
     2
 10
269.177097320557
 20
-37.9044858882129
 30
0.0
 11
269.698041750508
 21
-34.9500626110059
 31
0.0
  0
LINE
  5
   222
  8
0
  6
CONTINUOUS
 62
     2
 10
269.698041750508
 20
-46.5464055566135
 30
0.0
 11
269.177097320557
 21
-43.5919822794066
 31
0.0
  0
LINE
  5
   223
  8
0
  6
CONTINUOUS
 62
     2
 10
269.177097320557
 20
-43.5919822794066
 30
0.0
 11
268.656152890605
 21
-46.5464055566135
 31
0.0
  0
ENDBLK
  5
   224
  8
0
  6
CONTINUOUS
 62
     7
  0
BLOCK
  5
   225
  8
0
  6
CONTINUOUS
 62
     2
  2
*UDIM442
 70
    65
 10
0.0
 20
0.0
 30
0.0
  3
*UDIM442
  0
TEXT
  5
   226
  8
0
  6
CONTINUOUS
 62
     2
 10
276.993438702515
 20
-46.7544800614301
 30
0.0
 40
3.00000002980232
  1
159,5
 50
449.999999844103
 41
0.933333333333333
 72
     1
 11
275.493438705802
 21
-40.0544799907996
 31
0.0
 73
     2
  0
LINE
  5
   227
  8
0
  6
CONTINUOUS
 62
     2
 10
263.733763197693
 20
-19.8419815009289
 30
0.0
 11
279.993438720703
 21
-19.8419815009289
 31
0.0
  0
LINE
  5
   228
  8
0
  6
CONTINUOUS
 62
     2
 10
212.193347274036
 20
-59.7169818066094
 30
0.0
 11
279.993438720703
 21
-59.7169818066094
 31
0.0
  0
LINE
  5
   229
  8
0
  6
CONTINUOUS
 62
     2
 10
277.993438720703
 20
-19.8419815009289
 30
0.0
 11
277.993438720703
 21
-59.7169818066094
 31
0.0
  0
LINE
  5
   22A
  8
0
  6
CONTINUOUS
 62
     2
 10
278.514383150655
 20
-22.7964047781359
 30
0.0
 11
277.993438720703
 21
-19.8419815009289
 31
0.0
  0
LINE
  5
   22B
  8
0
  6
CONTINUOUS
 62
     2
 10
277.993438720703
 20
-19.8419815009289
 30
0.0
 11
277.472494290751
 21
-22.7964047781359
 31
0.0
  0
LINE
  5
   22C
  8
0
  6
CONTINUOUS
 62
     2
 10
277.472494290751
 20
-56.7625585294025
 30
0.0
 11
277.993438720703
 21
-59.7169818066094
 31
0.0
  0
LINE
  5
   22D
  8
0
  6
CONTINUOUS
 62
     2
 10
277.993438720703
 20
-59.7169818066094
 30
0.0
 11
278.514383150655
 21
-56.7625585294025
 31
0.0
  0
ENDBLK
  5
   22E
  8
0
  6
CONTINUOUS
 62
     2
  0
BLOCK
  5
   22F
  8
0
  6
CONTINUOUS
 62
     2
  2
*UDIM443
 70
    65
 10
0.0
 20
0.0
 30
0.0
  3
*UDIM443
  0
TEXT
  5
   230
  8
0
  6
CONTINUOUS
 62
     2
 10
186.391940628806
 20
40.4740596337211
 30
0.0
 40
3.00000002980232
  1
8
 50
320.736409170023
 41
0.933333333333334
 72
     1
 11
188.192940942995
 21
40.9392455503548
 31
0.0
 73
     2
  0
TEXT
  5
   231
  8
0
  6
CONTINUOUS
 62
     2
 10
183.953076609649
 20
42.4676599845058
 30
0.0
 40
3.00000002980232
  1
Ø
 50
320.736409170023
 41
0.933333333333334
 72
     1
 11
185.754076923839
 21
42.9328459011395
 31
0.0
 73
     2
  0
TEXT
  5
   232
  8
0
  6
CONTINUOUS
 62
     2
 10
188.521107663534
 20
38.7336148848151
 30
0.0
 40
3.00000002980232
  1
 7 fori
 50
320.736409170023
 41
0.933333333333333
 72
     1
 11
196.825745391797
 21
33.882533145643
 31
0.0
 73
     2
  0
LINE
  5
   233
  8
0
  6
CONTINUOUS
 62
     2
 10
183.32018761266
 20
41.6934174362913
 30
0.0
 11
210.592589702947
 21
19.4001407521966
 31
0.0
  0
LINE
  5
   234
  8
0
  6
CONTINUOUS
 62
     2
 10
206.426964425699
 20
22.1324033966468
 30
0.0
 11
209.044104616312
 21
20.6659187486947
 31
0.0
  0
LINE
  5
   235
  8
0
  6
CONTINUOUS
 62
     2
 10
209.044104616312
 20
20.6659187486947
 30
0.0
 11
207.086364422535
 21
22.9390780773975
 31
0.0
  0
LINE
  5
   236
  8
0
  6
CONTINUOUS
 62
     2
 10
213.209729893559
 20
17.9336561042445
 30
0.0
 11
210.592589702947
 21
19.4001407521966
 31
0.0
  0
LINE
  5
   237
  8
0
  6
CONTINUOUS
 62
     2
 10
210.592589702947
 20
19.4001407521966
 30
0.0
 11
212.550329896724
 21
17.1269814234939
 31
0.0
  0
ENDBLK
  5
   238
  8
0
  6
CONTINUOUS
 62
     2
  0
BLOCK
  5
   239
  8
0
  6
CONTINUOUS
 62
     2
  2
*UDIM444
 70
    65
 10
0.0
 20
0.0
 30
0.0
  3
*UDIM444
  0
TEXT
  5
   23A
  8
0
  6
CONTINUOUS
 62
     2
 10
194.457475644043
 20
-53.4107338571267
 30
0.0
 40
3.00000002980232
  1
91,25
 50
449.999999844103
 41
0.933333333333333
 72
     1
 11
192.95747564733
 21
-46.7107337864962
 31
0.0
 73
     2
  0
LINE
  5
   23B
  8
0
  6
CONTINUOUS
 62
     2
 10
202.443341985449
 20
-57.8419852256775
 30
0.0
 11
193.457475662231
 21
-57.8419852256775
 31
0.0
  0
LINE
  5
   23C
  8
0
  6
CONTINUOUS
 62
     2
 10
195.457475662231
 20
-35.0294815009289
 30
0.0
 11
195.457475662231
 21
-57.8419852256775
 31
0.0
  0
LINE
  5
   23D
  8
0
  6
CONTINUOUS
 62
     2
 10
195.978420092183
 20
-37.9839047781359
 30
0.0
 11
195.457475662231
 21
-35.0294815009289
 31
0.0
  0
LINE
  5
   23E
  8
0
  6
CONTINUOUS
 62
     2
 10
195.457475662231
 20
-35.0294815009289
 30
0.0
 11
194.93653123228
 21
-37.9839047781359
 31
0.0
  0
LINE
  5
   23F
  8
0
  6
CONTINUOUS
 62
     2
 10
194.93653123228
 20
-54.8875619484705
 30
0.0
 11
195.457475662231
 21
-57.8419852256775
 31
0.0
  0
LINE
  5
   240
  8
0
  6
CONTINUOUS
 62
     2
 10
195.457475662231
 20
-57.8419852256775
 30
0.0
 11
195.978420092183
 21
-54.8875619484705
 31
0.0
  0
ENDBLK
  5
   241
  8
0
  6
CONTINUOUS
 62
     2
  0
ENDSEC
  0
SECTION
  2
ENTITIES
  0
LINE
  5
   242
  8
0
  6
CONTINUOUS
 62
     1
 10
-43.2962891104221
 20
-98.5937673112351
 30
0.0
 11
-43.9548461720374
 21
-98.5937649747335
 31
0.0
  0
LINE
  5
   243
  8
0
  6
CONTINUOUS
 62
     1
 10
-39.6673721969128
 20
-98.5937676370144
 30
0.0
 11
-43.2962826537496
 21
-98.5937676370144
 31
0.0
  0
LINE
  5
   244
  8
0
  6
CONTINUOUS
 62
     1
 10
-39.6673721969128
 20
-98.2437676727772
 30
0.0
 11
-44.3048610419046
 21
-98.2437676727772
 31
0.0
  0
LINE
  5
   245
  8
0
  6
CONTINUOUS
 62
     1
 10
-39.6673721969128
 20
-53.4437939465024
 30
0.0
 11
-44.3923669149765
 21
-53.4437939465024
 31
0.0
  0
LINE
  5
   246
  8
0
  6
CONTINUOUS
 62
     1
 10
-39.6673721969128
 20
-90.1937745034689
 30
0.0
 11
-44.3048717230558
 21
-90.1937745034689
 31
0.0
  0
LINE
  5
   247
  8
0
  6
CONTINUOUS
 62
     1
 10
-43.6398632460841
 20
-53.4437939465024
 30
0.0
 11
-43.6398632460841
 21
-24.9187808394427
 31
0.0
  0
LINE
  5
   248
  8
0
  6
CONTINUOUS
 62
     1
 10
-42.3798505574487
 20
-53.4437939465024
 30
0.0
 11
-42.3798505574487
 21
-24.9187808394427
 31
0.0
  0
LINE
  5
   249
  8
0
  6
CONTINUOUS
 62
     1
 10
-41.1198592311157
 20
-53.4437939465024
 30
0.0
 11
-41.1198592311157
 21
-24.9187808394427
 31
0.0
  0
LINE
  5
   24A
  8
0
  6
CONTINUOUS
 62
     1
 10
-39.8598679047827
 20
-53.4437939465024
 30
0.0
 11
-39.8598679047827
 21
-24.9187808394427
 31
0.0
  0
LINE
  5
   24B
  8
0
  6
CONTINUOUS
 62
     1
 10
-43.6398632460841
 20
-90.1937634885317
 30
0.0
 11
-43.6398632460841
 21
-53.4437939465024
 31
0.0
  0
LINE
  5
   24C
  8
0
  6
CONTINUOUS
 62
     1
 10
-42.3798505574487
 20
-90.1937634885317
 30
0.0
 11
-42.3798505574487
 21
-53.4437939465024
 31
0.0
  0
LINE
  5
   24D
  8
0
  6
CONTINUOUS
 62
     1
 10
-41.1198592311157
 20
-90.1937634885317
 30
0.0
 11
-41.1198592311157
 21
-53.4437939465024
 31
0.0
  0
LINE
  5
   24E
  8
0
  6
CONTINUOUS
 62
     1
 10
-39.8598679047827
 20
-90.1937634885317
 30
0.0
 11
-39.8598679047827
 21
-53.4437939465024
 31
0.0
  0
LINE
  5
   24F
  8
0
  6
CONTINUOUS
 62
     2
 10
-43.6398632460841
 20
-137.968759127259
 30
0.0
 11
-43.6398632460841
 21
-112.943761684298
 31
0.0
  0
LINE
  5
   250
  8
0
  6
CONTINUOUS
 62
     2
 10
-42.3798505574487
 20
-137.968759127259
 30
0.0
 11
-42.3798505574487
 21
-112.943761684298
 31
0.0
  0
LINE
  5
   251
  8
0
  6
CONTINUOUS
 62
     2
 10
-41.1198592311157
 20
-137.968759127259
 30
0.0
 11
-41.1198592311157
 21
-112.943761684298
 31
0.0
  0
LINE
  5
   252
  8
0
  6
CONTINUOUS
 62
     2
 10
-39.8598679047827
 20
-137.968759127259
 30
0.0
 11
-39.8598679047827
 21
-112.943761684298
 31
0.0
  0
LINE
  5
   253
  8
0
  6
CONTINUOUS
 62
     2
 10
-38.5998552161473
 20
-137.968759127259
 30
0.0
 11
-38.5998552161473
 21
-112.943761684298
 31
0.0
  0
LINE
  5
   254
  8
0
  6
CONTINUOUS
 62
     2
 10
-37.3398638898143
 20
-137.968759127259
 30
0.0
 11
-37.3398638898143
 21
-112.943761684298
 31
0.0
  0
LINE
  5
   255
  8
0
  6
CONTINUOUS
 62
     2
 10
-36.0798512011788
 20
-137.968759127259
 30
0.0
 11
-36.0798512011788
 21
-112.943761684298
 31
0.0
  0
LINE
  5
   256
  8
0
  6
CONTINUOUS
 62
     2
 10
-34.8198598748459
 20
-137.968759127259
 30
0.0
 11
-34.8198598748459
 21
-112.943761684298
 31
0.0
  0
LINE
  5
   257
  8
0
  6
CONTINUOUS
 62
     2
 10
-33.5598685485129
 20
-137.968759127259
 30
0.0
 11
-33.5598685485129
 21
-112.943761684298
 31
0.0
  0
LINE
  5
   258
  8
0
  6
CONTINUOUS
 62
     2
 10
-32.2998558598774
 20
-112.418763887883
 30
0.0
 11
-32.2998558598774
 21
-109.706293983258
 31
0.0
  0
LINE
  5
   259
  8
0
  6
CONTINUOUS
 62
     1
 10
17.0151049214619
 20
-90.1937718331811
 30
0.0
 11
17.0151049214619
 21
-53.4438022911518
 31
0.0
  0
LINE
  5
   25A
  8
0
  6
CONTINUOUS
 62
     1
 10
17.0151049214619
 20
-98.2437676727772
 30
0.0
 11
17.0151049214619
 21
-90.1937738358969
 31
0.0
  0
LINE
  5
   25B
  8
0
  6
CONTINUOUS
 62
     1
 10
-43.9548503965161
 20
-98.5937653005126
 30
0.0
 11
-43.9548503965161
 21
-98.2437676727772
 31
0.0
  0
LINE
  5
   25C
  8
0
  6
CONTINUOUS
 62
     1
 10
-7.09977677694473
 20
-137.968759127259
 30
0.0
 11
-7.09979235642557
 21
-112.943761684298
 31
0.0
  0
LINE
  5
   25D
  8
0
  6
CONTINUOUS
 62
     1
 10
-5.83977860888915
 20
-137.968759127259
 30
0.0
 11
-5.83979389441757
 21
-112.943761684298
 31
0.0
  0
LINE
  5
   25E
  8
0
  6
CONTINUOUS
 62
     1
 10
-4.40477711907486
 20
-137.968759127259
 30
0.0
 11
-4.4047926985557
 21
-112.943761684298
 31
0.0
  0
LINE
  5
   25F
  8
0
  6
CONTINUOUS
 62
     1
 10
-3.14477744809224
 20
-137.968759127259
 30
0.0
 11
-3.14479302757308
 21
-112.943761684298
 31
0.0
  0
LINE
  5
   260
  8
0
  6
CONTINUOUS
 62
     1
 10
-1.88479430396633
 20
-137.968759127259
 30
0.0
 11
-1.88480841368509
 21
-112.943761684298
 31
0.0
  0
LINE
  5
   261
  8
0
  6
CONTINUOUS
 62
     1
 10
-0.624792296481909
 20
-137.968759127259
 30
0.0
 11
-0.624806406200671
 21
-112.943761684298
 31
0.0
  0
LINE
  5
   262
  8
0
  6
CONTINUOUS
 62
     1
 10
0.635228417260366
 20
-137.968759127259
 30
0.0
 11
0.635209604302966
 21
-112.943761684298
 31
0.0
  0
LINE
  5
   263
  8
0
  6
CONTINUOUS
 62
     1
 10
1.8952063779113
 20
-137.968759127259
 30
0.0
 11
1.89519226819254
 21
-112.943761684298
 31
0.0
  0
LINE
  5
   264
  8
0
  6
CONTINUOUS
 62
     1
 10
3.15514692604302
 20
-137.968759127259
 30
0.0
 11
3.15514692604302
 21
-122.829820527064
 31
0.0
  0
LINE
  5
   265
  8
0
  6
CONTINUOUS
 62
     1
 10
4.41513825237598
 20
-137.968759127259
 30
0.0
 11
4.41513825237598
 21
-123.78286748538
 31
0.0
  0
LINE
  5
   266
  8
0
  6
CONTINUOUS
 62
     1
 10
5.6751402598602
 20
-137.968759127259
 30
0.0
 11
5.6751402598602
 21
-123.37813450157
 31
0.0
  0
LINE
  5
   267
  8
0
  6
CONTINUOUS
 62
     1
 10
6.93522243295636
 20
-137.968759127259
 30
0.0
 11
6.93520361999896
 21
-112.943761684298
 31
0.0
  0
LINE
  5
   268
  8
0
  6
CONTINUOUS
 62
     1
 10
8.19522444044093
 20
-137.968759127259
 30
0.0
 11
8.19520562748353
 21
-112.943761684298
 31
0.0
  0
LINE
  5
   269
  8
0
  6
CONTINUOUS
 62
     1
 10
9.4552264479255
 20
-137.968759127259
 30
0.0
 11
9.4552076349681
 21
-112.943761684298
 31
0.0
  0
LINE
  5
   26A
  8
0
  6
CONTINUOUS
 62
     1
 10
10.7151750211632
 20
-137.968759127259
 30
0.0
 11
10.7151656146845
 21
-112.943761684298
 31
0.0
  0
LINE
  5
   26B
  8
0
  6
CONTINUOUS
 62
     1
 10
11.9752197817434
 20
-137.968759127259
 30
0.0
 11
11.975200968786
 21
-112.943761684298
 31
0.0
  0
LINE
  5
   26C
  8
0
  6
CONTINUOUS
 62
     1
 10
13.235221789228
 20
-137.968759127259
 30
0.0
 11
13.2352029762706
 21
-112.943761684298
 31
0.0
  0
LINE
  5
   26D
  8
0
  6
CONTINUOUS
 62
     1
 10
14.4952237967125
 20
-137.968759127259
 30
0.0
 11
14.4952049837551
 21
-112.943761684298
 31
0.0
  0
LINE
  5
   26E
  8
0
  6
CONTINUOUS
 62
     1
 10
15.7552151230459
 20
-137.968759127259
 30
0.0
 11
15.7551963100885
 21
-112.943761684298
 31
0.0
  0
LINE
  5
   26F
  8
0
  6
CONTINUOUS
 62
     1
 10
-8.35997764745205
 20
-137.968759127259
 30
0.0
 11
-8.35996236192363
 21
-112.943761684298
 31
0.0
  0
LINE
  5
   270
  8
0
  6
CONTINUOUS
 62
     1
 10
-9.61998299635687
 20
-137.968759127259
 30
0.0
 11
-9.61996653501878
 21
-112.943761684298
 31
0.0
  0
LINE
  5
   271
  8
0
  6
CONTINUOUS
 62
     1
 10
-10.8799791599163
 20
-137.968759127259
 30
0.0
 11
-10.8799635804355
 21
-112.943761684298
 31
0.0
  0
LINE
  5
   272
  8
0
  6
CONTINUOUS
 62
     1
 10
-12.1399788308989
 20
-137.968759127259
 30
0.0
 11
-12.1399632514181
 21
-112.943761684298
 31
0.0
  0
LINE
  5
   273
  8
0
  6
CONTINUOUS
 62
     1
 10
-13.399961974952
 20
-137.968759127259
 30
0.0
 11
-13.3999478652759
 21
-112.943761684298
 31
0.0
  0
LINE
  5
   274
  8
0
  6
CONTINUOUS
 62
     1
 10
-14.6599639824364
 20
-137.968759127259
 30
0.0
 11
-14.6599498727603
 21
-112.943761684298
 31
0.0
  0
LINE
  5
   275
  8
0
  6
CONTINUOUS
 62
     1
 10
-15.9199846961569
 20
-137.968759127259
 30
0.0
 11
-15.9199658832549
 21
-112.943761684298
 31
0.0
  0
LINE
  5
   276
  8
0
  6
CONTINUOUS
 62
     1
 10
-17.1799626568296
 20
-137.968759127259
 30
0.0
 11
-17.1799485471536
 21
-112.943761684298
 31
0.0
  0
LINE
  5
   277
  8
0
  6
CONTINUOUS
 62
     1
 10
-18.4399032050342
 20
-137.968759127259
 30
0.0
 11
-18.4399032050342
 21
-122.829857538255
 31
0.0
  0
LINE
  5
   278
  8
0
  6
CONTINUOUS
 62
     1
 10
-19.6998891907915
 20
-137.968759127259
 30
0.0
 11
-19.6998891907915
 21
-123.782825026078
 31
0.0
  0
LINE
  5
   279
  8
0
  6
CONTINUOUS
 62
     1
 10
-20.9598911982757
 20
-137.968759127259
 30
0.0
 11
-20.9598911982757
 21
-123.377869723286
 31
0.0
  0
LINE
  5
   27A
  8
0
  6
CONTINUOUS
 62
     1
 10
-22.2199733712869
 20
-137.968759127259
 30
0.0
 11
-22.2199545583793
 21
-112.943761684298
 31
0.0
  0
LINE
  5
   27B
  8
0
  6
CONTINUOUS
 62
     1
 10
-23.4799753787715
 20
-137.968759127259
 30
0.0
 11
-23.4799565658639
 21
-112.943761684298
 31
0.0
  0
LINE
  5
   27C
  8
0
  6
CONTINUOUS
 62
     1
 10
-24.7399773862561
 20
-137.968759127259
 30
0.0
 11
-24.7399585733485
 21
-112.943761684298
 31
0.0
  0
LINE
  5
   27D
  8
0
  6
CONTINUOUS
 62
     1
 10
-25.9999793937407
 20
-137.968759127259
 30
0.0
 11
-25.999960580833
 21
-112.943761684298
 31
0.0
  0
LINE
  5
   27E
  8
0
  6
CONTINUOUS
 62
     1
 10
-27.259970720074
 20
-137.968759127259
 30
0.0
 11
-27.2599519071664
 21
-112.943761684298
 31
0.0
  0
LINE
  5
   27F
  8
0
  6
CONTINUOUS
 62
     1
 10
-28.5199727275585
 20
-137.968759127259
 30
0.0
 11
-28.5199539146509
 21
-112.943761684298
 31
0.0
  0
LINE
  5
   280
  8
0
  6
CONTINUOUS
 62
     1
 10
-29.7799747350504
 20
-137.968759127259
 30
0.0
 11
-29.7799559221385
 21
-112.943761684298
 31
0.0
  0
LINE
  5
   281
  8
0
  6
CONTINUOUS
 62
     1
 10
-31.039976742535
 20
-137.968759127259
 30
0.0
 11
-31.0399579296231
 21
-112.943761684298
 31
0.0
  0
LINE
  5
   282
  8
0
  6
CONTINUOUS
 62
     1
 10
-39.8598839887496
 20
-24.3938328699901
 30
0.0
 11
-39.8598732667196
 21
4.13112663086406
 31
0.0
  0
LINE
  5
   283
  8
0
  6
CONTINUOUS
 62
     1
 10
-41.1198753150825
 20
-24.3938323963816
 30
0.0
 11
-41.1198645930491
 21
4.13113608361159
 31
0.0
  0
LINE
  5
   284
  8
0
  6
CONTINUOUS
 62
     1
 10
-42.3798826009024
 20
-24.3937595307843
 30
0.0
 11
-42.3798826009024
 21
4.1311138895927
 31
0.0
  0
LINE
  5
   285
  8
0
  6
CONTINUOUS
 62
     1
 10
-43.6398793300387
 20
-24.3938207680011
 30
0.0
 11
-43.6398686080349
 21
4.13106039183329
 31
0.0
  0
LINE
  5
   286
  8
0
  6
CONTINUOUS
 62
     1
 10
-39.6673721969128
 20
-24.3937575447876
 30
0.0
 11
-44.392371000399
 21
-24.3937540999599
 31
0.0
  0
LINE
  5
   287
  8
0
  6
CONTINUOUS
 62
   130
 10
-44.3923717141151
 20
-22.6437810719008
 30
0.0
 11
-44.3923717141151
 21
3.60613613725582
 31
0.0
  0
LINE
  5
   288
  8
0
  6
CONTINUOUS
 62
   130
 10
-44.1298490274659
 20
4.06073999017217
 30
0.0
 11
-43.8673490613509
 21
4.13106468568948
 31
0.0
  0
LINE
  5
   289
  8
0
  6
CONTINUOUS
 62
   130
 10
-44.3219825475576
 20
3.8685900961201
 30
0.0
 11
-44.1298232980139
 21
4.06076536596872
 31
0.0
  0
LINE
  5
   28A
  8
0
  6
CONTINUOUS
 62
   130
 10
-44.3923865707361
 20
3.6060726777408
 30
0.0
 11
-44.3220458553544
 21
3.86857264899395
 31
0.0
  0
LINE
  5
   28B
  8
0
  6
CONTINUOUS
 62
     1
 10
29.1076076826767
 20
-112.418763887883
 30
0.0
 11
29.1076080641421
 21
-109.706293983258
 31
0.0
  0
LINE
  5
   28C
  8
0
  6
CONTINUOUS
 62
     1
 10
-44.3923586210922
 20
-112.418763887883
 30
0.0
 11
-44.392371246504
 21
-22.6437862401972
 31
0.0
  0
LINE
  5
   28D
  8
0
  6
CONTINUOUS
 62
     1
 10
29.1076040894794
 20
-137.968759127259
 30
0.0
 11
-44.3923550278949
 21
-137.968759127259
 31
0.0
  0
LINE
  5
   28E
  8
0
  6
CONTINUOUS
 62
     1
 10
29.1076076088442
 20
-112.943761684298
 30
0.0
 11
-44.3923585472597
 21
-112.943761684298
 31
0.0
  0
LINE
  5
   28F
  8
0
  6
CONTINUOUS
 62
     1
 10
28.7576076938289
 20
-112.593761720061
 30
0.0
 11
-44.0423586322444
 21
-112.593761720061
 31
0.0
  0
LINE
  5
   290
  8
0
  6
CONTINUOUS
 62
     1
 10
29.1076076826767
 20
-112.418763887883
 30
0.0
 11
-44.3923586210923
 21
-112.418763887883
 31
0.0
  0
LINE
  5
   291
  8
0
  6
CONTINUOUS
 62
     1
 10
29.1076040894794
 20
-137.968759127259
 30
0.0
 11
29.1076076088442
 21
-112.943761684298
 31
0.0
  0
LINE
  5
   292
  8
0
  6
CONTINUOUS
 62
     1
 10
-44.3923550278949
 20
-137.968759127259
 30
0.0
 11
-44.3923585472597
 21
-112.943761684298
 31
0.0
  0
LINE
  5
   293
  8
0
  6
CONTINUOUS
 62
     1
 10
-44.0423585830225
 20
-112.943761684298
 30
0.0
 11
-44.0423586322444
 21
-112.593761720061
 31
0.0
  0
LINE
  5
   294
  8
0
  6
CONTINUOUS
 62
     1
 10
28.757607644607
 20
-112.943761684298
 30
0.0
 11
28.7576076938289
 21
-112.593761720061
 31
0.0
  0
LINE
  5
   295
  8
0
  6
CONTINUOUS
 62
     1
 10
-32.1423729658127
 20
-112.418763887883
 30
0.0
 11
-32.1423729658127
 21
-109.706293983258
 31
0.0
  0
LINE
  5
   296
  8
0
  6
CONTINUOUS
 62
     1
 10
16.8576220273972
 20
-112.418763887883
 30
0.0
 11
16.8576220273972
 21
-109.706293983258
 31
0.0
  0
LINE
  5
   297
  8
0
  6
CONTINUOUS
 62
     2
 10
-43.6398632460841
 20
-112.418763887883
 30
0.0
 11
-43.6398632460841
 21
-98.7687652826312
 31
0.0
  0
LINE
  5
   298
  8
0
  6
CONTINUOUS
 62
     2
 10
-42.3798505574487
 20
-112.418763887883
 30
0.0
 11
-42.3798505574487
 21
-98.7687652826312
 31
0.0
  0
LINE
  5
   299
  8
0
  6
CONTINUOUS
 62
     2
 10
-41.1198592311157
 20
-112.418763887883
 30
0.0
 11
-41.1198592311157
 21
-98.7687652826312
 31
0.0
  0
LINE
  5
   29A
  8
0
  6
CONTINUOUS
 62
     2
 10
-39.8598679047827
 20
-112.418763887883
 30
0.0
 11
-39.8598679047827
 21
-98.7687652826312
 31
0.0
  0
LINE
  5
   29B
  8
0
  6
CONTINUOUS
 62
     2
 10
-38.5998552161473
 20
-112.418763887883
 30
0.0
 11
-38.5998552161473
 21
-109.706293983258
 31
0.0
  0
LINE
  5
   29C
  8
0
  6
CONTINUOUS
 62
     2
 10
-37.3398638898143
 20
-112.418763887883
 30
0.0
 11
-37.3398638898143
 21
-109.706293983258
 31
0.0
  0
LINE
  5
   29D
  8
0
  6
CONTINUOUS
 62
     2
 10
-36.0798512011788
 20
-112.418763887883
 30
0.0
 11
-36.0798512011788
 21
-109.706293983258
 31
0.0
  0
LINE
  5
   29E
  8
0
  6
CONTINUOUS
 62
     2
 10
-34.8198598748459
 20
-112.418763887883
 30
0.0
 11
-34.8198598748459
 21
-109.706293983258
 31
0.0
  0
LINE
  5
   29F
  8
0
  6
CONTINUOUS
 62
     2
 10
-33.5598685485129
 20
-112.418763887883
 30
0.0
 11
-33.5598685485129
 21
-109.706293983258
 31
0.0
  0
LINE
  5
   2A0
  8
0
  6
CONTINUOUS
 62
     1
 10
-43.6398632460841
 20
-98.2437676727772
 30
0.0
 11
-43.6398632460841
 21
-90.1937738358969
 31
0.0
  0
LINE
  5
   2A1
  8
0
  6
CONTINUOUS
 62
     1
 10
-42.3798505574487
 20
-98.2437676727772
 30
0.0
 11
-42.3798505574487
 21
-90.1937738358969
 31
0.0
  0
LINE
  5
   2A2
  8
0
  6
CONTINUOUS
 62
     1
 10
-41.1198592311157
 20
-98.2437676727772
 30
0.0
 11
-41.1198592311157
 21
-90.1937738358969
 31
0.0
  0
LINE
  5
   2A3
  8
0
  6
CONTINUOUS
 62
     1
 10
-39.8598679047827
 20
-98.2437676727772
 30
0.0
 11
-39.8598679047827
 21
-90.1937738358969
 31
0.0
  0
LINE
  5
   2A4
  8
0
  6
CONTINUOUS
 62
     2
 10
-32.2998686772589
 20
-137.968759127259
 30
0.0
 11
-32.2998686772589
 21
-112.943761684298
 31
0.0
  0
LINE
  5
   2A5
  8
0
  6
CONTINUOUS
 62
     1
 10
28.3551123076686
 20
-112.418763887883
 30
0.0
 11
28.3551123076686
 21
-109.706293983258
 31
0.0
  0
LINE
  5
   2A6
  8
0
  6
CONTINUOUS
 62
     1
 10
27.0950996190331
 20
-112.418763887883
 30
0.0
 11
27.0950996190331
 21
-109.706293983258
 31
0.0
  0
LINE
  5
   2A7
  8
0
  6
CONTINUOUS
 62
     1
 10
25.8351082927002
 20
-112.418763887883
 30
0.0
 11
25.8351082927002
 21
-109.706293983258
 31
0.0
  0
LINE
  5
   2A8
  8
0
  6
CONTINUOUS
 62
     1
 10
24.5751169663672
 20
-112.418763887883
 30
0.0
 11
24.5751169663672
 21
-109.706293983258
 31
0.0
  0
LINE
  5
   2A9
  8
0
  6
CONTINUOUS
 62
     1
 10
23.3151042777317
 20
-112.418763887883
 30
0.0
 11
23.3151042777317
 21
-109.706293983258
 31
0.0
  0
LINE
  5
   2AA
  8
0
  6
CONTINUOUS
 62
     1
 10
22.0551129513988
 20
-112.418763887883
 30
0.0
 11
22.0551129513988
 21
-109.706293983258
 31
0.0
  0
LINE
  5
   2AB
  8
0
  6
CONTINUOUS
 62
     1
 10
20.7951002627633
 20
-112.418763887883
 30
0.0
 11
20.7951002627633
 21
-109.706293983258
 31
0.0
  0
LINE
  5
   2AC
  8
0
  6
CONTINUOUS
 62
     1
 10
19.5351089364303
 20
-112.418763887883
 30
0.0
 11
19.5351089364303
 21
-109.706293983258
 31
0.0
  0
LINE
  5
   2AD
  8
0
  6
CONTINUOUS
 62
     1
 10
18.2751176100974
 20
-112.418763887883
 30
0.0
 11
18.2751176100974
 21
-109.706293983258
 31
0.0
  0
LINE
  5
   2AE
  8
0
  6
CONTINUOUS
 62
     1
 10
17.0151049214619
 20
-112.418763887883
 30
0.0
 11
17.0151049214619
 21
-109.706293983258
 31
0.0
  0
LINE
  5
   2AF
  8
0
  6
CONTINUOUS
 62
     1
 10
28.3551123076686
 20
-137.968759127259
 30
0.0
 11
28.3551123076686
 21
-112.943761684298
 31
0.0
  0
LINE
  5
   2B0
  8
0
  6
CONTINUOUS
 62
     1
 10
27.0950996190331
 20
-137.968759127259
 30
0.0
 11
27.0950996190331
 21
-112.943761684298
 31
0.0
  0
LINE
  5
   2B1
  8
0
  6
CONTINUOUS
 62
     1
 10
25.8351082927002
 20
-137.968759127259
 30
0.0
 11
25.8351082927002
 21
-112.943761684298
 31
0.0
  0
LINE
  5
   2B2
  8
0
  6
CONTINUOUS
 62
     1
 10
24.5751169663672
 20
-137.968759127259
 30
0.0
 11
24.5751169663672
 21
-112.943761684298
 31
0.0
  0
LINE
  5
   2B3
  8
0
  6
CONTINUOUS
 62
     1
 10
23.3151042777317
 20
-137.968759127259
 30
0.0
 11
23.3151042777317
 21
-112.943761684298
 31
0.0
  0
LINE
  5
   2B4
  8
0
  6
CONTINUOUS
 62
     1
 10
22.0551129513988
 20
-137.968759127259
 30
0.0
 11
22.0551129513988
 21
-112.943761684298
 31
0.0
  0
LINE
  5
   2B5
  8
0
  6
CONTINUOUS
 62
     1
 10
20.7951002627633
 20
-137.968759127259
 30
0.0
 11
20.7951002627633
 21
-112.943761684298
 31
0.0
  0
LINE
  5
   2B6
  8
0
  6
CONTINUOUS
 62
     1
 10
19.5351089364303
 20
-137.968759127259
 30
0.0
 11
19.5351089364303
 21
-112.943761684298
 31
0.0
  0
LINE
  5
   2B7
  8
0
  6
CONTINUOUS
 62
     1
 10
18.2751176100974
 20
-137.968759127259
 30
0.0
 11
18.2751176100974
 21
-112.943761684298
 31
0.0
  0
LINE
  5
   2B8
  8
0
  6
CONTINUOUS
 62
     1
 10
17.0151177388434
 20
-137.968759127259
 30
0.0
 11
17.0151177388434
 21
-112.943761684298
 31
0.0
  0
CIRCLE
  5
   2B9
  8
0
  6
CONTINUOUS
 62
     1
 10
-19.8923405067694
 20
-122.218929259756
 30
0.0
 40
1.57569269749607
  0
CIRCLE
  5
   2BA
  8
0
  6
CONTINUOUS
 62
     1
 10
4.60774276542236
 20
-122.218811982721
 30
0.0
 40
1.57586995460973
  0
LINE
  5
   2BB
  8
0
  6
DASHDOT
 62
     1
 10
4.60774276542236
 20
-127.294681579703
 30
0.0
 11
4.60774276542236
 21
-112.943761684298
 31
0.0
  0
LINE
  5
   2BC
  8
0
  6
DASHDOT
 62
     1
 10
9.68361236240422
 20
-122.218811982721
 30
0.0
 11
-0.468126831559492
 21
-122.218811982721
 31
0.0
  0
LINE
  5
   2BD
  8
0
  6
DASHDOT
 62
     1
 10
-19.8923405067694
 20
-127.294621599624
 30
0.0
 11
-19.8923405067694
 21
-112.943761684298
 31
0.0
  0
LINE
  5
   2BE
  8
0
  6
DASHDOT
 62
     1
 10
-14.8166481669012
 20
-122.218929259756
 30
0.0
 11
-24.9680328466376
 21
-122.218929259756
 31
0.0
  0
LINE
  5
   2BF
  8
0
  6
CONTINUOUS
 62
     1
 10
4.41513825237598
 20
-120.654756480063
 30
0.0
 11
4.41513825237598
 21
-112.943761684298
 31
0.0
  0
LINE
  5
   2C0
  8
0
  6
CONTINUOUS
 62
     1
 10
5.6751402598602
 20
-121.059489463873
 30
0.0
 11
5.6751402598602
 21
-112.943761684298
 31
0.0
  0
LINE
  5
   2C1
  8
0
  6
CONTINUOUS
 62
     1
 10
3.15514692604302
 20
-121.607803438379
 30
0.0
 11
3.15514692604302
 21
-112.943761684298
 31
0.0
  0
LINE
  5
   2C2
  8
0
  6
CONTINUOUS
 62
     1
 10
-18.4399032050342
 20
-121.608000981256
 30
0.0
 11
-18.4399032050342
 21
-112.943761684298
 31
0.0
  0
LINE
  5
   2C3
  8
0
  6
CONTINUOUS
 62
     1
 10
-19.6998891907915
 20
-120.655033493433
 30
0.0
 11
-19.6998891907915
 21
-112.943761684298
 31
0.0
  0
LINE
  5
   2C4
  8
0
  6
CONTINUOUS
 62
     1
 10
-20.9598911982757
 20
-121.059988796226
 30
0.0
 11
-20.9598911982757
 21
-112.943761684298
 31
0.0
  0
LINE
  5
   2C5
  8
0
  6
DASHDOT
 62
     7
 10
-7.64237546920776
 20
-154.35547168193
 30
0.0
 11
-7.64237546920776
 21
12.7331112889275
 31
0.0
  0
LINE
  5
   2C6
  8
0
  6
DASHDOT
 62
     7
 10
16.8576220273972
 20
-21.5387089948759
 30
0.0
 11
16.8576220273972
 21
7.72959779043228
 31
0.0
  0
LINE
  5
   2C7
  8
0
  6
DASHDOT
 62
     7
 10
-32.1423729658127
 20
-34.1939418992223
 30
0.0
 11
-32.1423729658127
 21
10.5938787564134
 31
0.0
  0
LINE
  5
   2C8
  8
0
  6
CONTINUOUS
 62
   130
 10
-43.8673490613509
 20
4.13106468568947
 30
0.0
 11
-39.6673721969128
 21
4.13107097391583
 31
0.0
  0
LINE
  5
   2C9
  8
0
  6
DASHDOT
 62
     7
 10
48.0803801259781
 20
-71.8187920689561
 30
0.0
 11
-87.6970195293318
 21
-71.8187920689561
 31
0.0
  0
POINT
  5
   2CA
  8
0
  6
CONTINUOUS
 62
     7
 10
-7.64237546920776
 20
-71.8187920689561
 30
0.0
  0
POINT
  5
   2CB
  8
0
  6
CONTINUOUS
 62
     1
 10
-7.64237546920776
 20
-71.8187920689561
 30
0.0
  0
INSERT
  5
   2CC
  8
255
  6
CONTINUOUS
 62
     7
  2
MOTORE_FRONTE
 10
-7.64237546920776
 20
-97.8062737256283
 30
0.0
 41
0.349999964237213
 42
0.349999964237213
 50
3.50835464724173E-15
 43
0.349999964237213
  0
LINE
  5
   2CD
  8
0
  6
CONTINUOUS
 62
   130
 10
-42.6423718929291
 20
6.58106626939464
 30
0.0
 11
-39.6673721969128
 21
6.58107072357906
 31
0.0
  0
LINE
  5
   2CE
  8
0
  6
CONTINUOUS
 62
   130
 10
-42.6423718929291
 20
4.13106651973142
 30
0.0
 11
-42.6423718929291
 21
6.58106626939465
 31
0.0
  0
LINE
  5
   2CF
  8
0
  6
CONTINUOUS
 62
     1
 10
27.3576039237401
 20
-140.41875887692
 30
0.0
 11
-42.6423548621557
 21
-140.41875887692
 31
0.0
  0
LINE
  5
   2D0
  8
0
  6
CONTINUOUS
 62
     1
 10
27.3576039237401
 20
-140.41875887692
 30
0.0
 11
27.3576042682934
 21
-137.96875888115
 31
0.0
  0
LINE
  5
   2D1
  8
0
  6
CONTINUOUS
 62
     1
 10
-42.6423548621557
 20
-140.41875887692
 30
0.0
 11
-42.6423552067089
 21
-137.96875888115
 31
0.0
  0
LINE
  5
   2D2
  8
0
  6
DOT
 62
     7
 10
-68.8923525244999
 20
-137.968759127259
 30
0.0
 11
-68.8923725085624
 21
4.13106389961801
 31
0.0
  0
LINE
  5
   2D3
  8
0
  6
DOT
 62
     7
 10
-68.8923725085624
 20
4.131063899618
 30
0.0
 11
-44.3923717141152
 21
4.13110058114167
 31
0.0
  0
LINE
  5
   2D4
  8
0
  6
DOT
 62
     7
 10
-67.1423693832183
 20
6.58106626939465
 30
0.0
 11
-42.6423718929291
 21
6.58110295091336
 31
0.0
  0
LINE
  5
   2D5
  8
0
  6
DOT
 62
     7
 10
-67.142369389534
 20
4.13106651973142
 30
0.0
 11
-67.142369389534
 21
6.58106626939465
 31
0.0
  0
LINE
  5
   2D6
  8
0
  6
DOT
 62
     7
 10
-67.1423523587606
 20
-140.41875887692
 30
0.0
 11
-67.1423527033138
 21
-137.96875888115
 31
0.0
  0
LINE
  5
   2D7
  8
0
  6
DOT
 62
     7
 10
-42.6423548621557
 20
-140.41875887692
 30
0.0
 11
-67.1423523587606
 21
-140.41875887692
 31
0.0
  0
LINE
  5
   2D8
  8
0
  6
DOT
 62
     7
 10
-44.3923550278949
 20
-137.968759127259
 30
0.0
 11
-68.8923525244999
 21
-137.968759127259
 31
0.0
  0
LINE
  5
   2D9
  8
0
  6
DOT
 62
     7
 10
-44.3923586210923
 20
-112.418763887883
 30
0.0
 11
-68.8923561176972
 21
-112.418763887883
 31
0.0
  0
LINE
  5
   2DA
  8
0
  6
DOT
 62
     7
 10
-44.3923585472597
 20
-112.943761684298
 30
0.0
 11
-68.8923560438647
 21
-112.943761684298
 31
0.0
  0
LINE
  5
   2DB
  8
0
  6
DOT
 62
     7
 10
-44.3923717141151
 20
-24.3937808931057
 30
0.0
 11
-68.8923684970039
 21
-24.3937808931057
 31
0.0
  0
LINE
  5
   2DC
  8
0
  6
CONTINUOUS
 62
     1
 10
29.1076129994007
 20
-74.6133611119232
 30
0.0
 11
29.1076155414701
 21
-56.5375762998881
 31
0.0
  0
LINE
  5
   2DD
  8
0
  6
CONTINUOUS
 62
     1
 10
31.0326133433791
 20
-70.7688155205599
 30
0.0
 11
31.0326149184794
 21
-59.5688166649542
 31
0.0
  0
LINE
  5
   2DE
  8
0
  6
CONTINUOUS
 62
     1
 10
29.1076151151743
 20
-59.5688195470735
 30
0.0
 11
31.0326149184794
 21
-59.5688166649542
 31
0.0
  0
LINE
  5
   2DF
  8
0
  6
CONTINUOUS
 62
     1
 10
29.107613540074
 20
-70.7688184026793
 30
0.0
 11
31.0326133433791
 21
-70.7688155205599
 31
0.0
  0
LINE
  5
   2E0
  8
0
  6
CONTINUOUS
 62
     2
 10
41.0628340683435
 20
-56.5375762998881
 30
0.0
 11
26.1306640062272
 21
-56.5375762998881
 31
0.0
  0
LINE
  5
   2E1
  8
0
  6
CONTINUOUS
 62
     2
 10
42.0452136776933
 20
-74.6133611119233
 30
0.0
 11
26.1306640062272
 21
-74.6133611119233
 31
0.0
  0
LINE
  5
   2E2
  8
0
  6
CONTINUOUS
 62
     2
 10
26.1306640062272
 20
-74.6133611119233
 30
0.0
 11
26.1306640062272
 21
-56.5375762998881
 31
0.0
  0
LINE
  5
   2E3
  8
0
  6
CONTINUOUS
 62
     3
 10
38.2076198458672
 20
-56.5375762998881
 30
0.0
 11
38.2076198458672
 21
8.15619397362359
 31
0.0
  0
ARC
  5
   2E4
  8
0
  6
CONTINUOUS
 62
     3
 10
37.7701198905707
 20
8.15619397362359
 30
0.0
 40
0.437499955296516
 50
359.999999948034
 51
449.999999948034
  0
LINE
  5
   2E5
  8
0
  6
CONTINUOUS
 62
     3
 10
37.85761988163
 20
8.5936939289201
 30
0.0
 11
-39.2298722416162
 21
8.5936939289201
 31
0.0
  0
LINE
  5
   2E6
  8
0
  6
CONTINUOUS
 62
     3
 10
16.5076220631599
 20
-95.9736715943241
 30
0.0
 11
16.5076220631599
 21
-5.13892846001357
 31
0.0
  0
LINE
  5
   2E7
  8
0
  6
CONTINUOUS
 62
     3
 10
15.1999984046472
 20
-3.65630481938236
 30
0.0
 11
-30.3097493609441
 21
-3.65630481938236
 31
0.0
  0
LINE
  5
   2E8
  8
0
  6
CONTINUOUS
 62
     3
 10
21.5826215445996
 20
1.24369467993863
 30
0.0
 11
-36.6923725008964
 21
1.24369467993863
 31
0.0
  0
LINE
  5
   2E9
  8
0
  6
CONTINUOUS
 62
     3
 10
21.5826215445996
 20
1.59369464417584
 30
0.0
 11
-36.6923725008964
 21
1.59369464417584
 31
0.0
  0
LINE
  5
   2EA
  8
0
  6
CONTINUOUS
 62
     3
 10
17.0326220095158
 20
1.59369464417584
 30
0.0
 11
17.0326220095158
 21
8.5936939289201
 31
0.0
  0
LINE
  5
   2EB
  8
0
  6
CONTINUOUS
 62
     3
 10
17.382621973753
 20
1.59369464417584
 30
0.0
 11
17.382621973753
 21
8.59369392892008
 31
0.0
  0
LINE
  5
   2EC
  8
0
  6
CONTINUOUS
 62
     3
 10
21.4076215624809
 20
1.59369464417584
 30
0.0
 11
21.4076215624809
 21
8.5936939289201
 31
0.0
  0
LINE
  5
   2ED
  8
0
  6
CONTINUOUS
 62
     3
 10
21.7576215267181
 20
-72.3000614386331
 30
0.0
 11
21.7576215267181
 21
8.5936939289201
 31
0.0
  0
LINE
  5
   2EE
  8
0
  6
CONTINUOUS
 62
     3
 10
21.4076215624809
 20
-102.356294734276
 30
0.0
 11
21.4076215624809
 21
1.24369467993863
 31
0.0
  0
LINE
  5
   2EF
  8
0
  6
CONTINUOUS
 62
     3
 10
-32.3173729479313
 20
1.59369464417584
 30
0.0
 11
-32.3173729479313
 21
8.5936939289201
 31
0.0
  0
LINE
  5
   2F0
  8
0
  6
CONTINUOUS
 62
     3
 10
-32.6673729121685
 20
1.59369464417584
 30
0.0
 11
-32.6673729121685
 21
8.59369392892008
 31
0.0
  0
LINE
  5
   2F1
  8
0
  6
CONTINUOUS
 62
     3
 10
-31.7923730015755
 20
-95.9736715943241
 30
0.0
 11
-31.7923730015755
 21
-5.13892846001357
 31
0.0
  0
LINE
  5
   2F2
  8
0
  6
CONTINUOUS
 62
     3
 10
-36.6923725008965
 20
-102.356294734276
 30
0.0
 11
-36.6923725008965
 21
1.24369467993863
 31
0.0
  0
LINE
  5
   2F3
  8
0
  6
CONTINUOUS
 62
     3
 10
-36.6923725008965
 20
1.59369464417584
 30
0.0
 11
-36.6923725008965
 21
8.5936939289201
 31
0.0
  0
LINE
  5
   2F4
  8
0
  6
CONTINUOUS
 62
     3
 10
-37.0423724651337
 20
-109.706293983258
 30
0.0
 11
-37.0423724651337
 21
8.5936939289201
 31
0.0
  0
LINE
  5
   2F5
  8
0
  6
CONTINUOUS
 62
     3
 10
-39.6673721969128
 20
-109.268794027961
 30
0.0
 11
-39.6673721969128
 21
8.15619397362359
 31
0.0
  0
ARC
  5
   2F6
  8
0
  6
CONTINUOUS
 62
     3
 10
-39.2298722416162
 20
8.15619397362359
 30
0.0
 40
0.437499955296516
 50
89.9999999480344
 51
179.999999948034
  0
LINE
  5
   2F7
  8
0
  6
CONTINUOUS
 62
     3
 10
26.1306640062272
 20
-72.3000614386331
 30
0.0
 11
21.8451215177774
 21
-72.3000614386331
 31
0.0
  0
LINE
  5
   2F8
  8
0
  6
CONTINUOUS
 62
     3
 10
26.1306640062272
 20
-72.6500614028703
 30
0.0
 11
21.8451215177774
 21
-72.6500614028703
 31
0.0
  0
LINE
  5
   2F9
  8
0
  6
CONTINUOUS
 62
     3
 10
21.7576215267181
 20
-87.000059936596
 30
0.0
 11
21.7576215267181
 21
-72.6500614028703
 31
0.0
  0
LINE
  5
   2FA
  8
0
  6
CONTINUOUS
 62
     3
 10
31.5576205253601
 20
-87.000059936596
 30
0.0
 11
21.7576215267181
 21
-87.000059936596
 31
0.0
  0
LINE
  5
   2FB
  8
0
  6
CONTINUOUS
 62
     3
 10
38.2076198458672
 20
-87.3500599008332
 30
0.0
 11
21.7576215267181
 21
-87.3500599008332
 31
0.0
  0
LINE
  5
   2FC
  8
0
  6
CONTINUOUS
 62
     3
 10
31.5576205253601
 20
-87.000059936596
 30
0.0
 11
31.5576205253601
 21
-74.6133611119233
 31
0.0
  0
LINE
  5
   2FD
  8
0
  6
CONTINUOUS
 62
     3
 10
31.9076204895973
 20
-87.3500599008332
 30
0.0
 11
31.9076204895973
 21
-74.6133611119233
 31
0.0
  0
LINE
  5
   2FE
  8
0
  6
CONTINUOUS
 62
     3
 10
38.2076198458672
 20
-87.000059936596
 30
0.0
 11
31.9951204806566
 21
-87.000059936596
 31
0.0
  0
LINE
  5
   2FF
  8
0
  6
CONTINUOUS
 62
     3
 10
21.7576215267181
 20
-109.706293983258
 30
0.0
 11
21.7576215267181
 21
-87.3500599008332
 31
0.0
  0
LINE
  5
   300
  8
0
  6
CONTINUOUS
 62
     3
 10
15.0249984225286
 20
-97.4562952349555
 30
0.0
 11
-30.3097493609441
 21
-97.4562952349555
 31
0.0
  0
LINE
  5
   301
  8
0
  6
CONTINUOUS
 62
     3
 10
21.4076215624809
 20
-102.356294734276
 30
0.0
 11
-36.6923725008965
 21
-102.356294734276
 31
0.0
  0
LINE
  5
   302
  8
0
  6
CONTINUOUS
 62
     3
 10
21.4076215624809
 20
-102.706294698514
 30
0.0
 11
-36.6923725008965
 21
-102.706294698514
 31
0.0
  0
LINE
  5
   303
  8
0
  6
CONTINUOUS
 62
     3
 10
37.7701198905706
 20
-109.706293983258
 30
0.0
 11
-39.2298722416163
 21
-109.706293983258
 31
0.0
  0
ARC
  5
   304
  8
0
  6
CONTINUOUS
 62
     3
 10
37.7701198905706
 20
-109.268794027961
 30
0.0
 40
0.437499955296516
 50
269.999999948034
 51
359.999999948034
  0
LINE
  5
   305
  8
0
  6
CONTINUOUS
 62
     3
 10
-36.6923725008965
 20
-109.706293983258
 30
0.0
 11
-36.6923725008965
 21
-102.706294698514
 31
0.0
  0
ARC
  5
   306
  8
0
  6
CONTINUOUS
 62
     3
 10
-39.2298722416163
 20
-109.268794027961
 30
0.0
 40
0.437499955296516
 50
179.999999948034
 51
269.999999948034
  0
ARC
  5
   307
  8
0
  6
CONTINUOUS
 62
     3
 10
-31.092373073101
 20
-4.35630474785678
 30
0.0
 40
1.04999989271164
 50
401.810314843813
 51
588.189685052252
  0
ARC
  5
   308
  8
0
  6
CONTINUOUS
 62
     3
 10
-31.092373073101
 20
-96.7562953064811
 30
0.0
 40
1.04999989271164
 50
131.810314843817
 51
318.189685052256
  0
ARC
  5
   309
  8
0
  6
CONTINUOUS
 62
     3
 10
15.8076221346855
 20
-4.35630474785678
 30
0.0
 40
1.04999989271164
 50
311.810314843817
 51
498.189685052256
  0
ARC
  5
   30A
  8
0
  6
CONTINUOUS
 62
     3
 10
15.8076221346855
 20
-96.7562953064811
 30
0.0
 40
1.04999989271164
 50
221.810314843813
 51
408.189685052256
  0
LINE
  5
   30B
  8
0
  6
CONTINUOUS
 62
     3
 10
21.4076215624809
 20
-109.706293983258
 30
0.0
 11
21.4076215624809
 21
-102.706294698514
 31
0.0
  0
LINE
  5
   30C
  8
0
  6
CONTINUOUS
 62
     3
 10
38.2076198458672
 20
-109.268794027961
 30
0.0
 11
38.2076198458672
 21
-74.6133611119233
 31
0.0
  0
LINE
  5
   30D
  8
0
  6
CONTINUOUS
 62
     1
 10
28.3551123076686
 20
-74.6133611119233
 30
0.0
 11
28.3551123076686
 21
-56.5375762998881
 31
0.0
  0
LINE
  5
   30E
  8
0
  6
CONTINUOUS
 62
     1
 10
27.0950996190331
 20
-74.6133611119233
 30
0.0
 11
27.0950996190331
 21
-56.5375762998881
 31
0.0
  0
INSERT
  5
   30F
  8
0
  6
CONTINUOUS
 62
     7
  2
*UDIM415
 10
0.0
 20
0.0
 30
0.0
  0
INSERT
  5
   310
  8
0
  6
CONTINUOUS
 62
     7
  2
*UDIM416
 10
0.0
 20
0.0
 30
0.0
  0
INSERT
  5
   311
  8
0
  6
CONTINUOUS
 62
     7
  2
*UDIM417
 10
0.0
 20
0.0
 30
0.0
  0
INSERT
  5
   312
  8
0
  6
CONTINUOUS
 62
     7
  2
*UDIM418
 10
0.0
 20
0.0
 30
0.0
  0
INSERT
  5
   313
  8
0
  6
CONTINUOUS
 62
     7
  2
*UDIM419
 10
0.0
 20
0.0
 30
0.0
  0
INSERT
  5
   314
  8
0
  6
CONTINUOUS
 62
     7
  2
*UDIM420
 10
0.0
 20
0.0
 30
0.0
  0
INSERT
  5
   315
  8
0
  6
CONTINUOUS
 62
     7
  2
*UDIM421
 10
0.0
 20
0.0
 30
0.0
  0
INSERT
  5
   316
  8
0
  6
CONTINUOUS
 62
     7
  2
*UDIM422
 10
0.0
 20
0.0
 30
0.0
  0
INSERT
  5
   317
  8
0
  6
CONTINUOUS
 62
     7
  2
*UDIM423
 10
0.0
 20
0.0
 30
0.0
  0
TEXT
  5
   318
  8
0
  6
CONTINUOUS
 62
     7
 10
-22.5238207789939
 20
11.6299137749364
 30
0.0
 40
3.00000001532688
  1
=         =
 50
359.999999948034
 41
0.916666616797451
 72
     2
 11
7.17617775984057
 21
11.6299137481487
 31
0.0
  0
TEXT
  5
   319
  8
0
  6
CONTINUOUS
 62
     7
 10
-9.11372048517135
 20
39.0912498566538
 30
0.0
 40
3.00000001532688
  1
Y
 50
359.999999948034
 41
0.916666616797451
 72
     2
 11
-6.91372059075673
 21
39.0912498546696
 31
0.0
  0
TEXT
  5
   31A
  8
0
  6
CONTINUOUS
 62
     7
 10
58.3480541472368
 20
-73.640593826195
 30
0.0
 40
3.00000001532688
  1
X
 50
359.999999948034
 41
0.916666616797451
 72
     2
 11
60.5480540416514
 21
-73.6405938281793
 31
0.0
  0
TEXT
  5
   31B
  8
0
  6
CONTINUOUS
 62
     7
 10
-92.3364366814981
 20
-72.7115326036821
 30
0.0
 40
3.00000001532688
  1
X
 50
359.999999948034
 41
0.916666616797451
 72
     2
 11
-90.1364367870835
 21
-72.7115326056664
 31
0.0
  0
TEXT
  5
   31C
  8
0
  6
CONTINUOUS
 62
     7
 10
-6.58538570014522
 20
-162.121267245553
 30
0.0
 40
3.00000001532688
  1
Y
 50
359.999999948034
 41
0.916666616797451
 72
     2
 11
-4.3853858057306
 21
-162.121267247537
 31
0.0
  0
LINE
  5
   31D
  8
0
  6
CONTINUOUS
 62
   130
 10
77.2940195556953
 20
6.58107497512763
 30
0.0
 11
77.2940206486808
 21
-22.6439260107623
 31
0.0
  0
LINE
  5
   31E
  8
0
  6
CONTINUOUS
 62
   130
 10
110.368996018177
 20
-22.6439461361149
 30
0.0
 11
110.369012039915
 21
4.1309902261241
 31
0.0
  0
LINE
  5
   31F
  8
0
  6
CONTINUOUS
 62
   130
 10
78.344013161398
 20
-62.718920323327
 30
0.0
 11
78.6065134656103
 21
-62.6485849533513
 31
0.0
  0
LINE
  5
   320
  8
0
  6
CONTINUOUS
 62
   130
 10
76.7690200805664
 20
-95.2689272406824
 30
0.0
 11
111.768995141991
 21
-95.2689132690399
 31
0.0
  0
LINE
  5
   321
  8
0
  6
CONTINUOUS
 62
   130
 10
111.768984460955
 20
-58.5189010021706
 30
0.0
 11
111.76898980153
 21
-60.2689008233567
 31
0.0
  0
LINE
  5
   322
  8
0
  6
CONTINUOUS
 62
   130
 10
111.768984460837
 20
-64.8188888795229
 30
0.0
 11
111.768989801411
 21
-95.2689178116142
 31
0.0
  0
LINE
  5
   323
  8
0
  6
CONTINUOUS
 62
   130
 10
77.2940204086437
 20
-22.6439313568415
 30
0.0
 11
77.2940214100016
 21
-59.8468831829075
 31
0.0
  0
LINE
  5
   324
  8
0
  6
CONTINUOUS
 62
   130
 10
77.2940207289058
 20
-79.5189148906416
 30
0.0
 11
77.2940210626917
 21
-65.2409073163568
 31
0.0
  0
LINE
  5
   325
  8
0
  6
CONTINUOUS
 62
   130
 10
77.2940206034623
 20
-84.7689162900228
 30
0.0
 11
77.2940216048198
 21
-94.3939153065461
 31
0.0
  0
LINE
  5
   326
  8
0
  6
CONTINUOUS
 62
   130
 10
77.2940216958521
 20
-94.3939150273798
 30
0.0
 11
77.6440193235875
 21
-94.3939150273798
 31
0.0
  0
LINE
  5
   327
  8
0
  6
CONTINUOUS
 62
   130
 10
77.6440196573735
 20
-65.1471321366635
 30
0.0
 11
77.6440196573735
 21
-62.7189219355578
 31
0.0
  0
LINE
  5
   328
  8
0
  6
CONTINUOUS
 62
   130
 10
77.6440196573735
 20
-60.4439168274403
 30
0.0
 11
77.6440196573735
 21
-59.9406850673367
 31
0.0
  0
LINE
  5
   329
  8
0
  6
CONTINUOUS
 62
   130
 10
76.7690200805664
 20
-79.5189148783684
 30
0.0
 11
77.2940210282802
 21
-79.5189148783684
 31
0.0
  0
LINE
  5
   32A
  8
0
  6
CONTINUOUS
 62
   130
 10
76.7690200805664
 20
-84.7689143419266
 30
0.0
 11
77.2940206944942
 21
-84.7689143419266
 31
0.0
  0
LINE
  5
   32B
  8
0
  6
CONTINUOUS
 62
   130
 10
76.7690200805664
 20
-84.7689143419266
 30
0.0
 11
76.7690200805664
 21
-79.5189148783684
 31
0.0
  0
LINE
  5
   32C
  8
0
  6
CONTINUOUS
 62
   130
 10
78.344013161398
 20
-62.718920323327
 30
0.0
 11
78.6065134656103
 21
-62.6485849533513
 31
0.0
  0
LINE
  5
   32D
  8
0
  6
CONTINUOUS
 62
   130
 10
78.6065164691811
 20
-62.6485936426699
 30
0.0
 11
78.7986797228361
 21
-62.4564290607618
 31
0.0
  0
LINE
  5
   32E
  8
0
  6
CONTINUOUS
 62
   130
 10
78.7986834138518
 20
-62.4564261748143
 30
0.0
 11
78.8690031048762
 21
-62.1939422319441
 31
0.0
  0
LINE
  5
   32F
  8
0
  6
CONTINUOUS
 62
   130
 10
78.8690021753315
 20
-62.1939177930159
 30
0.0
 11
78.8690028429035
 21
-60.9689179181856
 31
0.0
  0
LINE
  5
   330
  8
0
  6
CONTINUOUS
 62
   130
 10
78.7986757895155
 20
-60.7064248939604
 30
0.0
 11
78.8690008143885
 21
-60.9689248596896
 31
0.0
  0
LINE
  5
   331
  8
0
  6
CONTINUOUS
 62
   130
 10
78.6065119750528
 20
-60.5142629622644
 30
0.0
 11
78.7986752313817
 21
-60.7064222014937
 31
0.0
  0
LINE
  5
   332
  8
0
  6
CONTINUOUS
 62
   130
 10
78.3440143177389
 20
-60.4439243661316
 30
0.0
 11
78.606514288992
 21
-60.5142650815133
 31
0.0
  0
LINE
  5
   333
  8
0
  6
CONTINUOUS
 62
   130
 10
77.6440196573735
 20
-60.4439168274403
 30
0.0
 11
78.3440145790582
 21
-60.4439168274403
 31
0.0
  0
LINE
  5
   334
  8
0
  6
CONTINUOUS
 62
   130
 10
77.6440196573735
 20
-62.7189165949822
 30
0.0
 11
78.3440145790582
 21
-62.7189165949822
 31
0.0
  0
LINE
  5
   335
  8
0
  6
CONTINUOUS
 62
   130
 10
110.368995415291
 20
-58.5189327071869
 30
0.0
 11
110.369000755866
 21
-22.6439363728725
 31
0.0
  0
LINE
  5
   336
  8
0
  6
CONTINUOUS
 62
   130
 10
110.368995285036
 20
-58.5189277052868
 30
0.0
 11
111.768984460834
 21
-58.5189277052868
 31
0.0
  0
LINE
  5
   337
  8
0
  6
CONTINUOUS
 62
   130
 10
110.368987473161
 20
-41.3940282670878
 30
0.0
 11
110.543992790564
 21
-41.3471380168956
 31
0.0
  0
LINE
  5
   338
  8
0
  6
CONTINUOUS
 62
   130
 10
110.368983353152
 20
-44.1437654202562
 30
0.0
 11
110.54399401517
 21
-44.1906610051948
 31
0.0
  0
LINE
  5
   339
  8
0
  6
CONTINUOUS
 62
   130
 10
77.6440190511591
 20
-94.3939150887374
 30
0.0
 11
101.44401661929
 21
-94.3939167576662
 31
0.0
  0
LINE
  5
   33A
  8
0
  6
CONTINUOUS
 62
   130
 10
101.44401755929
 20
-95.2689113852284
 30
0.0
 11
101.44401755929
 21
-94.393916815211
 31
0.0
  0
LINE
  5
   33B
  8
0
  6
CONTINUOUS
 62
   130
 10
80.1752091666507
 20
-60.6188977761613
 30
0.0
 11
111.418986491758
 21
-60.6189191384632
 31
0.0
  0
LINE
  5
   33C
  8
0
  6
CONTINUOUS
 62
   130
 10
80.1752062005052
 20
-64.4688973827695
 30
0.0
 11
111.418983525613
 21
-64.4689187450714
 31
0.0
  0
LINE
  5
   33D
  8
0
  6
CONTINUOUS
 62
   130
 10
77.2940231719511
 20
-59.8468872185873
 30
0.0
 11
77.6440196573735
 21
-59.9406685381907
 31
0.0
  0
LINE
  5
   33E
  8
0
  6
CONTINUOUS
 62
   130
 10
77.2940159921012
 20
-65.2409117512276
 30
0.0
 11
77.6440196573735
 21
-65.1471284429951
 31
0.0
  0
LINE
  5
   33F
  8
0
  6
CONTINUOUS
 62
   130
 10
111.419010694551
 20
-60.6189000264808
 30
0.0
 11
111.768999966858
 21
-60.2689054142929
 31
0.0
  0
LINE
  5
   340
  8
0
  6
CONTINUOUS
 62
   130
 10
111.41898639655
 20
-64.4689138567999
 30
0.0
 11
111.768986348807
 21
-64.8189138090571
 31
0.0
  0
LINE
  5
   341
  8
0
  6
CONTINUOUS
 62
   130
 10
110.544080716365
 20
-24.7439097940933
 30
0.0
 11
110.544080716365
 21
4.13098977621556
 31
0.0
  0
LINE
  5
   342
  8
0
  6
CONTINUOUS
 62
     1
 10
110.544080716365
 20
4.13099112511554
 30
0.0
 11
111.769059228893
 21
4.13099112511554
 31
0.0
  0
LINE
  5
   343
  8
0
  6
CONTINUOUS
 62
   130
 10
124.894100612393
 20
-24.3939258515829
 30
0.0
 11
125.068945717819
 21
-24.3939258515829
 31
0.0
  0
LINE
  5
   344
  8
0
  6
CONTINUOUS
 62
     1
 10
120.694090360395
 20
4.13099112511554
 30
0.0
 11
121.744100934258
 21
4.13099112511554
 31
0.0
  0
LINE
  5
   345
  8
0
  6
CONTINUOUS
 62
   130
 10
125.244100077299
 20
3.6934853137536
 30
0.0
 11
125.2441214396
 21
-24.3938996641946
 31
0.0
  0
LINE
  5
   346
  8
0
  6
CONTINUOUS
 62
   130
 10
124.194015234709
 20
-24.7439152936921
 30
0.0
 11
124.894095601122
 21
-24.743893931767
 31
0.0
  0
LINE
  5
   347
  8
0
  6
CONTINUOUS
 62
   130
 10
123.03900360346
 20
-24.7439097940933
 30
0.0
 11
124.194015234709
 21
-24.7439097940933
 31
0.0
  0
LINE
  5
   348
  8
0
  6
CONTINUOUS
 62
     1
 10
121.744100934258
 20
4.13099112511554
 30
0.0
 11
124.36903657913
 21
4.13099112511554
 31
0.0
  0
LINE
  5
   349
  8
0
  6
CONTINUOUS
 62
   130
 10
111.769059228893
 20
4.13099112511554
 30
0.0
 11
120.694090360395
 21
4.13099112511554
 31
0.0
  0
LINE
  5
   34A
  8
0
  6
CONTINUOUS
 62
   130
 10
124.894100612393
 20
-24.3938991487048
 30
0.0
 11
125.244121938933
 21
-24.3938991487048
 31
0.0
  0
LINE
  5
   34B
  8
0
  6
CONTINUOUS
 62
   130
 10
124.894100612393
 20
-24.7438937723664
 30
0.0
 11
124.894100612393
 21
-24.3938991487048
 31
0.0
  0
LINE
  5
   34C
  8
0
  6
CONTINUOUS
 62
     1
 10
124.806549905459
 20
4.13086928071112
 30
0.0
 11
125.115908087226
 21
4.00269547844296
 31
0.0
  0
LINE
  5
   34D
  8
0
  6
CONTINUOUS
 62
     1
 10
125.11597443554
 20
4.00276714666929
 30
0.0
 11
125.244116206288
 21
3.69344101996968
 31
0.0
  0
LINE
  5
   34E
  8
0
  6
CONTINUOUS
 62
   130
 10
110.894102042905
 20
-24.3938938081292
 30
0.0
 11
110.894102042905
 21
4.13098887669668
 31
0.0
  0
LINE
  5
   34F
  8
0
  6
CONTINUOUS
 62
   130
 10
110.894097036128
 20
-24.3938961446558
 30
0.0
 11
124.894095605616
 21
-24.3939014852311
 31
0.0
  0
LINE
  5
   350
  8
0
  6
CONTINUOUS
 62
   130
 10
124.894009822608
 20
-98.5939102590087
 30
0.0
 11
124.894009822608
 21
-98.2439126312733
 31
0.0
  0
LINE
  5
   351
  8
0
  6
CONTINUOUS
 62
   130
 10
123.494004841769
 20
-24.9189253988321
 30
0.0
 11
123.494010182341
 21
-98.2439125659526
 31
0.0
  0
LINE
  5
   352
  8
0
  6
CONTINUOUS
 62
   130
 10
123.144004901873
 20
-24.9189231038683
 30
0.0
 11
123.144010242445
 21
-98.593910235226
 31
0.0
  0
LINE
  5
   353
  8
0
  6
CONTINUOUS
 62
   130
 10
123.144004660846
 20
-24.9189204573631
 30
0.0
 11
123.494004841769
 21
-24.9189204573631
 31
0.0
  0
LINE
  5
   354
  8
0
  6
CONTINUOUS
 62
   130
 10
123.144010001422
 20
-98.5939102590087
 30
0.0
 11
123.844015270472
 21
-98.5939102590087
 31
0.0
  0
LINE
  5
   355
  8
0
  6
CONTINUOUS
 62
   130
 10
123.494004841769
 20
-24.9189204573631
 30
0.0
 11
125.244009786845
 21
-24.9189204573631
 31
0.0
  0
LINE
  5
   356
  8
0
  6
CONTINUOUS
 62
   130
 10
125.244009786845
 20
-98.2439126312733
 30
0.0
 11
125.244009786845
 21
-90.1939241349687
 31
0.0
  0
LINE
  5
   357
  8
0
  6
CONTINUOUS
 62
   130
 10
125.244009786845
 20
-53.4439389049985
 30
0.0
 11
125.244009786845
 21
-24.9189257979388
 31
0.0
  0
LINE
  5
   358
  8
0
  6
CONTINUOUS
 62
   130
 10
125.856506084299
 20
-53.4439470950117
 30
0.0
 11
125.944000732439
 21
-53.531447082995
 31
0.0
  0
LINE
  5
   359
  8
0
  6
CONTINUOUS
 62
   130
 10
125.856498252171
 20
-90.1939225562707
 30
0.0
 11
125.943998240235
 21
-90.1064222362997
 31
0.0
  0
LINE
  5
   35A
  8
0
  6
CONTINUOUS
 62
   130
 10
125.944009715319
 20
-90.1064191371197
 30
0.0
 11
125.944009715319
 21
-53.5314442366334
 31
0.0
  0
LINE
  5
   35B
  8
0
  6
CONTINUOUS
 62
   130
 10
123.494009965659
 20
-98.2439126312733
 30
0.0
 11
124.894009822608
 21
-98.2439126312733
 31
0.0
  0
LINE
  5
   35C
  8
0
  6
CONTINUOUS
 62
   130
 10
111.768995141985
 20
-64.8189430832836
 30
0.0
 11
111.768995141985
 21
-60.268954229351
 31
0.0
  0
LINE
  5
   35D
  8
0
  6
CONTINUOUS
 62
   130
 10
111.768995141985
 20
-58.5189597487406
 30
0.0
 11
111.768995141985
 21
-58.1689544439278
 31
0.0
  0
LINE
  5
   35E
  8
0
  6
CONTINUOUS
 62
   130
 10
111.768995141985
 20
-95.2689132690427
 30
0.0
 11
123.144010001422
 21
-95.2689132690427
 31
0.0
  0
LINE
  5
   35F
  8
0
  6
CONTINUOUS
 62
   130
 10
124.194015234709
 20
-24.9189204573631
 30
0.0
 11
124.194015234709
 21
-24.7439258158201
 31
0.0
  0
LINE
  5
   360
  8
0
  6
CONTINUOUS
 62
   130
 10
110.543995267155
 20
-58.1689170598984
 30
0.0
 11
110.543995267155
 21
-24.7439204752445
 31
0.0
  0
LINE
  5
   361
  8
0
  6
CONTINUOUS
 62
   130
 10
110.543995267155
 20
-58.1689170598984
 30
0.0
 11
111.768995141985
 21
-58.1689170598984
 31
0.0
  0
LINE
  5
   362
  8
0
  6
CONTINUOUS
 62
   130
 10
110.543995267155
 20
-24.7439204752445
 30
0.0
 11
111.768995141985
 21
-24.7439204752445
 31
0.0
  0
LINE
  5
   363
  8
0
  6
CONTINUOUS
 62
   130
 10
111.768991177978
 20
-24.7439210391128
 30
0.0
 11
123.039004980028
 21
-24.7439263796879
 31
0.0
  0
LINE
  5
   364
  8
0
  6
CONTINUOUS
 62
   130
 10
123.039008944035
 20
-40.7564134985214
 30
0.0
 11
123.039008944035
 21
-24.7439258158201
 31
0.0
  0
LINE
  5
   365
  8
0
  6
CONTINUOUS
 62
   130
 10
123.038992922309
 20
-95.2689172712251
 30
0.0
 11
123.039008944035
 21
-44.7814170894315
 31
0.0
  0
LINE
  5
   366
  8
0
  6
CONTINUOUS
 62
   130
 10
123.03900360346
 20
-33.8439195454121
 30
0.0
 11
123.144004660846
 21
-33.8439195454121
 31
0.0
  0
LINE
  5
   367
  8
0
  6
CONTINUOUS
 62
   130
 10
123.03900360346
 20
-35.2439194023609
 30
0.0
 11
123.144004660846
 21
-35.2439194023609
 31
0.0
  0
LINE
  5
   368
  8
0
  6
CONTINUOUS
 62
   130
 10
111.768995141985
 20
-94.3939133584499
 30
0.0
 11
123.039008944035
 21
-94.3939133584499
 31
0.0
  0
LINE
  5
   369
  8
0
  6
CONTINUOUS
 62
   130
 10
121.393994158509
 20
-40.7564134985214
 30
0.0
 11
123.144010001422
 21
-40.7564134985214
 31
0.0
  0
LINE
  5
   36A
  8
0
  6
CONTINUOUS
 62
   130
 10
121.393994158509
 20
-44.7814130872494
 30
0.0
 11
121.393994158509
 21
-40.7564134985214
 31
0.0
  0
LINE
  5
   36B
  8
0
  6
CONTINUOUS
 62
   130
 10
121.393994158509
 20
-44.7814130872494
 30
0.0
 11
123.144004660846
 21
-44.7814130872494
 31
0.0
  0
LINE
  5
   36C
  8
0
  6
CONTINUOUS
 62
   130
 10
125.944009715319
 20
-90.193919461965
 30
0.0
 11
125.944009715319
 21
-90.1064194709057
 31
0.0
  0
LINE
  5
   36D
  8
0
  6
CONTINUOUS
 62
   130
 10
125.944009182375
 20
-53.531459369818
 30
0.0
 11
125.944014522951
 21
-53.4439380164562
 31
0.0
  0
LINE
  5
   36E
  8
0
  6
CONTINUOUS
 62
   130
 10
125.856504383684
 20
-90.193919461965
 30
0.0
 11
125.944009715319
 21
-90.193919461965
 31
0.0
  0
LINE
  5
   36F
  8
0
  6
CONTINUOUS
 62
   130
 10
76.7690200805664
 20
-2.86900815962872
 30
0.0
 11
77.2940200269222
 21
-2.86900815962872
 31
0.0
  0
LINE
  5
   370
  8
0
  6
CONTINUOUS
 62
   130
 10
76.7690200805664
 20
1.33099141121784
 30
0.0
 11
77.2940200269222
 21
1.33099141121784
 31
0.0
  0
LINE
  5
   371
  8
0
  6
CONTINUOUS
 62
   130
 10
78.8689948959666
 20
-64.2939020003029
 30
0.0
 11
79.8486563723637
 21
-64.5564072729721
 31
0.0
  0
LINE
  5
   372
  8
0
  6
CONTINUOUS
 62
   130
 10
78.8689879916807
 20
-64.293898408155
 30
0.0
 11
78.8690020106905
 21
-62.1939199850342
 31
0.0
  0
LINE
  5
   373
  8
0
  6
CONTINUOUS
 62
   130
 10
78.8689914365072
 20
-60.7938979731815
 30
0.0
 11
78.8690027852303
 21
-60.9689193176026
 31
0.0
  0
LINE
  5
   374
  8
0
  6
CONTINUOUS
 62
   130
 10
78.8689822051951
 20
-60.7939102758823
 30
0.0
 11
79.8486456966688
 21
-60.5314156946945
 31
0.0
  0
LINE
  5
   375
  8
0
  6
CONTINUOUS
 62
     1
 10
124.36903657913
 20
4.13099112511554
 30
0.0
 11
124.806600621334
 21
4.13099112511554
 31
0.0
  0
LINE
  5
   376
  8
0
  6
CONTINUOUS
 62
   130
 10
124.894009822608
 20
-98.2439126312733
 30
0.0
 11
125.244009786845
 21
-98.2439126312733
 31
0.0
  0
LINE
  5
   377
  8
0
  6
CONTINUOUS
 62
   130
 10
125.244009786845
 20
-53.4439389049985
 30
0.0
 11
125.856515064836
 21
-53.4439389049985
 31
0.0
  0
LINE
  5
   378
  8
0
  6
CONTINUOUS
 62
   130
 10
125.244009786845
 20
-90.193919461965
 30
0.0
 11
125.85650972426
 21
-90.193919461965
 31
0.0
  0
LINE
  5
   379
  8
0
  6
CONTINUOUS
 62
   130
 10
123.844015270472
 20
-112.593906678557
 30
0.0
 11
123.844015270472
 21
-112.418908846379
 31
0.0
  0
LINE
  5
   37A
  8
0
  6
CONTINUOUS
 62
   130
 10
125.24401512742
 20
-137.968904085755
 30
0.0
 11
125.24401512742
 21
-112.943906642794
 31
0.0
  0
LINE
  5
   37B
  8
0
  6
CONTINUOUS
 62
   130
 10
123.844015270472
 20
-137.968904085755
 30
0.0
 11
125.24401512742
 21
-137.968904085755
 31
0.0
  0
LINE
  5
   37C
  8
0
  6
CONTINUOUS
 62
   130
 10
111.944016486406
 20
-112.593906678557
 30
0.0
 11
123.844015270472
 21
-112.593906678557
 31
0.0
  0
LINE
  5
   37D
  8
0
  6
CONTINUOUS
 62
   130
 10
125.24401512742
 20
-112.418908846379
 30
0.0
 11
125.24401512742
 21
-98.7689102411273
 31
0.0
  0
LINE
  5
   37E
  8
0
  6
CONTINUOUS
 62
   130
 10
111.944016486406
 20
-137.968908836117
 30
0.0
 11
111.944016486406
 21
-112.593906678557
 31
0.0
  0
LINE
  5
   37F
  8
0
  6
CONTINUOUS
 62
   130
 10
111.944016486406
 20
-112.943906642794
 30
0.0
 11
125.24401512742
 21
-112.943906642794
 31
0.0
  0
LINE
  5
   380
  8
0
  6
CONTINUOUS
 62
   130
 10
124.894015163183
 20
-112.943906642794
 30
0.0
 11
124.894015163183
 21
-112.593906678557
 31
0.0
  0
LINE
  5
   381
  8
0
  6
CONTINUOUS
 62
   130
 10
123.144010001422
 20
-98.7689102411273
 30
0.0
 11
123.494009965659
 21
-98.7689102411273
 31
0.0
  0
LINE
  5
   382
  8
0
  6
CONTINUOUS
 62
   130
 10
123.144010001422
 20
-112.418908846379
 30
0.0
 11
123.494009965659
 21
-112.418908846379
 31
0.0
  0
LINE
  5
   383
  8
0
  6
CONTINUOUS
 62
   130
 10
123.144010001422
 20
-112.418908846379
 30
0.0
 11
123.144010001422
 21
-98.7689102411273
 31
0.0
  0
LINE
  5
   384
  8
0
  6
CONTINUOUS
 62
   130
 10
123.494009965659
 20
-112.418908846379
 30
0.0
 11
123.494009965659
 21
-98.7689102411273
 31
0.0
  0
LINE
  5
   385
  8
0
  6
CONTINUOUS
 62
   130
 10
123.844015270472
 20
-98.7689102411273
 30
0.0
 11
123.844015270472
 21
-98.5939102590087
 31
0.0
  0
LINE
  5
   386
  8
0
  6
CONTINUOUS
 62
   130
 10
112.119016468525
 20
-137.968908836117
 30
0.0
 11
112.119016468525
 21
-112.943906642794
 31
0.0
  0
LINE
  5
   387
  8
0
  6
CONTINUOUS
 62
   130
 10
76.7690200805664
 20
-145.01879108725
 30
0.0
 11
76.7690200805664
 21
10.3394902651998
 31
0.0
  0
LINE
  5
   388
  8
0
  6
CONTINUOUS
 62
   130
 10
75.7190201878548
 20
-145.01879108725
 30
0.0
 11
75.7190201878548
 21
10.5456102862922
 31
0.0
  0
LINE
  5
   389
  8
0
  6
CONTINUOUS
 62
   130
 10
123.844015270472
 20
-112.593906678557
 30
0.0
 11
124.894015163183
 21
-112.593906678557
 31
0.0
  0
LINE
  5
   38A
  8
0
  6
CONTINUOUS
 62
   130
 10
123.844015270472
 20
-98.5939102590087
 30
0.0
 11
124.894009822608
 21
-98.5939102590087
 31
0.0
  0
LINE
  5
   38B
  8
0
  6
CONTINUOUS
 62
   130
 10
123.494009965659
 20
-98.7689102411273
 30
0.0
 11
125.24401512742
 21
-98.7689102411273
 31
0.0
  0
LINE
  5
   38C
  8
0
  6
CONTINUOUS
 62
   130
 10
123.494009965659
 20
-112.418908846379
 30
0.0
 11
125.24401512742
 21
-112.418908846379
 31
0.0
  0
LINE
  5
   38D
  8
0
  6
CONTINUOUS
 62
   130
 10
77.6440196573735
 20
-59.9406685381907
 30
0.0
 11
80.175210487192
 21
-60.6188993949999
 31
0.0
  0
LINE
  5
   38E
  8
0
  6
CONTINUOUS
 62
   130
 10
77.6440196573735
 20
-65.1471284429951
 30
0.0
 11
80.1752010504546
 21
-64.4688996461763
 31
0.0
  0
LINE
  5
   38F
  8
0
  6
CONTINUOUS
 62
   130
 10
76.7690200805664
 20
-137.968922877626
 30
0.0
 11
123.844015270472
 21
-137.968904085755
 31
0.0
  0
LINE
  5
   390
  8
0
  6
CONTINUOUS
 62
   130
 10
77.294019460847
 20
4.13107522545928
 30
0.0
 11
110.544058787987
 21
4.13098977627189
 31
0.0
  0
LINE
  5
   391
  8
0
  6
CONTINUOUS
 62
     1
 10
74.1472005480545
 20
10.8541660295431
 30
0.0
 11
78.2116235035935
 21
10.0563002858042
 31
0.0
  0
LINE
  5
   392
  8
0
  6
CONTINUOUS
 62
     1
 10
74.7669230824269
 20
-145.01879108725
 30
0.0
 11
77.8269251430726
 21
-145.01879108725
 31
0.0
  0
LINE
  5
   393
  8
0
  6
DASHDOT
 62
     2
 10
64.7903319640489
 20
-71.8187595989982
 30
0.0
 11
170.408532343014
 21
-71.8190526186349
 31
0.0
  0
LINE
  5
   394
  8
0
  6
CONTINUOUS
 62
     7
 10
123.038825157627
 20
-33.6710594822815
 30
0.0
 11
123.143825046762
 21
-33.6710594822815
 31
0.0
  0
LINE
  5
   395
  8
0
  6
CONTINUOUS
 62
     7
 10
125.506324682995
 20
-47.6710575112257
 30
0.0
 11
125.568196513345
 21
-47.6966869337876
 31
0.0
  0
LINE
  5
   396
  8
0
  6
CONTINUOUS
 62
     7
 10
125.568197004098
 20
-47.6966891984363
 30
0.0
 11
125.593825165267
 21
-47.7585597656365
 31
0.0
  0
LINE
  5
   397
  8
0
  6
CONTINUOUS
 62
     7
 10
125.568196290797
 20
-84.3954271658972
 30
0.0
 11
125.593824410062
 21
-84.3335552636247
 31
0.0
  0
POINT
  5
   398
  8
0
  6
CONTINUOUS
 62
     7
 10
125.944009715319
 20
-90.193919461965
 30
0.0
  0
INSERT
  5
   399
  8
255
  6
CONTINUOUS
 62
     7
  2
MOTORE
 10
125.944009715319
 20
-90.193919461965
 30
0.0
 41
0.349999964237213
 42
0.349999964237213
 43
0.349999964237213
  0
POINT
  5
   39A
  8
0
  6
CONTINUOUS
 62
     7
 10
75.7190201878548
 20
-71.8187899187749
 30
0.0
  0
LINE
  5
   39B
  8
0
  6
CONTINUOUS
 62
   130
 10
77.2940257570948
 20
6.58107497511168
 30
0.0
 11
118.244100792557
 21
6.58096973762305
 31
0.0
  0
LINE
  5
   39C
  8
0
  6
CONTINUOUS
 62
   130
 10
118.244100792557
 20
4.13099112511554
 30
0.0
 11
118.244100792557
 21
6.58096973762871
 31
0.0
  0
LINE
  5
   39D
  8
0
  6
CONTINUOUS
 62
   130
 10
118.244015842676
 20
-140.41890607088
 30
0.0
 11
118.244015842676
 21
-137.968904085755
 31
0.0
  0
LINE
  5
   39E
  8
0
  6
CONTINUOUS
 62
   130
 10
76.769021058582
 20
-140.418922627286
 30
0.0
 11
118.244015842676
 21
-140.41890607088
 31
0.0
  0
LINE
  5
   39F
  8
0
  6
CONTINUOUS
 62
     7
 10
158.49400638938
 20
8.5935651034128
 30
0.0
 11
158.49400638938
 21
18.2668381169583
 31
0.0
  0
LINE
  5
   3A0
  8
0
  6
CONTINUOUS
 62
     7
 10
157.794006460906
 20
2.29356574714296
 30
0.0
 11
157.794006460906
 21
4.21856943631956
 31
0.0
  0
LINE
  5
   3A1
  8
0
  6
CONTINUOUS
 62
     7
 10
157.794006460906
 20
6.31856922178589
 30
0.0
 11
157.794006460906
 21
18.3418381092948
 31
0.0
  0
LINE
  5
   3A2
  8
0
  6
CONTINUOUS
 62
     7
 10
154.934463662875
 20
18.6482176947981
 30
0.0
 11
160.75912582744
 21
18.0241467485947
 31
0.0
  0
LINE
  5
   3A3
  8
0
  6
CONTINUOUS
 62
     7
 10
158.49400638938
 20
-123.6403393196
 30
0.0
 11
158.49400638938
 21
-109.70641913712
 31
0.0
  0
LINE
  5
   3A4
  8
0
  6
CONTINUOUS
 62
     7
 10
157.794006460906
 20
-123.842034214245
 30
0.0
 11
157.794006460906
 21
-107.431417761333
 31
0.0
  0
LINE
  5
   3A5
  8
0
  6
CONTINUOUS
 62
     7
 10
155.246499135976
 20
-124.576061748547
 30
0.0
 11
161.383196773643
 21
-122.807860734304
 31
0.0
  0
LINE
  5
   3A6
  8
0
  6
CONTINUOUS
 62
     1
 10
156.219001281692
 20
4.42065292634022
 30
0.0
 11
156.219006622268
 21
6.1164993094152
 31
0.0
  0
LINE
  5
   3A7
  8
0
  6
CONTINUOUS
 62
     1
 10
156.219001281692
 20
-107.229340331272
 30
0.0
 11
156.219006622268
 21
-105.53348727005
 31
0.0
  0
LINE
  5
   3A8
  8
0
  6
CONTINUOUS
 62
     1
 10
158.493990367653
 20
-109.70641913712
 30
0.0
 11
159.718995583059
 21
-109.70641913712
 31
0.0
  0
LINE
  5
   3A9
  8
0
  6
CONTINUOUS
 62
     1
 10
158.49400638938
 20
8.5935651034128
 30
0.0
 11
159.71900626421
 21
8.5935651034128
 31
0.0
  0
LINE
  5
   3AA
  8
0
  6
CONTINUOUS
 62
     1
 10
158.493990367653
 20
-109.70641913712
 30
0.0
 11
158.493990367653
 21
-105.33141991789
 31
0.0
  0
LINE
  5
   3AB
  8
0
  6
CONTINUOUS
 62
     1
 10
158.49400638938
 20
-103.406420782213
 30
0.0
 11
158.49400638938
 21
8.5935651034128
 31
0.0
  0
LINE
  5
   3AC
  8
0
  6
CONTINUOUS
 62
     1
 10
158.493995708229
 20
-105.331420585512
 30
0.0
 11
158.493995708229
 21
-103.406420782208
 31
0.0
  0
LINE
  5
   3AD
  8
0
  6
CONTINUOUS
 62
     1
 10
159.718995583059
 20
-102.706419518589
 30
0.0
 11
159.718995583059
 21
1.59356848895723
 31
0.0
  0
LINE
  5
   3AE
  8
0
  6
CONTINUOUS
 62
     1
 10
159.71900626421
 20
1.59356581866854
 30
0.0
 11
159.71900626421
 21
8.5935651034128
 31
0.0
  0
LINE
  5
   3AF
  8
0
  6
CONTINUOUS
 62
     1
 10
159.718995583164
 20
-109.706419123423
 30
0.0
 11
159.719006264315
 21
-102.706419838679
 31
0.0
  0
LINE
  5
   3B0
  8
0
  6
CONTINUOUS
 62
     1
 10
157.794006460906
 20
2.29356574714296
 30
0.0
 11
158.49400638938
 21
2.29356574714296
 31
0.0
  0
LINE
  5
   3B1
  8
0
  6
CONTINUOUS
 62
     1
 10
157.793990439259
 20
-103.406420114631
 30
0.0
 11
158.493995708309
 21
-103.406420782203
 31
0.0
  0
LINE
  5
   3B2
  8
0
  6
CONTINUOUS
 62
     1
 10
157.793988754775
 20
-103.406420114635
 30
0.0
 11
157.793988754775
 21
2.29356908500299
 31
0.0
  0
LINE
  5
   3B3
  8
0
  6
CONTINUOUS
 62
     1
 10
156.569006586745
 20
-105.331414577329
 30
0.0
 11
158.493990367653
 21
-105.33141991789
 31
0.0
  0
LINE
  5
   3B4
  8
0
  6
CONTINUOUS
 62
     1
 10
156.219002378283
 20
-105.533488602752
 30
0.0
 11
156.569002354046
 21
-105.33141591882
 31
0.0
  0
LINE
  5
   3B5
  8
0
  6
CONTINUOUS
 62
     1
 10
156.218999136437
 20
-107.2293399222
 30
0.0
 11
156.568999112199
 21
-107.431413951655
 31
0.0
  0
LINE
  5
   3B6
  8
0
  6
CONTINUOUS
 62
     1
 10
156.569001246169
 20
-107.431414362761
 30
0.0
 11
158.493990367653
 21
-107.431419703321
 31
0.0
  0
LINE
  5
   3B7
  8
0
  6
CONTINUOUS
 62
     1
 10
156.569006588753
 20
6.31857601888237
 30
0.0
 11
158.494006392058
 21
6.3185653377308
 31
0.0
  0
LINE
  5
   3B8
  8
0
  6
CONTINUOUS
 62
     1
 10
156.219002842598
 20
6.1164958250891
 30
0.0
 11
156.569002818351
 21
6.31857252151079
 31
0.0
  0
LINE
  5
   3B9
  8
0
  6
CONTINUOUS
 62
     1
 10
156.218999425479
 20
4.42065087101469
 30
0.0
 11
156.568999401232
 21
4.218574174593
 31
0.0
  0
LINE
  5
   3BA
  8
0
  6
CONTINUOUS
 62
     1
 10
156.569001248177
 20
4.21857623342666
 30
0.0
 11
158.494006392058
 21
4.21856555227522
 31
0.0
  0
LINE
  5
   3BB
  8
0
  6
DASHDOT
 62
     7
 10
155.30586052773
 20
-50.556417965516
 30
0.0
 11
160.635040616596
 21
-50.5564347481674
 31
0.0
  0
LINE
  5
   3BC
  8
0
  6
DASHDOT
 62
     7
 10
154.605586794148
 20
5.26858120647886
 30
0.0
 11
160.739447198759
 21
5.26856188966715
 31
0.0
  0
LINE
  5
   3BD
  8
0
  6
DASHDOT
 62
     7
 10
154.298894127379
 20
-106.381407755627
 30
0.0
 11
162.141472538711
 21
-106.381432453454
 31
0.0
  0
LINE
  5
   3BE
  8
0
  6
DASHDOT
 62
     7
 10
156.080809537075
 20
-101.831425138239
 30
0.0
 11
161.061696723785
 21
-101.831425138239
 31
0.0
  0
LINE
  5
   3BF
  8
0
  6
DASHDOT
 62
     7
 10
156.970253677559
 20
0.718568045725405
 30
0.0
 11
161.120992999817
 21
0.718568045725405
 31
0.0
  0
LINE
  5
   3C0
  8
0
  6
CONTINUOUS
 62
     1
 10
156.569001246169
 20
-107.431414365855
 30
0.0
 11
156.569006586745
 21
-105.331414580424
 31
0.0
  0
LINE
  5
   3C1
  8
0
  6
CONTINUOUS
 62
     7
 10
157.794006460906
 20
6.66856918602852
 30
0.0
 11
158.49400638938
 21
6.6685653019734
 31
0.0
  0
LINE
  5
   3C2
  8
0
  6
CONTINUOUS
 62
     7
 10
157.794006460906
 20
3.86856947207697
 30
0.0
 11
158.49400638938
 21
3.86856558803267
 31
0.0
  0
LINE
  5
   3C3
  8
0
  6
CONTINUOUS
 62
     1
 10
156.569001248177
 20
4.21857623405795
 30
0.0
 11
156.569006588753
 21
6.31857601951363
 31
0.0
  0
LINE
  5
   3C4
  8
0
  6
CONTINUOUS
 62
     7
 10
157.794006460906
 20
-107.781417725571
 30
0.0
 11
158.493990367653
 21
-107.78141966756
 31
0.0
  0
LINE
  5
   3C5
  8
0
  6
CONTINUOUS
 62
     7
 10
157.793988754775
 20
-104.981418011609
 30
0.0
 11
158.493990367653
 21
-104.981419953651
 31
0.0
  0
LINE
  5
   3C6
  8
0
  6
CONTINUOUS
 62
     7
 10
157.793990272367
 20
-103.581420096749
 30
0.0
 11
158.493995708229
 21
-103.581420764321
 31
0.0
  0
LINE
  5
   3C7
  8
0
  6
CONTINUOUS
 62
     7
 10
157.794006460906
 20
2.46856572926157
 30
0.0
 11
158.49400638938
 21
2.46856572926157
 31
0.0
  0
LINE
  5
   3C8
  8
0
  6
CONTINUOUS
 62
     7
 10
157.793988754775
 20
-105.33141991789
 30
0.0
 11
157.793988754775
 21
-103.406420114635
 31
0.0
  0
INSERT
  5
   3C9
  8
0
  6
CONTINUOUS
 62
     7
  2
*HATCH43
 10
76.7690200805664
 20
-95.268913269043
 30
0.0
 41
0.349999964237213
 42
0.349999964237213
 43
0.349999964237213
  0
INSERT
  5
   3CA
  8
0
  6
CONTINUOUS
 62
     7
  2
*HATCH44
 10
76.7690200805664
 20
-95.268913269043
 30
0.0
 41
0.349999964237213
 42
0.349999964237213
 43
0.349999964237213
  0
INSERT
  5
   3CB
  8
0
  6
CONTINUOUS
 62
     7
  2
*HATCH45
 10
76.7690200805664
 20
-95.268913269043
 30
0.0
 41
0.349999964237213
 42
0.349999964237213
 43
0.349999964237213
  0
INSERT
  5
   3CC
  8
0
  6
CONTINUOUS
 62
     7
  2
*HATCH46
 10
76.7690200805664
 20
-95.268913269043
 30
0.0
 41
0.349999964237213
 42
0.349999964237213
 43
0.349999964237213
  0
INSERT
  5
   3CD
  8
0
  6
CONTINUOUS
 62
     7
  2
*UDIM424
 10
0.0
 20
0.0
 30
0.0
  0
INSERT
  5
   3CE
  8
0
  6
CONTINUOUS
 62
     7
  2
*UDIM425
 10
0.0
 20
0.0
 30
0.0
  0
INSERT
  5
   3CF
  8
0
  6
CONTINUOUS
 62
     7
  2
*UDIM426
 10
0.0
 20
0.0
 30
0.0
  0
INSERT
  5
   3D0
  8
0
  6
CONTINUOUS
 62
     7
  2
*UDIM427
 10
0.0
 20
0.0
 30
0.0
  0
INSERT
  5
   3D1
  8
0
  6
CONTINUOUS
 62
     7
  2
*UDIM428
 10
0.0
 20
0.0
 30
0.0
  0
INSERT
  5
   3D2
  8
0
  6
CONTINUOUS
 62
     7
  2
*UDIM429
 10
0.0
 20
0.0
 30
0.0
  0
LINE
  5
   3D3
  8
0
  6
CONTINUOUS
 62
     2
 10
198.89655841739
 20
24.3076241883052
 30
0.0
 11
198.896580385201
 21
-64.2328493445696
 31
0.0
  0
LINE
  5
   3D4
  8
0
  6
CONTINUOUS
 62
     2
 10
198.89655841739
 20
24.3076241883051
 30
0.0
 11
259.443342426248
 21
24.3076241883051
 31
0.0
  0
LINE
  5
   3D5
  8
0
  6
CONTINUOUS
 62
     2
 10
198.896580385201
 20
-64.2328493445696
 30
0.0
 11
259.443340189459
 21
-64.2328493445696
 31
0.0
  0
LINE
  5
   3D6
  8
0
  6
CONTINUOUS
 62
     2
 10
203.44332312906
 20
18.1580123901367
 30
0.0
 11
246.943342270891
 21
18.1580123901367
 31
0.0
  0
LINE
  5
   3D7
  8
0
  6
CONTINUOUS
 62
     2
 10
203.44332312906
 20
18.1580123901367
 30
0.0
 11
203.443341985449
 21
-57.8419852256775
 31
0.0
  0
LINE
  5
   3D8
  8
0
  6
CONTINUOUS
 62
     2
 10
203.443341985449
 20
-57.8419852256775
 30
0.0
 11
246.943340350911
 21
-57.8419852256775
 31
0.0
  0
LINE
  5
   3D9
  8
0
  6
CONTINUOUS
 62
     2
 10
246.943342270891
 20
18.1580123901367
 30
0.0
 11
246.943340350911
 21
-57.8419852256775
 31
0.0
  0
CIRCLE
  5
   3DA
  8
0
  6
CONTINUOUS
 62
     2
 10
250.443343030407
 20
20.0330202772058
 30
0.0
 40
1.0
  0
CIRCLE
  5
   3DB
  8
0
  6
CONTINUOUS
 62
     2
 10
230.130846861864
 20
20.0330170234162
 30
0.0
 40
1.0
  0
CIRCLE
  5
   3DC
  8
0
  6
CONTINUOUS
 62
     2
 10
209.818347159629
 20
20.0330297504457
 30
0.0
 40
1.0
  0
CIRCLE
  5
   3DD
  8
0
  6
CONTINUOUS
 62
     2
 10
250.443341804826
 20
-19.8419815009289
 30
0.0
 40
1.0
  0
CIRCLE
  5
   3DE
  8
0
  6
CONTINUOUS
 62
     2
 10
250.443341622168
 20
-59.716982313648
 30
0.0
 40
1.0
  0
CIRCLE
  5
   3DF
  8
0
  6
CONTINUOUS
 62
     2
 10
230.130843860758
 20
-59.7169819496217
 30
0.0
 40
1.0
  0
CIRCLE
  5
   3E0
  8
0
  6
CONTINUOUS
 62
     2
 10
209.818347274036
 20
-59.7169818066094
 30
0.0
 40
1.0
  0
ARC
  5
   3E1
  8
0
  6
CONTINUOUS
 62
     2
 10
255.693341610137
 20
-37.9044858882129
 30
0.0
 40
2.0
 50
359.999985245866
 51
539.999985245866
  0
LINE
  5
   3E2
  8
0
  6
CONTINUOUS
 62
     2
 10
253.693341610137
 20
-37.9044853786383
 30
0.0
 11
253.693340161035
 21
-43.5919817698319
 31
0.0
  0
LINE
  5
   3E3
  8
0
  6
CONTINUOUS
 62
     2
 10
257.693341610137
 20
-37.9044863977875
 30
0.0
 11
257.693340161035
 21
-43.5919827889812
 31
0.0
  0
ARC
  5
   3E4
  8
0
  6
CONTINUOUS
 62
     2
 10
255.693340161035
 20
-43.5919822794066
 30
0.0
 40
2.0
 50
539.999985245866
 51
719.999985245866
  0
LINE
  5
   3E5
  8
0
  6
CONTINUOUS
 62
     2
 10
259.443342426248
 20
24.3076241883051
 30
0.0
 11
259.443340189459
 21
-64.2328493445696
 31
0.0
  0
LINE
  5
   3E6
  8
0
  6
DASHDOT
 62
     2
 10
250.443341804826
 20
-18.4669815009289
 30
0.0
 11
250.443341804826
 21
-21.2169815009289
 31
0.0
  0
LINE
  5
   3E7
  8
0
  6
DASHDOT
 62
     2
 10
194.312727029538
 20
-19.8419815009289
 30
0.0
 11
262.733763197693
 21
-19.8419815009289
 31
0.0
  0
LINE
  5
   3E8
  8
0
  6
DASHDOT
 62
     2
 10
250.443343030407
 20
21.4080202772058
 30
0.0
 11
250.443343030407
 21
18.6580202772058
 31
0.0
  0
LINE
  5
   3E9
  8
0
  6
DASHDOT
 62
     2
 10
249.068343030407
 20
20.0330202772058
 30
0.0
 11
251.818343030407
 21
20.0330202772058
 31
0.0
  0
LINE
  5
   3EA
  8
0
  6
DASHDOT
 62
     2
 10
230.130846861864
 20
21.4080170234162
 30
0.0
 11
230.130846861864
 21
18.6580170234162
 31
0.0
  0
LINE
  5
   3EB
  8
0
  6
DASHDOT
 62
     2
 10
228.755846861864
 20
20.0330170234162
 30
0.0
 11
231.505846861864
 21
20.0330170234162
 31
0.0
  0
LINE
  5
   3EC
  8
0
  6
DASHDOT
 62
     2
 10
209.818347159629
 20
21.4080297504457
 30
0.0
 11
209.818347159629
 21
18.6580297504457
 31
0.0
  0
LINE
  5
   3ED
  8
0
  6
DASHDOT
 62
     2
 10
208.443347159629
 20
20.0330297504457
 30
0.0
 11
211.193347159629
 21
20.0330297504457
 31
0.0
  0
LINE
  5
   3EE
  8
0
  6
DASHDOT
 62
     2
 10
209.818347274036
 20
-58.3419818066094
 30
0.0
 11
209.818347274036
 21
-61.0919818066094
 31
0.0
  0
LINE
  5
   3EF
  8
0
  6
DASHDOT
 62
     2
 10
208.443347274036
 20
-59.7169818066094
 30
0.0
 11
211.193347274036
 21
-59.7169818066094
 31
0.0
  0
LINE
  5
   3F0
  8
0
  6
DASHDOT
 62
     2
 10
230.130843860758
 20
-58.3419819496217
 30
0.0
 11
230.130843860758
 21
-61.0919819496217
 31
0.0
  0
LINE
  5
   3F1
  8
0
  6
DASHDOT
 62
     2
 10
228.755843860758
 20
-59.7169819496217
 30
0.0
 11
231.505843860758
 21
-59.7169819496217
 31
0.0
  0
LINE
  5
   3F2
  8
0
  6
DASHDOT
 62
     2
 10
250.443341622168
 20
-58.341982313648
 30
0.0
 11
250.443341622168
 21
-61.091982313648
 31
0.0
  0
LINE
  5
   3F3
  8
0
  6
DASHDOT
 62
     2
 10
249.068341622168
 20
-59.716982313648
 30
0.0
 11
251.818341622168
 21
-59.716982313648
 31
0.0
  0
LINE
  5
   3F4
  8
0
  6
DASHDOT
 62
     2
 10
225.193332699975
 20
46.3308637676808
 30
0.0
 11
225.193332699975
 21
-78.792300958819
 31
0.0
  0
LINE
  5
   3F5
  8
0
  6
DASHDOT
 62
     2
 10
255.693341610137
 20
-35.5294858882129
 30
0.0
 11
255.693341610137
 21
-40.2794858882129
 31
0.0
  0
LINE
  5
   3F6
  8
0
  6
DASHDOT
 62
     2
 10
253.318341610137
 20
-37.9044858882129
 30
0.0
 11
258.068341610137
 21
-37.9044858882129
 31
0.0
  0
LINE
  5
   3F7
  8
0
  6
DASHDOT
 62
     2
 10
255.693340161035
 20
-41.2169822794066
 30
0.0
 11
255.693340161035
 21
-45.9669822794066
 31
0.0
  0
LINE
  5
   3F8
  8
0
  6
DASHDOT
 62
     2
 10
253.318340161035
 20
-43.5919822794066
 30
0.0
 11
258.068340161035
 21
-43.5919822794066
 31
0.0
  0
POINT
  5
   3F9
  8
0
  6
CONTINUOUS
 62
     2
 10
209.818347159629
 20
20.0330297504457
 30
0.0
  0
LINE
  5
   3FA
  8
0
  6
DASHDOT
 62
     2
 10
182.193669308802
 20
-35.0294815009289
 30
0.0
 11
289.296953910362
 21
-35.0294815009289
 31
0.0
  0
LINE
  5
   3FB
  8
0
  6
CONTINUOUS
 62
     7
 10
260.693341982888
 20
6.75780960763974
 30
0.0
 11
260.693341824995
 21
0.507809607639743
 31
0.0
  0
LINE
  5
   3FC
  8
0
  6
CONTINUOUS
 62
     7
 10
262.193341982888
 20
6.75780960763973
 30
0.0
 11
262.193341824995
 21
0.507809607639729
 31
0.0
  0
LINE
  5
   3FD
  8
0
  6
CONTINUOUS
 62
     7
 10
260.693341824995
 20
0.507809607639743
 30
0.0
 11
262.193341824995
 21
0.507809607639743
 31
0.0
  0
LINE
  5
   3FE
  8
0
  6
CONTINUOUS
 62
     7
 10
260.693341982888
 20
6.75780960763974
 30
0.0
 11
262.193341982888
 21
6.75780960763974
 31
0.0
  0
LINE
  5
   3FF
  8
0
  6
CONTINUOUS
 62
     7
 10
260.693340481079
 20
-52.6894314712622
 30
0.0
 11
262.193340481079
 21
-52.6894314712622
 31
0.0
  0
LINE
  5
   400
  8
0
  6
CONTINUOUS
 62
     7
 10
262.193340481079
 20
-52.6894314712622
 30
0.0
 11
262.193340323186
 21
-58.9394314712622
 31
0.0
  0
LINE
  5
   401
  8
0
  6
CONTINUOUS
 62
     7
 10
260.693340481079
 20
-52.6894314712622
 30
0.0
 11
260.693340323186
 21
-58.9394314712622
 31
0.0
  0
LINE
  5
   402
  8
0
  6
CONTINUOUS
 62
     7
 10
260.693340323186
 20
-58.9394314712622
 30
0.0
 11
262.193340323186
 21
-58.9394314712622
 31
0.0
  0
LINE
  5
   403
  8
0
  6
DASHDOT
 62
     2
 10
261.443341982888
 20
9.43048910919654
 30
0.0
 11
261.443341982888
 21
-60.426185216283
 31
0.0
  0
LINE
  5
   404
  8
0
  6
DASHDOT
 62
     2
 10
225.193332699975
 20
46.3308637676808
 30
0.0
 11
225.193332699975
 21
-78.792300958819
 31
0.0
  0
TEXT
  5
   405
  8
0
  6
CONTINUOUS
 62
     1
 10
186.560806283623
 20
-207.076599047988
 30
0.0
 40
2.00000008940697
  1
M 3167 95-08-25
 50
359.999999844103
 41
0.749999861419206
 72
     2
 11
208.7608031663
 21
-207.076599108281
 31
0.0
  0
TEXT
  5
   406
  8
0
  6
CONTINUOUS
 62
     1
 10
161.720809945732
 20
-207.076599047988
 30
0.0
 40
2.00000008940697
  1
M 3142 95-06-12
 50
359.999999844103
 41
0.749999861419206
 72
     2
 11
183.92080682841
 21
-207.076599108281
 31
0.0
  0
TEXT
  5
   407
  8
0
  6
CONTINUOUS
 62
     1
 10
136.880798349053
 20
-207.076599047988
 30
0.0
 40
2.00000008940697
  1
M 3076 95-01-16
 50
359.999999844103
 41
0.749999861419206
 72
     2
 11
159.08079523173
 21
-207.076599108281
 31
0.0
  0
INSERT
  5
   408
  8
0
  6
CONTINUOUS
 62
     2
  2
*UDIM430
 10
0.0
 20
0.0
 30
0.0
  0
INSERT
  5
   409
  8
0
  6
CONTINUOUS
 62
     2
  2
*UDIM431
 10
0.0
 20
0.0
 30
0.0
  0
INSERT
  5
   40A
  8
0
  6
CONTINUOUS
 62
     2
  2
*UDIM432
 10
0.0
 20
0.0
 30
0.0
  0
TEXT
  5
   40B
  8
0
  6
CONTINUOUS
 62
     2
 10
171.303996080689
 20
-36.1217328132295
 30
0.0
 40
4.00000017881393
  1
X
 50
359.999999844103
 41
0.915625062622128
 72
     1
 11
172.768996238709
 21
-34.1217327278013
 31
0.0
 73
     2
  0
TEXT
  5
   40C
  8
0
  6
CONTINUOUS
 62
     2
 10
288.276667589478
 20
-35.8278409064912
 30
0.0
 40
4.00000017881393
  1
X
 50
359.999999844103
 41
0.915625062622128
 72
     1
 11
289.741667747498
 21
-33.827840821063
 31
0.0
 73
     2
  0
INSERT
  5
   40D
  8
0
  6
CONTINUOUS
 62
     2
  2
*UDIM433
 10
0.0
 20
0.0
 30
0.0
  0
INSERT
  5
   40E
  8
0
  6
CONTINUOUS
 62
     2
  2
*UDIM434
 10
0.0
 20
0.0
 30
0.0
  0
INSERT
  5
   40F
  8
0
  6
CONTINUOUS
 62
     2
  2
*UDIM435
 10
0.0
 20
0.0
 30
0.0
  0
INSERT
  5
   410
  8
0
  6
CONTINUOUS
 62
     7
  2
*UDIM436
 10
0.0
 20
0.0
 30
0.0
  0
INSERT
  5
   411
  8
0
  6
CONTINUOUS
 62
     7
  2
*UDIM437
 10
0.0
 20
0.0
 30
0.0
  0
INSERT
  5
   412
  8
0
  6
CONTINUOUS
 62
     2
  2
*UDIM438
 10
0.0
 20
0.0
 30
0.0
  0
INSERT
  5
   413
  8
0
  6
CONTINUOUS
 62
     2
  2
*UDIM439
 10
0.0
 20
0.0
 30
0.0
  0
INSERT
  5
   414
  8
0
  6
CONTINUOUS
 62
     7
  2
*UDIM440
 10
0.0
 20
0.0
 30
0.0
  0
INSERT
  5
   415
  8
0
  6
CONTINUOUS
 62
     7
  2
*UDIM441
 10
0.0
 20
0.0
 30
0.0
  0
INSERT
  5
   416
  8
0
  6
CONTINUOUS
 62
     2
  2
*UDIM442
 10
0.0
 20
0.0
 30
0.0
  0
INSERT
  5
   417
  8
0
  6
CONTINUOUS
 62
     2
  2
*UDIM443
 10
0.0
 20
0.0
 30
0.0
  0
TEXT
  5
   418
  8
0
  6
CONTINUOUS
 62
     7
 10
223.964688112236
 20
-98.5588720953414
 30
0.0
 40
3.00000002980232
  1
Y
 50
359.999999844103
 41
0.916666604744064
 72
     2
 11
226.164687981106
 21
-98.5588721013163
 31
0.0
  0
TEXT
  5
   419
  8
0
  6
CONTINUOUS
 62
     7
 10
221.453820814587
 20
47.9158402764848
 30
0.0
 40
3.00000002980232
  1
Y
 50
359.999999844103
 41
0.916666604744064
 72
     2
 11
223.653820683457
 21
47.9158402705098
 31
0.0
  0
INSERT
  5
   41A
  8
0
  6
CONTINUOUS
 62
     2
  2
*UDIM444
 10
0.0
 20
0.0
 30
0.0
  0
TEXT
  5
   41B
  8
0
  6
CONTINUOUS
 62
     1
 10
130.243331918389
 20
-191.841888310707
 30
0.0
 40
2.00000008940697
  1
94-02-24 FERRARI M.
 50
359.999999844103
 41
0.749999861419206
 72
     2
 11
158.44332796064
 21
-191.841888387295
 31
0.0
  0
TEXT
  5
   41C
  8
0
  6
CONTINUOUS
 62
     1
 10
231.973709124863
 20
-218.083679109009
 30
0.0
 40
4.00000017881393
  1
601840/361
 50
359.999999844103
 41
0.937499973922969
 72
     2
 11
268.723709724635
 21
-218.083679208817
 31
0.0
  0
TEXT
  5
   41D
  8
0
  6
CONTINUOUS
 62
     1
 10
249.059402479634
 20
-209.102096551184
 30
0.0
 40
3.00000002980232
  1
S7
 50
359.999999844103
 41
0.916666604744064
 72
     2
 11
254.009402190055
 21
-209.102096564627
 31
0.0
  0
TEXT
  5
   41E
  8
0
  6
CONTINUOUS
 62
     1
 10
225.149977477153
 20
-190.791824317759
 30
0.0
 40
2.00000008940697
  1
3-4POLE LOW VOLTAGE M.C.C.B SERIES ISOMAX
 50
359.999999844103
 41
0.625
 72
     1
 11
250.649978619808
 21
-189.791824342311
 31
0.0
 73
     2
  0
TEXT
  5
   41F
  8
0
  6
CONTINUOUS
 62
     1
 10
218.274977205592
 20
-193.791824299088
 30
0.0
 40
2.00000008940697
  1
FIXED VERSION WITH STORED ENERGY OPERATING MECHANISM
 50
359.999999844103
 41
0.625
 72
     1
 11
250.649978655583
 21
-192.791824342311
 31
0.0
 73
     2
  0
TEXT
  5
   420
  8
0
  6
CONTINUOUS
 62
     1
 10
212.164869747942
 20
-198.862091015944
 30
0.0
 40
2.00000008940697
  1
INTERR.AUTOMATICO SERIE ISOMAX TRIP. TETRAP.ESECUZ.
 50
359.999999844103
 41
0.687499997764826
 72
     1
 11
247.089871194953
 21
-197.862091066093
 31
0.0
 73
     2
  0
TEXT
  5
   421
  8
0
  6
CONTINUOUS
 62
     1
 10
219.7273700972
 20
-201.862091036483
 30
0.0
 40
2.00000008940697
  1
FISSA CON COM.MOT.AD ACCUMULO DI ENERGIA
 50
359.999999844103
 41
0.687499997764826
 72
     1
 11
247.089871230727
 21
-200.862091066093
 31
0.0
 73
     2
  0
ENDSEC
  0
EOF
