  0
SECTION
  2
HEADER
  9
$ACADVER
  1
AC1009
  9
$DWGCODEPAGE
  3
iso8859-1
  9
$INSBASE
 10
0.0
 20
0.0
 30
0.0
  9
$EXTMIN
 10
1.0E20
 20
1.0E20
  9
$EXTMAX
 10
-1.0E20
 20
-1.0E20
  9
$LIMMIN
 10
0.0
 20
0.0
  9
$LIMMAX
 10
12.0
 20
9.0
  9
$ORTHOMODE
 70
     0
  9
$REGENMODE
 70
     1
  9
$FILLMODE
 70
     1
  9
$QTEXTMODE
 70
     0
  9
$MIRRTEXT
 70
     1
  9
$DRAGMODE
 70
     2
  9
$LTSCALE
 40
15.0
  9
$OSMODE
 70
     0
  9
$ATTMODE
 70
     1
  9
$TEXTSIZE
 40
0.2
  9
$TRACEWID
 40
0.05
  9
$TEXTSTYLE
  7
STANDARD
  9
$CLAYER
  8
0
  9
$CELTYPE
  6
DASHED
  9
$CECOLOR
 62
   256
  9
$DIMSCALE
 40
1.0
  9
$DIMASZ
 40
0.18
  9
$DIMEXO
 40
0.0625
  9
$DIMDLI
 40
0.38
  9
$DIMRND
 40
0.0
  9
$DIMDLE
 40
0.0
  9
$DIMEXE
 40
0.18
  9
$DIMTP
 40
0.0
  9
$DIMTM
 40
0.0
  9
$DIMTXT
 40
0.18
  9
$DIMCEN
 40
0.09
  9
$DIMTSZ
 40
0.0
  9
$DIMTOL
 70
     0
  9
$DIMLIM
 70
     0
  9
$DIMTIH
 70
     1
  9
$DIMTOH
 70
     1
  9
$DIMSE1
 70
     0
  9
$DIMSE2
 70
     0
  9
$DIMTAD
 70
     0
  9
$DIMZIN
 70
     0
  9
$DIMBLK
  1

  9
$DIMASO
 70
     1
  9
$DIMSHO
 70
     1
  9
$DIMPOST
  1

  9
$DIMAPOST
  1

  9
$DIMALT
 70
     0
  9
$DIMALTD
 70
     2
  9
$DIMALTF
 40
25.4
  9
$DIMLFAC
 40
1.0
  9
$DIMTOFL
 70
     0
  9
$DIMTVP
 40
0.0
  9
$DIMTIX
 70
     0
  9
$DIMSOXD
 70
     0
  9
$DIMSAH
 70
     0
  9
$DIMBLK1
  1

  9
$DIMBLK2
  1

  9
$DIMSTYLE
  2
STANDARD
  9
$DIMCLRD
 70
     0
  9
$DIMCLRE
 70
     0
  9
$DIMCLRT
 70
     0
  9
$DIMTFAC
 40
1.0
  9
$DIMGAP
 40
0.09
  9
$LUNITS
 70
     2
  9
$LUPREC
 70
     4
  9
$AXISMODE
 70
     0
  9
$AXISUNIT
 10
0.0
 20
0.0
  9
$SKETCHINC
 40
0.1
  9
$FILLETRAD
 40
0.0
  9
$AUNITS
 70
     0
  9
$AUPREC
 70
     0
  9
$MENU
  1
acad
  9
$ELEVATION
 40
0.0
  9
$PELEVATION
 40
0.0
  9
$THICKNESS
 40
0.0
  9
$LIMCHECK
 70
     0
  9
$BLIPMODE
 70
     1
  9
$CHAMFERA
 40
0.0
  9
$CHAMFERB
 40
0.0
  9
$SKPOLY
 70
     0
  9
$TDCREATE
 40
0.000000000
  9
$TDUPDATE
 40
0.000000000
  9
$TDINDWG
 40
0.0
  9
$TDUSRTIMER
 40
0.0
  9
$USRTIMER
 70
     1
  9
$ANGBASE
 50
0.0
  9
$ANGDIR
 70
     0
  9
$PDMODE
 70
     0
  9
$PDSIZE
 40
0.0
  9
$PLINEWID
 40
0.0
  9
$COORDS
 70
     1
  9
$SPLFRAME
 70
     0
  9
$SPLINETYPE
 70
     6
  9
$SPLINESEGS
 70
     8
  9
$ATTDIA
 70
     0
  9
$ATTREQ
 70
     1
  9
$HANDLING
 70
     1
  9
$HANDSEED
  5
   549
  9
$SURFTAB1
 70
     6
  9
$SURFTAB2
 70
     6
  9
$SURFTYPE
 70
     6
  9
$SURFU
 70
     6
  9
$SURFV
 70
     6
  9
$UCSNAME
  2

  9
$UCSORG
 10
0.0
 20
0.0
 30
0.0
  9
$UCSXDIR
 10
1.0
 20
0.0
 30
0.0
  9
$UCSYDIR
 10
0.0
 20
1.0
 30
0.0
  9
$PUCSNAME
  2

  9
$PUCSORG
 10
0.0
 20
0.0
 30
0.0
  9
$PUCSXDIR
 10
1.0
 20
0.0
 30
0.0
  9
$PUCSYDIR
 10
0.0
 20
1.0
 30
0.0
  9
$USERI1
 70
     0
  9
$USERI2
 70
     0
  9
$USERI3
 70
     0
  9
$USERI4
 70
     0
  9
$USERI5
 70
     0
  9
$USERR1
 40
0.0
  9
$USERR2
 40
0.0
  9
$USERR3
 40
0.0
  9
$USERR4
 40
0.0
  9
$USERR5
 40
0.0
  9
$WORLDVIEW
 70
     1
  9
$SHADEDGE
 70
     3
  9
$SHADEDIF
 70
    70
  9
$TILEMODE
 70
     1
  9
$MAXACTVP
 70
    16
  9
$PINSBASE
 10
0.0
 20
0.0
 30
0.0
  9
$PLIMCHECK
 70
     0
  9
$PEXTMIN
 10
1.0E20
 20
1.0E20
 30
1.0E20
  9
$PEXTMAX
 10
-1.0E20
 20
-1.0E20
 30
-1.0E20
  9
$PLIMMIN
 10
0.0
 20
0.0
  9
$PLIMMAX
 10
12.0
 20
9.0
  9
$UNITMODE
 70
     0
  9
$VISRETAIN
 70
     0
  0
ENDSEC
  0
SECTION
  2
TABLES
  0
TABLE
  2
VPORT
 70
     1
  0
VPORT
  2
*ACTIVE
 70
     0
 10
0.0
 20
0.0
 11
1.0
 21
1.0
 12
6.801242
 22
4.5
 13
0.0
 23
0.0
 14
1.0
 24
1.0
 15
0.0
 25
0.0
 16
0.0
 26
0.0
 36
1.0
 17
0.0
 27
0.0
 37
0.0
 40
9.0
 41
1.511387
 42
50.0
 43
0.0
 44
0.0
 50
0.0
 51
0.0
 71
     0
 72
   100
 73
     1
 74
     1
 75
     0
 76
     0
 77
     0
 78
     0
  0
ENDTAB
  0
TABLE
  2
LTYPE
 70
    41
  0
LTYPE
  2
BYBLOCK
 70
     0
  3

 72
    65
 73
     0
 40
0.0
  0
LTYPE
  2
BYLAYER
 70
     0
  3

 72
    65
 73
     0
 40
0.0
  0
LTYPE
  2
CONTINUOUS
 70
     0
  3
Solid line
 72
    65
 73
     0
 40
0.0
  0
LTYPE
  2
BORDER
 70
    64
  3
__ __ . __ __ . __ __ . __ __ . __ __ . __ __ .
 72
    65
 73
     6
 40
1.75
 49
0.5
 49
-0.25
 49
0.5
 49
-0.25
 49
0.0
 49
-0.25
  0
LTYPE
  2
BORDER2
 70
    64
  3
__.__.__.__.__.__.__.__.__.__.__.__.__.__.__.__
 72
    65
 73
     6
 40
0.875
 49
0.25
 49
-0.125
 49
0.25
 49
-0.125
 49
0.0
 49
-0.125
  0
LTYPE
  2
BORDERX2
 70
    64
  3
____  ____  .  ____  ____  .  ____  ____  .  __
 72
    65
 73
     6
 40
3.5
 49
1.0
 49
-0.5
 49
1.0
 49
-0.5
 49
0.0
 49
-0.5
  0
LTYPE
  2
CENTER
 70
    64
  3
____ _ ____ _ ____ _ ____ _ ____ _ ____ _ ____
 72
    65
 73
     4
 40
2.0
 49
1.25
 49
-0.25
 49
0.25
 49
-0.25
  0
LTYPE
  2
CENTER2
 70
    64
  3
___ _ ___ _ ___ _ ___ _ ___ _ ___ _ ___ _ ___ _
 72
    65
 73
     4
 40
1.125
 49
0.75
 49
-0.125
 49
0.125
 49
-0.125
  0
LTYPE
  2
CENTERX2
 70
    64
  3
________  __  ________  __  ________  __  _____
 72
    65
 73
     4
 40
4.0
 49
2.5
 49
-0.5
 49
0.5
 49
-0.5
  0
LTYPE
  2
DASHDOT
 70
    64
  3
__ . __ . __ . __ . __ . __ . __ . __ . __ . __
 72
    65
 73
     4
 40
1.0
 49
0.5
 49
-0.25
 49
0.0
 49
-0.25
  0
LTYPE
  2
DASHDOT2
 70
    64
  3
_._._._._._._._._._._._._._._._._._._._._._._._
 72
    65
 73
     4
 40
0.5
 49
0.25
 49
-0.125
 49
0.0
 49
-0.125
  0
LTYPE
  2
DASHDOTX2
 70
    64
  3
____  .  ____  .  ____  .  ____  .  ____  .  __
 72
    65
 73
     4
 40
2.0
 49
1.0
 49
-0.5
 49
0.0
 49
-0.5
  0
LTYPE
  2
DASHED
 70
    64
  3
__ __ __ __ __ __ __ __ __ __ __ __ __ __ __ __
 72
    65
 73
     2
 40
0.75
 49
0.5
 49
-0.25
  0
LTYPE
  2
DASHED2
 70
    64
  3
_ _ _ _ _ _ _ _ _ _ _ _ _ _ _ _ _ _ _ _ _ _ _ _
 72
    65
 73
     2
 40
0.375
 49
0.25
 49
-0.125
  0
LTYPE
  2
DASHEDX2
 70
    64
  3
____  ____  ____  ____  ____  ____  ____  ____
 72
    65
 73
     2
 40
1.5
 49
1.0
 49
-0.5
  0
LTYPE
  2
DIVIDE
 70
    64
  3
____ . . ____ . . ____ . . ____ . . ____ . . __
 72
    65
 73
     6
 40
1.25
 49
0.5
 49
-0.25
 49
0.0
 49
-0.25
 49
0.0
 49
-0.25
  0
LTYPE
  2
DIVIDE2
 70
    64
  3
__..__..__..__..__..__..__..__..__..__..__..__.
 72
    65
 73
     6
 40
0.625
 49
0.25
 49
-0.125
 49
0.0
 49
-0.125
 49
0.0
 49
-0.125
  0
LTYPE
  2
DIVIDEX2
 70
    64
  3
________  .  .  ________  .  .  ________  .  .
 72
    65
 73
     6
 40
2.5
 49
1.0
 49
-0.5
 49
0.0
 49
-0.5
 49
0.0
 49
-0.5
  0
LTYPE
  2
DOT
 70
    64
  3
. . . . . . . . . . . . . . . . . . . . . . . .
 72
    65
 73
     2
 40
0.25
 49
0.0
 49
-0.25
  0
LTYPE
  2
DOT2
 70
    64
  3
...............................................
 72
    65
 73
     2
 40
0.125
 49
0.0
 49
-0.125
  0
LTYPE
  2
DOTX2
 70
    64
  3
.  .  .  .  .  .  .  .  .  .  .  .  .  .  .  .
 72
    65
 73
     2
 40
0.5
 49
0.0
 49
-0.5
  0
LTYPE
  2
HIDDEN
 70
    64
  3
__ __ __ __ __ __ __ __ __ __ __ __ __ __ __ __
 72
    65
 73
     2
 40
0.375
 49
0.25
 49
-0.125
  0
LTYPE
  2
HIDDEN2
 70
    64
  3
_ _ _ _ _ _ _ _ _ _ _ _ _ _ _ _ _ _ _ _ _ _ _ _
 72
    65
 73
     2
 40
0.1875
 49
0.125
 49
-0.0625
  0
LTYPE
  2
HIDDENX2
 70
    64
  3
____ ____ ____ ____ ____ ____ ____ ____ ____ __
 72
    65
 73
     2
 40
0.75
 49
0.5
 49
-0.25
  0
LTYPE
  2
PHANTOM
 70
    64
  3
______  __  __  ______  __  __  ______  __  __
 72
    65
 73
     6
 40
2.5
 49
1.25
 49
-0.25
 49
0.25
 49
-0.25
 49
0.25
 49
-0.25
  0
LTYPE
  2
PHANTOM2
 70
    64
  3
___ _ _ ___ _ _ ___ _ _ ___ _ _ ___ _ _ ___ _ _
 72
    65
 73
     6
 40
1.25
 49
0.625
 49
-0.125
 49
0.125
 49
-0.125
 49
0.125
 49
-0.125
  0
LTYPE
  2
PHANTOMX2
 70
    64
  3
____________    ____    ____    ____________
 72
    65
 73
     6
 40
5.0
 49
2.5
 49
-0.5
 49
0.5
 49
-0.5
 49
0.5
 49
-0.5
  0
LTYPE
  2
ACAD_ISO02W100
 70
    64
  3
__ __ __ __ __ __ __ __ __ __ __ __ __ __ __ __
 72
    65
 73
     2
 40
15.0
 49
12.0
 49
-3.0
  0
LTYPE
  2
ACAD_ISO03W100
 70
    64
  3
__    __    __    __    __    __    __    __
 72
    65
 73
     2
 40
30.0
 49
12.0
 49
-18.0
  0
LTYPE
  2
ACAD_ISO04W100
 70
    64
  3
____ . ____ . ____ . ____ . ____ . ____ . ____
 72
    65
 73
     4
 40
30.5
 49
24.0
 49
-3.0
 49
0.5
 49
-3.0
  0
LTYPE
  2
ACAD_ISO05W100
 70
    64
  3
____ .. ____ .. ____ .. ____ .. ____ .. ____ ..
 72
    65
 73
     6
 40
34.0
 49
24.0
 49
-3.0
 49
0.5
 49
-3.0
 49
0.5
 49
-3.0
  0
LTYPE
  2
ACAD_ISO06W100
 70
    64
  3
____ ... ____ ... ____ ... ____ ... ____ ... __
 72
    65
 73
     8
 40
37.5
 49
24.0
 49
-3.0
 49
0.5
 49
-3.0
 49
0.5
 49
-3.0
 49
0.5
 49
-3.0
  0
LTYPE
  2
ACAD_ISO07W100
 70
    64
  3
. . . . . . . . . . . . . . . . . . . . . . . .
 72
    65
 73
     2
 40
3.5
 49
0.5
 49
-3.0
  0
LTYPE
  2
ACAD_ISO08W100
 70
    64
  3
____ __ ____ __ ____ __ ____ ____ __ __ ____ __
 72
    65
 73
     4
 40
36.0
 49
24.0
 49
-3.0
 49
6.0
 49
-3.0
  0
LTYPE
  2
ACAD_ISO09W100
 70
    64
  3
____ __ __ ____ __ __ ____ __ __ ____ __ __ ___
 72
    65
 73
     6
 40
45.0
 49
24.0
 49
-3.0
 49
6.0
 49
-3.0
 49
6.0
 49
-3.0
  0
LTYPE
  2
ACAD_ISO10W100
 70
    64
  3
__ . __ . __ . __ . __ . __ . __ . __ . __ . __
 72
    65
 73
     4
 40
18.5
 49
12.0
 49
-3.0
 49
0.5
 49
-3.0
  0
LTYPE
  2
ACAD_ISO11W100
 70
    64
  3
__ __ . __ __ . __ __ . __ __ . __ __ . __ __ .
 72
    65
 73
     6
 40
33.5
 49
12.0
 49
-3.0
 49
12.0
 49
-3.0
 49
0.5
 49
-3.0
  0
LTYPE
  2
ACAD_ISO12W100
 70
    64
  3
__ . . __ . . __ . . __ . . __ . . __ . . __ .
 72
    65
 73
     6
 40
22.0
 49
12.0
 49
-3.0
 49
0.5
 49
-3.0
 49
0.5
 49
-3.0
  0
LTYPE
  2
ACAD_ISO13W100
 70
    64
  3
__ __ . . __ __ . . __ __ . . __ __ . . __ __ .
 72
    65
 73
     8
 40
37.0
 49
12.0
 49
-3.0
 49
12.0
 49
-3.0
 49
0.5
 49
-3.0
 49
0.5
 49
-3.0
  0
LTYPE
  2
ACAD_ISO14W100
 70
    64
  3
__ . . . __ . . . __ . . . __ . . . __ . . . __
 72
    65
 73
     8
 40
25.5
 49
12.0
 49
-3.0
 49
0.5
 49
-3.0
 49
0.5
 49
-3.0
 49
0.5
 49
-3.0
  0
LTYPE
  2
ACAD_ISO15W100
 70
    64
  3
__ __ . . . __ __ . . . __ __ . . . __ __ . . .
 72
    65
 73
    10
 40
40.5
 49
12.0
 49
-3.0
 49
12.0
 49
-3.0
 49
0.5
 49
-3.0
 49
0.5
 49
-3.0
 49
0.5
 49
-3.0
  0
ENDTAB
  0
TABLE
  2
STYLE
 70
     4
  0
STYLE
  2
STANDARD
 70
    64
 40
0.0
 41
1.0
 50
0.0
 71
     0
 42
0.2
  3
txt
  4

  0
STYLE
  2
TOLERANCE
 70
    64
 40
0.0
 41
1.0
 50
0.0
 71
     0
 42
0.2
  3
../igesfont/iges1003.shx
  4

  0
STYLE
  2
ROMANS
 70
    64
 40
0.0
 41
1.0
 50
0.0
 71
     0
 42
0.2
  3
romans.shx
  4

  0
STYLE
  2
ROMANC
 70
    64
 40
0.0
 41
1.0
 50
0.0
 71
     0
 42
0.2
  3
romanc.shx
  4

  0
ENDTAB
  0
TABLE
  2
DIMSTYLE
 70
     2
  0
DIMSTYLE
  2
UNNAMED
 70
     0
  3

  4

  5

  6

  7

 40
1.0
 41
0.18
 42
0.0625
 43
0.38
 44
0.18
 45
0.0
 46
0.0
 47
0.0
 48
0.0
140
0.18
141
0.09
142
0.0
143
25.4
144
1.0
145
0.0
146
1.0
147
0.09
 71
     0
 72
     0
 73
     1
 74
     1
 75
     0
 76
     0
 77
     0
 78
     0
170
     0
171
     2
172
     0
173
     0
174
     0
175
     0
176
     0
177
     0
178
     0
  0
DIMSTYLE
  2
STANDARD
 70
     0
  3

  4

  5

  6

  7

 40
1.0
 41
0.18
 42
0.0625
 43
0.38
 44
0.18
 45
0.0
 46
0.0
 47
0.0
 48
0.0
140
0.18
141
0.09
142
0.0
143
25.4
144
1.0
145
0.0
146
1.0
147
0.09
 71
     0
 72
     0
 73
     1
 74
     1
 75
     0
 76
     0
 77
     0
 78
     0
170
     0
171
     2
172
     0
173
     0
174
     0
175
     0
176
     0
177
     0
178
     0
  0
ENDTAB
  0
TABLE
  2
LAYER
 70
     2
  0
LAYER
  2
0
 70
     0
 62
     7
  6
CONTINUOUS
  0
LAYER
  2
255
 70
     0
 62
     7
  6
CONTINUOUS
  0
ENDTAB
  0
ENDSEC
  0
SECTION
  2
BLOCKS
  0
BLOCK
  5
     B
  8
0
  6
CONTINUOUS
 62
     7
  2
MOSTRINA
 70
    64
 10
0.0
 20
0.0
 30
0.0
  3
MOSTRINA
  0
LINE
  5
     C
  8
0
  6
CONTINUOUS
 62
     3
 10
173.338256835938
 20
30.7306251525879
 30
0.0
 11
173.338256835938
 21
189.230621337891
 31
0.0
  0
LINE
  5
     D
  8
0
  6
CONTINUOUS
 62
     3
 10
57.5882568359375
 20
29.4806251525879
 30
0.0
 11
172.088256835938
 21
29.4806251525879
 31
0.0
  0
LINE
  5
     E
  8
0
  6
CONTINUOUS
 62
     3
 10
56.3382568359375
 20
30.7306251525879
 30
0.0
 11
56.3382568359375
 21
189.230621337891
 31
0.0
  0
LINE
  5
     F
  8
0
  6
CONTINUOUS
 62
     3
 10
57.5882568359375
 20
190.480621337891
 30
0.0
 11
172.088256835938
 21
190.480621337891
 31
0.0
  0
LINE
  5
    10
  8
0
  6
CONTINUOUS
 62
     3
 10
167.838256835938
 20
56.9806251525879
 30
0.0
 11
167.838256835938
 21
162.980625152588
 31
0.0
  0
LINE
  5
    11
  8
0
  6
CONTINUOUS
 62
     3
 10
61.8382568359375
 20
56.9806251525879
 30
0.0
 11
167.838256835938
 21
56.9806251525879
 31
0.0
  0
LINE
  5
    12
  8
0
  6
CONTINUOUS
 62
     3
 10
61.8382568359375
 20
56.9806251525879
 30
0.0
 11
61.8382568359375
 21
162.980625152588
 31
0.0
  0
LINE
  5
    13
  8
0
  6
CONTINUOUS
 62
     3
 10
61.8382568359375
 20
162.980621337891
 30
0.0
 11
167.838256835938
 21
162.980621337891
 31
0.0
  0
LINE
  5
    14
  8
0
  6
CONTINUOUS
 62
     3
 10
168.838256835938
 20
48.4806251525879
 30
0.0
 11
168.838256835938
 21
49.4806251525879
 31
0.0
  0
LINE
  5
    15
  8
0
  6
CONTINUOUS
 62
     3
 10
61.8382568359375
 20
50.4806251525879
 30
0.0
 11
167.838256835938
 21
50.4806251525879
 31
0.0
  0
LINE
  5
    16
  8
0
  6
CONTINUOUS
 62
     3
 10
60.8382568359375
 20
48.4806251525879
 30
0.0
 11
60.8382568359375
 21
49.4806251525879
 31
0.0
  0
LINE
  5
    17
  8
0
  6
CONTINUOUS
 62
     3
 10
61.8382568359375
 20
49.4806251525879
 30
0.0
 11
167.838256835938
 21
49.4806251525879
 31
0.0
  0
LINE
  5
    18
  8
0
  6
CONTINUOUS
 62
     3
 10
60.8382568359375
 20
29.4806251525879
 30
0.0
 11
60.8382568359375
 21
48.4806251525879
 31
0.0
  0
LINE
  5
    19
  8
0
  6
CONTINUOUS
 62
     3
 10
60.8382568359375
 20
49.4806213378906
 30
0.0
 11
60.8382568359375
 21
190.480621337891
 31
0.0
  0
LINE
  5
    1A
  8
0
  6
CONTINUOUS
 62
     3
 10
61.8382568359375
 20
29.4806251525879
 30
0.0
 11
61.8382568359375
 21
49.4806251525879
 31
0.0
  0
LINE
  5
    1B
  8
0
  6
CONTINUOUS
 62
     3
 10
61.8382568359375
 20
162.980621337891
 30
0.0
 11
61.8382568359375
 21
169.480621337891
 31
0.0
  0
LINE
  5
    1C
  8
0
  6
CONTINUOUS
 62
     3
 10
61.8382568359375
 20
50.4806251525879
 30
0.0
 11
61.8382568359375
 21
56.9806251525879
 31
0.0
  0
LINE
  5
    1D
  8
0
  6
CONTINUOUS
 62
     3
 10
168.838256835938
 20
29.4806251525879
 30
0.0
 11
168.838256835938
 21
48.4806251525879
 31
0.0
  0
LINE
  5
    1E
  8
0
  6
CONTINUOUS
 62
     3
 10
168.838256835938
 20
49.4806251525879
 30
0.0
 11
168.838256835938
 21
190.480621337891
 31
0.0
  0
LINE
  5
    1F
  8
0
  6
CONTINUOUS
 62
     3
 10
167.838256835938
 20
50.4806251525879
 30
0.0
 11
167.838256835938
 21
56.9806251525879
 31
0.0
  0
LINE
  5
    20
  8
0
  6
CONTINUOUS
 62
     3
 10
167.838256835938
 20
162.980621337891
 30
0.0
 11
167.838256835938
 21
169.480621337891
 31
0.0
  0
LINE
  5
    21
  8
0
  6
CONTINUOUS
 62
     3
 10
167.838256835938
 20
29.4806251525879
 30
0.0
 11
167.838256835938
 21
49.4806251525879
 31
0.0
  0
LINE
  5
    22
  8
0
  6
CONTINUOUS
 62
     3
 10
60.8382568359375
 20
170.480621337891
 30
0.0
 11
168.838256835938
 21
170.480621337891
 31
0.0
  0
LINE
  5
    23
  8
0
  6
CONTINUOUS
 62
     3
 10
61.8382568359375
 20
169.480621337891
 30
0.0
 11
167.838256835938
 21
169.480621337891
 31
0.0
  0
ARC
  5
    24
  8
0
  6
CONTINUOUS
 62
     3
 10
57.5882568359375
 20
30.7306251525879
 30
0.0
 40
1.25
 50
180.0
 51
270.0
  0
ARC
  5
    25
  8
0
  6
CONTINUOUS
 62
     3
 10
172.088256835938
 20
30.7306251525879
 30
0.0
 40
1.25
 50
270.0
 51
360.0
  0
ARC
  5
    26
  8
0
  6
CONTINUOUS
 62
     3
 10
172.088256835938
 20
189.230621337891
 30
0.0
 40
1.25
 50
0.0
 51
90.0
  0
ARC
  5
    27
  8
0
  6
CONTINUOUS
 62
     3
 10
57.5882568359375
 20
189.230621337891
 30
0.0
 40
1.25
 50
90.0
 51
180.0
  0
LINE
  5
    28
  8
0
  6
DOT
 62
     3
 10
60.3382577409677
 20
179.7306252571
 30
0.0
 11
60.8382568359375
 21
179.7306252571
 31
0.0
  0
LINE
  5
    29
  8
0
  6
DOT
 62
     3
 10
60.3382577409676
 20
181.2306252571
 30
0.0
 11
60.8382568359375
 21
181.2306252571
 31
0.0
  0
LINE
  5
    2A
  8
0
  6
CONTINUOUS
 62
     3
 10
168.338257745313
 20
179.730625257273
 30
0.0
 11
168.838256835938
 21
179.730625257273
 31
0.0
  0
LINE
  5
    2B
  8
0
  6
CONTINUOUS
 62
     3
 10
168.338257745314
 20
181.230625257273
 30
0.0
 11
168.838256835938
 21
181.230625257273
 31
0.0
  0
ARC
  5
    2C
  8
0
  6
DOT
 62
     3
 10
60.3382577401871
 20
180.480625257147
 30
0.0
 40
0.749999999345164
 50
90.0
 51
270.0
  0
ARC
  5
    2D
  8
0
  6
CONTINUOUS
 62
     3
 10
61.338257740822
 20
180.480625256974
 30
0.0
 40
0.750000000009701
 50
270.0
 51
450.0
  0
LINE
  5
    2E
  8
0
  6
CONTINUOUS
 62
     3
 10
60.8382568359375
 20
181.2306252571
 30
0.0
 11
61.3382577409688
 21
181.2306252571
 31
0.0
  0
LINE
  5
    2F
  8
0
  6
CONTINUOUS
 62
     3
 10
60.8382568359375
 20
179.7306252571
 30
0.0
 11
61.3382577409689
 21
179.7306252571
 31
0.0
  0
ARC
  5
    30
  8
0
  6
CONTINUOUS
 62
     3
 10
168.338257745503
 20
180.480625256952
 30
0.0
 40
0.750000000048506
 50
90.0000000038822
 51
269.999999996024
  0
ARC
  5
    31
  8
0
  6
DOT
 62
     3
 10
169.338257745421
 20
180.480625256965
 30
0.0
 40
0.750000000029104
 50
270.000000002449
 51
449.999999997486
  0
LINE
  5
    32
  8
0
  6
DOT
 62
     3
 10
168.838256835938
 20
181.230625257273
 30
0.0
 11
169.338257745315
 21
181.230625257273
 31
0.0
  0
LINE
  5
    33
  8
0
  6
DOT
 62
     3
 10
168.838256835938
 20
179.730625257273
 30
0.0
 11
169.338257745315
 21
179.730625257273
 31
0.0
  0
POINT
  5
    34
  8
0
  6
CONTINUOUS
 62
     3
 10
114.838256835938
 20
109.980621337891
 30
0.0
  0
ENDBLK
  5
    35
  8
0
  6
CONTINUOUS
 62
     7
  0
BLOCK
  5
    36
  8
0
  6
CONTINUOUS
 62
     7
  2
*UDIM1623
 70
    65
 10
0.0
 20
0.0
 30
0.0
  3
*UDIM1623
  0
TEXT
  5
    37
  8
0
  6
CONTINUOUS
 62
     7
 10
-22.7244442446648
 20
63.5013646351949
 30
0.0
 40
3.00000002980232
  1
117
 50
359.999999948034
 41
0.933333333333333
 72
     1
 11
-18.8244442045689
 21
65.0013646465785
 31
0.0
 73
     2
  0
LINE
  5
    38
  8
0
  6
CONTINUOUS
 62
     7
 10
10.7005558013916
 20
3.79772665989837
 30
0.0
 11
10.7005558013916
 21
64.5013646316773
 31
0.0
  0
LINE
  5
    39
  8
0
  6
CONTINUOUS
 62
     7
 10
-47.7994441986084
 20
3.79772665989837
 30
0.0
 11
-47.7994441986084
 21
64.5013646316773
 31
0.0
  0
LINE
  5
    3A
  8
0
  6
CONTINUOUS
 62
     7
 10
10.7005558013916
 20
62.5013646316773
 30
0.0
 11
-47.7994441986084
 21
62.5013646316773
 31
0.0
  0
LINE
  5
    3B
  8
0
  6
CONTINUOUS
 62
     7
 10
7.74613252418465
 20
61.9804202017257
 30
0.0
 11
10.7005558013916
 21
62.5013646316773
 31
0.0
  0
LINE
  5
    3C
  8
0
  6
CONTINUOUS
 62
     7
 10
10.7005558013916
 20
62.5013646316773
 30
0.0
 11
7.74613252418465
 21
63.022309061629
 31
0.0
  0
LINE
  5
    3D
  8
0
  6
CONTINUOUS
 62
     7
 10
-44.8450209214014
 20
63.022309061629
 30
0.0
 11
-47.7994441986084
 21
62.5013646316773
 31
0.0
  0
LINE
  5
    3E
  8
0
  6
CONTINUOUS
 62
     7
 10
-47.7994441986084
 20
62.5013646316773
 30
0.0
 11
-44.8450209214014
 21
61.9804202017257
 31
0.0
  0
ENDBLK
  5
    3F
  8
0
  6
CONTINUOUS
 62
     7
  0
BLOCK
  5
    40
  8
0
  6
CONTINUOUS
 62
     7
  2
*UDIM1624
 70
    65
 10
0.0
 20
0.0
 30
0.0
  3
*UDIM1624
  0
TEXT
  5
    41
  8
0
  6
CONTINUOUS
 62
     7
 10
25.2444286311113
 20
-41.0022705549431
 30
0.0
 40
3.00000002980232
  1
161
 50
89.9999999480344
 41
0.933333333333333
 72
     1
 11
23.7444286197424
 21
-37.1022705148415
 31
0.0
 73
     2
  0
LINE
  5
    42
  8
0
  6
CONTINUOUS
 62
     7
 10
11.0755558013916
 20
-77.077271432753
 30
0.0
 11
28.2444286346436
 21
-77.077271432753
 31
0.0
  0
LINE
  5
    43
  8
0
  6
CONTINUOUS
 62
     7
 10
11.0755558013916
 20
3.42272665989837
 30
0.0
 11
28.2444286346436
 21
3.42272665989837
 31
0.0
  0
LINE
  5
    44
  8
0
  6
CONTINUOUS
 62
     7
 10
26.2444286346436
 20
-77.077271432753
 30
0.0
 11
26.2444286346436
 21
3.42272665989837
 31
0.0
  0
LINE
  5
    45
  8
0
  6
CONTINUOUS
 62
     7
 10
25.7234842046919
 20
-74.122848155546
 30
0.0
 11
26.2444286346436
 21
-77.077271432753
 31
0.0
  0
LINE
  5
    46
  8
0
  6
CONTINUOUS
 62
     7
 10
26.2444286346436
 20
-77.077271432753
 30
0.0
 11
26.7653730645952
 21
-74.122848155546
 31
0.0
  0
LINE
  5
    47
  8
0
  6
CONTINUOUS
 62
     7
 10
26.7653730645952
 20
0.46830338269141
 30
0.0
 11
26.2444286346436
 21
3.42272665989837
 31
0.0
  0
LINE
  5
    48
  8
0
  6
CONTINUOUS
 62
     7
 10
26.2444286346436
 20
3.42272665989837
 30
0.0
 11
25.7234842046919
 21
0.46830338269141
 31
0.0
  0
ENDBLK
  5
    49
  8
0
  6
CONTINUOUS
 62
     7
  0
BLOCK
  5
    4A
  8
0
  6
CONTINUOUS
 62
     2
  2
*UDIM1625
 70
    65
 10
0.0
 20
0.0
 30
0.0
  3
*UDIM1625
  0
TEXT
  5
    4B
  8
0
  6
CONTINUOUS
 62
     2
 10
34.1914310419999
 20
28.8727218156643
 30
0.0
 40
3.00000002980232
  1
100
 50
89.9999999480344
 41
0.933333333333333
 72
     1
 11
32.6914310306311
 21
32.7727218557659
 31
0.0
 73
     2
  0
LINE
  5
    4C
  8
0
  6
CONTINUOUS
 62
     2
 10
8.07554682593194
 20
8.04772284520303
 30
0.0
 11
37.1914310455322
 21
8.04772284520303
 31
0.0
  0
LINE
  5
    4D
  8
0
  6
CONTINUOUS
 62
     2
 10
-25.8525867550577
 20
58.0477233220402
 30
0.0
 11
37.1914310455322
 21
58.0477233220402
 31
0.0
  0
LINE
  5
    4E
  8
0
  6
CONTINUOUS
 62
     2
 10
35.1914310455322
 20
8.04772284520303
 30
0.0
 11
35.1914310455322
 21
58.0477233220402
 31
0.0
  0
LINE
  5
    4F
  8
0
  6
CONTINUOUS
 62
     2
 10
34.6704866155806
 20
11.00214612241
 30
0.0
 11
35.1914310455322
 21
8.04772284520303
 31
0.0
  0
LINE
  5
    50
  8
0
  6
CONTINUOUS
 62
     2
 10
35.1914310455322
 20
8.04772284520303
 30
0.0
 11
35.7123754754839
 21
11.00214612241
 31
0.0
  0
LINE
  5
    51
  8
0
  6
CONTINUOUS
 62
     2
 10
35.7123754754839
 20
55.0933000448332
 30
0.0
 11
35.1914310455322
 21
58.0477233220402
 31
0.0
  0
LINE
  5
    52
  8
0
  6
CONTINUOUS
 62
     2
 10
35.1914310455322
 20
58.0477233220402
 30
0.0
 11
34.6704866155806
 21
55.0933000448332
 31
0.0
  0
ENDBLK
  5
    53
  8
0
  6
CONTINUOUS
 62
     2
  0
BLOCK
  5
    54
  8
0
  6
CONTINUOUS
 62
     7
  2
*UDIM1626
 70
    65
 10
0.0
 20
0.0
 30
0.0
  3
*UDIM1626
  0
TEXT
  5
    55
  8
0
  6
CONTINUOUS
 62
     7
 10
16.3562869964952
 20
-21.3647743974549
 30
0.0
 40
3.00000002980232
  1
89,75
 50
89.9999999480344
 41
0.933333333333333
 72
     1
 11
14.8562869876623
 21
-14.6647743295378
 31
0.0
 73
     2
  0
LINE
  5
    56
  8
0
  6
CONTINUOUS
 62
     7
 10
8.07554682593194
 20
8.04772284520303
 30
0.0
 11
19.3562870025635
 21
8.04772284520303
 31
0.0
  0
LINE
  5
    57
  8
0
  6
CONTINUOUS
 62
     7
 10
17.3562870025635
 20
-36.8272733401016
 30
0.0
 11
17.3562870025635
 21
8.04772284520303
 31
0.0
  0
LINE
  5
    58
  8
0
  6
CONTINUOUS
 62
     7
 10
16.8353425726118
 20
-33.8728500628947
 30
0.0
 11
17.3562870025635
 21
-36.8272733401016
 31
0.0
  0
LINE
  5
    59
  8
0
  6
CONTINUOUS
 62
     7
 10
17.3562870025635
 20
-36.8272733401016
 30
0.0
 11
17.8772314325151
 21
-33.8728500628947
 31
0.0
  0
LINE
  5
    5A
  8
0
  6
CONTINUOUS
 62
     7
 10
17.8772314325151
 20
5.09329956799607
 30
0.0
 11
17.3562870025635
 21
8.04772284520303
 31
0.0
  0
LINE
  5
    5B
  8
0
  6
CONTINUOUS
 62
     7
 10
17.3562870025635
 20
8.04772284520303
 30
0.0
 11
16.8353425726118
 21
5.09329956799607
 31
0.0
  0
ENDBLK
  5
    5C
  8
0
  6
CONTINUOUS
 62
     7
  0
BLOCK
  5
    5D
  8
0
  6
CONTINUOUS
 62
     2
  2
*UDIM1627
 70
    65
 10
0.0
 20
0.0
 30
0.0
  3
*UDIM1627
  0
TEXT
  5
    5E
  8
0
  6
CONTINUOUS
 62
     2
 10
34.1914310419999
 20
-39.8772781843357
 30
0.0
 40
3.00000002980232
  1
175
 50
89.9999999480344
 41
0.933333333333333
 72
     1
 11
32.6914310306311
 21
-35.9772781442341
 31
0.0
 73
     2
  0
LINE
  5
    5F
  8
0
  6
CONTINUOUS
 62
     2
 10
5.70054113179355
 20
-79.4522771547971
 30
0.0
 11
37.1914310455322
 21
-79.4522771547971
 31
0.0
  0
LINE
  5
    60
  8
0
  6
CONTINUOUS
 62
     2
 10
8.07554682593194
 20
8.04772284520303
 30
0.0
 11
37.1914310455322
 21
8.04772284520303
 31
0.0
  0
LINE
  5
    61
  8
0
  6
CONTINUOUS
 62
     2
 10
35.1914310455322
 20
-79.4522771547971
 30
0.0
 11
35.1914310455322
 21
8.04772284520303
 31
0.0
  0
LINE
  5
    62
  8
0
  6
CONTINUOUS
 62
     2
 10
34.6704866155806
 20
-76.4978538775902
 30
0.0
 11
35.1914310455322
 21
-79.4522771547971
 31
0.0
  0
LINE
  5
    63
  8
0
  6
CONTINUOUS
 62
     2
 10
35.1914310455322
 20
-79.4522771547971
 30
0.0
 11
35.7123754754839
 21
-76.4978538775902
 31
0.0
  0
LINE
  5
    64
  8
0
  6
CONTINUOUS
 62
     2
 10
35.7123754754839
 20
5.09329956799607
 30
0.0
 11
35.1914310455322
 21
8.04772284520303
 31
0.0
  0
LINE
  5
    65
  8
0
  6
CONTINUOUS
 62
     2
 10
35.1914310455322
 20
8.04772284520303
 30
0.0
 11
34.6704866155806
 21
5.09329956799607
 31
0.0
  0
ENDBLK
  5
    66
  8
0
  6
CONTINUOUS
 62
     2
  0
BLOCK
  5
    67
  8
0
  6
CONTINUOUS
 62
     2
  2
*UDIM1628
 70
    65
 10
0.0
 20
0.0
 30
0.0
  3
*UDIM1628
  0
TEXT
  5
    68
  8
0
  6
CONTINUOUS
 62
     2
 10
-53.0911975578432
 20
21.514504034962
 30
0.0
 40
3.00000002980232
  1
8,5
 50
347.771038945525
 41
0.933333333333333
 72
     1
 11
-48.9619643745518
 21
22.154374072473
 31
0.0
 73
     2
  0
TEXT
  5
    69
  8
0
  6
CONTINUOUS
 62
     2
 10
-56.1697207674291
 20
22.1817333138651
 30
0.0
 40
3.00000002980232
  1
Ø
 50
347.771038945525
 41
0.933333333333334
 72
     1
 11
-54.776952676869
 21
23.4146960524187
 31
0.0
 73
     2
  0
LINE
  5
    6A
  8
0
  6
CONTINUOUS
 62
     2
 10
-33.9726776504305
 20
16.3475992434164
 30
0.0
 11
-56.3815395851319
 21
21.2044243604365
 31
0.0
  0
LINE
  5
    6B
  8
0
  6
CONTINUOUS
 62
     2
 10
-30.9749474992897
 20
16.2309204495347
 30
0.0
 11
-33.9726776504305
 21
16.3475992434164
 31
0.0
  0
LINE
  5
    6C
  8
0
  6
CONTINUOUS
 62
     2
 10
-33.9726776504305
 20
16.3475992434164
 30
0.0
 11
-31.195639166931
 21
15.2126731395828
 31
0.0
  0
LINE
  5
    6D
  8
0
  6
CONTINUOUS
 62
     2
 10
-41.1239708483028
 20
17.3645080172622
 30
0.0
 11
-38.1262406971621
 21
17.2478292233804
 31
0.0
  0
LINE
  5
    6E
  8
0
  6
CONTINUOUS
 62
     2
 10
-38.1262406971621
 20
17.2478292233804
 30
0.0
 11
-40.9032791806615
 21
18.3827553272141
 31
0.0
  0
ENDBLK
  5
    6F
  8
0
  6
CONTINUOUS
 62
     2
  0
BLOCK
  5
    70
  8
0
  6
CONTINUOUS
 62
     2
  2
*UDIM1629
 70
    65
 10
0.0
 20
0.0
 30
0.0
  3
*UDIM1629
  0
TEXT
  5
    71
  8
0
  6
CONTINUOUS
 62
     2
 10
-38.5821327481702
 20
31.5962905906338
 30
0.0
 40
3.00000002980232
  1
20
 50
359.999999948034
 41
0.933333333333333
 72
     1
 11
-36.082132721982
 21
33.0962906032801
 31
0.0
 73
     2
  0
LINE
  5
    72
  8
0
  6
CONTINUOUS
 62
     2
 10
-31.049461560986
 20
24.0477142333984
 30
0.0
 11
-31.049461560986
 21
32.5962905883789
 31
0.0
  0
LINE
  5
    73
  8
0
  6
CONTINUOUS
 62
     2
 10
-41.049461560986
 20
24.0477142333984
 30
0.0
 11
-41.049461560986
 21
32.5962905883789
 31
0.0
  0
LINE
  5
    74
  8
0
  6
CONTINUOUS
 62
     2
 10
-31.049461560986
 20
30.5962905883789
 30
0.0
 11
-41.049461560986
 21
30.5962905883789
 31
0.0
  0
LINE
  5
    75
  8
0
  6
CONTINUOUS
 62
     2
 10
-34.003884838193
 20
30.0753461584272
 30
0.0
 11
-31.049461560986
 21
30.5962905883789
 31
0.0
  0
LINE
  5
    76
  8
0
  6
CONTINUOUS
 62
     2
 10
-31.049461560986
 20
30.5962905883789
 30
0.0
 11
-34.003884838193
 21
31.1172350183306
 31
0.0
  0
LINE
  5
    77
  8
0
  6
CONTINUOUS
 62
     2
 10
-38.0950382837791
 20
31.1172350183306
 30
0.0
 11
-41.049461560986
 21
30.5962905883789
 31
0.0
  0
LINE
  5
    78
  8
0
  6
CONTINUOUS
 62
     2
 10
-41.049461560986
 20
30.5962905883789
 30
0.0
 11
-38.0950382837791
 21
30.0753461584272
 31
0.0
  0
ENDBLK
  5
    79
  8
0
  6
CONTINUOUS
 62
     2
  0
BLOCK
  5
    7A
  8
0
  6
CONTINUOUS
 62
     7
  2
*UDIM1630
 70
    65
 10
0.0
 20
0.0
 30
0.0
  3
*UDIM1630
  0
TEXT
  5
    7B
  8
0
  6
CONTINUOUS
 62
     7
 10
-57.4680538238173
 20
-21.9897743974549
 30
0.0
 40
3.00000002980232
  1
87,25
 50
89.9999999480344
 41
0.933333333333333
 72
     1
 11
-58.9680538326502
 21
-15.2897743295378
 31
0.0
 73
     2
  0
LINE
  5
    7C
  8
0
  6
CONTINUOUS
 62
     7
 10
-44.0494588682065
 20
6.79772284520303
 30
0.0
 11
-58.468053817749
 21
6.79772284520303
 31
0.0
  0
LINE
  5
    7D
  8
0
  6
CONTINUOUS
 62
     7
 10
-56.468053817749
 20
-36.8272733401016
 30
0.0
 11
-56.468053817749
 21
6.79772284520303
 31
0.0
  0
LINE
  5
    7E
  8
0
  6
CONTINUOUS
 62
     7
 10
-56.9889982477007
 20
-33.8728500628947
 30
0.0
 11
-56.468053817749
 21
-36.8272733401016
 31
0.0
  0
LINE
  5
    7F
  8
0
  6
CONTINUOUS
 62
     7
 10
-56.468053817749
 20
-36.8272733401016
 30
0.0
 11
-55.9471093877974
 21
-33.8728500628947
 31
0.0
  0
LINE
  5
    80
  8
0
  6
CONTINUOUS
 62
     7
 10
-55.9471093877974
 20
3.84329956799607
 30
0.0
 11
-56.468053817749
 21
6.79772284520303
 31
0.0
  0
LINE
  5
    81
  8
0
  6
CONTINUOUS
 62
     7
 10
-56.468053817749
 20
6.79772284520303
 30
0.0
 11
-56.9889982477007
 21
3.84329956799607
 31
0.0
  0
ENDBLK
  5
    82
  8
0
  6
CONTINUOUS
 62
     7
  0
BLOCK
  5
    83
  8
0
  6
CONTINUOUS
 62
     7
  2
*UDIM1631
 70
    65
 10
0.0
 20
0.0
 30
0.0
  3
*UDIM1631
  0
TEXT
  5
    84
  8
0
  6
CONTINUOUS
 62
     7
 10
-12.5744332463514
 20
-98.132781980167
 30
0.0
 40
3.00000002980232
  1
35
 50
359.999999948034
 41
0.933333333333333
 72
     1
 11
-10.0744332201632
 21
-96.6327819675207
 31
0.0
 73
     2
  0
LINE
  5
    85
  8
0
  6
CONTINUOUS
 62
     7
 10
-1.04942305904297
 20
-77.2024036686553
 30
0.0
 11
-1.04943335588132
 21
-101.132781982422
 31
0.0
  0
LINE
  5
    86
  8
0
  6
CONTINUOUS
 62
     7
 10
-1.04943249531503
 20
-99.1327819824219
 30
0.0
 11
-18.5494434698336
 21
-99.1327819824219
 31
0.0
  0
LINE
  5
    87
  8
0
  6
CONTINUOUS
 62
     7
 10
-4.003855772522
 20
-99.6537264123736
 30
0.0
 11
-1.04943249531503
 21
-99.1327819824219
 31
0.0
  0
LINE
  5
    88
  8
0
  6
CONTINUOUS
 62
     7
 10
-1.04943249531503
 20
-99.1327819824219
 30
0.0
 11
-4.003855772522
 21
-98.6118375524702
 31
0.0
  0
LINE
  5
    89
  8
0
  6
CONTINUOUS
 62
     7
 10
-15.5950201926267
 20
-98.6118375524702
 30
0.0
 11
-18.5494434698336
 21
-99.1327819824219
 31
0.0
  0
LINE
  5
    8A
  8
0
  6
CONTINUOUS
 62
     7
 10
-18.5494434698336
 20
-99.1327819824219
 30
0.0
 11
-15.5950201926267
 21
-99.6537264123736
 31
0.0
  0
ENDBLK
  5
    8B
  8
0
  6
CONTINUOUS
 62
     7
  0
BLOCK
  5
    8C
  8
0
  6
CONTINUOUS
 62
     7
  2
*UDIM1632
 70
    65
 10
0.0
 20
0.0
 30
0.0
  3
*UDIM1632
  0
TEXT
  5
    8D
  8
0
  6
CONTINUOUS
 62
     7
 10
-30.0744461370782
 20
-98.132781980167
 30
0.0
 40
3.00000002980232
  1
35
 50
359.999999948034
 41
0.933333333333333
 72
     1
 11
-27.57444611089
 21
-96.6327819675207
 31
0.0
 73
     2
  0
LINE
  5
    8E
  8
0
  6
CONTINUOUS
 62
     7
 10
-36.0494514222086
 20
-77.2022738964275
 30
0.0
 11
-36.0494655360078
 21
-101.132781982422
 31
0.0
  0
LINE
  5
    8F
  8
0
  6
CONTINUOUS
 62
     7
 10
-18.5494434698336
 20
-99.1327819824219
 30
0.0
 11
-36.0494643564424
 21
-99.1327819824219
 31
0.0
  0
LINE
  5
    90
  8
0
  6
CONTINUOUS
 62
     7
 10
-21.5038667470406
 20
-99.6537264123736
 30
0.0
 11
-18.5494434698336
 21
-99.1327819824219
 31
0.0
  0
LINE
  5
    91
  8
0
  6
CONTINUOUS
 62
     7
 10
-18.5494434698336
 20
-99.1327819824219
 30
0.0
 11
-21.5038667470406
 21
-98.6118375524702
 31
0.0
  0
LINE
  5
    92
  8
0
  6
CONTINUOUS
 62
     7
 10
-33.0950410792354
 20
-98.6118375524702
 30
0.0
 11
-36.0494643564424
 21
-99.1327819824219
 31
0.0
  0
LINE
  5
    93
  8
0
  6
CONTINUOUS
 62
     7
 10
-36.0494643564424
 20
-99.1327819824219
 30
0.0
 11
-33.0950410792354
 21
-99.6537264123736
 31
0.0
  0
ENDBLK
  5
    94
  8
0
  6
CONTINUOUS
 62
     7
  0
BLOCK
  5
    95
  8
0
  6
CONTINUOUS
 62
     7
  2
*UDIM1633
 70
    65
 10
0.0
 20
0.0
 30
0.0
  3
*UDIM1633
  0
TEXT
  5
    96
  8
0
  6
CONTINUOUS
 62
     7
 10
-67.2297115361251
 20
-39.8772705549412
 30
0.0
 40
3.00000002980232
  1
170
 50
89.9999999480344
 41
0.933333333333333
 72
     1
 11
-68.7297115474939
 21
-35.9772705148396
 31
0.0
 73
     2
  0
LINE
  5
    97
  8
0
  6
CONTINUOUS
 62
     7
 10
-44.0494588682064
 20
-78.2022771547971
 30
0.0
 11
-68.2297115325928
 21
-78.2022771547971
 31
0.0
  0
LINE
  5
    98
  8
0
  6
CONTINUOUS
 62
     7
 10
-44.0494588682065
 20
6.79772284520303
 30
0.0
 11
-68.2297115325928
 21
6.79772284520303
 31
0.0
  0
LINE
  5
    99
  8
0
  6
CONTINUOUS
 62
     7
 10
-66.2297115325928
 20
-78.2022771547971
 30
0.0
 11
-66.2297115325928
 21
6.79772284520303
 31
0.0
  0
LINE
  5
    9A
  8
0
  6
CONTINUOUS
 62
     7
 10
-66.7506559625444
 20
-75.2478538775902
 30
0.0
 11
-66.2297115325928
 21
-78.2022771547971
 31
0.0
  0
LINE
  5
    9B
  8
0
  6
CONTINUOUS
 62
     7
 10
-66.2297115325928
 20
-78.2022771547971
 30
0.0
 11
-65.7087671026411
 21
-75.2478538775902
 31
0.0
  0
LINE
  5
    9C
  8
0
  6
CONTINUOUS
 62
     7
 10
-65.7087671026411
 20
3.84329956799607
 30
0.0
 11
-66.2297115325928
 21
6.79772284520303
 31
0.0
  0
LINE
  5
    9D
  8
0
  6
CONTINUOUS
 62
     7
 10
-66.2297115325928
 20
6.79772284520303
 30
0.0
 11
-66.7506559625444
 21
3.84329956799607
 31
0.0
  0
ENDBLK
  5
    9E
  8
0
  6
CONTINUOUS
 62
     7
  0
BLOCK
  5
    9F
  8
0
  6
CONTINUOUS
 62
     7
  2
*UDIM1634
 70
    65
 10
0.0
 20
0.0
 30
0.0
  3
*UDIM1634
  0
TEXT
  5
    A0
  8
0
  6
CONTINUOUS
 62
     7
 10
-22.7244914454655
 20
-106.336746212303
 30
0.0
 40
3.00000002980232
  1
105
 50
359.999999948034
 41
0.933333333333333
 72
     1
 11
-18.8244914053695
 21
-104.836746200919
 31
0.0
 73
     2
  0
LINE
  5
    A1
  8
0
  6
CONTINUOUS
 62
     7
 10
7.70054785808059
 20
-31.0772809694961
 30
0.0
 11
7.70052329114471
 21
-109.33674621582
 31
0.0
  0
LINE
  5
    A2
  8
0
  6
CONTINUOUS
 62
     7
 10
-44.7994445125109
 20
-31.0772809694961
 30
0.0
 11
-44.7994690794468
 21
-109.33674621582
 31
0.0
  0
LINE
  5
    A3
  8
0
  6
CONTINUOUS
 62
     7
 10
7.70052391897767
 20
-107.33674621582
 30
0.0
 11
-44.7994684516139
 21
-107.33674621582
 31
0.0
  0
LINE
  5
    A4
  8
0
  6
CONTINUOUS
 62
     7
 10
4.7461006417707
 20
-107.857690645772
 30
0.0
 11
7.70052391897767
 21
-107.33674621582
 31
0.0
  0
LINE
  5
    A5
  8
0
  6
CONTINUOUS
 62
     7
 10
7.70052391897767
 20
-107.33674621582
 30
0.0
 11
4.7461006417707
 21
-106.815801785869
 31
0.0
  0
LINE
  5
    A6
  8
0
  6
CONTINUOUS
 62
     7
 10
-41.8450451744069
 20
-106.815801785869
 30
0.0
 11
-44.7994684516139
 21
-107.33674621582
 31
0.0
  0
LINE
  5
    A7
  8
0
  6
CONTINUOUS
 62
     7
 10
-44.7994684516139
 20
-107.33674621582
 30
0.0
 11
-41.8450451744069
 21
-107.857690645772
 31
0.0
  0
ENDBLK
  5
    A8
  8
0
  6
CONTINUOUS
 62
     7
  0
BLOCK
  5
    A9
  8
0
  6
CONTINUOUS
 62
     7
  2
*HATCH1123
 70
    65
 10
0.0
 20
0.0
 30
0.0
  3
*HATCH1123
  0
LINE
  5
    AA
  8
0
  6
CONTINUOUS
 62
   210
 10
9.1102123260498
 20
71.5
 30
0.0
 11
13.0000019073486
 21
67.6102066040039
 31
0.0
  0
ENDBLK
  5
    AB
  8
0
  6
CONTINUOUS
 62
     7
  0
BLOCK
  5
    AC
  8
0
  6
CONTINUOUS
 62
     7
  2
*HATCH1124
 70
    65
 10
0.0
 20
0.0
 30
0.0
  3
*HATCH1124
  0
LINE
  5
    AD
  8
0
  6
CONTINUOUS
 62
   210
 10
14.1969509124756
 20
-46.0167922973633
 30
0.0
 11
17.1801414489746
 21
-48.9999885559082
 31
0.0
  0
ENDBLK
  5
    AE
  8
0
  6
CONTINUOUS
 62
     7
  0
BLOCK
  5
    AF
  8
0
  6
CONTINUOUS
 62
     7
  2
*HATCH1125
 70
    65
 10
0.0
 20
0.0
 30
0.0
  3
*HATCH1125
  0
LINE
  5
    B0
  8
0
  6
CONTINUOUS
 62
   210
 10
20.7441368103027
 20
-45.0167922973633
 30
0.0
 11
18.0000019073486
 21
-47.7609252929688
 31
0.0
  0
LINE
  5
    B1
  8
0
  6
CONTINUOUS
 62
   210
 10
21.0
 20
-49.0035667419434
 30
0.0
 11
18.0000019073486
 21
-52.0035667419434
 31
0.0
  0
LINE
  5
    B2
  8
0
  6
CONTINUOUS
 62
   210
 10
21.0
 20
-53.246208190918
 30
0.0
 11
19.3462104797363
 21
-54.9000015258789
 31
0.0
  0
ENDBLK
  5
    B3
  8
0
  6
CONTINUOUS
 62
     7
  0
BLOCK
  5
    B4
  8
0
  6
CONTINUOUS
 62
     7
  2
*HATCH1126
 70
    65
 10
0.0
 20
0.0
 30
0.0
  3
*HATCH1126
  0
LINE
  5
    B5
  8
0
  6
CONTINUOUS
 62
   210
 10
21.7528133392334
 20
-63.0999984741211
 30
0.0
 11
18.0000019073486
 21
-66.8528137207031
 31
0.0
  0
LINE
  5
    B6
  8
0
  6
CONTINUOUS
 62
   210
 10
23.0
 20
-66.0954513549805
 30
0.0
 11
21.0954647064209
 21
-67.9999847412109
 31
0.0
  0
ENDBLK
  5
    B7
  8
0
  6
CONTINUOUS
 62
     7
  0
BLOCK
  5
    B8
  8
0
  6
CONTINUOUS
 62
     7
  2
*HATCH1127
 70
    65
 10
0.0
 20
0.0
 30
0.0
  3
*HATCH1127
  0
LINE
  5
    B9
  8
0
  6
CONTINUOUS
 62
   210
 10
23.0
 20
-47.0035705566406
 30
0.0
 11
21.0000019073486
 21
-49.0035705566406
 31
0.0
  0
LINE
  5
    BA
  8
0
  6
CONTINUOUS
 62
   210
 10
23.0
 20
-51.246208190918
 30
0.0
 11
21.0000019073486
 21
-53.246208190918
 31
0.0
  0
ENDBLK
  5
    BB
  8
0
  6
CONTINUOUS
 62
     7
  0
BLOCK
  5
    BC
  8
0
  6
CONTINUOUS
 62
     7
  2
*HATCH1128
 70
    65
 10
0.0
 20
0.0
 30
0.0
  3
*HATCH1128
  0
LINE
  5
    BD
  8
0
  6
CONTINUOUS
 62
   210
 10
23.5807666778564
 20
74.0
 30
0.0
 11
26.0807647705078
 21
71.5
 31
0.0
  0
LINE
  5
    BE
  8
0
  6
CONTINUOUS
 62
   210
 10
27.8234043121338
 20
74.0
 30
0.0
 11
30.3234024047852
 21
71.5
 31
0.0
  0
LINE
  5
    BF
  8
0
  6
CONTINUOUS
 62
   210
 10
32.0660438537598
 20
74.0
 30
0.0
 11
34.5660400390625
 21
71.5
 31
0.0
  0
ENDBLK
  5
    C0
  8
0
  6
CONTINUOUS
 62
     7
  0
BLOCK
  5
    C1
  8
0
  6
CONTINUOUS
 62
     7
  2
*HATCH1129
 70
    65
 10
0.0
 20
0.0
 30
0.0
  3
*HATCH1129
  0
LINE
  5
    C2
  8
0
  6
CONTINUOUS
 62
    52
 10
107.001167297363
 20
-64.8257827758789
 30
0.0
 11
105.001167297363
 21
-66.8257751464844
 31
0.0
  0
LINE
  5
    C3
  8
0
  6
CONTINUOUS
 62
    52
 10
107.001167297363
 20
-69.0684280395508
 30
0.0
 11
105.001167297363
 21
-71.0684204101563
 31
0.0
  0
LINE
  5
    C4
  8
0
  6
CONTINUOUS
 62
    52
 10
107.001167297363
 20
-73.3110733032227
 30
0.0
 11
105.001167297363
 21
-75.3110656738281
 31
0.0
  0
LINE
  5
    C5
  8
0
  6
CONTINUOUS
 62
    52
 10
107.001167297363
 20
-77.5537185668945
 30
0.0
 11
105.001167297363
 21
-79.5537109375
 31
0.0
  0
LINE
  5
    C6
  8
0
  6
CONTINUOUS
 62
    52
 10
107.001167297363
 20
-81.7963638305664
 30
0.0
 11
105.001167297363
 21
-83.7963562011719
 31
0.0
  0
LINE
  5
    C7
  8
0
  6
CONTINUOUS
 62
    52
 10
107.001167297363
 20
-86.0390090942383
 30
0.0
 11
105.001167297363
 21
-88.0390014648438
 31
0.0
  0
LINE
  5
    C8
  8
0
  6
CONTINUOUS
 62
    52
 10
107.001167297363
 20
-90.2816543579102
 30
0.0
 11
105.001167297363
 21
-92.2816467285156
 31
0.0
  0
LINE
  5
    C9
  8
0
  6
CONTINUOUS
 62
    52
 10
107.001167297363
 20
-94.524299621582
 30
0.0
 11
105.001167297363
 21
-96.5242919921875
 31
0.0
  0
LINE
  5
    CA
  8
0
  6
CONTINUOUS
 62
    52
 10
107.001167297363
 20
-98.7669448852539
 30
0.0
 11
105.001167297363
 21
-100.766937255859
 31
0.0
  0
LINE
  5
    CB
  8
0
  6
CONTINUOUS
 62
    52
 10
107.001167297363
 20
-103.009590148926
 30
0.0
 11
105.001167297363
 21
-105.009582519531
 31
0.0
  0
LINE
  5
    CC
  8
0
  6
CONTINUOUS
 62
    52
 10
107.001167297363
 20
-107.252235412598
 30
0.0
 11
105.001167297363
 21
-109.252227783203
 31
0.0
  0
LINE
  5
    CD
  8
0
  6
CONTINUOUS
 62
    52
 10
107.001167297363
 20
-111.49488067627
 30
0.0
 11
105.001167297363
 21
-113.494873046875
 31
0.0
  0
LINE
  5
    CE
  8
0
  6
CONTINUOUS
 62
    52
 10
107.001167297363
 20
-115.737464904785
 30
0.0
 11
105.269889831543
 21
-117.46875
 31
0.0
  0
ENDBLK
  5
    CF
  8
0
  6
CONTINUOUS
 62
     7
  0
BLOCK
  5
    D0
  8
0
  6
CONTINUOUS
 62
     7
  2
*HATCH1130
 70
    65
 10
0.0
 20
0.0
 30
0.0
  3
*HATCH1130
  0
LINE
  5
    D1
  8
0
  6
CONTINUOUS
 62
    52
 10
107.001167297363
 20
-47.8552169799805
 30
0.0
 11
105.001167297363
 21
-49.8552169799805
 31
0.0
  0
LINE
  5
    D2
  8
0
  6
CONTINUOUS
 62
    52
 10
107.001167297363
 20
-52.0978546142578
 30
0.0
 11
105.001167297363
 21
-54.0978546142578
 31
0.0
  0
LINE
  5
    D3
  8
0
  6
CONTINUOUS
 62
    52
 10
107.001167297363
 20
-56.3404998779297
 30
0.0
 11
106.091667175293
 21
-57.25
 31
0.0
  0
ENDBLK
  5
    D4
  8
0
  6
CONTINUOUS
 62
     7
  0
BLOCK
  5
    D5
  8
0
  6
CONTINUOUS
 62
     7
  2
*HATCH1131
 70
    65
 10
0.0
 20
0.0
 30
0.0
  3
*HATCH1131
  0
LINE
  5
    D6
  8
0
  6
CONTINUOUS
 62
    52
 10
107.001167297363
 20
77.3026809692383
 30
0.0
 11
105.001167297363
 21
75.3026809692383
 31
0.0
  0
LINE
  5
    D7
  8
0
  6
CONTINUOUS
 62
    52
 10
107.001167297363
 20
73.0600357055664
 30
0.0
 11
105.001167297363
 21
71.0600357055664
 31
0.0
  0
LINE
  5
    D8
  8
0
  6
CONTINUOUS
 62
    52
 10
107.001167297363
 20
68.8173904418945
 30
0.0
 11
105.001167297363
 21
66.8173904418945
 31
0.0
  0
ENDBLK
  5
    D9
  8
0
  6
CONTINUOUS
 62
     7
  0
BLOCK
  5
    DA
  8
0
  6
CONTINUOUS
 62
     7
  2
*HATCH1132
 70
    65
 10
0.0
 20
0.0
 30
0.0
  3
*HATCH1132
  0
LINE
  5
    DB
  8
0
  6
CONTINUOUS
 62
    52
 10
107.001167297363
 20
162.155487060547
 30
0.0
 11
105.001167297363
 21
160.155487060547
 31
0.0
  0
LINE
  5
    DC
  8
0
  6
CONTINUOUS
 62
    52
 10
107.001167297363
 20
157.912841796875
 30
0.0
 11
105.001167297363
 21
155.912841796875
 31
0.0
  0
LINE
  5
    DD
  8
0
  6
CONTINUOUS
 62
    52
 10
107.001167297363
 20
153.670196533203
 30
0.0
 11
105.001167297363
 21
151.670196533203
 31
0.0
  0
LINE
  5
    DE
  8
0
  6
CONTINUOUS
 62
    52
 10
107.001167297363
 20
149.427551269531
 30
0.0
 11
105.001167297363
 21
147.427551269531
 31
0.0
  0
LINE
  5
    DF
  8
0
  6
CONTINUOUS
 62
    52
 10
107.001167297363
 20
145.184906005859
 30
0.0
 11
105.001167297363
 21
143.184906005859
 31
0.0
  0
LINE
  5
    E0
  8
0
  6
CONTINUOUS
 62
    52
 10
107.001167297363
 20
140.942260742188
 30
0.0
 11
105.001167297363
 21
138.942260742188
 31
0.0
  0
LINE
  5
    E1
  8
0
  6
CONTINUOUS
 62
    52
 10
107.001167297363
 20
136.699615478516
 30
0.0
 11
105.001167297363
 21
134.699615478516
 31
0.0
  0
LINE
  5
    E2
  8
0
  6
CONTINUOUS
 62
    52
 10
107.001167297363
 20
132.456970214844
 30
0.0
 11
105.001167297363
 21
130.456970214844
 31
0.0
  0
LINE
  5
    E3
  8
0
  6
CONTINUOUS
 62
    52
 10
107.001167297363
 20
128.214324951172
 30
0.0
 11
105.001167297363
 21
126.214324951172
 31
0.0
  0
LINE
  5
    E4
  8
0
  6
CONTINUOUS
 62
    52
 10
107.001167297363
 20
123.9716796875
 30
0.0
 11
105.001167297363
 21
121.9716796875
 31
0.0
  0
LINE
  5
    E5
  8
0
  6
CONTINUOUS
 62
    52
 10
107.001167297363
 20
119.729034423828
 30
0.0
 11
105.001167297363
 21
117.729034423828
 31
0.0
  0
LINE
  5
    E6
  8
0
  6
CONTINUOUS
 62
    52
 10
107.001167297363
 20
115.486389160156
 30
0.0
 11
105.001167297363
 21
113.486389160156
 31
0.0
  0
LINE
  5
    E7
  8
0
  6
CONTINUOUS
 62
    52
 10
107.001167297363
 20
111.243743896484
 30
0.0
 11
105.001167297363
 21
109.243743896484
 31
0.0
  0
LINE
  5
    E8
  8
0
  6
CONTINUOUS
 62
    52
 10
107.001167297363
 20
107.001098632813
 30
0.0
 11
105.001167297363
 21
105.001098632813
 31
0.0
  0
LINE
  5
    E9
  8
0
  6
CONTINUOUS
 62
    52
 10
107.001167297363
 20
102.758453369141
 30
0.0
 11
105.001167297363
 21
100.758453369141
 31
0.0
  0
LINE
  5
    EA
  8
0
  6
CONTINUOUS
 62
    52
 10
107.001167297363
 20
98.5158081054688
 30
0.0
 11
105.001167297363
 21
96.5158081054688
 31
0.0
  0
LINE
  5
    EB
  8
0
  6
CONTINUOUS
 62
    52
 10
107.001167297363
 20
94.2731628417969
 30
0.0
 11
105.001167297363
 21
92.2731628417969
 31
0.0
  0
LINE
  5
    EC
  8
0
  6
CONTINUOUS
 62
    52
 10
107.001167297363
 20
90.030517578125
 30
0.0
 11
105.001167297363
 21
88.030517578125
 31
0.0
  0
LINE
  5
    ED
  8
0
  6
CONTINUOUS
 62
    52
 10
107.001167297363
 20
85.787956237793
 30
0.0
 11
105.963203430176
 21
84.7499923706055
 31
0.0
  0
ENDBLK
  5
    EE
  8
0
  6
CONTINUOUS
 62
     7
  0
BLOCK
  5
    EF
  8
0
  6
CONTINUOUS
 62
     7
  2
*HATCH1133
 70
    65
 10
0.0
 20
0.0
 30
0.0
  3
*HATCH1133
  0
LINE
  5
    F0
  8
0
  6
CONTINUOUS
 62
   210
 10
24.8035449981689
 20
-46.0167922973633
 30
0.0
 11
27.786735534668
 21
-48.9999885559082
 31
0.0
  0
LINE
  5
    F1
  8
0
  6
CONTINUOUS
 62
   210
 10
29.0461826324463
 20
-46.0167922973633
 30
0.0
 11
32.0293731689453
 21
-48.9999885559082
 31
0.0
  0
LINE
  5
    F2
  8
0
  6
CONTINUOUS
 62
   210
 10
33.2888221740723
 20
-46.0167922973633
 30
0.0
 11
36.2720108032227
 21
-48.9999885559082
 31
0.0
  0
LINE
  5
    F3
  8
0
  6
CONTINUOUS
 62
   210
 10
37.5314598083496
 20
-46.0167922973633
 30
0.0
 11
40.5146484375
 21
-48.9999885559082
 31
0.0
  0
LINE
  5
    F4
  8
0
  6
CONTINUOUS
 62
   210
 10
41.774097442627
 20
-46.0167922973633
 30
0.0
 11
44.7572860717773
 21
-48.9999885559082
 31
0.0
  0
LINE
  5
    F5
  8
0
  6
CONTINUOUS
 62
   210
 10
46.0167350769043
 20
-46.0167922973633
 30
0.0
 11
46.9614868164062
 21
-46.9615440368652
 31
0.0
  0
ENDBLK
  5
    F6
  8
0
  6
CONTINUOUS
 62
     7
  0
BLOCK
  5
    F7
  8
0
  6
CONTINUOUS
 62
     2
  2
*HATCH1134
 70
    65
 10
0.0
 20
0.0
 30
0.0
  3
*HATCH1134
  0
LINE
  5
    F8
  8
0
  6
CONTINUOUS
 62
   210
 10
20.8751125335693
 20
93.0
 30
0.0
 11
18.0000019073486
 21
90.124885559082
 31
0.0
  0
LINE
  5
    F9
  8
0
  6
CONTINUOUS
 62
   210
 10
22.0000019073486
 20
89.8822479248047
 30
0.0
 11
20.3177528381348
 21
88.1999969482422
 31
0.0
  0
ENDBLK
  5
    FA
  8
0
  6
CONTINUOUS
 62
     2
  0
BLOCK
  5
    FB
  8
0
  6
CONTINUOUS
 62
     2
  2
*HATCH1135
 70
    65
 10
0.0
 20
0.0
 30
0.0
  3
*HATCH1135
  0
LINE
  5
    FC
  8
0
  6
CONTINUOUS
 62
   210
 10
20.4030342102051
 20
79.8000030517578
 30
0.0
 11
18.0000019073486
 21
77.3969650268555
 31
0.0
  0
LINE
  5
    FD
  8
0
  6
CONTINUOUS
 62
   210
 10
22.0000019073486
 20
77.1543273925781
 30
0.0
 11
13.2129669189453
 21
68.3672943115234
 31
0.0
  0
LINE
  5
    FE
  8
0
  6
CONTINUOUS
 62
   210
 10
22.9864101409912
 20
73.8980941772461
 30
0.0
 11
16.5227603912354
 21
67.4344482421875
 31
0.0
  0
ENDBLK
  5
    FF
  8
0
  6
CONTINUOUS
 62
     2
  0
BLOCK
  5
   100
  8
0
  6
CONTINUOUS
 62
     2
  2
*HATCH1136
 70
    65
 10
0.0
 20
0.0
 30
0.0
  3
*HATCH1136
  0
LINE
  5
   101
  8
0
  6
CONTINUOUS
 62
   210
 10
23.0000019073486
 20
76.7020874023438
 30
0.0
 11
25.7020854949951
 21
74.0
 31
0.0
  0
LINE
  5
   102
  8
0
  6
CONTINUOUS
 62
   210
 10
24.194730758667
 20
79.75
 30
0.0
 11
29.0000019073486
 21
74.9447250366211
 31
0.0
  0
LINE
  5
   103
  8
0
  6
CONTINUOUS
 62
   210
 10
28.4373683929443
 20
79.75
 30
0.0
 11
29.0000019073486
 21
79.187370300293
 31
0.0
  0
ENDBLK
  5
   104
  8
0
  6
CONTINUOUS
 62
     2
  0
BLOCK
  5
   105
  8
0
  6
CONTINUOUS
 62
     2
  2
*HATCH1137
 70
    65
 10
0.0
 20
0.0
 30
0.0
  3
*HATCH1137
  0
LINE
  5
   106
  8
0
  6
CONTINUOUS
 62
   210
 10
23.0000019073486
 20
91.5513381958008
 30
0.0
 11
26.3013362884521
 21
88.25
 31
0.0
  0
LINE
  5
   107
  8
0
  6
CONTINUOUS
 62
   210
 10
23.0000019073486
 20
95.7939834594727
 30
0.0
 11
29.0000019073486
 21
89.7939758300781
 31
0.0
  0
LINE
  5
   108
  8
0
  6
CONTINUOUS
 62
   210
 10
23.0000019073486
 20
100.036628723145
 30
0.0
 11
29.0000019073486
 21
94.03662109375
 31
0.0
  0
LINE
  5
   109
  8
0
  6
CONTINUOUS
 62
   210
 10
23.0000019073486
 20
104.279273986816
 30
0.0
 11
29.0000019073486
 21
98.2792663574219
 31
0.0
  0
LINE
  5
   10A
  8
0
  6
CONTINUOUS
 62
   210
 10
23.0000019073486
 20
108.521919250488
 30
0.0
 11
29.0000019073486
 21
102.521911621094
 31
0.0
  0
LINE
  5
   10B
  8
0
  6
CONTINUOUS
 62
   210
 10
23.0000019073486
 20
112.76456451416
 30
0.0
 11
29.0000019073486
 21
106.764556884766
 31
0.0
  0
LINE
  5
   10C
  8
0
  6
CONTINUOUS
 62
   210
 10
26.7571964263916
 20
113.25
 30
0.0
 11
29.0000019073486
 21
111.007194519043
 31
0.0
  0
ENDBLK
  5
   10D
  8
0
  6
CONTINUOUS
 62
     2
  0
BLOCK
  5
   10E
  8
0
  6
CONTINUOUS
 62
     2
  2
*HATCH1138
 70
    65
 10
0.0
 20
0.0
 30
0.0
  3
*HATCH1138
  0
LINE
  5
   10F
  8
0
  6
CONTINUOUS
 62
   210
 10
23.0000019073486
 20
125.492485046387
 30
0.0
 11
26.7424831390381
 21
121.75
 31
0.0
  0
LINE
  5
   110
  8
0
  6
CONTINUOUS
 62
   210
 10
23.0000019073486
 20
129.735122680664
 30
0.0
 11
29.0000019073486
 21
123.735122680664
 31
0.0
  0
LINE
  5
   111
  8
0
  6
CONTINUOUS
 62
   210
 10
26.9777698516846
 20
130.0
 30
0.0
 11
29.0000019073486
 21
127.977767944336
 31
0.0
  0
ENDBLK
  5
   112
  8
0
  6
CONTINUOUS
 62
     2
  0
BLOCK
  5
   113
  8
0
  6
CONTINUOUS
 62
     2
  2
*UDIM1635
 70
    65
 10
0.0
 20
0.0
 30
0.0
  3
*UDIM1635
  0
TEXT
  5
   114
  8
0
  6
CONTINUOUS
 62
     2
 10
82.8597669601454
 20
-79.2022744288028
 30
0.0
 40
3.00000002980232
  1
8
 50
90.0
 41
0.933333333333334
 72
     1
 11
81.3597669452429
 21
-78.1022744178772
 31
0.0
 73
     2
  0
TEXT
  5
   115
  8
0
  6
CONTINUOUS
 62
     2
 10
82.8597669601454
 20
-81.9522744625788
 30
0.0
 40
3.00000002980232
  1
M
 50
90.0
 41
0.933333333333334
 72
     1
 11
81.3597669452429
 21
-80.8522744516532
 31
0.0
 73
     2
  0
LINE
  5
   116
  8
0
  6
CONTINUOUS
 62
     2
 10
106.222489356992
 20
-73.4522743225098
 30
0.0
 11
81.8597669601441
 21
-73.4522743225098
 31
0.0
  0
LINE
  5
   117
  8
0
  6
CONTINUOUS
 62
     2
 10
106.222489356992
 20
-69.4522743225098
 30
0.0
 11
81.8597669601441
 21
-69.4522743225098
 31
0.0
  0
LINE
  5
   118
  8
0
  6
CONTINUOUS
 62
     2
 10
83.859766960144
 20
-81.9522744625807
 30
0.0
 11
83.859766960144
 21
-69.4522743225098
 31
0.0
  0
LINE
  5
   119
  8
0
  6
CONTINUOUS
 62
     2
 10
84.3807113900957
 20
-76.4066975997167
 30
0.0
 11
83.859766960144
 21
-73.4522743225098
 31
0.0
  0
LINE
  5
   11A
  8
0
  6
CONTINUOUS
 62
     2
 10
83.859766960144
 20
-73.4522743225098
 30
0.0
 11
83.3388225301924
 21
-76.4066975997167
 31
0.0
  0
LINE
  5
   11B
  8
0
  6
CONTINUOUS
 62
     2
 10
83.3388225301924
 20
-66.4978510453028
 30
0.0
 11
83.859766960144
 21
-69.4522743225098
 31
0.0
  0
LINE
  5
   11C
  8
0
  6
CONTINUOUS
 62
     2
 10
83.859766960144
 20
-69.4522743225098
 30
0.0
 11
84.3807113900957
 21
-66.4978510453028
 31
0.0
  0
ENDBLK
  5
   11D
  8
0
  6
CONTINUOUS
 62
     2
  0
BLOCK
  5
   11E
  8
0
  6
CONTINUOUS
 62
     7
  2
*UDIM1636
 70
    65
 10
0.0
 20
0.0
 30
0.0
  3
*UDIM1636
  0
TEXT
  5
   11F
  8
0
  6
CONTINUOUS
 62
     7
 10
100.697489326199
 20
34.6970634460449
 30
0.0
 40
3.00000002980232
  1
25
 41
0.933333333333333
 72
     1
 11
103.197489351034
 21
36.1970634609461
 31
0.0
 73
     2
  0
LINE
  5
   120
  8
0
  6
CONTINUOUS
 62
     7
 10
97.2224893569946
 20
12.8118782499266
 30
0.0
 11
97.2224893569946
 21
35.6970634460449
 31
0.0
  0
LINE
  5
   121
  8
0
  6
CONTINUOUS
 62
     7
 10
109.722489356995
 20
24.0477256774902
 30
0.0
 11
109.722489356995
 21
35.6970634460449
 31
0.0
  0
LINE
  5
   122
  8
0
  6
CONTINUOUS
 62
     7
 10
97.2224893569946
 20
33.6970634460449
 30
0.0
 11
109.722489356995
 21
33.6970634460449
 31
0.0
  0
LINE
  5
   123
  8
0
  6
CONTINUOUS
 62
     7
 10
100.176912634202
 20
34.2180078759966
 30
0.0
 11
97.2224893569946
 21
33.6970634460449
 31
0.0
  0
LINE
  5
   124
  8
0
  6
CONTINUOUS
 62
     7
 10
97.2224893569946
 20
33.6970634460449
 30
0.0
 11
100.176912634202
 21
33.1761190160933
 31
0.0
  0
LINE
  5
   125
  8
0
  6
CONTINUOUS
 62
     7
 10
106.768066079788
 20
33.1761190160933
 30
0.0
 11
109.722489356995
 21
33.6970634460449
 31
0.0
  0
LINE
  5
   126
  8
0
  6
CONTINUOUS
 62
     7
 10
109.722489356995
 20
33.6970634460449
 30
0.0
 11
106.768066079788
 21
34.2180078759966
 31
0.0
  0
ENDBLK
  5
   127
  8
0
  6
CONTINUOUS
 62
     7
  0
BLOCK
  5
   128
  8
0
  6
CONTINUOUS
 62
     7
  2
*UDIM1637
 70
    65
 10
0.0
 20
0.0
 30
0.0
  3
*UDIM1637
  0
TEXT
  5
   129
  8
0
  6
CONTINUOUS
 62
     7
 10
115.722488297025
 20
34.6970634460449
 30
0.0
 40
3.00000002980232
  1
6
 41
0.933333333333334
 72
     1
 11
116.822488307953
 21
36.1970634609461
 31
0.0
 73
     2
  0
LINE
  5
   12A
  8
0
  6
CONTINUOUS
 62
     7
 10
112.722489356995
 20
24.0477256774902
 30
0.0
 11
112.722489356995
 21
35.6970634460449
 31
0.0
  0
LINE
  5
   12B
  8
0
  6
CONTINUOUS
 62
     7
 10
109.722489356995
 20
33.6970634460449
 30
0.0
 11
117.92248831888
 21
33.6970634460449
 31
0.0
  0
LINE
  5
   12C
  8
0
  6
CONTINUOUS
 62
     7
 10
106.768066079788
 20
33.1761190160933
 30
0.0
 11
109.722489356995
 21
33.6970634460449
 31
0.0
  0
LINE
  5
   12D
  8
0
  6
CONTINUOUS
 62
     7
 10
109.722489356995
 20
33.6970634460449
 30
0.0
 11
106.768066079788
 21
34.2180078759966
 31
0.0
  0
LINE
  5
   12E
  8
0
  6
CONTINUOUS
 62
     7
 10
115.676912634202
 20
34.2180078759966
 30
0.0
 11
112.722489356995
 21
33.6970634460449
 31
0.0
  0
LINE
  5
   12F
  8
0
  6
CONTINUOUS
 62
     7
 10
112.722489356995
 20
33.6970634460449
 30
0.0
 11
115.676912634202
 21
33.1761190160933
 31
0.0
  0
ENDBLK
  5
   130
  8
0
  6
CONTINUOUS
 62
     7
  0
BLOCK
  5
   131
  8
0
  6
CONTINUOUS
 62
     7
  2
*UDIM1638
 70
    65
 10
0.0
 20
0.0
 30
0.0
  3
*UDIM1638
  0
TEXT
  5
   132
  8
0
  6
CONTINUOUS
 62
     7
 10
68.501914978034
 20
2.8583991418301
 30
0.0
 40
3.00000002980232
  1
33,5
 50
90.0
 41
0.933333333333333
 72
     1
 11
67.0019149631262
 21
8.15839919447898
 31
0.0
 73
     2
  0
LINE
  5
   133
  8
0
  6
CONTINUOUS
 62
     7
 10
103.558975244011
 20
4.77256774902273E-2
 30
0.0
 11
67.5019149780274
 21
4.77256774902273E-2
 31
0.0
  0
LINE
  5
   134
  8
0
  6
CONTINUOUS
 62
     7
 10
103.558975244011
 20
16.7977256774902
 30
0.0
 11
67.5019149780274
 21
16.7977256774902
 31
0.0
  0
LINE
  5
   135
  8
0
  6
CONTINUOUS
 62
     7
 10
69.5019149780273
 20
4.77256774902273E-2
 30
0.0
 11
69.5019149780273
 21
16.7977256774902
 31
0.0
  0
LINE
  5
   136
  8
0
  6
CONTINUOUS
 62
     7
 10
68.9809705480757
 20
3.00214895469719
 30
0.0
 11
69.5019149780273
 21
4.77256774902273E-2
 31
0.0
  0
LINE
  5
   137
  8
0
  6
CONTINUOUS
 62
     7
 10
69.5019149780273
 20
4.77256774902273E-2
 30
0.0
 11
70.022859407979
 21
3.00214895469719
 31
0.0
  0
LINE
  5
   138
  8
0
  6
CONTINUOUS
 62
     7
 10
70.022859407979
 20
13.8433024002833
 30
0.0
 11
69.5019149780273
 21
16.7977256774902
 31
0.0
  0
LINE
  5
   139
  8
0
  6
CONTINUOUS
 62
     7
 10
69.5019149780273
 20
16.7977256774902
 30
0.0
 11
68.9809705480757
 21
13.8433024002833
 31
0.0
  0
ENDBLK
  5
   13A
  8
0
  6
CONTINUOUS
 62
     7
  0
BLOCK
  5
   13B
  8
0
  6
CONTINUOUS
 62
     7
  2
*UDIM1639
 70
    65
 10
0.0
 20
0.0
 30
0.0
  3
*UDIM1639
  0
TEXT
  5
   13C
  8
0
  6
CONTINUOUS
 62
     7
 10
68.501914978034
 20
25.9727260063111
 30
0.0
 40
3.00000002980232
  1
12,5
 50
90.0
 41
0.933333333333333
 72
     1
 11
67.0019149631262
 21
31.27272605896
 31
0.0
 73
     2
  0
LINE
  5
   13D
  8
0
  6
CONTINUOUS
 62
     7
 10
108.722489356995
 20
23.0477256774902
 30
0.0
 11
67.5019149780274
 21
23.0477256774902
 31
0.0
  0
LINE
  5
   13E
  8
0
  6
CONTINUOUS
 62
     7
 10
69.5019149780273
 20
16.7977256774902
 30
0.0
 11
69.5019149780273
 21
36.5727261116107
 31
0.0
  0
LINE
  5
   13F
  8
0
  6
CONTINUOUS
 62
     7
 10
68.9809705480757
 20
19.7521489546972
 30
0.0
 11
69.5019149780273
 21
16.7977256774902
 31
0.0
  0
LINE
  5
   140
  8
0
  6
CONTINUOUS
 62
     7
 10
69.5019149780273
 20
16.7977256774902
 30
0.0
 11
70.022859407979
 21
19.7521489546972
 31
0.0
  0
LINE
  5
   141
  8
0
  6
CONTINUOUS
 62
     7
 10
70.022859407979
 20
20.0933024002833
 30
0.0
 11
69.5019149780273
 21
23.0477256774902
 31
0.0
  0
LINE
  5
   142
  8
0
  6
CONTINUOUS
 62
     7
 10
69.5019149780273
 20
23.0477256774902
 30
0.0
 11
68.9809705480757
 21
20.0933024002833
 31
0.0
  0
ENDBLK
  5
   143
  8
0
  6
CONTINUOUS
 62
     7
  0
BLOCK
  5
   144
  8
0
  6
CONTINUOUS
 62
     7
  2
*UDIM1640
 70
    65
 10
0.0
 20
0.0
 30
0.0
  3
*UDIM1640
  0
TEXT
  5
   145
  8
0
  6
CONTINUOUS
 62
     7
 10
101.472489489117
 20
-96.5054397583008
 30
0.0
 40
3.00000002980232
  1
5
 41
0.933333333333334
 72
     1
 11
102.572489500045
 21
-95.0054397433996
 31
0.0
 73
     2
  0
LINE
  5
   146
  8
0
  6
CONTINUOUS
 62
     7
 10
107.222489356992
 20
-76.9522681134831
 30
0.0
 11
107.222489356992
 21
-99.5054397583008
 31
0.0
  0
LINE
  5
   147
  8
0
  6
CONTINUOUS
 62
     7
 10
109.722488880157
 20
-76.9522681134832
 30
0.0
 11
109.722488880157
 21
-99.5054397583008
 31
0.0
  0
LINE
  5
   148
  8
0
  6
CONTINUOUS
 62
     7
 10
101.472489489117
 20
-97.5054397583008
 30
0.0
 11
109.722488880157
 21
-97.5054397583008
 31
0.0
  0
LINE
  5
   149
  8
0
  6
CONTINUOUS
 62
     7
 10
104.268066079785
 20
-98.0263841882525
 30
0.0
 11
107.222489356992
 21
-97.5054397583008
 31
0.0
  0
LINE
  5
   14A
  8
0
  6
CONTINUOUS
 62
     7
 10
107.222489356992
 20
-97.5054397583008
 30
0.0
 11
104.268066079785
 21
-96.9844953283491
 31
0.0
  0
LINE
  5
   14B
  8
0
  6
CONTINUOUS
 62
     7
 10
112.676912157364
 20
-96.9844953283491
 30
0.0
 11
109.722488880157
 21
-97.5054397583008
 31
0.0
  0
LINE
  5
   14C
  8
0
  6
CONTINUOUS
 62
     7
 10
109.722488880157
 20
-97.5054397583008
 30
0.0
 11
112.676912157364
 21
-98.0263841882525
 31
0.0
  0
ENDBLK
  5
   14D
  8
0
  6
CONTINUOUS
 62
     7
  0
BLOCK
  5
   14E
  8
0
  6
CONTINUOUS
 62
     7
  2
*UDIM1641
 70
    65
 10
0.0
 20
0.0
 30
0.0
  3
*UDIM1641
  0
TEXT
  5
   14F
  8
0
  6
CONTINUOUS
 62
     7
 10
127.627822054426
 20
-96.5054397583008
 30
0.0
 40
3.00000002980232
  1
5
 41
0.933333333333334
 72
     1
 11
128.727822065353
 21
-95.0054397433996
 31
0.0
 73
     2
  0
TEXT
  5
   150
  8
0
  6
CONTINUOUS
 62
     7
 10
116.477821937203
 20
-96.5054397583008
 30
0.0
 40
3.00000002980232
  1
min.
 41
0.933333333333333
 72
     1
 11
121.777821989854
 21
-95.0054397433996
 31
0.0
 73
     2
  0
LINE
  5
   151
  8
0
  6
CONTINUOUS
 62
     7
 10
112.222489356995
 20
-76.9522743225098
 30
0.0
 11
112.222489356995
 21
-99.5054397583008
 31
0.0
  0
LINE
  5
   152
  8
0
  6
CONTINUOUS
 62
     7
 10
109.722488880157
 20
-97.5054397583008
 30
0.0
 11
129.827822076281
 21
-97.5054397583008
 31
0.0
  0
LINE
  5
   153
  8
0
  6
CONTINUOUS
 62
     7
 10
106.768065602951
 20
-98.0263841882525
 30
0.0
 11
109.722488880157
 21
-97.5054397583008
 31
0.0
  0
LINE
  5
   154
  8
0
  6
CONTINUOUS
 62
     7
 10
109.722488880157
 20
-97.5054397583008
 30
0.0
 11
106.768065602951
 21
-96.9844953283491
 31
0.0
  0
LINE
  5
   155
  8
0
  6
CONTINUOUS
 62
     7
 10
115.176912634202
 20
-96.9844953283491
 30
0.0
 11
112.222489356995
 21
-97.5054397583008
 31
0.0
  0
LINE
  5
   156
  8
0
  6
CONTINUOUS
 62
     7
 10
112.222489356995
 20
-97.5054397583008
 30
0.0
 11
115.176912634202
 21
-98.0263841882525
 31
0.0
  0
ENDBLK
  5
   157
  8
0
  6
CONTINUOUS
 62
     7
  0
BLOCK
  5
   158
  8
0
  6
CONTINUOUS
 62
     7
  2
*UDIM1642
 70
    65
 10
0.0
 20
0.0
 30
0.0
  3
*UDIM1642
  0
TEXT
  5
   159
  8
0
  6
CONTINUOUS
 62
     7
 10
88.6974897136278
 20
-90.4765243530274
 30
0.0
 40
3.00000002980232
  1
20
 41
0.933333333333333
 72
     1
 11
91.1974897384631
 21
-88.9765243381262
 31
0.0
 73
     2
  0
LINE
  5
   15A
  8
0
  6
CONTINUOUS
 62
     7
 10
97.2224893569946
 20
-84.6170006389762
 30
0.0
 11
97.2224893569946
 21
-93.4765243530273
 31
0.0
  0
LINE
  5
   15B
  8
0
  6
CONTINUOUS
 62
     7
 10
107.222489356992
 20
-76.9522681134831
 30
0.0
 11
107.222489356992
 21
-93.4765243530273
 31
0.0
  0
LINE
  5
   15C
  8
0
  6
CONTINUOUS
 62
     7
 10
88.6974897136278
 20
-91.4765243530274
 30
0.0
 11
107.222489356992
 21
-91.4765243530274
 31
0.0
  0
LINE
  5
   15D
  8
0
  6
CONTINUOUS
 62
     7
 10
100.176912634202
 20
-90.9555799230757
 30
0.0
 11
97.2224893569946
 21
-91.4765243530274
 31
0.0
  0
LINE
  5
   15E
  8
0
  6
CONTINUOUS
 62
     7
 10
97.2224893569946
 20
-91.4765243530274
 30
0.0
 11
100.176912634202
 21
-91.997468782979
 31
0.0
  0
LINE
  5
   15F
  8
0
  6
CONTINUOUS
 62
     7
 10
104.268066079785
 20
-91.997468782979
 30
0.0
 11
107.222489356992
 21
-91.4765243530274
 31
0.0
  0
LINE
  5
   160
  8
0
  6
CONTINUOUS
 62
     7
 10
107.222489356992
 20
-91.4765243530274
 30
0.0
 11
104.268066079785
 21
-90.9555799230757
 31
0.0
  0
ENDBLK
  5
   161
  8
0
  6
CONTINUOUS
 62
     7
  0
BLOCK
  5
   162
  8
0
  6
CONTINUOUS
 62
     5
  2
*UDIM1643
 70
    65
 10
0.0
 20
0.0
 30
0.0
  3
*UDIM1643
  0
TEXT
  5
   163
  8
0
  6
CONTINUOUS
 62
     5
 10
68.6721706390465
 20
-25.3647743950269
 30
0.0
 40
3.00000002980232
  1
73,75
 50
90.0
 41
0.933333333333333
 72
     1
 11
67.1721706241369
 21
-18.6647743284702
 31
0.0
 73
     2
  0
LINE
  5
   164
  8
0
  6
CONTINUOUS
 62
     5
 10
85.8831394306545
 20
-36.8272743225098
 30
0.0
 11
67.6721706390381
 21
-36.8272743225098
 31
0.0
  0
LINE
  5
   165
  8
0
  6
CONTINUOUS
 62
     5
 10
103.558975244011
 20
4.77256774902273E-2
 30
0.0
 11
67.6721706390381
 21
4.77256774902273E-2
 31
0.0
  0
LINE
  5
   166
  8
0
  6
CONTINUOUS
 62
     5
 10
69.6721706390381
 20
-36.8272743225098
 30
0.0
 11
69.6721706390381
 21
4.77256774902273E-2
 31
0.0
  0
LINE
  5
   167
  8
0
  6
CONTINUOUS
 62
     5
 10
69.1512262090864
 20
-33.8728510453028
 30
0.0
 11
69.6721706390381
 21
-36.8272743225098
 31
0.0
  0
LINE
  5
   168
  8
0
  6
CONTINUOUS
 62
     5
 10
69.6721706390381
 20
-36.8272743225098
 30
0.0
 11
70.1931150689898
 21
-33.8728510453028
 31
0.0
  0
LINE
  5
   169
  8
0
  6
CONTINUOUS
 62
     5
 10
70.1931150689898
 20
-2.90669759971674
 30
0.0
 11
69.6721706390381
 21
4.77256774902273E-2
 31
0.0
  0
LINE
  5
   16A
  8
0
  6
CONTINUOUS
 62
     5
 10
69.6721706390381
 20
4.77256774902273E-2
 30
0.0
 11
69.1512262090864
 21
-2.90669759971674
 31
0.0
  0
ENDBLK
  5
   16B
  8
0
  6
CONTINUOUS
 62
     5
  0
BLOCK
  5
   16C
  8
0
  6
CONTINUOUS
 62
     7
  2
*UDIM1644
 70
    65
 10
0.0
 20
0.0
 30
0.0
  3
*UDIM1644
  0
TEXT
  5
   16D
  8
0
  6
CONTINUOUS
 62
     7
 10
119.797782084084
 20
-120.442455291748
 30
0.0
 40
3.00000002980232
  1
107
 41
0.933333333333333
 72
     1
 11
123.697782122827
 21
-118.942455276847
 31
0.0
 73
     2
  0
LINE
  5
   16E
  8
0
  6
CONTINUOUS
 62
     7
 10
97.2224893569946
 20
-84.6170006389762
 30
0.0
 11
97.2224893569946
 21
-123.442455291748
 31
0.0
  0
LINE
  5
   16F
  8
0
  6
CONTINUOUS
 62
     7
 10
150.723073589278
 20
-101.783336107206
 30
0.0
 11
150.723073589278
 21
-123.442455291748
 31
0.0
  0
LINE
  5
   170
  8
0
  6
CONTINUOUS
 62
     7
 10
97.2224893569946
 20
-121.442455291748
 30
0.0
 11
150.723073589278
 21
-121.442455291748
 31
0.0
  0
LINE
  5
   171
  8
0
  6
CONTINUOUS
 62
     7
 10
100.176912634202
 20
-120.921510861796
 30
0.0
 11
97.2224893569946
 21
-121.442455291748
 31
0.0
  0
LINE
  5
   172
  8
0
  6
CONTINUOUS
 62
     7
 10
97.2224893569946
 20
-121.442455291748
 30
0.0
 11
100.176912634202
 21
-121.9633997217
 31
0.0
  0
LINE
  5
   173
  8
0
  6
CONTINUOUS
 62
     7
 10
147.768650312071
 20
-121.9633997217
 30
0.0
 11
150.723073589278
 21
-121.442455291748
 31
0.0
  0
LINE
  5
   174
  8
0
  6
CONTINUOUS
 62
     7
 10
150.723073589278
 20
-121.442455291748
 30
0.0
 11
147.768650312071
 21
-120.921510861796
 31
0.0
  0
ENDBLK
  5
   175
  8
0
  6
CONTINUOUS
 62
     7
  0
BLOCK
  5
   176
  8
0
  6
CONTINUOUS
 62
     7
  2
*UDIM1645
 70
    65
 10
0.0
 20
0.0
 30
0.0
  3
*UDIM1645
  0
TEXT
  5
   177
  8
0
  6
CONTINUOUS
 62
     7
 10
154.723072052472
 20
-120.442455291748
 30
0.0
 40
3.00000002980232
  1
2
 41
0.933333333333334
 72
     1
 11
155.8230720634
 21
-118.942455276847
 31
0.0
 73
     2
  0
LINE
  5
   178
  8
0
  6
CONTINUOUS
 62
     7
 10
151.723073589278
 20
-101.063709938982
 30
0.0
 11
151.723073589278
 21
-123.442455291748
 31
0.0
  0
LINE
  5
   179
  8
0
  6
CONTINUOUS
 62
     7
 10
150.723073589278
 20
-121.442455291748
 30
0.0
 11
156.923072074327
 21
-121.442455291748
 31
0.0
  0
LINE
  5
   17A
  8
0
  6
CONTINUOUS
 62
     7
 10
147.768650312071
 20
-121.9633997217
 30
0.0
 11
150.723073589278
 21
-121.442455291748
 31
0.0
  0
LINE
  5
   17B
  8
0
  6
CONTINUOUS
 62
     7
 10
150.723073589278
 20
-121.442455291748
 30
0.0
 11
147.768650312071
 21
-120.921510861796
 31
0.0
  0
LINE
  5
   17C
  8
0
  6
CONTINUOUS
 62
     7
 10
154.677496866485
 20
-120.921510861796
 30
0.0
 11
151.723073589278
 21
-121.442455291748
 31
0.0
  0
LINE
  5
   17D
  8
0
  6
CONTINUOUS
 62
     7
 10
151.723073589278
 20
-121.442455291748
 30
0.0
 11
154.677496866485
 21
-121.9633997217
 31
0.0
  0
ENDBLK
  5
   17E
  8
0
  6
CONTINUOUS
 62
     7
  0
BLOCK
  5
   17F
  8
0
  6
CONTINUOUS
 62
     7
  2
*UDIM1646
 70
    65
 10
0.0
 20
0.0
 30
0.0
  3
*UDIM1646
  0
TEXT
  5
   180
  8
0
  6
CONTINUOUS
 62
     7
 10
60.3222770690967
 20
-39.8772741200053
 30
0.0
 40
3.00000002980232
  1
143
 50
90.0
 41
0.933333333333333
 72
     1
 11
58.8222770541906
 21
-35.9772740812642
 31
0.0
 73
     2
  0
LINE
  5
   181
  8
0
  6
CONTINUOUS
 62
     7
 10
103.558975244011
 20
-71.4522740085933
 30
0.0
 11
59.3222770690919
 21
-71.4522601219647
 31
0.0
  0
LINE
  5
   182
  8
0
  6
CONTINUOUS
 62
     7
 10
103.558975244011
 20
4.77260518846947E-2
 30
0.0
 11
59.3222770690919
 21
4.77426138598034E-2
 31
0.0
  0
LINE
  5
   183
  8
0
  6
CONTINUOUS
 62
     7
 10
61.3222770690918
 20
-71.4522607497977
 30
0.0
 11
61.3222770690918
 21
4.77418650708685E-2
 31
0.0
  0
LINE
  5
   184
  8
0
  6
CONTINUOUS
 62
     7
 10
60.8013326391401
 20
-68.4978374725907
 30
0.0
 11
61.3222770690918
 21
-71.4522607497977
 31
0.0
  0
LINE
  5
   185
  8
0
  6
CONTINUOUS
 62
     7
 10
61.3222770690918
 20
-71.4522607497977
 30
0.0
 11
61.8432214990435
 21
-68.4978374725907
 31
0.0
  0
LINE
  5
   186
  8
0
  6
CONTINUOUS
 62
     7
 10
61.8432214990435
 20
-2.90668141213609
 30
0.0
 11
61.3222770690918
 21
4.77418650708685E-2
 31
0.0
  0
LINE
  5
   187
  8
0
  6
CONTINUOUS
 62
     7
 10
61.3222770690918
 20
4.77418650708685E-2
 30
0.0
 11
60.8013326391401
 21
-2.90668141213609
 31
0.0
  0
ENDBLK
  5
   188
  8
0
  6
CONTINUOUS
 62
     7
  0
BLOCK
  5
   189
  8
0
  6
CONTINUOUS
 62
     7
  2
*UDIM1647
 70
    65
 10
0.0
 20
0.0
 30
0.0
  3
*UDIM1647
  0
TEXT
  5
   18A
  8
0
  6
CONTINUOUS
 62
     7
 10
172.960403442388
 20
-41.002270187308
 30
0.0
 40
3.00000002980232
  1
105
 50
90.0
 41
0.933333333333333
 72
     1
 11
171.460403427482
 21
-37.1022701485669
 31
0.0
 73
     2
  0
LINE
  5
   18B
  8
0
  6
CONTINUOUS
 62
     7
 10
151.723073589278
 20
-63.0772746352462
 30
0.0
 11
175.960403442383
 21
-63.0772822437435
 31
0.0
  0
LINE
  5
   18C
  8
0
  6
CONTINUOUS
 62
     7
 10
151.723073589278
 20
-10.5772746364263
 30
0.0
 11
175.960403442383
 21
-10.5772822449235
 31
0.0
  0
LINE
  5
   18D
  8
0
  6
CONTINUOUS
 62
     7
 10
173.960403442383
 20
-63.0772816159106
 30
0.0
 11
173.960403442383
 21
-10.5772816170906
 31
0.0
  0
LINE
  5
   18E
  8
0
  6
CONTINUOUS
 62
     7
 10
173.439459012431
 20
-60.1228583387036
 30
0.0
 11
173.960403442383
 21
-63.0772816159106
 31
0.0
  0
LINE
  5
   18F
  8
0
  6
CONTINUOUS
 62
     7
 10
173.960403442383
 20
-63.0772816159106
 30
0.0
 11
174.481347872335
 21
-60.1228583387036
 31
0.0
  0
LINE
  5
   190
  8
0
  6
CONTINUOUS
 62
     7
 10
174.481347872335
 20
-13.5317048942975
 30
0.0
 11
173.960403442383
 21
-10.5772816170906
 31
0.0
  0
LINE
  5
   191
  8
0
  6
CONTINUOUS
 62
     7
 10
173.960403442383
 20
-10.5772816170906
 30
0.0
 11
173.439459012431
 21
-13.5317048942975
 31
0.0
  0
ENDBLK
  5
   192
  8
0
  6
CONTINUOUS
 62
     7
  0
BLOCK
  5
   193
  8
0
  6
CONTINUOUS
 62
     7
  2
*UDIM1648
 70
    65
 10
0.0
 20
0.0
 30
0.0
  3
*UDIM1648
  0
TEXT
  5
   194
  8
0
  6
CONTINUOUS
 62
     7
 10
115.622486423751
 20
-103.686374664307
 30
0.0
 40
3.00000002980232
  1
101,5
 41
0.933333333333333
 72
     1
 11
122.322486490309
 21
-102.186374649405
 31
0.0
 73
     2
  0
LINE
  5
   195
  8
0
  6
CONTINUOUS
 62
     7
 10
97.2224893569946
 20
-84.6170006389762
 30
0.0
 11
97.2224893569946
 21
-106.686374664307
 31
0.0
  0
LINE
  5
   196
  8
0
  6
CONTINUOUS
 62
     7
 10
147.972488880754
 20
-11.5772743225098
 30
0.0
 11
147.972488880754
 21
-106.686374664307
 31
0.0
  0
LINE
  5
   197
  8
0
  6
CONTINUOUS
 62
     7
 10
97.2224893569946
 20
-104.686374664307
 30
0.0
 11
147.972488880754
 21
-104.686374664307
 31
0.0
  0
LINE
  5
   198
  8
0
  6
CONTINUOUS
 62
     7
 10
100.176912634202
 20
-104.165430234355
 30
0.0
 11
97.2224893569946
 21
-104.686374664307
 31
0.0
  0
LINE
  5
   199
  8
0
  6
CONTINUOUS
 62
     7
 10
97.2224893569946
 20
-104.686374664307
 30
0.0
 11
100.176912634202
 21
-105.207319094258
 31
0.0
  0
LINE
  5
   19A
  8
0
  6
CONTINUOUS
 62
     7
 10
145.018065603547
 20
-105.207319094258
 30
0.0
 11
147.972488880754
 21
-104.686374664307
 31
0.0
  0
LINE
  5
   19B
  8
0
  6
CONTINUOUS
 62
     7
 10
147.972488880754
 20
-104.686374664307
 30
0.0
 11
145.018065603547
 21
-104.165430234355
 31
0.0
  0
ENDBLK
  5
   19C
  8
0
  6
CONTINUOUS
 62
     7
  0
BLOCK
  5
   19D
  8
0
  6
CONTINUOUS
 62
     7
  2
*UDIM1649
 70
    65
 10
0.0
 20
0.0
 30
0.0
  3
*UDIM1649
  0
TEXT
  5
   19E
  8
0
  6
CONTINUOUS
 62
     7
 10
116.122814495613
 20
-112.193630218506
 30
0.0
 40
3.00000002980232
  1
103,5
 41
0.933333333333333
 72
     1
 11
122.822814562171
 21
-110.693630203605
 31
0.0
 73
     2
  0
LINE
  5
   19F
  8
0
  6
CONTINUOUS
 62
     7
 10
97.2224893569946
 20
-84.6170006389762
 30
0.0
 11
97.2224893569946
 21
-115.193630218506
 31
0.0
  0
LINE
  5
   1A0
  8
0
  6
CONTINUOUS
 62
     7
 10
148.97314454764
 20
-64.0772743206823
 30
0.0
 11
148.97314454764
 21
-115.193630218506
 31
0.0
  0
LINE
  5
   1A1
  8
0
  6
CONTINUOUS
 62
     7
 10
97.2224893569946
 20
-113.193630218506
 30
0.0
 11
148.97314454764
 21
-113.193630218506
 31
0.0
  0
LINE
  5
   1A2
  8
0
  6
CONTINUOUS
 62
     7
 10
100.176912634202
 20
-112.672685788554
 30
0.0
 11
97.2224893569946
 21
-113.193630218506
 31
0.0
  0
LINE
  5
   1A3
  8
0
  6
CONTINUOUS
 62
     7
 10
97.2224893569946
 20
-113.193630218506
 30
0.0
 11
100.176912634202
 21
-113.714574648458
 31
0.0
  0
LINE
  5
   1A4
  8
0
  6
CONTINUOUS
 62
     7
 10
146.018721270433
 20
-113.714574648458
 30
0.0
 11
148.97314454764
 21
-113.193630218506
 31
0.0
  0
LINE
  5
   1A5
  8
0
  6
CONTINUOUS
 62
     7
 10
148.97314454764
 20
-113.193630218506
 30
0.0
 11
146.018721270433
 21
-112.672685788554
 31
0.0
  0
ENDBLK
  5
   1A6
  8
0
  6
CONTINUOUS
 62
     7
  0
BLOCK
  5
   1A7
  8
0
  6
CONTINUOUS
 62
     7
  2
*UDIM1650
 70
    65
 10
0.0
 20
0.0
 30
0.0
  3
*UDIM1650
  0
TEXT
  5
   1A8
  8
0
  6
CONTINUOUS
 62
     7
 10
89.972490204374
 20
-126.890552520752
 30
0.0
 40
3.00000002980232
  1
3
 41
0.933333333333334
 72
     1
 11
91.0724902153015
 21
-125.390552505851
 31
0.0
 73
     2
  0
TEXT
  5
   1A9
  8
0
  6
CONTINUOUS
 62
     7
 10
87.222490170598
 20
-126.890552520752
 30
0.0
 40
3.00000002980232
  1
_
 41
0.933333333333334
 72
     1
 11
88.3224901815256
 21
-125.390552505851
 31
0.0
 73
     2
  0
LINE
  5
   1AA
  8
0
  6
CONTINUOUS
 62
     7
 10
95.7224893569946
 20
-84.6170006389762
 30
0.0
 11
95.7224893569946
 21
-129.890552520752
 31
0.0
  0
LINE
  5
   1AB
  8
0
  6
CONTINUOUS
 62
     7
 10
97.2224893569946
 20
-84.6170006389762
 30
0.0
 11
97.2224893569946
 21
-129.890552520752
 31
0.0
  0
LINE
  5
   1AC
  8
0
  6
CONTINUOUS
 62
     7
 10
87.222490170598
 20
-127.890552520752
 30
0.0
 11
97.2224893569946
 21
-127.890552520752
 31
0.0
  0
LINE
  5
   1AD
  8
0
  6
CONTINUOUS
 62
     7
 10
92.7680660797877
 20
-128.411496950704
 30
0.0
 11
95.7224893569946
 21
-127.890552520752
 31
0.0
  0
LINE
  5
   1AE
  8
0
  6
CONTINUOUS
 62
     7
 10
95.7224893569946
 20
-127.890552520752
 30
0.0
 11
92.7680660797877
 21
-127.3696080908
 31
0.0
  0
LINE
  5
   1AF
  8
0
  6
CONTINUOUS
 62
     7
 10
100.176912634202
 20
-127.3696080908
 30
0.0
 11
97.2224893569946
 21
-127.890552520752
 31
0.0
  0
LINE
  5
   1B0
  8
0
  6
CONTINUOUS
 62
     7
 10
97.2224893569946
 20
-127.890552520752
 30
0.0
 11
100.176912634202
 21
-128.411496950704
 31
0.0
  0
ENDBLK
  5
   1B1
  8
0
  6
CONTINUOUS
 62
     7
  0
BLOCK
  5
   1B2
  8
0
  6
CONTINUOUS
 62
     7
  2
*UDIM1651
 70
    65
 10
0.0
 20
0.0
 30
0.0
  3
*UDIM1651
  0
TEXT
  5
   1B3
  8
0
  6
CONTINUOUS
 62
     7
 10
126.808755081506
 20
-126.890552520752
 30
0.0
 40
3.00000002980232
  1
135
 41
0.933333333333333
 72
     1
 11
130.708755120249
 21
-125.390552505851
 31
0.0
 73
     2
  0
LINE
  5
   1B4
  8
0
  6
CONTINUOUS
 62
     7
 10
164.745023100796
 20
-42.9522743225098
 30
0.0
 11
164.745023100796
 21
-129.890552520752
 31
0.0
  0
LINE
  5
   1B5
  8
0
  6
CONTINUOUS
 62
     7
 10
97.2224893569946
 20
-127.890552520752
 30
0.0
 11
164.745023100796
 21
-127.890552520752
 31
0.0
  0
LINE
  5
   1B6
  8
0
  6
CONTINUOUS
 62
     7
 10
100.176912634202
 20
-127.3696080908
 30
0.0
 11
97.2224893569946
 21
-127.890552520752
 31
0.0
  0
LINE
  5
   1B7
  8
0
  6
CONTINUOUS
 62
     7
 10
97.2224893569946
 20
-127.890552520752
 30
0.0
 11
100.176912634202
 21
-128.411496950704
 31
0.0
  0
LINE
  5
   1B8
  8
0
  6
CONTINUOUS
 62
     7
 10
161.790599823589
 20
-128.411496950704
 30
0.0
 11
164.745023100796
 21
-127.890552520752
 31
0.0
  0
LINE
  5
   1B9
  8
0
  6
CONTINUOUS
 62
     7
 10
164.745023100796
 20
-127.890552520752
 30
0.0
 11
161.790599823589
 21
-127.3696080908
 31
0.0
  0
ENDBLK
  5
   1BA
  8
0
  6
CONTINUOUS
 62
     7
  0
BLOCK
  5
   1BB
  8
0
  6
CONTINUOUS
 62
     7
  2
*UDIM1652
 70
    65
 10
0.0
 20
0.0
 30
0.0
  3
*UDIM1652
  0
TEXT
  5
   1BC
  8
0
  6
CONTINUOUS
 62
     7
 10
75.3966522216828
 20
-79.9772740004484
 30
0.0
 40
3.00000002980232
  1
10
 50
90.0
 41
0.933333333333333
 72
     1
 11
73.8966522067785
 21
-77.477273975615
 31
0.0
 73
     2
  0
LINE
  5
   1BD
  8
0
  6
CONTINUOUS
 62
     7
 10
103.558975244011
 20
-71.4522740085933
 30
0.0
 11
74.3966522216798
 21
-71.4522648540595
 31
0.0
  0
LINE
  5
   1BE
  8
0
  6
CONTINUOUS
 62
     7
 10
97.2224893569947
 20
-66.4522676701215
 30
0.0
 11
74.3966522216799
 21
-66.4522575500216
 31
0.0
  0
LINE
  5
   1BF
  8
0
  6
CONTINUOUS
 62
     7
 10
76.3966522216797
 20
-79.9772740004503
 30
0.0
 11
76.3966522216797
 21
-66.4522584367448
 31
0.0
  0
LINE
  5
   1C0
  8
0
  6
CONTINUOUS
 62
     7
 10
76.9175966516314
 20
-74.4066887590994
 30
0.0
 11
76.3966522216797
 21
-71.4522654818925
 31
0.0
  0
LINE
  5
   1C1
  8
0
  6
CONTINUOUS
 62
     7
 10
76.3966522216797
 20
-71.4522654818925
 30
0.0
 11
75.875707791728
 21
-74.4066887590994
 31
0.0
  0
LINE
  5
   1C2
  8
0
  6
CONTINUOUS
 62
     7
 10
75.875707791728
 20
-63.4978351595379
 30
0.0
 11
76.3966522216797
 21
-66.4522584367448
 31
0.0
  0
LINE
  5
   1C3
  8
0
  6
CONTINUOUS
 62
     7
 10
76.3966522216797
 20
-66.4522584367448
 30
0.0
 11
76.9175966516314
 21
-63.4978351595379
 31
0.0
  0
ENDBLK
  5
   1C4
  8
0
  6
CONTINUOUS
 62
     7
  0
BLOCK
  5
   1C5
  8
0
  6
CONTINUOUS
 62
     7
  2
*UDIM1653
 70
    65
 10
0.0
 20
0.0
 30
0.0
  3
*UDIM1653
  0
TEXT
  5
   1C6
  8
0
  6
CONTINUOUS
 62
     7
 10
162.085075378421
 20
-5.30917972047063
 30
0.0
 40
3.00000002980232
  1
10
 50
90.0
 41
0.933333333333333
 72
     1
 11
160.585075363517
 21
-2.80917969563724
 31
0.0
 73
     2
  0
LINE
  5
   1C7
  8
0
  6
CONTINUOUS
 62
     7
 10
116.672135598194
 20
-4.95227463642625
 30
0.0
 11
165.085075378418
 21
-4.95228983404557
 31
0.0
  0
LINE
  5
   1C8
  8
0
  6
CONTINUOUS
 62
     7
 10
113.888798808308
 20
0.047725363573754
 30
0.0
 11
165.085075378418
 21
4.77092922191673E-2
 31
0.0
  0
LINE
  5
   1C9
  8
0
  6
CONTINUOUS
 62
     7
 10
163.085075378418
 20
-5.30917972047251
 30
0.0
 11
163.085075378418
 21
4.77099200521138E-2
 31
0.0
  0
LINE
  5
   1CA
  8
0
  6
CONTINUOUS
 62
     7
 10
163.60601980837
 20
-7.90671248341958
 30
0.0
 11
163.085075378418
 21
-4.95228920621262
 31
0.0
  0
LINE
  5
   1CB
  8
0
  6
CONTINUOUS
 62
     7
 10
163.085075378418
 20
-4.95228920621262
 30
0.0
 11
162.564130948466
 21
-7.90671248341958
 31
0.0
  0
LINE
  5
   1CC
  8
0
  6
CONTINUOUS
 62
     7
 10
162.564130948466
 20
3.00213319725908
 30
0.0
 11
163.085075378418
 21
4.77099200521138E-2
 31
0.0
  0
LINE
  5
   1CD
  8
0
  6
CONTINUOUS
 62
     7
 10
163.085075378418
 20
4.77099200521138E-2
 30
0.0
 11
163.60601980837
 21
3.00213319725908
 31
0.0
  0
ENDBLK
  5
   1CE
  8
0
  6
CONTINUOUS
 62
     7
  0
BLOCK
  5
   1CF
  8
0
  6
CONTINUOUS
 62
     5
  2
*UDIM1654
 70
    65
 10
0.0
 20
0.0
 30
0.0
  3
*UDIM1654
  0
TEXT
  5
   1D0
  8
0
  6
CONTINUOUS
 62
     5
 10
-41.9611435057637
 20
-154.54453246964
 30
0.0
 40
3.00000002980232
  1
71,75
 50
449.999999896069
 41
0.933333333333333
 72
     1
 11
-43.4611435085535
 21
-147.84453240037
 31
0.0
 73
     2
  0
LINE
  5
   1D1
  8
0
  6
CONTINUOUS
 62
     5
 10
-28.1005818171976
 20
-139.203414916992
 30
0.0
 11
-42.9611434936523
 21
-139.203414916992
 31
0.0
  0
LINE
  5
   1D2
  8
0
  6
CONTINUOUS
 62
     5
 10
-40.9611434936523
 20
-139.203414916992
 30
0.0
 11
-40.9611434936523
 21
-157.140914916992
 31
0.0
  0
LINE
  5
   1D3
  8
0
  6
CONTINUOUS
 62
     5
 10
-40.4401990637007
 20
-142.157838194199
 30
0.0
 11
-40.9611434936523
 21
-139.203414916992
 31
0.0
  0
LINE
  5
   1D4
  8
0
  6
CONTINUOUS
 62
     5
 10
-40.9611434936523
 20
-139.203414916992
 30
0.0
 11
-41.482087923604
 21
-142.157838194199
 31
0.0
  0
LINE
  5
   1D5
  8
0
  6
CONTINUOUS
 62
     5
 10
-41.482087923604
 20
-154.186491639785
 30
0.0
 11
-40.9611434936523
 21
-157.140914916992
 31
0.0
  0
LINE
  5
   1D6
  8
0
  6
CONTINUOUS
 62
     5
 10
-40.9611434936523
 20
-157.140914916992
 30
0.0
 11
-40.4401990637007
 21
-154.186491639785
 31
0.0
  0
ENDBLK
  5
   1D7
  8
0
  6
CONTINUOUS
 62
     5
  0
BLOCK
  5
   1D8
  8
0
  6
CONTINUOUS
 62
     7
  2
*UDIM1655
 70
    65
 10
0.0
 20
0.0
 30
0.0
  3
*UDIM1655
  0
TEXT
  5
   1D9
  8
0
  6
CONTINUOUS
 62
     7
 10
-62.5553305303547
 20
-190.297481357677
 30
0.0
 40
3.00000002980232
  1
5,5
 50
383.748266401785
 41
0.933333333333333
 72
     1
 11
-59.5896467015935
 21
-187.353891750629
 31
0.0
 73
     2
  0
TEXT
  5
   1DA
  8
0
  6
CONTINUOUS
 62
     7
 10
-65.4386000786153
 20
-191.566046206102
 30
0.0
 40
3.00000002980232
  1
Ø
 50
383.748266401785
 41
0.933333333333334
 72
     1
 11
-65.0358225362044
 21
-189.750069796543
 31
0.0
 73
     2
  0
TEXT
  5
   1DB
  8
0
  6
CONTINUOUS
 62
     7
 10
-54.9123778571994
 20
-186.934777694105
 30
0.0
 40
3.00000002980232
  1
 - M5
 50
383.748266401785
 41
0.933333333333333
 72
     1
 11
-49.3837877420879
 21
-182.863574889566
 31
0.0
 73
     2
  0
LINE
  5
   1DC
  8
0
  6
CONTINUOUS
 62
     7
 10
-22.2951591796942
 20
-173.676545606721
 30
0.0
 11
-65.0358810785727
 21
-192.481369870705
 31
0.0
  0
LINE
  5
   1DD
  8
0
  6
CONTINUOUS
 62
     7
 10
-19.8006998591597
 20
-172.009910464226
 30
0.0
 11
-22.2951591796942
 21
-173.676545606721
 31
0.0
  0
LINE
  5
   1DE
  8
0
  6
CONTINUOUS
 62
     7
 10
-22.2951591796942
 20
-173.676545606721
 30
0.0
 11
-19.3811114227658
 21
-172.963575992824
 31
0.0
  0
LINE
  5
   1DF
  8
0
  6
CONTINUOUS
 62
     7
 10
-26.0481885380571
 20
-175.896919369758
 30
0.0
 11
-23.5537292175226
 21
-174.230284227264
 31
0.0
  0
LINE
  5
   1E0
  8
0
  6
CONTINUOUS
 62
     7
 10
-23.5537292175226
 20
-174.230284227264
 30
0.0
 11
-26.467776974451
 21
-174.943253841161
 31
0.0
  0
ENDBLK
  5
   1E1
  8
0
  6
CONTINUOUS
 62
     7
  0
BLOCK
  5
   1E2
  8
0
  6
CONTINUOUS
 62
     7
  2
*UDIM1656
 70
    65
 10
0.0
 20
0.0
 30
0.0
  3
*UDIM1656
  0
TEXT
  5
   1E3
  8
0
  6
CONTINUOUS
 62
     7
 10
1.21582791434589
 20
-150.406673426874
 30
0.0
 40
3.00000002980232
  1
35
 50
359.999999896069
 41
0.933333333333333
 72
     1
 11
3.71582794189453
 21
-148.906673416495
 31
0.0
 73
     2
  0
LINE
  5
   1E4
  8
0
  6
CONTINUOUS
 62
     7
 10
6.2158279667298
 20
-151.406673431396
 30
0.0
 11
-22.9244441986084
 21
-151.406673431396
 31
0.0
  0
LINE
  5
   1E5
  8
0
  6
CONTINUOUS
 62
     7
 10
-11.2200209214014
 20
-150.885729001445
 30
0.0
 11
-14.1744441986084
 21
-151.406673431396
 31
0.0
  0
LINE
  5
   1E6
  8
0
  6
CONTINUOUS
 62
     7
 10
-14.1744441986084
 20
-151.406673431396
 30
0.0
 11
-11.2200209214014
 21
-151.927617861348
 31
0.0
  0
LINE
  5
   1E7
  8
0
  6
CONTINUOUS
 62
     7
 10
-25.8788674758154
 20
-151.927617861348
 30
0.0
 11
-22.9244441986084
 21
-151.406673431396
 31
0.0
  0
LINE
  5
   1E8
  8
0
  6
CONTINUOUS
 62
     7
 10
-22.9244441986084
 20
-151.406673431396
 30
0.0
 11
-25.8788674758154
 21
-150.885729001445
 31
0.0
  0
ENDBLK
  5
   1E9
  8
0
  6
CONTINUOUS
 62
     7
  0
BLOCK
  5
   1EA
  8
0
  6
CONTINUOUS
 62
     7
  2
*UDIM1657
 70
    65
 10
0.0
 20
0.0
 30
0.0
  3
*UDIM1657
  0
TEXT
  5
   1EB
  8
0
  6
CONTINUOUS
 62
     7
 10
-49.4277210306095
 20
-160.753416375699
 30
0.0
 40
3.00000002980232
  1
139
 50
449.999999896069
 41
0.933333333333333
 72
     1
 11
-50.9277210384607
 21
-156.853416334244
 31
0.0
 73
     2
  0
LINE
  5
   1EC
  8
0
  6
CONTINUOUS
 62
     7
 10
-28.1005818171976
 20
-139.203414603076
 30
0.0
 11
-50.4277210235595
 21
-139.203407594219
 31
0.0
  0
LINE
  5
   1ED
  8
0
  6
CONTINUOUS
 62
     7
 10
-28.1005818171976
 20
-173.953414603076
 30
0.0
 11
-50.4277210235595
 21
-173.953407594219
 31
0.0
  0
LINE
  5
   1EE
  8
0
  6
CONTINUOUS
 62
     7
 10
-48.4277210235596
 20
-139.203408222052
 30
0.0
 11
-48.4277210235596
 21
-173.953408222052
 31
0.0
  0
LINE
  5
   1EF
  8
0
  6
CONTINUOUS
 62
     7
 10
-47.9067765936079
 20
-142.157831499259
 30
0.0
 11
-48.4277210235596
 21
-139.203408222052
 31
0.0
  0
LINE
  5
   1F0
  8
0
  6
CONTINUOUS
 62
     7
 10
-48.4277210235596
 20
-139.203408222052
 30
0.0
 11
-48.9486654535112
 21
-142.157831499259
 31
0.0
  0
LINE
  5
   1F1
  8
0
  6
CONTINUOUS
 62
     7
 10
-48.9486654535112
 20
-170.998984944845
 30
0.0
 11
-48.4277210235596
 21
-173.953408222052
 31
0.0
  0
LINE
  5
   1F2
  8
0
  6
CONTINUOUS
 62
     7
 10
-48.4277210235596
 20
-173.953408222052
 30
0.0
 11
-47.9067765936079
 21
-170.998984944845
 31
0.0
  0
ENDBLK
  5
   1F3
  8
0
  6
CONTINUOUS
 62
     7
  0
BLOCK
  5
   1F4
  8
0
  6
CONTINUOUS
 62
     7
  2
*UDIM1658
 70
    65
 10
0.0
 20
0.0
 30
0.0
  3
*UDIM1658
  0
TEXT
  5
   1F5
  8
0
  6
CONTINUOUS
 62
     7
 10
215.448287649807
 20
-22.863502129747
 30
0.0
 40
3.00000002980232
  1
7
 50
397.208926617964
 41
0.933333333333334
 72
     1
 11
215.417282124251
 21
-21.0036530159399
 31
0.0
 73
     2
  0
TEXT
  5
   1F6
  8
0
  6
CONTINUOUS
 62
     7
 10
212.939515152717
 20
-24.7683802414454
 30
0.0
 40
3.00000002980232
  1
Ø
 50
397.208926617964
 41
0.933333333333334
 72
     1
 11
212.908509627161
 21
-22.9085311276383
 31
0.0
 73
     2
  0
LINE
  5
   1F7
  8
0
  6
CONTINUOUS
 62
     7
 10
231.772534323166
 20
-11.7243094803087
 30
0.0
 11
213.544238365923
 21
-25.5648159522115
 31
0.0
  0
LINE
  5
   1F8
  8
0
  6
CONTINUOUS
 62
     7
 10
233.81051533915
 20
-9.5228024104837
 30
0.0
 11
231.772534323166
 21
-11.7243094803087
 31
0.0
  0
LINE
  5
   1F9
  8
0
  6
CONTINUOUS
 62
     7
 10
231.772534323166
 20
-11.7243094803087
 30
0.0
 11
234.440569713052
 21
-10.3525999052479
 31
0.0
  0
LINE
  5
   1FA
  8
0
  6
CONTINUOUS
 62
     7
 10
228.340790813194
 20
-14.9840821644064
 30
0.0
 11
230.378771829178
 21
-12.7825750945814
 31
0.0
  0
LINE
  5
   1FB
  8
0
  6
CONTINUOUS
 62
     7
 10
230.378771829178
 20
-12.7825750945814
 30
0.0
 11
227.710736439291
 21
-14.1542846696423
 31
0.0
  0
ENDBLK
  5
   1FC
  8
0
  6
CONTINUOUS
 62
     7
  0
BLOCK
  5
   1FD
  8
0
  6
CONTINUOUS
 62
     7
  2
*UDIM1659
 70
    65
 10
0.0
 20
0.0
 30
0.0
  3
*UDIM1659
  0
TEXT
  5
   1FE
  8
0
  6
CONTINUOUS
 62
     7
 10
236.900653027395
 20
44.622019301516
 30
0.0
 40
3.00000002980232
  1
112
 50
359.999999844103
 41
0.933333333333333
 72
     1
 11
240.800653070211
 21
46.1220193058252
 31
0.0
 73
     2
  0
LINE
  5
   1FF
  8
0
  6
CONTINUOUS
 62
     7
 10
227.075653076172
 20
20.4965577125549
 30
0.0
 11
227.075653076172
 21
45.6220192909241
 31
0.0
  0
LINE
  5
   200
  8
0
  6
CONTINUOUS
 62
     7
 10
255.075653076172
 20
20.4965577125549
 30
0.0
 11
255.075653076172
 21
45.6220192909241
 31
0.0
  0
LINE
  5
   201
  8
0
  6
CONTINUOUS
 62
     7
 10
227.075653076172
 20
43.6220192909241
 30
0.0
 11
255.075653076172
 21
43.6220192909241
 31
0.0
  0
LINE
  5
   202
  8
0
  6
CONTINUOUS
 62
     7
 10
230.030076353379
 20
44.1429637208757
 30
0.0
 11
227.075653076172
 21
43.6220192909241
 31
0.0
  0
LINE
  5
   203
  8
0
  6
CONTINUOUS
 62
     7
 10
227.075653076172
 20
43.6220192909241
 30
0.0
 11
230.030076353379
 21
43.1010748609724
 31
0.0
  0
LINE
  5
   204
  8
0
  6
CONTINUOUS
 62
     7
 10
252.121229798965
 20
43.1010748609724
 30
0.0
 11
255.075653076172
 21
43.6220192909241
 31
0.0
  0
LINE
  5
   205
  8
0
  6
CONTINUOUS
 62
     7
 10
255.075653076172
 20
43.6220192909241
 30
0.0
 11
252.121229798965
 21
44.1429637208757
 31
0.0
  0
ENDBLK
  5
   206
  8
0
  6
CONTINUOUS
 62
     7
  0
BLOCK
  5
   207
  8
0
  6
CONTINUOUS
 62
     7
  2
*UDIM1660
 70
    65
 10
0.0
 20
0.0
 30
0.0
  3
*UDIM1660
  0
TEXT
  5
   208
  8
0
  6
CONTINUOUS
 62
     7
 10
238.300653041302
 20
36.4425492354579
 30
0.0
 40
3.00000002980232
  1
80
 50
359.999999844103
 41
0.933333333333333
 72
     1
 11
240.800653070211
 21
37.9425492435694
 31
0.0
 73
     2
  0
LINE
  5
   209
  8
0
  6
CONTINUOUS
 62
     7
 10
231.075653076172
 20
25.8715577125549
 30
0.0
 11
231.075653076172
 21
37.4425492286682
 31
0.0
  0
LINE
  5
   20A
  8
0
  6
CONTINUOUS
 62
     7
 10
251.075653076172
 20
25.8715577125549
 30
0.0
 11
251.075653076172
 21
37.4425492286682
 31
0.0
  0
LINE
  5
   20B
  8
0
  6
CONTINUOUS
 62
     7
 10
231.075653076172
 20
35.4425492286682
 30
0.0
 11
251.075653076172
 21
35.4425492286682
 31
0.0
  0
LINE
  5
   20C
  8
0
  6
CONTINUOUS
 62
     7
 10
234.030076353379
 20
35.9634936586199
 30
0.0
 11
231.075653076172
 21
35.4425492286682
 31
0.0
  0
LINE
  5
   20D
  8
0
  6
CONTINUOUS
 62
     7
 10
231.075653076172
 20
35.4425492286682
 30
0.0
 11
234.030076353379
 21
34.9216047987166
 31
0.0
  0
LINE
  5
   20E
  8
0
  6
CONTINUOUS
 62
     7
 10
248.121229798965
 20
34.9216047987166
 30
0.0
 11
251.075653076172
 21
35.4425492286682
 31
0.0
  0
LINE
  5
   20F
  8
0
  6
CONTINUOUS
 62
     7
 10
251.075653076172
 20
35.4425492286682
 30
0.0
 11
248.121229798965
 21
35.9634936586199
 31
0.0
  0
ENDBLK
  5
   210
  8
0
  6
CONTINUOUS
 62
     7
  0
BLOCK
  5
   211
  8
0
  6
CONTINUOUS
 62
     7
  2
*UDIM1661
 70
    65
 10
0.0
 20
0.0
 30
0.0
  3
*UDIM1661
  0
TEXT
  5
   212
  8
0
  6
CONTINUOUS
 62
     7
 10
200.054912556552
 20
1.3215576637795
 30
0.0
 40
3.00000002980232
  1
142
 50
449.999999844103
 41
0.933333333333333
 72
     1
 11
198.554912552238
 21
5.22155770659447
 31
0.0
 73
     2
  0
LINE
  5
   213
  8
0
  6
CONTINUOUS
 62
     7
 10
228.450653076172
 20
23.2465577125549
 30
0.0
 11
199.054912567139
 21
23.2465577125549
 31
0.0
  0
LINE
  5
   214
  8
0
  6
CONTINUOUS
 62
     7
 10
228.450653076172
 20
-12.2534422874451
 30
0.0
 11
199.054912567139
 21
-12.2534422874451
 31
0.0
  0
LINE
  5
   215
  8
0
  6
CONTINUOUS
 62
     7
 10
201.054912567139
 20
23.2465577125549
 30
0.0
 11
201.054912567139
 21
-12.2534422874451
 31
0.0
  0
LINE
  5
   216
  8
0
  6
CONTINUOUS
 62
     7
 10
201.57585699709
 20
20.292134435348
 30
0.0
 11
201.054912567139
 21
23.2465577125549
 31
0.0
  0
LINE
  5
   217
  8
0
  6
CONTINUOUS
 62
     7
 10
201.054912567139
 20
23.2465577125549
 30
0.0
 11
200.533968137187
 21
20.292134435348
 31
0.0
  0
LINE
  5
   218
  8
0
  6
CONTINUOUS
 62
     7
 10
200.533968137187
 20
-9.2990190102381
 30
0.0
 11
201.054912567139
 21
-12.2534422874451
 31
0.0
  0
LINE
  5
   219
  8
0
  6
CONTINUOUS
 62
     7
 10
201.054912567139
 20
-12.2534422874451
 30
0.0
 11
201.57585699709
 21
-9.2990190102381
 31
0.0
  0
ENDBLK
  5
   21A
  8
0
  6
CONTINUOUS
 62
     7
  0
BLOCK
  5
   21B
  8
0
  6
CONTINUOUS
 62
     7
  2
*UDIM1662
 70
    65
 10
0.0
 20
0.0
 30
0.0
  3
*UDIM1662
  0
TEXT
  5
   21C
  8
0
  6
CONTINUOUS
 62
     7
 10
209.427221287631
 20
1.3215576637795
 30
0.0
 40
3.00000002980232
  1
112
 50
449.999999844103
 41
0.933333333333333
 72
     1
 11
207.927221283317
 21
5.22155770659447
 31
0.0
 73
     2
  0
LINE
  5
   21D
  8
0
  6
CONTINUOUS
 62
     7
 10
226.075653076172
 20
19.4965577125549
 30
0.0
 11
208.427221298218
 21
19.4965577125549
 31
0.0
  0
LINE
  5
   21E
  8
0
  6
CONTINUOUS
 62
     7
 10
226.075653076172
 20
-8.50344228744507
 30
0.0
 11
208.427221298218
 21
-8.50344228744507
 31
0.0
  0
LINE
  5
   21F
  8
0
  6
CONTINUOUS
 62
     7
 10
210.427221298218
 20
19.4965577125549
 30
0.0
 11
210.427221298218
 21
-8.50344228744507
 31
0.0
  0
LINE
  5
   220
  8
0
  6
CONTINUOUS
 62
     7
 10
210.948165728169
 20
16.542134435348
 30
0.0
 11
210.427221298218
 21
19.4965577125549
 31
0.0
  0
LINE
  5
   221
  8
0
  6
CONTINUOUS
 62
     7
 10
210.427221298218
 20
19.4965577125549
 30
0.0
 11
209.906276868266
 21
16.542134435348
 31
0.0
  0
LINE
  5
   222
  8
0
  6
CONTINUOUS
 62
     7
 10
209.906276868266
 20
-5.5490190102381
 30
0.0
 11
210.427221298218
 21
-8.50344228744507
 31
0.0
  0
LINE
  5
   223
  8
0
  6
CONTINUOUS
 62
     7
 10
210.427221298218
 20
-8.50344228744507
 30
0.0
 11
210.948165728169
 21
-5.5490190102381
 31
0.0
  0
ENDBLK
  5
   224
  8
0
  6
CONTINUOUS
 62
     7
  0
ENDSEC
  0
SECTION
  2
ENTITIES
  0
LINE
  5
   225
  8
0
  6
CONTINUOUS
 62
     7
 10
-28.174461755691
 20
6.79772284520303
 30
0.0
 11
-43.0494588682065
 21
6.79772284520303
 31
0.0
  0
LINE
  5
   226
  8
0
  6
CONTINUOUS
 62
     7
 10
-25.2809608699263
 20
6.79772284520303
 30
0.0
 11
-26.424461755691
 21
6.79772284520303
 31
0.0
  0
LINE
  5
   227
  8
0
  6
CONTINUOUS
 62
     7
 10
-43.5494588682065
 20
5.39772131932412
 30
0.0
 11
-43.5494588682065
 21
6.29772284520303
 31
0.0
  0
LINE
  5
   228
  8
0
  6
CONTINUOUS
 62
     7
 10
-43.5494588682065
 20
5.39772131932413
 30
0.0
 11
-44.7994588682065
 21
5.39772131932413
 31
0.0
  0
LINE
  5
   229
  8
0
  6
CONTINUOUS
 62
     7
 10
-44.7994644902753
 20
3.42272665989837
 30
0.0
 11
-44.7994644902753
 21
5.39772131932424
 31
0.0
  0
LINE
  5
   22A
  8
0
  6
CONTINUOUS
 62
     7
 10
-43.5494588682065
 20
-77.702277154797
 30
0.0
 11
-43.5494588682065
 21
-77.077271432753
 31
0.0
  0
LINE
  5
   22B
  8
0
  6
CONTINUOUS
 62
     7
 10
-28.174461755691
 20
-78.2022771547971
 30
0.0
 11
-43.0494588682064
 21
-78.2022771547971
 31
0.0
  0
LINE
  5
   22C
  8
0
  6
CONTINUOUS
 62
     7
 10
-10.6744266415258
 20
-78.2022771547969
 30
0.0
 11
-26.424461755691
 21
-78.2022771547969
 31
0.0
  0
LINE
  5
   22D
  8
0
  6
CONTINUOUS
 62
     7
 10
5.95054113179355
 20
-78.2022771547976
 30
0.0
 11
-8.92442664152575
 21
-78.2022771547976
 31
0.0
  0
LINE
  5
   22E
  8
0
  6
CONTINUOUS
 62
     7
 10
6.45054113179355
 20
-77.702277154797
 30
0.0
 11
6.45054113179355
 21
-77.077271432753
 31
0.0
  0
LINE
  5
   22F
  8
0
  6
CONTINUOUS
 62
     7
 10
-26.049461755691
 20
3.54772284520303
 30
0.0
 11
-28.549461755691
 21
3.54772284520303
 31
0.0
  0
LINE
  5
   230
  8
0
  6
CONTINUOUS
 62
     7
 10
-43.5494618320424
 20
3.42272665989837
 30
0.0
 11
-43.5494618320424
 21
5.39772131932423
 31
0.0
  0
CIRCLE
  5
   231
  8
0
  6
DOT
 62
     7
 10
-36.0494591737963
 20
0.547718294418857
 30
0.0
 40
2.75000069115123
  0
CIRCLE
  5
   232
  8
0
  6
CONTINUOUS
 62
     7
 10
-36.049461560986
 20
4.79772750357118
 30
0.0
 40
0.700002264523652
  0
ARC
  5
   233
  8
0
  6
CONTINUOUS
 62
     7
 10
-43.0494575927383
 20
6.29772341136801
 30
0.0
 40
0.500001995564727
 50
90.0000472185487
 51
180.000478784316
  0
CIRCLE
  5
   234
  8
0
  6
DOT
 62
     7
 10
-36.0494508324259
 20
-71.9522754511134
 30
0.0
 40
2.74999844531425
  0
CIRCLE
  5
   235
  8
0
  6
DOT
 62
     7
 10
-27.2994528262869
 20
-70.4522760852693
 30
0.0
 40
2.24999899340852
  0
CIRCLE
  5
   236
  8
0
  6
DOT
 62
     7
 10
-18.549455274949
 20
-71.9522777656953
 30
0.0
 40
2.7499985235645
  0
ARC
  5
   237
  8
0
  6
CONTINUOUS
 62
     7
 10
-43.0494587475721
 20
-77.702277102955
 30
0.0
 40
0.500000053060852
 50
180.000006024791
 51
269.999989483217
  0
CIRCLE
  5
   238
  8
0
  6
DOT
 62
     7
 10
-9.79945143118462
 20
-70.4522887730033
 30
0.0
 40
2.24998966947475
  0
CIRCLE
  5
   239
  8
0
  6
DOT
 62
     7
 10
-1.04942262875982
 20
-71.9523376207515
 30
0.0
 40
2.7500660479039
  0
ARC
  5
   23A
  8
0
  6
CONTINUOUS
 62
     7
 10
5.95054513548402
 20
-77.7022815760868
 30
0.0
 40
0.49999520193586
 50
269.999767510228
 51
360.00047760375
  0
LINE
  5
   23B
  8
0
  6
DASHDOT
 62
     7
 10
-36.049461560986
 20
2.59772523904753
 30
0.0
 11
-36.049461560986
 21
6.99772976809483
 31
0.0
  0
LINE
  5
   23C
  8
0
  6
DASHDOT
 62
     7
 10
-33.8494592964624
 20
4.79772750357119
 30
0.0
 11
-38.2494638255097
 21
4.79772750357119
 31
0.0
  0
LINE
  5
   23D
  8
0
  6
DASHDOT
 62
     7
 10
-36.0494591737963
 20
-3.70228239673237
 30
0.0
 11
-36.0494591737963
 21
4.79771898557009
 31
0.0
  0
LINE
  5
   23E
  8
0
  6
DASHDOT
 62
     7
 10
-31.799458482645
 20
0.547718294418864
 30
0.0
 11
-40.2994598649475
 21
0.547718294418864
 31
0.0
  0
LINE
  5
   23F
  8
0
  6
DASHDOT
 62
     7
 10
-27.299461755691
 20
-4.70227180853485
 30
0.0
 11
-27.299461755691
 21
7.97953128049306
 31
0.0
  0
LINE
  5
   240
  8
0
  6
DASHDOT
 62
     7
 10
-36.0494508324259
 20
-76.2022738964276
 30
0.0
 11
-36.0494508324259
 21
-67.7022770057992
 31
0.0
  0
LINE
  5
   241
  8
0
  6
DASHDOT
 62
     7
 10
-31.7994523871117
 20
-71.9522754511134
 30
0.0
 11
-40.2994492777402
 21
-71.9522754511134
 31
0.0
  0
LINE
  5
   242
  8
0
  6
DASHDOT
 62
     7
 10
-27.2994528262869
 20
-79.4158638052743
 30
0.0
 11
-27.2994528262869
 21
-66.7022770918608
 31
0.0
  0
LINE
  5
   243
  8
0
  6
DASHDOT
 62
     7
 10
-23.5494538328784
 20
-70.4522760852693
 30
0.0
 11
-31.0494518196954
 21
-70.4522760852693
 31
0.0
  0
LINE
  5
   244
  8
0
  6
DASHDOT
 62
     7
 10
-14.2994567513845
 20
-71.9522777656953
 30
0.0
 11
-22.7994537985135
 21
-71.9522777656953
 31
0.0
  0
LINE
  5
   245
  8
0
  6
DASHDOT
 62
     7
 10
-6.04946176170987
 20
-70.4522887730033
 30
0.0
 11
-13.5494411006594
 21
-70.4522887730033
 31
0.0
  0
LINE
  5
   246
  8
0
  6
DASHDOT
 62
     7
 10
-1.04942262875983
 20
-76.2024036686554
 30
0.0
 11
-1.04942262875983
 21
-67.7022715728476
 31
0.0
  0
LINE
  5
   247
  8
0
  6
DASHDOT
 62
     7
 10
3.20064341914408
 20
-71.9523376207515
 30
0.0
 11
-5.29948867666373
 21
-71.9523376207515
 31
0.0
  0
LINE
  5
   248
  8
0
  6
DASHDOT
 62
     7
 10
-1.04944907426657
 20
-78.4022714767006
 30
0.0
 11
-1.04944907426657
 21
-74.0022789544635
 31
0.0
  0
LINE
  5
   249
  8
0
  6
DASHDOT
 62
     7
 10
-36.0494525293041
 20
-78.4022770024564
 30
0.0
 11
-36.0494525293041
 21
-74.0022768008298
 31
0.0
  0
LINE
  5
   24A
  8
0
  6
CONTINUOUS
 62
     3
 10
7.45054817199707
 20
-10.5772733401016
 30
0.0
 11
-44.5494441986084
 21
-10.5772733401016
 31
0.0
  0
LINE
  5
   24B
  8
0
  6
CONTINUOUS
 62
     3
 10
7.45054817199708
 20
-63.0772657107068
 30
0.0
 11
0.7005482017994
 21
-63.0772657107068
 31
0.0
  0
LINE
  5
   24C
  8
0
  6
CONTINUOUS
 62
     3
 10
-5.04945182800292
 20
-63.0772657107073
 30
0.0
 11
-17.3248047763685
 21
-63.0772657107073
 31
0.0
  0
LINE
  5
   24D
  8
0
  6
CONTINUOUS
 62
     3
 10
-37.7994441986084
 20
-63.0772657107206
 30
0.0
 11
-44.5494441986084
 21
-63.0772657107206
 31
0.0
  0
LINE
  5
   24E
  8
0
  6
CONTINUOUS
 62
     3
 10
-32.0494441986084
 20
-63.0772657107086
 30
0.0
 11
-37.7994441986084
 21
-63.0772657107086
 31
0.0
  0
LINE
  5
   24F
  8
0
  6
CONTINUOUS
 62
     3
 10
0.700548171997077
 20
-63.0772657107068
 30
0.0
 11
-5.04945182800292
 21
-63.0772657107068
 31
0.0
  0
LINE
  5
   250
  8
0
  6
DASHDOT
 62
     7
 10
-18.5494441986084
 20
-72.1378641203047
 30
0.0
 11
-18.5494441986084
 21
-20.4902295354844
 31
0.0
  0
ARC
  5
   251
  8
0
  6
CONTINUOUS
 62
     3
 10
-44.5494441986084
 20
-62.8272657107206
 30
0.0
 40
0.25
 50
179.999999948034
 51
269.999999948034
  0
ARC
  5
   252
  8
0
  6
CONTINUOUS
 62
     3
 10
-44.5494441986084
 20
-10.8272733401016
 30
0.0
 40
0.25
 50
449.999999948034
 51
539.999999948034
  0
ARC
  5
   253
  8
0
  6
CONTINUOUS
 62
     3
 10
7.45054817199707
 20
-10.8272733401016
 30
0.0
 40
0.25
 50
359.999999948034
 51
449.999999948034
  0
ARC
  5
   254
  8
0
  6
CONTINUOUS
 62
     3
 10
7.45054817199707
 20
-62.8272657107068
 30
0.0
 40
0.25
 50
269.999999948034
 51
359.999999948034
  0
LINE
  5
   255
  8
0
  6
DASHDOT
 62
     7
 10
-18.5494441986084
 20
-17.6006123045663
 30
0.0
 11
-18.5494441986084
 21
-3.14548726968666
 31
0.0
  0
LINE
  5
   256
  8
0
  6
CONTINUOUS
 62
     3
 10
-19.774169324516
 20
-63.0772657107073
 30
0.0
 11
-32.0494441986084
 21
-63.0772657107073
 31
0.0
  0
LINE
  5
   257
  8
0
  6
CONTINUOUS
 62
     7
 10
-32.2994518280029
 20
-63.0772733401016
 30
0.0
 11
-37.2994441986084
 21
-63.0772733401016
 31
0.0
  0
LINE
  5
   258
  8
0
  6
CONTINUOUS
 62
     7
 10
0.200540542602546
 20
-63.0772733401016
 30
0.0
 11
-4.79945945739745
 21
-63.0772733401016
 31
0.0
  0
LINE
  5
   259
  8
0
  6
CONTINUOUS
 62
     7
 10
7.70055580139161
 20
-62.8272733401016
 30
0.0
 11
7.70055580139161
 21
-53.8272809694962
 31
0.0
  0
LINE
  5
   25A
  8
0
  6
CONTINUOUS
 62
     7
 10
-44.7994441986084
 20
-62.8272733401016
 30
0.0
 11
-44.7994441986084
 21
-53.8272809694962
 31
0.0
  0
LINE
  5
   25B
  8
0
  6
CONTINUOUS
 62
     7
 10
7.4505558013916
 20
-10.5772733401016
 30
0.0
 11
-44.5494441985945
 21
-10.5772733401016
 31
0.0
  0
LINE
  5
   25C
  8
0
  6
CONTINUOUS
 62
     7
 10
-37.2994441986084
 20
-63.0772733401016
 30
0.0
 11
-44.5494441986084
 21
-63.0772733401016
 31
0.0
  0
LINE
  5
   25D
  8
0
  6
CONTINUOUS
 62
     7
 10
-4.79945945739745
 20
-63.0772733401016
 30
0.0
 11
-32.2994518280029
 21
-63.0772733401016
 31
0.0
  0
LINE
  5
   25E
  8
0
  6
CONTINUOUS
 62
     7
 10
7.45055580139161
 20
-63.0772733401016
 30
0.0
 11
0.200540542602546
 21
-63.0772733401016
 31
0.0
  0
LINE
  5
   25F
  8
0
  6
CONTINUOUS
 62
     7
 10
-13.1744441986084
 20
-51.9522809694962
 30
0.0
 11
-13.1744441986084
 21
-31.9522885988907
 31
0.0
  0
LINE
  5
   260
  8
0
  6
CONTINUOUS
 62
     7
 10
-23.9244441986084
 20
-51.9522809694962
 30
0.0
 11
-23.9244441986084
 21
-31.9522885988907
 31
0.0
  0
LINE
  5
   261
  8
0
  6
CONTINUOUS
 62
     7
 10
7.7005558013916
 20
-16.5772885988907
 30
0.0
 11
-44.7994441986084
 21
-16.5772885988907
 31
0.0
  0
LINE
  5
   262
  8
0
  6
CONTINUOUS
 62
     7
 10
7.7005558013916
 20
-11.5772885988907
 30
0.0
 11
-44.7994441986084
 21
-11.5772885988907
 31
0.0
  0
LINE
  5
   263
  8
0
  6
CONTINUOUS
 62
     7
 10
-13.1744441986084
 20
-32.0845212649063
 30
0.0
 11
-23.9244441986084
 21
-32.0845212649063
 31
0.0
  0
LINE
  5
   264
  8
0
  6
CONTINUOUS
 62
     7
 10
-13.1744441986084
 20
-31.9522885988907
 30
0.0
 11
-23.9244441986084
 21
-31.9522885988907
 31
0.0
  0
LINE
  5
   265
  8
0
  6
CONTINUOUS
 62
     7
 10
-13.1744441986084
 20
-51.9522809694962
 30
0.0
 11
-23.9244441986084
 21
-51.9522809694962
 31
0.0
  0
LINE
  5
   266
  8
0
  6
CONTINUOUS
 62
     7
 10
-13.1744441986084
 20
-51.8200330446915
 30
0.0
 11
-23.9244441986084
 21
-51.8200330446915
 31
0.0
  0
LINE
  5
   267
  8
0
  6
DASHDOT
 62
     7
 10
-18.5494441986084
 20
-101.454338205955
 30
0.0
 11
-18.5494441986084
 21
-21.4760711962567
 31
0.0
  0
LINE
  5
   268
  8
0
  6
CONTINUOUS
 62
     7
 10
7.70054817199707
 20
-53.3272809694962
 30
0.0
 11
7.70054817199707
 21
-47.3272849461154
 31
0.0
  0
LINE
  5
   269
  8
0
  6
CONTINUOUS
 62
     7
 10
7.70054817199707
 20
-30.0772809694962
 30
0.0
 11
7.70054817199707
 21
-10.8272733401016
 31
0.0
  0
LINE
  5
   26A
  8
0
  6
CONTINUOUS
 62
     7
 10
7.70054817199707
 20
-46.8272849461154
 30
0.0
 11
7.70054817199707
 21
-37.0772809694962
 31
0.0
  0
LINE
  5
   26B
  8
0
  6
CONTINUOUS
 62
     7
 10
7.70054817199707
 20
-36.5772809694962
 30
0.0
 11
7.70054817199707
 21
-30.5772809694962
 31
0.0
  0
LINE
  5
   26C
  8
0
  6
CONTINUOUS
 62
     7
 10
-44.7994441986109
 20
-53.3272809694962
 30
0.0
 11
-44.7994441986109
 21
-47.3272809694951
 31
0.0
  0
LINE
  5
   26D
  8
0
  6
CONTINUOUS
 62
     7
 10
-44.7994441986199
 20
-46.827280969495
 30
0.0
 11
-44.7994441986199
 21
-37.0772809694962
 31
0.0
  0
LINE
  5
   26E
  8
0
  6
CONTINUOUS
 62
     7
 10
-44.7994441986058
 20
-36.5772809694962
 30
0.0
 11
-44.7994441986058
 21
-30.5772809694962
 31
0.0
  0
LINE
  5
   26F
  8
0
  6
CONTINUOUS
 62
     7
 10
-44.7994441985945
 20
-30.0772809694962
 30
0.0
 11
-44.7994441985945
 21
-10.8272733401016
 31
0.0
  0
LINE
  5
   270
  8
0
  6
CONTINUOUS
 62
     7
 10
-23.9244481854704
 20
-47.327271351784
 30
0.0
 11
-44.2994442284107
 21
-47.327271351784
 31
0.0
  0
LINE
  5
   271
  8
0
  6
CONTINUOUS
 62
     7
 10
7.70054817199707
 20
-47.3272753284072
 30
0.0
 11
7.20054817199707
 21
-47.3272753284072
 31
0.0
  0
LINE
  5
   272
  8
0
  6
CONTINUOUS
 62
     7
 10
-23.9244579650145
 20
-46.8272713517811
 30
0.0
 11
-44.2994442284107
 21
-46.8272713517811
 31
0.0
  0
LINE
  5
   273
  8
0
  6
CONTINUOUS
 62
     7
 10
7.70054817199706
 20
-46.8272753284072
 30
0.0
 11
7.20054817199707
 21
-46.8272753284072
 31
0.0
  0
LINE
  5
   274
  8
0
  6
CONTINUOUS
 62
     7
 10
-44.2994442284107
 20
-47.3272809694962
 30
0.0
 11
-44.2994442284107
 21
-46.8272809694962
 31
0.0
  0
LINE
  5
   275
  8
0
  6
CONTINUOUS
 62
     7
 10
7.20054817199707
 20
-47.3272809694962
 30
0.0
 11
7.20054817199707
 21
-46.8272809694962
 31
0.0
  0
LINE
  5
   276
  8
0
  6
CONTINUOUS
 62
     7
 10
7.70055580139161
 20
-53.8272809694962
 30
0.0
 11
7.20054817199707
 21
-53.8272809694962
 31
0.0
  0
LINE
  5
   277
  8
0
  6
CONTINUOUS
 62
     7
 10
7.70054817199708
 20
-53.3272809694962
 30
0.0
 11
7.20054817199707
 21
-53.3272809694962
 31
0.0
  0
LINE
  5
   278
  8
0
  6
CONTINUOUS
 62
     7
 10
-44.2994442284107
 20
-53.8272809694962
 30
0.0
 11
-44.2994442284107
 21
-53.3272809694962
 31
0.0
  0
LINE
  5
   279
  8
0
  6
CONTINUOUS
 62
     7
 10
7.20054817199707
 20
-53.8272809694962
 30
0.0
 11
7.20054817199707
 21
-53.3272809694962
 31
0.0
  0
LINE
  5
   27A
  8
0
  6
CONTINUOUS
 62
     7
 10
7.70054817199707
 20
-30.5772809694962
 30
0.0
 11
7.20054817199707
 21
-30.5772809694962
 31
0.0
  0
LINE
  5
   27B
  8
0
  6
CONTINUOUS
 62
     7
 10
7.70054817199707
 20
-30.0772809694962
 30
0.0
 11
7.20054817199707
 21
-30.0772809694962
 31
0.0
  0
LINE
  5
   27C
  8
0
  6
CONTINUOUS
 62
     7
 10
-44.2994442284107
 20
-30.5772809694962
 30
0.0
 11
-44.2994442284107
 21
-30.0772809694962
 31
0.0
  0
LINE
  5
   27D
  8
0
  6
CONTINUOUS
 62
     7
 10
7.20054817199707
 20
-30.5772809694962
 30
0.0
 11
7.20054817199707
 21
-30.0772809694962
 31
0.0
  0
LINE
  5
   27E
  8
0
  6
CONTINUOUS
 62
     7
 10
-23.9244481623173
 20
-37.0772809694962
 30
0.0
 11
-44.2994442284107
 21
-37.0772809694962
 31
0.0
  0
LINE
  5
   27F
  8
0
  6
CONTINUOUS
 62
     7
 10
7.70054817199707
 20
-37.0772809694962
 30
0.0
 11
7.20054817199707
 21
-37.0772809694962
 31
0.0
  0
LINE
  5
   280
  8
0
  6
CONTINUOUS
 62
     7
 10
-23.9244441986084
 20
-36.5772809694962
 30
0.0
 11
-44.2994442284107
 21
-36.5772809694962
 31
0.0
  0
LINE
  5
   281
  8
0
  6
CONTINUOUS
 62
     7
 10
7.70054817199707
 20
-36.5772809694962
 30
0.0
 11
7.20054817199707
 21
-36.5772809694962
 31
0.0
  0
LINE
  5
   282
  8
0
  6
CONTINUOUS
 62
     7
 10
-44.2994442284107
 20
-37.0772809694962
 30
0.0
 11
-44.2994442284107
 21
-36.5772809694962
 31
0.0
  0
LINE
  5
   283
  8
0
  6
CONTINUOUS
 62
     7
 10
7.20054817199707
 20
-37.0772809694962
 30
0.0
 11
7.20054817199707
 21
-36.5772809694962
 31
0.0
  0
ARC
  5
   284
  8
0
  6
CONTINUOUS
 62
     7
 10
-44.5494441986084
 20
-62.8272733401016
 30
0.0
 40
0.25
 50
179.999999948034
 51
269.999999948034
  0
ARC
  5
   285
  8
0
  6
CONTINUOUS
 62
     7
 10
7.45055580139161
 20
-62.8272733401016
 30
0.0
 40
0.25
 50
269.999999948034
 51
359.999999948034
  0
ARC
  5
   286
  8
0
  6
CONTINUOUS
 62
     7
 10
7.4505558013916
 20
-10.8272733401016
 30
0.0
 40
0.25
 50
359.999999948034
 51
449.999999948034
  0
ARC
  5
   287
  8
0
  6
CONTINUOUS
 62
     7
 10
-44.5494441985945
 20
-10.8272733401016
 30
0.0
 40
0.25
 50
449.999999948034
 51
539.999999948034
  0
LINE
  5
   288
  8
0
  6
CONTINUOUS
 62
     7
 10
-29.7994441986084
 20
-31.3272809694962
 30
0.0
 11
-30.5494441986084
 21
-31.3272809694962
 31
0.0
  0
LINE
  5
   289
  8
0
  6
CONTINUOUS
 62
     7
 10
-29.7994441986084
 20
-35.8272809694962
 30
0.0
 11
-30.5494441986084
 21
-35.8272809694962
 31
0.0
  0
CIRCLE
  5
   28A
  8
0
  6
CONTINUOUS
 62
     7
 10
-30.1744441986084
 20
-50.3272809694962
 30
0.0
 40
2.25
  0
CIRCLE
  5
   28B
  8
0
  6
CONTINUOUS
 62
     7
 10
-30.1744441986084
 20
-50.3272809694962
 30
0.0
 40
1.5
  0
LINE
  5
   28C
  8
0
  6
CONTINUOUS
 62
     7
 10
-30.5494441986084
 20
-35.8272809694962
 30
0.0
 11
-30.5494441986084
 21
-31.3272809694962
 31
0.0
  0
LINE
  5
   28D
  8
0
  6
CONTINUOUS
 62
     7
 10
-29.7994441986084
 20
-35.8272809694962
 30
0.0
 11
-29.7994441986084
 21
-31.3272809694962
 31
0.0
  0
LINE
  5
   28E
  8
0
  6
CONTINUOUS
 62
     7
 10
-25.2994441986084
 20
-53.3272809694962
 30
0.0
 11
-25.2994441986084
 21
-47.3272738249134
 31
0.0
  0
LINE
  5
   28F
  8
0
  6
CONTINUOUS
 62
     7
 10
-11.7994441986084
 20
-53.3272809694962
 30
0.0
 11
-11.7994441986084
 21
-47.3272778015365
 31
0.0
  0
LINE
  5
   290
  8
0
  6
CONTINUOUS
 62
     7
 10
-11.7994441986084
 20
-36.5772809694962
 30
0.0
 11
-11.7994441986084
 21
-30.5772809694962
 31
0.0
  0
LINE
  5
   291
  8
0
  6
CONTINUOUS
 62
     7
 10
-25.2994441986084
 20
-36.5772809694962
 30
0.0
 11
-25.2994441986084
 21
-30.5772809694962
 31
0.0
  0
LINE
  5
   292
  8
0
  6
CONTINUOUS
 62
     7
 10
-5.77444908142094
 20
-48.4022809694962
 30
0.0
 11
-5.99944908142094
 21
-48.4022809694962
 31
0.0
  0
LINE
  5
   293
  8
0
  6
CONTINUOUS
 62
     7
 10
-6.24944908142095
 20
-52.2522809694961
 30
0.0
 11
-6.64944908142095
 21
-52.2522809694961
 31
0.0
  0
LINE
  5
   294
  8
0
  6
CONTINUOUS
 62
     7
 10
-9.84944908142092
 20
-50.9522809694961
 30
0.0
 11
-9.84944908142092
 21
-50.7022809694961
 31
0.0
  0
LINE
  5
   295
  8
0
  6
CONTINUOUS
 62
     7
 10
-7.24944908142092
 20
-50.9522809694961
 30
0.0
 11
-7.24944908142092
 21
-50.7022809694961
 31
0.0
  0
ARC
  5
   296
  8
0
  6
CONTINUOUS
 62
     7
 10
-8.54944908142094
 20
-50.7022809694962
 30
0.0
 40
1.3
 50
359.999999948034
 51
539.999999948034
  0
ARC
  5
   297
  8
0
  6
CONTINUOUS
 62
     7
 10
-8.54944908142094
 20
-50.9522809694962
 30
0.0
 40
1.3
 50
179.999999948034
 51
359.999999948034
  0
ARC
  5
   298
  8
0
  6
CONTINUOUS
 62
     7
 10
-8.54944908142094
 20
-50.7022809694962
 30
0.0
 40
0.900000000000001
 50
359.999999948034
 51
539.999999948034
  0
ARC
  5
   299
  8
0
  6
CONTINUOUS
 62
     7
 10
-8.54944908142094
 20
-50.9522809694962
 30
0.0
 40
0.899999999999999
 50
179.999999948034
 51
359.999999948034
  0
LINE
  5
   29A
  8
0
  6
CONTINUOUS
 62
     7
 10
-9.44944908142092
 20
-50.9522809694961
 30
0.0
 11
-9.44944908142092
 21
-50.7022809694961
 31
0.0
  0
LINE
  5
   29B
  8
0
  6
CONTINUOUS
 62
     7
 10
-7.64944908142092
 20
-50.9522809694961
 30
0.0
 11
-7.64944908142092
 21
-50.7022809694961
 31
0.0
  0
LINE
  5
   29C
  8
0
  6
CONTINUOUS
 62
     7
 10
-7.12444908142093
 20
-50.0022809694961
 30
0.0
 11
-7.12444908142093
 21
-49.6022809694961
 31
0.0
  0
LINE
  5
   29D
  8
0
  6
CONTINUOUS
 62
     7
 10
-6.64944908142095
 20
-50.0022809694962
 30
0.0
 11
-7.12444908142094
 21
-50.0022809694962
 31
0.0
  0
LINE
  5
   29E
  8
0
  6
CONTINUOUS
 62
     7
 10
-5.77444908142093
 20
-50.0022809694961
 30
0.0
 11
-5.77444908142093
 21
-49.6022809694961
 31
0.0
  0
LINE
  5
   29F
  8
0
  6
CONTINUOUS
 62
     7
 10
-6.64944908142095
 20
-49.6022809694962
 30
0.0
 11
-7.12444908142094
 21
-49.6022809694962
 31
0.0
  0
LINE
  5
   2A0
  8
0
  6
CONTINUOUS
 62
     7
 10
-6.64944908142093
 20
-52.2522809694961
 30
0.0
 11
-6.64944908142093
 21
-50.0022809694961
 31
0.0
  0
LINE
  5
   2A1
  8
0
  6
CONTINUOUS
 62
     7
 10
-6.24944908142093
 20
-52.2522809694961
 30
0.0
 11
-6.24944908142093
 21
-50.0022809694961
 31
0.0
  0
LINE
  5
   2A2
  8
0
  6
CONTINUOUS
 62
     7
 10
-5.77444908142095
 20
-50.0022809694962
 30
0.0
 11
-6.24944908142094
 21
-50.0022809694962
 31
0.0
  0
LINE
  5
   2A3
  8
0
  6
CONTINUOUS
 62
     7
 10
-5.77444908142094
 20
-49.6022809694962
 30
0.0
 11
-6.24944908142094
 21
-49.6022809694962
 31
0.0
  0
LINE
  5
   2A4
  8
0
  6
CONTINUOUS
 62
     7
 10
-6.64944908142093
 20
-49.6022809694961
 30
0.0
 11
-6.64944908142093
 21
-49.0522809694961
 31
0.0
  0
LINE
  5
   2A5
  8
0
  6
CONTINUOUS
 62
     7
 10
-6.24944908142093
 20
-49.6022809694961
 30
0.0
 11
-6.24944908142093
 21
-49.0522809694961
 31
0.0
  0
ARC
  5
   2A6
  8
0
  6
CONTINUOUS
 62
     7
 10
-5.99944908142094
 20
-49.0522809694962
 30
0.0
 40
0.65
 50
449.999999948034
 51
539.999999948034
  0
ARC
  5
   2A7
  8
0
  6
CONTINUOUS
 62
     7
 10
-5.99944908142094
 20
-49.0522809694962
 30
0.0
 40
0.25
 50
449.999999948034
 51
539.999999948034
  0
LINE
  5
   2A8
  8
0
  6
CONTINUOUS
 62
     7
 10
-5.77444908142093
 20
-48.8022809694961
 30
0.0
 11
-5.77444908142093
 21
-48.4022809694961
 31
0.0
  0
LINE
  5
   2A9
  8
0
  6
CONTINUOUS
 62
     7
 10
-5.77444908142094
 20
-48.8022809694962
 30
0.0
 11
-5.99944908142094
 21
-48.8022809694962
 31
0.0
  0
LINE
  5
   2AA
  8
0
  6
CONTINUOUS
 62
     7
 10
-4.17444908142094
 20
-48.4022809694962
 30
0.0
 11
-4.39944908142095
 21
-48.4022809694962
 31
0.0
  0
LINE
  5
   2AB
  8
0
  6
CONTINUOUS
 62
     7
 10
-4.64944908142095
 20
-52.2522809694961
 30
0.0
 11
-5.04944908142095
 21
-52.2522809694961
 31
0.0
  0
LINE
  5
   2AC
  8
0
  6
CONTINUOUS
 62
     7
 10
-5.52444908142093
 20
-50.0022809694961
 30
0.0
 11
-5.52444908142093
 21
-49.6022809694961
 31
0.0
  0
LINE
  5
   2AD
  8
0
  6
CONTINUOUS
 62
     7
 10
-5.04944908142095
 20
-50.0022809694962
 30
0.0
 11
-5.52444908142095
 21
-50.0022809694962
 31
0.0
  0
LINE
  5
   2AE
  8
0
  6
CONTINUOUS
 62
     7
 10
-4.17444908142093
 20
-50.0022809694961
 30
0.0
 11
-4.17444908142093
 21
-49.6022809694961
 31
0.0
  0
LINE
  5
   2AF
  8
0
  6
CONTINUOUS
 62
     7
 10
-5.04944908142095
 20
-49.6022809694962
 30
0.0
 11
-5.52444908142095
 21
-49.6022809694962
 31
0.0
  0
LINE
  5
   2B0
  8
0
  6
CONTINUOUS
 62
     7
 10
-5.04944908142093
 20
-52.2522809694961
 30
0.0
 11
-5.04944908142093
 21
-50.0022809694961
 31
0.0
  0
LINE
  5
   2B1
  8
0
  6
CONTINUOUS
 62
     7
 10
-4.64944908142093
 20
-52.2522809694961
 30
0.0
 11
-4.64944908142093
 21
-50.0022809694961
 31
0.0
  0
LINE
  5
   2B2
  8
0
  6
CONTINUOUS
 62
     7
 10
-4.17444908142095
 20
-50.0022809694962
 30
0.0
 11
-4.64944908142095
 21
-50.0022809694962
 31
0.0
  0
LINE
  5
   2B3
  8
0
  6
CONTINUOUS
 62
     7
 10
-4.17444908142095
 20
-49.6022809694962
 30
0.0
 11
-4.64944908142095
 21
-49.6022809694962
 31
0.0
  0
LINE
  5
   2B4
  8
0
  6
CONTINUOUS
 62
     7
 10
-5.04944908142093
 20
-49.6022809694961
 30
0.0
 11
-5.04944908142093
 21
-49.0522809694961
 31
0.0
  0
LINE
  5
   2B5
  8
0
  6
CONTINUOUS
 62
     7
 10
-4.64944908142093
 20
-49.6022809694961
 30
0.0
 11
-4.64944908142093
 21
-49.0522809694961
 31
0.0
  0
ARC
  5
   2B6
  8
0
  6
CONTINUOUS
 62
     7
 10
-4.39944908142095
 20
-49.0522809694962
 30
0.0
 40
0.65
 50
449.999999948034
 51
539.999999948034
  0
ARC
  5
   2B7
  8
0
  6
CONTINUOUS
 62
     7
 10
-4.39944908142095
 20
-49.0522809694962
 30
0.0
 40
0.25
 50
449.999999948034
 51
539.999999948034
  0
LINE
  5
   2B8
  8
0
  6
CONTINUOUS
 62
     7
 10
-4.17444908142093
 20
-48.8022809694961
 30
0.0
 11
-4.17444908142093
 21
-48.4022809694961
 31
0.0
  0
LINE
  5
   2B9
  8
0
  6
CONTINUOUS
 62
     7
 10
-4.17444908142094
 20
-48.8022809694962
 30
0.0
 11
-4.39944908142095
 21
-48.8022809694962
 31
0.0
  0
LINE
  5
   2BA
  8
0
  6
CONTINUOUS
 62
     7
 10
-6.44944908142091
 20
-35.0022809694962
 30
0.0
 11
-6.84944908142091
 21
-35.0022809694962
 31
0.0
  0
ARC
  5
   2BB
  8
0
  6
CONTINUOUS
 62
     7
 10
-8.5494490814209
 20
-33.4522809694962
 30
0.0
 40
1.3
 50
359.999999948034
 51
539.999999948034
  0
ARC
  5
   2BC
  8
0
  6
CONTINUOUS
 62
     7
 10
-8.5494490814209
 20
-33.4522809694962
 30
0.0
 40
0.900000000000001
 50
359.999999948034
 51
539.999999948034
  0
ARC
  5
   2BD
  8
0
  6
CONTINUOUS
 62
     7
 10
-8.5494490814209
 20
-33.7022809694962
 30
0.0
 40
1.3
 50
179.999999948034
 51
359.999999948034
  0
ARC
  5
   2BE
  8
0
  6
CONTINUOUS
 62
     7
 10
-8.5494490814209
 20
-33.7022809694962
 30
0.0
 40
0.899999999999999
 50
179.999999948034
 51
359.999999948034
  0
LINE
  5
   2BF
  8
0
  6
CONTINUOUS
 62
     7
 10
-7.64944908142092
 20
-33.7022809694961
 30
0.0
 11
-7.64944908142092
 21
-33.4522809694961
 31
0.0
  0
LINE
  5
   2C0
  8
0
  6
CONTINUOUS
 62
     7
 10
-7.24944908142092
 20
-33.7022809694961
 30
0.0
 11
-7.24944908142092
 21
-33.4522809694961
 31
0.0
  0
LINE
  5
   2C1
  8
0
  6
CONTINUOUS
 62
     7
 10
-9.44944908142092
 20
-33.7022809694961
 30
0.0
 11
-9.44944908142092
 21
-33.4522809694961
 31
0.0
  0
LINE
  5
   2C2
  8
0
  6
CONTINUOUS
 62
     7
 10
-9.84944908142092
 20
-33.7022809694961
 30
0.0
 11
-9.84944908142092
 21
-33.4522809694961
 31
0.0
  0
LINE
  5
   2C3
  8
0
  6
CONTINUOUS
 62
     7
 10
-6.84944908142092
 20
-35.0022809694961
 30
0.0
 11
-6.84944908142092
 21
-32.1522809694961
 31
0.0
  0
LINE
  5
   2C4
  8
0
  6
CONTINUOUS
 62
     7
 10
-6.44944908142092
 20
-35.0022809694961
 30
0.0
 11
-6.44944908142092
 21
-33.2522809694961
 31
0.0
  0
LINE
  5
   2C5
  8
0
  6
CONTINUOUS
 62
     7
 10
-5.04944908142093
 20
-35.0022809694961
 30
0.0
 11
-5.04944908142093
 21
-33.2522809694961
 31
0.0
  0
LINE
  5
   2C6
  8
0
  6
CONTINUOUS
 62
     7
 10
-4.64944908142093
 20
-35.0022809694961
 30
0.0
 11
-4.64944908142093
 21
-33.1522809694961
 31
0.0
  0
LINE
  5
   2C7
  8
0
  6
CONTINUOUS
 62
     7
 10
-6.4494490814209
 20
-32.1522809694962
 30
0.0
 11
-6.8494490814209
 21
-32.1522809694962
 31
0.0
  0
ARC
  5
   2C8
  8
0
  6
CONTINUOUS
 62
     7
 10
-5.7494490814209
 20
-33.2522809694962
 30
0.0
 40
0.699999999999999
 50
359.999999948034
 51
539.999999948034
  0
LINE
  5
   2C9
  8
0
  6
CONTINUOUS
 62
     7
 10
-6.44944908142092
 20
-32.5522809694961
 30
0.0
 11
-6.44944908142092
 21
-32.1522809694961
 31
0.0
  0
ARC
  5
   2CA
  8
0
  6
CONTINUOUS
 62
     7
 10
-5.6494490814209
 20
-33.1522809694962
 30
0.0
 40
1.0
 50
359.999999948034
 51
503.13010230219
  0
LINE
  5
   2CB
  8
0
  6
CONTINUOUS
 62
     7
 10
-4.64944908142091
 20
-35.0022809694962
 30
0.0
 11
-5.04944908142091
 21
-35.0022809694962
 31
0.0
  0
LINE
  5
   2CC
  8
0
  6
CONTINUOUS
 62
     7
 10
-28.174461755691
 20
5.29772284520303
 30
0.0
 11
-28.174461755691
 21
6.79772284520303
 31
0.0
  0
LINE
  5
   2CD
  8
0
  6
CONTINUOUS
 62
     7
 10
-26.424461755691
 20
5.29772284520303
 30
0.0
 11
-26.424461755691
 21
6.79772284520303
 31
0.0
  0
LINE
  5
   2CE
  8
0
  6
CONTINUOUS
 62
     7
 10
-28.549461755691
 20
3.54772284520303
 30
0.0
 11
-28.549461755691
 21
5.29772284520303
 31
0.0
  0
LINE
  5
   2CF
  8
0
  6
CONTINUOUS
 62
     7
 10
-26.049461755691
 20
3.54772284520303
 30
0.0
 11
-26.049461755691
 21
5.29772284520303
 31
0.0
  0
LINE
  5
   2D0
  8
0
  6
CONTINUOUS
 62
     7
 10
-26.049461755691
 20
5.29772284520303
 30
0.0
 11
-26.424461755691
 21
5.29772284520303
 31
0.0
  0
LINE
  5
   2D1
  8
0
  6
CONTINUOUS
 62
     7
 10
-28.174461755691
 20
5.29772284520303
 30
0.0
 11
-28.549461755691
 21
5.29772284520303
 31
0.0
  0
LINE
  5
   2D2
  8
0
  6
CONTINUOUS
 62
     7
 10
-8.92442664152575
 20
-78.202277154797
 30
0.0
 11
-8.92442664152575
 21
-77.077271432753
 31
0.0
  0
LINE
  5
   2D3
  8
0
  6
CONTINUOUS
 62
     7
 10
-10.6744266415258
 20
-78.202277154797
 30
0.0
 11
-10.6744266415258
 21
-77.077271432753
 31
0.0
  0
LINE
  5
   2D4
  8
0
  6
CONTINUOUS
 62
     7
 10
-26.424461755691
 20
-78.202277154797
 30
0.0
 11
-26.424461755691
 21
-77.077271432753
 31
0.0
  0
LINE
  5
   2D5
  8
0
  6
CONTINUOUS
 62
     7
 10
-28.174461755691
 20
-78.202277154797
 30
0.0
 11
-28.174461755691
 21
-77.077271432753
 31
0.0
  0
LINE
  5
   2D6
  8
0
  6
CONTINUOUS
 62
     7
 10
-44.2994442284107
 20
-30.0772809694962
 30
0.0
 11
-44.7994441985945
 21
-30.0772809694962
 31
0.0
  0
LINE
  5
   2D7
  8
0
  6
CONTINUOUS
 62
     7
 10
-44.2994442284107
 20
-30.5772809694962
 30
0.0
 11
-44.7994441986058
 21
-30.5772809694962
 31
0.0
  0
LINE
  5
   2D8
  8
0
  6
CONTINUOUS
 62
     7
 10
-44.2994442284107
 20
-36.5772809694962
 30
0.0
 11
-44.7994441986058
 21
-36.5772809694962
 31
0.0
  0
LINE
  5
   2D9
  8
0
  6
CONTINUOUS
 62
     7
 10
-44.2994442284107
 20
-37.0772809694962
 30
0.0
 11
-44.7994441986199
 21
-37.0772809694962
 31
0.0
  0
LINE
  5
   2DA
  8
0
  6
CONTINUOUS
 62
     7
 10
-44.2994442284107
 20
-46.8272713517811
 30
0.0
 11
-44.7994441986199
 21
-46.8272713517811
 31
0.0
  0
LINE
  5
   2DB
  8
0
  6
CONTINUOUS
 62
     7
 10
-44.2994442284107
 20
-47.327271351784
 30
0.0
 11
-44.7994441986109
 21
-47.327271351784
 31
0.0
  0
LINE
  5
   2DC
  8
0
  6
CONTINUOUS
 62
     7
 10
-44.2994442284107
 20
-53.3272809694962
 30
0.0
 11
-44.7994441986109
 21
-53.3272809694962
 31
0.0
  0
LINE
  5
   2DD
  8
0
  6
CONTINUOUS
 62
     7
 10
-44.2994442284107
 20
-53.8272809694962
 30
0.0
 11
-44.7994441986084
 21
-53.8272809694962
 31
0.0
  0
LINE
  5
   2DE
  8
0
  6
CONTINUOUS
 62
     7
 10
7.20054817199707
 20
-30.0772809694962
 30
0.0
 11
-44.2994442284107
 21
-30.0772809694962
 31
0.0
  0
LINE
  5
   2DF
  8
0
  6
CONTINUOUS
 62
     7
 10
7.20054817199707
 20
-30.5772809694962
 30
0.0
 11
-44.2994442284107
 21
-30.5772809694962
 31
0.0
  0
LINE
  5
   2E0
  8
0
  6
CONTINUOUS
 62
     7
 10
7.20054817199707
 20
-36.5772809694962
 30
0.0
 11
-13.1744441986084
 21
-36.5772809694962
 31
0.0
  0
LINE
  5
   2E1
  8
0
  6
CONTINUOUS
 62
     7
 10
7.20054817199707
 20
-37.0772809694962
 30
0.0
 11
-13.1744441986084
 21
-37.0772809694962
 31
0.0
  0
LINE
  5
   2E2
  8
0
  6
CONTINUOUS
 62
     7
 10
7.20054817199707
 20
-46.8272753284072
 30
0.0
 11
-13.1744456909877
 21
-46.8272753284072
 31
0.0
  0
LINE
  5
   2E3
  8
0
  6
CONTINUOUS
 62
     7
 10
7.20054817199707
 20
-47.3272753284072
 30
0.0
 11
-13.1744458741821
 21
-47.3272753284072
 31
0.0
  0
LINE
  5
   2E4
  8
0
  6
CONTINUOUS
 62
     7
 10
7.20054817199707
 20
-53.3272809694962
 30
0.0
 11
-44.2994442284107
 21
-53.3272809694962
 31
0.0
  0
LINE
  5
   2E5
  8
0
  6
CONTINUOUS
 62
     7
 10
7.20054817199707
 20
-53.8272809694962
 30
0.0
 11
-44.2994442284107
 21
-53.8272809694962
 31
0.0
  0
LINE
  5
   2E6
  8
0
  6
DASHDOT
 62
     7
 10
-9.79945143118463
 20
-77.702278442478
 30
0.0
 11
-9.79945143118463
 21
-66.8489499336433
 31
0.0
  0
LINE
  5
   2E7
  8
0
  6
CONTINUOUS
 62
     7
 10
-13.1744441986084
 20
-44.8896206147865
 30
0.0
 11
-23.9244441986084
 21
-44.8896206147865
 31
0.0
  0
LINE
  5
   2E8
  8
0
  6
CONTINUOUS
 62
     7
 10
-13.1744441986084
 20
-47.9478533675949
 30
0.0
 11
-23.9244441986084
 21
-47.9478533675949
 31
0.0
  0
LINE
  5
   2E9
  8
0
  6
CONTINUOUS
 62
     7
 10
-13.1744441986084
 20
-50.9217626807008
 30
0.0
 11
-23.9244441986084
 21
-50.9217626807008
 31
0.0
  0
LINE
  5
   2EA
  8
0
  6
CONTINUOUS
 62
     7
 10
-13.1744441986084
 20
-51.3231362445599
 30
0.0
 11
-23.9244441986084
 21
-51.3231362445599
 31
0.0
  0
LINE
  5
   2EB
  8
0
  6
DASHDOT
 62
     7
 10
21.2411710375061
 20
-36.8272733401016
 30
0.0
 11
-63.2842807417115
 21
-36.8272733401016
 31
0.0
  0
LINE
  5
   2EC
  8
0
  6
DASHDOT
 62
     7
 10
-72.4861847482944
 20
-36.8272733401016
 30
0.0
 11
-82.540116903635
 21
-36.8272733401016
 31
0.0
  0
LINE
  5
   2ED
  8
0
  6
CONTINUOUS
 62
     2
 10
4.70054113179355
 20
-79.4522771547971
 30
0.0
 11
4.70054113179355
 21
-78.2022771547976
 31
0.0
  0
LINE
  5
   2EE
  8
0
  6
CONTINUOUS
 62
     2
 10
-41.7994585974521
 20
-79.4522771547971
 30
0.0
 11
-41.7994585974521
 21
-78.2022771547971
 31
0.0
  0
LINE
  5
   2EF
  8
0
  6
CONTINUOUS
 62
     2
 10
4.70054113179355
 20
-79.4522771547971
 30
0.0
 11
-41.7994585974521
 21
-79.4522771547971
 31
0.0
  0
LINE
  5
   2F0
  8
0
  6
CONTINUOUS
 62
     2
 10
-41.049461560986
 20
6.79772284520303
 30
0.0
 11
-41.049461560986
 21
23.0477142333984
 31
0.0
  0
LINE
  5
   2F1
  8
0
  6
CONTINUOUS
 62
     2
 10
-31.049461560986
 20
6.79772284520303
 30
0.0
 11
-31.049461560986
 21
23.0477142333984
 31
0.0
  0
LINE
  5
   2F2
  8
0
  6
CONTINUOUS
 62
     2
 10
-31.049461560986
 20
23.0477142333984
 30
0.0
 11
-41.049461560986
 21
23.0477142333984
 31
0.0
  0
CIRCLE
  5
   2F3
  8
0
  6
CONTINUOUS
 62
     2
 10
-36.0494591737963
 20
16.7977142333984
 30
0.0
 40
2.125
  0
LINE
  5
   2F4
  8
0
  6
CONTINUOUS
 62
     2
 10
-13.549461560986
 20
23.0477142333984
 30
0.0
 11
-23.549461560986
 21
23.0477142333984
 31
0.0
  0
LINE
  5
   2F5
  8
0
  6
CONTINUOUS
 62
     2
 10
-13.549461560986
 20
8.04772284520303
 30
0.0
 11
-13.549461560986
 21
23.0477142333984
 31
0.0
  0
CIRCLE
  5
   2F6
  8
0
  6
CONTINUOUS
 62
     2
 10
-18.5494591737963
 20
16.7977142333984
 30
0.0
 40
2.125
  0
LINE
  5
   2F7
  8
0
  6
CONTINUOUS
 62
     2
 10
-23.549461560986
 20
8.04772284520303
 30
0.0
 11
-23.549461560986
 21
23.0477142333984
 31
0.0
  0
CIRCLE
  5
   2F8
  8
0
  6
CONTINUOUS
 62
     2
 10
-1.04945917379626
 20
16.7977142333984
 30
0.0
 40
2.125
  0
LINE
  5
   2F9
  8
0
  6
CONTINUOUS
 62
     2
 10
3.95053843901396
 20
8.04772284520303
 30
0.0
 11
3.95053843901396
 21
23.0477142333984
 31
0.0
  0
LINE
  5
   2FA
  8
0
  6
CONTINUOUS
 62
     2
 10
-6.04946156098604
 20
8.04772284520303
 30
0.0
 11
-6.04946156098604
 21
23.0477142333984
 31
0.0
  0
LINE
  5
   2FB
  8
0
  6
CONTINUOUS
 62
     2
 10
3.95053843901396
 20
23.0477142333984
 30
0.0
 11
-6.04946156098604
 21
23.0477142333984
 31
0.0
  0
LINE
  5
   2FC
  8
0
  6
DASHDOT
 62
     2
 10
-1.04945917379626
 20
14.1727142333984
 30
0.0
 11
-1.04945917379626
 21
19.4227142333984
 31
0.0
  0
LINE
  5
   2FD
  8
0
  6
DASHDOT
 62
     2
 10
1.57554082620374
 20
16.7977142333984
 30
0.0
 11
-3.67445917379626
 21
16.7977142333984
 31
0.0
  0
LINE
  5
   2FE
  8
0
  6
DASHDOT
 62
     2
 10
-18.5494591737963
 20
-2.95298742998099
 30
0.0
 11
-18.5494591737963
 21
30.2880615881026
 31
0.0
  0
LINE
  5
   2FF
  8
0
  6
DASHDOT
 62
     2
 10
-15.9244591737963
 20
16.7977142333984
 30
0.0
 11
-21.1744591737963
 21
16.7977142333984
 31
0.0
  0
LINE
  5
   300
  8
0
  6
DASHDOT
 62
     2
 10
-36.0494591737963
 20
14.1727142333984
 30
0.0
 11
-36.0494591737963
 21
19.4227142333984
 31
0.0
  0
LINE
  5
   301
  8
0
  6
DASHDOT
 62
     2
 10
-33.4244591737963
 20
16.7977142333984
 30
0.0
 11
-38.6744591737963
 21
16.7977142333984
 31
0.0
  0
LINE
  5
   302
  8
0
  6
CONTINUOUS
 62
     1
 10
-24.549461755691
 20
8.04772284520303
 30
0.0
 11
-24.549461755691
 21
9.54772284520303
 31
0.0
  0
LINE
  5
   303
  8
0
  6
CONTINUOUS
 62
     1
 10
-28.049461755691
 20
9.54772284520303
 30
0.0
 11
-30.049461755691
 21
9.54772284520303
 31
0.0
  0
LINE
  5
   304
  8
0
  6
CONTINUOUS
 62
     1
 10
-24.549461755691
 20
9.54772284520303
 30
0.0
 11
-26.549461755691
 21
9.54772284520303
 31
0.0
  0
LINE
  5
   305
  8
0
  6
CONTINUOUS
 62
     1
 10
-30.049461755691
 20
6.79772284520303
 30
0.0
 11
-30.049461755691
 21
9.54772284520303
 31
0.0
  0
LINE
  5
   306
  8
0
  6
CONTINUOUS
 62
     1
 10
-24.549461755691
 20
8.04772284520303
 30
0.0
 11
-30.049461755691
 21
8.04772284520303
 31
0.0
  0
LINE
  5
   307
  8
0
  6
CONTINUOUS
 62
     1
 10
-28.049461755691
 20
5.39772263062631
 30
0.0
 11
-28.424461755691
 21
5.39772263062631
 31
0.0
  0
LINE
  5
   308
  8
0
  6
CONTINUOUS
 62
     1
 10
-28.424461755691
 20
3.79772260678445
 30
0.0
 11
-28.424461755691
 21
5.39772263062631
 31
0.0
  0
LINE
  5
   309
  8
0
  6
CONTINUOUS
 62
     1
 10
-26.174461755691
 20
3.79772260678445
 30
0.0
 11
-28.424461755691
 21
3.79772260678445
 31
0.0
  0
LINE
  5
   30A
  8
0
  6
CONTINUOUS
 62
     1
 10
-26.174461755691
 20
3.79772260678445
 30
0.0
 11
-26.174461755691
 21
5.39772263062631
 31
0.0
  0
LINE
  5
   30B
  8
0
  6
CONTINUOUS
 62
     1
 10
-26.174461755691
 20
5.39772263062631
 30
0.0
 11
-26.549461755691
 21
5.39772263062631
 31
0.0
  0
LINE
  5
   30C
  8
0
  6
CONTINUOUS
 62
     1
 10
-26.549461755691
 20
5.39772251141702
 30
0.0
 11
-26.549461755691
 21
8.04772260678445
 31
0.0
  0
LINE
  5
   30D
  8
0
  6
CONTINUOUS
 62
     1
 10
-28.049461755691
 20
5.39772251141702
 30
0.0
 11
-28.049461755691
 21
8.04772260678445
 31
0.0
  0
LINE
  5
   30E
  8
0
  6
CONTINUOUS
 62
     1
 10
-26.8525867550577
 20
58.0477233220402
 30
0.0
 11
-27.7463367563243
 21
58.0477233220402
 31
0.0
  0
LINE
  5
   30F
  8
0
  6
CONTINUOUS
 62
     1
 10
-28.049461755691
 20
4.89772263062631
 30
0.0
 11
-28.049461755691
 21
5.39772263062631
 31
0.0
  0
LINE
  5
   310
  8
0
  6
CONTINUOUS
 62
     1
 10
-26.549461755691
 20
4.89772263062631
 30
0.0
 11
-26.549461755691
 21
5.39772263062631
 31
0.0
  0
LINE
  5
   311
  8
0
  6
CONTINUOUS
 62
     1
 10
-28.049461755691
 20
4.89772263062631
 30
0.0
 11
-28.424461755691
 21
4.89772263062631
 31
0.0
  0
LINE
  5
   312
  8
0
  6
CONTINUOUS
 62
     1
 10
-26.174461755691
 20
4.89772263062631
 30
0.0
 11
-26.549461755691
 21
4.89772263062631
 31
0.0
  0
LINE
  5
   313
  8
0
  6
CONTINUOUS
 62
     1
 10
-24.549461755691
 20
8.54772284520303
 30
0.0
 11
-30.049461755691
 21
8.54772284520303
 31
0.0
  0
LINE
  5
   314
  8
0
  6
CONTINUOUS
 62
     1
 10
-26.549461755691
 20
9.54772284520303
 30
0.0
 11
-26.8525867550577
 21
58.0477233220402
 31
0.0
  0
LINE
  5
   315
  8
0
  6
CONTINUOUS
 62
     1
 10
-28.049461755691
 20
9.54772284520303
 30
0.0
 11
-27.7463367563243
 21
58.0477233220402
 31
0.0
  0
LINE
  5
   316
  8
0
  6
CONTINUOUS
 62
     1
 10
-10.549461755691
 20
9.54772284520303
 30
0.0
 11
-10.2463367563243
 21
58.0477233220402
 31
0.0
  0
LINE
  5
   317
  8
0
  6
CONTINUOUS
 62
     1
 10
-9.04946175569103
 20
9.54772284520303
 30
0.0
 11
-9.35258675505773
 21
58.0477233220402
 31
0.0
  0
LINE
  5
   318
  8
0
  6
CONTINUOUS
 62
     1
 10
-9.35258675505773
 20
58.0477233220402
 30
0.0
 11
-10.2463367563243
 21
58.0477233220402
 31
0.0
  0
LINE
  5
   319
  8
0
  6
CONTINUOUS
 62
     1
 10
-7.04946175569103
 20
9.54772284520303
 30
0.0
 11
-9.04946175569103
 21
9.54772284520303
 31
0.0
  0
LINE
  5
   31A
  8
0
  6
CONTINUOUS
 62
     1
 10
-10.549461755691
 20
9.54772284520303
 30
0.0
 11
-12.549461755691
 21
9.54772284520303
 31
0.0
  0
LINE
  5
   31B
  8
0
  6
CONTINUOUS
 62
     1
 10
-7.04946175569103
 20
8.54772284520303
 30
0.0
 11
-12.549461755691
 21
8.54772284520303
 31
0.0
  0
LINE
  5
   31C
  8
0
  6
CONTINUOUS
 62
     1
 10
-12.549461755691
 20
8.04772284520303
 30
0.0
 11
-12.549461755691
 21
9.54772284520303
 31
0.0
  0
LINE
  5
   31D
  8
0
  6
CONTINUOUS
 62
     1
 10
-7.04946175569103
 20
8.04772284520303
 30
0.0
 11
-7.04946175569103
 21
9.54772284520303
 31
0.0
  0
CIRCLE
  5
   31E
  8
0
  6
CONTINUOUS
 62
     7
 10
-10.025871674516
 20
40.7035902804355
 30
0.0
 40
0.25
  0
CIRCLE
  5
   31F
  8
0
  6
CONTINUOUS
 62
     7
 10
-27.4549753732986
 20
40.8578301361769
 30
0.0
 40
0.25
  0
INSERT
  5
   320
  8
255
  6
CONTINUOUS
 62
     7
  2
MOSTRINA
 10
-75.9685726165772
 20
-91.8175840090469
 30
0.0
 41
0.5
 42
0.5
 50
3.50835464724173E-15
 43
0.5
  0
LINE
  5
   321
  8
0
  6
CONTINUOUS
 62
     3
 10
7.07554682593194
 20
8.04772284520303
 30
0.0
 11
-24.489805356906
 21
8.04772284520303
 31
0.0
  0
LINE
  5
   322
  8
0
  6
CONTINUOUS
 62
     3
 10
7.70057376477014
 20
3.42272665989837
 30
0.0
 11
7.70057376477014
 21
7.42266656909322
 31
0.0
  0
LINE
  5
   323
  8
0
  6
CONTINUOUS
 62
     3
 10
7.51748987812579
 20
7.86466645964654
 30
0.0
 11
7.07554956766349
 21
8.04772615531108
 31
0.0
  0
LINE
  5
   324
  8
0
  6
CONTINUOUS
 62
     3
 10
7.70054805980253
 20
7.42272862568807
 30
0.0
 11
7.51748836413798
 21
7.86466893615039
 31
0.0
  0
LINE
  5
   325
  8
0
  6
CONTINUOUS
 62
     3
 10
6.52554758887139
 20
3.42272665989837
 30
0.0
 11
6.52554758887139
 21
7.89239600194131
 31
0.0
  0
LINE
  5
   326
  8
0
  6
CONTINUOUS
 62
     3
 10
4.72554835181084
 20
3.42272665989837
 30
0.0
 11
4.72554835181084
 21
7.89239600194131
 31
0.0
  0
LINE
  5
   327
  8
0
  6
CONTINUOUS
 62
     3
 10
2.92554911475029
 20
3.42272665989837
 30
0.0
 11
2.92554911475029
 21
7.89239600194131
 31
0.0
  0
LINE
  5
   328
  8
0
  6
CONTINUOUS
 62
     3
 10
1.12554987768975
 20
3.42272665989837
 30
0.0
 11
1.12554987768975
 21
7.89239600194131
 31
0.0
  0
LINE
  5
   329
  8
0
  6
CONTINUOUS
 62
     3
 10
-0.674453174068066
 20
3.42272665989837
 30
0.0
 11
-0.674453174068066
 21
7.89239600194131
 31
0.0
  0
LINE
  5
   32A
  8
0
  6
CONTINUOUS
 62
     3
 10
-2.47445241112861
 20
3.42272665989837
 30
0.0
 11
-2.47445241112861
 21
7.89239600194131
 31
0.0
  0
LINE
  5
   32B
  8
0
  6
CONTINUOUS
 62
     3
 10
-4.27445164818916
 20
3.42272665989837
 30
0.0
 11
-4.27445164818916
 21
7.89239600194131
 31
0.0
  0
LINE
  5
   32C
  8
0
  6
CONTINUOUS
 62
     3
 10
-6.07445088524971
 20
3.42272665989837
 30
0.0
 11
-6.07445088524971
 21
7.89239600194131
 31
0.0
  0
LINE
  5
   32D
  8
0
  6
CONTINUOUS
 62
     3
 10
-7.87445012231025
 20
3.42272665989837
 30
0.0
 11
-7.87445012231025
 21
7.89239600194131
 31
0.0
  0
LINE
  5
   32E
  8
0
  6
CONTINUOUS
 62
     3
 10
-9.67445317406807
 20
3.42272665989837
 30
0.0
 11
-9.67445317406807
 21
7.89239600194131
 31
0.0
  0
LINE
  5
   32F
  8
0
  6
CONTINUOUS
 62
     3
 10
-11.4744524111286
 20
3.42272665989837
 30
0.0
 11
-11.4744524111286
 21
7.89239600194131
 31
0.0
  0
LINE
  5
   330
  8
0
  6
CONTINUOUS
 62
     3
 10
-13.2744516481892
 20
3.42272665989837
 30
0.0
 11
-13.2744516481892
 21
7.89239600194131
 31
0.0
  0
LINE
  5
   331
  8
0
  6
CONTINUOUS
 62
     3
 10
-15.0744508852497
 20
3.42272665989837
 30
0.0
 11
-15.0744508852497
 21
7.89239600194131
 31
0.0
  0
LINE
  5
   332
  8
0
  6
CONTINUOUS
 62
     3
 10
-16.8744520296589
 20
3.42272665989837
 30
0.0
 11
-16.8744520296589
 21
7.89239600194131
 31
0.0
  0
LINE
  5
   333
  8
0
  6
CONTINUOUS
 62
     3
 10
-18.6744512667194
 20
3.42272665989837
 30
0.0
 11
-18.6744512667194
 21
7.89239600194131
 31
0.0
  0
LINE
  5
   334
  8
0
  6
CONTINUOUS
 62
     3
 10
-20.47445050378
 20
3.42272665989837
 30
0.0
 11
-20.47445050378
 21
7.89239600194131
 31
0.0
  0
LINE
  5
   335
  8
0
  6
CONTINUOUS
 62
     3
 10
-22.2744516481892
 20
3.42272665989837
 30
0.0
 11
-22.2744516481892
 21
7.89239600194131
 31
0.0
  0
LINE
  5
   336
  8
0
  6
CONTINUOUS
 62
     3
 10
-24.0744508852497
 20
3.42272665989837
 30
0.0
 11
-24.0744508852497
 21
7.89239600194131
 31
0.0
  0
POLYLINE
  5
   337
  8
0
  6
CONTINUOUS
 62
     3
 66
     1
 10
0.0
 20
0.0
 30
0.0
  0
VERTEX
  5
   338
  8
0
  6
CONTINUOUS
 10
-24.489805356906
 20
8.04772248638528
 30
0.0
 40
0.0
 41
0.0
  0
VERTEX
  5
   339
  8
0
  6
CONTINUOUS
 10
-24.5684883000524
 20
7.98537533405966
 30
0.0
 40
0.0
 41
0.0
  0
VERTEX
  5
   33A
  8
0
  6
CONTINUOUS
 10
-24.6429631164082
 20
7.92164312724675
 30
0.0
 40
0.0
 41
0.0
  0
VERTEX
  5
   33B
  8
0
  6
CONTINUOUS
 10
-24.7132432426197
 20
7.85652918333842
 30
0.0
 40
0.0
 41
0.0
  0
VERTEX
  5
   33C
  8
0
  6
CONTINUOUS
 10
-24.7793467383877
 20
7.79003796111878
 30
0.0
 40
0.0
 41
0.0
  0
VERTEX
  5
   33D
  8
0
  6
CONTINUOUS
 10
-24.8412969725143
 20
7.72217523014322
 30
0.0
 40
0.0
 41
0.0
  0
VERTEX
  5
   33E
  8
0
  6
CONTINUOUS
 10
-24.870723539752
 20
7.68773175195519
 30
0.0
 40
0.0
 41
0.0
  0
VERTEX
  5
   33F
  8
0
  6
CONTINUOUS
 10
-24.8991233089499
 20
7.65294824011746
 30
0.0
 40
0.0
 41
0.0
  0
VERTEX
  5
   340
  8
0
  6
CONTINUOUS
 10
-24.9265009998982
 20
7.61782585990546
 30
0.0
 40
0.0
 41
0.0
  0
VERTEX
  5
   341
  8
0
  6
CONTINUOUS
 10
-24.9528617928396
 20
7.5823658902764
 30
0.0
 40
0.0
 41
0.0
  0
VERTEX
  5
   342
  8
0
  6
CONTINUOUS
 10
-24.9782113499086
 20
7.54656972916235
 30
0.0
 40
0.0
 41
0.0
  0
VERTEX
  5
   343
  8
0
  6
CONTINUOUS
 10
-25.00255583657
 20
7.51043889876333
 30
0.0
 40
0.0
 41
0.0
  0
VERTEX
  5
   344
  8
0
  6
CONTINUOUS
 10
-25.0259019430581
 20
7.47397505084039
 30
0.0
 40
0.0
 41
0.0
  0
VERTEX
  5
   345
  8
0
  6
CONTINUOUS
 10
-25.0482569058157
 20
7.43717997200874
 30
0.0
 40
0.0
 41
0.0
  0
VERTEX
  5
   346
  8
0
  6
CONTINUOUS
 10
-25.069628528933
 20
7.40005558903083
 30
0.0
 40
0.0
 41
0.0
  0
VERTEX
  5
   347
  8
0
  6
CONTINUOUS
 10
-25.0900252055865
 20
7.36260397410944
 30
0.0
 40
0.0
 41
0.0
  0
VERTEX
  5
   348
  8
0
  6
CONTINUOUS
 10
-25.109455939478
 20
7.32482735018077
 30
0.0
 40
0.0
 41
0.0
  0
VERTEX
  5
   349
  8
0
  6
CONTINUOUS
 10
-25.1279303662736
 20
7.28672809620755
 30
0.0
 40
0.0
 41
0.0
  0
VERTEX
  5
   34A
  8
0
  6
CONTINUOUS
 10
-25.1620521296964
 20
7.20957202586945
 30
0.0
 40
0.0
 41
0.0
  0
VERTEX
  5
   34B
  8
0
  6
CONTINUOUS
 10
-25.1924810351494
 20
7.13115811646485
 30
0.0
 40
0.0
 41
0.0
  0
VERTEX
  5
   34C
  8
0
  6
CONTINUOUS
 10
-25.2193191054487
 20
7.05151155654572
 30
0.0
 40
0.0
 41
0.0
  0
VERTEX
  5
   34D
  8
0
  6
CONTINUOUS
 10
-25.2426805329787
 20
6.97066053922536
 30
0.0
 40
0.0
 41
0.0
  0
VERTEX
  5
   34E
  8
0
  6
CONTINUOUS
 10
-25.2626923657391
 20
6.88863643155739
 30
0.0
 40
0.0
 41
0.0
  0
VERTEX
  5
   34F
  8
0
  6
CONTINUOUS
 10
-25.2794951933909
 20
6.80547394391471
 30
0.0
 40
0.0
 41
0.0
  0
VERTEX
  5
   350
  8
0
  6
CONTINUOUS
 10
-25.293243833304
 20
6.72121129936856
 30
0.0
 40
0.0
 41
0.0
  0
VERTEX
  5
   351
  8
0
  6
CONTINUOUS
 10
-25.3041080166033
 20
6.63589040306744
 30
0.0
 40
0.0
 41
0.0
  0
VERTEX
  5
   352
  8
0
  6
CONTINUOUS
 10
-25.3122730742153
 20
6.54955701161626
 30
0.0
 40
0.0
 41
0.0
  0
VERTEX
  5
   353
  8
0
  6
CONTINUOUS
 10
-25.3190814298808
 20
6.43828567665018
 30
0.0
 40
0.0
 41
0.0
  0
VERTEX
  5
   354
  8
0
  6
CONTINUOUS
 10
-25.3222986978394
 20
6.32556718870939
 30
0.0
 40
0.0
 41
0.0
  0
VERTEX
  5
   355
  8
0
  6
CONTINUOUS
 10
-25.3224166008784
 20
6.21152374180897
 30
0.0
 40
0.0
 41
0.0
  0
VERTEX
  5
   356
  8
0
  6
CONTINUOUS
 10
-25.3199586528306
 20
6.09628664594874
 30
0.0
 40
0.0
 41
0.0
  0
VERTEX
  5
   357
  8
0
  6
CONTINUOUS
 10
-25.3154737824798
 20
5.97999538643595
 30
0.0
 40
0.0
 41
0.0
  0
VERTEX
  5
   358
  8
0
  6
CONTINUOUS
 10
-25.309529957466
 20
5.86279668320758
 30
0.0
 40
0.0
 41
0.0
  0
VERTEX
  5
   359
  8
0
  6
CONTINUOUS
 10
-25.2955942517243
 20
5.62629435443656
 30
0.0
 40
0.0
 41
0.0
  0
VERTEX
  5
   35A
  8
0
  6
CONTINUOUS
 10
-25.28283376226
 20
5.38806236598376
 30
0.0
 40
0.0
 41
0.0
  0
VERTEX
  5
   35B
  8
0
  6
CONTINUOUS
 10
-25.2783347118856
 20
5.26871460785261
 30
0.0
 40
0.0
 41
0.0
  0
VERTEX
  5
   35C
  8
0
  6
CONTINUOUS
 10
-25.2758272673766
 20
5.14943897491474
 30
0.0
 40
0.0
 41
0.0
  0
VERTEX
  5
   35D
  8
0
  6
CONTINUOUS
 10
-25.2758341377198
 20
5.03040649054607
 30
0.0
 40
0.0
 41
0.0
  0
VERTEX
  5
   35E
  8
0
  6
CONTINUOUS
 10
-25.2788460620016
 20
4.91178788733233
 30
0.0
 40
0.0
 41
0.0
  0
VERTEX
  5
   35F
  8
0
  6
CONTINUOUS
 10
-25.2853154333139
 20
4.79375266639155
 30
0.0
 40
0.0
 41
0.0
  0
VERTEX
  5
   360
  8
0
  6
CONTINUOUS
 10
-25.2899759800977
 20
4.73500622514866
 30
0.0
 40
0.0
 41
0.0
  0
VERTEX
  5
   361
  8
0
  6
CONTINUOUS
 10
-25.2956499226593
 20
4.67646815669668
 30
0.0
 40
0.0
 41
0.0
  0
VERTEX
  5
   362
  8
0
  6
CONTINUOUS
 10
-25.3023801859693
 20
4.61815888342966
 30
0.0
 40
0.0
 41
0.0
  0
VERTEX
  5
   363
  8
0
  6
CONTINUOUS
 10
-25.3102061028563
 20
4.56009857439786
 30
0.0
 40
0.0
 41
0.0
  0
VERTEX
  5
   364
  8
0
  6
CONTINUOUS
 10
-25.3191632147534
 20
4.50230711591163
 30
0.0
 40
0.0
 41
0.0
  0
VERTEX
  5
   365
  8
0
  6
CONTINUOUS
 10
-25.3292830724453
 20
4.44480408214519
 30
0.0
 40
0.0
 41
0.0
  0
VERTEX
  5
   366
  8
0
  6
CONTINUOUS
 10
-25.3405930368156
 20
4.38760870574047
 30
0.0
 40
0.0
 41
0.0
  0
VERTEX
  5
   367
  8
0
  6
CONTINUOUS
 10
-25.3531160795935
 20
4.33073984841099
 30
0.0
 40
0.0
 41
0.0
  0
VERTEX
  5
   368
  8
0
  6
CONTINUOUS
 10
-25.3668705841011
 20
4.27421597154563
 30
0.0
 40
0.0
 41
0.0
  0
VERTEX
  5
   369
  8
0
  6
CONTINUOUS
 10
-25.3818701460005
 20
4.21805510681246
 30
0.0
 40
0.0
 41
0.0
  0
VERTEX
  5
   36A
  8
0
  6
CONTINUOUS
 10
-25.4069572872368
 20
4.13378714070207
 30
0.0
 40
0.0
 41
0.0
  0
VERTEX
  5
   36B
  8
0
  6
CONTINUOUS
 10
-25.4349226946563
 20
4.0504494748454
 30
0.0
 40
0.0
 41
0.0
  0
VERTEX
  5
   36C
  8
0
  6
CONTINUOUS
 10
-25.4657491258783
 20
3.96809760247757
 30
0.0
 40
0.0
 41
0.0
  0
VERTEX
  5
   36D
  8
0
  6
CONTINUOUS
 10
-25.4993962017315
 20
3.88678323845125
 30
0.0
 40
0.0
 41
0.0
  0
VERTEX
  5
   36E
  8
0
  6
CONTINUOUS
 10
-25.5358024430395
 20
3.80655371159141
 30
0.0
 40
0.0
 41
0.0
  0
VERTEX
  5
   36F
  8
0
  6
CONTINUOUS
 10
-25.5748873074063
 20
3.72745135704994
 30
0.0
 40
0.0
 41
0.0
  0
VERTEX
  5
   370
  8
0
  6
CONTINUOUS
 10
-25.6165532260022
 20
3.64951290866034
 30
0.0
 40
0.0
 41
0.0
  0
VERTEX
  5
   371
  8
0
  6
CONTINUOUS
 10
-25.6606876403491
 20
3.57276889129243
 30
0.0
 40
0.0
 41
0.0
  0
VERTEX
  5
   372
  8
0
  6
CONTINUOUS
 10
-25.7071650391064
 20
3.49724301320691
 30
0.0
 40
0.0
 41
0.0
  0
VERTEX
  5
   373
  8
0
  6
CONTINUOUS
 10
-25.7558489948563
 20
3.42295155841013
 30
0.0
 40
0.0
 41
0.0
  0
SEQEND
  5
   374
  8
0
  6
CONTINUOUS
 62
     3
  0
CIRCLE
  5
   375
  8
0
  6
DOT
 62
     7
 10
-18.5494591737963
 20
0.547718294418864
 30
0.0
 40
2.75000069115123
  0
CIRCLE
  5
   376
  8
0
  6
DOT
 62
     7
 10
-1.04945917379625
 20
0.547718294418864
 30
0.0
 40
2.75000069115123
  0
LINE
  5
   377
  8
0
  6
DASHDOT
 62
     7
 10
-1.04945917379625
 20
-3.70228239673235
 30
0.0
 11
-1.04945917379625
 21
4.79771898557011
 31
0.0
  0
LINE
  5
   378
  8
0
  6
DASHDOT
 62
     7
 10
3.20054151735497
 20
0.547718294418864
 30
0.0
 11
-5.29945986494748
 21
0.547718294418864
 31
0.0
  0
LINE
  5
   379
  8
0
  6
DASHDOT
 62
     7
 10
-14.299458482645
 20
0.547718294418864
 30
0.0
 11
-22.7994598649475
 21
0.547718294418864
 31
0.0
  0
CIRCLE
  5
   37A
  8
0
  6
CONTINUOUS
 62
     7
 10
9.36307232319125
 20
0.269273846810677
 30
0.0
 40
0.2
  0
INSERT
  5
   37B
  8
0
  6
CONTINUOUS
 62
     7
  2
*UDIM1623
 10
0.0
 20
0.0
 30
0.0
  0
TEXT
  5
   37C
  8
0
  6
CONTINUOUS
 62
     7
 10
28.7754917238236
 20
-52.2570094931797
 30
0.0
 40
3.00000002980232
  1
=          =
 50
89.9999999480344
 41
0.916666604744064
 72
     2
 11
28.775491753214
 21
-19.8070113672491
 31
0.0
  0
INSERT
  5
   37D
  8
0
  6
CONTINUOUS
 62
     7
  2
*UDIM1624
 10
0.0
 20
0.0
 30
0.0
  0
INSERT
  5
   37E
  8
0
  6
CONTINUOUS
 62
     2
  2
*UDIM1625
 10
0.0
 20
0.0
 30
0.0
  0
INSERT
  5
   37F
  8
0
  6
CONTINUOUS
 62
     7
  2
*UDIM1626
 10
0.0
 20
0.0
 30
0.0
  0
INSERT
  5
   380
  8
0
  6
CONTINUOUS
 62
     2
  2
*UDIM1627
 10
0.0
 20
0.0
 30
0.0
  0
INSERT
  5
   381
  8
0
  6
CONTINUOUS
 62
     2
  2
*UDIM1628
 10
0.0
 20
0.0
 30
0.0
  0
INSERT
  5
   382
  8
0
  6
CONTINUOUS
 62
     2
  2
*UDIM1629
 10
0.0
 20
0.0
 30
0.0
  0
INSERT
  5
   383
  8
0
  6
CONTINUOUS
 62
     7
  2
*UDIM1630
 10
0.0
 20
0.0
 30
0.0
  0
TEXT
  5
   384
  8
0
  6
CONTINUOUS
 62
     7
 10
-18.9273322178521
 20
31.6648859576393
 30
0.0
 40
3.00000002980232
  1
Y
 50
359.999999948034
 41
0.916666604744064
 72
     2
 11
-16.7273323489823
 21
31.664885955655
 31
0.0
  0
TEXT
  5
   385
  8
0
  6
CONTINUOUS
 62
     7
 10
38.8279435084663
 20
-38.4165456696343
 30
0.0
 40
3.00000002980232
  1
X
 50
359.999999948034
 41
0.916666604744064
 72
     2
 11
41.027943377336
 21
-38.4165456716186
 31
0.0
  0
TEXT
  5
   386
  8
0
  6
CONTINUOUS
 62
     7
 10
-86.3125517918267
 20
-38.0604272290062
 30
0.0
 40
3.00000002980232
  1
X
 50
359.999999948034
 41
0.916666604744064
 72
     2
 11
-84.1125519229569
 21
-38.0604272309905
 31
0.0
  0
INSERT
  5
   387
  8
0
  6
CONTINUOUS
 62
     7
  2
*UDIM1631
 10
0.0
 20
0.0
 30
0.0
  0
INSERT
  5
   388
  8
0
  6
CONTINUOUS
 62
     7
  2
*UDIM1632
 10
0.0
 20
0.0
 30
0.0
  0
INSERT
  5
   389
  8
0
  6
CONTINUOUS
 62
     7
  2
*UDIM1633
 10
0.0
 20
0.0
 30
0.0
  0
INSERT
  5
   38A
  8
0
  6
CONTINUOUS
 62
     7
  2
*UDIM1634
 10
0.0
 20
0.0
 30
0.0
  0
LINE
  5
   38B
  8
0
  6
CONTINUOUS
 62
     3
 10
123.078540944504
 20
-76.802267074585
 30
0.0
 11
134.222489356995
 21
-76.802267074585
 31
0.0
  0
LINE
  5
   38C
  8
0
  6
CONTINUOUS
 62
     7
 10
98.2224893569946
 20
-78.2022681134827
 30
0.0
 11
98.2224893569946
 21
-58.0551581281311
 31
0.0
  0
LINE
  5
   38D
  8
0
  6
CONTINUOUS
 62
     7
 10
98.2224893569946
 20
-58.0551719665527
 30
0.0
 11
98.2224893569946
 21
6.79771803687601
 31
0.0
  0
LINE
  5
   38E
  8
0
  6
DASHDOT
 62
     7
 10
97.2224893569946
 20
-83.6170006389762
 30
0.0
 11
97.2224893569946
 21
11.8118782499266
 31
0.0
  0
LINE
  5
   38F
  8
0
  6
CONTINUOUS
 62
     7
 10
97.2224893569946
 20
1.46252822875976
 30
0.0
 11
97.2224893569946
 21
1.54771041870116
 31
0.0
  0
LINE
  5
   390
  8
0
  6
CONTINUOUS
 62
     7
 10
132.472477913028
 20
-24.5772754946309
 30
0.0
 11
132.472487596518
 21
-28.7022873480533
 31
0.0
  0
LINE
  5
   391
  8
0
  6
CONTINUOUS
 62
     7
 10
133.722459745826
 20
-1.45227780654739
 30
0.0
 11
134.076021138252
 21
-1.30583160113419
 31
0.0
  0
LINE
  5
   392
  8
0
  6
CONTINUOUS
 62
     7
 10
134.076027509808
 20
-1.30584216417343
 30
0.0
 11
134.222473726687
 21
-0.952288414948519
 31
0.0
  0
LINE
  5
   393
  8
0
  6
CONTINUOUS
 62
     7
 10
132.4724811827
 20
-4.95227486505435
 30
0.0
 11
132.472488812094
 21
-1.45227486477434
 31
0.0
  0
LINE
  5
   394
  8
0
  6
CONTINUOUS
 62
     7
 10
132.472489356995
 20
-1.45227432250977
 30
0.0
 11
133.722474098206
 21
-1.45227432250977
 31
0.0
  0
LINE
  5
   395
  8
0
  6
CONTINUOUS
 62
     7
 10
132.4724817276
 20
-24.5772743225098
 30
0.0
 11
132.4724817276
 21
-4.95227432250977
 31
0.0
  0
LINE
  5
   396
  8
0
  6
CONTINUOUS
 62
     7
 10
130.222489356995
 20
-49.9522743225098
 30
0.0
 11
130.222489356995
 21
-29.7022743225098
 31
0.0
  0
LINE
  5
   397
  8
0
  6
CONTINUOUS
 62
     7
 10
130.222504338099
 20
-29.7022467839373
 30
0.0
 11
130.356476495363
 21
-29.2022467976311
 31
0.0
  0
LINE
  5
   398
  8
0
  6
CONTINUOUS
 62
     7
 10
130.35649352911
 20
-29.2022277700938
 30
0.0
 11
130.722513713117
 21
-28.8361999652724
 31
0.0
  0
LINE
  5
   399
  8
0
  6
CONTINUOUS
 62
     7
 10
130.722461964494
 20
-28.8362595052588
 30
0.0
 11
131.222469567074
 21
-28.7022873480533
 31
0.0
  0
LINE
  5
   39A
  8
0
  6
CONTINUOUS
 62
     7
 10
130.222489356995
 20
-49.9522743225098
 30
0.0
 11
134.222489356995
 21
-49.9522743225098
 31
0.0
  0
LINE
  5
   39B
  8
0
  6
CONTINUOUS
 62
     7
 10
133.722429886911
 20
-56.9522807163341
 30
0.0
 11
134.222468013422
 21
-57.4522806984907
 31
0.0
  0
LINE
  5
   39C
  8
0
  6
CONTINUOUS
 62
     7
 10
133.722441647769
 20
-51.4522690193902
 30
0.0
 11
134.222487403178
 21
-50.9522690375443
 31
0.0
  0
LINE
  5
   39D
  8
0
  6
CONTINUOUS
 62
     7
 10
102.338531839798
 20
-51.4522870938865
 30
0.0
 11
133.722435343216
 21
-51.4522718350984
 31
0.0
  0
LINE
  5
   39E
  8
0
  6
CONTINUOUS
 62
     7
 10
102.338508605957
 20
-56.9522743225098
 30
0.0
 11
133.722442626953
 21
-56.9522743225098
 31
0.0
  0
LINE
  5
   39F
  8
0
  6
CONTINUOUS
 62
     7
 10
100.472487096933
 20
-50.9522886448535
 30
0.0
 11
102.338529605238
 21
-51.4522962734348
 31
0.0
  0
LINE
  5
   3A0
  8
0
  6
CONTINUOUS
 62
     7
 10
98.7224870748598
 20
-50.4833762440348
 30
0.0
 11
100.472503268675
 21
-50.952294036163
 31
0.0
  0
LINE
  5
   3A1
  8
0
  6
CONTINUOUS
 62
     7
 10
98.2224899126731
 20
-58.0551563858437
 30
0.0
 11
102.338509614666
 21
-56.9522740175737
 31
0.0
  0
LINE
  5
   3A2
  8
0
  6
CONTINUOUS
 62
     7
 10
98.2224958574967
 20
-49.3051225254327
 30
0.0
 11
98.7224944003257
 21
-49.1711503681641
 31
0.0
  0
LINE
  5
   3A3
  8
0
  6
CONTINUOUS
 62
     7
 10
98.2224893569946
 20
-61.2022819519043
 30
0.0
 11
100.222488880157
 21
-61.2022819519043
 31
0.0
  0
LINE
  5
   3A4
  8
0
  6
CONTINUOUS
 62
     7
 10
100.222488880157
 20
-64.9606709327872
 30
0.0
 11
100.222488880157
 21
-61.2022819519043
 31
0.0
  0
LINE
  5
   3A5
  8
0
  6
CONTINUOUS
 62
     7
 10
98.7224893569946
 20
-57.9211921691895
 30
0.0
 11
98.7224893569946
 21
-35.7022819519043
 31
0.0
  0
LINE
  5
   3A6
  8
0
  6
CONTINUOUS
 62
     7
 10
100.472489356995
 20
-50.9522743225098
 30
0.0
 11
100.472489356995
 21
-38.4522743225098
 31
0.0
  0
LINE
  5
   3A7
  8
0
  6
CONTINUOUS
 62
     7
 10
98.2224888801575
 20
-35.7022819519043
 30
0.0
 11
99.7224884033203
 21
-35.7022819519043
 31
0.0
  0
LINE
  5
   3A8
  8
0
  6
CONTINUOUS
 62
     7
 10
99.7224935544654
 20
-35.7022869084672
 30
0.0
 11
100.097494487962
 21
-35.8027660264104
 31
0.0
  0
LINE
  5
   3A9
  8
0
  6
CONTINUOUS
 62
     7
 10
99.7224935544654
 20
-35.7022869084672
 30
0.0
 11
100.097494487962
 21
-35.8027660264104
 31
0.0
  0
LINE
  5
   3AA
  8
0
  6
CONTINUOUS
 62
     7
 10
100.097490973909
 20
-35.8027685517887
 30
0.0
 11
100.372009935752
 21
-36.0772894111363
 31
0.0
  0
LINE
  5
   3AB
  8
0
  6
CONTINUOUS
 62
     7
 10
100.37200130827
 20
-36.0772960097606
 30
0.0
 11
100.47248186091
 21
-36.4522960085692
 31
0.0
  0
LINE
  5
   3AC
  8
0
  6
CONTINUOUS
 62
     7
 10
100.472498416901
 20
-38.4522811770388
 30
0.0
 11
100.472498416901
 21
-36.4522888064333
 31
0.0
  0
LINE
  5
   3AD
  8
0
  6
CONTINUOUS
 62
     7
 10
100.372012253171
 20
-38.8272851256089
 30
0.0
 11
100.419623482701
 21
-38.6495965296663
 31
0.0
  0
LINE
  5
   3AE
  8
0
  6
CONTINUOUS
 62
     7
 10
100.419622565542
 20
-38.6496013726081
 30
0.0
 11
100.472491884203
 21
-38.4522823451054
 31
0.0
  0
LINE
  5
   3AF
  8
0
  6
CONTINUOUS
 62
     7
 10
100.097489202504
 20
-39.101820831912
 30
0.0
 11
100.372008627557
 21
-38.8272999721591
 31
0.0
  0
LINE
  5
   3B0
  8
0
  6
CONTINUOUS
 62
     7
 10
99.7224829308635
 20
-39.2022923405245
 30
0.0
 11
100.097482925686
 21
-39.1018132302904
 31
0.0
  0
LINE
  5
   3B1
  8
0
  6
CONTINUOUS
 62
     7
 10
98.7224893569946
 20
-39.2022819519043
 30
0.0
 11
99.7224888801575
 21
-39.2022819519043
 31
0.0
  0
LINE
  5
   3B2
  8
0
  6
CONTINUOUS
 62
     7
 10
97.2224893569946
 20
-72.9522814750671
 30
0.0
 11
98.2224893569946
 21
-72.9522814750671
 31
0.0
  0
LINE
  5
   3B3
  8
0
  6
CONTINUOUS
 62
     7
 10
97.2224893569946
 20
1.54771041870116
 30
0.0
 11
98.2224893569946
 21
1.54771041870116
 31
0.0
  0
LINE
  5
   3B4
  8
0
  6
CONTINUOUS
 62
     7
 10
97.2224893569946
 20
-3.38646316528321
 30
0.0
 11
98.2224893569946
 21
-3.38646316528321
 31
0.0
  0
LINE
  5
   3B5
  8
0
  6
CONTINUOUS
 62
     7
 10
100.472477592363
 20
-56.7022800191352
 30
0.0
 11
101.871996030148
 21
-57.0772799901162
 31
0.0
  0
LINE
  5
   3B6
  8
0
  6
CONTINUOUS
 62
     7
 10
100.472472667694
 20
-56.7022752523373
 30
0.0
 11
100.472472667694
 21
-51.7022752523373
 31
0.0
  0
LINE
  5
   3B7
  8
0
  6
CONTINUOUS
 62
     7
 10
100.472472813961
 20
-51.7022819394635
 30
0.0
 11
101.8720031695
 21
-51.3272819428122
 31
0.0
  0
LINE
  5
   3B8
  8
0
  6
CONTINUOUS
 62
     7
 10
97.2224893569946
 20
-68.0599708557129
 30
0.0
 11
98.2224893569946
 21
-68.0599708557129
 31
0.0
  0
LINE
  5
   3B9
  8
0
  6
CONTINUOUS
 62
     7
 10
97.2224893569946
 20
-67.9522819519043
 30
0.0
 11
98.2224893569946
 21
-67.9522819519043
 31
0.0
  0
LINE
  5
   3BA
  8
0
  6
CONTINUOUS
 62
     7
 10
100.372013946882
 20
-39.0919312544243
 30
0.0
 11
100.472494016412
 21
-38.6495942330379
 31
0.0
  0
LINE
  5
   3BB
  8
0
  6
CONTINUOUS
 62
     7
 10
100.419619560242
 20
-38.6495933532715
 30
0.0
 11
100.47248840332
 21
-38.6495933532715
 31
0.0
  0
LINE
  5
   3BC
  8
0
  6
CONTINUOUS
 62
     7
 10
100.405500968882
 20
-45.7022871044446
 30
0.0
 11
100.472487047986
 21
-45.6525587128647
 31
0.0
  0
LINE
  5
   3BD
  8
0
  6
CONTINUOUS
 62
     7
 10
100.372010952945
 20
-45.6774404663475
 30
0.0
 11
100.405505423014
 21
-45.7023046612444
 31
0.0
  0
LINE
  5
   3BE
  8
0
  6
CONTINUOUS
 62
     7
 10
100.372008323669
 20
-40.7022743225098
 30
0.0
 11
100.472488880157
 21
-40.7022743225098
 31
0.0
  0
LINE
  5
   3BF
  8
0
  6
CONTINUOUS
 62
     7
 10
100.372005590225
 20
-43.7271676378208
 30
0.0
 11
100.405500060294
 21
-43.7023034429238
 31
0.0
  0
LINE
  5
   3C0
  8
0
  6
CONTINUOUS
 62
     7
 10
100.405504900839
 20
-43.7022905865282
 30
0.0
 11
100.472490979943
 21
-43.7520189781081
 31
0.0
  0
LINE
  5
   3C1
  8
0
  6
CONTINUOUS
 62
     7
 10
100.372005495444
 20
-39.5363523958193
 30
0.0
 11
100.426592364975
 21
-39.8412382565904
 31
0.0
  0
LINE
  5
   3C2
  8
0
  6
CONTINUOUS
 62
     7
 10
100.426594811925
 20
-39.8412347226797
 30
0.0
 11
100.472488480018
 21
-40.7022728978499
 31
0.0
  0
LINE
  5
   3C3
  8
0
  6
CONTINUOUS
 62
     7
 10
100.11432621509
 20
-45.626171442127
 30
0.0
 11
100.372006148583
 21
-45.6774257089814
 31
0.0
  0
LINE
  5
   3C4
  8
0
  6
CONTINUOUS
 62
     7
 10
100.097488094038
 20
-45.6149150678702
 30
0.0
 11
100.114327598175
 21
-45.6261684240608
 31
0.0
  0
LINE
  5
   3C5
  8
0
  6
CONTINUOUS
 62
     7
 10
100.097480682479
 20
-43.7896614489634
 30
0.0
 11
100.114321139711
 21
-43.7784080925406
 31
0.0
  0
LINE
  5
   3C6
  8
0
  6
CONTINUOUS
 62
     7
 10
100.114324436836
 20
-43.7784104884635
 30
0.0
 11
100.372003417229
 21
-43.7271562295854
 31
0.0
  0
LINE
  5
   3C7
  8
0
  6
CONTINUOUS
 62
     7
 10
100.097488880157
 20
-40.7022743225098
 30
0.0
 11
100.372008323669
 21
-40.7022743225098
 31
0.0
  0
LINE
  5
   3C8
  8
0
  6
CONTINUOUS
 62
     7
 10
99.722486645792
 20
-45.5477833080707
 30
0.0
 11
100.097486637089
 21
-45.6149219644764
 31
0.0
  0
LINE
  5
   3C9
  8
0
  6
CONTINUOUS
 62
     7
 10
99.7224860655034
 20
-43.8567984842936
 30
0.0
 11
100.0974860568
 21
-43.7896598278878
 31
0.0
  0
LINE
  5
   3CA
  8
0
  6
CONTINUOUS
 62
     7
 10
99.7224888801575
 20
-40.7022743225098
 30
0.0
 11
100.097488880157
 21
-40.7022743225098
 31
0.0
  0
LINE
  5
   3CB
  8
0
  6
CONTINUOUS
 62
     7
 10
98.7224893569946
 20
-43.8567924499512
 30
0.0
 11
99.7224888801575
 21
-43.8567924499512
 31
0.0
  0
LINE
  5
   3CC
  8
0
  6
CONTINUOUS
 62
     7
 10
98.7224893569946
 20
-40.7022743225098
 30
0.0
 11
99.7224888801575
 21
-40.7022743225098
 31
0.0
  0
LINE
  5
   3CD
  8
0
  6
CONTINUOUS
 62
     7
 10
98.7224893569946
 20
-45.5477714538574
 30
0.0
 11
99.7224888801575
 21
-45.5477714538574
 31
0.0
  0
LINE
  5
   3CE
  8
0
  6
CONTINUOUS
 62
     3
 10
112.847489356995
 20
6.79772567749023
 30
0.0
 11
146.722489357591
 21
6.79772567749023
 31
0.0
  0
LINE
  5
   3CF
  8
0
  6
CONTINUOUS
 62
     3
 10
130.882047921207
 20
5.39773178100585
 30
0.0
 11
145.322487831712
 21
5.39773178100585
 31
0.0
  0
LINE
  5
   3D0
  8
0
  6
CONTINUOUS
 62
     3
 10
134.222489357591
 20
-76.802267074585
 30
0.0
 11
145.322487831712
 21
-76.802267074585
 31
0.0
  0
LINE
  5
   3D1
  8
0
  6
CONTINUOUS
 62
     3
 10
134.222489357591
 20
-78.2022666931152
 30
0.0
 11
146.722489357591
 21
-78.2022666931152
 31
0.0
  0
LINE
  5
   3D2
  8
0
  6
CONTINUOUS
 62
     3
 10
134.222489357591
 20
-78.2022666931152
 30
0.0
 11
134.222489357591
 21
-57.0772743225098
 31
0.0
  0
LINE
  5
   3D3
  8
0
  6
CONTINUOUS
 62
     3
 10
134.222489357592
 20
-51.3272819519043
 30
0.0
 11
134.222489357592
 21
-49.9522438049317
 31
0.0
  0
LINE
  5
   3D4
  8
0
  6
CONTINUOUS
 62
     3
 10
134.222489356995
 20
-0.952250679907529
 30
0.0
 11
134.222489356995
 21
6.79772567749023
 31
0.0
  0
LINE
  5
   3D5
  8
0
  6
CONTINUOUS
 62
     3
 10
148.972489357591
 20
-29.227840423584
 30
0.0
 11
148.972489357591
 21
-24.4524345397949
 31
0.0
  0
LINE
  5
   3D6
  8
0
  6
CONTINUOUS
 62
     3
 10
148.972462293148
 20
-54.6770629123868
 30
0.0
 11
148.972485181331
 21
-57.9524225430398
 31
0.0
  0
LINE
  5
   3D7
  8
0
  6
CONTINUOUS
 62
     3
 10
146.722489357591
 20
-5.32727432250977
 30
0.0
 11
146.722489357591
 21
6.79772567749023
 31
0.0
  0
LINE
  5
   3D8
  8
0
  6
CONTINUOUS
 62
     3
 10
145.322487831712
 20
-1.32726669311524
 30
0.0
 11
146.722489357591
 21
-1.32726669311524
 31
0.0
  0
LINE
  5
   3D9
  8
0
  6
CONTINUOUS
 62
     3
 10
146.722489357591
 20
-78.2022666931152
 30
0.0
 11
146.722489357591
 21
-65.8272658075606
 31
0.0
  0
LINE
  5
   3DA
  8
0
  6
CONTINUOUS
 62
     3
 10
145.322487831712
 20
-70.0772666931152
 30
0.0
 11
146.722489357591
 21
-70.0772666931152
 31
0.0
  0
LINE
  5
   3DB
  8
0
  6
CONTINUOUS
 62
     3
 10
145.322487831712
 20
-76.8022651672363
 30
0.0
 11
145.322487831712
 21
-65.8272654260904
 31
0.0
  0
LINE
  5
   3DC
  8
0
  6
CONTINUOUS
 62
     3
 10
134.222487828184
 20
-51.3272743225098
 30
0.0
 11
145.322486302305
 21
-51.3272743225098
 31
0.0
  0
LINE
  5
   3DD
  8
0
  6
CONTINUOUS
 62
     3
 10
134.222488173389
 20
-57.0772743225098
 30
0.0
 11
145.32248664751
 21
-57.0772743225098
 31
0.0
  0
LINE
  5
   3DE
  8
0
  6
CONTINUOUS
 62
     1
 10
145.322487831712
 20
-5.32727432250977
 30
0.0
 11
147.972488880754
 21
-5.32727432250977
 31
0.0
  0
LINE
  5
   3DF
  8
0
  6
CONTINUOUS
 62
     1
 10
146.472489357591
 20
-65.8272662162781
 30
0.0
 11
146.722489357591
 21
-65.8272662162781
 31
0.0
  0
LINE
  5
   3E0
  8
0
  6
CONTINUOUS
 62
     1
 10
145.322487831712
 20
-65.8272654260904
 30
0.0
 11
147.972488880754
 21
-65.8272661481585
 31
0.0
  0
LINE
  5
   3E1
  8
0
  6
CONTINUOUS
 62
     2
 10
153.473144517838
 20
-62.8272738456726
 30
0.0
 11
153.473144517838
 21
-61.8272752761841
 31
0.0
  0
LINE
  5
   3E2
  8
0
  6
CONTINUOUS
 62
     2
 10
148.97314454764
 20
-63.0772743206823
 30
0.0
 11
148.97314454764
 21
-10.5772743206823
 31
0.0
  0
LINE
  5
   3E3
  8
0
  6
CONTINUOUS
 62
     2
 10
147.972488880754
 20
-10.5772743225098
 30
0.0
 11
150.723073589278
 21
-10.5772743225098
 31
0.0
  0
LINE
  5
   3E4
  8
0
  6
CONTINUOUS
 62
     2
 10
147.972488880754
 20
-63.0772743213298
 30
0.0
 11
150.723073589278
 21
-63.0772743213298
 31
0.0
  0
LINE
  5
   3E5
  8
0
  6
CONTINUOUS
 62
     2
 10
153.473116079824
 20
-53.8272823592945
 30
0.0
 11
153.473144213216
 21
-62.8272747298463
 31
0.0
  0
LINE
  5
   3E6
  8
0
  6
CONTINUOUS
 62
     2
 10
153.473047183839
 20
-47.3272821302793
 30
0.0
 11
153.473114417878
 21
-53.3272821301859
 31
0.0
  0
LINE
  5
   3E7
  8
0
  6
CONTINUOUS
 62
     2
 10
153.473143087327
 20
-46.8272745548151
 30
0.0
 11
153.473143087327
 21
-37.0772821842097
 31
0.0
  0
LINE
  5
   3E8
  8
0
  6
CONTINUOUS
 62
     2
 10
153.473043587286
 20
-46.827287333944
 30
0.0
 11
153.473070290165
 21
-37.0772873333232
 31
0.0
  0
LINE
  5
   3E9
  8
0
  6
CONTINUOUS
 62
     2
 10
153.472965307728
 20
-30.577283574384
 30
0.0
 11
153.47306925817
 21
-36.5772835743236
 31
0.0
  0
LINE
  5
   3EA
  8
0
  6
CONTINUOUS
 62
     7
 10
131.222469567074
 20
-28.7022873480533
 30
0.0
 11
132.472485542422
 21
-28.7022873480533
 31
0.0
  0
LINE
  5
   3EB
  8
0
  6
CONTINUOUS
 62
     7
 10
147.972488880754
 20
-10.5772743225098
 30
0.0
 11
147.972488880754
 21
-5.32727432250977
 31
0.0
  0
LINE
  5
   3EC
  8
0
  6
CONTINUOUS
 62
     7
 10
147.972488880754
 20
-65.8272661481585
 30
0.0
 11
147.972488880754
 21
-63.0772743213298
 31
0.0
  0
LINE
  5
   3ED
  8
0
  6
CONTINUOUS
 62
     3
 10
145.322487831712
 20
-5.32727432250977
 30
0.0
 11
145.322487831712
 21
5.39773178100585
 31
0.0
  0
LINE
  5
   3EE
  8
0
  6
CONTINUOUS
 62
     3
 10
145.322487831712
 20
-65.8272654260904
 30
0.0
 11
145.322487831712
 21
-5.32727432250977
 31
0.0
  0
ARC
  5
   3EF
  8
0
  6
CONTINUOUS
 62
     7
 10
163.810509261668
 20
-47.8492151477958
 30
0.0
 40
0.499999897877905
 50
348.623601768641
 51
436.688817106542
  0
ARC
  5
   3F0
  8
0
  6
CONTINUOUS
 62
     7
 10
163.21213853312
 20
-50.8231244278447
 30
0.0
 40
0.50000037262337
 50
260.594020595617
 51
348.623601768641
  0
LINE
  5
   3F1
  8
0
  6
DASHDOT
 62
     7
 10
146.152457369611
 20
-45.8616343542863
 30
0.0
 11
171.210803098601
 21
-50.9035421243266
 31
0.0
  0
LINE
  5
   3F2
  8
0
  6
CONTINUOUS
 62
     7
 10
153.473048894115
 20
-44.8896091706947
 30
0.0
 11
163.925628993282
 21
-47.3626486211405
 31
0.0
  0
LINE
  5
   3F3
  8
0
  6
CONTINUOUS
 62
     7
 10
163.702315026797
 20
-50.921751236609
 30
0.0
 11
164.300685591052
 21
-47.9478419235031
 31
0.0
  0
LINE
  5
   3F4
  8
0
  6
CONTINUOUS
 62
     7
 10
153.473073957785
 20
-49.7166027694955
 30
0.0
 11
163.130424038581
 21
-51.3164021911452
 31
0.0
  0
LINE
  5
   3F5
  8
0
  6
DASHDOT
 62
     7
 10
95.7224893569946
 20
-83.6170006389762
 30
0.0
 11
95.7224893569946
 21
11.8118782499266
 31
0.0
  0
LINE
  5
   3F6
  8
0
  6
CONTINUOUS
 62
     7
 10
109.222489356995
 20
-4.95227432250977
 30
0.0
 11
115.672135598194
 21
-4.95227432250977
 31
0.0
  0
LINE
  5
   3F7
  8
0
  6
CONTINUOUS
 62
     7
 10
109.387553389998
 20
-6.20227432250977
 30
0.0
 11
115.96424558239
 21
-6.20227432250977
 31
0.0
  0
LINE
  5
   3F8
  8
0
  6
CONTINUOUS
 62
     7
 10
102.722489356995
 20
-8.23505170371338
 30
0.0
 11
102.722489356995
 21
-6.20227432250977
 31
0.0
  0
LINE
  5
   3F9
  8
0
  6
CONTINUOUS
 62
     7
 10
104.722489356995
 20
-8.23505170371338
 30
0.0
 11
104.722489356995
 21
-6.20227432250977
 31
0.0
  0
LINE
  5
   3FA
  8
0
  6
CONTINUOUS
 62
     7
 10
109.722489356995
 20
-6.20227432250977
 30
0.0
 11
109.722489356995
 21
-4.95227432250977
 31
0.0
  0
LINE
  5
   3FB
  8
0
  6
CONTINUOUS
 62
     7
 10
102.722489356995
 20
-6.20227432250977
 30
0.0
 11
105.946712773448
 21
-6.20227432250977
 31
0.0
  0
LINE
  5
   3FC
  8
0
  6
CONTINUOUS
 62
     3
 10
94.6080687940139
 20
-8.23505170371338
 30
0.0
 11
115.96424558239
 21
-8.23505170371338
 31
0.0
  0
LINE
  5
   3FD
  8
0
  6
CONTINUOUS
 62
     7
 10
107.222489356995
 20
4.54772567749023
 30
0.0
 11
109.722489356995
 21
4.54772567749023
 31
0.0
  0
LINE
  5
   3FE
  8
0
  6
CONTINUOUS
 62
     7
 10
106.933880696909
 20
-8.7350517037134
 30
0.0
 11
108.972124392903
 21
-6.73798999968456
 31
0.0
  0
LINE
  5
   3FF
  8
0
  6
CONTINUOUS
 62
     7
 10
105.472853860487
 20
-6.66655916225319
 30
0.0
 11
107.222489277538
 21
-4.9522742200587
 31
0.0
  0
LINE
  5
   400
  8
0
  6
CONTINUOUS
 62
     7
 10
107.222489356995
 20
-4.95227432250977
 30
0.0
 11
107.222489356995
 21
-2.05227432250978
 31
0.0
  0
ARC
  5
   401
  8
0
  6
CONTINUOUS
 62
     7
 10
107.222488954761
 20
-8.452273523874
 30
0.0
 40
2.49999952145068
 50
134.415297555408
 51
180.0
  0
ARC
  5
   402
  8
0
  6
CONTINUOUS
 62
     7
 10
107.222489356995
 20
-4.95227522931287
 30
0.0
 40
2.5
 50
314.415292725986
 51
360.0
  0
LINE
  5
   403
  8
0
  6
DASHDOT
 62
     7
 10
104.558975244011
 20
4.77256774902273E-2
 30
0.0
 11
112.888798808309
 21
4.77256774902273E-2
 31
0.0
  0
INSERT
  5
   404
  8
0
  6
CONTINUOUS
 62
     7
  2
*HATCH1123
 10
98.2224884033203
 20
-41.9522743225098
 30
0.0
 41
0.5
 42
0.5
 43
0.5
  0
LINE
  5
   405
  8
0
  6
CONTINUOUS
 62
     7
 10
98.2224893569946
 20
-66.4522681134831
 30
0.0
 11
107.222489356995
 21
-66.4522681134831
 31
0.0
  0
LINE
  5
   406
  8
0
  6
CONTINUOUS
 62
     7
 10
105.222489356995
 20
-66.4522681134831
 30
0.0
 11
105.222489356995
 21
-64.9606709327872
 31
0.0
  0
LINE
  5
   407
  8
0
  6
CONTINUOUS
 62
     7
 10
107.222489356995
 20
-66.4522681134831
 30
0.0
 11
107.222489356995
 21
-64.9606709327872
 31
0.0
  0
LINE
  5
   408
  8
0
  6
CONTINUOUS
 62
     7
 10
110.222489356995
 20
-66.4522681134831
 30
0.0
 11
110.222489356995
 21
-64.9606709327872
 31
0.0
  0
LINE
  5
   409
  8
0
  6
CONTINUOUS
 62
     7
 10
110.222489356995
 20
-66.4522681134831
 30
0.0
 11
121.826524941145
 21
-66.4522681134831
 31
0.0
  0
LINE
  5
   40A
  8
0
  6
CONTINUOUS
 62
     3
 10
97.5285781009104
 20
-64.9606709327872
 30
0.0
 11
121.646089798318
 21
-64.9606709327872
 31
0.0
  0
LINE
  5
   40B
  8
0
  6
CONTINUOUS
 62
     7
 10
107.222489356995
 20
-75.9522681134831
 30
0.0
 11
108.722488880157
 21
-75.9522681134831
 31
0.0
  0
LINE
  5
   40C
  8
0
  6
CONTINUOUS
 62
     7
 10
108.722488880157
 20
-75.9522681134832
 30
0.0
 11
108.722488880157
 21
-73.4522743225098
 31
0.0
  0
LINE
  5
   40D
  8
0
  6
CONTINUOUS
 62
     7
 10
107.222489356992
 20
-75.9522681134831
 30
0.0
 11
107.222489356992
 21
-64.9606709327872
 31
0.0
  0
LINE
  5
   40E
  8
0
  6
CONTINUOUS
 62
     7
 10
108.722488880157
 20
-75.9522681134832
 30
0.0
 11
109.722488880157
 21
-75.9522681134832
 31
0.0
  0
LINE
  5
   40F
  8
0
  6
CONTINUOUS
 62
     7
 10
108.722488880157
 20
-65.4522681134832
 30
0.0
 11
109.722488880157
 21
-65.4522681134832
 31
0.0
  0
LINE
  5
   410
  8
0
  6
DASHDOT
 62
     7
 10
104.558975244011
 20
-71.4522743225098
 30
0.0
 11
115.268561430827
 21
-71.4522743225098
 31
0.0
  0
INSERT
  5
   411
  8
0
  6
CONTINUOUS
 62
     7
  2
*HATCH1124
 10
98.2224884033203
 20
-41.9522743225098
 30
0.0
 41
0.5
 42
0.5
 43
0.5
  0
LINE
  5
   412
  8
0
  6
CONTINUOUS
 62
     7
 10
107.222489356992
 20
-69.4022743225098
 30
0.0
 11
109.722488880157
 21
-69.4022743225098
 31
0.0
  0
LINE
  5
   413
  8
0
  6
CONTINUOUS
 62
     7
 10
107.222489356992
 20
-73.5022743225098
 30
0.0
 11
109.722488880157
 21
-73.5022743225098
 31
0.0
  0
INSERT
  5
   414
  8
0
  6
CONTINUOUS
 62
     7
  2
*HATCH1125
 10
98.2224884033203
 20
-41.9522743225098
 30
0.0
 41
0.5
 42
0.5
 43
0.5
  0
INSERT
  5
   415
  8
0
  6
CONTINUOUS
 62
     7
  2
*HATCH1126
 10
98.2224884033203
 20
-41.9522743225098
 30
0.0
 41
0.5
 42
0.5
 43
0.5
  0
INSERT
  5
   416
  8
0
  6
CONTINUOUS
 62
     7
  2
*HATCH1127
 10
98.2224884033203
 20
-41.9522743225098
 30
0.0
 41
0.5
 42
0.5
 43
0.5
  0
ARC
  5
   417
  8
0
  6
DASHDOT
 62
     7
 10
126.722888301042
 20
-41.9522743225098
 30
0.0
 40
38.0221347997541
 50
337.492314756863
 51
360.0
  0
LINE
  5
   418
  8
0
  6
DASHDOT
 62
     7
 10
164.745023100796
 20
-41.9522743225098
 30
0.0
 11
164.745023100796
 21
-39.0771745051411
 31
0.0
  0
LINE
  5
   419
  8
0
  6
CONTINUOUS
 62
     7
 10
107.222489356995
 20
2.14772567749022
 30
0.0
 11
109.222489356995
 21
2.14772567749022
 31
0.0
  0
LINE
  5
   41A
  8
0
  6
CONTINUOUS
 62
     7
 10
107.222489356995
 20
-2.05227432250978
 30
0.0
 11
109.222489356995
 21
-2.05227432250978
 31
0.0
  0
INSERT
  5
   41B
  8
0
  6
CONTINUOUS
 62
     7
  2
*HATCH1128
 10
98.2224884033203
 20
-41.9522743225098
 30
0.0
 41
0.5
 42
0.5
 43
0.5
  0
LINE
  5
   41C
  8
0
  6
CONTINUOUS
 62
     7
 10
98.2224893569946
 20
6.79771803687601
 30
0.0
 11
98.9724893569946
 21
6.79771803687601
 31
0.0
  0
LINE
  5
   41D
  8
0
  6
CONTINUOUS
 62
     1
 10
150.723073589278
 20
-64.3272743225098
 30
0.0
 11
150.723073589278
 21
-63.3272743225098
 31
0.0
  0
LINE
  5
   41E
  8
0
  6
CONTINUOUS
 62
     1
 10
150.723073589278
 20
-64.3272743225098
 30
0.0
 11
151.723073589278
 21
-64.3272743225098
 31
0.0
  0
LINE
  5
   41F
  8
0
  6
CONTINUOUS
 62
     1
 10
150.723073589278
 20
-10.3272762298584
 30
0.0
 11
150.723073589278
 21
-9.3272762298584
 31
0.0
  0
LINE
  5
   420
  8
0
  6
CONTINUOUS
 62
     1
 10
150.723073589278
 20
-9.3272762298584
 30
0.0
 11
151.723073589278
 21
-9.3272762298584
 31
0.0
  0
LINE
  5
   421
  8
0
  6
CONTINUOUS
 62
     1
 10
150.723073589278
 20
-63.3272743225098
 30
0.0
 11
150.723073589278
 21
-10.3272743225098
 31
0.0
  0
LINE
  5
   422
  8
0
  6
CONTINUOUS
 62
     1
 10
148.473073678685
 20
-2.53860282897949
 30
0.0
 11
148.473073678685
 21
-0.115949630737305
 31
0.0
  0
LINE
  5
   423
  8
0
  6
CONTINUOUS
 62
     1
 10
148.473073678685
 20
-73.5385990142822
 30
0.0
 11
148.473073678685
 21
-71.1159496307373
 31
0.0
  0
LINE
  5
   424
  8
0
  6
CONTINUOUS
 62
     1
 10
151.723073589278
 20
-77.5772762298584
 30
0.0
 11
151.723073589278
 21
3.9227237701416
 31
0.0
  0
LINE
  5
   425
  8
0
  6
CONTINUOUS
 62
     1
 10
151.723073589278
 20
-77.5772743225098
 30
0.0
 11
153.473073589278
 21
-77.5772743225098
 31
0.0
  0
LINE
  5
   426
  8
0
  6
CONTINUOUS
 62
     1
 10
153.473073589278
 20
-77.5772743225098
 30
0.0
 11
153.473073589278
 21
3.92272567749023
 31
0.0
  0
LINE
  5
   427
  8
0
  6
CONTINUOUS
 62
     1
 10
151.723073589278
 20
3.9227237701416
 30
0.0
 11
152.473073589278
 21
3.9227237701416
 31
0.0
  0
LINE
  5
   428
  8
0
  6
CONTINUOUS
 62
     1
 10
152.973073589278
 20
3.9227237701416
 30
0.0
 11
153.473073589278
 21
3.9227237701416
 31
0.0
  0
LINE
  5
   429
  8
0
  6
CONTINUOUS
 62
     1
 10
148.97307363813
 20
-2.8272762298584
 30
0.0
 11
151.723073589278
 21
-2.8272762298584
 31
0.0
  0
LINE
  5
   42A
  8
0
  6
CONTINUOUS
 62
     1
 10
148.973073696289
 20
0.172723770141602
 30
0.0
 11
151.723073589278
 21
0.172723770141602
 31
0.0
  0
LINE
  5
   42B
  8
0
  6
CONTINUOUS
 62
     1
 10
148.473074059233
 20
-2.53860397389096
 30
0.0
 11
148.973074075696
 21
-2.82727737838917
 31
0.0
  0
LINE
  5
   42C
  8
0
  6
CONTINUOUS
 62
     1
 10
148.973073543155
 20
-2.82727622985836
 30
0.0
 11
148.973073543155
 21
-2.71309471130367
 31
0.0
  0
LINE
  5
   42D
  8
0
  6
CONTINUOUS
 62
     1
 10
148.97307363813
 20
-2.8272762298584
 30
0.0
 11
148.97307363813
 21
-2.38793754577635
 31
0.0
  0
LINE
  5
   42E
  8
0
  6
CONTINUOUS
 62
     1
 10
148.973073660436
 20
-2.38793754577637
 30
0.0
 11
148.973073660436
 21
-1.90129661560059
 31
0.0
  0
LINE
  5
   42F
  8
0
  6
CONTINUOUS
 62
     1
 10
148.973073672835
 20
-1.90129661560059
 30
0.0
 11
148.973073672835
 21
-1.3272762298584
 31
0.0
  0
LINE
  5
   430
  8
0
  6
CONTINUOUS
 62
     1
 10
148.973073683732
 20
-1.3272762298584
 30
0.0
 11
148.973073683732
 21
-0.75324821472168
 31
0.0
  0
LINE
  5
   431
  8
0
  6
CONTINUOUS
 62
     1
 10
148.973073696289
 20
-0.75324821472168
 30
0.0
 11
148.973073696289
 21
0.172723770141602
 31
0.0
  0
LINE
  5
   432
  8
0
  6
CONTINUOUS
 62
     1
 10
148.973073719125
 20
-0.266614913940444
 30
0.0
 11
148.973073719125
 21
5.85422515868999E-2
 31
0.0
  0
LINE
  5
   433
  8
0
  6
CONTINUOUS
 62
     1
 10
148.473073250095
 20
-0.115950821606326
 30
0.0
 11
148.973073266559
 21
0.172722582891886
 31
0.0
  0
LINE
  5
   434
  8
0
  6
CONTINUOUS
 62
     1
 10
148.973073817054
 20
5.85422515868714E-2
 30
0.0
 11
148.973073817054
 21
0.172723770141559
 31
0.0
  0
LINE
  5
   435
  8
0
  6
CONTINUOUS
 62
     1
 10
148.973074680388
 20
-70.8272743225098
 30
0.0
 11
151.723073589278
 21
-70.8272743225098
 31
0.0
  0
LINE
  5
   436
  8
0
  6
CONTINUOUS
 62
     1
 10
148.97307283861
 20
-73.8272743225098
 30
0.0
 11
151.723073589278
 21
-73.8272743225098
 31
0.0
  0
LINE
  5
   437
  8
0
  6
CONTINUOUS
 62
     1
 10
148.973073726257
 20
-70.9414558410645
 30
0.0
 11
148.973073726257
 21
-70.8272743225098
 31
0.0
  0
LINE
  5
   438
  8
0
  6
CONTINUOUS
 62
     1
 10
148.473073423608
 20
-71.1159503308632
 30
0.0
 11
148.973073440072
 21
-70.8272750386066
 31
0.0
  0
LINE
  5
   439
  8
0
  6
CONTINUOUS
 62
     1
 10
148.973073703993
 20
-71.2666149139404
 30
0.0
 11
148.973073703993
 21
-70.9414558410645
 31
0.0
  0
LINE
  5
   43A
  8
0
  6
CONTINUOUS
 62
     1
 10
148.973073698958
 20
-71.7532482147217
 30
0.0
 11
148.973073698958
 21
-71.2666149139404
 31
0.0
  0
LINE
  5
   43B
  8
0
  6
CONTINUOUS
 62
     1
 10
148.973073696145
 20
-72.3272743225098
 30
0.0
 11
148.973073696145
 21
-71.7532482147217
 31
0.0
  0
LINE
  5
   43C
  8
0
  6
CONTINUOUS
 62
     1
 10
148.973073693737
 20
-72.9012985229492
 30
0.0
 11
148.973073693737
 21
-72.3272743225098
 31
0.0
  0
LINE
  5
   43D
  8
0
  6
CONTINUOUS
 62
     1
 10
148.973073691161
 20
-73.3879337310791
 30
0.0
 11
148.973073691161
 21
-72.9012985229492
 31
0.0
  0
LINE
  5
   43E
  8
0
  6
CONTINUOUS
 62
     1
 10
148.973073686551
 20
-73.7130928039551
 30
0.0
 11
148.973073686551
 21
-73.3879337310791
 31
0.0
  0
LINE
  5
   43F
  8
0
  6
CONTINUOUS
 62
     1
 10
148.973073667265
 20
-73.8272743225097
 30
0.0
 11
148.973073667265
 21
-73.7130928039551
 31
0.0
  0
LINE
  5
   440
  8
0
  6
CONTINUOUS
 62
     1
 10
148.47307388519
 20
-73.5385996440028
 30
0.0
 11
148.973073901654
 21
-73.8272749362593
 31
0.0
  0
LINE
  5
   441
  8
0
  6
CONTINUOUS
 62
     1
 10
152.473073589278
 20
3.9227237701416
 30
0.0
 11
152.973073589278
 21
3.9227237701416
 31
0.0
  0
LINE
  5
   442
  8
0
  6
CONTINUOUS
 62
     7
 10
151.723073589278
 20
3.9227237701416
 30
0.0
 11
151.723073589278
 21
39.3270193873656
 31
0.0
  0
LINE
  5
   443
  8
0
  6
CONTINUOUS
 62
     7
 10
150.723073589278
 20
-10.3272743225098
 30
0.0
 11
150.723073589278
 21
-2.8272762298584
 31
0.0
  0
LINE
  5
   444
  8
0
  6
CONTINUOUS
 62
     7
 10
151.723073589278
 20
-100.063709938982
 30
0.0
 11
151.723073589278
 21
-77.5772743225098
 31
0.0
  0
LINE
  5
   445
  8
0
  6
CONTINUOUS
 62
     7
 10
150.723073589278
 20
-100.783336107206
 30
0.0
 11
150.723073589278
 21
-73.8272743225098
 31
0.0
  0
LINE
  5
   446
  8
0
  6
CONTINUOUS
 62
     3
 10
148.837992636482
 20
-102.13988969006
 30
0.0
 11
153.699952904249
 21
-98.6410958525073
 31
0.0
  0
LINE
  5
   447
  8
0
  6
CONTINUOUS
 62
     3
 10
148.338164945403
 20
40.9471466015281
 30
0.0
 11
153.654514023242
 21
38.4025692651265
 31
0.0
  0
LINE
  5
   448
  8
0
  6
CONTINUOUS
 62
     7
 10
150.723073589278
 20
0.422723770141594
 30
0.0
 11
151.723073589278
 21
0.422723770141594
 31
0.0
  0
LINE
  5
   449
  8
0
  6
CONTINUOUS
 62
     7
 10
150.723073589278
 20
-3.0772762298584
 30
0.0
 11
151.723073589278
 21
-3.0772762298584
 31
0.0
  0
LINE
  5
   44A
  8
0
  6
CONTINUOUS
 62
     7
 10
150.723073589278
 20
-8.8272762298584
 30
0.0
 11
151.723073589278
 21
-8.8272762298584
 31
0.0
  0
LINE
  5
   44B
  8
0
  6
CONTINUOUS
 62
     7
 10
150.723073589278
 20
-64.8272743225098
 30
0.0
 11
151.723073589278
 21
-64.8272743225098
 31
0.0
  0
LINE
  5
   44C
  8
0
  6
CONTINUOUS
 62
     7
 10
150.723073589278
 20
-70.5772743225098
 30
0.0
 11
151.723073589278
 21
-70.5772743225098
 31
0.0
  0
LINE
  5
   44D
  8
0
  6
CONTINUOUS
 62
     7
 10
150.723073589278
 20
-74.0772743225098
 30
0.0
 11
151.723073589278
 21
-74.0772743225098
 31
0.0
  0
LINE
  5
   44E
  8
0
  6
CONTINUOUS
 62
     7
 10
150.723073589278
 20
-70.8272743225098
 30
0.0
 11
150.723073589278
 21
-64.3272743225098
 31
0.0
  0
LINE
  5
   44F
  8
0
  6
CONTINUOUS
 62
     7
 10
150.723073589278
 20
0.172723770141602
 30
0.0
 11
150.723073589278
 21
39.8056518659981
 31
0.0
  0
INSERT
  5
   450
  8
0
  6
CONTINUOUS
 62
     7
  2
*HATCH1129
 10
98.2224884033203
 20
-41.9522743225098
 30
0.0
 41
0.5
 42
0.5
 43
0.5
  0
INSERT
  5
   451
  8
0
  6
CONTINUOUS
 62
     7
  2
*HATCH1130
 10
98.2224884033203
 20
-41.9522743225098
 30
0.0
 41
0.5
 42
0.5
 43
0.5
  0
INSERT
  5
   452
  8
0
  6
CONTINUOUS
 62
     7
  2
*HATCH1131
 10
98.2224884033203
 20
-41.9522743225098
 30
0.0
 41
0.5
 42
0.5
 43
0.5
  0
INSERT
  5
   453
  8
0
  6
CONTINUOUS
 62
     7
  2
*HATCH1132
 10
98.2224884033203
 20
-41.9522743225098
 30
0.0
 41
0.5
 42
0.5
 43
0.5
  0
LINE
  5
   454
  8
0
  6
DASHDOT
 62
     7
 10
86.8831394306545
 20
-36.8272743225098
 30
0.0
 11
167.825813562634
 21
-36.8272743225098
 31
0.0
  0
LINE
  5
   455
  8
0
  6
DASHDOT
 62
     7
 10
41.872251506097
 20
-36.8272743225098
 30
0.0
 11
56.2101260753782
 21
-36.8272743225098
 31
0.0
  0
LINE
  5
   456
  8
0
  6
CONTINUOUS
 62
     3
 10
121.646089798318
 20
-64.9606709327872
 30
0.0
 11
123.424877922574
 21
-79.6653194266325
 31
0.0
  0
INSERT
  5
   457
  8
0
  6
CONTINUOUS
 62
     7
  2
*HATCH1133
 10
98.2224884033203
 20
-41.9522743225098
 30
0.0
 41
0.5
 42
0.5
 43
0.5
  0
LINE
  5
   458
  8
0
  6
CONTINUOUS
 62
     7
 10
98.2224893569946
 20
-78.2022681134831
 30
0.0
 11
98.9724893569921
 21
-78.2022681134831
 31
0.0
  0
LINE
  5
   459
  8
0
  6
CONTINUOUS
 62
     3
 10
130.303225089943
 20
-5.32307370239495
 30
0.0
 11
131.040023856821
 21
8.32372084934108
 31
0.0
  0
LINE
  5
   45A
  8
0
  6
CONTINUOUS
 62
     3
 10
115.96424558239
 20
-5.32307370239496
 30
0.0
 11
130.303225089943
 21
-5.32307370239496
 31
0.0
  0
LINE
  5
   45B
  8
0
  6
CONTINUOUS
 62
     3
 10
115.96424558239
 20
-8.23505170371338
 30
0.0
 11
115.96424558239
 21
-5.32307370239496
 31
0.0
  0
LINE
  5
   45C
  8
0
  6
CONTINUOUS
 62
     7
 10
109.722488880157
 20
-75.9522681134832
 30
0.0
 11
109.722488880157
 21
-73.4522743225098
 31
0.0
  0
LINE
  5
   45D
  8
0
  6
CONTINUOUS
 62
     2
 10
112.722489356995
 20
-4.95227432250977
 30
0.0
 11
112.722489356995
 21
23.0477256774902
 31
0.0
  0
LINE
  5
   45E
  8
0
  6
CONTINUOUS
 62
     2
 10
109.722489356995
 20
-4.95227522931287
 30
0.0
 11
109.722489356995
 21
-1.95227432250977
 31
0.0
  0
LINE
  5
   45F
  8
0
  6
DASHDOT
 62
     7
 10
104.558975244011
 20
16.7977256774902
 30
0.0
 11
115.016927377455
 21
16.7977256774902
 31
0.0
  0
LINE
  5
   460
  8
0
  6
CONTINUOUS
 62
     2
 10
109.722489356995
 20
23.0477256774902
 30
0.0
 11
112.722489356995
 21
23.0477256774902
 31
0.0
  0
LINE
  5
   461
  8
0
  6
CONTINUOUS
 62
     2
 10
109.722489356995
 20
18.9227256774902
 30
0.0
 11
112.722489356995
 21
18.9227256774902
 31
0.0
  0
LINE
  5
   462
  8
0
  6
CONTINUOUS
 62
     2
 10
109.722489356995
 20
14.6727256774902
 30
0.0
 11
112.722489356995
 21
14.6727256774902
 31
0.0
  0
LINE
  5
   463
  8
0
  6
CONTINUOUS
 62
     2
 10
109.222489356995
 20
2.17272567749023
 30
0.0
 11
112.722489356995
 21
2.17272567749023
 31
0.0
  0
LINE
  5
   464
  8
0
  6
CONTINUOUS
 62
     2
 10
109.722489356995
 20
-2.07727432250977
 30
0.0
 11
112.722489356995
 21
-2.07727432250977
 31
0.0
  0
LINE
  5
   465
  8
0
  6
CONTINUOUS
 62
     7
 10
107.222489356995
 20
3.29772543907165
 30
0.0
 11
107.222489356995
 21
4.54772567749023
 31
0.0
  0
LINE
  5
   466
  8
0
  6
CONTINUOUS
 62
     2
 10
108.222489356995
 20
6.79772500037534
 30
0.0
 11
108.222489356995
 21
7.54772500037534
 31
0.0
  0
LINE
  5
   467
  8
0
  6
CONTINUOUS
 62
     2
 10
106.722489356995
 20
6.7977250003276
 30
0.0
 11
108.222489356995
 21
6.7977250003276
 31
0.0
  0
LINE
  5
   468
  8
0
  6
CONTINUOUS
 62
     2
 10
106.722489356995
 20
8.04772496223449
 30
0.0
 11
107.722489356995
 21
8.04772496223449
 31
0.0
  0
LINE
  5
   469
  8
0
  6
CONTINUOUS
 62
     2
 10
98.9724893569946
 20
-4.95227527618409
 30
0.0
 11
99.7224893569946
 21
-4.95227527618409
 31
0.0
  0
LINE
  5
   46A
  8
0
  6
CONTINUOUS
 62
     2
 10
98.9724893569946
 20
8.04772496223449
 30
0.0
 11
106.722489356995
 21
8.04772496223449
 31
0.0
  0
LINE
  5
   46B
  8
0
  6
CONTINUOUS
 62
     2
 10
98.9724893569946
 20
-4.95227503776551
 30
0.0
 11
98.9724893569946
 21
8.04772496223449
 31
0.0
  0
LINE
  5
   46C
  8
0
  6
CONTINUOUS
 62
     2
 10
106.722489356995
 20
6.79772500035886
 30
0.0
 11
106.722489356995
 21
8.04772500035886
 31
0.0
  0
LINE
  5
   46D
  8
0
  6
CONTINUOUS
 62
     2
 10
106.429595947266
 20
5.19772505760192
 30
0.0
 11
106.722489356995
 21
5.19772505760192
 31
0.0
  0
LINE
  5
   46E
  8
0
  6
CONTINUOUS
 62
     2
 10
106.722489356995
 20
4.29772543907165
 30
0.0
 11
106.722489356995
 21
6.79772496223449
 31
0.0
  0
LINE
  5
   46F
  8
0
  6
CONTINUOUS
 62
     2
 10
105.888446807861
 20
5.39772498607635
 30
0.0
 11
106.229596138
 21
5.39772498607635
 31
0.0
  0
LINE
  5
   470
  8
0
  6
CONTINUOUS
 62
     2
 10
106.229596486526
 20
5.39772481426203
 30
0.0
 11
106.429596294234
 21
5.19772488854275
 31
0.0
  0
LINE
  5
   471
  8
0
  6
CONTINUOUS
 62
     2
 10
99.722489377521
 20
-4.95227512437999
 30
0.0
 11
106.722489315076
 21
6.79772459611159
 31
0.0
  0
LINE
  5
   472
  8
0
  6
CONTINUOUS
 62
     2
 10
106.972489356995
 20
-4.20227432250977
 30
0.0
 11
106.972489356995
 21
4.29772567749023
 31
0.0
  0
LINE
  5
   473
  8
0
  6
CONTINUOUS
 62
     2
 10
107.722489716838
 20
8.04772488400766
 30
0.0
 11
108.222489699724
 21
7.54772494326878
 31
0.0
  0
LINE
  5
   474
  8
0
  6
CONTINUOUS
 62
   210
 10
107.222489356995
 20
-3.20227432250977
 30
0.0
 11
107.222489356995
 21
3.29772567749023
 31
0.0
  0
LINE
  5
   475
  8
0
  6
CONTINUOUS
 62
     1
 10
147.972489357591
 20
8.54772520065306
 30
0.0
 11
147.972489357591
 21
9.54772520065306
 31
0.0
  0
LINE
  5
   476
  8
0
  6
CONTINUOUS
 62
     1
 10
97.4724898189306
 20
9.54772520065307
 30
0.0
 11
109.722489356995
 21
9.54772520065307
 31
0.0
  0
LINE
  5
   477
  8
0
  6
CONTINUOUS
 62
     1
 10
97.4724898189306
 20
8.54772520065307
 30
0.0
 11
97.4724898189306
 21
9.54772520065307
 31
0.0
  0
LINE
  5
   478
  8
0
  6
CONTINUOUS
 62
     1
 10
97.9724898338318
 20
8.04772520065307
 30
0.0
 11
98.9724893569946
 21
8.04772520065307
 31
0.0
  0
LINE
  5
   479
  8
0
  6
CONTINUOUS
 62
     1
 10
107.722489356995
 20
8.04772520065307
 30
0.0
 11
109.722489356995
 21
8.04772520065307
 31
0.0
  0
LINE
  5
   47A
  8
0
  6
CONTINUOUS
 62
     1
 10
107.597489356995
 20
5.39772498607635
 30
0.0
 11
109.722489356995
 21
5.39772498607635
 31
0.0
  0
LINE
  5
   47B
  8
0
  6
CONTINUOUS
 62
     1
 10
107.097489356995
 20
3.79772496223449
 30
0.0
 11
107.222489356995
 21
3.79772496223449
 31
0.0
  0
LINE
  5
   47C
  8
0
  6
CONTINUOUS
 62
     1
 10
112.847489356995
 20
3.79772496223449
 30
0.0
 11
112.847489356995
 21
8.04772496223449
 31
0.0
  0
LINE
  5
   47D
  8
0
  6
CONTINUOUS
 62
     1
 10
107.097489356995
 20
3.7977250367403
 30
0.0
 11
107.097489356995
 21
6.7977250367403
 31
0.0
  0
LINE
  5
   47E
  8
0
  6
CONTINUOUS
 62
     1
 10
97.4724898189306
 20
9.54772520065307
 30
0.0
 11
97.4724898189306
 21
58.0477252006531
 31
0.0
  0
LINE
  5
   47F
  8
0
  6
CONTINUOUS
 62
     1
 10
147.972489357591
 20
9.54772520065306
 30
0.0
 11
147.972489357591
 21
58.0477252006531
 31
0.0
  0
LINE
  5
   480
  8
0
  6
CONTINUOUS
 62
     1
 10
112.722489356995
 20
5.02272475974014
 30
0.0
 11
112.847488952456
 21
4.89772516427871
 31
0.0
  0
LINE
  5
   481
  8
0
  6
CONTINUOUS
 62
     1
 10
107.097489132584
 20
4.89772495462889
 30
0.0
 11
107.59748911547
 21
5.39772493751462
 31
0.0
  0
LINE
  5
   482
  8
0
  6
CONTINUOUS
 62
     1
 10
147.472488724363
 20
8.04772496105328
 30
0.0
 11
147.972488707249
 21
8.54772494393902
 31
0.0
  0
LINE
  5
   483
  8
0
  6
CONTINUOUS
 62
     1
 10
97.4724898403235
 20
8.54772515358884
 30
0.0
 11
97.9724898232092
 21
8.04772517070312
 31
0.0
  0
LINE
  5
   484
  8
0
  6
CONTINUOUS
 62
     2
 10
98.9724893569946
 20
7.54772502183913
 30
0.0
 11
106.722489356995
 21
7.54772502183913
 31
0.0
  0
LINE
  5
   485
  8
0
  6
CONTINUOUS
 62
     2
 10
98.9724893569946
 20
-4.45227527618409
 30
0.0
 11
100.020361661911
 21
-4.45227527618409
 31
0.0
  0
LINE
  5
   486
  8
0
  6
CONTINUOUS
 62
     2
 10
100.169298410416
 20
-4.20227432250977
 30
0.0
 11
106.972489595413
 21
-4.20227432250977
 31
0.0
  0
LINE
  5
   487
  8
0
  6
CONTINUOUS
 62
     2
 10
105.233127593994
 20
4.29772543907165
 30
0.0
 11
106.972489356995
 21
4.29772543907165
 31
0.0
  0
LINE
  5
   488
  8
0
  6
CONTINUOUS
 62
   210
 10
106.972489356995
 20
3.29772543907165
 30
0.0
 11
107.222489356995
 21
3.29772543907165
 31
0.0
  0
LINE
  5
   489
  8
0
  6
CONTINUOUS
 62
   210
 10
106.972489356995
 20
-3.20227432250977
 30
0.0
 11
107.222489356995
 21
-3.20227432250977
 31
0.0
  0
LINE
  5
   48A
  8
0
  6
CONTINUOUS
 62
     1
 10
97.4724898189306
 20
58.0477252006531
 30
0.0
 11
147.972489357591
 21
58.0477252006531
 31
0.0
  0
LINE
  5
   48B
  8
0
  6
CONTINUOUS
 62
     1
 10
112.722489356995
 20
3.79772496223449
 30
0.0
 11
112.847489356995
 21
3.79772496223449
 31
0.0
  0
INSERT
  5
   48C
  8
0
  6
CONTINUOUS
 62
     2
  2
*HATCH1134
 10
98.2224884033203
 20
-41.9522743225098
 30
0.0
 41
0.5
 42
0.5
 43
0.5
  0
INSERT
  5
   48D
  8
0
  6
CONTINUOUS
 62
     2
  2
*HATCH1135
 10
98.2224884033203
 20
-41.9522743225098
 30
0.0
 41
0.5
 42
0.5
 43
0.5
  0
INSERT
  5
   48E
  8
0
  6
CONTINUOUS
 62
     2
  2
*HATCH1136
 10
98.2224884033203
 20
-41.9522743225098
 30
0.0
 41
0.5
 42
0.5
 43
0.5
  0
INSERT
  5
   48F
  8
0
  6
CONTINUOUS
 62
     2
  2
*HATCH1137
 10
98.2224884033203
 20
-41.9522743225098
 30
0.0
 41
0.5
 42
0.5
 43
0.5
  0
INSERT
  5
   490
  8
0
  6
CONTINUOUS
 62
     2
  2
*HATCH1138
 10
98.2224884033203
 20
-41.9522743225098
 30
0.0
 41
0.5
 42
0.5
 43
0.5
  0
LINE
  5
   491
  8
0
  6
CONTINUOUS
 62
     1
 10
112.722489356995
 20
9.54772520065307
 30
0.0
 11
147.972489357591
 21
9.54772520065307
 31
0.0
  0
LINE
  5
   492
  8
0
  6
CONTINUOUS
 62
     1
 10
112.722489356995
 20
8.04772520065307
 30
0.0
 11
147.472488963963
 21
8.04772520065307
 31
0.0
  0
LINE
  5
   493
  8
0
  6
CONTINUOUS
 62
     2
 10
147.972489357591
 20
-4.82727432250978
 30
0.0
 11
147.972489357591
 21
7.42272567749023
 31
0.0
  0
LINE
  5
   494
  8
0
  6
CONTINUOUS
 62
     2
 10
121.972489440204
 20
8.04772567749023
 30
0.0
 11
147.347489357591
 21
8.04772567749023
 31
0.0
  0
ARC
  5
   495
  8
0
  6
CONTINUOUS
 62
     2
 10
147.347489357591
 20
7.42272567749023
 30
0.0
 40
0.625
 50
0.0
 51
90.0
  0
LINE
  5
   496
  8
0
  6
CONTINUOUS
 62
     2
 10
147.472489357591
 20
-4.82727432250978
 30
0.0
 11
147.972489357591
 21
-4.82727432250978
 31
0.0
  0
LINE
  5
   497
  8
0
  6
CONTINUOUS
 62
     2
 10
147.472489357591
 20
-5.32727432250977
 30
0.0
 11
147.472489357591
 21
-4.82727432250978
 31
0.0
  0
LINE
  5
   498
  8
0
  6
CONTINUOUS
 62
     7
 10
113.222489356995
 20
-4.45227432250977
 30
0.0
 11
113.222489356995
 21
4.54772567749023
 31
0.0
  0
LINE
  5
   499
  8
0
  6
CONTINUOUS
 62
     7
 10
112.722489356995
 20
4.54772567749023
 30
0.0
 11
113.222489356995
 21
4.54772567749023
 31
0.0
  0
LINE
  5
   49A
  8
0
  6
CONTINUOUS
 62
     7
 10
112.722489356995
 20
-4.45227432250977
 30
0.0
 11
113.222489356995
 21
-4.45227432250977
 31
0.0
  0
LINE
  5
   49B
  8
0
  6
CONTINUOUS
 62
     2
 10
109.722489356995
 20
2.04772567749023
 30
0.0
 11
109.722489356995
 21
23.0477256774902
 31
0.0
  0
LINE
  5
   49C
  8
0
  6
CONTINUOUS
 62
     2
 10
108.222489356992
 20
-78.9522736453949
 30
0.0
 11
108.222489356992
 21
-78.2022736453949
 31
0.0
  0
LINE
  5
   49D
  8
0
  6
CONTINUOUS
 62
     2
 10
106.722489356992
 20
-78.2022736453471
 30
0.0
 11
108.222489356992
 21
-78.2022736453471
 31
0.0
  0
LINE
  5
   49E
  8
0
  6
CONTINUOUS
 62
     2
 10
106.722489356992
 20
-79.452273607254
 30
0.0
 11
107.722489356992
 21
-79.452273607254
 31
0.0
  0
LINE
  5
   49F
  8
0
  6
CONTINUOUS
 62
     2
 10
98.9724893569921
 20
-66.4522733688355
 30
0.0
 11
99.7224893569921
 21
-66.4522733688355
 31
0.0
  0
LINE
  5
   4A0
  8
0
  6
CONTINUOUS
 62
     2
 10
98.9724893569921
 20
-79.452273607254
 30
0.0
 11
106.722489356992
 21
-79.452273607254
 31
0.0
  0
LINE
  5
   4A1
  8
0
  6
CONTINUOUS
 62
     2
 10
98.9724893569921
 20
-79.452273607254
 30
0.0
 11
98.9724893569921
 21
-66.452273607254
 31
0.0
  0
LINE
  5
   4A2
  8
0
  6
CONTINUOUS
 62
     2
 10
106.722489356992
 20
-79.4522736453784
 30
0.0
 11
106.722489356992
 21
-78.2022736453784
 31
0.0
  0
LINE
  5
   4A3
  8
0
  6
CONTINUOUS
 62
     2
 10
106.429595947263
 20
-76.6022737026215
 30
0.0
 11
106.722489356992
 21
-76.6022737026215
 31
0.0
  0
LINE
  5
   4A4
  8
0
  6
CONTINUOUS
 62
     2
 10
106.722489356992
 20
-78.202273607254
 30
0.0
 11
106.722489356992
 21
-75.7022740840912
 31
0.0
  0
LINE
  5
   4A5
  8
0
  6
CONTINUOUS
 62
     2
 10
105.888446807859
 20
-76.8022736310959
 30
0.0
 11
106.229596137998
 21
-76.8022736310959
 31
0.0
  0
LINE
  5
   4A6
  8
0
  6
CONTINUOUS
 62
     2
 10
106.229596486524
 20
-76.8022734592816
 30
0.0
 11
106.429596294232
 21
-76.6022735335623
 31
0.0
  0
LINE
  5
   4A7
  8
0
  6
CONTINUOUS
 62
     2
 10
99.7224893775185
 20
-66.4522735206395
 30
0.0
 11
106.722489315073
 21
-78.2022732411311
 31
0.0
  0
LINE
  5
   4A8
  8
0
  6
CONTINUOUS
 62
     2
 10
106.972489356992
 20
-75.7022743225098
 30
0.0
 11
106.972489356992
 21
-67.2022743225098
 31
0.0
  0
LINE
  5
   4A9
  8
0
  6
CONTINUOUS
 62
     2
 10
107.722489716835
 20
-79.4522735290272
 30
0.0
 11
108.222489699721
 21
-78.9522735882883
 31
0.0
  0
LINE
  5
   4AA
  8
0
  6
CONTINUOUS
 62
   210
 10
107.222489356992
 20
-74.7022743225098
 30
0.0
 11
107.222489356992
 21
-68.2022743225098
 31
0.0
  0
LINE
  5
   4AB
  8
0
  6
CONTINUOUS
 62
     2
 10
98.9724893569921
 20
-78.9522736668587
 30
0.0
 11
106.722489356992
 21
-78.9522736668587
 31
0.0
  0
LINE
  5
   4AC
  8
0
  6
CONTINUOUS
 62
     2
 10
98.9724893569921
 20
-66.9522733688355
 30
0.0
 11
100.020361661909
 21
-66.9522733688355
 31
0.0
  0
LINE
  5
   4AD
  8
0
  6
CONTINUOUS
 62
     2
 10
100.169298410413
 20
-67.2022743225098
 30
0.0
 11
106.972489595411
 21
-67.2022743225098
 31
0.0
  0
LINE
  5
   4AE
  8
0
  6
CONTINUOUS
 62
     2
 10
105.233127593992
 20
-75.7022740840912
 30
0.0
 11
106.972489356992
 21
-75.7022740840912
 31
0.0
  0
LINE
  5
   4AF
  8
0
  6
CONTINUOUS
 62
   210
 10
106.972489356992
 20
-74.7022740840912
 30
0.0
 11
107.222489356992
 21
-74.7022740840912
 31
0.0
  0
LINE
  5
   4B0
  8
0
  6
CONTINUOUS
 62
   210
 10
106.972489356992
 20
-68.2022743225098
 30
0.0
 11
107.222489356992
 21
-68.2022743225098
 31
0.0
  0
LINE
  5
   4B1
  8
0
  6
CONTINUOUS
 62
     7
 10
106.722489356992
 20
-78.2022681134831
 30
0.0
 11
134.222489356995
 21
-78.2022681134831
 31
0.0
  0
LINE
  5
   4B2
  8
0
  6
CONTINUOUS
 62
     7
 10
112.222489356995
 20
-75.9522743225098
 30
0.0
 11
112.722489356995
 21
-75.9522743225098
 31
0.0
  0
LINE
  5
   4B3
  8
0
  6
CONTINUOUS
 62
     7
 10
112.722489356995
 20
-75.9522743225098
 30
0.0
 11
112.722489356995
 21
-66.9522743225098
 31
0.0
  0
LINE
  5
   4B4
  8
0
  6
CONTINUOUS
 62
     7
 10
112.222489356995
 20
-66.9522743225098
 30
0.0
 11
112.722489356995
 21
-66.9522743225098
 31
0.0
  0
LINE
  5
   4B5
  8
0
  6
CONTINUOUS
 62
     7
 10
112.222489356995
 20
-75.9522743225098
 30
0.0
 11
112.222489356995
 21
-66.9522743225098
 31
0.0
  0
LINE
  5
   4B6
  8
0
  6
CONTINUOUS
 62
     7
 10
109.722488880157
 20
-69.4522743225098
 30
0.0
 11
109.722488880157
 21
-65.4522681134832
 31
0.0
  0
LINE
  5
   4B7
  8
0
  6
CONTINUOUS
 62
     7
 10
108.722488880157
 20
-69.4522743225098
 30
0.0
 11
108.722488880157
 21
-64.9606709327872
 31
0.0
  0
LINE
  5
   4B8
  8
0
  6
CONTINUOUS
 62
     1
 10
112.922489356995
 20
-75.0472743225098
 30
0.0
 11
112.922489356995
 21
-67.8572743225098
 31
0.0
  0
ARC
  5
   4B9
  8
0
  6
CONTINUOUS
 62
     1
 10
114.099321546551
 20
-74.1485243225098
 30
0.0
 40
1.37316781044413
 50
319.1176078909
 51
400.8823921091
  0
ARC
  5
   4BA
  8
0
  6
CONTINUOUS
 62
     1
 10
114.099321546551
 20
-68.7560243225098
 30
0.0
 40
1.37316781044413
 50
319.1176078909
 51
400.8823921091
  0
LINE
  5
   4BB
  8
0
  6
CONTINUOUS
 62
     1
 10
112.922489356995
 20
-73.2497743225098
 30
0.0
 11
115.164087113726
 21
-73.2497743225098
 31
0.0
  0
ARC
  5
   4BC
  8
0
  6
CONTINUOUS
 62
     1
 10
110.079989356995
 20
-71.4522743225098
 30
0.0
 40
5.3925
 50
340.528779365509
 51
379.471220634491
  0
LINE
  5
   4BD
  8
0
  6
CONTINUOUS
 62
     1
 10
112.922489356995
 20
-69.6547743225098
 30
0.0
 11
115.164087113726
 21
-69.6547743225098
 31
0.0
  0
LINE
  5
   4BE
  8
0
  6
CONTINUOUS
 62
     1
 10
112.922489356995
 20
-75.0472743225098
 30
0.0
 11
115.137511448803
 21
-75.0472743225098
 31
0.0
  0
LINE
  5
   4BF
  8
0
  6
CONTINUOUS
 62
     1
 10
112.922489356995
 20
-67.8572743225098
 30
0.0
 11
115.137511448803
 21
-67.8572743225098
 31
0.0
  0
LINE
  5
   4C0
  8
0
  6
CONTINUOUS
 62
     1
 10
112.722489356995
 20
-74.5022743225098
 30
0.0
 11
112.922489356995
 21
-74.5022743225098
 31
0.0
  0
LINE
  5
   4C1
  8
0
  6
CONTINUOUS
 62
     1
 10
112.722489356995
 20
-68.4022743225098
 30
0.0
 11
112.922489356995
 21
-68.4022743225098
 31
0.0
  0
LINE
  5
   4C2
  8
0
  6
CONTINUOUS
 62
     7
 10
107.222489356992
 20
-73.0688805725098
 30
0.0
 11
111.472489356995
 21
-73.0688805725098
 31
0.0
  0
LINE
  5
   4C3
  8
0
  6
CONTINUOUS
 62
     7
 10
107.222489356992
 20
-69.8356680725098
 30
0.0
 11
111.472489356995
 21
-69.8356680725098
 31
0.0
  0
LINE
  5
   4C4
  8
0
  6
CONTINUOUS
 62
     1
 10
107.222489356992
 20
-69.4522743225098
 30
0.0
 11
112.222489356995
 21
-69.4522743225098
 31
0.0
  0
LINE
  5
   4C5
  8
0
  6
CONTINUOUS
 62
     1
 10
107.222489356992
 20
-73.4522743225098
 30
0.0
 11
112.222489356995
 21
-73.4522743225098
 31
0.0
  0
LINE
  5
   4C6
  8
0
  6
CONTINUOUS
 62
     1
 10
111.472489356995
 20
-73.4522743225098
 30
0.0
 11
111.472489356995
 21
-69.4522743225098
 31
0.0
  0
LINE
  5
   4C7
  8
0
  6
CONTINUOUS
 62
     1
 10
112.722489356995
 20
-74.5022743225098
 30
0.0
 11
112.722489356995
 21
-68.4022743225098
 31
0.0
  0
LINE
  5
   4C8
  8
0
  6
CONTINUOUS
 62
     1
 10
115.472489356995
 20
-74.1485243225098
 30
0.0
 11
115.472489356995
 21
-68.7560243225098
 31
0.0
  0
LINE
  5
   4C9
  8
0
  6
DASHDOT
 62
     7
 10
105.722489356995
 20
-71.4522743225098
 30
0.0
 11
117.472489356995
 21
-71.4522743225098
 31
0.0
  0
LINE
  5
   4CA
  8
0
  6
CONTINUOUS
 62
     1
 10
113.422489356995
 20
-3.54727432250977
 30
0.0
 11
113.422489356995
 21
3.64272567749023
 31
0.0
  0
ARC
  5
   4CB
  8
0
  6
CONTINUOUS
 62
     1
 10
114.599321546551
 20
-2.64852432250977
 30
0.0
 40
1.37316781044413
 50
319.1176078909
 51
400.8823921091
  0
ARC
  5
   4CC
  8
0
  6
CONTINUOUS
 62
     1
 10
114.599321546551
 20
2.74397567749023
 30
0.0
 40
1.37316781044413
 50
319.1176078909
 51
400.8823921091
  0
LINE
  5
   4CD
  8
0
  6
CONTINUOUS
 62
     1
 10
113.422489356995
 20
-1.74977432250977
 30
0.0
 11
115.664087113726
 21
-1.74977432250977
 31
0.0
  0
ARC
  5
   4CE
  8
0
  6
CONTINUOUS
 62
     1
 10
110.579989356995
 20
4.77256774902273E-2
 30
0.0
 40
5.3925
 50
340.528779365509
 51
379.471220634491
  0
LINE
  5
   4CF
  8
0
  6
CONTINUOUS
 62
     1
 10
113.422489356995
 20
1.84522567749023
 30
0.0
 11
115.664087113726
 21
1.84522567749023
 31
0.0
  0
LINE
  5
   4D0
  8
0
  6
CONTINUOUS
 62
     1
 10
113.422489356995
 20
-3.54727432250977
 30
0.0
 11
115.637511448803
 21
-3.54727432250977
 31
0.0
  0
LINE
  5
   4D1
  8
0
  6
CONTINUOUS
 62
     1
 10
113.422489356995
 20
3.64272567749023
 30
0.0
 11
115.637511448803
 21
3.64272567749023
 31
0.0
  0
LINE
  5
   4D2
  8
0
  6
CONTINUOUS
 62
     1
 10
113.222489356995
 20
-3.00227432250977
 30
0.0
 11
113.422489356995
 21
-3.00227432250977
 31
0.0
  0
LINE
  5
   4D3
  8
0
  6
CONTINUOUS
 62
     1
 10
113.222489356995
 20
3.09772567749022
 30
0.0
 11
113.422489356995
 21
3.09772567749022
 31
0.0
  0
LINE
  5
   4D4
  8
0
  6
CONTINUOUS
 62
     7
 10
107.222489356995
 20
-1.56888057250977
 30
0.0
 11
111.472489356995
 21
-1.56888057250977
 31
0.0
  0
LINE
  5
   4D5
  8
0
  6
CONTINUOUS
 62
     7
 10
107.222489356995
 20
1.66433192749022
 30
0.0
 11
111.472489356995
 21
1.66433192749022
 31
0.0
  0
LINE
  5
   4D6
  8
0
  6
CONTINUOUS
 62
     1
 10
107.222489356995
 20
2.04772567749023
 30
0.0
 11
112.722489356995
 21
2.04772567749023
 31
0.0
  0
LINE
  5
   4D7
  8
0
  6
CONTINUOUS
 62
     1
 10
107.222489356995
 20
-1.95227432250977
 30
0.0
 11
112.722489356995
 21
-1.95227432250977
 31
0.0
  0
LINE
  5
   4D8
  8
0
  6
CONTINUOUS
 62
     1
 10
111.472489356995
 20
-1.95227432250977
 30
0.0
 11
111.472489356995
 21
2.04772567749023
 31
0.0
  0
LINE
  5
   4D9
  8
0
  6
CONTINUOUS
 62
     1
 10
113.222489356995
 20
-3.00227432250977
 30
0.0
 11
113.222489356995
 21
3.09772567749022
 31
0.0
  0
LINE
  5
   4DA
  8
0
  6
CONTINUOUS
 62
     1
 10
115.972489356995
 20
-2.64852432250977
 30
0.0
 11
115.972489356995
 21
2.74397567749023
 31
0.0
  0
LINE
  5
   4DB
  8
0
  6
DASHDOT
 62
     7
 10
105.722489356995
 20
4.77256774902273E-2
 30
0.0
 11
117.472489356995
 21
4.77256774902273E-2
 31
0.0
  0
CIRCLE
  5
   4DC
  8
0
  6
CONTINUOUS
 62
     2
 10
110.630416169708
 20
20.9323367186429
 30
0.0
 40
0.15
  0
CIRCLE
  5
   4DD
  8
0
  6
CONTINUOUS
 62
     2
 10
107.92264299905
 20
-66.650119628837
 30
0.0
 40
0.15
  0
LINE
  5
   4DE
  8
0
  6
CONTINUOUS
 62
     2
 10
109.222489356995
 20
2.04772567749023
 30
0.0
 11
109.222489356995
 21
4.54772567749023
 31
0.0
  0
LINE
  5
   4DF
  8
0
  6
CONTINUOUS
 62
     2
 10
109.222489356995
 20
-4.95227432250977
 30
0.0
 11
109.222489356995
 21
-1.95227432250977
 31
0.0
  0
LINE
  5
   4E0
  8
0
  6
DASHDOT
 62
     7
 10
87.855107618027
 20
-0.952274322509773
 30
0.0
 11
99.5852605089011
 21
-0.952274322509773
 31
0.0
  0
LINE
  5
   4E1
  8
0
  6
CONTINUOUS
 62
     7
 10
93.7224893569946
 20
-2.95227432250977
 30
0.0
 11
93.7224893569946
 21
1.04772567749023
 31
0.0
  0
LINE
  5
   4E2
  8
0
  6
CONTINUOUS
 62
     7
 10
93.7224893569946
 20
-2.95227432250977
 30
0.0
 11
95.7224893569946
 21
-2.95227432250977
 31
0.0
  0
LINE
  5
   4E3
  8
0
  6
CONTINUOUS
 62
     7
 10
93.7224893569946
 20
1.04772567749023
 30
0.0
 11
95.7224893569946
 21
1.04772567749023
 31
0.0
  0
LINE
  5
   4E4
  8
0
  6
CONTINUOUS
 62
     7
 10
91.7224893569946
 20
-2.20227432250977
 30
0.0
 11
91.7224893569946
 21
0.297725677490227
 31
0.0
  0
LINE
  5
   4E5
  8
0
  6
CONTINUOUS
 62
     7
 10
91.7224893569946
 20
0.297725677490227
 30
0.0
 11
95.7224893569946
 21
0.297725677490227
 31
0.0
  0
LINE
  5
   4E6
  8
0
  6
CONTINUOUS
 62
     7
 10
91.7224893569946
 20
-2.20227432250977
 30
0.0
 11
95.7224893569946
 21
-2.20227432250977
 31
0.0
  0
LINE
  5
   4E7
  8
0
  6
CONTINUOUS
 62
     7
 10
93.7224893569946
 20
-68.4522743225098
 30
0.0
 11
95.7224893569946
 21
-68.4522743225098
 31
0.0
  0
LINE
  5
   4E8
  8
0
  6
CONTINUOUS
 62
     7
 10
91.7224893569946
 20
-69.2022743225098
 30
0.0
 11
95.7224893569946
 21
-69.2022743225098
 31
0.0
  0
LINE
  5
   4E9
  8
0
  6
DASHDOT
 62
     7
 10
87.855107618027
 20
-70.4522743225098
 30
0.0
 11
99.5852605089011
 21
-70.4522743225098
 31
0.0
  0
LINE
  5
   4EA
  8
0
  6
CONTINUOUS
 62
     7
 10
91.7224893569946
 20
-71.7022743225098
 30
0.0
 11
95.7224893569946
 21
-71.7022743225098
 31
0.0
  0
LINE
  5
   4EB
  8
0
  6
CONTINUOUS
 62
     7
 10
93.7224893569946
 20
-72.4522743225098
 30
0.0
 11
95.7224893569946
 21
-72.4522743225098
 31
0.0
  0
LINE
  5
   4EC
  8
0
  6
CONTINUOUS
 62
     7
 10
93.7224893569946
 20
-72.4522743225098
 30
0.0
 11
93.7224893569946
 21
-68.4522743225098
 31
0.0
  0
LINE
  5
   4ED
  8
0
  6
CONTINUOUS
 62
     7
 10
91.7224893569946
 20
-71.7022743225098
 30
0.0
 11
91.7224893569946
 21
-69.2022743225098
 31
0.0
  0
CIRCLE
  5
   4EE
  8
0
  6
CONTINUOUS
 62
     7
 10
94.3883573293999
 20
-1.59499722541362
 30
0.0
 40
0.1
  0
TEXT
  5
   4EF
  8
0
  6
CONTINUOUS
 62
     1
 10
136.889949148893
 20
-193.399814658167
 30
0.0
 40
2.00000008940697
  1
M 3076 95-01-16
 41
0.749999861419206
 72
     2
 11
159.08994603157
 21
-193.399814658167
 31
0.0
  0
INSERT
  5
   4F0
  8
0
  6
CONTINUOUS
 62
     2
  2
*UDIM1635
 10
0.0
 20
0.0
 30
0.0
  0
INSERT
  5
   4F1
  8
0
  6
CONTINUOUS
 62
     7
  2
*UDIM1636
 10
0.0
 20
0.0
 30
0.0
  0
INSERT
  5
   4F2
  8
0
  6
CONTINUOUS
 62
     7
  2
*UDIM1637
 10
0.0
 20
0.0
 30
0.0
  0
INSERT
  5
   4F3
  8
0
  6
CONTINUOUS
 62
     7
  2
*UDIM1638
 10
0.0
 20
0.0
 30
0.0
  0
INSERT
  5
   4F4
  8
0
  6
CONTINUOUS
 62
     7
  2
*UDIM1639
 10
0.0
 20
0.0
 30
0.0
  0
INSERT
  5
   4F5
  8
0
  6
CONTINUOUS
 62
     7
  2
*UDIM1640
 10
0.0
 20
0.0
 30
0.0
  0
INSERT
  5
   4F6
  8
0
  6
CONTINUOUS
 62
     7
  2
*UDIM1641
 10
0.0
 20
0.0
 30
0.0
  0
INSERT
  5
   4F7
  8
0
  6
CONTINUOUS
 62
     7
  2
*UDIM1642
 10
0.0
 20
0.0
 30
0.0
  0
TEXT
  5
   4F8
  8
0
  6
CONTINUOUS
 62
     1
 10
130.442901698751
 20
-178.463381774394
 30
0.0
 40
2.00000008940697
  1
93-04-05 ROTA S.
 41
0.749999861419206
 72
     2
 11
154.142898371322
 21
-178.463381774394
 31
0.0
  0
TEXT
  5
   4F9
  8
0
  6
CONTINUOUS
 62
     5
 10
177.695982620262
 20
-52.7279032384356
 30
0.0
 40
3.00000002980232
  1
=          =
 50
90.0
 41
0.916666604744064
 72
     2
 11
177.695982620221
 21
-20.277905112505
 31
0.0
  0
INSERT
  5
   4FA
  8
0
  6
CONTINUOUS
 62
     5
  2
*UDIM1643
 10
0.0
 20
0.0
 30
0.0
  0
INSERT
  5
   4FB
  8
0
  6
CONTINUOUS
 62
     7
  2
*UDIM1644
 10
0.0
 20
0.0
 30
0.0
  0
INSERT
  5
   4FC
  8
0
  6
CONTINUOUS
 62
     7
  2
*UDIM1645
 10
0.0
 20
0.0
 30
0.0
  0
INSERT
  5
   4FD
  8
0
  6
CONTINUOUS
 62
     7
  2
*UDIM1646
 10
0.0
 20
0.0
 30
0.0
  0
TEXT
  5
   4FE
  8
0
  6
CONTINUOUS
 62
     7
 10
180.923538386822
 20
-38.2308363256844
 30
0.0
 40
3.00000002980232
  1
X
 41
0.916666604744064
 72
     2
 11
183.123538255692
 21
-38.2308363256844
 31
0.0
  0
INSERT
  5
   4FF
  8
0
  6
CONTINUOUS
 62
     7
  2
*UDIM1647
 10
0.0
 20
0.0
 30
0.0
  0
INSERT
  5
   500
  8
0
  6
CONTINUOUS
 62
     7
  2
*UDIM1648
 10
0.0
 20
0.0
 30
0.0
  0
INSERT
  5
   501
  8
0
  6
CONTINUOUS
 62
     7
  2
*UDIM1649
 10
0.0
 20
0.0
 30
0.0
  0
INSERT
  5
   502
  8
0
  6
CONTINUOUS
 62
     7
  2
*UDIM1650
 10
0.0
 20
0.0
 30
0.0
  0
INSERT
  5
   503
  8
0
  6
CONTINUOUS
 62
     7
  2
*UDIM1651
 10
0.0
 20
0.0
 30
0.0
  0
INSERT
  5
   504
  8
0
  6
CONTINUOUS
 62
     7
  2
*UDIM1652
 10
0.0
 20
0.0
 30
0.0
  0
INSERT
  5
   505
  8
0
  6
CONTINUOUS
 62
     7
  2
*UDIM1653
 10
0.0
 20
0.0
 30
0.0
  0
TEXT
  5
   506
  8
0
  6
CONTINUOUS
 62
     1
 10
231.973709281291
 20
-204.689867499422
 30
0.0
 40
4.00000017881393
  1
601812/061
 41
0.937499973922969
 72
     2
 11
268.723709881063
 21
-204.689867499422
 31
0.0
  0
TEXT
  5
   507
  8
0
  6
CONTINUOUS
 62
     1
 10
250.059402596955
 20
-195.708286098831
 30
0.0
 40
3.00000002980232
  1
S3
 41
0.916666604744064
 72
     2
 11
255.009402307375
 21
-195.708286098831
 31
0.0
  0
TEXT
  5
   508
  8
0
  6
CONTINUOUS
 62
     1
 10
221.524982610341
 20
-177.39801412642
 30
0.0
 40
2.00000008940697
  1
3POLE LOW VOLTAGE M.C.C.B SERIES ISOMAX
 41
0.749999861419206
 72
     1
 11
250.624978530403
 21
-176.398014081717
 31
0.0
 73
     2
  0
TEXT
  5
   509
  8
0
  6
CONTINUOUS
 62
     1
 10
217.774983397875
 20
-180.39801412642
 30
0.0
 40
2.00000008940697
  1
FIXED VERSION FRONT+EXTENDED FRONT TERMINALS
 41
0.749999861419206
 72
     1
 11
250.624978792671
 21
-179.398014081717
 31
0.0
 73
     2
  0
TEXT
  5
   50A
  8
0
  6
CONTINUOUS
 62
     1
 10
224.727374242987
 20
-185.468280850053
 30
0.0
 40
2.00000008940697
  1
INTERR.AUTOMATICO SERIE ISOMAX
 41
0.749999861419206
 72
     1
 11
247.077371108528
 21
-184.46828080535
 31
0.0
 73
     2
  0
TEXT
  5
   50B
  8
0
  6
CONTINUOUS
 62
     1
 10
210.477376501266
 20
-188.468280850053
 30
0.0
 40
2.00000008940697
  1
TRIPOL.ESECUZIONE FISSA TERMINALI ANT.E ANT.PROL.
 41
0.749999861419206
 72
     1
 11
247.077371370796
 21
-187.46828080535
 31
0.0
 73
     2
  0
LINE
  5
   50C
  8
0
  6
DASHDOT
 62
     7
 10
-18.5494441986084
 20
-127.435671393503
 30
0.0
 11
-18.5494441986084
 21
-188.156328568761
 31
0.0
  0
LINE
  5
   50D
  8
0
  6
DASHDOT
 62
     7
 10
-11.0611629407144
 20
-139.203414916992
 30
0.0
 11
-27.1005818171976
 21
-139.203414916992
 31
0.0
  0
LINE
  5
   50E
  8
0
  6
DASHDOT
 62
     7
 10
-12.0305783673151
 20
-173.953414916992
 30
0.0
 11
-27.1005818171976
 21
-173.953414916992
 31
0.0
  0
LINE
  5
   50F
  8
0
  6
DASHDOT
 62
     7
 10
-22.9244441986084
 20
-136.248538908054
 30
0.0
 11
-22.9244441986084
 21
-178.109659602172
 31
0.0
  0
LINE
  5
   510
  8
0
  6
DASHDOT
 62
     7
 10
-14.1744441986084
 20
-135.896024207472
 30
0.0
 11
-14.1744441986084
 21
-177.845273576736
 31
0.0
  0
LINE
  5
   511
  8
0
  6
CONTINUOUS
 62
     3
 10
-30.4244441986084
 20
-128.845730195831
 30
0.0
 11
-30.4244441986084
 21
-184.719310238086
 31
0.0
  0
LINE
  5
   512
  8
0
  6
CONTINUOUS
 62
     3
 10
-6.6744441986084
 20
-128.845730195831
 30
0.0
 11
-6.6744441986084
 21
-184.454924212649
 31
0.0
  0
LINE
  5
   513
  8
0
  6
CONTINUOUS
 62
     3
 10
-2.33642410130871
 20
-131.703414916992
 30
0.0
 11
-32.3883023259284
 21
-131.703414916992
 31
0.0
  0
LINE
  5
   514
  8
0
  6
CONTINUOUS
 62
     3
 10
-3.39396820305485
 20
-181.453414916992
 30
0.0
 11
-33.357717752529
 21
-181.453414916992
 31
0.0
  0
CIRCLE
  5
   515
  8
0
  6
CONTINUOUS
 62
     7
 10
-22.9244441986084
 20
-139.203414916992
 30
0.0
 40
0.6875
  0
CIRCLE
  5
   516
  8
0
  6
CONTINUOUS
 62
     7
 10
-14.1744441986084
 20
-139.203414916992
 30
0.0
 40
0.6875
  0
CIRCLE
  5
   517
  8
0
  6
CONTINUOUS
 62
     7
 10
-22.9244441986084
 20
-173.953414916992
 30
0.0
 40
0.6875
  0
CIRCLE
  5
   518
  8
0
  6
CONTINUOUS
 62
     7
 10
-14.1744441986084
 20
-173.953414916992
 30
0.0
 40
0.6875
  0
CIRCLE
  5
   519
  8
0
  6
CONTINUOUS
 62
     7
 10
-26.7480671166156
 20
-135.93360533391
 30
0.0
 40
0.1
  0
LINE
  5
   51A
  8
0
  6
DASHDOT
 62
     7
 10
12.2054122845444
 20
-157.140914916992
 30
0.0
 11
-46.2437187202323
 21
-157.140914916992
 31
0.0
  0
INSERT
  5
   51B
  8
0
  6
CONTINUOUS
 62
     5
  2
*UDIM1654
 10
0.0
 20
0.0
 30
0.0
  0
TEXT
  5
   51C
  8
0
  6
CONTINUOUS
 62
     7
 10
-22.3416333225681
 20
-155.992987422145
 30
0.0
 40
3.00000002980232
  1
=
 50
359.999999896069
 41
0.916666604744064
 72
     2
 11
-20.1416334536983
 21
-155.992987426125
 31
0.0
  0
TEXT
  5
   51D
  8
0
  6
CONTINUOUS
 62
     7
 10
-16.613269570203
 20
-156.25737336079
 30
0.0
 40
3.00000002980232
  1
=
 50
359.999999896069
 41
0.916666604744064
 72
     2
 11
-14.4132697013332
 21
-156.257373364769
 31
0.0
  0
INSERT
  5
   51E
  8
0
  6
CONTINUOUS
 62
     7
  2
*UDIM1655
 10
0.0
 20
0.0
 30
0.0
  0
TEXT
  5
   51F
  8
0
  6
CONTINUOUS
 62
     7
 10
-18.6402290043546
 20
-197.677848843731
 30
0.0
 40
3.00000002980232
  1
Y
 50
359.999999896069
 41
0.916666604744064
 72
     2
 11
-16.4402291354849
 21
-197.67784884771
 31
0.0
  0
TEXT
  5
   520
  8
0
  6
CONTINUOUS
 62
     7
 10
-19.8333234814121
 20
-122.836242703594
 30
0.0
 40
3.00000002980232
  1
Y
 50
359.999999896069
 41
0.916666604744064
 72
     2
 11
-17.6333236125423
 21
-122.836242707573
 31
0.0
  0
TEXT
  5
   521
  8
0
  6
CONTINUOUS
 62
     7
 10
-59.5353565243198
 20
-158.349416402973
 30
0.0
 40
3.00000002980232
  1
X
 50
359.999999896069
 41
0.916666604744064
 72
     2
 11
-57.33535665545
 21
-158.349416406952
 31
0.0
  0
TEXT
  5
   522
  8
0
  6
CONTINUOUS
 62
     7
 10
15.2011814090298
 20
-158.98936226765
 30
0.0
 40
3.00000002980232
  1
X
 50
359.999999896069
 41
0.916666604744064
 72
     2
 11
17.4011812778996
 21
-158.98936227163
 31
0.0
  0
INSERT
  5
   523
  8
0
  6
CONTINUOUS
 62
     7
  2
*UDIM1656
 10
0.0
 20
0.0
 30
0.0
  0
INSERT
  5
   524
  8
0
  6
CONTINUOUS
 62
     7
  2
*UDIM1657
 10
0.0
 20
0.0
 30
0.0
  0
LINE
  5
   525
  8
0
  6
CONTINUOUS
 62
     7
 10
227.075653076172
 20
-8.50344228744507
 30
0.0
 11
255.075653076172
 21
-8.50344228744507
 31
0.0
  0
LINE
  5
   526
  8
0
  6
CONTINUOUS
 62
     7
 10
227.075653076172
 20
19.4965577125549
 30
0.0
 11
255.075653076172
 21
19.4965577125549
 31
0.0
  0
LINE
  5
   527
  8
0
  6
CONTINUOUS
 62
     7
 10
227.075653076172
 20
19.4965577125549
 30
0.0
 11
227.075653076172
 21
-8.50344228744507
 31
0.0
  0
LINE
  5
   528
  8
0
  6
CONTINUOUS
 62
     7
 10
255.075653076172
 20
19.4965577125549
 30
0.0
 11
255.075653076172
 21
-8.50344228744507
 31
0.0
  0
LINE
  5
   529
  8
0
  6
DASHDOT
 62
     7
 10
241.075653076172
 20
34.5905209585305
 30
0.0
 11
241.075653076172
 21
-24.5402325652523
 31
0.0
  0
CIRCLE
  5
   52A
  8
0
  6
CONTINUOUS
 62
     7
 10
231.075653076172
 20
23.2465577125549
 30
0.0
 40
0.875
  0
CIRCLE
  5
   52B
  8
0
  6
CONTINUOUS
 62
     7
 10
251.075653076172
 20
23.2465577125549
 30
0.0
 40
0.875
  0
CIRCLE
  5
   52C
  8
0
  6
CONTINUOUS
 62
     7
 10
251.075653076172
 20
-12.2534422874451
 30
0.0
 40
0.875
  0
CIRCLE
  5
   52D
  8
0
  6
CONTINUOUS
 62
     7
 10
231.075653076172
 20
-12.2534422874451
 30
0.0
 40
0.875
  0
LINE
  5
   52E
  8
0
  6
CONTINUOUS
 62
     3
 10
223.111157406757
 20
25.5963580098462
 30
0.0
 11
258.914526676743
 21
25.5963580098462
 31
0.0
  0
LINE
  5
   52F
  8
0
  6
CONTINUOUS
 62
     3
 10
223.111157406757
 20
-15.608923114909
 30
0.0
 11
258.914526676743
 21
-15.608923114909
 31
0.0
  0
LINE
  5
   530
  8
0
  6
CONTINUOUS
 62
     3
 10
258.914526676743
 20
25.5963580098462
 30
0.0
 11
258.914526676743
 21
-15.608923114909
 31
0.0
  0
LINE
  5
   531
  8
0
  6
CONTINUOUS
 62
     3
 10
223.111157406757
 20
25.5963580098462
 30
0.0
 11
223.111157406757
 21
-15.608923114909
 31
0.0
  0
LINE
  5
   532
  8
0
  6
DASHDOT
 62
     7
 10
251.075653076172
 20
24.8715577125549
 30
0.0
 11
251.075653076172
 21
21.6215577125549
 31
0.0
  0
LINE
  5
   533
  8
0
  6
DASHDOT
 62
     7
 10
249.450653076172
 20
23.2465577125549
 30
0.0
 11
252.700653076172
 21
23.2465577125549
 31
0.0
  0
LINE
  5
   534
  8
0
  6
DASHDOT
 62
     7
 10
231.075653076172
 20
24.8715577125549
 30
0.0
 11
231.075653076172
 21
21.6215577125549
 31
0.0
  0
LINE
  5
   535
  8
0
  6
DASHDOT
 62
     7
 10
229.450653076172
 20
23.2465577125549
 30
0.0
 11
232.700653076172
 21
23.2465577125549
 31
0.0
  0
LINE
  5
   536
  8
0
  6
DASHDOT
 62
     7
 10
231.075653076172
 20
-10.6284422874451
 30
0.0
 11
231.075653076172
 21
-13.8784422874451
 31
0.0
  0
LINE
  5
   537
  8
0
  6
DASHDOT
 62
     7
 10
229.450653076172
 20
-12.2534422874451
 30
0.0
 11
232.700653076172
 21
-12.2534422874451
 31
0.0
  0
LINE
  5
   538
  8
0
  6
DASHDOT
 62
     7
 10
251.075653076172
 20
-10.6284422874451
 30
0.0
 11
251.075653076172
 21
-13.8784422874451
 31
0.0
  0
LINE
  5
   539
  8
0
  6
DASHDOT
 62
     7
 10
249.450653076172
 20
-12.2534422874451
 30
0.0
 11
252.700653076172
 21
-12.2534422874451
 31
0.0
  0
CIRCLE
  5
   53A
  8
0
  6
CONTINUOUS
 62
     7
 10
224.744289886705
 20
24.2748069587526
 30
0.0
 40
0.0625
  0
LINE
  5
   53B
  8
0
  6
DASHDOT
 62
     7
 10
215.709795522815
 20
5.49655771255493
 30
0.0
 11
268.705946375543
 21
5.49655771255493
 31
0.0
  0
TEXT
  5
   53C
  8
0
  6
CONTINUOUS
 62
     7
 10
233.825649050769
 20
32.0344354544424
 30
0.0
 40
3.00000002980232
  1
=   =
 50
359.999999844103
 41
0.916666604744064
 72
     2
 11
247.025648285843
 21
32.0344354185927
 31
0.0
  0
TEXT
  5
   53D
  8
0
  6
CONTINUOUS
 62
     7
 10
232.609299607473
 20
40.5547162360863
 30
0.0
 40
3.00000002980232
  1
=    =
 50
359.999999844103
 41
0.916666604744064
 72
     2
 11
248.559298684098
 21
40.5547161927679
 31
0.0
  0
TEXT
  5
   53E
  8
0
  6
CONTINUOUS
 62
     7
 10
214.516955438478
 20
-4.76734178771072
 30
0.0
 40
3.00000002980232
  1
=     =
 50
449.999999844103
 41
0.916666604744064
 72
     2
 11
214.516955489242
 21
13.932657130465
 31
0.0
  0
TEXT
  5
   53F
  8
0
  6
CONTINUOUS
 62
     7
 10
204.803835683765
 20
-6.85922894487274
 30
0.0
 40
3.00000002980232
  1
=       =
 50
449.999999844103
 41
0.916666604744064
 72
     2
 11
204.803835749459
 21
17.3407696564049
 31
0.0
  0
INSERT
  5
   540
  8
0
  6
CONTINUOUS
 62
     7
  2
*UDIM1658
 10
0.0
 20
0.0
 30
0.0
  0
INSERT
  5
   541
  8
0
  6
CONTINUOUS
 62
     7
  2
*UDIM1659
 10
0.0
 20
0.0
 30
0.0
  0
INSERT
  5
   542
  8
0
  6
CONTINUOUS
 62
     7
  2
*UDIM1660
 10
0.0
 20
0.0
 30
0.0
  0
INSERT
  5
   543
  8
0
  6
CONTINUOUS
 62
     7
  2
*UDIM1661
 10
0.0
 20
0.0
 30
0.0
  0
INSERT
  5
   544
  8
0
  6
CONTINUOUS
 62
     7
  2
*UDIM1662
 10
0.0
 20
0.0
 30
0.0
  0
TEXT
  5
   545
  8
0
  6
CONTINUOUS
 62
     7
 10
239.883885135151
 20
-27.948346683974
 30
0.0
 40
3.00000002980232
  1
Y
 50
359.999999844103
 41
0.916666604744064
 72
     2
 11
242.083885004021
 21
-27.9483466899489
 31
0.0
  0
TEXT
  5
   546
  8
0
  6
CONTINUOUS
 62
     7
 10
240.054290761448
 20
49.9270271563581
 30
0.0
 40
3.00000002980232
  1
Y
 50
359.999999844103
 41
0.916666604744064
 72
     2
 11
242.254290630318
 21
49.9270271503831
 31
0.0
  0
TEXT
  5
   547
  8
0
  6
CONTINUOUS
 62
     7
 10
270.556900133587
 20
4.0879132056287
 30
0.0
 40
3.00000002980232
  1
X
 50
359.999999844103
 41
0.916666604744064
 72
     2
 11
272.756900002457
 21
4.08791319965375
 31
0.0
  0
TEXT
  5
   548
  8
0
  6
CONTINUOUS
 62
     7
 10
191.659092058636
 20
4.0879132056287
 30
0.0
 40
3.00000002980232
  1
X
 50
359.999999844103
 41
0.916666604744064
 72
     2
 11
193.859091927506
 21
4.08791319965375
 31
0.0
  0
ENDSEC
  0
EOF
