ISO-10303-21;
HEADER;
FILE_DESCRIPTION(('CATIA V5 STEP Exchange'),'2;1');

FILE_NAME('H:\\STP 3D FORMULA\\1SDH001294R0088_1PA_001_00_A2_2p_PS_100mm_sup.stp','2014-12-04T15:42:18+00:00',('none'),('none'),'CATIA Version 5 Release 20 SP 1 (IN-10)','CATIA V5 STEP AP214','none');

FILE_SCHEMA(('AUTOMOTIVE_DESIGN { 1 0 10303 214 1 1 1 1 }'));

ENDSEC;
/* file written by CATIA V5R20 */
DATA;
#5=PRODUCT('1SDH001294R0088_1PA_001_00_A2_2p_PS_100mm_sup','','',(#2)) ;
#2=PRODUCT_CONTEXT(' ',#1,'mechanical') ;
#1=APPLICATION_CONTEXT('automotive design') ;
#10=PRODUCT_DEFINITION('',' ',#6,#3) ;
#3=PRODUCT_DEFINITION_CONTEXT('part definition',#1,' ') ;
#11=PRODUCT_DEFINITION_SHAPE(' ',' ',#10) ;
#569=MECHANICAL_DESIGN_GEOMETRIC_PRESENTATION_REPRESENTATION(' ',(#30),#17) ;
#20=SHAPE_REPRESENTATION(' ',(#19),#17) ;
#19=AXIS2_PLACEMENT_3D(' ',#18,$,$) ;
#35=AXIS2_PLACEMENT_3D('Plane Axis2P3D',#32,#33,#34) ;
#75=AXIS2_PLACEMENT_3D('Plane Axis2P3D',#72,#73,#74) ;
#106=AXIS2_PLACEMENT_3D('Cylinder Axis2P3D',#103,#104,#105) ;
#110=AXIS2_PLACEMENT_3D('Circle Axis2P3D',#108,#109,$) ;
#124=AXIS2_PLACEMENT_3D('Circle Axis2P3D',#122,#123,$) ;
#137=AXIS2_PLACEMENT_3D('Plane Axis2P3D',#134,#135,#136) ;
#194=AXIS2_PLACEMENT_3D('Plane Axis2P3D',#191,#192,#193) ;
#225=AXIS2_PLACEMENT_3D('Plane Axis2P3D',#222,#223,#224) ;
#256=AXIS2_PLACEMENT_3D('Plane Axis2P3D',#253,#254,#255) ;
#287=AXIS2_PLACEMENT_3D('Plane Axis2P3D',#284,#285,#286) ;
#318=AXIS2_PLACEMENT_3D('Plane Axis2P3D',#315,#316,#317) ;
#349=AXIS2_PLACEMENT_3D('Plane Axis2P3D',#346,#347,#348) ;
#380=AXIS2_PLACEMENT_3D('Plane Axis2P3D',#377,#378,#379) ;
#437=AXIS2_PLACEMENT_3D('Plane Axis2P3D',#434,#435,#436) ;
#494=AXIS2_PLACEMENT_3D('Plane Axis2P3D',#491,#492,#493) ;
#516=AXIS2_PLACEMENT_3D('Plane Axis2P3D',#513,#514,#515) ;
#540=AXIS2_PLACEMENT_3D('Plane Axis2P3D',#537,#538,#539) ;
#566=AXIS2_PLACEMENT_3D('Sistema di assi.1',#563,#564,#565) ;
#18=CARTESIAN_POINT(' ',(0.,0.,0.)) ;
#32=CARTESIAN_POINT('Axis2P3D Location',(-13.,0.,76.6)) ;
#37=CARTESIAN_POINT('Line Origine',(-14.6054,58.,76.6)) ;
#41=CARTESIAN_POINT('Vertex',(-13.,58.,76.6)) ;
#43=CARTESIAN_POINT('Vertex',(-16.2108,58.,76.6)) ;
#46=CARTESIAN_POINT('Line Origine',(-16.2108,29.,76.6)) ;
#50=CARTESIAN_POINT('Vertex',(-16.2108,0.,76.6)) ;
#53=CARTESIAN_POINT('Line Origine',(-14.6054,0.,76.6)) ;
#57=CARTESIAN_POINT('Vertex',(-13.,0.,76.6)) ;
#60=CARTESIAN_POINT('Line Origine',(-13.,29.,76.6)) ;
#72=CARTESIAN_POINT('Axis2P3D Location',(-16.2108,0.,76.6)) ;
#77=CARTESIAN_POINT('Line Origine',(-16.5034063404,58.,125.350112725)) ;
#81=CARTESIAN_POINT('Vertex',(-16.7960126808,58.,174.10022545)) ;
#84=CARTESIAN_POINT('Line Origine',(-16.7960126808,29.,174.10022545)) ;
#88=CARTESIAN_POINT('Vertex',(-16.7960126808,0.,174.10022545)) ;
#91=CARTESIAN_POINT('Line Origine',(-16.5034063404,0.,125.350112725)) ;
#103=CARTESIAN_POINT('Axis2P3D Location',(-17.5,29.,174.096)) ;
#108=CARTESIAN_POINT('Axis2P3D Location',(-17.5,58.,174.096)) ;
#112=CARTESIAN_POINT('Vertex',(-18.2039873192,58.,174.10022545)) ;
#115=CARTESIAN_POINT('Line Origine',(-18.2039873192,29.,174.10022545)) ;
#119=CARTESIAN_POINT('Vertex',(-18.2039873192,0.,174.10022545)) ;
#122=CARTESIAN_POINT('Axis2P3D Location',(-17.5,0.,174.096)) ;
#134=CARTESIAN_POINT('Axis2P3D Location',(-18.2039873192,0.,174.10022545)) ;
#139=CARTESIAN_POINT('Line Origine',(-18.4965936596,58.,125.350112725)) ;
#143=CARTESIAN_POINT('Vertex',(-18.7892,58.,76.6)) ;
#146=CARTESIAN_POINT('Line Origine',(-18.7892,29.,76.6)) ;
#150=CARTESIAN_POINT('Vertex',(-18.7892,0.,76.6)) ;
#153=CARTESIAN_POINT('Line Origine',(-18.4965936596,0.,125.350112725)) ;
#165=CARTESIAN_POINT('Line Origine',(-20.3946,58.,76.6)) ;
#169=CARTESIAN_POINT('Vertex',(-22.,58.,76.6)) ;
#172=CARTESIAN_POINT('Line Origine',(-22.,29.,76.6)) ;
#176=CARTESIAN_POINT('Vertex',(-22.,0.,76.6)) ;
#179=CARTESIAN_POINT('Line Origine',(-20.3946,0.,76.6)) ;
#191=CARTESIAN_POINT('Axis2P3D Location',(-22.,0.,76.6)) ;
#196=CARTESIAN_POINT('Line Origine',(-22.,58.,75.8)) ;
#200=CARTESIAN_POINT('Vertex',(-22.,58.,75.)) ;
#203=CARTESIAN_POINT('Line Origine',(-22.,29.,75.)) ;
#207=CARTESIAN_POINT('Vertex',(-22.,0.,75.)) ;
#210=CARTESIAN_POINT('Line Origine',(-22.,0.,75.8)) ;
#222=CARTESIAN_POINT('Axis2P3D Location',(-22.,0.,75.)) ;
#227=CARTESIAN_POINT('Line Origine',(-20.4,58.,75.)) ;
#231=CARTESIAN_POINT('Vertex',(-18.8,58.,75.)) ;
#234=CARTESIAN_POINT('Line Origine',(-18.8,29.,75.)) ;
#238=CARTESIAN_POINT('Vertex',(-18.8,0.,75.)) ;
#241=CARTESIAN_POINT('Line Origine',(-20.4,0.,75.)) ;
#253=CARTESIAN_POINT('Axis2P3D Location',(-18.8,0.,75.)) ;
#258=CARTESIAN_POINT('Line Origine',(-18.8,58.,73.8)) ;
#262=CARTESIAN_POINT('Vertex',(-18.8,58.,72.6)) ;
#265=CARTESIAN_POINT('Line Origine',(-18.8,29.,72.6)) ;
#269=CARTESIAN_POINT('Vertex',(-18.8,0.,72.6)) ;
#272=CARTESIAN_POINT('Line Origine',(-18.8,0.,73.8)) ;
#284=CARTESIAN_POINT('Axis2P3D Location',(-18.8,0.,72.6)) ;
#289=CARTESIAN_POINT('Line Origine',(-19.525,58.,72.6)) ;
#293=CARTESIAN_POINT('Vertex',(-20.25,58.,72.6)) ;
#296=CARTESIAN_POINT('Line Origine',(-20.25,29.,72.6)) ;
#300=CARTESIAN_POINT('Vertex',(-20.25,0.,72.6)) ;
#303=CARTESIAN_POINT('Line Origine',(-19.525,0.,72.6)) ;
#315=CARTESIAN_POINT('Axis2P3D Location',(-20.25,0.,72.6)) ;
#320=CARTESIAN_POINT('Line Origine',(-20.25,58.,71.8)) ;
#324=CARTESIAN_POINT('Vertex',(-20.25,58.,71.)) ;
#327=CARTESIAN_POINT('Line Origine',(-20.25,29.,71.)) ;
#331=CARTESIAN_POINT('Vertex',(-20.25,0.,71.)) ;
#334=CARTESIAN_POINT('Line Origine',(-20.25,0.,71.8)) ;
#346=CARTESIAN_POINT('Axis2P3D Location',(-20.25,0.,71.)) ;
#351=CARTESIAN_POINT('Line Origine',(-17.5,58.,71.)) ;
#355=CARTESIAN_POINT('Vertex',(-14.75,58.,71.)) ;
#358=CARTESIAN_POINT('Line Origine',(-14.75,29.,71.)) ;
#362=CARTESIAN_POINT('Vertex',(-14.75,0.,71.)) ;
#365=CARTESIAN_POINT('Line Origine',(-17.5,0.,71.)) ;
#377=CARTESIAN_POINT('Axis2P3D Location',(-14.75,0.,72.6)) ;
#382=CARTESIAN_POINT('Line Origine',(-14.75,58.,71.8)) ;
#386=CARTESIAN_POINT('Vertex',(-14.75,58.,72.6)) ;
#389=CARTESIAN_POINT('Line Origine',(-14.75,29.,72.6)) ;
#393=CARTESIAN_POINT('Vertex',(-14.75,0.,72.6)) ;
#396=CARTESIAN_POINT('Line Origine',(-14.75,0.,71.8)) ;
#408=CARTESIAN_POINT('Line Origine',(-15.475,58.,72.6)) ;
#412=CARTESIAN_POINT('Vertex',(-16.2,58.,72.6)) ;
#415=CARTESIAN_POINT('Line Origine',(-16.2,29.,72.6)) ;
#419=CARTESIAN_POINT('Vertex',(-16.2,0.,72.6)) ;
#422=CARTESIAN_POINT('Line Origine',(-15.475,0.,72.6)) ;
#434=CARTESIAN_POINT('Axis2P3D Location',(-16.2,0.,75.)) ;
#439=CARTESIAN_POINT('Line Origine',(-16.2,58.,73.8)) ;
#443=CARTESIAN_POINT('Vertex',(-16.2,58.,75.)) ;
#446=CARTESIAN_POINT('Line Origine',(-16.2,29.,75.)) ;
#450=CARTESIAN_POINT('Vertex',(-16.2,0.,75.)) ;
#453=CARTESIAN_POINT('Line Origine',(-16.2,0.,73.8)) ;
#465=CARTESIAN_POINT('Line Origine',(-14.6,58.,75.)) ;
#469=CARTESIAN_POINT('Vertex',(-13.,58.,75.)) ;
#472=CARTESIAN_POINT('Line Origine',(-13.,29.,75.)) ;
#476=CARTESIAN_POINT('Vertex',(-13.,0.,75.)) ;
#479=CARTESIAN_POINT('Line Origine',(-14.6,0.,75.)) ;
#491=CARTESIAN_POINT('Axis2P3D Location',(-13.,0.,76.6)) ;
#496=CARTESIAN_POINT('Line Origine',(-13.,58.,75.8)) ;
#501=CARTESIAN_POINT('Line Origine',(-13.,0.,75.8)) ;
#513=CARTESIAN_POINT('Axis2P3D Location',(0.,0.,0.)) ;
#537=CARTESIAN_POINT('Axis2P3D Location',(0.,58.,0.)) ;
#563=CARTESIAN_POINT('Axis2P3D Location',(0.,0.,0.)) ;
#33=DIRECTION('Axis2P3D Direction',(0.,0.,-1.)) ;
#34=DIRECTION('Axis2P3D XDirection',(-1.,0.,0.)) ;
#38=DIRECTION('Vector Direction',(-1.,0.,0.)) ;
#47=DIRECTION('Vector Direction',(0.,1.,0.)) ;
#54=DIRECTION('Vector Direction',(-1.,0.,0.)) ;
#61=DIRECTION('Vector Direction',(0.,1.,0.)) ;
#73=DIRECTION('Axis2P3D Direction',(-0.99998198748,0.,-0.0060020593489)) ;
#74=DIRECTION('Axis2P3D XDirection',(-0.0060020593489,0.,0.99998198748)) ;
#78=DIRECTION('Vector Direction',(-0.0060020593489,0.,0.99998198748)) ;
#85=DIRECTION('Vector Direction',(0.,1.,0.)) ;
#92=DIRECTION('Vector Direction',(-0.0060020593489,0.,0.99998198748)) ;
#104=DIRECTION('Axis2P3D Direction',(0.,-1.,0.)) ;
#105=DIRECTION('Axis2P3D XDirection',(0.99998198748,0.,0.00600205934888)) ;
#109=DIRECTION('Axis2P3D Direction',(0.,-1.,0.)) ;
#116=DIRECTION('Vector Direction',(0.,-1.,0.)) ;
#123=DIRECTION('Axis2P3D Direction',(0.,-1.,0.)) ;
#135=DIRECTION('Axis2P3D Direction',(0.99998198748,0.,-0.0060020593489)) ;
#136=DIRECTION('Axis2P3D XDirection',(-0.0060020593489,0.,-0.99998198748)) ;
#140=DIRECTION('Vector Direction',(-0.0060020593489,0.,-0.99998198748)) ;
#147=DIRECTION('Vector Direction',(0.,1.,0.)) ;
#154=DIRECTION('Vector Direction',(-0.0060020593489,0.,-0.99998198748)) ;
#166=DIRECTION('Vector Direction',(1.,0.,0.)) ;
#173=DIRECTION('Vector Direction',(0.,1.,0.)) ;
#180=DIRECTION('Vector Direction',(1.,0.,0.)) ;
#192=DIRECTION('Axis2P3D Direction',(1.,-0.,0.)) ;
#193=DIRECTION('Axis2P3D XDirection',(0.,0.,-1.)) ;
#197=DIRECTION('Vector Direction',(0.,0.,-1.)) ;
#204=DIRECTION('Vector Direction',(0.,1.,0.)) ;
#211=DIRECTION('Vector Direction',(0.,0.,-1.)) ;
#223=DIRECTION('Axis2P3D Direction',(0.,0.,1.)) ;
#224=DIRECTION('Axis2P3D XDirection',(1.,0.,0.)) ;
#228=DIRECTION('Vector Direction',(1.,0.,0.)) ;
#235=DIRECTION('Vector Direction',(0.,1.,0.)) ;
#242=DIRECTION('Vector Direction',(1.,0.,0.)) ;
#254=DIRECTION('Axis2P3D Direction',(1.,-0.,0.)) ;
#255=DIRECTION('Axis2P3D XDirection',(0.,0.,-1.)) ;
#259=DIRECTION('Vector Direction',(0.,0.,-1.)) ;
#266=DIRECTION('Vector Direction',(0.,1.,0.)) ;
#273=DIRECTION('Vector Direction',(0.,0.,-1.)) ;
#285=DIRECTION('Axis2P3D Direction',(0.,0.,-1.)) ;
#286=DIRECTION('Axis2P3D XDirection',(-1.,0.,0.)) ;
#290=DIRECTION('Vector Direction',(-1.,0.,0.)) ;
#297=DIRECTION('Vector Direction',(0.,1.,0.)) ;
#304=DIRECTION('Vector Direction',(-1.,0.,0.)) ;
#316=DIRECTION('Axis2P3D Direction',(1.,-0.,0.)) ;
#317=DIRECTION('Axis2P3D XDirection',(0.,0.,-1.)) ;
#321=DIRECTION('Vector Direction',(0.,0.,-1.)) ;
#328=DIRECTION('Vector Direction',(0.,1.,0.)) ;
#335=DIRECTION('Vector Direction',(0.,0.,-1.)) ;
#347=DIRECTION('Axis2P3D Direction',(0.,0.,1.)) ;
#348=DIRECTION('Axis2P3D XDirection',(1.,0.,0.)) ;
#352=DIRECTION('Vector Direction',(1.,0.,0.)) ;
#359=DIRECTION('Vector Direction',(0.,1.,0.)) ;
#366=DIRECTION('Vector Direction',(1.,0.,0.)) ;
#378=DIRECTION('Axis2P3D Direction',(1.,-0.,0.)) ;
#379=DIRECTION('Axis2P3D XDirection',(0.,0.,-1.)) ;
#383=DIRECTION('Vector Direction',(0.,0.,-1.)) ;
#390=DIRECTION('Vector Direction',(0.,1.,0.)) ;
#397=DIRECTION('Vector Direction',(0.,0.,-1.)) ;
#409=DIRECTION('Vector Direction',(1.,0.,0.)) ;
#416=DIRECTION('Vector Direction',(0.,1.,0.)) ;
#423=DIRECTION('Vector Direction',(1.,0.,0.)) ;
#435=DIRECTION('Axis2P3D Direction',(1.,-0.,0.)) ;
#436=DIRECTION('Axis2P3D XDirection',(0.,0.,-1.)) ;
#440=DIRECTION('Vector Direction',(0.,0.,-1.)) ;
#447=DIRECTION('Vector Direction',(0.,1.,0.)) ;
#454=DIRECTION('Vector Direction',(0.,0.,-1.)) ;
#466=DIRECTION('Vector Direction',(-1.,0.,0.)) ;
#473=DIRECTION('Vector Direction',(0.,1.,0.)) ;
#480=DIRECTION('Vector Direction',(-1.,0.,0.)) ;
#492=DIRECTION('Axis2P3D Direction',(1.,-0.,0.)) ;
#493=DIRECTION('Axis2P3D XDirection',(0.,0.,-1.)) ;
#497=DIRECTION('Vector Direction',(0.,0.,-1.)) ;
#502=DIRECTION('Vector Direction',(0.,0.,-1.)) ;
#514=DIRECTION('Axis2P3D Direction',(0.,-1.,0.)) ;
#515=DIRECTION('Axis2P3D XDirection',(1.,0.,0.)) ;
#538=DIRECTION('Axis2P3D Direction',(0.,-1.,0.)) ;
#539=DIRECTION('Axis2P3D XDirection',(1.,0.,0.)) ;
#564=DIRECTION('Axis2P3D Direction',(0.,0.,1.)) ;
#565=DIRECTION('Axis2P3D XDirection',(1.,0.,0.)) ;
#8=PRODUCT_RELATED_PRODUCT_CATEGORY('part',$,(#5)) ;
#7=PRODUCT_CATEGORY('part','specification') ;
#30=STYLED_ITEM(' ',(#29),#22) ;
#29=PRESENTATION_STYLE_ASSIGNMENT((#28)) ;
#28=SURFACE_STYLE_USAGE(.BOTH.,#27) ;
#27=SURFACE_SIDE_STYLE(' ',(#26)) ;
#26=SURFACE_STYLE_FILL_AREA(#25) ;
#25=FILL_AREA_STYLE(' ',(#24)) ;
#24=FILL_AREA_STYLE_COLOUR(' ',#23) ;
#39=VECTOR('Line Direction',#38,1.) ;
#48=VECTOR('Line Direction',#47,1.) ;
#55=VECTOR('Line Direction',#54,1.) ;
#62=VECTOR('Line Direction',#61,1.) ;
#79=VECTOR('Line Direction',#78,1.) ;
#86=VECTOR('Line Direction',#85,1.) ;
#93=VECTOR('Line Direction',#92,1.) ;
#117=VECTOR('Line Direction',#116,1.) ;
#141=VECTOR('Line Direction',#140,1.) ;
#148=VECTOR('Line Direction',#147,1.) ;
#155=VECTOR('Line Direction',#154,1.) ;
#167=VECTOR('Line Direction',#166,1.) ;
#174=VECTOR('Line Direction',#173,1.) ;
#181=VECTOR('Line Direction',#180,1.) ;
#198=VECTOR('Line Direction',#197,1.) ;
#205=VECTOR('Line Direction',#204,1.) ;
#212=VECTOR('Line Direction',#211,1.) ;
#229=VECTOR('Line Direction',#228,1.) ;
#236=VECTOR('Line Direction',#235,1.) ;
#243=VECTOR('Line Direction',#242,1.) ;
#260=VECTOR('Line Direction',#259,1.) ;
#267=VECTOR('Line Direction',#266,1.) ;
#274=VECTOR('Line Direction',#273,1.) ;
#291=VECTOR('Line Direction',#290,1.) ;
#298=VECTOR('Line Direction',#297,1.) ;
#305=VECTOR('Line Direction',#304,1.) ;
#322=VECTOR('Line Direction',#321,1.) ;
#329=VECTOR('Line Direction',#328,1.) ;
#336=VECTOR('Line Direction',#335,1.) ;
#353=VECTOR('Line Direction',#352,1.) ;
#360=VECTOR('Line Direction',#359,1.) ;
#367=VECTOR('Line Direction',#366,1.) ;
#384=VECTOR('Line Direction',#383,1.) ;
#391=VECTOR('Line Direction',#390,1.) ;
#398=VECTOR('Line Direction',#397,1.) ;
#410=VECTOR('Line Direction',#409,1.) ;
#417=VECTOR('Line Direction',#416,1.) ;
#424=VECTOR('Line Direction',#423,1.) ;
#441=VECTOR('Line Direction',#440,1.) ;
#448=VECTOR('Line Direction',#447,1.) ;
#455=VECTOR('Line Direction',#454,1.) ;
#467=VECTOR('Line Direction',#466,1.) ;
#474=VECTOR('Line Direction',#473,1.) ;
#481=VECTOR('Line Direction',#480,1.) ;
#498=VECTOR('Line Direction',#497,1.) ;
#503=VECTOR('Line Direction',#502,1.) ;
#16=UNCERTAINTY_MEASURE_WITH_UNIT(LENGTH_MEASURE(0.005),#12,'distance_accuracy_value','CONFUSED CURVE UNCERTAINTY') ;
#562=SHAPE_REPRESENTATION_RELATIONSHIP(' ',' ',#20,#561) ;
#66=ORIENTED_EDGE('',*,*,#45,.T.) ;
#67=ORIENTED_EDGE('',*,*,#52,.F.) ;
#68=ORIENTED_EDGE('',*,*,#59,.F.) ;
#69=ORIENTED_EDGE('',*,*,#64,.T.) ;
#97=ORIENTED_EDGE('',*,*,#83,.T.) ;
#98=ORIENTED_EDGE('',*,*,#90,.F.) ;
#99=ORIENTED_EDGE('',*,*,#95,.F.) ;
#100=ORIENTED_EDGE('',*,*,#52,.T.) ;
#128=ORIENTED_EDGE('',*,*,#114,.T.) ;
#129=ORIENTED_EDGE('',*,*,#121,.F.) ;
#130=ORIENTED_EDGE('',*,*,#126,.F.) ;
#131=ORIENTED_EDGE('',*,*,#90,.T.) ;
#159=ORIENTED_EDGE('',*,*,#145,.T.) ;
#160=ORIENTED_EDGE('',*,*,#152,.F.) ;
#161=ORIENTED_EDGE('',*,*,#157,.F.) ;
#162=ORIENTED_EDGE('',*,*,#121,.T.) ;
#185=ORIENTED_EDGE('',*,*,#171,.T.) ;
#186=ORIENTED_EDGE('',*,*,#178,.F.) ;
#187=ORIENTED_EDGE('',*,*,#183,.F.) ;
#188=ORIENTED_EDGE('',*,*,#152,.T.) ;
#216=ORIENTED_EDGE('',*,*,#202,.T.) ;
#217=ORIENTED_EDGE('',*,*,#209,.F.) ;
#218=ORIENTED_EDGE('',*,*,#214,.F.) ;
#219=ORIENTED_EDGE('',*,*,#178,.T.) ;
#247=ORIENTED_EDGE('',*,*,#233,.T.) ;
#248=ORIENTED_EDGE('',*,*,#240,.F.) ;
#249=ORIENTED_EDGE('',*,*,#245,.F.) ;
#250=ORIENTED_EDGE('',*,*,#209,.T.) ;
#278=ORIENTED_EDGE('',*,*,#264,.T.) ;
#279=ORIENTED_EDGE('',*,*,#271,.F.) ;
#280=ORIENTED_EDGE('',*,*,#276,.F.) ;
#281=ORIENTED_EDGE('',*,*,#240,.T.) ;
#309=ORIENTED_EDGE('',*,*,#295,.T.) ;
#310=ORIENTED_EDGE('',*,*,#302,.F.) ;
#311=ORIENTED_EDGE('',*,*,#307,.F.) ;
#312=ORIENTED_EDGE('',*,*,#271,.T.) ;
#340=ORIENTED_EDGE('',*,*,#326,.T.) ;
#341=ORIENTED_EDGE('',*,*,#333,.F.) ;
#342=ORIENTED_EDGE('',*,*,#338,.F.) ;
#343=ORIENTED_EDGE('',*,*,#302,.T.) ;
#371=ORIENTED_EDGE('',*,*,#357,.T.) ;
#372=ORIENTED_EDGE('',*,*,#364,.F.) ;
#373=ORIENTED_EDGE('',*,*,#369,.F.) ;
#374=ORIENTED_EDGE('',*,*,#333,.T.) ;
#402=ORIENTED_EDGE('',*,*,#388,.T.) ;
#403=ORIENTED_EDGE('',*,*,#395,.F.) ;
#404=ORIENTED_EDGE('',*,*,#400,.F.) ;
#405=ORIENTED_EDGE('',*,*,#364,.T.) ;
#428=ORIENTED_EDGE('',*,*,#414,.T.) ;
#429=ORIENTED_EDGE('',*,*,#421,.F.) ;
#430=ORIENTED_EDGE('',*,*,#426,.F.) ;
#431=ORIENTED_EDGE('',*,*,#395,.T.) ;
#459=ORIENTED_EDGE('',*,*,#445,.T.) ;
#460=ORIENTED_EDGE('',*,*,#452,.F.) ;
#461=ORIENTED_EDGE('',*,*,#457,.F.) ;
#462=ORIENTED_EDGE('',*,*,#421,.T.) ;
#485=ORIENTED_EDGE('',*,*,#471,.T.) ;
#486=ORIENTED_EDGE('',*,*,#478,.F.) ;
#487=ORIENTED_EDGE('',*,*,#483,.F.) ;
#488=ORIENTED_EDGE('',*,*,#452,.T.) ;
#507=ORIENTED_EDGE('',*,*,#500,.T.) ;
#508=ORIENTED_EDGE('',*,*,#64,.F.) ;
#509=ORIENTED_EDGE('',*,*,#505,.F.) ;
#510=ORIENTED_EDGE('',*,*,#478,.T.) ;
#519=ORIENTED_EDGE('',*,*,#59,.T.) ;
#520=ORIENTED_EDGE('',*,*,#95,.T.) ;
#521=ORIENTED_EDGE('',*,*,#126,.T.) ;
#522=ORIENTED_EDGE('',*,*,#157,.T.) ;
#523=ORIENTED_EDGE('',*,*,#183,.T.) ;
#524=ORIENTED_EDGE('',*,*,#214,.T.) ;
#525=ORIENTED_EDGE('',*,*,#245,.T.) ;
#526=ORIENTED_EDGE('',*,*,#276,.T.) ;
#527=ORIENTED_EDGE('',*,*,#307,.T.) ;
#528=ORIENTED_EDGE('',*,*,#338,.T.) ;
#529=ORIENTED_EDGE('',*,*,#369,.T.) ;
#530=ORIENTED_EDGE('',*,*,#400,.T.) ;
#531=ORIENTED_EDGE('',*,*,#426,.T.) ;
#532=ORIENTED_EDGE('',*,*,#457,.T.) ;
#533=ORIENTED_EDGE('',*,*,#483,.T.) ;
#534=ORIENTED_EDGE('',*,*,#505,.T.) ;
#543=ORIENTED_EDGE('',*,*,#500,.F.) ;
#544=ORIENTED_EDGE('',*,*,#471,.F.) ;
#545=ORIENTED_EDGE('',*,*,#445,.F.) ;
#546=ORIENTED_EDGE('',*,*,#414,.F.) ;
#547=ORIENTED_EDGE('',*,*,#388,.F.) ;
#548=ORIENTED_EDGE('',*,*,#357,.F.) ;
#549=ORIENTED_EDGE('',*,*,#326,.F.) ;
#550=ORIENTED_EDGE('',*,*,#295,.F.) ;
#551=ORIENTED_EDGE('',*,*,#264,.F.) ;
#552=ORIENTED_EDGE('',*,*,#233,.F.) ;
#553=ORIENTED_EDGE('',*,*,#202,.F.) ;
#554=ORIENTED_EDGE('',*,*,#171,.F.) ;
#555=ORIENTED_EDGE('',*,*,#145,.F.) ;
#556=ORIENTED_EDGE('',*,*,#114,.F.) ;
#557=ORIENTED_EDGE('',*,*,#83,.F.) ;
#558=ORIENTED_EDGE('',*,*,#45,.F.) ;
#31=CLOSED_SHELL('Closed Shell',(#71,#102,#133,#164,#190,#221,#252,#283,#314,#345,#376,#407,#433,#464,#490,#512,#536,#560)) ;
#561=ADVANCED_BREP_SHAPE_REPRESENTATION('NONE',(#22),#17) ;
#71=ADVANCED_FACE('Barriera isolante PS 100mm superiore',(#70),#36,.F.) ;
#102=ADVANCED_FACE('Barriera isolante PS 100mm superiore',(#101),#76,.F.) ;
#133=ADVANCED_FACE('Barriera isolante PS 100mm superiore',(#132),#107,.T.) ;
#164=ADVANCED_FACE('Barriera isolante PS 100mm superiore',(#163),#138,.F.) ;
#190=ADVANCED_FACE('Barriera isolante PS 100mm superiore',(#189),#36,.F.) ;
#221=ADVANCED_FACE('Barriera isolante PS 100mm superiore',(#220),#195,.F.) ;
#252=ADVANCED_FACE('Barriera isolante PS 100mm superiore',(#251),#226,.F.) ;
#283=ADVANCED_FACE('Barriera isolante PS 100mm superiore',(#282),#257,.F.) ;
#314=ADVANCED_FACE('Barriera isolante PS 100mm superiore',(#313),#288,.F.) ;
#345=ADVANCED_FACE('Barriera isolante PS 100mm superiore',(#344),#319,.F.) ;
#376=ADVANCED_FACE('Barriera isolante PS 100mm superiore',(#375),#350,.F.) ;
#407=ADVANCED_FACE('Barriera isolante PS 100mm superiore',(#406),#381,.T.) ;
#433=ADVANCED_FACE('Barriera isolante PS 100mm superiore',(#432),#288,.F.) ;
#464=ADVANCED_FACE('Barriera isolante PS 100mm superiore',(#463),#438,.T.) ;
#490=ADVANCED_FACE('Barriera isolante PS 100mm superiore',(#489),#226,.F.) ;
#512=ADVANCED_FACE('Barriera isolante PS 100mm superiore',(#511),#495,.T.) ;
#536=ADVANCED_FACE('Barriera isolante PS 100mm superiore',(#535),#517,.T.) ;
#560=ADVANCED_FACE('Barriera isolante PS 100mm superiore',(#559),#541,.F.) ;
#4=APPLICATION_PROTOCOL_DEFINITION('international standard','automotive_design',2001,#1) ;
#22=MANIFOLD_SOLID_BREP('Barriera isolante PS 100mm superiore',#31) ;
#111=CIRCLE('generated circle',#110,0.704) ;
#125=CIRCLE('generated circle',#124,0.704) ;
#23=COLOUR_RGB('Colour',0.341176470588,0.364705882353,0.36862745098) ;
#567=CONSTRUCTIVE_GEOMETRY_REPRESENTATION('supplemental geometry',(#566),#17) ;
#568=CONSTRUCTIVE_GEOMETRY_REPRESENTATION_RELATIONSHIP('supplemental geometry','',#20,#567) ;
#107=CYLINDRICAL_SURFACE('generated cylinder',#106,0.704) ;
#45=EDGE_CURVE('',#42,#44,#40,.T.) ;
#52=EDGE_CURVE('',#51,#44,#49,.T.) ;
#59=EDGE_CURVE('',#58,#51,#56,.T.) ;
#64=EDGE_CURVE('',#58,#42,#63,.T.) ;
#83=EDGE_CURVE('',#44,#82,#80,.T.) ;
#90=EDGE_CURVE('',#89,#82,#87,.T.) ;
#95=EDGE_CURVE('',#51,#89,#94,.T.) ;
#114=EDGE_CURVE('',#82,#113,#111,.T.) ;
#121=EDGE_CURVE('',#120,#113,#118,.F.) ;
#126=EDGE_CURVE('',#89,#120,#125,.T.) ;
#145=EDGE_CURVE('',#113,#144,#142,.T.) ;
#152=EDGE_CURVE('',#151,#144,#149,.T.) ;
#157=EDGE_CURVE('',#120,#151,#156,.T.) ;
#171=EDGE_CURVE('',#144,#170,#168,.F.) ;
#178=EDGE_CURVE('',#177,#170,#175,.T.) ;
#183=EDGE_CURVE('',#151,#177,#182,.F.) ;
#202=EDGE_CURVE('',#170,#201,#199,.T.) ;
#209=EDGE_CURVE('',#208,#201,#206,.T.) ;
#214=EDGE_CURVE('',#177,#208,#213,.T.) ;
#233=EDGE_CURVE('',#201,#232,#230,.T.) ;
#240=EDGE_CURVE('',#239,#232,#237,.T.) ;
#245=EDGE_CURVE('',#208,#239,#244,.T.) ;
#264=EDGE_CURVE('',#232,#263,#261,.T.) ;
#271=EDGE_CURVE('',#270,#263,#268,.T.) ;
#276=EDGE_CURVE('',#239,#270,#275,.T.) ;
#295=EDGE_CURVE('',#263,#294,#292,.T.) ;
#302=EDGE_CURVE('',#301,#294,#299,.T.) ;
#307=EDGE_CURVE('',#270,#301,#306,.T.) ;
#326=EDGE_CURVE('',#294,#325,#323,.T.) ;
#333=EDGE_CURVE('',#332,#325,#330,.T.) ;
#338=EDGE_CURVE('',#301,#332,#337,.T.) ;
#357=EDGE_CURVE('',#325,#356,#354,.T.) ;
#364=EDGE_CURVE('',#363,#356,#361,.T.) ;
#369=EDGE_CURVE('',#332,#363,#368,.T.) ;
#388=EDGE_CURVE('',#356,#387,#385,.F.) ;
#395=EDGE_CURVE('',#394,#387,#392,.T.) ;
#400=EDGE_CURVE('',#363,#394,#399,.F.) ;
#414=EDGE_CURVE('',#387,#413,#411,.F.) ;
#421=EDGE_CURVE('',#420,#413,#418,.T.) ;
#426=EDGE_CURVE('',#394,#420,#425,.F.) ;
#445=EDGE_CURVE('',#413,#444,#442,.F.) ;
#452=EDGE_CURVE('',#451,#444,#449,.T.) ;
#457=EDGE_CURVE('',#420,#451,#456,.F.) ;
#471=EDGE_CURVE('',#444,#470,#468,.F.) ;
#478=EDGE_CURVE('',#477,#470,#475,.T.) ;
#483=EDGE_CURVE('',#451,#477,#482,.F.) ;
#500=EDGE_CURVE('',#470,#42,#499,.F.) ;
#505=EDGE_CURVE('',#477,#58,#504,.F.) ;
#65=EDGE_LOOP('',(#66,#67,#68,#69)) ;
#96=EDGE_LOOP('',(#97,#98,#99,#100)) ;
#127=EDGE_LOOP('',(#128,#129,#130,#131)) ;
#158=EDGE_LOOP('',(#159,#160,#161,#162)) ;
#184=EDGE_LOOP('',(#185,#186,#187,#188)) ;
#215=EDGE_LOOP('',(#216,#217,#218,#219)) ;
#246=EDGE_LOOP('',(#247,#248,#249,#250)) ;
#277=EDGE_LOOP('',(#278,#279,#280,#281)) ;
#308=EDGE_LOOP('',(#309,#310,#311,#312)) ;
#339=EDGE_LOOP('',(#340,#341,#342,#343)) ;
#370=EDGE_LOOP('',(#371,#372,#373,#374)) ;
#401=EDGE_LOOP('',(#402,#403,#404,#405)) ;
#427=EDGE_LOOP('',(#428,#429,#430,#431)) ;
#458=EDGE_LOOP('',(#459,#460,#461,#462)) ;
#484=EDGE_LOOP('',(#485,#486,#487,#488)) ;
#506=EDGE_LOOP('',(#507,#508,#509,#510)) ;
#518=EDGE_LOOP('',(#519,#520,#521,#522,#523,#524,#525,#526,#527,#528,#529,#530,#531,#532,#533,#534)) ;
#542=EDGE_LOOP('',(#543,#544,#545,#546,#547,#548,#549,#550,#551,#552,#553,#554,#555,#556,#557,#558)) ;
#70=FACE_OUTER_BOUND('',#65,.T.) ;
#101=FACE_OUTER_BOUND('',#96,.T.) ;
#132=FACE_OUTER_BOUND('',#127,.T.) ;
#163=FACE_OUTER_BOUND('',#158,.T.) ;
#189=FACE_OUTER_BOUND('',#184,.T.) ;
#220=FACE_OUTER_BOUND('',#215,.T.) ;
#251=FACE_OUTER_BOUND('',#246,.T.) ;
#282=FACE_OUTER_BOUND('',#277,.T.) ;
#313=FACE_OUTER_BOUND('',#308,.T.) ;
#344=FACE_OUTER_BOUND('',#339,.T.) ;
#375=FACE_OUTER_BOUND('',#370,.T.) ;
#406=FACE_OUTER_BOUND('',#401,.T.) ;
#432=FACE_OUTER_BOUND('',#427,.T.) ;
#463=FACE_OUTER_BOUND('',#458,.T.) ;
#489=FACE_OUTER_BOUND('',#484,.T.) ;
#511=FACE_OUTER_BOUND('',#506,.T.) ;
#535=FACE_OUTER_BOUND('',#518,.T.) ;
#559=FACE_OUTER_BOUND('',#542,.T.) ;
#40=LINE('Line',#37,#39) ;
#49=LINE('Line',#46,#48) ;
#56=LINE('Line',#53,#55) ;
#63=LINE('Line',#60,#62) ;
#80=LINE('Line',#77,#79) ;
#87=LINE('Line',#84,#86) ;
#94=LINE('Line',#91,#93) ;
#118=LINE('Line',#115,#117) ;
#142=LINE('Line',#139,#141) ;
#149=LINE('Line',#146,#148) ;
#156=LINE('Line',#153,#155) ;
#168=LINE('Line',#165,#167) ;
#175=LINE('Line',#172,#174) ;
#182=LINE('Line',#179,#181) ;
#199=LINE('Line',#196,#198) ;
#206=LINE('Line',#203,#205) ;
#213=LINE('Line',#210,#212) ;
#230=LINE('Line',#227,#229) ;
#237=LINE('Line',#234,#236) ;
#244=LINE('Line',#241,#243) ;
#261=LINE('Line',#258,#260) ;
#268=LINE('Line',#265,#267) ;
#275=LINE('Line',#272,#274) ;
#292=LINE('Line',#289,#291) ;
#299=LINE('Line',#296,#298) ;
#306=LINE('Line',#303,#305) ;
#323=LINE('Line',#320,#322) ;
#330=LINE('Line',#327,#329) ;
#337=LINE('Line',#334,#336) ;
#354=LINE('Line',#351,#353) ;
#361=LINE('Line',#358,#360) ;
#368=LINE('Line',#365,#367) ;
#385=LINE('Line',#382,#384) ;
#392=LINE('Line',#389,#391) ;
#399=LINE('Line',#396,#398) ;
#411=LINE('Line',#408,#410) ;
#418=LINE('Line',#415,#417) ;
#425=LINE('Line',#422,#424) ;
#442=LINE('Line',#439,#441) ;
#449=LINE('Line',#446,#448) ;
#456=LINE('Line',#453,#455) ;
#468=LINE('Line',#465,#467) ;
#475=LINE('Line',#472,#474) ;
#482=LINE('Line',#479,#481) ;
#499=LINE('Line',#496,#498) ;
#504=LINE('Line',#501,#503) ;
#36=PLANE('',#35) ;
#76=PLANE('',#75) ;
#138=PLANE('',#137) ;
#195=PLANE('',#194) ;
#226=PLANE('',#225) ;
#257=PLANE('',#256) ;
#288=PLANE('',#287) ;
#319=PLANE('',#318) ;
#350=PLANE('',#349) ;
#381=PLANE('',#380) ;
#438=PLANE('',#437) ;
#495=PLANE('',#494) ;
#517=PLANE('',#516) ;
#541=PLANE('',#540) ;
#14=PLANE_ANGLE_MEASURE_WITH_UNIT(PLANE_ANGLE_MEASURE(0.0174532925199),#13) ;
#9=PRODUCT_CATEGORY_RELATIONSHIP(' ',' ',#7,#8) ;
#6=PRODUCT_DEFINITION_FORMATION_WITH_SPECIFIED_SOURCE('',' ',#5,.NOT_KNOWN.) ;
#21=SHAPE_DEFINITION_REPRESENTATION(#11,#20) ;
#42=VERTEX_POINT('',#41) ;
#44=VERTEX_POINT('',#43) ;
#51=VERTEX_POINT('',#50) ;
#58=VERTEX_POINT('',#57) ;
#82=VERTEX_POINT('',#81) ;
#89=VERTEX_POINT('',#88) ;
#113=VERTEX_POINT('',#112) ;
#120=VERTEX_POINT('',#119) ;
#144=VERTEX_POINT('',#143) ;
#151=VERTEX_POINT('',#150) ;
#170=VERTEX_POINT('',#169) ;
#177=VERTEX_POINT('',#176) ;
#201=VERTEX_POINT('',#200) ;
#208=VERTEX_POINT('',#207) ;
#232=VERTEX_POINT('',#231) ;
#239=VERTEX_POINT('',#238) ;
#263=VERTEX_POINT('',#262) ;
#270=VERTEX_POINT('',#269) ;
#294=VERTEX_POINT('',#293) ;
#301=VERTEX_POINT('',#300) ;
#325=VERTEX_POINT('',#324) ;
#332=VERTEX_POINT('',#331) ;
#356=VERTEX_POINT('',#355) ;
#363=VERTEX_POINT('',#362) ;
#387=VERTEX_POINT('',#386) ;
#394=VERTEX_POINT('',#393) ;
#413=VERTEX_POINT('',#412) ;
#420=VERTEX_POINT('',#419) ;
#444=VERTEX_POINT('',#443) ;
#451=VERTEX_POINT('',#450) ;
#470=VERTEX_POINT('',#469) ;
#477=VERTEX_POINT('',#476) ;
#12=(LENGTH_UNIT()NAMED_UNIT(*)SI_UNIT(.MILLI.,.METRE.)) ;
#13=(NAMED_UNIT(*)PLANE_ANGLE_UNIT()SI_UNIT($,.RADIAN.)) ;
#15=(NAMED_UNIT(*)SI_UNIT($,.STERADIAN.)SOLID_ANGLE_UNIT()) ;
#17=(GEOMETRIC_REPRESENTATION_CONTEXT(3)GLOBAL_UNCERTAINTY_ASSIGNED_CONTEXT((#16))GLOBAL_UNIT_ASSIGNED_CONTEXT((#12,#13,#15))REPRESENTATION_CONTEXT(' ',' ')) ;
ENDSEC;
END-ISO-10303-21;
