  0
SECTION
  2
HEADER
  9
$ACADVER
  1
AC1009
  9
$DWGCODEPAGE
  3
iso8859-1
  9
$INSBASE
 10
0.0
 20
0.0
 30
0.0
  9
$EXTMIN
 10
1.0E20
 20
1.0E20
  9
$EXTMAX
 10
-1.0E20
 20
-1.0E20
  9
$LIMMIN
 10
0.0
 20
0.0
  9
$LIMMAX
 10
12.0
 20
9.0
  9
$ORTHOMODE
 70
     0
  9
$REGENMODE
 70
     1
  9
$FILLMODE
 70
     1
  9
$QTEXTMODE
 70
     0
  9
$MIRRTEXT
 70
     1
  9
$DRAGMODE
 70
     2
  9
$LTSCALE
 40
15.0
  9
$OSMODE
 70
     0
  9
$ATTMODE
 70
     1
  9
$TEXTSIZE
 40
0.2
  9
$TRACEWID
 40
0.05
  9
$TEXTSTYLE
  7
STANDARD
  9
$CLAYER
  8
0
  9
$CELTYPE
  6
DASHED
  9
$CECOLOR
 62
   256
  9
$DIMSCALE
 40
1.0
  9
$DIMASZ
 40
0.18
  9
$DIMEXO
 40
0.0625
  9
$DIMDLI
 40
0.38
  9
$DIMRND
 40
0.0
  9
$DIMDLE
 40
0.0
  9
$DIMEXE
 40
0.18
  9
$DIMTP
 40
0.0
  9
$DIMTM
 40
0.0
  9
$DIMTXT
 40
0.18
  9
$DIMCEN
 40
0.09
  9
$DIMTSZ
 40
0.0
  9
$DIMTOL
 70
     0
  9
$DIMLIM
 70
     0
  9
$DIMTIH
 70
     1
  9
$DIMTOH
 70
     1
  9
$DIMSE1
 70
     0
  9
$DIMSE2
 70
     0
  9
$DIMTAD
 70
     0
  9
$DIMZIN
 70
     0
  9
$DIMBLK
  1

  9
$DIMASO
 70
     1
  9
$DIMSHO
 70
     1
  9
$DIMPOST
  1

  9
$DIMAPOST
  1

  9
$DIMALT
 70
     0
  9
$DIMALTD
 70
     2
  9
$DIMALTF
 40
25.4
  9
$DIMLFAC
 40
1.0
  9
$DIMTOFL
 70
     0
  9
$DIMTVP
 40
0.0
  9
$DIMTIX
 70
     0
  9
$DIMSOXD
 70
     0
  9
$DIMSAH
 70
     0
  9
$DIMBLK1
  1

  9
$DIMBLK2
  1

  9
$DIMSTYLE
  2
STANDARD
  9
$DIMCLRD
 70
     0
  9
$DIMCLRE
 70
     0
  9
$DIMCLRT
 70
     0
  9
$DIMTFAC
 40
1.0
  9
$DIMGAP
 40
0.09
  9
$LUNITS
 70
     2
  9
$LUPREC
 70
     4
  9
$AXISMODE
 70
     0
  9
$AXISUNIT
 10
0.0
 20
0.0
  9
$SKETCHINC
 40
0.1
  9
$FILLETRAD
 40
0.0
  9
$AUNITS
 70
     0
  9
$AUPREC
 70
     0
  9
$MENU
  1
acad
  9
$ELEVATION
 40
0.0
  9
$PELEVATION
 40
0.0
  9
$THICKNESS
 40
0.0
  9
$LIMCHECK
 70
     0
  9
$BLIPMODE
 70
     1
  9
$CHAMFERA
 40
0.0
  9
$CHAMFERB
 40
0.0
  9
$SKPOLY
 70
     0
  9
$TDCREATE
 40
0.000000000
  9
$TDUPDATE
 40
0.000000000
  9
$TDINDWG
 40
0.0
  9
$TDUSRTIMER
 40
0.0
  9
$USRTIMER
 70
     1
  9
$ANGBASE
 50
0.0
  9
$ANGDIR
 70
     0
  9
$PDMODE
 70
     0
  9
$PDSIZE
 40
0.0
  9
$PLINEWID
 40
0.0
  9
$COORDS
 70
     1
  9
$SPLFRAME
 70
     0
  9
$SPLINETYPE
 70
     6
  9
$SPLINESEGS
 70
     8
  9
$ATTDIA
 70
     0
  9
$ATTREQ
 70
     1
  9
$HANDLING
 70
     1
  9
$HANDSEED
  5
   7AE
  9
$SURFTAB1
 70
     6
  9
$SURFTAB2
 70
     6
  9
$SURFTYPE
 70
     6
  9
$SURFU
 70
     6
  9
$SURFV
 70
     6
  9
$UCSNAME
  2

  9
$UCSORG
 10
0.0
 20
0.0
 30
0.0
  9
$UCSXDIR
 10
1.0
 20
0.0
 30
0.0
  9
$UCSYDIR
 10
0.0
 20
1.0
 30
0.0
  9
$PUCSNAME
  2

  9
$PUCSORG
 10
0.0
 20
0.0
 30
0.0
  9
$PUCSXDIR
 10
1.0
 20
0.0
 30
0.0
  9
$PUCSYDIR
 10
0.0
 20
1.0
 30
0.0
  9
$USERI1
 70
     0
  9
$USERI2
 70
     0
  9
$USERI3
 70
     0
  9
$USERI4
 70
     0
  9
$USERI5
 70
     0
  9
$USERR1
 40
0.0
  9
$USERR2
 40
0.0
  9
$USERR3
 40
0.0
  9
$USERR4
 40
0.0
  9
$USERR5
 40
0.0
  9
$WORLDVIEW
 70
     1
  9
$SHADEDGE
 70
     3
  9
$SHADEDIF
 70
    70
  9
$TILEMODE
 70
     1
  9
$MAXACTVP
 70
    16
  9
$PINSBASE
 10
0.0
 20
0.0
 30
0.0
  9
$PLIMCHECK
 70
     0
  9
$PEXTMIN
 10
1.0E20
 20
1.0E20
 30
1.0E20
  9
$PEXTMAX
 10
-1.0E20
 20
-1.0E20
 30
-1.0E20
  9
$PLIMMIN
 10
0.0
 20
0.0
  9
$PLIMMAX
 10
12.0
 20
9.0
  9
$UNITMODE
 70
     0
  9
$VISRETAIN
 70
     0
  0
ENDSEC
  0
SECTION
  2
TABLES
  0
TABLE
  2
VPORT
 70
     1
  0
VPORT
  2
*ACTIVE
 70
     0
 10
0.0
 20
0.0
 11
1.0
 21
1.0
 12
6.801242
 22
4.5
 13
0.0
 23
0.0
 14
1.0
 24
1.0
 15
0.0
 25
0.0
 16
0.0
 26
0.0
 36
1.0
 17
0.0
 27
0.0
 37
0.0
 40
9.0
 41
1.511387
 42
50.0
 43
0.0
 44
0.0
 50
0.0
 51
0.0
 71
     0
 72
   100
 73
     1
 74
     1
 75
     0
 76
     0
 77
     0
 78
     0
  0
ENDTAB
  0
TABLE
  2
LTYPE
 70
    41
  0
LTYPE
  2
BYBLOCK
 70
     0
  3

 72
    65
 73
     0
 40
0.0
  0
LTYPE
  2
BYLAYER
 70
     0
  3

 72
    65
 73
     0
 40
0.0
  0
LTYPE
  2
CONTINUOUS
 70
     0
  3
Solid line
 72
    65
 73
     0
 40
0.0
  0
LTYPE
  2
BORDER
 70
    64
  3
__ __ . __ __ . __ __ . __ __ . __ __ . __ __ .
 72
    65
 73
     6
 40
1.75
 49
0.5
 49
-0.25
 49
0.5
 49
-0.25
 49
0.0
 49
-0.25
  0
LTYPE
  2
BORDER2
 70
    64
  3
__.__.__.__.__.__.__.__.__.__.__.__.__.__.__.__
 72
    65
 73
     6
 40
0.875
 49
0.25
 49
-0.125
 49
0.25
 49
-0.125
 49
0.0
 49
-0.125
  0
LTYPE
  2
BORDERX2
 70
    64
  3
____  ____  .  ____  ____  .  ____  ____  .  __
 72
    65
 73
     6
 40
3.5
 49
1.0
 49
-0.5
 49
1.0
 49
-0.5
 49
0.0
 49
-0.5
  0
LTYPE
  2
CENTER
 70
    64
  3
____ _ ____ _ ____ _ ____ _ ____ _ ____ _ ____
 72
    65
 73
     4
 40
2.0
 49
1.25
 49
-0.25
 49
0.25
 49
-0.25
  0
LTYPE
  2
CENTER2
 70
    64
  3
___ _ ___ _ ___ _ ___ _ ___ _ ___ _ ___ _ ___ _
 72
    65
 73
     4
 40
1.125
 49
0.75
 49
-0.125
 49
0.125
 49
-0.125
  0
LTYPE
  2
CENTERX2
 70
    64
  3
________  __  ________  __  ________  __  _____
 72
    65
 73
     4
 40
4.0
 49
2.5
 49
-0.5
 49
0.5
 49
-0.5
  0
LTYPE
  2
DASHDOT
 70
    64
  3
__ . __ . __ . __ . __ . __ . __ . __ . __ . __
 72
    65
 73
     4
 40
1.0
 49
0.5
 49
-0.25
 49
0.0
 49
-0.25
  0
LTYPE
  2
DASHDOT2
 70
    64
  3
_._._._._._._._._._._._._._._._._._._._._._._._
 72
    65
 73
     4
 40
0.5
 49
0.25
 49
-0.125
 49
0.0
 49
-0.125
  0
LTYPE
  2
DASHDOTX2
 70
    64
  3
____  .  ____  .  ____  .  ____  .  ____  .  __
 72
    65
 73
     4
 40
2.0
 49
1.0
 49
-0.5
 49
0.0
 49
-0.5
  0
LTYPE
  2
DASHED
 70
    64
  3
__ __ __ __ __ __ __ __ __ __ __ __ __ __ __ __
 72
    65
 73
     2
 40
0.75
 49
0.5
 49
-0.25
  0
LTYPE
  2
DASHED2
 70
    64
  3
_ _ _ _ _ _ _ _ _ _ _ _ _ _ _ _ _ _ _ _ _ _ _ _
 72
    65
 73
     2
 40
0.375
 49
0.25
 49
-0.125
  0
LTYPE
  2
DASHEDX2
 70
    64
  3
____  ____  ____  ____  ____  ____  ____  ____
 72
    65
 73
     2
 40
1.5
 49
1.0
 49
-0.5
  0
LTYPE
  2
DIVIDE
 70
    64
  3
____ . . ____ . . ____ . . ____ . . ____ . . __
 72
    65
 73
     6
 40
1.25
 49
0.5
 49
-0.25
 49
0.0
 49
-0.25
 49
0.0
 49
-0.25
  0
LTYPE
  2
DIVIDE2
 70
    64
  3
__..__..__..__..__..__..__..__..__..__..__..__.
 72
    65
 73
     6
 40
0.625
 49
0.25
 49
-0.125
 49
0.0
 49
-0.125
 49
0.0
 49
-0.125
  0
LTYPE
  2
DIVIDEX2
 70
    64
  3
________  .  .  ________  .  .  ________  .  .
 72
    65
 73
     6
 40
2.5
 49
1.0
 49
-0.5
 49
0.0
 49
-0.5
 49
0.0
 49
-0.5
  0
LTYPE
  2
DOT
 70
    64
  3
. . . . . . . . . . . . . . . . . . . . . . . .
 72
    65
 73
     2
 40
0.25
 49
0.0
 49
-0.25
  0
LTYPE
  2
DOT2
 70
    64
  3
...............................................
 72
    65
 73
     2
 40
0.125
 49
0.0
 49
-0.125
  0
LTYPE
  2
DOTX2
 70
    64
  3
.  .  .  .  .  .  .  .  .  .  .  .  .  .  .  .
 72
    65
 73
     2
 40
0.5
 49
0.0
 49
-0.5
  0
LTYPE
  2
HIDDEN
 70
    64
  3
__ __ __ __ __ __ __ __ __ __ __ __ __ __ __ __
 72
    65
 73
     2
 40
0.375
 49
0.25
 49
-0.125
  0
LTYPE
  2
HIDDEN2
 70
    64
  3
_ _ _ _ _ _ _ _ _ _ _ _ _ _ _ _ _ _ _ _ _ _ _ _
 72
    65
 73
     2
 40
0.1875
 49
0.125
 49
-0.0625
  0
LTYPE
  2
HIDDENX2
 70
    64
  3
____ ____ ____ ____ ____ ____ ____ ____ ____ __
 72
    65
 73
     2
 40
0.75
 49
0.5
 49
-0.25
  0
LTYPE
  2
PHANTOM
 70
    64
  3
______  __  __  ______  __  __  ______  __  __
 72
    65
 73
     6
 40
2.5
 49
1.25
 49
-0.25
 49
0.25
 49
-0.25
 49
0.25
 49
-0.25
  0
LTYPE
  2
PHANTOM2
 70
    64
  3
___ _ _ ___ _ _ ___ _ _ ___ _ _ ___ _ _ ___ _ _
 72
    65
 73
     6
 40
1.25
 49
0.625
 49
-0.125
 49
0.125
 49
-0.125
 49
0.125
 49
-0.125
  0
LTYPE
  2
PHANTOMX2
 70
    64
  3
____________    ____    ____    ____________
 72
    65
 73
     6
 40
5.0
 49
2.5
 49
-0.5
 49
0.5
 49
-0.5
 49
0.5
 49
-0.5
  0
LTYPE
  2
ACAD_ISO02W100
 70
    64
  3
__ __ __ __ __ __ __ __ __ __ __ __ __ __ __ __
 72
    65
 73
     2
 40
15.0
 49
12.0
 49
-3.0
  0
LTYPE
  2
ACAD_ISO03W100
 70
    64
  3
__    __    __    __    __    __    __    __
 72
    65
 73
     2
 40
30.0
 49
12.0
 49
-18.0
  0
LTYPE
  2
ACAD_ISO04W100
 70
    64
  3
____ . ____ . ____ . ____ . ____ . ____ . ____
 72
    65
 73
     4
 40
30.5
 49
24.0
 49
-3.0
 49
0.5
 49
-3.0
  0
LTYPE
  2
ACAD_ISO05W100
 70
    64
  3
____ .. ____ .. ____ .. ____ .. ____ .. ____ ..
 72
    65
 73
     6
 40
34.0
 49
24.0
 49
-3.0
 49
0.5
 49
-3.0
 49
0.5
 49
-3.0
  0
LTYPE
  2
ACAD_ISO06W100
 70
    64
  3
____ ... ____ ... ____ ... ____ ... ____ ... __
 72
    65
 73
     8
 40
37.5
 49
24.0
 49
-3.0
 49
0.5
 49
-3.0
 49
0.5
 49
-3.0
 49
0.5
 49
-3.0
  0
LTYPE
  2
ACAD_ISO07W100
 70
    64
  3
. . . . . . . . . . . . . . . . . . . . . . . .
 72
    65
 73
     2
 40
3.5
 49
0.5
 49
-3.0
  0
LTYPE
  2
ACAD_ISO08W100
 70
    64
  3
____ __ ____ __ ____ __ ____ ____ __ __ ____ __
 72
    65
 73
     4
 40
36.0
 49
24.0
 49
-3.0
 49
6.0
 49
-3.0
  0
LTYPE
  2
ACAD_ISO09W100
 70
    64
  3
____ __ __ ____ __ __ ____ __ __ ____ __ __ ___
 72
    65
 73
     6
 40
45.0
 49
24.0
 49
-3.0
 49
6.0
 49
-3.0
 49
6.0
 49
-3.0
  0
LTYPE
  2
ACAD_ISO10W100
 70
    64
  3
__ . __ . __ . __ . __ . __ . __ . __ . __ . __
 72
    65
 73
     4
 40
18.5
 49
12.0
 49
-3.0
 49
0.5
 49
-3.0
  0
LTYPE
  2
ACAD_ISO11W100
 70
    64
  3
__ __ . __ __ . __ __ . __ __ . __ __ . __ __ .
 72
    65
 73
     6
 40
33.5
 49
12.0
 49
-3.0
 49
12.0
 49
-3.0
 49
0.5
 49
-3.0
  0
LTYPE
  2
ACAD_ISO12W100
 70
    64
  3
__ . . __ . . __ . . __ . . __ . . __ . . __ .
 72
    65
 73
     6
 40
22.0
 49
12.0
 49
-3.0
 49
0.5
 49
-3.0
 49
0.5
 49
-3.0
  0
LTYPE
  2
ACAD_ISO13W100
 70
    64
  3
__ __ . . __ __ . . __ __ . . __ __ . . __ __ .
 72
    65
 73
     8
 40
37.0
 49
12.0
 49
-3.0
 49
12.0
 49
-3.0
 49
0.5
 49
-3.0
 49
0.5
 49
-3.0
  0
LTYPE
  2
ACAD_ISO14W100
 70
    64
  3
__ . . . __ . . . __ . . . __ . . . __ . . . __
 72
    65
 73
     8
 40
25.5
 49
12.0
 49
-3.0
 49
0.5
 49
-3.0
 49
0.5
 49
-3.0
 49
0.5
 49
-3.0
  0
LTYPE
  2
ACAD_ISO15W100
 70
    64
  3
__ __ . . . __ __ . . . __ __ . . . __ __ . . .
 72
    65
 73
    10
 40
40.5
 49
12.0
 49
-3.0
 49
12.0
 49
-3.0
 49
0.5
 49
-3.0
 49
0.5
 49
-3.0
 49
0.5
 49
-3.0
  0
ENDTAB
  0
TABLE
  2
STYLE
 70
     4
  0
STYLE
  2
STANDARD
 70
    64
 40
0.0
 41
1.0
 50
0.0
 71
     0
 42
0.2
  3
txt
  4

  0
STYLE
  2
TOLERANCE
 70
    64
 40
0.0
 41
1.0
 50
0.0
 71
     0
 42
0.2
  3
../igesfont/iges1003.shx
  4

  0
STYLE
  2
ROMANS
 70
    64
 40
0.0
 41
1.0
 50
0.0
 71
     0
 42
0.2
  3
romans.shx
  4

  0
STYLE
  2
ROMANC
 70
    64
 40
0.0
 41
1.0
 50
0.0
 71
     0
 42
0.2
  3
romanc.shx
  4

  0
ENDTAB
  0
TABLE
  2
DIMSTYLE
 70
     2
  0
DIMSTYLE
  2
UNNAMED
 70
     0
  3

  4

  5

  6

  7

 40
1.0
 41
0.18
 42
0.0625
 43
0.38
 44
0.18
 45
0.0
 46
0.0
 47
0.0
 48
0.0
140
0.18
141
0.09
142
0.0
143
25.4
144
1.0
145
0.0
146
1.0
147
0.09
 71
     0
 72
     0
 73
     1
 74
     1
 75
     0
 76
     0
 77
     0
 78
     0
170
     0
171
     2
172
     0
173
     0
174
     0
175
     0
176
     0
177
     0
178
     0
  0
DIMSTYLE
  2
STANDARD
 70
     0
  3

  4

  5

  6

  7

 40
1.0
 41
0.18
 42
0.0625
 43
0.38
 44
0.18
 45
0.0
 46
0.0
 47
0.0
 48
0.0
140
0.18
141
0.09
142
0.0
143
25.4
144
1.0
145
0.0
146
1.0
147
0.09
 71
     0
 72
     0
 73
     1
 74
     1
 75
     0
 76
     0
 77
     0
 78
     0
170
     0
171
     2
172
     0
173
     0
174
     0
175
     0
176
     0
177
     0
178
     0
  0
ENDTAB
  0
TABLE
  2
LAYER
 70
     2
  0
LAYER
  2
0
 70
     0
 62
     7
  6
CONTINUOUS
  0
LAYER
  2
255
 70
     0
 62
     7
  6
CONTINUOUS
  0
ENDTAB
  0
ENDSEC
  0
SECTION
  2
BLOCKS
  0
BLOCK
  5
     B
  8
0
  6
CONTINUOUS
 62
     7
  2
*UDIM406
 70
    65
 10
0.0
 20
0.0
 30
0.0
  3
*UDIM406
  0
TEXT
  5
     C
  8
0
  6
CONTINUOUS
 62
     7
 10
-663.127172894379
 20
-140.477204199493
 30
0.0
 40
3.00000002980232
  1
147
 50
359.999999844103
 41
0.933333333333333
 72
     1
 11
-659.227172851563
 21
-138.977204195184
 31
0.0
 73
     2
  0
TEXT
  5
     D
  8
0
  6
CONTINUOUS
 62
     7
 10
-663.777172856315
 20
-144.977204197728
 30
0.0
 40
3.5
  1
= =
 50
359.999999844103
 41
0.933333333333333
 72
     1
 11
-659.227172851563
 21
-143.227204210085
 31
0.0
 73
     2
  0
LINE
  5
     E
  8
0
  6
CONTINUOUS
 62
     7
 10
-677.602172851563
 20
-151.601608276367
 30
0.0
 11
-677.602172851563
 21
-139.477204210085
 31
0.0
  0
LINE
  5
     F
  8
0
  6
CONTINUOUS
 62
     7
 10
-640.852172851563
 20
-151.601608276367
 30
0.0
 11
-640.852172851563
 21
-139.477204210085
 31
0.0
  0
LINE
  5
    10
  8
0
  6
CONTINUOUS
 62
     7
 10
-677.602172851563
 20
-141.477204210085
 30
0.0
 11
-640.852172851563
 21
-141.477204210085
 31
0.0
  0
LINE
  5
    11
  8
0
  6
CONTINUOUS
 62
     7
 10
-674.704395378352
 20
-140.700747053667
 30
0.0
 11
-677.602172851563
 21
-141.477204210085
 31
0.0
  0
LINE
  5
    12
  8
0
  6
CONTINUOUS
 62
     7
 10
-677.602172851563
 20
-141.477204210085
 30
0.0
 11
-674.704395378352
 21
-142.253661366504
 31
0.0
  0
LINE
  5
    13
  8
0
  6
CONTINUOUS
 62
     7
 10
-643.749950324773
 20
-142.253661366504
 30
0.0
 11
-640.852172851563
 21
-141.477204210085
 31
0.0
  0
LINE
  5
    14
  8
0
  6
CONTINUOUS
 62
     7
 10
-640.852172851563
 20
-141.477204210085
 30
0.0
 11
-643.749950324773
 21
-140.700747053667
 31
0.0
  0
ENDBLK
  5
    15
  8
0
  6
CONTINUOUS
 62
     7
  0
BLOCK
  5
    16
  8
0
  6
CONTINUOUS
 62
     7
  2
*UDIM407
 70
    65
 10
0.0
 20
0.0
 30
0.0
  3
*UDIM407
  0
TEXT
  5
    17
  8
0
  6
CONTINUOUS
 62
     7
 10
-663.127172894379
 20
-195.870510187921
 30
0.0
 40
3.00000002980232
  1
115
 50
359.999999844103
 41
0.933333333333333
 72
     1
 11
-659.227172851563
 21
-194.370510183612
 31
0.0
 73
     2
  0
TEXT
  5
    18
  8
0
  6
CONTINUOUS
 62
     7
 10
-663.777172856315
 20
-200.370510186156
 30
0.0
 40
3.5
  1
= =
 50
359.999999844103
 41
0.933333333333333
 72
     1
 11
-659.227172851563
 21
-198.620510198513
 31
0.0
 73
     2
  0
LINE
  5
    19
  8
0
  6
CONTINUOUS
 62
     7
 10
-673.602172851563
 20
-186.976608276367
 30
0.0
 11
-673.602172851563
 21
-198.870510198513
 31
0.0
  0
LINE
  5
    1A
  8
0
  6
CONTINUOUS
 62
     7
 10
-644.852172851563
 20
-186.976608276367
 30
0.0
 11
-644.852172851563
 21
-198.870510198513
 31
0.0
  0
LINE
  5
    1B
  8
0
  6
CONTINUOUS
 62
     7
 10
-673.602172851563
 20
-196.870510198513
 30
0.0
 11
-644.852172851563
 21
-196.870510198513
 31
0.0
  0
LINE
  5
    1C
  8
0
  6
CONTINUOUS
 62
     7
 10
-670.704395378352
 20
-196.094053042095
 30
0.0
 11
-673.602172851563
 21
-196.870510198513
 31
0.0
  0
LINE
  5
    1D
  8
0
  6
CONTINUOUS
 62
     7
 10
-673.602172851563
 20
-196.870510198513
 30
0.0
 11
-670.704395378352
 21
-197.646967354932
 31
0.0
  0
LINE
  5
    1E
  8
0
  6
CONTINUOUS
 62
     7
 10
-647.749950324773
 20
-197.646967354932
 30
0.0
 11
-644.852172851563
 21
-196.870510198513
 31
0.0
  0
LINE
  5
    1F
  8
0
  6
CONTINUOUS
 62
     7
 10
-644.852172851563
 20
-196.870510198513
 30
0.0
 11
-647.749950324773
 21
-196.094053042095
 31
0.0
  0
ENDBLK
  5
    20
  8
0
  6
CONTINUOUS
 62
     7
  0
BLOCK
  5
    21
  8
0
  6
CONTINUOUS
 62
     7
  2
*UDIM408
 70
    65
 10
0.0
 20
0.0
 30
0.0
  3
*UDIM408
  0
TEXT
  5
    22
  8
0
  6
CONTINUOUS
 62
     7
 10
-687.454699339981
 20
-196.740975979043
 30
0.0
 40
3.00000002980232
  1
7
 50
404.893139787217
 41
0.933333333333334
 72
     1
 11
-687.734112689518
 21
-194.901974008179
 31
0.0
 73
     2
  0
TEXT
  5
    23
  8
0
  6
CONTINUOUS
 62
     7
 10
-689.686236040256
 20
-198.964204266447
 30
0.0
 40
3.00000002980232
  1
Ø
 50
404.893139787217
 41
0.933333333333334
 72
     1
 11
-689.965649389793
 21
-197.125202295582
 31
0.0
 73
     2
  0
LINE
  5
    24
  8
0
  6
CONTINUOUS
 62
     7
 10
-672.982301547886
 20
-183.734044865147
 30
0.0
 11
-688.980449279582
 21
-199.672628612748
 31
0.0
  0
LINE
  5
    25
  8
0
  6
CONTINUOUS
 62
     7
 10
-671.256991845898
 20
-181.279802327779
 30
0.0
 11
-672.982301547886
 21
-183.734044865147
 31
0.0
  0
LINE
  5
    26
  8
0
  6
CONTINUOUS
 62
     7
 10
-672.982301547886
 20
-183.734044865147
 30
0.0
 11
-670.521640487688
 21
-182.017901763064
 31
0.0
  0
LINE
  5
    27
  8
0
  6
CONTINUOUS
 62
     7
 10
-675.947353857227
 20
-187.423414224956
 30
0.0
 11
-674.22204415524
 21
-184.969171687587
 31
0.0
  0
LINE
  5
    28
  8
0
  6
CONTINUOUS
 62
     7
 10
-674.22204415524
 20
-184.969171687587
 30
0.0
 11
-676.682705215437
 21
-186.68531478967
 31
0.0
  0
ENDBLK
  5
    29
  8
0
  6
CONTINUOUS
 62
     7
  0
BLOCK
  5
    2A
  8
0
  6
CONTINUOUS
 62
     7
  2
*UDIM409
 70
    65
 10
0.0
 20
0.0
 30
0.0
  3
*UDIM409
  0
TEXT
  5
    2B
  8
0
  6
CONTINUOUS
 62
     7
 10
-689.20033074484
 20
-170.776608325143
 30
0.0
 40
3.00000002980232
  1
112
 50
449.999999844103
 41
0.933333333333333
 72
     1
 11
-690.700330749154
 21
-166.876608282328
 31
0.0
 73
     2
  0
LINE
  5
    2C
  8
0
  6
CONTINUOUS
 62
     7
 10
-678.602172851563
 20
-152.601608276367
 30
0.0
 11
-690.200330734253
 21
-152.601608276367
 31
0.0
  0
LINE
  5
    2D
  8
0
  6
CONTINUOUS
 62
     7
 10
-678.602172851563
 20
-180.601608276367
 30
0.0
 11
-690.200330734253
 21
-180.601608276367
 31
0.0
  0
LINE
  5
    2E
  8
0
  6
CONTINUOUS
 62
     7
 10
-688.200330734253
 20
-152.601608276367
 30
0.0
 11
-688.200330734253
 21
-180.601608276367
 31
0.0
  0
LINE
  5
    2F
  8
0
  6
CONTINUOUS
 62
     7
 10
-687.679386304301
 20
-155.556031553574
 30
0.0
 11
-688.200330734253
 21
-152.601608276367
 31
0.0
  0
LINE
  5
    30
  8
0
  6
CONTINUOUS
 62
     7
 10
-688.200330734253
 20
-152.601608276367
 30
0.0
 11
-688.721275164205
 21
-155.556031553574
 31
0.0
  0
LINE
  5
    31
  8
0
  6
CONTINUOUS
 62
     7
 10
-688.721275164205
 20
-177.64718499916
 30
0.0
 11
-688.200330734253
 21
-180.601608276367
 31
0.0
  0
LINE
  5
    32
  8
0
  6
CONTINUOUS
 62
     7
 10
-688.200330734253
 20
-180.601608276367
 30
0.0
 11
-687.679386304301
 21
-177.64718499916
 31
0.0
  0
ENDBLK
  5
    33
  8
0
  6
CONTINUOUS
 62
     7
  0
BLOCK
  5
    34
  8
0
  6
CONTINUOUS
 62
     7
  2
*UDIM410
 70
    65
 10
0.0
 20
0.0
 30
0.0
  3
*UDIM410
  0
TEXT
  5
    35
  8
0
  6
CONTINUOUS
 62
     7
 10
-698.213787089445
 20
-170.776608325143
 30
0.0
 40
3.00000002980232
  1
142
 50
449.999999844103
 41
0.933333333333333
 72
     1
 11
-699.713787093759
 21
-166.876608282328
 31
0.0
 73
     2
  0
LINE
  5
    36
  8
0
  6
CONTINUOUS
 62
     7
 10
-676.227172851563
 20
-148.851608276367
 30
0.0
 11
-699.213787078858
 21
-148.851608276367
 31
0.0
  0
LINE
  5
    37
  8
0
  6
CONTINUOUS
 62
     7
 10
-676.227172851563
 20
-184.351608276367
 30
0.0
 11
-699.213787078858
 21
-184.351608276367
 31
0.0
  0
LINE
  5
    38
  8
0
  6
CONTINUOUS
 62
     7
 10
-697.213787078858
 20
-148.851608276367
 30
0.0
 11
-697.213787078858
 21
-184.351608276367
 31
0.0
  0
LINE
  5
    39
  8
0
  6
CONTINUOUS
 62
     7
 10
-696.692842648906
 20
-151.806031553574
 30
0.0
 11
-697.213787078858
 21
-148.851608276367
 31
0.0
  0
LINE
  5
    3A
  8
0
  6
CONTINUOUS
 62
     7
 10
-697.213787078858
 20
-148.851608276367
 30
0.0
 11
-697.734731508809
 21
-151.806031553574
 31
0.0
  0
LINE
  5
    3B
  8
0
  6
CONTINUOUS
 62
     7
 10
-697.734731508809
 20
-181.39718499916
 30
0.0
 11
-697.213787078858
 21
-184.351608276367
 31
0.0
  0
LINE
  5
    3C
  8
0
  6
CONTINUOUS
 62
     7
 10
-697.213787078858
 20
-184.351608276367
 30
0.0
 11
-696.692842648906
 21
-181.39718499916
 31
0.0
  0
ENDBLK
  5
    3D
  8
0
  6
CONTINUOUS
 62
     7
  0
BLOCK
  5
    3E
  8
0
  6
CONTINUOUS
 62
     3
  2
*HATCH158
 70
    65
 10
0.0
 20
0.0
 30
0.0
  3
*HATCH158
  0
LINE
  5
    3F
  8
0
  6
CONTINUOUS
 62
   210
 10
15.7794380187988
 20
32.75
 30
0.0
 11
13.5
 21
30.4705600738525
 31
0.0
  0
LINE
  5
    40
  8
0
  6
CONTINUOUS
 62
   210
 10
22.2720794677734
 20
35.0
 30
0.0
 11
20.5
 21
33.2279205322266
 31
0.0
  0
LINE
  5
    41
  8
0
  6
CONTINUOUS
 62
   210
 10
24.3934001922607
 20
35.0
 30
0.0
 11
14.8934001922607
 21
25.5
 31
0.0
  0
LINE
  5
    42
  8
0
  6
CONTINUOUS
 62
   210
 10
28.6360416412354
 20
35.0
 30
0.0
 11
19.1360416412354
 21
25.5
 31
0.0
  0
LINE
  5
    43
  8
0
  6
CONTINUOUS
 62
   210
 10
32.8786811828613
 20
35.0
 30
0.0
 11
23.37868309021
 21
25.5
 31
0.0
  0
LINE
  5
    44
  8
0
  6
CONTINUOUS
 62
   210
 10
37.1213188171387
 20
35.0
 30
0.0
 11
27.6213245391846
 21
25.5
 31
0.0
  0
LINE
  5
    45
  8
0
  6
CONTINUOUS
 62
   210
 10
41.363956451416
 20
35.0
 30
0.0
 11
31.8639659881592
 21
25.5
 31
0.0
  0
LINE
  5
    46
  8
0
  6
CONTINUOUS
 62
   210
 10
44.0
 20
33.3933944702148
 30
0.0
 11
35.6674194335938
 21
25.0608177185059
 31
0.0
  0
LINE
  5
    47
  8
0
  6
CONTINUOUS
 62
   210
 10
44.0
 20
29.1507530212402
 30
0.0
 11
38.3571472167969
 21
23.5079040527344
 31
0.0
  0
LINE
  5
    48
  8
0
  6
CONTINUOUS
 62
   210
 10
44.0
 20
24.9081134796143
 30
0.0
 11
39.0
 21
19.9081134796143
 31
0.0
  0
LINE
  5
    49
  8
0
  6
CONTINUOUS
 62
   210
 10
44.0
 20
20.6654720306397
 30
0.0
 11
39.0
 21
15.6654720306396
 31
0.0
  0
LINE
  5
    4A
  8
0
  6
CONTINUOUS
 62
   210
 10
44.0
 20
16.422830581665
 30
0.0
 11
39.0
 21
11.422830581665
 31
0.0
  0
LINE
  5
    4B
  8
0
  6
CONTINUOUS
 62
   210
 10
44.0
 20
12.1801891326904
 30
0.0
 11
39.0
 21
7.18018960952759
 31
0.0
  0
LINE
  5
    4C
  8
0
  6
CONTINUOUS
 62
   210
 10
44.0
 20
7.93754816055298
 30
0.0
 11
39.0
 21
2.93754911422729
 31
0.0
  0
LINE
  5
    4D
  8
0
  6
CONTINUOUS
 62
   210
 10
44.0
 20
3.69491171836853
 30
0.0
 11
39.0
 21
-1.3050879240036
 31
0.0
  0
LINE
  5
    4E
  8
0
  6
CONTINUOUS
 62
   210
 10
44.0
 20
1.57359147071838
 30
0.0
 11
39.0
 21
-3.42640829086304
 31
0.0
  0
LINE
  5
    4F
  8
0
  6
CONTINUOUS
 62
   210
 10
44.0
 20
-0.547728776931763
 30
0.0
 11
39.0
 21
-5.54772853851318
 31
0.0
  0
LINE
  5
    50
  8
0
  6
CONTINUOUS
 62
   210
 10
44.0
 20
-2.66904902458191
 30
0.0
 11
39.0
 21
-7.66904878616333
 31
0.0
  0
LINE
  5
    51
  8
0
  6
CONTINUOUS
 62
   210
 10
44.0
 20
-4.79036951065063
 30
0.0
 11
39.0
 21
-9.79036903381348
 31
0.0
  0
LINE
  5
    52
  8
0
  6
CONTINUOUS
 62
   210
 10
44.0
 20
-6.91168975830078
 30
0.0
 11
39.0
 21
-11.9116897583008
 31
0.0
  0
LINE
  5
    53
  8
0
  6
CONTINUOUS
 62
   210
 10
44.0
 20
-9.03300952911377
 30
0.0
 11
39.0
 21
-14.0330095291138
 31
0.0
  0
LINE
  5
    54
  8
0
  6
CONTINUOUS
 62
   210
 10
44.0
 20
-11.1543292999268
 30
0.0
 11
39.0
 21
-16.1543292999268
 31
0.0
  0
LINE
  5
    55
  8
0
  6
CONTINUOUS
 62
   210
 10
44.0
 20
-13.2756500244141
 30
0.0
 11
39.0
 21
-18.2756500244141
 31
0.0
  0
LINE
  5
    56
  8
0
  6
CONTINUOUS
 62
   210
 10
44.0
 20
-15.3969707489014
 30
0.0
 11
39.0
 21
-20.3969707489014
 31
0.0
  0
LINE
  5
    57
  8
0
  6
CONTINUOUS
 62
   210
 10
44.0
 20
-17.5182914733887
 30
0.0
 11
39.0
 21
-22.5182914733887
 31
0.0
  0
LINE
  5
    58
  8
0
  6
CONTINUOUS
 62
   210
 10
44.0
 20
-19.6396102905273
 30
0.0
 11
28.6396102905273
 21
-35.0
 31
0.0
  0
LINE
  5
    59
  8
0
  6
CONTINUOUS
 62
   210
 10
44.0
 20
-23.882251739502
 30
0.0
 11
32.882251739502
 21
-35.0
 31
0.0
  0
LINE
  5
    5A
  8
0
  6
CONTINUOUS
 62
   210
 10
44.0
 20
-28.1248931884766
 30
0.0
 11
37.1248893737793
 21
-35.0
 31
0.0
  0
LINE
  5
    5B
  8
0
  6
CONTINUOUS
 62
   210
 10
44.0
 20
-32.3675346374512
 30
0.0
 11
41.3675270080566
 21
-35.0
 31
0.0
  0
ENDBLK
  5
    5C
  8
0
  6
CONTINUOUS
 62
     3
  0
BLOCK
  5
    5D
  8
0
  6
CONTINUOUS
 62
     7
  2
*UDIM411
 70
    65
 10
0.0
 20
0.0
 30
0.0
  3
*UDIM411
  0
TEXT
  5
    5E
  8
0
  6
CONTINUOUS
 62
     7
 10
-512.570585495037
 20
-174.488290642828
 30
0.0
 40
3.00000001532688
  1
22,5
 50
359.999999948034
 41
0.933333333333333
 72
     1
 11
-507.270585466607
 21
-172.988290639944
 31
0.0
 73
     2
  0
TEXT
  5
    5F
  8
0
  6
CONTINUOUS
 62
     7
 10
-500.170585422595
 20
-174.038290685772
 30
0.0
 40
2.10000009834763
  1
±0,1
 50
359.999999948034
 41
0.933333333333333
 72
     1
 11
-496.460585247901
 21
-172.988290639944
 31
0.0
 73
     2
  0
LINE
  5
    60
  8
0
  6
CONTINUOUS
 62
     7
 10
-518.666199446717
 20
-166.347768946084
 30
0.0
 11
-518.66620294391
 21
-177.488290647608
 31
0.0
  0
LINE
  5
    61
  8
0
  6
CONTINUOUS
 62
     7
 10
-526.541198642054
 20
-166.347768946084
 30
0.0
 11
-526.541202139247
 21
-177.488290647608
 31
0.0
  0
LINE
  5
    62
  8
0
  6
CONTINUOUS
 62
     7
 10
-492.750585074153
 20
-175.488290647608
 30
0.0
 11
-526.541201511414
 21
-175.488290647608
 31
0.0
  0
LINE
  5
    63
  8
0
  6
CONTINUOUS
 62
     7
 10
-515.71177903887
 20
-174.967346217656
 30
0.0
 11
-518.666202316077
 21
-175.488290647608
 31
0.0
  0
LINE
  5
    64
  8
0
  6
CONTINUOUS
 62
     7
 10
-518.666202316077
 20
-175.488290647608
 30
0.0
 11
-515.71177903887
 21
-176.00923507756
 31
0.0
  0
LINE
  5
    65
  8
0
  6
CONTINUOUS
 62
     7
 10
-529.495624788621
 20
-176.00923507756
 30
0.0
 11
-526.541201511414
 21
-175.488290647608
 31
0.0
  0
LINE
  5
    66
  8
0
  6
CONTINUOUS
 62
     7
 10
-526.541201511414
 20
-175.488290647608
 30
0.0
 11
-529.495624788621
 21
-174.967346217656
 31
0.0
  0
ENDBLK
  5
    67
  8
0
  6
CONTINUOUS
 62
     7
  0
BLOCK
  5
    68
  8
0
  6
CONTINUOUS
 62
     7
  2
*UDIM412
 70
    65
 10
0.0
 20
0.0
 30
0.0
  3
*UDIM412
  0
TEXT
  5
    69
  8
0
  6
CONTINUOUS
 62
     7
 10
-538.078697980633
 20
-150.482295062254
 30
0.0
 40
3.00000001532688
  1
6,5
 50
359.999999948034
 41
0.933333333333334
 72
     1
 11
-534.178697959355
 21
-148.982295058108
 31
0.0
 73
     2
  0
TEXT
  5
    6A
  8
0
  6
CONTINUOUS
 62
     7
 10
-541.228697979952
 20
-150.482295064779
 30
0.0
 40
3.00000001532688
  1
Ø
 50
359.999999948034
 41
0.933333333333333
 72
     1
 11
-540.128697972979
 21
-148.982295058108
 31
0.0
 73
     2
  0
LINE
  5
    6B
  8
0
  6
CONTINUOUS
 62
     7
 10
-525.403698444367
 20
-160.486714964507
 30
0.0
 11
-525.403698444367
 21
-149.482295065771
 31
0.0
  0
LINE
  5
    6C
  8
0
  6
CONTINUOUS
 62
     7
 10
-527.678698211908
 20
-160.486714964507
 30
0.0
 11
-527.678698211908
 21
-149.482295065771
 31
0.0
  0
LINE
  5
    6D
  8
0
  6
CONTINUOUS
 62
     7
 10
-525.403698444367
 20
-151.482295065771
 30
0.0
 11
-541.228697978599
 21
-151.482295065771
 31
0.0
  0
LINE
  5
    6E
  8
0
  6
CONTINUOUS
 62
     7
 10
-522.44927516716
 20
-150.961350635819
 30
0.0
 11
-525.403698444367
 21
-151.482295065771
 31
0.0
  0
LINE
  5
    6F
  8
0
  6
CONTINUOUS
 62
     7
 10
-525.403698444367
 20
-151.482295065771
 30
0.0
 11
-522.44927516716
 21
-152.003239495723
 31
0.0
  0
LINE
  5
    70
  8
0
  6
CONTINUOUS
 62
     7
 10
-530.633121489115
 20
-152.003239495723
 30
0.0
 11
-527.678698211908
 21
-151.482295065771
 31
0.0
  0
LINE
  5
    71
  8
0
  6
CONTINUOUS
 62
     7
 10
-527.678698211908
 20
-151.482295065771
 30
0.0
 11
-530.633121489115
 21
-150.961350635819
 31
0.0
  0
ENDBLK
  5
    72
  8
0
  6
CONTINUOUS
 62
     7
  0
BLOCK
  5
    73
  8
0
  6
CONTINUOUS
 62
     7
  2
*UDIM413
 70
    65
 10
0.0
 20
0.0
 30
0.0
  3
*UDIM413
  0
TEXT
  5
    74
  8
0
  6
CONTINUOUS
 62
     7
 10
-525.378697312806
 20
-181.141651858217
 30
0.0
 40
3.00000001532688
  1
40
 50
359.999999948034
 41
0.933333333333333
 72
     1
 11
-522.87869729868
 21
-179.641651852808
 31
0.0
 73
     2
  0
LINE
  5
    75
  8
0
  6
CONTINUOUS
 62
     7
 10
-515.603699445725
 20
-166.551614969969
 30
0.0
 11
-515.603699445725
 21
-184.141651860472
 31
0.0
  0
LINE
  5
    76
  8
0
  6
CONTINUOUS
 62
     7
 10
-529.603698015213
 20
-166.551614969969
 30
0.0
 11
-529.603698015213
 21
-184.141651860472
 31
0.0
  0
LINE
  5
    77
  8
0
  6
CONTINUOUS
 62
     7
 10
-515.603699445725
 20
-182.141651860472
 30
0.0
 11
-529.603698015213
 21
-182.141651860472
 31
0.0
  0
LINE
  5
    78
  8
0
  6
CONTINUOUS
 62
     7
 10
-512.649276168518
 20
-181.62070743052
 30
0.0
 11
-515.603699445725
 21
-182.141651860472
 31
0.0
  0
LINE
  5
    79
  8
0
  6
CONTINUOUS
 62
     7
 10
-515.603699445725
 20
-182.141651860472
 30
0.0
 11
-512.649276168518
 21
-182.662596290423
 31
0.0
  0
LINE
  5
    7A
  8
0
  6
CONTINUOUS
 62
     7
 10
-532.55812129242
 20
-182.662596290423
 30
0.0
 11
-529.603698015213
 21
-182.141651860472
 31
0.0
  0
LINE
  5
    7B
  8
0
  6
CONTINUOUS
 62
     7
 10
-529.603698015213
 20
-182.141651860472
 30
0.0
 11
-532.55812129242
 21
-181.62070743052
 31
0.0
  0
ENDBLK
  5
    7C
  8
0
  6
CONTINUOUS
 62
     7
  0
BLOCK
  5
    7D
  8
0
  6
CONTINUOUS
 62
     1
  2
*UDIM414
 70
    65
 10
0.0
 20
0.0
 30
0.0
  3
*UDIM414
  0
TEXT
  5
    7E
  8
0
  6
CONTINUOUS
 62
     1
 10
-526.297864740035
 20
-188.991755598792
 30
0.0
 40
2.00000015624928
  1
SEZ.A-A
 50
359.999999948034
 41
0.749999837428356
 72
     2
 11
-516.097866169679
 21
-186.991755451743
 31
0.0
 73
     3
  0
LINE
  5
    7F
  8
0
  6
CONTINUOUS
 62
     1
 10
-526.297865366965
 20
-189.991754002418
 30
0.0
 11
-516.097866798414
 21
-189.991757204366
 31
0.0
  0
ENDBLK
  5
    80
  8
0
  6
CONTINUOUS
 62
     1
  0
BLOCK
  5
    81
  8
0
  6
CONTINUOUS
 62
     7
  2
*UDIM415
 70
    65
 10
0.0
 20
0.0
 30
0.0
  3
*UDIM415
  0
TEXT
  5
    82
  8
0
  6
CONTINUOUS
 62
     7
 10
-540.975006428874
 20
-162.168363764742
 30
0.0
 40
3.00000001532688
  1
12
 50
89.9999999480344
 41
0.933333333333333
 72
     1
 11
-542.475006434273
 21
-159.668363750611
 31
0.0
 73
     2
  0
LINE
  5
    83
  8
0
  6
CONTINUOUS
 62
     7
 10
-531.25241613812
 20
-161.876615345478
 30
0.0
 11
-541.975006426609
 21
-161.876615345478
 31
0.0
  0
LINE
  5
    84
  8
0
  6
CONTINUOUS
 62
     7
 10
-531.701560874116
 20
-157.676615774632
 30
0.0
 11
-541.975006426609
 21
-157.676615774632
 31
0.0
  0
LINE
  5
    85
  8
0
  6
CONTINUOUS
 62
     7
 10
-539.975006426609
 20
-162.168363763384
 30
0.0
 11
-539.975006426609
 21
-157.168363737839
 31
0.0
  0
LINE
  5
    86
  8
0
  6
CONTINUOUS
 62
     7
 10
-539.454061996658
 20
-164.831038622685
 30
0.0
 11
-539.975006426609
 21
-161.876615345478
 31
0.0
  0
LINE
  5
    87
  8
0
  6
CONTINUOUS
 62
     7
 10
-539.975006426609
 20
-161.876615345478
 30
0.0
 11
-540.495950856561
 21
-164.831038622685
 31
0.0
  0
LINE
  5
    88
  8
0
  6
CONTINUOUS
 62
     7
 10
-540.495950856561
 20
-154.722192497425
 30
0.0
 11
-539.975006426609
 21
-157.676615774632
 31
0.0
  0
LINE
  5
    89
  8
0
  6
CONTINUOUS
 62
     7
 10
-539.975006426609
 20
-157.676615774632
 30
0.0
 11
-539.454061996658
 21
-154.722192497425
 31
0.0
  0
ENDBLK
  5
    8A
  8
0
  6
CONTINUOUS
 62
     7
  0
BLOCK
  5
    8B
  8
0
  6
CONTINUOUS
 62
     7
  2
$6MOSTRINA
 70
    64
 10
0.0
 20
0.0
 30
0.0
  3
$6MOSTRINA
  0
LINE
  5
    8C
  8
0
  6
CONTINUOUS
 62
     1
 10
208.338256835938
 20
30.7306251525879
 30
0.0
 11
208.338256835938
 21
189.230621337891
 31
0.0
  0
LINE
  5
    8D
  8
0
  6
CONTINUOUS
 62
     1
 10
57.5882568359375
 20
29.4806251525879
 30
0.0
 11
207.088256835938
 21
29.4806251525879
 31
0.0
  0
LINE
  5
    8E
  8
0
  6
CONTINUOUS
 62
     1
 10
56.3382568359375
 20
30.7306251525879
 30
0.0
 11
56.3382568359375
 21
189.230621337891
 31
0.0
  0
LINE
  5
    8F
  8
0
  6
CONTINUOUS
 62
     1
 10
57.5882568359375
 20
190.480621337891
 30
0.0
 11
207.088256835938
 21
190.480621337891
 31
0.0
  0
LINE
  5
    90
  8
0
  6
CONTINUOUS
 62
     1
 10
202.838256835938
 20
56.9806251525879
 30
0.0
 11
202.838256835938
 21
162.980625152588
 31
0.0
  0
LINE
  5
    91
  8
0
  6
CONTINUOUS
 62
     1
 10
61.8382568359375
 20
56.9806251525879
 30
0.0
 11
202.838256835938
 21
56.9806251525879
 31
0.0
  0
LINE
  5
    92
  8
0
  6
CONTINUOUS
 62
     1
 10
61.8382568359375
 20
56.9806251525879
 30
0.0
 11
61.8382568359375
 21
162.980625152588
 31
0.0
  0
LINE
  5
    93
  8
0
  6
CONTINUOUS
 62
     1
 10
61.8382568359375
 20
162.980621337891
 30
0.0
 11
202.838256835938
 21
162.980621337891
 31
0.0
  0
LINE
  5
    94
  8
0
  6
CONTINUOUS
 62
     1
 10
203.838256835938
 20
48.4806251525879
 30
0.0
 11
203.838256835938
 21
49.4806251525879
 31
0.0
  0
LINE
  5
    95
  8
0
  6
CONTINUOUS
 62
     1
 10
61.8382568359375
 20
50.4806251525879
 30
0.0
 11
202.838256835938
 21
50.4806251525879
 31
0.0
  0
LINE
  5
    96
  8
0
  6
CONTINUOUS
 62
     1
 10
60.8382568359375
 20
48.4806251525879
 30
0.0
 11
60.8382568359375
 21
49.4806251525879
 31
0.0
  0
LINE
  5
    97
  8
0
  6
CONTINUOUS
 62
     1
 10
61.8382568359375
 20
49.4806251525879
 30
0.0
 11
202.838256835938
 21
49.4806251525879
 31
0.0
  0
LINE
  5
    98
  8
0
  6
CONTINUOUS
 62
     1
 10
60.8382568359375
 20
29.4806251525879
 30
0.0
 11
60.8382568359375
 21
48.4806251525879
 31
0.0
  0
LINE
  5
    99
  8
0
  6
CONTINUOUS
 62
     1
 10
60.8382568359375
 20
49.4806213378906
 30
0.0
 11
60.8382568359375
 21
190.480621337891
 31
0.0
  0
LINE
  5
    9A
  8
0
  6
CONTINUOUS
 62
     1
 10
61.8382568359375
 20
29.4806251525879
 30
0.0
 11
61.8382568359375
 21
49.4806251525879
 31
0.0
  0
LINE
  5
    9B
  8
0
  6
CONTINUOUS
 62
     1
 10
61.8382568359375
 20
162.980621337891
 30
0.0
 11
61.8382568359375
 21
169.480621337891
 31
0.0
  0
LINE
  5
    9C
  8
0
  6
CONTINUOUS
 62
     1
 10
61.8382568359375
 20
50.4806251525879
 30
0.0
 11
61.8382568359375
 21
56.9806251525879
 31
0.0
  0
LINE
  5
    9D
  8
0
  6
CONTINUOUS
 62
     1
 10
203.838256835938
 20
29.4806251525879
 30
0.0
 11
203.838256835938
 21
48.4806251525879
 31
0.0
  0
LINE
  5
    9E
  8
0
  6
CONTINUOUS
 62
     1
 10
203.838256835938
 20
49.4806251525879
 30
0.0
 11
203.838256835938
 21
190.480621337891
 31
0.0
  0
LINE
  5
    9F
  8
0
  6
CONTINUOUS
 62
     1
 10
202.838256835938
 20
50.4806251525879
 30
0.0
 11
202.838256835938
 21
56.9806251525879
 31
0.0
  0
LINE
  5
    A0
  8
0
  6
CONTINUOUS
 62
     1
 10
202.838256835938
 20
162.980621337891
 30
0.0
 11
202.838256835938
 21
169.480621337891
 31
0.0
  0
LINE
  5
    A1
  8
0
  6
CONTINUOUS
 62
     1
 10
202.838256835938
 20
29.4806251525879
 30
0.0
 11
202.838256835938
 21
49.4806251525879
 31
0.0
  0
LINE
  5
    A2
  8
0
  6
CONTINUOUS
 62
     1
 10
60.8382568359375
 20
170.480621337891
 30
0.0
 11
203.838256835938
 21
170.480621337891
 31
0.0
  0
LINE
  5
    A3
  8
0
  6
CONTINUOUS
 62
     1
 10
61.8382568359375
 20
169.480621337891
 30
0.0
 11
202.838256835938
 21
169.480621337891
 31
0.0
  0
ARC
  5
    A4
  8
0
  6
CONTINUOUS
 62
     1
 10
57.5882568359375
 20
30.7306251525879
 30
0.0
 40
1.25
 50
180.0
 51
270.0
  0
ARC
  5
    A5
  8
0
  6
CONTINUOUS
 62
     1
 10
207.088256835938
 20
30.7306251525879
 30
0.0
 40
1.25
 50
270.0
 51
360.0
  0
ARC
  5
    A6
  8
0
  6
CONTINUOUS
 62
     1
 10
207.088256835938
 20
189.230621337891
 30
0.0
 40
1.25
 50
0.0
 51
90.0
  0
ARC
  5
    A7
  8
0
  6
CONTINUOUS
 62
     1
 10
57.5882568359375
 20
189.230621337891
 30
0.0
 40
1.25
 50
90.0
 51
180.0
  0
LINE
  5
    A8
  8
0
  6
DOT
 62
     1
 10
60.3382577409677
 20
179.7306252571
 30
0.0
 11
60.8382568359375
 21
179.7306252571
 31
0.0
  0
LINE
  5
    A9
  8
0
  6
DOT
 62
     1
 10
60.3382577409676
 20
181.2306252571
 30
0.0
 11
60.8382568359375
 21
181.2306252571
 31
0.0
  0
LINE
  5
    AA
  8
0
  6
CONTINUOUS
 62
     1
 10
203.338257745313
 20
179.730625257273
 30
0.0
 11
203.838256835938
 21
179.730625257273
 31
0.0
  0
LINE
  5
    AB
  8
0
  6
CONTINUOUS
 62
     1
 10
203.338257745314
 20
181.230625257273
 30
0.0
 11
203.838256835938
 21
181.230625257273
 31
0.0
  0
ARC
  5
    AC
  8
0
  6
DOT
 62
     1
 10
60.3382577401871
 20
180.480625257147
 30
0.0
 40
0.749999999345164
 50
90.0
 51
270.0
  0
ARC
  5
    AD
  8
0
  6
CONTINUOUS
 62
     1
 10
61.338257740822
 20
180.480625256974
 30
0.0
 40
0.750000000009701
 50
270.0
 51
450.0
  0
LINE
  5
    AE
  8
0
  6
CONTINUOUS
 62
     1
 10
60.8382568359375
 20
181.2306252571
 30
0.0
 11
61.3382577409688
 21
181.2306252571
 31
0.0
  0
LINE
  5
    AF
  8
0
  6
CONTINUOUS
 62
     1
 10
60.8382568359375
 20
179.7306252571
 30
0.0
 11
61.3382577409689
 21
179.7306252571
 31
0.0
  0
ARC
  5
    B0
  8
0
  6
CONTINUOUS
 62
     1
 10
203.338257745503
 20
180.480625256952
 30
0.0
 40
0.750000000048506
 50
90.0000000038822
 51
269.999999996024
  0
LINE
  5
    B1
  8
0
  6
DOT
 62
     1
 10
203.838256835938
 20
181.230625257273
 30
0.0
 11
204.338257745315
 21
181.230625257273
 31
0.0
  0
LINE
  5
    B2
  8
0
  6
DOT
 62
     1
 10
203.838256835938
 20
179.730625257273
 30
0.0
 11
204.338257745315
 21
179.730625257273
 31
0.0
  0
ENDBLK
  5
    B3
  8
0
  6
CONTINUOUS
 62
     7
  0
BLOCK
  5
    B4
  8
0
  6
CONTINUOUS
 62
     7
  2
*UDIM416
 70
    65
 10
0.0
 20
0.0
 30
0.0
  3
*UDIM416
  0
TEXT
  5
    B5
  8
0
  6
CONTINUOUS
 62
     7
 10
-707.18257442913
 20
-9.48541830949418
 30
0.0
 40
2.4999999335834
  1
406
 50
89.9999999480344
 41
0.933333333333333
 72
     1
 11
-708.432574392978
 21
-6.23541839470362
 31
0.0
 73
     2
  0
LINE
  5
    B6
  8
0
  6
CONTINUOUS
 62
     7
 10
-695.577304929119
 20
-77.0562566338508
 30
0.0
 11
-708.182574426186
 21
-77.0562566338508
 31
0.0
  0
LINE
  5
    B7
  8
0
  6
CONTINUOUS
 62
     7
 10
-695.752289951167
 20
65.0437464565018
 30
0.0
 11
-708.182574426186
 21
65.0437464565018
 31
0.0
  0
LINE
  5
    B8
  8
0
  6
CONTINUOUS
 62
     7
 10
-706.182574426186
 20
-77.0562566338508
 30
0.0
 11
-706.182574426186
 21
65.0437464565018
 31
0.0
  0
LINE
  5
    B9
  8
0
  6
CONTINUOUS
 62
     7
 10
-706.703518944187
 20
-74.1018333721692
 30
0.0
 11
-706.182574426186
 21
-77.0562566338508
 31
0.0
  0
LINE
  5
    BA
  8
0
  6
CONTINUOUS
 62
     7
 10
-706.182574426186
 20
-77.0562566338508
 30
0.0
 11
-705.661629908186
 21
-74.1018333721692
 31
0.0
  0
LINE
  5
    BB
  8
0
  6
CONTINUOUS
 62
     7
 10
-705.406117269768
 20
62.1459689832913
 30
0.0
 11
-706.182574426186
 21
65.0437464565018
 31
0.0
  0
LINE
  5
    BC
  8
0
  6
CONTINUOUS
 62
     7
 10
-706.182574426186
 20
65.0437464565018
 30
0.0
 11
-706.959031582605
 21
62.1459689832913
 31
0.0
  0
ENDBLK
  5
    BD
  8
0
  6
CONTINUOUS
 62
     7
  0
BLOCK
  5
    BE
  8
0
  6
CONTINUOUS
 62
     7
  2
PIA_DIA______
 70
    64
 10
0.0
 20
0.0
 30
0.0
  3
PIA_DIA______
  0
LINE
  5
    BF
  8
0
  6
CONTINUOUS
 62
    90
 10
-72.7500635906193
 20
202.000276184082
 30
0.0
 11
-6.74977987067851
 21
202.000276184082
 31
0.0
  0
LINE
  5
    C0
  8
0
  6
CONTINUOUS
 62
    90
 10
-74.750063697075
 20
200.000274043073
 30
0.0
 11
-74.7499923706483
 21
132.999938960788
 31
0.0
  0
LINE
  5
    C1
  8
0
  6
CONTINUOUS
 62
    90
 10
134.25
 20
133.0
 30
0.0
 11
134.25
 21
200.000276184082
 31
0.0
  0
ARC
  5
    C2
  8
0
  6
CONTINUOUS
 62
    90
 10
132.25
 20
200.000276184082
 30
0.0
 40
2.0
 50
0.0
 51
90.0
  0
ARC
  5
    C3
  8
0
  6
CONTINUOUS
 62
    90
 10
-72.7500635906193
 20
200.000276184082
 30
0.0
 40
2.0
 50
90.0
 51
180.000060995265
  0
LINE
  5
    C4
  8
0
  6
CONTINUOUS
 62
    90
 10
66.2501896117433
 20
202.000276184082
 30
0.0
 11
132.25
 21
202.000276184082
 31
0.0
  0
LINE
  5
    C5
  8
0
  6
CONTINUOUS
 62
    90
 10
-3.74977987067851
 20
202.000276184082
 30
0.0
 11
63.2501896117433
 21
202.000276184082
 31
0.0
  0
LINE
  5
    C6
  8
0
  6
CONTINUOUS
 62
     7
 10
66.2501896117433
 20
138.000030517578
 30
0.0
 11
66.2501896117433
 21
229.599510162926
 31
0.0
  0
LINE
  5
    C7
  8
0
  6
CONTINUOUS
 62
     7
 10
63.2501896117433
 20
138.000030517578
 30
0.0
 11
63.2501896117433
 21
229.599510162926
 31
0.0
  0
LINE
  5
    C8
  8
0
  6
CONTINUOUS
 62
     7
 10
-3.74977987067851
 20
138.000030517578
 30
0.0
 11
-3.74977987067851
 21
229.499510162926
 31
0.0
  0
LINE
  5
    C9
  8
0
  6
CONTINUOUS
 62
     7
 10
-6.74977987067851
 20
138.000030517578
 30
0.0
 11
-6.74977987067851
 21
229.499510162926
 31
0.0
  0
LINE
  5
    CA
  8
0
  6
CONTINUOUS
 62
     7
 10
63.2501896117433
 20
229.599510162926
 30
0.0
 11
66.2501896117433
 21
229.599510162926
 31
0.0
  0
LINE
  5
    CB
  8
0
  6
CONTINUOUS
 62
     7
 10
-6.74977987067852
 20
229.499510162926
 30
0.0
 11
-3.74977987067852
 21
229.499510162926
 31
0.0
  0
LINE
  5
    CC
  8
0
  6
CONTINUOUS
 62
     7
 10
-9.24977987067851
 20
136.000030517578
 30
0.0
 11
-9.24977987067851
 21
138.000030517578
 31
0.0
  0
LINE
  5
    CD
  8
0
  6
CONTINUOUS
 62
     7
 10
-9.24977987067849
 20
138.000030517578
 30
0.0
 11
-6.74977987067849
 21
138.000030517578
 31
0.0
  0
LINE
  5
    CE
  8
0
  6
CONTINUOUS
 62
     7
 10
-3.74977987067849
 20
138.000030517578
 30
0.0
 11
-1.24977987067849
 21
138.000030517578
 31
0.0
  0
LINE
  5
    CF
  8
0
  6
CONTINUOUS
 62
     7
 10
-1.24977987067851
 20
136.000030517578
 30
0.0
 11
-1.24977987067851
 21
138.000030517578
 31
0.0
  0
LINE
  5
    D0
  8
0
  6
CONTINUOUS
 62
     7
 10
-3.74977987067849
 20
136.000030517578
 30
0.0
 11
-1.24977987067849
 21
136.000030517578
 31
0.0
  0
LINE
  5
    D1
  8
0
  6
CONTINUOUS
 62
     7
 10
-3.74977987067849
 20
133.000030517578
 30
0.0
 11
-2.24977987067849
 21
133.000030517578
 31
0.0
  0
LINE
  5
    D2
  8
0
  6
CONTINUOUS
 62
     7
 10
-2.24977987067851
 20
129.399047851563
 30
0.0
 11
-2.24977987067851
 21
133.000030517578
 31
0.0
  0
LINE
  5
    D3
  8
0
  6
CONTINUOUS
 62
     7
 10
-8.24977987067851
 20
129.399047851563
 30
0.0
 11
-8.24977987067851
 21
133.000030517578
 31
0.0
  0
LINE
  5
    D4
  8
0
  6
CONTINUOUS
 62
     7
 10
-8.24977987067849
 20
133.000030517578
 30
0.0
 11
-6.74977987067849
 21
133.000030517578
 31
0.0
  0
LINE
  5
    D5
  8
0
  6
CONTINUOUS
 62
     7
 10
-9.24977987067849
 20
136.000030517578
 30
0.0
 11
-6.74977987067849
 21
136.000030517578
 31
0.0
  0
LINE
  5
    D6
  8
0
  6
CONTINUOUS
 62
     7
 10
-8.24977987067849
 20
129.399047851563
 30
0.0
 11
-2.24977987067849
 21
129.399047851563
 31
0.0
  0
LINE
  5
    D7
  8
0
  6
CONTINUOUS
 62
     7
 10
-6.74977987067851
 20
133.000030517578
 30
0.0
 11
-6.74977987067851
 21
136.000030517578
 31
0.0
  0
LINE
  5
    D8
  8
0
  6
CONTINUOUS
 62
     7
 10
-3.74977987067851
 20
133.000030517578
 30
0.0
 11
-3.74977987067851
 21
136.000030517578
 31
0.0
  0
POINT
  5
    D9
  8
0
  6
CONTINUOUS
 62
     7
 10
-5.24977987067851
 20
136.000030517578
 30
0.0
  0
LINE
  5
    DA
  8
0
  6
CONTINUOUS
 62
     7
 10
66.2501896117434
 20
138.000030517578
 30
0.0
 11
68.7501896117434
 21
138.000030517578
 31
0.0
  0
LINE
  5
    DB
  8
0
  6
CONTINUOUS
 62
     7
 10
68.7501896117433
 20
136.000030517578
 30
0.0
 11
68.7501896117433
 21
138.000030517578
 31
0.0
  0
LINE
  5
    DC
  8
0
  6
CONTINUOUS
 62
     7
 10
66.2501896117434
 20
136.000030517578
 30
0.0
 11
68.7501896117434
 21
136.000030517578
 31
0.0
  0
LINE
  5
    DD
  8
0
  6
CONTINUOUS
 62
     7
 10
66.2501896117434
 20
133.000030517578
 30
0.0
 11
67.7501896117434
 21
133.000030517578
 31
0.0
  0
LINE
  5
    DE
  8
0
  6
CONTINUOUS
 62
     7
 10
67.7501896117433
 20
129.399047851563
 30
0.0
 11
67.7501896117433
 21
133.000030517578
 31
0.0
  0
LINE
  5
    DF
  8
0
  6
CONTINUOUS
 62
     7
 10
61.7501896117433
 20
129.399047851563
 30
0.0
 11
61.7501896117433
 21
133.000030517578
 31
0.0
  0
LINE
  5
    E0
  8
0
  6
CONTINUOUS
 62
     7
 10
61.7501896117434
 20
133.000030517578
 30
0.0
 11
63.2501896117434
 21
133.000030517578
 31
0.0
  0
LINE
  5
    E1
  8
0
  6
CONTINUOUS
 62
     7
 10
60.7501896117434
 20
136.000030517578
 30
0.0
 11
63.2501896117434
 21
136.000030517578
 31
0.0
  0
LINE
  5
    E2
  8
0
  6
CONTINUOUS
 62
     7
 10
60.7501896117433
 20
136.000030517578
 30
0.0
 11
60.7501896117433
 21
138.000030517578
 31
0.0
  0
LINE
  5
    E3
  8
0
  6
CONTINUOUS
 62
     7
 10
60.7501896117434
 20
138.000030517578
 30
0.0
 11
63.2501896117434
 21
138.000030517578
 31
0.0
  0
LINE
  5
    E4
  8
0
  6
CONTINUOUS
 62
     7
 10
61.7501896117434
 20
129.399047851563
 30
0.0
 11
67.7501896117434
 21
129.399047851563
 31
0.0
  0
LINE
  5
    E5
  8
0
  6
CONTINUOUS
 62
     7
 10
63.2501896117433
 20
133.000030517578
 30
0.0
 11
63.2501896117433
 21
136.000030517578
 31
0.0
  0
LINE
  5
    E6
  8
0
  6
CONTINUOUS
 62
     7
 10
66.2501896117433
 20
133.000030517578
 30
0.0
 11
66.2501896117433
 21
136.000030517578
 31
0.0
  0
ENDBLK
  5
    E7
  8
0
  6
CONTINUOUS
 62
     7
  0
BLOCK
  5
    E8
  8
0
  6
CONTINUOUS
 62
     7
  2
*UDIM417
 70
    65
 10
0.0
 20
0.0
 30
0.0
  3
*UDIM417
  0
TEXT
  5
    E9
  8
0
  6
CONTINUOUS
 62
     7
 10
-663.402286426967
 20
101.771620516919
 30
0.0
 40
2.99999997871263
  1
210
 50
359.999999948034
 41
0.933333333333333
 72
     1
 11
-659.502286453288
 21
103.271620502758
 31
0.0
 73
     2
  0
LINE
  5
    EA
  8
0
  6
CONTINUOUS
 62
     7
 10
-622.477287757352
 20
64.9937411338092
 30
0.0
 11
-622.477287757352
 21
102.771620513401
 31
0.0
  0
LINE
  5
    EB
  8
0
  6
CONTINUOUS
 62
     7
 10
-695.977286505655
 20
64.9937411338092
 30
0.0
 11
-695.977286505655
 21
102.771620513401
 31
0.0
  0
LINE
  5
    EC
  8
0
  6
CONTINUOUS
 62
     7
 10
-622.477287757352
 20
100.771620513401
 30
0.0
 11
-695.977286505655
 21
100.771620513401
 31
0.0
  0
LINE
  5
    ED
  8
0
  6
CONTINUOUS
 62
     7
 10
-625.431711034559
 20
100.25067608345
 30
0.0
 11
-622.477287757352
 21
100.771620513401
 31
0.0
  0
LINE
  5
    EE
  8
0
  6
CONTINUOUS
 62
     7
 10
-622.477287757352
 20
100.771620513401
 30
0.0
 11
-625.431711034559
 21
101.292564943353
 31
0.0
  0
LINE
  5
    EF
  8
0
  6
CONTINUOUS
 62
     7
 10
-693.022863228448
 20
101.292564943353
 30
0.0
 11
-695.977286505655
 21
100.771620513401
 31
0.0
  0
LINE
  5
    F0
  8
0
  6
CONTINUOUS
 62
     7
 10
-695.977286505655
 20
100.771620513401
 30
0.0
 11
-693.022863228448
 21
100.25067608345
 31
0.0
  0
ENDBLK
  5
    F1
  8
0
  6
CONTINUOUS
 62
     7
  0
BLOCK
  5
    F2
  8
0
  6
CONTINUOUS
 62
     7
  2
*UDIM418
 70
    65
 10
0.0
 20
0.0
 30
0.0
  3
*UDIM418
  0
TEXT
  5
    F3
  8
0
  6
CONTINUOUS
 62
     7
 10
-649.752295249492
 20
-118.002906888979
 30
0.0
 40
2.99999997871263
  1
70
 50
359.999999948034
 41
0.933333333333333
 72
     1
 11
-647.252295265879
 21
-116.502906901877
 31
0.0
 73
     2
  0
LINE
  5
    F4
  8
0
  6
CONTINUOUS
 62
     7
 10
-634.727295339108
 20
-97.329804146309
 30
0.0
 11
-634.727295339108
 21
-121.002906891233
 31
0.0
  0
LINE
  5
    F5
  8
0
  6
CONTINUOUS
 62
     7
 10
-659.227294921875
 20
-105.54490926729
 30
0.0
 11
-659.227294921875
 21
-121.002906891233
 31
0.0
  0
LINE
  5
    F6
  8
0
  6
CONTINUOUS
 62
     7
 10
-634.727295339108
 20
-119.002906891233
 30
0.0
 11
-659.227294921875
 21
-119.002906891233
 31
0.0
  0
LINE
  5
    F7
  8
0
  6
CONTINUOUS
 62
     7
 10
-637.681718616315
 20
-119.523851321185
 30
0.0
 11
-634.727295339108
 21
-119.002906891233
 31
0.0
  0
LINE
  5
    F8
  8
0
  6
CONTINUOUS
 62
     7
 10
-634.727295339108
 20
-119.002906891233
 30
0.0
 11
-637.681718616315
 21
-118.481962461282
 31
0.0
  0
LINE
  5
    F9
  8
0
  6
CONTINUOUS
 62
     7
 10
-656.272871644668
 20
-118.481962461282
 30
0.0
 11
-659.227294921875
 21
-119.002906891233
 31
0.0
  0
LINE
  5
    FA
  8
0
  6
CONTINUOUS
 62
     7
 10
-659.227294921875
 20
-119.002906891233
 30
0.0
 11
-656.272871644668
 21
-119.523851321185
 31
0.0
  0
ENDBLK
  5
    FB
  8
0
  6
CONTINUOUS
 62
     7
  0
BLOCK
  5
    FC
  8
0
  6
CONTINUOUS
 62
     7
  2
*UDIM419
 70
    65
 10
0.0
 20
0.0
 30
0.0
  3
*UDIM419
  0
TEXT
  5
    FD
  8
0
  6
CONTINUOUS
 62
     7
 10
-674.252293497116
 20
-118.002906888979
 30
0.0
 40
2.99999997871263
  1
70
 50
359.999999948034
 41
0.933333333333333
 72
     1
 11
-671.752293513502
 21
-116.502906901877
 31
0.0
 73
     2
  0
LINE
  5
    FE
  8
0
  6
CONTINUOUS
 62
     7
 10
-683.727294504643
 20
-96.7018637573045
 30
0.0
 11
-683.727294504643
 21
-121.002906891233
 31
0.0
  0
LINE
  5
    FF
  8
0
  6
CONTINUOUS
 62
     7
 10
-659.227294921875
 20
-119.002906891233
 30
0.0
 11
-683.727294504643
 21
-119.002906891233
 31
0.0
  0
LINE
  5
   100
  8
0
  6
CONTINUOUS
 62
     7
 10
-662.181718199082
 20
-119.523851321185
 30
0.0
 11
-659.227294921875
 21
-119.002906891233
 31
0.0
  0
LINE
  5
   101
  8
0
  6
CONTINUOUS
 62
     7
 10
-659.227294921875
 20
-119.002906891233
 30
0.0
 11
-662.181718199082
 21
-118.481962461282
 31
0.0
  0
LINE
  5
   102
  8
0
  6
CONTINUOUS
 62
     7
 10
-680.772871227436
 20
-118.481962461282
 30
0.0
 11
-683.727294504643
 21
-119.002906891233
 31
0.0
  0
LINE
  5
   103
  8
0
  6
CONTINUOUS
 62
     7
 10
-683.727294504643
 20
-119.002906891233
 30
0.0
 11
-680.772871227436
 21
-119.523851321185
 31
0.0
  0
ENDBLK
  5
   104
  8
0
  6
CONTINUOUS
 62
     7
  0
BLOCK
  5
   105
  8
0
  6
CONTINUOUS
 62
     7
  2
*UDIM420
 70
    65
 10
0.0
 20
0.0
 30
0.0
  3
*UDIM420
  0
TEXT
  5
   106
  8
0
  6
CONTINUOUS
 62
     7
 10
-615.467536929117
 20
-31.2687621833408
 30
0.0
 40
2.99999997871263
  1
161
 50
89.9999999480344
 41
0.933333333333333
 72
     1
 11
-616.967536914941
 21
-27.3687622096558
 31
0.0
 73
     2
  0
TEXT
  5
   107
  8
0
  6
CONTINUOUS
 62
     7
 10
-610.967536905863
 20
-31.9187622422352
 30
0.0
 40
3.50000002384186
  1
= =
 50
89.9999999480344
 41
0.933333333333333
 72
     1
 11
-612.717536913663
 21
-27.3687622096558
 31
0.0
 73
     2
  0
LINE
  5
   108
  8
0
  6
CONTINUOUS
 62
     7
 10
-632.06479536742
 20
-55.2687616778972
 30
0.0
 11
-612.467536925584
 21
-55.2687616778972
 31
0.0
  0
LINE
  5
   109
  8
0
  6
CONTINUOUS
 62
     7
 10
-632.06479536742
 20
1.08123602732398
 30
0.0
 11
-612.467536925584
 21
1.08123602732398
 31
0.0
  0
LINE
  5
   10A
  8
0
  6
CONTINUOUS
 62
     7
 10
-614.467536925584
 20
-55.2687616778972
 30
0.0
 11
-614.467536925584
 21
1.08123602732398
 31
0.0
  0
LINE
  5
   10B
  8
0
  6
CONTINUOUS
 62
     7
 10
-614.988481355536
 20
-52.3143384006903
 30
0.0
 11
-614.467536925584
 21
-55.2687616778972
 31
0.0
  0
LINE
  5
   10C
  8
0
  6
CONTINUOUS
 62
     7
 10
-614.467536925584
 20
-55.2687616778972
 30
0.0
 11
-613.946592495633
 21
-52.3143384006903
 31
0.0
  0
LINE
  5
   10D
  8
0
  6
CONTINUOUS
 62
     7
 10
-613.946592495633
 20
-1.87318724988298
 30
0.0
 11
-614.467536925584
 21
1.08123602732398
 31
0.0
  0
LINE
  5
   10E
  8
0
  6
CONTINUOUS
 62
     7
 10
-614.467536925584
 20
1.08123602732398
 30
0.0
 11
-614.988481355536
 21
-1.87318724988298
 31
0.0
  0
ENDBLK
  5
   10F
  8
0
  6
CONTINUOUS
 62
     7
  0
BLOCK
  5
   110
  8
0
  6
CONTINUOUS
 62
     7
  2
*UDIM421
 70
    65
 10
0.0
 20
0.0
 30
0.0
  3
*UDIM421
  0
TEXT
  5
   111
  8
0
  6
CONTINUOUS
 62
     7
 10
-701.191349758813
 20
74.093820292764
 30
0.0
 40
2.99999997871263
  1
66
 50
89.9999999480344
 41
0.933333333333333
 72
     1
 11
-702.691349745905
 21
76.593820276383
 31
0.0
 73
     2
  0
LINE
  5
   112
  8
0
  6
CONTINUOUS
 62
     7
 10
-673.264810649674
 20
65.04374752107
 30
0.0
 11
-702.191362052356
 21
65.0437783153571
 31
0.0
  0
LINE
  5
   113
  8
0
  6
CONTINUOUS
 62
     7
 10
-696.277285726581
 20
88.1438548769294
 30
0.0
 11
-702.191337460742
 21
88.1438611728409
 31
0.0
  0
LINE
  5
   114
  8
0
  6
CONTINUOUS
 62
     7
 10
-700.191362052357
 20
65.0437761862206
 30
0.0
 11
-700.191337460743
 21
88.1438590437044
 31
0.0
  0
LINE
  5
   115
  8
0
  6
CONTINUOUS
 62
     7
 10
-700.967816123893
 20
67.9415544860211
 30
0.0
 11
-700.191362052357
 21
65.0437761862206
 31
0.0
  0
LINE
  5
   116
  8
0
  6
CONTINUOUS
 62
     7
 10
-700.191362052357
 20
65.0437761862206
 30
0.0
 11
-699.414901811057
 21
67.9415528328379
 31
0.0
  0
LINE
  5
   117
  8
0
  6
CONTINUOUS
 62
     7
 10
-699.414883389207
 20
85.2460807439039
 30
0.0
 11
-700.191337460743
 21
88.1438590437044
 31
0.0
  0
LINE
  5
   118
  8
0
  6
CONTINUOUS
 62
     7
 10
-700.191337460743
 20
88.1438590437044
 30
0.0
 11
-700.967797702043
 21
85.2460823970872
 31
0.0
  0
ENDBLK
  5
   119
  8
0
  6
CONTINUOUS
 62
     7
  0
BLOCK
  5
   11A
  8
0
  6
CONTINUOUS
 62
     7
  2
*UDIM422
 70
    65
 10
0.0
 20
0.0
 30
0.0
  3
*UDIM422
  0
TEXT
  5
   11B
  8
0
  6
CONTINUOUS
 62
     7
 10
-701.372990861282
 20
-91.106310210537
 30
0.0
 40
2.99999997871263
  1
66
 50
89.9999999480344
 41
0.933333333333333
 72
     1
 11
-702.872990848374
 21
-88.6063102269179
 31
0.0
 73
     2
  0
LINE
  5
   11C
  8
0
  6
CONTINUOUS
 62
     7
 10
-696.27728573455
 20
-100.156363819985
 30
0.0
 11
-702.372990859018
 21
-100.156363819985
 31
0.0
  0
LINE
  5
   11D
  8
0
  6
CONTINUOUS
 62
     7
 10
-695.577304929119
 20
-77.0562566338508
 30
0.0
 11
-702.372990859018
 21
-77.0562566338508
 31
0.0
  0
LINE
  5
   11E
  8
0
  6
CONTINUOUS
 62
     7
 10
-700.372990859018
 20
-100.156363819985
 30
0.0
 11
-700.372990859018
 21
-77.0562566338508
 31
0.0
  0
LINE
  5
   11F
  8
0
  6
CONTINUOUS
 62
     7
 10
-701.149448015436
 20
-97.2585863467745
 30
0.0
 11
-700.372990859018
 21
-100.156363819985
 31
0.0
  0
LINE
  5
   120
  8
0
  6
CONTINUOUS
 62
     7
 10
-700.372990859018
 20
-100.156363819985
 30
0.0
 11
-699.596533702599
 21
-97.2585863467745
 31
0.0
  0
LINE
  5
   121
  8
0
  6
CONTINUOUS
 62
     7
 10
-699.596533702599
 20
-79.9540341070613
 30
0.0
 11
-700.372990859018
 21
-77.0562566338508
 31
0.0
  0
LINE
  5
   122
  8
0
  6
CONTINUOUS
 62
     7
 10
-700.372990859018
 20
-77.0562566338508
 30
0.0
 11
-701.149448015436
 21
-79.9540341070613
 31
0.0
  0
ENDBLK
  5
   123
  8
0
  6
CONTINUOUS
 62
     7
  0
BLOCK
  5
   124
  8
0
  6
CONTINUOUS
 62
     7
  2
*UDIM423
 70
    65
 10
0.0
 20
0.0
 30
0.0
  3
*UDIM423
  0
TEXT
  5
   125
  8
0
  6
CONTINUOUS
 62
     7
 10
-707.27255828212
 20
-98.718663200296
 30
0.0
 40
2.99999997871263
  1
93,5
 50
89.9999999480344
 41
0.933333333333333
 72
     1
 11
-708.772558266676
 21
-93.4186632365451
 31
0.0
 73
     2
  0
LINE
  5
   126
  8
0
  6
CONTINUOUS
 62
     7
 10
-672.12717660312
 20
-109.781069839239
 30
0.0
 11
-708.27255827732
 21
-109.781069839239
 31
0.0
  0
LINE
  5
   127
  8
0
  6
CONTINUOUS
 62
     7
 10
-695.577304929119
 20
-77.0562566338508
 30
0.0
 11
-708.27255827732
 21
-77.0562566338508
 31
0.0
  0
LINE
  5
   128
  8
0
  6
CONTINUOUS
 62
     7
 10
-706.27255827732
 20
-109.781069839239
 30
0.0
 11
-706.27255827732
 21
-77.0562566338508
 31
0.0
  0
LINE
  5
   129
  8
0
  6
CONTINUOUS
 62
     7
 10
-707.049015433738
 20
-106.883292366029
 30
0.0
 11
-706.27255827732
 21
-109.781069839239
 31
0.0
  0
LINE
  5
   12A
  8
0
  6
CONTINUOUS
 62
     7
 10
-706.27255827732
 20
-109.781069839239
 30
0.0
 11
-705.496101120901
 21
-106.883292366029
 31
0.0
  0
LINE
  5
   12B
  8
0
  6
CONTINUOUS
 62
     7
 10
-705.496101120901
 20
-79.9540341070613
 30
0.0
 11
-706.27255827732
 21
-77.0562566338508
 31
0.0
  0
LINE
  5
   12C
  8
0
  6
CONTINUOUS
 62
     7
 10
-706.27255827732
 20
-77.0562566338508
 30
0.0
 11
-707.049015433738
 21
-79.9540341070613
 31
0.0
  0
ENDBLK
  5
   12D
  8
0
  6
CONTINUOUS
 62
     7
  0
BLOCK
  5
   12E
  8
0
  6
CONTINUOUS
 62
     7
  2
*UDIM424
 70
    65
 10
0.0
 20
0.0
 30
0.0
  3
*UDIM424
  0
TEXT
  5
   12F
  8
0
  6
CONTINUOUS
 62
     7
 10
-707.272540980949
 20
76.1061806810936
 30
0.0
 40
2.99999997871263
  1
93,5
 50
89.9999999480344
 41
0.933333333333333
 72
     1
 11
-708.772540965505
 21
81.4061806448445
 31
0.0
 73
     2
  0
LINE
  5
   130
  8
0
  6
CONTINUOUS
 62
     7
 10
-695.752289951166
 20
65.04374752107
 30
0.0
 11
-708.27255839506
 21
65.0437608497498
 31
0.0
  0
LINE
  5
   131
  8
0
  6
CONTINUOUS
 62
     7
 10
-673.177176564199
 20
97.7685620139803
 30
0.0
 11
-708.272523557237
 21
97.768599375371
 31
0.0
  0
LINE
  5
   132
  8
0
  6
CONTINUOUS
 62
     7
 10
-706.272558395061
 20
65.0437587206134
 30
0.0
 11
-706.272523557239
 21
97.7685972462346
 31
0.0
  0
LINE
  5
   133
  8
0
  6
CONTINUOUS
 62
     7
 10
-707.049012466598
 20
67.9415370204139
 30
0.0
 11
-706.272558395061
 21
65.0437587206134
 31
0.0
  0
LINE
  5
   134
  8
0
  6
CONTINUOUS
 62
     7
 10
-706.272558395061
 20
65.0437587206134
 30
0.0
 11
-705.496098153762
 21
67.9415353672306
 31
0.0
  0
LINE
  5
   135
  8
0
  6
CONTINUOUS
 62
     7
 10
-705.496069485702
 20
94.870818946434
 30
0.0
 11
-706.272523557239
 21
97.7685972462346
 31
0.0
  0
LINE
  5
   136
  8
0
  6
CONTINUOUS
 62
     7
 10
-706.272523557239
 20
97.7685972462346
 30
0.0
 11
-707.048983798538
 21
94.8708205996173
 31
0.0
  0
ENDBLK
  5
   137
  8
0
  6
CONTINUOUS
 62
     7
  0
BLOCK
  5
   138
  8
0
  6
CONTINUOUS
 62
     7
  2
*UDIM425
 70
    65
 10
0.0
 20
0.0
 30
0.0
  3
*UDIM425
  0
TEXT
  5
   139
  8
0
  6
CONTINUOUS
 62
     7
 10
-701.308538889026
 20
-60.4500085988648
 30
0.0
 40
2.99999997871263
  1
142,75
 50
89.9999999480344
 41
0.933333333333333
 72
     1
 11
-702.808538871046
 21
-52.3500086549821
 31
0.0
 73
     2
  0
LINE
  5
   13A
  8
0
  6
CONTINUOUS
 62
     7
 10
-695.577304929119
 20
-77.0562566338508
 30
0.0
 11
-702.308538881689
 21
-77.0562566338508
 31
0.0
  0
LINE
  5
   13B
  8
0
  6
CONTINUOUS
 62
     7
 10
-700.258981696714
 20
-27.0937628252866
 30
0.0
 11
-702.308538881689
 21
-27.0937628252866
 31
0.0
  0
LINE
  5
   13C
  8
0
  6
CONTINUOUS
 62
     7
 10
-700.30853888169
 20
-77.0562566338508
 30
0.0
 11
-700.30853888169
 21
-27.0937628252866
 31
0.0
  0
LINE
  5
   13D
  8
0
  6
CONTINUOUS
 62
     7
 10
-700.829483311641
 20
-74.1018333566438
 30
0.0
 11
-700.30853888169
 21
-77.0562566338508
 31
0.0
  0
LINE
  5
   13E
  8
0
  6
CONTINUOUS
 62
     7
 10
-700.30853888169
 20
-77.0562566338508
 30
0.0
 11
-699.787594451738
 21
-74.1018333566438
 31
0.0
  0
LINE
  5
   13F
  8
0
  6
CONTINUOUS
 62
     7
 10
-699.787594451738
 20
-30.0481861024936
 30
0.0
 11
-700.30853888169
 21
-27.0937628252866
 31
0.0
  0
LINE
  5
   140
  8
0
  6
CONTINUOUS
 62
     7
 10
-700.30853888169
 20
-27.0937628252866
 30
0.0
 11
-700.829483311641
 21
-30.0481861024936
 31
0.0
  0
ENDBLK
  5
   141
  8
0
  6
CONTINUOUS
 62
     7
  0
BLOCK
  5
   142
  8
0
  6
CONTINUOUS
 62
     7
  2
*UDIM426
 70
    65
 10
0.0
 20
0.0
 30
0.0
  3
*UDIM426
  0
TEXT
  5
   143
  8
0
  6
CONTINUOUS
 62
     7
 10
-663.402294446817
 20
-60.298804622478
 30
0.0
 40
2.99999997871263
  1
152
 50
359.999999948034
 41
0.933333333333333
 72
     1
 11
-659.502294473137
 21
-58.7988046366393
 31
0.0
 73
     2
  0
LINE
  5
   144
  8
0
  6
CONTINUOUS
 62
     7
 10
-632.62729537487
 20
-55.8312616853478
 30
0.0
 11
-632.62729537487
 21
-63.2988046259956
 31
0.0
  0
LINE
  5
   145
  8
0
  6
CONTINUOUS
 62
     7
 10
-685.82729446888
 20
-55.8312616853478
 30
0.0
 11
-685.82729446888
 21
-63.2988046259956
 31
0.0
  0
LINE
  5
   146
  8
0
  6
CONTINUOUS
 62
     7
 10
-632.62729537487
 20
-61.2988046259956
 30
0.0
 11
-685.82729446888
 21
-61.2988046259956
 31
0.0
  0
LINE
  5
   147
  8
0
  6
CONTINUOUS
 62
     7
 10
-635.581718652077
 20
-61.8197490559473
 30
0.0
 11
-632.62729537487
 21
-61.2988046259956
 31
0.0
  0
LINE
  5
   148
  8
0
  6
CONTINUOUS
 62
     7
 10
-632.62729537487
 20
-61.2988046259956
 30
0.0
 11
-635.581718652077
 21
-60.777860196044
 31
0.0
  0
LINE
  5
   149
  8
0
  6
CONTINUOUS
 62
     7
 10
-682.872871191673
 20
-60.777860196044
 30
0.0
 11
-685.82729446888
 21
-61.2988046259956
 31
0.0
  0
LINE
  5
   14A
  8
0
  6
CONTINUOUS
 62
     7
 10
-685.82729446888
 20
-61.2988046259956
 30
0.0
 11
-682.872871191673
 21
-61.8197490559473
 31
0.0
  0
ENDBLK
  5
   14B
  8
0
  6
CONTINUOUS
 62
     7
  0
BLOCK
  5
   14C
  8
0
  6
CONTINUOUS
 62
     7
  2
*HATCH159
 70
    65
 10
0.0
 20
0.0
 30
0.0
  3
*HATCH159
  0
LINE
  5
   14D
  8
0
  6
CONTINUOUS
 62
   210
 10
-0.15100434422493
 20
303.5
 30
0.0
 11
2.83822202682495
 21
300.510772705078
 31
0.0
  0
LINE
  5
   14E
  8
0
  6
CONTINUOUS
 62
   210
 10
4.09169864654541
 20
303.499938964844
 30
0.0
 11
7.08086013793945
 21
300.510772705078
 31
0.0
  0
LINE
  5
   14F
  8
0
  6
CONTINUOUS
 62
   210
 10
7.24261045455933
 20
304.591674804688
 30
0.0
 11
11.1204385757446
 21
300.713836669922
 31
0.0
  0
LINE
  5
   150
  8
0
  6
CONTINUOUS
 62
   210
 10
8.07691764831543
 20
308.0
 30
0.0
 11
10.5494365692139
 21
305.527465820313
 31
0.0
  0
ENDBLK
  5
   151
  8
0
  6
CONTINUOUS
 62
     7
  0
BLOCK
  5
   152
  8
0
  6
CONTINUOUS
 62
     7
  2
*HATCH160
 70
    65
 10
0.0
 20
0.0
 30
0.0
  3
*HATCH160
  0
LINE
  5
   153
  8
0
  6
CONTINUOUS
 62
   210
 10
26.5499858856201
 20
308.618804931641
 30
0.0
 11
27.1687889099121
 21
308.0
 31
0.0
  0
LINE
  5
   154
  8
0
  6
CONTINUOUS
 62
   210
 10
26.4114322662354
 20
313.0
 30
0.0
 11
31.4114265441895
 21
308.0
 31
0.0
  0
LINE
  5
   155
  8
0
  6
CONTINUOUS
 62
   210
 10
30.6540699005127
 20
313.0
 30
0.0
 11
35.6540641784668
 21
308.0
 31
0.0
  0
LINE
  5
   156
  8
0
  6
CONTINUOUS
 62
   210
 10
34.8967094421387
 20
313.0
 30
0.0
 11
39.8967018127441
 21
308.0
 31
0.0
  0
LINE
  5
   157
  8
0
  6
CONTINUOUS
 62
   210
 10
39.139347076416
 20
313.0
 30
0.0
 11
44.1393394470215
 21
308.0
 31
0.0
  0
LINE
  5
   158
  8
0
  6
CONTINUOUS
 62
   210
 10
43.3819847106934
 20
313.0
 30
0.0
 11
48.3819770812988
 21
308.0
 31
0.0
  0
LINE
  5
   159
  8
0
  6
CONTINUOUS
 62
   210
 10
47.6246223449707
 20
313.0
 30
0.0
 11
52.6246147155762
 21
308.0
 31
0.0
  0
LINE
  5
   15A
  8
0
  6
CONTINUOUS
 62
   210
 10
51.8672599792481
 20
313.0
 30
0.0
 11
55.2414474487305
 21
309.625793457031
 31
0.0
  0
ENDBLK
  5
   15B
  8
0
  6
CONTINUOUS
 62
     7
  0
BLOCK
  5
   15C
  8
0
  6
CONTINUOUS
 62
     2
  2
*HATCH161
 70
    65
 10
0.0
 20
0.0
 30
0.0
  3
*HATCH161
  0
LINE
  5
   15D
  8
0
  6
CONTINUOUS
 62
   210
 10
14.5593214035034
 20
337.0
 30
0.0
 11
11.5500001907349
 21
333.990692138672
 31
0.0
  0
LINE
  5
   15E
  8
0
  6
CONTINUOUS
 62
   210
 10
18.8019638061523
 20
337.0
 30
0.0
 11
11.5500001907349
 21
329.748077392578
 31
0.0
  0
LINE
  5
   15F
  8
0
  6
CONTINUOUS
 62
   210
 10
20.5499858856201
 20
334.50537109375
 30
0.0
 11
14.044602394104
 21
328.0
 31
0.0
  0
LINE
  5
   160
  8
0
  6
CONTINUOUS
 62
   210
 10
20.5499858856201
 20
330.262756347656
 30
0.0
 11
18.2872447967529
 21
328.0
 31
0.0
  0
ENDBLK
  5
   161
  8
0
  6
CONTINUOUS
 62
     2
  0
BLOCK
  5
   162
  8
0
  6
CONTINUOUS
 62
     2
  2
*HATCH162
 70
    65
 10
0.0
 20
0.0
 30
0.0
  3
*HATCH162
  0
LINE
  5
   163
  8
0
  6
CONTINUOUS
 62
   210
 10
14.4085636138916
 20
322.0
 30
0.0
 11
11.5500001907349
 21
319.141448974609
 31
0.0
  0
LINE
  5
   164
  8
0
  6
CONTINUOUS
 62
   210
 10
18.6512050628662
 20
322.0
 30
0.0
 11
11.5500001907349
 21
314.898834228516
 31
0.0
  0
LINE
  5
   165
  8
0
  6
CONTINUOUS
 62
   210
 10
20.5499877929687
 20
319.656158447266
 30
0.0
 11
11.5500001907349
 21
310.656158447266
 31
0.0
  0
LINE
  5
   166
  8
0
  6
CONTINUOUS
 62
   210
 10
20.549991607666
 20
315.413543701172
 30
0.0
 11
11.5500001907349
 21
306.413543701172
 31
0.0
  0
LINE
  5
   167
  8
0
  6
CONTINUOUS
 62
   210
 10
20.5499935150146
 20
311.170867919922
 30
0.0
 11
11.3082847595215
 21
301.929168701172
 31
0.0
  0
LINE
  5
   168
  8
0
  6
CONTINUOUS
 62
   210
 10
20.5499973297119
 20
306.928253173828
 30
0.0
 11
14.2825384140015
 21
300.660766601563
 31
0.0
  0
LINE
  5
   169
  8
0
  6
CONTINUOUS
 62
   210
 10
20.5500011444092
 20
302.685638427734
 30
0.0
 11
18.5251789093018
 21
300.660766601563
 31
0.0
  0
ENDBLK
  5
   16A
  8
0
  6
CONTINUOUS
 62
     2
  0
BLOCK
  5
   16B
  8
0
  6
CONTINUOUS
 62
     2
  2
*HATCH163
 70
    65
 10
0.0
 20
0.0
 30
0.0
  3
*HATCH163
  0
LINE
  5
   16C
  8
0
  6
CONTINUOUS
 62
     3
 10
2.16486620903015
 20
329.114868164063
 30
0.0
 11
3.27973127365112
 21
328.0
 31
0.0
  0
LINE
  5
   16D
  8
0
  6
CONTINUOUS
 62
     3
 10
3.90105271339417
 20
329.5
 30
0.0
 11
5.40104961395264
 21
328.0
 31
0.0
  0
LINE
  5
   16E
  8
0
  6
CONTINUOUS
 62
     3
 10
6.02237129211426
 20
329.5
 30
0.0
 11
7.52236843109131
 21
328.0
 31
0.0
  0
LINE
  5
   16F
  8
0
  6
CONTINUOUS
 62
     3
 10
8.14369010925293
 20
329.5
 30
0.0
 11
9.64368724822998
 21
328.0
 31
0.0
  0
LINE
  5
   170
  8
0
  6
CONTINUOUS
 62
     3
 10
10.2650089263916
 20
329.5
 30
0.0
 11
11.7650060653687
 21
328.0
 31
0.0
  0
ENDBLK
  5
   171
  8
0
  6
CONTINUOUS
 62
     2
  0
BLOCK
  5
   172
  8
0
  6
CONTINUOUS
 62
     2
  2
*HATCH164
 70
    65
 10
0.0
 20
0.0
 30
0.0
  3
*HATCH164
  0
LINE
  5
   173
  8
0
  6
CONTINUOUS
 62
     3
 10
2.9157657623291
 20
322.0
 30
0.0
 11
4.41576385498047
 21
320.5
 31
0.0
  0
LINE
  5
   174
  8
0
  6
CONTINUOUS
 62
     3
 10
5.03708457946777
 20
322.0
 30
0.0
 11
6.53708267211914
 21
320.5
 31
0.0
  0
LINE
  5
   175
  8
0
  6
CONTINUOUS
 62
     3
 10
7.15840339660645
 20
322.0
 30
0.0
 11
8.65840148925781
 21
320.5
 31
0.0
  0
LINE
  5
   176
  8
0
  6
CONTINUOUS
 62
     3
 10
9.27972221374512
 20
322.0
 30
0.0
 11
10.7797203063965
 21
320.5
 31
0.0
  0
LINE
  5
   177
  8
0
  6
CONTINUOUS
 62
     3
 10
11.4010391235352
 20
322.0
 30
0.0
 11
12.0500001907349
 21
321.351043701172
 31
0.0
  0
ENDBLK
  5
   178
  8
0
  6
CONTINUOUS
 62
     2
  0
BLOCK
  5
   179
  8
0
  6
CONTINUOUS
 62
     2
  2
*HATCH165
 70
    65
 10
0.0
 20
0.0
 30
0.0
  3
*HATCH165
  0
LINE
  5
   17A
  8
0
  6
CONTINUOUS
 62
     3
 10
1.2100738286972
 20
338.5
 30
0.0
 11
4.99974600970745E-2
 21
337.339904785156
 31
0.0
  0
LINE
  5
   17B
  8
0
  6
CONTINUOUS
 62
     3
 10
3.3313901424408
 20
338.5
 30
0.0
 11
0.049997802823782
 21
335.218566894531
 31
0.0
  0
LINE
  5
   17C
  8
0
  6
CONTINUOUS
 62
     3
 10
2.0500009059906
 20
336.157928466797
 30
0.0
 11
4.99979667365551E-2
 21
334.157928466797
 31
0.0
  0
LINE
  5
   17D
  8
0
  6
CONTINUOUS
 62
     3
 10
2.05000066757202
 20
335.097259521484
 30
0.0
 11
4.99981380999088E-2
 21
333.097259521484
 31
0.0
  0
LINE
  5
   17E
  8
0
  6
CONTINUOUS
 62
     3
 10
2.05000042915344
 20
334.036590576172
 30
0.0
 11
4.99983094632626E-2
 21
332.036590576172
 31
0.0
  0
LINE
  5
   17F
  8
0
  6
CONTINUOUS
 62
     3
 10
2.05000019073486
 20
332.975921630859
 30
0.0
 11
4.99984808266163E-2
 21
330.975921630859
 31
0.0
  0
LINE
  5
   180
  8
0
  6
CONTINUOUS
 62
     3
 10
2.04999995231628
 20
331.915252685547
 30
0.0
 11
0.04999865218997
 21
329.915252685547
 31
0.0
  0
LINE
  5
   181
  8
0
  6
CONTINUOUS
 62
     3
 10
2.36104822158813
 20
331.165679931641
 30
0.0
 11
4.99988161027431E-2
 21
328.854644775391
 31
0.0
  0
LINE
  5
   182
  8
0
  6
CONTINUOUS
 62
     3
 10
3.42170858383179
 20
331.165679931641
 30
0.0
 11
4.99989874660969E-2
 21
327.793975830078
 31
0.0
  0
LINE
  5
   183
  8
0
  6
CONTINUOUS
 62
     3
 10
4.4823694229126
 20
331.165679931641
 30
0.0
 11
2.81667637825012
 21
329.5
 31
0.0
  0
LINE
  5
   184
  8
0
  6
CONTINUOUS
 62
     3
 10
1.05000102519989
 20
327.733306884766
 30
0.0
 11
4.99991551041603E-2
 21
326.733306884766
 31
0.0
  0
LINE
  5
   185
  8
0
  6
CONTINUOUS
 62
     3
 10
11.5499973297119
 20
337.172668457031
 30
0.0
 11
10.8773260116577
 21
336.5
 31
0.0
  0
LINE
  5
   186
  8
0
  6
CONTINUOUS
 62
     3
 10
1.05000114440918
 20
326.672668457031
 30
0.0
 11
0.049999326467514
 21
325.672668457031
 31
0.0
  0
LINE
  5
   187
  8
0
  6
CONTINUOUS
 62
     3
 10
6.6036901473999
 20
331.165679931641
 30
0.0
 11
4.93799781799316
 21
329.5
 31
0.0
  0
LINE
  5
   188
  8
0
  6
CONTINUOUS
 62
     3
 10
7.66435050964355
 20
331.165679931641
 30
0.0
 11
5.99865818023682
 21
329.5
 31
0.0
  0
LINE
  5
   189
  8
0
  6
CONTINUOUS
 62
     3
 10
8.72501087188721
 20
331.165679931641
 30
0.0
 11
7.05931854248047
 21
329.5
 31
0.0
  0
LINE
  5
   18A
  8
0
  6
CONTINUOUS
 62
     3
 10
9.78567123413086
 20
331.165679931641
 30
0.0
 11
8.11997890472412
 21
329.5
 31
0.0
  0
LINE
  5
   18B
  8
0
  6
CONTINUOUS
 62
     3
 10
10.8463325500488
 20
331.165679931641
 30
0.0
 11
9.18064022064209
 21
329.5
 31
0.0
  0
LINE
  5
   18C
  8
0
  6
CONTINUOUS
 62
     3
 10
11.5500001907349
 20
330.808685302734
 30
0.0
 11
10.2413005828857
 21
329.5
 31
0.0
  0
LINE
  5
   18D
  8
0
  6
CONTINUOUS
 62
     3
 10
11.5499992370605
 20
329.748046875
 30
0.0
 11
11.3019609451294
 21
329.5
 31
0.0
  0
LINE
  5
   18E
  8
0
  6
CONTINUOUS
 62
     3
 10
3.36262011528015
 20
320.5
 30
0.0
 11
5.00006824731827E-2
 21
317.187377929688
 31
0.0
  0
LINE
  5
   18F
  8
0
  6
CONTINUOUS
 62
     3
 10
2.05000257492065
 20
318.126708984375
 30
0.0
 11
5.00008538365364E-2
 21
316.126708984375
 31
0.0
  0
LINE
  5
   190
  8
0
  6
CONTINUOUS
 62
     3
 10
2.48393964767456
 20
317.5
 30
0.0
 11
0.483938843011856
 21
315.5
 31
0.0
  0
LINE
  5
   191
  8
0
  6
CONTINUOUS
 62
     3
 10
3.54460000991821
 20
317.5
 30
0.0
 11
1.54459929466248
 21
315.5
 31
0.0
  0
LINE
  5
   192
  8
0
  6
CONTINUOUS
 62
     3
 10
4.60526037216187
 20
317.5
 30
0.0
 11
2.60525989532471
 21
315.5
 31
0.0
  0
LINE
  5
   193
  8
0
  6
CONTINUOUS
 62
     3
 10
5.66592073440552
 20
317.5
 30
0.0
 11
3.66592025756836
 21
315.5
 31
0.0
  0
LINE
  5
   194
  8
0
  6
CONTINUOUS
 62
     3
 10
6.72658109664917
 20
317.5
 30
0.0
 11
4.72658061981201
 21
315.5
 31
0.0
  0
LINE
  5
   195
  8
0
  6
CONTINUOUS
 62
     3
 10
7.78724145889282
 20
317.5
 30
0.0
 11
5.78724098205566
 21
315.5
 31
0.0
  0
LINE
  5
   196
  8
0
  6
CONTINUOUS
 62
     3
 10
8.84790229797363
 20
317.5
 30
0.0
 11
6.84790182113647
 21
315.5
 31
0.0
  0
LINE
  5
   197
  8
0
  6
CONTINUOUS
 62
     3
 10
9.90856266021729
 20
317.5
 30
0.0
 11
7.90856218338013
 21
315.5
 31
0.0
  0
LINE
  5
   198
  8
0
  6
CONTINUOUS
 62
     3
 10
11.5500001907349
 20
317.020111083984
 30
0.0
 11
10.0298833847046
 21
315.5
 31
0.0
  0
ENDBLK
  5
   199
  8
0
  6
CONTINUOUS
 62
     2
  0
BLOCK
  5
   19A
  8
0
  6
CONTINUOUS
 62
     7
  2
*HATCH166
 70
    65
 10
0.0
 20
0.0
 30
0.0
  3
*HATCH166
  0
LINE
  5
   19B
  8
0
  6
CONTINUOUS
 62
     3
 10
2.19918513298035
 20
-56.9999961853027
 30
0.0
 11
3.69918298721313
 21
-58.4999961853027
 31
0.0
  0
LINE
  5
   19C
  8
0
  6
CONTINUOUS
 62
     3
 10
4.32050514221191
 20
-56.9999961853027
 30
0.0
 11
5.82050275802612
 21
-58.4999961853027
 31
0.0
  0
LINE
  5
   19D
  8
0
  6
CONTINUOUS
 62
     3
 10
6.4418249130249
 20
-56.9999961853027
 30
0.0
 11
7.94182252883911
 21
-58.4999961853027
 31
0.0
  0
LINE
  5
   19E
  8
0
  6
CONTINUOUS
 62
     3
 10
8.56314468383789
 20
-56.9999961853027
 30
0.0
 11
10.0631427764893
 21
-58.4999961853027
 31
0.0
  0
LINE
  5
   19F
  8
0
  6
CONTINUOUS
 62
     3
 10
10.6844635009766
 20
-57.0
 30
0.0
 11
11.8672294616699
 21
-58.1827659606934
 31
0.0
  0
ENDBLK
  5
   1A0
  8
0
  6
CONTINUOUS
 62
     7
  0
BLOCK
  5
   1A1
  8
0
  6
CONTINUOUS
 62
     7
  2
*HATCH167
 70
    65
 10
0.0
 20
0.0
 30
0.0
  3
*HATCH167
  0
LINE
  5
   1A2
  8
0
  6
CONTINUOUS
 62
     3
 10
2.33690619468689
 20
-49.7130928039551
 30
0.0
 11
3.62381052970886
 21
-51.0
 31
0.0
  0
LINE
  5
   1A3
  8
0
  6
CONTINUOUS
 62
     3
 10
4.24513149261475
 20
-49.5
 30
0.0
 11
5.74513006210327
 21
-51.0
 31
0.0
  0
LINE
  5
   1A4
  8
0
  6
CONTINUOUS
 62
     3
 10
6.36645030975342
 20
-49.5
 30
0.0
 11
7.86644983291626
 21
-51.0
 31
0.0
  0
LINE
  5
   1A5
  8
0
  6
CONTINUOUS
 62
     3
 10
8.48776912689209
 20
-49.5
 30
0.0
 11
9.98777008056641
 21
-51.0
 31
0.0
  0
LINE
  5
   1A6
  8
0
  6
CONTINUOUS
 62
     3
 10
10.6090898513794
 20
-49.5
 30
0.0
 11
12.0500011444092
 21
-50.9409141540527
 31
0.0
  0
ENDBLK
  5
   1A7
  8
0
  6
CONTINUOUS
 62
     7
  0
BLOCK
  5
   1A8
  8
0
  6
CONTINUOUS
 62
     7
  2
*HATCH168
 70
    65
 10
0.0
 20
0.0
 30
0.0
  3
*HATCH168
  0
LINE
  5
   1A9
  8
0
  6
CONTINUOUS
 62
     3
 10
2.33690619468689
 20
-49.7130928039551
 30
0.0
 11
3.62381052970886
 21
-51.0
 31
0.0
  0
LINE
  5
   1AA
  8
0
  6
CONTINUOUS
 62
     3
 10
4.24513149261475
 20
-49.5
 30
0.0
 11
5.74513006210327
 21
-51.0
 31
0.0
  0
LINE
  5
   1AB
  8
0
  6
CONTINUOUS
 62
     3
 10
6.36645030975342
 20
-49.5
 30
0.0
 11
7.86644983291626
 21
-51.0
 31
0.0
  0
LINE
  5
   1AC
  8
0
  6
CONTINUOUS
 62
     3
 10
8.48776912689209
 20
-49.5
 30
0.0
 11
9.98777008056641
 21
-51.0
 31
0.0
  0
LINE
  5
   1AD
  8
0
  6
CONTINUOUS
 62
     3
 10
10.6090898513794
 20
-49.5
 30
0.0
 11
12.0500011444092
 21
-50.9409141540527
 31
0.0
  0
ENDBLK
  5
   1AE
  8
0
  6
CONTINUOUS
 62
     7
  0
BLOCK
  5
   1AF
  8
0
  6
CONTINUOUS
 62
     7
  2
*HATCH169
 70
    65
 10
0.0
 20
0.0
 30
0.0
  3
*HATCH169
  0
LINE
  5
   1B0
  8
0
  6
CONTINUOUS
 62
     3
 10
2.16904735565186
 20
-44.5
 30
0.0
 11
0.050000611692667
 21
-46.6190452575684
 31
0.0
  0
LINE
  5
   1B1
  8
0
  6
CONTINUOUS
 62
     3
 10
4.290367603302
 20
-44.5
 30
0.0
 11
2.29036784172058
 21
-46.5
 31
0.0
  0
LINE
  5
   1B2
  8
0
  6
CONTINUOUS
 62
     3
 10
5.3510274887085
 20
-44.5
 30
0.0
 11
3.35102772712708
 21
-46.5
 31
0.0
  0
LINE
  5
   1B3
  8
0
  6
CONTINUOUS
 62
     3
 10
6.41168737411499
 20
-44.5
 30
0.0
 11
4.41168785095215
 21
-46.5
 31
0.0
  0
LINE
  5
   1B4
  8
0
  6
CONTINUOUS
 62
     3
 10
7.47234725952148
 20
-44.5
 30
0.0
 11
5.47234773635864
 21
-46.5
 31
0.0
  0
LINE
  5
   1B5
  8
0
  6
CONTINUOUS
 62
     3
 10
1.05000174045563
 20
-50.9223442077637
 30
0.0
 11
4.99997660517693E-2
 21
-51.9223480224609
 31
0.0
  0
LINE
  5
   1B6
  8
0
  6
CONTINUOUS
 62
     3
 10
5.21915149688721
 20
-47.8138542175293
 30
0.0
 11
3.53300762176514
 21
-49.5
 31
0.0
  0
LINE
  5
   1B7
  8
0
  6
CONTINUOUS
 62
     3
 10
9.59366607666016
 20
-44.5
 30
0.0
 11
7.59366750717163
 21
-46.5
 31
0.0
  0
LINE
  5
   1B8
  8
0
  6
CONTINUOUS
 62
     3
 10
1.05000150203705
 20
-53.0436668395996
 30
0.0
 11
4.99994233250618E-2
 21
-54.0436668395996
 31
0.0
  0
LINE
  5
   1B9
  8
0
  6
CONTINUOUS
 62
     3
 10
7.34787559509277
 20
-47.806453704834
 30
0.0
 11
5.65432643890381
 21
-49.5
 31
0.0
  0
LINE
  5
   1BA
  8
0
  6
CONTINUOUS
 62
     3
 10
11.5500001907349
 20
-44.6649894714356
 30
0.0
 11
9.71498680114746
 21
-46.5
 31
0.0
  0
LINE
  5
   1BB
  8
0
  6
CONTINUOUS
 62
     3
 10
1.05000126361847
 20
-55.1649856567383
 30
0.0
 11
4.99990843236446E-2
 21
-56.1649894714355
 31
0.0
  0
LINE
  5
   1BC
  8
0
  6
CONTINUOUS
 62
     3
 10
9.47660064697266
 20
-47.7990493774414
 30
0.0
 11
7.77564525604248
 21
-49.5
 31
0.0
  0
LINE
  5
   1BD
  8
0
  6
CONTINUOUS
 62
     3
 10
10.5409622192383
 20
-47.7953453063965
 30
0.0
 11
8.83630466461182
 21
-49.5000038146973
 31
0.0
  0
LINE
  5
   1BE
  8
0
  6
CONTINUOUS
 62
     3
 10
11.5500011444092
 20
-47.8469657897949
 30
0.0
 11
9.89696407318115
 21
-49.5000038146973
 31
0.0
  0
LINE
  5
   1BF
  8
0
  6
CONTINUOUS
 62
     3
 10
11.5500001907349
 20
-48.9076271057129
 30
0.0
 11
10.9576234817505
 21
-49.5000038146973
 31
0.0
  0
LINE
  5
   1C0
  8
0
  6
CONTINUOUS
 62
     3
 10
3.01829099655151
 20
-58.4999961853027
 30
0.0
 11
4.99982349574566E-2
 21
-61.4682884216309
 31
0.0
  0
LINE
  5
   1C1
  8
0
  6
CONTINUOUS
 62
     3
 10
2.05000019073486
 20
-60.5289459228516
 30
0.0
 11
4.99980673193932E-2
 21
-62.5289497375488
 31
0.0
  0
LINE
  5
   1C2
  8
0
  6
CONTINUOUS
 62
     3
 10
2.05000042915344
 20
-61.5896072387695
 30
0.0
 11
4.99978959560394E-2
 21
-63.5896110534668
 31
0.0
  0
LINE
  5
   1C3
  8
0
  6
CONTINUOUS
 62
     3
 10
2.05000066757202
 20
-62.6502685546875
 30
0.0
 11
4.99977245926857E-2
 21
-64.6502685546875
 31
0.0
  0
LINE
  5
   1C4
  8
0
  6
CONTINUOUS
 62
     3
 10
2.0500009059906
 20
-63.7109298706055
 30
0.0
 11
0.049997553229332
 21
-65.7109298706055
 31
0.0
  0
LINE
  5
   1C5
  8
0
  6
CONTINUOUS
 62
     3
 10
2.05000114440918
 20
-64.7715911865234
 30
0.0
 11
4.99973818659782E-2
 21
-66.7715911865234
 31
0.0
  0
LINE
  5
   1C6
  8
0
  6
CONTINUOUS
 62
     3
 10
2.38226532936096
 20
-65.4999847412109
 30
0.0
 11
0.382251262664795
 21
-67.5
 31
0.0
  0
LINE
  5
   1C7
  8
0
  6
CONTINUOUS
 62
     3
 10
3.44292521476746
 20
-65.4999847412109
 30
0.0
 11
1.44291341304779
 21
-67.5
 31
0.0
  0
LINE
  5
   1C8
  8
0
  6
CONTINUOUS
 62
     3
 10
4.50358486175537
 20
-65.4999847412109
 30
0.0
 11
2.50357556343079
 21
-67.5
 31
0.0
  0
LINE
  5
   1C9
  8
0
  6
CONTINUOUS
 62
     3
 10
5.56424522399902
 20
-65.4999847412109
 30
0.0
 11
3.56423783302307
 21
-67.4999923706055
 31
0.0
  0
LINE
  5
   1CA
  8
0
  6
CONTINUOUS
 62
     3
 10
7.68556499481201
 20
-65.4999847412109
 30
0.0
 11
5.68556213378906
 21
-67.4999923706055
 31
0.0
  0
LINE
  5
   1CB
  8
0
  6
CONTINUOUS
 62
     3
 10
9.806884765625
 20
-65.4999847412109
 30
0.0
 11
7.80688667297363
 21
-67.4999923706055
 31
0.0
  0
LINE
  5
   1CC
  8
0
  6
CONTINUOUS
 62
     3
 10
11.5499963760376
 20
-65.8781967163086
 30
0.0
 11
9.9282112121582
 21
-67.4999771118164
 31
0.0
  0
LINE
  5
   1CD
  8
0
  6
CONTINUOUS
 62
     3
 10
13.0495147705078
 20
-66.4999923706055
 30
0.0
 11
12.0495357513428
 21
-67.4999771118164
 31
0.0
  0
ENDBLK
  5
   1CE
  8
0
  6
CONTINUOUS
 62
     7
  0
BLOCK
  5
   1CF
  8
0
  6
CONTINUOUS
 62
     7
  2
*HATCH170
 70
    65
 10
0.0
 20
0.0
 30
0.0
  3
*HATCH170
  0
LINE
  5
   1D0
  8
0
  6
CONTINUOUS
 62
   210
 10
15.2756481170654
 20
-42.0
 30
0.0
 11
11.4999847412109
 21
-45.7756614685059
 31
0.0
  0
LINE
  5
   1D1
  8
0
  6
CONTINUOUS
 62
   210
 10
17.4999847412109
 20
-44.0183029174805
 30
0.0
 11
11.7841444015503
 21
-49.7341461181641
 31
0.0
  0
LINE
  5
   1D2
  8
0
  6
CONTINUOUS
 62
   210
 10
17.4999847412109
 20
-48.2609443664551
 30
0.0
 11
15.0109281539917
 21
-50.75
 31
0.0
  0
ENDBLK
  5
   1D3
  8
0
  6
CONTINUOUS
 62
     7
  0
BLOCK
  5
   1D4
  8
0
  6
CONTINUOUS
 62
     7
  2
*HATCH171
 70
    65
 10
0.0
 20
0.0
 30
0.0
  3
*HATCH171
  0
LINE
  5
   1D5
  8
0
  6
CONTINUOUS
 62
   210
 10
14.8748893737793
 20
-57.25
 30
0.0
 11
11.5360698699951
 21
-60.5888214111328
 31
0.0
  0
LINE
  5
   1D6
  8
0
  6
CONTINUOUS
 62
   210
 10
17.4999847412109
 20
-58.867546081543
 30
0.0
 11
11.5075874328613
 21
-64.8599395751953
 31
0.0
  0
LINE
  5
   1D7
  8
0
  6
CONTINUOUS
 62
   210
 10
17.4999847412109
 20
-63.1101837158203
 30
0.0
 11
14.6101713180542
 21
-66.0
 31
0.0
  0
ENDBLK
  5
   1D8
  8
0
  6
CONTINUOUS
 62
     7
  0
BLOCK
  5
   1D9
  8
0
  6
CONTINUOUS
 62
     7
  2
*HATCH172
 70
    65
 10
0.0
 20
0.0
 30
0.0
  3
*HATCH172
  0
LINE
  5
   1DA
  8
0
  6
CONTINUOUS
 62
   210
 10
17.4999847412109
 20
-47.1985092163086
 30
0.0
 11
20.4999847412109
 21
-50.1985130310059
 31
0.0
  0
LINE
  5
   1DB
  8
0
  6
CONTINUOUS
 62
   210
 10
17.4999847412109
 20
-42.9558639526367
 30
0.0
 11
20.4999847412109
 21
-45.955867767334
 31
0.0
  0
ENDBLK
  5
   1DC
  8
0
  6
CONTINUOUS
 62
     7
  0
BLOCK
  5
   1DD
  8
0
  6
CONTINUOUS
 62
     7
  2
*HATCH173
 70
    65
 10
0.0
 20
0.0
 30
0.0
  3
*HATCH173
  0
LINE
  5
   1DE
  8
0
  6
CONTINUOUS
 62
   210
 10
17.4999847412109
 20
-62.0477600097656
 30
0.0
 11
20.4999847412109
 21
-65.0477676391602
 31
0.0
  0
LINE
  5
   1DF
  8
0
  6
CONTINUOUS
 62
   210
 10
17.4999847412109
 20
-57.8051147460938
 30
0.0
 11
20.4999847412109
 21
-60.8051223754883
 31
0.0
  0
ENDBLK
  5
   1E0
  8
0
  6
CONTINUOUS
 62
     7
  0
BLOCK
  5
   1E1
  8
0
  6
CONTINUOUS
 62
     7
  2
*HATCH174
 70
    65
 10
0.0
 20
0.0
 30
0.0
  3
*HATCH174
  0
LINE
  5
   1E2
  8
0
  6
CONTINUOUS
 62
    52
 10
106.240852355957
 20
345.950042724609
 30
0.0
 11
103.684600830078
 21
343.393768310547
 31
0.0
  0
LINE
  5
   1E3
  8
0
  6
CONTINUOUS
 62
    52
 10
106.475814819336
 20
341.942352294922
 30
0.0
 11
103.70238494873
 21
339.168914794922
 31
0.0
  0
LINE
  5
   1E4
  8
0
  6
CONTINUOUS
 62
    52
 10
106.476348876953
 20
337.700225830078
 30
0.0
 11
103.720176696777
 21
334.944061279297
 31
0.0
  0
LINE
  5
   1E5
  8
0
  6
CONTINUOUS
 62
    52
 10
106.47688293457
 20
333.458099365234
 30
0.0
 11
103.737968444824
 21
330.719207763672
 31
0.0
  0
LINE
  5
   1E6
  8
0
  6
CONTINUOUS
 62
    52
 10
106.477416992188
 20
329.215972900391
 30
0.0
 11
103.755760192871
 21
326.494354248047
 31
0.0
  0
LINE
  5
   1E7
  8
0
  6
CONTINUOUS
 62
    52
 10
106.477951049805
 20
324.973846435547
 30
0.0
 11
103.773551940918
 21
322.269500732422
 31
0.0
  0
LINE
  5
   1E8
  8
0
  6
CONTINUOUS
 62
    52
 10
106.478485107422
 20
320.731719970703
 30
0.0
 11
103.791343688965
 21
318.044647216797
 31
0.0
  0
LINE
  5
   1E9
  8
0
  6
CONTINUOUS
 62
    52
 10
106.479019165039
 20
316.489593505859
 30
0.0
 11
103.809135437012
 21
313.819793701172
 31
0.0
  0
LINE
  5
   1EA
  8
0
  6
CONTINUOUS
 62
    52
 10
106.479553222656
 20
312.247467041016
 30
0.0
 11
103.826927185059
 21
309.594940185547
 31
0.0
  0
LINE
  5
   1EB
  8
0
  6
CONTINUOUS
 62
    52
 10
106.480087280273
 20
308.005340576172
 30
0.0
 11
103.844718933105
 21
305.370086669922
 31
0.0
  0
LINE
  5
   1EC
  8
0
  6
CONTINUOUS
 62
    52
 10
106.480621337891
 20
303.763214111328
 30
0.0
 11
103.862510681152
 21
301.145233154297
 31
0.0
  0
LINE
  5
   1ED
  8
0
  6
CONTINUOUS
 62
    52
 10
106.481155395508
 20
299.521087646484
 30
0.0
 11
103.880302429199
 21
296.920379638672
 31
0.0
  0
LINE
  5
   1EE
  8
0
  6
CONTINUOUS
 62
    52
 10
106.481689453125
 20
295.278961181641
 30
0.0
 11
103.898094177246
 21
292.695526123047
 31
0.0
  0
LINE
  5
   1EF
  8
0
  6
CONTINUOUS
 62
    52
 10
106.482223510742
 20
291.036834716797
 30
0.0
 11
103.915885925293
 21
288.470672607422
 31
0.0
  0
LINE
  5
   1F0
  8
0
  6
CONTINUOUS
 62
    52
 10
106.482757568359
 20
286.794708251953
 30
0.0
 11
103.93367767334
 21
284.245819091797
 31
0.0
  0
LINE
  5
   1F1
  8
0
  6
CONTINUOUS
 62
    52
 10
106.483291625977
 20
282.552581787109
 30
0.0
 11
103.951469421387
 21
280.020965576172
 31
0.0
  0
LINE
  5
   1F2
  8
0
  6
CONTINUOUS
 62
    52
 10
106.483825683594
 20
278.310455322266
 30
0.0
 11
103.969261169434
 21
275.796112060547
 31
0.0
  0
LINE
  5
   1F3
  8
0
  6
CONTINUOUS
 62
    52
 10
106.484359741211
 20
274.068328857422
 30
0.0
 11
103.98705291748
 21
271.571258544922
 31
0.0
  0
LINE
  5
   1F4
  8
0
  6
CONTINUOUS
 62
    52
 10
106.484893798828
 20
269.826202392578
 30
0.0
 11
104.004844665527
 21
267.346405029297
 31
0.0
  0
LINE
  5
   1F5
  8
0
  6
CONTINUOUS
 62
    52
 10
106.485427856445
 20
265.584075927734
 30
0.0
 11
104.022636413574
 21
263.121551513672
 31
0.0
  0
LINE
  5
   1F6
  8
0
  6
CONTINUOUS
 62
    52
 10
106.485961914062
 20
261.341949462891
 30
0.0
 11
104.040428161621
 21
258.896697998047
 31
0.0
  0
LINE
  5
   1F7
  8
0
  6
CONTINUOUS
 62
    52
 10
106.48649597168
 20
257.099822998047
 30
0.0
 11
104.058219909668
 21
254.671844482422
 31
0.0
  0
LINE
  5
   1F8
  8
0
  6
CONTINUOUS
 62
    52
 10
106.487030029297
 20
252.857727050781
 30
0.0
 11
104.076011657715
 21
250.446990966797
 31
0.0
  0
LINE
  5
   1F9
  8
0
  6
CONTINUOUS
 62
    52
 10
106.487564086914
 20
248.615631103516
 30
0.0
 11
104.093803405762
 21
246.222137451172
 31
0.0
  0
LINE
  5
   1FA
  8
0
  6
CONTINUOUS
 62
    52
 10
106.488098144531
 20
244.37353515625
 30
0.0
 11
104.111595153809
 21
241.997283935547
 31
0.0
  0
LINE
  5
   1FB
  8
0
  6
CONTINUOUS
 62
    52
 10
106.488632202148
 20
240.131439208984
 30
0.0
 11
104.129386901855
 21
237.772430419922
 31
0.0
  0
LINE
  5
   1FC
  8
0
  6
CONTINUOUS
 62
    52
 10
106.489166259766
 20
235.889343261719
 30
0.0
 11
104.147178649902
 21
233.547576904297
 31
0.0
  0
LINE
  5
   1FD
  8
0
  6
CONTINUOUS
 62
    52
 10
106.489700317383
 20
231.647247314453
 30
0.0
 11
104.164970397949
 21
229.322723388672
 31
0.0
  0
LINE
  5
   1FE
  8
0
  6
CONTINUOUS
 62
    52
 10
106.490234375
 20
227.405151367188
 30
0.0
 11
104.182762145996
 21
225.097869873047
 31
0.0
  0
LINE
  5
   1FF
  8
0
  6
CONTINUOUS
 62
    52
 10
106.490768432617
 20
223.163055419922
 30
0.0
 11
104.200553894043
 21
220.873016357422
 31
0.0
  0
LINE
  5
   200
  8
0
  6
CONTINUOUS
 62
    52
 10
106.491302490234
 20
218.920959472656
 30
0.0
 11
104.21834564209
 21
216.648162841797
 31
0.0
  0
LINE
  5
   201
  8
0
  6
CONTINUOUS
 62
    52
 10
106.491836547852
 20
214.678863525391
 30
0.0
 11
104.236137390137
 21
212.423309326172
 31
0.0
  0
LINE
  5
   202
  8
0
  6
CONTINUOUS
 62
    52
 10
106.492370605469
 20
210.436767578125
 30
0.0
 11
104.253929138184
 21
208.198455810547
 31
0.0
  0
LINE
  5
   203
  8
0
  6
CONTINUOUS
 62
    52
 10
106.492904663086
 20
206.194671630859
 30
0.0
 11
104.27172088623
 21
203.973602294922
 31
0.0
  0
LINE
  5
   204
  8
0
  6
CONTINUOUS
 62
    52
 10
106.493438720703
 20
201.952575683594
 30
0.0
 11
104.289512634277
 21
199.748748779297
 31
0.0
  0
LINE
  5
   205
  8
0
  6
CONTINUOUS
 62
    52
 10
106.49397277832
 20
197.710479736328
 30
0.0
 11
104.307304382324
 21
195.523895263672
 31
0.0
  0
LINE
  5
   206
  8
0
  6
CONTINUOUS
 62
    52
 10
106.494506835938
 20
193.468383789063
 30
0.0
 11
104.325096130371
 21
191.299041748047
 31
0.0
  0
LINE
  5
   207
  8
0
  6
CONTINUOUS
 62
    52
 10
106.495040893555
 20
189.226287841797
 30
0.0
 11
104.342887878418
 21
187.074188232422
 31
0.0
  0
LINE
  5
   208
  8
0
  6
CONTINUOUS
 62
    52
 10
106.495574951172
 20
184.984191894531
 30
0.0
 11
104.360679626465
 21
182.849334716797
 31
0.0
  0
LINE
  5
   209
  8
0
  6
CONTINUOUS
 62
    52
 10
106.496109008789
 20
180.742095947266
 30
0.0
 11
104.378471374512
 21
178.624481201172
 31
0.0
  0
LINE
  5
   20A
  8
0
  6
CONTINUOUS
 62
    52
 10
106.496643066406
 20
176.5
 30
0.0
 11
104.396263122559
 21
174.399627685547
 31
0.0
  0
LINE
  5
   20B
  8
0
  6
CONTINUOUS
 62
    52
 10
106.497177124023
 20
172.257904052734
 30
0.0
 11
104.414054870605
 21
170.174774169922
 31
0.0
  0
LINE
  5
   20C
  8
0
  6
CONTINUOUS
 62
    52
 10
106.497711181641
 20
168.015808105469
 30
0.0
 11
104.431846618652
 21
165.949920654297
 31
0.0
  0
LINE
  5
   20D
  8
0
  6
CONTINUOUS
 62
    52
 10
106.498245239258
 20
163.773712158203
 30
0.0
 11
104.449638366699
 21
161.725067138672
 31
0.0
  0
LINE
  5
   20E
  8
0
  6
CONTINUOUS
 62
    52
 10
106.498779296875
 20
159.531616210938
 30
0.0
 11
104.467430114746
 21
157.500213623047
 31
0.0
  0
LINE
  5
   20F
  8
0
  6
CONTINUOUS
 62
    52
 10
106.499313354492
 20
155.289520263672
 30
0.0
 11
104.485221862793
 21
153.275360107422
 31
0.0
  0
LINE
  5
   210
  8
0
  6
CONTINUOUS
 62
    52
 10
106.499778747559
 20
151.047500610352
 30
0.0
 11
105.202278137207
 21
149.75
 31
0.0
  0
ENDBLK
  5
   211
  8
0
  6
CONTINUOUS
 62
     7
  0
BLOCK
  5
   212
  8
0
  6
CONTINUOUS
 62
     7
  2
*HATCH175
 70
    65
 10
0.0
 20
0.0
 30
0.0
  3
*HATCH175
  0
LINE
  5
   213
  8
0
  6
CONTINUOUS
 62
    52
 10
106.499938964844
 20
142.562377929688
 30
0.0
 11
104.499938964844
 21
140.562377929688
 31
0.0
  0
LINE
  5
   214
  8
0
  6
CONTINUOUS
 62
    52
 10
106.499938964844
 20
138.319732666016
 30
0.0
 11
104.499938964844
 21
136.319732666016
 31
0.0
  0
LINE
  5
   215
  8
0
  6
CONTINUOUS
 62
    52
 10
106.499938964844
 20
134.077087402344
 30
0.0
 11
104.499938964844
 21
132.077087402344
 31
0.0
  0
ENDBLK
  5
   216
  8
0
  6
CONTINUOUS
 62
     7
  0
BLOCK
  5
   217
  8
0
  6
CONTINUOUS
 62
     7
  2
*HATCH176
 70
    65
 10
0.0
 20
0.0
 30
0.0
  3
*HATCH176
  0
LINE
  5
   218
  8
0
  6
CONTINUOUS
 62
    52
 10
106.499938964844
 20
17.4044799804688
 30
0.0
 11
104.499938964844
 21
15.4044799804688
 31
0.0
  0
LINE
  5
   219
  8
0
  6
CONTINUOUS
 62
    52
 10
106.499938964844
 20
13.1618385314941
 30
0.0
 11
104.499938964844
 21
11.1618385314941
 31
0.0
  0
LINE
  5
   21A
  8
0
  6
CONTINUOUS
 62
    52
 10
106.499938964844
 20
8.91919898986816
 30
0.0
 11
105.330741882324
 21
7.75
 31
0.0
  0
ENDBLK
  5
   21B
  8
0
  6
CONTINUOUS
 62
     7
  0
BLOCK
  5
   21C
  8
0
  6
CONTINUOUS
 62
     7
  2
*HATCH177
 70
    65
 10
0.0
 20
0.0
 30
0.0
  3
*HATCH177
  0
LINE
  5
   21D
  8
0
  6
CONTINUOUS
 62
    52
 10
106.499938964844
 20
0.433917760848999
 30
0.0
 11
104.499938964844
 21
-1.56608211994171
 31
0.0
  0
LINE
  5
   21E
  8
0
  6
CONTINUOUS
 62
    52
 10
106.499938964844
 20
-3.80872273445129
 30
0.0
 11
104.499938964844
 21
-5.80872249603271
 31
0.0
  0
LINE
  5
   21F
  8
0
  6
CONTINUOUS
 62
    52
 10
106.499938964844
 20
-8.05136299133301
 30
0.0
 11
104.499938964844
 21
-10.051362991333
 31
0.0
  0
LINE
  5
   220
  8
0
  6
CONTINUOUS
 62
    52
 10
106.499938964844
 20
-12.2940044403076
 30
0.0
 11
104.499938964844
 21
-14.2940044403076
 31
0.0
  0
LINE
  5
   221
  8
0
  6
CONTINUOUS
 62
    52
 10
106.499938964844
 20
-16.5366458892822
 30
0.0
 11
104.499938964844
 21
-18.5366458892822
 31
0.0
  0
LINE
  5
   222
  8
0
  6
CONTINUOUS
 62
    52
 10
106.499938964844
 20
-20.7792873382568
 30
0.0
 11
104.499938964844
 21
-22.7792873382568
 31
0.0
  0
LINE
  5
   223
  8
0
  6
CONTINUOUS
 62
    52
 10
106.499938964844
 20
-25.0219287872314
 30
0.0
 11
104.499938964844
 21
-27.0219287872314
 31
0.0
  0
LINE
  5
   224
  8
0
  6
CONTINUOUS
 62
    52
 10
106.499938964844
 20
-29.2645702362061
 30
0.0
 11
104.499938964844
 21
-31.2645702362061
 31
0.0
  0
LINE
  5
   225
  8
0
  6
CONTINUOUS
 62
    52
 10
106.499938964844
 20
-33.507209777832
 30
0.0
 11
104.499938964844
 21
-35.507209777832
 31
0.0
  0
LINE
  5
   226
  8
0
  6
CONTINUOUS
 62
    52
 10
106.499938964844
 20
-37.7498474121094
 30
0.0
 11
104.499938964844
 21
-39.7498474121094
 31
0.0
  0
LINE
  5
   227
  8
0
  6
CONTINUOUS
 62
    52
 10
106.499938964844
 20
-41.9924850463867
 30
0.0
 11
104.499938964844
 21
-43.9924850463867
 31
0.0
  0
LINE
  5
   228
  8
0
  6
CONTINUOUS
 62
    52
 10
106.499938964844
 20
-46.2351226806641
 30
0.0
 11
104.499938964844
 21
-48.2351226806641
 31
0.0
  0
LINE
  5
   229
  8
0
  6
CONTINUOUS
 62
    52
 10
106.499938964844
 20
-50.4777603149414
 30
0.0
 11
104.499938964844
 21
-52.4777603149414
 31
0.0
  0
LINE
  5
   22A
  8
0
  6
CONTINUOUS
 62
    52
 10
106.499938964844
 20
-54.7203979492188
 30
0.0
 11
104.499938964844
 21
-56.7203979492188
 31
0.0
  0
LINE
  5
   22B
  8
0
  6
CONTINUOUS
 62
    52
 10
106.499938964844
 20
-58.9630355834961
 30
0.0
 11
104.499938964844
 21
-60.9630355834961
 31
0.0
  0
LINE
  5
   22C
  8
0
  6
CONTINUOUS
 62
    52
 10
106.499938964844
 20
-63.2056732177734
 30
0.0
 11
104.499938964844
 21
-65.2056732177734
 31
0.0
  0
LINE
  5
   22D
  8
0
  6
CONTINUOUS
 62
    52
 10
106.499938964844
 20
-67.4483184814453
 30
0.0
 11
104.499938964844
 21
-69.4483184814453
 31
0.0
  0
LINE
  5
   22E
  8
0
  6
CONTINUOUS
 62
    52
 10
106.499938964844
 20
-71.6909637451172
 30
0.0
 11
104.499938964844
 21
-73.6909637451172
 31
0.0
  0
LINE
  5
   22F
  8
0
  6
CONTINUOUS
 62
    52
 10
106.499938964844
 20
-75.9336090087891
 30
0.0
 11
104.499938964844
 21
-77.9336090087891
 31
0.0
  0
LINE
  5
   230
  8
0
  6
CONTINUOUS
 62
    52
 10
106.499938964844
 20
-80.1762542724609
 30
0.0
 11
104.499938964844
 21
-82.1762542724609
 31
0.0
  0
LINE
  5
   231
  8
0
  6
CONTINUOUS
 62
    52
 10
106.499938964844
 20
-84.4188995361328
 30
0.0
 11
104.499938964844
 21
-86.4188995361328
 31
0.0
  0
LINE
  5
   232
  8
0
  6
CONTINUOUS
 62
    52
 10
106.499938964844
 20
-88.6615447998047
 30
0.0
 11
104.499938964844
 21
-90.6615447998047
 31
0.0
  0
LINE
  5
   233
  8
0
  6
CONTINUOUS
 62
    52
 10
106.499938964844
 20
-92.9041900634766
 30
0.0
 11
104.499938964844
 21
-94.9041900634766
 31
0.0
  0
LINE
  5
   234
  8
0
  6
CONTINUOUS
 62
    52
 10
106.499938964844
 20
-97.1468353271484
 30
0.0
 11
104.499938964844
 21
-99.1468353271484
 31
0.0
  0
LINE
  5
   235
  8
0
  6
CONTINUOUS
 62
    52
 10
106.499938964844
 20
-101.389457702637
 30
0.0
 11
106.065864562988
 21
-101.823524475098
 31
0.0
  0
ENDBLK
  5
   236
  8
0
  6
CONTINUOUS
 62
     7
  0
BLOCK
  5
   237
  8
0
  6
CONTINUOUS
 62
     7
  2
*HATCH178
 70
    65
 10
0.0
 20
0.0
 30
0.0
  3
*HATCH178
  0
LINE
  5
   238
  8
0
  6
CONTINUOUS
 62
     3
 10
-2.50001525878906
 20
-36.3908767700195
 30
0.0
 11
-1.39089548587799
 21
-37.5
 31
0.0
  0
LINE
  5
   239
  8
0
  6
CONTINUOUS
 62
     3
 10
-0.937715291976929
 20
-35.831859588623
 30
0.0
 11
0.730423629283905
 21
-37.5
 31
0.0
  0
LINE
  5
   23A
  8
0
  6
CONTINUOUS
 62
     3
 10
1.18360376358032
 20
-35.831859588623
 30
0.0
 11
2.8517427444458
 21
-37.5
 31
0.0
  0
LINE
  5
   23B
  8
0
  6
CONTINUOUS
 62
     3
 10
3.30492258071899
 20
-35.831859588623
 30
0.0
 11
4.97306156158447
 21
-37.5
 31
0.0
  0
LINE
  5
   23C
  8
0
  6
CONTINUOUS
 62
     3
 10
5.42624187469482
 20
-35.831859588623
 30
0.0
 11
7.0943808555603
 21
-37.5
 31
0.0
  0
LINE
  5
   23D
  8
0
  6
CONTINUOUS
 62
     3
 10
6.48690128326416
 20
-35.831859588623
 30
0.0
 11
8.1550407409668
 21
-37.5
 31
0.0
  0
LINE
  5
   23E
  8
0
  6
CONTINUOUS
 62
     3
 10
7.5475606918335
 20
-35.831859588623
 30
0.0
 11
9.21570014953613
 21
-37.5
 31
0.0
  0
LINE
  5
   23F
  8
0
  6
CONTINUOUS
 62
     3
 10
8.60822010040283
 20
-35.831859588623
 30
0.0
 11
10.2763595581055
 21
-37.5
 31
0.0
  0
LINE
  5
   240
  8
0
  6
CONTINUOUS
 62
     3
 10
9.66887950897217
 20
-35.831859588623
 30
0.0
 11
11.3370189666748
 21
-37.5
 31
0.0
  0
LINE
  5
   241
  8
0
  6
CONTINUOUS
 62
     3
 10
10.7295389175415
 20
-35.831859588623
 30
0.0
 11
16.8976726531982
 21
-42.0
 31
0.0
  0
LINE
  5
   242
  8
0
  6
CONTINUOUS
 62
     3
 10
12.8508577346802
 20
-35.831859588623
 30
0.0
 11
19.0189914703369
 21
-42.0
 31
0.0
  0
LINE
  5
   243
  8
0
  6
CONTINUOUS
 62
     3
 10
14.9721765518188
 20
-35.831859588623
 30
0.0
 11
21.1403102874756
 21
-42.0
 31
0.0
  0
LINE
  5
   244
  8
0
  6
CONTINUOUS
 62
     3
 10
17.0934963226318
 20
-35.831859588623
 30
0.0
 11
23.2616291046143
 21
-42.0
 31
0.0
  0
LINE
  5
   245
  8
0
  6
CONTINUOUS
 62
     3
 10
19.2148151397705
 20
-35.831859588623
 30
0.0
 11
25.3829479217529
 21
-42.0
 31
0.0
  0
LINE
  5
   246
  8
0
  6
CONTINUOUS
 62
     3
 10
21.3361339569092
 20
-35.831859588623
 30
0.0
 11
27.5042667388916
 21
-42.0
 31
0.0
  0
LINE
  5
   247
  8
0
  6
CONTINUOUS
 62
     3
 10
23.4574527740479
 20
-35.831859588623
 30
0.0
 11
29.6255855560303
 21
-42.0
 31
0.0
  0
LINE
  5
   248
  8
0
  6
CONTINUOUS
 62
     3
 10
25.5787715911865
 20
-35.831859588623
 30
0.0
 11
31.7469043731689
 21
-42.0
 31
0.0
  0
LINE
  5
   249
  8
0
  6
CONTINUOUS
 62
     3
 10
27.7000904083252
 20
-35.831859588623
 30
0.0
 11
33.8682250976563
 21
-42.0
 31
0.0
  0
LINE
  5
   24A
  8
0
  6
CONTINUOUS
 62
     3
 10
29.8214092254639
 20
-35.831859588623
 30
0.0
 11
35.9895477294922
 21
-42.0
 31
0.0
  0
LINE
  5
   24B
  8
0
  6
CONTINUOUS
 62
     3
 10
31.9427280426025
 20
-35.831859588623
 30
0.0
 11
38.1108703613281
 21
-42.0
 31
0.0
  0
LINE
  5
   24C
  8
0
  6
CONTINUOUS
 62
     3
 10
34.0640487670898
 20
-35.831859588623
 30
0.0
 11
40.2321929931641
 21
-42.0
 31
0.0
  0
LINE
  5
   24D
  8
0
  6
CONTINUOUS
 62
     3
 10
36.1853713989258
 20
-35.831859588623
 30
0.0
 11
42.353515625
 21
-42.0
 31
0.0
  0
LINE
  5
   24E
  8
0
  6
CONTINUOUS
 62
     3
 10
38.3066940307617
 20
-35.831859588623
 30
0.0
 11
44.4748382568359
 21
-42.0
 31
0.0
  0
LINE
  5
   24F
  8
0
  6
CONTINUOUS
 62
     3
 10
40.4280166625977
 20
-35.831859588623
 30
0.0
 11
46.5961608886719
 21
-42.0
 31
0.0
  0
LINE
  5
   250
  8
0
  6
CONTINUOUS
 62
     3
 10
42.5493392944336
 20
-35.831859588623
 30
0.0
 11
48.7174835205078
 21
-42.0
 31
0.0
  0
LINE
  5
   251
  8
0
  6
CONTINUOUS
 62
     3
 10
44.6706428527832
 20
-35.831859588623
 30
0.0
 11
50.6643218994141
 21
-41.8255462646484
 31
0.0
  0
LINE
  5
   252
  8
0
  6
CONTINUOUS
 62
     3
 10
46.7919654846191
 20
-35.831859588623
 30
0.0
 11
50.5011444091797
 21
-39.5410461425781
 31
0.0
  0
LINE
  5
   253
  8
0
  6
CONTINUOUS
 62
     3
 10
48.9132881164551
 20
-35.831859588623
 30
0.0
 11
50.3379669189453
 21
-37.2565460205078
 31
0.0
  0
ENDBLK
  5
   254
  8
0
  6
CONTINUOUS
 62
     7
  0
BLOCK
  5
   255
  8
0
  6
CONTINUOUS
 62
     7
  2
*UDIM427
 70
    65
 10
0.0
 20
0.0
 30
0.0
  3
*UDIM427
  0
TEXT
  5
   256
  8
0
  6
CONTINUOUS
 62
     7
 10
-482.283127331756
 20
-9.48542519117695
 30
0.0
 40
2.4999999335834
  1
379
 50
90.0
 41
0.933333333333333
 72
     1
 11
-483.533127298552
 21
-6.2354252775201
 31
0.0
 73
     2
  0
LINE
  5
   257
  8
0
  6
CONTINUOUS
 62
     7
 10
-515.045420699334
 20
-72.3312570453781
 30
0.0
 11
-479.28312733176
 21
-72.3312570453781
 31
0.0
  0
LINE
  5
   258
  8
0
  6
CONTINUOUS
 62
     7
 10
-542.031153176274
 20
60.3187525803311
 30
0.0
 11
-479.28312733176
 21
60.3187484500764
 31
0.0
  0
LINE
  5
   259
  8
0
  6
CONTINUOUS
 62
     7
 10
-481.28312733176
 20
-72.3312570453781
 30
0.0
 11
-481.28312733176
 21
60.3187485817222
 31
0.0
  0
LINE
  5
   25A
  8
0
  6
CONTINUOUS
 62
     7
 10
-481.804071849761
 20
-69.3768337836965
 30
0.0
 11
-481.28312733176
 21
-72.3312570453781
 31
0.0
  0
LINE
  5
   25B
  8
0
  6
CONTINUOUS
 62
     7
 10
-481.28312733176
 20
-72.3312570453781
 30
0.0
 11
-480.76218281376
 21
-69.3768337836965
 31
0.0
  0
LINE
  5
   25C
  8
0
  6
CONTINUOUS
 62
     7
 10
-480.76218281376
 20
57.3643253200406
 30
0.0
 11
-481.28312733176
 21
60.3187485817222
 31
0.0
  0
LINE
  5
   25D
  8
0
  6
CONTINUOUS
 62
     7
 10
-481.28312733176
 20
60.3187485817222
 30
0.0
 11
-481.804071849761
 21
57.3643253200406
 31
0.0
  0
ENDBLK
  5
   25E
  8
0
  6
CONTINUOUS
 62
     7
  0
BLOCK
  5
   25F
  8
0
  6
CONTINUOUS
 62
     7
  2
*UDIM428
 70
    65
 10
0.0
 20
0.0
 30
0.0
  3
*UDIM428
  0
TEXT
  5
   260
  8
0
  6
CONTINUOUS
 62
     7
 10
-554.825932548337
 20
77.6482048774494
 30
0.0
 40
2.99999997871263
  1
23
 41
0.933333333333333
 72
     1
 11
-552.325932566077
 21
79.1482048668057
 31
0.0
 73
     2
  0
LINE
  5
   261
  8
0
  6
CONTINUOUS
 62
     7
 10
-548.292185305059
 20
65.5187511394449
 30
0.0
 11
-548.292185305059
 21
78.6482048774494
 31
0.0
  0
LINE
  5
   262
  8
0
  6
CONTINUOUS
 62
     7
 10
-561.359679827094
 20
76.6482048774494
 30
0.0
 11
-543.292185305059
 21
76.6482048774494
 31
0.0
  0
LINE
  5
   263
  8
0
  6
CONTINUOUS
 62
     7
 10
-559.257457300305
 20
75.8717477210308
 30
0.0
 11
-556.359679827094
 21
76.6482048774494
 31
0.0
  0
LINE
  5
   264
  8
0
  6
CONTINUOUS
 62
     7
 10
-556.359679827094
 20
76.6482048774494
 30
0.0
 11
-559.257457300305
 21
77.4246620338679
 31
0.0
  0
LINE
  5
   265
  8
0
  6
CONTINUOUS
 62
     7
 10
-545.394407831848
 20
77.4246620338679
 30
0.0
 11
-548.292185305059
 21
76.6482048774494
 31
0.0
  0
LINE
  5
   266
  8
0
  6
CONTINUOUS
 62
     7
 10
-548.292185305059
 20
76.6482048774494
 30
0.0
 11
-545.394407831848
 21
75.8717477210308
 31
0.0
  0
ENDBLK
  5
   267
  8
0
  6
CONTINUOUS
 62
     7
  0
BLOCK
  5
   268
  8
0
  6
CONTINUOUS
 62
     7
  2
*UDIM429
 70
    65
 10
0.0
 20
0.0
 30
0.0
  3
*UDIM429
  0
TEXT
  5
   269
  8
0
  6
CONTINUOUS
 62
     7
 10
-542.759680083536
 20
86.3066318782369
 30
0.0
 40
2.99999997871263
  1
92
 41
0.933333333333333
 72
     1
 11
-540.259680101275
 21
87.8066318675933
 31
0.0
 73
     2
  0
LINE
  5
   26A
  8
0
  6
CONTINUOUS
 62
     7
 10
-556.359679827094
 20
85.3066318782369
 30
0.0
 11
-524.159680375457
 21
85.3066318782369
 31
0.0
  0
LINE
  5
   26B
  8
0
  6
CONTINUOUS
 62
     7
 10
-553.461902353884
 20
86.0830890346555
 30
0.0
 11
-556.359679827094
 21
85.3066318782369
 31
0.0
  0
LINE
  5
   26C
  8
0
  6
CONTINUOUS
 62
     7
 10
-556.359679827094
 20
85.3066318782369
 30
0.0
 11
-553.461902353884
 21
84.5301747218184
 31
0.0
  0
LINE
  5
   26D
  8
0
  6
CONTINUOUS
 62
     7
 10
-527.057457848667
 20
84.5301747218184
 30
0.0
 11
-524.159680375457
 21
85.3066318782369
 31
0.0
  0
LINE
  5
   26E
  8
0
  6
CONTINUOUS
 62
     7
 10
-524.159680375457
 20
85.3066318782369
 30
0.0
 11
-527.057457848667
 21
86.0830890346555
 31
0.0
  0
ENDBLK
  5
   26F
  8
0
  6
CONTINUOUS
 62
     7
  0
BLOCK
  5
   270
  8
0
  6
CONTINUOUS
 62
     7
  2
*UDIM430
 70
    65
 10
0.0
 20
0.0
 30
0.0
  3
*UDIM430
  0
TEXT
  5
   271
  8
0
  6
CONTINUOUS
 62
     7
 10
-545.297190930092
 20
101.771620513401
 30
0.0
 40
2.99999997871263
  1
101,5
 41
0.933333333333333
 72
     1
 11
-538.597190977633
 21
103.271620502758
 31
0.0
 73
     2
  0
LINE
  5
   272
  8
0
  6
CONTINUOUS
 62
     7
 10
-556.359679827094
 20
98.0687558837338
 30
0.0
 11
-556.359679827094
 21
102.771620513401
 31
0.0
  0
LINE
  5
   273
  8
0
  6
CONTINUOUS
 62
     7
 10
-520.834702128173
 20
57.4687343955043
 30
0.0
 11
-520.834702128173
 21
102.771620513401
 31
0.0
  0
LINE
  5
   274
  8
0
  6
CONTINUOUS
 62
     7
 10
-556.359679827094
 20
100.771620513401
 30
0.0
 11
-520.834702128173
 21
100.771620513401
 31
0.0
  0
LINE
  5
   275
  8
0
  6
CONTINUOUS
 62
     7
 10
-553.461902353884
 20
101.54807766982
 30
0.0
 11
-556.359679827094
 21
100.771620513401
 31
0.0
  0
LINE
  5
   276
  8
0
  6
CONTINUOUS
 62
     7
 10
-556.359679827094
 20
100.771620513401
 30
0.0
 11
-553.461902353884
 21
99.9951633569828
 31
0.0
  0
LINE
  5
   277
  8
0
  6
CONTINUOUS
 62
     7
 10
-523.732479601383
 20
99.9951633569828
 30
0.0
 11
-520.834702128173
 21
100.771620513401
 31
0.0
  0
LINE
  5
   278
  8
0
  6
CONTINUOUS
 62
     7
 10
-520.834702128173
 20
100.771620513401
 30
0.0
 11
-523.732479601383
 21
101.54807766982
 31
0.0
  0
ENDBLK
  5
   279
  8
0
  6
CONTINUOUS
 62
     7
  0
BLOCK
  5
   27A
  8
0
  6
CONTINUOUS
 62
     7
  2
*UDIM431
 70
    65
 10
0.0
 20
0.0
 30
0.0
  3
*UDIM431
  0
TEXT
  5
   27B
  8
0
  6
CONTINUOUS
 62
     7
 10
-540.134690990193
 20
-15.8497209471764
 30
0.0
 40
2.99999997871263
  1
115
 41
0.933333333333333
 72
     1
 11
-536.234691017867
 21
-14.3497209578201
 31
0.0
 73
     2
  0
LINE
  5
   27C
  8
0
  6
CONTINUOUS
 62
     7
 10
-556.359679827094
 20
-16.8497209471764
 30
0.0
 11
-516.109702208639
 21
-16.8497209471764
 31
0.0
  0
LINE
  5
   27D
  8
0
  6
CONTINUOUS
 62
     7
 10
-553.461902353884
 20
-16.0732637907578
 30
0.0
 11
-556.359679827094
 21
-16.8497209471764
 31
0.0
  0
LINE
  5
   27E
  8
0
  6
CONTINUOUS
 62
     7
 10
-556.359679827094
 20
-16.8497209471764
 30
0.0
 11
-553.461902353884
 21
-17.6261781035949
 31
0.0
  0
LINE
  5
   27F
  8
0
  6
CONTINUOUS
 62
     7
 10
-519.00747968185
 20
-17.6261781035949
 30
0.0
 11
-516.109702208639
 21
-16.8497209471764
 31
0.0
  0
LINE
  5
   280
  8
0
  6
CONTINUOUS
 62
     7
 10
-516.109702208639
 20
-16.8497209471764
 30
0.0
 11
-519.00747968185
 21
-16.0732637907578
 31
0.0
  0
ENDBLK
  5
   281
  8
0
  6
CONTINUOUS
 62
     7
  0
BLOCK
  5
   282
  8
0
  6
CONTINUOUS
 62
     7
  2
*UDIM432
 70
    65
 10
0.0
 20
0.0
 30
0.0
  3
*UDIM432
  0
TEXT
  5
   283
  8
0
  6
CONTINUOUS
 62
     7
 10
-566.559624422733
 20
-87.2036166016957
 30
0.0
 40
2.99999997871263
  1
3
 41
0.933333333333333
 72
     1
 11
-565.459624430538
 21
-85.7036166123394
 31
0.0
 73
     2
  0
TEXT
  5
   284
  8
0
  6
CONTINUOUS
 62
     7
 10
-570.126291106884
 20
-87.4536166242603
 30
0.0
 40
3.50000002384186
  1
_
 41
0.933333333333333
 72
     1
 11
-568.842957764808
 21
-85.7036166123394
 31
0.0
 73
     2
  0
LINE
  5
   285
  8
0
  6
CONTINUOUS
 62
     7
 10
-557.934685474634
 20
-82.9017892280604
 30
0.0
 11
-557.934685474634
 21
-90.2036166016957
 31
0.0
  0
LINE
  5
   286
  8
0
  6
CONTINUOUS
 62
     7
 10
-570.126291106884
 20
-88.2036166016957
 30
0.0
 11
-556.884679818153
 21
-88.2036166016957
 31
0.0
  0
LINE
  5
   287
  8
0
  6
CONTINUOUS
 62
     7
 10
-560.832462947845
 20
-88.9800737581142
 30
0.0
 11
-557.934685474634
 21
-88.2036166016957
 31
0.0
  0
LINE
  5
   288
  8
0
  6
CONTINUOUS
 62
     7
 10
-557.934685474634
 20
-88.2036166016957
 30
0.0
 11
-560.832462947845
 21
-87.4271594452772
 31
0.0
  0
CIRCLE
  5
   289
  8
0
  6
CONTINUOUS
 62
     7
 10
-556.884679818153
 20
-88.2036166016957
 30
0.0
 40
0.5
  0
ENDBLK
  5
   28A
  8
0
  6
CONTINUOUS
 62
     7
  0
BLOCK
  5
   28B
  8
0
  6
CONTINUOUS
 62
     7
  2
*UDIM433
 70
    65
 10
0.0
 20
0.0
 30
0.0
  3
*UDIM433
  0
TEXT
  5
   28C
  8
0
  6
CONTINUOUS
 62
     7
 10
-545.209757494074
 20
-87.2036166016957
 30
0.0
 40
2.99999997871263
  1
1,5
 41
0.933333333333333
 72
     1
 11
-541.309757521747
 21
-85.7036166123394
 31
0.0
 73
     2
  0
LINE
  5
   28D
  8
0
  6
CONTINUOUS
 62
     7
 10
-556.884679818153
 20
-88.2036166016957
 30
0.0
 11
-537.409757549421
 21
-88.2036166016957
 31
0.0
  0
CIRCLE
  5
   28E
  8
0
  6
CONTINUOUS
 62
     7
 10
-556.884679818153
 20
-88.2036166016957
 30
0.0
 40
0.5
  0
LINE
  5
   28F
  8
0
  6
CONTINUOUS
 62
     7
 10
-553.461902353884
 20
-87.4271594452772
 30
0.0
 11
-556.359679827094
 21
-88.2036166016957
 31
0.0
  0
LINE
  5
   290
  8
0
  6
CONTINUOUS
 62
     7
 10
-556.359679827094
 20
-88.2036166016957
 30
0.0
 11
-553.461902353884
 21
-88.9800737581142
 31
0.0
  0
ENDBLK
  5
   291
  8
0
  6
CONTINUOUS
 62
     7
  0
BLOCK
  5
   292
  8
0
  6
CONTINUOUS
 62
     7
  2
*UDIM434
 70
    65
 10
0.0
 20
0.0
 30
0.0
  3
*UDIM434
  0
TEXT
  5
   293
  8
0
  6
CONTINUOUS
 62
     7
 10
-567.392574060822
 20
-97.6794894785493
 30
0.0
 40
2.99999997871263
  1
14
 41
0.933333333333333
 72
     1
 11
-564.892574078562
 21
-96.179489489193
 31
0.0
 73
     2
  0
LINE
  5
   294
  8
0
  6
CONTINUOUS
 62
     7
 10
-551.459685584903
 20
-77.7062403454099
 30
0.0
 11
-551.459685584903
 21
-100.679489478549
 31
0.0
  0
LINE
  5
   295
  8
0
  6
CONTINUOUS
 62
     7
 10
-567.392574060822
 20
-98.6794894785493
 30
0.0
 11
-551.459685584903
 21
-98.6794894785493
 31
0.0
  0
LINE
  5
   296
  8
0
  6
CONTINUOUS
 62
     7
 10
-559.257457300305
 20
-99.4559466349679
 30
0.0
 11
-556.359679827094
 21
-98.6794894785493
 31
0.0
  0
LINE
  5
   297
  8
0
  6
CONTINUOUS
 62
     7
 10
-556.359679827094
 20
-98.6794894785493
 30
0.0
 11
-559.257457300305
 21
-97.9030323221308
 31
0.0
  0
CIRCLE
  5
   298
  8
0
  6
CONTINUOUS
 62
     7
 10
-551.459685584903
 20
-98.6794894785493
 30
0.0
 40
0.5
  0
ENDBLK
  5
   299
  8
0
  6
CONTINUOUS
 62
     7
  0
BLOCK
  5
   29A
  8
0
  6
CONTINUOUS
 62
     7
  2
*UDIM435
 70
    65
 10
0.0
 20
0.0
 30
0.0
  3
*UDIM435
  0
TEXT
  5
   29B
  8
0
  6
CONTINUOUS
 62
     7
 10
-542.612640324894
 20
-97.6794894785493
 30
0.0
 40
2.99999997871263
  1
9
 41
0.933333333333333
 72
     1
 11
-541.512640332699
 21
-96.179489489193
 31
0.0
 73
     2
  0
LINE
  5
   29C
  8
0
  6
CONTINUOUS
 62
     7
 10
-548.309685638547
 20
-77.531247317791
 30
0.0
 11
-548.309685638547
 21
-100.679489478549
 31
0.0
  0
LINE
  5
   29D
  8
0
  6
CONTINUOUS
 62
     7
 10
-551.459685584903
 20
-98.6794894785493
 30
0.0
 11
-540.412640340505
 21
-98.6794894785493
 31
0.0
  0
CIRCLE
  5
   29E
  8
0
  6
CONTINUOUS
 62
     7
 10
-551.459685584903
 20
-98.6794894785493
 30
0.0
 40
0.5
  0
LINE
  5
   29F
  8
0
  6
CONTINUOUS
 62
     7
 10
-545.411908165336
 20
-97.9030323221308
 30
0.0
 11
-548.309685638547
 21
-98.6794894785493
 31
0.0
  0
LINE
  5
   2A0
  8
0
  6
CONTINUOUS
 62
     7
 10
-548.309685638547
 20
-98.6794894785493
 30
0.0
 11
-545.411908165336
 21
-99.4559466349679
 31
0.0
  0
ENDBLK
  5
   2A1
  8
0
  6
CONTINUOUS
 62
     7
  0
BLOCK
  5
   2A2
  8
0
  6
CONTINUOUS
 62
     7
  2
*UDIM436
 70
    65
 10
0.0
 20
0.0
 30
0.0
  3
*UDIM436
  0
TEXT
  5
   2A3
  8
0
  6
CONTINUOUS
 62
     7
 10
-541.559685668349
 20
-105.727246564924
 30
0.0
 40
2.99999997871263
  1
5
 41
0.933333333333333
 72
     1
 11
-540.459685676155
 21
-104.227246575567
 31
0.0
 73
     2
  0
TEXT
  5
   2A4
  8
0
  6
CONTINUOUS
 62
     7
 10
-538.35968568396
 20
-105.977246587488
 30
0.0
 40
3.50000002384186
  1
 min
 41
0.933333333333333
 72
     1
 11
-532.176352308506
 21
-104.227246575567
 31
0.0
 73
     2
  0
LINE
  5
   2A5
  8
0
  6
CONTINUOUS
 62
     7
 10
-548.309685638547
 20
-77.531247317791
 30
0.0
 11
-548.309685638547
 21
-108.727246564924
 31
0.0
  0
LINE
  5
   2A6
  8
0
  6
CONTINUOUS
 62
     7
 10
-546.559685668349
 20
-75.7812482021222
 30
0.0
 11
-546.559685668349
 21
-108.727246564924
 31
0.0
  0
LINE
  5
   2A7
  8
0
  6
CONTINUOUS
 62
     7
 10
-553.309685638547
 20
-106.727246564924
 30
0.0
 11
-525.993018933052
 21
-106.727246564924
 31
0.0
  0
LINE
  5
   2A8
  8
0
  6
CONTINUOUS
 62
     7
 10
-551.207463111757
 20
-107.503703721342
 30
0.0
 11
-548.309685638547
 21
-106.727246564924
 31
0.0
  0
LINE
  5
   2A9
  8
0
  6
CONTINUOUS
 62
     7
 10
-548.309685638547
 20
-106.727246564924
 30
0.0
 11
-551.207463111757
 21
-105.950789408505
 31
0.0
  0
LINE
  5
   2AA
  8
0
  6
CONTINUOUS
 62
     7
 10
-543.661908195139
 20
-105.950789408505
 30
0.0
 11
-546.559685668349
 21
-106.727246564924
 31
0.0
  0
LINE
  5
   2AB
  8
0
  6
CONTINUOUS
 62
     7
 10
-546.559685668349
 20
-106.727246564924
 30
0.0
 11
-543.661908195139
 21
-107.503703721342
 31
0.0
  0
ENDBLK
  5
   2AC
  8
0
  6
CONTINUOUS
 62
     7
  0
BLOCK
  5
   2AD
  8
0
  6
CONTINUOUS
 62
     7
  2
*UDIM437
 70
    65
 10
0.0
 20
0.0
 30
0.0
  3
*UDIM437
  0
TEXT
  5
   2AE
  8
0
  6
CONTINUOUS
 62
     7
 10
-545.573673555159
 20
-116.871972502965
 30
0.0
 40
2.99999997871263
  1
103,5
 41
0.933333333333333
 72
     1
 11
-538.873673602701
 21
-115.371972513609
 31
0.0
 73
     2
  0
LINE
  5
   2AF
  8
0
  6
CONTINUOUS
 62
     7
 10
-556.359679827094
 20
-110.081252921382
 30
0.0
 11
-556.359679827094
 21
-119.871972502965
 31
0.0
  0
LINE
  5
   2B0
  8
0
  6
CONTINUOUS
 62
     7
 10
-520.134702140094
 20
-46.4687585279344
 30
0.0
 11
-520.134702140094
 21
-119.871972502965
 31
0.0
  0
LINE
  5
   2B1
  8
0
  6
CONTINUOUS
 62
     7
 10
-556.359679827094
 20
-117.871972502965
 30
0.0
 11
-520.134702140094
 21
-117.871972502965
 31
0.0
  0
LINE
  5
   2B2
  8
0
  6
CONTINUOUS
 62
     7
 10
-553.461902353884
 20
-117.095515346547
 30
0.0
 11
-556.359679827094
 21
-117.871972502965
 31
0.0
  0
LINE
  5
   2B3
  8
0
  6
CONTINUOUS
 62
     7
 10
-556.359679827094
 20
-117.871972502965
 30
0.0
 11
-553.461902353884
 21
-118.648429659384
 31
0.0
  0
LINE
  5
   2B4
  8
0
  6
CONTINUOUS
 62
     7
 10
-523.032479613304
 20
-118.648429659384
 30
0.0
 11
-520.134702140094
 21
-117.871972502965
 31
0.0
  0
LINE
  5
   2B5
  8
0
  6
CONTINUOUS
 62
     7
 10
-520.134702140094
 20
-117.871972502965
 30
0.0
 11
-523.032479613304
 21
-117.095515346547
 31
0.0
  0
ENDBLK
  5
   2B6
  8
0
  6
CONTINUOUS
 62
     7
  0
BLOCK
  5
   2B7
  8
0
  6
CONTINUOUS
 62
     7
  2
*UDIM438
 70
    65
 10
0.0
 20
0.0
 30
0.0
  3
*UDIM438
  0
TEXT
  5
   2B8
  8
0
  6
CONTINUOUS
 62
     7
 10
-541.534690966351
 20
-123.742009040114
 30
0.0
 40
2.99999997871263
  1
107
 41
0.933333333333333
 72
     1
 11
-537.634690994025
 21
-122.242009050758
 31
0.0
 73
     2
  0
LINE
  5
   2B9
  8
0
  6
CONTINUOUS
 62
     7
 10
-556.359679827094
 20
-110.081252921382
 30
0.0
 11
-556.359679827094
 21
-126.742009040114
 31
0.0
  0
LINE
  5
   2BA
  8
0
  6
CONTINUOUS
 62
     7
 10
-518.909702160955
 20
-90.2288053879615
 30
0.0
 11
-518.909702160955
 21
-126.742009040114
 31
0.0
  0
LINE
  5
   2BB
  8
0
  6
CONTINUOUS
 62
     7
 10
-556.359679827094
 20
-124.742009040114
 30
0.0
 11
-518.909702160955
 21
-124.742009040114
 31
0.0
  0
LINE
  5
   2BC
  8
0
  6
CONTINUOUS
 62
     7
 10
-553.461902353884
 20
-123.965551883696
 30
0.0
 11
-556.359679827094
 21
-124.742009040114
 31
0.0
  0
LINE
  5
   2BD
  8
0
  6
CONTINUOUS
 62
     7
 10
-556.359679827094
 20
-124.742009040114
 30
0.0
 11
-553.461902353884
 21
-125.518466196533
 31
0.0
  0
CIRCLE
  5
   2BE
  8
0
  6
CONTINUOUS
 62
     7
 10
-518.909702160955
 20
-124.742009040114
 30
0.0
 40
0.500000000000001
  0
ENDBLK
  5
   2BF
  8
0
  6
CONTINUOUS
 62
     7
  0
BLOCK
  5
   2C0
  8
0
  6
CONTINUOUS
 62
     7
  2
*UDIM439
 70
    65
 10
0.0
 20
0.0
 30
0.0
  3
*UDIM439
  0
TEXT
  5
   2C1
  8
0
  6
CONTINUOUS
 62
     7
 10
-511.599332232596
 20
-123.742009040114
 30
0.0
 40
2.99999997871263
  1
2
 41
0.933333333333333
 72
     1
 11
-510.499332240401
 21
-122.242009050758
 31
0.0
 73
     2
  0
LINE
  5
   2C2
  8
0
  6
CONTINUOUS
 62
     7
 10
-518.209702172876
 20
-90.0253170193338
 30
0.0
 11
-518.209702172876
 21
-126.742009040114
 31
0.0
  0
LINE
  5
   2C3
  8
0
  6
CONTINUOUS
 62
     7
 10
-518.909702160955
 20
-124.742009040114
 30
0.0
 11
-509.399332248207
 21
-124.742009040114
 31
0.0
  0
CIRCLE
  5
   2C4
  8
0
  6
CONTINUOUS
 62
     7
 10
-518.909702160955
 20
-124.742009040114
 30
0.0
 40
0.500000000000001
  0
LINE
  5
   2C5
  8
0
  6
CONTINUOUS
 62
     7
 10
-515.311924699666
 20
-123.965551883696
 30
0.0
 11
-518.209702172876
 21
-124.742009040114
 31
0.0
  0
LINE
  5
   2C6
  8
0
  6
CONTINUOUS
 62
     7
 10
-518.209702172876
 20
-124.742009040114
 30
0.0
 11
-515.311924699666
 21
-125.518466196533
 31
0.0
  0
ENDBLK
  5
   2C7
  8
0
  6
CONTINUOUS
 62
     7
  0
BLOCK
  5
   2C8
  8
0
  6
CONTINUOUS
 62
     7
  2
*UDIM440
 70
    65
 10
0.0
 20
0.0
 30
0.0
  3
*UDIM440
  0
TEXT
  5
   2C9
  8
0
  6
CONTINUOUS
 62
     7
 10
-532.435110786737
 20
-131.789766126488
 30
0.0
 40
2.99999997871263
  1
159
 41
0.933333333333333
 72
     1
 11
-528.535110814411
 21
-130.289766137132
 31
0.0
 73
     2
  0
LINE
  5
   2CA
  8
0
  6
CONTINUOUS
 62
     7
 10
-556.359679827094
 20
-110.081252921382
 30
0.0
 11
-556.359679827094
 21
-134.789766126488
 31
0.0
  0
LINE
  5
   2CB
  8
0
  6
CONTINUOUS
 62
     7
 10
-500.710541801727
 20
-38.1782713724078
 30
0.0
 11
-500.710541801727
 21
-134.789766126488
 31
0.0
  0
LINE
  5
   2CC
  8
0
  6
CONTINUOUS
 62
     7
 10
-556.359679827094
 20
-132.789766126488
 30
0.0
 11
-500.710541801727
 21
-132.789766126488
 31
0.0
  0
LINE
  5
   2CD
  8
0
  6
CONTINUOUS
 62
     7
 10
-553.461902353884
 20
-132.01330897007
 30
0.0
 11
-556.359679827094
 21
-132.789766126488
 31
0.0
  0
LINE
  5
   2CE
  8
0
  6
CONTINUOUS
 62
     7
 10
-556.359679827094
 20
-132.789766126488
 30
0.0
 11
-553.461902353884
 21
-133.566223282907
 31
0.0
  0
LINE
  5
   2CF
  8
0
  6
CONTINUOUS
 62
     7
 10
-503.608319274937
 20
-133.566223282907
 30
0.0
 11
-500.710541801727
 21
-132.789766126488
 31
0.0
  0
LINE
  5
   2D0
  8
0
  6
CONTINUOUS
 62
     7
 10
-500.710541801727
 20
-132.789766126488
 30
0.0
 11
-503.608319274937
 21
-132.01330897007
 31
0.0
  0
ENDBLK
  5
   2D1
  8
0
  6
CONTINUOUS
 62
     7
  0
BLOCK
  5
   2D2
  8
0
  6
CONTINUOUS
 62
     7
  2
*UDIM441
 70
    65
 10
0.0
 20
0.0
 30
0.0
  3
*UDIM441
  0
TEXT
  5
   2D3
  8
0
  6
CONTINUOUS
 62
     7
 10
-509.873253662437
 20
47.5937539501012
 30
0.0
 40
2.99999997871263
  1
12
 50
90.0
 41
0.933333333333333
 72
     1
 11
-511.373253651797
 21
50.0937539323598
 31
0.0
 73
     2
  0
LINE
  5
   2D4
  8
0
  6
CONTINUOUS
 62
     7
 10
-534.895288471322
 20
56.118750423193
 30
0.0
 11
-506.87325366244
 21
56.118750423193
 31
0.0
  0
LINE
  5
   2D5
  8
0
  6
CONTINUOUS
 62
     7
 10
-542.031153176274
 20
60.3187525271645
 30
0.0
 11
-506.87325366244
 21
60.3187483437432
 31
0.0
  0
LINE
  5
   2D6
  8
0
  6
CONTINUOUS
 62
     7
 10
-508.87325366244
 20
47.5937539500993
 30
0.0
 11
-508.87325366244
 21
60.3187485817222
 31
0.0
  0
LINE
  5
   2D7
  8
0
  6
CONTINUOUS
 62
     7
 10
-508.352309232489
 20
53.164327145986
 30
0.0
 11
-508.87325366244
 21
56.118750423193
 31
0.0
  0
LINE
  5
   2D8
  8
0
  6
CONTINUOUS
 62
     7
 10
-508.87325366244
 20
56.118750423193
 30
0.0
 11
-509.394198092392
 21
53.164327145986
 31
0.0
  0
LINE
  5
   2D9
  8
0
  6
CONTINUOUS
 62
     7
 10
-509.394198092392
 20
63.2731718589291
 30
0.0
 11
-508.87325366244
 21
60.3187485817222
 31
0.0
  0
LINE
  5
   2DA
  8
0
  6
CONTINUOUS
 62
     7
 10
-508.87325366244
 20
60.3187485817222
 30
0.0
 11
-508.352309232489
 21
63.2731718589291
 31
0.0
  0
ENDBLK
  5
   2DB
  8
0
  6
CONTINUOUS
 62
     7
  0
BLOCK
  5
   2DC
  8
0
  6
CONTINUOUS
 62
     7
  2
*UDIM442
 70
    65
 10
0.0
 20
0.0
 30
0.0
  3
*UDIM442
  0
TEXT
  5
   2DD
  8
0
  6
CONTINUOUS
 62
     7
 10
-505.943593695176
 20
-86.4062571503144
 30
0.0
 40
2.99999997871263
  1
16,5
 50
90.0
 41
0.933333333333333
 72
     1
 11
-507.443593684539
 21
-81.106257187924
 31
0.0
 73
     2
  0
LINE
  5
   2DE
  8
0
  6
CONTINUOUS
 62
     7
 10
-515.045420699335
 20
-72.3312559404532
 30
0.0
 11
-502.943593695183
 21
-72.3312425688428
 31
0.0
  0
LINE
  5
   2DF
  8
0
  6
CONTINUOUS
 62
     7
 10
-550.459685584903
 20
-66.5562474876642
 30
0.0
 11
-502.943593695182
 21
-66.5562474876642
 31
0.0
  0
LINE
  5
   2E0
  8
0
  6
CONTINUOUS
 62
     7
 10
-504.943593695182
 20
-86.4062571503163
 30
0.0
 11
-504.943593695182
 21
-66.5562474876642
 31
0.0
  0
LINE
  5
   2E1
  8
0
  6
CONTINUOUS
 62
     7
 10
-504.422649265231
 20
-75.2856680558996
 30
0.0
 11
-504.943593695182
 21
-72.3312447786927
 31
0.0
  0
LINE
  5
   2E2
  8
0
  6
CONTINUOUS
 62
     7
 10
-504.943593695182
 20
-72.3312447786927
 30
0.0
 11
-505.464538125134
 21
-75.2856680558996
 31
0.0
  0
LINE
  5
   2E3
  8
0
  6
CONTINUOUS
 62
     7
 10
-505.464538125134
 20
-63.6018242104573
 30
0.0
 11
-504.943593695182
 21
-66.5562474876642
 31
0.0
  0
LINE
  5
   2E4
  8
0
  6
CONTINUOUS
 62
     7
 10
-504.943593695182
 20
-66.5562474876642
 30
0.0
 11
-504.422649265231
 21
-63.6018242104573
 31
0.0
  0
ENDBLK
  5
   2E5
  8
0
  6
CONTINUOUS
 62
     7
  0
BLOCK
  5
   2E6
  8
0
  6
CONTINUOUS
 62
     7
  2
*UDIM443
 70
    65
 10
0.0
 20
0.0
 30
0.0
  3
*UDIM443
  0
TEXT
  5
   2E7
  8
0
  6
CONTINUOUS
 62
     7
 10
-511.838080975778
 20
-80.856257693852
 30
0.0
 40
2.99999997871263
  1
12
 50
90.0
 41
0.933333333333333
 72
     1
 11
-513.338080965138
 21
-78.3562577115934
 31
0.0
 73
     2
  0
LINE
  5
   2E8
  8
0
  6
CONTINUOUS
 62
     7
 10
-515.045420699337
 20
-72.3312546897251
 30
0.0
 11
-508.838080975787
 21
-72.3312400673867
 31
0.0
  0
LINE
  5
   2E9
  8
0
  6
CONTINUOUS
 62
     7
 10
-536.747805841035
 20
-68.1312474608421
 30
0.0
 11
-508.838080975781
 21
-68.1312474608421
 31
0.0
  0
LINE
  5
   2EA
  8
0
  6
CONTINUOUS
 62
     7
 10
-510.838080975781
 20
-80.8562576938539
 30
0.0
 11
-510.838080975781
 21
-68.1312474608421
 31
0.0
  0
LINE
  5
   2EB
  8
0
  6
CONTINUOUS
 62
     7
 10
-510.31713654583
 20
-75.2856680558996
 30
0.0
 11
-510.838080975781
 21
-72.3312447786927
 31
0.0
  0
LINE
  5
   2EC
  8
0
  6
CONTINUOUS
 62
     7
 10
-510.838080975781
 20
-72.3312447786927
 30
0.0
 11
-511.359025405733
 21
-75.2856680558996
 31
0.0
  0
LINE
  5
   2ED
  8
0
  6
CONTINUOUS
 62
     7
 10
-511.359025405733
 20
-65.1768241836352
 30
0.0
 11
-510.838080975781
 21
-68.1312474608421
 31
0.0
  0
LINE
  5
   2EE
  8
0
  6
CONTINUOUS
 62
     7
 10
-510.838080975781
 20
-68.1312474608421
 30
0.0
 11
-510.31713654583
 21
-65.1768241836352
 31
0.0
  0
ENDBLK
  5
   2EF
  8
0
  6
CONTINUOUS
 62
     7
  0
BLOCK
  5
   2F0
  8
0
  6
CONTINUOUS
 62
     7
  2
*UDIM444
 70
    65
 10
0.0
 20
0.0
 30
0.0
  3
*UDIM444
  0
TEXT
  5
   2F1
  8
0
  6
CONTINUOUS
 62
     7
 10
-489.254581833388
 20
-58.0875248563351
 30
0.0
 40
2.99999997871263
  1
129,25
 50
90.0
 41
0.933333333333333
 72
     1
 11
-490.754581822755
 21
-49.9875249138129
 31
0.0
 73
     2
  0
LINE
  5
   2F2
  8
0
  6
CONTINUOUS
 62
     7
 10
-515.045420699334
 20
-72.331256603985
 30
0.0
 11
-486.254581833399
 21
-72.3312438959064
 31
0.0
  0
LINE
  5
   2F3
  8
0
  6
CONTINUOUS
 62
     7
 10
-488.254581833398
 20
-72.3312447786927
 30
0.0
 11
-488.254581833398
 21
-27.0937641814348
 31
0.0
  0
LINE
  5
   2F4
  8
0
  6
CONTINUOUS
 62
     7
 10
-488.77552626335
 20
-69.3768215014857
 30
0.0
 11
-488.254581833398
 21
-72.3312447786927
 31
0.0
  0
LINE
  5
   2F5
  8
0
  6
CONTINUOUS
 62
     7
 10
-488.254581833398
 20
-72.3312447786927
 30
0.0
 11
-487.733637403447
 21
-69.3768215014857
 31
0.0
  0
LINE
  5
   2F6
  8
0
  6
CONTINUOUS
 62
     7
 10
-487.733637403447
 20
-30.0481874586418
 30
0.0
 11
-488.254581833398
 21
-27.0937641814348
 31
0.0
  0
LINE
  5
   2F7
  8
0
  6
CONTINUOUS
 62
     7
 10
-488.254581833398
 20
-27.0937641814348
 30
0.0
 11
-488.77552626335
 21
-30.0481874586418
 31
0.0
  0
ENDBLK
  5
   2F8
  8
0
  6
CONTINUOUS
 62
     7
  0
BLOCK
  5
   2F9
  8
0
  6
CONTINUOUS
 62
     7
  2
*UDIM445
 70
    65
 10
0.0
 20
0.0
 30
0.0
  3
*UDIM445
  0
TEXT
  5
   2FA
  8
0
  6
CONTINUOUS
 62
     7
 10
-494.711422255601
 20
-31.2687610219904
 30
0.0
 40
2.99999997871263
  1
105
 50
90.0
 41
0.933333333333333
 72
     1
 11
-496.211422244962
 21
-27.3687610496658
 31
0.0
 73
     2
  0
LINE
  5
   2FB
  8
0
  6
CONTINUOUS
 62
     7
 10
-517.909702160956
 20
-45.4687588571117
 30
0.0
 11
-491.711422255606
 21
-45.4687674809921
 31
0.0
  0
LINE
  5
   2FC
  8
0
  6
CONTINUOUS
 62
     7
 10
-517.909702160956
 20
-8.7187648082757
 30
0.0
 11
-491.711422255606
 21
-8.71877303234734
 31
0.0
  0
LINE
  5
   2FD
  8
0
  6
CONTINUOUS
 62
     7
 10
-493.711422255606
 20
-45.4687668226374
 30
0.0
 11
-493.711422255606
 21
-8.71877240451438
 31
0.0
  0
LINE
  5
   2FE
  8
0
  6
CONTINUOUS
 62
     7
 10
-494.232366685557
 20
-42.5143435454304
 30
0.0
 11
-493.711422255606
 21
-45.4687668226374
 31
0.0
  0
LINE
  5
   2FF
  8
0
  6
CONTINUOUS
 62
     7
 10
-493.711422255606
 20
-45.4687668226374
 30
0.0
 11
-493.190477825654
 21
-42.5143435454304
 31
0.0
  0
LINE
  5
   300
  8
0
  6
CONTINUOUS
 62
     7
 10
-493.190477825654
 20
-11.6731956817213
 30
0.0
 11
-493.711422255606
 21
-8.71877240451438
 31
0.0
  0
LINE
  5
   301
  8
0
  6
CONTINUOUS
 62
     7
 10
-493.711422255606
 20
-8.71877240451438
 30
0.0
 11
-494.232366685557
 21
-11.6731956817213
 31
0.0
  0
ENDBLK
  5
   302
  8
0
  6
CONTINUOUS
 62
     7
  0
BLOCK
  5
   303
  8
0
  6
CONTINUOUS
 62
     7
  2
*UDIM446
 70
    65
 10
0.0
 20
0.0
 30
0.0
  3
*UDIM446
  0
TEXT
  5
   304
  8
0
  6
CONTINUOUS
 62
     7
 10
-616.769974012386
 20
-163.471694738001
 30
0.0
 40
2.99999994933605
  1
109,75
 50
449.999999896069
 41
0.933333333333333
 72
     1
 11
-618.269973972412
 21
-155.371694872083
 31
0.0
 73
     2
  0
LINE
  5
   305
  8
0
  6
CONTINUOUS
 62
     7
 10
-610.036373649519
 20
-144.65160792321
 30
0.0
 11
-617.769973997744
 21
-144.65160792321
 31
0.0
  0
LINE
  5
   306
  8
0
  6
CONTINUOUS
 62
     7
 10
-615.769973997744
 20
-144.65160792321
 30
0.0
 11
-615.769973997744
 21
-166.60160825029
 31
0.0
  0
LINE
  5
   307
  8
0
  6
CONTINUOUS
 62
     7
 10
-615.249029567792
 20
-147.606031200417
 30
0.0
 11
-615.769973997744
 21
-144.65160792321
 31
0.0
  0
LINE
  5
   308
  8
0
  6
CONTINUOUS
 62
     7
 10
-615.769973997744
 20
-144.65160792321
 30
0.0
 11
-616.290918427695
 21
-147.606031200417
 31
0.0
  0
LINE
  5
   309
  8
0
  6
CONTINUOUS
 62
     7
 10
-616.290918427695
 20
-163.647184973083
 30
0.0
 11
-615.769973997744
 21
-166.60160825029
 31
0.0
  0
LINE
  5
   30A
  8
0
  6
CONTINUOUS
 62
     7
 10
-615.769973997744
 20
-166.60160825029
 30
0.0
 11
-615.249029567792
 21
-163.647184973083
 31
0.0
  0
ENDBLK
  5
   30B
  8
0
  6
CONTINUOUS
 62
     7
  0
BLOCK
  5
   30C
  8
0
  6
CONTINUOUS
 62
     7
  2
*UDIM447
 70
    65
 10
0.0
 20
0.0
 30
0.0
  3
*UDIM447
  0
TEXT
  5
   30D
  8
0
  6
CONTINUOUS
 62
     7
 10
-616.769974012386
 20
-187.701608429133
 30
0.0
 40
2.99999994933605
  1
127,25
 50
449.999999896069
 41
0.933333333333333
 72
     1
 11
-618.269973972412
 21
-179.601608563215
 31
0.0
 73
     2
  0
LINE
  5
   30E
  8
0
  6
CONTINUOUS
 62
     7
 10
-610.174295544337
 20
-192.051608629525
 30
0.0
 11
-617.769973997744
 21
-192.051608629525
 31
0.0
  0
LINE
  5
   30F
  8
0
  6
CONTINUOUS
 62
     7
 10
-615.769973997744
 20
-166.60160825029
 30
0.0
 11
-615.769973997744
 21
-192.051608629525
 31
0.0
  0
LINE
  5
   310
  8
0
  6
CONTINUOUS
 62
     7
 10
-615.249029567792
 20
-169.556031527497
 30
0.0
 11
-615.769973997744
 21
-166.60160825029
 31
0.0
  0
LINE
  5
   311
  8
0
  6
CONTINUOUS
 62
     7
 10
-615.769973997744
 20
-166.60160825029
 30
0.0
 11
-616.290918427695
 21
-169.556031527497
 31
0.0
  0
LINE
  5
   312
  8
0
  6
CONTINUOUS
 62
     7
 10
-616.290918427695
 20
-189.097185352318
 30
0.0
 11
-615.769973997744
 21
-192.051608629525
 31
0.0
  0
LINE
  5
   313
  8
0
  6
CONTINUOUS
 62
     7
 10
-615.769973997744
 20
-192.051608629525
 30
0.0
 11
-615.249029567792
 21
-189.097185352318
 31
0.0
  0
ENDBLK
  5
   314
  8
0
  6
CONTINUOUS
 62
     7
  0
BLOCK
  5
   315
  8
0
  6
CONTINUOUS
 62
     7
  2
*UDIM448
 70
    65
 10
0.0
 20
0.0
 30
0.0
  3
*UDIM448
  0
TEXT
  5
   316
  8
0
  6
CONTINUOUS
 62
     7
 10
-622.006070274224
 20
-158.726608059361
 30
0.0
 40
2.99999994933605
  1
375
 50
449.999999896069
 41
0.933333333333333
 72
     1
 11
-623.506070241842
 21
-154.826608122513
 31
0.0
 73
     2
  0
LINE
  5
   317
  8
0
  6
CONTINUOUS
 62
     7
 10
-610.036373649519
 20
-117.051607511938
 30
0.0
 11
-623.006070267174
 21
-117.051607511938
 31
0.0
  0
LINE
  5
   318
  8
0
  6
CONTINUOUS
 62
     7
 10
-610.174295544337
 20
-192.051608629525
 30
0.0
 11
-623.006070267174
 21
-192.051608629525
 31
0.0
  0
LINE
  5
   319
  8
0
  6
CONTINUOUS
 62
     7
 10
-621.006070267174
 20
-117.051607511938
 30
0.0
 11
-621.006070267174
 21
-192.051608629525
 31
0.0
  0
LINE
  5
   31A
  8
0
  6
CONTINUOUS
 62
     7
 10
-620.485125837222
 20
-120.006030789145
 30
0.0
 11
-621.006070267174
 21
-117.051607511938
 31
0.0
  0
LINE
  5
   31B
  8
0
  6
CONTINUOUS
 62
     7
 10
-621.006070267174
 20
-117.051607511938
 30
0.0
 11
-621.527014697126
 21
-120.006030789145
 31
0.0
  0
LINE
  5
   31C
  8
0
  6
CONTINUOUS
 62
     7
 10
-621.527014697126
 20
-189.097185352318
 30
0.0
 11
-621.006070267174
 21
-192.051608629525
 31
0.0
  0
LINE
  5
   31D
  8
0
  6
CONTINUOUS
 62
     7
 10
-621.006070267174
 20
-192.051608629525
 30
0.0
 11
-620.485125837222
 21
-189.097185352318
 31
0.0
  0
ENDBLK
  5
   31E
  8
0
  6
CONTINUOUS
 62
     7
  0
BLOCK
  5
   31F
  8
0
  6
CONTINUOUS
 62
     7
  2
*UDIM449
 70
    65
 10
0.0
 20
0.0
 30
0.0
  3
*UDIM449
  0
TEXT
  5
   320
  8
0
  6
CONTINUOUS
 62
     7
 10
-601.928737963664
 20
-189.211491186881
 30
0.0
 40
2.99999994933605
  1
5,5
 50
381.254468391328
 41
0.933333333333333
 72
     1
 11
-598.837783657732
 21
-186.399730014784
 31
0.0
 73
     2
  0
TEXT
  5
   321
  8
0
  6
CONTINUOUS
 62
     7
 10
-604.864473655847
 20
-190.353399955774
 30
0.0
 40
2.99999994933605
  1
Ø
 50
381.254468391328
 41
0.933333333333333
 72
     1
 11
-604.383062187463
 21
-188.556668790229
 31
0.0
 73
     2
  0
TEXT
  5
   322
  8
0
  6
CONTINUOUS
 62
     7
 10
-594.146708417806
 20
-186.184526676576
 30
0.0
 40
2.99999994933605
  1
 - M5
 50
381.254468391328
 41
0.933333333333333
 72
     1
 11
-588.446211274326
 21
-182.357735497928
 31
0.0
 73
     2
  0
LINE
  5
   323
  8
0
  6
CONTINUOUS
 62
     7
 10
-581.295671258401
 20
-182.258862661441
 30
0.0
 11
-606.984451684872
 21
-192.250989530934
 31
0.0
  0
LINE
  5
   324
  8
0
  6
CONTINUOUS
 62
     7
 10
-603.394659828481
 20
-190.295708024205
 30
0.0
 11
-605.959274109682
 21
-191.852227728116
 31
0.0
  0
LINE
  5
   325
  8
0
  6
CONTINUOUS
 62
     7
 10
-605.959274109682
 20
-191.852227728116
 30
0.0
 11
-603.016963943098
 21
-191.266727187021
 31
0.0
  0
LINE
  5
   326
  8
0
  6
CONTINUOUS
 62
     7
 10
-609.549065966073
 20
-193.807509234844
 30
0.0
 11
-606.984451684872
 21
-192.250989530934
 31
0.0
  0
LINE
  5
   327
  8
0
  6
CONTINUOUS
 62
     7
 10
-606.984451684872
 20
-192.250989530934
 30
0.0
 11
-609.926761851456
 21
-192.836490072028
 31
0.0
  0
ENDBLK
  5
   328
  8
0
  6
CONTINUOUS
 62
     7
  0
BLOCK
  5
   329
  8
0
  6
CONTINUOUS
 62
     7
  2
*UDIM450
 70
    65
 10
0.0
 20
0.0
 30
0.0
  3
*UDIM450
  0
TEXT
  5
   32A
  8
0
  6
CONTINUOUS
 62
     7
 10
-602.246861279365
 20
-160.271206555011
 30
0.0
 40
2.99999994933605
  1
70
 50
359.999999896069
 41
0.933333333333333
 72
     1
 11
-599.746861318871
 21
-158.771206584865
 31
0.0
 73
     2
  0
LINE
  5
   32B
  8
0
  6
CONTINUOUS
 62
     7
 10
-592.471862688661
 20
-161.271206559533
 30
0.0
 11
-606.471862897277
 21
-161.271206559533
 31
0.0
  0
LINE
  5
   32C
  8
0
  6
CONTINUOUS
 62
     7
 10
-595.426285965868
 20
-161.792150989485
 30
0.0
 11
-592.471862688661
 21
-161.271206559533
 31
0.0
  0
LINE
  5
   32D
  8
0
  6
CONTINUOUS
 62
     7
 10
-592.471862688661
 20
-161.271206559533
 30
0.0
 11
-595.426285965868
 21
-160.750262129581
 31
0.0
  0
LINE
  5
   32E
  8
0
  6
CONTINUOUS
 62
     7
 10
-603.51743962007
 20
-160.750262129581
 30
0.0
 11
-606.471862897277
 21
-161.271206559533
 31
0.0
  0
LINE
  5
   32F
  8
0
  6
CONTINUOUS
 62
     7
 10
-606.471862897277
 20
-161.271206559533
 30
0.0
 11
-603.51743962007
 21
-161.792150989485
 31
0.0
  0
ENDBLK
  5
   330
  8
0
  6
CONTINUOUS
 62
     7
  0
ENDSEC
  0
SECTION
  2
ENTITIES
  0
LINE
  5
   331
  8
0
  6
CONTINUOUS
 62
     7
 10
-677.602172851563
 20
-180.601608276367
 30
0.0
 11
-640.852172851563
 21
-180.601608276367
 31
0.0
  0
LINE
  5
   332
  8
0
  6
CONTINUOUS
 62
     7
 10
-677.602172851563
 20
-152.601608276367
 30
0.0
 11
-640.852172851563
 21
-152.601608276367
 31
0.0
  0
LINE
  5
   333
  8
0
  6
CONTINUOUS
 62
     7
 10
-677.602172851563
 20
-152.601608276367
 30
0.0
 11
-677.602172851563
 21
-180.601608276367
 31
0.0
  0
LINE
  5
   334
  8
0
  6
CONTINUOUS
 62
     7
 10
-640.852172851563
 20
-152.601608276367
 30
0.0
 11
-640.852172851563
 21
-180.601608276367
 31
0.0
  0
CIRCLE
  5
   335
  8
0
  6
CONTINUOUS
 62
     7
 10
-673.602172851563
 20
-148.851608276367
 30
0.0
 40
0.875
  0
CIRCLE
  5
   336
  8
0
  6
CONTINUOUS
 62
     7
 10
-644.852172851563
 20
-148.851608276367
 30
0.0
 40
0.875
  0
CIRCLE
  5
   337
  8
0
  6
CONTINUOUS
 62
     7
 10
-673.602172851563
 20
-184.351608276367
 30
0.0
 40
0.875
  0
CIRCLE
  5
   338
  8
0
  6
CONTINUOUS
 62
     7
 10
-644.852172851563
 20
-184.351608276367
 30
0.0
 40
0.875
  0
LINE
  5
   339
  8
0
  6
DASHDOT
 62
     7
 10
-673.602172851563
 20
-147.226608276367
 30
0.0
 11
-673.602172851563
 21
-150.476608276367
 31
0.0
  0
LINE
  5
   33A
  8
0
  6
DASHDOT
 62
     7
 10
-675.227172851563
 20
-148.851608276367
 30
0.0
 11
-671.977172851563
 21
-148.851608276367
 31
0.0
  0
LINE
  5
   33B
  8
0
  6
DASHDOT
 62
     7
 10
-644.852172851563
 20
-147.226608276367
 30
0.0
 11
-644.852172851563
 21
-150.476608276367
 31
0.0
  0
LINE
  5
   33C
  8
0
  6
DASHDOT
 62
     7
 10
-646.477172851563
 20
-148.851608276367
 30
0.0
 11
-643.227172851563
 21
-148.851608276367
 31
0.0
  0
LINE
  5
   33D
  8
0
  6
DASHDOT
 62
     7
 10
-644.852172851563
 20
-182.726608276367
 30
0.0
 11
-644.852172851563
 21
-185.976608276367
 31
0.0
  0
LINE
  5
   33E
  8
0
  6
DASHDOT
 62
     7
 10
-646.477172851563
 20
-184.351608276367
 30
0.0
 11
-643.227172851563
 21
-184.351608276367
 31
0.0
  0
LINE
  5
   33F
  8
0
  6
DASHDOT
 62
     7
 10
-673.602172851563
 20
-182.726608276367
 30
0.0
 11
-673.602172851563
 21
-185.976608276367
 31
0.0
  0
LINE
  5
   340
  8
0
  6
DASHDOT
 62
     7
 10
-675.227172851563
 20
-184.351608276367
 30
0.0
 11
-671.977172851563
 21
-184.351608276367
 31
0.0
  0
LINE
  5
   341
  8
0
  6
DASHDOT
 62
     7
 10
-659.227172851563
 20
-126.470822198795
 30
0.0
 11
-659.227172851563
 21
-135.360655029006
 31
0.0
  0
LINE
  5
   342
  8
0
  6
CONTINUOUS
 62
     7
 10
-680.422749395228
 20
-146.200422621161
 30
0.0
 11
-637.718189171921
 21
-146.200422621161
 31
0.0
  0
LINE
  5
   343
  8
0
  6
CONTINUOUS
 62
     7
 10
-680.422749395228
 20
-187.765487722106
 30
0.0
 11
-637.718189171921
 21
-187.765487722106
 31
0.0
  0
LINE
  5
   344
  8
0
  6
CONTINUOUS
 62
     7
 10
-637.718189171921
 20
-146.200422621161
 30
0.0
 11
-637.718189171921
 21
-187.765487722106
 31
0.0
  0
LINE
  5
   345
  8
0
  6
CONTINUOUS
 62
     7
 10
-680.422749395228
 20
-146.200422621161
 30
0.0
 11
-680.422749395228
 21
-187.765487722106
 31
0.0
  0
CIRCLE
  5
   346
  8
0
  6
CONTINUOUS
 62
     7
 10
-674.174394348425
 20
-148.015235322752
 30
0.0
 40
0.0625
  0
LINE
  5
   347
  8
0
  6
DASHDOT
 62
     7
 10
-682.477501613618
 20
-166.601608276367
 30
0.0
 11
-629.010523050827
 21
-166.601608276367
 31
0.0
  0
INSERT
  5
   348
  8
0
  6
CONTINUOUS
 62
     7
  2
*UDIM406
 10
0.0
 20
0.0
 30
0.0
  0
INSERT
  5
   349
  8
0
  6
CONTINUOUS
 62
     7
  2
*UDIM407
 10
0.0
 20
0.0
 30
0.0
  0
LINE
  5
   34A
  8
0
  6
DASHDOT
 62
     7
 10
-659.227172851563
 20
-144.199314569493
 30
0.0
 11
-659.227172851563
 21
-195.724859121188
 31
0.0
  0
TEXT
  5
   34B
  8
0
  6
CONTINUOUS
 62
     7
 10
-693.780091346838
 20
-177.529187694783
 30
0.0
 40
3.00000002980232
  1
=      =
 50
449.999999844103
 41
0.916666604744064
 72
     2
 11
-693.780091288609
 21
-156.079188935056
 31
0.0
  0
TEXT
  5
   34C
  8
0
  6
CONTINUOUS
 62
     7
 10
-684.909705099241
 20
-176.639107401267
 30
0.0
 40
3.00000002980232
  1
=     =
 50
449.999999844103
 41
0.916666604744064
 72
     2
 11
-684.909705048478
 21
-157.939108483091
 31
0.0
  0
INSERT
  5
   34D
  8
0
  6
CONTINUOUS
 62
     7
  2
*UDIM408
 10
0.0
 20
0.0
 30
0.0
  0
INSERT
  5
   34E
  8
0
  6
CONTINUOUS
 62
     7
  2
*UDIM409
 10
0.0
 20
0.0
 30
0.0
  0
INSERT
  5
   34F
  8
0
  6
CONTINUOUS
 62
     7
  2
*UDIM410
 10
0.0
 20
0.0
 30
0.0
  0
TEXT
  5
   350
  8
0
  6
CONTINUOUS
 62
     7
 10
-660.41545284798
 20
-202.576702187056
 30
0.0
 40
3.00000002980232
  1
Y
 50
359.999999844103
 41
0.916666604744064
 72
     2
 11
-658.215452979111
 21
-202.576702193031
 31
0.0
  0
TEXT
  5
   351
  8
0
  6
CONTINUOUS
 62
     7
 10
-706.401969800495
 20
-167.833273003096
 30
0.0
 40
3.00000002980232
  1
X
 50
359.999999844103
 41
0.916666604744064
 72
     2
 11
-704.201969931625
 21
-167.833273009071
 31
0.0
  0
LINE
  5
   352
  8
0
  6
CONTINUOUS
 62
     7
 10
-516.12869939208
 20
-166.076614916325
 30
0.0
 11
-522.603698730469
 21
-166.076614916325
 31
0.0
  0
LINE
  5
   353
  8
0
  6
DASHDOT
 62
     7
 10
-522.603698730469
 20
-166.906743194777
 30
0.0
 11
-522.603698730469
 21
-154.751615849498
 31
0.0
  0
LINE
  5
   354
  8
0
  6
DASHDOT
 62
     7
 10
-514.687032623824
 20
-161.876615345478
 30
0.0
 11
-530.25241613812
 21
-161.876615345478
 31
0.0
  0
LINE
  5
   355
  8
0
  6
CONTINUOUS
 62
     7
 10
-515.603699445725
 20
-165.551614969969
 30
0.0
 11
-515.603699445725
 21
-157.676615774632
 31
0.0
  0
ARC
  5
   356
  8
0
  6
CONTINUOUS
 62
     7
 10
-516.12869939208
 20
-165.551614969969
 30
0.0
 40
0.52499994635582
 50
269.999999948034
 51
359.999999948034
  0
LINE
  5
   357
  8
0
  6
DASHDOT
 62
     7
 10
-518.6661991328
 20
-165.347768946084
 30
0.0
 11
-518.6661991328
 21
-159.550333458756
 31
0.0
  0
CIRCLE
  5
   358
  8
0
  6
CONTINUOUS
 62
     7
 10
-518.6661991328
 20
-161.876615345478
 30
0.0
 40
1.13749988377094
  0
CIRCLE
  5
   359
  8
0
  6
CONTINUOUS
 62
     7
 10
-522.603698730469
 20
-161.876615345478
 30
0.0
 40
1.92499980330467
  0
CIRCLE
  5
   35A
  8
0
  6
CONTINUOUS
 62
     7
 10
-522.603698730469
 20
-161.876615345478
 30
0.0
 40
1.74999982118607
  0
LINE
  5
   35B
  8
0
  6
CONTINUOUS
 62
     7
 10
-522.603698730469
 20
-166.076614916325
 30
0.0
 11
-529.078698068857
 21
-166.076614916325
 31
0.0
  0
ARC
  5
   35C
  8
0
  6
CONTINUOUS
 62
     7
 10
-529.078698068857
 20
-165.551614969969
 30
0.0
 40
0.52499994635582
 50
179.999999948034
 51
269.999999948034
  0
LINE
  5
   35D
  8
0
  6
CONTINUOUS
 62
     7
 10
-529.603698015213
 20
-165.551614969969
 30
0.0
 11
-529.603698015213
 21
-157.676615774632
 31
0.0
  0
CIRCLE
  5
   35E
  8
0
  6
CONTINUOUS
 62
     7
 10
-526.541198328137
 20
-161.876615345478
 30
0.0
 40
1.13749988377094
  0
LINE
  5
   35F
  8
0
  6
DASHDOT
 62
     7
 10
-526.541198328137
 20
-165.347768946084
 30
0.0
 11
-526.541198328137
 21
-159.501615513485
 31
0.0
  0
LINE
  5
   360
  8
0
  6
CONTINUOUS
 62
     7
 10
-514.505836586822
 20
-157.676615774632
 30
0.0
 11
-530.701560874116
 21
-157.676615774632
 31
0.0
  0
LINE
  5
   361
  8
0
  6
CONTINUOUS
 62
     2
 10
-513.67869964242
 20
-166.60161486268
 30
0.0
 11
-513.67869964242
 21
-159.109258987153
 31
0.0
  0
LINE
  5
   362
  8
0
  6
CONTINUOUS
 62
     7
 10
-510.353699982166
 20
-155.926615953445
 30
0.0
 11
-534.853697478771
 21
-155.926615953445
 31
0.0
  0
LINE
  5
   363
  8
0
  6
CONTINUOUS
 62
     2
 10
-533.628697603941
 20
-164.15161511302
 30
0.0
 11
-534.853697478771
 21
-164.15161511302
 31
0.0
  0
LINE
  5
   364
  8
0
  6
CONTINUOUS
 62
     2
 10
-533.628697603941
 20
-165.726614952087
 30
0.0
 11
-533.628697603941
 21
-164.15161511302
 31
0.0
  0
LINE
  5
   365
  8
0
  6
CONTINUOUS
 62
     2
 10
-534.066197559238
 20
-166.60161486268
 30
0.0
 11
-534.066197559238
 21
-165.726614952087
 31
0.0
  0
LINE
  5
   366
  8
0
  6
CONTINUOUS
 62
     2
 10
-533.628697603941
 20
-165.726614952087
 30
0.0
 11
-534.066197559238
 21
-165.726614952087
 31
0.0
  0
LINE
  5
   367
  8
0
  6
CONTINUOUS
 62
     2
 10
-511.1411999017
 20
-166.60161486268
 30
0.0
 11
-511.1411999017
 21
-165.726614952087
 31
0.0
  0
LINE
  5
   368
  8
0
  6
CONTINUOUS
 62
     2
 10
-511.578699856997
 20
-165.726614952087
 30
0.0
 11
-511.578699856997
 21
-164.15161511302
 31
0.0
  0
LINE
  5
   369
  8
0
  6
CONTINUOUS
 62
     2
 10
-510.353699982166
 20
-164.15161511302
 30
0.0
 11
-511.578699856997
 21
-164.15161511302
 31
0.0
  0
LINE
  5
   36A
  8
0
  6
CONTINUOUS
 62
     2
 10
-511.1411999017
 20
-165.726614952087
 30
0.0
 11
-511.578699856997
 21
-165.726614952087
 31
0.0
  0
LINE
  5
   36B
  8
0
  6
CONTINUOUS
 62
     2
 10
-511.1411999017
 20
-166.60161486268
 30
0.0
 11
-534.066197559238
 21
-166.60161486268
 31
0.0
  0
LINE
  5
   36C
  8
0
  6
CONTINUOUS
 62
     2
 10
-513.67869964242
 20
-159.109258987153
 30
0.0
 11
-514.505836586822
 21
-157.676615774632
 31
0.0
  0
LINE
  5
   36D
  8
0
  6
CONTINUOUS
 62
     2
 10
-531.528697818518
 20
-166.60161486268
 30
0.0
 11
-531.528697818518
 21
-159.109258987153
 31
0.0
  0
LINE
  5
   36E
  8
0
  6
CONTINUOUS
 62
     2
 10
-531.528697818518
 20
-159.109258987153
 30
0.0
 11
-530.701560874116
 21
-157.676615774632
 31
0.0
  0
LINE
  5
   36F
  8
0
  6
CONTINUOUS
 62
     7
 10
-510.353699982166
 20
-170.987213315609
 30
0.0
 11
-510.353699982166
 21
-155.188021474666
 31
0.0
  0
LINE
  5
   370
  8
0
  6
CONTINUOUS
 62
     7
 10
-534.853697478771
 20
-170.987213315609
 30
0.0
 11
-534.853697478771
 21
-155.188021474666
 31
0.0
  0
INSERT
  5
   371
  8
0
  6
CONTINUOUS
 62
     3
  2
*HATCH158
 10
-522.603698730469
 20
-171.326614379883
 30
0.0
 41
0.349999964237213
 42
0.349999964237213
 50
89.9999999480344
 43
0.349999964237213
  0
LINE
  5
   372
  8
0
  6
CONTINUOUS
 62
     3
 10
-527.678698211908
 20
-161.876615345478
 30
0.0
 11
-527.678698211908
 21
-161.486714964507
 31
0.0
  0
LINE
  5
   373
  8
0
  6
CONTINUOUS
 62
     3
 10
-525.403698444367
 20
-161.876615345478
 30
0.0
 11
-525.403698444367
 21
-161.486714964507
 31
0.0
  0
INSERT
  5
   374
  8
0
  6
CONTINUOUS
 62
     7
  2
*UDIM411
 10
0.0
 20
0.0
 30
0.0
  0
INSERT
  5
   375
  8
0
  6
CONTINUOUS
 62
     7
  2
*UDIM412
 10
0.0
 20
0.0
 30
0.0
  0
INSERT
  5
   376
  8
0
  6
CONTINUOUS
 62
     7
  2
*UDIM413
 10
0.0
 20
0.0
 30
0.0
  0
INSERT
  5
   377
  8
0
  6
CONTINUOUS
 62
     1
  2
*UDIM414
 10
0.0
 20
0.0
 30
0.0
  0
INSERT
  5
   378
  8
0
  6
CONTINUOUS
 62
     7
  2
*UDIM415
 10
0.0
 20
0.0
 30
0.0
  0
LINE
  5
   379
  8
0
  6
CONTINUOUS
 62
     2
 10
-672.264810649675
 20
-77.0562566338508
 30
0.0
 11
-694.577304929119
 21
-77.0562566338508
 31
0.0
  0
LINE
  5
   37A
  8
0
  6
CONTINUOUS
 62
     1
 10
-679.702071237422
 20
62.4187411606313
 30
0.0
 11
-681.620015001421
 21
62.4187411606313
 31
0.0
  0
LINE
  5
   37B
  8
0
  6
CONTINUOUS
 62
     1
 10
-679.702071237422
 20
58.2187412321568
 30
0.0
 11
-681.620015001421
 21
58.2187412321568
 31
0.0
  0
LINE
  5
   37C
  8
0
  6
CONTINUOUS
 62
     1
 10
-685.834555477235
 20
58.2187410823639
 30
0.0
 11
-687.752121492288
 21
58.2187476146967
 31
0.0
  0
LINE
  5
   37D
  8
0
  6
CONTINUOUS
 62
     1
 10
-687.752121489141
 20
62.4187347785396
 30
0.0
 11
-685.834552787133
 21
62.4187413109025
 31
0.0
  0
LINE
  5
   37E
  8
0
  6
CONTINUOUS
 62
     7
 10
-695.102272948623
 20
56.4687586597082
 30
0.0
 11
-695.102272948623
 21
63.9937411338092
 31
0.0
  0
LINE
  5
   37F
  8
0
  6
CONTINUOUS
 62
     1
 10
-661.334572756166
 20
62.4187411606313
 30
0.0
 11
-663.252160971097
 21
62.4187411606313
 31
0.0
  0
LINE
  5
   380
  8
0
  6
CONTINUOUS
 62
     1
 10
-661.33494821673
 20
58.2187412321568
 30
0.0
 11
-663.252160971097
 21
58.2187412321568
 31
0.0
  0
LINE
  5
   381
  8
0
  6
CONTINUOUS
 62
     1
 10
-657.120016606318
 20
58.2187377299972
 30
0.0
 11
-655.202247380517
 21
58.2187442630432
 31
0.0
  0
LINE
  5
   382
  8
0
  6
CONTINUOUS
 62
     1
 10
-655.202247375941
 20
62.4187381305045
 30
0.0
 11
-657.120016607582
 21
62.4187446635504
 31
0.0
  0
LINE
  5
   383
  8
0
  6
CONTINUOUS
 62
     3
 10
-623.352316895127
 20
63.9937411338092
 30
0.0
 11
-623.352316895127
 21
64.6937411218883
 31
0.0
  0
LINE
  5
   384
  8
0
  6
CONTINUOUS
 62
     1
 10
-636.834579849119
 20
62.4187411606313
 30
0.0
 11
-638.752377181931
 21
62.4187411606313
 31
0.0
  0
LINE
  5
   385
  8
0
  6
CONTINUOUS
 62
     1
 10
-636.834579849119
 20
58.2187412321568
 30
0.0
 11
-638.752377181931
 21
58.2187412321568
 31
0.0
  0
LINE
  5
   386
  8
0
  6
CONTINUOUS
 62
     1
 10
-632.620034039462
 20
58.218741082365
 30
0.0
 11
-630.702249623017
 21
58.2187476154418
 31
0.0
  0
LINE
  5
   387
  8
0
  6
CONTINUOUS
 62
     1
 10
-630.702233609485
 20
62.4187347780513
 30
0.0
 11
-632.620036726359
 21
62.4187413111917
 31
0.0
  0
LINE
  5
   388
  8
0
  6
DASHDOT
 62
     7
 10
-660.732079967378
 20
60.3187446701066
 30
0.0
 11
-665.772241641031
 21
60.3187446701066
 31
0.0
  0
LINE
  5
   389
  8
0
  6
DASHDOT
 62
     7
 10
-663.252160971097
 20
57.7986640001734
 30
0.0
 11
-663.252160971097
 21
62.8388253400398
 31
0.0
  0
ARC
  5
   38A
  8
0
  6
CONTINUOUS
 62
     1
 10
-663.252160971097
 20
60.3187446701066
 30
0.0
 40
2.10006689115832
 50
90.0036557603355
 51
269.996301839899
  0
LINE
  5
   38B
  8
0
  6
DASHDOT
 62
     7
 10
-655.657167151682
 20
60.3185993948132
 30
0.0
 11
-662.797499518854
 21
60.3185993948132
 31
0.0
  0
ARC
  5
   38C
  8
0
  6
CONTINUOUS
 62
     1
 10
-659.227333335258
 20
60.3185993948132
 30
0.0
 40
2.97513848632147
 50
224.89430374687
 51
315.105491686916
  0
LINE
  5
   38D
  8
0
  6
DASHDOT
 62
     7
 10
-652.682314834977
 20
60.3187987284907
 30
0.0
 11
-657.722194895156
 21
60.3187987284907
 31
0.0
  0
LINE
  5
   38E
  8
0
  6
DASHDOT
 62
     7
 10
-655.202254531278
 20
57.7988571663296
 30
0.0
 11
-655.202254531278
 21
62.8387365589362
 31
0.0
  0
ARC
  5
   38F
  8
0
  6
CONTINUOUS
 62
     1
 10
-655.202254531281
 20
60.3187987284907
 30
0.0
 40
2.09994941313343
 50
269.999007927624
 51
450.00105270767
  0
LINE
  5
   390
  8
0
  6
DASHDOT
 62
     7
 10
-636.232480265219
 20
60.3187615764149
 30
0.0
 11
-641.272295460949
 21
60.3187615764149
 31
0.0
  0
LINE
  5
   391
  8
0
  6
DASHDOT
 62
     7
 10
-638.752377181931
 20
57.7988486379738
 30
0.0
 11
-638.752377181931
 21
62.838674514856
 31
0.0
  0
ARC
  5
   392
  8
0
  6
CONTINUOUS
 62
     1
 10
-638.752377181931
 20
60.3187615764149
 30
0.0
 40
2.09992678112893
 50
449.999999948034
 51
630.002376467854
  0
LINE
  5
   393
  8
0
  6
DASHDOT
 62
     7
 10
-631.157268536904
 20
60.3187116787913
 30
0.0
 11
-638.297327131045
 21
60.3187116787913
 31
0.0
  0
ARC
  5
   394
  8
0
  6
CONTINUOUS
 62
     1
 10
-634.727292493398
 20
60.3187116787913
 30
0.0
 40
2.97502441422517
 50
404.901045292561
 51
495.098630845462
  0
LINE
  5
   395
  8
0
  6
DASHDOT
 62
     7
 10
-628.182247966236
 20
60.3187307351891
 30
0.0
 11
-633.222254915836
 21
60.3187307351891
 31
0.0
  0
LINE
  5
   396
  8
0
  6
DASHDOT
 62
     7
 10
-630.702251441036
 20
57.7987219198128
 30
0.0
 11
-630.702251441036
 21
62.8387395505653
 31
0.0
  0
ARC
  5
   397
  8
0
  6
CONTINUOUS
 62
     1
 10
-630.702251441036
 20
60.3187307351891
 30
0.0
 40
2.10000667857487
 50
269.998338346111
 51
450.001473300288
  0
LINE
  5
   398
  8
0
  6
DASHDOT
 62
     7
 10
-685.231971143125
 20
60.3187569200194
 30
0.0
 11
-690.272236156576
 21
60.3187569200194
 31
0.0
  0
LINE
  5
   399
  8
0
  6
DASHDOT
 62
     7
 10
-687.752103649851
 20
57.7986190727175
 30
0.0
 11
-687.752103649851
 21
62.8388947673211
 31
0.0
  0
ARC
  5
   39A
  8
0
  6
CONTINUOUS
 62
     1
 10
-687.752103649851
 20
60.3187569200194
 30
0.0
 40
2.1001148727515
 50
90.0052836333811
 51
269.995265213079
  0
LINE
  5
   39B
  8
0
  6
DASHDOT
 62
     7
 10
-680.15721742566
 20
60.3188019599479
 30
0.0
 11
-687.297366130756
 21
60.3188019599479
 31
0.0
  0
ARC
  5
   39C
  8
0
  6
CONTINUOUS
 62
     1
 10
-683.727278426768
 20
60.3188019599479
 30
0.0
 40
2.97505973521659
 50
224.901380849089
 51
315.098568474349
  0
LINE
  5
   39D
  8
0
  6
DASHDOT
 62
     7
 10
-677.182249384806
 20
60.3187571015378
 30
0.0
 11
-682.221893090038
 21
60.3187571015378
 31
0.0
  0
LINE
  5
   39E
  8
0
  6
DASHDOT
 62
     7
 10
-679.702071237422
 20
57.7989299083452
 30
0.0
 11
-679.702071237422
 21
62.8385842947303
 31
0.0
  0
ARC
  5
   39F
  8
0
  6
CONTINUOUS
 62
     1
 10
-679.702071237422
 20
60.3187571015378
 30
0.0
 40
2.09985599432712
 50
269.999999948034
 51
449.999945306521
  0
ARC
  5
   3A0
  8
0
  6
CONTINUOUS
 62
     1
 10
-683.727278426768
 20
60.3188019599479
 30
0.0
 40
2.97505973521659
 50
404.897963373026
 51
495.101923170488
  0
ARC
  5
   3A1
  8
0
  6
CONTINUOUS
 62
     1
 10
-659.227333335258
 20
60.3185993948132
 30
0.0
 40
2.97513848632147
 50
404.902109287098
 51
495.097767281763
  0
ARC
  5
   3A2
  8
0
  6
CONTINUOUS
 62
     1
 10
-634.727292493398
 20
60.3187116787913
 30
0.0
 40
2.97502441422517
 50
224.899545375473
 51
315.100341172749
  0
LINE
  5
   3A3
  8
0
  6
CONTINUOUS
 62
     1
 10
-622.477287757352
 20
8.1687419147723
 30
0.0
 11
-695.889786507145
 21
8.1687419147723
 31
0.0
  0
LINE
  5
   3A4
  8
0
  6
CONTINUOUS
 62
     1
 10
-622.477287757352
 20
-53.431257036186
 30
0.0
 11
-632.62729537487
 21
-53.431257036186
 31
0.0
  0
LINE
  5
   3A5
  8
0
  6
CONTINUOUS
 62
     1
 10
-685.82729446888
 20
-45.4687625123626
 30
0.0
 11
-695.802286508635
 21
-45.4687625123626
 31
0.0
  0
LINE
  5
   3A6
  8
0
  6
CONTINUOUS
 62
     1
 10
-622.652287754372
 20
-8.71876313821137
 30
0.0
 11
-632.62729537487
 21
-8.71876313821137
 31
0.0
  0
LINE
  5
   3A7
  8
0
  6
CONTINUOUS
 62
     1
 10
-622.477287757352
 20
-53.081257063008
 30
0.0
 11
-632.62729537487
 21
-53.081257063008
 31
0.0
  0
LINE
  5
   3A8
  8
0
  6
CONTINUOUS
 62
     3
 10
-695.539786533967
 20
-53.431257036186
 30
0.0
 11
-695.539786533967
 21
-53.081257063008
 31
0.0
  0
LINE
  5
   3A9
  8
0
  6
CONTINUOUS
 62
     1
 10
-622.914787749902
 20
-53.431257036186
 30
0.0
 11
-622.914787749902
 21
-53.081257063008
 31
0.0
  0
LINE
  5
   3AA
  8
0
  6
CONTINUOUS
 62
     1
 10
-624.034792003289
 20
-8.71876313821137
 30
0.0
 11
-624.034792003289
 21
8.1687419147723
 31
0.0
  0
LINE
  5
   3AB
  8
0
  6
CONTINUOUS
 62
     1
 10
-623.229790948883
 20
-8.71876313821137
 30
0.0
 11
-623.229790948883
 21
8.1687419147723
 31
0.0
  0
LINE
  5
   3AC
  8
0
  6
CONTINUOUS
 62
     1
 10
-629.074789781228
 20
-8.71876313821137
 30
0.0
 11
-629.074789781228
 21
8.1687419147723
 31
0.0
  0
LINE
  5
   3AD
  8
0
  6
CONTINUOUS
 62
     1
 10
-627.814793007031
 20
-8.71876313821137
 30
0.0
 11
-627.814793007031
 21
8.1687419147723
 31
0.0
  0
LINE
  5
   3AE
  8
0
  6
CONTINUOUS
 62
     1
 10
-626.554790892259
 20
-8.71876313821137
 30
0.0
 11
-626.554790892259
 21
8.1687419147723
 31
0.0
  0
LINE
  5
   3AF
  8
0
  6
CONTINUOUS
 62
     1
 10
-625.294788777486
 20
-8.71876313821137
 30
0.0
 11
-625.294788777486
 21
8.1687419147723
 31
0.0
  0
LINE
  5
   3B0
  8
0
  6
CONTINUOUS
 62
     1
 10
-634.744788616553
 20
1.08123602732398
 30
0.0
 11
-634.744788616553
 21
8.1687419147723
 31
0.0
  0
LINE
  5
   3B1
  8
0
  6
CONTINUOUS
 62
     1
 10
-633.939792902723
 20
1.08123602732398
 30
0.0
 11
-633.939792902723
 21
8.1687419147723
 31
0.0
  0
LINE
  5
   3B2
  8
0
  6
CONTINUOUS
 62
     1
 10
-632.85479078497
 20
1.02753848243628
 30
0.0
 11
-632.85479078497
 21
8.1687419147723
 31
0.0
  0
LINE
  5
   3B3
  8
0
  6
CONTINUOUS
 62
     1
 10
-631.594788670198
 20
-8.71876313821137
 30
0.0
 11
-631.594788670198
 21
8.1687419147723
 31
0.0
  0
LINE
  5
   3B4
  8
0
  6
CONTINUOUS
 62
     1
 10
-630.334791896001
 20
-8.71876313821137
 30
0.0
 11
-630.334791896001
 21
8.1687419147723
 31
0.0
  0
LINE
  5
   3B5
  8
0
  6
CONTINUOUS
 62
     1
 10
-627.814793007031
 20
-45.4687625123626
 30
0.0
 11
-627.814793007031
 21
-8.71876313821137
 31
0.0
  0
LINE
  5
   3B6
  8
0
  6
CONTINUOUS
 62
     1
 10
-625.294788777486
 20
-45.4687625123626
 30
0.0
 11
-625.294788777486
 21
-8.71876313821137
 31
0.0
  0
LINE
  5
   3B7
  8
0
  6
CONTINUOUS
 62
     1
 10
-626.554790892259
 20
-45.4687625123626
 30
0.0
 11
-626.554790892259
 21
-8.71876313821137
 31
0.0
  0
LINE
  5
   3B8
  8
0
  6
CONTINUOUS
 62
     1
 10
-630.334791896001
 20
-45.4687625123626
 30
0.0
 11
-630.334791896001
 21
-8.71876313821137
 31
0.0
  0
LINE
  5
   3B9
  8
0
  6
CONTINUOUS
 62
     1
 10
-631.594788670198
 20
-45.4687625123626
 30
0.0
 11
-631.594788670198
 21
-8.71876313821137
 31
0.0
  0
LINE
  5
   3BA
  8
0
  6
CONTINUOUS
 62
     1
 10
-624.034792003289
 20
-45.4687625123626
 30
0.0
 11
-624.034792003289
 21
-8.71876313821137
 31
0.0
  0
LINE
  5
   3BB
  8
0
  6
CONTINUOUS
 62
     1
 10
-623.229790948883
 20
-45.4687625123626
 30
0.0
 11
-623.229790948883
 21
-8.71876313821137
 31
0.0
  0
LINE
  5
   3BC
  8
0
  6
CONTINUOUS
 62
     1
 10
-624.034792003289
 20
-53.081257063008
 30
0.0
 11
-624.034792003289
 21
-45.4687625332242
 31
0.0
  0
LINE
  5
   3BD
  8
0
  6
CONTINUOUS
 62
     1
 10
-623.229790948883
 20
-53.081257063008
 30
0.0
 11
-623.229790948883
 21
-45.4687625332242
 31
0.0
  0
LINE
  5
   3BE
  8
0
  6
CONTINUOUS
 62
     1
 10
-629.074789781228
 20
-53.081257063008
 30
0.0
 11
-629.074789781228
 21
-8.71876313821137
 31
0.0
  0
LINE
  5
   3BF
  8
0
  6
CONTINUOUS
 62
     1
 10
-627.814793007031
 20
-53.081257063008
 30
0.0
 11
-627.814793007031
 21
-45.4687625332242
 31
0.0
  0
LINE
  5
   3C0
  8
0
  6
CONTINUOUS
 62
     1
 10
-626.554790892259
 20
-53.081257063008
 30
0.0
 11
-626.554790892259
 21
-45.4687625332242
 31
0.0
  0
LINE
  5
   3C1
  8
0
  6
CONTINUOUS
 62
     1
 10
-625.294788777486
 20
-53.081257063008
 30
0.0
 11
-625.294788777486
 21
-45.4687625332242
 31
0.0
  0
LINE
  5
   3C2
  8
0
  6
CONTINUOUS
 62
     1
 10
-631.594788670198
 20
-53.081257063008
 30
0.0
 11
-631.594788670198
 21
-45.4687625332242
 31
0.0
  0
LINE
  5
   3C3
  8
0
  6
CONTINUOUS
 62
     1
 10
-630.334791896001
 20
-53.081257063008
 30
0.0
 11
-630.334791896001
 21
-45.4687625332242
 31
0.0
  0
LINE
  5
   3C4
  8
0
  6
CONTINUOUS
 62
     1
 10
-694.419786598936
 20
-8.71876313821137
 30
0.0
 11
-694.419786598936
 21
8.1687419147723
 31
0.0
  0
LINE
  5
   3C5
  8
0
  6
CONTINUOUS
 62
     1
 10
-695.224786651984
 20
-8.71876313821137
 30
0.0
 11
-695.224786651984
 21
8.1687419147723
 31
0.0
  0
LINE
  5
   3C6
  8
0
  6
CONTINUOUS
 62
     1
 10
-689.379789822355
 20
-8.71876313821137
 30
0.0
 11
-689.379789822355
 21
8.1687419147723
 31
0.0
  0
LINE
  5
   3C7
  8
0
  6
CONTINUOUS
 62
     1
 10
-690.639786596552
 20
-8.71876313821137
 30
0.0
 11
-690.639786596552
 21
8.1687419147723
 31
0.0
  0
LINE
  5
   3C8
  8
0
  6
CONTINUOUS
 62
     1
 10
-691.899786708609
 20
-8.71876313821137
 30
0.0
 11
-691.899786708609
 21
8.1687419147723
 31
0.0
  0
LINE
  5
   3C9
  8
0
  6
CONTINUOUS
 62
     1
 10
-693.159786820666
 20
-8.71876313821137
 30
0.0
 11
-693.159786820666
 21
8.1687419147723
 31
0.0
  0
LINE
  5
   3CA
  8
0
  6
CONTINUOUS
 62
     1
 10
-683.70979098703
 20
4.43533571770395
 30
0.0
 11
-683.70979098703
 21
8.1687419147723
 31
0.0
  0
LINE
  5
   3CB
  8
0
  6
CONTINUOUS
 62
     1
 10
-684.33978670384
 20
1.08123602732398
 30
0.0
 11
-684.33978670384
 21
8.1687419147723
 31
0.0
  0
LINE
  5
   3CC
  8
0
  6
CONTINUOUS
 62
     1
 10
-685.599788818613
 20
1.02754408535443
 30
0.0
 11
-685.599788818613
 21
8.1687419147723
 31
0.0
  0
LINE
  5
   3CD
  8
0
  6
CONTINUOUS
 62
     1
 10
-686.859790933386
 20
-8.71876313821137
 30
0.0
 11
-686.859790933386
 21
8.1687419147723
 31
0.0
  0
LINE
  5
   3CE
  8
0
  6
CONTINUOUS
 62
     1
 10
-688.119787707583
 20
-8.71876313821137
 30
0.0
 11
-688.119787707583
 21
8.1687419147723
 31
0.0
  0
LINE
  5
   3CF
  8
0
  6
CONTINUOUS
 62
     1
 10
-690.639786930338
 20
-45.4687625123626
 30
0.0
 11
-690.639786930338
 21
-8.71876313821137
 31
0.0
  0
LINE
  5
   3D0
  8
0
  6
CONTINUOUS
 62
     1
 10
-689.379789822355
 20
-45.4687625123626
 30
0.0
 11
-689.379789822355
 21
-8.71876313821137
 31
0.0
  0
LINE
  5
   3D1
  8
0
  6
CONTINUOUS
 62
     1
 10
-693.159786820666
 20
-45.4687625123626
 30
0.0
 11
-693.159786820666
 21
-8.71876313821137
 31
0.0
  0
LINE
  5
   3D2
  8
0
  6
CONTINUOUS
 62
     1
 10
-691.899786708609
 20
-45.4687625123626
 30
0.0
 11
-691.899786708609
 21
-8.71876313821137
 31
0.0
  0
LINE
  5
   3D3
  8
0
  6
CONTINUOUS
 62
     1
 10
-688.119787707583
 20
-45.4687625123626
 30
0.0
 11
-688.119787707583
 21
-8.71876313821137
 31
0.0
  0
LINE
  5
   3D4
  8
0
  6
CONTINUOUS
 62
     1
 10
-686.859790933386
 20
-45.4687625123626
 30
0.0
 11
-686.859790933386
 21
-8.71876313821137
 31
0.0
  0
LINE
  5
   3D5
  8
0
  6
CONTINUOUS
 62
     1
 10
-694.419786598936
 20
-45.4687625123626
 30
0.0
 11
-694.419786598936
 21
-8.71876313821137
 31
0.0
  0
LINE
  5
   3D6
  8
0
  6
CONTINUOUS
 62
     1
 10
-695.224786651984
 20
-45.4687625123626
 30
0.0
 11
-695.224786651984
 21
-8.71876313821137
 31
0.0
  0
LINE
  5
   3D7
  8
0
  6
CONTINUOUS
 62
     1
 10
-694.419786598936
 20
-53.081257063008
 30
0.0
 11
-694.419786598936
 21
-45.4687625332242
 31
0.0
  0
LINE
  5
   3D8
  8
0
  6
CONTINUOUS
 62
     1
 10
-695.224786651984
 20
-53.081257063008
 30
0.0
 11
-695.224786651984
 21
-45.4687625332242
 31
0.0
  0
LINE
  5
   3D9
  8
0
  6
CONTINUOUS
 62
     1
 10
-689.379789822355
 20
-53.081257063008
 30
0.0
 11
-689.379789822355
 21
-45.4687625332242
 31
0.0
  0
LINE
  5
   3DA
  8
0
  6
CONTINUOUS
 62
     1
 10
-690.639786596552
 20
-53.081257063008
 30
0.0
 11
-690.639786596552
 21
-45.4687625332242
 31
0.0
  0
LINE
  5
   3DB
  8
0
  6
CONTINUOUS
 62
     1
 10
-691.899786708609
 20
-53.081257063008
 30
0.0
 11
-691.899786708609
 21
-45.4687625332242
 31
0.0
  0
LINE
  5
   3DC
  8
0
  6
CONTINUOUS
 62
     1
 10
-693.159786820666
 20
-53.081257063008
 30
0.0
 11
-693.159786820666
 21
-45.4687625332242
 31
0.0
  0
LINE
  5
   3DD
  8
0
  6
CONTINUOUS
 62
     1
 10
-683.70979098703
 20
-53.081257063008
 30
0.0
 11
-683.70979098703
 21
-45.4687625332242
 31
0.0
  0
LINE
  5
   3DE
  8
0
  6
CONTINUOUS
 62
     1
 10
-686.859790933386
 20
-53.081257063008
 30
0.0
 11
-686.859790933386
 21
-45.4687625332242
 31
0.0
  0
LINE
  5
   3DF
  8
0
  6
CONTINUOUS
 62
     1
 10
-688.119787707583
 20
-53.081257063008
 30
0.0
 11
-688.119787707583
 21
-45.4687625332242
 31
0.0
  0
LINE
  5
   3E0
  8
0
  6
CONTINUOUS
 62
     1
 10
-635.252295330167
 20
6.41874194457461
 30
0.0
 11
-683.202294513583
 21
6.41874194457461
 31
0.0
  0
LINE
  5
   3E1
  8
0
  6
CONTINUOUS
 62
     1
 10
-635.252295330167
 20
1.08123602732398
 30
0.0
 11
-635.252295330167
 21
6.41874194457461
 31
0.0
  0
LINE
  5
   3E2
  8
0
  6
CONTINUOUS
 62
     1
 10
-683.202294513583
 20
1.08123602732398
 30
0.0
 11
-683.202294513583
 21
6.41874194457461
 31
0.0
  0
LINE
  5
   3E3
  8
0
  6
CONTINUOUS
 62
     3
 10
-634.727295339108
 20
-45.2937518082651
 30
0.0
 11
-634.727295339108
 21
-42.3187520544658
 31
0.0
  0
LINE
  5
   3E4
  8
0
  6
CONTINUOUS
 62
     3
 10
-634.902295362052
 20
-45.4687518312099
 30
0.0
 11
-683.552283852396
 21
-45.4687518312099
 31
0.0
  0
LINE
  5
   3E5
  8
0
  6
CONTINUOUS
 62
     3
 10
-683.72728382349
 20
-45.2937518601153
 30
0.0
 11
-683.72728382349
 21
-42.3187520544658
 31
0.0
  0
LINE
  5
   3E6
  8
0
  6
CONTINUOUS
 62
     3
 10
-634.902300850853
 20
-8.71876313821102
 30
0.0
 11
-683.552289186397
 21
-8.71876313821102
 31
0.0
  0
LINE
  5
   3E7
  8
0
  6
CONTINUOUS
 62
     1
 10
-634.727316701412
 20
-12.9187630666857
 30
0.0
 11
-683.72728382349
 21
-12.9187630666857
 31
0.0
  0
LINE
  5
   3E8
  8
0
  6
CONTINUOUS
 62
     1
 10
-634.72730602026
 20
-9.4187631262903
 30
0.0
 11
-683.72728382349
 21
-9.4187631262903
 31
0.0
  0
LINE
  5
   3E9
  8
0
  6
CONTINUOUS
 62
     1
 10
-651.877295047045
 20
-22.4562522231108
 30
0.0
 11
-666.577294796705
 21
-22.4562522231108
 31
0.0
  0
LINE
  5
   3EA
  8
0
  6
CONTINUOUS
 62
     7
 10
-651.877295047045
 20
-44.0439377895213
 30
0.0
 11
-651.877295047045
 21
-34.796219447141
 31
0.0
  0
LINE
  5
   3EB
  8
0
  6
CONTINUOUS
 62
     7
 10
-666.577294796705
 20
-44.0439377895213
 30
0.0
 11
-666.577294796705
 21
-34.796219447141
 31
0.0
  0
LINE
  5
   3EC
  8
0
  6
CONTINUOUS
 62
     7
 10
-651.877295047045
 20
-22.2906409588413
 30
0.0
 11
-666.577294796705
 21
-22.2906409588413
 31
0.0
  0
LINE
  5
   3ED
  8
0
  6
DASHDOT
 62
     7
 10
-659.227294921875
 20
-53.2876014490006
 30
0.0
 11
-659.227294921875
 21
72.9599406427488
 31
0.0
  0
LINE
  5
   3EE
  8
0
  6
CONTINUOUS
 62
   218
 10
-634.727284657958
 20
-20.9687520936344
 30
0.0
 11
-634.727284657958
 21
-8.89376036819439
 31
0.0
  0
LINE
  5
   3EF
  8
0
  6
CONTINUOUS
 62
   218
 10
-634.727295339108
 20
-35.3187520040638
 30
0.0
 11
-634.727295339108
 21
-27.9687521292335
 31
0.0
  0
LINE
  5
   3F0
  8
0
  6
CONTINUOUS
 62
   218
 10
-634.727295339108
 20
-27.618752135194
 30
0.0
 11
-634.727295339108
 21
-21.3187522424823
 31
0.0
  0
LINE
  5
   3F1
  8
0
  6
CONTINUOUS
 62
   218
 10
-634.727295339108
 20
-41.9687465502389
 30
0.0
 11
-634.727295339108
 21
-35.6687519981033
 31
0.0
  0
LINE
  5
   3F2
  8
0
  6
CONTINUOUS
 62
   218
 10
-683.727289164066
 20
-41.9687518908149
 30
0.0
 11
-683.727289164066
 21
-35.6687573386794
 31
0.0
  0
LINE
  5
   3F3
  8
0
  6
CONTINUOUS
 62
   218
 10
-683.727289164066
 20
-20.9687575890189
 30
0.0
 11
-683.727289164066
 21
-8.8937658248675
 31
0.0
  0
LINE
  5
   3F4
  8
0
  6
CONTINUOUS
 62
   218
 10
-683.727289164066
 20
-35.3187573446399
 30
0.0
 11
-683.727289164066
 21
-27.9687574698096
 31
0.0
  0
LINE
  5
   3F5
  8
0
  6
CONTINUOUS
 62
   218
 10
-683.727289164066
 20
-27.6187574757701
 30
0.0
 11
-683.727289164066
 21
-21.3187575830584
 31
0.0
  0
LINE
  5
   3F6
  8
0
  6
CONTINUOUS
 62
   218
 10
-634.727295339108
 20
-35.6687519981033
 30
0.0
 11
-635.077289992571
 21
-35.6687519981033
 31
0.0
  0
LINE
  5
   3F7
  8
0
  6
CONTINUOUS
 62
     1
 10
-666.577294796705
 20
-35.6687519981033
 30
0.0
 11
-683.377289170027
 21
-35.6687519981033
 31
0.0
  0
LINE
  5
   3F8
  8
0
  6
CONTINUOUS
 62
   218
 10
-634.727295339108
 20
-35.3187520040638
 30
0.0
 11
-635.077289992571
 21
-35.3187520040638
 31
0.0
  0
LINE
  5
   3F9
  8
0
  6
CONTINUOUS
 62
     1
 10
-666.577294796705
 20
-35.3187520040638
 30
0.0
 11
-683.691048014781
 21
-35.3187520040638
 31
0.0
  0
LINE
  5
   3FA
  8
0
  6
CONTINUOUS
 62
   218
 10
-635.077289992571
 20
-35.6687519981033
 30
0.0
 11
-635.077289992571
 21
-35.3187520040638
 31
0.0
  0
LINE
  5
   3FB
  8
0
  6
CONTINUOUS
 62
   218
 10
-683.377289170027
 20
-35.6687519981033
 30
0.0
 11
-683.377289170027
 21
-35.3187520040638
 31
0.0
  0
LINE
  5
   3FC
  8
0
  6
CONTINUOUS
 62
   218
 10
-683.727289169534
 20
-35.3187626839529
 30
0.0
 11
-683.377289175503
 21
-35.3187573433768
 31
0.0
  0
LINE
  5
   3FD
  8
0
  6
CONTINUOUS
 62
   218
 10
-634.727295339108
 20
-41.9687502218847
 30
0.0
 11
-635.077289992571
 21
-41.9687502218847
 31
0.0
  0
LINE
  5
   3FE
  8
0
  6
CONTINUOUS
 62
   218
 10
-635.077289992571
 20
-42.3187482132084
 30
0.0
 11
-635.077289992571
 21
-41.9687482191689
 31
0.0
  0
LINE
  5
   3FF
  8
0
  6
CONTINUOUS
 62
   218
 10
-634.727295339108
 20
-21.3187522424823
 30
0.0
 11
-635.077295333147
 21
-21.3187522424823
 31
0.0
  0
LINE
  5
   400
  8
0
  6
CONTINUOUS
 62
   218
 10
-634.727295493909
 20
-20.9687522484428
 30
0.0
 11
-635.077295333147
 21
-20.9687522484428
 31
0.0
  0
LINE
  5
   401
  8
0
  6
CONTINUOUS
 62
   218
 10
-635.077295333147
 20
-21.3187522424823
 30
0.0
 11
-635.077295333147
 21
-20.9687522484428
 31
0.0
  0
LINE
  5
   402
  8
0
  6
CONTINUOUS
 62
   218
 10
-683.727289169534
 20
-20.9687629266614
 30
0.0
 11
-683.377289175503
 21
-20.9687575860853
 31
0.0
  0
LINE
  5
   403
  8
0
  6
CONTINUOUS
 62
   218
 10
-634.727295339108
 20
-27.9687521292335
 30
0.0
 11
-635.077295333147
 21
-27.9687521292335
 31
0.0
  0
LINE
  5
   404
  8
0
  6
CONTINUOUS
 62
     1
 10
-666.577294796705
 20
-27.9687521292335
 30
0.0
 11
-683.377289170027
 21
-27.9687521292335
 31
0.0
  0
LINE
  5
   405
  8
0
  6
CONTINUOUS
 62
   218
 10
-634.727295339108
 20
-27.618752135194
 30
0.0
 11
-635.077295333147
 21
-27.618752135194
 31
0.0
  0
LINE
  5
   406
  8
0
  6
CONTINUOUS
 62
     1
 10
-666.577294796705
 20
-27.618752135194
 30
0.0
 11
-683.377289170027
 21
-27.618752135194
 31
0.0
  0
LINE
  5
   407
  8
0
  6
CONTINUOUS
 62
   218
 10
-635.077295333147
 20
-27.9687521292335
 30
0.0
 11
-635.077295333147
 21
-27.618752135194
 31
0.0
  0
LINE
  5
   408
  8
0
  6
CONTINUOUS
 62
     7
 10
-683.377283829451
 20
-42.3187520026156
 30
0.0
 11
-683.377283829451
 21
-41.968752034161
 31
0.0
  0
LINE
  5
   409
  8
0
  6
CONTINUOUS
 62
     7
 10
-683.377289170027
 20
-27.9687574698096
 30
0.0
 11
-683.377289170027
 21
-27.618752135194
 31
0.0
  0
LINE
  5
   40A
  8
0
  6
CONTINUOUS
 62
     7
 10
-683.377289170027
 20
-21.3187575830584
 30
0.0
 11
-683.377289170027
 21
-20.9687522484428
 31
0.0
  0
ARC
  5
   40B
  8
0
  6
CONTINUOUS
 62
     7
 10
-683.552289167047
 20
-8.89376582486751
 30
0.0
 40
0.174999997019768
 50
90.0000062832808
 51
179.999999948034
  0
ARC
  5
   40C
  8
0
  6
CONTINUOUS
 62
     7
 10
-634.902300831503
 20
-8.89376044559407
 30
0.0
 40
0.174999997019768
 50
360.000025289036
 51
450.000006283281
  0
ARC
  5
   40D
  8
0
  6
CONTINUOUS
 62
     7
 10
-634.902295362052
 20
-45.2937518341902
 30
0.0
 40
0.174999997019768
 50
269.999999948034
 51
360.000008436035
  0
ARC
  5
   40E
  8
0
  6
CONTINUOUS
 62
     7
 10
-683.552283852396
 20
-45.2937518341902
 30
0.0
 40
0.174999997019768
 50
180.000008436035
 51
269.999999948034
  0
LINE
  5
   40F
  8
0
  6
CONTINUOUS
 62
     1
 10
-667.539794780314
 20
-41.9687508456759
 30
0.0
 11
-667.539794780314
 21
-35.6687519981033
 31
0.0
  0
LINE
  5
   410
  8
0
  6
CONTINUOUS
 62
     1
 10
-650.914795063436
 20
-41.968749598094
 30
0.0
 11
-650.914795063436
 21
-35.6687519981033
 31
0.0
  0
LINE
  5
   411
  8
0
  6
CONTINUOUS
 62
     1
 10
-667.539794780314
 20
-27.618752135194
 30
0.0
 11
-667.539794780314
 21
-21.3187522424824
 31
0.0
  0
LINE
  5
   412
  8
0
  6
CONTINUOUS
 62
     1
 10
-650.914795063436
 20
-27.618752135194
 30
0.0
 11
-650.914795063436
 21
-21.3187522424823
 31
0.0
  0
LINE
  5
   413
  8
0
  6
CONTINUOUS
 62
     1
 10
-670.68979472667
 20
-22.8937522156603
 30
0.0
 11
-671.214794717729
 21
-22.8937522156603
 31
0.0
  0
LINE
  5
   414
  8
0
  6
CONTINUOUS
 62
     1
 10
-670.68979472667
 20
-26.0437521620161
 30
0.0
 11
-671.214794717729
 21
-26.0437521620161
 31
0.0
  0
LINE
  5
   415
  8
0
  6
CONTINUOUS
 62
     1
 10
-671.214794717729
 20
-26.0437521620161
 30
0.0
 11
-671.214794717729
 21
-22.8937522156603
 31
0.0
  0
LINE
  5
   416
  8
0
  6
CONTINUOUS
 62
     1
 10
-670.68979472667
 20
-26.0437521620161
 30
0.0
 11
-670.68979472667
 21
-22.8937522156603
 31
0.0
  0
CIRCLE
  5
   417
  8
0
  6
CONTINUOUS
 62
     1
 10
-670.952294722199
 20
-38.8187519444591
 30
0.0
 40
1.57499997317791
  0
CIRCLE
  5
   418
  8
0
  6
CONTINUOUS
 62
     1
 10
-670.952294722199
 20
-38.8187519444591
 30
0.0
 40
1.04999998211861
  0
LINE
  5
   419
  8
0
  6
CONTINUOUS
 62
     3
 10
-695.102304920179
 20
-76.0762569175704
 30
0.0
 11
-695.977286505655
 21
-76.0762569175704
 31
0.0
  0
LINE
  5
   41A
  8
0
  6
CONTINUOUS
 62
     3
 10
-695.102304920179
 20
-76.531256976579
 30
0.0
 11
-695.102304920179
 21
-76.0762569175704
 31
0.0
  0
LINE
  5
   41B
  8
0
  6
CONTINUOUS
 62
     3
 10
-672.53304532257
 20
-77.0562566338508
 30
0.0
 11
-694.577304929119
 21
-77.0562566338508
 31
0.0
  0
LINE
  5
   41C
  8
0
  6
CONTINUOUS
 62
     1
 10
-641.727311169725
 20
-68.6562621174795
 30
0.0
 11
-650.302311023694
 21
-68.6562621174795
 31
0.0
  0
LINE
  5
   41D
  8
0
  6
CONTINUOUS
 62
     1
 10
-628.252315225273
 20
-68.6562720812383
 30
0.0
 11
-639.977315025597
 21
-68.6562720812383
 31
0.0
  0
LINE
  5
   41E
  8
0
  6
CONTINUOUS
 62
     1
 10
-623.352309192692
 20
-68.6562655502746
 30
0.0
 11
-625.802314491021
 21
-68.6562602097006
 31
0.0
  0
LINE
  5
   41F
  8
0
  6
CONTINUOUS
 62
     1
 10
-695.102304920179
 20
-76.0762569175704
 30
0.0
 11
-695.102304920179
 21
-68.5862621186716
 31
0.0
  0
LINE
  5
   420
  8
0
  6
CONTINUOUS
 62
     1
 10
-639.977311199528
 20
-68.6562567769034
 30
0.0
 11
-641.727305829149
 21
-68.6562567769034
 31
0.0
  0
LINE
  5
   421
  8
0
  6
CONTINUOUS
 62
     1
 10
-625.802311440927
 20
-68.6562567769034
 30
0.0
 11
-628.252311399203
 21
-68.6562567769034
 31
0.0
  0
LINE
  5
   422
  8
0
  6
CONTINUOUS
 62
     1
 10
-679.702307536859
 20
-70.231264689405
 30
0.0
 11
-681.620033639086
 21
-70.2312593488306
 31
0.0
  0
LINE
  5
   423
  8
0
  6
CONTINUOUS
 62
     1
 10
-685.83458663785
 20
-70.2312636336723
 30
0.0
 11
-687.752312740523
 21
-70.2312582930979
 31
0.0
  0
LINE
  5
   424
  8
0
  6
CONTINUOUS
 62
     1
 10
-685.834584283329
 20
-74.4312566785558
 30
0.0
 11
-687.752310385924
 21
-74.4312566785558
 31
0.0
  0
LINE
  5
   425
  8
0
  6
CONTINUOUS
 62
     1
 10
-679.702310523015
 20
-74.4312566785558
 30
0.0
 11
-681.620031285034
 21
-74.4312566785558
 31
0.0
  0
LINE
  5
   426
  8
0
  6
CONTINUOUS
 62
     1
 10
-650.302311023694
 20
-68.6562567769034
 30
0.0
 11
-695.102304920179
 21
-68.6562567769034
 31
0.0
  0
ARC
  5
   427
  8
0
  6
CONTINUOUS
 62
     3
 10
-694.577306644665
 20
-76.5312576023492
 30
0.0
 40
0.524998573004765
 50
179.999941123702
 51
270.000103159103
  0
CIRCLE
  5
   428
  8
0
  6
CONTINUOUS
 62
     1
 10
-693.702305719154
 20
-75.6562571566335
 30
0.0
 40
0.49000039187499
  0
ARC
  5
   429
  8
0
  6
CONTINUOUS
 62
     1
 10
-687.752316570507
 20
-72.3312613672364
 30
0.0
 40
2.09999798521424
 50
90.0001399327154
 51
270.000100332566
  0
ARC
  5
   42A
  8
0
  6
CONTINUOUS
 62
     1
 10
-683.727313968566
 20
-72.331224603792
 30
0.0
 40
2.97503256700413
 50
404.899302393594
 51
495.100813987516
  0
ARC
  5
   42B
  8
0
  6
CONTINUOUS
 62
     1
 10
-679.702309065495
 20
-72.3312592343404
 30
0.0
 40
2.09999509708851
 50
269.999747131106
 51
450.000048027357
  0
ARC
  5
   42C
  8
0
  6
CONTINUOUS
 62
     1
 10
-683.727313968566
 20
-72.331224603792
 30
0.0
 40
2.97503256700413
 50
224.901119153159
 51
315.09888074291
  0
LINE
  5
   42D
  8
0
  6
DASHDOT
 62
     2
 10
-679.702281419443
 20
-72.331224603792
 30
0.0
 11
-687.752346517689
 21
-72.331224603792
 31
0.0
  0
LINE
  5
   42E
  8
0
  6
DASHDOT
 62
     2
 10
-679.702309065495
 20
-75.4812543135475
 30
0.0
 11
-679.702309065495
 21
-69.1812641551333
 31
0.0
  0
LINE
  5
   42F
  8
0
  6
DASHDOT
 62
     2
 10
-676.552313986288
 20
-72.3312592343404
 30
0.0
 11
-682.852304144702
 21
-72.3312592343404
 31
0.0
  0
LINE
  5
   430
  8
0
  6
DASHDOT
 62
     2
 10
-687.752316570507
 20
-75.4812593345692
 30
0.0
 11
-687.752316570507
 21
-69.1812633999035
 31
0.0
  0
LINE
  5
   431
  8
0
  6
DASHDOT
 62
     2
 10
-684.602318603174
 20
-72.3312613672364
 30
0.0
 11
-690.90231453784
 21
-72.3312613672364
 31
0.0
  0
LINE
  5
   432
  8
0
  6
DASHDOT
 62
     2
 10
-659.227294921875
 20
-104.54490926729
 30
0.0
 11
-659.227294921875
 21
-51.7494941985816
 31
0.0
  0
LINE
  5
   433
  8
0
  6
DASHDOT
 62
     2
 10
-693.702305719154
 20
-77.1962575306271
 30
0.0
 11
-693.702305719154
 21
-74.1162567826399
 31
0.0
  0
LINE
  5
   434
  8
0
  6
DASHDOT
 62
     2
 10
-692.162305345161
 20
-75.6562571566335
 30
0.0
 11
-695.242306093148
 21
-75.6562571566335
 31
0.0
  0
LINE
  5
   435
  8
0
  6
CONTINUOUS
 62
     1
 10
-646.69729513526
 20
-37.4712519674069
 30
0.0
 11
-646.854795132577
 21
-37.4712519674069
 31
0.0
  0
LINE
  5
   436
  8
0
  6
CONTINUOUS
 62
     1
 10
-647.029795129597
 20
-40.1662519215113
 30
0.0
 11
-647.309795124829
 21
-40.1662519215113
 31
0.0
  0
LINE
  5
   437
  8
0
  6
CONTINUOUS
 62
     1
 10
-649.549795086682
 20
-39.2562519370085
 30
0.0
 11
-649.549795086682
 21
-39.0812519399888
 31
0.0
  0
LINE
  5
   438
  8
0
  6
CONTINUOUS
 62
     1
 10
-647.729795117676
 20
-39.2562519370085
 30
0.0
 11
-647.729795117676
 21
-39.0812519399888
 31
0.0
  0
ARC
  5
   439
  8
0
  6
CONTINUOUS
 62
     1
 10
-648.639795102179
 20
-39.0812519399888
 30
0.0
 40
0.909999984502793
 50
359.999999948034
 51
539.999999948034
  0
ARC
  5
   43A
  8
0
  6
CONTINUOUS
 62
     1
 10
-648.639795102179
 20
-39.2562519370085
 30
0.0
 40
0.909999984502792
 50
179.999999948034
 51
359.999999948034
  0
ARC
  5
   43B
  8
0
  6
CONTINUOUS
 62
     1
 10
-648.639795102179
 20
-39.0812519399888
 30
0.0
 40
0.629999989271164
 50
359.999999948034
 51
539.999999948034
  0
ARC
  5
   43C
  8
0
  6
CONTINUOUS
 62
     1
 10
-648.639795102179
 20
-39.2562519370085
 30
0.0
 40
0.629999989271163
 50
179.999999948034
 51
359.999999948034
  0
LINE
  5
   43D
  8
0
  6
CONTINUOUS
 62
     1
 10
-649.26979509145
 20
-39.2562519370085
 30
0.0
 11
-649.26979509145
 21
-39.0812519399888
 31
0.0
  0
LINE
  5
   43E
  8
0
  6
CONTINUOUS
 62
     1
 10
-648.009795112908
 20
-39.2562519370085
 30
0.0
 11
-648.009795112908
 21
-39.0812519399888
 31
0.0
  0
LINE
  5
   43F
  8
0
  6
CONTINUOUS
 62
     1
 10
-647.642295119166
 20
-38.5912519483334
 30
0.0
 11
-647.642295119166
 21
-38.3112519531018
 31
0.0
  0
LINE
  5
   440
  8
0
  6
CONTINUOUS
 62
     1
 10
-647.309795124829
 20
-38.5912519483334
 30
0.0
 11
-647.642295119166
 21
-38.5912519483334
 31
0.0
  0
LINE
  5
   441
  8
0
  6
CONTINUOUS
 62
     1
 10
-646.69729513526
 20
-38.5912519483334
 30
0.0
 11
-646.69729513526
 21
-38.3112519531018
 31
0.0
  0
LINE
  5
   442
  8
0
  6
CONTINUOUS
 62
     1
 10
-647.309795124829
 20
-38.3112519531018
 30
0.0
 11
-647.642295119166
 21
-38.3112519531018
 31
0.0
  0
LINE
  5
   443
  8
0
  6
CONTINUOUS
 62
     1
 10
-647.309795124829
 20
-40.1662519215113
 30
0.0
 11
-647.309795124829
 21
-38.5912519483334
 31
0.0
  0
LINE
  5
   444
  8
0
  6
CONTINUOUS
 62
     1
 10
-647.029795129597
 20
-40.1662519215113
 30
0.0
 11
-647.029795129597
 21
-38.5912519483334
 31
0.0
  0
LINE
  5
   445
  8
0
  6
CONTINUOUS
 62
     1
 10
-646.69729513526
 20
-38.5912519483334
 30
0.0
 11
-647.029795129597
 21
-38.5912519483334
 31
0.0
  0
LINE
  5
   446
  8
0
  6
CONTINUOUS
 62
     1
 10
-646.69729513526
 20
-38.3112519531018
 30
0.0
 11
-647.029795129597
 21
-38.3112519531018
 31
0.0
  0
LINE
  5
   447
  8
0
  6
CONTINUOUS
 62
     1
 10
-647.309795124829
 20
-38.3112519531018
 30
0.0
 11
-647.309795124829
 21
-37.9262519596583
 31
0.0
  0
LINE
  5
   448
  8
0
  6
CONTINUOUS
 62
     1
 10
-647.029795129597
 20
-38.3112519531018
 30
0.0
 11
-647.029795129597
 21
-37.9262519596583
 31
0.0
  0
ARC
  5
   449
  8
0
  6
CONTINUOUS
 62
     1
 10
-646.854795132577
 20
-37.9262519596583
 30
0.0
 40
0.454999992251396
 50
449.999999948034
 51
539.999999948034
  0
ARC
  5
   44A
  8
0
  6
CONTINUOUS
 62
     1
 10
-646.854795132577
 20
-37.9262519596583
 30
0.0
 40
0.174999997019768
 50
449.999999948034
 51
539.999999948034
  0
LINE
  5
   44B
  8
0
  6
CONTINUOUS
 62
     1
 10
-646.69729513526
 20
-37.7512519626385
 30
0.0
 11
-646.69729513526
 21
-37.4712519674069
 31
0.0
  0
LINE
  5
   44C
  8
0
  6
CONTINUOUS
 62
     1
 10
-646.69729513526
 20
-37.7512519626385
 30
0.0
 11
-646.854795132577
 21
-37.7512519626385
 31
0.0
  0
LINE
  5
   44D
  8
0
  6
CONTINUOUS
 62
     1
 10
-645.577295154333
 20
-37.4712519674069
 30
0.0
 11
-645.734795151651
 21
-37.4712519674069
 31
0.0
  0
LINE
  5
   44E
  8
0
  6
CONTINUOUS
 62
     1
 10
-645.909795148671
 20
-40.1662519215113
 30
0.0
 11
-646.189795143902
 21
-40.1662519215113
 31
0.0
  0
LINE
  5
   44F
  8
0
  6
CONTINUOUS
 62
     1
 10
-646.52229513824
 20
-38.5912519483334
 30
0.0
 11
-646.52229513824
 21
-38.3112519531018
 31
0.0
  0
LINE
  5
   450
  8
0
  6
CONTINUOUS
 62
     1
 10
-646.189795143902
 20
-38.5912519483334
 30
0.0
 11
-646.52229513824
 21
-38.5912519483334
 31
0.0
  0
LINE
  5
   451
  8
0
  6
CONTINUOUS
 62
     1
 10
-645.577295154333
 20
-38.5912519483334
 30
0.0
 11
-645.577295154333
 21
-38.3112519531018
 31
0.0
  0
LINE
  5
   452
  8
0
  6
CONTINUOUS
 62
     1
 10
-646.189795143902
 20
-38.3112519531018
 30
0.0
 11
-646.52229513824
 21
-38.3112519531018
 31
0.0
  0
LINE
  5
   453
  8
0
  6
CONTINUOUS
 62
     1
 10
-646.189795143902
 20
-40.1662519215113
 30
0.0
 11
-646.189795143902
 21
-38.5912519483334
 31
0.0
  0
LINE
  5
   454
  8
0
  6
CONTINUOUS
 62
     1
 10
-645.909795148671
 20
-40.1662519215113
 30
0.0
 11
-645.909795148671
 21
-38.5912519483334
 31
0.0
  0
LINE
  5
   455
  8
0
  6
CONTINUOUS
 62
     1
 10
-645.577295154333
 20
-38.5912519483334
 30
0.0
 11
-645.909795148671
 21
-38.5912519483334
 31
0.0
  0
LINE
  5
   456
  8
0
  6
CONTINUOUS
 62
     1
 10
-645.577295154333
 20
-38.3112519531018
 30
0.0
 11
-645.909795148671
 21
-38.3112519531018
 31
0.0
  0
LINE
  5
   457
  8
0
  6
CONTINUOUS
 62
     1
 10
-646.189795143902
 20
-38.3112519531018
 30
0.0
 11
-646.189795143902
 21
-37.9262519596583
 31
0.0
  0
LINE
  5
   458
  8
0
  6
CONTINUOUS
 62
     1
 10
-645.909795148671
 20
-38.3112519531018
 30
0.0
 11
-645.909795148671
 21
-37.9262519596583
 31
0.0
  0
ARC
  5
   459
  8
0
  6
CONTINUOUS
 62
     1
 10
-645.734795151651
 20
-37.9262519596583
 30
0.0
 40
0.454999992251396
 50
449.999999948034
 51
539.999999948034
  0
ARC
  5
   45A
  8
0
  6
CONTINUOUS
 62
     1
 10
-645.734795151651
 20
-37.9262519596583
 30
0.0
 40
0.174999997019768
 50
449.999999948034
 51
539.999999948034
  0
LINE
  5
   45B
  8
0
  6
CONTINUOUS
 62
     1
 10
-645.577295154333
 20
-37.7512519626385
 30
0.0
 11
-645.577295154333
 21
-37.4712519674069
 31
0.0
  0
LINE
  5
   45C
  8
0
  6
CONTINUOUS
 62
     1
 10
-645.577295154333
 20
-37.7512519626385
 30
0.0
 11
-645.734795151651
 21
-37.7512519626385
 31
0.0
  0
LINE
  5
   45D
  8
0
  6
CONTINUOUS
 62
     1
 10
-647.169795127213
 20
-25.4662521718508
 30
0.0
 11
-647.449795122445
 21
-25.4662521718508
 31
0.0
  0
ARC
  5
   45E
  8
0
  6
CONTINUOUS
 62
     1
 10
-648.639795102179
 20
-24.3812521903283
 30
0.0
 40
0.909999984502793
 50
359.999999948034
 51
539.999999948034
  0
ARC
  5
   45F
  8
0
  6
CONTINUOUS
 62
     1
 10
-648.639795102179
 20
-24.3812521903283
 30
0.0
 40
0.629999989271164
 50
359.999999948034
 51
539.999999948034
  0
ARC
  5
   460
  8
0
  6
CONTINUOUS
 62
     1
 10
-648.639795102179
 20
-24.5562521873481
 30
0.0
 40
0.909999984502792
 50
179.999999948034
 51
359.999999948034
  0
ARC
  5
   461
  8
0
  6
CONTINUOUS
 62
     1
 10
-648.639795102179
 20
-24.5562521873481
 30
0.0
 40
0.629999989271163
 50
179.999999948034
 51
359.999999948034
  0
LINE
  5
   462
  8
0
  6
CONTINUOUS
 62
     1
 10
-648.009795112908
 20
-24.5562521873481
 30
0.0
 11
-648.009795112908
 21
-24.3812521903283
 31
0.0
  0
LINE
  5
   463
  8
0
  6
CONTINUOUS
 62
     1
 10
-647.729795117676
 20
-24.5562521873481
 30
0.0
 11
-647.729795117676
 21
-24.3812521903283
 31
0.0
  0
LINE
  5
   464
  8
0
  6
CONTINUOUS
 62
     1
 10
-649.26979509145
 20
-24.5562521873481
 30
0.0
 11
-649.26979509145
 21
-24.3812521903283
 31
0.0
  0
LINE
  5
   465
  8
0
  6
CONTINUOUS
 62
     1
 10
-649.549795086682
 20
-24.5562521873481
 30
0.0
 11
-649.549795086682
 21
-24.3812521903283
 31
0.0
  0
LINE
  5
   466
  8
0
  6
CONTINUOUS
 62
     1
 10
-647.449795122445
 20
-25.4662521718508
 30
0.0
 11
-647.449795122445
 21
-23.4712522058255
 31
0.0
  0
LINE
  5
   467
  8
0
  6
CONTINUOUS
 62
     1
 10
-647.169795127213
 20
-25.4662521718508
 30
0.0
 11
-647.169795127213
 21
-24.2412521927125
 31
0.0
  0
LINE
  5
   468
  8
0
  6
CONTINUOUS
 62
     1
 10
-646.189795143902
 20
-25.4662521718508
 30
0.0
 11
-646.189795143902
 21
-24.2412521927125
 31
0.0
  0
LINE
  5
   469
  8
0
  6
CONTINUOUS
 62
     1
 10
-645.909795148671
 20
-25.4662521718508
 30
0.0
 11
-645.909795148671
 21
-24.1712521939046
 31
0.0
  0
LINE
  5
   46A
  8
0
  6
CONTINUOUS
 62
     1
 10
-647.169795127213
 20
-23.4712522058255
 30
0.0
 11
-647.449795122445
 21
-23.4712522058255
 31
0.0
  0
ARC
  5
   46B
  8
0
  6
CONTINUOUS
 62
     1
 10
-646.679795135558
 20
-24.2412521927125
 30
0.0
 40
0.489999991655349
 50
359.999999948034
 51
539.999999948034
  0
LINE
  5
   46C
  8
0
  6
CONTINUOUS
 62
     1
 10
-647.169795127213
 20
-23.7512522010571
 30
0.0
 11
-647.169795127213
 21
-23.4712522058255
 31
0.0
  0
ARC
  5
   46D
  8
0
  6
CONTINUOUS
 62
     1
 10
-646.60979513675
 20
-24.1712521939046
 30
0.0
 40
0.699999988079071
 50
359.999999948034
 51
503.13010230219
  0
LINE
  5
   46E
  8
0
  6
CONTINUOUS
 62
     1
 10
-645.909795148671
 20
-25.4662521718508
 30
0.0
 11
-646.189795143902
 21
-25.4662521718508
 31
0.0
  0
LINE
  5
   46F
  8
0
  6
CONTINUOUS
 62
     7
 10
-651.877295047045
 20
-37.6733971452728
 30
0.0
 11
-666.577294796705
 21
-37.6733971452728
 31
0.0
  0
LINE
  5
   470
  8
0
  6
CONTINUOUS
 62
     7
 10
-651.877295047045
 20
-34.796219447141
 30
0.0
 11
-666.577294796705
 21
-34.796219447141
 31
0.0
  0
LINE
  5
   471
  8
0
  6
CONTINUOUS
 62
     7
 10
-651.877295047045
 20
-40.6968549746204
 30
0.0
 11
-666.577294796705
 21
-40.6968549746204
 31
0.0
  0
LINE
  5
   472
  8
0
  6
CONTINUOUS
 62
     7
 10
-651.877295047045
 20
-44.0439377895213
 30
0.0
 11
-666.577294796705
 21
-44.0439377895213
 31
0.0
  0
LINE
  5
   473
  8
0
  6
CONTINUOUS
 62
     7
 10
-651.877295047045
 20
-34.796219447141
 30
0.0
 11
-651.877295047045
 21
-22.2906409588413
 31
0.0
  0
LINE
  5
   474
  8
0
  6
CONTINUOUS
 62
     7
 10
-666.577294796705
 20
-34.796219447141
 30
0.0
 11
-666.577294796705
 21
-22.2906409588413
 31
0.0
  0
LINE
  5
   475
  8
0
  6
CONTINUOUS
 62
     1
 10
-666.577294796705
 20
-41.9687502218847
 30
0.0
 11
-683.377283829451
 21
-41.9687502218847
 31
0.0
  0
LINE
  5
   476
  8
0
  6
DASHDOT
 62
     7
 10
-634.727295339108
 20
6.33179177373122
 30
0.0
 11
-634.727295339108
 21
17.9172305685098
 31
0.0
  0
LINE
  5
   477
  8
0
  6
DASHDOT
 62
     7
 10
-683.727294504643
 20
7.05588169840489
 30
0.0
 11
-683.727294504643
 21
19.2447287637448
 31
0.0
  0
LINE
  5
   478
  8
0
  6
CONTINUOUS
 62
     1
 10
-685.82729446888
 20
-8.71876313821137
 30
0.0
 11
-695.802286508635
 21
-8.71876313821137
 31
0.0
  0
LINE
  5
   479
  8
0
  6
CONTINUOUS
 62
   218
 10
-683.377289170027
 20
-21.3187522424823
 30
0.0
 11
-683.727289164066
 21
-21.3187522424823
 31
0.0
  0
LINE
  5
   47A
  8
0
  6
CONTINUOUS
 62
     1
 10
-635.077295333147
 20
-20.9687522484428
 30
0.0
 11
-683.377289170027
 21
-20.9687522484428
 31
0.0
  0
LINE
  5
   47B
  8
0
  6
CONTINUOUS
 62
     1
 10
-635.077295333147
 20
-21.3187522424823
 30
0.0
 11
-683.377289170027
 21
-21.3187522424823
 31
0.0
  0
LINE
  5
   47C
  8
0
  6
CONTINUOUS
 62
     1
 10
-635.077295333147
 20
-27.618752135194
 30
0.0
 11
-651.877300387621
 21
-27.618752135194
 31
0.0
  0
LINE
  5
   47D
  8
0
  6
CONTINUOUS
 62
     1
 10
-635.077295333147
 20
-27.9687521292335
 30
0.0
 11
-651.877300387621
 21
-27.9687521292335
 31
0.0
  0
LINE
  5
   47E
  8
0
  6
CONTINUOUS
 62
     1
 10
-635.077289992571
 20
-35.3187520040638
 30
0.0
 11
-651.877300387621
 21
-35.3187520040638
 31
0.0
  0
LINE
  5
   47F
  8
0
  6
CONTINUOUS
 62
     1
 10
-635.077289992571
 20
-35.6687519981033
 30
0.0
 11
-651.877300387621
 21
-35.6687519981033
 31
0.0
  0
LINE
  5
   480
  8
0
  6
CONTINUOUS
 62
     1
 10
-635.077289992571
 20
-41.9687502218847
 30
0.0
 11
-651.877295047045
 21
-41.9687502218847
 31
0.0
  0
LINE
  5
   481
  8
0
  6
CONTINUOUS
 62
   218
 10
-683.377283829451
 20
-41.9687502218847
 30
0.0
 11
-683.727289164066
 21
-41.9687502218847
 31
0.0
  0
LINE
  5
   482
  8
0
  6
CONTINUOUS
 62
   218
 10
-683.377289170027
 20
-35.6687519981033
 30
0.0
 11
-683.727289164066
 21
-35.6687519981033
 31
0.0
  0
LINE
  5
   483
  8
0
  6
CONTINUOUS
 62
   218
 10
-683.377289170027
 20
-27.618752135194
 30
0.0
 11
-683.727289164066
 21
-27.618752135194
 31
0.0
  0
LINE
  5
   484
  8
0
  6
CONTINUOUS
 62
   218
 10
-683.377289170027
 20
-27.9687521292335
 30
0.0
 11
-683.727289164066
 21
-27.9687521292335
 31
0.0
  0
LINE
  5
   485
  8
0
  6
CONTINUOUS
 62
     1
 10
-683.377289170027
 20
-20.9687522484428
 30
0.0
 11
-683.691048014781
 21
-20.9687522484428
 31
0.0
  0
LINE
  5
   486
  8
0
  6
CONTINUOUS
 62
     7
 10
-683.377283829451
 20
-42.3187520026156
 30
0.0
 11
-683.72728382349
 21
-42.3187520026156
 31
0.0
  0
LINE
  5
   487
  8
0
  6
CONTINUOUS
 62
     7
 10
-634.727295339108
 20
-42.3187520544658
 30
0.0
 11
-635.077289992571
 21
-42.3187482132084
 31
0.0
  0
LINE
  5
   488
  8
0
  6
CONTINUOUS
 62
     1
 10
-635.077289992571
 20
-42.3187482132084
 30
0.0
 11
-651.877295047045
 21
-42.3187482132084
 31
0.0
  0
LINE
  5
   489
  8
0
  6
CONTINUOUS
 62
     1
 10
-666.577294796705
 20
-42.3187520026155
 30
0.0
 11
-683.377283829451
 21
-42.3187520026155
 31
0.0
  0
LINE
  5
   48A
  8
0
  6
CONTINUOUS
 62
     1
 10
-646.977378029578
 20
56.0312758730126
 30
0.0
 11
-646.977378029578
 21
63.206275750823
 31
0.0
  0
LINE
  5
   48B
  8
0
  6
DASHDOT
 62
     7
 10
-643.389878090672
 20
59.6187758119178
 30
0.0
 11
-650.564877968483
 21
59.6187758119178
 31
0.0
  0
LINE
  5
   48C
  8
0
  6
DASHDOT
 62
     7
 10
-671.477211814172
 20
56.0312758730126
 30
0.0
 11
-671.477211814172
 21
63.206275750823
 31
0.0
  0
LINE
  5
   48D
  8
0
  6
DASHDOT
 62
     7
 10
-667.889711875267
 20
59.6187758119178
 30
0.0
 11
-675.064711753078
 21
59.6187758119178
 31
0.0
  0
LINE
  5
   48E
  8
0
  6
DASHDOT
 62
     7
 10
-608.054066708712
 20
-27.0937628252866
 30
0.0
 11
-699.258981696714
 21
-27.0937628252866
 31
0.0
  0
LINE
  5
   48F
  8
0
  6
DASHDOT
 62
     7
 10
-712.682345185064
 20
-27.0937628252866
 30
0.0
 11
-715.298763492116
 21
-27.0937628252866
 31
0.0
  0
INSERT
  5
   490
  8
255
  6
CONTINUOUS
 62
     7
  2
$6MOSTRINA
 10
-705.545684025656
 20
-65.5869803055848
 30
0.0
 41
0.349999994039536
 42
0.349999994039536
 50
359.999999792138
 43
0.349999994039536
  0
LINE
  5
   491
  8
0
  6
CONTINUOUS
 62
     1
 10
-685.82729446888
 20
-53.081257063008
 30
0.0
 11
-695.977286505655
 21
-53.081257063008
 31
0.0
  0
LINE
  5
   492
  8
0
  6
CONTINUOUS
 62
     1
 10
-685.82729446888
 20
-53.431257036186
 30
0.0
 11
-695.539786533967
 21
-53.431257036186
 31
0.0
  0
LINE
  5
   493
  8
0
  6
CONTINUOUS
 62
     3
 10
-672.264810649675
 20
65.0437464565018
 30
0.0
 11
-694.752289951167
 21
65.0437464565018
 31
0.0
  0
ARC
  5
   494
  8
0
  6
CONTINUOUS
 62
     3
 10
-694.752274082618
 20
64.6937393550304
 30
0.0
 40
0.349996002028132
 50
90.0005173512766
 51
180.001122723422
  0
LINE
  5
   495
  8
0
  6
CONTINUOUS
 62
     3
 10
-695.102272948623
 20
63.9937411338092
 30
0.0
 11
-695.102272948623
 21
64.6937411218883
 31
0.0
  0
LINE
  5
   496
  8
0
  6
CONTINUOUS
 62
     3
 10
-695.102272948623
 20
63.9937411338092
 30
0.0
 11
-695.977286505655
 21
63.9937411338092
 31
0.0
  0
LINE
  5
   497
  8
0
  6
CONTINUOUS
 62
     3
 10
-672.264810649675
 20
64.1687519817115
 30
0.0
 11
-672.264810649675
 21
65.0437519668103
 31
0.0
  0
LINE
  5
   498
  8
0
  6
CONTINUOUS
 62
     3
 10
-672.264810649675
 20
64.1687519817056
 30
0.0
 11
-672.702310642224
 21
64.1687519817056
 31
0.0
  0
LINE
  5
   499
  8
0
  6
CONTINUOUS
 62
     3
 10
-672.702310642224
 20
62.5937520085277
 30
0.0
 11
-672.702310642224
 21
64.1687519817056
 31
0.0
  0
LINE
  5
   49A
  8
0
  6
CONTINUOUS
 62
     3
 10
-670.252310683948
 20
62.5937520085277
 30
0.0
 11
-672.702310642224
 21
62.5937520085277
 31
0.0
  0
LINE
  5
   49B
  8
0
  6
CONTINUOUS
 62
     3
 10
-670.252310683948
 20
62.5937520085277
 30
0.0
 11
-670.252310683948
 21
64.1687519817056
 31
0.0
  0
LINE
  5
   49C
  8
0
  6
CONTINUOUS
 62
     3
 10
-670.252310683948
 20
64.1687519817056
 30
0.0
 11
-670.689810676497
 21
64.1687519817056
 31
0.0
  0
LINE
  5
   49D
  8
0
  6
CONTINUOUS
 62
     3
 10
-670.689810676497
 20
64.168751981705
 30
0.0
 11
-670.689810676497
 21
65.0437519668038
 31
0.0
  0
LINE
  5
   49E
  8
0
  6
CONTINUOUS
 62
     3
 10
-647.764805726331
 20
65.0437411159257
 30
0.0
 11
-670.689810676497
 21
65.0437411159257
 31
0.0
  0
LINE
  5
   49F
  8
0
  6
CONTINUOUS
 62
     3
 10
-647.764805726331
 20
64.168751981705
 30
0.0
 11
-647.764805726331
 21
65.0437519668038
 31
0.0
  0
LINE
  5
   4A0
  8
0
  6
CONTINUOUS
 62
     3
 10
-647.764805726331
 20
64.1687519817056
 30
0.0
 11
-648.202305718881
 21
64.1687519817056
 31
0.0
  0
LINE
  5
   4A1
  8
0
  6
CONTINUOUS
 62
     3
 10
-648.202305718881
 20
62.5937520085277
 30
0.0
 11
-648.202305718881
 21
64.1687519817056
 31
0.0
  0
LINE
  5
   4A2
  8
0
  6
CONTINUOUS
 62
     3
 10
-645.752305760604
 20
62.5937520085277
 30
0.0
 11
-648.202305718881
 21
62.5937520085277
 31
0.0
  0
LINE
  5
   4A3
  8
0
  6
CONTINUOUS
 62
     3
 10
-645.752305760604
 20
62.5937520085277
 30
0.0
 11
-645.752305760604
 21
64.1687519817056
 31
0.0
  0
LINE
  5
   4A4
  8
0
  6
CONTINUOUS
 62
     3
 10
-645.752305760604
 20
64.1687519817056
 30
0.0
 11
-646.189805753153
 21
64.1687519817056
 31
0.0
  0
LINE
  5
   4A5
  8
0
  6
CONTINUOUS
 62
     3
 10
-646.189805753153
 20
64.1687519817115
 30
0.0
 11
-646.189805753153
 21
65.0437519668103
 31
0.0
  0
LINE
  5
   4A6
  8
0
  6
CONTINUOUS
 62
     3
 10
-623.702299892583
 20
65.0437464565018
 30
0.0
 11
-646.189805753153
 21
65.0437464565018
 31
0.0
  0
ARC
  5
   4A7
  8
0
  6
CONTINUOUS
 62
     3
 10
-623.702314141401
 20
64.6937331271928
 30
0.0
 40
0.349999722807106
 50
360.000054589548
 51
449.999945306521
  0
LINE
  5
   4A8
  8
0
  6
CONTINUOUS
 62
     7
 10
-623.352303543687
 20
56.4687412619643
 30
0.0
 11
-623.352303543687
 21
64.6937331271928
 31
0.0
  0
LINE
  5
   4A9
  8
0
  6
CONTINUOUS
 62
     3
 10
-622.477287757352
 20
63.9937411338092
 30
0.0
 11
-623.352316895127
 21
63.9937411338092
 31
0.0
  0
LINE
  5
   4AA
  8
0
  6
CONTINUOUS
 62
     1
 10
-623.352303543687
 20
56.4687412619643
 30
0.0
 11
-623.352303543687
 21
64.6937331271928
 31
0.0
  0
LINE
  5
   4AB
  8
0
  6
CONTINUOUS
 62
     7
 10
-623.352298203112
 20
56.643749957854
 30
0.0
 11
-695.102272948623
 21
56.643749957854
 31
0.0
  0
LINE
  5
   4AC
  8
0
  6
CONTINUOUS
 62
     7
 10
-623.352298203112
 20
56.643749957854
 30
0.0
 11
-695.102272948623
 21
56.643749957854
 31
0.0
  0
LINE
  5
   4AD
  8
0
  6
CONTINUOUS
 62
     1
 10
-622.477287757352
 20
56.4687410922282
 30
0.0
 11
-695.889786507145
 21
56.4687410922282
 31
0.0
  0
LINE
  5
   4AE
  8
0
  6
CONTINUOUS
 62
     1
 10
-622.477287757352
 20
8.27374742328914
 30
0.0
 11
-695.977286505655
 21
8.27374742328914
 31
0.0
  0
LINE
  5
   4AF
  8
0
  6
CONTINUOUS
 62
     1
 10
-622.477287757352
 20
8.62374741732868
 30
0.0
 11
-695.977286505655
 21
8.62374741732868
 31
0.0
  0
LINE
  5
   4B0
  8
0
  6
CONTINUOUS
 62
     3
 10
-695.539786513105
 20
8.27374742328914
 30
0.0
 11
-695.539786513105
 21
8.62374741732868
 31
0.0
  0
LINE
  5
   4B1
  8
0
  6
CONTINUOUS
 62
     3
 10
-622.914787749902
 20
8.27374742328914
 30
0.0
 11
-622.914787749902
 21
8.62374741732868
 31
0.0
  0
LINE
  5
   4B2
  8
0
  6
CONTINUOUS
 62
     1
 10
-622.477303338095
 20
-68.5862621186716
 30
0.0
 11
-695.977286505655
 21
-68.5862621186716
 31
0.0
  0
LINE
  5
   4B3
  8
0
  6
CONTINUOUS
 62
     1
 10
-685.82729446888
 20
-53.5012570349939
 30
0.0
 11
-695.977286505655
 21
-53.5012570349939
 31
0.0
  0
LINE
  5
   4B4
  8
0
  6
CONTINUOUS
 62
     1
 10
-622.564787755862
 20
-53.5012570349939
 30
0.0
 11
-632.62729537487
 21
-53.5012570349939
 31
0.0
  0
LINE
  5
   4B5
  8
0
  6
CONTINUOUS
 62
     1
 10
-623.229790948883
 20
-68.5862621186716
 30
0.0
 11
-623.229790948883
 21
-53.5012570349939
 31
0.0
  0
LINE
  5
   4B6
  8
0
  6
CONTINUOUS
 62
     1
 10
-624.034792003289
 20
-68.5862621186716
 30
0.0
 11
-624.034792003289
 21
-53.5012570349939
 31
0.0
  0
LINE
  5
   4B7
  8
0
  6
CONTINUOUS
 62
     1
 10
-625.294788777486
 20
-68.5862621186716
 30
0.0
 11
-625.294788777486
 21
-53.5012570349939
 31
0.0
  0
LINE
  5
   4B8
  8
0
  6
CONTINUOUS
 62
     1
 10
-626.554790892259
 20
-68.5862621186716
 30
0.0
 11
-626.554790892259
 21
-53.5012570349939
 31
0.0
  0
LINE
  5
   4B9
  8
0
  6
CONTINUOUS
 62
     1
 10
-627.814793007031
 20
-68.5862621186716
 30
0.0
 11
-627.814793007031
 21
-53.5012570349939
 31
0.0
  0
LINE
  5
   4BA
  8
0
  6
CONTINUOUS
 62
     1
 10
-629.074789781228
 20
-68.5862621186716
 30
0.0
 11
-629.074789781228
 21
-53.5012570349939
 31
0.0
  0
LINE
  5
   4BB
  8
0
  6
CONTINUOUS
 62
     1
 10
-630.334791896001
 20
-68.5862621186716
 30
0.0
 11
-630.334791896001
 21
-53.5012570349939
 31
0.0
  0
LINE
  5
   4BC
  8
0
  6
CONTINUOUS
 62
     1
 10
-631.594788670198
 20
-68.5862621186716
 30
0.0
 11
-631.594788670198
 21
-53.5012570349939
 31
0.0
  0
LINE
  5
   4BD
  8
0
  6
CONTINUOUS
 62
     1
 10
-632.85479078497
 20
-68.5862621186716
 30
0.0
 11
-632.85479078497
 21
-55.2150641330094
 31
0.0
  0
LINE
  5
   4BE
  8
0
  6
CONTINUOUS
 62
     1
 10
-633.939792902723
 20
-68.5862621186716
 30
0.0
 11
-633.939792902723
 21
-55.2687616778972
 31
0.0
  0
LINE
  5
   4BF
  8
0
  6
CONTINUOUS
 62
     1
 10
-634.744788616553
 20
-68.5862621186716
 30
0.0
 11
-634.744788616553
 21
-55.2687616778972
 31
0.0
  0
LINE
  5
   4C0
  8
0
  6
CONTINUOUS
 62
     1
 10
-686.859790933386
 20
-68.5862621186716
 30
0.0
 11
-686.859790933386
 21
-53.5012570349939
 31
0.0
  0
LINE
  5
   4C1
  8
0
  6
CONTINUOUS
 62
     1
 10
-688.119787707583
 20
-68.5862621186716
 30
0.0
 11
-688.119787707583
 21
-53.5012570349939
 31
0.0
  0
LINE
  5
   4C2
  8
0
  6
CONTINUOUS
 62
     1
 10
-689.379789822355
 20
-68.5862621186716
 30
0.0
 11
-689.379789822355
 21
-53.5012570349939
 31
0.0
  0
LINE
  5
   4C3
  8
0
  6
CONTINUOUS
 62
     1
 10
-690.639786596552
 20
-68.5862621186716
 30
0.0
 11
-690.639786596552
 21
-53.5012570349939
 31
0.0
  0
LINE
  5
   4C4
  8
0
  6
CONTINUOUS
 62
     1
 10
-691.899786708609
 20
-68.5862621186716
 30
0.0
 11
-691.899786708609
 21
-53.5012570349939
 31
0.0
  0
LINE
  5
   4C5
  8
0
  6
CONTINUOUS
 62
     1
 10
-693.159786820666
 20
-68.5862621186716
 30
0.0
 11
-693.159786820666
 21
-53.5012570349939
 31
0.0
  0
LINE
  5
   4C6
  8
0
  6
CONTINUOUS
 62
     1
 10
-694.419786598936
 20
-68.5862621186716
 30
0.0
 11
-694.419786598936
 21
-53.5012570349939
 31
0.0
  0
LINE
  5
   4C7
  8
0
  6
CONTINUOUS
 62
     1
 10
-695.224786651984
 20
-68.5862621186716
 30
0.0
 11
-695.224786651984
 21
-53.5012570349939
 31
0.0
  0
LINE
  5
   4C8
  8
0
  6
CONTINUOUS
 62
     1
 10
-685.599788818613
 20
-68.5862621186716
 30
0.0
 11
-685.599788818613
 21
-55.2150697359277
 31
0.0
  0
LINE
  5
   4C9
  8
0
  6
CONTINUOUS
 62
     1
 10
-684.33978670384
 20
-68.5862621186716
 30
0.0
 11
-684.33978670384
 21
-55.2687616778972
 31
0.0
  0
LINE
  5
   4CA
  8
0
  6
CONTINUOUS
 62
     1
 10
-683.70979098703
 20
-68.5862621186716
 30
0.0
 11
-683.70979098703
 21
-55.2687616778972
 31
0.0
  0
LINE
  5
   4CB
  8
0
  6
CONTINUOUS
 62
     1
 10
-623.229790948883
 20
8.62374741732868
 30
0.0
 11
-623.229790948883
 21
56.4687410922282
 31
0.0
  0
LINE
  5
   4CC
  8
0
  6
CONTINUOUS
 62
     1
 10
-624.034792003289
 20
8.62374741732868
 30
0.0
 11
-624.034792003289
 21
56.4687410922282
 31
0.0
  0
LINE
  5
   4CD
  8
0
  6
CONTINUOUS
 62
     1
 10
-625.294788777486
 20
8.62374741732868
 30
0.0
 11
-625.294788777486
 21
56.4687410922282
 31
0.0
  0
LINE
  5
   4CE
  8
0
  6
CONTINUOUS
 62
     1
 10
-626.554790892259
 20
8.62374741732868
 30
0.0
 11
-626.554790892259
 21
56.4687410922282
 31
0.0
  0
LINE
  5
   4CF
  8
0
  6
CONTINUOUS
 62
     1
 10
-629.074789781228
 20
8.62374741732868
 30
0.0
 11
-629.074789781228
 21
56.4687410922282
 31
0.0
  0
LINE
  5
   4D0
  8
0
  6
CONTINUOUS
 62
     1
 10
-630.334791896001
 20
8.62374741732868
 30
0.0
 11
-630.334791896001
 21
56.4687410922282
 31
0.0
  0
LINE
  5
   4D1
  8
0
  6
CONTINUOUS
 62
     1
 10
-631.594788670198
 20
8.62374741732868
 30
0.0
 11
-631.594788670198
 21
56.4687410922282
 31
0.0
  0
LINE
  5
   4D2
  8
0
  6
CONTINUOUS
 62
     1
 10
-632.85479078497
 20
8.62374741732868
 30
0.0
 11
-632.85479078497
 21
56.4687410922282
 31
0.0
  0
LINE
  5
   4D3
  8
0
  6
CONTINUOUS
 62
     1
 10
-633.939792902723
 20
8.62374741732868
 30
0.0
 11
-633.939792902723
 21
56.4687410922282
 31
0.0
  0
LINE
  5
   4D4
  8
0
  6
CONTINUOUS
 62
     1
 10
-695.224786651984
 20
8.62374741732868
 30
0.0
 11
-695.224786651984
 21
56.4687410922282
 31
0.0
  0
LINE
  5
   4D5
  8
0
  6
CONTINUOUS
 62
     1
 10
-694.419786598936
 20
8.62374741732868
 30
0.0
 11
-694.419786598936
 21
56.4687410922282
 31
0.0
  0
LINE
  5
   4D6
  8
0
  6
CONTINUOUS
 62
     1
 10
-693.159786820666
 20
8.62374741732868
 30
0.0
 11
-693.159786820666
 21
56.4687410922282
 31
0.0
  0
LINE
  5
   4D7
  8
0
  6
CONTINUOUS
 62
     1
 10
-691.899786708609
 20
8.62374741732868
 30
0.0
 11
-691.899786708609
 21
56.4687410922282
 31
0.0
  0
LINE
  5
   4D8
  8
0
  6
CONTINUOUS
 62
     1
 10
-690.639786596552
 20
8.62374741732868
 30
0.0
 11
-690.639786596552
 21
56.4687410922282
 31
0.0
  0
LINE
  5
   4D9
  8
0
  6
CONTINUOUS
 62
     1
 10
-689.379789822355
 20
8.62374741732868
 30
0.0
 11
-689.379789822355
 21
56.4687410922282
 31
0.0
  0
LINE
  5
   4DA
  8
0
  6
CONTINUOUS
 62
     1
 10
-688.119787707583
 20
8.62374741732868
 30
0.0
 11
-688.119787707583
 21
56.4687410922282
 31
0.0
  0
LINE
  5
   4DB
  8
0
  6
CONTINUOUS
 62
     1
 10
-686.859790933386
 20
8.62374741732868
 30
0.0
 11
-686.859790933386
 21
56.4687410922282
 31
0.0
  0
LINE
  5
   4DC
  8
0
  6
CONTINUOUS
 62
     1
 10
-685.599788818613
 20
8.62374741732868
 30
0.0
 11
-685.599788818613
 21
56.4687410922282
 31
0.0
  0
LINE
  5
   4DD
  8
0
  6
CONTINUOUS
 62
     1
 10
-684.33978670384
 20
8.62374741732868
 30
0.0
 11
-684.33978670384
 21
56.4687410922282
 31
0.0
  0
ARC
  5
   4DE
  8
0
  6
CONTINUOUS
 62
     1
 10
-687.752103649851
 20
60.3188019599479
 30
0.0
 40
2.86999995112419
 50
449.679006550204
 51
629.999999948034
  0
ARC
  5
   4DF
  8
0
  6
CONTINUOUS
 62
     1
 10
-683.727289164066
 20
60.3188019599479
 30
0.0
 40
3.56999993920326
 50
413.505022838263
 51
486.494981956033
  0
LINE
  5
   4E0
  8
0
  6
CONTINUOUS
 62
     1
 10
-685.850555132714
 20
63.1887568711436
 30
0.0
 11
-687.736024870144
 21
63.1887568711436
 31
0.0
  0
LINE
  5
   4E1
  8
0
  6
CONTINUOUS
 62
     1
 10
-679.702071237422
 20
63.188757052662
 30
0.0
 11
-681.604023440772
 21
63.188757052662
 31
0.0
  0
LINE
  5
   4E2
  8
0
  6
CONTINUOUS
 62
     1
 10
-679.718117584595
 20
57.4488020088237
 30
0.0
 11
-681.60408407589
 21
57.4488020088237
 31
0.0
  0
LINE
  5
   4E3
  8
0
  6
CONTINUOUS
 62
     1
 10
-685.850433369071
 20
57.4487569688952
 30
0.0
 11
-687.752103649851
 21
57.4487569688952
 31
0.0
  0
ARC
  5
   4E4
  8
0
  6
CONTINUOUS
 62
     1
 10
-683.727289164066
 20
60.3188019599479
 30
0.0
 40
3.56999993920326
 50
233.507448791235
 51
306.493766547859
  0
ARC
  5
   4E5
  8
0
  6
CONTINUOUS
 62
     1
 10
-679.702071237422
 20
60.3187571015378
 30
0.0
 40
2.86999995112419
 50
269.679654033286
 51
449.999999948034
  0
ARC
  5
   4E6
  8
0
  6
CONTINUOUS
 62
     1
 10
-655.202071654655
 20
60.3187571015378
 30
0.0
 40
2.86999995112419
 50
269.679654033286
 51
449.999999948034
  0
LINE
  5
   4E7
  8
0
  6
CONTINUOUS
 62
     1
 10
-655.202071654655
 20
63.188757052662
 30
0.0
 11
-657.104023858005
 21
63.188757052662
 31
0.0
  0
LINE
  5
   4E8
  8
0
  6
CONTINUOUS
 62
     1
 10
-655.218118001827
 20
57.4488020088237
 30
0.0
 11
-657.104084493122
 21
57.4488020088237
 31
0.0
  0
ARC
  5
   4E9
  8
0
  6
CONTINUOUS
 62
     1
 10
-659.227289581299
 20
60.3188019599479
 30
0.0
 40
3.56999993920326
 50
233.507448791235
 51
306.493766547859
  0
ARC
  5
   4EA
  8
0
  6
CONTINUOUS
 62
     1
 10
-659.227289581299
 20
60.3188019599479
 30
0.0
 40
3.56999993920326
 50
413.505022838263
 51
486.494981956033
  0
LINE
  5
   4EB
  8
0
  6
CONTINUOUS
 62
     1
 10
-661.350555549946
 20
63.1887568711436
 30
0.0
 11
-663.236025287377
 21
63.1887568711436
 31
0.0
  0
ARC
  5
   4EC
  8
0
  6
CONTINUOUS
 62
     1
 10
-663.252104067083
 20
60.3188019599479
 30
0.0
 40
2.86999995112419
 50
449.679006550204
 51
629.999999948034
  0
LINE
  5
   4ED
  8
0
  6
CONTINUOUS
 62
     1
 10
-661.350433786304
 20
57.4487569688952
 30
0.0
 11
-663.252104067083
 21
57.4487569688952
 31
0.0
  0
ARC
  5
   4EE
  8
0
  6
CONTINUOUS
 62
     1
 10
-630.702072071887
 20
60.3187571015378
 30
0.0
 40
2.86999995112419
 50
269.679654033286
 51
449.999999948034
  0
LINE
  5
   4EF
  8
0
  6
CONTINUOUS
 62
     1
 10
-630.702072071887
 20
63.188757052662
 30
0.0
 11
-632.604024275237
 21
63.188757052662
 31
0.0
  0
LINE
  5
   4F0
  8
0
  6
CONTINUOUS
 62
     1
 10
-630.71811841906
 20
57.4488020088237
 30
0.0
 11
-632.604084910355
 21
57.4488020088237
 31
0.0
  0
ARC
  5
   4F1
  8
0
  6
CONTINUOUS
 62
     1
 10
-634.727289998531
 20
60.3188019599479
 30
0.0
 40
3.56999993920326
 50
233.507448791235
 51
306.493766547859
  0
ARC
  5
   4F2
  8
0
  6
CONTINUOUS
 62
     1
 10
-634.727289998531
 20
60.3188019599479
 30
0.0
 40
3.56999993920326
 50
413.505022838263
 51
486.494981956033
  0
LINE
  5
   4F3
  8
0
  6
CONTINUOUS
 62
     1
 10
-636.850555967179
 20
63.1887568711436
 30
0.0
 11
-638.736025704609
 21
63.1887568711436
 31
0.0
  0
LINE
  5
   4F4
  8
0
  6
CONTINUOUS
 62
     1
 10
-636.850434203536
 20
57.4487569688952
 30
0.0
 11
-638.752104484316
 21
57.4487569688952
 31
0.0
  0
ARC
  5
   4F5
  8
0
  6
CONTINUOUS
 62
     1
 10
-638.752104484316
 20
60.3188019599479
 30
0.0
 40
2.86999995112419
 50
449.679006550204
 51
629.999999948034
  0
ARC
  5
   4F6
  8
0
  6
CONTINUOUS
 62
     1
 10
-671.827211808212
 20
59.6187758119178
 30
0.0
 40
1.04999998211861
 50
89.9999999480344
 51
269.999999948034
  0
ARC
  5
   4F7
  8
0
  6
CONTINUOUS
 62
     1
 10
-671.127211820133
 20
59.6187758119178
 30
0.0
 40
1.04999998211861
 50
269.999999948034
 51
449.999999948034
  0
LINE
  5
   4F8
  8
0
  6
CONTINUOUS
 62
     1
 10
-671.127211820133
 20
60.6687757940364
 30
0.0
 11
-671.827211808212
 21
60.6687757940364
 31
0.0
  0
LINE
  5
   4F9
  8
0
  6
CONTINUOUS
 62
     1
 10
-671.127211820133
 20
58.5687758297992
 30
0.0
 11
-671.827211808212
 21
58.5687758297992
 31
0.0
  0
ARC
  5
   4FA
  8
0
  6
CONTINUOUS
 62
     1
 10
-646.627212237365
 20
59.6187758119178
 30
0.0
 40
1.04999998211861
 50
269.999999948034
 51
449.999999948034
  0
LINE
  5
   4FB
  8
0
  6
CONTINUOUS
 62
     1
 10
-646.627212237365
 20
60.6687757940364
 30
0.0
 11
-647.327212225444
 21
60.6687757940364
 31
0.0
  0
LINE
  5
   4FC
  8
0
  6
CONTINUOUS
 62
     1
 10
-646.627212237365
 20
58.5687758297992
 30
0.0
 11
-647.327212225444
 21
58.5687758297992
 31
0.0
  0
ARC
  5
   4FD
  8
0
  6
CONTINUOUS
 62
     1
 10
-647.327212225444
 20
59.6187758119178
 30
0.0
 40
1.04999998211861
 50
89.9999999480344
 51
269.999999948034
  0
CIRCLE
  5
   4FE
  8
0
  6
CONTINUOUS
 62
     1
 10
-693.702294334769
 20
63.6437464803437
 30
0.0
 40
0.769999986886978
  0
CIRCLE
  5
   4FF
  8
0
  6
CONTINUOUS
 62
     1
 10
-673.927294671536
 20
63.6437464803437
 30
0.0
 40
0.769999986886978
  0
CIRCLE
  5
   500
  8
0
  6
CONTINUOUS
 62
     1
 10
-644.527295172215
 20
63.6437464803437
 30
0.0
 40
0.769999986886978
  0
CIRCLE
  5
   501
  8
0
  6
CONTINUOUS
 62
     1
 10
-624.752295508981
 20
63.6437464803437
 30
0.0
 40
0.769999986886978
  0
LINE
  5
   502
  8
0
  6
CONTINUOUS
 62
     3
 10
-695.977286505655
 20
-76.0762569175704
 30
0.0
 11
-695.977286505655
 21
-53.5012570349939
 31
0.0
  0
LINE
  5
   503
  8
0
  6
CONTINUOUS
 62
     3
 10
-695.977286505655
 20
8.62374741732868
 30
0.0
 11
-695.977286505655
 21
63.9937411338092
 31
0.0
  0
LINE
  5
   504
  8
0
  6
CONTINUOUS
 62
     3
 10
-695.977286505655
 20
-53.081257063008
 30
0.0
 11
-695.977286505655
 21
8.27374742328914
 31
0.0
  0
LINE
  5
   505
  8
0
  6
CONTINUOUS
 62
     3
 10
-695.539786513105
 20
8.62374741732868
 30
0.0
 11
-695.977286505655
 21
8.62374741732868
 31
0.0
  0
LINE
  5
   506
  8
0
  6
CONTINUOUS
 62
     3
 10
-695.539786513105
 20
8.27374742328914
 30
0.0
 11
-695.977286505655
 21
8.27374742328914
 31
0.0
  0
LINE
  5
   507
  8
0
  6
CONTINUOUS
 62
     3
 10
-695.539786533967
 20
-53.081257063008
 30
0.0
 11
-695.977286505655
 21
-53.081257063008
 31
0.0
  0
LINE
  5
   508
  8
0
  6
CONTINUOUS
 62
     3
 10
-695.539786533967
 20
-53.5012570349939
 30
0.0
 11
-695.977286505655
 21
-53.5012570349939
 31
0.0
  0
LINE
  5
   509
  8
0
  6
CONTINUOUS
 62
     3
 10
-622.477287757352
 20
-68.5862621186716
 30
0.0
 11
-622.477287757352
 21
-53.431257036186
 31
0.0
  0
LINE
  5
   50A
  8
0
  6
CONTINUOUS
 62
     3
 10
-622.477287757352
 20
-53.081257063008
 30
0.0
 11
-622.477287757352
 21
8.27374742328914
 31
0.0
  0
LINE
  5
   50B
  8
0
  6
CONTINUOUS
 62
     3
 10
-622.477287757352
 20
8.62374741732868
 30
0.0
 11
-622.477287757352
 21
63.9937411338092
 31
0.0
  0
LINE
  5
   50C
  8
0
  6
CONTINUOUS
 62
     3
 10
-622.477287757352
 20
8.62374741732868
 30
0.0
 11
-622.914787749902
 21
8.62374741732868
 31
0.0
  0
LINE
  5
   50D
  8
0
  6
CONTINUOUS
 62
     3
 10
-622.477287757352
 20
8.27374742328914
 30
0.0
 11
-622.914787749902
 21
8.27374742328914
 31
0.0
  0
LINE
  5
   50E
  8
0
  6
CONTINUOUS
 62
     3
 10
-622.477287757352
 20
-53.081257063008
 30
0.0
 11
-622.914787749902
 21
-53.081257063008
 31
0.0
  0
LINE
  5
   50F
  8
0
  6
CONTINUOUS
 62
     3
 10
-622.477287757352
 20
-53.431257036186
 30
0.0
 11
-622.914787749902
 21
-53.431257036186
 31
0.0
  0
LINE
  5
   510
  8
0
  6
CONTINUOUS
 62
     3
 10
-622.914787749902
 20
-53.431257036186
 30
0.0
 11
-622.914787749902
 21
-53.081257063008
 31
0.0
  0
LINE
  5
   511
  8
0
  6
CONTINUOUS
 62
     1
 10
-622.652287754372
 20
-45.4687625123626
 30
0.0
 11
-632.62729537487
 21
-45.4687625123626
 31
0.0
  0
ARC
  5
   512
  8
0
  6
CONTINUOUS
 62
     1
 10
-622.652287754372
 20
-8.89376313523113
 30
0.0
 40
0.174999997019768
 50
359.999999948034
 51
449.999999948034
  0
ARC
  5
   513
  8
0
  6
CONTINUOUS
 62
     1
 10
-622.652287754372
 20
-45.2937625153428
 30
0.0
 40
0.174999997019768
 50
269.999999948034
 51
359.999999948034
  0
ARC
  5
   514
  8
0
  6
CONTINUOUS
 62
     1
 10
-695.802286508635
 20
-45.2937625153428
 30
0.0
 40
0.174999997019768
 50
179.999999948034
 51
269.999999948034
  0
ARC
  5
   515
  8
0
  6
CONTINUOUS
 62
     1
 10
-695.802286508635
 20
-8.89376313523113
 30
0.0
 40
0.174999997019768
 50
89.9999999480344
 51
179.999999948034
  0
LINE
  5
   516
  8
0
  6
CONTINUOUS
 62
     1
 10
-635.252295330167
 20
54.7187412917594
 30
0.0
 11
-683.202294513583
 21
54.7187412917594
 31
0.0
  0
LINE
  5
   517
  8
0
  6
CONTINUOUS
 62
     1
 10
-635.252295330167
 20
47.3687414169292
 30
0.0
 11
-683.202294513583
 21
47.3687414169292
 31
0.0
  0
LINE
  5
   518
  8
0
  6
CONTINUOUS
 62
     1
 10
-683.202294513583
 20
47.3687414169292
 30
0.0
 11
-683.202294513583
 21
54.7187412917594
 31
0.0
  0
LINE
  5
   519
  8
0
  6
CONTINUOUS
 62
     1
 10
-635.252295330167
 20
47.3687414169292
 30
0.0
 11
-635.252295330167
 21
54.7187412917594
 31
0.0
  0
LINE
  5
   51A
  8
0
  6
CONTINUOUS
 62
     3
 10
-659.314794920385
 20
9.91874739527496
 30
0.0
 11
-659.314794920385
 21
12.893747344611
 31
0.0
  0
LINE
  5
   51B
  8
0
  6
CONTINUOUS
 62
     3
 10
-658.684794931114
 20
9.91874739527496
 30
0.0
 11
-658.684794931114
 21
12.893747344611
 31
0.0
  0
LINE
  5
   51C
  8
0
  6
CONTINUOUS
 62
     3
 10
-658.054794941843
 20
9.91874739527496
 30
0.0
 11
-658.054794941843
 21
14.1187473237494
 31
0.0
  0
LINE
  5
   51D
  8
0
  6
CONTINUOUS
 62
     3
 10
-657.424794952571
 20
9.91874739527496
 30
0.0
 11
-657.424794952571
 21
14.1187473237494
 31
0.0
  0
LINE
  5
   51E
  8
0
  6
CONTINUOUS
 62
     3
 10
-656.7947949633
 20
9.91874739527496
 30
0.0
 11
-656.7947949633
 21
14.1187473237494
 31
0.0
  0
LINE
  5
   51F
  8
0
  6
CONTINUOUS
 62
     3
 10
-656.164794974029
 20
9.91874739527496
 30
0.0
 11
-656.164794974029
 21
14.1187473237494
 31
0.0
  0
LINE
  5
   520
  8
0
  6
CONTINUOUS
 62
     3
 10
-655.534794984758
 20
9.91874739527496
 30
0.0
 11
-655.534794984758
 21
14.1187473237494
 31
0.0
  0
LINE
  5
   521
  8
0
  6
CONTINUOUS
 62
     3
 10
-654.904794995487
 20
9.91874739527496
 30
0.0
 11
-654.904794995487
 21
14.1187473237494
 31
0.0
  0
LINE
  5
   522
  8
0
  6
CONTINUOUS
 62
     3
 10
-654.274795006216
 20
9.91874739527496
 30
0.0
 11
-654.274795006216
 21
14.1187473237494
 31
0.0
  0
LINE
  5
   523
  8
0
  6
CONTINUOUS
 62
     3
 10
-653.644795016945
 20
9.91874739527496
 30
0.0
 11
-653.644795016945
 21
14.1187473237494
 31
0.0
  0
LINE
  5
   524
  8
0
  6
CONTINUOUS
 62
     1
 10
-621.847287768081
 20
8.62374741732868
 30
0.0
 11
-695.347286516384
 21
8.62374741732868
 31
0.0
  0
LINE
  5
   525
  8
0
  6
CONTINUOUS
 62
     3
 10
-659.944794909656
 20
9.91874739527496
 30
0.0
 11
-659.944794909656
 21
12.893747344611
 31
0.0
  0
LINE
  5
   526
  8
0
  6
CONTINUOUS
 62
     3
 10
-660.574794898927
 20
9.91874739527496
 30
0.0
 11
-660.574794898927
 21
12.893747344611
 31
0.0
  0
LINE
  5
   527
  8
0
  6
CONTINUOUS
 62
     3
 10
-661.204794888198
 20
9.91874739527496
 30
0.0
 11
-661.204794888198
 21
14.1187473237494
 31
0.0
  0
LINE
  5
   528
  8
0
  6
CONTINUOUS
 62
     3
 10
-661.83479487747
 20
9.91874739527496
 30
0.0
 11
-661.83479487747
 21
14.1187473237494
 31
0.0
  0
LINE
  5
   529
  8
0
  6
CONTINUOUS
 62
     3
 10
-662.464794866741
 20
9.91874739527496
 30
0.0
 11
-662.464794866741
 21
14.1187473237494
 31
0.0
  0
LINE
  5
   52A
  8
0
  6
CONTINUOUS
 62
     3
 10
-663.094794856012
 20
9.91874739527496
 30
0.0
 11
-663.094794856012
 21
14.1187473237494
 31
0.0
  0
LINE
  5
   52B
  8
0
  6
CONTINUOUS
 62
     3
 10
-663.724794845283
 20
9.91874739527496
 30
0.0
 11
-663.724794845283
 21
14.1187473237494
 31
0.0
  0
LINE
  5
   52C
  8
0
  6
CONTINUOUS
 62
     3
 10
-664.354794834554
 20
9.91874739527496
 30
0.0
 11
-664.354794834554
 21
14.1187473237494
 31
0.0
  0
LINE
  5
   52D
  8
0
  6
CONTINUOUS
 62
     3
 10
-664.984794823825
 20
9.91874739527496
 30
0.0
 11
-664.984794823825
 21
14.1187473237494
 31
0.0
  0
LINE
  5
   52E
  8
0
  6
CONTINUOUS
 62
     3
 10
-658.684794931114
 20
9.91874739527496
 30
0.0
 11
-659.314794920385
 21
9.91874739527496
 31
0.0
  0
LINE
  5
   52F
  8
0
  6
CONTINUOUS
 62
     3
 10
-658.684794931114
 20
12.893747344611
 30
0.0
 11
-659.314794920385
 21
12.893747344611
 31
0.0
  0
LINE
  5
   530
  8
0
  6
CONTINUOUS
 62
     3
 10
-659.944794909656
 20
12.893747344611
 30
0.0
 11
-660.574794898927
 21
12.893747344611
 31
0.0
  0
LINE
  5
   531
  8
0
  6
CONTINUOUS
 62
     3
 10
-661.204794888198
 20
14.1187473237494
 30
0.0
 11
-661.83479487747
 21
14.1187473237494
 31
0.0
  0
LINE
  5
   532
  8
0
  6
CONTINUOUS
 62
     3
 10
-662.464794866741
 20
14.1187473237494
 30
0.0
 11
-663.094794856012
 21
14.1187473237494
 31
0.0
  0
LINE
  5
   533
  8
0
  6
CONTINUOUS
 62
     3
 10
-663.724794845283
 20
14.1187473237494
 30
0.0
 11
-664.354794834554
 21
14.1187473237494
 31
0.0
  0
LINE
  5
   534
  8
0
  6
CONTINUOUS
 62
     3
 10
-657.424794952571
 20
14.1187473237494
 30
0.0
 11
-658.054794941843
 21
14.1187473237494
 31
0.0
  0
LINE
  5
   535
  8
0
  6
CONTINUOUS
 62
     3
 10
-656.164794974029
 20
14.1187473237494
 30
0.0
 11
-656.7947949633
 21
14.1187473237494
 31
0.0
  0
LINE
  5
   536
  8
0
  6
CONTINUOUS
 62
     3
 10
-654.904794995487
 20
14.1187473237494
 30
0.0
 11
-655.534794984758
 21
14.1187473237494
 31
0.0
  0
LINE
  5
   537
  8
0
  6
CONTINUOUS
 62
     3
 10
-653.644795016945
 20
14.1187473237494
 30
0.0
 11
-654.274795006216
 21
14.1187473237494
 31
0.0
  0
LINE
  5
   538
  8
0
  6
CONTINUOUS
 62
     3
 10
-665.614794813097
 20
9.91874739527496
 30
0.0
 11
-665.614794813097
 21
14.1187473237494
 31
0.0
  0
LINE
  5
   539
  8
0
  6
CONTINUOUS
 62
     3
 10
-664.984794823825
 20
14.1187473237494
 30
0.0
 11
-665.614794813097
 21
14.1187473237494
 31
0.0
  0
LINE
  5
   53A
  8
0
  6
CONTINUOUS
 62
     3
 10
-664.984794823825
 20
9.91874739527496
 30
0.0
 11
-665.614794813097
 21
9.91874739527496
 31
0.0
  0
LINE
  5
   53B
  8
0
  6
CONTINUOUS
 62
     3
 10
-663.724794845283
 20
9.91874739527496
 30
0.0
 11
-664.354794834554
 21
9.91874739527496
 31
0.0
  0
LINE
  5
   53C
  8
0
  6
CONTINUOUS
 62
     3
 10
-662.464794866741
 20
9.91874739527496
 30
0.0
 11
-663.094794856012
 21
9.91874739527496
 31
0.0
  0
LINE
  5
   53D
  8
0
  6
CONTINUOUS
 62
     3
 10
-661.204794888198
 20
9.91874739527496
 30
0.0
 11
-661.83479487747
 21
9.91874739527496
 31
0.0
  0
LINE
  5
   53E
  8
0
  6
CONTINUOUS
 62
     3
 10
-659.944794909656
 20
9.91874739527496
 30
0.0
 11
-660.574794898927
 21
9.91874739527496
 31
0.0
  0
LINE
  5
   53F
  8
0
  6
CONTINUOUS
 62
     3
 10
-657.424794952571
 20
9.91874739527496
 30
0.0
 11
-658.054794941843
 21
9.91874739527496
 31
0.0
  0
LINE
  5
   540
  8
0
  6
CONTINUOUS
 62
     3
 10
-656.164794974029
 20
9.91874739527496
 30
0.0
 11
-656.7947949633
 21
9.91874739527496
 31
0.0
  0
LINE
  5
   541
  8
0
  6
CONTINUOUS
 62
     3
 10
-654.904794995487
 20
9.91874739527496
 30
0.0
 11
-655.534794984758
 21
9.91874739527496
 31
0.0
  0
LINE
  5
   542
  8
0
  6
CONTINUOUS
 62
     3
 10
-653.644795016945
 20
9.91874739527496
 30
0.0
 11
-654.274795006216
 21
9.91874739527496
 31
0.0
  0
LINE
  5
   543
  8
0
  6
CONTINUOUS
 62
     3
 10
-629.074795435369
 20
9.91874739527496
 30
0.0
 11
-629.074795435369
 21
14.1187473237494
 31
0.0
  0
LINE
  5
   544
  8
0
  6
CONTINUOUS
 62
     3
 10
-629.074795435369
 20
9.91874739527496
 30
0.0
 11
-629.70479542464
 21
9.91874739527496
 31
0.0
  0
LINE
  5
   545
  8
0
  6
CONTINUOUS
 62
     3
 10
-630.334795413911
 20
9.91874739527496
 30
0.0
 11
-630.964795403183
 21
9.91874739527496
 31
0.0
  0
LINE
  5
   546
  8
0
  6
CONTINUOUS
 62
     3
 10
-631.594795392454
 20
9.91874739527496
 30
0.0
 11
-632.224795381725
 21
9.91874739527496
 31
0.0
  0
LINE
  5
   547
  8
0
  6
CONTINUOUS
 62
     3
 10
-632.854795370996
 20
9.91874739527496
 30
0.0
 11
-633.484795360267
 21
9.91874739527496
 31
0.0
  0
LINE
  5
   548
  8
0
  6
CONTINUOUS
 62
     3
 10
-635.374795328081
 20
9.91874739527496
 30
0.0
 11
-636.004795317352
 21
9.91874739527496
 31
0.0
  0
LINE
  5
   549
  8
0
  6
CONTINUOUS
 62
     3
 10
-636.634795306623
 20
9.91874739527496
 30
0.0
 11
-637.264795295894
 21
9.91874739527496
 31
0.0
  0
LINE
  5
   54A
  8
0
  6
CONTINUOUS
 62
     3
 10
-637.894795285165
 20
9.91874739527496
 30
0.0
 11
-638.524795274436
 21
9.91874739527496
 31
0.0
  0
LINE
  5
   54B
  8
0
  6
CONTINUOUS
 62
     3
 10
-639.154795263708
 20
9.91874739527496
 30
0.0
 11
-639.784795252979
 21
9.91874739527496
 31
0.0
  0
LINE
  5
   54C
  8
0
  6
CONTINUOUS
 62
     3
 10
-640.41479524225
 20
9.91874739527496
 30
0.0
 11
-641.044795231521
 21
9.91874739527496
 31
0.0
  0
LINE
  5
   54D
  8
0
  6
CONTINUOUS
 62
     3
 10
-640.41479524225
 20
14.1187473237494
 30
0.0
 11
-641.044795231521
 21
14.1187473237494
 31
0.0
  0
LINE
  5
   54E
  8
0
  6
CONTINUOUS
 62
     3
 10
-641.044795231521
 20
9.91874739527496
 30
0.0
 11
-641.044795231521
 21
14.1187473237494
 31
0.0
  0
LINE
  5
   54F
  8
0
  6
CONTINUOUS
 62
     3
 10
-629.074795435369
 20
14.1187473237494
 30
0.0
 11
-629.70479542464
 21
14.1187473237494
 31
0.0
  0
LINE
  5
   550
  8
0
  6
CONTINUOUS
 62
     3
 10
-630.334795413911
 20
14.1187473237494
 30
0.0
 11
-630.964795403183
 21
14.1187473237494
 31
0.0
  0
LINE
  5
   551
  8
0
  6
CONTINUOUS
 62
     3
 10
-631.594795392454
 20
14.1187473237494
 30
0.0
 11
-632.224795381725
 21
14.1187473237494
 31
0.0
  0
LINE
  5
   552
  8
0
  6
CONTINUOUS
 62
     3
 10
-632.854795370996
 20
14.1187473237494
 30
0.0
 11
-633.484795360267
 21
14.1187473237494
 31
0.0
  0
LINE
  5
   553
  8
0
  6
CONTINUOUS
 62
     3
 10
-639.154795263708
 20
14.1187473237494
 30
0.0
 11
-639.784795252979
 21
14.1187473237494
 31
0.0
  0
LINE
  5
   554
  8
0
  6
CONTINUOUS
 62
     3
 10
-637.894795285165
 20
14.1187473237494
 30
0.0
 11
-638.524795274436
 21
14.1187473237494
 31
0.0
  0
LINE
  5
   555
  8
0
  6
CONTINUOUS
 62
     3
 10
-636.634795306623
 20
14.1187473237494
 30
0.0
 11
-637.264795295894
 21
14.1187473237494
 31
0.0
  0
LINE
  5
   556
  8
0
  6
CONTINUOUS
 62
     3
 10
-635.374795328081
 20
12.893747344611
 30
0.0
 11
-636.004795317352
 21
12.893747344611
 31
0.0
  0
LINE
  5
   557
  8
0
  6
CONTINUOUS
 62
     3
 10
-634.114795349538
 20
12.893747344611
 30
0.0
 11
-634.74479533881
 21
12.893747344611
 31
0.0
  0
LINE
  5
   558
  8
0
  6
CONTINUOUS
 62
     3
 10
-634.114795349538
 20
9.91874739527496
 30
0.0
 11
-634.74479533881
 21
9.91874739527496
 31
0.0
  0
LINE
  5
   559
  8
0
  6
CONTINUOUS
 62
     3
 10
-640.41479524225
 20
9.91874739527496
 30
0.0
 11
-640.41479524225
 21
14.1187473237494
 31
0.0
  0
LINE
  5
   55A
  8
0
  6
CONTINUOUS
 62
     3
 10
-639.784795252979
 20
9.91874739527496
 30
0.0
 11
-639.784795252979
 21
14.1187473237494
 31
0.0
  0
LINE
  5
   55B
  8
0
  6
CONTINUOUS
 62
     3
 10
-639.154795263708
 20
9.91874739527496
 30
0.0
 11
-639.154795263708
 21
14.1187473237494
 31
0.0
  0
LINE
  5
   55C
  8
0
  6
CONTINUOUS
 62
     3
 10
-638.524795274436
 20
9.91874739527496
 30
0.0
 11
-638.524795274436
 21
14.1187473237494
 31
0.0
  0
LINE
  5
   55D
  8
0
  6
CONTINUOUS
 62
     3
 10
-637.894795285165
 20
9.91874739527496
 30
0.0
 11
-637.894795285165
 21
14.1187473237494
 31
0.0
  0
LINE
  5
   55E
  8
0
  6
CONTINUOUS
 62
     3
 10
-637.264795295894
 20
9.91874739527496
 30
0.0
 11
-637.264795295894
 21
14.1187473237494
 31
0.0
  0
LINE
  5
   55F
  8
0
  6
CONTINUOUS
 62
     3
 10
-636.634795306623
 20
9.91874739527496
 30
0.0
 11
-636.634795306623
 21
14.1187473237494
 31
0.0
  0
LINE
  5
   560
  8
0
  6
CONTINUOUS
 62
     3
 10
-636.004795317352
 20
9.91874739527496
 30
0.0
 11
-636.004795317352
 21
12.893747344611
 31
0.0
  0
LINE
  5
   561
  8
0
  6
CONTINUOUS
 62
     3
 10
-635.374795328081
 20
9.91874739527496
 30
0.0
 11
-635.374795328081
 21
12.893747344611
 31
0.0
  0
LINE
  5
   562
  8
0
  6
CONTINUOUS
 62
     3
 10
-629.074795435369
 20
9.91874739527496
 30
0.0
 11
-629.074795435369
 21
14.1187473237494
 31
0.0
  0
LINE
  5
   563
  8
0
  6
CONTINUOUS
 62
     3
 10
-629.70479542464
 20
9.91874739527496
 30
0.0
 11
-629.70479542464
 21
14.1187473237494
 31
0.0
  0
LINE
  5
   564
  8
0
  6
CONTINUOUS
 62
     3
 10
-630.334795413911
 20
9.91874739527496
 30
0.0
 11
-630.334795413911
 21
14.1187473237494
 31
0.0
  0
LINE
  5
   565
  8
0
  6
CONTINUOUS
 62
     3
 10
-630.964795403183
 20
9.91874739527496
 30
0.0
 11
-630.964795403183
 21
14.1187473237494
 31
0.0
  0
LINE
  5
   566
  8
0
  6
CONTINUOUS
 62
     3
 10
-631.594795392454
 20
9.91874739527496
 30
0.0
 11
-631.594795392454
 21
14.1187473237494
 31
0.0
  0
LINE
  5
   567
  8
0
  6
CONTINUOUS
 62
     3
 10
-632.224795381725
 20
9.91874739527496
 30
0.0
 11
-632.224795381725
 21
14.1187473237494
 31
0.0
  0
LINE
  5
   568
  8
0
  6
CONTINUOUS
 62
     3
 10
-632.854795370996
 20
9.91874739527496
 30
0.0
 11
-632.854795370996
 21
14.1187473237494
 31
0.0
  0
LINE
  5
   569
  8
0
  6
CONTINUOUS
 62
     3
 10
-633.484795360267
 20
9.91874739527496
 30
0.0
 11
-633.484795360267
 21
14.1187473237494
 31
0.0
  0
LINE
  5
   56A
  8
0
  6
CONTINUOUS
 62
     3
 10
-634.114795349538
 20
9.91874739527496
 30
0.0
 11
-634.114795349538
 21
12.893747344611
 31
0.0
  0
LINE
  5
   56B
  8
0
  6
CONTINUOUS
 62
     3
 10
-634.74479533881
 20
9.91874739527496
 30
0.0
 11
-634.74479533881
 21
12.893747344611
 31
0.0
  0
LINE
  5
   56C
  8
0
  6
CONTINUOUS
 62
     3
 10
-678.0397946015
 20
9.91874739527496
 30
0.0
 11
-678.669794590771
 21
9.91874739527496
 31
0.0
  0
LINE
  5
   56D
  8
0
  6
CONTINUOUS
 62
     3
 10
-679.299794580042
 20
9.91874739527496
 30
0.0
 11
-679.929794569314
 21
9.91874739527496
 31
0.0
  0
LINE
  5
   56E
  8
0
  6
CONTINUOUS
 62
     3
 10
-680.559794558585
 20
9.91874739527496
 30
0.0
 11
-681.189794547856
 21
9.91874739527496
 31
0.0
  0
LINE
  5
   56F
  8
0
  6
CONTINUOUS
 62
     3
 10
-681.819794537127
 20
9.91874739527496
 30
0.0
 11
-682.449794526398
 21
9.91874739527496
 31
0.0
  0
LINE
  5
   570
  8
0
  6
CONTINUOUS
 62
     3
 10
-684.339794494212
 20
9.91874739527496
 30
0.0
 11
-684.969794483483
 21
9.91874739527496
 31
0.0
  0
LINE
  5
   571
  8
0
  6
CONTINUOUS
 62
     3
 10
-685.599794472754
 20
9.91874739527496
 30
0.0
 11
-686.229794462025
 21
9.91874739527496
 31
0.0
  0
LINE
  5
   572
  8
0
  6
CONTINUOUS
 62
     3
 10
-686.859794451296
 20
9.91874739527496
 30
0.0
 11
-687.489794440568
 21
9.91874739527496
 31
0.0
  0
LINE
  5
   573
  8
0
  6
CONTINUOUS
 62
     3
 10
-688.119794429839
 20
9.91874739527496
 30
0.0
 11
-688.74979441911
 21
9.91874739527496
 31
0.0
  0
LINE
  5
   574
  8
0
  6
CONTINUOUS
 62
     3
 10
-689.379794408381
 20
9.91874739527496
 30
0.0
 11
-690.009794397652
 21
9.91874739527496
 31
0.0
  0
LINE
  5
   575
  8
0
  6
CONTINUOUS
 62
     3
 10
-689.379794408381
 20
14.1187473237494
 30
0.0
 11
-690.009794397652
 21
14.1187473237494
 31
0.0
  0
LINE
  5
   576
  8
0
  6
CONTINUOUS
 62
     3
 10
-690.009794397652
 20
9.91874739527496
 30
0.0
 11
-690.009794397652
 21
14.1187473237494
 31
0.0
  0
LINE
  5
   577
  8
0
  6
CONTINUOUS
 62
     3
 10
-678.0397946015
 20
14.1187473237494
 30
0.0
 11
-678.669794590771
 21
14.1187473237494
 31
0.0
  0
LINE
  5
   578
  8
0
  6
CONTINUOUS
 62
     3
 10
-679.299794580042
 20
14.1187473237494
 30
0.0
 11
-679.929794569314
 21
14.1187473237494
 31
0.0
  0
LINE
  5
   579
  8
0
  6
CONTINUOUS
 62
     3
 10
-680.559794558585
 20
14.1187473237494
 30
0.0
 11
-681.189794547856
 21
14.1187473237494
 31
0.0
  0
LINE
  5
   57A
  8
0
  6
CONTINUOUS
 62
     3
 10
-681.819794537127
 20
14.1187473237494
 30
0.0
 11
-682.449794526398
 21
14.1187473237494
 31
0.0
  0
LINE
  5
   57B
  8
0
  6
CONTINUOUS
 62
     3
 10
-688.119794429839
 20
14.1187473237494
 30
0.0
 11
-688.74979441911
 21
14.1187473237494
 31
0.0
  0
LINE
  5
   57C
  8
0
  6
CONTINUOUS
 62
     3
 10
-686.859794451296
 20
14.1187473237494
 30
0.0
 11
-687.489794440568
 21
14.1187473237494
 31
0.0
  0
LINE
  5
   57D
  8
0
  6
CONTINUOUS
 62
     3
 10
-685.599794472754
 20
14.1187473237494
 30
0.0
 11
-686.229794462025
 21
14.1187473237494
 31
0.0
  0
LINE
  5
   57E
  8
0
  6
CONTINUOUS
 62
     3
 10
-684.339794494212
 20
12.893747344611
 30
0.0
 11
-684.969794483483
 21
12.893747344611
 31
0.0
  0
LINE
  5
   57F
  8
0
  6
CONTINUOUS
 62
     3
 10
-683.079794515669
 20
12.893747344611
 30
0.0
 11
-683.709794504941
 21
12.893747344611
 31
0.0
  0
LINE
  5
   580
  8
0
  6
CONTINUOUS
 62
     3
 10
-683.079794515669
 20
9.91874739527496
 30
0.0
 11
-683.709794504941
 21
9.91874739527496
 31
0.0
  0
LINE
  5
   581
  8
0
  6
CONTINUOUS
 62
     3
 10
-689.379794408381
 20
9.91874739527496
 30
0.0
 11
-689.379794408381
 21
14.1187473237494
 31
0.0
  0
LINE
  5
   582
  8
0
  6
CONTINUOUS
 62
     3
 10
-688.74979441911
 20
9.91874739527496
 30
0.0
 11
-688.74979441911
 21
14.1187473237494
 31
0.0
  0
LINE
  5
   583
  8
0
  6
CONTINUOUS
 62
     3
 10
-688.119794429839
 20
9.91874739527496
 30
0.0
 11
-688.119794429839
 21
14.1187473237494
 31
0.0
  0
LINE
  5
   584
  8
0
  6
CONTINUOUS
 62
     3
 10
-687.489794440568
 20
9.91874739527496
 30
0.0
 11
-687.489794440568
 21
14.1187473237494
 31
0.0
  0
LINE
  5
   585
  8
0
  6
CONTINUOUS
 62
     3
 10
-686.859794451296
 20
9.91874739527496
 30
0.0
 11
-686.859794451296
 21
14.1187473237494
 31
0.0
  0
LINE
  5
   586
  8
0
  6
CONTINUOUS
 62
     3
 10
-686.229794462025
 20
9.91874739527496
 30
0.0
 11
-686.229794462025
 21
14.1187473237494
 31
0.0
  0
LINE
  5
   587
  8
0
  6
CONTINUOUS
 62
     3
 10
-685.599794472754
 20
9.91874739527496
 30
0.0
 11
-685.599794472754
 21
14.1187473237494
 31
0.0
  0
LINE
  5
   588
  8
0
  6
CONTINUOUS
 62
     3
 10
-684.969794483483
 20
9.91874739527496
 30
0.0
 11
-684.969794483483
 21
12.893747344611
 31
0.0
  0
LINE
  5
   589
  8
0
  6
CONTINUOUS
 62
     3
 10
-684.339794494212
 20
9.91874739527496
 30
0.0
 11
-684.339794494212
 21
12.893747344611
 31
0.0
  0
LINE
  5
   58A
  8
0
  6
CONTINUOUS
 62
     3
 10
-678.0397946015
 20
9.91874739527496
 30
0.0
 11
-678.0397946015
 21
14.1187473237494
 31
0.0
  0
LINE
  5
   58B
  8
0
  6
CONTINUOUS
 62
     3
 10
-678.669794590771
 20
9.91874739527496
 30
0.0
 11
-678.669794590771
 21
14.1187473237494
 31
0.0
  0
LINE
  5
   58C
  8
0
  6
CONTINUOUS
 62
     3
 10
-679.299794580042
 20
9.91874739527496
 30
0.0
 11
-679.299794580042
 21
14.1187473237494
 31
0.0
  0
LINE
  5
   58D
  8
0
  6
CONTINUOUS
 62
     3
 10
-679.929794569314
 20
9.91874739527496
 30
0.0
 11
-679.929794569314
 21
14.1187473237494
 31
0.0
  0
LINE
  5
   58E
  8
0
  6
CONTINUOUS
 62
     3
 10
-680.559794558585
 20
9.91874739527496
 30
0.0
 11
-680.559794558585
 21
14.1187473237494
 31
0.0
  0
LINE
  5
   58F
  8
0
  6
CONTINUOUS
 62
     3
 10
-681.189794547856
 20
9.91874739527496
 30
0.0
 11
-681.189794547856
 21
14.1187473237494
 31
0.0
  0
LINE
  5
   590
  8
0
  6
CONTINUOUS
 62
     3
 10
-681.819794537127
 20
9.91874739527496
 30
0.0
 11
-681.819794537127
 21
14.1187473237494
 31
0.0
  0
LINE
  5
   591
  8
0
  6
CONTINUOUS
 62
     3
 10
-682.449794526398
 20
9.91874739527496
 30
0.0
 11
-682.449794526398
 21
14.1187473237494
 31
0.0
  0
LINE
  5
   592
  8
0
  6
CONTINUOUS
 62
     3
 10
-683.079794515669
 20
9.91874739527496
 30
0.0
 11
-683.079794515669
 21
12.893747344611
 31
0.0
  0
LINE
  5
   593
  8
0
  6
CONTINUOUS
 62
     3
 10
-683.709794504941
 20
9.91874739527496
 30
0.0
 11
-683.709794504941
 21
12.893747344611
 31
0.0
  0
ARC
  5
   594
  8
0
  6
CONTINUOUS
 62
     1
 10
-663.252316987739
 20
-72.3312613672364
 30
0.0
 40
2.09999798521424
 50
90.0001399327154
 51
270.000100332566
  0
LINE
  5
   595
  8
0
  6
DASHDOT
 62
     2
 10
-663.252316987739
 20
-75.4812593345692
 30
0.0
 11
-663.252316987739
 21
-69.1812633999035
 31
0.0
  0
LINE
  5
   596
  8
0
  6
DASHDOT
 62
     2
 10
-660.102319020406
 20
-72.3312613672364
 30
0.0
 11
-666.402314955072
 21
-72.3312613672364
 31
0.0
  0
LINE
  5
   597
  8
0
  6
CONTINUOUS
 62
     1
 10
-661.334587055342
 20
-70.2312636336722
 30
0.0
 11
-663.252313158015
 21
-70.2312582930979
 31
0.0
  0
LINE
  5
   598
  8
0
  6
CONTINUOUS
 62
     1
 10
-661.334584700562
 20
-74.4312566785558
 30
0.0
 11
-663.252310803157
 21
-74.4312566785558
 31
0.0
  0
ARC
  5
   599
  8
0
  6
CONTINUOUS
 62
     1
 10
-659.227314385798
 20
-72.331224603792
 30
0.0
 40
2.97503256700413
 50
224.901119153159
 51
315.09888074291
  0
ARC
  5
   59A
  8
0
  6
CONTINUOUS
 62
     1
 10
-659.227314385798
 20
-72.331224603792
 30
0.0
 40
2.97503256700413
 50
404.899302393594
 51
495.100813987516
  0
LINE
  5
   59B
  8
0
  6
CONTINUOUS
 62
     1
 10
-655.202307954373
 20
-70.231264689405
 30
0.0
 11
-657.120034056154
 21
-70.2312593488306
 31
0.0
  0
LINE
  5
   59C
  8
0
  6
CONTINUOUS
 62
     1
 10
-655.202310940248
 20
-74.4312566785558
 30
0.0
 11
-657.120031702267
 21
-74.4312566785558
 31
0.0
  0
ARC
  5
   59D
  8
0
  6
CONTINUOUS
 62
     1
 10
-655.202309482727
 20
-72.3312592343404
 30
0.0
 40
2.09999509708851
 50
269.999747131106
 51
450.000048027357
  0
LINE
  5
   59E
  8
0
  6
DASHDOT
 62
     2
 10
-655.202309482727
 20
-75.4812543135475
 30
0.0
 11
-655.202309482727
 21
-69.1812641551333
 31
0.0
  0
LINE
  5
   59F
  8
0
  6
DASHDOT
 62
     2
 10
-652.05231440352
 20
-72.3312592343404
 30
0.0
 11
-658.352304561934
 21
-72.3312592343404
 31
0.0
  0
LINE
  5
   5A0
  8
0
  6
DASHDOT
 62
     2
 10
-634.727295339108
 20
-75.974165393926
 30
0.0
 11
-634.727295339108
 21
-69.0536445189707
 31
0.0
  0
ARC
  5
   5A1
  8
0
  6
CONTINUOUS
 62
     1
 10
-638.752317404972
 20
-72.3312613672364
 30
0.0
 40
2.09999798521424
 50
90.0001399327154
 51
270.000100332566
  0
LINE
  5
   5A2
  8
0
  6
DASHDOT
 62
     2
 10
-638.752317404972
 20
-75.4812593345692
 30
0.0
 11
-638.752317404972
 21
-69.1812633999035
 31
0.0
  0
LINE
  5
   5A3
  8
0
  6
DASHDOT
 62
     2
 10
-635.602319437639
 20
-72.3312613672364
 30
0.0
 11
-641.902315372305
 21
-72.3312613672364
 31
0.0
  0
LINE
  5
   5A4
  8
0
  6
DASHDOT
 62
     2
 10
-627.552314820752
 20
-72.3312592343404
 30
0.0
 11
-633.852304979167
 21
-72.3312592343404
 31
0.0
  0
LINE
  5
   5A5
  8
0
  6
DASHDOT
 62
     2
 10
-630.70230989996
 20
-75.4812543135475
 30
0.0
 11
-630.70230989996
 21
-69.1812641551333
 31
0.0
  0
ARC
  5
   5A6
  8
0
  6
CONTINUOUS
 62
     1
 10
-630.70230989996
 20
-72.3312592343404
 30
0.0
 40
2.09999509708851
 50
269.999747131106
 51
450.000048027357
  0
LINE
  5
   5A7
  8
0
  6
CONTINUOUS
 62
     1
 10
-630.702308371762
 20
-70.231264689405
 30
0.0
 11
-632.620034473543
 21
-70.2312593488306
 31
0.0
  0
LINE
  5
   5A8
  8
0
  6
CONTINUOUS
 62
     1
 10
-630.70231135748
 20
-74.4312566785558
 30
0.0
 11
-632.620032119499
 21
-74.4312566785558
 31
0.0
  0
ARC
  5
   5A9
  8
0
  6
CONTINUOUS
 62
     1
 10
-634.727314803031
 20
-72.331224603792
 30
0.0
 40
2.97503256700413
 50
224.901119153159
 51
315.09888074291
  0
ARC
  5
   5AA
  8
0
  6
CONTINUOUS
 62
     1
 10
-634.727314803031
 20
-72.331224603792
 30
0.0
 40
2.97503256700413
 50
404.899302393594
 51
495.100813987516
  0
LINE
  5
   5AB
  8
0
  6
CONTINUOUS
 62
     1
 10
-636.834587472731
 20
-70.2312636336722
 30
0.0
 11
-638.752313575405
 21
-70.2312582930979
 31
0.0
  0
LINE
  5
   5AC
  8
0
  6
CONTINUOUS
 62
     1
 10
-636.834585117794
 20
-74.4312566785558
 30
0.0
 11
-638.752311220389
 21
-74.4312566785558
 31
0.0
  0
LINE
  5
   5AD
  8
0
  6
CONTINUOUS
 62
     3
 10
-623.877284914631
 20
-77.0562566338508
 30
0.0
 11
-646.189805753153
 21
-77.0562566338508
 31
0.0
  0
ARC
  5
   5AE
  8
0
  6
CONTINUOUS
 62
     3
 10
-623.877283199085
 20
-76.5312576023492
 30
0.0
 40
0.524998573004765
 50
269.999896736966
 51
360.000058772367
  0
LINE
  5
   5AF
  8
0
  6
CONTINUOUS
 62
     3
 10
-623.352284923572
 20
-76.531256976579
 30
0.0
 11
-623.352284923572
 21
-76.0762569175704
 31
0.0
  0
LINE
  5
   5B0
  8
0
  6
CONTINUOUS
 62
     3
 10
-622.477303338095
 20
-76.0762569175704
 30
0.0
 11
-623.352284923572
 21
-76.0762569175704
 31
0.0
  0
LINE
  5
   5B1
  8
0
  6
CONTINUOUS
 62
     1
 10
-623.352284923572
 20
-76.0762569175704
 30
0.0
 11
-623.352284923572
 21
-68.5862621186716
 31
0.0
  0
LINE
  5
   5B2
  8
0
  6
CONTINUOUS
 62
     3
 10
-622.477303338095
 20
-76.0762569175704
 30
0.0
 11
-622.477303338095
 21
-53.5012570349939
 31
0.0
  0
LINE
  5
   5B3
  8
0
  6
CONTINUOUS
 62
     3
 10
-672.264810649675
 20
-77.0562673150103
 30
0.0
 11
-672.264810649675
 21
-76.1812673299115
 31
0.0
  0
LINE
  5
   5B4
  8
0
  6
CONTINUOUS
 62
     3
 10
-672.264810649675
 20
-76.1812673299056
 30
0.0
 11
-672.702310642224
 21
-76.1812673299056
 31
0.0
  0
LINE
  5
   5B5
  8
0
  6
CONTINUOUS
 62
     3
 10
-672.702310642224
 20
-76.1812673299056
 30
0.0
 11
-672.702310642224
 21
-74.6062673567277
 31
0.0
  0
LINE
  5
   5B6
  8
0
  6
CONTINUOUS
 62
     3
 10
-670.252310683948
 20
-74.6062673567277
 30
0.0
 11
-672.702310642224
 21
-74.6062673567277
 31
0.0
  0
LINE
  5
   5B7
  8
0
  6
CONTINUOUS
 62
     3
 10
-670.252310683948
 20
-76.1812673299056
 30
0.0
 11
-670.252310683948
 21
-74.6062673567277
 31
0.0
  0
LINE
  5
   5B8
  8
0
  6
CONTINUOUS
 62
     3
 10
-670.252310683948
 20
-76.1812673299056
 30
0.0
 11
-670.689810676497
 21
-76.1812673299056
 31
0.0
  0
LINE
  5
   5B9
  8
0
  6
CONTINUOUS
 62
     3
 10
-670.689810676497
 20
-77.0562673150038
 30
0.0
 11
-670.689810676497
 21
-76.181267329905
 31
0.0
  0
LINE
  5
   5BA
  8
0
  6
CONTINUOUS
 62
     3
 10
-647.764805726331
 20
-77.0562564641257
 30
0.0
 11
-670.689810676497
 21
-77.0562564641257
 31
0.0
  0
LINE
  5
   5BB
  8
0
  6
CONTINUOUS
 62
     3
 10
-647.764805726331
 20
-77.0562673150038
 30
0.0
 11
-647.764805726331
 21
-76.181267329905
 31
0.0
  0
LINE
  5
   5BC
  8
0
  6
CONTINUOUS
 62
     3
 10
-647.764805726331
 20
-76.1812673299056
 30
0.0
 11
-648.202305718881
 21
-76.1812673299056
 31
0.0
  0
LINE
  5
   5BD
  8
0
  6
CONTINUOUS
 62
     3
 10
-648.202305718881
 20
-76.1812673299056
 30
0.0
 11
-648.202305718881
 21
-74.6062673567277
 31
0.0
  0
LINE
  5
   5BE
  8
0
  6
CONTINUOUS
 62
     3
 10
-645.752305760604
 20
-74.6062673567277
 30
0.0
 11
-648.202305718881
 21
-74.6062673567277
 31
0.0
  0
LINE
  5
   5BF
  8
0
  6
CONTINUOUS
 62
     3
 10
-645.752305760604
 20
-76.1812673299056
 30
0.0
 11
-645.752305760604
 21
-74.6062673567277
 31
0.0
  0
LINE
  5
   5C0
  8
0
  6
CONTINUOUS
 62
     3
 10
-645.752305760604
 20
-76.1812673299056
 30
0.0
 11
-646.189805753153
 21
-76.1812673299056
 31
0.0
  0
LINE
  5
   5C1
  8
0
  6
CONTINUOUS
 62
     3
 10
-646.189805753153
 20
-77.0562673150103
 30
0.0
 11
-646.189805753153
 21
-76.1812673299115
 31
0.0
  0
LINE
  5
   5C2
  8
0
  6
DASHDOT
 62
     7
 10
-634.727295339108
 20
-96.329804146309
 30
0.0
 11
-634.727295339108
 21
66.6065614747913
 31
0.0
  0
LINE
  5
   5C3
  8
0
  6
DASHDOT
 62
     7
 10
-683.727294504643
 20
-95.7018637573045
 30
0.0
 11
-683.727294504643
 21
66.2790899186659
 31
0.0
  0
INSERT
  5
   5C4
  8
0
  6
CONTINUOUS
 62
     7
  2
*UDIM416
 10
0.0
 20
0.0
 30
0.0
  0
CIRCLE
  5
   5C5
  8
0
  6
CONTINUOUS
 62
     1
 10
-671.477306093261
 20
-71.6312441780603
 30
0.0
 40
1.83749026298616
  0
CIRCLE
  5
   5C6
  8
0
  6
CONTINUOUS
 62
     1
 10
-671.477315748767
 20
-71.6312675475149
 30
0.0
 40
0.962507390421093
  0
CIRCLE
  5
   5C7
  8
0
  6
CONTINUOUS
 62
     1
 10
-646.977271377695
 20
-71.6313078874091
 30
0.0
 40
1.83755586507084
  0
CIRCLE
  5
   5C8
  8
0
  6
CONTINUOUS
 62
     1
 10
-646.977325941603
 20
-71.6312376703117
 30
0.0
 40
0.962478285897051
  0
LINE
  5
   5C9
  8
0
  6
DASHDOT
 62
     2
 10
-668.249035003297
 20
-71.6312441780603
 30
0.0
 11
-674.364796338366
 21
-71.6312441780603
 31
0.0
  0
LINE
  5
   5CA
  8
0
  6
DASHDOT
 62
     2
 10
-646.977271377695
 20
-74.5188637345985
 30
0.0
 11
-646.977271377695
 21
-68.7437520402196
 31
0.0
  0
LINE
  5
   5CB
  8
0
  6
DASHDOT
 62
     2
 10
-643.895330617531
 20
-71.6312441780603
 30
0.0
 11
-658.309049819082
 21
-71.6312441780603
 31
0.0
  0
LINE
  5
   5CC
  8
0
  6
DASHDOT
 62
     2
 10
-671.477270960462
 20
-74.5188637345985
 30
0.0
 11
-671.477270960462
 21
-68.7437520402196
 31
0.0
  0
LINE
  5
   5CD
  8
0
  6
DASHDOT
 62
     2
 10
-624.752284124596
 20
-77.1962575306271
 30
0.0
 11
-624.752284124596
 21
-74.1162567826399
 31
0.0
  0
LINE
  5
   5CE
  8
0
  6
DASHDOT
 62
     2
 10
-623.212283750602
 20
-75.6562571566335
 30
0.0
 11
-626.292284498589
 21
-75.6562571566335
 31
0.0
  0
CIRCLE
  5
   5CF
  8
0
  6
CONTINUOUS
 62
     1
 10
-624.752284124596
 20
-75.6562571566335
 30
0.0
 40
0.49000039187499
  0
CIRCLE
  5
   5D0
  8
0
  6
CONTINUOUS
 62
     1
 10
-671.477211814172
 20
11.318742030857
 30
0.0
 40
1.39999997615814
  0
CIRCLE
  5
   5D1
  8
0
  6
CONTINUOUS
 62
     1
 10
-646.977378029578
 20
11.318742030857
 30
0.0
 40
1.39999997615814
  0
LINE
  5
   5D2
  8
0
  6
CONTINUOUS
 62
     1
 10
-627.814789802686
 20
8.62374741732868
 30
0.0
 11
-627.814789802686
 21
56.4687410922282
 31
0.0
  0
INSERT
  5
   5D3
  8
255
  6
CONTINUOUS
 62
     7
  2
PIA_DIA______
 10
-669.814839177114
 20
17.4437312453967
 30
0.0
 41
0.349999994039536
 42
0.349999994039536
 50
359.999938796872
 43
0.349999994039536
  0
INSERT
  5
   5D4
  8
255
  6
CONTINUOUS
 62
     7
  2
PIA_DIA______
 10
-669.814839177114
 20
-29.4562412530206
 30
0.0
 41
-0.349999994039536
 42
0.349999994039536
 50
180.000061099197
 43
0.349999994039536
  0
TEXT
  5
   5D5
  8
0
  6
CONTINUOUS
 62
     7
 10
-660.82220672278
 20
83.6699240347125
 30
0.0
 40
2.99999997871263
  1
Y
 50
359.999999948034
 41
0.91666663951344
 72
     2
 11
-658.622206787068
 21
83.6699240327282
 31
0.0
  0
INSERT
  5
   5D6
  8
0
  6
CONTINUOUS
 62
     7
  2
*UDIM417
 10
0.0
 20
0.0
 30
0.0
  0
INSERT
  5
   5D7
  8
0
  6
CONTINUOUS
 62
     7
  2
*UDIM418
 10
0.0
 20
0.0
 30
0.0
  0
INSERT
  5
   5D8
  8
0
  6
CONTINUOUS
 62
     7
  2
*UDIM419
 10
0.0
 20
0.0
 30
0.0
  0
TEXT
  5
   5D9
  8
0
  6
CONTINUOUS
 62
     7
 10
-660.277630470073
 20
-123.904085928133
 30
0.0
 40
2.99999997871263
  1
Y
 50
359.999999948034
 41
0.91666663951344
 72
     2
 11
-658.077630534361
 21
-123.904085930117
 31
0.0
  0
INSERT
  5
   5DA
  8
0
  6
CONTINUOUS
 62
     7
  2
*UDIM420
 10
0.0
 20
0.0
 30
0.0
  0
INSERT
  5
   5DB
  8
0
  6
CONTINUOUS
 62
     7
  2
*UDIM421
 10
0.0
 20
0.0
 30
0.0
  0
INSERT
  5
   5DC
  8
0
  6
CONTINUOUS
 62
     7
  2
*UDIM422
 10
0.0
 20
0.0
 30
0.0
  0
INSERT
  5
   5DD
  8
0
  6
CONTINUOUS
 62
     7
  2
*UDIM423
 10
0.0
 20
0.0
 30
0.0
  0
INSERT
  5
   5DE
  8
0
  6
CONTINUOUS
 62
     7
  2
*UDIM424
 10
0.0
 20
0.0
 30
0.0
  0
INSERT
  5
   5DF
  8
0
  6
CONTINUOUS
 62
     7
  2
*UDIM425
 10
0.0
 20
0.0
 30
0.0
  0
INSERT
  5
   5E0
  8
0
  6
CONTINUOUS
 62
     7
  2
*UDIM426
 10
0.0
 20
0.0
 30
0.0
  0
TEXT
  5
   5E1
  8
0
  6
CONTINUOUS
 62
     7
 10
-704.204693626113
 20
-26.2477651858347
 30
0.0
 40
2.99999997871263
  1
X
 50
359.999999948034
 41
0.91666663951344
 72
     2
 11
-702.004693690401
 21
-26.247765187819
 31
0.0
  0
TEXT
  5
   5E2
  8
0
  6
CONTINUOUS
 62
     7
 10
-607.319762185844
 20
-27.6692342778382
 30
0.0
 40
2.99999997871263
  1
X
 50
359.999999948034
 41
0.91666663951344
 72
     2
 11
-605.119762250132
 21
-27.6692342798225
 31
0.0
  0
LINE
  5
   5E3
  8
0
  6
CONTINUOUS
 62
     7
 10
-548.309685638547
 20
-71.2812482617269
 30
0.0
 11
-548.309685638547
 21
-68.1312474608421
 31
0.0
  0
LINE
  5
   5E4
  8
0
  6
CONTINUOUS
 62
     7
 10
-546.559685668349
 20
-74.7812482021222
 30
0.0
 11
-546.559685668349
 21
-69.8812482855687
 31
0.0
  0
LINE
  5
   5E5
  8
0
  6
CONTINUOUS
 62
     2
 10
-546.279685673118
 20
-74.7812482021222
 30
0.0
 11
-546.279685673118
 21
-69.8812482855687
 31
0.0
  0
LINE
  5
   5E6
  8
0
  6
CONTINUOUS
 62
     2
 10
-546.559685668349
 20
-69.8812482855687
 30
0.0
 11
-546.279685673118
 21
-69.8812482855687
 31
0.0
  0
LINE
  5
   5E7
  8
0
  6
CONTINUOUS
 62
     2
 10
-546.559685668349
 20
-74.7812482021222
 30
0.0
 11
-546.279685673118
 21
-74.7812482021222
 31
0.0
  0
LINE
  5
   5E8
  8
0
  6
CONTINUOUS
 62
     1
 10
-544.17968570888
 20
-74.0812482140432
 30
0.0
 11
-544.17968570888
 21
-70.5812482736478
 31
0.0
  0
LINE
  5
   5E9
  8
0
  6
CONTINUOUS
 62
     1
 10
-546.279685673118
 20
-74.0812482140432
 30
0.0
 11
-546.279685673118
 21
-70.5812482736478
 31
0.0
  0
LINE
  5
   5EA
  8
0
  6
CONTINUOUS
 62
     1
 10
-547.329685655236
 20
-73.3812482259641
 30
0.0
 11
-547.329685655236
 21
-71.2812482617269
 31
0.0
  0
LINE
  5
   5EB
  8
0
  6
CONTINUOUS
 62
     1
 10
-555.029685524106
 20
-71.2812482617269
 30
0.0
 11
-546.559685668349
 21
-71.2812482617269
 31
0.0
  0
LINE
  5
   5EC
  8
0
  6
CONTINUOUS
 62
     1
 10
-555.029685524106
 20
-73.3812482259641
 30
0.0
 11
-546.559685668349
 21
-73.3812482259641
 31
0.0
  0
LINE
  5
   5ED
  8
0
  6
CONTINUOUS
 62
     1
 10
-546.279685673118
 20
-70.5812482736478
 30
0.0
 11
-544.17968570888
 21
-70.5812482736478
 31
0.0
  0
LINE
  5
   5EE
  8
0
  6
CONTINUOUS
 62
     1
 10
-546.279685673118
 20
-74.0812482140432
 30
0.0
 11
-544.17968570888
 21
-74.0812482140432
 31
0.0
  0
LINE
  5
   5EF
  8
0
  6
CONTINUOUS
 62
     7
 10
-555.029685524106
 20
-71.4959487580705
 30
0.0
 11
-547.329685610304
 21
-71.4959487580705
 31
0.0
  0
LINE
  5
   5F0
  8
0
  6
CONTINUOUS
 62
     7
 10
-555.029685524106
 20
-73.1665477296204
 30
0.0
 11
-547.329685610304
 21
-73.1665477296204
 31
0.0
  0
LINE
  5
   5F1
  8
0
  6
DASHDOT
 62
     7
 10
-550.479685267806
 20
-72.3312482438455
 30
0.0
 11
-543.514685720205
 21
-72.3312482438455
 31
0.0
  0
LINE
  5
   5F2
  8
0
  6
CONTINUOUS
 62
     1
 10
-555.029685524106
 20
-73.3812482259641
 30
0.0
 11
-555.029685524106
 21
-71.2812467623299
 31
0.0
  0
LINE
  5
   5F3
  8
0
  6
CONTINUOUS
 62
     2
 10
-548.309685638547
 20
-76.531247317791
 30
0.0
 11
-548.309685638547
 21
-73.3812482259641
 31
0.0
  0
LINE
  5
   5F4
  8
0
  6
DASHDOT
 62
     7
 10
-549.412184952199
 20
60.3187512109703
 30
0.0
 11
-542.447185404599
 21
60.3187512109703
 31
0.0
  0
LINE
  5
   5F5
  8
0
  6
DASHDOT
 62
     7
 10
-557.930365615549
 20
60.3187485817222
 30
0.0
 11
-543.031153176273
 21
60.318752646154
 31
0.0
  0
LINE
  5
   5F6
  8
0
  6
DASHDOT
 62
     2
 10
-558.731410652498
 20
-72.3312454008502
 30
0.0
 11
-543.031153176274
 21
-72.3312496838032
 31
0.0
  0
LINE
  5
   5F7
  8
0
  6
CONTINUOUS
 62
     3
 10
-516.109702208639
 20
-20.9687484337455
 30
0.0
 11
-516.109702208639
 21
-12.8312590837477
 31
0.0
  0
LINE
  5
   5F8
  8
0
  6
CONTINUOUS
 62
     5
 10
-548.292185305059
 20
56.4687512765354
 30
0.0
 11
-548.292185305059
 21
59.1812512303418
 31
0.0
  0
LINE
  5
   5F9
  8
0
  6
CONTINUOUS
 62
     3
 10
-556.009680125117
 20
-24.5562428623439
 30
0.0
 11
-556.009680125117
 21
-20.0062429398299
 31
0.0
  0
LINE
  5
   5FA
  8
0
  6
CONTINUOUS
 62
   130
 10
-556.359679827094
 20
61.3687556743621
 30
0.0
 11
-555.484680175781
 21
61.3687556743621
 31
0.0
  0
LINE
  5
   5FB
  8
0
  6
CONTINUOUS
 62
   130
 10
-556.359679827094
 20
57.8687503933907
 30
0.0
 11
-555.484680175781
 21
57.8687503933907
 31
0.0
  0
LINE
  5
   5FC
  8
0
  6
CONTINUOUS
 62
   130
 10
-556.359679827094
 20
57.8687503933907
 30
0.0
 11
-556.359679827094
 21
58.3365848580797
 31
0.0
  0
LINE
  5
   5FD
  8
0
  6
CONTINUOUS
 62
   130
 10
-556.359679827094
 20
58.3366169015362
 30
0.0
 11
-556.359679827094
 21
58.9414585050054
 31
0.0
  0
LINE
  5
   5FE
  8
0
  6
CONTINUOUS
 62
   130
 10
-556.359679827094
 20
58.941501229614
 30
0.0
 11
-556.359679827094
 21
61.3687553405761
 31
0.0
  0
LINE
  5
   5FF
  8
0
  6
CONTINUOUS
 62
     3
 10
-555.834680169821
 20
-52.7312427163125
 30
0.0
 11
-555.484680196643
 21
-52.7312427163125
 31
0.0
  0
LINE
  5
   600
  8
0
  6
CONTINUOUS
 62
     3
 10
-555.834680169821
 20
-24.3090489578622
 30
0.0
 11
-555.834680169821
 21
-20.0062429398299
 31
0.0
  0
LINE
  5
   601
  8
0
  6
CONTINUOUS
 62
   130
 10
-555.834680169821
 20
52.7937558271368
 30
0.0
 11
-553.034680217505
 21
52.7937131025282
 31
0.0
  0
LINE
  5
   602
  8
0
  6
CONTINUOUS
 62
   130
 10
-555.484680810409
 20
53.0045067775352
 30
0.0
 11
-555.484680121975
 21
52.7937409425068
 31
0.0
  0
LINE
  5
   603
  8
0
  6
CONTINUOUS
 62
   130
 10
-555.484680175781
 20
52.7937504798174
 30
0.0
 11
-555.484680175781
 21
65.0437502712011
 31
0.0
  0
LINE
  5
   604
  8
0
  6
CONTINUOUS
 62
     3
 10
-555.484680196643
 20
-52.7312427163125
 30
0.0
 11
-539.922252177978
 21
-52.7312427163125
 31
0.0
  0
LINE
  5
   605
  8
0
  6
CONTINUOUS
 62
     3
 10
-555.834681491391
 20
-29.7030710595688
 30
0.0
 11
-555.484680175781
 21
-29.6092917440576
 31
0.0
  0
LINE
  5
   606
  8
0
  6
CONTINUOUS
 62
     3
 10
-555.834677592225
 20
-24.3090539231956
 30
0.0
 11
-552.952874065985
 21
-25.081258322908
 31
0.0
  0
LINE
  5
   607
  8
0
  6
CONTINUOUS
 62
     3
 10
-554.609702621103
 20
-25.081258293433
 30
0.0
 11
-522.689703164698
 21
-25.0812431358394
 31
0.0
  0
LINE
  5
   608
  8
0
  6
CONTINUOUS
 62
     3
 10
-554.609702621103
 20
-28.9312689090532
 30
0.0
 11
-522.689703164698
 21
-28.9312537523124
 31
0.0
  0
LINE
  5
   609
  8
0
  6
CONTINUOUS
 62
     3
 10
-555.484680175781
 20
-29.6093090299528
 30
0.0
 11
-555.484680175781
 21
-24.5562428623439
 31
0.0
  0
LINE
  5
   60A
  8
0
  6
DASHDOT
 62
   130
 10
-556.884680151939
 20
-79.9369598913083
 30
0.0
 11
-556.884680151939
 21
72.3063599670509
 31
0.0
  0
LINE
  5
   60B
  8
0
  6
CONTINUOUS
 62
     3
 10
-556.35968016088
 20
-47.4812424719335
 30
0.0
 11
-555.834680503607
 21
-47.4812424719335
 31
0.0
  0
LINE
  5
   60C
  8
0
  6
CONTINUOUS
 62
     3
 10
-556.359680049618
 20
-52.7312423825265
 30
0.0
 11
-555.834680058559
 21
-52.7312427163124
 31
0.0
  0
LINE
  5
   60D
  8
0
  6
CONTINUOUS
 62
     3
 10
-539.922260599208
 20
-52.7312443093509
 30
0.0
 11
-539.734699582232
 21
-53.4312439326985
 31
0.0
  0
LINE
  5
   60E
  8
0
  6
CONTINUOUS
 62
     3
 10
-539.909685781598
 20
-53.4312423706056
 30
0.0
 11
-528.534701997041
 21
-53.4312423706056
 31
0.0
  0
LINE
  5
   60F
  8
0
  6
CONTINUOUS
 62
     3
 10
-530.459701964259
 20
-29.0187641486523
 30
0.0
 11
-530.459701964259
 21
-28.9312534689902
 31
0.0
  0
LINE
  5
   610
  8
0
  6
CONTINUOUS
 62
     3
 10
-530.459701964259
 20
-25.0812428534032
 30
0.0
 11
-530.459701964259
 21
-24.9937642171976
 31
0.0
  0
LINE
  5
   611
  8
0
  6
CONTINUOUS
 62
     3
 10
-530.459701964259
 20
-24.9937642171976
 30
0.0
 11
-522.689703164698
 21
-24.9937642171976
 31
0.0
  0
LINE
  5
   612
  8
0
  6
CONTINUOUS
 62
     3
 10
-530.459705362928
 20
-29.0187660893632
 30
0.0
 11
-522.689703164698
 21
-29.0188092021443
 31
0.0
  0
LINE
  5
   613
  8
0
  6
CONTINUOUS
 62
     3
 10
-556.009679833055
 20
-20.0062429398299
 30
0.0
 11
-555.834679502249
 21
-20.0062429398299
 31
0.0
  0
LINE
  5
   614
  8
0
  6
CONTINUOUS
 62
     3
 10
-556.009679853916
 20
-24.5562428623439
 30
0.0
 11
-555.484680196643
 21
-24.5562428623439
 31
0.0
  0
LINE
  5
   615
  8
0
  6
CONTINUOUS
 62
     3
 10
-520.834702128173
 20
-53.0812583982943
 30
0.0
 11
-520.834702128173
 21
-45.4687585279344
 31
0.0
  0
LINE
  5
   616
  8
0
  6
CONTINUOUS
 62
     3
 10
-520.834702128173
 20
8.62375123202801
 30
0.0
 11
-520.834702128173
 21
56.4687343955043
 31
0.0
  0
LINE
  5
   617
  8
0
  6
CONTINUOUS
 62
     7
 10
-522.584702098371
 20
8.16873521804837
 30
0.0
 11
-520.834702128173
 21
8.16873521804837
 31
0.0
  0
LINE
  5
   618
  8
0
  6
CONTINUOUS
 62
     3
 10
-521.709685824513
 20
-53.4312583923338
 30
0.0
 11
-521.184702122212
 21
-53.4312583923338
 31
0.0
  0
LINE
  5
   619
  8
0
  6
CONTINUOUS
 62
     3
 10
-520.134702140094
 20
-45.4687585279344
 30
0.0
 11
-520.134702140094
 21
-8.71876449435923
 31
0.0
  0
LINE
  5
   61A
  8
0
  6
CONTINUOUS
 62
     3
 10
-520.834702128173
 20
-45.4687585279344
 30
0.0
 11
-520.134702140094
 21
-45.4687585279344
 31
0.0
  0
LINE
  5
   61B
  8
0
  6
CONTINUOUS
 62
     3
 10
-520.834702128173
 20
-8.71876449435923
 30
0.0
 11
-520.134702140094
 21
-8.71876449435923
 31
0.0
  0
LINE
  5
   61C
  8
0
  6
CONTINUOUS
 62
     3
 10
-529.584701979161
 20
-18.6062502619458
 30
0.0
 11
-529.584701979161
 21
5.9768881804024
 31
0.0
  0
LINE
  5
   61D
  8
0
  6
CONTINUOUS
 62
     3
 10
-529.584702821283
 20
-18.606250121588
 30
0.0
 11
-528.53470253765
 21
-18.7812554350631
 31
0.0
  0
LINE
  5
   61E
  8
0
  6
CONTINUOUS
 62
     3
 10
-529.584702312254
 20
-18.6062526989849
 30
0.0
 11
-529.584701978468
 21
-18.4312580423783
 31
0.0
  0
LINE
  5
   61F
  8
0
  6
CONTINUOUS
 62
     3
 10
-534.195649454407
 20
63.9937445348999
 30
0.0
 11
-522.689703164698
 21
63.9937348883706
 31
0.0
  0
LINE
  5
   620
  8
0
  6
CONTINUOUS
 62
     3
 10
-528.534701997043
 20
65.0437502712011
 30
0.0
 11
-521.884702110291
 21
65.0437502712011
 31
0.0
  0
LINE
  5
   621
  8
0
  6
CONTINUOUS
 62
     3
 10
-528.534701997043
 20
-53.4312423706056
 30
0.0
 11
-522.584707438947
 21
-53.4312423706056
 31
0.0
  0
LINE
  5
   622
  8
0
  6
CONTINUOUS
 62
     3
 10
-528.534701997043
 20
-52.7312477231026
 30
0.0
 11
-522.689703164698
 21
-52.7312477231026
 31
0.0
  0
LINE
  5
   623
  8
0
  6
CONTINUOUS
 62
     3
 10
-528.534701997043
 20
-53.4312423706056
 30
0.0
 11
-528.534701997043
 21
-29.0187767704733
 31
0.0
  0
LINE
  5
   624
  8
0
  6
CONTINUOUS
 62
     3
 10
-521.884702110291
 20
65.0437502712011
 30
0.0
 11
-521.709702113272
 21
65.0437502712011
 31
0.0
  0
LINE
  5
   625
  8
0
  6
CONTINUOUS
 62
     3
 10
-521.709702113272
 20
56.4687504172325
 30
0.0
 11
-521.709702113272
 21
65.0437502712011
 31
0.0
  0
LINE
  5
   626
  8
0
  6
CONTINUOUS
 62
     3
 10
-522.689703164698
 20
-24.9937642171976
 30
0.0
 11
-522.689703164698
 21
63.9937348883706
 31
0.0
  0
LINE
  5
   627
  8
0
  6
CONTINUOUS
 62
     3
 10
-522.689703164698
 20
-52.7312477231026
 30
0.0
 11
-522.689703164698
 21
-29.0188092021443
 31
0.0
  0
LINE
  5
   628
  8
0
  6
CONTINUOUS
 62
     3
 10
-520.134702140094
 20
-45.4687585279344
 30
0.0
 11
-518.909702160955
 21
-45.4687585279344
 31
0.0
  0
LINE
  5
   629
  8
0
  6
CONTINUOUS
 62
     3
 10
-520.134702140094
 20
-8.71876449435923
 30
0.0
 11
-518.909702160955
 21
-8.71876449435923
 31
0.0
  0
LINE
  5
   62A
  8
0
  6
CONTINUOUS
 62
     3
 10
-516.109702208639
 20
-45.4687585279344
 30
0.0
 11
-516.109702208639
 21
-42.3187443985112
 31
0.0
  0
LINE
  5
   62B
  8
0
  6
CONTINUOUS
 62
     3
 10
-516.109702208639
 20
-9.50626982152426
 30
0.0
 11
-516.109702208639
 21
-8.71876449435923
 31
0.0
  0
LINE
  5
   62C
  8
0
  6
CONTINUOUS
 62
     3
 10
-521.184702122212
 20
8.16874589920053
 30
0.0
 11
-520.834702128173
 21
8.16874589920053
 31
0.0
  0
LINE
  5
   62D
  8
0
  6
CONTINUOUS
 62
     3
 10
-520.834702128173
 20
-8.71875381320707
 30
0.0
 11
-520.134702140094
 21
-8.71875381320707
 31
0.0
  0
LINE
  5
   62E
  8
0
  6
CONTINUOUS
 62
     3
 10
-516.109702208639
 20
-12.8312590837477
 30
0.0
 11
-516.109702208639
 21
-9.5062591403721
 31
0.0
  0
LINE
  5
   62F
  8
0
  6
CONTINUOUS
 62
     3
 10
-522.584702098371
 20
-53.4312583923338
 30
0.0
 11
-522.584702098371
 21
8.16873521804837
 31
0.0
  0
LINE
  5
   630
  8
0
  6
CONTINUOUS
 62
     3
 10
-522.689701529224
 20
-32.9737633382219
 30
0.0
 11
-522.584700466322
 21
-32.9922771077755
 31
0.0
  0
LINE
  5
   631
  8
0
  6
CONTINUOUS
 62
     3
 10
-522.689701252829
 20
-52.7312423694361
 30
0.0
 11
-522.584705532543
 21
-52.800338738553
 31
0.0
  0
LINE
  5
   632
  8
0
  6
CONTINUOUS
 62
     3
 10
-522.689704889203
 20
-21.0387600420586
 30
0.0
 11
-522.584703826572
 21
-21.0202442662594
 31
0.0
  0
LINE
  5
   633
  8
0
  6
CONTINUOUS
 62
     3
 10
-522.689704620032
 20
53.6063695541464
 30
0.0
 11
-522.584708900169
 21
53.5616689384437
 31
0.0
  0
LINE
  5
   634
  8
0
  6
CONTINUOUS
 62
     3
 10
-522.689698911459
 20
55.1311310835858
 30
0.0
 11
-522.584703186176
 21
55.1758263590016
 31
0.0
  0
LINE
  5
   635
  8
0
  6
CONTINUOUS
 62
     2
 10
-556.35968016088
 20
-73.3812473714354
 30
0.0
 11
-555.659685513377
 21
-73.3812473714354
 31
0.0
  0
LINE
  5
   636
  8
0
  6
CONTINUOUS
 62
     2
 10
-556.35968016088
 20
-73.3812473714354
 30
0.0
 11
-556.35968016088
 21
-66.5562474876642
 31
0.0
  0
LINE
  5
   637
  8
0
  6
CONTINUOUS
 62
     3
 10
-548.309685638547
 20
-76.0762475925686
 30
0.0
 11
-522.689687142968
 21
-76.0762475925686
 31
0.0
  0
LINE
  5
   638
  8
0
  6
CONTINUOUS
 62
     2
 10
-555.659685513377
 20
-77.0562473088495
 30
0.0
 11
-521.709686091542
 21
-77.0562473088495
 31
0.0
  0
LINE
  5
   639
  8
0
  6
CONTINUOUS
 62
     3
 10
-556.359685501456
 20
-52.9062477201226
 30
0.0
 11
-539.909685781598
 21
-52.9062477201226
 31
0.0
  0
LINE
  5
   63A
  8
0
  6
CONTINUOUS
 62
     2
 10
-521.709686091542
 20
-77.0562473088505
 30
0.0
 11
-521.709686091542
 21
-68.6562527924777
 31
0.0
  0
LINE
  5
   63B
  8
0
  6
CONTINUOUS
 62
     2
 10
-522.689685807824
 20
-68.6562527924777
 30
0.0
 11
-521.709686091542
 21
-68.6562527924777
 31
0.0
  0
LINE
  5
   63C
  8
0
  6
CONTINUOUS
 62
     3
 10
-522.689685807824
 20
-76.0762462574246
 30
0.0
 11
-522.689685807824
 21
-68.6562527924777
 31
0.0
  0
LINE
  5
   63D
  8
0
  6
CONTINUOUS
 62
     3
 10
-539.909685781598
 20
-53.431253051758
 30
0.0
 11
-539.909685781598
 21
-52.9062477201226
 31
0.0
  0
LINE
  5
   63E
  8
0
  6
CONTINUOUS
 62
     2
 10
-522.689685807824
 20
-67.2562528163196
 30
0.0
 11
-522.689685807824
 21
-53.431253051758
 31
0.0
  0
LINE
  5
   63F
  8
0
  6
CONTINUOUS
 62
     2
 10
-555.659685513377
 20
-77.0562473088495
 30
0.0
 11
-555.659685513377
 21
-73.3812473714354
 31
0.0
  0
LINE
  5
   640
  8
0
  6
CONTINUOUS
 62
     7
 10
-520.834685839415
 20
-67.2562529860503
 30
0.0
 11
-520.834685839415
 21
-53.6062532185085
 31
0.0
  0
LINE
  5
   641
  8
0
  6
CONTINUOUS
 62
     7
 10
-522.689685807824
 20
-53.6062532185085
 30
0.0
 11
-521.709685824513
 21
-53.6062532185085
 31
0.0
  0
LINE
  5
   642
  8
0
  6
CONTINUOUS
 62
     7
 10
-522.689685807824
 20
-67.2562529860503
 30
0.0
 11
-520.834685839415
 21
-67.2562529860503
 31
0.0
  0
LINE
  5
   643
  8
0
  6
CONTINUOUS
 62
     7
 10
-521.709685824513
 20
-67.2562529860503
 30
0.0
 11
-521.709685824513
 21
-53.6062532185085
 31
0.0
  0
LINE
  5
   644
  8
0
  6
CONTINUOUS
 62
   130
 10
-503.032232415755
 20
-41.7905045528106
 30
0.0
 11
-502.142306068667
 21
-39.107323006319
 31
0.0
  0
LINE
  5
   645
  8
0
  6
CONTINUOUS
 62
   130
 10
-511.719593402541
 20
-39.6325022340363
 30
0.0
 11
-503.461520247726
 21
-42.0165891754925
 31
0.0
  0
LINE
  5
   646
  8
0
  6
CONTINUOUS
 62
   130
 10
-510.3974077928
 20
-35.6460477677721
 30
0.0
 11
-502.351405197048
 21
-38.6695063605916
 31
0.0
  0
LINE
  5
   647
  8
0
  6
CONTINUOUS
 62
   130
 10
-516.109702208639
 20
-33.7514604054806
 30
0.0
 11
-510.397412404526
 21
-35.6460460348168
 31
0.0
  0
LINE
  5
   648
  8
0
  6
CONTINUOUS
 62
   130
 10
-516.109702208639
 20
-38.1764419411706
 30
0.0
 11
-511.719588066226
 21
-39.6325037746182
 31
0.0
  0
ARC
  5
   649
  8
0
  6
CONTINUOUS
 62
   130
 10
-503.364435358081
 20
-41.6803262621433
 30
0.0
 40
0.349990964861241
 50
253.896746069851
 51
341.65100647314
  0
ARC
  5
   64A
  8
0
  6
CONTINUOUS
 62
   130
 10
-502.474505819988
 20
-38.9971401269144
 30
0.0
 40
0.349991035761385
 50
341.650951831627
 51
429.405209888843
  0
ARC
  5
   64B
  8
0
  6
CONTINUOUS
 62
     7
 10
-537.622268645568
 20
-28.8289139774522
 30
0.0
 40
36.9117268438413
 50
327.264349717579
 51
356.916833212326
  0
LINE
  5
   64C
  8
0
  6
CONTINUOUS
 62
     3
 10
-528.534701997043
 20
-24.9937642171976
 30
0.0
 11
-528.534701997043
 21
-18.781269663572
 31
0.0
  0
LINE
  5
   64D
  8
0
  6
CONTINUOUS
 62
     3
 10
-522.689703164698
 20
-28.9312537523124
 30
0.0
 11
-522.689703164698
 21
-25.0812431358394
 31
0.0
  0
LINE
  5
   64E
  8
0
  6
CONTINUOUS
 62
     3
 10
-554.609702621103
 20
-28.9312537523124
 30
0.0
 11
-554.609702621103
 21
-25.081258293433
 31
0.0
  0
LINE
  5
   64F
  8
0
  6
CONTINUOUS
 62
     3
 10
-548.415722235208
 20
51.7475207470022
 30
0.0
 11
-548.292180130904
 21
52.4481630573492
 31
0.0
  0
LINE
  5
   650
  8
0
  6
CONTINUOUS
 62
     3
 10
-548.292185305059
 20
52.4481548126471
 30
0.0
 11
-548.292185305059
 21
59.2687512288517
 31
0.0
  0
LINE
  5
   651
  8
0
  6
CONTINUOUS
 62
     3
 10
-551.442180194635
 20
64.5187502801418
 30
0.0
 11
-548.292180487388
 21
64.5187511394463
 31
0.0
  0
LINE
  5
   652
  8
0
  6
CONTINUOUS
 62
     3
 10
-551.605058475502
 20
51.7475207470022
 30
0.0
 11
-551.442179843601
 21
52.6712516612873
 31
0.0
  0
LINE
  5
   653
  8
0
  6
CONTINUOUS
 62
     7
 10
-557.187618311624
 20
51.7475207470022
 30
0.0
 11
-536.838719336687
 21
51.7475207470022
 31
0.0
  0
LINE
  5
   654
  8
0
  6
CONTINUOUS
 62
     7
 10
-536.838719336687
 20
51.7475207470022
 30
0.0
 11
-533.647644515126
 21
66.5328340869038
 31
0.0
  0
LINE
  5
   655
  8
0
  6
CONTINUOUS
 62
     7
 10
-555.484680175781
 20
54.3687504529953
 30
0.0
 11
-551.442180244625
 21
54.3687504529953
 31
0.0
  0
LINE
  5
   656
  8
0
  6
CONTINUOUS
 62
     7
 10
-548.292185305059
 20
54.3687504529953
 30
0.0
 11
-536.272986306617
 21
54.3687504529953
 31
0.0
  0
LINE
  5
   657
  8
0
  6
CONTINUOUS
 62
     7
 10
-547.942185311019
 20
56.118750423193
 30
0.0
 11
-535.895288471322
 21
56.118750423193
 31
0.0
  0
LINE
  5
   658
  8
0
  6
CONTINUOUS
 62
     7
 10
-547.942185311019
 20
55.5937504321336
 30
0.0
 11
-547.942185311019
 21
56.118750423193
 31
0.0
  0
LINE
  5
   659
  8
0
  6
CONTINUOUS
 62
     7
 10
-546.192185340822
 20
54.3687504529953
 30
0.0
 11
-546.192185340822
 21
55.0687504410743
 31
0.0
  0
LINE
  5
   65A
  8
0
  6
CONTINUOUS
 62
     7
 10
-547.942185311019
 20
55.5937504321337
 30
0.0
 11
-546.192185340822
 21
55.0687504410744
 31
0.0
  0
LINE
  5
   65B
  8
0
  6
CONTINUOUS
 62
     7
 10
-553.034680217505
 20
52.7937131025282
 30
0.0
 11
-552.684680223465
 21
54.3687504529953
 31
0.0
  0
LINE
  5
   65C
  8
0
  6
CONTINUOUS
 62
     7
 10
-551.984680235386
 20
54.3687504529953
 30
0.0
 11
-551.515307594804
 21
52.2565234450112
 31
0.0
  0
INSERT
  5
   65D
  8
0
  6
CONTINUOUS
 62
     7
  2
*HATCH159
 10
-555.484680175781
 20
-53.4312477111816
 30
0.0
 41
0.349999994039536
 42
0.349999994039536
 43
0.349999994039536
  0
INSERT
  5
   65E
  8
0
  6
CONTINUOUS
 62
     7
  2
*HATCH160
 10
-555.484680175781
 20
-53.4312477111816
 30
0.0
 41
0.349999994039536
 42
0.349999994039536
 43
0.349999994039536
  0
LINE
  5
   65F
  8
0
  6
CONTINUOUS
 62
     7
 10
-555.46717893525
 20
56.9937496440777
 30
0.0
 11
-551.442179337581
 21
56.9937507420777
 31
0.0
  0
LINE
  5
   660
  8
0
  6
CONTINUOUS
 62
     7
 10
-551.442181245983
 20
62.4767420242159
 30
0.0
 11
-551.442181245983
 21
64.693744664378
 31
0.0
  0
LINE
  5
   661
  8
0
  6
CONTINUOUS
 62
     3
 10
-551.442180244625
 20
52.6712493869693
 30
0.0
 11
-551.442180244625
 21
58.1574569295353
 31
0.0
  0
LINE
  5
   662
  8
0
  6
CONTINUOUS
 62
     7
 10
-551.442180244625
 20
61.893749323487
 30
0.0
 11
-551.442180244625
 21
62.4767422964231
 31
0.0
  0
LINE
  5
   663
  8
0
  6
CONTINUOUS
 62
     7
 10
-551.442180244625
 20
58.1574569295353
 30
0.0
 11
-551.442180244625
 21
58.7437523812054
 31
0.0
  0
LINE
  5
   664
  8
0
  6
CONTINUOUS
 62
     7
 10
-551.442181326395
 20
64.6937434905985
 30
0.0
 11
-550.917181669123
 21
64.6937489743915
 31
0.0
  0
LINE
  5
   665
  8
0
  6
CONTINUOUS
 62
     7
 10
-550.91718759686
 20
64.6937464148857
 30
0.0
 11
-550.91718759686
 21
65.0437410683491
 31
0.0
  0
LINE
  5
   666
  8
0
  6
CONTINUOUS
 62
     7
 10
-555.467181131246
 20
65.0437495069922
 30
0.0
 11
-550.917181208731
 21
65.0437454076341
 31
0.0
  0
LINE
  5
   667
  8
0
  6
CONTINUOUS
 62
     7
 10
-554.767180952213
 20
64.3437443692881
 30
0.0
 11
-551.44218167641
 21
64.3437452763315
 31
0.0
  0
LINE
  5
   668
  8
0
  6
CONTINUOUS
 62
     7
 10
-554.767179264624
 20
58.1574560224917
 30
0.0
 11
-551.44217998882
 21
58.1574569295352
 31
0.0
  0
LINE
  5
   669
  8
0
  6
CONTINUOUS
 62
     7
 10
-554.767179138127
 20
57.6937498231132
 30
0.0
 11
-551.442179862324
 21
57.6937507301567
 31
0.0
  0
LINE
  5
   66A
  8
0
  6
CONTINUOUS
 62
     7
 10
-554.767180443804
 20
62.4800432005416
 30
0.0
 11
-551.442181168001
 21
62.480044107585
 31
0.0
  0
LINE
  5
   66B
  8
0
  6
CONTINUOUS
 62
     7
 10
-554.767179854214
 20
62.4767417231655
 30
0.0
 11
-554.767179854214
 21
64.3437443692881
 31
0.0
  0
LINE
  5
   66C
  8
0
  6
CONTINUOUS
 62
     7
 10
-554.767179520428
 20
57.6937496594153
 30
0.0
 11
-554.767179520428
 21
58.1574575277238
 31
0.0
  0
LINE
  5
   66D
  8
0
  6
CONTINUOUS
 62
     7
 10
-555.117179869115
 20
59.0937497037931
 30
0.0
 11
-555.117179869115
 21
61.5437493282837
 31
0.0
  0
LINE
  5
   66E
  8
0
  6
CONTINUOUS
 62
     7
 10
-554.767180188
 20
61.5437494237619
 30
0.0
 11
-554.767180188
 21
61.7187494207817
 31
0.0
  0
LINE
  5
   66F
  8
0
  6
CONTINUOUS
 62
     7
 10
-554.767180188
 20
58.9187498022515
 30
0.0
 11
-554.767180188
 21
59.0937524695593
 31
0.0
  0
LINE
  5
   670
  8
0
  6
CONTINUOUS
 62
   210
 10
-551.442180189545
 20
58.7437503821341
 30
0.0
 11
-551.267180246254
 21
58.918750420903
 31
0.0
  0
LINE
  5
   671
  8
0
  6
CONTINUOUS
 62
   210
 10
-551.267180247605
 20
58.9187507570342
 30
0.0
 11
-551.267180247605
 21
59.2687507510738
 31
0.0
  0
LINE
  5
   672
  8
0
  6
CONTINUOUS
 62
   210
 10
-554.767179901565
 20
59.268749796291
 30
0.0
 11
-551.26717996117
 21
59.2687507510737
 31
0.0
  0
LINE
  5
   673
  8
0
  6
CONTINUOUS
 62
   210
 10
-554.767180188
 20
59.0937497992712
 30
0.0
 11
-554.767180188
 21
59.268749796291
 31
0.0
  0
LINE
  5
   674
  8
0
  6
CONTINUOUS
 62
   210
 10
-551.267180247605
 20
61.3687503815249
 30
0.0
 11
-551.267180247605
 21
61.7187503755644
 31
0.0
  0
LINE
  5
   675
  8
0
  6
CONTINUOUS
 62
   210
 10
-551.442181227966
 20
61.893749844465
 30
0.0
 11
-551.267181189198
 21
61.7187499011744
 31
0.0
  0
LINE
  5
   676
  8
0
  6
CONTINUOUS
 62
   210
 10
-554.767180188
 20
61.3687494267421
 30
0.0
 11
-554.767180188
 21
61.5437494237619
 31
0.0
  0
LINE
  5
   677
  8
0
  6
CONTINUOUS
 62
   210
 10
-554.767180474435
 20
61.3687494267421
 30
0.0
 11
-551.26718053404
 21
61.3687503815249
 31
0.0
  0
LINE
  5
   678
  8
0
  6
CONTINUOUS
 62
     7
 10
-554.767179261469
 20
58.1458923401325
 30
0.0
 11
-551.442179985666
 21
58.1458932471759
 31
0.0
  0
LINE
  5
   679
  8
0
  6
CONTINUOUS
 62
   210
 10
-554.592179761328
 20
58.7437498529708
 30
0.0
 11
-551.442179814973
 21
58.7437507122753
 31
0.0
  0
LINE
  5
   67A
  8
0
  6
CONTINUOUS
 62
   210
 10
-554.76718012286
 20
58.9187495080502
 30
0.0
 11
-554.592180084091
 21
58.7437495647595
 31
0.0
  0
LINE
  5
   67B
  8
0
  6
CONTINUOUS
 62
   210
 10
-555.117179534941
 20
59.0937497037931
 30
0.0
 11
-554.767179853826
 21
59.0937497992713
 31
0.0
  0
LINE
  5
   67C
  8
0
  6
CONTINUOUS
 62
   210
 10
-555.117180203289
 20
61.5437493282837
 30
0.0
 11
-554.767180522174
 21
61.5437494237619
 31
0.0
  0
LINE
  5
   67D
  8
0
  6
CONTINUOUS
 62
   210
 10
-554.767180943591
 20
61.7187491404841
 30
0.0
 11
-554.5921810003
 21
61.893749179253
 31
0.0
  0
LINE
  5
   67E
  8
0
  6
CONTINUOUS
 62
   210
 10
-554.592180620633
 20
61.8937494655405
 30
0.0
 11
-551.442180674277
 21
61.893750324845
 31
0.0
  0
LINE
  5
   67F
  8
0
  6
CONTINUOUS
 62
   210
 10
-554.767180109118
 20
62.4767413893796
 30
0.0
 11
-551.442180833314
 21
62.4767422964231
 31
0.0
  0
INSERT
  5
   680
  8
0
  6
CONTINUOUS
 62
     2
  2
*HATCH161
 10
-555.484680175781
 20
-53.4312477111816
 30
0.0
 41
0.349999994039536
 42
0.349999994039536
 43
0.349999994039536
  0
INSERT
  5
   681
  8
0
  6
CONTINUOUS
 62
     2
  2
*HATCH162
 10
-555.484680175781
 20
-53.4312477111816
 30
0.0
 41
0.349999994039536
 42
0.349999994039536
 43
0.349999994039536
  0
INSERT
  5
   682
  8
0
  6
CONTINUOUS
 62
     2
  2
*HATCH163
 10
-555.484680175781
 20
-53.4312477111816
 30
0.0
 41
0.349999994039536
 42
0.349999994039536
 43
0.349999994039536
  0
INSERT
  5
   683
  8
0
  6
CONTINUOUS
 62
     2
  2
*HATCH164
 10
-555.484680175781
 20
-53.4312477111816
 30
0.0
 41
0.349999994039536
 42
0.349999994039536
 43
0.349999994039536
  0
INSERT
  5
   684
  8
0
  6
CONTINUOUS
 62
     2
  2
*HATCH165
 10
-555.484680175781
 20
-53.4312477111816
 30
0.0
 41
0.349999994039536
 42
0.349999994039536
 43
0.349999994039536
  0
LINE
  5
   685
  8
0
  6
CONTINUOUS
 62
     7
 10
-500.710541801727
 20
-37.1782713724078
 30
0.0
 11
-500.710541801727
 21
-28.8289139774522
 31
0.0
  0
LINE
  5
   686
  8
0
  6
DASHDOT
 62
     7
 10
-557.934685474634
 20
-81.9017892280604
 30
0.0
 11
-557.934685474634
 21
72.1609392857357
 31
0.0
  0
LINE
  5
   687
  8
0
  6
CONTINUOUS
 62
     3
 10
-555.484680175781
 20
-29.6092917440576
 30
0.0
 11
-552.954150023396
 21
-28.9312617624905
 31
0.0
  0
LINE
  5
   688
  8
0
  6
CONTINUOUS
 62
     3
 10
-555.484680175781
 20
-24.5562428623439
 30
0.0
 11
-555.484680175781
 21
-24.4028348144193
 31
0.0
  0
LINE
  5
   689
  8
0
  6
CONTINUOUS
 62
     3
 10
-555.834680169821
 20
15.6937511116274
 30
0.0
 11
-555.834680169821
 21
51.7475207470022
 31
0.0
  0
LINE
  5
   68A
  8
0
  6
CONTINUOUS
 62
     3
 10
-555.834680169821
 20
-47.4812424719335
 30
0.0
 11
-555.834680169821
 21
-29.7030735242056
 31
0.0
  0
LINE
  5
   68B
  8
0
  6
CONTINUOUS
 62
     2
 10
-522.689685807824
 20
-68.6562527924777
 30
0.0
 11
-522.689685807824
 21
-67.2562528163196
 31
0.0
  0
LINE
  5
   68C
  8
0
  6
CONTINUOUS
 62
     7
 10
-551.459685584903
 20
-68.1312474608421
 30
0.0
 11
-537.747805841035
 21
-68.1312474608421
 31
0.0
  0
LINE
  5
   68D
  8
0
  6
CONTINUOUS
 62
     7
 10
-556.359685501456
 20
-66.5562474876642
 30
0.0
 11
-551.459685584903
 21
-66.5562474876642
 31
0.0
  0
LINE
  5
   68E
  8
0
  6
CONTINUOUS
 62
     7
 10
-551.459685584903
 20
-68.1312474608421
 30
0.0
 11
-551.459685584903
 21
-66.5562474876642
 31
0.0
  0
LINE
  5
   68F
  8
0
  6
CONTINUOUS
 62
     7
 10
-551.459685584903
 20
-76.531247317791
 30
0.0
 11
-549.359685620666
 21
-76.531247317791
 31
0.0
  0
LINE
  5
   690
  8
0
  6
CONTINUOUS
 62
     7
 10
-549.359685620666
 20
-76.531247317791
 30
0.0
 11
-549.359685620666
 21
-73.4687479380392
 31
0.0
  0
LINE
  5
   691
  8
0
  6
CONTINUOUS
 62
     7
 10
-551.459685584903
 20
-76.7062403454099
 30
0.0
 11
-551.459685584903
 21
-73.9237522253676
 31
0.0
  0
LINE
  5
   692
  8
0
  6
CONTINUOUS
 62
     7
 10
-549.359685620666
 20
-76.531247317791
 30
0.0
 11
-548.309685638547
 21
-76.531247317791
 31
0.0
  0
LINE
  5
   693
  8
0
  6
CONTINUOUS
 62
     7
 10
-556.8751498532
 20
-65.9723981354514
 30
0.0
 11
-537.902009364278
 21
-65.9723981354514
 31
0.0
  0
LINE
  5
   694
  8
0
  6
CONTINUOUS
 62
     7
 10
-554.767180952213
 20
-76.3562414069373
 30
0.0
 11
-551.459685584903
 21
-76.3562423092057
 31
0.0
  0
LINE
  5
   695
  8
0
  6
CONTINUOUS
 62
     7
 10
-551.442181326395
 20
-76.7062405282476
 30
0.0
 11
-550.917181669123
 21
-76.7062460120407
 31
0.0
  0
LINE
  5
   696
  8
0
  6
CONTINUOUS
 62
     7
 10
-550.91718759686
 20
-77.0562381059983
 30
0.0
 11
-550.91718759686
 21
-76.7062434525348
 31
0.0
  0
LINE
  5
   697
  8
0
  6
CONTINUOUS
 62
     7
 10
-554.767179854214
 20
-76.3562414069373
 30
0.0
 11
-554.767179854214
 21
-74.4892387608147
 31
0.0
  0
LINE
  5
   698
  8
0
  6
CONTINUOUS
 62
     7
 10
-554.767180109118
 20
-74.4892384270288
 30
0.0
 11
-551.459685584903
 21
-74.489239329297
 31
0.0
  0
LINE
  5
   699
  8
0
  6
CONTINUOUS
 62
     7
 10
-554.592180620633
 20
-73.9062465031897
 30
0.0
 11
-551.442180674277
 21
-73.9062473624942
 31
0.0
  0
LINE
  5
   69A
  8
0
  6
CONTINUOUS
 62
     7
 10
-551.267180247605
 20
-73.7312474132136
 30
0.0
 11
-551.267180247605
 21
-73.3812474191741
 31
0.0
  0
LINE
  5
   69B
  8
0
  6
CONTINUOUS
 62
     7
 10
-554.767180474435
 20
-73.3812464643913
 30
0.0
 11
-551.26718053404
 21
-73.381247419174
 31
0.0
  0
LINE
  5
   69C
  8
0
  6
CONTINUOUS
 62
     7
 10
-554.592180620633
 20
-73.9062465031897
 30
0.0
 11
-551.442180674277
 21
-73.9062473624942
 31
0.0
  0
LINE
  5
   69D
  8
0
  6
CONTINUOUS
 62
     7
 10
-554.767180943591
 20
-73.7312461781332
 30
0.0
 11
-554.5921810003
 21
-73.9062462169021
 31
0.0
  0
LINE
  5
   69E
  8
0
  6
CONTINUOUS
 62
     7
 10
-554.767180188
 20
-73.7312469337246
 30
0.0
 11
-554.767180188
 21
-73.3812482259641
 31
0.0
  0
LINE
  5
   69F
  8
0
  6
CONTINUOUS
 62
     7
 10
-555.117180203289
 20
-73.5562463659329
 30
0.0
 11
-554.767180522174
 21
-73.5562464614111
 31
0.0
  0
LINE
  5
   6A0
  8
0
  6
CONTINUOUS
 62
     7
 10
-555.117179869115
 20
-73.5562463659329
 30
0.0
 11
-555.117179869115
 21
-71.1062467414422
 31
0.0
  0
INSERT
  5
   6A1
  8
0
  6
CONTINUOUS
 62
     7
  2
*HATCH166
 10
-555.484680175781
 20
-53.4312477111816
 30
0.0
 41
0.349999994039536
 42
0.349999994039536
 43
0.349999994039536
  0
INSERT
  5
   6A2
  8
0
  6
CONTINUOUS
 62
     7
  2
*HATCH167
 10
-555.484680175781
 20
-53.4312477111816
 30
0.0
 41
0.349999994039536
 42
0.349999994039536
 43
0.349999994039536
  0
LINE
  5
   6A3
  8
0
  6
CONTINUOUS
 62
     7
 10
-554.767179901565
 20
-71.2812468339402
 30
0.0
 11
-551.26717996117
 21
-71.2812477887229
 31
0.0
  0
LINE
  5
   6A4
  8
0
  6
CONTINUOUS
 62
     7
 10
-551.267180247605
 20
-71.2812477887229
 30
0.0
 11
-551.267180247605
 21
-70.9312477946834
 31
0.0
  0
LINE
  5
   6A5
  8
0
  6
CONTINUOUS
 62
     7
 10
-551.442180189545
 20
-70.7562474197832
 30
0.0
 11
-551.267180246254
 21
-70.9312474585521
 31
0.0
  0
LINE
  5
   6A6
  8
0
  6
CONTINUOUS
 62
     7
 10
-554.592179761328
 20
-70.75624689062
 30
0.0
 11
-551.442179814973
 21
-70.7562477499245
 31
0.0
  0
LINE
  5
   6A7
  8
0
  6
CONTINUOUS
 62
     7
 10
-554.76718012286
 20
-70.9312465456993
 30
0.0
 11
-554.592180084091
 21
-70.7562466024087
 31
0.0
  0
INSERT
  5
   6A8
  8
0
  6
CONTINUOUS
 62
     7
  2
*HATCH168
 10
-555.484680175781
 20
-53.4312477111816
 30
0.0
 41
0.349999994039536
 42
0.349999994039536
 43
0.349999994039536
  0
LINE
  5
   6A9
  8
0
  6
CONTINUOUS
 62
     7
 10
-554.767179264624
 20
-70.1699530601409
 30
0.0
 11
-551.44217998882
 21
-70.1699539671843
 31
0.0
  0
LINE
  5
   6AA
  8
0
  6
CONTINUOUS
 62
     7
 10
-554.767179261469
 20
-70.1583893777817
 30
0.0
 11
-551.459685584903
 21
-70.1583902800497
 31
0.0
  0
LINE
  5
   6AB
  8
0
  6
CONTINUOUS
 62
     7
 10
-554.767179520428
 20
-70.169954565373
 30
0.0
 11
-554.767179520428
 21
-69.7062466970644
 31
0.0
  0
LINE
  5
   6AC
  8
0
  6
CONTINUOUS
 62
     7
 10
-554.767179138127
 20
-69.7062468607624
 30
0.0
 11
-551.459685584903
 21
-69.7062477630304
 31
0.0
  0
LINE
  5
   6AD
  8
0
  6
CONTINUOUS
 62
     7
 10
-555.484680175781
 20
-69.0062466769526
 30
0.0
 11
-551.459685584903
 21
-69.0062477749513
 31
0.0
  0
INSERT
  5
   6AE
  8
0
  6
CONTINUOUS
 62
     7
  2
*HATCH169
 10
-555.484680175781
 20
-53.4312477111816
 30
0.0
 41
0.349999994039536
 42
0.349999994039536
 43
0.349999994039536
  0
LINE
  5
   6AF
  8
0
  6
CONTINUOUS
 62
     7
 10
-555.484680175781
 20
-77.0562473088503
 30
0.0
 11
-555.484680175781
 21
-69.0062466769526
 31
0.0
  0
LINE
  5
   6B0
  8
0
  6
CONTINUOUS
 62
     7
 10
-555.117179869115
 20
-71.1062467414422
 30
0.0
 11
-554.767180188
 21
-71.1062467414422
 31
0.0
  0
LINE
  5
   6B1
  8
0
  6
CONTINUOUS
 62
     7
 10
-551.442180674277
 20
-73.9062473624942
 30
0.0
 11
-551.267180247605
 21
-73.7312474132136
 31
0.0
  0
LINE
  5
   6B2
  8
0
  6
CONTINUOUS
 62
     7
 10
-551.459685584903
 20
-70.7387420148744
 30
0.0
 11
-551.459685584903
 21
-68.1312474608421
 31
0.0
  0
LINE
  5
   6B3
  8
0
  6
CONTINUOUS
 62
     7
 10
-554.767180188
 20
-71.1937465016442
 30
0.0
 11
-551.267180247605
 21
-71.193747456427
 31
0.0
  0
LINE
  5
   6B4
  8
0
  6
CONTINUOUS
 62
     7
 10
-554.767180188
 20
-73.4687464629013
 30
0.0
 11
-551.267180247605
 21
-73.468747417684
 31
0.0
  0
INSERT
  5
   6B5
  8
0
  6
CONTINUOUS
 62
     7
  2
*HATCH170
 10
-555.484680175781
 20
-53.4312477111816
 30
0.0
 41
0.349999994039536
 42
0.349999994039536
 43
0.349999994039536
  0
INSERT
  5
   6B6
  8
0
  6
CONTINUOUS
 62
     7
  2
*HATCH171
 10
-555.484680175781
 20
-53.4312477111816
 30
0.0
 41
0.349999994039536
 42
0.349999994039536
 43
0.349999994039536
  0
INSERT
  5
   6B7
  8
0
  6
CONTINUOUS
 62
     7
  2
*HATCH172
 10
-555.484680175781
 20
-53.4312477111816
 30
0.0
 41
0.349999994039536
 42
0.349999994039536
 43
0.349999994039536
  0
INSERT
  5
   6B8
  8
0
  6
CONTINUOUS
 62
     7
  2
*HATCH173
 10
-555.484680175781
 20
-53.4312477111816
 30
0.0
 41
0.349999994039536
 42
0.349999994039536
 43
0.349999994039536
  0
LINE
  5
   6B9
  8
0
  6
CONTINUOUS
 62
     7
 10
-551.267180247605
 20
-71.193747456427
 30
0.0
 11
-548.309685638547
 21
-71.193748263217
 31
0.0
  0
LINE
  5
   6BA
  8
0
  6
CONTINUOUS
 62
     7
 10
-551.267180247605
 20
-73.468747417684
 30
0.0
 11
-548.309685638547
 21
-73.468748224474
 31
0.0
  0
LINE
  5
   6BB
  8
0
  6
CONTINUOUS
 62
     3
 10
-516.109702208639
 20
-41.9687464071875
 30
0.0
 11
-516.109702208639
 21
-35.668748183406
 31
0.0
  0
LINE
  5
   6BC
  8
0
  6
CONTINUOUS
 62
     3
 10
-516.109702208639
 20
-35.3187481893665
 30
0.0
 11
-516.109702208639
 21
-27.9687483145363
 31
0.0
  0
LINE
  5
   6BD
  8
0
  6
CONTINUOUS
 62
     3
 10
-516.109702208639
 20
-27.6187483204967
 30
0.0
 11
-516.109702208639
 21
-21.3187484277851
 31
0.0
  0
LINE
  5
   6BE
  8
0
  6
CONTINUOUS
 62
     3
 10
-516.109702208639
 20
-20.9687484337455
 30
0.0
 11
-516.109702208639
 21
-12.8312590837477
 31
0.0
  0
LINE
  5
   6BF
  8
0
  6
CONTINUOUS
 62
     1
 10
-518.909702160955
 20
-46.3437478318811
 30
0.0
 11
-518.909702160955
 21
-45.643747843802
 31
0.0
  0
LINE
  5
   6C0
  8
0
  6
CONTINUOUS
 62
     1
 10
-518.909702160955
 20
-46.3437478318811
 30
0.0
 11
-518.209702172876
 21
-46.3437478318811
 31
0.0
  0
LINE
  5
   6C1
  8
0
  6
CONTINUOUS
 62
     1
 10
-518.909702160955
 20
-8.54374981075523
 30
0.0
 11
-518.909702160955
 21
-7.84374982267616
 31
0.0
  0
LINE
  5
   6C2
  8
0
  6
CONTINUOUS
 62
     1
 10
-518.909702160955
 20
-7.84374982267616
 30
0.0
 11
-518.209702172876
 21
-7.84374982267616
 31
0.0
  0
LINE
  5
   6C3
  8
0
  6
CONTINUOUS
 62
     1
 10
-518.909702160955
 20
-45.643747843802
 30
0.0
 11
-518.909702160955
 21
-8.54374847561121
 31
0.0
  0
LINE
  5
   6C4
  8
0
  6
CONTINUOUS
 62
     1
 10
-520.484702134133
 20
-3.09167852298822
 30
0.0
 11
-520.484702134133
 21
-1.39582131309896
 31
0.0
  0
LINE
  5
   6C5
  8
0
  6
CONTINUOUS
 62
     1
 10
-520.484702134133
 20
-52.7916750063142
 30
0.0
 11
-520.484702134133
 21
-51.095820466713
 31
0.0
  0
LINE
  5
   6C6
  8
0
  6
CONTINUOUS
 62
     1
 10
-518.209702172876
 20
-55.2687490150332
 30
0.0
 11
-518.209702172876
 21
1.081250025332
 31
0.0
  0
LINE
  5
   6C7
  8
0
  6
CONTINUOUS
 62
     1
 10
-518.209702172876
 20
-55.2687476798892
 30
0.0
 11
-516.984702193738
 21
-55.2687476798892
 31
0.0
  0
LINE
  5
   6C8
  8
0
  6
CONTINUOUS
 62
     1
 10
-516.984702193738
 20
-55.2687476798892
 30
0.0
 11
-516.984702193738
 21
1.08125136047602
 31
0.0
  0
LINE
  5
   6C9
  8
0
  6
CONTINUOUS
 62
     1
 10
-517.334702187777
 20
1.081250025332
 30
0.0
 11
-516.809702196718
 21
1.081250025332
 31
0.0
  0
LINE
  5
   6CA
  8
0
  6
CONTINUOUS
 62
     1
 10
-518.209702172876
 20
1.081250025332
 30
0.0
 11
-517.859702178837
 21
1.081250025332
 31
0.0
  0
LINE
  5
   6CB
  8
0
  6
CONTINUOUS
 62
     1
 10
-520.484702063421
 20
-3.09167927792937
 30
0.0
 11
-520.134702057857
 21
-3.29375065763687
 31
0.0
  0
LINE
  5
   6CC
  8
0
  6
CONTINUOUS
 62
     1
 10
-520.484702629817
 20
-1.39582219320408
 30
0.0
 11
-520.134702624253
 21
-1.19375081349659
 31
0.0
  0
LINE
  5
   6CD
  8
0
  6
CONTINUOUS
 62
     1
 10
-519.259702154995
 20
-3.2937499001622
 30
0.0
 11
-519.259702154995
 21
-3.26742086008323
 31
0.0
  0
LINE
  5
   6CE
  8
0
  6
CONTINUOUS
 62
     1
 10
-520.134702140094
 20
-3.2937499001622
 30
0.0
 11
-518.209702172876
 21
-3.2937499001622
 31
0.0
  0
LINE
  5
   6CF
  8
0
  6
CONTINUOUS
 62
     1
 10
-520.134702140094
 20
-3.26742086008323
 30
0.0
 11
-520.134702140094
 21
-3.1897635432905
 31
0.0
  0
LINE
  5
   6D0
  8
0
  6
CONTINUOUS
 62
     1
 10
-520.134702140094
 20
-3.1897635432905
 30
0.0
 11
-520.134702140094
 21
-3.06467122974698
 31
0.0
  0
LINE
  5
   6D1
  8
0
  6
CONTINUOUS
 62
     1
 10
-520.134702140094
 20
-3.06467122974698
 30
0.0
 11
-520.134702140094
 21
-2.89841375577168
 31
0.0
  0
LINE
  5
   6D2
  8
0
  6
CONTINUOUS
 62
     1
 10
-520.134702140094
 20
-2.89841375577168
 30
0.0
 11
-520.134702140094
 21
-2.69932776062694
 31
0.0
  0
LINE
  5
   6D3
  8
0
  6
CONTINUOUS
 62
     1
 10
-520.134702140094
 20
-2.69932776062694
 30
0.0
 11
-520.134702140094
 21
-2.477394781008
 31
0.0
  0
LINE
  5
   6D4
  8
0
  6
CONTINUOUS
 62
     1
 10
-520.134702140094
 20
-2.477394781008
 30
0.0
 11
-520.134702140094
 21
-2.24374991804359
 31
0.0
  0
LINE
  5
   6D5
  8
0
  6
CONTINUOUS
 62
     1
 10
-520.134702140094
 20
-2.24374991804359
 30
0.0
 11
-520.134702140094
 21
-2.0100997145031
 31
0.0
  0
LINE
  5
   6D6
  8
0
  6
CONTINUOUS
 62
     1
 10
-520.134702140094
 20
-2.0100997145031
 30
0.0
 11
-520.134702140094
 21
-1.78817207546024
 31
0.0
  0
LINE
  5
   6D7
  8
0
  6
CONTINUOUS
 62
     1
 10
-520.134702140094
 20
-1.78817207546024
 30
0.0
 11
-520.134702140094
 21
-1.5890860803155
 31
0.0
  0
LINE
  5
   6D8
  8
0
  6
CONTINUOUS
 62
     1
 10
-520.134702140094
 20
-1.5890860803155
 30
0.0
 11
-520.134702140094
 21
-1.42282326576412
 31
0.0
  0
LINE
  5
   6D9
  8
0
  6
CONTINUOUS
 62
     1
 10
-520.134702140094
 20
-1.42282326576412
 30
0.0
 11
-520.134702140094
 21
-1.2977309522206
 31
0.0
  0
LINE
  5
   6DA
  8
0
  6
CONTINUOUS
 62
     1
 10
-520.134702140094
 20
-1.2977309522206
 30
0.0
 11
-520.134702140094
 21
-1.22007363542787
 31
0.0
  0
LINE
  5
   6DB
  8
0
  6
CONTINUOUS
 62
     1
 10
-520.134702140094
 20
-1.19374993592498
 30
0.0
 11
-518.209702172876
 21
-1.19374993592498
 31
0.0
  0
LINE
  5
   6DC
  8
0
  6
CONTINUOUS
 62
     1
 10
-520.134702140094
 20
-1.22007363542787
 30
0.0
 11
-520.134702140094
 21
-1.19374993592498
 31
0.0
  0
LINE
  5
   6DD
  8
0
  6
CONTINUOUS
 62
     1
 10
-520.484702534568
 20
-52.791675306335
 30
0.0
 11
-520.134702529004
 21
-52.9937480074733
 31
0.0
  0
LINE
  5
   6DE
  8
0
  6
CONTINUOUS
 62
     1
 10
-520.484702857039
 20
-51.0958210975847
 30
0.0
 11
-520.134702851474
 21
-50.8937483964464
 31
0.0
  0
LINE
  5
   6DF
  8
0
  6
CONTINUOUS
 62
     1
 10
-519.259702154995
 20
-52.9937477186322
 30
0.0
 11
-519.259702154995
 21
-52.9674213488413
 31
0.0
  0
LINE
  5
   6E0
  8
0
  6
CONTINUOUS
 62
     1
 10
-520.134702140094
 20
-52.9937477186322
 30
0.0
 11
-518.209702172876
 21
-52.9937477186322
 31
0.0
  0
LINE
  5
   6E1
  8
0
  6
CONTINUOUS
 62
     1
 10
-520.134702140094
 20
-52.9674213488413
 30
0.0
 11
-520.134702140094
 21
-52.8897653671926
 31
0.0
  0
LINE
  5
   6E2
  8
0
  6
CONTINUOUS
 62
     1
 10
-520.134702140094
 20
-52.8897653671926
 30
0.0
 11
-520.134702140094
 21
-52.764670383361
 31
0.0
  0
LINE
  5
   6E3
  8
0
  6
CONTINUOUS
 62
     1
 10
-520.134702140094
 20
-52.764670383361
 30
0.0
 11
-520.134702140094
 21
-52.5984115742417
 31
0.0
  0
LINE
  5
   6E4
  8
0
  6
CONTINUOUS
 62
     1
 10
-520.134702140094
 20
-52.5984115742417
 30
0.0
 11
-520.134702140094
 21
-52.399325579097
 31
0.0
  0
LINE
  5
   6E5
  8
0
  6
CONTINUOUS
 62
     1
 10
-520.134702140094
 20
-52.399325579097
 30
0.0
 11
-520.134702140094
 21
-52.1773952697661
 31
0.0
  0
LINE
  5
   6E6
  8
0
  6
CONTINUOUS
 62
     1
 10
-520.134702140094
 20
-52.1773952697661
 30
0.0
 11
-520.134702140094
 21
-51.9437477365136
 31
0.0
  0
LINE
  5
   6E7
  8
0
  6
CONTINUOUS
 62
     1
 10
-520.134702140094
 20
-51.9437477365136
 30
0.0
 11
-520.134702140094
 21
-51.7101002032612
 31
0.0
  0
LINE
  5
   6E8
  8
0
  6
CONTINUOUS
 62
     1
 10
-520.134702140094
 20
-51.7101002032612
 30
0.0
 11
-520.134702140094
 21
-51.4881698939303
 31
0.0
  0
LINE
  5
   6E9
  8
0
  6
CONTINUOUS
 62
     1
 10
-520.134702140094
 20
-51.4881698939303
 30
0.0
 11
-520.134702140094
 21
-51.2890838987855
 31
0.0
  0
LINE
  5
   6EA
  8
0
  6
CONTINUOUS
 62
     1
 10
-520.134702140094
 20
-51.2890838987855
 30
0.0
 11
-520.134702140094
 21
-51.1228250896662
 31
0.0
  0
LINE
  5
   6EB
  8
0
  6
CONTINUOUS
 62
     1
 10
-520.134702140094
 20
-51.1228250896662
 30
0.0
 11
-520.134702140094
 21
-50.9977301058347
 31
0.0
  0
LINE
  5
   6EC
  8
0
  6
CONTINUOUS
 62
     1
 10
-520.134702140094
 20
-50.9977301058347
 30
0.0
 11
-520.134702140094
 21
-50.9200727890419
 31
0.0
  0
LINE
  5
   6ED
  8
0
  6
CONTINUOUS
 62
     1
 10
-520.134702140094
 20
-50.893747754395
 30
0.0
 11
-518.209702172876
 21
-50.893747754395
 31
0.0
  0
LINE
  5
   6EE
  8
0
  6
CONTINUOUS
 62
     1
 10
-520.134702140094
 20
-50.9200727890419
 30
0.0
 11
-520.134702140094
 21
-50.893747754395
 31
0.0
  0
LINE
  5
   6EF
  8
0
  6
CONTINUOUS
 62
     1
 10
-517.684702181817
 20
1.081250025332
 30
0.0
 11
-517.334702187777
 21
1.081250025332
 31
0.0
  0
LINE
  5
   6F0
  8
0
  6
CONTINUOUS
 62
     7
 10
-518.209702172876
 20
1.081250025332
 30
0.0
 11
-518.209702172876
 21
67.8263504529453
 31
0.0
  0
LINE
  5
   6F1
  8
0
  6
CONTINUOUS
 62
     7
 10
-518.909702160955
 20
-7.84374982267616
 30
0.0
 11
-518.909702160955
 21
-3.2937499001622
 31
0.0
  0
LINE
  5
   6F2
  8
0
  6
CONTINUOUS
 62
     7
 10
-518.209702172876
 20
-89.0253170193338
 30
0.0
 11
-518.209702172876
 21
-55.2687476798892
 31
0.0
  0
LINE
  5
   6F3
  8
0
  6
CONTINUOUS
 62
     7
 10
-518.909702160955
 20
-89.2288053879615
 30
0.0
 11
-518.909702160955
 21
-52.9937477186322
 31
0.0
  0
LINE
  5
   6F4
  8
0
  6
CONTINUOUS
 62
     7
 10
-520.478839169127
 20
-89.9393103278657
 30
0.0
 11
-514.890054562527
 21
-88.3146636399007
 31
0.0
  0
LINE
  5
   6F5
  8
0
  6
CONTINUOUS
 62
     7
 10
-520.638994611521
 20
69.3750243825816
 30
0.0
 11
-515.440125210033
 21
66.0607451391328
 31
0.0
  0
LINE
  5
   6F6
  8
0
  6
CONTINUOUS
 62
     7
 10
-518.909702160955
 20
-1.01874993890522
 30
0.0
 11
-518.209702172876
 21
-1.01874993890522
 31
0.0
  0
LINE
  5
   6F7
  8
0
  6
CONTINUOUS
 62
     7
 10
-518.909702160955
 20
-3.46874989718197
 30
0.0
 11
-518.209702172876
 21
-3.46874989718197
 31
0.0
  0
LINE
  5
   6F8
  8
0
  6
CONTINUOUS
 62
     7
 10
-518.909702160955
 20
-50.7187477573753
 30
0.0
 11
-518.209702172876
 21
-50.7187477573753
 31
0.0
  0
LINE
  5
   6F9
  8
0
  6
CONTINUOUS
 62
     7
 10
-518.909702160955
 20
-53.168747715652
 30
0.0
 11
-518.209702172876
 21
-53.168747715652
 31
0.0
  0
LINE
  5
   6FA
  8
0
  6
CONTINUOUS
 62
     7
 10
-518.909702160955
 20
-46.6937478259206
 30
0.0
 11
-518.209702172876
 21
-46.6937478259206
 31
0.0
  0
LINE
  5
   6FB
  8
0
  6
CONTINUOUS
 62
     7
 10
-518.909702160955
 20
-7.49374982863662
 30
0.0
 11
-518.209702172876
 21
-7.49374982863662
 31
0.0
  0
LINE
  5
   6FC
  8
0
  6
CONTINUOUS
 62
     7
 10
-518.909702160955
 20
-1.19374993592498
 30
0.0
 11
-518.909702160955
 21
68.2726004453458
 31
0.0
  0
LINE
  5
   6FD
  8
0
  6
CONTINUOUS
 62
     7
 10
-518.909702160955
 20
-50.893747754395
 30
0.0
 11
-518.909702160955
 21
-46.3437478318811
 31
0.0
  0
INSERT
  5
   6FE
  8
0
  6
CONTINUOUS
 62
     7
  2
*HATCH174
 10
-555.484680175781
 20
-53.4312477111816
 30
0.0
 41
0.349999994039536
 42
0.349999994039536
 43
0.349999994039536
  0
INSERT
  5
   6FF
  8
0
  6
CONTINUOUS
 62
     7
  2
*HATCH175
 10
-555.484680175781
 20
-53.4312477111816
 30
0.0
 41
0.349999994039536
 42
0.349999994039536
 43
0.349999994039536
  0
INSERT
  5
   700
  8
0
  6
CONTINUOUS
 62
     7
  2
*HATCH176
 10
-555.484680175781
 20
-53.4312477111816
 30
0.0
 41
0.349999994039536
 42
0.349999994039536
 43
0.349999994039536
  0
INSERT
  5
   701
  8
0
  6
CONTINUOUS
 62
     7
  2
*HATCH177
 10
-555.484680175781
 20
-53.4312477111816
 30
0.0
 41
0.349999994039536
 42
0.349999994039536
 43
0.349999994039536
  0
LINE
  5
   702
  8
0
  6
DASHDOT
 62
     7
 10
-572.914896477444
 20
-27.0937641814348
 30
0.0
 11
-481.701994064978
 21
-27.0937641814348
 31
0.0
  0
LINE
  5
   703
  8
0
  6
DASHDOT
 62
     2
 10
-492.118810298019
 20
-27.0937641814348
 30
0.0
 11
-486.544701730822
 21
-27.0937641814348
 31
0.0
  0
LINE
  5
   704
  8
0
  6
CONTINUOUS
 62
     3
 10
-548.292185305059
 20
61.3687511930889
 30
0.0
 11
-548.292185305059
 21
64.5187511394449
 31
0.0
  0
LINE
  5
   705
  8
0
  6
CONTINUOUS
 62
     7
 10
-537.902009364278
 20
-65.9723981354514
 30
0.0
 11
-537.116735549137
 21
-76.9662315474176
 31
0.0
  0
LINE
  5
   706
  8
0
  6
CONTINUOUS
 62
     7
 10
-549.359685620666
 20
-71.1937479767821
 30
0.0
 11
-549.359685620666
 21
-68.1312474608421
 31
0.0
  0
LINE
  5
   707
  8
0
  6
DASHDOT
 62
     7
 10
-544.634685367346
 20
-72.3312502966284
 30
0.0
 11
-537.669685819745
 21
-72.3312502966284
 31
0.0
  0
LINE
  5
   708
  8
0
  6
DASHDOT
 62
     7
 10
-561.012087960803
 20
-72.3312447786927
 30
0.0
 11
-516.045420699334
 21
-72.3312570453781
 31
0.0
  0
INSERT
  5
   709
  8
0
  6
CONTINUOUS
 62
     7
  2
*HATCH178
 10
-555.484680175781
 20
-53.4312477111816
 30
0.0
 41
0.349999994039536
 42
0.349999994039536
 43
0.349999994039536
  0
LINE
  5
   70A
  8
0
  6
CONTINUOUS
 62
   130
 10
-550.91718759686
 20
65.0437502712011
 30
0.0
 11
-528.534680634737
 21
65.0437502712011
 31
0.0
  0
LINE
  5
   70B
  8
0
  6
CONTINUOUS
 62
     3
 10
-516.984702193738
 20
-8.71876449435923
 30
0.0
 11
-516.109702208639
 21
-8.71876449435923
 31
0.0
  0
LINE
  5
   70C
  8
0
  6
CONTINUOUS
 62
     3
 10
-516.984702193738
 20
-20.9687484337455
 30
0.0
 11
-516.109702208639
 21
-20.9687484337455
 31
0.0
  0
LINE
  5
   70D
  8
0
  6
CONTINUOUS
 62
     3
 10
-516.984702193738
 20
-21.3187484277851
 30
0.0
 11
-516.109702208639
 21
-21.3187484277851
 31
0.0
  0
LINE
  5
   70E
  8
0
  6
CONTINUOUS
 62
     3
 10
-516.984702193738
 20
-27.6187483204967
 30
0.0
 11
-516.109702208639
 21
-27.6187483204967
 31
0.0
  0
LINE
  5
   70F
  8
0
  6
CONTINUOUS
 62
     3
 10
-516.984702193738
 20
-27.9687483145363
 30
0.0
 11
-516.109702208639
 21
-27.9687483145363
 31
0.0
  0
LINE
  5
   710
  8
0
  6
CONTINUOUS
 62
     3
 10
-516.984702193738
 20
-35.3187481893665
 30
0.0
 11
-516.109702208639
 21
-35.3187481893665
 31
0.0
  0
LINE
  5
   711
  8
0
  6
CONTINUOUS
 62
     3
 10
-516.984702193738
 20
-35.668748183406
 30
0.0
 11
-516.109702208639
 21
-35.668748183406
 31
0.0
  0
LINE
  5
   712
  8
0
  6
CONTINUOUS
 62
     3
 10
-516.984702193738
 20
-41.9687464071875
 30
0.0
 11
-516.109702208639
 21
-41.9687464071875
 31
0.0
  0
LINE
  5
   713
  8
0
  6
CONTINUOUS
 62
     3
 10
-516.984702193738
 20
-42.3187443985112
 30
0.0
 11
-516.109702208639
 21
-42.3187443985112
 31
0.0
  0
LINE
  5
   714
  8
0
  6
CONTINUOUS
 62
     3
 10
-516.984702193738
 20
-45.4687585279344
 30
0.0
 11
-516.109702208639
 21
-45.4687585279344
 31
0.0
  0
LINE
  5
   715
  8
0
  6
DASHDOT
 62
   218
 10
-562.591872101954
 20
59.6187343418601
 30
0.0
 11
-555.932091360601
 21
59.6187343418601
 31
0.0
  0
LINE
  5
   716
  8
0
  6
DASHDOT
 62
   218
 10
-562.35707213992
 20
-71.6312634229657
 30
0.0
 11
-554.331182528545
 21
-71.6312634229657
 31
0.0
  0
LINE
  5
   717
  8
0
  6
CONTINUOUS
 62
     7
 10
-559.334685450792
 20
9.91873518824605
 30
0.0
 11
-559.334685450792
 21
12.7187351405623
 31
0.0
  0
LINE
  5
   718
  8
0
  6
CONTINUOUS
 62
     7
 10
-560.73468542695
 20
10.4437351793053
 30
0.0
 11
-560.73468542695
 21
12.193735149503
 31
0.0
  0
LINE
  5
   719
  8
0
  6
CONTINUOUS
 62
     7
 10
-559.334685450792
 20
12.7187351405623
 30
0.0
 11
-557.934685474634
 21
12.7187351405623
 31
0.0
  0
LINE
  5
   71A
  8
0
  6
CONTINUOUS
 62
     7
 10
-559.334685450792
 20
9.91873518824605
 30
0.0
 11
-557.934685474634
 21
9.91873518824605
 31
0.0
  0
LINE
  5
   71B
  8
0
  6
CONTINUOUS
 62
     7
 10
-560.73468542695
 20
12.193735149503
 30
0.0
 11
-557.934685474634
 21
12.193735149503
 31
0.0
  0
LINE
  5
   71C
  8
0
  6
CONTINUOUS
 62
     7
 10
-560.73468542695
 20
10.4437351793053
 30
0.0
 11
-557.934685474634
 21
10.4437351793053
 31
0.0
  0
LINE
  5
   71D
  8
0
  6
CONTINUOUS
 62
     7
 10
-559.334685450792
 20
-70.2312634468076
 30
0.0
 11
-557.934685474634
 21
-70.2312634468076
 31
0.0
  0
LINE
  5
   71E
  8
0
  6
CONTINUOUS
 62
     7
 10
-560.73468542695
 20
-70.7562634378669
 30
0.0
 11
-557.934685474634
 21
-70.7562634378669
 31
0.0
  0
LINE
  5
   71F
  8
0
  6
CONTINUOUS
 62
     7
 10
-560.73468542695
 20
-72.5062634080646
 30
0.0
 11
-557.934685474634
 21
-72.5062634080646
 31
0.0
  0
LINE
  5
   720
  8
0
  6
CONTINUOUS
 62
     7
 10
-559.334685450792
 20
-73.0312633991239
 30
0.0
 11
-557.934685474634
 21
-73.0312633991239
 31
0.0
  0
LINE
  5
   721
  8
0
  6
CONTINUOUS
 62
     7
 10
-559.334685450792
 20
-73.0312633991239
 30
0.0
 11
-559.334685450792
 21
-70.2312634468076
 31
0.0
  0
LINE
  5
   722
  8
0
  6
CONTINUOUS
 62
     7
 10
-560.73468542695
 20
-72.5062634080646
 30
0.0
 11
-560.73468542695
 21
-70.7562634378669
 31
0.0
  0
CIRCLE
  5
   723
  8
0
  6
CONTINUOUS
 62
     7
 10
-558.86032849365
 20
11.0960665416184
 30
0.0
 40
0.139999997615814
  0
LINE
  5
   724
  8
0
  6
CONTINUOUS
 62
     3
 10
-520.834702128173
 20
-8.71876449435923
 30
0.0
 11
-520.834702128173
 21
8.16873521804837
 31
0.0
  0
LINE
  5
   725
  8
0
  6
CONTINUOUS
 62
     3
 10
-521.709702113272
 20
56.4687504172325
 30
0.0
 11
-520.834702128173
 21
56.4687504172325
 31
0.0
  0
LINE
  5
   726
  8
0
  6
CONTINUOUS
 62
     7
 10
-522.584702098371
 20
8.27375123798848
 30
0.0
 11
-522.584702098371
 21
65.0437502712011
 31
0.0
  0
LINE
  5
   727
  8
0
  6
CONTINUOUS
 62
     7
 10
-522.584702098371
 20
8.27375123798848
 30
0.0
 11
-521.184702122212
 21
8.27375123798848
 31
0.0
  0
LINE
  5
   728
  8
0
  6
CONTINUOUS
 62
     7
 10
-522.584702098371
 20
8.62375123202801
 30
0.0
 11
-521.184702122212
 21
8.62375123202801
 31
0.0
  0
LINE
  5
   729
  8
0
  6
CONTINUOUS
 62
     3
 10
-521.184702122212
 20
8.16874589920053
 30
0.0
 11
-521.184702122212
 21
8.62375123202801
 31
0.0
  0
LINE
  5
   72A
  8
0
  6
CONTINUOUS
 62
     3
 10
-555.834680169821
 20
15.6937511116274
 30
0.0
 11
-522.584702098371
 21
15.6937511116274
 31
0.0
  0
LINE
  5
   72B
  8
0
  6
CONTINUOUS
 62
     3
 10
-528.534701997043
 20
6.06875127554019
 30
0.0
 11
-528.534701997043
 21
17.2687510848053
 31
0.0
  0
LINE
  5
   72C
  8
0
  6
CONTINUOUS
 62
     3
 10
-529.584701979161
 20
17.2687510848053
 30
0.0
 11
-528.534701997043
 21
17.2687510848053
 31
0.0
  0
LINE
  5
   72D
  8
0
  6
CONTINUOUS
 62
     3
 10
-529.584701979161
 20
17.2687510848053
 30
0.0
 11
-529.584701979161
 21
53.3187504708775
 31
0.0
  0
LINE
  5
   72E
  8
0
  6
CONTINUOUS
 62
     3
 10
-529.584701979161
 20
53.3187504708775
 30
0.0
 11
-528.534701997043
 21
53.3187504708775
 31
0.0
  0
LINE
  5
   72F
  8
0
  6
CONTINUOUS
 62
     3
 10
-528.534701997043
 20
53.3187504708775
 30
0.0
 11
-528.534701997043
 21
65.0437502712011
 31
0.0
  0
LINE
  5
   730
  8
0
  6
CONTINUOUS
 62
     3
 10
-529.584701979161
 20
5.97688818040241
 30
0.0
 11
-528.534701997043
 21
6.06875127554022
 31
0.0
  0
LINE
  5
   731
  8
0
  6
CONTINUOUS
 62
     7
 10
-559.334685450792
 20
61.0187343180182
 30
0.0
 11
-557.934685474634
 21
61.0187343180182
 31
0.0
  0
LINE
  5
   732
  8
0
  6
CONTINUOUS
 62
     7
 10
-560.73468542695
 20
60.4937343269589
 30
0.0
 11
-557.934685474634
 21
60.4937343269589
 31
0.0
  0
LINE
  5
   733
  8
0
  6
CONTINUOUS
 62
     7
 10
-560.73468542695
 20
58.7437343567613
 30
0.0
 11
-560.73468542695
 21
60.4937343269589
 31
0.0
  0
LINE
  5
   734
  8
0
  6
CONTINUOUS
 62
     7
 10
-560.73468542695
 20
58.7437343567613
 30
0.0
 11
-557.934685474634
 21
58.7437343567613
 31
0.0
  0
LINE
  5
   735
  8
0
  6
CONTINUOUS
 62
     7
 10
-559.334685450792
 20
58.218734365702
 30
0.0
 11
-557.934685474634
 21
58.218734365702
 31
0.0
  0
LINE
  5
   736
  8
0
  6
CONTINUOUS
 62
     7
 10
-559.334685450792
 20
58.218734365702
 30
0.0
 11
-559.334685450792
 21
61.0187343180182
 31
0.0
  0
LINE
  5
   737
  8
0
  6
DASHDOT
 62
   218
 10
-562.591872101954
 20
11.3187351644042
 30
0.0
 11
-555.932091360601
 21
11.3187351644042
 31
0.0
  0
LINE
  5
   738
  8
0
  6
CONTINUOUS
 62
     3
 10
-556.359679827094
 20
13.0687564969062
 30
0.0
 11
-555.484680175781
 21
13.0687564969062
 31
0.0
  0
LINE
  5
   739
  8
0
  6
CONTINUOUS
 62
     3
 10
-556.359679827094
 20
9.56875121593475
 30
0.0
 11
-555.484680175781
 21
9.56875121593475
 31
0.0
  0
LINE
  5
   73A
  8
0
  6
CONTINUOUS
 62
     3
 10
-555.484680175781
 20
4.49375130236149
 30
0.0
 11
-555.484680175781
 21
15.6937511116274
 31
0.0
  0
LINE
  5
   73B
  8
0
  6
CONTINUOUS
 62
     3
 10
-555.834680169821
 20
4.49375664968093
 30
0.0
 11
-555.484680175781
 21
4.49375130910484
 31
0.0
  0
LINE
  5
   73C
  8
0
  6
CONTINUOUS
 62
     3
 10
-555.834680169821
 20
-20.0062429398299
 30
0.0
 11
-555.834680169821
 21
4.49375664293757
 31
0.0
  0
LINE
  5
   73D
  8
0
  6
CONTINUOUS
 62
   130
 10
-555.834680169821
 20
51.7475207470022
 30
0.0
 11
-555.834680169821
 21
52.7937558203935
 31
0.0
  0
LINE
  5
   73E
  8
0
  6
CONTINUOUS
 62
     3
 10
-522.584702098371
 20
-53.0812583982943
 30
0.0
 11
-521.184702122212
 21
-53.0812583982943
 31
0.0
  0
LINE
  5
   73F
  8
0
  6
CONTINUOUS
 62
     3
 10
-521.184702122212
 20
-53.4312583923338
 30
0.0
 11
-521.184702122212
 21
-53.0812583982943
 31
0.0
  0
LINE
  5
   740
  8
0
  6
CONTINUOUS
 62
     3
 10
-521.184702122212
 20
8.62375123202801
 30
0.0
 11
-520.834702128173
 21
8.62375123202801
 31
0.0
  0
LINE
  5
   741
  8
0
  6
CONTINUOUS
 62
     3
 10
-521.184702122212
 20
-53.0812583982943
 30
0.0
 11
-520.834702128173
 21
-53.0812583982943
 31
0.0
  0
LINE
  5
   742
  8
0
  6
CONTINUOUS
 62
     3
 10
-521.709685824513
 20
-53.6062532185085
 30
0.0
 11
-521.709685824513
 21
-53.4312583923338
 31
0.0
  0
LINE
  5
   743
  8
0
  6
CONTINUOUS
 62
     7
 10
-521.709685824513
 20
-53.6062532185085
 30
0.0
 11
-520.834685839415
 21
-53.6062532185085
 31
0.0
  0
LINE
  5
   744
  8
0
  6
CONTINUOUS
 62
     7
 10
-522.689685807824
 20
-53.4312532214887
 30
0.0
 11
-521.709685824513
 21
-53.4312532214887
 31
0.0
  0
LINE
  5
   745
  8
0
  6
CONTINUOUS
 62
     3
 10
-555.834680169821
 20
15.6937511116274
 30
0.0
 11
-555.484680175781
 21
15.6937511116274
 31
0.0
  0
LINE
  5
   746
  8
0
  6
CONTINUOUS
 62
     7
 10
-522.584702098371
 20
56.4687504172325
 30
0.0
 11
-521.709702113272
 21
56.4687504172325
 31
0.0
  0
LINE
  5
   747
  8
0
  6
CONTINUOUS
 62
     7
 10
-554.767180188
 20
-71.2812482617269
 30
0.0
 11
-554.767180188
 21
-70.9312466108395
 31
0.0
  0
INSERT
  5
   748
  8
0
  6
CONTINUOUS
 62
     7
  2
*UDIM427
 10
0.0
 20
0.0
 30
0.0
  0
LINE
  5
   749
  8
0
  6
CONTINUOUS
 62
     1
 10
-555.029711398719
 20
59.2687499729117
 30
0.0
 11
-555.029711398719
 21
61.3687514365455
 31
0.0
  0
LINE
  5
   74A
  8
0
  6
CONTINUOUS
 62
     1
 10
-555.029721137503
 20
59.2687514723087
 30
0.0
 11
-546.559721281748
 21
59.2687560934572
 31
0.0
  0
LINE
  5
   74B
  8
0
  6
CONTINUOUS
 62
     7
 10
-555.029721254642
 20
59.4834519686523
 30
0.0
 11
-547.329721340841
 21
59.4834561696964
 31
0.0
  0
LINE
  5
   74C
  8
0
  6
CONTINUOUS
 62
     7
 10
-555.029722166104
 20
61.1540509402019
 30
0.0
 11
-547.329722252303
 21
61.154055141246
 31
0.0
  0
LINE
  5
   74D
  8
0
  6
CONTINUOUS
 62
     1
 10
-555.029722283242
 20
61.3687514365456
 30
0.0
 11
-546.559722427487
 21
61.3687560576941
 31
0.0
  0
LINE
  5
   74E
  8
0
  6
CONTINUOUS
 62
     7
 10
-551.267215813263
 20
59.1812527197946
 30
0.0
 11
-548.309721204206
 21
59.1812551401645
 31
0.0
  0
LINE
  5
   74F
  8
0
  6
CONTINUOUS
 62
     7
 10
-551.267217054481
 20
61.4562526810513
 30
0.0
 11
-548.309722445424
 21
61.4562551014212
 31
0.0
  0
LINE
  5
   750
  8
0
  6
CONTINUOUS
 62
     1
 10
-547.32971152985
 20
59.2687556733527
 30
0.0
 11
-547.32971152985
 21
61.3687556375896
 31
0.0
  0
LINE
  5
   751
  8
0
  6
CONTINUOUS
 62
     7
 10
-546.559711542963
 20
57.8687561173041
 30
0.0
 11
-546.559711542963
 21
62.7687560338583
 31
0.0
  0
LINE
  5
   752
  8
0
  6
CONTINUOUS
 62
     2
 10
-546.559723191313
 20
62.768756033852
 30
0.0
 11
-546.279723196082
 21
62.7687561866172
 31
0.0
  0
LINE
  5
   753
  8
0
  6
CONTINUOUS
 62
     2
 10
-546.279711547731
 20
57.8687562700645
 30
0.0
 11
-546.279711547731
 21
62.7687561866172
 31
0.0
  0
LINE
  5
   754
  8
0
  6
CONTINUOUS
 62
     1
 10
-546.279722814169
 20
62.0687561985383
 30
0.0
 11
-544.179722849932
 21
62.0687573442776
 31
0.0
  0
LINE
  5
   755
  8
0
  6
CONTINUOUS
 62
     1
 10
-544.179711583495
 20
58.5687574038827
 30
0.0
 11
-544.179711583495
 21
62.0687573442776
 31
0.0
  0
LINE
  5
   756
  8
0
  6
CONTINUOUS
 62
     1
 10
-546.279720904603
 20
58.5687562581434
 30
0.0
 11
-544.179720940366
 21
58.5687574038827
 31
0.0
  0
LINE
  5
   757
  8
0
  6
CONTINUOUS
 62
     2
 10
-546.559720517922
 20
57.8687561172992
 30
0.0
 11
-546.27972052269
 21
57.8687562700645
 31
0.0
  0
LINE
  5
   758
  8
0
  6
CONTINUOUS
 62
    90
 10
-556.359679827094
 20
-100.15633823931
 30
0.0
 11
-556.359679827094
 21
88.1438518828136
 31
0.0
  0
LINE
  5
   759
  8
0
  6
CONTINUOUS
 62
    90
 10
-556.884679818153
 20
-100.15633823931
 30
0.0
 11
-556.884679818153
 21
88.1438518828136
 31
0.0
  0
LINE
  5
   75A
  8
0
  6
CONTINUOUS
 62
    90
 10
-556.884679818153
 20
88.1438518828136
 30
0.0
 11
-556.359679827094
 21
88.1438518828136
 31
0.0
  0
LINE
  5
   75B
  8
0
  6
CONTINUOUS
 62
     7
 10
-556.359679827094
 20
65.7789232933492
 30
0.0
 11
-524.159680375457
 21
65.7789232933492
 31
0.0
  0
LINE
  5
   75C
  8
0
  6
CONTINUOUS
 62
     7
 10
-555.659679839015
 20
97.7687518501281
 30
0.0
 11
-524.859680363536
 21
97.7687518501281
 31
0.0
  0
LINE
  5
   75D
  8
0
  6
CONTINUOUS
 62
     7
 10
-524.159680375457
 20
65.6037523978948
 30
0.0
 11
-524.159680375457
 21
97.0687558837296
 31
0.0
  0
LINE
  5
   75E
  8
0
  6
CONTINUOUS
 62
     7
 10
-524.159680375457
 20
65.0437502712011
 30
0.0
 11
-524.159680375457
 21
65.6037523978948
 31
0.0
  0
LINE
  5
   75F
  8
0
  6
CONTINUOUS
 62
     7
 10
-556.359679827094
 20
88.1438518828136
 30
0.0
 11
-556.359679827094
 21
97.0687558837338
 31
0.0
  0
LINE
  5
   760
  8
0
  6
CONTINUOUS
 62
     7
 10
-556.359679827094
 20
65.0437502712011
 30
0.0
 11
-556.359679827094
 21
65.6037523978948
 31
0.0
  0
ARC
  5
   761
  8
0
  6
CONTINUOUS
 62
     7
 10
-524.859676341853
 20
97.0687558837296
 30
0.0
 40
0.69999596640989
 50
0.0
 51
90.0003291811129
  0
ARC
  5
   762
  8
0
  6
CONTINUOUS
 62
     7
 10
-555.6596838607
 20
97.0687558837339
 30
0.0
 40
0.699995966406071
 50
89.9996708186867
 51
180.000329181278
  0
LINE
  5
   763
  8
0
  6
CONTINUOUS
 62
     7
 10
-556.359679827094
 20
65.0437502712011
 30
0.0
 11
-524.159680375457
 21
65.0437502712011
 31
0.0
  0
LINE
  5
   764
  8
0
  6
CONTINUOUS
 62
    90
 10
-556.884679818153
 20
-100.15633823931
 30
0.0
 11
-556.359679827094
 21
-100.15633823931
 31
0.0
  0
LINE
  5
   765
  8
0
  6
CONTINUOUS
 62
     7
 10
-556.359679827094
 20
-77.7914203309975
 30
0.0
 11
-524.159680375457
 21
-77.7914203309975
 31
0.0
  0
LINE
  5
   766
  8
0
  6
CONTINUOUS
 62
     7
 10
-555.659679839015
 20
-109.781248887776
 30
0.0
 11
-524.859680363536
 21
-109.781248887776
 31
0.0
  0
LINE
  5
   767
  8
0
  6
CONTINUOUS
 62
     7
 10
-524.159680375457
 20
-109.081252921378
 30
0.0
 11
-524.159680375457
 21
-77.6162494355432
 31
0.0
  0
LINE
  5
   768
  8
0
  6
CONTINUOUS
 62
     7
 10
-524.159680375457
 20
-77.6162494355432
 30
0.0
 11
-524.159680375457
 21
-77.0562473088495
 31
0.0
  0
LINE
  5
   769
  8
0
  6
CONTINUOUS
 62
     7
 10
-556.359679827094
 20
-109.081252921382
 30
0.0
 11
-556.359679827094
 21
-100.15633823931
 31
0.0
  0
LINE
  5
   76A
  8
0
  6
CONTINUOUS
 62
     7
 10
-556.359679827094
 20
-77.6162494355432
 30
0.0
 11
-556.359679827094
 21
-77.0562473088495
 31
0.0
  0
ARC
  5
   76B
  8
0
  6
CONTINUOUS
 62
     7
 10
-524.859676341853
 20
-109.081252921378
 30
0.0
 40
0.69999596640989
 50
269.999670818887
 51
360.0
  0
ARC
  5
   76C
  8
0
  6
CONTINUOUS
 62
     7
 10
-555.6596838607
 20
-109.081252921382
 30
0.0
 40
0.699995966406071
 50
179.999670818722
 51
270.000329181313
  0
LINE
  5
   76D
  8
0
  6
CONTINUOUS
 62
     7
 10
-556.359679827094
 20
-77.0562473088495
 30
0.0
 11
-524.159680375457
 21
-77.0562473088495
 31
0.0
  0
INSERT
  5
   76E
  8
0
  6
CONTINUOUS
 62
     7
  2
*UDIM428
 10
0.0
 20
0.0
 30
0.0
  0
INSERT
  5
   76F
  8
0
  6
CONTINUOUS
 62
     7
  2
*UDIM429
 10
0.0
 20
0.0
 30
0.0
  0
INSERT
  5
   770
  8
0
  6
CONTINUOUS
 62
     7
  2
*UDIM430
 10
0.0
 20
0.0
 30
0.0
  0
INSERT
  5
   771
  8
0
  6
CONTINUOUS
 62
     7
  2
*UDIM431
 10
0.0
 20
0.0
 30
0.0
  0
INSERT
  5
   772
  8
0
  6
CONTINUOUS
 62
     7
  2
*UDIM432
 10
0.0
 20
0.0
 30
0.0
  0
INSERT
  5
   773
  8
0
  6
CONTINUOUS
 62
     7
  2
*UDIM433
 10
0.0
 20
0.0
 30
0.0
  0
INSERT
  5
   774
  8
0
  6
CONTINUOUS
 62
     7
  2
*UDIM434
 10
0.0
 20
0.0
 30
0.0
  0
INSERT
  5
   775
  8
0
  6
CONTINUOUS
 62
     7
  2
*UDIM435
 10
0.0
 20
0.0
 30
0.0
  0
INSERT
  5
   776
  8
0
  6
CONTINUOUS
 62
     7
  2
*UDIM436
 10
0.0
 20
0.0
 30
0.0
  0
INSERT
  5
   777
  8
0
  6
CONTINUOUS
 62
     7
  2
*UDIM437
 10
0.0
 20
0.0
 30
0.0
  0
INSERT
  5
   778
  8
0
  6
CONTINUOUS
 62
     7
  2
*UDIM438
 10
0.0
 20
0.0
 30
0.0
  0
INSERT
  5
   779
  8
0
  6
CONTINUOUS
 62
     7
  2
*UDIM439
 10
0.0
 20
0.0
 30
0.0
  0
INSERT
  5
   77A
  8
0
  6
CONTINUOUS
 62
     7
  2
*UDIM440
 10
0.0
 20
0.0
 30
0.0
  0
LINE
  5
   77B
  8
0
  6
CONTINUOUS
 62
     7
 10
-532.090875611866
 20
-87.0654090372172
 30
0.0
 11
-532.090875611866
 21
-83.5654090968219
 31
0.0
  0
LINE
  5
   77C
  8
0
  6
CONTINUOUS
 62
     7
 10
-532.090875611866
 20
-64.2638778734037
 30
0.0
 11
-532.090875611866
 21
-60.7638779330083
 31
0.0
  0
LINE
  5
   77D
  8
0
  6
DASHDOT
 62
     7
 10
-532.090875611866
 20
-83.5654090968219
 30
0.0
 11
-532.090875611866
 21
-64.2638778734037
 31
0.0
  0
POINT
  5
   77E
  8
0
  6
CONTINUOUS
 62
     7
 10
-532.090875611866
 20
-62.513877903206
 30
0.0
  0
POINT
  5
   77F
  8
0
  6
CONTINUOUS
 62
     7
 10
-532.090875611866
 20
-85.3154090670196
 30
0.0
  0
TEXT
  5
   780
  8
0
  6
CONTINUOUS
 62
     7
 10
-527.94770582047
 20
-61.5009041169084
 30
0.0
 40
2.4999999335834
  1
A
 41
0.933333333333333
 72
     1
 11
-527.031039178156
 21
-60.2509041501167
 31
0.0
 73
     2
  0
TEXT
  5
   781
  8
0
  6
CONTINUOUS
 62
     7
 10
-527.838657621468
 20
-84.3792162676041
 30
0.0
 40
2.4999999335834
  1
A
 41
0.933333333333333
 72
     1
 11
-526.921990979154
 21
-83.1292163008124
 31
0.0
 73
     2
  0
INSERT
  5
   782
  8
0
  6
CONTINUOUS
 62
     7
  2
*UDIM441
 10
0.0
 20
0.0
 30
0.0
  0
INSERT
  5
   783
  8
0
  6
CONTINUOUS
 62
     7
  2
*UDIM442
 10
0.0
 20
0.0
 30
0.0
  0
INSERT
  5
   784
  8
0
  6
CONTINUOUS
 62
     7
  2
*UDIM443
 10
0.0
 20
0.0
 30
0.0
  0
INSERT
  5
   785
  8
0
  6
CONTINUOUS
 62
     7
  2
*UDIM444
 10
0.0
 20
0.0
 30
0.0
  0
TEXT
  5
   786
  8
0
  6
CONTINUOUS
 62
     7
 10
-491.786608896006
 20
-36.4641896022285
 30
0.0
 40
2.99999997871263
  1
=   =
 50
90.0
 41
0.91666663951344
 72
     2
 11
-491.786608896023
 21
-23.2641900704088
 31
0.0
  0
TEXT
  5
   787
  8
0
  6
CONTINUOUS
 62
     7
 10
-479.105858321766
 20
-27.8295755750786
 30
0.0
 40
2.99999997871263
  1
X
 41
0.91666663951344
 72
     2
 11
-476.905858386054
 21
-27.8295755750786
 31
0.0
  0
INSERT
  5
   788
  8
0
  6
CONTINUOUS
 62
     7
  2
*UDIM445
 10
0.0
 20
0.0
 30
0.0
  0
LINE
  5
   789
  8
0
  6
DASHDOT
 62
     2
 10
-590.554839743904
 20
-144.65160792321
 30
0.0
 11
-609.036373649519
 21
-144.65160792321
 31
0.0
  0
LINE
  5
   78A
  8
0
  6
DASHDOT
 62
     2
 10
-589.796269322405
 20
-192.051608629525
 30
0.0
 11
-609.174295544337
 21
-192.051608629525
 31
0.0
  0
LINE
  5
   78B
  8
0
  6
DASHDOT
 62
     2
 10
-606.471862897277
 20
-140.098156731545
 30
0.0
 11
-606.471862897277
 21
-194.16353950021
 31
0.0
  0
LINE
  5
   78C
  8
0
  6
DASHDOT
 62
     2
 10
-592.471862688661
 20
-139.615430099682
 30
0.0
 11
-592.471862688661
 21
-194.025617605392
 31
0.0
  0
LINE
  5
   78D
  8
0
  6
CONTINUOUS
 62
     7
 10
-588.471862629056
 20
-113.051607452333
 30
0.0
 11
-588.471862629056
 21
-198.577040134387
 31
0.0
  0
LINE
  5
   78E
  8
0
  6
CONTINUOUS
 62
     7
 10
-610.471862956882
 20
-113.051607452333
 30
0.0
 11
-610.471862956882
 21
-198.439118239569
 31
0.0
  0
LINE
  5
   78F
  8
0
  6
CONTINUOUS
 62
     7
 10
-586.417182899363
 20
-113.051607452333
 30
0.0
 11
-612.829225757014
 21
-113.051607452333
 31
0.0
  0
LINE
  5
   790
  8
0
  6
CONTINUOUS
 62
     7
 10
-585.865495320091
 20
-196.051608689129
 30
0.0
 11
-612.967147651833
 21
-196.051608689129
 31
0.0
  0
LINE
  5
   791
  8
0
  6
DASHDOT
 62
     2
 10
-599.471862792969
 20
-112.767688128756
 30
0.0
 11
-599.471862792969
 21
-193.737729770204
 31
0.0
  0
CIRCLE
  5
   792
  8
0
  6
CONTINUOUS
 62
     7
 10
-592.471862688661
 20
-144.65160792321
 30
0.0
 40
0.550000008195639
  0
CIRCLE
  5
   793
  8
0
  6
CONTINUOUS
 62
     7
 10
-606.471862897277
 20
-144.65160792321
 30
0.0
 40
0.550000008195639
  0
CIRCLE
  5
   794
  8
0
  6
CONTINUOUS
 62
     7
 10
-606.471862897277
 20
-192.051608629525
 30
0.0
 40
0.550000008195639
  0
CIRCLE
  5
   795
  8
0
  6
CONTINUOUS
 62
     7
 10
-592.471862688661
 20
-192.051608629525
 30
0.0
 40
0.550000008195639
  0
LINE
  5
   796
  8
0
  6
DASHDOT
 62
     2
 10
-581.258247508591
 20
-166.60160825029
 30
0.0
 11
-625.201075633886
 21
-166.60160825029
 31
0.0
  0
CIRCLE
  5
   797
  8
0
  6
CONTINUOUS
 62
     7
 10
-608.896414012378
 20
-142.359169547086
 30
0.0
 40
6.00000008940697E-2
  0
CIRCLE
  5
   798
  8
0
  6
CONTINUOUS
 62
     7
 10
-606.471862897277
 20
-117.051607511938
 30
0.0
 40
0.550000008195639
  0
CIRCLE
  5
   799
  8
0
  6
CONTINUOUS
 62
     7
 10
-592.471862688661
 20
-117.051607511938
 30
0.0
 40
0.550000008195639
  0
LINE
  5
   79A
  8
0
  6
DASHDOT
 62
     2
 10
-592.471862688661
 20
-112.01542968841
 30
0.0
 11
-592.471862688661
 21
-166.42561719412
 31
0.0
  0
LINE
  5
   79B
  8
0
  6
DASHDOT
 62
     2
 10
-606.471862897277
 20
-112.498156320273
 30
0.0
 11
-606.471862897277
 21
-166.563539088938
 31
0.0
  0
LINE
  5
   79C
  8
0
  6
DASHDOT
 62
     2
 10
-590.554839743904
 20
-117.051607511938
 30
0.0
 11
-609.036373649519
 21
-117.051607511938
 31
0.0
  0
TEXT
  5
   79D
  8
0
  6
CONTINUOUS
 62
     1
 10
-528.821288651994
 20
-263.064895611916
 30
0.0
 40
2.00000007748604
  1
3POLE LOW VOLTAGE M.C.C.B SERIES ISOMAX SUPERLIMITING
 50
359.999999896069
 41
0.593749969303609
 72
     1
 11
-497.47128906101
 21
-262.064895629883
 31
0.0
 73
     2
  0
TEXT
  5
   79E
  8
0
  6
CONTINUOUS
 62
     1
 10
-514.571288836619
 20
-266.064895637693
 30
0.0
 40
2.00000007748604
  1
FIXED VERSION FRONT TERMINALS
 50
359.999999896069
 41
0.593749969303609
 72
     1
 11
-497.47128906101
 21
-265.064895629883
 31
0.0
 73
     2
  0
TEXT
  5
   79F
  8
0
  6
CONTINUOUS
 62
     1
 10
-532.525148610903
 20
-271.1351623353
 30
0.0
 40
2.00000007748604
  1
INTERR.AUTOMATICO SERIE ISOMAX SUPERLIMITATORE
 50
359.999999896069
 41
0.687500019669532
 72
     1
 11
-501.037646487355
 21
-270.135162353516
 31
0.0
 73
     2
  0
TEXT
  5
   7A0
  8
0
  6
CONTINUOUS
 62
     1
 10
-527.02514824046
 20
-274.135162345249
 30
0.0
 40
2.00000007748604
  1
TRIPOL.ESECUZIONE FISSA TERMINALI ANT.
 50
359.999999896069
 41
0.687500019669532
 72
     1
 11
-501.037646487355
 21
-273.135162353516
 31
0.0
 73
     2
  0
TEXT
  5
   7A1
  8
0
  6
CONTINUOUS
 62
     1
 10
-518.068115237088
 20
-281.375167774128
 30
0.0
 40
2.99999994933605
  1
S6X 1000V
 50
359.999999896069
 41
0.916666607525612
 72
     2
 11
-493.868117209804
 21
-281.375167817904
 31
0.0
  0
TEXT
  5
   7A2
  8
0
  6
CONTINUOUS
 62
     1
 10
-516.153808597368
 20
-290.356750610015
 30
0.0
 40
4.00000015497208
  1
RH0035/091
 50
359.999999896069
 41
0.93749995827675
 72
     2
 11
-479.403808842492
 21
-290.356750676492
 31
0.0
  0
INSERT
  5
   7A3
  8
0
  6
CONTINUOUS
 62
     7
  2
*UDIM446
 10
0.0
 20
0.0
 30
0.0
  0
INSERT
  5
   7A4
  8
0
  6
CONTINUOUS
 62
     7
  2
*UDIM447
 10
0.0
 20
0.0
 30
0.0
  0
INSERT
  5
   7A5
  8
0
  6
CONTINUOUS
 62
     7
  2
*UDIM448
 10
0.0
 20
0.0
 30
0.0
  0
TEXT
  5
   7A6
  8
0
  6
CONTINUOUS
 62
     7
 10
-627.404871024416
 20
-168.068931096551
 30
0.0
 40
2.99999994933605
  1
X
 50
359.999999896069
 41
0.916666607525612
 72
     2
 11
-625.204871206211
 21
-168.06893110053
 31
0.0
  0
TEXT
  5
   7A7
  8
0
  6
CONTINUOUS
 62
     7
 10
-583.064060732339
 20
-168.0121569563
 30
0.0
 40
2.99999994933605
  1
X
 50
359.999999896069
 41
0.916666607525612
 72
     2
 11
-580.864060914133
 21
-168.01215696028
 31
0.0
  0
INSERT
  5
   7A8
  8
0
  6
CONTINUOUS
 62
     7
  2
*UDIM449
 10
0.0
 20
0.0
 30
0.0
  0
TEXT
  5
   7A9
  8
0
  6
CONTINUOUS
 62
     7
 10
-595.450087680821
 20
-165.275485849237
 30
0.0
 40
2.99999994933605
  1
=
 50
359.999999896069
 41
0.916666607525612
 72
     2
 11
-593.250087862616
 21
-165.275485853216
 31
0.0
  0
TEXT
  5
   7AA
  8
0
  6
CONTINUOUS
 62
     7
 10
-604.248541715127
 20
-165.275485849237
 30
0.0
 40
2.99999994933605
  1
=
 50
359.999999896069
 41
0.916666607525612
 72
     2
 11
-602.048541896921
 21
-165.275485853216
 31
0.0
  0
INSERT
  5
   7AB
  8
0
  6
CONTINUOUS
 62
     7
  2
*UDIM450
 10
0.0
 20
0.0
 30
0.0
  0
TEXT
  5
   7AC
  8
0
  6
CONTINUOUS
 62
     7
 10
-601.196563013748
 20
-110.330770545094
 30
0.0
 40
2.99999994933605
  1
Y
 50
359.999999896069
 41
0.916666607525612
 72
     2
 11
-598.996563195542
 21
-110.330770549074
 31
0.0
  0
TEXT
  5
   7AD
  8
0
  6
CONTINUOUS
 62
     7
 10
-600.174623720871
 20
-201.063904831693
 30
0.0
 40
2.99999994933605
  1
Y
 50
359.999999896069
 41
0.916666607525612
 72
     2
 11
-597.974623902665
 21
-201.063904835673
 31
0.0
  0
ENDSEC
  0
EOF
