  0
SECTION
  2
HEADER
  9
$ACADVER
  1
AC1009
  9
$INSBASE
 10
0.0
 20
0.0
 30
0.0
  9
$EXTMIN
 10
0.236802
 20
0.237701
 30
0.0
  9
$EXTMAX
 10
392.236802
 20
262.737701
 30
0.0
  9
$LIMMIN
 10
0.0
 20
0.0
  9
$LIMMAX
 10
12.0
 20
9.0
  9
$ORTHOMODE
 70
     1
  9
$REGENMODE
 70
     1
  9
$FILLMODE
 70
     1
  9
$QTEXTMODE
 70
     0
  9
$MIRRTEXT
 70
     1
  9
$DRAGMODE
 70
     2
  9
$LTSCALE
 40
5.0
  9
$OSMODE
 70
     0
  9
$ATTMODE
 70
     1
  9
$TEXTSIZE
 40
2.0
  9
$TRACEWID
 40
0.05
  9
$TEXTSTYLE
  7
GREEKS
  9
$CLAYER
  8
0
  9
$CELTYPE
  6
CONTINUOUS
  9
$CECOLOR
 62
   256
  9
$DIMSCALE
 40
1.0
  9
$DIMASZ
 40
0.18
  9
$DIMEXO
 40
0.0625
  9
$DIMDLI
 40
0.38
  9
$DIMRND
 40
0.0
  9
$DIMDLE
 40
0.0
  9
$DIMEXE
 40
0.18
  9
$DIMTP
 40
0.0
  9
$DIMTM
 40
0.0
  9
$DIMTXT
 40
0.18
  9
$DIMCEN
 40
0.09
  9
$DIMTSZ
 40
0.0
  9
$DIMTOL
 70
     0
  9
$DIMLIM
 70
     0
  9
$DIMTIH
 70
     1
  9
$DIMTOH
 70
     1
  9
$DIMSE1
 70
     0
  9
$DIMSE2
 70
     0
  9
$DIMTAD
 70
     0
  9
$DIMZIN
 70
     0
  9
$DIMBLK
  1

  9
$DIMASO
 70
     1
  9
$DIMSHO
 70
     1
  9
$DIMPOST
  1

  9
$DIMAPOST
  1

  9
$DIMALT
 70
     0
  9
$DIMALTD
 70
     2
  9
$DIMALTF
 40
25.4
  9
$DIMLFAC
 40
1.0
  9
$DIMTOFL
 70
     0
  9
$DIMTVP
 40
0.0
  9
$DIMTIX
 70
     0
  9
$DIMSOXD
 70
     0
  9
$DIMSAH
 70
     0
  9
$DIMBLK1
  1

  9
$DIMBLK2
  1

  9
$DIMSTYLE
  2
*UNNAMED
  9
$DIMCLRD
 70
     0
  9
$DIMCLRE
 70
     0
  9
$DIMCLRT
 70
     0
  9
$DIMTFAC
 40
1.0
  9
$DIMGAP
 40
0.09
  9
$LUNITS
 70
     2
  9
$LUPREC
 70
     4
  9
$SKETCHINC
 40
0.1
  9
$FILLETRAD
 40
0.0
  9
$AUNITS
 70
     0
  9
$AUPREC
 70
     0
  9
$MENU
  1
acad
  9
$ELEVATION
 40
0.0
  9
$PELEVATION
 40
0.0
  9
$THICKNESS
 40
0.0
  9
$LIMCHECK
 70
     0
  9
$BLIPMODE
 70
     1
  9
$CHAMFERA
 40
0.0
  9
$CHAMFERB
 40
0.0
  9
$SKPOLY
 70
     0
  9
$TDCREATE
 40
2449020.800282870
  9
$TDUPDATE
 40
2449618.452953472
  9
$TDINDWG
 40
0.0269746528
  9
$TDUSRTIMER
 40
0.0269746528
  9
$USRTIMER
 70
     1
  9
$ANGBASE
 50
0.0
  9
$ANGDIR
 70
     0
  9
$PDMODE
 70
     0
  9
$PDSIZE
 40
0.0
  9
$PLINEWID
 40
0.0
  9
$COORDS
 70
     2
  9
$SPLFRAME
 70
     0
  9
$SPLINETYPE
 70
     6
  9
$SPLINESEGS
 70
     8
  9
$ATTDIA
 70
     0
  9
$ATTREQ
 70
     1
  9
$HANDLING
 70
     0
  9
$HANDSEED
  5
0
  9
$SURFTAB1
 70
   250
  9
$SURFTAB2
 70
   250
  9
$SURFTYPE
 70
     6
  9
$SURFU
 70
     6
  9
$SURFV
 70
     6
  9
$UCSNAME
  2

  9
$UCSORG
 10
0.0
 20
0.0
 30
0.0
  9
$UCSXDIR
 10
1.0
 20
0.0
 30
0.0
  9
$UCSYDIR
 10
0.0
 20
1.0
 30
0.0
  9
$PUCSNAME
  2

  9
$PUCSORG
 10
0.0
 20
0.0
 30
0.0
  9
$PUCSXDIR
 10
1.0
 20
0.0
 30
0.0
  9
$PUCSYDIR
 10
0.0
 20
1.0
 30
0.0
  9
$USERI1
 70
     0
  9
$USERI2
 70
     0
  9
$USERI3
 70
     0
  9
$USERI4
 70
     0
  9
$USERI5
 70
     0
  9
$USERR1
 40
0.0
  9
$USERR2
 40
0.0
  9
$USERR3
 40
0.0
  9
$USERR4
 40
0.0
  9
$USERR5
 40
0.0
  9
$WORLDVIEW
 70
     1
  9
$SHADEDGE
 70
     3
  9
$SHADEDIF
 70
    70
  9
$TILEMODE
 70
     1
  9
$MAXACTVP
 70
    16
  9
$PINSBASE
 10
0.0
 20
0.0
 30
0.0
  9
$PLIMCHECK
 70
     0
  9
$PEXTMIN
 10
1.000000E+20
 20
1.000000E+20
 30
1.000000E+20
  9
$PEXTMAX
 10
-1.000000E+20
 20
-1.000000E+20
 30
-1.000000E+20
  9
$PLIMMIN
 10
0.0
 20
0.0
  9
$PLIMMAX
 10
12.0
 20
9.0
  9
$UNITMODE
 70
     0
  9
$VISRETAIN
 70
     0
  9
$PLINEGEN
 70
     0
  9
$PSLTSCALE
 70
     0
  9
$TREEDEPTH
 70
  3020
  9
$DWGCODEPAGE
  3
undefined
  0
ENDSEC
  0
SECTION
  2
TABLES
  0
TABLE
  2
VPORT
 70
     2
  0
VPORT
  2
*ACTIVE
 70
     0
 10
0.0
 20
0.0
 11
1.0
 21
1.0
 12
222.522675
 22
142.040378
 13
0.0
 23
0.0
 14
2.5
 24
2.5
 15
0.0
 25
0.0
 16
0.0
 26
0.0
 36
1.0
 17
0.0
 27
0.0
 37
0.0
 40
284.080756
 41
1.566616
 42
50.0
 43
0.0
 44
0.0
 50
0.0
 51
0.0
 71
     0
 72
   100
 73
     1
 74
     1
 75
     1
 76
     0
 77
     0
 78
     0
  0
ENDTAB
  0
TABLE
  2
LTYPE
 70
     7
  0
LTYPE
  2
CONTINUOUS
 70
    64
  3
Solid line
 72
    65
 73
     0
 40
0.0
  0
LTYPE
  2
DASHED
 70
    64
  3
__ __ __ __ __ __ __ __ __ __ __ __ __ __ __ __
 72
    65
 73
     2
 40
0.75
 49
0.5
 49
-0.25
  0
LTYPE
  2
CENTER
 70
    64
  3
____ _ ____ _ ____ _ ____ _ ____ _ ____ _ ____ 
 72
    65
 73
     4
 40
2.0
 49
1.25
 49
-0.25
 49
0.25
 49
-0.25
  0
LTYPE
  2
HIDDEN
 70
    64
  3
__ __ __ __ __ __ __ __ __ __ __ __ __ __ __ __
 72
    65
 73
     2
 40
0.375
 49
0.25
 49
-0.125
  0
LTYPE
  2
DOT
 70
     0
  3
. . . . . . . . . . . . . . . . . . . . . . . .
 72
    65
 73
     2
 40
0.25
 49
0.0
 49
-0.25
  0
LTYPE
  2
DASHDOT
 70
     0
  3
__ . __ . __ . __ . __ . __ . __ . __ . __ . __
 72
    65
 73
     4
 40
1.0
 49
0.5
 49
-0.25
 49
0.0
 49
-0.25
  0
LTYPE
  2
PHANTOM
 70
     0
  3
______  __  __  ______  __  __  ______  __  __ 
 72
    65
 73
     6
 40
2.5
 49
1.25
 49
-0.25
 49
0.25
 49
-0.25
 49
0.25
 49
-0.25
  0
ENDTAB
  0
TABLE
  2
LAYER
 70
    13
  0
LAYER
  2
0
 70
    64
 62
     7
  6
CONTINUOUS
  0
LAYER
  2
RAAMI
 70
    64
 62
    -4
  6
CONTINUOUS
  0
LAYER
  2
PAKSU
 70
    64
 62
    -3
  6
CONTINUOUS
  0
LAYER
  2
OHUT
 70
    64
 62
    -6
  6
CONTINUOUS
  0
LAYER
  2
SWEDEN
 70
    64
 62
    -7
  6
CONTINUOUS
  0
LAYER
  2
SWEDEN2
 70
    64
 62
    -5
  6
CONTINUOUS
  0
LAYER
  2
BASE
 70
    64
 62
    -7
  6
CONTINUOUS
  0
LAYER
  2
21
 70
    64
 62
    -2
  6
CONTINUOUS
  0
LAYER
  2
HEL035
 70
    64
 62
    -7
  6
CONTINUOUS
  0
LAYER
  2
MUO
 70
    64
 62
    -7
  6
CONTINUOUS
  0
LAYER
  2
1
 70
    64
 62
    -2
  6
CONTINUOUS
  0
LAYER
  2
BASE1
 70
    64
 62
    -1
  6
CONTINUOUS
  0
LAYER
  2
TEKS
 70
    64
 62
    -5
  6
CONTINUOUS
  0
ENDTAB
  0
TABLE
  2
STYLE
 70
     7
  0
STYLE
  2
STANDARD
 70
    64
 40
0.0
 41
1.0
 50
0.0
 71
     0
 42
2.5
  3
txt
  4

  0
STYLE
  2
ROMANS
 70
    64
 40
0.0
 41
1.0
 50
0.0
 71
     0
 42
1.5
  3
romans
  4

  0
STYLE
  2
GREEKC
 70
     0
 40
0.0
 41
1.0
 50
0.0
 71
     0
 42
1.5
  3
GREEKC
  4

  0
STYLE
  2
GREEKS
 70
    64
 40
0.0
 41
1.0
 50
0.0
 71
     0
 42
2.0
  3
TXT
  4

  0
STYLE
  2
MONOTXT
 70
    64
 40
0.0
 41
1.0
 50
0.0
 71
     0
 42
2.0
  3
monotxt
  4

  0
STYLE
  2
ROMANT
 70
     0
 40
0.0
 41
1.0
 50
0.0
 71
     0
 42
2.5
  3
romant
  4

  0
STYLE
  2
STAND
 70
    64
 40
0.0
 41
1.0
 50
0.0
 71
     0
 42
2.0
  3
TXT
  4

  0
ENDTAB
  0
TABLE
  2
VIEW
 70
     0
  0
ENDTAB
  0
TABLE
  2
UCS
 70
     0
  0
ENDTAB
  0
TABLE
  2
APPID
 70
     1
  0
APPID
  2
ACAD
 70
    64
  0
ENDTAB
  0
TABLE
  2
DIMSTYLE
 70
     0
  0
ENDTAB
  0
ENDSEC
  0
SECTION
  2
BLOCKS
  0
BLOCK
  8
0
  2
1
 70
    64
 10
0.0
 20
0.0
 30
0.0
  3
1
  0
ENDBLK
  8
0
  0
BLOCK
  8
0
  2
BLC16
 70
     0
 10
0.0
 20
0.0
 30
0.0
  3
BLC16
  0
LINE
  8
0
  6
CONTINUOUS
 10
0.007689
 20
38.054928
 30
0.0
 11
19.983683
 21
38.054928
 31
0.0
  0
LINE
  8
0
  6
CONTINUOUS
 10
19.983683
 20
38.054928
 30
0.0
 11
19.983683
 21
-0.003751
 31
0.0
  0
LINE
  8
0
  6
CONTINUOUS
 10
19.983683
 20
-0.003751
 30
0.0
 11
0.007689
 21
-0.003751
 31
0.0
  0
LINE
  8
0
  6
CONTINUOUS
 10
0.007689
 20
-0.003751
 30
0.0
 11
0.007689
 21
38.054928
 31
0.0
  0
LINE
  8
0
  6
CONTINUOUS
 10
14.152643
 20
36.919738
 30
0.0
 11
14.152643
 21
33.528469
 31
0.0
  0
LINE
  8
0
  6
CONTINUOUS
 10
14.152643
 20
33.528469
 30
0.0
 11
11.560435
 21
33.528469
 31
0.0
  0
LINE
  8
0
  6
CONTINUOUS
 10
11.560435
 20
33.528469
 30
0.0
 11
11.560435
 21
30.778433
 31
0.0
  0
LINE
  8
0
  6
CONTINUOUS
 10
11.560435
 20
30.778433
 30
0.0
 11
14.152643
 21
30.778433
 31
0.0
  0
LINE
  8
0
  6
CONTINUOUS
 10
14.152643
 20
30.778433
 30
0.0
 11
14.152643
 21
27.387164
 31
0.0
  0
TEXT
  8
0
  6
CONTINUOUS
 10
6.558569
 20
30.805266
 30
0.0
 40
2.5
  1
2
 11
6.558569
 21
29.971932
 31
0.0
 73
     1
  0
TEXT
  8
0
  6
CONTINUOUS
 10
6.553289
 20
23.854078
 30
0.0
 40
2.5
  1
2 I
 11
6.553289
 21
23.020744
 31
0.0
 73
     1
  0
LINE
  8
0
  6
CONTINUOUS
 10
12.942534
 20
26.359129
 30
0.0
 11
15.288299
 21
25.023775
 31
0.0
  0
LINE
  8
0
  6
CONTINUOUS
 10
15.288299
 20
25.023775
 30
0.0
 11
12.942534
 21
23.833856
 31
0.0
  0
LINE
  8
0
  6
CONTINUOUS
 10
14.169823
 20
26.359129
 30
0.0
 11
16.515589
 21
25.023775
 31
0.0
  0
LINE
  8
0
  6
CONTINUOUS
 10
16.515589
 20
25.023775
 30
0.0
 11
14.169823
 21
23.833856
 31
0.0
  0
TEXT
  8
0
  6
CONTINUOUS
 10
11.566446
 20
19.235679
 30
0.0
 40
2.5
  1
I
 11
11.566446
 21
18.402346
 31
0.0
 73
     1
  0
TEXT
  8
0
  6
CONTINUOUS
 10
13.018181
 20
18.902346
 30
0.0
 40
1.5
  1
2
 11
13.018181
 21
18.402346
 31
0.0
 73
     1
  0
LINE
  8
0
  6
CONTINUOUS
 10
10.65733
 20
12.773825
 30
0.0
 11
13.003095
 21
13.963744
 31
0.0
  0
LINE
  8
0
  6
CONTINUOUS
 10
13.003095
 20
11.438471
 30
0.0
 11
10.65733
 21
12.773825
 31
0.0
  0
LINE
  8
0
  6
CONTINUOUS
 10
6.557002
 20
16.714658
 30
0.0
 11
15.281743
 21
16.714658
 31
0.0
  0
LINE
  8
0
  6
CONTINUOUS
 10
6.557002
 20
17.523984
 30
0.0
 11
6.557002
 21
15.908791
 31
0.0
  0
LINE
  8
0
  6
CONTINUOUS
 10
15.286518
 20
17.523984
 30
0.0
 11
15.286518
 21
15.908791
 31
0.0
  0
ARC
  8
0
  6
CONTINUOUS
 10
12.684846
 20
18.508045
 30
0.0
 40
2.922744
 50
193.105513
 51
283.105513
  0
TEXT
  8
0
  6
CONTINUOUS
 10
6.557002
 20
11.567974
 30
0.0
 40
2.5
  1
2I
 11
6.557002
 21
10.734641
 31
0.0
 73
     1
  0
LINE
  8
0
  6
CONTINUOUS
 10
6.557002
 20
9.441103
 30
0.0
 11
15.281743
 21
9.441103
 31
0.0
  0
LINE
  8
0
  6
CONTINUOUS
 10
15.286518
 20
10.250429
 30
0.0
 11
15.286518
 21
8.635236
 31
0.0
  0
LINE
  8
0
  6
CONTINUOUS
 10
6.557002
 20
10.250429
 30
0.0
 11
6.557002
 21
8.635236
 31
0.0
  0
TEXT
  8
0
  6
CONTINUOUS
 10
6.557002
 20
4.778631
 30
0.0
 40
2.5
  1
I
 11
6.557002
 21
3.945298
 31
0.0
 73
     1
  0
LINE
  8
0
  6
CONTINUOUS
 10
9.509029
 20
6.822462
 30
0.0
 11
9.509029
 21
5.477736
 31
0.0
  0
LINE
  8
0
  6
CONTINUOUS
 10
8.615065
 20
5.477736
 30
0.0
 11
9.52622
 21
5.477736
 31
0.0
  0
LINE
  8
0
  6
CONTINUOUS
 10
9.509029
 20
5.477736
 30
0.0
 11
10.402992
 21
5.477736
 31
0.0
  0
LINE
  8
0
  6
CONTINUOUS
 10
8.901592
 20
5.082328
 30
0.0
 11
9.509029
 21
5.082328
 31
0.0
  0
LINE
  8
0
  6
CONTINUOUS
 10
9.509029
 20
5.082328
 30
0.0
 11
10.150849
 21
5.082328
 31
0.0
  0
LINE
  8
0
  6
CONTINUOUS
 10
9.981861
 20
4.719969
 30
0.0
 11
9.072041
 21
4.719969
 31
0.0
  0
LINE
  8
0
  6
CONTINUOUS
 10
15.286518
 20
2.797924
 30
0.0
 11
15.286518
 21
1.182731
 31
0.0
  0
LINE
  8
0
  6
CONTINUOUS
 10
6.557002
 20
1.988598
 30
0.0
 11
15.281743
 21
1.988598
 31
0.0
  0
LINE
  8
0
  6
CONTINUOUS
 10
6.557002
 20
2.797924
 30
0.0
 11
6.557002
 21
1.182731
 31
0.0
  0
ENDBLK
  8
0
  0
BLOCK
  8
0
  2
BLC27
 70
    64
 10
0.0
 20
0.0
 30
0.0
  3
BLC27
  0
INSERT
  8
SWEDEN2
  6
CENTER
  2
BLC26
 10
0.08063
 20
0.037985
 30
0.0
 41
1.006225
 42
1.006225
 43
1.006225
  0
ENDBLK
  8
0
  0
BLOCK
  8
0
  2
BLC26
 70
    64
 10
0.0
 20
0.0
 30
0.0
  3
BLC26
  0
ARC
  8
0
  6
CONTINUOUS
 10
-0.180576
 20
1.17922
 30
0.0
 40
1.196859
 50
90.0
 51
265.706237
  0
LINE
  8
0
  6
CONTINUOUS
 10
-0.186638
 20
-0.01092
 30
0.0
 11
0.458942
 21
-0.01092
 31
0.0
  0
LINE
  8
0
  6
CONTINUOUS
 10
-0.186638
 20
2.375671
 30
0.0
 11
0.45288
 21
2.375671
 31
0.0
  0
LINE
  8
0
  6
CONTINUOUS
 10
-0.185509
 20
-2.404629
 30
0.0
 11
0.460071
 21
-2.404629
 31
0.0
  0
ARC
  8
0
  6
CONTINUOUS
 10
-0.180576
 20
-1.207779
 30
0.0
 40
1.196859
 50
90.0
 51
270.0
  0
LINE
  8
0
  6
CONTINUOUS
 10
0.451525
 20
-2.404586
 30
0.0
 11
1.401805
 21
-2.404586
 31
0.0
  0
LINE
  8
0
  6
CONTINUOUS
 10
0.446785
 20
2.375674
 30
0.0
 11
1.418544
 21
2.375674
 31
0.0
  0
LINE
  8
0
  6
CONTINUOUS
 10
0.456627
 20
-0.010911
 30
0.0
 11
1.422749
 21
-0.010911
 31
0.0
  0
ENDBLK
  8
0
  0
BLOCK
  8
0
  2
BLC22
 70
     0
 10
0.0
 20
0.0
 30
0.0
  3
BLC22
  0
LINE
  8
HEL035
 10
0.0
 20
-0.00155
 30
0.0
 11
0.0
 21
9.99845
 31
0.0
  0
LINE
  8
21
 10
2.5
 20
10.0
 30
0.0
 11
5.0
 21
10.0
 31
0.0
  0
LINE
  8
HEL035
 10
0.0
 20
9.99845
 30
0.0
 11
2.5
 21
9.99845
 31
0.0
  0
LINE
  8
HEL035
 10
-2.5
 20
5.0
 30
0.0
 11
2.5
 21
5.0
 31
0.0
  0
LINE
  8
21
 10
2.5
 20
5.0
 30
0.0
 11
5.0
 21
5.0
 31
0.0
  0
LINE
  8
21
 10
5.0
 20
5.0
 30
0.0
 11
5.0
 21
7.9
 31
0.0
  0
LINE
  8
HEL035
 10
3.88095
 20
6.944425
 30
0.0
 11
4.560313
 21
6.008681
 31
0.0
  0
LINE
  8
21
 10
10.0
 20
10.0
 30
0.0
 11
4.2
 21
6.5
 31
0.0
  0
LINE
  8
HEL035
 10
2.5
 20
-0.00155
 30
0.0
 11
0.0
 21
-0.00155
 31
0.0
  0
LINE
  8
21
 10
2.5
 20
0.0
 30
0.0
 11
5.0
 21
0.0
 31
0.0
  0
ENDBLK
  8
0
  0
BLOCK
  8
0
  2
BLC18
 70
     0
 10
0.0
 20
0.0
 30
0.0
  3
BLC18
  0
LINE
  8
MUO
 10
-0.056268
 20
0.849555
 30
0.0
 11
8.307242
 21
9.215502
 31
0.0
  0
LINE
  8
MUO
 10
0.928025
 20
-0.107047
 30
0.0
 11
9.268386
 21
8.2307
 31
0.0
  0
LINE
  8
MUO
 10
-0.056268
 20
-0.107047
 30
0.0
 11
-0.056268
 21
9.215502
 31
0.0
  0
LINE
  8
MUO
 10
9.268386
 20
-0.107047
 30
0.0
 11
-0.056268
 21
-0.107047
 31
0.0
  0
LINE
  8
MUO
 10
9.268386
 20
9.215502
 30
0.0
 11
9.268386
 21
-0.107047
 31
0.0
  0
LINE
  8
MUO
 10
-0.056268
 20
9.215502
 30
0.0
 11
9.268386
 21
9.215502
 31
0.0
  0
ENDBLK
  8
0
  0
BLOCK
  8
0
  2
BLC29
 70
    64
 10
0.0
 20
0.0
 30
0.0
  3
BLC29
  0
LINE
  8
0
  6
CONTINUOUS
 10
0.004865
 20
1.206889
 30
0.0
 11
2.350631
 21
-0.128465
 31
0.0
  0
LINE
  8
0
  6
CONTINUOUS
 10
2.350631
 20
-0.128465
 30
0.0
 11
0.004865
 21
-1.318384
 31
0.0
  0
ENDBLK
  8
0
  0
BLOCK
  8
0
  2
WKU130
 70
     0
 10
190.0
 20
250.0
 30
0.0
  3
WKU130
  0
ARC
  8
21
 10
191.083333
 20
249.916667
 30
0.0
 40
1.086534
 50
32.471192
 51
175.601295
  0
ARC
  8
21
 10
192.916667
 20
251.083333
 30
0.0
 40
1.086534
 50
212.471192
 51
355.601295
  0
ENDBLK
  8
0
  0
BLOCK
  8
0
  2
BLC15
 70
    64
 10
0.0
 20
0.0
 30
0.0
  3
BLC15
  0
LINE
  8
0
  6
CONTINUOUS
 10
0.142084
 20
3.490022
 30
0.0
 11
0.142084
 21
0.844365
 31
0.0
  0
LINE
  8
0
  6
CONTINUOUS
 10
-0.461611
 20
-0.937188
 30
0.0
 11
0.745779
 21
-0.937188
 31
0.0
  0
LINE
  8
0
  6
CONTINUOUS
 10
-0.894108
 20
-0.049675
 30
0.0
 11
1.169267
 21
-0.049675
 31
0.0
  0
LINE
  8
0
  6
CONTINUOUS
 10
-1.389679
 20
0.844365
 30
0.0
 11
1.673848
 21
0.844365
 31
0.0
  0
ENDBLK
  8
0
  0
BLOCK
  8
0
  2
BLC5
 70
     0
 10
0.0
 20
0.0
 30
0.0
  3
BLC5
  0
TEXT
  8
0
 10
-3.043704
 20
-6.645912
 30
0.0
 40
3.2
  1
PE
  0
LINE
  8
0
 10
-2.946392
 20
1.181176
 30
0.0
 11
2.135458
 21
1.181176
 31
0.0
  0
LINE
  8
0
 10
-0.48656
 20
2.238362
 30
0.0
 11
-0.48656
 21
6.930438
 31
0.0
  0
LINE
  8
0
 10
-1.973271
 20
0.065258
 30
0.0
 11
1.225411
 21
0.065258
 31
0.0
  0
LINE
  8
0
 10
2.685091
 20
2.238362
 30
0.0
 11
1.68494
 21
2.238362
 31
0.0
  0
LINE
  8
0
 10
-3.505035
 20
2.238362
 30
0.0
 11
2.649049
 21
2.238362
 31
0.0
  0
CIRCLE
  8
0
 10
-0.47755
 20
1.422632
 30
0.0
 40
3.804563
  0
ENDBLK
  8
0
  0
BLOCK
  8
0
  2
BLC43
 70
    64
 10
0.0
 20
0.0
 30
0.0
  3
BLC43
  0
TEXT
  8
SWEDEN2
  6
CONTINUOUS
 10
-0.646672
 20
-0.986365
 30
0.0
 40
2.0
  1
+
  0
ENDBLK
  8
0
  0
BLOCK
  8
0
  2
BLC42
 70
    64
 10
0.0
 20
0.0
 30
0.0
  3
BLC42
  0
TEXT
  8
SWEDEN2
  6
CONTINUOUS
 10
-0.655237
 20
-0.99442
 30
0.0
 40
2.0
  1
-
  0
ENDBLK
  8
0
  0
BLOCK
  8
0
  2
BLC25
 70
     0
 10
0.0
 20
0.0
 30
0.0
  3
BLC25
  0
TEXT
  8
0
  6
CONTINUOUS
 10
2.0
 20
30.666667
 30
0.0
 40
2.0
  1
1)
 11
2.0
 21
30.0
 31
0.0
 73
     1
  0
TEXT
  8
0
 10
6.0
 20
2.0
 30
0.0
 40
2.0
  1
7B    27     26
 11
6.0
 21
1.333333
 31
0.0
 73
     1
  0
TEXT
  8
0
 10
6.0
 20
5.333333
 30
0.0
 40
2.0
  1
5B     9      8
 11
6.0
 21
4.666667
 31
0.0
 73
     1
  0
TEXT
  8
0
 10
6.0
 20
8.666667
 30
0.0
 40
2.0
  1
3B     3      2
 11
6.0
 21
8.0
 31
0.0
 73
     1
  0
TEXT
  8
0
 10
32.0
 20
12.666667
 30
0.0
 40
2.0
  1
In=5A
 11
32.0
 21
12.0
 31
0.0
 73
     1
  0
TEXT
  8
0
 10
16.0
 20
12.666667
 30
0.0
 40
2.0
  1
In=1A 
 11
16.0
 21
12.0
 31
0.0
 73
     1
  0
TEXT
  8
0
 10
26.0
 20
18.666667
 30
0.0
 40
2.0
  1
108:
 11
26.0
 21
18.0
 31
0.0
 73
     1
  0
TEXT
  8
0
 10
6.0
 20
18.666667
 30
0.0
 40
2.0
  1
101:       
 11
6.0
 21
18.0
 31
0.0
 73
     1
  0
TEXT
  8
0
 10
6.0
 20
24.666667
 30
0.0
 40
2.0
  1
TERMINALS / UTTAG
 11
6.0
 21
24.0
 31
0.0
 73
     1
  0
LINE
  8
0
 10
0.0
 20
12.0
 30
0.0
 11
44.0
 21
12.0
 31
0.0
  0
LINE
  8
0
 10
28.0
 20
18.0
 30
0.0
 11
28.0
 21
0.0
 31
0.0
  0
LINE
  8
0
 10
14.0
 20
18.0
 30
0.0
 11
44.0
 21
18.0
 31
0.0
  0
LINE
  8
0
 10
14.0
 20
24.0
 30
0.0
 11
14.0
 21
0.0
 31
0.0
  0
LINE
  8
0
 10
0.0
 20
24.0
 30
0.0
 11
44.0
 21
24.0
 31
0.0
  0
LINE
  8
0
 10
44.0
 20
0.0
 30
0.0
 11
44.0
 21
30.0
 31
0.0
  0
LINE
  8
0
 10
0.0
 20
0.0
 30
0.0
 11
44.0
 21
0.0
 31
0.0
  0
LINE
  8
0
 10
0.0
 20
30.0
 30
0.0
 11
0.0
 21
0.0
 31
0.0
  0
LINE
  8
0
 10
44.0
 20
30.0
 30
0.0
 11
0.0
 21
30.0
 31
0.0
  0
ENDBLK
  8
0
  0
BLOCK
  8
0
  2
ABBA3SX
 70
    64
 10
0.0
 20
0.0
 30
0.0
  3
ABBA3SX
  0
TEXT
  8
RAAMI
  6
DASHED
 10
354.190282
 20
15.793111
 30
0.0
 40
1.4
  1
LEHTI SHEET
  7
STAND
  0
LINE
  8
PAKSU
 10
0.236802
 20
0.237701
 30
0.0
 11
0.236802
 21
262.737701
 31
0.0
  0
LINE
  8
PAKSU
 10
392.236802
 20
262.737701
 30
0.0
 11
392.236802
 21
0.237701
 31
0.0
  0
LINE
  8
PAKSU
 10
0.236802
 20
0.237701
 30
0.0
 11
392.236802
 21
0.237701
 31
0.0
  0
TEXT
  8
RAAMI
 10
42.236802
 20
5.587211
 30
0.0
 40
2.5
  1
C
  7
ROMANS
  0
TEXT
  8
RAAMI
 10
42.236802
 20
1.194994
 30
0.0
 40
2.5
  1
B
  7
ROMANS
  0
TEXT
  8
RAAMI
 10
257.406709
 20
1.741485
 30
0.0
 40
3.0
  1
Power
 41
0.8
  7
ROMANS
  0
TEXT
  8
RAAMI
 10
273.236802
 20
7.237701
 30
0.0
 40
1.4
  1
VAST.OSASTO RESP.DEPT.
  7
ROMANS
  0
TEXT
  8
RAAMI
 10
210.236802
 20
32.237701
 30
0.0
 40
1.4
  1
TEKI  PREPARED
  7
ROMANS
  0
LINE
  8
OHUT
 10
271.236802
 20
9.737701
 30
0.0
 11
271.236802
 21
0.237701
 31
0.0
  0
LINE
  8
OHUT
 10
257.236802
 20
9.737701
 30
0.0
 11
257.236802
 21
35.237701
 31
0.0
  0
LINE
  8
OHUT
 10
40.736802
 20
4.737701
 30
0.0
 11
209.236802
 21
4.737701
 31
0.0
  0
LINE
  8
OHUT
 10
46.736802
 20
0.237701
 30
0.0
 11
46.736802
 21
9.237701
 31
0.0
  0
LINE
  8
OHUT
 10
46.736802
 20
9.237701
 30
0.0
 11
209.236802
 21
9.237701
 31
0.0
  0
TEXT
  8
RAAMI
 10
27.736802
 20
2.471035
 30
0.0
 40
1.4
  1
REVISION
  7
ROMANS
  0
TEXT
  8
RAAMI
 10
27.736802
 20
4.737701
 30
0.0
 40
1.4
  1
MUUTOS
  7
ROMANS
  0
LINE
  8
OHUT
 10
282.236802
 20
9.737701
 30
0.0
 11
282.236802
 21
18.237701
 31
0.0
  0
TEXT
  8
RAAMI
 10
237.736802
 20
1.737701
 30
0.0
 40
3.0
  1
Strömberg
 41
0.8
  7
ROMANS
  0
TEXT
  8
RAAMI
 10
229.736802
 20
1.737701
 30
0.0
 40
3.0
  1
ABB 
 41
0.8
  7
ROMANS
  0
LINE
  8
RAAMI
 10
223.136802
 20
1.737701
 30
0.0
 11
223.136802
 21
5.097701
 31
0.0
  0
LINE
  8
RAAMI
 10
223.136802
 20
8.737701
 30
0.0
 11
225.096802
 21
8.737701
 31
0.0
  0
LINE
  8
RAAMI
 10
225.096802
 20
8.737701
 30
0.0
 11
225.096802
 21
5.377701
 31
0.0
  0
LINE
  8
RAAMI
 10
225.096802
 20
5.377701
 30
0.0
 11
223.136802
 21
5.377701
 31
0.0
  0
LINE
  8
RAAMI
 10
223.136802
 20
5.097701
 30
0.0
 11
225.096802
 21
5.097701
 31
0.0
  0
LINE
  8
RAAMI
 10
225.096802
 20
5.097701
 30
0.0
 11
225.096802
 21
1.737701
 31
0.0
  0
LINE
  8
RAAMI
 10
225.096802
 20
1.737701
 30
0.0
 11
223.136802
 21
1.737701
 31
0.0
  0
LINE
  8
RAAMI
 10
223.136802
 20
5.377701
 30
0.0
 11
223.136802
 21
8.737701
 31
0.0
  0
ARC
  8
RAAMI
 10
225.936802
 20
7.162701
 30
0.0
 40
1.575
 50
298.455859
 51
90.052437
  0
LINE
  8
RAAMI
 10
225.376802
 20
8.737701
 30
0.0
 11
225.935361
 21
8.737701
 31
0.0
  0
LINE
  8
RAAMI
 10
225.376802
 20
8.737701
 30
0.0
 11
225.376802
 21
5.377701
 31
0.0
  0
LINE
  8
RAAMI
 10
225.376802
 20
5.377701
 30
0.0
 11
227.361245
 21
5.377701
 31
0.0
  0
LINE
  8
RAAMI
 10
227.616802
 20
5.097701
 30
0.0
 11
225.376802
 21
5.097701
 31
0.0
  0
LINE
  8
RAAMI
 10
225.376802
 20
5.097701
 30
0.0
 11
225.376802
 21
1.737701
 31
0.0
  0
ARC
  8
RAAMI
 10
225.936802
 20
3.837701
 30
0.0
 40
2.1
 50
269.937724
 51
37.056553
  0
LINE
  8
RAAMI
 10
225.376802
 20
1.737701
 30
0.0
 11
225.93452
 21
1.737703
 31
0.0
  0
ARC
  8
RAAMI
 10
225.936802
 20
3.837701
 30
0.0
 40
2.1
 50
47.28622
 51
68.787999
  0
INSERT
  8
RAAMI
  2
*X18
 10
215.646802
 20
1.737701
 30
0.0
 41
0.7
 42
0.7
 43
0.7
  0
INSERT
  8
RAAMI
  2
*X19
 10
215.646802
 20
1.737701
 30
0.0
 41
0.7
 42
0.7
 43
0.7
  0
INSERT
  8
RAAMI
  2
*X20
 10
215.646802
 20
1.737701
 30
0.0
 41
0.7
 42
0.7
 43
0.7
  0
INSERT
  8
RAAMI
  2
*X21
 10
215.646802
 20
1.737701
 30
0.0
 41
0.7
 42
0.7
 43
0.7
  0
INSERT
  8
RAAMI
  2
*X21
 10
210.186802
 20
1.737701
 30
0.0
 41
0.7
 42
0.7
 43
0.7
  0
INSERT
  8
RAAMI
  2
*X20
 10
210.186802
 20
1.737701
 30
0.0
 41
0.7
 42
0.7
 43
0.7
  0
INSERT
  8
RAAMI
  2
*X19
 10
210.186802
 20
1.737701
 30
0.0
 41
0.7
 42
0.7
 43
0.7
  0
INSERT
  8
RAAMI
  2
*X18
 10
210.186802
 20
1.737701
 30
0.0
 41
0.7
 42
0.7
 43
0.7
  0
ARC
  8
RAAMI
 10
220.476802
 20
3.837701
 30
0.0
 40
2.1
 50
47.28622
 51
68.787999
  0
LINE
  8
RAAMI
 10
219.916802
 20
1.737701
 30
0.0
 11
220.47452
 21
1.737703
 31
0.0
  0
ARC
  8
RAAMI
 10
220.476802
 20
3.837701
 30
0.0
 40
2.1
 50
269.937724
 51
37.056553
  0
LINE
  8
RAAMI
 10
219.916802
 20
5.097701
 30
0.0
 11
219.916802
 21
1.737701
 31
0.0
  0
LINE
  8
RAAMI
 10
222.156802
 20
5.097701
 30
0.0
 11
219.916802
 21
5.097701
 31
0.0
  0
LINE
  8
RAAMI
 10
219.916802
 20
5.377701
 30
0.0
 11
221.901245
 21
5.377701
 31
0.0
  0
LINE
  8
RAAMI
 10
219.916802
 20
8.737701
 30
0.0
 11
219.916802
 21
5.377701
 31
0.0
  0
LINE
  8
RAAMI
 10
219.916802
 20
8.737701
 30
0.0
 11
220.475361
 21
8.737701
 31
0.0
  0
ARC
  8
RAAMI
 10
220.476802
 20
7.162701
 30
0.0
 40
1.575
 50
298.455859
 51
90.052437
  0
LINE
  8
RAAMI
 10
217.676802
 20
5.377701
 30
0.0
 11
217.676802
 21
8.737701
 31
0.0
  0
LINE
  8
RAAMI
 10
219.636802
 20
1.737701
 30
0.0
 11
217.676802
 21
1.737701
 31
0.0
  0
LINE
  8
RAAMI
 10
219.636802
 20
5.097701
 30
0.0
 11
219.636802
 21
1.737701
 31
0.0
  0
LINE
  8
RAAMI
 10
217.676802
 20
5.097701
 30
0.0
 11
219.636802
 21
5.097701
 31
0.0
  0
LINE
  8
RAAMI
 10
219.636802
 20
5.377701
 30
0.0
 11
217.676802
 21
5.377701
 31
0.0
  0
LINE
  8
RAAMI
 10
219.636802
 20
8.737701
 30
0.0
 11
219.636802
 21
5.377701
 31
0.0
  0
LINE
  8
RAAMI
 10
217.676802
 20
8.737701
 30
0.0
 11
219.636802
 21
8.737701
 31
0.0
  0
LINE
  8
RAAMI
 10
217.676802
 20
1.737701
 30
0.0
 11
217.676802
 21
5.097701
 31
0.0
  0
INSERT
  8
RAAMI
  2
*X17
 10
210.186802
 20
1.737701
 30
0.0
 41
0.7
 42
0.7
 43
0.7
  0
INSERT
  8
RAAMI
  2
*X16
 10
210.186802
 20
1.737701
 30
0.0
 41
0.7
 42
0.7
 43
0.7
  0
INSERT
  8
RAAMI
  2
*X15
 10
210.186802
 20
1.737701
 30
0.0
 41
0.7
 42
0.7
 43
0.7
  0
INSERT
  8
RAAMI
  2
*X14
 10
210.186802
 20
1.737701
 30
0.0
 41
0.7
 42
0.7
 43
0.7
  0
LINE
  8
RAAMI
 10
211.356691
 20
5.08024
 30
0.0
 11
210.186802
 21
1.737701
 31
0.0
  0
LINE
  8
RAAMI
 10
213.546802
 20
5.097701
 30
0.0
 11
213.546802
 21
3.137701
 31
0.0
  0
LINE
  8
RAAMI
 10
213.826802
 20
5.097701
 30
0.0
 11
213.826802
 21
3.137701
 31
0.0
  0
LINE
  8
RAAMI
 10
213.826802
 20
5.097701
 30
0.0
 11
216.010059
 21
5.097701
 31
0.0
  0
LINE
  8
RAAMI
 10
213.826802
 20
5.377701
 30
0.0
 11
215.911916
 21
5.377701
 31
0.0
  0
LINE
  8
RAAMI
 10
216.011294
 20
5.096296
 30
0.0
 11
217.186802
 21
1.737701
 31
0.0
  0
LINE
  8
RAAMI
 10
211.359785
 20
5.097701
 30
0.0
 11
213.546802
 21
5.097701
 31
0.0
  0
LINE
  8
RAAMI
 10
211.458743
 20
5.377701
 30
0.0
 11
213.546802
 21
5.377701
 31
0.0
  0
LINE
  8
RAAMI
 10
213.546802
 20
8.737701
 30
0.0
 11
212.636802
 21
8.737701
 31
0.0
  0
LINE
  8
RAAMI
 10
213.826802
 20
3.137701
 30
0.0
 11
214.946696
 21
3.137701
 31
0.0
  0
LINE
  8
RAAMI
 10
213.826802
 20
8.737701
 30
0.0
 11
213.826802
 21
5.377701
 31
0.0
  0
LINE
  8
RAAMI
 10
213.546802
 20
8.737701
 30
0.0
 11
213.546802
 21
5.377701
 31
0.0
  0
LINE
  8
RAAMI
 10
214.736802
 20
8.737701
 30
0.0
 11
213.826802
 21
8.737701
 31
0.0
  0
LINE
  8
RAAMI
 10
214.9479
 20
3.134565
 30
0.0
 11
215.436802
 21
1.737701
 31
0.0
  0
LINE
  8
RAAMI
 10
214.736802
 20
8.737701
 30
0.0
 11
215.913155
 21
5.376693
 31
0.0
  0
LINE
  8
RAAMI
 10
212.425592
 20
3.134244
 30
0.0
 11
211.936802
 21
1.737701
 31
0.0
  0
LINE
  8
RAAMI
 10
212.425589
 20
3.137701
 30
0.0
 11
213.546802
 21
3.137701
 31
0.0
  0
LINE
  8
RAAMI
 10
212.636802
 20
8.737701
 30
0.0
 11
211.459274
 21
5.373336
 31
0.0
  0
LINE
  8
RAAMI
 10
215.436802
 20
1.737701
 30
0.0
 11
217.186802
 21
1.737701
 31
0.0
  0
LINE
  8
RAAMI
 10
210.186802
 20
1.737701
 30
0.0
 11
211.936802
 21
1.737701
 31
0.0
  0
LINE
  8
OHUT
 10
369.736802
 20
9.737701
 30
0.0
 11
369.736802
 21
0.237701
 31
0.0
  0
TEXT
  8
RAAMI
 10
371.236802
 20
7.237701
 30
0.0
 40
1.4
  1
PAINOS  REVISION
  7
ROMANS
  0
LINE
  8
OHUT
 10
349.736802
 20
9.737701
 30
0.0
 11
349.736802
 21
18.237701
 31
0.0
  0
TEXT
  8
RAAMI
 10
309.236802
 20
7.237701
 30
0.0
 40
1.4
  1
PIIRUSTUS NO  DRAWING NR
  7
ROMANS
  0
TEXT
  8
RAAMI
 10
309.236802
 20
15.737701
 30
0.0
 40
1.4
  1
KOODI  CODE
  7
ROMANS
  0
TEXT
  8
RAAMI
 10
309.236802
 20
32.737701
 30
0.0
 40
1.4
  1
NIMITYS  NAME
  7
ROMANS
  0
TEXT
  8
RAAMI
 10
259.236802
 20
15.737701
 30
0.0
 40
1.4
  1
SUHDE  SCALE
  7
ROMANS
  0
TEXT
  8
RAAMI
 10
259.236802
 20
23.737701
 30
0.0
 40
1.4
  1
TOLERANSSIT  TOLERANCES
  7
ROMANS
  0
TEXT
  8
RAAMI
 10
259.236802
 20
32.737701
 30
0.0
 40
1.4
  1
LIITTYY  CONCERNING
  7
ROMANS
  0
LINE
  8
OHUT
 10
307.236802
 20
0.237701
 30
0.0
 11
307.236802
 21
35.237701
 31
0.0
  0
TEXT
  8
RAAMI
 10
209.979637
 20
15.704368
 30
0.0
 40
1.4
  1
HYVÄKSYI  APPROVED
  7
ROMANS
  0
TEXT
  8
RAAMI
 10
210.236802
 20
23.971035
 30
0.0
 40
1.4
  1
TARKASTI  CHECKED
  7
ROMANS
  0
LINE
  8
PAKSU
 10
209.236802
 20
35.237701
 30
0.0
 11
392.236802
 21
35.237701
 31
0.0
  0
LINE
  8
OHUT
 10
209.236802
 20
26.737701
 30
0.0
 11
307.236802
 21
26.737701
 31
0.0
  0
LINE
  8
OHUT
 10
209.236802
 20
9.737701
 30
0.0
 11
392.236802
 21
9.737701
 31
0.0
  0
LINE
  8
OHUT
 10
209.236802
 20
18.237701
 30
0.0
 11
392.236802
 21
18.237701
 31
0.0
  0
LINE
  8
PAKSU
 10
392.236802
 20
0.237701
 30
0.0
 11
392.236802
 21
35.237701
 31
0.0
  0
LINE
  8
PAKSU
 10
209.236802
 20
0.237701
 30
0.0
 11
209.236802
 21
35.237701
 31
0.0
  0
LINE
  8
PAKSU
 10
209.236802
 20
0.237701
 30
0.0
 11
392.236802
 21
0.237701
 31
0.0
  0
LINE
  8
RAAMI
 10
18.236802
 20
0.237701
 30
0.0
 11
0.236802
 21
0.237701
 31
0.0
  0
LINE
  8
PAKSU
 10
0.236802
 20
262.737701
 30
0.0
 11
392.236802
 21
262.737701
 31
0.0
  0
TEXT
  8
RAAMI
  6
DASHED
 10
292.216898
 20
11.813061
 30
0.0
 40
3.0
  1
A3
  7
GREEKS
  0
ENDBLK
  8
0
  0
BLOCK
  8
0
  2
*X14
 70
    65
 10
0.0
 20
0.0
 30
0.0
  3
*X
  0
LINE
  8
0
 62
     0
 10
2.284499
 20
6.52714
 30
0.0
 11
4.8
 21
9.042641
 31
0.0
  0
LINE
  8
0
 62
     0
 10
2.379686
 20
6.799104
 30
0.0
 11
4.8
 21
9.219417
 31
0.0
  0
LINE
  8
0
 62
     0
 10
2.474874
 20
7.071068
 30
0.0
 11
4.8
 21
9.396194
 31
0.0
  0
LINE
  8
0
 62
     0
 10
2.570061
 20
7.343032
 30
0.0
 11
4.8
 21
9.572971
 31
0.0
  0
LINE
  8
0
 62
     0
 10
2.665249
 20
7.614996
 30
0.0
 11
4.8
 21
9.749747
 31
0.0
  0
LINE
  8
0
 62
     0
 10
2.760436
 20
7.88696
 30
0.0
 11
4.8
 21
9.926524
 31
0.0
  0
LINE
  8
0
 62
     0
 10
2.855624
 20
8.158924
 30
0.0
 11
4.696699
 21
10.0
 31
0.0
  0
LINE
  8
0
 62
     0
 10
2.950811
 20
8.430889
 30
0.0
 11
4.519922
 21
10.0
 31
0.0
  0
LINE
  8
0
 62
     0
 10
3.045998
 20
8.702853
 30
0.0
 11
4.343146
 21
10.0
 31
0.0
  0
LINE
  8
0
 62
     0
 10
3.141186
 20
8.974817
 30
0.0
 11
4.166369
 21
10.0
 31
0.0
  0
LINE
  8
0
 62
     0
 10
3.236373
 20
9.246781
 30
0.0
 11
3.989592
 21
10.0
 31
0.0
  0
LINE
  8
0
 62
     0
 10
3.331561
 20
9.518745
 30
0.0
 11
3.812816
 21
10.0
 31
0.0
  0
LINE
  8
0
 62
     0
 10
3.426748
 20
9.790709
 30
0.0
 11
3.636039
 21
10.0
 31
0.0
  0
LINE
  8
0
 62
     0
 10
2.189311
 20
6.255175
 30
0.0
 11
4.8
 21
8.865864
 31
0.0
  0
LINE
  8
0
 62
     0
 10
2.094124
 20
5.983211
 30
0.0
 11
4.8
 21
8.689087
 31
0.0
  0
LINE
  8
0
 62
     0
 10
1.998936
 20
5.711247
 30
0.0
 11
4.8
 21
8.512311
 31
0.0
  0
LINE
  8
0
 62
     0
 10
1.903749
 20
5.439283
 30
0.0
 11
4.8
 21
8.335534
 31
0.0
  0
LINE
  8
0
 62
     0
 10
1.841243
 20
5.2
 30
0.0
 11
4.8
 21
8.158757
 31
0.0
  0
LINE
  8
0
 62
     0
 10
2.018019
 20
5.2
 30
0.0
 11
4.8
 21
7.981981
 31
0.0
  0
LINE
  8
0
 62
     0
 10
2.194796
 20
5.2
 30
0.0
 11
4.8
 21
7.805204
 31
0.0
  0
LINE
  8
0
 62
     0
 10
2.371573
 20
5.2
 30
0.0
 11
4.8
 21
7.628427
 31
0.0
  0
LINE
  8
0
 62
     0
 10
2.54835
 20
5.2
 30
0.0
 11
4.8
 21
7.45165
 31
0.0
  0
LINE
  8
0
 62
     0
 10
2.725126
 20
5.2
 30
0.0
 11
4.8
 21
7.274874
 31
0.0
  0
LINE
  8
0
 62
     0
 10
2.901903
 20
5.2
 30
0.0
 11
4.8
 21
7.098097
 31
0.0
  0
LINE
  8
0
 62
     0
 10
3.07868
 20
5.2
 30
0.0
 11
4.8
 21
6.92132
 31
0.0
  0
LINE
  8
0
 62
     0
 10
3.255456
 20
5.2
 30
0.0
 11
4.8
 21
6.744544
 31
0.0
  0
LINE
  8
0
 62
     0
 10
3.432233
 20
5.2
 30
0.0
 11
4.8
 21
6.567767
 31
0.0
  0
LINE
  8
0
 62
     0
 10
3.60901
 20
5.2
 30
0.0
 11
4.8
 21
6.39099
 31
0.0
  0
LINE
  8
0
 62
     0
 10
3.785786
 20
5.2
 30
0.0
 11
4.8
 21
6.214214
 31
0.0
  0
LINE
  8
0
 62
     0
 10
3.962563
 20
5.2
 30
0.0
 11
4.8
 21
6.037437
 31
0.0
  0
LINE
  8
0
 62
     0
 10
4.13934
 20
5.2
 30
0.0
 11
4.8
 21
5.86066
 31
0.0
  0
LINE
  8
0
 62
     0
 10
4.316117
 20
5.2
 30
0.0
 11
4.8
 21
5.683883
 31
0.0
  0
LINE
  8
0
 62
     0
 10
4.492893
 20
5.2
 30
0.0
 11
4.8
 21
5.507107
 31
0.0
  0
LINE
  8
0
 62
     0
 10
4.66967
 20
5.2
 30
0.0
 11
4.8
 21
5.33033
 31
0.0
  0
ENDBLK
  8
0
  0
BLOCK
  8
0
  2
*X15
 70
    65
 10
0.0
 20
0.0
 30
0.0
  3
*X
  0
LINE
  8
0
 62
     0
 10
5.2
 20
6.083883
 30
0.0
 11
7.178252
 21
8.062136
 31
0.0
  0
LINE
  8
0
 62
     0
 10
5.2
 20
6.26066
 30
0.0
 11
7.132421
 21
8.193082
 31
0.0
  0
LINE
  8
0
 62
     0
 10
5.2
 20
6.437437
 30
0.0
 11
7.08659
 21
8.324027
 31
0.0
  0
LINE
  8
0
 62
     0
 10
5.2
 20
6.614214
 30
0.0
 11
7.040759
 21
8.454973
 31
0.0
  0
LINE
  8
0
 62
     0
 10
5.2
 20
6.79099
 30
0.0
 11
6.994928
 21
8.585919
 31
0.0
  0
LINE
  8
0
 62
     0
 10
5.2
 20
6.967767
 30
0.0
 11
6.949097
 21
8.716864
 31
0.0
  0
LINE
  8
0
 62
     0
 10
5.2
 20
7.144544
 30
0.0
 11
6.903266
 21
8.84781
 31
0.0
  0
LINE
  8
0
 62
     0
 10
5.2
 20
7.32132
 30
0.0
 11
6.857435
 21
8.978756
 31
0.0
  0
LINE
  8
0
 62
     0
 10
5.2
 20
7.498097
 30
0.0
 11
6.811604
 21
9.109702
 31
0.0
  0
LINE
  8
0
 62
     0
 10
5.2
 20
7.674874
 30
0.0
 11
6.765773
 21
9.240647
 31
0.0
  0
LINE
  8
0
 62
     0
 10
5.2
 20
7.85165
 30
0.0
 11
6.719942
 21
9.371593
 31
0.0
  0
LINE
  8
0
 62
     0
 10
5.2
 20
8.028427
 30
0.0
 11
6.674111
 21
9.502539
 31
0.0
  0
LINE
  8
0
 62
     0
 10
5.2
 20
8.205204
 30
0.0
 11
6.62828
 21
9.633484
 31
0.0
  0
LINE
  8
0
 62
     0
 10
5.2
 20
8.381981
 30
0.0
 11
6.582449
 21
9.76443
 31
0.0
  0
LINE
  8
0
 62
     0
 10
5.2
 20
8.558757
 30
0.0
 11
6.536619
 21
9.895376
 31
0.0
  0
LINE
  8
0
 62
     0
 10
5.2
 20
8.735534
 30
0.0
 11
6.464466
 21
10.0
 31
0.0
  0
LINE
  8
0
 62
     0
 10
5.2
 20
8.912311
 30
0.0
 11
6.287689
 21
10.0
 31
0.0
  0
LINE
  8
0
 62
     0
 10
5.2
 20
9.089087
 30
0.0
 11
6.110913
 21
10.0
 31
0.0
  0
LINE
  8
0
 62
     0
 10
5.2
 20
9.265864
 30
0.0
 11
5.934136
 21
10.0
 31
0.0
  0
LINE
  8
0
 62
     0
 10
5.2
 20
9.442641
 30
0.0
 11
5.757359
 21
10.0
 31
0.0
  0
LINE
  8
0
 62
     0
 10
5.2
 20
9.619417
 30
0.0
 11
5.580583
 21
10.0
 31
0.0
  0
LINE
  8
0
 62
     0
 10
5.2
 20
9.796194
 30
0.0
 11
5.403806
 21
10.0
 31
0.0
  0
LINE
  8
0
 62
     0
 10
5.2
 20
9.972971
 30
0.0
 11
5.227029
 21
10.0
 31
0.0
  0
LINE
  8
0
 62
     0
 10
5.2
 20
5.907107
 30
0.0
 11
7.224083
 21
7.93119
 31
0.0
  0
LINE
  8
0
 62
     0
 10
5.2
 20
5.73033
 30
0.0
 11
7.269914
 21
7.800245
 31
0.0
  0
LINE
  8
0
 62
     0
 10
5.2
 20
5.553553
 30
0.0
 11
7.315745
 21
7.669299
 31
0.0
  0
LINE
  8
0
 62
     0
 10
5.2
 20
5.376777
 30
0.0
 11
7.361576
 21
7.538353
 31
0.0
  0
LINE
  8
0
 62
     0
 10
5.2
 20
5.2
 30
0.0
 11
7.407407
 21
7.407407
 31
0.0
  0
LINE
  8
0
 62
     0
 10
5.376777
 20
5.2
 30
0.0
 11
7.453238
 21
7.276462
 31
0.0
  0
LINE
  8
0
 62
     0
 10
5.553553
 20
5.2
 30
0.0
 11
7.499069
 21
7.145516
 31
0.0
  0
LINE
  8
0
 62
     0
 10
5.73033
 20
5.2
 30
0.0
 11
7.5449
 21
7.01457
 31
0.0
  0
LINE
  8
0
 62
     0
 10
5.907107
 20
5.2
 30
0.0
 11
7.590731
 21
6.883625
 31
0.0
  0
LINE
  8
0
 62
     0
 10
6.083883
 20
5.2
 30
0.0
 11
7.636562
 21
6.752679
 31
0.0
  0
LINE
  8
0
 62
     0
 10
6.26066
 20
5.2
 30
0.0
 11
7.682393
 21
6.621733
 31
0.0
  0
LINE
  8
0
 62
     0
 10
6.437437
 20
5.2
 30
0.0
 11
7.728224
 21
6.490788
 31
0.0
  0
LINE
  8
0
 62
     0
 10
6.614214
 20
5.2
 30
0.0
 11
7.774055
 21
6.359842
 31
0.0
  0
LINE
  8
0
 62
     0
 10
6.79099
 20
5.2
 30
0.0
 11
7.819886
 21
6.228896
 31
0.0
  0
LINE
  8
0
 62
     0
 10
6.967767
 20
5.2
 30
0.0
 11
7.865717
 21
6.09795
 31
0.0
  0
LINE
  8
0
 62
     0
 10
7.144544
 20
5.2
 30
0.0
 11
7.911548
 21
5.967005
 31
0.0
  0
LINE
  8
0
 62
     0
 10
7.32132
 20
5.2
 30
0.0
 11
7.957379
 21
5.836059
 31
0.0
  0
LINE
  8
0
 62
     0
 10
7.498097
 20
5.2
 30
0.0
 11
8.00321
 21
5.705113
 31
0.0
  0
LINE
  8
0
 62
     0
 10
7.674874
 20
5.2
 30
0.0
 11
8.049041
 21
5.574168
 31
0.0
  0
LINE
  8
0
 62
     0
 10
7.85165
 20
5.2
 30
0.0
 11
8.094872
 21
5.443222
 31
0.0
  0
LINE
  8
0
 62
     0
 10
8.028427
 20
5.2
 30
0.0
 11
8.140703
 21
5.312276
 31
0.0
  0
ENDBLK
  8
0
  0
BLOCK
  8
0
  2
*X16
 70
    65
 10
0.0
 20
0.0
 30
0.0
  3
*X
  0
LINE
  8
0
 62
     0
 10
0.0
 20
0.0
 30
0.0
 11
4.8
 21
4.8
 31
0.0
  0
LINE
  8
0
 62
     0
 10
0.095187
 20
0.271964
 30
0.0
 11
4.623223
 21
4.8
 31
0.0
  0
LINE
  8
0
 62
     0
 10
0.190375
 20
0.543928
 30
0.0
 11
4.446447
 21
4.8
 31
0.0
  0
LINE
  8
0
 62
     0
 10
0.285562
 20
0.815892
 30
0.0
 11
4.26967
 21
4.8
 31
0.0
  0
LINE
  8
0
 62
     0
 10
0.38075
 20
1.087857
 30
0.0
 11
4.092893
 21
4.8
 31
0.0
  0
LINE
  8
0
 62
     0
 10
0.475937
 20
1.359821
 30
0.0
 11
3.916117
 21
4.8
 31
0.0
  0
LINE
  8
0
 62
     0
 10
0.571125
 20
1.631785
 30
0.0
 11
3.73934
 21
4.8
 31
0.0
  0
LINE
  8
0
 62
     0
 10
0.666312
 20
1.903749
 30
0.0
 11
3.562563
 21
4.8
 31
0.0
  0
LINE
  8
0
 62
     0
 10
0.7615
 20
2.175713
 30
0.0
 11
3.385786
 21
4.8
 31
0.0
  0
LINE
  8
0
 62
     0
 10
0.856687
 20
2.447677
 30
0.0
 11
3.20901
 21
4.8
 31
0.0
  0
LINE
  8
0
 62
     0
 10
0.951875
 20
2.719641
 30
0.0
 11
3.032233
 21
4.8
 31
0.0
  0
LINE
  8
0
 62
     0
 10
1.047062
 20
2.991606
 30
0.0
 11
2.855456
 21
4.8
 31
0.0
  0
LINE
  8
0
 62
     0
 10
1.142249
 20
3.26357
 30
0.0
 11
2.67868
 21
4.8
 31
0.0
  0
LINE
  8
0
 62
     0
 10
1.237437
 20
3.535534
 30
0.0
 11
2.501903
 21
4.8
 31
0.0
  0
LINE
  8
0
 62
     0
 10
1.332624
 20
3.807498
 30
0.0
 11
2.325126
 21
4.8
 31
0.0
  0
LINE
  8
0
 62
     0
 10
1.427812
 20
4.079462
 30
0.0
 11
2.14835
 21
4.8
 31
0.0
  0
LINE
  8
0
 62
     0
 10
1.522999
 20
4.351426
 30
0.0
 11
1.971573
 21
4.8
 31
0.0
  0
LINE
  8
0
 62
     0
 10
1.618187
 20
4.62339
 30
0.0
 11
1.794796
 21
4.8
 31
0.0
  0
LINE
  8
0
 62
     0
 10
0.176777
 20
0.0
 30
0.0
 11
4.8
 21
4.623223
 31
0.0
  0
LINE
  8
0
 62
     0
 10
0.353553
 20
0.0
 30
0.0
 11
4.8
 21
4.446447
 31
0.0
  0
LINE
  8
0
 62
     0
 10
0.53033
 20
0.0
 30
0.0
 11
4.8
 21
4.26967
 31
0.0
  0
LINE
  8
0
 62
     0
 10
0.707107
 20
0.0
 30
0.0
 11
4.8
 21
4.092893
 31
0.0
  0
LINE
  8
0
 62
     0
 10
0.883883
 20
0.0
 30
0.0
 11
4.8
 21
3.916117
 31
0.0
  0
LINE
  8
0
 62
     0
 10
1.06066
 20
0.0
 30
0.0
 11
4.8
 21
3.73934
 31
0.0
  0
LINE
  8
0
 62
     0
 10
1.237437
 20
0.0
 30
0.0
 11
3.179842
 21
1.942405
 31
0.0
  0
LINE
  8
0
 62
     0
 10
3.237437
 20
2.0
 30
0.0
 11
4.8
 21
3.562563
 31
0.0
  0
LINE
  8
0
 62
     0
 10
1.414214
 20
0.0
 30
0.0
 11
3.084654
 21
1.670441
 31
0.0
  0
LINE
  8
0
 62
     0
 10
3.414214
 20
2.0
 30
0.0
 11
4.8
 21
3.385786
 31
0.0
  0
LINE
  8
0
 62
     0
 10
1.59099
 20
0.0
 30
0.0
 11
2.989467
 21
1.398477
 31
0.0
  0
LINE
  8
0
 62
     0
 10
3.59099
 20
2.0
 30
0.0
 11
4.8
 21
3.20901
 31
0.0
  0
LINE
  8
0
 62
     0
 10
1.767767
 20
0.0
 30
0.0
 11
2.894279
 21
1.126512
 31
0.0
  0
LINE
  8
0
 62
     0
 10
3.767767
 20
2.0
 30
0.0
 11
4.8
 21
3.032233
 31
0.0
  0
LINE
  8
0
 62
     0
 10
1.944544
 20
0.0
 30
0.0
 11
2.799092
 21
0.854548
 31
0.0
  0
LINE
  8
0
 62
     0
 10
3.944544
 20
2.0
 30
0.0
 11
4.8
 21
2.855456
 31
0.0
  0
LINE
  8
0
 62
     0
 10
2.12132
 20
0.0
 30
0.0
 11
2.703904
 21
0.582584
 31
0.0
  0
LINE
  8
0
 62
     0
 10
4.12132
 20
2.0
 30
0.0
 11
4.8
 21
2.67868
 31
0.0
  0
LINE
  8
0
 62
     0
 10
2.298097
 20
0.0
 30
0.0
 11
2.608717
 21
0.31062
 31
0.0
  0
LINE
  8
0
 62
     0
 10
4.298097
 20
2.0
 30
0.0
 11
4.8
 21
2.501903
 31
0.0
  0
LINE
  8
0
 62
     0
 10
2.474874
 20
0.0
 30
0.0
 11
2.51353
 21
0.038656
 31
0.0
  0
LINE
  8
0
 62
     0
 10
4.474874
 20
2.0
 30
0.0
 11
4.8
 21
2.325126
 31
0.0
  0
LINE
  8
0
 62
     0
 10
4.65165
 20
2.0
 30
0.0
 11
4.8
 21
2.14835
 31
0.0
  0
ENDBLK
  8
0
  0
BLOCK
  8
0
  2
*X17
 70
    65
 10
0.0
 20
0.0
 30
0.0
  3
*X
  0
LINE
  8
0
 62
     0
 10
6.884654
 20
1.75813
 30
0.0
 11
8.736506
 21
3.609982
 31
0.0
  0
LINE
  8
0
 62
     0
 10
6.838823
 20
1.889076
 30
0.0
 11
8.690675
 21
3.740928
 31
0.0
  0
LINE
  8
0
 62
     0
 10
6.772971
 20
2.0
 30
0.0
 11
8.644844
 21
3.871874
 31
0.0
  0
LINE
  8
0
 62
     0
 10
6.596194
 20
2.0
 30
0.0
 11
8.599013
 21
4.002819
 31
0.0
  0
LINE
  8
0
 62
     0
 10
6.419417
 20
2.0
 30
0.0
 11
8.553182
 21
4.133765
 31
0.0
  0
LINE
  8
0
 62
     0
 10
6.242641
 20
2.0
 30
0.0
 11
8.507351
 21
4.264711
 31
0.0
  0
LINE
  8
0
 62
     0
 10
6.065864
 20
2.0
 30
0.0
 11
8.46152
 21
4.395656
 31
0.0
  0
LINE
  8
0
 62
     0
 10
5.889087
 20
2.0
 30
0.0
 11
8.415689
 21
4.526602
 31
0.0
  0
LINE
  8
0
 62
     0
 10
5.712311
 20
2.0
 30
0.0
 11
8.369858
 21
4.657548
 31
0.0
  0
LINE
  8
0
 62
     0
 10
5.535534
 20
2.0
 30
0.0
 11
8.324027
 21
4.788493
 31
0.0
  0
LINE
  8
0
 62
     0
 10
5.358757
 20
2.0
 30
0.0
 11
8.158757
 21
4.8
 31
0.0
  0
LINE
  8
0
 62
     0
 10
5.2
 20
2.018019
 30
0.0
 11
7.981981
 21
4.8
 31
0.0
  0
LINE
  8
0
 62
     0
 10
5.2
 20
2.194796
 30
0.0
 11
7.805204
 21
4.8
 31
0.0
  0
LINE
  8
0
 62
     0
 10
5.2
 20
2.371573
 30
0.0
 11
7.628427
 21
4.8
 31
0.0
  0
LINE
  8
0
 62
     0
 10
5.2
 20
2.54835
 30
0.0
 11
7.45165
 21
4.8
 31
0.0
  0
LINE
  8
0
 62
     0
 10
5.2
 20
2.725126
 30
0.0
 11
7.274874
 21
4.8
 31
0.0
  0
LINE
  8
0
 62
     0
 10
5.2
 20
2.901903
 30
0.0
 11
7.098097
 21
4.8
 31
0.0
  0
LINE
  8
0
 62
     0
 10
5.2
 20
3.07868
 30
0.0
 11
6.92132
 21
4.8
 31
0.0
  0
LINE
  8
0
 62
     0
 10
5.2
 20
3.255456
 30
0.0
 11
6.744544
 21
4.8
 31
0.0
  0
LINE
  8
0
 62
     0
 10
5.2
 20
3.432233
 30
0.0
 11
6.567767
 21
4.8
 31
0.0
  0
LINE
  8
0
 62
     0
 10
5.2
 20
3.60901
 30
0.0
 11
6.39099
 21
4.8
 31
0.0
  0
LINE
  8
0
 62
     0
 10
5.2
 20
3.785786
 30
0.0
 11
6.214214
 21
4.8
 31
0.0
  0
LINE
  8
0
 62
     0
 10
5.2
 20
3.962563
 30
0.0
 11
6.037437
 21
4.8
 31
0.0
  0
LINE
  8
0
 62
     0
 10
5.2
 20
4.13934
 30
0.0
 11
5.86066
 21
4.8
 31
0.0
  0
LINE
  8
0
 62
     0
 10
5.2
 20
4.316117
 30
0.0
 11
5.683883
 21
4.8
 31
0.0
  0
LINE
  8
0
 62
     0
 10
5.2
 20
4.492893
 30
0.0
 11
5.507107
 21
4.8
 31
0.0
  0
LINE
  8
0
 62
     0
 10
5.2
 20
4.66967
 30
0.0
 11
5.33033
 21
4.8
 31
0.0
  0
LINE
  8
0
 62
     0
 10
6.930485
 20
1.627185
 30
0.0
 11
8.782337
 21
3.479036
 31
0.0
  0
LINE
  8
0
 62
     0
 10
6.976316
 20
1.496239
 30
0.0
 11
8.828168
 21
3.348091
 31
0.0
  0
LINE
  8
0
 62
     0
 10
7.022147
 20
1.365293
 30
0.0
 11
8.873999
 21
3.217145
 31
0.0
  0
LINE
  8
0
 62
     0
 10
7.067978
 20
1.234347
 30
0.0
 11
8.91983
 21
3.086199
 31
0.0
  0
LINE
  8
0
 62
     0
 10
7.113809
 20
1.103402
 30
0.0
 11
8.965661
 21
2.955254
 31
0.0
  0
LINE
  8
0
 62
     0
 10
7.15964
 20
0.972456
 30
0.0
 11
9.011492
 21
2.824308
 31
0.0
  0
LINE
  8
0
 62
     0
 10
7.205471
 20
0.84151
 30
0.0
 11
9.057323
 21
2.693362
 31
0.0
  0
LINE
  8
0
 62
     0
 10
7.251302
 20
0.710565
 30
0.0
 11
9.103154
 21
2.562416
 31
0.0
  0
LINE
  8
0
 62
     0
 10
7.297133
 20
0.579619
 30
0.0
 11
9.148985
 21
2.431471
 31
0.0
  0
LINE
  8
0
 62
     0
 10
7.342964
 20
0.448673
 30
0.0
 11
9.194816
 21
2.300525
 31
0.0
  0
LINE
  8
0
 62
     0
 10
7.388795
 20
0.317728
 30
0.0
 11
9.240647
 21
2.169579
 31
0.0
  0
LINE
  8
0
 62
     0
 10
7.434626
 20
0.186782
 30
0.0
 11
9.286478
 21
2.038634
 31
0.0
  0
LINE
  8
0
 62
     0
 10
7.480457
 20
0.055836
 30
0.0
 11
9.332309
 21
1.907688
 31
0.0
  0
LINE
  8
0
 62
     0
 10
7.601398
 20
0.0
 30
0.0
 11
9.37814
 21
1.776742
 31
0.0
  0
LINE
  8
0
 62
     0
 10
7.778175
 20
0.0
 30
0.0
 11
9.423971
 21
1.645797
 31
0.0
  0
LINE
  8
0
 62
     0
 10
7.954951
 20
0.0
 30
0.0
 11
9.469802
 21
1.514851
 31
0.0
  0
LINE
  8
0
 62
     0
 10
8.131728
 20
0.0
 30
0.0
 11
9.515633
 21
1.383905
 31
0.0
  0
LINE
  8
0
 62
     0
 10
8.308505
 20
0.0
 30
0.0
 11
9.561464
 21
1.252959
 31
0.0
  0
LINE
  8
0
 62
     0
 10
8.485281
 20
0.0
 30
0.0
 11
9.607295
 21
1.122014
 31
0.0
  0
LINE
  8
0
 62
     0
 10
8.662058
 20
0.0
 30
0.0
 11
9.653126
 21
0.991068
 31
0.0
  0
LINE
  8
0
 62
     0
 10
8.838835
 20
0.0
 30
0.0
 11
9.698957
 21
0.860122
 31
0.0
  0
LINE
  8
0
 62
     0
 10
9.015611
 20
0.0
 30
0.0
 11
9.744788
 21
0.729177
 31
0.0
  0
LINE
  8
0
 62
     0
 10
9.192388
 20
0.0
 30
0.0
 11
9.790619
 21
0.598231
 31
0.0
  0
LINE
  8
0
 62
     0
 10
9.369165
 20
0.0
 30
0.0
 11
9.83645
 21
0.467285
 31
0.0
  0
LINE
  8
0
 62
     0
 10
9.545942
 20
0.0
 30
0.0
 11
9.882281
 21
0.33634
 31
0.0
  0
LINE
  8
0
 62
     0
 10
9.722718
 20
0.0
 30
0.0
 11
9.928112
 21
0.205394
 31
0.0
  0
LINE
  8
0
 62
     0
 10
9.899495
 20
0.0
 30
0.0
 11
9.973943
 21
0.074448
 31
0.0
  0
ENDBLK
  8
0
  0
BLOCK
  8
0
  2
*X18
 70
    65
 10
0.0
 20
0.0
 30
0.0
  3
*X
  0
LINE
  8
0
 62
     0
 10
10.7
 20
6.280583
 30
0.0
 11
13.5
 21
9.080583
 31
0.0
  0
LINE
  8
0
 62
     0
 10
10.7
 20
6.457359
 30
0.0
 11
13.5
 21
9.257359
 31
0.0
  0
LINE
  8
0
 62
     0
 10
10.7
 20
6.634136
 30
0.0
 11
13.5
 21
9.434136
 31
0.0
  0
LINE
  8
0
 62
     0
 10
10.7
 20
6.810913
 30
0.0
 11
13.5
 21
9.610913
 31
0.0
  0
LINE
  8
0
 62
     0
 10
10.7
 20
6.987689
 30
0.0
 11
13.5
 21
9.787689
 31
0.0
  0
LINE
  8
0
 62
     0
 10
10.7
 20
7.164466
 30
0.0
 11
13.5
 21
9.964466
 31
0.0
  0
LINE
  8
0
 62
     0
 10
10.7
 20
7.341243
 30
0.0
 11
13.358757
 21
10.0
 31
0.0
  0
LINE
  8
0
 62
     0
 10
10.7
 20
7.518019
 30
0.0
 11
13.181981
 21
10.0
 31
0.0
  0
LINE
  8
0
 62
     0
 10
10.7
 20
7.694796
 30
0.0
 11
13.005204
 21
10.0
 31
0.0
  0
LINE
  8
0
 62
     0
 10
10.7
 20
7.871573
 30
0.0
 11
12.828427
 21
10.0
 31
0.0
  0
LINE
  8
0
 62
     0
 10
10.7
 20
8.04835
 30
0.0
 11
12.65165
 21
10.0
 31
0.0
  0
LINE
  8
0
 62
     0
 10
10.7
 20
8.225126
 30
0.0
 11
12.474874
 21
10.0
 31
0.0
  0
LINE
  8
0
 62
     0
 10
10.7
 20
8.401903
 30
0.0
 11
12.298097
 21
10.0
 31
0.0
  0
LINE
  8
0
 62
     0
 10
10.7
 20
8.57868
 30
0.0
 11
12.12132
 21
10.0
 31
0.0
  0
LINE
  8
0
 62
     0
 10
10.7
 20
8.755456
 30
0.0
 11
11.944544
 21
10.0
 31
0.0
  0
LINE
  8
0
 62
     0
 10
10.7
 20
8.932233
 30
0.0
 11
11.767767
 21
10.0
 31
0.0
  0
LINE
  8
0
 62
     0
 10
10.7
 20
9.10901
 30
0.0
 11
11.59099
 21
10.0
 31
0.0
  0
LINE
  8
0
 62
     0
 10
10.7
 20
9.285786
 30
0.0
 11
11.414214
 21
10.0
 31
0.0
  0
LINE
  8
0
 62
     0
 10
10.7
 20
9.462563
 30
0.0
 11
11.237437
 21
10.0
 31
0.0
  0
LINE
  8
0
 62
     0
 10
10.7
 20
9.63934
 30
0.0
 11
11.06066
 21
10.0
 31
0.0
  0
LINE
  8
0
 62
     0
 10
10.7
 20
9.816117
 30
0.0
 11
10.883883
 21
10.0
 31
0.0
  0
LINE
  8
0
 62
     0
 10
10.7
 20
9.992893
 30
0.0
 11
10.707107
 21
10.0
 31
0.0
  0
LINE
  8
0
 62
     0
 10
10.7
 20
6.103806
 30
0.0
 11
13.5
 21
8.903806
 31
0.0
  0
LINE
  8
0
 62
     0
 10
10.7
 20
5.927029
 30
0.0
 11
13.5
 21
8.727029
 31
0.0
  0
LINE
  8
0
 62
     0
 10
10.7
 20
5.750253
 30
0.0
 11
13.5
 21
8.550253
 31
0.0
  0
LINE
  8
0
 62
     0
 10
10.7
 20
5.573476
 30
0.0
 11
13.5
 21
8.373476
 31
0.0
  0
LINE
  8
0
 62
     0
 10
10.7
 20
5.396699
 30
0.0
 11
13.5
 21
8.196699
 31
0.0
  0
LINE
  8
0
 62
     0
 10
10.7
 20
5.219922
 30
0.0
 11
13.5
 21
8.019922
 31
0.0
  0
LINE
  8
0
 62
     0
 10
10.856854
 20
5.2
 30
0.0
 11
13.5
 21
7.843146
 31
0.0
  0
LINE
  8
0
 62
     0
 10
11.033631
 20
5.2
 30
0.0
 11
13.5
 21
7.666369
 31
0.0
  0
LINE
  8
0
 62
     0
 10
11.210408
 20
5.2
 30
0.0
 11
13.5
 21
7.489592
 31
0.0
  0
LINE
  8
0
 62
     0
 10
11.387184
 20
5.2
 30
0.0
 11
13.5
 21
7.312816
 31
0.0
  0
LINE
  8
0
 62
     0
 10
11.563961
 20
5.2
 30
0.0
 11
13.5
 21
7.136039
 31
0.0
  0
LINE
  8
0
 62
     0
 10
11.740738
 20
5.2
 30
0.0
 11
13.5
 21
6.959262
 31
0.0
  0
LINE
  8
0
 62
     0
 10
11.917514
 20
5.2
 30
0.0
 11
13.5
 21
6.782486
 31
0.0
  0
LINE
  8
0
 62
     0
 10
12.094291
 20
5.2
 30
0.0
 11
13.5
 21
6.605709
 31
0.0
  0
LINE
  8
0
 62
     0
 10
12.271068
 20
5.2
 30
0.0
 11
13.5
 21
6.428932
 31
0.0
  0
LINE
  8
0
 62
     0
 10
12.447845
 20
5.2
 30
0.0
 11
13.5
 21
6.252155
 31
0.0
  0
LINE
  8
0
 62
     0
 10
12.624621
 20
5.2
 30
0.0
 11
13.5
 21
6.075379
 31
0.0
  0
LINE
  8
0
 62
     0
 10
12.801398
 20
5.2
 30
0.0
 11
13.5
 21
5.898602
 31
0.0
  0
LINE
  8
0
 62
     0
 10
12.978175
 20
5.2
 30
0.0
 11
13.5
 21
5.721825
 31
0.0
  0
LINE
  8
0
 62
     0
 10
13.154951
 20
5.2
 30
0.0
 11
13.5
 21
5.545049
 31
0.0
  0
LINE
  8
0
 62
     0
 10
13.331728
 20
5.2
 30
0.0
 11
13.5
 21
5.368272
 31
0.0
  0
ENDBLK
  8
0
  0
BLOCK
  8
0
  2
*X19
 70
    65
 10
0.0
 20
0.0
 30
0.0
  3
*X
  0
LINE
  8
0
 62
     0
 10
10.7
 20
1.154058
 30
0.0
 11
13.5
 21
3.954058
 31
0.0
  0
LINE
  8
0
 62
     0
 10
10.7
 20
1.330835
 30
0.0
 11
13.5
 21
4.130835
 31
0.0
  0
LINE
  8
0
 62
     0
 10
10.7
 20
1.507612
 30
0.0
 11
13.5
 21
4.307612
 31
0.0
  0
LINE
  8
0
 62
     0
 10
10.7
 20
1.684389
 30
0.0
 11
13.5
 21
4.484389
 31
0.0
  0
LINE
  8
0
 62
     0
 10
10.7
 20
1.861165
 30
0.0
 11
13.5
 21
4.661165
 31
0.0
  0
LINE
  8
0
 62
     0
 10
10.7
 20
2.037942
 30
0.0
 11
13.462058
 21
4.8
 31
0.0
  0
LINE
  8
0
 62
     0
 10
10.7
 20
2.214719
 30
0.0
 11
13.285281
 21
4.8
 31
0.0
  0
LINE
  8
0
 62
     0
 10
10.7
 20
2.391495
 30
0.0
 11
13.108505
 21
4.8
 31
0.0
  0
LINE
  8
0
 62
     0
 10
10.7
 20
2.568272
 30
0.0
 11
12.931728
 21
4.8
 31
0.0
  0
LINE
  8
0
 62
     0
 10
10.7
 20
2.745049
 30
0.0
 11
12.754951
 21
4.8
 31
0.0
  0
LINE
  8
0
 62
     0
 10
10.7
 20
2.921825
 30
0.0
 11
12.578175
 21
4.8
 31
0.0
  0
LINE
  8
0
 62
     0
 10
10.7
 20
3.098602
 30
0.0
 11
12.401398
 21
4.8
 31
0.0
  0
LINE
  8
0
 62
     0
 10
10.7
 20
3.275379
 30
0.0
 11
12.224621
 21
4.8
 31
0.0
  0
LINE
  8
0
 62
     0
 10
10.7
 20
3.452155
 30
0.0
 11
12.047845
 21
4.8
 31
0.0
  0
LINE
  8
0
 62
     0
 10
10.7
 20
3.628932
 30
0.0
 11
11.871068
 21
4.8
 31
0.0
  0
LINE
  8
0
 62
     0
 10
10.7
 20
3.805709
 30
0.0
 11
11.694291
 21
4.8
 31
0.0
  0
LINE
  8
0
 62
     0
 10
10.7
 20
3.982486
 30
0.0
 11
11.517514
 21
4.8
 31
0.0
  0
LINE
  8
0
 62
     0
 10
10.7
 20
4.159262
 30
0.0
 11
11.340738
 21
4.8
 31
0.0
  0
LINE
  8
0
 62
     0
 10
10.7
 20
4.336039
 30
0.0
 11
11.163961
 21
4.8
 31
0.0
  0
LINE
  8
0
 62
     0
 10
10.7
 20
4.512816
 30
0.0
 11
10.987184
 21
4.8
 31
0.0
  0
LINE
  8
0
 62
     0
 10
10.7
 20
4.689592
 30
0.0
 11
10.810408
 21
4.8
 31
0.0
  0
LINE
  8
0
 62
     0
 10
10.7
 20
0.977282
 30
0.0
 11
13.5
 21
3.777282
 31
0.0
  0
LINE
  8
0
 62
     0
 10
10.7
 20
0.800505
 30
0.0
 11
13.5
 21
3.600505
 31
0.0
  0
LINE
  8
0
 62
     0
 10
10.7
 20
0.623728
 30
0.0
 11
13.5
 21
3.423728
 31
0.0
  0
LINE
  8
0
 62
     0
 10
10.7
 20
0.446952
 30
0.0
 11
13.5
 21
3.246952
 31
0.0
  0
LINE
  8
0
 62
     0
 10
10.7
 20
0.270175
 30
0.0
 11
13.5
 21
3.070175
 31
0.0
  0
LINE
  8
0
 62
     0
 10
10.7
 20
0.093398
 30
0.0
 11
13.5
 21
2.893398
 31
0.0
  0
LINE
  8
0
 62
     0
 10
10.783378
 20
0.0
 30
0.0
 11
13.5
 21
2.716622
 31
0.0
  0
LINE
  8
0
 62
     0
 10
10.960155
 20
0.0
 30
0.0
 11
13.5
 21
2.539845
 31
0.0
  0
LINE
  8
0
 62
     0
 10
11.136932
 20
0.0
 30
0.0
 11
13.5
 21
2.363068
 31
0.0
  0
LINE
  8
0
 62
     0
 10
11.313708
 20
0.0
 30
0.0
 11
13.5
 21
2.186292
 31
0.0
  0
LINE
  8
0
 62
     0
 10
11.490485
 20
0.0
 30
0.0
 11
13.5
 21
2.009515
 31
0.0
  0
LINE
  8
0
 62
     0
 10
11.667262
 20
0.0
 30
0.0
 11
13.5
 21
1.832738
 31
0.0
  0
LINE
  8
0
 62
     0
 10
11.844039
 20
0.0
 30
0.0
 11
13.5
 21
1.655961
 31
0.0
  0
LINE
  8
0
 62
     0
 10
12.020815
 20
0.0
 30
0.0
 11
13.5
 21
1.479185
 31
0.0
  0
LINE
  8
0
 62
     0
 10
12.197592
 20
0.0
 30
0.0
 11
13.5
 21
1.302408
 31
0.0
  0
LINE
  8
0
 62
     0
 10
12.374369
 20
0.0
 30
0.0
 11
13.5
 21
1.125631
 31
0.0
  0
LINE
  8
0
 62
     0
 10
12.551145
 20
0.0
 30
0.0
 11
13.5
 21
0.948855
 31
0.0
  0
LINE
  8
0
 62
     0
 10
12.727922
 20
0.0
 30
0.0
 11
13.5
 21
0.772078
 31
0.0
  0
LINE
  8
0
 62
     0
 10
12.904699
 20
0.0
 30
0.0
 11
13.5
 21
0.595301
 31
0.0
  0
LINE
  8
0
 62
     0
 10
13.081475
 20
0.0
 30
0.0
 11
13.5
 21
0.418525
 31
0.0
  0
LINE
  8
0
 62
     0
 10
13.258252
 20
0.0
 30
0.0
 11
13.5
 21
0.241748
 31
0.0
  0
LINE
  8
0
 62
     0
 10
13.435029
 20
0.0
 30
0.0
 11
13.5
 21
0.064971
 31
0.0
  0
ENDBLK
  8
0
  0
BLOCK
  8
0
  2
*X20
 70
    65
 10
0.0
 20
0.0
 30
0.0
  3
*X
  0
LINE
  8
0
 62
     0
 10
13.9
 20
6.298602
 30
0.0
 11
16.582995
 21
8.981597
 31
0.0
  0
LINE
  8
0
 62
     0
 10
13.9
 20
6.475379
 30
0.0
 11
16.510503
 21
9.085882
 31
0.0
  0
LINE
  8
0
 62
     0
 10
13.9
 20
6.652155
 30
0.0
 11
16.432927
 21
9.185083
 31
0.0
  0
LINE
  8
0
 62
     0
 10
13.9
 20
6.828932
 30
0.0
 11
16.350372
 21
9.279304
 31
0.0
  0
LINE
  8
0
 62
     0
 10
13.9
 20
7.005709
 30
0.0
 11
16.262892
 21
9.368601
 31
0.0
  0
LINE
  8
0
 62
     0
 10
13.9
 20
7.182486
 30
0.0
 11
16.170495
 21
9.452981
 31
0.0
  0
LINE
  8
0
 62
     0
 10
13.9
 20
7.359262
 30
0.0
 11
16.073145
 21
9.532407
 31
0.0
  0
LINE
  8
0
 62
     0
 10
13.9
 20
7.536039
 30
0.0
 11
15.970755
 21
9.606794
 31
0.0
  0
LINE
  8
0
 62
     0
 10
13.9
 20
7.712816
 30
0.0
 11
15.863189
 21
9.676004
 31
0.0
  0
LINE
  8
0
 62
     0
 10
13.9
 20
7.889592
 30
0.0
 11
15.75025
 21
9.739843
 31
0.0
  0
LINE
  8
0
 62
     0
 10
13.9
 20
8.066369
 30
0.0
 11
15.631675
 21
9.798044
 31
0.0
  0
LINE
  8
0
 62
     0
 10
13.9
 20
8.243146
 30
0.0
 11
15.50711
 21
9.850256
 31
0.0
  0
LINE
  8
0
 62
     0
 10
13.9
 20
8.419922
 30
0.0
 11
15.376096
 21
9.896018
 31
0.0
  0
LINE
  8
0
 62
     0
 10
13.9
 20
8.596699
 30
0.0
 11
15.238027
 21
9.934726
 31
0.0
  0
LINE
  8
0
 62
     0
 10
13.9
 20
8.773476
 30
0.0
 11
15.092096
 21
9.965572
 31
0.0
  0
LINE
  8
0
 62
     0
 10
13.9
 20
8.950253
 30
0.0
 11
14.937209
 21
9.987461
 31
0.0
  0
LINE
  8
0
 62
     0
 10
13.9
 20
9.127029
 30
0.0
 11
14.771824
 21
9.998853
 31
0.0
  0
LINE
  8
0
 62
     0
 10
13.9
 20
9.303806
 30
0.0
 11
14.596193
 21
9.999999
 31
0.0
  0
LINE
  8
0
 62
     0
 10
13.9
 20
9.480583
 30
0.0
 11
14.419417
 21
9.999999
 31
0.0
  0
LINE
  8
0
 62
     0
 10
13.9
 20
9.657359
 30
0.0
 11
14.24264
 21
10.0
 31
0.0
  0
LINE
  8
0
 62
     0
 10
13.9
 20
9.834136
 30
0.0
 11
14.065864
 21
10.0
 31
0.0
  0
LINE
  8
0
 62
     0
 10
13.9
 20
6.121825
 30
0.0
 11
16.650245
 21
8.872071
 31
0.0
  0
LINE
  8
0
 62
     0
 10
13.9
 20
5.945049
 30
0.0
 11
16.712035
 21
8.757083
 31
0.0
  0
LINE
  8
0
 62
     0
 10
13.9
 20
5.768272
 30
0.0
 11
16.768067
 21
8.636339
 31
0.0
  0
LINE
  8
0
 62
     0
 10
13.9
 20
5.591495
 30
0.0
 11
16.817955
 21
8.509451
 31
0.0
  0
LINE
  8
0
 62
     0
 10
13.9
 20
5.414719
 30
0.0
 11
16.861189
 21
8.375908
 31
0.0
  0
LINE
  8
0
 62
     0
 10
13.9
 20
5.237942
 30
0.0
 11
16.897097
 21
8.235039
 31
0.0
  0
LINE
  8
0
 62
     0
 10
14.038835
 20
5.2
 30
0.0
 11
16.924779
 21
8.085944
 31
0.0
  0
LINE
  8
0
 62
     0
 10
14.215611
 20
5.2
 30
0.0
 11
16.942997
 21
7.927385
 31
0.0
  0
LINE
  8
0
 62
     0
 10
14.392388
 20
5.2
 30
0.0
 11
16.949987
 21
7.757599
 31
0.0
  0
LINE
  8
0
 62
     0
 10
14.569165
 20
5.2
 30
0.0
 11
16.943101
 21
7.573936
 31
0.0
  0
LINE
  8
0
 62
     0
 10
14.745942
 20
5.2
 30
0.0
 11
16.918037
 21
7.372095
 31
0.0
  0
LINE
  8
0
 62
     0
 10
14.922718
 20
5.2
 30
0.0
 11
16.866909
 21
7.144191
 31
0.0
  0
LINE
  8
0
 62
     0
 10
15.099495
 20
5.2
 30
0.0
 11
16.771715
 21
6.87222
 31
0.0
  0
LINE
  8
0
 62
     0
 10
15.276272
 20
5.2
 30
0.0
 11
15.847951
 21
5.77168
 31
0.0
  0
LINE
  8
0
 62
     0
 10
15.96673
 20
5.890458
 30
0.0
 11
16.559542
 21
6.48327
 31
0.0
  0
LINE
  8
0
 62
     0
 10
15.453048
 20
5.2
 30
0.0
 11
15.970661
 21
5.717613
 31
0.0
  0
LINE
  8
0
 62
     0
 10
15.629825
 20
5.2
 30
0.0
 11
16.088934
 21
5.659109
 31
0.0
  0
LINE
  8
0
 62
     0
 10
15.806602
 20
5.2
 30
0.0
 11
16.202964
 21
5.596363
 31
0.0
  0
LINE
  8
0
 62
     0
 10
15.983378
 20
5.2
 30
0.0
 11
16.312909
 21
5.529531
 31
0.0
  0
LINE
  8
0
 62
     0
 10
16.160155
 20
5.2
 30
0.0
 11
16.418895
 21
5.45874
 31
0.0
  0
LINE
  8
0
 62
     0
 10
16.336932
 20
5.2
 30
0.0
 11
16.521021
 21
5.384089
 31
0.0
  0
LINE
  8
0
 62
     0
 10
16.513708
 20
5.2
 30
0.0
 11
16.619363
 21
5.305655
 31
0.0
  0
LINE
  8
0
 62
     0
 10
16.690485
 20
5.2
 30
0.0
 11
16.713975
 21
5.22349
 31
0.0
  0
ENDBLK
  8
0
  0
BLOCK
  8
0
  2
*X21
 70
    65
 10
0.0
 20
0.0
 30
0.0
  3
*X
  0
LINE
  8
0
 62
     0
 10
13.9
 20
0.818525
 30
0.0
 11
17.39645
 21
4.314974
 31
0.0
  0
LINE
  8
0
 62
     0
 10
13.9
 20
0.995301
 30
0.0
 11
17.336354
 21
4.431655
 31
0.0
  0
LINE
  8
0
 62
     0
 10
13.9
 20
1.172078
 30
0.0
 11
17.272078
 21
4.544156
 31
0.0
  0
LINE
  8
0
 62
     0
 10
13.9
 20
1.348855
 30
0.0
 11
17.203766
 21
4.652621
 31
0.0
  0
LINE
  8
0
 62
     0
 10
13.9
 20
1.525631
 30
0.0
 11
17.131535
 21
4.757167
 31
0.0
  0
LINE
  8
0
 62
     0
 10
13.9
 20
1.702408
 30
0.0
 11
16.997592
 21
4.8
 31
0.0
  0
LINE
  8
0
 62
     0
 10
13.9
 20
1.879185
 30
0.0
 11
16.820815
 21
4.8
 31
0.0
  0
LINE
  8
0
 62
     0
 10
13.9
 20
2.055961
 30
0.0
 11
16.644039
 21
4.8
 31
0.0
  0
LINE
  8
0
 62
     0
 10
13.9
 20
2.232738
 30
0.0
 11
16.467262
 21
4.8
 31
0.0
  0
LINE
  8
0
 62
     0
 10
13.9
 20
2.409515
 30
0.0
 11
16.290485
 21
4.8
 31
0.0
  0
LINE
  8
0
 62
     0
 10
13.9
 20
2.586292
 30
0.0
 11
16.113708
 21
4.8
 31
0.0
  0
LINE
  8
0
 62
     0
 10
13.9
 20
2.763068
 30
0.0
 11
15.936932
 21
4.8
 31
0.0
  0
LINE
  8
0
 62
     0
 10
13.9
 20
2.939845
 30
0.0
 11
15.760155
 21
4.8
 31
0.0
  0
LINE
  8
0
 62
     0
 10
13.9
 20
3.116622
 30
0.0
 11
15.583378
 21
4.8
 31
0.0
  0
LINE
  8
0
 62
     0
 10
13.9
 20
3.293398
 30
0.0
 11
15.406602
 21
4.8
 31
0.0
  0
LINE
  8
0
 62
     0
 10
13.9
 20
3.470175
 30
0.0
 11
15.229825
 21
4.8
 31
0.0
  0
LINE
  8
0
 62
     0
 10
13.9
 20
3.646952
 30
0.0
 11
15.053048
 21
4.8
 31
0.0
  0
LINE
  8
0
 62
     0
 10
13.9
 20
3.823728
 30
0.0
 11
14.876272
 21
4.8
 31
0.0
  0
LINE
  8
0
 62
     0
 10
13.9
 20
4.000505
 30
0.0
 11
14.699495
 21
4.8
 31
0.0
  0
LINE
  8
0
 62
     0
 10
13.9
 20
4.177282
 30
0.0
 11
14.522718
 21
4.8
 31
0.0
  0
LINE
  8
0
 62
     0
 10
13.9
 20
4.354058
 30
0.0
 11
14.345942
 21
4.8
 31
0.0
  0
LINE
  8
0
 62
     0
 10
13.9
 20
4.530835
 30
0.0
 11
14.169165
 21
4.8
 31
0.0
  0
LINE
  8
0
 62
     0
 10
13.9
 20
4.707612
 30
0.0
 11
13.992388
 21
4.8
 31
0.0
  0
LINE
  8
0
 62
     0
 10
13.9
 20
0.641748
 30
0.0
 11
17.452185
 21
4.193933
 31
0.0
  0
LINE
  8
0
 62
     0
 10
13.9
 20
0.464971
 30
0.0
 11
17.503339
 21
4.068311
 31
0.0
  0
LINE
  8
0
 62
     0
 10
13.9
 20
0.288194
 30
0.0
 11
17.549642
 21
3.937837
 31
0.0
  0
LINE
  8
0
 62
     0
 10
13.9
 20
0.111418
 30
0.0
 11
17.590762
 21
3.80218
 31
0.0
  0
LINE
  8
0
 62
     0
 10
13.965359
 20
0.0
 30
0.0
 11
17.62629
 21
3.660931
 31
0.0
  0
LINE
  8
0
 62
     0
 10
14.142136
 20
0.000001
 30
0.0
 11
17.655713
 21
3.513577
 31
0.0
  0
LINE
  8
0
 62
     0
 10
14.318913
 20
0.000001
 30
0.0
 11
17.678385
 21
3.359473
 31
0.0
  0
LINE
  8
0
 62
     0
 10
14.49569
 20
0.000001
 30
0.0
 11
17.693473
 21
3.197784
 31
0.0
  0
LINE
  8
0
 62
     0
 10
14.672467
 20
0.000002
 30
0.0
 11
17.699875
 21
3.027409
 31
0.0
  0
LINE
  8
0
 62
     0
 10
14.853154
 20
0.003912
 30
0.0
 11
17.696088
 21
2.846846
 31
0.0
  0
LINE
  8
0
 62
     0
 10
15.046044
 20
0.020025
 30
0.0
 11
17.679975
 21
2.653956
 31
0.0
  0
LINE
  8
0
 62
     0
 10
15.254483
 20
0.051687
 30
0.0
 11
17.648313
 21
2.445517
 31
0.0
  0
LINE
  8
0
 62
     0
 10
15.483762
 20
0.10419
 30
0.0
 11
17.59581
 21
2.216238
 31
0.0
  0
LINE
  8
0
 62
     0
 10
15.743786
 20
0.187437
 30
0.0
 11
17.512563
 21
1.956214
 31
0.0
  0
LINE
  8
0
 62
     0
 10
16.058176
 20
0.32505
 30
0.0
 11
17.37495
 21
1.641824
 31
0.0
  0
LINE
  8
0
 62
     0
 10
16.54193
 20
0.632028
 30
0.0
 11
17.067972
 21
1.15807
 31
0.0
  0
ENDBLK
  8
0
  0
BLOCK
  8
0
  2
B63
 70
     0
 10
0.0
 20
0.0
 30
0.0
  3
B63
  0
LINE
  8
BASE
  6
CONTINUOUS
 10
10.740939
 20
0.0
 30
0.0
 11
15.0
 21
0.0
 31
0.0
  0
LINE
  8
BASE
  6
CONTINUOUS
 10
0.0
 20
0.0
 30
0.0
 11
5.0
 21
0.0
 31
0.0
  0
LINE
  8
BASE
  6
CONTINUOUS
 10
9.353436
 20
-0.361863
 30
0.0
 11
4.256076
 21
-3.214703
 31
0.0
  0
LINE
  8
BASE
  6
CONTINUOUS
 10
5.0
 20
-5.0
 30
0.0
 11
0.0
 21
-5.0
 31
0.0
  0
LINE
  8
BASE
  6
CONTINUOUS
 10
5.0
 20
-5.0
 30
0.0
 11
5.0
 21
-2.5
 31
0.0
  0
CIRCLE
  8
BASE
  6
CONTINUOUS
 10
10.0
 20
0.0
 30
0.0
 40
0.740939
  0
ENDBLK
  8
0
  0
BLOCK
  8
0
  2
B155
 70
     0
 10
0.0
 20
0.0
 30
0.0
  3
B155
  0
LINE
  8
0
  6
CONTINUOUS
 10
0.0
 20
0.0
 30
0.0
 11
0.0
 21
-1.35427
 31
0.0
  0
LINE
  8
0
  6
CONTINUOUS
 10
-1.210228
 20
-1.35427
 30
0.0
 11
-0.015887
 21
-1.35427
 31
0.0
  0
LINE
  8
0
  6
CONTINUOUS
 10
-0.015887
 20
-1.35427
 30
0.0
 11
1.178454
 21
-1.35427
 31
0.0
  0
LINE
  8
0
  6
CONTINUOUS
 10
-0.831823
 20
-1.833881
 30
0.0
 11
0.752749
 21
-1.833881
 31
0.0
  0
LINE
  8
0
  6
CONTINUOUS
 10
-0.500718
 20
-2.322055
 30
0.0
 11
0.386169
 21
-2.322055
 31
0.0
  0
ENDBLK
  8
0
  0
BLOCK
  8
0
  2
B400
 70
     0
 10
0.0
 20
0.0
 30
0.0
  3
B400
  0
POLYLINE
  8
0
  6
CONTINUOUS
 66
     1
 10
0.0
 20
0.0
 30
0.0
 70
     1
 40
0.5
 41
0.5
 71
     2
 72
   251
  0
VERTEX
  8
0
  6
CONTINUOUS
 10
24.5
 20
-44.810016
 30
0.0
 42
1.0
  0
VERTEX
  8
0
  6
CONTINUOUS
 10
25.5
 20
-44.810016
 30
0.0
 42
1.0
  0
SEQEND
  8
0
  6
CONTINUOUS
  0
POLYLINE
  8
0
  6
CONTINUOUS
 66
     1
 10
0.0
 20
0.0
 30
0.0
 70
     1
 40
0.5
 41
0.5
 71
     2
 72
   251
  0
VERTEX
  8
0
  6
CONTINUOUS
 10
24.5
 20
-24.810016
 30
0.0
 42
1.0
  0
VERTEX
  8
0
  6
CONTINUOUS
 10
25.5
 20
-24.810016
 30
0.0
 42
1.0
  0
SEQEND
  8
0
  6
CONTINUOUS
  0
POLYLINE
  8
0
  6
CONTINUOUS
 66
     1
 10
0.0
 20
0.0
 30
0.0
 70
     1
 40
0.5
 41
0.5
 71
     2
 72
   251
  0
VERTEX
  8
0
  6
CONTINUOUS
 10
32.0
 20
-52.5
 30
0.0
 42
1.0
  0
VERTEX
  8
0
  6
CONTINUOUS
 10
33.0
 20
-52.5
 30
0.0
 42
1.0
  0
SEQEND
  8
0
  6
CONTINUOUS
  0
POLYLINE
  8
0
  6
CONTINUOUS
 66
     1
 10
0.0
 20
0.0
 30
0.0
 70
     1
 40
0.5
 41
0.5
 71
     2
 72
   251
  0
VERTEX
  8
0
  6
CONTINUOUS
 10
24.5
 20
-50.0
 30
0.0
 42
1.0
  0
VERTEX
  8
0
  6
CONTINUOUS
 10
25.5
 20
-50.0
 30
0.0
 42
1.0
  0
SEQEND
  8
0
  6
CONTINUOUS
  0
POLYLINE
  8
0
  6
CONTINUOUS
 66
     1
 10
0.0
 20
0.0
 30
0.0
 70
     1
 40
0.5
 41
0.5
 71
     2
 72
   251
  0
VERTEX
  8
0
  6
CONTINUOUS
 10
9.5
 20
-50.0
 30
0.0
 42
1.0
  0
VERTEX
  8
0
  6
CONTINUOUS
 10
10.5
 20
-50.0
 30
0.0
 42
1.0
  0
SEQEND
  8
0
  6
CONTINUOUS
  0
POLYLINE
  8
0
  6
CONTINUOUS
 66
     1
 10
0.0
 20
0.0
 30
0.0
 70
     1
 40
0.5
 41
0.5
 71
     2
 72
   251
  0
VERTEX
  8
0
  6
CONTINUOUS
 10
9.5
 20
-30.0
 30
0.0
 42
1.0
  0
VERTEX
  8
0
  6
CONTINUOUS
 10
10.5
 20
-30.0
 30
0.0
 42
1.0
  0
SEQEND
  8
0
  6
CONTINUOUS
  0
POLYLINE
  8
0
  6
CONTINUOUS
 66
     1
 10
0.0
 20
0.0
 30
0.0
 70
     1
 40
0.5
 41
0.5
 71
     2
 72
   151
  0
VERTEX
  8
0
  6
CONTINUOUS
 10
82.0
 20
7.5
 30
0.0
 42
1.0
  0
VERTEX
  8
0
  6
CONTINUOUS
 10
83.0
 20
7.5
 30
0.0
 42
1.0
  0
SEQEND
  8
0
  6
CONTINUOUS
  0
POLYLINE
  8
0
  6
CONTINUOUS
 66
     1
 10
0.0
 20
0.0
 30
0.0
 70
     1
 40
0.5
 41
0.5
 71
     2
 72
   151
  0
VERTEX
  8
0
  6
CONTINUOUS
 10
72.0
 20
30.0
 30
0.0
 42
1.0
  0
VERTEX
  8
0
  6
CONTINUOUS
 10
73.0
 20
30.0
 30
0.0
 42
1.0
  0
SEQEND
  8
0
  6
CONTINUOUS
  0
POLYLINE
  8
0
  6
CONTINUOUS
 66
     1
 10
0.0
 20
0.0
 30
0.0
 70
     1
 40
0.5
 41
0.5
 71
     2
 72
   151
  0
VERTEX
  8
0
  6
CONTINUOUS
 10
64.5
 20
35.0
 30
0.0
 42
1.0
  0
VERTEX
  8
0
  6
CONTINUOUS
 10
65.5
 20
35.0
 30
0.0
 42
1.0
  0
SEQEND
  8
0
  6
CONTINUOUS
  0
POLYLINE
  8
0
  6
CONTINUOUS
 66
     1
 10
0.0
 20
0.0
 30
0.0
 70
     1
 40
0.5
 41
0.5
 71
     2
 72
   151
  0
VERTEX
  8
0
  6
CONTINUOUS
 10
57.0
 20
40.0
 30
0.0
 42
1.0
  0
VERTEX
  8
0
  6
CONTINUOUS
 10
58.0
 20
40.0
 30
0.0
 42
1.0
  0
SEQEND
  8
0
  6
CONTINUOUS
  0
POLYLINE
  8
0
  6
CONTINUOUS
 66
     1
 10
0.0
 20
0.0
 30
0.0
 70
     1
 40
0.5
 41
0.5
 71
     2
 72
   151
  0
VERTEX
  8
0
  6
CONTINUOUS
 10
39.5
 20
30.0
 30
0.0
 42
1.0
  0
VERTEX
  8
0
  6
CONTINUOUS
 10
40.5
 20
30.0
 30
0.0
 42
1.0
  0
SEQEND
  8
0
  6
CONTINUOUS
  0
POLYLINE
  8
0
  6
CONTINUOUS
 66
     1
 10
0.0
 20
0.0
 30
0.0
 70
     1
 40
0.5
 41
0.5
 71
     2
 72
   151
  0
VERTEX
  8
0
  6
CONTINUOUS
 10
34.5
 20
35.0
 30
0.0
 42
1.0
  0
VERTEX
  8
0
  6
CONTINUOUS
 10
35.5
 20
35.0
 30
0.0
 42
1.0
  0
SEQEND
  8
0
  6
CONTINUOUS
  0
POLYLINE
  8
0
  6
CONTINUOUS
 66
     1
 10
0.0
 20
0.0
 30
0.0
 70
     1
 40
0.5
 41
0.5
 71
     2
 72
   151
  0
VERTEX
  8
0
  6
CONTINUOUS
 10
29.5
 20
40.0
 30
0.0
 42
1.0
  0
VERTEX
  8
0
  6
CONTINUOUS
 10
30.5
 20
40.0
 30
0.0
 42
1.0
  0
SEQEND
  8
0
  6
CONTINUOUS
  0
TEXT
  8
0
  6
DASHED
 10
5.363959
 20
-59.205221
 30
0.0
 40
2.0
  1
1)
  7
GREEKS
  0
TEXT
  8
0
  6
DASHED
 10
5.363959
 20
-39.205221
 30
0.0
 40
2.0
  1
1)
  7
GREEKS
  0
TEXT
  8
0
  6
DASHED
 10
5.363959
 20
-19.205221
 30
0.0
 40
2.0
  1
1)
  7
GREEKS
  0
TEXT
  8
0
  6
DASHED
 10
5.363959
 20
0.794779
 30
0.0
 40
2.0
  1
1)
  7
GREEKS
  0
TEXT
  8
0
  6
DASHED
 10
17.5
 20
28.991307
 30
0.0
 40
2.0
  1
L3
  7
GREEKS
  0
TEXT
  8
0
  6
DASHED
 10
17.5
 20
34.043818
 30
0.0
 40
2.0
  1
L2
  7
GREEKS
  0
TEXT
  8
0
  6
DASHED
 10
17.5
 20
38.986126
 30
0.0
 40
2.0
  1
L1
  7
GREEKS
  0
LINE
  8
0
  6
DASHED
 10
77.5
 20
40.0
 30
0.0
 11
22.5
 21
40.0
 31
0.0
  0
LINE
  8
0
  6
DASHED
 10
77.5
 20
35.0
 30
0.0
 11
22.5
 21
35.0
 31
0.0
  0
LINE
  8
0
  6
DASHED
 10
77.5
 20
30.0
 30
0.0
 11
22.5
 21
30.0
 31
0.0
  0
INSERT
  8
0
  6
CONTINUOUS
  2
BLC27
 10
70.965932
 20
15.071549
 30
0.0
  0
LINE
  8
0
  6
DASHED
 10
72.5
 20
17.5
 30
0.0
 11
72.5
 21
30.0
 31
0.0
  0
LINE
  8
0
  6
CONTINUOUS
 10
57.5
 20
12.68998
 30
0.0
 11
77.5
 21
12.68998
 31
0.0
  0
LINE
  8
0
  6
CONTINUOUS
 10
72.5
 20
2.68998
 30
0.0
 11
72.5
 21
0.0
 31
0.0
  0
ARC
  8
0
  6
CONTINUOUS
 10
70.864862
 20
6.296095
 30
0.0
 40
1.204309
 50
90.0
 51
265.706237
  0
LINE
  8
0
  6
CONTINUOUS
 10
70.858762
 20
5.098547
 30
0.0
 11
71.50836
 21
5.098547
 31
0.0
  0
LINE
  8
0
  6
CONTINUOUS
 10
70.858762
 20
7.499993
 30
0.0
 11
71.502261
 21
7.499993
 31
0.0
  0
LINE
  8
0
  6
CONTINUOUS
 10
70.859898
 20
2.689937
 30
0.0
 11
71.509496
 21
2.689937
 31
0.0
  0
ARC
  8
0
  6
CONTINUOUS
 10
70.864862
 20
3.894238
 30
0.0
 40
1.204309
 50
90.0
 51
270.0
  0
LINE
  8
0
  6
CONTINUOUS
 10
71.500897
 20
2.68998
 30
0.0
 11
72.5
 21
2.68998
 31
0.0
  0
LINE
  8
0
  6
CONTINUOUS
 10
71.496128
 20
7.499996
 30
0.0
 11
72.473936
 21
7.499996
 31
0.0
  0
LINE
  8
0
  6
CONTINUOUS
 10
71.506031
 20
5.098556
 30
0.0
 11
72.478167
 21
5.098556
 31
0.0
  0
LINE
  8
0
  6
CONTINUOUS
 10
72.5
 20
0.0
 30
0.0
 11
70.0
 21
0.0
 31
0.0
  0
LINE
  8
0
  6
CONTINUOUS
 10
70.0
 20
0.0
 30
0.0
 11
65.0
 21
7.5
 31
0.0
  0
LINE
  8
0
  6
CONTINUOUS
 10
72.5
 20
7.5
 30
0.0
 11
77.5
 21
7.5
 31
0.0
  0
INSERT
  8
0
  6
CONTINUOUS
  2
BLC15
 10
90.0
 20
7.357916
 30
0.0
 50
90.0
  0
INSERT
  8
0
  6
CONTINUOUS
  2
BLC15
 10
90.0
 20
12.547896
 30
0.0
 50
90.0
  0
LINE
  8
0
  6
DASHED
 10
77.5
 20
7.5
 30
0.0
 11
86.84682
 21
7.5
 31
0.0
  0
LINE
  8
0
  6
DASHED
 10
77.5
 20
12.68998
 30
0.0
 11
86.663362
 21
12.68998
 31
0.0
  0
LINE
  8
0
  6
DASHED
 10
65.0
 20
-12.5
 30
0.0
 11
82.5
 21
-12.5
 31
0.0
  0
LINE
  8
0
  6
DASHED
 10
82.5
 20
-12.5
 30
0.0
 11
82.5
 21
7.5
 31
0.0
  0
LINE
  8
0
  6
DASHED
 10
30.0
 20
-4.810008
 30
0.0
 11
25.0
 21
-4.810008
 31
0.0
  0
INSERT
  8
0
  6
CONTINUOUS
  2
BLC27
 10
41.491155
 20
-42.381569
 30
0.0
 50
180.0
  0
LINE
  8
0
  6
CONTINUOUS
 10
40.0
 20
12.5
 30
0.0
 11
39.5
 21
12.0
 31
0.0
  0
LINE
  8
0
  6
CONTINUOUS
 10
40.0
 20
12.5
 30
0.0
 11
39.5
 21
13.0
 31
0.0
  0
LINE
  8
0
  6
CONTINUOUS
 10
40.0
 20
12.5
 30
0.0
 11
40.5
 21
13.0
 31
0.0
  0
LINE
  8
0
  6
CONTINUOUS
 10
40.0
 20
12.5
 30
0.0
 11
40.5
 21
12.0
 31
0.0
  0
LINE
  8
0
  6
CONTINUOUS
 10
35.0
 20
12.5
 30
0.0
 11
34.5
 21
13.0
 31
0.0
  0
LINE
  8
0
  6
CONTINUOUS
 10
35.0
 20
12.5
 30
0.0
 11
34.5
 21
12.0
 31
0.0
  0
LINE
  8
0
  6
CONTINUOUS
 10
35.0
 20
12.5
 30
0.0
 11
35.5
 21
12.0
 31
0.0
  0
LINE
  8
0
  6
CONTINUOUS
 10
35.0
 20
12.5
 30
0.0
 11
35.5
 21
13.0
 31
0.0
  0
LINE
  8
0
  6
CONTINUOUS
 10
30.0
 20
12.5
 30
0.0
 11
29.5
 21
12.0
 31
0.0
  0
LINE
  8
0
  6
CONTINUOUS
 10
30.0
 20
12.5
 30
0.0
 11
30.5
 21
13.0
 31
0.0
  0
LINE
  8
0
  6
CONTINUOUS
 10
30.0
 20
12.5
 30
0.0
 11
30.5
 21
12.0
 31
0.0
  0
LINE
  8
0
  6
CONTINUOUS
 10
30.0
 20
12.5
 30
0.0
 11
29.5
 21
13.0
 31
0.0
  0
LINE
  8
0
  6
CONTINUOUS
 10
40.0
 20
5.0
 30
0.0
 11
37.5
 21
12.5
 31
0.0
  0
LINE
  8
0
  6
CONTINUOUS
 10
35.0
 20
5.0
 30
0.0
 11
32.5
 21
12.5
 31
0.0
  0
LINE
  8
0
  6
CONTINUOUS
 10
30.0
 20
5.0
 30
0.0
 11
27.5
 21
12.5
 31
0.0
  0
INSERT
  8
0
  6
CONTINUOUS
  2
BLC27
 10
36.51227
 20
-22.38157
 30
0.0
 50
180.0
  0
LINE
  8
0
  6
DASHED
 10
30.0
 20
25.0
 30
0.0
 11
30.0
 21
40.0
 31
0.0
  0
LINE
  8
0
  6
DASHED
 10
35.0
 20
25.0
 30
0.0
 11
35.0
 21
32.5
 31
0.0
  0
LINE
  8
0
  6
DASHED
 10
40.0
 20
5.0
 30
0.0
 11
40.0
 21
-27.5
 31
0.0
  0
LINE
  8
0
  6
DASHED
 10
40.0
 20
30.0
 30
0.0
 11
40.0
 21
12.5
 31
0.0
  0
LINE
  8
0
  6
DASHED
 10
35.0
 20
5.0
 30
0.0
 11
35.0
 21
-27.5
 31
0.0
  0
LINE
  8
0
  6
DASHED
 10
35.0
 20
35.0
 30
0.0
 11
35.0
 21
12.5
 31
0.0
  0
LINE
  8
0
  6
DASHED
 10
30.0
 20
12.5
 30
0.0
 11
30.0
 21
25.0
 31
0.0
  0
LINE
  8
0
  6
DASHED
 10
30.0
 20
5.0
 30
0.0
 11
30.0
 21
-27.5
 31
0.0
  0
INSERT
  8
0
  6
CONTINUOUS
  2
BLC27
 10
31.491154
 20
-2.381567
 30
0.0
 50
180.0
  0
INSERT
  8
0
  6
CONTINUOUS
  2
BLC15
 10
24.857916
 20
-55.0
 30
0.0
  0
LINE
  8
0
  6
DASHED
 10
40.0
 20
-27.5
 30
0.0
 11
40.0
 21
-52.5
 31
0.0
  0
LINE
  8
0
  6
DASHED
 10
35.0
 20
-27.5
 30
0.0
 11
35.0
 21
-52.5
 31
0.0
  0
LINE
  8
0
  6
DASHED
 10
30.0
 20
-27.5
 30
0.0
 11
30.0
 21
-52.5
 31
0.0
  0
LINE
  8
0
  6
DASHED
 10
35.069797
 20
-24.810016
 30
0.0
 11
25.0
 21
-24.810016
 31
0.0
  0
LINE
  8
0
  6
DASHED
 10
40.006921
 20
-44.810016
 30
0.0
 11
25.0
 21
-44.810016
 31
0.0
  0
LINE
  8
0
  6
DASHED
 10
10.0
 20
-10.0
 30
0.0
 11
10.0
 21
-50.0
 31
0.0
  0
LINE
  8
0
  6
DASHED
 10
25.0
 20
-4.810008
 30
0.0
 11
25.0
 21
-52.5
 31
0.0
  0
LINE
  8
0
  6
CONTINUOUS
 10
30.0
 20
-52.5
 30
0.0
 11
40.0
 21
-52.5
 31
0.0
  0
LINE
  8
0
  6
CONTINUOUS
 10
32.5
 20
-52.5
 30
0.0
 11
35.0
 21
-57.5
 31
0.0
  0
LINE
  8
0
  6
CONTINUOUS
 10
35.0
 20
-57.5
 30
0.0
 11
37.5
 21
-52.5
 31
0.0
  0
LINE
  8
0
  6
DASHED
 10
30.0
 20
0.0
 30
0.0
 11
5.0
 21
0.0
 31
0.0
  0
LINE
  8
0
  6
DASHED
 10
35.0
 20
-20.0
 30
0.0
 11
5.0
 21
-20.0
 31
0.0
  0
LINE
  8
0
  6
DASHED
 10
40.0
 20
-40.0
 30
0.0
 11
5.0
 21
-40.0
 31
0.0
  0
INSERT
  8
0
  6
CONTINUOUS
  2
BLC27
 10
55.965932
 20
15.071549
 30
0.0
  0
INSERT
  8
0
  6
CONTINUOUS
  2
BLC27
 10
63.465932
 20
15.071549
 30
0.0
  0
LINE
  8
0
  6
DASHED
 10
57.5
 20
17.5
 30
0.0
 11
57.5
 21
40.0
 31
0.0
  0
LINE
  8
0
  6
DASHED
 10
65.0
 20
17.5
 30
0.0
 11
65.0
 21
35.0
 31
0.0
  0
LINE
  8
0
  6
CONTINUOUS
 10
57.5
 20
2.68998
 30
0.0
 11
57.5
 21
0.0
 31
0.0
  0
LINE
  8
0
  6
CONTINUOUS
 10
65.0
 20
2.68998
 30
0.0
 11
65.0
 21
0.0
 31
0.0
  0
ARC
  8
0
  6
CONTINUOUS
 10
63.364862
 20
6.296095
 30
0.0
 40
1.204309
 50
90.0
 51
265.706237
  0
LINE
  8
0
  6
CONTINUOUS
 10
63.358762
 20
5.098547
 30
0.0
 11
64.00836
 21
5.098547
 31
0.0
  0
LINE
  8
0
  6
CONTINUOUS
 10
63.358762
 20
7.499993
 30
0.0
 11
64.002261
 21
7.499993
 31
0.0
  0
LINE
  8
0
  6
CONTINUOUS
 10
63.359898
 20
2.689937
 30
0.0
 11
64.009496
 21
2.689937
 31
0.0
  0
ARC
  8
0
  6
CONTINUOUS
 10
63.364862
 20
3.894238
 30
0.0
 40
1.204309
 50
90.0
 51
270.0
  0
LINE
  8
0
  6
CONTINUOUS
 10
64.000897
 20
2.68998
 30
0.0
 11
65.0
 21
2.68998
 31
0.0
  0
LINE
  8
0
  6
CONTINUOUS
 10
63.996128
 20
7.499996
 30
0.0
 11
64.973936
 21
7.499996
 31
0.0
  0
LINE
  8
0
  6
CONTINUOUS
 10
64.006031
 20
5.098556
 30
0.0
 11
64.978167
 21
5.098556
 31
0.0
  0
ARC
  8
0
  6
CONTINUOUS
 10
55.864862
 20
6.296095
 30
0.0
 40
1.204309
 50
90.0
 51
265.706237
  0
LINE
  8
0
  6
CONTINUOUS
 10
55.858762
 20
5.098547
 30
0.0
 11
56.50836
 21
5.098547
 31
0.0
  0
LINE
  8
0
  6
CONTINUOUS
 10
55.858762
 20
7.499993
 30
0.0
 11
56.502261
 21
7.499993
 31
0.0
  0
LINE
  8
0
  6
CONTINUOUS
 10
55.859898
 20
2.689937
 30
0.0
 11
56.509496
 21
2.689937
 31
0.0
  0
ARC
  8
0
  6
CONTINUOUS
 10
55.864862
 20
3.894238
 30
0.0
 40
1.204309
 50
90.0
 51
270.0
  0
LINE
  8
0
  6
CONTINUOUS
 10
56.500897
 20
2.68998
 30
0.0
 11
57.5
 21
2.68998
 31
0.0
  0
LINE
  8
0
  6
CONTINUOUS
 10
56.496128
 20
7.499996
 30
0.0
 11
57.473936
 21
7.499996
 31
0.0
  0
LINE
  8
0
  6
CONTINUOUS
 10
56.506031
 20
5.098556
 30
0.0
 11
57.478167
 21
5.098556
 31
0.0
  0
LINE
  8
0
  6
CONTINUOUS
 10
65.0
 20
0.0
 30
0.0
 11
62.5
 21
0.0
 31
0.0
  0
LINE
  8
0
  6
CONTINUOUS
 10
62.5
 20
0.0
 30
0.0
 11
57.5
 21
7.5
 31
0.0
  0
LINE
  8
0
  6
CONTINUOUS
 10
5.0
 20
0.3468
 30
0.0
 11
4.0
 21
1.3468
 31
0.0
  0
LINE
  8
0
  6
CONTINUOUS
 10
5.0
 20
-5.33813
 30
0.0
 11
4.0
 21
-6.33813
 31
0.0
  0
LINE
  8
0
  6
CONTINUOUS
 10
5.0
 20
0.3468
 30
0.0
 11
5.0
 21
-5.33813
 31
0.0
  0
LINE
  8
0
  6
CONTINUOUS
 10
5.0
 20
-19.6532
 30
0.0
 11
5.0
 21
-25.33813
 31
0.0
  0
LINE
  8
0
  6
CONTINUOUS
 10
5.0
 20
-25.33813
 30
0.0
 11
4.0
 21
-26.33813
 31
0.0
  0
LINE
  8
0
  6
CONTINUOUS
 10
5.0
 20
-19.6532
 30
0.0
 11
4.0
 21
-18.6532
 31
0.0
  0
LINE
  8
0
  6
CONTINUOUS
 10
5.0
 20
-39.6532
 30
0.0
 11
4.0
 21
-38.6532
 31
0.0
  0
LINE
  8
0
  6
CONTINUOUS
 10
5.0
 20
-45.33813
 30
0.0
 11
4.0
 21
-46.33813
 31
0.0
  0
LINE
  8
0
  6
CONTINUOUS
 10
5.0
 20
-39.6532
 30
0.0
 11
5.0
 21
-45.33813
 31
0.0
  0
POLYLINE
  8
0
  6
CONTINUOUS
 66
     1
 10
0.0
 20
0.0
 30
0.0
 70
     1
 40
0.5
 41
0.5
 71
     2
 72
   251
  0
VERTEX
  8
0
  6
CONTINUOUS
 10
22.0
 20
-70.0
 30
0.0
 42
1.0
  0
VERTEX
  8
0
  6
CONTINUOUS
 10
23.0
 20
-70.0
 30
0.0
 42
1.0
  0
SEQEND
  8
0
  6
CONTINUOUS
  0
TEXT
  8
0
  6
DASHED
 10
5.363959
 20
-79.205221
 30
0.0
 40
2.0
  1
1)
  7
GREEKS
  0
LINE
  8
0
  6
CONTINUOUS
 10
0.0
 20
0.0
 30
0.0
 11
2.5
 21
0.0
 31
0.0
  0
LINE
  8
0
  6
CONTINUOUS
 10
0.0
 20
-5.0
 30
0.0
 11
2.5
 21
-5.0
 31
0.0
  0
LINE
  8
0
  6
DASHED
 10
0.0
 20
-10.0
 30
0.0
 11
10.0
 21
-10.0
 31
0.0
  0
LINE
  8
0
  6
CONTINUOUS
 10
0.0
 20
-20.0
 30
0.0
 11
2.5
 21
-20.0
 31
0.0
  0
LINE
  8
0
  6
CONTINUOUS
 10
0.0
 20
-25.0
 30
0.0
 11
2.5
 21
-25.0
 31
0.0
  0
LINE
  8
0
  6
DASHED
 10
0.0
 20
-30.0
 30
0.0
 11
10.0
 21
-30.0
 31
0.0
  0
LINE
  8
0
  6
CONTINUOUS
 10
0.0
 20
-40.0
 30
0.0
 11
2.5
 21
-40.0
 31
0.0
  0
LINE
  8
0
  6
CONTINUOUS
 10
0.0
 20
-45.0
 30
0.0
 11
2.5
 21
-45.0
 31
0.0
  0
LINE
  8
0
  6
DASHED
 10
0.0
 20
-50.0
 30
0.0
 11
25.0
 21
-50.0
 31
0.0
  0
LINE
  8
0
  6
CONTINUOUS
 10
0.0
 20
-60.0
 30
0.0
 11
2.5
 21
-60.0
 31
0.0
  0
LINE
  8
0
  6
CONTINUOUS
 10
0.0
 20
-65.0
 30
0.0
 11
2.5
 21
-65.0
 31
0.0
  0
LINE
  8
0
  6
DASHED
 10
0.0
 20
-70.0
 30
0.0
 11
32.5
 21
-70.0
 31
0.0
  0
LINE
  8
0
  6
CONTINUOUS
 10
0.0
 20
-80.0
 30
0.0
 11
2.5
 21
-80.0
 31
0.0
  0
LINE
  8
0
  6
CONTINUOUS
 10
0.0
 20
-85.0
 30
0.0
 11
2.5
 21
-85.0
 31
0.0
  0
LINE
  8
0
  6
DASHED
 10
0.0
 20
-90.0
 30
0.0
 11
57.5
 21
-90.0
 31
0.0
  0
LINE
  8
0
  6
DASHED
 10
5.0
 20
-60.0
 30
0.0
 11
22.5
 21
-60.0
 31
0.0
  0
LINE
  8
0
  6
DASHED
 10
22.5
 20
-60.0
 30
0.0
 11
22.5
 21
-65.189984
 31
0.0
  0
INSERT
  8
0
  6
CONTINUOUS
  2
BLC15
 10
32.357916
 20
-77.5
 30
0.0
  0
LINE
  8
0
  6
CONTINUOUS
 10
35.0
 20
-57.5
 30
0.0
 11
35.0
 21
-77.5
 31
0.0
  0
LINE
  8
0
  6
DASHED
 10
32.5
 20
-52.5
 30
0.0
 11
32.5
 21
-75.0
 31
0.0
  0
INSERT
  8
0
  6
CONTINUOUS
  2
BLC15
 10
22.357916
 20
-77.5
 30
0.0
  0
LINE
  8
0
  6
DASHED
 10
22.5
 20
-75.0
 30
0.0
 11
22.5
 21
-70.0
 31
0.0
  0
INSERT
  8
0
  6
CONTINUOUS
  2
BLC27
 10
36.49116
 20
-67.571554
 30
0.0
 50
180.0
  0
LINE
  8
0
  6
CONTINUOUS
 10
32.5
 20
-67.59856
 30
0.0
 11
35.0
 21
-67.59856
 31
0.0
  0
LINE
  8
0
  6
DASHED
 10
22.5
 20
-65.189984
 30
0.0
 11
35.0
 21
-65.189984
 31
0.0
  0
LINE
  8
0
  6
DASHED
 10
35.0
 20
-70.0
 30
0.0
 11
35.0
 21
-70.0
 31
0.0
  0
LINE
  8
0
  6
DASHED
 10
32.5
 20
-70.0
 30
0.0
 11
35.0
 21
-70.0
 31
0.0
  0
LINE
  8
0
  6
DASHED
 10
5.0
 20
-80.0
 30
0.0
 11
65.0
 21
-80.0
 31
0.0
  0
LINE
  8
0
  6
DASHED
 10
65.0
 20
-80.0
 30
0.0
 11
65.0
 21
-12.5
 31
0.0
  0
LINE
  8
0
  6
DASHED
 10
57.5
 20
-90.0
 30
0.0
 11
57.5
 21
0.0
 31
0.0
  0
LINE
  8
0
  6
DASHED
 10
35.0
 20
-77.5
 30
0.0
 11
35.0
 21
-87.5
 31
0.0
  0
LINE
  8
0
  6
CONTINUOUS
 10
5.0
 20
-59.6532
 30
0.0
 11
5.0
 21
-65.33813
 31
0.0
  0
LINE
  8
0
  6
CONTINUOUS
 10
5.0
 20
-65.33813
 30
0.0
 11
4.0
 21
-66.33813
 31
0.0
  0
LINE
  8
0
  6
CONTINUOUS
 10
5.0
 20
-59.6532
 30
0.0
 11
4.0
 21
-58.6532
 31
0.0
  0
LINE
  8
0
  6
CONTINUOUS
 10
5.0
 20
-79.6532
 30
0.0
 11
4.0
 21
-78.6532
 31
0.0
  0
LINE
  8
0
  6
CONTINUOUS
 10
5.0
 20
-85.33813
 30
0.0
 11
4.0
 21
-86.33813
 31
0.0
  0
LINE
  8
0
  6
CONTINUOUS
 10
5.0
 20
-79.6532
 30
0.0
 11
5.0
 21
-85.33813
 31
0.0
  0
LINE
  8
BASE
  6
CENTER
 10
0.0
 20
-7.5
 30
0.0
 11
0.0
 21
-30.0
 31
0.0
  0
POLYLINE
  8
0
  6
CONTINUOUS
 66
     1
 10
0.0
 20
0.0
 30
0.0
 70
     1
 40
0.5
 41
0.5
 71
     2
 72
   151
  0
VERTEX
  8
0
  6
CONTINUOUS
 10
87.0
 20
-77.5
 30
0.0
 42
1.0
  0
VERTEX
  8
0
  6
CONTINUOUS
 10
88.0
 20
-77.5
 30
0.0
 42
1.0
  0
SEQEND
  8
0
  6
CONTINUOUS
  0
POLYLINE
  8
0
  6
CONTINUOUS
 66
     1
 10
0.0
 20
0.0
 30
0.0
 70
     1
 40
0.5
 41
0.5
 71
     2
 72
   151
  0
VERTEX
  8
0
  6
CONTINUOUS
 10
94.5
 20
-82.5
 30
0.0
 42
1.0
  0
VERTEX
  8
0
  6
CONTINUOUS
 10
95.5
 20
-82.5
 30
0.0
 42
1.0
  0
SEQEND
  8
0
  6
CONTINUOUS
  0
POLYLINE
  8
0
  6
CONTINUOUS
 66
     1
 10
0.0
 20
0.0
 30
0.0
 70
     1
 40
0.5
 41
0.5
 71
     2
 72
   151
  0
VERTEX
  8
0
  6
CONTINUOUS
 10
79.5
 20
-72.5
 30
0.0
 42
1.0
  0
VERTEX
  8
0
  6
CONTINUOUS
 10
80.5
 20
-72.5
 30
0.0
 42
1.0
  0
SEQEND
  8
0
  6
CONTINUOUS
  0
LINE
  8
0
  6
DASHED
 10
87.5
 20
-105.0
 30
0.0
 11
87.5
 21
-110.0
 31
0.0
  0
LINE
  8
0
  6
DASHED
 10
95.0
 20
-105.0
 30
0.0
 11
95.0
 21
-115.0
 31
0.0
  0
TEXT
  8
0
  6
DASHED
 10
112.5
 20
-83.519713
 30
0.0
 40
2.0
  1
L3 (T)
  7
GREEKS
  0
TEXT
  8
0
  6
DASHED
 10
112.5
 20
-78.577406
 30
0.0
 40
2.0
  1
L2 (S)
  7
GREEKS
  0
TEXT
  8
0
  6
DASHED
 10
112.5
 20
-73.524895
 30
0.0
 40
2.0
  1
L1 (R)
  7
GREEKS
  0
LINE
  8
0
  6
DASHED
 10
77.5
 20
-72.5
 30
0.0
 11
110.0
 21
-72.5
 31
0.0
  0
LINE
  8
0
  6
DASHED
 10
77.5
 20
-77.5
 30
0.0
 11
110.0
 21
-77.5
 31
0.0
  0
LINE
  8
0
  6
DASHED
 10
77.5
 20
-82.5
 30
0.0
 11
110.0
 21
-82.5
 31
0.0
  0
LINE
  8
0
  6
CONTINUOUS
 10
79.006031
 20
-99.901444
 30
0.0
 11
79.978167
 21
-99.901444
 31
0.0
  0
LINE
  8
0
  6
CONTINUOUS
 10
78.996128
 20
-97.500004
 30
0.0
 11
95.0
 21
-97.500004
 31
0.0
  0
LINE
  8
0
  6
CONTINUOUS
 10
79.000897
 20
-102.31002
 30
0.0
 11
80.0
 21
-102.31002
 31
0.0
  0
ARC
  8
0
  6
CONTINUOUS
 10
78.364862
 20
-101.105762
 30
0.0
 40
1.204309
 50
90.0
 51
270.0
  0
LINE
  8
0
  6
CONTINUOUS
 10
78.359898
 20
-102.310063
 30
0.0
 11
79.009496
 21
-102.310063
 31
0.0
  0
LINE
  8
0
  6
CONTINUOUS
 10
78.358762
 20
-97.500007
 30
0.0
 11
79.002261
 21
-97.500007
 31
0.0
  0
LINE
  8
0
  6
CONTINUOUS
 10
78.358762
 20
-99.901453
 30
0.0
 11
79.00836
 21
-99.901453
 31
0.0
  0
ARC
  8
0
  6
CONTINUOUS
 10
78.364862
 20
-98.703905
 30
0.0
 40
1.204309
 50
90.0
 51
265.706237
  0
LINE
  8
0
  6
CONTINUOUS
 10
86.506031
 20
-99.901444
 30
0.0
 11
87.478167
 21
-99.901444
 31
0.0
  0
LINE
  8
0
  6
CONTINUOUS
 10
86.496128
 20
-97.500004
 30
0.0
 11
87.473936
 21
-97.500004
 31
0.0
  0
LINE
  8
0
  6
CONTINUOUS
 10
86.500897
 20
-102.31002
 30
0.0
 11
87.5
 21
-102.31002
 31
0.0
  0
ARC
  8
0
  6
CONTINUOUS
 10
85.864862
 20
-101.105762
 30
0.0
 40
1.204309
 50
90.0
 51
270.0
  0
LINE
  8
0
  6
CONTINUOUS
 10
85.859898
 20
-102.310063
 30
0.0
 11
86.509496
 21
-102.310063
 31
0.0
  0
LINE
  8
0
  6
CONTINUOUS
 10
85.858762
 20
-97.500007
 30
0.0
 11
86.502261
 21
-97.500007
 31
0.0
  0
LINE
  8
0
  6
CONTINUOUS
 10
85.858762
 20
-99.901453
 30
0.0
 11
86.50836
 21
-99.901453
 31
0.0
  0
ARC
  8
0
  6
CONTINUOUS
 10
85.864862
 20
-98.703905
 30
0.0
 40
1.204309
 50
90.0
 51
265.706237
  0
LINE
  8
0
  6
CONTINUOUS
 10
87.5
 20
-102.31002
 30
0.0
 11
87.5
 21
-105.0
 31
0.0
  0
LINE
  8
0
  6
CONTINUOUS
 10
80.0
 20
-102.31002
 30
0.0
 11
80.0
 21
-105.0
 31
0.0
  0
LINE
  8
0
  6
DASHED
 10
87.5
 20
-87.5
 30
0.0
 11
87.5
 21
-77.5
 31
0.0
  0
LINE
  8
0
  6
DASHED
 10
80.0
 20
-87.5
 30
0.0
 11
80.0
 21
-72.5
 31
0.0
  0
INSERT
  8
0
  6
CONTINUOUS
  2
BLC27
 10
85.965932
 20
-89.928451
 30
0.0
  0
INSERT
  8
0
  6
CONTINUOUS
  2
BLC27
 10
78.465932
 20
-89.928451
 30
0.0
  0
INSERT
  8
0
  6
CONTINUOUS
  2
BLC15
 10
105.0
 20
-92.452104
 30
0.0
 50
90.0
  0
INSERT
  8
0
  6
CONTINUOUS
  2
BLC15
 10
105.0
 20
-97.642084
 30
0.0
 50
90.0
  0
LINE
  8
0
  6
CONTINUOUS
 10
95.0
 20
-97.5
 30
0.0
 11
101.617732
 21
-97.5
 31
0.0
  0
LINE
  8
0
  6
CONTINUOUS
 10
94.006031
 20
-99.901444
 30
0.0
 11
94.978167
 21
-99.901444
 31
0.0
  0
LINE
  8
0
  6
CONTINUOUS
 10
93.996128
 20
-97.500004
 30
0.0
 11
94.973936
 21
-97.500004
 31
0.0
  0
LINE
  8
0
  6
CONTINUOUS
 10
94.000897
 20
-102.31002
 30
0.0
 11
95.0
 21
-102.31002
 31
0.0
  0
ARC
  8
0
  6
CONTINUOUS
 10
93.364862
 20
-101.105762
 30
0.0
 40
1.204309
 50
90.0
 51
270.0
  0
LINE
  8
0
  6
CONTINUOUS
 10
93.359898
 20
-102.310063
 30
0.0
 11
94.009496
 21
-102.310063
 31
0.0
  0
LINE
  8
0
  6
CONTINUOUS
 10
93.358762
 20
-97.500007
 30
0.0
 11
94.002261
 21
-97.500007
 31
0.0
  0
LINE
  8
0
  6
CONTINUOUS
 10
93.358762
 20
-99.901453
 30
0.0
 11
94.00836
 21
-99.901453
 31
0.0
  0
ARC
  8
0
  6
CONTINUOUS
 10
93.364862
 20
-98.703905
 30
0.0
 40
1.204309
 50
90.0
 51
265.706237
  0
LINE
  8
0
  6
CONTINUOUS
 10
95.0
 20
-102.31002
 30
0.0
 11
95.0
 21
-105.0
 31
0.0
  0
LINE
  8
0
  6
CONTINUOUS
 10
80.0
 20
-92.31002
 30
0.0
 11
101.617732
 21
-92.31002
 31
0.0
  0
LINE
  8
0
  6
DASHED
 10
95.0
 20
-87.5
 30
0.0
 11
95.0
 21
-82.5
 31
0.0
  0
INSERT
  8
0
  6
CONTINUOUS
  2
BLC27
 10
93.465932
 20
-89.928451
 30
0.0
  0
LINE
  8
0
  6
DASHED
 10
95.0
 20
-115.0
 30
0.0
 11
47.5
 21
-115.0
 31
0.0
  0
LINE
  8
0
  6
DASHED
 10
87.5
 20
-110.0
 30
0.0
 11
42.5
 21
-110.0
 31
0.0
  0
LINE
  8
0
  6
DASHED
 10
80.0
 20
-105.0
 30
0.0
 11
37.5
 21
-105.0
 31
0.0
  0
POLYLINE
  8
0
  6
CONTINUOUS
 66
     1
 10
0.0
 20
0.0
 30
0.0
 70
     1
 40
0.5
 41
0.5
 71
     2
 72
   151
  0
VERTEX
  8
0
  6
CONTINUOUS
 10
37.0
 20
-120.0
 30
0.0
 42
1.0
  0
VERTEX
  8
0
  6
CONTINUOUS
 10
38.0
 20
-120.0
 30
0.0
 42
1.0
  0
SEQEND
  8
0
  6
CONTINUOUS
  0
POLYLINE
  8
0
  6
CONTINUOUS
 66
     1
 10
0.0
 20
0.0
 30
0.0
 70
     1
 40
0.5
 41
0.5
 71
     2
 72
   151
  0
VERTEX
  8
0
  6
CONTINUOUS
 10
24.5
 20
-140.0
 30
0.0
 42
1.0
  0
VERTEX
  8
0
  6
CONTINUOUS
 10
25.5
 20
-140.0
 30
0.0
 42
1.0
  0
SEQEND
  8
0
  6
CONTINUOUS
  0
POLYLINE
  8
0
  6
CONTINUOUS
 66
     1
 10
0.0
 20
0.0
 30
0.0
 70
     1
 40
0.5
 41
0.5
 71
     2
 72
   151
  0
VERTEX
  8
0
  6
CONTINUOUS
 10
19.5
 20
-160.0
 30
0.0
 42
1.0
  0
VERTEX
  8
0
  6
CONTINUOUS
 10
20.5
 20
-160.0
 30
0.0
 42
1.0
  0
SEQEND
  8
0
  6
CONTINUOUS
  0
TEXT
  8
0
  6
DASHED
 10
5.363959
 20
-149.205221
 30
0.0
 40
2.0
  1
1)
  7
GREEKS
  0
TEXT
  8
0
  6
DASHED
 10
5.363959
 20
-129.205221
 30
0.0
 40
2.0
  1
1)
  7
GREEKS
  0
TEXT
  8
0
  6
DASHED
 10
5.363959
 20
-109.205221
 30
0.0
 40
2.0
  1
1)
  7
GREEKS
  0
LINE
  8
0
  6
DASHED
 10
20.0
 20
-130.0
 30
0.0
 11
20.0
 21
-160.0
 31
0.0
  0
LINE
  8
0
  6
DASHED
 10
5.0
 20
-130.0
 30
0.0
 11
20.0
 21
-130.0
 31
0.0
  0
LINE
  8
0
  6
DASHED
 10
25.0
 20
-110.0
 30
0.0
 11
25.0
 21
-140.0
 31
0.0
  0
LINE
  8
0
  6
DASHED
 10
5.0
 20
-110.0
 30
0.0
 11
25.0
 21
-110.0
 31
0.0
  0
LINE
  8
0
  6
DASHED
 10
37.5
 20
-150.0
 30
0.0
 11
5.0
 21
-150.0
 31
0.0
  0
LINE
  8
0
  6
DASHED
 10
37.5
 20
-120.0
 30
0.0
 11
37.5
 21
-150.0
 31
0.0
  0
LINE
  8
0
  6
DASHED
 10
37.5
 20
-120.0
 30
0.0
 11
0.0
 21
-120.0
 31
0.0
  0
LINE
  8
0
  6
DASHED
 10
37.5
 20
-105.0
 30
0.0
 11
37.5
 21
-120.0
 31
0.0
  0
LINE
  8
0
  6
DASHED
 10
42.5
 20
-140.0
 30
0.0
 11
0.0
 21
-140.0
 31
0.0
  0
LINE
  8
0
  6
DASHED
 10
42.5
 20
-110.0
 30
0.0
 11
42.5
 21
-140.0
 31
0.0
  0
LINE
  8
0
  6
DASHED
 10
47.5
 20
-115.0
 30
0.0
 11
47.5
 21
-160.0
 31
0.0
  0
LINE
  8
0
  6
CONTINUOUS
 10
5.0
 20
-155.33813
 30
0.0
 11
4.0
 21
-156.33813
 31
0.0
  0
LINE
  8
0
  6
CONTINUOUS
 10
5.0
 20
-149.6532
 30
0.0
 11
5.0
 21
-155.33813
 31
0.0
  0
LINE
  8
0
  6
CONTINUOUS
 10
5.0
 20
-149.6532
 30
0.0
 11
4.0
 21
-148.6532
 31
0.0
  0
LINE
  8
0
  6
CONTINUOUS
 10
0.0
 20
-150.0
 30
0.0
 11
2.5
 21
-150.0
 31
0.0
  0
LINE
  8
0
  6
CONTINUOUS
 10
0.0
 20
-155.0
 30
0.0
 11
2.5
 21
-155.0
 31
0.0
  0
LINE
  8
0
  6
DASHED
 10
0.0
 20
-160.0
 30
0.0
 11
47.5
 21
-160.0
 31
0.0
  0
LINE
  8
0
  6
CONTINUOUS
 10
5.0
 20
-135.33813
 30
0.0
 11
4.0
 21
-136.33813
 31
0.0
  0
LINE
  8
0
  6
CONTINUOUS
 10
5.0
 20
-129.6532
 30
0.0
 11
5.0
 21
-135.33813
 31
0.0
  0
LINE
  8
0
  6
CONTINUOUS
 10
5.0
 20
-129.6532
 30
0.0
 11
4.0
 21
-128.6532
 31
0.0
  0
LINE
  8
0
  6
CONTINUOUS
 10
0.0
 20
-130.0
 30
0.0
 11
2.5
 21
-130.0
 31
0.0
  0
LINE
  8
0
  6
CONTINUOUS
 10
0.0
 20
-135.0
 30
0.0
 11
2.5
 21
-135.0
 31
0.0
  0
LINE
  8
0
  6
CONTINUOUS
 10
0.0
 20
-115.0
 30
0.0
 11
2.5
 21
-115.0
 31
0.0
  0
LINE
  8
0
  6
CONTINUOUS
 10
0.0
 20
-110.0
 30
0.0
 11
2.5
 21
-110.0
 31
0.0
  0
LINE
  8
0
  6
CONTINUOUS
 10
5.0
 20
-109.6532
 30
0.0
 11
4.0
 21
-108.6532
 31
0.0
  0
LINE
  8
0
  6
CONTINUOUS
 10
5.0
 20
-109.6532
 30
0.0
 11
5.0
 21
-115.33813
 31
0.0
  0
LINE
  8
0
  6
CONTINUOUS
 10
5.0
 20
-115.33813
 30
0.0
 11
4.0
 21
-116.33813
 31
0.0
  0
ENDBLK
  8
0
  0
BLOCK
  8
0
  2
B96
 70
    64
 10
0.0
 20
0.0
 30
0.0
  3
B96
  0
LINE
  8
0
  6
CONTINUOUS
 10
1.819436
 20
0.403461
 30
0.0
 11
1.819436
 21
-0.576539
 31
0.0
  0
LINE
  8
0
  6
CONTINUOUS
 10
1.819436
 20
-0.576539
 30
0.0
 11
5.249436
 21
-0.576539
 31
0.0
  0
LINE
  8
0
  6
CONTINUOUS
 10
5.249436
 20
-0.576539
 30
0.0
 11
5.249436
 21
0.403461
 31
0.0
  0
LINE
  8
0
  6
CONTINUOUS
 10
5.249436
 20
0.403461
 30
0.0
 11
1.819436
 21
0.403461
 31
0.0
  0
POLYLINE
  8
0
  6
CONTINUOUS
 66
     1
 10
0.0
 20
0.0
 30
0.0
 70
    16
 71
     2
 72
   251
  0
VERTEX
  8
0
  6
CONTINUOUS
 10
1.819436
 20
-0.576539
 30
0.0
 70
    64
  0
VERTEX
  8
0
  6
CONTINUOUS
 10
1.833156
 20
-0.576539
 30
0.0
 70
    64
  0
VERTEX
  8
0
  6
CONTINUOUS
 10
1.846876
 20
-0.576539
 30
0.0
 70
    64
  0
VERTEX
  8
0
  6
CONTINUOUS
 10
1.860596
 20
-0.576539
 30
0.0
 70
    64
  0
VERTEX
  8
0
  6
CONTINUOUS
 10
1.874316
 20
-0.576539
 30
0.0
 70
    64
  0
VERTEX
  8
0
  6
CONTINUOUS
 10
1.888036
 20
-0.576539
 30
0.0
 70
    64
  0
VERTEX
  8
0
  6
CONTINUOUS
 10
1.901756
 20
-0.576539
 30
0.0
 70
    64
  0
VERTEX
  8
0
  6
CONTINUOUS
 10
1.915476
 20
-0.576539
 30
0.0
 70
    64
  0
VERTEX
  8
0
  6
CONTINUOUS
 10
1.929196
 20
-0.576539
 30
0.0
 70
    64
  0
VERTEX
  8
0
  6
CONTINUOUS
 10
1.942916
 20
-0.576539
 30
0.0
 70
    64
  0
VERTEX
  8
0
  6
CONTINUOUS
 10
1.956636
 20
-0.576539
 30
0.0
 70
    64
  0
VERTEX
  8
0
  6
CONTINUOUS
 10
1.970356
 20
-0.576539
 30
0.0
 70
    64
  0
VERTEX
  8
0
  6
CONTINUOUS
 10
1.984076
 20
-0.576539
 30
0.0
 70
    64
  0
VERTEX
  8
0
  6
CONTINUOUS
 10
1.997796
 20
-0.576539
 30
0.0
 70
    64
  0
VERTEX
  8
0
  6
CONTINUOUS
 10
2.011516
 20
-0.576539
 30
0.0
 70
    64
  0
VERTEX
  8
0
  6
CONTINUOUS
 10
2.025236
 20
-0.576539
 30
0.0
 70
    64
  0
VERTEX
  8
0
  6
CONTINUOUS
 10
2.038956
 20
-0.576539
 30
0.0
 70
    64
  0
VERTEX
  8
0
  6
CONTINUOUS
 10
2.052676
 20
-0.576539
 30
0.0
 70
    64
  0
VERTEX
  8
0
  6
CONTINUOUS
 10
2.066396
 20
-0.576539
 30
0.0
 70
    64
  0
VERTEX
  8
0
  6
CONTINUOUS
 10
2.080116
 20
-0.576539
 30
0.0
 70
    64
  0
VERTEX
  8
0
  6
CONTINUOUS
 10
2.093836
 20
-0.576539
 30
0.0
 70
    64
  0
VERTEX
  8
0
  6
CONTINUOUS
 10
2.107556
 20
-0.576539
 30
0.0
 70
    64
  0
VERTEX
  8
0
  6
CONTINUOUS
 10
2.121276
 20
-0.576539
 30
0.0
 70
    64
  0
VERTEX
  8
0
  6
CONTINUOUS
 10
2.134996
 20
-0.576539
 30
0.0
 70
    64
  0
VERTEX
  8
0
  6
CONTINUOUS
 10
2.148716
 20
-0.576539
 30
0.0
 70
    64
  0
VERTEX
  8
0
  6
CONTINUOUS
 10
2.162436
 20
-0.576539
 30
0.0
 70
    64
  0
VERTEX
  8
0
  6
CONTINUOUS
 10
2.176156
 20
-0.576539
 30
0.0
 70
    64
  0
VERTEX
  8
0
  6
CONTINUOUS
 10
2.189876
 20
-0.576539
 30
0.0
 70
    64
  0
VERTEX
  8
0
  6
CONTINUOUS
 10
2.203596
 20
-0.576539
 30
0.0
 70
    64
  0
VERTEX
  8
0
  6
CONTINUOUS
 10
2.217316
 20
-0.576539
 30
0.0
 70
    64
  0
VERTEX
  8
0
  6
CONTINUOUS
 10
2.231036
 20
-0.576539
 30
0.0
 70
    64
  0
VERTEX
  8
0
  6
CONTINUOUS
 10
2.244756
 20
-0.576539
 30
0.0
 70
    64
  0
VERTEX
  8
0
  6
CONTINUOUS
 10
2.258476
 20
-0.576539
 30
0.0
 70
    64
  0
VERTEX
  8
0
  6
CONTINUOUS
 10
2.272196
 20
-0.576539
 30
0.0
 70
    64
  0
VERTEX
  8
0
  6
CONTINUOUS
 10
2.285916
 20
-0.576539
 30
0.0
 70
    64
  0
VERTEX
  8
0
  6
CONTINUOUS
 10
2.299636
 20
-0.576539
 30
0.0
 70
    64
  0
VERTEX
  8
0
  6
CONTINUOUS
 10
2.313356
 20
-0.576539
 30
0.0
 70
    64
  0
VERTEX
  8
0
  6
CONTINUOUS
 10
2.327076
 20
-0.576539
 30
0.0
 70
    64
  0
VERTEX
  8
0
  6
CONTINUOUS
 10
2.340796
 20
-0.576539
 30
0.0
 70
    64
  0
VERTEX
  8
0
  6
CONTINUOUS
 10
2.354516
 20
-0.576539
 30
0.0
 70
    64
  0
VERTEX
  8
0
  6
CONTINUOUS
 10
2.368236
 20
-0.576539
 30
0.0
 70
    64
  0
VERTEX
  8
0
  6
CONTINUOUS
 10
2.381956
 20
-0.576539
 30
0.0
 70
    64
  0
VERTEX
  8
0
  6
CONTINUOUS
 10
2.395676
 20
-0.576539
 30
0.0
 70
    64
  0
VERTEX
  8
0
  6
CONTINUOUS
 10
2.409396
 20
-0.576539
 30
0.0
 70
    64
  0
VERTEX
  8
0
  6
CONTINUOUS
 10
2.423116
 20
-0.576539
 30
0.0
 70
    64
  0
VERTEX
  8
0
  6
CONTINUOUS
 10
2.436836
 20
-0.576539
 30
0.0
 70
    64
  0
VERTEX
  8
0
  6
CONTINUOUS
 10
2.450556
 20
-0.576539
 30
0.0
 70
    64
  0
VERTEX
  8
0
  6
CONTINUOUS
 10
2.464276
 20
-0.576539
 30
0.0
 70
    64
  0
VERTEX
  8
0
  6
CONTINUOUS
 10
2.477996
 20
-0.576539
 30
0.0
 70
    64
  0
VERTEX
  8
0
  6
CONTINUOUS
 10
2.491716
 20
-0.576539
 30
0.0
 70
    64
  0
VERTEX
  8
0
  6
CONTINUOUS
 10
2.505436
 20
-0.576539
 30
0.0
 70
    64
  0
VERTEX
  8
0
  6
CONTINUOUS
 10
2.519156
 20
-0.576539
 30
0.0
 70
    64
  0
VERTEX
  8
0
  6
CONTINUOUS
 10
2.532876
 20
-0.576539
 30
0.0
 70
    64
  0
VERTEX
  8
0
  6
CONTINUOUS
 10
2.546596
 20
-0.576539
 30
0.0
 70
    64
  0
VERTEX
  8
0
  6
CONTINUOUS
 10
2.560316
 20
-0.576539
 30
0.0
 70
    64
  0
VERTEX
  8
0
  6
CONTINUOUS
 10
2.574036
 20
-0.576539
 30
0.0
 70
    64
  0
VERTEX
  8
0
  6
CONTINUOUS
 10
2.587756
 20
-0.576539
 30
0.0
 70
    64
  0
VERTEX
  8
0
  6
CONTINUOUS
 10
2.601476
 20
-0.576539
 30
0.0
 70
    64
  0
VERTEX
  8
0
  6
CONTINUOUS
 10
2.615196
 20
-0.576539
 30
0.0
 70
    64
  0
VERTEX
  8
0
  6
CONTINUOUS
 10
2.628916
 20
-0.576539
 30
0.0
 70
    64
  0
VERTEX
  8
0
  6
CONTINUOUS
 10
2.642636
 20
-0.576539
 30
0.0
 70
    64
  0
VERTEX
  8
0
  6
CONTINUOUS
 10
2.656356
 20
-0.576539
 30
0.0
 70
    64
  0
VERTEX
  8
0
  6
CONTINUOUS
 10
2.670076
 20
-0.576539
 30
0.0
 70
    64
  0
VERTEX
  8
0
  6
CONTINUOUS
 10
2.683796
 20
-0.576539
 30
0.0
 70
    64
  0
VERTEX
  8
0
  6
CONTINUOUS
 10
2.697516
 20
-0.576539
 30
0.0
 70
    64
  0
VERTEX
  8
0
  6
CONTINUOUS
 10
2.711236
 20
-0.576539
 30
0.0
 70
    64
  0
VERTEX
  8
0
  6
CONTINUOUS
 10
2.724956
 20
-0.576539
 30
0.0
 70
    64
  0
VERTEX
  8
0
  6
CONTINUOUS
 10
2.738676
 20
-0.576539
 30
0.0
 70
    64
  0
VERTEX
  8
0
  6
CONTINUOUS
 10
2.752396
 20
-0.576539
 30
0.0
 70
    64
  0
VERTEX
  8
0
  6
CONTINUOUS
 10
2.766116
 20
-0.576539
 30
0.0
 70
    64
  0
VERTEX
  8
0
  6
CONTINUOUS
 10
2.779836
 20
-0.576539
 30
0.0
 70
    64
  0
VERTEX
  8
0
  6
CONTINUOUS
 10
2.793556
 20
-0.576539
 30
0.0
 70
    64
  0
VERTEX
  8
0
  6
CONTINUOUS
 10
2.807276
 20
-0.576539
 30
0.0
 70
    64
  0
VERTEX
  8
0
  6
CONTINUOUS
 10
2.820996
 20
-0.576539
 30
0.0
 70
    64
  0
VERTEX
  8
0
  6
CONTINUOUS
 10
2.834716
 20
-0.576539
 30
0.0
 70
    64
  0
VERTEX
  8
0
  6
CONTINUOUS
 10
2.848436
 20
-0.576539
 30
0.0
 70
    64
  0
VERTEX
  8
0
  6
CONTINUOUS
 10
2.862156
 20
-0.576539
 30
0.0
 70
    64
  0
VERTEX
  8
0
  6
CONTINUOUS
 10
2.875876
 20
-0.576539
 30
0.0
 70
    64
  0
VERTEX
  8
0
  6
CONTINUOUS
 10
2.889596
 20
-0.576539
 30
0.0
 70
    64
  0
VERTEX
  8
0
  6
CONTINUOUS
 10
2.903316
 20
-0.576539
 30
0.0
 70
    64
  0
VERTEX
  8
0
  6
CONTINUOUS
 10
2.917036
 20
-0.576539
 30
0.0
 70
    64
  0
VERTEX
  8
0
  6
CONTINUOUS
 10
2.930756
 20
-0.576539
 30
0.0
 70
    64
  0
VERTEX
  8
0
  6
CONTINUOUS
 10
2.944476
 20
-0.576539
 30
0.0
 70
    64
  0
VERTEX
  8
0
  6
CONTINUOUS
 10
2.958196
 20
-0.576539
 30
0.0
 70
    64
  0
VERTEX
  8
0
  6
CONTINUOUS
 10
2.971916
 20
-0.576539
 30
0.0
 70
    64
  0
VERTEX
  8
0
  6
CONTINUOUS
 10
2.985636
 20
-0.576539
 30
0.0
 70
    64
  0
VERTEX
  8
0
  6
CONTINUOUS
 10
2.999356
 20
-0.576539
 30
0.0
 70
    64
  0
VERTEX
  8
0
  6
CONTINUOUS
 10
3.013076
 20
-0.576539
 30
0.0
 70
    64
  0
VERTEX
  8
0
  6
CONTINUOUS
 10
3.026796
 20
-0.576539
 30
0.0
 70
    64
  0
VERTEX
  8
0
  6
CONTINUOUS
 10
3.040516
 20
-0.576539
 30
0.0
 70
    64
  0
VERTEX
  8
0
  6
CONTINUOUS
 10
3.054236
 20
-0.576539
 30
0.0
 70
    64
  0
VERTEX
  8
0
  6
CONTINUOUS
 10
3.067956
 20
-0.576539
 30
0.0
 70
    64
  0
VERTEX
  8
0
  6
CONTINUOUS
 10
3.081676
 20
-0.576539
 30
0.0
 70
    64
  0
VERTEX
  8
0
  6
CONTINUOUS
 10
3.095396
 20
-0.576539
 30
0.0
 70
    64
  0
VERTEX
  8
0
  6
CONTINUOUS
 10
3.109116
 20
-0.576539
 30
0.0
 70
    64
  0
VERTEX
  8
0
  6
CONTINUOUS
 10
3.122836
 20
-0.576539
 30
0.0
 70
    64
  0
VERTEX
  8
0
  6
CONTINUOUS
 10
3.136556
 20
-0.576539
 30
0.0
 70
    64
  0
VERTEX
  8
0
  6
CONTINUOUS
 10
3.150276
 20
-0.576539
 30
0.0
 70
    64
  0
VERTEX
  8
0
  6
CONTINUOUS
 10
3.163996
 20
-0.576539
 30
0.0
 70
    64
  0
VERTEX
  8
0
  6
CONTINUOUS
 10
3.177716
 20
-0.576539
 30
0.0
 70
    64
  0
VERTEX
  8
0
  6
CONTINUOUS
 10
3.191436
 20
-0.576539
 30
0.0
 70
    64
  0
VERTEX
  8
0
  6
CONTINUOUS
 10
3.205156
 20
-0.576539
 30
0.0
 70
    64
  0
VERTEX
  8
0
  6
CONTINUOUS
 10
3.218876
 20
-0.576539
 30
0.0
 70
    64
  0
VERTEX
  8
0
  6
CONTINUOUS
 10
3.232596
 20
-0.576539
 30
0.0
 70
    64
  0
VERTEX
  8
0
  6
CONTINUOUS
 10
3.246316
 20
-0.576539
 30
0.0
 70
    64
  0
VERTEX
  8
0
  6
CONTINUOUS
 10
3.260036
 20
-0.576539
 30
0.0
 70
    64
  0
VERTEX
  8
0
  6
CONTINUOUS
 10
3.273756
 20
-0.576539
 30
0.0
 70
    64
  0
VERTEX
  8
0
  6
CONTINUOUS
 10
3.287476
 20
-0.576539
 30
0.0
 70
    64
  0
VERTEX
  8
0
  6
CONTINUOUS
 10
3.301196
 20
-0.576539
 30
0.0
 70
    64
  0
VERTEX
  8
0
  6
CONTINUOUS
 10
3.314916
 20
-0.576539
 30
0.0
 70
    64
  0
VERTEX
  8
0
  6
CONTINUOUS
 10
3.328636
 20
-0.576539
 30
0.0
 70
    64
  0
VERTEX
  8
0
  6
CONTINUOUS
 10
3.342356
 20
-0.576539
 30
0.0
 70
    64
  0
VERTEX
  8
0
  6
CONTINUOUS
 10
3.356076
 20
-0.576539
 30
0.0
 70
    64
  0
VERTEX
  8
0
  6
CONTINUOUS
 10
3.369796
 20
-0.576539
 30
0.0
 70
    64
  0
VERTEX
  8
0
  6
CONTINUOUS
 10
3.383516
 20
-0.576539
 30
0.0
 70
    64
  0
VERTEX
  8
0
  6
CONTINUOUS
 10
3.397236
 20
-0.576539
 30
0.0
 70
    64
  0
VERTEX
  8
0
  6
CONTINUOUS
 10
3.410956
 20
-0.576539
 30
0.0
 70
    64
  0
VERTEX
  8
0
  6
CONTINUOUS
 10
3.424676
 20
-0.576539
 30
0.0
 70
    64
  0
VERTEX
  8
0
  6
CONTINUOUS
 10
3.438396
 20
-0.576539
 30
0.0
 70
    64
  0
VERTEX
  8
0
  6
CONTINUOUS
 10
3.452116
 20
-0.576539
 30
0.0
 70
    64
  0
VERTEX
  8
0
  6
CONTINUOUS
 10
3.465836
 20
-0.576539
 30
0.0
 70
    64
  0
VERTEX
  8
0
  6
CONTINUOUS
 10
3.479556
 20
-0.576539
 30
0.0
 70
    64
  0
VERTEX
  8
0
  6
CONTINUOUS
 10
3.493276
 20
-0.576539
 30
0.0
 70
    64
  0
VERTEX
  8
0
  6
CONTINUOUS
 10
3.506996
 20
-0.576539
 30
0.0
 70
    64
  0
VERTEX
  8
0
  6
CONTINUOUS
 10
3.520716
 20
-0.576539
 30
0.0
 70
    64
  0
VERTEX
  8
0
  6
CONTINUOUS
 10
3.534436
 20
-0.576539
 30
0.0
 70
    64
  0
VERTEX
  8
0
  6
CONTINUOUS
 10
3.548156
 20
-0.576539
 30
0.0
 70
    64
  0
VERTEX
  8
0
  6
CONTINUOUS
 10
3.561876
 20
-0.576539
 30
0.0
 70
    64
  0
VERTEX
  8
0
  6
CONTINUOUS
 10
3.575596
 20
-0.576539
 30
0.0
 70
    64
  0
VERTEX
  8
0
  6
CONTINUOUS
 10
3.589316
 20
-0.576539
 30
0.0
 70
    64
  0
VERTEX
  8
0
  6
CONTINUOUS
 10
3.603036
 20
-0.576539
 30
0.0
 70
    64
  0
VERTEX
  8
0
  6
CONTINUOUS
 10
3.616756
 20
-0.576539
 30
0.0
 70
    64
  0
VERTEX
  8
0
  6
CONTINUOUS
 10
3.630476
 20
-0.576539
 30
0.0
 70
    64
  0
VERTEX
  8
0
  6
CONTINUOUS
 10
3.644196
 20
-0.576539
 30
0.0
 70
    64
  0
VERTEX
  8
0
  6
CONTINUOUS
 10
3.657916
 20
-0.576539
 30
0.0
 70
    64
  0
VERTEX
  8
0
  6
CONTINUOUS
 10
3.671636
 20
-0.576539
 30
0.0
 70
    64
  0
VERTEX
  8
0
  6
CONTINUOUS
 10
3.685356
 20
-0.576539
 30
0.0
 70
    64
  0
VERTEX
  8
0
  6
CONTINUOUS
 10
3.699076
 20
-0.576539
 30
0.0
 70
    64
  0
VERTEX
  8
0
  6
CONTINUOUS
 10
3.712796
 20
-0.576539
 30
0.0
 70
    64
  0
VERTEX
  8
0
  6
CONTINUOUS
 10
3.726516
 20
-0.576539
 30
0.0
 70
    64
  0
VERTEX
  8
0
  6
CONTINUOUS
 10
3.740236
 20
-0.576539
 30
0.0
 70
    64
  0
VERTEX
  8
0
  6
CONTINUOUS
 10
3.753956
 20
-0.576539
 30
0.0
 70
    64
  0
VERTEX
  8
0
  6
CONTINUOUS
 10
3.767676
 20
-0.576539
 30
0.0
 70
    64
  0
VERTEX
  8
0
  6
CONTINUOUS
 10
3.781396
 20
-0.576539
 30
0.0
 70
    64
  0
VERTEX
  8
0
  6
CONTINUOUS
 10
3.795116
 20
-0.576539
 30
0.0
 70
    64
  0
VERTEX
  8
0
  6
CONTINUOUS
 10
3.808836
 20
-0.576539
 30
0.0
 70
    64
  0
VERTEX
  8
0
  6
CONTINUOUS
 10
3.822556
 20
-0.576539
 30
0.0
 70
    64
  0
VERTEX
  8
0
  6
CONTINUOUS
 10
3.836276
 20
-0.576539
 30
0.0
 70
    64
  0
VERTEX
  8
0
  6
CONTINUOUS
 10
3.849996
 20
-0.576539
 30
0.0
 70
    64
  0
VERTEX
  8
0
  6
CONTINUOUS
 10
3.863716
 20
-0.576539
 30
0.0
 70
    64
  0
VERTEX
  8
0
  6
CONTINUOUS
 10
3.877436
 20
-0.576539
 30
0.0
 70
    64
  0
VERTEX
  8
0
  6
CONTINUOUS
 10
3.891156
 20
-0.576539
 30
0.0
 70
    64
  0
VERTEX
  8
0
  6
CONTINUOUS
 10
3.904876
 20
-0.576539
 30
0.0
 70
    64
  0
VERTEX
  8
0
  6
CONTINUOUS
 10
3.918596
 20
-0.576539
 30
0.0
 70
    64
  0
VERTEX
  8
0
  6
CONTINUOUS
 10
3.932316
 20
-0.576539
 30
0.0
 70
    64
  0
VERTEX
  8
0
  6
CONTINUOUS
 10
3.946036
 20
-0.576539
 30
0.0
 70
    64
  0
VERTEX
  8
0
  6
CONTINUOUS
 10
3.959756
 20
-0.576539
 30
0.0
 70
    64
  0
VERTEX
  8
0
  6
CONTINUOUS
 10
3.973476
 20
-0.576539
 30
0.0
 70
    64
  0
VERTEX
  8
0
  6
CONTINUOUS
 10
3.987196
 20
-0.576539
 30
0.0
 70
    64
  0
VERTEX
  8
0
  6
CONTINUOUS
 10
4.000916
 20
-0.576539
 30
0.0
 70
    64
  0
VERTEX
  8
0
  6
CONTINUOUS
 10
4.014636
 20
-0.576539
 30
0.0
 70
    64
  0
VERTEX
  8
0
  6
CONTINUOUS
 10
4.028356
 20
-0.576539
 30
0.0
 70
    64
  0
VERTEX
  8
0
  6
CONTINUOUS
 10
4.042076
 20
-0.576539
 30
0.0
 70
    64
  0
VERTEX
  8
0
  6
CONTINUOUS
 10
4.055796
 20
-0.576539
 30
0.0
 70
    64
  0
VERTEX
  8
0
  6
CONTINUOUS
 10
4.069516
 20
-0.576539
 30
0.0
 70
    64
  0
VERTEX
  8
0
  6
CONTINUOUS
 10
4.083236
 20
-0.576539
 30
0.0
 70
    64
  0
VERTEX
  8
0
  6
CONTINUOUS
 10
4.096956
 20
-0.576539
 30
0.0
 70
    64
  0
VERTEX
  8
0
  6
CONTINUOUS
 10
4.110676
 20
-0.576539
 30
0.0
 70
    64
  0
VERTEX
  8
0
  6
CONTINUOUS
 10
4.124396
 20
-0.576539
 30
0.0
 70
    64
  0
VERTEX
  8
0
  6
CONTINUOUS
 10
4.138116
 20
-0.576539
 30
0.0
 70
    64
  0
VERTEX
  8
0
  6
CONTINUOUS
 10
4.151836
 20
-0.576539
 30
0.0
 70
    64
  0
VERTEX
  8
0
  6
CONTINUOUS
 10
4.165556
 20
-0.576539
 30
0.0
 70
    64
  0
VERTEX
  8
0
  6
CONTINUOUS
 10
4.179276
 20
-0.576539
 30
0.0
 70
    64
  0
VERTEX
  8
0
  6
CONTINUOUS
 10
4.192996
 20
-0.576539
 30
0.0
 70
    64
  0
VERTEX
  8
0
  6
CONTINUOUS
 10
4.206716
 20
-0.576539
 30
0.0
 70
    64
  0
VERTEX
  8
0
  6
CONTINUOUS
 10
4.220436
 20
-0.576539
 30
0.0
 70
    64
  0
VERTEX
  8
0
  6
CONTINUOUS
 10
4.234156
 20
-0.576539
 30
0.0
 70
    64
  0
VERTEX
  8
0
  6
CONTINUOUS
 10
4.247876
 20
-0.576539
 30
0.0
 70
    64
  0
VERTEX
  8
0
  6
CONTINUOUS
 10
4.261596
 20
-0.576539
 30
0.0
 70
    64
  0
VERTEX
  8
0
  6
CONTINUOUS
 10
4.275316
 20
-0.576539
 30
0.0
 70
    64
  0
VERTEX
  8
0
  6
CONTINUOUS
 10
4.289036
 20
-0.576539
 30
0.0
 70
    64
  0
VERTEX
  8
0
  6
CONTINUOUS
 10
4.302756
 20
-0.576539
 30
0.0
 70
    64
  0
VERTEX
  8
0
  6
CONTINUOUS
 10
4.316476
 20
-0.576539
 30
0.0
 70
    64
  0
VERTEX
  8
0
  6
CONTINUOUS
 10
4.330196
 20
-0.576539
 30
0.0
 70
    64
  0
VERTEX
  8
0
  6
CONTINUOUS
 10
4.343916
 20
-0.576539
 30
0.0
 70
    64
  0
VERTEX
  8
0
  6
CONTINUOUS
 10
4.357636
 20
-0.576539
 30
0.0
 70
    64
  0
VERTEX
  8
0
  6
CONTINUOUS
 10
4.371356
 20
-0.576539
 30
0.0
 70
    64
  0
VERTEX
  8
0
  6
CONTINUOUS
 10
4.385076
 20
-0.576539
 30
0.0
 70
    64
  0
VERTEX
  8
0
  6
CONTINUOUS
 10
4.398796
 20
-0.576539
 30
0.0
 70
    64
  0
VERTEX
  8
0
  6
CONTINUOUS
 10
4.412516
 20
-0.576539
 30
0.0
 70
    64
  0
VERTEX
  8
0
  6
CONTINUOUS
 10
4.426236
 20
-0.576539
 30
0.0
 70
    64
  0
VERTEX
  8
0
  6
CONTINUOUS
 10
4.439956
 20
-0.576539
 30
0.0
 70
    64
  0
VERTEX
  8
0
  6
CONTINUOUS
 10
4.453676
 20
-0.576539
 30
0.0
 70
    64
  0
VERTEX
  8
0
  6
CONTINUOUS
 10
4.467396
 20
-0.576539
 30
0.0
 70
    64
  0
VERTEX
  8
0
  6
CONTINUOUS
 10
4.481116
 20
-0.576539
 30
0.0
 70
    64
  0
VERTEX
  8
0
  6
CONTINUOUS
 10
4.494836
 20
-0.576539
 30
0.0
 70
    64
  0
VERTEX
  8
0
  6
CONTINUOUS
 10
4.508556
 20
-0.576539
 30
0.0
 70
    64
  0
VERTEX
  8
0
  6
CONTINUOUS
 10
4.522276
 20
-0.576539
 30
0.0
 70
    64
  0
VERTEX
  8
0
  6
CONTINUOUS
 10
4.535996
 20
-0.576539
 30
0.0
 70
    64
  0
VERTEX
  8
0
  6
CONTINUOUS
 10
4.549716
 20
-0.576539
 30
0.0
 70
    64
  0
VERTEX
  8
0
  6
CONTINUOUS
 10
4.563436
 20
-0.576539
 30
0.0
 70
    64
  0
VERTEX
  8
0
  6
CONTINUOUS
 10
4.577156
 20
-0.576539
 30
0.0
 70
    64
  0
VERTEX
  8
0
  6
CONTINUOUS
 10
4.590876
 20
-0.576539
 30
0.0
 70
    64
  0
VERTEX
  8
0
  6
CONTINUOUS
 10
4.604596
 20
-0.576539
 30
0.0
 70
    64
  0
VERTEX
  8
0
  6
CONTINUOUS
 10
4.618316
 20
-0.576539
 30
0.0
 70
    64
  0
VERTEX
  8
0
  6
CONTINUOUS
 10
4.632036
 20
-0.576539
 30
0.0
 70
    64
  0
VERTEX
  8
0
  6
CONTINUOUS
 10
4.645756
 20
-0.576539
 30
0.0
 70
    64
  0
VERTEX
  8
0
  6
CONTINUOUS
 10
4.659476
 20
-0.576539
 30
0.0
 70
    64
  0
VERTEX
  8
0
  6
CONTINUOUS
 10
4.673196
 20
-0.576539
 30
0.0
 70
    64
  0
VERTEX
  8
0
  6
CONTINUOUS
 10
4.686916
 20
-0.576539
 30
0.0
 70
    64
  0
VERTEX
  8
0
  6
CONTINUOUS
 10
4.700636
 20
-0.576539
 30
0.0
 70
    64
  0
VERTEX
  8
0
  6
CONTINUOUS
 10
4.714356
 20
-0.576539
 30
0.0
 70
    64
  0
VERTEX
  8
0
  6
CONTINUOUS
 10
4.728076
 20
-0.576539
 30
0.0
 70
    64
  0
VERTEX
  8
0
  6
CONTINUOUS
 10
4.741796
 20
-0.576539
 30
0.0
 70
    64
  0
VERTEX
  8
0
  6
CONTINUOUS
 10
4.755516
 20
-0.576539
 30
0.0
 70
    64
  0
VERTEX
  8
0
  6
CONTINUOUS
 10
4.769236
 20
-0.576539
 30
0.0
 70
    64
  0
VERTEX
  8
0
  6
CONTINUOUS
 10
4.782956
 20
-0.576539
 30
0.0
 70
    64
  0
VERTEX
  8
0
  6
CONTINUOUS
 10
4.796676
 20
-0.576539
 30
0.0
 70
    64
  0
VERTEX
  8
0
  6
CONTINUOUS
 10
4.810396
 20
-0.576539
 30
0.0
 70
    64
  0
VERTEX
  8
0
  6
CONTINUOUS
 10
4.824116
 20
-0.576539
 30
0.0
 70
    64
  0
VERTEX
  8
0
  6
CONTINUOUS
 10
4.837836
 20
-0.576539
 30
0.0
 70
    64
  0
VERTEX
  8
0
  6
CONTINUOUS
 10
4.851556
 20
-0.576539
 30
0.0
 70
    64
  0
VERTEX
  8
0
  6
CONTINUOUS
 10
4.865276
 20
-0.576539
 30
0.0
 70
    64
  0
VERTEX
  8
0
  6
CONTINUOUS
 10
4.878996
 20
-0.576539
 30
0.0
 70
    64
  0
VERTEX
  8
0
  6
CONTINUOUS
 10
4.892716
 20
-0.576539
 30
0.0
 70
    64
  0
VERTEX
  8
0
  6
CONTINUOUS
 10
4.906436
 20
-0.576539
 30
0.0
 70
    64
  0
VERTEX
  8
0
  6
CONTINUOUS
 10
4.920156
 20
-0.576539
 30
0.0
 70
    64
  0
VERTEX
  8
0
  6
CONTINUOUS
 10
4.933876
 20
-0.576539
 30
0.0
 70
    64
  0
VERTEX
  8
0
  6
CONTINUOUS
 10
4.947596
 20
-0.576539
 30
0.0
 70
    64
  0
VERTEX
  8
0
  6
CONTINUOUS
 10
4.961316
 20
-0.576539
 30
0.0
 70
    64
  0
VERTEX
  8
0
  6
CONTINUOUS
 10
4.975036
 20
-0.576539
 30
0.0
 70
    64
  0
VERTEX
  8
0
  6
CONTINUOUS
 10
4.988756
 20
-0.576539
 30
0.0
 70
    64
  0
VERTEX
  8
0
  6
CONTINUOUS
 10
5.002476
 20
-0.576539
 30
0.0
 70
    64
  0
VERTEX
  8
0
  6
CONTINUOUS
 10
5.016196
 20
-0.576539
 30
0.0
 70
    64
  0
VERTEX
  8
0
  6
CONTINUOUS
 10
5.029916
 20
-0.576539
 30
0.0
 70
    64
  0
VERTEX
  8
0
  6
CONTINUOUS
 10
5.043636
 20
-0.576539
 30
0.0
 70
    64
  0
VERTEX
  8
0
  6
CONTINUOUS
 10
5.057356
 20
-0.576539
 30
0.0
 70
    64
  0
VERTEX
  8
0
  6
CONTINUOUS
 10
5.071076
 20
-0.576539
 30
0.0
 70
    64
  0
VERTEX
  8
0
  6
CONTINUOUS
 10
5.084796
 20
-0.576539
 30
0.0
 70
    64
  0
VERTEX
  8
0
  6
CONTINUOUS
 10
5.098516
 20
-0.576539
 30
0.0
 70
    64
  0
VERTEX
  8
0
  6
CONTINUOUS
 10
5.112236
 20
-0.576539
 30
0.0
 70
    64
  0
VERTEX
  8
0
  6
CONTINUOUS
 10
5.125956
 20
-0.576539
 30
0.0
 70
    64
  0
VERTEX
  8
0
  6
CONTINUOUS
 10
5.139676
 20
-0.576539
 30
0.0
 70
    64
  0
VERTEX
  8
0
  6
CONTINUOUS
 10
5.153396
 20
-0.576539
 30
0.0
 70
    64
  0
VERTEX
  8
0
  6
CONTINUOUS
 10
5.167116
 20
-0.576539
 30
0.0
 70
    64
  0
VERTEX
  8
0
  6
CONTINUOUS
 10
5.180836
 20
-0.576539
 30
0.0
 70
    64
  0
VERTEX
  8
0
  6
CONTINUOUS
 10
5.194556
 20
-0.576539
 30
0.0
 70
    64
  0
VERTEX
  8
0
  6
CONTINUOUS
 10
5.208276
 20
-0.576539
 30
0.0
 70
    64
  0
VERTEX
  8
0
  6
CONTINUOUS
 10
5.221996
 20
-0.576539
 30
0.0
 70
    64
  0
VERTEX
  8
0
  6
CONTINUOUS
 10
5.235716
 20
-0.576539
 30
0.0
 70
    64
  0
VERTEX
  8
0
  6
CONTINUOUS
 10
5.249436
 20
-0.576539
 30
0.0
 70
    64
  0
VERTEX
  8
0
  6
CONTINUOUS
 10
1.819436
 20
0.403461
 30
0.0
 70
    64
  0
VERTEX
  8
0
  6
CONTINUOUS
 10
1.833156
 20
0.403461
 30
0.0
 70
    64
  0
VERTEX
  8
0
  6
CONTINUOUS
 10
1.846876
 20
0.403461
 30
0.0
 70
    64
  0
VERTEX
  8
0
  6
CONTINUOUS
 10
1.860596
 20
0.403461
 30
0.0
 70
    64
  0
VERTEX
  8
0
  6
CONTINUOUS
 10
1.874316
 20
0.403461
 30
0.0
 70
    64
  0
VERTEX
  8
0
  6
CONTINUOUS
 10
1.888036
 20
0.403461
 30
0.0
 70
    64
  0
VERTEX
  8
0
  6
CONTINUOUS
 10
1.901756
 20
0.403461
 30
0.0
 70
    64
  0
VERTEX
  8
0
  6
CONTINUOUS
 10
1.915476
 20
0.403461
 30
0.0
 70
    64
  0
VERTEX
  8
0
  6
CONTINUOUS
 10
1.929196
 20
0.403461
 30
0.0
 70
    64
  0
VERTEX
  8
0
  6
CONTINUOUS
 10
1.942916
 20
0.403461
 30
0.0
 70
    64
  0
VERTEX
  8
0
  6
CONTINUOUS
 10
1.956636
 20
0.403461
 30
0.0
 70
    64
  0
VERTEX
  8
0
  6
CONTINUOUS
 10
1.970356
 20
0.403461
 30
0.0
 70
    64
  0
VERTEX
  8
0
  6
CONTINUOUS
 10
1.984076
 20
0.403461
 30
0.0
 70
    64
  0
VERTEX
  8
0
  6
CONTINUOUS
 10
1.997796
 20
0.403461
 30
0.0
 70
    64
  0
VERTEX
  8
0
  6
CONTINUOUS
 10
2.011516
 20
0.403461
 30
0.0
 70
    64
  0
VERTEX
  8
0
  6
CONTINUOUS
 10
2.025236
 20
0.403461
 30
0.0
 70
    64
  0
VERTEX
  8
0
  6
CONTINUOUS
 10
2.038956
 20
0.403461
 30
0.0
 70
    64
  0
VERTEX
  8
0
  6
CONTINUOUS
 10
2.052676
 20
0.403461
 30
0.0
 70
    64
  0
VERTEX
  8
0
  6
CONTINUOUS
 10
2.066396
 20
0.403461
 30
0.0
 70
    64
  0
VERTEX
  8
0
  6
CONTINUOUS
 10
2.080116
 20
0.403461
 30
0.0
 70
    64
  0
VERTEX
  8
0
  6
CONTINUOUS
 10
2.093836
 20
0.403461
 30
0.0
 70
    64
  0
VERTEX
  8
0
  6
CONTINUOUS
 10
2.107556
 20
0.403461
 30
0.0
 70
    64
  0
VERTEX
  8
0
  6
CONTINUOUS
 10
2.121276
 20
0.403461
 30
0.0
 70
    64
  0
VERTEX
  8
0
  6
CONTINUOUS
 10
2.134996
 20
0.403461
 30
0.0
 70
    64
  0
VERTEX
  8
0
  6
CONTINUOUS
 10
2.148716
 20
0.403461
 30
0.0
 70
    64
  0
VERTEX
  8
0
  6
CONTINUOUS
 10
2.162436
 20
0.403461
 30
0.0
 70
    64
  0
VERTEX
  8
0
  6
CONTINUOUS
 10
2.176156
 20
0.403461
 30
0.0
 70
    64
  0
VERTEX
  8
0
  6
CONTINUOUS
 10
2.189876
 20
0.403461
 30
0.0
 70
    64
  0
VERTEX
  8
0
  6
CONTINUOUS
 10
2.203596
 20
0.403461
 30
0.0
 70
    64
  0
VERTEX
  8
0
  6
CONTINUOUS
 10
2.217316
 20
0.403461
 30
0.0
 70
    64
  0
VERTEX
  8
0
  6
CONTINUOUS
 10
2.231036
 20
0.403461
 30
0.0
 70
    64
  0
VERTEX
  8
0
  6
CONTINUOUS
 10
2.244756
 20
0.403461
 30
0.0
 70
    64
  0
VERTEX
  8
0
  6
CONTINUOUS
 10
2.258476
 20
0.403461
 30
0.0
 70
    64
  0
VERTEX
  8
0
  6
CONTINUOUS
 10
2.272196
 20
0.403461
 30
0.0
 70
    64
  0
VERTEX
  8
0
  6
CONTINUOUS
 10
2.285916
 20
0.403461
 30
0.0
 70
    64
  0
VERTEX
  8
0
  6
CONTINUOUS
 10
2.299636
 20
0.403461
 30
0.0
 70
    64
  0
VERTEX
  8
0
  6
CONTINUOUS
 10
2.313356
 20
0.403461
 30
0.0
 70
    64
  0
VERTEX
  8
0
  6
CONTINUOUS
 10
2.327076
 20
0.403461
 30
0.0
 70
    64
  0
VERTEX
  8
0
  6
CONTINUOUS
 10
2.340796
 20
0.403461
 30
0.0
 70
    64
  0
VERTEX
  8
0
  6
CONTINUOUS
 10
2.354516
 20
0.403461
 30
0.0
 70
    64
  0
VERTEX
  8
0
  6
CONTINUOUS
 10
2.368236
 20
0.403461
 30
0.0
 70
    64
  0
VERTEX
  8
0
  6
CONTINUOUS
 10
2.381956
 20
0.403461
 30
0.0
 70
    64
  0
VERTEX
  8
0
  6
CONTINUOUS
 10
2.395676
 20
0.403461
 30
0.0
 70
    64
  0
VERTEX
  8
0
  6
CONTINUOUS
 10
2.409396
 20
0.403461
 30
0.0
 70
    64
  0
VERTEX
  8
0
  6
CONTINUOUS
 10
2.423116
 20
0.403461
 30
0.0
 70
    64
  0
VERTEX
  8
0
  6
CONTINUOUS
 10
2.436836
 20
0.403461
 30
0.0
 70
    64
  0
VERTEX
  8
0
  6
CONTINUOUS
 10
2.450556
 20
0.403461
 30
0.0
 70
    64
  0
VERTEX
  8
0
  6
CONTINUOUS
 10
2.464276
 20
0.403461
 30
0.0
 70
    64
  0
VERTEX
  8
0
  6
CONTINUOUS
 10
2.477996
 20
0.403461
 30
0.0
 70
    64
  0
VERTEX
  8
0
  6
CONTINUOUS
 10
2.491716
 20
0.403461
 30
0.0
 70
    64
  0
VERTEX
  8
0
  6
CONTINUOUS
 10
2.505436
 20
0.403461
 30
0.0
 70
    64
  0
VERTEX
  8
0
  6
CONTINUOUS
 10
2.519156
 20
0.403461
 30
0.0
 70
    64
  0
VERTEX
  8
0
  6
CONTINUOUS
 10
2.532876
 20
0.403461
 30
0.0
 70
    64
  0
VERTEX
  8
0
  6
CONTINUOUS
 10
2.546596
 20
0.403461
 30
0.0
 70
    64
  0
VERTEX
  8
0
  6
CONTINUOUS
 10
2.560316
 20
0.403461
 30
0.0
 70
    64
  0
VERTEX
  8
0
  6
CONTINUOUS
 10
2.574036
 20
0.403461
 30
0.0
 70
    64
  0
VERTEX
  8
0
  6
CONTINUOUS
 10
2.587756
 20
0.403461
 30
0.0
 70
    64
  0
VERTEX
  8
0
  6
CONTINUOUS
 10
2.601476
 20
0.403461
 30
0.0
 70
    64
  0
VERTEX
  8
0
  6
CONTINUOUS
 10
2.615196
 20
0.403461
 30
0.0
 70
    64
  0
VERTEX
  8
0
  6
CONTINUOUS
 10
2.628916
 20
0.403461
 30
0.0
 70
    64
  0
VERTEX
  8
0
  6
CONTINUOUS
 10
2.642636
 20
0.403461
 30
0.0
 70
    64
  0
VERTEX
  8
0
  6
CONTINUOUS
 10
2.656356
 20
0.403461
 30
0.0
 70
    64
  0
VERTEX
  8
0
  6
CONTINUOUS
 10
2.670076
 20
0.403461
 30
0.0
 70
    64
  0
VERTEX
  8
0
  6
CONTINUOUS
 10
2.683796
 20
0.403461
 30
0.0
 70
    64
  0
VERTEX
  8
0
  6
CONTINUOUS
 10
2.697516
 20
0.403461
 30
0.0
 70
    64
  0
VERTEX
  8
0
  6
CONTINUOUS
 10
2.711236
 20
0.403461
 30
0.0
 70
    64
  0
VERTEX
  8
0
  6
CONTINUOUS
 10
2.724956
 20
0.403461
 30
0.0
 70
    64
  0
VERTEX
  8
0
  6
CONTINUOUS
 10
2.738676
 20
0.403461
 30
0.0
 70
    64
  0
VERTEX
  8
0
  6
CONTINUOUS
 10
2.752396
 20
0.403461
 30
0.0
 70
    64
  0
VERTEX
  8
0
  6
CONTINUOUS
 10
2.766116
 20
0.403461
 30
0.0
 70
    64
  0
VERTEX
  8
0
  6
CONTINUOUS
 10
2.779836
 20
0.403461
 30
0.0
 70
    64
  0
VERTEX
  8
0
  6
CONTINUOUS
 10
2.793556
 20
0.403461
 30
0.0
 70
    64
  0
VERTEX
  8
0
  6
CONTINUOUS
 10
2.807276
 20
0.403461
 30
0.0
 70
    64
  0
VERTEX
  8
0
  6
CONTINUOUS
 10
2.820996
 20
0.403461
 30
0.0
 70
    64
  0
VERTEX
  8
0
  6
CONTINUOUS
 10
2.834716
 20
0.403461
 30
0.0
 70
    64
  0
VERTEX
  8
0
  6
CONTINUOUS
 10
2.848436
 20
0.403461
 30
0.0
 70
    64
  0
VERTEX
  8
0
  6
CONTINUOUS
 10
2.862156
 20
0.403461
 30
0.0
 70
    64
  0
VERTEX
  8
0
  6
CONTINUOUS
 10
2.875876
 20
0.403461
 30
0.0
 70
    64
  0
VERTEX
  8
0
  6
CONTINUOUS
 10
2.889596
 20
0.403461
 30
0.0
 70
    64
  0
VERTEX
  8
0
  6
CONTINUOUS
 10
2.903316
 20
0.403461
 30
0.0
 70
    64
  0
VERTEX
  8
0
  6
CONTINUOUS
 10
2.917036
 20
0.403461
 30
0.0
 70
    64
  0
VERTEX
  8
0
  6
CONTINUOUS
 10
2.930756
 20
0.403461
 30
0.0
 70
    64
  0
VERTEX
  8
0
  6
CONTINUOUS
 10
2.944476
 20
0.403461
 30
0.0
 70
    64
  0
VERTEX
  8
0
  6
CONTINUOUS
 10
2.958196
 20
0.403461
 30
0.0
 70
    64
  0
VERTEX
  8
0
  6
CONTINUOUS
 10
2.971916
 20
0.403461
 30
0.0
 70
    64
  0
VERTEX
  8
0
  6
CONTINUOUS
 10
2.985636
 20
0.403461
 30
0.0
 70
    64
  0
VERTEX
  8
0
  6
CONTINUOUS
 10
2.999356
 20
0.403461
 30
0.0
 70
    64
  0
VERTEX
  8
0
  6
CONTINUOUS
 10
3.013076
 20
0.403461
 30
0.0
 70
    64
  0
VERTEX
  8
0
  6
CONTINUOUS
 10
3.026796
 20
0.403461
 30
0.0
 70
    64
  0
VERTEX
  8
0
  6
CONTINUOUS
 10
3.040516
 20
0.403461
 30
0.0
 70
    64
  0
VERTEX
  8
0
  6
CONTINUOUS
 10
3.054236
 20
0.403461
 30
0.0
 70
    64
  0
VERTEX
  8
0
  6
CONTINUOUS
 10
3.067956
 20
0.403461
 30
0.0
 70
    64
  0
VERTEX
  8
0
  6
CONTINUOUS
 10
3.081676
 20
0.403461
 30
0.0
 70
    64
  0
VERTEX
  8
0
  6
CONTINUOUS
 10
3.095396
 20
0.403461
 30
0.0
 70
    64
  0
VERTEX
  8
0
  6
CONTINUOUS
 10
3.109116
 20
0.403461
 30
0.0
 70
    64
  0
VERTEX
  8
0
  6
CONTINUOUS
 10
3.122836
 20
0.403461
 30
0.0
 70
    64
  0
VERTEX
  8
0
  6
CONTINUOUS
 10
3.136556
 20
0.403461
 30
0.0
 70
    64
  0
VERTEX
  8
0
  6
CONTINUOUS
 10
3.150276
 20
0.403461
 30
0.0
 70
    64
  0
VERTEX
  8
0
  6
CONTINUOUS
 10
3.163996
 20
0.403461
 30
0.0
 70
    64
  0
VERTEX
  8
0
  6
CONTINUOUS
 10
3.177716
 20
0.403461
 30
0.0
 70
    64
  0
VERTEX
  8
0
  6
CONTINUOUS
 10
3.191436
 20
0.403461
 30
0.0
 70
    64
  0
VERTEX
  8
0
  6
CONTINUOUS
 10
3.205156
 20
0.403461
 30
0.0
 70
    64
  0
VERTEX
  8
0
  6
CONTINUOUS
 10
3.218876
 20
0.403461
 30
0.0
 70
    64
  0
VERTEX
  8
0
  6
CONTINUOUS
 10
3.232596
 20
0.403461
 30
0.0
 70
    64
  0
VERTEX
  8
0
  6
CONTINUOUS
 10
3.246316
 20
0.403461
 30
0.0
 70
    64
  0
VERTEX
  8
0
  6
CONTINUOUS
 10
3.260036
 20
0.403461
 30
0.0
 70
    64
  0
VERTEX
  8
0
  6
CONTINUOUS
 10
3.273756
 20
0.403461
 30
0.0
 70
    64
  0
VERTEX
  8
0
  6
CONTINUOUS
 10
3.287476
 20
0.403461
 30
0.0
 70
    64
  0
VERTEX
  8
0
  6
CONTINUOUS
 10
3.301196
 20
0.403461
 30
0.0
 70
    64
  0
VERTEX
  8
0
  6
CONTINUOUS
 10
3.314916
 20
0.403461
 30
0.0
 70
    64
  0
VERTEX
  8
0
  6
CONTINUOUS
 10
3.328636
 20
0.403461
 30
0.0
 70
    64
  0
VERTEX
  8
0
  6
CONTINUOUS
 10
3.342356
 20
0.403461
 30
0.0
 70
    64
  0
VERTEX
  8
0
  6
CONTINUOUS
 10
3.356076
 20
0.403461
 30
0.0
 70
    64
  0
VERTEX
  8
0
  6
CONTINUOUS
 10
3.369796
 20
0.403461
 30
0.0
 70
    64
  0
VERTEX
  8
0
  6
CONTINUOUS
 10
3.383516
 20
0.403461
 30
0.0
 70
    64
  0
VERTEX
  8
0
  6
CONTINUOUS
 10
3.397236
 20
0.403461
 30
0.0
 70
    64
  0
VERTEX
  8
0
  6
CONTINUOUS
 10
3.410956
 20
0.403461
 30
0.0
 70
    64
  0
VERTEX
  8
0
  6
CONTINUOUS
 10
3.424676
 20
0.403461
 30
0.0
 70
    64
  0
VERTEX
  8
0
  6
CONTINUOUS
 10
3.438396
 20
0.403461
 30
0.0
 70
    64
  0
VERTEX
  8
0
  6
CONTINUOUS
 10
3.452116
 20
0.403461
 30
0.0
 70
    64
  0
VERTEX
  8
0
  6
CONTINUOUS
 10
3.465836
 20
0.403461
 30
0.0
 70
    64
  0
VERTEX
  8
0
  6
CONTINUOUS
 10
3.479556
 20
0.403461
 30
0.0
 70
    64
  0
VERTEX
  8
0
  6
CONTINUOUS
 10
3.493276
 20
0.403461
 30
0.0
 70
    64
  0
VERTEX
  8
0
  6
CONTINUOUS
 10
3.506996
 20
0.403461
 30
0.0
 70
    64
  0
VERTEX
  8
0
  6
CONTINUOUS
 10
3.520716
 20
0.403461
 30
0.0
 70
    64
  0
VERTEX
  8
0
  6
CONTINUOUS
 10
3.534436
 20
0.403461
 30
0.0
 70
    64
  0
VERTEX
  8
0
  6
CONTINUOUS
 10
3.548156
 20
0.403461
 30
0.0
 70
    64
  0
VERTEX
  8
0
  6
CONTINUOUS
 10
3.561876
 20
0.403461
 30
0.0
 70
    64
  0
VERTEX
  8
0
  6
CONTINUOUS
 10
3.575596
 20
0.403461
 30
0.0
 70
    64
  0
VERTEX
  8
0
  6
CONTINUOUS
 10
3.589316
 20
0.403461
 30
0.0
 70
    64
  0
VERTEX
  8
0
  6
CONTINUOUS
 10
3.603036
 20
0.403461
 30
0.0
 70
    64
  0
VERTEX
  8
0
  6
CONTINUOUS
 10
3.616756
 20
0.403461
 30
0.0
 70
    64
  0
VERTEX
  8
0
  6
CONTINUOUS
 10
3.630476
 20
0.403461
 30
0.0
 70
    64
  0
VERTEX
  8
0
  6
CONTINUOUS
 10
3.644196
 20
0.403461
 30
0.0
 70
    64
  0
VERTEX
  8
0
  6
CONTINUOUS
 10
3.657916
 20
0.403461
 30
0.0
 70
    64
  0
VERTEX
  8
0
  6
CONTINUOUS
 10
3.671636
 20
0.403461
 30
0.0
 70
    64
  0
VERTEX
  8
0
  6
CONTINUOUS
 10
3.685356
 20
0.403461
 30
0.0
 70
    64
  0
VERTEX
  8
0
  6
CONTINUOUS
 10
3.699076
 20
0.403461
 30
0.0
 70
    64
  0
VERTEX
  8
0
  6
CONTINUOUS
 10
3.712796
 20
0.403461
 30
0.0
 70
    64
  0
VERTEX
  8
0
  6
CONTINUOUS
 10
3.726516
 20
0.403461
 30
0.0
 70
    64
  0
VERTEX
  8
0
  6
CONTINUOUS
 10
3.740236
 20
0.403461
 30
0.0
 70
    64
  0
VERTEX
  8
0
  6
CONTINUOUS
 10
3.753956
 20
0.403461
 30
0.0
 70
    64
  0
VERTEX
  8
0
  6
CONTINUOUS
 10
3.767676
 20
0.403461
 30
0.0
 70
    64
  0
VERTEX
  8
0
  6
CONTINUOUS
 10
3.781396
 20
0.403461
 30
0.0
 70
    64
  0
VERTEX
  8
0
  6
CONTINUOUS
 10
3.795116
 20
0.403461
 30
0.0
 70
    64
  0
VERTEX
  8
0
  6
CONTINUOUS
 10
3.808836
 20
0.403461
 30
0.0
 70
    64
  0
VERTEX
  8
0
  6
CONTINUOUS
 10
3.822556
 20
0.403461
 30
0.0
 70
    64
  0
VERTEX
  8
0
  6
CONTINUOUS
 10
3.836276
 20
0.403461
 30
0.0
 70
    64
  0
VERTEX
  8
0
  6
CONTINUOUS
 10
3.849996
 20
0.403461
 30
0.0
 70
    64
  0
VERTEX
  8
0
  6
CONTINUOUS
 10
3.863716
 20
0.403461
 30
0.0
 70
    64
  0
VERTEX
  8
0
  6
CONTINUOUS
 10
3.877436
 20
0.403461
 30
0.0
 70
    64
  0
VERTEX
  8
0
  6
CONTINUOUS
 10
3.891156
 20
0.403461
 30
0.0
 70
    64
  0
VERTEX
  8
0
  6
CONTINUOUS
 10
3.904876
 20
0.403461
 30
0.0
 70
    64
  0
VERTEX
  8
0
  6
CONTINUOUS
 10
3.918596
 20
0.403461
 30
0.0
 70
    64
  0
VERTEX
  8
0
  6
CONTINUOUS
 10
3.932316
 20
0.403461
 30
0.0
 70
    64
  0
VERTEX
  8
0
  6
CONTINUOUS
 10
3.946036
 20
0.403461
 30
0.0
 70
    64
  0
VERTEX
  8
0
  6
CONTINUOUS
 10
3.959756
 20
0.403461
 30
0.0
 70
    64
  0
VERTEX
  8
0
  6
CONTINUOUS
 10
3.973476
 20
0.403461
 30
0.0
 70
    64
  0
VERTEX
  8
0
  6
CONTINUOUS
 10
3.987196
 20
0.403461
 30
0.0
 70
    64
  0
VERTEX
  8
0
  6
CONTINUOUS
 10
4.000916
 20
0.403461
 30
0.0
 70
    64
  0
VERTEX
  8
0
  6
CONTINUOUS
 10
4.014636
 20
0.403461
 30
0.0
 70
    64
  0
VERTEX
  8
0
  6
CONTINUOUS
 10
4.028356
 20
0.403461
 30
0.0
 70
    64
  0
VERTEX
  8
0
  6
CONTINUOUS
 10
4.042076
 20
0.403461
 30
0.0
 70
    64
  0
VERTEX
  8
0
  6
CONTINUOUS
 10
4.055796
 20
0.403461
 30
0.0
 70
    64
  0
VERTEX
  8
0
  6
CONTINUOUS
 10
4.069516
 20
0.403461
 30
0.0
 70
    64
  0
VERTEX
  8
0
  6
CONTINUOUS
 10
4.083236
 20
0.403461
 30
0.0
 70
    64
  0
VERTEX
  8
0
  6
CONTINUOUS
 10
4.096956
 20
0.403461
 30
0.0
 70
    64
  0
VERTEX
  8
0
  6
CONTINUOUS
 10
4.110676
 20
0.403461
 30
0.0
 70
    64
  0
VERTEX
  8
0
  6
CONTINUOUS
 10
4.124396
 20
0.403461
 30
0.0
 70
    64
  0
VERTEX
  8
0
  6
CONTINUOUS
 10
4.138116
 20
0.403461
 30
0.0
 70
    64
  0
VERTEX
  8
0
  6
CONTINUOUS
 10
4.151836
 20
0.403461
 30
0.0
 70
    64
  0
VERTEX
  8
0
  6
CONTINUOUS
 10
4.165556
 20
0.403461
 30
0.0
 70
    64
  0
VERTEX
  8
0
  6
CONTINUOUS
 10
4.179276
 20
0.403461
 30
0.0
 70
    64
  0
VERTEX
  8
0
  6
CONTINUOUS
 10
4.192996
 20
0.403461
 30
0.0
 70
    64
  0
VERTEX
  8
0
  6
CONTINUOUS
 10
4.206716
 20
0.403461
 30
0.0
 70
    64
  0
VERTEX
  8
0
  6
CONTINUOUS
 10
4.220436
 20
0.403461
 30
0.0
 70
    64
  0
VERTEX
  8
0
  6
CONTINUOUS
 10
4.234156
 20
0.403461
 30
0.0
 70
    64
  0
VERTEX
  8
0
  6
CONTINUOUS
 10
4.247876
 20
0.403461
 30
0.0
 70
    64
  0
VERTEX
  8
0
  6
CONTINUOUS
 10
4.261596
 20
0.403461
 30
0.0
 70
    64
  0
VERTEX
  8
0
  6
CONTINUOUS
 10
4.275316
 20
0.403461
 30
0.0
 70
    64
  0
VERTEX
  8
0
  6
CONTINUOUS
 10
4.289036
 20
0.403461
 30
0.0
 70
    64
  0
VERTEX
  8
0
  6
CONTINUOUS
 10
4.302756
 20
0.403461
 30
0.0
 70
    64
  0
VERTEX
  8
0
  6
CONTINUOUS
 10
4.316476
 20
0.403461
 30
0.0
 70
    64
  0
VERTEX
  8
0
  6
CONTINUOUS
 10
4.330196
 20
0.403461
 30
0.0
 70
    64
  0
VERTEX
  8
0
  6
CONTINUOUS
 10
4.343916
 20
0.403461
 30
0.0
 70
    64
  0
VERTEX
  8
0
  6
CONTINUOUS
 10
4.357636
 20
0.403461
 30
0.0
 70
    64
  0
VERTEX
  8
0
  6
CONTINUOUS
 10
4.371356
 20
0.403461
 30
0.0
 70
    64
  0
VERTEX
  8
0
  6
CONTINUOUS
 10
4.385076
 20
0.403461
 30
0.0
 70
    64
  0
VERTEX
  8
0
  6
CONTINUOUS
 10
4.398796
 20
0.403461
 30
0.0
 70
    64
  0
VERTEX
  8
0
  6
CONTINUOUS
 10
4.412516
 20
0.403461
 30
0.0
 70
    64
  0
VERTEX
  8
0
  6
CONTINUOUS
 10
4.426236
 20
0.403461
 30
0.0
 70
    64
  0
VERTEX
  8
0
  6
CONTINUOUS
 10
4.439956
 20
0.403461
 30
0.0
 70
    64
  0
VERTEX
  8
0
  6
CONTINUOUS
 10
4.453676
 20
0.403461
 30
0.0
 70
    64
  0
VERTEX
  8
0
  6
CONTINUOUS
 10
4.467396
 20
0.403461
 30
0.0
 70
    64
  0
VERTEX
  8
0
  6
CONTINUOUS
 10
4.481116
 20
0.403461
 30
0.0
 70
    64
  0
VERTEX
  8
0
  6
CONTINUOUS
 10
4.494836
 20
0.403461
 30
0.0
 70
    64
  0
VERTEX
  8
0
  6
CONTINUOUS
 10
4.508556
 20
0.403461
 30
0.0
 70
    64
  0
VERTEX
  8
0
  6
CONTINUOUS
 10
4.522276
 20
0.403461
 30
0.0
 70
    64
  0
VERTEX
  8
0
  6
CONTINUOUS
 10
4.535996
 20
0.403461
 30
0.0
 70
    64
  0
VERTEX
  8
0
  6
CONTINUOUS
 10
4.549716
 20
0.403461
 30
0.0
 70
    64
  0
VERTEX
  8
0
  6
CONTINUOUS
 10
4.563436
 20
0.403461
 30
0.0
 70
    64
  0
VERTEX
  8
0
  6
CONTINUOUS
 10
4.577156
 20
0.403461
 30
0.0
 70
    64
  0
VERTEX
  8
0
  6
CONTINUOUS
 10
4.590876
 20
0.403461
 30
0.0
 70
    64
  0
VERTEX
  8
0
  6
CONTINUOUS
 10
4.604596
 20
0.403461
 30
0.0
 70
    64
  0
VERTEX
  8
0
  6
CONTINUOUS
 10
4.618316
 20
0.403461
 30
0.0
 70
    64
  0
VERTEX
  8
0
  6
CONTINUOUS
 10
4.632036
 20
0.403461
 30
0.0
 70
    64
  0
VERTEX
  8
0
  6
CONTINUOUS
 10
4.645756
 20
0.403461
 30
0.0
 70
    64
  0
VERTEX
  8
0
  6
CONTINUOUS
 10
4.659476
 20
0.403461
 30
0.0
 70
    64
  0
VERTEX
  8
0
  6
CONTINUOUS
 10
4.673196
 20
0.403461
 30
0.0
 70
    64
  0
VERTEX
  8
0
  6
CONTINUOUS
 10
4.686916
 20
0.403461
 30
0.0
 70
    64
  0
VERTEX
  8
0
  6
CONTINUOUS
 10
4.700636
 20
0.403461
 30
0.0
 70
    64
  0
VERTEX
  8
0
  6
CONTINUOUS
 10
4.714356
 20
0.403461
 30
0.0
 70
    64
  0
VERTEX
  8
0
  6
CONTINUOUS
 10
4.728076
 20
0.403461
 30
0.0
 70
    64
  0
VERTEX
  8
0
  6
CONTINUOUS
 10
4.741796
 20
0.403461
 30
0.0
 70
    64
  0
VERTEX
  8
0
  6
CONTINUOUS
 10
4.755516
 20
0.403461
 30
0.0
 70
    64
  0
VERTEX
  8
0
  6
CONTINUOUS
 10
4.769236
 20
0.403461
 30
0.0
 70
    64
  0
VERTEX
  8
0
  6
CONTINUOUS
 10
4.782956
 20
0.403461
 30
0.0
 70
    64
  0
VERTEX
  8
0
  6
CONTINUOUS
 10
4.796676
 20
0.403461
 30
0.0
 70
    64
  0
VERTEX
  8
0
  6
CONTINUOUS
 10
4.810396
 20
0.403461
 30
0.0
 70
    64
  0
VERTEX
  8
0
  6
CONTINUOUS
 10
4.824116
 20
0.403461
 30
0.0
 70
    64
  0
VERTEX
  8
0
  6
CONTINUOUS
 10
4.837836
 20
0.403461
 30
0.0
 70
    64
  0
VERTEX
  8
0
  6
CONTINUOUS
 10
4.851556
 20
0.403461
 30
0.0
 70
    64
  0
VERTEX
  8
0
  6
CONTINUOUS
 10
4.865276
 20
0.403461
 30
0.0
 70
    64
  0
VERTEX
  8
0
  6
CONTINUOUS
 10
4.878996
 20
0.403461
 30
0.0
 70
    64
  0
VERTEX
  8
0
  6
CONTINUOUS
 10
4.892716
 20
0.403461
 30
0.0
 70
    64
  0
VERTEX
  8
0
  6
CONTINUOUS
 10
4.906436
 20
0.403461
 30
0.0
 70
    64
  0
VERTEX
  8
0
  6
CONTINUOUS
 10
4.920156
 20
0.403461
 30
0.0
 70
    64
  0
VERTEX
  8
0
  6
CONTINUOUS
 10
4.933876
 20
0.403461
 30
0.0
 70
    64
  0
VERTEX
  8
0
  6
CONTINUOUS
 10
4.947596
 20
0.403461
 30
0.0
 70
    64
  0
VERTEX
  8
0
  6
CONTINUOUS
 10
4.961316
 20
0.403461
 30
0.0
 70
    64
  0
VERTEX
  8
0
  6
CONTINUOUS
 10
4.975036
 20
0.403461
 30
0.0
 70
    64
  0
VERTEX
  8
0
  6
CONTINUOUS
 10
4.988756
 20
0.403461
 30
0.0
 70
    64
  0
VERTEX
  8
0
  6
CONTINUOUS
 10
5.002476
 20
0.403461
 30
0.0
 70
    64
  0
VERTEX
  8
0
  6
CONTINUOUS
 10
5.016196
 20
0.403461
 30
0.0
 70
    64
  0
VERTEX
  8
0
  6
CONTINUOUS
 10
5.029916
 20
0.403461
 30
0.0
 70
    64
  0
VERTEX
  8
0
  6
CONTINUOUS
 10
5.043636
 20
0.403461
 30
0.0
 70
    64
  0
VERTEX
  8
0
  6
CONTINUOUS
 10
5.057356
 20
0.403461
 30
0.0
 70
    64
  0
VERTEX
  8
0
  6
CONTINUOUS
 10
5.071076
 20
0.403461
 30
0.0
 70
    64
  0
VERTEX
  8
0
  6
CONTINUOUS
 10
5.084796
 20
0.403461
 30
0.0
 70
    64
  0
VERTEX
  8
0
  6
CONTINUOUS
 10
5.098516
 20
0.403461
 30
0.0
 70
    64
  0
VERTEX
  8
0
  6
CONTINUOUS
 10
5.112236
 20
0.403461
 30
0.0
 70
    64
  0
VERTEX
  8
0
  6
CONTINUOUS
 10
5.125956
 20
0.403461
 30
0.0
 70
    64
  0
VERTEX
  8
0
  6
CONTINUOUS
 10
5.139676
 20
0.403461
 30
0.0
 70
    64
  0
VERTEX
  8
0
  6
CONTINUOUS
 10
5.153396
 20
0.403461
 30
0.0
 70
    64
  0
VERTEX
  8
0
  6
CONTINUOUS
 10
5.167116
 20
0.403461
 30
0.0
 70
    64
  0
VERTEX
  8
0
  6
CONTINUOUS
 10
5.180836
 20
0.403461
 30
0.0
 70
    64
  0
VERTEX
  8
0
  6
CONTINUOUS
 10
5.194556
 20
0.403461
 30
0.0
 70
    64
  0
VERTEX
  8
0
  6
CONTINUOUS
 10
5.208276
 20
0.403461
 30
0.0
 70
    64
  0
VERTEX
  8
0
  6
CONTINUOUS
 10
5.221996
 20
0.403461
 30
0.0
 70
    64
  0
VERTEX
  8
0
  6
CONTINUOUS
 10
5.235716
 20
0.403461
 30
0.0
 70
    64
  0
VERTEX
  8
0
  6
CONTINUOUS
 10
5.249436
 20
0.403461
 30
0.0
 70
    64
  0
SEQEND
  8
0
  6
CONTINUOUS
  0
LINE
  8
0
  6
DASHED
 10
5.0
 20
-0.086539
 30
0.0
 11
15.0
 21
-0.086539
 31
0.0
  0
ARC
  8
0
  6
CONTINUOUS
 10
2.5
 20
-0.086539
 30
0.0
 40
2.5
 50
90.0
 51
270.0
  0
ENDBLK
  8
0
  0
BLOCK
  8
0
  2
B506
 70
    64
 10
0.0
 20
0.0
 30
0.0
  3
B506
  0
INSERT
  8
BASE
  6
CONTINUOUS
  2
BLC29
 10
1.994594
 20
-0.128476
 30
0.0
 50
180.0
  0
ENDBLK
  8
0
  0
BLOCK
  8
0
  2
B507
 70
    64
 10
0.0
 20
0.0
 30
0.0
  3
B507
  0
LINE
  8
0
  6
CONTINUOUS
 10
0.079622
 20
0.147754
 30
0.0
 11
0.079622
 21
-9.002074
 31
0.0
  0
INSERT
  8
0
  6
CONTINUOUS
  2
BLC29
 10
0.212369
 20
-6.641509
 30
0.0
 50
270.0
  0
ENDBLK
  8
0
  0
ENDSEC
  0
SECTION
  2
ENTITIES
  0
INSERT
  8
0
  2
1
 10
65.405438
 20
98.713066
 30
0.0
  0
INSERT
  8
0
  2
1
 10
72.541652
 20
49.71056
 30
0.0
  0
INSERT
  8
0
  2
1
 10
85.390443
 20
73.497234
 30
0.0
  0
LINE
  8
0
  6
CENTER
 62
   249
 10
260.0
 20
187.5
 30
0.0
 11
260.0
 21
80.0
 31
0.0
  0
LINE
  8
0
  6
CENTER
 62
   249
 10
260.0
 20
80.0
 30
0.0
 11
260.0
 21
42.5
 31
0.0
  0
LINE
  8
0
  6
CONTINUOUS
 62
   249
 10
210.450615
 20
179.709828
 30
0.0
 11
210.450615
 21
92.5
 31
0.0
  0
LINE
  8
0
  6
CONTINUOUS
 62
   249
 10
210.450615
 20
207.5
 30
0.0
 11
210.450615
 21
179.68832
 31
0.0
  0
LINE
  8
0
  6
CENTER
 62
   249
 10
260.0
 20
210.0
 30
0.0
 11
260.0
 21
187.5
 31
0.0
  0
LINE
  8
0
  6
CONTINUOUS
 62
   249
 10
200.0
 20
102.5
 30
0.0
 11
200.0
 21
140.0
 31
0.0
  0
LINE
  8
0
  6
CONTINUOUS
 62
   249
 10
180.0
 20
192.5
 30
0.0
 11
180.0
 21
177.5
 31
0.0
  0
LINE
  8
0
  6
CONTINUOUS
 62
   249
 10
180.0
 20
192.5
 30
0.0
 11
180.0
 21
207.5
 31
0.0
  0
LINE
  8
0
  6
CONTINUOUS
 62
   249
 10
180.0
 20
177.5
 30
0.0
 11
180.0
 21
102.5
 31
0.0
  0
LINE
  8
0
  6
CENTER
 62
   249
 10
40.0
 20
235.0
 30
0.0
 11
40.0
 21
42.5
 31
0.0
  0
LINE
  8
0
  6
CONTINUOUS
 62
   249
 10
62.5
 20
125.0
 30
0.0
 11
56.756076
 21
121.785297
 31
0.0
  0
LINE
  8
0
  6
CONTINUOUS
 62
   249
 10
77.5
 20
115.0
 30
0.0
 11
71.756076
 21
111.785297
 31
0.0
  0
LINE
  8
0
  6
CONTINUOUS
 62
   249
 10
77.5
 20
115.0
 30
0.0
 11
80.0
 21
115.0
 31
0.0
  0
LINE
  8
0
  6
CONTINUOUS
 62
   249
 10
72.5
 20
115.0
 30
0.0
 11
40.0
 21
115.0
 31
0.0
  0
LINE
  8
0
  6
DASHED
 62
   249
 10
60.0
 20
130.0
 30
0.0
 11
60.0
 21
123.600824
 31
0.0
  0
LINE
  8
0
  6
DASHED
 62
   249
 10
75.0
 20
127.5
 30
0.0
 11
75.0
 21
113.600824
 31
0.0
  0
LINE
  8
0
  6
DASHED
 62
   249
 10
85.0
 20
127.5
 30
0.0
 11
85.0
 21
98.600824
 31
0.0
  0
LINE
  8
0
  6
DASHED
 62
   249
 10
100.0
 20
127.5
 30
0.0
 11
100.0
 21
83.600824
 31
0.0
  0
TEXT
  8
0
  6
DASHED
 62
   249
 10
55.697373
 20
125.903492
 30
0.0
 40
2.0
  1
A
  7
ROMANS
  0
TEXT
  8
0
  6
DASHED
 62
   249
 10
71.643373
 20
116.274588
 30
0.0
 40
2.0
  1
B
  7
ROMANS
  0
TEXT
  8
0
  6
DASHED
 62
   249
 10
81.055109
 20
100.634364
 30
0.0
 40
2.0
  1
C
  7
ROMANS
  0
TEXT
  8
0
  6
DASHED
 62
   249
 10
95.984014
 20
85.755752
 30
0.0
 40
2.0
  1
D
  7
ROMANS
  0
LINE
  8
0
  6
CENTER
 62
   249
 10
40.0
 20
42.5
 30
0.0
 11
260.0
 21
42.5
 31
0.0
  0
LINE
  8
0
  6
CENTER
 62
   249
 10
260.0
 20
210.0
 30
0.0
 11
260.0
 21
235.0
 31
0.0
  0
LINE
  8
0
  6
CENTER
 62
   249
 10
260.0
 20
235.0
 30
0.0
 11
40.0
 21
235.0
 31
0.0
  0
LINE
  8
0
  6
CONTINUOUS
 62
   249
 10
25.0
 20
100.0
 30
0.0
 11
25.0
 21
89.999655
 31
0.0
  0
LINE
  8
0
  6
CONTINUOUS
 62
   249
 10
25.0
 20
100.0
 30
0.0
 11
26.0
 21
101.0
 31
0.0
  0
LINE
  8
0
  6
CONTINUOUS
 62
   249
 10
25.0
 20
89.999655
 30
0.0
 11
26.0
 21
88.999655
 31
0.0
  0
TEXT
  8
0
  6
CONTINUOUS
 62
   249
 10
20.0
 20
121.777191
 30
0.0
 40
2.0
  1
4)
  7
ROMANS
  0
LINE
  8
0
  6
CONTINUOUS
 62
   249
 10
180.0
 20
140.0
 30
0.0
 11
210.450615
 21
140.0
 31
0.0
  0
TEXT
  8
0
 62
   249
 10
347.947956
 20
99.982256
 30
0.0
 40
2.0
  1
TERMINALS / UTTAG
  7
ROMANS
 11
347.947956
 21
99.315589
 31
0.0
 73
     1
  0
LINE
  8
0
 62
   249
 10
356.00882
 20
70.208656
 30
0.0
 11
386.00882
 21
70.208656
 31
0.0
  0
LINE
  8
0
 62
   249
 10
371.092711
 20
99.315589
 30
0.0
 11
371.092711
 21
53.163378
 31
0.0
  0
LINE
  8
0
 62
   249
 10
356.00882
 20
99.315589
 30
0.0
 11
356.00882
 21
53.163378
 31
0.0
  0
LINE
  8
0
 62
   249
 10
342.00882
 20
99.315589
 30
0.0
 11
386.00882
 21
99.315589
 31
0.0
  0
LINE
  8
0
 62
   249
 10
386.00882
 20
53.163378
 30
0.0
 11
386.00882
 21
105.315589
 31
0.0
  0
LINE
  8
0
 62
   249
 10
342.00882
 20
105.315589
 30
0.0
 11
342.00882
 21
53.163378
 31
0.0
  0
LINE
  8
0
  6
CONTINUOUS
 62
   249
 10
342.00882
 20
53.163378
 30
0.0
 11
386.00882
 21
53.163378
 31
0.0
  0
LINE
  8
0
  6
CONTINUOUS
 62
   249
 10
199.245375
 20
199.210612
 30
0.0
 11
199.245375
 21
197.422481
 31
0.0
  0
LINE
  8
0
  6
CONTINUOUS
 62
   249
 10
193.845856
 20
197.197731
 30
0.0
 11
196.721966
 21
200.026289
 31
0.0
  0
ARC
  8
0
  6
HIDDEN
 62
   249
 10
198.156579
 20
202.293878
 30
0.0
 40
4.998196
 50
206.402922
 51
282.21115
  0
LINE
  8
0
  6
CONTINUOUS
 62
   249
 10
196.291263
 20
200.563496
 30
0.0
 11
197.19194
 21
199.439747
 31
0.0
  0
LINE
  8
0
  6
CONTINUOUS
 62
   249
 10
191.461711
 20
198.365333
 30
0.0
 11
199.249916
 21
198.365333
 31
0.0
  0
LINE
  8
0
  6
CONTINUOUS
 62
   249
 10
191.430679
 20
199.210612
 30
0.0
 11
191.430679
 21
197.422481
 31
0.0
  0
LINE
  8
0
  6
HIDDEN
 62
   249
 10
182.5
 20
190.0
 30
0.0
 11
200.0
 21
190.0
 31
0.0
  0
TEXT
  8
0
  6
CONTINUOUS
 62
   249
 10
183.770128
 20
184.8404
 30
0.0
 40
2.5
  1
I
 11
183.770128
 21
184.007066
 31
0.0
 73
     1
  0
LINE
  8
0
  6
CONTINUOUS
 62
   249
 10
189.325097
 20
186.043003
 30
0.0
 11
186.979331
 21
184.853084
 31
0.0
  0
LINE
  8
0
  6
CONTINUOUS
 62
   249
 10
186.979331
 20
187.378357
 30
0.0
 11
189.325097
 21
186.043003
 31
0.0
  0
LINE
  8
0
  6
CONTINUOUS
 62
   249
 10
187.678827
 20
186.043003
 30
0.0
 11
185.333062
 21
184.853084
 31
0.0
  0
LINE
  8
0
  6
CONTINUOUS
 62
   249
 10
185.333062
 20
187.378357
 30
0.0
 11
187.678827
 21
186.043003
 31
0.0
  0
LINE
  8
0
  6
CONTINUOUS
 62
   249
 10
199.245829
 20
186.615882
 30
0.0
 11
199.245829
 21
184.82775
 31
0.0
  0
LINE
  8
0
  6
CONTINUOUS
 62
   249
 10
193.84631
 20
184.603
 30
0.0
 11
196.72242
 21
187.431559
 31
0.0
  0
LINE
  8
0
  6
CONTINUOUS
 62
   249
 10
196.291717
 20
187.968766
 30
0.0
 11
197.192394
 21
186.845017
 31
0.0
  0
LINE
  8
0
  6
CONTINUOUS
 62
   249
 10
191.462165
 20
185.770603
 30
0.0
 11
199.25037
 21
185.770603
 31
0.0
  0
LINE
  8
0
  6
CONTINUOUS
 62
   249
 10
191.431134
 20
186.615882
 30
0.0
 11
191.431134
 21
184.82775
 31
0.0
  0
LINE
  8
0
  6
HIDDEN
 62
   249
 10
182.5
 20
195.0
 30
0.0
 11
200.0
 21
195.0
 31
0.0
  0
LINE
  8
0
  6
CONTINUOUS
 62
   249
 10
185.333062
 20
193.730934
 30
0.0
 11
187.678827
 21
192.395581
 31
0.0
  0
LINE
  8
0
  6
CONTINUOUS
 62
   249
 10
187.678827
 20
192.395581
 30
0.0
 11
185.333062
 21
191.205662
 31
0.0
  0
LINE
  8
0
  6
CONTINUOUS
 62
   249
 10
187.039186
 20
193.730934
 30
0.0
 11
189.384951
 21
192.395581
 31
0.0
  0
LINE
  8
0
  6
CONTINUOUS
 62
   249
 10
189.384951
 20
192.395581
 30
0.0
 11
187.039186
 21
191.205662
 31
0.0
  0
TEXT
  8
0
  6
CONTINUOUS
 62
   249
 10
183.770128
 20
191.192977
 30
0.0
 40
2.5
  1
I
 11
183.770128
 21
190.359644
 31
0.0
 73
     1
  0
LINE
  8
0
  6
HIDDEN
 62
   249
 10
182.5
 20
202.5
 30
0.0
 11
200.0
 21
202.5
 31
0.0
  0
TEXT
  8
0
  6
CONTINUOUS
 62
   249
 10
183.770128
 20
197.252437
 30
0.0
 40
2.5
  1
I
 11
183.770128
 21
196.419104
 31
0.0
 73
     1
  0
LINE
  8
0
  6
CONTINUOUS
 62
   249
 10
188.906117
 20
198.455041
 30
0.0
 11
186.560351
 21
197.265121
 31
0.0
  0
LINE
  8
0
  6
CONTINUOUS
 62
   249
 10
186.560351
 20
199.790394
 30
0.0
 11
188.906117
 21
198.455041
 31
0.0
  0
LINE
  8
0
  6
CONTINUOUS
 62
   249
 10
180.0
 20
207.5
 30
0.0
 11
210.450615
 21
207.5
 31
0.0
  0
LINE
  8
0
  6
CONTINUOUS
 62
   249
 10
186.560351
 20
205.779314
 30
0.0
 11
188.906117
 21
204.44396
 31
0.0
  0
LINE
  8
0
  6
CONTINUOUS
 62
   249
 10
188.906117
 20
204.44396
 30
0.0
 11
186.560351
 21
203.254041
 31
0.0
  0
TEXT
  8
0
  6
CONTINUOUS
 62
   249
 10
183.770128
 20
203.241357
 30
0.0
 40
2.5
  1
I
 11
183.770128
 21
202.408023
 31
0.0
 73
     1
  0
TEXT
  8
0
  6
CONTINUOUS
 62
   249
 10
205.0
 20
202.5
 30
0.0
 40
2.5
  1
U1
  7
MONOTXT
  0
LINE
  8
0
  6
CONTINUOUS
 62
   249
 10
207.733778
 20
189.302677
 30
0.0
 11
210.079543
 21
187.967324
 31
0.0
  0
LINE
  8
0
  6
CONTINUOUS
 62
   249
 10
210.079543
 20
187.967324
 30
0.0
 11
207.733778
 21
186.777405
 31
0.0
  0
LINE
  8
0
  6
CONTINUOUS
 62
   249
 10
52.798812
 20
207.5
 30
0.0
 11
40.0
 21
207.5
 31
0.0
  0
LINE
  8
0
  6
CONTINUOUS
 62
   249
 10
52.798812
 20
212.5
 30
0.0
 11
40.0
 21
212.5
 31
0.0
  0
LINE
  8
0
 62
   249
 10
52.798812
 20
214.089925
 30
0.0
 11
52.798812
 21
206.204212
 31
0.0
  0
LINE
  8
0
 62
   249
 10
57.004853
 20
214.09384
 30
0.0
 11
55.09105
 21
211.815018
 31
0.0
  0
LINE
  8
0
 62
   249
 10
58.496971
 20
214.09384
 30
0.0
 11
56.642636
 21
211.815018
 31
0.0
  0
LINE
  8
0
 62
   249
 10
60.221556
 20
214.089925
 30
0.0
 11
52.798812
 21
214.089925
 31
0.0
  0
LINE
  8
0
 62
   249
 10
60.221556
 20
206.204212
 30
0.0
 11
60.221556
 21
214.089925
 31
0.0
  0
LINE
  8
0
  6
CONTINUOUS
 62
   249
 10
60.221556
 20
210.0
 30
0.0
 11
65.0
 21
210.0
 31
0.0
  0
LINE
  8
0
 62
   249
 10
60.221556
 20
206.204212
 30
0.0
 11
52.798812
 21
206.204212
 31
0.0
  0
LINE
  8
0
 62
   249
 10
245.0
 20
170.0
 30
0.0
 11
243.480133
 21
170.0
 31
0.0
  0
ARC
  8
0
 62
   249
 10
245.065849
 20
171.25
 30
0.0
 40
1.251733
 50
266.984476
 51
93.015524
  0
LINE
  8
0
 62
   249
 10
245.0
 20
172.5
 30
0.0
 11
243.480133
 21
172.5
 31
0.0
  0
LINE
  8
0
 62
   249
 10
245.0
 20
175.0
 30
0.0
 11
243.480133
 21
175.0
 31
0.0
  0
ARC
  8
0
 62
   249
 10
245.065849
 20
173.75
 30
0.0
 40
1.251733
 50
266.984476
 51
93.015524
  0
LINE
  8
0
 62
   249
 10
250.0
 20
167.5
 30
0.0
 11
252.5
 21
167.5
 31
0.0
  0
ARC
  8
0
 62
   249
 10
249.934151
 20
168.75
 30
0.0
 40
1.251733
 50
86.984476
 51
273.015524
  0
ARC
  8
0
 62
   249
 10
249.934151
 20
171.25
 30
0.0
 40
1.251733
 50
86.984476
 51
273.015524
  0
LINE
  8
0
 62
   249
 10
250.0
 20
170.0
 30
0.0
 11
252.5
 21
170.0
 31
0.0
  0
LINE
  8
0
 62
   249
 10
250.0
 20
172.5
 30
0.0
 11
252.5
 21
172.5
 31
0.0
  0
LINE
  8
0
 62
   249
 10
252.5
 20
172.5
 30
0.0
 11
255.0
 21
172.5
 31
0.0
  0
LINE
  8
0
 62
   249
 10
252.5
 20
167.5
 30
0.0
 11
260.0
 21
167.5
 31
0.0
  0
LINE
  8
0
 62
   249
 10
252.5
 20
172.5
 30
0.0
 11
260.0
 21
172.5
 31
0.0
  0
LINE
  8
0
 62
   249
 10
252.5
 20
177.5
 30
0.0
 11
260.0
 21
177.5
 31
0.0
  0
LINE
  8
0
 62
   249
 10
250.0
 20
177.5
 30
0.0
 11
252.5
 21
177.5
 31
0.0
  0
LINE
  8
0
 62
   249
 10
250.0
 20
175.0
 30
0.0
 11
252.5
 21
175.0
 31
0.0
  0
ARC
  8
0
 62
   249
 10
249.934151
 20
176.25
 30
0.0
 40
1.251733
 50
86.984476
 51
273.015524
  0
ARC
  8
0
 62
   249
 10
249.934151
 20
173.75
 30
0.0
 40
1.251733
 50
86.984476
 51
273.015524
  0
LINE
  8
0
 62
   249
 10
250.0
 20
172.5
 30
0.0
 11
252.5
 21
172.5
 31
0.0
  0
LINE
  8
0
 62
   249
 10
245.0
 20
190.0
 30
0.0
 11
243.480133
 21
190.0
 31
0.0
  0
ARC
  8
0
 62
   249
 10
245.065849
 20
191.25
 30
0.0
 40
1.251733
 50
266.984476
 51
93.015524
  0
LINE
  8
0
 62
   249
 10
245.0
 20
192.5
 30
0.0
 11
243.480133
 21
192.5
 31
0.0
  0
LINE
  8
0
 62
   249
 10
245.0
 20
195.0
 30
0.0
 11
243.480133
 21
195.0
 31
0.0
  0
ARC
  8
0
 62
   249
 10
245.065849
 20
193.75
 30
0.0
 40
1.251733
 50
266.984476
 51
93.015524
  0
LINE
  8
0
 62
   249
 10
250.0
 20
187.5
 30
0.0
 11
252.5
 21
187.5
 31
0.0
  0
ARC
  8
0
 62
   249
 10
249.934151
 20
188.75
 30
0.0
 40
1.251733
 50
86.984476
 51
273.015524
  0
ARC
  8
0
 62
   249
 10
249.934151
 20
191.25
 30
0.0
 40
1.251733
 50
86.984476
 51
273.015524
  0
LINE
  8
0
 62
   249
 10
250.0
 20
190.0
 30
0.0
 11
252.5
 21
190.0
 31
0.0
  0
LINE
  8
0
 62
   249
 10
250.0
 20
192.5
 30
0.0
 11
252.5
 21
192.5
 31
0.0
  0
LINE
  8
0
 62
   249
 10
252.5
 20
192.5
 30
0.0
 11
255.0
 21
192.5
 31
0.0
  0
LINE
  8
0
 62
   249
 10
252.5
 20
187.5
 30
0.0
 11
260.0
 21
187.5
 31
0.0
  0
LINE
  8
0
 62
   249
 10
252.5
 20
192.5
 30
0.0
 11
260.0
 21
192.5
 31
0.0
  0
LINE
  8
0
 62
   249
 10
252.5
 20
197.5
 30
0.0
 11
260.0
 21
197.5
 31
0.0
  0
LINE
  8
0
 62
   249
 10
250.0
 20
197.5
 30
0.0
 11
252.5
 21
197.5
 31
0.0
  0
LINE
  8
0
 62
   249
 10
250.0
 20
195.0
 30
0.0
 11
252.5
 21
195.0
 31
0.0
  0
ARC
  8
0
 62
   249
 10
249.934151
 20
196.25
 30
0.0
 40
1.251733
 50
86.984476
 51
273.015524
  0
ARC
  8
0
 62
   249
 10
249.934151
 20
193.75
 30
0.0
 40
1.251733
 50
86.984476
 51
273.015524
  0
LINE
  8
0
 62
   249
 10
250.0
 20
192.5
 30
0.0
 11
252.5
 21
192.5
 31
0.0
  0
LINE
  8
0
 62
   249
 10
245.0
 20
210.0
 30
0.0
 11
243.480133
 21
210.0
 31
0.0
  0
ARC
  8
0
 62
   249
 10
245.065849
 20
211.25
 30
0.0
 40
1.251733
 50
266.984476
 51
93.015524
  0
LINE
  8
0
 62
   249
 10
245.0
 20
212.5
 30
0.0
 11
243.480133
 21
212.5
 31
0.0
  0
LINE
  8
0
 62
   249
 10
245.0
 20
215.0
 30
0.0
 11
243.480133
 21
215.0
 31
0.0
  0
ARC
  8
0
 62
   249
 10
245.065849
 20
213.75
 30
0.0
 40
1.251733
 50
266.984476
 51
93.015524
  0
LINE
  8
0
 62
   249
 10
250.0
 20
207.5
 30
0.0
 11
252.5
 21
207.5
 31
0.0
  0
ARC
  8
0
 62
   249
 10
249.934151
 20
208.75
 30
0.0
 40
1.251733
 50
86.984476
 51
273.015524
  0
ARC
  8
0
 62
   249
 10
249.934151
 20
211.25
 30
0.0
 40
1.251733
 50
86.984476
 51
273.015524
  0
LINE
  8
0
 62
   249
 10
250.0
 20
210.0
 30
0.0
 11
252.5
 21
210.0
 31
0.0
  0
LINE
  8
0
 62
   249
 10
250.0
 20
212.5
 30
0.0
 11
252.5
 21
212.5
 31
0.0
  0
LINE
  8
0
 62
   249
 10
252.5
 20
212.5
 30
0.0
 11
255.0
 21
212.5
 31
0.0
  0
LINE
  8
0
 62
   249
 10
252.5
 20
207.5
 30
0.0
 11
260.0
 21
207.5
 31
0.0
  0
LINE
  8
0
 62
   249
 10
252.5
 20
212.5
 30
0.0
 11
255.0
 21
212.5
 31
0.0
  0
LINE
  8
0
 62
   249
 10
252.5
 20
217.5
 30
0.0
 11
255.0
 21
217.5
 31
0.0
  0
LINE
  8
0
 62
   249
 10
250.0
 20
217.5
 30
0.0
 11
260.0
 21
217.5
 31
0.0
  0
LINE
  8
0
 62
   249
 10
250.0
 20
215.0
 30
0.0
 11
252.5
 21
215.0
 31
0.0
  0
ARC
  8
0
 62
   249
 10
249.934151
 20
216.25
 30
0.0
 40
1.251733
 50
86.984476
 51
273.015524
  0
ARC
  8
0
 62
   249
 10
249.934151
 20
213.75
 30
0.0
 40
1.251733
 50
86.984476
 51
273.015524
  0
LINE
  8
0
 62
   249
 10
250.0
 20
212.5
 30
0.0
 11
260.0
 21
212.5
 31
0.0
  0
TEXT
  8
0
  6
CONTINUOUS
 62
   249
 10
256.467231
 20
214.663714
 30
0.0
 40
2.0
  1
3
  7
ROMANS
  0
TEXT
  8
0
  6
CONTINUOUS
 62
   249
 10
256.467231
 20
209.699365
 30
0.0
 40
2.0
  1
2
  7
ROMANS
  0
TEXT
  8
0
  6
CONTINUOUS
 62
   249
 10
256.467231
 20
204.746037
 30
0.0
 40
2.0
  1
1
  7
ROMANS
  0
TEXT
  8
0
  6
CONTINUOUS
 62
   249
 10
256.467231
 20
174.606638
 30
0.0
 40
2.0
  1
9
  7
ROMANS
  0
TEXT
  8
0
  6
CONTINUOUS
 62
   249
 10
256.467231
 20
170.005961
 30
0.0
 40
2.0
  1
8
  7
ROMANS
  0
TEXT
  8
0
  6
CONTINUOUS
 62
   249
 10
256.467231
 20
164.501615
 30
0.0
 40
2.0
  1
7
  7
ROMANS
  0
LINE
  8
0
  6
HIDDEN
 62
   249
 10
260.0
 20
222.5
 30
0.0
 11
255.0
 21
222.5
 31
0.0
  0
LINE
  8
0
  6
HIDDEN
 62
   249
 10
255.0
 20
222.5
 30
0.0
 11
255.0
 21
162.5
 31
0.0
  0
LINE
  8
0
  6
HIDDEN
 62
   249
 10
255.0
 20
57.5
 30
0.0
 11
260.0
 21
57.5
 31
0.0
  0
TEXT
  8
0
  6
HIDDEN
 62
   249
 10
255.929881
 20
218.686149
 30
0.0
 40
2.0
  1
X0
  7
ROMANS
  0
LINE
  8
0
  6
DASHED
 62
   249
 10
40.0
 20
212.5
 30
0.0
 11
32.5
 21
212.5
 31
0.0
  0
LINE
  8
0
  6
DASHED
 62
   249
 10
40.0
 20
207.5
 30
0.0
 11
32.5
 21
207.5
 31
0.0
  0
LINE
  8
0
  6
CONTINUOUS
 62
   249
 10
22.5
 20
207.499655
 30
0.0
 11
23.5
 21
206.499655
 31
0.0
  0
LINE
  8
0
  6
CONTINUOUS
 62
   249
 10
22.5
 20
212.5
 30
0.0
 11
23.5
 21
213.5
 31
0.0
  0
LINE
  8
0
  6
CONTINUOUS
 62
   249
 10
22.5
 20
212.5
 30
0.0
 11
22.5
 21
207.499655
 31
0.0
  0
LINE
  8
0
  6
DASHED
 62
   249
 10
40.0
 20
100.0
 30
0.0
 11
27.5
 21
100.0
 31
0.0
  0
LINE
  8
0
  6
DASHED
 62
   249
 10
40.0
 20
90.0
 30
0.0
 11
27.5
 21
90.0
 31
0.0
  0
LINE
  8
0
  6
DASHED
 62
   249
 10
40.0
 20
85.0
 30
0.0
 11
27.5
 21
85.0
 31
0.0
  0
LINE
  8
0
  6
DASHED
 62
   249
 10
40.0
 20
75.0
 30
0.0
 11
27.5
 21
75.0
 31
0.0
  0
LINE
  8
0
  6
CONTINUOUS
 62
   249
 10
25.0
 20
85.0
 30
0.0
 11
26.0
 21
86.0
 31
0.0
  0
LINE
  8
0
  6
CONTINUOUS
 62
   249
 10
25.0
 20
74.999655
 30
0.0
 11
26.0
 21
73.999655
 31
0.0
  0
LINE
  8
0
  6
CONTINUOUS
 62
   249
 10
25.0
 20
85.0
 30
0.0
 11
25.0
 21
74.999655
 31
0.0
  0
LINE
  8
0
  6
CONTINUOUS
 62
   249
 10
355.727984
 20
191.841081
 30
0.0
 11
355.727984
 21
257.5
 31
0.0
  0
LINE
  8
0
  6
CONTINUOUS
 62
   249
 10
375.727984
 20
257.5
 30
0.0
 11
375.727984
 21
191.841081
 31
0.0
  0
LINE
  8
0
  6
CONTINUOUS
 62
   249
 10
355.727984
 20
257.5
 30
0.0
 11
375.727984
 21
257.5
 31
0.0
  0
LINE
  8
0
  6
CONTINUOUS
 62
   249
 10
355.727984
 20
225.0
 30
0.0
 11
375.727984
 21
225.0
 31
0.0
  0
LINE
  8
0
  6
CONTINUOUS
 62
   249
 10
361.32826
 20
235.552173
 30
0.0
 11
361.32826
 21
233.764041
 31
0.0
  0
LINE
  8
0
  6
CONTINUOUS
 62
   249
 10
361.359291
 20
234.706894
 30
0.0
 11
369.147496
 21
234.706894
 31
0.0
  0
LINE
  8
0
  6
CONTINUOUS
 62
   249
 10
363.743436
 20
233.539291
 30
0.0
 11
366.619546
 21
236.36785
 31
0.0
  0
LINE
  8
0
  6
CONTINUOUS
 62
   249
 10
366.188843
 20
236.905057
 30
0.0
 11
367.08952
 21
235.781308
 31
0.0
  0
LINE
  8
0
  6
CONTINUOUS
 62
   249
 10
369.142955
 20
235.552173
 30
0.0
 11
369.142955
 21
233.764041
 31
0.0
  0
LINE
  8
0
  6
CONTINUOUS
 62
   249
 10
371.217867
 20
242.00956
 30
0.0
 11
368.872101
 21
240.819641
 31
0.0
  0
LINE
  8
0
  6
CONTINUOUS
 62
   249
 10
368.872101
 20
243.344914
 30
0.0
 11
371.217867
 21
242.00956
 31
0.0
  0
LINE
  8
0
  6
CONTINUOUS
 62
   249
 10
366.821088
 20
243.344914
 30
0.0
 11
369.166854
 21
242.00956
 31
0.0
  0
LINE
  8
0
  6
CONTINUOUS
 62
   249
 10
369.166854
 20
242.00956
 30
0.0
 11
366.821088
 21
240.819641
 31
0.0
  0
LINE
  8
0
  6
CONTINUOUS
 62
   249
 10
369.142955
 20
247.706143
 30
0.0
 11
369.142955
 21
245.918012
 31
0.0
  0
LINE
  8
0
  6
CONTINUOUS
 62
   249
 10
363.743436
 20
245.693262
 30
0.0
 11
366.619546
 21
248.521821
 31
0.0
  0
ARC
  8
0
  6
HIDDEN
 62
   249
 10
368.054159
 20
250.789409
 30
0.0
 40
4.998196
 50
206.402922
 51
282.21115
  0
LINE
  8
0
  6
CONTINUOUS
 62
   249
 10
366.188843
 20
249.059027
 30
0.0
 11
367.08952
 21
247.935278
 31
0.0
  0
LINE
  8
0
  6
CONTINUOUS
 62
   249
 10
361.359291
 20
246.860865
 30
0.0
 11
369.147496
 21
246.860865
 31
0.0
  0
LINE
  8
0
  6
CONTINUOUS
 62
   249
 10
361.32826
 20
247.706143
 30
0.0
 11
361.32826
 21
245.918012
 31
0.0
  0
LINE
  8
0
  6
CONTINUOUS
 62
   249
 10
368.924329
 20
254.4814
 30
0.0
 11
366.578563
 21
253.291481
 31
0.0
  0
LINE
  8
0
  6
CONTINUOUS
 62
   249
 10
366.578563
 20
255.816754
 30
0.0
 11
368.924329
 21
254.4814
 31
0.0
  0
TEXT
  8
0
  6
CONTINUOUS
 62
   249
 10
358.574498
 20
95.463908
 30
0.0
 40
2.0
  1
In=1A
  7
ROMANS
  0
TEXT
  8
0
  6
CONTINUOUS
 62
   249
 10
346.409044
 20
81.281348
 30
0.0
 40
2.0
  1
L3
  7
ROMANS
  0
TEXT
  8
0
  6
CONTINUOUS
 62
   249
 10
359.73092
 20
81.209386
 30
0.0
 40
2.0
  1
7-9
  7
ROMANS
  0
TEXT
  8
0
  6
CONTINUOUS
 62
   249
 10
374.870919
 20
81.209386
 30
0.0
 40
2.0
  1
7-8
  7
ROMANS
  0
LINE
  8
0
 62
   249
 10
356.00882
 20
94.815589
 30
0.0
 11
386.00882
 21
94.815589
 31
0.0
  0
TEXT
  8
0
  6
DASHED
 62
   249
 10
373.577552
 20
95.463908
 30
0.0
 40
2.0
  1
In=5A
  7
ROMANS
  0
TEXT
  8
0
  6
DASHED
 62
   249
 10
346.409044
 20
89.512907
 30
0.0
 40
2.0
  1
L1            
  7
ROMANS
  0
TEXT
  8
0
  6
DASHED
 62
   249
 10
359.662617
 20
89.512907
 30
0.0
 40
2.0
  1
1-3
  7
ROMANS
  0
TEXT
  8
0
  6
DASHED
 62
   249
 10
374.817832
 20
89.512907
 30
0.0
 40
2.0
  1
1-2
  7
ROMANS
  0
TEXT
  8
0
  6
CONTINUOUS
 62
   249
 10
356.706231
 20
71.238506
 30
0.0
 40
2.0
  1
Un=100V
  7
ROMANS
  0
TEXT
  8
0
  6
CONTINUOUS
 62
   249
 10
371.656524
 20
71.238506
 30
0.0
 40
2.0
  1
Un=110V
  7
ROMANS
  0
LINE
  8
0
  6
CONTINUOUS
 62
   249
 10
180.0
 20
170.0
 30
0.0
 11
210.450615
 21
170.0
 31
0.0
  0
TEXT
  8
0
  6
CONTINUOUS
 62
   249
 10
205.001359
 20
135.658649
 30
0.0
 40
2.5
  1
U3
  7
GREEKS
  0
ARC
  8
0
 62
   249
 10
249.934151
 20
108.75
 30
0.0
 40
1.251733
 50
86.984476
 51
273.015524
  0
ARC
  8
0
 62
   249
 10
249.934151
 20
111.25
 30
0.0
 40
1.251733
 50
86.984476
 51
273.015524
  0
LINE
  8
0
 62
   249
 10
250.0
 20
110.0
 30
0.0
 11
252.5
 21
110.0
 31
0.0
  0
LINE
  8
0
 62
   249
 10
252.5
 20
112.5
 30
0.0
 11
255.0
 21
112.5
 31
0.0
  0
LINE
  8
0
 62
   249
 10
252.5
 20
107.5
 30
0.0
 11
255.0
 21
107.5
 31
0.0
  0
LINE
  8
0
 62
   249
 10
252.5
 20
107.5
 30
0.0
 11
255.0
 21
107.5
 31
0.0
  0
LINE
  8
0
 62
   249
 10
250.0
 20
107.5
 30
0.0
 11
260.0
 21
107.5
 31
0.0
  0
LINE
  8
0
 62
   249
 10
250.0
 20
105.0
 30
0.0
 11
252.5
 21
105.0
 31
0.0
  0
ARC
  8
0
 62
   249
 10
249.934151
 20
106.25
 30
0.0
 40
1.251733
 50
86.984476
 51
273.015524
  0
ARC
  8
0
 62
   249
 10
249.934151
 20
103.75
 30
0.0
 40
1.251733
 50
86.984476
 51
273.015524
  0
LINE
  8
0
 62
   249
 10
250.0
 20
102.5
 30
0.0
 11
252.5
 21
102.5
 31
0.0
  0
ARC
  8
0
 62
   249
 10
245.065849
 20
108.75
 30
0.0
 40
1.251733
 50
266.984476
 51
93.015524
  0
LINE
  8
0
 62
   249
 10
245.0
 20
110.0
 30
0.0
 11
243.480133
 21
110.0
 31
0.0
  0
LINE
  8
0
 62
   249
 10
245.0
 20
107.5
 30
0.0
 11
243.480133
 21
107.5
 31
0.0
  0
ARC
  8
0
 62
   249
 10
245.065849
 20
106.25
 30
0.0
 40
1.251733
 50
266.984476
 51
93.015524
  0
LINE
  8
0
 62
   249
 10
245.0
 20
105.0
 30
0.0
 11
243.480133
 21
105.0
 31
0.0
  0
LINE
  8
0
 62
   249
 10
250.0
 20
87.5
 30
0.0
 11
252.5
 21
87.5
 31
0.0
  0
ARC
  8
0
 62
   249
 10
249.934151
 20
88.75
 30
0.0
 40
1.251733
 50
86.984476
 51
273.015524
  0
ARC
  8
0
 62
   249
 10
249.934151
 20
91.25
 30
0.0
 40
1.251733
 50
86.984476
 51
273.015524
  0
LINE
  8
0
 62
   249
 10
250.0
 20
90.0
 30
0.0
 11
252.5
 21
90.0
 31
0.0
  0
LINE
  8
0
 62
   249
 10
252.5
 20
87.5
 30
0.0
 11
255.0
 21
87.5
 31
0.0
  0
LINE
  8
0
 62
   249
 10
250.0
 20
87.5
 30
0.0
 11
260.0
 21
87.5
 31
0.0
  0
LINE
  8
0
 62
   249
 10
250.0
 20
85.0
 30
0.0
 11
252.5
 21
85.0
 31
0.0
  0
ARC
  8
0
 62
   249
 10
249.934151
 20
86.25
 30
0.0
 40
1.251733
 50
86.984476
 51
273.015524
  0
ARC
  8
0
 62
   249
 10
249.934151
 20
83.75
 30
0.0
 40
1.251733
 50
86.984476
 51
273.015524
  0
LINE
  8
0
 62
   249
 10
250.0
 20
82.5
 30
0.0
 11
252.5
 21
82.5
 31
0.0
  0
ARC
  8
0
 62
   249
 10
245.065849
 20
88.75
 30
0.0
 40
1.251733
 50
266.984476
 51
93.015524
  0
LINE
  8
0
 62
   249
 10
245.0
 20
90.0
 30
0.0
 11
243.480133
 21
90.0
 31
0.0
  0
LINE
  8
0
 62
   249
 10
245.0
 20
87.5
 30
0.0
 11
243.480133
 21
87.5
 31
0.0
  0
ARC
  8
0
 62
   249
 10
245.065849
 20
86.25
 30
0.0
 40
1.251733
 50
266.984476
 51
93.015524
  0
LINE
  8
0
 62
   249
 10
245.0
 20
85.0
 30
0.0
 11
243.480133
 21
85.0
 31
0.0
  0
LINE
  8
0
 62
   249
 10
250.0
 20
67.5
 30
0.0
 11
252.5
 21
67.5
 31
0.0
  0
ARC
  8
0
 62
   249
 10
249.934151
 20
68.75
 30
0.0
 40
1.251733
 50
86.984476
 51
273.015524
  0
ARC
  8
0
 62
   249
 10
249.934151
 20
71.25
 30
0.0
 40
1.251733
 50
86.984476
 51
273.015524
  0
LINE
  8
0
 62
   249
 10
250.0
 20
70.0
 30
0.0
 11
252.5
 21
70.0
 31
0.0
  0
LINE
  8
0
 62
   249
 10
252.5
 20
67.5
 30
0.0
 11
255.0
 21
67.5
 31
0.0
  0
LINE
  8
0
 62
   249
 10
250.0
 20
67.5
 30
0.0
 11
260.0
 21
67.5
 31
0.0
  0
LINE
  8
0
 62
   249
 10
250.0
 20
65.0
 30
0.0
 11
252.5
 21
65.0
 31
0.0
  0
ARC
  8
0
 62
   249
 10
249.934151
 20
66.25
 30
0.0
 40
1.251733
 50
86.984476
 51
273.015524
  0
ARC
  8
0
 62
   249
 10
249.934151
 20
63.75
 30
0.0
 40
1.251733
 50
86.984476
 51
273.015524
  0
LINE
  8
0
 62
   249
 10
250.0
 20
62.5
 30
0.0
 11
252.5
 21
62.5
 31
0.0
  0
ARC
  8
0
 62
   249
 10
245.065849
 20
68.75
 30
0.0
 40
1.251733
 50
266.984476
 51
93.015524
  0
LINE
  8
0
 62
   249
 10
245.0
 20
70.0
 30
0.0
 11
243.480133
 21
70.0
 31
0.0
  0
LINE
  8
0
 62
   249
 10
245.0
 20
67.5
 30
0.0
 11
243.480133
 21
67.5
 31
0.0
  0
ARC
  8
0
 62
   249
 10
245.065849
 20
66.25
 30
0.0
 40
1.251733
 50
266.984476
 51
93.015524
  0
LINE
  8
0
 62
   249
 10
245.0
 20
65.0
 30
0.0
 11
243.480133
 21
65.0
 31
0.0
  0
LINE
  8
0
 62
   249
 10
250.0
 20
112.5
 30
0.0
 11
260.0
 21
112.5
 31
0.0
  0
LINE
  8
0
 62
   249
 10
252.5
 20
102.5
 30
0.0
 11
260.0
 21
102.5
 31
0.0
  0
LINE
  8
0
 62
   249
 10
250.0
 20
72.5
 30
0.0
 11
260.0
 21
72.5
 31
0.0
  0
LINE
  8
0
 62
   249
 10
252.5
 20
62.5
 30
0.0
 11
260.0
 21
62.5
 31
0.0
  0
LINE
  8
0
 62
   249
 10
252.5
 20
82.5
 30
0.0
 11
260.0
 21
82.5
 31
0.0
  0
LINE
  8
0
 62
   249
 10
250.0
 20
92.5
 30
0.0
 11
260.0
 21
92.5
 31
0.0
  0
TEXT
  8
0
  6
HIDDEN
 62
   249
 10
256.449917
 20
195.005131
 30
0.0
 40
2.0
  1
6
  7
ROMANS
  0
TEXT
  8
0
  6
HIDDEN
 62
   249
 10
256.449917
 20
189.953437
 30
0.0
 40
2.0
  1
5
  7
ROMANS
  0
TEXT
  8
0
  6
HIDDEN
 62
   249
 10
256.449917
 20
184.890728
 30
0.0
 40
2.0
  1
4
  7
ROMANS
  0
TEXT
  8
0
  6
HIDDEN
 62
   249
 10
255.199725
 20
109.959045
 30
0.0
 40
2.0
  1
15
  7
ROMANS
  0
TEXT
  8
0
  6
HIDDEN
 62
   249
 10
255.199725
 20
104.852276
 30
0.0
 40
2.0
  1
14
  7
ROMANS
  0
TEXT
  8
0
  6
HIDDEN
 62
   249
 10
255.199725
 20
99.844643
 30
0.0
 40
2.0
  1
13
  7
ROMANS
  0
TEXT
  8
0
  6
HIDDEN
 62
   249
 10
255.199725
 20
89.825125
 30
0.0
 40
2.0
  1
18
  7
ROMANS
  0
TEXT
  8
0
  6
HIDDEN
 62
   249
 10
255.199725
 20
84.828507
 30
0.0
 40
2.0
  1
17
  7
ROMANS
  0
TEXT
  8
0
  6
HIDDEN
 62
   249
 10
255.199725
 20
79.820874
 30
0.0
 40
2.0
  1
16
  7
ROMANS
  0
TEXT
  8
0
  6
HIDDEN
 62
   249
 10
255.412628
 20
69.612612
 30
0.0
 40
2.0
  1
21
  7
ROMANS
  0
TEXT
  8
0
  6
HIDDEN
 62
   249
 10
255.412628
 20
64.450767
 30
0.0
 40
2.0
  1
20
  7
ROMANS
  0
TEXT
  8
0
  6
HIDDEN
 62
   249
 10
255.412628
 20
59.454149
 30
0.0
 40
2.0
  1
19
  7
ROMANS
  0
TEXT
  8
0
  6
CONTINUOUS
 62
   249
 10
60.755514
 20
153.990387
 30
0.0
 40
2.0
  1
SGR
  7
ROMANS
  0
TEXT
  8
0
  6
CONTINUOUS
 62
   249
 10
61.289509
 20
136.464455
 30
0.0
 40
2.5
  1
1
 11
61.289509
 21
135.631122
 31
0.0
 73
     1
  0
LINE
  8
0
  6
CONTINUOUS
 62
   249
 10
56.855647
 20
139.124549
 30
0.0
 11
59.201412
 21
137.789195
 31
0.0
  0
LINE
  8
0
  6
CONTINUOUS
 62
   249
 10
56.847605
 20
135.799262
 30
0.0
 11
59.231066
 21
136.987454
 31
0.0
  0
LINE
  8
0
  6
CONTINUOUS
 62
   249
 10
59.201412
 20
137.789195
 30
0.0
 11
56.855647
 21
136.599276
 31
0.0
  0
LINE
  8
0
  6
CONTINUOUS
 62
   249
 10
60.0
 20
135.0
 30
0.0
 11
60.0
 21
130.0
 31
0.0
  0
LINE
  8
0
  6
CONTINUOUS
 62
   249
 10
65.0
 20
140.0
 30
0.0
 11
55.0
 21
140.0
 31
0.0
  0
LINE
  8
0
  6
CONTINUOUS
 62
   249
 10
65.0
 20
140.0
 30
0.0
 11
65.0
 21
135.0
 31
0.0
  0
LINE
  8
0
  6
CONTINUOUS
 62
   249
 10
57.5
 20
140.0
 30
0.0
 11
57.5
 21
186.168365
 31
0.0
  0
LINE
  8
0
  6
CONTINUOUS
 62
   249
 10
55.0
 20
135.0
 30
0.0
 11
65.0
 21
135.0
 31
0.0
  0
LINE
  8
0
  6
CONTINUOUS
 62
   249
 10
55.0
 20
140.0
 30
0.0
 11
55.0
 21
135.0
 31
0.0
  0
LINE
  8
0
  6
CONTINUOUS
 62
   249
 10
67.5
 20
140.0
 30
0.0
 11
82.5
 21
140.0
 31
0.0
  0
LINE
  8
0
  6
CONTINUOUS
 62
   249
 10
82.5
 20
140.0
 30
0.0
 11
82.5
 21
135.0
 31
0.0
  0
LINE
  8
0
  6
CONTINUOUS
 62
   249
 10
82.5
 20
135.0
 30
0.0
 11
67.5
 21
135.0
 31
0.0
  0
LINE
  8
0
  6
CONTINUOUS
 62
   249
 10
67.5
 20
135.0
 30
0.0
 11
67.5
 21
140.0
 31
0.0
  0
LINE
  8
0
  6
CONTINUOUS
 62
   249
 10
74.340984
 20
137.789195
 30
0.0
 11
71.995219
 21
136.599276
 31
0.0
  0
LINE
  8
0
  6
CONTINUOUS
 62
   249
 10
71.987177
 20
135.799262
 30
0.0
 11
74.370638
 21
136.987454
 31
0.0
  0
LINE
  8
0
  6
CONTINUOUS
 62
   249
 10
71.995219
 20
139.124549
 30
0.0
 11
74.340984
 21
137.789195
 31
0.0
  0
TEXT
  8
0
  6
CONTINUOUS
 62
   249
 10
76.429081
 20
136.464455
 30
0.0
 40
2.5
  1
1
 11
76.429081
 21
135.631122
 31
0.0
 73
     1
  0
LINE
  8
0
  6
CONTINUOUS
 62
   249
 10
92.5
 20
140.0
 30
0.0
 11
107.5
 21
140.0
 31
0.0
  0
LINE
  8
0
  6
CONTINUOUS
 62
   249
 10
107.5
 20
140.0
 30
0.0
 11
107.5
 21
135.0
 31
0.0
  0
LINE
  8
0
  6
CONTINUOUS
 62
   249
 10
107.5
 20
135.0
 30
0.0
 11
92.5
 21
135.0
 31
0.0
  0
LINE
  8
0
  6
CONTINUOUS
 62
   249
 10
92.5
 20
135.0
 30
0.0
 11
92.5
 21
140.0
 31
0.0
  0
LINE
  8
0
  6
CONTINUOUS
 62
   249
 10
99.01777
 20
137.789195
 30
0.0
 11
96.672004
 21
136.599276
 31
0.0
  0
LINE
  8
0
  6
CONTINUOUS
 62
   249
 10
96.663962
 20
135.799262
 30
0.0
 11
99.047423
 21
136.987454
 31
0.0
  0
LINE
  8
0
  6
CONTINUOUS
 62
   249
 10
96.672004
 20
139.124549
 30
0.0
 11
99.01777
 21
137.789195
 31
0.0
  0
TEXT
  8
0
  6
CONTINUOUS
 62
   249
 10
101.105866
 20
136.464455
 30
0.0
 40
2.5
  1
1
 11
101.105866
 21
135.631122
 31
0.0
 73
     1
  0
TEXT
  8
0
  6
CONTINUOUS
 62
   249
 10
100.56188
 20
147.495896
 30
0.0
 40
2.0
  1
5
  7
ROMANS
  0
LINE
  8
0
  6
CONTINUOUS
 62
   249
 10
100.0
 20
150.0
 30
0.0
 11
100.0
 21
152.5
 31
0.0
  0
LINE
  8
0
  6
CONTINUOUS
 62
   249
 10
100.0
 20
145.0
 30
0.0
 11
98.285914
 21
150.086297
 31
0.0
  0
LINE
  8
0
  6
CONTINUOUS
 62
   249
 10
100.0
 20
140.0
 30
0.0
 11
100.0
 21
145.0
 31
0.0
  0
LINE
  8
0
  6
CONTINUOUS
 62
   249
 10
95.0
 20
140.0
 30
0.0
 11
95.0
 21
145.0
 31
0.0
  0
LINE
  8
0
  6
CONTINUOUS
 62
   249
 10
95.0
 20
145.0
 30
0.0
 11
93.285914
 21
150.086297
 31
0.0
  0
LINE
  8
0
  6
CONTINUOUS
 62
   249
 10
95.0
 20
150.0
 30
0.0
 11
95.0
 21
152.5
 31
0.0
  0
LINE
  8
0
  6
CONTINUOUS
 62
   249
 10
85.0
 20
135.0
 30
0.0
 11
85.0
 21
145.0
 31
0.0
  0
LINE
  8
0
  6
CONTINUOUS
 62
   249
 10
85.0
 20
145.0
 30
0.0
 11
83.285914
 21
150.086297
 31
0.0
  0
LINE
  8
0
  6
CONTINUOUS
 62
   249
 10
85.0
 20
150.0
 30
0.0
 11
85.0
 21
162.5
 31
0.0
  0
LINE
  8
0
  6
CONTINUOUS
 62
   249
 10
75.0
 20
150.0
 30
0.0
 11
75.0
 21
162.5
 31
0.0
  0
LINE
  8
0
  6
CONTINUOUS
 62
   249
 10
75.0
 20
145.0
 30
0.0
 11
73.285914
 21
150.086297
 31
0.0
  0
LINE
  8
0
  6
CONTINUOUS
 62
   249
 10
75.0
 20
140.0
 30
0.0
 11
75.0
 21
145.0
 31
0.0
  0
LINE
  8
0
  6
CONTINUOUS
 62
   249
 10
70.0
 20
140.0
 30
0.0
 11
70.0
 21
145.0
 31
0.0
  0
LINE
  8
0
  6
CONTINUOUS
 62
   249
 10
70.0
 20
145.0
 30
0.0
 11
68.285914
 21
150.086297
 31
0.0
  0
TEXT
  8
0
  6
CONTINUOUS
 62
   249
 10
62.668903
 20
147.5
 30
0.0
 40
2.0
  1
6
  7
ROMANS
  0
TEXT
  8
0
  6
CONTINUOUS
 62
   249
 10
70.250016
 20
147.5
 30
0.0
 40
2.0
  1
2
  7
ROMANS
  0
TEXT
  8
0
  6
CONTINUOUS
 62
   249
 10
75.351828
 20
147.5
 30
0.0
 40
2.0
  1
7
  7
ROMANS
  0
TEXT
  8
0
  6
CONTINUOUS
 62
   249
 10
85.409656
 20
147.5
 30
0.0
 40
2.0
  1
8
  7
ROMANS
  0
TEXT
  8
0
  6
CONTINUOUS
 62
   249
 10
95.69086
 20
147.5
 30
0.0
 40
2.0
  1
1
  7
ROMANS
  0
LINE
  8
0
  6
CONTINUOUS
 62
   249
 10
62.5
 20
140.0
 30
0.0
 11
62.5
 21
145.0
 31
0.0
  0
LINE
  8
0
  6
CONTINUOUS
 62
   249
 10
62.5
 20
145.0
 30
0.0
 11
60.785914
 21
150.086297
 31
0.0
  0
LINE
  8
0
  6
CONTINUOUS
 62
   249
 10
62.5
 20
150.0
 30
0.0
 11
62.5
 21
152.5
 31
0.0
  0
LINE
  8
0
  6
CONTINUOUS
 62
   249
 10
57.5
 20
125.0
 30
0.0
 11
40.0
 21
125.0
 31
0.0
  0
LINE
  8
0
  6
CONTINUOUS
 62
   249
 10
65.0
 20
125.0
 30
0.0
 11
65.0
 21
120.0
 31
0.0
  0
LINE
  8
0
  6
CONTINUOUS
 62
   249
 10
65.0
 20
120.0
 30
0.0
 11
40.0
 21
120.0
 31
0.0
  0
LINE
  8
0
  6
CONTINUOUS
 62
   249
 10
62.5
 20
125.0
 30
0.0
 11
65.0
 21
125.0
 31
0.0
  0
LINE
  8
0
  6
CONTINUOUS
 62
   249
 10
80.0
 20
115.0
 30
0.0
 11
80.0
 21
110.0
 31
0.0
  0
LINE
  8
0
  6
CONTINUOUS
 62
   249
 10
80.0
 20
110.0
 30
0.0
 11
40.0
 21
110.0
 31
0.0
  0
LINE
  8
0
  6
CONTINUOUS
 62
   249
 10
75.0
 20
127.5
 30
0.0
 11
75.0
 21
135.0
 31
0.0
  0
LINE
  8
0
  6
CONTINUOUS
 62
   249
 10
85.0
 20
127.5
 30
0.0
 11
85.0
 21
135.0
 31
0.0
  0
LINE
  8
0
  6
CONTINUOUS
 62
   249
 10
100.0
 20
127.5
 30
0.0
 11
100.0
 21
135.0
 31
0.0
  0
LINE
  8
0
  6
CONTINUOUS
 62
   249
 10
95.0
 20
152.5
 30
0.0
 11
95.0
 21
205.0
 31
0.0
  0
LINE
  8
0
  6
CONTINUOUS
 62
   249
 10
95.0
 20
205.0
 30
0.0
 11
180.0
 21
205.0
 31
0.0
  0
LINE
  8
0
  6
CONTINUOUS
 62
   249
 10
105.0
 20
140.0
 30
0.0
 11
105.0
 21
145.0
 31
0.0
  0
LINE
  8
0
  6
CONTINUOUS
 62
   249
 10
120.0
 20
192.5
 30
0.0
 11
180.0
 21
192.5
 31
0.0
  0
LINE
  8
0
  6
CONTINUOUS
 62
   249
 10
65.0
 20
210.0
 30
0.0
 11
170.0
 21
210.0
 31
0.0
  0
LINE
  8
0
  6
CONTINUOUS
 62
   249
 10
170.0
 20
210.0
 30
0.0
 11
170.0
 21
132.601504
 31
0.0
  0
LINE
  8
0
  6
CONTINUOUS
 62
   249
 10
40.0
 20
100.0
 30
0.0
 11
82.5
 21
100.0
 31
0.0
  0
LINE
  8
0
  6
CONTINUOUS
 62
   249
 10
82.5
 20
95.0
 30
0.0
 11
40.0
 21
95.0
 31
0.0
  0
LINE
  8
0
  6
CONTINUOUS
 62
   249
 10
82.5
 20
95.0
 30
0.0
 11
82.5
 21
97.5
 31
0.0
  0
LINE
  8
0
  6
CONTINUOUS
 62
   249
 10
87.5
 20
100.0
 30
0.0
 11
90.0
 21
100.0
 31
0.0
  0
LINE
  8
0
  6
CONTINUOUS
 62
   249
 10
87.5
 20
100.0
 30
0.0
 11
81.756076
 21
96.785297
 31
0.0
  0
LINE
  8
0
  6
CONTINUOUS
 62
   249
 10
102.5
 20
85.0
 30
0.0
 11
96.756076
 21
81.785297
 31
0.0
  0
LINE
  8
0
  6
CONTINUOUS
 62
   249
 10
102.5
 20
85.0
 30
0.0
 11
105.0
 21
85.0
 31
0.0
  0
LINE
  8
0
  6
CONTINUOUS
 62
   249
 10
97.5
 20
80.0
 30
0.0
 11
97.5
 21
82.5
 31
0.0
  0
LINE
  8
0
  6
CONTINUOUS
 62
   249
 10
97.5
 20
80.0
 30
0.0
 11
40.0
 21
80.0
 31
0.0
  0
LINE
  8
0
  6
CONTINUOUS
 62
   249
 10
40.0
 20
85.0
 30
0.0
 11
97.5
 21
85.0
 31
0.0
  0
LINE
  8
0
  6
CONTINUOUS
 62
   249
 10
90.0
 20
100.0
 30
0.0
 11
90.0
 21
90.0
 31
0.0
  0
LINE
  8
0
  6
CONTINUOUS
 62
   249
 10
90.0
 20
90.0
 30
0.0
 11
40.0
 21
90.0
 31
0.0
  0
LINE
  8
0
  6
CONTINUOUS
 62
   249
 10
105.0
 20
85.0
 30
0.0
 11
105.0
 21
75.0
 31
0.0
  0
LINE
  8
0
  6
CONTINUOUS
 62
   249
 10
105.0
 20
75.0
 30
0.0
 11
40.0
 21
75.0
 31
0.0
  0
LINE
  8
0
  6
CONTINUOUS
 62
   249
 10
180.0
 20
186.168365
 30
0.0
 11
57.5
 21
186.168365
 31
0.0
  0
LINE
  8
0
  6
CONTINUOUS
 62
   249
 10
180.0
 20
197.165835
 30
0.0
 11
70.0
 21
197.165835
 31
0.0
  0
LINE
  8
0
  6
CONTINUOUS
 62
   249
 10
80.0
 20
157.5
 30
0.0
 11
80.0
 21
140.0
 31
0.0
  0
LINE
  8
0
  6
HIDDEN
 62
   249
 10
40.0
 20
217.5
 30
0.0
 11
45.0
 21
217.5
 31
0.0
  0
LINE
  8
0
  6
HIDDEN
 62
   249
 10
45.0
 20
217.5
 30
0.0
 11
45.0
 21
202.5
 31
0.0
  0
LINE
  8
0
  6
HIDDEN
 62
   249
 10
45.0
 20
202.5
 30
0.0
 11
40.0
 21
202.5
 31
0.0
  0
TEXT
  8
0
  6
HIDDEN
 62
   249
 10
40.879157
 20
214.246473
 30
0.0
 40
2.0
  1
X2
  7
ROMANS
  0
TEXT
  8
0
  6
HIDDEN
 62
   249
 10
40.416176
 20
209.833058
 30
0.0
 40
2.0
  1
12
  7
ROMANS
  0
TEXT
  8
0
  6
HIDDEN
 62
   249
 10
40.416176
 20
204.809022
 30
0.0
 40
2.0
  1
11
  7
ROMANS
  0
LINE
  8
0
  6
HIDDEN
 62
   249
 10
40.0
 20
130.0
 30
0.0
 11
45.0
 21
130.0
 31
0.0
  0
LINE
  8
0
  6
HIDDEN
 62
   249
 10
45.0
 20
130.0
 30
0.0
 11
45.0
 21
105.711798
 31
0.0
  0
LINE
  8
0
  6
HIDDEN
 62
   249
 10
45.0
 20
105.711798
 30
0.0
 11
40.0
 21
105.711798
 31
0.0
  0
LINE
  8
0
  6
HIDDEN
 62
   249
 10
40.0
 20
70.0
 30
0.0
 11
45.0
 21
70.0
 31
0.0
  0
LINE
  8
0
  6
HIDDEN
 62
   249
 10
45.0
 20
70.0
 30
0.0
 11
45.0
 21
104.47351
 31
0.0
  0
LINE
  8
0
  6
HIDDEN
 62
   249
 10
45.0
 20
104.47351
 30
0.0
 11
40.0
 21
104.47351
 31
0.0
  0
TEXT
  8
0
  6
HIDDEN
 62
   249
 10
41.1717
 20
126.129257
 30
0.0
 40
2.0
  1
X1
  7
ROMANS
  0
TEXT
  8
0
  6
HIDDEN
 62
   249
 10
41.1717
 20
122.410394
 30
0.0
 40
2.0
  1
4
  7
ROMANS
  0
TEXT
  8
0
  6
HIDDEN
 62
   249
 10
41.1717
 20
117.402761
 30
0.0
 40
2.0
  1
3
  7
ROMANS
  0
TEXT
  8
0
  6
HIDDEN
 62
   249
 10
41.1717
 20
112.11975
 30
0.0
 40
2.0
  1
7
  7
ROMANS
  0
TEXT
  8
0
  6
HIDDEN
 62
   249
 10
41.1717
 20
107.310389
 30
0.0
 40
2.0
  1
6
  7
ROMANS
  0
TEXT
  8
0
  6
HIDDEN
 62
   249
 10
40.745853
 20
101.476621
 30
0.0
 40
2.0
  1
X2
  7
ROMANS
  0
TEXT
  8
0
  6
HIDDEN
 62
   249
 10
41.1717
 20
97.273092
 30
0.0
 40
2.0
  1
3
  7
ROMANS
  0
TEXT
  8
0
  6
HIDDEN
 62
   249
 10
41.1717
 20
92.342565
 30
0.0
 40
2.0
  1
1
  7
ROMANS
  0
TEXT
  8
0
  6
HIDDEN
 62
   249
 10
41.1717
 20
87.125644
 30
0.0
 40
2.0
  1
2
  7
ROMANS
  0
TEXT
  8
0
  6
HIDDEN
 62
   249
 10
41.1717
 20
82.195117
 30
0.0
 40
2.0
  1
6
  7
ROMANS
  0
TEXT
  8
0
  6
HIDDEN
 62
   249
 10
41.1717
 20
77.418802
 30
0.0
 40
2.0
  1
4
  7
ROMANS
  0
TEXT
  8
0
  6
HIDDEN
 62
   249
 10
41.1717
 20
72.190866
 30
0.0
 40
2.0
  1
5
  7
ROMANS
  0
LINE
  8
0
  6
DASHED
 62
   249
 10
40.0
 20
125.0
 30
0.0
 11
27.5
 21
125.0
 31
0.0
  0
LINE
  8
0
  6
DASHED
 62
   249
 10
40.0
 20
120.0
 30
0.0
 11
27.5
 21
120.0
 31
0.0
  0
LINE
  8
0
  6
DASHED
 62
   249
 10
40.0
 20
110.0
 30
0.0
 11
27.5
 21
110.0
 31
0.0
  0
LINE
  8
0
  6
DASHED
 62
   249
 10
40.0
 20
115.0
 30
0.0
 11
27.5
 21
115.0
 31
0.0
  0
LINE
  8
0
  6
CONTINUOUS
 62
   249
 10
25.0
 20
115.0
 30
0.0
 11
26.0
 21
116.0
 31
0.0
  0
LINE
  8
0
  6
CONTINUOUS
 62
   249
 10
25.0
 20
109.999655
 30
0.0
 11
26.0
 21
108.999655
 31
0.0
  0
LINE
  8
0
  6
CONTINUOUS
 62
   249
 10
25.0
 20
115.0
 30
0.0
 11
25.0
 21
110.0
 31
0.0
  0
TEXT
  8
0
  6
CONTINUOUS
 62
   249
 10
346.409044
 20
85.45741
 30
0.0
 40
2.0
  1
L2
  7
ROMANS
  0
TEXT
  8
0
  6
CONTINUOUS
 62
   249
 10
359.746136
 20
85.468431
 30
0.0
 40
2.0
  1
4-6
  7
ROMANS
  0
TEXT
  8
0
  6
CONTINUOUS
 62
   249
 10
374.840486
 20
85.468431
 30
0.0
 40
2.0
  1
4-5
  7
ROMANS
  0
LINE
  8
0
 62
   249
 10
386.00882
 20
105.315589
 30
0.0
 11
342.00882
 21
105.315589
 31
0.0
  0
TEXT
  8
0
  6
HIDDEN
 62
   249
 10
346.445874
 20
62.08866
 30
0.0
 40
2.0
  1
U12
  7
ROMANS
  0
TEXT
  8
0
  6
HIDDEN
 62
   249
 10
346.445874
 20
58.016106
 30
0.0
 40
2.0
  1
U23
  7
ROMANS
  0
TEXT
  8
0
  6
HIDDEN
 62
   249
 10
346.445874
 20
54.106547
 30
0.0
 40
2.0
  1
U31
  7
ROMANS
  0
LINE
  8
0
  6
CONTINUOUS
 62
   249
 10
356.00882
 20
74.704776
 30
0.0
 11
385.993873
 21
74.704776
 31
0.0
  0
TEXT
  8
0
  6
CONTINUOUS
 62
   249
 10
358.315824
 20
62.086801
 30
0.0
 40
2.0
  1
13-14
  7
ROMANS
  0
TEXT
  8
0
  6
CONTINUOUS
 62
   249
 10
358.315824
 20
58.004082
 30
0.0
 40
2.0
  1
16-17
  7
ROMANS
  0
TEXT
  8
0
  6
CONTINUOUS
 62
   249
 10
358.315824
 20
54.130751
 30
0.0
 40
2.0
  1
19-20
  7
ROMANS
  0
TEXT
  8
0
  6
CONTINUOUS
 62
   249
 10
373.790577
 20
62.06476
 30
0.0
 40
2.0
  1
13-15
  7
ROMANS
  0
TEXT
  8
0
  6
CONTINUOUS
 62
   249
 10
373.790577
 20
57.993062
 30
0.0
 40
2.0
  1
16-18
  7
ROMANS
  0
TEXT
  8
0
  6
CONTINUOUS
 62
   249
 10
373.790577
 20
54.141771
 30
0.0
 40
2.0
  1
19-21
  7
ROMANS
  0
TEXT
  8
0
  6
CONTINUOUS
 62
   249
 10
335.372231
 20
103.927903
 30
0.0
 40
2.0
  1
1)
  7
ROMANS
  0
LINE
  8
0
  6
HIDDEN
 62
   249
 10
182.5
 20
182.5
 30
0.0
 11
200.0
 21
182.5
 31
0.0
  0
LINE
  8
0
  6
HIDDEN
 62
   249
 10
182.5
 20
177.5
 30
0.0
 11
200.0
 21
177.5
 31
0.0
  0
LINE
  8
0
  6
CONTINUOUS
 62
   249
 10
185.333062
 20
181.232238
 30
0.0
 11
187.678827
 21
179.896885
 31
0.0
  0
LINE
  8
0
  6
CONTINUOUS
 62
   249
 10
187.678827
 20
179.896885
 30
0.0
 11
185.333062
 21
178.706966
 31
0.0
  0
LINE
  8
0
  6
CONTINUOUS
 62
   249
 10
187.051157
 20
181.232238
 30
0.0
 11
189.396922
 21
179.896885
 31
0.0
  0
LINE
  8
0
  6
CONTINUOUS
 62
   249
 10
189.396922
 20
179.896885
 30
0.0
 11
187.051157
 21
178.706966
 31
0.0
  0
TEXT
  8
0
  6
CONTINUOUS
 62
   249
 10
183.770128
 20
178.694281
 30
0.0
 40
2.5
  1
I
 11
183.770128
 21
177.860948
 31
0.0
 73
     1
  0
LINE
  8
0
  6
CONTINUOUS
 62
   249
 10
191.047818
 20
179.896885
 30
0.0
 11
188.702053
 21
178.706966
 31
0.0
  0
LINE
  8
0
  6
CONTINUOUS
 62
   249
 10
188.702053
 20
181.232238
 30
0.0
 11
191.047818
 21
179.896885
 31
0.0
  0
LINE
  8
0
  6
CONTINUOUS
 62
   249
 10
188.630228
 20
174.757133
 30
0.0
 11
190.975993
 21
173.421779
 31
0.0
  0
LINE
  8
0
  6
CONTINUOUS
 62
   249
 10
190.975993
 20
173.421779
 30
0.0
 11
188.630228
 21
172.23186
 31
0.0
  0
TEXT
  8
0
  6
CONTINUOUS
 62
   249
 10
183.770128
 20
172.219176
 30
0.0
 40
2.5
  1
I
 11
183.770128
 21
171.385842
 31
0.0
 73
     1
  0
LINE
  8
0
  6
CONTINUOUS
 62
   249
 10
189.384951
 20
173.421779
 30
0.0
 11
187.039186
 21
172.23186
 31
0.0
  0
LINE
  8
0
  6
CONTINUOUS
 62
   249
 10
187.039186
 20
174.757133
 30
0.0
 11
189.384951
 21
173.421779
 31
0.0
  0
LINE
  8
0
  6
CONTINUOUS
 62
   249
 10
187.678827
 20
173.421779
 30
0.0
 11
185.333062
 21
172.23186
 31
0.0
  0
LINE
  8
0
  6
CONTINUOUS
 62
   249
 10
185.333062
 20
174.757133
 30
0.0
 11
187.678827
 21
173.421779
 31
0.0
  0
LINE
  8
0
  6
CONTINUOUS
 62
   249
 10
191.431134
 20
173.994658
 30
0.0
 11
191.431134
 21
172.206526
 31
0.0
  0
LINE
  8
0
  6
CONTINUOUS
 62
   249
 10
191.462165
 20
173.149379
 30
0.0
 11
199.25037
 21
173.149379
 31
0.0
  0
LINE
  8
0
  6
CONTINUOUS
 62
   249
 10
196.291717
 20
175.347542
 30
0.0
 11
197.192394
 21
174.223793
 31
0.0
  0
LINE
  8
0
  6
CONTINUOUS
 62
   249
 10
193.84631
 20
171.981776
 30
0.0
 11
196.72242
 21
174.810335
 31
0.0
  0
LINE
  8
0
  6
CONTINUOUS
 62
   249
 10
199.245829
 20
173.994658
 30
0.0
 11
199.245829
 21
172.206526
 31
0.0
  0
LINE
  8
0
  6
CONTINUOUS
 62
   249
 10
182.5
 20
207.5
 30
0.0
 11
182.5
 21
170.0
 31
0.0
  0
TEXT
  8
0
  6
CONTINUOUS
 62
   249
 10
181.991916
 20
170.787092
 30
0.0
 40
1.5
  1
PROGRAMMING: SEE SHEET 3
 50
90.0
  7
ROMANS
  0
LINE
  8
0
  6
CONTINUOUS
 62
   249
 10
199.245829
 20
106.494658
 30
0.0
 11
199.245829
 21
104.706526
 31
0.0
  0
LINE
  8
0
  6
CONTINUOUS
 62
   249
 10
193.84631
 20
104.481776
 30
0.0
 11
196.72242
 21
107.310335
 31
0.0
  0
LINE
  8
0
  6
CONTINUOUS
 62
   249
 10
196.291717
 20
107.847542
 30
0.0
 11
197.192394
 21
106.723793
 31
0.0
  0
LINE
  8
0
  6
CONTINUOUS
 62
   249
 10
191.462165
 20
105.649379
 30
0.0
 11
199.25037
 21
105.649379
 31
0.0
  0
LINE
  8
0
  6
CONTINUOUS
 62
   249
 10
191.431134
 20
106.494658
 30
0.0
 11
191.431134
 21
104.706526
 31
0.0
  0
LINE
  8
0
  6
CONTINUOUS
 62
   249
 10
185.333062
 20
107.257133
 30
0.0
 11
187.678827
 21
105.921779
 31
0.0
  0
LINE
  8
0
  6
CONTINUOUS
 62
   249
 10
187.678827
 20
105.921779
 30
0.0
 11
185.333062
 21
104.73186
 31
0.0
  0
LINE
  8
0
  6
CONTINUOUS
 62
   249
 10
187.051157
 20
107.257133
 30
0.0
 11
189.396922
 21
105.921779
 31
0.0
  0
LINE
  8
0
  6
CONTINUOUS
 62
   249
 10
189.396922
 20
105.921779
 30
0.0
 11
187.051157
 21
104.73186
 31
0.0
  0
TEXT
  8
0
  6
CONTINUOUS
 62
   249
 10
183.770128
 20
104.719176
 30
0.0
 40
2.5
  1
I
 11
183.770128
 21
103.885842
 31
0.0
 73
     1
  0
LINE
  8
0
  6
CONTINUOUS
 62
   249
 10
190.975993
 20
105.921779
 30
0.0
 11
188.630228
 21
104.73186
 31
0.0
  0
LINE
  8
0
  6
CONTINUOUS
 62
   249
 10
188.630228
 20
107.257133
 30
0.0
 11
190.975993
 21
105.921779
 31
0.0
  0
LINE
  8
0
  6
CONTINUOUS
 62
   249
 10
188.630228
 20
113.732238
 30
0.0
 11
190.975993
 21
112.396885
 31
0.0
  0
LINE
  8
0
  6
CONTINUOUS
 62
   249
 10
190.975993
 20
112.396885
 30
0.0
 11
188.630228
 21
111.206966
 31
0.0
  0
TEXT
  8
0
  6
CONTINUOUS
 62
   249
 10
183.770128
 20
111.194281
 30
0.0
 40
2.5
  1
I
 11
183.770128
 21
110.360948
 31
0.0
 73
     1
  0
LINE
  8
0
  6
CONTINUOUS
 62
   249
 10
189.396922
 20
112.396885
 30
0.0
 11
187.051157
 21
111.206966
 31
0.0
  0
LINE
  8
0
  6
CONTINUOUS
 62
   249
 10
187.051157
 20
113.732238
 30
0.0
 11
189.396922
 21
112.396885
 31
0.0
  0
LINE
  8
0
  6
CONTINUOUS
 62
   249
 10
187.678827
 20
112.396885
 30
0.0
 11
185.333062
 21
111.206966
 31
0.0
  0
LINE
  8
0
  6
CONTINUOUS
 62
   249
 10
185.333062
 20
113.732238
 30
0.0
 11
187.678827
 21
112.396885
 31
0.0
  0
TEXT
  8
0
  6
CONTINUOUS
 62
   249
 10
183.770128
 20
135.741357
 30
0.0
 40
2.5
  1
I
 11
183.770128
 21
134.908023
 31
0.0
 73
     1
  0
LINE
  8
0
  6
CONTINUOUS
 62
   249
 10
188.906117
 20
136.94396
 30
0.0
 11
186.560351
 21
135.754041
 31
0.0
  0
LINE
  8
0
  6
CONTINUOUS
 62
   249
 10
186.560351
 20
138.279314
 30
0.0
 11
188.906117
 21
136.94396
 31
0.0
  0
LINE
  8
0
  6
CONTINUOUS
 62
   249
 10
186.560351
 20
132.290394
 30
0.0
 11
188.906117
 21
130.955041
 31
0.0
  0
LINE
  8
0
  6
CONTINUOUS
 62
   249
 10
188.906117
 20
130.955041
 30
0.0
 11
186.560351
 21
129.765121
 31
0.0
  0
TEXT
  8
0
  6
CONTINUOUS
 62
   249
 10
183.770128
 20
129.752437
 30
0.0
 40
2.5
  1
I
 11
183.770128
 21
128.919104
 31
0.0
 73
     1
  0
TEXT
  8
0
  6
CONTINUOUS
 62
   249
 10
183.770128
 20
123.692977
 30
0.0
 40
2.5
  1
I
 11
183.770128
 21
122.859644
 31
0.0
 73
     1
  0
LINE
  8
0
  6
CONTINUOUS
 62
   249
 10
189.396922
 20
124.895581
 30
0.0
 11
187.051157
 21
123.705662
 31
0.0
  0
LINE
  8
0
  6
CONTINUOUS
 62
   249
 10
187.051157
 20
126.230934
 30
0.0
 11
189.396922
 21
124.895581
 31
0.0
  0
LINE
  8
0
  6
CONTINUOUS
 62
   249
 10
187.678827
 20
124.895581
 30
0.0
 11
185.333062
 21
123.705662
 31
0.0
  0
LINE
  8
0
  6
CONTINUOUS
 62
   249
 10
185.333062
 20
126.230934
 30
0.0
 11
187.678827
 21
124.895581
 31
0.0
  0
LINE
  8
0
  6
CONTINUOUS
 62
   249
 10
191.431134
 20
119.115882
 30
0.0
 11
191.431134
 21
117.32775
 31
0.0
  0
LINE
  8
0
  6
CONTINUOUS
 62
   249
 10
191.462165
 20
118.270603
 30
0.0
 11
199.25037
 21
118.270603
 31
0.0
  0
LINE
  8
0
  6
CONTINUOUS
 62
   249
 10
196.291717
 20
120.468766
 30
0.0
 11
197.192394
 21
119.345017
 31
0.0
  0
LINE
  8
0
  6
CONTINUOUS
 62
   249
 10
193.84631
 20
117.103
 30
0.0
 11
196.72242
 21
119.931559
 31
0.0
  0
LINE
  8
0
  6
CONTINUOUS
 62
   249
 10
199.245829
 20
119.115882
 30
0.0
 11
199.245829
 21
117.32775
 31
0.0
  0
LINE
  8
0
  6
CONTINUOUS
 62
   249
 10
185.333062
 20
119.878357
 30
0.0
 11
187.678827
 21
118.543003
 31
0.0
  0
LINE
  8
0
  6
CONTINUOUS
 62
   249
 10
187.678827
 20
118.543003
 30
0.0
 11
185.333062
 21
117.353084
 31
0.0
  0
LINE
  8
0
  6
CONTINUOUS
 62
   249
 10
187.051157
 20
119.878357
 30
0.0
 11
189.396922
 21
118.543003
 31
0.0
  0
LINE
  8
0
  6
CONTINUOUS
 62
   249
 10
189.396922
 20
118.543003
 30
0.0
 11
187.051157
 21
117.353084
 31
0.0
  0
TEXT
  8
0
  6
CONTINUOUS
 62
   249
 10
183.770128
 20
117.3404
 30
0.0
 40
2.5
  1
I
 11
183.770128
 21
116.507066
 31
0.0
 73
     1
  0
LINE
  8
0
  6
CONTINUOUS
 62
   249
 10
191.430679
 20
131.710612
 30
0.0
 11
191.430679
 21
129.922481
 31
0.0
  0
LINE
  8
0
  6
CONTINUOUS
 62
   249
 10
191.461711
 20
130.865333
 30
0.0
 11
199.249916
 21
130.865333
 31
0.0
  0
LINE
  8
0
  6
CONTINUOUS
 62
   249
 10
196.291263
 20
133.063496
 30
0.0
 11
197.19194
 21
131.939747
 31
0.0
  0
ARC
  8
0
  6
HIDDEN
 62
   249
 10
198.156579
 20
134.793878
 30
0.0
 40
4.998196
 50
206.402922
 51
282.21115
  0
LINE
  8
0
  6
CONTINUOUS
 62
   249
 10
193.845856
 20
129.697731
 30
0.0
 11
196.721966
 21
132.526289
 31
0.0
  0
LINE
  8
0
  6
CONTINUOUS
 62
   249
 10
199.245375
 20
131.710612
 30
0.0
 11
199.245375
 21
129.922481
 31
0.0
  0
LINE
  8
0
  6
CONTINUOUS
 62
   249
 10
182.5
 20
140.0
 30
0.0
 11
182.5
 21
102.5
 31
0.0
  0
LINE
  8
0
  6
HIDDEN
 62
   249
 10
182.5
 20
110.0
 30
0.0
 11
200.0
 21
110.0
 31
0.0
  0
LINE
  8
0
  6
HIDDEN
 62
   249
 10
182.5
 20
115.0
 30
0.0
 11
200.0
 21
115.0
 31
0.0
  0
LINE
  8
0
  6
HIDDEN
 62
   249
 10
182.5
 20
122.5
 30
0.0
 11
200.0
 21
122.5
 31
0.0
  0
LINE
  8
0
  6
HIDDEN
 62
   249
 10
182.5
 20
127.5
 30
0.0
 11
200.0
 21
127.5
 31
0.0
  0
LINE
  8
0
  6
HIDDEN
 62
   249
 10
182.5
 20
135.0
 30
0.0
 11
200.0
 21
135.0
 31
0.0
  0
LINE
  8
0
  6
CONTINUOUS
 62
   249
 10
180.0
 20
102.5
 30
0.0
 11
210.450615
 21
102.5
 31
0.0
  0
TEXT
  8
0
  6
CONTINUOUS
 62
   249
 10
181.990245
 20
103.288729
 30
0.0
 40
1.5
  1
PROGRAMMING: SEE SHEET 4
 50
90.0
  7
ROMANS
  0
TEXT
  8
0
  6
CONTINUOUS
 62
   249
 10
202.315092
 20
187.003177
 30
0.0
 40
2.5
  1
I
  7
GREEKS
  0
TEXT
  8
0
  6
CONTINUOUS
 62
   249
 10
200.396803
 20
187.003177
 30
0.0
 40
2.0
  1
2
  7
GREEKS
  0
TEXT
  8
0
  6
CONTINUOUS
 62
   249
 10
203.463835
 20
186.163113
 30
0.0
 40
1.0
  1
L1,L3
  7
ROMANS
  0
LINE
  8
0
  6
CONTINUOUS
 62
   249
 10
201.724689
 20
182.586908
 30
0.0
 11
209.268276
 21
182.586908
 31
0.0
  0
LINE
  8
0
  6
CONTINUOUS
 62
   249
 10
201.724689
 20
118.817126
 30
0.0
 11
209.268276
 21
118.817126
 31
0.0
  0
TEXT
  8
0
  6
CONTINUOUS
 62
   249
 10
200.396803
 20
123.233395
 30
0.0
 40
2.0
  1
2
  7
GREEKS
  0
TEXT
  8
0
  6
CONTINUOUS
 62
   249
 10
202.315092
 20
123.233395
 30
0.0
 40
2.5
  1
I
  7
GREEKS
  0
LINE
  8
0
  6
CONTINUOUS
 62
   249
 10
207.733778
 20
125.532895
 30
0.0
 11
210.079543
 21
124.197542
 31
0.0
  0
LINE
  8
0
  6
CONTINUOUS
 62
   249
 10
210.079543
 20
124.197542
 30
0.0
 11
207.733778
 21
123.007622
 31
0.0
  0
TEXT
  8
0
  6
CONTINUOUS
 62
   249
 10
203.384724
 20
122.383187
 30
0.0
 40
1.0
  1
L1,L2
  7
ROMANS
  0
LINE
  8
0
  6
CONTINUOUS
 62
   249
 10
180.0
 20
132.601504
 30
0.0
 11
170.0
 21
132.601504
 31
0.0
  0
LINE
  8
0
  6
CONTINUOUS
 62
   249
 10
180.0
 20
200.0
 30
0.0
 11
170.0
 21
200.0
 31
0.0
  0
LINE
  8
0
  6
CONTINUOUS
 62
   249
 10
70.0
 20
150.0
 30
0.0
 11
70.0
 21
197.165835
 31
0.0
  0
LINE
  8
0
  6
CONTINUOUS
 62
   249
 10
80.0
 20
157.5
 30
0.0
 11
155.0
 21
157.5
 31
0.0
  0
LINE
  8
0
  6
CONTINUOUS
 62
   249
 10
62.5
 20
152.5
 30
0.0
 11
102.5
 21
152.5
 31
0.0
  0
LINE
  8
0
  6
CONTINUOUS
 62
   249
 10
47.5
 20
131.108096
 30
0.0
 11
47.5
 21
162.5
 31
0.0
  0
LINE
  8
0
  6
CONTINUOUS
 62
   249
 10
47.5
 20
162.5
 30
0.0
 11
85.0
 21
162.5
 31
0.0
  0
LINE
  8
0
  6
CONTINUOUS
 62
   249
 10
60.0
 20
131.108096
 30
0.0
 11
47.5
 21
131.108096
 31
0.0
  0
LINE
  8
0
  6
CONTINUOUS
 62
   249
 10
180.0
 20
118.998058
 30
0.0
 11
152.5
 21
118.998058
 31
0.0
  0
LINE
  8
0
  6
CONTINUOUS
 62
   249
 10
180.0
 20
125.0
 30
0.0
 11
157.5
 21
125.0
 31
0.0
  0
LINE
  8
0
  6
CONTINUOUS
 62
   249
 10
180.0
 20
128.887472
 30
0.0
 11
155.0
 21
128.887472
 31
0.0
  0
LINE
  8
0
  6
CONTINUOUS
 62
   249
 10
180.0
 20
137.5
 30
0.0
 11
160.0
 21
137.5
 31
0.0
  0
LINE
  8
0
  6
CONTINUOUS
 62
   249
 10
120.0
 20
145.0
 30
0.0
 11
120.0
 21
192.5
 31
0.0
  0
LINE
  8
0
  6
CONTINUOUS
 62
   249
 10
96.326857
 20
165.377204
 30
0.0
 11
103.826857
 21
165.377204
 31
0.0
  0
LINE
  8
0
  6
CONTINUOUS
 62
   249
 10
103.826857
 20
165.377204
 30
0.0
 11
103.826857
 21
170.377204
 31
0.0
  0
LINE
  8
0
  6
CONTINUOUS
 62
   249
 10
103.826857
 20
170.377204
 30
0.0
 11
96.326857
 21
170.377204
 31
0.0
  0
LINE
  8
0
  6
CONTINUOUS
 62
   249
 10
96.326857
 20
170.377204
 30
0.0
 11
96.326857
 21
165.377204
 31
0.0
  0
TEXT
  8
0
  6
CONTINUOUS
 62
   249
 10
101.822669
 20
166.932409
 30
0.0
 40
2.5
  1
1
 11
101.822669
 21
166.099076
 31
0.0
 73
     1
  0
LINE
  8
0
  6
CONTINUOUS
 62
   249
 10
97.388807
 20
169.592502
 30
0.0
 11
99.734573
 21
168.257149
 31
0.0
  0
LINE
  8
0
  6
CONTINUOUS
 62
   249
 10
97.380765
 20
166.085146
 30
0.0
 11
99.764226
 21
167.273338
 31
0.0
  0
LINE
  8
0
  6
CONTINUOUS
 62
   249
 10
99.734573
 20
168.257149
 30
0.0
 11
97.388807
 21
167.06723
 31
0.0
  0
LINE
  8
0
  6
CONTINUOUS
 62
   249
 10
100.0
 20
152.5
 30
0.0
 11
100.0
 21
165.377204
 31
0.0
  0
LINE
  8
0
  6
CONTINUOUS
 62
   249
 10
102.5
 20
152.5
 30
0.0
 11
152.5
 21
152.5
 31
0.0
  0
LINE
  8
0
  6
CONTINUOUS
 62
   249
 10
101.326857
 20
170.377204
 30
0.0
 11
101.326857
 21
172.5
 31
0.0
  0
LINE
  8
0
  6
CONTINUOUS
 62
   249
 10
110.0
 20
172.5
 30
0.0
 11
157.5
 21
172.5
 31
0.0
  0
LINE
  8
0
  6
CONTINUOUS
 62
   249
 10
98.826857
 20
170.377204
 30
0.0
 11
98.826857
 21
175.0
 31
0.0
  0
LINE
  8
0
  6
CONTINUOUS
 62
   249
 10
98.826857
 20
175.0
 30
0.0
 11
112.5
 21
175.0
 31
0.0
  0
LINE
  8
0
  6
CONTINUOUS
 62
   249
 10
112.5
 20
175.0
 30
0.0
 11
160.0
 21
175.0
 31
0.0
  0
TEXT
  8
0
  6
CONTINUOUS
 62
   249
 10
174.842601
 20
205.521445
 30
0.0
 40
1.5
  1
SS1
  7
ROMANS
  0
TEXT
  8
0
  6
CONTINUOUS
 62
   249
 10
174.842601
 20
197.656162
 30
0.0
 40
1.5
  1
TS1
  7
ROMANS
  0
TEXT
  8
0
  6
CONTINUOUS
 62
   249
 10
174.842601
 20
193.129465
 30
0.0
 40
1.5
  1
SS2
  7
ROMANS
  0
TEXT
  8
0
  6
CONTINUOUS
 62
   249
 10
174.842601
 20
186.668574
 30
0.0
 40
1.5
  1
TS2
  7
ROMANS
  0
TEXT
  8
0
  6
CONTINUOUS
 62
   249
 10
174.842601
 20
138.240677
 30
0.0
 40
1.5
  1
SS1
  7
ROMANS
  0
TEXT
  8
0
  6
CONTINUOUS
 62
   249
 10
174.842601
 20
129.55967
 30
0.0
 40
1.5
  1
TS1
  7
ROMANS
  0
TEXT
  8
0
  6
CONTINUOUS
 62
   249
 10
174.842601
 20
125.747783
 30
0.0
 40
1.5
  1
SS2
  7
ROMANS
  0
TEXT
  8
0
  6
CONTINUOUS
 62
   249
 10
174.842601
 20
119.69055
 30
0.0
 40
1.5
  1
TS2
  7
ROMANS
  0
LINE
  8
0
  6
CONTINUOUS
 62
   249
 10
240.0
 20
215.0
 30
0.0
 11
241.0
 21
216.0
 31
0.0
  0
LINE
  8
0
  6
CONTINUOUS
 62
   249
 10
240.0
 20
190.0
 30
0.0
 11
241.0
 21
189.0
 31
0.0
  0
LINE
  8
0
  6
CONTINUOUS
 62
   249
 10
240.0
 20
215.0
 30
0.0
 11
240.0
 21
190.0
 31
0.0
  0
LINE
  8
0
  6
CONTINUOUS
 62
   249
 10
237.5
 20
215.0
 30
0.0
 11
238.5
 21
216.0
 31
0.0
  0
LINE
  8
0
  6
CONTINUOUS
 62
   249
 10
237.5
 20
210.0
 30
0.0
 11
238.5
 21
209.0
 31
0.0
  0
LINE
  8
0
  6
CONTINUOUS
 62
   249
 10
237.5
 20
215.0
 30
0.0
 11
237.5
 21
210.0
 31
0.0
  0
LINE
  8
0
  6
CONTINUOUS
 62
   249
 10
240.0
 20
202.5
 30
0.0
 11
230.0
 21
202.5
 31
0.0
  0
LINE
  8
0
  6
CONTINUOUS
 62
   249
 10
240.0
 20
175.0
 30
0.0
 11
240.0
 21
170.0
 31
0.0
  0
LINE
  8
0
  6
CONTINUOUS
 62
   249
 10
240.0
 20
170.0
 30
0.0
 11
241.0
 21
169.0
 31
0.0
  0
LINE
  8
0
  6
CONTINUOUS
 62
   249
 10
240.0
 20
175.0
 30
0.0
 11
241.0
 21
176.0
 31
0.0
  0
LINE
  8
0
  6
CONTINUOUS
 62
   249
 10
237.5
 20
212.5
 30
0.0
 11
227.5
 21
212.5
 31
0.0
  0
LINE
  8
0
  6
CONTINUOUS
 62
   249
 10
240.0
 20
172.5
 30
0.0
 11
217.5
 21
172.5
 31
0.0
  0
LINE
  8
0
  6
CONTINUOUS
 62
   249
 10
217.5
 20
172.5
 30
0.0
 11
217.5
 21
212.5
 31
0.0
  0
LINE
  8
0
  6
CONTINUOUS
 62
   249
 10
217.5
 20
212.5
 30
0.0
 11
227.5
 21
212.5
 31
0.0
  0
LINE
  8
0
  6
CONTINUOUS
 62
   249
 10
240.0
 20
110.0
 30
0.0
 11
241.0
 21
111.0
 31
0.0
  0
LINE
  8
0
  6
CONTINUOUS
 62
   249
 10
240.0
 20
85.0
 30
0.0
 11
241.0
 21
84.0
 31
0.0
  0
LINE
  8
0
  6
CONTINUOUS
 62
   249
 10
240.0
 20
110.0
 30
0.0
 11
240.0
 21
85.0
 31
0.0
  0
LINE
  8
0
  6
CONTINUOUS
 62
   249
 10
237.5
 20
90.0
 30
0.0
 11
238.5
 21
91.0
 31
0.0
  0
LINE
  8
0
  6
CONTINUOUS
 62
   249
 10
237.5
 20
65.0
 30
0.0
 11
238.5
 21
64.0
 31
0.0
  0
LINE
  8
0
  6
CONTINUOUS
 62
   249
 10
237.5
 20
90.0
 30
0.0
 11
237.5
 21
65.0
 31
0.0
  0
LINE
  8
0
  6
CONTINUOUS
 62
   249
 10
230.0
 20
202.5
 30
0.0
 11
220.0
 21
202.5
 31
0.0
  0
LINE
  8
0
  6
CONTINUOUS
 62
   249
 10
220.0
 20
202.5
 30
0.0
 11
220.0
 21
125.0
 31
0.0
  0
LINE
  8
0
  6
CONTINUOUS
 62
   249
 10
220.0
 20
125.0
 30
0.0
 11
210.450615
 21
125.0
 31
0.0
  0
LINE
  8
0
  6
CONTINUOUS
 62
   249
 10
210.450615
 20
185.0
 30
0.0
 11
222.5
 21
185.0
 31
0.0
  0
LINE
  8
0
  6
CONTINUOUS
 62
   249
 10
222.5
 20
185.0
 30
0.0
 11
222.5
 21
97.5
 31
0.0
  0
LINE
  8
0
  6
CONTINUOUS
 62
   249
 10
222.5
 20
97.5
 30
0.0
 11
240.0
 21
97.5
 31
0.0
  0
LINE
  8
0
  6
CONTINUOUS
 62
   249
 10
210.450615
 20
190.0
 30
0.0
 11
217.5
 21
190.0
 31
0.0
  0
LINE
  8
0
  6
CONTINUOUS
 62
   249
 10
210.450615
 20
120.0
 30
0.0
 11
220.0
 21
120.0
 31
0.0
  0
LINE
  8
0
  6
CONTINUOUS
 62
   249
 10
220.0
 20
120.0
 30
0.0
 11
220.0
 21
77.5
 31
0.0
  0
LINE
  8
0
  6
CONTINUOUS
 62
   249
 10
220.0
 20
77.5
 30
0.0
 11
237.5
 21
77.5
 31
0.0
  0
TEXT
  8
0
  6
CONTINUOUS
 62
   249
 10
65.0
 20
207.5
 30
0.0
 40
1.5
  1
BS1
  7
ROMANS
  0
TEXT
  8
0
  6
CONTINUOUS
 62
   249
 10
17.440672
 20
209.052721
 30
0.0
 40
2.0
  1
3)
  7
ROMANS
  0
TEXT
  8
0
  6
CONTINUOUS
 62
   249
 10
17.993014
 20
111.673819
 30
0.0
 40
2.0
  1
5a)
  7
ROMANS
  0
TEXT
  8
0
  6
CONTINUOUS
 62
   249
 10
17.993014
 20
94.091145
 30
0.0
 40
2.0
  1
5b)
  7
ROMANS
  0
TEXT
  8
0
  6
CONTINUOUS
 62
   249
 10
17.993014
 20
79.084895
 30
0.0
 40
2.0
  1
5c)
  7
ROMANS
  0
LINE
  8
0
  6
CONTINUOUS
 62
   249
 10
361.221603
 20
250.474187
 30
0.0
 11
368.765189
 21
250.474187
 31
0.0
  0
TEXT
  8
0
  6
DASHED
 62
   249
 10
362.133208
 20
253.289445
 30
0.0
 40
2.0
  1
2
  7
GREEKS
  0
TEXT
  8
0
  6
DASHED
 62
   249
 10
364.383505
 20
253.276511
 30
0.0
 40
2.5
  1
I
  7
GREEKS
  0
TEXT
  8
0
  6
DASHED
 62
   249
 10
364.383505
 20
240.845531
 30
0.0
 40
2.5
  1
I
  7
GREEKS
  0
TEXT
  8
0
  6
DASHED
 62
   249
 10
362.133208
 20
240.858466
 30
0.0
 40
2.0
  1
2
  7
GREEKS
  0
LINE
  8
0
  6
CONTINUOUS
 62
   249
 10
361.221603
 20
238.337859
 30
0.0
 11
368.765189
 21
238.337859
 31
0.0
  0
TEXT
  8
0
  6
DASHED
 62
   249
 10
362.133208
 20
229.878826
 30
0.0
 40
2.0
  1
2
  7
GREEKS
  0
TEXT
  8
0
  6
DASHED
 62
   249
 10
364.383505
 20
229.865891
 30
0.0
 40
2.5
  1
I
  7
GREEKS
  0
LINE
  8
0
  6
CONTINUOUS
 62
   249
 10
369.166854
 20
231.029919
 30
0.0
 11
366.821088
 21
229.84
 31
0.0
  0
LINE
  8
0
  6
CONTINUOUS
 62
   249
 10
366.821088
 20
232.365273
 30
0.0
 11
369.166854
 21
231.029919
 31
0.0
  0
LINE
  8
0
  6
CONTINUOUS
 62
   249
 10
368.858767
 20
232.365273
 30
0.0
 11
371.204533
 21
231.029919
 31
0.0
  0
LINE
  8
0
  6
CONTINUOUS
 62
   249
 10
371.204533
 20
231.029919
 30
0.0
 11
368.858767
 21
229.84
 31
0.0
  0
LINE
  8
0
  6
CONTINUOUS
 62
   249
 10
373.204791
 20
231.029919
 30
0.0
 11
370.859025
 21
229.84
 31
0.0
  0
LINE
  8
0
  6
CONTINUOUS
 62
   249
 10
370.859025
 20
232.365273
 30
0.0
 11
373.204791
 21
231.029919
 31
0.0
  0
LINE
  8
0
  6
CONTINUOUS
 62
   249
 10
369.142955
 20
227.512174
 30
0.0
 11
369.142955
 21
225.724043
 31
0.0
  0
LINE
  8
0
  6
CONTINUOUS
 62
   249
 10
366.188843
 20
228.865059
 30
0.0
 11
367.08952
 21
227.74131
 31
0.0
  0
LINE
  8
0
  6
CONTINUOUS
 62
   249
 10
363.743436
 20
225.499293
 30
0.0
 11
366.619546
 21
228.327852
 31
0.0
  0
LINE
  8
0
  6
CONTINUOUS
 62
   249
 10
361.359291
 20
226.666896
 30
0.0
 11
369.147496
 21
226.666896
 31
0.0
  0
LINE
  8
0
  6
CONTINUOUS
 62
   249
 10
361.32826
 20
227.512174
 30
0.0
 11
361.32826
 21
225.724043
 31
0.0
  0
LINE
  8
0
  6
CONTINUOUS
 62
   249
 10
361.32826
 20
195.012174
 30
0.0
 11
361.32826
 21
193.224043
 31
0.0
  0
LINE
  8
0
  6
CONTINUOUS
 62
   249
 10
361.359291
 20
194.166896
 30
0.0
 11
369.147496
 21
194.166896
 31
0.0
  0
LINE
  8
0
  6
CONTINUOUS
 62
   249
 10
363.743436
 20
192.999293
 30
0.0
 11
366.619546
 21
195.827852
 31
0.0
  0
LINE
  8
0
  6
CONTINUOUS
 62
   249
 10
366.188843
 20
196.365059
 30
0.0
 11
367.08952
 21
195.24131
 31
0.0
  0
LINE
  8
0
  6
CONTINUOUS
 62
   249
 10
369.142955
 20
195.012174
 30
0.0
 11
369.142955
 21
193.224043
 31
0.0
  0
LINE
  8
0
  6
CONTINUOUS
 62
   249
 10
370.889058
 20
199.865273
 30
0.0
 11
373.234823
 21
198.529919
 31
0.0
  0
LINE
  8
0
  6
CONTINUOUS
 62
   249
 10
373.234823
 20
198.529919
 30
0.0
 11
370.889058
 21
197.34
 31
0.0
  0
LINE
  8
0
  6
CONTINUOUS
 62
   249
 10
371.309646
 20
198.529919
 30
0.0
 11
368.963881
 21
197.34
 31
0.0
  0
LINE
  8
0
  6
CONTINUOUS
 62
   249
 10
368.963881
 20
199.865273
 30
0.0
 11
371.309646
 21
198.529919
 31
0.0
  0
LINE
  8
0
  6
CONTINUOUS
 62
   249
 10
366.821088
 20
199.865273
 30
0.0
 11
369.166854
 21
198.529919
 31
0.0
  0
LINE
  8
0
  6
CONTINUOUS
 62
   249
 10
369.166854
 20
198.529919
 30
0.0
 11
366.821088
 21
197.34
 31
0.0
  0
TEXT
  8
0
  6
DASHED
 62
   249
 10
364.383505
 20
197.365891
 30
0.0
 40
2.5
  1
I
  7
GREEKS
  0
TEXT
  8
0
  6
DASHED
 62
   249
 10
362.133208
 20
197.378826
 30
0.0
 40
2.0
  1
2
  7
GREEKS
  0
LINE
  8
0
  6
CONTINUOUS
 62
   249
 10
361.221603
 20
205.837859
 30
0.0
 11
368.765189
 21
205.837859
 31
0.0
  0
TEXT
  8
0
  6
DASHED
 62
   249
 10
362.133208
 20
208.358466
 30
0.0
 40
2.0
  1
2
  7
GREEKS
  0
TEXT
  8
0
  6
DASHED
 62
   249
 10
364.383505
 20
208.345531
 30
0.0
 40
2.5
  1
I
  7
GREEKS
  0
TEXT
  8
0
  6
DASHED
 62
   249
 10
364.383505
 20
220.776511
 30
0.0
 40
2.5
  1
I
  7
GREEKS
  0
TEXT
  8
0
  6
DASHED
 62
   249
 10
362.133208
 20
220.789445
 30
0.0
 40
2.0
  1
2
  7
GREEKS
  0
LINE
  8
0
  6
CONTINUOUS
 62
   249
 10
361.221603
 20
217.974187
 30
0.0
 11
368.765189
 21
217.974187
 31
0.0
  0
LINE
  8
0
  6
CONTINUOUS
 62
   249
 10
366.578563
 20
223.316754
 30
0.0
 11
368.924329
 21
221.9814
 31
0.0
  0
LINE
  8
0
  6
CONTINUOUS
 62
   249
 10
368.924329
 20
221.9814
 30
0.0
 11
366.578563
 21
220.791481
 31
0.0
  0
LINE
  8
0
  6
CONTINUOUS
 62
   249
 10
361.32826
 20
215.206143
 30
0.0
 11
361.32826
 21
213.418012
 31
0.0
  0
LINE
  8
0
  6
CONTINUOUS
 62
   249
 10
361.359291
 20
214.360865
 30
0.0
 11
369.147496
 21
214.360865
 31
0.0
  0
LINE
  8
0
  6
CONTINUOUS
 62
   249
 10
366.188843
 20
216.559027
 30
0.0
 11
367.08952
 21
215.435278
 31
0.0
  0
ARC
  8
0
  6
HIDDEN
 62
   249
 10
368.054159
 20
218.289409
 30
0.0
 40
4.998196
 50
206.402922
 51
282.21115
  0
LINE
  8
0
  6
CONTINUOUS
 62
   249
 10
363.743436
 20
213.193262
 30
0.0
 11
366.619546
 21
216.021821
 31
0.0
  0
LINE
  8
0
  6
CONTINUOUS
 62
   249
 10
369.142955
 20
215.206143
 30
0.0
 11
369.142955
 21
213.418012
 31
0.0
  0
LINE
  8
0
  6
CONTINUOUS
 62
   249
 10
369.166854
 20
209.50956
 30
0.0
 11
366.821088
 21
208.319641
 31
0.0
  0
LINE
  8
0
  6
CONTINUOUS
 62
   249
 10
366.821088
 20
210.844914
 30
0.0
 11
369.166854
 21
209.50956
 31
0.0
  0
LINE
  8
0
  6
CONTINUOUS
 62
   249
 10
368.977215
 20
210.844914
 30
0.0
 11
371.322981
 21
209.50956
 31
0.0
  0
LINE
  8
0
  6
CONTINUOUS
 62
   249
 10
371.322981
 20
209.50956
 30
0.0
 11
368.977215
 21
208.319641
 31
0.0
  0
LINE
  8
0
  6
CONTINUOUS
 62
   249
 10
369.142955
 20
203.052173
 30
0.0
 11
369.142955
 21
201.264041
 31
0.0
  0
LINE
  8
0
  6
CONTINUOUS
 62
   249
 10
366.188843
 20
204.405057
 30
0.0
 11
367.08952
 21
203.281308
 31
0.0
  0
LINE
  8
0
  6
CONTINUOUS
 62
   249
 10
363.743436
 20
201.039291
 30
0.0
 11
366.619546
 21
203.86785
 31
0.0
  0
LINE
  8
0
  6
CONTINUOUS
 62
   249
 10
361.359291
 20
202.206894
 30
0.0
 11
369.147496
 21
202.206894
 31
0.0
  0
LINE
  8
0
  6
CONTINUOUS
 62
   249
 10
361.32826
 20
203.052173
 30
0.0
 11
361.32826
 21
201.264041
 31
0.0
  0
LINE
  8
0
  6
CONTINUOUS
 62
   249
 10
355.727984
 20
191.841081
 30
0.0
 11
375.727984
 21
191.841081
 31
0.0
  0
TEXT
  8
0
  6
DASHED
 62
   249
 10
351.620768
 20
185.965966
 30
0.0
 40
2.0
  1
FEEDER TERMINAL
  7
ROMANS
  0
TEXT
  8
0
  6
DASHED
 62
   249
 10
351.620768
 20
182.632633
 30
0.0
 40
2.0
  1
LEDNINGSTERMINAL
  7
ROMANS
  0
TEXT
  8
0
  6
DASHED
 62
   249
 10
19.996249
 20
26.479261
 30
0.0
 40
2.0
  1
3) BLOCKING INPUT /
  7
ROMANS
  0
TEXT
  8
0
  6
DASHED
 62
   249
 10
21.323608
 20
23.145927
 30
0.0
 40
2.0
  1
  BLOCKERING IN
  7
ROMANS
  0
TEXT
  8
0
  6
DASHED
 62
   249
 10
20.043235
 20
16.343157
 30
0.0
 40
2.0
  1
4) TRIP 1 /
  7
ROMANS
  0
TEXT
  8
0
  6
DASHED
 62
   249
 10
21.323608
 20
13.009824
 30
0.0
 40
2.0
  1
  UTLÖSNING 1
  7
ROMANS
  0
TEXT
  8
0
  6
DASHED
 62
   249
 10
87.5
 20
35.0
 30
0.0
 40
2.0
  1
5a) TRIP 2 OR ALARM OUTPUT /
  7
ROMANS
  0
TEXT
  8
0
  6
DASHED
 62
   249
 10
88.839015
 20
31.666667
 30
0.0
 40
2.0
  1
   UTLÖSNING 2 ELLER SIGNALUTGÅNG
  7
ROMANS
  0
TEXT
  8
0
  6
DASHED
 62
   249
 10
87.5
 20
25.833333
 30
0.0
 40
2.0
  1
5b) ALARM OUTPUT /
  7
ROMANS
  0
TEXT
  8
0
  6
DASHED
 62
   249
 10
88.839015
 20
22.5
 30
0.0
 40
2.0
  1
   SIGNALUTGÅNG
  7
ROMANS
  0
TEXT
  8
0
  6
DASHED
 62
   249
 10
87.5
 20
16.309142
 30
0.0
 40
2.0
  1
5c) START, BLOCKING ETC.
  7
ROMANS
  0
TEXT
  8
0
  6
DASHED
 62
   249
 10
88.839015
 20
12.975808
 30
0.0
 40
2.0
  1
   START, BLOCKERING MM.
  7
ROMANS
  0
LINE
  8
0
  6
CONTINUOUS
 62
   249
 10
200.0
 20
170.0
 30
0.0
 11
200.0
 21
207.5
 31
0.0
  0
LINE
  8
0
  6
CONTINUOUS
 62
   249
 10
110.0
 20
172.5
 30
0.0
 11
101.326857
 21
172.5
 31
0.0
  0
LINE
  8
0
  6
CONTINUOUS
 62
   249
 10
105.0
 20
145.0
 30
0.0
 11
120.0
 21
145.0
 31
0.0
  0
TEXT
  8
0
  6
CONTINUOUS
 62
   249
 10
65.0
 20
230.0
 30
0.0
 40
2.0
  1
RS 10190-AA  SPAC 538 C2 / E239
  7
ROMANS
  0
TEXT
  8
0
  6
CONTINUOUS
 62
   249
 10
317.5
 20
27.5
 30
0.0
 40
2.0
  1
TERMINAL DIAGRAM / UTTAGSSCHEMA
  7
ROMANS
  0
TEXT
  8
0
  6
CONTINUOUS
 62
   249
 10
317.5
 20
24.166667
 30
0.0
 40
2.0
  1
SPAC 538 C3 / E239
  7
ROMANS
  0
TEXT
  8
0
  6
DASHED
 62
   249
 10
265.363959
 20
178.294779
 30
0.0
 40
2.0
  1
1)
  7
ROMANS
  0
TEXT
  8
0
  6
DASHED
 62
   249
 10
265.363959
 20
198.294779
 30
0.0
 40
2.0
  1
1)
  7
ROMANS
  0
TEXT
  8
0
  6
DASHED
 62
   249
 10
265.363959
 20
218.294779
 30
0.0
 40
2.0
  1
1)
  7
ROMANS
  0
TEXT
  8
0
  6
DASHED
 62
   249
 10
277.5
 20
246.491307
 30
0.0
 40
2.0
  1
L3
  7
ROMANS
  0
TEXT
  8
0
  6
DASHED
 62
   249
 10
277.5
 20
251.543818
 30
0.0
 40
2.0
  1
L2
  7
ROMANS
  0
TEXT
  8
0
  6
DASHED
 62
   249
 10
277.5
 20
256.486126
 30
0.0
 40
2.0
  1
L1
  7
ROMANS
  0
LINE
  8
0
  6
DASHED
 62
   249
 10
310.0
 20
257.5
 30
0.0
 11
282.5
 21
257.5
 31
0.0
  0
LINE
  8
0
  6
DASHED
 62
   249
 10
310.0
 20
252.5
 30
0.0
 11
282.5
 21
252.5
 31
0.0
  0
LINE
  8
0
  6
DASHED
 62
   249
 10
310.0
 20
247.5
 30
0.0
 11
282.5
 21
247.5
 31
0.0
  0
LINE
  8
0
  6
DASHED
 62
   249
 10
290.0
 20
212.689992
 30
0.0
 11
285.0
 21
212.689992
 31
0.0
  0
LINE
  8
0
  6
CONTINUOUS
 62
   249
 10
300.0
 20
230.0
 30
0.0
 11
299.5
 21
229.5
 31
0.0
  0
LINE
  8
0
  6
CONTINUOUS
 62
   249
 10
300.0
 20
230.0
 30
0.0
 11
299.5
 21
230.5
 31
0.0
  0
LINE
  8
0
  6
CONTINUOUS
 62
   249
 10
300.0
 20
230.0
 30
0.0
 11
300.5
 21
230.5
 31
0.0
  0
LINE
  8
0
  6
CONTINUOUS
 62
   249
 10
300.0
 20
230.0
 30
0.0
 11
300.5
 21
229.5
 31
0.0
  0
LINE
  8
0
  6
CONTINUOUS
 62
   249
 10
295.0
 20
230.0
 30
0.0
 11
294.5
 21
230.5
 31
0.0
  0
LINE
  8
0
  6
CONTINUOUS
 62
   249
 10
295.0
 20
230.0
 30
0.0
 11
294.5
 21
229.5
 31
0.0
  0
LINE
  8
0
  6
CONTINUOUS
 62
   249
 10
295.0
 20
230.0
 30
0.0
 11
295.5
 21
229.5
 31
0.0
  0
LINE
  8
0
  6
CONTINUOUS
 62
   249
 10
295.0
 20
230.0
 30
0.0
 11
295.5
 21
230.5
 31
0.0
  0
LINE
  8
0
  6
CONTINUOUS
 62
   249
 10
290.0
 20
230.0
 30
0.0
 11
289.5
 21
229.5
 31
0.0
  0
LINE
  8
0
  6
CONTINUOUS
 62
   249
 10
290.0
 20
230.0
 30
0.0
 11
290.5
 21
230.5
 31
0.0
  0
LINE
  8
0
  6
CONTINUOUS
 62
   249
 10
290.0
 20
230.0
 30
0.0
 11
290.5
 21
229.5
 31
0.0
  0
LINE
  8
0
  6
CONTINUOUS
 62
   249
 10
290.0
 20
230.0
 30
0.0
 11
289.5
 21
230.5
 31
0.0
  0
LINE
  8
0
  6
CONTINUOUS
 62
   249
 10
300.0
 20
222.5
 30
0.0
 11
297.5
 21
230.0
 31
0.0
  0
LINE
  8
0
  6
CONTINUOUS
 62
   249
 10
295.0
 20
222.5
 30
0.0
 11
292.5
 21
230.0
 31
0.0
  0
LINE
  8
0
  6
CONTINUOUS
 62
   249
 10
290.0
 20
222.5
 30
0.0
 11
287.5
 21
230.0
 31
0.0
  0
LINE
  8
0
  6
DASHED
 62
   249
 10
290.0
 20
242.5
 30
0.0
 11
290.0
 21
257.5
 31
0.0
  0
LINE
  8
0
  6
DASHED
 62
   249
 10
295.0
 20
242.5
 30
0.0
 11
295.0
 21
250.0
 31
0.0
  0
LINE
  8
0
  6
DASHED
 62
   249
 10
300.0
 20
222.5
 30
0.0
 11
300.0
 21
190.0
 31
0.0
  0
LINE
  8
0
  6
DASHED
 62
   249
 10
300.0
 20
247.5
 30
0.0
 11
300.0
 21
230.0
 31
0.0
  0
LINE
  8
0
  6
DASHED
 62
   249
 10
295.0
 20
222.5
 30
0.0
 11
295.0
 21
190.0
 31
0.0
  0
LINE
  8
0
  6
DASHED
 62
   249
 10
295.0
 20
252.5
 30
0.0
 11
295.0
 21
230.0
 31
0.0
  0
LINE
  8
0
  6
DASHED
 62
   249
 10
290.0
 20
230.0
 30
0.0
 11
290.0
 21
242.5
 31
0.0
  0
LINE
  8
0
  6
DASHED
 62
   249
 10
290.0
 20
222.5
 30
0.0
 11
290.0
 21
190.0
 31
0.0
  0
LINE
  8
0
  6
DASHED
 62
   249
 10
300.0
 20
190.0
 30
0.0
 11
300.0
 21
165.0
 31
0.0
  0
LINE
  8
0
  6
DASHED
 62
   249
 10
295.0
 20
190.0
 30
0.0
 11
295.0
 21
165.0
 31
0.0
  0
LINE
  8
0
  6
DASHED
 62
   249
 10
290.0
 20
190.0
 30
0.0
 11
290.0
 21
165.0
 31
0.0
  0
LINE
  8
0
  6
DASHED
 62
   249
 10
295.069797
 20
192.689984
 30
0.0
 11
285.0
 21
192.689984
 31
0.0
  0
LINE
  8
0
  6
DASHED
 62
   249
 10
300.006921
 20
172.689984
 30
0.0
 11
285.0
 21
172.689984
 31
0.0
  0
LINE
  8
0
  6
DASHED
 62
   249
 10
270.0
 20
207.5
 30
0.0
 11
270.0
 21
167.5
 31
0.0
  0
LINE
  8
0
  6
DASHED
 62
   249
 10
285.0
 20
212.689992
 30
0.0
 11
285.0
 21
165.0
 31
0.0
  0
LINE
  8
0
  6
DASHED
 62
   249
 10
290.0
 20
217.5
 30
0.0
 11
265.0
 21
217.5
 31
0.0
  0
LINE
  8
0
  6
DASHED
 62
   249
 10
295.0
 20
197.5
 30
0.0
 11
265.0
 21
197.5
 31
0.0
  0
LINE
  8
0
  6
DASHED
 62
   249
 10
300.0
 20
177.5
 30
0.0
 11
265.0
 21
177.5
 31
0.0
  0
LINE
  8
0
  6
CONTINUOUS
 62
   249
 10
265.0
 20
217.8468
 30
0.0
 11
264.0
 21
218.8468
 31
0.0
  0
LINE
  8
0
  6
CONTINUOUS
 62
   249
 10
265.0
 20
212.16187
 30
0.0
 11
264.0
 21
211.16187
 31
0.0
  0
LINE
  8
0
  6
CONTINUOUS
 62
   249
 10
265.0
 20
217.8468
 30
0.0
 11
265.0
 21
212.16187
 31
0.0
  0
LINE
  8
0
  6
CONTINUOUS
 62
   249
 10
265.0
 20
197.8468
 30
0.0
 11
265.0
 21
192.16187
 31
0.0
  0
LINE
  8
0
  6
CONTINUOUS
 62
   249
 10
265.0
 20
192.16187
 30
0.0
 11
264.0
 21
191.16187
 31
0.0
  0
LINE
  8
0
  6
CONTINUOUS
 62
   249
 10
265.0
 20
197.8468
 30
0.0
 11
264.0
 21
198.8468
 31
0.0
  0
LINE
  8
0
  6
CONTINUOUS
 62
   249
 10
265.0
 20
177.8468
 30
0.0
 11
264.0
 21
178.8468
 31
0.0
  0
LINE
  8
0
  6
CONTINUOUS
 62
   249
 10
265.0
 20
172.16187
 30
0.0
 11
264.0
 21
171.16187
 31
0.0
  0
LINE
  8
0
  6
CONTINUOUS
 62
   249
 10
265.0
 20
177.8468
 30
0.0
 11
265.0
 21
172.16187
 31
0.0
  0
LINE
  8
0
  6
CONTINUOUS
 62
   249
 10
260.0
 20
217.5
 30
0.0
 11
262.5
 21
217.5
 31
0.0
  0
LINE
  8
0
  6
CONTINUOUS
 62
   249
 10
260.0
 20
212.5
 30
0.0
 11
262.5
 21
212.5
 31
0.0
  0
LINE
  8
0
  6
DASHED
 62
   249
 10
260.0
 20
207.5
 30
0.0
 11
270.0
 21
207.5
 31
0.0
  0
LINE
  8
0
  6
CONTINUOUS
 62
   249
 10
260.0
 20
197.5
 30
0.0
 11
262.5
 21
197.5
 31
0.0
  0
LINE
  8
0
  6
CONTINUOUS
 62
   249
 10
260.0
 20
192.5
 30
0.0
 11
262.5
 21
192.5
 31
0.0
  0
LINE
  8
0
  6
DASHED
 62
   249
 10
260.0
 20
187.5
 30
0.0
 11
270.0
 21
187.5
 31
0.0
  0
LINE
  8
0
  6
CONTINUOUS
 62
   249
 10
260.0
 20
177.5
 30
0.0
 11
262.5
 21
177.5
 31
0.0
  0
LINE
  8
0
  6
CONTINUOUS
 62
   249
 10
260.0
 20
172.5
 30
0.0
 11
262.5
 21
172.5
 31
0.0
  0
LINE
  8
0
  6
DASHED
 62
   249
 10
260.0
 20
167.5
 30
0.0
 11
285.0
 21
167.5
 31
0.0
  0
TEXT
  8
0
  6
DASHED
 62
   249
 10
330.0
 20
138.980287
 30
0.0
 40
2.0
  1
L3 (T)
  7
ROMANS
  0
TEXT
  8
0
  6
DASHED
 62
   249
 10
330.0
 20
143.922594
 30
0.0
 40
2.0
  1
L2 (S)
  7
ROMANS
  0
TEXT
  8
0
  6
DASHED
 62
   249
 10
330.0
 20
148.975105
 30
0.0
 40
2.0
  1
L1 (R)
  7
ROMANS
  0
LINE
  8
0
  6
DASHED
 62
   249
 10
295.0
 20
150.0
 30
0.0
 11
327.5
 21
150.0
 31
0.0
  0
LINE
  8
0
  6
DASHED
 62
   249
 10
295.0
 20
145.0
 30
0.0
 11
327.5
 21
145.0
 31
0.0
  0
LINE
  8
0
  6
DASHED
 62
   249
 10
295.0
 20
140.0
 30
0.0
 11
327.5
 21
140.0
 31
0.0
  0
LINE
  8
0
  6
CONTINUOUS
 62
   249
 10
296.506031
 20
122.598556
 30
0.0
 11
297.478167
 21
122.598556
 31
0.0
  0
LINE
  8
0
  6
CONTINUOUS
 62
   249
 10
296.496128
 20
124.999996
 30
0.0
 11
312.5
 21
124.999996
 31
0.0
  0
LINE
  8
0
  6
CONTINUOUS
 62
   249
 10
296.500897
 20
120.18998
 30
0.0
 11
297.5
 21
120.18998
 31
0.0
  0
ARC
  8
0
  6
CONTINUOUS
 62
   249
 10
295.864862
 20
121.394238
 30
0.0
 40
1.204309
 50
90.0
 51
270.0
  0
LINE
  8
0
  6
CONTINUOUS
 62
   249
 10
295.859898
 20
120.189937
 30
0.0
 11
296.509496
 21
120.189937
 31
0.0
  0
LINE
  8
0
  6
CONTINUOUS
 62
   249
 10
295.858762
 20
124.999993
 30
0.0
 11
296.502261
 21
124.999993
 31
0.0
  0
LINE
  8
0
  6
CONTINUOUS
 62
   249
 10
295.858762
 20
122.598547
 30
0.0
 11
296.50836
 21
122.598547
 31
0.0
  0
ARC
  8
0
  6
CONTINUOUS
 62
   249
 10
295.864862
 20
123.796095
 30
0.0
 40
1.204309
 50
90.0
 51
265.706237
  0
LINE
  8
0
  6
CONTINUOUS
 62
   249
 10
304.006031
 20
122.598556
 30
0.0
 11
304.978167
 21
122.598556
 31
0.0
  0
LINE
  8
0
  6
CONTINUOUS
 62
   249
 10
303.996128
 20
124.999996
 30
0.0
 11
304.973936
 21
124.999996
 31
0.0
  0
LINE
  8
0
  6
CONTINUOUS
 62
   249
 10
304.000897
 20
120.18998
 30
0.0
 11
305.0
 21
120.18998
 31
0.0
  0
ARC
  8
0
  6
CONTINUOUS
 62
   249
 10
303.364862
 20
121.394238
 30
0.0
 40
1.204309
 50
90.0
 51
270.0
  0
LINE
  8
0
  6
CONTINUOUS
 62
   249
 10
303.359898
 20
120.189937
 30
0.0
 11
304.009496
 21
120.189937
 31
0.0
  0
LINE
  8
0
  6
CONTINUOUS
 62
   249
 10
303.358762
 20
124.999993
 30
0.0
 11
304.002261
 21
124.999993
 31
0.0
  0
LINE
  8
0
  6
CONTINUOUS
 62
   249
 10
303.358762
 20
122.598547
 30
0.0
 11
304.00836
 21
122.598547
 31
0.0
  0
ARC
  8
0
  6
CONTINUOUS
 62
   249
 10
303.364862
 20
123.796095
 30
0.0
 40
1.204309
 50
90.0
 51
265.706237
  0
LINE
  8
0
  6
CONTINUOUS
 62
   249
 10
305.0
 20
120.18998
 30
0.0
 11
305.0
 21
117.5
 31
0.0
  0
LINE
  8
0
  6
CONTINUOUS
 62
   249
 10
297.5
 20
120.18998
 30
0.0
 11
297.5
 21
112.5
 31
0.0
  0
LINE
  8
0
  6
DASHED
 62
   249
 10
305.0
 20
135.0
 30
0.0
 11
305.0
 21
145.0
 31
0.0
  0
LINE
  8
0
  6
DASHED
 62
   249
 10
297.5
 20
135.0
 30
0.0
 11
297.5
 21
150.0
 31
0.0
  0
LINE
  8
0
  6
CONTINUOUS
 62
   249
 10
312.5
 20
125.0
 30
0.0
 11
319.117732
 21
125.0
 31
0.0
  0
LINE
  8
0
  6
CONTINUOUS
 62
   249
 10
311.506031
 20
122.598556
 30
0.0
 11
312.478167
 21
122.598556
 31
0.0
  0
LINE
  8
0
  6
CONTINUOUS
 62
   249
 10
311.496128
 20
124.999996
 30
0.0
 11
312.473936
 21
124.999996
 31
0.0
  0
LINE
  8
0
  6
CONTINUOUS
 62
   249
 10
311.500897
 20
120.18998
 30
0.0
 11
312.5
 21
120.18998
 31
0.0
  0
ARC
  8
0
  6
CONTINUOUS
 62
   249
 10
310.864862
 20
121.394238
 30
0.0
 40
1.204309
 50
90.0
 51
270.0
  0
LINE
  8
0
  6
CONTINUOUS
 62
   249
 10
310.859898
 20
120.189937
 30
0.0
 11
311.509496
 21
120.189937
 31
0.0
  0
LINE
  8
0
  6
CONTINUOUS
 62
   249
 10
310.858762
 20
124.999993
 30
0.0
 11
311.502261
 21
124.999993
 31
0.0
  0
LINE
  8
0
  6
CONTINUOUS
 62
   249
 10
310.858762
 20
122.598547
 30
0.0
 11
311.50836
 21
122.598547
 31
0.0
  0
ARC
  8
0
  6
CONTINUOUS
 62
   249
 10
310.864862
 20
123.796095
 30
0.0
 40
1.204309
 50
90.0
 51
265.706237
  0
LINE
  8
0
  6
CONTINUOUS
 62
   249
 10
312.5
 20
120.18998
 30
0.0
 11
312.5
 21
117.5
 31
0.0
  0
LINE
  8
0
  6
CONTINUOUS
 62
   249
 10
297.5
 20
130.18998
 30
0.0
 11
319.117732
 21
130.18998
 31
0.0
  0
LINE
  8
0
  6
DASHED
 62
   249
 10
312.5
 20
135.0
 30
0.0
 11
312.5
 21
140.0
 31
0.0
  0
TEXT
  8
0
  6
DASHED
 62
   249
 10
265.363959
 20
73.294779
 30
0.0
 40
2.0
  1
1)
  7
ROMANS
  0
TEXT
  8
0
  6
DASHED
 62
   249
 10
265.363959
 20
93.294779
 30
0.0
 40
2.0
  1
1)
  7
ROMANS
  0
TEXT
  8
0
  6
DASHED
 62
   249
 10
265.363959
 20
113.294779
 30
0.0
 40
2.0
  1
1)
  7
ROMANS
  0
LINE
  8
0
  6
DASHED
 62
   249
 10
280.0
 20
102.5
 30
0.0
 11
280.0
 21
92.5
 31
0.0
  0
LINE
  8
0
  6
DASHED
 62
   249
 10
265.0
 20
92.5
 30
0.0
 11
305.0
 21
92.5
 31
0.0
  0
LINE
  8
0
  6
DASHED
 62
   249
 10
285.0
 20
112.5
 30
0.0
 11
285.0
 21
62.5
 31
0.0
  0
LINE
  8
0
  6
DASHED
 62
   249
 10
265.0
 20
112.5
 30
0.0
 11
297.5
 21
112.5
 31
0.0
  0
LINE
  8
0
  6
DASHED
 62
   249
 10
312.5
 20
72.5
 30
0.0
 11
265.0
 21
72.5
 31
0.0
  0
LINE
  8
0
  6
DASHED
 62
   249
 10
280.0
 20
102.5
 30
0.0
 11
260.0
 21
102.5
 31
0.0
  0
LINE
  8
0
  6
DASHED
 62
   249
 10
280.0
 20
82.5
 30
0.0
 11
260.0
 21
82.5
 31
0.0
  0
LINE
  8
0
  6
DASHED
 62
   249
 10
305.0
 20
117.5
 30
0.0
 11
305.0
 21
92.5
 31
0.0
  0
LINE
  8
0
  6
DASHED
 62
   249
 10
312.5
 20
117.5
 30
0.0
 11
312.5
 21
72.5
 31
0.0
  0
LINE
  8
0
  6
CONTINUOUS
 62
   249
 10
265.0
 20
67.16187
 30
0.0
 11
264.0
 21
66.16187
 31
0.0
  0
LINE
  8
0
  6
CONTINUOUS
 62
   249
 10
265.0
 20
72.8468
 30
0.0
 11
265.0
 21
67.16187
 31
0.0
  0
LINE
  8
0
  6
CONTINUOUS
 62
   249
 10
265.0
 20
72.8468
 30
0.0
 11
264.0
 21
73.8468
 31
0.0
  0
LINE
  8
0
  6
CONTINUOUS
 62
   249
 10
260.0
 20
72.5
 30
0.0
 11
262.5
 21
72.5
 31
0.0
  0
LINE
  8
0
  6
CONTINUOUS
 62
   249
 10
260.0
 20
67.5
 30
0.0
 11
262.5
 21
67.5
 31
0.0
  0
LINE
  8
0
  6
DASHED
 62
   249
 10
260.0
 20
62.5
 30
0.0
 11
285.0
 21
62.5
 31
0.0
  0
LINE
  8
0
  6
CONTINUOUS
 62
   249
 10
265.0
 20
87.16187
 30
0.0
 11
264.0
 21
86.16187
 31
0.0
  0
LINE
  8
0
  6
CONTINUOUS
 62
   249
 10
265.0
 20
92.8468
 30
0.0
 11
265.0
 21
87.16187
 31
0.0
  0
LINE
  8
0
  6
CONTINUOUS
 62
   249
 10
265.0
 20
92.8468
 30
0.0
 11
264.0
 21
93.8468
 31
0.0
  0
LINE
  8
0
  6
CONTINUOUS
 62
   249
 10
260.0
 20
92.5
 30
0.0
 11
262.5
 21
92.5
 31
0.0
  0
LINE
  8
0
  6
CONTINUOUS
 62
   249
 10
260.0
 20
87.5
 30
0.0
 11
262.5
 21
87.5
 31
0.0
  0
LINE
  8
0
  6
CONTINUOUS
 62
   249
 10
260.0
 20
107.5
 30
0.0
 11
262.5
 21
107.5
 31
0.0
  0
LINE
  8
0
  6
CONTINUOUS
 62
   249
 10
260.0
 20
112.5
 30
0.0
 11
262.5
 21
112.5
 31
0.0
  0
LINE
  8
0
  6
CONTINUOUS
 62
   249
 10
265.0
 20
112.8468
 30
0.0
 11
264.0
 21
113.8468
 31
0.0
  0
LINE
  8
0
  6
CONTINUOUS
 62
   249
 10
265.0
 20
112.8468
 30
0.0
 11
265.0
 21
107.16187
 31
0.0
  0
LINE
  8
0
  6
CONTINUOUS
 62
   249
 10
265.0
 20
107.16187
 30
0.0
 11
264.0
 21
106.16187
 31
0.0
  0
TEXT
  8
0
  6
CONTINUOUS
 62
   249
 10
325.0
 20
2.5
 30
0.0
 40
2.5
  1
RS 10190-AAD
  7
ROMANS
  0
TEXT
  8
0
  6
CONTINUOUS
 62
   249
 10
212.847382
 20
28.124047
 30
0.0
 40
2.0
  1
1993-01-22  JR / RITU
  7
ROMANS
  0
TEXT
  8
0
  6
CONTINUOUS
 62
   249
 10
380.0
 20
2.5
 30
0.0
 40
2.5
  1
C
  7
ROMANS
  0
LINE
  8
0
  6
CONTINUOUS
 62
   249
 10
210.450615
 20
180.0
 30
0.0
 11
215.0
 21
180.0
 31
0.0
  0
LINE
  8
0
  6
CONTINUOUS
 62
   249
 10
215.0
 20
180.0
 30
0.0
 11
215.0
 21
130.0
 31
0.0
  0
LINE
  8
0
  6
CONTINUOUS
 62
   249
 10
215.0
 20
130.0
 30
0.0
 11
210.450615
 21
130.0
 31
0.0
  0
LINE
  8
0
  6
CONTINUOUS
 62
   249
 10
215.0
 20
145.0
 30
0.0
 11
260.0
 21
145.0
 31
0.0
  0
LINE
  8
0
  6
HIDDEN
 62
   249
 10
255.0
 20
162.5
 30
0.0
 11
260.0
 21
162.5
 31
0.0
  0
LINE
  8
0
  6
HIDDEN
 62
   249
 10
255.0
 20
117.5
 30
0.0
 11
260.0
 21
117.5
 31
0.0
  0
LINE
  8
0
  6
HIDDEN
 62
   249
 10
255.0
 20
117.5
 30
0.0
 11
255.0
 21
57.5
 31
0.0
  0
TEXT
  8
0
  6
HIDDEN
 62
   249
 10
255.929881
 20
113.686149
 30
0.0
 40
2.0
  1
X0
  7
ROMANS
  0
INSERT
  8
0
  6
CONTINUOUS
 62
   249
  2
BLC29
 10
235.505406
 20
144.871524
 30
0.0
 41
-1.0
 50
180.0
  0
LINE
  8
0
  6
CONTINUOUS
 62
   249
 10
253.859579
 20
143.859579
 30
0.0
 11
256.140421
 21
146.140421
 31
0.0
  0
TEXT
  8
0
  6
CONTINUOUS
 62
   249
 10
255.47585
 20
147.212024
 30
0.0
 40
2.0
  1
9
  7
ROMANS
  0
TEXT
  8
0
  6
CONTINUOUS
 62
   249
 10
235.741712
 20
139.825196
 30
0.0
 40
2.0
  1
SERIAL PORT
  7
ROMANS
  0
TEXT
  8
0
  6
CONTINUOUS
 62
   249
 10
277.5
 20
144.067043
 30
0.0
 40
2.0
  1
2)
  7
ROMANS
  0
LINE
  8
0
  6
CONTINUOUS
 62
   249
 10
160.0
 20
175.0
 30
0.0
 11
160.0
 21
137.5
 31
0.0
  0
LINE
  8
0
  6
CONTINUOUS
 62
   249
 10
157.5
 20
172.5
 30
0.0
 11
157.5
 21
125.0
 31
0.0
  0
LINE
  8
0
  6
CONTINUOUS
 62
   249
 10
155.0
 20
157.5
 30
0.0
 11
155.0
 21
128.887472
 31
0.0
  0
LINE
  8
0
  6
CONTINUOUS
 62
   249
 10
152.5
 20
152.5
 30
0.0
 11
152.5
 21
118.998058
 31
0.0
  0
TEXT
  8
0
  6
DASHED
 62
   249
 10
19.996249
 20
36.479261
 30
0.0
 40
2.0
  1
2) BUS CONNECTION, TTL-LEVEL /
  7
ROMANS
  0
TEXT
  8
0
  6
DASHED
 62
   249
 10
25.333842
 20
33.145927
 30
0.0
 40
2.0
  1
BUSSANSLUTNING, TTL-NIVÅ
  7
ROMANS
  0
TEXT
  8
0
  6
CONTINUOUS
 62
   249
 10
370.0
 20
12.5
 30
0.0
 40
2.0
  1
1
  7
ROMANS
  0
LINE
  8
0
  6
CONTINUOUS
 62
   249
 10
25.0
 20
125.0
 30
0.0
 11
25.0
 21
120.0
 31
0.0
  0
LINE
  8
0
  6
CONTINUOUS
 62
   249
 10
25.0
 20
119.999655
 30
0.0
 11
26.0
 21
118.999655
 31
0.0
  0
LINE
  8
0
  6
CONTINUOUS
 62
   249
 10
25.0
 20
125.0
 30
0.0
 11
26.0
 21
126.0
 31
0.0
  0
LINE
  8
0
  6
CONTINUOUS
 62
   249
 10
180.0
 20
102.5
 30
0.0
 11
180.0
 21
97.5
 31
0.0
  0
LINE
  8
0
  6
CONTINUOUS
 62
   249
 10
180.0
 20
97.5
 30
0.0
 11
180.0
 21
92.5
 31
0.0
  0
LINE
  8
0
  6
CONTINUOUS
 62
   249
 10
180.0
 20
92.5
 30
0.0
 11
210.450615
 21
92.5
 31
0.0
  0
LINE
  8
0
  6
CONTINUOUS
 62
   249
 10
180.0
 20
97.5
 30
0.0
 11
210.450615
 21
97.5
 31
0.0
  0
TEXT
  8
0
  6
CONTINUOUS
 62
   249
 10
186.811067
 20
98.642764
 30
0.0
 40
2.0
  1
SERIAL I/O
  7
GREEKS
  0
TEXT
  8
0
  6
CONTINUOUS
 62
   249
 10
191.695173
 20
93.952301
 30
0.0
 40
2.0
  1
IRF
  7
GREEKS
  0
TEXT
  8
0
  6
CONTINUOUS
 62
   249
 10
277.5
 20
49.067043
 30
0.0
 40
2.0
  1
7)
  7
ROMANS
  0
TEXT
  8
0
  6
CONTINUOUS
 62
   249
 10
237.781522
 20
44.825196
 30
0.0
 40
2.0
  1
SERIAL PORT
  7
ROMANS
  0
TEXT
  8
0
  6
CONTINUOUS
 62
   249
 10
255.47585
 20
52.212024
 30
0.0
 40
2.0
  1
9
  7
ROMANS
  0
LINE
  8
0
  6
CONTINUOUS
 62
   249
 10
253.859579
 20
48.859579
 30
0.0
 11
256.140421
 21
51.140421
 31
0.0
  0
INSERT
  8
0
  6
CONTINUOUS
 62
   249
  2
BLC29
 10
235.505406
 20
49.871524
 30
0.0
 41
-1.0
 50
180.0
  0
LINE
  8
0
  6
CONTINUOUS
 62
   249
 10
215.0
 20
50.0
 30
0.0
 11
260.0
 21
50.0
 31
0.0
  0
LINE
  8
0
  6
CONTINUOUS
 62
   249
 10
210.450615
 20
99.596462
 30
0.0
 11
215.0
 21
99.596462
 31
0.0
  0
LINE
  8
0
  6
CONTINUOUS
 62
   249
 10
215.0
 20
99.596462
 30
0.0
 11
215.0
 21
50.0
 31
0.0
  0
LINE
  8
0
  6
HIDDEN
 62
   249
 10
40.0
 20
45.0
 30
0.0
 11
45.0
 21
45.0
 31
0.0
  0
TEXT
  8
0
  6
HIDDEN
 62
   249
 10
41.1717
 20
47.190866
 30
0.0
 40
2.0
  1
9
  7
ROMANS
  0
TEXT
  8
0
  6
HIDDEN
 62
   249
 10
40.058412
 20
52.418802
 30
0.0
 40
2.0
  1
10
  7
ROMANS
  0
TEXT
  8
0
  6
HIDDEN
 62
   249
 10
41.1717
 20
57.195117
 30
0.0
 40
2.0
  1
8
  7
ROMANS
  0
TEXT
  8
0
  6
HIDDEN
 62
   249
 10
41.1717
 20
62.125644
 30
0.0
 40
2.0
  1
X1
  7
ROMANS
  0
LINE
  8
0
  6
HIDDEN
 62
   249
 10
40.0
 20
65.0
 30
0.0
 11
45.0
 21
65.0
 31
0.0
  0
LINE
  8
0
  6
CONTINUOUS
 62
   249
 10
40.0
 20
60.0
 30
0.0
 11
45.0
 21
60.0
 31
0.0
  0
LINE
  8
0
  6
CONTINUOUS
 62
   249
 10
40.0
 20
55.0
 30
0.0
 11
45.0
 21
55.0
 31
0.0
  0
LINE
  8
0
  6
CONTINUOUS
 62
   249
 10
40.0
 20
50.0
 30
0.0
 11
45.0
 21
50.0
 31
0.0
  0
LINE
  8
0
  6
HIDDEN
 62
   249
 10
45.0
 20
45.0
 30
0.0
 11
45.0
 21
65.0
 31
0.0
  0
LINE
  8
0
  6
CONTINUOUS
 62
   249
 10
112.5
 20
55.0
 30
0.0
 11
112.5
 21
57.5
 31
0.0
  0
LINE
  8
0
  6
CONTINUOUS
 62
   249
 10
117.5
 20
60.0
 30
0.0
 11
111.756076
 21
56.785297
 31
0.0
  0
LINE
  8
0
  6
CONTINUOUS
 62
   249
 10
117.5
 20
60.0
 30
0.0
 11
120.0
 21
60.0
 31
0.0
  0
LINE
  8
0
  6
CONTINUOUS
 62
   249
 10
120.0
 20
60.0
 30
0.0
 11
120.0
 21
50.0
 31
0.0
  0
LINE
  8
0
  6
CONTINUOUS
 62
   249
 10
45.0
 20
60.0
 30
0.0
 11
112.5
 21
60.0
 31
0.0
  0
LINE
  8
0
  6
CONTINUOUS
 62
   249
 10
45.0
 20
55.0
 30
0.0
 11
112.5
 21
55.0
 31
0.0
  0
LINE
  8
0
  6
CONTINUOUS
 62
   249
 10
45.0
 20
50.0
 30
0.0
 11
120.0
 21
50.0
 31
0.0
  0
LINE
  8
0
  6
DASHED
 62
   249
 10
115.0
 20
58.600824
 30
0.0
 11
115.0
 21
95.0
 31
0.0
  0
LINE
  8
0
  6
CONTINUOUS
 62
   249
 10
115.0
 20
95.0
 30
0.0
 11
180.0
 21
95.0
 31
0.0
  0
TEXT
  8
0
  6
CONTINUOUS
 62
   249
 10
112.653774
 20
51.295971
 30
0.0
 40
2.0
  1
IRF
  7
ROMANS
  0
TEXT
  8
0
  6
CONTINUOUS
 62
   249
 10
50.379313
 20
1.235473
 30
0.0
 40
2.0
  1
SERIAL I/O AND IRF ADDITION TO UNITS U1,U2,U3  1993-06-22  KM / RITU Power
  7
ROMANS
  0
TEXT
  8
0
  6
DASHED
 62
   249
 10
153.974118
 20
35.0
 30
0.0
 40
2.0
  1
6) INTERNAL RELAY FAULT /
  7
ROMANS
  0
TEXT
  8
0
  6
DASHED
 62
   249
 10
159.395193
 20
31.666667
 30
0.0
 40
2.0
  1
INTERNT RELÄFEL
  7
ROMANS
  0
TEXT
  8
0
  6
DASHED
 62
   249
 10
153.974118
 20
25.833333
 30
0.0
 40
2.0
  1
7) BUS CONNECTION MODULE /
  7
ROMANS
  0
TEXT
  8
0
  6
DASHED
 62
   249
 10
159.395193
 20
22.5
 30
0.0
 40
2.0
  1
BUSSANSLUTNINGSMODUL
  7
ROMANS
  0
LINE
  8
0
  6
DASHED
 62
   249
 10
40.0
 20
50.0
 30
0.0
 11
27.5
 21
50.0
 31
0.0
  0
TEXT
  8
0
  6
CONTINUOUS
 62
   249
 10
17.993014
 20
51.339092
 30
0.0
 40
2.0
  1
6)
  7
ROMANS
  0
LINE
  8
0
  6
DASHED
 62
   249
 10
40.0
 20
55.0
 30
0.0
 11
27.5
 21
55.0
 31
0.0
  0
LINE
  8
0
  6
DASHED
 62
   249
 10
280.0
 20
82.5
 30
0.0
 11
280.0
 21
72.220903
 31
0.0
  0
TEXT
  8
0
  6
CONTINUOUS
 62
   249
 10
310.0
 20
210.0
 30
0.0
 40
2.0
  1
P/Q
  7
GREEKS
  0
TEXT
  8
0
  6
CONTINUOUS
 62
   249
 10
50.379313
 20
6.073325
 30
0.0
 40
2.0
  1
A CHANGE OF CONNECTION FOR THE VOLTAGE TRANSFORMER 1994-09-20 KM / AD-ELECT.
  7
ROMANS
  0
TEXT
  8
0
  6
DASHED
 62
   249
 10
354.190282
 20
15.793111
 30
0.0
 40
1.4
  1
LEHTI SHEET
  7
STAND
  0
LINE
  8
0
 62
   249
 10
0.236802
 20
0.237701
 30
0.0
 11
0.236802
 21
262.737701
 31
0.0
  0
LINE
  8
0
 62
   249
 10
392.236802
 20
262.737701
 30
0.0
 11
392.236802
 21
0.237701
 31
0.0
  0
LINE
  8
0
 62
   249
 10
0.236802
 20
0.237701
 30
0.0
 11
392.236802
 21
0.237701
 31
0.0
  0
TEXT
  8
0
 62
   249
 10
42.236802
 20
5.587211
 30
0.0
 40
2.5
  1
C
  7
ROMANS
  0
TEXT
  8
0
 62
   249
 10
42.236802
 20
1.194994
 30
0.0
 40
2.5
  1
B
  7
ROMANS
  0
TEXT
  8
0
 62
   249
 10
257.406709
 20
1.741485
 30
0.0
 40
3.0
  1
Power
 41
0.8
  7
ROMANS
  0
TEXT
  8
0
 62
   249
 10
273.236802
 20
7.237701
 30
0.0
 40
1.4
  1
VAST.OSASTO RESP.DEPT.
  7
ROMANS
  0
TEXT
  8
0
 62
   249
 10
210.236802
 20
32.237701
 30
0.0
 40
1.4
  1
TEKI  PREPARED
  7
ROMANS
  0
LINE
  8
0
 62
   249
 10
271.236802
 20
9.737701
 30
0.0
 11
271.236802
 21
0.237701
 31
0.0
  0
LINE
  8
0
 62
   249
 10
257.236802
 20
9.737701
 30
0.0
 11
257.236802
 21
35.237701
 31
0.0
  0
LINE
  8
0
 62
   249
 10
40.736802
 20
4.737701
 30
0.0
 11
209.236802
 21
4.737701
 31
0.0
  0
LINE
  8
0
 62
   249
 10
46.736802
 20
0.237701
 30
0.0
 11
46.736802
 21
9.237701
 31
0.0
  0
LINE
  8
0
 62
   249
 10
46.736802
 20
9.237701
 30
0.0
 11
209.236802
 21
9.237701
 31
0.0
  0
TEXT
  8
0
 62
   249
 10
27.736802
 20
2.471035
 30
0.0
 40
1.4
  1
REVISION
  7
ROMANS
  0
TEXT
  8
0
 62
   249
 10
27.736802
 20
4.737701
 30
0.0
 40
1.4
  1
MUUTOS
  7
ROMANS
  0
LINE
  8
0
 62
   249
 10
282.236802
 20
9.737701
 30
0.0
 11
282.236802
 21
18.237701
 31
0.0
  0
TEXT
  8
0
 62
   249
 10
237.736802
 20
1.737701
 30
0.0
 40
3.0
  1
Strömberg
 41
0.8
  7
ROMANS
  0
TEXT
  8
0
 62
   249
 10
229.736802
 20
1.737701
 30
0.0
 40
3.0
  1
ABB 
 41
0.8
  7
ROMANS
  0
LINE
  8
0
 62
   249
 10
223.136802
 20
1.737701
 30
0.0
 11
223.136802
 21
5.097701
 31
0.0
  0
LINE
  8
0
 62
   249
 10
223.136802
 20
8.737701
 30
0.0
 11
225.096802
 21
8.737701
 31
0.0
  0
LINE
  8
0
 62
   249
 10
225.096802
 20
8.737701
 30
0.0
 11
225.096802
 21
5.377701
 31
0.0
  0
LINE
  8
0
 62
   249
 10
225.096802
 20
5.377701
 30
0.0
 11
223.136802
 21
5.377701
 31
0.0
  0
LINE
  8
0
 62
   249
 10
223.136802
 20
5.097701
 30
0.0
 11
225.096802
 21
5.097701
 31
0.0
  0
LINE
  8
0
 62
   249
 10
225.096802
 20
5.097701
 30
0.0
 11
225.096802
 21
1.737701
 31
0.0
  0
LINE
  8
0
 62
   249
 10
225.096802
 20
1.737701
 30
0.0
 11
223.136802
 21
1.737701
 31
0.0
  0
LINE
  8
0
 62
   249
 10
223.136802
 20
5.377701
 30
0.0
 11
223.136802
 21
8.737701
 31
0.0
  0
ARC
  8
0
 62
   249
 10
225.936802
 20
7.162701
 30
0.0
 40
1.575
 50
298.455859
 51
90.052437
  0
LINE
  8
0
 62
   249
 10
225.376802
 20
8.737701
 30
0.0
 11
225.935361
 21
8.737701
 31
0.0
  0
LINE
  8
0
 62
   249
 10
225.376802
 20
8.737701
 30
0.0
 11
225.376802
 21
5.377701
 31
0.0
  0
LINE
  8
0
 62
   249
 10
225.376802
 20
5.377701
 30
0.0
 11
227.361245
 21
5.377701
 31
0.0
  0
LINE
  8
0
 62
   249
 10
227.616802
 20
5.097701
 30
0.0
 11
225.376802
 21
5.097701
 31
0.0
  0
LINE
  8
0
 62
   249
 10
225.376802
 20
5.097701
 30
0.0
 11
225.376802
 21
1.737701
 31
0.0
  0
ARC
  8
0
 62
   249
 10
225.936802
 20
3.837701
 30
0.0
 40
2.1
 50
269.937724
 51
37.056553
  0
LINE
  8
0
 62
   249
 10
225.376802
 20
1.737701
 30
0.0
 11
225.93452
 21
1.737703
 31
0.0
  0
ARC
  8
0
 62
   249
 10
225.936802
 20
3.837701
 30
0.0
 40
2.1
 50
47.28622
 51
68.787999
  0
INSERT
  8
0
 62
   249
  2
*X18
 10
215.646802
 20
1.737701
 30
0.0
 41
0.7
 42
0.7
 43
0.7
  0
INSERT
  8
0
 62
   249
  2
*X19
 10
215.646802
 20
1.737701
 30
0.0
 41
0.7
 42
0.7
 43
0.7
  0
INSERT
  8
0
 62
   249
  2
*X20
 10
215.646802
 20
1.737701
 30
0.0
 41
0.7
 42
0.7
 43
0.7
  0
INSERT
  8
0
 62
   249
  2
*X21
 10
215.646802
 20
1.737701
 30
0.0
 41
0.7
 42
0.7
 43
0.7
  0
INSERT
  8
0
 62
   249
  2
*X21
 10
210.186802
 20
1.737701
 30
0.0
 41
0.7
 42
0.7
 43
0.7
  0
INSERT
  8
0
 62
   249
  2
*X20
 10
210.186802
 20
1.737701
 30
0.0
 41
0.7
 42
0.7
 43
0.7
  0
INSERT
  8
0
 62
   249
  2
*X19
 10
210.186802
 20
1.737701
 30
0.0
 41
0.7
 42
0.7
 43
0.7
  0
INSERT
  8
0
 62
   249
  2
*X18
 10
210.186802
 20
1.737701
 30
0.0
 41
0.7
 42
0.7
 43
0.7
  0
ARC
  8
0
 62
   249
 10
220.476802
 20
3.837701
 30
0.0
 40
2.1
 50
47.28622
 51
68.787999
  0
LINE
  8
0
 62
   249
 10
219.916802
 20
1.737701
 30
0.0
 11
220.47452
 21
1.737703
 31
0.0
  0
ARC
  8
0
 62
   249
 10
220.476802
 20
3.837701
 30
0.0
 40
2.1
 50
269.937724
 51
37.056553
  0
LINE
  8
0
 62
   249
 10
219.916802
 20
5.097701
 30
0.0
 11
219.916802
 21
1.737701
 31
0.0
  0
LINE
  8
0
 62
   249
 10
222.156802
 20
5.097701
 30
0.0
 11
219.916802
 21
5.097701
 31
0.0
  0
LINE
  8
0
 62
   249
 10
219.916802
 20
5.377701
 30
0.0
 11
221.901245
 21
5.377701
 31
0.0
  0
LINE
  8
0
 62
   249
 10
219.916802
 20
8.737701
 30
0.0
 11
219.916802
 21
5.377701
 31
0.0
  0
LINE
  8
0
 62
   249
 10
219.916802
 20
8.737701
 30
0.0
 11
220.475361
 21
8.737701
 31
0.0
  0
ARC
  8
0
 62
   249
 10
220.476802
 20
7.162701
 30
0.0
 40
1.575
 50
298.455859
 51
90.052437
  0
LINE
  8
0
 62
   249
 10
217.676802
 20
5.377701
 30
0.0
 11
217.676802
 21
8.737701
 31
0.0
  0
LINE
  8
0
 62
   249
 10
219.636802
 20
1.737701
 30
0.0
 11
217.676802
 21
1.737701
 31
0.0
  0
LINE
  8
0
 62
   249
 10
219.636802
 20
5.097701
 30
0.0
 11
219.636802
 21
1.737701
 31
0.0
  0
LINE
  8
0
 62
   249
 10
217.676802
 20
5.097701
 30
0.0
 11
219.636802
 21
5.097701
 31
0.0
  0
LINE
  8
0
 62
   249
 10
219.636802
 20
5.377701
 30
0.0
 11
217.676802
 21
5.377701
 31
0.0
  0
LINE
  8
0
 62
   249
 10
219.636802
 20
8.737701
 30
0.0
 11
219.636802
 21
5.377701
 31
0.0
  0
LINE
  8
0
 62
   249
 10
217.676802
 20
8.737701
 30
0.0
 11
219.636802
 21
8.737701
 31
0.0
  0
LINE
  8
0
 62
   249
 10
217.676802
 20
1.737701
 30
0.0
 11
217.676802
 21
5.097701
 31
0.0
  0
INSERT
  8
0
 62
   249
  2
*X17
 10
210.186802
 20
1.737701
 30
0.0
 41
0.7
 42
0.7
 43
0.7
  0
INSERT
  8
0
 62
   249
  2
*X16
 10
210.186802
 20
1.737701
 30
0.0
 41
0.7
 42
0.7
 43
0.7
  0
INSERT
  8
0
 62
   249
  2
*X15
 10
210.186802
 20
1.737701
 30
0.0
 41
0.7
 42
0.7
 43
0.7
  0
INSERT
  8
0
 62
   249
  2
*X14
 10
210.186802
 20
1.737701
 30
0.0
 41
0.7
 42
0.7
 43
0.7
  0
LINE
  8
0
 62
   249
 10
211.356691
 20
5.08024
 30
0.0
 11
210.186802
 21
1.737701
 31
0.0
  0
LINE
  8
0
 62
   249
 10
213.546802
 20
5.097701
 30
0.0
 11
213.546802
 21
3.137701
 31
0.0
  0
LINE
  8
0
 62
   249
 10
213.826802
 20
5.097701
 30
0.0
 11
213.826802
 21
3.137701
 31
0.0
  0
LINE
  8
0
 62
   249
 10
213.826802
 20
5.097701
 30
0.0
 11
216.010059
 21
5.097701
 31
0.0
  0
LINE
  8
0
 62
   249
 10
213.826802
 20
5.377701
 30
0.0
 11
215.911916
 21
5.377701
 31
0.0
  0
LINE
  8
0
 62
   249
 10
216.011294
 20
5.096296
 30
0.0
 11
217.186802
 21
1.737701
 31
0.0
  0
LINE
  8
0
 62
   249
 10
211.359785
 20
5.097701
 30
0.0
 11
213.546802
 21
5.097701
 31
0.0
  0
LINE
  8
0
 62
   249
 10
211.458743
 20
5.377701
 30
0.0
 11
213.546802
 21
5.377701
 31
0.0
  0
LINE
  8
0
 62
   249
 10
213.546802
 20
8.737701
 30
0.0
 11
212.636802
 21
8.737701
 31
0.0
  0
LINE
  8
0
 62
   249
 10
213.826802
 20
3.137701
 30
0.0
 11
214.946696
 21
3.137701
 31
0.0
  0
LINE
  8
0
 62
   249
 10
213.826802
 20
8.737701
 30
0.0
 11
213.826802
 21
5.377701
 31
0.0
  0
LINE
  8
0
 62
   249
 10
213.546802
 20
8.737701
 30
0.0
 11
213.546802
 21
5.377701
 31
0.0
  0
LINE
  8
0
 62
   249
 10
214.736802
 20
8.737701
 30
0.0
 11
213.826802
 21
8.737701
 31
0.0
  0
LINE
  8
0
 62
   249
 10
214.9479
 20
3.134565
 30
0.0
 11
215.436802
 21
1.737701
 31
0.0
  0
LINE
  8
0
 62
   249
 10
214.736802
 20
8.737701
 30
0.0
 11
215.913155
 21
5.376693
 31
0.0
  0
LINE
  8
0
 62
   249
 10
212.425592
 20
3.134244
 30
0.0
 11
211.936802
 21
1.737701
 31
0.0
  0
LINE
  8
0
 62
   249
 10
212.425589
 20
3.137701
 30
0.0
 11
213.546802
 21
3.137701
 31
0.0
  0
LINE
  8
0
 62
   249
 10
212.636802
 20
8.737701
 30
0.0
 11
211.459274
 21
5.373336
 31
0.0
  0
LINE
  8
0
 62
   249
 10
215.436802
 20
1.737701
 30
0.0
 11
217.186802
 21
1.737701
 31
0.0
  0
LINE
  8
0
 62
   249
 10
210.186802
 20
1.737701
 30
0.0
 11
211.936802
 21
1.737701
 31
0.0
  0
LINE
  8
0
 62
   249
 10
369.736802
 20
9.737701
 30
0.0
 11
369.736802
 21
0.237701
 31
0.0
  0
TEXT
  8
0
 62
   249
 10
371.236802
 20
7.237701
 30
0.0
 40
1.4
  1
PAINOS  REVISION
  7
ROMANS
  0
LINE
  8
0
 62
   249
 10
349.736802
 20
9.737701
 30
0.0
 11
349.736802
 21
18.237701
 31
0.0
  0
TEXT
  8
0
 62
   249
 10
309.236802
 20
7.237701
 30
0.0
 40
1.4
  1
PIIRUSTUS NO  DRAWING NR
  7
ROMANS
  0
TEXT
  8
0
 62
   249
 10
309.236802
 20
15.737701
 30
0.0
 40
1.4
  1
KOODI  CODE
  7
ROMANS
  0
TEXT
  8
0
 62
   249
 10
309.236802
 20
32.737701
 30
0.0
 40
1.4
  1
NIMITYS  NAME
  7
ROMANS
  0
TEXT
  8
0
 62
   249
 10
259.236802
 20
15.737701
 30
0.0
 40
1.4
  1
SUHDE  SCALE
  7
ROMANS
  0
TEXT
  8
0
 62
   249
 10
259.236802
 20
23.737701
 30
0.0
 40
1.4
  1
TOLERANSSIT  TOLERANCES
  7
ROMANS
  0
TEXT
  8
0
 62
   249
 10
259.236802
 20
32.737701
 30
0.0
 40
1.4
  1
LIITTYY  CONCERNING
  7
ROMANS
  0
LINE
  8
0
 62
   249
 10
307.236802
 20
0.237701
 30
0.0
 11
307.236802
 21
35.237701
 31
0.0
  0
TEXT
  8
0
 62
   249
 10
209.979637
 20
15.704368
 30
0.0
 40
1.4
  1
HYVÄKSYI  APPROVED
  7
ROMANS
  0
TEXT
  8
0
 62
   249
 10
210.236802
 20
23.971035
 30
0.0
 40
1.4
  1
TARKASTI  CHECKED
  7
ROMANS
  0
LINE
  8
0
 62
   249
 10
209.236802
 20
35.237701
 30
0.0
 11
392.236802
 21
35.237701
 31
0.0
  0
LINE
  8
0
 62
   249
 10
209.236802
 20
26.737701
 30
0.0
 11
307.236802
 21
26.737701
 31
0.0
  0
LINE
  8
0
 62
   249
 10
209.236802
 20
9.737701
 30
0.0
 11
392.236802
 21
9.737701
 31
0.0
  0
LINE
  8
0
 62
   249
 10
209.236802
 20
18.237701
 30
0.0
 11
392.236802
 21
18.237701
 31
0.0
  0
LINE
  8
0
 62
   249
 10
392.236802
 20
0.237701
 30
0.0
 11
392.236802
 21
35.237701
 31
0.0
  0
LINE
  8
0
 62
   249
 10
209.236802
 20
0.237701
 30
0.0
 11
209.236802
 21
35.237701
 31
0.0
  0
LINE
  8
0
 62
   249
 10
209.236802
 20
0.237701
 30
0.0
 11
392.236802
 21
0.237701
 31
0.0
  0
LINE
  8
0
 62
   249
 10
18.236802
 20
0.237701
 30
0.0
 11
0.236802
 21
0.237701
 31
0.0
  0
LINE
  8
0
 62
   249
 10
0.236802
 20
262.737701
 30
0.0
 11
392.236802
 21
262.737701
 31
0.0
  0
TEXT
  8
0
  6
DASHED
 62
   249
 10
292.216898
 20
11.813061
 30
0.0
 40
3.0
  1
A3
  7
GREEKS
  0
ARC
  8
0
  6
CONTINUOUS
 62
   249
 10
60.0
 20
131.108096
 30
0.0
 40
0.5
 50
180.0
 51
0.0
  0
ARC
  8
0
  6
CONTINUOUS
 62
   249
 10
60.0
 20
131.108096
 30
0.0
 40
0.5
 50
0.0
 51
180.0
  0
INSERT
  8
0
  6
CONTINUOUS
 62
   249
  2
BLC29
 10
174.494594
 20
94.871524
 30
0.0
 50
180.0
  0
LINE
  8
0
  6
CONTINUOUS
 62
   249
 10
173.924362
 20
117.662693
 30
0.0
 11
171.578597
 21
118.998046
 31
0.0
  0
LINE
  8
0
  6
CONTINUOUS
 62
   249
 10
171.578597
 20
118.998046
 30
0.0
 11
173.924362
 21
120.187966
 31
0.0
  0
LINE
  8
0
  6
CONTINUOUS
 62
   249
 10
173.924362
 20
127.552107
 30
0.0
 11
171.578597
 21
128.88746
 31
0.0
  0
LINE
  8
0
  6
CONTINUOUS
 62
   249
 10
171.578597
 20
128.88746
 30
0.0
 11
173.924362
 21
130.07738
 31
0.0
  0
LINE
  8
0
  6
CONTINUOUS
 62
   249
 10
173.924362
 20
123.664635
 30
0.0
 11
171.578597
 21
124.999989
 31
0.0
  0
LINE
  8
0
  6
CONTINUOUS
 62
   249
 10
171.578597
 20
124.999989
 30
0.0
 11
173.924362
 21
126.189908
 31
0.0
  0
TEXT
  8
0
  6
CONTINUOUS
 62
   249
 10
26.844763
 20
206.50558
 30
0.0
 40
2.0
  1
-
  0
TEXT
  8
0
  6
CONTINUOUS
 62
   249
 10
26.853328
 20
211.513635
 30
0.0
 40
2.0
  1
+
  0
ARC
  8
0
  6
CONTINUOUS
 62
   249
 10
75.0
 20
162.5
 30
0.0
 40
0.5
 50
180.0
 51
0.0
  0
ARC
  8
0
  6
CONTINUOUS
 62
   249
 10
75.0
 20
162.5
 30
0.0
 40
0.5
 50
0.0
 51
180.0
  0
LINE
  8
0
  6
CONTINUOUS
 62
   249
 10
173.924362
 20
136.164635
 30
0.0
 11
171.578597
 21
137.499989
 31
0.0
  0
LINE
  8
0
  6
CONTINUOUS
 62
   249
 10
171.578597
 20
137.499989
 30
0.0
 11
173.924362
 21
138.689908
 31
0.0
  0
LINE
  8
0
  6
CONTINUOUS
 62
   249
 10
173.924362
 20
191.164635
 30
0.0
 11
171.578597
 21
192.499989
 31
0.0
  0
LINE
  8
0
  6
CONTINUOUS
 62
   249
 10
171.578597
 20
192.499989
 30
0.0
 11
173.924362
 21
193.689908
 31
0.0
  0
LINE
  8
0
  6
CONTINUOUS
 62
   249
 10
173.924362
 20
184.833016
 30
0.0
 11
171.578597
 21
186.16837
 31
0.0
  0
LINE
  8
0
  6
CONTINUOUS
 62
   249
 10
171.578597
 20
186.16837
 30
0.0
 11
173.924362
 21
187.358289
 31
0.0
  0
LINE
  8
0
  6
CONTINUOUS
 62
   249
 10
173.924362
 20
195.831255
 30
0.0
 11
171.578597
 21
197.166609
 31
0.0
  0
LINE
  8
0
  6
CONTINUOUS
 62
   249
 10
171.578597
 20
197.166609
 30
0.0
 11
173.924362
 21
198.356528
 31
0.0
  0
ARC
  8
0
  6
CONTINUOUS
 62
   249
 10
170.0
 20
200.0
 30
0.0
 40
0.5
 50
180.0
 51
0.0
  0
ARC
  8
0
  6
CONTINUOUS
 62
   249
 10
170.0
 20
200.0
 30
0.0
 40
0.5
 50
0.0
 51
180.0
  0
LINE
  8
0
  6
CONTINUOUS
 62
   249
 10
173.924362
 20
203.664635
 30
0.0
 11
171.578597
 21
204.999989
 31
0.0
  0
LINE
  8
0
  6
CONTINUOUS
 62
   249
 10
171.578597
 20
204.999989
 30
0.0
 11
173.924362
 21
206.189908
 31
0.0
  0
INSERT
  8
0
  6
CENTER
 62
   249
  2
BLC26
 10
311.046562
 20
132.609534
 30
0.0
 41
1.006225
 42
1.006225
 43
1.006225
  0
LINE
  8
0
  6
CONTINUOUS
 62
   249
 10
319.009978
 20
130.18998
 30
0.0
 11
321.655635
 21
130.18998
 31
0.0
  0
LINE
  8
0
  6
CONTINUOUS
 62
   249
 10
323.437188
 20
129.586285
 30
0.0
 11
323.437188
 21
130.793675
 31
0.0
  0
LINE
  8
0
  6
CONTINUOUS
 62
   249
 10
322.549675
 20
129.153787
 30
0.0
 11
322.549675
 21
131.217163
 31
0.0
  0
LINE
  8
0
  6
CONTINUOUS
 62
   249
 10
321.655635
 20
128.658217
 30
0.0
 11
321.655635
 21
131.721743
 31
0.0
  0
INSERT
  8
0
  6
CENTER
 62
   249
  2
BLC26
 10
296.046562
 20
132.609534
 30
0.0
 41
1.006225
 42
1.006225
 43
1.006225
  0
INSERT
  8
0
  6
CENTER
 62
   249
  2
BLC26
 10
303.546562
 20
132.609534
 30
0.0
 41
1.006225
 42
1.006225
 43
1.006225
  0
LINE
  8
0
  6
CONTINUOUS
 62
   249
 10
231.989729
 20
48.664635
 30
0.0
 11
229.643963
 21
49.999989
 31
0.0
  0
LINE
  8
0
  6
CONTINUOUS
 62
   249
 10
229.643963
 20
49.999989
 30
0.0
 11
231.989729
 21
51.189908
 31
0.0
  0
LINE
  8
0
  6
CONTINUOUS
 62
   249
 10
261.819436
 20
50.49
 30
0.0
 11
261.819436
 21
49.51
 31
0.0
  0
LINE
  8
0
  6
CONTINUOUS
 62
   249
 10
261.819436
 20
49.51
 30
0.0
 11
265.249436
 21
49.51
 31
0.0
  0
LINE
  8
0
  6
CONTINUOUS
 62
   249
 10
265.249436
 20
49.51
 30
0.0
 11
265.249436
 21
50.49
 31
0.0
  0
LINE
  8
0
  6
CONTINUOUS
 62
   249
 10
265.249436
 20
50.49
 30
0.0
 11
261.819436
 21
50.49
 31
0.0
  0
POLYLINE
  8
0
  6
CONTINUOUS
 62
   249
 66
     1
 10
0.0
 20
0.0
 30
0.0
 70
    16
 71
     2
 72
   251
  0
VERTEX
  8
0
  6
CONTINUOUS
 62
   249
 10
261.819436
 20
49.51
 30
0.0
 70
    64
  0
VERTEX
  8
0
  6
CONTINUOUS
 62
   249
 10
261.833156
 20
49.51
 30
0.0
 70
    64
  0
VERTEX
  8
0
  6
CONTINUOUS
 62
   249
 10
261.846876
 20
49.51
 30
0.0
 70
    64
  0
VERTEX
  8
0
  6
CONTINUOUS
 62
   249
 10
261.860596
 20
49.51
 30
0.0
 70
    64
  0
VERTEX
  8
0
  6
CONTINUOUS
 62
   249
 10
261.874316
 20
49.51
 30
0.0
 70
    64
  0
VERTEX
  8
0
  6
CONTINUOUS
 62
   249
 10
261.888036
 20
49.51
 30
0.0
 70
    64
  0
VERTEX
  8
0
  6
CONTINUOUS
 62
   249
 10
261.901756
 20
49.51
 30
0.0
 70
    64
  0
VERTEX
  8
0
  6
CONTINUOUS
 62
   249
 10
261.915476
 20
49.51
 30
0.0
 70
    64
  0
VERTEX
  8
0
  6
CONTINUOUS
 62
   249
 10
261.929196
 20
49.51
 30
0.0
 70
    64
  0
VERTEX
  8
0
  6
CONTINUOUS
 62
   249
 10
261.942916
 20
49.51
 30
0.0
 70
    64
  0
VERTEX
  8
0
  6
CONTINUOUS
 62
   249
 10
261.956636
 20
49.51
 30
0.0
 70
    64
  0
VERTEX
  8
0
  6
CONTINUOUS
 62
   249
 10
261.970356
 20
49.51
 30
0.0
 70
    64
  0
VERTEX
  8
0
  6
CONTINUOUS
 62
   249
 10
261.984076
 20
49.51
 30
0.0
 70
    64
  0
VERTEX
  8
0
  6
CONTINUOUS
 62
   249
 10
261.997796
 20
49.51
 30
0.0
 70
    64
  0
VERTEX
  8
0
  6
CONTINUOUS
 62
   249
 10
262.011516
 20
49.51
 30
0.0
 70
    64
  0
VERTEX
  8
0
  6
CONTINUOUS
 62
   249
 10
262.025236
 20
49.51
 30
0.0
 70
    64
  0
VERTEX
  8
0
  6
CONTINUOUS
 62
   249
 10
262.038956
 20
49.51
 30
0.0
 70
    64
  0
VERTEX
  8
0
  6
CONTINUOUS
 62
   249
 10
262.052676
 20
49.51
 30
0.0
 70
    64
  0
VERTEX
  8
0
  6
CONTINUOUS
 62
   249
 10
262.066396
 20
49.51
 30
0.0
 70
    64
  0
VERTEX
  8
0
  6
CONTINUOUS
 62
   249
 10
262.080116
 20
49.51
 30
0.0
 70
    64
  0
VERTEX
  8
0
  6
CONTINUOUS
 62
   249
 10
262.093836
 20
49.51
 30
0.0
 70
    64
  0
VERTEX
  8
0
  6
CONTINUOUS
 62
   249
 10
262.107556
 20
49.51
 30
0.0
 70
    64
  0
VERTEX
  8
0
  6
CONTINUOUS
 62
   249
 10
262.121276
 20
49.51
 30
0.0
 70
    64
  0
VERTEX
  8
0
  6
CONTINUOUS
 62
   249
 10
262.134996
 20
49.51
 30
0.0
 70
    64
  0
VERTEX
  8
0
  6
CONTINUOUS
 62
   249
 10
262.148716
 20
49.51
 30
0.0
 70
    64
  0
VERTEX
  8
0
  6
CONTINUOUS
 62
   249
 10
262.162436
 20
49.51
 30
0.0
 70
    64
  0
VERTEX
  8
0
  6
CONTINUOUS
 62
   249
 10
262.176156
 20
49.51
 30
0.0
 70
    64
  0
VERTEX
  8
0
  6
CONTINUOUS
 62
   249
 10
262.189876
 20
49.51
 30
0.0
 70
    64
  0
VERTEX
  8
0
  6
CONTINUOUS
 62
   249
 10
262.203596
 20
49.51
 30
0.0
 70
    64
  0
VERTEX
  8
0
  6
CONTINUOUS
 62
   249
 10
262.217316
 20
49.51
 30
0.0
 70
    64
  0
VERTEX
  8
0
  6
CONTINUOUS
 62
   249
 10
262.231036
 20
49.51
 30
0.0
 70
    64
  0
VERTEX
  8
0
  6
CONTINUOUS
 62
   249
 10
262.244756
 20
49.51
 30
0.0
 70
    64
  0
VERTEX
  8
0
  6
CONTINUOUS
 62
   249
 10
262.258476
 20
49.51
 30
0.0
 70
    64
  0
VERTEX
  8
0
  6
CONTINUOUS
 62
   249
 10
262.272196
 20
49.51
 30
0.0
 70
    64
  0
VERTEX
  8
0
  6
CONTINUOUS
 62
   249
 10
262.285916
 20
49.51
 30
0.0
 70
    64
  0
VERTEX
  8
0
  6
CONTINUOUS
 62
   249
 10
262.299636
 20
49.51
 30
0.0
 70
    64
  0
VERTEX
  8
0
  6
CONTINUOUS
 62
   249
 10
262.313356
 20
49.51
 30
0.0
 70
    64
  0
VERTEX
  8
0
  6
CONTINUOUS
 62
   249
 10
262.327076
 20
49.51
 30
0.0
 70
    64
  0
VERTEX
  8
0
  6
CONTINUOUS
 62
   249
 10
262.340796
 20
49.51
 30
0.0
 70
    64
  0
VERTEX
  8
0
  6
CONTINUOUS
 62
   249
 10
262.354516
 20
49.51
 30
0.0
 70
    64
  0
VERTEX
  8
0
  6
CONTINUOUS
 62
   249
 10
262.368236
 20
49.51
 30
0.0
 70
    64
  0
VERTEX
  8
0
  6
CONTINUOUS
 62
   249
 10
262.381956
 20
49.51
 30
0.0
 70
    64
  0
VERTEX
  8
0
  6
CONTINUOUS
 62
   249
 10
262.395676
 20
49.51
 30
0.0
 70
    64
  0
VERTEX
  8
0
  6
CONTINUOUS
 62
   249
 10
262.409396
 20
49.51
 30
0.0
 70
    64
  0
VERTEX
  8
0
  6
CONTINUOUS
 62
   249
 10
262.423116
 20
49.51
 30
0.0
 70
    64
  0
VERTEX
  8
0
  6
CONTINUOUS
 62
   249
 10
262.436836
 20
49.51
 30
0.0
 70
    64
  0
VERTEX
  8
0
  6
CONTINUOUS
 62
   249
 10
262.450556
 20
49.51
 30
0.0
 70
    64
  0
VERTEX
  8
0
  6
CONTINUOUS
 62
   249
 10
262.464276
 20
49.51
 30
0.0
 70
    64
  0
VERTEX
  8
0
  6
CONTINUOUS
 62
   249
 10
262.477996
 20
49.51
 30
0.0
 70
    64
  0
VERTEX
  8
0
  6
CONTINUOUS
 62
   249
 10
262.491716
 20
49.51
 30
0.0
 70
    64
  0
VERTEX
  8
0
  6
CONTINUOUS
 62
   249
 10
262.505436
 20
49.51
 30
0.0
 70
    64
  0
VERTEX
  8
0
  6
CONTINUOUS
 62
   249
 10
262.519156
 20
49.51
 30
0.0
 70
    64
  0
VERTEX
  8
0
  6
CONTINUOUS
 62
   249
 10
262.532876
 20
49.51
 30
0.0
 70
    64
  0
VERTEX
  8
0
  6
CONTINUOUS
 62
   249
 10
262.546596
 20
49.51
 30
0.0
 70
    64
  0
VERTEX
  8
0
  6
CONTINUOUS
 62
   249
 10
262.560316
 20
49.51
 30
0.0
 70
    64
  0
VERTEX
  8
0
  6
CONTINUOUS
 62
   249
 10
262.574036
 20
49.51
 30
0.0
 70
    64
  0
VERTEX
  8
0
  6
CONTINUOUS
 62
   249
 10
262.587756
 20
49.51
 30
0.0
 70
    64
  0
VERTEX
  8
0
  6
CONTINUOUS
 62
   249
 10
262.601476
 20
49.51
 30
0.0
 70
    64
  0
VERTEX
  8
0
  6
CONTINUOUS
 62
   249
 10
262.615196
 20
49.51
 30
0.0
 70
    64
  0
VERTEX
  8
0
  6
CONTINUOUS
 62
   249
 10
262.628916
 20
49.51
 30
0.0
 70
    64
  0
VERTEX
  8
0
  6
CONTINUOUS
 62
   249
 10
262.642636
 20
49.51
 30
0.0
 70
    64
  0
VERTEX
  8
0
  6
CONTINUOUS
 62
   249
 10
262.656356
 20
49.51
 30
0.0
 70
    64
  0
VERTEX
  8
0
  6
CONTINUOUS
 62
   249
 10
262.670076
 20
49.51
 30
0.0
 70
    64
  0
VERTEX
  8
0
  6
CONTINUOUS
 62
   249
 10
262.683796
 20
49.51
 30
0.0
 70
    64
  0
VERTEX
  8
0
  6
CONTINUOUS
 62
   249
 10
262.697516
 20
49.51
 30
0.0
 70
    64
  0
VERTEX
  8
0
  6
CONTINUOUS
 62
   249
 10
262.711236
 20
49.51
 30
0.0
 70
    64
  0
VERTEX
  8
0
  6
CONTINUOUS
 62
   249
 10
262.724956
 20
49.51
 30
0.0
 70
    64
  0
VERTEX
  8
0
  6
CONTINUOUS
 62
   249
 10
262.738676
 20
49.51
 30
0.0
 70
    64
  0
VERTEX
  8
0
  6
CONTINUOUS
 62
   249
 10
262.752396
 20
49.51
 30
0.0
 70
    64
  0
VERTEX
  8
0
  6
CONTINUOUS
 62
   249
 10
262.766116
 20
49.51
 30
0.0
 70
    64
  0
VERTEX
  8
0
  6
CONTINUOUS
 62
   249
 10
262.779836
 20
49.51
 30
0.0
 70
    64
  0
VERTEX
  8
0
  6
CONTINUOUS
 62
   249
 10
262.793556
 20
49.51
 30
0.0
 70
    64
  0
VERTEX
  8
0
  6
CONTINUOUS
 62
   249
 10
262.807276
 20
49.51
 30
0.0
 70
    64
  0
VERTEX
  8
0
  6
CONTINUOUS
 62
   249
 10
262.820996
 20
49.51
 30
0.0
 70
    64
  0
VERTEX
  8
0
  6
CONTINUOUS
 62
   249
 10
262.834716
 20
49.51
 30
0.0
 70
    64
  0
VERTEX
  8
0
  6
CONTINUOUS
 62
   249
 10
262.848436
 20
49.51
 30
0.0
 70
    64
  0
VERTEX
  8
0
  6
CONTINUOUS
 62
   249
 10
262.862156
 20
49.51
 30
0.0
 70
    64
  0
VERTEX
  8
0
  6
CONTINUOUS
 62
   249
 10
262.875876
 20
49.51
 30
0.0
 70
    64
  0
VERTEX
  8
0
  6
CONTINUOUS
 62
   249
 10
262.889596
 20
49.51
 30
0.0
 70
    64
  0
VERTEX
  8
0
  6
CONTINUOUS
 62
   249
 10
262.903316
 20
49.51
 30
0.0
 70
    64
  0
VERTEX
  8
0
  6
CONTINUOUS
 62
   249
 10
262.917036
 20
49.51
 30
0.0
 70
    64
  0
VERTEX
  8
0
  6
CONTINUOUS
 62
   249
 10
262.930756
 20
49.51
 30
0.0
 70
    64
  0
VERTEX
  8
0
  6
CONTINUOUS
 62
   249
 10
262.944476
 20
49.51
 30
0.0
 70
    64
  0
VERTEX
  8
0
  6
CONTINUOUS
 62
   249
 10
262.958196
 20
49.51
 30
0.0
 70
    64
  0
VERTEX
  8
0
  6
CONTINUOUS
 62
   249
 10
262.971916
 20
49.51
 30
0.0
 70
    64
  0
VERTEX
  8
0
  6
CONTINUOUS
 62
   249
 10
262.985636
 20
49.51
 30
0.0
 70
    64
  0
VERTEX
  8
0
  6
CONTINUOUS
 62
   249
 10
262.999356
 20
49.51
 30
0.0
 70
    64
  0
VERTEX
  8
0
  6
CONTINUOUS
 62
   249
 10
263.013076
 20
49.51
 30
0.0
 70
    64
  0
VERTEX
  8
0
  6
CONTINUOUS
 62
   249
 10
263.026796
 20
49.51
 30
0.0
 70
    64
  0
VERTEX
  8
0
  6
CONTINUOUS
 62
   249
 10
263.040516
 20
49.51
 30
0.0
 70
    64
  0
VERTEX
  8
0
  6
CONTINUOUS
 62
   249
 10
263.054236
 20
49.51
 30
0.0
 70
    64
  0
VERTEX
  8
0
  6
CONTINUOUS
 62
   249
 10
263.067956
 20
49.51
 30
0.0
 70
    64
  0
VERTEX
  8
0
  6
CONTINUOUS
 62
   249
 10
263.081676
 20
49.51
 30
0.0
 70
    64
  0
VERTEX
  8
0
  6
CONTINUOUS
 62
   249
 10
263.095396
 20
49.51
 30
0.0
 70
    64
  0
VERTEX
  8
0
  6
CONTINUOUS
 62
   249
 10
263.109116
 20
49.51
 30
0.0
 70
    64
  0
VERTEX
  8
0
  6
CONTINUOUS
 62
   249
 10
263.122836
 20
49.51
 30
0.0
 70
    64
  0
VERTEX
  8
0
  6
CONTINUOUS
 62
   249
 10
263.136556
 20
49.51
 30
0.0
 70
    64
  0
VERTEX
  8
0
  6
CONTINUOUS
 62
   249
 10
263.150276
 20
49.51
 30
0.0
 70
    64
  0
VERTEX
  8
0
  6
CONTINUOUS
 62
   249
 10
263.163996
 20
49.51
 30
0.0
 70
    64
  0
VERTEX
  8
0
  6
CONTINUOUS
 62
   249
 10
263.177716
 20
49.51
 30
0.0
 70
    64
  0
VERTEX
  8
0
  6
CONTINUOUS
 62
   249
 10
263.191436
 20
49.51
 30
0.0
 70
    64
  0
VERTEX
  8
0
  6
CONTINUOUS
 62
   249
 10
263.205156
 20
49.51
 30
0.0
 70
    64
  0
VERTEX
  8
0
  6
CONTINUOUS
 62
   249
 10
263.218876
 20
49.51
 30
0.0
 70
    64
  0
VERTEX
  8
0
  6
CONTINUOUS
 62
   249
 10
263.232596
 20
49.51
 30
0.0
 70
    64
  0
VERTEX
  8
0
  6
CONTINUOUS
 62
   249
 10
263.246316
 20
49.51
 30
0.0
 70
    64
  0
VERTEX
  8
0
  6
CONTINUOUS
 62
   249
 10
263.260036
 20
49.51
 30
0.0
 70
    64
  0
VERTEX
  8
0
  6
CONTINUOUS
 62
   249
 10
263.273756
 20
49.51
 30
0.0
 70
    64
  0
VERTEX
  8
0
  6
CONTINUOUS
 62
   249
 10
263.287476
 20
49.51
 30
0.0
 70
    64
  0
VERTEX
  8
0
  6
CONTINUOUS
 62
   249
 10
263.301196
 20
49.51
 30
0.0
 70
    64
  0
VERTEX
  8
0
  6
CONTINUOUS
 62
   249
 10
263.314916
 20
49.51
 30
0.0
 70
    64
  0
VERTEX
  8
0
  6
CONTINUOUS
 62
   249
 10
263.328636
 20
49.51
 30
0.0
 70
    64
  0
VERTEX
  8
0
  6
CONTINUOUS
 62
   249
 10
263.342356
 20
49.51
 30
0.0
 70
    64
  0
VERTEX
  8
0
  6
CONTINUOUS
 62
   249
 10
263.356076
 20
49.51
 30
0.0
 70
    64
  0
VERTEX
  8
0
  6
CONTINUOUS
 62
   249
 10
263.369796
 20
49.51
 30
0.0
 70
    64
  0
VERTEX
  8
0
  6
CONTINUOUS
 62
   249
 10
263.383516
 20
49.51
 30
0.0
 70
    64
  0
VERTEX
  8
0
  6
CONTINUOUS
 62
   249
 10
263.397236
 20
49.51
 30
0.0
 70
    64
  0
VERTEX
  8
0
  6
CONTINUOUS
 62
   249
 10
263.410956
 20
49.51
 30
0.0
 70
    64
  0
VERTEX
  8
0
  6
CONTINUOUS
 62
   249
 10
263.424676
 20
49.51
 30
0.0
 70
    64
  0
VERTEX
  8
0
  6
CONTINUOUS
 62
   249
 10
263.438396
 20
49.51
 30
0.0
 70
    64
  0
VERTEX
  8
0
  6
CONTINUOUS
 62
   249
 10
263.452116
 20
49.51
 30
0.0
 70
    64
  0
VERTEX
  8
0
  6
CONTINUOUS
 62
   249
 10
263.465836
 20
49.51
 30
0.0
 70
    64
  0
VERTEX
  8
0
  6
CONTINUOUS
 62
   249
 10
263.479556
 20
49.51
 30
0.0
 70
    64
  0
VERTEX
  8
0
  6
CONTINUOUS
 62
   249
 10
263.493276
 20
49.51
 30
0.0
 70
    64
  0
VERTEX
  8
0
  6
CONTINUOUS
 62
   249
 10
263.506996
 20
49.51
 30
0.0
 70
    64
  0
VERTEX
  8
0
  6
CONTINUOUS
 62
   249
 10
263.520716
 20
49.51
 30
0.0
 70
    64
  0
VERTEX
  8
0
  6
CONTINUOUS
 62
   249
 10
263.534436
 20
49.51
 30
0.0
 70
    64
  0
VERTEX
  8
0
  6
CONTINUOUS
 62
   249
 10
263.548156
 20
49.51
 30
0.0
 70
    64
  0
VERTEX
  8
0
  6
CONTINUOUS
 62
   249
 10
263.561876
 20
49.51
 30
0.0
 70
    64
  0
VERTEX
  8
0
  6
CONTINUOUS
 62
   249
 10
263.575596
 20
49.51
 30
0.0
 70
    64
  0
VERTEX
  8
0
  6
CONTINUOUS
 62
   249
 10
263.589316
 20
49.51
 30
0.0
 70
    64
  0
VERTEX
  8
0
  6
CONTINUOUS
 62
   249
 10
263.603036
 20
49.51
 30
0.0
 70
    64
  0
VERTEX
  8
0
  6
CONTINUOUS
 62
   249
 10
263.616756
 20
49.51
 30
0.0
 70
    64
  0
VERTEX
  8
0
  6
CONTINUOUS
 62
   249
 10
263.630476
 20
49.51
 30
0.0
 70
    64
  0
VERTEX
  8
0
  6
CONTINUOUS
 62
   249
 10
263.644196
 20
49.51
 30
0.0
 70
    64
  0
VERTEX
  8
0
  6
CONTINUOUS
 62
   249
 10
263.657916
 20
49.51
 30
0.0
 70
    64
  0
VERTEX
  8
0
  6
CONTINUOUS
 62
   249
 10
263.671636
 20
49.51
 30
0.0
 70
    64
  0
VERTEX
  8
0
  6
CONTINUOUS
 62
   249
 10
263.685356
 20
49.51
 30
0.0
 70
    64
  0
VERTEX
  8
0
  6
CONTINUOUS
 62
   249
 10
263.699076
 20
49.51
 30
0.0
 70
    64
  0
VERTEX
  8
0
  6
CONTINUOUS
 62
   249
 10
263.712796
 20
49.51
 30
0.0
 70
    64
  0
VERTEX
  8
0
  6
CONTINUOUS
 62
   249
 10
263.726516
 20
49.51
 30
0.0
 70
    64
  0
VERTEX
  8
0
  6
CONTINUOUS
 62
   249
 10
263.740236
 20
49.51
 30
0.0
 70
    64
  0
VERTEX
  8
0
  6
CONTINUOUS
 62
   249
 10
263.753956
 20
49.51
 30
0.0
 70
    64
  0
VERTEX
  8
0
  6
CONTINUOUS
 62
   249
 10
263.767676
 20
49.51
 30
0.0
 70
    64
  0
VERTEX
  8
0
  6
CONTINUOUS
 62
   249
 10
263.781396
 20
49.51
 30
0.0
 70
    64
  0
VERTEX
  8
0
  6
CONTINUOUS
 62
   249
 10
263.795116
 20
49.51
 30
0.0
 70
    64
  0
VERTEX
  8
0
  6
CONTINUOUS
 62
   249
 10
263.808836
 20
49.51
 30
0.0
 70
    64
  0
VERTEX
  8
0
  6
CONTINUOUS
 62
   249
 10
263.822556
 20
49.51
 30
0.0
 70
    64
  0
VERTEX
  8
0
  6
CONTINUOUS
 62
   249
 10
263.836276
 20
49.51
 30
0.0
 70
    64
  0
VERTEX
  8
0
  6
CONTINUOUS
 62
   249
 10
263.849996
 20
49.51
 30
0.0
 70
    64
  0
VERTEX
  8
0
  6
CONTINUOUS
 62
   249
 10
263.863716
 20
49.51
 30
0.0
 70
    64
  0
VERTEX
  8
0
  6
CONTINUOUS
 62
   249
 10
263.877436
 20
49.51
 30
0.0
 70
    64
  0
VERTEX
  8
0
  6
CONTINUOUS
 62
   249
 10
263.891156
 20
49.51
 30
0.0
 70
    64
  0
VERTEX
  8
0
  6
CONTINUOUS
 62
   249
 10
263.904876
 20
49.51
 30
0.0
 70
    64
  0
VERTEX
  8
0
  6
CONTINUOUS
 62
   249
 10
263.918596
 20
49.51
 30
0.0
 70
    64
  0
VERTEX
  8
0
  6
CONTINUOUS
 62
   249
 10
263.932316
 20
49.51
 30
0.0
 70
    64
  0
VERTEX
  8
0
  6
CONTINUOUS
 62
   249
 10
263.946036
 20
49.51
 30
0.0
 70
    64
  0
VERTEX
  8
0
  6
CONTINUOUS
 62
   249
 10
263.959756
 20
49.51
 30
0.0
 70
    64
  0
VERTEX
  8
0
  6
CONTINUOUS
 62
   249
 10
263.973476
 20
49.51
 30
0.0
 70
    64
  0
VERTEX
  8
0
  6
CONTINUOUS
 62
   249
 10
263.987196
 20
49.51
 30
0.0
 70
    64
  0
VERTEX
  8
0
  6
CONTINUOUS
 62
   249
 10
264.000916
 20
49.51
 30
0.0
 70
    64
  0
VERTEX
  8
0
  6
CONTINUOUS
 62
   249
 10
264.014636
 20
49.51
 30
0.0
 70
    64
  0
VERTEX
  8
0
  6
CONTINUOUS
 62
   249
 10
264.028356
 20
49.51
 30
0.0
 70
    64
  0
VERTEX
  8
0
  6
CONTINUOUS
 62
   249
 10
264.042076
 20
49.51
 30
0.0
 70
    64
  0
VERTEX
  8
0
  6
CONTINUOUS
 62
   249
 10
264.055796
 20
49.51
 30
0.0
 70
    64
  0
VERTEX
  8
0
  6
CONTINUOUS
 62
   249
 10
264.069516
 20
49.51
 30
0.0
 70
    64
  0
VERTEX
  8
0
  6
CONTINUOUS
 62
   249
 10
264.083236
 20
49.51
 30
0.0
 70
    64
  0
VERTEX
  8
0
  6
CONTINUOUS
 62
   249
 10
264.096956
 20
49.51
 30
0.0
 70
    64
  0
VERTEX
  8
0
  6
CONTINUOUS
 62
   249
 10
264.110676
 20
49.51
 30
0.0
 70
    64
  0
VERTEX
  8
0
  6
CONTINUOUS
 62
   249
 10
264.124396
 20
49.51
 30
0.0
 70
    64
  0
VERTEX
  8
0
  6
CONTINUOUS
 62
   249
 10
264.138116
 20
49.51
 30
0.0
 70
    64
  0
VERTEX
  8
0
  6
CONTINUOUS
 62
   249
 10
264.151836
 20
49.51
 30
0.0
 70
    64
  0
VERTEX
  8
0
  6
CONTINUOUS
 62
   249
 10
264.165556
 20
49.51
 30
0.0
 70
    64
  0
VERTEX
  8
0
  6
CONTINUOUS
 62
   249
 10
264.179276
 20
49.51
 30
0.0
 70
    64
  0
VERTEX
  8
0
  6
CONTINUOUS
 62
   249
 10
264.192996
 20
49.51
 30
0.0
 70
    64
  0
VERTEX
  8
0
  6
CONTINUOUS
 62
   249
 10
264.206716
 20
49.51
 30
0.0
 70
    64
  0
VERTEX
  8
0
  6
CONTINUOUS
 62
   249
 10
264.220436
 20
49.51
 30
0.0
 70
    64
  0
VERTEX
  8
0
  6
CONTINUOUS
 62
   249
 10
264.234156
 20
49.51
 30
0.0
 70
    64
  0
VERTEX
  8
0
  6
CONTINUOUS
 62
   249
 10
264.247876
 20
49.51
 30
0.0
 70
    64
  0
VERTEX
  8
0
  6
CONTINUOUS
 62
   249
 10
264.261596
 20
49.51
 30
0.0
 70
    64
  0
VERTEX
  8
0
  6
CONTINUOUS
 62
   249
 10
264.275316
 20
49.51
 30
0.0
 70
    64
  0
VERTEX
  8
0
  6
CONTINUOUS
 62
   249
 10
264.289036
 20
49.51
 30
0.0
 70
    64
  0
VERTEX
  8
0
  6
CONTINUOUS
 62
   249
 10
264.302756
 20
49.51
 30
0.0
 70
    64
  0
VERTEX
  8
0
  6
CONTINUOUS
 62
   249
 10
264.316476
 20
49.51
 30
0.0
 70
    64
  0
VERTEX
  8
0
  6
CONTINUOUS
 62
   249
 10
264.330196
 20
49.51
 30
0.0
 70
    64
  0
VERTEX
  8
0
  6
CONTINUOUS
 62
   249
 10
264.343916
 20
49.51
 30
0.0
 70
    64
  0
VERTEX
  8
0
  6
CONTINUOUS
 62
   249
 10
264.357636
 20
49.51
 30
0.0
 70
    64
  0
VERTEX
  8
0
  6
CONTINUOUS
 62
   249
 10
264.371356
 20
49.51
 30
0.0
 70
    64
  0
VERTEX
  8
0
  6
CONTINUOUS
 62
   249
 10
264.385076
 20
49.51
 30
0.0
 70
    64
  0
VERTEX
  8
0
  6
CONTINUOUS
 62
   249
 10
264.398796
 20
49.51
 30
0.0
 70
    64
  0
VERTEX
  8
0
  6
CONTINUOUS
 62
   249
 10
264.412516
 20
49.51
 30
0.0
 70
    64
  0
VERTEX
  8
0
  6
CONTINUOUS
 62
   249
 10
264.426236
 20
49.51
 30
0.0
 70
    64
  0
VERTEX
  8
0
  6
CONTINUOUS
 62
   249
 10
264.439956
 20
49.51
 30
0.0
 70
    64
  0
VERTEX
  8
0
  6
CONTINUOUS
 62
   249
 10
264.453676
 20
49.51
 30
0.0
 70
    64
  0
VERTEX
  8
0
  6
CONTINUOUS
 62
   249
 10
264.467396
 20
49.51
 30
0.0
 70
    64
  0
VERTEX
  8
0
  6
CONTINUOUS
 62
   249
 10
264.481116
 20
49.51
 30
0.0
 70
    64
  0
VERTEX
  8
0
  6
CONTINUOUS
 62
   249
 10
264.494836
 20
49.51
 30
0.0
 70
    64
  0
VERTEX
  8
0
  6
CONTINUOUS
 62
   249
 10
264.508556
 20
49.51
 30
0.0
 70
    64
  0
VERTEX
  8
0
  6
CONTINUOUS
 62
   249
 10
264.522276
 20
49.51
 30
0.0
 70
    64
  0
VERTEX
  8
0
  6
CONTINUOUS
 62
   249
 10
264.535996
 20
49.51
 30
0.0
 70
    64
  0
VERTEX
  8
0
  6
CONTINUOUS
 62
   249
 10
264.549716
 20
49.51
 30
0.0
 70
    64
  0
VERTEX
  8
0
  6
CONTINUOUS
 62
   249
 10
264.563436
 20
49.51
 30
0.0
 70
    64
  0
VERTEX
  8
0
  6
CONTINUOUS
 62
   249
 10
264.577156
 20
49.51
 30
0.0
 70
    64
  0
VERTEX
  8
0
  6
CONTINUOUS
 62
   249
 10
264.590876
 20
49.51
 30
0.0
 70
    64
  0
VERTEX
  8
0
  6
CONTINUOUS
 62
   249
 10
264.604596
 20
49.51
 30
0.0
 70
    64
  0
VERTEX
  8
0
  6
CONTINUOUS
 62
   249
 10
264.618316
 20
49.51
 30
0.0
 70
    64
  0
VERTEX
  8
0
  6
CONTINUOUS
 62
   249
 10
264.632036
 20
49.51
 30
0.0
 70
    64
  0
VERTEX
  8
0
  6
CONTINUOUS
 62
   249
 10
264.645756
 20
49.51
 30
0.0
 70
    64
  0
VERTEX
  8
0
  6
CONTINUOUS
 62
   249
 10
264.659476
 20
49.51
 30
0.0
 70
    64
  0
VERTEX
  8
0
  6
CONTINUOUS
 62
   249
 10
264.673196
 20
49.51
 30
0.0
 70
    64
  0
VERTEX
  8
0
  6
CONTINUOUS
 62
   249
 10
264.686916
 20
49.51
 30
0.0
 70
    64
  0
VERTEX
  8
0
  6
CONTINUOUS
 62
   249
 10
264.700636
 20
49.51
 30
0.0
 70
    64
  0
VERTEX
  8
0
  6
CONTINUOUS
 62
   249
 10
264.714356
 20
49.51
 30
0.0
 70
    64
  0
VERTEX
  8
0
  6
CONTINUOUS
 62
   249
 10
264.728076
 20
49.51
 30
0.0
 70
    64
  0
VERTEX
  8
0
  6
CONTINUOUS
 62
   249
 10
264.741796
 20
49.51
 30
0.0
 70
    64
  0
VERTEX
  8
0
  6
CONTINUOUS
 62
   249
 10
264.755516
 20
49.51
 30
0.0
 70
    64
  0
VERTEX
  8
0
  6
CONTINUOUS
 62
   249
 10
264.769236
 20
49.51
 30
0.0
 70
    64
  0
VERTEX
  8
0
  6
CONTINUOUS
 62
   249
 10
264.782956
 20
49.51
 30
0.0
 70
    64
  0
VERTEX
  8
0
  6
CONTINUOUS
 62
   249
 10
264.796676
 20
49.51
 30
0.0
 70
    64
  0
VERTEX
  8
0
  6
CONTINUOUS
 62
   249
 10
264.810396
 20
49.51
 30
0.0
 70
    64
  0
VERTEX
  8
0
  6
CONTINUOUS
 62
   249
 10
264.824116
 20
49.51
 30
0.0
 70
    64
  0
VERTEX
  8
0
  6
CONTINUOUS
 62
   249
 10
264.837836
 20
49.51
 30
0.0
 70
    64
  0
VERTEX
  8
0
  6
CONTINUOUS
 62
   249
 10
264.851556
 20
49.51
 30
0.0
 70
    64
  0
VERTEX
  8
0
  6
CONTINUOUS
 62
   249
 10
264.865276
 20
49.51
 30
0.0
 70
    64
  0
VERTEX
  8
0
  6
CONTINUOUS
 62
   249
 10
264.878996
 20
49.51
 30
0.0
 70
    64
  0
VERTEX
  8
0
  6
CONTINUOUS
 62
   249
 10
264.892716
 20
49.51
 30
0.0
 70
    64
  0
VERTEX
  8
0
  6
CONTINUOUS
 62
   249
 10
264.906436
 20
49.51
 30
0.0
 70
    64
  0
VERTEX
  8
0
  6
CONTINUOUS
 62
   249
 10
264.920156
 20
49.51
 30
0.0
 70
    64
  0
VERTEX
  8
0
  6
CONTINUOUS
 62
   249
 10
264.933876
 20
49.51
 30
0.0
 70
    64
  0
VERTEX
  8
0
  6
CONTINUOUS
 62
   249
 10
264.947596
 20
49.51
 30
0.0
 70
    64
  0
VERTEX
  8
0
  6
CONTINUOUS
 62
   249
 10
264.961316
 20
49.51
 30
0.0
 70
    64
  0
VERTEX
  8
0
  6
CONTINUOUS
 62
   249
 10
264.975036
 20
49.51
 30
0.0
 70
    64
  0
VERTEX
  8
0
  6
CONTINUOUS
 62
   249
 10
264.988756
 20
49.51
 30
0.0
 70
    64
  0
VERTEX
  8
0
  6
CONTINUOUS
 62
   249
 10
265.002476
 20
49.51
 30
0.0
 70
    64
  0
VERTEX
  8
0
  6
CONTINUOUS
 62
   249
 10
265.016196
 20
49.51
 30
0.0
 70
    64
  0
VERTEX
  8
0
  6
CONTINUOUS
 62
   249
 10
265.029916
 20
49.51
 30
0.0
 70
    64
  0
VERTEX
  8
0
  6
CONTINUOUS
 62
   249
 10
265.043636
 20
49.51
 30
0.0
 70
    64
  0
VERTEX
  8
0
  6
CONTINUOUS
 62
   249
 10
265.057356
 20
49.51
 30
0.0
 70
    64
  0
VERTEX
  8
0
  6
CONTINUOUS
 62
   249
 10
265.071076
 20
49.51
 30
0.0
 70
    64
  0
VERTEX
  8
0
  6
CONTINUOUS
 62
   249
 10
265.084796
 20
49.51
 30
0.0
 70
    64
  0
VERTEX
  8
0
  6
CONTINUOUS
 62
   249
 10
265.098516
 20
49.51
 30
0.0
 70
    64
  0
VERTEX
  8
0
  6
CONTINUOUS
 62
   249
 10
265.112236
 20
49.51
 30
0.0
 70
    64
  0
VERTEX
  8
0
  6
CONTINUOUS
 62
   249
 10
265.125956
 20
49.51
 30
0.0
 70
    64
  0
VERTEX
  8
0
  6
CONTINUOUS
 62
   249
 10
265.139676
 20
49.51
 30
0.0
 70
    64
  0
VERTEX
  8
0
  6
CONTINUOUS
 62
   249
 10
265.153396
 20
49.51
 30
0.0
 70
    64
  0
VERTEX
  8
0
  6
CONTINUOUS
 62
   249
 10
265.167116
 20
49.51
 30
0.0
 70
    64
  0
VERTEX
  8
0
  6
CONTINUOUS
 62
   249
 10
265.180836
 20
49.51
 30
0.0
 70
    64
  0
VERTEX
  8
0
  6
CONTINUOUS
 62
   249
 10
265.194556
 20
49.51
 30
0.0
 70
    64
  0
VERTEX
  8
0
  6
CONTINUOUS
 62
   249
 10
265.208276
 20
49.51
 30
0.0
 70
    64
  0
VERTEX
  8
0
  6
CONTINUOUS
 62
   249
 10
265.221996
 20
49.51
 30
0.0
 70
    64
  0
VERTEX
  8
0
  6
CONTINUOUS
 62
   249
 10
265.235716
 20
49.51
 30
0.0
 70
    64
  0
VERTEX
  8
0
  6
CONTINUOUS
 62
   249
 10
265.249436
 20
49.51
 30
0.0
 70
    64
  0
VERTEX
  8
0
  6
CONTINUOUS
 62
   249
 10
261.819436
 20
50.49
 30
0.0
 70
    64
  0
VERTEX
  8
0
  6
CONTINUOUS
 62
   249
 10
261.833156
 20
50.49
 30
0.0
 70
    64
  0
VERTEX
  8
0
  6
CONTINUOUS
 62
   249
 10
261.846876
 20
50.49
 30
0.0
 70
    64
  0
VERTEX
  8
0
  6
CONTINUOUS
 62
   249
 10
261.860596
 20
50.49
 30
0.0
 70
    64
  0
VERTEX
  8
0
  6
CONTINUOUS
 62
   249
 10
261.874316
 20
50.49
 30
0.0
 70
    64
  0
VERTEX
  8
0
  6
CONTINUOUS
 62
   249
 10
261.888036
 20
50.49
 30
0.0
 70
    64
  0
VERTEX
  8
0
  6
CONTINUOUS
 62
   249
 10
261.901756
 20
50.49
 30
0.0
 70
    64
  0
VERTEX
  8
0
  6
CONTINUOUS
 62
   249
 10
261.915476
 20
50.49
 30
0.0
 70
    64
  0
VERTEX
  8
0
  6
CONTINUOUS
 62
   249
 10
261.929196
 20
50.49
 30
0.0
 70
    64
  0
VERTEX
  8
0
  6
CONTINUOUS
 62
   249
 10
261.942916
 20
50.49
 30
0.0
 70
    64
  0
VERTEX
  8
0
  6
CONTINUOUS
 62
   249
 10
261.956636
 20
50.49
 30
0.0
 70
    64
  0
VERTEX
  8
0
  6
CONTINUOUS
 62
   249
 10
261.970356
 20
50.49
 30
0.0
 70
    64
  0
VERTEX
  8
0
  6
CONTINUOUS
 62
   249
 10
261.984076
 20
50.49
 30
0.0
 70
    64
  0
VERTEX
  8
0
  6
CONTINUOUS
 62
   249
 10
261.997796
 20
50.49
 30
0.0
 70
    64
  0
VERTEX
  8
0
  6
CONTINUOUS
 62
   249
 10
262.011516
 20
50.49
 30
0.0
 70
    64
  0
VERTEX
  8
0
  6
CONTINUOUS
 62
   249
 10
262.025236
 20
50.49
 30
0.0
 70
    64
  0
VERTEX
  8
0
  6
CONTINUOUS
 62
   249
 10
262.038956
 20
50.49
 30
0.0
 70
    64
  0
VERTEX
  8
0
  6
CONTINUOUS
 62
   249
 10
262.052676
 20
50.49
 30
0.0
 70
    64
  0
VERTEX
  8
0
  6
CONTINUOUS
 62
   249
 10
262.066396
 20
50.49
 30
0.0
 70
    64
  0
VERTEX
  8
0
  6
CONTINUOUS
 62
   249
 10
262.080116
 20
50.49
 30
0.0
 70
    64
  0
VERTEX
  8
0
  6
CONTINUOUS
 62
   249
 10
262.093836
 20
50.49
 30
0.0
 70
    64
  0
VERTEX
  8
0
  6
CONTINUOUS
 62
   249
 10
262.107556
 20
50.49
 30
0.0
 70
    64
  0
VERTEX
  8
0
  6
CONTINUOUS
 62
   249
 10
262.121276
 20
50.49
 30
0.0
 70
    64
  0
VERTEX
  8
0
  6
CONTINUOUS
 62
   249
 10
262.134996
 20
50.49
 30
0.0
 70
    64
  0
VERTEX
  8
0
  6
CONTINUOUS
 62
   249
 10
262.148716
 20
50.49
 30
0.0
 70
    64
  0
VERTEX
  8
0
  6
CONTINUOUS
 62
   249
 10
262.162436
 20
50.49
 30
0.0
 70
    64
  0
VERTEX
  8
0
  6
CONTINUOUS
 62
   249
 10
262.176156
 20
50.49
 30
0.0
 70
    64
  0
VERTEX
  8
0
  6
CONTINUOUS
 62
   249
 10
262.189876
 20
50.49
 30
0.0
 70
    64
  0
VERTEX
  8
0
  6
CONTINUOUS
 62
   249
 10
262.203596
 20
50.49
 30
0.0
 70
    64
  0
VERTEX
  8
0
  6
CONTINUOUS
 62
   249
 10
262.217316
 20
50.49
 30
0.0
 70
    64
  0
VERTEX
  8
0
  6
CONTINUOUS
 62
   249
 10
262.231036
 20
50.49
 30
0.0
 70
    64
  0
VERTEX
  8
0
  6
CONTINUOUS
 62
   249
 10
262.244756
 20
50.49
 30
0.0
 70
    64
  0
VERTEX
  8
0
  6
CONTINUOUS
 62
   249
 10
262.258476
 20
50.49
 30
0.0
 70
    64
  0
VERTEX
  8
0
  6
CONTINUOUS
 62
   249
 10
262.272196
 20
50.49
 30
0.0
 70
    64
  0
VERTEX
  8
0
  6
CONTINUOUS
 62
   249
 10
262.285916
 20
50.49
 30
0.0
 70
    64
  0
VERTEX
  8
0
  6
CONTINUOUS
 62
   249
 10
262.299636
 20
50.49
 30
0.0
 70
    64
  0
VERTEX
  8
0
  6
CONTINUOUS
 62
   249
 10
262.313356
 20
50.49
 30
0.0
 70
    64
  0
VERTEX
  8
0
  6
CONTINUOUS
 62
   249
 10
262.327076
 20
50.49
 30
0.0
 70
    64
  0
VERTEX
  8
0
  6
CONTINUOUS
 62
   249
 10
262.340796
 20
50.49
 30
0.0
 70
    64
  0
VERTEX
  8
0
  6
CONTINUOUS
 62
   249
 10
262.354516
 20
50.49
 30
0.0
 70
    64
  0
VERTEX
  8
0
  6
CONTINUOUS
 62
   249
 10
262.368236
 20
50.49
 30
0.0
 70
    64
  0
VERTEX
  8
0
  6
CONTINUOUS
 62
   249
 10
262.381956
 20
50.49
 30
0.0
 70
    64
  0
VERTEX
  8
0
  6
CONTINUOUS
 62
   249
 10
262.395676
 20
50.49
 30
0.0
 70
    64
  0
VERTEX
  8
0
  6
CONTINUOUS
 62
   249
 10
262.409396
 20
50.49
 30
0.0
 70
    64
  0
VERTEX
  8
0
  6
CONTINUOUS
 62
   249
 10
262.423116
 20
50.49
 30
0.0
 70
    64
  0
VERTEX
  8
0
  6
CONTINUOUS
 62
   249
 10
262.436836
 20
50.49
 30
0.0
 70
    64
  0
VERTEX
  8
0
  6
CONTINUOUS
 62
   249
 10
262.450556
 20
50.49
 30
0.0
 70
    64
  0
VERTEX
  8
0
  6
CONTINUOUS
 62
   249
 10
262.464276
 20
50.49
 30
0.0
 70
    64
  0
VERTEX
  8
0
  6
CONTINUOUS
 62
   249
 10
262.477996
 20
50.49
 30
0.0
 70
    64
  0
VERTEX
  8
0
  6
CONTINUOUS
 62
   249
 10
262.491716
 20
50.49
 30
0.0
 70
    64
  0
VERTEX
  8
0
  6
CONTINUOUS
 62
   249
 10
262.505436
 20
50.49
 30
0.0
 70
    64
  0
VERTEX
  8
0
  6
CONTINUOUS
 62
   249
 10
262.519156
 20
50.49
 30
0.0
 70
    64
  0
VERTEX
  8
0
  6
CONTINUOUS
 62
   249
 10
262.532876
 20
50.49
 30
0.0
 70
    64
  0
VERTEX
  8
0
  6
CONTINUOUS
 62
   249
 10
262.546596
 20
50.49
 30
0.0
 70
    64
  0
VERTEX
  8
0
  6
CONTINUOUS
 62
   249
 10
262.560316
 20
50.49
 30
0.0
 70
    64
  0
VERTEX
  8
0
  6
CONTINUOUS
 62
   249
 10
262.574036
 20
50.49
 30
0.0
 70
    64
  0
VERTEX
  8
0
  6
CONTINUOUS
 62
   249
 10
262.587756
 20
50.49
 30
0.0
 70
    64
  0
VERTEX
  8
0
  6
CONTINUOUS
 62
   249
 10
262.601476
 20
50.49
 30
0.0
 70
    64
  0
VERTEX
  8
0
  6
CONTINUOUS
 62
   249
 10
262.615196
 20
50.49
 30
0.0
 70
    64
  0
VERTEX
  8
0
  6
CONTINUOUS
 62
   249
 10
262.628916
 20
50.49
 30
0.0
 70
    64
  0
VERTEX
  8
0
  6
CONTINUOUS
 62
   249
 10
262.642636
 20
50.49
 30
0.0
 70
    64
  0
VERTEX
  8
0
  6
CONTINUOUS
 62
   249
 10
262.656356
 20
50.49
 30
0.0
 70
    64
  0
VERTEX
  8
0
  6
CONTINUOUS
 62
   249
 10
262.670076
 20
50.49
 30
0.0
 70
    64
  0
VERTEX
  8
0
  6
CONTINUOUS
 62
   249
 10
262.683796
 20
50.49
 30
0.0
 70
    64
  0
VERTEX
  8
0
  6
CONTINUOUS
 62
   249
 10
262.697516
 20
50.49
 30
0.0
 70
    64
  0
VERTEX
  8
0
  6
CONTINUOUS
 62
   249
 10
262.711236
 20
50.49
 30
0.0
 70
    64
  0
VERTEX
  8
0
  6
CONTINUOUS
 62
   249
 10
262.724956
 20
50.49
 30
0.0
 70
    64
  0
VERTEX
  8
0
  6
CONTINUOUS
 62
   249
 10
262.738676
 20
50.49
 30
0.0
 70
    64
  0
VERTEX
  8
0
  6
CONTINUOUS
 62
   249
 10
262.752396
 20
50.49
 30
0.0
 70
    64
  0
VERTEX
  8
0
  6
CONTINUOUS
 62
   249
 10
262.766116
 20
50.49
 30
0.0
 70
    64
  0
VERTEX
  8
0
  6
CONTINUOUS
 62
   249
 10
262.779836
 20
50.49
 30
0.0
 70
    64
  0
VERTEX
  8
0
  6
CONTINUOUS
 62
   249
 10
262.793556
 20
50.49
 30
0.0
 70
    64
  0
VERTEX
  8
0
  6
CONTINUOUS
 62
   249
 10
262.807276
 20
50.49
 30
0.0
 70
    64
  0
VERTEX
  8
0
  6
CONTINUOUS
 62
   249
 10
262.820996
 20
50.49
 30
0.0
 70
    64
  0
VERTEX
  8
0
  6
CONTINUOUS
 62
   249
 10
262.834716
 20
50.49
 30
0.0
 70
    64
  0
VERTEX
  8
0
  6
CONTINUOUS
 62
   249
 10
262.848436
 20
50.49
 30
0.0
 70
    64
  0
VERTEX
  8
0
  6
CONTINUOUS
 62
   249
 10
262.862156
 20
50.49
 30
0.0
 70
    64
  0
VERTEX
  8
0
  6
CONTINUOUS
 62
   249
 10
262.875876
 20
50.49
 30
0.0
 70
    64
  0
VERTEX
  8
0
  6
CONTINUOUS
 62
   249
 10
262.889596
 20
50.49
 30
0.0
 70
    64
  0
VERTEX
  8
0
  6
CONTINUOUS
 62
   249
 10
262.903316
 20
50.49
 30
0.0
 70
    64
  0
VERTEX
  8
0
  6
CONTINUOUS
 62
   249
 10
262.917036
 20
50.49
 30
0.0
 70
    64
  0
VERTEX
  8
0
  6
CONTINUOUS
 62
   249
 10
262.930756
 20
50.49
 30
0.0
 70
    64
  0
VERTEX
  8
0
  6
CONTINUOUS
 62
   249
 10
262.944476
 20
50.49
 30
0.0
 70
    64
  0
VERTEX
  8
0
  6
CONTINUOUS
 62
   249
 10
262.958196
 20
50.49
 30
0.0
 70
    64
  0
VERTEX
  8
0
  6
CONTINUOUS
 62
   249
 10
262.971916
 20
50.49
 30
0.0
 70
    64
  0
VERTEX
  8
0
  6
CONTINUOUS
 62
   249
 10
262.985636
 20
50.49
 30
0.0
 70
    64
  0
VERTEX
  8
0
  6
CONTINUOUS
 62
   249
 10
262.999356
 20
50.49
 30
0.0
 70
    64
  0
VERTEX
  8
0
  6
CONTINUOUS
 62
   249
 10
263.013076
 20
50.49
 30
0.0
 70
    64
  0
VERTEX
  8
0
  6
CONTINUOUS
 62
   249
 10
263.026796
 20
50.49
 30
0.0
 70
    64
  0
VERTEX
  8
0
  6
CONTINUOUS
 62
   249
 10
263.040516
 20
50.49
 30
0.0
 70
    64
  0
VERTEX
  8
0
  6
CONTINUOUS
 62
   249
 10
263.054236
 20
50.49
 30
0.0
 70
    64
  0
VERTEX
  8
0
  6
CONTINUOUS
 62
   249
 10
263.067956
 20
50.49
 30
0.0
 70
    64
  0
VERTEX
  8
0
  6
CONTINUOUS
 62
   249
 10
263.081676
 20
50.49
 30
0.0
 70
    64
  0
VERTEX
  8
0
  6
CONTINUOUS
 62
   249
 10
263.095396
 20
50.49
 30
0.0
 70
    64
  0
VERTEX
  8
0
  6
CONTINUOUS
 62
   249
 10
263.109116
 20
50.49
 30
0.0
 70
    64
  0
VERTEX
  8
0
  6
CONTINUOUS
 62
   249
 10
263.122836
 20
50.49
 30
0.0
 70
    64
  0
VERTEX
  8
0
  6
CONTINUOUS
 62
   249
 10
263.136556
 20
50.49
 30
0.0
 70
    64
  0
VERTEX
  8
0
  6
CONTINUOUS
 62
   249
 10
263.150276
 20
50.49
 30
0.0
 70
    64
  0
VERTEX
  8
0
  6
CONTINUOUS
 62
   249
 10
263.163996
 20
50.49
 30
0.0
 70
    64
  0
VERTEX
  8
0
  6
CONTINUOUS
 62
   249
 10
263.177716
 20
50.49
 30
0.0
 70
    64
  0
VERTEX
  8
0
  6
CONTINUOUS
 62
   249
 10
263.191436
 20
50.49
 30
0.0
 70
    64
  0
VERTEX
  8
0
  6
CONTINUOUS
 62
   249
 10
263.205156
 20
50.49
 30
0.0
 70
    64
  0
VERTEX
  8
0
  6
CONTINUOUS
 62
   249
 10
263.218876
 20
50.49
 30
0.0
 70
    64
  0
VERTEX
  8
0
  6
CONTINUOUS
 62
   249
 10
263.232596
 20
50.49
 30
0.0
 70
    64
  0
VERTEX
  8
0
  6
CONTINUOUS
 62
   249
 10
263.246316
 20
50.49
 30
0.0
 70
    64
  0
VERTEX
  8
0
  6
CONTINUOUS
 62
   249
 10
263.260036
 20
50.49
 30
0.0
 70
    64
  0
VERTEX
  8
0
  6
CONTINUOUS
 62
   249
 10
263.273756
 20
50.49
 30
0.0
 70
    64
  0
VERTEX
  8
0
  6
CONTINUOUS
 62
   249
 10
263.287476
 20
50.49
 30
0.0
 70
    64
  0
VERTEX
  8
0
  6
CONTINUOUS
 62
   249
 10
263.301196
 20
50.49
 30
0.0
 70
    64
  0
VERTEX
  8
0
  6
CONTINUOUS
 62
   249
 10
263.314916
 20
50.49
 30
0.0
 70
    64
  0
VERTEX
  8
0
  6
CONTINUOUS
 62
   249
 10
263.328636
 20
50.49
 30
0.0
 70
    64
  0
VERTEX
  8
0
  6
CONTINUOUS
 62
   249
 10
263.342356
 20
50.49
 30
0.0
 70
    64
  0
VERTEX
  8
0
  6
CONTINUOUS
 62
   249
 10
263.356076
 20
50.49
 30
0.0
 70
    64
  0
VERTEX
  8
0
  6
CONTINUOUS
 62
   249
 10
263.369796
 20
50.49
 30
0.0
 70
    64
  0
VERTEX
  8
0
  6
CONTINUOUS
 62
   249
 10
263.383516
 20
50.49
 30
0.0
 70
    64
  0
VERTEX
  8
0
  6
CONTINUOUS
 62
   249
 10
263.397236
 20
50.49
 30
0.0
 70
    64
  0
VERTEX
  8
0
  6
CONTINUOUS
 62
   249
 10
263.410956
 20
50.49
 30
0.0
 70
    64
  0
VERTEX
  8
0
  6
CONTINUOUS
 62
   249
 10
263.424676
 20
50.49
 30
0.0
 70
    64
  0
VERTEX
  8
0
  6
CONTINUOUS
 62
   249
 10
263.438396
 20
50.49
 30
0.0
 70
    64
  0
VERTEX
  8
0
  6
CONTINUOUS
 62
   249
 10
263.452116
 20
50.49
 30
0.0
 70
    64
  0
VERTEX
  8
0
  6
CONTINUOUS
 62
   249
 10
263.465836
 20
50.49
 30
0.0
 70
    64
  0
VERTEX
  8
0
  6
CONTINUOUS
 62
   249
 10
263.479556
 20
50.49
 30
0.0
 70
    64
  0
VERTEX
  8
0
  6
CONTINUOUS
 62
   249
 10
263.493276
 20
50.49
 30
0.0
 70
    64
  0
VERTEX
  8
0
  6
CONTINUOUS
 62
   249
 10
263.506996
 20
50.49
 30
0.0
 70
    64
  0
VERTEX
  8
0
  6
CONTINUOUS
 62
   249
 10
263.520716
 20
50.49
 30
0.0
 70
    64
  0
VERTEX
  8
0
  6
CONTINUOUS
 62
   249
 10
263.534436
 20
50.49
 30
0.0
 70
    64
  0
VERTEX
  8
0
  6
CONTINUOUS
 62
   249
 10
263.548156
 20
50.49
 30
0.0
 70
    64
  0
VERTEX
  8
0
  6
CONTINUOUS
 62
   249
 10
263.561876
 20
50.49
 30
0.0
 70
    64
  0
VERTEX
  8
0
  6
CONTINUOUS
 62
   249
 10
263.575596
 20
50.49
 30
0.0
 70
    64
  0
VERTEX
  8
0
  6
CONTINUOUS
 62
   249
 10
263.589316
 20
50.49
 30
0.0
 70
    64
  0
VERTEX
  8
0
  6
CONTINUOUS
 62
   249
 10
263.603036
 20
50.49
 30
0.0
 70
    64
  0
VERTEX
  8
0
  6
CONTINUOUS
 62
   249
 10
263.616756
 20
50.49
 30
0.0
 70
    64
  0
VERTEX
  8
0
  6
CONTINUOUS
 62
   249
 10
263.630476
 20
50.49
 30
0.0
 70
    64
  0
VERTEX
  8
0
  6
CONTINUOUS
 62
   249
 10
263.644196
 20
50.49
 30
0.0
 70
    64
  0
VERTEX
  8
0
  6
CONTINUOUS
 62
   249
 10
263.657916
 20
50.49
 30
0.0
 70
    64
  0
VERTEX
  8
0
  6
CONTINUOUS
 62
   249
 10
263.671636
 20
50.49
 30
0.0
 70
    64
  0
VERTEX
  8
0
  6
CONTINUOUS
 62
   249
 10
263.685356
 20
50.49
 30
0.0
 70
    64
  0
VERTEX
  8
0
  6
CONTINUOUS
 62
   249
 10
263.699076
 20
50.49
 30
0.0
 70
    64
  0
VERTEX
  8
0
  6
CONTINUOUS
 62
   249
 10
263.712796
 20
50.49
 30
0.0
 70
    64
  0
VERTEX
  8
0
  6
CONTINUOUS
 62
   249
 10
263.726516
 20
50.49
 30
0.0
 70
    64
  0
VERTEX
  8
0
  6
CONTINUOUS
 62
   249
 10
263.740236
 20
50.49
 30
0.0
 70
    64
  0
VERTEX
  8
0
  6
CONTINUOUS
 62
   249
 10
263.753956
 20
50.49
 30
0.0
 70
    64
  0
VERTEX
  8
0
  6
CONTINUOUS
 62
   249
 10
263.767676
 20
50.49
 30
0.0
 70
    64
  0
VERTEX
  8
0
  6
CONTINUOUS
 62
   249
 10
263.781396
 20
50.49
 30
0.0
 70
    64
  0
VERTEX
  8
0
  6
CONTINUOUS
 62
   249
 10
263.795116
 20
50.49
 30
0.0
 70
    64
  0
VERTEX
  8
0
  6
CONTINUOUS
 62
   249
 10
263.808836
 20
50.49
 30
0.0
 70
    64
  0
VERTEX
  8
0
  6
CONTINUOUS
 62
   249
 10
263.822556
 20
50.49
 30
0.0
 70
    64
  0
VERTEX
  8
0
  6
CONTINUOUS
 62
   249
 10
263.836276
 20
50.49
 30
0.0
 70
    64
  0
VERTEX
  8
0
  6
CONTINUOUS
 62
   249
 10
263.849996
 20
50.49
 30
0.0
 70
    64
  0
VERTEX
  8
0
  6
CONTINUOUS
 62
   249
 10
263.863716
 20
50.49
 30
0.0
 70
    64
  0
VERTEX
  8
0
  6
CONTINUOUS
 62
   249
 10
263.877436
 20
50.49
 30
0.0
 70
    64
  0
VERTEX
  8
0
  6
CONTINUOUS
 62
   249
 10
263.891156
 20
50.49
 30
0.0
 70
    64
  0
VERTEX
  8
0
  6
CONTINUOUS
 62
   249
 10
263.904876
 20
50.49
 30
0.0
 70
    64
  0
VERTEX
  8
0
  6
CONTINUOUS
 62
   249
 10
263.918596
 20
50.49
 30
0.0
 70
    64
  0
VERTEX
  8
0
  6
CONTINUOUS
 62
   249
 10
263.932316
 20
50.49
 30
0.0
 70
    64
  0
VERTEX
  8
0
  6
CONTINUOUS
 62
   249
 10
263.946036
 20
50.49
 30
0.0
 70
    64
  0
VERTEX
  8
0
  6
CONTINUOUS
 62
   249
 10
263.959756
 20
50.49
 30
0.0
 70
    64
  0
VERTEX
  8
0
  6
CONTINUOUS
 62
   249
 10
263.973476
 20
50.49
 30
0.0
 70
    64
  0
VERTEX
  8
0
  6
CONTINUOUS
 62
   249
 10
263.987196
 20
50.49
 30
0.0
 70
    64
  0
VERTEX
  8
0
  6
CONTINUOUS
 62
   249
 10
264.000916
 20
50.49
 30
0.0
 70
    64
  0
VERTEX
  8
0
  6
CONTINUOUS
 62
   249
 10
264.014636
 20
50.49
 30
0.0
 70
    64
  0
VERTEX
  8
0
  6
CONTINUOUS
 62
   249
 10
264.028356
 20
50.49
 30
0.0
 70
    64
  0
VERTEX
  8
0
  6
CONTINUOUS
 62
   249
 10
264.042076
 20
50.49
 30
0.0
 70
    64
  0
VERTEX
  8
0
  6
CONTINUOUS
 62
   249
 10
264.055796
 20
50.49
 30
0.0
 70
    64
  0
VERTEX
  8
0
  6
CONTINUOUS
 62
   249
 10
264.069516
 20
50.49
 30
0.0
 70
    64
  0
VERTEX
  8
0
  6
CONTINUOUS
 62
   249
 10
264.083236
 20
50.49
 30
0.0
 70
    64
  0
VERTEX
  8
0
  6
CONTINUOUS
 62
   249
 10
264.096956
 20
50.49
 30
0.0
 70
    64
  0
VERTEX
  8
0
  6
CONTINUOUS
 62
   249
 10
264.110676
 20
50.49
 30
0.0
 70
    64
  0
VERTEX
  8
0
  6
CONTINUOUS
 62
   249
 10
264.124396
 20
50.49
 30
0.0
 70
    64
  0
VERTEX
  8
0
  6
CONTINUOUS
 62
   249
 10
264.138116
 20
50.49
 30
0.0
 70
    64
  0
VERTEX
  8
0
  6
CONTINUOUS
 62
   249
 10
264.151836
 20
50.49
 30
0.0
 70
    64
  0
VERTEX
  8
0
  6
CONTINUOUS
 62
   249
 10
264.165556
 20
50.49
 30
0.0
 70
    64
  0
VERTEX
  8
0
  6
CONTINUOUS
 62
   249
 10
264.179276
 20
50.49
 30
0.0
 70
    64
  0
VERTEX
  8
0
  6
CONTINUOUS
 62
   249
 10
264.192996
 20
50.49
 30
0.0
 70
    64
  0
VERTEX
  8
0
  6
CONTINUOUS
 62
   249
 10
264.206716
 20
50.49
 30
0.0
 70
    64
  0
VERTEX
  8
0
  6
CONTINUOUS
 62
   249
 10
264.220436
 20
50.49
 30
0.0
 70
    64
  0
VERTEX
  8
0
  6
CONTINUOUS
 62
   249
 10
264.234156
 20
50.49
 30
0.0
 70
    64
  0
VERTEX
  8
0
  6
CONTINUOUS
 62
   249
 10
264.247876
 20
50.49
 30
0.0
 70
    64
  0
VERTEX
  8
0
  6
CONTINUOUS
 62
   249
 10
264.261596
 20
50.49
 30
0.0
 70
    64
  0
VERTEX
  8
0
  6
CONTINUOUS
 62
   249
 10
264.275316
 20
50.49
 30
0.0
 70
    64
  0
VERTEX
  8
0
  6
CONTINUOUS
 62
   249
 10
264.289036
 20
50.49
 30
0.0
 70
    64
  0
VERTEX
  8
0
  6
CONTINUOUS
 62
   249
 10
264.302756
 20
50.49
 30
0.0
 70
    64
  0
VERTEX
  8
0
  6
CONTINUOUS
 62
   249
 10
264.316476
 20
50.49
 30
0.0
 70
    64
  0
VERTEX
  8
0
  6
CONTINUOUS
 62
   249
 10
264.330196
 20
50.49
 30
0.0
 70
    64
  0
VERTEX
  8
0
  6
CONTINUOUS
 62
   249
 10
264.343916
 20
50.49
 30
0.0
 70
    64
  0
VERTEX
  8
0
  6
CONTINUOUS
 62
   249
 10
264.357636
 20
50.49
 30
0.0
 70
    64
  0
VERTEX
  8
0
  6
CONTINUOUS
 62
   249
 10
264.371356
 20
50.49
 30
0.0
 70
    64
  0
VERTEX
  8
0
  6
CONTINUOUS
 62
   249
 10
264.385076
 20
50.49
 30
0.0
 70
    64
  0
VERTEX
  8
0
  6
CONTINUOUS
 62
   249
 10
264.398796
 20
50.49
 30
0.0
 70
    64
  0
VERTEX
  8
0
  6
CONTINUOUS
 62
   249
 10
264.412516
 20
50.49
 30
0.0
 70
    64
  0
VERTEX
  8
0
  6
CONTINUOUS
 62
   249
 10
264.426236
 20
50.49
 30
0.0
 70
    64
  0
VERTEX
  8
0
  6
CONTINUOUS
 62
   249
 10
264.439956
 20
50.49
 30
0.0
 70
    64
  0
VERTEX
  8
0
  6
CONTINUOUS
 62
   249
 10
264.453676
 20
50.49
 30
0.0
 70
    64
  0
VERTEX
  8
0
  6
CONTINUOUS
 62
   249
 10
264.467396
 20
50.49
 30
0.0
 70
    64
  0
VERTEX
  8
0
  6
CONTINUOUS
 62
   249
 10
264.481116
 20
50.49
 30
0.0
 70
    64
  0
VERTEX
  8
0
  6
CONTINUOUS
 62
   249
 10
264.494836
 20
50.49
 30
0.0
 70
    64
  0
VERTEX
  8
0
  6
CONTINUOUS
 62
   249
 10
264.508556
 20
50.49
 30
0.0
 70
    64
  0
VERTEX
  8
0
  6
CONTINUOUS
 62
   249
 10
264.522276
 20
50.49
 30
0.0
 70
    64
  0
VERTEX
  8
0
  6
CONTINUOUS
 62
   249
 10
264.535996
 20
50.49
 30
0.0
 70
    64
  0
VERTEX
  8
0
  6
CONTINUOUS
 62
   249
 10
264.549716
 20
50.49
 30
0.0
 70
    64
  0
VERTEX
  8
0
  6
CONTINUOUS
 62
   249
 10
264.563436
 20
50.49
 30
0.0
 70
    64
  0
VERTEX
  8
0
  6
CONTINUOUS
 62
   249
 10
264.577156
 20
50.49
 30
0.0
 70
    64
  0
VERTEX
  8
0
  6
CONTINUOUS
 62
   249
 10
264.590876
 20
50.49
 30
0.0
 70
    64
  0
VERTEX
  8
0
  6
CONTINUOUS
 62
   249
 10
264.604596
 20
50.49
 30
0.0
 70
    64
  0
VERTEX
  8
0
  6
CONTINUOUS
 62
   249
 10
264.618316
 20
50.49
 30
0.0
 70
    64
  0
VERTEX
  8
0
  6
CONTINUOUS
 62
   249
 10
264.632036
 20
50.49
 30
0.0
 70
    64
  0
VERTEX
  8
0
  6
CONTINUOUS
 62
   249
 10
264.645756
 20
50.49
 30
0.0
 70
    64
  0
VERTEX
  8
0
  6
CONTINUOUS
 62
   249
 10
264.659476
 20
50.49
 30
0.0
 70
    64
  0
VERTEX
  8
0
  6
CONTINUOUS
 62
   249
 10
264.673196
 20
50.49
 30
0.0
 70
    64
  0
VERTEX
  8
0
  6
CONTINUOUS
 62
   249
 10
264.686916
 20
50.49
 30
0.0
 70
    64
  0
VERTEX
  8
0
  6
CONTINUOUS
 62
   249
 10
264.700636
 20
50.49
 30
0.0
 70
    64
  0
VERTEX
  8
0
  6
CONTINUOUS
 62
   249
 10
264.714356
 20
50.49
 30
0.0
 70
    64
  0
VERTEX
  8
0
  6
CONTINUOUS
 62
   249
 10
264.728076
 20
50.49
 30
0.0
 70
    64
  0
VERTEX
  8
0
  6
CONTINUOUS
 62
   249
 10
264.741796
 20
50.49
 30
0.0
 70
    64
  0
VERTEX
  8
0
  6
CONTINUOUS
 62
   249
 10
264.755516
 20
50.49
 30
0.0
 70
    64
  0
VERTEX
  8
0
  6
CONTINUOUS
 62
   249
 10
264.769236
 20
50.49
 30
0.0
 70
    64
  0
VERTEX
  8
0
  6
CONTINUOUS
 62
   249
 10
264.782956
 20
50.49
 30
0.0
 70
    64
  0
VERTEX
  8
0
  6
CONTINUOUS
 62
   249
 10
264.796676
 20
50.49
 30
0.0
 70
    64
  0
VERTEX
  8
0
  6
CONTINUOUS
 62
   249
 10
264.810396
 20
50.49
 30
0.0
 70
    64
  0
VERTEX
  8
0
  6
CONTINUOUS
 62
   249
 10
264.824116
 20
50.49
 30
0.0
 70
    64
  0
VERTEX
  8
0
  6
CONTINUOUS
 62
   249
 10
264.837836
 20
50.49
 30
0.0
 70
    64
  0
VERTEX
  8
0
  6
CONTINUOUS
 62
   249
 10
264.851556
 20
50.49
 30
0.0
 70
    64
  0
VERTEX
  8
0
  6
CONTINUOUS
 62
   249
 10
264.865276
 20
50.49
 30
0.0
 70
    64
  0
VERTEX
  8
0
  6
CONTINUOUS
 62
   249
 10
264.878996
 20
50.49
 30
0.0
 70
    64
  0
VERTEX
  8
0
  6
CONTINUOUS
 62
   249
 10
264.892716
 20
50.49
 30
0.0
 70
    64
  0
VERTEX
  8
0
  6
CONTINUOUS
 62
   249
 10
264.906436
 20
50.49
 30
0.0
 70
    64
  0
VERTEX
  8
0
  6
CONTINUOUS
 62
   249
 10
264.920156
 20
50.49
 30
0.0
 70
    64
  0
VERTEX
  8
0
  6
CONTINUOUS
 62
   249
 10
264.933876
 20
50.49
 30
0.0
 70
    64
  0
VERTEX
  8
0
  6
CONTINUOUS
 62
   249
 10
264.947596
 20
50.49
 30
0.0
 70
    64
  0
VERTEX
  8
0
  6
CONTINUOUS
 62
   249
 10
264.961316
 20
50.49
 30
0.0
 70
    64
  0
VERTEX
  8
0
  6
CONTINUOUS
 62
   249
 10
264.975036
 20
50.49
 30
0.0
 70
    64
  0
VERTEX
  8
0
  6
CONTINUOUS
 62
   249
 10
264.988756
 20
50.49
 30
0.0
 70
    64
  0
VERTEX
  8
0
  6
CONTINUOUS
 62
   249
 10
265.002476
 20
50.49
 30
0.0
 70
    64
  0
VERTEX
  8
0
  6
CONTINUOUS
 62
   249
 10
265.016196
 20
50.49
 30
0.0
 70
    64
  0
VERTEX
  8
0
  6
CONTINUOUS
 62
   249
 10
265.029916
 20
50.49
 30
0.0
 70
    64
  0
VERTEX
  8
0
  6
CONTINUOUS
 62
   249
 10
265.043636
 20
50.49
 30
0.0
 70
    64
  0
VERTEX
  8
0
  6
CONTINUOUS
 62
   249
 10
265.057356
 20
50.49
 30
0.0
 70
    64
  0
VERTEX
  8
0
  6
CONTINUOUS
 62
   249
 10
265.071076
 20
50.49
 30
0.0
 70
    64
  0
VERTEX
  8
0
  6
CONTINUOUS
 62
   249
 10
265.084796
 20
50.49
 30
0.0
 70
    64
  0
VERTEX
  8
0
  6
CONTINUOUS
 62
   249
 10
265.098516
 20
50.49
 30
0.0
 70
    64
  0
VERTEX
  8
0
  6
CONTINUOUS
 62
   249
 10
265.112236
 20
50.49
 30
0.0
 70
    64
  0
VERTEX
  8
0
  6
CONTINUOUS
 62
   249
 10
265.125956
 20
50.49
 30
0.0
 70
    64
  0
VERTEX
  8
0
  6
CONTINUOUS
 62
   249
 10
265.139676
 20
50.49
 30
0.0
 70
    64
  0
VERTEX
  8
0
  6
CONTINUOUS
 62
   249
 10
265.153396
 20
50.49
 30
0.0
 70
    64
  0
VERTEX
  8
0
  6
CONTINUOUS
 62
   249
 10
265.167116
 20
50.49
 30
0.0
 70
    64
  0
VERTEX
  8
0
  6
CONTINUOUS
 62
   249
 10
265.180836
 20
50.49
 30
0.0
 70
    64
  0
VERTEX
  8
0
  6
CONTINUOUS
 62
   249
 10
265.194556
 20
50.49
 30
0.0
 70
    64
  0
VERTEX
  8
0
  6
CONTINUOUS
 62
   249
 10
265.208276
 20
50.49
 30
0.0
 70
    64
  0
VERTEX
  8
0
  6
CONTINUOUS
 62
   249
 10
265.221996
 20
50.49
 30
0.0
 70
    64
  0
VERTEX
  8
0
  6
CONTINUOUS
 62
   249
 10
265.235716
 20
50.49
 30
0.0
 70
    64
  0
VERTEX
  8
0
  6
CONTINUOUS
 62
   249
 10
265.249436
 20
50.49
 30
0.0
 70
    64
  0
SEQEND
  8
0
  6
CONTINUOUS
 62
   249
  0
LINE
  8
0
  6
DASHED
 62
   249
 10
265.0
 20
50.0
 30
0.0
 11
275.0
 21
50.0
 31
0.0
  0
ARC
  8
0
  6
CONTINUOUS
 62
   249
 10
262.5
 20
50.0
 30
0.0
 40
2.5
 50
90.0
 51
270.0
  0
LINE
  8
0
  6
CONTINUOUS
 62
   249
 10
232.38991
 20
76.166103
 30
0.0
 11
230.044144
 21
77.501457
 31
0.0
  0
LINE
  8
0
  6
CONTINUOUS
 62
   249
 10
230.044144
 20
77.501457
 30
0.0
 11
232.38991
 21
78.691376
 31
0.0
  0
LINE
  8
0
  6
CONTINUOUS
 62
   249
 10
203.72323
 20
118.092989
 30
0.0
 11
202.474557
 21
118.803811
 31
0.0
  0
LINE
  8
0
  6
CONTINUOUS
 62
   249
 10
202.474557
 20
118.803811
 30
0.0
 11
203.72323
 21
119.437216
 31
0.0
  0
LINE
  8
0
  6
CONTINUOUS
 62
   249
 10
207.347595
 20
119.527947
 30
0.0
 11
208.596268
 21
118.817126
 31
0.0
  0
LINE
  8
0
  6
CONTINUOUS
 62
   249
 10
208.596268
 20
118.817126
 30
0.0
 11
207.347595
 21
118.183721
 31
0.0
  0
LINE
  8
0
  6
CONTINUOUS
 62
   249
 10
231.989729
 20
96.164635
 30
0.0
 11
229.643963
 21
97.499989
 31
0.0
  0
LINE
  8
0
  6
CONTINUOUS
 62
   249
 10
229.643963
 20
97.499989
 30
0.0
 11
231.989729
 21
98.689908
 31
0.0
  0
ARC
  8
0
  6
CONTINUOUS
 62
   249
 10
280.0
 20
72.5
 30
0.0
 40
0.5
 50
180.0
 51
0.0
  0
ARC
  8
0
  6
CONTINUOUS
 62
   249
 10
280.0
 20
72.5
 30
0.0
 40
0.5
 50
0.0
 51
180.0
  0
ARC
  8
0
  6
CONTINUOUS
 62
   249
 10
280.0
 20
92.5
 30
0.0
 40
0.5
 50
180.0
 51
0.0
  0
ARC
  8
0
  6
CONTINUOUS
 62
   249
 10
280.0
 20
92.5
 30
0.0
 40
0.5
 50
0.0
 51
180.0
  0
ARC
  8
0
  6
CONTINUOUS
 62
   249
 10
285.0
 20
112.5
 30
0.0
 40
0.5
 50
180.0
 51
0.0
  0
ARC
  8
0
  6
CONTINUOUS
 62
   249
 10
285.0
 20
112.5
 30
0.0
 40
0.5
 50
0.0
 51
180.0
  0
LINE
  8
0
  6
CONTINUOUS
 62
   249
 10
319.009978
 20
125.0
 30
0.0
 11
321.655635
 21
125.0
 31
0.0
  0
LINE
  8
0
  6
CONTINUOUS
 62
   249
 10
323.437188
 20
124.396305
 30
0.0
 11
323.437188
 21
125.603695
 31
0.0
  0
LINE
  8
0
  6
CONTINUOUS
 62
   249
 10
322.549675
 20
123.963807
 30
0.0
 11
322.549675
 21
126.027182
 31
0.0
  0
LINE
  8
0
  6
CONTINUOUS
 62
   249
 10
321.655635
 20
123.468237
 30
0.0
 11
321.655635
 21
126.531763
 31
0.0
  0
INSERT
  8
0
  6
CENTER
 62
   249
  2
BLC26
 10
291.410524
 20
215.080448
 30
0.0
 41
1.006225
 42
1.006225
 50
180.0
 43
1.006225
  0
LINE
  8
0
  6
CONTINUOUS
 62
   249
 10
231.989729
 20
211.164635
 30
0.0
 11
229.643963
 21
212.499989
 31
0.0
  0
LINE
  8
0
  6
CONTINUOUS
 62
   249
 10
229.643963
 20
212.499989
 30
0.0
 11
231.989729
 21
213.689908
 31
0.0
  0
LINE
  8
0
  6
CONTINUOUS
 62
   249
 10
231.989729
 20
171.164635
 30
0.0
 11
229.643963
 21
172.499989
 31
0.0
  0
LINE
  8
0
  6
CONTINUOUS
 62
   249
 10
229.643963
 20
172.499989
 30
0.0
 11
231.989729
 21
173.689908
 31
0.0
  0
ARC
  8
0
  6
CONTINUOUS
 62
   249
 10
215.0
 20
145.0
 30
0.0
 40
0.5
 50
180.0
 51
0.0
  0
ARC
  8
0
  6
CONTINUOUS
 62
   249
 10
215.0
 20
145.0
 30
0.0
 40
0.5
 50
0.0
 51
180.0
  0
LINE
  8
0
  6
CONTINUOUS
 62
   249
 10
231.989729
 20
143.664635
 30
0.0
 11
229.643963
 21
144.999989
 31
0.0
  0
LINE
  8
0
  6
CONTINUOUS
 62
   249
 10
229.643963
 20
144.999989
 30
0.0
 11
231.989729
 21
146.189908
 31
0.0
  0
LINE
  8
0
  6
CONTINUOUS
 62
   249
 10
203.72323
 20
181.862772
 30
0.0
 11
202.474557
 21
182.573593
 31
0.0
  0
LINE
  8
0
  6
CONTINUOUS
 62
   249
 10
202.474557
 20
182.573593
 30
0.0
 11
203.72323
 21
183.206998
 31
0.0
  0
LINE
  8
0
  6
CONTINUOUS
 62
   249
 10
207.347595
 20
183.29773
 30
0.0
 11
208.596268
 21
182.586908
 31
0.0
  0
LINE
  8
0
  6
CONTINUOUS
 62
   249
 10
208.596268
 20
182.586908
 30
0.0
 11
207.347595
 21
181.953503
 31
0.0
  0
ARC
  8
0
  6
CONTINUOUS
 62
   249
 10
217.5
 20
190.0
 30
0.0
 40
0.5
 50
180.0
 51
0.0
  0
ARC
  8
0
  6
CONTINUOUS
 62
   249
 10
217.5
 20
190.0
 30
0.0
 40
0.5
 50
0.0
 51
180.0
  0
LINE
  8
0
  6
CONTINUOUS
 62
   249
 10
231.989729
 20
201.164635
 30
0.0
 11
229.643963
 21
202.499989
 31
0.0
  0
LINE
  8
0
  6
CONTINUOUS
 62
   249
 10
229.643963
 20
202.499989
 30
0.0
 11
231.989729
 21
203.689908
 31
0.0
  0
ARC
  8
0
  6
CONTINUOUS
 62
   249
 10
285.0
 20
172.689984
 30
0.0
 40
0.5
 50
180.0
 51
0.0
  0
ARC
  8
0
  6
CONTINUOUS
 62
   249
 10
285.0
 20
172.689984
 30
0.0
 40
0.5
 50
0.0
 51
180.0
  0
LINE
  8
0
  6
CONTINUOUS
 62
   249
 10
261.819436
 20
145.49
 30
0.0
 11
261.819436
 21
144.51
 31
0.0
  0
LINE
  8
0
  6
CONTINUOUS
 62
   249
 10
261.819436
 20
144.51
 30
0.0
 11
265.249436
 21
144.51
 31
0.0
  0
LINE
  8
0
  6
CONTINUOUS
 62
   249
 10
265.249436
 20
144.51
 30
0.0
 11
265.249436
 21
145.49
 31
0.0
  0
LINE
  8
0
  6
CONTINUOUS
 62
   249
 10
265.249436
 20
145.49
 30
0.0
 11
261.819436
 21
145.49
 31
0.0
  0
POLYLINE
  8
0
  6
CONTINUOUS
 62
   249
 66
     1
 10
0.0
 20
0.0
 30
0.0
 70
    16
 71
     2
 72
   251
  0
VERTEX
  8
0
  6
CONTINUOUS
 62
   249
 10
261.819436
 20
144.51
 30
0.0
 70
    64
  0
VERTEX
  8
0
  6
CONTINUOUS
 62
   249
 10
261.833156
 20
144.51
 30
0.0
 70
    64
  0
VERTEX
  8
0
  6
CONTINUOUS
 62
   249
 10
261.846876
 20
144.51
 30
0.0
 70
    64
  0
VERTEX
  8
0
  6
CONTINUOUS
 62
   249
 10
261.860596
 20
144.51
 30
0.0
 70
    64
  0
VERTEX
  8
0
  6
CONTINUOUS
 62
   249
 10
261.874316
 20
144.51
 30
0.0
 70
    64
  0
VERTEX
  8
0
  6
CONTINUOUS
 62
   249
 10
261.888036
 20
144.51
 30
0.0
 70
    64
  0
VERTEX
  8
0
  6
CONTINUOUS
 62
   249
 10
261.901756
 20
144.51
 30
0.0
 70
    64
  0
VERTEX
  8
0
  6
CONTINUOUS
 62
   249
 10
261.915476
 20
144.51
 30
0.0
 70
    64
  0
VERTEX
  8
0
  6
CONTINUOUS
 62
   249
 10
261.929196
 20
144.51
 30
0.0
 70
    64
  0
VERTEX
  8
0
  6
CONTINUOUS
 62
   249
 10
261.942916
 20
144.51
 30
0.0
 70
    64
  0
VERTEX
  8
0
  6
CONTINUOUS
 62
   249
 10
261.956636
 20
144.51
 30
0.0
 70
    64
  0
VERTEX
  8
0
  6
CONTINUOUS
 62
   249
 10
261.970356
 20
144.51
 30
0.0
 70
    64
  0
VERTEX
  8
0
  6
CONTINUOUS
 62
   249
 10
261.984076
 20
144.51
 30
0.0
 70
    64
  0
VERTEX
  8
0
  6
CONTINUOUS
 62
   249
 10
261.997796
 20
144.51
 30
0.0
 70
    64
  0
VERTEX
  8
0
  6
CONTINUOUS
 62
   249
 10
262.011516
 20
144.51
 30
0.0
 70
    64
  0
VERTEX
  8
0
  6
CONTINUOUS
 62
   249
 10
262.025236
 20
144.51
 30
0.0
 70
    64
  0
VERTEX
  8
0
  6
CONTINUOUS
 62
   249
 10
262.038956
 20
144.51
 30
0.0
 70
    64
  0
VERTEX
  8
0
  6
CONTINUOUS
 62
   249
 10
262.052676
 20
144.51
 30
0.0
 70
    64
  0
VERTEX
  8
0
  6
CONTINUOUS
 62
   249
 10
262.066396
 20
144.51
 30
0.0
 70
    64
  0
VERTEX
  8
0
  6
CONTINUOUS
 62
   249
 10
262.080116
 20
144.51
 30
0.0
 70
    64
  0
VERTEX
  8
0
  6
CONTINUOUS
 62
   249
 10
262.093836
 20
144.51
 30
0.0
 70
    64
  0
VERTEX
  8
0
  6
CONTINUOUS
 62
   249
 10
262.107556
 20
144.51
 30
0.0
 70
    64
  0
VERTEX
  8
0
  6
CONTINUOUS
 62
   249
 10
262.121276
 20
144.51
 30
0.0
 70
    64
  0
VERTEX
  8
0
  6
CONTINUOUS
 62
   249
 10
262.134996
 20
144.51
 30
0.0
 70
    64
  0
VERTEX
  8
0
  6
CONTINUOUS
 62
   249
 10
262.148716
 20
144.51
 30
0.0
 70
    64
  0
VERTEX
  8
0
  6
CONTINUOUS
 62
   249
 10
262.162436
 20
144.51
 30
0.0
 70
    64
  0
VERTEX
  8
0
  6
CONTINUOUS
 62
   249
 10
262.176156
 20
144.51
 30
0.0
 70
    64
  0
VERTEX
  8
0
  6
CONTINUOUS
 62
   249
 10
262.189876
 20
144.51
 30
0.0
 70
    64
  0
VERTEX
  8
0
  6
CONTINUOUS
 62
   249
 10
262.203596
 20
144.51
 30
0.0
 70
    64
  0
VERTEX
  8
0
  6
CONTINUOUS
 62
   249
 10
262.217316
 20
144.51
 30
0.0
 70
    64
  0
VERTEX
  8
0
  6
CONTINUOUS
 62
   249
 10
262.231036
 20
144.51
 30
0.0
 70
    64
  0
VERTEX
  8
0
  6
CONTINUOUS
 62
   249
 10
262.244756
 20
144.51
 30
0.0
 70
    64
  0
VERTEX
  8
0
  6
CONTINUOUS
 62
   249
 10
262.258476
 20
144.51
 30
0.0
 70
    64
  0
VERTEX
  8
0
  6
CONTINUOUS
 62
   249
 10
262.272196
 20
144.51
 30
0.0
 70
    64
  0
VERTEX
  8
0
  6
CONTINUOUS
 62
   249
 10
262.285916
 20
144.51
 30
0.0
 70
    64
  0
VERTEX
  8
0
  6
CONTINUOUS
 62
   249
 10
262.299636
 20
144.51
 30
0.0
 70
    64
  0
VERTEX
  8
0
  6
CONTINUOUS
 62
   249
 10
262.313356
 20
144.51
 30
0.0
 70
    64
  0
VERTEX
  8
0
  6
CONTINUOUS
 62
   249
 10
262.327076
 20
144.51
 30
0.0
 70
    64
  0
VERTEX
  8
0
  6
CONTINUOUS
 62
   249
 10
262.340796
 20
144.51
 30
0.0
 70
    64
  0
VERTEX
  8
0
  6
CONTINUOUS
 62
   249
 10
262.354516
 20
144.51
 30
0.0
 70
    64
  0
VERTEX
  8
0
  6
CONTINUOUS
 62
   249
 10
262.368236
 20
144.51
 30
0.0
 70
    64
  0
VERTEX
  8
0
  6
CONTINUOUS
 62
   249
 10
262.381956
 20
144.51
 30
0.0
 70
    64
  0
VERTEX
  8
0
  6
CONTINUOUS
 62
   249
 10
262.395676
 20
144.51
 30
0.0
 70
    64
  0
VERTEX
  8
0
  6
CONTINUOUS
 62
   249
 10
262.409396
 20
144.51
 30
0.0
 70
    64
  0
VERTEX
  8
0
  6
CONTINUOUS
 62
   249
 10
262.423116
 20
144.51
 30
0.0
 70
    64
  0
VERTEX
  8
0
  6
CONTINUOUS
 62
   249
 10
262.436836
 20
144.51
 30
0.0
 70
    64
  0
VERTEX
  8
0
  6
CONTINUOUS
 62
   249
 10
262.450556
 20
144.51
 30
0.0
 70
    64
  0
VERTEX
  8
0
  6
CONTINUOUS
 62
   249
 10
262.464276
 20
144.51
 30
0.0
 70
    64
  0
VERTEX
  8
0
  6
CONTINUOUS
 62
   249
 10
262.477996
 20
144.51
 30
0.0
 70
    64
  0
VERTEX
  8
0
  6
CONTINUOUS
 62
   249
 10
262.491716
 20
144.51
 30
0.0
 70
    64
  0
VERTEX
  8
0
  6
CONTINUOUS
 62
   249
 10
262.505436
 20
144.51
 30
0.0
 70
    64
  0
VERTEX
  8
0
  6
CONTINUOUS
 62
   249
 10
262.519156
 20
144.51
 30
0.0
 70
    64
  0
VERTEX
  8
0
  6
CONTINUOUS
 62
   249
 10
262.532876
 20
144.51
 30
0.0
 70
    64
  0
VERTEX
  8
0
  6
CONTINUOUS
 62
   249
 10
262.546596
 20
144.51
 30
0.0
 70
    64
  0
VERTEX
  8
0
  6
CONTINUOUS
 62
   249
 10
262.560316
 20
144.51
 30
0.0
 70
    64
  0
VERTEX
  8
0
  6
CONTINUOUS
 62
   249
 10
262.574036
 20
144.51
 30
0.0
 70
    64
  0
VERTEX
  8
0
  6
CONTINUOUS
 62
   249
 10
262.587756
 20
144.51
 30
0.0
 70
    64
  0
VERTEX
  8
0
  6
CONTINUOUS
 62
   249
 10
262.601476
 20
144.51
 30
0.0
 70
    64
  0
VERTEX
  8
0
  6
CONTINUOUS
 62
   249
 10
262.615196
 20
144.51
 30
0.0
 70
    64
  0
VERTEX
  8
0
  6
CONTINUOUS
 62
   249
 10
262.628916
 20
144.51
 30
0.0
 70
    64
  0
VERTEX
  8
0
  6
CONTINUOUS
 62
   249
 10
262.642636
 20
144.51
 30
0.0
 70
    64
  0
VERTEX
  8
0
  6
CONTINUOUS
 62
   249
 10
262.656356
 20
144.51
 30
0.0
 70
    64
  0
VERTEX
  8
0
  6
CONTINUOUS
 62
   249
 10
262.670076
 20
144.51
 30
0.0
 70
    64
  0
VERTEX
  8
0
  6
CONTINUOUS
 62
   249
 10
262.683796
 20
144.51
 30
0.0
 70
    64
  0
VERTEX
  8
0
  6
CONTINUOUS
 62
   249
 10
262.697516
 20
144.51
 30
0.0
 70
    64
  0
VERTEX
  8
0
  6
CONTINUOUS
 62
   249
 10
262.711236
 20
144.51
 30
0.0
 70
    64
  0
VERTEX
  8
0
  6
CONTINUOUS
 62
   249
 10
262.724956
 20
144.51
 30
0.0
 70
    64
  0
VERTEX
  8
0
  6
CONTINUOUS
 62
   249
 10
262.738676
 20
144.51
 30
0.0
 70
    64
  0
VERTEX
  8
0
  6
CONTINUOUS
 62
   249
 10
262.752396
 20
144.51
 30
0.0
 70
    64
  0
VERTEX
  8
0
  6
CONTINUOUS
 62
   249
 10
262.766116
 20
144.51
 30
0.0
 70
    64
  0
VERTEX
  8
0
  6
CONTINUOUS
 62
   249
 10
262.779836
 20
144.51
 30
0.0
 70
    64
  0
VERTEX
  8
0
  6
CONTINUOUS
 62
   249
 10
262.793556
 20
144.51
 30
0.0
 70
    64
  0
VERTEX
  8
0
  6
CONTINUOUS
 62
   249
 10
262.807276
 20
144.51
 30
0.0
 70
    64
  0
VERTEX
  8
0
  6
CONTINUOUS
 62
   249
 10
262.820996
 20
144.51
 30
0.0
 70
    64
  0
VERTEX
  8
0
  6
CONTINUOUS
 62
   249
 10
262.834716
 20
144.51
 30
0.0
 70
    64
  0
VERTEX
  8
0
  6
CONTINUOUS
 62
   249
 10
262.848436
 20
144.51
 30
0.0
 70
    64
  0
VERTEX
  8
0
  6
CONTINUOUS
 62
   249
 10
262.862156
 20
144.51
 30
0.0
 70
    64
  0
VERTEX
  8
0
  6
CONTINUOUS
 62
   249
 10
262.875876
 20
144.51
 30
0.0
 70
    64
  0
VERTEX
  8
0
  6
CONTINUOUS
 62
   249
 10
262.889596
 20
144.51
 30
0.0
 70
    64
  0
VERTEX
  8
0
  6
CONTINUOUS
 62
   249
 10
262.903316
 20
144.51
 30
0.0
 70
    64
  0
VERTEX
  8
0
  6
CONTINUOUS
 62
   249
 10
262.917036
 20
144.51
 30
0.0
 70
    64
  0
VERTEX
  8
0
  6
CONTINUOUS
 62
   249
 10
262.930756
 20
144.51
 30
0.0
 70
    64
  0
VERTEX
  8
0
  6
CONTINUOUS
 62
   249
 10
262.944476
 20
144.51
 30
0.0
 70
    64
  0
VERTEX
  8
0
  6
CONTINUOUS
 62
   249
 10
262.958196
 20
144.51
 30
0.0
 70
    64
  0
VERTEX
  8
0
  6
CONTINUOUS
 62
   249
 10
262.971916
 20
144.51
 30
0.0
 70
    64
  0
VERTEX
  8
0
  6
CONTINUOUS
 62
   249
 10
262.985636
 20
144.51
 30
0.0
 70
    64
  0
VERTEX
  8
0
  6
CONTINUOUS
 62
   249
 10
262.999356
 20
144.51
 30
0.0
 70
    64
  0
VERTEX
  8
0
  6
CONTINUOUS
 62
   249
 10
263.013076
 20
144.51
 30
0.0
 70
    64
  0
VERTEX
  8
0
  6
CONTINUOUS
 62
   249
 10
263.026796
 20
144.51
 30
0.0
 70
    64
  0
VERTEX
  8
0
  6
CONTINUOUS
 62
   249
 10
263.040516
 20
144.51
 30
0.0
 70
    64
  0
VERTEX
  8
0
  6
CONTINUOUS
 62
   249
 10
263.054236
 20
144.51
 30
0.0
 70
    64
  0
VERTEX
  8
0
  6
CONTINUOUS
 62
   249
 10
263.067956
 20
144.51
 30
0.0
 70
    64
  0
VERTEX
  8
0
  6
CONTINUOUS
 62
   249
 10
263.081676
 20
144.51
 30
0.0
 70
    64
  0
VERTEX
  8
0
  6
CONTINUOUS
 62
   249
 10
263.095396
 20
144.51
 30
0.0
 70
    64
  0
VERTEX
  8
0
  6
CONTINUOUS
 62
   249
 10
263.109116
 20
144.51
 30
0.0
 70
    64
  0
VERTEX
  8
0
  6
CONTINUOUS
 62
   249
 10
263.122836
 20
144.51
 30
0.0
 70
    64
  0
VERTEX
  8
0
  6
CONTINUOUS
 62
   249
 10
263.136556
 20
144.51
 30
0.0
 70
    64
  0
VERTEX
  8
0
  6
CONTINUOUS
 62
   249
 10
263.150276
 20
144.51
 30
0.0
 70
    64
  0
VERTEX
  8
0
  6
CONTINUOUS
 62
   249
 10
263.163996
 20
144.51
 30
0.0
 70
    64
  0
VERTEX
  8
0
  6
CONTINUOUS
 62
   249
 10
263.177716
 20
144.51
 30
0.0
 70
    64
  0
VERTEX
  8
0
  6
CONTINUOUS
 62
   249
 10
263.191436
 20
144.51
 30
0.0
 70
    64
  0
VERTEX
  8
0
  6
CONTINUOUS
 62
   249
 10
263.205156
 20
144.51
 30
0.0
 70
    64
  0
VERTEX
  8
0
  6
CONTINUOUS
 62
   249
 10
263.218876
 20
144.51
 30
0.0
 70
    64
  0
VERTEX
  8
0
  6
CONTINUOUS
 62
   249
 10
263.232596
 20
144.51
 30
0.0
 70
    64
  0
VERTEX
  8
0
  6
CONTINUOUS
 62
   249
 10
263.246316
 20
144.51
 30
0.0
 70
    64
  0
VERTEX
  8
0
  6
CONTINUOUS
 62
   249
 10
263.260036
 20
144.51
 30
0.0
 70
    64
  0
VERTEX
  8
0
  6
CONTINUOUS
 62
   249
 10
263.273756
 20
144.51
 30
0.0
 70
    64
  0
VERTEX
  8
0
  6
CONTINUOUS
 62
   249
 10
263.287476
 20
144.51
 30
0.0
 70
    64
  0
VERTEX
  8
0
  6
CONTINUOUS
 62
   249
 10
263.301196
 20
144.51
 30
0.0
 70
    64
  0
VERTEX
  8
0
  6
CONTINUOUS
 62
   249
 10
263.314916
 20
144.51
 30
0.0
 70
    64
  0
VERTEX
  8
0
  6
CONTINUOUS
 62
   249
 10
263.328636
 20
144.51
 30
0.0
 70
    64
  0
VERTEX
  8
0
  6
CONTINUOUS
 62
   249
 10
263.342356
 20
144.51
 30
0.0
 70
    64
  0
VERTEX
  8
0
  6
CONTINUOUS
 62
   249
 10
263.356076
 20
144.51
 30
0.0
 70
    64
  0
VERTEX
  8
0
  6
CONTINUOUS
 62
   249
 10
263.369796
 20
144.51
 30
0.0
 70
    64
  0
VERTEX
  8
0
  6
CONTINUOUS
 62
   249
 10
263.383516
 20
144.51
 30
0.0
 70
    64
  0
VERTEX
  8
0
  6
CONTINUOUS
 62
   249
 10
263.397236
 20
144.51
 30
0.0
 70
    64
  0
VERTEX
  8
0
  6
CONTINUOUS
 62
   249
 10
263.410956
 20
144.51
 30
0.0
 70
    64
  0
VERTEX
  8
0
  6
CONTINUOUS
 62
   249
 10
263.424676
 20
144.51
 30
0.0
 70
    64
  0
VERTEX
  8
0
  6
CONTINUOUS
 62
   249
 10
263.438396
 20
144.51
 30
0.0
 70
    64
  0
VERTEX
  8
0
  6
CONTINUOUS
 62
   249
 10
263.452116
 20
144.51
 30
0.0
 70
    64
  0
VERTEX
  8
0
  6
CONTINUOUS
 62
   249
 10
263.465836
 20
144.51
 30
0.0
 70
    64
  0
VERTEX
  8
0
  6
CONTINUOUS
 62
   249
 10
263.479556
 20
144.51
 30
0.0
 70
    64
  0
VERTEX
  8
0
  6
CONTINUOUS
 62
   249
 10
263.493276
 20
144.51
 30
0.0
 70
    64
  0
VERTEX
  8
0
  6
CONTINUOUS
 62
   249
 10
263.506996
 20
144.51
 30
0.0
 70
    64
  0
VERTEX
  8
0
  6
CONTINUOUS
 62
   249
 10
263.520716
 20
144.51
 30
0.0
 70
    64
  0
VERTEX
  8
0
  6
CONTINUOUS
 62
   249
 10
263.534436
 20
144.51
 30
0.0
 70
    64
  0
VERTEX
  8
0
  6
CONTINUOUS
 62
   249
 10
263.548156
 20
144.51
 30
0.0
 70
    64
  0
VERTEX
  8
0
  6
CONTINUOUS
 62
   249
 10
263.561876
 20
144.51
 30
0.0
 70
    64
  0
VERTEX
  8
0
  6
CONTINUOUS
 62
   249
 10
263.575596
 20
144.51
 30
0.0
 70
    64
  0
VERTEX
  8
0
  6
CONTINUOUS
 62
   249
 10
263.589316
 20
144.51
 30
0.0
 70
    64
  0
VERTEX
  8
0
  6
CONTINUOUS
 62
   249
 10
263.603036
 20
144.51
 30
0.0
 70
    64
  0
VERTEX
  8
0
  6
CONTINUOUS
 62
   249
 10
263.616756
 20
144.51
 30
0.0
 70
    64
  0
VERTEX
  8
0
  6
CONTINUOUS
 62
   249
 10
263.630476
 20
144.51
 30
0.0
 70
    64
  0
VERTEX
  8
0
  6
CONTINUOUS
 62
   249
 10
263.644196
 20
144.51
 30
0.0
 70
    64
  0
VERTEX
  8
0
  6
CONTINUOUS
 62
   249
 10
263.657916
 20
144.51
 30
0.0
 70
    64
  0
VERTEX
  8
0
  6
CONTINUOUS
 62
   249
 10
263.671636
 20
144.51
 30
0.0
 70
    64
  0
VERTEX
  8
0
  6
CONTINUOUS
 62
   249
 10
263.685356
 20
144.51
 30
0.0
 70
    64
  0
VERTEX
  8
0
  6
CONTINUOUS
 62
   249
 10
263.699076
 20
144.51
 30
0.0
 70
    64
  0
VERTEX
  8
0
  6
CONTINUOUS
 62
   249
 10
263.712796
 20
144.51
 30
0.0
 70
    64
  0
VERTEX
  8
0
  6
CONTINUOUS
 62
   249
 10
263.726516
 20
144.51
 30
0.0
 70
    64
  0
VERTEX
  8
0
  6
CONTINUOUS
 62
   249
 10
263.740236
 20
144.51
 30
0.0
 70
    64
  0
VERTEX
  8
0
  6
CONTINUOUS
 62
   249
 10
263.753956
 20
144.51
 30
0.0
 70
    64
  0
VERTEX
  8
0
  6
CONTINUOUS
 62
   249
 10
263.767676
 20
144.51
 30
0.0
 70
    64
  0
VERTEX
  8
0
  6
CONTINUOUS
 62
   249
 10
263.781396
 20
144.51
 30
0.0
 70
    64
  0
VERTEX
  8
0
  6
CONTINUOUS
 62
   249
 10
263.795116
 20
144.51
 30
0.0
 70
    64
  0
VERTEX
  8
0
  6
CONTINUOUS
 62
   249
 10
263.808836
 20
144.51
 30
0.0
 70
    64
  0
VERTEX
  8
0
  6
CONTINUOUS
 62
   249
 10
263.822556
 20
144.51
 30
0.0
 70
    64
  0
VERTEX
  8
0
  6
CONTINUOUS
 62
   249
 10
263.836276
 20
144.51
 30
0.0
 70
    64
  0
VERTEX
  8
0
  6
CONTINUOUS
 62
   249
 10
263.849996
 20
144.51
 30
0.0
 70
    64
  0
VERTEX
  8
0
  6
CONTINUOUS
 62
   249
 10
263.863716
 20
144.51
 30
0.0
 70
    64
  0
VERTEX
  8
0
  6
CONTINUOUS
 62
   249
 10
263.877436
 20
144.51
 30
0.0
 70
    64
  0
VERTEX
  8
0
  6
CONTINUOUS
 62
   249
 10
263.891156
 20
144.51
 30
0.0
 70
    64
  0
VERTEX
  8
0
  6
CONTINUOUS
 62
   249
 10
263.904876
 20
144.51
 30
0.0
 70
    64
  0
VERTEX
  8
0
  6
CONTINUOUS
 62
   249
 10
263.918596
 20
144.51
 30
0.0
 70
    64
  0
VERTEX
  8
0
  6
CONTINUOUS
 62
   249
 10
263.932316
 20
144.51
 30
0.0
 70
    64
  0
VERTEX
  8
0
  6
CONTINUOUS
 62
   249
 10
263.946036
 20
144.51
 30
0.0
 70
    64
  0
VERTEX
  8
0
  6
CONTINUOUS
 62
   249
 10
263.959756
 20
144.51
 30
0.0
 70
    64
  0
VERTEX
  8
0
  6
CONTINUOUS
 62
   249
 10
263.973476
 20
144.51
 30
0.0
 70
    64
  0
VERTEX
  8
0
  6
CONTINUOUS
 62
   249
 10
263.987196
 20
144.51
 30
0.0
 70
    64
  0
VERTEX
  8
0
  6
CONTINUOUS
 62
   249
 10
264.000916
 20
144.51
 30
0.0
 70
    64
  0
VERTEX
  8
0
  6
CONTINUOUS
 62
   249
 10
264.014636
 20
144.51
 30
0.0
 70
    64
  0
VERTEX
  8
0
  6
CONTINUOUS
 62
   249
 10
264.028356
 20
144.51
 30
0.0
 70
    64
  0
VERTEX
  8
0
  6
CONTINUOUS
 62
   249
 10
264.042076
 20
144.51
 30
0.0
 70
    64
  0
VERTEX
  8
0
  6
CONTINUOUS
 62
   249
 10
264.055796
 20
144.51
 30
0.0
 70
    64
  0
VERTEX
  8
0
  6
CONTINUOUS
 62
   249
 10
264.069516
 20
144.51
 30
0.0
 70
    64
  0
VERTEX
  8
0
  6
CONTINUOUS
 62
   249
 10
264.083236
 20
144.51
 30
0.0
 70
    64
  0
VERTEX
  8
0
  6
CONTINUOUS
 62
   249
 10
264.096956
 20
144.51
 30
0.0
 70
    64
  0
VERTEX
  8
0
  6
CONTINUOUS
 62
   249
 10
264.110676
 20
144.51
 30
0.0
 70
    64
  0
VERTEX
  8
0
  6
CONTINUOUS
 62
   249
 10
264.124396
 20
144.51
 30
0.0
 70
    64
  0
VERTEX
  8
0
  6
CONTINUOUS
 62
   249
 10
264.138116
 20
144.51
 30
0.0
 70
    64
  0
VERTEX
  8
0
  6
CONTINUOUS
 62
   249
 10
264.151836
 20
144.51
 30
0.0
 70
    64
  0
VERTEX
  8
0
  6
CONTINUOUS
 62
   249
 10
264.165556
 20
144.51
 30
0.0
 70
    64
  0
VERTEX
  8
0
  6
CONTINUOUS
 62
   249
 10
264.179276
 20
144.51
 30
0.0
 70
    64
  0
VERTEX
  8
0
  6
CONTINUOUS
 62
   249
 10
264.192996
 20
144.51
 30
0.0
 70
    64
  0
VERTEX
  8
0
  6
CONTINUOUS
 62
   249
 10
264.206716
 20
144.51
 30
0.0
 70
    64
  0
VERTEX
  8
0
  6
CONTINUOUS
 62
   249
 10
264.220436
 20
144.51
 30
0.0
 70
    64
  0
VERTEX
  8
0
  6
CONTINUOUS
 62
   249
 10
264.234156
 20
144.51
 30
0.0
 70
    64
  0
VERTEX
  8
0
  6
CONTINUOUS
 62
   249
 10
264.247876
 20
144.51
 30
0.0
 70
    64
  0
VERTEX
  8
0
  6
CONTINUOUS
 62
   249
 10
264.261596
 20
144.51
 30
0.0
 70
    64
  0
VERTEX
  8
0
  6
CONTINUOUS
 62
   249
 10
264.275316
 20
144.51
 30
0.0
 70
    64
  0
VERTEX
  8
0
  6
CONTINUOUS
 62
   249
 10
264.289036
 20
144.51
 30
0.0
 70
    64
  0
VERTEX
  8
0
  6
CONTINUOUS
 62
   249
 10
264.302756
 20
144.51
 30
0.0
 70
    64
  0
VERTEX
  8
0
  6
CONTINUOUS
 62
   249
 10
264.316476
 20
144.51
 30
0.0
 70
    64
  0
VERTEX
  8
0
  6
CONTINUOUS
 62
   249
 10
264.330196
 20
144.51
 30
0.0
 70
    64
  0
VERTEX
  8
0
  6
CONTINUOUS
 62
   249
 10
264.343916
 20
144.51
 30
0.0
 70
    64
  0
VERTEX
  8
0
  6
CONTINUOUS
 62
   249
 10
264.357636
 20
144.51
 30
0.0
 70
    64
  0
VERTEX
  8
0
  6
CONTINUOUS
 62
   249
 10
264.371356
 20
144.51
 30
0.0
 70
    64
  0
VERTEX
  8
0
  6
CONTINUOUS
 62
   249
 10
264.385076
 20
144.51
 30
0.0
 70
    64
  0
VERTEX
  8
0
  6
CONTINUOUS
 62
   249
 10
264.398796
 20
144.51
 30
0.0
 70
    64
  0
VERTEX
  8
0
  6
CONTINUOUS
 62
   249
 10
264.412516
 20
144.51
 30
0.0
 70
    64
  0
VERTEX
  8
0
  6
CONTINUOUS
 62
   249
 10
264.426236
 20
144.51
 30
0.0
 70
    64
  0
VERTEX
  8
0
  6
CONTINUOUS
 62
   249
 10
264.439956
 20
144.51
 30
0.0
 70
    64
  0
VERTEX
  8
0
  6
CONTINUOUS
 62
   249
 10
264.453676
 20
144.51
 30
0.0
 70
    64
  0
VERTEX
  8
0
  6
CONTINUOUS
 62
   249
 10
264.467396
 20
144.51
 30
0.0
 70
    64
  0
VERTEX
  8
0
  6
CONTINUOUS
 62
   249
 10
264.481116
 20
144.51
 30
0.0
 70
    64
  0
VERTEX
  8
0
  6
CONTINUOUS
 62
   249
 10
264.494836
 20
144.51
 30
0.0
 70
    64
  0
VERTEX
  8
0
  6
CONTINUOUS
 62
   249
 10
264.508556
 20
144.51
 30
0.0
 70
    64
  0
VERTEX
  8
0
  6
CONTINUOUS
 62
   249
 10
264.522276
 20
144.51
 30
0.0
 70
    64
  0
VERTEX
  8
0
  6
CONTINUOUS
 62
   249
 10
264.535996
 20
144.51
 30
0.0
 70
    64
  0
VERTEX
  8
0
  6
CONTINUOUS
 62
   249
 10
264.549716
 20
144.51
 30
0.0
 70
    64
  0
VERTEX
  8
0
  6
CONTINUOUS
 62
   249
 10
264.563436
 20
144.51
 30
0.0
 70
    64
  0
VERTEX
  8
0
  6
CONTINUOUS
 62
   249
 10
264.577156
 20
144.51
 30
0.0
 70
    64
  0
VERTEX
  8
0
  6
CONTINUOUS
 62
   249
 10
264.590876
 20
144.51
 30
0.0
 70
    64
  0
VERTEX
  8
0
  6
CONTINUOUS
 62
   249
 10
264.604596
 20
144.51
 30
0.0
 70
    64
  0
VERTEX
  8
0
  6
CONTINUOUS
 62
   249
 10
264.618316
 20
144.51
 30
0.0
 70
    64
  0
VERTEX
  8
0
  6
CONTINUOUS
 62
   249
 10
264.632036
 20
144.51
 30
0.0
 70
    64
  0
VERTEX
  8
0
  6
CONTINUOUS
 62
   249
 10
264.645756
 20
144.51
 30
0.0
 70
    64
  0
VERTEX
  8
0
  6
CONTINUOUS
 62
   249
 10
264.659476
 20
144.51
 30
0.0
 70
    64
  0
VERTEX
  8
0
  6
CONTINUOUS
 62
   249
 10
264.673196
 20
144.51
 30
0.0
 70
    64
  0
VERTEX
  8
0
  6
CONTINUOUS
 62
   249
 10
264.686916
 20
144.51
 30
0.0
 70
    64
  0
VERTEX
  8
0
  6
CONTINUOUS
 62
   249
 10
264.700636
 20
144.51
 30
0.0
 70
    64
  0
VERTEX
  8
0
  6
CONTINUOUS
 62
   249
 10
264.714356
 20
144.51
 30
0.0
 70
    64
  0
VERTEX
  8
0
  6
CONTINUOUS
 62
   249
 10
264.728076
 20
144.51
 30
0.0
 70
    64
  0
VERTEX
  8
0
  6
CONTINUOUS
 62
   249
 10
264.741796
 20
144.51
 30
0.0
 70
    64
  0
VERTEX
  8
0
  6
CONTINUOUS
 62
   249
 10
264.755516
 20
144.51
 30
0.0
 70
    64
  0
VERTEX
  8
0
  6
CONTINUOUS
 62
   249
 10
264.769236
 20
144.51
 30
0.0
 70
    64
  0
VERTEX
  8
0
  6
CONTINUOUS
 62
   249
 10
264.782956
 20
144.51
 30
0.0
 70
    64
  0
VERTEX
  8
0
  6
CONTINUOUS
 62
   249
 10
264.796676
 20
144.51
 30
0.0
 70
    64
  0
VERTEX
  8
0
  6
CONTINUOUS
 62
   249
 10
264.810396
 20
144.51
 30
0.0
 70
    64
  0
VERTEX
  8
0
  6
CONTINUOUS
 62
   249
 10
264.824116
 20
144.51
 30
0.0
 70
    64
  0
VERTEX
  8
0
  6
CONTINUOUS
 62
   249
 10
264.837836
 20
144.51
 30
0.0
 70
    64
  0
VERTEX
  8
0
  6
CONTINUOUS
 62
   249
 10
264.851556
 20
144.51
 30
0.0
 70
    64
  0
VERTEX
  8
0
  6
CONTINUOUS
 62
   249
 10
264.865276
 20
144.51
 30
0.0
 70
    64
  0
VERTEX
  8
0
  6
CONTINUOUS
 62
   249
 10
264.878996
 20
144.51
 30
0.0
 70
    64
  0
VERTEX
  8
0
  6
CONTINUOUS
 62
   249
 10
264.892716
 20
144.51
 30
0.0
 70
    64
  0
VERTEX
  8
0
  6
CONTINUOUS
 62
   249
 10
264.906436
 20
144.51
 30
0.0
 70
    64
  0
VERTEX
  8
0
  6
CONTINUOUS
 62
   249
 10
264.920156
 20
144.51
 30
0.0
 70
    64
  0
VERTEX
  8
0
  6
CONTINUOUS
 62
   249
 10
264.933876
 20
144.51
 30
0.0
 70
    64
  0
VERTEX
  8
0
  6
CONTINUOUS
 62
   249
 10
264.947596
 20
144.51
 30
0.0
 70
    64
  0
VERTEX
  8
0
  6
CONTINUOUS
 62
   249
 10
264.961316
 20
144.51
 30
0.0
 70
    64
  0
VERTEX
  8
0
  6
CONTINUOUS
 62
   249
 10
264.975036
 20
144.51
 30
0.0
 70
    64
  0
VERTEX
  8
0
  6
CONTINUOUS
 62
   249
 10
264.988756
 20
144.51
 30
0.0
 70
    64
  0
VERTEX
  8
0
  6
CONTINUOUS
 62
   249
 10
265.002476
 20
144.51
 30
0.0
 70
    64
  0
VERTEX
  8
0
  6
CONTINUOUS
 62
   249
 10
265.016196
 20
144.51
 30
0.0
 70
    64
  0
VERTEX
  8
0
  6
CONTINUOUS
 62
   249
 10
265.029916
 20
144.51
 30
0.0
 70
    64
  0
VERTEX
  8
0
  6
CONTINUOUS
 62
   249
 10
265.043636
 20
144.51
 30
0.0
 70
    64
  0
VERTEX
  8
0
  6
CONTINUOUS
 62
   249
 10
265.057356
 20
144.51
 30
0.0
 70
    64
  0
VERTEX
  8
0
  6
CONTINUOUS
 62
   249
 10
265.071076
 20
144.51
 30
0.0
 70
    64
  0
VERTEX
  8
0
  6
CONTINUOUS
 62
   249
 10
265.084796
 20
144.51
 30
0.0
 70
    64
  0
VERTEX
  8
0
  6
CONTINUOUS
 62
   249
 10
265.098516
 20
144.51
 30
0.0
 70
    64
  0
VERTEX
  8
0
  6
CONTINUOUS
 62
   249
 10
265.112236
 20
144.51
 30
0.0
 70
    64
  0
VERTEX
  8
0
  6
CONTINUOUS
 62
   249
 10
265.125956
 20
144.51
 30
0.0
 70
    64
  0
VERTEX
  8
0
  6
CONTINUOUS
 62
   249
 10
265.139676
 20
144.51
 30
0.0
 70
    64
  0
VERTEX
  8
0
  6
CONTINUOUS
 62
   249
 10
265.153396
 20
144.51
 30
0.0
 70
    64
  0
VERTEX
  8
0
  6
CONTINUOUS
 62
   249
 10
265.167116
 20
144.51
 30
0.0
 70
    64
  0
VERTEX
  8
0
  6
CONTINUOUS
 62
   249
 10
265.180836
 20
144.51
 30
0.0
 70
    64
  0
VERTEX
  8
0
  6
CONTINUOUS
 62
   249
 10
265.194556
 20
144.51
 30
0.0
 70
    64
  0
VERTEX
  8
0
  6
CONTINUOUS
 62
   249
 10
265.208276
 20
144.51
 30
0.0
 70
    64
  0
VERTEX
  8
0
  6
CONTINUOUS
 62
   249
 10
265.221996
 20
144.51
 30
0.0
 70
    64
  0
VERTEX
  8
0
  6
CONTINUOUS
 62
   249
 10
265.235716
 20
144.51
 30
0.0
 70
    64
  0
VERTEX
  8
0
  6
CONTINUOUS
 62
   249
 10
265.249436
 20
144.51
 30
0.0
 70
    64
  0
VERTEX
  8
0
  6
CONTINUOUS
 62
   249
 10
261.819436
 20
145.49
 30
0.0
 70
    64
  0
VERTEX
  8
0
  6
CONTINUOUS
 62
   249
 10
261.833156
 20
145.49
 30
0.0
 70
    64
  0
VERTEX
  8
0
  6
CONTINUOUS
 62
   249
 10
261.846876
 20
145.49
 30
0.0
 70
    64
  0
VERTEX
  8
0
  6
CONTINUOUS
 62
   249
 10
261.860596
 20
145.49
 30
0.0
 70
    64
  0
VERTEX
  8
0
  6
CONTINUOUS
 62
   249
 10
261.874316
 20
145.49
 30
0.0
 70
    64
  0
VERTEX
  8
0
  6
CONTINUOUS
 62
   249
 10
261.888036
 20
145.49
 30
0.0
 70
    64
  0
VERTEX
  8
0
  6
CONTINUOUS
 62
   249
 10
261.901756
 20
145.49
 30
0.0
 70
    64
  0
VERTEX
  8
0
  6
CONTINUOUS
 62
   249
 10
261.915476
 20
145.49
 30
0.0
 70
    64
  0
VERTEX
  8
0
  6
CONTINUOUS
 62
   249
 10
261.929196
 20
145.49
 30
0.0
 70
    64
  0
VERTEX
  8
0
  6
CONTINUOUS
 62
   249
 10
261.942916
 20
145.49
 30
0.0
 70
    64
  0
VERTEX
  8
0
  6
CONTINUOUS
 62
   249
 10
261.956636
 20
145.49
 30
0.0
 70
    64
  0
VERTEX
  8
0
  6
CONTINUOUS
 62
   249
 10
261.970356
 20
145.49
 30
0.0
 70
    64
  0
VERTEX
  8
0
  6
CONTINUOUS
 62
   249
 10
261.984076
 20
145.49
 30
0.0
 70
    64
  0
VERTEX
  8
0
  6
CONTINUOUS
 62
   249
 10
261.997796
 20
145.49
 30
0.0
 70
    64
  0
VERTEX
  8
0
  6
CONTINUOUS
 62
   249
 10
262.011516
 20
145.49
 30
0.0
 70
    64
  0
VERTEX
  8
0
  6
CONTINUOUS
 62
   249
 10
262.025236
 20
145.49
 30
0.0
 70
    64
  0
VERTEX
  8
0
  6
CONTINUOUS
 62
   249
 10
262.038956
 20
145.49
 30
0.0
 70
    64
  0
VERTEX
  8
0
  6
CONTINUOUS
 62
   249
 10
262.052676
 20
145.49
 30
0.0
 70
    64
  0
VERTEX
  8
0
  6
CONTINUOUS
 62
   249
 10
262.066396
 20
145.49
 30
0.0
 70
    64
  0
VERTEX
  8
0
  6
CONTINUOUS
 62
   249
 10
262.080116
 20
145.49
 30
0.0
 70
    64
  0
VERTEX
  8
0
  6
CONTINUOUS
 62
   249
 10
262.093836
 20
145.49
 30
0.0
 70
    64
  0
VERTEX
  8
0
  6
CONTINUOUS
 62
   249
 10
262.107556
 20
145.49
 30
0.0
 70
    64
  0
VERTEX
  8
0
  6
CONTINUOUS
 62
   249
 10
262.121276
 20
145.49
 30
0.0
 70
    64
  0
VERTEX
  8
0
  6
CONTINUOUS
 62
   249
 10
262.134996
 20
145.49
 30
0.0
 70
    64
  0
VERTEX
  8
0
  6
CONTINUOUS
 62
   249
 10
262.148716
 20
145.49
 30
0.0
 70
    64
  0
VERTEX
  8
0
  6
CONTINUOUS
 62
   249
 10
262.162436
 20
145.49
 30
0.0
 70
    64
  0
VERTEX
  8
0
  6
CONTINUOUS
 62
   249
 10
262.176156
 20
145.49
 30
0.0
 70
    64
  0
VERTEX
  8
0
  6
CONTINUOUS
 62
   249
 10
262.189876
 20
145.49
 30
0.0
 70
    64
  0
VERTEX
  8
0
  6
CONTINUOUS
 62
   249
 10
262.203596
 20
145.49
 30
0.0
 70
    64
  0
VERTEX
  8
0
  6
CONTINUOUS
 62
   249
 10
262.217316
 20
145.49
 30
0.0
 70
    64
  0
VERTEX
  8
0
  6
CONTINUOUS
 62
   249
 10
262.231036
 20
145.49
 30
0.0
 70
    64
  0
VERTEX
  8
0
  6
CONTINUOUS
 62
   249
 10
262.244756
 20
145.49
 30
0.0
 70
    64
  0
VERTEX
  8
0
  6
CONTINUOUS
 62
   249
 10
262.258476
 20
145.49
 30
0.0
 70
    64
  0
VERTEX
  8
0
  6
CONTINUOUS
 62
   249
 10
262.272196
 20
145.49
 30
0.0
 70
    64
  0
VERTEX
  8
0
  6
CONTINUOUS
 62
   249
 10
262.285916
 20
145.49
 30
0.0
 70
    64
  0
VERTEX
  8
0
  6
CONTINUOUS
 62
   249
 10
262.299636
 20
145.49
 30
0.0
 70
    64
  0
VERTEX
  8
0
  6
CONTINUOUS
 62
   249
 10
262.313356
 20
145.49
 30
0.0
 70
    64
  0
VERTEX
  8
0
  6
CONTINUOUS
 62
   249
 10
262.327076
 20
145.49
 30
0.0
 70
    64
  0
VERTEX
  8
0
  6
CONTINUOUS
 62
   249
 10
262.340796
 20
145.49
 30
0.0
 70
    64
  0
VERTEX
  8
0
  6
CONTINUOUS
 62
   249
 10
262.354516
 20
145.49
 30
0.0
 70
    64
  0
VERTEX
  8
0
  6
CONTINUOUS
 62
   249
 10
262.368236
 20
145.49
 30
0.0
 70
    64
  0
VERTEX
  8
0
  6
CONTINUOUS
 62
   249
 10
262.381956
 20
145.49
 30
0.0
 70
    64
  0
VERTEX
  8
0
  6
CONTINUOUS
 62
   249
 10
262.395676
 20
145.49
 30
0.0
 70
    64
  0
VERTEX
  8
0
  6
CONTINUOUS
 62
   249
 10
262.409396
 20
145.49
 30
0.0
 70
    64
  0
VERTEX
  8
0
  6
CONTINUOUS
 62
   249
 10
262.423116
 20
145.49
 30
0.0
 70
    64
  0
VERTEX
  8
0
  6
CONTINUOUS
 62
   249
 10
262.436836
 20
145.49
 30
0.0
 70
    64
  0
VERTEX
  8
0
  6
CONTINUOUS
 62
   249
 10
262.450556
 20
145.49
 30
0.0
 70
    64
  0
VERTEX
  8
0
  6
CONTINUOUS
 62
   249
 10
262.464276
 20
145.49
 30
0.0
 70
    64
  0
VERTEX
  8
0
  6
CONTINUOUS
 62
   249
 10
262.477996
 20
145.49
 30
0.0
 70
    64
  0
VERTEX
  8
0
  6
CONTINUOUS
 62
   249
 10
262.491716
 20
145.49
 30
0.0
 70
    64
  0
VERTEX
  8
0
  6
CONTINUOUS
 62
   249
 10
262.505436
 20
145.49
 30
0.0
 70
    64
  0
VERTEX
  8
0
  6
CONTINUOUS
 62
   249
 10
262.519156
 20
145.49
 30
0.0
 70
    64
  0
VERTEX
  8
0
  6
CONTINUOUS
 62
   249
 10
262.532876
 20
145.49
 30
0.0
 70
    64
  0
VERTEX
  8
0
  6
CONTINUOUS
 62
   249
 10
262.546596
 20
145.49
 30
0.0
 70
    64
  0
VERTEX
  8
0
  6
CONTINUOUS
 62
   249
 10
262.560316
 20
145.49
 30
0.0
 70
    64
  0
VERTEX
  8
0
  6
CONTINUOUS
 62
   249
 10
262.574036
 20
145.49
 30
0.0
 70
    64
  0
VERTEX
  8
0
  6
CONTINUOUS
 62
   249
 10
262.587756
 20
145.49
 30
0.0
 70
    64
  0
VERTEX
  8
0
  6
CONTINUOUS
 62
   249
 10
262.601476
 20
145.49
 30
0.0
 70
    64
  0
VERTEX
  8
0
  6
CONTINUOUS
 62
   249
 10
262.615196
 20
145.49
 30
0.0
 70
    64
  0
VERTEX
  8
0
  6
CONTINUOUS
 62
   249
 10
262.628916
 20
145.49
 30
0.0
 70
    64
  0
VERTEX
  8
0
  6
CONTINUOUS
 62
   249
 10
262.642636
 20
145.49
 30
0.0
 70
    64
  0
VERTEX
  8
0
  6
CONTINUOUS
 62
   249
 10
262.656356
 20
145.49
 30
0.0
 70
    64
  0
VERTEX
  8
0
  6
CONTINUOUS
 62
   249
 10
262.670076
 20
145.49
 30
0.0
 70
    64
  0
VERTEX
  8
0
  6
CONTINUOUS
 62
   249
 10
262.683796
 20
145.49
 30
0.0
 70
    64
  0
VERTEX
  8
0
  6
CONTINUOUS
 62
   249
 10
262.697516
 20
145.49
 30
0.0
 70
    64
  0
VERTEX
  8
0
  6
CONTINUOUS
 62
   249
 10
262.711236
 20
145.49
 30
0.0
 70
    64
  0
VERTEX
  8
0
  6
CONTINUOUS
 62
   249
 10
262.724956
 20
145.49
 30
0.0
 70
    64
  0
VERTEX
  8
0
  6
CONTINUOUS
 62
   249
 10
262.738676
 20
145.49
 30
0.0
 70
    64
  0
VERTEX
  8
0
  6
CONTINUOUS
 62
   249
 10
262.752396
 20
145.49
 30
0.0
 70
    64
  0
VERTEX
  8
0
  6
CONTINUOUS
 62
   249
 10
262.766116
 20
145.49
 30
0.0
 70
    64
  0
VERTEX
  8
0
  6
CONTINUOUS
 62
   249
 10
262.779836
 20
145.49
 30
0.0
 70
    64
  0
VERTEX
  8
0
  6
CONTINUOUS
 62
   249
 10
262.793556
 20
145.49
 30
0.0
 70
    64
  0
VERTEX
  8
0
  6
CONTINUOUS
 62
   249
 10
262.807276
 20
145.49
 30
0.0
 70
    64
  0
VERTEX
  8
0
  6
CONTINUOUS
 62
   249
 10
262.820996
 20
145.49
 30
0.0
 70
    64
  0
VERTEX
  8
0
  6
CONTINUOUS
 62
   249
 10
262.834716
 20
145.49
 30
0.0
 70
    64
  0
VERTEX
  8
0
  6
CONTINUOUS
 62
   249
 10
262.848436
 20
145.49
 30
0.0
 70
    64
  0
VERTEX
  8
0
  6
CONTINUOUS
 62
   249
 10
262.862156
 20
145.49
 30
0.0
 70
    64
  0
VERTEX
  8
0
  6
CONTINUOUS
 62
   249
 10
262.875876
 20
145.49
 30
0.0
 70
    64
  0
VERTEX
  8
0
  6
CONTINUOUS
 62
   249
 10
262.889596
 20
145.49
 30
0.0
 70
    64
  0
VERTEX
  8
0
  6
CONTINUOUS
 62
   249
 10
262.903316
 20
145.49
 30
0.0
 70
    64
  0
VERTEX
  8
0
  6
CONTINUOUS
 62
   249
 10
262.917036
 20
145.49
 30
0.0
 70
    64
  0
VERTEX
  8
0
  6
CONTINUOUS
 62
   249
 10
262.930756
 20
145.49
 30
0.0
 70
    64
  0
VERTEX
  8
0
  6
CONTINUOUS
 62
   249
 10
262.944476
 20
145.49
 30
0.0
 70
    64
  0
VERTEX
  8
0
  6
CONTINUOUS
 62
   249
 10
262.958196
 20
145.49
 30
0.0
 70
    64
  0
VERTEX
  8
0
  6
CONTINUOUS
 62
   249
 10
262.971916
 20
145.49
 30
0.0
 70
    64
  0
VERTEX
  8
0
  6
CONTINUOUS
 62
   249
 10
262.985636
 20
145.49
 30
0.0
 70
    64
  0
VERTEX
  8
0
  6
CONTINUOUS
 62
   249
 10
262.999356
 20
145.49
 30
0.0
 70
    64
  0
VERTEX
  8
0
  6
CONTINUOUS
 62
   249
 10
263.013076
 20
145.49
 30
0.0
 70
    64
  0
VERTEX
  8
0
  6
CONTINUOUS
 62
   249
 10
263.026796
 20
145.49
 30
0.0
 70
    64
  0
VERTEX
  8
0
  6
CONTINUOUS
 62
   249
 10
263.040516
 20
145.49
 30
0.0
 70
    64
  0
VERTEX
  8
0
  6
CONTINUOUS
 62
   249
 10
263.054236
 20
145.49
 30
0.0
 70
    64
  0
VERTEX
  8
0
  6
CONTINUOUS
 62
   249
 10
263.067956
 20
145.49
 30
0.0
 70
    64
  0
VERTEX
  8
0
  6
CONTINUOUS
 62
   249
 10
263.081676
 20
145.49
 30
0.0
 70
    64
  0
VERTEX
  8
0
  6
CONTINUOUS
 62
   249
 10
263.095396
 20
145.49
 30
0.0
 70
    64
  0
VERTEX
  8
0
  6
CONTINUOUS
 62
   249
 10
263.109116
 20
145.49
 30
0.0
 70
    64
  0
VERTEX
  8
0
  6
CONTINUOUS
 62
   249
 10
263.122836
 20
145.49
 30
0.0
 70
    64
  0
VERTEX
  8
0
  6
CONTINUOUS
 62
   249
 10
263.136556
 20
145.49
 30
0.0
 70
    64
  0
VERTEX
  8
0
  6
CONTINUOUS
 62
   249
 10
263.150276
 20
145.49
 30
0.0
 70
    64
  0
VERTEX
  8
0
  6
CONTINUOUS
 62
   249
 10
263.163996
 20
145.49
 30
0.0
 70
    64
  0
VERTEX
  8
0
  6
CONTINUOUS
 62
   249
 10
263.177716
 20
145.49
 30
0.0
 70
    64
  0
VERTEX
  8
0
  6
CONTINUOUS
 62
   249
 10
263.191436
 20
145.49
 30
0.0
 70
    64
  0
VERTEX
  8
0
  6
CONTINUOUS
 62
   249
 10
263.205156
 20
145.49
 30
0.0
 70
    64
  0
VERTEX
  8
0
  6
CONTINUOUS
 62
   249
 10
263.218876
 20
145.49
 30
0.0
 70
    64
  0
VERTEX
  8
0
  6
CONTINUOUS
 62
   249
 10
263.232596
 20
145.49
 30
0.0
 70
    64
  0
VERTEX
  8
0
  6
CONTINUOUS
 62
   249
 10
263.246316
 20
145.49
 30
0.0
 70
    64
  0
VERTEX
  8
0
  6
CONTINUOUS
 62
   249
 10
263.260036
 20
145.49
 30
0.0
 70
    64
  0
VERTEX
  8
0
  6
CONTINUOUS
 62
   249
 10
263.273756
 20
145.49
 30
0.0
 70
    64
  0
VERTEX
  8
0
  6
CONTINUOUS
 62
   249
 10
263.287476
 20
145.49
 30
0.0
 70
    64
  0
VERTEX
  8
0
  6
CONTINUOUS
 62
   249
 10
263.301196
 20
145.49
 30
0.0
 70
    64
  0
VERTEX
  8
0
  6
CONTINUOUS
 62
   249
 10
263.314916
 20
145.49
 30
0.0
 70
    64
  0
VERTEX
  8
0
  6
CONTINUOUS
 62
   249
 10
263.328636
 20
145.49
 30
0.0
 70
    64
  0
VERTEX
  8
0
  6
CONTINUOUS
 62
   249
 10
263.342356
 20
145.49
 30
0.0
 70
    64
  0
VERTEX
  8
0
  6
CONTINUOUS
 62
   249
 10
263.356076
 20
145.49
 30
0.0
 70
    64
  0
VERTEX
  8
0
  6
CONTINUOUS
 62
   249
 10
263.369796
 20
145.49
 30
0.0
 70
    64
  0
VERTEX
  8
0
  6
CONTINUOUS
 62
   249
 10
263.383516
 20
145.49
 30
0.0
 70
    64
  0
VERTEX
  8
0
  6
CONTINUOUS
 62
   249
 10
263.397236
 20
145.49
 30
0.0
 70
    64
  0
VERTEX
  8
0
  6
CONTINUOUS
 62
   249
 10
263.410956
 20
145.49
 30
0.0
 70
    64
  0
VERTEX
  8
0
  6
CONTINUOUS
 62
   249
 10
263.424676
 20
145.49
 30
0.0
 70
    64
  0
VERTEX
  8
0
  6
CONTINUOUS
 62
   249
 10
263.438396
 20
145.49
 30
0.0
 70
    64
  0
VERTEX
  8
0
  6
CONTINUOUS
 62
   249
 10
263.452116
 20
145.49
 30
0.0
 70
    64
  0
VERTEX
  8
0
  6
CONTINUOUS
 62
   249
 10
263.465836
 20
145.49
 30
0.0
 70
    64
  0
VERTEX
  8
0
  6
CONTINUOUS
 62
   249
 10
263.479556
 20
145.49
 30
0.0
 70
    64
  0
VERTEX
  8
0
  6
CONTINUOUS
 62
   249
 10
263.493276
 20
145.49
 30
0.0
 70
    64
  0
VERTEX
  8
0
  6
CONTINUOUS
 62
   249
 10
263.506996
 20
145.49
 30
0.0
 70
    64
  0
VERTEX
  8
0
  6
CONTINUOUS
 62
   249
 10
263.520716
 20
145.49
 30
0.0
 70
    64
  0
VERTEX
  8
0
  6
CONTINUOUS
 62
   249
 10
263.534436
 20
145.49
 30
0.0
 70
    64
  0
VERTEX
  8
0
  6
CONTINUOUS
 62
   249
 10
263.548156
 20
145.49
 30
0.0
 70
    64
  0
VERTEX
  8
0
  6
CONTINUOUS
 62
   249
 10
263.561876
 20
145.49
 30
0.0
 70
    64
  0
VERTEX
  8
0
  6
CONTINUOUS
 62
   249
 10
263.575596
 20
145.49
 30
0.0
 70
    64
  0
VERTEX
  8
0
  6
CONTINUOUS
 62
   249
 10
263.589316
 20
145.49
 30
0.0
 70
    64
  0
VERTEX
  8
0
  6
CONTINUOUS
 62
   249
 10
263.603036
 20
145.49
 30
0.0
 70
    64
  0
VERTEX
  8
0
  6
CONTINUOUS
 62
   249
 10
263.616756
 20
145.49
 30
0.0
 70
    64
  0
VERTEX
  8
0
  6
CONTINUOUS
 62
   249
 10
263.630476
 20
145.49
 30
0.0
 70
    64
  0
VERTEX
  8
0
  6
CONTINUOUS
 62
   249
 10
263.644196
 20
145.49
 30
0.0
 70
    64
  0
VERTEX
  8
0
  6
CONTINUOUS
 62
   249
 10
263.657916
 20
145.49
 30
0.0
 70
    64
  0
VERTEX
  8
0
  6
CONTINUOUS
 62
   249
 10
263.671636
 20
145.49
 30
0.0
 70
    64
  0
VERTEX
  8
0
  6
CONTINUOUS
 62
   249
 10
263.685356
 20
145.49
 30
0.0
 70
    64
  0
VERTEX
  8
0
  6
CONTINUOUS
 62
   249
 10
263.699076
 20
145.49
 30
0.0
 70
    64
  0
VERTEX
  8
0
  6
CONTINUOUS
 62
   249
 10
263.712796
 20
145.49
 30
0.0
 70
    64
  0
VERTEX
  8
0
  6
CONTINUOUS
 62
   249
 10
263.726516
 20
145.49
 30
0.0
 70
    64
  0
VERTEX
  8
0
  6
CONTINUOUS
 62
   249
 10
263.740236
 20
145.49
 30
0.0
 70
    64
  0
VERTEX
  8
0
  6
CONTINUOUS
 62
   249
 10
263.753956
 20
145.49
 30
0.0
 70
    64
  0
VERTEX
  8
0
  6
CONTINUOUS
 62
   249
 10
263.767676
 20
145.49
 30
0.0
 70
    64
  0
VERTEX
  8
0
  6
CONTINUOUS
 62
   249
 10
263.781396
 20
145.49
 30
0.0
 70
    64
  0
VERTEX
  8
0
  6
CONTINUOUS
 62
   249
 10
263.795116
 20
145.49
 30
0.0
 70
    64
  0
VERTEX
  8
0
  6
CONTINUOUS
 62
   249
 10
263.808836
 20
145.49
 30
0.0
 70
    64
  0
VERTEX
  8
0
  6
CONTINUOUS
 62
   249
 10
263.822556
 20
145.49
 30
0.0
 70
    64
  0
VERTEX
  8
0
  6
CONTINUOUS
 62
   249
 10
263.836276
 20
145.49
 30
0.0
 70
    64
  0
VERTEX
  8
0
  6
CONTINUOUS
 62
   249
 10
263.849996
 20
145.49
 30
0.0
 70
    64
  0
VERTEX
  8
0
  6
CONTINUOUS
 62
   249
 10
263.863716
 20
145.49
 30
0.0
 70
    64
  0
VERTEX
  8
0
  6
CONTINUOUS
 62
   249
 10
263.877436
 20
145.49
 30
0.0
 70
    64
  0
VERTEX
  8
0
  6
CONTINUOUS
 62
   249
 10
263.891156
 20
145.49
 30
0.0
 70
    64
  0
VERTEX
  8
0
  6
CONTINUOUS
 62
   249
 10
263.904876
 20
145.49
 30
0.0
 70
    64
  0
VERTEX
  8
0
  6
CONTINUOUS
 62
   249
 10
263.918596
 20
145.49
 30
0.0
 70
    64
  0
VERTEX
  8
0
  6
CONTINUOUS
 62
   249
 10
263.932316
 20
145.49
 30
0.0
 70
    64
  0
VERTEX
  8
0
  6
CONTINUOUS
 62
   249
 10
263.946036
 20
145.49
 30
0.0
 70
    64
  0
VERTEX
  8
0
  6
CONTINUOUS
 62
   249
 10
263.959756
 20
145.49
 30
0.0
 70
    64
  0
VERTEX
  8
0
  6
CONTINUOUS
 62
   249
 10
263.973476
 20
145.49
 30
0.0
 70
    64
  0
VERTEX
  8
0
  6
CONTINUOUS
 62
   249
 10
263.987196
 20
145.49
 30
0.0
 70
    64
  0
VERTEX
  8
0
  6
CONTINUOUS
 62
   249
 10
264.000916
 20
145.49
 30
0.0
 70
    64
  0
VERTEX
  8
0
  6
CONTINUOUS
 62
   249
 10
264.014636
 20
145.49
 30
0.0
 70
    64
  0
VERTEX
  8
0
  6
CONTINUOUS
 62
   249
 10
264.028356
 20
145.49
 30
0.0
 70
    64
  0
VERTEX
  8
0
  6
CONTINUOUS
 62
   249
 10
264.042076
 20
145.49
 30
0.0
 70
    64
  0
VERTEX
  8
0
  6
CONTINUOUS
 62
   249
 10
264.055796
 20
145.49
 30
0.0
 70
    64
  0
VERTEX
  8
0
  6
CONTINUOUS
 62
   249
 10
264.069516
 20
145.49
 30
0.0
 70
    64
  0
VERTEX
  8
0
  6
CONTINUOUS
 62
   249
 10
264.083236
 20
145.49
 30
0.0
 70
    64
  0
VERTEX
  8
0
  6
CONTINUOUS
 62
   249
 10
264.096956
 20
145.49
 30
0.0
 70
    64
  0
VERTEX
  8
0
  6
CONTINUOUS
 62
   249
 10
264.110676
 20
145.49
 30
0.0
 70
    64
  0
VERTEX
  8
0
  6
CONTINUOUS
 62
   249
 10
264.124396
 20
145.49
 30
0.0
 70
    64
  0
VERTEX
  8
0
  6
CONTINUOUS
 62
   249
 10
264.138116
 20
145.49
 30
0.0
 70
    64
  0
VERTEX
  8
0
  6
CONTINUOUS
 62
   249
 10
264.151836
 20
145.49
 30
0.0
 70
    64
  0
VERTEX
  8
0
  6
CONTINUOUS
 62
   249
 10
264.165556
 20
145.49
 30
0.0
 70
    64
  0
VERTEX
  8
0
  6
CONTINUOUS
 62
   249
 10
264.179276
 20
145.49
 30
0.0
 70
    64
  0
VERTEX
  8
0
  6
CONTINUOUS
 62
   249
 10
264.192996
 20
145.49
 30
0.0
 70
    64
  0
VERTEX
  8
0
  6
CONTINUOUS
 62
   249
 10
264.206716
 20
145.49
 30
0.0
 70
    64
  0
VERTEX
  8
0
  6
CONTINUOUS
 62
   249
 10
264.220436
 20
145.49
 30
0.0
 70
    64
  0
VERTEX
  8
0
  6
CONTINUOUS
 62
   249
 10
264.234156
 20
145.49
 30
0.0
 70
    64
  0
VERTEX
  8
0
  6
CONTINUOUS
 62
   249
 10
264.247876
 20
145.49
 30
0.0
 70
    64
  0
VERTEX
  8
0
  6
CONTINUOUS
 62
   249
 10
264.261596
 20
145.49
 30
0.0
 70
    64
  0
VERTEX
  8
0
  6
CONTINUOUS
 62
   249
 10
264.275316
 20
145.49
 30
0.0
 70
    64
  0
VERTEX
  8
0
  6
CONTINUOUS
 62
   249
 10
264.289036
 20
145.49
 30
0.0
 70
    64
  0
VERTEX
  8
0
  6
CONTINUOUS
 62
   249
 10
264.302756
 20
145.49
 30
0.0
 70
    64
  0
VERTEX
  8
0
  6
CONTINUOUS
 62
   249
 10
264.316476
 20
145.49
 30
0.0
 70
    64
  0
VERTEX
  8
0
  6
CONTINUOUS
 62
   249
 10
264.330196
 20
145.49
 30
0.0
 70
    64
  0
VERTEX
  8
0
  6
CONTINUOUS
 62
   249
 10
264.343916
 20
145.49
 30
0.0
 70
    64
  0
VERTEX
  8
0
  6
CONTINUOUS
 62
   249
 10
264.357636
 20
145.49
 30
0.0
 70
    64
  0
VERTEX
  8
0
  6
CONTINUOUS
 62
   249
 10
264.371356
 20
145.49
 30
0.0
 70
    64
  0
VERTEX
  8
0
  6
CONTINUOUS
 62
   249
 10
264.385076
 20
145.49
 30
0.0
 70
    64
  0
VERTEX
  8
0
  6
CONTINUOUS
 62
   249
 10
264.398796
 20
145.49
 30
0.0
 70
    64
  0
VERTEX
  8
0
  6
CONTINUOUS
 62
   249
 10
264.412516
 20
145.49
 30
0.0
 70
    64
  0
VERTEX
  8
0
  6
CONTINUOUS
 62
   249
 10
264.426236
 20
145.49
 30
0.0
 70
    64
  0
VERTEX
  8
0
  6
CONTINUOUS
 62
   249
 10
264.439956
 20
145.49
 30
0.0
 70
    64
  0
VERTEX
  8
0
  6
CONTINUOUS
 62
   249
 10
264.453676
 20
145.49
 30
0.0
 70
    64
  0
VERTEX
  8
0
  6
CONTINUOUS
 62
   249
 10
264.467396
 20
145.49
 30
0.0
 70
    64
  0
VERTEX
  8
0
  6
CONTINUOUS
 62
   249
 10
264.481116
 20
145.49
 30
0.0
 70
    64
  0
VERTEX
  8
0
  6
CONTINUOUS
 62
   249
 10
264.494836
 20
145.49
 30
0.0
 70
    64
  0
VERTEX
  8
0
  6
CONTINUOUS
 62
   249
 10
264.508556
 20
145.49
 30
0.0
 70
    64
  0
VERTEX
  8
0
  6
CONTINUOUS
 62
   249
 10
264.522276
 20
145.49
 30
0.0
 70
    64
  0
VERTEX
  8
0
  6
CONTINUOUS
 62
   249
 10
264.535996
 20
145.49
 30
0.0
 70
    64
  0
VERTEX
  8
0
  6
CONTINUOUS
 62
   249
 10
264.549716
 20
145.49
 30
0.0
 70
    64
  0
VERTEX
  8
0
  6
CONTINUOUS
 62
   249
 10
264.563436
 20
145.49
 30
0.0
 70
    64
  0
VERTEX
  8
0
  6
CONTINUOUS
 62
   249
 10
264.577156
 20
145.49
 30
0.0
 70
    64
  0
VERTEX
  8
0
  6
CONTINUOUS
 62
   249
 10
264.590876
 20
145.49
 30
0.0
 70
    64
  0
VERTEX
  8
0
  6
CONTINUOUS
 62
   249
 10
264.604596
 20
145.49
 30
0.0
 70
    64
  0
VERTEX
  8
0
  6
CONTINUOUS
 62
   249
 10
264.618316
 20
145.49
 30
0.0
 70
    64
  0
VERTEX
  8
0
  6
CONTINUOUS
 62
   249
 10
264.632036
 20
145.49
 30
0.0
 70
    64
  0
VERTEX
  8
0
  6
CONTINUOUS
 62
   249
 10
264.645756
 20
145.49
 30
0.0
 70
    64
  0
VERTEX
  8
0
  6
CONTINUOUS
 62
   249
 10
264.659476
 20
145.49
 30
0.0
 70
    64
  0
VERTEX
  8
0
  6
CONTINUOUS
 62
   249
 10
264.673196
 20
145.49
 30
0.0
 70
    64
  0
VERTEX
  8
0
  6
CONTINUOUS
 62
   249
 10
264.686916
 20
145.49
 30
0.0
 70
    64
  0
VERTEX
  8
0
  6
CONTINUOUS
 62
   249
 10
264.700636
 20
145.49
 30
0.0
 70
    64
  0
VERTEX
  8
0
  6
CONTINUOUS
 62
   249
 10
264.714356
 20
145.49
 30
0.0
 70
    64
  0
VERTEX
  8
0
  6
CONTINUOUS
 62
   249
 10
264.728076
 20
145.49
 30
0.0
 70
    64
  0
VERTEX
  8
0
  6
CONTINUOUS
 62
   249
 10
264.741796
 20
145.49
 30
0.0
 70
    64
  0
VERTEX
  8
0
  6
CONTINUOUS
 62
   249
 10
264.755516
 20
145.49
 30
0.0
 70
    64
  0
VERTEX
  8
0
  6
CONTINUOUS
 62
   249
 10
264.769236
 20
145.49
 30
0.0
 70
    64
  0
VERTEX
  8
0
  6
CONTINUOUS
 62
   249
 10
264.782956
 20
145.49
 30
0.0
 70
    64
  0
VERTEX
  8
0
  6
CONTINUOUS
 62
   249
 10
264.796676
 20
145.49
 30
0.0
 70
    64
  0
VERTEX
  8
0
  6
CONTINUOUS
 62
   249
 10
264.810396
 20
145.49
 30
0.0
 70
    64
  0
VERTEX
  8
0
  6
CONTINUOUS
 62
   249
 10
264.824116
 20
145.49
 30
0.0
 70
    64
  0
VERTEX
  8
0
  6
CONTINUOUS
 62
   249
 10
264.837836
 20
145.49
 30
0.0
 70
    64
  0
VERTEX
  8
0
  6
CONTINUOUS
 62
   249
 10
264.851556
 20
145.49
 30
0.0
 70
    64
  0
VERTEX
  8
0
  6
CONTINUOUS
 62
   249
 10
264.865276
 20
145.49
 30
0.0
 70
    64
  0
VERTEX
  8
0
  6
CONTINUOUS
 62
   249
 10
264.878996
 20
145.49
 30
0.0
 70
    64
  0
VERTEX
  8
0
  6
CONTINUOUS
 62
   249
 10
264.892716
 20
145.49
 30
0.0
 70
    64
  0
VERTEX
  8
0
  6
CONTINUOUS
 62
   249
 10
264.906436
 20
145.49
 30
0.0
 70
    64
  0
VERTEX
  8
0
  6
CONTINUOUS
 62
   249
 10
264.920156
 20
145.49
 30
0.0
 70
    64
  0
VERTEX
  8
0
  6
CONTINUOUS
 62
   249
 10
264.933876
 20
145.49
 30
0.0
 70
    64
  0
VERTEX
  8
0
  6
CONTINUOUS
 62
   249
 10
264.947596
 20
145.49
 30
0.0
 70
    64
  0
VERTEX
  8
0
  6
CONTINUOUS
 62
   249
 10
264.961316
 20
145.49
 30
0.0
 70
    64
  0
VERTEX
  8
0
  6
CONTINUOUS
 62
   249
 10
264.975036
 20
145.49
 30
0.0
 70
    64
  0
VERTEX
  8
0
  6
CONTINUOUS
 62
   249
 10
264.988756
 20
145.49
 30
0.0
 70
    64
  0
VERTEX
  8
0
  6
CONTINUOUS
 62
   249
 10
265.002476
 20
145.49
 30
0.0
 70
    64
  0
VERTEX
  8
0
  6
CONTINUOUS
 62
   249
 10
265.016196
 20
145.49
 30
0.0
 70
    64
  0
VERTEX
  8
0
  6
CONTINUOUS
 62
   249
 10
265.029916
 20
145.49
 30
0.0
 70
    64
  0
VERTEX
  8
0
  6
CONTINUOUS
 62
   249
 10
265.043636
 20
145.49
 30
0.0
 70
    64
  0
VERTEX
  8
0
  6
CONTINUOUS
 62
   249
 10
265.057356
 20
145.49
 30
0.0
 70
    64
  0
VERTEX
  8
0
  6
CONTINUOUS
 62
   249
 10
265.071076
 20
145.49
 30
0.0
 70
    64
  0
VERTEX
  8
0
  6
CONTINUOUS
 62
   249
 10
265.084796
 20
145.49
 30
0.0
 70
    64
  0
VERTEX
  8
0
  6
CONTINUOUS
 62
   249
 10
265.098516
 20
145.49
 30
0.0
 70
    64
  0
VERTEX
  8
0
  6
CONTINUOUS
 62
   249
 10
265.112236
 20
145.49
 30
0.0
 70
    64
  0
VERTEX
  8
0
  6
CONTINUOUS
 62
   249
 10
265.125956
 20
145.49
 30
0.0
 70
    64
  0
VERTEX
  8
0
  6
CONTINUOUS
 62
   249
 10
265.139676
 20
145.49
 30
0.0
 70
    64
  0
VERTEX
  8
0
  6
CONTINUOUS
 62
   249
 10
265.153396
 20
145.49
 30
0.0
 70
    64
  0
VERTEX
  8
0
  6
CONTINUOUS
 62
   249
 10
265.167116
 20
145.49
 30
0.0
 70
    64
  0
VERTEX
  8
0
  6
CONTINUOUS
 62
   249
 10
265.180836
 20
145.49
 30
0.0
 70
    64
  0
VERTEX
  8
0
  6
CONTINUOUS
 62
   249
 10
265.194556
 20
145.49
 30
0.0
 70
    64
  0
VERTEX
  8
0
  6
CONTINUOUS
 62
   249
 10
265.208276
 20
145.49
 30
0.0
 70
    64
  0
VERTEX
  8
0
  6
CONTINUOUS
 62
   249
 10
265.221996
 20
145.49
 30
0.0
 70
    64
  0
VERTEX
  8
0
  6
CONTINUOUS
 62
   249
 10
265.235716
 20
145.49
 30
0.0
 70
    64
  0
VERTEX
  8
0
  6
CONTINUOUS
 62
   249
 10
265.249436
 20
145.49
 30
0.0
 70
    64
  0
SEQEND
  8
0
  6
CONTINUOUS
 62
   249
  0
LINE
  8
0
  6
DASHED
 62
   249
 10
265.0
 20
145.0
 30
0.0
 11
275.0
 21
145.0
 31
0.0
  0
ARC
  8
0
  6
CONTINUOUS
 62
   249
 10
262.5
 20
145.0
 30
0.0
 40
2.5
 50
90.0
 51
270.0
  0
ARC
  8
0
  6
CONTINUOUS
 62
   249
 10
270.0
 20
167.5
 30
0.0
 40
0.5
 50
180.0
 51
0.0
  0
ARC
  8
0
  6
CONTINUOUS
 62
   249
 10
270.0
 20
167.5
 30
0.0
 40
0.5
 50
0.0
 51
180.0
  0
LINE
  8
0
  6
CONTINUOUS
 62
   249
 10
285.0
 20
165.990022
 30
0.0
 11
285.0
 21
163.344365
 31
0.0
  0
LINE
  8
0
  6
CONTINUOUS
 62
   249
 10
284.396305
 20
161.562812
 30
0.0
 11
285.603695
 21
161.562812
 31
0.0
  0
LINE
  8
0
  6
CONTINUOUS
 62
   249
 10
283.963807
 20
162.450325
 30
0.0
 11
286.027182
 21
162.450325
 31
0.0
  0
LINE
  8
0
  6
CONTINUOUS
 62
   249
 10
283.468237
 20
163.344365
 30
0.0
 11
286.531763
 21
163.344365
 31
0.0
  0
ARC
  8
0
  6
CONTINUOUS
 62
   249
 10
285.0
 20
167.5
 30
0.0
 40
0.5
 50
180.0
 51
0.0
  0
ARC
  8
0
  6
CONTINUOUS
 62
   249
 10
285.0
 20
167.5
 30
0.0
 40
0.5
 50
0.0
 51
180.0
  0
ARC
  8
0
  6
CONTINUOUS
 62
   249
 10
297.5
 20
150.0
 30
0.0
 40
0.5
 50
180.0
 51
0.0
  0
ARC
  8
0
  6
CONTINUOUS
 62
   249
 10
297.5
 20
150.0
 30
0.0
 40
0.5
 50
0.0
 51
180.0
  0
ARC
  8
0
  6
CONTINUOUS
 62
   249
 10
312.5
 20
140.0
 30
0.0
 40
0.5
 50
180.0
 51
0.0
  0
ARC
  8
0
  6
CONTINUOUS
 62
   249
 10
312.5
 20
140.0
 30
0.0
 40
0.5
 50
0.0
 51
180.0
  0
ARC
  8
0
  6
CONTINUOUS
 62
   249
 10
305.0
 20
145.0
 30
0.0
 40
0.5
 50
180.0
 51
0.0
  0
ARC
  8
0
  6
CONTINUOUS
 62
   249
 10
305.0
 20
145.0
 30
0.0
 40
0.5
 50
0.0
 51
180.0
  0
ARC
  8
0
  6
CONTINUOUS
 62
   249
 10
285.0
 20
192.689984
 30
0.0
 40
0.5
 50
180.0
 51
0.0
  0
ARC
  8
0
  6
CONTINUOUS
 62
   249
 10
285.0
 20
192.689984
 30
0.0
 40
0.5
 50
0.0
 51
180.0
  0
ARC
  8
0
  6
CONTINUOUS
 62
   249
 10
270.0
 20
187.5
 30
0.0
 40
0.5
 50
180.0
 51
0.0
  0
ARC
  8
0
  6
CONTINUOUS
 62
   249
 10
270.0
 20
187.5
 30
0.0
 40
0.5
 50
0.0
 51
180.0
  0
INSERT
  8
0
  6
CENTER
 62
   249
  2
BLC26
 10
296.43164
 20
195.080445
 30
0.0
 41
1.006225
 42
1.006225
 50
180.0
 43
1.006225
  0
INSERT
  8
0
  6
CENTER
 62
   249
  2
BLC26
 10
301.410526
 20
175.080446
 30
0.0
 41
1.006225
 42
1.006225
 50
180.0
 43
1.006225
  0
LINE
  8
0
  6
CONTINUOUS
 62
   249
 10
312.668388
 20
208.067019
 30
0.0
 11
312.668388
 21
198.917191
 31
0.0
  0
INSERT
  8
0
  6
CONTINUOUS
 62
   249
  2
BLC29
 10
312.801134
 20
201.277756
 30
0.0
 50
270.0
  0
ARC
  8
0
  6
CONTINUOUS
 62
   249
 10
295.0
 20
252.5
 30
0.0
 40
0.5
 50
180.0
 51
0.0
  0
ARC
  8
0
  6
CONTINUOUS
 62
   249
 10
295.0
 20
252.5
 30
0.0
 40
0.5
 50
0.0
 51
180.0
  0
ARC
  8
0
  6
CONTINUOUS
 62
   249
 10
300.0
 20
247.5
 30
0.0
 40
0.5
 50
180.0
 51
0.0
  0
ARC
  8
0
  6
CONTINUOUS
 62
   249
 10
300.0
 20
247.5
 30
0.0
 40
0.5
 50
0.0
 51
180.0
  0
ARC
  8
0
  6
CONTINUOUS
 62
   249
 10
290.0
 20
257.5
 30
0.0
 40
0.5
 50
180.0
 51
0.0
  0
ARC
  8
0
  6
CONTINUOUS
 62
   249
 10
290.0
 20
257.5
 30
0.0
 40
0.5
 50
0.0
 51
180.0
  0
LINE
  8
0
  6
CONTINUOUS
 62
   249
 10
363.220143
 20
205.113722
 30
0.0
 11
361.97147
 21
205.824544
 31
0.0
  0
LINE
  8
0
  6
CONTINUOUS
 62
   249
 10
361.97147
 20
205.824544
 30
0.0
 11
363.220143
 21
206.457949
 31
0.0
  0
LINE
  8
0
  6
CONTINUOUS
 62
   249
 10
366.844508
 20
206.54868
 30
0.0
 11
368.093182
 21
205.837859
 31
0.0
  0
LINE
  8
0
  6
CONTINUOUS
 62
   249
 10
368.093182
 20
205.837859
 30
0.0
 11
366.844508
 21
205.204454
 31
0.0
  0
LINE
  8
0
  6
CONTINUOUS
 62
   249
 10
363.220143
 20
217.25005
 30
0.0
 11
361.97147
 21
217.960872
 31
0.0
  0
LINE
  8
0
  6
CONTINUOUS
 62
   249
 10
361.97147
 20
217.960872
 30
0.0
 11
363.220143
 21
218.594277
 31
0.0
  0
LINE
  8
0
  6
CONTINUOUS
 62
   249
 10
366.844508
 20
218.685008
 30
0.0
 11
368.093182
 21
217.974187
 31
0.0
  0
LINE
  8
0
  6
CONTINUOUS
 62
   249
 10
368.093182
 20
217.974187
 30
0.0
 11
366.844508
 21
217.340781
 31
0.0
  0
LINE
  8
0
  6
CONTINUOUS
 62
   249
 10
363.220143
 20
237.613722
 30
0.0
 11
361.97147
 21
238.324544
 31
0.0
  0
LINE
  8
0
  6
CONTINUOUS
 62
   249
 10
361.97147
 20
238.324544
 30
0.0
 11
363.220143
 21
238.957949
 31
0.0
  0
LINE
  8
0
  6
CONTINUOUS
 62
   249
 10
363.220143
 20
249.75005
 30
0.0
 11
361.97147
 21
250.460872
 31
0.0
  0
LINE
  8
0
  6
CONTINUOUS
 62
   249
 10
361.97147
 20
250.460872
 30
0.0
 11
363.220143
 21
251.094277
 31
0.0
  0
LINE
  8
0
  6
CONTINUOUS
 62
   249
 10
366.844508
 20
239.04868
 30
0.0
 11
368.093182
 21
238.337859
 31
0.0
  0
LINE
  8
0
  6
CONTINUOUS
 62
   249
 10
368.093182
 20
238.337859
 30
0.0
 11
366.844508
 21
237.704454
 31
0.0
  0
LINE
  8
0
  6
CONTINUOUS
 62
   249
 10
366.844508
 20
251.185008
 30
0.0
 11
368.093182
 21
250.474187
 31
0.0
  0
LINE
  8
0
  6
CONTINUOUS
 62
   249
 10
368.093182
 20
250.474187
 30
0.0
 11
366.844508
 21
249.840781
 31
0.0
  0
ENDSEC
  0
EOF
