ISO-10303-21;
HEADER;
FILE_DESCRIPTION((''),'2;1');
FILE_NAME('EADR40','2018-01-08T',('FIMABER1'),(''),
'CREO PARAMETRIC BY PTC INC, 2017170','CREO PARAMETRIC BY PTC INC, 2017170','');
FILE_SCHEMA(('CONFIG_CONTROL_DESIGN'));
ENDSEC;
DATA;
#17=CARTESIAN_POINT('',(0.E0,1.9E0,0.E0));
#18=DIRECTION('',(0.E0,-1.E0,0.E0));
#19=DIRECTION('',(0.E0,0.E0,-1.E0));
#20=AXIS2_PLACEMENT_3D('',#17,#18,#19);
#22=CARTESIAN_POINT('',(0.E0,2.E0,0.E0));
#23=DIRECTION('',(0.E0,1.E0,0.E0));
#24=DIRECTION('',(0.E0,0.E0,-1.E0));
#25=AXIS2_PLACEMENT_3D('',#22,#23,#24);
#27=CARTESIAN_POINT('',(0.E0,2.E0,0.E0));
#28=DIRECTION('',(0.E0,1.E0,0.E0));
#29=DIRECTION('',(0.E0,0.E0,1.E0));
#30=AXIS2_PLACEMENT_3D('',#27,#28,#29);
#32=CARTESIAN_POINT('',(0.E0,2.E0,0.E0));
#33=DIRECTION('',(0.E0,-1.E0,0.E0));
#34=DIRECTION('',(0.E0,0.E0,-1.E0));
#35=AXIS2_PLACEMENT_3D('',#32,#33,#34);
#37=CARTESIAN_POINT('',(0.E0,2.E0,0.E0));
#38=DIRECTION('',(0.E0,-1.E0,0.E0));
#39=DIRECTION('',(0.E0,0.E0,1.E0));
#40=AXIS2_PLACEMENT_3D('',#37,#38,#39);
#42=DIRECTION('',(0.E0,1.E0,0.E0));
#43=VECTOR('',#42,2.E0);
#44=CARTESIAN_POINT('',(0.E0,0.E0,-2.3E1));
#45=LINE('',#44,#43);
#46=DIRECTION('',(0.E0,1.E0,0.E0));
#47=VECTOR('',#46,2.E0);
#48=CARTESIAN_POINT('',(0.E0,0.E0,2.3E1));
#49=LINE('',#48,#47);
#50=CARTESIAN_POINT('',(0.E0,0.E0,0.E0));
#51=DIRECTION('',(0.E0,-1.E0,0.E0));
#52=DIRECTION('',(0.E0,0.E0,-1.E0));
#53=AXIS2_PLACEMENT_3D('',#50,#51,#52);
#55=CARTESIAN_POINT('',(0.E0,0.E0,0.E0));
#56=DIRECTION('',(0.E0,-1.E0,0.E0));
#57=DIRECTION('',(0.E0,0.E0,1.E0));
#58=AXIS2_PLACEMENT_3D('',#55,#56,#57);
#60=CARTESIAN_POINT('',(0.E0,1.065814103640E-14,0.E0));
#61=DIRECTION('',(0.E0,1.E0,0.E0));
#62=DIRECTION('',(0.E0,0.E0,-1.E0));
#63=AXIS2_PLACEMENT_3D('',#60,#61,#62);
#65=CARTESIAN_POINT('',(0.E0,1.065814103640E-14,0.E0));
#66=DIRECTION('',(0.E0,1.E0,0.E0));
#67=DIRECTION('',(0.E0,0.E0,1.E0));
#68=AXIS2_PLACEMENT_3D('',#65,#66,#67);
#70=DIRECTION('',(1.991990719612E-14,-7.071067811866E-1,7.071067811865E-1));
#71=VECTOR('',#70,1.414213562373E-1);
#72=CARTESIAN_POINT('',(0.E0,9.999999999999E-2,1.99E1));
#73=LINE('',#72,#71);
#74=CARTESIAN_POINT('',(0.E0,1.E-1,0.E0));
#75=DIRECTION('',(0.E0,1.E0,0.E0));
#76=DIRECTION('',(0.E0,0.E0,-1.E0));
#77=AXIS2_PLACEMENT_3D('',#74,#75,#76);
#79=DIRECTION('',(-1.154608074981E-14,-7.071067811866E-1,-7.071067811865E-1));
#80=VECTOR('',#79,1.414213562373E-1);
#81=CARTESIAN_POINT('',(0.E0,9.999999999999E-2,-1.99E1));
#82=LINE('',#81,#80);
#83=CARTESIAN_POINT('',(0.E0,1.E-1,0.E0));
#84=DIRECTION('',(0.E0,1.E0,0.E0));
#85=DIRECTION('',(0.E0,0.E0,1.E0));
#86=AXIS2_PLACEMENT_3D('',#83,#84,#85);
#88=DIRECTION('',(0.E0,1.E0,0.E0));
#89=VECTOR('',#88,1.8E0);
#90=CARTESIAN_POINT('',(0.E0,9.999999999999E-2,1.99E1));
#91=LINE('',#90,#89);
#92=DIRECTION('',(0.E0,1.E0,0.E0));
#93=VECTOR('',#92,1.8E0);
#94=CARTESIAN_POINT('',(0.E0,9.999999999999E-2,-1.99E1));
#95=LINE('',#94,#93);
#96=DIRECTION('',(1.978283474552E-14,7.071067811866E-1,-7.071067811865E-1));
#97=VECTOR('',#96,1.414213562373E-1);
#98=CARTESIAN_POINT('',(0.E0,1.9E0,-1.99E1));
#99=LINE('',#98,#97);
#100=CARTESIAN_POINT('',(0.E0,1.9E0,0.E0));
#101=DIRECTION('',(0.E0,-1.E0,0.E0));
#102=DIRECTION('',(0.E0,0.E0,1.E0));
#103=AXIS2_PLACEMENT_3D('',#100,#101,#102);
#105=DIRECTION('',(-1.978535478363E-14,7.071067811866E-1,7.071067811865E-1));
#106=VECTOR('',#105,1.414213562373E-1);
#107=CARTESIAN_POINT('',(0.E0,1.9E0,1.99E1));
#108=LINE('',#107,#106);
#109=CARTESIAN_POINT('',(0.E0,1.9E0,1.99E1));
#110=CARTESIAN_POINT('',(0.E0,2.E0,2.E1));
#111=VERTEX_POINT('',#109);
#112=VERTEX_POINT('',#110);
#113=CARTESIAN_POINT('',(0.E0,1.9E0,-1.99E1));
#114=CARTESIAN_POINT('',(0.E0,2.E0,-2.E1));
#115=VERTEX_POINT('',#113);
#116=VERTEX_POINT('',#114);
#117=CARTESIAN_POINT('',(0.E0,9.999999999999E-2,-1.99E1));
#118=VERTEX_POINT('',#117);
#119=CARTESIAN_POINT('',(0.E0,9.999999999999E-2,1.99E1));
#120=VERTEX_POINT('',#119);
#121=CARTESIAN_POINT('',(0.E0,0.E0,-2.E1));
#122=VERTEX_POINT('',#121);
#123=CARTESIAN_POINT('',(0.E0,0.E0,2.E1));
#124=VERTEX_POINT('',#123);
#125=CARTESIAN_POINT('',(0.E0,0.E0,2.3E1));
#126=CARTESIAN_POINT('',(0.E0,2.E0,2.3E1));
#127=VERTEX_POINT('',#125);
#128=VERTEX_POINT('',#126);
#129=CARTESIAN_POINT('',(0.E0,0.E0,-2.3E1));
#130=CARTESIAN_POINT('',(0.E0,2.E0,-2.3E1));
#131=VERTEX_POINT('',#129);
#132=VERTEX_POINT('',#130);
#133=CARTESIAN_POINT('',(0.E0,1.95E0,0.E0));
#134=DIRECTION('',(0.E0,1.E0,0.E0));
#135=DIRECTION('',(0.E0,0.E0,1.E0));
#136=AXIS2_PLACEMENT_3D('',#133,#134,#135);
#137=CONICAL_SURFACE('',#136,1.995E1,4.5E1);
#139=ORIENTED_EDGE('',*,*,#138,.T.);
#141=ORIENTED_EDGE('',*,*,#140,.F.);
#143=ORIENTED_EDGE('',*,*,#142,.F.);
#145=ORIENTED_EDGE('',*,*,#144,.T.);
#146=EDGE_LOOP('',(#139,#141,#143,#145));
#147=FACE_OUTER_BOUND('',#146,.F.);
#148=ADVANCED_FACE('',(#147),#137,.F.);
#149=FILL_AREA_STYLE_COLOUR('',#3);
#150=FILL_AREA_STYLE('',(#149));
#151=SURFACE_STYLE_FILL_AREA(#150);
#152=SURFACE_SIDE_STYLE('',(#151));
#153=SURFACE_STYLE_USAGE(.BOTH.,#152);
#154=PRESENTATION_STYLE_ASSIGNMENT((#153));
#155=STYLED_ITEM('',(#154),#148);
#156=CARTESIAN_POINT('',(0.E0,2.E0,0.E0));
#157=DIRECTION('',(0.E0,-1.E0,0.E0));
#158=DIRECTION('',(0.E0,0.E0,-1.E0));
#159=AXIS2_PLACEMENT_3D('',#156,#157,#158);
#160=PLANE('',#159);
#162=ORIENTED_EDGE('',*,*,#161,.F.);
#164=ORIENTED_EDGE('',*,*,#163,.F.);
#165=EDGE_LOOP('',(#162,#164));
#166=FACE_OUTER_BOUND('',#165,.F.);
#167=ORIENTED_EDGE('',*,*,#138,.F.);
#169=ORIENTED_EDGE('',*,*,#168,.F.);
#170=EDGE_LOOP('',(#167,#169));
#171=FACE_BOUND('',#170,.F.);
#172=ADVANCED_FACE('',(#166,#171),#160,.F.);
#173=FILL_AREA_STYLE_COLOUR('',#3);
#174=FILL_AREA_STYLE('',(#173));
#175=SURFACE_STYLE_FILL_AREA(#174);
#176=SURFACE_SIDE_STYLE('',(#175));
#177=SURFACE_STYLE_USAGE(.BOTH.,#176);
#178=PRESENTATION_STYLE_ASSIGNMENT((#177));
#179=STYLED_ITEM('',(#178),#172);
#180=CARTESIAN_POINT('',(0.E0,0.E0,0.E0));
#181=DIRECTION('',(0.E0,1.E0,0.E0));
#182=DIRECTION('',(0.E0,0.E0,-1.E0));
#183=AXIS2_PLACEMENT_3D('',#180,#181,#182);
#184=CYLINDRICAL_SURFACE('',#183,2.3E1);
#185=ORIENTED_EDGE('',*,*,#161,.T.);
#187=ORIENTED_EDGE('',*,*,#186,.F.);
#189=ORIENTED_EDGE('',*,*,#188,.T.);
#191=ORIENTED_EDGE('',*,*,#190,.T.);
#192=EDGE_LOOP('',(#185,#187,#189,#191));
#193=FACE_OUTER_BOUND('',#192,.F.);
#194=ADVANCED_FACE('',(#193),#184,.T.);
#195=FILL_AREA_STYLE_COLOUR('',#3);
#196=FILL_AREA_STYLE('',(#195));
#197=SURFACE_STYLE_FILL_AREA(#196);
#198=SURFACE_SIDE_STYLE('',(#197));
#199=SURFACE_STYLE_USAGE(.BOTH.,#198);
#200=PRESENTATION_STYLE_ASSIGNMENT((#199));
#201=STYLED_ITEM('',(#200),#194);
#202=CARTESIAN_POINT('',(0.E0,0.E0,0.E0));
#203=DIRECTION('',(0.E0,1.E0,0.E0));
#204=DIRECTION('',(0.E0,0.E0,-1.E0));
#205=AXIS2_PLACEMENT_3D('',#202,#203,#204);
#206=CYLINDRICAL_SURFACE('',#205,2.3E1);
#207=ORIENTED_EDGE('',*,*,#163,.T.);
#208=ORIENTED_EDGE('',*,*,#190,.F.);
#210=ORIENTED_EDGE('',*,*,#209,.T.);
#211=ORIENTED_EDGE('',*,*,#186,.T.);
#212=EDGE_LOOP('',(#207,#208,#210,#211));
#213=FACE_OUTER_BOUND('',#212,.F.);
#214=ADVANCED_FACE('',(#213),#206,.T.);
#215=FILL_AREA_STYLE_COLOUR('',#3);
#216=FILL_AREA_STYLE('',(#215));
#217=SURFACE_STYLE_FILL_AREA(#216);
#218=SURFACE_SIDE_STYLE('',(#217));
#219=SURFACE_STYLE_USAGE(.BOTH.,#218);
#220=PRESENTATION_STYLE_ASSIGNMENT((#219));
#221=STYLED_ITEM('',(#220),#214);
#222=CARTESIAN_POINT('',(2.3E1,0.E0,0.E0));
#223=DIRECTION('',(0.E0,1.E0,0.E0));
#224=DIRECTION('',(0.E0,0.E0,1.E0));
#225=AXIS2_PLACEMENT_3D('',#222,#223,#224);
#226=PLANE('',#225);
#227=ORIENTED_EDGE('',*,*,#209,.F.);
#228=ORIENTED_EDGE('',*,*,#188,.F.);
#229=EDGE_LOOP('',(#227,#228));
#230=FACE_OUTER_BOUND('',#229,.F.);
#232=ORIENTED_EDGE('',*,*,#231,.F.);
#234=ORIENTED_EDGE('',*,*,#233,.F.);
#235=EDGE_LOOP('',(#232,#234));
#236=FACE_BOUND('',#235,.F.);
#237=ADVANCED_FACE('',(#230,#236),#226,.F.);
#238=FILL_AREA_STYLE_COLOUR('',#3);
#239=FILL_AREA_STYLE('',(#238));
#240=SURFACE_STYLE_FILL_AREA(#239);
#241=SURFACE_SIDE_STYLE('',(#240));
#242=SURFACE_STYLE_USAGE(.BOTH.,#241);
#243=PRESENTATION_STYLE_ASSIGNMENT((#242));
#244=STYLED_ITEM('',(#243),#237);
#245=CARTESIAN_POINT('',(0.E0,5.000000000001E-2,0.E0));
#246=DIRECTION('',(0.E0,-1.E0,0.E0));
#247=DIRECTION('',(0.E0,0.E0,-1.E0));
#248=AXIS2_PLACEMENT_3D('',#245,#246,#247);
#249=CONICAL_SURFACE('',#248,1.995E1,4.5E1);
#250=ORIENTED_EDGE('',*,*,#231,.T.);
#252=ORIENTED_EDGE('',*,*,#251,.F.);
#254=ORIENTED_EDGE('',*,*,#253,.F.);
#256=ORIENTED_EDGE('',*,*,#255,.T.);
#257=EDGE_LOOP('',(#250,#252,#254,#256));
#258=FACE_OUTER_BOUND('',#257,.F.);
#259=ADVANCED_FACE('',(#258),#249,.F.);
#260=FILL_AREA_STYLE_COLOUR('',#3);
#261=FILL_AREA_STYLE('',(#260));
#262=SURFACE_STYLE_FILL_AREA(#261);
#263=SURFACE_SIDE_STYLE('',(#262));
#264=SURFACE_STYLE_USAGE(.BOTH.,#263);
#265=PRESENTATION_STYLE_ASSIGNMENT((#264));
#266=STYLED_ITEM('',(#265),#259);
#267=CARTESIAN_POINT('',(0.E0,5.000000000001E-2,0.E0));
#268=DIRECTION('',(0.E0,-1.E0,0.E0));
#269=DIRECTION('',(0.E0,0.E0,-1.E0));
#270=AXIS2_PLACEMENT_3D('',#267,#268,#269);
#271=CONICAL_SURFACE('',#270,1.995E1,4.5E1);
#272=ORIENTED_EDGE('',*,*,#233,.T.);
#273=ORIENTED_EDGE('',*,*,#255,.F.);
#275=ORIENTED_EDGE('',*,*,#274,.F.);
#276=ORIENTED_EDGE('',*,*,#251,.T.);
#277=EDGE_LOOP('',(#272,#273,#275,#276));
#278=FACE_OUTER_BOUND('',#277,.F.);
#279=ADVANCED_FACE('',(#278),#271,.F.);
#280=FILL_AREA_STYLE_COLOUR('',#3);
#281=FILL_AREA_STYLE('',(#280));
#282=SURFACE_STYLE_FILL_AREA(#281);
#283=SURFACE_SIDE_STYLE('',(#282));
#284=SURFACE_STYLE_USAGE(.BOTH.,#283);
#285=PRESENTATION_STYLE_ASSIGNMENT((#284));
#286=STYLED_ITEM('',(#285),#279);
#287=CARTESIAN_POINT('',(0.E0,0.E0,0.E0));
#288=DIRECTION('',(0.E0,1.E0,0.E0));
#289=DIRECTION('',(0.E0,0.E0,-1.E0));
#290=AXIS2_PLACEMENT_3D('',#287,#288,#289);
#291=CYLINDRICAL_SURFACE('',#290,1.99E1);
#292=ORIENTED_EDGE('',*,*,#142,.T.);
#294=ORIENTED_EDGE('',*,*,#293,.F.);
#295=ORIENTED_EDGE('',*,*,#274,.T.);
#297=ORIENTED_EDGE('',*,*,#296,.T.);
#298=EDGE_LOOP('',(#292,#294,#295,#297));
#299=FACE_OUTER_BOUND('',#298,.F.);
#300=ADVANCED_FACE('',(#299),#291,.F.);
#301=FILL_AREA_STYLE_COLOUR('',#3);
#302=FILL_AREA_STYLE('',(#301));
#303=SURFACE_STYLE_FILL_AREA(#302);
#304=SURFACE_SIDE_STYLE('',(#303));
#305=SURFACE_STYLE_USAGE(.BOTH.,#304);
#306=PRESENTATION_STYLE_ASSIGNMENT((#305));
#307=STYLED_ITEM('',(#306),#300);
#308=CARTESIAN_POINT('',(0.E0,0.E0,0.E0));
#309=DIRECTION('',(0.E0,1.E0,0.E0));
#310=DIRECTION('',(0.E0,0.E0,-1.E0));
#311=AXIS2_PLACEMENT_3D('',#308,#309,#310);
#312=CYLINDRICAL_SURFACE('',#311,1.99E1);
#314=ORIENTED_EDGE('',*,*,#313,.T.);
#315=ORIENTED_EDGE('',*,*,#296,.F.);
#316=ORIENTED_EDGE('',*,*,#253,.T.);
#317=ORIENTED_EDGE('',*,*,#293,.T.);
#318=EDGE_LOOP('',(#314,#315,#316,#317));
#319=FACE_OUTER_BOUND('',#318,.F.);
#320=ADVANCED_FACE('',(#319),#312,.F.);
#321=FILL_AREA_STYLE_COLOUR('',#3);
#322=FILL_AREA_STYLE('',(#321));
#323=SURFACE_STYLE_FILL_AREA(#322);
#324=SURFACE_SIDE_STYLE('',(#323));
#325=SURFACE_STYLE_USAGE(.BOTH.,#324);
#326=PRESENTATION_STYLE_ASSIGNMENT((#325));
#327=STYLED_ITEM('',(#326),#320);
#328=CARTESIAN_POINT('',(0.E0,1.95E0,0.E0));
#329=DIRECTION('',(0.E0,1.E0,0.E0));
#330=DIRECTION('',(0.E0,0.E0,1.E0));
#331=AXIS2_PLACEMENT_3D('',#328,#329,#330);
#332=CONICAL_SURFACE('',#331,1.995E1,4.5E1);
#333=ORIENTED_EDGE('',*,*,#168,.T.);
#334=ORIENTED_EDGE('',*,*,#144,.F.);
#335=ORIENTED_EDGE('',*,*,#313,.F.);
#336=ORIENTED_EDGE('',*,*,#140,.T.);
#337=EDGE_LOOP('',(#333,#334,#335,#336));
#338=FACE_OUTER_BOUND('',#337,.F.);
#339=ADVANCED_FACE('',(#338),#332,.F.);
#340=FILL_AREA_STYLE_COLOUR('',#3);
#341=FILL_AREA_STYLE('',(#340));
#342=SURFACE_STYLE_FILL_AREA(#341);
#343=SURFACE_SIDE_STYLE('',(#342));
#344=SURFACE_STYLE_USAGE(.BOTH.,#343);
#345=PRESENTATION_STYLE_ASSIGNMENT((#344));
#346=STYLED_ITEM('',(#345),#339);
#347=CLOSED_SHELL('',(#148,#172,#194,#214,#237,#259,#279,#300,#320,#339));
#348=MANIFOLD_SOLID_BREP('',#347);
#350=DIMENSIONAL_EXPONENTS(0.E0,0.E0,0.E0,0.E0,0.E0,0.E0,0.E0);
#352=PLANE_ANGLE_MEASURE_WITH_UNIT(PLANE_ANGLE_MEASURE(1.745329251994E-2),#351);
#353=(CONVERSION_BASED_UNIT('DEGREE',#352)NAMED_UNIT(*)PLANE_ANGLE_UNIT());
#355=UNCERTAINTY_MEASURE_WITH_UNIT(LENGTH_MEASURE(1.2E-3),#349,'closure',
'Maximum model space distance between geometric entities at asserted connectivities');
#356=(GEOMETRIC_REPRESENTATION_CONTEXT(3)GLOBAL_UNCERTAINTY_ASSIGNED_CONTEXT((
#355))GLOBAL_UNIT_ASSIGNED_CONTEXT((#349,#353,#354))REPRESENTATION_CONTEXT
('ID1','3'));
#358=MECHANICAL_DESIGN_GEOMETRIC_PRESENTATION_REPRESENTATION('',(#155,#179,#201,
#221,#244,#266,#286,#307,#327,#346),#356);
#359=APPLICATION_CONTEXT(
'CONFIGURATION CONTROLLED 3D DESIGNS OF MECHANICAL PARTS AND ASSEMBLIES');
#360=APPLICATION_PROTOCOL_DEFINITION('international standard',
'config_control_design',1994,#359);
#361=DESIGN_CONTEXT('',#359,'design');
#362=MECHANICAL_CONTEXT('',#359,'mechanical');
#363=PRODUCT('EADR40','EADR40','NOT SPECIFIED',(#362));
#364=PRODUCT_DEFINITION_FORMATION_WITH_SPECIFIED_SOURCE('1','LAST_VERSION',#363,
.MADE.);
#368=PRODUCT_CATEGORY('part','');
#369=PRODUCT_RELATED_PRODUCT_CATEGORY('detail','',(#363));
#370=PRODUCT_CATEGORY_RELATIONSHIP('','',#368,#369);
#371=SECURITY_CLASSIFICATION_LEVEL('unclassified');
#372=SECURITY_CLASSIFICATION('','',#371);
#373=CC_DESIGN_SECURITY_CLASSIFICATION(#372,(#364));
#374=APPROVAL_STATUS('approved');
#375=APPROVAL(#374,'');
#376=CC_DESIGN_APPROVAL(#375,(#372,#364,#365));
#377=CALENDAR_DATE(118,8,1);
#378=COORDINATED_UNIVERSAL_TIME_OFFSET(2,0,.AHEAD.);
#379=LOCAL_TIME(14,56,1.7E1,#378);
#380=DATE_AND_TIME(#377,#379);
#381=APPROVAL_DATE_TIME(#380,#375);
#382=DATE_TIME_ROLE('creation_date');
#383=CC_DESIGN_DATE_AND_TIME_ASSIGNMENT(#380,#382,(#365));
#384=DATE_TIME_ROLE('classification_date');
#385=CC_DESIGN_DATE_AND_TIME_ASSIGNMENT(#380,#384,(#372));
#386=PERSON('UNSPECIFIED','UNSPECIFIED',$,$,$,$);
#387=ORGANIZATION('UNSPECIFIED','UNSPECIFIED','UNSPECIFIED');
#388=PERSON_AND_ORGANIZATION(#386,#387);
#389=APPROVAL_ROLE('approver');
#390=APPROVAL_PERSON_ORGANIZATION(#388,#375,#389);
#391=PERSON_AND_ORGANIZATION_ROLE('creator');
#392=CC_DESIGN_PERSON_AND_ORGANIZATION_ASSIGNMENT(#388,#391,(#364,#365));
#393=PERSON_AND_ORGANIZATION_ROLE('design_supplier');
#394=CC_DESIGN_PERSON_AND_ORGANIZATION_ASSIGNMENT(#388,#393,(#364));
#395=PERSON_AND_ORGANIZATION_ROLE('classification_officer');
#396=CC_DESIGN_PERSON_AND_ORGANIZATION_ASSIGNMENT(#388,#395,(#372));
#397=PERSON_AND_ORGANIZATION_ROLE('design_owner');
#398=CC_DESIGN_PERSON_AND_ORGANIZATION_ASSIGNMENT(#388,#397,(#363));
#1=DRAUGHTING_PRE_DEFINED_COLOUR('green');
#2=COLOUR_RGB('',1.1E-2,1.2E-2,1.E0);
#3=COLOUR_RGB('',5.999999865890E-2,5.000000074506E-2,7.000000029802E-2);
#4=COLOUR_RGB('',4.1E-1,2.61589E-1,1.12848E-1);
#5=COLOUR_RGB('',5.04854E-1,1.5455E-2,1.5455E-2);
#6=COLOUR_RGB('',6.40777E-1,6.40777E-1,6.40777E-1);
#7=COLOUR_RGB('',6.69062E-1,6.69903E-1,6.55217E-1);
#8=COLOUR_RGB('',6.952E-1,7.426E-1,7.9E-1);
#9=COLOUR_RGB('',7.960784313725E-1,8.235294117647E-1,9.372549019608E-1);
#10=COLOUR_RGB('',8.E-1,8.E-1,8.E-1);
#11=COLOUR_RGB('',9.21569E-1,7.05882E-1,4.70588E-1);
#12=DRAUGHTING_PRE_DEFINED_COLOUR('red');
#13=DRAUGHTING_PRE_DEFINED_COLOUR('yellow');
#14=COLOUR_RGB('',1.E0,1.E0,5.3E-1);
#15=COLOUR_RGB('',1.E0,1.E0,9.49E-1);
#16=DRAUGHTING_PRE_DEFINED_COLOUR('white');
#21=CIRCLE('',#20,1.99E1);
#26=CIRCLE('',#25,2.3E1);
#31=CIRCLE('',#30,2.3E1);
#36=CIRCLE('',#35,2.E1);
#41=CIRCLE('',#40,2.E1);
#54=CIRCLE('',#53,2.3E1);
#59=CIRCLE('',#58,2.3E1);
#64=CIRCLE('',#63,2.E1);
#69=CIRCLE('',#68,2.E1);
#78=CIRCLE('',#77,1.99E1);
#87=CIRCLE('',#86,1.99E1);
#104=CIRCLE('',#103,1.99E1);
#138=EDGE_CURVE('',#116,#112,#36,.T.);
#140=EDGE_CURVE('',#111,#112,#108,.T.);
#142=EDGE_CURVE('',#115,#111,#21,.T.);
#144=EDGE_CURVE('',#115,#116,#99,.T.);
#161=EDGE_CURVE('',#132,#128,#26,.T.);
#163=EDGE_CURVE('',#128,#132,#31,.T.);
#168=EDGE_CURVE('',#112,#116,#41,.T.);
#186=EDGE_CURVE('',#127,#128,#49,.T.);
#188=EDGE_CURVE('',#127,#131,#59,.T.);
#190=EDGE_CURVE('',#131,#132,#45,.T.);
#209=EDGE_CURVE('',#131,#127,#54,.T.);
#231=EDGE_CURVE('',#122,#124,#64,.T.);
#233=EDGE_CURVE('',#124,#122,#69,.T.);
#251=EDGE_CURVE('',#120,#124,#73,.T.);
#253=EDGE_CURVE('',#118,#120,#78,.T.);
#255=EDGE_CURVE('',#118,#122,#82,.T.);
#274=EDGE_CURVE('',#120,#118,#87,.T.);
#293=EDGE_CURVE('',#120,#111,#91,.T.);
#296=EDGE_CURVE('',#118,#115,#95,.T.);
#313=EDGE_CURVE('',#111,#115,#104,.T.);
#349=(LENGTH_UNIT()NAMED_UNIT(*)SI_UNIT(.MILLI.,.METRE.));
#351=(NAMED_UNIT(*)PLANE_ANGLE_UNIT()SI_UNIT($,.RADIAN.));
#354=(NAMED_UNIT(*)SI_UNIT($,.STERADIAN.)SOLID_ANGLE_UNIT());
#357=ADVANCED_BREP_SHAPE_REPRESENTATION('',(#348),#356);
#365=PRODUCT_DEFINITION('design','',#364,#361);
#366=PRODUCT_DEFINITION_SHAPE('','SHAPE FOR EADR40.',#365);
#367=SHAPE_DEFINITION_REPRESENTATION(#366,#357);
ENDSEC;
END-ISO-10303-21;
