  0
SECTION
  2
HEADER
  9
$ACADVER
  1
AC1009
  9
$INSBASE
 10
0.0
 20
0.0
 30
0.0
  9
$EXTMIN
 10
102.7994
 20
128.1066
 30
0.0
  9
$EXTMAX
 10
2403.582
 20
1617.973
 30
0.0
  9
$LIMMIN
 10
0.0
 20
0.0
  9
$LIMMAX
 10
12.0
 20
9.0
  9
$ORTHOMODE
 70
     0
  9
$REGENMODE
 70
     1
  9
$FILLMODE
 70
     1
  9
$QTEXTMODE
 70
     0
  9
$MIRRTEXT
 70
     1
  9
$DRAGMODE
 70
     2
  9
$LTSCALE
 40
20.0
  9
$OSMODE
 70
  1023
  9
$ATTMODE
 70
     1
  9
$TEXTSIZE
 40
0.2
  9
$TRACEWID
 40
0.05
  9
$TEXTSTYLE
  7
STANDARD
  9
$CLAYER
  8
0
  9
$CELTYPE
  6
CONTINUOUS
  9
$CECOLOR
 62
   256
  9
$DIMSCALE
 40
1.0
  9
$DIMASZ
 40
10.0
  9
$DIMEXO
 40
0.0625
  9
$DIMDLI
 40
0.38
  9
$DIMRND
 40
0.0
  9
$DIMDLE
 40
0.0
  9
$DIMEXE
 40
0.18
  9
$DIMTP
 40
0.0
  9
$DIMTM
 40
0.0
  9
$DIMTXT
 40
10.0
  9
$DIMCEN
 40
0.09
  9
$DIMTSZ
 40
0.0
  9
$DIMTOL
 70
     0
  9
$DIMLIM
 70
     0
  9
$DIMTIH
 70
     1
  9
$DIMTOH
 70
     1
  9
$DIMSE1
 70
     0
  9
$DIMSE2
 70
     0
  9
$DIMTAD
 70
     0
  9
$DIMZIN
 70
     0
  9
$DIMBLK
  1

  9
$DIMASO
 70
     1
  9
$DIMSHO
 70
     1
  9
$DIMPOST
  1

  9
$DIMAPOST
  1

  9
$DIMALT
 70
     0
  9
$DIMALTD
 70
     2
  9
$DIMALTF
 40
25.4
  9
$DIMLFAC
 40
1.0
  9
$DIMTOFL
 70
     0
  9
$DIMTVP
 40
0.0
  9
$DIMTIX
 70
     0
  9
$DIMSOXD
 70
     0
  9
$DIMSAH
 70
     0
  9
$DIMBLK1
  1

  9
$DIMBLK2
  1

  9
$DIMSTYLE
  2
STANDARD
  9
$DIMCLRD
 70
     1
  9
$DIMCLRE
 70
     1
  9
$DIMCLRT
 70
     1
  9
$DIMTFAC
 40
1.0
  9
$DIMGAP
 40
10.0
  9
$LUNITS
 70
     2
  9
$LUPREC
 70
     4
  9
$SKETCHINC
 40
0.1
  9
$FILLETRAD
 40
0.0
  9
$AUNITS
 70
     0
  9
$AUPREC
 70
     0
  9
$MENU
  1
acad
  9
$ELEVATION
 40
0.0
  9
$PELEVATION
 40
0.0
  9
$THICKNESS
 40
0.0
  9
$LIMCHECK
 70
     0
  9
$BLIPMODE
 70
     0
  9
$CHAMFERA
 40
0.0
  9
$CHAMFERB
 40
0.0
  9
$SKPOLY
 70
     0
  9
$TDCREATE
 40
2452054.573301
  9
$TDUPDATE
 40
2452058.377517
  9
$TDINDWG
 40
0.008935
  9
$TDUSRTIMER
 40
0.008935
  9
$USRTIMER
 70
     1
  9
$ANGBASE
 50
0.0
  9
$ANGDIR
 70
     0
  9
$PDMODE
 70
     0
  9
$PDSIZE
 40
0.0
  9
$PLINEWID
 40
0.0
  9
$COORDS
 70
     1
  9
$SPLFRAME
 70
     0
  9
$SPLINETYPE
 70
     6
  9
$SPLINESEGS
 70
     8
  9
$ATTDIA
 70
     0
  9
$ATTREQ
 70
     1
  9
$HANDLING
 70
     1
  9
$HANDSEED
  5
610
  9
$SURFTAB1
 70
     6
  9
$SURFTAB2
 70
     6
  9
$SURFTYPE
 70
     6
  9
$SURFU
 70
     6
  9
$SURFV
 70
     6
  9
$UCSNAME
  2

  9
$UCSORG
 10
0.0
 20
0.0
 30
0.0
  9
$UCSXDIR
 10
1.0
 20
0.0
 30
0.0
  9
$UCSYDIR
 10
0.0
 20
1.0
 30
0.0
  9
$PUCSNAME
  2

  9
$PUCSORG
 10
0.0
 20
0.0
 30
0.0
  9
$PUCSXDIR
 10
1.0
 20
0.0
 30
0.0
  9
$PUCSYDIR
 10
0.0
 20
1.0
 30
0.0
  9
$USERI1
 70
     0
  9
$USERI2
 70
     0
  9
$USERI3
 70
     0
  9
$USERI4
 70
     0
  9
$USERI5
 70
     0
  9
$USERR1
 40
0.0
  9
$USERR2
 40
0.0
  9
$USERR3
 40
0.0
  9
$USERR4
 40
0.0
  9
$USERR5
 40
0.0
  9
$WORLDVIEW
 70
     1
  9
$SHADEDGE
 70
     3
  9
$SHADEDIF
 70
    70
  9
$TILEMODE
 70
     1
  9
$MAXACTVP
 70
    48
  9
$PLIMCHECK
 70
     0
  9
$PEXTMIN
 10
1.000000E+020
 20
1.000000E+020
 30
1.000000E+020
  9
$PEXTMAX
 10
-1.000000E+020
 20
-1.000000E+020
 30
-1.000000E+020
  9
$PLIMMIN
 10
0.0
 20
0.0
  9
$PLIMMAX
 10
12.0
 20
9.0
  9
$UNITMODE
 70
     0
  9
$VISRETAIN
 70
     1
  9
$PLINEGEN
 70
     0
  9
$PSLTSCALE
 70
     1
  0
ENDSEC
  0
SECTION
  2
TABLES
  0
TABLE
  2
VPORT
 70
     2
  0
VPORT
  2
*ACTIVE
 70
     0
 10
0.0
 20
0.0
 11
1.0
 21
1.0
 12
1253.137057
 22
937.27796
 13
0.0
 23
0.0
 14
1.0
 24
1.0
 15
0.0
 25
0.0
 16
0.0
 26
0.0
 36
1.0
 17
0.0
 27
0.0
 37
0.0
 40
1628.821336
 41
1.679787
 42
50.0
 43
0.0
 44
0.0
 50
0.0
 51
0.0
 71
     0
 72
   100
 73
     1
 74
     1
 75
     0
 76
     0
 77
     0
 78
     0
  0
ENDTAB
  0
TABLE
  2
LTYPE
 70
     3
  0
LTYPE
  2
CONTINUOUS
 70
     0
  3
Solid line
 72
    65
 73
     0
 40
0.0
  0
LTYPE
  2
CENTER
 70
     0
  3
____ _ ____ _ ____ _ ____ _ ____ _ ____
 72
    65
 73
     4
 40
2.0
 49
1.25
 49
-0.25
 49
0.25
 49
-0.25
  0
LTYPE
  2
DASHED
 70
     0
  3
_ _ _ _ _ _ _ _ _ _ _ _ _ _ _ _ _ _ _ _ _
 72
    65
 73
     2
 40
0.75
 49
0.5
 49
-0.25
  0
ENDTAB
  0
TABLE
  2
LAYER
 70
     5
  0
LAYER
  2
0
 70
     0
 62
     7
  6
CONTINUOUS
  0
LAYER
  2
5
 70
     0
 62
     7
  6
CONTINUOUS
  0
LAYER
  2
6
 70
     0
 62
     5
  6
CENTER
  0
LAYER
  2
7
 70
     0
 62
     3
  6
DASHED
  0
LAYER
  2
BYLAYER
 70
     0
 62
     7
  6
CONTINUOUS
  0
ENDTAB
  0
TABLE
  2
STYLE
 70
     1
  0
STYLE
  2
STANDARD
 70
     0
 40
0.0
 41
1.0
 50
0.0
 71
     0
 42
0.2
  3
txt
  4

  0
ENDTAB
  0
TABLE
  2
VIEW
 70
     0
  0
ENDTAB
  0
TABLE
  2
UCS
 70
     0
  0
ENDTAB
  0
TABLE
  2
APPID
 70
     1
  0
APPID
  2
ACAD
 70
     0
  0
ENDTAB
  0
TABLE
  2
DIMSTYLE
 70
     1
  0
DIMSTYLE
  2
STANDARD
 70
     0
  3

  4

  5

  6

  7

 40
1.0
 41
0.18
 42
0.0625
 43
0.38
 44
0.18
 45
0.0
 46
0.0
 47
0.0
 48
0.0
140
0.18
141
0.09
142
0.0
143
25.4
144
1.0
145
0.0
146
1.0
147
0.09
 71
     0
 72
     0
 73
     1
 74
     1
 75
     0
 76
     0
 77
     0
 78
     0
170
     0
171
     2
172
     0
173
     0
174
     0
175
     0
176
     0
177
     0
178
     0
  0
ENDTAB
  0
ENDSEC
  0
SECTION
  2
BLOCKS
  0
BLOCK
  8
0
  2
$MODEL_SPACE
 70
     0
 10
0.0
 20
0.0
 30
0.0
  3
$MODEL_SPACE
  1

  0
ENDBLK
  5
1A
  8
0
  0
BLOCK
 67
     1
  8
0
  2
$PAPER_SPACE
 70
     0
 10
0.0
 20
0.0
 30
0.0
  3
$PAPER_SPACE
  1

  0
ENDBLK
  5
17
 67
     1
  8
0
  0
BLOCK
  8
0
  2
A$C05293501
 70
     0
 10
0.0
 20
0.0
 30
0.0
  3
A$C05293501
  1

  0
LINE
  5
5EC
  8
5
  6
CONTINUOUS
 10
60.4918
 20
70.750001
 30
0.0
 11
60.4918
 21
0.000001
 31
0.0
  0
LINE
  5
5ED
  8
5
  6
CENTER
 10
60.4918
 20
70.750001
 30
0.0
 11
60.4918
 21
0.000001
 31
0.0
  0
LINE
  5
5EE
  8
5
  6
CONTINUOUS
 10
50.4918
 20
70.750001
 30
0.0
 11
50.4918
 21
0.000001
 31
0.0
  0
LINE
  5
5EF
  8
5
  6
CENTER
 10
50.4918
 20
70.750001
 30
0.0
 11
50.4918
 21
0.000001
 31
0.0
  0
LINE
  5
5F0
  8
5
  6
CONTINUOUS
 10
40.4918
 20
70.750001
 30
0.0
 11
40.4918
 21
0.000001
 31
0.0
  0
LINE
  5
5F1
  8
5
  6
CENTER
 10
40.4918
 20
70.750001
 30
0.0
 11
40.4918
 21
0.000001
 31
0.0
  0
LINE
  5
5F2
  8
5
  6
CONTINUOUS
 10
30.4918
 20
70.750001
 30
0.0
 11
30.4918
 21
0.000001
 31
0.0
  0
LINE
  5
5F3
  8
5
  6
CENTER
 10
30.4918
 20
70.750001
 30
0.0
 11
30.4918
 21
0.000001
 31
0.0
  0
LINE
  5
5F4
  8
5
  6
CONTINUOUS
 10
20.4918
 20
70.750001
 30
0.0
 11
20.4918
 21
13.187001
 31
0.0
  0
LINE
  5
5F5
  8
5
  6
CENTER
 10
20.4918
 20
70.750001
 30
0.0
 11
20.4918
 21
12.818001
 31
0.0
  0
LINE
  5
5F6
  8
5
  6
CONTINUOUS
 10
10.4918
 20
70.750001
 30
0.0
 11
10.4918
 21
35.248001
 31
0.0
  0
LINE
  5
5F7
  8
5
  6
CENTER
 10
10.4918
 20
70.750001
 30
0.0
 11
10.4918
 21
35.248001
 31
0.0
  0
LINE
  5
5F8
  8
5
  6
CONTINUOUS
 10
0.7536
 20
40.776001
 30
0.0
 11
70.6364
 21
40.776001
 31
0.0
  0
LINE
  5
5F9
  8
5
  6
CONTINUOUS
 10
0.0
 20
40.776001
 30
0.0
 11
70.6364
 21
40.776001
 31
0.0
  0
LINE
  5
5FA
  8
5
  6
CONTINUOUS
 10
10.8588
 20
30.776001
 30
0.0
 11
70.6364
 21
30.776001
 31
0.0
  0
LINE
  5
5FB
  8
5
  6
CONTINUOUS
 10
6.8688
 20
30.776001
 30
0.0
 11
70.6364
 21
30.776001
 31
0.0
  0
LINE
  5
5FC
  8
5
  6
CONTINUOUS
 10
10.4918
 20
20.776001
 30
0.0
 11
70.6364
 21
20.776001
 31
0.0
  0
LINE
  5
5FD
  8
5
  6
CONTINUOUS
 10
10.4918
 20
20.776001
 30
0.0
 11
70.6364
 21
20.776001
 31
0.0
  0
LINE
  5
5FE
  8
5
  6
CONTINUOUS
 10
23.4865
 20
10.776001
 30
0.0
 11
70.6364
 21
10.776001
 31
0.0
  0
LINE
  5
5FF
  8
5
  6
CONTINUOUS
 10
22.9952
 20
10.776001
 30
0.0
 11
70.6364
 21
10.776001
 31
0.0
  0
LINE
  5
600
  8
5
  6
CONTINUOUS
 10
1.2561
 20
60.776001
 30
0.0
 11
70.6364
 21
60.776001
 31
0.0
  0
LINE
  5
601
  8
5
  6
CONTINUOUS
 10
1.2561
 20
60.776001
 30
0.0
 11
70.6364
 21
60.776001
 31
0.0
  0
LINE
  5
602
  8
5
  6
CONTINUOUS
 10
0.2512
 20
50.776001
 30
0.0
 11
70.6364
 21
50.776001
 31
0.0
  0
LINE
  5
603
  8
5
  6
CONTINUOUS
 10
0.2512
 20
50.776001
 30
0.0
 11
70.6364
 21
50.776001
 31
0.0
  0
ENDBLK
  5
605
  8
0
  0
BLOCK
  8
0
  2
A$C27E33DB7
 70
     0
 10
0.0
 20
0.0
 30
0.0
  3
A$C27E33DB7
  1

  0
INSERT
  5
607
  8
0
  6
CONTINUOUS
  2
A$C05293501
 10
0.0
 20
-0.000001
 30
0.0
  0
ENDBLK
  5
609
  8
0
  0
ENDSEC
  0
SECTION
  2
ENTITIES
  0
LINE
  5
25
  8
5
  6
CONTINUOUS
 10
1404.096
 20
1072.373
 30
0.0
 11
968.0958
 21
1072.373
 31
0.0
  0
LINE
  5
26
  8
5
  6
CONTINUOUS
 10
1404.108
 20
1461.874
 30
0.0
 11
1406.315
 21
1444.649
 31
0.0
  0
LINE
  5
27
  8
5
  6
CONTINUOUS
 10
1408.541
 20
1427.273
 30
0.0
 11
1406.315
 21
1444.649
 31
0.0
  0
LINE
  5
28
  8
5
  6
CONTINUOUS
 10
1404.096
 20
1461.973
 30
0.0
 11
1404.108
 21
1461.874
 31
0.0
  0
LINE
  5
29
  8
5
  6
CONTINUOUS
 10
1410.077
 20
1415.286
 30
0.0
 11
1408.541
 21
1427.273
 31
0.0
  0
LINE
  5
2A
  8
5
  6
CONTINUOUS
 10
1257.616
 20
1444.624
 30
0.0
 11
1278.973
 21
1461.874
 31
0.0
  0
LINE
  5
2B
  8
5
  6
CONTINUOUS
 10
1278.973
 20
1461.874
 30
0.0
 11
1279.096
 21
1461.973
 31
0.0
  0
LINE
  5
2C
  8
5
  6
CONTINUOUS
 10
1412.672
 20
986.4733
 30
0.0
 11
1412.096
 21
981.9733
 31
0.0
  0
LINE
  5
2D
  8
5
  6
CONTINUOUS
 10
1253.096
 20
1440.973
 30
0.0
 11
1257.616
 21
1444.624
 31
0.0
  0
LINE
  5
2E
  8
5
  6
CONTINUOUS
 10
1279.096
 20
1461.973
 30
0.0
 11
1404.096
 21
1461.973
 31
0.0
  0
LINE
  5
2F
  8
5
  6
CONTINUOUS
 10
1406.312
 20
1089.773
 30
0.0
 11
1406.318
 21
1089.723
 31
0.0
  0
LINE
  5
30
  8
5
  6
CONTINUOUS
 10
954.0958
 20
1221.973
 30
0.0
 11
954.0958
 21
1002.973
 31
0.0
  0
LINE
  5
31
  8
5
  6
CONTINUOUS
 10
954.0958
 20
1440.973
 30
0.0
 11
954.0958
 21
1221.973
 31
0.0
  0
LINE
  5
32
  8
5
  6
CONTINUOUS
 10
896.5958
 20
1496.973
 30
0.0
 11
896.5958
 21
946.9733
 31
0.0
  0
LINE
  5
33
  8
5
  6
CONTINUOUS
 10
878.5958
 20
1496.973
 30
0.0
 11
878.5958
 21
946.9733
 31
0.0
  0
CIRCLE
  5
34
  8
5
  6
CONTINUOUS
 10
902.5958
 20
1113.973
 30
0.0
 40
1.5
  0
LINE
  5
35
  8
5
  6
CONTINUOUS
 10
873.5958
 20
1446.973
 30
0.0
 11
873.5958
 21
996.9733
 31
0.0
  0
LINE
  5
36
  8
5
  6
CONTINUOUS
 10
940.0958
 20
1541.473
 30
0.0
 11
985.5958
 21
1541.473
 31
0.0
  0
LINE
  5
37
  8
5
  6
CONTINUOUS
 10
1213.596
 20
1541.473
 30
0.0
 11
1259.096
 21
1541.473
 31
0.0
  0
LINE
  5
38
  8
5
  6
CONTINUOUS
 10
1213.096
 20
1544.473
 30
0.0
 11
1213.096
 21
1597.673
 31
0.0
  0
LINE
  5
39
  8
5
  6
CONTINUOUS
 10
986.0958
 20
1597.673
 30
0.0
 11
986.0958
 21
1544.473
 31
0.0
  0
LINE
  5
3A
  8
5
  6
CONTINUOUS
 10
1412.096
 20
981.9733
 30
0.0
 11
982.0958
 21
981.9733
 31
0.0
  0
LINE
  5
3B
  8
5
  6
CONTINUOUS
 10
979.8797
 20
999.2727
 30
0.0
 11
979.8733
 21
999.3227
 31
0.0
  0
LINE
  5
3C
  8
5
  6
CONTINUOUS
 10
979.8733
 20
999.3227
 30
0.0
 11
979.8668
 21
999.3733
 31
0.0
  0
LINE
  5
3D
  8
5
  6
CONTINUOUS
 10
982.0958
 20
981.9733
 30
0.0
 11
979.8797
 21
999.2727
 31
0.0
  0
LINE
  5
3E
  8
5
  6
CONTINUOUS
 10
979.8668
 20
999.3733
 30
0.0
 11
977.625
 21
1016.873
 31
0.0
  0
LINE
  5
3F
  8
5
  6
CONTINUOUS
 10
977.625
 20
1016.873
 30
0.0
 11
976.115
 21
1028.66
 31
0.0
  0
LINE
  5
40
  8
5
  6
CONTINUOUS
 10
1406.318
 20
1354.224
 30
0.0
 11
1406.312
 21
1354.173
 31
0.0
  0
LINE
  5
41
  8
5
  6
CONTINUOUS
 10
757.5957
 20
1258.473
 30
0.0
 11
748.5958
 21
1258.473
 31
0.0
  0
LINE
  5
42
  8
5
  6
CONTINUOUS
 10
1062.596
 20
1072.373
 30
0.0
 11
1062.596
 21
1052.25
 31
0.0
  0
LINE
  5
43
  8
5
  6
CONTINUOUS
 10
1062.596
 20
1052.25
 30
0.0
 11
1054.596
 21
1045.182
 31
0.0
  0
LINE
  5
44
  8
5
  6
CONTINUOUS
 10
965.8733
 20
1089.723
 30
0.0
 11
965.8798
 21
1089.773
 31
0.0
  0
LINE
  5
45
  8
5
  6
CONTINUOUS
 10
965.8797
 20
1354.173
 30
0.0
 11
965.8733
 21
1354.224
 31
0.0
  0
LINE
  5
46
  8
5
  6
CONTINUOUS
 10
1054.596
 20
1045.182
 30
0.0
 11
1034.596
 21
1045.182
 31
0.0
  0
LINE
  5
47
  8
5
  6
CONTINUOUS
 10
1034.596
 20
1045.182
 30
0.0
 11
1026.596
 21
1052.25
 31
0.0
  0
LINE
  5
48
  8
5
  6
CONTINUOUS
 10
1026.596
 20
1052.25
 30
0.0
 11
1026.596
 21
1072.373
 31
0.0
  0
LINE
  5
49
  8
5
  6
CONTINUOUS
 10
997.9796
 20
1032.78
 30
0.0
 11
994.8457
 21
1072.373
 31
0.0
  0
LINE
  5
4A
  8
5
  6
CONTINUOUS
 10
997.9796
 20
1032.78
 30
0.0
 11
1015.096
 21
1018.68
 31
0.0
  0
LINE
  5
4B
  8
5
  6
CONTINUOUS
 10
1015.096
 20
1018.68
 30
0.0
 11
1074.096
 21
1018.68
 31
0.0
  0
LINE
  5
4C
  8
5
  6
CONTINUOUS
 10
1074.096
 20
1018.68
 30
0.0
 11
1091.212
 21
1032.78
 31
0.0
  0
LINE
  5
4D
  8
5
  6
CONTINUOUS
 10
1091.212
 20
1032.78
 30
0.0
 11
1094.346
 21
1072.373
 31
0.0
  0
LINE
  5
4E
  8
5
  6
CONTINUOUS
 10
994.4402
 20
1041.463
 30
0.0
 11
993.4232
 21
1062.033
 31
0.0
  0
LINE
  5
4F
  8
5
  6
CONTINUOUS
 10
994.4402
 20
1041.463
 30
0.0
 11
997.9796
 21
1010.702
 31
0.0
  0
LINE
  5
50
  8
5
  6
CONTINUOUS
 10
997.9796
 20
1010.702
 30
0.0
 11
997.9796
 21
1032.78
 31
0.0
  0
LINE
  5
51
  8
5
  6
CONTINUOUS
 10
1091.212
 20
1032.78
 30
0.0
 11
1091.212
 21
1010.702
 31
0.0
  0
LINE
  5
52
  8
5
  6
CONTINUOUS
 10
1253.096
 20
1427.473
 30
0.0
 11
1253.096
 21
1381.913
 31
0.0
  0
LINE
  5
53
  8
5
  6
CONTINUOUS
 10
1253.096
 20
1427.473
 30
0.0
 11
1253.096
 21
1440.973
 31
0.0
  0
LINE
  5
54
  8
5
  6
CONTINUOUS
 10
968.0958
 20
1371.573
 30
0.0
 11
1404.096
 21
1371.573
 31
0.0
  0
LINE
  5
55
  8
5
  6
CONTINUOUS
 10
1094.751
 20
1041.463
 30
0.0
 11
1091.212
 21
1010.702
 31
0.0
  0
LINE
  5
56
  8
5
  6
CONTINUOUS
 10
1406.325
 20
1354.173
 30
0.0
 11
1408.567
 21
1336.673
 31
0.0
  0
LINE
  5
57
  8
5
  6
CONTINUOUS
 10
1408.567
 20
1336.673
 30
0.0
 11
1410.077
 21
1324.886
 31
0.0
  0
LINE
  5
58
  8
5
  6
CONTINUOUS
 10
1404.096
 20
1371.573
 30
0.0
 11
1406.318
 21
1354.224
 31
0.0
  0
LINE
  5
59
  8
5
  6
CONTINUOUS
 10
1408.567
 20
1107.273
 30
0.0
 11
1410.077
 21
1119.06
 31
0.0
  0
LINE
  5
5A
  8
5
  6
CONTINUOUS
 10
1406.318
 20
1089.723
 30
0.0
 11
1404.096
 21
1072.373
 31
0.0
  0
LINE
  5
5B
  8
5
  6
CONTINUOUS
 10
1406.325
 20
1089.773
 30
0.0
 11
1408.567
 21
1107.273
 31
0.0
  0
LINE
  5
5C
  8
5
  6
CONTINUOUS
 10
965.8668
 20
1354.173
 30
0.0
 11
963.625
 21
1336.673
 31
0.0
  0
LINE
  5
5D
  8
5
  6
CONTINUOUS
 10
1703.596
 20
1425.267
 30
0.0
 11
1703.596
 21
1305.267
 31
0.0
  0
LINE
  5
5E
  8
5
  6
CONTINUOUS
 10
963.625
 20
1336.673
 30
0.0
 11
962.115
 21
1324.886
 31
0.0
  0
LINE
  5
5F
  8
5
  6
CONTINUOUS
 10
965.8733
 20
1354.224
 30
0.0
 11
968.0958
 21
1371.573
 31
0.0
  0
LINE
  5
60
  8
5
  6
CONTINUOUS
 10
977.4103
 20
1412.391
 30
0.0
 11
979.4561
 21
1470.973
 31
0.0
  0
LINE
  5
61
  8
5
  6
CONTINUOUS
 10
963.625
 20
1107.273
 30
0.0
 11
962.115
 21
1119.06
 31
0.0
  0
LINE
  5
62
  8
5
  6
CONTINUOUS
 10
968.0958
 20
1072.373
 30
0.0
 11
965.8733
 21
1089.723
 31
0.0
  0
LINE
  5
63
  8
5
  6
CONTINUOUS
 10
965.8668
 20
1089.773
 30
0.0
 11
963.625
 21
1107.273
 31
0.0
  0
LINE
  5
64
  8
5
  6
CONTINUOUS
 10
1540.596
 20
1100.92
 30
0.0
 11
1540.596
 21
1343.027
 31
0.0
  0
LINE
  5
65
  8
5
  6
CONTINUOUS
 10
1540.596
 20
1100.92
 30
0.0
 11
1540.596
 21
989.4733
 31
0.0
  0
LINE
  5
66
  8
5
  6
CONTINUOUS
 10
1540.596
 20
1454.473
 30
0.0
 11
1540.596
 21
1343.027
 31
0.0
  0
LINE
  5
67
  8
5
  6
CONTINUOUS
 10
1613.596
 20
1361.973
 30
0.0
 11
1613.596
 21
1081.973
 31
0.0
  0
LINE
  5
68
  8
5
  6
CONTINUOUS
 10
1472.096
 20
1457.473
 30
0.0
 11
1411.596
 21
1457.473
 31
0.0
  0
LINE
  5
69
  8
5
  6
CONTINUOUS
 10
1472.096
 20
1454.473
 30
0.0
 11
1540.596
 21
1454.473
 31
0.0
  0
LINE
  5
6A
  8
5
  6
CONTINUOUS
 10
1472.096
 20
989.4733
 30
0.0
 11
1540.596
 21
989.4733
 31
0.0
  0
LINE
  5
6B
  8
5
  6
CONTINUOUS
 10
1472.096
 20
1099.677
 30
0.0
 11
1472.096
 21
986.4733
 31
0.0
  0
LINE
  5
6C
  8
5
  6
CONTINUOUS
 10
1472.096
 20
1457.473
 30
0.0
 11
1472.096
 21
1344.269
 31
0.0
  0
LINE
  5
6D
  8
5
  6
CONTINUOUS
 10
1472.096
 20
1099.677
 30
0.0
 11
1472.096
 21
1344.269
 31
0.0
  0
LINE
  5
6E
  8
5
  6
CONTINUOUS
 10
1411.596
 20
1344.269
 30
0.0
 11
1411.596
 21
1099.677
 31
0.0
  0
LINE
  5
6F
  8
5
  6
CONTINUOUS
 10
1411.596
 20
1344.269
 30
0.0
 11
1411.596
 21
1457.473
 31
0.0
  0
LINE
  5
70
  8
5
  6
CONTINUOUS
 10
1404.108
 20
1461.874
 30
0.0
 11
1278.973
 21
1461.874
 31
0.0
  0
LINE
  5
71
  8
5
  6
CONTINUOUS
 10
1257.616
 20
1444.624
 30
0.0
 11
1406.312
 21
1444.624
 31
0.0
  0
LINE
  5
72
  8
5
  6
CONTINUOUS
 10
1406.315
 20
1444.649
 30
0.0
 11
1406.312
 21
1444.624
 31
0.0
  0
LINE
  5
73
  8
5
  6
CONTINUOUS
 10
1404.096
 20
1427.473
 30
0.0
 11
1383.876
 21
1427.473
 31
0.0
  0
LINE
  5
74
  8
5
  6
CONTINUOUS
 10
1289.316
 20
1427.473
 30
0.0
 11
1253.096
 21
1427.473
 31
0.0
  0
LINE
  5
75
  8
5
  6
CONTINUOUS
 10
1406.312
 20
1444.624
 30
0.0
 11
1404.096
 21
1427.473
 31
0.0
  0
LINE
  5
76
  8
5
  6
CONTINUOUS
 10
1406.312
 20
1089.773
 30
0.0
 11
965.8798
 21
1089.773
 31
0.0
  0
LINE
  5
77
  8
5
  6
CONTINUOUS
 10
1404.096
 20
1106.873
 30
0.0
 11
1406.312
 21
1089.773
 31
0.0
  0
LINE
  5
78
  8
5
  6
CONTINUOUS
 10
968.0958
 20
1106.873
 30
0.0
 11
1404.096
 21
1106.873
 31
0.0
  0
LINE
  5
79
  8
5
  6
CONTINUOUS
 10
965.8798
 20
1089.773
 30
0.0
 11
968.0958
 21
1106.873
 31
0.0
  0
LINE
  5
7A
  8
5
  6
CONTINUOUS
 10
1406.312
 20
1354.173
 30
0.0
 11
965.8797
 21
1354.173
 31
0.0
  0
LINE
  5
7B
  8
5
  6
CONTINUOUS
 10
968.0958
 20
1336.673
 30
0.0
 11
965.8797
 21
1354.173
 31
0.0
  0
LINE
  5
7C
  8
5
  6
CONTINUOUS
 10
1404.096
 20
1336.673
 30
0.0
 11
968.0958
 21
1336.673
 31
0.0
  0
LINE
  5
7D
  8
5
  6
CONTINUOUS
 10
1406.312
 20
1354.173
 30
0.0
 11
1404.096
 21
1336.673
 31
0.0
  0
LINE
  5
7E
  8
5
  6
CONTINUOUS
 10
1404.096
 20
1336.673
 30
0.0
 11
1408.567
 21
1336.673
 31
0.0
  0
LINE
  5
7F
  8
5
  6
CONTINUOUS
 10
1703.596
 20
1405.267
 30
0.0
 11
1720.916
 21
1415.267
 31
0.0
  0
LINE
  5
80
  8
5
  6
CONTINUOUS
 10
1408.567
 20
1107.273
 30
0.0
 11
1404.096
 21
1107.273
 31
0.0
  0
LINE
  5
81
  8
5
  6
CONTINUOUS
 10
1404.096
 20
1106.873
 30
0.0
 11
1404.096
 21
1107.273
 31
0.0
  0
LINE
  5
82
  8
5
  6
CONTINUOUS
 10
1406.786
 20
1221.973
 30
0.0
 11
1404.096
 21
1221.973
 31
0.0
  0
LINE
  5
83
  8
5
  6
CONTINUOUS
 10
1404.096
 20
1204.673
 30
0.0
 11
1404.096
 21
1221.973
 31
0.0
  0
LINE
  5
84
  8
5
  6
CONTINUOUS
 10
1404.096
 20
1204.673
 30
0.0
 11
1406.874
 21
1204.673
 31
0.0
  0
LINE
  5
85
  8
5
  6
CONTINUOUS
 10
1407.136
 20
1256.473
 30
0.0
 11
1404.096
 21
1256.473
 31
0.0
  0
LINE
  5
86
  8
5
  6
CONTINUOUS
 10
1472.096
 20
986.4733
 30
0.0
 11
1411.596
 21
986.4733
 31
0.0
  0
LINE
  5
87
  8
5
  6
CONTINUOUS
 10
1703.596
 20
1385.267
 30
0.0
 11
1720.916
 21
1395.267
 31
0.0
  0
LINE
  5
88
  8
5
  6
CONTINUOUS
 10
1404.096
 20
1239.273
 30
0.0
 11
1404.096
 21
1256.473
 31
0.0
  0
LINE
  5
89
  8
5
  6
CONTINUOUS
 10
1404.096
 20
1239.273
 30
0.0
 11
1406.874
 21
1239.273
 31
0.0
  0
LINE
  5
8A
  8
5
  6
CONTINUOUS
 10
1408.026
 20
1286.373
 30
0.0
 11
1404.096
 21
1286.373
 31
0.0
  0
LINE
  5
8B
  8
5
  6
CONTINUOUS
 10
1404.096
 20
1271.473
 30
0.0
 11
1404.096
 21
1286.373
 31
0.0
  0
LINE
  5
8C
  8
5
  6
CONTINUOUS
 10
1404.096
 20
1271.473
 30
0.0
 11
1407.512
 21
1271.473
 31
0.0
  0
LINE
  5
8D
  8
5
  6
CONTINUOUS
 10
1409.65
 20
1318.373
 30
0.0
 11
1404.096
 21
1318.373
 31
0.0
  0
LINE
  5
8E
  8
5
  6
CONTINUOUS
 10
1404.096
 20
1301.373
 30
0.0
 11
1404.096
 21
1318.373
 31
0.0
  0
LINE
  5
8F
  8
5
  6
CONTINUOUS
 10
1404.096
 20
1301.373
 30
0.0
 11
1408.695
 21
1301.373
 31
0.0
  0
LINE
  5
90
  8
5
  6
CONTINUOUS
 10
1703.596
 20
1365.267
 30
0.0
 11
1720.916
 21
1375.267
 31
0.0
  0
LINE
  5
91
  8
5
  6
CONTINUOUS
 10
1411.596
 20
986.4733
 30
0.0
 11
1411.596
 21
1099.677
 31
0.0
  0
LINE
  5
92
  8
5
  6
CONTINUOUS
 10
1703.596
 20
1345.267
 30
0.0
 11
1720.916
 21
1355.267
 31
0.0
  0
LINE
  5
93
  8
5
  6
CONTINUOUS
 10
1703.596
 20
1325.267
 30
0.0
 11
1720.916
 21
1335.267
 31
0.0
  0
LINE
  5
94
  8
5
  6
CONTINUOUS
 10
1407.136
 20
1187.473
 30
0.0
 11
1404.096
 21
1187.473
 31
0.0
  0
LINE
  5
95
  8
5
  6
CONTINUOUS
 10
1404.096
 20
1172.573
 30
0.0
 11
1404.096
 21
1187.473
 31
0.0
  0
LINE
  5
96
  8
5
  6
CONTINUOUS
 10
1404.096
 20
1172.573
 30
0.0
 11
1407.509
 21
1172.573
 31
0.0
  0
LINE
  5
97
  8
5
  6
CONTINUOUS
 10
1408.026
 20
1157.573
 30
0.0
 11
1404.096
 21
1157.573
 31
0.0
  0
LINE
  5
98
  8
5
  6
CONTINUOUS
 10
1404.096
 20
1142.573
 30
0.0
 11
1404.096
 21
1157.573
 31
0.0
  0
LINE
  5
99
  8
5
  6
CONTINUOUS
 10
1404.096
 20
1142.573
 30
0.0
 11
1408.695
 21
1142.573
 31
0.0
  0
LINE
  5
9A
  8
5
  6
CONTINUOUS
 10
1409.65
 20
1125.573
 30
0.0
 11
1404.096
 21
1125.573
 31
0.0
  0
LINE
  5
9B
  8
5
  6
CONTINUOUS
 10
1404.096
 20
1107.273
 30
0.0
 11
1404.096
 21
1125.573
 31
0.0
  0
LINE
  5
9C
  8
5
  6
CONTINUOUS
 10
1404.096
 20
1187.473
 30
0.0
 11
1404.096
 21
1204.673
 31
0.0
  0
LINE
  5
9D
  8
5
  6
CONTINUOUS
 10
1404.096
 20
1221.973
 30
0.0
 11
1404.096
 21
1239.273
 31
0.0
  0
LINE
  5
9E
  8
5
  6
CONTINUOUS
 10
1404.096
 20
1256.473
 30
0.0
 11
1404.096
 21
1271.473
 31
0.0
  0
LINE
  5
9F
  8
5
  6
CONTINUOUS
 10
1404.096
 20
1286.373
 30
0.0
 11
1404.096
 21
1301.373
 31
0.0
  0
LINE
  5
A0
  8
5
  6
CONTINUOUS
 10
1404.096
 20
1318.373
 30
0.0
 11
1404.096
 21
1336.673
 31
0.0
  0
LINE
  5
A1
  8
5
  6
CONTINUOUS
 10
1404.096
 20
1157.573
 30
0.0
 11
1404.096
 21
1172.573
 31
0.0
  0
LINE
  5
A2
  8
5
  6
CONTINUOUS
 10
859.5958
 20
1258.473
 30
0.0
 11
757.5957
 21
1258.473
 31
0.0
  0
LINE
  5
A3
  8
5
  6
CONTINUOUS
 10
868.5958
 20
1258.473
 30
0.0
 11
859.5958
 21
1258.473
 31
0.0
  0
LINE
  5
A4
  8
5
  6
CONTINUOUS
 10
738.5958
 20
1189.473
 30
0.0
 11
738.5958
 21
1254.473
 31
0.0
  0
LINE
  5
A5
  8
5
  6
CONTINUOUS
 10
1406.786
 20
1440.973
 30
0.0
 11
1406.786
 21
1440.973
 31
0.0
  0
LINE
  5
A6
  8
5
  6
CONTINUOUS
 10
748.5958
 20
1254.473
 30
0.0
 11
738.5959
 21
1254.473
 31
0.0
  0
LINE
  5
A7
  8
5
  6
CONTINUOUS
 10
1404.096
 20
1125.573
 30
0.0
 11
1404.096
 21
1142.573
 31
0.0
  0
LINE
  5
A8
  8
5
  6
CONTINUOUS
 10
963.625
 20
1336.673
 30
0.0
 11
968.0958
 21
1336.673
 31
0.0
  0
LINE
  5
A9
  8
5
  6
CONTINUOUS
 10
968.0958
 20
1107.273
 30
0.0
 11
963.6251
 21
1107.273
 31
0.0
  0
LINE
  5
AA
  8
5
  6
CONTINUOUS
 10
968.0958
 20
1107.273
 30
0.0
 11
968.0958
 21
1106.873
 31
0.0
  0
LINE
  5
AB
  8
5
  6
CONTINUOUS
 10
965.3179
 20
1204.673
 30
0.0
 11
968.0958
 21
1204.673
 31
0.0
  0
LINE
  5
AC
  8
5
  6
CONTINUOUS
 10
968.0958
 20
1221.973
 30
0.0
 11
968.0958
 21
1204.673
 31
0.0
  0
LINE
  5
AD
  8
5
  6
CONTINUOUS
 10
968.0958
 20
1221.973
 30
0.0
 11
965.4056
 21
1221.973
 31
0.0
  0
LINE
  5
AE
  8
5
  6
CONTINUOUS
 10
873.5958
 20
1254.473
 30
0.0
 11
868.5957
 21
1254.473
 31
0.0
  0
LINE
  5
AF
  8
5
  6
CONTINUOUS
 10
965.3179
 20
1239.273
 30
0.0
 11
968.0958
 21
1239.273
 31
0.0
  0
LINE
  5
B0
  8
5
  6
CONTINUOUS
 10
968.0958
 20
1256.473
 30
0.0
 11
968.0958
 21
1239.273
 31
0.0
  0
LINE
  5
B1
  8
5
  6
CONTINUOUS
 10
968.0958
 20
1256.473
 30
0.0
 11
965.0553
 21
1256.473
 31
0.0
  0
LINE
  5
B2
  8
5
  6
CONTINUOUS
 10
964.6795
 20
1271.473
 30
0.0
 11
968.0958
 21
1271.473
 31
0.0
  0
LINE
  5
B3
  8
5
  6
CONTINUOUS
 10
968.0958
 20
1286.373
 30
0.0
 11
968.0958
 21
1271.473
 31
0.0
  0
LINE
  5
B4
  8
5
  6
CONTINUOUS
 10
968.0958
 20
1286.373
 30
0.0
 11
964.1652
 21
1286.373
 31
0.0
  0
LINE
  5
B5
  8
5
  6
CONTINUOUS
 10
963.4969
 20
1301.373
 30
0.0
 11
968.0958
 21
1301.373
 31
0.0
  0
LINE
  5
B6
  8
5
  6
CONTINUOUS
 10
968.0958
 20
1318.373
 30
0.0
 11
968.0958
 21
1301.373
 31
0.0
  0
LINE
  5
B7
  8
5
  6
CONTINUOUS
 10
968.0958
 20
1318.373
 30
0.0
 11
962.5415
 21
1318.373
 31
0.0
  0
LINE
  5
B8
  8
5
  6
CONTINUOUS
 10
964.6826
 20
1172.573
 30
0.0
 11
968.0958
 21
1172.573
 31
0.0
  0
LINE
  5
B9
  8
5
  6
CONTINUOUS
 10
968.0958
 20
1187.473
 30
0.0
 11
968.0958
 21
1172.573
 31
0.0
  0
LINE
  5
BA
  8
5
  6
CONTINUOUS
 10
968.0958
 20
1187.473
 30
0.0
 11
965.0553
 21
1187.473
 31
0.0
  0
LINE
  5
BB
  8
5
  6
CONTINUOUS
 10
738.5959
 20
1189.473
 30
0.0
 11
873.5958
 21
1189.473
 31
0.0
  0
LINE
  5
BC
  8
5
  6
CONTINUOUS
 10
757.5957
 20
1253.202
 30
0.0
 11
859.5958
 21
1253.202
 31
0.0
  0
LINE
  5
BD
  8
5
  6
CONTINUOUS
 10
868.5957
 20
1254.473
 30
0.0
 11
868.5958
 21
1258.473
 31
0.0
  0
LINE
  5
BE
  8
5
  6
CONTINUOUS
 10
748.5958
 20
1258.473
 30
0.0
 11
748.5958
 21
1254.473
 31
0.0
  0
LINE
  5
BF
  8
5
  6
CONTINUOUS
 10
1095.768
 20
1062.033
 30
0.0
 11
1094.751
 21
1041.463
 31
0.0
  0
LINE
  5
C0
  8
5
  6
CONTINUOUS
 10
1095.768
 20
1062.033
 30
0.0
 11
1411.596
 21
1062.033
 31
0.0
  0
LINE
  5
C1
  8
5
  6
CONTINUOUS
 10
1026.596
 20
1062.033
 30
0.0
 11
1062.596
 21
1062.033
 31
0.0
  0
LINE
  5
C2
  8
5
  6
CONTINUOUS
 10
982.0958
 20
1062.033
 30
0.0
 11
993.4232
 21
1062.033
 31
0.0
  0
LINE
  5
C3
  8
5
  6
CONTINUOUS
 10
982.0958
 20
1062.033
 30
0.0
 11
982.0958
 21
1016.473
 31
0.0
  0
LINE
  5
C4
  8
5
  6
CONTINUOUS
 10
982.0958
 20
1016.473
 30
0.0
 11
997.3157
 21
1016.473
 31
0.0
  0
LINE
  5
C5
  8
5
  6
CONTINUOUS
 10
1091.876
 20
1016.473
 30
0.0
 11
1411.596
 21
1016.473
 31
0.0
  0
LINE
  5
C6
  8
5
  6
CONTINUOUS
 10
896.5959
 20
1005.47
 30
0.0
 11
954.0959
 21
1003.462
 31
0.0
  0
LINE
  5
C7
  8
5
  6
CONTINUOUS
 10
954.0959
 20
1440.484
 30
0.0
 11
896.5959
 21
1438.476
 31
0.0
  0
LINE
  5
C8
  8
5
  6
CONTINUOUS
 10
977.625
 20
1016.873
 30
0.0
 11
977.6251
 21
1035.413
 31
0.0
  0
LINE
  5
C9
  8
5
  6
CONTINUOUS
 10
1219.735
 20
1470.973
 30
0.0
 11
1221.781
 21
1412.391
 31
0.0
  0
LINE
  5
CA
  8
5
  6
CONTINUOUS
 10
979.8668
 20
1047.376
 30
0.0
 11
979.8668
 21
999.3733
 31
0.0
  0
LINE
  5
CB
  8
5
  6
CONTINUOUS
 10
979.8733
 20
999.3227
 30
0.0
 11
982.0958
 21
1016.473
 31
0.0
  0
LINE
  5
CC
  8
5
  6
CONTINUOUS
 10
979.8797
 20
999.2727
 30
0.0
 11
1411.596
 21
999.2726
 31
0.0
  0
LINE
  5
CD
  8
5
  6
CONTINUOUS
 10
1091.212
 20
1010.702
 30
0.0
 11
1074.096
 21
1001.002
 31
0.0
  0
LINE
  5
CE
  8
5
  6
CONTINUOUS
 10
1074.096
 20
1001.002
 30
0.0
 11
1015.096
 21
1001.002
 31
0.0
  0
LINE
  5
CF
  8
5
  6
CONTINUOUS
 10
1015.096
 20
1001.002
 30
0.0
 11
997.9796
 21
1010.702
 31
0.0
  0
LINE
  5
D0
  8
5
  6
CONTINUOUS
 10
1074.096
 20
1001.002
 30
0.0
 11
1074.096
 21
1018.68
 31
0.0
  0
LINE
  5
D1
  8
5
  6
CONTINUOUS
 10
1015.096
 20
1018.68
 30
0.0
 11
1015.096
 21
1001.002
 31
0.0
  0
LINE
  5
D2
  8
5
  6
CONTINUOUS
 10
878.5959
 20
1446.973
 30
0.0
 11
873.5958
 21
1446.973
 31
0.0
  0
LINE
  5
D3
  8
5
  6
CONTINUOUS
 10
738.5958
 20
370.6067
 30
0.0
 11
738.5958
 21
435.6067
 31
0.0
  0
LINE
  5
D4
  8
5
  6
CONTINUOUS
 10
963.4969
 20
1142.573
 30
0.0
 11
968.0958
 21
1142.573
 31
0.0
  0
LINE
  5
D5
  8
5
  6
CONTINUOUS
 10
873.5958
 20
996.9734
 30
0.0
 11
878.5959
 21
996.9734
 31
0.0
  0
LINE
  5
D6
  8
5
  6
CONTINUOUS
 10
896.5958
 20
1496.973
 30
0.0
 11
878.5958
 21
1496.973
 31
0.0
  0
LINE
  5
D7
  8
5
  6
CONTINUOUS
 10
878.5959
 20
946.9732
 30
0.0
 11
896.5959
 21
946.9732
 31
0.0
  0
LINE
  5
D8
  8
5
  6
CONTINUOUS
 10
944.5958
 20
1519.473
 30
0.0
 11
944.5958
 21
1541.473
 31
0.0
  0
LINE
  5
D9
  8
5
  6
CONTINUOUS
 10
1254.596
 20
1519.473
 30
0.0
 11
1254.596
 21
1541.473
 31
0.0
  0
LINE
  5
DA
  8
5
  6
CONTINUOUS
 10
1213.596
 20
1496.473
 30
0.0
 11
1213.596
 21
1544.473
 31
0.0
  0
LINE
  5
DB
  8
5
  6
CONTINUOUS
 10
985.5958
 20
1544.473
 30
0.0
 11
985.5958
 21
1496.473
 31
0.0
  0
ARC
  5
DC
  8
5
  6
CONTINUOUS
 10
859.5958
 20
403.1067
 30
0.0
 40
9.0
 50
270.0
 51
90.0
  0
LINE
  5
DD
  8
5
  6
CONTINUOUS
 10
859.5959
 20
394.1066
 30
0.0
 11
757.5957
 21
394.1066
 31
0.0
  0
ARC
  5
DE
  8
5
  6
CONTINUOUS
 10
757.5958
 20
403.1067
 30
0.0
 40
9.0
 50
90.0
 51
270.0
  0
LINE
  5
DF
  8
5
  6
CONTINUOUS
 10
968.0958
 20
1157.573
 30
0.0
 11
968.0958
 21
1142.573
 31
0.0
  0
LINE
  5
E0
  8
5
  6
CONTINUOUS
 10
757.5957
 20
412.1066
 30
0.0
 11
859.5958
 21
412.1067
 31
0.0
  0
LINE
  5
E1
  8
5
  6
CONTINUOUS
 10
968.0958
 20
1157.573
 30
0.0
 11
964.1652
 21
1157.573
 31
0.0
  0
LINE
  5
E2
  8
5
  6
CONTINUOUS
 10
968.0958
 20
1125.573
 30
0.0
 11
968.0958
 21
1107.273
 31
0.0
  0
LINE
  5
E3
  8
5
  6
CONTINUOUS
 10
968.0958
 20
1125.573
 30
0.0
 11
962.5415
 21
1125.573
 31
0.0
  0
LINE
  5
E4
  8
5
  6
CONTINUOUS
 10
738.5958
 20
370.6067
 30
0.0
 11
873.5958
 21
370.6067
 31
0.0
  0
LINE
  5
E5
  8
5
  6
CONTINUOUS
 10
873.5958
 20
435.6067
 30
0.0
 11
738.5958
 21
435.6067
 31
0.0
  0
LINE
  5
E6
  8
5
  6
CONTINUOUS
 10
2102.262
 20
1258.473
 30
0.0
 11
2084.262
 21
1258.473
 31
0.0
  0
LINE
  5
E7
  8
5
  6
CONTINUOUS
 10
968.0958
 20
1204.673
 30
0.0
 11
968.0958
 21
1187.473
 31
0.0
  0
CIRCLE
  5
E8
  8
5
  6
CONTINUOUS
 10
2093.262
 20
1221.973
 30
0.0
 40
32.5
  0
LINE
  5
E9
  8
5
  6
CONTINUOUS
 10
968.0958
 20
1239.273
 30
0.0
 11
968.0958
 21
1221.973
 31
0.0
  0
LINE
  5
EA
  8
5
  6
CONTINUOUS
 10
968.0958
 20
1271.473
 30
0.0
 11
968.0958
 21
1256.473
 31
0.0
  0
LINE
  5
EB
  8
5
  6
CONTINUOUS
 10
968.0958
 20
1301.373
 30
0.0
 11
968.0958
 21
1286.373
 31
0.0
  0
LINE
  5
EC
  8
5
  6
CONTINUOUS
 10
968.0958
 20
1336.673
 30
0.0
 11
968.0958
 21
1318.373
 31
0.0
  0
LINE
  5
ED
  8
5
  6
CONTINUOUS
 10
968.0958
 20
1172.573
 30
0.0
 11
968.0958
 21
1157.573
 31
0.0
  0
LINE
  5
EE
  8
5
  6
CONTINUOUS
 10
968.0958
 20
1142.573
 30
0.0
 11
968.0958
 21
1125.573
 31
0.0
  0
LINE
  5
EF
  8
5
  6
CONTINUOUS
 10
1404.096
 20
1125.573
 30
0.0
 11
968.0958
 21
1125.573
 31
0.0
  0
LINE
  5
F0
  8
5
  6
CONTINUOUS
 10
968.0958
 20
1107.273
 30
0.0
 11
1404.096
 21
1107.273
 31
0.0
  0
LINE
  5
F1
  8
5
  6
CONTINUOUS
 10
1404.096
 20
1157.573
 30
0.0
 11
968.0958
 21
1157.573
 31
0.0
  0
LINE
  5
F2
  8
5
  6
CONTINUOUS
 10
968.0958
 20
1142.573
 30
0.0
 11
1404.096
 21
1142.573
 31
0.0
  0
LINE
  5
F3
  8
5
  6
CONTINUOUS
 10
1404.096
 20
1187.473
 30
0.0
 11
968.0958
 21
1187.473
 31
0.0
  0
LINE
  5
F4
  8
5
  6
CONTINUOUS
 10
968.0958
 20
1172.573
 30
0.0
 11
1404.096
 21
1172.573
 31
0.0
  0
LINE
  5
F5
  8
5
  6
CONTINUOUS
 10
1404.096
 20
1318.373
 30
0.0
 11
968.0958
 21
1318.373
 31
0.0
  0
LINE
  5
F6
  8
5
  6
CONTINUOUS
 10
968.0958
 20
1301.373
 30
0.0
 11
1404.096
 21
1301.373
 31
0.0
  0
LINE
  5
F7
  8
5
  6
CONTINUOUS
 10
1404.096
 20
1286.373
 30
0.0
 11
968.0958
 21
1286.373
 31
0.0
  0
LINE
  5
F8
  8
5
  6
CONTINUOUS
 10
968.0958
 20
1271.473
 30
0.0
 11
1404.096
 21
1271.473
 31
0.0
  0
ARC
  5
F9
  8
5
  6
CONTINUOUS
 10
2093.262
 20
1221.973
 30
0.0
 40
37.49997
 50
0.000002
 51
103.2617
  0
ARC
  5
FA
  8
5
  6
CONTINUOUS
 10
2093.262
 20
1221.973
 30
0.0
 40
37.50001
 50
103.8865
 51
0.0
  0
LINE
  5
FB
  8
5
  6
CONTINUOUS
 10
1404.096
 20
1256.473
 30
0.0
 11
968.0958
 21
1256.473
 31
0.0
  0
LINE
  5
FC
  8
5
  6
CONTINUOUS
 10
968.0958
 20
1239.273
 30
0.0
 11
1404.096
 21
1239.273
 31
0.0
  0
LINE
  5
FD
  8
5
  6
CONTINUOUS
 10
1404.096
 20
1221.973
 30
0.0
 11
968.0958
 21
1221.973
 31
0.0
  0
LINE
  5
FE
  8
5
  6
CONTINUOUS
 10
968.0958
 20
1204.673
 30
0.0
 11
1404.096
 21
1204.673
 31
0.0
  0
LINE
  5
FF
  8
5
  6
CONTINUOUS
 10
1408.541
 20
1408.411
 30
0.0
 11
1408.541
 21
1427.273
 31
0.0
  0
LINE
  5
100
  8
5
  6
CONTINUOUS
 10
1406.312
 20
1444.624
 30
0.0
 11
1406.312
 21
1396.495
 31
0.0
  0
LINE
  5
101
  8
5
  6
CONTINUOUS
 10
1404.096
 20
1381.913
 30
0.0
 11
1404.096
 21
1427.473
 31
0.0
  0
LINE
  5
102
  8
5
  6
CONTINUOUS
 10
1307.096
 20
1425.266
 30
0.0
 11
1289.98
 21
1411.166
 31
0.0
  0
LINE
  5
103
  8
5
  6
CONTINUOUS
 10
1307.096
 20
1442.944
 30
0.0
 11
1307.096
 21
1425.266
 31
0.0
  0
LINE
  5
105
  8
5
  6
CONTINUOUS
 10
993.4646
 20
1470.973
 30
0.0
 11
991.1087
 21
1403.511
 31
0.0
  0
LINE
  5
106
  8
5
  6
CONTINUOUS
 10
1289.98
 20
1433.244
 30
0.0
 11
1307.096
 21
1442.944
 31
0.0
  0
LINE
  5
107
  8
5
  6
CONTINUOUS
 10
1289.98
 20
1411.166
 30
0.0
 11
1289.98
 21
1433.244
 31
0.0
  0
LINE
  5
108
  8
5
  6
CONTINUOUS
 10
1366.096
 20
1442.944
 30
0.0
 11
1383.212
 21
1433.244
 31
0.0
  0
LINE
  5
109
  8
5
  6
CONTINUOUS
 10
1366.096
 20
1425.266
 30
0.0
 11
1366.096
 21
1442.944
 31
0.0
  0
LINE
  5
10A
  8
5
  6
CONTINUOUS
 10
1383.212
 20
1411.166
 30
0.0
 11
1366.096
 21
1425.266
 31
0.0
  0
LINE
  5
10B
  8
5
  6
CONTINUOUS
 10
1383.212
 20
1433.244
 30
0.0
 11
1383.212
 21
1411.166
 31
0.0
  0
LINE
  5
10C
  8
5
  6
CONTINUOUS
 10
1318.596
 20
1391.697
 30
0.0
 11
1326.596
 21
1398.764
 31
0.0
  0
LINE
  5
10D
  8
5
  6
CONTINUOUS
 10
1346.596
 20
1398.764
 30
0.0
 11
1354.596
 21
1391.697
 31
0.0
  0
LINE
  5
10E
  8
5
  6
CONTINUOUS
 10
1326.596
 20
1398.764
 30
0.0
 11
1346.596
 21
1398.764
 31
0.0
  0
LINE
  5
10F
  8
5
  6
CONTINUOUS
 10
1366.096
 20
1425.266
 30
0.0
 11
1307.096
 21
1425.266
 31
0.0
  0
LINE
  5
110
  8
5
  6
CONTINUOUS
 10
1307.096
 20
1442.944
 30
0.0
 11
1366.096
 21
1442.944
 31
0.0
  0
LINE
  5
111
  8
5
  6
CONTINUOUS
 10
1318.596
 20
1381.913
 30
0.0
 11
1354.596
 21
1381.913
 31
0.0
  0
LINE
  5
112
  8
5
  6
CONTINUOUS
 10
1253.096
 20
1381.913
 30
0.0
 11
1285.423
 21
1381.913
 31
0.0
  0
LINE
  5
113
  8
5
  6
CONTINUOUS
 10
1208.083
 20
1403.511
 30
0.0
 11
991.1087
 21
1403.511
 31
0.0
  0
LINE
  5
114
  8
5
  6
CONTINUOUS
 10
1387.768
 20
1381.913
 30
0.0
 11
1404.096
 21
1381.913
 31
0.0
  0
LINE
  5
115
  8
5
  6
CONTINUOUS
 10
1386.751
 20
1402.483
 30
0.0
 11
1387.768
 21
1381.913
 31
0.0
  0
LINE
  5
116
  8
5
  6
CONTINUOUS
 10
1285.423
 20
1381.913
 30
0.0
 11
1286.44
 21
1402.483
 31
0.0
  0
LINE
  5
117
  8
5
  6
CONTINUOUS
 10
1289.98
 20
1411.166
 30
0.0
 11
1286.846
 21
1371.573
 31
0.0
  0
LINE
  5
118
  8
5
  6
CONTINUOUS
 10
1286.44
 20
1402.483
 30
0.0
 11
1289.98
 21
1433.244
 31
0.0
  0
LINE
  5
119
  8
5
  6
CONTINUOUS
 10
1386.751
 20
1402.483
 30
0.0
 11
1383.212
 21
1433.244
 31
0.0
  0
LINE
  5
11A
  8
5
  6
CONTINUOUS
 10
1383.212
 20
1411.166
 30
0.0
 11
1386.346
 21
1371.573
 31
0.0
  0
LINE
  5
11B
  8
5
  6
CONTINUOUS
 10
1318.596
 20
1371.573
 30
0.0
 11
1318.596
 21
1391.697
 31
0.0
  0
LINE
  5
11C
  8
5
  6
CONTINUOUS
 10
1354.596
 20
1391.697
 30
0.0
 11
1354.596
 21
1371.573
 31
0.0
  0
LINE
  5
11D
  8
5
  6
CONTINUOUS
 10
1604.596
 20
1081.973
 30
0.0
 11
1540.596
 21
998.4733
 31
0.0
  0
LINE
  5
11E
  8
5
  6
CONTINUOUS
 10
1604.596
 20
1361.973
 30
0.0
 11
1540.596
 21
1445.473
 31
0.0
  0
LINE
  5
11F
  8
5
  6
CONTINUOUS
 10
1604.596
 20
1361.973
 30
0.0
 11
1604.596
 21
1081.973
 31
0.0
  0
LINE
  5
120
  8
5
  6
CONTINUOUS
 10
1613.596
 20
1081.973
 30
0.0
 11
1604.596
 21
1081.973
 31
0.0
  0
LINE
  5
121
  8
5
  6
CONTINUOUS
 10
1613.596
 20
1361.973
 30
0.0
 11
1604.596
 21
1361.973
 31
0.0
  0
LINE
  5
122
  8
5
  6
CONTINUOUS
 10
1411.596
 20
1099.677
 30
0.0
 11
1472.096
 21
1099.677
 31
0.0
  0
LINE
  5
123
  8
5
  6
CONTINUOUS
 10
1472.096
 20
1344.269
 30
0.0
 11
1411.596
 21
1344.269
 31
0.0
  0
LINE
  5
124
  8
5
  6
CONTINUOUS
 10
1540.596
 20
1343.027
 30
0.0
 11
1472.096
 21
1343.027
 31
0.0
  0
LINE
  5
125
  8
5
  6
CONTINUOUS
 10
1472.096
 20
1100.92
 30
0.0
 11
1540.596
 21
1100.92
 31
0.0
  0
LINE
  5
126
  8
6
  6
CENTER
 10
2093.262
 20
941.9732
 30
0.0
 11
2093.262
 21
1501.973
 31
0.0
  0
LINE
  5
127
  8
6
  6
CENTER
 10
1813.262
 20
1221.973
 30
0.0
 11
2373.262
 21
1221.973
 31
0.0
  0
LINE
  5
128
  8
7
  6
DASHED
 10
2344.262
 20
1112.473
 30
0.0
 11
2344.262
 21
1115.473
 31
0.0
  0
LINE
  5
129
  8
5
  6
CONTINUOUS
 10
2386.262
 20
1477.623
 30
0.0
 11
2386.262
 21
1597.623
 31
0.0
  0
LINE
  5
12A
  8
7
  6
DASHED
 10
2255.648
 20
1112.473
 30
0.0
 11
2344.262
 21
1112.473
 31
0.0
  0
LINE
  5
12B
  8
7
  6
DASHED
 10
2257.631
 20
1115.473
 30
0.0
 11
2344.262
 21
1115.473
 31
0.0
  0
LINE
  5
12C
  8
5
  6
CONTINUOUS
 10
986.0958
 20
1597.673
 30
0.0
 11
1213.096
 21
1597.673
 31
0.0
  0
LINE
  5
12D
  8
5
  6
CONTINUOUS
 10
986.0958
 20
1562.773
 30
0.0
 11
940.0958
 21
1562.773
 31
0.0
  0
LINE
  5
12E
  8
5
  6
CONTINUOUS
 10
1259.096
 20
1562.773
 30
0.0
 11
1213.096
 21
1562.773
 31
0.0
  0
LINE
  5
12F
  8
5
  6
CONTINUOUS
 10
2386.262
 20
1577.623
 30
0.0
 11
2403.582
 21
1587.623
 31
0.0
  0
LINE
  5
130
  8
5
  6
CONTINUOUS
 10
2386.262
 20
1557.967
 30
0.0
 11
2403.582
 21
1567.967
 31
0.0
  0
LINE
  5
131
  8
5
  6
CONTINUOUS
 10
2386.262
 20
1537.967
 30
0.0
 11
2403.582
 21
1547.967
 31
0.0
  0
LINE
  5
132
  8
5
  6
CONTINUOUS
 10
2386.262
 20
1517.967
 30
0.0
 11
2403.582
 21
1527.967
 31
0.0
  0
LINE
  5
133
  8
5
  6
CONTINUOUS
 10
2386.262
 20
1497.967
 30
0.0
 11
2403.582
 21
1507.967
 31
0.0
  0
LINE
  5
134
  8
5
  6
CONTINUOUS
 10
940.0958
 20
1562.773
 30
0.0
 11
989.5958
 21
1613.773
 31
0.0
  0
LINE
  5
135
  8
5
  6
CONTINUOUS
 10
1209.596
 20
1613.773
 30
0.0
 11
1259.096
 21
1562.773
 31
0.0
  0
LINE
  5
136
  8
5
  6
CONTINUOUS
 10
940.0958
 20
1562.773
 30
0.0
 11
940.0958
 21
1541.473
 31
0.0
  0
LINE
  5
137
  8
6
  6
CENTER
 10
377.7994
 20
993.4732
 30
0.0
 11
377.7994
 21
1450.473
 31
0.0
  0
LINE
  5
138
  8
6
  6
CENTER
 10
149.2994
 20
1221.973
 30
0.0
 11
606.2994
 21
1221.973
 31
0.0
  0
LINE
  5
139
  8
6
  6
CENTER
 10
1638.596
 20
403.1061
 30
0.0
 11
1209.596
 21
403.106378
 31
0.0
  0
LINE
  5
13A
  8
5
  6
CONTINUOUS
 10
1259.096
 20
1541.473
 30
0.0
 11
1259.096
 21
1562.773
 31
0.0
  0
LINE
  5
13B
  8
5
  6
CONTINUOUS
 10
1141.357
 20
1617.973
 30
0.0
 11
1155.136
 21
1617.973
 31
0.0
  0
LINE
  5
13C
  8
5
  6
CONTINUOUS
 10
1157.236
 20
1617.973
 30
0.0
 11
1162.038
 21
1617.973
 31
0.0
  0
LINE
  5
13D
  8
5
  6
CONTINUOUS
 10
1162.038
 20
1617.973
 30
0.0
 11
1176.866
 21
1617.973
 31
0.0
  0
LINE
  5
13E
  8
5
  6
CONTINUOUS
 10
1111.589
 20
1617.973
 30
0.0
 11
1116.392
 21
1617.973
 31
0.0
  0
LINE
  5
13F
  8
5
  6
CONTINUOUS
 10
1116.392
 20
1617.973
 30
0.0
 11
1131.22
 21
1617.973
 31
0.0
  0
LINE
  5
140
  8
5
  6
CONTINUOUS
 10
1095.712
 20
1617.973
 30
0.0
 11
1109.49
 21
1617.973
 31
0.0
  0
LINE
  5
141
  8
5
  6
CONTINUOUS
 10
1060.69
 20
1617.973
 30
0.0
 11
1060.69
 21
1617.973
 31
0.0
  0
LINE
  5
142
  8
5
  6
CONTINUOUS
 10
1060.69
 20
1617.973
 30
0.0
 11
1072.084
 21
1617.973
 31
0.0
  0
LINE
  5
143
  8
5
  6
CONTINUOUS
 10
1072.084
 20
1617.973
 30
0.0
 11
1075.924
 21
1617.973
 31
0.0
  0
LINE
  5
144
  8
5
  6
CONTINUOUS
 10
1075.924
 20
1617.973
 30
0.0
 11
1085.424
 21
1617.973
 31
0.0
  0
LINE
  5
145
  8
5
  6
CONTINUOUS
 10
1034.593
 20
1617.973
 30
0.0
 11
1043.456
 21
1617.973
 31
0.0
  0
LINE
  5
146
  8
5
  6
CONTINUOUS
 10
1043.456
 20
1617.973
 30
0.0
 11
1047.146
 21
1617.973
 31
0.0
  0
LINE
  5
147
  8
5
  6
CONTINUOUS
 10
1047.146
 20
1617.973
 30
0.0
 11
1058.59
 21
1617.973
 31
0.0
  0
LINE
  5
148
  8
5
  6
CONTINUOUS
 10
1155.136
 20
1613.773
 30
0.0
 11
1155.136
 21
1617.973
 31
0.0
  0
LINE
  5
149
  8
5
  6
CONTINUOUS
 10
1141.357
 20
1613.773
 30
0.0
 11
1141.357
 21
1617.973
 31
0.0
  0
LINE
  5
14A
  8
5
  6
CONTINUOUS
 10
1157.236
 20
1613.773
 30
0.0
 11
1157.236
 21
1617.973
 31
0.0
  0
LINE
  5
14B
  8
5
  6
CONTINUOUS
 10
1111.59
 20
1613.773
 30
0.0
 11
1111.589
 21
1617.973
 31
0.0
  0
LINE
  5
14C
  8
5
  6
CONTINUOUS
 10
1109.49
 20
1613.773
 30
0.0
 11
1109.49
 21
1617.973
 31
0.0
  0
LINE
  5
14D
  8
5
  6
CONTINUOUS
 10
1095.712
 20
1613.773
 30
0.0
 11
1095.712
 21
1617.973
 31
0.0
  0
LINE
  5
14E
  8
5
  6
CONTINUOUS
 10
1060.69
 20
1613.773
 30
0.0
 11
1060.69
 21
1617.973
 31
0.0
  0
LINE
  5
14F
  8
5
  6
CONTINUOUS
 10
1058.59
 20
1617.973
 30
0.0
 11
1058.59
 21
1613.773
 31
0.0
  0
LINE
  5
150
  8
5
  6
CONTINUOUS
 10
989.5958
 20
1613.773
 30
0.0
 11
1209.596
 21
1613.773
 31
0.0
  0
LINE
  5
151
  8
5
  6
CONTINUOUS
 10
951.5958
 20
1494.973
 30
0.0
 11
951.5958
 21
1519.473
 31
0.0
  0
LINE
  5
152
  8
5
  6
CONTINUOUS
 10
1247.596
 20
1494.973
 30
0.0
 11
1247.596
 21
1519.473
 31
0.0
  0
LINE
  5
153
  8
5
  6
CONTINUOUS
 10
1247.596
 20
1494.973
 30
0.0
 11
1223.596
 21
1470.973
 31
0.0
  0
LINE
  5
154
  8
5
  6
CONTINUOUS
 10
951.5958
 20
1494.973
 30
0.0
 11
975.5958
 21
1470.973
 31
0.0
  0
LINE
  5
155
  8
5
  6
CONTINUOUS
 10
985.5958
 20
1519.473
 30
0.0
 11
944.5958
 21
1519.473
 31
0.0
  0
LINE
  5
156
  8
5
  6
CONTINUOUS
 10
1254.596
 20
1519.473
 30
0.0
 11
1213.596
 21
1519.473
 31
0.0
  0
LINE
  5
157
  8
5
  6
CONTINUOUS
 10
985.5958
 20
1496.473
 30
0.0
 11
1213.596
 21
1496.473
 31
0.0
  0
LINE
  5
158
  8
5
  6
CONTINUOUS
 10
1223.596
 20
1470.973
 30
0.0
 11
975.5958
 21
1470.973
 31
0.0
  0
LINE
  5
159
  8
5
  6
CONTINUOUS
 10
1209.596
 20
1597.673
 30
0.0
 11
1209.596
 21
1613.773
 31
0.0
  0
LINE
  5
15A
  8
5
  6
CONTINUOUS
 10
989.5958
 20
1613.773
 30
0.0
 11
989.5958
 21
1597.673
 31
0.0
  0
LINE
  5
15B
  8
5
  6
CONTINUOUS
 10
1176.866
 20
1613.773
 30
0.0
 11
1176.866
 21
1617.973
 31
0.0
  0
LINE
  5
15C
  8
5
  6
CONTINUOUS
 10
1162.038
 20
1613.773
 30
0.0
 11
1162.038
 21
1617.973
 31
0.0
  0
LINE
  5
15D
  8
5
  6
CONTINUOUS
 10
1131.22
 20
1613.773
 30
0.0
 11
1131.22
 21
1617.973
 31
0.0
  0
LINE
  5
15E
  8
5
  6
CONTINUOUS
 10
1116.392
 20
1613.773
 30
0.0
 11
1116.392
 21
1617.973
 31
0.0
  0
LINE
  5
15F
  8
5
  6
CONTINUOUS
 10
1085.424
 20
1613.773
 30
0.0
 11
1085.424
 21
1617.973
 31
0.0
  0
LINE
  5
160
  8
5
  6
CONTINUOUS
 10
1075.924
 20
1613.773
 30
0.0
 11
1075.924
 21
1617.973
 31
0.0
  0
LINE
  5
161
  8
5
  6
CONTINUOUS
 10
1072.083
 20
1613.773
 30
0.0
 11
1072.084
 21
1617.973
 31
0.0
  0
LINE
  5
162
  8
5
  6
CONTINUOUS
 10
1047.146
 20
1613.773
 30
0.0
 11
1047.146
 21
1617.973
 31
0.0
  0
LINE
  5
163
  8
5
  6
CONTINUOUS
 10
1043.456
 20
1613.773
 30
0.0
 11
1043.456
 21
1617.973
 31
0.0
  0
LINE
  5
164
  8
5
  6
CONTINUOUS
 10
1034.593
 20
1613.773
 30
0.0
 11
1034.593
 21
1617.973
 31
0.0
  0
LINE
  5
165
  8
5
  6
CONTINUOUS
 10
951.5958
 20
1494.973
 30
0.0
 11
1247.596
 21
1494.973
 31
0.0
  0
LINE
  5
166
  8
5
  6
CONTINUOUS
 10
172.7527
 20
1398.764
 30
0.0
 11
172.7527
 21
1398.764
 31
0.0
  0
LINE
  5
167
  8
5
  6
CONTINUOUS
 10
537.2994
 20
1541.473
 30
0.0
 11
215.2994
 21
1541.473
 31
0.0
  0
LINE
  5
168
  8
5
  6
CONTINUOUS
 10
215.2994
 20
1541.473
 30
0.0
 11
215.2994
 21
1562.773
 31
0.0
  0
LINE
  5
169
  8
5
  6
CONTINUOUS
 10
186.2994
 20
1544.473
 30
0.0
 11
186.2994
 21
1597.673
 31
0.0
  0
LINE
  5
16A
  8
5
  6
CONTINUOUS
 10
532.7994
 20
1541.473
 30
0.0
 11
532.7994
 21
1519.473
 31
0.0
  0
LINE
  5
16B
  8
5
  6
CONTINUOUS
 10
220.2994
 20
1519.473
 30
0.0
 11
220.2994
 21
1541.473
 31
0.0
  0
LINE
  5
16C
  8
5
  6
CONTINUOUS
 10
185.2994
 20
1544.473
 30
0.0
 11
215.2994
 21
1544.473
 31
0.0
  0
LINE
  5
16D
  8
5
  6
CONTINUOUS
 10
186.2994
 20
1597.673
 30
0.0
 11
252.6678
 21
1597.673
 31
0.0
  0
LINE
  5
16E
  8
5
  6
CONTINUOUS
 10
249.1705
 20
1597.673
 30
0.0
 11
264.7994
 21
1613.773
 31
0.0
  0
LINE
  5
16F
  8
5
  6
CONTINUOUS
 10
264.7994
 20
1562.773
 30
0.0
 11
215.2994
 21
1562.773
 31
0.0
  0
LINE
  5
170
  8
5
  6
CONTINUOUS
 10
487.8028
 20
1613.769
 30
0.0
 11
537.2995
 21
1562.773
 31
0.0
  0
LINE
  5
171
  8
5
  6
CONTINUOUS
 10
537.2995
 20
1562.773
 30
0.0
 11
487.7995
 21
1562.773
 31
0.0
  0
LINE
  5
172
  8
5
  6
CONTINUOUS
 10
859.5958
 20
1258.473
 30
0.0
 11
859.5958
 21
1253.202
 31
0.0
  0
LINE
  5
173
  8
5
  6
CONTINUOUS
 10
757.5957
 20
1258.473
 30
0.0
 11
757.5957
 21
1253.202
 31
0.0
  0
LINE
  5
174
  8
5
  6
CONTINUOUS
 10
537.2995
 20
1562.773
 30
0.0
 11
537.2994
 21
1541.473
 31
0.0
  0
LINE
  5
175
  8
5
  6
CONTINUOUS
 10
349.7961
 20
1617.973
 30
0.0
 11
364.6252
 21
1617.973
 31
0.0
  0
LINE
  5
176
  8
5
  6
CONTINUOUS
 10
364.6252
 20
1617.973
 30
0.0
 11
375.8628
 21
1617.973
 31
0.0
  0
LINE
  5
177
  8
5
  6
CONTINUOUS
 10
954.0959
 20
1002.973
 30
0.0
 11
979.4056
 21
1002.973
 31
0.0
  0
LINE
  5
178
  8
5
  6
CONTINUOUS
 10
377.9628
 20
1617.973
 30
0.0
 11
380.5175
 21
1617.973
 31
0.0
  0
LINE
  5
179
  8
5
  6
CONTINUOUS
 10
380.5175
 20
1617.973
 30
0.0
 11
392.4207
 21
1617.973
 31
0.0
  0
LINE
  5
17A
  8
5
  6
CONTINUOUS
 10
392.4207
 20
1617.973
 30
0.0
 11
402.8598
 21
1617.973
 31
0.0
  0
LINE
  5
17B
  8
5
  6
CONTINUOUS
 10
377.9628
 20
1617.973
 30
0.0
 11
377.9628
 21
1617.973
 31
0.0
  0
LINE
  5
17C
  8
5
  6
CONTINUOUS
 10
349.7961
 20
1617.973
 30
0.0
 11
349.7961
 21
1617.973
 31
0.0
  0
LINE
  5
17D
  8
5
  6
CONTINUOUS
 10
377.9628
 20
1617.973
 30
0.0
 11
377.9628
 21
1617.973
 31
0.0
  0
LINE
  5
17E
  8
5
  6
CONTINUOUS
 10
349.7961
 20
1617.973
 30
0.0
 11
349.7961
 21
1617.973
 31
0.0
  0
LINE
  5
17F
  8
5
  6
CONTINUOUS
 10
375.8628
 20
1613.773
 30
0.0
 11
375.8628
 21
1617.973
 31
0.0
  0
LINE
  5
180
  8
5
  6
CONTINUOUS
 10
349.7963
 20
1613.773
 30
0.0
 11
349.7961
 21
1617.973
 31
0.0
  0
LINE
  5
181
  8
5
  6
CONTINUOUS
 10
402.8598
 20
1613.773
 30
0.0
 11
402.8598
 21
1617.973
 31
0.0
  0
LINE
  5
182
  8
5
  6
CONTINUOUS
 10
377.9627
 20
1613.773
 30
0.0
 11
377.9628
 21
1617.973
 31
0.0
  0
LINE
  5
183
  8
5
  6
CONTINUOUS
 10
264.7994
 20
1613.773
 30
0.0
 11
487.8028
 21
1613.769
 31
0.0
  0
LINE
  5
184
  8
5
  6
CONTINUOUS
 10
978.4066
 20
1440.973
 30
0.0
 11
954.0958
 21
1440.973
 31
0.0
  0
LINE
  5
185
  8
5
  6
CONTINUOUS
 10
1253.096
 20
1440.973
 30
0.0
 11
1220.785
 21
1440.973
 31
0.0
  0
LINE
  5
186
  8
5
  6
CONTINUOUS
 10
1411.596
 20
1440.973
 30
0.0
 11
1406.786
 21
1440.973
 31
0.0
  0
LINE
  5
187
  8
5
  6
CONTINUOUS
 10
156.8286
 20
1018.68
 30
0.0
 11
165.3008
 21
1032.78
 31
0.0
  0
LINE
  5
188
  8
5
  6
CONTINUOUS
 10
525.7994
 20
1519.473
 30
0.0
 11
525.7994
 21
1494.973
 31
0.0
  0
LINE
  5
189
  8
5
  6
CONTINUOUS
 10
525.7994
 20
1494.973
 30
0.0
 11
501.7994
 21
1470.973
 31
0.0
  0
LINE
  5
18A
  8
5
  6
CONTINUOUS
 10
229.7994
 20
1494.973
 30
0.0
 11
253.7994
 21
1470.973
 31
0.0
  0
LINE
  5
18B
  8
5
  6
CONTINUOUS
 10
1208.083
 20
1403.511
 30
0.0
 11
1205.727
 21
1470.973
 31
0.0
  0
LINE
  5
18C
  8
5
  6
CONTINUOUS
 10
185.2994
 20
1496.473
 30
0.0
 11
185.2994
 21
1544.473
 31
0.0
  0
LINE
  5
18D
  8
5
  6
CONTINUOUS
 10
532.7994
 20
1519.473
 30
0.0
 11
220.2994
 21
1519.473
 31
0.0
  0
LINE
  5
18E
  8
5
  6
CONTINUOUS
 10
229.7994
 20
1494.973
 30
0.0
 11
229.7994
 21
1519.473
 31
0.0
  0
LINE
  5
18F
  8
5
  6
CONTINUOUS
 10
229.7994
 20
1496.473
 30
0.0
 11
185.2994
 21
1496.473
 31
0.0
  0
LINE
  5
190
  8
5
  6
CONTINUOUS
 10
501.7994
 20
1470.973
 30
0.0
 11
253.7994
 21
1470.973
 31
0.0
  0
LINE
  5
191
  8
5
  6
CONTINUOUS
 10
252.6678
 20
1597.673
 30
0.0
 11
218.7994
 21
1562.773
 31
0.0
  0
LINE
  5
192
  8
5
  6
CONTINUOUS
 10
264.7994
 20
1613.773
 30
0.0
 11
264.7994
 21
1562.773
 31
0.0
  0
LINE
  5
193
  8
5
  6
CONTINUOUS
 10
487.7995
 20
1562.773
 30
0.0
 11
264.7994
 21
1562.773
 31
0.0
  0
LINE
  5
194
  8
5
  6
CONTINUOUS
 10
487.7995
 20
1562.773
 30
0.0
 11
487.8028
 21
1613.769
 31
0.0
  0
LINE
  5
195
  8
5
  6
CONTINUOUS
 10
364.6252
 20
1613.773
 30
0.0
 11
364.6252
 21
1617.973
 31
0.0
  0
LINE
  5
196
  8
5
  6
CONTINUOUS
 10
392.4208
 20
1613.773
 30
0.0
 11
392.4207
 21
1617.973
 31
0.0
  0
LINE
  5
197
  8
5
  6
CONTINUOUS
 10
165.3008
 20
1032.78
 30
0.0
 11
181.7764
 21
1060.2
 31
0.0
  0
LINE
  5
198
  8
5
  6
CONTINUOUS
 10
380.5174
 20
1613.773
 30
0.0
 11
380.5175
 21
1617.973
 31
0.0
  0
LINE
  5
199
  8
5
  6
CONTINUOUS
 10
229.7994
 20
1494.973
 30
0.0
 11
525.7994
 21
1494.973
 31
0.0
  0
LINE
  5
19A
  8
5
  6
CONTINUOUS
 10
1213.096
 20
211.6066
 30
0.0
 11
1213.096
 21
277.9751
 31
0.0
  0
LINE
  5
19B
  8
5
  6
CONTINUOUS
 10
986.0958
 20
277.9751
 30
0.0
 11
986.0958
 21
211.6066
 31
0.0
  0
LINE
  5
19C
  8
5
  6
CONTINUOUS
 10
986.0958
 20
240.6066
 30
0.0
 11
940.0958
 21
240.6066
 31
0.0
  0
LINE
  5
19D
  8
5
  6
CONTINUOUS
 10
1259.096
 20
240.6066
 30
0.0
 11
1213.096
 21
240.6066
 31
0.0
  0
LINE
  5
19E
  8
5
  6
CONTINUOUS
 10
986.0958
 20
211.6066
 30
0.0
 11
1213.096
 21
211.6066
 31
0.0
  0
LINE
  5
19F
  8
5
  6
CONTINUOUS
 10
1213.596
 20
210.6066
 30
0.0
 11
1213.596
 21
240.6066
 31
0.0
  0
LINE
  5
1A0
  8
5
  6
CONTINUOUS
 10
985.5958
 20
240.6066
 30
0.0
 11
985.5958
 21
210.6066
 31
0.0
  0
LINE
  5
1A1
  8
5
  6
CONTINUOUS
 10
940.0958
 20
240.6066
 30
0.0
 11
940.0958
 21
290.1066
 31
0.0
  0
LINE
  5
1A2
  8
5
  6
CONTINUOUS
 10
940.0958
 20
290.1066
 30
0.0
 11
940.0958
 21
513.1066
 31
0.0
  0
LINE
  5
1A3
  8
5
  6
CONTINUOUS
 10
940.0958
 20
513.1066
 30
0.0
 11
940.0958
 21
562.6066
 31
0.0
  0
LINE
  5
1A4
  8
5
  6
CONTINUOUS
 10
940.0958
 20
562.6066
 30
0.0
 11
989.5958
 21
562.6066
 31
0.0
  0
LINE
  5
1A5
  8
5
  6
CONTINUOUS
 10
989.5958
 20
562.6066
 30
0.0
 11
1209.596
 21
562.6066
 31
0.0
  0
LINE
  5
1A6
  8
5
  6
CONTINUOUS
 10
1209.596
 20
562.6066
 30
0.0
 11
1259.096
 21
562.6066
 31
0.0
  0
LINE
  5
1A7
  8
5
  6
CONTINUOUS
 10
1259.096
 20
290.1066
 30
0.0
 11
1259.096
 21
240.6066
 31
0.0
  0
LINE
  5
1A8
  8
5
  6
CONTINUOUS
 10
1259.096
 20
562.6066
 30
0.0
 11
1259.096
 21
513.1066
 31
0.0
  0
LINE
  5
1A9
  8
5
  6
CONTINUOUS
 10
1259.096
 20
513.1066
 30
0.0
 11
1259.096
 21
290.1066
 31
0.0
  0
LINE
  5
1AA
  8
5
  6
CONTINUOUS
 10
1155.136
 20
375.1033
 30
0.0
 11
1155.135
 21
401.1696
 31
0.0
  0
LINE
  5
1AB
  8
5
  6
CONTINUOUS
 10
1141.357
 20
375.1029
 30
0.0
 11
1155.136
 21
375.1033
 31
0.0
  0
LINE
  5
1AC
  8
5
  6
CONTINUOUS
 10
1141.356
 20
401.1691
 30
0.0
 11
1141.357
 21
375.1029
 31
0.0
  0
LINE
  5
1AD
  8
5
  6
CONTINUOUS
 10
1141.356
 20
401.1691
 30
0.0
 11
1155.135
 21
401.1696
 31
0.0
  0
LINE
  5
1AE
  8
5
  6
CONTINUOUS
 10
258.5473
 20
986.4732
 30
0.0
 11
263.0994
 21
981.9732
 31
0.0
  0
LINE
  5
1AF
  8
5
  6
CONTINUOUS
 10
492.4994
 20
981.9732
 30
0.0
 11
497.0516
 21
986.4732
 31
0.0
  0
LINE
  5
1B0
  8
5
  6
CONTINUOUS
 10
590.2981
 20
1032.78
 30
0.0
 11
573.8225
 21
1060.2
 31
0.0
  0
LINE
  5
1B1
  8
5
  6
CONTINUOUS
 10
590.2981
 20
1032.78
 30
0.0
 11
598.7703
 21
1018.68
 31
0.0
  0
LINE
  5
1B2
  8
5
  6
CONTINUOUS
 10
212.411
 20
1029.566
 30
0.0
 11
187.3785
 21
1010.702
 31
0.0
  0
LINE
  5
1B3
  8
5
  6
CONTINUOUS
 10
187.3785
 20
1010.702
 30
0.0
 11
174.5062
 21
1001.002
 31
0.0
  0
LINE
  5
1B4
  8
5
  6
CONTINUOUS
 10
174.5062
 20
1001.002
 30
0.0
 11
156.8286
 21
1018.68
 31
0.0
  0
LINE
  5
1B5
  8
5
  6
CONTINUOUS
 10
198.7008
 20
1019.234
 30
0.0
 11
198.7008
 21
1019.234
 31
0.0
  0
ARC
  5
1B6
  8
5
  6
CONTINUOUS
 10
146.8295
 20
1317.644
 30
0.0
 40
9.25
 50
167.4823
 51
192.5177
  0
ARC
  5
1B7
  8
5
  6
CONTINUOUS
 10
146.8295
 20
1126.302
 30
0.0
 40
9.25
 50
167.4823
 51
192.5177
  0
ARC
  5
1B8
  8
5
  6
CONTINUOUS
 10
282.1286
 20
991.0034
 30
0.0
 40
9.25
 50
257.4822
 51
282.5178
  0
ARC
  5
1B9
  8
5
  6
CONTINUOUS
 10
473.4703
 20
991.0034
 30
0.0
 40
9.25
 50
257.4822
 51
282.5178
  0
ARC
  5
1BA
  8
5
  6
CONTINUOUS
 10
608.7693
 20
1126.302
 30
0.0
 40
9.25
 50
347.4822
 51
12.5178
  0
ARC
  5
1BB
  8
5
  6
CONTINUOUS
 10
608.7693
 20
1317.644
 30
0.0
 40
9.25
 50
347.4822
 51
12.5178
  0
LINE
  5
1BC
  8
5
  6
CONTINUOUS
 10
126.7994
 20
1115.473
 30
0.0
 11
126.7994
 21
1112.473
 31
0.0
  0
ARC
  5
1BD
  8
5
  6
CONTINUOUS
 10
377.7994
 20
1221.973
 30
0.0
 40
275.0
 50
115.9179
 51
131.6479
  0
ARC
  5
1BE
  8
5
  6
CONTINUOUS
 10
377.7994
 20
1221.973
 30
0.0
 40
275.0
 50
138.9399
 51
221.0601
  0
ARC
  5
1BF
  8
5
  6
CONTINUOUS
 10
377.7994
 20
1221.973
 30
0.0
 40
275.0
 50
228.3521
 51
311.6479
  0
ARC
  5
1C0
  8
5
  6
CONTINUOUS
 10
377.7994
 20
1221.973
 30
0.0
 40
275.0
 50
318.9399
 51
41.0601
  0
ARC
  5
1C1
  8
5
  6
CONTINUOUS
 10
377.7994
 20
1221.973
 30
0.0
 40
275.0
 50
48.35208
 51
64.08214
  0
LINE
  5
1C2
  8
5
  6
CONTINUOUS
 10
281.3994
 20
981.9732
 30
0.0
 11
263.0994
 21
981.9732
 31
0.0
  0
LINE
  5
1C3
  8
5
  6
CONTINUOUS
 10
474.1994
 20
981.9732
 30
0.0
 11
457.1994
 21
981.9732
 31
0.0
  0
LINE
  5
1C4
  8
5
  6
CONTINUOUS
 10
442.1994
 20
981.9732
 30
0.0
 11
427.1994
 21
981.9732
 31
0.0
  0
LINE
  5
1C5
  8
5
  6
CONTINUOUS
 10
412.2994
 20
981.9732
 30
0.0
 11
395.0994
 21
981.9732
 31
0.0
  0
LINE
  5
1C6
  8
5
  6
CONTINUOUS
 10
313.3994
 20
981.9732
 30
0.0
 11
298.3994
 21
981.9732
 31
0.0
  0
LINE
  5
1C7
  8
5
  6
CONTINUOUS
 10
343.2994
 20
981.9732
 30
0.0
 11
328.3994
 21
981.9732
 31
0.0
  0
LINE
  5
1C8
  8
5
  6
CONTINUOUS
 10
377.7994
 20
981.9732
 30
0.0
 11
360.4994
 21
981.9732
 31
0.0
  0
LINE
  5
1C9
  8
5
  6
CONTINUOUS
 10
298.3994
 20
981.9732
 30
0.0
 11
281.3994
 21
981.9732
 31
0.0
  0
LINE
  5
1CA
  8
5
  6
CONTINUOUS
 10
492.4994
 20
981.9732
 30
0.0
 11
474.1994
 21
981.9732
 31
0.0
  0
LINE
  5
1CB
  8
5
  6
CONTINUOUS
 10
457.1994
 20
981.9732
 30
0.0
 11
442.1994
 21
981.9732
 31
0.0
  0
LINE
  5
1CC
  8
5
  6
CONTINUOUS
 10
427.1994
 20
981.9732
 30
0.0
 11
412.2994
 21
981.9732
 31
0.0
  0
LINE
  5
1CD
  8
5
  6
CONTINUOUS
 10
395.0994
 20
981.9732
 30
0.0
 11
377.7994
 21
981.9732
 31
0.0
  0
LINE
  5
1CE
  8
5
  6
CONTINUOUS
 10
328.3994
 20
981.9732
 30
0.0
 11
313.3994
 21
981.9732
 31
0.0
  0
LINE
  5
1CF
  8
5
  6
CONTINUOUS
 10
360.4994
 20
981.9732
 30
0.0
 11
343.2994
 21
981.9732
 31
0.0
  0
LINE
  5
1D0
  8
5
  6
CONTINUOUS
 10
556.8981
 20
1019.234
 30
0.0
 11
556.8981
 21
1019.234
 31
0.0
  0
LINE
  5
1D1
  8
5
  6
CONTINUOUS
 10
598.7703
 20
1018.68
 30
0.0
 11
581.0926
 21
1001.002
 31
0.0
  0
LINE
  5
1D2
  8
5
  6
CONTINUOUS
 10
581.0926
 20
1001.002
 30
0.0
 11
568.2203
 21
1010.702
 31
0.0
  0
LINE
  5
1D3
  8
5
  6
CONTINUOUS
 10
543.1879
 20
1029.566
 30
0.0
 11
568.2203
 21
1010.702
 31
0.0
  0
LINE
  5
1D4
  8
5
  6
CONTINUOUS
 10
165.3008
 20
1032.78
 30
0.0
 11
187.3785
 21
1010.702
 31
0.0
  0
LINE
  5
1D5
  8
5
  6
CONTINUOUS
 10
360.4995
 20
986.4732
 30
0.0
 11
360.4995
 21
981.9732
 31
0.0
  0
LINE
  5
1D6
  8
5
  6
CONTINUOUS
 10
377.7994
 20
981.9732
 30
0.0
 11
377.7994
 21
986.4732
 31
0.0
  0
LINE
  5
1D7
  8
5
  6
CONTINUOUS
 10
1171.812
 20
401.1702
 30
0.0
 11
1157.235
 21
401.1696
 31
0.0
  0
ARC
  5
1D8
  8
5
  6
CONTINUOUS
 10
1160.052
 20
389.1261
 30
0.0
 40
16.83332
 50
2.745839
 51
45.68349
  0
LINE
  5
1D9
  8
5
  6
CONTINUOUS
 10
328.3994
 20
986.4732
 30
0.0
 11
328.3994
 21
981.9732
 31
0.0
  0
LINE
  5
1DA
  8
5
  6
CONTINUOUS
 10
343.2994
 20
981.9732
 30
0.0
 11
343.2994
 21
986.4732
 31
0.0
  0
LINE
  5
1DB
  8
5
  6
CONTINUOUS
 10
298.3994
 20
986.4732
 30
0.0
 11
298.3994
 21
981.9732
 31
0.0
  0
LINE
  5
1DC
  8
5
  6
CONTINUOUS
 10
313.3994
 20
981.9732
 30
0.0
 11
313.3994
 21
986.4732
 31
0.0
  0
LINE
  5
1DD
  8
5
  6
CONTINUOUS
 10
395.0995
 20
986.4732
 30
0.0
 11
395.0995
 21
981.9732
 31
0.0
  0
LINE
  5
1DE
  8
5
  6
CONTINUOUS
 10
412.2994
 20
981.9732
 30
0.0
 11
412.2994
 21
986.4732
 31
0.0
  0
LINE
  5
1DF
  8
5
  6
CONTINUOUS
 10
427.1994
 20
986.4732
 30
0.0
 11
427.1994
 21
981.9732
 31
0.0
  0
LINE
  5
1E0
  8
5
  6
CONTINUOUS
 10
442.1994
 20
981.9732
 30
0.0
 11
442.1994
 21
986.4732
 31
0.0
  0
LINE
  5
1E1
  8
5
  6
CONTINUOUS
 10
457.1995
 20
986.4732
 30
0.0
 11
457.1995
 21
981.9732
 31
0.0
  0
LINE
  5
1E2
  8
5
  6
CONTINUOUS
 10
474.1994
 20
981.9732
 30
0.0
 11
474.1994
 21
986.4732
 31
0.0
  0
LINE
  5
1E3
  8
5
  6
CONTINUOUS
 10
263.0994
 20
986.4732
 30
0.0
 11
263.0994
 21
981.9732
 31
0.0
  0
LINE
  5
1E4
  8
5
  6
CONTINUOUS
 10
281.3995
 20
981.9732
 30
0.0
 11
281.3995
 21
986.4732
 31
0.0
  0
LINE
  5
1E5
  8
5
  6
CONTINUOUS
 10
492.4994
 20
986.4732
 30
0.0
 11
492.4994
 21
981.9732
 31
0.0
  0
LINE
  5
1E6
  8
5
  6
CONTINUOUS
 10
568.2203
 20
1010.702
 30
0.0
 11
590.2981
 21
1032.78
 31
0.0
  0
LINE
  5
1E7
  8
5
  6
CONTINUOUS
 10
126.7994
 20
1112.473
 30
0.0
 11
137.7994
 21
1112.473
 31
0.0
  0
LINE
  5
1E8
  8
5
  6
CONTINUOUS
 10
137.7994
 20
1115.473
 30
0.0
 11
126.7994
 21
1115.473
 31
0.0
  0
LINE
  5
1E9
  8
5
  6
CONTINUOUS
 10
954.0958
 20
622.1067
 30
0.0
 11
954.0958
 21
562.6068
 31
0.0
  0
LINE
  5
1EA
  8
5
  6
CONTINUOUS
 10
954.0958
 20
240.6066
 30
0.0
 11
954.0958
 21
184.1067
 31
0.0
  0
LINE
  5
1EB
  8
5
  6
CONTINUOUS
 10
896.5958
 20
403.1067
 30
0.0
 11
896.5958
 21
128.1067
 31
0.0
  0
ARC
  5
1EC
  8
5
  6
CONTINUOUS
 10
1162.037
 20
389.932
 30
0.0
 40
14.82849
 50
270.0019
 51
0.0019
  0
LINE
  5
1ED
  8
5
  6
CONTINUOUS
 10
1157.236
 20
375.1033
 30
0.0
 11
1162.038
 21
375.1035
 31
0.0
  0
LINE
  5
1EE
  8
5
  6
CONTINUOUS
 10
1157.235
 20
401.1696
 30
0.0
 11
1157.236
 21
375.1033
 31
0.0
  0
LINE
  5
1EF
  8
5
  6
CONTINUOUS
 10
1157.234
 20
428.167
 30
0.0
 11
1157.235
 21
403.2696
 31
0.0
  0
LINE
  5
1F0
  8
5
  6
CONTINUOUS
 10
1162.036
 20
428.1671
 30
0.0
 11
1157.234
 21
428.167
 31
0.0
  0
ARC
  5
1F1
  8
5
  6
CONTINUOUS
 10
1162.036
 20
417.7276
 30
0.0
 40
10.43949
 50
0.001947
 51
90.00195
  0
ARC
  5
1F2
  8
5
  6
CONTINUOUS
 10
1159.005
 20
418.9758
 30
0.0
 40
13.5281
 50
283.5581
 51
354.7072
  0
ARC
  5
1F3
  8
5
  6
CONTINUOUS
 10
1160.052
 20
389.1261
 30
0.0
 40
16.83332
 50
57.16491
 51
82.74766
  0
LINE
  5
1F4
  8
5
  6
CONTINUOUS
 10
896.5958
 20
678.1067
 30
0.0
 11
896.5958
 21
403.1067
 31
0.0
  0
LINE
  5
1F5
  8
5
  6
CONTINUOUS
 10
1157.235
 20
403.2696
 30
0.0
 11
1169.179
 21
403.27
 31
0.0
  0
LINE
  5
1F6
  8
5
  6
CONTINUOUS
 10
1141.355
 20
428.1663
 30
0.0
 11
1141.356
 21
403.2691
 31
0.0
  0
LINE
  5
1F7
  8
5
  6
CONTINUOUS
 10
1155.134
 20
428.1668
 30
0.0
 11
1141.355
 21
428.1663
 31
0.0
  0
LINE
  5
1F8
  8
5
  6
CONTINUOUS
 10
1155.135
 20
403.2696
 30
0.0
 11
1155.134
 21
428.1668
 31
0.0
  0
LINE
  5
1F9
  8
5
  6
CONTINUOUS
 10
1141.356
 20
403.2691
 30
0.0
 11
1155.135
 21
403.2696
 31
0.0
  0
LINE
  5
1FA
  8
5
  6
CONTINUOUS
 10
1111.588
 20
428.1655
 30
0.0
 11
1111.589
 21
403.268
 31
0.0
  0
LINE
  5
1FB
  8
5
  6
CONTINUOUS
 10
1116.39
 20
428.1655
 30
0.0
 11
1111.588
 21
428.1655
 31
0.0
  0
ARC
  5
1FC
  8
5
  6
CONTINUOUS
 10
1116.391
 20
417.726
 30
0.0
 40
10.43949
 50
0.001947
 51
90.00195
  0
ARC
  5
1FD
  8
5
  6
CONTINUOUS
 10
1113.36
 20
418.9743
 30
0.0
 40
13.5281
 50
283.5581
 51
354.7072
  0
ARC
  5
1FE
  8
5
  6
CONTINUOUS
 10
1114.406
 20
389.1245
 30
0.0
 40
16.83332
 50
57.16493
 51
82.74766
  0
LINE
  5
1FF
  8
5
  6
CONTINUOUS
 10
1111.589
 20
403.268
 30
0.0
 11
1123.534
 21
403.2685
 31
0.0
  0
ARC
  5
200
  8
5
  6
CONTINUOUS
 10
1114.406
 20
389.1245
 30
0.0
 40
16.83332
 50
2.745839
 51
45.68318
  0
ARC
  5
201
  8
5
  6
CONTINUOUS
 10
1116.392
 20
389.9304
 30
0.0
 40
14.82849
 50
270.0019
 51
0.0019
  0
LINE
  5
202
  8
5
  6
CONTINUOUS
 10
1111.59
 20
375.1018
 30
0.0
 11
1116.392
 21
375.102
 31
0.0
  0
LINE
  5
203
  8
5
  6
CONTINUOUS
 10
1111.589
 20
401.168
 30
0.0
 11
1111.59
 21
375.1018
 31
0.0
  0
LINE
  5
204
  8
5
  6
CONTINUOUS
 10
878.5958
 20
403.1067
 30
0.0
 11
878.5958
 21
128.1067
 31
0.0
  0
LINE
  5
205
  8
5
  6
CONTINUOUS
 10
878.5958
 20
678.1067
 30
0.0
 11
878.5958
 21
403.1067
 31
0.0
  0
LINE
  5
206
  8
5
  6
CONTINUOUS
 10
902.5958
 20
152.1067
 30
0.0
 11
904.0958
 21
152.1067
 31
0.0
  0
LINE
  5
207
  8
5
  6
CONTINUOUS
 10
1126.166
 20
401.1686
 30
0.0
 11
1111.589
 21
401.168
 31
0.0
  0
LINE
  5
208
  8
5
  6
CONTINUOUS
 10
1109.49
 20
375.1018
 30
0.0
 11
1109.489
 21
401.168
 31
0.0
  0
LINE
  5
209
  8
5
  6
CONTINUOUS
 10
901.0958
 20
152.1067
 30
0.0
 11
902.5958
 21
152.1067
 31
0.0
  0
LINE
  5
20A
  8
5
  6
CONTINUOUS
 10
873.5958
 20
403.1067
 30
0.0
 11
873.5958
 21
178.1067
 31
0.0
  0
LINE
  5
20B
  8
5
  6
CONTINUOUS
 10
873.5958
 20
628.1067
 30
0.0
 11
873.5958
 21
403.1067
 31
0.0
  0
LINE
  5
20C
  8
5
  6
CONTINUOUS
 10
1095.712
 20
375.1014
 30
0.0
 11
1109.49
 21
375.1018
 31
0.0
  0
LINE
  5
20D
  8
5
  6
CONTINUOUS
 10
1095.711
 20
401.1675
 30
0.0
 11
1095.712
 21
375.1014
 31
0.0
  0
LINE
  5
20E
  8
5
  6
CONTINUOUS
 10
1109.489
 20
401.168
 30
0.0
 11
1095.711
 21
401.1675
 31
0.0
  0
LINE
  5
20F
  8
5
  6
CONTINUOUS
 10
1109.489
 20
403.268
 30
0.0
 11
1109.488
 21
428.1652
 31
0.0
  0
LINE
  5
210
  8
5
  6
CONTINUOUS
 10
1095.711
 20
403.2676
 30
0.0
 11
1109.489
 21
403.268
 31
0.0
  0
LINE
  5
211
  8
5
  6
CONTINUOUS
 10
1095.71
 20
428.1648
 30
0.0
 11
1095.711
 21
403.2675
 31
0.0
  0
LINE
  5
212
  8
5
  6
CONTINUOUS
 10
1109.488
 20
428.1652
 30
0.0
 11
1095.71
 21
428.1648
 31
0.0
  0
LINE
  5
213
  8
5
  6
CONTINUOUS
 10
1085.424
 20
375.1009
 30
0.0
 11
1076.119
 21
401.1669
 31
0.0
  0
LINE
  5
214
  8
5
  6
CONTINUOUS
 10
1075.924
 20
375.1006
 30
0.0
 11
1085.424
 21
375.1009
 31
0.0
  0
LINE
  5
215
  8
5
  6
CONTINUOUS
 10
543.1879
 20
1414.381
 30
0.0
 11
568.2203
 21
1433.244
 31
0.0
  0
LINE
  5
216
  8
5
  6
CONTINUOUS
 10
568.2203
 20
1433.244
 30
0.0
 11
581.0926
 21
1442.944
 31
0.0
  0
LINE
  5
217
  8
5
  6
CONTINUOUS
 10
598.7703
 20
1425.266
 30
0.0
 11
590.2981
 21
1411.166
 31
0.0
  0
LINE
  5
218
  8
5
  6
CONTINUOUS
 10
590.2981
 20
1411.166
 30
0.0
 11
573.8225
 21
1383.746
 31
0.0
  0
LINE
  5
219
  8
5
  6
CONTINUOUS
 10
581.0926
 20
1442.944
 30
0.0
 11
598.7703
 21
1425.266
 31
0.0
  0
LINE
  5
21A
  8
5
  6
CONTINUOUS
 10
497.1386
 20
1457.473
 30
0.0
 11
492.5994
 21
1461.973
 31
0.0
  0
LINE
  5
21B
  8
5
  6
CONTINUOUS
 10
262.8994
 20
1461.874
 30
0.0
 11
258.4603
 21
1457.473
 31
0.0
  0
LINE
  5
21C
  8
5
  6
CONTINUOUS
 10
262.9994
 20
1461.973
 30
0.0
 11
262.8994
 21
1461.874
 31
0.0
  0
LINE
  5
21D
  8
5
  6
CONTINUOUS
 10
474.0994
 20
1461.973
 30
0.0
 11
492.3994
 21
1461.973
 31
0.0
  0
LINE
  5
21E
  8
5
  6
CONTINUOUS
 10
442.0994
 20
1461.973
 30
0.0
 11
457.0994
 21
1461.973
 31
0.0
  0
LINE
  5
21F
  8
5
  6
CONTINUOUS
 10
412.1994
 20
1461.973
 30
0.0
 11
427.0994
 21
1461.973
 31
0.0
  0
LINE
  5
220
  8
5
  6
CONTINUOUS
 10
377.6994
 20
1461.973
 30
0.0
 11
394.9994
 21
1461.973
 31
0.0
  0
LINE
  5
221
  8
5
  6
CONTINUOUS
 10
343.1994
 20
1461.973
 30
0.0
 11
360.3994
 21
1461.973
 31
0.0
  0
LINE
  5
222
  8
5
  6
CONTINUOUS
 10
313.2994
 20
1461.973
 30
0.0
 11
328.2994
 21
1461.973
 31
0.0
  0
LINE
  5
223
  8
5
  6
CONTINUOUS
 10
281.2994
 20
1461.973
 30
0.0
 11
298.2994
 21
1461.973
 31
0.0
  0
LINE
  5
224
  8
5
  6
CONTINUOUS
 10
492.3994
 20
1461.973
 30
0.0
 11
492.5994
 21
1461.973
 31
0.0
  0
LINE
  5
225
  8
5
  6
CONTINUOUS
 10
457.0994
 20
1461.973
 30
0.0
 11
474.0994
 21
1461.973
 31
0.0
  0
LINE
  5
226
  8
5
  6
CONTINUOUS
 10
427.0994
 20
1461.973
 30
0.0
 11
442.0994
 21
1461.973
 31
0.0
  0
LINE
  5
227
  8
5
  6
CONTINUOUS
 10
394.9994
 20
1461.973
 30
0.0
 11
412.1994
 21
1461.973
 31
0.0
  0
LINE
  5
228
  8
5
  6
CONTINUOUS
 10
360.3994
 20
1461.973
 30
0.0
 11
377.6994
 21
1461.973
 31
0.0
  0
LINE
  5
229
  8
5
  6
CONTINUOUS
 10
328.2994
 20
1461.973
 30
0.0
 11
343.1994
 21
1461.973
 31
0.0
  0
LINE
  5
22A
  8
5
  6
CONTINUOUS
 10
298.2994
 20
1461.973
 30
0.0
 11
313.2994
 21
1461.973
 31
0.0
  0
LINE
  5
22B
  8
5
  6
CONTINUOUS
 10
262.9994
 20
1461.973
 30
0.0
 11
281.2994
 21
1461.973
 31
0.0
  0
LINE
  5
22C
  8
5
  6
CONTINUOUS
 10
613.2994
 20
1102.721
 30
0.0
 11
617.7994
 21
1107.273
 31
0.0
  0
LINE
  5
22D
  8
5
  6
CONTINUOUS
 10
617.7994
 20
1336.673
 30
0.0
 11
613.2994
 21
1341.225
 31
0.0
  0
LINE
  5
22E
  8
5
  6
CONTINUOUS
 10
137.7994
 20
1106.873
 30
0.0
 11
142.2994
 21
1102.425
 31
0.0
  0
LINE
  5
22F
  8
5
  6
CONTINUOUS
 10
142.2994
 20
1341.225
 30
0.0
 11
137.7994
 21
1336.673
 31
0.0
  0
LINE
  5
230
  8
5
  6
CONTINUOUS
 10
617.7994
 20
1221.973
 30
0.0
 11
617.7994
 21
1204.673
 31
0.0
  0
LINE
  5
231
  8
5
  6
CONTINUOUS
 10
1072.084
 20
385.8578
 30
0.0
 11
1075.924
 21
375.1006
 31
0.0
  0
LINE
  5
232
  8
5
  6
CONTINUOUS
 10
954.0958
 20
621.6179
 30
0.0
 11
896.5959
 21
619.6099
 31
0.0
  0
LINE
  5
233
  8
5
  6
CONTINUOUS
 10
896.5959
 20
186.6035
 30
0.0
 11
954.0958
 21
184.5956
 31
0.0
  0
LINE
  5
234
  8
5
  6
CONTINUOUS
 10
901.0958
 20
186.4464
 30
0.0
 11
901.0958
 21
152.1067
 31
0.0
  0
LINE
  5
235
  8
5
  6
CONTINUOUS
 10
904.0957
 20
152.1067
 30
0.0
 11
904.0958
 21
186.3416
 31
0.0
  0
LINE
  5
236
  8
5
  6
CONTINUOUS
 10
617.7994
 20
1256.473
 30
0.0
 11
617.7994
 21
1239.273
 31
0.0
  0
LINE
  5
237
  8
5
  6
CONTINUOUS
 10
873.5958
 20
178.1067
 30
0.0
 11
878.5958
 21
178.1067
 31
0.0
  0
LINE
  5
238
  8
5
  6
CONTINUOUS
 10
878.5958
 20
628.1066
 30
0.0
 11
873.5958
 21
628.1067
 31
0.0
  0
LINE
  5
239
  8
5
  6
CONTINUOUS
 10
617.7994
 20
1286.373
 30
0.0
 11
617.7994
 21
1271.473
 31
0.0
  0
LINE
  5
23A
  8
5
  6
CONTINUOUS
 10
878.5958
 20
128.1066
 30
0.0
 11
896.5959
 21
128.1066
 31
0.0
  0
LINE
  5
23B
  8
5
  6
CONTINUOUS
 10
617.7994
 20
1318.373
 30
0.0
 11
617.7994
 21
1301.373
 31
0.0
  0
LINE
  5
23C
  8
5
  6
CONTINUOUS
 10
617.7994
 20
1187.473
 30
0.0
 11
617.7994
 21
1172.573
 31
0.0
  0
LINE
  5
23D
  8
5
  6
CONTINUOUS
 10
896.5958
 20
678.1067
 30
0.0
 11
878.5958
 21
678.1067
 31
0.0
  0
LINE
  5
23E
  8
5
  6
CONTINUOUS
 10
617.7994
 20
1157.573
 30
0.0
 11
617.7994
 21
1142.573
 31
0.0
  0
LINE
  5
23F
  8
5
  6
CONTINUOUS
 10
617.7994
 20
1125.573
 30
0.0
 11
617.7994
 21
1107.273
 31
0.0
  0
LINE
  5
240
  8
5
  6
CONTINUOUS
 10
617.7994
 20
1204.673
 30
0.0
 11
617.7994
 21
1187.473
 31
0.0
  0
LINE
  5
241
  8
5
  6
CONTINUOUS
 10
617.7994
 20
1239.273
 30
0.0
 11
617.7994
 21
1221.973
 31
0.0
  0
LINE
  5
242
  8
5
  6
CONTINUOUS
 10
617.7994
 20
1271.473
 30
0.0
 11
617.7994
 21
1256.473
 31
0.0
  0
LINE
  5
243
  8
5
  6
CONTINUOUS
 10
617.7994
 20
1301.373
 30
0.0
 11
617.7994
 21
1286.373
 31
0.0
  0
LINE
  5
244
  8
5
  6
CONTINUOUS
 10
617.7994
 20
1336.673
 30
0.0
 11
617.7994
 21
1318.373
 31
0.0
  0
LINE
  5
245
  8
5
  6
CONTINUOUS
 10
617.7994
 20
1172.573
 30
0.0
 11
617.7994
 21
1157.573
 31
0.0
  0
LINE
  5
246
  8
5
  6
CONTINUOUS
 10
617.7994
 20
1142.573
 30
0.0
 11
617.7994
 21
1125.573
 31
0.0
  0
LINE
  5
247
  8
5
  6
CONTINUOUS
 10
137.7994
 20
1107.273
 30
0.0
 11
137.7994
 21
1125.573
 31
0.0
  0
LINE
  5
248
  8
5
  6
CONTINUOUS
 10
137.7994
 20
1142.573
 30
0.0
 11
137.7994
 21
1157.573
 31
0.0
  0
LINE
  5
249
  8
5
  6
CONTINUOUS
 10
137.7994
 20
1172.573
 30
0.0
 11
137.7994
 21
1187.473
 31
0.0
  0
LINE
  5
24A
  8
5
  6
CONTINUOUS
 10
137.7994
 20
1301.373
 30
0.0
 11
137.7994
 21
1318.373
 31
0.0
  0
LINE
  5
24B
  8
5
  6
CONTINUOUS
 10
137.7994
 20
1271.473
 30
0.0
 11
137.7994
 21
1286.373
 31
0.0
  0
LINE
  5
24C
  8
5
  6
CONTINUOUS
 10
137.7994
 20
1239.273
 30
0.0
 11
137.7994
 21
1256.473
 31
0.0
  0
LINE
  5
24D
  8
5
  6
CONTINUOUS
 10
137.7994
 20
1204.673
 30
0.0
 11
137.7994
 21
1221.973
 31
0.0
  0
LINE
  5
24E
  8
5
  6
CONTINUOUS
 10
137.7994
 20
1125.573
 30
0.0
 11
137.7994
 21
1142.573
 31
0.0
  0
LINE
  5
24F
  8
5
  6
CONTINUOUS
 10
137.7994
 20
1106.873
 30
0.0
 11
137.7994
 21
1107.273
 31
0.0
  0
LINE
  5
250
  8
5
  6
CONTINUOUS
 10
1060.69
 20
385.8574
 30
0.0
 11
1072.084
 21
385.8578
 31
0.0
  0
LINE
  5
251
  8
5
  6
CONTINUOUS
 10
1060.69
 20
401.1663
 30
0.0
 11
1060.69
 21
385.8574
 31
0.0
  0
LINE
  5
252
  8
5
  6
CONTINUOUS
 10
1411.596
 20
622.1067
 30
0.0
 11
1406.786
 21
622.1067
 31
0.0
  0
LINE
  5
253
  8
5
  6
CONTINUOUS
 10
1406.786
 20
184.1067
 30
0.0
 11
1411.596
 21
184.1067
 31
0.0
  0
LINE
  5
254
  8
5
  6
CONTINUOUS
 10
954.0958
 20
184.1067
 30
0.0
 11
965.4057
 21
184.1067
 31
0.0
  0
LINE
  5
255
  8
5
  6
CONTINUOUS
 10
1076.119
 20
401.1669
 30
0.0
 11
1060.69
 21
401.1663
 31
0.0
  0
LINE
  5
256
  8
5
  6
CONTINUOUS
 10
2305.761
 20
1032.78
 30
0.0
 11
2300.618
 21
1041.339
 31
0.0
  0
LINE
  5
257
  8
5
  6
CONTINUOUS
 10
2305.761
 20
1032.78
 30
0.0
 11
2314.233
 21
1018.68
 31
0.0
  0
LINE
  5
258
  8
5
  6
CONTINUOUS
 10
1872.291
 20
1018.68
 30
0.0
 11
1880.763
 21
1032.78
 31
0.0
  0
LINE
  5
259
  8
5
  6
CONTINUOUS
 10
1880.763
 20
1032.78
 30
0.0
 11
1885.906
 21
1041.339
 31
0.0
  0
LINE
  5
25A
  8
5
  6
CONTINUOUS
 10
2296.555
 20
1001.002
 30
0.0
 11
2283.683
 21
1010.702
 31
0.0
  0
LINE
  5
25B
  8
5
  6
CONTINUOUS
 10
2276.014
 20
1016.482
 30
0.0
 11
2283.683
 21
1010.702
 31
0.0
  0
LINE
  5
25C
  8
5
  6
CONTINUOUS
 10
2314.233
 20
1018.68
 30
0.0
 11
2296.555
 21
1001.002
 31
0.0
  0
CIRCLE
  5
25D
  8
5
  6
CONTINUOUS
 10
2324.232
 20
1317.644
 30
0.0
 40
9.25
  0
CIRCLE
  5
25E
  8
5
  6
CONTINUOUS
 10
2324.232
 20
1126.302
 30
0.0
 40
9.25
  0
CIRCLE
  5
25F
  8
5
  6
CONTINUOUS
 10
2188.933
 20
991.0034
 30
0.0
 40
9.25
  0
CIRCLE
  5
260
  8
5
  6
CONTINUOUS
 10
1997.591
 20
991.0034
 30
0.0
 40
9.25
  0
CIRCLE
  5
261
  8
5
  6
CONTINUOUS
 10
1862.292
 20
1126.302
 30
0.0
 40
9.25
  0
CIRCLE
  5
262
  8
5
  6
CONTINUOUS
 10
1862.292
 20
1317.644
 30
0.0
 40
9.25
  0
CIRCLE
  5
263
  8
5
  6
CONTINUOUS
 10
1997.591
 20
1452.943
 30
0.0
 40
9.25
  0
CIRCLE
  5
264
  8
5
  6
CONTINUOUS
 10
2188.933
 20
1452.943
 30
0.0
 40
9.25
  0
LINE
  5
265
  8
5
  6
CONTINUOUS
 10
2124.262
 20
1115.473
 30
0.0
 11
2124.262
 21
1112.473
 31
0.0
  0
CIRCLE
  5
266
  8
5
  6
CONTINUOUS
 10
2093.262
 20
1221.973
 30
0.0
 40
225.0
  0
CIRCLE
  5
267
  8
5
  6
CONTINUOUS
 10
2093.262
 20
1221.973
 30
0.0
 40
275.0
  0
LINE
  5
268
  8
5
  6
CONTINUOUS
 10
2067.262
 20
1156.214
 30
0.0
 11
2067.262
 21
1128.473
 31
0.0
  0
LINE
  5
269
  8
5
  6
CONTINUOUS
 10
2119.262
 20
1156.214
 30
0.0
 11
2119.262
 21
1128.473
 31
0.0
  0
LINE
  5
26A
  8
5
  6
CONTINUOUS
 10
2119.262
 20
1128.473
 30
0.0
 11
2067.262
 21
1128.473
 31
0.0
  0
LINE
  5
26B
  8
5
  6
CONTINUOUS
 10
1918.672
 20
1128.473
 30
0.0
 11
2067.262
 21
1128.473
 31
0.0
  0
LINE
  5
26C
  8
5
  6
CONTINUOUS
 10
137.7994
 20
1157.573
 30
0.0
 11
137.7994
 21
1172.573
 31
0.0
  0
LINE
  5
26D
  8
5
  6
CONTINUOUS
 10
137.7994
 20
1187.473
 30
0.0
 11
137.7994
 21
1204.673
 31
0.0
  0
LINE
  5
26E
  8
5
  6
CONTINUOUS
 10
137.7994
 20
1318.373
 30
0.0
 11
137.7994
 21
1336.673
 31
0.0
  0
LINE
  5
26F
  8
5
  6
CONTINUOUS
 10
137.7994
 20
1286.373
 30
0.0
 11
137.7994
 21
1301.373
 31
0.0
  0
LINE
  5
270
  8
5
  6
CONTINUOUS
 10
137.7994
 20
1256.473
 30
0.0
 11
137.7994
 21
1271.473
 31
0.0
  0
LINE
  5
271
  8
5
  6
CONTINUOUS
 10
137.7994
 20
1221.973
 30
0.0
 11
137.7994
 21
1239.273
 31
0.0
  0
LINE
  5
272
  8
5
  6
CONTINUOUS
 10
2119.262
 20
1128.473
 30
0.0
 11
2267.852
 21
1128.473
 31
0.0
  0
LINE
  5
273
  8
5
  6
CONTINUOUS
 10
2074.262
 20
1106.473
 30
0.0
 11
2112.262
 21
1106.473
 31
0.0
  0
LINE
  5
274
  8
5
  6
CONTINUOUS
 10
2112.262
 20
1106.473
 30
0.0
 11
2129.262
 21
1106.473
 31
0.0
  0
LINE
  5
275
  8
5
  6
CONTINUOUS
 10
2129.262
 20
1106.473
 30
0.0
 11
2146.262
 21
1106.473
 31
0.0
  0
LINE
  5
276
  8
5
  6
CONTINUOUS
 10
2146.262
 20
1106.473
 30
0.0
 11
2163.262
 21
1106.473
 31
0.0
  0
LINE
  5
277
  8
5
  6
CONTINUOUS
 10
2163.262
 20
1106.473
 30
0.0
 11
2180.262
 21
1106.473
 31
0.0
  0
LINE
  5
278
  8
5
  6
CONTINUOUS
 10
2180.262
 20
1106.473
 30
0.0
 11
2254.146
 21
1106.473
 31
0.0
  0
LINE
  5
279
  8
5
  6
CONTINUOUS
 10
1932.378
 20
1106.473
 30
0.0
 11
2006.262
 21
1106.473
 31
0.0
  0
LINE
  5
27A
  8
5
  6
CONTINUOUS
 10
2006.262
 20
1106.473
 30
0.0
 11
2023.262
 21
1106.473
 31
0.0
  0
LINE
  5
27B
  8
5
  6
CONTINUOUS
 10
2023.262
 20
1106.473
 30
0.0
 11
2040.262
 21
1106.473
 31
0.0
  0
LINE
  5
27C
  8
5
  6
CONTINUOUS
 10
2040.262
 20
1106.473
 30
0.0
 11
2057.262
 21
1106.473
 31
0.0
  0
LINE
  5
27D
  8
5
  6
CONTINUOUS
 10
2057.262
 20
1106.473
 30
0.0
 11
2074.262
 21
1106.473
 31
0.0
  0
LINE
  5
27E
  8
5
  6
CONTINUOUS
 10
2074.262
 20
1016.973
 30
0.0
 11
2074.262
 21
1024.836
 31
0.0
  0
LINE
  5
27F
  8
5
  6
CONTINUOUS
 10
2074.262
 20
1024.836
 30
0.0
 11
2074.262
 21
1106.473
 31
0.0
  0
LINE
  5
280
  8
5
  6
CONTINUOUS
 10
257.1883
 20
1457.473
 30
0.0
 11
257.6597
 21
1470.973
 31
0.0
  0
LINE
  5
281
  8
5
  6
CONTINUOUS
 10
2112.262
 20
1016.973
 30
0.0
 11
2093.262
 21
1016.974
 31
0.0
  0
LINE
  5
282
  8
5
  6
CONTINUOUS
 10
497.9391
 20
1470.973
 30
0.0
 11
498.4105
 21
1457.473
 31
0.0
  0
LINE
  5
283
  8
5
  6
CONTINUOUS
 10
2093.262
 20
1016.974
 30
0.0
 11
2074.262
 21
1016.973
 31
0.0
  0
LINE
  5
284
  8
5
  6
CONTINUOUS
 10
2112.262
 20
1024.836
 30
0.0
 11
2112.262
 21
1016.973
 31
0.0
  0
LINE
  5
285
  8
5
  6
CONTINUOUS
 10
2112.262
 20
1106.473
 30
0.0
 11
2112.262
 21
1024.836
 31
0.0
  0
LINE
  5
286
  8
5
  6
CONTINUOUS
 10
156.8286
 20
1425.266
 30
0.0
 11
174.5062
 21
1442.944
 31
0.0
  0
LINE
  5
287
  8
5
  6
CONTINUOUS
 10
1060.689
 20
428.1637
 30
0.0
 11
1060.69
 21
403.2663
 31
0.0
  0
LINE
  5
288
  8
5
  6
CONTINUOUS
 10
1066.481
 20
428.1638
 30
0.0
 11
1060.689
 21
428.1637
 31
0.0
  0
LINE
  5
289
  8
5
  6
CONTINUOUS
 10
1075.369
 20
403.2668
 30
0.0
 11
1066.481
 21
428.1638
 31
0.0
  0
LINE
  5
28A
  8
5
  6
CONTINUOUS
 10
1060.69
 20
403.2663
 30
0.0
 11
1075.369
 21
403.2668
 31
0.0
  0
LINE
  5
28B
  8
5
  6
CONTINUOUS
 10
2102.262
 20
1258.473
 30
0.0
 11
2102.262
 21
1253.202
 31
0.0
  0
LINE
  5
28C
  8
5
  6
CONTINUOUS
 10
2084.262
 20
1258.473
 30
0.0
 11
2084.262
 21
1253.202
 31
0.0
  0
LINE
  5
291
  8
5
  6
CONTINUOUS
 10
1889.969
 20
1001.002
 30
0.0
 11
1872.291
 21
1018.68
 31
0.0
  0
LINE
  5
292
  8
5
  6
CONTINUOUS
 10
1910.51
 20
1016.482
 30
0.0
 11
1902.841
 21
1010.702
 31
0.0
  0
LINE
  5
293
  8
5
  6
CONTINUOUS
 10
1902.841
 20
1010.702
 30
0.0
 11
1889.969
 21
1001.002
 31
0.0
  0
LINE
  5
294
  8
5
  6
CONTINUOUS
 10
2283.683
 20
1010.702
 30
0.0
 11
2305.761
 21
1032.78
 31
0.0
  0
LINE
  5
295
  8
5
  6
CONTINUOUS
 10
1880.763
 20
1032.78
 30
0.0
 11
1902.841
 21
1010.702
 31
0.0
  0
LINE
  5
296
  8
5
  6
CONTINUOUS
 10
2124.262
 20
1112.473
 30
0.0
 11
2255.648
 21
1112.473
 31
0.0
  0
LINE
  5
297
  8
5
  6
CONTINUOUS
 10
2124.262
 20
1115.473
 30
0.0
 11
2257.631
 21
1115.473
 31
0.0
  0
ARC
  5
298
  8
5
  6
CONTINUOUS
 10
2093.262
 20
1221.973
 30
0.0
 40
76.16056
 50
128.6254
 51
146.0802
  0
LINE
  5
299
  8
5
  6
CONTINUOUS
 10
2045.721
 20
1281.473
 30
0.0
 11
1904.36
 21
1281.473
 31
0.0
  0
ARC
  5
29A
  8
5
  6
CONTINUOUS
 10
2093.262
 20
1221.973
 30
0.0
 40
198.0506
 50
162.5167
 51
167.6084
  0
LINE
  5
29B
  8
5
  6
CONTINUOUS
 10
1899.825
 20
1264.473
 30
0.0
 11
2030.062
 21
1264.473
 31
0.0
  0
ARC
  5
29C
  8
5
  6
CONTINUOUS
 10
2093.262
 20
1221.973
 30
0.0
 40
76.16056
 50
33.91978
 51
51.37464
  0
LINE
  5
29D
  8
5
  6
CONTINUOUS
 10
2156.461
 20
1264.473
 30
0.0
 11
2286.699
 21
1264.473
 31
0.0
  0
ARC
  5
29E
  8
5
  6
CONTINUOUS
 10
2093.262
 20
1221.973
 30
0.0
 40
198.0506
 50
12.39157
 51
17.48333
  0
LINE
  5
29F
  8
5
  6
CONTINUOUS
 10
2282.163
 20
1281.473
 30
0.0
 11
2140.803
 21
1281.473
 31
0.0
  0
ARC
  5
2A0
  8
5
  6
CONTINUOUS
 10
2093.262
 20
1221.973
 30
0.0
 40
76.16056
 50
160.4385
 51
173.5921
  0
LINE
  5
2A1
  8
5
  6
CONTINUOUS
 10
2021.497
 20
1247.473
 30
0.0
 11
1896.86
 21
1247.473
 31
0.0
  0
ARC
  5
2A2
  8
5
  6
CONTINUOUS
 10
2093.262
 20
1221.973
 30
0.0
 40
198.0506
 50
172.6023
 51
177.5402
  0
LINE
  5
2A3
  8
5
  6
CONTINUOUS
 10
1895.394
 20
1230.473
 30
0.0
 11
2017.577
 21
1230.473
 31
0.0
  0
LINE
  5
2A4
  8
5
  6
CONTINUOUS
 10
165.3008
 20
1411.166
 30
0.0
 11
181.7764
 21
1383.746
 31
0.0
  0
LINE
  5
2A5
  8
5
  6
CONTINUOUS
 10
165.3008
 20
1411.166
 30
0.0
 11
156.8286
 21
1425.266
 31
0.0
  0
LINE
  5
2A6
  8
5
  6
CONTINUOUS
 10
174.5062
 20
1442.944
 30
0.0
 11
187.3785
 21
1433.244
 31
0.0
  0
LINE
  5
2A7
  8
5
  6
CONTINUOUS
 10
212.411
 20
1414.381
 30
0.0
 11
187.3785
 21
1433.244
 31
0.0
  0
CIRCLE
  5
2A8
  8
5
  6
CONTINUOUS
 10
377.7994
 20
1221.973
 30
0.0
 40
140.0
  0
LINE
  5
2A9
  8
5
  6
CONTINUOUS
 10
142.2994
 20
1099.677
 30
0.0
 11
255.5034
 21
986.4732
 31
0.0
  0
LINE
  5
2AA
  8
5
  6
CONTINUOUS
 10
255.5034
 20
986.4732
 30
0.0
 11
500.0955
 21
986.4732
 31
0.0
  0
LINE
  5
2AB
  8
5
  6
CONTINUOUS
 10
500.0955
 20
986.4732
 30
0.0
 11
613.2994
 21
1099.677
 31
0.0
  0
LINE
  5
2AC
  8
5
  6
CONTINUOUS
 10
613.2994
 20
1099.677
 30
0.0
 11
613.2994
 21
1344.269
 31
0.0
  0
LINE
  5
2AD
  8
5
  6
CONTINUOUS
 10
613.2994
 20
1344.269
 30
0.0
 11
500.0955
 21
1457.473
 31
0.0
  0
LINE
  5
2AE
  8
5
  6
CONTINUOUS
 10
500.0955
 20
1457.473
 30
0.0
 11
255.5034
 21
1457.473
 31
0.0
  0
LINE
  5
2AF
  8
5
  6
CONTINUOUS
 10
255.5034
 20
1457.473
 30
0.0
 11
142.2994
 21
1344.269
 31
0.0
  0
LINE
  5
2B0
  8
5
  6
CONTINUOUS
 10
142.2994
 20
1099.677
 30
0.0
 11
142.2994
 21
1344.269
 31
0.0
  0
LINE
  5
2B1
  8
5
  6
CONTINUOUS
 10
256.7461
 20
1454.473
 30
0.0
 11
145.2995
 21
1343.027
 31
0.0
  0
LINE
  5
2B2
  8
5
  6
CONTINUOUS
 10
498.8529
 20
1454.473
 30
0.0
 11
256.7461
 21
1454.473
 31
0.0
  0
LINE
  5
2B3
  8
5
  6
CONTINUOUS
 10
610.2995
 20
1343.027
 30
0.0
 11
498.8529
 21
1454.473
 31
0.0
  0
LINE
  5
2B4
  8
5
  6
CONTINUOUS
 10
610.2995
 20
1100.92
 30
0.0
 11
610.2995
 21
1343.027
 31
0.0
  0
LINE
  5
2B5
  8
5
  6
CONTINUOUS
 10
498.8529
 20
989.4732
 30
0.0
 11
610.2995
 21
1100.92
 31
0.0
  0
LINE
  5
2B6
  8
5
  6
CONTINUOUS
 10
256.7461
 20
989.4732
 30
0.0
 11
498.8529
 21
989.4732
 31
0.0
  0
LINE
  5
2B7
  8
5
  6
CONTINUOUS
 10
145.2995
 20
1100.92
 30
0.0
 11
256.7461
 21
989.4732
 31
0.0
  0
LINE
  5
2B8
  8
5
  6
CONTINUOUS
 10
145.2995
 20
1100.92
 30
0.0
 11
145.2995
 21
1343.027
 31
0.0
  0
LINE
  5
2B9
  8
5
  6
CONTINUOUS
 10
590.2981
 20
1411.166
 30
0.0
 11
568.2203
 21
1433.244
 31
0.0
  0
LINE
  5
2BA
  8
5
  6
CONTINUOUS
 10
262.8994
 20
1457.473
 30
0.0
 11
262.8995
 21
1461.874
 31
0.0
  0
LINE
  5
2BB
  8
5
  6
CONTINUOUS
 10
492.3994
 20
1461.973
 30
0.0
 11
492.3994
 21
1457.473
 31
0.0
  0
LINE
  5
2BC
  8
5
  6
CONTINUOUS
 10
298.2994
 20
1457.473
 30
0.0
 11
298.2994
 21
1461.973
 31
0.0
  0
LINE
  5
2BD
  8
5
  6
CONTINUOUS
 10
281.2995
 20
1461.973
 30
0.0
 11
281.2994
 21
1457.473
 31
0.0
  0
LINE
  5
2BE
  8
5
  6
CONTINUOUS
 10
328.2994
 20
1457.473
 30
0.0
 11
328.2994
 21
1461.973
 31
0.0
  0
LINE
  5
2BF
  8
5
  6
CONTINUOUS
 10
313.2994
 20
1461.973
 30
0.0
 11
313.2994
 21
1457.473
 31
0.0
  0
LINE
  5
2C0
  8
5
  6
CONTINUOUS
 10
360.3994
 20
1457.473
 30
0.0
 11
360.3994
 21
1461.973
 31
0.0
  0
LINE
  5
2C1
  8
5
  6
CONTINUOUS
 10
343.1994
 20
1461.973
 30
0.0
 11
343.1994
 21
1457.473
 31
0.0
  0
LINE
  5
2C2
  8
5
  6
CONTINUOUS
 10
394.9994
 20
1457.473
 30
0.0
 11
394.9994
 21
1461.973
 31
0.0
  0
LINE
  5
2C3
  8
5
  6
CONTINUOUS
 10
377.6994
 20
1461.973
 30
0.0
 11
377.6994
 21
1457.473
 31
0.0
  0
LINE
  5
2C4
  8
5
  6
CONTINUOUS
 10
427.0994
 20
1457.473
 30
0.0
 11
427.0994
 21
1461.973
 31
0.0
  0
ARC
  5
2C5
  8
5
  6
CONTINUOUS
 10
2093.262
 20
1221.973
 30
0.0
 40
76.16056
 50
6.407922
 51
19.56153
  0
LINE
  5
2C6
  8
5
  6
CONTINUOUS
 10
2168.947
 20
1230.473
 30
0.0
 11
2291.13
 21
1230.473
 31
0.0
  0
ARC
  5
2C7
  8
5
  6
CONTINUOUS
 10
2093.262
 20
1221.973
 30
0.0
 40
198.0506
 50
2.459795
 51
7.397655
  0
LINE
  5
2C8
  8
5
  6
CONTINUOUS
 10
2289.664
 20
1247.473
 30
0.0
 11
2165.027
 21
1247.473
 31
0.0
  0
ARC
  5
2C9
  8
5
  6
CONTINUOUS
 10
2093.262
 20
1221.973
 30
0.0
 40
76.16056
 50
186.4079
 51
199.5615
  0
LINE
  5
2CA
  8
5
  6
CONTINUOUS
 10
2017.577
 20
1213.473
 30
0.0
 11
1895.394
 21
1213.473
 31
0.0
  0
ARC
  5
2CB
  8
5
  6
CONTINUOUS
 10
2093.262
 20
1221.973
 30
0.0
 40
198.0505
 50
182.4598
 51
187.3977
  0
LINE
  5
2CC
  8
5
  6
CONTINUOUS
 10
1896.86
 20
1196.473
 30
0.0
 11
2021.497
 21
1196.473
 31
0.0
  0
ARC
  5
2CD
  8
5
  6
CONTINUOUS
 10
2093.262
 20
1221.973
 30
0.0
 40
76.16056
 50
340.4385
 51
353.5921
  0
LINE
  5
2CE
  8
5
  6
CONTINUOUS
 10
412.1994
 20
1461.973
 30
0.0
 11
412.1994
 21
1457.473
 31
0.0
  0
LINE
  5
2CF
  8
5
  6
CONTINUOUS
 10
2165.027
 20
1196.473
 30
0.0
 11
2289.664
 21
1196.473
 31
0.0
  0
ARC
  5
2D0
  8
5
  6
CONTINUOUS
 10
2093.262
 20
1221.973
 30
0.0
 40
198.0506
 50
352.6023
 51
357.5402
  0
LINE
  5
2D1
  8
5
  6
CONTINUOUS
 10
2291.13
 20
1213.473
 30
0.0
 11
2168.947
 21
1213.473
 31
0.0
  0
LINE
  5
2D2
  8
5
  6
CONTINUOUS
 10
457.0994
 20
1457.473
 30
0.0
 11
457.0994
 21
1461.973
 31
0.0
  0
ARC
  5
2D3
  8
5
  6
CONTINUOUS
 10
2093.262
 20
1221.973
 30
0.0
 40
76.16056
 50
213.9198
 51
231.3746
  0
LINE
  5
2D4
  8
5
  6
CONTINUOUS
 10
2030.062
 20
1179.473
 30
0.0
 11
1899.825
 21
1179.473
 31
0.0
  0
ARC
  5
2D5
  8
5
  6
CONTINUOUS
 10
2093.262
 20
1221.973
 30
0.0
 40
198.0506
 50
192.3916
 51
197.4833
  0
LINE
  5
2D6
  8
5
  6
CONTINUOUS
 10
442.0994
 20
1461.973
 30
0.0
 11
442.0994
 21
1457.473
 31
0.0
  0
LINE
  5
2D7
  8
5
  6
CONTINUOUS
 10
474.0994
 20
1461.973
 30
0.0
 11
474.0994
 21
1457.473
 31
0.0
  0
LINE
  5
2D8
  8
5
  6
CONTINUOUS
 10
1904.36
 20
1162.473
 30
0.0
 11
2045.721
 21
1162.473
 31
0.0
  0
ARC
  5
2D9
  8
5
  6
CONTINUOUS
 10
2093.262
 20
1221.973
 30
0.0
 40
76.16056
 50
308.6254
 51
326.0802
  0
LINE
  5
2DA
  8
5
  6
CONTINUOUS
 10
613.2994
 20
1336.673
 30
0.0
 11
617.7994
 21
1336.673
 31
0.0
  0
LINE
  5
2DB
  8
5
  6
CONTINUOUS
 10
617.7994
 20
1107.273
 30
0.0
 11
613.2994
 21
1107.273
 31
0.0
  0
LINE
  5
2DC
  8
5
  6
CONTINUOUS
 10
2140.803
 20
1162.473
 30
0.0
 11
2282.163
 21
1162.473
 31
0.0
  0
ARC
  5
2DD
  8
5
  6
CONTINUOUS
 10
2093.262
 20
1221.973
 30
0.0
 40
198.0506
 50
342.5167
 51
347.6084
  0
LINE
  5
2DE
  8
5
  6
CONTINUOUS
 10
613.2994
 20
1204.673
 30
0.0
 11
617.7994
 21
1204.673
 31
0.0
  0
LINE
  5
2DF
  8
5
  6
CONTINUOUS
 10
617.7994
 20
1221.973
 30
0.0
 11
613.2994
 21
1221.973
 31
0.0
  0
LINE
  5
2E0
  8
5
  6
CONTINUOUS
 10
2286.699
 20
1179.473
 30
0.0
 11
2156.461
 21
1179.473
 31
0.0
  0
ARC
  5
2E1
  8
5
  6
CONTINUOUS
 10
2093.262
 20
1221.973
 30
0.0
 40
76.16056
 50
51.37464
 51
128.6254
  0
LINE
  5
2E2
  8
5
  6
CONTINUOUS
 10
613.2994
 20
1239.273
 30
0.0
 11
617.7994
 21
1239.273
 31
0.0
  0
LINE
  5
2E3
  8
5
  6
CONTINUOUS
 10
617.7994
 20
1256.473
 30
0.0
 11
613.2994
 21
1256.473
 31
0.0
  0
ARC
  5
2E4
  8
5
  6
CONTINUOUS
 10
2093.262
 20
1221.973
 30
0.0
 40
198.0506
 50
17.48333
 51
22.7223
  0
LINE
  5
2E5
  8
5
  6
CONTINUOUS
 10
2275.941
 20
1298.473
 30
0.0
 11
1910.583
 21
1298.473
 31
0.0
  0
LINE
  5
2E6
  8
5
  6
CONTINUOUS
 10
613.2994
 20
1271.473
 30
0.0
 11
617.7994
 21
1271.473
 31
0.0
  0
LINE
  5
2E7
  8
5
  6
CONTINUOUS
 10
617.7994
 20
1286.373
 30
0.0
 11
613.2994
 21
1286.373
 31
0.0
  0
ARC
  5
2E8
  8
5
  6
CONTINUOUS
 10
2093.262
 20
1221.973
 30
0.0
 40
198.0506
 50
157.2777
 51
162.5167
  0
ARC
  5
2E9
  8
5
  6
CONTINUOUS
 10
2093.262
 20
1221.973
 30
0.0
 40
76.16056
 50
146.0802
 51
160.4385
  0
LINE
  5
2EA
  8
5
  6
CONTINUOUS
 10
613.2994
 20
1301.373
 30
0.0
 11
617.7994
 21
1301.373
 31
0.0
  0
LINE
  5
2EB
  8
5
  6
CONTINUOUS
 10
617.7994
 20
1318.373
 30
0.0
 11
613.2994
 21
1318.373
 31
0.0
  0
ARC
  5
2EC
  8
5
  6
CONTINUOUS
 10
2093.262
 20
1221.973
 30
0.0
 40
198.0506
 50
167.6084
 51
172.6023
  0
ARC
  5
2ED
  8
5
  6
CONTINUOUS
 10
2093.262
 20
1221.973
 30
0.0
 40
76.16056
 50
19.56153
 51
33.91978
  0
LINE
  5
2EE
  8
5
  6
CONTINUOUS
 10
613.2994
 20
1172.573
 30
0.0
 11
617.7994
 21
1172.573
 31
0.0
  0
ARC
  5
2EF
  8
5
  6
CONTINUOUS
 10
2093.262
 20
1221.973
 30
0.0
 40
198.0506
 50
7.397655
 51
12.39155
  0
ARC
  5
2F0
  8
5
  6
CONTINUOUS
 10
2093.262
 20
1221.973
 30
0.0
 40
76.16056
 50
173.5921
 51
186.4079
  0
ARC
  5
2F1
  8
5
  6
CONTINUOUS
 10
2093.262
 20
1221.973
 30
0.0
 40
198.0506
 50
177.5402
 51
182.4598
  0
LINE
  5
2F2
  8
5
  6
CONTINUOUS
 10
617.7994
 20
1187.473
 30
0.0
 11
613.2994
 21
1187.473
 31
0.0
  0
ARC
  5
2F3
  8
5
  6
CONTINUOUS
 10
2093.262
 20
1221.973
 30
0.0
 40
76.16056
 50
353.5921
 51
6.4079
  0
ARC
  5
2F4
  8
5
  6
CONTINUOUS
 10
2093.262
 20
1221.973
 30
0.0
 40
198.0506
 50
357.5402
 51
2.4598
  0
ARC
  5
2F5
  8
5
  6
CONTINUOUS
 10
2093.262
 20
1221.973
 30
0.0
 40
76.16056
 50
199.5615
 51
213.9198
  0
ARC
  5
2F6
  8
5
  6
CONTINUOUS
 10
2093.262
 20
1221.973
 30
0.0
 40
198.0506
 50
187.3977
 51
192.3916
  0
ARC
  5
2F7
  8
5
  6
CONTINUOUS
 10
2093.262
 20
1221.973
 30
0.0
 40
76.16056
 50
326.0802
 51
340.4385
  0
ARC
  5
2F8
  8
5
  6
CONTINUOUS
 10
2093.262
 20
1221.973
 30
0.0
 40
198.0506
 50
347.6084
 51
352.6023
  0
LINE
  5
2F9
  8
5
  6
CONTINUOUS
 10
613.2994
 20
1142.573
 30
0.0
 11
617.7994
 21
1142.573
 31
0.0
  0
ARC
  5
2FA
  8
5
  6
CONTINUOUS
 10
2093.262
 20
1221.973
 30
0.0
 40
198.0506
 50
151.8292
 51
157.2777
  0
ARC
  5
2FB
  8
5
  6
CONTINUOUS
 10
2093.262
 20
1221.973
 30
0.0
 40
198.0506
 50
22.7223
 51
28.17081
  0
LINE
  5
2FC
  8
5
  6
CONTINUOUS
 10
617.7994
 20
1157.573
 30
0.0
 11
613.2994
 21
1157.573
 31
0.0
  0
LINE
  5
2FD
  8
5
  6
CONTINUOUS
 10
617.7994
 20
1125.573
 30
0.0
 11
613.2994
 21
1125.573
 31
0.0
  0
LINE
  5
2FE
  8
5
  6
CONTINUOUS
 10
2267.852
 20
1315.473
 30
0.0
 11
2205.762
 21
1315.473
 31
0.0
  0
LINE
  5
2FF
  8
5
  6
CONTINUOUS
 10
2205.762
 20
1315.473
 30
0.0
 11
2188.762
 21
1315.473
 31
0.0
  0
LINE
  5
300
  8
5
  6
CONTINUOUS
 10
137.7994
 20
1336.673
 30
0.0
 11
142.2994
 21
1336.673
 31
0.0
  0
LINE
  5
301
  8
5
  6
CONTINUOUS
 10
142.2994
 20
1107.273
 30
0.0
 11
137.7994
 21
1107.273
 31
0.0
  0
LINE
  5
302
  8
5
  6
CONTINUOUS
 10
2188.762
 20
1315.473
 30
0.0
 11
2171.762
 21
1315.473
 31
0.0
  0
LINE
  5
303
  8
5
  6
CONTINUOUS
 10
2171.762
 20
1315.473
 30
0.0
 11
2154.762
 21
1315.473
 31
0.0
  0
LINE
  5
304
  8
5
  6
CONTINUOUS
 10
142.2994
 20
1221.973
 30
0.0
 11
137.7994
 21
1221.973
 31
0.0
  0
LINE
  5
305
  8
5
  6
CONTINUOUS
 10
137.7994
 20
1204.673
 30
0.0
 11
142.2994
 21
1204.673
 31
0.0
  0
LINE
  5
306
  8
5
  6
CONTINUOUS
 10
2154.762
 20
1315.473
 30
0.0
 11
2137.762
 21
1315.473
 31
0.0
  0
LINE
  5
307
  8
5
  6
CONTINUOUS
 10
2137.762
 20
1315.473
 30
0.0
 11
2120.762
 21
1315.473
 31
0.0
  0
LINE
  5
308
  8
5
  6
CONTINUOUS
 10
142.2994
 20
1256.473
 30
0.0
 11
137.7994
 21
1256.473
 31
0.0
  0
LINE
  5
309
  8
5
  6
CONTINUOUS
 10
137.7994
 20
1239.273
 30
0.0
 11
142.2994
 21
1239.273
 31
0.0
  0
LINE
  5
30A
  8
5
  6
CONTINUOUS
 10
2120.762
 20
1315.473
 30
0.0
 11
2103.762
 21
1315.473
 31
0.0
  0
LINE
  5
30B
  8
5
  6
CONTINUOUS
 10
2103.762
 20
1315.473
 30
0.0
 11
2082.762
 21
1315.473
 31
0.0
  0
LINE
  5
30C
  8
5
  6
CONTINUOUS
 10
142.2994
 20
1286.373
 30
0.0
 11
137.7994
 21
1286.373
 31
0.0
  0
LINE
  5
30D
  8
5
  6
CONTINUOUS
 10
137.7994
 20
1271.473
 30
0.0
 11
142.2994
 21
1271.473
 31
0.0
  0
LINE
  5
30E
  8
5
  6
CONTINUOUS
 10
2082.762
 20
1315.473
 30
0.0
 11
2065.762
 21
1315.473
 31
0.0
  0
LINE
  5
30F
  8
5
  6
CONTINUOUS
 10
2065.762
 20
1315.473
 30
0.0
 11
2048.762
 21
1315.473
 31
0.0
  0
LINE
  5
310
  8
5
  6
CONTINUOUS
 10
142.2994
 20
1318.373
 30
0.0
 11
137.7994
 21
1318.373
 31
0.0
  0
LINE
  5
311
  8
5
  6
CONTINUOUS
 10
137.7994
 20
1301.373
 30
0.0
 11
142.2994
 21
1301.373
 31
0.0
  0
LINE
  5
312
  8
5
  6
CONTINUOUS
 10
2048.762
 20
1315.473
 30
0.0
 11
2031.762
 21
1315.473
 31
0.0
  0
LINE
  5
313
  8
5
  6
CONTINUOUS
 10
142.2994
 20
1187.473
 30
0.0
 11
137.7994
 21
1187.473
 31
0.0
  0
LINE
  5
314
  8
5
  6
CONTINUOUS
 10
137.7994
 20
1172.573
 30
0.0
 11
142.2994
 21
1172.573
 31
0.0
  0
LINE
  5
315
  8
5
  6
CONTINUOUS
 10
142.2994
 20
1157.573
 30
0.0
 11
137.7994
 21
1157.573
 31
0.0
  0
LINE
  5
316
  8
5
  6
CONTINUOUS
 10
137.7994
 20
1142.573
 30
0.0
 11
142.2994
 21
1142.573
 31
0.0
  0
LINE
  5
317
  8
5
  6
CONTINUOUS
 10
142.2994
 20
1125.573
 30
0.0
 11
137.7994
 21
1125.573
 31
0.0
  0
LINE
  5
318
  8
5
  6
CONTINUOUS
 10
187.3785
 20
1433.244
 30
0.0
 11
165.3008
 21
1411.166
 31
0.0
  0
CIRCLE
  5
319
  8
5
  6
CONTINUOUS
 10
377.7994
 20
1221.973
 30
0.0
 40
223.5
  0
LINE
  5
31A
  8
5
  6
CONTINUOUS
 10
2031.762
 20
1315.473
 30
0.0
 11
2014.762
 21
1315.473
 31
0.0
  0
LINE
  5
31B
  8
5
  6
CONTINUOUS
 10
2014.762
 20
1315.473
 30
0.0
 11
1997.762
 21
1315.473
 31
0.0
  0
LINE
  5
31C
  8
5
  6
CONTINUOUS
 10
1997.762
 20
1315.473
 30
0.0
 11
1980.762
 21
1315.473
 31
0.0
  0
LINE
  5
31D
  8
5
  6
CONTINUOUS
 10
1980.762
 20
1315.473
 30
0.0
 11
1918.672
 21
1315.473
 31
0.0
  0
ARC
  5
31E
  8
5
  6
CONTINUOUS
 10
2093.262
 20
1221.973
 30
0.0
 40
198.0506
 50
55.38656
 51
61.17081
  0
LINE
  5
31F
  8
5
  6
CONTINUOUS
 10
2188.762
 20
1395.478
 30
0.0
 11
2188.762
 21
1315.473
 31
0.0
  0
LINE
  5
320
  8
5
  6
CONTINUOUS
 10
2205.762
 20
1315.473
 30
0.0
 11
2205.762
 21
1384.97
 31
0.0
  0
LINE
  5
321
  8
5
  6
CONTINUOUS
 10
1047.146
 20
385.857
 30
0.0
 11
1058.59
 21
385.8574
 31
0.0
  0
ARC
  5
322
  8
5
  6
CONTINUOUS
 10
2093.262
 20
1221.973
 30
0.0
 40
198.0506
 50
66.64896
 51
71.90902
  0
LINE
  5
323
  8
5
  6
CONTINUOUS
 10
2154.762
 20
1410.233
 30
0.0
 11
2154.762
 21
1315.473
 31
0.0
  0
LINE
  5
324
  8
5
  6
CONTINUOUS
 10
1043.456
 20
375.0995
 30
0.0
 11
1047.146
 21
385.857
 31
0.0
  0
LINE
  5
325
  8
5
  6
CONTINUOUS
 10
1034.593
 20
375.0992
 30
0.0
 11
1043.456
 21
375.0995
 31
0.0
  0
LINE
  5
326
  8
5
  6
CONTINUOUS
 10
1043.535
 20
401.1658
 30
0.0
 11
1034.593
 21
375.0992
 31
0.0
  0
LINE
  5
327
  8
5
  6
CONTINUOUS
 10
2171.762
 20
1315.473
 30
0.0
 11
2171.762
 21
1403.802
 31
0.0
  0
ARC
  5
328
  8
5
  6
CONTINUOUS
 10
2093.262
 20
1221.973
 30
0.0
 40
198.0506
 50
77.01534
 51
82.01849
  0
LINE
  5
329
  8
5
  6
CONTINUOUS
 10
2120.762
 20
1418.105
 30
0.0
 11
2120.762
 21
1315.473
 31
0.0
  0
LINE
  5
32A
  8
5
  6
CONTINUOUS
 10
1058.59
 20
401.1663
 30
0.0
 11
1043.535
 21
401.1658
 31
0.0
  0
LINE
  5
32B
  8
5
  6
CONTINUOUS
 10
1058.59
 20
385.8574
 30
0.0
 11
1058.59
 21
401.1663
 31
0.0
  0
LINE
  5
32C
  8
5
  6
CONTINUOUS
 10
2137.762
 20
1315.473
 30
0.0
 11
2137.762
 21
1414.96
 31
0.0
  0
ARC
  5
32D
  8
5
  6
CONTINUOUS
 10
2093.262
 20
1221.973
 30
0.0
 40
198.0506
 50
86.96094
 51
93.03906
  0
LINE
  5
32E
  8
5
  6
CONTINUOUS
 10
271.6683
 20
1470.973
 30
0.0
 11
271.354
 21
1461.973
 31
0.0
  0
LINE
  5
32F
  8
5
  6
CONTINUOUS
 10
484.2449
 20
1461.973
 30
0.0
 11
483.9306
 21
1470.973
 31
0.0
  0
LINE
  5
330
  8
5
  6
CONTINUOUS
 10
2082.762
 20
1419.745
 30
0.0
 11
2082.762
 21
1315.473
 31
0.0
  0
LINE
  5
331
  8
5
  6
CONTINUOUS
 10
2103.762
 20
1315.473
 30
0.0
 11
2103.762
 21
1419.745
 31
0.0
  0
ARC
  5
332
  8
5
  6
CONTINUOUS
 10
2093.262
 20
1221.973
 30
0.0
 40
198.0506
 50
97.98151
 51
102.9847
  0
LINE
  5
333
  8
5
  6
CONTINUOUS
 10
2048.762
 20
1414.96
 30
0.0
 11
2048.762
 21
1315.473
 31
0.0
  0
LINE
  5
334
  8
5
  6
CONTINUOUS
 10
1058.589
 20
428.1636
 30
0.0
 11
1052.796
 21
428.1634
 31
0.0
  0
LINE
  5
335
  8
5
  6
CONTINUOUS
 10
1058.59
 20
403.2663
 30
0.0
 11
1058.589
 21
428.1636
 31
0.0
  0
LINE
  5
336
  8
5
  6
CONTINUOUS
 10
1044.255
 20
403.2658
 30
0.0
 11
1058.59
 21
403.2663
 31
0.0
  0
LINE
  5
337
  8
5
  6
CONTINUOUS
 10
1052.796
 20
428.1634
 30
0.0
 11
1044.255
 21
403.2658
 31
0.0
  0
LINE
  5
338
  8
5
  6
CONTINUOUS
 10
2065.762
 20
1315.473
 30
0.0
 11
2065.762
 21
1418.105
 31
0.0
  0
ARC
  5
339
  8
5
  6
CONTINUOUS
 10
2093.262
 20
1221.973
 30
0.0
 40
198.0506
 50
108.091
 51
113.351
  0
LINE
  5
33A
  8
5
  6
CONTINUOUS
 10
2014.762
 20
1403.802
 30
0.0
 11
2014.762
 21
1315.473
 31
0.0
  0
LINE
  5
33B
  8
5
  6
CONTINUOUS
 10
2031.762
 20
1315.473
 30
0.0
 11
2031.762
 21
1410.233
 31
0.0
  0
ARC
  5
33C
  8
5
  6
CONTINUOUS
 10
2093.262
 20
1221.973
 30
0.0
 40
198.0506
 50
118.8292
 51
124.6134
  0
LINE
  5
33D
  8
5
  6
CONTINUOUS
 10
1980.762
 20
1384.969
 30
0.0
 11
1980.762
 21
1315.473
 31
0.0
  0
LINE
  5
33E
  8
5
  6
CONTINUOUS
 10
1997.762
 20
1315.473
 30
0.0
 11
1997.762
 21
1395.478
 31
0.0
  0
ARC
  5
33F
  8
5
  6
CONTINUOUS
 10
2093.262
 20
1221.973
 30
0.0
 40
198.0506
 50
61.17081
 51
66.64896
  0
LINE
  5
340
  8
5
  6
CONTINUOUS
 10
985.5958
 20
210.6066
 30
0.0
 11
1213.596
 21
210.6066
 31
0.0
  0
LINE
  5
341
  8
5
  6
CONTINUOUS
 10
1209.596
 20
274.4776
 30
0.0
 11
1213.096
 21
277.9751
 31
0.0
  0
LINE
  5
342
  8
5
  6
CONTINUOUS
 10
989.5958
 20
274.4776
 30
0.0
 11
1209.596
 21
274.4776
 31
0.0
  0
LINE
  5
343
  8
5
  6
CONTINUOUS
 10
986.0958
 20
277.9751
 30
0.0
 11
989.5958
 21
274.4776
 31
0.0
  0
LINE
  5
344
  8
5
  6
CONTINUOUS
 10
1209.596
 20
274.4776
 30
0.0
 11
1209.596
 21
290.0991
 31
0.0
  0
LINE
  5
345
  8
5
  6
CONTINUOUS
 10
989.5958
 20
290.0991
 30
0.0
 11
1209.596
 21
290.0991
 31
0.0
  0
LINE
  5
346
  8
5
  6
CONTINUOUS
 10
989.5958
 20
290.0991
 30
0.0
 11
989.5958
 21
274.4776
 31
0.0
  0
LINE
  5
347
  8
5
  6
CONTINUOUS
 10
940.0958
 20
290.1066
 30
0.0
 11
989.5958
 21
290.0991
 31
0.0
  0
LINE
  5
348
  8
5
  6
CONTINUOUS
 10
940.0958
 20
290.1066
 30
0.0
 11
986.0958
 21
244.1065
 31
0.0
  0
LINE
  5
349
  8
5
  6
CONTINUOUS
 10
1213.096
 20
244.1065
 30
0.0
 11
1259.096
 21
290.1066
 31
0.0
  0
LINE
  5
34A
  8
5
  6
CONTINUOUS
 10
1209.596
 20
290.0991
 30
0.0
 11
1259.096
 21
290.1066
 31
0.0
  0
LINE
  5
34B
  8
5
  6
CONTINUOUS
 10
989.5884
 20
513.1067
 30
0.0
 11
940.0958
 21
513.1066
 31
0.0
  0
LINE
  5
34C
  8
5
  6
CONTINUOUS
 10
989.5884
 20
513.1067
 30
0.0
 11
989.5958
 21
290.0991
 31
0.0
  0
LINE
  5
34D
  8
5
  6
CONTINUOUS
 10
1209.596
 20
513.1142
 30
0.0
 11
1209.596
 21
562.6066
 31
0.0
  0
LINE
  5
34E
  8
5
  6
CONTINUOUS
 10
989.5958
 20
562.6066
 30
0.0
 11
989.5884
 21
513.1067
 31
0.0
  0
LINE
  5
34F
  8
5
  6
CONTINUOUS
 10
1209.596
 20
513.1142
 30
0.0
 11
989.5884
 21
513.1067
 31
0.0
  0
LINE
  5
350
  8
5
  6
CONTINUOUS
 10
989.5958
 20
562.6066
 30
0.0
 11
940.0958
 21
513.1066
 31
0.0
  0
LINE
  5
351
  8
5
  6
CONTINUOUS
 10
1259.096
 20
513.1066
 30
0.0
 11
1209.596
 21
513.1142
 31
0.0
  0
LINE
  5
352
  8
5
  6
CONTINUOUS
 10
1209.596
 20
290.0991
 30
0.0
 11
1209.596
 21
513.1142
 31
0.0
  0
LINE
  5
353
  8
5
  6
CONTINUOUS
 10
1259.096
 20
513.1066
 30
0.0
 11
1209.596
 21
562.6066
 31
0.0
  0
LINE
  5
354
  8
5
  6
CONTINUOUS
 10
2255.762
 20
1541.473
 30
0.0
 11
1933.762
 21
1541.473
 31
0.0
  0
LINE
  5
355
  8
5
  6
CONTINUOUS
 10
2255.762
 20
1562.773
 30
0.0
 11
2255.762
 21
1541.473
 31
0.0
  0
LINE
  5
356
  8
5
  6
CONTINUOUS
 10
2284.762
 20
1597.673
 30
0.0
 11
2284.762
 21
1544.473
 31
0.0
  0
LINE
  5
357
  8
5
  6
CONTINUOUS
 10
1938.262
 20
1519.473
 30
0.0
 11
1938.262
 21
1541.473
 31
0.0
  0
LINE
  5
358
  8
5
  6
CONTINUOUS
 10
2250.762
 20
1519.473
 30
0.0
 11
2250.762
 21
1541.473
 31
0.0
  0
LINE
  5
359
  8
5
  6
CONTINUOUS
 10
2255.762
 20
1544.473
 30
0.0
 11
2285.762
 21
1544.473
 31
0.0
  0
LINE
  5
35A
  8
5
  6
CONTINUOUS
 10
2218.394
 20
1597.673
 30
0.0
 11
2284.762
 21
1597.673
 31
0.0
  0
LINE
  5
35B
  8
5
  6
CONTINUOUS
 10
2206.269
 20
1613.773
 30
0.0
 11
2221.891
 21
1597.673
 31
0.0
  0
LINE
  5
35C
  8
5
  6
CONTINUOUS
 10
2255.762
 20
1562.773
 30
0.0
 11
2206.262
 21
1562.773
 31
0.0
  0
LINE
  5
35D
  8
5
  6
CONTINUOUS
 10
1933.762
 20
1562.773
 30
0.0
 11
1983.262
 21
1613.773
 31
0.0
  0
LINE
  5
35E
  8
5
  6
CONTINUOUS
 10
1983.262
 20
1562.773
 30
0.0
 11
1933.762
 21
1562.773
 31
0.0
  0
LINE
  5
35F
  8
5
  6
CONTINUOUS
 10
1933.762
 20
1562.773
 30
0.0
 11
1933.762
 21
1541.473
 31
0.0
  0
LINE
  5
360
  8
5
  6
CONTINUOUS
 10
2068.202
 20
1617.973
 30
0.0
 11
2068.202
 21
1617.973
 31
0.0
  0
LINE
  5
361
  8
5
  6
CONTINUOUS
 10
2095.201
 20
1617.973
 30
0.0
 11
2095.201
 21
1617.973
 31
0.0
  0
LINE
  5
362
  8
5
  6
CONTINUOUS
 10
2068.202
 20
1617.973
 30
0.0
 11
2068.202
 21
1617.973
 31
0.0
  0
ARC
  5
363
  8
5
  6
CONTINUOUS
 10
2093.262
 20
1221.973
 30
0.0
 40
198.0506
 50
28.17081
 51
55.38656
  0
LINE
  5
364
  8
5
  6
CONTINUOUS
 10
2095.201
 20
1617.973
 30
0.0
 11
2121.269
 21
1617.973
 31
0.0
  0
ARC
  5
365
  8
5
  6
CONTINUOUS
 10
2093.262
 20
1221.973
 30
0.0
 40
198.0506
 50
71.90902
 51
77.01534
  0
LINE
  5
366
  8
5
  6
CONTINUOUS
 10
2068.202
 20
1617.973
 30
0.0
 11
2093.103
 21
1617.973
 31
0.0
  0
LINE
  5
367
  8
5
  6
CONTINUOUS
 10
2095.201
 20
1617.973
 30
0.0
 11
2095.201
 21
1617.973
 31
0.0
  0
LINE
  5
368
  8
5
  6
CONTINUOUS
 10
2121.269
 20
1613.773
 30
0.0
 11
2121.269
 21
1617.973
 31
0.0
  0
LINE
  5
369
  8
5
  6
CONTINUOUS
 10
2095.203
 20
1613.773
 30
0.0
 11
2095.201
 21
1617.973
 31
0.0
  0
LINE
  5
36A
  8
5
  6
CONTINUOUS
 10
2068.202
 20
1617.973
 30
0.0
 11
2068.205
 21
1613.773
 31
0.0
  0
LINE
  5
36B
  8
5
  6
CONTINUOUS
 10
2093.103
 20
1613.773
 30
0.0
 11
2093.103
 21
1617.973
 31
0.0
  0
LINE
  5
36C
  8
5
  6
CONTINUOUS
 10
1983.262
 20
1613.773
 30
0.0
 11
1983.254
 21
1613.773
 31
0.0
  0
LINE
  5
36D
  8
5
  6
CONTINUOUS
 10
1983.262
 20
1613.773
 30
0.0
 11
2206.269
 21
1613.773
 31
0.0
  0
LINE
  5
36E
  8
5
  6
CONTINUOUS
 10
1945.262
 20
1494.973
 30
0.0
 11
1945.262
 21
1519.473
 31
0.0
  0
LINE
  5
36F
  8
5
  6
CONTINUOUS
 10
1969.262
 20
1470.973
 30
0.0
 11
1945.262
 21
1494.973
 31
0.0
  0
LINE
  5
370
  8
5
  6
CONTINUOUS
 10
2241.262
 20
1494.973
 30
0.0
 11
2217.262
 21
1470.973
 31
0.0
  0
LINE
  5
371
  8
5
  6
CONTINUOUS
 10
2285.762
 20
1544.473
 30
0.0
 11
2285.762
 21
1496.473
 31
0.0
  0
LINE
  5
372
  8
5
  6
CONTINUOUS
 10
2250.762
 20
1519.473
 30
0.0
 11
1938.262
 21
1519.473
 31
0.0
  0
LINE
  5
373
  8
5
  6
CONTINUOUS
 10
2241.262
 20
1494.973
 30
0.0
 11
2241.262
 21
1519.473
 31
0.0
  0
LINE
  5
374
  8
5
  6
CONTINUOUS
 10
2241.262
 20
1496.473
 30
0.0
 11
2285.762
 21
1496.473
 31
0.0
  0
LINE
  5
375
  8
5
  6
CONTINUOUS
 10
2217.262
 20
1470.973
 30
0.0
 11
2209.984
 21
1470.973
 31
0.0
  0
LINE
  5
376
  8
5
  6
CONTINUOUS
 10
1976.896
 20
1470.973
 30
0.0
 11
1969.262
 21
1470.973
 31
0.0
  0
LINE
  5
377
  8
5
  6
CONTINUOUS
 10
2252.262
 20
1562.773
 30
0.0
 11
2218.394
 21
1597.673
 31
0.0
  0
LINE
  5
378
  8
5
  6
CONTINUOUS
 10
2206.262
 20
1562.773
 30
0.0
 11
2206.269
 21
1613.773
 31
0.0
  0
LINE
  5
379
  8
5
  6
CONTINUOUS
 10
1983.254
 20
1613.773
 30
0.0
 11
1983.262
 21
1562.773
 31
0.0
  0
LINE
  5
37A
  8
5
  6
CONTINUOUS
 10
2206.262
 20
1562.773
 30
0.0
 11
1983.262
 21
1562.773
 31
0.0
  0
LINE
  5
37B
  8
5
  6
CONTINUOUS
 10
1945.262
 20
1494.973
 30
0.0
 11
2062.679
 21
1494.973
 31
0.0
  0
ARC
  5
37C
  8
5
  6
CONTINUOUS
 10
2093.262
 20
1221.973
 30
0.0
 40
198.0506
 50
82.01849
 51
86.96094
  0
ARC
  5
37D
  8
5
  6
CONTINUOUS
 10
2093.262
 20
1221.973
 30
0.0
 40
198.0506
 50
93.03906
 51
97.98151
  0
ARC
  5
37E
  8
5
  6
CONTINUOUS
 10
2093.262
 20
1221.973
 30
0.0
 40
198.0506
 50
102.9847
 51
108.091
  0
ARC
  5
37F
  8
5
  6
CONTINUOUS
 10
2093.262
 20
1221.973
 30
0.0
 40
198.0506
 50
113.351
 51
118.8292
  0
ARC
  5
380
  8
5
  6
CONTINUOUS
 10
2093.262
 20
1221.973
 30
0.0
 40
198.0506
 50
124.6134
 51
151.8292
  0
LINE
  5
381
  8
5
  6
CONTINUOUS
 10
2067.262
 20
1145.473
 30
0.0
 11
1910.583
 21
1145.473
 31
0.0
  0
LINE
  5
382
  8
5
  6
CONTINUOUS
 10
2123.844
 20
1494.973
 30
0.0
 11
2241.262
 21
1494.973
 31
0.0
  0
ARC
  5
383
  8
5
  6
CONTINUOUS
 10
2093.262
 20
1221.973
 30
0.0
 40
198.0506
 50
202.7223
 51
208.1708
  0
ARC
  5
384
  8
5
  6
CONTINUOUS
 10
2093.262
 20
1221.973
 30
0.0
 40
198.0506
 50
331.8292
 51
337.2777
  0
LINE
  5
385
  8
5
  6
CONTINUOUS
 10
2275.941
 20
1145.473
 30
0.0
 11
2119.262
 21
1145.473
 31
0.0
  0
ARC
  5
386
  8
5
  6
CONTINUOUS
 10
2093.262
 20
1221.973
 30
0.0
 40
76.16056
 50
231.3746
 51
250.0388
  0
ARC
  5
387
  8
5
  6
CONTINUOUS
 10
2093.262
 20
1221.973
 30
0.0
 40
198.0506
 50
197.4833
 51
202.7223
  0
ARC
  5
388
  8
5
  6
CONTINUOUS
 10
2093.262
 20
1221.973
 30
0.0
 40
198.0506
 50
337.2777
 51
342.5167
  0
ARC
  5
389
  8
5
  6
CONTINUOUS
 10
2093.262
 20
1221.973
 30
0.0
 40
76.16056
 50
289.9612
 51
308.6254
  0
ARC
  5
38A
  8
5
  6
CONTINUOUS
 10
2093.262
 20
1221.973
 30
0.0
 40
198.0506
 50
254.478
 51
259.527
  0
LINE
  5
38B
  8
5
  6
CONTINUOUS
 10
2057.262
 20
1027.222
 30
0.0
 11
2057.262
 21
1106.473
 31
0.0
  0
LINE
  5
38C
  8
5
  6
CONTINUOUS
 10
2040.262
 20
1106.473
 30
0.0
 11
2040.262
 21
1031.146
 31
0.0
  0
ARC
  5
38D
  8
5
  6
CONTINUOUS
 10
2093.262
 20
1221.973
 30
0.0
 40
198.0506
 50
243.9419
 51
249.3018
  0
LINE
  5
38E
  8
5
  6
CONTINUOUS
 10
2023.262
 20
1036.706
 30
0.0
 11
2023.262
 21
1106.473
 31
0.0
  0
LINE
  5
38F
  8
5
  6
CONTINUOUS
 10
2006.262
 20
1106.473
 30
0.0
 11
2006.262
 21
1044.055
 31
0.0
  0
ARC
  5
390
  8
5
  6
CONTINUOUS
 10
2093.262
 20
1221.973
 30
0.0
 40
198.0506
 50
280.473
 51
285.522
  0
LINE
  5
391
  8
5
  6
CONTINUOUS
 10
963.625
 20
198.0067
 30
0.0
 11
962.115
 21
209.7937
 31
0.0
  0
LINE
  5
392
  8
5
  6
CONTINUOUS
 10
1259.096
 20
552.7066
 30
0.0
 11
1404.096
 21
552.7067
 31
0.0
  0
LINE
  5
393
  8
5
  6
CONTINUOUS
 10
2146.262
 20
1031.146
 30
0.0
 11
2146.262
 21
1106.473
 31
0.0
  0
LINE
  5
394
  8
5
  6
CONTINUOUS
 10
2129.262
 20
1106.473
 30
0.0
 11
2129.262
 21
1027.222
 31
0.0
  0
ARC
  5
395
  8
5
  6
CONTINUOUS
 10
2093.262
 20
1221.973
 30
0.0
 40
198.0506
 50
290.6982
 51
296.0581
  0
LINE
  5
396
  8
5
  6
CONTINUOUS
 10
2180.262
 20
1044.055
 30
0.0
 11
2180.262
 21
1106.473
 31
0.0
  0
LINE
  5
397
  8
5
  6
CONTINUOUS
 10
2163.262
 20
1106.473
 30
0.0
 11
2163.262
 21
1036.706
 31
0.0
  0
ARC
  5
398
  8
5
  6
CONTINUOUS
 10
2093.262
 20
1221.973
 30
0.0
 40
198.0506
 50
249.3018
 51
254.478
  0
ARC
  5
399
  8
5
  6
CONTINUOUS
 10
2093.262
 20
1221.973
 30
0.0
 40
198.0506
 50
215.6748
 51
243.9419
  0
ARC
  5
39A
  8
5
  6
CONTINUOUS
 10
2093.262
 20
1221.973
 30
0.0
 40
198.0506
 50
285.522
 51
290.6982
  0
ARC
  5
39B
  8
5
  6
CONTINUOUS
 10
2093.262
 20
1221.973
 30
0.0
 40
198.0506
 50
296.0581
 51
324.3252
  0
ARC
  5
39C
  8
5
  6
CONTINUOUS
 10
2093.262
 20
1221.973
 30
0.0
 40
198.0506
 50
259.527
 51
264.4949
  0
ARC
  5
39D
  8
5
  6
CONTINUOUS
 10
2093.262
 20
1221.973
 30
0.0
 40
198.0506
 50
275.5051
 51
280.473
  0
CIRCLE
  5
39E
  8
5
  6
CONTINUOUS
 10
2093.262
 20
1221.973
 30
0.0
 40
210.0
  0
ARC
  5
39F
  8
5
  6
CONTINUOUS
 10
2093.262
 20
1221.973
 30
0.0
 40
185.7597
 50
325.0178
 51
329.7789
  0
ARC
  5
3A0
  8
5
  6
CONTINUOUS
 10
2093.262
 20
1221.973
 30
0.0
 40
185.7597
 50
321.5544
 51
323.8805
  0
ARC
  5
3A1
  8
5
  6
CONTINUOUS
 10
2093.262
 20
1221.973
 30
0.0
 40
185.7597
 50
210.2211
 51
218.4456
  0
ARC
  5
3A2
  8
5
  6
CONTINUOUS
 10
2093.262
 20
1221.973
 30
0.0
 40
76.0
 50
290.0052
 51
249.9948
  0
ARC
  5
3A3
  8
5
  6
CONTINUOUS
 10
2093.262
 20
1221.973
 30
0.0
 40
70.71259
 50
248.427
 51
291.573
  0
CIRCLE
  5
3A4
  8
5
  6
CONTINUOUS
 10
2093.262
 20
1221.973
 30
0.0
 40
65.0
  0
LINE
  5
3A6
  8
5
  6
CONTINUOUS
 10
1404.096
 20
253.5067
 30
0.0
 11
1259.096
 21
253.5067
 31
0.0
  0
LINE
  5
3A8
  8
5
  6
CONTINUOUS
 10
1410.077
 20
506.0197
 30
0.0
 11
1408.579
 21
517.7067
 31
0.0
  0
LINE
  5
3A9
  8
5
  6
CONTINUOUS
 10
1404.109
 20
552.6067
 30
0.0
 11
1406.315
 21
535.382
 31
0.0
  0
LINE
  5
3AA
  8
5
  6
CONTINUOUS
 10
1406.338
 20
535.2067
 30
0.0
 11
1406.315
 21
535.382
 31
0.0
  0
LINE
  5
3AB
  8
5
  6
CONTINUOUS
 10
1408.579
 20
517.7067
 30
0.0
 11
1406.338
 21
535.2067
 31
0.0
  0
LINE
  5
3AC
  8
5
  6
CONTINUOUS
 10
1404.096
 20
552.7067
 30
0.0
 11
1404.109
 21
552.6067
 31
0.0
  0
LINE
  5
3AD
  8
5
  6
CONTINUOUS
 10
1406.325
 20
625.7067
 30
0.0
 11
1408.567
 21
608.2067
 31
0.0
  0
LINE
  5
3AE
  8
5
  6
CONTINUOUS
 10
1404.096
 20
643.1067
 30
0.0
 11
1406.312
 21
625.8072
 31
0.0
  0
LINE
  5
3AF
  8
5
  6
CONTINUOUS
 10
1406.312
 20
625.8072
 30
0.0
 11
1406.318
 21
625.7572
 31
0.0
  0
LINE
  5
3B0
  8
5
  6
CONTINUOUS
 10
1079.893
 20
562.6066
 30
0.0
 11
1077.212
 21
593.5276
 31
0.0
  0
LINE
  5
3B1
  8
5
  6
CONTINUOUS
 10
1406.318
 20
625.7572
 30
0.0
 11
1406.325
 21
625.7067
 31
0.0
  0
LINE
  5
3B2
  8
5
  6
CONTINUOUS
 10
1408.567
 20
608.2067
 30
0.0
 11
1410.077
 21
596.4197
 31
0.0
  0
LINE
  5
3B3
  8
5
  6
CONTINUOUS
 10
1406.312
 20
180.4061
 30
0.0
 11
1404.096
 21
163.1067
 31
0.0
  0
LINE
  5
3B4
  8
5
  6
CONTINUOUS
 10
1406.325
 20
180.5067
 30
0.0
 11
1408.567
 21
198.0067
 31
0.0
  0
LINE
  5
3B5
  8
5
  6
CONTINUOUS
 10
981.2987
 20
562.6066
 30
0.0
 11
983.9798
 21
593.5276
 31
0.0
  0
LINE
  5
3B6
  8
5
  6
CONTINUOUS
 10
1406.318
 20
180.4561
 30
0.0
 11
1406.325
 21
180.5067
 31
0.0
  0
LINE
  5
3B7
  8
5
  6
CONTINUOUS
 10
1406.318
 20
180.4561
 30
0.0
 11
1406.312
 21
180.4061
 31
0.0
  0
LINE
  5
3B8
  8
5
  6
CONTINUOUS
 10
1012.596
 20
562.6068
 30
0.0
 11
1012.596
 21
575.7535
 31
0.0
  0
LINE
  5
3B9
  8
5
  6
CONTINUOUS
 10
1408.567
 20
198.0067
 30
0.0
 11
1410.077
 21
209.7937
 31
0.0
  0
LINE
  5
3BA
  8
5
  6
CONTINUOUS
 10
965.8797
 20
625.8072
 30
0.0
 11
968.0958
 21
643.1067
 31
0.0
  0
LINE
  5
3BB
  8
5
  6
CONTINUOUS
 10
965.8668
 20
625.7067
 30
0.0
 11
963.625
 21
608.2067
 31
0.0
  0
LINE
  5
3BC
  8
5
  6
CONTINUOUS
 10
1048.596
 20
575.7535
 30
0.0
 11
1048.596
 21
562.6068
 31
0.0
  0
LINE
  5
3BD
  8
5
  6
CONTINUOUS
 10
965.8733
 20
625.7572
 30
0.0
 11
965.8668
 21
625.7067
 31
0.0
  0
LINE
  5
3BE
  8
5
  6
CONTINUOUS
 10
965.8733
 20
625.7572
 30
0.0
 11
965.8797
 21
625.8072
 31
0.0
  0
LINE
  5
3BF
  8
5
  6
CONTINUOUS
 10
963.625
 20
608.2067
 30
0.0
 11
962.115
 21
596.4197
 31
0.0
  0
LINE
  5
3C0
  8
5
  6
CONTINUOUS
 10
965.8668
 20
180.5067
 30
0.0
 11
963.625
 21
198.0067
 31
0.0
  0
LINE
  5
3C1
  8
5
  6
CONTINUOUS
 10
968.0958
 20
163.1067
 30
0.0
 11
965.8797
 21
180.4061
 31
0.0
  0
LINE
  5
3C2
  8
5
  6
CONTINUOUS
 10
965.8797
 20
180.4061
 30
0.0
 11
965.8733
 21
180.4561
 31
0.0
  0
LINE
  5
3C3
  8
5
  6
CONTINUOUS
 10
965.8733
 20
180.4561
 30
0.0
 11
965.8668
 21
180.5067
 31
0.0
  0
LINE
  5
3C4
  8
5
  6
CONTINUOUS
 10
968.0958
 20
643.1067
 30
0.0
 11
1404.096
 21
643.1067
 31
0.0
  0
LINE
  5
3C5
  8
5
  6
CONTINUOUS
 10
1404.096
 20
163.1067
 30
0.0
 11
968.0958
 21
163.1067
 31
0.0
  0
LINE
  5
3C6
  8
5
  6
CONTINUOUS
 10
1408.541
 20
288.2067
 30
0.0
 11
1406.315
 21
270.8313
 31
0.0
  0
LINE
  5
3C7
  8
5
  6
CONTINUOUS
 10
1406.315
 20
270.8313
 30
0.0
 11
1406.312
 21
270.8067
 31
0.0
  0
LINE
  5
3C8
  8
5
  6
CONTINUOUS
 10
1410.077
 20
300.1937
 30
0.0
 11
1408.541
 21
288.2067
 31
0.0
  0
LINE
  5
3C9
  8
5
  6
CONTINUOUS
 10
1406.312
 20
270.8067
 30
0.0
 11
1404.096
 21
253.5067
 31
0.0
  0
LINE
  5
3CA
  8
5
  6
CONTINUOUS
 10
1540.596
 20
635.6067
 30
0.0
 11
1540.596
 21
524.1601
 31
0.0
  0
LINE
  5
3CB
  8
5
  6
CONTINUOUS
 10
1540.596
 20
524.1601
 30
0.0
 11
1540.596
 21
282.0533
 31
0.0
  0
LINE
  5
3CC
  8
5
  6
CONTINUOUS
 10
1540.596
 20
282.0533
 30
0.0
 11
1540.596
 21
170.6067
 31
0.0
  0
LINE
  5
3CD
  8
5
  6
CONTINUOUS
 10
1613.596
 20
543.1067
 30
0.0
 11
1613.596
 21
263.1067
 31
0.0
  0
LINE
  5
3CE
  8
5
  6
CONTINUOUS
 10
1472.096
 20
638.6067
 30
0.0
 11
1411.596
 21
638.6067
 31
0.0
  0
LINE
  5
3CF
  8
5
  6
CONTINUOUS
 10
1472.096
 20
167.6067
 30
0.0
 11
1411.596
 21
167.6067
 31
0.0
  0
LINE
  5
3D0
  8
5
  6
CONTINUOUS
 10
1472.096
 20
635.6067
 30
0.0
 11
1540.596
 21
635.6067
 31
0.0
  0
LINE
  5
3D1
  8
5
  6
CONTINUOUS
 10
1540.596
 20
170.6067
 30
0.0
 11
1472.096
 21
170.6067
 31
0.0
  0
LINE
  5
3D2
  8
5
  6
CONTINUOUS
 10
1472.096
 20
638.6067
 30
0.0
 11
1472.096
 21
525.4027
 31
0.0
  0
LINE
  5
3D3
  8
5
  6
CONTINUOUS
 10
1472.096
 20
525.4027
 30
0.0
 11
1472.096
 21
280.8106
 31
0.0
  0
LINE
  5
3D4
  8
5
  6
CONTINUOUS
 10
1472.096
 20
280.8106
 30
0.0
 11
1472.096
 21
167.6067
 31
0.0
  0
LINE
  5
3D5
  8
5
  6
CONTINUOUS
 10
1411.596
 20
167.6067
 30
0.0
 11
1411.596
 21
280.8106
 31
0.0
  0
LINE
  5
3D6
  8
5
  6
CONTINUOUS
 10
1411.596
 20
280.8106
 30
0.0
 11
1411.596
 21
525.4027
 31
0.0
  0
LINE
  5
3D7
  8
5
  6
CONTINUOUS
 10
1411.596
 20
525.4027
 30
0.0
 11
1411.596
 21
638.6067
 31
0.0
  0
LINE
  5
3D8
  8
5
  6
CONTINUOUS
 10
1077.212
 20
593.5276
 30
0.0
 11
1060.096
 21
606.3998
 31
0.0
  0
LINE
  5
3D9
  8
5
  6
CONTINUOUS
 10
1060.096
 20
606.3998
 30
0.0
 11
1001.096
 21
606.3998
 31
0.0
  0
LINE
  5
3DA
  8
5
  6
CONTINUOUS
 10
1001.096
 20
606.3998
 30
0.0
 11
983.9798
 21
593.5276
 31
0.0
  0
LINE
  5
3DB
  8
5
  6
CONTINUOUS
 10
1012.596
 20
575.7535
 30
0.0
 11
1020.596
 21
582.2054
 31
0.0
  0
LINE
  5
3DC
  8
5
  6
CONTINUOUS
 10
1020.596
 20
582.2054
 30
0.0
 11
1040.596
 21
582.2054
 31
0.0
  0
LINE
  5
3DD
  8
5
  6
CONTINUOUS
 10
1040.596
 20
582.2054
 30
0.0
 11
1048.596
 21
575.7535
 31
0.0
  0
LINE
  5
3DE
  8
5
  6
CONTINUOUS
 10
1259.096
 20
535.2067
 30
0.0
 11
1406.293
 21
535.2066
 31
0.0
  0
LINE
  5
3DF
  8
5
  6
CONTINUOUS
 10
983.9798
 20
615.6052
 30
0.0
 11
980.8457
 21
591.8154
 31
0.0
  0
LINE
  5
3E0
  8
5
  6
CONTINUOUS
 10
1404.109
 20
552.6067
 30
0.0
 11
1259.096
 21
552.6067
 31
0.0
  0
LINE
  5
3E1
  8
5
  6
CONTINUOUS
 10
983.9798
 20
615.6052
 30
0.0
 11
1001.096
 21
624.0775
 31
0.0
  0
LINE
  5
3E2
  8
5
  6
CONTINUOUS
 10
1001.096
 20
624.0775
 30
0.0
 11
1060.096
 21
624.0775
 31
0.0
  0
LINE
  5
3E3
  8
5
  6
CONTINUOUS
 10
1060.096
 20
624.0775
 30
0.0
 11
1077.212
 21
615.6052
 31
0.0
  0
LINE
  5
3E4
  8
5
  6
CONTINUOUS
 10
1279.096
 20
517.9068
 30
0.0
 11
1259.096
 21
534.201
 31
0.0
  0
LINE
  5
3E5
  8
5
  6
CONTINUOUS
 10
1077.212
 20
615.6052
 30
0.0
 11
1080.346
 21
591.8154
 31
0.0
  0
LINE
  5
3E6
  8
5
  6
CONTINUOUS
 10
983.9798
 20
593.5276
 30
0.0
 11
983.9798
 21
615.6052
 31
0.0
  0
LINE
  5
3E7
  8
5
  6
CONTINUOUS
 10
979.4231
 20
563.0467
 30
0.0
 11
980.8457
 21
591.8154
 31
0.0
  0
LINE
  5
3E8
  8
5
  6
CONTINUOUS
 10
1259.096
 20
272.0124
 30
0.0
 11
1278.973
 21
288.2067
 31
0.0
  0
LINE
  5
3E9
  8
5
  6
CONTINUOUS
 10
1259.096
 20
270.8067
 30
0.0
 11
1406.312
 21
270.8067
 31
0.0
  0
LINE
  5
3EA
  8
5
  6
CONTINUOUS
 10
1080.346
 20
591.8154
 30
0.0
 11
1081.768
 21
563.0467
 31
0.0
  0
LINE
  5
3EB
  8
5
  6
CONTINUOUS
 10
1077.212
 20
615.6052
 30
0.0
 11
1077.212
 21
593.5276
 31
0.0
  0
LINE
  5
3EC
  8
5
  6
CONTINUOUS
 10
1060.096
 20
606.3998
 30
0.0
 11
1060.096
 21
624.0775
 31
0.0
  0
LINE
  5
3ED
  8
5
  6
CONTINUOUS
 10
1001.096
 20
624.0775
 30
0.0
 11
1001.096
 21
606.3998
 31
0.0
  0
LINE
  5
3EE
  8
5
  6
CONTINUOUS
 10
1406.315
 20
535.382
 30
0.0
 11
1406.293
 21
535.2066
 31
0.0
  0
LINE
  5
3EF
  8
5
  6
CONTINUOUS
 10
1404.096
 20
517.9068
 30
0.0
 11
1279.096
 21
517.9068
 31
0.0
  0
LINE
  5
3F0
  8
5
  6
CONTINUOUS
 10
1406.293
 20
535.2066
 30
0.0
 11
1404.096
 21
517.9068
 31
0.0
  0
LINE
  5
3F1
  8
5
  6
CONTINUOUS
 10
1404.109
 20
288.2067
 30
0.0
 11
1278.973
 21
288.2067
 31
0.0
  0
LINE
  5
3F2
  8
5
  6
CONTINUOUS
 10
1404.109
 20
288.2067
 30
0.0
 11
1406.315
 21
270.8313
 31
0.0
  0
LINE
  5
3F3
  8
5
  6
CONTINUOUS
 10
1404.096
 20
288.3067
 30
0.0
 11
1404.109
 21
288.2067
 31
0.0
  0
LINE
  5
3F4
  8
5
  6
CONTINUOUS
 10
1279.096
 20
288.3067
 30
0.0
 11
1404.096
 21
288.3067
 31
0.0
  0
LINE
  5
3F5
  8
5
  6
CONTINUOUS
 10
1278.973
 20
288.2067
 30
0.0
 11
1279.096
 21
288.3067
 31
0.0
  0
LINE
  5
3F6
  8
5
  6
CONTINUOUS
 10
1406.293
 20
535.2066
 30
0.0
 11
1406.338
 21
535.2067
 31
0.0
  0
LINE
  5
3F7
  8
5
  6
CONTINUOUS
 10
1408.541
 20
288.2067
 30
0.0
 11
1404.109
 21
288.2067
 31
0.0
  0
LINE
  5
3F8
  8
5
  6
CONTINUOUS
 10
1404.096
 20
517.7066
 30
0.0
 11
1408.579
 21
517.7067
 31
0.0
  0
LINE
  5
3F9
  8
5
  6
CONTINUOUS
 10
1404.096
 20
517.7066
 30
0.0
 11
1404.096
 21
517.9068
 31
0.0
  0
LINE
  5
3FA
  8
5
  6
CONTINUOUS
 10
1408.7
 20
323.6066
 30
0.0
 11
1404.096
 21
323.6066
 31
0.0
  0
LINE
  5
3FB
  8
5
  6
CONTINUOUS
 10
1404.096
 20
306.6067
 30
0.0
 11
1404.096
 21
323.6066
 31
0.0
  0
LINE
  5
3FC
  8
5
  6
CONTINUOUS
 10
1404.096
 20
306.6067
 30
0.0
 11
1409.656
 21
306.6067
 31
0.0
  0
LINE
  5
3FD
  8
5
  6
CONTINUOUS
 10
1407.512
 20
353.6066
 30
0.0
 11
1404.096
 21
353.6066
 31
0.0
  0
LINE
  5
3FE
  8
5
  6
CONTINUOUS
 10
1404.096
 20
338.6067
 30
0.0
 11
1404.096
 21
353.6066
 31
0.0
  0
LINE
  5
3FF
  8
5
  6
CONTINUOUS
 10
1404.096
 20
338.6067
 30
0.0
 11
1408.03
 21
338.6067
 31
0.0
  0
LINE
  5
400
  8
5
  6
CONTINUOUS
 10
1406.875
 20
385.7066
 30
0.0
 11
1404.096
 21
385.7066
 31
0.0
  0
LINE
  5
401
  8
5
  6
CONTINUOUS
 10
1404.096
 20
368.5067
 30
0.0
 11
1404.096
 21
385.7066
 31
0.0
  0
LINE
  5
402
  8
5
  6
CONTINUOUS
 10
1404.096
 20
368.5067
 30
0.0
 11
1407.138
 21
368.5067
 31
0.0
  0
LINE
  5
403
  8
5
  6
CONTINUOUS
 10
1406.873
 20
420.3067
 30
0.0
 11
1404.096
 21
420.3067
 31
0.0
  0
LINE
  5
404
  8
5
  6
CONTINUOUS
 10
1404.096
 20
403.0066
 30
0.0
 11
1404.096
 21
420.3067
 31
0.0
  0
LINE
  5
405
  8
5
  6
CONTINUOUS
 10
1404.096
 20
403.0066
 30
0.0
 11
1406.786
 21
403.0066
 31
0.0
  0
LINE
  5
406
  8
5
  6
CONTINUOUS
 10
1407.506
 20
452.4067
 30
0.0
 11
1404.096
 21
452.4067
 31
0.0
  0
LINE
  5
407
  8
5
  6
CONTINUOUS
 10
1404.096
 20
437.5066
 30
0.0
 11
1404.096
 21
452.4067
 31
0.0
  0
LINE
  5
408
  8
5
  6
CONTINUOUS
 10
1404.096
 20
437.5066
 30
0.0
 11
1407.134
 21
437.5066
 31
0.0
  0
LINE
  5
409
  8
5
  6
CONTINUOUS
 10
1408.69
 20
482.4067
 30
0.0
 11
1404.096
 21
482.4067
 31
0.0
  0
LINE
  5
40A
  8
5
  6
CONTINUOUS
 10
1404.096
 20
467.4066
 30
0.0
 11
1404.096
 21
482.4067
 31
0.0
  0
LINE
  5
40B
  8
5
  6
CONTINUOUS
 10
1404.096
 20
467.4066
 30
0.0
 11
1408.022
 21
467.4066
 31
0.0
  0
LINE
  5
40C
  8
5
  6
CONTINUOUS
 10
1404.096
 20
499.4066
 30
0.0
 11
1404.096
 21
517.7066
 31
0.0
  0
LINE
  5
40D
  8
5
  6
CONTINUOUS
 10
1404.096
 20
499.4066
 30
0.0
 11
1409.644
 21
499.4066
 31
0.0
  0
LINE
  5
40E
  8
5
  6
CONTINUOUS
 10
1404.096
 20
288.3067
 30
0.0
 11
1404.096
 21
306.6067
 31
0.0
  0
LINE
  5
40F
  8
5
  6
CONTINUOUS
 10
1404.096
 20
323.6066
 30
0.0
 11
1404.096
 21
338.6067
 31
0.0
  0
LINE
  5
410
  8
5
  6
CONTINUOUS
 10
1259.096
 20
306.6067
 30
0.0
 11
1279.096
 21
306.6067
 31
0.0
  0
LINE
  5
411
  8
5
  6
CONTINUOUS
 10
1404.096
 20
353.6066
 30
0.0
 11
1404.096
 21
368.5067
 31
0.0
  0
LINE
  5
412
  8
5
  6
CONTINUOUS
 10
1279.096
 20
323.6066
 30
0.0
 11
1259.096
 21
323.6067
 31
0.0
  0
LINE
  5
413
  8
5
  6
CONTINUOUS
 10
1404.096
 20
385.7066
 30
0.0
 11
1404.096
 21
403.0066
 31
0.0
  0
LINE
  5
414
  8
5
  6
CONTINUOUS
 10
1404.096
 20
420.3067
 30
0.0
 11
1404.096
 21
437.5066
 31
0.0
  0
LINE
  5
415
  8
5
  6
CONTINUOUS
 10
1259.096
 20
338.6067
 30
0.0
 11
1279.096
 21
338.6067
 31
0.0
  0
LINE
  5
416
  8
5
  6
CONTINUOUS
 10
1404.096
 20
452.4067
 30
0.0
 11
1404.096
 21
467.4066
 31
0.0
  0
LINE
  5
417
  8
5
  6
CONTINUOUS
 10
1279.096
 20
353.6066
 30
0.0
 11
1259.096
 21
353.6067
 31
0.0
  0
LINE
  5
418
  8
5
  6
CONTINUOUS
 10
1404.096
 20
482.4067
 30
0.0
 11
1404.096
 21
499.4066
 31
0.0
  0
LINE
  5
419
  8
5
  6
CONTINUOUS
 10
1279.096
 20
323.6066
 30
0.0
 11
1279.096
 21
306.6067
 31
0.0
  0
LINE
  5
41A
  8
5
  6
CONTINUOUS
 10
1259.096
 20
368.5067
 30
0.0
 11
1279.096
 21
368.5067
 31
0.0
  0
LINE
  5
41B
  8
5
  6
CONTINUOUS
 10
1279.096
 20
353.6066
 30
0.0
 11
1279.096
 21
338.6067
 31
0.0
  0
LINE
  5
41C
  8
5
  6
CONTINUOUS
 10
1279.096
 20
385.7066
 30
0.0
 11
1259.096
 21
385.7067
 31
0.0
  0
LINE
  5
41D
  8
5
  6
CONTINUOUS
 10
1279.096
 20
385.7066
 30
0.0
 11
1279.096
 21
368.5067
 31
0.0
  0
LINE
  5
41E
  8
5
  6
CONTINUOUS
 10
1279.096
 20
452.4067
 30
0.0
 11
1259.096
 21
452.4067
 31
0.0
  0
LINE
  5
41F
  8
5
  6
CONTINUOUS
 10
1279.096
 20
452.4067
 30
0.0
 11
1279.096
 21
437.5066
 31
0.0
  0
LINE
  5
420
  8
5
  6
CONTINUOUS
 10
1279.096
 20
482.4067
 30
0.0
 11
1279.096
 21
467.4066
 31
0.0
  0
LINE
  5
421
  8
5
  6
CONTINUOUS
 10
1259.096
 20
437.5067
 30
0.0
 11
1279.096
 21
437.5066
 31
0.0
  0
LINE
  5
422
  8
5
  6
CONTINUOUS
 10
1279.096
 20
517.7066
 30
0.0
 11
1279.096
 21
499.4066
 31
0.0
  0
LINE
  5
423
  8
5
  6
CONTINUOUS
 10
1279.096
 20
482.4067
 30
0.0
 11
1259.096
 21
482.4067
 31
0.0
  0
LINE
  5
424
  8
5
  6
CONTINUOUS
 10
1279.096
 20
306.6067
 30
0.0
 11
1279.096
 21
288.3067
 31
0.0
  0
LINE
  5
425
  8
5
  6
CONTINUOUS
 10
1279.096
 20
338.6067
 30
0.0
 11
1279.096
 21
323.6066
 31
0.0
  0
LINE
  5
426
  8
5
  6
CONTINUOUS
 10
1259.096
 20
467.4067
 30
0.0
 11
1279.096
 21
467.4066
 31
0.0
  0
LINE
  5
427
  8
5
  6
CONTINUOUS
 10
1279.096
 20
368.5067
 30
0.0
 11
1279.096
 21
353.6066
 31
0.0
  0
LINE
  5
428
  8
5
  6
CONTINUOUS
 10
1279.096
 20
517.7066
 30
0.0
 11
1259.096
 21
517.7067
 31
0.0
  0
LINE
  5
429
  8
5
  6
CONTINUOUS
 10
1279.096
 20
403.0066
 30
0.0
 11
1279.096
 21
385.7066
 31
0.0
  0
LINE
  5
42A
  8
5
  6
CONTINUOUS
 10
1279.096
 20
437.5066
 30
0.0
 11
1279.096
 21
420.3067
 31
0.0
  0
LINE
  5
42B
  8
5
  6
CONTINUOUS
 10
1259.096
 20
499.4067
 30
0.0
 11
1279.096
 21
499.4066
 31
0.0
  0
LINE
  5
42C
  8
5
  6
CONTINUOUS
 10
1279.096
 20
467.4066
 30
0.0
 11
1279.096
 21
452.4067
 31
0.0
  0
LINE
  5
42D
  8
5
  6
CONTINUOUS
 10
1279.096
 20
499.4066
 30
0.0
 11
1279.096
 21
482.4067
 31
0.0
  0
LINE
  5
42E
  8
5
  6
CONTINUOUS
 10
1279.096
 20
517.9068
 30
0.0
 11
1279.096
 21
517.7066
 31
0.0
  0
LINE
  5
42F
  8
5
  6
CONTINUOUS
 10
1278.973
 20
288.2067
 30
0.0
 11
1259.096
 21
288.2067
 31
0.0
  0
LINE
  5
430
  8
5
  6
CONTINUOUS
 10
1279.096
 20
420.3067
 30
0.0
 11
1279.096
 21
403.0066
 31
0.0
  0
LINE
  5
431
  8
5
  6
CONTINUOUS
 10
1404.096
 20
517.7066
 30
0.0
 11
1279.096
 21
517.7066
 31
0.0
  0
LINE
  5
432
  8
5
  6
CONTINUOUS
 10
1279.096
 20
499.4066
 30
0.0
 11
1404.096
 21
499.4066
 31
0.0
  0
LINE
  5
433
  8
5
  6
CONTINUOUS
 10
1279.096
 20
467.4066
 30
0.0
 11
1404.096
 21
467.4066
 31
0.0
  0
LINE
  5
434
  8
5
  6
CONTINUOUS
 10
1404.096
 20
482.4067
 30
0.0
 11
1279.096
 21
482.4067
 31
0.0
  0
LINE
  5
435
  8
5
  6
CONTINUOUS
 10
1279.096
 20
437.5066
 30
0.0
 11
1404.096
 21
437.5066
 31
0.0
  0
LINE
  5
436
  8
5
  6
CONTINUOUS
 10
1404.096
 20
452.4067
 30
0.0
 11
1279.096
 21
452.4067
 31
0.0
  0
LINE
  5
437
  8
5
  6
CONTINUOUS
 10
1279.096
 20
403.0066
 30
0.0
 11
1259.096
 21
403.0067
 31
0.0
  0
LINE
  5
438
  8
5
  6
CONTINUOUS
 10
1279.096
 20
403.0066
 30
0.0
 11
1404.096
 21
403.0066
 31
0.0
  0
LINE
  5
439
  8
5
  6
CONTINUOUS
 10
1404.096
 20
420.3067
 30
0.0
 11
1279.096
 21
420.3067
 31
0.0
  0
LINE
  5
43A
  8
5
  6
CONTINUOUS
 10
1259.096
 20
420.3067
 30
0.0
 11
1279.096
 21
420.3067
 31
0.0
  0
LINE
  5
43B
  8
5
  6
CONTINUOUS
 10
1404.096
 20
385.7066
 30
0.0
 11
1279.096
 21
385.7066
 31
0.0
  0
LINE
  5
43C
  8
5
  6
CONTINUOUS
 10
1279.096
 20
368.5067
 30
0.0
 11
1404.096
 21
368.5067
 31
0.0
  0
LINE
  5
43D
  8
5
  6
CONTINUOUS
 10
1404.096
 20
353.6066
 30
0.0
 11
1279.096
 21
353.6066
 31
0.0
  0
LINE
  5
43E
  8
5
  6
CONTINUOUS
 10
1279.096
 20
338.6067
 30
0.0
 11
1404.096
 21
338.6067
 31
0.0
  0
LINE
  5
43F
  8
5
  6
CONTINUOUS
 10
1404.096
 20
323.6066
 30
0.0
 11
1279.096
 21
323.6066
 31
0.0
  0
LINE
  5
440
  8
5
  6
CONTINUOUS
 10
1279.096
 20
306.6067
 30
0.0
 11
1404.096
 21
306.6067
 31
0.0
  0
LINE
  5
441
  8
5
  6
CONTINUOUS
 10
965.8797
 20
625.8072
 30
0.0
 11
1406.312
 21
625.8072
 31
0.0
  0
LINE
  5
442
  8
5
  6
CONTINUOUS
 10
968.0958
 20
608.6066
 30
0.0
 11
965.8733
 21
625.7572
 31
0.0
  0
LINE
  5
443
  8
5
  6
CONTINUOUS
 10
1404.096
 20
608.6066
 30
0.0
 11
1078.134
 21
608.6067
 31
0.0
  0
LINE
  5
444
  8
5
  6
CONTINUOUS
 10
983.0577
 20
608.6067
 30
0.0
 11
968.0958
 21
608.6066
 31
0.0
  0
LINE
  5
445
  8
5
  6
CONTINUOUS
 10
1406.318
 20
625.7572
 30
0.0
 11
1404.096
 21
608.6066
 31
0.0
  0
LINE
  5
446
  8
5
  6
CONTINUOUS
 10
1406.312
 20
180.4061
 30
0.0
 11
965.8797
 21
180.4061
 31
0.0
  0
LINE
  5
447
  8
5
  6
CONTINUOUS
 10
1404.096
 20
197.6067
 30
0.0
 11
1406.318
 21
180.4561
 31
0.0
  0
LINE
  5
448
  8
5
  6
CONTINUOUS
 10
968.0958
 20
197.6067
 30
0.0
 11
1289.058
 21
197.6067
 31
0.0
  0
LINE
  5
449
  8
5
  6
CONTINUOUS
 10
1384.134
 20
197.6067
 30
0.0
 11
1404.096
 21
197.6067
 31
0.0
  0
LINE
  5
44A
  8
5
  6
CONTINUOUS
 10
965.8733
 20
180.4561
 30
0.0
 11
968.0958
 21
197.6067
 31
0.0
  0
LINE
  5
44B
  8
5
  6
CONTINUOUS
 10
1286.846
 20
214.3979
 30
0.0
 11
1285.423
 21
243.1665
 31
0.0
  0
LINE
  5
44C
  8
5
  6
CONTINUOUS
 10
1404.096
 20
197.6067
 30
0.0
 11
1404.096
 21
243.1665
 31
0.0
  0
LINE
  5
44D
  8
5
  6
CONTINUOUS
 10
1404.096
 20
243.1665
 30
0.0
 11
1387.768
 21
243.1665
 31
0.0
  0
LINE
  5
44E
  8
5
  6
CONTINUOUS
 10
1387.768
 20
243.1665
 30
0.0
 11
1386.346
 21
214.3979
 31
0.0
  0
LINE
  5
44F
  8
5
  6
CONTINUOUS
 10
1354.596
 20
243.1665
 30
0.0
 11
1318.596
 21
243.1665
 31
0.0
  0
LINE
  5
450
  8
5
  6
CONTINUOUS
 10
1081.768
 20
563.0467
 30
0.0
 11
1404.096
 21
563.0467
 31
0.0
  0
LINE
  5
451
  8
5
  6
CONTINUOUS
 10
1404.096
 20
563.0467
 30
0.0
 11
1404.096
 21
608.6066
 31
0.0
  0
LINE
  5
452
  8
5
  6
CONTINUOUS
 10
968.0958
 20
608.6066
 30
0.0
 11
968.0958
 21
563.0467
 31
0.0
  0
LINE
  5
453
  8
5
  6
CONTINUOUS
 10
968.0958
 20
563.0467
 30
0.0
 11
979.4231
 21
563.0467
 31
0.0
  0
LINE
  5
454
  8
5
  6
CONTINUOUS
 10
1012.596
 20
563.0467
 30
0.0
 11
1048.596
 21
563.0467
 31
0.0
  0
LINE
  5
455
  8
5
  6
CONTINUOUS
 10
1406.325
 20
228.5095
 30
0.0
 11
1406.325
 21
180.5067
 31
0.0
  0
LINE
  5
456
  8
5
  6
CONTINUOUS
 10
1408.567
 20
198.0068
 30
0.0
 11
1408.567
 21
216.5459
 31
0.0
  0
LINE
  5
457
  8
5
  6
CONTINUOUS
 10
1408.567
 20
589.6674
 30
0.0
 11
1408.567
 21
608.2067
 31
0.0
  0
LINE
  5
458
  8
5
  6
CONTINUOUS
 10
1406.325
 20
625.7067
 30
0.0
 11
1406.325
 21
577.7038
 31
0.0
  0
LINE
  5
459
  8
5
  6
CONTINUOUS
 10
965.8668
 20
577.7038
 30
0.0
 11
965.8668
 21
625.7067
 31
0.0
  0
LINE
  5
45A
  8
5
  6
CONTINUOUS
 10
963.625
 20
608.2067
 30
0.0
 11
963.625
 21
589.6674
 31
0.0
  0
LINE
  5
45B
  8
5
  6
CONTINUOUS
 10
1307.096
 20
182.1358
 30
0.0
 11
1289.98
 21
190.608
 31
0.0
  0
LINE
  5
45C
  8
5
  6
CONTINUOUS
 10
1307.096
 20
199.8135
 30
0.0
 11
1307.096
 21
182.1358
 31
0.0
  0
LINE
  5
45D
  8
5
  6
CONTINUOUS
 10
1289.98
 20
212.6858
 30
0.0
 11
1307.096
 21
199.8135
 31
0.0
  0
LINE
  5
45E
  8
5
  6
CONTINUOUS
 10
1285.423
 20
243.1665
 30
0.0
 11
1259.096
 21
243.1666
 31
0.0
  0
LINE
  5
45F
  8
5
  6
CONTINUOUS
 10
1289.98
 20
190.608
 30
0.0
 11
1289.98
 21
212.6858
 31
0.0
  0
LINE
  5
460
  8
5
  6
CONTINUOUS
 10
1366.096
 20
199.8135
 30
0.0
 11
1383.212
 21
212.6858
 31
0.0
  0
LINE
  5
461
  8
5
  6
CONTINUOUS
 10
968.0958
 20
240.6066
 30
0.0
 11
968.0958
 21
197.6067
 31
0.0
  0
LINE
  5
462
  8
5
  6
CONTINUOUS
 10
1366.096
 20
182.1358
 30
0.0
 11
1366.096
 21
199.8135
 31
0.0
  0
LINE
  5
463
  8
5
  6
CONTINUOUS
 10
1383.212
 20
190.608
 30
0.0
 11
1366.096
 21
182.1358
 31
0.0
  0
LINE
  5
464
  8
5
  6
CONTINUOUS
 10
1383.212
 20
212.6858
 30
0.0
 11
1383.212
 21
190.608
 31
0.0
  0
LINE
  5
465
  8
5
  6
CONTINUOUS
 10
1326.596
 20
224.008
 30
0.0
 11
1318.596
 21
230.46
 31
0.0
  0
LINE
  5
466
  8
5
  6
CONTINUOUS
 10
1354.596
 20
230.46
 30
0.0
 11
1346.596
 21
224.008
 31
0.0
  0
LINE
  5
467
  8
5
  6
CONTINUOUS
 10
1346.596
 20
224.008
 30
0.0
 11
1326.596
 21
224.008
 31
0.0
  0
LINE
  5
468
  8
5
  6
CONTINUOUS
 10
1366.096
 20
182.1358
 30
0.0
 11
1307.096
 21
182.1358
 31
0.0
  0
LINE
  5
469
  8
5
  6
CONTINUOUS
 10
1307.096
 20
199.8135
 30
0.0
 11
1366.096
 21
199.8135
 31
0.0
  0
LINE
  5
46A
  8
5
  6
CONTINUOUS
 10
1289.98
 20
190.608
 30
0.0
 11
1286.846
 21
214.3979
 31
0.0
  0
LINE
  5
46B
  8
5
  6
CONTINUOUS
 10
1286.44
 20
253.5067
 30
0.0
 11
1289.98
 21
212.6858
 31
0.0
  0
LINE
  5
46C
  8
5
  6
CONTINUOUS
 10
1386.751
 20
253.5067
 30
0.0
 11
1383.212
 21
212.6858
 31
0.0
  0
LINE
  5
46D
  8
5
  6
CONTINUOUS
 10
1383.212
 20
190.608
 30
0.0
 11
1386.346
 21
214.3979
 31
0.0
  0
LINE
  5
46E
  8
5
  6
CONTINUOUS
 10
1354.596
 20
253.5067
 30
0.0
 11
1354.596
 21
230.46
 31
0.0
  0
LINE
  5
46F
  8
5
  6
CONTINUOUS
 10
1318.596
 20
230.46
 30
0.0
 11
1318.596
 21
253.5067
 31
0.0
  0
LINE
  5
470
  8
5
  6
CONTINUOUS
 10
1604.596
 20
543.1067
 30
0.0
 11
1540.596
 21
626.6066
 31
0.0
  0
LINE
  5
471
  8
5
  6
CONTINUOUS
 10
963.625
 20
216.5459
 30
0.0
 11
963.625
 21
198.0068
 31
0.0
  0
LINE
  5
472
  8
5
  6
CONTINUOUS
 10
965.8668
 20
180.5067
 30
0.0
 11
965.8668
 21
228.5095
 31
0.0
  0
LINE
  5
473
  8
5
  6
CONTINUOUS
 10
1604.596
 20
543.1067
 30
0.0
 11
1604.596
 21
263.1067
 31
0.0
  0
LINE
  5
474
  8
5
  6
CONTINUOUS
 10
1540.596
 20
179.6066
 30
0.0
 11
1604.596
 21
263.1067
 31
0.0
  0
LINE
  5
475
  8
5
  6
CONTINUOUS
 10
1613.596
 20
543.1067
 30
0.0
 11
1604.596
 21
543.1067
 31
0.0
  0
LINE
  5
476
  8
5
  6
CONTINUOUS
 10
1604.596
 20
263.1067
 30
0.0
 11
1613.596
 21
263.1067
 31
0.0
  0
LINE
  5
477
  8
5
  6
CONTINUOUS
 10
1472.096
 20
525.4027
 30
0.0
 11
1411.596
 21
525.4027
 31
0.0
  0
LINE
  5
478
  8
5
  6
CONTINUOUS
 10
1472.096
 20
280.8106
 30
0.0
 11
1411.596
 21
280.8106
 31
0.0
  0
LINE
  5
479
  8
5
  6
CONTINUOUS
 10
1472.096
 20
282.0534
 30
0.0
 11
1540.596
 21
282.0533
 31
0.0
  0
LINE
  5
47A
  8
5
  6
CONTINUOUS
 10
1472.096
 20
524.1601
 30
0.0
 11
1540.596
 21
524.1601
 31
0.0
  0
LINE
  5
47B
  8
5
  6
CONTINUOUS
 10
1880.763
 20
1411.166
 30
0.0
 11
1885.906
 21
1402.607
 31
0.0
  0
LINE
  5
47C
  8
5
  6
CONTINUOUS
 10
965.4056
 20
622.1067
 30
0.0
 11
954.0958
 21
622.1067
 31
0.0
  0
LINE
  5
481
  8
5
  6
CONTINUOUS
 10
2305.761
 20
1411.166
 30
0.0
 11
2300.618
 21
1402.607
 31
0.0
  0
LINE
  5
482
  8
5
  6
CONTINUOUS
 10
1889.969
 20
1442.944
 30
0.0
 11
1902.841
 21
1433.244
 31
0.0
  0
LINE
  5
483
  8
5
  6
CONTINUOUS
 10
1880.763
 20
1411.166
 30
0.0
 11
1872.291
 21
1425.266
 31
0.0
  0
LINE
  5
484
  8
5
  6
CONTINUOUS
 10
1872.291
 20
1425.266
 30
0.0
 11
1889.969
 21
1442.944
 31
0.0
  0
LINE
  5
485
  8
5
  6
CONTINUOUS
 10
2296.555
 20
1442.944
 30
0.0
 11
2314.233
 21
1425.266
 31
0.0
  0
LINE
  5
486
  8
5
  6
CONTINUOUS
 10
2314.233
 20
1425.266
 30
0.0
 11
2305.761
 21
1411.166
 31
0.0
  0
LINE
  5
487
  8
5
  6
CONTINUOUS
 10
2283.683
 20
1433.244
 30
0.0
 11
2296.555
 21
1442.944
 31
0.0
  0
LINE
  5
488
  8
5
  6
CONTINUOUS
 10
1902.841
 20
1433.244
 30
0.0
 11
1880.763
 21
1411.166
 31
0.0
  0
LINE
  5
489
  8
5
  6
CONTINUOUS
 10
2305.761
 20
1411.166
 30
0.0
 11
2283.683
 21
1433.244
 31
0.0
  0
LINE
  5
48A
  8
5
  6
CONTINUOUS
 10
2213.402
 20
1470.973
 30
0.0
 11
2213.46
 21
1469.314
 31
0.0
  0
LINE
  5
4A2
  8
7
  6
DASHED
 10
896.5958
 20
1462.193
 30
0.0
 11
878.5958
 21
1462.193
 31
0.0
  0
LINE
  5
4A3
  8
7
  6
DASHED
 10
896.5958
 20
1443.682
 30
0.0
 11
878.5958
 21
1443.693
 31
0.0
  0
LINE
  5
4A4
  8
7
  6
DASHED
 10
896.5958
 20
1000.254
 30
0.0
 11
878.5958
 21
1000.254
 31
0.0
  0
LINE
  5
4A5
  8
7
  6
DASHED
 10
896.5958
 20
981.7534
 30
0.0
 11
878.5958
 21
981.7534
 31
0.0
  0
LINE
  5
4A6
  8
7
  6
DASHED
 10
896.5958
 20
643.3264
 30
0.0
 11
878.5958
 21
643.3264
 31
0.0
  0
LINE
  5
4A7
  8
7
  6
DASHED
 10
896.5958
 20
624.8266
 30
0.0
 11
878.5958
 21
624.8266
 31
0.0
  0
LINE
  5
4A8
  8
7
  6
DASHED
 10
896.5958
 20
489.5276
 30
0.0
 11
878.5958
 21
489.5276
 31
0.0
  0
LINE
  5
4A9
  8
7
  6
DASHED
 10
896.5958
 20
508.0275
 30
0.0
 11
878.5958
 21
508.0275
 31
0.0
  0
LINE
  5
4AA
  8
7
  6
DASHED
 10
896.5958
 20
316.6859
 30
0.0
 11
878.5958
 21
316.6859
 31
0.0
  0
LINE
  5
4AB
  8
7
  6
DASHED
 10
896.5958
 20
298.1857
 30
0.0
 11
878.5958
 21
298.1857
 31
0.0
  0
LINE
  5
4AC
  8
7
  6
DASHED
 10
896.5958
 20
181.3867
 30
0.0
 11
878.5958
 21
181.3867
 31
0.0
  0
LINE
  5
4AD
  8
7
  6
DASHED
 10
896.5958
 20
162.8868
 30
0.0
 11
878.5958
 21
162.8868
 31
0.0
  0
LINE
  5
4AE
  8
7
  6
DASHED
 10
896.5958
 20
1117.052
 30
0.0
 11
878.5958
 21
1117.052
 31
0.0
  0
LINE
  5
4AF
  8
7
  6
DASHED
 10
896.5958
 20
1135.552
 30
0.0
 11
878.5958
 21
1135.552
 31
0.0
  0
LINE
  5
4B0
  8
7
  6
DASHED
 10
896.5958
 20
1326.894
 30
0.0
 11
878.5958
 21
1326.894
 31
0.0
  0
LINE
  5
4B1
  8
7
  6
DASHED
 10
896.5958
 20
1308.394
 30
0.0
 11
878.5958
 21
1308.394
 31
0.0
  0
LINE
  5
4B2
  8
6
  6
CENTER
 10
904.0958
 20
1126.302
 30
0.0
 11
866.0958
 21
1126.302
 31
0.0
  0
LINE
  5
4B3
  8
6
  6
CENTER
 10
904.0958
 20
991.0035
 30
0.0
 11
866.0958
 21
991.0035
 31
0.0
  0
LINE
  5
4B4
  8
6
  6
CENTER
 10
904.0958
 20
1317.644
 30
0.0
 11
866.0958
 21
1317.644
 31
0.0
  0
LINE
  5
4B5
  8
6
  6
CENTER
 10
904.0958
 20
1452.927
 30
0.0
 11
866.0958
 21
1452.951
 31
0.0
  0
LINE
  5
4B6
  8
6
  6
CENTER
 10
904.0958
 20
172.1368
 30
0.0
 11
866.0958
 21
172.1368
 31
0.0
  0
LINE
  5
4B7
  8
6
  6
CENTER
 10
904.0958
 20
307.4357
 30
0.0
 11
866.0958
 21
307.4357
 31
0.0
  0
LINE
  5
4B8
  8
6
  6
CENTER
 10
904.0958
 20
498.7776
 30
0.0
 11
866.0958
 21
498.7776
 31
0.0
  0
LINE
  5
4B9
  8
6
  6
CENTER
 10
904.0958
 20
634.0766
 30
0.0
 11
866.0958
 21
634.0766
 31
0.0
  0
ARC
  5
4BA
  8
6
  6
CENTER
 10
2093.262
 20
1221.973
 30
0.0
 40
250.0
 50
18.08247
 51
26.72072
  0
LINE
  5
4BB
  8
6
  6
CENTER
 10
2308.526
 20
1311.138
 30
0.0
 11
2337.397
 21
1323.097
 31
0.0
  0
ARC
  5
4BC
  8
6
  6
CENTER
 10
2093.262
 20
1221.973
 30
0.0
 40
250.0
 50
332.1428
 51
342.1568
  0
LINE
  5
4BD
  8
6
  6
CENTER
 10
2308.526
 20
1132.808
 30
0.0
 11
2337.397
 21
1120.849
 31
0.0
  0
ARC
  5
4BE
  8
6
  6
CENTER
 10
2093.262
 20
1221.973
 30
0.0
 40
250.0
 50
287.8131
 51
296.6789
  0
LINE
  5
4BF
  8
6
  6
CENTER
 10
2182.427
 20
1006.709
 30
0.0
 11
2194.386
 21
977.8381
 31
0.0
  0
ARC
  5
4C0
  8
6
  6
CENTER
 10
2093.262
 20
1221.973
 30
0.0
 40
250.0
 50
241.9338
 51
252.2748
  0
LINE
  5
4C1
  8
6
  6
CENTER
 10
2004.097
 20
1006.709
 30
0.0
 11
1992.138
 21
977.8381
 31
0.0
  0
ARC
  5
4C2
  8
6
  6
CENTER
 10
2093.262
 20
1221.973
 30
0.0
 40
250.0
 50
197.0444
 51
207.5812
  0
LINE
  5
4C3
  8
6
  6
CENTER
 10
1877.998
 20
1132.808
 30
0.0
 11
1849.127
 21
1120.849
 31
0.0
  0
ARC
  5
4C4
  8
6
  6
CENTER
 10
2093.262
 20
1221.973
 30
0.0
 40
250.0
 50
153.0924
 51
162.2464
  0
LINE
  5
4C5
  8
6
  6
CENTER
 10
1877.998
 20
1311.138
 30
0.0
 11
1849.127
 21
1323.097
 31
0.0
  0
ARC
  5
4C6
  8
6
  6
CENTER
 10
2093.262
 20
1221.973
 30
0.0
 40
250.0
 50
107.7805
 51
117.2171
  0
LINE
  5
4C7
  8
6
  6
CENTER
 10
2004.097
 20
1437.237
 30
0.0
 11
1992.138
 21
1466.108
 31
0.0
  0
ARC
  5
4C8
  8
6
  6
CENTER
 10
2093.262
 20
1221.973
 30
0.0
 40
250.0
 50
62.77481
 51
71.76192
  0
LINE
  5
4C9
  8
6
  6
CENTER
 10
2182.427
 20
1437.237
 30
0.0
 11
2194.386
 21
1466.108
 31
0.0
  0
LINE
  5
4CA
  8
5
  6
CONTINUOUS
 10
1910.51
 20
1427.465
 30
0.0
 11
1902.841
 21
1433.244
 31
0.0
  0
LINE
  5
4CF
  8
5
  6
CONTINUOUS
 10
2276.014
 20
1427.465
 30
0.0
 11
2283.683
 21
1433.244
 31
0.0
  0
LINE
  5
4D0
  8
5
  6
CONTINUOUS
 10
1973.064
 20
1469.314
 30
0.0
 11
1973.122
 21
1470.973
 31
0.0
  0
LINE
  5
4D4
  8
6
  6
CENTER
 10
713.5958
 20
1221.973
 30
0.0
 11
1638.596
 21
1221.973
 31
0.0
  0
LINE
  5
4DB
  8
0
  6
CONTINUOUS
 10
748.5958
 20
1254.473
 30
0.0
 11
757.5957
 21
1253.202
 31
0.0
  0
LINE
  5
4DC
  8
0
  6
CONTINUOUS
 10
868.5957
 20
1254.473
 30
0.0
 11
859.5958
 21
1253.202
 31
0.0
  0
LINE
  5
4DE
  8
6
  6
CENTER
 10
989.59205
 20
403.106521
 30
0.0
 11
713.5958
 21
403.1067
 31
0.0
  0
ARC
  5
4E0
  8
5
  6
CONTINUOUS
 10
1106.769407
 20
1566.168286
 30
0.0
 40
10.43949
 50
0.001947
 51
90.00195
  0
ARC
  5
4E1
  8
5
  6
CONTINUOUS
 10
1152.414407
 20
1566.169886
 30
0.0
 40
10.43949
 50
0.001947
 51
90.00195
  0
LINE
  5
4E2
  8
5
  6
CONTINUOUS
 10
1099.866407
 20
1576.607486
 30
0.0
 11
1086.088407
 21
1576.607086
 31
0.0
  0
LINE
  5
4E3
  8
5
  6
CONTINUOUS
 10
1086.089407
 20
1551.709886
 30
0.0
 11
1099.867407
 21
1551.710286
 31
0.0
  0
LINE
  5
4E4
  8
5
  6
CONTINUOUS
 10
1099.867407
 20
1549.610286
 30
0.0
 11
1086.089407
 21
1549.609786
 31
0.0
  0
LINE
  5
4E5
  8
5
  6
CONTINUOUS
 10
1086.090407
 20
1523.543686
 30
0.0
 11
1099.868407
 21
1523.544086
 31
0.0
  0
LINE
  5
4E6
  8
5
  6
CONTINUOUS
 10
1051.068407
 20
1551.708586
 30
0.0
 11
1065.747407
 21
1551.709086
 31
0.0
  0
LINE
  5
4E7
  8
5
  6
CONTINUOUS
 10
1056.859407
 20
1576.606086
 30
0.0
 11
1051.067407
 21
1576.605986
 31
0.0
  0
LINE
  5
4E8
  8
5
  6
CONTINUOUS
 10
1066.497407
 20
1549.609186
 30
0.0
 11
1051.068407
 21
1549.608586
 31
0.0
  0
LINE
  5
4E9
  8
5
  6
CONTINUOUS
 10
1051.068407
 20
1534.299686
 30
0.0
 11
1062.462407
 21
1534.300086
 31
0.0
  0
LINE
  5
4EA
  8
5
  6
CONTINUOUS
 10
1048.968407
 20
1534.299686
 30
0.0
 11
1048.968407
 21
1549.608586
 31
0.0
  0
LINE
  5
4EB
  8
5
  6
CONTINUOUS
 10
1033.913407
 20
1549.608086
 30
0.0
 11
1024.971407
 21
1523.541486
 31
0.0
  0
LINE
  5
4EC
  8
5
  6
CONTINUOUS
 10
1051.068407
 20
1549.608586
 30
0.0
 11
1051.068407
 21
1534.299686
 31
0.0
  0
LINE
  5
4ED
  8
5
  6
CONTINUOUS
 10
1024.971407
 20
1523.541486
 30
0.0
 11
1033.834407
 21
1523.541786
 31
0.0
  0
LINE
  5
4EE
  8
5
  6
CONTINUOUS
 10
1033.834407
 20
1523.541786
 30
0.0
 11
1037.524407
 21
1534.299286
 31
0.0
  0
LINE
  5
4EF
  8
5
  6
CONTINUOUS
 10
1037.524407
 20
1534.299286
 30
0.0
 11
1048.968407
 21
1534.299686
 31
0.0
  0
LINE
  5
4F0
  8
5
  6
CONTINUOUS
 10
1043.174407
 20
1576.605686
 30
0.0
 11
1034.633407
 21
1551.708086
 31
0.0
  0
LINE
  5
4F1
  8
5
  6
CONTINUOUS
 10
1034.633407
 20
1551.708086
 30
0.0
 11
1048.968407
 21
1551.708586
 31
0.0
  0
LINE
  5
4F2
  8
5
  6
CONTINUOUS
 10
1048.968407
 20
1551.708586
 30
0.0
 11
1048.967407
 21
1576.605886
 31
0.0
  0
LINE
  5
4F3
  8
5
  6
CONTINUOUS
 10
1048.967407
 20
1576.605886
 30
0.0
 11
1043.174407
 21
1576.605686
 31
0.0
  0
LINE
  5
4F4
  8
5
  6
CONTINUOUS
 10
1048.968407
 20
1549.608586
 30
0.0
 11
1033.913407
 21
1549.608086
 31
0.0
  0
LINE
  5
4F5
  8
5
  6
CONTINUOUS
 10
1051.067407
 20
1576.605986
 30
0.0
 11
1051.068407
 21
1551.708586
 31
0.0
  0
LINE
  5
4F6
  8
5
  6
CONTINUOUS
 10
1075.802407
 20
1523.543186
 30
0.0
 11
1066.497407
 21
1549.609186
 31
0.0
  0
LINE
  5
4F7
  8
5
  6
CONTINUOUS
 10
1086.089407
 20
1549.609786
 30
0.0
 11
1086.090407
 21
1523.543686
 31
0.0
  0
LINE
  5
4F8
  8
5
  6
CONTINUOUS
 10
1066.302407
 20
1523.542886
 30
0.0
 11
1075.802407
 21
1523.543186
 31
0.0
  0
LINE
  5
4F9
  8
5
  6
CONTINUOUS
 10
1062.462407
 20
1534.300086
 30
0.0
 11
1066.302407
 21
1523.542886
 31
0.0
  0
LINE
  5
4FA
  8
5
  6
CONTINUOUS
 10
1065.747407
 20
1551.709086
 30
0.0
 11
1056.859407
 21
1576.606086
 31
0.0
  0
LINE
  5
4FB
  8
5
  6
CONTINUOUS
 10
1086.088407
 20
1576.607086
 30
0.0
 11
1086.089407
 21
1551.709786
 31
0.0
  0
LINE
  5
4FC
  8
5
  6
CONTINUOUS
 10
1131.734407
 20
1551.711386
 30
0.0
 11
1145.513407
 21
1551.711886
 31
0.0
  0
LINE
  5
4FD
  8
5
  6
CONTINUOUS
 10
1145.512407
 20
1576.609086
 30
0.0
 11
1131.733407
 21
1576.608586
 31
0.0
  0
LINE
  5
4FE
  8
5
  6
CONTINUOUS
 10
1131.734407
 20
1549.611386
 30
0.0
 11
1145.513407
 21
1549.611886
 31
0.0
  0
LINE
  5
4FF
  8
5
  6
CONTINUOUS
 10
1131.735407
 20
1523.545186
 30
0.0
 11
1145.514407
 21
1523.545586
 31
0.0
  0
LINE
  5
500
  8
5
  6
CONTINUOUS
 10
1099.868407
 20
1523.544086
 30
0.0
 11
1099.867407
 21
1549.610286
 31
0.0
  0
LINE
  5
501
  8
5
  6
CONTINUOUS
 10
1101.967407
 20
1549.610286
 30
0.0
 11
1101.968407
 21
1523.544086
 31
0.0
  0
ARC
  5
502
  8
5
  6
CONTINUOUS
 10
1104.784407
 20
1537.566786
 30
0.0
 40
16.83332
 50
2.745839
 51
45.68318
  0
LINE
  5
503
  8
5
  6
CONTINUOUS
 10
1131.734407
 20
1549.611386
 30
0.0
 11
1131.735407
 21
1523.545186
 31
0.0
  0
ARC
  5
504
  8
5
  6
CONTINUOUS
 10
1106.770407
 20
1538.372686
 30
0.0
 40
14.82849
 50
270.0019
 51
0.0019
  0
LINE
  5
505
  8
5
  6
CONTINUOUS
 10
1101.968407
 20
1523.544086
 30
0.0
 11
1106.770407
 21
1523.544286
 31
0.0
  0
LINE
  5
506
  8
5
  6
CONTINUOUS
 10
1099.867407
 20
1551.710286
 30
0.0
 11
1099.866407
 21
1576.607486
 31
0.0
  0
LINE
  5
507
  8
5
  6
CONTINUOUS
 10
1116.544407
 20
1549.610886
 30
0.0
 11
1101.967407
 21
1549.610286
 31
0.0
  0
LINE
  5
508
  8
5
  6
CONTINUOUS
 10
1101.967407
 20
1551.710286
 30
0.0
 11
1113.912407
 21
1551.710786
 31
0.0
  0
ARC
  5
509
  8
5
  6
CONTINUOUS
 10
1104.784407
 20
1537.566786
 30
0.0
 40
16.83332
 50
57.16493
 51
82.74766
  0
ARC
  5
50A
  8
5
  6
CONTINUOUS
 10
1103.738407
 20
1567.416586
 30
0.0
 40
13.5281
 50
283.5581
 51
354.7072
  0
LINE
  5
50B
  8
5
  6
CONTINUOUS
 10
1106.768407
 20
1576.607786
 30
0.0
 11
1101.966407
 21
1576.607786
 31
0.0
  0
LINE
  5
50C
  8
5
  6
CONTINUOUS
 10
1101.966407
 20
1576.607786
 30
0.0
 11
1101.967407
 21
1551.710286
 31
0.0
  0
LINE
  5
50D
  8
5
  6
CONTINUOUS
 10
1131.733407
 20
1576.608586
 30
0.0
 11
1131.734407
 21
1551.711386
 31
0.0
  0
LINE
  5
50E
  8
5
  6
CONTINUOUS
 10
1147.613407
 20
1549.611886
 30
0.0
 11
1147.614407
 21
1523.545586
 31
0.0
  0
ARC
  5
50F
  8
5
  6
CONTINUOUS
 10
1150.430407
 20
1537.568386
 30
0.0
 40
16.83332
 50
2.745839
 51
45.68349
  0
LINE
  5
510
  8
5
  6
CONTINUOUS
 10
1145.514407
 20
1523.545586
 30
0.0
 11
1145.513407
 21
1549.611886
 31
0.0
  0
ARC
  5
511
  8
5
  6
CONTINUOUS
 10
1152.415407
 20
1538.374286
 30
0.0
 40
14.82849
 50
270.0019
 51
0.0019
  0
LINE
  5
512
  8
5
  6
CONTINUOUS
 10
1147.614407
 20
1523.545586
 30
0.0
 11
1152.416407
 21
1523.545786
 31
0.0
  0
LINE
  5
513
  8
5
  6
CONTINUOUS
 10
1145.513407
 20
1551.711886
 30
0.0
 11
1145.512407
 21
1576.609086
 31
0.0
  0
LINE
  5
514
  8
5
  6
CONTINUOUS
 10
1147.613407
 20
1551.711886
 30
0.0
 11
1159.557407
 21
1551.712286
 31
0.0
  0
ARC
  5
515
  8
5
  6
CONTINUOUS
 10
1150.430407
 20
1537.568386
 30
0.0
 40
16.83332
 50
57.16491
 51
82.74766
  0
ARC
  5
516
  8
5
  6
CONTINUOUS
 10
1149.383407
 20
1567.418086
 30
0.0
 40
13.5281
 50
283.5581
 51
354.7072
  0
LINE
  5
517
  8
5
  6
CONTINUOUS
 10
1152.414407
 20
1576.609386
 30
0.0
 11
1147.612407
 21
1576.609286
 31
0.0
  0
LINE
  5
518
  8
5
  6
CONTINUOUS
 10
1147.612407
 20
1576.609286
 30
0.0
 11
1147.613407
 21
1551.711886
 31
0.0
  0
LINE
  5
519
  8
5
  6
CONTINUOUS
 10
1162.190407
 20
1549.612486
 30
0.0
 11
1147.613407
 21
1549.611886
 31
0.0
  0
ARC
  5
554
  8
5
  6
CONTINUOUS
 10
479.280583
 20
1243.060867
 30
0.0
 40
11.783324
 50
2.745839
 51
45.68349
  0
LINE
  5
555
  8
5
  6
CONTINUOUS
 10
408.257183
 20
1240.772777
 30
0.0
 11
408.257183
 21
1251.489007
 31
0.0
  0
LINE
  5
556
  8
5
  6
CONTINUOUS
 10
397.718683
 20
1251.488657
 30
0.0
 11
391.459283
 21
1233.242037
 31
0.0
  0
LINE
  5
557
  8
5
  6
CONTINUOUS
 10
409.727183
 20
1251.489007
 30
0.0
 11
409.727183
 21
1240.772777
 31
0.0
  0
LINE
  5
558
  8
5
  6
CONTINUOUS
 10
427.040983
 20
1233.243227
 30
0.0
 11
420.527483
 21
1251.489427
 31
0.0
  0
LINE
  5
559
  8
5
  6
CONTINUOUS
 10
434.241883
 20
1251.489847
 30
0.0
 11
434.242583
 21
1233.243577
 31
0.0
  0
LINE
  5
55A
  8
5
  6
CONTINUOUS
 10
443.887183
 20
1233.243857
 30
0.0
 11
443.886483
 21
1251.490197
 31
0.0
  0
LINE
  5
55B
  8
5
  6
CONTINUOUS
 10
445.356483
 20
1251.490197
 30
0.0
 11
445.357183
 21
1233.243857
 31
0.0
  0
ARC
  5
55C
  8
5
  6
CONTINUOUS
 10
447.328383
 20
1243.059747
 30
0.0
 40
11.783324
 50
2.745839
 51
45.68318
  0
LINE
  5
55D
  8
5
  6
CONTINUOUS
 10
466.193383
 20
1251.490967
 30
0.0
 11
466.194083
 21
1233.244627
 31
0.0
  0
LINE
  5
55E
  8
5
  6
CONTINUOUS
 10
477.308683
 20
1251.491317
 30
0.0
 11
477.309383
 21
1233.244907
 31
0.0
  0
LINE
  5
55F
  8
5
  6
CONTINUOUS
 10
475.839383
 20
1233.244907
 30
0.0
 11
475.838683
 21
1251.491317
 31
0.0
  0
LINE
  5
560
  8
5
  6
CONTINUOUS
 10
391.459283
 20
1233.242037
 30
0.0
 11
397.663383
 21
1233.242247
 31
0.0
  0
LINE
  5
561
  8
5
  6
CONTINUOUS
 10
397.663383
 20
1233.242247
 30
0.0
 11
400.246383
 21
1240.772497
 31
0.0
  0
LINE
  5
562
  8
5
  6
CONTINUOUS
 10
400.246383
 20
1240.772497
 30
0.0
 11
408.257183
 21
1240.772777
 31
0.0
  0
ARC
  5
563
  8
5
  6
CONTINUOUS
 10
448.718583
 20
1243.623877
 30
0.0
 40
10.379943
 50
270.0019
 51
0.0019
  0
LINE
  5
564
  8
5
  6
CONTINUOUS
 10
420.390983
 20
1233.243017
 30
0.0
 11
427.040983
 21
1233.243227
 31
0.0
  0
LINE
  5
565
  8
5
  6
CONTINUOUS
 10
409.727183
 20
1240.772777
 30
0.0
 11
417.702983
 21
1240.773057
 31
0.0
  0
LINE
  5
566
  8
5
  6
CONTINUOUS
 10
417.702983
 20
1240.773057
 30
0.0
 11
420.390983
 21
1233.243017
 31
0.0
  0
LINE
  5
567
  8
5
  6
CONTINUOUS
 10
445.357183
 20
1233.243857
 30
0.0
 11
448.718583
 21
1233.243997
 31
0.0
  0
LINE
  5
568
  8
5
  6
CONTINUOUS
 10
434.242583
 20
1233.243577
 30
0.0
 11
443.887183
 21
1233.243857
 31
0.0
  0
LINE
  5
569
  8
5
  6
CONTINUOUS
 10
477.309383
 20
1233.244907
 30
0.0
 11
480.670783
 21
1233.245047
 31
0.0
  0
LINE
  5
56A
  8
5
  6
CONTINUOUS
 10
466.194083
 20
1233.244627
 30
0.0
 11
475.839383
 21
1233.244907
 31
0.0
  0
ARC
  5
56B
  8
5
  6
CONTINUOUS
 10
480.670083
 20
1243.624997
 30
0.0
 40
10.379943
 50
270.0019
 51
0.0019
  0
LINE
  5
56C
  8
5
  6
CONTINUOUS
 10
408.256483
 20
1270.387117
 30
0.0
 11
404.201383
 21
1270.386977
 31
0.0
  0
LINE
  5
56D
  8
5
  6
CONTINUOUS
 10
398.222683
 20
1252.958657
 30
0.0
 11
408.257183
 21
1252.959007
 31
0.0
  0
LINE
  5
56E
  8
5
  6
CONTINUOUS
 10
408.257183
 20
1251.489007
 30
0.0
 11
397.718683
 21
1251.488657
 31
0.0
  0
LINE
  5
56F
  8
5
  6
CONTINUOUS
 10
404.201383
 20
1270.386977
 30
0.0
 11
398.222683
 21
1252.958657
 31
0.0
  0
LINE
  5
570
  8
5
  6
CONTINUOUS
 10
408.257183
 20
1252.959007
 30
0.0
 11
408.256483
 21
1270.387117
 31
0.0
  0
ARC
  5
571
  8
5
  6
CONTINUOUS
 10
448.717883
 20
1263.080797
 30
0.0
 40
7.307643
 50
0.001947
 51
90.00195
  0
ARC
  5
572
  8
5
  6
CONTINUOUS
 10
446.596183
 20
1263.954607
 30
0.0
 40
9.46967
 50
283.5581
 51
354.7072
  0
LINE
  5
573
  8
5
  6
CONTINUOUS
 10
413.780883
 20
1270.387257
 30
0.0
 11
409.726483
 21
1270.387187
 31
0.0
  0
LINE
  5
574
  8
5
  6
CONTINUOUS
 10
409.727183
 20
1252.959007
 30
0.0
 11
420.002483
 21
1252.959357
 31
0.0
  0
LINE
  5
575
  8
5
  6
CONTINUOUS
 10
409.726483
 20
1270.387187
 30
0.0
 11
409.727183
 21
1252.959007
 31
0.0
  0
LINE
  5
576
  8
5
  6
CONTINUOUS
 10
420.002483
 20
1252.959357
 30
0.0
 11
413.780883
 21
1270.387257
 31
0.0
  0
LINE
  5
577
  8
5
  6
CONTINUOUS
 10
420.527483
 20
1251.489427
 30
0.0
 11
409.727183
 21
1251.489007
 31
0.0
  0
LINE
  5
578
  8
5
  6
CONTINUOUS
 10
448.717183
 20
1270.388447
 30
0.0
 11
445.355783
 21
1270.388447
 31
0.0
  0
LINE
  5
579
  8
5
  6
CONTINUOUS
 10
443.885783
 20
1270.388237
 30
0.0
 11
434.241183
 21
1270.387957
 31
0.0
  0
LINE
  5
57A
  8
5
  6
CONTINUOUS
 10
434.241883
 20
1252.959917
 30
0.0
 11
443.886483
 21
1252.960197
 31
0.0
  0
LINE
  5
57B
  8
5
  6
CONTINUOUS
 10
443.886483
 20
1251.490197
 30
0.0
 11
434.241883
 21
1251.489847
 31
0.0
  0
LINE
  5
57C
  8
5
  6
CONTINUOUS
 10
434.241183
 20
1270.387957
 30
0.0
 11
434.241883
 21
1252.959847
 31
0.0
  0
LINE
  5
57D
  8
5
  6
CONTINUOUS
 10
443.886483
 20
1252.960197
 30
0.0
 11
443.885783
 21
1270.388237
 31
0.0
  0
LINE
  5
57E
  8
5
  6
CONTINUOUS
 10
445.355783
 20
1270.388447
 30
0.0
 11
445.356483
 21
1252.960197
 31
0.0
  0
LINE
  5
57F
  8
5
  6
CONTINUOUS
 10
455.560383
 20
1251.490617
 30
0.0
 11
445.356483
 21
1251.490197
 31
0.0
  0
LINE
  5
580
  8
5
  6
CONTINUOUS
 10
445.356483
 20
1252.960197
 30
0.0
 11
453.717983
 21
1252.960547
 31
0.0
  0
ARC
  5
581
  8
5
  6
CONTINUOUS
 10
447.328383
 20
1243.059747
 30
0.0
 40
11.783324
 50
57.16493
 51
82.74766
  0
LINE
  5
582
  8
5
  6
CONTINUOUS
 10
480.669383
 20
1270.389567
 30
0.0
 11
477.307983
 21
1270.389497
 31
0.0
  0
LINE
  5
583
  8
5
  6
CONTINUOUS
 10
477.308683
 20
1252.961317
 30
0.0
 11
485.669483
 21
1252.961597
 31
0.0
  0
LINE
  5
584
  8
5
  6
CONTINUOUS
 10
487.512583
 20
1251.491737
 30
0.0
 11
477.308683
 21
1251.491317
 31
0.0
  0
LINE
  5
585
  8
5
  6
CONTINUOUS
 10
475.837983
 20
1270.389357
 30
0.0
 11
466.192683
 21
1270.389007
 31
0.0
  0
LINE
  5
586
  8
5
  6
CONTINUOUS
 10
466.193383
 20
1252.960967
 30
0.0
 11
475.838683
 21
1252.961317
 31
0.0
  0
LINE
  5
587
  8
5
  6
CONTINUOUS
 10
466.193383
 20
1251.490967
 30
0.0
 11
475.838683
 21
1251.491317
 31
0.0
  0
LINE
  5
588
  8
5
  6
CONTINUOUS
 10
466.192683
 20
1270.389007
 30
0.0
 11
466.193383
 21
1252.960967
 31
0.0
  0
LINE
  5
589
  8
5
  6
CONTINUOUS
 10
475.838683
 20
1252.961317
 30
0.0
 11
475.837983
 21
1270.389357
 31
0.0
  0
LINE
  5
58A
  8
5
  6
CONTINUOUS
 10
477.307983
 20
1270.389497
 30
0.0
 11
477.308683
 21
1252.961317
 31
0.0
  0
ARC
  5
58B
  8
5
  6
CONTINUOUS
 10
479.280583
 20
1243.060867
 30
0.0
 40
11.783324
 50
57.16491
 51
82.74766
  0
ARC
  5
58C
  8
5
  6
CONTINUOUS
 10
480.669383
 20
1263.081917
 30
0.0
 40
7.307643
 50
0.001947
 51
90.00195
  0
ARC
  5
58D
  8
5
  6
CONTINUOUS
 10
478.547683
 20
1263.955657
 30
0.0
 40
9.46967
 50
283.5581
 51
354.7072
  0
ARC
  5
58E
  8
5
  6
CONTINUOUS
 10
2136.339058
 20
1579.199936
 30
0.0
 40
11.783324
 50
2.745839
 51
45.68349
  0
LINE
  5
58F
  8
5
  6
CONTINUOUS
 10
2065.315658
 20
1576.911846
 30
0.0
 11
2065.315658
 21
1587.628076
 31
0.0
  0
LINE
  5
590
  8
5
  6
CONTINUOUS
 10
2054.777158
 20
1587.627726
 30
0.0
 11
2048.517758
 21
1569.381106
 31
0.0
  0
LINE
  5
591
  8
5
  6
CONTINUOUS
 10
2066.785658
 20
1587.628076
 30
0.0
 11
2066.785658
 21
1576.911846
 31
0.0
  0
LINE
  5
592
  8
5
  6
CONTINUOUS
 10
2084.099458
 20
1569.382296
 30
0.0
 11
2077.585958
 21
1587.628496
 31
0.0
  0
LINE
  5
593
  8
5
  6
CONTINUOUS
 10
2091.300358
 20
1587.628916
 30
0.0
 11
2091.301058
 21
1569.382646
 31
0.0
  0
LINE
  5
594
  8
5
  6
CONTINUOUS
 10
2100.945658
 20
1569.382926
 30
0.0
 11
2100.944958
 21
1587.629266
 31
0.0
  0
LINE
  5
595
  8
5
  6
CONTINUOUS
 10
2102.414958
 20
1587.629266
 30
0.0
 11
2102.415658
 21
1569.382926
 31
0.0
  0
ARC
  5
596
  8
5
  6
CONTINUOUS
 10
2104.386858
 20
1579.198816
 30
0.0
 40
11.783324
 50
2.745839
 51
45.68318
  0
LINE
  5
597
  8
5
  6
CONTINUOUS
 10
2123.251858
 20
1587.630036
 30
0.0
 11
2123.252558
 21
1569.383696
 31
0.0
  0
LINE
  5
598
  8
5
  6
CONTINUOUS
 10
2134.367158
 20
1587.630386
 30
0.0
 11
2134.367858
 21
1569.383976
 31
0.0
  0
LINE
  5
599
  8
5
  6
CONTINUOUS
 10
2132.897858
 20
1569.383976
 30
0.0
 11
2132.897158
 21
1587.630386
 31
0.0
  0
LINE
  5
59A
  8
5
  6
CONTINUOUS
 10
2048.517758
 20
1569.381106
 30
0.0
 11
2054.721858
 21
1569.381316
 31
0.0
  0
LINE
  5
59B
  8
5
  6
CONTINUOUS
 10
2054.721858
 20
1569.381316
 30
0.0
 11
2057.304858
 21
1576.911566
 31
0.0
  0
LINE
  5
59C
  8
5
  6
CONTINUOUS
 10
2057.304858
 20
1576.911566
 30
0.0
 11
2065.315658
 21
1576.911846
 31
0.0
  0
ARC
  5
59D
  8
5
  6
CONTINUOUS
 10
2105.777058
 20
1579.762946
 30
0.0
 40
10.379943
 50
270.0019
 51
0.0019
  0
LINE
  5
59E
  8
5
  6
CONTINUOUS
 10
2077.449458
 20
1569.382086
 30
0.0
 11
2084.099458
 21
1569.382296
 31
0.0
  0
LINE
  5
59F
  8
5
  6
CONTINUOUS
 10
2066.785658
 20
1576.911846
 30
0.0
 11
2074.761458
 21
1576.912126
 31
0.0
  0
LINE
  5
5A0
  8
5
  6
CONTINUOUS
 10
2074.761458
 20
1576.912126
 30
0.0
 11
2077.449458
 21
1569.382086
 31
0.0
  0
LINE
  5
5A1
  8
5
  6
CONTINUOUS
 10
2102.415658
 20
1569.382926
 30
0.0
 11
2105.777058
 21
1569.383066
 31
0.0
  0
LINE
  5
5A2
  8
5
  6
CONTINUOUS
 10
2091.301058
 20
1569.382646
 30
0.0
 11
2100.945658
 21
1569.382926
 31
0.0
  0
LINE
  5
5A3
  8
5
  6
CONTINUOUS
 10
2134.367858
 20
1569.383976
 30
0.0
 11
2137.729258
 21
1569.384116
 31
0.0
  0
LINE
  5
5A4
  8
5
  6
CONTINUOUS
 10
2123.252558
 20
1569.383696
 30
0.0
 11
2132.897858
 21
1569.383976
 31
0.0
  0
ARC
  5
5A5
  8
5
  6
CONTINUOUS
 10
2137.728558
 20
1579.764066
 30
0.0
 40
10.379943
 50
270.0019
 51
0.0019
  0
LINE
  5
5A6
  8
5
  6
CONTINUOUS
 10
2065.314958
 20
1606.526186
 30
0.0
 11
2061.259858
 21
1606.526046
 31
0.0
  0
LINE
  5
5A7
  8
5
  6
CONTINUOUS
 10
2055.281158
 20
1589.097726
 30
0.0
 11
2065.315658
 21
1589.098076
 31
0.0
  0
LINE
  5
5A8
  8
5
  6
CONTINUOUS
 10
2065.315658
 20
1587.628076
 30
0.0
 11
2054.777158
 21
1587.627726
 31
0.0
  0
LINE
  5
5A9
  8
5
  6
CONTINUOUS
 10
2061.259858
 20
1606.526046
 30
0.0
 11
2055.281158
 21
1589.097726
 31
0.0
  0
LINE
  5
5AA
  8
5
  6
CONTINUOUS
 10
2065.315658
 20
1589.098076
 30
0.0
 11
2065.314958
 21
1606.526186
 31
0.0
  0
ARC
  5
5AB
  8
5
  6
CONTINUOUS
 10
2105.776358
 20
1599.219866
 30
0.0
 40
7.307643
 50
0.001947
 51
90.00195
  0
ARC
  5
5AC
  8
5
  6
CONTINUOUS
 10
2103.654658
 20
1600.093676
 30
0.0
 40
9.46967
 50
283.5581
 51
354.7072
  0
LINE
  5
5AD
  8
5
  6
CONTINUOUS
 10
2070.839358
 20
1606.526326
 30
0.0
 11
2066.784958
 21
1606.526256
 31
0.0
  0
LINE
  5
5AE
  8
5
  6
CONTINUOUS
 10
2066.785658
 20
1589.098076
 30
0.0
 11
2077.060958
 21
1589.098426
 31
0.0
  0
LINE
  5
5AF
  8
5
  6
CONTINUOUS
 10
2066.784958
 20
1606.526256
 30
0.0
 11
2066.785658
 21
1589.098076
 31
0.0
  0
LINE
  5
5B0
  8
5
  6
CONTINUOUS
 10
2077.060958
 20
1589.098426
 30
0.0
 11
2070.839358
 21
1606.526326
 31
0.0
  0
LINE
  5
5B1
  8
5
  6
CONTINUOUS
 10
2077.585958
 20
1587.628496
 30
0.0
 11
2066.785658
 21
1587.628076
 31
0.0
  0
LINE
  5
5B2
  8
5
  6
CONTINUOUS
 10
2105.775658
 20
1606.527516
 30
0.0
 11
2102.414258
 21
1606.527516
 31
0.0
  0
LINE
  5
5B3
  8
5
  6
CONTINUOUS
 10
2100.944258
 20
1606.527306
 30
0.0
 11
2091.299658
 21
1606.527026
 31
0.0
  0
LINE
  5
5B4
  8
5
  6
CONTINUOUS
 10
2091.300358
 20
1589.098986
 30
0.0
 11
2100.944958
 21
1589.099266
 31
0.0
  0
LINE
  5
5B5
  8
5
  6
CONTINUOUS
 10
2100.944958
 20
1587.629266
 30
0.0
 11
2091.300358
 21
1587.628916
 31
0.0
  0
LINE
  5
5B6
  8
5
  6
CONTINUOUS
 10
2091.299658
 20
1606.527026
 30
0.0
 11
2091.300358
 21
1589.098916
 31
0.0
  0
LINE
  5
5B7
  8
5
  6
CONTINUOUS
 10
2100.944958
 20
1589.099266
 30
0.0
 11
2100.944258
 21
1606.527306
 31
0.0
  0
LINE
  5
5B8
  8
5
  6
CONTINUOUS
 10
2102.414258
 20
1606.527516
 30
0.0
 11
2102.414958
 21
1589.099266
 31
0.0
  0
LINE
  5
5B9
  8
5
  6
CONTINUOUS
 10
2112.618858
 20
1587.629686
 30
0.0
 11
2102.414958
 21
1587.629266
 31
0.0
  0
LINE
  5
5BA
  8
5
  6
CONTINUOUS
 10
2102.414958
 20
1589.099266
 30
0.0
 11
2110.776458
 21
1589.099616
 31
0.0
  0
ARC
  5
5BB
  8
5
  6
CONTINUOUS
 10
2104.386858
 20
1579.198816
 30
0.0
 40
11.783324
 50
57.16493
 51
82.74766
  0
LINE
  5
5BC
  8
5
  6
CONTINUOUS
 10
2137.727858
 20
1606.528636
 30
0.0
 11
2134.366458
 21
1606.528566
 31
0.0
  0
LINE
  5
5BD
  8
5
  6
CONTINUOUS
 10
2134.367158
 20
1589.100386
 30
0.0
 11
2142.727958
 21
1589.100666
 31
0.0
  0
LINE
  5
5BE
  8
5
  6
CONTINUOUS
 10
2144.571058
 20
1587.630806
 30
0.0
 11
2134.367158
 21
1587.630386
 31
0.0
  0
LINE
  5
5BF
  8
5
  6
CONTINUOUS
 10
2132.896458
 20
1606.528426
 30
0.0
 11
2123.251158
 21
1606.528076
 31
0.0
  0
LINE
  5
5C0
  8
5
  6
CONTINUOUS
 10
2123.251858
 20
1589.100036
 30
0.0
 11
2132.897158
 21
1589.100386
 31
0.0
  0
LINE
  5
5C1
  8
5
  6
CONTINUOUS
 10
2123.251858
 20
1587.630036
 30
0.0
 11
2132.897158
 21
1587.630386
 31
0.0
  0
LINE
  5
5C2
  8
5
  6
CONTINUOUS
 10
2123.251158
 20
1606.528076
 30
0.0
 11
2123.251858
 21
1589.100036
 31
0.0
  0
LINE
  5
5C3
  8
5
  6
CONTINUOUS
 10
2132.897158
 20
1589.100386
 30
0.0
 11
2132.896458
 21
1606.528426
 31
0.0
  0
LINE
  5
5C4
  8
5
  6
CONTINUOUS
 10
2134.366458
 20
1606.528566
 30
0.0
 11
2134.367158
 21
1589.100386
 31
0.0
  0
ARC
  5
5C5
  8
5
  6
CONTINUOUS
 10
2136.339058
 20
1579.199936
 30
0.0
 40
11.783324
 50
57.16491
 51
82.74766
  0
ARC
  5
5C6
  8
5
  6
CONTINUOUS
 10
2137.727858
 20
1599.220986
 30
0.0
 40
7.307643
 50
0.001947
 51
90.00195
  0
ARC
  5
5C7
  8
5
  6
CONTINUOUS
 10
2135.606158
 20
1600.094726
 30
0.0
 40
9.46967
 50
283.5581
 51
354.7072
  0
INSERT
  5
60A
  8
0
  6
CONTINUOUS
  2
A$C27E33DB7
 10
289.587221
 20
1133.325048
 30
0.0
  0
ENDSEC
  0
EOF
