  0
SECTION
  2
HEADER
  9
$ACADVER
  1
AC1009
  9
$DWGCODEPAGE
  3
iso8859-1
  9
$INSBASE
 10
0.0
 20
0.0
 30
0.0
  9
$EXTMIN
 10
1.0E20
 20
1.0E20
  9
$EXTMAX
 10
-1.0E20
 20
-1.0E20
  9
$LIMMIN
 10
0.0
 20
0.0
  9
$LIMMAX
 10
12.0
 20
9.0
  9
$ORTHOMODE
 70
     0
  9
$REGENMODE
 70
     1
  9
$FILLMODE
 70
     1
  9
$QTEXTMODE
 70
     0
  9
$MIRRTEXT
 70
     1
  9
$DRAGMODE
 70
     2
  9
$LTSCALE
 40
15.0
  9
$OSMODE
 70
     0
  9
$ATTMODE
 70
     1
  9
$TEXTSIZE
 40
0.2
  9
$TRACEWID
 40
0.05
  9
$TEXTSTYLE
  7
STANDARD
  9
$CLAYER
  8
0
  9
$CELTYPE
  6
DASHED
  9
$CECOLOR
 62
   256
  9
$DIMSCALE
 40
1.0
  9
$DIMASZ
 40
0.18
  9
$DIMEXO
 40
0.0625
  9
$DIMDLI
 40
0.38
  9
$DIMRND
 40
0.0
  9
$DIMDLE
 40
0.0
  9
$DIMEXE
 40
0.18
  9
$DIMTP
 40
0.0
  9
$DIMTM
 40
0.0
  9
$DIMTXT
 40
0.18
  9
$DIMCEN
 40
0.09
  9
$DIMTSZ
 40
0.0
  9
$DIMTOL
 70
     0
  9
$DIMLIM
 70
     0
  9
$DIMTIH
 70
     1
  9
$DIMTOH
 70
     1
  9
$DIMSE1
 70
     0
  9
$DIMSE2
 70
     0
  9
$DIMTAD
 70
     0
  9
$DIMZIN
 70
     0
  9
$DIMBLK
  1

  9
$DIMASO
 70
     1
  9
$DIMSHO
 70
     1
  9
$DIMPOST
  1

  9
$DIMAPOST
  1

  9
$DIMALT
 70
     0
  9
$DIMALTD
 70
     2
  9
$DIMALTF
 40
25.4
  9
$DIMLFAC
 40
1.0
  9
$DIMTOFL
 70
     0
  9
$DIMTVP
 40
0.0
  9
$DIMTIX
 70
     0
  9
$DIMSOXD
 70
     0
  9
$DIMSAH
 70
     0
  9
$DIMBLK1
  1

  9
$DIMBLK2
  1

  9
$DIMSTYLE
  2
STANDARD
  9
$DIMCLRD
 70
     0
  9
$DIMCLRE
 70
     0
  9
$DIMCLRT
 70
     0
  9
$DIMTFAC
 40
1.0
  9
$DIMGAP
 40
0.09
  9
$LUNITS
 70
     2
  9
$LUPREC
 70
     4
  9
$AXISMODE
 70
     0
  9
$AXISUNIT
 10
0.0
 20
0.0
  9
$SKETCHINC
 40
0.1
  9
$FILLETRAD
 40
0.0
  9
$AUNITS
 70
     0
  9
$AUPREC
 70
     0
  9
$MENU
  1
acad
  9
$ELEVATION
 40
0.0
  9
$PELEVATION
 40
0.0
  9
$THICKNESS
 40
0.0
  9
$LIMCHECK
 70
     0
  9
$BLIPMODE
 70
     1
  9
$CHAMFERA
 40
0.0
  9
$CHAMFERB
 40
0.0
  9
$SKPOLY
 70
     0
  9
$TDCREATE
 40
0.000000000
  9
$TDUPDATE
 40
0.000000000
  9
$TDINDWG
 40
0.0
  9
$TDUSRTIMER
 40
0.0
  9
$USRTIMER
 70
     1
  9
$ANGBASE
 50
0.0
  9
$ANGDIR
 70
     0
  9
$PDMODE
 70
     0
  9
$PDSIZE
 40
0.0
  9
$PLINEWID
 40
0.0
  9
$COORDS
 70
     1
  9
$SPLFRAME
 70
     0
  9
$SPLINETYPE
 70
     6
  9
$SPLINESEGS
 70
     8
  9
$ATTDIA
 70
     0
  9
$ATTREQ
 70
     1
  9
$HANDLING
 70
     1
  9
$HANDSEED
  5
   656
  9
$SURFTAB1
 70
     6
  9
$SURFTAB2
 70
     6
  9
$SURFTYPE
 70
     6
  9
$SURFU
 70
     6
  9
$SURFV
 70
     6
  9
$UCSNAME
  2

  9
$UCSORG
 10
0.0
 20
0.0
 30
0.0
  9
$UCSXDIR
 10
1.0
 20
0.0
 30
0.0
  9
$UCSYDIR
 10
0.0
 20
1.0
 30
0.0
  9
$PUCSNAME
  2

  9
$PUCSORG
 10
0.0
 20
0.0
 30
0.0
  9
$PUCSXDIR
 10
1.0
 20
0.0
 30
0.0
  9
$PUCSYDIR
 10
0.0
 20
1.0
 30
0.0
  9
$USERI1
 70
     0
  9
$USERI2
 70
     0
  9
$USERI3
 70
     0
  9
$USERI4
 70
     0
  9
$USERI5
 70
     0
  9
$USERR1
 40
0.0
  9
$USERR2
 40
0.0
  9
$USERR3
 40
0.0
  9
$USERR4
 40
0.0
  9
$USERR5
 40
0.0
  9
$WORLDVIEW
 70
     1
  9
$SHADEDGE
 70
     3
  9
$SHADEDIF
 70
    70
  9
$TILEMODE
 70
     1
  9
$MAXACTVP
 70
    16
  9
$PINSBASE
 10
0.0
 20
0.0
 30
0.0
  9
$PLIMCHECK
 70
     0
  9
$PEXTMIN
 10
1.0E20
 20
1.0E20
 30
1.0E20
  9
$PEXTMAX
 10
-1.0E20
 20
-1.0E20
 30
-1.0E20
  9
$PLIMMIN
 10
0.0
 20
0.0
  9
$PLIMMAX
 10
12.0
 20
9.0
  9
$UNITMODE
 70
     0
  9
$VISRETAIN
 70
     0
  0
ENDSEC
  0
SECTION
  2
TABLES
  0
TABLE
  2
VPORT
 70
     1
  0
VPORT
  2
*ACTIVE
 70
     0
 10
0.0
 20
0.0
 11
1.0
 21
1.0
 12
6.801242
 22
4.5
 13
0.0
 23
0.0
 14
1.0
 24
1.0
 15
0.0
 25
0.0
 16
0.0
 26
0.0
 36
1.0
 17
0.0
 27
0.0
 37
0.0
 40
9.0
 41
1.511387
 42
50.0
 43
0.0
 44
0.0
 50
0.0
 51
0.0
 71
     0
 72
   100
 73
     1
 74
     1
 75
     0
 76
     0
 77
     0
 78
     0
  0
ENDTAB
  0
TABLE
  2
LTYPE
 70
    41
  0
LTYPE
  2
BYBLOCK
 70
     0
  3

 72
    65
 73
     0
 40
0.0
  0
LTYPE
  2
BYLAYER
 70
     0
  3

 72
    65
 73
     0
 40
0.0
  0
LTYPE
  2
CONTINUOUS
 70
     0
  3
Solid line
 72
    65
 73
     0
 40
0.0
  0
LTYPE
  2
BORDER
 70
    64
  3
__ __ . __ __ . __ __ . __ __ . __ __ . __ __ .
 72
    65
 73
     6
 40
1.75
 49
0.5
 49
-0.25
 49
0.5
 49
-0.25
 49
0.0
 49
-0.25
  0
LTYPE
  2
BORDER2
 70
    64
  3
__.__.__.__.__.__.__.__.__.__.__.__.__.__.__.__
 72
    65
 73
     6
 40
0.875
 49
0.25
 49
-0.125
 49
0.25
 49
-0.125
 49
0.0
 49
-0.125
  0
LTYPE
  2
BORDERX2
 70
    64
  3
____  ____  .  ____  ____  .  ____  ____  .  __
 72
    65
 73
     6
 40
3.5
 49
1.0
 49
-0.5
 49
1.0
 49
-0.5
 49
0.0
 49
-0.5
  0
LTYPE
  2
CENTER
 70
    64
  3
____ _ ____ _ ____ _ ____ _ ____ _ ____ _ ____
 72
    65
 73
     4
 40
2.0
 49
1.25
 49
-0.25
 49
0.25
 49
-0.25
  0
LTYPE
  2
CENTER2
 70
    64
  3
___ _ ___ _ ___ _ ___ _ ___ _ ___ _ ___ _ ___ _
 72
    65
 73
     4
 40
1.125
 49
0.75
 49
-0.125
 49
0.125
 49
-0.125
  0
LTYPE
  2
CENTERX2
 70
    64
  3
________  __  ________  __  ________  __  _____
 72
    65
 73
     4
 40
4.0
 49
2.5
 49
-0.5
 49
0.5
 49
-0.5
  0
LTYPE
  2
DASHDOT
 70
    64
  3
__ . __ . __ . __ . __ . __ . __ . __ . __ . __
 72
    65
 73
     4
 40
1.0
 49
0.5
 49
-0.25
 49
0.0
 49
-0.25
  0
LTYPE
  2
DASHDOT2
 70
    64
  3
_._._._._._._._._._._._._._._._._._._._._._._._
 72
    65
 73
     4
 40
0.5
 49
0.25
 49
-0.125
 49
0.0
 49
-0.125
  0
LTYPE
  2
DASHDOTX2
 70
    64
  3
____  .  ____  .  ____  .  ____  .  ____  .  __
 72
    65
 73
     4
 40
2.0
 49
1.0
 49
-0.5
 49
0.0
 49
-0.5
  0
LTYPE
  2
DASHED
 70
    64
  3
__ __ __ __ __ __ __ __ __ __ __ __ __ __ __ __
 72
    65
 73
     2
 40
0.75
 49
0.5
 49
-0.25
  0
LTYPE
  2
DASHED2
 70
    64
  3
_ _ _ _ _ _ _ _ _ _ _ _ _ _ _ _ _ _ _ _ _ _ _ _
 72
    65
 73
     2
 40
0.375
 49
0.25
 49
-0.125
  0
LTYPE
  2
DASHEDX2
 70
    64
  3
____  ____  ____  ____  ____  ____  ____  ____
 72
    65
 73
     2
 40
1.5
 49
1.0
 49
-0.5
  0
LTYPE
  2
DIVIDE
 70
    64
  3
____ . . ____ . . ____ . . ____ . . ____ . . __
 72
    65
 73
     6
 40
1.25
 49
0.5
 49
-0.25
 49
0.0
 49
-0.25
 49
0.0
 49
-0.25
  0
LTYPE
  2
DIVIDE2
 70
    64
  3
__..__..__..__..__..__..__..__..__..__..__..__.
 72
    65
 73
     6
 40
0.625
 49
0.25
 49
-0.125
 49
0.0
 49
-0.125
 49
0.0
 49
-0.125
  0
LTYPE
  2
DIVIDEX2
 70
    64
  3
________  .  .  ________  .  .  ________  .  .
 72
    65
 73
     6
 40
2.5
 49
1.0
 49
-0.5
 49
0.0
 49
-0.5
 49
0.0
 49
-0.5
  0
LTYPE
  2
DOT
 70
    64
  3
. . . . . . . . . . . . . . . . . . . . . . . .
 72
    65
 73
     2
 40
0.25
 49
0.0
 49
-0.25
  0
LTYPE
  2
DOT2
 70
    64
  3
...............................................
 72
    65
 73
     2
 40
0.125
 49
0.0
 49
-0.125
  0
LTYPE
  2
DOTX2
 70
    64
  3
.  .  .  .  .  .  .  .  .  .  .  .  .  .  .  .
 72
    65
 73
     2
 40
0.5
 49
0.0
 49
-0.5
  0
LTYPE
  2
HIDDEN
 70
    64
  3
__ __ __ __ __ __ __ __ __ __ __ __ __ __ __ __
 72
    65
 73
     2
 40
0.375
 49
0.25
 49
-0.125
  0
LTYPE
  2
HIDDEN2
 70
    64
  3
_ _ _ _ _ _ _ _ _ _ _ _ _ _ _ _ _ _ _ _ _ _ _ _
 72
    65
 73
     2
 40
0.1875
 49
0.125
 49
-0.0625
  0
LTYPE
  2
HIDDENX2
 70
    64
  3
____ ____ ____ ____ ____ ____ ____ ____ ____ __
 72
    65
 73
     2
 40
0.75
 49
0.5
 49
-0.25
  0
LTYPE
  2
PHANTOM
 70
    64
  3
______  __  __  ______  __  __  ______  __  __
 72
    65
 73
     6
 40
2.5
 49
1.25
 49
-0.25
 49
0.25
 49
-0.25
 49
0.25
 49
-0.25
  0
LTYPE
  2
PHANTOM2
 70
    64
  3
___ _ _ ___ _ _ ___ _ _ ___ _ _ ___ _ _ ___ _ _
 72
    65
 73
     6
 40
1.25
 49
0.625
 49
-0.125
 49
0.125
 49
-0.125
 49
0.125
 49
-0.125
  0
LTYPE
  2
PHANTOMX2
 70
    64
  3
____________    ____    ____    ____________
 72
    65
 73
     6
 40
5.0
 49
2.5
 49
-0.5
 49
0.5
 49
-0.5
 49
0.5
 49
-0.5
  0
LTYPE
  2
ACAD_ISO02W100
 70
    64
  3
__ __ __ __ __ __ __ __ __ __ __ __ __ __ __ __
 72
    65
 73
     2
 40
15.0
 49
12.0
 49
-3.0
  0
LTYPE
  2
ACAD_ISO03W100
 70
    64
  3
__    __    __    __    __    __    __    __
 72
    65
 73
     2
 40
30.0
 49
12.0
 49
-18.0
  0
LTYPE
  2
ACAD_ISO04W100
 70
    64
  3
____ . ____ . ____ . ____ . ____ . ____ . ____
 72
    65
 73
     4
 40
30.5
 49
24.0
 49
-3.0
 49
0.5
 49
-3.0
  0
LTYPE
  2
ACAD_ISO05W100
 70
    64
  3
____ .. ____ .. ____ .. ____ .. ____ .. ____ ..
 72
    65
 73
     6
 40
34.0
 49
24.0
 49
-3.0
 49
0.5
 49
-3.0
 49
0.5
 49
-3.0
  0
LTYPE
  2
ACAD_ISO06W100
 70
    64
  3
____ ... ____ ... ____ ... ____ ... ____ ... __
 72
    65
 73
     8
 40
37.5
 49
24.0
 49
-3.0
 49
0.5
 49
-3.0
 49
0.5
 49
-3.0
 49
0.5
 49
-3.0
  0
LTYPE
  2
ACAD_ISO07W100
 70
    64
  3
. . . . . . . . . . . . . . . . . . . . . . . .
 72
    65
 73
     2
 40
3.5
 49
0.5
 49
-3.0
  0
LTYPE
  2
ACAD_ISO08W100
 70
    64
  3
____ __ ____ __ ____ __ ____ ____ __ __ ____ __
 72
    65
 73
     4
 40
36.0
 49
24.0
 49
-3.0
 49
6.0
 49
-3.0
  0
LTYPE
  2
ACAD_ISO09W100
 70
    64
  3
____ __ __ ____ __ __ ____ __ __ ____ __ __ ___
 72
    65
 73
     6
 40
45.0
 49
24.0
 49
-3.0
 49
6.0
 49
-3.0
 49
6.0
 49
-3.0
  0
LTYPE
  2
ACAD_ISO10W100
 70
    64
  3
__ . __ . __ . __ . __ . __ . __ . __ . __ . __
 72
    65
 73
     4
 40
18.5
 49
12.0
 49
-3.0
 49
0.5
 49
-3.0
  0
LTYPE
  2
ACAD_ISO11W100
 70
    64
  3
__ __ . __ __ . __ __ . __ __ . __ __ . __ __ .
 72
    65
 73
     6
 40
33.5
 49
12.0
 49
-3.0
 49
12.0
 49
-3.0
 49
0.5
 49
-3.0
  0
LTYPE
  2
ACAD_ISO12W100
 70
    64
  3
__ . . __ . . __ . . __ . . __ . . __ . . __ .
 72
    65
 73
     6
 40
22.0
 49
12.0
 49
-3.0
 49
0.5
 49
-3.0
 49
0.5
 49
-3.0
  0
LTYPE
  2
ACAD_ISO13W100
 70
    64
  3
__ __ . . __ __ . . __ __ . . __ __ . . __ __ .
 72
    65
 73
     8
 40
37.0
 49
12.0
 49
-3.0
 49
12.0
 49
-3.0
 49
0.5
 49
-3.0
 49
0.5
 49
-3.0
  0
LTYPE
  2
ACAD_ISO14W100
 70
    64
  3
__ . . . __ . . . __ . . . __ . . . __ . . . __
 72
    65
 73
     8
 40
25.5
 49
12.0
 49
-3.0
 49
0.5
 49
-3.0
 49
0.5
 49
-3.0
 49
0.5
 49
-3.0
  0
LTYPE
  2
ACAD_ISO15W100
 70
    64
  3
__ __ . . . __ __ . . . __ __ . . . __ __ . . .
 72
    65
 73
    10
 40
40.5
 49
12.0
 49
-3.0
 49
12.0
 49
-3.0
 49
0.5
 49
-3.0
 49
0.5
 49
-3.0
 49
0.5
 49
-3.0
  0
ENDTAB
  0
TABLE
  2
STYLE
 70
     4
  0
STYLE
  2
STANDARD
 70
    64
 40
0.0
 41
1.0
 50
0.0
 71
     0
 42
0.2
  3
txt
  4

  0
STYLE
  2
TOLERANCE
 70
    64
 40
0.0
 41
1.0
 50
0.0
 71
     0
 42
0.2
  3
../igesfont/iges1003.shx
  4

  0
STYLE
  2
ROMANS
 70
    64
 40
0.0
 41
1.0
 50
0.0
 71
     0
 42
0.2
  3
romans.shx
  4

  0
STYLE
  2
ROMANC
 70
    64
 40
0.0
 41
1.0
 50
0.0
 71
     0
 42
0.2
  3
romanc.shx
  4

  0
ENDTAB
  0
TABLE
  2
DIMSTYLE
 70
     2
  0
DIMSTYLE
  2
UNNAMED
 70
     0
  3

  4

  5

  6

  7

 40
1.0
 41
0.18
 42
0.0625
 43
0.38
 44
0.18
 45
0.0
 46
0.0
 47
0.0
 48
0.0
140
0.18
141
0.09
142
0.0
143
25.4
144
1.0
145
0.0
146
1.0
147
0.09
 71
     0
 72
     0
 73
     1
 74
     1
 75
     0
 76
     0
 77
     0
 78
     0
170
     0
171
     2
172
     0
173
     0
174
     0
175
     0
176
     0
177
     0
178
     0
  0
DIMSTYLE
  2
STANDARD
 70
     0
  3

  4

  5

  6

  7

 40
1.0
 41
0.18
 42
0.0625
 43
0.38
 44
0.18
 45
0.0
 46
0.0
 47
0.0
 48
0.0
140
0.18
141
0.09
142
0.0
143
25.4
144
1.0
145
0.0
146
1.0
147
0.09
 71
     0
 72
     0
 73
     1
 74
     1
 75
     0
 76
     0
 77
     0
 78
     0
170
     0
171
     2
172
     0
173
     0
174
     0
175
     0
176
     0
177
     0
178
     0
  0
ENDTAB
  0
TABLE
  2
LAYER
 70
     2
  0
LAYER
  2
0
 70
     0
 62
     7
  6
CONTINUOUS
  0
LAYER
  2
255
 70
     0
 62
     7
  6
CONTINUOUS
  0
ENDTAB
  0
ENDSEC
  0
SECTION
  2
BLOCKS
  0
BLOCK
  5
     B
  8
0
  6
CONTINUOUS
 62
     7
  2
*UDIM2308
 70
    65
 10
0.0
 20
0.0
 30
0.0
  3
*UDIM2308
  0
TEXT
  5
     C
  8
0
  6
CONTINUOUS
 62
     7
 10
-402.277246487331
 20
-91.6770794607495
 30
0.0
 40
3.00000002980232
  1
73,75
 50
449.999999896069
 41
0.933333333333333
 72
     1
 11
-403.777246490121
 21
-84.9770793914795
 31
0.0
 73
     2
  0
LINE
  5
     D
  8
0
  6
CONTINUOUS
 62
     7
 10
-386.316671242001
 20
-56.1791839599609
 30
0.0
 11
-403.27724647522
 21
-56.1791839599609
 31
0.0
  0
LINE
  5
     E
  8
0
  6
CONTINUOUS
 62
     7
 10
-400.676267511247
 20
-74.6166839599609
 30
0.0
 11
-403.27724647522
 21
-74.6166839599609
 31
0.0
  0
LINE
  5
     F
  8
0
  6
CONTINUOUS
 62
     7
 10
-401.27724647522
 20
-56.1791839599609
 30
0.0
 11
-401.27724647522
 21
-91.677079458038
 31
0.0
  0
LINE
  5
    10
  8
0
  6
CONTINUOUS
 62
     7
 10
-400.756302045268
 20
-59.1336072371679
 30
0.0
 11
-401.27724647522
 21
-56.1791839599609
 31
0.0
  0
LINE
  5
    11
  8
0
  6
CONTINUOUS
 62
     7
 10
-401.27724647522
 20
-56.1791839599609
 30
0.0
 11
-401.798190905171
 21
-59.1336072371679
 31
0.0
  0
LINE
  5
    12
  8
0
  6
CONTINUOUS
 62
     7
 10
-401.798190905171
 20
-71.662260682754
 30
0.0
 11
-401.27724647522
 21
-74.6166839599609
 31
0.0
  0
LINE
  5
    13
  8
0
  6
CONTINUOUS
 62
     7
 10
-401.27724647522
 20
-74.6166839599609
 30
0.0
 11
-400.756302045268
 21
-71.662260682754
 31
0.0
  0
ENDBLK
  5
    14
  8
0
  6
CONTINUOUS
 62
     7
  0
BLOCK
  5
    15
  8
0
  6
CONTINUOUS
 62
     7
  2
*UDIM2309
 70
    65
 10
0.0
 20
0.0
 30
0.0
  3
*UDIM2309
  0
TEXT
  5
    16
  8
0
  6
CONTINUOUS
 62
     7
 10
-394.081756603908
 20
-73.3039329267834
 30
0.0
 40
3.00000002980232
  1
52,25
 50
449.999999896069
 41
0.933333333333333
 72
     1
 11
-395.581756606698
 21
-66.6039328575134
 31
0.0
 73
     2
  0
LINE
  5
    17
  8
0
  6
CONTINUOUS
 62
     7
 10
-386.735014322803
 20
-61.5541839599609
 30
0.0
 11
-395.081756591797
 21
-61.5541839599609
 31
0.0
  0
LINE
  5
    18
  8
0
  6
CONTINUOUS
 62
     7
 10
-393.081756591797
 20
-59.9039327909549
 30
0.0
 11
-393.081756591797
 21
-74.6166839599609
 31
0.0
  0
LINE
  5
    19
  8
0
  6
CONTINUOUS
 62
     7
 10
-392.560812161845
 20
-64.5086072371679
 30
0.0
 11
-393.081756591797
 21
-61.5541839599609
 31
0.0
  0
LINE
  5
    1A
  8
0
  6
CONTINUOUS
 62
     7
 10
-393.081756591797
 20
-61.5541839599609
 30
0.0
 11
-393.602701021749
 21
-64.5086072371679
 31
0.0
  0
LINE
  5
    1B
  8
0
  6
CONTINUOUS
 62
     7
 10
-393.602701021749
 20
-71.662260682754
 30
0.0
 11
-393.081756591797
 21
-74.6166839599609
 31
0.0
  0
LINE
  5
    1C
  8
0
  6
CONTINUOUS
 62
     7
 10
-393.081756591797
 20
-74.6166839599609
 30
0.0
 11
-392.560812161845
 21
-71.662260682754
 31
0.0
  0
ENDBLK
  5
    1D
  8
0
  6
CONTINUOUS
 62
     7
  0
BLOCK
  5
    1E
  8
0
  6
CONTINUOUS
 62
     7
  2
*UDIM2310
 70
    65
 10
0.0
 20
0.0
 30
0.0
  3
*UDIM2310
  0
TEXT
  5
    1F
  8
0
  6
CONTINUOUS
 62
     7
 10
-343.536926082008
 20
-36.1326538661207
 30
0.0
 40
3.00000002980232
  1
14
 50
405.398464927604
 41
0.933333333333333
 72
     1
 11
-342.849506602117
 21
-33.2993775598726
 31
0.0
 73
     2
  0
TEXT
  5
    20
  8
0
  6
CONTINUOUS
 62
     7
 10
-345.467899456201
 20
-38.0906737878591
 30
0.0
 40
3.00000002980232
  1
R
 50
405.398464927604
 41
0.933333333333334
 72
     1
 11
-345.763520967221
 21
-36.2542076185638
 31
0.0
 73
     2
  0
LINE
  5
    21
  8
0
  6
CONTINUOUS
 62
     7
 10
-339.314058166622
 20
-33.274789785714
 30
0.0
 11
-369.977048564965
 21
-64.3672671610477
 31
0.0
  0
LINE
  5
    22
  8
0
  6
CONTINUOUS
 62
     7
 10
-361.148064120216
 20
-56.1565220451536
 30
0.0
 11
-359.444466643441
 21
-53.6871586378911
 31
0.0
  0
LINE
  5
    23
  8
0
  6
CONTINUOUS
 62
     7
 10
-359.444466643441
 20
-53.6871586378911
 30
0.0
 11
-361.889896526405
 21
-55.4249367271499
 31
0.0
  0
ENDBLK
  5
    24
  8
0
  6
CONTINUOUS
 62
     7
  0
BLOCK
  5
    25
  8
0
  6
CONTINUOUS
 62
     7
  2
*UDIM2311
 70
    65
 10
0.0
 20
0.0
 30
0.0
  3
*UDIM2311
  0
TEXT
  5
    26
  8
0
  6
CONTINUOUS
 62
     7
 10
-335.957366950409
 20
-78.2291835160385
 30
0.0
 40
3.00000002980232
  1
143
 50
449.999999896069
 41
0.933333333333333
 72
     1
 11
-337.457366958261
 21
-74.329183474584
 31
0.0
 73
     2
  0
LINE
  5
    27
  8
0
  6
CONTINUOUS
 62
     7
 10
-355.552125072699
 20
-56.1791842738774
 30
0.0
 11
-332.95736694336
 21
-56.1791913667442
 31
0.0
  0
LINE
  5
    28
  8
0
  6
CONTINUOUS
 62
     7
 10
-355.5521250727
 20
-91.9291846825157
 30
0.0
 11
-332.95736694336
 21
-91.929201008466
 31
0.0
  0
LINE
  5
    29
  8
0
  6
CONTINUOUS
 62
     7
 10
-334.957366943359
 20
-56.1791907389112
 30
0.0
 11
-334.957366943359
 21
-91.9291995633565
 31
0.0
  0
LINE
  5
    2A
  8
0
  6
CONTINUOUS
 62
     7
 10
-334.436422513408
 20
-59.1336140161182
 30
0.0
 11
-334.957366943359
 21
-56.1791907389112
 31
0.0
  0
LINE
  5
    2B
  8
0
  6
CONTINUOUS
 62
     7
 10
-334.957366943359
 20
-56.1791907389112
 30
0.0
 11
-335.478311373311
 21
-59.1336140161182
 31
0.0
  0
LINE
  5
    2C
  8
0
  6
CONTINUOUS
 62
     7
 10
-335.478311373311
 20
-88.9747762861495
 30
0.0
 11
-334.957366943359
 21
-91.9291995633565
 31
0.0
  0
LINE
  5
    2D
  8
0
  6
CONTINUOUS
 62
     7
 10
-334.957366943359
 20
-91.9291995633565
 30
0.0
 11
-334.436422513408
 21
-88.9747762861495
 31
0.0
  0
ENDBLK
  5
    2E
  8
0
  6
CONTINUOUS
 62
     7
  0
BLOCK
  5
    2F
  8
0
  6
CONTINUOUS
 62
     7
  2
*UDIM2312
 70
    65
 10
0.0
 20
0.0
 30
0.0
  3
*UDIM2312
  0
TEXT
  5
    30
  8
0
  6
CONTINUOUS
 62
     7
 10
-358.927068737876
 20
-36.7952918961125
 30
0.0
 40
3.00000002980232
  1
35
 50
359.999999896069
 41
0.933333333333333
 72
     1
 11
-356.427068710327
 21
-35.2952918857336
 31
0.0
 73
     2
  0
LINE
  5
    31
  8
0
  6
CONTINUOUS
 62
     7
 10
-361.902069091797
 20
-49.493374841235
 30
0.0
 11
-361.902069091797
 21
-35.7952919006348
 31
0.0
  0
LINE
  5
    32
  8
0
  6
CONTINUOUS
 62
     7
 10
-370.652069091797
 20
-43.9114404364716
 30
0.0
 11
-370.652069091797
 21
-35.7952919006348
 31
0.0
  0
LINE
  5
    33
  8
0
  6
CONTINUOUS
 62
     7
 10
-353.927068685492
 20
-37.7952919006348
 30
0.0
 11
-370.652069091797
 21
-37.7952919006348
 31
0.0
  0
LINE
  5
    34
  8
0
  6
CONTINUOUS
 62
     7
 10
-364.856492369004
 20
-38.3162363305864
 30
0.0
 11
-361.902069091797
 21
-37.7952919006348
 31
0.0
  0
LINE
  5
    35
  8
0
  6
CONTINUOUS
 62
     7
 10
-361.902069091797
 20
-37.7952919006348
 30
0.0
 11
-364.856492369004
 21
-37.2743474706831
 31
0.0
  0
LINE
  5
    36
  8
0
  6
CONTINUOUS
 62
     7
 10
-367.69764581459
 20
-37.2743474706831
 30
0.0
 11
-370.652069091797
 21
-37.7952919006348
 31
0.0
  0
LINE
  5
    37
  8
0
  6
CONTINUOUS
 62
     7
 10
-370.652069091797
 20
-37.7952919006348
 30
0.0
 11
-367.69764581459
 21
-38.3162363305864
 31
0.0
  0
ENDBLK
  5
    38
  8
0
  6
CONTINUOUS
 62
     7
  0
BLOCK
  5
    39
  8
0
  6
CONTINUOUS
 62
     7
  2
*UDIM2313
 70
    65
 10
0.0
 20
0.0
 30
0.0
  3
*UDIM2313
  0
TEXT
  5
    3A
  8
0
  6
CONTINUOUS
 62
     7
 10
-387.927068737876
 20
-36.7952918961125
 30
0.0
 40
3.00000002980232
  1
35
 50
359.999999896069
 41
0.933333333333333
 72
     1
 11
-385.427068710327
 21
-35.2952918857336
 31
0.0
 73
     2
  0
LINE
  5
    3B
  8
0
  6
CONTINUOUS
 62
     7
 10
-379.402069091797
 20
-49.493374841235
 30
0.0
 11
-379.402069091797
 21
-35.7952919006348
 31
0.0
  0
LINE
  5
    3C
  8
0
  6
CONTINUOUS
 62
     7
 10
-370.652069091797
 20
-37.7952919006348
 30
0.0
 11
-387.927068735162
 21
-37.7952919006348
 31
0.0
  0
LINE
  5
    3D
  8
0
  6
CONTINUOUS
 62
     7
 10
-373.606492369004
 20
-38.3162363305864
 30
0.0
 11
-370.652069091797
 21
-37.7952919006348
 31
0.0
  0
LINE
  5
    3E
  8
0
  6
CONTINUOUS
 62
     7
 10
-370.652069091797
 20
-37.7952919006348
 30
0.0
 11
-373.606492369004
 21
-37.2743474706831
 31
0.0
  0
LINE
  5
    3F
  8
0
  6
CONTINUOUS
 62
     7
 10
-376.44764581459
 20
-37.2743474706831
 30
0.0
 11
-379.402069091797
 21
-37.7952919006348
 31
0.0
  0
LINE
  5
    40
  8
0
  6
CONTINUOUS
 62
     7
 10
-379.402069091797
 20
-37.7952919006348
 30
0.0
 11
-376.44764581459
 21
-38.3162363305864
 31
0.0
  0
ENDBLK
  5
    41
  8
0
  6
CONTINUOUS
 62
     7
  0
BLOCK
  5
    42
  8
0
  6
CONTINUOUS
 62
     7
  2
*UDIM2314
 70
    65
 10
0.0
 20
0.0
 30
0.0
  3
*UDIM2314
  0
TEXT
  5
    43
  8
0
  6
CONTINUOUS
 62
     7
 10
-367.677068737876
 20
-116.910736079462
 30
0.0
 40
3.00000002980232
  1
45
 50
359.999999896069
 41
0.933333333333333
 72
     1
 11
-365.177068710327
 21
-115.410736069083
 31
0.0
 73
     2
  0
LINE
  5
    44
  8
0
  6
CONTINUOUS
 62
     7
 10
-370.652069091797
 20
-106.63209761173
 30
0.0
 11
-370.652069091797
 21
-119.910736083984
 31
0.0
  0
LINE
  5
    45
  8
0
  6
CONTINUOUS
 62
     7
 10
-381.902069091797
 20
-93.2830639375242
 30
0.0
 11
-381.902069091797
 21
-119.910736083984
 31
0.0
  0
LINE
  5
    46
  8
0
  6
CONTINUOUS
 62
     7
 10
-362.677068685492
 20
-117.910736083984
 30
0.0
 11
-381.902069091797
 21
-117.910736083984
 31
0.0
  0
LINE
  5
    47
  8
0
  6
CONTINUOUS
 62
     7
 10
-373.606492369004
 20
-118.431680513936
 30
0.0
 11
-370.652069091797
 21
-117.910736083984
 31
0.0
  0
LINE
  5
    48
  8
0
  6
CONTINUOUS
 62
     7
 10
-370.652069091797
 20
-117.910736083984
 30
0.0
 11
-373.606492369004
 21
-117.389791654033
 31
0.0
  0
LINE
  5
    49
  8
0
  6
CONTINUOUS
 62
     7
 10
-378.94764581459
 20
-117.389791654033
 30
0.0
 11
-381.902069091797
 21
-117.910736083984
 31
0.0
  0
LINE
  5
    4A
  8
0
  6
CONTINUOUS
 62
     7
 10
-381.902069091797
 20
-117.910736083984
 30
0.0
 11
-378.94764581459
 21
-118.431680513936
 31
0.0
  0
ENDBLK
  5
    4B
  8
0
  6
CONTINUOUS
 62
     7
  0
BLOCK
  5
    4C
  8
0
  6
CONTINUOUS
 62
     7
  2
*UDIM2315
 70
    65
 10
0.0
 20
0.0
 30
0.0
  3
*UDIM2315
  0
TEXT
  5
    4D
  8
0
  6
CONTINUOUS
 62
     7
 10
-361.427068737876
 20
-107.740047450312
 30
0.0
 40
3.00000002980232
  1
25
 50
359.999999896069
 41
0.933333333333333
 72
     1
 11
-358.927068710327
 21
-106.240047439933
 31
0.0
 73
     2
  0
LINE
  5
    4E
  8
0
  6
CONTINUOUS
 62
     7
 10
-364.402069091797
 20
-93.4086897946119
 30
0.0
 11
-364.402069091797
 21
-110.740047454834
 31
0.0
  0
LINE
  5
    4F
  8
0
  6
CONTINUOUS
 62
     7
 10
-370.652069091797
 20
-106.63209761173
 30
0.0
 11
-370.652069091797
 21
-110.740047454834
 31
0.0
  0
LINE
  5
    50
  8
0
  6
CONTINUOUS
 62
     7
 10
-356.427068685492
 20
-108.740047454834
 30
0.0
 11
-370.652069091797
 21
-108.740047454834
 31
0.0
  0
LINE
  5
    51
  8
0
  6
CONTINUOUS
 62
     7
 10
-361.44764581459
 20
-108.219103024882
 30
0.0
 11
-364.402069091797
 21
-108.740047454834
 31
0.0
  0
LINE
  5
    52
  8
0
  6
CONTINUOUS
 62
     7
 10
-364.402069091797
 20
-108.740047454834
 30
0.0
 11
-361.44764581459
 21
-109.260991884786
 31
0.0
  0
LINE
  5
    53
  8
0
  6
CONTINUOUS
 62
     7
 10
-373.606492369004
 20
-109.260991884786
 30
0.0
 11
-370.652069091797
 21
-108.740047454834
 31
0.0
  0
LINE
  5
    54
  8
0
  6
CONTINUOUS
 62
     7
 10
-370.652069091797
 20
-108.740047454834
 30
0.0
 11
-373.606492369004
 21
-108.219103024882
 31
0.0
  0
ENDBLK
  5
    55
  8
0
  6
CONTINUOUS
 62
     7
  0
BLOCK
  5
    56
  8
0
  6
CONTINUOUS
 62
     7
  2
*UDIM2316
 70
    65
 10
0.0
 20
0.0
 30
0.0
  3
*UDIM2316
  0
TEXT
  5
    57
  8
0
  6
CONTINUOUS
 62
     7
 10
-344.835033423798
 20
-78.2291816030827
 30
0.0
 40
3.00000002980232
  1
100
 50
449.999999896069
 41
0.933333333333333
 72
     1
 11
-346.335033431649
 21
-74.3291815616282
 31
0.0
 73
     2
  0
LINE
  5
    58
  8
0
  6
CONTINUOUS
 62
     7
 10
-359.861094619444
 20
-61.5541842738774
 30
0.0
 11
-341.835033416748
 21
-61.5541899325551
 31
0.0
  0
LINE
  5
    59
  8
0
  6
CONTINUOUS
 62
     7
 10
-360.237972190707
 20
-86.5541842738774
 30
0.0
 11
-341.835033416748
 21
-86.5541900508632
 31
0.0
  0
LINE
  5
    5A
  8
0
  6
CONTINUOUS
 62
     7
 10
-343.835033416748
 20
-61.5541893047221
 30
0.0
 11
-343.835033416748
 21
-86.5541894230302
 31
0.0
  0
LINE
  5
    5B
  8
0
  6
CONTINUOUS
 62
     7
 10
-343.314088986796
 20
-64.5086125819291
 30
0.0
 11
-343.835033416748
 21
-61.5541893047221
 31
0.0
  0
LINE
  5
    5C
  8
0
  6
CONTINUOUS
 62
     7
 10
-343.835033416748
 20
-61.5541893047221
 30
0.0
 11
-344.3559778467
 21
-64.5086125819291
 31
0.0
  0
LINE
  5
    5D
  8
0
  6
CONTINUOUS
 62
     7
 10
-344.3559778467
 20
-83.5997661458233
 30
0.0
 11
-343.835033416748
 21
-86.5541894230302
 31
0.0
  0
LINE
  5
    5E
  8
0
  6
CONTINUOUS
 62
     7
 10
-343.835033416748
 20
-86.5541894230302
 30
0.0
 11
-343.314088986796
 21
-83.5997661458233
 31
0.0
  0
ENDBLK
  5
    5F
  8
0
  6
CONTINUOUS
 62
     7
  0
BLOCK
  5
    60
  8
0
  6
CONTINUOUS
 62
     7
  2
*UDIM2317
 70
    65
 10
0.0
 20
0.0
 30
0.0
  3
*UDIM2317
  0
TEXT
  5
    61
  8
0
  6
CONTINUOUS
 62
     7
 10
-416.146607008227
 20
-106.911767666559
 30
0.0
 40
3.00000002980232
  1
5
 50
392.168847725592
 41
0.933333333333334
 72
     1
 11
-416.014100129517
 21
-105.056385766292
 31
0.0
 73
     2
  0
TEXT
  5
    62
  8
0
  6
CONTINUOUS
 62
     7
 10
-418.813027742459
 20
-108.588878435304
 30
0.0
 40
3.00000002980232
  1
Ø
 50
392.168847725592
 41
0.933333333333334
 72
     1
 11
-418.680520863749
 21
-106.733496535037
 31
0.0
 73
     2
  0
TEXT
  5
    63
  8
0
  6
CONTINUOUS
 62
     7
 10
-413.818779367246
 20
-105.4476233227
 30
0.0
 40
3.00000002980232
  1
 (M4)
 50
392.168847725592
 41
0.933333333333333
 72
     1
 11
-408.945968923478
 21
-100.610711155243
 31
0.0
 73
     2
  0
LINE
  5
    64
  8
0
  6
CONTINUOUS
 62
     7
 10
-381.373017360483
 20
-86.2214238878466
 30
0.0
 11
-418.280611623721
 21
-109.435361205646
 31
0.0
  0
LINE
  5
    65
  8
0
  6
CONTINUOUS
 62
     7
 10
-379.149508170462
 20
-84.2074708392644
 30
0.0
 11
-381.373017360483
 21
-86.2214238878466
 31
0.0
  0
LINE
  5
    66
  8
0
  6
CONTINUOUS
 62
     7
 10
-381.373017360483
 20
-86.2214238878466
 30
0.0
 11
-378.594789751012
 21
-85.0894118075344
 31
0.0
  0
LINE
  5
    67
  8
0
  6
CONTINUOUS
 62
     7
 10
-384.654630013132
 20
-88.9008970806575
 30
0.0
 11
-382.431120823111
 21
-86.8869440320752
 31
0.0
  0
LINE
  5
    68
  8
0
  6
CONTINUOUS
 62
     7
 10
-382.431120823111
 20
-86.8869440320752
 30
0.0
 11
-385.209348432582
 21
-88.0189561123874
 31
0.0
  0
ENDBLK
  5
    69
  8
0
  6
CONTINUOUS
 62
     7
  0
BLOCK
  5
    6A
  8
0
  6
CONTINUOUS
 62
     7
  2
*HATCH1308
 70
    65
 10
0.0
 20
0.0
 30
0.0
  3
*HATCH1308
  0
LINE
  5
    6B
  8
0
  6
CONTINUOUS
 62
    52
 10
186.918792724609
 20
-4.00005149841309
 30
0.0
 11
184.918792724609
 21
-6.00005149841309
 31
0.0
  0
LINE
  5
    6C
  8
0
  6
CONTINUOUS
 62
    52
 10
191.161437988281
 20
-4.00005149841309
 30
0.0
 11
189.161437988281
 21
-6.00005149841309
 31
0.0
  0
LINE
  5
    6D
  8
0
  6
CONTINUOUS
 62
    52
 10
195.404083251953
 20
-4.00005149841309
 30
0.0
 11
193.404083251953
 21
-6.00005149841309
 31
0.0
  0
LINE
  5
    6E
  8
0
  6
CONTINUOUS
 62
    52
 10
199.646728515625
 20
-4.00005149841309
 30
0.0
 11
197.646728515625
 21
-6.00005149841309
 31
0.0
  0
LINE
  5
    6F
  8
0
  6
CONTINUOUS
 62
    52
 10
203.889373779297
 20
-4.00005149841309
 30
0.0
 11
201.889373779297
 21
-6.00005149841309
 31
0.0
  0
LINE
  5
    70
  8
0
  6
CONTINUOUS
 62
    52
 10
208.132019042969
 20
-4.00005149841309
 30
0.0
 11
206.132019042969
 21
-6.00005149841309
 31
0.0
  0
LINE
  5
    71
  8
0
  6
CONTINUOUS
 62
    52
 10
212.374664306641
 20
-4.00005149841309
 30
0.0
 11
210.374664306641
 21
-6.00005149841309
 31
0.0
  0
LINE
  5
    72
  8
0
  6
CONTINUOUS
 62
    52
 10
216.617309570313
 20
-4.00005149841309
 30
0.0
 11
214.617309570313
 21
-6.00005149841309
 31
0.0
  0
LINE
  5
    73
  8
0
  6
CONTINUOUS
 62
    52
 10
220.859954833984
 20
-4.00005149841309
 30
0.0
 11
218.859954833984
 21
-6.00005149841309
 31
0.0
  0
LINE
  5
    74
  8
0
  6
CONTINUOUS
 62
    52
 10
225.102600097656
 20
-4.00005149841309
 30
0.0
 11
223.102600097656
 21
-6.00005149841309
 31
0.0
  0
LINE
  5
    75
  8
0
  6
CONTINUOUS
 62
    52
 10
229.345245361328
 20
-4.00005149841309
 30
0.0
 11
227.345245361328
 21
-6.00005149841309
 31
0.0
  0
LINE
  5
    76
  8
0
  6
CONTINUOUS
 62
    52
 10
233.587890625
 20
-4.00005149841309
 30
0.0
 11
231.587890625
 21
-6.00005149841309
 31
0.0
  0
LINE
  5
    77
  8
0
  6
CONTINUOUS
 62
    52
 10
237.830535888672
 20
-4.00005149841309
 30
0.0
 11
235.830535888672
 21
-6.00005149841309
 31
0.0
  0
LINE
  5
    78
  8
0
  6
CONTINUOUS
 62
    52
 10
242.073181152344
 20
-4.00005149841309
 30
0.0
 11
240.073181152344
 21
-6.00005149841309
 31
0.0
  0
LINE
  5
    79
  8
0
  6
CONTINUOUS
 62
    52
 10
246.315826416016
 20
-4.00005149841309
 30
0.0
 11
244.315826416016
 21
-6.00005149841309
 31
0.0
  0
ENDBLK
  5
    7A
  8
0
  6
CONTINUOUS
 62
     7
  0
BLOCK
  5
    7B
  8
0
  6
CONTINUOUS
 62
     7
  2
*HATCH1309
 70
    65
 10
0.0
 20
0.0
 30
0.0
  3
*HATCH1309
  0
LINE
  5
    7C
  8
0
  6
CONTINUOUS
 62
    52
 10
169.948226928711
 20
-4.00005149841309
 30
0.0
 11
167.948226928711
 21
-6.00005149841309
 31
0.0
  0
LINE
  5
    7D
  8
0
  6
CONTINUOUS
 62
    52
 10
174.190872192383
 20
-4.00005149841309
 30
0.0
 11
172.190872192383
 21
-6.00005149841309
 31
0.0
  0
LINE
  5
    7E
  8
0
  6
CONTINUOUS
 62
    52
 10
177.480621337891
 20
-4.95293474197388
 30
0.0
 11
176.433502197266
 21
-6.00005149841309
 31
0.0
  0
ENDBLK
  5
    7F
  8
0
  6
CONTINUOUS
 62
     7
  0
BLOCK
  5
    80
  8
0
  6
CONTINUOUS
 62
     7
  2
*HATCH1310
 70
    65
 10
0.0
 20
0.0
 30
0.0
  3
*HATCH1310
  0
LINE
  5
    81
  8
0
  6
CONTINUOUS
 62
    52
 10
44.7903175354004
 20
-4.00005149841309
 30
0.0
 11
42.7903175354004
 21
-6.00005149841309
 31
0.0
  0
LINE
  5
    82
  8
0
  6
CONTINUOUS
 62
    52
 10
49.0329551696777
 20
-4.00005149841309
 30
0.0
 11
47.0329551696777
 21
-6.00005149841309
 31
0.0
  0
LINE
  5
    83
  8
0
  6
CONTINUOUS
 62
    52
 10
53.2755928039551
 20
-4.00005149841309
 30
0.0
 11
51.2755928039551
 21
-6.00005149841309
 31
0.0
  0
ENDBLK
  5
    84
  8
0
  6
CONTINUOUS
 62
     7
  0
BLOCK
  5
    85
  8
0
  6
CONTINUOUS
 62
     7
  2
*HATCH1311
 70
    65
 10
0.0
 20
0.0
 30
0.0
  3
*HATCH1311
  0
LINE
  5
    86
  8
0
  6
CONTINUOUS
 62
    52
 10
-8.2426929473877
 20
-4.00005149841309
 30
0.0
 11
-10.2426929473877
 21
-6.00005149841309
 31
0.0
  0
LINE
  5
    87
  8
0
  6
CONTINUOUS
 62
    52
 10
-4.00005149841309
 20
-4.00005149841309
 30
0.0
 11
-6.00005149841309
 21
-6.00005149841309
 31
0.0
  0
LINE
  5
    88
  8
0
  6
CONTINUOUS
 62
    52
 10
0.242589473724365
 20
-4.00005149841309
 30
0.0
 11
-1.75741052627563
 21
-6.00005149841309
 31
0.0
  0
LINE
  5
    89
  8
0
  6
CONTINUOUS
 62
    52
 10
4.48523044586182
 20
-4.00005149841309
 30
0.0
 11
2.48523044586182
 21
-6.00005149841309
 31
0.0
  0
LINE
  5
    8A
  8
0
  6
CONTINUOUS
 62
    52
 10
8.72787189483643
 20
-4.00005149841309
 30
0.0
 11
6.72787189483643
 21
-6.00005149841309
 31
0.0
  0
LINE
  5
    8B
  8
0
  6
CONTINUOUS
 62
    52
 10
12.970513343811
 20
-4.00005149841309
 30
0.0
 11
10.970513343811
 21
-6.00005149841309
 31
0.0
  0
LINE
  5
    8C
  8
0
  6
CONTINUOUS
 62
    52
 10
17.2131538391113
 20
-4.00005149841309
 30
0.0
 11
15.2131547927856
 21
-6.00005149841309
 31
0.0
  0
LINE
  5
    8D
  8
0
  6
CONTINUOUS
 62
    52
 10
21.4557952880859
 20
-4.00005149841309
 30
0.0
 11
19.4557952880859
 21
-6.00005149841309
 31
0.0
  0
LINE
  5
    8E
  8
0
  6
CONTINUOUS
 62
    52
 10
25.6984367370606
 20
-4.00005149841309
 30
0.0
 11
23.6984367370605
 21
-6.00005149841309
 31
0.0
  0
LINE
  5
    8F
  8
0
  6
CONTINUOUS
 62
    52
 10
29.9410781860352
 20
-4.00005149841309
 30
0.0
 11
27.9410781860352
 21
-6.00005149841309
 31
0.0
  0
LINE
  5
    90
  8
0
  6
CONTINUOUS
 62
    52
 10
34.1837158203125
 20
-4.00005149841309
 30
0.0
 11
32.1837196350098
 21
-6.00005149841309
 31
0.0
  0
ENDBLK
  5
    91
  8
0
  6
CONTINUOUS
 62
     7
  0
BLOCK
  5
    92
  8
0
  6
CONTINUOUS
 62
     7
  2
*UDIM2318
 70
    65
 10
0.0
 20
0.0
 30
0.0
  3
*UDIM2318
  0
TEXT
  5
    93
  8
0
  6
CONTINUOUS
 62
     7
 10
-269.773260536318
 20
59.0358133338589
 30
0.0
 40
3.00000002980232
  1
83
 50
359.999999948034
 41
0.933333333333333
 72
     1
 11
-267.27326051013
 21
60.5358133465052
 31
0.0
 73
     2
  0
LINE
  5
    94
  8
0
  6
CONTINUOUS
 62
     7
 10
-287.698257446289
 20
81.0175447463989
 30
0.0
 11
-287.698257446289
 21
56.035813331604
 31
0.0
  0
LINE
  5
    95
  8
0
  6
CONTINUOUS
 62
     7
 10
-246.298261356678
 20
58.035813331604
 30
0.0
 11
-287.698257446289
 21
58.035813331604
 31
0.0
  0
LINE
  5
    96
  8
0
  6
CONTINUOUS
 62
     7
 10
-249.252684633885
 20
57.5148689016523
 30
0.0
 11
-246.298261356678
 21
58.035813331604
 31
0.0
  0
LINE
  5
    97
  8
0
  6
CONTINUOUS
 62
     7
 10
-246.298261356678
 20
58.035813331604
 30
0.0
 11
-249.252684633885
 21
58.5567577615557
 31
0.0
  0
LINE
  5
    98
  8
0
  6
CONTINUOUS
 62
     7
 10
-284.743834169082
 20
58.5567577615557
 30
0.0
 11
-287.698257446289
 21
58.035813331604
 31
0.0
  0
LINE
  5
    99
  8
0
  6
CONTINUOUS
 62
     7
 10
-287.698257446289
 20
58.035813331604
 30
0.0
 11
-284.743834169082
 21
57.5148689016523
 31
0.0
  0
ENDBLK
  5
    9A
  8
0
  6
CONTINUOUS
 62
     7
  0
BLOCK
  5
    9B
  8
0
  6
CONTINUOUS
 62
     7
  2
*UDIM2319
 70
    65
 10
0.0
 20
0.0
 30
0.0
  3
*UDIM2319
  0
TEXT
  5
    9C
  8
0
  6
CONTINUOUS
 62
     7
 10
-256.773260536318
 20
68.1101655982632
 30
0.0
 40
3.00000002980232
  1
31
 50
359.999999948034
 41
0.933333333333333
 72
     1
 11
-254.27326051013
 21
69.6101656109095
 31
0.0
 73
     2
  0
LINE
  5
    9D
  8
0
  6
CONTINUOUS
 62
     7
 10
-261.698257446289
 20
81.0175447463989
 30
0.0
 11
-261.698257446289
 21
65.1101655960083
 31
0.0
  0
LINE
  5
    9E
  8
0
  6
CONTINUOUS
 62
     7
 10
-246.298261356678
 20
67.1101655960083
 30
0.0
 11
-261.698257446289
 21
67.1101655960083
 31
0.0
  0
LINE
  5
    9F
  8
0
  6
CONTINUOUS
 62
     7
 10
-249.252684633885
 20
66.5892211660566
 30
0.0
 11
-246.298261356678
 21
67.1101655960083
 31
0.0
  0
LINE
  5
    A0
  8
0
  6
CONTINUOUS
 62
     7
 10
-246.298261356678
 20
67.1101655960083
 30
0.0
 11
-249.252684633885
 21
67.63111002596
 31
0.0
  0
LINE
  5
    A1
  8
0
  6
CONTINUOUS
 62
     7
 10
-258.743834169082
 20
67.63111002596
 30
0.0
 11
-261.698257446289
 21
67.1101655960083
 31
0.0
  0
LINE
  5
    A2
  8
0
  6
CONTINUOUS
 62
     7
 10
-261.698257446289
 20
67.1101655960083
 30
0.0
 11
-258.743834169082
 21
66.5892211660566
 31
0.0
  0
ENDBLK
  5
    A3
  8
0
  6
CONTINUOUS
 62
     7
  0
BLOCK
  5
    A4
  8
0
  6
CONTINUOUS
 62
     7
  2
*UDIM2320
 70
    65
 10
0.0
 20
0.0
 30
0.0
  3
*UDIM2320
  0
TEXT
  5
    A5
  8
0
  6
CONTINUOUS
 62
     7
 10
-302.706146246303
 20
62.1050599313104
 30
0.0
 40
3.00000002980232
  1
73,75
 50
89.9999999480344
 41
0.933333333333333
 72
     1
 11
-304.206146255136
 21
68.8050599992275
 31
0.0
 73
     2
  0
LINE
  5
    A6
  8
0
  6
CONTINUOUS
 62
     7
 10
-255.477257729068
 20
50.6425523757935
 30
0.0
 11
-303.706146240234
 21
50.6425523757935
 31
0.0
  0
LINE
  5
    A7
  8
0
  6
CONTINUOUS
 62
     7
 10
-301.706146240234
 20
50.6425523757935
 30
0.0
 11
-301.706146240234
 21
87.517560005188
 31
0.0
  0
LINE
  5
    A8
  8
0
  6
CONTINUOUS
 62
     7
 10
-302.227090670186
 20
53.5969756530004
 30
0.0
 11
-301.706146240234
 21
50.6425523757935
 31
0.0
  0
LINE
  5
    A9
  8
0
  6
CONTINUOUS
 62
     7
 10
-301.706146240234
 20
50.6425523757935
 30
0.0
 11
-301.185201810283
 21
53.5969756530004
 31
0.0
  0
LINE
  5
    AA
  8
0
  6
CONTINUOUS
 62
     7
 10
-301.185201810283
 20
84.563136727981
 30
0.0
 11
-301.706146240234
 21
87.517560005188
 31
0.0
  0
LINE
  5
    AB
  8
0
  6
CONTINUOUS
 62
     7
 10
-301.706146240234
 20
87.517560005188
 30
0.0
 11
-302.227090670186
 21
84.563136727981
 31
0.0
  0
ENDBLK
  5
    AC
  8
0
  6
CONTINUOUS
 62
     7
  0
BLOCK
  5
    AD
  8
0
  6
CONTINUOUS
 62
     7
  2
*UDIM2321
 70
    65
 10
0.0
 20
0.0
 30
0.0
  3
*UDIM2321
  0
TEXT
  5
    AE
  8
0
  6
CONTINUOUS
 62
     7
 10
-164.048253167035
 20
-17.3546113957974
 30
0.0
 40
3.00000002980232
  1
2
 50
359.999999948034
 41
0.933333333333334
 72
     1
 11
-162.948253154755
 21
-15.8546113818884
 31
0.0
 73
     2
  0
LINE
  5
    AF
  8
0
  6
CONTINUOUS
 62
     7
 10
-167.048253059387
 20
-11.525629381126
 30
0.0
 11
-167.048253059387
 21
-20.3546113967896
 31
0.0
  0
LINE
  5
    B0
  8
0
  6
CONTINUOUS
 62
     7
 10
-168.048253059387
 20
-11.2307863317987
 30
0.0
 11
-168.048253059387
 21
-20.3546113967896
 31
0.0
  0
LINE
  5
    B1
  8
0
  6
CONTINUOUS
 62
     7
 10
-161.848253143827
 20
-18.3546113967896
 30
0.0
 11
-168.048253059387
 21
-18.3546113967896
 31
0.0
  0
LINE
  5
    B2
  8
0
  6
CONTINUOUS
 62
     7
 10
-164.09382978218
 20
-17.8336669668379
 30
0.0
 11
-167.048253059387
 21
-18.3546113967896
 31
0.0
  0
LINE
  5
    B3
  8
0
  6
CONTINUOUS
 62
     7
 10
-167.048253059387
 20
-18.3546113967896
 30
0.0
 11
-164.09382978218
 21
-18.8755558267412
 31
0.0
  0
LINE
  5
    B4
  8
0
  6
CONTINUOUS
 62
     7
 10
-171.002676336594
 20
-18.8755558267412
 30
0.0
 11
-168.048253059387
 21
-18.3546113967896
 31
0.0
  0
LINE
  5
    B5
  8
0
  6
CONTINUOUS
 62
     7
 10
-168.048253059387
 20
-18.3546113967896
 30
0.0
 11
-171.002676336594
 21
-17.8336669668379
 31
0.0
  0
ENDBLK
  5
    B6
  8
0
  6
CONTINUOUS
 62
     7
  0
BLOCK
  5
    B7
  8
0
  6
CONTINUOUS
 62
     7
  2
*UDIM2322
 70
    65
 10
0.0
 20
0.0
 30
0.0
  3
*UDIM2322
  0
TEXT
  5
    B8
  8
0
  6
CONTINUOUS
 62
     7
 10
-214.148259815102
 20
-17.3546113907465
 30
0.0
 40
3.00000002980232
  1
156,5
 50
359.999999948034
 41
0.933333333333333
 72
     1
 11
-207.44825974719
 21
-15.8546113818884
 31
0.0
 73
     2
  0
LINE
  5
    B9
  8
0
  6
CONTINUOUS
 62
     7
 10
-246.298268986072
 20
-3.75723801372406
 30
0.0
 11
-246.298268986072
 21
-20.3546113967896
 31
0.0
  0
LINE
  5
    BA
  8
0
  6
CONTINUOUS
 62
     7
 10
-168.048253059387
 20
-18.3546113967896
 30
0.0
 11
-246.298268986072
 21
-18.3546113967896
 31
0.0
  0
LINE
  5
    BB
  8
0
  6
CONTINUOUS
 62
     7
 10
-171.002676336594
 20
-18.8755558267412
 30
0.0
 11
-168.048253059387
 21
-18.3546113967896
 31
0.0
  0
LINE
  5
    BC
  8
0
  6
CONTINUOUS
 62
     7
 10
-168.048253059387
 20
-18.3546113967896
 30
0.0
 11
-171.002676336594
 21
-17.8336669668379
 31
0.0
  0
LINE
  5
    BD
  8
0
  6
CONTINUOUS
 62
     7
 10
-243.343845708865
 20
-17.8336669668379
 30
0.0
 11
-246.298268986072
 21
-18.3546113967896
 31
0.0
  0
LINE
  5
    BE
  8
0
  6
CONTINUOUS
 62
     7
 10
-246.298268986072
 20
-18.3546113967896
 30
0.0
 11
-243.343845708865
 21
-18.8755558267412
 31
0.0
  0
ENDBLK
  5
    BF
  8
0
  6
CONTINUOUS
 62
     7
  0
BLOCK
  5
    C0
  8
0
  6
CONTINUOUS
 62
     7
  2
*UDIM2323
 70
    65
 10
0.0
 20
0.0
 30
0.0
  3
*UDIM2323
  0
TEXT
  5
    C1
  8
0
  6
CONTINUOUS
 62
     7
 10
-310.06303406115
 20
47.5925523297314
 30
0.0
 40
3.00000002980232
  1
143
 50
89.9999999480344
 41
0.933333333333333
 72
     1
 11
-311.563034072518
 21
51.492552369833
 31
0.0
 73
     2
  0
LINE
  5
    C2
  8
0
  6
CONTINUOUS
 62
     7
 10
-301.981320444138
 20
16.0175447463989
 30
0.0
 11
-311.063034057617
 21
16.0175447463989
 31
0.0
  0
LINE
  5
    C3
  8
0
  6
CONTINUOUS
 62
     7
 10
-302.231369158775
 20
87.517560005188
 30
0.0
 11
-311.063034057617
 21
87.517560005188
 31
0.0
  0
LINE
  5
    C4
  8
0
  6
CONTINUOUS
 62
     7
 10
-309.063034057617
 20
16.0175447463989
 30
0.0
 11
-309.063034057617
 21
87.517560005188
 31
0.0
  0
LINE
  5
    C5
  8
0
  6
CONTINUOUS
 62
     7
 10
-309.583978487569
 20
18.9719680236059
 30
0.0
 11
-309.063034057617
 21
16.0175447463989
 31
0.0
  0
LINE
  5
    C6
  8
0
  6
CONTINUOUS
 62
     7
 10
-309.063034057617
 20
16.0175447463989
 30
0.0
 11
-308.542089627666
 21
18.9719680236059
 31
0.0
  0
LINE
  5
    C7
  8
0
  6
CONTINUOUS
 62
     7
 10
-308.542089627666
 20
84.563136727981
 30
0.0
 11
-309.063034057617
 21
87.517560005188
 31
0.0
  0
LINE
  5
    C8
  8
0
  6
CONTINUOUS
 62
     7
 10
-309.063034057617
 20
87.517560005188
 30
0.0
 11
-309.583978487569
 21
84.563136727981
 31
0.0
  0
ENDBLK
  5
    C9
  8
0
  6
CONTINUOUS
 62
     7
  0
BLOCK
  5
    CA
  8
0
  6
CONTINUOUS
 62
     7
  2
*UDIM2324
 70
    65
 10
0.0
 20
0.0
 30
0.0
  3
*UDIM2324
  0
TEXT
  5
    CB
  8
0
  6
CONTINUOUS
 62
     7
 10
-257.633819356846
 20
-7.79196262260405
 30
0.0
 40
3.00000002980232
  1
3
 50
359.999999948034
 41
0.933333333333334
 72
     1
 11
-256.533819344565
 21
-6.29196260869503
 31
0.0
 73
     2
  0
LINE
  5
    CC
  8
0
  6
CONTINUOUS
 62
     7
 10
-246.29827066676
 20
-3.75723801372264
 30
0.0
 11
-246.298282489936
 21
-10.7919626235934
 31
0.0
  0
LINE
  5
    CD
  8
0
  6
CONTINUOUS
 62
     7
 10
-247.798263863721
 20
-3.80535042472638
 30
0.0
 11
-247.798266056934
 21
-10.7919626235961
 31
0.0
  0
LINE
  5
    CE
  8
0
  6
CONTINUOUS
 62
     7
 10
-246.29827912856
 20
-8.79196262359619
 30
0.0
 11
-257.633819355493
 21
-8.79196262359619
 31
0.0
  0
LINE
  5
    CF
  8
0
  6
CONTINUOUS
 62
     7
 10
-243.343855851353
 20
-8.27101819364453
 30
0.0
 11
-246.29827912856
 21
-8.79196262359619
 31
0.0
  0
LINE
  5
    D0
  8
0
  6
CONTINUOUS
 62
     7
 10
-246.29827912856
 20
-8.79196262359619
 30
0.0
 11
-243.343855851353
 21
-9.31290705354786
 31
0.0
  0
LINE
  5
    D1
  8
0
  6
CONTINUOUS
 62
     7
 10
-250.752688706308
 20
-9.31290705354786
 30
0.0
 11
-247.798265429101
 21
-8.79196262359619
 31
0.0
  0
LINE
  5
    D2
  8
0
  6
CONTINUOUS
 62
     7
 10
-247.798265429101
 20
-8.79196262359619
 30
0.0
 11
-250.752688706308
 21
-8.27101819364453
 31
0.0
  0
ENDBLK
  5
    D3
  8
0
  6
CONTINUOUS
 62
     7
  0
BLOCK
  5
    D4
  8
0
  6
CONTINUOUS
 62
     7
  2
*UDIM2325
 70
    65
 10
0.0
 20
0.0
 30
0.0
  3
*UDIM2325
  0
TEXT
  5
    D5
  8
0
  6
CONTINUOUS
 62
     7
 10
-212.222916454363
 20
-7.7919626200786
 30
0.0
 40
3.00000002980232
  1
153
 50
359.999999948034
 41
0.933333333333333
 72
     1
 11
-208.322916414267
 21
-6.29196260869503
 31
0.0
 73
     2
  0
LINE
  5
    D6
  8
0
  6
CONTINUOUS
 62
     7
 10
-169.797585784892
 20
23.392552377621
 30
0.0
 11
-169.797596515974
 21
-10.7919626235961
 31
0.0
  0
LINE
  5
    D7
  8
0
  6
CONTINUOUS
 62
     7
 10
-246.29827066676
 20
-3.75723801372264
 30
0.0
 11
-246.298282489936
 21
-10.7919626235934
 31
0.0
  0
LINE
  5
    D8
  8
0
  6
CONTINUOUS
 62
     7
 10
-169.797595888141
 20
-8.79196262359619
 30
0.0
 11
-246.29827912856
 21
-8.79196262359619
 31
0.0
  0
LINE
  5
    D9
  8
0
  6
CONTINUOUS
 62
     7
 10
-172.752019165348
 20
-9.31290705354786
 30
0.0
 11
-169.797595888141
 21
-8.79196262359619
 31
0.0
  0
LINE
  5
    DA
  8
0
  6
CONTINUOUS
 62
     7
 10
-169.797595888141
 20
-8.79196262359619
 30
0.0
 11
-172.752019165348
 21
-8.27101819364453
 31
0.0
  0
LINE
  5
    DB
  8
0
  6
CONTINUOUS
 62
     7
 10
-243.343855851353
 20
-8.27101819364453
 30
0.0
 11
-246.29827912856
 21
-8.79196262359619
 31
0.0
  0
LINE
  5
    DC
  8
0
  6
CONTINUOUS
 62
     7
 10
-246.29827912856
 20
-8.79196262359619
 30
0.0
 11
-243.343855851353
 21
-9.31290705354786
 31
0.0
  0
ENDBLK
  5
    DD
  8
0
  6
CONTINUOUS
 62
     7
  0
BLOCK
  5
    DE
  8
0
  6
CONTINUOUS
 62
     7
  2
*UDIM2326
 70
    65
 10
0.0
 20
0.0
 30
0.0
  3
*UDIM2326
  0
TEXT
  5
    DF
  8
0
  6
CONTINUOUS
 62
     7
 10
-207.136983547935
 20
-25.204701417602
 30
0.0
 40
3.00000002980232
  1
184,5
 50
359.999999948034
 41
0.933333333333333
 72
     1
 11
-200.436983480023
 21
-23.7047014087439
 31
0.0
 73
     2
  0
LINE
  5
    E0
  8
0
  6
CONTINUOUS
 62
     7
 10
-154.02570724432
 20
44.5175523757935
 30
0.0
 11
-154.025730988159
 21
-28.2047014236449
 31
0.0
  0
LINE
  5
    E1
  8
0
  6
CONTINUOUS
 62
     7
 10
-246.298269651757
 20
-3.75723801372383
 30
0.0
 11
-246.298285926077
 21
-28.2047014236446
 31
0.0
  0
LINE
  5
    E2
  8
0
  6
CONTINUOUS
 62
     7
 10
-154.025730335158
 20
-26.204701423645
 30
0.0
 11
-246.298284594706
 21
-26.204701423645
 31
0.0
  0
LINE
  5
    E3
  8
0
  6
CONTINUOUS
 62
     7
 10
-156.980153612365
 20
-26.7256458535967
 30
0.0
 11
-154.025730335158
 21
-26.204701423645
 31
0.0
  0
LINE
  5
    E4
  8
0
  6
CONTINUOUS
 62
     7
 10
-154.025730335158
 20
-26.204701423645
 30
0.0
 11
-156.980153612365
 21
-25.6837569936934
 31
0.0
  0
LINE
  5
    E5
  8
0
  6
CONTINUOUS
 62
     7
 10
-243.343861317499
 20
-25.6837569936934
 30
0.0
 11
-246.298284594706
 21
-26.204701423645
 31
0.0
  0
LINE
  5
    E6
  8
0
  6
CONTINUOUS
 62
     7
 10
-246.298284594706
 20
-26.204701423645
 30
0.0
 11
-243.343861317499
 21
-26.7256458535967
 31
0.0
  0
ENDBLK
  5
    E7
  8
0
  6
CONTINUOUS
 62
     7
  0
BLOCK
  5
    E8
  8
0
  6
CONTINUOUS
 62
     7
  2
*UDIM2327
 70
    65
 10
0.0
 20
0.0
 30
0.0
  3
*UDIM2327
  0
TEXT
  5
    E9
  8
0
  6
CONTINUOUS
 62
     7
 10
-144.247303012565
 20
46.4675523303214
 30
0.0
 40
3.00000002980232
  1
105
 50
89.9999999480344
 41
0.933333333333333
 72
     1
 11
-145.747303023934
 21
50.367552370423
 31
0.0
 73
     2
  0
LINE
  5
    EA
  8
0
  6
CONTINUOUS
 62
     7
 10
-167.048253059387
 20
24.3925523769735
 30
0.0
 11
-141.247303009033
 21
24.3925523769735
 31
0.0
  0
LINE
  5
    EB
  8
0
  6
CONTINUOUS
 62
     7
 10
-167.048253059387
 20
76.8925523757935
 30
0.0
 11
-141.247303009033
 21
76.8925523757935
 31
0.0
  0
LINE
  5
    EC
  8
0
  6
CONTINUOUS
 62
     7
 10
-143.247303009033
 20
24.3925523769735
 30
0.0
 11
-143.247303009033
 21
76.8925523757935
 31
0.0
  0
LINE
  5
    ED
  8
0
  6
CONTINUOUS
 62
     7
 10
-143.768247438985
 20
27.3469756541804
 30
0.0
 11
-143.247303009033
 21
24.3925523769735
 31
0.0
  0
LINE
  5
    EE
  8
0
  6
CONTINUOUS
 62
     7
 10
-143.247303009033
 20
24.3925523769735
 30
0.0
 11
-142.726358579082
 21
27.3469756541804
 31
0.0
  0
LINE
  5
    EF
  8
0
  6
CONTINUOUS
 62
     7
 10
-142.726358579082
 20
73.9381290985865
 30
0.0
 11
-143.247303009033
 21
76.8925523757935
 31
0.0
  0
LINE
  5
    F0
  8
0
  6
CONTINUOUS
 62
     7
 10
-143.247303009033
 20
76.8925523757935
 30
0.0
 11
-143.768247438985
 21
73.9381290985865
 31
0.0
  0
ENDBLK
  5
    F1
  8
0
  6
CONTINUOUS
 62
     7
  0
BLOCK
  5
    F2
  8
0
  6
CONTINUOUS
 62
     7
  2
MOSTRINA
 70
    64
 10
0.0
 20
0.0
 30
0.0
  3
MOSTRINA
  0
LINE
  5
    F3
  8
0
  6
CONTINUOUS
 62
     3
 10
173.338256835938
 20
30.7306251525879
 30
0.0
 11
173.338256835938
 21
189.230621337891
 31
0.0
  0
LINE
  5
    F4
  8
0
  6
CONTINUOUS
 62
     3
 10
57.5882568359375
 20
29.4806251525879
 30
0.0
 11
172.088256835938
 21
29.4806251525879
 31
0.0
  0
LINE
  5
    F5
  8
0
  6
CONTINUOUS
 62
     3
 10
56.3382568359375
 20
30.7306251525879
 30
0.0
 11
56.3382568359375
 21
189.230621337891
 31
0.0
  0
LINE
  5
    F6
  8
0
  6
CONTINUOUS
 62
     3
 10
57.5882568359375
 20
190.480621337891
 30
0.0
 11
172.088256835938
 21
190.480621337891
 31
0.0
  0
LINE
  5
    F7
  8
0
  6
CONTINUOUS
 62
     3
 10
167.838256835938
 20
56.9806251525879
 30
0.0
 11
167.838256835938
 21
162.980625152588
 31
0.0
  0
LINE
  5
    F8
  8
0
  6
CONTINUOUS
 62
     3
 10
61.8382568359375
 20
56.9806251525879
 30
0.0
 11
167.838256835938
 21
56.9806251525879
 31
0.0
  0
LINE
  5
    F9
  8
0
  6
CONTINUOUS
 62
     3
 10
61.8382568359375
 20
56.9806251525879
 30
0.0
 11
61.8382568359375
 21
162.980625152588
 31
0.0
  0
LINE
  5
    FA
  8
0
  6
CONTINUOUS
 62
     3
 10
61.8382568359375
 20
162.980621337891
 30
0.0
 11
167.838256835938
 21
162.980621337891
 31
0.0
  0
LINE
  5
    FB
  8
0
  6
CONTINUOUS
 62
     3
 10
168.838256835938
 20
48.4806251525879
 30
0.0
 11
168.838256835938
 21
49.4806251525879
 31
0.0
  0
LINE
  5
    FC
  8
0
  6
CONTINUOUS
 62
     3
 10
61.8382568359375
 20
50.4806251525879
 30
0.0
 11
167.838256835938
 21
50.4806251525879
 31
0.0
  0
LINE
  5
    FD
  8
0
  6
CONTINUOUS
 62
     3
 10
60.8382568359375
 20
48.4806251525879
 30
0.0
 11
60.8382568359375
 21
49.4806251525879
 31
0.0
  0
LINE
  5
    FE
  8
0
  6
CONTINUOUS
 62
     3
 10
61.8382568359375
 20
49.4806251525879
 30
0.0
 11
167.838256835938
 21
49.4806251525879
 31
0.0
  0
LINE
  5
    FF
  8
0
  6
CONTINUOUS
 62
     3
 10
60.8382568359375
 20
29.4806251525879
 30
0.0
 11
60.8382568359375
 21
48.4806251525879
 31
0.0
  0
LINE
  5
   100
  8
0
  6
CONTINUOUS
 62
     3
 10
60.8382568359375
 20
49.4806213378906
 30
0.0
 11
60.8382568359375
 21
190.480621337891
 31
0.0
  0
LINE
  5
   101
  8
0
  6
CONTINUOUS
 62
     3
 10
61.8382568359375
 20
29.4806251525879
 30
0.0
 11
61.8382568359375
 21
49.4806251525879
 31
0.0
  0
LINE
  5
   102
  8
0
  6
CONTINUOUS
 62
     3
 10
61.8382568359375
 20
162.980621337891
 30
0.0
 11
61.8382568359375
 21
169.480621337891
 31
0.0
  0
LINE
  5
   103
  8
0
  6
CONTINUOUS
 62
     3
 10
61.8382568359375
 20
50.4806251525879
 30
0.0
 11
61.8382568359375
 21
56.9806251525879
 31
0.0
  0
LINE
  5
   104
  8
0
  6
CONTINUOUS
 62
     3
 10
168.838256835938
 20
29.4806251525879
 30
0.0
 11
168.838256835938
 21
48.4806251525879
 31
0.0
  0
LINE
  5
   105
  8
0
  6
CONTINUOUS
 62
     3
 10
168.838256835938
 20
49.4806251525879
 30
0.0
 11
168.838256835938
 21
190.480621337891
 31
0.0
  0
LINE
  5
   106
  8
0
  6
CONTINUOUS
 62
     3
 10
167.838256835938
 20
50.4806251525879
 30
0.0
 11
167.838256835938
 21
56.9806251525879
 31
0.0
  0
LINE
  5
   107
  8
0
  6
CONTINUOUS
 62
     3
 10
167.838256835938
 20
162.980621337891
 30
0.0
 11
167.838256835938
 21
169.480621337891
 31
0.0
  0
LINE
  5
   108
  8
0
  6
CONTINUOUS
 62
     3
 10
167.838256835938
 20
29.4806251525879
 30
0.0
 11
167.838256835938
 21
49.4806251525879
 31
0.0
  0
LINE
  5
   109
  8
0
  6
CONTINUOUS
 62
     3
 10
60.8382568359375
 20
170.480621337891
 30
0.0
 11
168.838256835938
 21
170.480621337891
 31
0.0
  0
LINE
  5
   10A
  8
0
  6
CONTINUOUS
 62
     3
 10
61.8382568359375
 20
169.480621337891
 30
0.0
 11
167.838256835938
 21
169.480621337891
 31
0.0
  0
ARC
  5
   10B
  8
0
  6
CONTINUOUS
 62
     3
 10
57.5882568359375
 20
30.7306251525879
 30
0.0
 40
1.25
 50
180.0
 51
270.0
  0
ARC
  5
   10C
  8
0
  6
CONTINUOUS
 62
     3
 10
172.088256835938
 20
30.7306251525879
 30
0.0
 40
1.25
 50
270.0
 51
360.0
  0
ARC
  5
   10D
  8
0
  6
CONTINUOUS
 62
     3
 10
172.088256835938
 20
189.230621337891
 30
0.0
 40
1.25
 50
0.0
 51
90.0
  0
ARC
  5
   10E
  8
0
  6
CONTINUOUS
 62
     3
 10
57.5882568359375
 20
189.230621337891
 30
0.0
 40
1.25
 50
90.0
 51
180.0
  0
LINE
  5
   10F
  8
0
  6
DOT
 62
     3
 10
60.3382577409677
 20
179.7306252571
 30
0.0
 11
60.8382568359375
 21
179.7306252571
 31
0.0
  0
LINE
  5
   110
  8
0
  6
DOT
 62
     3
 10
60.3382577409676
 20
181.2306252571
 30
0.0
 11
60.8382568359375
 21
181.2306252571
 31
0.0
  0
LINE
  5
   111
  8
0
  6
CONTINUOUS
 62
     3
 10
168.338257745313
 20
179.730625257273
 30
0.0
 11
168.838256835938
 21
179.730625257273
 31
0.0
  0
LINE
  5
   112
  8
0
  6
CONTINUOUS
 62
     3
 10
168.338257745314
 20
181.230625257273
 30
0.0
 11
168.838256835938
 21
181.230625257273
 31
0.0
  0
ARC
  5
   113
  8
0
  6
DOT
 62
     3
 10
60.3382577401871
 20
180.480625257147
 30
0.0
 40
0.749999999345164
 50
90.0
 51
270.0
  0
ARC
  5
   114
  8
0
  6
CONTINUOUS
 62
     3
 10
61.338257740822
 20
180.480625256974
 30
0.0
 40
0.750000000009701
 50
270.0
 51
450.0
  0
LINE
  5
   115
  8
0
  6
CONTINUOUS
 62
     3
 10
60.8382568359375
 20
181.2306252571
 30
0.0
 11
61.3382577409688
 21
181.2306252571
 31
0.0
  0
LINE
  5
   116
  8
0
  6
CONTINUOUS
 62
     3
 10
60.8382568359375
 20
179.7306252571
 30
0.0
 11
61.3382577409689
 21
179.7306252571
 31
0.0
  0
ARC
  5
   117
  8
0
  6
CONTINUOUS
 62
     3
 10
168.338257745503
 20
180.480625256952
 30
0.0
 40
0.750000000048506
 50
90.0000000038822
 51
269.999999996024
  0
ARC
  5
   118
  8
0
  6
DOT
 62
     3
 10
169.338257745421
 20
180.480625256965
 30
0.0
 40
0.750000000029104
 50
270.000000002449
 51
449.999999997486
  0
LINE
  5
   119
  8
0
  6
DOT
 62
     3
 10
168.838256835938
 20
181.230625257273
 30
0.0
 11
169.338257745315
 21
181.230625257273
 31
0.0
  0
LINE
  5
   11A
  8
0
  6
DOT
 62
     3
 10
168.838256835938
 20
179.730625257273
 30
0.0
 11
169.338257745315
 21
179.730625257273
 31
0.0
  0
POINT
  5
   11B
  8
0
  6
CONTINUOUS
 62
     3
 10
114.838256835938
 20
109.980621337891
 30
0.0
  0
ENDBLK
  5
   11C
  8
0
  6
CONTINUOUS
 62
     7
  0
BLOCK
  5
   11D
  8
0
  6
CONTINUOUS
 62
     7
  2
*UDIM2328
 70
    65
 10
0.0
 20
0.0
 30
0.0
  3
*UDIM2328
  0
TEXT
  5
   11E
  8
0
  6
CONTINUOUS
 62
     7
 10
-328.668357852653
 20
46.4675561534189
 30
0.0
 40
3.00000002980232
  1
161
 50
89.9999999480344
 41
0.933333333333333
 72
     1
 11
-330.168357864022
 21
50.3675561935205
 31
0.0
 73
     2
  0
LINE
  5
   11F
  8
0
  6
CONTINUOUS
 62
     7
 10
-341.027068482174
 20
10.3925575405855
 30
0.0
 11
-325.668357849121
 21
10.3925575405855
 31
0.0
  0
LINE
  5
   120
  8
0
  6
CONTINUOUS
 62
     7
 10
-341.027068482174
 20
90.8925556332369
 30
0.0
 11
-325.668357849121
 21
90.8925556332369
 31
0.0
  0
LINE
  5
   121
  8
0
  6
CONTINUOUS
 62
     7
 10
-327.668357849121
 20
10.3925575405855
 30
0.0
 11
-327.668357849121
 21
90.8925556332369
 31
0.0
  0
LINE
  5
   122
  8
0
  6
CONTINUOUS
 62
     7
 10
-328.189302279073
 20
13.3469808177925
 30
0.0
 11
-327.668357849121
 21
10.3925575405855
 31
0.0
  0
LINE
  5
   123
  8
0
  6
CONTINUOUS
 62
     7
 10
-327.668357849121
 20
10.3925575405855
 30
0.0
 11
-327.147413419169
 21
13.3469808177925
 31
0.0
  0
LINE
  5
   124
  8
0
  6
CONTINUOUS
 62
     7
 10
-327.147413419169
 20
87.9381323560299
 30
0.0
 11
-327.668357849121
 21
90.8925556332369
 31
0.0
  0
LINE
  5
   125
  8
0
  6
CONTINUOUS
 62
     7
 10
-327.668357849121
 20
90.8925556332369
 30
0.0
 11
-328.189302279073
 21
87.9381323560299
 31
0.0
  0
ENDBLK
  5
   126
  8
0
  6
CONTINUOUS
 62
     7
  0
BLOCK
  5
   127
  8
0
  6
CONTINUOUS
 62
     7
  2
*UDIM2329
 70
    65
 10
0.0
 20
0.0
 30
0.0
  3
*UDIM2329
  0
TEXT
  5
   128
  8
0
  6
CONTINUOUS
 62
     7
 10
-374.827069124277
 20
123.960103038491
 30
0.0
 40
3.00000002980232
  1
117
 50
359.999999948034
 41
0.933333333333333
 72
     1
 11
-370.927069084181
 21
125.460103049874
 31
0.0
 73
     2
  0
LINE
  5
   129
  8
0
  6
CONTINUOUS
 62
     7
 10
-341.402068482174
 20
91.2675556332368
 30
0.0
 11
-341.402068482174
 21
124.960103034973
 31
0.0
  0
LINE
  5
   12A
  8
0
  6
CONTINUOUS
 62
     7
 10
-399.902068482174
 20
91.2675556332369
 30
0.0
 11
-399.902068482174
 21
124.960103034973
 31
0.0
  0
LINE
  5
   12B
  8
0
  6
CONTINUOUS
 62
     7
 10
-341.402068482174
 20
122.960103034973
 30
0.0
 11
-399.902068482174
 21
122.960103034973
 31
0.0
  0
LINE
  5
   12C
  8
0
  6
CONTINUOUS
 62
     7
 10
-344.356491759381
 20
122.439158605022
 30
0.0
 11
-341.402068482174
 21
122.960103034973
 31
0.0
  0
LINE
  5
   12D
  8
0
  6
CONTINUOUS
 62
     7
 10
-341.402068482174
 20
122.960103034973
 30
0.0
 11
-344.356491759381
 21
123.481047464925
 31
0.0
  0
LINE
  5
   12E
  8
0
  6
CONTINUOUS
 62
     7
 10
-396.947645204967
 20
123.481047464925
 30
0.0
 11
-399.902068482174
 21
122.960103034973
 31
0.0
  0
LINE
  5
   12F
  8
0
  6
CONTINUOUS
 62
     7
 10
-399.902068482174
 20
122.960103034973
 30
0.0
 11
-396.947645204967
 21
122.439158605022
 31
0.0
  0
ENDBLK
  5
   130
  8
0
  6
CONTINUOUS
 62
     7
  0
BLOCK
  5
   131
  8
0
  6
CONTINUOUS
 62
     7
  2
*UDIM2330
 70
    65
 10
0.0
 20
0.0
 30
0.0
  3
*UDIM2330
  0
TEXT
  5
   132
  8
0
  6
CONTINUOUS
 62
     7
 10
-410.510978704799
 20
66.1050523109071
 30
0.0
 40
3.00000002980232
  1
89,75
 50
89.9999999480344
 41
0.933333333333333
 72
     1
 11
-412.010978713632
 21
72.8050523788242
 31
0.0
 73
     2
  0
LINE
  5
   133
  8
0
  6
CONTINUOUS
 62
     7
 10
-409.024353995994
 20
50.6425556332369
 30
0.0
 11
-411.510978698731
 21
50.6425556332369
 31
0.0
  0
LINE
  5
   134
  8
0
  6
CONTINUOUS
 62
     7
 10
-397.277060379756
 20
95.5175518185415
 30
0.0
 11
-411.510978698731
 21
95.5175518185415
 31
0.0
  0
LINE
  5
   135
  8
0
  6
CONTINUOUS
 62
     7
 10
-409.510978698731
 20
50.6425556332369
 30
0.0
 11
-409.510978698731
 21
95.5175518185415
 31
0.0
  0
LINE
  5
   136
  8
0
  6
CONTINUOUS
 62
     7
 10
-410.031923128682
 20
53.5969789104438
 30
0.0
 11
-409.510978698731
 21
50.6425556332369
 31
0.0
  0
LINE
  5
   137
  8
0
  6
CONTINUOUS
 62
     7
 10
-409.510978698731
 20
50.6425556332369
 30
0.0
 11
-408.990034268779
 21
53.5969789104438
 31
0.0
  0
LINE
  5
   138
  8
0
  6
CONTINUOUS
 62
     7
 10
-408.990034268779
 20
92.5631285413345
 30
0.0
 11
-409.510978698731
 21
95.5175518185415
 31
0.0
  0
LINE
  5
   139
  8
0
  6
CONTINUOUS
 62
     7
 10
-409.510978698731
 20
95.5175518185415
 30
0.0
 11
-410.031923128682
 21
92.5631285413345
 31
0.0
  0
ENDBLK
  5
   13A
  8
0
  6
CONTINUOUS
 62
     7
  0
BLOCK
  5
   13B
  8
0
  6
CONTINUOUS
 62
     7
  2
*UDIM2331
 70
    65
 10
0.0
 20
0.0
 30
0.0
  3
*UDIM2331
  0
TEXT
  5
   13C
  8
0
  6
CONTINUOUS
 62
     7
 10
-420.136169437126
 20
47.5925523387236
 30
0.0
 40
3.00000002980232
  1
175
 50
89.9999999480344
 41
0.933333333333333
 72
     1
 11
-421.636169448495
 21
51.4925523788252
 31
0.0
 73
     2
  0
LINE
  5
   13D
  8
0
  6
CONTINUOUS
 62
     7
 10
-397.277060379756
 20
8.01755181854159
 30
0.0
 11
-421.136169433594
 21
8.01755181854159
 31
0.0
  0
LINE
  5
   13E
  8
0
  6
CONTINUOUS
 62
     7
 10
-397.277060379756
 20
95.5175518185415
 30
0.0
 11
-421.136169433594
 21
95.5175518185415
 31
0.0
  0
LINE
  5
   13F
  8
0
  6
CONTINUOUS
 62
     7
 10
-419.136169433594
 20
8.01755181854159
 30
0.0
 11
-419.136169433594
 21
95.5175518185415
 31
0.0
  0
LINE
  5
   140
  8
0
  6
CONTINUOUS
 62
     7
 10
-419.657113863545
 20
10.9719750957486
 30
0.0
 11
-419.136169433594
 21
8.01755181854159
 31
0.0
  0
LINE
  5
   141
  8
0
  6
CONTINUOUS
 62
     7
 10
-419.136169433594
 20
8.01755181854159
 30
0.0
 11
-418.615225003642
 21
10.9719750957486
 31
0.0
  0
LINE
  5
   142
  8
0
  6
CONTINUOUS
 62
     7
 10
-418.615225003642
 20
92.5631285413345
 30
0.0
 11
-419.136169433594
 21
95.5175518185415
 31
0.0
  0
LINE
  5
   143
  8
0
  6
CONTINUOUS
 62
     7
 10
-419.136169433594
 20
95.5175518185415
 30
0.0
 11
-419.657113863545
 21
92.5631285413345
 31
0.0
  0
ENDBLK
  5
   144
  8
0
  6
CONTINUOUS
 62
     7
  0
BLOCK
  5
   145
  8
0
  6
CONTINUOUS
 62
     7
  2
*UDIM2332
 70
    65
 10
0.0
 20
0.0
 30
0.0
  3
*UDIM2332
  0
TEXT
  5
   146
  8
0
  6
CONTINUOUS
 62
     7
 10
-374.827076757372
 20
109.873005870522
 30
0.0
 40
3.00000002980232
  1
105
 50
359.999999948034
 41
0.933333333333333
 72
     1
 11
-370.927076717276
 21
111.373005881906
 31
0.0
 73
     2
  0
LINE
  5
   147
  8
0
  6
CONTINUOUS
 62
     7
 10
-344.402075797652
 20
77.6425556332368
 30
0.0
 11
-344.402065366066
 21
110.873005867004
 31
0.0
  0
LINE
  5
   148
  8
0
  6
CONTINUOUS
 62
     7
 10
-396.902067980753
 20
77.6425556332367
 30
0.0
 11
-396.902051318782
 21
110.873005867004
 31
0.0
  0
LINE
  5
   149
  8
0
  6
CONTINUOUS
 62
     7
 10
-344.402065993899
 20
108.873005867004
 30
0.0
 11
-396.902052321596
 21
108.873005867004
 31
0.0
  0
LINE
  5
   14A
  8
0
  6
CONTINUOUS
 62
     7
 10
-347.356489271106
 20
108.352061437053
 30
0.0
 11
-344.402065993899
 21
108.873005867004
 31
0.0
  0
LINE
  5
   14B
  8
0
  6
CONTINUOUS
 62
     7
 10
-344.402065993899
 20
108.873005867004
 30
0.0
 11
-347.356489271106
 21
109.393950296956
 31
0.0
  0
LINE
  5
   14C
  8
0
  6
CONTINUOUS
 62
     7
 10
-393.947629044389
 20
109.393950296956
 30
0.0
 11
-396.902052321596
 21
108.873005867004
 31
0.0
  0
LINE
  5
   14D
  8
0
  6
CONTINUOUS
 62
     7
 10
-396.902052321596
 20
108.873005867004
 30
0.0
 11
-393.947629044389
 21
108.352061437053
 31
0.0
  0
ENDBLK
  5
   14E
  8
0
  6
CONTINUOUS
 62
     7
  0
BLOCK
  5
   14F
  8
0
  6
CONTINUOUS
 62
     7
  2
*UDIM2333
 70
    65
 10
0.0
 20
0.0
 30
0.0
  3
*UDIM2333
  0
TEXT
  5
   150
  8
0
  6
CONTINUOUS
 62
     7
 10
-302.209167484988
 20
-53.6098156250809
 30
0.0
 40
3.00000002980232
  1
12
 50
449.999999896069
 41
0.933333333333333
 72
     1
 11
-303.70916749537
 21
-51.1098155975342
 31
0.0
 73
     2
  0
TEXT
  5
   151
  8
0
  6
CONTINUOUS
 62
     7
 10
-302.209167482457
 20
-56.3598156588569
 30
0.0
 40
3.00000002980232
  1
M
 50
449.999999896069
 41
0.933333333333334
 72
     1
 11
-303.70916749537
 21
-55.2598156452179
 31
0.0
 73
     2
  0
LINE
  5
   152
  8
0
  6
CONTINUOUS
 62
     7
 10
-296.298240661621
 20
-56.5848159790039
 30
0.0
 11
-303.209167480469
 21
-56.5848159790039
 31
0.0
  0
LINE
  5
   153
  8
0
  6
CONTINUOUS
 62
     7
 10
-296.298240661621
 20
-62.5848159790039
 30
0.0
 11
-303.209167480469
 21
-62.5848159790039
 31
0.0
  0
LINE
  5
   154
  8
0
  6
CONTINUOUS
 62
     7
 10
-301.209167480469
 20
-48.6098155726989
 30
0.0
 11
-301.209167480469
 21
-62.5848159790039
 31
0.0
  0
LINE
  5
   155
  8
0
  6
CONTINUOUS
 62
     7
 10
-301.73011191042
 20
-53.6303927017969
 30
0.0
 11
-301.209167480469
 21
-56.5848159790039
 31
0.0
  0
LINE
  5
   156
  8
0
  6
CONTINUOUS
 62
     7
 10
-301.209167480469
 20
-56.5848159790039
 30
0.0
 11
-300.688223050517
 21
-53.6303927017969
 31
0.0
  0
LINE
  5
   157
  8
0
  6
CONTINUOUS
 62
     7
 10
-300.688223050517
 20
-65.5392392562109
 30
0.0
 11
-301.209167480469
 21
-62.5848159790039
 31
0.0
  0
LINE
  5
   158
  8
0
  6
CONTINUOUS
 62
     7
 10
-301.209167480469
 20
-62.5848159790039
 30
0.0
 11
-301.73011191042
 21
-65.5392392562109
 31
0.0
  0
ENDBLK
  5
   159
  8
0
  6
CONTINUOUS
 62
     7
  0
BLOCK
  5
   15A
  8
0
  6
CONTINUOUS
 62
     7
  2
*UDIM2334
 70
    65
 10
0.0
 20
0.0
 30
0.0
  3
*UDIM2334
  0
TEXT
  5
   15B
  8
0
  6
CONTINUOUS
 62
     7
 10
-275.473248338433
 20
-97.0398025442148
 30
0.0
 40
3.00000002980232
  1
100
 50
359.999999896069
 41
0.933333333333333
 72
     1
 11
-271.573248296976
 21
-95.5398025363684
 31
0.0
 73
     2
  0
LINE
  5
   15C
  8
0
  6
CONTINUOUS
 62
     7
 10
-246.29825592041
 20
-86.3348484039307
 30
0.0
 11
-246.29825592041
 21
-100.03980255127
 31
0.0
  0
LINE
  5
   15D
  8
0
  6
CONTINUOUS
 62
     7
 10
-296.298240661621
 20
-62.5848159790039
 30
0.0
 11
-296.298240661621
 21
-100.03980255127
 31
0.0
  0
LINE
  5
   15E
  8
0
  6
CONTINUOUS
 62
     7
 10
-246.29825592041
 20
-98.0398025512695
 30
0.0
 11
-296.298240661621
 21
-98.0398025512695
 31
0.0
  0
LINE
  5
   15F
  8
0
  6
CONTINUOUS
 62
     7
 10
-249.252679197617
 20
-98.5607469812212
 30
0.0
 11
-246.29825592041
 21
-98.0398025512695
 31
0.0
  0
LINE
  5
   160
  8
0
  6
CONTINUOUS
 62
     7
 10
-246.29825592041
 20
-98.0398025512695
 30
0.0
 11
-249.252679197617
 21
-97.5188581213179
 31
0.0
  0
LINE
  5
   161
  8
0
  6
CONTINUOUS
 62
     7
 10
-293.343817384414
 20
-97.5188581213179
 30
0.0
 11
-296.298240661621
 21
-98.0398025512695
 31
0.0
  0
LINE
  5
   162
  8
0
  6
CONTINUOUS
 62
     7
 10
-296.298240661621
 20
-98.0398025512695
 30
0.0
 11
-293.343817384414
 21
-98.5607469812212
 31
0.0
  0
ENDBLK
  5
   163
  8
0
  6
CONTINUOUS
 62
     7
  0
BLOCK
  5
   164
  8
0
  6
CONTINUOUS
 62
     7
  2
*UDIM2335
 70
    65
 10
0.0
 20
0.0
 30
0.0
  3
*UDIM2335
  0
TEXT
  5
   165
  8
0
  6
CONTINUOUS
 62
     7
 10
-261.073248324525
 20
-89.1417617752629
 30
0.0
 40
3.00000002980232
  1
48
 50
359.999999896069
 41
0.933333333333333
 72
     1
 11
-258.573248296976
 21
-87.641761764884
 31
0.0
 73
     2
  0
LINE
  5
   166
  8
0
  6
CONTINUOUS
 62
     7
 10
-246.29825592041
 20
-86.3348484039307
 30
0.0
 11
-246.29825592041
 21
-92.1417617797852
 31
0.0
  0
LINE
  5
   167
  8
0
  6
CONTINUOUS
 62
     7
 10
-270.298240661621
 20
-80.0848083496094
 30
0.0
 11
-270.298240661621
 21
-92.1417617797852
 31
0.0
  0
LINE
  5
   168
  8
0
  6
CONTINUOUS
 62
     7
 10
-246.29825592041
 20
-90.1417617797852
 30
0.0
 11
-270.298240661621
 21
-90.1417617797852
 31
0.0
  0
LINE
  5
   169
  8
0
  6
CONTINUOUS
 62
     7
 10
-249.252679197617
 20
-90.6627062097368
 30
0.0
 11
-246.29825592041
 21
-90.1417617797852
 31
0.0
  0
LINE
  5
   16A
  8
0
  6
CONTINUOUS
 62
     7
 10
-246.29825592041
 20
-90.1417617797852
 30
0.0
 11
-249.252679197617
 21
-89.6208173498335
 31
0.0
  0
LINE
  5
   16B
  8
0
  6
CONTINUOUS
 62
     7
 10
-267.343817384414
 20
-89.6208173498335
 30
0.0
 11
-270.298240661621
 21
-90.1417617797852
 31
0.0
  0
LINE
  5
   16C
  8
0
  6
CONTINUOUS
 62
     7
 10
-270.298240661621
 20
-90.1417617797852
 30
0.0
 11
-267.343817384414
 21
-90.6627062097368
 31
0.0
  0
ENDBLK
  5
   16D
  8
0
  6
CONTINUOUS
 62
     7
  0
BLOCK
  5
   16E
  8
0
  6
CONTINUOUS
 62
     7
  2
*UDIM2336
 70
    65
 10
0.0
 20
0.0
 30
0.0
  3
*UDIM2336
  0
TEXT
  5
   16F
  8
0
  6
CONTINUOUS
 62
     7
 10
-110.371111650371
 20
52.2520129623501
 30
0.0
 40
3.00000002980232
  1
7
 50
413.587171981455
 41
0.933333333333334
 72
     1
 11
-110.925294041428
 21
54.0276486080234
 31
0.0
 73
     2
  0
TEXT
  5
   170
  8
0
  6
CONTINUOUS
 62
     7
 10
-112.240948752425
 20
49.7170160640553
 30
0.0
 40
3.00000002980232
  1
Ø
 50
413.587171981455
 41
0.933333333333334
 72
     1
 11
-112.795131143483
 21
51.4926517097285
 31
0.0
 73
     2
  0
LINE
  5
   171
  8
0
  6
CONTINUOUS
 62
     7
 10
-97.8502831186346
 20
67.542254792119
 30
0.0
 11
-111.436187830049
 21
49.1234169874146
 31
0.0
  0
LINE
  5
   172
  8
0
  6
CONTINUOUS
 62
     7
 10
-96.5157759022768
 20
70.2290913129161
 30
0.0
 11
-97.8502831186346
 21
67.542254792119
 31
0.0
  0
LINE
  5
   173
  8
0
  6
CONTINUOUS
 62
     7
 10
-97.8502831186346
 20
67.542254792119
 30
0.0
 11
-95.67730446739
 21
69.6106270461475
 31
0.0
  0
LINE
  5
   174
  8
0
  6
CONTINUOUS
 62
     7
 10
-100.223588721747
 20
63.4470866655996
 30
0.0
 11
-98.8890815053889
 21
66.1339231863967
 31
0.0
  0
LINE
  5
   175
  8
0
  6
CONTINUOUS
 62
     7
 10
-98.8890815053889
 20
66.1339231863967
 30
0.0
 11
-101.062060156633
 21
64.0655509323681
 31
0.0
  0
ENDBLK
  5
   176
  8
0
  6
CONTINUOUS
 62
     7
  0
BLOCK
  5
   177
  8
0
  6
CONTINUOUS
 62
     7
  2
*UDIM2337
 70
    65
 10
0.0
 20
0.0
 30
0.0
  3
*UDIM2337
  0
TEXT
  5
   178
  8
0
  6
CONTINUOUS
 62
     7
 10
-92.544682360789
 20
118.562061320406
 30
0.0
 40
3.00000002980232
  1
112
 50
359.999999844103
 41
0.933333333333333
 72
     1
 11
-88.6446823179722
 21
120.062061324716
 31
0.0
 73
     2
  0
LINE
  5
   179
  8
0
  6
CONTINUOUS
 62
     7
 10
-102.369682312012
 20
99.5880889892578
 30
0.0
 11
-102.369682312012
 21
119.562061309814
 31
0.0
  0
LINE
  5
   17A
  8
0
  6
CONTINUOUS
 62
     7
 10
-74.3696823120117
 20
99.5880889892578
 30
0.0
 11
-74.3696823120117
 21
119.562061309814
 31
0.0
  0
LINE
  5
   17B
  8
0
  6
CONTINUOUS
 62
     7
 10
-102.369682312012
 20
117.562061309814
 30
0.0
 11
-74.3696823120117
 21
117.562061309814
 31
0.0
  0
LINE
  5
   17C
  8
0
  6
CONTINUOUS
 62
     7
 10
-99.4152590348048
 20
118.083005739766
 30
0.0
 11
-102.369682312012
 21
117.562061309814
 31
0.0
  0
LINE
  5
   17D
  8
0
  6
CONTINUOUS
 62
     7
 10
-102.369682312012
 20
117.562061309814
 30
0.0
 11
-99.4152590348048
 21
117.041116879863
 31
0.0
  0
LINE
  5
   17E
  8
0
  6
CONTINUOUS
 62
     7
 10
-77.3241055892187
 20
117.041116879863
 30
0.0
 11
-74.3696823120117
 21
117.562061309814
 31
0.0
  0
LINE
  5
   17F
  8
0
  6
CONTINUOUS
 62
     7
 10
-74.3696823120117
 20
117.562061309814
 30
0.0
 11
-77.3241055892187
 21
118.083005739766
 31
0.0
  0
ENDBLK
  5
   180
  8
0
  6
CONTINUOUS
 62
     7
  0
BLOCK
  5
   181
  8
0
  6
CONTINUOUS
 62
     7
  2
*UDIM2338
 70
    65
 10
0.0
 20
0.0
 30
0.0
  3
*UDIM2338
  0
TEXT
  5
   182
  8
0
  6
CONTINUOUS
 62
     7
 10
-91.1446823468813
 20
111.903890616531
 30
0.0
 40
3.00000002980232
  1
80
 50
359.999999844103
 41
0.933333333333333
 72
     1
 11
-88.6446823179722
 21
113.403890624642
 31
0.0
 73
     2
  0
LINE
  5
   183
  8
0
  6
CONTINUOUS
 62
     7
 10
-98.3696823120117
 20
104.963088989258
 30
0.0
 11
-98.3696823120117
 21
112.903890609741
 31
0.0
  0
LINE
  5
   184
  8
0
  6
CONTINUOUS
 62
     7
 10
-78.3696823120117
 20
104.963088989258
 30
0.0
 11
-78.3696823120117
 21
112.903890609741
 31
0.0
  0
LINE
  5
   185
  8
0
  6
CONTINUOUS
 62
     7
 10
-98.3696823120117
 20
110.903890609741
 30
0.0
 11
-78.3696823120117
 21
110.903890609741
 31
0.0
  0
LINE
  5
   186
  8
0
  6
CONTINUOUS
 62
     7
 10
-95.4152590348048
 20
111.424835039693
 30
0.0
 11
-98.3696823120117
 21
110.903890609741
 31
0.0
  0
LINE
  5
   187
  8
0
  6
CONTINUOUS
 62
     7
 10
-98.3696823120117
 20
110.903890609741
 30
0.0
 11
-95.4152590348048
 21
110.38294617979
 31
0.0
  0
LINE
  5
   188
  8
0
  6
CONTINUOUS
 62
     7
 10
-81.3241055892187
 20
110.38294617979
 30
0.0
 11
-78.3696823120117
 21
110.903890609741
 31
0.0
  0
LINE
  5
   189
  8
0
  6
CONTINUOUS
 62
     7
 10
-78.3696823120117
 20
110.903890609741
 30
0.0
 11
-81.3241055892187
 21
111.424835039693
 31
0.0
  0
ENDBLK
  5
   18A
  8
0
  6
CONTINUOUS
 62
     7
  0
BLOCK
  5
   18B
  8
0
  6
CONTINUOUS
 62
     7
  2
*UDIM2339
 70
    65
 10
0.0
 20
0.0
 30
0.0
  3
*UDIM2339
  0
TEXT
  5
   18C
  8
0
  6
CONTINUOUS
 62
     7
 10
-125.20373536215
 20
80.4130889404824
 30
0.0
 40
3.00000002980232
  1
142
 50
449.999999844103
 41
0.933333333333333
 72
     1
 11
-126.703735366464
 21
84.3130889832974
 31
0.0
 73
     2
  0
LINE
  5
   18D
  8
0
  6
CONTINUOUS
 62
     7
 10
-100.994682312012
 20
102.338088989258
 30
0.0
 11
-126.203735351563
 21
102.338088989258
 31
0.0
  0
LINE
  5
   18E
  8
0
  6
CONTINUOUS
 62
     7
 10
-100.994682312012
 20
66.8380889892578
 30
0.0
 11
-126.203735351563
 21
66.8380889892578
 31
0.0
  0
LINE
  5
   18F
  8
0
  6
CONTINUOUS
 62
     7
 10
-124.203735351563
 20
102.338088989258
 30
0.0
 11
-124.203735351563
 21
66.8380889892578
 31
0.0
  0
LINE
  5
   190
  8
0
  6
CONTINUOUS
 62
     7
 10
-123.682790921611
 20
99.3836657120509
 30
0.0
 11
-124.203735351563
 21
102.338088989258
 31
0.0
  0
LINE
  5
   191
  8
0
  6
CONTINUOUS
 62
     7
 10
-124.203735351563
 20
102.338088989258
 30
0.0
 11
-124.724679781514
 21
99.3836657120509
 31
0.0
  0
LINE
  5
   192
  8
0
  6
CONTINUOUS
 62
     7
 10
-124.724679781514
 20
69.7925122664648
 30
0.0
 11
-124.203735351563
 21
66.8380889892578
 31
0.0
  0
LINE
  5
   193
  8
0
  6
CONTINUOUS
 62
     7
 10
-124.203735351563
 20
66.8380889892578
 30
0.0
 11
-123.682790921611
 21
69.7925122664648
 31
0.0
  0
ENDBLK
  5
   194
  8
0
  6
CONTINUOUS
 62
     7
  0
BLOCK
  5
   195
  8
0
  6
CONTINUOUS
 62
     7
  2
*UDIM2340
 70
    65
 10
0.0
 20
0.0
 30
0.0
  3
*UDIM2340
  0
TEXT
  5
   196
  8
0
  6
CONTINUOUS
 62
     7
 10
-116.881746302701
 20
80.4130889404824
 30
0.0
 40
3.00000002980232
  1
112
 50
449.999999844103
 41
0.933333333333333
 72
     1
 11
-118.381746307015
 21
84.3130889832974
 31
0.0
 73
     2
  0
LINE
  5
   197
  8
0
  6
CONTINUOUS
 62
     7
 10
-103.369682312012
 20
98.5880889892578
 30
0.0
 11
-117.881746292114
 21
98.5880889892578
 31
0.0
  0
LINE
  5
   198
  8
0
  6
CONTINUOUS
 62
     7
 10
-103.369682312012
 20
70.5880889892578
 30
0.0
 11
-117.881746292114
 21
70.5880889892578
 31
0.0
  0
LINE
  5
   199
  8
0
  6
CONTINUOUS
 62
     7
 10
-115.881746292114
 20
98.5880889892578
 30
0.0
 11
-115.881746292114
 21
70.5880889892578
 31
0.0
  0
LINE
  5
   19A
  8
0
  6
CONTINUOUS
 62
     7
 10
-115.360801862163
 20
95.6336657120509
 30
0.0
 11
-115.881746292114
 21
98.5880889892578
 31
0.0
  0
LINE
  5
   19B
  8
0
  6
CONTINUOUS
 62
     7
 10
-115.881746292114
 20
98.5880889892578
 30
0.0
 11
-116.402690722066
 21
95.6336657120509
 31
0.0
  0
LINE
  5
   19C
  8
0
  6
CONTINUOUS
 62
     7
 10
-116.402690722066
 20
73.5425122664648
 30
0.0
 11
-115.881746292114
 21
70.5880889892578
 31
0.0
  0
LINE
  5
   19D
  8
0
  6
CONTINUOUS
 62
     7
 10
-115.881746292114
 20
70.5880889892578
 30
0.0
 11
-115.360801862163
 21
73.5425122664648
 31
0.0
  0
ENDBLK
  5
   19E
  8
0
  6
CONTINUOUS
 62
     7
  0
ENDSEC
  0
SECTION
  2
ENTITIES
  0
LINE
  5
   19F
  8
0
  6
DASHDOT
 62
     7
 10
-370.652069091797
 20
-44.9114404364716
 30
0.0
 11
-370.652069091797
 21
-105.63209761173
 31
0.0
  0
LINE
  5
   1A0
  8
0
  6
CONTINUOUS
 62
     3
 10
-387.527069091797
 20
-46.3214992387998
 30
0.0
 11
-387.527069091797
 21
-102.195079281055
 31
0.0
  0
LINE
  5
   1A1
  8
0
  6
CONTINUOUS
 62
     3
 10
-352.527069091797
 20
-46.3214992387998
 30
0.0
 11
-352.527069091797
 21
-101.930693255618
 31
0.0
  0
LINE
  5
   1A2
  8
0
  6
CONTINUOUS
 62
     3
 10
-350.194566145621
 20
-49.1791839599609
 30
0.0
 11
-390.006293463783
 21
-49.1791839599609
 31
0.0
  0
LINE
  5
   1A3
  8
0
  6
CONTINUOUS
 62
     3
 10
-350.194566145621
 20
-98.9291839599609
 30
0.0
 11
-390.257545177959
 21
-98.9291839599609
 31
0.0
  0
LINE
  5
   1A4
  8
0
  6
DASHDOT
 62
     7
 10
-364.402069091797
 20
-56.1028170962757
 30
0.0
 11
-364.402069091797
 21
-92.4086897946119
 31
0.0
  0
LINE
  5
   1A5
  8
0
  6
DASHDOT
 62
     7
 10
-381.902069091797
 20
-55.0978102395744
 30
0.0
 11
-381.902069091797
 21
-92.2830639375242
 31
0.0
  0
LINE
  5
   1A6
  8
0
  6
DASHDOT
 62
     7
 10
-360.861094619444
 20
-61.5541839599609
 30
0.0
 11
-385.735014322803
 21
-61.5541839599609
 31
0.0
  0
LINE
  5
   1A7
  8
0
  6
DASHDOT
 62
     7
 10
-361.237972190707
 20
-86.5541839599609
 30
0.0
 11
-385.35813675154
 21
-86.5541839599609
 31
0.0
  0
CIRCLE
  5
   1A8
  8
0
  6
CONTINUOUS
 62
     7
 10
-381.902069091797
 20
-61.5541839599609
 30
0.0
 40
0.625
  0
CIRCLE
  5
   1A9
  8
0
  6
CONTINUOUS
 62
     7
 10
-364.402069091797
 20
-61.5541839599609
 30
0.0
 40
0.625
  0
CIRCLE
  5
   1AA
  8
0
  6
CONTINUOUS
 62
     7
 10
-364.402069091797
 20
-86.5541839599609
 30
0.0
 40
0.625
  0
CIRCLE
  5
   1AB
  8
0
  6
CONTINUOUS
 62
     7
 10
-381.902069091797
 20
-86.5541839599609
 30
0.0
 40
0.625
  0
LINE
  5
   1AC
  8
0
  6
DASHDOT
 62
     7
 10
-356.552125072699
 20
-56.1791839599609
 30
0.0
 11
-385.316671242001
 21
-56.1791839599609
 31
0.0
  0
LINE
  5
   1AD
  8
0
  6
DASHDOT
 62
     7
 10
-356.552125072699
 20
-91.9291839599609
 30
0.0
 11
-384.662931556335
 21
-91.9291839599609
 31
0.0
  0
LINE
  5
   1AE
  8
0
  6
CONTINUOUS
 62
     7
 10
-361.902069091797
 20
-52.6791839599609
 30
0.0
 11
-379.402069091797
 21
-52.6791839599609
 31
0.0
  0
LINE
  5
   1AF
  8
0
  6
CONTINUOUS
 62
     7
 10
-361.902069091797
 20
-59.6791839599609
 30
0.0
 11
-379.402069091797
 21
-59.6791839599609
 31
0.0
  0
LINE
  5
   1B0
  8
0
  6
CONTINUOUS
 62
     7
 10
-361.902069091797
 20
-88.4291839599609
 30
0.0
 11
-379.402069091797
 21
-88.4291839599609
 31
0.0
  0
LINE
  5
   1B1
  8
0
  6
CONTINUOUS
 62
     7
 10
-361.902069091797
 20
-95.4291839599609
 30
0.0
 11
-379.402069091797
 21
-95.4291839599609
 31
0.0
  0
LINE
  5
   1B2
  8
0
  6
DASHDOT
 62
     7
 10
-361.902069091797
 20
-50.493374841235
 30
0.0
 11
-361.902069091797
 21
-97.9548760205819
 31
0.0
  0
LINE
  5
   1B3
  8
0
  6
DASHDOT
 62
     7
 10
-379.402069091797
 20
-50.493374841235
 30
0.0
 11
-379.402069091797
 21
-97.9548760205819
 31
0.0
  0
ARC
  5
   1B4
  8
0
  6
CONTINUOUS
 62
     7
 10
-361.902069091797
 20
-56.1791839599609
 30
0.0
 40
3.5
 50
269.999999896069
 51
449.999999896069
  0
ARC
  5
   1B5
  8
0
  6
CONTINUOUS
 62
     7
 10
-379.402069091797
 20
-56.1791839599609
 30
0.0
 40
3.5
 50
449.999999896069
 51
629.999999896069
  0
ARC
  5
   1B6
  8
0
  6
CONTINUOUS
 62
     7
 10
-361.902069091797
 20
-91.9291839599609
 30
0.0
 40
3.5
 50
269.999999896069
 51
449.999999896069
  0
ARC
  5
   1B7
  8
0
  6
CONTINUOUS
 62
     7
 10
-379.402069091797
 20
-91.9291839599609
 30
0.0
 40
3.5
 50
449.999999896069
 51
629.999999896069
  0
CIRCLE
  5
   1B8
  8
0
  6
CONTINUOUS
 62
     7
 10
-384.649158698532
 20
-52.0556474137797
 30
0.0
 40
0.05
  0
LINE
  5
   1B9
  8
0
  6
DASHDOT
 62
     7
 10
-326.29804149396
 20
-74.6166839599609
 30
0.0
 11
-333.616804816204
 21
-74.6166839599609
 31
0.0
  0
LINE
  5
   1BA
  8
0
  6
DASHDOT
 62
     7
 10
-349.550362465672
 20
-74.6166839599609
 30
0.0
 11
-399.676267511247
 21
-74.6166839599609
 31
0.0
  0
INSERT
  5
   1BB
  8
0
  6
CONTINUOUS
 62
     7
  2
*UDIM2308
 10
0.0
 20
0.0
 30
0.0
  0
INSERT
  5
   1BC
  8
0
  6
CONTINUOUS
 62
     7
  2
*UDIM2309
 10
0.0
 20
0.0
 30
0.0
  0
INSERT
  5
   1BD
  8
0
  6
CONTINUOUS
 62
     7
  2
*UDIM2310
 10
0.0
 20
0.0
 30
0.0
  0
INSERT
  5
   1BE
  8
0
  6
CONTINUOUS
 62
     7
  2
*UDIM2311
 10
0.0
 20
0.0
 30
0.0
  0
INSERT
  5
   1BF
  8
0
  6
CONTINUOUS
 62
     7
  2
*UDIM2312
 10
0.0
 20
0.0
 30
0.0
  0
INSERT
  5
   1C0
  8
0
  6
CONTINUOUS
 62
     7
  2
*UDIM2313
 10
0.0
 20
0.0
 30
0.0
  0
INSERT
  5
   1C1
  8
0
  6
CONTINUOUS
 62
     7
  2
*UDIM2314
 10
0.0
 20
0.0
 30
0.0
  0
INSERT
  5
   1C2
  8
0
  6
CONTINUOUS
 62
     7
  2
*UDIM2315
 10
0.0
 20
0.0
 30
0.0
  0
INSERT
  5
   1C3
  8
0
  6
CONTINUOUS
 62
     7
  2
*UDIM2316
 10
0.0
 20
0.0
 30
0.0
  0
INSERT
  5
   1C4
  8
0
  6
CONTINUOUS
 62
     7
  2
*UDIM2317
 10
0.0
 20
0.0
 30
0.0
  0
TEXT
  5
   1C5
  8
0
  6
CONTINUOUS
 62
     7
 10
-371.539292338224
 20
-126.563900021709
 30
0.0
 40
3.00000002980232
  1
Y
 50
359.999999896069
 41
0.916666604744064
 72
     2
 11
-369.339292469354
 21
-126.563900025689
 31
0.0
  0
TEXT
  5
   1C6
  8
0
  6
CONTINUOUS
 62
     7
 10
-371.749022724958
 20
-32.3707161227832
 30
0.0
 40
3.00000002980232
  1
Y
 50
359.999999896069
 41
0.916666604744064
 72
     2
 11
-369.549022856088
 21
-32.3707161267628
 31
0.0
  0
TEXT
  5
   1C7
  8
0
  6
CONTINUOUS
 62
     7
 10
-410.997478487821
 20
-75.1855315248142
 30
0.0
 40
3.00000002980232
  1
X
 50
359.999999896069
 41
0.916666604744064
 72
     2
 11
-408.797478618951
 21
-75.1855315287938
 31
0.0
  0
TEXT
  5
   1C8
  8
0
  6
CONTINUOUS
 62
     7
 10
-323.66786194119
 20
-75.9860213081012
 30
0.0
 40
3.00000002980232
  1
X
 50
359.999999896069
 41
0.916666604744064
 72
     2
 11
-321.46786207232
 21
-75.9860213120808
 31
0.0
  0
LINE
  5
   1C9
  8
0
  6
CONTINUOUS
 62
     3
 10
-184.548240661621
 20
10.6675596237183
 30
0.0
 11
-220.548240661621
 21
10.6675596237183
 31
0.0
  0
LINE
  5
   1CA
  8
0
  6
CONTINUOUS
 62
     7
 10
-220.548240661621
 20
8.01755858482011
 30
0.0
 11
-220.548240661621
 21
29.4146685701721
 31
0.0
  0
LINE
  5
   1CB
  8
0
  6
CONTINUOUS
 62
     7
 10
-220.548240661621
 20
29.4146547317505
 30
0.0
 11
-220.548240661621
 21
95.5175523757935
 31
0.0
  0
LINE
  5
   1CC
  8
0
  6
CONTINUOUS
 62
     7
 10
-221.548240661621
 20
84.08336353302
 30
0.0
 11
-221.548240661621
 21
89.0175371170044
 31
0.0
  0
LINE
  5
   1CD
  8
0
  6
CONTINUOUS
 62
     7
 10
-186.298242422098
 20
58.7675393502499
 30
0.0
 11
-186.298252105588
 21
62.8925512036723
 31
0.0
  0
LINE
  5
   1CE
  8
0
  6
CONTINUOUS
 62
     7
 10
-185.048270272789
 20
86.0175488917558
 30
0.0
 11
-184.694708880364
 21
86.163995097169
 31
0.0
  0
LINE
  5
   1CF
  8
0
  6
CONTINUOUS
 62
     7
 10
-184.694702508807
 20
86.1639845341298
 30
0.0
 11
-184.548256291929
 21
86.5175382833547
 31
0.0
  0
LINE
  5
   1D0
  8
0
  6
CONTINUOUS
 62
     7
 10
-186.298248835916
 20
82.5175518332489
 30
0.0
 11
-186.298241206522
 21
86.0175518335289
 31
0.0
  0
LINE
  5
   1D1
  8
0
  6
CONTINUOUS
 62
     7
 10
-185.04825592041
 20
86.0175523757935
 30
0.0
 11
-186.298240661621
 21
86.0175523757935
 31
0.0
  0
LINE
  5
   1D2
  8
0
  6
CONTINUOUS
 62
     7
 10
-186.298248291016
 20
62.8925523757935
 30
0.0
 11
-186.298248291016
 21
82.5175523757935
 31
0.0
  0
LINE
  5
   1D3
  8
0
  6
CONTINUOUS
 62
     7
 10
-188.548240661621
 20
37.5175523757935
 30
0.0
 11
-188.548240661621
 21
57.7675523757935
 31
0.0
  0
LINE
  5
   1D4
  8
0
  6
CONTINUOUS
 62
     7
 10
-188.548225680516
 20
57.7675799143659
 30
0.0
 11
-188.414253523252
 21
58.2675799006721
 31
0.0
  0
LINE
  5
   1D5
  8
0
  6
CONTINUOUS
 62
     7
 10
-188.414236489506
 20
58.2675989282094
 30
0.0
 11
-188.048216305499
 21
58.6336267330308
 31
0.0
  0
LINE
  5
   1D6
  8
0
  6
CONTINUOUS
 62
     7
 10
-188.048268054121
 20
58.6335671930445
 30
0.0
 11
-187.548260451542
 21
58.7675393502499
 31
0.0
  0
LINE
  5
   1D7
  8
0
  6
CONTINUOUS
 62
     7
 10
-184.548240661621
 20
37.5175523757935
 30
0.0
 11
-188.548240661621
 21
37.5175523757935
 31
0.0
  0
LINE
  5
   1D8
  8
0
  6
CONTINUOUS
 62
     7
 10
-184.548262005194
 20
30.0175459998125
 30
0.0
 11
-185.048300131704
 21
30.5175459819692
 31
0.0
  0
LINE
  5
   1D9
  8
0
  6
CONTINUOUS
 62
     7
 10
-185.048288370847
 20
36.0175576789131
 30
0.0
 11
-184.548242615437
 21
36.517557660759
 31
0.0
  0
LINE
  5
   1DA
  8
0
  6
CONTINUOUS
 62
     7
 10
-185.0482946754
 20
36.0175376032072
 30
0.0
 11
-216.432198178817
 21
36.0175376032072
 31
0.0
  0
LINE
  5
   1DB
  8
0
  6
CONTINUOUS
 62
     7
 10
-185.048287391663
 20
30.5175523757935
 30
0.0
 11
-216.432221412659
 21
30.5175523757935
 31
0.0
  0
LINE
  5
   1DC
  8
0
  6
CONTINUOUS
 62
     7
 10
-216.432200413378
 20
36.0175304248684
 30
0.0
 11
-218.298242921682
 21
36.5175380534498
 31
0.0
  0
LINE
  5
   1DD
  8
0
  6
CONTINUOUS
 62
     7
 10
-218.298226749941
 20
36.5175326621403
 30
0.0
 11
-220.048242943756
 21
36.9864504542684
 31
0.0
  0
LINE
  5
   1DE
  8
0
  6
CONTINUOUS
 62
     7
 10
-220.548240105943
 20
29.4146703124595
 30
0.0
 11
-216.432220403949
 21
30.5175526807296
 31
0.0
  0
LINE
  5
   1DF
  8
0
  6
CONTINUOUS
 62
     7
 10
-220.548234161119
 20
38.1647041728705
 30
0.0
 11
-220.04823561829
 21
38.2986763301392
 31
0.0
  0
LINE
  5
   1E0
  8
0
  6
CONTINUOUS
 62
     7
 10
-218.548241138458
 20
26.2675447463989
 30
0.0
 11
-220.548240661621
 21
26.2675447463989
 31
0.0
  0
LINE
  5
   1E1
  8
0
  6
CONTINUOUS
 62
     7
 10
-218.548241138458
 20
10.6675596237183
 30
0.0
 11
-218.548241138458
 21
26.2675447463989
 31
0.0
  0
LINE
  5
   1E2
  8
0
  6
CONTINUOUS
 62
     7
 10
-220.048240661621
 20
29.5486345291138
 30
0.0
 11
-220.048240661621
 21
51.7675447463989
 31
0.0
  0
LINE
  5
   1E3
  8
0
  6
CONTINUOUS
 62
     7
 10
-218.298240661621
 20
36.5175523757935
 30
0.0
 11
-218.298240661621
 21
49.0175523757935
 31
0.0
  0
LINE
  5
   1E4
  8
0
  6
CONTINUOUS
 62
     7
 10
-219.048241615295
 20
51.7675447463989
 30
0.0
 11
-220.548241138458
 21
51.7675447463989
 31
0.0
  0
LINE
  5
   1E5
  8
0
  6
CONTINUOUS
 62
     7
 10
-218.673235530654
 20
51.6670606718929
 30
0.0
 11
-219.04823646415
 21
51.767539789836
 31
0.0
  0
LINE
  5
   1E6
  8
0
  6
CONTINUOUS
 62
     7
 10
-218.673235530654
 20
51.6670606718929
 30
0.0
 11
-219.04823646415
 21
51.767539789836
 31
0.0
  0
LINE
  5
   1E7
  8
0
  6
CONTINUOUS
 62
     7
 10
-218.398720082863
 20
51.3925372871669
 30
0.0
 11
-218.673239044706
 21
51.6670581465145
 31
0.0
  0
LINE
  5
   1E8
  8
0
  6
CONTINUOUS
 62
     7
 10
-218.298248157706
 20
51.017530689734
 30
0.0
 11
-218.398728710346
 21
51.3925306885426
 31
0.0
  0
LINE
  5
   1E9
  8
0
  6
CONTINUOUS
 62
     7
 10
-218.298231601715
 20
49.0175455212644
 30
0.0
 11
-218.298231601715
 21
51.0175378918699
 31
0.0
  0
LINE
  5
   1EA
  8
0
  6
CONTINUOUS
 62
     7
 10
-218.398717765445
 20
48.6425415726944
 30
0.0
 11
-218.351106535915
 21
48.8202301686369
 31
0.0
  0
LINE
  5
   1EB
  8
0
  6
CONTINUOUS
 62
     7
 10
-218.351107453074
 20
48.8202253256951
 30
0.0
 11
-218.298238134412
 21
49.0175443531978
 31
0.0
  0
LINE
  5
   1EC
  8
0
  6
CONTINUOUS
 62
     7
 10
-218.673240816112
 20
48.3680058663913
 30
0.0
 11
-218.398721391059
 21
48.6425267261441
 31
0.0
  0
LINE
  5
   1ED
  8
0
  6
CONTINUOUS
 62
     7
 10
-219.048247087752
 20
48.2675343577787
 30
0.0
 11
-218.673247092929
 21
48.3680134680128
 31
0.0
  0
LINE
  5
   1EE
  8
0
  6
CONTINUOUS
 62
     7
 10
-219.048241138458
 20
48.2675447463989
 30
0.0
 11
-220.048240661621
 21
48.2675447463989
 31
0.0
  0
LINE
  5
   1EF
  8
0
  6
CONTINUOUS
 62
     7
 10
-220.548240661621
 20
14.5175452232361
 30
0.0
 11
-221.548240661621
 21
14.5175452232361
 31
0.0
  0
LINE
  5
   1F0
  8
0
  6
CONTINUOUS
 62
     7
 10
-220.548240661621
 20
89.0175371170044
 30
0.0
 11
-221.548240661621
 21
89.0175371170044
 31
0.0
  0
LINE
  5
   1F1
  8
0
  6
CONTINUOUS
 62
     7
 10
-220.548240661621
 20
84.08336353302
 30
0.0
 11
-221.548240661621
 21
84.08336353302
 31
0.0
  0
LINE
  5
   1F2
  8
0
  6
CONTINUOUS
 62
     7
 10
-216.898733988467
 20
30.3925467081871
 30
0.0
 11
-218.298252426253
 21
30.7675466791681
 31
0.0
  0
LINE
  5
   1F3
  8
0
  6
CONTINUOUS
 62
     7
 10
-218.298257350922
 20
30.7675514459659
 30
0.0
 11
-218.298257350922
 21
35.7675514459659
 31
0.0
  0
LINE
  5
   1F4
  8
0
  6
CONTINUOUS
 62
     7
 10
-218.298257204655
 20
35.7675447588397
 30
0.0
 11
-216.898726849116
 21
36.142544755491
 31
0.0
  0
LINE
  5
   1F5
  8
0
  6
CONTINUOUS
 62
     7
 10
-220.548240661621
 20
19.5175447463989
 30
0.0
 11
-221.548240661621
 21
19.5175447463989
 31
0.0
  0
LINE
  5
   1F6
  8
0
  6
CONTINUOUS
 62
     7
 10
-218.398716071734
 20
48.3778954438789
 30
0.0
 11
-218.298236002204
 21
48.8202324652653
 31
0.0
  0
LINE
  5
   1F7
  8
0
  6
CONTINUOUS
 62
     7
 10
-218.298241615295
 20
48.8202333450317
 30
0.0
 11
-218.351110458374
 21
48.8202333450317
 31
0.0
  0
LINE
  5
   1F8
  8
0
  6
CONTINUOUS
 62
     7
 10
-218.365229049734
 20
41.7675395938586
 30
0.0
 11
-218.29824297063
 21
41.8172679854386
 31
0.0
  0
LINE
  5
   1F9
  8
0
  6
CONTINUOUS
 62
     7
 10
-218.365224595602
 20
41.7675220370588
 30
0.0
 11
-218.39871906567
 21
41.7923862319558
 31
0.0
  0
LINE
  5
   1FA
  8
0
  6
CONTINUOUS
 62
     7
 10
-218.298241138458
 20
46.7675523757935
 30
0.0
 11
-218.398721694946
 21
46.7675523757935
 31
0.0
  0
LINE
  5
   1FB
  8
0
  6
CONTINUOUS
 62
     7
 10
-218.39872442839
 20
43.7426590604824
 30
0.0
 11
-218.365229958322
 21
43.7675232553794
 31
0.0
  0
LINE
  5
   1FC
  8
0
  6
CONTINUOUS
 62
     7
 10
-218.298239038672
 20
43.7178077201951
 30
0.0
 11
-218.365225117777
 21
43.7675361117751
 31
0.0
  0
LINE
  5
   1FD
  8
0
  6
CONTINUOUS
 62
     7
 10
-218.344137653641
 20
47.6285884417128
 30
0.0
 11
-218.398724523172
 21
47.9334743024839
 31
0.0
  0
LINE
  5
   1FE
  8
0
  6
CONTINUOUS
 62
     7
 10
-218.298241538597
 20
46.7675538004533
 30
0.0
 11
-218.344135206691
 21
47.6285919756235
 31
0.0
  0
LINE
  5
   1FF
  8
0
  6
CONTINUOUS
 62
     7
 10
-218.398723870032
 20
41.7924009893218
 30
0.0
 11
-218.656403803525
 21
41.8436552561763
 31
0.0
  0
LINE
  5
   200
  8
0
  6
CONTINUOUS
 62
     7
 10
-218.656402420441
 20
41.8436582742425
 30
0.0
 11
-218.673241924578
 21
41.854911630433
 31
0.0
  0
LINE
  5
   201
  8
0
  6
CONTINUOUS
 62
     7
 10
-218.673249336136
 20
43.6801652493398
 30
0.0
 11
-218.656408878905
 21
43.6914186057626
 31
0.0
  0
LINE
  5
   202
  8
0
  6
CONTINUOUS
 62
     7
 10
-218.65640558178
 20
43.6914162098397
 30
0.0
 11
-218.398726601387
 21
43.7426704687178
 31
0.0
  0
LINE
  5
   203
  8
0
  6
CONTINUOUS
 62
     7
 10
-218.398721694946
 20
46.7675523757935
 30
0.0
 11
-218.673241138458
 21
46.7675523757935
 31
0.0
  0
LINE
  5
   204
  8
0
  6
CONTINUOUS
 62
     7
 10
-218.673243381527
 20
41.8549047338268
 30
0.0
 11
-219.048243372824
 21
41.9220433902326
 31
0.0
  0
LINE
  5
   205
  8
0
  6
CONTINUOUS
 62
     7
 10
-219.048243953112
 20
43.6130282140097
 30
0.0
 11
-218.673243961815
 21
43.6801668704154
 31
0.0
  0
LINE
  5
   206
  8
0
  6
CONTINUOUS
 62
     7
 10
-218.673241138458
 20
46.7675523757935
 30
0.0
 11
-219.048241138458
 21
46.7675523757935
 31
0.0
  0
LINE
  5
   207
  8
0
  6
CONTINUOUS
 62
     7
 10
-219.048241138458
 20
43.6130342483521
 30
0.0
 11
-220.048240661621
 21
43.6130342483521
 31
0.0
  0
LINE
  5
   208
  8
0
  6
CONTINUOUS
 62
     7
 10
-219.048241138458
 20
46.7675523757935
 30
0.0
 11
-220.048240661621
 21
46.7675523757935
 31
0.0
  0
LINE
  5
   209
  8
0
  6
CONTINUOUS
 62
     7
 10
-219.048241138458
 20
41.9220552444458
 30
0.0
 11
-220.048240661621
 21
41.9220552444458
 31
0.0
  0
LINE
  5
   20A
  8
0
  6
CONTINUOUS
 62
     3
 10
-173.448242186904
 20
92.8675584793091
 30
0.0
 11
-220.548240661621
 21
92.8675584793091
 31
0.0
  0
LINE
  5
   20B
  8
0
  6
CONTINUOUS
 62
     3
 10
-173.448242186904
 20
10.6675596237183
 30
0.0
 11
-184.548240661025
 21
10.6675596237183
 31
0.0
  0
LINE
  5
   20C
  8
0
  6
CONTINUOUS
 62
     3
 10
-184.548240661025
 20
10.6675596237183
 30
0.0
 11
-184.548240661025
 21
30.3925523757935
 31
0.0
  0
LINE
  5
   20D
  8
0
  6
CONTINUOUS
 62
     3
 10
-184.548240661023
 20
36.1425447463989
 30
0.0
 11
-184.548240661023
 21
37.5175828933716
 31
0.0
  0
LINE
  5
   20E
  8
0
  6
CONTINUOUS
 62
     3
 10
-184.548240661621
 20
86.5175760183957
 30
0.0
 11
-184.548240661621
 21
92.8675584793091
 31
0.0
  0
LINE
  5
   20F
  8
0
  6
CONTINUOUS
 62
     3
 10
-169.798240661025
 20
58.2419862747192
 30
0.0
 11
-169.798240661025
 21
63.0173921585083
 31
0.0
  0
LINE
  5
   210
  8
0
  6
CONTINUOUS
 62
     3
 10
-169.798244837285
 20
29.5174041552635
 30
0.0
 11
-169.798267725468
 21
32.7927637859164
 31
0.0
  0
LINE
  5
   211
  8
0
  6
CONTINUOUS
 62
     3
 10
-173.448242186904
 20
10.6675615310669
 30
0.0
 11
-173.448242186904
 21
21.6425612722128
 31
0.0
  0
LINE
  5
   212
  8
0
  6
CONTINUOUS
 62
     3
 10
-173.44824371631
 20
36.1425523757935
 30
0.0
 11
-184.548242190432
 21
36.1425523757935
 31
0.0
  0
LINE
  5
   213
  8
0
  6
CONTINUOUS
 62
     3
 10
-173.448243371106
 20
30.3925523757935
 30
0.0
 11
-184.548241845227
 21
30.3925523757935
 31
0.0
  0
LINE
  5
   214
  8
0
  6
CONTINUOUS
 62
     1
 10
-170.798241137862
 20
82.1425523757935
 30
0.0
 11
-173.448242186904
 21
82.1425523757935
 31
0.0
  0
LINE
  5
   215
  8
0
  6
CONTINUOUS
 62
     1
 10
-172.048240661025
 20
21.6425604820251
 30
0.0
 11
-172.298240661025
 21
21.6425604820251
 31
0.0
  0
LINE
  5
   216
  8
0
  6
CONTINUOUS
 62
     1
 10
-170.798241137862
 20
21.6425741059478
 30
0.0
 11
-173.448242186904
 21
21.6425741059478
 31
0.0
  0
LINE
  5
   217
  8
0
  6
CONTINUOUS
 62
     2
 10
-169.797585470975
 20
24.3925523776209
 30
0.0
 11
-169.797585470975
 21
76.8925523776209
 31
0.0
  0
LINE
  5
   218
  8
0
  6
CONTINUOUS
 62
     2
 10
-168.048253059387
 20
76.8925523757935
 30
0.0
 11
-170.798241137862
 21
76.8925523757935
 31
0.0
  0
LINE
  5
   219
  8
0
  6
CONTINUOUS
 62
     2
 10
-168.048253059387
 20
24.3925523769735
 30
0.0
 11
-170.798241137862
 21
24.3925523769735
 31
0.0
  0
LINE
  5
   21A
  8
0
  6
CONTINUOUS
 62
     7
 10
-186.298244476194
 20
58.7675393502499
 30
0.0
 11
-187.548260451542
 21
58.7675393502499
 31
0.0
  0
LINE
  5
   21B
  8
0
  6
CONTINUOUS
 62
     7
 10
-170.798241137862
 20
76.8925523757935
 30
0.0
 11
-170.798241137862
 21
82.1425523757935
 31
0.0
  0
LINE
  5
   21C
  8
0
  6
CONTINUOUS
 62
     7
 10
-170.798241137862
 20
21.6425605501447
 30
0.0
 11
-170.798241137862
 21
24.3925523769735
 31
0.0
  0
LINE
  5
   21D
  8
0
  6
CONTINUOUS
 62
     3
 10
-173.448242186904
 20
82.1425523757935
 30
0.0
 11
-173.448242186904
 21
92.8675584793091
 31
0.0
  0
LINE
  5
   21E
  8
0
  6
CONTINUOUS
 62
     3
 10
-173.448242186904
 20
21.6425612722128
 30
0.0
 11
-173.448242186904
 21
82.1425523757935
 31
0.0
  0
ARC
  5
   21F
  8
0
  6
CONTINUOUS
 62
     7
 10
-154.960220756948
 20
39.6206115505074
 30
0.0
 40
0.499999897877905
 50
348.623601716676
 51
436.688817054576
  0
ARC
  5
   220
  8
0
  6
CONTINUOUS
 62
     7
 10
-155.558591485496
 20
36.6467022704585
 30
0.0
 40
0.50000037262337
 50
260.594020543651
 51
348.623601716676
  0
LINE
  5
   221
  8
0
  6
DASHDOT
 62
     7
 10
-147.559926920014
 20
36.5662845739766
 30
0.0
 11
-172.618272649004
 21
41.6081923440169
 31
0.0
  0
LINE
  5
   222
  8
0
  6
CONTINUOUS
 62
     7
 10
-154.845101025334
 20
40.1071780771627
 30
0.0
 11
-165.297681124501
 21
42.5802175276085
 31
0.0
  0
LINE
  5
   223
  8
0
  6
CONTINUOUS
 62
     7
 10
-155.068414991819
 20
36.5480754616942
 30
0.0
 11
-154.470044427564
 21
39.5219847748001
 31
0.0
  0
LINE
  5
   224
  8
0
  6
CONTINUOUS
 62
     7
 10
-155.640305980035
 20
36.153424507158
 30
0.0
 11
-165.297656060831
 21
37.7532239288077
 31
0.0
  0
ARC
  5
   225
  8
0
  6
DASHDOT
 62
     7
 10
-192.047841717574
 20
45.5175523757935
 30
0.0
 40
38.0221347997541
 50
337.492314704898
 51
359.999999948034
  0
LINE
  5
   226
  8
0
  6
DASHDOT
 62
     7
 10
-154.02570691782
 20
45.5175523757934
 30
0.0
 11
-154.02570691782
 21
48.3926521931622
 31
0.0
  0
LINE
  5
   227
  8
0
  6
CONTINUOUS
 62
     7
 10
-221.548240661621
 20
14.5175452232361
 30
0.0
 11
-221.548240661621
 21
19.5175447463989
 31
0.0
  0
LINE
  5
   228
  8
0
  6
CONTINUOUS
 62
   210
 10
-245.298260188749
 20
36.7675399783975
 30
0.0
 11
-243.298260188749
 21
36.7675476077921
 31
0.0
  0
LINE
  5
   229
  8
0
  6
CONTINUOUS
 62
   210
 10
-245.298262096098
 20
33.2675399783648
 30
0.0
 11
-243.298262096098
 21
33.2675476077593
 31
0.0
  0
LINE
  5
   22A
  8
0
  6
CONTINUOUS
 62
   210
 10
-245.548263549805
 20
81.2675523757935
 30
0.0
 11
-245.548263549805
 21
93.7675523757935
 31
0.0
  0
LINE
  5
   22B
  8
0
  6
CONTINUOUS
 62
     7
 10
-221.548240661621
 20
10.6675539016724
 30
0.0
 11
-240.048263549805
 21
10.6675539016724
 31
0.0
  0
LINE
  5
   22C
  8
0
  6
CONTINUOUS
 62
   210
 10
-221.548240661621
 20
9.26755237579346
 30
0.0
 11
-240.048263549805
 21
9.26755237579346
 31
0.0
  0
LINE
  5
   22D
  8
0
  6
CONTINUOUS
 62
   210
 10
-221.548240661621
 20
94.2675523757935
 30
0.0
 11
-240.048263549805
 21
94.2675523757935
 31
0.0
  0
LINE
  5
   22E
  8
0
  6
CONTINUOUS
 62
     3
 10
-221.548240661621
 20
92.8675584793091
 30
0.0
 11
-240.048263549805
 21
92.8675584793091
 31
0.0
  0
LINE
  5
   22F
  8
0
  6
CONTINUOUS
 62
   210
 10
-221.548240661621
 20
9.26755237579346
 30
0.0
 11
-221.548240661621
 21
94.2675523757935
 31
0.0
  0
LINE
  5
   230
  8
0
  6
CONTINUOUS
 62
   210
 10
-243.298263549805
 20
31.7675294876099
 30
0.0
 11
-243.298263549805
 21
33.2675476077538
 31
0.0
  0
LINE
  5
   231
  8
0
  6
CONTINUOUS
 62
   210
 10
-240.048263549805
 20
9.26755237579346
 30
0.0
 11
-240.048263549805
 21
9.76755237579346
 31
0.0
  0
LINE
  5
   232
  8
0
  6
CONTINUOUS
 62
     3
 10
-240.048263549805
 20
67.7675523757935
 30
0.0
 11
-243.298263549805
 21
67.7675523757935
 31
0.0
  0
LINE
  5
   233
  8
0
  6
CONTINUOUS
 62
   210
 10
-240.048263549805
 20
71.7675523757935
 30
0.0
 11
-240.048263549805
 21
80.0175523757935
 31
0.0
  0
LINE
  5
   234
  8
0
  6
CONTINUOUS
 62
     7
 10
-240.048263549805
 20
28.2675218582153
 30
0.0
 11
-243.298263549805
 21
28.2675218582153
 31
0.0
  0
LINE
  5
   235
  8
0
  6
CONTINUOUS
 62
     7
 10
-243.298263549805
 20
28.2675218582153
 30
0.0
 11
-243.298263549805
 21
30.0175523757935
 31
0.0
  0
LINE
  5
   236
  8
0
  6
CONTINUOUS
 62
     7
 10
-222.04822616813
 20
36.0175399892106
 30
0.0
 11
-243.298256685708
 21
36.0175399892106
 31
0.0
  0
LINE
  5
   237
  8
0
  6
CONTINUOUS
 62
     7
 10
-222.04822851888
 20
36.0175395446338
 30
0.0
 11
-221.548243793066
 21
36.517547156011
 31
0.0
  0
LINE
  5
   238
  8
0
  6
CONTINUOUS
 62
     7
 10
-222.048233032227
 20
30.517560005188
 30
0.0
 11
-243.298263549805
 21
30.517560005188
 31
0.0
  0
LINE
  5
   239
  8
0
  6
CONTINUOUS
 62
     7
 10
-221.548239446433
 20
30.0175454496415
 30
0.0
 11
-222.048224172247
 21
30.5175530610187
 31
0.0
  0
LINE
  5
   23A
  8
0
  6
CONTINUOUS
 62
   210
 10
-246.298268986072
 20
23.517550323667
 30
0.0
 11
-246.298261356678
 21
30.017550323667
 31
0.0
  0
LINE
  5
   23B
  8
0
  6
CONTINUOUS
 62
   210
 10
-246.298263395523
 20
73.517546798889
 30
0.0
 11
-246.298271024917
 21
80.017546798889
 31
0.0
  0
LINE
  5
   23C
  8
0
  6
CONTINUOUS
 62
     3
 10
-243.298263549805
 20
67.7675523757935
 30
0.0
 11
-243.298263549805
 21
69.7675523757935
 31
0.0
  0
LINE
  5
   23D
  8
0
  6
CONTINUOUS
 62
   210
 10
-221.548240661621
 20
22.7675523757935
 30
0.0
 11
-221.548240661621
 21
23.2675523757935
 31
0.0
  0
LINE
  5
   23E
  8
0
  6
CONTINUOUS
 62
   210
 10
-240.048263549805
 20
22.2675523757935
 30
0.0
 11
-245.548263549805
 21
22.2675523757935
 31
0.0
  0
LINE
  5
   23F
  8
0
  6
CONTINUOUS
 62
   210
 10
-240.048263549805
 20
81.2675523757935
 30
0.0
 11
-245.548263549805
 21
81.2675523757935
 31
0.0
  0
LINE
  5
   240
  8
0
  6
CONTINUOUS
 62
   210
 10
-240.048271179199
 20
23.5175523757935
 30
0.0
 11
-245.298271179199
 21
23.5175523757935
 31
0.0
  0
LINE
  5
   241
  8
0
  6
CONTINUOUS
 62
   210
 10
-243.298263549805
 20
30.0175523757935
 30
0.0
 11
-245.298271179199
 21
30.0175523757935
 31
0.0
  0
LINE
  5
   242
  8
0
  6
CONTINUOUS
 62
   210
 10
-240.048271179199
 20
80.0175523757935
 30
0.0
 11
-245.298271179199
 21
80.0175523757935
 31
0.0
  0
LINE
  5
   243
  8
0
  6
CONTINUOUS
 62
   210
 10
-240.048263549805
 20
73.5175523757935
 30
0.0
 11
-245.298271179199
 21
73.5175523757935
 31
0.0
  0
LINE
  5
   244
  8
0
  6
CONTINUOUS
 62
   210
 10
-240.04833984375
 20
71.7675523757935
 30
0.0
 11
-245.298263549805
 21
71.7675523757935
 31
0.0
  0
LINE
  5
   245
  8
0
  6
CONTINUOUS
 62
     3
 10
-240.048301696777
 20
69.7675523757935
 30
0.0
 11
-243.298263549805
 21
69.7675523757935
 31
0.0
  0
LINE
  5
   246
  8
0
  6
CONTINUOUS
 62
   210
 10
-243.298263549805
 20
67.7675523757935
 30
0.0
 11
-245.298263549805
 21
67.7675523757935
 31
0.0
  0
LINE
  5
   247
  8
0
  6
DASHDOT
 62
     7
 10
-246.298271179199
 20
80.0175523757935
 30
0.0
 11
-246.298271179199
 21
105.026590734368
 31
0.0
  0
LINE
  5
   248
  8
0
  6
DASHDOT
 62
     7
 10
-246.298268986072
 20
-2.75723801372406
 30
0.0
 11
-246.298268986072
 21
23.517550323667
 31
0.0
  0
LINE
  5
   249
  8
0
  6
DASHDOT
 62
     7
 10
-247.798263549805
 20
-2.80535042472643
 30
0.0
 11
-247.798263549805
 21
105.026590734368
 31
0.0
  0
LINE
  5
   24A
  8
0
  6
CONTINUOUS
 62
     7
 10
-243.209187197419
 20
105.026590734368
 30
0.0
 11
-253.348877816171
 21
105.026590734368
 31
0.0
  0
LINE
  5
   24B
  8
0
  6
CONTINUOUS
 62
     7
 10
-250.511091666326
 20
-2.85787669270938
 30
0.0
 11
-243.44974925243
 21
-2.72115370547226
 31
0.0
  0
LINE
  5
   24C
  8
0
  6
CONTINUOUS
 62
     7
 10
-240.048263549805
 20
23.5175523757935
 30
0.0
 11
-240.048263549805
 21
28.2675065994263
 31
0.0
  0
LINE
  5
   24D
  8
0
  6
CONTINUOUS
 62
   210
 10
-240.048263549805
 20
22.2675523757935
 30
0.0
 11
-240.048263549805
 21
23.5175523757935
 31
0.0
  0
LINE
  5
   24E
  8
0
  6
CONTINUOUS
 62
     3
 10
-243.298263549805
 20
33.2675476077538
 30
0.0
 11
-243.298263549805
 21
36.7675476077793
 31
0.0
  0
LINE
  5
   24F
  8
0
  6
CONTINUOUS
 62
   210
 10
-243.298263549805
 20
30.0175523757935
 30
0.0
 11
-243.298263549805
 21
31.7675294876099
 31
0.0
  0
LINE
  5
   250
  8
0
  6
CONTINUOUS
 62
   210
 10
-243.298263549805
 20
36.7675476077793
 30
0.0
 11
-243.298263549805
 21
67.7675447463989
 31
0.0
  0
LINE
  5
   251
  8
0
  6
CONTINUOUS
 62
     7
 10
-240.048263549805
 20
9.76755237579346
 30
0.0
 11
-240.048263549805
 21
22.2675523757935
 31
0.0
  0
LINE
  5
   252
  8
0
  6
CONTINUOUS
 62
   210
 10
-240.048263549805
 20
93.7675523757935
 30
0.0
 11
-240.048263549805
 21
94.2675523757935
 31
0.0
  0
LINE
  5
   253
  8
0
  6
CONTINUOUS
 62
     3
 10
-240.048263549805
 20
81.2675523757935
 30
0.0
 11
-240.048263549805
 21
93.7675523757935
 31
0.0
  0
LINE
  5
   254
  8
0
  6
CONTINUOUS
 62
   210
 10
-240.048263549805
 20
80.0175523757935
 30
0.0
 11
-240.048263549805
 21
81.2675523757935
 31
0.0
  0
LINE
  5
   255
  8
0
  6
CONTINUOUS
 62
   210
 10
-240.048263549805
 20
93.7675523757935
 30
0.0
 11
-245.548263549805
 21
93.7675523757935
 31
0.0
  0
LINE
  5
   256
  8
0
  6
CONTINUOUS
 62
     3
 10
-240.048263549805
 20
67.7675523757935
 30
0.0
 11
-240.048263549805
 21
71.7675523757935
 31
0.0
  0
LINE
  5
   257
  8
0
  6
DASHDOT
 62
     7
 10
-231.618712485124
 20
76.7675523757935
 30
0.0
 11
-254.704414018393
 21
76.7675523757935
 31
0.0
  0
LINE
  5
   258
  8
0
  6
DASHDOT
 62
     7
 10
-232.886072460399
 20
26.7675523757935
 30
0.0
 11
-255.697734995582
 21
26.7675523757935
 31
0.0
  0
CIRCLE
  5
   259
  8
0
  6
CONTINUOUS
 62
     7
 10
-234.79376933831
 20
83.4868939126584
 30
0.0
 40
0.1
  0
LINE
  5
   25A
  8
0
  6
CONTINUOUS
 62
   253
 10
-253.54825592041
 20
10.5175447463989
 30
0.0
 11
-253.54825592041
 21
21.5175447463989
 31
0.0
  0
LINE
  5
   25B
  8
0
  6
CONTINUOUS
 62
   253
 10
-253.548278808594
 20
81.517560005188
 30
0.0
 11
-253.548278808594
 21
93.517560005188
 31
0.0
  0
LINE
  5
   25C
  8
0
  6
CONTINUOUS
 62
     7
 10
-286.448257446289
 20
90.3012895584106
 30
0.0
 11
-286.448257446289
 21
93.0175447463989
 31
0.0
  0
LINE
  5
   25D
  8
0
  6
CONTINUOUS
 62
     7
 10
-286.448257446289
 20
84.8743028640747
 30
0.0
 11
-286.448257446289
 21
90.1607866287232
 31
0.0
  0
LINE
  5
   25E
  8
0
  6
CONTINUOUS
 62
     7
 10
-286.448257446289
 20
82.0175447463989
 30
0.0
 11
-286.448257446289
 21
84.7337923049927
 31
0.0
  0
LINE
  5
   25F
  8
0
  6
CONTINUOUS
 62
     7
 10
-287.698257446289
 20
82.0175447463989
 30
0.0
 11
-287.698257446289
 21
93.0175447463989
 31
0.0
  0
LINE
  5
   260
  8
0
  6
CONTINUOUS
 62
     7
 10
-290.698257446289
 20
82.0175447463989
 30
0.0
 11
-290.698257446289
 21
93.0175447463989
 31
0.0
  0
LINE
  5
   261
  8
0
  6
CONTINUOUS
 62
     7
 10
-291.948257446289
 20
82.0175447463989
 30
0.0
 11
-291.948257446289
 21
84.7337923049927
 31
0.0
  0
LINE
  5
   262
  8
0
  6
CONTINUOUS
 62
     7
 10
-291.948257446289
 20
84.8743028640747
 30
0.0
 11
-291.948257446289
 21
90.1607866287232
 31
0.0
  0
LINE
  5
   263
  8
0
  6
CONTINUOUS
 62
     7
 10
-291.948257446289
 20
90.3012895584106
 30
0.0
 11
-291.948257446289
 21
93.0175447463989
 31
0.0
  0
LINE
  5
   264
  8
0
  6
CONTINUOUS
 62
     2
 10
-245.298271179199
 20
80.267560005188
 30
0.0
 11
-246.048271179199
 21
80.267560005188
 31
0.0
  0
LINE
  5
   265
  8
0
  6
CONTINUOUS
 62
     2
 10
-245.298271179199
 20
23.2675561904907
 30
0.0
 11
-246.048271179199
 21
23.2675561904907
 31
0.0
  0
LINE
  5
   266
  8
0
  6
CONTINUOUS
 62
     2
 10
-245.298271179199
 20
23.2675561904907
 30
0.0
 11
-245.298271179199
 21
80.267560005188
 31
0.0
  0
LINE
  5
   267
  8
0
  6
CONTINUOUS
 62
     2
 10
-246.048271179199
 20
23.2675561904907
 30
0.0
 11
-246.048271179199
 21
80.267560005188
 31
0.0
  0
LINE
  5
   268
  8
0
  6
CONTINUOUS
 62
     7
 10
-279.54825592041
 20
82.5175447463989
 30
0.0
 11
-279.54825592041
 21
92.5175447463989
 31
0.0
  0
LINE
  5
   269
  8
0
  6
CONTINUOUS
 62
     7
 10
-279.948257446289
 20
82.7008333206177
 30
0.0
 11
-279.948257446289
 21
84.0806322097778
 31
0.0
  0
LINE
  5
   26A
  8
0
  6
CONTINUOUS
 62
     7
 10
-279.948257446289
 20
85.9620943069458
 30
0.0
 11
-279.948257446289
 21
89.0729951858521
 31
0.0
  0
LINE
  5
   26B
  8
0
  6
CONTINUOUS
 62
     7
 10
-279.948257446289
 20
90.954442024231
 30
0.0
 11
-279.948257446289
 21
92.3342638015747
 31
0.0
  0
LINE
  5
   26C
  8
0
  6
CONTINUOUS
 62
     3
 10
-282.948257446289
 20
82.0327196121216
 30
0.0
 11
-282.948257446289
 21
93.0023698806763
 31
0.0
  0
LINE
  5
   26D
  8
0
  6
CONTINUOUS
 62
     3
 10
-279.948257446289
 20
92.3342638015747
 30
0.0
 11
-279.948257446289
 21
93.0023698806763
 31
0.0
  0
LINE
  5
   26E
  8
0
  6
CONTINUOUS
 62
     3
 10
-279.948257446289
 20
89.0729951858521
 30
0.0
 11
-279.948257446289
 21
90.9544496536255
 31
0.0
  0
LINE
  5
   26F
  8
0
  6
CONTINUOUS
 62
     3
 10
-279.948257446289
 20
84.0806398391724
 30
0.0
 11
-279.948257446289
 21
85.9620866775513
 31
0.0
  0
LINE
  5
   270
  8
0
  6
CONTINUOUS
 62
     3
 10
-279.948257446289
 20
82.0327196121216
 30
0.0
 11
-279.948257446289
 21
82.7008333206177
 31
0.0
  0
LINE
  5
   271
  8
0
  6
CONTINUOUS
 62
     3
 10
-286.448257446289
 20
84.7337923049927
 30
0.0
 11
-286.448257446289
 21
84.8743104934692
 31
0.0
  0
LINE
  5
   272
  8
0
  6
CONTINUOUS
 62
     3
 10
-286.448257446289
 20
90.1607866287232
 30
0.0
 11
-286.448257446289
 21
90.3012971878052
 31
0.0
  0
LINE
  5
   273
  8
0
  6
CONTINUOUS
 62
     3
 10
-283.448257446289
 20
82.0327196121216
 30
0.0
 11
-283.448257446289
 21
93.0023698806763
 31
0.0
  0
LINE
  5
   274
  8
0
  6
CONTINUOUS
 62
     3
 10
-291.948257446289
 20
90.1607866287232
 30
0.0
 11
-291.948257446289
 21
90.3012895584106
 31
0.0
  0
LINE
  5
   275
  8
0
  6
CONTINUOUS
 62
     3
 10
-291.948257446289
 20
84.7337923049927
 30
0.0
 11
-291.948257446289
 21
84.8743028640747
 31
0.0
  0
LINE
  5
   276
  8
0
  6
CONTINUOUS
 62
     3
 10
-294.948257446289
 20
82.0327196121216
 30
0.0
 11
-294.948257446289
 21
93.0023698806763
 31
0.0
  0
LINE
  5
   277
  8
0
  6
CONTINUOUS
 62
   212
 10
-296.29825592041
 20
85.517560005188
 30
0.0
 11
-296.29825592041
 21
89.517560005188
 31
0.0
  0
LINE
  5
   278
  8
0
  6
CONTINUOUS
 62
   253
 10
-253.548278808594
 20
10.0175447463989
 30
0.0
 11
-253.548278808594
 21
10.5175447463989
 31
0.0
  0
LINE
  5
   279
  8
0
  6
CONTINUOUS
 62
   253
 10
-253.548278808594
 20
21.5175447463989
 30
0.0
 11
-253.548278808594
 21
22.0175447463989
 31
0.0
  0
LINE
  5
   27A
  8
0
  6
CONTINUOUS
 62
     7
 10
-286.448257446289
 20
18.8012914657593
 30
0.0
 11
-286.448257446289
 21
21.5175447463989
 31
0.0
  0
LINE
  5
   27B
  8
0
  6
CONTINUOUS
 62
     7
 10
-286.448257446289
 20
13.3743028640747
 30
0.0
 11
-286.448257446289
 21
18.6607885360718
 31
0.0
  0
LINE
  5
   27C
  8
0
  6
CONTINUOUS
 62
     7
 10
-286.448257446289
 20
10.5175447463989
 30
0.0
 11
-286.448257446289
 21
13.2337980270386
 31
0.0
  0
LINE
  5
   27D
  8
0
  6
CONTINUOUS
 62
     7
 10
-287.698257446289
 20
10.5175447463989
 30
0.0
 11
-287.698257446289
 21
21.5175447463989
 31
0.0
  0
LINE
  5
   27E
  8
0
  6
CONTINUOUS
 62
     7
 10
-290.698257446289
 20
10.5175447463989
 30
0.0
 11
-290.698257446289
 21
21.5175447463989
 31
0.0
  0
LINE
  5
   27F
  8
0
  6
CONTINUOUS
 62
     7
 10
-291.948257446289
 20
10.5175447463989
 30
0.0
 11
-291.948257446289
 21
13.2337961196899
 31
0.0
  0
LINE
  5
   280
  8
0
  6
CONTINUOUS
 62
     7
 10
-291.948257446289
 20
13.3743028640747
 30
0.0
 11
-291.948257446289
 21
18.6607866287231
 31
0.0
  0
LINE
  5
   281
  8
0
  6
CONTINUOUS
 62
     7
 10
-291.948257446289
 20
18.8012895584106
 30
0.0
 11
-291.948257446289
 21
21.5175447463989
 31
0.0
  0
LINE
  5
   282
  8
0
  6
CONTINUOUS
 62
     7
 10
-279.54825592041
 20
11.0175447463989
 30
0.0
 11
-279.54825592041
 21
21.0175447463989
 31
0.0
  0
LINE
  5
   283
  8
0
  6
CONTINUOUS
 62
     7
 10
-279.948257446289
 20
11.2008275985718
 30
0.0
 11
-279.948257446289
 21
12.5806398391724
 31
0.0
  0
LINE
  5
   284
  8
0
  6
CONTINUOUS
 62
     7
 10
-279.948257446289
 20
14.4620904922485
 30
0.0
 11
-279.948257446289
 21
17.573000907898
 31
0.0
  0
LINE
  5
   285
  8
0
  6
CONTINUOUS
 62
     7
 10
-279.948257446289
 20
19.4544458389282
 30
0.0
 11
-279.948257446289
 21
20.8342638015747
 31
0.0
  0
LINE
  5
   286
  8
0
  6
CONTINUOUS
 62
     3
 10
-282.948257446289
 20
10.5327167510986
 30
0.0
 11
-282.948257446289
 21
21.5023717880249
 31
0.0
  0
LINE
  5
   287
  8
0
  6
CONTINUOUS
 62
     3
 10
-279.948257446289
 20
20.8342618942261
 30
0.0
 11
-279.948257446289
 21
21.5023717880249
 31
0.0
  0
LINE
  5
   288
  8
0
  6
CONTINUOUS
 62
     3
 10
-279.948257446289
 20
17.5729990005493
 30
0.0
 11
-279.948257446289
 21
19.4544477462769
 31
0.0
  0
LINE
  5
   289
  8
0
  6
CONTINUOUS
 62
     3
 10
-279.948257446289
 20
12.5806398391724
 30
0.0
 11
-279.948257446289
 21
14.4620885848999
 31
0.0
  0
LINE
  5
   28A
  8
0
  6
CONTINUOUS
 62
     3
 10
-279.948257446289
 20
10.5327167510986
 30
0.0
 11
-279.948257446289
 21
11.2008275985718
 31
0.0
  0
LINE
  5
   28B
  8
0
  6
CONTINUOUS
 62
     3
 10
-291.948257446289
 20
18.6607866287231
 30
0.0
 11
-291.948257446289
 21
18.8012914657593
 31
0.0
  0
LINE
  5
   28C
  8
0
  6
CONTINUOUS
 62
     3
 10
-291.948257446289
 20
13.2337961196899
 30
0.0
 11
-291.948257446289
 21
13.3743047714233
 31
0.0
  0
LINE
  5
   28D
  8
0
  6
CONTINUOUS
 62
     3
 10
-294.948257446289
 20
10.5327167510986
 30
0.0
 11
-294.948257446289
 21
21.5023717880249
 31
0.0
  0
LINE
  5
   28E
  8
0
  6
CONTINUOUS
 62
     3
 10
-286.448257446289
 20
13.2337961196899
 30
0.0
 11
-286.448257446289
 21
13.3743047714233
 31
0.0
  0
LINE
  5
   28F
  8
0
  6
CONTINUOUS
 62
     3
 10
-286.448257446289
 20
18.6607885360718
 30
0.0
 11
-286.448257446289
 21
18.8012914657593
 31
0.0
  0
LINE
  5
   290
  8
0
  6
CONTINUOUS
 62
     3
 10
-283.448257446289
 20
10.5327167510986
 30
0.0
 11
-283.448257446289
 21
21.5023717880249
 31
0.0
  0
LINE
  5
   291
  8
0
  6
CONTINUOUS
 62
   212
 10
-296.29825592041
 20
14.0175447463989
 30
0.0
 11
-296.29825592041
 21
18.0175447463989
 31
0.0
  0
LINE
  5
   292
  8
0
  6
CONTINUOUS
 62
   253
 10
-245.54825592041
 20
22.0175447463989
 30
0.0
 11
-253.04825592041
 21
22.0175447463989
 31
0.0
  0
LINE
  5
   293
  8
0
  6
CONTINUOUS
 62
   253
 10
-245.54825592041
 20
10.0175447463989
 30
0.0
 11
-253.04825592041
 21
10.0175447463989
 31
0.0
  0
LINE
  5
   294
  8
0
  6
CONTINUOUS
 62
   253
 10
-253.548253998209
 20
21.5175447968384
 30
0.0
 11
-253.048254015323
 21
22.0175447797241
 31
0.0
  0
LINE
  5
   295
  8
0
  6
CONTINUOUS
 62
   253
 10
-253.048253666731
 20
10.0175436672969
 30
0.0
 11
-253.548253649616
 21
10.5175436501826
 31
0.0
  0
LINE
  5
   296
  8
0
  6
CONTINUOUS
 62
   253
 10
-245.548278808594
 20
81.517560005188
 30
0.0
 11
-253.548278808594
 21
81.517560005188
 31
0.0
  0
LINE
  5
   297
  8
0
  6
CONTINUOUS
 62
   253
 10
-245.548278808594
 20
93.517560005188
 30
0.0
 11
-253.548278808594
 21
93.517560005188
 31
0.0
  0
LINE
  5
   298
  8
0
  6
CONTINUOUS
 62
   253
 10
-279.048281340905
 20
82.5175615080077
 30
0.0
 11
-279.40183511294
 21
82.6640077362909
 31
0.0
  0
LINE
  5
   299
  8
0
  6
CONTINUOUS
 62
   253
 10
-279.40183427928
 20
82.6640084086555
 30
0.0
 11
-279.548280507563
 21
83.0175621806901
 31
0.0
  0
LINE
  5
   29A
  8
0
  6
CONTINUOUS
 62
   253
 10
-279.40183440617
 20
92.3711145658904
 30
0.0
 11
-279.048280634135
 21
92.5175607941735
 31
0.0
  0
LINE
  5
   29B
  8
0
  6
CONTINUOUS
 62
   253
 10
-279.548279800793
 20
92.0175615350385
 30
0.0
 11
-279.40183357251
 21
92.3711153070731
 31
0.0
  0
LINE
  5
   29C
  8
0
  6
CONTINUOUS
 62
     7
 10
-286.448257446289
 20
93.0175447463989
 30
0.0
 11
-287.698257446289
 21
93.0175447463989
 31
0.0
  0
LINE
  5
   29D
  8
0
  6
CONTINUOUS
 62
     7
 10
-286.448257446289
 20
82.0175447463989
 30
0.0
 11
-287.698257446289
 21
82.0175447463989
 31
0.0
  0
LINE
  5
   29E
  8
0
  6
CONTINUOUS
 62
     7
 10
-290.698257446289
 20
93.0175447463989
 30
0.0
 11
-291.948257446289
 21
93.0175447463989
 31
0.0
  0
LINE
  5
   29F
  8
0
  6
CONTINUOUS
 62
     7
 10
-290.698257446289
 20
82.0175447463989
 30
0.0
 11
-291.948257446289
 21
82.0175447463989
 31
0.0
  0
LINE
  5
   2A0
  8
0
  6
CONTINUOUS
 62
     7
 10
-279.54825592041
 20
92.5175447463989
 30
0.0
 11
-279.948257446289
 21
92.5175447463989
 31
0.0
  0
LINE
  5
   2A1
  8
0
  6
CONTINUOUS
 62
     7
 10
-279.54825592041
 20
82.5175447463989
 30
0.0
 11
-279.948257446289
 21
82.5175447463989
 31
0.0
  0
LINE
  5
   2A2
  8
0
  6
CONTINUOUS
 62
     3
 10
-279.948257446289
 20
93.0023698806763
 30
0.0
 11
-282.948257446289
 21
93.0023698806763
 31
0.0
  0
LINE
  5
   2A3
  8
0
  6
CONTINUOUS
 62
     3
 10
-279.948257446289
 20
90.2599611282349
 30
0.0
 11
-282.948257446289
 21
90.2599611282349
 31
0.0
  0
LINE
  5
   2A4
  8
0
  6
CONTINUOUS
 62
     3
 10
-279.948257446289
 20
84.775128364563
 30
0.0
 11
-282.948257446289
 21
84.775128364563
 31
0.0
  0
LINE
  5
   2A5
  8
0
  6
CONTINUOUS
 62
     3
 10
-279.948257446289
 20
82.0327196121216
 30
0.0
 11
-282.948257446289
 21
82.0327196121216
 31
0.0
  0
LINE
  5
   2A6
  8
0
  6
CONTINUOUS
 62
     3
 10
-283.448257446289
 20
93.0023698806763
 30
0.0
 11
-286.448257446289
 21
93.0023698806763
 31
0.0
  0
LINE
  5
   2A7
  8
0
  6
CONTINUOUS
 62
     3
 10
-283.448257446289
 20
90.2599611282349
 30
0.0
 11
-286.448257446289
 21
90.2599611282349
 31
0.0
  0
LINE
  5
   2A8
  8
0
  6
CONTINUOUS
 62
     3
 10
-283.448257446289
 20
84.775128364563
 30
0.0
 11
-286.448257446289
 21
84.775128364563
 31
0.0
  0
LINE
  5
   2A9
  8
0
  6
CONTINUOUS
 62
     3
 10
-283.448257446289
 20
82.0327196121216
 30
0.0
 11
-286.448257446289
 21
82.0327196121216
 31
0.0
  0
LINE
  5
   2AA
  8
0
  6
CONTINUOUS
 62
     3
 10
-291.948257446289
 20
93.0023698806763
 30
0.0
 11
-294.948257446289
 21
93.0023698806763
 31
0.0
  0
LINE
  5
   2AB
  8
0
  6
CONTINUOUS
 62
     3
 10
-291.948257446289
 20
90.2599611282349
 30
0.0
 11
-294.948257446289
 21
90.2599611282349
 31
0.0
  0
LINE
  5
   2AC
  8
0
  6
CONTINUOUS
 62
     3
 10
-291.948257446289
 20
84.775128364563
 30
0.0
 11
-294.948257446289
 21
84.775128364563
 31
0.0
  0
LINE
  5
   2AD
  8
0
  6
CONTINUOUS
 62
     3
 10
-291.948257446289
 20
82.0327196121216
 30
0.0
 11
-294.948257446289
 21
82.0327196121216
 31
0.0
  0
LINE
  5
   2AE
  8
0
  6
CONTINUOUS
 62
   212
 10
-295.298251944607
 20
84.5175566520268
 30
0.0
 11
-296.298251910379
 21
85.5175566177983
 31
0.0
  0
LINE
  5
   2AF
  8
0
  6
CONTINUOUS
 62
   212
 10
-296.298253482641
 20
89.5175586757889
 30
0.0
 11
-295.29825351687
 21
90.5175586415604
 31
0.0
  0
LINE
  5
   2B0
  8
0
  6
CONTINUOUS
 62
   212
 10
-295.29825592041
 20
90.3707323074341
 30
0.0
 11
-295.29825592041
 21
90.517560005188
 31
0.0
  0
LINE
  5
   2B1
  8
0
  6
CONTINUOUS
 62
   212
 10
-295.29825592041
 20
89.9446077346802
 30
0.0
 11
-295.29825592041
 21
90.3707323074341
 31
0.0
  0
LINE
  5
   2B2
  8
0
  6
CONTINUOUS
 62
   212
 10
-295.29825592041
 20
89.2809190750122
 30
0.0
 11
-295.29825592041
 21
89.9446077346802
 31
0.0
  0
LINE
  5
   2B3
  8
0
  6
CONTINUOUS
 62
   212
 10
-295.29825592041
 20
88.4446077346802
 30
0.0
 11
-295.29825592041
 21
89.2809190750122
 31
0.0
  0
LINE
  5
   2B4
  8
0
  6
CONTINUOUS
 62
   212
 10
-295.29825592041
 20
87.517560005188
 30
0.0
 11
-295.29825592041
 21
88.4446077346802
 31
0.0
  0
LINE
  5
   2B5
  8
0
  6
CONTINUOUS
 62
   212
 10
-295.29825592041
 20
86.5905122756958
 30
0.0
 11
-295.29825592041
 21
87.517560005188
 31
0.0
  0
LINE
  5
   2B6
  8
0
  6
CONTINUOUS
 62
   212
 10
-295.29825592041
 20
85.7542009353638
 30
0.0
 11
-295.29825592041
 21
86.5905122756958
 31
0.0
  0
LINE
  5
   2B7
  8
0
  6
CONTINUOUS
 62
   212
 10
-295.29825592041
 20
85.0905122756958
 30
0.0
 11
-295.29825592041
 21
85.7542009353638
 31
0.0
  0
LINE
  5
   2B8
  8
0
  6
CONTINUOUS
 62
   212
 10
-295.29825592041
 20
84.6643877029419
 30
0.0
 11
-295.29825592041
 21
85.0905122756958
 31
0.0
  0
LINE
  5
   2B9
  8
0
  6
CONTINUOUS
 62
   212
 10
-295.29825592041
 20
84.517560005188
 30
0.0
 11
-295.29825592041
 21
84.6643877029419
 31
0.0
  0
LINE
  5
   2BA
  8
0
  6
CONTINUOUS
 62
   212
 10
-294.948257446289
 20
84.517560005188
 30
0.0
 11
-295.29825592041
 21
84.517560005188
 31
0.0
  0
LINE
  5
   2BB
  8
0
  6
CONTINUOUS
 62
   212
 10
-287.698257446289
 20
84.517560005188
 30
0.0
 11
-290.698257446289
 21
84.517560005188
 31
0.0
  0
LINE
  5
   2BC
  8
0
  6
CONTINUOUS
 62
   212
 10
-282.948257446289
 20
84.517560005188
 30
0.0
 11
-283.448257446289
 21
84.517560005188
 31
0.0
  0
LINE
  5
   2BD
  8
0
  6
CONTINUOUS
 62
   212
 10
-294.948257446289
 20
90.517560005188
 30
0.0
 11
-295.29825592041
 21
90.517560005188
 31
0.0
  0
LINE
  5
   2BE
  8
0
  6
CONTINUOUS
 62
   212
 10
-287.698257446289
 20
90.517560005188
 30
0.0
 11
-290.698257446289
 21
90.517560005188
 31
0.0
  0
LINE
  5
   2BF
  8
0
  6
CONTINUOUS
 62
   212
 10
-282.948257446289
 20
90.517560005188
 30
0.0
 11
-283.448257446289
 21
90.517560005188
 31
0.0
  0
LINE
  5
   2C0
  8
0
  6
CONTINUOUS
 62
     5
 10
-221.548240661621
 20
13.2085432989813
 30
0.0
 11
-220.548240661621
 21
13.5725123928824
 31
0.0
  0
LINE
  5
   2C1
  8
0
  6
CONTINUOUS
 62
     5
 10
-220.548240661621
 20
18.4625774858205
 30
0.0
 11
-221.548240661621
 21
18.8265465797216
 31
0.0
  0
LINE
  5
   2C2
  8
0
  6
CONTINUOUS
 62
     5
 10
-221.548240661621
 20
84.7085533910646
 30
0.0
 11
-220.548240661621
 21
85.0725260951099
 31
0.0
  0
LINE
  5
   2C3
  8
0
  6
CONTINUOUS
 62
     5
 10
-220.548240661621
 20
89.9625874079522
 30
0.0
 11
-221.548240661621
 21
90.3265601119975
 31
0.0
  0
LINE
  5
   2C4
  8
0
  6
CONTINUOUS
 62
   253
 10
-253.04825592041
 20
22.0175447463989
 30
0.0
 11
-253.548278808594
 21
22.0175447463989
 31
0.0
  0
LINE
  5
   2C5
  8
0
  6
CONTINUOUS
 62
   253
 10
-253.04825592041
 20
10.0175447463989
 30
0.0
 11
-253.548278808594
 21
10.0175447463989
 31
0.0
  0
LINE
  5
   2C6
  8
0
  6
CONTINUOUS
 62
   253
 10
-268.948257446289
 20
21.0175447463989
 30
0.0
 11
-279.048278808594
 21
21.0175447463989
 31
0.0
  0
LINE
  5
   2C7
  8
0
  6
CONTINUOUS
 62
   253
 10
-268.948257446289
 20
11.0175447463989
 30
0.0
 11
-279.048278808594
 21
11.0175447463989
 31
0.0
  0
LINE
  5
   2C8
  8
0
  6
CONTINUOUS
 62
   253
 10
-279.401834681205
 20
20.871098415261
 30
0.0
 11
-279.04828090917
 21
21.0175446435441
 31
0.0
  0
LINE
  5
   2C9
  8
0
  6
CONTINUOUS
 62
   253
 10
-279.548280075828
 20
20.5175448343369
 30
0.0
 11
-279.401833847545
 21
20.8710986063715
 31
0.0
  0
LINE
  5
   2CA
  8
0
  6
CONTINUOUS
 62
   253
 10
-279.048281065871
 20
11.0175453573784
 30
0.0
 11
-279.401834837905
 21
11.1639915856615
 31
0.0
  0
LINE
  5
   2CB
  8
0
  6
CONTINUOUS
 62
   253
 10
-279.401834004245
 20
11.1639917079539
 30
0.0
 11
-279.548280232528
 21
11.5175454799885
 31
0.0
  0
LINE
  5
   2CC
  8
0
  6
CONTINUOUS
 62
     7
 10
-286.448257446289
 20
21.5175447463989
 30
0.0
 11
-287.698257446289
 21
21.5175447463989
 31
0.0
  0
LINE
  5
   2CD
  8
0
  6
CONTINUOUS
 62
     7
 10
-286.448257446289
 20
10.5175447463989
 30
0.0
 11
-287.698257446289
 21
10.5175447463989
 31
0.0
  0
LINE
  5
   2CE
  8
0
  6
CONTINUOUS
 62
     7
 10
-290.698257446289
 20
21.5175447463989
 30
0.0
 11
-291.948257446289
 21
21.5175447463989
 31
0.0
  0
LINE
  5
   2CF
  8
0
  6
CONTINUOUS
 62
     7
 10
-290.698257446289
 20
10.5175447463989
 30
0.0
 11
-291.948257446289
 21
10.5175447463989
 31
0.0
  0
LINE
  5
   2D0
  8
0
  6
CONTINUOUS
 62
     7
 10
-279.54825592041
 20
21.0175447463989
 30
0.0
 11
-279.948257446289
 21
21.0175447463989
 31
0.0
  0
LINE
  5
   2D1
  8
0
  6
CONTINUOUS
 62
     7
 10
-279.54825592041
 20
11.0175447463989
 30
0.0
 11
-279.948257446289
 21
11.0175447463989
 31
0.0
  0
LINE
  5
   2D2
  8
0
  6
CONTINUOUS
 62
     3
 10
-279.948257446289
 20
21.5023717880249
 30
0.0
 11
-282.948257446289
 21
21.5023717880249
 31
0.0
  0
LINE
  5
   2D3
  8
0
  6
CONTINUOUS
 62
     3
 10
-279.948257446289
 20
18.7599592208862
 30
0.0
 11
-282.948257446289
 21
18.7599592208862
 31
0.0
  0
LINE
  5
   2D4
  8
0
  6
CONTINUOUS
 62
     3
 10
-279.948257446289
 20
13.2751302719116
 30
0.0
 11
-282.948257446289
 21
13.2751302719116
 31
0.0
  0
LINE
  5
   2D5
  8
0
  6
CONTINUOUS
 62
     3
 10
-279.948257446289
 20
10.5327167510986
 30
0.0
 11
-282.948257446289
 21
10.5327167510986
 31
0.0
  0
LINE
  5
   2D6
  8
0
  6
CONTINUOUS
 62
     3
 10
-291.948257446289
 20
21.5023717880249
 30
0.0
 11
-294.948257446289
 21
21.5023717880249
 31
0.0
  0
LINE
  5
   2D7
  8
0
  6
CONTINUOUS
 62
     3
 10
-291.948257446289
 20
18.7599592208862
 30
0.0
 11
-294.948257446289
 21
18.7599592208862
 31
0.0
  0
LINE
  5
   2D8
  8
0
  6
CONTINUOUS
 62
     3
 10
-291.948257446289
 20
13.2751302719116
 30
0.0
 11
-294.948257446289
 21
13.2751302719116
 31
0.0
  0
LINE
  5
   2D9
  8
0
  6
CONTINUOUS
 62
     3
 10
-291.948257446289
 20
10.5327167510986
 30
0.0
 11
-294.948257446289
 21
10.5327167510986
 31
0.0
  0
LINE
  5
   2DA
  8
0
  6
CONTINUOUS
 62
     3
 10
-283.448257446289
 20
21.5023717880249
 30
0.0
 11
-286.448257446289
 21
21.5023717880249
 31
0.0
  0
LINE
  5
   2DB
  8
0
  6
CONTINUOUS
 62
     3
 10
-283.448257446289
 20
18.7599592208862
 30
0.0
 11
-286.448257446289
 21
18.7599592208862
 31
0.0
  0
LINE
  5
   2DC
  8
0
  6
CONTINUOUS
 62
     3
 10
-283.448257446289
 20
13.2751302719116
 30
0.0
 11
-286.448257446289
 21
13.2751302719116
 31
0.0
  0
LINE
  5
   2DD
  8
0
  6
CONTINUOUS
 62
     3
 10
-283.448257446289
 20
10.5327167510986
 30
0.0
 11
-286.448257446289
 21
10.5327167510986
 31
0.0
  0
LINE
  5
   2DE
  8
0
  6
CONTINUOUS
 62
   212
 10
-296.298252870806
 20
18.0175452525058
 30
0.0
 11
-295.298252905035
 21
19.0175452182773
 31
0.0
  0
LINE
  5
   2DF
  8
0
  6
CONTINUOUS
 62
   212
 10
-295.298252556442
 20
13.0175432287437
 30
0.0
 11
-296.298252522214
 21
14.0175431945152
 31
0.0
  0
LINE
  5
   2E0
  8
0
  6
CONTINUOUS
 62
   212
 10
-295.29825592041
 20
13.0175447463989
 30
0.0
 11
-295.29825592041
 21
13.1643743515015
 31
0.0
  0
LINE
  5
   2E1
  8
0
  6
CONTINUOUS
 62
   212
 10
-295.29825592041
 20
13.1643743515015
 30
0.0
 11
-295.29825592041
 21
13.5904932022095
 31
0.0
  0
LINE
  5
   2E2
  8
0
  6
CONTINUOUS
 62
   212
 10
-295.29825592041
 20
13.5904932022095
 30
0.0
 11
-295.29825592041
 21
14.254189491272
 31
0.0
  0
LINE
  5
   2E3
  8
0
  6
CONTINUOUS
 62
   212
 10
-295.29825592041
 20
14.254189491272
 30
0.0
 11
-295.29825592041
 21
15.0904932022095
 31
0.0
  0
LINE
  5
   2E4
  8
0
  6
CONTINUOUS
 62
   212
 10
-295.29825592041
 20
15.0904932022095
 30
0.0
 11
-295.29825592041
 21
16.0175447463989
 31
0.0
  0
LINE
  5
   2E5
  8
0
  6
CONTINUOUS
 62
   212
 10
-295.29825592041
 20
16.0175447463989
 30
0.0
 11
-295.29825592041
 21
16.9445962905884
 31
0.0
  0
LINE
  5
   2E6
  8
0
  6
CONTINUOUS
 62
   212
 10
-295.29825592041
 20
16.9445962905884
 30
0.0
 11
-295.29825592041
 21
17.7809000015259
 31
0.0
  0
LINE
  5
   2E7
  8
0
  6
CONTINUOUS
 62
   212
 10
-295.29825592041
 20
17.7809000015259
 30
0.0
 11
-295.29825592041
 21
18.4445962905884
 31
0.0
  0
LINE
  5
   2E8
  8
0
  6
CONTINUOUS
 62
   212
 10
-295.29825592041
 20
18.4445962905884
 30
0.0
 11
-295.29825592041
 21
18.8707151412964
 31
0.0
  0
LINE
  5
   2E9
  8
0
  6
CONTINUOUS
 62
   212
 10
-295.29825592041
 20
18.8707151412964
 30
0.0
 11
-295.29825592041
 21
19.0175447463989
 31
0.0
  0
LINE
  5
   2EA
  8
0
  6
CONTINUOUS
 62
   212
 10
-294.948257446289
 20
19.0175447463989
 30
0.0
 11
-295.29825592041
 21
19.0175447463989
 31
0.0
  0
LINE
  5
   2EB
  8
0
  6
CONTINUOUS
 62
   212
 10
-287.698257446289
 20
19.0175447463989
 30
0.0
 11
-290.698257446289
 21
19.0175447463989
 31
0.0
  0
LINE
  5
   2EC
  8
0
  6
CONTINUOUS
 62
   212
 10
-282.948257446289
 20
19.0175447463989
 30
0.0
 11
-283.448257446289
 21
19.0175447463989
 31
0.0
  0
LINE
  5
   2ED
  8
0
  6
CONTINUOUS
 62
   212
 10
-294.948257446289
 20
13.0175447463989
 30
0.0
 11
-295.29825592041
 21
13.0175447463989
 31
0.0
  0
LINE
  5
   2EE
  8
0
  6
CONTINUOUS
 62
   212
 10
-287.698257446289
 20
13.0175447463989
 30
0.0
 11
-290.698257446289
 21
13.0175447463989
 31
0.0
  0
LINE
  5
   2EF
  8
0
  6
CONTINUOUS
 62
   212
 10
-282.948257446289
 20
13.0175447463989
 30
0.0
 11
-283.448257446289
 21
13.0175447463989
 31
0.0
  0
LINE
  5
   2F0
  8
0
  6
CONTINUOUS
 62
   210
 10
-245.548263549805
 20
9.76755237579346
 30
0.0
 11
-245.548263549805
 21
22.2675523757935
 31
0.0
  0
LINE
  5
   2F1
  8
0
  6
CONTINUOUS
 62
   210
 10
-240.048263549805
 20
9.76755237579346
 30
0.0
 11
-245.548263549805
 21
9.76755237579346
 31
0.0
  0
LINE
  5
   2F2
  8
0
  6
CONTINUOUS
 62
   210
 10
-246.048271179199
 20
30.0175523757935
 30
0.0
 11
-246.298263549805
 21
30.0175523757935
 31
0.0
  0
LINE
  5
   2F3
  8
0
  6
CONTINUOUS
 62
   210
 10
-246.048271179199
 20
23.5175523757935
 30
0.0
 11
-246.298271179199
 21
23.5175523757935
 31
0.0
  0
LINE
  5
   2F4
  8
0
  6
DASHDOT
 62
     7
 10
-246.298261356678
 20
30.017550323667
 30
0.0
 11
-246.298261356678
 21
73.5175523757935
 31
0.0
  0
LINE
  5
   2F5
  8
0
  6
CONTINUOUS
 62
   210
 10
-246.048271179199
 20
80.0175523757935
 30
0.0
 11
-246.298271179199
 21
80.0175523757935
 31
0.0
  0
LINE
  5
   2F6
  8
0
  6
CONTINUOUS
 62
   210
 10
-246.048271179199
 20
73.5175523757935
 30
0.0
 11
-246.298263549805
 21
73.5175523757935
 31
0.0
  0
CIRCLE
  5
   2F7
  8
0
  6
CONTINUOUS
 62
     7
 10
-234.79376933831
 20
83.4868939126584
 30
0.0
 40
0.1
  0
CIRCLE
  5
   2F8
  8
0
  6
CONTINUOUS
 62
     7
 10
-275.018898440728
 20
15.9289605267585
 30
0.0
 40
0.1
  0
LINE
  5
   2F9
  8
0
  6
DASHDOT
 62
     7
 10
-235.843630280959
 20
87.517560005188
 30
0.0
 11
-301.231369158775
 21
87.517560005188
 31
0.0
  0
LINE
  5
   2FA
  8
0
  6
DASHDOT
 62
     7
 10
-237.218898211468
 20
16.0175447463989
 30
0.0
 11
-300.981320444138
 21
16.0175447463989
 31
0.0
  0
LINE
  5
   2FB
  8
0
  6
CONTINUOUS
 62
   212
 10
-287.698257446289
 20
90.017560005188
 30
0.0
 11
-290.698257446289
 21
90.017560005188
 31
0.0
  0
LINE
  5
   2FC
  8
0
  6
CONTINUOUS
 62
   212
 10
-287.698257446289
 20
85.017560005188
 30
0.0
 11
-290.698257446289
 21
85.017560005188
 31
0.0
  0
LINE
  5
   2FD
  8
0
  6
CONTINUOUS
 62
   212
 10
-287.698257446289
 20
18.5175447463989
 30
0.0
 11
-290.698257446289
 21
18.5175447463989
 31
0.0
  0
LINE
  5
   2FE
  8
0
  6
CONTINUOUS
 62
   212
 10
-287.698257446289
 20
13.5175447463989
 30
0.0
 11
-290.698257446289
 21
13.5175447463989
 31
0.0
  0
CIRCLE
  5
   2FF
  8
0
  6
CONTINUOUS
 62
     7
 10
-196.694954925069
 20
84.5334696622261
 30
0.0
 40
0.125
  0
LINE
  5
   300
  8
0
  6
CONTINUOUS
 62
     1
 10
-168.048253059387
 20
23.1393423080444
 30
0.0
 11
-168.048253059387
 21
24.1393423080444
 31
0.0
  0
LINE
  5
   301
  8
0
  6
CONTINUOUS
 62
     1
 10
-167.048253059387
 20
23.1393423080444
 30
0.0
 11
-168.048253059387
 21
23.1393423080444
 31
0.0
  0
LINE
  5
   302
  8
0
  6
CONTINUOUS
 62
     1
 10
-168.048253059387
 20
77.1393404006958
 30
0.0
 11
-168.048253059387
 21
78.1393404006958
 31
0.0
  0
LINE
  5
   303
  8
0
  6
CONTINUOUS
 62
     1
 10
-167.048253059387
 20
78.1393404006958
 30
0.0
 11
-168.048253059387
 21
78.1393404006958
 31
0.0
  0
LINE
  5
   304
  8
0
  6
CONTINUOUS
 62
     1
 10
-168.048253059387
 20
24.1393423080444
 30
0.0
 11
-168.048253059387
 21
77.1393423080444
 31
0.0
  0
LINE
  5
   305
  8
0
  6
CONTINUOUS
 62
     1
 10
-170.29825296998
 20
84.9280138015747
 30
0.0
 11
-170.29825296998
 21
87.3506669998169
 31
0.0
  0
LINE
  5
   306
  8
0
  6
CONTINUOUS
 62
     1
 10
-170.29825296998
 20
13.928017616272
 30
0.0
 11
-170.29825296998
 21
16.3506669998169
 31
0.0
  0
LINE
  5
   307
  8
0
  6
CONTINUOUS
 62
     1
 10
-167.048253059387
 20
9.88934230804443
 30
0.0
 11
-167.048253059387
 21
91.3893423080444
 31
0.0
  0
LINE
  5
   308
  8
0
  6
CONTINUOUS
 62
     1
 10
-165.298253059387
 20
9.88934230804443
 30
0.0
 11
-167.048253059387
 21
9.88934230804443
 31
0.0
  0
LINE
  5
   309
  8
0
  6
CONTINUOUS
 62
     1
 10
-165.298253059387
 20
9.8893404006958
 30
0.0
 11
-165.298253059387
 21
91.3893404006958
 31
0.0
  0
LINE
  5
   30A
  8
0
  6
CONTINUOUS
 62
     1
 10
-165.298253059387
 20
91.3893404006958
 30
0.0
 11
-165.798253059387
 21
91.3893404006958
 31
0.0
  0
LINE
  5
   30B
  8
0
  6
CONTINUOUS
 62
     1
 10
-166.298253059387
 20
91.3893404006958
 30
0.0
 11
-167.048253059387
 21
91.3893404006958
 31
0.0
  0
LINE
  5
   30C
  8
0
  6
CONTINUOUS
 62
     1
 10
-167.048253059387
 20
84.6393404006958
 30
0.0
 11
-169.798254568294
 21
84.6393404006958
 31
0.0
  0
LINE
  5
   30D
  8
0
  6
CONTINUOUS
 62
     1
 10
-167.048253059387
 20
87.6393404006958
 30
0.0
 11
-169.798251331717
 21
87.6393404006958
 31
0.0
  0
LINE
  5
   30E
  8
0
  6
CONTINUOUS
 62
     1
 10
-169.798252976831
 20
84.6393404006958
 30
0.0
 11
-169.798252976831
 21
84.7535219192505
 31
0.0
  0
LINE
  5
   30F
  8
0
  6
CONTINUOUS
 62
     1
 10
-169.798252578969
 20
84.6393392521651
 30
0.0
 11
-170.298252595432
 21
84.9280126566633
 31
0.0
  0
LINE
  5
   310
  8
0
  6
CONTINUOUS
 62
     1
 10
-169.798252976831
 20
84.7535219192505
 30
0.0
 11
-169.798252976831
 21
85.0786790847778
 31
0.0
  0
LINE
  5
   311
  8
0
  6
CONTINUOUS
 62
     1
 10
-169.798252976831
 20
85.0786790847778
 30
0.0
 11
-169.798252976831
 21
85.5653200149536
 31
0.0
  0
LINE
  5
   312
  8
0
  6
CONTINUOUS
 62
     1
 10
-169.798252976831
 20
85.5653200149536
 30
0.0
 11
-169.798252976831
 21
86.1393404006958
 31
0.0
  0
LINE
  5
   313
  8
0
  6
CONTINUOUS
 62
     1
 10
-169.798252976831
 20
86.1393404006958
 30
0.0
 11
-169.798252976831
 21
86.7133684158325
 31
0.0
  0
LINE
  5
   314
  8
0
  6
CONTINUOUS
 62
     1
 10
-169.798252976831
 20
86.7133684158325
 30
0.0
 11
-169.798252976831
 21
87.2000017166138
 31
0.0
  0
LINE
  5
   315
  8
0
  6
CONTINUOUS
 62
     1
 10
-169.798252976831
 20
87.2000017166138
 30
0.0
 11
-169.798252976831
 21
87.5251588821411
 31
0.0
  0
LINE
  5
   316
  8
0
  6
CONTINUOUS
 62
     1
 10
-169.798252976831
 20
87.5251588821411
 30
0.0
 11
-169.798252976831
 21
87.6393404006958
 31
0.0
  0
LINE
  5
   317
  8
0
  6
CONTINUOUS
 62
     1
 10
-170.298253404569
 20
87.3506658089479
 30
0.0
 11
-169.798253388106
 21
87.6393392134461
 31
0.0
  0
LINE
  5
   318
  8
0
  6
CONTINUOUS
 62
     1
 10
-167.048253059387
 20
16.6393423080444
 30
0.0
 11
-169.798251974275
 21
16.6393423080444
 31
0.0
  0
LINE
  5
   319
  8
0
  6
CONTINUOUS
 62
     1
 10
-167.048253059387
 20
13.6393423080444
 30
0.0
 11
-169.798253816055
 21
13.6393423080444
 31
0.0
  0
LINE
  5
   31A
  8
0
  6
CONTINUOUS
 62
     1
 10
-170.298253231055
 20
16.350666299691
 30
0.0
 11
-169.79825321459
 21
16.6393415919476
 31
0.0
  0
LINE
  5
   31B
  8
0
  6
CONTINUOUS
 62
     1
 10
-169.798252960173
 20
16.5251607894897
 30
0.0
 11
-169.798252960173
 21
16.6393423080444
 31
0.0
  0
LINE
  5
   31C
  8
0
  6
CONTINUOUS
 62
     1
 10
-169.798252960185
 20
16.2000017166138
 30
0.0
 11
-169.798252960185
 21
16.5251607894897
 31
0.0
  0
LINE
  5
   31D
  8
0
  6
CONTINUOUS
 62
     1
 10
-169.798252960171
 20
15.7133684158325
 30
0.0
 11
-169.798252960171
 21
16.2000017166138
 31
0.0
  0
LINE
  5
   31E
  8
0
  6
CONTINUOUS
 62
     1
 10
-169.798252960206
 20
15.1393423080444
 30
0.0
 11
-169.798252960206
 21
15.7133684158325
 31
0.0
  0
LINE
  5
   31F
  8
0
  6
CONTINUOUS
 62
     1
 10
-169.798252960144
 20
14.565318107605
 30
0.0
 11
-169.798252960144
 21
15.1393423080444
 31
0.0
  0
LINE
  5
   320
  8
0
  6
CONTINUOUS
 62
     1
 10
-169.798252960171
 20
14.0786828994751
 30
0.0
 11
-169.798252960171
 21
14.565318107605
 31
0.0
  0
LINE
  5
   321
  8
0
  6
CONTINUOUS
 62
     1
 10
-169.798252960184
 20
13.7535238265991
 30
0.0
 11
-169.798252960184
 21
14.0786828994751
 31
0.0
  0
LINE
  5
   322
  8
0
  6
CONTINUOUS
 62
     1
 10
-169.79825275301
 20
13.6393416942949
 30
0.0
 11
-170.298252769475
 21
13.9280169865514
 31
0.0
  0
LINE
  5
   323
  8
0
  6
CONTINUOUS
 62
     1
 10
-169.798252960173
 20
13.6393423080444
 30
0.0
 11
-169.798252960173
 21
13.7535238265991
 31
0.0
  0
LINE
  5
   324
  8
0
  6
CONTINUOUS
 62
     1
 10
-165.798253059387
 20
91.3893404006958
 30
0.0
 11
-166.298253059387
 21
91.3893404006958
 31
0.0
  0
LINE
  5
   325
  8
0
  6
CONTINUOUS
 62
     7
 10
-167.048253059387
 20
91.3893404006958
 30
0.0
 11
-167.048253059387
 21
118.987386421478
 31
0.0
  0
LINE
  5
   326
  8
0
  6
CONTINUOUS
 62
     7
 10
-168.048253059387
 20
78.1393404006958
 30
0.0
 11
-168.048253059387
 21
84.6393404006958
 31
0.0
  0
LINE
  5
   327
  8
0
  6
CONTINUOUS
 62
     7
 10
-168.048253059387
 20
-10.2307863317987
 30
0.0
 11
-168.048253059387
 21
13.6393423080444
 31
0.0
  0
LINE
  5
   328
  8
0
  6
CONTINUOUS
 62
     7
 10
-167.048253059387
 20
-10.525629381126
 30
0.0
 11
-167.048253059387
 21
9.88934230804443
 31
0.0
  0
LINE
  5
   329
  8
0
  6
CONTINUOUS
 62
     7
 10
-163.233621010755
 20
-11.6503471264065
 30
0.0
 11
-170.785741757585
 21
-9.42365681652282
 31
0.0
  0
LINE
  5
   32A
  8
0
  6
CONTINUOUS
 62
     7
 10
-163.987139784823
 20
117.641621399196
 30
0.0
 11
-170.43861513133
 21
120.477899930797
 31
0.0
  0
LINE
  5
   32B
  8
0
  6
CONTINUOUS
 62
     7
 10
-167.048253059387
 20
22.6393423080444
 30
0.0
 11
-168.048253059387
 21
22.6393423080444
 31
0.0
  0
LINE
  5
   32C
  8
0
  6
CONTINUOUS
 62
     7
 10
-167.048253059387
 20
16.8893423080444
 30
0.0
 11
-168.048253059387
 21
16.8893423080444
 31
0.0
  0
LINE
  5
   32D
  8
0
  6
CONTINUOUS
 62
     7
 10
-167.048253059387
 20
13.3893423080444
 30
0.0
 11
-168.048253059387
 21
13.3893423080444
 31
0.0
  0
LINE
  5
   32E
  8
0
  6
CONTINUOUS
 62
     7
 10
-167.048253059387
 20
78.6393404006958
 30
0.0
 11
-168.048253059387
 21
78.6393404006958
 31
0.0
  0
LINE
  5
   32F
  8
0
  6
CONTINUOUS
 62
     7
 10
-167.048253059387
 20
84.3893404006958
 30
0.0
 11
-168.048253059387
 21
84.3893404006958
 31
0.0
  0
LINE
  5
   330
  8
0
  6
CONTINUOUS
 62
     7
 10
-167.048253059387
 20
87.8893404006958
 30
0.0
 11
-168.048253059387
 21
87.8893404006958
 31
0.0
  0
LINE
  5
   331
  8
0
  6
CONTINUOUS
 62
     7
 10
-168.048253059387
 20
87.6393404006958
 30
0.0
 11
-168.048253059387
 21
119.42701896741
 31
0.0
  0
LINE
  5
   332
  8
0
  6
CONTINUOUS
 62
     7
 10
-168.048253059387
 20
16.6393423080444
 30
0.0
 11
-168.048253059387
 21
23.1393423080444
 31
0.0
  0
INSERT
  5
   333
  8
0
  6
CONTINUOUS
 62
     7
  2
*HATCH1308
 10
-170.048278808594
 20
-4.35097026824951
 30
0.0
 41
0.5
 42
0.5
 50
89.9999999480344
 43
0.5
  0
INSERT
  5
   334
  8
0
  6
CONTINUOUS
 62
     7
  2
*HATCH1309
 10
-170.048278808594
 20
-4.35097026824951
 30
0.0
 41
0.5
 42
0.5
 50
89.9999999480344
 43
0.5
  0
INSERT
  5
   335
  8
0
  6
CONTINUOUS
 62
     7
  2
*HATCH1310
 10
-170.048278808594
 20
-4.35097026824951
 30
0.0
 41
0.5
 42
0.5
 50
89.9999999480344
 43
0.5
  0
INSERT
  5
   336
  8
0
  6
CONTINUOUS
 62
     7
  2
*HATCH1311
 10
-170.048278808594
 20
-4.35097026824951
 30
0.0
 41
0.5
 42
0.5
 50
89.9999999480344
 43
0.5
  0
LINE
  5
   337
  8
0
  6
CONTINUOUS
 62
     7
 10
-171.298241137862
 20
95.5175523757935
 30
0.0
 11
-220.548240661621
 21
95.5175523757935
 31
0.0
  0
LINE
  5
   338
  8
0
  6
CONTINUOUS
 62
     7
 10
-171.298241137862
 20
8.01755858482011
 30
0.0
 11
-220.548240661621
 21
8.01755858482011
 31
0.0
  0
LINE
  5
   339
  8
0
  6
CONTINUOUS
 62
     7
 10
-170.798241137862
 20
8.51755858482011
 30
0.0
 11
-170.798241137862
 21
21.1425741059478
 31
0.0
  0
LINE
  5
   33A
  8
0
  6
CONTINUOUS
 62
     7
 10
-170.798241137862
 20
82.6425523757935
 30
0.0
 11
-170.798241137862
 21
95.0175523757935
 31
0.0
  0
ARC
  5
   33B
  8
0
  6
CONTINUOUS
 62
     7
 10
-171.298241137862
 20
95.0175523757935
 30
0.0
 40
0.5
 50
359.999999948034
 51
449.999999948034
  0
ARC
  5
   33C
  8
0
  6
CONTINUOUS
 62
     7
 10
-171.298241137862
 20
8.51755858482011
 30
0.0
 40
0.5
 50
269.999999948034
 51
359.999999948034
  0
LINE
  5
   33D
  8
0
  6
CONTINUOUS
 62
     7
 10
-171.298241137862
 20
21.1425741059478
 30
0.0
 11
-171.298241137862
 21
21.6425741059478
 31
0.0
  0
LINE
  5
   33E
  8
0
  6
CONTINUOUS
 62
     7
 10
-170.798241137862
 20
21.1425741059478
 30
0.0
 11
-171.298241137862
 21
21.1425741059478
 31
0.0
  0
LINE
  5
   33F
  8
0
  6
CONTINUOUS
 62
     7
 10
-171.298241137862
 20
82.1425523757935
 30
0.0
 11
-171.298241137862
 21
82.6425523757935
 31
0.0
  0
LINE
  5
   340
  8
0
  6
CONTINUOUS
 62
     7
 10
-170.798241137862
 20
82.6425523757935
 30
0.0
 11
-171.298241137862
 21
82.6425523757935
 31
0.0
  0
LINE
  5
   341
  8
0
  6
DASHDOT
 62
     7
 10
-151.328437156197
 20
50.6425523757935
 30
0.0
 11
-254.477257729068
 21
50.6425523757935
 31
0.0
  0
LINE
  5
   342
  8
0
  6
CONTINUOUS
 62
   212
 10
-270.29825592041
 20
85.5175447463989
 30
0.0
 11
-270.29825592041
 21
89.5175447463989
 31
0.0
  0
LINE
  5
   343
  8
0
  6
CONTINUOUS
 62
   212
 10
-270.298253538263
 20
89.5175450300203
 30
0.0
 11
-269.298253572491
 21
90.5175449957918
 31
0.0
  0
LINE
  5
   344
  8
0
  6
CONTINUOUS
 62
   212
 10
-269.29825592041
 20
84.5175447463989
 30
0.0
 11
-269.29825592041
 21
90.5175447463989
 31
0.0
  0
LINE
  5
   345
  8
0
  6
CONTINUOUS
 62
   212
 10
-268.948257446289
 20
90.5175447463989
 30
0.0
 11
-269.29825592041
 21
90.5175447463989
 31
0.0
  0
LINE
  5
   346
  8
0
  6
CONTINUOUS
 62
   212
 10
-268.948257446289
 20
84.5175447463989
 30
0.0
 11
-269.29825592041
 21
84.5175447463989
 31
0.0
  0
LINE
  5
   347
  8
0
  6
CONTINUOUS
 62
     3
 10
-268.948257446289
 20
82.0327167510986
 30
0.0
 11
-268.948257446289
 21
92.517560005188
 31
0.0
  0
LINE
  5
   348
  8
0
  6
CONTINUOUS
 62
     3
 10
-265.948257446289
 20
82.0327167510986
 30
0.0
 11
-268.948257446289
 21
82.0327167510986
 31
0.0
  0
LINE
  5
   349
  8
0
  6
CONTINUOUS
 62
     3
 10
-265.948257446289
 20
84.7751302719116
 30
0.0
 11
-268.948257446289
 21
84.7751302719116
 31
0.0
  0
LINE
  5
   34A
  8
0
  6
CONTINUOUS
 62
     3
 10
-265.948257446289
 20
90.2599592208862
 30
0.0
 11
-268.948257446289
 21
90.2599592208862
 31
0.0
  0
LINE
  5
   34B
  8
0
  6
CONTINUOUS
 62
     3
 10
-265.948257446289
 20
93.0023717880249
 30
0.0
 11
-268.948257446289
 21
93.0023717880249
 31
0.0
  0
LINE
  5
   34C
  8
0
  6
CONTINUOUS
 62
     7
 10
-265.948257446289
 20
82.0327167510986
 30
0.0
 11
-265.948257446289
 21
93.0175447463989
 31
0.0
  0
LINE
  5
   34D
  8
0
  6
CONTINUOUS
 62
     7
 10
-264.698257446289
 20
93.0175447463989
 30
0.0
 11
-265.948257446289
 21
93.0175447463989
 31
0.0
  0
LINE
  5
   34E
  8
0
  6
CONTINUOUS
 62
     7
 10
-264.698257446289
 20
82.0175447463989
 30
0.0
 11
-264.698257446289
 21
93.0175447463989
 31
0.0
  0
LINE
  5
   34F
  8
0
  6
CONTINUOUS
 62
     7
 10
-264.698257446289
 20
82.0175447463989
 30
0.0
 11
-265.948257446289
 21
82.0175447463989
 31
0.0
  0
LINE
  5
   350
  8
0
  6
CONTINUOUS
 62
   212
 10
-261.698257446289
 20
84.5175447463989
 30
0.0
 11
-264.698257446289
 21
84.5175447463989
 31
0.0
  0
LINE
  5
   351
  8
0
  6
CONTINUOUS
 62
   212
 10
-261.698257446289
 20
85.0175447463989
 30
0.0
 11
-264.698257446289
 21
85.0175447463989
 31
0.0
  0
LINE
  5
   352
  8
0
  6
CONTINUOUS
 62
   212
 10
-261.698257446289
 20
90.0175447463989
 30
0.0
 11
-264.698257446289
 21
90.0175447463989
 31
0.0
  0
LINE
  5
   353
  8
0
  6
CONTINUOUS
 62
   212
 10
-261.698257446289
 20
90.5175447463989
 30
0.0
 11
-264.698257446289
 21
90.5175447463989
 31
0.0
  0
LINE
  5
   354
  8
0
  6
CONTINUOUS
 62
     7
 10
-261.698257446289
 20
82.0175447463989
 30
0.0
 11
-261.698257446289
 21
92.517560005188
 31
0.0
  0
LINE
  5
   355
  8
0
  6
CONTINUOUS
 62
     7
 10
-260.448257446289
 20
82.0175447463989
 30
0.0
 11
-260.448257446289
 21
93.0175447463989
 31
0.0
  0
LINE
  5
   356
  8
0
  6
CONTINUOUS
 62
     7
 10
-260.448257446289
 20
93.0175447463989
 30
0.0
 11
-261.698257446289
 21
93.0175447463989
 31
0.0
  0
LINE
  5
   357
  8
0
  6
CONTINUOUS
 62
     7
 10
-260.448257446289
 20
82.0175447463989
 30
0.0
 11
-261.698257446289
 21
82.0175447463989
 31
0.0
  0
LINE
  5
   358
  8
0
  6
CONTINUOUS
 62
     3
 10
-257.448257446289
 20
82.0327167510986
 30
0.0
 11
-260.448257446289
 21
82.0327167510986
 31
0.0
  0
LINE
  5
   359
  8
0
  6
CONTINUOUS
 62
     3
 10
-257.448257446289
 20
84.7751302719116
 30
0.0
 11
-260.448257446289
 21
84.7751302719116
 31
0.0
  0
LINE
  5
   35A
  8
0
  6
CONTINUOUS
 62
     3
 10
-257.448257446289
 20
90.2599592208862
 30
0.0
 11
-260.448257446289
 21
90.2599592208862
 31
0.0
  0
LINE
  5
   35B
  8
0
  6
CONTINUOUS
 62
     3
 10
-257.448257446289
 20
93.0023717880249
 30
0.0
 11
-260.448257446289
 21
93.0023717880249
 31
0.0
  0
LINE
  5
   35C
  8
0
  6
CONTINUOUS
 62
     3
 10
-257.448257446289
 20
82.0327167510986
 30
0.0
 11
-257.448257446289
 21
93.0023717880249
 31
0.0
  0
LINE
  5
   35D
  8
0
  6
CONTINUOUS
 62
   212
 10
-256.948257446289
 20
90.5175447463989
 30
0.0
 11
-257.448257446289
 21
90.5175447463989
 31
0.0
  0
LINE
  5
   35E
  8
0
  6
CONTINUOUS
 62
   212
 10
-256.948257446289
 20
84.5175447463989
 30
0.0
 11
-257.448257446289
 21
84.5175447463989
 31
0.0
  0
LINE
  5
   35F
  8
0
  6
CONTINUOUS
 62
     3
 10
-256.948257446289
 20
82.0327167510986
 30
0.0
 11
-256.948257446289
 21
93.0023717880249
 31
0.0
  0
LINE
  5
   360
  8
0
  6
CONTINUOUS
 62
     3
 10
-253.948257446289
 20
82.0327167510986
 30
0.0
 11
-256.948257446289
 21
82.0327167510986
 31
0.0
  0
LINE
  5
   361
  8
0
  6
CONTINUOUS
 62
     3
 10
-253.948257446289
 20
84.7751302719116
 30
0.0
 11
-256.948257446289
 21
84.7751302719116
 31
0.0
  0
LINE
  5
   362
  8
0
  6
CONTINUOUS
 62
     3
 10
-253.948257446289
 20
90.2599592208862
 30
0.0
 11
-256.948257446289
 21
90.2599592208862
 31
0.0
  0
LINE
  5
   363
  8
0
  6
CONTINUOUS
 62
     3
 10
-253.948257446289
 20
93.0023717880249
 30
0.0
 11
-256.948257446289
 21
93.0023717880249
 31
0.0
  0
LINE
  5
   364
  8
0
  6
CONTINUOUS
 62
     7
 10
-253.948257446289
 20
82.0327167510986
 30
0.0
 11
-253.948257446289
 21
93.0023717880249
 31
0.0
  0
LINE
  5
   365
  8
0
  6
CONTINUOUS
 62
     7
 10
-253.54825592041
 20
92.5175447463989
 30
0.0
 11
-253.948257446289
 21
92.5175447463989
 31
0.0
  0
LINE
  5
   366
  8
0
  6
CONTINUOUS
 62
     7
 10
-253.54825592041
 20
82.5175447463989
 30
0.0
 11
-253.948257446289
 21
82.5175447463989
 31
0.0
  0
LINE
  5
   367
  8
0
  6
CONTINUOUS
 62
   212
 10
-269.298253223899
 20
84.5175434512292
 30
0.0
 11
-270.29825318967
 21
85.5175434170007
 31
0.0
  0
LINE
  5
   368
  8
0
  6
CONTINUOUS
 62
   253
 10
-256.948257446289
 20
92.517560005188
 30
0.0
 11
-257.448257446289
 21
92.517560005188
 31
0.0
  0
LINE
  5
   369
  8
0
  6
CONTINUOUS
 62
     7
 10
-261.698257446289
 20
92.517560005188
 30
0.0
 11
-261.698257446289
 21
93.0175447463989
 31
0.0
  0
LINE
  5
   36A
  8
0
  6
CONTINUOUS
 62
   253
 10
-261.698257446289
 20
92.517560005188
 30
0.0
 11
-264.698257446289
 21
92.517560005188
 31
0.0
  0
LINE
  5
   36B
  8
0
  6
CONTINUOUS
 62
     3
 10
-268.948257446289
 20
92.517560005188
 30
0.0
 11
-268.948257446289
 21
93.0023717880249
 31
0.0
  0
LINE
  5
   36C
  8
0
  6
CONTINUOUS
 62
   253
 10
-268.948257446289
 20
82.517560005188
 30
0.0
 11
-279.048278808594
 21
82.517560005188
 31
0.0
  0
LINE
  5
   36D
  8
0
  6
CONTINUOUS
 62
   253
 10
-261.698257446289
 20
82.517560005188
 30
0.0
 11
-264.698257446289
 21
82.517560005188
 31
0.0
  0
LINE
  5
   36E
  8
0
  6
CONTINUOUS
 62
   253
 10
-256.948257446289
 20
82.517560005188
 30
0.0
 11
-257.448257446289
 21
82.517560005188
 31
0.0
  0
LINE
  5
   36F
  8
0
  6
CONTINUOUS
 62
   253
 10
-268.948257446289
 20
92.517560005188
 30
0.0
 11
-279.048278808594
 21
92.517560005188
 31
0.0
  0
LINE
  5
   370
  8
0
  6
CONTINUOUS
 62
     7
 10
-249.398263549805
 20
74.8175523757935
 30
0.0
 11
-249.398263549805
 21
78.7175523757935
 31
0.0
  0
LINE
  5
   371
  8
0
  6
CONTINUOUS
 62
     7
 10
-250.998263549805
 20
75.7675523757935
 30
0.0
 11
-250.998263549805
 21
77.7675523757935
 31
0.0
  0
LINE
  5
   372
  8
0
  6
CONTINUOUS
 62
     7
 10
-247.798263549805
 20
78.7175523757935
 30
0.0
 11
-249.398263549805
 21
78.7175523757935
 31
0.0
  0
LINE
  5
   373
  8
0
  6
CONTINUOUS
 62
     7
 10
-247.798263549805
 20
74.8175523757935
 30
0.0
 11
-249.398263549805
 21
74.8175523757935
 31
0.0
  0
LINE
  5
   374
  8
0
  6
CONTINUOUS
 62
     7
 10
-247.798263549805
 20
77.7675523757935
 30
0.0
 11
-250.998263549805
 21
77.7675523757935
 31
0.0
  0
LINE
  5
   375
  8
0
  6
CONTINUOUS
 62
     7
 10
-247.798263549805
 20
75.7675523757935
 30
0.0
 11
-250.998263549805
 21
75.7675523757935
 31
0.0
  0
LINE
  5
   376
  8
0
  6
CONTINUOUS
 62
     7
 10
-247.798263549805
 20
28.7175523757935
 30
0.0
 11
-249.398263549805
 21
28.7175523757935
 31
0.0
  0
LINE
  5
   377
  8
0
  6
CONTINUOUS
 62
     7
 10
-247.798263549805
 20
27.7675523757935
 30
0.0
 11
-250.998263549805
 21
27.7675523757935
 31
0.0
  0
LINE
  5
   378
  8
0
  6
CONTINUOUS
 62
     7
 10
-247.798263549805
 20
25.7675523757935
 30
0.0
 11
-250.998263549805
 21
25.7675523757935
 31
0.0
  0
LINE
  5
   379
  8
0
  6
CONTINUOUS
 62
     7
 10
-247.798263549805
 20
24.8175523757935
 30
0.0
 11
-249.398263549805
 21
24.8175523757935
 31
0.0
  0
LINE
  5
   37A
  8
0
  6
CONTINUOUS
 62
     7
 10
-249.398263549805
 20
24.8175523757935
 30
0.0
 11
-249.398263549805
 21
28.7175523757935
 31
0.0
  0
LINE
  5
   37B
  8
0
  6
CONTINUOUS
 62
     7
 10
-250.998263549805
 20
25.7675523757935
 30
0.0
 11
-250.998263549805
 21
27.7675523757935
 31
0.0
  0
CIRCLE
  5
   37C
  8
0
  6
CONTINUOUS
 62
     7
 10
-249.105695783327
 20
76.1837182145072
 30
0.0
 40
0.1
  0
LINE
  5
   37D
  8
0
  6
CONTINUOUS
 62
   212
 10
-270.29825592041
 20
14.0175294876099
 30
0.0
 11
-270.29825592041
 21
18.0175294876099
 31
0.0
  0
LINE
  5
   37E
  8
0
  6
CONTINUOUS
 62
   212
 10
-270.298253538263
 20
18.0175297712313
 30
0.0
 11
-269.298253572491
 21
19.0175297370027
 31
0.0
  0
LINE
  5
   37F
  8
0
  6
CONTINUOUS
 62
   212
 10
-269.29825592041
 20
13.0175294876099
 30
0.0
 11
-269.29825592041
 21
19.0175294876099
 31
0.0
  0
LINE
  5
   380
  8
0
  6
CONTINUOUS
 62
   212
 10
-268.948257446289
 20
19.0175294876099
 30
0.0
 11
-269.29825592041
 21
19.0175294876099
 31
0.0
  0
LINE
  5
   381
  8
0
  6
CONTINUOUS
 62
   212
 10
-268.948257446289
 20
13.0175294876099
 30
0.0
 11
-269.29825592041
 21
13.0175294876099
 31
0.0
  0
LINE
  5
   382
  8
0
  6
CONTINUOUS
 62
     3
 10
-268.948257446289
 20
10.5327014923096
 30
0.0
 11
-268.948257446289
 21
21.0175447463989
 31
0.0
  0
LINE
  5
   383
  8
0
  6
CONTINUOUS
 62
     3
 10
-265.948257446289
 20
10.5327014923096
 30
0.0
 11
-268.948257446289
 21
10.5327014923096
 31
0.0
  0
LINE
  5
   384
  8
0
  6
CONTINUOUS
 62
     3
 10
-265.948257446289
 20
13.2751150131226
 30
0.0
 11
-268.948257446289
 21
13.2751150131226
 31
0.0
  0
LINE
  5
   385
  8
0
  6
CONTINUOUS
 62
     3
 10
-265.948257446289
 20
18.7599439620972
 30
0.0
 11
-268.948257446289
 21
18.7599439620972
 31
0.0
  0
LINE
  5
   386
  8
0
  6
CONTINUOUS
 62
     3
 10
-265.948257446289
 20
21.5023565292358
 30
0.0
 11
-268.948257446289
 21
21.5023565292358
 31
0.0
  0
LINE
  5
   387
  8
0
  6
CONTINUOUS
 62
     7
 10
-265.948257446289
 20
10.5327014923096
 30
0.0
 11
-265.948257446289
 21
21.5175294876099
 31
0.0
  0
LINE
  5
   388
  8
0
  6
CONTINUOUS
 62
     7
 10
-264.698257446289
 20
21.5175294876099
 30
0.0
 11
-265.948257446289
 21
21.5175294876099
 31
0.0
  0
LINE
  5
   389
  8
0
  6
CONTINUOUS
 62
     7
 10
-264.698257446289
 20
10.5175294876099
 30
0.0
 11
-264.698257446289
 21
21.5175294876099
 31
0.0
  0
LINE
  5
   38A
  8
0
  6
CONTINUOUS
 62
     7
 10
-264.698257446289
 20
10.5175294876099
 30
0.0
 11
-265.948257446289
 21
10.5175294876099
 31
0.0
  0
LINE
  5
   38B
  8
0
  6
CONTINUOUS
 62
   212
 10
-261.698257446289
 20
13.0175294876099
 30
0.0
 11
-264.698257446289
 21
13.0175294876099
 31
0.0
  0
LINE
  5
   38C
  8
0
  6
CONTINUOUS
 62
   212
 10
-261.698257446289
 20
13.5175294876099
 30
0.0
 11
-264.698257446289
 21
13.5175294876099
 31
0.0
  0
LINE
  5
   38D
  8
0
  6
CONTINUOUS
 62
   212
 10
-261.698257446289
 20
18.5175294876099
 30
0.0
 11
-264.698257446289
 21
18.5175294876099
 31
0.0
  0
LINE
  5
   38E
  8
0
  6
CONTINUOUS
 62
   212
 10
-261.698257446289
 20
19.0175294876099
 30
0.0
 11
-264.698257446289
 21
19.0175294876099
 31
0.0
  0
LINE
  5
   38F
  8
0
  6
CONTINUOUS
 62
     7
 10
-261.698257446289
 20
10.5175294876099
 30
0.0
 11
-261.698257446289
 21
21.0175447463989
 31
0.0
  0
LINE
  5
   390
  8
0
  6
CONTINUOUS
 62
     7
 10
-260.448257446289
 20
10.5175294876099
 30
0.0
 11
-260.448257446289
 21
21.5175294876099
 31
0.0
  0
LINE
  5
   391
  8
0
  6
CONTINUOUS
 62
     7
 10
-260.448257446289
 20
21.5175294876099
 30
0.0
 11
-261.698257446289
 21
21.5175294876099
 31
0.0
  0
LINE
  5
   392
  8
0
  6
CONTINUOUS
 62
     7
 10
-260.448257446289
 20
10.5175294876099
 30
0.0
 11
-261.698257446289
 21
10.5175294876099
 31
0.0
  0
LINE
  5
   393
  8
0
  6
CONTINUOUS
 62
     3
 10
-257.448257446289
 20
10.5327014923096
 30
0.0
 11
-260.448257446289
 21
10.5327014923096
 31
0.0
  0
LINE
  5
   394
  8
0
  6
CONTINUOUS
 62
     3
 10
-257.448257446289
 20
13.2751150131226
 30
0.0
 11
-260.448257446289
 21
13.2751150131226
 31
0.0
  0
LINE
  5
   395
  8
0
  6
CONTINUOUS
 62
     3
 10
-257.448257446289
 20
18.7599439620972
 30
0.0
 11
-260.448257446289
 21
18.7599439620972
 31
0.0
  0
LINE
  5
   396
  8
0
  6
CONTINUOUS
 62
     3
 10
-257.448257446289
 20
21.5023565292358
 30
0.0
 11
-260.448257446289
 21
21.5023565292358
 31
0.0
  0
LINE
  5
   397
  8
0
  6
CONTINUOUS
 62
     3
 10
-257.448257446289
 20
10.5327014923096
 30
0.0
 11
-257.448257446289
 21
21.5023565292358
 31
0.0
  0
LINE
  5
   398
  8
0
  6
CONTINUOUS
 62
   212
 10
-256.948257446289
 20
19.0175294876099
 30
0.0
 11
-257.448257446289
 21
19.0175294876099
 31
0.0
  0
LINE
  5
   399
  8
0
  6
CONTINUOUS
 62
   212
 10
-256.948257446289
 20
13.0175294876099
 30
0.0
 11
-257.448257446289
 21
13.0175294876099
 31
0.0
  0
LINE
  5
   39A
  8
0
  6
CONTINUOUS
 62
     3
 10
-256.948257446289
 20
10.5327014923096
 30
0.0
 11
-256.948257446289
 21
21.5023565292358
 31
0.0
  0
LINE
  5
   39B
  8
0
  6
CONTINUOUS
 62
     3
 10
-253.948257446289
 20
10.5327014923096
 30
0.0
 11
-256.948257446289
 21
10.5327014923096
 31
0.0
  0
LINE
  5
   39C
  8
0
  6
CONTINUOUS
 62
     3
 10
-253.948257446289
 20
13.2751150131226
 30
0.0
 11
-256.948257446289
 21
13.2751150131226
 31
0.0
  0
LINE
  5
   39D
  8
0
  6
CONTINUOUS
 62
     3
 10
-253.948257446289
 20
18.7599439620972
 30
0.0
 11
-256.948257446289
 21
18.7599439620972
 31
0.0
  0
LINE
  5
   39E
  8
0
  6
CONTINUOUS
 62
     3
 10
-253.948257446289
 20
21.5023565292358
 30
0.0
 11
-256.948257446289
 21
21.5023565292358
 31
0.0
  0
LINE
  5
   39F
  8
0
  6
CONTINUOUS
 62
     7
 10
-253.948257446289
 20
10.5327014923096
 30
0.0
 11
-253.948257446289
 21
21.5023565292358
 31
0.0
  0
LINE
  5
   3A0
  8
0
  6
CONTINUOUS
 62
     7
 10
-253.54825592041
 20
21.0175294876099
 30
0.0
 11
-253.948257446289
 21
21.0175294876099
 31
0.0
  0
LINE
  5
   3A1
  8
0
  6
CONTINUOUS
 62
     7
 10
-253.54825592041
 20
11.0175294876099
 30
0.0
 11
-253.948257446289
 21
11.0175294876099
 31
0.0
  0
LINE
  5
   3A2
  8
0
  6
CONTINUOUS
 62
   212
 10
-269.298253223899
 20
13.0175281924402
 30
0.0
 11
-270.29825318967
 21
14.0175281582116
 31
0.0
  0
LINE
  5
   3A3
  8
0
  6
CONTINUOUS
 62
   253
 10
-256.948257446289
 20
21.0175447463989
 30
0.0
 11
-257.448257446289
 21
21.0175447463989
 31
0.0
  0
LINE
  5
   3A4
  8
0
  6
CONTINUOUS
 62
     7
 10
-261.698257446289
 20
21.0175447463989
 30
0.0
 11
-261.698257446289
 21
21.5175294876099
 31
0.0
  0
LINE
  5
   3A5
  8
0
  6
CONTINUOUS
 62
   253
 10
-261.698257446289
 20
21.0175447463989
 30
0.0
 11
-264.698257446289
 21
21.0175447463989
 31
0.0
  0
LINE
  5
   3A6
  8
0
  6
CONTINUOUS
 62
     3
 10
-268.948257446289
 20
21.0175447463989
 30
0.0
 11
-268.948257446289
 21
21.5023565292358
 31
0.0
  0
LINE
  5
   3A7
  8
0
  6
CONTINUOUS
 62
   253
 10
-261.698257446289
 20
11.0175447463989
 30
0.0
 11
-264.698257446289
 21
11.0175447463989
 31
0.0
  0
LINE
  5
   3A8
  8
0
  6
CONTINUOUS
 62
   253
 10
-256.948257446289
 20
11.0175447463989
 30
0.0
 11
-257.448257446289
 21
11.0175447463989
 31
0.0
  0
INSERT
  5
   3A9
  8
0
  6
CONTINUOUS
 62
     7
  2
*UDIM2318
 10
0.0
 20
0.0
 30
0.0
  0
INSERT
  5
   3AA
  8
0
  6
CONTINUOUS
 62
     7
  2
*UDIM2319
 10
0.0
 20
0.0
 30
0.0
  0
TEXT
  5
   3AB
  8
0
  6
CONTINUOUS
 62
     7
 10
-138.787431731614
 20
34.4427557122036
 30
0.0
 40
3.00000002980232
  1
=          =
 50
89.9999999480344
 41
0.916666604744064
 72
     2
 11
-138.787431702224
 21
66.8927538381342
 31
0.0
  0
INSERT
  5
   3AC
  8
0
  6
CONTINUOUS
 62
     7
  2
*UDIM2320
 10
0.0
 20
0.0
 30
0.0
  0
INSERT
  5
   3AD
  8
0
  6
CONTINUOUS
 62
     7
  2
*UDIM2321
 10
0.0
 20
0.0
 30
0.0
  0
INSERT
  5
   3AE
  8
0
  6
CONTINUOUS
 62
     7
  2
*UDIM2322
 10
0.0
 20
0.0
 30
0.0
  0
INSERT
  5
   3AF
  8
0
  6
CONTINUOUS
 62
     7
  2
*UDIM2323
 10
0.0
 20
0.0
 30
0.0
  0
TEXT
  5
   3B0
  8
0
  6
CONTINUOUS
 62
     7
 10
-261.098015124957
 20
-7.263696233828
 30
0.0
 40
3.00000002980232
  1
_
 50
359.999999948034
 41
0.916666604744064
 72
     2
 11
-258.898015256087
 21
-7.26369623581228
 31
0.0
  0
INSERT
  5
   3B1
  8
0
  6
CONTINUOUS
 62
     7
  2
*UDIM2324
 10
0.0
 20
0.0
 30
0.0
  0
INSERT
  5
   3B2
  8
0
  6
CONTINUOUS
 62
     7
  2
*UDIM2325
 10
0.0
 20
0.0
 30
0.0
  0
INSERT
  5
   3B3
  8
0
  6
CONTINUOUS
 62
     7
  2
*UDIM2326
 10
0.0
 20
0.0
 30
0.0
  0
TEXT
  5
   3B4
  8
0
  6
CONTINUOUS
 62
     7
 10
-138.297350247072
 20
48.7265383056714
 30
0.0
 40
3.00000002980232
  1
X
 50
359.999999948034
 41
0.916666604744064
 72
     2
 11
-136.097350378203
 21
48.7265383036871
 31
0.0
  0
INSERT
  5
   3B5
  8
0
  6
CONTINUOUS
 62
     7
  2
*UDIM2327
 10
0.0
 20
0.0
 30
0.0
  0
LINE
  5
   3B6
  8
0
  6
CONTINUOUS
 62
     3
 10
-344.652076111568
 20
76.8925556332369
 30
0.0
 11
-396.652068482174
 21
76.8925556332369
 31
0.0
  0
LINE
  5
   3B7
  8
0
  6
CONTINUOUS
 62
     3
 10
-344.652076111568
 20
24.3925632626317
 30
0.0
 11
-351.402076081766
 21
24.3925632626317
 31
0.0
  0
LINE
  5
   3B8
  8
0
  6
CONTINUOUS
 62
     3
 10
-357.152076111568
 20
24.3925632626312
 30
0.0
 11
-369.427429059934
 21
24.3925632626312
 31
0.0
  0
LINE
  5
   3B9
  8
0
  6
CONTINUOUS
 62
     3
 10
-389.902068482174
 20
24.3925632626179
 30
0.0
 11
-396.652068482174
 21
24.3925632626179
 31
0.0
  0
LINE
  5
   3BA
  8
0
  6
CONTINUOUS
 62
     3
 10
-384.152068482174
 20
24.3925632626299
 30
0.0
 11
-389.902068482174
 21
24.3925632626299
 31
0.0
  0
LINE
  5
   3BB
  8
0
  6
CONTINUOUS
 62
     3
 10
-351.402076111568
 20
24.3925632626317
 30
0.0
 11
-357.152076111568
 21
24.3925632626317
 31
0.0
  0
LINE
  5
   3BC
  8
0
  6
DASHDOT
 62
     7
 10
-370.652068482174
 20
-3.46535289016457
 30
0.0
 11
-370.652068482174
 21
103.259361453996
 31
0.0
  0
ARC
  5
   3BD
  8
0
  6
CONTINUOUS
 62
     3
 10
-396.652068482174
 20
24.6425632626179
 30
0.0
 40
0.25
 50
179.999999948034
 51
269.999999948034
  0
ARC
  5
   3BE
  8
0
  6
CONTINUOUS
 62
     3
 10
-396.652068482174
 20
76.6425556332369
 30
0.0
 40
0.25
 50
449.999999948034
 51
539.999999948034
  0
ARC
  5
   3BF
  8
0
  6
CONTINUOUS
 62
     3
 10
-344.652076111568
 20
76.6425556332369
 30
0.0
 40
0.25
 50
359.999999948034
 51
449.999999948034
  0
ARC
  5
   3C0
  8
0
  6
CONTINUOUS
 62
     3
 10
-344.652076111568
 20
24.6425632626317
 30
0.0
 40
0.25
 50
269.999999948034
 51
359.999999948034
  0
LINE
  5
   3C1
  8
0
  6
CONTINUOUS
 62
     3
 10
-371.876793608082
 20
24.3925632626312
 30
0.0
 11
-384.152068482174
 21
24.3925632626312
 31
0.0
  0
LINE
  5
   3C2
  8
0
  6
CONTINUOUS
 62
     7
 10
-384.402076111568
 20
24.3925556332369
 30
0.0
 11
-389.402068482174
 21
24.3925556332369
 31
0.0
  0
LINE
  5
   3C3
  8
0
  6
CONTINUOUS
 62
     7
 10
-351.902083740963
 20
24.3925556332369
 30
0.0
 11
-356.902083740963
 21
24.3925556332369
 31
0.0
  0
LINE
  5
   3C4
  8
0
  6
CONTINUOUS
 62
     7
 10
-344.402068482174
 20
24.6425556332369
 30
0.0
 11
-344.402068482174
 21
33.6425480038423
 31
0.0
  0
LINE
  5
   3C5
  8
0
  6
CONTINUOUS
 62
     7
 10
-396.902068482174
 20
24.6425556332369
 30
0.0
 11
-396.902068482174
 21
33.6425480038423
 31
0.0
  0
LINE
  5
   3C6
  8
0
  6
CONTINUOUS
 62
     7
 10
-344.652068482174
 20
76.8925556332369
 30
0.0
 11
-396.65206848216
 21
76.8925556332369
 31
0.0
  0
LINE
  5
   3C7
  8
0
  6
CONTINUOUS
 62
     7
 10
-389.402068482174
 20
24.3925556332369
 30
0.0
 11
-396.652068482174
 21
24.3925556332369
 31
0.0
  0
LINE
  5
   3C8
  8
0
  6
CONTINUOUS
 62
     7
 10
-356.902083740963
 20
24.3925556332369
 30
0.0
 11
-384.402076111568
 21
24.3925556332369
 31
0.0
  0
LINE
  5
   3C9
  8
0
  6
CONTINUOUS
 62
     7
 10
-344.652068482174
 20
24.3925556332369
 30
0.0
 11
-351.902083740963
 21
24.3925556332369
 31
0.0
  0
LINE
  5
   3CA
  8
0
  6
CONTINUOUS
 62
     7
 10
-365.277068482174
 20
35.5175480038423
 30
0.0
 11
-365.277068482174
 21
55.5175403744478
 31
0.0
  0
LINE
  5
   3CB
  8
0
  6
CONTINUOUS
 62
     7
 10
-376.027068482174
 20
35.5175480038423
 30
0.0
 11
-376.027068482174
 21
55.5175403744478
 31
0.0
  0
LINE
  5
   3CC
  8
0
  6
CONTINUOUS
 62
     7
 10
-344.402068482174
 20
70.8925403744478
 30
0.0
 11
-396.902068482174
 21
70.8925403744478
 31
0.0
  0
LINE
  5
   3CD
  8
0
  6
CONTINUOUS
 62
     7
 10
-344.402068482174
 20
75.8925403744478
 30
0.0
 11
-396.902068482174
 21
75.8925403744478
 31
0.0
  0
LINE
  5
   3CE
  8
0
  6
CONTINUOUS
 62
     7
 10
-365.277068482174
 20
55.3853077084322
 30
0.0
 11
-376.027068482174
 21
55.3853077084322
 31
0.0
  0
LINE
  5
   3CF
  8
0
  6
CONTINUOUS
 62
     7
 10
-365.277068482174
 20
55.5175403744478
 30
0.0
 11
-376.027068482174
 21
55.5175403744478
 31
0.0
  0
LINE
  5
   3D0
  8
0
  6
CONTINUOUS
 62
     7
 10
-365.277068482174
 20
35.5175480038423
 30
0.0
 11
-376.027068482174
 21
35.5175480038423
 31
0.0
  0
LINE
  5
   3D1
  8
0
  6
CONTINUOUS
 62
     7
 10
-365.277068482174
 20
35.649795928647
 30
0.0
 11
-376.027068482174
 21
35.649795928647
 31
0.0
  0
LINE
  5
   3D2
  8
0
  6
CONTINUOUS
 62
     7
 10
-344.402076111568
 20
34.1425480038423
 30
0.0
 11
-344.402076111568
 21
40.1425440272231
 31
0.0
  0
LINE
  5
   3D3
  8
0
  6
CONTINUOUS
 62
     7
 10
-344.402076111568
 20
57.3925480038423
 30
0.0
 11
-344.402076111568
 21
76.6425556332368
 31
0.0
  0
LINE
  5
   3D4
  8
0
  6
CONTINUOUS
 62
     7
 10
-344.402076111568
 20
40.6425440272231
 30
0.0
 11
-344.402076111568
 21
50.3925480038423
 31
0.0
  0
LINE
  5
   3D5
  8
0
  6
CONTINUOUS
 62
     7
 10
-344.402076111568
 20
50.8925480038423
 30
0.0
 11
-344.402076111568
 21
56.8925480038423
 31
0.0
  0
LINE
  5
   3D6
  8
0
  6
CONTINUOUS
 62
     7
 10
-396.902068482177
 20
34.1425480038423
 30
0.0
 11
-396.902068482177
 21
40.1425480038434
 31
0.0
  0
LINE
  5
   3D7
  8
0
  6
CONTINUOUS
 62
     7
 10
-396.902068482185
 20
40.6425480038434
 30
0.0
 11
-396.902068482185
 21
50.3925480038423
 31
0.0
  0
LINE
  5
   3D8
  8
0
  6
CONTINUOUS
 62
     7
 10
-396.902068482171
 20
50.8925480038423
 30
0.0
 11
-396.902068482171
 21
56.8925480038423
 31
0.0
  0
LINE
  5
   3D9
  8
0
  6
CONTINUOUS
 62
     7
 10
-396.90206848216
 20
57.3925480038423
 30
0.0
 11
-396.90206848216
 21
76.6425556332368
 31
0.0
  0
LINE
  5
   3DA
  8
0
  6
CONTINUOUS
 62
     7
 10
-376.027072469036
 20
40.1425576215544
 30
0.0
 11
-396.402068511976
 21
40.1425576215544
 31
0.0
  0
LINE
  5
   3DB
  8
0
  6
CONTINUOUS
 62
     7
 10
-344.402076111568
 20
40.1425536449313
 30
0.0
 11
-344.902076111568
 21
40.1425536449313
 31
0.0
  0
LINE
  5
   3DC
  8
0
  6
CONTINUOUS
 62
     7
 10
-376.02708224858
 20
40.6425576215574
 30
0.0
 11
-396.402068511976
 21
40.6425576215574
 31
0.0
  0
LINE
  5
   3DD
  8
0
  6
CONTINUOUS
 62
     7
 10
-344.402076111568
 20
40.6425536449313
 30
0.0
 11
-344.902076111568
 21
40.6425536449313
 31
0.0
  0
LINE
  5
   3DE
  8
0
  6
CONTINUOUS
 62
     7
 10
-396.402068511976
 20
40.1425480038423
 30
0.0
 11
-396.402068511976
 21
40.6425480038423
 31
0.0
  0
LINE
  5
   3DF
  8
0
  6
CONTINUOUS
 62
     7
 10
-344.902076111568
 20
40.1425480038423
 30
0.0
 11
-344.902076111568
 21
40.6425480038423
 31
0.0
  0
LINE
  5
   3E0
  8
0
  6
CONTINUOUS
 62
     7
 10
-344.402068482174
 20
33.6425480038423
 30
0.0
 11
-344.902076111568
 21
33.6425480038423
 31
0.0
  0
LINE
  5
   3E1
  8
0
  6
CONTINUOUS
 62
     7
 10
-344.402076111568
 20
34.1425480038423
 30
0.0
 11
-344.902076111568
 21
34.1425480038423
 31
0.0
  0
LINE
  5
   3E2
  8
0
  6
CONTINUOUS
 62
     7
 10
-396.402068511976
 20
33.6425480038423
 30
0.0
 11
-396.402068511976
 21
34.1425480038423
 31
0.0
  0
LINE
  5
   3E3
  8
0
  6
CONTINUOUS
 62
     7
 10
-344.902076111568
 20
33.6425480038423
 30
0.0
 11
-344.902076111568
 21
34.1425480038423
 31
0.0
  0
LINE
  5
   3E4
  8
0
  6
CONTINUOUS
 62
     7
 10
-344.402076111568
 20
56.8925480038423
 30
0.0
 11
-344.902076111568
 21
56.8925480038423
 31
0.0
  0
LINE
  5
   3E5
  8
0
  6
CONTINUOUS
 62
     7
 10
-344.402076111568
 20
57.3925480038423
 30
0.0
 11
-344.902076111568
 21
57.3925480038423
 31
0.0
  0
LINE
  5
   3E6
  8
0
  6
CONTINUOUS
 62
     7
 10
-396.402068511976
 20
56.8925480038423
 30
0.0
 11
-396.402068511976
 21
57.3925480038423
 31
0.0
  0
LINE
  5
   3E7
  8
0
  6
CONTINUOUS
 62
     7
 10
-344.902076111568
 20
56.8925480038423
 30
0.0
 11
-344.902076111568
 21
57.3925480038423
 31
0.0
  0
LINE
  5
   3E8
  8
0
  6
CONTINUOUS
 62
     7
 10
-376.027072445883
 20
50.3925480038423
 30
0.0
 11
-396.402068511976
 21
50.3925480038423
 31
0.0
  0
LINE
  5
   3E9
  8
0
  6
CONTINUOUS
 62
     7
 10
-344.402076111568
 20
50.3925480038423
 30
0.0
 11
-344.902076111568
 21
50.3925480038423
 31
0.0
  0
LINE
  5
   3EA
  8
0
  6
CONTINUOUS
 62
     7
 10
-376.027068482174
 20
50.8925480038423
 30
0.0
 11
-396.402068511976
 21
50.8925480038423
 31
0.0
  0
LINE
  5
   3EB
  8
0
  6
CONTINUOUS
 62
     7
 10
-344.402076111568
 20
50.8925480038423
 30
0.0
 11
-344.902076111568
 21
50.8925480038423
 31
0.0
  0
LINE
  5
   3EC
  8
0
  6
CONTINUOUS
 62
     7
 10
-396.402068511976
 20
50.3925480038423
 30
0.0
 11
-396.402068511976
 21
50.8925480038423
 31
0.0
  0
LINE
  5
   3ED
  8
0
  6
CONTINUOUS
 62
     7
 10
-344.902076111568
 20
50.3925480038423
 30
0.0
 11
-344.902076111568
 21
50.8925480038423
 31
0.0
  0
ARC
  5
   3EE
  8
0
  6
CONTINUOUS
 62
     7
 10
-396.652068482174
 20
24.6425556332369
 30
0.0
 40
0.25
 50
179.999999948034
 51
269.999999948034
  0
ARC
  5
   3EF
  8
0
  6
CONTINUOUS
 62
     7
 10
-344.652068482174
 20
24.6425556332369
 30
0.0
 40
0.25
 50
269.999999948034
 51
359.999999948034
  0
ARC
  5
   3F0
  8
0
  6
CONTINUOUS
 62
     7
 10
-344.652068482174
 20
76.6425556332369
 30
0.0
 40
0.25
 50
359.999999948034
 51
449.999999948034
  0
ARC
  5
   3F1
  8
0
  6
CONTINUOUS
 62
     7
 10
-396.65206848216
 20
76.6425556332368
 30
0.0
 40
0.25
 50
449.999999948034
 51
539.999999948034
  0
LINE
  5
   3F2
  8
0
  6
CONTINUOUS
 62
     7
 10
-381.902068482174
 20
56.1425480038423
 30
0.0
 11
-382.652068482174
 21
56.1425480038423
 31
0.0
  0
LINE
  5
   3F3
  8
0
  6
CONTINUOUS
 62
     7
 10
-381.902068482174
 20
51.6425480038423
 30
0.0
 11
-382.652068482174
 21
51.6425480038423
 31
0.0
  0
CIRCLE
  5
   3F4
  8
0
  6
CONTINUOUS
 62
     7
 10
-382.277068482174
 20
37.1425480038423
 30
0.0
 40
2.25
  0
CIRCLE
  5
   3F5
  8
0
  6
CONTINUOUS
 62
     7
 10
-382.277068482174
 20
37.1425480038423
 30
0.0
 40
1.5
  0
LINE
  5
   3F6
  8
0
  6
CONTINUOUS
 62
     7
 10
-382.652068482174
 20
51.6425480038423
 30
0.0
 11
-382.652068482174
 21
56.1425480038423
 31
0.0
  0
LINE
  5
   3F7
  8
0
  6
CONTINUOUS
 62
     7
 10
-381.902068482174
 20
51.6425480038423
 30
0.0
 11
-381.902068482174
 21
56.1425480038423
 31
0.0
  0
LINE
  5
   3F8
  8
0
  6
CONTINUOUS
 62
     7
 10
-377.402068482174
 20
34.1425480038423
 30
0.0
 11
-377.402068482174
 21
40.1425551484251
 31
0.0
  0
LINE
  5
   3F9
  8
0
  6
CONTINUOUS
 62
     7
 10
-363.902068482174
 20
34.1425480038423
 30
0.0
 11
-363.902068482174
 21
40.1425511718019
 31
0.0
  0
LINE
  5
   3FA
  8
0
  6
CONTINUOUS
 62
     7
 10
-363.902068482174
 20
50.8925480038423
 30
0.0
 11
-363.902068482174
 21
56.8925480038423
 31
0.0
  0
LINE
  5
   3FB
  8
0
  6
CONTINUOUS
 62
     7
 10
-377.402068482174
 20
50.8925480038423
 30
0.0
 11
-377.402068482174
 21
56.8925480038423
 31
0.0
  0
LINE
  5
   3FC
  8
0
  6
CONTINUOUS
 62
     7
 10
-357.877073364986
 20
39.0675480038423
 30
0.0
 11
-358.102073364986
 21
39.0675480038423
 31
0.0
  0
LINE
  5
   3FD
  8
0
  6
CONTINUOUS
 62
     7
 10
-358.352073364986
 20
35.2175480038423
 30
0.0
 11
-358.752073364986
 21
35.2175480038423
 31
0.0
  0
LINE
  5
   3FE
  8
0
  6
CONTINUOUS
 62
     7
 10
-361.952073364986
 20
36.5175480038424
 30
0.0
 11
-361.952073364986
 21
36.7675480038424
 31
0.0
  0
LINE
  5
   3FF
  8
0
  6
CONTINUOUS
 62
     7
 10
-359.352073364986
 20
36.5175480038424
 30
0.0
 11
-359.352073364986
 21
36.7675480038424
 31
0.0
  0
ARC
  5
   400
  8
0
  6
CONTINUOUS
 62
     7
 10
-360.652073364986
 20
36.7675480038423
 30
0.0
 40
1.3
 50
359.999999948034
 51
539.999999948034
  0
ARC
  5
   401
  8
0
  6
CONTINUOUS
 62
     7
 10
-360.652073364986
 20
36.5175480038423
 30
0.0
 40
1.3
 50
179.999999948034
 51
359.999999948034
  0
ARC
  5
   402
  8
0
  6
CONTINUOUS
 62
     7
 10
-360.652073364986
 20
36.7675480038423
 30
0.0
 40
0.900000000000001
 50
359.999999948034
 51
539.999999948034
  0
ARC
  5
   403
  8
0
  6
CONTINUOUS
 62
     7
 10
-360.652073364986
 20
36.5175480038423
 30
0.0
 40
0.899999999999999
 50
179.999999948034
 51
359.999999948034
  0
LINE
  5
   404
  8
0
  6
CONTINUOUS
 62
     7
 10
-361.552073364986
 20
36.5175480038424
 30
0.0
 11
-361.552073364986
 21
36.7675480038424
 31
0.0
  0
LINE
  5
   405
  8
0
  6
CONTINUOUS
 62
     7
 10
-359.752073364986
 20
36.5175480038424
 30
0.0
 11
-359.752073364986
 21
36.7675480038424
 31
0.0
  0
LINE
  5
   406
  8
0
  6
CONTINUOUS
 62
     7
 10
-359.227073364986
 20
37.4675480038424
 30
0.0
 11
-359.227073364986
 21
37.8675480038424
 31
0.0
  0
LINE
  5
   407
  8
0
  6
CONTINUOUS
 62
     7
 10
-358.752073364986
 20
37.4675480038423
 30
0.0
 11
-359.227073364986
 21
37.4675480038423
 31
0.0
  0
LINE
  5
   408
  8
0
  6
CONTINUOUS
 62
     7
 10
-357.877073364986
 20
37.4675480038424
 30
0.0
 11
-357.877073364986
 21
37.8675480038424
 31
0.0
  0
LINE
  5
   409
  8
0
  6
CONTINUOUS
 62
     7
 10
-358.752073364986
 20
37.8675480038423
 30
0.0
 11
-359.227073364986
 21
37.8675480038423
 31
0.0
  0
LINE
  5
   40A
  8
0
  6
CONTINUOUS
 62
     7
 10
-358.752073364986
 20
35.2175480038424
 30
0.0
 11
-358.752073364986
 21
37.4675480038424
 31
0.0
  0
LINE
  5
   40B
  8
0
  6
CONTINUOUS
 62
     7
 10
-358.352073364986
 20
35.2175480038424
 30
0.0
 11
-358.352073364986
 21
37.4675480038424
 31
0.0
  0
LINE
  5
   40C
  8
0
  6
CONTINUOUS
 62
     7
 10
-357.877073364986
 20
37.4675480038423
 30
0.0
 11
-358.352073364986
 21
37.4675480038423
 31
0.0
  0
LINE
  5
   40D
  8
0
  6
CONTINUOUS
 62
     7
 10
-357.877073364986
 20
37.8675480038423
 30
0.0
 11
-358.352073364986
 21
37.8675480038423
 31
0.0
  0
LINE
  5
   40E
  8
0
  6
CONTINUOUS
 62
     7
 10
-358.752073364986
 20
37.8675480038423
 30
0.0
 11
-358.752073364986
 21
38.4175480038424
 31
0.0
  0
LINE
  5
   40F
  8
0
  6
CONTINUOUS
 62
     7
 10
-358.352073364986
 20
37.8675480038423
 30
0.0
 11
-358.352073364986
 21
38.4175480038424
 31
0.0
  0
ARC
  5
   410
  8
0
  6
CONTINUOUS
 62
     7
 10
-358.102073364986
 20
38.4175480038423
 30
0.0
 40
0.65
 50
449.999999948034
 51
539.999999948034
  0
ARC
  5
   411
  8
0
  6
CONTINUOUS
 62
     7
 10
-358.102073364986
 20
38.4175480038423
 30
0.0
 40
0.25
 50
449.999999948034
 51
539.999999948034
  0
LINE
  5
   412
  8
0
  6
CONTINUOUS
 62
     7
 10
-357.877073364986
 20
38.6675480038424
 30
0.0
 11
-357.877073364986
 21
39.0675480038424
 31
0.0
  0
LINE
  5
   413
  8
0
  6
CONTINUOUS
 62
     7
 10
-357.877073364986
 20
38.6675480038423
 30
0.0
 11
-358.102073364986
 21
38.6675480038423
 31
0.0
  0
LINE
  5
   414
  8
0
  6
CONTINUOUS
 62
     7
 10
-356.277073364986
 20
39.0675480038423
 30
0.0
 11
-356.502073364986
 21
39.0675480038423
 31
0.0
  0
LINE
  5
   415
  8
0
  6
CONTINUOUS
 62
     7
 10
-356.752073364986
 20
35.2175480038423
 30
0.0
 11
-357.152073364986
 21
35.2175480038423
 31
0.0
  0
LINE
  5
   416
  8
0
  6
CONTINUOUS
 62
     7
 10
-357.627073364986
 20
37.4675480038424
 30
0.0
 11
-357.627073364986
 21
37.8675480038423
 31
0.0
  0
LINE
  5
   417
  8
0
  6
CONTINUOUS
 62
     7
 10
-357.152073364986
 20
37.4675480038423
 30
0.0
 11
-357.627073364986
 21
37.4675480038423
 31
0.0
  0
LINE
  5
   418
  8
0
  6
CONTINUOUS
 62
     7
 10
-356.277073364986
 20
37.4675480038424
 30
0.0
 11
-356.277073364986
 21
37.8675480038423
 31
0.0
  0
LINE
  5
   419
  8
0
  6
CONTINUOUS
 62
     7
 10
-357.152073364986
 20
37.8675480038423
 30
0.0
 11
-357.627073364986
 21
37.8675480038423
 31
0.0
  0
LINE
  5
   41A
  8
0
  6
CONTINUOUS
 62
     7
 10
-357.152073364986
 20
35.2175480038424
 30
0.0
 11
-357.152073364986
 21
37.4675480038424
 31
0.0
  0
LINE
  5
   41B
  8
0
  6
CONTINUOUS
 62
     7
 10
-356.752073364986
 20
35.2175480038424
 30
0.0
 11
-356.752073364986
 21
37.4675480038424
 31
0.0
  0
LINE
  5
   41C
  8
0
  6
CONTINUOUS
 62
     7
 10
-356.277073364986
 20
37.4675480038423
 30
0.0
 11
-356.752073364986
 21
37.4675480038423
 31
0.0
  0
LINE
  5
   41D
  8
0
  6
CONTINUOUS
 62
     7
 10
-356.277073364986
 20
37.8675480038423
 30
0.0
 11
-356.752073364986
 21
37.8675480038423
 31
0.0
  0
LINE
  5
   41E
  8
0
  6
CONTINUOUS
 62
     7
 10
-357.152073364986
 20
37.8675480038424
 30
0.0
 11
-357.152073364986
 21
38.4175480038424
 31
0.0
  0
LINE
  5
   41F
  8
0
  6
CONTINUOUS
 62
     7
 10
-356.752073364986
 20
37.8675480038423
 30
0.0
 11
-356.752073364986
 21
38.4175480038424
 31
0.0
  0
ARC
  5
   420
  8
0
  6
CONTINUOUS
 62
     7
 10
-356.502073364986
 20
38.4175480038423
 30
0.0
 40
0.65
 50
449.999999948034
 51
539.999999948034
  0
ARC
  5
   421
  8
0
  6
CONTINUOUS
 62
     7
 10
-356.502073364986
 20
38.4175480038423
 30
0.0
 40
0.25
 50
449.999999948034
 51
539.999999948034
  0
LINE
  5
   422
  8
0
  6
CONTINUOUS
 62
     7
 10
-356.277073364986
 20
38.6675480038424
 30
0.0
 11
-356.277073364986
 21
39.0675480038423
 31
0.0
  0
LINE
  5
   423
  8
0
  6
CONTINUOUS
 62
     7
 10
-356.277073364986
 20
38.6675480038423
 30
0.0
 11
-356.502073364986
 21
38.6675480038423
 31
0.0
  0
LINE
  5
   424
  8
0
  6
CONTINUOUS
 62
     7
 10
-358.552073364986
 20
52.4675480038423
 30
0.0
 11
-358.952073364986
 21
52.4675480038423
 31
0.0
  0
ARC
  5
   425
  8
0
  6
CONTINUOUS
 62
     7
 10
-360.652073364986
 20
54.0175480038423
 30
0.0
 40
1.3
 50
359.999999948034
 51
539.999999948034
  0
ARC
  5
   426
  8
0
  6
CONTINUOUS
 62
     7
 10
-360.652073364986
 20
54.0175480038423
 30
0.0
 40
0.900000000000001
 50
359.999999948034
 51
539.999999948034
  0
ARC
  5
   427
  8
0
  6
CONTINUOUS
 62
     7
 10
-360.652073364986
 20
53.7675480038423
 30
0.0
 40
1.3
 50
179.999999948034
 51
359.999999948034
  0
ARC
  5
   428
  8
0
  6
CONTINUOUS
 62
     7
 10
-360.652073364986
 20
53.7675480038423
 30
0.0
 40
0.899999999999999
 50
179.999999948034
 51
359.999999948034
  0
LINE
  5
   429
  8
0
  6
CONTINUOUS
 62
     7
 10
-359.752073364986
 20
53.7675480038423
 30
0.0
 11
-359.752073364986
 21
54.0175480038423
 31
0.0
  0
LINE
  5
   42A
  8
0
  6
CONTINUOUS
 62
     7
 10
-359.352073364986
 20
53.7675480038423
 30
0.0
 11
-359.352073364986
 21
54.0175480038423
 31
0.0
  0
LINE
  5
   42B
  8
0
  6
CONTINUOUS
 62
     7
 10
-361.552073364986
 20
53.7675480038423
 30
0.0
 11
-361.552073364986
 21
54.0175480038423
 31
0.0
  0
LINE
  5
   42C
  8
0
  6
CONTINUOUS
 62
     7
 10
-361.952073364986
 20
53.7675480038423
 30
0.0
 11
-361.952073364986
 21
54.0175480038423
 31
0.0
  0
LINE
  5
   42D
  8
0
  6
CONTINUOUS
 62
     7
 10
-358.952073364986
 20
52.4675480038423
 30
0.0
 11
-358.952073364986
 21
55.3175480038423
 31
0.0
  0
LINE
  5
   42E
  8
0
  6
CONTINUOUS
 62
     7
 10
-358.552073364986
 20
52.4675480038423
 30
0.0
 11
-358.552073364986
 21
54.2175480038423
 31
0.0
  0
LINE
  5
   42F
  8
0
  6
CONTINUOUS
 62
     7
 10
-357.152073364986
 20
52.4675480038423
 30
0.0
 11
-357.152073364986
 21
54.2175480038423
 31
0.0
  0
LINE
  5
   430
  8
0
  6
CONTINUOUS
 62
     7
 10
-356.752073364986
 20
52.4675480038423
 30
0.0
 11
-356.752073364986
 21
54.3175480038424
 31
0.0
  0
LINE
  5
   431
  8
0
  6
CONTINUOUS
 62
     7
 10
-358.552073364986
 20
55.3175480038423
 30
0.0
 11
-358.952073364986
 21
55.3175480038423
 31
0.0
  0
ARC
  5
   432
  8
0
  6
CONTINUOUS
 62
     7
 10
-357.852073364986
 20
54.2175480038423
 30
0.0
 40
0.699999999999999
 50
359.999999948034
 51
539.999999948034
  0
LINE
  5
   433
  8
0
  6
CONTINUOUS
 62
     7
 10
-358.552073364986
 20
54.9175480038424
 30
0.0
 11
-358.552073364986
 21
55.3175480038423
 31
0.0
  0
ARC
  5
   434
  8
0
  6
CONTINUOUS
 62
     7
 10
-357.752073364986
 20
54.3175480038423
 30
0.0
 40
1.0
 50
359.999999948034
 51
503.13010230219
  0
LINE
  5
   435
  8
0
  6
CONTINUOUS
 62
     7
 10
-356.752073364986
 20
52.4675480038423
 30
0.0
 11
-357.152073364986
 21
52.4675480038423
 31
0.0
  0
LINE
  5
   436
  8
0
  6
CONTINUOUS
 62
     7
 10
-396.402068511976
 20
57.3925480038423
 30
0.0
 11
-396.90206848216
 21
57.3925480038423
 31
0.0
  0
LINE
  5
   437
  8
0
  6
CONTINUOUS
 62
     7
 10
-396.402068511976
 20
56.8925480038423
 30
0.0
 11
-396.902068482171
 21
56.8925480038423
 31
0.0
  0
LINE
  5
   438
  8
0
  6
CONTINUOUS
 62
     7
 10
-396.402068511976
 20
50.8925480038423
 30
0.0
 11
-396.902068482171
 21
50.8925480038423
 31
0.0
  0
LINE
  5
   439
  8
0
  6
CONTINUOUS
 62
     7
 10
-396.402068511976
 20
50.3925480038423
 30
0.0
 11
-396.902068482185
 21
50.3925480038423
 31
0.0
  0
LINE
  5
   43A
  8
0
  6
CONTINUOUS
 62
     7
 10
-396.402068511976
 20
40.6425576215574
 30
0.0
 11
-396.902068482185
 21
40.6425576215574
 31
0.0
  0
LINE
  5
   43B
  8
0
  6
CONTINUOUS
 62
     7
 10
-396.402068511976
 20
40.1425576215544
 30
0.0
 11
-396.902068482177
 21
40.1425576215544
 31
0.0
  0
LINE
  5
   43C
  8
0
  6
CONTINUOUS
 62
     7
 10
-396.402068511976
 20
34.1425480038423
 30
0.0
 11
-396.902068482177
 21
34.1425480038423
 31
0.0
  0
LINE
  5
   43D
  8
0
  6
CONTINUOUS
 62
     7
 10
-396.402068511976
 20
33.6425480038423
 30
0.0
 11
-396.902068482174
 21
33.6425480038423
 31
0.0
  0
LINE
  5
   43E
  8
0
  6
CONTINUOUS
 62
     7
 10
-344.902076111568
 20
57.3925480038423
 30
0.0
 11
-396.402068511976
 21
57.3925480038423
 31
0.0
  0
LINE
  5
   43F
  8
0
  6
CONTINUOUS
 62
     7
 10
-344.902076111568
 20
56.8925480038423
 30
0.0
 11
-396.402068511976
 21
56.8925480038423
 31
0.0
  0
LINE
  5
   440
  8
0
  6
CONTINUOUS
 62
     7
 10
-344.902076111568
 20
50.8925480038423
 30
0.0
 11
-365.277068482174
 21
50.8925480038423
 31
0.0
  0
LINE
  5
   441
  8
0
  6
CONTINUOUS
 62
     7
 10
-344.902076111568
 20
50.3925480038423
 30
0.0
 11
-365.277068482174
 21
50.3925480038423
 31
0.0
  0
LINE
  5
   442
  8
0
  6
CONTINUOUS
 62
     7
 10
-344.902076111568
 20
40.6425536449313
 30
0.0
 11
-365.277069974553
 21
40.6425536449313
 31
0.0
  0
LINE
  5
   443
  8
0
  6
CONTINUOUS
 62
     7
 10
-344.902076111568
 20
40.1425536449313
 30
0.0
 11
-365.277070157748
 21
40.1425536449313
 31
0.0
  0
LINE
  5
   444
  8
0
  6
CONTINUOUS
 62
     7
 10
-344.902076111568
 20
34.1425480038423
 30
0.0
 11
-396.402068511976
 21
34.1425480038423
 31
0.0
  0
LINE
  5
   445
  8
0
  6
CONTINUOUS
 62
     7
 10
-344.902076111568
 20
33.6425480038423
 30
0.0
 11
-396.402068511976
 21
33.6425480038423
 31
0.0
  0
LINE
  5
   446
  8
0
  6
CONTINUOUS
 62
     7
 10
-365.277068482174
 20
42.580208358552
 30
0.0
 11
-376.027068482174
 21
42.580208358552
 31
0.0
  0
LINE
  5
   447
  8
0
  6
CONTINUOUS
 62
     7
 10
-365.277068482174
 20
39.5219756057435
 30
0.0
 11
-376.027068482174
 21
39.5219756057435
 31
0.0
  0
LINE
  5
   448
  8
0
  6
CONTINUOUS
 62
     7
 10
-365.277068482174
 20
36.5480662926377
 30
0.0
 11
-376.027068482174
 21
36.5480662926377
 31
0.0
  0
LINE
  5
   449
  8
0
  6
CONTINUOUS
 62
     7
 10
-365.277068482174
 20
36.1466927287786
 30
0.0
 11
-376.027068482174
 21
36.1466927287786
 31
0.0
  0
LINE
  5
   44A
  8
0
  6
CONTINUOUS
 62
     3
 10
-345.02706800915
 20
95.5175518185415
 30
0.0
 11
-396.277060379756
 21
95.5175518185415
 31
0.0
  0
LINE
  5
   44B
  8
0
  6
CONTINUOUS
 62
     3
 10
-344.40206800915
 20
90.8925556332369
 30
0.0
 11
-344.40206800915
 21
94.8925469464842
 31
0.0
  0
LINE
  5
   44C
  8
0
  6
CONTINUOUS
 62
     3
 10
-396.902063233756
 20
90.8925556332369
 30
0.0
 11
-396.902063233756
 21
94.8925625836116
 31
0.0
  0
LINE
  5
   44D
  8
0
  6
CONTINUOUS
 62
     3
 10
-395.077062477839
 20
90.8925556332369
 30
0.0
 11
-395.077062477839
 21
95.5175518185415
 31
0.0
  0
LINE
  5
   44E
  8
0
  6
CONTINUOUS
 62
     3
 10
-393.277062287104
 20
90.8925556332369
 30
0.0
 11
-393.277062287104
 21
95.5175518185415
 31
0.0
  0
LINE
  5
   44F
  8
0
  6
CONTINUOUS
 62
     3
 10
-391.477062573207
 20
90.8925556332369
 30
0.0
 11
-391.477062573207
 21
95.5175518185415
 31
0.0
  0
LINE
  5
   450
  8
0
  6
CONTINUOUS
 62
     3
 10
-389.677062382472
 20
90.8925556332369
 30
0.0
 11
-389.677062382472
 21
95.5175518185415
 31
0.0
  0
LINE
  5
   451
  8
0
  6
CONTINUOUS
 62
     3
 10
-387.877066483271
 20
90.8925556332369
 30
0.0
 11
-387.877066483271
 21
95.5175518185415
 31
0.0
  0
LINE
  5
   452
  8
0
  6
CONTINUOUS
 62
     3
 10
-386.077063431514
 20
90.8925556332369
 30
0.0
 11
-386.077063431514
 21
95.5175518185415
 31
0.0
  0
LINE
  5
   453
  8
0
  6
CONTINUOUS
 62
     3
 10
-384.27706800915
 20
90.8925556332369
 30
0.0
 11
-384.27706800915
 21
95.5175518185415
 31
0.0
  0
LINE
  5
   454
  8
0
  6
CONTINUOUS
 62
     3
 10
-382.477064957392
 20
90.8925556332369
 30
0.0
 11
-382.477064957392
 21
95.5175518185415
 31
0.0
  0
LINE
  5
   455
  8
0
  6
CONTINUOUS
 62
     3
 10
-380.677069535029
 20
90.8925556332369
 30
0.0
 11
-380.677069535029
 21
95.5175518185415
 31
0.0
  0
LINE
  5
   456
  8
0
  6
CONTINUOUS
 62
     3
 10
-378.877066483271
 20
90.8925556332369
 30
0.0
 11
-378.877066483271
 21
95.5175518185415
 31
0.0
  0
LINE
  5
   457
  8
0
  6
CONTINUOUS
 62
     3
 10
-377.077063431514
 20
90.8925556332369
 30
0.0
 11
-377.077063431514
 21
95.5175518185415
 31
0.0
  0
LINE
  5
   458
  8
0
  6
CONTINUOUS
 62
     3
 10
-375.27706800915
 20
90.8925556332369
 30
0.0
 11
-375.27706800915
 21
95.5175518185415
 31
0.0
  0
LINE
  5
   459
  8
0
  6
CONTINUOUS
 62
     3
 10
-373.477064957392
 20
90.8925556332369
 30
0.0
 11
-373.477064957392
 21
95.5175518185415
 31
0.0
  0
LINE
  5
   45A
  8
0
  6
CONTINUOUS
 62
     3
 10
-371.677069535029
 20
90.8925556332369
 30
0.0
 11
-371.677069535029
 21
95.5175518185415
 31
0.0
  0
LINE
  5
   45B
  8
0
  6
CONTINUOUS
 62
     3
 10
-369.877066483271
 20
90.8925556332369
 30
0.0
 11
-369.877066483271
 21
95.5175518185415
 31
0.0
  0
LINE
  5
   45C
  8
0
  6
CONTINUOUS
 62
     3
 10
-368.077063431514
 20
90.8925556332369
 30
0.0
 11
-368.077063431514
 21
95.5175518185415
 31
0.0
  0
LINE
  5
   45D
  8
0
  6
CONTINUOUS
 62
     3
 10
-366.27706800915
 20
90.8925556332369
 30
0.0
 11
-366.27706800915
 21
95.5175518185415
 31
0.0
  0
LINE
  5
   45E
  8
0
  6
CONTINUOUS
 62
     3
 10
-364.477064957392
 20
90.8925556332369
 30
0.0
 11
-364.477064957392
 21
95.5175518185415
 31
0.0
  0
LINE
  5
   45F
  8
0
  6
CONTINUOUS
 62
     3
 10
-362.677069535029
 20
90.8925556332369
 30
0.0
 11
-362.677069535029
 21
95.5175518185415
 31
0.0
  0
LINE
  5
   460
  8
0
  6
CONTINUOUS
 62
     3
 10
-360.877066483271
 20
90.8925556332369
 30
0.0
 11
-360.877066483271
 21
95.5175518185415
 31
0.0
  0
LINE
  5
   461
  8
0
  6
CONTINUOUS
 62
     3
 10
-359.077063431514
 20
90.8925556332369
 30
0.0
 11
-359.077063431514
 21
95.5175518185415
 31
0.0
  0
LINE
  5
   462
  8
0
  6
CONTINUOUS
 62
     3
 10
-357.27706800915
 20
90.8925556332369
 30
0.0
 11
-357.27706800915
 21
95.5175518185415
 31
0.0
  0
LINE
  5
   463
  8
0
  6
CONTINUOUS
 62
     3
 10
-355.477064957392
 20
90.8925556332369
 30
0.0
 11
-355.477064957392
 21
95.5175518185415
 31
0.0
  0
LINE
  5
   464
  8
0
  6
CONTINUOUS
 62
     3
 10
-353.677069535029
 20
90.8925556332369
 30
0.0
 11
-353.677069535029
 21
95.5175518185415
 31
0.0
  0
LINE
  5
   465
  8
0
  6
CONTINUOUS
 62
     3
 10
-351.877066483271
 20
90.8925556332369
 30
0.0
 11
-351.877066483271
 21
95.5175518185415
 31
0.0
  0
LINE
  5
   466
  8
0
  6
CONTINUOUS
 62
     3
 10
-350.077063431514
 20
90.8925556332369
 30
0.0
 11
-350.077063431514
 21
95.5175518185415
 31
0.0
  0
LINE
  5
   467
  8
0
  6
CONTINUOUS
 62
     3
 10
-348.27706800915
 20
90.8925556332369
 30
0.0
 11
-348.27706800915
 21
95.5175518185415
 31
0.0
  0
LINE
  5
   468
  8
0
  6
CONTINUOUS
 62
     3
 10
-346.477064957392
 20
90.8925556332369
 30
0.0
 11
-346.477064957392
 21
95.5175518185415
 31
0.0
  0
ARC
  5
   469
  8
0
  6
CONTINUOUS
 62
     3
 10
-345.027076306177
 20
94.8925469464842
 30
0.0
 40
0.624999378846369
 50
360.000027285161
 51
450.00046185832
  0
ARC
  5
   46A
  8
0
  6
CONTINUOUS
 62
     3
 10
-396.277077219902
 20
94.8925625836116
 30
0.0
 40
0.624983634017216
 50
449.998225807986
 51
540.001187191324
  0
LINE
  5
   46B
  8
0
  6
CONTINUOUS
 62
     3
 10
-345.02706800915
 20
8.01755181854159
 30
0.0
 11
-396.277060379756
 21
8.01755181854159
 31
0.0
  0
LINE
  5
   46C
  8
0
  6
CONTINUOUS
 62
     3
 10
-344.40206800915
 20
8.64255669059878
 30
0.0
 11
-344.40206800915
 21
10.3925575405855
 31
0.0
  0
LINE
  5
   46D
  8
0
  6
CONTINUOUS
 62
     3
 10
-396.902063233756
 20
8.64254105347142
 30
0.0
 11
-396.902063233756
 21
10.3925575405855
 31
0.0
  0
LINE
  5
   46E
  8
0
  6
CONTINUOUS
 62
     3
 10
-395.077062477839
 20
8.01755181854159
 30
0.0
 11
-395.077062477839
 21
10.3925575405855
 31
0.0
  0
LINE
  5
   46F
  8
0
  6
CONTINUOUS
 62
     3
 10
-393.277062287104
 20
8.01755181854159
 30
0.0
 11
-393.277062287104
 21
10.3925575405855
 31
0.0
  0
LINE
  5
   470
  8
0
  6
CONTINUOUS
 62
     3
 10
-391.477062573207
 20
8.01755181854159
 30
0.0
 11
-391.477062573207
 21
10.3925575405855
 31
0.0
  0
LINE
  5
   471
  8
0
  6
CONTINUOUS
 62
     3
 10
-389.677062382472
 20
8.01755181854159
 30
0.0
 11
-389.677062382472
 21
10.3925575405855
 31
0.0
  0
LINE
  5
   472
  8
0
  6
CONTINUOUS
 62
     3
 10
-387.877066483271
 20
8.01755181854159
 30
0.0
 11
-387.877066483271
 21
10.3925575405855
 31
0.0
  0
LINE
  5
   473
  8
0
  6
CONTINUOUS
 62
     3
 10
-386.077063431514
 20
8.01755181854159
 30
0.0
 11
-386.077063431514
 21
10.3925575405855
 31
0.0
  0
LINE
  5
   474
  8
0
  6
CONTINUOUS
 62
     3
 10
-384.27706800915
 20
8.01755181854159
 30
0.0
 11
-384.27706800915
 21
10.3925575405855
 31
0.0
  0
LINE
  5
   475
  8
0
  6
CONTINUOUS
 62
     3
 10
-382.477064957392
 20
8.01755181854159
 30
0.0
 11
-382.477064957392
 21
10.3925575405855
 31
0.0
  0
LINE
  5
   476
  8
0
  6
CONTINUOUS
 62
     3
 10
-380.677069535029
 20
8.01755181854159
 30
0.0
 11
-380.677069535029
 21
10.3925575405855
 31
0.0
  0
LINE
  5
   477
  8
0
  6
CONTINUOUS
 62
     3
 10
-378.877066483271
 20
8.01755181854159
 30
0.0
 11
-378.877066483271
 21
10.3925575405855
 31
0.0
  0
LINE
  5
   478
  8
0
  6
CONTINUOUS
 62
     3
 10
-377.077063431514
 20
8.01755181854159
 30
0.0
 11
-377.077063431514
 21
10.3925575405855
 31
0.0
  0
LINE
  5
   479
  8
0
  6
CONTINUOUS
 62
     3
 10
-375.27706800915
 20
8.01755181854159
 30
0.0
 11
-375.27706800915
 21
10.3925575405855
 31
0.0
  0
LINE
  5
   47A
  8
0
  6
CONTINUOUS
 62
     3
 10
-373.477064957392
 20
8.01755181854159
 30
0.0
 11
-373.477064957392
 21
10.3925575405855
 31
0.0
  0
LINE
  5
   47B
  8
0
  6
CONTINUOUS
 62
     3
 10
-371.677069535029
 20
8.01755181854159
 30
0.0
 11
-371.677069535029
 21
10.3925575405855
 31
0.0
  0
LINE
  5
   47C
  8
0
  6
CONTINUOUS
 62
     3
 10
-369.877066483271
 20
8.01755181854159
 30
0.0
 11
-369.877066483271
 21
10.3925575405855
 31
0.0
  0
LINE
  5
   47D
  8
0
  6
CONTINUOUS
 62
     3
 10
-368.077063431513
 20
8.01755181854159
 30
0.0
 11
-368.077063431513
 21
10.3925575405855
 31
0.0
  0
LINE
  5
   47E
  8
0
  6
CONTINUOUS
 62
     3
 10
-366.27706800915
 20
8.01755181854159
 30
0.0
 11
-366.27706800915
 21
10.3925575405855
 31
0.0
  0
LINE
  5
   47F
  8
0
  6
CONTINUOUS
 62
     3
 10
-364.477064957392
 20
8.01755181854159
 30
0.0
 11
-364.477064957392
 21
10.3925575405855
 31
0.0
  0
LINE
  5
   480
  8
0
  6
CONTINUOUS
 62
     3
 10
-362.677069535029
 20
8.01755181854159
 30
0.0
 11
-362.677069535029
 21
10.3925575405855
 31
0.0
  0
LINE
  5
   481
  8
0
  6
CONTINUOUS
 62
     3
 10
-360.877066483271
 20
8.01755181854159
 30
0.0
 11
-360.877066483271
 21
10.3925575405855
 31
0.0
  0
LINE
  5
   482
  8
0
  6
CONTINUOUS
 62
     3
 10
-359.077063431513
 20
8.01755181854159
 30
0.0
 11
-359.077063431513
 21
10.3925575405855
 31
0.0
  0
LINE
  5
   483
  8
0
  6
CONTINUOUS
 62
     3
 10
-357.27706800915
 20
8.01755181854159
 30
0.0
 11
-357.27706800915
 21
10.3925575405855
 31
0.0
  0
LINE
  5
   484
  8
0
  6
CONTINUOUS
 62
     3
 10
-355.477064957392
 20
8.01755181854159
 30
0.0
 11
-355.477064957392
 21
10.3925575405855
 31
0.0
  0
LINE
  5
   485
  8
0
  6
CONTINUOUS
 62
     3
 10
-353.677069535029
 20
8.01755181854159
 30
0.0
 11
-353.677069535029
 21
10.3925575405855
 31
0.0
  0
LINE
  5
   486
  8
0
  6
CONTINUOUS
 62
     3
 10
-351.877066483271
 20
8.01755181854159
 30
0.0
 11
-351.877066483271
 21
10.3925575405855
 31
0.0
  0
LINE
  5
   487
  8
0
  6
CONTINUOUS
 62
     3
 10
-350.077063431513
 20
8.01755181854159
 30
0.0
 11
-350.077063431513
 21
10.3925575405855
 31
0.0
  0
LINE
  5
   488
  8
0
  6
CONTINUOUS
 62
     3
 10
-348.27706800915
 20
8.01755181854159
 30
0.0
 11
-348.27706800915
 21
10.3925575405855
 31
0.0
  0
LINE
  5
   489
  8
0
  6
CONTINUOUS
 62
     3
 10
-346.477064957392
 20
8.01755181854159
 30
0.0
 11
-346.477064957392
 21
10.3925575405855
 31
0.0
  0
ARC
  5
   48A
  8
0
  6
CONTINUOUS
 62
     3
 10
-345.027076306177
 20
8.64255669059878
 30
0.0
 40
0.624999378846369
 50
269.999538037749
 51
359.999972610908
  0
ARC
  5
   48B
  8
0
  6
CONTINUOUS
 62
     3
 10
-396.277077219902
 20
8.64254105347142
 30
0.0
 40
0.624983634017216
 50
179.998812704745
 51
270.001774088083
  0
LINE
  5
   48C
  8
0
  6
DASHDOT
 62
     7
 10
-333.197622737846
 20
50.6425556332369
 30
0.0
 11
-408.024353995994
 21
50.6425556332369
 31
0.0
  0
INSERT
  5
   48D
  8
255
  6
CONTINUOUS
 62
     7
  2
MOSTRINA
 10
-428.071196900143
 20
-4.34775503570845
 30
0.0
 41
0.5
 42
0.5
 50
359.999999792138
 43
0.5
  0
CIRCLE
  5
   48E
  8
0
  6
CONTINUOUS
 62
     7
 10
-342.839075267173
 20
83.2272669618482
 30
0.0
 40
0.1
  0
TEXT
  5
   48F
  8
0
  6
CONTINUOUS
 62
     7
 10
-324.959297194871
 20
34.514739049606
 30
0.0
 40
3.00000002980232
  1
=          =
 50
89.9999999480344
 41
0.916666604744064
 72
     2
 11
-324.959297165481
 21
66.9647371755366
 31
0.0
  0
INSERT
  5
   490
  8
0
  6
CONTINUOUS
 62
     7
  2
*UDIM2328
 10
0.0
 20
0.0
 30
0.0
  0
INSERT
  5
   491
  8
0
  6
CONTINUOUS
 62
     7
  2
*UDIM2329
 10
0.0
 20
0.0
 30
0.0
  0
INSERT
  5
   492
  8
0
  6
CONTINUOUS
 62
     7
  2
*UDIM2330
 10
0.0
 20
0.0
 30
0.0
  0
TEXT
  5
   493
  8
0
  6
CONTINUOUS
 62
     7
 10
-323.82631712691
 20
49.5446552828956
 30
0.0
 40
3.00000002980232
  1
X
 50
359.999999948034
 41
0.916666604744064
 72
     2
 11
-321.62631725804
 21
49.5446552809114
 31
0.0
  0
INSERT
  5
   494
  8
0
  6
CONTINUOUS
 62
     7
  2
*UDIM2331
 10
0.0
 20
0.0
 30
0.0
  0
TEXT
  5
   495
  8
0
  6
CONTINUOUS
 62
     7
 10
-371.029959042238
 20
134.134504919441
 30
0.0
 40
3.00000002980232
  1
Y
 50
359.999999948034
 41
0.916666604744064
 72
     2
 11
-368.829959173369
 21
134.134504917457
 31
0.0
  0
TEXT
  5
   496
  8
0
  6
CONTINUOUS
 62
     7
 10
-432.349456746744
 20
48.6884218505933
 30
0.0
 40
3.00000002980232
  1
X
 50
359.999999948034
 41
0.916666604744064
 72
     2
 11
-430.149456877874
 21
48.688421848609
 31
0.0
  0
INSERT
  5
   497
  8
0
  6
CONTINUOUS
 62
     7
  2
*UDIM2332
 10
0.0
 20
0.0
 30
0.0
  0
LINE
  5
   498
  8
0
  6
CONTINUOUS
 62
   210
 10
-245.54825592041
 20
-70.8348121643066
 30
0.0
 11
-245.54825592041
 21
-83.0848007202149
 31
0.0
  0
LINE
  5
   499
  8
0
  6
CONTINUOUS
 62
   210
 10
-245.54825592041
 20
-53.3348121643066
 30
0.0
 11
-245.54825592041
 21
-65.8348121643066
 31
0.0
  0
LINE
  5
   49A
  8
0
  6
CONTINUOUS
 62
   210
 10
-245.54825592041
 20
-35.8348083496094
 30
0.0
 11
-245.54825592041
 21
-48.0848007202149
 31
0.0
  0
LINE
  5
   49B
  8
0
  6
CONTINUOUS
 62
   210
 10
-221.548233032227
 20
-85.8348484039307
 30
0.0
 11
-243.29825592041
 21
-85.8348484039307
 31
0.0
  0
LINE
  5
   49C
  8
0
  6
CONTINUOUS
 62
   210
 10
-240.048240662025
 20
-33.3348083493787
 30
0.0
 11
-243.298255920814
 21
-33.3348007199843
 31
0.0
  0
LINE
  5
   49D
  8
0
  6
CONTINUOUS
 62
   210
 10
-221.548233032227
 20
-33.3348159790039
 30
0.0
 11
-240.04825592041
 21
-33.3348159790039
 31
0.0
  0
LINE
  5
   49E
  8
0
  6
CONTINUOUS
 62
   210
 10
-221.548233032227
 20
-34.584846496582
 30
0.0
 11
-240.04825592041
 21
-34.584846496582
 31
0.0
  0
LINE
  5
   49F
  8
0
  6
CONTINUOUS
 62
   210
 10
-221.548233032227
 20
-49.959846496582
 30
0.0
 11
-240.04825592041
 21
-49.959846496582
 31
0.0
  0
LINE
  5
   4A0
  8
0
  6
CONTINUOUS
 62
   210
 10
-221.548233032227
 20
-51.709846496582
 30
0.0
 11
-240.04825592041
 21
-51.709846496582
 31
0.0
  0
LINE
  5
   4A1
  8
0
  6
CONTINUOUS
 62
   210
 10
-221.548233032227
 20
-67.459846496582
 30
0.0
 11
-240.04825592041
 21
-67.459846496582
 31
0.0
  0
LINE
  5
   4A2
  8
0
  6
CONTINUOUS
 62
   210
 10
-221.548233032227
 20
-69.209846496582
 30
0.0
 11
-240.04825592041
 21
-69.209846496582
 31
0.0
  0
LINE
  5
   4A3
  8
0
  6
CONTINUOUS
 62
   210
 10
-221.548233032227
 20
-84.584846496582
 30
0.0
 11
-240.04825592041
 21
-84.584846496582
 31
0.0
  0
LINE
  5
   4A4
  8
0
  6
CONTINUOUS
 62
   210
 10
-221.548233032227
 20
-33.3348159790039
 30
0.0
 11
-221.548233032227
 21
-36.9598083496094
 31
0.0
  0
LINE
  5
   4A5
  8
0
  6
CONTINUOUS
 62
   210
 10
-221.548233032227
 20
-47.2098083496094
 30
0.0
 11
-221.548233032227
 21
-54.4598159790039
 31
0.0
  0
LINE
  5
   4A6
  8
0
  6
CONTINUOUS
 62
   210
 10
-221.548233032227
 20
-64.7098159790039
 30
0.0
 11
-221.548233032227
 21
-71.9598159790039
 31
0.0
  0
LINE
  5
   4A7
  8
0
  6
CONTINUOUS
 62
   210
 10
-221.548233032227
 20
-82.2098159790039
 30
0.0
 11
-221.548233032227
 21
-85.8348484039307
 31
0.0
  0
LINE
  5
   4A8
  8
0
  6
CONTINUOUS
 62
   210
 10
-243.29825592041
 20
-85.3348484039307
 30
0.0
 11
-243.29825592041
 21
-85.8348484039307
 31
0.0
  0
LINE
  5
   4A9
  8
0
  6
CONTINUOUS
 62
   210
 10
-243.29825592041
 20
-65.8348121643066
 30
0.0
 11
-243.29825592041
 21
-70.8348121643066
 31
0.0
  0
LINE
  5
   4AA
  8
0
  6
CONTINUOUS
 62
   210
 10
-243.29825592041
 20
-52.084846496582
 30
0.0
 11
-243.29825592041
 21
-53.3348121643066
 31
0.0
  0
LINE
  5
   4AB
  8
0
  6
CONTINUOUS
 62
   210
 10
-243.29825592041
 20
-33.3348007202148
 30
0.0
 11
-243.29825592041
 21
-35.8348159790039
 31
0.0
  0
LINE
  5
   4AC
  8
0
  6
CONTINUOUS
 62
   210
 10
-240.04825592041
 20
-33.3348178863525
 30
0.0
 11
-240.04825592041
 21
-85.8348484039307
 31
0.0
  0
LINE
  5
   4AD
  8
0
  6
CONTINUOUS
 62
   210
 10
-227.048240661621
 20
-36.9598083496094
 30
0.0
 11
-230.798233032227
 21
-36.9598083496094
 31
0.0
  0
LINE
  5
   4AE
  8
0
  6
CONTINUOUS
 62
   210
 10
-227.048240661621
 20
-47.2098083496094
 30
0.0
 11
-230.798233032227
 21
-47.2098083496094
 31
0.0
  0
LINE
  5
   4AF
  8
0
  6
CONTINUOUS
 62
   210
 10
-230.798233032227
 20
-36.9598083496094
 30
0.0
 11
-230.798233032227
 21
-41.5650939941406
 31
0.0
  0
LINE
  5
   4B0
  8
0
  6
CONTINUOUS
 62
   210
 10
-230.798233032227
 20
-42.6045303344727
 30
0.0
 11
-230.798233032227
 21
-47.2098083496094
 31
0.0
  0
LINE
  5
   4B1
  8
0
  6
CONTINUOUS
 62
   210
 10
-227.048240661621
 20
-54.4598121643066
 30
0.0
 11
-230.798233032227
 21
-54.4598121643066
 31
0.0
  0
LINE
  5
   4B2
  8
0
  6
CONTINUOUS
 62
   210
 10
-227.048240661621
 20
-64.7098121643066
 30
0.0
 11
-230.798233032227
 21
-64.7098121643066
 31
0.0
  0
LINE
  5
   4B3
  8
0
  6
CONTINUOUS
 62
   210
 10
-230.798233032227
 20
-54.4598121643066
 30
0.0
 11
-230.798233032227
 21
-59.0650901794434
 31
0.0
  0
LINE
  5
   4B4
  8
0
  6
CONTINUOUS
 62
   210
 10
-230.798233032227
 20
-60.1045303344727
 30
0.0
 11
-230.798233032227
 21
-64.7098121643066
 31
0.0
  0
LINE
  5
   4B5
  8
0
  6
CONTINUOUS
 62
   210
 10
-227.048240661621
 20
-71.9598121643066
 30
0.0
 11
-230.798233032227
 21
-71.9598121643066
 31
0.0
  0
LINE
  5
   4B6
  8
0
  6
CONTINUOUS
 62
   210
 10
-227.048240661621
 20
-82.2098121643066
 30
0.0
 11
-230.798233032227
 21
-82.2098121643066
 31
0.0
  0
LINE
  5
   4B7
  8
0
  6
CONTINUOUS
 62
   210
 10
-230.798233032227
 20
-71.9598121643066
 30
0.0
 11
-230.798233032227
 21
-76.5650863647461
 31
0.0
  0
LINE
  5
   4B8
  8
0
  6
CONTINUOUS
 62
   210
 10
-230.798233032227
 20
-77.6045265197754
 30
0.0
 11
-230.798233032227
 21
-82.2098121643066
 31
0.0
  0
LINE
  5
   4B9
  8
0
  6
CONTINUOUS
 62
   210
 10
-246.29825592041
 20
-83.0848007202149
 30
0.0
 11
-246.29825592041
 21
-85.3348484039307
 31
0.0
  0
LINE
  5
   4BA
  8
0
  6
CONTINUOUS
 62
   210
 10
-246.29825592041
 20
-48.0848007202149
 30
0.0
 11
-246.29825592041
 21
-50.334846496582
 31
0.0
  0
LINE
  5
   4BB
  8
0
  6
CONTINUOUS
 62
   210
 10
-240.048248291016
 20
-52.084846496582
 30
0.0
 11
-243.29825592041
 21
-52.084846496582
 31
0.0
  0
LINE
  5
   4BC
  8
0
  6
CONTINUOUS
 62
   210
 10
-245.29825592041
 20
-50.1359329223633
 30
0.0
 11
-245.29825592041
 21
-50.334846496582
 31
0.0
  0
LINE
  5
   4BD
  8
0
  6
CONTINUOUS
 62
   210
 10
-227.048240661621
 20
-83.0848121643066
 30
0.0
 11
-230.798233032227
 21
-83.0848121643066
 31
0.0
  0
LINE
  5
   4BE
  8
0
  6
CONTINUOUS
 62
   210
 10
-227.048240661621
 20
-71.0848121643066
 30
0.0
 11
-230.798233032227
 21
-71.0848121643066
 31
0.0
  0
LINE
  5
   4BF
  8
0
  6
CONTINUOUS
 62
   210
 10
-230.798233032227
 20
-82.2098121643066
 30
0.0
 11
-230.798233032227
 21
-83.0848121643066
 31
0.0
  0
LINE
  5
   4C0
  8
0
  6
CONTINUOUS
 62
   210
 10
-230.798233032227
 20
-71.0848121643066
 30
0.0
 11
-230.798233032227
 21
-71.9598121643066
 31
0.0
  0
LINE
  5
   4C1
  8
0
  6
CONTINUOUS
 62
   210
 10
-230.798233032227
 20
-83.0848121643066
 30
0.0
 11
-238.548233032227
 21
-83.0848121643066
 31
0.0
  0
LINE
  5
   4C2
  8
0
  6
CONTINUOUS
 62
   210
 10
-230.798233032227
 20
-82.2098121643066
 30
0.0
 11
-238.548233032227
 21
-82.2098121643066
 31
0.0
  0
LINE
  5
   4C3
  8
0
  6
CONTINUOUS
 62
   210
 10
-230.798233032227
 20
-71.0848121643066
 30
0.0
 11
-234.048233032227
 21
-71.0848121643066
 31
0.0
  0
LINE
  5
   4C4
  8
0
  6
CONTINUOUS
 62
   210
 10
-230.798233032227
 20
-71.9598121643066
 30
0.0
 11
-234.048233032227
 21
-71.9598121643066
 31
0.0
  0
LINE
  5
   4C5
  8
0
  6
CONTINUOUS
 62
   210
 10
-227.048240661621
 20
-65.5848121643066
 30
0.0
 11
-230.798233032227
 21
-65.5848121643066
 31
0.0
  0
LINE
  5
   4C6
  8
0
  6
CONTINUOUS
 62
   210
 10
-227.048240661621
 20
-53.5848121643066
 30
0.0
 11
-230.798233032227
 21
-53.5848121643066
 31
0.0
  0
LINE
  5
   4C7
  8
0
  6
CONTINUOUS
 62
   210
 10
-230.798233032227
 20
-64.7098121643066
 30
0.0
 11
-230.798233032227
 21
-65.5848121643066
 31
0.0
  0
LINE
  5
   4C8
  8
0
  6
CONTINUOUS
 62
   210
 10
-230.798233032227
 20
-53.5848121643066
 30
0.0
 11
-230.798233032227
 21
-54.4598121643066
 31
0.0
  0
LINE
  5
   4C9
  8
0
  6
CONTINUOUS
 62
   210
 10
-230.798233032227
 20
-65.5848121643066
 30
0.0
 11
-234.048233032227
 21
-65.5848121643066
 31
0.0
  0
LINE
  5
   4CA
  8
0
  6
CONTINUOUS
 62
   210
 10
-230.798233032227
 20
-64.7098121643066
 30
0.0
 11
-234.048233032227
 21
-64.7098121643066
 31
0.0
  0
LINE
  5
   4CB
  8
0
  6
CONTINUOUS
 62
   210
 10
-230.798233032227
 20
-53.5848121643066
 30
0.0
 11
-234.048233032227
 21
-53.5848121643066
 31
0.0
  0
LINE
  5
   4CC
  8
0
  6
CONTINUOUS
 62
   210
 10
-230.798233032227
 20
-54.4598121643066
 30
0.0
 11
-234.048233032227
 21
-54.4598121643066
 31
0.0
  0
LINE
  5
   4CD
  8
0
  6
CONTINUOUS
 62
   210
 10
-227.048240661621
 20
-48.0848083496094
 30
0.0
 11
-230.798233032227
 21
-48.0848083496094
 31
0.0
  0
LINE
  5
   4CE
  8
0
  6
CONTINUOUS
 62
   210
 10
-227.048240661621
 20
-36.0848083496094
 30
0.0
 11
-230.798233032227
 21
-36.0848083496094
 31
0.0
  0
LINE
  5
   4CF
  8
0
  6
CONTINUOUS
 62
   210
 10
-230.798233032227
 20
-47.2098083496094
 30
0.0
 11
-230.798233032227
 21
-48.0848083496094
 31
0.0
  0
LINE
  5
   4D0
  8
0
  6
CONTINUOUS
 62
   210
 10
-230.798233032227
 20
-36.0848083496094
 30
0.0
 11
-230.798233032227
 21
-36.9598083496094
 31
0.0
  0
LINE
  5
   4D1
  8
0
  6
CONTINUOUS
 62
   210
 10
-230.798233032227
 20
-48.0848083496094
 30
0.0
 11
-234.048233032227
 21
-48.0848083496094
 31
0.0
  0
LINE
  5
   4D2
  8
0
  6
CONTINUOUS
 62
   210
 10
-230.798233032227
 20
-47.2098083496094
 30
0.0
 11
-234.048233032227
 21
-47.2098083496094
 31
0.0
  0
LINE
  5
   4D3
  8
0
  6
CONTINUOUS
 62
   210
 10
-230.798233032227
 20
-36.0848083496094
 30
0.0
 11
-238.548233032227
 21
-36.0848083496094
 31
0.0
  0
LINE
  5
   4D4
  8
0
  6
CONTINUOUS
 62
   210
 10
-230.798233032227
 20
-36.9598083496094
 30
0.0
 11
-238.548233032227
 21
-36.9598083496094
 31
0.0
  0
LINE
  5
   4D5
  8
0
  6
CONTINUOUS
 62
   210
 10
-230.798233032227
 20
-76.0848121643066
 30
0.0
 11
-232.048233032227
 21
-76.0848121643066
 31
0.0
  0
LINE
  5
   4D6
  8
0
  6
CONTINUOUS
 62
   210
 10
-230.798233032227
 20
-78.0848121643066
 30
0.0
 11
-232.048233032227
 21
-78.0848121643066
 31
0.0
  0
LINE
  5
   4D7
  8
0
  6
CONTINUOUS
 62
   210
 10
-232.048233032227
 20
-76.0848121643066
 30
0.0
 11
-232.048233032227
 21
-78.0848121643066
 31
0.0
  0
LINE
  5
   4D8
  8
0
  6
CONTINUOUS
 62
   210
 10
-230.798233032227
 20
-58.5848121643066
 30
0.0
 11
-232.048233032227
 21
-58.5848121643066
 31
0.0
  0
LINE
  5
   4D9
  8
0
  6
CONTINUOUS
 62
   210
 10
-230.798233032227
 20
-60.5848121643066
 30
0.0
 11
-232.048233032227
 21
-60.5848121643066
 31
0.0
  0
LINE
  5
   4DA
  8
0
  6
CONTINUOUS
 62
   210
 10
-232.048233032227
 20
-58.5848121643066
 30
0.0
 11
-232.048233032227
 21
-60.5848121643066
 31
0.0
  0
LINE
  5
   4DB
  8
0
  6
CONTINUOUS
 62
   210
 10
-230.798233032227
 20
-41.0848083496094
 30
0.0
 11
-232.048233032227
 21
-41.0848083496094
 31
0.0
  0
LINE
  5
   4DC
  8
0
  6
CONTINUOUS
 62
   210
 10
-230.798233032227
 20
-43.0848083496094
 30
0.0
 11
-232.048233032227
 21
-43.0848083496094
 31
0.0
  0
LINE
  5
   4DD
  8
0
  6
CONTINUOUS
 62
   210
 10
-232.048233032227
 20
-41.0848083496094
 30
0.0
 11
-232.048233032227
 21
-43.0848083496094
 31
0.0
  0
LINE
  5
   4DE
  8
0
  6
CONTINUOUS
 62
   210
 10
-221.548233032227
 20
-71.9598121643066
 30
0.0
 11
-221.548233032227
 21
-74.2757987976074
 31
0.0
  0
LINE
  5
   4DF
  8
0
  6
CONTINUOUS
 62
   210
 10
-221.548233032227
 20
-79.8938064575195
 30
0.0
 11
-221.548233032227
 21
-82.2098121643066
 31
0.0
  0
LINE
  5
   4E0
  8
0
  6
CONTINUOUS
 62
   210
 10
-221.548233032227
 20
-54.4598121643066
 30
0.0
 11
-221.548233032227
 21
-56.775806427002
 31
0.0
  0
LINE
  5
   4E1
  8
0
  6
CONTINUOUS
 62
   210
 10
-221.548233032227
 20
-62.3938140869141
 30
0.0
 11
-221.548233032227
 21
-64.7098121643066
 31
0.0
  0
LINE
  5
   4E2
  8
0
  6
CONTINUOUS
 62
   210
 10
-221.548233032227
 20
-36.9598083496094
 30
0.0
 11
-221.548233032227
 21
-39.2758102416992
 31
0.0
  0
LINE
  5
   4E3
  8
0
  6
CONTINUOUS
 62
   210
 10
-221.548233032227
 20
-44.8938217163086
 30
0.0
 11
-221.548233032227
 21
-47.2098083496094
 31
0.0
  0
LINE
  5
   4E4
  8
0
  6
CONTINUOUS
 62
   253
 10
-253.548263549805
 20
-71.0848007202148
 30
0.0
 11
-253.548263549805
 21
-83.0848007202149
 31
0.0
  0
LINE
  5
   4E5
  8
0
  6
CONTINUOUS
 62
   253
 10
-253.548263549805
 20
-36.0848007202148
 30
0.0
 11
-253.548263549805
 21
-48.0848007202149
 31
0.0
  0
LINE
  5
   4E6
  8
0
  6
CONTINUOUS
 62
   253
 10
-253.548240661621
 20
-54.0848083496094
 30
0.0
 11
-253.548240661621
 21
-65.0848083496094
 31
0.0
  0
LINE
  5
   4E7
  8
0
  6
CONTINUOUS
 62
     7
 10
-264.6982421875
 20
-71.5848007202148
 30
0.0
 11
-264.6982421875
 21
-82.5848007202148
 31
0.0
  0
LINE
  5
   4E8
  8
0
  6
CONTINUOUS
 62
     7
 10
-265.9482421875
 20
-81.8348007202149
 30
0.0
 11
-265.9482421875
 21
-82.5848007202148
 31
0.0
  0
LINE
  5
   4E9
  8
0
  6
CONTINUOUS
 62
     7
 10
-265.9482421875
 20
-72.4063987731934
 30
0.0
 11
-265.9482421875
 21
-81.7632102966309
 31
0.0
  0
LINE
  5
   4EA
  8
0
  6
CONTINUOUS
 62
     7
 10
-265.9482421875
 20
-71.5848007202148
 30
0.0
 11
-265.9482421875
 21
-72.3348007202148
 31
0.0
  0
LINE
  5
   4EB
  8
0
  6
CONTINUOUS
 62
     3
 10
-253.9482421875
 20
-81.8348007202149
 30
0.0
 11
-256.9482421875
 21
-81.8348007202149
 31
0.0
  0
LINE
  5
   4EC
  8
0
  6
CONTINUOUS
 62
     3
 10
-256.9482421875
 20
-72.3348007202148
 30
0.0
 11
-256.9482421875
 21
-81.8348007202149
 31
0.0
  0
LINE
  5
   4ED
  8
0
  6
CONTINUOUS
 62
     3
 10
-253.9482421875
 20
-72.3348007202148
 30
0.0
 11
-253.9482421875
 21
-73.5377044677734
 31
0.0
  0
LINE
  5
   4EE
  8
0
  6
CONTINUOUS
 62
     3
 10
-253.9482421875
 20
-75.9275970458984
 30
0.0
 11
-253.9482421875
 21
-78.242000579834
 31
0.0
  0
LINE
  5
   4EF
  8
0
  6
CONTINUOUS
 62
     3
 10
-253.9482421875
 20
-80.6318969726563
 30
0.0
 11
-253.9482421875
 21
-81.8348007202149
 31
0.0
  0
LINE
  5
   4F0
  8
0
  6
CONTINUOUS
 62
     3
 10
-257.4482421875
 20
-81.8348007202149
 30
0.0
 11
-260.4482421875
 21
-81.8348007202149
 31
0.0
  0
LINE
  5
   4F1
  8
0
  6
CONTINUOUS
 62
     3
 10
-257.4482421875
 20
-72.3348007202148
 30
0.0
 11
-257.4482421875
 21
-81.8348007202149
 31
0.0
  0
LINE
  5
   4F2
  8
0
  6
CONTINUOUS
 62
     3
 10
-265.9482421875
 20
-81.8348007202149
 30
0.0
 11
-268.9482421875
 21
-81.8348007202149
 31
0.0
  0
LINE
  5
   4F3
  8
0
  6
CONTINUOUS
 62
     3
 10
-265.9482421875
 20
-72.3348007202148
 30
0.0
 11
-268.9482421875
 21
-72.3348007202148
 31
0.0
  0
LINE
  5
   4F4
  8
0
  6
CONTINUOUS
 62
     3
 10
-265.9482421875
 20
-72.3348007202148
 30
0.0
 11
-265.9482421875
 21
-72.4063987731934
 31
0.0
  0
LINE
  5
   4F5
  8
0
  6
CONTINUOUS
 62
     3
 10
-265.9482421875
 20
-81.7632102966309
 30
0.0
 11
-265.9482421875
 21
-81.8348007202149
 31
0.0
  0
LINE
  5
   4F6
  8
0
  6
CONTINUOUS
 62
     3
 10
-268.9482421875
 20
-72.3348007202148
 30
0.0
 11
-268.9482421875
 21
-81.8348007202149
 31
0.0
  0
LINE
  5
   4F7
  8
0
  6
CONTINUOUS
 62
   130
 10
-230.798240661621
 20
-41.5650863647461
 30
0.0
 11
-230.798240661621
 21
-42.6045303344727
 31
0.0
  0
LINE
  5
   4F8
  8
0
  6
CONTINUOUS
 62
   130
 10
-229.798240661621
 20
-37.0848083496094
 30
0.0
 11
-229.798240661621
 21
-47.0848083496094
 31
0.0
  0
LINE
  5
   4F9
  8
0
  6
CONTINUOUS
 62
   130
 10
-230.798240661621
 20
-76.5650863647461
 30
0.0
 11
-230.798240661621
 21
-77.6045265197754
 31
0.0
  0
LINE
  5
   4FA
  8
0
  6
CONTINUOUS
 62
   130
 10
-229.798240661621
 20
-72.0848083496094
 30
0.0
 11
-229.798240661621
 21
-82.0848083496094
 31
0.0
  0
LINE
  5
   4FB
  8
0
  6
CONTINUOUS
 62
   130
 10
-230.798240661621
 20
-59.0650863647461
 30
0.0
 11
-230.798240661621
 21
-60.1045265197754
 31
0.0
  0
LINE
  5
   4FC
  8
0
  6
CONTINUOUS
 62
   130
 10
-229.798240661621
 20
-54.5848083496094
 30
0.0
 11
-229.798240661621
 21
-64.5848083496094
 31
0.0
  0
LINE
  5
   4FD
  8
0
  6
CONTINUOUS
 62
     7
 10
-253.9482421875
 20
-81.8348007202149
 30
0.0
 11
-253.9482421875
 21
-82.0848007202149
 31
0.0
  0
LINE
  5
   4FE
  8
0
  6
CONTINUOUS
 62
     7
 10
-253.9482421875
 20
-78.242000579834
 30
0.0
 11
-253.9482421875
 21
-80.6319122314453
 31
0.0
  0
LINE
  5
   4FF
  8
0
  6
CONTINUOUS
 62
     7
 10
-253.9482421875
 20
-73.537712097168
 30
0.0
 11
-253.9482421875
 21
-75.9275894165039
 31
0.0
  0
LINE
  5
   500
  8
0
  6
CONTINUOUS
 62
     7
 10
-253.9482421875
 20
-72.0848007202148
 30
0.0
 11
-253.9482421875
 21
-72.3348007202148
 31
0.0
  0
LINE
  5
   501
  8
0
  6
CONTINUOUS
 62
   212
 10
-270.298240661621
 20
-75.0848083496094
 30
0.0
 11
-270.298240661621
 21
-79.0848083496094
 31
0.0
  0
LINE
  5
   502
  8
0
  6
CONTINUOUS
 62
     2
 10
-245.29825592041
 20
-50.8348541259766
 30
0.0
 11
-246.04825592041
 21
-50.8348541259766
 31
0.0
  0
LINE
  5
   503
  8
0
  6
CONTINUOUS
 62
     2
 10
-245.29825592041
 20
-50.8348541259766
 30
0.0
 11
-245.29825592041
 21
-53.3348121643066
 31
0.0
  0
LINE
  5
   504
  8
0
  6
CONTINUOUS
 62
     2
 10
-245.29825592041
 20
-65.8348121643066
 30
0.0
 11
-245.29825592041
 21
-70.8348121643066
 31
0.0
  0
LINE
  5
   505
  8
0
  6
CONTINUOUS
 62
     2
 10
-246.04825592041
 20
-65.5848083496094
 30
0.0
 11
-246.04825592041
 21
-71.0848007202148
 31
0.0
  0
LINE
  5
   506
  8
0
  6
CONTINUOUS
 62
     2
 10
-246.04825592041
 20
-50.334846496582
 30
0.0
 11
-246.04825592041
 21
-53.5848083496094
 31
0.0
  0
LINE
  5
   507
  8
0
  6
CONTINUOUS
 62
   253
 10
-253.548263549805
 20
-65.0848083496094
 30
0.0
 11
-253.548263549805
 21
-65.5848083496094
 31
0.0
  0
LINE
  5
   508
  8
0
  6
CONTINUOUS
 62
   253
 10
-253.548263549805
 20
-53.5848083496094
 30
0.0
 11
-253.548263549805
 21
-54.0848083496094
 31
0.0
  0
LINE
  5
   509
  8
0
  6
CONTINUOUS
 62
     7
 10
-286.4482421875
 20
-54.0848159790039
 30
0.0
 11
-286.4482421875
 21
-54.8348159790039
 31
0.0
  0
LINE
  5
   50A
  8
0
  6
CONTINUOUS
 62
     7
 10
-286.4482421875
 20
-54.9064102172852
 30
0.0
 11
-286.4482421875
 21
-64.2632255554199
 31
0.0
  0
LINE
  5
   50B
  8
0
  6
CONTINUOUS
 62
     7
 10
-286.4482421875
 20
-64.3348159790039
 30
0.0
 11
-286.4482421875
 21
-65.0848159790039
 31
0.0
  0
LINE
  5
   50C
  8
0
  6
CONTINUOUS
 62
     7
 10
-287.6982421875
 20
-54.0848159790039
 30
0.0
 11
-287.6982421875
 21
-65.0848159790039
 31
0.0
  0
LINE
  5
   50D
  8
0
  6
CONTINUOUS
 62
     7
 10
-290.6982421875
 20
-54.0848159790039
 30
0.0
 11
-290.6982421875
 21
-65.0848159790039
 31
0.0
  0
LINE
  5
   50E
  8
0
  6
CONTINUOUS
 62
     7
 10
-291.9482421875
 20
-64.3348159790039
 30
0.0
 11
-291.9482421875
 21
-65.0848159790039
 31
0.0
  0
LINE
  5
   50F
  8
0
  6
CONTINUOUS
 62
     7
 10
-291.9482421875
 20
-54.9064102172852
 30
0.0
 11
-291.9482421875
 21
-64.2632255554199
 31
0.0
  0
LINE
  5
   510
  8
0
  6
CONTINUOUS
 62
     7
 10
-291.9482421875
 20
-54.0848159790039
 30
0.0
 11
-291.9482421875
 21
-54.8348159790039
 31
0.0
  0
LINE
  5
   511
  8
0
  6
CONTINUOUS
 62
     7
 10
-260.4482421875
 20
-71.5848007202148
 30
0.0
 11
-260.4482421875
 21
-82.5848007202148
 31
0.0
  0
LINE
  5
   512
  8
0
  6
CONTINUOUS
 62
     7
 10
-261.6982421875
 20
-82.0848007202149
 30
0.0
 11
-261.6982421875
 21
-82.5848007202148
 31
0.0
  0
LINE
  5
   513
  8
0
  6
CONTINUOUS
 62
     7
 10
-261.6982421875
 20
-71.5848007202148
 30
0.0
 11
-261.6982421875
 21
-72.0848007202148
 31
0.0
  0
LINE
  5
   514
  8
0
  6
CONTINUOUS
 62
     7
 10
-264.6982421875
 20
-71.5848007202148
 30
0.0
 11
-264.6982421875
 21
-72.0848007202148
 31
0.0
  0
LINE
  5
   515
  8
0
  6
CONTINUOUS
 62
     7
 10
-264.6982421875
 20
-82.0848007202149
 30
0.0
 11
-264.6982421875
 21
-82.5848007202148
 31
0.0
  0
LINE
  5
   516
  8
0
  6
CONTINUOUS
 62
     7
 10
-265.9482421875
 20
-82.0848007202149
 30
0.0
 11
-265.9482421875
 21
-82.5848007202148
 31
0.0
  0
LINE
  5
   517
  8
0
  6
CONTINUOUS
 62
     7
 10
-265.9482421875
 20
-71.5848007202148
 30
0.0
 11
-265.9482421875
 21
-72.0848007202148
 31
0.0
  0
LINE
  5
   518
  8
0
  6
CONTINUOUS
 62
     3
 10
-291.9482421875
 20
-64.3348159790039
 30
0.0
 11
-294.9482421875
 21
-64.3348159790039
 31
0.0
  0
LINE
  5
   519
  8
0
  6
CONTINUOUS
 62
     3
 10
-291.9482421875
 20
-54.8348159790039
 30
0.0
 11
-294.9482421875
 21
-54.8348159790039
 31
0.0
  0
LINE
  5
   51A
  8
0
  6
CONTINUOUS
 62
     3
 10
-291.9482421875
 20
-54.8348159790039
 30
0.0
 11
-291.9482421875
 21
-54.9064140319824
 31
0.0
  0
LINE
  5
   51B
  8
0
  6
CONTINUOUS
 62
     3
 10
-291.9482421875
 20
-64.2632255554199
 30
0.0
 11
-291.9482421875
 21
-64.3348159790039
 31
0.0
  0
LINE
  5
   51C
  8
0
  6
CONTINUOUS
 62
     3
 10
-294.9482421875
 20
-54.8348159790039
 30
0.0
 11
-294.9482421875
 21
-64.3348159790039
 31
0.0
  0
LINE
  5
   51D
  8
0
  6
CONTINUOUS
 62
     3
 10
-283.4482421875
 20
-64.3348159790039
 30
0.0
 11
-286.4482421875
 21
-64.3348159790039
 31
0.0
  0
LINE
  5
   51E
  8
0
  6
CONTINUOUS
 62
     3
 10
-283.4482421875
 20
-54.8348159790039
 30
0.0
 11
-286.4482421875
 21
-54.8348159790039
 31
0.0
  0
LINE
  5
   51F
  8
0
  6
CONTINUOUS
 62
     3
 10
-286.4482421875
 20
-64.2632255554199
 30
0.0
 11
-286.4482421875
 21
-64.3348159790039
 31
0.0
  0
LINE
  5
   520
  8
0
  6
CONTINUOUS
 62
     3
 10
-286.4482421875
 20
-54.8348159790039
 30
0.0
 11
-286.4482421875
 21
-54.9064140319824
 31
0.0
  0
LINE
  5
   521
  8
0
  6
CONTINUOUS
 62
     3
 10
-283.4482421875
 20
-54.8348159790039
 30
0.0
 11
-283.4482421875
 21
-64.3348159790039
 31
0.0
  0
LINE
  5
   522
  8
0
  6
CONTINUOUS
 62
     3
 10
-279.9482421875
 20
-64.3348159790039
 30
0.0
 11
-282.9482421875
 21
-64.3348159790039
 31
0.0
  0
LINE
  5
   523
  8
0
  6
CONTINUOUS
 62
     3
 10
-279.9482421875
 20
-54.8348159790039
 30
0.0
 11
-282.9482421875
 21
-54.8348159790039
 31
0.0
  0
LINE
  5
   524
  8
0
  6
CONTINUOUS
 62
     3
 10
-282.9482421875
 20
-54.8348159790039
 30
0.0
 11
-282.9482421875
 21
-64.3348159790039
 31
0.0
  0
LINE
  5
   525
  8
0
  6
CONTINUOUS
 62
     3
 10
-279.9482421875
 20
-54.8348159790039
 30
0.0
 11
-279.9482421875
 21
-56.0377159118652
 31
0.0
  0
LINE
  5
   526
  8
0
  6
CONTINUOUS
 62
     3
 10
-279.9482421875
 20
-58.4276161193848
 30
0.0
 11
-279.9482421875
 21
-60.742015838623
 31
0.0
  0
LINE
  5
   527
  8
0
  6
CONTINUOUS
 62
     3
 10
-279.9482421875
 20
-63.1319236755371
 30
0.0
 11
-279.9482421875
 21
-64.3348159790039
 31
0.0
  0
LINE
  5
   528
  8
0
  6
CONTINUOUS
 62
     7
 10
-279.548240661621
 20
-54.5848159790039
 30
0.0
 11
-279.548240661621
 21
-64.5848159790039
 31
0.0
  0
LINE
  5
   529
  8
0
  6
CONTINUOUS
 62
     7
 10
-279.9482421875
 20
-64.3348159790039
 30
0.0
 11
-279.9482421875
 21
-64.5848159790039
 31
0.0
  0
LINE
  5
   52A
  8
0
  6
CONTINUOUS
 62
     7
 10
-279.9482421875
 20
-60.742015838623
 30
0.0
 11
-279.9482421875
 21
-63.1319274902344
 31
0.0
  0
LINE
  5
   52B
  8
0
  6
CONTINUOUS
 62
     7
 10
-279.9482421875
 20
-56.0377197265625
 30
0.0
 11
-279.9482421875
 21
-58.4276161193848
 31
0.0
  0
LINE
  5
   52C
  8
0
  6
CONTINUOUS
 62
     7
 10
-279.9482421875
 20
-54.5848159790039
 30
0.0
 11
-279.9482421875
 21
-54.8348159790039
 31
0.0
  0
LINE
  5
   52D
  8
0
  6
CONTINUOUS
 62
   212
 10
-296.298240661621
 20
-57.5848159790039
 30
0.0
 11
-296.298240661621
 21
-61.5848159790039
 31
0.0
  0
LINE
  5
   52E
  8
0
  6
CONTINUOUS
 62
   210
 10
-240.04825592041
 20
-83.3348121643066
 30
0.0
 11
-245.54825592041
 21
-83.3348121643066
 31
0.0
  0
LINE
  5
   52F
  8
0
  6
CONTINUOUS
 62
   210
 10
-240.04825592041
 20
-70.8348121643066
 30
0.0
 11
-243.29825592041
 21
-70.8348121643066
 31
0.0
  0
LINE
  5
   530
  8
0
  6
CONTINUOUS
 62
   210
 10
-240.04825592041
 20
-65.8348121643066
 30
0.0
 11
-243.29825592041
 21
-65.8348121643066
 31
0.0
  0
LINE
  5
   531
  8
0
  6
CONTINUOUS
 62
   210
 10
-240.04825592041
 20
-53.3348121643066
 30
0.0
 11
-243.29825592041
 21
-53.3348121643066
 31
0.0
  0
LINE
  5
   532
  8
0
  6
CONTINUOUS
 62
   210
 10
-240.04825592041
 20
-48.3348083496094
 30
0.0
 11
-245.54825592041
 21
-48.3348083496094
 31
0.0
  0
LINE
  5
   533
  8
0
  6
CONTINUOUS
 62
   210
 10
-240.04825592041
 20
-35.8348083496094
 30
0.0
 11
-243.29825592041
 21
-35.8348083496094
 31
0.0
  0
LINE
  5
   534
  8
0
  6
CONTINUOUS
 62
   210
 10
-221.548233032227
 20
-35.084846496582
 30
0.0
 11
-240.04825592041
 21
-35.084846496582
 31
0.0
  0
LINE
  5
   535
  8
0
  6
CONTINUOUS
 62
   210
 10
-221.548233032227
 20
-84.084846496582
 30
0.0
 11
-240.04825592041
 21
-84.084846496582
 31
0.0
  0
LINE
  5
   536
  8
0
  6
CONTINUOUS
 62
   210
 10
-240.04825592041
 20
-85.3348484039307
 30
0.0
 11
-243.29825592041
 21
-85.3348484039307
 31
0.0
  0
LINE
  5
   537
  8
0
  6
CONTINUOUS
 62
   210
 10
-245.29825592041
 20
-50.334846496582
 30
0.0
 11
-246.29825592041
 21
-50.334846496582
 31
0.0
  0
LINE
  5
   538
  8
0
  6
CONTINUOUS
 62
   210
 10
-240.048248291016
 20
-50.1359329223633
 30
0.0
 11
-245.29825592041
 21
-50.1359329223633
 31
0.0
  0
LINE
  5
   539
  8
0
  6
CONTINUOUS
 62
   210
 10
-238.548233032227
 20
-82.2098121643066
 30
0.0
 11
-238.548233032227
 21
-83.0848121643066
 31
0.0
  0
LINE
  5
   53A
  8
0
  6
CONTINUOUS
 62
   210
 10
-234.048233032227
 20
-71.0848121643066
 30
0.0
 11
-234.048233032227
 21
-71.9598121643066
 31
0.0
  0
LINE
  5
   53B
  8
0
  6
CONTINUOUS
 62
   210
 10
-234.048233032227
 20
-64.7098121643066
 30
0.0
 11
-234.048233032227
 21
-65.5848121643066
 31
0.0
  0
LINE
  5
   53C
  8
0
  6
CONTINUOUS
 62
   210
 10
-234.048233032227
 20
-53.5848121643066
 30
0.0
 11
-234.048233032227
 21
-54.4598121643066
 31
0.0
  0
LINE
  5
   53D
  8
0
  6
CONTINUOUS
 62
   210
 10
-234.048233032227
 20
-47.2098083496094
 30
0.0
 11
-234.048233032227
 21
-48.0848083496094
 31
0.0
  0
LINE
  5
   53E
  8
0
  6
CONTINUOUS
 62
   210
 10
-238.548233032227
 20
-36.0848083496094
 30
0.0
 11
-238.548233032227
 21
-36.9598083496094
 31
0.0
  0
LINE
  5
   53F
  8
0
  6
CONTINUOUS
 62
   253
 10
-245.548263549805
 20
-71.0848007202148
 30
0.0
 11
-253.548263549805
 21
-71.0848007202148
 31
0.0
  0
LINE
  5
   540
  8
0
  6
CONTINUOUS
 62
   253
 10
-245.548263549805
 20
-83.0848007202149
 30
0.0
 11
-253.548263549805
 21
-83.0848007202149
 31
0.0
  0
LINE
  5
   541
  8
0
  6
CONTINUOUS
 62
   253
 10
-253.548263549805
 20
-72.0848007202148
 30
0.0
 11
-260.4482421875
 21
-72.0848007202148
 31
0.0
  0
LINE
  5
   542
  8
0
  6
CONTINUOUS
 62
   253
 10
-253.548263549805
 20
-82.0848007202149
 30
0.0
 11
-260.4482421875
 21
-82.0848007202149
 31
0.0
  0
LINE
  5
   543
  8
0
  6
CONTINUOUS
 62
   253
 10
-245.548263549805
 20
-36.0848007202148
 30
0.0
 11
-253.548263549805
 21
-36.0848007202148
 31
0.0
  0
LINE
  5
   544
  8
0
  6
CONTINUOUS
 62
   253
 10
-245.548263549805
 20
-48.0848007202149
 30
0.0
 11
-253.548263549805
 21
-48.0848007202149
 31
0.0
  0
LINE
  5
   545
  8
0
  6
CONTINUOUS
 62
   253
 10
-253.548263549805
 20
-37.0848007202148
 30
0.0
 11
-260.4482421875
 21
-37.0848007202148
 31
0.0
  0
LINE
  5
   546
  8
0
  6
CONTINUOUS
 62
   253
 10
-253.548263549805
 20
-47.0848007202148
 30
0.0
 11
-260.4482421875
 21
-47.0848007202148
 31
0.0
  0
LINE
  5
   547
  8
0
  6
CONTINUOUS
 62
   253
 10
-245.548240661621
 20
-53.5848083496094
 30
0.0
 11
-253.048240661621
 21
-53.5848083496094
 31
0.0
  0
LINE
  5
   548
  8
0
  6
CONTINUOUS
 62
   253
 10
-245.548240661621
 20
-65.5848083496094
 30
0.0
 11
-253.048240661621
 21
-65.5848083496094
 31
0.0
  0
LINE
  5
   549
  8
0
  6
CONTINUOUS
 62
   253
 10
-253.048239073581
 20
-53.5848092674256
 30
0.0
 11
-253.548239056467
 21
-54.0848092503113
 31
0.0
  0
LINE
  5
   54A
  8
0
  6
CONTINUOUS
 62
   253
 10
-253.048238090895
 20
-65.5848103798528
 30
0.0
 11
-253.54823807378
 21
-65.084810396967
 31
0.0
  0
LINE
  5
   54B
  8
0
  6
CONTINUOUS
 62
     7
 10
-264.6982421875
 20
-82.5848007202148
 30
0.0
 11
-265.9482421875
 21
-82.5848007202148
 31
0.0
  0
LINE
  5
   54C
  8
0
  6
CONTINUOUS
 62
     7
 10
-264.6982421875
 20
-71.5848007202148
 30
0.0
 11
-265.9482421875
 21
-71.5848007202148
 31
0.0
  0
LINE
  5
   54D
  8
0
  6
CONTINUOUS
 62
   130
 10
-229.798240661621
 20
-37.0848083496094
 30
0.0
 11
-230.798240661621
 21
-37.0848083496094
 31
0.0
  0
LINE
  5
   54E
  8
0
  6
CONTINUOUS
 62
   130
 10
-229.798240661621
 20
-47.0848083496094
 30
0.0
 11
-230.798240661621
 21
-47.0848083496094
 31
0.0
  0
LINE
  5
   54F
  8
0
  6
CONTINUOUS
 62
   130
 10
-229.798240661621
 20
-82.0848083496094
 30
0.0
 11
-230.798240661621
 21
-82.0848083496094
 31
0.0
  0
LINE
  5
   550
  8
0
  6
CONTINUOUS
 62
   130
 10
-229.798240661621
 20
-72.0848083496094
 30
0.0
 11
-230.798240661621
 21
-72.0848083496094
 31
0.0
  0
LINE
  5
   551
  8
0
  6
CONTINUOUS
 62
   130
 10
-229.798240661621
 20
-64.5848083496094
 30
0.0
 11
-230.798240661621
 21
-64.5848083496094
 31
0.0
  0
LINE
  5
   552
  8
0
  6
CONTINUOUS
 62
   130
 10
-229.798240661621
 20
-54.5848083496094
 30
0.0
 11
-230.798240661621
 21
-54.5848083496094
 31
0.0
  0
LINE
  5
   553
  8
0
  6
CONTINUOUS
 62
     7
 10
-253.548240661621
 20
-82.0848007202149
 30
0.0
 11
-253.9482421875
 21
-82.0848007202149
 31
0.0
  0
LINE
  5
   554
  8
0
  6
CONTINUOUS
 62
     7
 10
-253.548240661621
 20
-72.0848007202148
 30
0.0
 11
-253.9482421875
 21
-72.0848007202148
 31
0.0
  0
LINE
  5
   555
  8
0
  6
CONTINUOUS
 62
   212
 10
-269.298238630749
 20
-74.0848090513579
 30
0.0
 11
-270.298238596521
 21
-75.0848090171293
 31
0.0
  0
LINE
  5
   556
  8
0
  6
CONTINUOUS
 62
   212
 10
-269.298237648063
 20
-80.0848105959204
 30
0.0
 11
-270.298237613834
 21
-79.084810630149
 31
0.0
  0
LINE
  5
   557
  8
0
  6
CONTINUOUS
 62
   212
 10
-269.298240661621
 20
-76.1577606201172
 30
0.0
 11
-269.298240661621
 21
-77.0848083496094
 31
0.0
  0
LINE
  5
   558
  8
0
  6
CONTINUOUS
 62
   212
 10
-269.298240661621
 20
-75.3214530944824
 30
0.0
 11
-269.298240661621
 21
-76.1577606201172
 31
0.0
  0
LINE
  5
   559
  8
0
  6
CONTINUOUS
 62
   212
 10
-269.298240661621
 20
-74.6577606201172
 30
0.0
 11
-269.298240661621
 21
-75.3214530944824
 31
0.0
  0
LINE
  5
   55A
  8
0
  6
CONTINUOUS
 62
   212
 10
-269.298240661621
 20
-74.2316398620606
 30
0.0
 11
-269.298240661621
 21
-74.6577606201172
 31
0.0
  0
LINE
  5
   55B
  8
0
  6
CONTINUOUS
 62
   212
 10
-269.298240661621
 20
-74.0848083496094
 30
0.0
 11
-269.298240661621
 21
-74.2316398620606
 31
0.0
  0
LINE
  5
   55C
  8
0
  6
CONTINUOUS
 62
   212
 10
-268.9482421875
 20
-74.0848083496094
 30
0.0
 11
-269.298240661621
 21
-74.0848083496094
 31
0.0
  0
LINE
  5
   55D
  8
0
  6
CONTINUOUS
 62
   212
 10
-261.6982421875
 20
-74.0848083496094
 30
0.0
 11
-264.6982421875
 21
-74.0848083496094
 31
0.0
  0
LINE
  5
   55E
  8
0
  6
CONTINUOUS
 62
   212
 10
-256.9482421875
 20
-74.0848083496094
 30
0.0
 11
-257.4482421875
 21
-74.0848083496094
 31
0.0
  0
LINE
  5
   55F
  8
0
  6
CONTINUOUS
 62
   212
 10
-268.9482421875
 20
-80.0848083496094
 30
0.0
 11
-269.298240661621
 21
-80.0848083496094
 31
0.0
  0
LINE
  5
   560
  8
0
  6
CONTINUOUS
 62
   212
 10
-261.6982421875
 20
-80.0848083496094
 30
0.0
 11
-264.6982421875
 21
-80.0848083496094
 31
0.0
  0
LINE
  5
   561
  8
0
  6
CONTINUOUS
 62
   212
 10
-256.9482421875
 20
-80.0848083496094
 30
0.0
 11
-257.4482421875
 21
-80.0848083496094
 31
0.0
  0
LINE
  5
   562
  8
0
  6
CONTINUOUS
 62
   212
 10
-269.298240661621
 20
-79.9379806518555
 30
0.0
 11
-269.298240661621
 21
-80.0848083496094
 31
0.0
  0
LINE
  5
   563
  8
0
  6
CONTINUOUS
 62
   212
 10
-269.298240661621
 20
-79.5118598937988
 30
0.0
 11
-269.298240661621
 21
-79.9379806518555
 31
0.0
  0
LINE
  5
   564
  8
0
  6
CONTINUOUS
 62
   212
 10
-269.298240661621
 20
-78.8481674194336
 30
0.0
 11
-269.298240661621
 21
-79.5118598937988
 31
0.0
  0
LINE
  5
   565
  8
0
  6
CONTINUOUS
 62
   212
 10
-269.298240661621
 20
-78.0118598937988
 30
0.0
 11
-269.298240661621
 21
-78.8481674194336
 31
0.0
  0
LINE
  5
   566
  8
0
  6
CONTINUOUS
 62
   212
 10
-269.298240661621
 20
-77.0848083496094
 30
0.0
 11
-269.298240661621
 21
-78.0118598937988
 31
0.0
  0
LINE
  5
   567
  8
0
  6
CONTINUOUS
 62
   253
 10
-253.048240661621
 20
-53.5848083496094
 30
0.0
 11
-253.548263549805
 21
-53.5848083496094
 31
0.0
  0
LINE
  5
   568
  8
0
  6
CONTINUOUS
 62
   253
 10
-253.048240661621
 20
-65.5848083496094
 30
0.0
 11
-253.548263549805
 21
-65.5848083496094
 31
0.0
  0
LINE
  5
   569
  8
0
  6
CONTINUOUS
 62
   253
 10
-253.548240661621
 20
-54.5848083496094
 30
0.0
 11
-264.6982421875
 21
-54.5848083496094
 31
0.0
  0
LINE
  5
   56A
  8
0
  6
CONTINUOUS
 62
   253
 10
-253.548240661621
 20
-64.5848083496094
 30
0.0
 11
-279.048263549805
 21
-64.5848083496094
 31
0.0
  0
LINE
  5
   56B
  8
0
  6
CONTINUOUS
 62
   253
 10
-279.048265765347
 20
-54.5848079430757
 30
0.0
 11
-279.401819540758
 21
-54.7312579805928
 31
0.0
  0
LINE
  5
   56C
  8
0
  6
CONTINUOUS
 62
   253
 10
-279.40181525138
 20
-54.731259930099
 30
0.0
 11
-279.548261479656
 21
-55.0848098829109
 31
0.0
  0
LINE
  5
   56D
  8
0
  6
CONTINUOUS
 62
   253
 10
-279.048265949602
 20
-64.5848072764869
 30
0.0
 11
-279.401819721637
 21
-64.4383610482038
 31
0.0
  0
LINE
  5
   56E
  8
0
  6
CONTINUOUS
 62
   253
 10
-279.401818887976
 20
-64.4383606408693
 30
0.0
 11
-279.54826511626
 21
-64.0848068688347
 31
0.0
  0
LINE
  5
   56F
  8
0
  6
CONTINUOUS
 62
     7
 10
-286.4482421875
 20
-65.0848159790039
 30
0.0
 11
-287.6982421875
 21
-65.0848159790039
 31
0.0
  0
LINE
  5
   570
  8
0
  6
CONTINUOUS
 62
     7
 10
-286.4482421875
 20
-54.0848159790039
 30
0.0
 11
-287.6982421875
 21
-54.0848159790039
 31
0.0
  0
LINE
  5
   571
  8
0
  6
CONTINUOUS
 62
     7
 10
-290.6982421875
 20
-65.0848159790039
 30
0.0
 11
-291.9482421875
 21
-65.0848159790039
 31
0.0
  0
LINE
  5
   572
  8
0
  6
CONTINUOUS
 62
     7
 10
-290.6982421875
 20
-54.0848159790039
 30
0.0
 11
-291.9482421875
 21
-54.0848159790039
 31
0.0
  0
LINE
  5
   573
  8
0
  6
CONTINUOUS
 62
     7
 10
-260.4482421875
 20
-82.5848007202148
 30
0.0
 11
-261.6982421875
 21
-82.5848007202148
 31
0.0
  0
LINE
  5
   574
  8
0
  6
CONTINUOUS
 62
     7
 10
-260.4482421875
 20
-71.5848007202148
 30
0.0
 11
-261.6982421875
 21
-71.5848007202148
 31
0.0
  0
LINE
  5
   575
  8
0
  6
CONTINUOUS
 62
     7
 10
-264.6982421875
 20
-82.5848007202148
 30
0.0
 11
-265.9482421875
 21
-82.5848007202148
 31
0.0
  0
LINE
  5
   576
  8
0
  6
CONTINUOUS
 62
     7
 10
-264.6982421875
 20
-71.5848007202148
 30
0.0
 11
-265.9482421875
 21
-71.5848007202148
 31
0.0
  0
LINE
  5
   577
  8
0
  6
CONTINUOUS
 62
     3
 10
-291.9482421875
 20
-59.5848159790039
 30
0.0
 11
-294.9482421875
 21
-59.5848159790039
 31
0.0
  0
LINE
  5
   578
  8
0
  6
CONTINUOUS
 62
     3
 10
-283.4482421875
 20
-59.5848159790039
 30
0.0
 11
-286.4482421875
 21
-59.5848159790039
 31
0.0
  0
LINE
  5
   579
  8
0
  6
DASHDOT
 62
     7
 10
-216.540921185744
 20
-59.5848159790039
 30
0.0
 11
-300.539444818968
 21
-59.5848159790039
 31
0.0
  0
LINE
  5
   57A
  8
0
  6
CONTINUOUS
 62
     7
 10
-279.548240661621
 20
-64.5848159790039
 30
0.0
 11
-279.9482421875
 21
-64.5848159790039
 31
0.0
  0
LINE
  5
   57B
  8
0
  6
CONTINUOUS
 62
     7
 10
-279.548240661621
 20
-54.5848159790039
 30
0.0
 11
-279.9482421875
 21
-54.5848159790039
 31
0.0
  0
LINE
  5
   57C
  8
0
  6
CONTINUOUS
 62
   212
 10
-295.298236980606
 20
-62.5848184478003
 30
0.0
 11
-296.298236946378
 21
-61.5848184820288
 31
0.0
  0
LINE
  5
   57D
  8
0
  6
CONTINUOUS
 62
   212
 10
-295.298237963293
 20
-56.5848164582667
 30
0.0
 11
-296.298237929064
 21
-57.5848164240382
 31
0.0
  0
LINE
  5
   57E
  8
0
  6
CONTINUOUS
 62
   212
 10
-295.298240661621
 20
-62.43798828125
 30
0.0
 11
-295.298240661621
 21
-62.5848159790039
 31
0.0
  0
LINE
  5
   57F
  8
0
  6
CONTINUOUS
 62
   212
 10
-294.9482421875
 20
-62.5848159790039
 30
0.0
 11
-295.298240661621
 21
-62.5848159790039
 31
0.0
  0
LINE
  5
   580
  8
0
  6
CONTINUOUS
 62
   212
 10
-287.6982421875
 20
-62.5848159790039
 30
0.0
 11
-290.6982421875
 21
-62.5848159790039
 31
0.0
  0
LINE
  5
   581
  8
0
  6
CONTINUOUS
 62
   212
 10
-282.9482421875
 20
-62.5848159790039
 30
0.0
 11
-283.4482421875
 21
-62.5848159790039
 31
0.0
  0
LINE
  5
   582
  8
0
  6
CONTINUOUS
 62
   212
 10
-295.298240661621
 20
-62.0118675231934
 30
0.0
 11
-295.298240661621
 21
-62.43798828125
 31
0.0
  0
LINE
  5
   583
  8
0
  6
CONTINUOUS
 62
   212
 10
-295.298240661621
 20
-61.3481750488281
 30
0.0
 11
-295.298240661621
 21
-62.0118675231934
 31
0.0
  0
LINE
  5
   584
  8
0
  6
CONTINUOUS
 62
   212
 10
-295.298240661621
 20
-60.5118675231934
 30
0.0
 11
-295.298240661621
 21
-61.3481750488281
 31
0.0
  0
LINE
  5
   585
  8
0
  6
CONTINUOUS
 62
   212
 10
-295.298240661621
 20
-59.5848159790039
 30
0.0
 11
-295.298240661621
 21
-60.5118675231934
 31
0.0
  0
LINE
  5
   586
  8
0
  6
CONTINUOUS
 62
   212
 10
-295.298240661621
 20
-58.6577682495117
 30
0.0
 11
-295.298240661621
 21
-59.5848159790039
 31
0.0
  0
LINE
  5
   587
  8
0
  6
CONTINUOUS
 62
   212
 10
-295.298240661621
 20
-57.821460723877
 30
0.0
 11
-295.298240661621
 21
-58.6577682495117
 31
0.0
  0
LINE
  5
   588
  8
0
  6
CONTINUOUS
 62
   212
 10
-295.298240661621
 20
-57.1577682495117
 30
0.0
 11
-295.298240661621
 21
-57.821460723877
 31
0.0
  0
LINE
  5
   589
  8
0
  6
CONTINUOUS
 62
   212
 10
-295.298240661621
 20
-56.7316474914551
 30
0.0
 11
-295.298240661621
 21
-57.1577682495117
 31
0.0
  0
LINE
  5
   58A
  8
0
  6
CONTINUOUS
 62
   212
 10
-295.298240661621
 20
-56.5848159790039
 30
0.0
 11
-295.298240661621
 21
-56.7316474914551
 31
0.0
  0
LINE
  5
   58B
  8
0
  6
CONTINUOUS
 62
   212
 10
-294.9482421875
 20
-56.5848159790039
 30
0.0
 11
-295.298240661621
 21
-56.5848159790039
 31
0.0
  0
LINE
  5
   58C
  8
0
  6
CONTINUOUS
 62
   212
 10
-287.6982421875
 20
-56.5848159790039
 30
0.0
 11
-290.6982421875
 21
-56.5848159790039
 31
0.0
  0
LINE
  5
   58D
  8
0
  6
CONTINUOUS
 62
   212
 10
-282.9482421875
 20
-56.5848159790039
 30
0.0
 11
-283.4482421875
 21
-56.5848159790039
 31
0.0
  0
LINE
  5
   58E
  8
0
  6
CONTINUOUS
 62
     3
 10
-220.548233032227
 20
-31.0544281416205
 30
0.0
 11
-220.548233032227
 21
-89.100765885984
 31
0.0
  0
LINE
  5
   58F
  8
0
  6
CONTINUOUS
 62
   210
 10
-243.29825592041
 20
-65.8348121643066
 30
0.0
 11
-245.54825592041
 21
-65.8348121643066
 31
0.0
  0
LINE
  5
   590
  8
0
  6
CONTINUOUS
 62
   210
 10
-243.29825592041
 20
-70.8348121643066
 30
0.0
 11
-245.54825592041
 21
-70.8348121643066
 31
0.0
  0
LINE
  5
   591
  8
0
  6
CONTINUOUS
 62
   210
 10
-243.29825592041
 20
-53.3348121643066
 30
0.0
 11
-245.54825592041
 21
-53.3348121643066
 31
0.0
  0
LINE
  5
   592
  8
0
  6
CONTINUOUS
 62
   210
 10
-243.29825592041
 20
-52.084846496582
 30
0.0
 11
-245.29825592041
 21
-52.084846496582
 31
0.0
  0
LINE
  5
   593
  8
0
  6
CONTINUOUS
 62
   210
 10
-245.29825592041
 20
-50.334846496582
 30
0.0
 11
-245.29825592041
 21
-50.8348541259766
 31
0.0
  0
LINE
  5
   594
  8
0
  6
CONTINUOUS
 62
   210
 10
-245.54825592041
 20
-48.0848007202149
 30
0.0
 11
-245.54825592041
 21
-48.3348083496094
 31
0.0
  0
LINE
  5
   595
  8
0
  6
CONTINUOUS
 62
   210
 10
-243.29825592041
 20
-35.8348083496094
 30
0.0
 11
-245.54825592041
 21
-35.8348083496094
 31
0.0
  0
LINE
  5
   596
  8
0
  6
CONTINUOUS
 62
   210
 10
-245.54825592041
 20
-83.0848007202149
 30
0.0
 11
-245.54825592041
 21
-83.3348121643066
 31
0.0
  0
LINE
  5
   597
  8
0
  6
CONTINUOUS
 62
   210
 10
-243.29825592041
 20
-85.3348484039307
 30
0.0
 11
-246.29825592041
 21
-85.3348484039307
 31
0.0
  0
LINE
  5
   598
  8
0
  6
DASHDOT
 62
     7
 10
-216.016503368811
 20
-42.0848007202148
 30
0.0
 11
-301.242185139359
 21
-42.0848007202148
 31
0.0
  0
LINE
  5
   599
  8
0
  6
DASHDOT
 62
     7
 10
-216.016503368811
 20
-77.0848007202148
 30
0.0
 11
-301.242185139359
 21
-77.0848007202148
 31
0.0
  0
LINE
  5
   59A
  8
0
  6
CONTINUOUS
 62
   212
 10
-287.6982421875
 20
-57.0848083496094
 30
0.0
 11
-290.6982421875
 21
-57.0848083496094
 31
0.0
  0
LINE
  5
   59B
  8
0
  6
CONTINUOUS
 62
   212
 10
-287.6982421875
 20
-62.0848083496094
 30
0.0
 11
-290.6982421875
 21
-62.0848083496094
 31
0.0
  0
LINE
  5
   59C
  8
0
  6
CONTINUOUS
 62
   212
 10
-261.6982421875
 20
-74.5848083496094
 30
0.0
 11
-264.6982421875
 21
-74.5848083496094
 31
0.0
  0
LINE
  5
   59D
  8
0
  6
CONTINUOUS
 62
   212
 10
-261.6982421875
 20
-79.5848083496094
 30
0.0
 11
-264.6982421875
 21
-79.5848083496094
 31
0.0
  0
LINE
  5
   59E
  8
0
  6
CONTINUOUS
 62
     2
 10
-227.048240661621
 20
-64.2098159790039
 30
0.0
 11
-229.548240661621
 21
-64.2098159790039
 31
0.0
  0
LINE
  5
   59F
  8
0
  6
CONTINUOUS
 62
     2
 10
-227.048240661621
 20
-54.9598159790039
 30
0.0
 11
-229.548240661621
 21
-54.9598159790039
 31
0.0
  0
LINE
  5
   5A0
  8
0
  6
CONTINUOUS
 62
     2
 10
-229.548240661621
 20
-54.9598159790039
 30
0.0
 11
-229.548240661621
 21
-64.2098159790039
 31
0.0
  0
LINE
  5
   5A1
  8
0
  6
CONTINUOUS
 62
     2
 10
-222.048240661651
 20
-64.2098121642913
 30
0.0
 11
-227.048240661651
 21
-64.2098159789886
 31
0.0
  0
LINE
  5
   5A2
  8
0
  6
CONTINUOUS
 62
     2
 10
-222.048240661654
 20
-54.9598121642885
 30
0.0
 11
-227.048240661654
 21
-54.9598159789858
 31
0.0
  0
LINE
  5
   5A3
  8
0
  6
CONTINUOUS
 62
     2
 10
-227.048240661621
 20
-64.2098045349121
 30
0.0
 11
-227.048240661621
 21
-66.0848007202148
 31
0.0
  0
LINE
  5
   5A4
  8
0
  6
CONTINUOUS
 62
     2
 10
-227.048240661621
 20
-53.0848007202149
 30
0.0
 11
-227.048240661621
 21
-54.9598007202149
 31
0.0
  0
LINE
  5
   5A5
  8
0
  6
CONTINUOUS
 62
     2
 10
-221.548240661621
 20
-53.0848007202149
 30
0.0
 11
-221.548240661621
 21
-54.5848007202148
 31
0.0
  0
LINE
  5
   5A6
  8
0
  6
CONTINUOUS
 62
     2
 10
-221.548240661621
 20
-54.9598121643066
 30
0.0
 11
-221.548240661621
 21
-64.2098159790039
 31
0.0
  0
LINE
  5
   5A7
  8
0
  6
CONTINUOUS
 62
     2
 10
-221.548240661621
 20
-64.5848007202148
 30
0.0
 11
-221.548240661621
 21
-66.0848007202148
 31
0.0
  0
LINE
  5
   5A8
  8
0
  6
CONTINUOUS
 62
     2
 10
-221.548240661621
 20
-64.5848007202148
 30
0.0
 11
-222.048240661621
 21
-64.5848007202148
 31
0.0
  0
LINE
  5
   5A9
  8
0
  6
CONTINUOUS
 62
     2
 10
-221.548240661621
 20
-54.5848007202148
 30
0.0
 11
-222.048240661621
 21
-54.5848007202148
 31
0.0
  0
LINE
  5
   5AA
  8
0
  6
CONTINUOUS
 62
     2
 10
-221.548240661621
 20
-54.5848007202148
 30
0.0
 11
-221.548240661621
 21
-54.9598159790039
 31
0.0
  0
LINE
  5
   5AB
  8
0
  6
CONTINUOUS
 62
     2
 10
-221.548240661621
 20
-64.2098159790039
 30
0.0
 11
-221.548240661621
 21
-64.5848007202148
 31
0.0
  0
LINE
  5
   5AC
  8
0
  6
CONTINUOUS
 62
     2
 10
-222.048240661621
 20
-54.5848007202148
 30
0.0
 11
-222.048240661621
 21
-54.9598159790039
 31
0.0
  0
LINE
  5
   5AD
  8
0
  6
CONTINUOUS
 62
     2
 10
-222.048240661621
 20
-64.2098159790039
 30
0.0
 11
-222.048240661621
 21
-64.5848007202148
 31
0.0
  0
LINE
  5
   5AE
  8
0
  6
CONTINUOUS
 62
     2
 10
-225.182216644287
 20
-64.2098159790039
 30
0.0
 11
-225.182216644287
 21
-64.7097930908203
 31
0.0
  0
LINE
  5
   5AF
  8
0
  6
CONTINUOUS
 62
     2
 10
-225.182215160423
 20
-64.7097939537484
 30
0.0
 11
-227.048239130011
 21
-64.2098053799981
 31
0.0
  0
LINE
  5
   5B0
  8
0
  6
CONTINUOUS
 62
     2
 10
-225.182216644287
 20
-54.4597892761231
 30
0.0
 11
-225.182216644287
 21
-54.9597892761231
 31
0.0
  0
LINE
  5
   5B1
  8
0
  6
CONTINUOUS
 62
     2
 10
-225.182213268498
 20
-54.4597912417325
 30
0.0
 11
-227.04823723809
 21
-54.9598026604072
 31
0.0
  0
LINE
  5
   5B2
  8
0
  6
CONTINUOUS
 62
     2
 10
-227.048240661621
 20
-46.7098159790039
 30
0.0
 11
-229.548240661621
 21
-46.7098159790039
 31
0.0
  0
LINE
  5
   5B3
  8
0
  6
CONTINUOUS
 62
     2
 10
-227.048240661621
 20
-37.4598159790039
 30
0.0
 11
-229.548240661621
 21
-37.4598159790039
 31
0.0
  0
LINE
  5
   5B4
  8
0
  6
CONTINUOUS
 62
     2
 10
-229.548240661621
 20
-37.4598159790039
 30
0.0
 11
-229.548240661621
 21
-46.7098159790039
 31
0.0
  0
LINE
  5
   5B5
  8
0
  6
CONTINUOUS
 62
     2
 10
-222.048240661621
 20
-46.7098159790039
 30
0.0
 11
-227.048240661621
 21
-46.7098159790039
 31
0.0
  0
LINE
  5
   5B6
  8
0
  6
CONTINUOUS
 62
     2
 10
-222.048240661621
 20
-37.4598159790039
 30
0.0
 11
-227.048240661621
 21
-37.4598159790039
 31
0.0
  0
LINE
  5
   5B7
  8
0
  6
CONTINUOUS
 62
     2
 10
-227.048240661621
 20
-46.7098007202148
 30
0.0
 11
-227.048240661621
 21
-48.5848007202148
 31
0.0
  0
LINE
  5
   5B8
  8
0
  6
CONTINUOUS
 62
     2
 10
-227.048240661621
 20
-35.5848007202148
 30
0.0
 11
-227.048240661621
 21
-37.4598007202148
 31
0.0
  0
LINE
  5
   5B9
  8
0
  6
CONTINUOUS
 62
     2
 10
-221.548240661621
 20
-35.5848007202148
 30
0.0
 11
-221.548240661621
 21
-37.0848007202148
 31
0.0
  0
LINE
  5
   5BA
  8
0
  6
CONTINUOUS
 62
     2
 10
-221.548240661621
 20
-37.4598083496094
 30
0.0
 11
-221.548240661621
 21
-46.7098159790039
 31
0.0
  0
LINE
  5
   5BB
  8
0
  6
CONTINUOUS
 62
     2
 10
-221.548240661621
 20
-47.0848007202148
 30
0.0
 11
-221.548240661621
 21
-48.5848007202148
 31
0.0
  0
LINE
  5
   5BC
  8
0
  6
CONTINUOUS
 62
     2
 10
-221.548240661621
 20
-47.0848007202148
 30
0.0
 11
-222.048240661621
 21
-47.0848007202148
 31
0.0
  0
LINE
  5
   5BD
  8
0
  6
CONTINUOUS
 62
     2
 10
-221.548240661621
 20
-37.0848007202148
 30
0.0
 11
-222.048240661621
 21
-37.0848007202148
 31
0.0
  0
LINE
  5
   5BE
  8
0
  6
CONTINUOUS
 62
     2
 10
-221.548240661621
 20
-37.0848007202148
 30
0.0
 11
-221.548240661621
 21
-37.4598159790039
 31
0.0
  0
LINE
  5
   5BF
  8
0
  6
CONTINUOUS
 62
     2
 10
-221.548240661621
 20
-46.7098159790039
 30
0.0
 11
-221.548240661621
 21
-47.0848007202148
 31
0.0
  0
LINE
  5
   5C0
  8
0
  6
CONTINUOUS
 62
     2
 10
-222.048240661621
 20
-37.0848007202148
 30
0.0
 11
-222.048240661621
 21
-37.4598159790039
 31
0.0
  0
LINE
  5
   5C1
  8
0
  6
CONTINUOUS
 62
     2
 10
-222.048240661621
 20
-46.7098159790039
 30
0.0
 11
-222.048240661621
 21
-47.0848007202148
 31
0.0
  0
LINE
  5
   5C2
  8
0
  6
CONTINUOUS
 62
     2
 10
-225.182216644287
 20
-46.7098159790039
 30
0.0
 11
-225.182216644287
 21
-47.2097930908203
 31
0.0
  0
LINE
  5
   5C3
  8
0
  6
CONTINUOUS
 62
     2
 10
-225.1822172931
 20
-47.2097926291367
 30
0.0
 11
-227.048241262691
 21
-46.7098002390013
 31
0.0
  0
LINE
  5
   5C4
  8
0
  6
CONTINUOUS
 62
     2
 10
-225.182216644287
 20
-36.9597930908203
 30
0.0
 11
-225.182216644287
 21
-37.4597930908203
 31
0.0
  0
LINE
  5
   5C5
  8
0
  6
CONTINUOUS
 62
     2
 10
-225.182211902936
 20
-36.9597970138233
 30
0.0
 11
-227.04823587253
 21
-37.4598046160949
 31
0.0
  0
LINE
  5
   5C6
  8
0
  6
CONTINUOUS
 62
     2
 10
-227.048240661621
 20
-81.7098159790039
 30
0.0
 11
-229.548240661621
 21
-81.7098159790039
 31
0.0
  0
LINE
  5
   5C7
  8
0
  6
CONTINUOUS
 62
     2
 10
-227.048240661621
 20
-72.4598159790039
 30
0.0
 11
-229.548240661621
 21
-72.4598159790039
 31
0.0
  0
LINE
  5
   5C8
  8
0
  6
CONTINUOUS
 62
     2
 10
-229.548240661621
 20
-72.4598159790039
 30
0.0
 11
-229.548240661621
 21
-81.7098159790039
 31
0.0
  0
LINE
  5
   5C9
  8
0
  6
CONTINUOUS
 62
     2
 10
-222.048236846954
 20
-81.7098121642964
 30
0.0
 11
-227.048240661651
 21
-81.7098159789938
 31
0.0
  0
LINE
  5
   5CA
  8
0
  6
CONTINUOUS
 62
     2
 10
-222.048244476352
 20
-72.4598121642937
 30
0.0
 11
-227.048240661654
 21
-72.459815978991
 31
0.0
  0
LINE
  5
   5CB
  8
0
  6
CONTINUOUS
 62
     2
 10
-227.048240661621
 20
-81.7098045349121
 30
0.0
 11
-227.048240661621
 21
-83.5848007202148
 31
0.0
  0
LINE
  5
   5CC
  8
0
  6
CONTINUOUS
 62
     2
 10
-227.048240661621
 20
-70.5848007202149
 30
0.0
 11
-227.048240661621
 21
-72.4598007202149
 31
0.0
  0
LINE
  5
   5CD
  8
0
  6
CONTINUOUS
 62
     2
 10
-221.548240661621
 20
-70.5848007202149
 30
0.0
 11
-221.548240661621
 21
-72.0848007202148
 31
0.0
  0
LINE
  5
   5CE
  8
0
  6
CONTINUOUS
 62
     2
 10
-221.548240661621
 20
-72.4598121643066
 30
0.0
 11
-221.548240661621
 21
-81.7098159790039
 31
0.0
  0
LINE
  5
   5CF
  8
0
  6
CONTINUOUS
 62
     2
 10
-221.548240661621
 20
-82.0848007202149
 30
0.0
 11
-221.548240661621
 21
-83.5848007202148
 31
0.0
  0
LINE
  5
   5D0
  8
0
  6
CONTINUOUS
 62
     2
 10
-221.548240661621
 20
-82.0848007202149
 30
0.0
 11
-222.048240661621
 21
-82.0848007202149
 31
0.0
  0
LINE
  5
   5D1
  8
0
  6
CONTINUOUS
 62
     2
 10
-221.548240661621
 20
-72.0848007202148
 30
0.0
 11
-222.048240661621
 21
-72.0848007202148
 31
0.0
  0
LINE
  5
   5D2
  8
0
  6
CONTINUOUS
 62
     2
 10
-221.548240661621
 20
-72.0848007202148
 30
0.0
 11
-221.548240661621
 21
-72.4598159790039
 31
0.0
  0
LINE
  5
   5D3
  8
0
  6
CONTINUOUS
 62
     2
 10
-221.548240661621
 20
-81.7098159790039
 30
0.0
 11
-221.548240661621
 21
-82.0848007202149
 31
0.0
  0
LINE
  5
   5D4
  8
0
  6
CONTINUOUS
 62
     2
 10
-222.048240661621
 20
-72.0848007202148
 30
0.0
 11
-222.048240661621
 21
-72.4598159790039
 31
0.0
  0
LINE
  5
   5D5
  8
0
  6
CONTINUOUS
 62
     2
 10
-222.048240661621
 20
-81.7098159790039
 30
0.0
 11
-222.048240661621
 21
-82.0848007202149
 31
0.0
  0
LINE
  5
   5D6
  8
0
  6
CONTINUOUS
 62
     2
 10
-225.182216644287
 20
-81.7098159790039
 30
0.0
 11
-225.182216644287
 21
-82.2097930908203
 31
0.0
  0
LINE
  5
   5D7
  8
0
  6
CONTINUOUS
 62
     2
 10
-225.18221521468
 20
-82.2097937221771
 30
0.0
 11
-227.048239184268
 21
-81.7098051484268
 31
0.0
  0
LINE
  5
   5D8
  8
0
  6
CONTINUOUS
 62
     2
 10
-225.182216644287
 20
-71.9597892761231
 30
0.0
 11
-225.182216644287
 21
-72.4597892761231
 31
0.0
  0
LINE
  5
   5D9
  8
0
  6
CONTINUOUS
 62
     2
 10
-225.182213106086
 20
-71.9597905485814
 30
0.0
 11
-227.048237075678
 21
-72.4598019672561
 31
0.0
  0
LINE
  5
   5DA
  8
0
  6
CONTINUOUS
 62
     2
 10
-221.548240661621
 20
-66.0848007202148
 30
0.0
 11
-227.048240661621
 21
-66.0848007202148
 31
0.0
  0
LINE
  5
   5DB
  8
0
  6
CONTINUOUS
 62
     2
 10
-221.548240661621
 20
-53.0848007202149
 30
0.0
 11
-227.048240661621
 21
-53.0848007202149
 31
0.0
  0
LINE
  5
   5DC
  8
0
  6
CONTINUOUS
 62
     2
 10
-220.548233032227
 20
-53.3681346391739
 30
0.0
 11
-221.548240302756
 21
-53.3348010657261
 31
0.0
  0
LINE
  5
   5DD
  8
0
  6
CONTINUOUS
 62
     2
 10
-220.548233032227
 20
-65.8014673884478
 30
0.0
 11
-221.548240322307
 21
-65.8348009625474
 31
0.0
  0
LINE
  5
   5DE
  8
0
  6
CONTINUOUS
 62
     2
 10
-221.548240661621
 20
-48.5848007202148
 30
0.0
 11
-227.048240661621
 21
-48.5848007202148
 31
0.0
  0
LINE
  5
   5DF
  8
0
  6
CONTINUOUS
 62
     2
 10
-221.548240661621
 20
-35.5848007202148
 30
0.0
 11
-227.048240661621
 21
-35.5848007202148
 31
0.0
  0
LINE
  5
   5E0
  8
0
  6
CONTINUOUS
 62
     2
 10
-220.548233032227
 20
-35.8681347286551
 30
0.0
 11
-221.548240299776
 21
-35.8348011553065
 31
0.0
  0
LINE
  5
   5E1
  8
0
  6
CONTINUOUS
 62
     2
 10
-220.548233032227
 20
-48.301467477929
 30
0.0
 11
-221.548240325286
 21
-48.3348010521279
 31
0.0
  0
LINE
  5
   5E2
  8
0
  6
CONTINUOUS
 62
     2
 10
-221.548240661621
 20
-83.5848007202148
 30
0.0
 11
-227.048240661621
 21
-83.5848007202148
 31
0.0
  0
LINE
  5
   5E3
  8
0
  6
CONTINUOUS
 62
     2
 10
-221.548240661621
 20
-70.5848007202149
 30
0.0
 11
-227.048240661621
 21
-70.5848007202149
 31
0.0
  0
LINE
  5
   5E4
  8
0
  6
CONTINUOUS
 62
     2
 10
-220.548233032227
 20
-70.8681345496928
 30
0.0
 11
-221.548240305735
 21
-70.8348009761456
 31
0.0
  0
LINE
  5
   5E5
  8
0
  6
CONTINUOUS
 62
     2
 10
-220.548233032227
 20
-83.3014672989667
 30
0.0
 11
-221.548240319328
 21
-83.334800872967
 31
0.0
  0
LINE
  5
   5E6
  8
0
  6
CONTINUOUS
 62
     7
 10
-261.6982421875
 20
-71.5848007202148
 30
0.0
 11
-261.6982421875
 21
-82.5848007202148
 31
0.0
  0
LINE
  5
   5E7
  8
0
  6
CONTINUOUS
 62
     7
 10
-257.4482421875
 20
-72.3348007202148
 30
0.0
 11
-260.4482421875
 21
-72.3348007202148
 31
0.0
  0
LINE
  5
   5E8
  8
0
  6
CONTINUOUS
 62
     7
 10
-253.9482421875
 20
-72.3348007202148
 30
0.0
 11
-256.9482421875
 21
-72.3348007202148
 31
0.0
  0
LINE
  5
   5E9
  8
0
  6
CONTINUOUS
 62
   253
 10
-261.6982421875
 20
-72.0848007202148
 30
0.0
 11
-264.6982421875
 21
-72.0848007202148
 31
0.0
  0
LINE
  5
   5EA
  8
0
  6
CONTINUOUS
 62
   253
 10
-261.6982421875
 20
-82.0848007202149
 30
0.0
 11
-264.6982421875
 21
-82.0848007202149
 31
0.0
  0
LINE
  5
   5EB
  8
0
  6
CONTINUOUS
 62
     7
 10
-264.6982421875
 20
-36.584831237793
 30
0.0
 11
-264.6982421875
 21
-47.584831237793
 31
0.0
  0
LINE
  5
   5EC
  8
0
  6
CONTINUOUS
 62
     7
 10
-265.9482421875
 20
-37.406421661377
 30
0.0
 11
-265.9482421875
 21
-46.7632331848145
 31
0.0
  0
LINE
  5
   5ED
  8
0
  6
CONTINUOUS
 62
     3
 10
-256.9482421875
 20
-37.334831237793
 30
0.0
 11
-256.9482421875
 21
-46.834831237793
 31
0.0
  0
LINE
  5
   5EE
  8
0
  6
CONTINUOUS
 62
     3
 10
-253.9482421875
 20
-45.6319274902344
 30
0.0
 11
-253.9482421875
 21
-47.0848007202148
 31
0.0
  0
LINE
  5
   5EF
  8
0
  6
CONTINUOUS
 62
     3
 10
-253.9482421875
 20
-40.9276313781738
 30
0.0
 11
-253.9482421875
 21
-43.2420349121094
 31
0.0
  0
LINE
  5
   5F0
  8
0
  6
CONTINUOUS
 62
     3
 10
-257.4482421875
 20
-37.334831237793
 30
0.0
 11
-257.4482421875
 21
-46.834831237793
 31
0.0
  0
LINE
  5
   5F1
  8
0
  6
CONTINUOUS
 62
     3
 10
-268.9482421875
 20
-37.334831237793
 30
0.0
 11
-268.9482421875
 21
-46.834831237793
 31
0.0
  0
LINE
  5
   5F2
  8
0
  6
CONTINUOUS
 62
     7
 10
-253.9482421875
 20
-43.2420425415039
 30
0.0
 11
-253.9482421875
 21
-45.6319198608398
 31
0.0
  0
LINE
  5
   5F3
  8
0
  6
CONTINUOUS
 62
   212
 10
-270.298240661621
 20
-40.0848236083984
 30
0.0
 11
-270.298240661621
 21
-44.0848236083984
 31
0.0
  0
LINE
  5
   5F4
  8
0
  6
CONTINUOUS
 62
     7
 10
-260.4482421875
 20
-36.584831237793
 30
0.0
 11
-260.4482421875
 21
-47.584831237793
 31
0.0
  0
LINE
  5
   5F5
  8
0
  6
CONTINUOUS
 62
   212
 10
-269.298238630749
 20
-45.08482290665
 30
0.0
 11
-270.298238596521
 21
-44.0848229408785
 31
0.0
  0
LINE
  5
   5F6
  8
0
  6
CONTINUOUS
 62
   212
 10
-269.298240661621
 20
-42.0848236083984
 30
0.0
 11
-269.298240661621
 21
-43.0118713378906
 31
0.0
  0
LINE
  5
   5F7
  8
0
  6
CONTINUOUS
 62
   212
 10
-269.298240661621
 20
-43.0118713378906
 30
0.0
 11
-269.298240661621
 21
-43.8481788635254
 31
0.0
  0
LINE
  5
   5F8
  8
0
  6
CONTINUOUS
 62
   212
 10
-269.298240661621
 20
-43.8481788635254
 30
0.0
 11
-269.298240661621
 21
-44.5118713378906
 31
0.0
  0
LINE
  5
   5F9
  8
0
  6
CONTINUOUS
 62
   212
 10
-269.298240661621
 20
-44.5118713378906
 30
0.0
 11
-269.298240661621
 21
-44.9379920959473
 31
0.0
  0
LINE
  5
   5FA
  8
0
  6
CONTINUOUS
 62
   212
 10
-269.298240661621
 20
-44.9379920959473
 30
0.0
 11
-269.298240661621
 21
-45.0848236083984
 31
0.0
  0
LINE
  5
   5FB
  8
0
  6
CONTINUOUS
 62
   212
 10
-268.9482421875
 20
-45.0848236083984
 30
0.0
 11
-269.298240661621
 21
-45.0848236083984
 31
0.0
  0
LINE
  5
   5FC
  8
0
  6
CONTINUOUS
 62
   212
 10
-261.6982421875
 20
-45.0848236083984
 30
0.0
 11
-264.6982421875
 21
-45.0848236083984
 31
0.0
  0
LINE
  5
   5FD
  8
0
  6
CONTINUOUS
 62
   212
 10
-256.9482421875
 20
-45.0848236083984
 30
0.0
 11
-257.4482421875
 21
-45.0848236083984
 31
0.0
  0
LINE
  5
   5FE
  8
0
  6
CONTINUOUS
 62
   212
 10
-261.6982421875
 20
-44.5848236083984
 30
0.0
 11
-264.6982421875
 21
-44.5848236083984
 31
0.0
  0
LINE
  5
   5FF
  8
0
  6
CONTINUOUS
 62
     7
 10
-261.6982421875
 20
-36.584831237793
 30
0.0
 11
-261.6982421875
 21
-47.584831237793
 31
0.0
  0
LINE
  5
   600
  8
0
  6
CONTINUOUS
 62
     7
 10
-264.6982421875
 20
-36.584831237793
 30
0.0
 11
-264.6982421875
 21
-47.584831237793
 31
0.0
  0
LINE
  5
   601
  8
0
  6
CONTINUOUS
 62
     7
 10
-265.9482421875
 20
-36.584831237793
 30
0.0
 11
-265.9482421875
 21
-37.334831237793
 31
0.0
  0
LINE
  5
   602
  8
0
  6
CONTINUOUS
 62
     7
 10
-265.9482421875
 20
-37.406421661377
 30
0.0
 11
-265.9482421875
 21
-47.584831237793
 31
0.0
  0
LINE
  5
   603
  8
0
  6
CONTINUOUS
 62
     3
 10
-253.9482421875
 20
-37.334831237793
 30
0.0
 11
-256.9482421875
 21
-37.334831237793
 31
0.0
  0
LINE
  5
   604
  8
0
  6
CONTINUOUS
 62
     3
 10
-256.9482421875
 20
-37.334831237793
 30
0.0
 11
-256.9482421875
 21
-46.834831237793
 31
0.0
  0
LINE
  5
   605
  8
0
  6
CONTINUOUS
 62
     3
 10
-253.9482421875
 20
-40.9276313781738
 30
0.0
 11
-253.9482421875
 21
-43.2420349121094
 31
0.0
  0
LINE
  5
   606
  8
0
  6
CONTINUOUS
 62
     3
 10
-253.9482421875
 20
-37.334831237793
 30
0.0
 11
-253.9482421875
 21
-38.5377349853516
 31
0.0
  0
LINE
  5
   607
  8
0
  6
CONTINUOUS
 62
     3
 10
-257.4482421875
 20
-37.334831237793
 30
0.0
 11
-260.4482421875
 21
-37.334831237793
 31
0.0
  0
LINE
  5
   608
  8
0
  6
CONTINUOUS
 62
     3
 10
-257.4482421875
 20
-37.334831237793
 30
0.0
 11
-257.4482421875
 21
-46.834831237793
 31
0.0
  0
LINE
  5
   609
  8
0
  6
CONTINUOUS
 62
     3
 10
-265.9482421875
 20
-37.334831237793
 30
0.0
 11
-268.9482421875
 21
-37.334831237793
 31
0.0
  0
LINE
  5
   60A
  8
0
  6
CONTINUOUS
 62
     3
 10
-265.9482421875
 20
-37.334831237793
 30
0.0
 11
-265.9482421875
 21
-37.406421661377
 31
0.0
  0
LINE
  5
   60B
  8
0
  6
CONTINUOUS
 62
     3
 10
-268.9482421875
 20
-37.334831237793
 30
0.0
 11
-268.9482421875
 21
-46.834831237793
 31
0.0
  0
LINE
  5
   60C
  8
0
  6
CONTINUOUS
 62
     7
 10
-253.9482421875
 20
-37.084831237793
 30
0.0
 11
-253.9482421875
 21
-37.334831237793
 31
0.0
  0
LINE
  5
   60D
  8
0
  6
CONTINUOUS
 62
     7
 10
-253.9482421875
 20
-38.5377197265625
 30
0.0
 11
-253.9482421875
 21
-40.9276313781738
 31
0.0
  0
LINE
  5
   60E
  8
0
  6
CONTINUOUS
 62
   212
 10
-270.298240661621
 20
-40.0848236083984
 30
0.0
 11
-270.298240661621
 21
-44.0848236083984
 31
0.0
  0
LINE
  5
   60F
  8
0
  6
CONTINUOUS
 62
     7
 10
-260.4482421875
 20
-36.584831237793
 30
0.0
 11
-260.4482421875
 21
-47.584831237793
 31
0.0
  0
LINE
  5
   610
  8
0
  6
CONTINUOUS
 62
   212
 10
-269.298237648063
 20
-39.0848213620874
 30
0.0
 11
-270.298237613834
 21
-40.0848213278588
 31
0.0
  0
LINE
  5
   611
  8
0
  6
CONTINUOUS
 62
   212
 10
-268.9482421875
 20
-39.0848236083984
 30
0.0
 11
-269.298240661621
 21
-39.0848236083984
 31
0.0
  0
LINE
  5
   612
  8
0
  6
CONTINUOUS
 62
   212
 10
-261.6982421875
 20
-39.0848236083984
 30
0.0
 11
-264.6982421875
 21
-39.0848236083984
 31
0.0
  0
LINE
  5
   613
  8
0
  6
CONTINUOUS
 62
   212
 10
-256.9482421875
 20
-39.0848236083984
 30
0.0
 11
-257.4482421875
 21
-39.0848236083984
 31
0.0
  0
LINE
  5
   614
  8
0
  6
CONTINUOUS
 62
   212
 10
-269.298240661621
 20
-39.0848236083984
 30
0.0
 11
-269.298240661621
 21
-39.2316513061523
 31
0.0
  0
LINE
  5
   615
  8
0
  6
CONTINUOUS
 62
   212
 10
-269.298240661621
 20
-39.2316513061523
 30
0.0
 11
-269.298240661621
 21
-39.657772064209
 31
0.0
  0
LINE
  5
   616
  8
0
  6
CONTINUOUS
 62
   212
 10
-269.298240661621
 20
-39.657772064209
 30
0.0
 11
-269.298240661621
 21
-40.3214645385742
 31
0.0
  0
LINE
  5
   617
  8
0
  6
CONTINUOUS
 62
   212
 10
-269.298240661621
 20
-40.3214645385742
 30
0.0
 11
-269.298240661621
 21
-41.157772064209
 31
0.0
  0
LINE
  5
   618
  8
0
  6
CONTINUOUS
 62
   212
 10
-269.298240661621
 20
-41.157772064209
 30
0.0
 11
-269.298240661621
 21
-42.0848236083984
 31
0.0
  0
LINE
  5
   619
  8
0
  6
CONTINUOUS
 62
   212
 10
-261.6982421875
 20
-39.5848236083984
 30
0.0
 11
-264.6982421875
 21
-39.5848236083984
 31
0.0
  0
LINE
  5
   61A
  8
0
  6
CONTINUOUS
 62
     7
 10
-261.6982421875
 20
-36.584831237793
 30
0.0
 11
-261.6982421875
 21
-47.584831237793
 31
0.0
  0
LINE
  5
   61B
  8
0
  6
CONTINUOUS
 62
     7
 10
-257.4482421875
 20
-46.834831237793
 30
0.0
 11
-260.4482421875
 21
-46.834831237793
 31
0.0
  0
LINE
  5
   61C
  8
0
  6
CONTINUOUS
 62
     7
 10
-253.9482421875
 20
-46.834831237793
 30
0.0
 11
-256.9482421875
 21
-46.834831237793
 31
0.0
  0
LINE
  5
   61D
  8
0
  6
CONTINUOUS
 62
     7
 10
-260.4482421875
 20
-47.584831237793
 30
0.0
 11
-261.6982421875
 21
-47.584831237793
 31
0.0
  0
LINE
  5
   61E
  8
0
  6
CONTINUOUS
 62
     7
 10
-264.6982421875
 20
-47.584831237793
 30
0.0
 11
-265.9482421875
 21
-47.584831237793
 31
0.0
  0
LINE
  5
   61F
  8
0
  6
CONTINUOUS
 62
     7
 10
-264.6982421875
 20
-36.584831237793
 30
0.0
 11
-265.9482421875
 21
-36.584831237793
 31
0.0
  0
LINE
  5
   620
  8
0
  6
CONTINUOUS
 62
     7
 10
-260.4482421875
 20
-36.584831237793
 30
0.0
 11
-261.6982421875
 21
-36.584831237793
 31
0.0
  0
LINE
  5
   621
  8
0
  6
CONTINUOUS
 62
     7
 10
-265.9482421875
 20
-46.834831237793
 30
0.0
 11
-268.9482421875
 21
-46.834831237793
 31
0.0
  0
LINE
  5
   622
  8
0
  6
CONTINUOUS
 62
   253
 10
-261.6982421875
 20
-37.0848007202148
 30
0.0
 11
-264.6982421875
 21
-37.0848007202148
 31
0.0
  0
LINE
  5
   623
  8
0
  6
CONTINUOUS
 62
   253
 10
-261.6982421875
 20
-47.0848007202148
 30
0.0
 11
-264.6982421875
 21
-47.0848007202148
 31
0.0
  0
LINE
  5
   624
  8
0
  6
CONTINUOUS
 62
   253
 10
-264.6982421875
 20
-54.5848083496094
 30
0.0
 11
-279.048263549805
 21
-54.5848083496094
 31
0.0
  0
INSERT
  5
   625
  8
0
  6
CONTINUOUS
 62
     7
  2
*UDIM2333
 10
0.0
 20
0.0
 30
0.0
  0
TEXT
  5
   626
  8
0
  6
CONTINUOUS
 62
     7
 10
-318.576096346703
 20
-58.2424403039543
 30
0.0
 40
3.00000002980232
  1
Y
 50
359.999999896069
 41
0.916666604744064
 72
     2
 11
-316.376096477834
 21
-58.2424403079339
 31
0.0
  0
TEXT
  5
   627
  8
0
  6
CONTINUOUS
 62
     7
 10
-213.751564791528
 20
-58.2863169519035
 30
0.0
 40
3.00000002980232
  1
Y
 50
359.999999896069
 41
0.916666604744064
 72
     2
 11
-211.551564922658
 21
-58.2863169558832
 31
0.0
  0
INSERT
  5
   628
  8
0
  6
CONTINUOUS
 62
     7
  2
*UDIM2334
 10
0.0
 20
0.0
 30
0.0
  0
INSERT
  5
   629
  8
0
  6
CONTINUOUS
 62
     7
  2
*UDIM2335
 10
0.0
 20
0.0
 30
0.0
  0
LINE
  5
   62A
  8
0
  6
CONTINUOUS
 62
     7
 10
-102.369682312012
 20
70.5880889892578
 30
0.0
 11
-74.3696823120117
 21
70.5880889892578
 31
0.0
  0
LINE
  5
   62B
  8
0
  6
CONTINUOUS
 62
     7
 10
-102.369682312012
 20
98.5880889892578
 30
0.0
 11
-74.3696823120117
 21
98.5880889892578
 31
0.0
  0
LINE
  5
   62C
  8
0
  6
CONTINUOUS
 62
     7
 10
-102.369682312012
 20
98.5880889892578
 30
0.0
 11
-102.369682312012
 21
70.5880889892578
 31
0.0
  0
LINE
  5
   62D
  8
0
  6
CONTINUOUS
 62
     7
 10
-74.3696823120117
 20
98.5880889892578
 30
0.0
 11
-74.3696823120117
 21
70.5880889892578
 31
0.0
  0
LINE
  5
   62E
  8
0
  6
DASHDOT
 62
     7
 10
-88.3696823120117
 20
117.059556658011
 30
0.0
 11
-88.3696823120117
 21
60.2163358775145
 31
0.0
  0
CIRCLE
  5
   62F
  8
0
  6
CONTINUOUS
 62
     7
 10
-98.3696823120117
 20
102.338088989258
 30
0.0
 40
0.875
  0
CIRCLE
  5
   630
  8
0
  6
CONTINUOUS
 62
     7
 10
-78.3696823120117
 20
102.338088989258
 30
0.0
 40
0.875
  0
CIRCLE
  5
   631
  8
0
  6
CONTINUOUS
 62
     7
 10
-78.3696823120117
 20
66.8380889892578
 30
0.0
 40
0.875
  0
CIRCLE
  5
   632
  8
0
  6
CONTINUOUS
 62
     7
 10
-98.3696823120117
 20
66.8380889892578
 30
0.0
 40
0.875
  0
LINE
  5
   633
  8
0
  6
CONTINUOUS
 62
     3
 10
-106.334177981426
 20
104.687889286549
 30
0.0
 11
-70.5308087114407
 21
104.687889286549
 31
0.0
  0
LINE
  5
   634
  8
0
  6
CONTINUOUS
 62
     3
 10
-106.334177981426
 20
63.4826081617938
 30
0.0
 11
-70.5308087114407
 21
63.4826081617938
 31
0.0
  0
LINE
  5
   635
  8
0
  6
CONTINUOUS
 62
     3
 10
-70.5308087114407
 20
104.687889286549
 30
0.0
 11
-70.5308087114407
 21
63.4826081617938
 31
0.0
  0
LINE
  5
   636
  8
0
  6
CONTINUOUS
 62
     3
 10
-106.334177981426
 20
104.687889286549
 30
0.0
 11
-106.334177981426
 21
63.4826081617938
 31
0.0
  0
LINE
  5
   637
  8
0
  6
DASHDOT
 62
     7
 10
-78.3696823120117
 20
103.963088989258
 30
0.0
 11
-78.3696823120117
 21
100.713088989258
 31
0.0
  0
LINE
  5
   638
  8
0
  6
DASHDOT
 62
     7
 10
-79.9946823120117
 20
102.338088989258
 30
0.0
 11
-76.7446823120117
 21
102.338088989258
 31
0.0
  0
LINE
  5
   639
  8
0
  6
DASHDOT
 62
     7
 10
-98.3696823120117
 20
103.963088989258
 30
0.0
 11
-98.3696823120117
 21
100.713088989258
 31
0.0
  0
LINE
  5
   63A
  8
0
  6
DASHDOT
 62
     7
 10
-99.9946823120117
 20
102.338088989258
 30
0.0
 11
-96.7446823120117
 21
102.338088989258
 31
0.0
  0
LINE
  5
   63B
  8
0
  6
DASHDOT
 62
     7
 10
-98.3696823120117
 20
68.4630889892578
 30
0.0
 11
-98.3696823120117
 21
65.2130889892578
 31
0.0
  0
LINE
  5
   63C
  8
0
  6
DASHDOT
 62
     7
 10
-99.9946823120117
 20
66.8380889892578
 30
0.0
 11
-96.7446823120117
 21
66.8380889892578
 31
0.0
  0
LINE
  5
   63D
  8
0
  6
DASHDOT
 62
     7
 10
-78.3696823120117
 20
68.4630889892578
 30
0.0
 11
-78.3696823120117
 21
65.2130889892578
 31
0.0
  0
LINE
  5
   63E
  8
0
  6
DASHDOT
 62
     7
 10
-79.9946823120117
 20
66.8380889892578
 30
0.0
 11
-76.7446823120117
 21
66.8380889892578
 31
0.0
  0
CIRCLE
  5
   63F
  8
0
  6
CONTINUOUS
 62
     7
 10
-104.701045501479
 20
103.366338235455
 30
0.0
 40
0.0625
  0
LINE
  5
   640
  8
0
  6
DASHDOT
 62
     7
 10
-112.408608118022
 20
84.5880889892578
 30
0.0
 11
-62.3724359791071
 21
84.5880889892578
 31
0.0
  0
TEXT
  5
   641
  8
0
  6
CONTINUOUS
 62
     1
 10
-203.826689094041
 20
-118.017211930408
 30
0.0
 40
2.00000008940697
  1
M 3076 95-01-16
 50
359.999999844103
 41
0.749999861419206
 72
     1
 11
-192.726690649986
 21
-117.017211915851
 31
0.0
 73
     2
  0
TEXT
  5
   642
  8
0
  6
CONTINUOUS
 62
     1
 10
-216.717979421943
 20
-103.530700566566
 30
0.0
 40
2.00000008940697
  1
93-04-05 FERRARI M.
 50
359.999999844103
 41
0.749999861419206
 72
     2
 11
-188.517983379692
 21
-103.530700643154
 31
0.0
  0
TEXT
  5
   643
  8
0
  6
CONTINUOUS
 62
     7
 10
-96.0064096973368
 20
107.729093200655
 30
0.0
 40
3.00000002980232
  1
=    =
 50
359.999999844103
 41
0.916666604744064
 72
     2
 11
-80.0564106207121
 21
107.729093157337
 31
0.0
  0
TEXT
  5
   644
  8
0
  6
CONTINUOUS
 62
     7
 10
-98.5080908667076
 20
114.43369252478
 30
0.0
 40
3.00000002980232
  1
=     =
 50
359.999999844103
 41
0.916666604744064
 72
     2
 11
-79.8080919485319
 21
114.433692473993
 31
0.0
  0
TEXT
  5
   645
  8
0
  6
CONTINUOUS
 62
     7
 10
-120.603119787352
 20
74.6974204231352
 30
0.0
 40
3.00000002980232
  1
=     =
 50
449.999999844103
 41
0.916666604744064
 72
     2
 11
-120.603119736588
 21
93.3974193413109
 31
0.0
  0
TEXT
  5
   646
  8
0
  6
CONTINUOUS
 62
     7
 10
-111.167015966551
 20
75.0698979545683
 30
0.0
 40
3.00000002980232
  1
=     =
 50
449.999999844103
 41
0.916666604744064
 72
     2
 11
-111.167015915787
 21
93.769896872744
 31
0.0
  0
INSERT
  5
   647
  8
0
  6
CONTINUOUS
 62
     7
  2
*UDIM2336
 10
0.0
 20
0.0
 30
0.0
  0
INSERT
  5
   648
  8
0
  6
CONTINUOUS
 62
     7
  2
*UDIM2337
 10
0.0
 20
0.0
 30
0.0
  0
INSERT
  5
   649
  8
0
  6
CONTINUOUS
 62
     7
  2
*UDIM2338
 10
0.0
 20
0.0
 30
0.0
  0
INSERT
  5
   64A
  8
0
  6
CONTINUOUS
 62
     7
  2
*UDIM2339
 10
0.0
 20
0.0
 30
0.0
  0
INSERT
  5
   64B
  8
0
  6
CONTINUOUS
 62
     7
  2
*UDIM2340
 10
0.0
 20
0.0
 30
0.0
  0
TEXT
  5
   64C
  8
0
  6
CONTINUOUS
 62
     7
 10
-88.8584185939062
 20
43.5684317851117
 30
0.0
 40
3.00000002980232
  1
Y
 50
359.999999844103
 41
0.916666604744064
 72
     2
 11
-86.6584187250364
 21
43.5684317791368
 31
0.0
  0
TEXT
  5
   64D
  8
0
  6
CONTINUOUS
 62
     7
 10
-89.612173686527
 20
125.602115561967
 30
0.0
 40
3.00000002980232
  1
Y
 50
359.999999844103
 41
0.916666604744064
 72
     2
 11
-87.4121738176573
 21
125.602115555992
 31
0.0
  0
TEXT
  5
   64E
  8
0
  6
CONTINUOUS
 62
     7
 10
-60.7768629889715
 20
83.269724419122
 30
0.0
 40
3.00000002980232
  1
X
 50
359.999999844103
 41
0.916666604744064
 72
     2
 11
-58.5768631201017
 21
83.2697244131471
 31
0.0
  0
TEXT
  5
   64F
  8
0
  6
CONTINUOUS
 62
     7
 10
-132.576217542194
 20
83.6430786156705
 30
0.0
 40
3.00000002980232
  1
X
 50
359.999999844103
 41
0.916666604744064
 72
     2
 11
-130.376217673324
 21
83.6430786096956
 31
0.0
  0
TEXT
  5
   650
  8
0
  6
CONTINUOUS
 62
     1
 10
-108.943115215957
 20
-129.251815705688
 30
0.0
 40
4.00000017881393
  1
601812/241
 50
359.999999844103
 41
0.937499973922969
 72
     2
 11
-72.1931146161853
 21
-129.251815805497
 31
0.0
  0
TEXT
  5
   651
  8
0
  6
CONTINUOUS
 62
     1
 10
-97.8574218611865
 20
-120.270233147863
 30
0.0
 40
3.00000002980232
  1
S3
 50
359.999999844103
 41
0.916666604744064
 72
     2
 11
-92.9074221507658
 21
-120.270233161307
 31
0.0
  0
TEXT
  5
   652
  8
0
  6
CONTINUOUS
 62
     1
 10
-119.391841619948
 20
-101.95996090496
 30
0.0
 40
2.00000008940697
  1
3POLE LOW VOLTAGE M.C.C.B SERIES ISOMAX
 50
359.999999844103
 41
0.749999861419206
 72
     1
 11
-90.2918456971705
 21
-100.959960939289
 31
0.0
 73
     2
  0
TEXT
  5
   653
  8
0
  6
CONTINUOUS
 62
     1
 10
-112.641842529652
 20
-104.959960923292
 30
0.0
 40
2.00000008940697
  1
PLUG-IN VERSION REAR TERMINALS
 50
359.999999844103
 41
0.749999861419206
 72
     1
 11
-90.2918456613958
 21
-103.959960939289
 31
0.0
 73
     2
  0
TEXT
  5
   654
  8
0
  6
CONTINUOUS
 62
     1
 10
-116.189449987302
 20
-110.030227646925
 30
0.0
 40
2.00000008940697
  1
INTERR.AUTOMATICO SERIE ISOMAX
 50
359.999999844103
 41
0.749999861419206
 72
     1
 11
-93.8394531190455
 21
-109.030227662922
 31
0.0
 73
     2
  0
TEXT
  5
   655
  8
0
  6
CONTINUOUS
 62
     1
 10
-128.189448270676
 20
-113.030227614334
 30
0.0
 40
2.00000008940697
  1
TRIPOL.ESECUZIONE RIMOVIBILE TERMIN.POSTERIORI
 50
359.999999844103
 41
0.749999861419206
 72
     1
 11
-93.8394530832708
 21
-112.030227662922
 31
0.0
 73
     2
  0
ENDSEC
  0
EOF
