  0
SECTION
  2
HEADER
  9
$ACADVER
  1
AC1009
  9
$DWGCODEPAGE
  3
iso8859-1
  9
$INSBASE
 10
0.0
 20
0.0
 30
0.0
  9
$EXTMIN
 10
1.0E20
 20
1.0E20
  9
$EXTMAX
 10
-1.0E20
 20
-1.0E20
  9
$LIMMIN
 10
0.0
 20
0.0
  9
$LIMMAX
 10
12.0
 20
9.0
  9
$ORTHOMODE
 70
     0
  9
$REGENMODE
 70
     1
  9
$FILLMODE
 70
     1
  9
$QTEXTMODE
 70
     0
  9
$MIRRTEXT
 70
     1
  9
$DRAGMODE
 70
     2
  9
$LTSCALE
 40
15.0
  9
$OSMODE
 70
     0
  9
$ATTMODE
 70
     1
  9
$TEXTSIZE
 40
0.2
  9
$TRACEWID
 40
0.05
  9
$TEXTSTYLE
  7
STANDARD
  9
$CLAYER
  8
0
  9
$CELTYPE
  6
DASHED
  9
$CECOLOR
 62
   256
  9
$DIMSCALE
 40
1.0
  9
$DIMASZ
 40
0.18
  9
$DIMEXO
 40
0.0625
  9
$DIMDLI
 40
0.38
  9
$DIMRND
 40
0.0
  9
$DIMDLE
 40
0.0
  9
$DIMEXE
 40
0.18
  9
$DIMTP
 40
0.0
  9
$DIMTM
 40
0.0
  9
$DIMTXT
 40
0.18
  9
$DIMCEN
 40
0.09
  9
$DIMTSZ
 40
0.0
  9
$DIMTOL
 70
     0
  9
$DIMLIM
 70
     0
  9
$DIMTIH
 70
     1
  9
$DIMTOH
 70
     1
  9
$DIMSE1
 70
     0
  9
$DIMSE2
 70
     0
  9
$DIMTAD
 70
     0
  9
$DIMZIN
 70
     0
  9
$DIMBLK
  1

  9
$DIMASO
 70
     1
  9
$DIMSHO
 70
     1
  9
$DIMPOST
  1

  9
$DIMAPOST
  1

  9
$DIMALT
 70
     0
  9
$DIMALTD
 70
     2
  9
$DIMALTF
 40
25.4
  9
$DIMLFAC
 40
1.0
  9
$DIMTOFL
 70
     0
  9
$DIMTVP
 40
0.0
  9
$DIMTIX
 70
     0
  9
$DIMSOXD
 70
     0
  9
$DIMSAH
 70
     0
  9
$DIMBLK1
  1

  9
$DIMBLK2
  1

  9
$DIMSTYLE
  2
STANDARD
  9
$DIMCLRD
 70
     0
  9
$DIMCLRE
 70
     0
  9
$DIMCLRT
 70
     0
  9
$DIMTFAC
 40
1.0
  9
$DIMGAP
 40
0.09
  9
$LUNITS
 70
     2
  9
$LUPREC
 70
     4
  9
$AXISMODE
 70
     0
  9
$AXISUNIT
 10
0.0
 20
0.0
  9
$SKETCHINC
 40
0.1
  9
$FILLETRAD
 40
0.0
  9
$AUNITS
 70
     0
  9
$AUPREC
 70
     0
  9
$MENU
  1
acad
  9
$ELEVATION
 40
0.0
  9
$PELEVATION
 40
0.0
  9
$THICKNESS
 40
0.0
  9
$LIMCHECK
 70
     0
  9
$BLIPMODE
 70
     1
  9
$CHAMFERA
 40
0.0
  9
$CHAMFERB
 40
0.0
  9
$SKPOLY
 70
     0
  9
$TDCREATE
 40
0.000000000
  9
$TDUPDATE
 40
0.000000000
  9
$TDINDWG
 40
0.0
  9
$TDUSRTIMER
 40
0.0
  9
$USRTIMER
 70
     1
  9
$ANGBASE
 50
0.0
  9
$ANGDIR
 70
     0
  9
$PDMODE
 70
     0
  9
$PDSIZE
 40
0.0
  9
$PLINEWID
 40
0.0
  9
$COORDS
 70
     1
  9
$SPLFRAME
 70
     0
  9
$SPLINETYPE
 70
     6
  9
$SPLINESEGS
 70
     8
  9
$ATTDIA
 70
     0
  9
$ATTREQ
 70
     1
  9
$HANDLING
 70
     1
  9
$HANDSEED
  5
   996
  9
$SURFTAB1
 70
     6
  9
$SURFTAB2
 70
     6
  9
$SURFTYPE
 70
     6
  9
$SURFU
 70
     6
  9
$SURFV
 70
     6
  9
$UCSNAME
  2

  9
$UCSORG
 10
0.0
 20
0.0
 30
0.0
  9
$UCSXDIR
 10
1.0
 20
0.0
 30
0.0
  9
$UCSYDIR
 10
0.0
 20
1.0
 30
0.0
  9
$PUCSNAME
  2

  9
$PUCSORG
 10
0.0
 20
0.0
 30
0.0
  9
$PUCSXDIR
 10
1.0
 20
0.0
 30
0.0
  9
$PUCSYDIR
 10
0.0
 20
1.0
 30
0.0
  9
$USERI1
 70
     0
  9
$USERI2
 70
     0
  9
$USERI3
 70
     0
  9
$USERI4
 70
     0
  9
$USERI5
 70
     0
  9
$USERR1
 40
0.0
  9
$USERR2
 40
0.0
  9
$USERR3
 40
0.0
  9
$USERR4
 40
0.0
  9
$USERR5
 40
0.0
  9
$WORLDVIEW
 70
     1
  9
$SHADEDGE
 70
     3
  9
$SHADEDIF
 70
    70
  9
$TILEMODE
 70
     1
  9
$MAXACTVP
 70
    16
  9
$PINSBASE
 10
0.0
 20
0.0
 30
0.0
  9
$PLIMCHECK
 70
     0
  9
$PEXTMIN
 10
1.0E20
 20
1.0E20
 30
1.0E20
  9
$PEXTMAX
 10
-1.0E20
 20
-1.0E20
 30
-1.0E20
  9
$PLIMMIN
 10
0.0
 20
0.0
  9
$PLIMMAX
 10
12.0
 20
9.0
  9
$UNITMODE
 70
     0
  9
$VISRETAIN
 70
     0
  0
ENDSEC
  0
SECTION
  2
TABLES
  0
TABLE
  2
VPORT
 70
     1
  0
VPORT
  2
*ACTIVE
 70
     0
 10
0.0
 20
0.0
 11
1.0
 21
1.0
 12
6.801242
 22
4.5
 13
0.0
 23
0.0
 14
1.0
 24
1.0
 15
0.0
 25
0.0
 16
0.0
 26
0.0
 36
1.0
 17
0.0
 27
0.0
 37
0.0
 40
9.0
 41
1.511387
 42
50.0
 43
0.0
 44
0.0
 50
0.0
 51
0.0
 71
     0
 72
   100
 73
     1
 74
     1
 75
     0
 76
     0
 77
     0
 78
     0
  0
ENDTAB
  0
TABLE
  2
LTYPE
 70
    41
  0
LTYPE
  2
BYBLOCK
 70
     0
  3

 72
    65
 73
     0
 40
0.0
  0
LTYPE
  2
BYLAYER
 70
     0
  3

 72
    65
 73
     0
 40
0.0
  0
LTYPE
  2
CONTINUOUS
 70
     0
  3
Solid line
 72
    65
 73
     0
 40
0.0
  0
LTYPE
  2
BORDER
 70
    64
  3
__ __ . __ __ . __ __ . __ __ . __ __ . __ __ .
 72
    65
 73
     6
 40
1.75
 49
0.5
 49
-0.25
 49
0.5
 49
-0.25
 49
0.0
 49
-0.25
  0
LTYPE
  2
BORDER2
 70
    64
  3
__.__.__.__.__.__.__.__.__.__.__.__.__.__.__.__
 72
    65
 73
     6
 40
0.875
 49
0.25
 49
-0.125
 49
0.25
 49
-0.125
 49
0.0
 49
-0.125
  0
LTYPE
  2
BORDERX2
 70
    64
  3
____  ____  .  ____  ____  .  ____  ____  .  __
 72
    65
 73
     6
 40
3.5
 49
1.0
 49
-0.5
 49
1.0
 49
-0.5
 49
0.0
 49
-0.5
  0
LTYPE
  2
CENTER
 70
    64
  3
____ _ ____ _ ____ _ ____ _ ____ _ ____ _ ____
 72
    65
 73
     4
 40
2.0
 49
1.25
 49
-0.25
 49
0.25
 49
-0.25
  0
LTYPE
  2
CENTER2
 70
    64
  3
___ _ ___ _ ___ _ ___ _ ___ _ ___ _ ___ _ ___ _
 72
    65
 73
     4
 40
1.125
 49
0.75
 49
-0.125
 49
0.125
 49
-0.125
  0
LTYPE
  2
CENTERX2
 70
    64
  3
________  __  ________  __  ________  __  _____
 72
    65
 73
     4
 40
4.0
 49
2.5
 49
-0.5
 49
0.5
 49
-0.5
  0
LTYPE
  2
DASHDOT
 70
    64
  3
__ . __ . __ . __ . __ . __ . __ . __ . __ . __
 72
    65
 73
     4
 40
1.0
 49
0.5
 49
-0.25
 49
0.0
 49
-0.25
  0
LTYPE
  2
DASHDOT2
 70
    64
  3
_._._._._._._._._._._._._._._._._._._._._._._._
 72
    65
 73
     4
 40
0.5
 49
0.25
 49
-0.125
 49
0.0
 49
-0.125
  0
LTYPE
  2
DASHDOTX2
 70
    64
  3
____  .  ____  .  ____  .  ____  .  ____  .  __
 72
    65
 73
     4
 40
2.0
 49
1.0
 49
-0.5
 49
0.0
 49
-0.5
  0
LTYPE
  2
DASHED
 70
    64
  3
__ __ __ __ __ __ __ __ __ __ __ __ __ __ __ __
 72
    65
 73
     2
 40
0.75
 49
0.5
 49
-0.25
  0
LTYPE
  2
DASHED2
 70
    64
  3
_ _ _ _ _ _ _ _ _ _ _ _ _ _ _ _ _ _ _ _ _ _ _ _
 72
    65
 73
     2
 40
0.375
 49
0.25
 49
-0.125
  0
LTYPE
  2
DASHEDX2
 70
    64
  3
____  ____  ____  ____  ____  ____  ____  ____
 72
    65
 73
     2
 40
1.5
 49
1.0
 49
-0.5
  0
LTYPE
  2
DIVIDE
 70
    64
  3
____ . . ____ . . ____ . . ____ . . ____ . . __
 72
    65
 73
     6
 40
1.25
 49
0.5
 49
-0.25
 49
0.0
 49
-0.25
 49
0.0
 49
-0.25
  0
LTYPE
  2
DIVIDE2
 70
    64
  3
__..__..__..__..__..__..__..__..__..__..__..__.
 72
    65
 73
     6
 40
0.625
 49
0.25
 49
-0.125
 49
0.0
 49
-0.125
 49
0.0
 49
-0.125
  0
LTYPE
  2
DIVIDEX2
 70
    64
  3
________  .  .  ________  .  .  ________  .  .
 72
    65
 73
     6
 40
2.5
 49
1.0
 49
-0.5
 49
0.0
 49
-0.5
 49
0.0
 49
-0.5
  0
LTYPE
  2
DOT
 70
    64
  3
. . . . . . . . . . . . . . . . . . . . . . . .
 72
    65
 73
     2
 40
0.25
 49
0.0
 49
-0.25
  0
LTYPE
  2
DOT2
 70
    64
  3
...............................................
 72
    65
 73
     2
 40
0.125
 49
0.0
 49
-0.125
  0
LTYPE
  2
DOTX2
 70
    64
  3
.  .  .  .  .  .  .  .  .  .  .  .  .  .  .  .
 72
    65
 73
     2
 40
0.5
 49
0.0
 49
-0.5
  0
LTYPE
  2
HIDDEN
 70
    64
  3
__ __ __ __ __ __ __ __ __ __ __ __ __ __ __ __
 72
    65
 73
     2
 40
0.375
 49
0.25
 49
-0.125
  0
LTYPE
  2
HIDDEN2
 70
    64
  3
_ _ _ _ _ _ _ _ _ _ _ _ _ _ _ _ _ _ _ _ _ _ _ _
 72
    65
 73
     2
 40
0.1875
 49
0.125
 49
-0.0625
  0
LTYPE
  2
HIDDENX2
 70
    64
  3
____ ____ ____ ____ ____ ____ ____ ____ ____ __
 72
    65
 73
     2
 40
0.75
 49
0.5
 49
-0.25
  0
LTYPE
  2
PHANTOM
 70
    64
  3
______  __  __  ______  __  __  ______  __  __
 72
    65
 73
     6
 40
2.5
 49
1.25
 49
-0.25
 49
0.25
 49
-0.25
 49
0.25
 49
-0.25
  0
LTYPE
  2
PHANTOM2
 70
    64
  3
___ _ _ ___ _ _ ___ _ _ ___ _ _ ___ _ _ ___ _ _
 72
    65
 73
     6
 40
1.25
 49
0.625
 49
-0.125
 49
0.125
 49
-0.125
 49
0.125
 49
-0.125
  0
LTYPE
  2
PHANTOMX2
 70
    64
  3
____________    ____    ____    ____________
 72
    65
 73
     6
 40
5.0
 49
2.5
 49
-0.5
 49
0.5
 49
-0.5
 49
0.5
 49
-0.5
  0
LTYPE
  2
ACAD_ISO02W100
 70
    64
  3
__ __ __ __ __ __ __ __ __ __ __ __ __ __ __ __
 72
    65
 73
     2
 40
15.0
 49
12.0
 49
-3.0
  0
LTYPE
  2
ACAD_ISO03W100
 70
    64
  3
__    __    __    __    __    __    __    __
 72
    65
 73
     2
 40
30.0
 49
12.0
 49
-18.0
  0
LTYPE
  2
ACAD_ISO04W100
 70
    64
  3
____ . ____ . ____ . ____ . ____ . ____ . ____
 72
    65
 73
     4
 40
30.5
 49
24.0
 49
-3.0
 49
0.5
 49
-3.0
  0
LTYPE
  2
ACAD_ISO05W100
 70
    64
  3
____ .. ____ .. ____ .. ____ .. ____ .. ____ ..
 72
    65
 73
     6
 40
34.0
 49
24.0
 49
-3.0
 49
0.5
 49
-3.0
 49
0.5
 49
-3.0
  0
LTYPE
  2
ACAD_ISO06W100
 70
    64
  3
____ ... ____ ... ____ ... ____ ... ____ ... __
 72
    65
 73
     8
 40
37.5
 49
24.0
 49
-3.0
 49
0.5
 49
-3.0
 49
0.5
 49
-3.0
 49
0.5
 49
-3.0
  0
LTYPE
  2
ACAD_ISO07W100
 70
    64
  3
. . . . . . . . . . . . . . . . . . . . . . . .
 72
    65
 73
     2
 40
3.5
 49
0.5
 49
-3.0
  0
LTYPE
  2
ACAD_ISO08W100
 70
    64
  3
____ __ ____ __ ____ __ ____ ____ __ __ ____ __
 72
    65
 73
     4
 40
36.0
 49
24.0
 49
-3.0
 49
6.0
 49
-3.0
  0
LTYPE
  2
ACAD_ISO09W100
 70
    64
  3
____ __ __ ____ __ __ ____ __ __ ____ __ __ ___
 72
    65
 73
     6
 40
45.0
 49
24.0
 49
-3.0
 49
6.0
 49
-3.0
 49
6.0
 49
-3.0
  0
LTYPE
  2
ACAD_ISO10W100
 70
    64
  3
__ . __ . __ . __ . __ . __ . __ . __ . __ . __
 72
    65
 73
     4
 40
18.5
 49
12.0
 49
-3.0
 49
0.5
 49
-3.0
  0
LTYPE
  2
ACAD_ISO11W100
 70
    64
  3
__ __ . __ __ . __ __ . __ __ . __ __ . __ __ .
 72
    65
 73
     6
 40
33.5
 49
12.0
 49
-3.0
 49
12.0
 49
-3.0
 49
0.5
 49
-3.0
  0
LTYPE
  2
ACAD_ISO12W100
 70
    64
  3
__ . . __ . . __ . . __ . . __ . . __ . . __ .
 72
    65
 73
     6
 40
22.0
 49
12.0
 49
-3.0
 49
0.5
 49
-3.0
 49
0.5
 49
-3.0
  0
LTYPE
  2
ACAD_ISO13W100
 70
    64
  3
__ __ . . __ __ . . __ __ . . __ __ . . __ __ .
 72
    65
 73
     8
 40
37.0
 49
12.0
 49
-3.0
 49
12.0
 49
-3.0
 49
0.5
 49
-3.0
 49
0.5
 49
-3.0
  0
LTYPE
  2
ACAD_ISO14W100
 70
    64
  3
__ . . . __ . . . __ . . . __ . . . __ . . . __
 72
    65
 73
     8
 40
25.5
 49
12.0
 49
-3.0
 49
0.5
 49
-3.0
 49
0.5
 49
-3.0
 49
0.5
 49
-3.0
  0
LTYPE
  2
ACAD_ISO15W100
 70
    64
  3
__ __ . . . __ __ . . . __ __ . . . __ __ . . .
 72
    65
 73
    10
 40
40.5
 49
12.0
 49
-3.0
 49
12.0
 49
-3.0
 49
0.5
 49
-3.0
 49
0.5
 49
-3.0
 49
0.5
 49
-3.0
  0
ENDTAB
  0
TABLE
  2
STYLE
 70
     4
  0
STYLE
  2
STANDARD
 70
    64
 40
0.0
 41
1.0
 50
0.0
 71
     0
 42
0.2
  3
txt
  4

  0
STYLE
  2
TOLERANCE
 70
    64
 40
0.0
 41
1.0
 50
0.0
 71
     0
 42
0.2
  3
../igesfont/iges1003.shx
  4

  0
STYLE
  2
ROMANS
 70
    64
 40
0.0
 41
1.0
 50
0.0
 71
     0
 42
0.2
  3
romans.shx
  4

  0
STYLE
  2
ROMANC
 70
    64
 40
0.0
 41
1.0
 50
0.0
 71
     0
 42
0.2
  3
romanc.shx
  4

  0
ENDTAB
  0
TABLE
  2
DIMSTYLE
 70
     2
  0
DIMSTYLE
  2
UNNAMED
 70
     0
  3

  4

  5

  6

  7

 40
1.0
 41
0.18
 42
0.0625
 43
0.38
 44
0.18
 45
0.0
 46
0.0
 47
0.0
 48
0.0
140
0.18
141
0.09
142
0.0
143
25.4
144
1.0
145
0.0
146
1.0
147
0.09
 71
     0
 72
     0
 73
     1
 74
     1
 75
     0
 76
     0
 77
     0
 78
     0
170
     0
171
     2
172
     0
173
     0
174
     0
175
     0
176
     0
177
     0
178
     0
  0
DIMSTYLE
  2
STANDARD
 70
     0
  3

  4

  5

  6

  7

 40
1.0
 41
0.18
 42
0.0625
 43
0.38
 44
0.18
 45
0.0
 46
0.0
 47
0.0
 48
0.0
140
0.18
141
0.09
142
0.0
143
25.4
144
1.0
145
0.0
146
1.0
147
0.09
 71
     0
 72
     0
 73
     1
 74
     1
 75
     0
 76
     0
 77
     0
 78
     0
170
     0
171
     2
172
     0
173
     0
174
     0
175
     0
176
     0
177
     0
178
     0
  0
ENDTAB
  0
TABLE
  2
LAYER
 70
     2
  0
LAYER
  2
0
 70
     0
 62
     7
  6
CONTINUOUS
  0
LAYER
  2
255
 70
     0
 62
     7
  6
CONTINUOUS
  0
ENDTAB
  0
ENDSEC
  0
SECTION
  2
BLOCKS
  0
BLOCK
  5
     B
  8
0
  6
CONTINUOUS
 62
     7
  2
*UDIM1583
 70
    65
 10
0.0
 20
0.0
 30
0.0
  3
*UDIM1583
  0
TEXT
  5
     C
  8
0
  6
CONTINUOUS
 62
     7
 10
-1134.32368449045
 20
-161.986649804125
 30
0.0
 40
2.99999994933605
  1
5,5
 50
403.850524116448
 41
0.933333333333333
 72
     1
 11
-1132.55037009452
 21
-158.20308594667
 31
0.0
 73
     2
  0
TEXT
  5
     D
  8
0
  6
CONTINUOUS
 62
     7
 10
-1136.59530571052
 20
-164.168904767091
 30
0.0
 40
2.99999994933605
  1
Ø
 50
403.850524116448
 41
0.933333333333333
 72
     1
 11
-1136.84121018084
 21
-162.325123089503
 31
0.0
 73
     2
  0
TEXT
  5
     E
  8
0
  6
CONTINUOUS
 62
     7
 10
-1128.30208536659
 20
-156.20194220644
 30
0.0
 40
2.99999994933605
  1
 M5
 50
403.850524116448
 41
0.933333333333333
 72
     1
 11
-1126.52877097065
 21
-152.418378348985
 31
0.0
 73
     2
  0
LINE
  5
     F
  8
0
  6
CONTINUOUS
 62
     7
 10
-1114.69247923448
 20
-144.514416915046
 30
0.0
 11
-1135.90252634423
 21
-164.890054372665
 31
0.0
  0
LINE
  5
    10
  8
0
  6
CONTINUOUS
 62
     7
 10
-1112.92279760243
 20
-142.091974568742
 30
0.0
 11
-1114.69247923448
 21
-144.514416915046
 31
0.0
  0
LINE
  5
    11
  8
0
  6
CONTINUOUS
 62
     7
 10
-1114.69247923448
 20
-144.514416915046
 30
0.0
 11
-1112.20099850179
 21
-142.843332309578
 31
0.0
  0
LINE
  5
    12
  8
0
  6
CONTINUOUS
 62
     7
 10
-1117.25542544498
 20
-147.698916571957
 30
0.0
 11
-1115.48574381292
 21
-145.276474225653
 31
0.0
  0
LINE
  5
    13
  8
0
  6
CONTINUOUS
 62
     7
 10
-1115.48574381292
 20
-145.276474225653
 30
0.0
 11
-1117.97722454561
 21
-146.947558831122
 31
0.0
  0
ENDBLK
  5
    14
  8
0
  6
CONTINUOUS
 62
     7
  0
BLOCK
  5
    15
  8
0
  6
CONTINUOUS
 62
     7
  2
*UDIM1584
 70
    65
 10
0.0
 20
0.0
 30
0.0
  3
*UDIM1584
  0
TEXT
  5
    16
  8
0
  6
CONTINUOUS
 62
     7
 10
-1127.17177008972
 20
-121.711594967814
 30
0.0
 40
2.99999994933605
  1
105,25
 50
449.999999896069
 41
0.933333333333333
 72
     1
 11
-1128.67177004975
 21
-113.611595101895
 31
0.0
 73
     2
  0
LINE
  5
    17
  8
0
  6
CONTINUOUS
 62
     7
 10
-1115.91834048858
 20
-102.09544493258
 30
0.0
 11
-1128.17177007508
 21
-102.09544493258
 31
0.0
  0
LINE
  5
    18
  8
0
  6
CONTINUOUS
 62
     7
 10
-1126.17177007508
 20
-102.09544493258
 30
0.0
 11
-1126.17177007508
 21
-123.145445246249
 31
0.0
  0
LINE
  5
    19
  8
0
  6
CONTINUOUS
 62
     7
 10
-1125.65082564513
 20
-105.049868209787
 30
0.0
 11
-1126.17177007508
 21
-102.09544493258
 31
0.0
  0
LINE
  5
    1A
  8
0
  6
CONTINUOUS
 62
     7
 10
-1126.17177007508
 20
-102.09544493258
 30
0.0
 11
-1126.69271450503
 21
-105.049868209787
 31
0.0
  0
LINE
  5
    1B
  8
0
  6
CONTINUOUS
 62
     7
 10
-1126.69271450503
 20
-120.191021969042
 30
0.0
 11
-1126.17177007508
 21
-123.145445246249
 31
0.0
  0
LINE
  5
    1C
  8
0
  6
CONTINUOUS
 62
     7
 10
-1126.17177007508
 20
-123.145445246249
 30
0.0
 11
-1125.65082564513
 21
-120.191021969042
 31
0.0
  0
ENDBLK
  5
    1D
  8
0
  6
CONTINUOUS
 62
     7
  0
BLOCK
  5
    1E
  8
0
  6
CONTINUOUS
 62
     7
  2
*UDIM1585
 70
    65
 10
0.0
 20
0.0
 30
0.0
  3
*UDIM1585
  0
TEXT
  5
    1F
  8
0
  6
CONTINUOUS
 62
     7
 10
-1111.91410985627
 20
-129.659800817385
 30
0.0
 40
2.99999994933605
  1
87,5
 50
359.999999896069
 41
0.933333333333333
 72
     1
 11
-1106.61410994306
 21
-128.159800852304
 31
0.0
 73
     2
  0
LINE
  5
    20
  8
0
  6
CONTINUOUS
 62
     7
 10
-1097.58911126293
 20
-130.659800826972
 30
0.0
 11
-1115.0891115237
 21
-130.659800826972
 31
0.0
  0
LINE
  5
    21
  8
0
  6
CONTINUOUS
 62
     7
 10
-1100.54353454014
 20
-131.180745256924
 30
0.0
 11
-1097.58911126293
 21
-130.659800826972
 31
0.0
  0
LINE
  5
    22
  8
0
  6
CONTINUOUS
 62
     7
 10
-1097.58911126293
 20
-130.659800826972
 30
0.0
 11
-1100.54353454014
 21
-130.13885639702
 31
0.0
  0
LINE
  5
    23
  8
0
  6
CONTINUOUS
 62
     7
 10
-1112.1346882465
 20
-130.13885639702
 30
0.0
 11
-1115.0891115237
 21
-130.659800826972
 31
0.0
  0
LINE
  5
    24
  8
0
  6
CONTINUOUS
 62
     7
 10
-1115.0891115237
 20
-130.659800826972
 30
0.0
 11
-1112.1346882465
 21
-131.180745256924
 31
0.0
  0
ENDBLK
  5
    25
  8
0
  6
CONTINUOUS
 62
     7
  0
BLOCK
  5
    26
  8
0
  6
CONTINUOUS
 62
     7
  2
*UDIM1586
 70
    65
 10
0.0
 20
0.0
 30
0.0
  3
*UDIM1586
  0
TEXT
  5
    27
  8
0
  6
CONTINUOUS
 62
     7
 10
-1085.7554257071
 20
-135.566005134092
 30
0.0
 40
2.99999994933605
  1
22
 50
359.999999896069
 41
0.933333333333333
 72
     1
 11
-1083.25542574661
 21
-134.066005163946
 31
0.0
 73
     2
  0
LINE
  5
    28
  8
0
  6
CONTINUOUS
 62
     7
 10
-1080.75542578883
 20
-136.566005138614
 30
0.0
 11
-1101.96411132813
 21
-136.566005138614
 31
0.0
  0
LINE
  5
    29
  8
0
  6
CONTINUOUS
 62
     7
 10
-1094.63468798573
 20
-136.045060708663
 30
0.0
 11
-1097.58911126293
 21
-136.566005138614
 31
0.0
  0
LINE
  5
    2A
  8
0
  6
CONTINUOUS
 62
     7
 10
-1097.58911126293
 20
-136.566005138614
 30
0.0
 11
-1094.63468798573
 21
-137.086949568566
 31
0.0
  0
LINE
  5
    2B
  8
0
  6
CONTINUOUS
 62
     7
 10
-1104.91853460533
 20
-137.086949568566
 30
0.0
 11
-1101.96411132813
 21
-136.566005138614
 31
0.0
  0
LINE
  5
    2C
  8
0
  6
CONTINUOUS
 62
     7
 10
-1101.96411132813
 20
-136.566005138614
 30
0.0
 11
-1104.91853460533
 21
-136.045060708663
 31
0.0
  0
ENDBLK
  5
    2D
  8
0
  6
CONTINUOUS
 62
     7
  0
BLOCK
  5
    2E
  8
0
  6
CONTINUOUS
 62
     7
  2
*UDIM1587
 70
    65
 10
0.0
 20
0.0
 30
0.0
  3
*UDIM1587
  0
TEXT
  5
    2F
  8
0
  6
CONTINUOUS
 62
     7
 10
-1133.74525803408
 20
-127.670443337443
 30
0.0
 40
2.99999994933605
  1
214
 50
449.999999896069
 41
0.933333333333333
 72
     1
 11
-1135.2452580017
 21
-123.770443400595
 31
0.0
 73
     2
  0
LINE
  5
    30
  8
0
  6
CONTINUOUS
 62
     7
 10
-1115.91834048858
 20
-102.095444099473
 30
0.0
 11
-1134.74525802703
 21
-102.09542841463
 31
0.0
  0
LINE
  5
    31
  8
0
  6
CONTINUOUS
 62
     7
 10
-1118.41771619293
 20
-144.895444548891
 30
0.0
 11
-1134.74525802703
 21
-144.895427870984
 31
0.0
  0
LINE
  5
    32
  8
0
  6
CONTINUOUS
 62
     7
 10
-1132.74525802703
 20
-102.095430080844
 30
0.0
 11
-1132.74525802703
 21
-144.895429913901
 31
0.0
  0
LINE
  5
    33
  8
0
  6
CONTINUOUS
 62
     7
 10
-1132.22431359708
 20
-105.049853358051
 30
0.0
 11
-1132.74525802703
 21
-102.095430080844
 31
0.0
  0
LINE
  5
    34
  8
0
  6
CONTINUOUS
 62
     7
 10
-1132.74525802703
 20
-102.095430080844
 30
0.0
 11
-1133.26620245699
 21
-105.049853358051
 31
0.0
  0
LINE
  5
    35
  8
0
  6
CONTINUOUS
 62
     7
 10
-1133.26620245699
 20
-141.941006636694
 30
0.0
 11
-1132.74525802703
 21
-144.895429913901
 31
0.0
  0
LINE
  5
    36
  8
0
  6
CONTINUOUS
 62
     7
 10
-1132.74525802703
 20
-144.895429913901
 30
0.0
 11
-1132.22431359708
 21
-141.941006636694
 31
0.0
  0
ENDBLK
  5
    37
  8
0
  6
CONTINUOUS
 62
     7
  0
BLOCK
  5
    38
  8
0
  6
CONTINUOUS
 62
     0
  2
$1ON-OFF
 70
    64
 10
0.0
 20
0.0
 30
0.0
  3
$1ON-OFF
  0
LINE
  5
    39
  8
0
  6
CONTINUOUS
 62
     0
 10
5.09999999999999
 20
-29.65
 30
0.0
 11
5.54999999999999
 21
-29.65
 31
0.0
  0
LINE
  5
    3A
  8
0
  6
CONTINUOUS
 62
     0
 10
3.79999999999999
 20
-37.35
 30
0.0
 11
4.59999999999999
 21
-37.35
 31
0.0
  0
LINE
  5
    3B
  8
0
  6
CONTINUOUS
 62
     0
 10
-2.6
 20
-34.75
 30
0.0
 11
-2.6
 21
-34.25
 31
0.0
  0
LINE
  5
    3C
  8
0
  6
CONTINUOUS
 62
     0
 10
2.6
 20
-34.75
 30
0.0
 11
2.6
 21
-34.25
 31
0.0
  0
ARC
  5
    3D
  8
0
  6
CONTINUOUS
 62
     0
 10
-3.5527136788005E-15
 20
-34.25
 30
0.0
 40
2.6
 50
0.0
 51
180.0
  0
ARC
  5
    3E
  8
0
  6
CONTINUOUS
 62
     0
 10
-3.5527136788005E-15
 20
-34.75
 30
0.0
 40
2.6
 50
180.0
 51
360.0
  0
ARC
  5
    3F
  8
0
  6
CONTINUOUS
 62
     0
 10
-3.5527136788005E-15
 20
-34.25
 30
0.0
 40
1.8
 50
0.0
 51
180.0
  0
ARC
  5
    40
  8
0
  6
CONTINUOUS
 62
     0
 10
-3.5527136788005E-15
 20
-34.75
 30
0.0
 40
1.8
 50
180.0
 51
360.0
  0
LINE
  5
    41
  8
0
  6
CONTINUOUS
 62
     0
 10
-1.8
 20
-34.75
 30
0.0
 11
-1.8
 21
-34.25
 31
0.0
  0
LINE
  5
    42
  8
0
  6
CONTINUOUS
 62
     0
 10
1.8
 20
-34.75
 30
0.0
 11
1.8
 21
-34.25
 31
0.0
  0
LINE
  5
    43
  8
0
  6
CONTINUOUS
 62
     0
 10
2.84999999999999
 20
-32.85
 30
0.0
 11
2.84999999999999
 21
-32.05
 31
0.0
  0
LINE
  5
    44
  8
0
  6
CONTINUOUS
 62
     0
 10
2.84999999999999
 20
-32.85
 30
0.0
 11
3.79999999999999
 21
-32.85
 31
0.0
  0
LINE
  5
    45
  8
0
  6
CONTINUOUS
 62
     0
 10
5.54999999999999
 20
-32.85
 30
0.0
 11
5.54999999999999
 21
-32.05
 31
0.0
  0
LINE
  5
    46
  8
0
  6
CONTINUOUS
 62
     0
 10
2.84999999999999
 20
-32.05
 30
0.0
 11
3.79999999999999
 21
-32.05
 31
0.0
  0
LINE
  5
    47
  8
0
  6
CONTINUOUS
 62
     0
 10
3.79999999999999
 20
-37.35
 30
0.0
 11
3.79999999999999
 21
-32.85
 31
0.0
  0
LINE
  5
    48
  8
0
  6
CONTINUOUS
 62
     0
 10
4.59999999999999
 20
-37.35
 30
0.0
 11
4.59999999999999
 21
-32.85
 31
0.0
  0
LINE
  5
    49
  8
0
  6
CONTINUOUS
 62
     0
 10
4.59999999999999
 20
-32.85
 30
0.0
 11
5.54999999999999
 21
-32.85
 31
0.0
  0
LINE
  5
    4A
  8
0
  6
CONTINUOUS
 62
     0
 10
4.59999999999999
 20
-32.05
 30
0.0
 11
5.54999999999999
 21
-32.05
 31
0.0
  0
LINE
  5
    4B
  8
0
  6
CONTINUOUS
 62
     0
 10
3.79999999999999
 20
-32.05
 30
0.0
 11
3.79999999999999
 21
-30.95
 31
0.0
  0
LINE
  5
    4C
  8
0
  6
CONTINUOUS
 62
     0
 10
4.59999999999999
 20
-32.05
 30
0.0
 11
4.59999999999999
 21
-30.95
 31
0.0
  0
ARC
  5
    4D
  8
0
  6
CONTINUOUS
 62
     0
 10
5.09999999999999
 20
-30.95
 30
0.0
 40
1.3
 50
89.9999999999999
 51
180.0
  0
ARC
  5
    4E
  8
0
  6
CONTINUOUS
 62
     0
 10
5.09999999999999
 20
-30.95
 30
0.0
 40
0.5
 50
89.9999999999999
 51
180.0
  0
LINE
  5
    4F
  8
0
  6
CONTINUOUS
 62
     0
 10
5.54999999999999
 20
-30.45
 30
0.0
 11
5.54999999999999
 21
-29.65
 31
0.0
  0
LINE
  5
    50
  8
0
  6
CONTINUOUS
 62
     0
 10
5.09999999999999
 20
-30.45
 30
0.0
 11
5.54999999999999
 21
-30.45
 31
0.0
  0
LINE
  5
    51
  8
0
  6
CONTINUOUS
 62
     0
 10
8.29999999999998
 20
-29.65
 30
0.0
 11
8.74999999999999
 21
-29.65
 31
0.0
  0
LINE
  5
    52
  8
0
  6
CONTINUOUS
 62
     0
 10
6.99999999999999
 20
-37.35
 30
0.0
 11
7.79999999999999
 21
-37.35
 31
0.0
  0
LINE
  5
    53
  8
0
  6
CONTINUOUS
 62
     0
 10
6.04999999999999
 20
-32.85
 30
0.0
 11
6.04999999999999
 21
-32.05
 31
0.0
  0
LINE
  5
    54
  8
0
  6
CONTINUOUS
 62
     0
 10
6.04999999999999
 20
-32.85
 30
0.0
 11
6.99999999999999
 21
-32.85
 31
0.0
  0
LINE
  5
    55
  8
0
  6
CONTINUOUS
 62
     0
 10
8.74999999999999
 20
-32.85
 30
0.0
 11
8.74999999999999
 21
-32.05
 31
0.0
  0
LINE
  5
    56
  8
0
  6
CONTINUOUS
 62
     0
 10
6.04999999999999
 20
-32.05
 30
0.0
 11
6.99999999999999
 21
-32.05
 31
0.0
  0
LINE
  5
    57
  8
0
  6
CONTINUOUS
 62
     0
 10
6.99999999999999
 20
-37.35
 30
0.0
 11
6.99999999999999
 21
-32.85
 31
0.0
  0
LINE
  5
    58
  8
0
  6
CONTINUOUS
 62
     0
 10
7.79999999999999
 20
-37.35
 30
0.0
 11
7.79999999999999
 21
-32.85
 31
0.0
  0
LINE
  5
    59
  8
0
  6
CONTINUOUS
 62
     0
 10
7.79999999999999
 20
-32.85
 30
0.0
 11
8.74999999999999
 21
-32.85
 31
0.0
  0
LINE
  5
    5A
  8
0
  6
CONTINUOUS
 62
     0
 10
7.79999999999999
 20
-32.05
 30
0.0
 11
8.74999999999999
 21
-32.05
 31
0.0
  0
LINE
  5
    5B
  8
0
  6
CONTINUOUS
 62
     0
 10
6.99999999999999
 20
-32.05
 30
0.0
 11
6.99999999999999
 21
-30.95
 31
0.0
  0
LINE
  5
    5C
  8
0
  6
CONTINUOUS
 62
     0
 10
7.79999999999999
 20
-32.05
 30
0.0
 11
7.79999999999999
 21
-30.95
 31
0.0
  0
ARC
  5
    5D
  8
0
  6
CONTINUOUS
 62
     0
 10
8.29999999999998
 20
-30.95
 30
0.0
 40
1.3
 50
89.9999999999999
 51
180.0
  0
ARC
  5
    5E
  8
0
  6
CONTINUOUS
 62
     0
 10
8.29999999999998
 20
-30.95
 30
0.0
 40
0.5
 50
89.9999999999999
 51
180.0
  0
LINE
  5
    5F
  8
0
  6
CONTINUOUS
 62
     0
 10
8.74999999999999
 20
-30.45
 30
0.0
 11
8.74999999999999
 21
-29.65
 31
0.0
  0
LINE
  5
    60
  8
0
  6
CONTINUOUS
 62
     0
 10
8.29999999999998
 20
-30.45
 30
0.0
 11
8.74999999999999
 21
-30.45
 31
0.0
  0
LINE
  5
    61
  8
0
  6
CONTINUOUS
 62
     0
 10
3.4
 20
-2.85000000000002
 30
0.0
 11
4.19999999999999
 21
-2.85000000000002
 31
0.0
  0
ARC
  5
    62
  8
0
  6
CONTINUOUS
 62
     0
 10
-3.5527136788005E-15
 20
0.249999999999979
 30
0.0
 40
2.6
 50
0.0
 51
180.0
  0
ARC
  5
    63
  8
0
  6
CONTINUOUS
 62
     0
 10
-3.5527136788005E-15
 20
0.249999999999979
 30
0.0
 40
1.8
 50
0.0
 51
180.0
  0
ARC
  5
    64
  8
0
  6
CONTINUOUS
 62
     0
 10
-3.5527136788005E-15
 20
-0.250000000000018
 30
0.0
 40
2.6
 50
180.0
 51
360.0
  0
ARC
  5
    65
  8
0
  6
CONTINUOUS
 62
     0
 10
-3.5527136788005E-15
 20
-0.250000000000018
 30
0.0
 40
1.8
 50
180.0
 51
360.0
  0
LINE
  5
    66
  8
0
  6
CONTINUOUS
 62
     0
 10
1.8
 20
-0.250000000000018
 30
0.0
 11
1.8
 21
0.249999999999979
 31
0.0
  0
LINE
  5
    67
  8
0
  6
CONTINUOUS
 62
     0
 10
2.6
 20
-0.250000000000018
 30
0.0
 11
2.6
 21
0.249999999999979
 31
0.0
  0
LINE
  5
    68
  8
0
  6
CONTINUOUS
 62
     0
 10
-1.8
 20
-0.250000000000032
 30
0.0
 11
-1.8
 21
0.249999999999964
 31
0.0
  0
LINE
  5
    69
  8
0
  6
CONTINUOUS
 62
     0
 10
-2.6
 20
-0.250000000000018
 30
0.0
 11
-2.6
 21
0.249999999999979
 31
0.0
  0
LINE
  5
    6A
  8
0
  6
CONTINUOUS
 62
     0
 10
3.4
 20
-2.85000000000002
 30
0.0
 11
3.4
 21
2.84999999999998
 31
0.0
  0
LINE
  5
    6B
  8
0
  6
CONTINUOUS
 62
     0
 10
4.19999999999999
 20
-2.85000000000002
 30
0.0
 11
4.19999999999999
 21
0.649999999999981
 31
0.0
  0
LINE
  5
    6C
  8
0
  6
CONTINUOUS
 62
     0
 10
6.99999999999999
 20
-2.85000000000002
 30
0.0
 11
6.99999999999999
 21
0.649999999999981
 31
0.0
  0
LINE
  5
    6D
  8
0
  6
CONTINUOUS
 62
     0
 10
7.79999999999999
 20
-2.85000000000002
 30
0.0
 11
7.79999999999999
 21
0.84999999999998
 31
0.0
  0
LINE
  5
    6E
  8
0
  6
CONTINUOUS
 62
     0
 10
3.4
 20
2.84999999999998
 30
0.0
 11
4.19999999999999
 21
2.84999999999998
 31
0.0
  0
ARC
  5
    6F
  8
0
  6
CONTINUOUS
 62
     0
 10
5.59999999999999
 20
0.649999999999981
 30
0.0
 40
1.4
 50
0.0
 51
180.0
  0
LINE
  5
    70
  8
0
  6
CONTINUOUS
 62
     0
 10
4.19999999999999
 20
2.05
 30
0.0
 11
4.19999999999999
 21
2.84999999999998
 31
0.0
  0
ARC
  5
    71
  8
0
  6
CONTINUOUS
 62
     0
 10
5.79999999999999
 20
0.84999999999998
 30
0.0
 40
2.0
 50
0.0
 51
143.130102354155
  0
LINE
  5
    72
  8
0
  6
CONTINUOUS
 62
     0
 10
6.99999999999999
 20
-2.85000000000002
 30
0.0
 11
7.79999999999999
 21
-2.85000000000002
 31
0.0
  0
ENDBLK
  5
    73
  8
0
  6
CONTINUOUS
 62
     0
  0
BLOCK
  5
    74
  8
0
  6
CONTINUOUS
 62
     7
  2
MOSTRINA
 70
    64
 10
0.0
 20
0.0
 30
0.0
  3
MOSTRINA
  0
LINE
  5
    75
  8
0
  6
CONTINUOUS
 62
     3
 10
173.338256835938
 20
30.7306251525879
 30
0.0
 11
173.338256835938
 21
189.230621337891
 31
0.0
  0
LINE
  5
    76
  8
0
  6
CONTINUOUS
 62
     3
 10
57.5882568359375
 20
29.4806251525879
 30
0.0
 11
172.088256835938
 21
29.4806251525879
 31
0.0
  0
LINE
  5
    77
  8
0
  6
CONTINUOUS
 62
     3
 10
56.3382568359375
 20
30.7306251525879
 30
0.0
 11
56.3382568359375
 21
189.230621337891
 31
0.0
  0
LINE
  5
    78
  8
0
  6
CONTINUOUS
 62
     3
 10
57.5882568359375
 20
190.480621337891
 30
0.0
 11
172.088256835938
 21
190.480621337891
 31
0.0
  0
LINE
  5
    79
  8
0
  6
CONTINUOUS
 62
     3
 10
167.838256835938
 20
56.9806251525879
 30
0.0
 11
167.838256835938
 21
162.980625152588
 31
0.0
  0
LINE
  5
    7A
  8
0
  6
CONTINUOUS
 62
     3
 10
61.8382568359375
 20
56.9806251525879
 30
0.0
 11
167.838256835938
 21
56.9806251525879
 31
0.0
  0
LINE
  5
    7B
  8
0
  6
CONTINUOUS
 62
     3
 10
61.8382568359375
 20
56.9806251525879
 30
0.0
 11
61.8382568359375
 21
162.980625152588
 31
0.0
  0
LINE
  5
    7C
  8
0
  6
CONTINUOUS
 62
     3
 10
61.8382568359375
 20
162.980621337891
 30
0.0
 11
167.838256835938
 21
162.980621337891
 31
0.0
  0
LINE
  5
    7D
  8
0
  6
CONTINUOUS
 62
     3
 10
168.838256835938
 20
48.4806251525879
 30
0.0
 11
168.838256835938
 21
49.4806251525879
 31
0.0
  0
LINE
  5
    7E
  8
0
  6
CONTINUOUS
 62
     3
 10
61.8382568359375
 20
50.4806251525879
 30
0.0
 11
167.838256835938
 21
50.4806251525879
 31
0.0
  0
LINE
  5
    7F
  8
0
  6
CONTINUOUS
 62
     3
 10
60.8382568359375
 20
48.4806251525879
 30
0.0
 11
60.8382568359375
 21
49.4806251525879
 31
0.0
  0
LINE
  5
    80
  8
0
  6
CONTINUOUS
 62
     3
 10
61.8382568359375
 20
49.4806251525879
 30
0.0
 11
167.838256835938
 21
49.4806251525879
 31
0.0
  0
LINE
  5
    81
  8
0
  6
CONTINUOUS
 62
     3
 10
60.8382568359375
 20
29.4806251525879
 30
0.0
 11
60.8382568359375
 21
48.4806251525879
 31
0.0
  0
LINE
  5
    82
  8
0
  6
CONTINUOUS
 62
     3
 10
60.8382568359375
 20
49.4806213378906
 30
0.0
 11
60.8382568359375
 21
190.480621337891
 31
0.0
  0
LINE
  5
    83
  8
0
  6
CONTINUOUS
 62
     3
 10
61.8382568359375
 20
29.4806251525879
 30
0.0
 11
61.8382568359375
 21
49.4806251525879
 31
0.0
  0
LINE
  5
    84
  8
0
  6
CONTINUOUS
 62
     3
 10
61.8382568359375
 20
162.980621337891
 30
0.0
 11
61.8382568359375
 21
169.480621337891
 31
0.0
  0
LINE
  5
    85
  8
0
  6
CONTINUOUS
 62
     3
 10
61.8382568359375
 20
50.4806251525879
 30
0.0
 11
61.8382568359375
 21
56.9806251525879
 31
0.0
  0
LINE
  5
    86
  8
0
  6
CONTINUOUS
 62
     3
 10
168.838256835938
 20
29.4806251525879
 30
0.0
 11
168.838256835938
 21
48.4806251525879
 31
0.0
  0
LINE
  5
    87
  8
0
  6
CONTINUOUS
 62
     3
 10
168.838256835938
 20
49.4806251525879
 30
0.0
 11
168.838256835938
 21
190.480621337891
 31
0.0
  0
LINE
  5
    88
  8
0
  6
CONTINUOUS
 62
     3
 10
167.838256835938
 20
50.4806251525879
 30
0.0
 11
167.838256835938
 21
56.9806251525879
 31
0.0
  0
LINE
  5
    89
  8
0
  6
CONTINUOUS
 62
     3
 10
167.838256835938
 20
162.980621337891
 30
0.0
 11
167.838256835938
 21
169.480621337891
 31
0.0
  0
LINE
  5
    8A
  8
0
  6
CONTINUOUS
 62
     3
 10
167.838256835938
 20
29.4806251525879
 30
0.0
 11
167.838256835938
 21
49.4806251525879
 31
0.0
  0
LINE
  5
    8B
  8
0
  6
CONTINUOUS
 62
     3
 10
60.8382568359375
 20
170.480621337891
 30
0.0
 11
168.838256835938
 21
170.480621337891
 31
0.0
  0
LINE
  5
    8C
  8
0
  6
CONTINUOUS
 62
     3
 10
61.8382568359375
 20
169.480621337891
 30
0.0
 11
167.838256835938
 21
169.480621337891
 31
0.0
  0
ARC
  5
    8D
  8
0
  6
CONTINUOUS
 62
     3
 10
57.5882568359375
 20
30.7306251525879
 30
0.0
 40
1.25
 50
180.0
 51
270.0
  0
ARC
  5
    8E
  8
0
  6
CONTINUOUS
 62
     3
 10
172.088256835938
 20
30.7306251525879
 30
0.0
 40
1.25
 50
270.0
 51
360.0
  0
ARC
  5
    8F
  8
0
  6
CONTINUOUS
 62
     3
 10
172.088256835938
 20
189.230621337891
 30
0.0
 40
1.25
 50
0.0
 51
90.0
  0
ARC
  5
    90
  8
0
  6
CONTINUOUS
 62
     3
 10
57.5882568359375
 20
189.230621337891
 30
0.0
 40
1.25
 50
90.0
 51
180.0
  0
LINE
  5
    91
  8
0
  6
DOT
 62
     3
 10
60.3382577409677
 20
179.7306252571
 30
0.0
 11
60.8382568359375
 21
179.7306252571
 31
0.0
  0
LINE
  5
    92
  8
0
  6
DOT
 62
     3
 10
60.3382577409676
 20
181.2306252571
 30
0.0
 11
60.8382568359375
 21
181.2306252571
 31
0.0
  0
LINE
  5
    93
  8
0
  6
CONTINUOUS
 62
     3
 10
168.338257745313
 20
179.730625257273
 30
0.0
 11
168.838256835938
 21
179.730625257273
 31
0.0
  0
LINE
  5
    94
  8
0
  6
CONTINUOUS
 62
     3
 10
168.338257745314
 20
181.230625257273
 30
0.0
 11
168.838256835938
 21
181.230625257273
 31
0.0
  0
ARC
  5
    95
  8
0
  6
DOT
 62
     3
 10
60.3382577401871
 20
180.480625257147
 30
0.0
 40
0.749999999345164
 50
90.0
 51
270.0
  0
ARC
  5
    96
  8
0
  6
CONTINUOUS
 62
     3
 10
61.338257740822
 20
180.480625256974
 30
0.0
 40
0.750000000009701
 50
270.0
 51
450.0
  0
LINE
  5
    97
  8
0
  6
CONTINUOUS
 62
     3
 10
60.8382568359375
 20
181.2306252571
 30
0.0
 11
61.3382577409688
 21
181.2306252571
 31
0.0
  0
LINE
  5
    98
  8
0
  6
CONTINUOUS
 62
     3
 10
60.8382568359375
 20
179.7306252571
 30
0.0
 11
61.3382577409689
 21
179.7306252571
 31
0.0
  0
ARC
  5
    99
  8
0
  6
CONTINUOUS
 62
     3
 10
168.338257745503
 20
180.480625256952
 30
0.0
 40
0.750000000048506
 50
90.0000000038822
 51
269.999999996024
  0
ARC
  5
    9A
  8
0
  6
DOT
 62
     3
 10
169.338257745421
 20
180.480625256965
 30
0.0
 40
0.750000000029104
 50
270.000000002449
 51
449.999999997486
  0
LINE
  5
    9B
  8
0
  6
DOT
 62
     3
 10
168.838256835938
 20
181.230625257273
 30
0.0
 11
169.338257745315
 21
181.230625257273
 31
0.0
  0
LINE
  5
    9C
  8
0
  6
DOT
 62
     3
 10
168.838256835938
 20
179.730625257273
 30
0.0
 11
169.338257745315
 21
179.730625257273
 31
0.0
  0
POINT
  5
    9D
  8
0
  6
CONTINUOUS
 62
     3
 10
114.838256835938
 20
109.980621337891
 30
0.0
  0
ENDBLK
  5
    9E
  8
0
  6
CONTINUOUS
 62
     7
  0
BLOCK
  5
    9F
  8
0
  6
CONTINUOUS
 62
     7
  2
*UDIM1588
 70
    65
 10
0.0
 20
0.0
 30
0.0
  3
*UDIM1588
  0
TEXT
  5
    A0
  8
0
  6
CONTINUOUS
 62
     7
 10
-1010.34812450762
 20
5.34705653352779
 30
0.0
 40
3.00000002980232
  1
161
 50
89.9999999480344
 41
0.933333333333333
 72
     1
 11
-1011.84812451899
 21
9.24705657362938
 31
0.0
 73
     2
  0
LINE
  5
    A1
  8
0
  6
CONTINUOUS
 62
     7
 10
-1026.7488791653
 20
-30.7279415130615
 30
0.0
 11
-1007.34812450409
 21
-30.7279415130615
 31
0.0
  0
LINE
  5
    A2
  8
0
  6
CONTINUOUS
 62
     7
 10
-1026.7488791653
 20
49.7720565795898
 30
0.0
 11
-1007.34812450409
 21
49.7720565795898
 31
0.0
  0
LINE
  5
    A3
  8
0
  6
CONTINUOUS
 62
     7
 10
-1009.34812450409
 20
-30.7279415130615
 30
0.0
 11
-1009.34812450409
 21
49.7720565795898
 31
0.0
  0
LINE
  5
    A4
  8
0
  6
CONTINUOUS
 62
     7
 10
-1009.86906893404
 20
-27.7735182358546
 30
0.0
 11
-1009.34812450409
 21
-30.7279415130615
 31
0.0
  0
LINE
  5
    A5
  8
0
  6
CONTINUOUS
 62
     7
 10
-1009.34812450409
 20
-30.7279415130615
 30
0.0
 11
-1008.82718007414
 21
-27.7735182358546
 31
0.0
  0
LINE
  5
    A6
  8
0
  6
CONTINUOUS
 62
     7
 10
-1008.82718007414
 20
46.8176333023829
 30
0.0
 11
-1009.34812450409
 21
49.7720565795898
 31
0.0
  0
LINE
  5
    A7
  8
0
  6
CONTINUOUS
 62
     7
 10
-1009.34812450409
 20
49.7720565795898
 30
0.0
 11
-1009.86906893404
 21
46.8176333023829
 31
0.0
  0
ENDBLK
  5
    A8
  8
0
  6
CONTINUOUS
 62
     7
  0
BLOCK
  5
    A9
  8
0
  6
CONTINUOUS
 62
     7
  2
*UDIM1589
 70
    65
 10
0.0
 20
0.0
 30
0.0
  3
*UDIM1589
  0
TEXT
  5
    AA
  8
0
  6
CONTINUOUS
 62
     7
 10
-1060.5488785259
 20
98.119735721291
 30
0.0
 40
3.00000002980232
  1
117
 50
359.999999948034
 41
0.933333333333333
 72
     1
 11
-1056.64887848581
 21
99.6197357326746
 31
0.0
 73
     2
  0
LINE
  5
    AB
  8
0
  6
CONTINUOUS
 62
     7
 10
-1027.1238791653
 20
50.1470565795898
 30
0.0
 11
-1027.1238791653
 21
99.1197357177735
 31
0.0
  0
LINE
  5
    AC
  8
0
  6
CONTINUOUS
 62
     7
 10
-1085.6238791653
 20
50.1470565795898
 30
0.0
 11
-1085.6238791653
 21
99.1197357177735
 31
0.0
  0
LINE
  5
    AD
  8
0
  6
CONTINUOUS
 62
     7
 10
-1027.1238791653
 20
97.1197357177734
 30
0.0
 11
-1085.6238791653
 21
97.1197357177734
 31
0.0
  0
LINE
  5
    AE
  8
0
  6
CONTINUOUS
 62
     7
 10
-1030.07830244251
 20
96.5987912878218
 30
0.0
 11
-1027.1238791653
 21
97.1197357177734
 31
0.0
  0
LINE
  5
    AF
  8
0
  6
CONTINUOUS
 62
     7
 10
-1027.1238791653
 20
97.1197357177734
 30
0.0
 11
-1030.07830244251
 21
97.6406801477251
 31
0.0
  0
LINE
  5
    B0
  8
0
  6
CONTINUOUS
 62
     7
 10
-1082.66945588809
 20
97.6406801477251
 30
0.0
 11
-1085.6238791653
 21
97.1197357177734
 31
0.0
  0
LINE
  5
    B1
  8
0
  6
CONTINUOUS
 62
     7
 10
-1085.6238791653
 20
97.1197357177734
 30
0.0
 11
-1082.66945588809
 21
96.5987912878218
 31
0.0
  0
ENDBLK
  5
    B2
  8
0
  6
CONTINUOUS
 62
     7
  0
BLOCK
  5
    B3
  8
0
  6
CONTINUOUS
 62
     7
  2
*UDIM1590
 70
    65
 10
0.0
 20
0.0
 30
0.0
  3
*UDIM1590
  0
TEXT
  5
    B4
  8
0
  6
CONTINUOUS
 62
     7
 10
-1131.83877563703
 20
-69.1279205577395
 30
0.0
 40
3.00000002980232
  1
46
 50
89.9999999480344
 41
0.933333333333333
 72
     1
 11
-1133.33877564967
 21
-66.6279205315456
 31
0.0
 73
     2
  0
LINE
  5
    B5
  8
0
  6
CONTINUOUS
 62
     7
 10
-1075.67436898522
 20
-77.8529187011894
 30
0.0
 11
-1132.83877563477
 21
-77.8529187011894
 31
0.0
  0
LINE
  5
    B6
  8
0
  6
CONTINUOUS
 62
     7
 10
-1112.4988867763
 20
-54.8529186544929
 30
0.0
 11
-1132.83877563477
 21
-54.8529186544929
 31
0.0
  0
LINE
  5
    B7
  8
0
  6
CONTINUOUS
 62
     7
 10
-1130.83877563477
 20
-77.8529187011894
 30
0.0
 11
-1130.83877563477
 21
-54.8529186544929
 31
0.0
  0
LINE
  5
    B8
  8
0
  6
CONTINUOUS
 62
     7
 10
-1131.35972006472
 20
-74.8984954239825
 30
0.0
 11
-1130.83877563477
 21
-77.8529187011894
 31
0.0
  0
LINE
  5
    B9
  8
0
  6
CONTINUOUS
 62
     7
 10
-1130.83877563477
 20
-77.8529187011894
 30
0.0
 11
-1130.31783120481
 21
-74.8984954239825
 31
0.0
  0
LINE
  5
    BA
  8
0
  6
CONTINUOUS
 62
     7
 10
-1130.31783120481
 20
-57.8073419316998
 30
0.0
 11
-1130.83877563477
 21
-54.8529186544929
 31
0.0
  0
LINE
  5
    BB
  8
0
  6
CONTINUOUS
 62
     7
 10
-1130.83877563477
 20
-54.8529186544929
 30
0.0
 11
-1131.35972006472
 21
-57.8073419316998
 31
0.0
  0
ENDBLK
  5
    BC
  8
0
  6
CONTINUOUS
 62
     7
  0
BLOCK
  5
    BD
  8
0
  6
CONTINUOUS
 62
     7
  2
*UDIM1591
 70
    65
 10
0.0
 20
0.0
 30
0.0
  3
*UDIM1591
  0
TEXT
  5
    BE
  8
0
  6
CONTINUOUS
 62
     7
 10
-1123.25251770753
 20
32.4595488689098
 30
0.0
 40
3.00000002980232
  1
125,25
 50
89.9999999480344
 41
0.933333333333333
 72
     1
 11
-1124.7525177151
 21
40.5595489507346
 31
0.0
 73
     2
  0
LINE
  5
    BF
  8
0
  6
CONTINUOUS
 62
     7
 10
-1112.49887652305
 20
72.1470389496145
 30
0.0
 11
-1124.2525177002
 21
72.1470389496145
 31
0.0
  0
LINE
  5
    C0
  8
0
  6
CONTINUOUS
 62
     7
 10
-1122.2525177002
 20
9.52205657958984
 30
0.0
 11
-1122.2525177002
 21
72.1470389496145
 31
0.0
  0
LINE
  5
    C1
  8
0
  6
CONTINUOUS
 62
     7
 10
-1122.77346213015
 20
12.4764798567968
 30
0.0
 11
-1122.2525177002
 21
9.52205657958984
 31
0.0
  0
LINE
  5
    C2
  8
0
  6
CONTINUOUS
 62
     7
 10
-1122.2525177002
 20
9.52205657958984
 30
0.0
 11
-1121.73157327024
 21
12.4764798567968
 31
0.0
  0
LINE
  5
    C3
  8
0
  6
CONTINUOUS
 62
     7
 10
-1121.73157327024
 20
69.1926156724075
 30
0.0
 11
-1122.2525177002
 21
72.1470389496145
 31
0.0
  0
LINE
  5
    C4
  8
0
  6
CONTINUOUS
 62
     7
 10
-1122.2525177002
 20
72.1470389496145
 30
0.0
 11
-1122.77346213015
 21
69.1926156724075
 31
0.0
  0
ENDBLK
  5
    C5
  8
0
  6
CONTINUOUS
 62
     7
  0
BLOCK
  5
    C6
  8
0
  6
CONTINUOUS
 62
     7
  2
*UDIM1592
 70
    65
 10
0.0
 20
0.0
 30
0.0
  3
*UDIM1592
  0
TEXT
  5
    C7
  8
0
  6
CONTINUOUS
 62
     7
 10
-1060.54888996999
 20
91.1510620152363
 30
0.0
 40
3.00000002980232
  1
105
 50
359.999999948034
 41
0.933333333333333
 72
     1
 11
-1056.64888992989
 21
92.6510620266199
 31
0.0
 73
     2
  0
LINE
  5
    C8
  8
0
  6
CONTINUOUS
 62
     7
 10
-1030.12389442409
 20
36.2720565795898
 30
0.0
 11
-1030.12389442409
 21
92.1510620117188
 31
0.0
  0
LINE
  5
    C9
  8
0
  6
CONTINUOUS
 62
     7
 10
-1082.62388679468
 20
36.2720565795898
 30
0.0
 11
-1082.62388679468
 21
92.1510620117188
 31
0.0
  0
LINE
  5
    CA
  8
0
  6
CONTINUOUS
 62
     7
 10
-1030.12389442409
 20
90.1510620117188
 30
0.0
 11
-1082.62388679468
 21
90.1510620117188
 31
0.0
  0
LINE
  5
    CB
  8
0
  6
CONTINUOUS
 62
     7
 10
-1033.07831770129
 20
89.6301175817671
 30
0.0
 11
-1030.12389442409
 21
90.1510620117188
 31
0.0
  0
LINE
  5
    CC
  8
0
  6
CONTINUOUS
 62
     7
 10
-1030.12389442409
 20
90.1510620117188
 30
0.0
 11
-1033.07831770129
 21
90.6720064416704
 31
0.0
  0
LINE
  5
    CD
  8
0
  6
CONTINUOUS
 62
     7
 10
-1079.66946351747
 20
90.6720064416704
 30
0.0
 11
-1082.62388679468
 21
90.1510620117188
 31
0.0
  0
LINE
  5
    CE
  8
0
  6
CONTINUOUS
 62
     7
 10
-1082.62388679468
 20
90.1510620117188
 30
0.0
 11
-1079.66946351747
 21
89.6301175817671
 31
0.0
  0
ENDBLK
  5
    CF
  8
0
  6
CONTINUOUS
 62
     7
  0
BLOCK
  5
    D0
  8
0
  6
CONTINUOUS
 62
     7
  2
*UDIM1593
 70
    65
 10
0.0
 20
0.0
 30
0.0
  3
*UDIM1593
  0
TEXT
  5
    D1
  8
0
  6
CONTINUOUS
 62
     7
 10
-1131.5032501256
 20
4.47206415461459
 30
0.0
 40
3.00000002980232
  1
254
 50
89.9999999480344
 41
0.933333333333333
 72
     1
 11
-1133.00325013697
 21
8.37206419471618
 31
0.0
 73
     2
  0
LINE
  5
    D2
  8
0
  6
CONTINUOUS
 62
     7
 10
-1112.4988867763
 20
-54.8529186544929
 30
0.0
 11
-1132.50325012207
 21
-54.8529186544929
 31
0.0
  0
LINE
  5
    D3
  8
0
  6
CONTINUOUS
 62
     7
 10
-1112.49887652305
 20
72.1470389496145
 30
0.0
 11
-1132.50325012207
 21
72.1470389496145
 31
0.0
  0
LINE
  5
    D4
  8
0
  6
CONTINUOUS
 62
     7
 10
-1130.50325012207
 20
-54.8529186544929
 30
0.0
 11
-1130.50325012207
 21
72.1470389496145
 31
0.0
  0
LINE
  5
    D5
  8
0
  6
CONTINUOUS
 62
     7
 10
-1131.02419455202
 20
-51.8984953772859
 30
0.0
 11
-1130.50325012207
 21
-54.8529186544929
 31
0.0
  0
LINE
  5
    D6
  8
0
  6
CONTINUOUS
 62
     7
 10
-1130.50325012207
 20
-54.8529186544929
 30
0.0
 11
-1129.98230569212
 21
-51.8984953772859
 31
0.0
  0
LINE
  5
    D7
  8
0
  6
CONTINUOUS
 62
     7
 10
-1129.98230569212
 20
69.1926156724075
 30
0.0
 11
-1130.50325012207
 21
72.1470389496145
 31
0.0
  0
LINE
  5
    D8
  8
0
  6
CONTINUOUS
 62
     7
 10
-1130.50325012207
 20
72.1470389496145
 30
0.0
 11
-1131.02419455202
 21
69.1926156724075
 31
0.0
  0
ENDBLK
  5
    D9
  8
0
  6
CONTINUOUS
 62
     7
  0
BLOCK
  5
    DA
  8
0
  6
CONTINUOUS
 62
     7
  2
*UDIM1594
 70
    65
 10
0.0
 20
0.0
 30
0.0
  3
*UDIM1594
  0
TEXT
  5
    DB
  8
0
  6
CONTINUOUS
 62
     7
 10
-1052.4113327728
 20
77.3263702453009
 30
0.0
 40
3.00000002980232
  1
43,75
 50
359.999999948034
 41
0.933333333333333
 72
     1
 11
-1045.71133270489
 21
78.826370254159
 31
0.0
 73
     2
  0
LINE
  5
    DC
  8
0
  6
CONTINUOUS
 62
     7
 10
-1034.4988851732
 20
-37.1029170383034
 30
0.0
 11
-1034.49884893804
 21
78.3263702392577
 31
0.0
  0
LINE
  5
    DD
  8
0
  6
CONTINUOUS
 62
     7
 10
-1056.37388648078
 20
-16.1974741521509
 30
0.0
 11
-1056.37385680819
 21
78.3263702392577
 31
0.0
  0
LINE
  5
    DE
  8
0
  6
CONTINUOUS
 62
     7
 10
-1034.49884956587
 20
76.3263702392578
 30
0.0
 11
-1056.37385743602
 21
76.3263702392578
 31
0.0
  0
LINE
  5
    DF
  8
0
  6
CONTINUOUS
 62
     7
 10
-1037.45327284308
 20
75.8054258093062
 30
0.0
 11
-1034.49884956587
 21
76.3263702392578
 31
0.0
  0
LINE
  5
    E0
  8
0
  6
CONTINUOUS
 62
     7
 10
-1034.49884956587
 20
76.3263702392578
 30
0.0
 11
-1037.45327284308
 21
76.8473146692095
 31
0.0
  0
LINE
  5
    E1
  8
0
  6
CONTINUOUS
 62
     7
 10
-1053.41943415881
 20
76.8473146692095
 30
0.0
 11
-1056.37385743602
 21
76.3263702392578
 31
0.0
  0
LINE
  5
    E2
  8
0
  6
CONTINUOUS
 62
     7
 10
-1056.37385743602
 20
76.3263702392578
 30
0.0
 11
-1053.41943415881
 21
75.8054258093062
 31
0.0
  0
ENDBLK
  5
    E3
  8
0
  6
CONTINUOUS
 62
     7
  0
BLOCK
  5
    E4
  8
0
  6
CONTINUOUS
 62
     7
  2
*UDIM1595
 70
    65
 10
0.0
 20
0.0
 30
0.0
  3
*UDIM1595
  0
TEXT
  5
    E5
  8
0
  6
CONTINUOUS
 62
     7
 10
-1074.28632513297
 20
77.3263702453009
 30
0.0
 40
3.00000002980232
  1
43,75
 50
359.999999948034
 41
0.933333333333333
 72
     1
 11
-1067.58632506506
 21
78.826370254159
 31
0.0
 73
     2
  0
LINE
  5
    E6
  8
0
  6
CONTINUOUS
 62
     7
 10
-1078.24888616561
 20
-37.1029186578499
 30
0.0
 11
-1078.24884993045
 21
78.3263702392577
 31
0.0
  0
LINE
  5
    E7
  8
0
  6
CONTINUOUS
 62
     7
 10
-1056.37385743602
 20
76.3263702392578
 30
0.0
 11
-1078.24885055829
 21
76.3263702392578
 31
0.0
  0
LINE
  5
    E8
  8
0
  6
CONTINUOUS
 62
     7
 10
-1059.32828071323
 20
75.8054258093062
 30
0.0
 11
-1056.37385743602
 21
76.3263702392578
 31
0.0
  0
LINE
  5
    E9
  8
0
  6
CONTINUOUS
 62
     7
 10
-1056.37385743602
 20
76.3263702392578
 30
0.0
 11
-1059.32828071323
 21
76.8473146692095
 31
0.0
  0
LINE
  5
    EA
  8
0
  6
CONTINUOUS
 62
     7
 10
-1075.29442728108
 20
76.8473146692095
 30
0.0
 11
-1078.24885055829
 21
76.3263702392578
 31
0.0
  0
LINE
  5
    EB
  8
0
  6
CONTINUOUS
 62
     7
 10
-1078.24885055829
 20
76.3263702392578
 30
0.0
 11
-1075.29442728108
 21
75.8054258093062
 31
0.0
  0
ENDBLK
  5
    EC
  8
0
  6
CONTINUOUS
 62
     7
  0
BLOCK
  5
    ED
  8
0
  6
CONTINUOUS
 62
     7
  2
*UDIM1596
 70
    65
 10
0.0
 20
0.0
 30
0.0
  3
*UDIM1596
  0
TEXT
  5
    EE
  8
0
  6
CONTINUOUS
 62
     7
 10
-1096.16132513889
 20
77.3263702453009
 30
0.0
 40
3.00000002980232
  1
43,75
 50
359.999999948034
 41
0.933333333333333
 72
     1
 11
-1089.46132507098
 21
78.826370254159
 31
0.0
 73
     2
  0
LINE
  5
    EF
  8
0
  6
CONTINUOUS
 62
     7
 10
-1100.12388616561
 20
-35.6621540600294
 30
0.0
 11
-1100.12385038273
 21
78.3263702392577
 31
0.0
  0
LINE
  5
    F0
  8
0
  6
CONTINUOUS
 62
     7
 10
-1078.24885055829
 20
76.3263702392578
 30
0.0
 11
-1100.12385101057
 21
76.3263702392578
 31
0.0
  0
LINE
  5
    F1
  8
0
  6
CONTINUOUS
 62
     7
 10
-1081.20327383549
 20
75.8054258093062
 30
0.0
 11
-1078.24885055829
 21
76.3263702392578
 31
0.0
  0
LINE
  5
    F2
  8
0
  6
CONTINUOUS
 62
     7
 10
-1078.24885055829
 20
76.3263702392578
 30
0.0
 11
-1081.20327383549
 21
76.8473146692095
 31
0.0
  0
LINE
  5
    F3
  8
0
  6
CONTINUOUS
 62
     7
 10
-1097.16942773336
 20
76.8473146692095
 30
0.0
 11
-1100.12385101057
 21
76.3263702392578
 31
0.0
  0
LINE
  5
    F4
  8
0
  6
CONTINUOUS
 62
     7
 10
-1100.12385101057
 20
76.3263702392578
 30
0.0
 11
-1097.16942773336
 21
75.8054258093062
 31
0.0
  0
ENDBLK
  5
    F5
  8
0
  6
CONTINUOUS
 62
     7
  0
BLOCK
  5
    F6
  8
0
  6
CONTINUOUS
 62
     7
  2
*UDIM1597
 70
    65
 10
0.0
 20
0.0
 30
0.0
  3
*UDIM1597
  0
TEXT
  5
    F7
  8
0
  6
CONTINUOUS
 62
     7
 10
-1041.64886324198
 20
84.3009796165127
 30
0.0
 40
3.00000002980232
  1
70
 50
359.999999948034
 41
0.933333333333333
 72
     1
 11
-1039.14886321579
 21
85.800979629159
 31
0.0
 73
     2
  0
LINE
  5
    F8
  8
0
  6
CONTINUOUS
 62
     7
 10
-1021.37387027064
 20
71.7470565795897
 30
0.0
 11
-1021.37386242327
 21
85.3009796142575
 31
0.0
  0
LINE
  5
    F9
  8
0
  6
CONTINUOUS
 62
     7
 10
-1056.37385926576
 20
71.8970814363247
 30
0.0
 11
-1056.37385505805
 21
85.3009796142577
 31
0.0
  0
LINE
  5
    FA
  8
0
  6
CONTINUOUS
 62
     7
 10
-1021.37386358121
 20
83.3009796142578
 30
0.0
 11
-1056.37385568589
 21
83.3009796142578
 31
0.0
  0
LINE
  5
    FB
  8
0
  6
CONTINUOUS
 62
     7
 10
-1024.32828685842
 20
82.7800351843061
 30
0.0
 11
-1021.37386358121
 21
83.3009796142578
 31
0.0
  0
LINE
  5
    FC
  8
0
  6
CONTINUOUS
 62
     7
 10
-1021.37386358121
 20
83.3009796142578
 30
0.0
 11
-1024.32828685842
 21
83.8219240442095
 31
0.0
  0
LINE
  5
    FD
  8
0
  6
CONTINUOUS
 62
     7
 10
-1053.41943240868
 20
83.8219240442095
 30
0.0
 11
-1056.37385568589
 21
83.3009796142578
 31
0.0
  0
LINE
  5
    FE
  8
0
  6
CONTINUOUS
 62
     7
 10
-1056.37385568589
 20
83.3009796142578
 30
0.0
 11
-1053.41943240868
 21
82.7800351843061
 31
0.0
  0
ENDBLK
  5
    FF
  8
0
  6
CONTINUOUS
 62
     7
  0
BLOCK
  5
   100
  8
0
  6
CONTINUOUS
 62
     7
  2
*UDIM1598
 70
    65
 10
0.0
 20
0.0
 30
0.0
  3
*UDIM1598
  0
TEXT
  5
   101
  8
0
  6
CONTINUOUS
 62
     7
 10
-1081.09876253044
 20
104.931625373517
 30
0.0
 40
3.00000002980232
  1
183,75
 50
359.999999948034
 41
0.933333333333333
 72
     1
 11
-1072.99876244862
 21
106.431625381112
 31
0.0
 73
     2
  0
LINE
  5
   102
  8
0
  6
CONTINUOUS
 62
     7
 10
-1021.37387043542
 20
71.7470565795898
 30
0.0
 11
-1021.37385627654
 21
105.931625366211
 31
0.0
  0
LINE
  5
   103
  8
0
  6
CONTINUOUS
 62
     7
 10
-1113.2488629084
 20
71.7470565795898
 30
0.0
 11
-1113.2488521773
 21
105.931625366211
 31
0.0
  0
LINE
  5
   104
  8
0
  6
CONTINUOUS
 62
     7
 10
-1021.37385710491
 20
103.931625366211
 30
0.0
 11
-1113.24885280514
 21
103.931625366211
 31
0.0
  0
LINE
  5
   105
  8
0
  6
CONTINUOUS
 62
     7
 10
-1024.32828038212
 20
103.410680936259
 30
0.0
 11
-1021.37385710491
 21
103.931625366211
 31
0.0
  0
LINE
  5
   106
  8
0
  6
CONTINUOUS
 62
     7
 10
-1021.37385710491
 20
103.931625366211
 30
0.0
 11
-1024.32828038212
 21
104.452569796163
 31
0.0
  0
LINE
  5
   107
  8
0
  6
CONTINUOUS
 62
     7
 10
-1110.29442952793
 20
104.452569796163
 30
0.0
 11
-1113.24885280514
 21
103.931625366211
 31
0.0
  0
LINE
  5
   108
  8
0
  6
CONTINUOUS
 62
     7
 10
-1113.24885280514
 20
103.931625366211
 30
0.0
 11
-1110.29442952793
 21
103.410680936259
 31
0.0
  0
ENDBLK
  5
   109
  8
0
  6
CONTINUOUS
 62
     7
  0
BLOCK
  5
   10A
  8
0
  6
CONTINUOUS
 62
     7
  2
*UDIM1599
 70
    65
 10
0.0
 20
0.0
 30
0.0
  3
*UDIM1599
  0
TEXT
  5
   10B
  8
0
  6
CONTINUOUS
 62
     7
 10
-822.526056198333
 20
8.98637868212465
 30
0.0
 40
3.00000002980232
  1
7
 50
395.236499334515
 41
0.933333333333334
 72
     1
 11
-822.493030041455
 21
10.8461930120259
 31
0.0
 73
     2
  0
TEXT
  5
   10C
  8
0
  6
CONTINUOUS
 62
     7
 10
-825.09890540785
 20
7.16897751351268
 30
0.0
 40
3.00000002980232
  1
Ø
 50
395.236499334515
 41
0.933333333333334
 72
     1
 11
-825.065879250973
 21
9.02879184341391
 31
0.0
 73
     2
  0
LINE
  5
   10D
  8
0
  6
CONTINUOUS
 62
     7
 10
-798.851115564714
 20
24.4854855118244
 30
0.0
 11
-824.521952652679
 21
6.35219998916804
 31
0.0
  0
LINE
  5
   10E
  8
0
  6
CONTINUOUS
 62
     7
 10
-796.738569356277
 20
26.6155438484002
 30
0.0
 11
-798.851115564714
 21
24.4854855118244
 31
0.0
  0
LINE
  5
   10F
  8
0
  6
CONTINUOUS
 62
     7
 10
-798.851115564714
 20
24.4854855118244
 30
0.0
 11
-796.137448713236
 21
25.7645524448595
 31
0.0
  0
LINE
  5
   110
  8
0
  6
CONTINUOUS
 62
     7
 10
-802.393022440598
 20
21.3457598625373
 30
0.0
 11
-800.280476232161
 21
23.4758181991131
 31
0.0
  0
LINE
  5
   111
  8
0
  6
CONTINUOUS
 62
     7
 10
-800.280476232161
 20
23.4758181991131
 30
0.0
 11
-802.99414308364
 21
22.196751266078
 31
0.0
  0
ENDBLK
  5
   112
  8
0
  6
CONTINUOUS
 62
     7
  0
BLOCK
  5
   113
  8
0
  6
CONTINUOUS
 62
     7
  2
*UDIM1600
 70
    65
 10
0.0
 20
0.0
 30
0.0
  3
*UDIM1600
  0
TEXT
  5
   114
  8
0
  6
CONTINUOUS
 62
     7
 10
-792.340795933307
 20
72.2668304511257
 30
0.0
 40
3.00000002980232
  1
80
 50
359.999999844103
 41
0.933333333333333
 72
     1
 11
-789.840795904398
 21
73.7668304592371
 31
0.0
 73
     2
  0
LINE
  5
   115
  8
0
  6
CONTINUOUS
 62
     7
 10
-799.565795898438
 20
62.1056518554688
 30
0.0
 11
-799.565795898438
 21
73.2668304443359
 31
0.0
  0
LINE
  5
   116
  8
0
  6
CONTINUOUS
 62
     7
 10
-779.565795898438
 20
62.1056518554688
 30
0.0
 11
-779.565795898438
 21
73.2668304443359
 31
0.0
  0
LINE
  5
   117
  8
0
  6
CONTINUOUS
 62
     7
 10
-799.565795898438
 20
71.2668304443359
 30
0.0
 11
-779.565795898438
 21
71.2668304443359
 31
0.0
  0
LINE
  5
   118
  8
0
  6
CONTINUOUS
 62
     7
 10
-796.611372621231
 20
71.7877748742876
 30
0.0
 11
-799.565795898438
 21
71.2668304443359
 31
0.0
  0
LINE
  5
   119
  8
0
  6
CONTINUOUS
 62
     7
 10
-799.565795898438
 20
71.2668304443359
 30
0.0
 11
-796.611372621231
 21
70.7458860143843
 31
0.0
  0
LINE
  5
   11A
  8
0
  6
CONTINUOUS
 62
     7
 10
-782.520219175645
 20
70.7458860143843
 30
0.0
 11
-779.565795898438
 21
71.2668304443359
 31
0.0
  0
LINE
  5
   11B
  8
0
  6
CONTINUOUS
 62
     7
 10
-779.565795898438
 20
71.2668304443359
 30
0.0
 11
-782.520219175645
 21
71.7877748742876
 31
0.0
  0
ENDBLK
  5
   11C
  8
0
  6
CONTINUOUS
 62
     7
  0
BLOCK
  5
   11D
  8
0
  6
CONTINUOUS
 62
     7
  2
*UDIM1601
 70
    65
 10
0.0
 20
0.0
 30
0.0
  3
*UDIM1601
  0
TEXT
  5
   11E
  8
0
  6
CONTINUOUS
 62
     7
 10
-793.740795947215
 20
78.7064895735802
 30
0.0
 40
3.00000002980232
  1
112
 50
359.999999844103
 41
0.933333333333333
 72
     1
 11
-789.840795904398
 21
80.2064895778894
 31
0.0
 73
     2
  0
LINE
  5
   11F
  8
0
  6
CONTINUOUS
 62
     7
 10
-803.565795898438
 20
56.7306518554688
 30
0.0
 11
-803.565795898438
 21
79.7064895629883
 31
0.0
  0
LINE
  5
   120
  8
0
  6
CONTINUOUS
 62
     7
 10
-775.565795898438
 20
56.7306518554688
 30
0.0
 11
-775.565795898438
 21
79.7064895629883
 31
0.0
  0
LINE
  5
   121
  8
0
  6
CONTINUOUS
 62
     7
 10
-803.565795898438
 20
77.7064895629883
 30
0.0
 11
-775.565795898438
 21
77.7064895629883
 31
0.0
  0
LINE
  5
   122
  8
0
  6
CONTINUOUS
 62
     7
 10
-800.611372621231
 20
78.22743399294
 30
0.0
 11
-803.565795898438
 21
77.7064895629883
 31
0.0
  0
LINE
  5
   123
  8
0
  6
CONTINUOUS
 62
     7
 10
-803.565795898438
 20
77.7064895629883
 30
0.0
 11
-800.611372621231
 21
77.1855451330366
 31
0.0
  0
LINE
  5
   124
  8
0
  6
CONTINUOUS
 62
     7
 10
-778.520219175645
 20
77.1855451330366
 30
0.0
 11
-775.565795898438
 21
77.7064895629883
 31
0.0
  0
LINE
  5
   125
  8
0
  6
CONTINUOUS
 62
     7
 10
-775.565795898438
 20
77.7064895629883
 30
0.0
 11
-778.520219175645
 21
78.22743399294
 31
0.0
  0
ENDBLK
  5
   126
  8
0
  6
CONTINUOUS
 62
     7
  0
BLOCK
  5
   127
  8
0
  6
CONTINUOUS
 62
     7
  2
*UDIM1602
 70
    65
 10
0.0
 20
0.0
 30
0.0
  3
*UDIM1602
  0
TEXT
  5
   128
  8
0
  6
CONTINUOUS
 62
     7
 10
-815.973171244718
 20
37.5556518066933
 30
0.0
 40
3.00000002980232
  1
112
 50
449.999999844103
 41
0.933333333333333
 72
     1
 11
-817.473171249032
 21
41.4556518495083
 31
0.0
 73
     2
  0
LINE
  5
   129
  8
0
  6
CONTINUOUS
 62
     7
 10
-804.565795898438
 20
55.7306518554688
 30
0.0
 11
-816.973171234131
 21
55.7306518554688
 31
0.0
  0
LINE
  5
   12A
  8
0
  6
CONTINUOUS
 62
     7
 10
-804.565795898438
 20
27.7306518554688
 30
0.0
 11
-816.973171234131
 21
27.7306518554688
 31
0.0
  0
LINE
  5
   12B
  8
0
  6
CONTINUOUS
 62
     7
 10
-814.973171234131
 20
55.7306518554688
 30
0.0
 11
-814.973171234131
 21
27.7306518554688
 31
0.0
  0
LINE
  5
   12C
  8
0
  6
CONTINUOUS
 62
     7
 10
-814.452226804179
 20
52.7762285782618
 30
0.0
 11
-814.973171234131
 21
55.7306518554688
 31
0.0
  0
LINE
  5
   12D
  8
0
  6
CONTINUOUS
 62
     7
 10
-814.973171234131
 20
55.7306518554688
 30
0.0
 11
-815.494115664083
 21
52.7762285782618
 31
0.0
  0
LINE
  5
   12E
  8
0
  6
CONTINUOUS
 62
     7
 10
-815.494115664083
 20
30.6850751326757
 30
0.0
 11
-814.973171234131
 21
27.7306518554688
 31
0.0
  0
LINE
  5
   12F
  8
0
  6
CONTINUOUS
 62
     7
 10
-814.973171234131
 20
27.7306518554688
 30
0.0
 11
-814.452226804179
 21
30.6850751326757
 31
0.0
  0
ENDBLK
  5
   130
  8
0
  6
CONTINUOUS
 62
     7
  0
BLOCK
  5
   131
  8
0
  6
CONTINUOUS
 62
     7
  2
*UDIM1603
 70
    65
 10
0.0
 20
0.0
 30
0.0
  3
*UDIM1603
  0
TEXT
  5
   132
  8
0
  6
CONTINUOUS
 62
     7
 10
-823.349506388761
 20
37.5556518066933
 30
0.0
 40
3.00000002980232
  1
142
 50
449.999999844103
 41
0.933333333333333
 72
     1
 11
-824.849506393075
 21
41.4556518495083
 31
0.0
 73
     2
  0
LINE
  5
   133
  8
0
  6
CONTINUOUS
 62
     7
 10
-802.190795898438
 20
59.4806518554688
 30
0.0
 11
-824.349506378174
 21
59.4806518554688
 31
0.0
  0
LINE
  5
   134
  8
0
  6
CONTINUOUS
 62
     7
 10
-802.190795898438
 20
23.9806518554688
 30
0.0
 11
-824.349506378174
 21
23.9806518554688
 31
0.0
  0
LINE
  5
   135
  8
0
  6
CONTINUOUS
 62
     7
 10
-822.349506378174
 20
59.4806518554688
 30
0.0
 11
-822.349506378174
 21
23.9806518554688
 31
0.0
  0
LINE
  5
   136
  8
0
  6
CONTINUOUS
 62
     7
 10
-821.828561948222
 20
56.5262285782618
 30
0.0
 11
-822.349506378174
 21
59.4806518554688
 31
0.0
  0
LINE
  5
   137
  8
0
  6
CONTINUOUS
 62
     7
 10
-822.349506378174
 20
59.4806518554688
 30
0.0
 11
-822.870450808126
 21
56.5262285782618
 31
0.0
  0
LINE
  5
   138
  8
0
  6
CONTINUOUS
 62
     7
 10
-822.870450808126
 20
26.9350751326757
 30
0.0
 11
-822.349506378174
 21
23.9806518554688
 31
0.0
  0
LINE
  5
   139
  8
0
  6
CONTINUOUS
 62
     7
 10
-822.349506378174
 20
23.9806518554688
 30
0.0
 11
-821.828561948222
 21
26.9350751326757
 31
0.0
  0
ENDBLK
  5
   13A
  8
0
  6
CONTINUOUS
 62
     7
  0
BLOCK
  5
   13B
  8
0
  6
CONTINUOUS
 62
     7
  2
*UDIM1604
 70
    65
 10
0.0
 20
0.0
 30
0.0
  3
*UDIM1604
  0
TEXT
  5
   13C
  8
0
  6
CONTINUOUS
 62
     7
 10
-977.094820027384
 20
-40.9105164332042
 30
0.0
 40
3.00000002980232
  1
16,5
 50
89.9999999480344
 41
0.933333333333333
 72
     1
 11
-978.594820037484
 21
-35.6105163791949
 31
0.0
 73
     2
  0
LINE
  5
   13D
  8
0
  6
CONTINUOUS
 62
     7
 10
-940.991467700352
 20
-54.1029842594439
 30
0.0
 11
-978.094820022583
 21
-54.1029842594439
 31
0.0
  0
LINE
  5
   13E
  8
0
  6
CONTINUOUS
 62
     7
 10
-944.70613827764
 20
-45.8529842594439
 30
0.0
 11
-978.094820022583
 21
-45.8529842594439
 31
0.0
  0
LINE
  5
   13F
  8
0
  6
CONTINUOUS
 62
     7
 10
-976.094820022583
 20
-54.1029842594439
 30
0.0
 11
-976.094820022583
 21
-30.3105163265441
 31
0.0
  0
LINE
  5
   140
  8
0
  6
CONTINUOUS
 62
     7
 10
-975.573875592631
 20
-57.0574075366509
 30
0.0
 11
-976.094820022583
 21
-54.1029842594439
 31
0.0
  0
LINE
  5
   141
  8
0
  6
CONTINUOUS
 62
     7
 10
-976.094820022583
 20
-54.1029842594439
 30
0.0
 11
-976.615764452535
 21
-57.0574075366509
 31
0.0
  0
LINE
  5
   142
  8
0
  6
CONTINUOUS
 62
     7
 10
-976.615764452535
 20
-42.8985609822369
 30
0.0
 11
-976.094820022583
 21
-45.8529842594439
 31
0.0
  0
LINE
  5
   143
  8
0
  6
CONTINUOUS
 62
     7
 10
-976.094820022583
 20
-45.8529842594439
 30
0.0
 11
-975.573875592631
 21
-42.8985609822369
 31
0.0
  0
ENDBLK
  5
   144
  8
0
  6
CONTINUOUS
 62
     7
  0
BLOCK
  5
   145
  8
0
  6
CONTINUOUS
 62
     7
  2
*UDIM1605
 70
    65
 10
0.0
 20
0.0
 30
0.0
  3
*UDIM1605
  0
TEXT
  5
   146
  8
0
  6
CONTINUOUS
 62
     7
 10
-928.591466909957
 20
92.0081481994024
 30
0.0
 40
3.00000002980232
  1
24x24
 50
359.999999948034
 41
0.933333333333333
 72
     1
 11
-921.891466842045
 21
93.5081482082605
 31
0.0
 73
     2
  0
LINE
  5
   147
  8
0
  6
CONTINUOUS
 62
     7
 10
-928.741466746678
 20
69.5220669010455
 30
0.0
 11
-928.741466746678
 21
93.0081481933594
 31
0.0
  0
LINE
  5
   148
  8
0
  6
CONTINUOUS
 62
     7
 10
-937.491467700352
 20
69.1470413208008
 30
0.0
 11
-937.491467700352
 21
93.0081481933594
 31
0.0
  0
LINE
  5
   149
  8
0
  6
CONTINUOUS
 62
     7
 10
-915.191466775487
 20
91.0081481933594
 30
0.0
 11
-937.491467700352
 21
91.0081481933594
 31
0.0
  0
LINE
  5
   14A
  8
0
  6
CONTINUOUS
 62
     7
 10
-925.787043469471
 20
91.5290926233111
 30
0.0
 11
-928.741466746678
 21
91.0081481933594
 31
0.0
  0
LINE
  5
   14B
  8
0
  6
CONTINUOUS
 62
     7
 10
-928.741466746678
 20
91.0081481933594
 30
0.0
 11
-925.787043469471
 21
90.4872037634077
 31
0.0
  0
LINE
  5
   14C
  8
0
  6
CONTINUOUS
 62
     7
 10
-940.445890977559
 20
90.4872037634077
 30
0.0
 11
-937.491467700352
 21
91.0081481933594
 31
0.0
  0
LINE
  5
   14D
  8
0
  6
CONTINUOUS
 62
     7
 10
-937.491467700352
 20
91.0081481933594
 30
0.0
 11
-940.445890977559
 21
91.5290926233111
 31
0.0
  0
ENDBLK
  5
   14E
  8
0
  6
CONTINUOUS
 62
     7
  0
BLOCK
  5
   14F
  8
0
  6
CONTINUOUS
 62
     7
  2
*HATCH1101
 70
    65
 10
0.0
 20
0.0
 30
0.0
  3
*HATCH1101
  0
LINE
  5
   150
  8
0
  6
CONTINUOUS
 62
   210
 10
222.237121582031
 20
-22.8331680297852
 30
0.0
 11
224.403930664063
 21
-24.9999752044678
 31
0.0
  0
LINE
  5
   151
  8
0
  6
CONTINUOUS
 62
   210
 10
223.646575927734
 20
-19.9999771118164
 30
0.0
 11
227.237075805664
 21
-23.5904788970947
 31
0.0
  0
ENDBLK
  5
   152
  8
0
  6
CONTINUOUS
 62
     7
  0
BLOCK
  5
   153
  8
0
  6
CONTINUOUS
 62
     7
  2
*HATCH1102
 70
    65
 10
0.0
 20
0.0
 30
0.0
  3
*HATCH1102
  0
LINE
  5
   154
  8
0
  6
CONTINUOUS
 62
   210
 10
204.102630615234
 20
-24.9999752044678
 30
0.0
 11
201.237121582031
 21
-27.8654766082764
 31
0.0
  0
LINE
  5
   155
  8
0
  6
CONTINUOUS
 62
   210
 10
205.237121582031
 20
-28.108118057251
 30
0.0
 11
201.237121582031
 21
-32.1081161499023
 31
0.0
  0
LINE
  5
   156
  8
0
  6
CONTINUOUS
 62
   210
 10
205.237121582031
 20
-32.350757598877
 30
0.0
 11
201.237121582031
 21
-36.3507537841797
 31
0.0
  0
LINE
  5
   157
  8
0
  6
CONTINUOUS
 62
   210
 10
205.237121582031
 20
-36.5933952331543
 30
0.0
 11
203.887817382813
 21
-37.9427146911621
 31
0.0
  0
ENDBLK
  5
   158
  8
0
  6
CONTINUOUS
 62
     7
  0
BLOCK
  5
   159
  8
0
  6
CONTINUOUS
 62
     7
  2
*HATCH1103
 70
    65
 10
0.0
 20
0.0
 30
0.0
  3
*HATCH1103
  0
LINE
  5
   15A
  8
0
  6
CONTINUOUS
 62
   210
 10
196.745849609375
 20
-22.797721862793
 30
0.0
 11
198.948104858398
 21
-24.9999752044678
 31
0.0
  0
LINE
  5
   15B
  8
0
  6
CONTINUOUS
 62
   210
 10
198.19075012207
 20
-19.9999771118164
 30
0.0
 11
203.190734863281
 21
-24.9999752044678
 31
0.0
  0
LINE
  5
   15C
  8
0
  6
CONTINUOUS
 62
   210
 10
202.433395385742
 20
-19.9999771118164
 30
0.0
 11
207.433380126953
 21
-24.9999752044678
 31
0.0
  0
LINE
  5
   15D
  8
0
  6
CONTINUOUS
 62
   210
 10
206.676040649414
 20
-19.9999771118164
 30
0.0
 11
211.676025390625
 21
-24.9999752044678
 31
0.0
  0
LINE
  5
   15E
  8
0
  6
CONTINUOUS
 62
   210
 10
210.918670654297
 20
-19.9999771118164
 30
0.0
 11
212.237121582031
 21
-21.3184394836426
 31
0.0
  0
ENDBLK
  5
   15F
  8
0
  6
CONTINUOUS
 62
     7
  0
BLOCK
  5
   160
  8
0
  6
CONTINUOUS
 62
     7
  2
*HATCH1104
 70
    65
 10
0.0
 20
0.0
 30
0.0
  3
*HATCH1104
  0
LINE
  5
   161
  8
0
  6
CONTINUOUS
 62
   210
 10
198.4345703125
 20
-13.6974716186523
 30
0.0
 11
196.745849609375
 21
-15.3861865997314
 31
0.0
  0
LINE
  5
   162
  8
0
  6
CONTINUOUS
 62
   210
 10
199.737075805664
 20
-16.6376056671143
 30
0.0
 11
196.745849609375
 21
-19.6288280487061
 31
0.0
  0
ENDBLK
  5
   163
  8
0
  6
CONTINUOUS
 62
     7
  0
BLOCK
  5
   164
  8
0
  6
CONTINUOUS
 62
     7
  2
*HATCH1105
 70
    65
 10
0.0
 20
0.0
 30
0.0
  3
*HATCH1105
  0
LINE
  5
   165
  8
0
  6
CONTINUOUS
 62
   210
 10
-10.7629241943359
 20
-21.0568885803223
 30
0.0
 11
-6.81984090805054
 21
-24.9999752044678
 31
0.0
  0
LINE
  5
   166
  8
0
  6
CONTINUOUS
 62
   210
 10
-7.57719612121582
 20
-19.9999771118164
 30
0.0
 11
-5.86297512054443
 21
-21.7141990661621
 31
0.0
  0
ENDBLK
  5
   167
  8
0
  6
CONTINUOUS
 62
     7
  0
BLOCK
  5
   168
  8
0
  6
CONTINUOUS
 62
     7
  2
*HATCH1106
 70
    65
 10
0.0
 20
0.0
 30
0.0
  3
*HATCH1106
  0
LINE
  5
   169
  8
0
  6
CONTINUOUS
 62
   210
 10
4.3370246887207
 20
-21.3076019287109
 30
0.0
 11
8.02939128875732
 21
-24.9999752044678
 31
0.0
  0
LINE
  5
   16A
  8
0
  6
CONTINUOUS
 62
   210
 10
7.27203750610352
 20
-19.9999771118164
 30
0.0
 11
12.2720289230347
 21
-24.9999752044678
 31
0.0
  0
LINE
  5
   16B
  8
0
  6
CONTINUOUS
 62
   210
 10
11.5146751403809
 20
-19.9999771118164
 30
0.0
 11
16.5146675109863
 21
-24.9999752044678
 31
0.0
  0
LINE
  5
   16C
  8
0
  6
CONTINUOUS
 62
   210
 10
15.7573137283325
 20
-19.9999771118164
 30
0.0
 11
19.7282981872559
 21
-23.9709663391113
 31
0.0
  0
ENDBLK
  5
   16D
  8
0
  6
CONTINUOUS
 62
     7
  0
BLOCK
  5
   16E
  8
0
  6
CONTINUOUS
 62
     7
  2
*HATCH1107
 70
    65
 10
0.0
 20
0.0
 30
0.0
  3
*HATCH1107
  0
LINE
  5
   16F
  8
0
  6
CONTINUOUS
 62
   210
 10
14.9705638885498
 20
-1.99999904632568
 30
0.0
 11
14.237024307251
 21
-2.73353862762451
 31
0.0
  0
LINE
  5
   170
  8
0
  6
CONTINUOUS
 62
   210
 10
18.237024307251
 20
-2.97617936134338
 30
0.0
 11
14.237024307251
 21
-6.9761791229248
 31
0.0
  0
LINE
  5
   171
  8
0
  6
CONTINUOUS
 62
   210
 10
18.237024307251
 20
-7.21882009506226
 30
0.0
 11
14.237024307251
 21
-11.2188205718994
 31
0.0
  0
LINE
  5
   172
  8
0
  6
CONTINUOUS
 62
   210
 10
18.237024307251
 20
-11.4614601135254
 30
0.0
 11
14.237024307251
 21
-15.461462020874
 31
0.0
  0
LINE
  5
   173
  8
0
  6
CONTINUOUS
 62
   210
 10
18.237024307251
 20
-15.7041015625
 30
0.0
 11
14.237024307251
 21
-19.7041034698486
 31
0.0
  0
LINE
  5
   174
  8
0
  6
CONTINUOUS
 62
   210
 10
18.237024307251
 20
-19.946741104126
 30
0.0
 11
18.1837902069092
 21
-19.9999771118164
 31
0.0
  0
ENDBLK
  5
   175
  8
0
  6
CONTINUOUS
 62
     7
  0
BLOCK
  5
   176
  8
0
  6
CONTINUOUS
 62
     7
  2
*HATCH1108
 70
    65
 10
0.0
 20
0.0
 30
0.0
  3
*HATCH1108
  0
LINE
  5
   177
  8
0
  6
CONTINUOUS
 62
   210
 10
15.237024307251
 20
-25.0680618286133
 30
0.0
 11
11.237024307251
 21
-29.0680618286133
 31
0.0
  0
LINE
  5
   178
  8
0
  6
CONTINUOUS
 62
   210
 10
15.237024307251
 20
-29.3107032775879
 30
0.0
 11
11.237024307251
 21
-33.3107032775879
 31
0.0
  0
LINE
  5
   179
  8
0
  6
CONTINUOUS
 62
   210
 10
15.237024307251
 20
-33.5533447265625
 30
0.0
 11
11.237024307251
 21
-37.5533409118652
 31
0.0
  0
LINE
  5
   17A
  8
0
  6
CONTINUOUS
 62
   210
 10
15.237024307251
 20
-37.7959823608398
 30
0.0
 11
11.7791585922241
 21
-41.253849029541
 31
0.0
  0
ENDBLK
  5
   17B
  8
0
  6
CONTINUOUS
 62
     7
  0
BLOCK
  5
   17C
  8
0
  6
CONTINUOUS
 62
     7
  2
*HATCH1109
 70
    65
 10
0.0
 20
0.0
 30
0.0
  3
*HATCH1109
  0
LINE
  5
   17D
  8
0
  6
CONTINUOUS
 62
    52
 10
187.863540649414
 20
-106.999984741211
 30
0.0
 11
185.863540649414
 21
-108.999984741211
 31
0.0
  0
LINE
  5
   17E
  8
0
  6
CONTINUOUS
 62
    52
 10
192.106185913086
 20
-106.999984741211
 30
0.0
 11
190.106185913086
 21
-108.999984741211
 31
0.0
  0
LINE
  5
   17F
  8
0
  6
CONTINUOUS
 62
    52
 10
196.348831176758
 20
-106.999984741211
 30
0.0
 11
194.348831176758
 21
-108.999984741211
 31
0.0
  0
LINE
  5
   180
  8
0
  6
CONTINUOUS
 62
    52
 10
200.59147644043
 20
-106.999984741211
 30
0.0
 11
198.59147644043
 21
-108.999984741211
 31
0.0
  0
LINE
  5
   181
  8
0
  6
CONTINUOUS
 62
    52
 10
204.834121704102
 20
-106.999984741211
 30
0.0
 11
202.834121704102
 21
-108.999984741211
 31
0.0
  0
LINE
  5
   182
  8
0
  6
CONTINUOUS
 62
    52
 10
209.076766967773
 20
-106.999984741211
 30
0.0
 11
207.076766967773
 21
-108.999984741211
 31
0.0
  0
LINE
  5
   183
  8
0
  6
CONTINUOUS
 62
    52
 10
213.319412231445
 20
-106.999984741211
 30
0.0
 11
211.319412231445
 21
-108.999984741211
 31
0.0
  0
LINE
  5
   184
  8
0
  6
CONTINUOUS
 62
    52
 10
217.562057495117
 20
-106.999984741211
 30
0.0
 11
215.562057495117
 21
-108.999984741211
 31
0.0
  0
LINE
  5
   185
  8
0
  6
CONTINUOUS
 62
    52
 10
221.804702758789
 20
-106.999984741211
 30
0.0
 11
219.804702758789
 21
-108.999984741211
 31
0.0
  0
LINE
  5
   186
  8
0
  6
CONTINUOUS
 62
    52
 10
226.047348022461
 20
-106.999984741211
 30
0.0
 11
224.047348022461
 21
-108.999984741211
 31
0.0
  0
LINE
  5
   187
  8
0
  6
CONTINUOUS
 62
    52
 10
230.289993286133
 20
-106.999984741211
 30
0.0
 11
228.289993286133
 21
-108.999984741211
 31
0.0
  0
LINE
  5
   188
  8
0
  6
CONTINUOUS
 62
    52
 10
234.532638549805
 20
-106.999984741211
 30
0.0
 11
232.532638549805
 21
-108.999984741211
 31
0.0
  0
LINE
  5
   189
  8
0
  6
CONTINUOUS
 62
    52
 10
238.775283813477
 20
-106.999984741211
 30
0.0
 11
236.775283813477
 21
-108.999984741211
 31
0.0
  0
LINE
  5
   18A
  8
0
  6
CONTINUOUS
 62
    52
 10
243.017929077148
 20
-106.999984741211
 30
0.0
 11
241.017929077148
 21
-108.999984741211
 31
0.0
  0
LINE
  5
   18B
  8
0
  6
CONTINUOUS
 62
    52
 10
247.26057434082
 20
-106.999984741211
 30
0.0
 11
245.26057434082
 21
-108.999984741211
 31
0.0
  0
LINE
  5
   18C
  8
0
  6
CONTINUOUS
 62
    52
 10
251.503219604492
 20
-106.999984741211
 30
0.0
 11
249.503219604492
 21
-108.999984741211
 31
0.0
  0
LINE
  5
   18D
  8
0
  6
CONTINUOUS
 62
    52
 10
255.745864868164
 20
-106.999984741211
 30
0.0
 11
253.745864868164
 21
-108.999984741211
 31
0.0
  0
LINE
  5
   18E
  8
0
  6
CONTINUOUS
 62
    52
 10
259.281341552734
 20
-107.707077026367
 30
0.0
 11
257.988433837891
 21
-108.999984741211
 31
0.0
  0
ENDBLK
  5
   18F
  8
0
  6
CONTINUOUS
 62
     7
  0
BLOCK
  5
   190
  8
0
  6
CONTINUOUS
 62
     7
  2
*HATCH1110
 70
    65
 10
0.0
 20
0.0
 30
0.0
  3
*HATCH1110
  0
LINE
  5
   191
  8
0
  6
CONTINUOUS
 62
    52
 10
168.771667480469
 20
-106.999984741211
 30
0.0
 11
166.771667480469
 21
-108.999984741211
 31
0.0
  0
LINE
  5
   192
  8
0
  6
CONTINUOUS
 62
    52
 10
173.014312744141
 20
-106.999984741211
 30
0.0
 11
171.014312744141
 21
-108.999984741211
 31
0.0
  0
LINE
  5
   193
  8
0
  6
CONTINUOUS
 62
    52
 10
177.256958007812
 20
-106.999984741211
 30
0.0
 11
175.256958007813
 21
-108.999984741211
 31
0.0
  0
ENDBLK
  5
   194
  8
0
  6
CONTINUOUS
 62
     7
  0
BLOCK
  5
   195
  8
0
  6
CONTINUOUS
 62
     7
  2
*HATCH1111
 70
    65
 10
0.0
 20
0.0
 30
0.0
  3
*HATCH1111
  0
LINE
  5
   196
  8
0
  6
CONTINUOUS
 62
    52
 10
45.7350769042969
 20
-106.999984741211
 30
0.0
 11
43.7350769042969
 21
-108.999984741211
 31
0.0
  0
LINE
  5
   197
  8
0
  6
CONTINUOUS
 62
    52
 10
49.9777145385742
 20
-106.999984741211
 30
0.0
 11
47.9777145385742
 21
-108.999984741211
 31
0.0
  0
LINE
  5
   198
  8
0
  6
CONTINUOUS
 62
    52
 10
53.9806251525879
 20
-107.239715576172
 30
0.0
 11
52.2203598022461
 21
-108.999984741211
 31
0.0
  0
ENDBLK
  5
   199
  8
0
  6
CONTINUOUS
 62
     7
  0
BLOCK
  5
   19A
  8
0
  6
CONTINUOUS
 62
     7
  2
*HATCH1112
 70
    65
 10
0.0
 20
0.0
 30
0.0
  3
*HATCH1112
  0
LINE
  5
   19B
  8
0
  6
CONTINUOUS
 62
    52
 10
-41.2390594482422
 20
-106.999984741211
 30
0.0
 11
-43.2390594482422
 21
-108.999984741211
 31
0.0
  0
LINE
  5
   19C
  8
0
  6
CONTINUOUS
 62
    52
 10
-36.9964218139648
 20
-106.999984741211
 30
0.0
 11
-38.9964218139648
 21
-108.999984741211
 31
0.0
  0
LINE
  5
   19D
  8
0
  6
CONTINUOUS
 62
    52
 10
-32.7537841796875
 20
-106.999984741211
 30
0.0
 11
-34.7537841796875
 21
-108.999984741211
 31
0.0
  0
LINE
  5
   19E
  8
0
  6
CONTINUOUS
 62
    52
 10
-28.5111427307129
 20
-106.999984741211
 30
0.0
 11
-30.5111446380615
 21
-108.999984741211
 31
0.0
  0
LINE
  5
   19F
  8
0
  6
CONTINUOUS
 62
    52
 10
-24.2685012817383
 20
-106.999984741211
 30
0.0
 11
-26.2685031890869
 21
-108.999984741211
 31
0.0
  0
LINE
  5
   1A0
  8
0
  6
CONTINUOUS
 62
    52
 10
-20.0258598327637
 20
-106.999984741211
 30
0.0
 11
-22.0258617401123
 21
-108.999984741211
 31
0.0
  0
LINE
  5
   1A1
  8
0
  6
CONTINUOUS
 62
    52
 10
-15.7832183837891
 20
-106.999984741211
 30
0.0
 11
-17.7832202911377
 21
-108.999984741211
 31
0.0
  0
LINE
  5
   1A2
  8
0
  6
CONTINUOUS
 62
    52
 10
-11.5405769348145
 20
-106.999984741211
 30
0.0
 11
-13.5405788421631
 21
-108.999984741211
 31
0.0
  0
LINE
  5
   1A3
  8
0
  6
CONTINUOUS
 62
    52
 10
-7.297935962677
 20
-106.999984741211
 30
0.0
 11
-9.29793739318848
 21
-108.999984741211
 31
0.0
  0
LINE
  5
   1A4
  8
0
  6
CONTINUOUS
 62
    52
 10
-3.05529546737671
 20
-106.999984741211
 30
0.0
 11
-5.05529689788818
 21
-108.999984741211
 31
0.0
  0
LINE
  5
   1A5
  8
0
  6
CONTINUOUS
 62
    52
 10
1.18734502792358
 20
-106.999984741211
 30
0.0
 11
-0.812656402587891
 21
-108.999984741211
 31
0.0
  0
LINE
  5
   1A6
  8
0
  6
CONTINUOUS
 62
    52
 10
5.42998552322388
 20
-106.999984741211
 30
0.0
 11
3.4299840927124
 21
-108.999984741211
 31
0.0
  0
LINE
  5
   1A7
  8
0
  6
CONTINUOUS
 62
    52
 10
9.67262649536133
 20
-106.999984741211
 30
0.0
 11
7.6726245880127
 21
-108.999984741211
 31
0.0
  0
LINE
  5
   1A8
  8
0
  6
CONTINUOUS
 62
    52
 10
13.9152679443359
 20
-106.999984741211
 30
0.0
 11
11.9152660369873
 21
-108.999984741211
 31
0.0
  0
LINE
  5
   1A9
  8
0
  6
CONTINUOUS
 62
    52
 10
18.1579093933105
 20
-106.999984741211
 30
0.0
 11
16.1579074859619
 21
-108.999984741211
 31
0.0
  0
LINE
  5
   1AA
  8
0
  6
CONTINUOUS
 62
    52
 10
22.4005508422852
 20
-106.999984741211
 30
0.0
 11
20.4005489349365
 21
-108.999984741211
 31
0.0
  0
LINE
  5
   1AB
  8
0
  6
CONTINUOUS
 62
    52
 10
26.6431922912598
 20
-106.999984741211
 30
0.0
 11
24.6431903839111
 21
-108.999984741211
 31
0.0
  0
LINE
  5
   1AC
  8
0
  6
CONTINUOUS
 62
    52
 10
30.8858337402344
 20
-106.999984741211
 30
0.0
 11
28.8858318328857
 21
-108.999984741211
 31
0.0
  0
LINE
  5
   1AD
  8
0
  6
CONTINUOUS
 62
    52
 10
35.1284713745117
 20
-106.999984741211
 30
0.0
 11
33.1284713745117
 21
-108.999984741211
 31
0.0
  0
ENDBLK
  5
   1AE
  8
0
  6
CONTINUOUS
 62
     7
  0
BLOCK
  5
   1AF
  8
0
  6
CONTINUOUS
 62
   212
  2
*HATCH1113
 70
    65
 10
0.0
 20
0.0
 30
0.0
  3
*HATCH1113
  0
LINE
  5
   1B0
  8
0
  6
CONTINUOUS
 62
     3
 10
25.5903835296631
 20
229.237121582031
 30
0.0
 11
24.9999752044678
 21
228.646713256836
 31
0.0
  0
LINE
  5
   1B1
  8
0
  6
CONTINUOUS
 62
     3
 10
26.6510429382324
 20
229.237121582031
 30
0.0
 11
24.9999752044678
 21
227.586059570313
 31
0.0
  0
LINE
  5
   1B2
  8
0
  6
CONTINUOUS
 62
     3
 10
27.7117023468018
 20
229.237121582031
 30
0.0
 11
24.9999752044678
 21
226.525405883789
 31
0.0
  0
LINE
  5
   1B3
  8
0
  6
CONTINUOUS
 62
     3
 10
27.9999752044678
 20
228.464736938477
 30
0.0
 11
24.9999752044678
 21
225.464736938477
 31
0.0
  0
LINE
  5
   1B4
  8
0
  6
CONTINUOUS
 62
     3
 10
27.9999752044678
 20
227.404083251953
 30
0.0
 11
24.9999752044678
 21
224.404083251953
 31
0.0
  0
LINE
  5
   1B5
  8
0
  6
CONTINUOUS
 62
     3
 10
27.9999752044678
 20
226.34342956543
 30
0.0
 11
24.9999752044678
 21
223.34342956543
 31
0.0
  0
LINE
  5
   1B6
  8
0
  6
CONTINUOUS
 62
     3
 10
27.9999752044678
 20
225.282760620117
 30
0.0
 11
25.0860538482666
 21
222.368835449219
 31
0.0
  0
LINE
  5
   1B7
  8
0
  6
CONTINUOUS
 62
     3
 10
27.9999752044678
 20
224.222091674805
 30
0.0
 11
25.3022117614746
 21
221.524337768555
 31
0.0
  0
LINE
  5
   1B8
  8
0
  6
CONTINUOUS
 62
     3
 10
27.9999752044678
 20
223.161437988281
 30
0.0
 11
25.809118270874
 21
220.970581054687
 31
0.0
  0
LINE
  5
   1B9
  8
0
  6
CONTINUOUS
 62
     3
 10
28.0257816314697
 20
222.126586914063
 30
0.0
 11
26.4221134185791
 21
220.522918701172
 31
0.0
  0
LINE
  5
   1BA
  8
0
  6
CONTINUOUS
 62
     3
 10
28.8005409240723
 20
221.840682983398
 30
0.0
 11
27.2074432373047
 21
220.247589111328
 31
0.0
  0
LINE
  5
   1BB
  8
0
  6
CONTINUOUS
 62
     3
 10
29.5403881072998
 20
221.519866943359
 30
0.0
 11
28.0305690765381
 21
220.010055541992
 31
0.0
  0
LINE
  5
   1BC
  8
0
  6
CONTINUOUS
 62
     3
 10
30.1387367248535
 20
221.057556152344
 30
0.0
 11
28.7168731689453
 21
219.635696411133
 31
0.0
  0
LINE
  5
   1BD
  8
0
  6
CONTINUOUS
 62
     3
 10
30.7056198120117
 20
220.563781738281
 30
0.0
 11
29.2867774963379
 21
219.144943237305
 31
0.0
  0
LINE
  5
   1BE
  8
0
  6
CONTINUOUS
 62
     3
 10
31.1412200927734
 20
219.938720703125
 30
0.0
 11
29.6926612854004
 21
218.490173339844
 31
0.0
  0
LINE
  5
   1BF
  8
0
  6
CONTINUOUS
 62
     3
 10
31.539701461792
 20
219.27653503418
 30
0.0
 11
29.921215057373
 21
217.658050537109
 31
0.0
  0
LINE
  5
   1C0
  8
0
  6
CONTINUOUS
 62
     3
 10
31.7932090759277
 20
218.469390869141
 30
0.0
 11
29.8708515167236
 21
216.547027587891
 31
0.0
  0
LINE
  5
   1C1
  8
0
  6
CONTINUOUS
 62
     3
 10
27.6921787261963
 20
214.368362426758
 30
0.0
 11
24.9999752044678
 21
211.676162719727
 31
0.0
  0
LINE
  5
   1C2
  8
0
  6
CONTINUOUS
 62
     3
 10
31.9422054290771
 20
217.557723999023
 30
0.0
 11
24.9999752044678
 21
210.615493774414
 31
0.0
  0
LINE
  5
   1C3
  8
0
  6
CONTINUOUS
 62
     3
 10
31.9422054290771
 20
216.4970703125
 30
0.0
 11
24.9999752044678
 21
209.554840087891
 31
0.0
  0
LINE
  5
   1C4
  8
0
  6
CONTINUOUS
 62
     3
 10
31.3708839416504
 20
214.865081787109
 30
0.0
 11
29.337532043457
 21
212.831726074219
 31
0.0
  0
LINE
  5
   1C5
  8
0
  6
CONTINUOUS
 62
     3
 10
27.9999752044678
 20
211.494171142578
 30
0.0
 11
24.9999752044678
 21
208.494171142578
 31
0.0
  0
LINE
  5
   1C6
  8
0
  6
CONTINUOUS
 62
     3
 10
27.9999752044678
 20
210.433517456055
 30
0.0
 11
24.9999752044678
 21
207.433517456055
 31
0.0
  0
LINE
  5
   1C7
  8
0
  6
CONTINUOUS
 62
     3
 10
27.9999752044678
 20
209.372863769531
 30
0.0
 11
24.9999752044678
 21
206.372863769531
 31
0.0
  0
LINE
  5
   1C8
  8
0
  6
CONTINUOUS
 62
     3
 10
27.9999752044678
 20
208.312210083008
 30
0.0
 11
24.9999752044678
 21
205.312210083008
 31
0.0
  0
LINE
  5
   1C9
  8
0
  6
CONTINUOUS
 62
     3
 10
27.9999752044678
 20
207.251541137695
 30
0.0
 11
25.9855670928955
 21
205.237121582031
 31
0.0
  0
LINE
  5
   1CA
  8
0
  6
CONTINUOUS
 62
     3
 10
27.9999752044678
 20
206.190887451172
 30
0.0
 11
27.0462265014648
 21
205.237121582031
 31
0.0
  0
ENDBLK
  5
   1CB
  8
0
  6
CONTINUOUS
 62
   212
  0
BLOCK
  5
   1CC
  8
0
  6
CONTINUOUS
 62
     1
  2
*HATCH1114
 70
    65
 10
0.0
 20
0.0
 30
0.0
  3
*HATCH1114
  0
LINE
  5
   1CD
  8
0
  6
CONTINUOUS
 62
     3
 10
63.7741508483887
 20
229.237121582031
 30
0.0
 11
62.9999732971191
 21
228.462951660156
 31
0.0
  0
LINE
  5
   1CE
  8
0
  6
CONTINUOUS
 62
     3
 10
64.8348083496094
 20
229.237121582031
 30
0.0
 11
62.9999732971191
 21
227.402297973633
 31
0.0
  0
LINE
  5
   1CF
  8
0
  6
CONTINUOUS
 62
     3
 10
65.8954696655274
 20
229.237121582031
 30
0.0
 11
62.9999732971191
 21
226.341644287109
 31
0.0
  0
LINE
  5
   1D0
  8
0
  6
CONTINUOUS
 62
     3
 10
66.9561309814453
 20
229.237121582031
 30
0.0
 11
62.9999732971191
 21
225.280990600586
 31
0.0
  0
LINE
  5
   1D1
  8
0
  6
CONTINUOUS
 62
     3
 10
66.9999771118164
 20
228.220306396484
 30
0.0
 11
64.0167922973633
 21
225.237121582031
 31
0.0
  0
LINE
  5
   1D2
  8
0
  6
CONTINUOUS
 62
     3
 10
66.9999771118164
 20
227.159652709961
 30
0.0
 11
65.0774536132813
 21
225.237121582031
 31
0.0
  0
LINE
  5
   1D3
  8
0
  6
CONTINUOUS
 62
     3
 10
66.9999771118164
 20
226.098999023438
 30
0.0
 11
66.1381149291992
 21
225.237121582031
 31
0.0
  0
ENDBLK
  5
   1D4
  8
0
  6
CONTINUOUS
 62
     1
  0
BLOCK
  5
   1D5
  8
0
  6
CONTINUOUS
 62
     1
  2
*HATCH1115
 70
    65
 10
0.0
 20
0.0
 30
0.0
  3
*HATCH1115
  0
LINE
  5
   1D6
  8
0
  6
CONTINUOUS
 62
     3
 10
63.9266929626465
 20
209.237121582031
 30
0.0
 11
62.9999732971191
 21
208.310409545898
 31
0.0
  0
LINE
  5
   1D7
  8
0
  6
CONTINUOUS
 62
     3
 10
64.9873504638672
 20
209.237121582031
 30
0.0
 11
62.9999732971191
 21
207.249755859375
 31
0.0
  0
LINE
  5
   1D8
  8
0
  6
CONTINUOUS
 62
     3
 10
66.0480117797852
 20
209.237121582031
 30
0.0
 11
62.9999732971191
 21
206.189102172852
 31
0.0
  0
LINE
  5
   1D9
  8
0
  6
CONTINUOUS
 62
     3
 10
66.9999771118164
 20
209.128433227539
 30
0.0
 11
63.1086730957031
 21
205.237121582031
 31
0.0
  0
LINE
  5
   1DA
  8
0
  6
CONTINUOUS
 62
     3
 10
66.9999771118164
 20
208.067779541016
 30
0.0
 11
64.1693344116211
 21
205.237121582031
 31
0.0
  0
LINE
  5
   1DB
  8
0
  6
CONTINUOUS
 62
     3
 10
66.9999771118164
 20
207.007125854492
 30
0.0
 11
65.2299957275391
 21
205.237121582031
 31
0.0
  0
LINE
  5
   1DC
  8
0
  6
CONTINUOUS
 62
     3
 10
66.9999771118164
 20
205.946472167969
 30
0.0
 11
66.290657043457
 21
205.237121582031
 31
0.0
  0
ENDBLK
  5
   1DD
  8
0
  6
CONTINUOUS
 62
     1
  0
BLOCK
  5
   1DE
  8
0
  6
CONTINUOUS
 62
     7
  2
$1140422
 70
    64
 10
0.0
 20
0.0
 30
0.0
  3
$1140422
  0
LINE
  5
   1DF
  8
0
  6
CONTINUOUS
 62
     2
 10
57.9999747555458
 20
225.237126966153
 30
0.0
 11
86.4999747555458
 21
225.237126966153
 31
0.0
  0
LINE
  5
   1E0
  8
0
  6
CONTINUOUS
 62
     2
 10
57.9999747555457
 20
209.237126966153
 30
0.0
 11
86.4999747555458
 21
209.237126966153
 31
0.0
  0
LINE
  5
   1E1
  8
0
  6
DASHDOT
 62
     2
 10
52.9999747555458
 20
213.237126966153
 30
0.0
 11
52.9999747555458
 21
221.237126966153
 31
0.0
  0
LINE
  5
   1E2
  8
0
  6
CONTINUOUS
 62
     2
 10
87.4999747555458
 20
210.237126966153
 30
0.0
 11
87.4999747555458
 21
224.237126966153
 31
0.0
  0
LINE
  5
   1E3
  8
0
  6
CONTINUOUS
 62
     2
 10
56.9999747555458
 20
210.237126966153
 30
0.0
 11
56.9999747555458
 21
224.237126966153
 31
0.0
  0
LINE
  5
   1E4
  8
0
  6
DASHDOT
 62
     2
 10
52.9999747555458
 20
221.237126966153
 30
0.0
 11
56.9999747555458
 21
221.237126966153
 31
0.0
  0
LINE
  5
   1E5
  8
0
  6
DASHDOT
 62
     2
 10
52.9999747555458
 20
213.237126966153
 30
0.0
 11
56.9999747555458
 21
213.237126966153
 31
0.0
  0
LINE
  5
   1E6
  8
0
  6
CONTINUOUS
 62
     2
 10
56.9999747555458
 20
224.237126966153
 30
0.0
 11
57.9999747555457
 21
225.237126966153
 31
0.0
  0
LINE
  5
   1E7
  8
0
  6
CONTINUOUS
 62
     2
 10
56.9999747555458
 20
210.237126966153
 30
0.0
 11
57.9999747555458
 21
209.237126966153
 31
0.0
  0
LINE
  5
   1E8
  8
0
  6
CONTINUOUS
 62
     2
 10
86.4999747555458
 20
209.237126966153
 30
0.0
 11
87.4999747555457
 21
210.237126966153
 31
0.0
  0
LINE
  5
   1E9
  8
0
  6
CONTINUOUS
 62
     2
 10
86.4999747555458
 20
225.237126966153
 30
0.0
 11
87.4999747555458
 21
224.237126966153
 31
0.0
  0
LINE
  5
   1EA
  8
0
  6
CONTINUOUS
 62
     2
 10
57.9999747555457
 20
224.237126966153
 30
0.0
 11
86.4999747555458
 21
224.237126966153
 31
0.0
  0
LINE
  5
   1EB
  8
0
  6
CONTINUOUS
 62
     2
 10
57.9999747555457
 20
210.237126966153
 30
0.0
 11
86.4999747555458
 21
210.237126966153
 31
0.0
  0
LINE
  5
   1EC
  8
0
  6
CONTINUOUS
 62
     2
 10
86.4999747555458
 20
209.237126966153
 30
0.0
 11
86.4999747555458
 21
225.237126966153
 31
0.0
  0
LINE
  5
   1ED
  8
0
  6
CONTINUOUS
 62
     2
 10
57.9999747555457
 20
209.237126966153
 30
0.0
 11
57.9999747555457
 21
225.237126966153
 31
0.0
  0
LINE
  5
   1EE
  8
0
  6
CONTINUOUS
 62
    98
 10
50.4999747555458
 20
206.487126966153
 30
0.0
 11
50.4999747555458
 21
227.987126966153
 31
0.0
  0
LINE
  5
   1EF
  8
0
  6
CONTINUOUS
 62
    98
 10
56.9999747555458
 20
211.737126966153
 30
0.0
 11
56.9999747555458
 21
222.737126966153
 31
0.0
  0
LINE
  5
   1F0
  8
0
  6
DASHDOT
 62
     2
 10
43.1520345016092
 20
217.237126966153
 30
0.0
 11
93.2587203771848
 21
217.237126966153
 31
0.0
  0
LINE
  5
   1F1
  8
0
  6
CONTINUOUS
 62
    98
 10
50.4999747555458
 20
227.987126966153
 30
0.0
 11
54.6132224813819
 21
227.987126966153
 31
0.0
  0
LINE
  5
   1F2
  8
0
  6
CONTINUOUS
 62
    98
 10
50.4999747555458
 20
206.487126966153
 30
0.0
 11
54.6132224813819
 21
206.487126966153
 31
0.0
  0
POINT
  5
   1F3
  8
0
  6
CONTINUOUS
 62
    98
 10
52.9999747555458
 20
217.237126966153
 30
0.0
  0
LINE
  5
   1F4
  8
0
  6
CONTINUOUS
 62
    98
 10
52.9999747555458
 20
206.487126966153
 30
0.0
 11
52.9999747555458
 21
227.987126966153
 31
0.0
  0
LINE
  5
   1F5
  8
0
  6
CONTINUOUS
 62
    98
 10
54.6132224813819
 20
222.737126966153
 30
0.0
 11
56.9999747555458
 21
222.737126966153
 31
0.0
  0
LINE
  5
   1F6
  8
0
  6
CONTINUOUS
 62
    98
 10
54.6132224813819
 20
211.737126966153
 30
0.0
 11
56.9999747555458
 21
211.737126966153
 31
0.0
  0
LINE
  5
   1F7
  8
0
  6
CONTINUOUS
 62
    98
 10
54.6132224813819
 20
206.487126966153
 30
0.0
 11
54.6132224813819
 21
208.119092977403
 31
0.0
  0
ARC
  5
   1F8
  8
0
  6
CONTINUOUS
 62
    98
 10
55.6132224813819
 20
225.237126966153
 30
0.0
 40
1.50000000000001
 50
131.810314895777
 51
228.189685104223
  0
LINE
  5
   1F9
  8
0
  6
CONTINUOUS
 62
    98
 10
54.6132224813819
 20
226.355160954903
 30
0.0
 11
54.6132224813819
 21
227.987126966153
 31
0.0
  0
ARC
  5
   1FA
  8
0
  6
CONTINUOUS
 62
    98
 10
55.6132224813819
 20
209.237126966153
 30
0.0
 40
1.50000000000001
 50
131.810314895756
 51
228.189685104244
  0
LINE
  5
   1FB
  8
0
  6
CONTINUOUS
 62
    98
 10
54.6132224813819
 20
210.355160954904
 30
0.0
 11
54.6132224813819
 21
224.119092977403
 31
0.0
  0
ENDBLK
  5
   1FC
  8
0
  6
CONTINUOUS
 62
     7
  0
BLOCK
  5
   1FD
  8
0
  6
CONTINUOUS
 62
     0
  2
*HATCH1116
 70
    65
 10
0.0
 20
0.0
 30
0.0
  3
*HATCH1116
  0
LINE
  5
   1FE
  8
0
  6
CONTINUOUS
 62
     3
 10
32.3724822998047
 20
265.717712402344
 30
0.0
 11
30.0925788879395
 21
263.437805175781
 31
0.0
  0
LINE
  5
   1FF
  8
0
  6
CONTINUOUS
 62
     3
 10
33.7631607055664
 20
266.047729492188
 30
0.0
 11
30.4987564086914
 21
262.783325195313
 31
0.0
  0
LINE
  5
   200
  8
0
  6
CONTINUOUS
 62
     3
 10
34.9620780944824
 20
266.185974121094
 30
0.0
 11
31.0933647155762
 21
262.317260742188
 31
0.0
  0
LINE
  5
   201
  8
0
  6
CONTINUOUS
 62
     3
 10
36.0633277893066
 20
266.2265625
 30
0.0
 11
31.7850952148438
 21
261.948333740234
 31
0.0
  0
LINE
  5
   202
  8
0
  6
CONTINUOUS
 62
     3
 10
37.0677185058594
 20
266.170288085938
 30
0.0
 11
32.5846748352051
 21
261.687255859375
 31
0.0
  0
LINE
  5
   203
  8
0
  6
CONTINUOUS
 62
     3
 10
38.0029525756836
 20
266.044891357422
 30
0.0
 11
33.4413261413574
 21
261.483245849609
 31
0.0
  0
LINE
  5
   204
  8
0
  6
CONTINUOUS
 62
     3
 10
38.894229888916
 20
265.87548828125
 30
0.0
 11
34.3430480957031
 21
261.324310302734
 31
0.0
  0
LINE
  5
   205
  8
0
  6
CONTINUOUS
 62
     3
 10
39.6938095092773
 20
265.614410400391
 30
0.0
 11
35.3461494445801
 21
261.266754150391
 31
0.0
  0
LINE
  5
   206
  8
0
  6
CONTINUOUS
 62
     3
 10
40.4253005981445
 20
265.285247802734
 30
0.0
 11
36.4069862365723
 21
261.266937255859
 31
0.0
  0
LINE
  5
   207
  8
0
  6
CONTINUOUS
 62
     3
 10
41.0738410949707
 20
264.873138427734
 30
0.0
 11
37.5503082275391
 21
261.349578857422
 31
0.0
  0
LINE
  5
   208
  8
0
  6
CONTINUOUS
 62
     3
 10
41.5724143981934
 20
264.31103515625
 30
0.0
 11
38.8436012268066
 21
261.582214355469
 31
0.0
  0
LINE
  5
   209
  8
0
  6
CONTINUOUS
 62
     3
 10
41.6114654541016
 20
263.289428710938
 30
0.0
 11
40.6177940368652
 21
262.295745849609
 31
0.0
  0
ENDBLK
  5
   20A
  8
0
  6
CONTINUOUS
 62
     0
  0
BLOCK
  5
   20B
  8
0
  6
CONTINUOUS
 62
     0
  2
$1CAVO
 70
    64
 10
0.0
 20
0.0
 30
0.0
  3
$1CAVO
  0
LINE
  5
   20C
  8
0
  6
CONTINUOUS
 62
     0
 10
32.9999747555458
 20
206.237126966153
 30
0.0
 11
50.4999747555458
 21
206.237126966153
 31
0.0
  0
LINE
  5
   20D
  8
0
  6
CONTINUOUS
 62
     0
 10
32.9999747555458
 20
206.237126966153
 30
0.0
 11
32.9999747555458
 21
233.237126966153
 31
0.0
  0
LINE
  5
   20E
  8
0
  6
CONTINUOUS
 62
     0
 10
50.4999747555458
 20
206.237126966153
 30
0.0
 11
50.4999747555458
 21
233.237126966153
 31
0.0
  0
LINE
  5
   20F
  8
0
  6
CONTINUOUS
 62
     0
 10
29.9999747555458
 20
233.237126966153
 30
0.0
 11
29.9999747555458
 21
263.737126966153
 31
0.0
  0
LINE
  5
   210
  8
0
  6
CONTINUOUS
 62
     0
 10
53.4999747555458
 20
233.237126966153
 30
0.0
 11
53.4999747555458
 21
263.737126966153
 31
0.0
  0
LINE
  5
   211
  8
0
  6
CONTINUOUS
 62
     0
 10
29.9999747555458
 20
233.237126966153
 30
0.0
 11
53.4999747555458
 21
233.237126966153
 31
0.0
  0
LINE
  5
   212
  8
0
  6
DASHDOT
 62
     0
 10
41.7499747555458
 20
203.352101826322
 30
0.0
 11
41.7499747555458
 21
270.100547484134
 31
0.0
  0
LINE
  5
   213
  8
0
  6
CONTINUOUS
 62
     0
 10
41.7499747555457
 20
206.237126966153
 30
0.0
 11
46.5108032346743
 21
233.237126966153
 31
0.0
  0
LINE
  5
   214
  8
0
  6
CONTINUOUS
 62
     0
 10
40.2268348377171
 20
206.237126966153
 30
0.0
 11
44.9876633168457
 21
233.237126966153
 31
0.0
  0
LINE
  5
   215
  8
0
  6
CONTINUOUS
 62
     0
 10
38.7036949198885
 20
206.237126966154
 30
0.0
 11
43.4645233990171
 21
233.237126966153
 31
0.0
  0
LINE
  5
   216
  8
0
  6
CONTINUOUS
 62
     0
 10
37.1805550020599
 20
206.237126966153
 30
0.0
 11
41.9413834811884
 21
233.237126966153
 31
0.0
  0
LINE
  5
   217
  8
0
  6
CONTINUOUS
 62
     0
 10
35.6574150842313
 20
206.237126966154
 30
0.0
 11
40.4182435633598
 21
233.237126966153
 31
0.0
  0
LINE
  5
   218
  8
0
  6
CONTINUOUS
 62
     0
 10
34.1342751664027
 20
206.237126966154
 30
0.0
 11
38.8951036455312
 21
233.237126966153
 31
0.0
  0
LINE
  5
   219
  8
0
  6
CONTINUOUS
 62
     0
 10
32.9999747555458
 20
208.442345392791
 30
0.0
 11
37.3719637277026
 21
233.237126966153
 31
0.0
  0
LINE
  5
   21A
  8
0
  6
CONTINUOUS
 62
     0
 10
32.9999747555458
 20
217.080501117507
 30
0.0
 11
35.848823809874
 21
233.237126966153
 31
0.0
  0
LINE
  5
   21B
  8
0
  6
CONTINUOUS
 62
     0
 10
32.9999747555458
 20
225.718656842222
 30
0.0
 11
34.3256838920454
 21
233.237126966154
 31
0.0
  0
LINE
  5
   21C
  8
0
  6
CONTINUOUS
 62
     0
 10
43.2731146733744
 20
206.237126966154
 30
0.0
 11
48.0339431525029
 21
233.237126966153
 31
0.0
  0
LINE
  5
   21D
  8
0
  6
CONTINUOUS
 62
     0
 10
44.796254591203
 20
206.237126966153
 30
0.0
 11
49.5570830703315
 21
233.237126966153
 31
0.0
  0
LINE
  5
   21E
  8
0
  6
CONTINUOUS
 62
     0
 10
46.3193945090316
 20
206.237126966153
 30
0.0
 11
50.4999747555458
 21
229.946375713662
 31
0.0
  0
LINE
  5
   21F
  8
0
  6
CONTINUOUS
 62
     0
 10
47.8425344268602
 20
206.237126966153
 30
0.0
 11
50.4999747555458
 21
221.308219988946
 31
0.0
  0
LINE
  5
   220
  8
0
  6
CONTINUOUS
 62
     0
 10
49.3656743446889
 20
206.237126966154
 30
0.0
 11
50.4999747555457
 21
212.670064264231
 31
0.0
  0
POLYLINE
  5
   221
  8
0
  6
CONTINUOUS
 62
     0
 66
     1
 10
0.0
 20
0.0
 30
0.0
 70
     1
  0
VERTEX
  5
   222
  8
0
  6
CONTINUOUS
 62
     0
 10
29.9999747555458
 20
263.737126966139
 30
0.0
 40
0.0
 41
0.0
  0
VERTEX
  5
   223
  8
0
  6
CONTINUOUS
 62
     0
 10
30.0017441957057
 20
263.675773894831
 30
0.0
 40
0.0
 41
0.0
  0
VERTEX
  5
   224
  8
0
  6
CONTINUOUS
 62
     0
 10
30.0070514503407
 20
263.61445778032
 30
0.0
 40
0.0
 41
0.0
  0
VERTEX
  5
   225
  8
0
  6
CONTINUOUS
 62
     0
 10
30.0158933225589
 20
263.55321555714
 30
0.0
 40
0.0
 41
0.0
  0
VERTEX
  5
   226
  8
0
  6
CONTINUOUS
 62
     0
 10
30.0282644863472
 20
263.492084115315
 30
0.0
 40
0.0
 41
0.0
  0
VERTEX
  5
   227
  8
0
  6
CONTINUOUS
 62
     0
 10
30.0441574897791
 20
263.431100278141
 30
0.0
 40
0.0
 41
0.0
  0
VERTEX
  5
   228
  8
0
  6
CONTINUOUS
 62
     0
 10
30.0635627595036
 20
263.37030078
 30
0.0
 40
0.0
 41
0.0
  0
VERTEX
  5
   229
  8
0
  6
CONTINUOUS
 62
     0
 10
30.0864686065118
 20
263.309722244238
 30
0.0
 40
0.0
 41
0.0
  0
VERTEX
  5
   22A
  8
0
  6
CONTINUOUS
 62
     0
 10
30.112861233178
 20
263.249401161099
 30
0.0
 40
0.0
 41
0.0
  0
VERTEX
  5
   22B
  8
0
  6
CONTINUOUS
 62
     0
 10
30.1427247415708
 20
263.189373865747
 30
0.0
 40
0.0
 41
0.0
  0
VERTEX
  5
   22C
  8
0
  6
CONTINUOUS
 62
     0
 10
30.1760411430293
 20
263.129676516381
 30
0.0
 40
0.0
 41
0.0
  0
VERTEX
  5
   22D
  8
0
  6
CONTINUOUS
 62
     0
 10
30.2127903689992
 20
263.070345072452
 30
0.0
 40
0.0
 41
0.0
  0
VERTEX
  5
   22E
  8
0
  6
CONTINUOUS
 62
     0
 10
30.2529502831208
 20
263.011415273003
 30
0.0
 40
0.0
 41
0.0
  0
VERTEX
  5
   22F
  8
0
  6
CONTINUOUS
 62
     0
 10
30.2964966945636
 20
262.952922615142
 30
0.0
 40
0.0
 41
0.0
  0
VERTEX
  5
   230
  8
0
  6
CONTINUOUS
 62
     0
 10
30.3434033725976
 20
262.894902332659
 30
0.0
 40
0.0
 41
0.0
  0
VERTEX
  5
   231
  8
0
  6
CONTINUOUS
 62
     0
 10
30.3936420623939
 20
262.837389374802
 30
0.0
 40
0.0
 41
0.0
  0
VERTEX
  5
   232
  8
0
  6
CONTINUOUS
 62
     0
 10
30.4471825020443
 20
262.780418385227
 30
0.0
 40
0.0
 41
0.0
  0
VERTEX
  5
   233
  8
0
  6
CONTINUOUS
 62
     0
 10
30.5039924407901
 20
262.724023681127
 30
0.0
 40
0.0
 41
0.0
  0
VERTEX
  5
   234
  8
0
  6
CONTINUOUS
 62
     0
 10
30.5640376584482
 20
262.668239232564
 30
0.0
 40
0.0
 41
0.0
  0
VERTEX
  5
   235
  8
0
  6
CONTINUOUS
 62
     0
 10
30.6272819860249
 20
262.613098642004
 30
0.0
 40
0.0
 41
0.0
  0
VERTEX
  5
   236
  8
0
  6
CONTINUOUS
 62
     0
 10
30.6936873275021
 20
262.558635124075
 30
0.0
 40
0.0
 41
0.0
  0
VERTEX
  5
   237
  8
0
  6
CONTINUOUS
 62
     0
 10
30.7632136827852
 20
262.504881485566
 30
0.0
 40
0.0
 41
0.0
  0
VERTEX
  5
   238
  8
0
  6
CONTINUOUS
 62
     0
 10
30.8358191717974
 20
262.451870105658
 30
0.0
 40
0.0
 41
0.0
  0
VERTEX
  5
   239
  8
0
  6
CONTINUOUS
 62
     0
 10
30.9114600597071
 20
262.399632916423
 30
0.0
 40
0.0
 41
0.0
  0
VERTEX
  5
   23A
  8
0
  6
CONTINUOUS
 62
     0
 10
30.9900907832718
 20
262.348201383592
 30
0.0
 40
0.0
 41
0.0
  0
VERTEX
  5
   23B
  8
0
  6
CONTINUOUS
 62
     0
 10
31.0716639782838
 20
262.297606487597
 30
0.0
 40
0.0
 41
0.0
  0
VERTEX
  5
   23C
  8
0
  6
CONTINUOUS
 62
     0
 10
31.1561305081007
 20
262.24787870491
 30
0.0
 40
0.0
 41
0.0
  0
VERTEX
  5
   23D
  8
0
  6
CONTINUOUS
 62
     0
 10
31.2434394932433
 20
262.19904798969
 30
0.0
 40
0.0
 41
0.0
  0
VERTEX
  5
   23E
  8
0
  6
CONTINUOUS
 62
     0
 10
31.3335383420437
 20
262.151143755733
 30
0.0
 40
0.0
 41
0.0
  0
VERTEX
  5
   23F
  8
0
  6
CONTINUOUS
 62
     0
 10
31.4263727823243
 20
262.104194858758
 30
0.0
 40
0.0
 41
0.0
  0
VERTEX
  5
   240
  8
0
  6
CONTINUOUS
 62
     0
 10
31.5218868940896
 20
262.058229579025
 30
0.0
 40
0.0
 41
0.0
  0
VERTEX
  5
   241
  8
0
  6
CONTINUOUS
 62
     0
 10
31.6200231432102
 20
262.0132756043
 30
0.0
 40
0.0
 41
0.0
  0
VERTEX
  5
   242
  8
0
  6
CONTINUOUS
 62
     0
 10
31.82392405522
 20
261.926509258765
 30
0.0
 40
0.0
 41
0.0
  0
VERTEX
  5
   243
  8
0
  6
CONTINUOUS
 62
     0
 10
32.0375843031971
 20
261.844104849878
 30
0.0
 40
0.0
 41
0.0
  0
VERTEX
  5
   244
  8
0
  6
CONTINUOUS
 62
     0
 10
32.2604891608895
 20
261.766260897078
 30
0.0
 40
0.0
 41
0.0
  0
VERTEX
  5
   245
  8
0
  6
CONTINUOUS
 62
     0
 10
32.492101630971
 20
261.693164933266
 30
0.0
 40
0.0
 41
0.0
  0
VERTEX
  5
   246
  8
0
  6
CONTINUOUS
 62
     0
 10
32.7318637387144
 20
261.624993053021
 30
0.0
 40
0.0
 41
0.0
  0
VERTEX
  5
   247
  8
0
  6
CONTINUOUS
 62
     0
 10
32.9791978762012
 20
261.561909488374
 30
0.0
 40
0.0
 41
0.0
  0
VERTEX
  5
   248
  8
0
  6
CONTINUOUS
 62
     0
 10
33.2335081938305
 20
261.504066213158
 30
0.0
 40
0.0
 41
0.0
  0
VERTEX
  5
   249
  8
0
  6
CONTINUOUS
 62
     0
 10
33.3630885816485
 20
261.477153733339
 30
0.0
 40
0.0
 41
0.0
  0
VERTEX
  5
   24A
  8
0
  6
CONTINUOUS
 62
     0
 10
33.6267095904067
 20
261.42742813487
 30
0.0
 40
0.0
 41
0.0
  0
VERTEX
  5
   24B
  8
0
  6
CONTINUOUS
 62
     0
 10
33.8957468668724
 20
261.383266803191
 30
0.0
 40
0.0
 41
0.0
  0
VERTEX
  5
   24C
  8
0
  6
CONTINUOUS
 62
     0
 10
34.1695522766818
 20
261.344776126819
 30
0.0
 40
0.0
 41
0.0
  0
VERTEX
  5
   24D
  8
0
  6
CONTINUOUS
 62
     0
 10
34.4474661986202
 20
261.312048833163
 30
0.0
 40
0.0
 41
0.0
  0
VERTEX
  5
   24E
  8
0
  6
CONTINUOUS
 62
     0
 10
34.7288191137072
 20
261.285163765142
 30
0.0
 40
0.0
 41
0.0
  0
VERTEX
  5
   24F
  8
0
  6
CONTINUOUS
 62
     0
 10
35.0129332181267
 20
261.264185691239
 30
0.0
 40
0.0
 41
0.0
  0
VERTEX
  5
   250
  8
0
  6
CONTINUOUS
 62
     0
 10
35.2991240561158
 20
261.249165149471
 30
0.0
 40
0.0
 41
0.0
  0
VERTEX
  5
   251
  8
0
  6
CONTINUOUS
 62
     0
 10
35.5867021688784
 20
261.24013832564
 30
0.0
 40
0.0
 41
0.0
  0
VERTEX
  5
   252
  8
0
  6
CONTINUOUS
 62
     0
 10
35.874974755552
 20
261.237126966153
 30
0.0
 40
0.0
 41
0.0
  0
VERTEX
  5
   253
  8
0
  6
CONTINUOUS
 62
     0
 10
36.1632473422256
 20
261.240138325641
 30
0.0
 40
0.0
 41
0.0
  0
VERTEX
  5
   254
  8
0
  6
CONTINUOUS
 62
     0
 10
36.4508254549882
 20
261.249165149474
 30
0.0
 40
0.0
 41
0.0
  0
VERTEX
  5
   255
  8
0
  6
CONTINUOUS
 62
     0
 10
36.7370162929772
 20
261.264185691244
 30
0.0
 40
0.0
 41
0.0
  0
VERTEX
  5
   256
  8
0
  6
CONTINUOUS
 62
     0
 10
37.0211303973967
 20
261.285163765148
 30
0.0
 40
0.0
 41
0.0
  0
VERTEX
  5
   257
  8
0
  6
CONTINUOUS
 62
     0
 10
37.3024833124835
 20
261.312048833171
 30
0.0
 40
0.0
 41
0.0
  0
VERTEX
  5
   258
  8
0
  6
CONTINUOUS
 62
     0
 10
37.5803972344217
 20
261.344776126827
 30
0.0
 40
0.0
 41
0.0
  0
VERTEX
  5
   259
  8
0
  6
CONTINUOUS
 62
     0
 10
37.854202644231
 20
261.383266803201
 30
0.0
 40
0.0
 41
0.0
  0
VERTEX
  5
   25A
  8
0
  6
CONTINUOUS
 62
     0
 10
38.1232399206965
 20
261.427428134881
 30
0.0
 40
0.0
 41
0.0
  0
VERTEX
  5
   25B
  8
0
  6
CONTINUOUS
 62
     0
 10
38.3868609294543
 20
261.477153733351
 30
0.0
 40
0.0
 41
0.0
  0
VERTEX
  5
   25C
  8
0
  6
CONTINUOUS
 62
     0
 10
38.644430584404
 20
261.532323805289
 30
0.0
 40
0.0
 41
0.0
  0
VERTEX
  5
   25D
  8
0
  6
CONTINUOUS
 62
     0
 10
38.8953283776863
 20
261.59280544116
 30
0.0
 40
0.0
 41
0.0
  0
VERTEX
  5
   25E
  8
0
  6
CONTINUOUS
 62
     0
 10
39.1389498745411
 20
261.658452935405
 30
0.0
 40
0.0
 41
0.0
  0
VERTEX
  5
   25F
  8
0
  6
CONTINUOUS
 62
     0
 10
39.3747081694438
 20
261.729108137461
 30
0.0
 40
0.0
 41
0.0
  0
VERTEX
  5
   260
  8
0
  6
CONTINUOUS
 62
     0
 10
39.602035300012
 20
261.804600832756
 30
0.0
 40
0.0
 41
0.0
  0
VERTEX
  5
   261
  8
0
  6
CONTINUOUS
 62
     0
 10
39.8203836152766
 20
261.884749152776
 30
0.0
 40
0.0
 41
0.0
  0
VERTEX
  5
   262
  8
0
  6
CONTINUOUS
 62
     0
 10
40.0292270950212
 20
261.969360013197
 30
0.0
 40
0.0
 41
0.0
  0
VERTEX
  5
   263
  8
0
  6
CONTINUOUS
 62
     0
 10
40.12992636789
 20
262.013275604321
 30
0.0
 40
0.0
 41
0.0
  0
VERTEX
  5
   264
  8
0
  6
CONTINUOUS
 62
     0
 10
40.2280626170104
 20
262.058229579047
 30
0.0
 40
0.0
 41
0.0
  0
VERTEX
  5
   265
  8
0
  6
CONTINUOUS
 62
     0
 10
40.3235767287754
 20
262.10419485878
 30
0.0
 40
0.0
 41
0.0
  0
VERTEX
  5
   266
  8
0
  6
CONTINUOUS
 62
     0
 10
40.4164111690558
 20
262.151143755756
 30
0.0
 40
0.0
 41
0.0
  0
VERTEX
  5
   267
  8
0
  6
CONTINUOUS
 62
     0
 10
40.5065100178559
 20
262.199047989713
 30
0.0
 40
0.0
 41
0.0
  0
VERTEX
  5
   268
  8
0
  6
CONTINUOUS
 62
     0
 10
40.5938190029983
 20
262.247878704934
 30
0.0
 40
0.0
 41
0.0
  0
VERTEX
  5
   269
  8
0
  6
CONTINUOUS
 62
     0
 10
40.6782855328149
 20
262.297606487621
 30
0.0
 40
0.0
 41
0.0
  0
VERTEX
  5
   26A
  8
0
  6
CONTINUOUS
 62
     0
 10
40.7598587278267
 20
262.348201383617
 30
0.0
 40
0.0
 41
0.0
  0
VERTEX
  5
   26B
  8
0
  6
CONTINUOUS
 62
     0
 10
40.8384894513911
 20
262.399632916448
 30
0.0
 40
0.0
 41
0.0
  0
VERTEX
  5
   26C
  8
0
  6
CONTINUOUS
 62
     0
 10
40.9141303393006
 20
262.451870105683
 30
0.0
 40
0.0
 41
0.0
  0
VERTEX
  5
   26D
  8
0
  6
CONTINUOUS
 62
     0
 10
40.9867358283125
 20
262.504881485592
 30
0.0
 40
0.0
 41
0.0
  0
VERTEX
  5
   26E
  8
0
  6
CONTINUOUS
 62
     0
 10
41.0562621835953
 20
262.558635124101
 30
0.0
 40
0.0
 41
0.0
  0
VERTEX
  5
   26F
  8
0
  6
CONTINUOUS
 62
     0
 10
41.1226675250722
 20
262.61309864203
 30
0.0
 40
0.0
 41
0.0
  0
VERTEX
  5
   270
  8
0
  6
CONTINUOUS
 62
     0
 10
41.1859118526487
 20
262.668239232591
 30
0.0
 40
0.0
 41
0.0
  0
VERTEX
  5
   271
  8
0
  6
CONTINUOUS
 62
     0
 10
41.2459570703065
 20
262.724023681154
 30
0.0
 40
0.0
 41
0.0
  0
VERTEX
  5
   272
  8
0
  6
CONTINUOUS
 62
     0
 10
41.302767009052
 20
262.780418385254
 30
0.0
 40
0.0
 41
0.0
  0
VERTEX
  5
   273
  8
0
  6
CONTINUOUS
 62
     0
 10
41.3563074487021
 20
262.83738937483
 30
0.0
 40
0.0
 41
0.0
  0
VERTEX
  5
   274
  8
0
  6
CONTINUOUS
 62
     0
 10
41.4065461384981
 20
262.894902332687
 30
0.0
 40
0.0
 41
0.0
  0
VERTEX
  5
   275
  8
0
  6
CONTINUOUS
 62
     0
 10
41.4534528165318
 20
262.95292261517
 30
0.0
 40
0.0
 41
0.0
  0
VERTEX
  5
   276
  8
0
  6
CONTINUOUS
 62
     0
 10
41.4969992279743
 20
263.011415273031
 30
0.0
 40
0.0
 41
0.0
  0
VERTEX
  5
   277
  8
0
  6
CONTINUOUS
 62
     0
 10
41.5371591420956
 20
263.07034507248
 30
0.0
 40
0.0
 41
0.0
  0
VERTEX
  5
   278
  8
0
  6
CONTINUOUS
 62
     0
 10
41.5739083680652
 20
263.12967651641
 30
0.0
 40
0.0
 41
0.0
  0
VERTEX
  5
   279
  8
0
  6
CONTINUOUS
 62
     0
 10
41.6072247695235
 20
263.189373865776
 30
0.0
 40
0.0
 41
0.0
  0
VERTEX
  5
   27A
  8
0
  6
CONTINUOUS
 62
     0
 10
41.637088277916
 20
263.249401161128
 30
0.0
 40
0.0
 41
0.0
  0
VERTEX
  5
   27B
  8
0
  6
CONTINUOUS
 62
     0
 10
41.6634809045819
 20
263.309722244267
 30
0.0
 40
0.0
 41
0.0
  0
VERTEX
  5
   27C
  8
0
  6
CONTINUOUS
 62
     0
 10
41.6863867515898
 20
263.37030078003
 30
0.0
 40
0.0
 41
0.0
  0
VERTEX
  5
   27D
  8
0
  6
CONTINUOUS
 62
     0
 10
41.7057920213139
 20
263.43110027817
 30
0.0
 40
0.0
 41
0.0
  0
VERTEX
  5
   27E
  8
0
  6
CONTINUOUS
 62
     0
 10
41.7216850247455
 20
263.492084115344
 30
0.0
 40
0.0
 41
0.0
  0
VERTEX
  5
   27F
  8
0
  6
CONTINUOUS
 62
     0
 10
41.7340561885335
 20
263.553215557169
 30
0.0
 40
0.0
 41
0.0
  0
VERTEX
  5
   280
  8
0
  6
CONTINUOUS
 62
     0
 10
41.7428980607514
 20
263.61445778035
 30
0.0
 40
0.0
 41
0.0
  0
VERTEX
  5
   281
  8
0
  6
CONTINUOUS
 62
     0
 10
41.7482053153861
 20
263.675773894861
 30
0.0
 40
0.0
 41
0.0
  0
VERTEX
  5
   282
  8
0
  6
CONTINUOUS
 62
     0
 10
41.7499747555458
 20
263.737126966168
 30
0.0
 40
0.0
 41
0.0
  0
VERTEX
  5
   283
  8
0
  6
CONTINUOUS
 62
     0
 10
41.7482053153858
 20
263.798480037475
 30
0.0
 40
0.0
 41
0.0
  0
VERTEX
  5
   284
  8
0
  6
CONTINUOUS
 62
     0
 10
41.7428980607508
 20
263.859796151987
 30
0.0
 40
0.0
 41
0.0
  0
VERTEX
  5
   285
  8
0
  6
CONTINUOUS
 62
     0
 10
41.7340561885326
 20
263.921038375167
 30
0.0
 40
0.0
 41
0.0
  0
VERTEX
  5
   286
  8
0
  6
CONTINUOUS
 62
     0
 10
41.7216850247443
 20
263.982169816992
 30
0.0
 40
0.0
 41
0.0
  0
VERTEX
  5
   287
  8
0
  6
CONTINUOUS
 62
     0
 10
41.7057920213124
 20
264.043153654166
 30
0.0
 40
0.0
 41
0.0
  0
VERTEX
  5
   288
  8
0
  6
CONTINUOUS
 62
     0
 10
41.6863867515879
 20
264.103953152306
 30
0.0
 40
0.0
 41
0.0
  0
VERTEX
  5
   289
  8
0
  6
CONTINUOUS
 62
     0
 10
41.6634809045797
 20
264.164531688069
 30
0.0
 40
0.0
 41
0.0
  0
VERTEX
  5
   28A
  8
0
  6
CONTINUOUS
 62
     0
 10
41.6370882779135
 20
264.224852771208
 30
0.0
 40
0.0
 41
0.0
  0
VERTEX
  5
   28B
  8
0
  6
CONTINUOUS
 62
     0
 10
41.6072247695207
 20
264.28488006656
 30
0.0
 40
0.0
 41
0.0
  0
VERTEX
  5
   28C
  8
0
  6
CONTINUOUS
 62
     0
 10
41.5739083680622
 20
264.344577415926
 30
0.0
 40
0.0
 41
0.0
  0
VERTEX
  5
   28D
  8
0
  6
CONTINUOUS
 62
     0
 10
41.5371591420923
 20
264.403908859855
 30
0.0
 40
0.0
 41
0.0
  0
VERTEX
  5
   28E
  8
0
  6
CONTINUOUS
 62
     0
 10
41.4969992279707
 20
264.462838659304
 30
0.0
 40
0.0
 41
0.0
  0
VERTEX
  5
   28F
  8
0
  6
CONTINUOUS
 62
     0
 10
41.4534528165279
 20
264.521331317165
 30
0.0
 40
0.0
 41
0.0
  0
VERTEX
  5
   290
  8
0
  6
CONTINUOUS
 62
     0
 10
41.4065461384939
 20
264.579351599648
 30
0.0
 40
0.0
 41
0.0
  0
VERTEX
  5
   291
  8
0
  6
CONTINUOUS
 62
     0
 10
41.3563074486976
 20
264.636864557505
 30
0.0
 40
0.0
 41
0.0
  0
VERTEX
  5
   292
  8
0
  6
CONTINUOUS
 62
     0
 10
41.3027670090472
 20
264.69383554708
 30
0.0
 40
0.0
 41
0.0
  0
VERTEX
  5
   293
  8
0
  6
CONTINUOUS
 62
     0
 10
41.2459570703014
 20
264.750230251179
 30
0.0
 40
0.0
 41
0.0
  0
VERTEX
  5
   294
  8
0
  6
CONTINUOUS
 62
     0
 10
41.1859118526433
 20
264.806014699742
 30
0.0
 40
0.0
 41
0.0
  0
VERTEX
  5
   295
  8
0
  6
CONTINUOUS
 62
     0
 10
41.1226675250666
 20
264.861155290303
 30
0.0
 40
0.0
 41
0.0
  0
VERTEX
  5
   296
  8
0
  6
CONTINUOUS
 62
     0
 10
41.0562621835894
 20
264.915618808231
 30
0.0
 40
0.0
 41
0.0
  0
VERTEX
  5
   297
  8
0
  6
CONTINUOUS
 62
     0
 10
40.9867358283063
 20
264.969372446741
 30
0.0
 40
0.0
 41
0.0
  0
VERTEX
  5
   298
  8
0
  6
CONTINUOUS
 62
     0
 10
40.9141303392941
 20
265.022383826649
 30
0.0
 40
0.0
 41
0.0
  0
VERTEX
  5
   299
  8
0
  6
CONTINUOUS
 62
     0
 10
40.8384894513844
 20
265.074621015884
 30
0.0
 40
0.0
 41
0.0
  0
VERTEX
  5
   29A
  8
0
  6
CONTINUOUS
 62
     0
 10
40.7598587278197
 20
265.126052548715
 30
0.0
 40
0.0
 41
0.0
  0
VERTEX
  5
   29B
  8
0
  6
CONTINUOUS
 62
     0
 10
40.6782855328077
 20
265.17664744471
 30
0.0
 40
0.0
 41
0.0
  0
VERTEX
  5
   29C
  8
0
  6
CONTINUOUS
 62
     0
 10
40.5938190029908
 20
265.226375227396
 30
0.0
 40
0.0
 41
0.0
  0
VERTEX
  5
   29D
  8
0
  6
CONTINUOUS
 62
     0
 10
40.5065100178482
 20
265.275205942617
 30
0.0
 40
0.0
 41
0.0
  0
VERTEX
  5
   29E
  8
0
  6
CONTINUOUS
 62
     0
 10
40.4164111690478
 20
265.323110176574
 30
0.0
 40
0.0
 41
0.0
  0
VERTEX
  5
   29F
  8
0
  6
CONTINUOUS
 62
     0
 10
40.3235767287672
 20
265.370059073549
 30
0.0
 40
0.0
 41
0.0
  0
VERTEX
  5
   2A0
  8
0
  6
CONTINUOUS
 62
     0
 10
40.2280626170019
 20
265.416024353282
 30
0.0
 40
0.0
 41
0.0
  0
VERTEX
  5
   2A1
  8
0
  6
CONTINUOUS
 62
     0
 10
40.1299263678813
 20
265.460978328007
 30
0.0
 40
0.0
 41
0.0
  0
VERTEX
  5
   2A2
  8
0
  6
CONTINUOUS
 62
     0
 10
39.9260254558715
 20
265.547744673542
 30
0.0
 40
0.0
 41
0.0
  0
VERTEX
  5
   2A3
  8
0
  6
CONTINUOUS
 62
     0
 10
39.7123652078944
 20
265.630149082429
 30
0.0
 40
0.0
 41
0.0
  0
VERTEX
  5
   2A4
  8
0
  6
CONTINUOUS
 62
     0
 10
39.489460350202
 20
265.707993035229
 30
0.0
 40
0.0
 41
0.0
  0
VERTEX
  5
   2A5
  8
0
  6
CONTINUOUS
 62
     0
 10
39.2578478801205
 20
265.781088999041
 30
0.0
 40
0.0
 41
0.0
  0
VERTEX
  5
   2A6
  8
0
  6
CONTINUOUS
 62
     0
 10
39.0180857723771
 20
265.849260879286
 30
0.0
 40
0.0
 41
0.0
  0
VERTEX
  5
   2A7
  8
0
  6
CONTINUOUS
 62
     0
 10
38.7707516348903
 20
265.912344443932
 30
0.0
 40
0.0
 41
0.0
  0
VERTEX
  5
   2A8
  8
0
  6
CONTINUOUS
 62
     0
 10
38.516441317261
 20
265.970187719149
 30
0.0
 40
0.0
 41
0.0
  0
VERTEX
  5
   2A9
  8
0
  6
CONTINUOUS
 62
     0
 10
38.386860929443
 20
265.997100198968
 30
0.0
 40
0.0
 41
0.0
  0
VERTEX
  5
   2AA
  8
0
  6
CONTINUOUS
 62
     0
 10
38.1232399206849
 20
266.046825797437
 30
0.0
 40
0.0
 41
0.0
  0
VERTEX
  5
   2AB
  8
0
  6
CONTINUOUS
 62
     0
 10
37.8542026442191
 20
266.090987129116
 30
0.0
 40
0.0
 41
0.0
  0
VERTEX
  5
   2AC
  8
0
  6
CONTINUOUS
 62
     0
 10
37.5803972344097
 20
266.129477805488
 30
0.0
 40
0.0
 41
0.0
  0
VERTEX
  5
   2AD
  8
0
  6
CONTINUOUS
 62
     0
 10
37.3024833124713
 20
266.162205099143
 30
0.0
 40
0.0
 41
0.0
  0
VERTEX
  5
   2AE
  8
0
  6
CONTINUOUS
 62
     0
 10
37.0211303973843
 20
266.189090167164
 30
0.0
 40
0.0
 41
0.0
  0
VERTEX
  5
   2AF
  8
0
  6
CONTINUOUS
 62
     0
 10
36.7370162929648
 20
266.210068241067
 30
0.0
 40
0.0
 41
0.0
  0
VERTEX
  5
   2B0
  8
0
  6
CONTINUOUS
 62
     0
 10
36.4508254549757
 20
266.225088782835
 30
0.0
 40
0.0
 41
0.0
  0
VERTEX
  5
   2B1
  8
0
  6
CONTINUOUS
 62
     0
 10
36.1632473422131
 20
266.234115606667
 30
0.0
 40
0.0
 41
0.0
  0
VERTEX
  5
   2B2
  8
0
  6
CONTINUOUS
 62
     0
 10
35.8749747555395
 20
266.237126966153
 30
0.0
 40
0.0
 41
0.0
  0
VERTEX
  5
   2B3
  8
0
  6
CONTINUOUS
 62
     0
 10
35.5867021688659
 20
266.234115606666
 30
0.0
 40
0.0
 41
0.0
  0
VERTEX
  5
   2B4
  8
0
  6
CONTINUOUS
 62
     0
 10
35.2991240561033
 20
266.225088782832
 30
0.0
 40
0.0
 41
0.0
  0
VERTEX
  5
   2B5
  8
0
  6
CONTINUOUS
 62
     0
 10
35.0129332181143
 20
266.210068241063
 30
0.0
 40
0.0
 41
0.0
  0
VERTEX
  5
   2B6
  8
0
  6
CONTINUOUS
 62
     0
 10
34.7288191136948
 20
266.189090167159
 30
0.0
 40
0.0
 41
0.0
  0
VERTEX
  5
   2B7
  8
0
  6
CONTINUOUS
 62
     0
 10
34.447466198608
 20
266.162205099136
 30
0.0
 40
0.0
 41
0.0
  0
VERTEX
  5
   2B8
  8
0
  6
CONTINUOUS
 62
     0
 10
34.1695522766698
 20
266.12947780548
 30
0.0
 40
0.0
 41
0.0
  0
VERTEX
  5
   2B9
  8
0
  6
CONTINUOUS
 62
     0
 10
33.8957468668605
 20
266.090987129106
 30
0.0
 40
0.0
 41
0.0
  0
VERTEX
  5
   2BA
  8
0
  6
CONTINUOUS
 62
     0
 10
33.626709590395
 20
266.046825797426
 30
0.0
 40
0.0
 41
0.0
  0
VERTEX
  5
   2BB
  8
0
  6
CONTINUOUS
 62
     0
 10
33.3630885816372
 20
265.997100198956
 30
0.0
 40
0.0
 41
0.0
  0
VERTEX
  5
   2BC
  8
0
  6
CONTINUOUS
 62
     0
 10
33.1055189266875
 20
265.941930127017
 30
0.0
 40
0.0
 41
0.0
  0
VERTEX
  5
   2BD
  8
0
  6
CONTINUOUS
 62
     0
 10
32.8546211334052
 20
265.881448491146
 30
0.0
 40
0.0
 41
0.0
  0
VERTEX
  5
   2BE
  8
0
  6
CONTINUOUS
 62
     0
 10
32.6109996365504
 20
265.815800996902
 30
0.0
 40
0.0
 41
0.0
  0
VERTEX
  5
   2BF
  8
0
  6
CONTINUOUS
 62
     0
 10
32.3752413416477
 20
265.745145794846
 30
0.0
 40
0.0
 41
0.0
  0
VERTEX
  5
   2C0
  8
0
  6
CONTINUOUS
 62
     0
 10
32.1479142110795
 20
265.669653099551
 30
0.0
 40
0.0
 41
0.0
  0
VERTEX
  5
   2C1
  8
0
  6
CONTINUOUS
 62
     0
 10
31.9295658958149
 20
265.589504779531
 30
0.0
 40
0.0
 41
0.0
  0
VERTEX
  5
   2C2
  8
0
  6
CONTINUOUS
 62
     0
 10
31.7207224160703
 20
265.504893919109
 30
0.0
 40
0.0
 41
0.0
  0
VERTEX
  5
   2C3
  8
0
  6
CONTINUOUS
 62
     0
 10
31.6200231432015
 20
265.460978327985
 30
0.0
 40
0.0
 41
0.0
  0
VERTEX
  5
   2C4
  8
0
  6
CONTINUOUS
 62
     0
 10
31.5218868940811
 20
265.41602435326
 30
0.0
 40
0.0
 41
0.0
  0
VERTEX
  5
   2C5
  8
0
  6
CONTINUOUS
 62
     0
 10
31.4263727823161
 20
265.370059073527
 30
0.0
 40
0.0
 41
0.0
  0
VERTEX
  5
   2C6
  8
0
  6
CONTINUOUS
 62
     0
 10
31.3335383420357
 20
265.323110176551
 30
0.0
 40
0.0
 41
0.0
  0
VERTEX
  5
   2C7
  8
0
  6
CONTINUOUS
 62
     0
 10
31.2434394932356
 20
265.275205942593
 30
0.0
 40
0.0
 41
0.0
  0
VERTEX
  5
   2C8
  8
0
  6
CONTINUOUS
 62
     0
 10
31.1561305080932
 20
265.226375227373
 30
0.0
 40
0.0
 41
0.0
  0
VERTEX
  5
   2C9
  8
0
  6
CONTINUOUS
 62
     0
 10
31.0716639782766
 20
265.176647444686
 30
0.0
 40
0.0
 41
0.0
  0
VERTEX
  5
   2CA
  8
0
  6
CONTINUOUS
 62
     0
 10
30.9900907832648
 20
265.12605254869
 30
0.0
 40
0.0
 41
0.0
  0
VERTEX
  5
   2CB
  8
0
  6
CONTINUOUS
 62
     0
 10
30.9114600597004
 20
265.074621015859
 30
0.0
 40
0.0
 41
0.0
  0
VERTEX
  5
   2CC
  8
0
  6
CONTINUOUS
 62
     0
 10
30.8358191717909
 20
265.022383826624
 30
0.0
 40
0.0
 41
0.0
  0
VERTEX
  5
   2CD
  8
0
  6
CONTINUOUS
 62
     0
 10
30.763213682779
 20
264.969372446715
 30
0.0
 40
0.0
 41
0.0
  0
VERTEX
  5
   2CE
  8
0
  6
CONTINUOUS
 62
     0
 10
30.6936873274962
 20
264.915618808205
 30
0.0
 40
0.0
 41
0.0
  0
VERTEX
  5
   2CF
  8
0
  6
CONTINUOUS
 62
     0
 10
30.6272819860193
 20
264.861155290277
 30
0.0
 40
0.0
 41
0.0
  0
VERTEX
  5
   2D0
  8
0
  6
CONTINUOUS
 62
     0
 10
30.5640376584428
 20
264.806014699716
 30
0.0
 40
0.0
 41
0.0
  0
VERTEX
  5
   2D1
  8
0
  6
CONTINUOUS
 62
     0
 10
30.503992440785
 20
264.750230251152
 30
0.0
 40
0.0
 41
0.0
  0
VERTEX
  5
   2D2
  8
0
  6
CONTINUOUS
 62
     0
 10
30.4471825020395
 20
264.693835547052
 30
0.0
 40
0.0
 41
0.0
  0
VERTEX
  5
   2D3
  8
0
  6
CONTINUOUS
 62
     0
 10
30.3936420623894
 20
264.636864557477
 30
0.0
 40
0.0
 41
0.0
  0
VERTEX
  5
   2D4
  8
0
  6
CONTINUOUS
 62
     0
 10
30.3434033725934
 20
264.57935159962
 30
0.0
 40
0.0
 41
0.0
  0
VERTEX
  5
   2D5
  8
0
  6
CONTINUOUS
 62
     0
 10
30.2964966945597
 20
264.521331317137
 30
0.0
 40
0.0
 41
0.0
  0
VERTEX
  5
   2D6
  8
0
  6
CONTINUOUS
 62
     0
 10
30.2529502831172
 20
264.462838659275
 30
0.0
 40
0.0
 41
0.0
  0
VERTEX
  5
   2D7
  8
0
  6
CONTINUOUS
 62
     0
 10
30.2127903689959
 20
264.403908859826
 30
0.0
 40
0.0
 41
0.0
  0
VERTEX
  5
   2D8
  8
0
  6
CONTINUOUS
 62
     0
 10
30.1760411430263
 20
264.344577415897
 30
0.0
 40
0.0
 41
0.0
  0
VERTEX
  5
   2D9
  8
0
  6
CONTINUOUS
 62
     0
 10
30.142724741568
 20
264.284880066531
 30
0.0
 40
0.0
 41
0.0
  0
VERTEX
  5
   2DA
  8
0
  6
CONTINUOUS
 62
     0
 10
30.1128612331755
 20
264.224852771179
 30
0.0
 40
0.0
 41
0.0
  0
VERTEX
  5
   2DB
  8
0
  6
CONTINUOUS
 62
     0
 10
30.0864686065096
 20
264.16453168804
 30
0.0
 40
0.0
 41
0.0
  0
VERTEX
  5
   2DC
  8
0
  6
CONTINUOUS
 62
     0
 10
30.0635627595017
 20
264.103953152277
 30
0.0
 40
0.0
 41
0.0
  0
VERTEX
  5
   2DD
  8
0
  6
CONTINUOUS
 62
     0
 10
30.0441574897776
 20
264.043153654137
 30
0.0
 40
0.0
 41
0.0
  0
VERTEX
  5
   2DE
  8
0
  6
CONTINUOUS
 62
     0
 10
30.028264486346
 20
263.982169816963
 30
0.0
 40
0.0
 41
0.0
  0
VERTEX
  5
   2DF
  8
0
  6
CONTINUOUS
 62
     0
 10
30.015893322558
 20
263.921038375138
 30
0.0
 40
0.0
 41
0.0
  0
VERTEX
  5
   2E0
  8
0
  6
CONTINUOUS
 62
     0
 10
30.0070514503401
 20
263.859796151957
 30
0.0
 40
0.0
 41
0.0
  0
VERTEX
  5
   2E1
  8
0
  6
CONTINUOUS
 62
     0
 10
30.0017441957054
 20
263.798480037446
 30
0.0
 40
0.0
 41
0.0
  0
VERTEX
  5
   2E2
  8
0
  6
CONTINUOUS
 62
     0
 10
29.9999747555458
 20
263.737126966139
 30
0.0
 40
0.0
 41
0.0
  0
SEQEND
  5
   2E3
  8
0
  6
CONTINUOUS
 62
     0
  0
POLYLINE
  5
   2E4
  8
0
  6
CONTINUOUS
 62
     0
 66
     1
 10
0.0
 20
0.0
 30
0.0
  0
VERTEX
  5
   2E5
  8
0
  6
CONTINUOUS
 62
     0
 10
53.4999747555458
 20
263.737126966174
 30
0.0
 40
0.0
 41
0.0
  0
VERTEX
  5
   2E6
  8
0
  6
CONTINUOUS
 62
     0
 10
53.4982053153854
 20
263.798480037482
 30
0.0
 40
0.0
 41
0.0
  0
VERTEX
  5
   2E7
  8
0
  6
CONTINUOUS
 62
     0
 10
53.4928980607501
 20
263.859796151993
 30
0.0
 40
0.0
 41
0.0
  0
VERTEX
  5
   2E8
  8
0
  6
CONTINUOUS
 62
     0
 10
53.4840561885315
 20
263.921038375174
 30
0.0
 40
0.0
 41
0.0
  0
VERTEX
  5
   2E9
  8
0
  6
CONTINUOUS
 62
     0
 10
53.4716850247428
 20
263.982169816998
 30
0.0
 40
0.0
 41
0.0
  0
VERTEX
  5
   2EA
  8
0
  6
CONTINUOUS
 62
     0
 10
53.4557920213105
 20
264.043153654173
 30
0.0
 40
0.0
 41
0.0
  0
VERTEX
  5
   2EB
  8
0
  6
CONTINUOUS
 62
     0
 10
53.4363867515857
 20
264.103953152313
 30
0.0
 40
0.0
 41
0.0
  0
VERTEX
  5
   2EC
  8
0
  6
CONTINUOUS
 62
     0
 10
53.413480904577
 20
264.164531688075
 30
0.0
 40
0.0
 41
0.0
  0
VERTEX
  5
   2ED
  8
0
  6
CONTINUOUS
 62
     0
 10
53.3870882779105
 20
264.224852771215
 30
0.0
 40
0.0
 41
0.0
  0
VERTEX
  5
   2EE
  8
0
  6
CONTINUOUS
 62
     0
 10
53.3572247695173
 20
264.284880066567
 30
0.0
 40
0.0
 41
0.0
  0
VERTEX
  5
   2EF
  8
0
  6
CONTINUOUS
 62
     0
 10
53.3239083680583
 20
264.344577415932
 30
0.0
 40
0.0
 41
0.0
  0
VERTEX
  5
   2F0
  8
0
  6
CONTINUOUS
 62
     0
 10
53.287159142088
 20
264.403908859861
 30
0.0
 40
0.0
 41
0.0
  0
VERTEX
  5
   2F1
  8
0
  6
CONTINUOUS
 62
     0
 10
53.246999227966
 20
264.46283865931
 30
0.0
 40
0.0
 41
0.0
  0
VERTEX
  5
   2F2
  8
0
  6
CONTINUOUS
 62
     0
 10
53.2034528165228
 20
264.521331317171
 30
0.0
 40
0.0
 41
0.0
  0
VERTEX
  5
   2F3
  8
0
  6
CONTINUOUS
 62
     0
 10
53.1565461384884
 20
264.579351599654
 30
0.0
 40
0.0
 41
0.0
  0
VERTEX
  5
   2F4
  8
0
  6
CONTINUOUS
 62
     0
 10
53.1063074486917
 20
264.636864557511
 30
0.0
 40
0.0
 41
0.0
  0
VERTEX
  5
   2F5
  8
0
  6
CONTINUOUS
 62
     0
 10
53.0527670090408
 20
264.693835547086
 30
0.0
 40
0.0
 41
0.0
  0
VERTEX
  5
   2F6
  8
0
  6
CONTINUOUS
 62
     0
 10
52.9959570702947
 20
264.750230251186
 30
0.0
 40
0.0
 41
0.0
  0
VERTEX
  5
   2F7
  8
0
  6
CONTINUOUS
 62
     0
 10
52.9359118526361
 20
264.806014699749
 30
0.0
 40
0.0
 41
0.0
  0
VERTEX
  5
   2F8
  8
0
  6
CONTINUOUS
 62
     0
 10
52.872667525059
 20
264.86115529031
 30
0.0
 40
0.0
 41
0.0
  0
VERTEX
  5
   2F9
  8
0
  6
CONTINUOUS
 62
     0
 10
52.8062621835813
 20
264.915618808238
 30
0.0
 40
0.0
 41
0.0
  0
VERTEX
  5
   2FA
  8
0
  6
CONTINUOUS
 62
     0
 10
52.7367358282979
 20
264.969372446747
 30
0.0
 40
0.0
 41
0.0
  0
VERTEX
  5
   2FB
  8
0
  6
CONTINUOUS
 62
     0
 10
52.6641303392852
 20
265.022383826655
 30
0.0
 40
0.0
 41
0.0
  0
VERTEX
  5
   2FC
  8
0
  6
CONTINUOUS
 62
     0
 10
52.5884894513751
 20
265.07462101589
 30
0.0
 40
0.0
 41
0.0
  0
VERTEX
  5
   2FD
  8
0
  6
CONTINUOUS
 62
     0
 10
52.50985872781
 20
265.126052548721
 30
0.0
 40
0.0
 41
0.0
  0
VERTEX
  5
   2FE
  8
0
  6
CONTINUOUS
 62
     0
 10
52.4282855327975
 20
265.176647444716
 30
0.0
 40
0.0
 41
0.0
  0
VERTEX
  5
   2FF
  8
0
  6
CONTINUOUS
 62
     0
 10
52.3438190029802
 20
265.226375227402
 30
0.0
 40
0.0
 41
0.0
  0
VERTEX
  5
   300
  8
0
  6
CONTINUOUS
 62
     0
 10
52.2565100178372
 20
265.275205942623
 30
0.0
 40
0.0
 41
0.0
  0
VERTEX
  5
   301
  8
0
  6
CONTINUOUS
 62
     0
 10
52.1664111690364
 20
265.32311017658
 30
0.0
 40
0.0
 41
0.0
  0
VERTEX
  5
   302
  8
0
  6
CONTINUOUS
 62
     0
 10
52.0735767287554
 20
265.370059073555
 30
0.0
 40
0.0
 41
0.0
  0
VERTEX
  5
   303
  8
0
  6
CONTINUOUS
 62
     0
 10
51.9780626169897
 20
265.416024353288
 30
0.0
 40
0.0
 41
0.0
  0
VERTEX
  5
   304
  8
0
  6
CONTINUOUS
 62
     0
 10
51.8799263678686
 20
265.460978328012
 30
0.0
 40
0.0
 41
0.0
  0
VERTEX
  5
   305
  8
0
  6
CONTINUOUS
 62
     0
 10
51.676025455858
 20
265.547744673548
 30
0.0
 40
0.0
 41
0.0
  0
VERTEX
  5
   306
  8
0
  6
CONTINUOUS
 62
     0
 10
51.4623652078802
 20
265.630149082434
 30
0.0
 40
0.0
 41
0.0
  0
VERTEX
  5
   307
  8
0
  6
CONTINUOUS
 62
     0
 10
51.239460350187
 20
265.707993035234
 30
0.0
 40
0.0
 41
0.0
  0
VERTEX
  5
   308
  8
0
  6
CONTINUOUS
 62
     0
 10
51.0078478801047
 20
265.781088999046
 30
0.0
 40
0.0
 41
0.0
  0
VERTEX
  5
   309
  8
0
  6
CONTINUOUS
 62
     0
 10
50.7680857723607
 20
265.84926087929
 30
0.0
 40
0.0
 41
0.0
  0
VERTEX
  5
   30A
  8
0
  6
CONTINUOUS
 62
     0
 10
50.5207516348731
 20
265.912344443937
 30
0.0
 40
0.0
 41
0.0
  0
VERTEX
  5
   30B
  8
0
  6
CONTINUOUS
 62
     0
 10
50.2664413172431
 20
265.970187719153
 30
0.0
 40
0.0
 41
0.0
  0
VERTEX
  5
   30C
  8
0
  6
CONTINUOUS
 62
     0
 10
50.1368609294248
 20
265.997100198972
 30
0.0
 40
0.0
 41
0.0
  0
VERTEX
  5
   30D
  8
0
  6
CONTINUOUS
 62
     0
 10
49.8732399206661
 20
266.046825797441
 30
0.0
 40
0.0
 41
0.0
  0
VERTEX
  5
   30E
  8
0
  6
CONTINUOUS
 62
     0
 10
49.6042026441998
 20
266.090987129119
 30
0.0
 40
0.0
 41
0.0
  0
VERTEX
  5
   30F
  8
0
  6
CONTINUOUS
 62
     0
 10
49.3303972343898
 20
266.129477805491
 30
0.0
 40
0.0
 41
0.0
  0
VERTEX
  5
   310
  8
0
  6
CONTINUOUS
 62
     0
 10
49.052483312451
 20
266.162205099145
 30
0.0
 40
0.0
 41
0.0
  0
VERTEX
  5
   311
  8
0
  6
CONTINUOUS
 62
     0
 10
48.7711303973635
 20
266.189090167166
 30
0.0
 40
0.0
 41
0.0
  0
VERTEX
  5
   312
  8
0
  6
CONTINUOUS
 62
     0
 10
48.4870162929436
 20
266.210068241069
 30
0.0
 40
0.0
 41
0.0
  0
VERTEX
  5
   313
  8
0
  6
CONTINUOUS
 62
     0
 10
48.2008254549541
 20
266.225088782836
 30
0.0
 40
0.0
 41
0.0
  0
VERTEX
  5
   314
  8
0
  6
CONTINUOUS
 62
     0
 10
47.9132473421912
 20
266.234115606668
 30
0.0
 40
0.0
 41
0.0
  0
VERTEX
  5
   315
  8
0
  6
CONTINUOUS
 62
     0
 10
47.6249747555173
 20
266.237126966153
 30
0.0
 40
0.0
 41
0.0
  0
VERTEX
  5
   316
  8
0
  6
CONTINUOUS
 62
     0
 10
47.3367021688435
 20
266.234115606665
 30
0.0
 40
0.0
 41
0.0
  0
VERTEX
  5
   317
  8
0
  6
CONTINUOUS
 62
     0
 10
47.0491240560808
 20
266.225088782831
 30
0.0
 40
0.0
 41
0.0
  0
VERTEX
  5
   318
  8
0
  6
CONTINUOUS
 62
     0
 10
46.7629332180917
 20
266.210068241062
 30
0.0
 40
0.0
 41
0.0
  0
VERTEX
  5
   319
  8
0
  6
CONTINUOUS
 62
     0
 10
46.4788191136722
 20
266.189090167157
 30
0.0
 40
0.0
 41
0.0
  0
VERTEX
  5
   31A
  8
0
  6
CONTINUOUS
 62
     0
 10
46.1974661985854
 20
266.162205099134
 30
0.0
 40
0.0
 41
0.0
  0
VERTEX
  5
   31B
  8
0
  6
CONTINUOUS
 62
     0
 10
45.9195522766473
 20
266.129477805477
 30
0.0
 40
0.0
 41
0.0
  0
VERTEX
  5
   31C
  8
0
  6
CONTINUOUS
 62
     0
 10
45.6457468668382
 20
266.090987129103
 30
0.0
 40
0.0
 41
0.0
  0
VERTEX
  5
   31D
  8
0
  6
CONTINUOUS
 62
     0
 10
45.3767095903729
 20
266.046825797422
 30
0.0
 40
0.0
 41
0.0
  0
VERTEX
  5
   31E
  8
0
  6
CONTINUOUS
 62
     0
 10
45.1130885816153
 20
265.997100198951
 30
0.0
 40
0.0
 41
0.0
  0
VERTEX
  5
   31F
  8
0
  6
CONTINUOUS
 62
     0
 10
44.8555189266659
 20
265.941930127012
 30
0.0
 40
0.0
 41
0.0
  0
VERTEX
  5
   320
  8
0
  6
CONTINUOUS
 62
     0
 10
44.604621133384
 20
265.881448491141
 30
0.0
 40
0.0
 41
0.0
  0
VERTEX
  5
   321
  8
0
  6
CONTINUOUS
 62
     0
 10
44.3609996365297
 20
265.815800996896
 30
0.0
 40
0.0
 41
0.0
  0
VERTEX
  5
   322
  8
0
  6
CONTINUOUS
 62
     0
 10
44.1252413416275
 20
265.74514579484
 30
0.0
 40
0.0
 41
0.0
  0
VERTEX
  5
   323
  8
0
  6
CONTINUOUS
 62
     0
 10
43.8979142110599
 20
265.669653099544
 30
0.0
 40
0.0
 41
0.0
  0
VERTEX
  5
   324
  8
0
  6
CONTINUOUS
 62
     0
 10
43.6795658957959
 20
265.589504779524
 30
0.0
 40
0.0
 41
0.0
  0
VERTEX
  5
   325
  8
0
  6
CONTINUOUS
 62
     0
 10
43.4707224160521
 20
265.504893919102
 30
0.0
 40
0.0
 41
0.0
  0
VERTEX
  5
   326
  8
0
  6
CONTINUOUS
 62
     0
 10
43.3700231431837
 20
265.460978327977
 30
0.0
 40
0.0
 41
0.0
  0
VERTEX
  5
   327
  8
0
  6
CONTINUOUS
 62
     0
 10
43.2718868940637
 20
265.416024353252
 30
0.0
 40
0.0
 41
0.0
  0
VERTEX
  5
   328
  8
0
  6
CONTINUOUS
 62
     0
 10
43.1763727822989
 20
265.370059073518
 30
0.0
 40
0.0
 41
0.0
  0
VERTEX
  5
   329
  8
0
  6
CONTINUOUS
 62
     0
 10
43.083538342019
 20
265.323110176542
 30
0.0
 40
0.0
 41
0.0
  0
VERTEX
  5
   32A
  8
0
  6
CONTINUOUS
 62
     0
 10
42.9934394932193
 20
265.275205942584
 30
0.0
 40
0.0
 41
0.0
  0
VERTEX
  5
   32B
  8
0
  6
CONTINUOUS
 62
     0
 10
42.9061305080774
 20
265.226375227364
 30
0.0
 40
0.0
 41
0.0
  0
VERTEX
  5
   32C
  8
0
  6
CONTINUOUS
 62
     0
 10
42.8216639782612
 20
265.176647444677
 30
0.0
 40
0.0
 41
0.0
  0
VERTEX
  5
   32D
  8
0
  6
CONTINUOUS
 62
     0
 10
42.7400907832499
 20
265.126052548681
 30
0.0
 40
0.0
 41
0.0
  0
VERTEX
  5
   32E
  8
0
  6
CONTINUOUS
 62
     0
 10
42.661460059686
 20
265.074621015849
 30
0.0
 40
0.0
 41
0.0
  0
VERTEX
  5
   32F
  8
0
  6
CONTINUOUS
 62
     0
 10
42.585819171777
 20
265.022383826614
 30
0.0
 40
0.0
 41
0.0
  0
VERTEX
  5
   330
  8
0
  6
CONTINUOUS
 62
     0
 10
42.5132136827656
 20
264.969372446705
 30
0.0
 40
0.0
 41
0.0
  0
VERTEX
  5
   331
  8
0
  6
CONTINUOUS
 62
     0
 10
42.4436873274834
 20
264.915618808195
 30
0.0
 40
0.0
 41
0.0
  0
VERTEX
  5
   332
  8
0
  6
CONTINUOUS
 62
     0
 10
42.377281986007
 20
264.861155290266
 30
0.0
 40
0.0
 41
0.0
  0
VERTEX
  5
   333
  8
0
  6
CONTINUOUS
 62
     0
 10
42.3140376584311
 20
264.806014699705
 30
0.0
 40
0.0
 41
0.0
  0
VERTEX
  5
   334
  8
0
  6
CONTINUOUS
 62
     0
 10
42.2539924407738
 20
264.750230251142
 30
0.0
 40
0.0
 41
0.0
  0
VERTEX
  5
   335
  8
0
  6
CONTINUOUS
 62
     0
 10
42.1971825020289
 20
264.693835547042
 30
0.0
 40
0.0
 41
0.0
  0
VERTEX
  5
   336
  8
0
  6
CONTINUOUS
 62
     0
 10
42.1436420623794
 20
264.636864557466
 30
0.0
 40
0.0
 41
0.0
  0
VERTEX
  5
   337
  8
0
  6
CONTINUOUS
 62
     0
 10
42.093403372584
 20
264.579351599609
 30
0.0
 40
0.0
 41
0.0
  0
VERTEX
  5
   338
  8
0
  6
CONTINUOUS
 62
     0
 10
42.0464966945509
 20
264.521331317125
 30
0.0
 40
0.0
 41
0.0
  0
VERTEX
  5
   339
  8
0
  6
CONTINUOUS
 62
     0
 10
42.002950283109
 20
264.462838659264
 30
0.0
 40
0.0
 41
0.0
  0
VERTEX
  5
   33A
  8
0
  6
CONTINUOUS
 62
     0
 10
41.9627903689883
 20
264.403908859815
 30
0.0
 40
0.0
 41
0.0
  0
VERTEX
  5
   33B
  8
0
  6
CONTINUOUS
 62
     0
 10
41.9260411430194
 20
264.344577415886
 30
0.0
 40
0.0
 41
0.0
  0
VERTEX
  5
   33C
  8
0
  6
CONTINUOUS
 62
     0
 10
41.8927247415618
 20
264.284880066519
 30
0.0
 40
0.0
 41
0.0
  0
VERTEX
  5
   33D
  8
0
  6
CONTINUOUS
 62
     0
 10
41.86286123317
 20
264.224852771167
 30
0.0
 40
0.0
 41
0.0
  0
VERTEX
  5
   33E
  8
0
  6
CONTINUOUS
 62
     0
 10
41.8364686065047
 20
264.164531688028
 30
0.0
 40
0.0
 41
0.0
  0
VERTEX
  5
   33F
  8
0
  6
CONTINUOUS
 62
     0
 10
41.8135627594975
 20
264.103953152265
 30
0.0
 40
0.0
 41
0.0
  0
VERTEX
  5
   340
  8
0
  6
CONTINUOUS
 62
     0
 10
41.794157489774
 20
264.043153654125
 30
0.0
 40
0.0
 41
0.0
  0
VERTEX
  5
   341
  8
0
  6
CONTINUOUS
 62
     0
 10
41.7782644863431
 20
263.98216981695
 30
0.0
 40
0.0
 41
0.0
  0
VERTEX
  5
   342
  8
0
  6
CONTINUOUS
 62
     0
 10
41.7658933225558
 20
263.921038375125
 30
0.0
 40
0.0
 41
0.0
  0
VERTEX
  5
   343
  8
0
  6
CONTINUOUS
 62
     0
 10
41.7570514503386
 20
263.859796151945
 30
0.0
 40
0.0
 41
0.0
  0
VERTEX
  5
   344
  8
0
  6
CONTINUOUS
 62
     0
 10
41.7517441957047
 20
263.798480037433
 30
0.0
 40
0.0
 41
0.0
  0
VERTEX
  5
   345
  8
0
  6
CONTINUOUS
 62
     0
 10
41.7499747555458
 20
263.737126966126
 30
0.0
 40
0.0
 41
0.0
  0
SEQEND
  5
   346
  8
0
  6
CONTINUOUS
 62
     0
  0
INSERT
  5
   347
  8
0
  6
CONTINUOUS
 62
     0
  2
*HATCH1116
 10
0.0
 20
0.0
 30
0.0
  0
ENDBLK
  5
   348
  8
0
  6
CONTINUOUS
 62
     0
  0
BLOCK
  5
   349
  8
0
  6
CONTINUOUS
 62
     7
  2
$1159486
 70
    64
 10
0.0
 20
0.0
 30
0.0
  3
$1159486
  0
LINE
  5
   34A
  8
0
  6
DASHDOT
 62
   212
 10
16.8833808338534
 20
217.237126966153
 30
0.0
 11
51.6170200640336
 21
217.237126966153
 31
0.0
  0
LINE
  5
   34B
  8
0
  6
CONTINUOUS
 62
   212
 10
24.9999747555458
 20
205.237126966153
 30
0.0
 11
24.9999747555458
 21
229.237126966153
 31
0.0
  0
LINE
  5
   34C
  8
0
  6
CONTINUOUS
 62
   212
 10
27.9999747555458
 20
222.13610645172
 30
0.0
 11
27.9999747555458
 21
229.237126966153
 31
0.0
  0
LINE
  5
   34D
  8
0
  6
CONTINUOUS
 62
   212
 10
24.9999747555458
 20
229.237126966153
 30
0.0
 11
32.9999747555458
 21
229.237126966153
 31
0.0
  0
LINE
  5
   34E
  8
0
  6
CONTINUOUS
 62
   212
 10
24.9999747555458
 20
205.237126966153
 30
0.0
 11
27.9999747555458
 21
205.237126966153
 31
0.0
  0
LINE
  5
   34F
  8
0
  6
CONTINUOUS
 62
   212
 10
69.9999747555458
 20
207.237126966153
 30
0.0
 11
69.9999747555458
 21
209.237126966153
 31
0.0
  0
ARC
  5
   350
  8
0
  6
CONTINUOUS
 62
   212
 10
67.9999747555458
 20
227.237126966153
 30
0.0
 40
2.0
 50
0.0
 51
90.0
  0
ARC
  5
   351
  8
0
  6
CONTINUOUS
 62
   212
 10
67.9999747555458
 20
207.237126966153
 30
0.0
 40
2.0
 50
270.0
 51
360.0
  0
ARC
  5
   352
  8
0
  6
CONTINUOUS
 62
   212
 10
26.9999747555457
 20
217.237126966153
 30
0.0
 40
5.00000000000001
 50
281.536959032815
 51
438.463040967185
  0
ARC
  5
   353
  8
0
  6
CONTINUOUS
 62
   212
 10
26.9999747555457
 20
217.237126966153
 30
0.0
 40
3.00000000000001
 50
0.0
 51
84.7840914295458
  0
LINE
  5
   354
  8
0
  6
CONTINUOUS
 62
   212
 10
27.9999747555458
 20
205.237126966153
 30
0.0
 11
27.9999747555458
 21
212.338147480587
 31
0.0
  0
ARC
  5
   355
  8
0
  6
CONTINUOUS
 62
   212
 10
26.9999747555457
 20
217.237126966153
 30
0.0
 40
3.00000000000001
 50
275.215908570454
 51
360.0
  0
ARC
  5
   356
  8
0
  6
CONTINUOUS
 62
   212
 10
27.4999747555458
 20
222.714352541205
 30
0.0
 40
2.5
 50
180.0
 51
264.784091429546
  0
ARC
  5
   357
  8
0
  6
CONTINUOUS
 62
   212
 10
27.4999747555458
 20
211.759901391102
 30
0.0
 40
2.5
 50
95.2159085704542
 51
180.0
  0
LINE
  5
   358
  8
0
  6
CONTINUOUS
 62
   212
 10
66.9999747555458
 20
205.237126966153
 30
0.0
 11
66.9999747555458
 21
209.237126966153
 31
0.0
  0
LINE
  5
   359
  8
0
  6
CONTINUOUS
 62
   212
 10
62.9999747555458
 20
205.237126966153
 30
0.0
 11
62.9999747555458
 21
209.237126966153
 31
0.0
  0
LINE
  5
   35A
  8
0
  6
CONTINUOUS
 62
   212
 10
62.9999747555458
 20
224.237126966153
 30
0.0
 11
66.9999747555458
 21
224.237126966153
 31
0.0
  0
LINE
  5
   35B
  8
0
  6
CONTINUOUS
 62
   212
 10
62.9999747555458
 20
210.237126966153
 30
0.0
 11
66.9999747555458
 21
210.237126966153
 31
0.0
  0
INSERT
  5
   35C
  8
0
  6
CONTINUOUS
 62
   212
  2
*HATCH1113
 10
0.0
 20
0.0
 30
0.0
  0
INSERT
  5
   35D
  8
0
  6
CONTINUOUS
 62
     1
  2
*HATCH1114
 10
0.0
 20
0.0
 30
0.0
  0
INSERT
  5
   35E
  8
0
  6
CONTINUOUS
 62
     1
  2
*HATCH1115
 10
0.0
 20
0.0
 30
0.0
  0
INSERT
  5
   35F
  8
255
  6
CONTINUOUS
 62
     7
  2
$1140422
 10
0.0
 20
0.0
 30
0.0
  0
LINE
  5
   360
  8
0
  6
DOT
 62
   212
 10
32.9999747555458
 20
229.237126966153
 30
0.0
 11
50.4999747555458
 21
229.237126966153
 31
0.0
  0
LINE
  5
   361
  8
0
  6
CONTINUOUS
 62
   212
 10
50.4999747555458
 20
229.237126966153
 30
0.0
 11
67.9999747555458
 21
229.237126966153
 31
0.0
  0
LINE
  5
   362
  8
0
  6
CONTINUOUS
 62
   212
 10
32.9999747555458
 20
205.237126966153
 30
0.0
 11
67.9999747555458
 21
205.237126966153
 31
0.0
  0
LINE
  5
   363
  8
0
  6
DOT
 62
   212
 10
27.9999747555458
 20
205.237126966153
 30
0.0
 11
32.9999747555458
 21
205.237126966153
 31
0.0
  0
LINE
  5
   364
  8
0
  6
CONTINUOUS
 62
   212
 10
62.9999747555458
 20
225.237126966153
 30
0.0
 11
62.9999747555458
 21
229.237126966153
 31
0.0
  0
LINE
  5
   365
  8
0
  6
DOT
 62
   212
 10
62.9999747555458
 20
209.237126966153
 30
0.0
 11
62.9999747555458
 21
225.237126966153
 31
0.0
  0
LINE
  5
   366
  8
0
  6
DOT
 62
   212
 10
66.9999747555458
 20
209.237126966153
 30
0.0
 11
66.9999747555458
 21
225.237126966153
 31
0.0
  0
LINE
  5
   367
  8
0
  6
CONTINUOUS
 62
   212
 10
66.9999747555458
 20
225.237126966153
 30
0.0
 11
66.9999747555458
 21
229.237126966153
 31
0.0
  0
INSERT
  5
   368
  8
255
  6
CONTINUOUS
 62
   218
  2
$1CAVO
 10
0.0
 20
0.0
 30
0.0
  0
LINE
  5
   369
  8
0
  6
CONTINUOUS
 62
   212
 10
69.9999747555458
 20
225.237126966153
 30
0.0
 11
69.9999747555458
 21
227.237126966153
 31
0.0
  0
LINE
  5
   36A
  8
0
  6
DOT
 62
   212
 10
69.9999747555458
 20
209.237126966153
 30
0.0
 11
69.9999747555458
 21
225.237126966153
 31
0.0
  0
ENDBLK
  5
   36B
  8
0
  6
CONTINUOUS
 62
     7
  0
BLOCK
  5
   36C
  8
0
  6
CONTINUOUS
 62
     0
  2
*HATCH1117
 70
    65
 10
0.0
 20
0.0
 30
0.0
  3
*HATCH1117
  0
LINE
  5
   36D
  8
0
  6
CONTINUOUS
 62
    52
 10
0.393398702144623
 20
11.0
 30
0.0
 11
-6.53286124910259E-16
 21
10.6066017150879
 31
0.0
  0
LINE
  5
   36E
  8
0
  6
CONTINUOUS
 62
    52
 10
2.51471900939941
 20
11.0
 30
0.0
 11
-4.06108014267163E-16
 21
8.48528099060059
 31
0.0
  0
LINE
  5
   36F
  8
0
  6
CONTINUOUS
 62
    52
 10
4.63603925704956
 20
11.0
 30
0.0
 11
-1.58929903624068E-16
 21
6.36396074295044
 31
0.0
  0
LINE
  5
   370
  8
0
  6
CONTINUOUS
 62
    52
 10
6.75735998153687
 20
11.0
 30
0.0
 11
0.757359504699707
 21
5.0
 31
0.0
  0
LINE
  5
   371
  8
0
  6
CONTINUOUS
 62
    52
 10
8.87868022918701
 20
11.0
 30
0.0
 11
2.87867975234985
 21
5.0
 31
0.0
  0
LINE
  5
   372
  8
0
  6
CONTINUOUS
 62
    52
 10
11.0
 20
11.0
 30
0.0
 11
5.0
 21
5.0
 31
0.0
  0
LINE
  5
   373
  8
0
  6
CONTINUOUS
 62
    52
 10
13.1213207244873
 20
11.0
 30
0.0
 11
7.12132024765015
 21
5.0
 31
0.0
  0
LINE
  5
   374
  8
0
  6
CONTINUOUS
 62
    52
 10
15.2426414489746
 20
11.0
 30
0.0
 11
9.24264049530029
 21
5.0
 31
0.0
  0
LINE
  5
   375
  8
0
  6
CONTINUOUS
 62
    52
 10
17.3639621734619
 20
11.0
 30
0.0
 11
11.3639602661133
 21
5.0
 31
0.0
  0
LINE
  5
   376
  8
0
  6
CONTINUOUS
 62
    52
 10
19.4852828979492
 20
11.0
 30
0.0
 11
13.4852809906006
 21
5.0
 31
0.0
  0
LINE
  5
   377
  8
0
  6
CONTINUOUS
 62
    52
 10
20.0
 20
9.39339733123779
 30
0.0
 11
15.6066026687622
 21
5.0
 31
0.0
  0
LINE
  5
   378
  8
0
  6
CONTINUOUS
 62
    52
 10
20.0
 20
7.27207708358765
 30
0.0
 11
17.7279224395752
 21
5.0
 31
0.0
  0
LINE
  5
   379
  8
0
  6
CONTINUOUS
 62
    52
 10
20.0
 20
5.1507568359375
 30
0.0
 11
19.8492431640625
 21
5.0
 31
0.0
  0
ENDBLK
  5
   37A
  8
0
  6
CONTINUOUS
 62
     0
  0
BLOCK
  5
   37B
  8
0
  6
CONTINUOUS
 62
     0
  2
*HATCH1118
 70
    65
 10
0.0
 20
0.0
 30
0.0
  3
*HATCH1118
  0
LINE
  5
   37C
  8
0
  6
CONTINUOUS
 62
    52
 10
1.36396086215973
 20
-5.0
 30
0.0
 11
-1.00376785763979E-16
 21
-6.36396074295044
 31
0.0
  0
LINE
  5
   37D
  8
0
  6
CONTINUOUS
 62
    52
 10
3.48528099060059
 20
-5.0
 30
0.0
 11
-2.56489279134466E-16
 21
-8.48528099060059
 31
0.0
  0
LINE
  5
   37E
  8
0
  6
CONTINUOUS
 62
    52
 10
5.60660171508789
 20
-5.0
 30
0.0
 11
-4.12601765887509E-16
 21
-10.6066017150879
 31
0.0
  0
LINE
  5
   37F
  8
0
  6
CONTINUOUS
 62
    52
 10
-3.89339900016785
 20
-14.5
 30
0.0
 11
-5.0
 21
-15.6066007614136
 31
0.0
  0
LINE
  5
   380
  8
0
  6
CONTINUOUS
 62
    52
 10
7.72792196273804
 20
-5.0
 30
0.0
 11
-5.68714279110331E-16
 21
-12.7279214859009
 31
0.0
  0
LINE
  5
   381
  8
0
  6
CONTINUOUS
 62
    52
 10
-1.77207851409912
 20
-14.5
 30
0.0
 11
-3.7720787525177
 21
-16.5
 31
0.0
  0
LINE
  5
   382
  8
0
  6
CONTINUOUS
 62
    52
 10
9.84924221038818
 20
-5.0
 30
0.0
 11
-1.65075826644897
 21
-16.5
 31
0.0
  0
LINE
  5
   383
  8
0
  6
CONTINUOUS
 62
    52
 10
11.9705619812012
 20
-5.0
 30
0.0
 11
0.470561981201172
 21
-16.5
 31
0.0
  0
LINE
  5
   384
  8
0
  6
CONTINUOUS
 62
    52
 10
14.0918827056885
 20
-5.0
 30
0.0
 11
2.59188222885132
 21
-16.5
 31
0.0
  0
LINE
  5
   385
  8
0
  6
CONTINUOUS
 62
    52
 10
16.2132034301758
 20
-5.0
 30
0.0
 11
4.71320247650146
 21
-16.5
 31
0.0
  0
LINE
  5
   386
  8
0
  6
CONTINUOUS
 62
    52
 10
18.3345241546631
 20
-5.0
 30
0.0
 11
6.83452272415161
 21
-16.5
 31
0.0
  0
LINE
  5
   387
  8
0
  6
CONTINUOUS
 62
    52
 10
20.0
 20
-5.45584487915039
 30
0.0
 11
8.95584392547607
 21
-16.5
 31
0.0
  0
LINE
  5
   388
  8
0
  6
CONTINUOUS
 62
    52
 10
20.0
 20
-7.57716512680054
 30
0.0
 11
11.0771636962891
 21
-16.5
 31
0.0
  0
LINE
  5
   389
  8
0
  6
CONTINUOUS
 62
    52
 10
20.0
 20
-9.69848537445068
 30
0.0
 11
13.1984844207764
 21
-16.5
 31
0.0
  0
LINE
  5
   38A
  8
0
  6
CONTINUOUS
 62
    52
 10
20.0
 20
-11.8198051452637
 30
0.0
 11
15.3198051452637
 21
-16.5
 31
0.0
  0
LINE
  5
   38B
  8
0
  6
CONTINUOUS
 62
    52
 10
20.0
 20
-13.941125869751
 30
0.0
 11
17.441125869751
 21
-16.5
 31
0.0
  0
LINE
  5
   38C
  8
0
  6
CONTINUOUS
 62
    52
 10
20.0
 20
-16.0624465942383
 30
0.0
 11
19.5624465942383
 21
-16.5
 31
0.0
  0
ENDBLK
  5
   38D
  8
0
  6
CONTINUOUS
 62
     0
  0
BLOCK
  5
   38E
  8
0
  6
CONTINUOUS
 62
     0
  2
*HATCH1119
 70
    65
 10
0.0
 20
0.0
 30
0.0
  3
*HATCH1119
  0
LINE
  5
   38F
  8
0
  6
CONTINUOUS
 62
    52
 10
17.6543273925781
 20
-37.5
 30
0.0
 11
16.5
 21
-38.6543273925781
 31
0.0
  0
LINE
  5
   390
  8
0
  6
CONTINUOUS
 62
    52
 10
19.7756481170654
 20
-37.5
 30
0.0
 11
16.5
 21
-40.7756462097168
 31
0.0
  0
LINE
  5
   391
  8
0
  6
CONTINUOUS
 62
    52
 10
20.0
 20
-39.3969688415527
 30
0.0
 11
16.5
 21
-42.8969688415527
 31
0.0
  0
LINE
  5
   392
  8
0
  6
CONTINUOUS
 62
    52
 10
20.0
 20
-41.5182876586914
 30
0.0
 11
16.5
 21
-45.0182876586914
 31
0.0
  0
LINE
  5
   393
  8
0
  6
CONTINUOUS
 62
    52
 10
20.0
 20
-43.6396102905273
 30
0.0
 11
17.6396083831787
 21
-46.0
 31
0.0
  0
LINE
  5
   394
  8
0
  6
CONTINUOUS
 62
    52
 10
20.0
 20
-45.760929107666
 30
0.0
 11
19.760929107666
 21
-46.0
 31
0.0
  0
ENDBLK
  5
   395
  8
0
  6
CONTINUOUS
 62
     0
  0
BLOCK
  5
   396
  8
0
  6
CONTINUOUS
 62
     0
  2
*HATCH1120
 70
    65
 10
0.0
 20
0.0
 30
0.0
  3
*HATCH1120
  0
LINE
  5
   397
  8
0
  6
CONTINUOUS
 62
    52
 10
-3.55887603759766
 20
-37.5
 30
0.0
 11
-5.0
 21
-38.9411239624023
 31
0.0
  0
LINE
  5
   398
  8
0
  6
CONTINUOUS
 62
    52
 10
-1.5
 20
-37.562442779541
 30
0.0
 11
-5.0
 21
-41.062442779541
 31
0.0
  0
LINE
  5
   399
  8
0
  6
CONTINUOUS
 62
    52
 10
-1.5
 20
-39.6837615966797
 30
0.0
 11
-5.0
 21
-43.1837615966797
 31
0.0
  0
LINE
  5
   39A
  8
0
  6
CONTINUOUS
 62
    52
 10
-1.5
 20
-41.8050804138184
 30
0.0
 11
-5.0
 21
-45.3050804138184
 31
0.0
  0
LINE
  5
   39B
  8
0
  6
CONTINUOUS
 62
    52
 10
-1.5
 20
-43.9264068603516
 30
0.0
 11
-3.57359504699707
 21
-46.0
 31
0.0
  0
ENDBLK
  5
   39C
  8
0
  6
CONTINUOUS
 62
     0
  0
BLOCK
  5
   39D
  8
0
  6
CONTINUOUS
 62
     0
  2
MORSETTO
 70
    64
 10
0.0
 20
0.0
 30
0.0
  3
MORSETTO
  0
LINE
  5
   39E
  8
0
  6
CONTINUOUS
 62
     0
 10
0.0
 20
11.0
 30
0.0
 11
20.0
 21
11.0
 31
0.0
  0
LINE
  5
   39F
  8
0
  6
CONTINUOUS
 62
     0
 10
20.0
 20
-46.0
 30
0.0
 11
20.0
 21
11.0
 31
0.0
  0
LINE
  5
   3A0
  8
0
  6
CONTINUOUS
 62
     0
 10
-5.0
 20
-16.5
 30
0.0
 11
-5.0
 21
-14.5
 31
0.0
  0
LINE
  5
   3A1
  8
0
  6
CONTINUOUS
 62
     0
 10
-5.0
 20
-46.0
 30
0.0
 11
20.0
 21
-46.0
 31
0.0
  0
LINE
  5
   3A2
  8
0
  6
CONTINUOUS
 62
     0
 10
-6.99125288888572E-16
 20
-14.5
 30
0.0
 11
-6.99125288888572E-16
 21
-5.0
 31
0.0
  0
LINE
  5
   3A3
  8
0
  6
CONTINUOUS
 62
     0
 10
-5.0
 20
-14.5
 30
0.0
 11
0.0
 21
-14.5
 31
0.0
  0
LINE
  5
   3A4
  8
0
  6
CONTINUOUS
 62
     0
 10
0.0
 20
5.0
 30
0.0
 11
20.0
 21
5.0
 31
0.0
  0
LINE
  5
   3A5
  8
0
  6
CONTINUOUS
 62
     0
 10
0.0
 20
-5.0
 30
0.0
 11
20.0
 21
-5.0
 31
0.0
  0
LINE
  5
   3A6
  8
0
  6
CONTINUOUS
 62
     0
 10
-5.0
 20
-16.5
 30
0.0
 11
20.0
 21
-16.5
 31
0.0
  0
LINE
  5
   3A7
  8
0
  6
CONTINUOUS
 62
     0
 10
-5.0
 20
-37.5
 30
0.0
 11
-1.5
 21
-37.5
 31
0.0
  0
LINE
  5
   3A8
  8
0
  6
DASHDOT
 62
     0
 10
7.5
 20
-46.6823236657696
 30
0.0
 11
7.5
 21
-33.2913197006793
 31
0.0
  0
LINE
  5
   3A9
  8
0
  6
CONTINUOUS
 62
     0
 10
-1.5
 20
-46.0
 30
0.0
 11
-1.5
 21
-35.0
 31
0.0
  0
LINE
  5
   3AA
  8
0
  6
CONTINUOUS
 62
     0
 10
16.5
 20
-46.0
 30
0.0
 11
16.5
 21
-35.0
 31
0.0
  0
LINE
  5
   3AB
  8
0
  6
CONTINUOUS
 62
     0
 10
0.0
 20
-45.0
 30
0.0
 11
0.0
 21
-35.0
 31
0.0
  0
LINE
  5
   3AC
  8
0
  6
CONTINUOUS
 62
     0
 10
15.0
 20
-45.0
 30
0.0
 11
15.0
 21
-35.0
 31
0.0
  0
LINE
  5
   3AD
  8
0
  6
CONTINUOUS
 62
     0
 10
-6.0
 20
-9.0
 30
0.0
 11
-6.0
 21
9.0
 31
0.0
  0
LINE
  5
   3AE
  8
0
  6
CONTINUOUS
 62
     0
 10
-8.7
 20
8.0
 30
0.0
 11
-6.0
 21
8.0
 31
0.0
  0
LINE
  5
   3AF
  8
0
  6
CONTINUOUS
 62
     0
 10
-8.7
 20
-8.0
 30
0.0
 11
-6.0
 21
-8.0
 31
0.0
  0
LINE
  5
   3B0
  8
0
  6
CONTINUOUS
 62
     0
 10
-6.0
 20
9.0
 30
0.0
 11
-5.0
 21
9.0
 31
0.0
  0
LINE
  5
   3B1
  8
0
  6
CONTINUOUS
 62
     0
 10
-6.0
 20
-9.0
 30
0.0
 11
-5.0
 21
-9.0
 31
0.0
  0
LINE
  5
   3B2
  8
0
  6
CONTINUOUS
 62
     0
 10
-9.0
 20
-7.7
 30
0.0
 11
-9.0
 21
7.7
 31
0.0
  0
LINE
  5
   3B3
  8
0
  6
CONTINUOUS
 62
     0
 10
-8.7
 20
-8.0
 30
0.0
 11
-8.7
 21
8.0
 31
0.0
  0
LINE
  5
   3B4
  8
0
  6
CONTINUOUS
 62
     0
 10
-9.0
 20
7.7
 30
0.0
 11
-8.7
 21
8.0
 31
0.0
  0
LINE
  5
   3B5
  8
0
  6
CONTINUOUS
 62
     0
 10
-9.0
 20
-7.7
 30
0.0
 11
-8.7
 21
-8.0
 31
0.0
  0
LINE
  5
   3B6
  8
0
  6
CONTINUOUS
 62
     0
 10
16.0
 20
-3.75
 30
0.0
 11
16.0
 21
3.75
 31
0.0
  0
LINE
  5
   3B7
  8
0
  6
CONTINUOUS
 62
     0
 10
-5.0
 20
-9.0
 30
0.0
 11
-5.0
 21
9.0
 31
0.0
  0
LINE
  5
   3B8
  8
0
  6
CONTINUOUS
 62
     0
 10
-5.0
 20
5.0
 30
0.0
 11
0.0
 21
5.0
 31
0.0
  0
LINE
  5
   3B9
  8
0
  6
CONTINUOUS
 62
     0
 10
-5.0
 20
-5.0
 30
0.0
 11
0.0
 21
-5.0
 31
0.0
  0
LINE
  5
   3BA
  8
0
  6
CONTINUOUS
 62
     0
 10
-3.0
 20
3.75
 30
0.0
 11
16.0
 21
3.75
 31
0.0
  0
LINE
  5
   3BB
  8
0
  6
CONTINUOUS
 62
     0
 10
-3.0
 20
-3.75
 30
0.0
 11
16.0
 21
-3.75
 31
0.0
  0
LINE
  5
   3BC
  8
0
  6
CONTINUOUS
 62
     0
 10
-3.0
 20
-5.0
 30
0.0
 11
-3.0
 21
5.0
 31
0.0
  0
LINE
  5
   3BD
  8
0
  6
CONTINUOUS
 62
     0
 10
14.75
 20
-5.0
 30
0.0
 11
14.75
 21
5.0
 31
0.0
  0
LINE
  5
   3BE
  8
0
  6
CONTINUOUS
 62
     0
 10
14.75
 20
5.0
 30
0.0
 11
16.0
 21
3.75
 31
0.0
  0
LINE
  5
   3BF
  8
0
  6
CONTINUOUS
 62
     0
 10
14.75
 20
-5.0
 30
0.0
 11
16.0
 21
-3.75
 31
0.0
  0
LINE
  5
   3C0
  8
0
  6
CONTINUOUS
 62
     0
 10
-6.99125288888572E-16
 20
5.0
 30
0.0
 11
-6.99125288888572E-16
 21
11.0
 31
0.0
  0
LINE
  5
   3C1
  8
0
  6
CONTINUOUS
 62
     0
 10
-4.78518500842764
 20
5.0
 30
0.0
 11
-3.0
 21
3.75
 31
0.0
  0
LINE
  5
   3C2
  8
0
  6
CONTINUOUS
 62
     0
 10
-4.78518500842764
 20
-5.0
 30
0.0
 11
-3.0
 21
-3.75
 31
0.0
  0
INSERT
  5
   3C3
  8
0
  6
CONTINUOUS
 62
     0
  2
*HATCH1117
 10
0.0
 20
0.0
 30
0.0
  0
INSERT
  5
   3C4
  8
0
  6
CONTINUOUS
 62
     0
  2
*HATCH1118
 10
0.0
 20
0.0
 30
0.0
  0
INSERT
  5
   3C5
  8
0
  6
CONTINUOUS
 62
     0
  2
*HATCH1119
 10
0.0
 20
0.0
 30
0.0
  0
INSERT
  5
   3C6
  8
0
  6
CONTINUOUS
 62
     0
  2
*HATCH1120
 10
0.0
 20
0.0
 30
0.0
  0
LINE
  5
   3C7
  8
0
  6
CONTINUOUS
 62
     0
 10
-1.00485917355761E-14
 20
-45.0
 30
0.0
 11
15.0
 21
-45.0
 31
0.0
  0
LINE
  5
   3C8
  8
0
  6
CONTINUOUS
 62
     0
 10
-1.5
 20
-35.0
 30
0.0
 11
16.5
 21
-35.0
 31
0.0
  0
ARC
  5
   3C9
  8
0
  6
CONTINUOUS
 62
     0
 10
7.5
 20
-75.0000000000003
 30
0.0
 40
41.0000000000003
 50
77.3196165081803
 51
102.68038349182
  0
LINE
  5
   3CA
  8
0
  6
CONTINUOUS
 62
     0
 10
15.0
 20
-45.0
 30
0.0
 11
16.5
 21
-43.5
 31
0.0
  0
LINE
  5
   3CB
  8
0
  6
CONTINUOUS
 62
     0
 10
-1.5
 20
-43.5
 30
0.0
 11
-3.5527136788005E-15
 21
-45.0
 31
0.0
  0
LINE
  5
   3CC
  8
0
  6
CONTINUOUS
 62
     0
 10
-1.5
 20
-43.5
 30
0.0
 11
16.5
 21
-43.5
 31
0.0
  0
LINE
  5
   3CD
  8
0
  6
CONTINUOUS
 62
     0
 10
16.5
 20
-37.5
 30
0.0
 11
20.0
 21
-37.5
 31
0.0
  0
LINE
  5
   3CE
  8
0
  6
CONTINUOUS
 62
     0
 10
-5.0
 20
-46.0
 30
0.0
 11
-5.0
 21
-33.0
 31
0.0
  0
ENDBLK
  5
   3CF
  8
0
  6
CONTINUOUS
 62
     0
  0
BLOCK
  5
   3D0
  8
0
  6
CONTINUOUS
 62
   218
  2
*HATCH1121
 70
    65
 10
0.0
 20
0.0
 30
0.0
  3
*HATCH1121
  0
LINE
  5
   3D1
  8
0
  6
CONTINUOUS
 62
     3
 10
-33.9754524230957
 20
14.8149147033691
 30
0.0
 11
-37.2543067932129
 21
11.5360641479492
 31
0.0
  0
LINE
  5
   3D2
  8
0
  6
CONTINUOUS
 62
     3
 10
-31.6806392669678
 20
14.9884099960327
 30
0.0
 11
-35.9627418518066
 21
10.7063045501709
 31
0.0
  0
LINE
  5
   3D3
  8
0
  6
CONTINUOUS
 62
     3
 10
-29.742956161499
 20
14.8047723770142
 30
0.0
 11
-34.3045806884766
 21
10.2431478500366
 31
0.0
  0
LINE
  5
   3D4
  8
0
  6
CONTINUOUS
 62
     3
 10
-28.054027557373
 20
14.3723783493042
 30
0.0
 11
-32.397819519043
 21
10.0285873413086
 31
0.0
  0
LINE
  5
   3D5
  8
0
  6
CONTINUOUS
 62
     3
 10
-26.679220199585
 20
13.6258668899536
 30
0.0
 11
-30.1883068084717
 21
10.1167802810669
 31
0.0
  0
LINE
  5
   3D6
  8
0
  6
CONTINUOUS
 62
     3
 10
-26.1604652404785
 20
12.0233011245728
 30
0.0
 11
-27.1001529693604
 21
11.0836133956909
 31
0.0
  0
ENDBLK
  5
   3D7
  8
0
  6
CONTINUOUS
 62
   218
  0
BLOCK
  5
   3D8
  8
0
  6
CONTINUOUS
 62
    98
  2
*HATCH1122
 70
    65
 10
0.0
 20
0.0
 30
0.0
  3
*HATCH1122
  0
LINE
  5
   3D9
  8
0
  6
CONTINUOUS
 62
   210
 10
-61.650749206543
 20
-76.4999847412109
 30
0.0
 11
-64.150749206543
 21
-78.9999847412109
 31
0.0
  0
LINE
  5
   3DA
  8
0
  6
CONTINUOUS
 62
   210
 10
-57.4081115722656
 20
-76.4999847412109
 30
0.0
 11
-59.9081115722656
 21
-78.9999847412109
 31
0.0
  0
LINE
  5
   3DB
  8
0
  6
CONTINUOUS
 62
   210
 10
-53.1654739379883
 20
-76.4999847412109
 30
0.0
 11
-55.6654739379883
 21
-78.9999847412109
 31
0.0
  0
LINE
  5
   3DC
  8
0
  6
CONTINUOUS
 62
   210
 10
-48.9228363037109
 20
-76.4999847412109
 30
0.0
 11
-51.4228363037109
 21
-78.9999847412109
 31
0.0
  0
LINE
  5
   3DD
  8
0
  6
CONTINUOUS
 62
   210
 10
-44.6801986694336
 20
-76.4999847412109
 30
0.0
 11
-47.1801986694336
 21
-78.9999847412109
 31
0.0
  0
LINE
  5
   3DE
  8
0
  6
CONTINUOUS
 62
   210
 10
-42.4628601074219
 20
-78.5252990722656
 30
0.0
 11
-44.4628601074219
 21
-80.5252990722656
 31
0.0
  0
LINE
  5
   3DF
  8
0
  6
CONTINUOUS
 62
   210
 10
-42.4628601074219
 20
-80.6466217041016
 30
0.0
 11
-44.4628601074219
 21
-82.6466217041016
 31
0.0
  0
LINE
  5
   3E0
  8
0
  6
CONTINUOUS
 62
   210
 10
-42.4628601074219
 20
-82.7679443359375
 30
0.0
 11
-44.4628601074219
 21
-84.7679443359375
 31
0.0
  0
LINE
  5
   3E1
  8
0
  6
CONTINUOUS
 62
   210
 10
-42.4628601074219
 20
-84.8892669677734
 30
0.0
 11
-44.4628601074219
 21
-86.8892669677734
 31
0.0
  0
LINE
  5
   3E2
  8
0
  6
CONTINUOUS
 62
   210
 10
-19.9522609710693
 20
-64.4999847412109
 30
0.0
 11
-21.4628601074219
 21
-66.0105819702148
 31
0.0
  0
LINE
  5
   3E3
  8
0
  6
CONTINUOUS
 62
   210
 10
-54.452278137207
 20
-99.0
 30
0.0
 11
-56.952262878418
 21
-101.499984741211
 31
0.0
  0
LINE
  5
   3E4
  8
0
  6
CONTINUOUS
 62
   210
 10
-42.4628601074219
 20
-89.1319046020508
 30
0.0
 11
-44.4628601074219
 21
-91.1319046020508
 31
0.0
  0
LINE
  5
   3E5
  8
0
  6
CONTINUOUS
 62
   210
 10
-19.4628601074219
 20
-68.2532272338867
 30
0.0
 11
-21.4628601074219
 21
-70.2532272338867
 31
0.0
  0
LINE
  5
   3E6
  8
0
  6
CONTINUOUS
 62
   210
 10
-50.2096405029297
 20
-99.0
 30
0.0
 11
-52.7096252441406
 21
-101.499984741211
 31
0.0
  0
LINE
  5
   3E7
  8
0
  6
CONTINUOUS
 62
   210
 10
-42.4628601074219
 20
-93.3745498657227
 30
0.0
 11
-44.4628601074219
 21
-95.3745498657227
 31
0.0
  0
LINE
  5
   3E8
  8
0
  6
CONTINUOUS
 62
   210
 10
-19.4628601074219
 20
-72.4958724975586
 30
0.0
 11
-21.4628601074219
 21
-74.4958724975586
 31
0.0
  0
LINE
  5
   3E9
  8
0
  6
CONTINUOUS
 62
   210
 10
-45.9670028686523
 20
-99.0
 30
0.0
 11
-48.4669876098633
 21
-101.499984741211
 31
0.0
  0
LINE
  5
   3EA
  8
0
  6
CONTINUOUS
 62
   210
 10
-42.4628601074219
 20
-97.6171798706055
 30
0.0
 11
-46.3456611633301
 21
-101.499984741211
 31
0.0
  0
LINE
  5
   3EB
  8
0
  6
CONTINUOUS
 62
   210
 10
-41.7243576049805
 20
-99.0
 30
0.0
 11
-44.2243423461914
 21
-101.499984741211
 31
0.0
  0
LINE
  5
   3EC
  8
0
  6
CONTINUOUS
 62
   210
 10
-21.4628601074219
 20
-80.8598251342774
 30
0.0
 11
-23.4628601074219
 21
-82.8598251342773
 31
0.0
  0
LINE
  5
   3ED
  8
0
  6
CONTINUOUS
 62
   210
 10
-21.4628601074219
 20
-82.9811477661133
 30
0.0
 11
-23.4628601074219
 21
-84.9811477661133
 31
0.0
  0
LINE
  5
   3EE
  8
0
  6
CONTINUOUS
 62
   210
 10
-21.4628601074219
 20
-85.1024703979492
 30
0.0
 11
-23.4628601074219
 21
-87.1024703979492
 31
0.0
  0
LINE
  5
   3EF
  8
0
  6
CONTINUOUS
 62
   210
 10
-21.4628601074219
 20
-87.2237930297852
 30
0.0
 11
-23.4628601074219
 21
-89.2237930297852
 31
0.0
  0
LINE
  5
   3F0
  8
0
  6
CONTINUOUS
 62
   210
 10
-21.4628601074219
 20
-89.3451156616211
 30
0.0
 11
-23.4628601074219
 21
-91.3451156616211
 31
0.0
  0
LINE
  5
   3F1
  8
0
  6
CONTINUOUS
 62
   210
 10
-21.4628601074219
 20
-91.466438293457
 30
0.0
 11
-23.4628601074219
 21
-93.466438293457
 31
0.0
  0
LINE
  5
   3F2
  8
0
  6
CONTINUOUS
 62
   210
 10
-21.4628601074219
 20
-93.587760925293
 30
0.0
 11
-23.4628601074219
 21
-95.587760925293
 31
0.0
  0
LINE
  5
   3F3
  8
0
  6
CONTINUOUS
 62
   210
 10
-21.4628601074219
 20
-95.7090835571289
 30
0.0
 11
-23.4628601074219
 21
-97.7090835571289
 31
0.0
  0
LINE
  5
   3F4
  8
0
  6
CONTINUOUS
 62
   210
 10
-21.4628601074219
 20
-97.8303909301758
 30
0.0
 11
-25.1324577331543
 21
-101.499984741211
 31
0.0
  0
LINE
  5
   3F5
  8
0
  6
CONTINUOUS
 62
   210
 10
-18.3898315429688
 20
-99.0
 30
0.0
 11
-20.8898162841797
 21
-101.499984741211
 31
0.0
  0
LINE
  5
   3F6
  8
0
  6
CONTINUOUS
 62
   210
 10
-14.1471900939941
 20
-99.0
 30
0.0
 11
-16.6471748352051
 21
-101.499984741211
 31
0.0
  0
LINE
  5
   3F7
  8
0
  6
CONTINUOUS
 62
   210
 10
-9.90454864501953
 20
-99.0
 30
0.0
 11
-12.4045333862305
 21
-101.499984741211
 31
0.0
  0
LINE
  5
   3F8
  8
0
  6
CONTINUOUS
 62
   210
 10
-5.66190814971924
 20
-99.0
 30
0.0
 11
-8.16189193725586
 21
-101.499984741211
 31
0.0
  0
LINE
  5
   3F9
  8
0
  6
CONTINUOUS
 62
   210
 10
-1.41926765441895
 20
-99.0
 30
0.0
 11
-3.91925144195557
 21
-101.499984741211
 31
0.0
  0
LINE
  5
   3FA
  8
0
  6
CONTINUOUS
 62
   210
 10
2.82337284088135
 20
-99.0
 30
0.0
 11
0.323389053344727
 21
-101.499984741211
 31
0.0
  0
ENDBLK
  5
   3FB
  8
0
  6
CONTINUOUS
 62
    98
  0
BLOCK
  5
   3FC
  8
0
  6
CONTINUOUS
 62
     7
  2
*UDIM1606
 70
    65
 10
0.0
 20
0.0
 30
0.0
  3
*UDIM1606
  0
TEXT
  5
   3FD
  8
0
  6
CONTINUOUS
 62
     7
 10
-966.096532858347
 20
-59.613026042069
 30
0.0
 40
3.00000002980232
  1
21
 50
89.9999999480344
 41
0.933333333333333
 72
     1
 11
-967.596532870984
 21
-57.1130260158752
 31
0.0
 73
     2
  0
TEXT
  5
   3FE
  8
0
  6
CONTINUOUS
 62
     7
 10
-966.096532857079
 20
-62.7630260520031
 30
0.0
 40
3.00000002980232
  1
Ø
 50
89.9999999480344
 41
0.933333333333334
 72
     1
 11
-967.596532870984
 21
-61.663026039717
 31
0.0
 73
     2
  0
LINE
  5
   3FF
  8
0
  6
CONTINUOUS
 62
     7
 10
-940.991467700352
 20
-64.6029842594439
 30
0.0
 11
-967.096532856083
 21
-64.6029842594439
 31
0.0
  0
LINE
  5
   400
  8
0
  6
CONTINUOUS
 62
     7
 10
-941.991467700352
 20
-54.1029842594439
 30
0.0
 11
-967.096532856083
 21
-54.1029842594439
 31
0.0
  0
LINE
  5
   401
  8
0
  6
CONTINUOUS
 62
     7
 10
-965.096532856083
 20
-64.6029842594439
 30
0.0
 11
-965.096532856083
 21
-54.1029842594439
 31
0.0
  0
LINE
  5
   402
  8
0
  6
CONTINUOUS
 62
     7
 10
-964.575588426131
 20
-67.5574075366509
 30
0.0
 11
-965.096532856083
 21
-64.6029842594439
 31
0.0
  0
LINE
  5
   403
  8
0
  6
CONTINUOUS
 62
     7
 10
-965.096532856083
 20
-64.6029842594439
 30
0.0
 11
-965.617477286035
 21
-67.5574075366509
 31
0.0
  0
LINE
  5
   404
  8
0
  6
CONTINUOUS
 62
     7
 10
-965.617477286035
 20
-51.1485609822369
 30
0.0
 11
-965.096532856083
 21
-54.1029842594439
 31
0.0
  0
LINE
  5
   405
  8
0
  6
CONTINUOUS
 62
     7
 10
-965.096532856083
 20
-54.1029842594439
 30
0.0
 11
-964.575588426131
 21
-51.1485609822369
 31
0.0
  0
ENDBLK
  5
   406
  8
0
  6
CONTINUOUS
 62
     7
  0
BLOCK
  5
   407
  8
0
  6
CONTINUOUS
 62
     7
  2
*UDIM1607
 70
    65
 10
0.0
 20
0.0
 30
0.0
  3
*UDIM1607
  0
TEXT
  5
   408
  8
0
  6
CONTINUOUS
 62
     7
 10
-946.516460825341
 20
91.7439422629971
 30
0.0
 40
3.00000002980232
  1
25
 50
359.999999948034
 41
0.933333333333333
 72
     1
 11
-944.016460799153
 21
93.2439422756434
 31
0.0
 73
     2
  0
LINE
  5
   409
  8
0
  6
CONTINUOUS
 62
     7
 10
-937.491466746678
 20
72.1470669010455
 30
0.0
 11
-937.491466746678
 21
92.7439422607422
 31
0.0
  0
LINE
  5
   40A
  8
0
  6
CONTINUOUS
 62
     7
 10
-949.991455078125
 20
81.7031464722576
 30
0.0
 11
-949.991455078125
 21
92.7439422607422
 31
0.0
  0
LINE
  5
   40B
  8
0
  6
CONTINUOUS
 62
     7
 10
-937.491466746678
 20
90.7439422607422
 30
0.0
 11
-949.991455078125
 21
90.7439422607422
 31
0.0
  0
LINE
  5
   40C
  8
0
  6
CONTINUOUS
 62
     7
 10
-940.445890023885
 20
90.2229978307905
 30
0.0
 11
-937.491466746678
 21
90.7439422607422
 31
0.0
  0
LINE
  5
   40D
  8
0
  6
CONTINUOUS
 62
     7
 10
-937.491466746678
 20
90.7439422607422
 30
0.0
 11
-940.445890023885
 21
91.2648866906939
 31
0.0
  0
LINE
  5
   40E
  8
0
  6
CONTINUOUS
 62
     7
 10
-947.037031800918
 20
91.2648866906939
 30
0.0
 11
-949.991455078125
 21
90.7439422607422
 31
0.0
  0
LINE
  5
   40F
  8
0
  6
CONTINUOUS
 62
     7
 10
-949.991455078125
 20
90.7439422607422
 30
0.0
 11
-947.037031800918
 21
90.2229978307905
 31
0.0
  0
ENDBLK
  5
   410
  8
0
  6
CONTINUOUS
 62
     7
  0
BLOCK
  5
   411
  8
0
  6
CONTINUOUS
 62
     7
  2
*UDIM1608
 70
    65
 10
0.0
 20
0.0
 30
0.0
  3
*UDIM1608
  0
TEXT
  5
   412
  8
0
  6
CONTINUOUS
 62
     7
 10
-976.881599433606
 20
27.9595641177716
 30
0.0
 40
3.00000002980232
  1
107,25
 50
89.9999999480344
 41
0.933333333333333
 72
     1
 11
-978.381599441171
 21
36.0595641995965
 31
0.0
 73
     2
  0
LINE
  5
   413
  8
0
  6
CONTINUOUS
 62
     7
 10
-944.70613827764
 20
63.1470669010455
 30
0.0
 11
-977.88159942627
 21
63.1470669010455
 31
0.0
  0
LINE
  5
   414
  8
0
  6
CONTINUOUS
 62
     7
 10
-975.88159942627
 20
9.52205841062687
 30
0.0
 11
-975.88159942627
 21
63.1470669010455
 31
0.0
  0
LINE
  5
   415
  8
0
  6
CONTINUOUS
 62
     7
 10
-976.402543856221
 20
12.4764816878338
 30
0.0
 11
-975.88159942627
 21
9.52205841062687
 31
0.0
  0
LINE
  5
   416
  8
0
  6
CONTINUOUS
 62
     7
 10
-975.88159942627
 20
9.52205841062687
 30
0.0
 11
-975.360654996318
 21
12.4764816878338
 31
0.0
  0
LINE
  5
   417
  8
0
  6
CONTINUOUS
 62
     7
 10
-975.360654996318
 20
60.1926436238385
 30
0.0
 11
-975.88159942627
 21
63.1470669010455
 31
0.0
  0
LINE
  5
   418
  8
0
  6
CONTINUOUS
 62
     7
 10
-975.88159942627
 20
63.1470669010455
 30
0.0
 11
-976.402543856221
 21
60.1926436238385
 31
0.0
  0
ENDBLK
  5
   419
  8
0
  6
CONTINUOUS
 62
     7
  0
BLOCK
  5
   41A
  8
0
  6
CONTINUOUS
 62
     7
  2
*UDIM1609
 70
    65
 10
0.0
 20
0.0
 30
0.0
  3
*UDIM1609
  0
TEXT
  5
   41B
  8
0
  6
CONTINUOUS
 62
     7
 10
-892.491462815167
 20
-103.17208099266
 30
0.0
 40
3.00000002980232
  1
2
 50
359.999999948034
 41
0.933333333333334
 72
     1
 11
-891.391462802887
 21
-101.672080978751
 31
0.0
 73
     2
  0
LINE
  5
   41C
  8
0
  6
CONTINUOUS
 62
     7
 10
-895.49146270752
 20
-68.5442205820115
 30
0.0
 11
-895.49146270752
 21
-106.172080993652
 31
0.0
  0
LINE
  5
   41D
  8
0
  6
CONTINUOUS
 62
     7
 10
-896.49146270752
 20
-68.9801180179089
 30
0.0
 11
-896.49146270752
 21
-106.172080993652
 31
0.0
  0
LINE
  5
   41E
  8
0
  6
CONTINUOUS
 62
     7
 10
-890.29146279196
 20
-104.172080993652
 30
0.0
 11
-896.49146270752
 21
-104.172080993652
 31
0.0
  0
LINE
  5
   41F
  8
0
  6
CONTINUOUS
 62
     7
 10
-892.537039430313
 20
-103.651136563701
 30
0.0
 11
-895.49146270752
 21
-104.172080993652
 31
0.0
  0
LINE
  5
   420
  8
0
  6
CONTINUOUS
 62
     7
 10
-895.49146270752
 20
-104.172080993652
 30
0.0
 11
-892.537039430313
 21
-104.693025423604
 31
0.0
  0
LINE
  5
   421
  8
0
  6
CONTINUOUS
 62
     7
 10
-899.445885984727
 20
-104.693025423604
 30
0.0
 11
-896.49146270752
 21
-104.172080993652
 31
0.0
  0
LINE
  5
   422
  8
0
  6
CONTINUOUS
 62
     7
 10
-896.49146270752
 20
-104.172080993652
 30
0.0
 11
-899.445885984727
 21
-103.651136563701
 31
0.0
  0
ENDBLK
  5
   423
  8
0
  6
CONTINUOUS
 62
     7
  0
BLOCK
  5
   424
  8
0
  6
CONTINUOUS
 62
     7
  2
*UDIM1610
 70
    65
 10
0.0
 20
0.0
 30
0.0
  3
*UDIM1610
  0
TEXT
  5
   425
  8
0
  6
CONTINUOUS
 62
     7
 10
-927.416458938879
 20
-103.172080990135
 30
0.0
 40
3.00000002980232
  1
107
 50
359.999999948034
 41
0.933333333333333
 72
     1
 11
-923.516458898783
 21
-101.672080978751
 31
0.0
 73
     2
  0
LINE
  5
   426
  8
0
  6
CONTINUOUS
 62
     7
 10
-949.991455078125
 20
-53.6029842594439
 30
0.0
 11
-949.991455078125
 21
-106.172080993652
 31
0.0
  0
LINE
  5
   427
  8
0
  6
CONTINUOUS
 62
     7
 10
-896.49146270752
 20
-104.172080993652
 30
0.0
 11
-949.991455078125
 21
-104.172080993652
 31
0.0
  0
LINE
  5
   428
  8
0
  6
CONTINUOUS
 62
     7
 10
-899.445885984727
 20
-104.693025423604
 30
0.0
 11
-896.49146270752
 21
-104.172080993652
 31
0.0
  0
LINE
  5
   429
  8
0
  6
CONTINUOUS
 62
     7
 10
-896.49146270752
 20
-104.172080993652
 30
0.0
 11
-899.445885984727
 21
-103.651136563701
 31
0.0
  0
LINE
  5
   42A
  8
0
  6
CONTINUOUS
 62
     7
 10
-947.037031800918
 20
-103.651136563701
 30
0.0
 11
-949.991455078125
 21
-104.172080993652
 31
0.0
  0
LINE
  5
   42B
  8
0
  6
CONTINUOUS
 62
     7
 10
-949.991455078125
 20
-104.172080993652
 30
0.0
 11
-947.037031800918
 21
-104.693025423604
 31
0.0
  0
ENDBLK
  5
   42C
  8
0
  6
CONTINUOUS
 62
     7
  0
BLOCK
  5
   42D
  8
0
  6
CONTINUOUS
 62
     7
  2
*UDIM1611
 70
    65
 10
0.0
 20
0.0
 30
0.0
  3
*UDIM1611
  0
TEXT
  5
   42E
  8
0
  6
CONTINUOUS
 62
     7
 10
-931.091458964092
 20
-96.5055313049921
 30
0.0
 40
3.00000002980232
  1
103,5
 50
359.999999948034
 41
0.933333333333333
 72
     1
 11
-924.391458896181
 21
-95.005531296134
 31
0.0
 73
     2
  0
LINE
  5
   42F
  8
0
  6
CONTINUOUS
 62
     7
 10
-898.241463021436
 20
-17.727926330584
 30
0.0
 11
-898.241488692773
 21
-99.5055313110351
 31
0.0
  0
LINE
  5
   430
  8
0
  6
CONTINUOUS
 62
     7
 10
-949.991455392042
 20
-53.6029842594439
 30
0.0
 11
-949.991469801608
 21
-99.5055313110351
 31
0.0
  0
LINE
  5
   431
  8
0
  6
CONTINUOUS
 62
     7
 10
-898.241488064941
 20
-97.5055313110352
 30
0.0
 11
-949.991469173775
 21
-97.5055313110352
 31
0.0
  0
LINE
  5
   432
  8
0
  6
CONTINUOUS
 62
     7
 10
-901.195911342147
 20
-98.0264757409868
 30
0.0
 11
-898.241488064941
 21
-97.5055313110352
 31
0.0
  0
LINE
  5
   433
  8
0
  6
CONTINUOUS
 62
     7
 10
-898.241488064941
 20
-97.5055313110352
 30
0.0
 11
-901.195911342147
 21
-96.9845868810835
 31
0.0
  0
LINE
  5
   434
  8
0
  6
CONTINUOUS
 62
     7
 10
-947.037045896568
 20
-96.9845868810835
 30
0.0
 11
-949.991469173775
 21
-97.5055313110352
 31
0.0
  0
LINE
  5
   435
  8
0
  6
CONTINUOUS
 62
     7
 10
-949.991469173775
 20
-97.5055313110352
 30
0.0
 11
-947.037045896568
 21
-98.0264757409868
 31
0.0
  0
ENDBLK
  5
   436
  8
0
  6
CONTINUOUS
 62
     7
  0
BLOCK
  5
   437
  8
0
  6
CONTINUOUS
 62
     7
  2
*UDIM1612
 70
    65
 10
0.0
 20
0.0
 30
0.0
  3
*UDIM1612
  0
TEXT
  5
   438
  8
0
  6
CONTINUOUS
 62
     7
 10
-957.241454499471
 20
-96.505531310043
 30
0.0
 40
3.00000002980232
  1
3
 50
359.999999948034
 41
0.933333333333334
 72
     1
 11
-956.14145448719
 21
-95.005531296134
 31
0.0
 73
     2
  0
TEXT
  5
   439
  8
0
  6
CONTINUOUS
 62
     7
 10
-959.991454533246
 20
-96.505531310043
 30
0.0
 40
3.00000002980232
  1
_
 50
359.999999948034
 41
0.933333333333334
 72
     1
 11
-958.891454520966
 21
-95.005531296134
 31
0.0
 73
     2
  0
LINE
  5
   43A
  8
0
  6
CONTINUOUS
 62
     7
 10
-951.491455392041
 20
-53.6029842594439
 30
0.0
 11
-951.491469801607
 21
-99.5055313110351
 31
0.0
  0
LINE
  5
   43B
  8
0
  6
CONTINUOUS
 62
     7
 10
-949.991469173775
 20
-97.5055313110352
 30
0.0
 11
-959.991454531893
 21
-97.5055313110352
 31
0.0
  0
LINE
  5
   43C
  8
0
  6
CONTINUOUS
 62
     7
 10
-947.037045896568
 20
-96.9845868810835
 30
0.0
 11
-949.991469173775
 21
-97.5055313110352
 31
0.0
  0
LINE
  5
   43D
  8
0
  6
CONTINUOUS
 62
     7
 10
-949.991469173775
 20
-97.5055313110352
 30
0.0
 11
-947.037045896568
 21
-98.0264757409868
 31
0.0
  0
LINE
  5
   43E
  8
0
  6
CONTINUOUS
 62
     7
 10
-954.445892450981
 20
-98.0264757409868
 30
0.0
 11
-951.491469173774
 21
-97.5055313110352
 31
0.0
  0
LINE
  5
   43F
  8
0
  6
CONTINUOUS
 62
     7
 10
-951.491469173774
 20
-97.5055313110352
 30
0.0
 11
-954.445892450981
 21
-96.9845868810835
 31
0.0
  0
ENDBLK
  5
   440
  8
0
  6
CONTINUOUS
 62
     7
  0
BLOCK
  5
   441
  8
0
  6
CONTINUOUS
 62
     7
  2
*UDIM1613
 70
    65
 10
0.0
 20
0.0
 30
0.0
  3
*UDIM1613
  0
TEXT
  5
   442
  8
0
  6
CONTINUOUS
 62
     7
 10
-890.916069033026
 20
-45.7324032845944
 30
0.0
 40
3.00000002980232
  1
12
 50
89.9999999480344
 41
0.933333333333333
 72
     1
 11
-892.416069045663
 21
-43.2324032584006
 31
0.0
 73
     2
  0
LINE
  5
   443
  8
0
  6
CONTINUOUS
 62
     7
 10
-928.639496260202
 20
-45.8529842594439
 30
0.0
 11
-887.916069030762
 21
-45.8529842594439
 31
0.0
  0
LINE
  5
   444
  8
0
  6
CONTINUOUS
 62
     7
 10
-928.290072247996
 20
-39.8529842594439
 30
0.0
 11
-887.916069030762
 21
-39.8529842594439
 31
0.0
  0
LINE
  5
   445
  8
0
  6
CONTINUOUS
 62
     7
 10
-889.916069030762
 20
-45.8529842594439
 30
0.0
 11
-889.916069030762
 21
-39.8529842594439
 31
0.0
  0
LINE
  5
   446
  8
0
  6
CONTINUOUS
 62
     7
 10
-889.39512460081
 20
-48.8074075366509
 30
0.0
 11
-889.916069030762
 21
-45.8529842594439
 31
0.0
  0
LINE
  5
   447
  8
0
  6
CONTINUOUS
 62
     7
 10
-889.916069030762
 20
-45.8529842594439
 30
0.0
 11
-890.437013460713
 21
-48.8074075366509
 31
0.0
  0
LINE
  5
   448
  8
0
  6
CONTINUOUS
 62
     7
 10
-890.437013460713
 20
-36.8985609822369
 30
0.0
 11
-889.916069030762
 21
-39.8529842594439
 31
0.0
  0
LINE
  5
   449
  8
0
  6
CONTINUOUS
 62
     7
 10
-889.916069030762
 20
-39.8529842594439
 30
0.0
 11
-889.39512460081
 21
-36.8985609822369
 31
0.0
  0
ENDBLK
  5
   44A
  8
0
  6
CONTINUOUS
 62
     7
  0
BLOCK
  5
   44B
  8
0
  6
CONTINUOUS
 62
     7
  2
*UDIM1614
 70
    65
 10
0.0
 20
0.0
 30
0.0
  3
*UDIM1614
  0
TEXT
  5
   44C
  8
0
  6
CONTINUOUS
 62
     7
 10
-931.591458946149
 20
98.7896728576055
 30
0.0
 40
3.00000002980232
  1
101,5
 50
359.999999948034
 41
0.933333333333333
 72
     1
 11
-924.891458878237
 21
100.289672866464
 31
0.0
 73
     2
  0
LINE
  5
   44D
  8
0
  6
CONTINUOUS
 62
     7
 10
-899.241462193743
 20
60.8970584106267
 30
0.0
 11
-899.241442211615
 21
99.7896728515622
 31
0.0
  0
LINE
  5
   44E
  8
0
  6
CONTINUOUS
 62
     7
 10
-949.991452315086
 20
81.7031464722538
 30
0.0
 11
-949.991402341314
 21
99.7896728515549
 31
0.0
  0
LINE
  5
   44F
  8
0
  6
CONTINUOUS
 62
     7
 10
-899.241443239169
 20
97.7896728515625
 30
0.0
 11
-949.991407867392
 21
97.7896728515625
 31
0.0
  0
LINE
  5
   450
  8
0
  6
CONTINUOUS
 62
     7
 10
-902.195866516376
 20
97.2687284216108
 30
0.0
 11
-899.241443239169
 21
97.7896728515625
 31
0.0
  0
LINE
  5
   451
  8
0
  6
CONTINUOUS
 62
     7
 10
-899.241443239169
 20
97.7896728515625
 30
0.0
 11
-902.195866516376
 21
98.3106172815142
 31
0.0
  0
LINE
  5
   452
  8
0
  6
CONTINUOUS
 62
     7
 10
-947.036984590185
 20
98.3106172815142
 30
0.0
 11
-949.991407867392
 21
97.7896728515625
 31
0.0
  0
LINE
  5
   453
  8
0
  6
CONTINUOUS
 62
     7
 10
-949.991407867392
 20
97.7896728515625
 30
0.0
 11
-947.036984590185
 21
97.2687284216108
 31
0.0
  0
ENDBLK
  5
   454
  8
0
  6
CONTINUOUS
 62
     7
  0
BLOCK
  5
   455
  8
0
  6
CONTINUOUS
 62
     7
  2
*UDIM1615
 70
    65
 10
0.0
 20
0.0
 30
0.0
  3
*UDIM1615
  0
TEXT
  5
   456
  8
0
  6
CONTINUOUS
 62
     7
 10
-869.295463564276
 20
57.8655715719361
 30
0.0
 40
3.00000002980232
  1
12
 50
89.9999999480344
 41
0.933333333333333
 72
     1
 11
-870.795463576913
 21
60.3655715981299
 31
0.0
 73
     2
  0
LINE
  5
   457
  8
0
  6
CONTINUOUS
 62
     7
 10
-929.714331284993
 20
57.1470669010455
 30
0.0
 11
-866.295463562012
 21
57.1470669010455
 31
0.0
  0
LINE
  5
   458
  8
0
  6
CONTINUOUS
 62
     7
 10
-928.639496260202
 20
63.1470669010455
 30
0.0
 11
-866.295463562012
 21
63.1470669010455
 31
0.0
  0
LINE
  5
   459
  8
0
  6
CONTINUOUS
 62
     7
 10
-868.295463562012
 20
57.1470669010455
 30
0.0
 11
-868.295463562012
 21
63.1470669010455
 31
0.0
  0
LINE
  5
   45A
  8
0
  6
CONTINUOUS
 62
     7
 10
-867.77451913206
 20
54.1926436238385
 30
0.0
 11
-868.295463562012
 21
57.1470669010455
 31
0.0
  0
LINE
  5
   45B
  8
0
  6
CONTINUOUS
 62
     7
 10
-868.295463562012
 20
57.1470669010455
 30
0.0
 11
-868.816407991964
 21
54.1926436238385
 31
0.0
  0
LINE
  5
   45C
  8
0
  6
CONTINUOUS
 62
     7
 10
-868.816407991964
 20
66.1014901782524
 30
0.0
 11
-868.295463562012
 21
63.1470669010455
 31
0.0
  0
LINE
  5
   45D
  8
0
  6
CONTINUOUS
 62
     7
 10
-868.295463562012
 20
63.1470669010455
 30
0.0
 11
-867.77451913206
 21
66.1014901782524
 31
0.0
  0
ENDBLK
  5
   45E
  8
0
  6
CONTINUOUS
 62
     7
  0
BLOCK
  5
   45F
  8
0
  6
CONTINUOUS
 62
     7
  2
*UDIM1616
 70
    65
 10
0.0
 20
0.0
 30
0.0
  3
*UDIM1616
  0
TEXT
  5
   460
  8
0
  6
CONTINUOUS
 62
     7
 10
-986.513957980827
 20
4.47203746004146
 30
0.0
 40
3.00000002980232
  1
218
 50
89.9999999480344
 41
0.933333333333333
 72
     1
 11
-988.013957992196
 21
8.37203750014305
 31
0.0
 73
     2
  0
LINE
  5
   461
  8
0
  6
CONTINUOUS
 62
     7
 10
-944.70613827764
 20
-45.8529842594439
 30
0.0
 11
-987.513957977295
 21
-45.8529842594439
 31
0.0
  0
LINE
  5
   462
  8
0
  6
CONTINUOUS
 62
     7
 10
-944.70613827764
 20
63.1470669010455
 30
0.0
 11
-987.513957977295
 21
63.1470669010455
 31
0.0
  0
LINE
  5
   463
  8
0
  6
CONTINUOUS
 62
     7
 10
-985.513957977295
 20
-45.8529842594439
 30
0.0
 11
-985.513957977295
 21
63.1470669010455
 31
0.0
  0
LINE
  5
   464
  8
0
  6
CONTINUOUS
 62
     7
 10
-986.034902407247
 20
-42.8985609822369
 30
0.0
 11
-985.513957977295
 21
-45.8529842594439
 31
0.0
  0
LINE
  5
   465
  8
0
  6
CONTINUOUS
 62
     7
 10
-985.513957977295
 20
-45.8529842594439
 30
0.0
 11
-984.993013547343
 21
-42.8985609822369
 31
0.0
  0
LINE
  5
   466
  8
0
  6
CONTINUOUS
 62
     7
 10
-984.993013547343
 20
60.1926436238385
 30
0.0
 11
-985.513957977295
 21
63.1470669010455
 31
0.0
  0
LINE
  5
   467
  8
0
  6
CONTINUOUS
 62
     7
 10
-985.513957977295
 20
63.1470669010455
 30
0.0
 11
-986.034902407247
 21
60.1926436238385
 31
0.0
  0
ENDBLK
  5
   468
  8
0
  6
CONTINUOUS
 62
     7
  0
BLOCK
  5
   469
  8
0
  6
CONTINUOUS
 62
     7
  2
*UDIM1617
 70
    65
 10
0.0
 20
0.0
 30
0.0
  3
*UDIM1617
  0
TEXT
  5
   46A
  8
0
  6
CONTINUOUS
 62
     7
 10
-920.405438274995
 20
-109.36454009658
 30
0.0
 40
3.00000002980232
  1
135
 50
359.999999948034
 41
0.933333333333333
 72
     1
 11
-916.505438234899
 21
-107.864540085197
 31
0.0
 73
     2
  0
LINE
  5
   46B
  8
0
  6
CONTINUOUS
 62
     7
 10
-882.469421716425
 20
3.39707366941597
 30
0.0
 11
-882.469458055902
 21
-112.364540100098
 31
0.0
  0
LINE
  5
   46C
  8
0
  6
CONTINUOUS
 62
     7
 10
-949.991455392042
 20
-53.6029842594439
 30
0.0
 11
-949.991473838262
 21
-112.364540100098
 31
0.0
  0
LINE
  5
   46D
  8
0
  6
CONTINUOUS
 62
     7
 10
-882.469457428069
 20
-110.364540100098
 30
0.0
 11
-949.991473210429
 21
-110.364540100098
 31
0.0
  0
LINE
  5
   46E
  8
0
  6
CONTINUOUS
 62
     7
 10
-885.423880705276
 20
-110.885484530049
 30
0.0
 11
-882.469457428069
 21
-110.364540100098
 31
0.0
  0
LINE
  5
   46F
  8
0
  6
CONTINUOUS
 62
     7
 10
-882.469457428069
 20
-110.364540100098
 30
0.0
 11
-885.423880705276
 21
-109.843595670146
 31
0.0
  0
LINE
  5
   470
  8
0
  6
CONTINUOUS
 62
     7
 10
-947.037049933222
 20
-109.843595670146
 30
0.0
 11
-949.991473210429
 21
-110.364540100098
 31
0.0
  0
LINE
  5
   471
  8
0
  6
CONTINUOUS
 62
     7
 10
-949.991473210429
 20
-110.364540100098
 30
0.0
 11
-947.037049933222
 21
-110.885484530049
 31
0.0
  0
ENDBLK
  5
   472
  8
0
  6
CONTINUOUS
 62
     7
  0
BLOCK
  5
   473
  8
0
  6
CONTINUOUS
 62
     7
  2
*UDIM1618
 70
    65
 10
0.0
 20
0.0
 30
0.0
  3
*UDIM1618
  0
TEXT
  5
   474
  8
0
  6
CONTINUOUS
 62
     7
 10
-872.998298648552
 20
5.34706417601769
 30
0.0
 40
3.00000002980232
  1
105
 50
89.9999999480344
 41
0.933333333333333
 72
     1
 11
-874.498298659921
 21
9.24706421611928
 31
0.0
 73
     2
  0
LINE
  5
   475
  8
0
  6
CONTINUOUS
 62
     7
 10
-895.49146270752
 20
-16.7279263305841
 30
0.0
 11
-869.99829864502
 21
-16.7279263305841
 31
0.0
  0
LINE
  5
   476
  8
0
  6
CONTINUOUS
 62
     7
 10
-895.49146270752
 20
35.7720584106269
 30
0.0
 11
-869.99829864502
 21
35.7720584106269
 31
0.0
  0
LINE
  5
   477
  8
0
  6
CONTINUOUS
 62
     7
 10
-871.99829864502
 20
-16.7279263305841
 30
0.0
 11
-871.99829864502
 21
35.7720584106269
 31
0.0
  0
LINE
  5
   478
  8
0
  6
CONTINUOUS
 62
     7
 10
-872.519243074971
 20
-13.7735030533771
 30
0.0
 11
-871.99829864502
 21
-16.7279263305841
 31
0.0
  0
LINE
  5
   479
  8
0
  6
CONTINUOUS
 62
     7
 10
-871.99829864502
 20
-16.7279263305841
 30
0.0
 11
-871.477354215068
 21
-13.7735030533771
 31
0.0
  0
LINE
  5
   47A
  8
0
  6
CONTINUOUS
 62
     7
 10
-871.477354215068
 20
32.8176351334199
 30
0.0
 11
-871.99829864502
 21
35.7720584106269
 31
0.0
  0
LINE
  5
   47B
  8
0
  6
CONTINUOUS
 62
     7
 10
-871.99829864502
 20
35.7720584106269
 30
0.0
 11
-872.519243074971
 21
32.8176351334199
 31
0.0
  0
ENDBLK
  5
   47C
  8
0
  6
CONTINUOUS
 62
     7
  0
BLOCK
  5
   47D
  8
0
  6
CONTINUOUS
 62
     7
  2
*UDIM1619
 70
    65
 10
0.0
 20
0.0
 30
0.0
  3
*UDIM1619
  0
TEXT
  5
   47E
  8
0
  6
CONTINUOUS
 62
     7
 10
-1019.12650860256
 20
-135.436209287158
 30
0.0
 40
2.99999994933605
  1
43,75
 50
359.999999896069
 41
0.933333333333333
 72
     1
 11
-1012.426508713
 21
-133.93620932461
 31
0.0
 73
     2
  0
LINE
  5
   47F
  8
0
  6
CONTINUOUS
 62
     7
 10
-1029.26110826805
 20
-145.095445588231
 30
0.0
 11
-1029.26110826805
 21
-134.436209299278
 31
0.0
  0
LINE
  5
   480
  8
0
  6
CONTINUOUS
 62
     7
 10
-1005.72650882615
 20
-136.436209299278
 30
0.0
 11
-1038.01110839844
 21
-136.436209299278
 31
0.0
  0
LINE
  5
   481
  8
0
  6
CONTINUOUS
 62
     7
 10
-1026.30668499085
 20
-135.915264869326
 30
0.0
 11
-1029.26110826805
 21
-136.436209299278
 31
0.0
  0
LINE
  5
   482
  8
0
  6
CONTINUOUS
 62
     7
 10
-1029.26110826805
 20
-136.436209299278
 30
0.0
 11
-1026.30668499085
 21
-136.957153729229
 31
0.0
  0
LINE
  5
   483
  8
0
  6
CONTINUOUS
 62
     7
 10
-1040.96553167564
 20
-136.957153729229
 30
0.0
 11
-1038.01110839844
 21
-136.436209299278
 31
0.0
  0
LINE
  5
   484
  8
0
  6
CONTINUOUS
 62
     7
 10
-1038.01110839844
 20
-136.436209299278
 30
0.0
 11
-1040.96553167564
 21
-135.915264869326
 31
0.0
  0
ENDBLK
  5
   485
  8
0
  6
CONTINUOUS
 62
     7
  0
BLOCK
  5
   486
  8
0
  6
CONTINUOUS
 62
     7
  2
*UDIM1620
 70
    65
 10
0.0
 20
0.0
 30
0.0
  3
*UDIM1620
  0
TEXT
  5
   487
  8
0
  6
CONTINUOUS
 62
     7
 10
-1050.76110845286
 20
-117.610011966993
 30
0.0
 40
2.99999994933605
  1
131,25
 50
359.999999896069
 41
0.933333333333333
 72
     1
 11
-1042.66110858694
 21
-116.110012006977
 31
0.0
 73
     2
  0
LINE
  5
   488
  8
0
  6
CONTINUOUS
 62
     7
 10
-1029.26110826805
 20
-145.095445588231
 30
0.0
 11
-1029.26110826805
 21
-116.610011981645
 31
0.0
  0
LINE
  5
   489
  8
0
  6
CONTINUOUS
 62
     7
 10
-1055.51110865921
 20
-145.095445588231
 30
0.0
 11
-1055.51110865921
 21
-116.610011981645
 31
0.0
  0
LINE
  5
   48A
  8
0
  6
CONTINUOUS
 62
     7
 10
-1029.26110826805
 20
-118.610011981645
 30
0.0
 11
-1055.51110865921
 21
-118.610011981645
 31
0.0
  0
LINE
  5
   48B
  8
0
  6
CONTINUOUS
 62
     7
 10
-1032.21553154526
 20
-119.130956411596
 30
0.0
 11
-1029.26110826805
 21
-118.610011981645
 31
0.0
  0
LINE
  5
   48C
  8
0
  6
CONTINUOUS
 62
     7
 10
-1029.26110826805
 20
-118.610011981645
 30
0.0
 11
-1032.21553154526
 21
-118.089067551693
 31
0.0
  0
LINE
  5
   48D
  8
0
  6
CONTINUOUS
 62
     7
 10
-1052.556685382
 20
-118.089067551693
 30
0.0
 11
-1055.51110865921
 21
-118.610011981645
 31
0.0
  0
LINE
  5
   48E
  8
0
  6
CONTINUOUS
 62
     7
 10
-1055.51110865921
 20
-118.610011981645
 30
0.0
 11
-1052.556685382
 21
-119.130956411596
 31
0.0
  0
ENDBLK
  5
   48F
  8
0
  6
CONTINUOUS
 62
     7
  0
BLOCK
  5
   490
  8
0
  6
CONTINUOUS
 62
     7
  2
*UDIM1621
 70
    65
 10
0.0
 20
0.0
 30
0.0
  3
*UDIM1621
  0
TEXT
  5
   491
  8
0
  6
CONTINUOUS
 62
     7
 10
-1071.83976795229
 20
-125.054930016718
 30
0.0
 40
2.99999994933605
  1
272
 50
449.999999896069
 41
0.933333333333333
 72
     1
 11
-1073.33976791991
 21
-121.15493007987
 31
0.0
 73
     2
  0
LINE
  5
   492
  8
0
  6
CONTINUOUS
 62
     7
 10
-1061.11110872775
 20
-96.2954448461533
 30
0.0
 11
-1072.83976794524
 21
-96.2954448461533
 31
0.0
  0
LINE
  5
   493
  8
0
  6
CONTINUOUS
 62
     7
 10
-1061.11110872775
 20
-150.695445656776
 30
0.0
 11
-1072.83976794524
 21
-150.695445656776
 31
0.0
  0
LINE
  5
   494
  8
0
  6
CONTINUOUS
 62
     7
 10
-1070.83976794524
 20
-96.2954448461533
 30
0.0
 11
-1070.83976794524
 21
-150.695445656776
 31
0.0
  0
LINE
  5
   495
  8
0
  6
CONTINUOUS
 62
     7
 10
-1070.31882351529
 20
-99.2498681233602
 30
0.0
 11
-1070.83976794524
 21
-96.2954448461533
 31
0.0
  0
LINE
  5
   496
  8
0
  6
CONTINUOUS
 62
     7
 10
-1070.83976794524
 20
-96.2954448461533
 30
0.0
 11
-1071.36071237519
 21
-99.2498681233602
 31
0.0
  0
LINE
  5
   497
  8
0
  6
CONTINUOUS
 62
     7
 10
-1071.36071237519
 20
-147.741022379569
 30
0.0
 11
-1070.83976794524
 21
-150.695445656776
 31
0.0
  0
LINE
  5
   498
  8
0
  6
CONTINUOUS
 62
     7
 10
-1070.83976794524
 20
-150.695445656776
 30
0.0
 11
-1070.31882351529
 21
-147.741022379569
 31
0.0
  0
ENDBLK
  5
   499
  8
0
  6
CONTINUOUS
 62
     7
  0
BLOCK
  5
   49A
  8
0
  6
CONTINUOUS
 62
     7
  2
*UDIM1622
 70
    65
 10
0.0
 20
0.0
 30
0.0
  3
*UDIM1622
  0
TEXT
  5
   49B
  8
0
  6
CONTINUOUS
 62
     7
 10
-1066.3659122875
 20
-118.095445035427
 30
0.0
 40
2.99999994933605
  1
134,25
 50
449.999999896069
 41
0.933333333333333
 72
     1
 11
-1067.86591224752
 21
-109.995445169508
 31
0.0
 73
     2
  0
LINE
  5
   49C
  8
0
  6
CONTINUOUS
 62
     7
 10
-1061.11110872775
 20
-96.2954448461533
 30
0.0
 11
-1067.36591227285
 21
-96.2954448461533
 31
0.0
  0
LINE
  5
   49D
  8
0
  6
CONTINUOUS
 62
     7
 10
-1065.36591227285
 20
-96.2954448461533
 30
0.0
 11
-1065.36591227285
 21
-123.145445246249
 31
0.0
  0
LINE
  5
   49E
  8
0
  6
CONTINUOUS
 62
     7
 10
-1064.8449678429
 20
-99.2498681233602
 30
0.0
 11
-1065.36591227285
 21
-96.2954448461533
 31
0.0
  0
LINE
  5
   49F
  8
0
  6
CONTINUOUS
 62
     7
 10
-1065.36591227285
 20
-96.2954448461533
 30
0.0
 11
-1065.8868567028
 21
-99.2498681233602
 31
0.0
  0
LINE
  5
   4A0
  8
0
  6
CONTINUOUS
 62
     7
 10
-1065.8868567028
 20
-120.191021969042
 30
0.0
 11
-1065.36591227285
 21
-123.145445246249
 31
0.0
  0
LINE
  5
   4A1
  8
0
  6
CONTINUOUS
 62
     7
 10
-1065.36591227285
 20
-123.145445246249
 30
0.0
 11
-1064.8449678429
 21
-120.191021969042
 31
0.0
  0
ENDBLK
  5
   4A2
  8
0
  6
CONTINUOUS
 62
     7
  0
ENDSEC
  0
SECTION
  2
ENTITIES
  0
LINE
  5
   4A3
  8
0
  6
DASHDOT
 62
     7
 10
-1085.43415211701
 20
-102.09544493258
 30
0.0
 11
-1114.91834048858
 21
-102.09544493258
 31
0.0
  0
LINE
  5
   4A4
  8
0
  6
DASHDOT
 62
     7
 10
-1082.87068985613
 20
-144.89544557035
 30
0.0
 11
-1117.41771619293
 21
-144.89544557035
 31
0.0
  0
LINE
  5
   4A5
  8
0
  6
DASHDOT
 62
     7
 10
-1101.96411132813
 20
-96.6684499437917
 30
0.0
 11
-1101.96411132813
 21
-149.860291856924
 31
0.0
  0
LINE
  5
   4A6
  8
0
  6
CONTINUOUS
 62
     7
 10
-1121.71411162242
 20
-97.1170558394446
 30
0.0
 11
-1121.71411162242
 21
-149.475772517793
 31
0.0
  0
LINE
  5
   4A7
  8
0
  6
CONTINUOUS
 62
     7
 10
-1089.21411113814
 20
-97.1170558394446
 30
0.0
 11
-1089.21411113814
 21
-150.75750364823
 31
0.0
  0
LINE
  5
   4A8
  8
0
  6
CONTINUOUS
 62
     7
 10
-1085.43415211701
 20
-98.0954448729754
 30
0.0
 11
-1122.90159602575
 21
-98.0954448729754
 31
0.0
  0
LINE
  5
   4A9
  8
0
  6
CONTINUOUS
 62
     7
 10
-1082.87068985613
 20
-148.895445629954
 30
0.0
 11
-1123.5578407275
 21
-148.895445629954
 31
0.0
  0
CIRCLE
  5
   4AA
  8
0
  6
CONTINUOUS
 62
     7
 10
-1097.58911126293
 20
-102.09544493258
 30
0.0
 40
0.550000008195639
  0
LINE
  5
   4AB
  8
0
  6
DASHDOT
 62
     7
 10
-1097.58911126293
 20
-96.6684499437917
 30
0.0
 11
-1097.58911126293
 21
-147.769138752128
 31
0.0
  0
CIRCLE
  5
   4AC
  8
0
  6
CONTINUOUS
 62
     7
 10
-1097.58911126293
 20
-144.89544557035
 30
0.0
 40
0.550000008195639
  0
LINE
  5
   4AD
  8
0
  6
DASHDOT
 62
     7
 10
-1115.0891115237
 20
-96.6684499437917
 30
0.0
 11
-1115.0891115237
 21
-153.628367728834
 31
0.0
  0
CIRCLE
  5
   4AE
  8
0
  6
CONTINUOUS
 62
     7
 10
-1115.0891115237
 20
-102.09544493258
 30
0.0
 40
0.550000008195639
  0
CIRCLE
  5
   4AF
  8
0
  6
CONTINUOUS
 62
     7
 10
-1115.0891115237
 20
-144.89544557035
 30
0.0
 40
0.550000008195639
  0
LINE
  5
   4B0
  8
0
  6
DASHDOT
 62
     7
 10
-1081.80199016809
 20
-123.145445246249
 30
0.0
 11
-1131.25090509991
 21
-123.145445246249
 31
0.0
  0
CIRCLE
  5
   4B1
  8
0
  6
CONTINUOUS
 62
     7
 10
-1119.20830725358
 20
-100.19846676876
 30
0.0
 40
0.15
  0
INSERT
  5
   4B2
  8
0
  6
CONTINUOUS
 62
     7
  2
*UDIM1583
 10
0.0
 20
0.0
 30
0.0
  0
INSERT
  5
   4B3
  8
0
  6
CONTINUOUS
 62
     7
  2
*UDIM1584
 10
0.0
 20
0.0
 30
0.0
  0
TEXT
  5
   4B4
  8
0
  6
CONTINUOUS
 62
     7
 10
-1103.00910696801
 20
-93.1956360227909
 30
0.0
 40
2.99999994933605
  1
Y
 50
359.999999896069
 41
0.916666607525612
 72
     2
 11
-1100.8091071498
 21
-93.1956360267705
 31
0.0
  0
INSERT
  5
   4B5
  8
0
  6
CONTINUOUS
 62
     7
  2
*UDIM1585
 10
0.0
 20
0.0
 30
0.0
  0
INSERT
  5
   4B6
  8
0
  6
CONTINUOUS
 62
     7
  2
*UDIM1586
 10
0.0
 20
0.0
 30
0.0
  0
INSERT
  5
   4B7
  8
0
  6
CONTINUOUS
 62
     7
  2
*UDIM1587
 10
0.0
 20
0.0
 30
0.0
  0
TEXT
  5
   4B8
  8
0
  6
CONTINUOUS
 62
     7
 10
-1139.4019018057
 20
-125.191993641302
 30
0.0
 40
2.99999994933605
  1
X
 50
359.999999896069
 41
0.916666607525612
 72
     2
 11
-1137.20190198749
 21
-125.191993645282
 31
0.0
  0
TEXT
  5
   4B9
  8
0
  6
CONTINUOUS
 62
     7
 10
-1079.43752865874
 20
-124.311496840157
 30
0.0
 40
2.99999994933605
  1
X
 50
359.999999896069
 41
0.916666607525612
 72
     2
 11
-1077.23752884053
 21
-124.311496844137
 31
0.0
  0
TEXT
  5
   4BA
  8
0
  6
CONTINUOUS
 62
     7
 10
-1102.87006780338
 20
-157.107097266288
 30
0.0
 40
2.99999994933605
  1
Y
 50
359.999999896069
 41
0.916666607525612
 72
     2
 11
-1100.67006798518
 21
-157.107097270268
 31
0.0
  0
LINE
  5
   4BB
  8
0
  6
CONTINUOUS
 62
     7
 10
-1068.18638659907
 20
72.1470565795898
 30
0.0
 11
-1088.31138659907
 21
72.1470565795898
 31
0.0
  0
LINE
  5
   4BC
  8
0
  6
CONTINUOUS
 62
     7
 10
-1023.12387084961
 20
72.1470565795898
 30
0.0
 11
-1044.56138659907
 21
72.1470565795898
 31
0.0
  0
LINE
  5
   4BD
  8
0
  6
CONTINUOUS
 62
     7
 10
-1021.37387084961
 20
60.1470642089844
 30
0.0
 11
-1021.37387084961
 21
70.7470565795898
 31
0.0
  0
LINE
  5
   4BE
  8
0
  6
CONTINUOUS
 62
     7
 10
-1113.24886322232
 20
60.1470642089844
 30
0.0
 11
-1113.24886322232
 21
70.7470565795898
 31
0.0
  0
CIRCLE
  5
   4BF
  8
0
  6
CONTINUOUS
 62
     7
 10
-1078.24885868361
 20
63.1470836376195
 30
0.0
 40
2.75000604975671
  0
CIRCLE
  5
   4C0
  8
0
  6
CONTINUOUS
 62
     7
 10
-1056.37385957967
 20
63.1471192374255
 30
0.0
 40
2.74996219889917
  0
CIRCLE
  5
   4C1
  8
0
  6
CONTINUOUS
 62
     7
 10
-1034.49889315402
 20
63.1470138215067
 30
0.0
 40
2.75005361163582
  0
ARC
  5
   4C2
  8
0
  6
CONTINUOUS
 62
     7
 10
-1111.49887652305
 20
71.647048030093
 30
0.0
 40
0.499990919521533
 50
449.999429635018
 51
540.000998310938
  0
ARC
  5
   4C3
  8
0
  6
CONTINUOUS
 62
     7
 10
-1023.12388662579
 20
71.6470408606092
 30
0.0
 40
0.500011945625467
 50
360.000541447801
 51
449.999463177363
  0
LINE
  5
   4C4
  8
0
  6
CONTINUOUS
 62
     7
 10
-1111.99886322021
 20
70.7470565795898
 30
0.0
 11
-1113.24886322232
 21
70.7470565795898
 31
0.0
  0
LINE
  5
   4C5
  8
0
  6
CONTINUOUS
 62
     7
 10
-1021.37387084961
 20
70.7470565795898
 30
0.0
 11
-1022.62387084961
 21
70.7470565795898
 31
0.0
  0
LINE
  5
   4C6
  8
0
  6
CONTINUOUS
 62
     7
 10
-1046.31138659907
 20
72.1470565795898
 30
0.0
 11
-1066.43638659907
 21
72.1470565795898
 31
0.0
  0
CIRCLE
  5
   4C7
  8
0
  6
CONTINUOUS
 62
     7
 10
-1078.24886336261
 20
70.1470617416452
 30
0.0
 40
0.699999510271856
  0
CIRCLE
  5
   4C8
  8
0
  6
CONTINUOUS
 62
     7
 10
-1056.37388808802
 20
70.1470603022906
 30
0.0
 40
0.700000602888031
  0
CIRCLE
  5
   4C9
  8
0
  6
CONTINUOUS
 62
     7
 10
-1034.49886143496
 20
70.14707026471
 30
0.0
 40
0.69999790324502
  0
LINE
  5
   4CA
  8
0
  6
CONTINUOUS
 62
     7
 10
-1042.81130598704
 20
60.1470642521362
 30
0.0
 11
-1042.8113517634
 21
62.1470642521986
 31
0.0
  0
LINE
  5
   4CB
  8
0
  6
CONTINUOUS
 62
     7
 10
-1048.06130598841
 20
60.1470642521362
 30
0.0
 11
-1048.06135176478
 21
62.1470642521986
 31
0.0
  0
LINE
  5
   4CC
  8
0
  6
CONTINUOUS
 62
     7
 10
-1064.68630790589
 20
60.1470642163153
 30
0.0
 11
-1064.68632697938
 21
62.147064216465
 31
0.0
  0
LINE
  5
   4CD
  8
0
  6
CONTINUOUS
 62
     7
 10
-1069.93630790613
 20
60.1470642163153
 30
0.0
 11
-1069.93632697962
 21
62.147064216465
 31
0.0
  0
ARC
  5
   4CE
  8
0
  6
CONTINUOUS
 62
     7
 10
-1067.31131578861
 20
62.1470984758659
 30
0.0
 40
2.6250366863301
 50
310.367380667564
 51
589.632619228505
  0
ARC
  5
   4CF
  8
0
  6
CONTINUOUS
 62
     7
 10
-1045.43637656901
 20
62.1470738552329
 30
0.0
 40
2.62500212995821
 50
310.367323104286
 51
589.632676791782
  0
LINE
  5
   4D0
  8
0
  6
CONTINUOUS
 62
     7
 10
-1022.62386322021
 20
60.1470642089844
 30
0.0
 11
-1022.62386322021
 21
70.7470565795898
 31
0.0
  0
LINE
  5
   4D1
  8
0
  6
CONTINUOUS
 62
     7
 10
-1021.37388659907
 20
-53.4529171753108
 30
0.0
 11
-1021.37388659907
 21
-24.1029358208179
 31
0.0
  0
LINE
  5
   4D2
  8
0
  6
CONTINUOUS
 62
     7
 10
-1113.24888659907
 20
-53.4529187250316
 30
0.0
 11
-1113.24888659907
 21
-24.1029358208179
 31
0.0
  0
LINE
  5
   4D3
  8
0
  6
CONTINUOUS
 62
     7
 10
-1111.99888659907
 20
-53.4529187250316
 30
0.0
 11
-1113.24888659907
 21
-53.4529187250316
 31
0.0
  0
LINE
  5
   4D4
  8
0
  6
CONTINUOUS
 62
     7
 10
-1111.99888659907
 20
-54.3529187011897
 30
0.0
 11
-1111.99888659907
 21
-53.4529187250316
 31
0.0
  0
LINE
  5
   4D5
  8
0
  6
CONTINUOUS
 62
     7
 10
-1080.63388875827
 20
-54.8529187011896
 30
0.0
 11
-1088.31138659907
 21
-54.8529187011896
 31
0.0
  0
LINE
  5
   4D6
  8
0
  6
CONTINUOUS
 62
     1
 10
-1111.99888659907
 20
-53.4529187250316
 30
0.0
 11
-1111.99888659907
 21
-42.8529183435618
 31
0.0
  0
LINE
  5
   4D7
  8
0
  6
CONTINUOUS
 62
     1
 10
-1069.93638659907
 20
-42.8529187011897
 30
0.0
 11
-1086.56138659907
 21
-42.8529187011897
 31
0.0
  0
LINE
  5
   4D8
  8
0
  6
CONTINUOUS
 62
     1
 10
-1048.06138659907
 20
-42.8529187011897
 30
0.0
 11
-1064.68638659907
 21
-42.8529187011897
 31
0.0
  0
LINE
  5
   4D9
  8
0
  6
CONTINUOUS
 62
     1
 10
-1048.06138659907
 20
-44.8529187011897
 30
0.0
 11
-1048.06138659907
 21
-42.8529187011897
 31
0.0
  0
LINE
  5
   4DA
  8
0
  6
CONTINUOUS
 62
     1
 10
-1022.62388659907
 20
-42.8529187011897
 30
0.0
 11
-1042.81138659907
 21
-42.8529187011897
 31
0.0
  0
LINE
  5
   4DB
  8
0
  6
DASHDOT
 62
     7
 10
-1056.37388679469
 20
-56.7124558436231
 30
0.0
 11
-1056.37388679469
 21
-17.1974741521508
 31
0.0
  0
ARC
  5
   4DC
  8
0
  6
CONTINUOUS
 62
     7
 10
-1111.4988867763
 20
-54.3529187645276
 30
0.0
 40
0.499999889965255
 50
179.99999084272
 51
269.999993044176
  0
LINE
  5
   4DD
  8
0
  6
CONTINUOUS
 62
     1
 10
-1021.37388679469
 20
36.0220718383789
 30
0.0
 11
-1021.37388679469
 21
60.1470642089844
 31
0.0
  0
LINE
  5
   4DE
  8
0
  6
CONTINUOUS
 62
     1
 10
-1113.24888679469
 20
-24.1029358208179
 30
0.0
 11
-1113.24888679469
 21
-16.4779434204101
 31
0.0
  0
LINE
  5
   4DF
  8
0
  6
CONTINUOUS
 62
     1
 10
-1113.24888679469
 20
36.0220565795898
 30
0.0
 11
-1113.24888679469
 21
60.1470642089844
 31
0.0
  0
LINE
  5
   4E0
  8
0
  6
CONTINUOUS
 62
     1
 10
-1021.87389442409
 20
-24.6029357910156
 30
0.0
 11
-1027.1238791653
 21
-24.6029357910156
 31
0.0
  0
LINE
  5
   4E1
  8
0
  6
CONTINUOUS
 62
     1
 10
-1113.24888679469
 20
-16.4779357910156
 30
0.0
 11
-1113.24888679469
 21
36.0220642089844
 31
0.0
  0
LINE
  5
   4E2
  8
0
  6
CONTINUOUS
 62
     1
 10
-1021.37388679469
 20
-24.1029358208179
 30
0.0
 11
-1021.37388679469
 21
36.0220642089844
 31
0.0
  0
LINE
  5
   4E3
  8
0
  6
DASHDOT
 62
     1
 10
-1056.37388679469
 20
-27.9315103550425
 30
0.0
 11
-1056.37388679469
 21
63.0784649958857
 31
0.0
  0
LINE
  5
   4E4
  8
0
  6
CONTINUOUS
 62
     1
 10
-1021.37388679469
 20
-24.1029358208179
 30
0.0
 11
-1027.1238791653
 21
-24.1029358208179
 31
0.0
  0
LINE
  5
   4E5
  8
0
  6
CONTINUOUS
 62
     1
 10
-1085.6238791653
 20
-24.1029358208179
 30
0.0
 11
-1113.24888659907
 21
-24.1029358208179
 31
0.0
  0
LINE
  5
   4E6
  8
0
  6
CONTINUOUS
 62
     1
 10
-1021.87389442409
 20
-24.6029357910158
 30
0.0
 11
-1021.87389442409
 21
-24.1029358208181
 31
0.0
  0
LINE
  5
   4E7
  8
0
  6
CONTINUOUS
 62
     1
 10
-1022.49889442409
 20
-16.4779357910156
 30
0.0
 11
-1022.49889442409
 21
36.0220565795898
 31
0.0
  0
LINE
  5
   4E8
  8
0
  6
CONTINUOUS
 62
     1
 10
-1023.64888832057
 20
-16.4779434204102
 30
0.0
 11
-1023.64888832057
 21
36.0220565795898
 31
0.0
  0
LINE
  5
   4E9
  8
0
  6
CONTINUOUS
 62
     1
 10
-1025.44889137233
 20
-16.4779434204102
 30
0.0
 11
-1025.44889137233
 21
36.0220565795898
 31
0.0
  0
LINE
  5
   4EA
  8
0
  6
CONTINUOUS
 62
     1
 10
-1029.94889137233
 20
-16.4779434204102
 30
0.0
 11
-1029.94889137233
 21
36.0220565795898
 31
0.0
  0
LINE
  5
   4EB
  8
0
  6
CONTINUOUS
 62
     1
 10
-1027.24889442409
 20
49.5220769237796
 30
0.0
 11
-1027.24889442409
 21
60.1470565795898
 31
0.0
  0
LINE
  5
   4EC
  8
0
  6
CONTINUOUS
 62
     1
 10
-1029.04888984645
 20
49.7720565795898
 30
0.0
 11
-1029.04888984645
 21
60.1470565795898
 31
0.0
  0
LINE
  5
   4ED
  8
0
  6
CONTINUOUS
 62
     1
 10
-1022.49889442409
 20
36.0220565795898
 30
0.0
 11
-1022.49889442409
 21
60.1470565795898
 31
0.0
  0
LINE
  5
   4EE
  8
0
  6
CONTINUOUS
 62
     1
 10
-1023.64888832057
 20
36.0220565795898
 30
0.0
 11
-1023.64888832057
 21
60.1470565795898
 31
0.0
  0
LINE
  5
   4EF
  8
0
  6
CONTINUOUS
 62
     1
 10
-1025.44889137233
 20
36.0220565795898
 30
0.0
 11
-1025.44889137233
 21
60.1470565795898
 31
0.0
  0
LINE
  5
   4F0
  8
0
  6
CONTINUOUS
 62
     1
 10
-1029.94889137233
 20
49.7720565795898
 30
0.0
 11
-1029.94889137233
 21
60.1470565795898
 31
0.0
  0
LINE
  5
   4F1
  8
0
  6
CONTINUOUS
 62
     1
 10
-1027.24889442409
 20
-42.6029187011895
 30
0.0
 11
-1027.24889442409
 21
-30.4779618572513
 31
0.0
  0
LINE
  5
   4F2
  8
0
  6
CONTINUOUS
 62
     1
 10
-1029.04888984645
 20
-42.6029187011895
 30
0.0
 11
-1029.04888984645
 21
-30.7279415130615
 31
0.0
  0
LINE
  5
   4F3
  8
0
  6
CONTINUOUS
 62
     1
 10
-1022.49889442409
 20
-42.6029187011895
 30
0.0
 11
-1022.49889442409
 21
-25.1029187011895
 31
0.0
  0
LINE
  5
   4F4
  8
0
  6
CONTINUOUS
 62
     1
 10
-1023.64888832057
 20
-42.6029187011895
 30
0.0
 11
-1023.64888832057
 21
-25.1029187011895
 31
0.0
  0
LINE
  5
   4F5
  8
0
  6
CONTINUOUS
 62
     1
 10
-1025.44889137233
 20
-42.6029187011895
 30
0.0
 11
-1025.44889137233
 21
-25.1029187011895
 31
0.0
  0
LINE
  5
   4F6
  8
0
  6
CONTINUOUS
 62
     1
 10
-1029.94889137233
 20
-42.6029187011895
 30
0.0
 11
-1029.94889137233
 21
-30.7279415130615
 31
0.0
  0
LINE
  5
   4F7
  8
0
  6
CONTINUOUS
 62
     1
 10
-1081.87388679469
 20
49.7720565795898
 30
0.0
 11
-1081.87388679469
 21
57.6470642089844
 31
0.0
  0
LINE
  5
   4F8
  8
0
  6
CONTINUOUS
 62
     1
 10
-1030.87388679469
 20
49.7720565795898
 30
0.0
 11
-1030.87388679469
 21
57.6470642089844
 31
0.0
  0
LINE
  5
   4F9
  8
0
  6
CONTINUOUS
 62
     1
 10
-1030.87388679469
 20
57.6470642089844
 30
0.0
 11
-1081.87388679469
 21
57.6470642089844
 31
0.0
  0
LINE
  5
   4FA
  8
0
  6
CONTINUOUS
 62
     3
 10
-1030.12388679469
 20
-16.2279434204102
 30
0.0
 11
-1030.12388679469
 21
-7.22794342041016
 31
0.0
  0
LINE
  5
   4FB
  8
0
  6
CONTINUOUS
 62
     3
 10
-1082.62388679469
 20
-16.2279434204102
 30
0.0
 11
-1082.62388679469
 21
-7.22794342041016
 31
0.0
  0
LINE
  5
   4FC
  8
0
  6
CONTINUOUS
 62
     3
 10
-1050.99888679469
 20
-5.35294342041016
 30
0.0
 11
-1050.99888679469
 21
14.6470489501953
 31
0.0
  0
LINE
  5
   4FD
  8
0
  6
CONTINUOUS
 62
     3
 10
-1061.74888679469
 20
-5.35294342041016
 30
0.0
 11
-1061.74888679469
 21
14.6470489501953
 31
0.0
  0
LINE
  5
   4FE
  8
0
  6
CONTINUOUS
 62
     1
 10
-1030.12388679469
 20
30.0220489501953
 30
0.0
 11
-1082.62388679469
 21
30.0220489501953
 31
0.0
  0
LINE
  5
   4FF
  8
0
  6
CONTINUOUS
 62
     1
 10
-1030.12388679469
 20
35.0220489501953
 30
0.0
 11
-1082.62388679469
 21
35.0220489501953
 31
0.0
  0
LINE
  5
   500
  8
0
  6
CONTINUOUS
 62
     3
 10
-1050.99888679469
 20
14.5148162841797
 30
0.0
 11
-1061.74888679469
 21
14.5148162841797
 31
0.0
  0
LINE
  5
   501
  8
0
  6
CONTINUOUS
 62
     3
 10
-1050.99888679469
 20
14.6470489501953
 30
0.0
 11
-1061.74888679469
 21
14.6470489501953
 31
0.0
  0
LINE
  5
   502
  8
0
  6
CONTINUOUS
 62
     3
 10
-1050.99888679469
 20
-5.35294342041016
 30
0.0
 11
-1061.74888679469
 21
-5.35294342041016
 31
0.0
  0
LINE
  5
   503
  8
0
  6
CONTINUOUS
 62
     3
 10
-1050.99888679469
 20
-5.22069549560547
 30
0.0
 11
-1061.74888679469
 21
-5.22069549560547
 31
0.0
  0
LINE
  5
   504
  8
0
  6
DASHDOT
 62
     3
 10
-1056.37388679469
 20
-18.104576730695
 30
0.0
 11
-1056.37388679469
 21
25.1232663528293
 31
0.0
  0
LINE
  5
   505
  8
0
  6
DASHDOT
 62
     3
 10
-1056.37388679469
 20
24.7368999965698
 30
0.0
 11
-1056.37388679469
 21
41.4899762009464
 31
0.0
  0
LINE
  5
   506
  8
0
  6
CONTINUOUS
 62
     3
 10
-1030.12389442409
 20
-6.72794342041016
 30
0.0
 11
-1030.12389442409
 21
-0.727947397029403
 31
0.0
  0
LINE
  5
   507
  8
0
  6
CONTINUOUS
 62
     3
 10
-1030.12389442409
 20
16.5220565795898
 30
0.0
 11
-1030.12389442409
 21
35.2720565795898
 31
0.0
  0
LINE
  5
   508
  8
0
  6
CONTINUOUS
 62
     3
 10
-1030.12389442409
 20
-0.227947397029375
 30
0.0
 11
-1030.12389442409
 21
9.52205657958984
 31
0.0
  0
LINE
  5
   509
  8
0
  6
CONTINUOUS
 62
     3
 10
-1030.12389442409
 20
10.0220565795898
 30
0.0
 11
-1030.12389442409
 21
16.0220565795898
 31
0.0
  0
LINE
  5
   50A
  8
0
  6
CONTINUOUS
 62
     3
 10
-1082.6238867947
 20
-6.72794342041016
 30
0.0
 11
-1082.6238867947
 21
-0.727943420409069
 31
0.0
  0
LINE
  5
   50B
  8
0
  6
CONTINUOUS
 62
     3
 10
-1082.62388679471
 20
-0.227943420409034
 30
0.0
 11
-1082.62388679471
 21
9.52205657958984
 31
0.0
  0
LINE
  5
   50C
  8
0
  6
CONTINUOUS
 62
     3
 10
-1082.62388679469
 20
10.0220565795898
 30
0.0
 11
-1082.62388679469
 21
16.0220565795898
 31
0.0
  0
LINE
  5
   50D
  8
0
  6
CONTINUOUS
 62
     3
 10
-1082.62388679468
 20
16.5220565795898
 30
0.0
 11
-1082.62388679468
 21
35.2720565795898
 31
0.0
  0
LINE
  5
   50E
  8
0
  6
CONTINUOUS
 62
     1
 10
-1061.74889078156
 20
-0.727933802698033
 30
0.0
 11
-1082.1238868245
 21
-0.727933802698033
 31
0.0
  0
LINE
  5
   50F
  8
0
  6
CONTINUOUS
 62
     3
 10
-1030.12389442409
 20
-0.727937779321167
 30
0.0
 11
-1030.62389442409
 21
-0.727937779321167
 31
0.0
  0
LINE
  5
   510
  8
0
  6
CONTINUOUS
 62
     1
 10
-1061.7489005611
 20
-0.227933802695084
 30
0.0
 11
-1082.1238868245
 21
-0.227933802695084
 31
0.0
  0
LINE
  5
   511
  8
0
  6
CONTINUOUS
 62
     3
 10
-1030.12389442409
 20
-0.227937779321209
 30
0.0
 11
-1030.62389442409
 21
-0.227937779321209
 31
0.0
  0
LINE
  5
   512
  8
0
  6
CONTINUOUS
 62
     3
 10
-1082.1238868245
 20
-0.727943420410156
 30
0.0
 11
-1082.1238868245
 21
-0.227943420410156
 31
0.0
  0
LINE
  5
   513
  8
0
  6
CONTINUOUS
 62
     3
 10
-1030.62389442409
 20
-0.727943420410156
 30
0.0
 11
-1030.62389442409
 21
-0.227943420410156
 31
0.0
  0
LINE
  5
   514
  8
0
  6
CONTINUOUS
 62
     3
 10
-1030.12388679469
 20
-7.22794342041016
 30
0.0
 11
-1030.62389442409
 21
-7.22794342041016
 31
0.0
  0
LINE
  5
   515
  8
0
  6
CONTINUOUS
 62
     3
 10
-1030.12389442409
 20
-6.72794342041016
 30
0.0
 11
-1030.62389442409
 21
-6.72794342041016
 31
0.0
  0
LINE
  5
   516
  8
0
  6
CONTINUOUS
 62
     3
 10
-1082.1238868245
 20
-7.22794342041016
 30
0.0
 11
-1082.1238868245
 21
-6.72794342041016
 31
0.0
  0
LINE
  5
   517
  8
0
  6
CONTINUOUS
 62
     3
 10
-1030.62389442409
 20
-7.22794342041016
 30
0.0
 11
-1030.62389442409
 21
-6.72794342041016
 31
0.0
  0
LINE
  5
   518
  8
0
  6
CONTINUOUS
 62
     3
 10
-1030.12389442409
 20
16.0220565795898
 30
0.0
 11
-1030.62389442409
 21
16.0220565795898
 31
0.0
  0
LINE
  5
   519
  8
0
  6
CONTINUOUS
 62
     3
 10
-1030.12389442409
 20
16.5220565795898
 30
0.0
 11
-1030.62389442409
 21
16.5220565795898
 31
0.0
  0
LINE
  5
   51A
  8
0
  6
CONTINUOUS
 62
     3
 10
-1082.1238868245
 20
16.0220565795898
 30
0.0
 11
-1082.1238868245
 21
16.5220565795898
 31
0.0
  0
LINE
  5
   51B
  8
0
  6
CONTINUOUS
 62
     3
 10
-1030.62389442409
 20
16.0220565795898
 30
0.0
 11
-1030.62389442409
 21
16.5220565795898
 31
0.0
  0
LINE
  5
   51C
  8
0
  6
CONTINUOUS
 62
     1
 10
-1061.7488907584
 20
9.52205657958984
 30
0.0
 11
-1082.1238868245
 21
9.52205657958984
 31
0.0
  0
LINE
  5
   51D
  8
0
  6
CONTINUOUS
 62
     3
 10
-1030.12389442409
 20
9.52205657958984
 30
0.0
 11
-1030.62389442409
 21
9.52205657958984
 31
0.0
  0
LINE
  5
   51E
  8
0
  6
CONTINUOUS
 62
     1
 10
-1061.74888679469
 20
10.0220565795898
 30
0.0
 11
-1082.1238868245
 21
10.0220565795898
 31
0.0
  0
LINE
  5
   51F
  8
0
  6
CONTINUOUS
 62
     3
 10
-1030.12389442409
 20
10.0220565795898
 30
0.0
 11
-1030.62389442409
 21
10.0220565795898
 31
0.0
  0
LINE
  5
   520
  8
0
  6
CONTINUOUS
 62
     3
 10
-1082.1238868245
 20
9.52205657958984
 30
0.0
 11
-1082.1238868245
 21
10.0220565795898
 31
0.0
  0
LINE
  5
   521
  8
0
  6
CONTINUOUS
 62
     3
 10
-1030.62389442409
 20
9.52205657958984
 30
0.0
 11
-1030.62389442409
 21
10.0220565795898
 31
0.0
  0
INSERT
  5
   522
  8
255
  6
CONTINUOUS
 62
     3
  2
$1ON-OFF
 10
-1046.37389167751
 20
13.0220565795899
 30
0.0
 41
0.5
 42
0.5
 50
359.999999792137
 43
0.5
  0
LINE
  5
   523
  8
0
  6
CONTINUOUS
 62
     1
 10
-1067.62388679469
 20
15.2720565795898
 30
0.0
 11
-1068.37388679469
 21
15.2720565795898
 31
0.0
  0
LINE
  5
   524
  8
0
  6
CONTINUOUS
 62
     1
 10
-1067.62388679469
 20
10.7720565795898
 30
0.0
 11
-1068.37388679469
 21
10.7720565795898
 31
0.0
  0
CIRCLE
  5
   525
  8
0
  6
CONTINUOUS
 62
     1
 10
-1067.99888679469
 20
-3.72794342041014
 30
0.0
 40
2.25
  0
CIRCLE
  5
   526
  8
0
  6
CONTINUOUS
 62
     1
 10
-1067.99888679469
 20
-3.72794342041014
 30
0.0
 40
1.5
  0
LINE
  5
   527
  8
0
  6
CONTINUOUS
 62
     1
 10
-1068.37388679469
 20
10.7720565795898
 30
0.0
 11
-1068.37388679469
 21
15.2720565795898
 31
0.0
  0
LINE
  5
   528
  8
0
  6
CONTINUOUS
 62
     1
 10
-1067.62388679469
 20
10.7720565795898
 30
0.0
 11
-1067.62388679469
 21
15.2720565795898
 31
0.0
  0
LINE
  5
   529
  8
0
  6
CONTINUOUS
 62
     1
 10
-1063.12388679469
 20
-6.72794342041016
 30
0.0
 11
-1063.12388679469
 21
-0.727936275827396
 31
0.0
  0
LINE
  5
   52A
  8
0
  6
CONTINUOUS
 62
     1
 10
-1049.62388679469
 20
-6.72794342041016
 30
0.0
 11
-1049.62388679469
 21
-0.72794025245053
 31
0.0
  0
LINE
  5
   52B
  8
0
  6
CONTINUOUS
 62
     1
 10
-1049.62388679469
 20
10.0220565795898
 30
0.0
 11
-1049.62388679469
 21
16.0220565795898
 31
0.0
  0
LINE
  5
   52C
  8
0
  6
CONTINUOUS
 62
     1
 10
-1063.12388679469
 20
10.0220565795898
 30
0.0
 11
-1063.12388679469
 21
16.0220565795898
 31
0.0
  0
LINE
  5
   52D
  8
0
  6
CONTINUOUS
 62
     7
 10
-1021.37388659907
 20
-25.1029187011895
 30
0.0
 11
-1027.1238791653
 21
-25.1029187011895
 31
0.0
  0
LINE
  5
   52E
  8
0
  6
CONTINUOUS
 62
     1
 10
-1021.37388659907
 20
-42.6029187011895
 30
0.0
 11
-1113.24888659907
 21
-42.6029187011895
 31
0.0
  0
LINE
  5
   52F
  8
0
  6
DASHDOT
 62
     7
 10
-1034.49889315402
 20
55.3969602098708
 30
0.0
 11
-1034.49889315402
 21
70.8970674331425
 31
0.0
  0
LINE
  5
   530
  8
0
  6
DASHDOT
 62
     7
 10
-1026.74883954238
 20
63.1470138215067
 30
0.0
 11
-1042.24894676565
 21
63.1470138215067
 31
0.0
  0
LINE
  5
   531
  8
0
  6
DASHDOT
 62
     7
 10
-1034.49886143496
 20
64.447072361465
 30
0.0
 11
-1034.49886143496
 21
75.847068167955
 31
0.0
  0
LINE
  5
   532
  8
0
  6
DASHDOT
 62
     7
 10
-1028.79886353171
 20
70.14707026471
 30
0.0
 11
-1040.1988593382
 21
70.14707026471
 31
0.0
  0
LINE
  5
   533
  8
0
  6
DASHDOT
 62
     7
 10
-1045.43637656901
 20
54.5220717252746
 30
0.0
 11
-1045.43637656901
 21
69.7720759851911
 31
0.0
  0
LINE
  5
   534
  8
0
  6
DASHDOT
 62
     7
 10
-1037.81137443906
 20
62.1470738552329
 30
0.0
 11
-1053.06137869897
 21
62.1470738552329
 31
0.0
  0
LINE
  5
   535
  8
0
  6
DASHDOT
 62
     7
 10
-1056.37388808802
 20
64.4470596994026
 30
0.0
 11
-1056.37388808802
 21
83.7058679067488
 31
0.0
  0
LINE
  5
   536
  8
0
  6
DASHDOT
 62
     7
 10
-1050.67388748514
 20
70.1470603022906
 30
0.0
 11
-1062.07388869091
 21
70.1470603022906
 31
0.0
  0
LINE
  5
   537
  8
0
  6
DASHDOT
 62
     7
 10
-1056.37385957967
 20
55.3971570385264
 30
0.0
 11
-1056.37385957967
 21
70.8970814363247
 31
0.0
  0
LINE
  5
   538
  8
0
  6
DASHDOT
 62
     7
 10
-1048.62389738078
 20
63.1471192374255
 30
0.0
 11
-1064.12382177857
 21
63.1471192374255
 31
0.0
  0
LINE
  5
   539
  8
0
  6
DASHDOT
 62
     7
 10
-1067.31131578861
 20
54.5220617895358
 30
0.0
 11
-1067.31131578861
 21
69.772135162196
 31
0.0
  0
LINE
  5
   53A
  8
0
  6
DASHDOT
 62
     7
 10
-1059.68627910228
 20
62.1470984758659
 30
0.0
 11
-1074.93635247494
 21
62.1470984758659
 31
0.0
  0
LINE
  5
   53B
  8
0
  6
DASHDOT
 62
     7
 10
-1078.24886336261
 20
64.4470622313733
 30
0.0
 11
-1078.24886336261
 21
75.847061251917
 31
0.0
  0
LINE
  5
   53C
  8
0
  6
DASHDOT
 62
     7
 10
-1072.54886385234
 20
70.1470617416452
 30
0.0
 11
-1083.94886287288
 21
70.1470617416452
 31
0.0
  0
LINE
  5
   53D
  8
0
  6
DASHDOT
 62
     7
 10
-1078.24885868361
 20
55.3970775878628
 30
0.0
 11
-1078.24885868361
 21
70.8970896873762
 31
0.0
  0
LINE
  5
   53E
  8
0
  6
DASHDOT
 62
     7
 10
-1070.49885263385
 20
63.1470836376195
 30
0.0
 11
-1085.99886473336
 21
63.1470836376195
 31
0.0
  0
LINE
  5
   53F
  8
0
  6
DASHDOT
 62
     7
 10
-1078.24888647953
 20
-53.6029189770444
 30
0.0
 11
-1078.24888647953
 21
-38.1029186578499
 31
0.0
  0
LINE
  5
   540
  8
0
  6
DASHDOT
 62
     7
 10
-1056.37388562961
 20
-58.552918364595
 30
0.0
 11
-1056.37388562961
 21
-47.1529163232023
 31
0.0
  0
LINE
  5
   541
  8
0
  6
DASHDOT
 62
     7
 10
-1034.49888548711
 20
-53.6029187214853
 30
0.0
 11
-1034.49888548711
 21
-38.1029170383034
 31
0.0
  0
LINE
  5
   542
  8
0
  6
CONTINUOUS
 62
     7
 10
-1050.99888679469
 20
-1.01329296402232
 30
0.0
 11
-1061.74888679469
 21
-1.01329296402232
 31
0.0
  0
LINE
  5
   543
  8
0
  6
CONTINUOUS
 62
     7
 10
-1050.99888679469
 20
1.45976762394953
 30
0.0
 11
-1061.74888679469
 21
1.45976762394953
 31
0.0
  0
LINE
  5
   544
  8
0
  6
CONTINUOUS
 62
     7
 10
-1050.99888679469
 20
-4.97376879034322
 30
0.0
 11
-1061.74888679469
 21
-4.97376879034322
 31
0.0
  0
LINE
  5
   545
  8
0
  6
CONTINUOUS
 62
     7
 10
-1111.99886322021
 20
70.7470565795898
 30
0.0
 11
-1111.99886322021
 21
71.6470642089844
 31
0.0
  0
LINE
  5
   546
  8
0
  6
CONTINUOUS
 62
     7
 10
-1022.62386322021
 20
70.7470565795898
 30
0.0
 11
-1022.62386322021
 21
71.6470642089844
 31
0.0
  0
LINE
  5
   547
  8
0
  6
CONTINUOUS
 62
     3
 10
-1082.1238868245
 20
16.5220565795898
 30
0.0
 11
-1082.62388679468
 21
16.5220565795898
 31
0.0
  0
LINE
  5
   548
  8
0
  6
CONTINUOUS
 62
     3
 10
-1082.1238868245
 20
16.0220565795898
 30
0.0
 11
-1082.62388679469
 21
16.0220565795898
 31
0.0
  0
LINE
  5
   549
  8
0
  6
CONTINUOUS
 62
     3
 10
-1082.1238868245
 20
10.0220565795898
 30
0.0
 11
-1082.62388679469
 21
10.0220565795898
 31
0.0
  0
LINE
  5
   54A
  8
0
  6
CONTINUOUS
 62
     3
 10
-1082.1238868245
 20
9.52205657958984
 30
0.0
 11
-1082.62388679471
 21
9.52205657958984
 31
0.0
  0
LINE
  5
   54B
  8
0
  6
CONTINUOUS
 62
     3
 10
-1082.1238868245
 20
-0.227933802695084
 30
0.0
 11
-1082.62388679471
 21
-0.227933802695084
 31
0.0
  0
LINE
  5
   54C
  8
0
  6
CONTINUOUS
 62
     3
 10
-1082.1238868245
 20
-0.727933802698033
 30
0.0
 11
-1082.6238867947
 21
-0.727933802698033
 31
0.0
  0
LINE
  5
   54D
  8
0
  6
CONTINUOUS
 62
     3
 10
-1082.1238868245
 20
-6.72794342041016
 30
0.0
 11
-1082.6238867947
 21
-6.72794342041016
 31
0.0
  0
LINE
  5
   54E
  8
0
  6
CONTINUOUS
 62
     3
 10
-1082.1238868245
 20
-7.22794342041016
 30
0.0
 11
-1082.62388679469
 21
-7.22794342041016
 31
0.0
  0
LINE
  5
   54F
  8
0
  6
CONTINUOUS
 62
     1
 10
-1030.62389442409
 20
-7.22794342041016
 30
0.0
 11
-1082.1238868245
 21
-7.22794342041016
 31
0.0
  0
LINE
  5
   550
  8
0
  6
CONTINUOUS
 62
     1
 10
-1030.62389442409
 20
-6.72794342041016
 30
0.0
 11
-1082.1238868245
 21
-6.72794342041016
 31
0.0
  0
LINE
  5
   551
  8
0
  6
CONTINUOUS
 62
     1
 10
-1030.62389442409
 20
-0.727937779321167
 30
0.0
 11
-1050.99888847027
 21
-0.727937779321167
 31
0.0
  0
LINE
  5
   552
  8
0
  6
CONTINUOUS
 62
     1
 10
-1030.62389442409
 20
-0.227937779321209
 30
0.0
 11
-1050.99888828707
 21
-0.227937779321209
 31
0.0
  0
LINE
  5
   553
  8
0
  6
CONTINUOUS
 62
     1
 10
-1030.62389442409
 20
9.52205657958984
 30
0.0
 11
-1050.99888679469
 21
9.52205657958984
 31
0.0
  0
LINE
  5
   554
  8
0
  6
CONTINUOUS
 62
     1
 10
-1030.62389442409
 20
10.0220565795898
 30
0.0
 11
-1050.99888679469
 21
10.0220565795898
 31
0.0
  0
LINE
  5
   555
  8
0
  6
CONTINUOUS
 62
     1
 10
-1030.62389442409
 20
16.0220565795898
 30
0.0
 11
-1082.1238868245
 21
16.0220565795898
 31
0.0
  0
LINE
  5
   556
  8
0
  6
CONTINUOUS
 62
     1
 10
-1030.62389442409
 20
16.5220565795898
 30
0.0
 11
-1082.1238868245
 21
16.5220565795898
 31
0.0
  0
LINE
  5
   557
  8
0
  6
CONTINUOUS
 62
     7
 10
-1044.18638659907
 20
68.8970318603694
 30
0.0
 11
-1046.68638659907
 21
68.8970318603694
 31
0.0
  0
LINE
  5
   558
  8
0
  6
CONTINUOUS
 62
     7
 10
-1046.68638659907
 20
68.8970318603694
 30
0.0
 11
-1046.68638659907
 21
70.6470319795787
 31
0.0
  0
LINE
  5
   559
  8
0
  6
CONTINUOUS
 62
     7
 10
-1046.31138659907
 20
70.6470318603694
 30
0.0
 11
-1046.68638659907
 21
70.6470318603694
 31
0.0
  0
LINE
  5
   55A
  8
0
  6
CONTINUOUS
 62
     7
 10
-1046.31138659907
 20
70.6470318603691
 30
0.0
 11
-1046.31138659907
 21
72.1470318603691
 31
0.0
  0
LINE
  5
   55B
  8
0
  6
CONTINUOUS
 62
     7
 10
-1044.56138659907
 20
70.6470318603691
 30
0.0
 11
-1044.56138659907
 21
72.1470318603691
 31
0.0
  0
LINE
  5
   55C
  8
0
  6
CONTINUOUS
 62
     7
 10
-1044.18638659907
 20
70.6470318603694
 30
0.0
 11
-1044.56138659907
 21
70.6470318603694
 31
0.0
  0
LINE
  5
   55D
  8
0
  6
CONTINUOUS
 62
     7
 10
-1044.18638659907
 20
68.8970318603694
 30
0.0
 11
-1044.18638659907
 21
70.6470318603694
 31
0.0
  0
LINE
  5
   55E
  8
0
  6
CONTINUOUS
 62
     7
 10
-1066.06138659907
 20
68.8970318603694
 30
0.0
 11
-1068.56138659907
 21
68.8970318603694
 31
0.0
  0
LINE
  5
   55F
  8
0
  6
CONTINUOUS
 62
     7
 10
-1068.56138659907
 20
68.8970318603694
 30
0.0
 11
-1068.56138659907
 21
70.6470319795787
 31
0.0
  0
LINE
  5
   560
  8
0
  6
CONTINUOUS
 62
     7
 10
-1068.18638659907
 20
70.6470318603694
 30
0.0
 11
-1068.56138659907
 21
70.6470318603694
 31
0.0
  0
LINE
  5
   561
  8
0
  6
CONTINUOUS
 62
     7
 10
-1068.18638659907
 20
70.6470318603691
 30
0.0
 11
-1068.18638659907
 21
72.1470318603691
 31
0.0
  0
LINE
  5
   562
  8
0
  6
CONTINUOUS
 62
     7
 10
-1066.43638659907
 20
70.6470318603691
 30
0.0
 11
-1066.43638659907
 21
72.1470318603691
 31
0.0
  0
LINE
  5
   563
  8
0
  6
CONTINUOUS
 62
     7
 10
-1066.06138659907
 20
70.6470318603694
 30
0.0
 11
-1066.43638659907
 21
70.6470318603694
 31
0.0
  0
LINE
  5
   564
  8
0
  6
CONTINUOUS
 62
     7
 10
-1066.06138659907
 20
68.8970318603694
 30
0.0
 11
-1066.06138659907
 21
70.6470318603694
 31
0.0
  0
LINE
  5
   565
  8
0
  6
CONTINUOUS
 62
     7
 10
-1087.93638659907
 20
-51.6029187011897
 30
0.0
 11
-1090.43638659907
 21
-51.6029187011897
 31
0.0
  0
LINE
  5
   566
  8
0
  6
CONTINUOUS
 62
     7
 10
-1090.43638659907
 20
-53.352918820399
 30
0.0
 11
-1090.43638659907
 21
-51.6029187011897
 31
0.0
  0
LINE
  5
   567
  8
0
  6
CONTINUOUS
 62
     7
 10
-1090.06138659907
 20
-53.3529187011897
 30
0.0
 11
-1090.43638659907
 21
-53.3529187011897
 31
0.0
  0
LINE
  5
   568
  8
0
  6
CONTINUOUS
 62
     7
 10
-1090.06138659907
 20
-54.8529187011895
 30
0.0
 11
-1090.06138659907
 21
-53.3529187011894
 31
0.0
  0
LINE
  5
   569
  8
0
  6
CONTINUOUS
 62
     7
 10
-1088.31138659907
 20
-54.8529187011894
 30
0.0
 11
-1088.31138659907
 21
-53.3529187011894
 31
0.0
  0
LINE
  5
   56A
  8
0
  6
CONTINUOUS
 62
     7
 10
-1087.93638659907
 20
-53.3529187011897
 30
0.0
 11
-1088.31138659907
 21
-53.3529187011897
 31
0.0
  0
LINE
  5
   56B
  8
0
  6
CONTINUOUS
 62
     7
 10
-1087.93638659907
 20
-53.3529187011897
 30
0.0
 11
-1087.93638659907
 21
-51.6029187011897
 31
0.0
  0
LINE
  5
   56C
  8
0
  6
CONTINUOUS
 62
     7
 10
-1090.06138659907
 20
70.6470318603691
 30
0.0
 11
-1090.06138659907
 21
72.1470318603691
 31
0.0
  0
LINE
  5
   56D
  8
0
  6
CONTINUOUS
 62
     7
 10
-1088.31138659907
 20
70.6470318603691
 30
0.0
 11
-1088.31138659907
 21
72.1470318603691
 31
0.0
  0
LINE
  5
   56E
  8
0
  6
CONTINUOUS
 62
     7
 10
-1087.93638659907
 20
70.6470318603694
 30
0.0
 11
-1088.31138659907
 21
70.6470318603694
 31
0.0
  0
LINE
  5
   56F
  8
0
  6
CONTINUOUS
 62
     7
 10
-1087.93638659907
 20
68.8970318603694
 30
0.0
 11
-1087.93638659907
 21
70.6470318603694
 31
0.0
  0
LINE
  5
   570
  8
0
  6
CONTINUOUS
 62
     7
 10
-1087.93638659907
 20
68.8970318603694
 30
0.0
 11
-1090.43638659907
 21
68.8970318603694
 31
0.0
  0
LINE
  5
   571
  8
0
  6
CONTINUOUS
 62
     7
 10
-1090.43638659907
 20
68.8970318603694
 30
0.0
 11
-1090.43638659907
 21
70.6470319795787
 31
0.0
  0
LINE
  5
   572
  8
0
  6
CONTINUOUS
 62
     7
 10
-1090.06138659907
 20
70.6470318603694
 30
0.0
 11
-1090.43638659907
 21
70.6470318603694
 31
0.0
  0
CIRCLE
  5
   573
  8
0
  6
CONTINUOUS
 62
     1
 10
-1100.12386336261
 20
70.1470617416452
 30
0.0
 40
0.699999510271856
  0
CIRCLE
  5
   574
  8
0
  6
CONTINUOUS
 62
     1
 10
-1100.12385868361
 20
63.1470836376195
 30
0.0
 40
2.75000604975671
  0
ARC
  5
   575
  8
0
  6
CONTINUOUS
 62
     1
 10
-1089.18631578861
 20
62.1470984758659
 30
0.0
 40
2.6250366863301
 50
310.367380667564
 51
589.632619228505
  0
LINE
  5
   576
  8
0
  6
CONTINUOUS
 62
     1
 10
-1091.81130790613
 20
60.1470642163153
 30
0.0
 11
-1091.81132697962
 21
62.147064216465
 31
0.0
  0
LINE
  5
   577
  8
0
  6
CONTINUOUS
 62
     1
 10
-1086.56130790589
 20
60.1470642163153
 30
0.0
 11
-1086.56132697938
 21
62.147064216465
 31
0.0
  0
CIRCLE
  5
   578
  8
0
  6
CONTINUOUS
 62
     1
 10
-1100.12388698191
 20
-52.8529192979927
 30
0.0
 40
0.700000042083871
  0
CIRCLE
  5
   579
  8
0
  6
CONTINUOUS
 62
     1
 10
-1100.12388647953
 20
-45.8529188174471
 30
0.0
 40
2.75000015959725
  0
LINE
  5
   57A
  8
0
  6
CONTINUOUS
 62
     1
 10
-1090.43638659907
 20
-48.1029187011897
 30
0.0
 11
-1090.43638659907
 21
-47.1140938568294
 31
0.0
  0
LINE
  5
   57B
  8
0
  6
CONTINUOUS
 62
     1
 10
-1087.93638659907
 20
-48.1029187011897
 30
0.0
 11
-1090.43638659907
 21
-48.1029187011897
 31
0.0
  0
LINE
  5
   57C
  8
0
  6
CONTINUOUS
 62
     1
 10
-1087.93638659907
 20
-48.1029187011897
 30
0.0
 11
-1087.93638659907
 21
-47.1140938568294
 31
0.0
  0
ARC
  5
   57D
  8
0
  6
CONTINUOUS
 62
     1
 10
-1089.18638920072
 20
-44.8529125014019
 30
0.0
 40
2.62499406553746
 50
121.002766250911
 51
418.997233645158
  0
LINE
  5
   57E
  8
0
  6
CONTINUOUS
 62
     1
 10
-1086.56138659907
 20
-44.8529187011897
 30
0.0
 11
-1086.56138659907
 21
-42.8529187011897
 31
0.0
  0
LINE
  5
   57F
  8
0
  6
CONTINUOUS
 62
     1
 10
-1091.81138659907
 20
-44.8529187011897
 30
0.0
 11
-1091.81138659907
 21
-42.8529187011897
 31
0.0
  0
CIRCLE
  5
   580
  8
0
  6
CONTINUOUS
 62
     1
 10
-1089.18638641448
 20
-44.8529180336039
 30
0.0
 40
1.37499960951013
  0
LINE
  5
   581
  8
0
  6
CONTINUOUS
 62
     1
 10
-1091.81138659907
 20
-42.8529187011897
 30
0.0
 11
-1111.99888659907
 21
-42.8529187011897
 31
0.0
  0
LINE
  5
   582
  8
0
  6
CONTINUOUS
 62
     1
 10
-1111.99886322021
 20
60.1470642089844
 30
0.0
 11
-1111.99886322021
 21
70.7470565795898
 31
0.0
  0
LINE
  5
   583
  8
0
  6
CONTINUOUS
 62
     7
 10
-1090.06138659907
 20
72.1470389496145
 30
0.0
 11
-1111.49887652305
 21
72.1470389496145
 31
0.0
  0
LINE
  5
   584
  8
0
  6
CONTINUOUS
 62
     7
 10
-1090.06138659907
 20
-54.8529186544929
 30
0.0
 11
-1111.4988867763
 21
-54.8529186544929
 31
0.0
  0
LINE
  5
   585
  8
0
  6
DASHDOT
 62
     7
 10
-1100.12385868361
 20
55.3970775878628
 30
0.0
 11
-1100.12385868361
 21
70.8970896873762
 31
0.0
  0
LINE
  5
   586
  8
0
  6
DASHDOT
 62
     7
 10
-1092.37385263385
 20
63.1470836376195
 30
0.0
 11
-1107.87386473336
 21
63.1470836376195
 31
0.0
  0
LINE
  5
   587
  8
0
  6
DASHDOT
 62
     7
 10
-1089.18631578861
 20
54.5220617895358
 30
0.0
 11
-1089.18631578861
 21
69.772135162196
 31
0.0
  0
LINE
  5
   588
  8
0
  6
DASHDOT
 62
     7
 10
-1081.56127910228
 20
62.1470984758659
 30
0.0
 11
-1096.81135247494
 21
62.1470984758659
 31
0.0
  0
LINE
  5
   589
  8
0
  6
DASHDOT
 62
     7
 10
-1100.12386336261
 20
64.4470622313733
 30
0.0
 11
-1100.12386336261
 21
75.8470612519171
 31
0.0
  0
LINE
  5
   58A
  8
0
  6
DASHDOT
 62
     7
 10
-1094.42386385234
 20
70.1470617416452
 30
0.0
 11
-1105.82386287288
 21
70.1470617416452
 31
0.0
  0
LINE
  5
   58B
  8
0
  6
DASHDOT
 62
     7
 10
-1100.12388698191
 20
-71.6424473828412
 30
0.0
 11
-1100.12388698191
 21
-47.1529192559088
 31
0.0
  0
LINE
  5
   58C
  8
0
  6
DASHDOT
 62
     7
 10
-1094.42388693983
 20
-52.8529192979927
 30
0.0
 11
-1105.823887024
 21
-52.8529192979927
 31
0.0
  0
LINE
  5
   58D
  8
0
  6
DASHDOT
 62
     7
 10
-1100.12388647953
 20
-53.6029189770444
 30
0.0
 11
-1100.12388647953
 21
-36.6621540600293
 31
0.0
  0
LINE
  5
   58E
  8
0
  6
DASHDOT
 62
     7
 10
-1092.37388631993
 20
-45.8529188174471
 30
0.0
 11
-1107.87388663912
 21
-45.8529188174471
 31
0.0
  0
LINE
  5
   58F
  8
0
  6
DASHDOT
 62
     7
 10
-1089.18638641448
 20
-51.227917643114
 30
0.0
 11
-1089.18638641448
 21
-37.1242733413688
 31
0.0
  0
LINE
  5
   590
  8
0
  6
DASHDOT
 62
     7
 10
-1082.81138680497
 20
-44.8529180336039
 30
0.0
 11
-1095.56138602399
 21
-44.8529180336039
 31
0.0
  0
LINE
  5
   591
  8
0
  6
CONTINUOUS
 62
     1
 10
-1085.6238791653
 20
-16.2279434204101
 30
0.0
 11
-1102.62388679469
 21
-16.2279434204101
 31
0.0
  0
LINE
  5
   592
  8
0
  6
CONTINUOUS
 62
     1
 10
-1103.87388679469
 20
-16.2279434204101
 30
0.0
 11
-1113.24888679469
 21
-16.2279434204101
 31
0.0
  0
LINE
  5
   593
  8
0
  6
CONTINUOUS
 62
     1
 10
-1103.87388679469
 20
29.2720565795899
 30
0.0
 11
-1103.87388679469
 21
31.7720565795899
 31
0.0
  0
LINE
  5
   594
  8
0
  6
CONTINUOUS
 62
     1
 10
-1102.62388679469
 20
29.2720565795899
 30
0.0
 11
-1103.87388679469
 21
29.2720565795899
 31
0.0
  0
LINE
  5
   595
  8
0
  6
CONTINUOUS
 62
     1
 10
-1102.62388679469
 20
29.2720565795899
 30
0.0
 11
-1102.62388679469
 21
31.7720565795899
 31
0.0
  0
LINE
  5
   596
  8
0
  6
CONTINUOUS
 62
     1
 10
-1102.62388679469
 20
31.7720565795899
 30
0.0
 11
-1103.87388679469
 21
31.7720565795899
 31
0.0
  0
LINE
  5
   597
  8
0
  6
CONTINUOUS
 62
     1
 10
-1103.87388679469
 20
-17.4779362678528
 30
0.0
 11
-1103.87388679469
 21
-12.9779434204101
 31
0.0
  0
LINE
  5
   598
  8
0
  6
CONTINUOUS
 62
     1
 10
-1102.62388679469
 20
-17.4779362678528
 30
0.0
 11
-1103.87388679469
 21
-17.4779362678528
 31
0.0
  0
LINE
  5
   599
  8
0
  6
CONTINUOUS
 62
     1
 10
-1102.62388679469
 20
-17.4779362678528
 30
0.0
 11
-1102.62388679469
 21
-12.9779434204101
 31
0.0
  0
LINE
  5
   59A
  8
0
  6
CONTINUOUS
 62
     1
 10
-1102.62388679469
 20
-12.9779434204101
 30
0.0
 11
-1103.87388679469
 21
-12.9779434204101
 31
0.0
  0
LINE
  5
   59B
  8
0
  6
CONTINUOUS
 62
     1
 10
-1021.37388679469
 20
60.1470565795899
 30
0.0
 11
-1113.1238791653
 21
60.1470565795899
 31
0.0
  0
LINE
  5
   59C
  8
0
  6
CONTINUOUS
 62
     1
 10
-1103.12388679469
 20
29.2720565795899
 30
0.0
 11
-1103.12388679469
 21
31.7720565795899
 31
0.0
  0
LINE
  5
   59D
  8
0
  6
CONTINUOUS
 62
     1
 10
-1103.1238791653
 20
-17.4779362678528
 30
0.0
 11
-1103.1238791653
 21
-12.9779434204101
 31
0.0
  0
LINE
  5
   59E
  8
0
  6
DASHDOT
 62
     5
 10
-1056.3738791653
 20
-80.4225144100597
 30
0.0
 11
-1056.3738791653
 21
61.440606868292
 31
0.0
  0
LINE
  5
   59F
  8
0
  6
CONTINUOUS
 62
     1
 10
-1094.82388374294
 20
-16.4779434204101
 30
0.0
 11
-1094.82388374294
 21
36.0220565795899
 31
0.0
  0
LINE
  5
   5A0
  8
0
  6
CONTINUOUS
 62
     1
 10
-1096.6238791653
 20
-16.4779434204101
 30
0.0
 11
-1096.6238791653
 21
36.0220565795899
 31
0.0
  0
LINE
  5
   5A1
  8
0
  6
CONTINUOUS
 62
     1
 10
-1091.22388526881
 20
-16.4779434204101
 30
0.0
 11
-1091.22388526881
 21
36.0220565795899
 31
0.0
  0
LINE
  5
   5A2
  8
0
  6
CONTINUOUS
 62
     1
 10
-1093.02388069118
 20
-16.4779434204101
 30
0.0
 11
-1093.02388069118
 21
36.0220565795899
 31
0.0
  0
LINE
  5
   5A3
  8
0
  6
CONTINUOUS
 62
     1
 10
-1087.6238791653
 20
-16.4779434204101
 30
0.0
 11
-1087.6238791653
 21
36.0220565795899
 31
0.0
  0
LINE
  5
   5A4
  8
0
  6
CONTINUOUS
 62
     1
 10
-1089.42388221706
 20
-16.4779434204101
 30
0.0
 11
-1089.42388221706
 21
36.0220565795899
 31
0.0
  0
LINE
  5
   5A5
  8
0
  6
CONTINUOUS
 62
     1
 10
-1085.82388374294
 20
-16.4779434204101
 30
0.0
 11
-1085.82388374294
 21
36.0220565795899
 31
0.0
  0
LINE
  5
   5A6
  8
0
  6
CONTINUOUS
 62
     1
 10
-1105.6238791653
 20
-16.4779434204101
 30
0.0
 11
-1105.6238791653
 21
36.0220565795899
 31
0.0
  0
LINE
  5
   5A7
  8
0
  6
CONTINUOUS
 62
     1
 10
-1107.42388221706
 20
-16.4779434204101
 30
0.0
 11
-1107.42388221706
 21
36.0220565795899
 31
0.0
  0
LINE
  5
   5A8
  8
0
  6
CONTINUOUS
 62
     1
 10
-1109.22388526881
 20
-16.4779434204101
 30
0.0
 11
-1109.22388526881
 21
36.0220565795899
 31
0.0
  0
LINE
  5
   5A9
  8
0
  6
CONTINUOUS
 62
     1
 10
-1110.77388069118
 20
-16.4779434204101
 30
0.0
 11
-1110.77388069118
 21
36.0220565795899
 31
0.0
  0
LINE
  5
   5AA
  8
0
  6
CONTINUOUS
 62
     1
 10
-1111.92388221706
 20
-16.4779357910156
 30
0.0
 11
-1111.92388221706
 21
36.0220565795899
 31
0.0
  0
LINE
  5
   5AB
  8
0
  6
CONTINUOUS
 62
     1
 10
-1098.42388221706
 20
-16.4779434204101
 30
0.0
 11
-1098.42388221706
 21
36.0220565795899
 31
0.0
  0
LINE
  5
   5AC
  8
0
  6
CONTINUOUS
 62
     1
 10
-1100.22388526881
 20
-16.4779434204101
 30
0.0
 11
-1100.22388526881
 21
36.0220565795899
 31
0.0
  0
LINE
  5
   5AD
  8
0
  6
CONTINUOUS
 62
     1
 10
-1102.02388069118
 20
-16.4779434204101
 30
0.0
 11
-1102.02388069118
 21
36.0220565795899
 31
0.0
  0
LINE
  5
   5AE
  8
0
  6
CONTINUOUS
 62
     1
 10
-1103.82388374294
 20
-12.9779434204101
 30
0.0
 11
-1103.82388374294
 21
29.2720565795899
 31
0.0
  0
LINE
  5
   5AF
  8
0
  6
CONTINUOUS
 62
     1
 10
-1103.82388374294
 20
31.7720565795899
 30
0.0
 11
-1103.82388374294
 21
36.0220565795899
 31
0.0
  0
LINE
  5
   5B0
  8
0
  6
CONTINUOUS
 62
     1
 10
-1084.02388069118
 20
49.7720565795898
 30
0.0
 11
-1084.02388069118
 21
60.1470565795899
 31
0.0
  0
LINE
  5
   5B1
  8
0
  6
CONTINUOUS
 62
     1
 10
-1087.6238791653
 20
36.0220565795899
 30
0.0
 11
-1087.6238791653
 21
60.1470565795899
 31
0.0
  0
LINE
  5
   5B2
  8
0
  6
CONTINUOUS
 62
     1
 10
-1085.82388374294
 20
36.0220565795899
 30
0.0
 11
-1085.82388374294
 21
60.1470565795899
 31
0.0
  0
LINE
  5
   5B3
  8
0
  6
CONTINUOUS
 62
     1
 10
-1091.22388526881
 20
36.0220565795899
 30
0.0
 11
-1091.22388526881
 21
60.1470565795899
 31
0.0
  0
LINE
  5
   5B4
  8
0
  6
CONTINUOUS
 62
     1
 10
-1089.42388221706
 20
36.0220565795899
 30
0.0
 11
-1089.42388221706
 21
60.1470565795899
 31
0.0
  0
LINE
  5
   5B5
  8
0
  6
CONTINUOUS
 62
     1
 10
-1094.82388374294
 20
36.0220565795899
 30
0.0
 11
-1094.82388374294
 21
60.1470565795899
 31
0.0
  0
LINE
  5
   5B6
  8
0
  6
CONTINUOUS
 62
     1
 10
-1093.02388069118
 20
36.0220565795899
 30
0.0
 11
-1093.02388069118
 21
60.1470565795899
 31
0.0
  0
LINE
  5
   5B7
  8
0
  6
CONTINUOUS
 62
     1
 10
-1098.42388221706
 20
36.0220565795899
 30
0.0
 11
-1098.42388221706
 21
60.1470565795899
 31
0.0
  0
LINE
  5
   5B8
  8
0
  6
CONTINUOUS
 62
     1
 10
-1096.6238791653
 20
36.0220565795899
 30
0.0
 11
-1096.6238791653
 21
60.1470565795899
 31
0.0
  0
LINE
  5
   5B9
  8
0
  6
CONTINUOUS
 62
     1
 10
-1102.02388069118
 20
36.0220565795899
 30
0.0
 11
-1102.02388069118
 21
60.1470565795899
 31
0.0
  0
LINE
  5
   5BA
  8
0
  6
CONTINUOUS
 62
     1
 10
-1100.22388526881
 20
36.0220565795899
 30
0.0
 11
-1100.22388526881
 21
60.1470565795899
 31
0.0
  0
LINE
  5
   5BB
  8
0
  6
CONTINUOUS
 62
     1
 10
-1111.92388221706
 20
36.0220565795899
 30
0.0
 11
-1111.92388221706
 21
60.1470565795899
 31
0.0
  0
LINE
  5
   5BC
  8
0
  6
CONTINUOUS
 62
     1
 10
-1110.77388069118
 20
36.0220565795899
 30
0.0
 11
-1110.77388069118
 21
60.1470565795899
 31
0.0
  0
LINE
  5
   5BD
  8
0
  6
CONTINUOUS
 62
     1
 10
-1105.6238791653
 20
36.0220565795899
 30
0.0
 11
-1105.6238791653
 21
60.1470565795899
 31
0.0
  0
LINE
  5
   5BE
  8
0
  6
CONTINUOUS
 62
     1
 10
-1103.82388374294
 20
36.0220565795899
 30
0.0
 11
-1103.82388374294
 21
60.1470565795899
 31
0.0
  0
LINE
  5
   5BF
  8
0
  6
CONTINUOUS
 62
     1
 10
-1109.22388526881
 20
36.0220565795899
 30
0.0
 11
-1109.22388526881
 21
60.1470565795899
 31
0.0
  0
LINE
  5
   5C0
  8
0
  6
CONTINUOUS
 62
     1
 10
-1107.42388221706
 20
36.0220565795899
 30
0.0
 11
-1107.42388221706
 21
60.1470565795899
 31
0.0
  0
LINE
  5
   5C1
  8
0
  6
CONTINUOUS
 62
     1
 10
-1094.82388374294
 20
-42.6029187011895
 30
0.0
 11
-1094.82388374294
 21
-25.1029187011895
 31
0.0
  0
LINE
  5
   5C2
  8
0
  6
CONTINUOUS
 62
     1
 10
-1093.02388069118
 20
-42.6029187011895
 30
0.0
 11
-1093.02388069118
 21
-25.1029187011895
 31
0.0
  0
LINE
  5
   5C3
  8
0
  6
CONTINUOUS
 62
     1
 10
-1084.02388069118
 20
-42.6029187011895
 30
0.0
 11
-1084.02388069118
 21
-30.7279415130615
 31
0.0
  0
LINE
  5
   5C4
  8
0
  6
CONTINUOUS
 62
     1
 10
-1100.22388526881
 20
-42.6029187011895
 30
0.0
 11
-1100.22388526881
 21
-25.1029187011895
 31
0.0
  0
LINE
  5
   5C5
  8
0
  6
CONTINUOUS
 62
     1
 10
-1096.6238791653
 20
-42.6029187011895
 30
0.0
 11
-1096.6238791653
 21
-25.1029187011895
 31
0.0
  0
LINE
  5
   5C6
  8
0
  6
CONTINUOUS
 62
     1
 10
-1098.42388221706
 20
-42.6029187011895
 30
0.0
 11
-1098.42388221706
 21
-25.1029187011895
 31
0.0
  0
LINE
  5
   5C7
  8
0
  6
CONTINUOUS
 62
     1
 10
-1087.6238791653
 20
-42.6029187011895
 30
0.0
 11
-1087.6238791653
 21
-25.1029187011895
 31
0.0
  0
LINE
  5
   5C8
  8
0
  6
CONTINUOUS
 62
     1
 10
-1085.82388374294
 20
-42.6029187011895
 30
0.0
 11
-1085.82388374294
 21
-25.1029187011895
 31
0.0
  0
LINE
  5
   5C9
  8
0
  6
CONTINUOUS
 62
     1
 10
-1091.22388526881
 20
-42.6029187011895
 30
0.0
 11
-1091.22388526881
 21
-25.1029187011895
 31
0.0
  0
LINE
  5
   5CA
  8
0
  6
CONTINUOUS
 62
     1
 10
-1089.42388221706
 20
-42.6029187011895
 30
0.0
 11
-1089.42388221706
 21
-25.1029187011895
 31
0.0
  0
LINE
  5
   5CB
  8
0
  6
CONTINUOUS
 62
     1
 10
-1105.6238791653
 20
-42.6029187011895
 30
0.0
 11
-1105.6238791653
 21
-25.1029187011895
 31
0.0
  0
LINE
  5
   5CC
  8
0
  6
CONTINUOUS
 62
     1
 10
-1103.82388374294
 20
-42.6029187011895
 30
0.0
 11
-1103.82388374294
 21
-25.1029187011895
 31
0.0
  0
LINE
  5
   5CD
  8
0
  6
CONTINUOUS
 62
     1
 10
-1102.02388069118
 20
-42.6029187011895
 30
0.0
 11
-1102.02388069118
 21
-25.1029187011895
 31
0.0
  0
LINE
  5
   5CE
  8
0
  6
CONTINUOUS
 62
     1
 10
-1111.92388221706
 20
-42.6029187011895
 30
0.0
 11
-1111.92388221706
 21
-25.1029187011895
 31
0.0
  0
LINE
  5
   5CF
  8
0
  6
CONTINUOUS
 62
     1
 10
-1110.77388069118
 20
-42.6029187011895
 30
0.0
 11
-1110.77388069118
 21
-25.1029187011895
 31
0.0
  0
LINE
  5
   5D0
  8
0
  6
CONTINUOUS
 62
     1
 10
-1109.22388526881
 20
-42.6029187011895
 30
0.0
 11
-1109.22388526881
 21
-25.1029187011895
 31
0.0
  0
LINE
  5
   5D1
  8
0
  6
CONTINUOUS
 62
     1
 10
-1107.42388221706
 20
-42.6029187011895
 30
0.0
 11
-1107.42388221706
 21
-25.1029187011895
 31
0.0
  0
LINE
  5
   5D2
  8
0
  6
CONTINUOUS
 62
     1
 10
-1021.37388679469
 20
-16.2279357910156
 30
0.0
 11
-1030.12388679469
 21
-16.2279357910156
 31
0.0
  0
LINE
  5
   5D3
  8
0
  6
CONTINUOUS
 62
     1
 10
-1027.24889442409
 20
-24.1029358208179
 30
0.0
 11
-1027.24889442409
 21
-16.4779353439808
 31
0.0
  0
LINE
  5
   5D4
  8
0
  6
CONTINUOUS
 62
     1
 10
-1022.49889442409
 20
-24.1029358208179
 30
0.0
 11
-1022.49889442409
 21
-16.4779353439808
 31
0.0
  0
LINE
  5
   5D5
  8
0
  6
CONTINUOUS
 62
     1
 10
-1023.64888832057
 20
-24.1029358208179
 30
0.0
 11
-1023.64888832057
 21
-16.4779353439808
 31
0.0
  0
LINE
  5
   5D6
  8
0
  6
CONTINUOUS
 62
     1
 10
-1025.44889137233
 20
-24.1029358208179
 30
0.0
 11
-1025.44889137233
 21
-16.4779353439808
 31
0.0
  0
LINE
  5
   5D7
  8
0
  6
CONTINUOUS
 62
     1
 10
-1029.94889137233
 20
-24.1029358208179
 30
0.0
 11
-1029.94889137233
 21
-16.4779353439808
 31
0.0
  0
LINE
  5
   5D8
  8
0
  6
CONTINUOUS
 62
     1
 10
-1094.82388374294
 20
-24.1029358208179
 30
0.0
 11
-1094.82388374294
 21
-16.4779434204101
 31
0.0
  0
LINE
  5
   5D9
  8
0
  6
CONTINUOUS
 62
     1
 10
-1093.02388069118
 20
-24.1029358208179
 30
0.0
 11
-1093.02388069118
 21
-16.4779434204101
 31
0.0
  0
LINE
  5
   5DA
  8
0
  6
CONTINUOUS
 62
     1
 10
-1100.22388526881
 20
-24.1029358208179
 30
0.0
 11
-1100.22388526881
 21
-16.4779434204101
 31
0.0
  0
LINE
  5
   5DB
  8
0
  6
CONTINUOUS
 62
     1
 10
-1096.6238791653
 20
-24.1029358208179
 30
0.0
 11
-1096.6238791653
 21
-16.4779434204102
 31
0.0
  0
LINE
  5
   5DC
  8
0
  6
CONTINUOUS
 62
     1
 10
-1098.42388221706
 20
-24.1029358208179
 30
0.0
 11
-1098.42388221706
 21
-16.4779434204102
 31
0.0
  0
LINE
  5
   5DD
  8
0
  6
CONTINUOUS
 62
     1
 10
-1087.6238791653
 20
-24.1029358208179
 30
0.0
 11
-1087.6238791653
 21
-16.4779434204101
 31
0.0
  0
LINE
  5
   5DE
  8
0
  6
CONTINUOUS
 62
     1
 10
-1085.82388374294
 20
-24.1029358208179
 30
0.0
 11
-1085.82388374294
 21
-16.4779434204101
 31
0.0
  0
LINE
  5
   5DF
  8
0
  6
CONTINUOUS
 62
     1
 10
-1091.22388526881
 20
-24.1029358208179
 30
0.0
 11
-1091.22388526881
 21
-16.4779434204101
 31
0.0
  0
LINE
  5
   5E0
  8
0
  6
CONTINUOUS
 62
     1
 10
-1089.42388221706
 20
-24.1029358208179
 30
0.0
 11
-1089.42388221706
 21
-16.4779434204101
 31
0.0
  0
LINE
  5
   5E1
  8
0
  6
CONTINUOUS
 62
     1
 10
-1105.6238791653
 20
-24.1029358208179
 30
0.0
 11
-1105.6238791653
 21
-16.4779434204101
 31
0.0
  0
LINE
  5
   5E2
  8
0
  6
CONTINUOUS
 62
     1
 10
-1103.82388374294
 20
-24.1029358208179
 30
0.0
 11
-1103.82388374294
 21
-17.4779362678528
 31
0.0
  0
LINE
  5
   5E3
  8
0
  6
CONTINUOUS
 62
     1
 10
-1102.02388069118
 20
-24.1029358208179
 30
0.0
 11
-1102.02388069118
 21
-16.4779434204102
 31
0.0
  0
LINE
  5
   5E4
  8
0
  6
CONTINUOUS
 62
     1
 10
-1111.92388221706
 20
-24.1029358208179
 30
0.0
 11
-1111.92388221706
 21
-16.4779434204101
 31
0.0
  0
LINE
  5
   5E5
  8
0
  6
CONTINUOUS
 62
     1
 10
-1110.77388069118
 20
-24.1029358208179
 30
0.0
 11
-1110.77388069118
 21
-16.4779434204101
 31
0.0
  0
LINE
  5
   5E6
  8
0
  6
CONTINUOUS
 62
     1
 10
-1109.22388526881
 20
-24.1029358208179
 30
0.0
 11
-1109.22388526881
 21
-16.4779434204102
 31
0.0
  0
LINE
  5
   5E7
  8
0
  6
CONTINUOUS
 62
     1
 10
-1107.42388221706
 20
-24.1029358208179
 30
0.0
 11
-1107.42388221706
 21
-16.4779434204102
 31
0.0
  0
LINE
  5
   5E8
  8
0
  6
CONTINUOUS
 62
     3
 10
-1030.62389442409
 20
35.7720565795898
 30
0.0
 11
-1082.12388679468
 21
35.7720565795898
 31
0.0
  0
LINE
  5
   5E9
  8
0
  6
DASHDOT
 62
     7
 10
-1006.87865127047
 20
9.52205657958984
 30
0.0
 11
-1121.94561820165
 21
9.52205657958984
 31
0.0
  0
LINE
  5
   5EA
  8
0
  6
CONTINUOUS
 62
     3
 10
-1030.62388679469
 20
-16.7279434204102
 30
0.0
 11
-1082.12388679469
 21
-16.7279434204102
 31
0.0
  0
ARC
  5
   5EB
  8
0
  6
CONTINUOUS
 62
     3
 10
-1030.62388679469
 20
-16.2279434204102
 30
0.0
 40
0.5
 50
269.999999948034
 51
359.999999948034
  0
ARC
  5
   5EC
  8
0
  6
CONTINUOUS
 62
     3
 10
-1082.12388679469
 20
-16.2279434204102
 30
0.0
 40
0.5
 50
179.999999948034
 51
269.999999948034
  0
ARC
  5
   5ED
  8
0
  6
CONTINUOUS
 62
     3
 10
-1082.12388679468
 20
35.2720565795898
 30
0.0
 40
0.5
 50
89.9999999480344
 51
179.999999948034
  0
ARC
  5
   5EE
  8
0
  6
CONTINUOUS
 62
     3
 10
-1030.62389442409
 20
35.2720565795898
 30
0.0
 40
0.5
 50
359.999999948034
 51
449.999999948034
  0
LINE
  5
   5EF
  8
0
  6
CONTINUOUS
 62
     1
 10
-1085.6238791653
 20
35.7720565795898
 30
0.0
 11
-1113.24888679469
 21
35.7720565795898
 31
0.0
  0
LINE
  5
   5F0
  8
0
  6
CONTINUOUS
 62
     1
 10
-1021.37388679469
 20
35.7720565795898
 30
0.0
 11
-1027.1238791653
 21
35.7720565795898
 31
0.0
  0
LINE
  5
   5F1
  8
0
  6
CONTINUOUS
 62
     1
 10
-1021.87388679469
 20
-42.8529187011894
 30
0.0
 11
-1084.48738565654
 21
-42.8529187011894
 31
0.0
  0
LINE
  5
   5F2
  8
0
  6
CONTINUOUS
 62
     1
 10
-1021.87388679469
 20
-43.3529187011894
 30
0.0
 11
-1084.41969308956
 21
-43.3529187011894
 31
0.0
  0
LINE
  5
   5F3
  8
0
  6
CONTINUOUS
 62
     1
 10
-1021.37388679469
 20
-77.2279187011894
 30
0.0
 11
-1021.37388679469
 21
-43.3529187011894
 31
0.0
  0
LINE
  5
   5F4
  8
0
  6
CONTINUOUS
 62
     1
 10
-1021.87388679469
 20
-43.3529187011894
 30
0.0
 11
-1021.87388679469
 21
-42.8529187011894
 31
0.0
  0
LINE
  5
   5F5
  8
0
  6
CONTINUOUS
 62
     1
 10
-1021.99888679469
 20
-77.8529187011894
 30
0.0
 11
-1074.67436898522
 21
-77.8529187011894
 31
0.0
  0
ARC
  5
   5F6
  8
0
  6
CONTINUOUS
 62
     1
 10
-1021.99888679469
 20
-77.2279187011894
 30
0.0
 40
0.625
 50
269.999999948034
 51
359.999999948034
  0
LINE
  5
   5F7
  8
0
  6
CONTINUOUS
 62
     1
 10
-1031.92388679469
 20
-77.8529187011894
 30
0.0
 11
-1031.92388679469
 21
-43.3529187011894
 31
0.0
  0
LINE
  5
   5F8
  8
0
  6
CONTINUOUS
 62
     1
 10
-1033.72388679469
 20
-77.8529187011894
 30
0.0
 11
-1033.72388679469
 21
-43.3529187011894
 31
0.0
  0
LINE
  5
   5F9
  8
0
  6
CONTINUOUS
 62
     1
 10
-1035.52388679469
 20
-77.8529187011894
 30
0.0
 11
-1035.52388679469
 21
-43.3529187011894
 31
0.0
  0
LINE
  5
   5FA
  8
0
  6
CONTINUOUS
 62
     1
 10
-1037.32388679469
 20
-77.8529187011894
 30
0.0
 11
-1037.32388679469
 21
-43.3529187011894
 31
0.0
  0
LINE
  5
   5FB
  8
0
  6
CONTINUOUS
 62
     1
 10
-1039.12388679469
 20
-77.8529187011894
 30
0.0
 11
-1039.12388679469
 21
-43.3529187011894
 31
0.0
  0
LINE
  5
   5FC
  8
0
  6
CONTINUOUS
 62
     1
 10
-1040.92388679469
 20
-77.8529187011894
 30
0.0
 11
-1040.92388679469
 21
-43.3529187011894
 31
0.0
  0
LINE
  5
   5FD
  8
0
  6
CONTINUOUS
 62
     1
 10
-1042.72388679469
 20
-77.8529187011894
 30
0.0
 11
-1042.72388679469
 21
-43.3529187011894
 31
0.0
  0
LINE
  5
   5FE
  8
0
  6
CONTINUOUS
 62
     1
 10
-1044.52388679469
 20
-77.8529187011894
 30
0.0
 11
-1044.52388679469
 21
-43.3529187011894
 31
0.0
  0
LINE
  5
   5FF
  8
0
  6
CONTINUOUS
 62
     1
 10
-1046.32388679469
 20
-77.8529187011894
 30
0.0
 11
-1046.32388679469
 21
-43.3529187011894
 31
0.0
  0
LINE
  5
   600
  8
0
  6
CONTINUOUS
 62
     1
 10
-1048.12388679469
 20
-77.8529187011894
 30
0.0
 11
-1048.12388679469
 21
-43.3529187011894
 31
0.0
  0
LINE
  5
   601
  8
0
  6
CONTINUOUS
 62
     1
 10
-1049.92388679469
 20
-77.8529187011894
 30
0.0
 11
-1049.92388679469
 21
-43.3529187011894
 31
0.0
  0
LINE
  5
   602
  8
0
  6
CONTINUOUS
 62
     1
 10
-1051.72388679469
 20
-77.8529187011894
 30
0.0
 11
-1051.72388679469
 21
-43.3529187011894
 31
0.0
  0
LINE
  5
   603
  8
0
  6
CONTINUOUS
 62
     1
 10
-1053.52388679469
 20
-77.8529187011894
 30
0.0
 11
-1053.52388679469
 21
-43.3529187011894
 31
0.0
  0
LINE
  5
   604
  8
0
  6
CONTINUOUS
 62
     1
 10
-1055.32388679469
 20
-77.8529187011894
 30
0.0
 11
-1055.32388679469
 21
-43.3529187011894
 31
0.0
  0
LINE
  5
   605
  8
0
  6
CONTINUOUS
 62
     1
 10
-1057.12388679469
 20
-77.8529187011894
 30
0.0
 11
-1057.12388679469
 21
-43.3529187011894
 31
0.0
  0
LINE
  5
   606
  8
0
  6
CONTINUOUS
 62
     1
 10
-1058.92388679469
 20
-77.8529187011894
 30
0.0
 11
-1058.92388679469
 21
-43.3529187011894
 31
0.0
  0
LINE
  5
   607
  8
0
  6
CONTINUOUS
 62
     1
 10
-1060.72388679469
 20
-77.8529187011894
 30
0.0
 11
-1060.72388679469
 21
-43.3529187011894
 31
0.0
  0
LINE
  5
   608
  8
0
  6
CONTINUOUS
 62
     1
 10
-1062.52388679469
 20
-77.8529187011894
 30
0.0
 11
-1062.52388679469
 21
-43.3529187011894
 31
0.0
  0
LINE
  5
   609
  8
0
  6
CONTINUOUS
 62
     1
 10
-1064.32388679469
 20
-77.8529187011894
 30
0.0
 11
-1064.32388679469
 21
-43.3529187011894
 31
0.0
  0
LINE
  5
   60A
  8
0
  6
CONTINUOUS
 62
     1
 10
-1066.12388679469
 20
-77.8529187011895
 30
0.0
 11
-1066.12388679469
 21
-43.3529187011894
 31
0.0
  0
LINE
  5
   60B
  8
0
  6
CONTINUOUS
 62
     1
 10
-1067.92388679469
 20
-77.8529187011895
 30
0.0
 11
-1067.92388679469
 21
-43.3529187011894
 31
0.0
  0
LINE
  5
   60C
  8
0
  6
CONTINUOUS
 62
     1
 10
-1069.72388679469
 20
-77.8529187011895
 30
0.0
 11
-1069.72388679469
 21
-43.3529187011894
 31
0.0
  0
LINE
  5
   60D
  8
0
  6
CONTINUOUS
 62
     1
 10
-1071.52388679469
 20
-77.8529187011895
 30
0.0
 11
-1071.52388679469
 21
-43.3529187011894
 31
0.0
  0
LINE
  5
   60E
  8
0
  6
CONTINUOUS
 62
     1
 10
-1073.32388679469
 20
-77.8529187011895
 30
0.0
 11
-1073.32388679469
 21
-43.3529187011894
 31
0.0
  0
LINE
  5
   60F
  8
0
  6
CONTINUOUS
 62
     1
 10
-1021.37388679469
 20
-43.3529187011894
 30
0.0
 11
-1021.87388679469
 21
-43.3529187011894
 31
0.0
  0
POLYLINE
  5
   610
  8
0
  6
CONTINUOUS
 62
     1
 66
     1
 10
0.0
 20
0.0
 30
0.0
  0
VERTEX
  5
   611
  8
0
  6
CONTINUOUS
 10
-1074.67436898522
 20
-77.8528209398057
 30
0.0
 40
0.0
 41
0.0
  0
VERTEX
  5
   612
  8
0
  6
CONTINUOUS
 10
-1074.78817164394
 20
-77.6951689517236
 30
0.0
 40
0.0
 41
0.0
  0
VERTEX
  5
   613
  8
0
  6
CONTINUOUS
 10
-1074.9010120631
 20
-77.5365091310245
 30
0.0
 40
0.0
 41
0.0
  0
VERTEX
  5
   614
  8
0
  6
CONTINUOUS
 10
-1075.01286679516
 20
-77.3768379789427
 30
0.0
 40
0.0
 41
0.0
  0
VERTEX
  5
   615
  8
0
  6
CONTINUOUS
 10
-1075.12370021498
 20
-77.2161501796104
 30
0.0
 40
0.0
 41
0.0
  0
VERTEX
  5
   616
  8
0
  6
CONTINUOUS
 10
-1075.23346195369
 20
-77.0544382171522
 30
0.0
 40
0.0
 41
0.0
  0
VERTEX
  5
   617
  8
0
  6
CONTINUOUS
 10
-1075.34208433266
 20
-76.8916919927802
 30
0.0
 40
0.0
 41
0.0
  0
VERTEX
  5
   618
  8
0
  6
CONTINUOUS
 10
-1075.44947979731
 20
-76.7278984418893
 30
0.0
 40
0.0
 41
0.0
  0
VERTEX
  5
   619
  8
0
  6
CONTINUOUS
 10
-1075.55553835109
 20
-76.563041151151
 30
0.0
 40
0.0
 41
0.0
  0
VERTEX
  5
   61A
  8
0
  6
CONTINUOUS
 10
-1075.66012498934
 20
-76.3970999756095
 30
0.0
 40
0.0
 41
0.0
  0
VERTEX
  5
   61B
  8
0
  6
CONTINUOUS
 10
-1075.76307713316
 20
-76.2300506557754
 30
0.0
 40
0.0
 41
0.0
  0
VERTEX
  5
   61C
  8
0
  6
CONTINUOUS
 10
-1075.89404561744
 20
-76.0113607635828
 30
0.0
 40
0.0
 41
0.0
  0
VERTEX
  5
   61D
  8
0
  6
CONTINUOUS
 10
-1075.95822052833
 20
-75.9012737026151
 30
0.0
 40
0.0
 41
0.0
  0
VERTEX
  5
   61E
  8
0
  6
CONTINUOUS
 10
-1076.02143264171
 20
-75.7906786804616
 30
0.0
 40
0.0
 41
0.0
  0
VERTEX
  5
   61F
  8
0
  6
CONTINUOUS
 10
-1076.08361076597
 20
-75.6795654118824
 30
0.0
 40
0.0
 41
0.0
  0
VERTEX
  5
   620
  8
0
  6
CONTINUOUS
 10
-1076.1446819074
 20
-75.567923558886
 30
0.0
 40
0.0
 41
0.0
  0
VERTEX
  5
   621
  8
0
  6
CONTINUOUS
 10
-1076.20457227447
 20
-75.4557429346272
 30
0.0
 40
0.0
 41
0.0
  0
VERTEX
  5
   622
  8
0
  6
CONTINUOUS
 10
-1076.26320828216
 20
-75.3430137073047
 30
0.0
 40
0.0
 41
0.0
  0
VERTEX
  5
   623
  8
0
  6
CONTINUOUS
 10
-1076.32051755628
 20
-75.2297266040587
 30
0.0
 40
0.0
 41
0.0
  0
VERTEX
  5
   624
  8
0
  6
CONTINUOUS
 10
-1076.37642993774
 20
-75.1158731148688
 30
0.0
 40
0.0
 41
0.0
  0
VERTEX
  5
   625
  8
0
  6
CONTINUOUS
 10
-1076.43087848687
 20
-75.0014456964518
 30
0.0
 40
0.0
 41
0.0
  0
VERTEX
  5
   626
  8
0
  6
CONTINUOUS
 10
-1076.48380048775
 20
-74.8864379761593
 30
0.0
 40
0.0
 41
0.0
  0
VERTEX
  5
   627
  8
0
  6
CONTINUOUS
 10
-1076.53513845248
 20
-74.7708449558754
 30
0.0
 40
0.0
 41
0.0
  0
VERTEX
  5
   628
  8
0
  6
CONTINUOUS
 10
-1076.58484112553
 20
-74.6546632159146
 30
0.0
 40
0.0
 41
0.0
  0
VERTEX
  5
   629
  8
0
  6
CONTINUOUS
 10
-1076.63286448799
 20
-74.5378911189195
 30
0.0
 40
0.0
 41
0.0
  0
VERTEX
  5
   62A
  8
0
  6
CONTINUOUS
 10
-1076.67917276194
 20
-74.4205290137583
 30
0.0
 40
0.0
 41
0.0
  0
VERTEX
  5
   62B
  8
0
  6
CONTINUOUS
 10
-1076.72373941472
 20
-74.3025794394229
 30
0.0
 40
0.0
 41
0.0
  0
VERTEX
  5
   62C
  8
0
  6
CONTINUOUS
 10
-1076.76654816323
 20
-74.1840473289265
 30
0.0
 40
0.0
 41
0.0
  0
VERTEX
  5
   62D
  8
0
  6
CONTINUOUS
 10
-1076.80759397826
 20
-74.064940213201
 30
0.0
 40
0.0
 41
0.0
  0
VERTEX
  5
   62E
  8
0
  6
CONTINUOUS
 10
-1076.84688408879
 20
-73.9452684249954
 30
0.0
 40
0.0
 41
0.0
  0
VERTEX
  5
   62F
  8
0
  6
CONTINUOUS
 10
-1076.89658871895
 20
-73.7848126440623
 30
0.0
 40
0.0
 41
0.0
  0
VERTEX
  5
   630
  8
0
  6
CONTINUOUS
 10
-1076.94329506236
 20
-73.6234167440763
 30
0.0
 40
0.0
 41
0.0
  0
VERTEX
  5
   631
  8
0
  6
CONTINUOUS
 10
-1076.98713008968
 20
-73.4611299148759
 30
0.0
 40
0.0
 41
0.0
  0
VERTEX
  5
   632
  8
0
  6
CONTINUOUS
 10
-1077.02825684579
 20
-73.2980093139178
 30
0.0
 40
0.0
 41
0.0
  0
VERTEX
  5
   633
  8
0
  6
CONTINUOUS
 10
-1077.06686992021
 20
-73.1341189732488
 30
0.0
 40
0.0
 41
0.0
  0
VERTEX
  5
   634
  8
0
  6
CONTINUOUS
 10
-1077.10319091753
 20
-72.9695287064769
 30
0.0
 40
0.0
 41
0.0
  0
VERTEX
  5
   635
  8
0
  6
CONTINUOUS
 10
-1077.13746392783
 20
-72.8043130157429
 30
0.0
 40
0.0
 41
0.0
  0
VERTEX
  5
   636
  8
0
  6
CONTINUOUS
 10
-1077.16995099716
 20
-72.6385499986919
 30
0.0
 40
0.0
 41
0.0
  0
VERTEX
  5
   637
  8
0
  6
CONTINUOUS
 10
-1077.20092759795
 20
-72.4723202554443
 30
0.0
 40
0.0
 41
0.0
  0
VERTEX
  5
   638
  8
0
  6
CONTINUOUS
 10
-1077.23067809944
 20
-72.3057057955675
 30
0.0
 40
0.0
 41
0.0
  0
VERTEX
  5
   639
  8
0
  6
CONTINUOUS
 10
-1077.28765558819
 20
-71.9716512532598
 30
0.0
 40
0.0
 41
0.0
  0
VERTEX
  5
   63A
  8
0
  6
CONTINUOUS
 10
-1077.39933724989
 20
-71.302434669982
 30
0.0
 40
0.0
 41
0.0
  0
VERTEX
  5
   63B
  8
0
  6
CONTINUOUS
 10
-1077.45801538181
 20
-70.9683809048431
 30
0.0
 40
0.0
 41
0.0
  0
VERTEX
  5
   63C
  8
0
  6
CONTINUOUS
 10
-1077.48875344682
 20
-70.80168593543
 30
0.0
 40
0.0
 41
0.0
  0
VERTEX
  5
   63D
  8
0
  6
CONTINUOUS
 10
-1077.52060192607
 20
-70.6352633983527
 30
0.0
 40
0.0
 41
0.0
  0
VERTEX
  5
   63E
  8
0
  6
CONTINUOUS
 10
-1077.55175453735
 20
-70.4784673017362
 30
0.0
 40
0.0
 41
0.0
  0
VERTEX
  5
   63F
  8
0
  6
CONTINUOUS
 10
-1077.58400536172
 20
-70.321948756094
 30
0.0
 40
0.0
 41
0.0
  0
VERTEX
  5
   640
  8
0
  6
CONTINUOUS
 10
-1077.61735581407
 20
-70.1657114144206
 30
0.0
 40
0.0
 41
0.0
  0
VERTEX
  5
   641
  8
0
  6
CONTINUOUS
 10
-1077.65177709392
 20
-70.0097511545543
 30
0.0
 40
0.0
 41
0.0
  0
VERTEX
  5
   642
  8
0
  6
CONTINUOUS
 10
-1077.72358341508
 20
-69.698611056447
 30
0.0
 40
0.0
 41
0.0
  0
VERTEX
  5
   643
  8
0
  6
CONTINUOUS
 10
-1077.79870081393
 20
-69.3883687386969
 30
0.0
 40
0.0
 41
0.0
  0
VERTEX
  5
   644
  8
0
  6
CONTINUOUS
 10
-1077.87610961827
 20
-69.0787885091576
 30
0.0
 40
0.0
 41
0.0
  0
VERTEX
  5
   645
  8
0
  6
CONTINUOUS
 10
-1078.03280380687
 20
-68.4604370010736
 30
0.0
 40
0.0
 41
0.0
  0
VERTEX
  5
   646
  8
0
  6
CONTINUOUS
 10
-1078.10941182726
 20
-68.1510324433346
 30
0.0
 40
0.0
 41
0.0
  0
VERTEX
  5
   647
  8
0
  6
CONTINUOUS
 10
-1078.18314381101
 20
-67.8410718488525
 30
0.0
 40
0.0
 41
0.0
  0
VERTEX
  5
   648
  8
0
  6
CONTINUOUS
 10
-1078.21857955934
 20
-67.6858017737634
 30
0.0
 40
0.0
 41
0.0
  0
VERTEX
  5
   649
  8
0
  6
CONTINUOUS
 10
-1078.25290392312
 20
-67.5303029308824
 30
0.0
 40
0.0
 41
0.0
  0
VERTEX
  5
   64A
  8
0
  6
CONTINUOUS
 10
-1078.2869698766
 20
-67.3700048925087
 30
0.0
 40
0.0
 41
0.0
  0
VERTEX
  5
   64B
  8
0
  6
CONTINUOUS
 10
-1078.31967874579
 20
-67.209426613301
 30
0.0
 40
0.0
 41
0.0
  0
VERTEX
  5
   64C
  8
0
  6
CONTINUOUS
 10
-1078.35097440555
 20
-67.0485579347998
 30
0.0
 40
0.0
 41
0.0
  0
VERTEX
  5
   64D
  8
0
  6
CONTINUOUS
 10
-1078.38082257918
 20
-66.8873942727453
 30
0.0
 40
0.0
 41
0.0
  0
VERTEX
  5
   64E
  8
0
  6
CONTINUOUS
 10
-1078.40920916365
 20
-66.7259361242564
 30
0.0
 40
0.0
 41
0.0
  0
VERTEX
  5
   64F
  8
0
  6
CONTINUOUS
 10
-1078.4361385549
 20
-66.5641885750099
 30
0.0
 40
0.0
 41
0.0
  0
VERTEX
  5
   650
  8
0
  6
CONTINUOUS
 10
-1078.46163197313
 20
-66.4021608064199
 30
0.0
 40
0.0
 41
0.0
  0
VERTEX
  5
   651
  8
0
  6
CONTINUOUS
 10
-1078.48572578812
 20
-66.2398656028167
 30
0.0
 40
0.0
 41
0.0
  0
VERTEX
  5
   652
  8
0
  6
CONTINUOUS
 10
-1078.50846984449
 20
-66.0773188586258
 30
0.0
 40
0.0
 41
0.0
  0
VERTEX
  5
   653
  8
0
  6
CONTINUOUS
 10
-1078.52992578697
 20
-65.9145390855476
 30
0.0
 40
0.0
 41
0.0
  0
VERTEX
  5
   654
  8
0
  6
CONTINUOUS
 10
-1078.55016538575
 20
-65.7515469197359
 30
0.0
 40
0.0
 41
0.0
  0
VERTEX
  5
   655
  8
0
  6
CONTINUOUS
 10
-1078.56926886171
 20
-65.5883646289777
 30
0.0
 40
0.0
 41
0.0
  0
VERTEX
  5
   656
  8
0
  6
CONTINUOUS
 10
-1078.6044205341
 20
-65.2615239450084
 30
0.0
 40
0.0
 41
0.0
  0
VERTEX
  5
   657
  8
0
  6
CONTINUOUS
 10
-1078.63612794661
 20
-64.9342090814001
 30
0.0
 40
0.0
 41
0.0
  0
VERTEX
  5
   658
  8
0
  6
CONTINUOUS
 10
-1078.66516627175
 20
-64.6066066515057
 30
0.0
 40
0.0
 41
0.0
  0
VERTEX
  5
   659
  8
0
  6
CONTINUOUS
 10
-1078.69228512134
 20
-64.2788820640032
 30
0.0
 40
0.0
 41
0.0
  0
VERTEX
  5
   65A
  8
0
  6
CONTINUOUS
 10
-1078.73763162544
 20
-63.6981988942183
 30
0.0
 40
0.0
 41
0.0
  0
VERTEX
  5
   65B
  8
0
  6
CONTINUOUS
 10
-1078.82704272109
 20
-62.5379717315374
 30
0.0
 40
0.0
 41
0.0
  0
VERTEX
  5
   65C
  8
0
  6
CONTINUOUS
 10
-1078.87474639379
 20
-61.9583584184418
 30
0.0
 40
0.0
 41
0.0
  0
VERTEX
  5
   65D
  8
0
  6
CONTINUOUS
 10
-1078.90004715903
 20
-61.6686330074566
 30
0.0
 40
0.0
 41
0.0
  0
VERTEX
  5
   65E
  8
0
  6
CONTINUOUS
 10
-1078.9266217604
 20
-61.3789661557054
 30
0.0
 40
0.0
 41
0.0
  0
VERTEX
  5
   65F
  8
0
  6
CONTINUOUS
 10
-1078.95587599726
 20
-61.0781781800411
 30
0.0
 40
0.0
 41
0.0
  0
VERTEX
  5
   660
  8
0
  6
CONTINUOUS
 10
-1078.98718210637
 20
-60.7775374210194
 30
0.0
 40
0.0
 41
0.0
  0
VERTEX
  5
   661
  8
0
  6
CONTINUOUS
 10
-1079.02096449671
 20
-60.4771252008619
 30
0.0
 40
0.0
 41
0.0
  0
VERTEX
  5
   662
  8
0
  6
CONTINUOUS
 10
-1079.05768321597
 20
-60.1770448794225
 30
0.0
 40
0.0
 41
0.0
  0
VERTEX
  5
   663
  8
0
  6
CONTINUOUS
 10
-1079.09781844009
 20
-59.8774181886734
 30
0.0
 40
0.0
 41
0.0
  0
VERTEX
  5
   664
  8
0
  6
CONTINUOUS
 10
-1079.11931898328
 20
-59.727817117615
 30
0.0
 40
0.0
 41
0.0
  0
VERTEX
  5
   665
  8
0
  6
CONTINUOUS
 10
-1079.1418549629
 20
-59.5783815671907
 30
0.0
 40
0.0
 41
0.0
  0
VERTEX
  5
   666
  8
0
  6
CONTINUOUS
 10
-1079.16548515506
 20
-59.4291302887559
 30
0.0
 40
0.0
 41
0.0
  0
VERTEX
  5
   667
  8
0
  6
CONTINUOUS
 10
-1079.19026668564
 20
-59.2800824946394
 30
0.0
 40
0.0
 41
0.0
  0
VERTEX
  5
   668
  8
0
  6
CONTINUOUS
 10
-1079.21625454567
 20
-59.1312577435961
 30
0.0
 40
0.0
 41
0.0
  0
VERTEX
  5
   669
  8
0
  6
CONTINUOUS
 10
-1079.24350110658
 20
-58.9826758262597
 30
0.0
 40
0.0
 41
0.0
  0
VERTEX
  5
   66A
  8
0
  6
CONTINUOUS
 10
-1079.27205563549
 20
-58.8343566505952
 30
0.0
 40
0.0
 41
0.0
  0
VERTEX
  5
   66B
  8
0
  6
CONTINUOUS
 10
-1079.30196381056
 20
-58.6863201273519
 30
0.0
 40
0.0
 41
0.0
  0
VERTEX
  5
   66C
  8
0
  6
CONTINUOUS
 10
-1079.33326723625
 20
-58.5385860555158
 30
0.0
 40
0.0
 41
0.0
  0
VERTEX
  5
   66D
  8
0
  6
CONTINUOUS
 10
-1079.36600295862
 20
-58.3911740077624
 30
0.0
 40
0.0
 41
0.0
  0
VERTEX
  5
   66E
  8
0
  6
CONTINUOUS
 10
-1079.40033770015
 20
-58.2435369180384
 30
0.0
 40
0.0
 41
0.0
  0
VERTEX
  5
   66F
  8
0
  6
CONTINUOUS
 10
-1079.43617491979
 20
-58.0962626887358
 30
0.0
 40
0.0
 41
0.0
  0
VERTEX
  5
   670
  8
0
  6
CONTINUOUS
 10
-1079.47353577678
 20
-57.949369610178
 30
0.0
 40
0.0
 41
0.0
  0
VERTEX
  5
   671
  8
0
  6
CONTINUOUS
 10
-1079.51243562226
 20
-57.8028750787029
 30
0.0
 40
0.0
 41
0.0
  0
VERTEX
  5
   672
  8
0
  6
CONTINUOUS
 10
-1079.55288390197
 20
-57.6567953809038
 30
0.0
 40
0.0
 41
0.0
  0
VERTEX
  5
   673
  8
0
  6
CONTINUOUS
 10
-1079.594884059
 20
-57.5111454778709
 30
0.0
 40
0.0
 41
0.0
  0
VERTEX
  5
   674
  8
0
  6
CONTINUOUS
 10
-1079.63843343646
 20
-57.3659387894329
 30
0.0
 40
0.0
 41
0.0
  0
VERTEX
  5
   675
  8
0
  6
CONTINUOUS
 10
-1079.68352318022
 20
-57.2211869783981
 30
0.0
 40
0.0
 41
0.0
  0
VERTEX
  5
   676
  8
0
  6
CONTINUOUS
 10
-1079.73013814165
 20
-57.0768997347961
 30
0.0
 40
0.0
 41
0.0
  0
VERTEX
  5
   677
  8
0
  6
CONTINUOUS
 10
-1079.77825678026
 20
-56.9330845601187
 30
0.0
 40
0.0
 41
0.0
  0
VERTEX
  5
   678
  8
0
  6
CONTINUOUS
 10
-1079.82785106649
 20
-56.7897465515618
 30
0.0
 40
0.0
 41
0.0
  0
VERTEX
  5
   679
  8
0
  6
CONTINUOUS
 10
-1079.87888638439
 20
-56.6468881862665
 30
0.0
 40
0.0
 41
0.0
  0
VERTEX
  5
   67A
  8
0
  6
CONTINUOUS
 10
-1079.93132143432
 20
-56.5045091055604
 30
0.0
 40
0.0
 41
0.0
  0
VERTEX
  5
   67B
  8
0
  6
CONTINUOUS
 10
-1079.9851081357
 20
-56.3626058991991
 30
0.0
 40
0.0
 41
0.0
  0
VERTEX
  5
   67C
  8
0
  6
CONTINUOUS
 10
-1080.0401915297
 20
-56.2211718896078
 30
0.0
 40
0.0
 41
0.0
  0
VERTEX
  5
   67D
  8
0
  6
CONTINUOUS
 10
-1080.09650968196
 20
-56.0801969161222
 30
0.0
 40
0.0
 41
0.0
  0
VERTEX
  5
   67E
  8
0
  6
CONTINUOUS
 10
-1080.15399358529
 20
-55.9396671192302
 30
0.0
 40
0.0
 41
0.0
  0
VERTEX
  5
   67F
  8
0
  6
CONTINUOUS
 10
-1080.21256706242
 20
-55.7995647248134
 30
0.0
 40
0.0
 41
0.0
  0
VERTEX
  5
   680
  8
0
  6
CONTINUOUS
 10
-1080.33264159472
 20
-55.5205501793464
 30
0.0
 40
0.0
 41
0.0
  0
VERTEX
  5
   681
  8
0
  6
CONTINUOUS
 10
-1080.44877580859
 20
-55.2589356829703
 30
0.0
 40
0.0
 41
0.0
  0
VERTEX
  5
   682
  8
0
  6
CONTINUOUS
 10
-1080.5670849066
 20
-54.9983074797373
 30
0.0
 40
0.0
 41
0.0
  0
VERTEX
  5
   683
  8
0
  6
CONTINUOUS
 10
-1081.04646919176
 20
-53.9596145378023
 30
0.0
 40
0.0
 41
0.0
  0
VERTEX
  5
   684
  8
0
  6
CONTINUOUS
 10
-1081.16419345166
 20
-53.6993652109045
 30
0.0
 40
0.0
 41
0.0
  0
VERTEX
  5
   685
  8
0
  6
CONTINUOUS
 10
-1081.27991715732
 20
-53.4383662773471
 30
0.0
 40
0.0
 41
0.0
  0
VERTEX
  5
   686
  8
0
  6
CONTINUOUS
 10
-1081.39332778757
 20
-53.1764554644649
 30
0.0
 40
0.0
 41
0.0
  0
VERTEX
  5
   687
  8
0
  6
CONTINUOUS
 10
-1081.50432479
 20
-52.9135550698667
 30
0.0
 40
0.0
 41
0.0
  0
VERTEX
  5
   688
  8
0
  6
CONTINUOUS
 10
-1081.60188318751
 20
-52.6770782098571
 30
0.0
 40
0.0
 41
0.0
  0
VERTEX
  5
   689
  8
0
  6
CONTINUOUS
 10
-1081.69790580676
 20
-52.4399175154575
 30
0.0
 40
0.0
 41
0.0
  0
VERTEX
  5
   68A
  8
0
  6
CONTINUOUS
 10
-1082.07637128615
 20
-51.4880323903807
 30
0.0
 40
0.0
 41
0.0
  0
VERTEX
  5
   68B
  8
0
  6
CONTINUOUS
 10
-1082.17238073006
 20
-51.2503374735028
 30
0.0
 40
0.0
 41
0.0
  0
VERTEX
  5
   68C
  8
0
  6
CONTINUOUS
 10
-1082.26996055715
 20
-51.0131642135693
 30
0.0
 40
0.0
 41
0.0
  0
VERTEX
  5
   68D
  8
0
  6
CONTINUOUS
 10
-1082.36943754296
 20
-50.7766569064261
 30
0.0
 40
0.0
 41
0.0
  0
VERTEX
  5
   68E
  8
0
  6
CONTINUOUS
 10
-1082.47096342609
 20
-50.5408965994413
 30
0.0
 40
0.0
 41
0.0
  0
VERTEX
  5
   68F
  8
0
  6
CONTINUOUS
 10
-1082.58563092261
 20
-50.2808266223157
 30
0.0
 40
0.0
 41
0.0
  0
VERTEX
  5
   690
  8
0
  6
CONTINUOUS
 10
-1082.70228102781
 20
-50.0215421520888
 30
0.0
 40
0.0
 41
0.0
  0
VERTEX
  5
   691
  8
0
  6
CONTINUOUS
 10
-1082.93825149082
 20
-49.5042504951527
 30
0.0
 40
0.0
 41
0.0
  0
VERTEX
  5
   692
  8
0
  6
CONTINUOUS
 10
-1083.05540035312
 20
-49.2455041045134
 30
0.0
 40
0.0
 41
0.0
  0
VERTEX
  5
   693
  8
0
  6
CONTINUOUS
 10
-1083.17034315436
 20
-48.9861215252597
 30
0.0
 40
0.0
 41
0.0
  0
VERTEX
  5
   694
  8
0
  6
CONTINUOUS
 10
-1083.22658839865
 20
-48.8560531329713
 30
0.0
 40
0.0
 41
0.0
  0
VERTEX
  5
   695
  8
0
  6
CONTINUOUS
 10
-1083.28180866089
 20
-48.7256611728664
 30
0.0
 40
0.0
 41
0.0
  0
VERTEX
  5
   696
  8
0
  6
CONTINUOUS
 10
-1083.33585574824
 20
-48.5948941446759
 30
0.0
 40
0.0
 41
0.0
  0
VERTEX
  5
   697
  8
0
  6
CONTINUOUS
 10
-1083.38859033385
 20
-48.4637037108967
 30
0.0
 40
0.0
 41
0.0
  0
VERTEX
  5
   698
  8
0
  6
CONTINUOUS
 10
-1083.43988436809
 20
-48.3320455829228
 30
0.0
 40
0.0
 41
0.0
  0
VERTEX
  5
   699
  8
0
  6
CONTINUOUS
 10
-1083.48962348985
 20
-48.1998804071752
 30
0.0
 40
0.0
 41
0.0
  0
VERTEX
  5
   69A
  8
0
  6
CONTINUOUS
 10
-1083.53770943779
 20
-48.0671746512325
 30
0.0
 40
0.0
 41
0.0
  0
VERTEX
  5
   69B
  8
0
  6
CONTINUOUS
 10
-1083.5840624616
 20
-47.9339014899616
 30
0.0
 40
0.0
 41
0.0
  0
VERTEX
  5
   69C
  8
0
  6
CONTINUOUS
 10
-1083.62429321557
 20
-47.8133204570656
 30
0.0
 40
0.0
 41
0.0
  0
VERTEX
  5
   69D
  8
0
  6
CONTINUOUS
 10
-1083.66304162442
 20
-47.6922546567278
 30
0.0
 40
0.0
 41
0.0
  0
VERTEX
  5
   69E
  8
0
  6
CONTINUOUS
 10
-1083.70029453176
 20
-47.5707008718961
 30
0.0
 40
0.0
 41
0.0
  0
VERTEX
  5
   69F
  8
0
  6
CONTINUOUS
 10
-1083.73605210045
 20
-47.4486607189455
 30
0.0
 40
0.0
 41
0.0
  0
VERTEX
  5
   6A0
  8
0
  6
CONTINUOUS
 10
-1083.77032678363
 20
-47.3261402703024
 30
0.0
 40
0.0
 41
0.0
  0
VERTEX
  5
   6A1
  8
0
  6
CONTINUOUS
 10
-1083.80314229571
 20
-47.2031496770685
 30
0.0
 40
0.0
 41
0.0
  0
VERTEX
  5
   6A2
  8
0
  6
CONTINUOUS
 10
-1083.8345325834
 20
-47.0797027916456
 30
0.0
 40
0.0
 41
0.0
  0
VERTEX
  5
   6A3
  8
0
  6
CONTINUOUS
 10
-1083.86454079669
 20
-46.9558167903597
 30
0.0
 40
0.0
 41
0.0
  0
VERTEX
  5
   6A4
  8
0
  6
CONTINUOUS
 10
-1083.89321825985
 20
-46.8315117960855
 30
0.0
 40
0.0
 41
0.0
  0
VERTEX
  5
   6A5
  8
0
  6
CONTINUOUS
 10
-1083.92062344245
 20
-46.7068105008706
 30
0.0
 40
0.0
 41
0.0
  0
VERTEX
  5
   6A6
  8
0
  6
CONTINUOUS
 10
-1083.94682093037
 20
-46.5817377885597
 30
0.0
 40
0.0
 41
0.0
  0
VERTEX
  5
   6A7
  8
0
  6
CONTINUOUS
 10
-1083.97188039678
 20
-46.4563203574194
 30
0.0
 40
0.0
 41
0.0
  0
VERTEX
  5
   6A8
  8
0
  6
CONTINUOUS
 10
-1083.99587557315
 20
-46.3305863427619
 30
0.0
 40
0.0
 41
0.0
  0
VERTEX
  5
   6A9
  8
0
  6
CONTINUOUS
 10
-1084.01888322027
 20
-46.20456493957
 30
0.0
 40
0.0
 41
0.0
  0
VERTEX
  5
   6AA
  8
0
  6
CONTINUOUS
 10
-1084.06225194254
 20
-45.9517797816107
 30
0.0
 40
0.0
 41
0.0
  0
VERTEX
  5
   6AB
  8
0
  6
CONTINUOUS
 10
-1084.10262213426
 20
-45.6982052965327
 30
0.0
 40
0.0
 41
0.0
  0
VERTEX
  5
   6AC
  8
0
  6
CONTINUOUS
 10
-1084.14061197936
 20
-45.444074700009
 30
0.0
 40
0.0
 41
0.0
  0
VERTEX
  5
   6AD
  8
0
  6
CONTINUOUS
 10
-1084.17753901271
 20
-45.1842175817699
 30
0.0
 40
0.0
 41
0.0
  0
VERTEX
  5
   6AE
  8
0
  6
CONTINUOUS
 10
-1084.21310143889
 20
-44.9242015156458
 30
0.0
 40
0.0
 41
0.0
  0
VERTEX
  5
   6AF
  8
0
  6
CONTINUOUS
 10
-1084.41766546181
 20
-43.3682413537598
 30
0.0
 40
0.0
 41
0.0
  0
VERTEX
  5
   6B0
  8
0
  6
CONTINUOUS
 10
-1084.48738565654
 20
-42.8530047282509
 30
0.0
 40
0.0
 41
0.0
  0
SEQEND
  5
   6B1
  8
0
  6
CONTINUOUS
 62
     1
  0
LINE
  5
   6B2
  8
0
  6
CONTINUOUS
 62
     1
 10
-1075.12388679469
 20
-77.2158775162728
 30
0.0
 11
-1075.12388679469
 21
-43.3529187011894
 31
0.0
  0
LINE
  5
   6B3
  8
0
  6
CONTINUOUS
 62
     1
 10
-1076.92388679469
 20
-73.6918341012388
 30
0.0
 11
-1076.92388679469
 21
-43.3529187011894
 31
0.0
  0
LINE
  5
   6B4
  8
0
  6
CONTINUOUS
 62
     1
 10
-1078.72388679469
 20
-63.8771375795823
 30
0.0
 11
-1078.72388679469
 21
-43.3529187011894
 31
0.0
  0
LINE
  5
   6B5
  8
0
  6
CONTINUOUS
 62
     1
 10
-1080.52388679469
 20
-55.0929261148774
 30
0.0
 11
-1080.52388679469
 21
-43.3529187011894
 31
0.0
  0
LINE
  5
   6B6
  8
0
  6
CONTINUOUS
 62
     1
 10
-1082.32388679469
 20
-50.8842714334757
 30
0.0
 11
-1082.32388679469
 21
-43.3529187011894
 31
0.0
  0
LINE
  5
   6B7
  8
0
  6
CONTINUOUS
 62
     1
 10
-1084.12388679469
 20
-45.5577257832103
 30
0.0
 11
-1084.12388679469
 21
-43.3529187011894
 31
0.0
  0
LINE
  5
   6B8
  8
0
  6
CONTINUOUS
 62
     1
 10
-1030.12388679469
 20
-77.8529187011894
 30
0.0
 11
-1030.12388679469
 21
-43.3529187011894
 31
0.0
  0
LINE
  5
   6B9
  8
0
  6
CONTINUOUS
 62
     1
 10
-1028.32388679469
 20
-77.8529187011894
 30
0.0
 11
-1028.32388679469
 21
-43.3529187011894
 31
0.0
  0
LINE
  5
   6BA
  8
0
  6
CONTINUOUS
 62
     1
 10
-1026.52388679469
 20
-77.8529187011894
 30
0.0
 11
-1026.52388679469
 21
-43.3529187011894
 31
0.0
  0
LINE
  5
   6BB
  8
0
  6
CONTINUOUS
 62
     1
 10
-1024.72388679469
 20
-77.8529187011894
 30
0.0
 11
-1024.72388679469
 21
-43.3529187011894
 31
0.0
  0
LINE
  5
   6BC
  8
0
  6
CONTINUOUS
 62
     1
 10
-1022.92388679469
 20
-77.8529187011894
 30
0.0
 11
-1022.92388679469
 21
-43.3529187011894
 31
0.0
  0
LINE
  5
   6BD
  8
0
  6
CONTINUOUS
 62
     7
 10
-1107.62388698191
 20
-68.8529690006548
 30
0.0
 11
-1107.62388698191
 21
-54.8529186544929
 31
0.0
  0
LINE
  5
   6BE
  8
0
  6
CONTINUOUS
 62
     7
 10
-1092.62388698191
 20
-68.8529690006548
 30
0.0
 11
-1092.62388698191
 21
-54.8529186544929
 31
0.0
  0
LINE
  5
   6BF
  8
0
  6
CONTINUOUS
 62
     7
 10
-1092.62388698191
 20
-68.8529690006548
 30
0.0
 11
-1107.62388698191
 21
-68.8529690006548
 31
0.0
  0
ARC
  5
   6C0
  8
0
  6
CONTINUOUS
 62
     7
 10
-1100.12388698191
 20
-59.3529690006548
 30
0.0
 40
5.25
 50
121.001652331568
 51
418.998347564501
  0
LINE
  5
   6C1
  8
0
  6
DOT
 62
     7
 10
-1104.62388698191
 20
-68.8529690006548
 30
0.0
 11
-1104.62388698191
 21
-62.0571324572528
 31
0.0
  0
LINE
  5
   6C2
  8
0
  6
DOT
 62
     7
 10
-1095.62388698191
 20
-68.8529690006548
 30
0.0
 11
-1095.62388698191
 21
-62.0571324572528
 31
0.0
  0
LINE
  5
   6C3
  8
0
  6
DOT
 62
     7
 10
-1096.37388698191
 20
-68.8529690006548
 30
0.0
 11
-1096.37388698191
 21
-63.0272036148296
 31
0.0
  0
LINE
  5
   6C4
  8
0
  6
DOT
 62
     7
 10
-1103.87388698191
 20
-68.8529690006548
 30
0.0
 11
-1103.87388698191
 21
-63.0272036148296
 31
0.0
  0
LINE
  5
   6C5
  8
0
  6
CONTINUOUS
 62
     7
 10
-1085.74888659907
 20
-68.8529690006548
 30
0.0
 11
-1085.74888659907
 21
-54.8529187011894
 31
0.0
  0
LINE
  5
   6C6
  8
0
  6
CONTINUOUS
 62
     7
 10
-1077.93338801285
 20
-68.8529690006548
 30
0.0
 11
-1085.74888659907
 21
-68.8529690006548
 31
0.0
  0
ARC
  5
   6C7
  8
0
  6
CONTINUOUS
 62
     7
 10
-1078.24888698191
 20
-59.3529690006548
 30
0.0
 40
5.25
 50
121.001652331568
 51
265.433242495638
  0
LINE
  5
   6C8
  8
0
  6
DOT
 62
     7
 10
-1081.99888698191
 20
-68.8529690006548
 30
0.0
 11
-1081.99888698191
 21
-63.0272036148296
 31
0.0
  0
LINE
  5
   6C9
  8
0
  6
DOT
 62
     7
 10
-1082.74888698191
 20
-68.8529690006548
 30
0.0
 11
-1082.74888698191
 21
-62.0571324572528
 31
0.0
  0
LINE
  5
   6CA
  8
0
  6
DASHDOT
 62
     7
 10
-1078.24888698191
 20
-71.6424473828412
 30
0.0
 11
-1078.24888698191
 21
-47.1529192559088
 31
0.0
  0
INSERT
  5
   6CB
  8
255
  6
CONTINUOUS
 62
     7
  2
MOSTRINA
 10
-1113.79300758327
 20
-45.4682540893555
 30
0.0
 41
0.5
 42
0.5
 50
3.50835464724173E-15
 43
0.5
  0
LINE
  5
   6CC
  8
0
  6
CONTINUOUS
 62
     7
 10
-1085.6238791653
 20
-25.1029187011895
 30
0.0
 11
-1113.24888659907
 21
-25.1029187011895
 31
0.0
  0
CIRCLE
  5
   6CD
  8
0
  6
CONTINUOUS
 62
     7
 10
-1028.66357629771
 20
40.7869368095482
 30
0.0
 40
0.1
  0
TEXT
  5
   6CE
  8
0
  6
CONTINUOUS
 62
     7
 10
-1005.97032190839
 20
-7.37708090431251
 30
0.0
 40
3.00000002980232
  1
=          =
 50
89.9999999480344
 41
0.916666604744064
 72
     2
 11
-1005.970321879
 21
25.0729172216181
 31
0.0
  0
INSERT
  5
   6CF
  8
0
  6
CONTINUOUS
 62
     7
  2
*UDIM1588
 10
0.0
 20
0.0
 30
0.0
  0
INSERT
  5
   6D0
  8
0
  6
CONTINUOUS
 62
     7
  2
*UDIM1589
 10
0.0
 20
0.0
 30
0.0
  0
TEXT
  5
   6D1
  8
0
  6
CONTINUOUS
 62
     7
 10
-1058.00530218617
 20
-84.4891967042278
 30
0.0
 40
3.00000002980232
  1
Y
 50
359.999999948034
 41
0.916666604744064
 72
     2
 11
-1055.8053023173
 21
-84.4891967062121
 31
0.0
  0
INSERT
  5
   6D2
  8
0
  6
CONTINUOUS
 62
     7
  2
*UDIM1590
 10
0.0
 20
0.0
 30
0.0
  0
TEXT
  5
   6D3
  8
0
  6
CONTINUOUS
 62
     7
 10
-1004.42384022013
 20
8.00160219212391
 30
0.0
 40
3.00000002980232
  1
X
 50
359.999999948034
 41
0.916666604744064
 72
     2
 11
-1002.22384035126
 21
8.00160219013963
 31
0.0
  0
INSERT
  5
   6D4
  8
0
  6
CONTINUOUS
 62
     7
  2
*UDIM1591
 10
0.0
 20
0.0
 30
0.0
  0
TEXT
  5
   6D5
  8
0
  6
CONTINUOUS
 62
     7
 10
-1073.03422363635
 20
87.6601264189711
 30
0.0
 40
3.00000002980232
  1
=         =
 50
359.999999948034
 41
0.916666604744064
 72
     2
 11
-1043.33422535197
 21
87.6601263921834
 31
0.0
  0
INSERT
  5
   6D6
  8
0
  6
CONTINUOUS
 62
     7
  2
*UDIM1592
 10
0.0
 20
0.0
 30
0.0
  0
INSERT
  5
   6D7
  8
0
  6
CONTINUOUS
 62
     7
  2
*UDIM1593
 10
0.0
 20
0.0
 30
0.0
  0
INSERT
  5
   6D8
  8
0
  6
CONTINUOUS
 62
     7
  2
*UDIM1594
 10
0.0
 20
0.0
 30
0.0
  0
INSERT
  5
   6D9
  8
0
  6
CONTINUOUS
 62
     7
  2
*UDIM1595
 10
0.0
 20
0.0
 30
0.0
  0
INSERT
  5
   6DA
  8
0
  6
CONTINUOUS
 62
     7
  2
*UDIM1596
 10
0.0
 20
0.0
 30
0.0
  0
INSERT
  5
   6DB
  8
0
  6
CONTINUOUS
 62
     7
  2
*UDIM1597
 10
0.0
 20
0.0
 30
0.0
  0
INSERT
  5
   6DC
  8
0
  6
CONTINUOUS
 62
     7
  2
*UDIM1598
 10
0.0
 20
0.0
 30
0.0
  0
TEXT
  5
   6DD
  8
0
  6
CONTINUOUS
 62
     7
 10
-1139.90801993148
 20
8.32044244477908
 30
0.0
 40
3.00000002980232
  1
X
 50
359.999999948034
 41
0.916666604744064
 72
     1
 11
-1138.80801999569
 21
9.82044245868811
 31
0.0
 73
     2
  0
TEXT
  5
   6DE
  8
0
  6
CONTINUOUS
 62
     7
 10
-1057.16791144149
 20
106.034622437455
 30
0.0
 40
3.00000002980232
  1
Y
 50
359.999999948034
 41
0.916666604744064
 72
     1
 11
-1056.0679115057
 21
107.534622451364
 31
0.0
 73
     2
  0
LINE
  5
   6DF
  8
0
  6
CONTINUOUS
 62
     7
 10
-803.565795898438
 20
27.7306518554688
 30
0.0
 11
-775.565795898438
 21
27.7306518554688
 31
0.0
  0
LINE
  5
   6E0
  8
0
  6
CONTINUOUS
 62
     7
 10
-803.565795898438
 20
55.7306518554688
 30
0.0
 11
-775.565795898438
 21
55.7306518554688
 31
0.0
  0
LINE
  5
   6E1
  8
0
  6
CONTINUOUS
 62
     7
 10
-803.565795898438
 20
55.7306518554688
 30
0.0
 11
-803.565795898438
 21
27.7306518554688
 31
0.0
  0
LINE
  5
   6E2
  8
0
  6
CONTINUOUS
 62
     7
 10
-775.565795898438
 20
55.7306518554688
 30
0.0
 11
-775.565795898438
 21
27.7306518554688
 31
0.0
  0
CIRCLE
  5
   6E3
  8
0
  6
CONTINUOUS
 62
     7
 10
-799.565795898438
 20
59.4806518554688
 30
0.0
 40
0.875
  0
CIRCLE
  5
   6E4
  8
0
  6
CONTINUOUS
 62
     7
 10
-779.565795898438
 20
59.4806518554688
 30
0.0
 40
0.875
  0
CIRCLE
  5
   6E5
  8
0
  6
CONTINUOUS
 62
     7
 10
-799.565795898438
 20
23.9806518554688
 30
0.0
 40
0.875
  0
CIRCLE
  5
   6E6
  8
0
  6
CONTINUOUS
 62
     7
 10
-779.565795898438
 20
23.9806518554688
 30
0.0
 40
0.875
  0
LINE
  5
   6E7
  8
0
  6
DASHDOT
 62
     7
 10
-799.565795898438
 20
61.1056518554688
 30
0.0
 11
-799.565795898438
 21
57.8556518554688
 31
0.0
  0
LINE
  5
   6E8
  8
0
  6
DASHDOT
 62
     7
 10
-801.190795898438
 20
59.4806518554688
 30
0.0
 11
-797.940795898438
 21
59.4806518554688
 31
0.0
  0
LINE
  5
   6E9
  8
0
  6
DASHDOT
 62
     7
 10
-779.565795898438
 20
61.1056518554688
 30
0.0
 11
-779.565795898438
 21
57.8556518554688
 31
0.0
  0
LINE
  5
   6EA
  8
0
  6
DASHDOT
 62
     7
 10
-781.190795898438
 20
59.4806518554688
 30
0.0
 11
-777.940795898438
 21
59.4806518554688
 31
0.0
  0
LINE
  5
   6EB
  8
0
  6
DASHDOT
 62
     7
 10
-779.565795898438
 20
25.6056518554688
 30
0.0
 11
-779.565795898438
 21
22.3556518554688
 31
0.0
  0
LINE
  5
   6EC
  8
0
  6
DASHDOT
 62
     7
 10
-781.190795898438
 20
23.9806518554688
 30
0.0
 11
-777.940795898438
 21
23.9806518554688
 31
0.0
  0
LINE
  5
   6ED
  8
0
  6
DASHDOT
 62
     7
 10
-799.565795898438
 20
25.6056518554688
 30
0.0
 11
-799.565795898438
 21
22.3556518554688
 31
0.0
  0
LINE
  5
   6EE
  8
0
  6
DASHDOT
 62
     7
 10
-801.190795898438
 20
23.9806518554688
 30
0.0
 11
-797.940795898438
 21
23.9806518554688
 31
0.0
  0
LINE
  5
   6EF
  8
0
  6
DASHDOT
 62
     7
 10
-789.565795898438
 20
69.1007641408058
 30
0.0
 11
-789.565795898438
 21
12.6074010106477
 31
0.0
  0
LINE
  5
   6F0
  8
0
  6
CONTINUOUS
 62
     7
 10
-806.386372442103
 20
62.1318375106748
 30
0.0
 11
-772.431812218796
 21
62.1318375106748
 31
0.0
  0
LINE
  5
   6F1
  8
0
  6
CONTINUOUS
 62
     7
 10
-806.386372442103
 20
20.5667724097295
 30
0.0
 11
-772.431812218796
 21
20.5667724097295
 31
0.0
  0
LINE
  5
   6F2
  8
0
  6
CONTINUOUS
 62
     7
 10
-772.431812218796
 20
62.1318375106748
 30
0.0
 11
-772.431812218796
 21
20.5667724097295
 31
0.0
  0
LINE
  5
   6F3
  8
0
  6
CONTINUOUS
 62
     7
 10
-806.386372442103
 20
62.1318375106748
 30
0.0
 11
-806.386372442103
 21
20.5667724097295
 31
0.0
  0
CIRCLE
  5
   6F4
  8
0
  6
CONTINUOUS
 62
     7
 10
-804.5130173953
 20
60.3170248090842
 30
0.0
 40
0.0625
  0
LINE
  5
   6F5
  8
0
  6
DASHDOT
 62
     7
 10
-812.687782112875
 20
41.7306518554688
 30
0.0
 11
-765.447184218819
 21
41.7306518554688
 31
0.0
  0
TEXT
  5
   6F6
  8
0
  6
CONTINUOUS
 62
     7
 10
-819.329033540939
 20
33.4926647999933
 30
0.0
 40
3.00000002980232
  1
=   =
 50
449.999999844103
 41
0.916666604744064
 72
     2
 11
-819.329033505106
 21
46.692664035067
 31
0.0
  0
TEXT
  5
   6F7
  8
0
  6
CONTINUOUS
 62
     7
 10
-811.309410738204
 20
34.1191978314569
 30
0.0
 40
3.00000002980232
  1
=   =
 50
449.999999844103
 41
0.916666604744064
 72
     2
 11
-811.309410702371
 21
47.3191970665306
 31
0.0
  0
INSERT
  5
   6F8
  8
0
  6
CONTINUOUS
 62
     7
  2
*UDIM1599
 10
0.0
 20
0.0
 30
0.0
  0
TEXT
  5
   6F9
  8
0
  6
CONTINUOUS
 62
     7
 10
-796.466337891522
 20
74.9549977217458
 30
0.0
 40
3.00000002980232
  1
=   =
 50
359.999999844103
 41
0.916666604744064
 72
     2
 11
-783.266338656448
 21
74.9549976858961
 31
0.0
  0
TEXT
  5
   6FA
  8
0
  6
CONTINUOUS
 62
     7
 10
-796.524880143109
 20
68.3982560072683
 30
0.0
 40
3.00000002980232
  1
=   =
 50
359.999999844103
 41
0.916666604744064
 72
     2
 11
-783.324880908035
 21
68.3982559714186
 31
0.0
  0
INSERT
  5
   6FB
  8
0
  6
CONTINUOUS
 62
     7
  2
*UDIM1600
 10
0.0
 20
0.0
 30
0.0
  0
INSERT
  5
   6FC
  8
0
  6
CONTINUOUS
 62
     7
  2
*UDIM1601
 10
0.0
 20
0.0
 30
0.0
  0
INSERT
  5
   6FD
  8
0
  6
CONTINUOUS
 62
     7
  2
*UDIM1602
 10
0.0
 20
0.0
 30
0.0
  0
INSERT
  5
   6FE
  8
0
  6
CONTINUOUS
 62
     7
  2
*UDIM1603
 10
0.0
 20
0.0
 30
0.0
  0
TEXT
  5
   6FF
  8
0
  6
CONTINUOUS
 62
     7
 10
-790.754075894855
 20
5.7555579447797
 30
0.0
 40
3.00000002980232
  1
Y
 50
359.999999844103
 41
0.916666604744064
 72
     2
 11
-788.554076025986
 21
5.75555793880475
 31
0.0
  0
TEXT
  5
   700
  8
0
  6
CONTINUOUS
 62
     7
 10
-789.817398438953
 20
84.4950141215375
 30
0.0
 40
3.00000002980232
  1
Y
 50
359.999999844103
 41
0.916666604744064
 72
     2
 11
-787.617398570084
 21
84.4950141155626
 31
0.0
  0
TEXT
  5
   701
  8
0
  6
CONTINUOUS
 62
     7
 10
-763.966033826374
 20
40.2974147105268
 30
0.0
 40
3.00000002980232
  1
X
 50
359.999999844103
 41
0.916666604744064
 72
     2
 11
-761.766033957504
 21
40.2974147045518
 31
0.0
  0
TEXT
  5
   702
  8
0
  6
CONTINUOUS
 62
     7
 10
-831.733718762897
 20
39.8272039198926
 30
0.0
 40
3.00000002980232
  1
X
 50
359.999999844103
 41
0.916666604744064
 72
     2
 11
-829.533718894028
 21
39.8272039139177
 31
0.0
  0
LINE
  5
   703
  8
0
  6
DASHDOT
 62
   218
 10
-946.01451274623
 20
62.1470584106269
 30
0.0
 11
-957.902394023495
 21
62.1470584106269
 31
0.0
  0
LINE
  5
   704
  8
0
  6
CONTINUOUS
 62
     7
 10
-953.491455078125
 20
60.1470584106269
 30
0.0
 11
-953.491455078125
 21
64.1470584106269
 31
0.0
  0
LINE
  5
   705
  8
0
  6
CONTINUOUS
 62
     7
 10
-955.491455078125
 20
60.8970584106269
 30
0.0
 11
-955.491455078125
 21
63.3970584106269
 31
0.0
  0
LINE
  5
   706
  8
0
  6
CONTINUOUS
 62
     7
 10
-951.491455078125
 20
64.1470584106269
 30
0.0
 11
-953.491455078125
 21
64.1470584106269
 31
0.0
  0
LINE
  5
   707
  8
0
  6
CONTINUOUS
 62
     7
 10
-951.491455078125
 20
60.1470584106269
 30
0.0
 11
-953.491455078125
 21
60.1470584106269
 31
0.0
  0
LINE
  5
   708
  8
0
  6
CONTINUOUS
 62
     7
 10
-951.491455078125
 20
63.3970584106269
 30
0.0
 11
-955.491455078125
 21
63.3970584106269
 31
0.0
  0
LINE
  5
   709
  8
0
  6
CONTINUOUS
 62
     7
 10
-951.491455078125
 20
60.8970584106269
 30
0.0
 11
-955.491455078125
 21
60.8970584106269
 31
0.0
  0
LINE
  5
   70A
  8
0
  6
CONTINUOUS
 62
     7
 10
-951.491455078125
 20
-42.8529415893731
 30
0.0
 11
-953.491455078125
 21
-42.8529415893731
 31
0.0
  0
LINE
  5
   70B
  8
0
  6
CONTINUOUS
 62
     7
 10
-951.491455078125
 20
-43.6029415893731
 30
0.0
 11
-955.491455078125
 21
-43.6029415893731
 31
0.0
  0
LINE
  5
   70C
  8
0
  6
DASHDOT
 62
   218
 10
-946.01451274623
 20
-44.8529415893731
 30
0.0
 11
-957.902394023495
 21
-44.8529415893731
 31
0.0
  0
LINE
  5
   70D
  8
0
  6
CONTINUOUS
 62
     7
 10
-951.491455078125
 20
-46.1029415893731
 30
0.0
 11
-955.491455078125
 21
-46.1029415893731
 31
0.0
  0
LINE
  5
   70E
  8
0
  6
CONTINUOUS
 62
     7
 10
-951.491455078125
 20
-46.8529415893731
 30
0.0
 11
-953.491455078125
 21
-46.8529415893731
 31
0.0
  0
LINE
  5
   70F
  8
0
  6
CONTINUOUS
 62
     7
 10
-953.491455078125
 20
-46.8529415893731
 30
0.0
 11
-953.491455078125
 21
-42.8529415893731
 31
0.0
  0
LINE
  5
   710
  8
0
  6
CONTINUOUS
 62
     7
 10
-955.491455078125
 20
-46.1029415893731
 30
0.0
 11
-955.491455078125
 21
-43.6029415893731
 31
0.0
  0
CIRCLE
  5
   711
  8
0
  6
CONTINUOUS
 62
     7
 10
-952.949110157968
 20
62.0860564693607
 30
0.0
 40
0.1
  0
TEXT
  5
   712
  8
0
  6
CONTINUOUS
 62
     1
 10
-908.72721547575
 20
-152.893951541948
 30
0.0
 40
2.00000008940697
  1
M 3076 95-01-16
 50
359.999999948034
 41
0.749999861419206
 72
     2
 11
-886.527218593073
 21
-152.893951561971
 31
0.0
  0
INSERT
  5
   713
  8
0
  6
CONTINUOUS
 62
     7
  2
*UDIM1604
 10
0.0
 20
0.0
 30
0.0
  0
INSERT
  5
   714
  8
0
  6
CONTINUOUS
 62
     7
  2
*UDIM1605
 10
0.0
 20
0.0
 30
0.0
  0
TEXT
  5
   715
  8
0
  6
CONTINUOUS
 62
     1
 10
-915.547454791175
 20
-137.617370166208
 30
0.0
 40
2.00000008940697
  1
93-04-05 ROTA S.
 50
359.999999948034
 41
0.749999861419206
 72
     2
 11
-891.847458118604
 21
-137.617370187584
 31
0.0
  0
TEXT
  5
   716
  8
0
  6
CONTINUOUS
 62
     1
 10
-813.979492101881
 20
-163.780120208653
 30
0.0
 40
4.00000017881393
  1
601812/051
 50
359.999999948034
 41
0.937499973922969
 72
     2
 11
-777.229491502109
 21
-163.7801202418
 31
0.0
  0
TEXT
  5
   717
  8
0
  6
CONTINUOUS
 62
     1
 10
-795.893798763911
 20
-154.798538127392
 30
0.0
 40
3.00000002980232
  1
S5
 50
359.999999948034
 41
0.916666604744064
 72
     2
 11
-790.94379905349
 21
-154.798538131857
 31
0.0
  0
TEXT
  5
   718
  8
0
  6
CONTINUOUS
 62
     1
 10
-824.428218618939
 20
-136.488266016225
 30
0.0
 40
2.00000008940697
  1
4POLE LOW VOLTAGE M.C.C.B SERIES ISOMAX
 50
359.999999948034
 41
0.749999861419206
 72
     1
 11
-795.328222697975
 21
-135.488265997768
 31
0.0
 73
     2
  0
TEXT
  5
   719
  8
0
  6
CONTINUOUS
 62
     1
 10
-816.928219538337
 20
-139.488266022989
 30
0.0
 40
2.00000008940697
  1
FIXED VERSION TERMINALS CABLE
 50
359.999999948034
 41
0.749999861419206
 72
     1
 11
-795.328222566841
 21
-138.488265997768
 31
0.0
 73
     2
  0
TEXT
  5
   71A
  8
0
  6
CONTINUOUS
 62
     1
 10
-821.225826986293
 20
-144.558532745946
 30
0.0
 40
2.00000008940697
  1
INTERR.AUTOMATICO SERIE ISOMAX
 50
359.999999948034
 41
0.749999861419206
 72
     1
 11
-798.87583011985
 21
-143.5585327214
 31
0.0
 73
     2
  0
TEXT
  5
   71B
  8
0
  6
CONTINUOUS
 62
     1
 10
-830.225825594521
 20
-147.558532737828
 30
0.0
 40
2.00000008940697
  1
TETRAP.ESECUZIONE FISSA TERMINALI PER CAVI
 50
359.999999948034
 41
0.749999861419206
 72
     1
 11
-798.875829988716
 21
-146.5585327214
 31
0.0
 73
     2
  0
LINE
  5
   71C
  8
0
  6
CONTINUOUS
 62
     7
 10
-948.991470336914
 20
23.3970489501953
 30
0.0
 11
-948.991470336914
 21
23.6470336914063
 31
0.0
  0
LINE
  5
   71D
  8
0
  6
CONTINUOUS
 62
     7
 10
-948.991470336914
 20
31.1470336914063
 30
0.0
 11
-948.991470336914
 21
41.1470184326172
 31
0.0
  0
LINE
  5
   71E
  8
0
  6
CONTINUOUS
 62
     7
 10
-947.741455078125
 20
23.6470336914063
 30
0.0
 11
-947.741455078125
 21
31.1470336914063
 31
0.0
  0
LINE
  5
   71F
  8
0
  6
CONTINUOUS
 62
     7
 10
-947.741455078125
 20
23.6470336914063
 30
0.0
 11
-948.991470336914
 21
23.6470336914063
 31
0.0
  0
LINE
  5
   720
  8
0
  6
CONTINUOUS
 62
     7
 10
-947.741455078125
 20
31.1470336914063
 30
0.0
 11
-948.991470336914
 21
31.1470336914063
 31
0.0
  0
LINE
  5
   721
  8
0
  6
CONTINUOUS
 62
     7
 10
-947.741455078125
 20
41.1470184326172
 30
0.0
 11
-947.741455078125
 21
48.6470184326172
 31
0.0
  0
LINE
  5
   722
  8
0
  6
CONTINUOUS
 62
     7
 10
-947.741455078125
 20
41.1470184326172
 30
0.0
 11
-948.991470336914
 21
41.1470184326172
 31
0.0
  0
LINE
  5
   723
  8
0
  6
CONTINUOUS
 62
     7
 10
-947.741455078125
 20
48.6470184326172
 30
0.0
 11
-948.991470336914
 21
48.6470184326172
 31
0.0
  0
LINE
  5
   724
  8
0
  6
CONTINUOUS
 62
     7
 10
-914.741477966309
 20
23.3970336914063
 30
0.0
 11
-914.741477966309
 21
50.8970184326172
 31
0.0
  0
LINE
  5
   725
  8
0
  6
CONTINUOUS
 62
     2
 10
-938.991466746678
 20
72.1470413208008
 30
0.0
 11
-948.991455078125
 21
72.1470413208008
 31
0.0
  0
LINE
  5
   726
  8
0
  6
CONTINUOUS
 62
     2
 10
-948.99146692619
 20
50.6470184326172
 30
0.0
 11
-948.991459524923
 21
60.9543304443359
 31
0.0
  0
LINE
  5
   727
  8
0
  6
CONTINUOUS
 62
     7
 10
-912.991470336914
 20
59.6470184326172
 30
0.0
 11
-914.741470336914
 21
59.6470184326172
 31
0.0
  0
LINE
  5
   728
  8
0
  6
CONTINUOUS
 62
     7
 10
-914.74148232599
 20
50.8970140730104
 30
0.0
 11
-914.741474696596
 21
59.6470140730104
 31
0.0
  0
LINE
  5
   729
  8
0
  6
CONTINUOUS
 62
     7
 10
-946.991470336914
 20
51.8970184326172
 30
0.0
 11
-948.991470336914
 21
51.8970184326172
 31
0.0
  0
LINE
  5
   72A
  8
0
  6
CONTINUOUS
 62
     7
 10
-946.991469065532
 20
51.8970120750876
 30
0.0
 11
-946.991466511164
 21
52.9014303714159
 31
0.0
  0
LINE
  5
   72B
  8
0
  6
CONTINUOUS
 62
     7
 10
-914.741477966309
 20
18.6470413208008
 30
0.0
 11
-914.741477966309
 21
23.3970489501953
 31
0.0
  0
LINE
  5
   72C
  8
0
  6
CONTINUOUS
 62
     7
 10
-948.991465237253
 20
-11.8529459601336
 30
0.0
 11
-948.991449978464
 21
-11.7058284049922
 31
0.0
  0
LINE
  5
   72D
  8
0
  6
CONTINUOUS
 62
     7
 10
-948.991450958314
 20
-4.00006530004089
 30
0.0
 11
-948.991466217102
 21
23.3970446853107
 31
0.0
  0
LINE
  5
   72E
  8
0
  6
CONTINUOUS
 62
     7
 10
-913.491470336914
 20
-5.10295104980469
 30
0.0
 11
-947.491487121583
 21
-5.10295104980469
 31
0.0
  0
LINE
  5
   72F
  8
0
  6
CONTINUOUS
 62
     7
 10
-913.491470336914
 20
-10.6029510498047
 30
0.0
 11
-947.491487121583
 21
-10.6029510498047
 31
0.0
  0
LINE
  5
   730
  8
0
  6
CONTINUOUS
 62
     7
 10
-944.875440838789
 20
-5.10294596519332
 30
0.0
 11
-948.991453235794
 21
-4.0000602521249
 31
0.0
  0
LINE
  5
   731
  8
0
  6
CONTINUOUS
 62
     7
 10
-948.991450928803
 20
-11.7058326798411
 30
0.0
 11
-944.875438437025
 21
-10.6029505154449
 31
0.0
  0
LINE
  5
   732
  8
0
  6
CONTINUOUS
 62
     7
 10
-912.991477966309
 20
-3.60295104980469
 30
0.0
 11
-916.991477966309
 21
-3.60295104980469
 31
0.0
  0
LINE
  5
   733
  8
0
  6
CONTINUOUS
 62
     7
 10
-916.991477966309
 20
-3.60295104980469
 30
0.0
 11
-916.991477966309
 21
17.6470413208008
 31
0.0
  0
LINE
  5
   734
  8
0
  6
CONTINUOUS
 62
     7
 10
-948.491455078125
 20
-7.60295104980469
 30
0.0
 11
-948.491455078125
 21
-4.13404083251953
 31
0.0
  0
LINE
  5
   735
  8
0
  6
CONTINUOUS
 62
     7
 10
-948.491462120625
 20
-11.5718562964104
 30
0.0
 11
-948.491454491237
 21
-11.1029460791252
 31
0.0
  0
LINE
  5
   736
  8
0
  6
CONTINUOUS
 62
     2
 10
-948.991455078125
 20
-3.60295104980469
 30
0.0
 11
-949.991455078125
 21
-3.60295104980469
 31
0.0
  0
LINE
  5
   737
  8
0
  6
CONTINUOUS
 62
     2
 10
-948.991455078125
 20
-0.852951049804688
 30
0.0
 11
-949.991455078125
 21
-0.852951049804688
 31
0.0
  0
LINE
  5
   738
  8
0
  6
CONTINUOUS
 62
     7
 10
-912.991488771307
 20
-11.102931536708
 30
0.0
 11
-913.491481125615
 21
-10.6029391824004
 31
0.0
  0
LINE
  5
   739
  8
0
  6
CONTINUOUS
 62
     7
 10
-913.491476655176
 20
-5.10295034882635
 30
0.0
 11
-912.991476672291
 21
-4.60295036594066
 31
0.0
  0
LINE
  5
   73A
  8
0
  6
CONTINUOUS
 62
     7
 10
-914.741477966309
 20
17.6470413208008
 30
0.0
 11
-914.741477966309
 21
18.6470413208008
 31
0.0
  0
LINE
  5
   73B
  8
0
  6
CONTINUOUS
 62
     2
 10
-947.991455078125
 20
-20.852935791015
 30
0.0
 11
-949.991455078125
 21
-20.852935791015
 31
0.0
  0
LINE
  5
   73C
  8
0
  6
CONTINUOUS
 62
     7
 10
-948.991470336914
 20
-13.8529510498047
 30
0.0
 11
-948.991470336914
 21
-11.8529510498047
 31
0.0
  0
LINE
  5
   73D
  8
0
  6
CONTINUOUS
 62
     7
 10
-912.991477966309
 20
-18.3529357910156
 30
0.0
 11
-917.991470336914
 21
-18.3529357910156
 31
0.0
  0
LINE
  5
   73E
  8
0
  6
CONTINUOUS
 62
     7
 10
-917.991470336914
 20
-20.8529357910156
 30
0.0
 11
-917.991470336914
 21
-18.3529357910156
 31
0.0
  0
LINE
  5
   73F
  8
0
  6
CONTINUOUS
 62
     7
 10
-948.991470336914
 20
-19.6029263305843
 30
0.0
 11
-948.991470336914
 21
-13.8529510498047
 31
0.0
  0
LINE
  5
   740
  8
0
  6
CONTINUOUS
 62
     2
 10
-948.991470336914
 20
50.6470184326172
 30
0.0
 11
-949.241455078125
 21
50.6470184326172
 31
0.0
  0
LINE
  5
   741
  8
0
  6
CONTINUOUS
 62
     7
 10
-948.99146270752
 20
15.3970489501953
 30
0.0
 11
-949.241455078125
 21
15.3970489501953
 31
0.0
  0
LINE
  5
   742
  8
0
  6
CONTINUOUS
 62
     7
 10
-948.991455078125
 20
-0.602949142456055
 30
0.0
 11
-949.241455078125
 21
-0.602949142456055
 31
0.0
  0
LINE
  5
   743
  8
0
  6
CONTINUOUS
 62
     7
 10
-948.491455078125
 20
-4.35295057296753
 30
0.0
 11
-949.241455078125
 21
-4.35295057296753
 31
0.0
  0
LINE
  5
   744
  8
0
  6
CONTINUOUS
 62
     7
 10
-948.991470336914
 20
-12.3529434204102
 30
0.0
 11
-949.241455078125
 21
-12.3529434204102
 31
0.0
  0
LINE
  5
   745
  8
0
  6
CONTINUOUS
 62
     2
 10
-949.241455078125
 20
-19.1529310155594
 30
0.0
 11
-949.241455078125
 21
-3.60295867919922
 31
0.0
  0
LINE
  5
   746
  8
0
  6
CONTINUOUS
 62
     2
 10
-949.241455078125
 20
-0.852958679199219
 30
0.0
 11
-949.241455078125
 21
50.6470108032227
 31
0.0
  0
LINE
  5
   747
  8
0
  6
CONTINUOUS
 62
     7
 10
-948.491455078125
 20
41.1470413208008
 30
0.0
 11
-948.491455078125
 21
48.6470184326172
 31
0.0
  0
LINE
  5
   748
  8
0
  6
CONTINUOUS
 62
     7
 10
-948.491455078125
 20
23.6470642089844
 30
0.0
 11
-948.491455078125
 21
31.1470565795898
 31
0.0
  0
LINE
  5
   749
  8
0
  6
CONTINUOUS
 62
     7
 10
-948.491455078125
 20
-11.102912902832
 30
0.0
 11
-948.491455078125
 21
-7.60291290283203
 31
0.0
  0
LINE
  5
   74A
  8
0
  6
CONTINUOUS
 62
     2
 10
-949.041458982641
 20
-19.3529271110433
 30
0.0
 11
-949.241455928578
 21
-19.1529301651064
 31
0.0
  0
LINE
  5
   74B
  8
0
  6
CONTINUOUS
 62
     2
 10
-948.991455078125
 20
58.6470184326172
 30
0.0
 11
-949.991455078125
 21
58.6470184326172
 31
0.0
  0
LINE
  5
   74C
  8
0
  6
CONTINUOUS
 62
     2
 10
-948.991455078125
 20
64.1470184326172
 30
0.0
 11
-949.991455078125
 21
64.1470184326172
 31
0.0
  0
LINE
  5
   74D
  8
0
  6
CONTINUOUS
 62
     2
 10
-948.991455078125
 20
62.8028411865234
 30
0.0
 11
-949.991455078125
 21
62.8028411865234
 31
0.0
  0
LINE
  5
   74E
  8
0
  6
CONTINUOUS
 62
     2
 10
-948.991455078125
 20
60.9543304443359
 30
0.0
 11
-949.991455078125
 21
60.9543304443359
 31
0.0
  0
LINE
  5
   74F
  8
0
  6
CONTINUOUS
 62
     7
 10
-914.491485595704
 20
24.897016343975
 30
0.0
 11
-914.491485595704
 21
52.1470392321586
 31
0.0
  0
LINE
  5
   750
  8
0
  6
CONTINUOUS
 62
     7
 10
-900.491508483893
 20
60.1470329793419
 30
0.0
 11
-900.491508483893
 21
72.1470329793419
 31
0.0
  0
LINE
  5
   751
  8
0
  6
CONTINUOUS
 62
     7
 10
-900.491470336914
 20
60.1470355224433
 30
0.0
 11
-900.741470336914
 21
60.1470355224433
 31
0.0
  0
LINE
  5
   752
  8
0
  6
CONTINUOUS
 62
     7
 10
-900.741470336914
 20
59.8970355224433
 30
0.0
 11
-900.741470336914
 21
60.1470355224433
 31
0.0
  0
LINE
  5
   753
  8
0
  6
CONTINUOUS
 62
     7
 10
-912.991470336914
 20
59.3970278930487
 30
0.0
 11
-912.991470336914
 21
59.8970355224433
 31
0.0
  0
LINE
  5
   754
  8
0
  6
CONTINUOUS
 62
     7
 10
-912.991477153223
 20
70.747025826622
 30
0.0
 11
-912.991469523828
 21
72.1470426107182
 31
0.0
  0
LINE
  5
   755
  8
0
  6
CONTINUOUS
 62
     7
 10
-900.491466522223
 20
72.1470507812242
 30
0.0
 11
-912.991466522223
 21
72.1470507812242
 31
0.0
  0
LINE
  5
   756
  8
0
  6
CONTINUOUS
 62
     7
 10
-901.741470336914
 20
59.8970355224433
 30
0.0
 11
-901.891471862793
 21
59.8970355224433
 31
0.0
  0
LINE
  5
   757
  8
0
  6
CONTINUOUS
 62
     7
 10
-912.991470336914
 20
59.3970431518378
 30
0.0
 11
-914.491470336914
 21
59.3970431518378
 31
0.0
  0
LINE
  5
   758
  8
0
  6
CONTINUOUS
 62
     7
 10
-914.491470336914
 20
52.1470431518378
 30
0.0
 11
-914.491470336914
 21
59.3970431518378
 31
0.0
  0
LINE
  5
   759
  8
0
  6
CONTINUOUS
 62
     7
 10
-912.991493225098
 20
-17.8529492187677
 30
0.0
 11
-912.991493225098
 21
-14.2146435547052
 31
0.0
  0
LINE
  5
   75A
  8
0
  6
CONTINUOUS
 62
     7
 10
-914.491477966309
 20
18.8970355224433
 30
0.0
 11
-914.491477966309
 21
24.8970202636542
 31
0.0
  0
LINE
  5
   75B
  8
0
  6
CONTINUOUS
 62
     7
 10
-914.491477966309
 20
17.6470202636542
 30
0.0
 11
-914.991477966309
 21
17.6470202636542
 31
0.0
  0
LINE
  5
   75C
  8
0
  6
CONTINUOUS
 62
     7
 10
-901.891487499601
 20
-19.352933959968
 30
0.0
 11
-912.991493603116
 21
-19.352933959968
 31
0.0
  0
LINE
  5
   75D
  8
0
  6
CONTINUOUS
 62
     7
 10
-912.991493225098
 20
-19.3529492187677
 30
0.0
 11
-912.991493225098
 21
-17.8529492187677
 31
0.0
  0
LINE
  5
   75E
  8
0
  6
CONTINUOUS
 62
     7
 10
-912.991485595703
 20
-14.2146435547052
 30
0.0
 11
-912.991485595703
 21
-10.7279446136259
 31
0.0
  0
LINE
  5
   75F
  8
0
  6
CONTINUOUS
 62
     7
 10
-901.741493225098
 20
-20.8529568481622
 30
0.0
 11
-901.741493225098
 21
-19.3529568481622
 31
0.0
  0
LINE
  5
   760
  8
0
  6
CONTINUOUS
 62
     7
 10
-901.741493225098
 20
-19.3529568481622
 30
0.0
 11
-901.89148709178
 21
-19.3529568481622
 31
0.0
  0
LINE
  5
   761
  8
0
  6
CONTINUOUS
 62
     7
 10
-914.991477966309
 20
17.6470202636542
 30
0.0
 11
-916.991477966309
 21
17.6470202636542
 31
0.0
  0
LINE
  5
   762
  8
0
  6
CONTINUOUS
 62
     7
 10
-914.491477966309
 20
17.6470202636542
 30
0.0
 11
-914.491477966309
 21
18.8970355224433
 31
0.0
  0
LINE
  5
   763
  8
0
  6
CONTINUOUS
 62
     7
 10
-901.891489200759
 20
-10.72793395997
 30
0.0
 11
-912.99148767488
 21
-10.72793395997
 31
0.0
  0
LINE
  5
   764
  8
0
  6
CONTINUOUS
 62
     7
 10
-901.89149287799
 20
-4.97793395997136
 30
0.0
 11
-912.991491352111
 21
-4.97793395997136
 31
0.0
  0
LINE
  5
   765
  8
0
  6
CONTINUOUS
 62
     7
 10
-912.341972872042
 20
-17.4779406604381
 30
0.0
 11
-912.241493761808
 21
-17.1029406656152
 31
0.0
  0
LINE
  5
   766
  8
0
  6
CONTINUOUS
 62
     7
 10
-912.616488554157
 20
-17.7524651931677
 30
0.0
 11
-912.341975327657
 21
-17.4779443304485
 31
0.0
  0
LINE
  5
   767
  8
0
  6
CONTINUOUS
 62
     7
 10
-912.991501867796
 20
-17.8529375009277
 30
0.0
 11
-912.616494253523
 21
-17.7524583830463
 31
0.0
  0
LINE
  5
   768
  8
0
  6
CONTINUOUS
 62
     7
 10
-912.616490075639
 20
-11.9534272565207
 30
0.0
 11
-912.99149007289
 21
-11.8529405099934
 31
0.0
  0
LINE
  5
   769
  8
0
  6
CONTINUOUS
 62
     7
 10
-912.341977485298
 20
-12.2279446852297
 30
0.0
 11
-912.616490715618
 21
-11.9534314549097
 31
0.0
  0
LINE
  5
   76A
  8
0
  6
CONTINUOUS
 62
     7
 10
-912.241498951729
 20
-12.6029439900635
 30
0.0
 11
-912.341985698257
 21
-12.2279439928132
 31
0.0
  0
LINE
  5
   76B
  8
0
  6
CONTINUOUS
 62
     7
 10
-912.241497463633
 20
-17.1029462494024
 30
0.0
 11
-912.241489834239
 21
-12.6029462494024
 31
0.0
  0
LINE
  5
   76C
  8
0
  6
CONTINUOUS
 62
     7
 10
-901.891487121583
 20
-19.3529568481622
 30
0.0
 11
-901.891487121583
 21
59.8970292660506
 31
0.0
  0
LINE
  5
   76D
  8
0
  6
CONTINUOUS
 62
     7
 10
-901.891464233399
 20
70.7470416259589
 30
0.0
 11
-924.777196643766
 21
70.7470416259589
 31
0.0
  0
LINE
  5
   76E
  8
0
  6
CONTINUOUS
 62
     7
 10
-901.891517639167
 20
59.8970320769602
 30
0.0
 11
-901.891517639167
 21
70.7470381804759
 31
0.0
  0
LINE
  5
   76F
  8
0
  6
CONTINUOUS
 62
     7
 10
-912.991470336914
 20
59.8970431518378
 30
0.0
 11
-912.991470336914
 21
70.7470416259589
 31
0.0
  0
LINE
  5
   770
  8
0
  6
CONTINUOUS
 62
     7
 10
-893.74146270752
 20
-16.7279263305841
 30
0.0
 11
-893.74146270752
 21
-7.22795104980469
 31
0.0
  0
LINE
  5
   771
  8
0
  6
CONTINUOUS
 62
     7
 10
-893.74146270752
 20
34.6470584106269
 30
0.0
 11
-893.74146270752
 21
34.7720584106269
 31
0.0
  0
LINE
  5
   772
  8
0
  6
CONTINUOUS
 62
     7
 10
-896.49146270752
 20
35.7720584106269
 30
0.0
 11
-898.24146270752
 21
35.7720584106269
 31
0.0
  0
LINE
  5
   773
  8
0
  6
CONTINUOUS
 62
     7
 10
-896.49146270752
 20
-16.7279263305841
 30
0.0
 11
-898.24146270752
 21
-16.7279263305841
 31
0.0
  0
LINE
  5
   774
  8
0
  6
CONTINUOUS
 62
     7
 10
-901.74146270752
 20
-24.8529263305841
 30
0.0
 11
-901.74146270752
 21
-19.3529568481622
 31
0.0
  0
LINE
  5
   775
  8
0
  6
CONTINUOUS
 62
     7
 10
-899.24146270752
 20
-24.8529263305841
 30
0.0
 11
-899.24146270752
 21
-16.7279263305841
 31
0.0
  0
LINE
  5
   776
  8
0
  6
CONTINUOUS
 62
     7
 10
-899.24146270752
 20
35.7720584106269
 30
0.0
 11
-899.24146270752
 21
59.8970584106269
 31
0.0
  0
LINE
  5
   777
  8
0
  6
CONTINUOUS
 62
     7
 10
-899.24146270752
 20
59.8970584106269
 30
0.0
 11
-901.74146270752
 21
59.8970584106269
 31
0.0
  0
LINE
  5
   778
  8
0
  6
CONTINUOUS
 62
     7
 10
-899.24146270752
 20
-24.8529263305841
 30
0.0
 11
-901.74146270752
 21
-24.8529263305841
 31
0.0
  0
LINE
  5
   779
  8
0
  6
CONTINUOUS
 62
     7
 10
-898.24146270752
 20
-16.7279263305841
 30
0.0
 11
-898.24146270752
 21
35.7720584106269
 31
0.0
  0
LINE
  5
   77A
  8
0
  6
CONTINUOUS
 62
     7
 10
-898.24146270752
 20
-16.7279263305841
 30
0.0
 11
-899.24146270752
 21
-16.7279263305841
 31
0.0
  0
LINE
  5
   77B
  8
0
  6
CONTINUOUS
 62
     7
 10
-898.24146270752
 20
35.7720584106269
 30
0.0
 11
-899.24146270752
 21
35.7720584106269
 31
0.0
  0
LINE
  5
   77C
  8
0
  6
CONTINUOUS
 62
     7
 10
-901.891498701697
 20
-4.70296452595354
 30
0.0
 11
-901.741497182774
 21
-4.68984196896614
 31
0.0
  0
LINE
  5
   77D
  8
0
  6
CONTINUOUS
 62
     7
 10
-901.741471396738
 20
-11.0160772415089
 30
0.0
 11
-901.891472919856
 21
-11.0029470551026
 31
0.0
  0
LINE
  5
   77E
  8
0
  6
CONTINUOUS
 62
     7
 10
-912.991485595703
 20
-4.97794461362455
 30
0.0
 11
-912.991485595703
 21
-3.60296447755672
 31
0.0
  0
LINE
  5
   77F
  8
0
  6
CONTINUOUS
 62
   218
 10
-901.891464710236
 20
-53.452926712054
 30
0.0
 11
-925.520798436091
 21
-53.452926712054
 31
0.0
  0
LINE
  5
   780
  8
0
  6
CONTINUOUS
 62
     2
 10
-947.991455078125
 20
-19.6029263305843
 30
0.0
 11
-949.991455078125
 21
-19.6029263305843
 31
0.0
  0
LINE
  5
   781
  8
0
  6
CONTINUOUS
 62
     7
 10
-901.891456604004
 20
-19.6029263305843
 30
0.0
 11
-910.49146270752
 21
-19.6029263305843
 31
0.0
  0
LINE
  5
   782
  8
0
  6
CONTINUOUS
 62
   218
 10
-900.491455078125
 20
-54.8529263305843
 30
0.0
 11
-900.491455078125
 21
-42.8529339599788
 31
0.0
  0
LINE
  5
   783
  8
0
  6
CONTINUOUS
 62
     2
 10
-947.991455078125
 20
-20.8529263305843
 30
0.0
 11
-947.991455078125
 21
-19.6029263305843
 31
0.0
  0
LINE
  5
   784
  8
0
  6
CONTINUOUS
 62
   218
 10
-901.89146070502
 20
-40.8529339604266
 30
0.0
 11
-901.741462707557
 21
-40.8529321998248
 31
0.0
  0
LINE
  5
   785
  8
0
  6
CONTINUOUS
 62
   218
 10
-900.491455078125
 20
-42.8529339599788
 30
0.0
 11
-901.891456604004
 21
-42.8529339599788
 31
0.0
  0
LINE
  5
   786
  8
0
  6
CONTINUOUS
 62
   218
 10
-901.891456604004
 20
-53.4529248047054
 30
0.0
 11
-901.891456604004
 21
-40.8529263305843
 31
0.0
  0
LINE
  5
   787
  8
0
  6
CONTINUOUS
 62
   218
 10
-901.891456604004
 20
-40.8529263305843
 30
0.0
 11
-901.891456604004
 21
-19.6029263305843
 31
0.0
  0
LINE
  5
   788
  8
0
  6
CONTINUOUS
 62
     7
 10
-901.74146270752
 20
-25.3529263305843
 30
0.0
 11
-901.891456604004
 21
-25.3529263305843
 31
0.0
  0
LINE
  5
   789
  8
0
  6
CONTINUOUS
 62
   218
 10
-949.991455077962
 20
-37.8529339594841
 30
0.0
 11
-948.991455554822
 21
-37.8529263300895
 31
0.0
  0
LINE
  5
   78A
  8
0
  6
CONTINUOUS
 62
   218
 10
-948.991455554962
 20
-52.6029842594439
 30
0.0
 11
-948.991455554962
 21
-37.8529339599786
 31
0.0
  0
LINE
  5
   78B
  8
0
  6
CONTINUOUS
 62
   218
 10
-948.991455078125
 20
-43.2279339599788
 30
0.0
 11
-949.991455078125
 21
-43.2279339599788
 31
0.0
  0
LINE
  5
   78C
  8
0
  6
CONTINUOUS
 62
     7
 10
-912.991468428489
 20
-19.602926328329
 30
0.0
 11
-912.991460799094
 21
-18.6029263283062
 31
0.0
  0
LINE
  5
   78D
  8
0
  6
CONTINUOUS
 62
     7
 10
-912.991455078125
 20
-18.6029263305843
 30
0.0
 11
-917.991455078125
 21
-18.6029263305843
 31
0.0
  0
LINE
  5
   78E
  8
0
  6
CONTINUOUS
 62
     7
 10
-910.49146270752
 20
-19.6029263305843
 30
0.0
 11
-912.99146270752
 21
-19.6029263305843
 31
0.0
  0
LINE
  5
   78F
  8
0
  6
CONTINUOUS
 62
   218
 10
-948.991455078125
 20
-47.5867296028316
 30
0.0
 11
-949.991455078125
 21
-47.5867296028316
 31
0.0
  0
LINE
  5
   790
  8
0
  6
CONTINUOUS
 62
   218
 10
-948.991455078125
 20
-46.3602352905452
 30
0.0
 11
-949.991455078125
 21
-46.3602352905452
 31
0.0
  0
LINE
  5
   791
  8
0
  6
CONTINUOUS
 62
   218
 10
-948.991455078125
 20
-43.2918225097835
 30
0.0
 11
-949.991455078125
 21
-43.2918225097835
 31
0.0
  0
LINE
  5
   792
  8
0
  6
CONTINUOUS
 62
     7
 10
-899.24146270752
 20
-25.1029263305841
 30
0.0
 11
-901.74146270752
 21
-25.1029263305841
 31
0.0
  0
LINE
  5
   793
  8
0
  6
CONTINUOUS
 62
     7
 10
-899.24146270752
 20
-42.6029263305841
 30
0.0
 11
-901.74146270752
 21
-42.6029263305841
 31
0.0
  0
LINE
  5
   794
  8
0
  6
CONTINUOUS
 62
     7
 10
-899.24146270752
 20
-42.6029263305841
 30
0.0
 11
-899.24146270752
 21
-25.1029263305841
 31
0.0
  0
LINE
  5
   795
  8
0
  6
CONTINUOUS
 62
     7
 10
-900.24146270752
 20
-42.6029263305841
 30
0.0
 11
-900.24146270752
 21
-25.1029263305841
 31
0.0
  0
LINE
  5
   796
  8
0
  6
CONTINUOUS
 62
     7
 10
-901.74146270752
 20
-42.6029263305841
 30
0.0
 11
-901.74146270752
 21
-25.1029263305841
 31
0.0
  0
ARC
  5
   797
  8
0
  6
CONTINUOUS
 62
     7
 10
-883.403936322263
 20
-1.49986706311553
 30
0.0
 40
0.499999897877905
 50
348.623573369035
 51
436.688788706936
  0
ARC
  5
   798
  8
0
  6
CONTINUOUS
 62
     7
 10
-884.002308522182
 20
-4.47377604711438
 30
0.0
 40
0.50000037262337
 50
260.593992196011
 51
348.623573369035
  0
LINE
  5
   799
  8
0
  6
DASHDOT
 62
     7
 10
-876.003643996489
 20
-4.55419770101279
 30
0.0
 11
-901.061987230943
 21
0.487722466885458
 31
0.0
  0
LINE
  5
   79A
  8
0
  6
CONTINUOUS
 62
     7
 10
-883.288816349917
 20
-1.01330059341684
 30
0.0
 11
-893.74146270752
 21
1.459759994555
 31
0.0
  0
LINE
  5
   79B
  8
0
  6
CONTINUOUS
 62
     7
 10
-883.512132077301
 20
-4.57240309839815
 30
0.0
 11
-882.913760041676
 21
-1.59849408134231
 31
0.0
  0
LINE
  5
   79C
  8
0
  6
CONTINUOUS
 62
     7
 10
-884.084023260775
 20
-4.96705376998578
 30
0.0
 11
-893.74146270752
 21
-3.36723463508449
 31
0.0
  0
LINE
  5
   79D
  8
0
  6
CONTINUOUS
 62
     7
 10
-947.491487121583
 20
-10.6029510498047
 30
0.0
 11
-947.491487121583
 21
-5.10295104980469
 31
0.0
  0
LINE
  5
   79E
  8
0
  6
CONTINUOUS
 62
     7
 10
-937.491466746678
 20
68.1470413208008
 30
0.0
 11
-939.991466746678
 21
68.1470413208008
 31
0.0
  0
LINE
  5
   79F
  8
0
  6
DASHDOT
 62
     7
 10
-929.639496260202
 20
63.1470669010455
 30
0.0
 11
-943.70613827764
 21
63.1470669010455
 31
0.0
  0
LINE
  5
   7A0
  8
0
  6
CONTINUOUS
 62
     7
 10
-932.411536713005
 20
52.9014303714159
 30
0.0
 11
-930.896288224178
 21
56.2447528435373
 31
0.0
  0
LINE
  5
   7A1
  8
0
  6
CONTINUOUS
 62
     7
 10
-937.491467700352
 20
52.9014303714159
 30
0.0
 11
-937.491467700352
 21
68.1470413208008
 31
0.0
  0
LINE
  5
   7A2
  8
0
  6
CONTINUOUS
 62
     7
 10
-939.991466746678
 20
52.9014303714159
 30
0.0
 11
-939.991466746678
 21
60.6470669010455
 31
0.0
  0
LINE
  5
   7A3
  8
0
  6
CONTINUOUS
 62
     2
 10
-948.991458197582
 20
62.8028411865234
 30
0.0
 11
-948.991451487887
 21
72.1470407822612
 31
0.0
  0
LINE
  5
   7A4
  8
0
  6
CONTINUOUS
 62
     7
 10
-930.714331284993
 20
57.1470669010455
 30
0.0
 11
-937.491467700352
 21
57.1470669010455
 31
0.0
  0
INSERT
  5
   7A5
  8
0
  6
CONTINUOUS
 62
     7
  2
*HATCH1101
 10
-949.991455078125
 20
-45.4714965820313
 30
0.0
 41
0.5
 42
0.5
 50
89.9999999480344
 43
0.5
  0
LINE
  5
   7A6
  8
0
  6
CONTINUOUS
 62
     7
 10
-931.620764033531
 20
55.1470669010455
 30
0.0
 11
-937.491467700352
 21
55.1470669010455
 31
0.0
  0
INSERT
  5
   7A7
  8
0
  6
CONTINUOUS
 62
     7
  2
*HATCH1102
 10
-949.991455078125
 20
-45.4714965820313
 30
0.0
 41
0.5
 42
0.5
 50
89.9999999480344
 43
0.5
  0
LINE
  5
   7A8
  8
0
  6
CONTINUOUS
 62
     2
 10
-912.991485595703
 20
72.1470413208008
 30
0.0
 11
-927.241466746678
 21
72.1470413208008
 31
0.0
  0
LINE
  5
   7A9
  8
0
  6
DASHDOT
 62
     7
 10
-949.991455078125
 20
-52.6029842594439
 30
0.0
 11
-949.991455078125
 21
80.7031464722576
 31
0.0
  0
LINE
  5
   7AA
  8
0
  6
DASHDOT
 62
     7
 10
-951.491455078125
 20
-52.6029842594439
 30
0.0
 11
-951.491455078125
 21
80.7031464722576
 31
0.0
  0
LINE
  5
   7AB
  8
0
  6
CONTINUOUS
 62
     7
 10
-948.426594452559
 20
80.7031464722576
 30
0.0
 11
-953.495490324586
 21
80.7031464722576
 31
0.0
  0
ARC
  5
   7AC
  8
0
  6
CONTINUOUS
 62
     7
 10
-920.49146270752
 20
4.39707366941594
 30
0.0
 40
38.0220413050115
 50
333.082565820193
 51
379.93594827737
  0
LINE
  5
   7AD
  8
0
  6
CONTINUOUS
 62
     7
 10
-882.469421402508
 20
4.39707366941592
 30
0.0
 11
-882.469421402508
 21
26.0717131848482
 31
0.0
  0
LINE
  5
   7AE
  8
0
  6
CONTINUOUS
 62
     7
 10
-932.411536713005
 20
52.9014303714159
 30
0.0
 11
-951.195539959239
 21
52.9014303714159
 31
0.0
  0
INSERT
  5
   7AF
  8
0
  6
CONTINUOUS
 62
     7
  2
*HATCH1103
 10
-949.991455078125
 20
-45.4714965820313
 30
0.0
 41
0.5
 42
0.5
 50
89.9999999480344
 43
0.5
  0
LINE
  5
   7B0
  8
0
  6
CONTINUOUS
 62
     7
 10
-939.991466746678
 20
54.3970413208008
 30
0.0
 11
-942.491466746678
 21
54.3970413208008
 31
0.0
  0
LINE
  5
   7B1
  8
0
  6
CONTINUOUS
 62
     7
 10
-943.987077696063
 20
52.9014303714158
 30
0.0
 11
-942.491466746678
 21
54.3970413208007
 31
0.0
  0
INSERT
  5
   7B2
  8
0
  6
CONTINUOUS
 62
     7
  2
*HATCH1104
 10
-949.991455078125
 20
-45.4714965820313
 30
0.0
 41
0.5
 42
0.5
 50
89.9999999480344
 43
0.5
  0
LINE
  5
   7B3
  8
0
  6
DASHDOT
 62
     7
 10
-929.639496260202
 20
-45.8529842594439
 30
0.0
 11
-943.70613827764
 21
-45.8529842594439
 31
0.0
  0
LINE
  5
   7B4
  8
0
  6
CONTINUOUS
 62
     7
 10
-937.491466746678
 20
-50.8529586791992
 30
0.0
 11
-939.991466746678
 21
-50.8529586791992
 31
0.0
  0
LINE
  5
   7B5
  8
0
  6
CONTINUOUS
 62
     7
 10
-939.991466746678
 20
-50.8529586791992
 30
0.0
 11
-939.991466746678
 21
-35.6073477298144
 31
0.0
  0
LINE
  5
   7B6
  8
0
  6
CONTINUOUS
 62
     7
 10
-937.491467700352
 20
-43.3529842594439
 30
0.0
 11
-937.491467700352
 21
-35.6073477298144
 31
0.0
  0
LINE
  5
   7B7
  8
0
  6
CONTINUOUS
 62
     7
 10
-925.670008962698
 20
-35.6073477298144
 30
0.0
 11
-954.545739495449
 21
-35.6073477298144
 31
0.0
  0
LINE
  5
   7B8
  8
0
  6
CONTINUOUS
 62
   218
 10
-900.491455554962
 20
-54.8529263305841
 30
0.0
 11
-927.491467700352
 21
-54.8529263305841
 31
0.0
  0
INSERT
  5
   7B9
  8
0
  6
CONTINUOUS
 62
     7
  2
*HATCH1105
 10
-949.991455078125
 20
-45.4714965820313
 30
0.0
 41
0.5
 42
0.5
 50
89.9999999480344
 43
0.5
  0
INSERT
  5
   7BA
  8
0
  6
CONTINUOUS
 62
     7
  2
*HATCH1106
 10
-949.991455078125
 20
-45.4714965820313
 30
0.0
 41
0.5
 42
0.5
 50
89.9999999480344
 43
0.5
  0
LINE
  5
   7BB
  8
0
  6
CONTINUOUS
 62
     7
 10
-939.991466746678
 20
-38.3529842594439
 30
0.0
 11
-948.991455554962
 21
-38.3529842594439
 31
0.0
  0
LINE
  5
   7BC
  8
0
  6
CONTINUOUS
 62
     7
 10
-939.991466746678
 20
-36.3529842594439
 30
0.0
 11
-949.991455078125
 21
-36.3529842594439
 31
0.0
  0
LINE
  5
   7BD
  8
0
  6
CONTINUOUS
 62
     7
 10
-929.290072247997
 20
-39.8529842594439
 30
0.0
 11
-937.491467700352
 21
-39.8529842594439
 31
0.0
  0
INSERT
  5
   7BE
  8
0
  6
CONTINUOUS
 62
     7
  2
*HATCH1107
 10
-949.991455078125
 20
-45.4714965820313
 30
0.0
 41
0.5
 42
0.5
 50
89.9999999480344
 43
0.5
  0
LINE
  5
   7BF
  8
0
  6
CONTINUOUS
 62
     7
 10
-929.839443881749
 20
-37.8529842594439
 30
0.0
 11
-937.491467700352
 21
-37.8529842594439
 31
0.0
  0
INSERT
  5
   7C0
  8
0
  6
CONTINUOUS
 62
     7
  2
*HATCH1108
 10
-949.991455078125
 20
-45.4714965820313
 30
0.0
 41
0.5
 42
0.5
 50
89.9999999480344
 43
0.5
  0
LINE
  5
   7C1
  8
0
  6
CONTINUOUS
 62
     7
 10
-917.991470336914
 20
-20.852935791015
 30
0.0
 11
-947.991455078125
 21
-20.852935791015
 31
0.0
  0
LINE
  5
   7C2
  8
0
  6
CONTINUOUS
 62
     7
 10
-893.74146270752
 20
16.5220489501953
 30
0.0
 11
-893.74146270752
 21
35.7720584106269
 31
0.0
  0
LINE
  5
   7C3
  8
0
  6
CONTINUOUS
 62
     7
 10
-893.74146270752
 20
10.0220489501953
 30
0.0
 11
-893.74146270752
 21
16.0220489501953
 31
0.0
  0
LINE
  5
   7C4
  8
0
  6
CONTINUOUS
 62
     7
 10
-893.74146270752
 20
-0.22794540871574
 30
0.0
 11
-893.74146270752
 21
9.52204895019531
 31
0.0
  0
LINE
  5
   7C5
  8
0
  6
CONTINUOUS
 62
     7
 10
-893.74146270752
 20
-6.72795104980469
 30
0.0
 11
-893.74146270752
 21
-0.727945408715698
 31
0.0
  0
LINE
  5
   7C6
  8
0
  6
CONTINUOUS
 62
     1
 10
-896.49146270752
 20
-17.9811840057373
 30
0.0
 11
-896.49146270752
 21
-16.9811840057373
 31
0.0
  0
LINE
  5
   7C7
  8
0
  6
CONTINUOUS
 62
     1
 10
-895.49146270752
 20
-17.9811840057373
 30
0.0
 11
-896.49146270752
 21
-17.9811840057373
 31
0.0
  0
LINE
  5
   7C8
  8
0
  6
CONTINUOUS
 62
     1
 10
-896.49146270752
 20
-16.9811840057373
 30
0.0
 11
-896.49146270752
 21
37.0188140869141
 31
0.0
  0
LINE
  5
   7C9
  8
0
  6
CONTINUOUS
 62
     1
 10
-895.49146270752
 20
37.0188140869141
 30
0.0
 11
-896.49146270752
 21
37.0188140869141
 31
0.0
  0
LINE
  5
   7CA
  8
0
  6
CONTINUOUS
 62
     1
 10
-898.741462618113
 20
43.807487487793
 30
0.0
 11
-898.741462618113
 21
46.2301406860352
 31
0.0
  0
LINE
  5
   7CB
  8
0
  6
CONTINUOUS
 62
     1
 10
-898.741462618113
 20
-27.1925086975098
 30
0.0
 11
-898.741462618113
 21
-24.7698593139648
 31
0.0
  0
LINE
  5
   7CC
  8
0
  6
CONTINUOUS
 62
     1
 10
-895.49146270752
 20
-31.2311840057373
 30
0.0
 11
-895.49146270752
 21
50.2688159942627
 31
0.0
  0
LINE
  5
   7CD
  8
0
  6
CONTINUOUS
 62
     1
 10
-893.74146270752
 20
-31.2311840057373
 30
0.0
 11
-895.49146270752
 21
-31.2311840057373
 31
0.0
  0
LINE
  5
   7CE
  8
0
  6
CONTINUOUS
 62
     1
 10
-893.74146270752
 20
-31.2311859130859
 30
0.0
 11
-893.74146270752
 21
50.2688140869141
 31
0.0
  0
LINE
  5
   7CF
  8
0
  6
CONTINUOUS
 62
     1
 10
-893.74146270752
 20
50.2688140869141
 30
0.0
 11
-894.24146270752
 21
50.2688140869141
 31
0.0
  0
LINE
  5
   7D0
  8
0
  6
CONTINUOUS
 62
     1
 10
-894.74146270752
 20
50.2688140869141
 30
0.0
 11
-895.49146270752
 21
50.2688140869141
 31
0.0
  0
LINE
  5
   7D1
  8
0
  6
CONTINUOUS
 62
     1
 10
-895.49146270752
 20
43.5188140869141
 30
0.0
 11
-898.241462624963
 21
43.5188140869141
 31
0.0
  0
LINE
  5
   7D2
  8
0
  6
CONTINUOUS
 62
     1
 10
-895.49146270752
 20
46.5188140869141
 30
0.0
 11
-898.241462624963
 21
46.5188140869141
 31
0.0
  0
LINE
  5
   7D3
  8
0
  6
CONTINUOUS
 62
     1
 10
-898.241462624963
 20
43.5188140869141
 30
0.0
 11
-898.241462624963
 21
43.6329956054688
 31
0.0
  0
LINE
  5
   7D4
  8
0
  6
CONTINUOUS
 62
     1
 10
-898.241462227101
 20
43.5188129383833
 30
0.0
 11
-898.741462243565
 21
43.8074863428815
 31
0.0
  0
LINE
  5
   7D5
  8
0
  6
CONTINUOUS
 62
     1
 10
-898.241462624963
 20
43.5188140869141
 30
0.0
 11
-898.241462624963
 21
43.9581527709961
 31
0.0
  0
LINE
  5
   7D6
  8
0
  6
CONTINUOUS
 62
     1
 10
-898.241462624963
 20
43.9581527709961
 30
0.0
 11
-898.241462624963
 21
44.4447937011719
 31
0.0
  0
LINE
  5
   7D7
  8
0
  6
CONTINUOUS
 62
     1
 10
-898.241462624963
 20
44.4447937011719
 30
0.0
 11
-898.241462624963
 21
45.0188140869141
 31
0.0
  0
LINE
  5
   7D8
  8
0
  6
CONTINUOUS
 62
     1
 10
-898.241462624963
 20
45.0188140869141
 30
0.0
 11
-898.241462624963
 21
45.5928421020508
 31
0.0
  0
LINE
  5
   7D9
  8
0
  6
CONTINUOUS
 62
     1
 10
-898.241462624963
 20
45.5928421020508
 30
0.0
 11
-898.241462624963
 21
46.079475402832
 31
0.0
  0
LINE
  5
   7DA
  8
0
  6
CONTINUOUS
 62
     1
 10
-898.241462624963
 20
46.079475402832
 30
0.0
 11
-898.241462624963
 21
46.5188140869141
 31
0.0
  0
LINE
  5
   7DB
  8
0
  6
CONTINUOUS
 62
     1
 10
-898.241462624963
 20
46.4046325683594
 30
0.0
 11
-898.241462624963
 21
46.5188140869141
 31
0.0
  0
LINE
  5
   7DC
  8
0
  6
CONTINUOUS
 62
     1
 10
-898.741463052702
 20
46.2301394951661
 30
0.0
 11
-898.241463036238
 21
46.5188128996644
 31
0.0
  0
LINE
  5
   7DD
  8
0
  6
CONTINUOUS
 62
     1
 10
-895.49146270752
 20
-24.4811840057373
 30
0.0
 11
-898.241461622407
 21
-24.4811840057373
 31
0.0
  0
LINE
  5
   7DE
  8
0
  6
CONTINUOUS
 62
     1
 10
-895.49146270752
 20
-27.4811840057373
 30
0.0
 11
-898.241463464188
 21
-27.4811840057373
 31
0.0
  0
LINE
  5
   7DF
  8
0
  6
CONTINUOUS
 62
     1
 10
-898.741462879187
 20
-24.7698600140907
 30
0.0
 11
-898.241462862723
 21
-24.4811847218342
 31
0.0
  0
LINE
  5
   7E0
  8
0
  6
CONTINUOUS
 62
     1
 10
-898.241462608305
 20
-27.4811844998816
 30
0.0
 11
-898.241462608305
 21
-24.4811840057373
 31
0.0
  0
LINE
  5
   7E1
  8
0
  6
CONTINUOUS
 62
     1
 10
-898.241462401143
 20
-27.4811846194868
 30
0.0
 11
-898.741462417607
 21
-27.1925093272303
 31
0.0
  0
LINE
  5
   7E2
  8
0
  6
CONTINUOUS
 62
     1
 10
-949.991429229704
 20
-27.4811840057373
 30
0.0
 11
-949.991429229704
 21
-27.3670024871826
 31
0.0
  0
LINE
  5
   7E3
  8
0
  6
CONTINUOUS
 62
     1
 10
-894.24146270752
 20
50.2688140869141
 30
0.0
 11
-894.74146270752
 21
50.2688140869141
 31
0.0
  0
LINE
  5
   7E4
  8
0
  6
CONTINUOUS
 62
     7
 10
-896.49146270752
 20
37.018814086914
 30
0.0
 11
-896.49146270752
 21
43.5188140869141
 31
0.0
  0
LINE
  5
   7E5
  8
0
  6
CONTINUOUS
 62
     7
 10
-895.49146270752
 20
50.2688140869141
 30
0.0
 11
-895.49146270752
 21
84.5843335252463
 31
0.0
  0
LINE
  5
   7E6
  8
0
  6
CONTINUOUS
 62
     7
 10
-896.49146270752
 20
-67.9801180179089
 30
0.0
 11
-896.49146270752
 21
-27.4811840057373
 31
0.0
  0
LINE
  5
   7E7
  8
0
  6
CONTINUOUS
 62
     7
 10
-895.49146270752
 20
-67.5442205820115
 30
0.0
 11
-895.49146270752
 21
-31.2311840057373
 31
0.0
  0
LINE
  5
   7E8
  8
0
  6
CONTINUOUS
 62
     7
 10
-899.066077266781
 20
-69.102385902715
 30
0.0
 11
-892.439309244689
 21
-66.213794713598
 31
0.0
  0
LINE
  5
   7E9
  8
0
  6
CONTINUOUS
 62
     7
 10
-898.636371013785
 20
82.5646676404889
 30
0.0
 11
-892.906581348811
 21
86.2443490767109
 31
0.0
  0
LINE
  5
   7EA
  8
0
  6
CONTINUOUS
 62
     7
 10
-895.49146270752
 20
37.5188140869141
 30
0.0
 11
-896.49146270752
 21
37.5188140869141
 31
0.0
  0
LINE
  5
   7EB
  8
0
  6
CONTINUOUS
 62
     7
 10
-895.49146270752
 20
-18.4811840057373
 30
0.0
 11
-896.49146270752
 21
-18.4811840057373
 31
0.0
  0
LINE
  5
   7EC
  8
0
  6
CONTINUOUS
 62
     7
 10
-895.49146270752
 20
-24.2311840057373
 30
0.0
 11
-896.49146270752
 21
-24.2311840057373
 31
0.0
  0
LINE
  5
   7ED
  8
0
  6
CONTINUOUS
 62
     7
 10
-895.49146270752
 20
-27.7311840057373
 30
0.0
 11
-896.49146270752
 21
-27.7311840057373
 31
0.0
  0
LINE
  5
   7EE
  8
0
  6
CONTINUOUS
 62
     7
 10
-895.49146270752
 20
46.7688140869141
 30
0.0
 11
-896.49146270752
 21
46.7688140869141
 31
0.0
  0
LINE
  5
   7EF
  8
0
  6
CONTINUOUS
 62
     7
 10
-895.49146270752
 20
43.2688140869141
 30
0.0
 11
-896.49146270752
 21
43.2688140869141
 31
0.0
  0
LINE
  5
   7F0
  8
0
  6
CONTINUOUS
 62
     7
 10
-896.49146270752
 20
46.5188140869141
 30
0.0
 11
-896.49146270752
 21
83.9421316903839
 31
0.0
  0
LINE
  5
   7F1
  8
0
  6
CONTINUOUS
 62
     7
 10
-896.49146270752
 20
-24.4811840057373
 30
0.0
 11
-896.49146270752
 21
-17.9811840057373
 31
0.0
  0
INSERT
  5
   7F2
  8
0
  6
CONTINUOUS
 62
     7
  2
*HATCH1109
 10
-949.991455078125
 20
-45.4714965820313
 30
0.0
 41
0.5
 42
0.5
 50
89.9999999480344
 43
0.5
  0
INSERT
  5
   7F3
  8
0
  6
CONTINUOUS
 62
     7
  2
*HATCH1110
 10
-949.991455078125
 20
-45.4714965820313
 30
0.0
 41
0.5
 42
0.5
 50
89.9999999480344
 43
0.5
  0
INSERT
  5
   7F4
  8
0
  6
CONTINUOUS
 62
     7
  2
*HATCH1111
 10
-949.991455078125
 20
-45.4714965820313
 30
0.0
 41
0.5
 42
0.5
 50
89.9999999480344
 43
0.5
  0
INSERT
  5
   7F5
  8
0
  6
CONTINUOUS
 62
     7
  2
*HATCH1112
 10
-949.991455078125
 20
-45.4714965820313
 30
0.0
 41
0.5
 42
0.5
 50
89.9999999480344
 43
0.5
  0
LINE
  5
   7F6
  8
0
  6
DASHDOT
 62
     3
 10
-867.194067205462
 20
9.52205841062687
 30
0.0
 11
-983.932527332559
 21
9.52205841062687
 31
0.0
  0
LINE
  5
   7F7
  8
0
  6
DASHDOT
 62
     3
 10
-991.120856158119
 20
9.52205841062687
 30
0.0
 11
-999.171784442747
 21
9.52205841062687
 31
0.0
  0
INSERT
  5
   7F8
  8
255
  6
CONTINUOUS
 62
     7
  2
$1159486
 10
-953.991454124451
 20
-45.4714965820313
 30
0.0
 41
0.5
 42
0.5
 50
359.999999792138
 43
0.5
  0
LINE
  5
   7F9
  8
0
  6
CONTINUOUS
 62
     7
 10
-937.491467700352
 20
65.6470669010455
 30
0.0
 11
-939.991466746678
 21
65.6470669010455
 31
0.0
  0
LINE
  5
   7FA
  8
0
  6
CONTINUOUS
 62
     7
 10
-937.491467700352
 20
60.6470669010455
 30
0.0
 11
-939.991466746678
 21
60.6470669010455
 31
0.0
  0
LINE
  5
   7FB
  8
0
  6
CONTINUOUS
 62
     7
 10
-939.991466746678
 20
65.6470669010455
 30
0.0
 11
-939.991466746678
 21
68.1470413208008
 31
0.0
  0
LINE
  5
   7FC
  8
0
  6
CONTINUOUS
 62
     7
 10
-910.809001891492
 20
56.2447528435372
 30
0.0
 11
-930.896288224178
 21
56.2447528435372
 31
0.0
  0
LINE
  5
   7FD
  8
0
  6
CONTINUOUS
 62
     7
 10
-910.809001891492
 20
56.2447528435372
 30
0.0
 11
-905.12748972059
 21
75.5374674216706
 31
0.0
  0
LINE
  5
   7FE
  8
0
  6
DOT
 62
     2
 10
-927.241466746678
 20
72.1470413208008
 30
0.0
 11
-938.991466746678
 21
72.1470413208008
 31
0.0
  0
LINE
  5
   7FF
  8
0
  6
CONTINUOUS
 62
     7
 10
-937.491467700352
 20
-48.4029842594439
 30
0.0
 11
-939.991466746678
 21
-48.4029842594439
 31
0.0
  0
LINE
  5
   800
  8
0
  6
CONTINUOUS
 62
     7
 10
-937.491467700352
 20
-43.3029842594439
 30
0.0
 11
-939.991466746678
 21
-43.3029842594439
 31
0.0
  0
INSERT
  5
   801
  8
255
  6
CONTINUOUS
 62
    56
  2
MORSETTO
 10
-937.491467700352
 20
-45.8529842594439
 30
0.0
 41
0.5
 42
0.5
 50
359.999999792138
 43
0.5
  0
LINE
  5
   802
  8
0
  6
CONTINUOUS
 62
     7
 10
-925.493772341458
 20
-56.6852476301624
 30
0.0
 11
-925.670008962698
 21
-35.6073477298144
 31
0.0
  0
LINE
  5
   803
  8
0
  6
CONTINUOUS
 62
    56
 10
-937.491466746678
 20
-50.8529586791992
 30
0.0
 11
-937.491466746678
 21
-48.3529842594439
 31
0.0
  0
LINE
  5
   804
  8
0
  6
CONTINUOUS
 62
   218
 10
-927.491467700352
 20
-62.8529842594439
 30
0.0
 11
-927.491467700352
 21
-54.1029842594439
 31
0.0
  0
LINE
  5
   805
  8
0
  6
CONTINUOUS
 62
   218
 10
-927.491467700352
 20
-62.8529842594439
 30
0.0
 11
-940.991467700352
 21
-62.8529842594439
 31
0.0
  0
LINE
  5
   806
  8
0
  6
CONTINUOUS
 62
   218
 10
-927.491467700352
 20
-54.1029842594439
 30
0.0
 11
-940.991467700352
 21
-54.1029842594439
 31
0.0
  0
LINE
  5
   807
  8
0
  6
CONTINUOUS
 62
   218
 10
-940.991467700352
 20
-64.3529842594439
 30
0.0
 11
-956.241467700352
 21
-64.3529842594439
 31
0.0
  0
LINE
  5
   808
  8
0
  6
CONTINUOUS
 62
   218
 10
-940.991467700352
 20
-52.6029842594439
 30
0.0
 11
-956.241467700352
 21
-52.6029842594439
 31
0.0
  0
LINE
  5
   809
  8
0
  6
CONTINUOUS
 62
   218
 10
-940.991467700352
 20
-64.3529842594439
 30
0.0
 11
-940.991467700352
 21
-52.6029842594439
 31
0.0
  0
LINE
  5
   80A
  8
0
  6
DASHDOT
 62
   218
 10
-926.048955130437
 20
-58.4779842594439
 30
0.0
 11
-959.423177959342
 21
-58.4779842594439
 31
0.0
  0
LINE
  5
   80B
  8
0
  6
CONTINUOUS
 62
   218
 10
-927.491467700352
 20
-58.4779842594439
 30
0.0
 11
-940.991467700352
 21
-56.0975700198796
 31
0.0
  0
LINE
  5
   80C
  8
0
  6
CONTINUOUS
 62
   218
 10
-927.491467700352
 20
-59.2395542183582
 30
0.0
 11
-940.991467700352
 21
-56.8591399787939
 31
0.0
  0
LINE
  5
   80D
  8
0
  6
CONTINUOUS
 62
   218
 10
-927.491467700352
 20
-60.0011241772725
 30
0.0
 11
-940.991467700352
 21
-57.6207099377083
 31
0.0
  0
LINE
  5
   80E
  8
0
  6
CONTINUOUS
 62
   218
 10
-927.491467700352
 20
-60.7626941361868
 30
0.0
 11
-940.991467700352
 21
-58.3822798966226
 31
0.0
  0
LINE
  5
   80F
  8
0
  6
CONTINUOUS
 62
   218
 10
-927.491467700352
 20
-61.5242640951011
 30
0.0
 11
-940.991467700352
 21
-59.1438498555369
 31
0.0
  0
LINE
  5
   810
  8
0
  6
CONTINUOUS
 62
   218
 10
-927.491467700352
 20
-62.2858340540155
 30
0.0
 11
-940.991467700352
 21
-59.9054198144512
 31
0.0
  0
LINE
  5
   811
  8
0
  6
CONTINUOUS
 62
   218
 10
-928.594076913671
 20
-62.8529842594439
 30
0.0
 11
-940.991467700352
 21
-60.6669897733655
 31
0.0
  0
LINE
  5
   812
  8
0
  6
CONTINUOUS
 62
   218
 10
-932.913154776029
 20
-62.8529842594439
 30
0.0
 11
-940.991467700352
 21
-61.4285597322798
 31
0.0
  0
LINE
  5
   813
  8
0
  6
CONTINUOUS
 62
   218
 10
-937.232232638387
 20
-62.8529842594439
 30
0.0
 11
-940.991467700352
 21
-62.1901296911941
 31
0.0
  0
LINE
  5
   814
  8
0
  6
CONTINUOUS
 62
   218
 10
-927.491467700352
 20
-57.7164143005296
 30
0.0
 11
-940.991467700352
 21
-55.3360000609653
 31
0.0
  0
LINE
  5
   815
  8
0
  6
CONTINUOUS
 62
   218
 10
-927.491467700352
 20
-56.9548443416153
 30
0.0
 11
-940.991467700352
 21
-54.574430102051
 31
0.0
  0
LINE
  5
   816
  8
0
  6
CONTINUOUS
 62
   218
 10
-927.491467700352
 20
-56.193274382701
 30
0.0
 11
-939.346092074106
 21
-54.1029842594439
 31
0.0
  0
LINE
  5
   817
  8
0
  6
CONTINUOUS
 62
   218
 10
-927.491467700352
 20
-55.4317044237867
 30
0.0
 11
-935.027014211749
 21
-54.1029842594439
 31
0.0
  0
LINE
  5
   818
  8
0
  6
CONTINUOUS
 62
   218
 10
-927.491467700352
 20
-54.6701344648724
 30
0.0
 11
-930.707936349391
 21
-54.1029842594439
 31
0.0
  0
POLYLINE
  5
   819
  8
0
  6
CONTINUOUS
 62
   218
 66
     1
 10
0.0
 20
0.0
 30
0.0
 70
     1
  0
VERTEX
  5
   81A
  8
0
  6
CONTINUOUS
 10
-956.241467700345
 20
-64.3529842594439
 30
0.0
 40
0.0
 41
0.0
  0
VERTEX
  5
   81B
  8
0
  6
CONTINUOUS
 10
-956.210791164691
 20
-64.3520995393639
 30
0.0
 40
0.0
 41
0.0
  0
VERTEX
  5
   81C
  8
0
  6
CONTINUOUS
 10
-956.180133107435
 20
-64.3494459120465
 30
0.0
 40
0.0
 41
0.0
  0
VERTEX
  5
   81D
  8
0
  6
CONTINUOUS
 10
-956.149511995845
 20
-64.3450249759373
 30
0.0
 40
0.0
 41
0.0
  0
VERTEX
  5
   81E
  8
0
  6
CONTINUOUS
 10
-956.118946274933
 20
-64.3388393940432
 30
0.0
 40
0.0
 41
0.0
  0
VERTEX
  5
   81F
  8
0
  6
CONTINUOUS
 10
-956.088454356346
 20
-64.3308928923272
 30
0.0
 40
0.0
 41
0.0
  0
VERTEX
  5
   820
  8
0
  6
CONTINUOUS
 10
-956.058054607276
 20
-64.321190257465
 30
0.0
 40
0.0
 41
0.0
  0
VERTEX
  5
   821
  8
0
  6
CONTINUOUS
 10
-956.027765339394
 20
-64.3097373339609
 30
0.0
 40
0.0
 41
0.0
  0
VERTEX
  5
   822
  8
0
  6
CONTINUOUS
 10
-955.997604797825
 20
-64.2965410206278
 30
0.0
 40
0.0
 41
0.0
  0
VERTEX
  5
   823
  8
0
  6
CONTINUOUS
 10
-955.967591150149
 20
-64.2816092664314
 30
0.0
 40
0.0
 41
0.0
  0
VERTEX
  5
   824
  8
0
  6
CONTINUOUS
 10
-955.937742475466
 20
-64.2649510657021
 30
0.0
 40
0.0
 41
0.0
  0
VERTEX
  5
   825
  8
0
  6
CONTINUOUS
 10
-955.908076753501
 20
-64.2465764527172
 30
0.0
 40
0.0
 41
0.0
  0
VERTEX
  5
   826
  8
0
  6
CONTINUOUS
 10
-955.878611853777
 20
-64.2264964956564
 30
0.0
 40
0.0
 41
0.0
  0
VERTEX
  5
   827
  8
0
  6
CONTINUOUS
 10
-955.849365524847
 20
-64.204723289935
 30
0.0
 40
0.0
 41
0.0
  0
VERTEX
  5
   828
  8
0
  6
CONTINUOUS
 10
-955.820355383605
 20
-64.181269950918
 30
0.0
 40
0.0
 41
0.0
  0
VERTEX
  5
   829
  8
0
  6
CONTINUOUS
 10
-955.791598904677
 20
-64.1561506060198
 30
0.0
 40
0.0
 41
0.0
  0
VERTEX
  5
   82A
  8
0
  6
CONTINUOUS
 10
-955.763113409889
 20
-64.1293803861946
 30
0.0
 40
0.0
 41
0.0
  0
VERTEX
  5
   82B
  8
0
  6
CONTINUOUS
 10
-955.734916057839
 20
-64.1009754168218
 30
0.0
 40
0.0
 41
0.0
  0
VERTEX
  5
   82C
  8
0
  6
CONTINUOUS
 10
-955.707023833558
 20
-64.0709528079927
 30
0.0
 40
0.0
 41
0.0
  0
VERTEX
  5
   82D
  8
0
  6
CONTINUOUS
 10
-955.679453538277
 20
-64.0393306442043
 30
0.0
 40
0.0
 41
0.0
  0
VERTEX
  5
   82E
  8
0
  6
CONTINUOUS
 10
-955.652221779313
 20
-64.0061279734657
 30
0.0
 40
0.0
 41
0.0
  0
VERTEX
  5
   82F
  8
0
  6
CONTINUOUS
 10
-955.625344960059
 20
-63.9713647958242
 30
0.0
 40
0.0
 41
0.0
  0
VERTEX
  5
   830
  8
0
  6
CONTINUOUS
 10
-955.598839270104
 20
-63.9350620513181
 30
0.0
 40
0.0
 41
0.0
  0
VERTEX
  5
   831
  8
0
  6
CONTINUOUS
 10
-955.572720675487
 20
-63.8972416073632
 30
0.0
 40
0.0
 41
0.0
  0
VERTEX
  5
   832
  8
0
  6
CONTINUOUS
 10
-955.547004909072
 20
-63.8579262455809
 30
0.0
 40
0.0
 41
0.0
  0
VERTEX
  5
   833
  8
0
  6
CONTINUOUS
 10
-955.521707461074
 20
-63.8171396480749
 30
0.0
 40
0.0
 41
0.0
  0
VERTEX
  5
   834
  8
0
  6
CONTINUOUS
 10
-955.496843569731
 20
-63.7749063831664
 30
0.0
 40
0.0
 41
0.0
  0
VERTEX
  5
   835
  8
0
  6
CONTINUOUS
 10
-955.47242821212
 20
-63.7312518905951
 30
0.0
 40
0.0
 41
0.0
  0
VERTEX
  5
   836
  8
0
  6
CONTINUOUS
 10
-955.448476095142
 20
-63.686202466195
 30
0.0
 40
0.0
 41
0.0
  0
VERTEX
  5
   837
  8
0
  6
CONTINUOUS
 10
-955.425001646655
 20
-63.6397852460547
 30
0.0
 40
0.0
 41
0.0
  0
VERTEX
  5
   838
  8
0
  6
CONTINUOUS
 10
-955.402019006788
 20
-63.592028190172
 30
0.0
 40
0.0
 41
0.0
  0
VERTEX
  5
   839
  8
0
  6
CONTINUOUS
 10
-955.379542019426
 20
-63.5429600656117
 30
0.0
 40
0.0
 41
0.0
  0
VERTEX
  5
   83A
  8
0
  6
CONTINUOUS
 10
-955.336158846658
 20
-63.4410096096068
 30
0.0
 40
0.0
 41
0.0
  0
VERTEX
  5
   83B
  8
0
  6
CONTINUOUS
 10
-955.294956642214
 20
-63.3341794856183
 30
0.0
 40
0.0
 41
0.0
  0
VERTEX
  5
   83C
  8
0
  6
CONTINUOUS
 10
-955.256034665815
 20
-63.222727056772
 30
0.0
 40
0.0
 41
0.0
  0
VERTEX
  5
   83D
  8
0
  6
CONTINUOUS
 10
-955.219486683909
 20
-63.1069208217313
 30
0.0
 40
0.0
 41
0.0
  0
VERTEX
  5
   83E
  8
0
  6
CONTINUOUS
 10
-955.185400743786
 20
-62.9870397678596
 30
0.0
 40
0.0
 41
0.0
  0
VERTEX
  5
   83F
  8
0
  6
CONTINUOUS
 10
-955.153858961463
 20
-62.8633726991162
 30
0.0
 40
0.0
 41
0.0
  0
VERTEX
  5
   840
  8
0
  6
CONTINUOUS
 10
-955.124937323855
 20
-62.7362175403015
 30
0.0
 40
0.0
 41
0.0
  0
VERTEX
  5
   841
  8
0
  6
CONTINUOUS
 10
-955.111481083945
 20
-62.6714273463925
 30
0.0
 40
0.0
 41
0.0
  0
VERTEX
  5
   842
  8
0
  6
CONTINUOUS
 10
-955.08661828471
 20
-62.5396168420135
 30
0.0
 40
0.0
 41
0.0
  0
VERTEX
  5
   843
  8
0
  6
CONTINUOUS
 10
-955.064537618871
 20
-62.4050982037806
 30
0.0
 40
0.0
 41
0.0
  0
VERTEX
  5
   844
  8
0
  6
CONTINUOUS
 10
-955.045292280685
 20
-62.2681954988759
 30
0.0
 40
0.0
 41
0.0
  0
VERTEX
  5
   845
  8
0
  6
CONTINUOUS
 10
-955.028928633857
 20
-62.1292385379067
 30
0.0
 40
0.0
 41
0.0
  0
VERTEX
  5
   846
  8
0
  6
CONTINUOUS
 10
-955.015486099847
 20
-61.9885620803632
 30
0.0
 40
0.0
 41
0.0
  0
VERTEX
  5
   847
  8
0
  6
CONTINUOUS
 10
-955.004997062895
 20
-61.8465050281534
 30
0.0
 40
0.0
 41
0.0
  0
VERTEX
  5
   848
  8
0
  6
CONTINUOUS
 10
-954.997486792011
 20
-61.7034096091589
 30
0.0
 40
0.0
 41
0.0
  0
VERTEX
  5
   849
  8
0
  6
CONTINUOUS
 10
-954.992973380095
 20
-61.5596205527776
 30
0.0
 40
0.0
 41
0.0
  0
VERTEX
  5
   84A
  8
0
  6
CONTINUOUS
 10
-954.991467700352
 20
-61.4154842594408
 30
0.0
 40
0.0
 41
0.0
  0
VERTEX
  5
   84B
  8
0
  6
CONTINUOUS
 10
-954.992973380096
 20
-61.271347966104
 30
0.0
 40
0.0
 41
0.0
  0
VERTEX
  5
   84C
  8
0
  6
CONTINUOUS
 10
-954.997486792013
 20
-61.1275589097227
 30
0.0
 40
0.0
 41
0.0
  0
VERTEX
  5
   84D
  8
0
  6
CONTINUOUS
 10
-955.004997062897
 20
-60.9844634907282
 30
0.0
 40
0.0
 41
0.0
  0
VERTEX
  5
   84E
  8
0
  6
CONTINUOUS
 10
-955.015486099849
 20
-60.8424064385185
 30
0.0
 40
0.0
 41
0.0
  0
VERTEX
  5
   84F
  8
0
  6
CONTINUOUS
 10
-955.028928633861
 20
-60.701729980975
 30
0.0
 40
0.0
 41
0.0
  0
VERTEX
  5
   850
  8
0
  6
CONTINUOUS
 10
-955.045292280689
 20
-60.5627730200059
 30
0.0
 40
0.0
 41
0.0
  0
VERTEX
  5
   851
  8
0
  6
CONTINUOUS
 10
-955.064537618876
 20
-60.4258703151013
 30
0.0
 40
0.0
 41
0.0
  0
VERTEX
  5
   852
  8
0
  6
CONTINUOUS
 10
-955.086618284716
 20
-60.2913516768686
 30
0.0
 40
0.0
 41
0.0
  0
VERTEX
  5
   853
  8
0
  6
CONTINUOUS
 10
-955.111481083951
 20
-60.1595411724896
 30
0.0
 40
0.0
 41
0.0
  0
VERTEX
  5
   854
  8
0
  6
CONTINUOUS
 10
-955.13906611992
 20
-60.0307563450148
 30
0.0
 40
0.0
 41
0.0
  0
VERTEX
  5
   855
  8
0
  6
CONTINUOUS
 10
-955.169306937856
 20
-59.9053074483736
 30
0.0
 40
0.0
 41
0.0
  0
VERTEX
  5
   856
  8
0
  6
CONTINUOUS
 10
-955.202130684978
 20
-59.7834966999462
 30
0.0
 40
0.0
 41
0.0
  0
VERTEX
  5
   857
  8
0
  6
CONTINUOUS
 10
-955.237458286006
 20
-59.6656175524949
 30
0.0
 40
0.0
 41
0.0
  0
VERTEX
  5
   858
  8
0
  6
CONTINUOUS
 10
-955.275204633653
 20
-59.5519539872108
 30
0.0
 40
0.0
 41
0.0
  0
VERTEX
  5
   859
  8
0
  6
CONTINUOUS
 10
-955.315278793663
 20
-59.4427798295785
 30
0.0
 40
0.0
 41
0.0
  0
VERTEX
  5
   85A
  8
0
  6
CONTINUOUS
 10
-955.357584223874
 20
-59.3383580897062
 30
0.0
 40
0.0
 41
0.0
  0
VERTEX
  5
   85B
  8
0
  6
CONTINUOUS
 10
-955.379542019436
 20
-59.2880084532718
 30
0.0
 40
0.0
 41
0.0
  0
VERTEX
  5
   85C
  8
0
  6
CONTINUOUS
 10
-955.402019006799
 20
-59.2389403287116
 30
0.0
 40
0.0
 41
0.0
  0
VERTEX
  5
   85D
  8
0
  6
CONTINUOUS
 10
-955.425001646666
 20
-59.1911832728291
 30
0.0
 40
0.0
 41
0.0
  0
VERTEX
  5
   85E
  8
0
  6
CONTINUOUS
 10
-955.448476095153
 20
-59.1447660526889
 30
0.0
 40
0.0
 41
0.0
  0
VERTEX
  5
   85F
  8
0
  6
CONTINUOUS
 10
-955.472428212132
 20
-59.0997166282888
 30
0.0
 40
0.0
 41
0.0
  0
VERTEX
  5
   860
  8
0
  6
CONTINUOUS
 10
-955.496843569743
 20
-59.0560621357176
 30
0.0
 40
0.0
 41
0.0
  0
VERTEX
  5
   861
  8
0
  6
CONTINUOUS
 10
-955.521707461086
 20
-59.0138288708093
 30
0.0
 40
0.0
 41
0.0
  0
VERTEX
  5
   862
  8
0
  6
CONTINUOUS
 10
-955.547004909084
 20
-58.9730422733034
 30
0.0
 40
0.0
 41
0.0
  0
VERTEX
  5
   863
  8
0
  6
CONTINUOUS
 10
-955.572720675499
 20
-58.9337269115212
 30
0.0
 40
0.0
 41
0.0
  0
VERTEX
  5
   864
  8
0
  6
CONTINUOUS
 10
-955.598839270117
 20
-58.8959064675665
 30
0.0
 40
0.0
 41
0.0
  0
VERTEX
  5
   865
  8
0
  6
CONTINUOUS
 10
-955.625344960071
 20
-58.8596037230605
 30
0.0
 40
0.0
 41
0.0
  0
VERTEX
  5
   866
  8
0
  6
CONTINUOUS
 10
-955.652221779326
 20
-58.8248405454191
 30
0.0
 40
0.0
 41
0.0
  0
VERTEX
  5
   867
  8
0
  6
CONTINUOUS
 10
-955.67945353829
 20
-58.7916378746807
 30
0.0
 40
0.0
 41
0.0
  0
VERTEX
  5
   868
  8
0
  6
CONTINUOUS
 10
-955.707023833571
 20
-58.7600157108924
 30
0.0
 40
0.0
 41
0.0
  0
VERTEX
  5
   869
  8
0
  6
CONTINUOUS
 10
-955.734916057853
 20
-58.7299931020635
 30
0.0
 40
0.0
 41
0.0
  0
VERTEX
  5
   86A
  8
0
  6
CONTINUOUS
 10
-955.763113409903
 20
-58.7015881326908
 30
0.0
 40
0.0
 41
0.0
  0
VERTEX
  5
   86B
  8
0
  6
CONTINUOUS
 10
-955.79159890469
 20
-58.6748179128657
 30
0.0
 40
0.0
 41
0.0
  0
VERTEX
  5
   86C
  8
0
  6
CONTINUOUS
 10
-955.820355383619
 20
-58.6496985679677
 30
0.0
 40
0.0
 41
0.0
  0
VERTEX
  5
   86D
  8
0
  6
CONTINUOUS
 10
-955.849365524861
 20
-58.6262452289509
 30
0.0
 40
0.0
 41
0.0
  0
VERTEX
  5
   86E
  8
0
  6
CONTINUOUS
 10
-955.878611853791
 20
-58.6044720232296
 30
0.0
 40
0.0
 41
0.0
  0
VERTEX
  5
   86F
  8
0
  6
CONTINUOUS
 10
-955.908076753516
 20
-58.584392066169
 30
0.0
 40
0.0
 41
0.0
  0
VERTEX
  5
   870
  8
0
  6
CONTINUOUS
 10
-955.93774247548
 20
-58.5660174531842
 30
0.0
 40
0.0
 41
0.0
  0
VERTEX
  5
   871
  8
0
  6
CONTINUOUS
 10
-955.967591150163
 20
-58.549359252455
 30
0.0
 40
0.0
 41
0.0
  0
VERTEX
  5
   872
  8
0
  6
CONTINUOUS
 10
-955.997604797839
 20
-58.5344274982588
 30
0.0
 40
0.0
 41
0.0
  0
VERTEX
  5
   873
  8
0
  6
CONTINUOUS
 10
-956.027765339409
 20
-58.5212311849259
 30
0.0
 40
0.0
 41
0.0
  0
VERTEX
  5
   874
  8
0
  6
CONTINUOUS
 10
-956.05805460729
 20
-58.5097782614219
 30
0.0
 40
0.0
 41
0.0
  0
VERTEX
  5
   875
  8
0
  6
CONTINUOUS
 10
-956.088454356361
 20
-58.5000756265598
 30
0.0
 40
0.0
 41
0.0
  0
VERTEX
  5
   876
  8
0
  6
CONTINUOUS
 10
-956.118946274947
 20
-58.492129124844
 30
0.0
 40
0.0
 41
0.0
  0
VERTEX
  5
   877
  8
0
  6
CONTINUOUS
 10
-956.14951199586
 20
-58.48594354295
 30
0.0
 40
0.0
 41
0.0
  0
VERTEX
  5
   878
  8
0
  6
CONTINUOUS
 10
-956.18013310745
 20
-58.4815226068411
 30
0.0
 40
0.0
 41
0.0
  0
VERTEX
  5
   879
  8
0
  6
CONTINUOUS
 10
-956.210791164706
 20
-58.4788689795237
 30
0.0
 40
0.0
 41
0.0
  0
VERTEX
  5
   87A
  8
0
  6
CONTINUOUS
 10
-956.24146770036
 20
-58.4779842594439
 30
0.0
 40
0.0
 41
0.0
  0
VERTEX
  5
   87B
  8
0
  6
CONTINUOUS
 10
-956.272144236013
 20
-58.4788689795239
 30
0.0
 40
0.0
 41
0.0
  0
VERTEX
  5
   87C
  8
0
  6
CONTINUOUS
 10
-956.302802293269
 20
-58.4815226068414
 30
0.0
 40
0.0
 41
0.0
  0
VERTEX
  5
   87D
  8
0
  6
CONTINUOUS
 10
-956.333423404859
 20
-58.4859435429505
 30
0.0
 40
0.0
 41
0.0
  0
VERTEX
  5
   87E
  8
0
  6
CONTINUOUS
 10
-956.363989125771
 20
-58.4921291248446
 30
0.0
 40
0.0
 41
0.0
  0
VERTEX
  5
   87F
  8
0
  6
CONTINUOUS
 10
-956.394481044359
 20
-58.5000756265606
 30
0.0
 40
0.0
 41
0.0
  0
VERTEX
  5
   880
  8
0
  6
CONTINUOUS
 10
-956.424880793429
 20
-58.5097782614228
 30
0.0
 40
0.0
 41
0.0
  0
VERTEX
  5
   881
  8
0
  6
CONTINUOUS
 10
-956.45517006131
 20
-58.5212311849269
 30
0.0
 40
0.0
 41
0.0
  0
VERTEX
  5
   882
  8
0
  6
CONTINUOUS
 10
-956.485330602879
 20
-58.53442749826
 30
0.0
 40
0.0
 41
0.0
  0
VERTEX
  5
   883
  8
0
  6
CONTINUOUS
 10
-956.515344250555
 20
-58.5493592524564
 30
0.0
 40
0.0
 41
0.0
  0
VERTEX
  5
   884
  8
0
  6
CONTINUOUS
 10
-956.545192925238
 20
-58.5660174531857
 30
0.0
 40
0.0
 41
0.0
  0
VERTEX
  5
   885
  8
0
  6
CONTINUOUS
 10
-956.574858647203
 20
-58.5843920661706
 30
0.0
 40
0.0
 41
0.0
  0
VERTEX
  5
   886
  8
0
  6
CONTINUOUS
 10
-956.604323546927
 20
-58.6044720232315
 30
0.0
 40
0.0
 41
0.0
  0
VERTEX
  5
   887
  8
0
  6
CONTINUOUS
 10
-956.633569875858
 20
-58.6262452289528
 30
0.0
 40
0.0
 41
0.0
  0
VERTEX
  5
   888
  8
0
  6
CONTINUOUS
 10
-956.662580017099
 20
-58.6496985679698
 30
0.0
 40
0.0
 41
0.0
  0
VERTEX
  5
   889
  8
0
  6
CONTINUOUS
 10
-956.691336496028
 20
-58.674817912868
 30
0.0
 40
0.0
 41
0.0
  0
VERTEX
  5
   88A
  8
0
  6
CONTINUOUS
 10
-956.719821990815
 20
-58.7015881326932
 30
0.0
 40
0.0
 41
0.0
  0
VERTEX
  5
   88B
  8
0
  6
CONTINUOUS
 10
-956.748019342865
 20
-58.7299931020661
 30
0.0
 40
0.0
 41
0.0
  0
VERTEX
  5
   88C
  8
0
  6
CONTINUOUS
 10
-956.775911567147
 20
-58.7600157108951
 30
0.0
 40
0.0
 41
0.0
  0
VERTEX
  5
   88D
  8
0
  6
CONTINUOUS
 10
-956.803481862427
 20
-58.7916378746835
 30
0.0
 40
0.0
 41
0.0
  0
VERTEX
  5
   88E
  8
0
  6
CONTINUOUS
 10
-956.830713621391
 20
-58.8248405454221
 30
0.0
 40
0.0
 41
0.0
  0
VERTEX
  5
   88F
  8
0
  6
CONTINUOUS
 10
-956.857590440646
 20
-58.8596037230636
 30
0.0
 40
0.0
 41
0.0
  0
VERTEX
  5
   890
  8
0
  6
CONTINUOUS
 10
-956.8840961306
 20
-58.8959064675697
 30
0.0
 40
0.0
 41
0.0
  0
VERTEX
  5
   891
  8
0
  6
CONTINUOUS
 10
-956.910214725217
 20
-58.9337269115246
 30
0.0
 40
0.0
 41
0.0
  0
VERTEX
  5
   892
  8
0
  6
CONTINUOUS
 10
-956.935930491633
 20
-58.9730422733069
 30
0.0
 40
0.0
 41
0.0
  0
VERTEX
  5
   893
  8
0
  6
CONTINUOUS
 10
-956.961227939631
 20
-59.0138288708129
 30
0.0
 40
0.0
 41
0.0
  0
VERTEX
  5
   894
  8
0
  6
CONTINUOUS
 10
-956.986091830974
 20
-59.0560621357214
 30
0.0
 40
0.0
 41
0.0
  0
VERTEX
  5
   895
  8
0
  6
CONTINUOUS
 10
-957.010507188584
 20
-59.0997166282927
 30
0.0
 40
0.0
 41
0.0
  0
VERTEX
  5
   896
  8
0
  6
CONTINUOUS
 10
-957.034459305562
 20
-59.1447660526929
 30
0.0
 40
0.0
 41
0.0
  0
VERTEX
  5
   897
  8
0
  6
CONTINUOUS
 10
-957.05793375405
 20
-59.1911832728332
 30
0.0
 40
0.0
 41
0.0
  0
VERTEX
  5
   898
  8
0
  6
CONTINUOUS
 10
-957.080916393917
 20
-59.2389403287158
 30
0.0
 40
0.0
 41
0.0
  0
VERTEX
  5
   899
  8
0
  6
CONTINUOUS
 10
-957.103393381279
 20
-59.2880084532761
 30
0.0
 40
0.0
 41
0.0
  0
VERTEX
  5
   89A
  8
0
  6
CONTINUOUS
 10
-957.146776554047
 20
-59.389958909281
 30
0.0
 40
0.0
 41
0.0
  0
VERTEX
  5
   89B
  8
0
  6
CONTINUOUS
 10
-957.18797875849
 20
-59.4967890332696
 30
0.0
 40
0.0
 41
0.0
  0
VERTEX
  5
   89C
  8
0
  6
CONTINUOUS
 10
-957.22690073489
 20
-59.6082414621158
 30
0.0
 40
0.0
 41
0.0
  0
VERTEX
  5
   89D
  8
0
  6
CONTINUOUS
 10
-957.263448716796
 20
-59.7240476971566
 30
0.0
 40
0.0
 41
0.0
  0
VERTEX
  5
   89E
  8
0
  6
CONTINUOUS
 10
-957.297534656918
 20
-59.8439287510282
 30
0.0
 40
0.0
 41
0.0
  0
VERTEX
  5
   89F
  8
0
  6
CONTINUOUS
 10
-957.329076439242
 20
-59.9675958197717
 30
0.0
 40
0.0
 41
0.0
  0
VERTEX
  5
   8A0
  8
0
  6
CONTINUOUS
 10
-957.35799807685
 20
-60.0947509785863
 30
0.0
 40
0.0
 41
0.0
  0
VERTEX
  5
   8A1
  8
0
  6
CONTINUOUS
 10
-957.37145431676
 20
-60.1595411724953
 30
0.0
 40
0.0
 41
0.0
  0
VERTEX
  5
   8A2
  8
0
  6
CONTINUOUS
 10
-957.396317115994
 20
-60.2913516768744
 30
0.0
 40
0.0
 41
0.0
  0
VERTEX
  5
   8A3
  8
0
  6
CONTINUOUS
 10
-957.418397781833
 20
-60.4258703151072
 30
0.0
 40
0.0
 41
0.0
  0
VERTEX
  5
   8A4
  8
0
  6
CONTINUOUS
 10
-957.43764312002
 20
-60.5627730200119
 30
0.0
 40
0.0
 41
0.0
  0
VERTEX
  5
   8A5
  8
0
  6
CONTINUOUS
 10
-957.454006766847
 20
-60.7017299809811
 30
0.0
 40
0.0
 41
0.0
  0
VERTEX
  5
   8A6
  8
0
  6
CONTINUOUS
 10
-957.467449300858
 20
-60.8424064385246
 30
0.0
 40
0.0
 41
0.0
  0
VERTEX
  5
   8A7
  8
0
  6
CONTINUOUS
 10
-957.477938337809
 20
-60.9844634907344
 30
0.0
 40
0.0
 41
0.0
  0
VERTEX
  5
   8A8
  8
0
  6
CONTINUOUS
 10
-957.485448608693
 20
-61.127558909729
 30
0.0
 40
0.0
 41
0.0
  0
VERTEX
  5
   8A9
  8
0
  6
CONTINUOUS
 10
-957.489962020609
 20
-61.2713479661103
 30
0.0
 40
0.0
 41
0.0
  0
VERTEX
  5
   8AA
  8
0
  6
CONTINUOUS
 10
-957.491467700352
 20
-61.4154842594471
 30
0.0
 40
0.0
 41
0.0
  0
VERTEX
  5
   8AB
  8
0
  6
CONTINUOUS
 10
-957.489962020608
 20
-61.5596205527838
 30
0.0
 40
0.0
 41
0.0
  0
VERTEX
  5
   8AC
  8
0
  6
CONTINUOUS
 10
-957.485448608692
 20
-61.7034096091651
 30
0.0
 40
0.0
 41
0.0
  0
VERTEX
  5
   8AD
  8
0
  6
CONTINUOUS
 10
-957.477938337807
 20
-61.8465050281596
 30
0.0
 40
0.0
 41
0.0
  0
VERTEX
  5
   8AE
  8
0
  6
CONTINUOUS
 10
-957.467449300855
 20
-61.9885620803694
 30
0.0
 40
0.0
 41
0.0
  0
VERTEX
  5
   8AF
  8
0
  6
CONTINUOUS
 10
-957.454006766844
 20
-62.1292385379128
 30
0.0
 40
0.0
 41
0.0
  0
VERTEX
  5
   8B0
  8
0
  6
CONTINUOUS
 10
-957.437643120015
 20
-62.2681954988819
 30
0.0
 40
0.0
 41
0.0
  0
VERTEX
  5
   8B1
  8
0
  6
CONTINUOUS
 10
-957.418397781828
 20
-62.4050982037865
 30
0.0
 40
0.0
 41
0.0
  0
VERTEX
  5
   8B2
  8
0
  6
CONTINUOUS
 10
-957.396317115989
 20
-62.5396168420193
 30
0.0
 40
0.0
 41
0.0
  0
VERTEX
  5
   8B3
  8
0
  6
CONTINUOUS
 10
-957.371454316753
 20
-62.6714273463982
 30
0.0
 40
0.0
 41
0.0
  0
VERTEX
  5
   8B4
  8
0
  6
CONTINUOUS
 10
-957.343869280784
 20
-62.8002121738731
 30
0.0
 40
0.0
 41
0.0
  0
VERTEX
  5
   8B5
  8
0
  6
CONTINUOUS
 10
-957.313628462849
 20
-62.9256610705142
 30
0.0
 40
0.0
 41
0.0
  0
VERTEX
  5
   8B6
  8
0
  6
CONTINUOUS
 10
-957.280804715726
 20
-63.0474718189416
 30
0.0
 40
0.0
 41
0.0
  0
VERTEX
  5
   8B7
  8
0
  6
CONTINUOUS
 10
-957.245477114698
 20
-63.165350966393
 30
0.0
 40
0.0
 41
0.0
  0
VERTEX
  5
   8B8
  8
0
  6
CONTINUOUS
 10
-957.207730767051
 20
-63.279014531677
 30
0.0
 40
0.0
 41
0.0
  0
VERTEX
  5
   8B9
  8
0
  6
CONTINUOUS
 10
-957.167656607041
 20
-63.3881886893094
 30
0.0
 40
0.0
 41
0.0
  0
VERTEX
  5
   8BA
  8
0
  6
CONTINUOUS
 10
-957.12535117683
 20
-63.4926104291816
 30
0.0
 40
0.0
 41
0.0
  0
VERTEX
  5
   8BB
  8
0
  6
CONTINUOUS
 10
-957.103393381268
 20
-63.542960065616
 30
0.0
 40
0.0
 41
0.0
  0
VERTEX
  5
   8BC
  8
0
  6
CONTINUOUS
 10
-957.080916393905
 20
-63.5920281901762
 30
0.0
 40
0.0
 41
0.0
  0
VERTEX
  5
   8BD
  8
0
  6
CONTINUOUS
 10
-957.057933754039
 20
-63.6397852460588
 30
0.0
 40
0.0
 41
0.0
  0
VERTEX
  5
   8BE
  8
0
  6
CONTINUOUS
 10
-957.034459305551
 20
-63.6862024661989
 30
0.0
 40
0.0
 41
0.0
  0
VERTEX
  5
   8BF
  8
0
  6
CONTINUOUS
 10
-957.010507188572
 20
-63.731251890599
 30
0.0
 40
0.0
 41
0.0
  0
VERTEX
  5
   8C0
  8
0
  6
CONTINUOUS
 10
-956.986091830962
 20
-63.7749063831702
 30
0.0
 40
0.0
 41
0.0
  0
VERTEX
  5
   8C1
  8
0
  6
CONTINUOUS
 10
-956.961227939619
 20
-63.8171396480785
 30
0.0
 40
0.0
 41
0.0
  0
VERTEX
  5
   8C2
  8
0
  6
CONTINUOUS
 10
-956.935930491621
 20
-63.8579262455844
 30
0.0
 40
0.0
 41
0.0
  0
VERTEX
  5
   8C3
  8
0
  6
CONTINUOUS
 10
-956.910214725205
 20
-63.8972416073666
 30
0.0
 40
0.0
 41
0.0
  0
VERTEX
  5
   8C4
  8
0
  6
CONTINUOUS
 10
-956.884096130587
 20
-63.9350620513213
 30
0.0
 40
0.0
 41
0.0
  0
VERTEX
  5
   8C5
  8
0
  6
CONTINUOUS
 10
-956.857590440633
 20
-63.9713647958273
 30
0.0
 40
0.0
 41
0.0
  0
VERTEX
  5
   8C6
  8
0
  6
CONTINUOUS
 10
-956.830713621378
 20
-64.0061279734687
 30
0.0
 40
0.0
 41
0.0
  0
VERTEX
  5
   8C7
  8
0
  6
CONTINUOUS
 10
-956.803481862414
 20
-64.0393306442071
 30
0.0
 40
0.0
 41
0.0
  0
VERTEX
  5
   8C8
  8
0
  6
CONTINUOUS
 10
-956.775911567133
 20
-64.0709528079954
 30
0.0
 40
0.0
 41
0.0
  0
VERTEX
  5
   8C9
  8
0
  6
CONTINUOUS
 10
-956.748019342852
 20
-64.1009754168243
 30
0.0
 40
0.0
 41
0.0
  0
VERTEX
  5
   8CA
  8
0
  6
CONTINUOUS
 10
-956.719821990802
 20
-64.129380386197
 30
0.0
 40
0.0
 41
0.0
  0
VERTEX
  5
   8CB
  8
0
  6
CONTINUOUS
 10
-956.691336496014
 20
-64.1561506060221
 30
0.0
 40
0.0
 41
0.0
  0
VERTEX
  5
   8CC
  8
0
  6
CONTINUOUS
 10
-956.662580017086
 20
-64.1812699509201
 30
0.0
 40
0.0
 41
0.0
  0
VERTEX
  5
   8CD
  8
0
  6
CONTINUOUS
 10
-956.633569875844
 20
-64.2047232899369
 30
0.0
 40
0.0
 41
0.0
  0
VERTEX
  5
   8CE
  8
0
  6
CONTINUOUS
 10
-956.604323546913
 20
-64.2264964956582
 30
0.0
 40
0.0
 41
0.0
  0
VERTEX
  5
   8CF
  8
0
  6
CONTINUOUS
 10
-956.574858647189
 20
-64.2465764527188
 30
0.0
 40
0.0
 41
0.0
  0
VERTEX
  5
   8D0
  8
0
  6
CONTINUOUS
 10
-956.545192925224
 20
-64.2649510657036
 30
0.0
 40
0.0
 41
0.0
  0
VERTEX
  5
   8D1
  8
0
  6
CONTINUOUS
 10
-956.515344250541
 20
-64.2816092664328
 30
0.0
 40
0.0
 41
0.0
  0
VERTEX
  5
   8D2
  8
0
  6
CONTINUOUS
 10
-956.485330602865
 20
-64.296541020629
 30
0.0
 40
0.0
 41
0.0
  0
VERTEX
  5
   8D3
  8
0
  6
CONTINUOUS
 10
-956.455170061295
 20
-64.309737333962
 30
0.0
 40
0.0
 41
0.0
  0
VERTEX
  5
   8D4
  8
0
  6
CONTINUOUS
 10
-956.424880793414
 20
-64.3211902574659
 30
0.0
 40
0.0
 41
0.0
  0
VERTEX
  5
   8D5
  8
0
  6
CONTINUOUS
 10
-956.394481044344
 20
-64.330892892328
 30
0.0
 40
0.0
 41
0.0
  0
VERTEX
  5
   8D6
  8
0
  6
CONTINUOUS
 10
-956.363989125757
 20
-64.3388393940438
 30
0.0
 40
0.0
 41
0.0
  0
VERTEX
  5
   8D7
  8
0
  6
CONTINUOUS
 10
-956.333423404844
 20
-64.3450249759378
 30
0.0
 40
0.0
 41
0.0
  0
VERTEX
  5
   8D8
  8
0
  6
CONTINUOUS
 10
-956.302802293254
 20
-64.3494459120468
 30
0.0
 40
0.0
 41
0.0
  0
VERTEX
  5
   8D9
  8
0
  6
CONTINUOUS
 10
-956.272144235998
 20
-64.3520995393641
 30
0.0
 40
0.0
 41
0.0
  0
VERTEX
  5
   8DA
  8
0
  6
CONTINUOUS
 10
-956.241467700345
 20
-64.3529842594439
 30
0.0
 40
0.0
 41
0.0
  0
SEQEND
  5
   8DB
  8
0
  6
CONTINUOUS
 62
   218
  0
POLYLINE
  5
   8DC
  8
0
  6
CONTINUOUS
 62
   218
 66
     1
 10
0.0
 20
0.0
 30
0.0
  0
VERTEX
  5
   8DD
  8
0
  6
CONTINUOUS
 10
-956.241467700363
 20
-52.6029842594439
 30
0.0
 40
0.0
 41
0.0
  0
VERTEX
  5
   8DE
  8
0
  6
CONTINUOUS
 10
-956.272144236016
 20
-52.6038689795241
 30
0.0
 40
0.0
 41
0.0
  0
VERTEX
  5
   8DF
  8
0
  6
CONTINUOUS
 10
-956.302802293272
 20
-52.6065226068417
 30
0.0
 40
0.0
 41
0.0
  0
VERTEX
  5
   8E0
  8
0
  6
CONTINUOUS
 10
-956.333423404862
 20
-52.610943542951
 30
0.0
 40
0.0
 41
0.0
  0
VERTEX
  5
   8E1
  8
0
  6
CONTINUOUS
 10
-956.363989125775
 20
-52.6171291248454
 30
0.0
 40
0.0
 41
0.0
  0
VERTEX
  5
   8E2
  8
0
  6
CONTINUOUS
 10
-956.394481044362
 20
-52.6250756265615
 30
0.0
 40
0.0
 41
0.0
  0
VERTEX
  5
   8E3
  8
0
  6
CONTINUOUS
 10
-956.424880793432
 20
-52.634778261424
 30
0.0
 40
0.0
 41
0.0
  0
VERTEX
  5
   8E4
  8
0
  6
CONTINUOUS
 10
-956.455170061313
 20
-52.6462311849283
 30
0.0
 40
0.0
 41
0.0
  0
VERTEX
  5
   8E5
  8
0
  6
CONTINUOUS
 10
-956.485330602883
 20
-52.6594274982616
 30
0.0
 40
0.0
 41
0.0
  0
VERTEX
  5
   8E6
  8
0
  6
CONTINUOUS
 10
-956.515344250559
 20
-52.6743592524581
 30
0.0
 40
0.0
 41
0.0
  0
VERTEX
  5
   8E7
  8
0
  6
CONTINUOUS
 10
-956.545192925242
 20
-52.6910174531876
 30
0.0
 40
0.0
 41
0.0
  0
VERTEX
  5
   8E8
  8
0
  6
CONTINUOUS
 10
-956.574858647206
 20
-52.7093920661728
 30
0.0
 40
0.0
 41
0.0
  0
VERTEX
  5
   8E9
  8
0
  6
CONTINUOUS
 10
-956.604323546931
 20
-52.7294720232338
 30
0.0
 40
0.0
 41
0.0
  0
VERTEX
  5
   8EA
  8
0
  6
CONTINUOUS
 10
-956.633569875861
 20
-52.7512452289554
 30
0.0
 40
0.0
 41
0.0
  0
VERTEX
  5
   8EB
  8
0
  6
CONTINUOUS
 10
-956.662580017103
 20
-52.7746985679726
 30
0.0
 40
0.0
 41
0.0
  0
VERTEX
  5
   8EC
  8
0
  6
CONTINUOUS
 10
-956.691336496031
 20
-52.799817912871
 30
0.0
 40
0.0
 41
0.0
  0
VERTEX
  5
   8ED
  8
0
  6
CONTINUOUS
 10
-956.719821990819
 20
-52.8265881326964
 30
0.0
 40
0.0
 41
0.0
  0
VERTEX
  5
   8EE
  8
0
  6
CONTINUOUS
 10
-956.748019342868
 20
-52.8549931020694
 30
0.0
 40
0.0
 41
0.0
  0
VERTEX
  5
   8EF
  8
0
  6
CONTINUOUS
 10
-956.77591156715
 20
-52.8850157108987
 30
0.0
 40
0.0
 41
0.0
  0
VERTEX
  5
   8F0
  8
0
  6
CONTINUOUS
 10
-956.80348186243
 20
-52.9166378746873
 30
0.0
 40
0.0
 41
0.0
  0
VERTEX
  5
   8F1
  8
0
  6
CONTINUOUS
 10
-956.830713621394
 20
-52.9498405454261
 30
0.0
 40
0.0
 41
0.0
  0
VERTEX
  5
   8F2
  8
0
  6
CONTINUOUS
 10
-956.857590440649
 20
-52.9846037230678
 30
0.0
 40
0.0
 41
0.0
  0
VERTEX
  5
   8F3
  8
0
  6
CONTINUOUS
 10
-956.884096130603
 20
-53.0209064675742
 30
0.0
 40
0.0
 41
0.0
  0
VERTEX
  5
   8F4
  8
0
  6
CONTINUOUS
 10
-956.91021472522
 20
-53.0587269115292
 30
0.0
 40
0.0
 41
0.0
  0
VERTEX
  5
   8F5
  8
0
  6
CONTINUOUS
 10
-956.935930491636
 20
-53.0980422733118
 30
0.0
 40
0.0
 41
0.0
  0
VERTEX
  5
   8F6
  8
0
  6
CONTINUOUS
 10
-956.961227939634
 20
-53.138828870818
 30
0.0
 40
0.0
 41
0.0
  0
VERTEX
  5
   8F7
  8
0
  6
CONTINUOUS
 10
-956.986091830977
 20
-53.1810621357267
 30
0.0
 40
0.0
 41
0.0
  0
VERTEX
  5
   8F8
  8
0
  6
CONTINUOUS
 10
-957.010507188587
 20
-53.2247166282982
 30
0.0
 40
0.0
 41
0.0
  0
VERTEX
  5
   8F9
  8
0
  6
CONTINUOUS
 10
-957.034459305565
 20
-53.2697660526986
 30
0.0
 40
0.0
 41
0.0
  0
VERTEX
  5
   8FA
  8
0
  6
CONTINUOUS
 10
-957.057933754053
 20
-53.3161832728391
 30
0.0
 40
0.0
 41
0.0
  0
VERTEX
  5
   8FB
  8
0
  6
CONTINUOUS
 10
-957.080916393919
 20
-53.363940328722
 30
0.0
 40
0.0
 41
0.0
  0
VERTEX
  5
   8FC
  8
0
  6
CONTINUOUS
 10
-957.103393381282
 20
-53.4130084532825
 30
0.0
 40
0.0
 41
0.0
  0
VERTEX
  5
   8FD
  8
0
  6
CONTINUOUS
 10
-957.146776554049
 20
-53.5149589092878
 30
0.0
 40
0.0
 41
0.0
  0
VERTEX
  5
   8FE
  8
0
  6
CONTINUOUS
 10
-957.187978758493
 20
-53.6217890332767
 30
0.0
 40
0.0
 41
0.0
  0
VERTEX
  5
   8FF
  8
0
  6
CONTINUOUS
 10
-957.226900734893
 20
-53.7332414621233
 30
0.0
 40
0.0
 41
0.0
  0
VERTEX
  5
   900
  8
0
  6
CONTINUOUS
 10
-957.263448716798
 20
-53.8490476971644
 30
0.0
 40
0.0
 41
0.0
  0
VERTEX
  5
   901
  8
0
  6
CONTINUOUS
 10
-957.297534656921
 20
-53.9689287510364
 30
0.0
 40
0.0
 41
0.0
  0
VERTEX
  5
   902
  8
0
  6
CONTINUOUS
 10
-957.329076439244
 20
-54.0925958197802
 30
0.0
 40
0.0
 41
0.0
  0
VERTEX
  5
   903
  8
0
  6
CONTINUOUS
 10
-957.357998076852
 20
-54.2197509785952
 30
0.0
 40
0.0
 41
0.0
  0
VERTEX
  5
   904
  8
0
  6
CONTINUOUS
 10
-957.371454316761
 20
-54.2845411725044
 30
0.0
 40
0.0
 41
0.0
  0
VERTEX
  5
   905
  8
0
  6
CONTINUOUS
 10
-957.396317115996
 20
-54.4163516768837
 30
0.0
 40
0.0
 41
0.0
  0
VERTEX
  5
   906
  8
0
  6
CONTINUOUS
 10
-957.418397781835
 20
-54.5508703151169
 30
0.0
 40
0.0
 41
0.0
  0
VERTEX
  5
   907
  8
0
  6
CONTINUOUS
 10
-957.437643120021
 20
-54.6877730200219
 30
0.0
 40
0.0
 41
0.0
  0
VERTEX
  5
   908
  8
0
  6
CONTINUOUS
 10
-957.454006766848
 20
-54.8267299809913
 30
0.0
 40
0.0
 41
0.0
  0
VERTEX
  5
   909
  8
0
  6
CONTINUOUS
 10
-957.467449300858
 20
-54.967406438535
 30
0.0
 40
0.0
 41
0.0
  0
VERTEX
  5
   90A
  8
0
  6
CONTINUOUS
 10
-957.47793833781
 20
-55.109463490745
 30
0.0
 40
0.0
 41
0.0
  0
VERTEX
  5
   90B
  8
0
  6
CONTINUOUS
 10
-957.485448608694
 20
-55.2525589097397
 30
0.0
 40
0.0
 41
0.0
  0
VERTEX
  5
   90C
  8
0
  6
CONTINUOUS
 10
-957.489962020609
 20
-55.3963479661212
 30
0.0
 40
0.0
 41
0.0
  0
VERTEX
  5
   90D
  8
0
  6
CONTINUOUS
 10
-957.491467700352
 20
-55.5404842594581
 30
0.0
 40
0.0
 41
0.0
  0
VERTEX
  5
   90E
  8
0
  6
CONTINUOUS
 10
-957.489962020608
 20
-55.684620552795
 30
0.0
 40
0.0
 41
0.0
  0
VERTEX
  5
   90F
  8
0
  6
CONTINUOUS
 10
-957.485448608691
 20
-55.8284096091764
 30
0.0
 40
0.0
 41
0.0
  0
VERTEX
  5
   910
  8
0
  6
CONTINUOUS
 10
-957.477938337806
 20
-55.9715050281709
 30
0.0
 40
0.0
 41
0.0
  0
VERTEX
  5
   911
  8
0
  6
CONTINUOUS
 10
-957.467449300854
 20
-56.1135620803807
 30
0.0
 40
0.0
 41
0.0
  0
VERTEX
  5
   912
  8
0
  6
CONTINUOUS
 10
-957.454006766842
 20
-56.2542385379241
 30
0.0
 40
0.0
 41
0.0
  0
VERTEX
  5
   913
  8
0
  6
CONTINUOUS
 10
-957.437643120014
 20
-56.3931954988931
 30
0.0
 40
0.0
 41
0.0
  0
VERTEX
  5
   914
  8
0
  6
CONTINUOUS
 10
-957.418397781827
 20
-56.5300982037977
 30
0.0
 40
0.0
 41
0.0
  0
VERTEX
  5
   915
  8
0
  6
CONTINUOUS
 10
-957.396317115987
 20
-56.6646168420303
 30
0.0
 40
0.0
 41
0.0
  0
VERTEX
  5
   916
  8
0
  6
CONTINUOUS
 10
-957.371454316751
 20
-56.7964273464091
 30
0.0
 40
0.0
 41
0.0
  0
VERTEX
  5
   917
  8
0
  6
CONTINUOUS
 10
-957.343869280782
 20
-56.9252121738838
 30
0.0
 40
0.0
 41
0.0
  0
VERTEX
  5
   918
  8
0
  6
CONTINUOUS
 10
-957.313628462846
 20
-57.0506610705248
 30
0.0
 40
0.0
 41
0.0
  0
VERTEX
  5
   919
  8
0
  6
CONTINUOUS
 10
-957.280804715723
 20
-57.172471818952
 30
0.0
 40
0.0
 41
0.0
  0
VERTEX
  5
   91A
  8
0
  6
CONTINUOUS
 10
-957.245477114695
 20
-57.2903509664031
 30
0.0
 40
0.0
 41
0.0
  0
VERTEX
  5
   91B
  8
0
  6
CONTINUOUS
 10
-957.207730767047
 20
-57.4040145316869
 30
0.0
 40
0.0
 41
0.0
  0
VERTEX
  5
   91C
  8
0
  6
CONTINUOUS
 10
-957.167656607037
 20
-57.5131886893188
 30
0.0
 40
0.0
 41
0.0
  0
VERTEX
  5
   91D
  8
0
  6
CONTINUOUS
 10
-957.125351176826
 20
-57.6176104291908
 30
0.0
 40
0.0
 41
0.0
  0
VERTEX
  5
   91E
  8
0
  6
CONTINUOUS
 10
-957.103393381264
 20
-57.667960065625
 30
0.0
 40
0.0
 41
0.0
  0
VERTEX
  5
   91F
  8
0
  6
CONTINUOUS
 10
-957.080916393901
 20
-57.717028190185
 30
0.0
 40
0.0
 41
0.0
  0
VERTEX
  5
   920
  8
0
  6
CONTINUOUS
 10
-957.057933754035
 20
-57.7647852460673
 30
0.0
 40
0.0
 41
0.0
  0
VERTEX
  5
   921
  8
0
  6
CONTINUOUS
 10
-957.034459305547
 20
-57.8112024662073
 30
0.0
 40
0.0
 41
0.0
  0
VERTEX
  5
   922
  8
0
  6
CONTINUOUS
 10
-957.010507188568
 20
-57.8562518906071
 30
0.0
 40
0.0
 41
0.0
  0
VERTEX
  5
   923
  8
0
  6
CONTINUOUS
 10
-956.986091830957
 20
-57.8999063831781
 30
0.0
 40
0.0
 41
0.0
  0
VERTEX
  5
   924
  8
0
  6
CONTINUOUS
 10
-956.961227939614
 20
-57.9421396480862
 30
0.0
 40
0.0
 41
0.0
  0
VERTEX
  5
   925
  8
0
  6
CONTINUOUS
 10
-956.935930491616
 20
-57.9829262455918
 30
0.0
 40
0.0
 41
0.0
  0
VERTEX
  5
   926
  8
0
  6
CONTINUOUS
 10
-956.9102147252
 20
-58.0222416073738
 30
0.0
 40
0.0
 41
0.0
  0
VERTEX
  5
   927
  8
0
  6
CONTINUOUS
 10
-956.884096130582
 20
-58.0600620513283
 30
0.0
 40
0.0
 41
0.0
  0
VERTEX
  5
   928
  8
0
  6
CONTINUOUS
 10
-956.857590440628
 20
-58.096364795834
 30
0.0
 40
0.0
 41
0.0
  0
VERTEX
  5
   929
  8
0
  6
CONTINUOUS
 10
-956.830713621373
 20
-58.1311279734751
 30
0.0
 40
0.0
 41
0.0
  0
VERTEX
  5
   92A
  8
0
  6
CONTINUOUS
 10
-956.803481862409
 20
-58.1643306442133
 30
0.0
 40
0.0
 41
0.0
  0
VERTEX
  5
   92B
  8
0
  6
CONTINUOUS
 10
-956.775911567128
 20
-58.1959528080012
 30
0.0
 40
0.0
 41
0.0
  0
VERTEX
  5
   92C
  8
0
  6
CONTINUOUS
 10
-956.748019342846
 20
-58.2259754168299
 30
0.0
 40
0.0
 41
0.0
  0
VERTEX
  5
   92D
  8
0
  6
CONTINUOUS
 10
-956.719821990796
 20
-58.2543803862023
 30
0.0
 40
0.0
 41
0.0
  0
VERTEX
  5
   92E
  8
0
  6
CONTINUOUS
 10
-956.691336496008
 20
-58.2811506060271
 30
0.0
 40
0.0
 41
0.0
  0
VERTEX
  5
   92F
  8
0
  6
CONTINUOUS
 10
-956.66258001708
 20
-58.3062699509248
 30
0.0
 40
0.0
 41
0.0
  0
VERTEX
  5
   930
  8
0
  6
CONTINUOUS
 10
-956.633569875838
 20
-58.3297232899413
 30
0.0
 40
0.0
 41
0.0
  0
VERTEX
  5
   931
  8
0
  6
CONTINUOUS
 10
-956.604323546907
 20
-58.3514964956623
 30
0.0
 40
0.0
 41
0.0
  0
VERTEX
  5
   932
  8
0
  6
CONTINUOUS
 10
-956.574858647183
 20
-58.3715764527226
 30
0.0
 40
0.0
 41
0.0
  0
VERTEX
  5
   933
  8
0
  6
CONTINUOUS
 10
-956.545192925218
 20
-58.3899510657071
 30
0.0
 40
0.0
 41
0.0
  0
VERTEX
  5
   934
  8
0
  6
CONTINUOUS
 10
-956.515344250535
 20
-58.4066092664359
 30
0.0
 40
0.0
 41
0.0
  0
VERTEX
  5
   935
  8
0
  6
CONTINUOUS
 10
-956.485330602859
 20
-58.4215410206318
 30
0.0
 40
0.0
 41
0.0
  0
VERTEX
  5
   936
  8
0
  6
CONTINUOUS
 10
-956.455170061289
 20
-58.4347373339644
 30
0.0
 40
0.0
 41
0.0
  0
VERTEX
  5
   937
  8
0
  6
CONTINUOUS
 10
-956.424880793408
 20
-58.446190257468
 30
0.0
 40
0.0
 41
0.0
  0
VERTEX
  5
   938
  8
0
  6
CONTINUOUS
 10
-956.394481044338
 20
-58.4558928923298
 30
0.0
 40
0.0
 41
0.0
  0
VERTEX
  5
   939
  8
0
  6
CONTINUOUS
 10
-956.363989125751
 20
-58.4638393940452
 30
0.0
 40
0.0
 41
0.0
  0
VERTEX
  5
   93A
  8
0
  6
CONTINUOUS
 10
-956.333423404838
 20
-58.4700249759389
 30
0.0
 40
0.0
 41
0.0
  0
VERTEX
  5
   93B
  8
0
  6
CONTINUOUS
 10
-956.302802293248
 20
-58.4744459120475
 30
0.0
 40
0.0
 41
0.0
  0
VERTEX
  5
   93C
  8
0
  6
CONTINUOUS
 10
-956.272144235992
 20
-58.4770995393644
 30
0.0
 40
0.0
 41
0.0
  0
VERTEX
  5
   93D
  8
0
  6
CONTINUOUS
 10
-956.241467700339
 20
-58.4779842594439
 30
0.0
 40
0.0
 41
0.0
  0
SEQEND
  5
   93E
  8
0
  6
CONTINUOUS
 62
   218
  0
INSERT
  5
   93F
  8
0
  6
CONTINUOUS
 62
   218
  2
*HATCH1121
 10
-949.991455078125
 20
-45.4714965820313
 30
0.0
 41
0.5
 42
0.5
 50
89.9999999480344
 43
0.5
  0
LINE
  5
   940
  8
0
  6
CONTINUOUS
 62
    98
 10
-899.86646270752
 20
-77.8529263305841
 30
0.0
 11
-948.991455078125
 21
-77.8529263305841
 31
0.0
  0
LINE
  5
   941
  8
0
  6
CONTINUOUS
 62
    98
 10
-948.991455078125
 20
-77.8529263305841
 30
0.0
 11
-948.991455078125
 21
-64.3529842594439
 31
0.0
  0
ARC
  5
   942
  8
0
  6
CONTINUOUS
 62
    98
 10
-899.86646270752
 20
-77.2279263305841
 30
0.0
 40
0.625
 50
269.999999948034
 51
359.999999948034
  0
LINE
  5
   943
  8
0
  6
CONTINUOUS
 62
    98
 10
-899.24146270752
 20
-77.2279263305841
 30
0.0
 11
-899.24146270752
 21
-57.3529263305841
 31
0.0
  0
LINE
  5
   944
  8
0
  6
CONTINUOUS
 62
    98
 10
-899.24146270752
 20
-57.3529263305841
 30
0.0
 11
-899.24146270752
 21
-43.3529263305841
 31
0.0
  0
LINE
  5
   945
  8
0
  6
CONTINUOUS
 62
    98
 10
-899.24146270752
 20
-43.3529263305841
 30
0.0
 11
-899.74146270752
 21
-43.3529263305841
 31
0.0
  0
LINE
  5
   946
  8
0
  6
CONTINUOUS
 62
    98
 10
-899.74146270752
 20
-42.8529263305841
 30
0.0
 11
-900.741458892822
 21
-42.8529263305841
 31
0.0
  0
LINE
  5
   947
  8
0
  6
CONTINUOUS
 62
    98
 10
-899.74146270752
 20
-43.3529263305841
 30
0.0
 11
-899.74146270752
 21
-42.8529263305841
 31
0.0
  0
LINE
  5
   948
  8
0
  6
CONTINUOUS
 62
    98
 10
-900.491455078125
 20
-56.202926330584
 30
0.0
 11
-900.491455078125
 21
-42.8529263305841
 31
0.0
  0
LINE
  5
   949
  8
0
  6
CONTINUOUS
 62
    98
 10
-900.491455078125
 20
-54.6375664683726
 30
0.0
 11
-900.491455078125
 21
-51.8529263305841
 31
0.0
  0
LINE
  5
   94A
  8
0
  6
CONTINUOUS
 62
    98
 10
-900.491455078125
 20
-66.7029263305841
 30
0.0
 11
-911.74146270752
 21
-66.7029263305841
 31
0.0
  0
LINE
  5
   94B
  8
0
  6
CONTINUOUS
 62
    98
 10
-900.491455078125
 20
-57.2029263305841
 30
0.0
 11
-911.74146270752
 21
-57.2029263305841
 31
0.0
  0
LINE
  5
   94C
  8
0
  6
CONTINUOUS
 62
    98
 10
-900.491455078125
 20
-67.7029263305841
 30
0.0
 11
-910.49146270752
 21
-67.7029263305841
 31
0.0
  0
LINE
  5
   94D
  8
0
  6
CONTINUOUS
 62
    98
 10
-900.491455078125
 20
-56.2029263305841
 30
0.0
 11
-910.49146270752
 21
-56.2029263305841
 31
0.0
  0
LINE
  5
   94E
  8
0
  6
CONTINUOUS
 62
     1
 10
-910.49146270752
 20
-56.202926330584
 30
0.0
 11
-910.49146270752
 21
-55.2029263305841
 31
0.0
  0
LINE
  5
   94F
  8
0
  6
CONTINUOUS
 62
    98
 10
-910.49146270752
 20
-77.8529263305841
 30
0.0
 11
-910.49146270752
 21
-67.7029263305841
 31
0.0
  0
LINE
  5
   950
  8
0
  6
CONTINUOUS
 62
    98
 10
-900.491455078125
 20
-77.8529263305841
 30
0.0
 11
-900.491455078125
 21
-67.7029263305841
 31
0.0
  0
LINE
  5
   951
  8
0
  6
CONTINUOUS
 62
    98
 10
-900.491455078125
 20
-66.7029263305841
 30
0.0
 11
-900.491455078125
 21
-57.2029263305841
 31
0.0
  0
LINE
  5
   952
  8
0
  6
CONTINUOUS
 62
    98
 10
-911.74146270752
 20
-76.8529263305841
 30
0.0
 11
-948.991455078125
 21
-76.8529263305841
 31
0.0
  0
LINE
  5
   953
  8
0
  6
CONTINUOUS
 62
    98
 10
-911.74146270752
 20
-75.8529263305841
 30
0.0
 11
-948.991455078125
 21
-75.8529263305841
 31
0.0
  0
LINE
  5
   954
  8
0
  6
CONTINUOUS
 62
    98
 10
-911.74146270752
 20
-74.8529263305841
 30
0.0
 11
-948.991455078125
 21
-74.8529263305841
 31
0.0
  0
LINE
  5
   955
  8
0
  6
CONTINUOUS
 62
    98
 10
-910.49146270752
 20
-55.2029263305841
 30
0.0
 11
-927.491467700352
 21
-55.2029263305841
 31
0.0
  0
LINE
  5
   956
  8
0
  6
CONTINUOUS
 62
    98
 10
-911.74146270752
 20
-56.2029263305841
 30
0.0
 11
-927.491467700352
 21
-56.2029263305841
 31
0.0
  0
LINE
  5
   957
  8
0
  6
CONTINUOUS
 62
    98
 10
-911.74146270752
 20
-77.8529263305841
 30
0.0
 11
-911.74146270752
 21
-56.202926330584
 31
0.0
  0
LINE
  5
   958
  8
0
  6
CONTINUOUS
 62
     1
 10
-917.74146270752
 20
-56.202926330584
 30
0.0
 11
-917.74146270752
 21
-55.2029263305841
 31
0.0
  0
INSERT
  5
   959
  8
0
  6
CONTINUOUS
 62
    98
  2
*HATCH1122
 10
-949.991455078125
 20
-45.4714965820313
 30
0.0
 41
0.5
 42
0.5
 50
89.9999999480344
 43
0.5
  0
LINE
  5
   95A
  8
0
  6
DASHDOT
 62
     7
 10
-949.991455078125
 20
-90.1792471111691
 30
0.0
 11
-949.991455078125
 21
-64.3529842594439
 31
0.0
  0
LINE
  5
   95B
  8
0
  6
DASHDOT
 62
     7
 10
-951.491455078125
 20
-90.2549100471267
 30
0.0
 11
-951.491455078125
 21
-64.3529842594439
 31
0.0
  0
LINE
  5
   95C
  8
0
  6
CONTINUOUS
 62
     7
 10
-947.355341135027
 20
-90.1792471111691
 30
0.0
 11
-953.559701883552
 21
-90.1035841752115
 31
0.0
  0
CIRCLE
  5
   95D
  8
0
  6
CONTINUOUS
 62
    56
 10
-921.836316640475
 20
68.0393534945929
 30
0.0
 40
0.15
  0
CIRCLE
  5
   95E
  8
0
  6
CONTINUOUS
 62
    56
 10
-935.472710609004
 20
-66.4016931768315
 30
0.0
 40
0.15
  0
INSERT
  5
   95F
  8
0
  6
CONTINUOUS
 62
     7
  2
*UDIM1606
 10
0.0
 20
0.0
 30
0.0
  0
INSERT
  5
   960
  8
0
  6
CONTINUOUS
 62
     7
  2
*UDIM1607
 10
0.0
 20
0.0
 30
0.0
  0
INSERT
  5
   961
  8
0
  6
CONTINUOUS
 62
     7
  2
*UDIM1608
 10
0.0
 20
0.0
 30
0.0
  0
TEXT
  5
   962
  8
0
  6
CONTINUOUS
 62
     7
 10
-868.035675063523
 20
-9.33727072364845
 30
0.0
 40
3.00000002980232
  1
=          =
 50
89.9999999480344
 41
0.916666604744064
 72
     2
 11
-868.035675034133
 21
23.1127274022822
 31
0.0
  0
INSERT
  5
   963
  8
0
  6
CONTINUOUS
 62
     7
  2
*UDIM1609
 10
0.0
 20
0.0
 30
0.0
  0
INSERT
  5
   964
  8
0
  6
CONTINUOUS
 62
     7
  2
*UDIM1610
 10
0.0
 20
0.0
 30
0.0
  0
INSERT
  5
   965
  8
0
  6
CONTINUOUS
 62
     7
  2
*UDIM1611
 10
0.0
 20
0.0
 30
0.0
  0
INSERT
  5
   966
  8
0
  6
CONTINUOUS
 62
     7
  2
*UDIM1612
 10
0.0
 20
0.0
 30
0.0
  0
INSERT
  5
   967
  8
0
  6
CONTINUOUS
 62
     7
  2
*UDIM1613
 10
0.0
 20
0.0
 30
0.0
  0
INSERT
  5
   968
  8
0
  6
CONTINUOUS
 62
     7
  2
*UDIM1614
 10
0.0
 20
0.0
 30
0.0
  0
INSERT
  5
   969
  8
0
  6
CONTINUOUS
 62
     7
  2
*UDIM1615
 10
0.0
 20
0.0
 30
0.0
  0
INSERT
  5
   96A
  8
0
  6
CONTINUOUS
 62
     7
  2
*UDIM1616
 10
0.0
 20
0.0
 30
0.0
  0
INSERT
  5
   96B
  8
0
  6
CONTINUOUS
 62
     7
  2
*UDIM1617
 10
0.0
 20
0.0
 30
0.0
  0
INSERT
  5
   96C
  8
0
  6
CONTINUOUS
 62
     7
  2
*UDIM1618
 10
0.0
 20
0.0
 30
0.0
  0
TEXT
  5
   96D
  8
0
  6
CONTINUOUS
 62
     7
 10
-862.75911703841
 20
8.29353001783051
 30
0.0
 40
3.00000002980232
  1
X
 50
359.999999948034
 41
0.916666604744064
 72
     1
 11
-861.659117102623
 21
9.79353003173954
 31
0.0
 73
     2
  0
LINE
  5
   96E
  8
0
  6
DASHDOT
 62
     7
 10
-1030.86217124002
 20
-102.09544493258
 30
0.0
 11
-1050.96533755889
 21
-102.09544493258
 31
0.0
  0
LINE
  5
   96F
  8
0
  6
DASHDOT
 62
     7
 10
-1030.86217124002
 20
-144.89544557035
 30
0.0
 11
-1053.46471326324
 21
-144.89544557035
 31
0.0
  0
LINE
  5
   970
  8
0
  6
DASHDOT
 62
     7
 10
-1038.01110839844
 20
-88.2170772545688
 30
0.0
 11
-1038.01110839844
 21
-159.256236441116
 31
0.0
  0
CIRCLE
  5
   971
  8
0
  6
CONTINUOUS
 62
     7
 10
-1033.63610833325
 20
-102.09544493258
 30
0.0
 40
0.550000008195639
  0
LINE
  5
   972
  8
0
  6
DASHDOT
 62
     7
 10
-1033.63610833325
 20
-96.6684499437917
 30
0.0
 11
-1033.63610833325
 21
-106.914291778891
 31
0.0
  0
CIRCLE
  5
   973
  8
0
  6
CONTINUOUS
 62
     7
 10
-1033.63610833325
 20
-144.89544557035
 30
0.0
 40
0.550000008195639
  0
LINE
  5
   974
  8
0
  6
DASHDOT
 62
     7
 10
-1051.13610859402
 20
-96.6684499437917
 30
0.0
 11
-1051.13610859402
 21
-107.098803764329
 31
0.0
  0
CIRCLE
  5
   975
  8
0
  6
CONTINUOUS
 62
     7
 10
-1051.13610859402
 20
-102.09544493258
 30
0.0
 40
0.550000008195639
  0
CIRCLE
  5
   976
  8
0
  6
CONTINUOUS
 62
     7
 10
-1051.13610859402
 20
-144.89544557035
 30
0.0
 40
0.550000008195639
  0
LINE
  5
   977
  8
0
  6
DASHDOT
 62
     7
 10
-1015.6779278379
 20
-123.145445246249
 30
0.0
 11
-1067.29790217022
 21
-123.145445246249
 31
0.0
  0
ARC
  5
   978
  8
0
  6
CONTINUOUS
 62
     7
 10
-1055.51110865921
 20
-96.2954448461533
 30
0.0
 40
4.00000005960464
 50
449.999999896069
 51
629.999999896069
  0
ARC
  5
   979
  8
0
  6
CONTINUOUS
 62
     7
 10
-1029.26110826805
 20
-96.2954448461533
 30
0.0
 40
4.00000005960464
 50
269.999999896069
 51
449.999999896069
  0
ARC
  5
   97A
  8
0
  6
CONTINUOUS
 62
     7
 10
-1029.26110826805
 20
-150.695445656776
 30
0.0
 40
4.00000005960464
 50
269.999999896069
 51
449.999999896069
  0
ARC
  5
   97B
  8
0
  6
CONTINUOUS
 62
     7
 10
-1055.51110865921
 20
-150.695445656776
 30
0.0
 40
4.00000005960464
 50
449.999999896069
 51
629.999999896069
  0
LINE
  5
   97C
  8
0
  6
CONTINUOUS
 62
     7
 10
-1029.26110826805
 20
-92.2954447865486
 30
0.0
 11
-1055.51110865921
 21
-92.2954447865486
 31
0.0
  0
LINE
  5
   97D
  8
0
  6
CONTINUOUS
 62
     7
 10
-1029.26110826805
 20
-100.295444905758
 30
0.0
 11
-1055.51110865921
 21
-100.295444905758
 31
0.0
  0
LINE
  5
   97E
  8
0
  6
CONTINUOUS
 62
     7
 10
-1029.26110826805
 20
-146.695445597172
 30
0.0
 11
-1055.51110865921
 21
-146.695445597172
 31
0.0
  0
LINE
  5
   97F
  8
0
  6
CONTINUOUS
 62
     7
 10
-1029.26110826805
 20
-154.695445716381
 30
0.0
 11
-1055.51110865921
 21
-154.695445716381
 31
0.0
  0
LINE
  5
   980
  8
0
  6
CONTINUOUS
 62
     7
 10
-1022.43612390504
 20
-90.1852050992343
 30
0.0
 11
-1062.04469677894
 21
-90.1852050992343
 31
0.0
  0
LINE
  5
   981
  8
0
  6
CONTINUOUS
 62
     7
 10
-1022.43612390504
 20
-157.101551817862
 30
0.0
 11
-1062.22920876438
 21
-157.101551817862
 31
0.0
  0
LINE
  5
   982
  8
0
  6
CONTINUOUS
 62
     7
 10
-1062.04469677894
 20
-90.1852050992343
 30
0.0
 11
-1062.04469677894
 21
-157.101551817862
 31
0.0
  0
LINE
  5
   983
  8
0
  6
CONTINUOUS
 62
     7
 10
-1022.43612390504
 20
-90.1852050992343
 30
0.0
 11
-1022.43612390504
 21
-157.101551817862
 31
0.0
  0
LINE
  5
   984
  8
0
  6
DASHDOT
 62
     7
 10
-1029.26110826805
 20
-91.6954447776079
 30
0.0
 11
-1029.26110826805
 21
-100.895444914699
 31
0.0
  0
LINE
  5
   985
  8
0
  6
DASHDOT
 62
     7
 10
-1024.66110819951
 20
-96.2954448461533
 30
0.0
 11
-1033.8611083366
 21
-96.2954448461533
 31
0.0
  0
LINE
  5
   986
  8
0
  6
DASHDOT
 62
     7
 10
-1055.51110865921
 20
-91.6954447776079
 30
0.0
 11
-1055.51110865921
 21
-100.895444914699
 31
0.0
  0
LINE
  5
   987
  8
0
  6
DASHDOT
 62
     7
 10
-1050.91110859066
 20
-96.2954448461533
 30
0.0
 11
-1060.11110872775
 21
-96.2954448461533
 31
0.0
  0
LINE
  5
   988
  8
0
  6
DASHDOT
 62
     7
 10
-1055.51110865921
 20
-146.095445588231
 30
0.0
 11
-1055.51110865921
 21
-155.295445725322
 31
0.0
  0
LINE
  5
   989
  8
0
  6
DASHDOT
 62
     7
 10
-1050.91110859066
 20
-150.695445656776
 30
0.0
 11
-1060.11110872775
 21
-150.695445656776
 31
0.0
  0
LINE
  5
   98A
  8
0
  6
DASHDOT
 62
     7
 10
-1029.26110826805
 20
-146.095445588231
 30
0.0
 11
-1029.26110826805
 21
-155.295445725322
 31
0.0
  0
LINE
  5
   98B
  8
0
  6
DASHDOT
 62
     7
 10
-1024.66110819951
 20
-150.695445656776
 30
0.0
 11
-1033.8611083366
 21
-150.695445656776
 31
0.0
  0
LINE
  5
   98C
  8
0
  6
DASHDOT
 62
     7
 10
-1033.63610833325
 20
-141.541041045975
 30
0.0
 11
-1033.63610833325
 21
-147.769138752128
 31
0.0
  0
LINE
  5
   98D
  8
0
  6
DASHDOT
 62
     7
 10
-1051.13610859402
 20
-140.987505089663
 30
0.0
 11
-1051.13610859402
 21
-153.628367728834
 31
0.0
  0
CIRCLE
  5
   98E
  8
0
  6
CONTINUOUS
 62
     7
 10
-1027.41794751185
 20
-107.467827735203
 30
0.0
 40
6.00000008940697E-2
  0
INSERT
  5
   98F
  8
0
  6
CONTINUOUS
 62
     7
  2
*UDIM1619
 10
0.0
 20
0.0
 30
0.0
  0
INSERT
  5
   990
  8
0
  6
CONTINUOUS
 62
     7
  2
*UDIM1620
 10
0.0
 20
0.0
 30
0.0
  0
INSERT
  5
   991
  8
0
  6
CONTINUOUS
 62
     7
  2
*UDIM1621
 10
0.0
 20
0.0
 30
0.0
  0
INSERT
  5
   992
  8
0
  6
CONTINUOUS
 62
     7
  2
*UDIM1622
 10
0.0
 20
0.0
 30
0.0
  0
TEXT
  5
   993
  8
0
  6
CONTINUOUS
 62
     7
 10
-1039.45504956657
 20
-87.2945159397402
 30
0.0
 40
2.99999994933605
  1
Y
 50
359.999999896069
 41
0.916666607525612
 72
     2
 11
-1037.25504974837
 21
-87.2945159437198
 31
0.0
  0
TEXT
  5
   994
  8
0
  6
CONTINUOUS
 62
     7
 10
-1013.66696436164
 20
-125.25608017485
 30
0.0
 40
2.99999994933605
  1
X
 50
359.999999896069
 41
0.916666607525612
 72
     2
 11
-1011.46696454343
 21
-125.25608017883
 31
0.0
  0
TEXT
  5
   995
  8
0
  6
CONTINUOUS
 62
     7
 10
-1038.96019393699
 20
-164.226622518862
 30
0.0
 40
2.99999994933605
  1
Y
 50
359.999999896069
 41
0.916666607525612
 72
     2
 11
-1036.76019411879
 21
-164.226622522842
 31
0.0
  0
ENDSEC
  0
EOF
