  0
SECTION
  2
HEADER
  9
$ACADVER
  1
AC1009
  9
$DWGCODEPAGE
  3
iso8859-1
  9
$INSBASE
 10
0.0
 20
0.0
 30
0.0
  9
$EXTMIN
 10
1.0E20
 20
1.0E20
  9
$EXTMAX
 10
-1.0E20
 20
-1.0E20
  9
$LIMMIN
 10
0.0
 20
0.0
  9
$LIMMAX
 10
12.0
 20
9.0
  9
$ORTHOMODE
 70
     0
  9
$REGENMODE
 70
     1
  9
$FILLMODE
 70
     1
  9
$QTEXTMODE
 70
     0
  9
$MIRRTEXT
 70
     1
  9
$DRAGMODE
 70
     2
  9
$LTSCALE
 40
15.0
  9
$OSMODE
 70
     0
  9
$ATTMODE
 70
     1
  9
$TEXTSIZE
 40
0.2
  9
$TRACEWID
 40
0.05
  9
$TEXTSTYLE
  7
STANDARD
  9
$CLAYER
  8
0
  9
$CELTYPE
  6
DASHED
  9
$CECOLOR
 62
   256
  9
$DIMSCALE
 40
1.0
  9
$DIMASZ
 40
0.18
  9
$DIMEXO
 40
0.0625
  9
$DIMDLI
 40
0.38
  9
$DIMRND
 40
0.0
  9
$DIMDLE
 40
0.0
  9
$DIMEXE
 40
0.18
  9
$DIMTP
 40
0.0
  9
$DIMTM
 40
0.0
  9
$DIMTXT
 40
0.18
  9
$DIMCEN
 40
0.09
  9
$DIMTSZ
 40
0.0
  9
$DIMTOL
 70
     0
  9
$DIMLIM
 70
     0
  9
$DIMTIH
 70
     1
  9
$DIMTOH
 70
     1
  9
$DIMSE1
 70
     0
  9
$DIMSE2
 70
     0
  9
$DIMTAD
 70
     0
  9
$DIMZIN
 70
     0
  9
$DIMBLK
  1

  9
$DIMASO
 70
     1
  9
$DIMSHO
 70
     1
  9
$DIMPOST
  1

  9
$DIMAPOST
  1

  9
$DIMALT
 70
     0
  9
$DIMALTD
 70
     2
  9
$DIMALTF
 40
25.4
  9
$DIMLFAC
 40
1.0
  9
$DIMTOFL
 70
     0
  9
$DIMTVP
 40
0.0
  9
$DIMTIX
 70
     0
  9
$DIMSOXD
 70
     0
  9
$DIMSAH
 70
     0
  9
$DIMBLK1
  1

  9
$DIMBLK2
  1

  9
$DIMSTYLE
  2
STANDARD
  9
$DIMCLRD
 70
     0
  9
$DIMCLRE
 70
     0
  9
$DIMCLRT
 70
     0
  9
$DIMTFAC
 40
1.0
  9
$DIMGAP
 40
0.09
  9
$LUNITS
 70
     2
  9
$LUPREC
 70
     4
  9
$AXISMODE
 70
     0
  9
$AXISUNIT
 10
0.0
 20
0.0
  9
$SKETCHINC
 40
0.1
  9
$FILLETRAD
 40
0.0
  9
$AUNITS
 70
     0
  9
$AUPREC
 70
     0
  9
$MENU
  1
acad
  9
$ELEVATION
 40
0.0
  9
$PELEVATION
 40
0.0
  9
$THICKNESS
 40
0.0
  9
$LIMCHECK
 70
     0
  9
$BLIPMODE
 70
     1
  9
$CHAMFERA
 40
0.0
  9
$CHAMFERB
 40
0.0
  9
$SKPOLY
 70
     0
  9
$TDCREATE
 40
0.000000000
  9
$TDUPDATE
 40
0.000000000
  9
$TDINDWG
 40
0.0
  9
$TDUSRTIMER
 40
0.0
  9
$USRTIMER
 70
     1
  9
$ANGBASE
 50
0.0
  9
$ANGDIR
 70
     0
  9
$PDMODE
 70
     0
  9
$PDSIZE
 40
0.0
  9
$PLINEWID
 40
0.0
  9
$COORDS
 70
     1
  9
$SPLFRAME
 70
     0
  9
$SPLINETYPE
 70
     6
  9
$SPLINESEGS
 70
     8
  9
$ATTDIA
 70
     0
  9
$ATTREQ
 70
     1
  9
$HANDLING
 70
     1
  9
$HANDSEED
  5
   5D7
  9
$SURFTAB1
 70
     6
  9
$SURFTAB2
 70
     6
  9
$SURFTYPE
 70
     6
  9
$SURFU
 70
     6
  9
$SURFV
 70
     6
  9
$UCSNAME
  2

  9
$UCSORG
 10
0.0
 20
0.0
 30
0.0
  9
$UCSXDIR
 10
1.0
 20
0.0
 30
0.0
  9
$UCSYDIR
 10
0.0
 20
1.0
 30
0.0
  9
$PUCSNAME
  2

  9
$PUCSORG
 10
0.0
 20
0.0
 30
0.0
  9
$PUCSXDIR
 10
1.0
 20
0.0
 30
0.0
  9
$PUCSYDIR
 10
0.0
 20
1.0
 30
0.0
  9
$USERI1
 70
     0
  9
$USERI2
 70
     0
  9
$USERI3
 70
     0
  9
$USERI4
 70
     0
  9
$USERI5
 70
     0
  9
$USERR1
 40
0.0
  9
$USERR2
 40
0.0
  9
$USERR3
 40
0.0
  9
$USERR4
 40
0.0
  9
$USERR5
 40
0.0
  9
$WORLDVIEW
 70
     1
  9
$SHADEDGE
 70
     3
  9
$SHADEDIF
 70
    70
  9
$TILEMODE
 70
     1
  9
$MAXACTVP
 70
    16
  9
$PINSBASE
 10
0.0
 20
0.0
 30
0.0
  9
$PLIMCHECK
 70
     0
  9
$PEXTMIN
 10
1.0E20
 20
1.0E20
 30
1.0E20
  9
$PEXTMAX
 10
-1.0E20
 20
-1.0E20
 30
-1.0E20
  9
$PLIMMIN
 10
0.0
 20
0.0
  9
$PLIMMAX
 10
12.0
 20
9.0
  9
$UNITMODE
 70
     0
  9
$VISRETAIN
 70
     0
  0
ENDSEC
  0
SECTION
  2
TABLES
  0
TABLE
  2
VPORT
 70
     1
  0
VPORT
  2
*ACTIVE
 70
     0
 10
0.0
 20
0.0
 11
1.0
 21
1.0
 12
6.801242
 22
4.5
 13
0.0
 23
0.0
 14
1.0
 24
1.0
 15
0.0
 25
0.0
 16
0.0
 26
0.0
 36
1.0
 17
0.0
 27
0.0
 37
0.0
 40
9.0
 41
1.511387
 42
50.0
 43
0.0
 44
0.0
 50
0.0
 51
0.0
 71
     0
 72
   100
 73
     1
 74
     1
 75
     0
 76
     0
 77
     0
 78
     0
  0
ENDTAB
  0
TABLE
  2
LTYPE
 70
    41
  0
LTYPE
  2
BYBLOCK
 70
     0
  3

 72
    65
 73
     0
 40
0.0
  0
LTYPE
  2
BYLAYER
 70
     0
  3

 72
    65
 73
     0
 40
0.0
  0
LTYPE
  2
CONTINUOUS
 70
     0
  3
Solid line
 72
    65
 73
     0
 40
0.0
  0
LTYPE
  2
BORDER
 70
    64
  3
__ __ . __ __ . __ __ . __ __ . __ __ . __ __ .
 72
    65
 73
     6
 40
1.75
 49
0.5
 49
-0.25
 49
0.5
 49
-0.25
 49
0.0
 49
-0.25
  0
LTYPE
  2
BORDER2
 70
    64
  3
__.__.__.__.__.__.__.__.__.__.__.__.__.__.__.__
 72
    65
 73
     6
 40
0.875
 49
0.25
 49
-0.125
 49
0.25
 49
-0.125
 49
0.0
 49
-0.125
  0
LTYPE
  2
BORDERX2
 70
    64
  3
____  ____  .  ____  ____  .  ____  ____  .  __
 72
    65
 73
     6
 40
3.5
 49
1.0
 49
-0.5
 49
1.0
 49
-0.5
 49
0.0
 49
-0.5
  0
LTYPE
  2
CENTER
 70
    64
  3
____ _ ____ _ ____ _ ____ _ ____ _ ____ _ ____
 72
    65
 73
     4
 40
2.0
 49
1.25
 49
-0.25
 49
0.25
 49
-0.25
  0
LTYPE
  2
CENTER2
 70
    64
  3
___ _ ___ _ ___ _ ___ _ ___ _ ___ _ ___ _ ___ _
 72
    65
 73
     4
 40
1.125
 49
0.75
 49
-0.125
 49
0.125
 49
-0.125
  0
LTYPE
  2
CENTERX2
 70
    64
  3
________  __  ________  __  ________  __  _____
 72
    65
 73
     4
 40
4.0
 49
2.5
 49
-0.5
 49
0.5
 49
-0.5
  0
LTYPE
  2
DASHDOT
 70
    64
  3
__ . __ . __ . __ . __ . __ . __ . __ . __ . __
 72
    65
 73
     4
 40
1.0
 49
0.5
 49
-0.25
 49
0.0
 49
-0.25
  0
LTYPE
  2
DASHDOT2
 70
    64
  3
_._._._._._._._._._._._._._._._._._._._._._._._
 72
    65
 73
     4
 40
0.5
 49
0.25
 49
-0.125
 49
0.0
 49
-0.125
  0
LTYPE
  2
DASHDOTX2
 70
    64
  3
____  .  ____  .  ____  .  ____  .  ____  .  __
 72
    65
 73
     4
 40
2.0
 49
1.0
 49
-0.5
 49
0.0
 49
-0.5
  0
LTYPE
  2
DASHED
 70
    64
  3
__ __ __ __ __ __ __ __ __ __ __ __ __ __ __ __
 72
    65
 73
     2
 40
0.75
 49
0.5
 49
-0.25
  0
LTYPE
  2
DASHED2
 70
    64
  3
_ _ _ _ _ _ _ _ _ _ _ _ _ _ _ _ _ _ _ _ _ _ _ _
 72
    65
 73
     2
 40
0.375
 49
0.25
 49
-0.125
  0
LTYPE
  2
DASHEDX2
 70
    64
  3
____  ____  ____  ____  ____  ____  ____  ____
 72
    65
 73
     2
 40
1.5
 49
1.0
 49
-0.5
  0
LTYPE
  2
DIVIDE
 70
    64
  3
____ . . ____ . . ____ . . ____ . . ____ . . __
 72
    65
 73
     6
 40
1.25
 49
0.5
 49
-0.25
 49
0.0
 49
-0.25
 49
0.0
 49
-0.25
  0
LTYPE
  2
DIVIDE2
 70
    64
  3
__..__..__..__..__..__..__..__..__..__..__..__.
 72
    65
 73
     6
 40
0.625
 49
0.25
 49
-0.125
 49
0.0
 49
-0.125
 49
0.0
 49
-0.125
  0
LTYPE
  2
DIVIDEX2
 70
    64
  3
________  .  .  ________  .  .  ________  .  .
 72
    65
 73
     6
 40
2.5
 49
1.0
 49
-0.5
 49
0.0
 49
-0.5
 49
0.0
 49
-0.5
  0
LTYPE
  2
DOT
 70
    64
  3
. . . . . . . . . . . . . . . . . . . . . . . .
 72
    65
 73
     2
 40
0.25
 49
0.0
 49
-0.25
  0
LTYPE
  2
DOT2
 70
    64
  3
...............................................
 72
    65
 73
     2
 40
0.125
 49
0.0
 49
-0.125
  0
LTYPE
  2
DOTX2
 70
    64
  3
.  .  .  .  .  .  .  .  .  .  .  .  .  .  .  .
 72
    65
 73
     2
 40
0.5
 49
0.0
 49
-0.5
  0
LTYPE
  2
HIDDEN
 70
    64
  3
__ __ __ __ __ __ __ __ __ __ __ __ __ __ __ __
 72
    65
 73
     2
 40
0.375
 49
0.25
 49
-0.125
  0
LTYPE
  2
HIDDEN2
 70
    64
  3
_ _ _ _ _ _ _ _ _ _ _ _ _ _ _ _ _ _ _ _ _ _ _ _
 72
    65
 73
     2
 40
0.1875
 49
0.125
 49
-0.0625
  0
LTYPE
  2
HIDDENX2
 70
    64
  3
____ ____ ____ ____ ____ ____ ____ ____ ____ __
 72
    65
 73
     2
 40
0.75
 49
0.5
 49
-0.25
  0
LTYPE
  2
PHANTOM
 70
    64
  3
______  __  __  ______  __  __  ______  __  __
 72
    65
 73
     6
 40
2.5
 49
1.25
 49
-0.25
 49
0.25
 49
-0.25
 49
0.25
 49
-0.25
  0
LTYPE
  2
PHANTOM2
 70
    64
  3
___ _ _ ___ _ _ ___ _ _ ___ _ _ ___ _ _ ___ _ _
 72
    65
 73
     6
 40
1.25
 49
0.625
 49
-0.125
 49
0.125
 49
-0.125
 49
0.125
 49
-0.125
  0
LTYPE
  2
PHANTOMX2
 70
    64
  3
____________    ____    ____    ____________
 72
    65
 73
     6
 40
5.0
 49
2.5
 49
-0.5
 49
0.5
 49
-0.5
 49
0.5
 49
-0.5
  0
LTYPE
  2
ACAD_ISO02W100
 70
    64
  3
__ __ __ __ __ __ __ __ __ __ __ __ __ __ __ __
 72
    65
 73
     2
 40
15.0
 49
12.0
 49
-3.0
  0
LTYPE
  2
ACAD_ISO03W100
 70
    64
  3
__    __    __    __    __    __    __    __
 72
    65
 73
     2
 40
30.0
 49
12.0
 49
-18.0
  0
LTYPE
  2
ACAD_ISO04W100
 70
    64
  3
____ . ____ . ____ . ____ . ____ . ____ . ____
 72
    65
 73
     4
 40
30.5
 49
24.0
 49
-3.0
 49
0.5
 49
-3.0
  0
LTYPE
  2
ACAD_ISO05W100
 70
    64
  3
____ .. ____ .. ____ .. ____ .. ____ .. ____ ..
 72
    65
 73
     6
 40
34.0
 49
24.0
 49
-3.0
 49
0.5
 49
-3.0
 49
0.5
 49
-3.0
  0
LTYPE
  2
ACAD_ISO06W100
 70
    64
  3
____ ... ____ ... ____ ... ____ ... ____ ... __
 72
    65
 73
     8
 40
37.5
 49
24.0
 49
-3.0
 49
0.5
 49
-3.0
 49
0.5
 49
-3.0
 49
0.5
 49
-3.0
  0
LTYPE
  2
ACAD_ISO07W100
 70
    64
  3
. . . . . . . . . . . . . . . . . . . . . . . .
 72
    65
 73
     2
 40
3.5
 49
0.5
 49
-3.0
  0
LTYPE
  2
ACAD_ISO08W100
 70
    64
  3
____ __ ____ __ ____ __ ____ ____ __ __ ____ __
 72
    65
 73
     4
 40
36.0
 49
24.0
 49
-3.0
 49
6.0
 49
-3.0
  0
LTYPE
  2
ACAD_ISO09W100
 70
    64
  3
____ __ __ ____ __ __ ____ __ __ ____ __ __ ___
 72
    65
 73
     6
 40
45.0
 49
24.0
 49
-3.0
 49
6.0
 49
-3.0
 49
6.0
 49
-3.0
  0
LTYPE
  2
ACAD_ISO10W100
 70
    64
  3
__ . __ . __ . __ . __ . __ . __ . __ . __ . __
 72
    65
 73
     4
 40
18.5
 49
12.0
 49
-3.0
 49
0.5
 49
-3.0
  0
LTYPE
  2
ACAD_ISO11W100
 70
    64
  3
__ __ . __ __ . __ __ . __ __ . __ __ . __ __ .
 72
    65
 73
     6
 40
33.5
 49
12.0
 49
-3.0
 49
12.0
 49
-3.0
 49
0.5
 49
-3.0
  0
LTYPE
  2
ACAD_ISO12W100
 70
    64
  3
__ . . __ . . __ . . __ . . __ . . __ . . __ .
 72
    65
 73
     6
 40
22.0
 49
12.0
 49
-3.0
 49
0.5
 49
-3.0
 49
0.5
 49
-3.0
  0
LTYPE
  2
ACAD_ISO13W100
 70
    64
  3
__ __ . . __ __ . . __ __ . . __ __ . . __ __ .
 72
    65
 73
     8
 40
37.0
 49
12.0
 49
-3.0
 49
12.0
 49
-3.0
 49
0.5
 49
-3.0
 49
0.5
 49
-3.0
  0
LTYPE
  2
ACAD_ISO14W100
 70
    64
  3
__ . . . __ . . . __ . . . __ . . . __ . . . __
 72
    65
 73
     8
 40
25.5
 49
12.0
 49
-3.0
 49
0.5
 49
-3.0
 49
0.5
 49
-3.0
 49
0.5
 49
-3.0
  0
LTYPE
  2
ACAD_ISO15W100
 70
    64
  3
__ __ . . . __ __ . . . __ __ . . . __ __ . . .
 72
    65
 73
    10
 40
40.5
 49
12.0
 49
-3.0
 49
12.0
 49
-3.0
 49
0.5
 49
-3.0
 49
0.5
 49
-3.0
 49
0.5
 49
-3.0
  0
ENDTAB
  0
TABLE
  2
STYLE
 70
     4
  0
STYLE
  2
STANDARD
 70
    64
 40
0.0
 41
1.0
 50
0.0
 71
     0
 42
0.2
  3
txt
  4

  0
STYLE
  2
TOLERANCE
 70
    64
 40
0.0
 41
1.0
 50
0.0
 71
     0
 42
0.2
  3
../igesfont/iges1003.shx
  4

  0
STYLE
  2
ROMANS
 70
    64
 40
0.0
 41
1.0
 50
0.0
 71
     0
 42
0.2
  3
romans.shx
  4

  0
STYLE
  2
ROMANC
 70
    64
 40
0.0
 41
1.0
 50
0.0
 71
     0
 42
0.2
  3
romanc.shx
  4

  0
ENDTAB
  0
TABLE
  2
DIMSTYLE
 70
     2
  0
DIMSTYLE
  2
UNNAMED
 70
     0
  3

  4

  5

  6

  7

 40
1.0
 41
0.18
 42
0.0625
 43
0.38
 44
0.18
 45
0.0
 46
0.0
 47
0.0
 48
0.0
140
0.18
141
0.09
142
0.0
143
25.4
144
1.0
145
0.0
146
1.0
147
0.09
 71
     0
 72
     0
 73
     1
 74
     1
 75
     0
 76
     0
 77
     0
 78
     0
170
     0
171
     2
172
     0
173
     0
174
     0
175
     0
176
     0
177
     0
178
     0
  0
DIMSTYLE
  2
STANDARD
 70
     0
  3

  4

  5

  6

  7

 40
1.0
 41
0.18
 42
0.0625
 43
0.38
 44
0.18
 45
0.0
 46
0.0
 47
0.0
 48
0.0
140
0.18
141
0.09
142
0.0
143
25.4
144
1.0
145
0.0
146
1.0
147
0.09
 71
     0
 72
     0
 73
     1
 74
     1
 75
     0
 76
     0
 77
     0
 78
     0
170
     0
171
     2
172
     0
173
     0
174
     0
175
     0
176
     0
177
     0
178
     0
  0
ENDTAB
  0
TABLE
  2
LAYER
 70
     2
  0
LAYER
  2
0
 70
     0
 62
     7
  6
CONTINUOUS
  0
LAYER
  2
255
 70
     0
 62
     7
  6
CONTINUOUS
  0
ENDTAB
  0
ENDSEC
  0
SECTION
  2
BLOCKS
  0
BLOCK
  5
     B
  8
0
  6
CONTINUOUS
 62
     7
  2
MOSTRINA
 70
    64
 10
0.0
 20
0.0
 30
0.0
  3
MOSTRINA
  0
LINE
  5
     C
  8
0
  6
CONTINUOUS
 62
     3
 10
173.338256835938
 20
30.7306251525879
 30
0.0
 11
173.338256835938
 21
189.230621337891
 31
0.0
  0
LINE
  5
     D
  8
0
  6
CONTINUOUS
 62
     3
 10
57.5882568359375
 20
29.4806251525879
 30
0.0
 11
172.088256835938
 21
29.4806251525879
 31
0.0
  0
LINE
  5
     E
  8
0
  6
CONTINUOUS
 62
     3
 10
56.3382568359375
 20
30.7306251525879
 30
0.0
 11
56.3382568359375
 21
189.230621337891
 31
0.0
  0
LINE
  5
     F
  8
0
  6
CONTINUOUS
 62
     3
 10
57.5882568359375
 20
190.480621337891
 30
0.0
 11
172.088256835938
 21
190.480621337891
 31
0.0
  0
LINE
  5
    10
  8
0
  6
CONTINUOUS
 62
     3
 10
167.838256835938
 20
56.9806251525879
 30
0.0
 11
167.838256835938
 21
162.980625152588
 31
0.0
  0
LINE
  5
    11
  8
0
  6
CONTINUOUS
 62
     3
 10
61.8382568359375
 20
56.9806251525879
 30
0.0
 11
167.838256835938
 21
56.9806251525879
 31
0.0
  0
LINE
  5
    12
  8
0
  6
CONTINUOUS
 62
     3
 10
61.8382568359375
 20
56.9806251525879
 30
0.0
 11
61.8382568359375
 21
162.980625152588
 31
0.0
  0
LINE
  5
    13
  8
0
  6
CONTINUOUS
 62
     3
 10
61.8382568359375
 20
162.980621337891
 30
0.0
 11
167.838256835938
 21
162.980621337891
 31
0.0
  0
LINE
  5
    14
  8
0
  6
CONTINUOUS
 62
     3
 10
168.838256835938
 20
48.4806251525879
 30
0.0
 11
168.838256835938
 21
49.4806251525879
 31
0.0
  0
LINE
  5
    15
  8
0
  6
CONTINUOUS
 62
     3
 10
61.8382568359375
 20
50.4806251525879
 30
0.0
 11
167.838256835938
 21
50.4806251525879
 31
0.0
  0
LINE
  5
    16
  8
0
  6
CONTINUOUS
 62
     3
 10
60.8382568359375
 20
48.4806251525879
 30
0.0
 11
60.8382568359375
 21
49.4806251525879
 31
0.0
  0
LINE
  5
    17
  8
0
  6
CONTINUOUS
 62
     3
 10
61.8382568359375
 20
49.4806251525879
 30
0.0
 11
167.838256835938
 21
49.4806251525879
 31
0.0
  0
LINE
  5
    18
  8
0
  6
CONTINUOUS
 62
     3
 10
60.8382568359375
 20
29.4806251525879
 30
0.0
 11
60.8382568359375
 21
48.4806251525879
 31
0.0
  0
LINE
  5
    19
  8
0
  6
CONTINUOUS
 62
     3
 10
60.8382568359375
 20
49.4806213378906
 30
0.0
 11
60.8382568359375
 21
190.480621337891
 31
0.0
  0
LINE
  5
    1A
  8
0
  6
CONTINUOUS
 62
     3
 10
61.8382568359375
 20
29.4806251525879
 30
0.0
 11
61.8382568359375
 21
49.4806251525879
 31
0.0
  0
LINE
  5
    1B
  8
0
  6
CONTINUOUS
 62
     3
 10
61.8382568359375
 20
162.980621337891
 30
0.0
 11
61.8382568359375
 21
169.480621337891
 31
0.0
  0
LINE
  5
    1C
  8
0
  6
CONTINUOUS
 62
     3
 10
61.8382568359375
 20
50.4806251525879
 30
0.0
 11
61.8382568359375
 21
56.9806251525879
 31
0.0
  0
LINE
  5
    1D
  8
0
  6
CONTINUOUS
 62
     3
 10
168.838256835938
 20
29.4806251525879
 30
0.0
 11
168.838256835938
 21
48.4806251525879
 31
0.0
  0
LINE
  5
    1E
  8
0
  6
CONTINUOUS
 62
     3
 10
168.838256835938
 20
49.4806251525879
 30
0.0
 11
168.838256835938
 21
190.480621337891
 31
0.0
  0
LINE
  5
    1F
  8
0
  6
CONTINUOUS
 62
     3
 10
167.838256835938
 20
50.4806251525879
 30
0.0
 11
167.838256835938
 21
56.9806251525879
 31
0.0
  0
LINE
  5
    20
  8
0
  6
CONTINUOUS
 62
     3
 10
167.838256835938
 20
162.980621337891
 30
0.0
 11
167.838256835938
 21
169.480621337891
 31
0.0
  0
LINE
  5
    21
  8
0
  6
CONTINUOUS
 62
     3
 10
167.838256835938
 20
29.4806251525879
 30
0.0
 11
167.838256835938
 21
49.4806251525879
 31
0.0
  0
LINE
  5
    22
  8
0
  6
CONTINUOUS
 62
     3
 10
60.8382568359375
 20
170.480621337891
 30
0.0
 11
168.838256835938
 21
170.480621337891
 31
0.0
  0
LINE
  5
    23
  8
0
  6
CONTINUOUS
 62
     3
 10
61.8382568359375
 20
169.480621337891
 30
0.0
 11
167.838256835938
 21
169.480621337891
 31
0.0
  0
ARC
  5
    24
  8
0
  6
CONTINUOUS
 62
     3
 10
57.5882568359375
 20
30.7306251525879
 30
0.0
 40
1.25
 50
180.0
 51
270.0
  0
ARC
  5
    25
  8
0
  6
CONTINUOUS
 62
     3
 10
172.088256835938
 20
30.7306251525879
 30
0.0
 40
1.25
 50
270.0
 51
360.0
  0
ARC
  5
    26
  8
0
  6
CONTINUOUS
 62
     3
 10
172.088256835938
 20
189.230621337891
 30
0.0
 40
1.25
 50
0.0
 51
90.0
  0
ARC
  5
    27
  8
0
  6
CONTINUOUS
 62
     3
 10
57.5882568359375
 20
189.230621337891
 30
0.0
 40
1.25
 50
90.0
 51
180.0
  0
LINE
  5
    28
  8
0
  6
DOT
 62
     3
 10
60.3382577409677
 20
179.7306252571
 30
0.0
 11
60.8382568359375
 21
179.7306252571
 31
0.0
  0
LINE
  5
    29
  8
0
  6
DOT
 62
     3
 10
60.3382577409676
 20
181.2306252571
 30
0.0
 11
60.8382568359375
 21
181.2306252571
 31
0.0
  0
LINE
  5
    2A
  8
0
  6
CONTINUOUS
 62
     3
 10
168.338257745313
 20
179.730625257273
 30
0.0
 11
168.838256835938
 21
179.730625257273
 31
0.0
  0
LINE
  5
    2B
  8
0
  6
CONTINUOUS
 62
     3
 10
168.338257745314
 20
181.230625257273
 30
0.0
 11
168.838256835938
 21
181.230625257273
 31
0.0
  0
ARC
  5
    2C
  8
0
  6
DOT
 62
     3
 10
60.3382577401871
 20
180.480625257147
 30
0.0
 40
0.749999999345164
 50
90.0
 51
270.0
  0
ARC
  5
    2D
  8
0
  6
CONTINUOUS
 62
     3
 10
61.338257740822
 20
180.480625256974
 30
0.0
 40
0.750000000009701
 50
270.0
 51
450.0
  0
LINE
  5
    2E
  8
0
  6
CONTINUOUS
 62
     3
 10
60.8382568359375
 20
181.2306252571
 30
0.0
 11
61.3382577409688
 21
181.2306252571
 31
0.0
  0
LINE
  5
    2F
  8
0
  6
CONTINUOUS
 62
     3
 10
60.8382568359375
 20
179.7306252571
 30
0.0
 11
61.3382577409689
 21
179.7306252571
 31
0.0
  0
ARC
  5
    30
  8
0
  6
CONTINUOUS
 62
     3
 10
168.338257745503
 20
180.480625256952
 30
0.0
 40
0.750000000048506
 50
90.0000000038822
 51
269.999999996024
  0
ARC
  5
    31
  8
0
  6
DOT
 62
     3
 10
169.338257745421
 20
180.480625256965
 30
0.0
 40
0.750000000029104
 50
270.000000002449
 51
449.999999997486
  0
LINE
  5
    32
  8
0
  6
DOT
 62
     3
 10
168.838256835938
 20
181.230625257273
 30
0.0
 11
169.338257745315
 21
181.230625257273
 31
0.0
  0
LINE
  5
    33
  8
0
  6
DOT
 62
     3
 10
168.838256835938
 20
179.730625257273
 30
0.0
 11
169.338257745315
 21
179.730625257273
 31
0.0
  0
POINT
  5
    34
  8
0
  6
CONTINUOUS
 62
     3
 10
114.838256835938
 20
109.980621337891
 30
0.0
  0
ENDBLK
  5
    35
  8
0
  6
CONTINUOUS
 62
     7
  0
BLOCK
  5
    36
  8
0
  6
CONTINUOUS
 62
     7
  2
*UDIM188
 70
    65
 10
0.0
 20
0.0
 30
0.0
  3
*UDIM188
  0
TEXT
  5
    37
  8
0
  6
CONTINUOUS
 62
     7
 10
-12.5744332463514
 20
-112.415810618836
 30
0.0
 40
3.00000002980232
  1
35
 50
359.999999948034
 41
0.933333333333333
 72
     1
 11
-10.0744332201632
 21
-110.915810606189
 31
0.0
 73
     2
  0
LINE
  5
    38
  8
0
  6
CONTINUOUS
 62
     7
 10
-1.04942339310328
 20
-101.507274274124
 30
0.0
 11
-1.04943402400194
 21
-115.41581062109
 31
0.0
  0
LINE
  5
    39
  8
0
  6
CONTINUOUS
 62
     7
 10
-1.04943249531503
 20
-113.415810621091
 30
0.0
 11
-18.5494434698336
 21
-113.415810621091
 31
0.0
  0
LINE
  5
    3A
  8
0
  6
CONTINUOUS
 62
     7
 10
-4.003855772522
 20
-113.936755051042
 30
0.0
 11
-1.04943249531503
 21
-113.415810621091
 31
0.0
  0
LINE
  5
    3B
  8
0
  6
CONTINUOUS
 62
     7
 10
-1.04943249531503
 20
-113.415810621091
 30
0.0
 11
-4.003855772522
 21
-112.894866191139
 31
0.0
  0
LINE
  5
    3C
  8
0
  6
CONTINUOUS
 62
     7
 10
-15.5950201926267
 20
-112.894866191139
 30
0.0
 11
-18.5494434698336
 21
-113.415810621091
 31
0.0
  0
LINE
  5
    3D
  8
0
  6
CONTINUOUS
 62
     7
 10
-18.5494434698336
 20
-113.415810621091
 30
0.0
 11
-15.5950201926267
 21
-113.936755051042
 31
0.0
  0
ENDBLK
  5
    3E
  8
0
  6
CONTINUOUS
 62
     7
  0
BLOCK
  5
    3F
  8
0
  6
CONTINUOUS
 62
     7
  2
*UDIM189
 70
    65
 10
0.0
 20
0.0
 30
0.0
  3
*UDIM189
  0
TEXT
  5
    40
  8
0
  6
CONTINUOUS
 62
     7
 10
-30.0744461370782
 20
-112.415810618836
 30
0.0
 40
3.00000002980232
  1
35
 50
359.999999948034
 41
0.933333333333333
 72
     1
 11
-27.57444611089
 21
-110.915810606189
 31
0.0
 73
     2
  0
LINE
  5
    41
  8
0
  6
CONTINUOUS
 62
     7
 10
-36.0494518800955
 20
-101.507144501896
 30
0.0
 11
-36.0494664517815
 21
-115.41581062109
 31
0.0
  0
LINE
  5
    42
  8
0
  6
CONTINUOUS
 62
     7
 10
-18.5494434698336
 20
-113.415810621091
 30
0.0
 11
-36.0494643564424
 21
-113.415810621091
 31
0.0
  0
LINE
  5
    43
  8
0
  6
CONTINUOUS
 62
     7
 10
-21.5038667470406
 20
-113.936755051042
 30
0.0
 11
-18.5494434698336
 21
-113.415810621091
 31
0.0
  0
LINE
  5
    44
  8
0
  6
CONTINUOUS
 62
     7
 10
-18.5494434698336
 20
-113.415810621091
 30
0.0
 11
-21.5038667470406
 21
-112.894866191139
 31
0.0
  0
LINE
  5
    45
  8
0
  6
CONTINUOUS
 62
     7
 10
-33.0950410792354
 20
-112.894866191139
 30
0.0
 11
-36.0494643564424
 21
-113.415810621091
 31
0.0
  0
LINE
  5
    46
  8
0
  6
CONTINUOUS
 62
     7
 10
-36.0494643564424
 20
-113.415810621091
 30
0.0
 11
-33.0950410792354
 21
-113.936755051042
 31
0.0
  0
ENDBLK
  5
    47
  8
0
  6
CONTINUOUS
 62
     7
  0
BLOCK
  5
    48
  8
0
  6
CONTINUOUS
 62
     7
  2
*UDIM190
 70
    65
 10
0.0
 20
0.0
 30
0.0
  3
*UDIM190
  0
TEXT
  5
    49
  8
0
  6
CONTINUOUS
 62
     7
 10
-22.7244914454655
 20
-118.801916667399
 30
0.0
 40
3.00000002980232
  1
105
 50
359.999999948034
 41
0.933333333333333
 72
     1
 11
-18.8244914053695
 21
-117.301916656016
 31
0.0
 73
     2
  0
LINE
  5
    4A
  8
0
  6
CONTINUOUS
 62
     7
 10
7.70054780126784
 20
-55.3821515749648
 30
0.0
 11
7.7005231775192
 21
-121.801916670917
 31
0.0
  0
LINE
  5
    4B
  8
0
  6
CONTINUOUS
 62
     7
 10
-44.7994445693237
 20
-55.3821515749648
 30
0.0
 11
-44.7994691930723
 21
-121.801916670917
 31
0.0
  0
LINE
  5
    4C
  8
0
  6
CONTINUOUS
 62
     7
 10
7.70052391897767
 20
-119.801916670917
 30
0.0
 11
-44.7994684516139
 21
-119.801916670917
 31
0.0
  0
LINE
  5
    4D
  8
0
  6
CONTINUOUS
 62
     7
 10
4.7461006417707
 20
-120.322861100869
 30
0.0
 11
7.70052391897767
 21
-119.801916670917
 31
0.0
  0
LINE
  5
    4E
  8
0
  6
CONTINUOUS
 62
     7
 10
7.70052391897767
 20
-119.801916670917
 30
0.0
 11
4.7461006417707
 21
-119.280972240965
 31
0.0
  0
LINE
  5
    4F
  8
0
  6
CONTINUOUS
 62
     7
 10
-41.8450451744069
 20
-119.280972240965
 30
0.0
 11
-44.7994684516139
 21
-119.801916670917
 31
0.0
  0
LINE
  5
    50
  8
0
  6
CONTINUOUS
 62
     7
 10
-44.7994684516139
 20
-119.801916670917
 30
0.0
 11
-41.8450451744069
 21
-120.322861100869
 31
0.0
  0
ENDBLK
  5
    51
  8
0
  6
CONTINUOUS
 62
     7
  0
BLOCK
  5
    52
  8
0
  6
CONTINUOUS
 62
     7
  2
*UDIM191
 70
    65
 10
0.0
 20
0.0
 30
0.0
  3
*UDIM191
  0
TEXT
  5
    53
  8
0
  6
CONTINUOUS
 62
     7
 10
-22.7244442446648
 20
-125.476427506573
 30
0.0
 40
3.00000002980232
  1
117
 50
359.999999948034
 41
0.933333333333333
 72
     1
 11
-18.8244442045689
 21
-123.976427495189
 31
0.0
 73
     2
  0
LINE
  5
    54
  8
0
  6
CONTINUOUS
 62
     7
 10
10.7005558013916
 20
-101.757142038222
 30
0.0
 11
10.7005558013916
 21
-128.47642751009
 31
0.0
  0
LINE
  5
    55
  8
0
  6
CONTINUOUS
 62
     7
 10
-47.7994441986084
 20
-101.757142038222
 30
0.0
 11
-47.7994441986084
 21
-128.47642751009
 31
0.0
  0
LINE
  5
    56
  8
0
  6
CONTINUOUS
 62
     7
 10
10.7005558013916
 20
-126.47642751009
 30
0.0
 11
-47.7994441986084
 21
-126.47642751009
 31
0.0
  0
LINE
  5
    57
  8
0
  6
CONTINUOUS
 62
     7
 10
7.74613252418465
 20
-126.997371940042
 30
0.0
 11
10.7005558013916
 21
-126.47642751009
 31
0.0
  0
LINE
  5
    58
  8
0
  6
CONTINUOUS
 62
     7
 10
10.7005558013916
 20
-126.47642751009
 30
0.0
 11
7.74613252418465
 21
-125.955483080139
 31
0.0
  0
LINE
  5
    59
  8
0
  6
CONTINUOUS
 62
     7
 10
-44.8450209214014
 20
-125.955483080139
 30
0.0
 11
-47.7994441986084
 21
-126.47642751009
 31
0.0
  0
LINE
  5
    5A
  8
0
  6
CONTINUOUS
 62
     7
 10
-47.7994441986084
 20
-126.47642751009
 30
0.0
 11
-44.8450209214014
 21
-126.997371940042
 31
0.0
  0
ENDBLK
  5
    5B
  8
0
  6
CONTINUOUS
 62
     7
  0
BLOCK
  5
    5C
  8
0
  6
CONTINUOUS
 62
     7
  2
*UDIM192
 70
    65
 10
0.0
 20
0.0
 30
0.0
  3
*UDIM192
  0
TEXT
  5
    5D
  8
0
  6
CONTINUOUS
 62
     7
 10
35.5435713569709
 20
18.5928521996358
 30
0.0
 40
3.00000002980232
  1
155
 50
89.9999999480344
 41
0.933333333333333
 72
     1
 11
34.043571345602
 21
22.4928522397374
 31
0.0
 73
     2
  0
LINE
  5
    5E
  8
0
  6
CONTINUOUS
 62
     7
 10
8.07554682593194
 20
-16.2571477602657
 30
0.0
 11
38.5435713605032
 21
-16.2571477602657
 31
0.0
  0
LINE
  5
    5F
  8
0
  6
CONTINUOUS
 62
     7
 10
-3.54926076411176
 20
61.2428522397406
 30
0.0
 11
38.5435713605032
 21
61.2428522397406
 31
0.0
  0
LINE
  5
    60
  8
0
  6
CONTINUOUS
 62
     7
 10
36.5435713605032
 20
-16.2571477602657
 30
0.0
 11
36.5435713605032
 21
61.2428522397406
 31
0.0
  0
LINE
  5
    61
  8
0
  6
CONTINUOUS
 62
     7
 10
35.7671142040846
 20
-13.3593702870552
 30
0.0
 11
36.5435713605032
 21
-16.2571477602657
 31
0.0
  0
LINE
  5
    62
  8
0
  6
CONTINUOUS
 62
     7
 10
36.5435713605032
 20
-16.2571477602657
 30
0.0
 11
37.3200285169217
 21
-13.3593702870552
 31
0.0
  0
LINE
  5
    63
  8
0
  6
CONTINUOUS
 62
     7
 10
37.3200285169217
 20
58.34507476653
 30
0.0
 11
36.5435713605032
 21
61.2428522397406
 31
0.0
  0
LINE
  5
    64
  8
0
  6
CONTINUOUS
 62
     7
 10
36.5435713605032
 20
61.2428522397406
 30
0.0
 11
35.7671142040846
 21
58.34507476653
 31
0.0
  0
ENDBLK
  5
    65
  8
0
  6
CONTINUOUS
 62
     7
  0
BLOCK
  5
    66
  8
0
  6
CONTINUOUS
 62
     2
  2
*UDIM193
 70
    65
 10
0.0
 20
0.0
 30
0.0
  3
*UDIM193
  0
TEXT
  5
    67
  8
0
  6
CONTINUOUS
 62
     2
 10
35.5435713569709
 20
-64.1821487898045
 30
0.0
 40
3.00000002980232
  1
175
 50
89.9999999480344
 41
0.933333333333333
 72
     1
 11
34.043571345602
 21
-60.2821487497029
 31
0.0
 73
     2
  0
LINE
  5
    68
  8
0
  6
CONTINUOUS
 62
     2
 10
5.70054113179355
 20
-103.757147760266
 30
0.0
 11
38.5435713605032
 21
-103.757147760266
 31
0.0
  0
LINE
  5
    69
  8
0
  6
CONTINUOUS
 62
     2
 10
8.07554682593194
 20
-16.2571477602657
 30
0.0
 11
38.5435713605032
 21
-16.2571477602657
 31
0.0
  0
LINE
  5
    6A
  8
0
  6
CONTINUOUS
 62
     2
 10
36.5435713605032
 20
-103.757147760266
 30
0.0
 11
36.5435713605032
 21
-16.2571477602657
 31
0.0
  0
LINE
  5
    6B
  8
0
  6
CONTINUOUS
 62
     2
 10
36.0226269305515
 20
-100.802724483059
 30
0.0
 11
36.5435713605032
 21
-103.757147760266
 31
0.0
  0
LINE
  5
    6C
  8
0
  6
CONTINUOUS
 62
     2
 10
36.5435713605032
 20
-103.757147760266
 30
0.0
 11
37.0645157904548
 21
-100.802724483059
 31
0.0
  0
LINE
  5
    6D
  8
0
  6
CONTINUOUS
 62
     2
 10
37.0645157904548
 20
-19.2115710374727
 30
0.0
 11
36.5435713605032
 21
-16.2571477602657
 31
0.0
  0
LINE
  5
    6E
  8
0
  6
CONTINUOUS
 62
     2
 10
36.5435713605032
 20
-16.2571477602657
 30
0.0
 11
36.0226269305515
 21
-19.2115710374727
 31
0.0
  0
ENDBLK
  5
    6F
  8
0
  6
CONTINUOUS
 62
     2
  0
BLOCK
  5
    70
  8
0
  6
CONTINUOUS
 62
     7
  2
*UDIM194
 70
    65
 10
0.0
 20
0.0
 30
0.0
  3
*UDIM194
  0
TEXT
  5
    71
  8
0
  6
CONTINUOUS
 62
     7
 10
-46.0494617455267
 20
18.821789413755
 30
0.0
 40
3.00000002980232
  1
30
 50
359.999999948034
 41
0.933333333333333
 72
     1
 11
-43.5494617193385
 21
20.3217894264013
 31
0.0
 73
     2
  0
LINE
  5
    72
  8
0
  6
CONTINUOUS
 62
     7
 10
-36.0494617193385
 20
12.9928359985352
 30
0.0
 11
-36.0494617193385
 21
19.8217894115001
 31
0.0
  0
LINE
  5
    73
  8
0
  6
CONTINUOUS
 62
     7
 10
-51.0494617193385
 20
12.9928207397461
 30
0.0
 11
-51.0494617193385
 21
19.8217894115001
 31
0.0
  0
LINE
  5
    74
  8
0
  6
CONTINUOUS
 62
     7
 10
-36.0494617193385
 20
17.8217894115001
 30
0.0
 11
-51.0494617193385
 21
17.8217894115001
 31
0.0
  0
LINE
  5
    75
  8
0
  6
CONTINUOUS
 62
     7
 10
-38.9472391925491
 20
17.0453322550816
 30
0.0
 11
-36.0494617193385
 21
17.8217894115001
 31
0.0
  0
LINE
  5
    76
  8
0
  6
CONTINUOUS
 62
     7
 10
-36.0494617193385
 20
17.8217894115001
 30
0.0
 11
-38.9472391925491
 21
18.5982465679187
 31
0.0
  0
LINE
  5
    77
  8
0
  6
CONTINUOUS
 62
     7
 10
-48.151684246128
 20
18.5982465679187
 30
0.0
 11
-51.0494617193385
 21
17.8217894115001
 31
0.0
  0
LINE
  5
    78
  8
0
  6
CONTINUOUS
 62
     7
 10
-51.0494617193385
 20
17.8217894115001
 30
0.0
 11
-48.151684246128
 21
17.0453322550816
 31
0.0
  0
ENDBLK
  5
    79
  8
0
  6
CONTINUOUS
 62
     7
  0
BLOCK
  5
    7A
  8
0
  6
CONTINUOUS
 62
     7
  2
*UDIM195
 70
    65
 10
0.0
 20
0.0
 30
0.0
  3
*UDIM195
  0
TEXT
  5
    7B
  8
0
  6
CONTINUOUS
 62
     7
 10
-61.51473894101
 20
2.5655610083925
 30
0.0
 40
3.00000002980232
  1
8,5
 50
373.171484124895
 41
0.933333333333333
 72
     1
 11
-58.059137866933
 21
4.9147782320092
 31
0.0
 73
     2
  0
TEXT
  5
    7C
  8
0
  6
CONTINUOUS
 62
     7
 10
-65.409508695045
 20
1.65409581351557
 30
0.0
 40
3.00000002980232
  1
Ø
 50
373.171484124895
 41
1.2
 72
     1
 11
-64.2907694799819
 21
3.45643392221959
 31
0.0
 73
     2
  0
LINE
  5
    7D
  8
0
  6
CONTINUOUS
 62
     7
 10
-65.1816423969251
 20
0.680403381129238
 30
0.0
 11
-36.6119032015766
 21
7.36637571949167
 31
0.0
  0
LINE
  5
    7E
  8
0
  6
CONTINUOUS
 62
     7
 10
-48.2631736646429
 20
3.84227622388315
 30
0.0
 11
-45.6185580877815
 21
5.25861250126295
 31
0.0
  0
LINE
  5
    7F
  8
0
  6
CONTINUOUS
 62
     7
 10
-45.6185580877815
 20
5.25861250126295
 30
0.0
 11
-48.6170304978827
 21
5.3543371368704
 31
0.0
  0
LINE
  5
    80
  8
0
  6
CONTINUOUS
 62
     7
 10
-38.8357497816026
 20
7.6433805143981
 30
0.0
 11
-41.480365358464
 21
6.2270442370183
 31
0.0
  0
LINE
  5
    81
  8
0
  6
CONTINUOUS
 62
     7
 10
-41.480365358464
 20
6.2270442370183
 30
0.0
 11
-38.4818929483629
 21
6.13131960141085
 31
0.0
  0
ENDBLK
  5
    82
  8
0
  6
CONTINUOUS
 62
     7
  0
BLOCK
  5
    83
  8
0
  6
CONTINUOUS
 62
     7
  2
*UDIM196
 70
    65
 10
0.0
 20
0.0
 30
0.0
  3
*UDIM196
  0
TEXT
  5
    84
  8
0
  6
CONTINUOUS
 62
     7
 10
-22.4494610227703
 20
32.3109493761722
 30
0.0
 40
3.00000002980232
  1
130
 50
359.999999948034
 41
0.933333333333333
 72
     1
 11
-18.5494609826743
 21
33.8109493875557
 31
0.0
 73
     2
  0
LINE
  5
    85
  8
0
  6
CONTINUOUS
 62
     7
 10
13.9505397539898
 20
12.9928207397461
 30
0.0
 11
13.9505397539898
 21
33.3109493726546
 31
0.0
  0
LINE
  5
    86
  8
0
  6
CONTINUOUS
 62
     7
 10
-51.0494617193385
 20
12.9928207397461
 30
0.0
 11
-51.0494617193385
 21
33.3109493726546
 31
0.0
  0
LINE
  5
    87
  8
0
  6
CONTINUOUS
 62
     7
 10
13.9505397539898
 20
31.3109493726546
 30
0.0
 11
-51.0494617193385
 21
31.3109493726546
 31
0.0
  0
LINE
  5
    88
  8
0
  6
CONTINUOUS
 62
     7
 10
11.0527622807793
 20
30.534492216236
 30
0.0
 11
13.9505397539898
 21
31.3109493726546
 31
0.0
  0
LINE
  5
    89
  8
0
  6
CONTINUOUS
 62
     7
 10
13.9505397539898
 20
31.3109493726546
 30
0.0
 11
11.0527622807793
 21
32.0874065290731
 31
0.0
  0
LINE
  5
    8A
  8
0
  6
CONTINUOUS
 62
     7
 10
-48.151684246128
 20
32.0874065290731
 30
0.0
 11
-51.0494617193385
 21
31.3109493726546
 31
0.0
  0
LINE
  5
    8B
  8
0
  6
CONTINUOUS
 62
     7
 10
-51.0494617193385
 20
31.3109493726546
 30
0.0
 11
-48.151684246128
 21
30.534492216236
 31
0.0
  0
ENDBLK
  5
    8C
  8
0
  6
CONTINUOUS
 62
     7
  0
BLOCK
  5
    8D
  8
0
  6
CONTINUOUS
 62
     7
  2
*UDIM197
 70
    65
 10
0.0
 20
0.0
 30
0.0
  3
*UDIM197
  0
TEXT
  5
    8E
  8
0
  6
CONTINUOUS
 62
     7
 10
-30.4567716979823
 20
25.7196915367645
 30
0.0
 40
3.00000002980232
  1
50
 50
359.999999948034
 41
0.933333333333333
 72
     1
 11
-27.9567716717941
 21
27.2196915494108
 31
0.0
 73
     2
  0
LINE
  5
    8F
  8
0
  6
CONTINUOUS
 62
     7
 10
-18.549467324506
 20
19.1821411460885
 30
0.0
 11
-18.549467324506
 21
26.7196915345096
 31
0.0
  0
LINE
  5
    90
  8
0
  6
CONTINUOUS
 62
     7
 10
-43.5494617231228
 20
9.86782831571675
 30
0.0
 11
-43.5494617231228
 21
26.7196915345096
 31
0.0
  0
LINE
  5
    91
  8
0
  6
CONTINUOUS
 62
     7
 10
-18.549467324506
 20
24.7196915345096
 30
0.0
 11
-43.5494617231228
 21
24.7196915345096
 31
0.0
  0
LINE
  5
    92
  8
0
  6
CONTINUOUS
 62
     7
 10
-21.4472447977165
 20
23.943234378091
 30
0.0
 11
-18.549467324506
 21
24.7196915345096
 31
0.0
  0
LINE
  5
    93
  8
0
  6
CONTINUOUS
 62
     7
 10
-18.549467324506
 20
24.7196915345096
 30
0.0
 11
-21.4472447977165
 21
25.4961486909281
 31
0.0
  0
LINE
  5
    94
  8
0
  6
CONTINUOUS
 62
     7
 10
-40.6516842499122
 20
25.4961486909281
 30
0.0
 11
-43.5494617231228
 21
24.7196915345096
 31
0.0
  0
LINE
  5
    95
  8
0
  6
CONTINUOUS
 62
     7
 10
-43.5494617231228
 20
24.7196915345096
 30
0.0
 11
-40.6516842499122
 21
23.943234378091
 31
0.0
  0
ENDBLK
  5
    96
  8
0
  6
CONTINUOUS
 62
     7
  0
BLOCK
  5
    97
  8
0
  6
CONTINUOUS
 62
     7
  2
*UDIM198
 70
    65
 10
0.0
 20
0.0
 30
0.0
  3
*UDIM198
  0
TEXT
  5
    98
  8
0
  6
CONTINUOUS
 62
     7
 10
-11.6523008971702
 20
25.7196915367645
 30
0.0
 40
3.00000002980232
  1
50
 50
359.999999948034
 41
0.933333333333333
 72
     1
 11
-9.15230087098197
 21
27.2196915494108
 31
0.0
 73
     2
  0
LINE
  5
    99
  8
0
  6
CONTINUOUS
 62
     7
 10
6.45053975398982
 20
9.86782819932833
 30
0.0
 11
6.45053975398982
 21
26.7196915345096
 31
0.0
  0
LINE
  5
    9A
  8
0
  6
CONTINUOUS
 62
     7
 10
6.45053975398982
 20
24.7196915345096
 30
0.0
 11
-18.549467324506
 21
24.7196915345096
 31
0.0
  0
LINE
  5
    9B
  8
0
  6
CONTINUOUS
 62
     7
 10
3.55276228077928
 20
23.943234378091
 30
0.0
 11
6.45053975398982
 21
24.7196915345096
 31
0.0
  0
LINE
  5
    9C
  8
0
  6
CONTINUOUS
 62
     7
 10
6.45053975398982
 20
24.7196915345096
 30
0.0
 11
3.55276228077928
 21
25.4961486909281
 31
0.0
  0
LINE
  5
    9D
  8
0
  6
CONTINUOUS
 62
     7
 10
-15.6516898512955
 20
25.4961486909281
 30
0.0
 11
-18.549467324506
 21
24.7196915345096
 31
0.0
  0
LINE
  5
    9E
  8
0
  6
CONTINUOUS
 62
     7
 10
-18.549467324506
 20
24.7196915345096
 30
0.0
 11
-15.6516898512955
 21
23.943234378091
 31
0.0
  0
ENDBLK
  5
    9F
  8
0
  6
CONTINUOUS
 62
     7
  0
BLOCK
  5
    A0
  8
0
  6
CONTINUOUS
 62
     7
  2
*UDIM199
 70
    65
 10
0.0
 20
0.0
 30
0.0
  3
*UDIM199
  0
TEXT
  5
    A1
  8
0
  6
CONTINUOUS
 62
     7
 10
21.2948239754005
 20
-45.6696450029236
 30
0.0
 40
3.00000002980232
  1
89,75
 50
89.9999999480344
 41
0.933333333333333
 72
     1
 11
19.7948239665676
 21
-38.9696449350065
 31
0.0
 73
     2
  0
LINE
  5
    A2
  8
0
  6
CONTINUOUS
 62
     7
 10
22.2411710375061
 20
-61.1321439455704
 30
0.0
 11
24.2948239814688
 21
-61.1321439455704
 31
0.0
  0
LINE
  5
    A3
  8
0
  6
CONTINUOUS
 62
     7
 10
8.07554682593194
 20
-16.2571477602657
 30
0.0
 11
24.2948239814688
 21
-16.2571477602657
 31
0.0
  0
LINE
  5
    A4
  8
0
  6
CONTINUOUS
 62
     7
 10
22.2948239814688
 20
-61.1321439455704
 30
0.0
 11
22.2948239814688
 21
-16.2571477602657
 31
0.0
  0
LINE
  5
    A5
  8
0
  6
CONTINUOUS
 62
     7
 10
21.7738795515172
 20
-58.1777206683634
 30
0.0
 11
22.2948239814688
 21
-61.1321439455704
 31
0.0
  0
LINE
  5
    A6
  8
0
  6
CONTINUOUS
 62
     7
 10
22.2948239814688
 20
-61.1321439455704
 30
0.0
 11
22.8157684114205
 21
-58.1777206683634
 31
0.0
  0
LINE
  5
    A7
  8
0
  6
CONTINUOUS
 62
     7
 10
23.0712811378874
 20
-19.1549252334762
 30
0.0
 11
22.2948239814688
 21
-16.2571477602657
 31
0.0
  0
LINE
  5
    A8
  8
0
  6
CONTINUOUS
 62
     7
 10
22.2948239814688
 20
-16.2571477602657
 30
0.0
 11
21.5183668250503
 21
-19.1549252334762
 31
0.0
  0
ENDBLK
  5
    A9
  8
0
  6
CONTINUOUS
 62
     7
  0
BLOCK
  5
    AA
  8
0
  6
CONTINUOUS
 62
     7
  2
*UDIM200
 70
    65
 10
0.0
 20
0.0
 30
0.0
  3
*UDIM200
  0
TEXT
  5
    AB
  8
0
  6
CONTINUOUS
 62
     7
 10
21.2948239766685
 20
-7.43216356426913
 30
0.0
 40
3.00000002980232
  1
56,5
 50
89.9999999480344
 41
0.933333333333333
 72
     1
 11
19.7948239665676
 21
-2.13216351025979
 31
0.0
 73
     2
  0
LINE
  5
    AC
  8
0
  6
CONTINUOUS
 62
     7
 10
14.9505397656324
 20
11.9928207397462
 30
0.0
 11
24.2948239814688
 21
11.9928207397462
 31
0.0
  0
LINE
  5
    AD
  8
0
  6
CONTINUOUS
 62
     7
 10
22.2948239814688
 20
-16.2571477602657
 30
0.0
 11
22.2948239814688
 21
11.9928207397462
 31
0.0
  0
LINE
  5
    AE
  8
0
  6
CONTINUOUS
 62
     7
 10
21.5183668250503
 20
-13.3593702870552
 30
0.0
 11
22.2948239814688
 21
-16.2571477602657
 31
0.0
  0
LINE
  5
    AF
  8
0
  6
CONTINUOUS
 62
     7
 10
22.2948239814688
 20
-16.2571477602657
 30
0.0
 11
23.0712811378874
 21
-13.3593702870552
 31
0.0
  0
LINE
  5
    B0
  8
0
  6
CONTINUOUS
 62
     7
 10
22.8157684114205
 20
9.03839746253918
 30
0.0
 11
22.2948239814688
 21
11.9928207397462
 31
0.0
  0
LINE
  5
    B1
  8
0
  6
CONTINUOUS
 62
     7
 10
22.2948239814688
 20
11.9928207397462
 30
0.0
 11
21.7738795515172
 21
9.03839746253918
 31
0.0
  0
ENDBLK
  5
    B2
  8
0
  6
CONTINUOUS
 62
     7
  0
BLOCK
  5
    B3
  8
0
  6
CONTINUOUS
 62
     7
  2
*UDIM201
 70
    65
 10
0.0
 20
0.0
 30
0.0
  3
*UDIM201
  0
TEXT
  5
    B4
  8
0
  6
CONTINUOUS
 62
     7
 10
28.1768720317558
 20
-65.3071411604118
 30
0.0
 40
3.00000002980232
  1
161
 50
89.9999999480344
 41
0.933333333333333
 72
     1
 11
26.676872020387
 21
-61.4071411203102
 31
0.0
 73
     2
  0
LINE
  5
    B5
  8
0
  6
CONTINUOUS
 62
     7
 10
11.0755558013916
 20
-101.382142038222
 30
0.0
 11
31.1768720352881
 21
-101.382142038222
 31
0.0
  0
LINE
  5
    B6
  8
0
  6
CONTINUOUS
 62
     7
 10
11.0755558013916
 20
-20.8821439455704
 30
0.0
 11
31.1768720352881
 21
-20.8821439455704
 31
0.0
  0
LINE
  5
    B7
  8
0
  6
CONTINUOUS
 62
     7
 10
29.1768720352881
 20
-101.382142038222
 30
0.0
 11
29.1768720352881
 21
-20.8821439455704
 31
0.0
  0
LINE
  5
    B8
  8
0
  6
CONTINUOUS
 62
     7
 10
28.6559276053365
 20
-98.4277187610148
 30
0.0
 11
29.1768720352881
 21
-101.382142038222
 31
0.0
  0
LINE
  5
    B9
  8
0
  6
CONTINUOUS
 62
     7
 10
29.1768720352881
 20
-101.382142038222
 30
0.0
 11
29.6978164652398
 21
-98.4277187610148
 31
0.0
  0
LINE
  5
    BA
  8
0
  6
CONTINUOUS
 62
     7
 10
29.6978164652398
 20
-23.8365672227773
 30
0.0
 11
29.1768720352881
 21
-20.8821439455704
 31
0.0
  0
LINE
  5
    BB
  8
0
  6
CONTINUOUS
 62
     7
 10
29.1768720352881
 20
-20.8821439455704
 30
0.0
 11
28.6559276053365
 21
-23.8365672227773
 31
0.0
  0
ENDBLK
  5
    BC
  8
0
  6
CONTINUOUS
 62
     7
  0
BLOCK
  5
    BD
  8
0
  6
CONTINUOUS
 62
     7
  2
*UDIM202
 70
    65
 10
0.0
 20
0.0
 30
0.0
  3
*UDIM202
  0
TEXT
  5
    BE
  8
0
  6
CONTINUOUS
 62
     7
 10
-59.8357988562442
 20
-46.2946450029236
 30
0.0
 40
3.00000002980232
  1
87,25
 50
89.9999999480344
 41
0.933333333333333
 72
     1
 11
-61.3357988650771
 21
-39.5946449350065
 31
0.0
 73
     2
  0
LINE
  5
    BF
  8
0
  6
CONTINUOUS
 62
     7
 10
-44.0494588682065
 20
-17.5071477602657
 30
0.0
 11
-60.8357988501759
 21
-17.5071477602657
 31
0.0
  0
LINE
  5
    C0
  8
0
  6
CONTINUOUS
 62
     7
 10
-58.8357988501759
 20
-61.1321439455704
 30
0.0
 11
-58.8357988501759
 21
-17.5071477602657
 31
0.0
  0
LINE
  5
    C1
  8
0
  6
CONTINUOUS
 62
     7
 10
-59.3567432801276
 20
-58.1777206683634
 30
0.0
 11
-58.8357988501759
 21
-61.1321439455704
 31
0.0
  0
LINE
  5
    C2
  8
0
  6
CONTINUOUS
 62
     7
 10
-58.8357988501759
 20
-61.1321439455704
 30
0.0
 11
-58.3148544202243
 21
-58.1777206683634
 31
0.0
  0
LINE
  5
    C3
  8
0
  6
CONTINUOUS
 62
     7
 10
-58.3148544202243
 20
-20.4615710374727
 30
0.0
 11
-58.8357988501759
 21
-17.5071477602657
 31
0.0
  0
LINE
  5
    C4
  8
0
  6
CONTINUOUS
 62
     7
 10
-58.8357988501759
 20
-17.5071477602657
 30
0.0
 11
-59.3567432801276
 21
-20.4615710374727
 31
0.0
  0
ENDBLK
  5
    C5
  8
0
  6
CONTINUOUS
 62
     7
  0
BLOCK
  5
    C6
  8
0
  6
CONTINUOUS
 62
     7
  2
*UDIM203
 70
    65
 10
0.0
 20
0.0
 30
0.0
  3
*UDIM203
  0
TEXT
  5
    C7
  8
0
  6
CONTINUOUS
 62
     7
 10
-67.2297115361251
 20
-64.18214116041
 30
0.0
 40
3.00000002980232
  1
170
 50
89.9999999480344
 41
0.933333333333333
 72
     1
 11
-68.7297115474939
 21
-60.2821411203084
 31
0.0
 73
     2
  0
LINE
  5
    C8
  8
0
  6
CONTINUOUS
 62
     7
 10
-44.0494588682064
 20
-102.507147760266
 30
0.0
 11
-68.2297115325928
 21
-102.507147760266
 31
0.0
  0
LINE
  5
    C9
  8
0
  6
CONTINUOUS
 62
     7
 10
-44.0494588682065
 20
-17.5071477602657
 30
0.0
 11
-68.2297115325928
 21
-17.5071477602657
 31
0.0
  0
LINE
  5
    CA
  8
0
  6
CONTINUOUS
 62
     7
 10
-66.2297115325928
 20
-102.507147760266
 30
0.0
 11
-66.2297115325928
 21
-17.5071477602657
 31
0.0
  0
LINE
  5
    CB
  8
0
  6
CONTINUOUS
 62
     7
 10
-66.7506559625444
 20
-99.5527244830589
 30
0.0
 11
-66.2297115325928
 21
-102.507147760266
 31
0.0
  0
LINE
  5
    CC
  8
0
  6
CONTINUOUS
 62
     7
 10
-66.2297115325928
 20
-102.507147760266
 30
0.0
 11
-65.7087671026411
 21
-99.5527244830589
 31
0.0
  0
LINE
  5
    CD
  8
0
  6
CONTINUOUS
 62
     7
 10
-65.7087671026411
 20
-20.4615710374727
 30
0.0
 11
-66.2297115325928
 21
-17.5071477602657
 31
0.0
  0
LINE
  5
    CE
  8
0
  6
CONTINUOUS
 62
     7
 10
-66.2297115325928
 20
-17.5071477602657
 30
0.0
 11
-66.7506559625444
 21
-20.4615710374727
 31
0.0
  0
ENDBLK
  5
    CF
  8
0
  6
CONTINUOUS
 62
     7
  0
BLOCK
  5
    D0
  8
0
  6
CONTINUOUS
 62
     7
  2
*HATCH67
 70
    65
 10
0.0
 20
0.0
 30
0.0
  3
*HATCH67
  0
LINE
  5
    D1
  8
0
  6
CONTINUOUS
 62
   210
 10
9.1102123260498
 20
71.5
 30
0.0
 11
13.0000019073486
 21
67.6102066040039
 31
0.0
  0
ENDBLK
  5
    D2
  8
0
  6
CONTINUOUS
 62
     7
  0
BLOCK
  5
    D3
  8
0
  6
CONTINUOUS
 62
     7
  2
*HATCH68
 70
    65
 10
0.0
 20
0.0
 30
0.0
  3
*HATCH68
  0
LINE
  5
    D4
  8
0
  6
CONTINUOUS
 62
   210
 10
14.1969509124756
 20
-46.0167922973633
 30
0.0
 11
17.1801414489746
 21
-48.9999885559082
 31
0.0
  0
ENDBLK
  5
    D5
  8
0
  6
CONTINUOUS
 62
     7
  0
BLOCK
  5
    D6
  8
0
  6
CONTINUOUS
 62
     7
  2
*HATCH69
 70
    65
 10
0.0
 20
0.0
 30
0.0
  3
*HATCH69
  0
LINE
  5
    D7
  8
0
  6
CONTINUOUS
 62
   210
 10
20.7441368103027
 20
-45.0167922973633
 30
0.0
 11
18.0000019073486
 21
-47.7609252929688
 31
0.0
  0
LINE
  5
    D8
  8
0
  6
CONTINUOUS
 62
   210
 10
21.0
 20
-49.0035667419434
 30
0.0
 11
18.0000019073486
 21
-52.0035667419434
 31
0.0
  0
LINE
  5
    D9
  8
0
  6
CONTINUOUS
 62
   210
 10
21.0
 20
-53.246208190918
 30
0.0
 11
19.3462104797363
 21
-54.9000015258789
 31
0.0
  0
ENDBLK
  5
    DA
  8
0
  6
CONTINUOUS
 62
     7
  0
BLOCK
  5
    DB
  8
0
  6
CONTINUOUS
 62
     7
  2
*HATCH70
 70
    65
 10
0.0
 20
0.0
 30
0.0
  3
*HATCH70
  0
LINE
  5
    DC
  8
0
  6
CONTINUOUS
 62
   210
 10
21.7528133392334
 20
-63.0999984741211
 30
0.0
 11
18.0000019073486
 21
-66.8528137207031
 31
0.0
  0
LINE
  5
    DD
  8
0
  6
CONTINUOUS
 62
   210
 10
23.0
 20
-66.0954513549805
 30
0.0
 11
21.0954647064209
 21
-67.9999847412109
 31
0.0
  0
ENDBLK
  5
    DE
  8
0
  6
CONTINUOUS
 62
     7
  0
BLOCK
  5
    DF
  8
0
  6
CONTINUOUS
 62
     7
  2
*HATCH71
 70
    65
 10
0.0
 20
0.0
 30
0.0
  3
*HATCH71
  0
LINE
  5
    E0
  8
0
  6
CONTINUOUS
 62
   210
 10
23.0
 20
-47.0035705566406
 30
0.0
 11
21.0000019073486
 21
-49.0035705566406
 31
0.0
  0
LINE
  5
    E1
  8
0
  6
CONTINUOUS
 62
   210
 10
23.0
 20
-51.246208190918
 30
0.0
 11
21.0000019073486
 21
-53.246208190918
 31
0.0
  0
ENDBLK
  5
    E2
  8
0
  6
CONTINUOUS
 62
     7
  0
BLOCK
  5
    E3
  8
0
  6
CONTINUOUS
 62
     7
  2
*HATCH72
 70
    65
 10
0.0
 20
0.0
 30
0.0
  3
*HATCH72
  0
LINE
  5
    E4
  8
0
  6
CONTINUOUS
 62
   210
 10
23.5807666778564
 20
74.0
 30
0.0
 11
26.0807647705078
 21
71.5
 31
0.0
  0
LINE
  5
    E5
  8
0
  6
CONTINUOUS
 62
   210
 10
27.8234043121338
 20
74.0
 30
0.0
 11
30.3234024047852
 21
71.5
 31
0.0
  0
LINE
  5
    E6
  8
0
  6
CONTINUOUS
 62
   210
 10
32.0660438537598
 20
74.0
 30
0.0
 11
34.5660400390625
 21
71.5
 31
0.0
  0
ENDBLK
  5
    E7
  8
0
  6
CONTINUOUS
 62
     7
  0
BLOCK
  5
    E8
  8
0
  6
CONTINUOUS
 62
     7
  2
*HATCH73
 70
    65
 10
0.0
 20
0.0
 30
0.0
  3
*HATCH73
  0
LINE
  5
    E9
  8
0
  6
CONTINUOUS
 62
    52
 10
107.001167297363
 20
-64.8257827758789
 30
0.0
 11
105.001167297363
 21
-66.8257751464844
 31
0.0
  0
LINE
  5
    EA
  8
0
  6
CONTINUOUS
 62
    52
 10
107.001167297363
 20
-69.0684280395508
 30
0.0
 11
105.001167297363
 21
-71.0684204101563
 31
0.0
  0
LINE
  5
    EB
  8
0
  6
CONTINUOUS
 62
    52
 10
107.001167297363
 20
-73.3110733032227
 30
0.0
 11
105.001167297363
 21
-75.3110656738281
 31
0.0
  0
LINE
  5
    EC
  8
0
  6
CONTINUOUS
 62
    52
 10
107.001167297363
 20
-77.5537185668945
 30
0.0
 11
105.001167297363
 21
-79.5537109375
 31
0.0
  0
LINE
  5
    ED
  8
0
  6
CONTINUOUS
 62
    52
 10
107.001167297363
 20
-81.7963638305664
 30
0.0
 11
105.001167297363
 21
-83.7963562011719
 31
0.0
  0
LINE
  5
    EE
  8
0
  6
CONTINUOUS
 62
    52
 10
107.001167297363
 20
-86.0390090942383
 30
0.0
 11
105.001167297363
 21
-88.0390014648438
 31
0.0
  0
LINE
  5
    EF
  8
0
  6
CONTINUOUS
 62
    52
 10
107.001167297363
 20
-90.2816543579102
 30
0.0
 11
105.001167297363
 21
-92.2816467285156
 31
0.0
  0
LINE
  5
    F0
  8
0
  6
CONTINUOUS
 62
    52
 10
107.001167297363
 20
-94.524299621582
 30
0.0
 11
105.001167297363
 21
-96.5242919921875
 31
0.0
  0
LINE
  5
    F1
  8
0
  6
CONTINUOUS
 62
    52
 10
107.001167297363
 20
-98.7669448852539
 30
0.0
 11
105.001167297363
 21
-100.766937255859
 31
0.0
  0
LINE
  5
    F2
  8
0
  6
CONTINUOUS
 62
    52
 10
107.001167297363
 20
-103.009590148926
 30
0.0
 11
105.001167297363
 21
-105.009582519531
 31
0.0
  0
LINE
  5
    F3
  8
0
  6
CONTINUOUS
 62
    52
 10
107.001167297363
 20
-107.252235412598
 30
0.0
 11
105.001167297363
 21
-109.252227783203
 31
0.0
  0
LINE
  5
    F4
  8
0
  6
CONTINUOUS
 62
    52
 10
107.001167297363
 20
-111.49488067627
 30
0.0
 11
105.001167297363
 21
-113.494873046875
 31
0.0
  0
LINE
  5
    F5
  8
0
  6
CONTINUOUS
 62
    52
 10
107.001167297363
 20
-115.737464904785
 30
0.0
 11
105.269889831543
 21
-117.46875
 31
0.0
  0
ENDBLK
  5
    F6
  8
0
  6
CONTINUOUS
 62
     7
  0
BLOCK
  5
    F7
  8
0
  6
CONTINUOUS
 62
     7
  2
*HATCH74
 70
    65
 10
0.0
 20
0.0
 30
0.0
  3
*HATCH74
  0
LINE
  5
    F8
  8
0
  6
CONTINUOUS
 62
    52
 10
107.001167297363
 20
-47.8552169799805
 30
0.0
 11
105.001167297363
 21
-49.8552169799805
 31
0.0
  0
LINE
  5
    F9
  8
0
  6
CONTINUOUS
 62
    52
 10
107.001167297363
 20
-52.0978546142578
 30
0.0
 11
105.001167297363
 21
-54.0978546142578
 31
0.0
  0
LINE
  5
    FA
  8
0
  6
CONTINUOUS
 62
    52
 10
107.001167297363
 20
-56.3404998779297
 30
0.0
 11
106.091667175293
 21
-57.25
 31
0.0
  0
ENDBLK
  5
    FB
  8
0
  6
CONTINUOUS
 62
     7
  0
BLOCK
  5
    FC
  8
0
  6
CONTINUOUS
 62
     7
  2
*HATCH75
 70
    65
 10
0.0
 20
0.0
 30
0.0
  3
*HATCH75
  0
LINE
  5
    FD
  8
0
  6
CONTINUOUS
 62
    52
 10
107.001167297363
 20
77.3026809692383
 30
0.0
 11
105.001167297363
 21
75.3026809692383
 31
0.0
  0
LINE
  5
    FE
  8
0
  6
CONTINUOUS
 62
    52
 10
107.001167297363
 20
73.0600357055664
 30
0.0
 11
105.001167297363
 21
71.0600357055664
 31
0.0
  0
LINE
  5
    FF
  8
0
  6
CONTINUOUS
 62
    52
 10
107.001167297363
 20
68.8173904418945
 30
0.0
 11
105.001167297363
 21
66.8173904418945
 31
0.0
  0
ENDBLK
  5
   100
  8
0
  6
CONTINUOUS
 62
     7
  0
BLOCK
  5
   101
  8
0
  6
CONTINUOUS
 62
     7
  2
*HATCH76
 70
    65
 10
0.0
 20
0.0
 30
0.0
  3
*HATCH76
  0
LINE
  5
   102
  8
0
  6
CONTINUOUS
 62
    52
 10
107.001167297363
 20
162.155487060547
 30
0.0
 11
105.001167297363
 21
160.155487060547
 31
0.0
  0
LINE
  5
   103
  8
0
  6
CONTINUOUS
 62
    52
 10
107.001167297363
 20
157.912841796875
 30
0.0
 11
105.001167297363
 21
155.912841796875
 31
0.0
  0
LINE
  5
   104
  8
0
  6
CONTINUOUS
 62
    52
 10
107.001167297363
 20
153.670196533203
 30
0.0
 11
105.001167297363
 21
151.670196533203
 31
0.0
  0
LINE
  5
   105
  8
0
  6
CONTINUOUS
 62
    52
 10
107.001167297363
 20
149.427551269531
 30
0.0
 11
105.001167297363
 21
147.427551269531
 31
0.0
  0
LINE
  5
   106
  8
0
  6
CONTINUOUS
 62
    52
 10
107.001167297363
 20
145.184906005859
 30
0.0
 11
105.001167297363
 21
143.184906005859
 31
0.0
  0
LINE
  5
   107
  8
0
  6
CONTINUOUS
 62
    52
 10
107.001167297363
 20
140.942260742188
 30
0.0
 11
105.001167297363
 21
138.942260742188
 31
0.0
  0
LINE
  5
   108
  8
0
  6
CONTINUOUS
 62
    52
 10
107.001167297363
 20
136.699615478516
 30
0.0
 11
105.001167297363
 21
134.699615478516
 31
0.0
  0
LINE
  5
   109
  8
0
  6
CONTINUOUS
 62
    52
 10
107.001167297363
 20
132.456970214844
 30
0.0
 11
105.001167297363
 21
130.456970214844
 31
0.0
  0
LINE
  5
   10A
  8
0
  6
CONTINUOUS
 62
    52
 10
107.001167297363
 20
128.214324951172
 30
0.0
 11
105.001167297363
 21
126.214324951172
 31
0.0
  0
LINE
  5
   10B
  8
0
  6
CONTINUOUS
 62
    52
 10
107.001167297363
 20
123.9716796875
 30
0.0
 11
105.001167297363
 21
121.9716796875
 31
0.0
  0
LINE
  5
   10C
  8
0
  6
CONTINUOUS
 62
    52
 10
107.001167297363
 20
119.729034423828
 30
0.0
 11
105.001167297363
 21
117.729034423828
 31
0.0
  0
LINE
  5
   10D
  8
0
  6
CONTINUOUS
 62
    52
 10
107.001167297363
 20
115.486389160156
 30
0.0
 11
105.001167297363
 21
113.486389160156
 31
0.0
  0
LINE
  5
   10E
  8
0
  6
CONTINUOUS
 62
    52
 10
107.001167297363
 20
111.243743896484
 30
0.0
 11
105.001167297363
 21
109.243743896484
 31
0.0
  0
LINE
  5
   10F
  8
0
  6
CONTINUOUS
 62
    52
 10
107.001167297363
 20
107.001098632813
 30
0.0
 11
105.001167297363
 21
105.001098632813
 31
0.0
  0
LINE
  5
   110
  8
0
  6
CONTINUOUS
 62
    52
 10
107.001167297363
 20
102.758453369141
 30
0.0
 11
105.001167297363
 21
100.758453369141
 31
0.0
  0
LINE
  5
   111
  8
0
  6
CONTINUOUS
 62
    52
 10
107.001167297363
 20
98.5158081054688
 30
0.0
 11
105.001167297363
 21
96.5158081054688
 31
0.0
  0
LINE
  5
   112
  8
0
  6
CONTINUOUS
 62
    52
 10
107.001167297363
 20
94.2731628417969
 30
0.0
 11
105.001167297363
 21
92.2731628417969
 31
0.0
  0
LINE
  5
   113
  8
0
  6
CONTINUOUS
 62
    52
 10
107.001167297363
 20
90.030517578125
 30
0.0
 11
105.001167297363
 21
88.030517578125
 31
0.0
  0
LINE
  5
   114
  8
0
  6
CONTINUOUS
 62
    52
 10
107.001167297363
 20
85.787956237793
 30
0.0
 11
105.963203430176
 21
84.7499923706055
 31
0.0
  0
ENDBLK
  5
   115
  8
0
  6
CONTINUOUS
 62
     7
  0
BLOCK
  5
   116
  8
0
  6
CONTINUOUS
 62
     7
  2
*HATCH77
 70
    65
 10
0.0
 20
0.0
 30
0.0
  3
*HATCH77
  0
LINE
  5
   117
  8
0
  6
CONTINUOUS
 62
   210
 10
24.8035449981689
 20
-46.0167922973633
 30
0.0
 11
27.786735534668
 21
-48.9999885559082
 31
0.0
  0
LINE
  5
   118
  8
0
  6
CONTINUOUS
 62
   210
 10
29.0461826324463
 20
-46.0167922973633
 30
0.0
 11
32.0293731689453
 21
-48.9999885559082
 31
0.0
  0
LINE
  5
   119
  8
0
  6
CONTINUOUS
 62
   210
 10
33.2888221740723
 20
-46.0167922973633
 30
0.0
 11
36.2720108032227
 21
-48.9999885559082
 31
0.0
  0
LINE
  5
   11A
  8
0
  6
CONTINUOUS
 62
   210
 10
37.5314598083496
 20
-46.0167922973633
 30
0.0
 11
40.5146484375
 21
-48.9999885559082
 31
0.0
  0
LINE
  5
   11B
  8
0
  6
CONTINUOUS
 62
   210
 10
41.774097442627
 20
-46.0167922973633
 30
0.0
 11
44.7572860717773
 21
-48.9999885559082
 31
0.0
  0
LINE
  5
   11C
  8
0
  6
CONTINUOUS
 62
   210
 10
46.0167350769043
 20
-46.0167922973633
 30
0.0
 11
46.9614868164062
 21
-46.9615440368652
 31
0.0
  0
ENDBLK
  5
   11D
  8
0
  6
CONTINUOUS
 62
     7
  0
BLOCK
  5
   11E
  8
0
  6
CONTINUOUS
 62
     2
  2
*HATCH78
 70
    65
 10
0.0
 20
0.0
 30
0.0
  3
*HATCH78
  0
LINE
  5
   11F
  8
0
  6
CONTINUOUS
 62
   210
 10
20.8751125335693
 20
93.0
 30
0.0
 11
18.0000019073486
 21
90.124885559082
 31
0.0
  0
LINE
  5
   120
  8
0
  6
CONTINUOUS
 62
   210
 10
22.0000019073486
 20
89.8822479248047
 30
0.0
 11
20.3177528381348
 21
88.1999969482422
 31
0.0
  0
ENDBLK
  5
   121
  8
0
  6
CONTINUOUS
 62
     2
  0
BLOCK
  5
   122
  8
0
  6
CONTINUOUS
 62
     2
  2
*HATCH79
 70
    65
 10
0.0
 20
0.0
 30
0.0
  3
*HATCH79
  0
LINE
  5
   123
  8
0
  6
CONTINUOUS
 62
   210
 10
20.4030342102051
 20
79.8000030517578
 30
0.0
 11
18.0000019073486
 21
77.3969650268555
 31
0.0
  0
LINE
  5
   124
  8
0
  6
CONTINUOUS
 62
   210
 10
22.0000019073486
 20
77.1543273925781
 30
0.0
 11
13.2129669189453
 21
68.3672943115234
 31
0.0
  0
LINE
  5
   125
  8
0
  6
CONTINUOUS
 62
   210
 10
22.9864101409912
 20
73.8980941772461
 30
0.0
 11
16.5227603912354
 21
67.4344482421875
 31
0.0
  0
ENDBLK
  5
   126
  8
0
  6
CONTINUOUS
 62
     2
  0
BLOCK
  5
   127
  8
0
  6
CONTINUOUS
 62
     7
  2
*UDIM204
 70
    65
 10
0.0
 20
0.0
 30
0.0
  3
*UDIM204
  0
TEXT
  5
   128
  8
0
  6
CONTINUOUS
 62
     7
 10
105.697489326199
 20
26.9278735889623
 30
0.0
 40
3.00000002980232
  1
45
 41
0.933333333333333
 72
     1
 11
108.197489351034
 21
28.4278736038634
 31
0.0
 73
     2
  0
LINE
  5
   129
  8
0
  6
CONTINUOUS
 62
     7
 10
97.2224893569946
 20
-11.4929885408448
 30
0.0
 11
97.2224893569946
 21
27.9278735889623
 31
0.0
  0
LINE
  5
   12A
  8
0
  6
CONTINUOUS
 62
     7
 10
119.722489356995
 20
12.9928512573243
 30
0.0
 11
119.722489356995
 21
27.9278735889623
 31
0.0
  0
LINE
  5
   12B
  8
0
  6
CONTINUOUS
 62
     7
 10
97.2224893569946
 20
25.9278735889623
 30
0.0
 11
119.722489356995
 21
25.9278735889623
 31
0.0
  0
LINE
  5
   12C
  8
0
  6
CONTINUOUS
 62
     7
 10
100.176912634202
 20
26.4488180189139
 30
0.0
 11
97.2224893569946
 21
25.9278735889623
 31
0.0
  0
LINE
  5
   12D
  8
0
  6
CONTINUOUS
 62
     7
 10
97.2224893569946
 20
25.9278735889623
 30
0.0
 11
100.176912634202
 21
25.4069291590106
 31
0.0
  0
LINE
  5
   12E
  8
0
  6
CONTINUOUS
 62
     7
 10
116.768066079788
 20
25.4069291590106
 30
0.0
 11
119.722489356995
 21
25.9278735889623
 31
0.0
  0
LINE
  5
   12F
  8
0
  6
CONTINUOUS
 62
     7
 10
119.722489356995
 20
25.9278735889623
 30
0.0
 11
116.768066079788
 21
26.4488180189139
 31
0.0
  0
ENDBLK
  5
   130
  8
0
  6
CONTINUOUS
 62
     7
  0
BLOCK
  5
   131
  8
0
  6
CONTINUOUS
 62
     7
  2
*UDIM205
 70
    65
 10
0.0
 20
0.0
 30
0.0
  3
*UDIM205
  0
TEXT
  5
   132
  8
0
  6
CONTINUOUS
 62
     7
 10
119.872489822904
 20
26.9278735889623
 30
0.0
 40
3.00000002980232
  1
5
 41
0.933333333333334
 72
     1
 11
120.972489833832
 21
28.4278736038634
 31
0.0
 73
     2
  0
LINE
  5
   133
  8
0
  6
CONTINUOUS
 62
     7
 10
122.222490310669
 20
12.9928512573243
 30
0.0
 11
122.222490310669
 21
27.9278735889623
 31
0.0
  0
LINE
  5
   134
  8
0
  6
CONTINUOUS
 62
     7
 10
119.722489356995
 20
25.9278735889623
 30
0.0
 11
122.222490310669
 21
25.9278735889623
 31
0.0
  0
LINE
  5
   135
  8
0
  6
CONTINUOUS
 62
     7
 10
116.768066079788
 20
25.4069291590106
 30
0.0
 11
119.722489356995
 21
25.9278735889623
 31
0.0
  0
LINE
  5
   136
  8
0
  6
CONTINUOUS
 62
     7
 10
119.722489356995
 20
25.9278735889623
 30
0.0
 11
116.768066079788
 21
26.4488180189139
 31
0.0
  0
LINE
  5
   137
  8
0
  6
CONTINUOUS
 62
     7
 10
125.176913587876
 20
26.4488180189139
 30
0.0
 11
122.222490310669
 21
25.9278735889623
 31
0.0
  0
LINE
  5
   138
  8
0
  6
CONTINUOUS
 62
     7
 10
122.222490310669
 20
25.9278735889623
 30
0.0
 11
125.176913587876
 21
25.4069291590106
 31
0.0
  0
ENDBLK
  5
   139
  8
0
  6
CONTINUOUS
 62
     7
  0
BLOCK
  5
   13A
  8
0
  6
CONTINUOUS
 62
     7
  2
*UDIM206
 70
    65
 10
0.0
 20
0.0
 30
0.0
  3
*UDIM206
  0
TEXT
  5
   13B
  8
0
  6
CONTINUOUS
 62
     7
 10
76.4660060671877
 20
14.6307612846314
 30
0.0
 40
3.00000002980232
  1
12,5
 50
90.0
 41
0.933333333333333
 72
     1
 11
74.9660060522799
 21
19.9307613372803
 31
0.0
 73
     2
  0
LINE
  5
   13C
  8
0
  6
CONTINUOUS
 62
     7
 10
117.722489356995
 20
5.74285888671875
 30
0.0
 11
75.4660060671811
 21
5.74285888671875
 31
0.0
  0
LINE
  5
   13D
  8
0
  6
CONTINUOUS
 62
     7
 10
118.722489356995
 20
11.9928512573243
 30
0.0
 11
75.4660060671811
 21
11.9928512573243
 31
0.0
  0
LINE
  5
   13E
  8
0
  6
CONTINUOUS
 62
     7
 10
77.4660060671811
 20
5.74285888671875
 30
0.0
 11
77.4660060671811
 21
25.2307613899311
 31
0.0
  0
LINE
  5
   13F
  8
0
  6
CONTINUOUS
 62
     7
 10
77.9869504971327
 20
2.78843560951178
 30
0.0
 11
77.4660060671811
 21
5.74285888671875
 31
0.0
  0
LINE
  5
   140
  8
0
  6
CONTINUOUS
 62
     7
 10
77.4660060671811
 20
5.74285888671875
 30
0.0
 11
76.9450616372294
 21
2.78843560951178
 31
0.0
  0
LINE
  5
   141
  8
0
  6
CONTINUOUS
 62
     7
 10
76.9450616372294
 20
14.9472745345312
 30
0.0
 11
77.4660060671811
 21
11.9928512573243
 31
0.0
  0
LINE
  5
   142
  8
0
  6
CONTINUOUS
 62
     7
 10
77.4660060671811
 20
11.9928512573243
 30
0.0
 11
77.9869504971327
 21
14.9472745345312
 31
0.0
  0
ENDBLK
  5
   143
  8
0
  6
CONTINUOUS
 62
     7
  0
BLOCK
  5
   144
  8
0
  6
CONTINUOUS
 62
     7
  2
*UDIM207
 70
    65
 10
0.0
 20
0.0
 30
0.0
  3
*UDIM207
  0
TEXT
  5
   145
  8
0
  6
CONTINUOUS
 62
     7
 10
76.4660060671842
 20
-11.7571411381146
 30
0.0
 40
3.00000002980232
  1
60
 50
90.0
 41
0.933333333333333
 72
     1
 11
74.9660060522799
 21
-9.25714111328125
 31
0.0
 73
     2
  0
LINE
  5
   146
  8
0
  6
CONTINUOUS
 62
     7
 10
103.558975244011
 20
-24.2571411132813
 30
0.0
 11
75.4660060671811
 21
-24.2571411132813
 31
0.0
  0
LINE
  5
   147
  8
0
  6
CONTINUOUS
 62
     7
 10
77.4660060671811
 20
-24.2571411132813
 30
0.0
 11
77.4660060671811
 21
5.74285888671875
 31
0.0
  0
LINE
  5
   148
  8
0
  6
CONTINUOUS
 62
     7
 10
76.9450616372294
 20
-21.3027178360743
 30
0.0
 11
77.4660060671811
 21
-24.2571411132813
 31
0.0
  0
LINE
  5
   149
  8
0
  6
CONTINUOUS
 62
     7
 10
77.4660060671811
 20
-24.2571411132813
 30
0.0
 11
77.9869504971327
 21
-21.3027178360743
 31
0.0
  0
LINE
  5
   14A
  8
0
  6
CONTINUOUS
 62
     7
 10
77.9869504971327
 20
2.78843560951178
 30
0.0
 11
77.4660060671811
 21
5.74285888671875
 31
0.0
  0
LINE
  5
   14B
  8
0
  6
CONTINUOUS
 62
     7
 10
77.4660060671811
 20
5.74285888671875
 30
0.0
 11
76.9450616372294
 21
2.78843560951178
 31
0.0
  0
ENDBLK
  5
   14C
  8
0
  6
CONTINUOUS
 62
     7
  0
BLOCK
  5
   14D
  8
0
  6
CONTINUOUS
 62
     5
  2
*UDIM208
 70
    65
 10
0.0
 20
0.0
 30
0.0
  3
*UDIM208
  0
TEXT
  5
   14E
  8
0
  6
CONTINUOUS
 62
     5
 10
76.4660060671895
 20
-49.6696411857984
 30
0.0
 40
3.00000002980232
  1
73,75
 50
90.0
 41
0.933333333333333
 72
     1
 11
74.9660060522799
 21
-42.9696411192417
 31
0.0
 73
     2
  0
LINE
  5
   14F
  8
0
  6
CONTINUOUS
 62
     5
 10
85.8831394306545
 20
-61.1321411132813
 30
0.0
 11
75.4660060671811
 21
-61.1321411132813
 31
0.0
  0
LINE
  5
   150
  8
0
  6
CONTINUOUS
 62
     5
 10
103.558975244011
 20
-24.2571411132813
 30
0.0
 11
75.4660060671811
 21
-24.2571411132813
 31
0.0
  0
LINE
  5
   151
  8
0
  6
CONTINUOUS
 62
     5
 10
77.4660060671811
 20
-61.1321411132813
 30
0.0
 11
77.4660060671811
 21
-24.2571411132813
 31
0.0
  0
LINE
  5
   152
  8
0
  6
CONTINUOUS
 62
     5
 10
76.9450616372294
 20
-58.1777178360743
 30
0.0
 11
77.4660060671811
 21
-61.1321411132813
 31
0.0
  0
LINE
  5
   153
  8
0
  6
CONTINUOUS
 62
     5
 10
77.4660060671811
 20
-61.1321411132813
 30
0.0
 11
77.9869504971327
 21
-58.1777178360743
 31
0.0
  0
LINE
  5
   154
  8
0
  6
CONTINUOUS
 62
     5
 10
77.9869504971327
 20
-27.2115643904882
 30
0.0
 11
77.4660060671811
 21
-24.2571411132813
 31
0.0
  0
LINE
  5
   155
  8
0
  6
CONTINUOUS
 62
     5
 10
77.4660060671811
 20
-24.2571411132813
 30
0.0
 11
76.9450616372294
 21
-27.2115643904882
 31
0.0
  0
ENDBLK
  5
   156
  8
0
  6
CONTINUOUS
 62
     5
  0
BLOCK
  5
   157
  8
0
  6
CONTINUOUS
 62
     7
  2
*UDIM209
 70
    65
 10
0.0
 20
0.0
 30
0.0
  3
*UDIM209
  0
TEXT
  5
   158
  8
0
  6
CONTINUOUS
 62
     7
 10
67.8550630709685
 20
-64.1821409107768
 30
0.0
 40
3.00000002980232
  1
143
 50
90.0
 41
0.933333333333333
 72
     1
 11
66.3550630560624
 21
-60.2821408720356
 31
0.0
 73
     2
  0
LINE
  5
   159
  8
0
  6
CONTINUOUS
 62
     7
 10
103.558975244011
 20
-95.7571407331349
 30
0.0
 11
66.8550630709637
 21
-95.7571267802764
 31
0.0
  0
LINE
  5
   15A
  8
0
  6
CONTINUOUS
 62
     7
 10
103.558975244011
 20
-24.2571406598973
 30
0.0
 11
66.8550630709638
 21
-24.2571240189327
 31
0.0
  0
LINE
  5
   15B
  8
0
  6
CONTINUOUS
 62
     7
 10
68.8550630709636
 20
-95.7571275405691
 30
0.0
 11
68.8550630709636
 21
-24.2571249257006
 31
0.0
  0
LINE
  5
   15C
  8
0
  6
CONTINUOUS
 62
     7
 10
68.3341186410119
 20
-92.8027042633622
 30
0.0
 11
68.8550630709636
 21
-95.7571275405691
 31
0.0
  0
LINE
  5
   15D
  8
0
  6
CONTINUOUS
 62
     7
 10
68.8550630709636
 20
-95.7571275405691
 30
0.0
 11
69.3760075009153
 21
-92.8027042633622
 31
0.0
  0
LINE
  5
   15E
  8
0
  6
CONTINUOUS
 62
     7
 10
69.3760075009153
 20
-27.2115482029076
 30
0.0
 11
68.8550630709636
 21
-24.2571249257006
 31
0.0
  0
LINE
  5
   15F
  8
0
  6
CONTINUOUS
 62
     7
 10
68.8550630709636
 20
-24.2571249257006
 30
0.0
 11
68.3341186410119
 21
-27.2115482029076
 31
0.0
  0
ENDBLK
  5
   160
  8
0
  6
CONTINUOUS
 62
     7
  0
BLOCK
  5
   161
  8
0
  6
CONTINUOUS
 62
     7
  2
*HATCH80
 70
    65
 10
0.0
 20
0.0
 30
0.0
  3
*HATCH80
  0
LINE
  5
   162
  8
0
  6
CONTINUOUS
 62
   210
 10
23.0000019073486
 20
76.7020874023438
 30
0.0
 11
25.7020854949951
 21
74.0
 31
0.0
  0
LINE
  5
   163
  8
0
  6
CONTINUOUS
 62
   210
 10
24.194730758667
 20
79.75
 30
0.0
 11
28.0000019073486
 21
75.9447250366211
 31
0.0
  0
ENDBLK
  5
   164
  8
0
  6
CONTINUOUS
 62
     7
  0
BLOCK
  5
   165
  8
0
  6
CONTINUOUS
 62
     7
  2
*HATCH81
 70
    65
 10
0.0
 20
0.0
 30
0.0
  3
*HATCH81
  0
LINE
  5
   166
  8
0
  6
CONTINUOUS
 62
   210
 10
23.0000019073486
 20
76.7020874023438
 30
0.0
 11
25.7020854949951
 21
74.0
 31
0.0
  0
LINE
  5
   167
  8
0
  6
CONTINUOUS
 62
   210
 10
24.194730758667
 20
79.75
 30
0.0
 11
28.0000019073486
 21
75.9447250366211
 31
0.0
  0
ENDBLK
  5
   168
  8
0
  6
CONTINUOUS
 62
     7
  0
BLOCK
  5
   169
  8
0
  6
CONTINUOUS
 62
     7
  2
*HATCH82
 70
    65
 10
0.0
 20
0.0
 30
0.0
  3
*HATCH82
  0
LINE
  5
   16A
  8
0
  6
CONTINUOUS
 62
   210
 10
22.9999980926514
 20
91.5513381958008
 30
0.0
 11
26.3013362884521
 21
88.25
 31
0.0
  0
LINE
  5
   16B
  8
0
  6
CONTINUOUS
 62
   210
 10
22.9999942779541
 20
95.7939910888672
 30
0.0
 11
28.0000019073486
 21
90.7939758300781
 31
0.0
  0
LINE
  5
   16C
  8
0
  6
CONTINUOUS
 62
   210
 10
22.9999904632568
 20
100.036636352539
 30
0.0
 11
28.0000019073486
 21
95.03662109375
 31
0.0
  0
LINE
  5
   16D
  8
0
  6
CONTINUOUS
 62
   210
 10
22.9999866485596
 20
104.279281616211
 30
0.0
 11
28.0000019073486
 21
99.2792663574219
 31
0.0
  0
LINE
  5
   16E
  8
0
  6
CONTINUOUS
 62
   210
 10
23.3986186981201
 20
108.12329864502
 30
0.0
 11
28.0000019073486
 21
103.521903991699
 31
0.0
  0
LINE
  5
   16F
  8
0
  6
CONTINUOUS
 62
   210
 10
25.0352230072022
 20
110.729331970215
 30
0.0
 11
28.5697040557861
 21
107.194847106934
 31
0.0
  0
LINE
  5
   170
  8
0
  6
CONTINUOUS
 62
   210
 10
27.5920448303223
 20
112.415153503418
 30
0.0
 11
31.3544807434082
 21
108.652709960937
 31
0.0
  0
LINE
  5
   171
  8
0
  6
CONTINUOUS
 62
   210
 10
30.4854621887207
 20
113.764381408691
 30
0.0
 11
34.2478981018066
 21
110.001937866211
 31
0.0
  0
LINE
  5
   172
  8
0
  6
CONTINUOUS
 62
   210
 10
33.3788795471191
 20
115.113609313965
 30
0.0
 11
37.1413154602051
 21
111.351165771484
 31
0.0
  0
LINE
  5
   173
  8
0
  6
CONTINUOUS
 62
   210
 10
36.2722969055176
 20
116.462837219238
 30
0.0
 11
40.0347328186035
 21
112.700393676758
 31
0.0
  0
LINE
  5
   174
  8
0
  6
CONTINUOUS
 62
   210
 10
39.165714263916
 20
117.812065124512
 30
0.0
 11
42.928150177002
 21
114.049621582031
 31
0.0
  0
LINE
  5
   175
  8
0
  6
CONTINUOUS
 62
   210
 10
42.0123329162598
 20
119.208061218262
 30
0.0
 11
45.5996932983398
 21
115.620697021484
 31
0.0
  0
LINE
  5
   176
  8
0
  6
CONTINUOUS
 62
   210
 10
43.0000038146973
 20
122.463035583496
 30
0.0
 11
47.3902053833008
 21
118.072830200195
 31
0.0
  0
LINE
  5
   177
  8
0
  6
CONTINUOUS
 62
   210
 10
43.0000038146973
 20
126.705680847168
 30
0.0
 11
48.0000038146973
 21
121.705673217773
 31
0.0
  0
LINE
  5
   178
  8
0
  6
CONTINUOUS
 62
   210
 10
43.0000038146973
 20
130.948318481445
 30
0.0
 11
48.0000038146973
 21
125.948318481445
 31
0.0
  0
LINE
  5
   179
  8
0
  6
CONTINUOUS
 62
   210
 10
43.0000038146973
 20
135.190963745117
 30
0.0
 11
48.0000038146973
 21
130.190963745117
 31
0.0
  0
LINE
  5
   17A
  8
0
  6
CONTINUOUS
 62
   210
 10
43.0000038146973
 20
139.433609008789
 30
0.0
 11
48.0000038146973
 21
134.433609008789
 31
0.0
  0
LINE
  5
   17B
  8
0
  6
CONTINUOUS
 62
   210
 10
46.9262466430664
 20
139.75
 30
0.0
 11
48.0000038146973
 21
138.676239013672
 31
0.0
  0
ENDBLK
  5
   17C
  8
0
  6
CONTINUOUS
 62
     7
  0
BLOCK
  5
   17D
  8
0
  6
CONTINUOUS
 62
     7
  2
*HATCH83
 70
    65
 10
0.0
 20
0.0
 30
0.0
  3
*HATCH83
  0
LINE
  5
   17E
  8
0
  6
CONTINUOUS
 62
   210
 10
43.0000038146973
 20
152.161544799805
 30
0.0
 11
46.9115333557129
 21
148.25
 31
0.0
  0
LINE
  5
   17F
  8
0
  6
CONTINUOUS
 62
   210
 10
43.0000038146973
 20
156.404174804688
 30
0.0
 11
48.0000038146973
 21
151.404174804688
 31
0.0
  0
LINE
  5
   180
  8
0
  6
CONTINUOUS
 62
   210
 10
47.1468353271484
 20
156.499984741211
 30
0.0
 11
48.0000038146973
 21
155.646820068359
 31
0.0
  0
ENDBLK
  5
   181
  8
0
  6
CONTINUOUS
 62
     7
  0
BLOCK
  5
   182
  8
0
  6
CONTINUOUS
 62
     7
  2
*UDIM210
 70
    65
 10
0.0
 20
0.0
 30
0.0
  3
*UDIM210
  0
TEXT
  5
   183
  8
0
  6
CONTINUOUS
 62
     7
 10
119.617221456766
 20
49.1948012503459
 30
0.0
 40
3.00000002980232
  1
101
 41
0.933333333333333
 72
     1
 11
123.517221495509
 21
50.694801265247
 31
0.0
 73
     2
  0
LINE
  5
   184
  8
0
  6
CONTINUOUS
 62
     7
 10
97.4724898189306
 20
48.1948012503459
 30
0.0
 11
147.972489818931
 21
48.1948012503459
 31
0.0
  0
LINE
  5
   185
  8
0
  6
CONTINUOUS
 62
     7
 10
100.370267292141
 20
48.9712584067644
 30
0.0
 11
97.4724898189306
 21
48.1948012503459
 31
0.0
  0
LINE
  5
   186
  8
0
  6
CONTINUOUS
 62
     7
 10
97.4724898189306
 20
48.1948012503459
 30
0.0
 11
100.370267292141
 21
47.4183440939273
 31
0.0
  0
LINE
  5
   187
  8
0
  6
CONTINUOUS
 62
     7
 10
145.07471234572
 20
47.4183440939273
 30
0.0
 11
147.972489818931
 21
48.1948012503459
 31
0.0
  0
LINE
  5
   188
  8
0
  6
CONTINUOUS
 62
     7
 10
147.972489818931
 20
48.1948012503459
 30
0.0
 11
145.07471234572
 21
48.9712584067644
 31
0.0
  0
ENDBLK
  5
   189
  8
0
  6
CONTINUOUS
 62
     7
  0
BLOCK
  5
   18A
  8
0
  6
CONTINUOUS
 62
     2
  2
*UDIM211
 70
    65
 10
0.0
 20
0.0
 30
0.0
  3
*UDIM211
  0
TEXT
  5
   18B
  8
0
  6
CONTINUOUS
 62
     2
 10
82.8597669601454
 20
-103.507141219574
 30
0.0
 40
3.00000002980232
  1
8
 50
90.0
 41
0.933333333333334
 72
     1
 11
81.3597669452429
 21
-102.407141208649
 31
0.0
 73
     2
  0
TEXT
  5
   18C
  8
0
  6
CONTINUOUS
 62
     2
 10
82.8597669601454
 20
-106.25714125335
 30
0.0
 40
3.00000002980232
  1
M
 50
90.0
 41
0.933333333333334
 72
     1
 11
81.3597669452429
 21
-105.157141242425
 31
0.0
 73
     2
  0
LINE
  5
   18D
  8
0
  6
CONTINUOUS
 62
     2
 10
106.222489356992
 20
-97.7571411132813
 30
0.0
 11
81.8597669601441
 21
-97.7571411132813
 31
0.0
  0
LINE
  5
   18E
  8
0
  6
CONTINUOUS
 62
     2
 10
106.222489356992
 20
-93.7571411132813
 30
0.0
 11
81.8597669601441
 21
-93.7571411132813
 31
0.0
  0
LINE
  5
   18F
  8
0
  6
CONTINUOUS
 62
     2
 10
83.859766960144
 20
-106.257141253352
 30
0.0
 11
83.859766960144
 21
-93.7571411132813
 31
0.0
  0
LINE
  5
   190
  8
0
  6
CONTINUOUS
 62
     2
 10
84.3807113900957
 20
-100.711564390488
 30
0.0
 11
83.859766960144
 21
-97.7571411132813
 31
0.0
  0
LINE
  5
   191
  8
0
  6
CONTINUOUS
 62
     2
 10
83.859766960144
 20
-97.7571411132813
 30
0.0
 11
83.3388225301924
 21
-100.711564390488
 31
0.0
  0
LINE
  5
   192
  8
0
  6
CONTINUOUS
 62
     2
 10
83.3388225301924
 20
-90.8027178360743
 30
0.0
 11
83.859766960144
 21
-93.7571411132813
 31
0.0
  0
LINE
  5
   193
  8
0
  6
CONTINUOUS
 62
     2
 10
83.859766960144
 20
-93.7571411132813
 30
0.0
 11
84.3807113900957
 21
-90.8027178360743
 31
0.0
  0
ENDBLK
  5
   194
  8
0
  6
CONTINUOUS
 62
     2
  0
BLOCK
  5
   195
  8
0
  6
CONTINUOUS
 62
     7
  2
*UDIM212
 70
    65
 10
0.0
 20
0.0
 30
0.0
  3
*UDIM212
  0
TEXT
  5
   196
  8
0
  6
CONTINUOUS
 62
     7
 10
101.472489489117
 20
-120.810306549072
 30
0.0
 40
3.00000002980232
  1
5
 41
0.933333333333334
 72
     1
 11
102.572489500045
 21
-119.310306534171
 31
0.0
 73
     2
  0
LINE
  5
   197
  8
0
  6
CONTINUOUS
 62
     7
 10
107.222489356992
 20
-101.257134904255
 30
0.0
 11
107.222489356992
 21
-123.810306549072
 31
0.0
  0
LINE
  5
   198
  8
0
  6
CONTINUOUS
 62
     7
 10
109.722488880157
 20
-101.257134904255
 30
0.0
 11
109.722488880157
 21
-123.810306549072
 31
0.0
  0
LINE
  5
   199
  8
0
  6
CONTINUOUS
 62
     7
 10
101.472489489117
 20
-121.810306549072
 30
0.0
 11
109.722488880157
 21
-121.810306549072
 31
0.0
  0
LINE
  5
   19A
  8
0
  6
CONTINUOUS
 62
     7
 10
104.268066079785
 20
-122.331250979024
 30
0.0
 11
107.222489356992
 21
-121.810306549072
 31
0.0
  0
LINE
  5
   19B
  8
0
  6
CONTINUOUS
 62
     7
 10
107.222489356992
 20
-121.810306549072
 30
0.0
 11
104.268066079785
 21
-121.289362119121
 31
0.0
  0
LINE
  5
   19C
  8
0
  6
CONTINUOUS
 62
     7
 10
112.676912157364
 20
-121.289362119121
 30
0.0
 11
109.722488880157
 21
-121.810306549072
 31
0.0
  0
LINE
  5
   19D
  8
0
  6
CONTINUOUS
 62
     7
 10
109.722488880157
 20
-121.810306549072
 30
0.0
 11
112.676912157364
 21
-122.331250979024
 31
0.0
  0
ENDBLK
  5
   19E
  8
0
  6
CONTINUOUS
 62
     7
  0
BLOCK
  5
   19F
  8
0
  6
CONTINUOUS
 62
     7
  2
*UDIM213
 70
    65
 10
0.0
 20
0.0
 30
0.0
  3
*UDIM213
  0
TEXT
  5
   1A0
  8
0
  6
CONTINUOUS
 62
     7
 10
127.627822054426
 20
-120.810306549072
 30
0.0
 40
3.00000002980232
  1
5
 41
0.933333333333334
 72
     1
 11
128.727822065353
 21
-119.310306534171
 31
0.0
 73
     2
  0
TEXT
  5
   1A1
  8
0
  6
CONTINUOUS
 62
     7
 10
116.477821937203
 20
-120.810306549072
 30
0.0
 40
3.00000002980232
  1
min.
 41
0.933333333333333
 72
     1
 11
121.777821989854
 21
-119.310306534171
 31
0.0
 73
     2
  0
LINE
  5
   1A2
  8
0
  6
CONTINUOUS
 62
     7
 10
112.222489356995
 20
-101.257141113281
 30
0.0
 11
112.222489356995
 21
-123.810306549072
 31
0.0
  0
LINE
  5
   1A3
  8
0
  6
CONTINUOUS
 62
     7
 10
109.722488880157
 20
-121.810306549072
 30
0.0
 11
129.827822076281
 21
-121.810306549072
 31
0.0
  0
LINE
  5
   1A4
  8
0
  6
CONTINUOUS
 62
     7
 10
106.768065602951
 20
-122.331250979024
 30
0.0
 11
109.722488880157
 21
-121.810306549072
 31
0.0
  0
LINE
  5
   1A5
  8
0
  6
CONTINUOUS
 62
     7
 10
109.722488880157
 20
-121.810306549072
 30
0.0
 11
106.768065602951
 21
-121.289362119121
 31
0.0
  0
LINE
  5
   1A6
  8
0
  6
CONTINUOUS
 62
     7
 10
115.176912634202
 20
-121.289362119121
 30
0.0
 11
112.222489356995
 21
-121.810306549072
 31
0.0
  0
LINE
  5
   1A7
  8
0
  6
CONTINUOUS
 62
     7
 10
112.222489356995
 20
-121.810306549072
 30
0.0
 11
115.176912634202
 21
-122.331250979024
 31
0.0
  0
ENDBLK
  5
   1A8
  8
0
  6
CONTINUOUS
 62
     7
  0
BLOCK
  5
   1A9
  8
0
  6
CONTINUOUS
 62
     7
  2
*UDIM214
 70
    65
 10
0.0
 20
0.0
 30
0.0
  3
*UDIM214
  0
TEXT
  5
   1AA
  8
0
  6
CONTINUOUS
 62
     7
 10
88.6974897136278
 20
-114.781391143799
 30
0.0
 40
3.00000002980232
  1
20
 41
0.933333333333333
 72
     1
 11
91.1974897384631
 21
-113.281391128898
 31
0.0
 73
     2
  0
LINE
  5
   1AB
  8
0
  6
CONTINUOUS
 62
     7
 10
97.2224893569946
 20
-108.921867429748
 30
0.0
 11
97.2224893569946
 21
-117.781391143799
 31
0.0
  0
LINE
  5
   1AC
  8
0
  6
CONTINUOUS
 62
     7
 10
107.222489356992
 20
-101.257134904255
 30
0.0
 11
107.222489356992
 21
-117.781391143799
 31
0.0
  0
LINE
  5
   1AD
  8
0
  6
CONTINUOUS
 62
     7
 10
88.6974897136278
 20
-115.781391143799
 30
0.0
 11
107.222489356992
 21
-115.781391143799
 31
0.0
  0
LINE
  5
   1AE
  8
0
  6
CONTINUOUS
 62
     7
 10
100.176912634202
 20
-115.260446713847
 30
0.0
 11
97.2224893569946
 21
-115.781391143799
 31
0.0
  0
LINE
  5
   1AF
  8
0
  6
CONTINUOUS
 62
     7
 10
97.2224893569946
 20
-115.781391143799
 30
0.0
 11
100.176912634202
 21
-116.30233557375
 31
0.0
  0
LINE
  5
   1B0
  8
0
  6
CONTINUOUS
 62
     7
 10
104.268066079785
 20
-116.30233557375
 30
0.0
 11
107.222489356992
 21
-115.781391143799
 31
0.0
  0
LINE
  5
   1B1
  8
0
  6
CONTINUOUS
 62
     7
 10
107.222489356992
 20
-115.781391143799
 30
0.0
 11
104.268066079785
 21
-115.260446713847
 31
0.0
  0
ENDBLK
  5
   1B2
  8
0
  6
CONTINUOUS
 62
     7
  0
BLOCK
  5
   1B3
  8
0
  6
CONTINUOUS
 62
     7
  2
*UDIM215
 70
    65
 10
0.0
 20
0.0
 30
0.0
  3
*UDIM215
  0
TEXT
  5
   1B4
  8
0
  6
CONTINUOUS
 62
     7
 10
119.797782084084
 20
-144.74732208252
 30
0.0
 40
3.00000002980232
  1
107
 41
0.933333333333333
 72
     1
 11
123.697782122827
 21
-143.247322067618
 31
0.0
 73
     2
  0
LINE
  5
   1B5
  8
0
  6
CONTINUOUS
 62
     7
 10
97.2224893569946
 20
-108.921867429748
 30
0.0
 11
97.2224893569946
 21
-147.74732208252
 31
0.0
  0
LINE
  5
   1B6
  8
0
  6
CONTINUOUS
 62
     7
 10
150.723073589278
 20
-126.088202897978
 30
0.0
 11
150.723073589278
 21
-147.74732208252
 31
0.0
  0
LINE
  5
   1B7
  8
0
  6
CONTINUOUS
 62
     7
 10
97.2224893569946
 20
-145.74732208252
 30
0.0
 11
150.723073589278
 21
-145.74732208252
 31
0.0
  0
LINE
  5
   1B8
  8
0
  6
CONTINUOUS
 62
     7
 10
100.176912634202
 20
-145.226377652568
 30
0.0
 11
97.2224893569946
 21
-145.74732208252
 31
0.0
  0
LINE
  5
   1B9
  8
0
  6
CONTINUOUS
 62
     7
 10
97.2224893569946
 20
-145.74732208252
 30
0.0
 11
100.176912634202
 21
-146.268266512471
 31
0.0
  0
LINE
  5
   1BA
  8
0
  6
CONTINUOUS
 62
     7
 10
147.768650312071
 20
-146.268266512471
 30
0.0
 11
150.723073589278
 21
-145.74732208252
 31
0.0
  0
LINE
  5
   1BB
  8
0
  6
CONTINUOUS
 62
     7
 10
150.723073589278
 20
-145.74732208252
 30
0.0
 11
147.768650312071
 21
-145.226377652568
 31
0.0
  0
ENDBLK
  5
   1BC
  8
0
  6
CONTINUOUS
 62
     7
  0
BLOCK
  5
   1BD
  8
0
  6
CONTINUOUS
 62
     7
  2
*UDIM216
 70
    65
 10
0.0
 20
0.0
 30
0.0
  3
*UDIM216
  0
TEXT
  5
   1BE
  8
0
  6
CONTINUOUS
 62
     7
 10
154.723072052472
 20
-144.74732208252
 30
0.0
 40
3.00000002980232
  1
2
 41
0.933333333333334
 72
     1
 11
155.8230720634
 21
-143.247322067618
 31
0.0
 73
     2
  0
LINE
  5
   1BF
  8
0
  6
CONTINUOUS
 62
     7
 10
151.723073589278
 20
-125.368576729753
 30
0.0
 11
151.723073589278
 21
-147.74732208252
 31
0.0
  0
LINE
  5
   1C0
  8
0
  6
CONTINUOUS
 62
     7
 10
150.723073589278
 20
-145.74732208252
 30
0.0
 11
156.923072074327
 21
-145.74732208252
 31
0.0
  0
LINE
  5
   1C1
  8
0
  6
CONTINUOUS
 62
     7
 10
147.768650312071
 20
-146.268266512471
 30
0.0
 11
150.723073589278
 21
-145.74732208252
 31
0.0
  0
LINE
  5
   1C2
  8
0
  6
CONTINUOUS
 62
     7
 10
150.723073589278
 20
-145.74732208252
 30
0.0
 11
147.768650312071
 21
-145.226377652568
 31
0.0
  0
LINE
  5
   1C3
  8
0
  6
CONTINUOUS
 62
     7
 10
154.677496866485
 20
-145.226377652568
 30
0.0
 11
151.723073589278
 21
-145.74732208252
 31
0.0
  0
LINE
  5
   1C4
  8
0
  6
CONTINUOUS
 62
     7
 10
151.723073589278
 20
-145.74732208252
 30
0.0
 11
154.677496866485
 21
-146.268266512471
 31
0.0
  0
ENDBLK
  5
   1C5
  8
0
  6
CONTINUOUS
 62
     7
  0
BLOCK
  5
   1C6
  8
0
  6
CONTINUOUS
 62
     7
  2
*UDIM217
 70
    65
 10
0.0
 20
0.0
 30
0.0
  3
*UDIM217
  0
TEXT
  5
   1C7
  8
0
  6
CONTINUOUS
 62
     7
 10
172.960403442388
 20
-65.3071369780795
 30
0.0
 40
3.00000002980232
  1
105
 50
90.0
 41
0.933333333333333
 72
     1
 11
171.460403427482
 21
-61.4071369393384
 31
0.0
 73
     2
  0
LINE
  5
   1C8
  8
0
  6
CONTINUOUS
 62
     7
 10
151.723073589278
 20
-87.3821414260177
 30
0.0
 11
175.960403442383
 21
-87.382149034515
 31
0.0
  0
LINE
  5
   1C9
  8
0
  6
CONTINUOUS
 62
     7
 10
151.723073589278
 20
-34.8821414271977
 30
0.0
 11
175.960403442383
 21
-34.882149035695
 31
0.0
  0
LINE
  5
   1CA
  8
0
  6
CONTINUOUS
 62
     7
 10
173.960403442383
 20
-87.3821484066821
 30
0.0
 11
173.960403442383
 21
-34.8821484078621
 31
0.0
  0
LINE
  5
   1CB
  8
0
  6
CONTINUOUS
 62
     7
 10
173.439459012431
 20
-84.4277251294751
 30
0.0
 11
173.960403442383
 21
-87.3821484066821
 31
0.0
  0
LINE
  5
   1CC
  8
0
  6
CONTINUOUS
 62
     7
 10
173.960403442383
 20
-87.3821484066821
 30
0.0
 11
174.481347872335
 21
-84.4277251294751
 31
0.0
  0
LINE
  5
   1CD
  8
0
  6
CONTINUOUS
 62
     7
 10
174.481347872335
 20
-37.836571685069
 30
0.0
 11
173.960403442383
 21
-34.8821484078621
 31
0.0
  0
LINE
  5
   1CE
  8
0
  6
CONTINUOUS
 62
     7
 10
173.960403442383
 20
-34.8821484078621
 30
0.0
 11
173.439459012431
 21
-37.836571685069
 31
0.0
  0
ENDBLK
  5
   1CF
  8
0
  6
CONTINUOUS
 62
     7
  0
BLOCK
  5
   1D0
  8
0
  6
CONTINUOUS
 62
     7
  2
*UDIM218
 70
    65
 10
0.0
 20
0.0
 30
0.0
  3
*UDIM218
  0
TEXT
  5
   1D1
  8
0
  6
CONTINUOUS
 62
     7
 10
115.622486423751
 20
-127.991241455078
 30
0.0
 40
3.00000002980232
  1
101,5
 41
0.933333333333333
 72
     1
 11
122.322486490309
 21
-126.491241440177
 31
0.0
 73
     2
  0
LINE
  5
   1D2
  8
0
  6
CONTINUOUS
 62
     7
 10
97.2224893569946
 20
-108.921867429748
 30
0.0
 11
97.2224893569946
 21
-130.991241455078
 31
0.0
  0
LINE
  5
   1D3
  8
0
  6
CONTINUOUS
 62
     7
 10
147.972488880754
 20
-35.8821411132813
 30
0.0
 11
147.972488880754
 21
-130.991241455078
 31
0.0
  0
LINE
  5
   1D4
  8
0
  6
CONTINUOUS
 62
     7
 10
97.2224893569946
 20
-128.991241455078
 30
0.0
 11
147.972488880754
 21
-128.991241455078
 31
0.0
  0
LINE
  5
   1D5
  8
0
  6
CONTINUOUS
 62
     7
 10
100.176912634202
 20
-128.470297025126
 30
0.0
 11
97.2224893569946
 21
-128.991241455078
 31
0.0
  0
LINE
  5
   1D6
  8
0
  6
CONTINUOUS
 62
     7
 10
97.2224893569946
 20
-128.991241455078
 30
0.0
 11
100.176912634202
 21
-129.51218588503
 31
0.0
  0
LINE
  5
   1D7
  8
0
  6
CONTINUOUS
 62
     7
 10
145.018065603547
 20
-129.51218588503
 30
0.0
 11
147.972488880754
 21
-128.991241455078
 31
0.0
  0
LINE
  5
   1D8
  8
0
  6
CONTINUOUS
 62
     7
 10
147.972488880754
 20
-128.991241455078
 30
0.0
 11
145.018065603547
 21
-128.470297025126
 31
0.0
  0
ENDBLK
  5
   1D9
  8
0
  6
CONTINUOUS
 62
     7
  0
BLOCK
  5
   1DA
  8
0
  6
CONTINUOUS
 62
     7
  2
*UDIM219
 70
    65
 10
0.0
 20
0.0
 30
0.0
  3
*UDIM219
  0
TEXT
  5
   1DB
  8
0
  6
CONTINUOUS
 62
     7
 10
116.122814495613
 20
-136.498497009277
 30
0.0
 40
3.00000002980232
  1
103,5
 41
0.933333333333333
 72
     1
 11
122.822814562171
 21
-134.998496994376
 31
0.0
 73
     2
  0
LINE
  5
   1DC
  8
0
  6
CONTINUOUS
 62
     7
 10
97.2224893569946
 20
-108.921867429748
 30
0.0
 11
97.2224893569946
 21
-139.498497009277
 31
0.0
  0
LINE
  5
   1DD
  8
0
  6
CONTINUOUS
 62
     7
 10
148.97314454764
 20
-88.3821411114538
 30
0.0
 11
148.97314454764
 21
-139.498497009277
 31
0.0
  0
LINE
  5
   1DE
  8
0
  6
CONTINUOUS
 62
     7
 10
97.2224893569946
 20
-137.498497009277
 30
0.0
 11
148.97314454764
 21
-137.498497009277
 31
0.0
  0
LINE
  5
   1DF
  8
0
  6
CONTINUOUS
 62
     7
 10
100.176912634202
 20
-136.977552579326
 30
0.0
 11
97.2224893569946
 21
-137.498497009277
 31
0.0
  0
LINE
  5
   1E0
  8
0
  6
CONTINUOUS
 62
     7
 10
97.2224893569946
 20
-137.498497009277
 30
0.0
 11
100.176912634202
 21
-138.019441439229
 31
0.0
  0
LINE
  5
   1E1
  8
0
  6
CONTINUOUS
 62
     7
 10
146.018721270433
 20
-138.019441439229
 30
0.0
 11
148.97314454764
 21
-137.498497009277
 31
0.0
  0
LINE
  5
   1E2
  8
0
  6
CONTINUOUS
 62
     7
 10
148.97314454764
 20
-137.498497009277
 30
0.0
 11
146.018721270433
 21
-136.977552579326
 31
0.0
  0
ENDBLK
  5
   1E3
  8
0
  6
CONTINUOUS
 62
     7
  0
BLOCK
  5
   1E4
  8
0
  6
CONTINUOUS
 62
     7
  2
*UDIM220
 70
    65
 10
0.0
 20
0.0
 30
0.0
  3
*UDIM220
  0
TEXT
  5
   1E5
  8
0
  6
CONTINUOUS
 62
     7
 10
89.972490204374
 20
-151.195419311523
 30
0.0
 40
3.00000002980232
  1
3
 41
0.933333333333334
 72
     1
 11
91.0724902153015
 21
-149.695419296622
 31
0.0
 73
     2
  0
TEXT
  5
   1E6
  8
0
  6
CONTINUOUS
 62
     7
 10
87.222490170598
 20
-151.195419311523
 30
0.0
 40
3.00000002980232
  1
_
 41
0.933333333333334
 72
     1
 11
88.3224901815256
 21
-149.695419296622
 31
0.0
 73
     2
  0
LINE
  5
   1E7
  8
0
  6
CONTINUOUS
 62
     7
 10
95.7224893569946
 20
-108.921867429748
 30
0.0
 11
95.7224893569946
 21
-154.195419311523
 31
0.0
  0
LINE
  5
   1E8
  8
0
  6
CONTINUOUS
 62
     7
 10
97.2224893569946
 20
-108.921867429748
 30
0.0
 11
97.2224893569946
 21
-154.195419311523
 31
0.0
  0
LINE
  5
   1E9
  8
0
  6
CONTINUOUS
 62
     7
 10
87.222490170598
 20
-152.195419311523
 30
0.0
 11
97.2224893569946
 21
-152.195419311523
 31
0.0
  0
LINE
  5
   1EA
  8
0
  6
CONTINUOUS
 62
     7
 10
92.7680660797877
 20
-152.716363741475
 30
0.0
 11
95.7224893569946
 21
-152.195419311523
 31
0.0
  0
LINE
  5
   1EB
  8
0
  6
CONTINUOUS
 62
     7
 10
95.7224893569946
 20
-152.195419311523
 30
0.0
 11
92.7680660797877
 21
-151.674474881572
 31
0.0
  0
LINE
  5
   1EC
  8
0
  6
CONTINUOUS
 62
     7
 10
100.176912634202
 20
-151.674474881572
 30
0.0
 11
97.2224893569946
 21
-152.195419311523
 31
0.0
  0
LINE
  5
   1ED
  8
0
  6
CONTINUOUS
 62
     7
 10
97.2224893569946
 20
-152.195419311523
 30
0.0
 11
100.176912634202
 21
-152.716363741475
 31
0.0
  0
ENDBLK
  5
   1EE
  8
0
  6
CONTINUOUS
 62
     7
  0
BLOCK
  5
   1EF
  8
0
  6
CONTINUOUS
 62
     7
  2
*UDIM221
 70
    65
 10
0.0
 20
0.0
 30
0.0
  3
*UDIM221
  0
TEXT
  5
   1F0
  8
0
  6
CONTINUOUS
 62
     7
 10
126.808755081506
 20
-151.195419311523
 30
0.0
 40
3.00000002980232
  1
135
 41
0.933333333333333
 72
     1
 11
130.708755120249
 21
-149.695419296622
 31
0.0
 73
     2
  0
LINE
  5
   1F1
  8
0
  6
CONTINUOUS
 62
     7
 10
164.745023100796
 20
-67.2571411132813
 30
0.0
 11
164.745023100796
 21
-154.195419311523
 31
0.0
  0
LINE
  5
   1F2
  8
0
  6
CONTINUOUS
 62
     7
 10
97.2224893569946
 20
-152.195419311523
 30
0.0
 11
164.745023100796
 21
-152.195419311523
 31
0.0
  0
LINE
  5
   1F3
  8
0
  6
CONTINUOUS
 62
     7
 10
100.176912634202
 20
-151.674474881572
 30
0.0
 11
97.2224893569946
 21
-152.195419311523
 31
0.0
  0
LINE
  5
   1F4
  8
0
  6
CONTINUOUS
 62
     7
 10
97.2224893569946
 20
-152.195419311523
 30
0.0
 11
100.176912634202
 21
-152.716363741475
 31
0.0
  0
LINE
  5
   1F5
  8
0
  6
CONTINUOUS
 62
     7
 10
161.790599823589
 20
-152.716363741475
 30
0.0
 11
164.745023100796
 21
-152.195419311523
 31
0.0
  0
LINE
  5
   1F6
  8
0
  6
CONTINUOUS
 62
     7
 10
164.745023100796
 20
-152.195419311523
 30
0.0
 11
161.790599823589
 21
-151.674474881572
 31
0.0
  0
ENDBLK
  5
   1F7
  8
0
  6
CONTINUOUS
 62
     7
  0
BLOCK
  5
   1F8
  8
0
  6
CONTINUOUS
 62
     7
  2
*UDIM222
 70
    65
 10
0.0
 20
0.0
 30
0.0
  3
*UDIM222
  0
TEXT
  5
   1F9
  8
0
  6
CONTINUOUS
 62
     7
 10
75.3966522216828
 20
-104.28214079122
 30
0.0
 40
3.00000002980232
  1
10
 50
90.0
 41
0.933333333333333
 72
     1
 11
73.8966522067785
 21
-101.782140766387
 31
0.0
 73
     2
  0
LINE
  5
   1FA
  8
0
  6
CONTINUOUS
 62
     7
 10
103.558975244011
 20
-95.7571407993648
 30
0.0
 11
74.3966522216798
 21
-95.757131644831
 31
0.0
  0
LINE
  5
   1FB
  8
0
  6
CONTINUOUS
 62
     7
 10
97.2224893569947
 20
-90.757134460893
 30
0.0
 11
74.3966522216799
 21
-90.7571243407931
 31
0.0
  0
LINE
  5
   1FC
  8
0
  6
CONTINUOUS
 62
     7
 10
76.3966522216797
 20
-104.282140791222
 30
0.0
 11
76.3966522216797
 21
-90.7571252275163
 31
0.0
  0
LINE
  5
   1FD
  8
0
  6
CONTINUOUS
 62
     7
 10
76.9175966516314
 20
-98.7115555498709
 30
0.0
 11
76.3966522216797
 21
-95.7571322726639
 31
0.0
  0
LINE
  5
   1FE
  8
0
  6
CONTINUOUS
 62
     7
 10
76.3966522216797
 20
-95.7571322726639
 30
0.0
 11
75.875707791728
 21
-98.7115555498709
 31
0.0
  0
LINE
  5
   1FF
  8
0
  6
CONTINUOUS
 62
     7
 10
75.875707791728
 20
-87.8027019503094
 30
0.0
 11
76.3966522216797
 21
-90.7571252275163
 31
0.0
  0
LINE
  5
   200
  8
0
  6
CONTINUOUS
 62
     7
 10
76.3966522216797
 20
-90.7571252275163
 30
0.0
 11
76.9175966516314
 21
-87.8027019503094
 31
0.0
  0
ENDBLK
  5
   201
  8
0
  6
CONTINUOUS
 62
     7
  0
BLOCK
  5
   202
  8
0
  6
CONTINUOUS
 62
     7
  2
*UDIM223
 70
    65
 10
0.0
 20
0.0
 30
0.0
  3
*UDIM223
  0
TEXT
  5
   203
  8
0
  6
CONTINUOUS
 62
     7
 10
162.085075378421
 20
-29.6140465112421
 30
0.0
 40
3.00000002980232
  1
10
 50
90.0
 41
0.933333333333333
 72
     1
 11
160.585075363517
 21
-27.1140464864087
 31
0.0
 73
     2
  0
LINE
  5
   204
  8
0
  6
CONTINUOUS
 62
     7
 10
116.672135598194
 20
-29.2571414271977
 30
0.0
 11
165.085075378418
 21
-29.2571566248171
 31
0.0
  0
LINE
  5
   205
  8
0
  6
CONTINUOUS
 62
     7
 10
113.888798808308
 20
-24.2571414271977
 30
0.0
 11
165.085075378418
 21
-24.2571574985523
 31
0.0
  0
LINE
  5
   206
  8
0
  6
CONTINUOUS
 62
     7
 10
163.085075378418
 20
-29.614046511244
 30
0.0
 11
163.085075378418
 21
-24.2571568707194
 31
0.0
  0
LINE
  5
   207
  8
0
  6
CONTINUOUS
 62
     7
 10
163.60601980837
 20
-32.2115792741911
 30
0.0
 11
163.085075378418
 21
-29.2571559969841
 31
0.0
  0
LINE
  5
   208
  8
0
  6
CONTINUOUS
 62
     7
 10
163.085075378418
 20
-29.2571559969841
 30
0.0
 11
162.564130948466
 21
-32.2115792741911
 31
0.0
  0
LINE
  5
   209
  8
0
  6
CONTINUOUS
 62
     7
 10
162.564130948466
 20
-21.3027335935124
 30
0.0
 11
163.085075378418
 21
-24.2571568707194
 31
0.0
  0
LINE
  5
   20A
  8
0
  6
CONTINUOUS
 62
     7
 10
163.085075378418
 20
-24.2571568707194
 30
0.0
 11
163.60601980837
 21
-21.3027335935124
 31
0.0
  0
ENDBLK
  5
   20B
  8
0
  6
CONTINUOUS
 62
     7
  0
BLOCK
  5
   20C
  8
0
  6
CONTINUOUS
 62
     7
  2
*UDIM224
 70
    65
 10
0.0
 20
0.0
 30
0.0
  3
*UDIM224
  0
TEXT
  5
   20D
  8
0
  6
CONTINUOUS
 62
     7
 10
-53.6731141001182
 20
-201.385611839951
 30
0.0
 40
3.00000002980232
  1
5,5
 50
383.748266401785
 41
0.933333333333333
 72
     1
 11
-50.7074302713569
 21
-198.442022232902
 31
0.0
 73
     2
  0
TEXT
  5
   20E
  8
0
  6
CONTINUOUS
 62
     7
 10
-56.1902542046517
 20
-202.493089099273
 30
0.0
 40
3.00000002980232
  1
Ø
 50
383.748266401785
 41
0.933333333333334
 72
     1
 11
-55.7874766622407
 21
-200.677112689715
 31
0.0
 73
     2
  0
TEXT
  5
   20F
  8
0
  6
CONTINUOUS
 62
     7
 10
-46.0301614269629
 20
-198.022908176378
 30
0.0
 40
3.00000002980232
  1
 - M5
 50
383.748266401785
 41
0.933333333333333
 72
     1
 11
-40.5015713118514
 21
-193.95170537184
 31
0.0
 73
     2
  0
LINE
  5
   210
  8
0
  6
CONTINUOUS
 62
     7
 10
-22.2951591796942
 20
-188.672624097932
 30
0.0
 11
-55.7875352046091
 21
-203.408412763877
 31
0.0
  0
LINE
  5
   211
  8
0
  6
CONTINUOUS
 62
     7
 10
-19.8006998591597
 20
-187.005988955437
 30
0.0
 11
-22.2951591796942
 21
-188.672624097932
 31
0.0
  0
LINE
  5
   212
  8
0
  6
CONTINUOUS
 62
     7
 10
-22.2951591796942
 20
-188.672624097932
 30
0.0
 11
-19.3811114227658
 21
-187.959654484035
 31
0.0
  0
LINE
  5
   213
  8
0
  6
CONTINUOUS
 62
     7
 10
-26.0481885380571
 20
-190.892997860969
 30
0.0
 11
-23.5537292175226
 21
-189.226362718474
 31
0.0
  0
LINE
  5
   214
  8
0
  6
CONTINUOUS
 62
     7
 10
-23.5537292175226
 20
-189.226362718474
 30
0.0
 11
-26.467776974451
 21
-189.939332332372
 31
0.0
  0
ENDBLK
  5
   215
  8
0
  6
CONTINUOUS
 62
     7
  0
BLOCK
  5
   216
  8
0
  6
CONTINUOUS
 62
     5
  2
*UDIM225
 70
    65
 10
0.0
 20
0.0
 30
0.0
  3
*UDIM225
  0
TEXT
  5
   217
  8
0
  6
CONTINUOUS
 62
     5
 10
-41.9611435057637
 20
-169.540610960851
 30
0.0
 40
3.00000002980232
  1
71,75
 50
449.999999896069
 41
0.933333333333333
 72
     1
 11
-43.4611435085535
 21
-162.840610891581
 31
0.0
 73
     2
  0
LINE
  5
   218
  8
0
  6
CONTINUOUS
 62
     5
 10
-28.1005818171976
 20
-154.199493408203
 30
0.0
 11
-42.9611434936523
 21
-154.199493408203
 31
0.0
  0
LINE
  5
   219
  8
0
  6
CONTINUOUS
 62
     5
 10
-40.9611434936523
 20
-154.199493408203
 30
0.0
 11
-40.9611434936523
 21
-172.136993408203
 31
0.0
  0
LINE
  5
   21A
  8
0
  6
CONTINUOUS
 62
     5
 10
-40.4401990637007
 20
-157.15391668541
 30
0.0
 11
-40.9611434936523
 21
-154.199493408203
 31
0.0
  0
LINE
  5
   21B
  8
0
  6
CONTINUOUS
 62
     5
 10
-40.9611434936523
 20
-154.199493408203
 30
0.0
 11
-41.482087923604
 21
-157.15391668541
 31
0.0
  0
LINE
  5
   21C
  8
0
  6
CONTINUOUS
 62
     5
 10
-41.482087923604
 20
-169.182570130996
 30
0.0
 11
-40.9611434936523
 21
-172.136993408203
 31
0.0
  0
LINE
  5
   21D
  8
0
  6
CONTINUOUS
 62
     5
 10
-40.9611434936523
 20
-172.136993408203
 30
0.0
 11
-40.4401990637007
 21
-169.182570130996
 31
0.0
  0
ENDBLK
  5
   21E
  8
0
  6
CONTINUOUS
 62
     5
  0
BLOCK
  5
   21F
  8
0
  6
CONTINUOUS
 62
     7
  2
*UDIM226
 70
    65
 10
0.0
 20
0.0
 30
0.0
  3
*UDIM226
  0
TEXT
  5
   220
  8
0
  6
CONTINUOUS
 62
     7
 10
1.21582791434589
 20
-165.402751918085
 30
0.0
 40
3.00000002980232
  1
35
 50
359.999999896069
 41
0.933333333333333
 72
     1
 11
3.71582794189453
 21
-163.902751907706
 31
0.0
 73
     2
  0
LINE
  5
   221
  8
0
  6
CONTINUOUS
 62
     7
 10
6.2158279667298
 20
-166.402751922607
 30
0.0
 11
-22.9244441986084
 21
-166.402751922607
 31
0.0
  0
LINE
  5
   222
  8
0
  6
CONTINUOUS
 62
     7
 10
-11.2200209214014
 20
-165.881807492656
 30
0.0
 11
-14.1744441986084
 21
-166.402751922607
 31
0.0
  0
LINE
  5
   223
  8
0
  6
CONTINUOUS
 62
     7
 10
-14.1744441986084
 20
-166.402751922607
 30
0.0
 11
-11.2200209214014
 21
-166.923696352559
 31
0.0
  0
LINE
  5
   224
  8
0
  6
CONTINUOUS
 62
     7
 10
-25.8788674758154
 20
-166.923696352559
 30
0.0
 11
-22.9244441986084
 21
-166.402751922607
 31
0.0
  0
LINE
  5
   225
  8
0
  6
CONTINUOUS
 62
     7
 10
-22.9244441986084
 20
-166.402751922607
 30
0.0
 11
-25.8788674758154
 21
-165.881807492656
 31
0.0
  0
ENDBLK
  5
   226
  8
0
  6
CONTINUOUS
 62
     7
  0
BLOCK
  5
   227
  8
0
  6
CONTINUOUS
 62
     7
  2
*UDIM227
 70
    65
 10
0.0
 20
0.0
 30
0.0
  3
*UDIM227
  0
TEXT
  5
   228
  8
0
  6
CONTINUOUS
 62
     7
 10
-49.4277210306095
 20
-175.749494866909
 30
0.0
 40
3.00000002980232
  1
139
 50
449.999999896069
 41
0.933333333333333
 72
     1
 11
-50.9277210384607
 21
-171.849494825455
 31
0.0
 73
     2
  0
LINE
  5
   229
  8
0
  6
CONTINUOUS
 62
     7
 10
-28.1005818171976
 20
-154.199493094287
 30
0.0
 11
-50.4277210235595
 21
-154.19948608543
 31
0.0
  0
LINE
  5
   22A
  8
0
  6
CONTINUOUS
 62
     7
 10
-28.1005818171976
 20
-188.949493094287
 30
0.0
 11
-50.4277210235595
 21
-188.94948608543
 31
0.0
  0
LINE
  5
   22B
  8
0
  6
CONTINUOUS
 62
     7
 10
-48.4277210235596
 20
-154.199486713263
 30
0.0
 11
-48.4277210235596
 21
-188.949486713263
 31
0.0
  0
LINE
  5
   22C
  8
0
  6
CONTINUOUS
 62
     7
 10
-47.9067765936079
 20
-157.15390999047
 30
0.0
 11
-48.4277210235596
 21
-154.199486713263
 31
0.0
  0
LINE
  5
   22D
  8
0
  6
CONTINUOUS
 62
     7
 10
-48.4277210235596
 20
-154.199486713263
 30
0.0
 11
-48.9486654535112
 21
-157.15390999047
 31
0.0
  0
LINE
  5
   22E
  8
0
  6
CONTINUOUS
 62
     7
 10
-48.9486654535112
 20
-185.995063436056
 30
0.0
 11
-48.4277210235596
 21
-188.949486713263
 31
0.0
  0
LINE
  5
   22F
  8
0
  6
CONTINUOUS
 62
     7
 10
-48.4277210235596
 20
-188.949486713263
 30
0.0
 11
-47.9067765936079
 21
-185.995063436056
 31
0.0
  0
ENDBLK
  5
   230
  8
0
  6
CONTINUOUS
 62
     7
  0
BLOCK
  5
   231
  8
0
  6
CONTINUOUS
 62
     7
  2
*UDIM228
 70
    65
 10
0.0
 20
0.0
 30
0.0
  3
*UDIM228
  0
TEXT
  5
   232
  8
0
  6
CONTINUOUS
 62
     7
 10
215.448287649807
 20
-22.863502129747
 30
0.0
 40
3.00000002980232
  1
7
 50
397.208926617964
 41
0.933333333333334
 72
     1
 11
215.417282124251
 21
-21.0036530159399
 31
0.0
 73
     2
  0
TEXT
  5
   233
  8
0
  6
CONTINUOUS
 62
     7
 10
212.939515152717
 20
-24.7683802414454
 30
0.0
 40
3.00000002980232
  1
Ø
 50
397.208926617964
 41
0.933333333333334
 72
     1
 11
212.908509627161
 21
-22.9085311276383
 31
0.0
 73
     2
  0
LINE
  5
   234
  8
0
  6
CONTINUOUS
 62
     7
 10
231.772534323166
 20
-11.7243094803087
 30
0.0
 11
213.544238365923
 21
-25.5648159522115
 31
0.0
  0
LINE
  5
   235
  8
0
  6
CONTINUOUS
 62
     7
 10
233.81051533915
 20
-9.5228024104837
 30
0.0
 11
231.772534323166
 21
-11.7243094803087
 31
0.0
  0
LINE
  5
   236
  8
0
  6
CONTINUOUS
 62
     7
 10
231.772534323166
 20
-11.7243094803087
 30
0.0
 11
234.440569713052
 21
-10.3525999052479
 31
0.0
  0
LINE
  5
   237
  8
0
  6
CONTINUOUS
 62
     7
 10
228.340790813194
 20
-14.9840821644064
 30
0.0
 11
230.378771829178
 21
-12.7825750945814
 31
0.0
  0
LINE
  5
   238
  8
0
  6
CONTINUOUS
 62
     7
 10
230.378771829178
 20
-12.7825750945814
 30
0.0
 11
227.710736439291
 21
-14.1542846696423
 31
0.0
  0
ENDBLK
  5
   239
  8
0
  6
CONTINUOUS
 62
     7
  0
BLOCK
  5
   23A
  8
0
  6
CONTINUOUS
 62
     7
  2
*UDIM229
 70
    65
 10
0.0
 20
0.0
 30
0.0
  3
*UDIM229
  0
TEXT
  5
   23B
  8
0
  6
CONTINUOUS
 62
     7
 10
236.900653027395
 20
44.622019301516
 30
0.0
 40
3.00000002980232
  1
112
 50
359.999999844103
 41
0.933333333333333
 72
     1
 11
240.800653070211
 21
46.1220193058252
 31
0.0
 73
     2
  0
LINE
  5
   23C
  8
0
  6
CONTINUOUS
 62
     7
 10
227.075653076172
 20
20.4965577125549
 30
0.0
 11
227.075653076172
 21
45.6220192909241
 31
0.0
  0
LINE
  5
   23D
  8
0
  6
CONTINUOUS
 62
     7
 10
255.075653076172
 20
20.4965577125549
 30
0.0
 11
255.075653076172
 21
45.6220192909241
 31
0.0
  0
LINE
  5
   23E
  8
0
  6
CONTINUOUS
 62
     7
 10
227.075653076172
 20
43.6220192909241
 30
0.0
 11
255.075653076172
 21
43.6220192909241
 31
0.0
  0
LINE
  5
   23F
  8
0
  6
CONTINUOUS
 62
     7
 10
230.030076353379
 20
44.1429637208757
 30
0.0
 11
227.075653076172
 21
43.6220192909241
 31
0.0
  0
LINE
  5
   240
  8
0
  6
CONTINUOUS
 62
     7
 10
227.075653076172
 20
43.6220192909241
 30
0.0
 11
230.030076353379
 21
43.1010748609724
 31
0.0
  0
LINE
  5
   241
  8
0
  6
CONTINUOUS
 62
     7
 10
252.121229798965
 20
43.1010748609724
 30
0.0
 11
255.075653076172
 21
43.6220192909241
 31
0.0
  0
LINE
  5
   242
  8
0
  6
CONTINUOUS
 62
     7
 10
255.075653076172
 20
43.6220192909241
 30
0.0
 11
252.121229798965
 21
44.1429637208757
 31
0.0
  0
ENDBLK
  5
   243
  8
0
  6
CONTINUOUS
 62
     7
  0
BLOCK
  5
   244
  8
0
  6
CONTINUOUS
 62
     7
  2
*UDIM230
 70
    65
 10
0.0
 20
0.0
 30
0.0
  3
*UDIM230
  0
TEXT
  5
   245
  8
0
  6
CONTINUOUS
 62
     7
 10
238.300653041302
 20
36.4425492354579
 30
0.0
 40
3.00000002980232
  1
80
 50
359.999999844103
 41
0.933333333333333
 72
     1
 11
240.800653070211
 21
37.9425492435694
 31
0.0
 73
     2
  0
LINE
  5
   246
  8
0
  6
CONTINUOUS
 62
     7
 10
231.075653076172
 20
25.8715577125549
 30
0.0
 11
231.075653076172
 21
37.4425492286682
 31
0.0
  0
LINE
  5
   247
  8
0
  6
CONTINUOUS
 62
     7
 10
251.075653076172
 20
25.8715577125549
 30
0.0
 11
251.075653076172
 21
37.4425492286682
 31
0.0
  0
LINE
  5
   248
  8
0
  6
CONTINUOUS
 62
     7
 10
231.075653076172
 20
35.4425492286682
 30
0.0
 11
251.075653076172
 21
35.4425492286682
 31
0.0
  0
LINE
  5
   249
  8
0
  6
CONTINUOUS
 62
     7
 10
234.030076353379
 20
35.9634936586199
 30
0.0
 11
231.075653076172
 21
35.4425492286682
 31
0.0
  0
LINE
  5
   24A
  8
0
  6
CONTINUOUS
 62
     7
 10
231.075653076172
 20
35.4425492286682
 30
0.0
 11
234.030076353379
 21
34.9216047987166
 31
0.0
  0
LINE
  5
   24B
  8
0
  6
CONTINUOUS
 62
     7
 10
248.121229798965
 20
34.9216047987166
 30
0.0
 11
251.075653076172
 21
35.4425492286682
 31
0.0
  0
LINE
  5
   24C
  8
0
  6
CONTINUOUS
 62
     7
 10
251.075653076172
 20
35.4425492286682
 30
0.0
 11
248.121229798965
 21
35.9634936586199
 31
0.0
  0
ENDBLK
  5
   24D
  8
0
  6
CONTINUOUS
 62
     7
  0
BLOCK
  5
   24E
  8
0
  6
CONTINUOUS
 62
     7
  2
*UDIM231
 70
    65
 10
0.0
 20
0.0
 30
0.0
  3
*UDIM231
  0
TEXT
  5
   24F
  8
0
  6
CONTINUOUS
 62
     7
 10
200.054912556552
 20
1.3215576637795
 30
0.0
 40
3.00000002980232
  1
142
 50
449.999999844103
 41
0.933333333333333
 72
     1
 11
198.554912552238
 21
5.22155770659447
 31
0.0
 73
     2
  0
LINE
  5
   250
  8
0
  6
CONTINUOUS
 62
     7
 10
228.450653076172
 20
23.2465577125549
 30
0.0
 11
199.054912567139
 21
23.2465577125549
 31
0.0
  0
LINE
  5
   251
  8
0
  6
CONTINUOUS
 62
     7
 10
228.450653076172
 20
-12.2534422874451
 30
0.0
 11
199.054912567139
 21
-12.2534422874451
 31
0.0
  0
LINE
  5
   252
  8
0
  6
CONTINUOUS
 62
     7
 10
201.054912567139
 20
23.2465577125549
 30
0.0
 11
201.054912567139
 21
-12.2534422874451
 31
0.0
  0
LINE
  5
   253
  8
0
  6
CONTINUOUS
 62
     7
 10
201.57585699709
 20
20.292134435348
 30
0.0
 11
201.054912567139
 21
23.2465577125549
 31
0.0
  0
LINE
  5
   254
  8
0
  6
CONTINUOUS
 62
     7
 10
201.054912567139
 20
23.2465577125549
 30
0.0
 11
200.533968137187
 21
20.292134435348
 31
0.0
  0
LINE
  5
   255
  8
0
  6
CONTINUOUS
 62
     7
 10
200.533968137187
 20
-9.2990190102381
 30
0.0
 11
201.054912567139
 21
-12.2534422874451
 31
0.0
  0
LINE
  5
   256
  8
0
  6
CONTINUOUS
 62
     7
 10
201.054912567139
 20
-12.2534422874451
 30
0.0
 11
201.57585699709
 21
-9.2990190102381
 31
0.0
  0
ENDBLK
  5
   257
  8
0
  6
CONTINUOUS
 62
     7
  0
BLOCK
  5
   258
  8
0
  6
CONTINUOUS
 62
     7
  2
*UDIM232
 70
    65
 10
0.0
 20
0.0
 30
0.0
  3
*UDIM232
  0
TEXT
  5
   259
  8
0
  6
CONTINUOUS
 62
     7
 10
209.427221287631
 20
1.3215576637795
 30
0.0
 40
3.00000002980232
  1
112
 50
449.999999844103
 41
0.933333333333333
 72
     1
 11
207.927221283317
 21
5.22155770659447
 31
0.0
 73
     2
  0
LINE
  5
   25A
  8
0
  6
CONTINUOUS
 62
     7
 10
226.075653076172
 20
19.4965577125549
 30
0.0
 11
208.427221298218
 21
19.4965577125549
 31
0.0
  0
LINE
  5
   25B
  8
0
  6
CONTINUOUS
 62
     7
 10
226.075653076172
 20
-8.50344228744507
 30
0.0
 11
208.427221298218
 21
-8.50344228744507
 31
0.0
  0
LINE
  5
   25C
  8
0
  6
CONTINUOUS
 62
     7
 10
210.427221298218
 20
19.4965577125549
 30
0.0
 11
210.427221298218
 21
-8.50344228744507
 31
0.0
  0
LINE
  5
   25D
  8
0
  6
CONTINUOUS
 62
     7
 10
210.948165728169
 20
16.542134435348
 30
0.0
 11
210.427221298218
 21
19.4965577125549
 31
0.0
  0
LINE
  5
   25E
  8
0
  6
CONTINUOUS
 62
     7
 10
210.427221298218
 20
19.4965577125549
 30
0.0
 11
209.906276868266
 21
16.542134435348
 31
0.0
  0
LINE
  5
   25F
  8
0
  6
CONTINUOUS
 62
     7
 10
209.906276868266
 20
-5.5490190102381
 30
0.0
 11
210.427221298218
 21
-8.50344228744507
 31
0.0
  0
LINE
  5
   260
  8
0
  6
CONTINUOUS
 62
     7
 10
210.427221298218
 20
-8.50344228744507
 30
0.0
 11
210.948165728169
 21
-5.5490190102381
 31
0.0
  0
ENDBLK
  5
   261
  8
0
  6
CONTINUOUS
 62
     7
  0
ENDSEC
  0
SECTION
  2
ENTITIES
  0
LINE
  5
   262
  8
0
  6
CONTINUOUS
 62
     7
 10
-28.174461755691
 20
-17.5071477602657
 30
0.0
 11
-43.0494588682065
 21
-17.5071477602657
 31
0.0
  0
LINE
  5
   263
  8
0
  6
CONTINUOUS
 62
     7
 10
-25.2809608699263
 20
-17.5071477602657
 30
0.0
 11
-26.424461755691
 21
-17.5071477602657
 31
0.0
  0
LINE
  5
   264
  8
0
  6
CONTINUOUS
 62
     7
 10
-43.5494588682065
 20
-18.9071492861446
 30
0.0
 11
-43.5494588682065
 21
-18.0071477602657
 31
0.0
  0
LINE
  5
   265
  8
0
  6
CONTINUOUS
 62
     7
 10
-43.5494588682065
 20
-18.9071492861446
 30
0.0
 11
-44.7994588682065
 21
-18.9071492861446
 31
0.0
  0
LINE
  5
   266
  8
0
  6
CONTINUOUS
 62
     7
 10
-44.7994644902753
 20
-20.8821439455704
 30
0.0
 11
-44.7994644902753
 21
-18.9071492861445
 31
0.0
  0
LINE
  5
   267
  8
0
  6
CONTINUOUS
 62
     7
 10
-43.5494588682065
 20
-102.007147760266
 30
0.0
 11
-43.5494588682065
 21
-101.382142038222
 31
0.0
  0
LINE
  5
   268
  8
0
  6
CONTINUOUS
 62
     7
 10
-28.174461755691
 20
-102.507147760266
 30
0.0
 11
-43.0494588682064
 21
-102.507147760266
 31
0.0
  0
LINE
  5
   269
  8
0
  6
CONTINUOUS
 62
     7
 10
-10.6744266415258
 20
-102.507147760266
 30
0.0
 11
-26.424461755691
 21
-102.507147760266
 31
0.0
  0
LINE
  5
   26A
  8
0
  6
CONTINUOUS
 62
     7
 10
5.95054113179355
 20
-102.507147760266
 30
0.0
 11
-8.92442664152575
 21
-102.507147760266
 31
0.0
  0
LINE
  5
   26B
  8
0
  6
CONTINUOUS
 62
     7
 10
6.45054113179355
 20
-102.007147760266
 30
0.0
 11
6.45054113179355
 21
-101.382142038222
 31
0.0
  0
LINE
  5
   26C
  8
0
  6
CONTINUOUS
 62
     7
 10
-26.049461755691
 20
-20.7571477602657
 30
0.0
 11
-28.549461755691
 21
-20.7571477602657
 31
0.0
  0
LINE
  5
   26D
  8
0
  6
CONTINUOUS
 62
     7
 10
-43.5494618320424
 20
-20.8821439455704
 30
0.0
 11
-43.5494618320424
 21
-18.9071492861445
 31
0.0
  0
CIRCLE
  5
   26E
  8
0
  6
DOT
 62
     7
 10
-36.0494591737963
 20
-23.7571523110499
 30
0.0
 40
2.75000069115123
  0
CIRCLE
  5
   26F
  8
0
  6
CONTINUOUS
 62
     7
 10
-36.049461560986
 20
-19.5071431018976
 30
0.0
 40
0.700002264523652
  0
ARC
  5
   270
  8
0
  6
CONTINUOUS
 62
     7
 10
-43.0494575927383
 20
-18.0071471941007
 30
0.0
 40
0.500001995564727
 50
90.0000472185487
 51
180.000478784316
  0
CIRCLE
  5
   271
  8
0
  6
DOT
 62
     7
 10
-36.0494508324259
 20
-96.2571460565822
 30
0.0
 40
2.74999844531425
  0
CIRCLE
  5
   272
  8
0
  6
DOT
 62
     7
 10
-27.2994528262869
 20
-94.7571466907381
 30
0.0
 40
2.24999899340852
  0
CIRCLE
  5
   273
  8
0
  6
DOT
 62
     7
 10
-18.549455274949
 20
-96.2571483711641
 30
0.0
 40
2.7499985235645
  0
ARC
  5
   274
  8
0
  6
CONTINUOUS
 62
     7
 10
-43.0494587475721
 20
-102.007147708424
 30
0.0
 40
0.500000053060852
 50
180.000006024791
 51
269.999989483217
  0
CIRCLE
  5
   275
  8
0
  6
DOT
 62
     7
 10
-9.79945143118462
 20
-94.757159378472
 30
0.0
 40
2.24998966947475
  0
CIRCLE
  5
   276
  8
0
  6
DOT
 62
     7
 10
-1.04942262875982
 20
-96.2572082262203
 30
0.0
 40
2.7500660479039
  0
ARC
  5
   277
  8
0
  6
CONTINUOUS
 62
     7
 10
5.95054513548402
 20
-102.007152181556
 30
0.0
 40
0.49999520193586
 50
269.999767510228
 51
360.00047760375
  0
LINE
  5
   278
  8
0
  6
DASHDOT
 62
     7
 10
-36.049461560986
 20
-21.7071453664212
 30
0.0
 11
-36.049461560986
 21
-17.3071408373739
 31
0.0
  0
LINE
  5
   279
  8
0
  6
DASHDOT
 62
     7
 10
-33.8494592964624
 20
-19.5071431018976
 30
0.0
 11
-38.2494638255097
 21
-19.5071431018976
 31
0.0
  0
LINE
  5
   27A
  8
0
  6
DASHDOT
 62
     7
 10
-36.0494591737963
 20
-28.0071530022011
 30
0.0
 11
-36.0494591737963
 21
-19.5071516198987
 31
0.0
  0
LINE
  5
   27B
  8
0
  6
DASHDOT
 62
     7
 10
-31.799458482645
 20
-23.7571523110499
 30
0.0
 11
-40.2994598649475
 21
-23.7571523110499
 31
0.0
  0
LINE
  5
   27C
  8
0
  6
DASHDOT
 62
     7
 10
-27.299461755691
 20
-29.0071424140036
 30
0.0
 11
-27.299461755691
 21
-16.3253393249757
 31
0.0
  0
LINE
  5
   27D
  8
0
  6
DASHDOT
 62
     7
 10
-36.0494508324259
 20
-100.507144501896
 30
0.0
 11
-36.0494508324259
 21
-92.0071476112679
 31
0.0
  0
LINE
  5
   27E
  8
0
  6
DASHDOT
 62
     7
 10
-31.7994523871117
 20
-96.2571460565822
 30
0.0
 11
-40.2994492777402
 21
-96.2571460565822
 31
0.0
  0
LINE
  5
   27F
  8
0
  6
DASHDOT
 62
     7
 10
-27.2994528262869
 20
-103.720734410743
 30
0.0
 11
-27.2994528262869
 21
-91.0071476973295
 31
0.0
  0
LINE
  5
   280
  8
0
  6
DASHDOT
 62
     7
 10
-23.5494538328784
 20
-94.7571466907381
 30
0.0
 11
-31.0494518196954
 21
-94.7571466907381
 31
0.0
  0
LINE
  5
   281
  8
0
  6
DASHDOT
 62
     7
 10
-14.2994567513845
 20
-96.2571483711641
 30
0.0
 11
-22.7994537985135
 21
-96.2571483711641
 31
0.0
  0
LINE
  5
   282
  8
0
  6
DASHDOT
 62
     7
 10
-6.04946176170987
 20
-94.757159378472
 30
0.0
 11
-13.5494411006594
 21
-94.757159378472
 31
0.0
  0
LINE
  5
   283
  8
0
  6
DASHDOT
 62
     7
 10
-1.04942262875983
 20
-100.507274274124
 30
0.0
 11
-1.04942262875983
 21
-92.0071421783164
 31
0.0
  0
LINE
  5
   284
  8
0
  6
DASHDOT
 62
     7
 10
3.20064341914408
 20
-96.2572082262203
 30
0.0
 11
-5.29948867666373
 21
-96.2572082262203
 31
0.0
  0
LINE
  5
   285
  8
0
  6
DASHDOT
 62
     7
 10
-1.04944907426657
 20
-102.707142082169
 30
0.0
 11
-1.04944907426657
 21
-98.3071495599323
 31
0.0
  0
LINE
  5
   286
  8
0
  6
DASHDOT
 62
     7
 10
-36.0494525293041
 20
-102.707147607925
 30
0.0
 11
-36.0494525293041
 21
-98.3071474062985
 31
0.0
  0
LINE
  5
   287
  8
0
  6
CONTINUOUS
 62
     3
 10
7.45054817199707
 20
-34.8821439455704
 30
0.0
 11
-44.5494441986084
 21
-34.8821439455704
 31
0.0
  0
LINE
  5
   288
  8
0
  6
CONTINUOUS
 62
     3
 10
7.45054817199708
 20
-87.3821363161756
 30
0.0
 11
0.7005482017994
 21
-87.3821363161756
 31
0.0
  0
LINE
  5
   289
  8
0
  6
CONTINUOUS
 62
     3
 10
-5.04945182800292
 20
-87.3821363161761
 30
0.0
 11
-17.3248047763685
 21
-87.3821363161761
 31
0.0
  0
LINE
  5
   28A
  8
0
  6
CONTINUOUS
 62
     3
 10
-37.7994441986084
 20
-87.3821363161894
 30
0.0
 11
-44.5494441986084
 21
-87.3821363161894
 31
0.0
  0
LINE
  5
   28B
  8
0
  6
CONTINUOUS
 62
     3
 10
-32.0494441986084
 20
-87.3821363161773
 30
0.0
 11
-37.7994441986084
 21
-87.3821363161773
 31
0.0
  0
LINE
  5
   28C
  8
0
  6
CONTINUOUS
 62
     3
 10
0.700548171997077
 20
-87.3821363161756
 30
0.0
 11
-5.04945182800292
 21
-87.3821363161756
 31
0.0
  0
LINE
  5
   28D
  8
0
  6
DASHDOT
 62
     7
 10
-18.5494441986084
 20
-96.4427347257735
 30
0.0
 11
-18.5494441986084
 21
-44.7951001409531
 31
0.0
  0
ARC
  5
   28E
  8
0
  6
CONTINUOUS
 62
     3
 10
-44.5494441986084
 20
-87.1321363161894
 30
0.0
 40
0.25
 50
179.999999948034
 51
269.999999948034
  0
ARC
  5
   28F
  8
0
  6
CONTINUOUS
 62
     3
 10
-44.5494441986084
 20
-35.1321439455704
 30
0.0
 40
0.25
 50
449.999999948034
 51
539.999999948034
  0
ARC
  5
   290
  8
0
  6
CONTINUOUS
 62
     3
 10
7.45054817199707
 20
-35.1321439455704
 30
0.0
 40
0.25
 50
359.999999948034
 51
449.999999948034
  0
ARC
  5
   291
  8
0
  6
CONTINUOUS
 62
     3
 10
7.45054817199707
 20
-87.1321363161756
 30
0.0
 40
0.25
 50
269.999999948034
 51
359.999999948034
  0
LINE
  5
   292
  8
0
  6
CONTINUOUS
 62
     3
 10
-19.774169324516
 20
-87.3821363161761
 30
0.0
 11
-32.0494441986084
 21
-87.3821363161761
 31
0.0
  0
LINE
  5
   293
  8
0
  6
CONTINUOUS
 62
     7
 10
-32.2994518280029
 20
-87.3821439455704
 30
0.0
 11
-37.2994441986084
 21
-87.3821439455704
 31
0.0
  0
LINE
  5
   294
  8
0
  6
CONTINUOUS
 62
     7
 10
0.200540542602546
 20
-87.3821439455704
 30
0.0
 11
-4.79945945739745
 21
-87.3821439455704
 31
0.0
  0
LINE
  5
   295
  8
0
  6
CONTINUOUS
 62
     7
 10
7.70055580139161
 20
-87.1321439455704
 30
0.0
 11
7.70055580139161
 21
-78.1321515749649
 31
0.0
  0
LINE
  5
   296
  8
0
  6
CONTINUOUS
 62
     7
 10
-44.7994441986084
 20
-87.1321439455704
 30
0.0
 11
-44.7994441986084
 21
-78.1321515749649
 31
0.0
  0
LINE
  5
   297
  8
0
  6
CONTINUOUS
 62
     7
 10
7.4505558013916
 20
-34.8821439455704
 30
0.0
 11
-44.5494441985945
 21
-34.8821439455704
 31
0.0
  0
LINE
  5
   298
  8
0
  6
CONTINUOUS
 62
     7
 10
-37.2994441986084
 20
-87.3821439455704
 30
0.0
 11
-44.5494441986084
 21
-87.3821439455704
 31
0.0
  0
LINE
  5
   299
  8
0
  6
CONTINUOUS
 62
     7
 10
-4.79945945739745
 20
-87.3821439455704
 30
0.0
 11
-32.2994518280029
 21
-87.3821439455704
 31
0.0
  0
LINE
  5
   29A
  8
0
  6
CONTINUOUS
 62
     7
 10
7.45055580139161
 20
-87.3821439455704
 30
0.0
 11
0.200540542602546
 21
-87.3821439455704
 31
0.0
  0
LINE
  5
   29B
  8
0
  6
CONTINUOUS
 62
     7
 10
-13.1744441986084
 20
-76.2571515749649
 30
0.0
 11
-13.1744441986084
 21
-56.2571592043594
 31
0.0
  0
LINE
  5
   29C
  8
0
  6
CONTINUOUS
 62
     7
 10
-23.9244441986084
 20
-76.2571515749649
 30
0.0
 11
-23.9244441986084
 21
-56.2571592043594
 31
0.0
  0
LINE
  5
   29D
  8
0
  6
CONTINUOUS
 62
     7
 10
7.7005558013916
 20
-40.8821592043594
 30
0.0
 11
-44.7994441986084
 21
-40.8821592043594
 31
0.0
  0
LINE
  5
   29E
  8
0
  6
CONTINUOUS
 62
     7
 10
7.7005558013916
 20
-35.8821592043594
 30
0.0
 11
-44.7994441986084
 21
-35.8821592043594
 31
0.0
  0
LINE
  5
   29F
  8
0
  6
CONTINUOUS
 62
     7
 10
-13.1744441986084
 20
-56.3893918703751
 30
0.0
 11
-23.9244441986084
 21
-56.3893918703751
 31
0.0
  0
LINE
  5
   2A0
  8
0
  6
CONTINUOUS
 62
     7
 10
-13.1744441986084
 20
-56.2571592043594
 30
0.0
 11
-23.9244441986084
 21
-56.2571592043594
 31
0.0
  0
LINE
  5
   2A1
  8
0
  6
CONTINUOUS
 62
     7
 10
-13.1744441986084
 20
-76.2571515749649
 30
0.0
 11
-23.9244441986084
 21
-76.2571515749649
 31
0.0
  0
LINE
  5
   2A2
  8
0
  6
CONTINUOUS
 62
     7
 10
-13.1744441986084
 20
-76.1249036501602
 30
0.0
 11
-23.9244441986084
 21
-76.1249036501602
 31
0.0
  0
LINE
  5
   2A3
  8
0
  6
DASHDOT
 62
     7
 10
-18.5494441986084
 20
-125.759208811424
 30
0.0
 11
-18.5494441986084
 21
-45.7809418017254
 31
0.0
  0
LINE
  5
   2A4
  8
0
  6
CONTINUOUS
 62
     7
 10
7.70054817199707
 20
-77.6321515749649
 30
0.0
 11
7.70054817199707
 21
-71.6321555515842
 31
0.0
  0
LINE
  5
   2A5
  8
0
  6
CONTINUOUS
 62
     7
 10
7.70054817199707
 20
-54.3821515749649
 30
0.0
 11
7.70054817199707
 21
-35.1321439455704
 31
0.0
  0
LINE
  5
   2A6
  8
0
  6
CONTINUOUS
 62
     7
 10
7.70054817199707
 20
-71.1321555515841
 30
0.0
 11
7.70054817199707
 21
-61.3821515749649
 31
0.0
  0
LINE
  5
   2A7
  8
0
  6
CONTINUOUS
 62
     7
 10
7.70054817199707
 20
-60.8821515749649
 30
0.0
 11
7.70054817199707
 21
-54.8821515749649
 31
0.0
  0
LINE
  5
   2A8
  8
0
  6
CONTINUOUS
 62
     7
 10
-44.7994441986109
 20
-77.6321515749649
 30
0.0
 11
-44.7994441986109
 21
-71.6321515749638
 31
0.0
  0
LINE
  5
   2A9
  8
0
  6
CONTINUOUS
 62
     7
 10
-44.7994441986199
 20
-71.1321515749638
 30
0.0
 11
-44.7994441986199
 21
-61.3821515749649
 31
0.0
  0
LINE
  5
   2AA
  8
0
  6
CONTINUOUS
 62
     7
 10
-44.7994441986058
 20
-60.8821515749649
 30
0.0
 11
-44.7994441986058
 21
-54.8821515749649
 31
0.0
  0
LINE
  5
   2AB
  8
0
  6
CONTINUOUS
 62
     7
 10
-44.7994441985945
 20
-54.3821515749649
 30
0.0
 11
-44.7994441985945
 21
-35.1321439455704
 31
0.0
  0
LINE
  5
   2AC
  8
0
  6
CONTINUOUS
 62
     7
 10
-23.9244481854704
 20
-71.6321419572528
 30
0.0
 11
-44.2994442284107
 21
-71.6321419572528
 31
0.0
  0
LINE
  5
   2AD
  8
0
  6
CONTINUOUS
 62
     7
 10
7.70054817199707
 20
-71.6321459338759
 30
0.0
 11
7.20054817199707
 21
-71.6321459338759
 31
0.0
  0
LINE
  5
   2AE
  8
0
  6
CONTINUOUS
 62
     7
 10
-23.9244579650145
 20
-71.1321419572498
 30
0.0
 11
-44.2994442284107
 21
-71.1321419572498
 31
0.0
  0
LINE
  5
   2AF
  8
0
  6
CONTINUOUS
 62
     7
 10
7.70054817199706
 20
-71.132145933876
 30
0.0
 11
7.20054817199707
 21
-71.132145933876
 31
0.0
  0
LINE
  5
   2B0
  8
0
  6
CONTINUOUS
 62
     7
 10
-44.2994442284107
 20
-71.6321515749649
 30
0.0
 11
-44.2994442284107
 21
-71.1321515749649
 31
0.0
  0
LINE
  5
   2B1
  8
0
  6
CONTINUOUS
 62
     7
 10
7.20054817199707
 20
-71.6321515749649
 30
0.0
 11
7.20054817199707
 21
-71.1321515749649
 31
0.0
  0
LINE
  5
   2B2
  8
0
  6
CONTINUOUS
 62
     7
 10
7.70055580139161
 20
-78.1321515749649
 30
0.0
 11
7.20054817199707
 21
-78.1321515749649
 31
0.0
  0
LINE
  5
   2B3
  8
0
  6
CONTINUOUS
 62
     7
 10
7.70054817199708
 20
-77.6321515749649
 30
0.0
 11
7.20054817199707
 21
-77.6321515749649
 31
0.0
  0
LINE
  5
   2B4
  8
0
  6
CONTINUOUS
 62
     7
 10
-44.2994442284107
 20
-78.1321515749649
 30
0.0
 11
-44.2994442284107
 21
-77.6321515749649
 31
0.0
  0
LINE
  5
   2B5
  8
0
  6
CONTINUOUS
 62
     7
 10
7.20054817199707
 20
-78.1321515749649
 30
0.0
 11
7.20054817199707
 21
-77.6321515749649
 31
0.0
  0
LINE
  5
   2B6
  8
0
  6
CONTINUOUS
 62
     7
 10
7.70054817199707
 20
-54.8821515749649
 30
0.0
 11
7.20054817199707
 21
-54.8821515749649
 31
0.0
  0
LINE
  5
   2B7
  8
0
  6
CONTINUOUS
 62
     7
 10
7.70054817199707
 20
-54.3821515749649
 30
0.0
 11
7.20054817199707
 21
-54.3821515749649
 31
0.0
  0
LINE
  5
   2B8
  8
0
  6
CONTINUOUS
 62
     7
 10
-44.2994442284107
 20
-54.8821515749649
 30
0.0
 11
-44.2994442284107
 21
-54.3821515749649
 31
0.0
  0
LINE
  5
   2B9
  8
0
  6
CONTINUOUS
 62
     7
 10
7.20054817199707
 20
-54.8821515749649
 30
0.0
 11
7.20054817199707
 21
-54.3821515749649
 31
0.0
  0
LINE
  5
   2BA
  8
0
  6
CONTINUOUS
 62
     7
 10
-23.9244481623173
 20
-61.3821515749649
 30
0.0
 11
-44.2994442284107
 21
-61.3821515749649
 31
0.0
  0
LINE
  5
   2BB
  8
0
  6
CONTINUOUS
 62
     7
 10
7.70054817199707
 20
-61.3821515749649
 30
0.0
 11
7.20054817199707
 21
-61.3821515749649
 31
0.0
  0
LINE
  5
   2BC
  8
0
  6
CONTINUOUS
 62
     7
 10
-23.9244441986084
 20
-60.8821515749649
 30
0.0
 11
-44.2994442284107
 21
-60.8821515749649
 31
0.0
  0
LINE
  5
   2BD
  8
0
  6
CONTINUOUS
 62
     7
 10
7.70054817199707
 20
-60.8821515749649
 30
0.0
 11
7.20054817199707
 21
-60.8821515749649
 31
0.0
  0
LINE
  5
   2BE
  8
0
  6
CONTINUOUS
 62
     7
 10
-44.2994442284107
 20
-61.3821515749649
 30
0.0
 11
-44.2994442284107
 21
-60.8821515749649
 31
0.0
  0
LINE
  5
   2BF
  8
0
  6
CONTINUOUS
 62
     7
 10
7.20054817199707
 20
-61.3821515749649
 30
0.0
 11
7.20054817199707
 21
-60.8821515749649
 31
0.0
  0
ARC
  5
   2C0
  8
0
  6
CONTINUOUS
 62
     7
 10
-44.5494441986084
 20
-87.1321439455704
 30
0.0
 40
0.25
 50
179.999999948034
 51
269.999999948034
  0
ARC
  5
   2C1
  8
0
  6
CONTINUOUS
 62
     7
 10
7.45055580139161
 20
-87.1321439455704
 30
0.0
 40
0.25
 50
269.999999948034
 51
359.999999948034
  0
ARC
  5
   2C2
  8
0
  6
CONTINUOUS
 62
     7
 10
7.4505558013916
 20
-35.1321439455704
 30
0.0
 40
0.25
 50
359.999999948034
 51
449.999999948034
  0
ARC
  5
   2C3
  8
0
  6
CONTINUOUS
 62
     7
 10
-44.5494441985945
 20
-35.1321439455704
 30
0.0
 40
0.25
 50
449.999999948034
 51
539.999999948034
  0
LINE
  5
   2C4
  8
0
  6
CONTINUOUS
 62
     7
 10
-29.7994441986084
 20
-55.6321515749649
 30
0.0
 11
-30.5494441986084
 21
-55.6321515749649
 31
0.0
  0
LINE
  5
   2C5
  8
0
  6
CONTINUOUS
 62
     7
 10
-29.7994441986084
 20
-60.1321515749649
 30
0.0
 11
-30.5494441986084
 21
-60.1321515749649
 31
0.0
  0
CIRCLE
  5
   2C6
  8
0
  6
CONTINUOUS
 62
     7
 10
-30.1744441986084
 20
-74.6321515749649
 30
0.0
 40
2.25
  0
CIRCLE
  5
   2C7
  8
0
  6
CONTINUOUS
 62
     7
 10
-30.1744441986084
 20
-74.6321515749649
 30
0.0
 40
1.5
  0
LINE
  5
   2C8
  8
0
  6
CONTINUOUS
 62
     7
 10
-30.5494441986084
 20
-60.1321515749649
 30
0.0
 11
-30.5494441986084
 21
-55.6321515749649
 31
0.0
  0
LINE
  5
   2C9
  8
0
  6
CONTINUOUS
 62
     7
 10
-29.7994441986084
 20
-60.1321515749649
 30
0.0
 11
-29.7994441986084
 21
-55.6321515749649
 31
0.0
  0
LINE
  5
   2CA
  8
0
  6
CONTINUOUS
 62
     7
 10
-25.2994441986084
 20
-77.6321515749649
 30
0.0
 11
-25.2994441986084
 21
-71.6321444303822
 31
0.0
  0
LINE
  5
   2CB
  8
0
  6
CONTINUOUS
 62
     7
 10
-11.7994441986084
 20
-77.6321515749649
 30
0.0
 11
-11.7994441986084
 21
-71.6321484070053
 31
0.0
  0
LINE
  5
   2CC
  8
0
  6
CONTINUOUS
 62
     7
 10
-11.7994441986084
 20
-60.8821515749649
 30
0.0
 11
-11.7994441986084
 21
-54.8821515749649
 31
0.0
  0
LINE
  5
   2CD
  8
0
  6
CONTINUOUS
 62
     7
 10
-25.2994441986084
 20
-60.8821515749649
 30
0.0
 11
-25.2994441986084
 21
-54.8821515749649
 31
0.0
  0
LINE
  5
   2CE
  8
0
  6
CONTINUOUS
 62
     7
 10
-5.77444908142094
 20
-72.7071515749649
 30
0.0
 11
-5.99944908142094
 21
-72.7071515749649
 31
0.0
  0
LINE
  5
   2CF
  8
0
  6
CONTINUOUS
 62
     7
 10
-6.24944908142095
 20
-76.5571515749649
 30
0.0
 11
-6.64944908142095
 21
-76.5571515749649
 31
0.0
  0
LINE
  5
   2D0
  8
0
  6
CONTINUOUS
 62
     7
 10
-9.84944908142092
 20
-75.2571515749649
 30
0.0
 11
-9.84944908142092
 21
-75.0071515749649
 31
0.0
  0
LINE
  5
   2D1
  8
0
  6
CONTINUOUS
 62
     7
 10
-7.24944908142092
 20
-75.2571515749649
 30
0.0
 11
-7.24944908142092
 21
-75.0071515749649
 31
0.0
  0
ARC
  5
   2D2
  8
0
  6
CONTINUOUS
 62
     7
 10
-8.54944908142094
 20
-75.0071515749649
 30
0.0
 40
1.3
 50
359.999999948034
 51
539.999999948034
  0
ARC
  5
   2D3
  8
0
  6
CONTINUOUS
 62
     7
 10
-8.54944908142094
 20
-75.2571515749649
 30
0.0
 40
1.3
 50
179.999999948034
 51
359.999999948034
  0
ARC
  5
   2D4
  8
0
  6
CONTINUOUS
 62
     7
 10
-8.54944908142094
 20
-75.0071515749649
 30
0.0
 40
0.900000000000001
 50
359.999999948034
 51
539.999999948034
  0
ARC
  5
   2D5
  8
0
  6
CONTINUOUS
 62
     7
 10
-8.54944908142094
 20
-75.2571515749649
 30
0.0
 40
0.899999999999999
 50
179.999999948034
 51
359.999999948034
  0
LINE
  5
   2D6
  8
0
  6
CONTINUOUS
 62
     7
 10
-9.44944908142092
 20
-75.2571515749649
 30
0.0
 11
-9.44944908142092
 21
-75.0071515749649
 31
0.0
  0
LINE
  5
   2D7
  8
0
  6
CONTINUOUS
 62
     7
 10
-7.64944908142092
 20
-75.2571515749649
 30
0.0
 11
-7.64944908142092
 21
-75.0071515749649
 31
0.0
  0
LINE
  5
   2D8
  8
0
  6
CONTINUOUS
 62
     7
 10
-7.12444908142093
 20
-74.3071515749649
 30
0.0
 11
-7.12444908142093
 21
-73.9071515749649
 31
0.0
  0
LINE
  5
   2D9
  8
0
  6
CONTINUOUS
 62
     7
 10
-6.64944908142095
 20
-74.3071515749649
 30
0.0
 11
-7.12444908142094
 21
-74.3071515749649
 31
0.0
  0
LINE
  5
   2DA
  8
0
  6
CONTINUOUS
 62
     7
 10
-5.77444908142093
 20
-74.3071515749649
 30
0.0
 11
-5.77444908142093
 21
-73.9071515749649
 31
0.0
  0
LINE
  5
   2DB
  8
0
  6
CONTINUOUS
 62
     7
 10
-6.64944908142095
 20
-73.9071515749649
 30
0.0
 11
-7.12444908142094
 21
-73.9071515749649
 31
0.0
  0
LINE
  5
   2DC
  8
0
  6
CONTINUOUS
 62
     7
 10
-6.64944908142093
 20
-76.5571515749649
 30
0.0
 11
-6.64944908142093
 21
-74.3071515749649
 31
0.0
  0
LINE
  5
   2DD
  8
0
  6
CONTINUOUS
 62
     7
 10
-6.24944908142093
 20
-76.5571515749649
 30
0.0
 11
-6.24944908142093
 21
-74.3071515749649
 31
0.0
  0
LINE
  5
   2DE
  8
0
  6
CONTINUOUS
 62
     7
 10
-5.77444908142095
 20
-74.3071515749649
 30
0.0
 11
-6.24944908142094
 21
-74.3071515749649
 31
0.0
  0
LINE
  5
   2DF
  8
0
  6
CONTINUOUS
 62
     7
 10
-5.77444908142094
 20
-73.9071515749649
 30
0.0
 11
-6.24944908142094
 21
-73.9071515749649
 31
0.0
  0
LINE
  5
   2E0
  8
0
  6
CONTINUOUS
 62
     7
 10
-6.64944908142093
 20
-73.9071515749649
 30
0.0
 11
-6.64944908142093
 21
-73.3571515749649
 31
0.0
  0
LINE
  5
   2E1
  8
0
  6
CONTINUOUS
 62
     7
 10
-6.24944908142093
 20
-73.9071515749649
 30
0.0
 11
-6.24944908142093
 21
-73.3571515749649
 31
0.0
  0
ARC
  5
   2E2
  8
0
  6
CONTINUOUS
 62
     7
 10
-5.99944908142094
 20
-73.3571515749649
 30
0.0
 40
0.65
 50
449.999999948034
 51
539.999999948034
  0
ARC
  5
   2E3
  8
0
  6
CONTINUOUS
 62
     7
 10
-5.99944908142094
 20
-73.3571515749649
 30
0.0
 40
0.25
 50
449.999999948034
 51
539.999999948034
  0
LINE
  5
   2E4
  8
0
  6
CONTINUOUS
 62
     7
 10
-5.77444908142093
 20
-73.1071515749649
 30
0.0
 11
-5.77444908142093
 21
-72.7071515749649
 31
0.0
  0
LINE
  5
   2E5
  8
0
  6
CONTINUOUS
 62
     7
 10
-5.77444908142094
 20
-73.1071515749649
 30
0.0
 11
-5.99944908142094
 21
-73.1071515749649
 31
0.0
  0
LINE
  5
   2E6
  8
0
  6
CONTINUOUS
 62
     7
 10
-4.17444908142094
 20
-72.7071515749649
 30
0.0
 11
-4.39944908142095
 21
-72.7071515749649
 31
0.0
  0
LINE
  5
   2E7
  8
0
  6
CONTINUOUS
 62
     7
 10
-4.64944908142095
 20
-76.5571515749649
 30
0.0
 11
-5.04944908142095
 21
-76.5571515749649
 31
0.0
  0
LINE
  5
   2E8
  8
0
  6
CONTINUOUS
 62
     7
 10
-5.52444908142093
 20
-74.3071515749649
 30
0.0
 11
-5.52444908142093
 21
-73.9071515749649
 31
0.0
  0
LINE
  5
   2E9
  8
0
  6
CONTINUOUS
 62
     7
 10
-5.04944908142095
 20
-74.3071515749649
 30
0.0
 11
-5.52444908142095
 21
-74.3071515749649
 31
0.0
  0
LINE
  5
   2EA
  8
0
  6
CONTINUOUS
 62
     7
 10
-4.17444908142093
 20
-74.3071515749649
 30
0.0
 11
-4.17444908142093
 21
-73.9071515749649
 31
0.0
  0
LINE
  5
   2EB
  8
0
  6
CONTINUOUS
 62
     7
 10
-5.04944908142095
 20
-73.9071515749649
 30
0.0
 11
-5.52444908142095
 21
-73.9071515749649
 31
0.0
  0
LINE
  5
   2EC
  8
0
  6
CONTINUOUS
 62
     7
 10
-5.04944908142093
 20
-76.5571515749649
 30
0.0
 11
-5.04944908142093
 21
-74.3071515749649
 31
0.0
  0
LINE
  5
   2ED
  8
0
  6
CONTINUOUS
 62
     7
 10
-4.64944908142093
 20
-76.5571515749649
 30
0.0
 11
-4.64944908142093
 21
-74.3071515749649
 31
0.0
  0
LINE
  5
   2EE
  8
0
  6
CONTINUOUS
 62
     7
 10
-4.17444908142095
 20
-74.3071515749649
 30
0.0
 11
-4.64944908142095
 21
-74.3071515749649
 31
0.0
  0
LINE
  5
   2EF
  8
0
  6
CONTINUOUS
 62
     7
 10
-4.17444908142095
 20
-73.9071515749649
 30
0.0
 11
-4.64944908142095
 21
-73.9071515749649
 31
0.0
  0
LINE
  5
   2F0
  8
0
  6
CONTINUOUS
 62
     7
 10
-5.04944908142093
 20
-73.9071515749649
 30
0.0
 11
-5.04944908142093
 21
-73.3571515749649
 31
0.0
  0
LINE
  5
   2F1
  8
0
  6
CONTINUOUS
 62
     7
 10
-4.64944908142093
 20
-73.9071515749649
 30
0.0
 11
-4.64944908142093
 21
-73.3571515749649
 31
0.0
  0
ARC
  5
   2F2
  8
0
  6
CONTINUOUS
 62
     7
 10
-4.39944908142095
 20
-73.3571515749649
 30
0.0
 40
0.65
 50
449.999999948034
 51
539.999999948034
  0
ARC
  5
   2F3
  8
0
  6
CONTINUOUS
 62
     7
 10
-4.39944908142095
 20
-73.3571515749649
 30
0.0
 40
0.25
 50
449.999999948034
 51
539.999999948034
  0
LINE
  5
   2F4
  8
0
  6
CONTINUOUS
 62
     7
 10
-4.17444908142093
 20
-73.1071515749649
 30
0.0
 11
-4.17444908142093
 21
-72.7071515749649
 31
0.0
  0
LINE
  5
   2F5
  8
0
  6
CONTINUOUS
 62
     7
 10
-4.17444908142094
 20
-73.1071515749649
 30
0.0
 11
-4.39944908142095
 21
-73.1071515749649
 31
0.0
  0
LINE
  5
   2F6
  8
0
  6
CONTINUOUS
 62
     7
 10
-6.44944908142091
 20
-59.3071515749649
 30
0.0
 11
-6.84944908142091
 21
-59.3071515749649
 31
0.0
  0
ARC
  5
   2F7
  8
0
  6
CONTINUOUS
 62
     7
 10
-8.5494490814209
 20
-57.7571515749649
 30
0.0
 40
1.3
 50
359.999999948034
 51
539.999999948034
  0
ARC
  5
   2F8
  8
0
  6
CONTINUOUS
 62
     7
 10
-8.5494490814209
 20
-57.7571515749649
 30
0.0
 40
0.900000000000001
 50
359.999999948034
 51
539.999999948034
  0
ARC
  5
   2F9
  8
0
  6
CONTINUOUS
 62
     7
 10
-8.5494490814209
 20
-58.0071515749649
 30
0.0
 40
1.3
 50
179.999999948034
 51
359.999999948034
  0
ARC
  5
   2FA
  8
0
  6
CONTINUOUS
 62
     7
 10
-8.5494490814209
 20
-58.0071515749649
 30
0.0
 40
0.899999999999999
 50
179.999999948034
 51
359.999999948034
  0
LINE
  5
   2FB
  8
0
  6
CONTINUOUS
 62
     7
 10
-7.64944908142092
 20
-58.0071515749649
 30
0.0
 11
-7.64944908142092
 21
-57.7571515749649
 31
0.0
  0
LINE
  5
   2FC
  8
0
  6
CONTINUOUS
 62
     7
 10
-7.24944908142092
 20
-58.0071515749649
 30
0.0
 11
-7.24944908142092
 21
-57.7571515749649
 31
0.0
  0
LINE
  5
   2FD
  8
0
  6
CONTINUOUS
 62
     7
 10
-9.44944908142092
 20
-58.0071515749649
 30
0.0
 11
-9.44944908142092
 21
-57.7571515749649
 31
0.0
  0
LINE
  5
   2FE
  8
0
  6
CONTINUOUS
 62
     7
 10
-9.84944908142092
 20
-58.0071515749649
 30
0.0
 11
-9.84944908142092
 21
-57.7571515749649
 31
0.0
  0
LINE
  5
   2FF
  8
0
  6
CONTINUOUS
 62
     7
 10
-6.84944908142092
 20
-59.3071515749649
 30
0.0
 11
-6.84944908142092
 21
-56.4571515749649
 31
0.0
  0
LINE
  5
   300
  8
0
  6
CONTINUOUS
 62
     7
 10
-6.44944908142092
 20
-59.3071515749649
 30
0.0
 11
-6.44944908142092
 21
-57.5571515749649
 31
0.0
  0
LINE
  5
   301
  8
0
  6
CONTINUOUS
 62
     7
 10
-5.04944908142093
 20
-59.3071515749649
 30
0.0
 11
-5.04944908142093
 21
-57.5571515749649
 31
0.0
  0
LINE
  5
   302
  8
0
  6
CONTINUOUS
 62
     7
 10
-4.64944908142093
 20
-59.3071515749649
 30
0.0
 11
-4.64944908142093
 21
-57.4571515749649
 31
0.0
  0
LINE
  5
   303
  8
0
  6
CONTINUOUS
 62
     7
 10
-6.4494490814209
 20
-56.4571515749649
 30
0.0
 11
-6.8494490814209
 21
-56.4571515749649
 31
0.0
  0
ARC
  5
   304
  8
0
  6
CONTINUOUS
 62
     7
 10
-5.7494490814209
 20
-57.5571515749649
 30
0.0
 40
0.699999999999999
 50
359.999999948034
 51
539.999999948034
  0
LINE
  5
   305
  8
0
  6
CONTINUOUS
 62
     7
 10
-6.44944908142092
 20
-56.8571515749649
 30
0.0
 11
-6.44944908142092
 21
-56.4571515749649
 31
0.0
  0
ARC
  5
   306
  8
0
  6
CONTINUOUS
 62
     7
 10
-5.6494490814209
 20
-57.4571515749649
 30
0.0
 40
1.0
 50
359.999999948034
 51
503.13010230219
  0
LINE
  5
   307
  8
0
  6
CONTINUOUS
 62
     7
 10
-4.64944908142091
 20
-59.3071515749649
 30
0.0
 11
-5.04944908142091
 21
-59.3071515749649
 31
0.0
  0
LINE
  5
   308
  8
0
  6
CONTINUOUS
 62
     7
 10
-28.174461755691
 20
-19.0071477602657
 30
0.0
 11
-28.174461755691
 21
-17.5071477602657
 31
0.0
  0
LINE
  5
   309
  8
0
  6
CONTINUOUS
 62
     7
 10
-26.424461755691
 20
-19.0071477602657
 30
0.0
 11
-26.424461755691
 21
-17.5071477602657
 31
0.0
  0
LINE
  5
   30A
  8
0
  6
CONTINUOUS
 62
     7
 10
-28.549461755691
 20
-20.7571477602657
 30
0.0
 11
-28.549461755691
 21
-19.0071477602657
 31
0.0
  0
LINE
  5
   30B
  8
0
  6
CONTINUOUS
 62
     7
 10
-26.049461755691
 20
-20.7571477602657
 30
0.0
 11
-26.049461755691
 21
-19.0071477602657
 31
0.0
  0
LINE
  5
   30C
  8
0
  6
CONTINUOUS
 62
     7
 10
-26.049461755691
 20
-19.0071477602657
 30
0.0
 11
-26.424461755691
 21
-19.0071477602657
 31
0.0
  0
LINE
  5
   30D
  8
0
  6
CONTINUOUS
 62
     7
 10
-28.174461755691
 20
-19.0071477602657
 30
0.0
 11
-28.549461755691
 21
-19.0071477602657
 31
0.0
  0
LINE
  5
   30E
  8
0
  6
CONTINUOUS
 62
     7
 10
-8.92442664152575
 20
-102.507147760266
 30
0.0
 11
-8.92442664152575
 21
-101.382142038222
 31
0.0
  0
LINE
  5
   30F
  8
0
  6
CONTINUOUS
 62
     7
 10
-10.6744266415258
 20
-102.507147760266
 30
0.0
 11
-10.6744266415258
 21
-101.382142038222
 31
0.0
  0
LINE
  5
   310
  8
0
  6
CONTINUOUS
 62
     7
 10
-26.424461755691
 20
-102.507147760266
 30
0.0
 11
-26.424461755691
 21
-101.382142038222
 31
0.0
  0
LINE
  5
   311
  8
0
  6
CONTINUOUS
 62
     7
 10
-28.174461755691
 20
-102.507147760266
 30
0.0
 11
-28.174461755691
 21
-101.382142038222
 31
0.0
  0
LINE
  5
   312
  8
0
  6
CONTINUOUS
 62
     7
 10
-44.2994442284107
 20
-54.3821515749649
 30
0.0
 11
-44.7994441985945
 21
-54.3821515749649
 31
0.0
  0
LINE
  5
   313
  8
0
  6
CONTINUOUS
 62
     7
 10
-44.2994442284107
 20
-54.8821515749649
 30
0.0
 11
-44.7994441986058
 21
-54.8821515749649
 31
0.0
  0
LINE
  5
   314
  8
0
  6
CONTINUOUS
 62
     7
 10
-44.2994442284107
 20
-60.8821515749649
 30
0.0
 11
-44.7994441986058
 21
-60.8821515749649
 31
0.0
  0
LINE
  5
   315
  8
0
  6
CONTINUOUS
 62
     7
 10
-44.2994442284107
 20
-61.3821515749649
 30
0.0
 11
-44.7994441986199
 21
-61.3821515749649
 31
0.0
  0
LINE
  5
   316
  8
0
  6
CONTINUOUS
 62
     7
 10
-44.2994442284107
 20
-71.1321419572498
 30
0.0
 11
-44.7994441986199
 21
-71.1321419572498
 31
0.0
  0
LINE
  5
   317
  8
0
  6
CONTINUOUS
 62
     7
 10
-44.2994442284107
 20
-71.6321419572528
 30
0.0
 11
-44.7994441986109
 21
-71.6321419572528
 31
0.0
  0
LINE
  5
   318
  8
0
  6
CONTINUOUS
 62
     7
 10
-44.2994442284107
 20
-77.6321515749649
 30
0.0
 11
-44.7994441986109
 21
-77.6321515749649
 31
0.0
  0
LINE
  5
   319
  8
0
  6
CONTINUOUS
 62
     7
 10
-44.2994442284107
 20
-78.1321515749649
 30
0.0
 11
-44.7994441986084
 21
-78.1321515749649
 31
0.0
  0
LINE
  5
   31A
  8
0
  6
CONTINUOUS
 62
     7
 10
7.20054817199707
 20
-54.3821515749649
 30
0.0
 11
-44.2994442284107
 21
-54.3821515749649
 31
0.0
  0
LINE
  5
   31B
  8
0
  6
CONTINUOUS
 62
     7
 10
7.20054817199707
 20
-54.8821515749649
 30
0.0
 11
-44.2994442284107
 21
-54.8821515749649
 31
0.0
  0
LINE
  5
   31C
  8
0
  6
CONTINUOUS
 62
     7
 10
7.20054817199707
 20
-60.8821515749649
 30
0.0
 11
-13.1744441986084
 21
-60.8821515749649
 31
0.0
  0
LINE
  5
   31D
  8
0
  6
CONTINUOUS
 62
     7
 10
7.20054817199707
 20
-61.3821515749649
 30
0.0
 11
-13.1744441986084
 21
-61.3821515749649
 31
0.0
  0
LINE
  5
   31E
  8
0
  6
CONTINUOUS
 62
     7
 10
7.20054817199707
 20
-71.132145933876
 30
0.0
 11
-13.1744456909877
 21
-71.132145933876
 31
0.0
  0
LINE
  5
   31F
  8
0
  6
CONTINUOUS
 62
     7
 10
7.20054817199707
 20
-71.6321459338759
 30
0.0
 11
-13.1744458741821
 21
-71.6321459338759
 31
0.0
  0
LINE
  5
   320
  8
0
  6
CONTINUOUS
 62
     7
 10
7.20054817199707
 20
-77.6321515749649
 30
0.0
 11
-44.2994442284107
 21
-77.6321515749649
 31
0.0
  0
LINE
  5
   321
  8
0
  6
CONTINUOUS
 62
     7
 10
7.20054817199707
 20
-78.1321515749649
 30
0.0
 11
-44.2994442284107
 21
-78.1321515749649
 31
0.0
  0
LINE
  5
   322
  8
0
  6
DASHDOT
 62
     7
 10
-9.79945143118463
 20
-102.007149047947
 30
0.0
 11
-9.79945143118463
 21
-91.153820539112
 31
0.0
  0
LINE
  5
   323
  8
0
  6
CONTINUOUS
 62
     7
 10
-13.1744441986084
 20
-69.1944912202552
 30
0.0
 11
-23.9244441986084
 21
-69.1944912202552
 31
0.0
  0
LINE
  5
   324
  8
0
  6
CONTINUOUS
 62
     7
 10
-13.1744441986084
 20
-72.2527239730637
 30
0.0
 11
-23.9244441986084
 21
-72.2527239730637
 31
0.0
  0
LINE
  5
   325
  8
0
  6
CONTINUOUS
 62
     7
 10
-13.1744441986084
 20
-75.2266332861695
 30
0.0
 11
-23.9244441986084
 21
-75.2266332861695
 31
0.0
  0
LINE
  5
   326
  8
0
  6
CONTINUOUS
 62
     7
 10
-13.1744441986084
 20
-75.6280068500287
 30
0.0
 11
-23.9244441986084
 21
-75.6280068500287
 31
0.0
  0
LINE
  5
   327
  8
0
  6
DASHDOT
 62
     7
 10
21.2411710375061
 20
-61.1321439455704
 30
0.0
 11
-63.2842807417115
 21
-61.1321439455704
 31
0.0
  0
LINE
  5
   328
  8
0
  6
DASHDOT
 62
     7
 10
-72.4861847482944
 20
-61.1321439455704
 30
0.0
 11
-82.540116903635
 21
-61.1321439455704
 31
0.0
  0
LINE
  5
   329
  8
0
  6
CONTINUOUS
 62
     2
 10
4.70054113179355
 20
-103.757147760266
 30
0.0
 11
4.70054113179355
 21
-102.507147760266
 31
0.0
  0
LINE
  5
   32A
  8
0
  6
CONTINUOUS
 62
     2
 10
-41.7994585974521
 20
-103.757147760266
 30
0.0
 11
-41.7994585974521
 21
-102.507147760266
 31
0.0
  0
LINE
  5
   32B
  8
0
  6
CONTINUOUS
 62
     2
 10
4.70054113179355
 20
-103.757147760266
 30
0.0
 11
-41.7994585974521
 21
-103.757147760266
 31
0.0
  0
LINE
  5
   32C
  8
0
  6
DASHDOT
 62
     2
 10
-18.5494591737963
 20
-27.8939632058215
 30
0.0
 11
-18.5494591737963
 21
-16.4401730003265
 31
0.0
  0
LINE
  5
   32D
  8
0
  6
CONTINUOUS
 62
     1
 10
-30.049461755691
 20
-17.5071477602657
 30
0.0
 11
-30.049461755691
 21
-16.2571477602657
 31
0.0
  0
LINE
  5
   32E
  8
0
  6
CONTINUOUS
 62
     1
 10
-28.049461755691
 20
-18.9071479748424
 30
0.0
 11
-28.424461755691
 21
-18.9071479748424
 31
0.0
  0
LINE
  5
   32F
  8
0
  6
CONTINUOUS
 62
     1
 10
-28.424461755691
 20
-20.5071479986843
 30
0.0
 11
-28.424461755691
 21
-18.9071479748424
 31
0.0
  0
LINE
  5
   330
  8
0
  6
CONTINUOUS
 62
     1
 10
-26.174461755691
 20
-20.5071479986843
 30
0.0
 11
-28.424461755691
 21
-20.5071479986843
 31
0.0
  0
LINE
  5
   331
  8
0
  6
CONTINUOUS
 62
     1
 10
-26.174461755691
 20
-20.5071479986843
 30
0.0
 11
-26.174461755691
 21
-18.9071479748424
 31
0.0
  0
LINE
  5
   332
  8
0
  6
CONTINUOUS
 62
     1
 10
-26.174461755691
 20
-18.9071479748424
 30
0.0
 11
-26.549461755691
 21
-18.9071479748424
 31
0.0
  0
LINE
  5
   333
  8
0
  6
CONTINUOUS
 62
     1
 10
-26.549461755691
 20
-18.9071480940517
 30
0.0
 11
-26.549461755691
 21
-16.2571479986843
 31
0.0
  0
LINE
  5
   334
  8
0
  6
CONTINUOUS
 62
     1
 10
-28.049461755691
 20
-18.9071480940517
 30
0.0
 11
-28.049461755691
 21
-16.2571479986843
 31
0.0
  0
LINE
  5
   335
  8
0
  6
CONTINUOUS
 62
     1
 10
-28.049461755691
 20
-19.4071479748424
 30
0.0
 11
-28.049461755691
 21
-18.9071479748424
 31
0.0
  0
LINE
  5
   336
  8
0
  6
CONTINUOUS
 62
     1
 10
-26.549461755691
 20
-19.4071479748424
 30
0.0
 11
-26.549461755691
 21
-18.9071479748424
 31
0.0
  0
LINE
  5
   337
  8
0
  6
CONTINUOUS
 62
     1
 10
-28.049461755691
 20
-19.4071479748424
 30
0.0
 11
-28.424461755691
 21
-19.4071479748424
 31
0.0
  0
LINE
  5
   338
  8
0
  6
CONTINUOUS
 62
     1
 10
-26.174461755691
 20
-19.4071479748424
 30
0.0
 11
-26.549461755691
 21
-19.4071479748424
 31
0.0
  0
INSERT
  5
   339
  8
255
  6
CONTINUOUS
 62
     7
  2
MOSTRINA
 10
-75.9685726165772
 20
-116.122454614516
 30
0.0
 41
0.5
 42
0.5
 50
3.50835464724173E-15
 43
0.5
  0
LINE
  5
   33A
  8
0
  6
CONTINUOUS
 62
     3
 10
7.07554682593194
 20
-16.2571477602657
 30
0.0
 11
-24.489805356906
 21
-16.2571477602657
 31
0.0
  0
LINE
  5
   33B
  8
0
  6
CONTINUOUS
 62
     3
 10
7.70057376477014
 20
-20.8821439455704
 30
0.0
 11
7.70057376477014
 21
-16.8822040363755
 31
0.0
  0
LINE
  5
   33C
  8
0
  6
CONTINUOUS
 62
     3
 10
7.51748987812579
 20
-16.4402041458222
 30
0.0
 11
7.07554956766349
 21
-16.2571444501577
 31
0.0
  0
LINE
  5
   33D
  8
0
  6
CONTINUOUS
 62
     3
 10
7.70054805980253
 20
-16.8821419797807
 30
0.0
 11
7.51748836413798
 21
-16.4402016693184
 31
0.0
  0
LINE
  5
   33E
  8
0
  6
CONTINUOUS
 62
     3
 10
6.52554758887139
 20
-20.8821439455704
 30
0.0
 11
6.52554758887139
 21
-16.4124746035274
 31
0.0
  0
LINE
  5
   33F
  8
0
  6
CONTINUOUS
 62
     3
 10
4.72554835181084
 20
-20.8821439455704
 30
0.0
 11
4.72554835181084
 21
-16.4124746035274
 31
0.0
  0
LINE
  5
   340
  8
0
  6
CONTINUOUS
 62
     3
 10
2.92554911475029
 20
-20.8821439455704
 30
0.0
 11
2.92554911475029
 21
-16.4124746035274
 31
0.0
  0
LINE
  5
   341
  8
0
  6
CONTINUOUS
 62
     3
 10
1.12554987768975
 20
-20.8821439455704
 30
0.0
 11
1.12554987768975
 21
-16.4124746035274
 31
0.0
  0
LINE
  5
   342
  8
0
  6
CONTINUOUS
 62
     3
 10
-0.674453174068066
 20
-20.8821439455704
 30
0.0
 11
-0.674453174068066
 21
-16.4124746035274
 31
0.0
  0
LINE
  5
   343
  8
0
  6
CONTINUOUS
 62
     3
 10
-2.47445241112861
 20
-20.8821439455704
 30
0.0
 11
-2.47445241112861
 21
-16.4124746035274
 31
0.0
  0
LINE
  5
   344
  8
0
  6
CONTINUOUS
 62
     3
 10
-4.27445164818916
 20
-20.8821439455704
 30
0.0
 11
-4.27445164818916
 21
-16.4124746035274
 31
0.0
  0
LINE
  5
   345
  8
0
  6
CONTINUOUS
 62
     3
 10
-6.07445088524971
 20
-20.8821439455704
 30
0.0
 11
-6.07445088524971
 21
-16.4124746035274
 31
0.0
  0
LINE
  5
   346
  8
0
  6
CONTINUOUS
 62
     3
 10
-7.87445012231025
 20
-20.8821439455704
 30
0.0
 11
-7.87445012231025
 21
-16.4124746035274
 31
0.0
  0
LINE
  5
   347
  8
0
  6
CONTINUOUS
 62
     3
 10
-9.67445317406807
 20
-20.8821439455704
 30
0.0
 11
-9.67445317406807
 21
-16.4124746035274
 31
0.0
  0
LINE
  5
   348
  8
0
  6
CONTINUOUS
 62
     3
 10
-11.4744524111286
 20
-20.8821439455704
 30
0.0
 11
-11.4744524111286
 21
-16.4124746035274
 31
0.0
  0
LINE
  5
   349
  8
0
  6
CONTINUOUS
 62
     3
 10
-13.2744516481892
 20
-20.8821439455704
 30
0.0
 11
-13.2744516481892
 21
-16.4124746035274
 31
0.0
  0
LINE
  5
   34A
  8
0
  6
CONTINUOUS
 62
     3
 10
-15.0744508852497
 20
-20.8821439455704
 30
0.0
 11
-15.0744508852497
 21
-16.4124746035274
 31
0.0
  0
LINE
  5
   34B
  8
0
  6
CONTINUOUS
 62
     3
 10
-16.8744520296589
 20
-20.8821439455704
 30
0.0
 11
-16.8744520296589
 21
-16.4124746035274
 31
0.0
  0
LINE
  5
   34C
  8
0
  6
CONTINUOUS
 62
     3
 10
-18.6744512667194
 20
-20.8821439455704
 30
0.0
 11
-18.6744512667194
 21
-16.4124746035274
 31
0.0
  0
LINE
  5
   34D
  8
0
  6
CONTINUOUS
 62
     3
 10
-20.47445050378
 20
-20.8821439455704
 30
0.0
 11
-20.47445050378
 21
-16.4124746035274
 31
0.0
  0
LINE
  5
   34E
  8
0
  6
CONTINUOUS
 62
     3
 10
-22.2744516481892
 20
-20.8821439455704
 30
0.0
 11
-22.2744516481892
 21
-16.4124746035274
 31
0.0
  0
LINE
  5
   34F
  8
0
  6
CONTINUOUS
 62
     3
 10
-24.0744508852497
 20
-20.8821439455704
 30
0.0
 11
-24.0744508852497
 21
-16.4124746035274
 31
0.0
  0
POLYLINE
  5
   350
  8
0
  6
CONTINUOUS
 62
     3
 66
     1
 10
0.0
 20
0.0
 30
0.0
  0
VERTEX
  5
   351
  8
0
  6
CONTINUOUS
 10
-24.489805356906
 20
-16.2571481190835
 30
0.0
 40
0.0
 41
0.0
  0
VERTEX
  5
   352
  8
0
  6
CONTINUOUS
 10
-24.5684883000524
 20
-16.3194952714091
 30
0.0
 40
0.0
 41
0.0
  0
VERTEX
  5
   353
  8
0
  6
CONTINUOUS
 10
-24.6429631164082
 20
-16.383227478222
 30
0.0
 40
0.0
 41
0.0
  0
VERTEX
  5
   354
  8
0
  6
CONTINUOUS
 10
-24.7132432426197
 20
-16.4483414221303
 30
0.0
 40
0.0
 41
0.0
  0
VERTEX
  5
   355
  8
0
  6
CONTINUOUS
 10
-24.7793467383877
 20
-16.51483264435
 30
0.0
 40
0.0
 41
0.0
  0
VERTEX
  5
   356
  8
0
  6
CONTINUOUS
 10
-24.8412969725143
 20
-16.5826953753255
 30
0.0
 40
0.0
 41
0.0
  0
VERTEX
  5
   357
  8
0
  6
CONTINUOUS
 10
-24.870723539752
 20
-16.6171388535136
 30
0.0
 40
0.0
 41
0.0
  0
VERTEX
  5
   358
  8
0
  6
CONTINUOUS
 10
-24.8991233089499
 20
-16.6519223653513
 30
0.0
 40
0.0
 41
0.0
  0
VERTEX
  5
   359
  8
0
  6
CONTINUOUS
 10
-24.9265009998982
 20
-16.6870447455633
 30
0.0
 40
0.0
 41
0.0
  0
VERTEX
  5
   35A
  8
0
  6
CONTINUOUS
 10
-24.9528617928396
 20
-16.7225047151924
 30
0.0
 40
0.0
 41
0.0
  0
VERTEX
  5
   35B
  8
0
  6
CONTINUOUS
 10
-24.9782113499086
 20
-16.7583008763064
 30
0.0
 40
0.0
 41
0.0
  0
VERTEX
  5
   35C
  8
0
  6
CONTINUOUS
 10
-25.00255583657
 20
-16.7944317067054
 30
0.0
 40
0.0
 41
0.0
  0
VERTEX
  5
   35D
  8
0
  6
CONTINUOUS
 10
-25.0259019430581
 20
-16.8308955546284
 30
0.0
 40
0.0
 41
0.0
  0
VERTEX
  5
   35E
  8
0
  6
CONTINUOUS
 10
-25.0482569058157
 20
-16.86769063346
 30
0.0
 40
0.0
 41
0.0
  0
VERTEX
  5
   35F
  8
0
  6
CONTINUOUS
 10
-25.069628528933
 20
-16.9048150164379
 30
0.0
 40
0.0
 41
0.0
  0
VERTEX
  5
   360
  8
0
  6
CONTINUOUS
 10
-25.0900252055865
 20
-16.9422666313593
 30
0.0
 40
0.0
 41
0.0
  0
VERTEX
  5
   361
  8
0
  6
CONTINUOUS
 10
-25.109455939478
 20
-16.980043255288
 30
0.0
 40
0.0
 41
0.0
  0
VERTEX
  5
   362
  8
0
  6
CONTINUOUS
 10
-25.1279303662736
 20
-17.0181425092612
 30
0.0
 40
0.0
 41
0.0
  0
VERTEX
  5
   363
  8
0
  6
CONTINUOUS
 10
-25.1620521296964
 20
-17.0952985795993
 30
0.0
 40
0.0
 41
0.0
  0
VERTEX
  5
   364
  8
0
  6
CONTINUOUS
 10
-25.1924810351494
 20
-17.1737124890039
 30
0.0
 40
0.0
 41
0.0
  0
VERTEX
  5
   365
  8
0
  6
CONTINUOUS
 10
-25.2193191054487
 20
-17.253359048923
 30
0.0
 40
0.0
 41
0.0
  0
VERTEX
  5
   366
  8
0
  6
CONTINUOUS
 10
-25.2426805329787
 20
-17.3342100662434
 30
0.0
 40
0.0
 41
0.0
  0
VERTEX
  5
   367
  8
0
  6
CONTINUOUS
 10
-25.2626923657391
 20
-17.4162341739114
 30
0.0
 40
0.0
 41
0.0
  0
VERTEX
  5
   368
  8
0
  6
CONTINUOUS
 10
-25.2794951933909
 20
-17.499396661554
 30
0.0
 40
0.0
 41
0.0
  0
VERTEX
  5
   369
  8
0
  6
CONTINUOUS
 10
-25.293243833304
 20
-17.5836593061002
 30
0.0
 40
0.0
 41
0.0
  0
VERTEX
  5
   36A
  8
0
  6
CONTINUOUS
 10
-25.3041080166033
 20
-17.6689802024013
 30
0.0
 40
0.0
 41
0.0
  0
VERTEX
  5
   36B
  8
0
  6
CONTINUOUS
 10
-25.3122730742153
 20
-17.7553135938525
 30
0.0
 40
0.0
 41
0.0
  0
VERTEX
  5
   36C
  8
0
  6
CONTINUOUS
 10
-25.3190814298808
 20
-17.8665849288186
 30
0.0
 40
0.0
 41
0.0
  0
VERTEX
  5
   36D
  8
0
  6
CONTINUOUS
 10
-25.3222986978394
 20
-17.9793034167594
 30
0.0
 40
0.0
 41
0.0
  0
VERTEX
  5
   36E
  8
0
  6
CONTINUOUS
 10
-25.3224166008784
 20
-18.0933468636598
 30
0.0
 40
0.0
 41
0.0
  0
VERTEX
  5
   36F
  8
0
  6
CONTINUOUS
 10
-25.3199586528306
 20
-18.20858395952
 30
0.0
 40
0.0
 41
0.0
  0
VERTEX
  5
   370
  8
0
  6
CONTINUOUS
 10
-25.3154737824798
 20
-18.3248752190328
 30
0.0
 40
0.0
 41
0.0
  0
VERTEX
  5
   371
  8
0
  6
CONTINUOUS
 10
-25.309529957466
 20
-18.4420739222612
 30
0.0
 40
0.0
 41
0.0
  0
VERTEX
  5
   372
  8
0
  6
CONTINUOUS
 10
-25.2955942517243
 20
-18.6785762510322
 30
0.0
 40
0.0
 41
0.0
  0
VERTEX
  5
   373
  8
0
  6
CONTINUOUS
 10
-25.28283376226
 20
-18.916808239485
 30
0.0
 40
0.0
 41
0.0
  0
VERTEX
  5
   374
  8
0
  6
CONTINUOUS
 10
-25.2783347118856
 20
-19.0361559976161
 30
0.0
 40
0.0
 41
0.0
  0
VERTEX
  5
   375
  8
0
  6
CONTINUOUS
 10
-25.2758272673766
 20
-19.155431630554
 30
0.0
 40
0.0
 41
0.0
  0
VERTEX
  5
   376
  8
0
  6
CONTINUOUS
 10
-25.2758341377198
 20
-19.2744641149227
 30
0.0
 40
0.0
 41
0.0
  0
VERTEX
  5
   377
  8
0
  6
CONTINUOUS
 10
-25.2788460620016
 20
-19.3930827181364
 30
0.0
 40
0.0
 41
0.0
  0
VERTEX
  5
   378
  8
0
  6
CONTINUOUS
 10
-25.2853154333139
 20
-19.5111179390772
 30
0.0
 40
0.0
 41
0.0
  0
VERTEX
  5
   379
  8
0
  6
CONTINUOUS
 10
-25.2899759800977
 20
-19.5698643803201
 30
0.0
 40
0.0
 41
0.0
  0
VERTEX
  5
   37A
  8
0
  6
CONTINUOUS
 10
-25.2956499226593
 20
-19.6284024487721
 30
0.0
 40
0.0
 41
0.0
  0
VERTEX
  5
   37B
  8
0
  6
CONTINUOUS
 10
-25.3023801859693
 20
-19.6867117220391
 30
0.0
 40
0.0
 41
0.0
  0
VERTEX
  5
   37C
  8
0
  6
CONTINUOUS
 10
-25.3102061028563
 20
-19.7447720310709
 30
0.0
 40
0.0
 41
0.0
  0
VERTEX
  5
   37D
  8
0
  6
CONTINUOUS
 10
-25.3191632147534
 20
-19.8025634895571
 30
0.0
 40
0.0
 41
0.0
  0
VERTEX
  5
   37E
  8
0
  6
CONTINUOUS
 10
-25.3292830724453
 20
-19.8600665233236
 30
0.0
 40
0.0
 41
0.0
  0
VERTEX
  5
   37F
  8
0
  6
CONTINUOUS
 10
-25.3405930368156
 20
-19.9172618997283
 30
0.0
 40
0.0
 41
0.0
  0
VERTEX
  5
   380
  8
0
  6
CONTINUOUS
 10
-25.3531160795935
 20
-19.9741307570578
 30
0.0
 40
0.0
 41
0.0
  0
VERTEX
  5
   381
  8
0
  6
CONTINUOUS
 10
-25.3668705841011
 20
-20.0306546339231
 30
0.0
 40
0.0
 41
0.0
  0
VERTEX
  5
   382
  8
0
  6
CONTINUOUS
 10
-25.3818701460005
 20
-20.0868154986563
 30
0.0
 40
0.0
 41
0.0
  0
VERTEX
  5
   383
  8
0
  6
CONTINUOUS
 10
-25.4069572872368
 20
-20.1710834647667
 30
0.0
 40
0.0
 41
0.0
  0
VERTEX
  5
   384
  8
0
  6
CONTINUOUS
 10
-25.4349226946563
 20
-20.2544211306234
 30
0.0
 40
0.0
 41
0.0
  0
VERTEX
  5
   385
  8
0
  6
CONTINUOUS
 10
-25.4657491258783
 20
-20.3367730029912
 30
0.0
 40
0.0
 41
0.0
  0
VERTEX
  5
   386
  8
0
  6
CONTINUOUS
 10
-25.4993962017315
 20
-20.4180873670175
 30
0.0
 40
0.0
 41
0.0
  0
VERTEX
  5
   387
  8
0
  6
CONTINUOUS
 10
-25.5358024430395
 20
-20.4983168938773
 30
0.0
 40
0.0
 41
0.0
  0
VERTEX
  5
   388
  8
0
  6
CONTINUOUS
 10
-25.5748873074063
 20
-20.5774192484188
 30
0.0
 40
0.0
 41
0.0
  0
VERTEX
  5
   389
  8
0
  6
CONTINUOUS
 10
-25.6165532260022
 20
-20.6553576968084
 30
0.0
 40
0.0
 41
0.0
  0
VERTEX
  5
   38A
  8
0
  6
CONTINUOUS
 10
-25.6606876403491
 20
-20.7321017141763
 30
0.0
 40
0.0
 41
0.0
  0
VERTEX
  5
   38B
  8
0
  6
CONTINUOUS
 10
-25.7071650391064
 20
-20.8076275922618
 30
0.0
 40
0.0
 41
0.0
  0
VERTEX
  5
   38C
  8
0
  6
CONTINUOUS
 10
-25.7558489948563
 20
-20.8819190470586
 30
0.0
 40
0.0
 41
0.0
  0
SEQEND
  5
   38D
  8
0
  6
CONTINUOUS
 62
     3
  0
CIRCLE
  5
   38E
  8
0
  6
DOT
 62
     7
 10
-18.5494591737963
 20
-23.7571523110499
 30
0.0
 40
2.75000069115123
  0
CIRCLE
  5
   38F
  8
0
  6
DOT
 62
     7
 10
-1.04945917379625
 20
-23.7571523110499
 30
0.0
 40
2.75000069115123
  0
LINE
  5
   390
  8
0
  6
DASHDOT
 62
     7
 10
-1.04945917379625
 20
-28.0071530022011
 30
0.0
 11
-1.04945917379625
 21
-19.5071516198986
 31
0.0
  0
LINE
  5
   391
  8
0
  6
DASHDOT
 62
     7
 10
3.20054151735497
 20
-23.7571523110499
 30
0.0
 11
-5.29945986494748
 21
-23.7571523110499
 31
0.0
  0
LINE
  5
   392
  8
0
  6
DASHDOT
 62
     7
 10
-14.299458482645
 20
-23.7571523110499
 30
0.0
 11
-22.7994598649475
 21
-23.7571523110499
 31
0.0
  0
LINE
  5
   393
  8
0
  6
CONTINUOUS
 62
     7
 10
-41.0494588583156
 20
-7.98216895994031
 30
0.0
 11
-51.0494617193385
 21
1.99282836914063
 31
0.0
  0
LINE
  5
   394
  8
0
  6
CONTINUOUS
 62
     7
 10
-51.0494617193385
 20
1.99282836914063
 30
0.0
 11
-51.0494617193385
 21
11.9928207397461
 31
0.0
  0
LINE
  5
   395
  8
0
  6
CONTINUOUS
 62
     7
 10
-36.0494617193385
 20
1.99282836914063
 30
0.0
 11
-36.0494617193385
 21
11.9928359985352
 31
0.0
  0
LINE
  5
   396
  8
0
  6
CONTINUOUS
 62
     7
 10
-31.0494598119899
 20
-7.98218140476656
 30
0.0
 11
-36.0494617193385
 21
1.99288306932844
 31
0.0
  0
CIRCLE
  5
   397
  8
0
  6
CONTINUOUS
 62
     7
 10
-43.5494617231228
 20
5.74282836914063
 30
0.0
 40
2.12499994657612
  0
LINE
  5
   398
  8
0
  6
CONTINUOUS
 62
     7
 10
-41.0494588583156
 20
-17.5071477602657
 30
0.0
 11
-41.0494588583156
 21
-7.9821689599403
 31
0.0
  0
LINE
  5
   399
  8
0
  6
CONTINUOUS
 62
     7
 10
-31.0494598119899
 20
-17.5071477602657
 30
0.0
 11
-31.0494598119899
 21
-7.98218140476651
 31
0.0
  0
LINE
  5
   39A
  8
0
  6
CONTINUOUS
 62
     7
 10
-31.675000273551
 20
-8.04984808096874
 30
0.0
 11
-40.2568776401732
 21
-8.04984808096874
 31
0.0
  0
LINE
  5
   39B
  8
0
  6
CONTINUOUS
 62
     7
 10
-31.7534930543433
 20
-12.7129256013818
 30
0.0
 11
-40.2045491196451
 21
-12.7129256013818
 31
0.0
  0
LINE
  5
   39C
  8
0
  6
CONTINUOUS
 62
     7
 10
-51.0494617580789
 20
11.9928207397461
 30
0.0
 11
-36.0494617553702
 21
11.9928359985352
 31
0.0
  0
LINE
  5
   39D
  8
0
  6
CONTINUOUS
 62
     7
 10
-6.04946171933852
 20
-16.2571477602657
 30
0.0
 11
-6.04946171933852
 21
-7.98217025989987
 31
0.0
  0
LINE
  5
   39E
  8
0
  6
CONTINUOUS
 62
     7
 10
3.95053828066148
 20
-16.2571477602657
 30
0.0
 11
3.95053828066148
 21
-7.98216879025547
 31
0.0
  0
LINE
  5
   39F
  8
0
  6
CONTINUOUS
 62
     7
 10
3.24650092560563
 20
-12.7129256013818
 30
0.0
 11
-5.20455513969618
 21
-12.7129256013818
 31
0.0
  0
LINE
  5
   3A0
  8
0
  6
CONTINUOUS
 62
     7
 10
3.32499370639789
 20
-8.04984808096874
 30
0.0
 11
-5.25688366022432
 21
-8.04984808096874
 31
0.0
  0
LINE
  5
   3A1
  8
0
  6
CONTINUOUS
 62
     7
 10
-6.04946171933852
 20
-7.98217025989986
 30
0.0
 11
-1.04946024601019
 21
1.99282836914063
 31
0.0
  0
LINE
  5
   3A2
  8
0
  6
CONTINUOUS
 62
     7
 10
3.95053828066147
 20
-7.98216879025547
 30
0.0
 11
13.9505397539898
 21
1.99282836914064
 31
0.0
  0
LINE
  5
   3A3
  8
0
  6
CONTINUOUS
 62
     7
 10
-1.0494602460102
 20
1.99282836914061
 30
0.0
 11
-1.0494602460102
 21
11.9928359985352
 31
0.0
  0
LINE
  5
   3A4
  8
0
  6
CONTINUOUS
 62
     7
 10
13.9505397539898
 20
1.99282836914061
 30
0.0
 11
13.9505397539898
 21
11.9928207397461
 31
0.0
  0
LINE
  5
   3A5
  8
0
  6
CONTINUOUS
 62
     7
 10
13.9505397656324
 20
11.9928207397462
 30
0.0
 11
-1.04946023165891
 21
11.9928359985352
 31
0.0
  0
CIRCLE
  5
   3A6
  8
0
  6
CONTINUOUS
 62
     7
 10
6.45053975398982
 20
5.74282836914063
 30
0.0
 40
2.1249998301877
  0
LINE
  5
   3A7
  8
0
  6
CONTINUOUS
 62
     7
 10
-11.049467324506
 20
11.9928282001788
 30
0.0
 11
-26.049467324506
 21
11.9928282001788
 31
0.0
  0
LINE
  5
   3A8
  8
0
  6
CONTINUOUS
 62
     7
 10
-23.5494895384081
 20
-16.2571477602657
 30
0.0
 11
-23.5494895384081
 21
-8.00699409018398
 31
0.0
  0
LINE
  5
   3A9
  8
0
  6
CONTINUOUS
 62
     7
 10
-13.5494895384081
 20
-16.2571477602657
 30
0.0
 11
-13.5494895384081
 21
-8.00717179982132
 31
0.0
  0
LINE
  5
   3AA
  8
0
  6
CONTINUOUS
 62
     7
 10
-23.549445110604
 20
-8.00717179982111
 30
0.0
 11
-26.049467324506
 21
1.99282820017893
 31
0.0
  0
LINE
  5
   3AB
  8
0
  6
CONTINUOUS
 62
     7
 10
-13.549489538408
 20
-8.00717179982127
 30
0.0
 11
-11.049467324506
 21
1.99282820017876
 31
0.0
  0
LINE
  5
   3AC
  8
0
  6
CONTINUOUS
 62
     7
 10
-11.049467324506
 20
1.99282820017882
 30
0.0
 11
-11.049467324506
 21
11.9928282001788
 31
0.0
  0
LINE
  5
   3AD
  8
0
  6
CONTINUOUS
 62
     7
 10
-26.049467324506
 20
1.99282820017883
 30
0.0
 11
-26.049467324506
 21
11.9928282001788
 31
0.0
  0
CIRCLE
  5
   3AE
  8
0
  6
CONTINUOUS
 62
     7
 10
-18.549467324506
 20
5.74282820017883
 30
0.0
 40
2.125
  0
LINE
  5
   3AF
  8
0
  6
CONTINUOUS
 62
     7
 10
-14.1750341126716
 20
-8.04984808096874
 30
0.0
 11
-22.7569114792939
 21
-8.04984808096874
 31
0.0
  0
LINE
  5
   3B0
  8
0
  6
CONTINUOUS
 62
     7
 10
-14.2535268934639
 20
-12.7129256013818
 30
0.0
 11
-22.7045829587657
 21
-12.7129256013818
 31
0.0
  0
TEXT
  5
   3B1
  8
0
  6
CONTINUOUS
 62
     7
 10
-18.695149326692
 20
18.9833367648412
 30
0.0
 40
3.00000002980232
  1
Y
 50
359.999999948034
 41
0.916666604744064
 72
     2
 11
-16.4951494578222
 21
18.9833367628569
 31
0.0
  0
LINE
  5
   3B2
  8
0
  6
CONTINUOUS
 62
     1
 10
-7.04946175569104
 20
-16.2571477602657
 30
0.0
 11
-7.04946175569104
 21
-14.7571477602657
 31
0.0
  0
LINE
  5
   3B3
  8
0
  6
CONTINUOUS
 62
     1
 10
-10.549461755691
 20
-14.7571477602657
 30
0.0
 11
-12.549461755691
 21
-14.7571477602657
 31
0.0
  0
LINE
  5
   3B4
  8
0
  6
CONTINUOUS
 62
     1
 10
-7.04946175569104
 20
-14.7571477602657
 30
0.0
 11
-9.04946175569104
 21
-14.7571477602657
 31
0.0
  0
LINE
  5
   3B5
  8
0
  6
CONTINUOUS
 62
     1
 10
-12.549461755691
 20
-16.2571477602657
 30
0.0
 11
-12.549461755691
 21
-14.7571477602657
 31
0.0
  0
LINE
  5
   3B6
  8
0
  6
CONTINUOUS
 62
     1
 10
-7.04946175569104
 20
-16.2571477602657
 30
0.0
 11
-12.549461755691
 21
-16.2571477602657
 31
0.0
  0
LINE
  5
   3B7
  8
0
  6
CONTINUOUS
 62
     1
 10
-7.04946175569104
 20
-15.7571477602657
 30
0.0
 11
-12.549461755691
 21
-15.7571477602657
 31
0.0
  0
LINE
  5
   3B8
  8
0
  6
CONTINUOUS
 62
     1
 10
-9.04946175569101
 20
-14.7571477602657
 30
0.0
 11
-9.04946175569101
 21
-8.66561023095759
 31
0.0
  0
LINE
  5
   3B9
  8
0
  6
DASHDOT
 62
     7
 10
-9.79946175569101
 20
-17.8195387544814
 30
0.0
 11
-9.79946175569101
 21
-9.3982930684736
 31
0.0
  0
LINE
  5
   3BA
  8
0
  6
CONTINUOUS
 62
     1
 10
-9.049461755691
 20
-8.66561023095757
 30
0.0
 11
-3.94988293965119
 21
3.67296355514668E-3
 31
0.0
  0
LINE
  5
   3BB
  8
0
  6
CONTINUOUS
 62
     1
 10
-10.549461755691
 20
-8.25714776026572
 30
0.0
 11
-5.4645634238476
 21
0.387178613395236
 31
0.0
  0
LINE
  5
   3BC
  8
0
  6
CONTINUOUS
 62
     1
 10
-10.549461755691
 20
-14.7571477602657
 30
0.0
 11
-10.549461755691
 21
-8.2571477602657
 31
0.0
  0
LINE
  5
   3BD
  8
0
  6
CONTINUOUS
 62
     1
 10
-5.4645634238476
 20
0.387178613396401
 30
0.0
 11
-5.3944758329831
 21
33.3976371708339
 31
0.0
  0
LINE
  5
   3BE
  8
0
  6
CONTINUOUS
 62
     1
 10
-4.79926076408265
 20
42.7428522397343
 30
0.0
 11
-5.3734150924079
 21
43.3170065680596
 31
0.0
  0
LINE
  5
   3BF
  8
0
  6
CONTINUOUS
 62
     1
 10
-5.37585836141042
 20
42.1662546424066
 30
0.0
 11
-4.79926076408277
 21
42.7428522397342
 31
0.0
  0
LINE
  5
   3C0
  8
0
  6
CONTINUOUS
 62
     1
 10
-4.1389027070505
 20
42.3324941827022
 30
0.0
 11
-4.54926076408262
 21
42.7428522397343
 31
0.0
  0
LINE
  5
   3C1
  8
0
  6
CONTINUOUS
 62
     1
 10
-4.54926076408275
 20
42.7428522397342
 30
0.0
 11
-4.14255132996696
 21
43.1495616738501
 31
0.0
  0
LINE
  5
   3C2
  8
0
  6
CONTINUOUS
 62
     1
 10
-30.0494266415258
 20
-16.2571477602657
 30
0.0
 11
-30.0494266415258
 21
-14.7571477602657
 31
0.0
  0
LINE
  5
   3C3
  8
0
  6
CONTINUOUS
 62
     1
 10
-24.5494266415257
 20
-14.7571477602657
 30
0.0
 11
-26.5494266415257
 21
-14.7571477602657
 31
0.0
  0
LINE
  5
   3C4
  8
0
  6
CONTINUOUS
 62
     1
 10
-28.0494266415257
 20
-14.7571477602657
 30
0.0
 11
-30.0494266415257
 21
-14.7571477602657
 31
0.0
  0
LINE
  5
   3C5
  8
0
  6
CONTINUOUS
 62
     1
 10
-24.5494266415258
 20
-16.2571477602657
 30
0.0
 11
-24.5494266415258
 21
-14.7571477602657
 31
0.0
  0
LINE
  5
   3C6
  8
0
  6
CONTINUOUS
 62
     1
 10
-24.5494266415257
 20
-16.2571477602657
 30
0.0
 11
-30.0494266415257
 21
-16.2571477602657
 31
0.0
  0
LINE
  5
   3C7
  8
0
  6
CONTINUOUS
 62
     1
 10
-24.5494266415257
 20
-15.7571477602657
 30
0.0
 11
-30.0494266415257
 21
-15.7571477602657
 31
0.0
  0
LINE
  5
   3C8
  8
0
  6
CONTINUOUS
 62
     1
 10
-28.0494266415258
 20
-14.7571477602657
 30
0.0
 11
-28.0494266415258
 21
-8.66561023095759
 31
0.0
  0
LINE
  5
   3C9
  8
0
  6
DASHDOT
 62
     7
 10
-27.2994266415258
 20
-17.8195387544814
 30
0.0
 11
-27.2994266415258
 21
-9.3982930684736
 31
0.0
  0
LINE
  5
   3CA
  8
0
  6
CONTINUOUS
 62
     1
 10
-28.0494266415258
 20
-8.66561023095758
 30
0.0
 11
-33.1490054575656
 21
3.67296355514668E-3
 31
0.0
  0
LINE
  5
   3CB
  8
0
  6
CONTINUOUS
 62
     1
 10
-26.5494266415258
 20
-8.25714776026572
 30
0.0
 11
-31.6343249733692
 21
0.387178613395264
 31
0.0
  0
LINE
  5
   3CC
  8
0
  6
CONTINUOUS
 62
     1
 10
-26.5494266415258
 20
-14.7571477602657
 30
0.0
 11
-26.5494266415258
 21
-8.2571477602657
 31
0.0
  0
LINE
  5
   3CD
  8
0
  6
CONTINUOUS
 62
     1
 10
-31.6343249733692
 20
0.387178613396429
 30
0.0
 11
-31.7044125642337
 21
33.397637170834
 31
0.0
  0
LINE
  5
   3CE
  8
0
  6
CONTINUOUS
 62
     1
 10
-33.1490054575656
 20
3.67296355602775E-3
 30
0.0
 11
-32.9992341656637
 21
33.5432457072047
 31
0.0
  0
LINE
  5
   3CF
  8
0
  6
CONTINUOUS
 62
     1
 10
-32.299627633134
 20
42.7428522397343
 30
0.0
 11
-31.7254733048089
 21
43.3170065680594
 31
0.0
  0
LINE
  5
   3D0
  8
0
  6
CONTINUOUS
 62
     1
 10
-31.7230300358064
 20
42.1662546424067
 30
0.0
 11
-32.2996276331339
 21
42.7428522397342
 31
0.0
  0
LINE
  5
   3D1
  8
0
  6
CONTINUOUS
 62
     1
 10
-32.9599856901663
 20
42.3324941827021
 30
0.0
 11
-32.549627633134
 21
42.7428522397343
 31
0.0
  0
LINE
  5
   3D2
  8
0
  6
CONTINUOUS
 62
     1
 10
-32.5496276331339
 20
42.7428522397342
 30
0.0
 11
-32.9563370672498
 21
43.1495616738502
 31
0.0
  0
LINE
  5
   3D3
  8
0
  6
CONTINUOUS
 62
     1
 10
-32.5496276331339
 20
33.9928522397343
 30
0.0
 11
-32.9952365721722
 21
34.4384611787725
 31
0.0
  0
LINE
  5
   3D4
  8
0
  6
CONTINUOUS
 62
     1
 10
-32.9992341656637
 20
33.5432457072047
 30
0.0
 11
-32.5496276331341
 21
33.9928522397343
 31
0.0
  0
LINE
  5
   3D5
  8
0
  6
CONTINUOUS
 62
     1
 10
-32.299627633134
 20
33.9928522397343
 30
0.0
 11
-31.7069347227276
 21
34.5855451501408
 31
0.0
  0
LINE
  5
   3D6
  8
0
  6
CONTINUOUS
 62
     1
 10
-31.7044125642337
 20
33.397637170834
 30
0.0
 11
-32.2996276331339
 21
33.9928522397343
 31
0.0
  0
LINE
  5
   3D7
  8
0
  6
CONTINUOUS
 62
     1
 10
-4.79926076408265
 20
33.9928522397343
 30
0.0
 11
-5.39195367448919
 21
34.5855451501409
 31
0.0
  0
LINE
  5
   3D8
  8
0
  6
CONTINUOUS
 62
     1
 10
-5.39447583298309
 20
33.3976371708339
 30
0.0
 11
-4.7992607640828
 21
33.9928522397342
 31
0.0
  0
LINE
  5
   3D9
  8
0
  6
CONTINUOUS
 62
     1
 10
-4.54926076408275
 20
33.9928522397343
 30
0.0
 11
-4.10365182504459
 21
34.4384611787724
 31
0.0
  0
LINE
  5
   3DA
  8
0
  6
CONTINUOUS
 62
     1
 10
-4.0996542315531
 20
33.5432457072048
 30
0.0
 11
-4.54926076408259
 21
33.9928522397343
 31
0.0
  0
LINE
  5
   3DB
  8
0
  6
DASHDOT
 62
     7
 10
-43.5494617231228
 20
2.6178284225645
 30
0.0
 11
-43.5494617231228
 21
8.86782831571675
 31
0.0
  0
LINE
  5
   3DC
  8
0
  6
DASHDOT
 62
     7
 10
-40.4244617765466
 20
5.74282836914063
 30
0.0
 11
-46.6744616696989
 21
5.74282836914063
 31
0.0
  0
LINE
  5
   3DD
  8
0
  6
DASHDOT
 62
     7
 10
-18.549467324506
 20
-14.0367938923902
 30
0.0
 11
-18.549467324506
 21
18.1821411460885
 31
0.0
  0
LINE
  5
   3DE
  8
0
  6
DASHDOT
 62
     7
 10
-15.424467324506
 20
5.74282820017883
 30
0.0
 11
-21.674467324506
 21
5.74282820017883
 31
0.0
  0
LINE
  5
   3DF
  8
0
  6
DASHDOT
 62
     7
 10
6.45053975398982
 20
2.61782853895292
 30
0.0
 11
6.45053975398982
 21
8.86782819932833
 31
0.0
  0
LINE
  5
   3E0
  8
0
  6
DASHDOT
 62
     7
 10
9.57553958417752
 20
5.74282836914063
 30
0.0
 11
3.32553992380211
 21
5.74282836914063
 31
0.0
  0
LINE
  5
   3E1
  8
0
  6
CONTINUOUS
 62
     1
 10
-32.2996276331339
 20
61.2428522397343
 30
0.0
 11
-32.5496276331341
 21
61.2428522397343
 31
0.0
  0
LINE
  5
   3E2
  8
0
  6
CONTINUOUS
 62
     1
 10
-31.7623926899886
 20
60.7056172965889
 30
0.0
 11
-32.2996276331339
 21
61.2428522397342
 31
0.0
  0
LINE
  5
   3E3
  8
0
  6
CONTINUOUS
 62
     1
 10
-32.8770031991147
 20
60.9154766737537
 30
0.0
 11
-32.5496276331341
 21
61.2428522397343
 31
0.0
  0
LINE
  5
   3E4
  8
0
  6
CONTINUOUS
 62
     1
 10
-32.9563370672498
 20
43.1495616738502
 30
0.0
 11
-32.8770031991146
 21
60.9154766737538
 31
0.0
  0
LINE
  5
   3E5
  8
0
  6
CONTINUOUS
 62
     1
 10
-31.7254733048089
 20
43.3170065680594
 30
0.0
 11
-31.7623926899887
 21
60.705617296589
 31
0.0
  0
LINE
  5
   3E6
  8
0
  6
CONTINUOUS
 62
     1
 10
-32.9952365721722
 20
34.4384611787725
 30
0.0
 11
-32.9599856901663
 21
42.3324941827021
 31
0.0
  0
LINE
  5
   3E7
  8
0
  6
CONTINUOUS
 62
     1
 10
-31.7069347227276
 20
34.5855451501407
 30
0.0
 11
-31.7230300358064
 21
42.1662546424067
 31
0.0
  0
INSERT
  5
   3E8
  8
0
  6
CONTINUOUS
 62
     7
  2
*UDIM188
 10
0.0
 20
0.0
 30
0.0
  0
INSERT
  5
   3E9
  8
0
  6
CONTINUOUS
 62
     7
  2
*UDIM189
 10
0.0
 20
0.0
 30
0.0
  0
INSERT
  5
   3EA
  8
0
  6
CONTINUOUS
 62
     7
  2
*UDIM190
 10
0.0
 20
0.0
 30
0.0
  0
INSERT
  5
   3EB
  8
0
  6
CONTINUOUS
 62
     7
  2
*UDIM191
 10
0.0
 20
0.0
 30
0.0
  0
LINE
  5
   3EC
  8
0
  6
CONTINUOUS
 62
     1
 10
-5.3364957072281
 20
60.7056172965921
 30
0.0
 11
-4.7992607640828
 21
61.2428522397374
 31
0.0
  0
LINE
  5
   3ED
  8
0
  6
CONTINUOUS
 62
     1
 10
-3.94988293965119
 20
3.67296355514668E-3
 30
0.0
 11
-4.09965423155311
 21
33.5432457072048
 31
0.0
  0
LINE
  5
   3EE
  8
0
  6
CONTINUOUS
 62
     1
 10
-4.22188519810214
 20
60.915476673757
 30
0.0
 11
-4.5492607640826
 21
61.2428522397375
 31
0.0
  0
LINE
  5
   3EF
  8
0
  6
CONTINUOUS
 62
     1
 10
-4.14255132996695
 20
43.1495616738501
 30
0.0
 11
-4.22188519810215
 21
60.915476673757
 31
0.0
  0
LINE
  5
   3F0
  8
0
  6
CONTINUOUS
 62
     1
 10
-5.3734150924079
 20
43.3170065680595
 30
0.0
 11
-5.33649570722812
 21
60.705617296592
 31
0.0
  0
LINE
  5
   3F1
  8
0
  6
CONTINUOUS
 62
     1
 10
-5.3919536744892
 20
34.5855451501409
 30
0.0
 11
-5.3758583614104
 21
42.1662546424066
 31
0.0
  0
LINE
  5
   3F2
  8
0
  6
CONTINUOUS
 62
     1
 10
-4.10365182504459
 20
34.4384611787724
 30
0.0
 11
-4.1389027070505
 21
42.3324941827022
 31
0.0
  0
LINE
  5
   3F3
  8
0
  6
CONTINUOUS
 62
     1
 10
-4.54926076411176
 20
61.2428522397406
 30
0.0
 11
-4.79926076411163
 21
61.2428522397406
 31
0.0
  0
INSERT
  5
   3F4
  8
0
  6
CONTINUOUS
 62
     7
  2
*UDIM192
 10
0.0
 20
0.0
 30
0.0
  0
INSERT
  5
   3F5
  8
0
  6
CONTINUOUS
 62
     2
  2
*UDIM193
 10
0.0
 20
0.0
 30
0.0
  0
INSERT
  5
   3F6
  8
0
  6
CONTINUOUS
 62
     7
  2
*UDIM194
 10
0.0
 20
0.0
 30
0.0
  0
INSERT
  5
   3F7
  8
0
  6
CONTINUOUS
 62
     7
  2
*UDIM195
 10
0.0
 20
0.0
 30
0.0
  0
INSERT
  5
   3F8
  8
0
  6
CONTINUOUS
 62
     7
  2
*UDIM196
 10
0.0
 20
0.0
 30
0.0
  0
INSERT
  5
   3F9
  8
0
  6
CONTINUOUS
 62
     7
  2
*UDIM197
 10
0.0
 20
0.0
 30
0.0
  0
INSERT
  5
   3FA
  8
0
  6
CONTINUOUS
 62
     7
  2
*UDIM198
 10
0.0
 20
0.0
 30
0.0
  0
INSERT
  5
   3FB
  8
0
  6
CONTINUOUS
 62
     7
  2
*UDIM199
 10
0.0
 20
0.0
 30
0.0
  0
INSERT
  5
   3FC
  8
0
  6
CONTINUOUS
 62
     7
  2
*UDIM200
 10
0.0
 20
0.0
 30
0.0
  0
INSERT
  5
   3FD
  8
0
  6
CONTINUOUS
 62
     7
  2
*UDIM201
 10
0.0
 20
0.0
 30
0.0
  0
TEXT
  5
   3FE
  8
0
  6
CONTINUOUS
 62
     7
 10
32.2754916997823
 20
-76.0118801463322
 30
0.0
 40
3.00000002980232
  1
=          =
 50
89.9999999480344
 41
0.916666604744064
 72
     2
 11
32.2754917291727
 21
-43.5618820204015
 31
0.0
  0
TEXT
  5
   3FF
  8
0
  6
CONTINUOUS
 62
     7
 10
45.8779434607825
 20
-62.721416102449
 30
0.0
 40
3.00000002980232
  1
X
 50
359.999999948034
 41
0.916666604744064
 72
     2
 11
48.0779433296523
 21
-62.7214161044333
 31
0.0
  0
INSERT
  5
   400
  8
0
  6
CONTINUOUS
 62
     7
  2
*UDIM202
 10
0.0
 20
0.0
 30
0.0
  0
TEXT
  5
   401
  8
0
  6
CONTINUOUS
 62
     7
 10
-86.3125517918267
 20
-62.365297834475
 30
0.0
 40
3.00000002980232
  1
X
 50
359.999999948034
 41
0.916666604744064
 72
     2
 11
-84.1125519229569
 21
-62.3652978364593
 31
0.0
  0
INSERT
  5
   402
  8
0
  6
CONTINUOUS
 62
     7
  2
*UDIM203
 10
0.0
 20
0.0
 30
0.0
  0
LINE
  5
   403
  8
0
  6
CONTINUOUS
 62
     3
 10
123.078540944504
 20
-101.107133865356
 30
0.0
 11
134.222489356995
 21
-101.107133865356
 31
0.0
  0
LINE
  5
   404
  8
0
  6
CONTINUOUS
 62
     7
 10
98.2224893569946
 20
-102.507134904254
 30
0.0
 11
98.2224893569946
 21
-82.3600249189026
 31
0.0
  0
LINE
  5
   405
  8
0
  6
CONTINUOUS
 62
     7
 10
98.2224893569946
 20
-82.3600387573242
 30
0.0
 11
98.2224893569946
 21
-17.5071487538955
 31
0.0
  0
LINE
  5
   406
  8
0
  6
DASHDOT
 62
     7
 10
97.2224893569946
 20
-107.921867429748
 30
0.0
 11
97.2224893569946
 21
-12.4929885408448
 31
0.0
  0
LINE
  5
   407
  8
0
  6
CONTINUOUS
 62
     7
 10
97.2224893569946
 20
-22.8423385620117
 30
0.0
 11
97.2224893569946
 21
-22.7571563720703
 31
0.0
  0
LINE
  5
   408
  8
0
  6
CONTINUOUS
 62
     7
 10
132.472477913028
 20
-48.8821422854024
 30
0.0
 11
132.472487596518
 21
-53.0071541388248
 31
0.0
  0
LINE
  5
   409
  8
0
  6
CONTINUOUS
 62
     7
 10
133.722459745826
 20
-25.7571445973189
 30
0.0
 11
134.076021138252
 21
-25.6106983919057
 31
0.0
  0
LINE
  5
   40A
  8
0
  6
CONTINUOUS
 62
     7
 10
134.076027509808
 20
-25.6107089549449
 30
0.0
 11
134.222473726687
 21
-25.25715520572
 31
0.0
  0
LINE
  5
   40B
  8
0
  6
CONTINUOUS
 62
     7
 10
132.4724811827
 20
-29.2571416558258
 30
0.0
 11
132.472488812094
 21
-25.7571416555458
 31
0.0
  0
LINE
  5
   40C
  8
0
  6
CONTINUOUS
 62
     7
 10
132.472489356995
 20
-25.7571411132813
 30
0.0
 11
133.722474098206
 21
-25.7571411132813
 31
0.0
  0
LINE
  5
   40D
  8
0
  6
CONTINUOUS
 62
     7
 10
132.4724817276
 20
-48.8821411132813
 30
0.0
 11
132.4724817276
 21
-29.2571411132813
 31
0.0
  0
LINE
  5
   40E
  8
0
  6
CONTINUOUS
 62
     7
 10
130.222489356995
 20
-74.2571411132813
 30
0.0
 11
130.222489356995
 21
-54.0071411132813
 31
0.0
  0
LINE
  5
   40F
  8
0
  6
CONTINUOUS
 62
     7
 10
130.222504338099
 20
-54.0071135747088
 30
0.0
 11
130.356476495363
 21
-53.5071135884026
 31
0.0
  0
LINE
  5
   410
  8
0
  6
CONTINUOUS
 62
     7
 10
130.35649352911
 20
-53.5070945608653
 30
0.0
 11
130.722513713117
 21
-53.1410667560439
 31
0.0
  0
LINE
  5
   411
  8
0
  6
CONTINUOUS
 62
     7
 10
130.722461964494
 20
-53.1411262960302
 30
0.0
 11
131.222469567074
 21
-53.0071541388248
 31
0.0
  0
LINE
  5
   412
  8
0
  6
CONTINUOUS
 62
     7
 10
130.222489356995
 20
-74.2571411132813
 30
0.0
 11
134.222489356995
 21
-74.2571411132813
 31
0.0
  0
LINE
  5
   413
  8
0
  6
CONTINUOUS
 62
     7
 10
133.722429886911
 20
-81.2571475071055
 30
0.0
 11
134.222468013422
 21
-81.7571474892622
 31
0.0
  0
LINE
  5
   414
  8
0
  6
CONTINUOUS
 62
     7
 10
133.722441647769
 20
-75.7571358101617
 30
0.0
 11
134.222487403178
 21
-75.2571358283157
 31
0.0
  0
LINE
  5
   415
  8
0
  6
CONTINUOUS
 62
     7
 10
102.338531839798
 20
-75.757153884658
 30
0.0
 11
133.722435343216
 21
-75.7571386258699
 31
0.0
  0
LINE
  5
   416
  8
0
  6
CONTINUOUS
 62
     7
 10
102.338508605957
 20
-81.2571411132813
 30
0.0
 11
133.722442626953
 21
-81.2571411132813
 31
0.0
  0
LINE
  5
   417
  8
0
  6
CONTINUOUS
 62
     7
 10
100.472487096933
 20
-75.2571554356249
 30
0.0
 11
102.338529605238
 21
-75.7571630642063
 31
0.0
  0
LINE
  5
   418
  8
0
  6
CONTINUOUS
 62
     7
 10
98.7224870748598
 20
-74.7882430348063
 30
0.0
 11
100.472503268675
 21
-75.2571608269345
 31
0.0
  0
LINE
  5
   419
  8
0
  6
CONTINUOUS
 62
     7
 10
98.2224899126731
 20
-82.3600231766152
 30
0.0
 11
102.338509614666
 21
-81.2571408083451
 31
0.0
  0
LINE
  5
   41A
  8
0
  6
CONTINUOUS
 62
     7
 10
98.2224958574967
 20
-73.6099893162042
 30
0.0
 11
98.7224944003257
 21
-73.4760171589356
 31
0.0
  0
LINE
  5
   41B
  8
0
  6
CONTINUOUS
 62
     7
 10
98.2224893569946
 20
-85.5071487426758
 30
0.0
 11
100.222488880157
 21
-85.5071487426758
 31
0.0
  0
LINE
  5
   41C
  8
0
  6
CONTINUOUS
 62
     7
 10
100.222488880157
 20
-89.2655377235587
 30
0.0
 11
100.222488880157
 21
-85.5071487426758
 31
0.0
  0
LINE
  5
   41D
  8
0
  6
CONTINUOUS
 62
     7
 10
98.7224893569946
 20
-82.2260589599609
 30
0.0
 11
98.7224893569946
 21
-60.0071487426758
 31
0.0
  0
LINE
  5
   41E
  8
0
  6
CONTINUOUS
 62
     7
 10
100.472489356995
 20
-75.2571411132813
 30
0.0
 11
100.472489356995
 21
-62.7571411132813
 31
0.0
  0
LINE
  5
   41F
  8
0
  6
CONTINUOUS
 62
     7
 10
98.2224888801575
 20
-60.0071487426758
 30
0.0
 11
99.7224884033203
 21
-60.0071487426758
 31
0.0
  0
LINE
  5
   420
  8
0
  6
CONTINUOUS
 62
     7
 10
99.7224935544654
 20
-60.0071536992387
 30
0.0
 11
100.097494487962
 21
-60.1076328171818
 31
0.0
  0
LINE
  5
   421
  8
0
  6
CONTINUOUS
 62
     7
 10
99.7224935544654
 20
-60.0071536992387
 30
0.0
 11
100.097494487962
 21
-60.1076328171818
 31
0.0
  0
LINE
  5
   422
  8
0
  6
CONTINUOUS
 62
     7
 10
100.097490973909
 20
-60.1076353425602
 30
0.0
 11
100.372009935752
 21
-60.3821562019078
 31
0.0
  0
LINE
  5
   423
  8
0
  6
CONTINUOUS
 62
     7
 10
100.37200130827
 20
-60.3821628005321
 30
0.0
 11
100.47248186091
 21
-60.7571627993407
 31
0.0
  0
LINE
  5
   424
  8
0
  6
CONTINUOUS
 62
     7
 10
100.472498416901
 20
-62.7571479678103
 30
0.0
 11
100.472498416901
 21
-60.7571555972048
 31
0.0
  0
LINE
  5
   425
  8
0
  6
CONTINUOUS
 62
     7
 10
100.372012253171
 20
-63.1321519163803
 30
0.0
 11
100.419623482701
 21
-62.9544633204378
 31
0.0
  0
LINE
  5
   426
  8
0
  6
CONTINUOUS
 62
     7
 10
100.419622565542
 20
-62.9544681633796
 30
0.0
 11
100.472491884203
 21
-62.7571491358769
 31
0.0
  0
LINE
  5
   427
  8
0
  6
CONTINUOUS
 62
     7
 10
100.097489202504
 20
-63.4066876226835
 30
0.0
 11
100.372008627557
 21
-63.1321667629306
 31
0.0
  0
LINE
  5
   428
  8
0
  6
CONTINUOUS
 62
     7
 10
99.7224829308635
 20
-63.507159131296
 30
0.0
 11
100.097482925686
 21
-63.4066800210619
 31
0.0
  0
LINE
  5
   429
  8
0
  6
CONTINUOUS
 62
     7
 10
98.7224893569946
 20
-63.5071487426758
 30
0.0
 11
99.7224888801575
 21
-63.5071487426758
 31
0.0
  0
LINE
  5
   42A
  8
0
  6
CONTINUOUS
 62
     7
 10
97.2224893569946
 20
-97.2571482658386
 30
0.0
 11
98.2224893569946
 21
-97.2571482658386
 31
0.0
  0
LINE
  5
   42B
  8
0
  6
CONTINUOUS
 62
     7
 10
97.2224893569946
 20
-22.7571563720703
 30
0.0
 11
98.2224893569946
 21
-22.7571563720703
 31
0.0
  0
LINE
  5
   42C
  8
0
  6
CONTINUOUS
 62
     7
 10
97.2224893569946
 20
-27.6913299560547
 30
0.0
 11
98.2224893569946
 21
-27.6913299560547
 31
0.0
  0
LINE
  5
   42D
  8
0
  6
CONTINUOUS
 62
     7
 10
100.472477592363
 20
-81.0071468099067
 30
0.0
 11
101.871996030148
 21
-81.3821467808876
 31
0.0
  0
LINE
  5
   42E
  8
0
  6
CONTINUOUS
 62
     7
 10
100.472472667694
 20
-81.0071420431088
 30
0.0
 11
100.472472667694
 21
-76.0071420431088
 31
0.0
  0
LINE
  5
   42F
  8
0
  6
CONTINUOUS
 62
     7
 10
100.472472813961
 20
-76.007148730235
 30
0.0
 11
101.8720031695
 21
-75.6321487335837
 31
0.0
  0
LINE
  5
   430
  8
0
  6
CONTINUOUS
 62
     7
 10
97.2224893569946
 20
-92.3648376464844
 30
0.0
 11
98.2224893569946
 21
-92.3648376464844
 31
0.0
  0
LINE
  5
   431
  8
0
  6
CONTINUOUS
 62
     7
 10
97.2224893569946
 20
-92.2571487426758
 30
0.0
 11
98.2224893569946
 21
-92.2571487426758
 31
0.0
  0
LINE
  5
   432
  8
0
  6
CONTINUOUS
 62
     7
 10
100.372013946882
 20
-63.3967980451958
 30
0.0
 11
100.472494016412
 21
-62.9544610238094
 31
0.0
  0
LINE
  5
   433
  8
0
  6
CONTINUOUS
 62
     7
 10
100.419619560242
 20
-62.954460144043
 30
0.0
 11
100.47248840332
 21
-62.954460144043
 31
0.0
  0
LINE
  5
   434
  8
0
  6
CONTINUOUS
 62
     7
 10
100.405500968882
 20
-70.0071538952161
 30
0.0
 11
100.472487047986
 21
-69.9574255036361
 31
0.0
  0
LINE
  5
   435
  8
0
  6
CONTINUOUS
 62
     7
 10
100.372010952945
 20
-69.982307257119
 30
0.0
 11
100.405505423014
 21
-70.0071714520159
 31
0.0
  0
LINE
  5
   436
  8
0
  6
CONTINUOUS
 62
     7
 10
100.372008323669
 20
-65.0071411132813
 30
0.0
 11
100.472488880157
 21
-65.0071411132813
 31
0.0
  0
LINE
  5
   437
  8
0
  6
CONTINUOUS
 62
     7
 10
100.372005590225
 20
-68.0320344285923
 30
0.0
 11
100.405500060294
 21
-68.0071702336953
 31
0.0
  0
LINE
  5
   438
  8
0
  6
CONTINUOUS
 62
     7
 10
100.405504900839
 20
-68.0071573772997
 30
0.0
 11
100.472490979943
 21
-68.0568857688796
 31
0.0
  0
LINE
  5
   439
  8
0
  6
CONTINUOUS
 62
     7
 10
100.372005495444
 20
-63.8412191865908
 30
0.0
 11
100.426592364975
 21
-64.1461050473619
 31
0.0
  0
LINE
  5
   43A
  8
0
  6
CONTINUOUS
 62
     7
 10
100.426594811925
 20
-64.1461015134512
 30
0.0
 11
100.472488480018
 21
-65.0071396886214
 31
0.0
  0
LINE
  5
   43B
  8
0
  6
CONTINUOUS
 62
     7
 10
100.11432621509
 20
-69.9310382328984
 30
0.0
 11
100.372006148583
 21
-69.9822924997529
 31
0.0
  0
LINE
  5
   43C
  8
0
  6
CONTINUOUS
 62
     7
 10
100.097488094038
 20
-69.9197818586417
 30
0.0
 11
100.114327598175
 21
-69.9310352148323
 31
0.0
  0
LINE
  5
   43D
  8
0
  6
CONTINUOUS
 62
     7
 10
100.097480682479
 20
-68.0945282397349
 30
0.0
 11
100.114321139711
 21
-68.0832748833121
 31
0.0
  0
LINE
  5
   43E
  8
0
  6
CONTINUOUS
 62
     7
 10
100.114324436836
 20
-68.083277279235
 30
0.0
 11
100.372003417229
 21
-68.0320230203569
 31
0.0
  0
LINE
  5
   43F
  8
0
  6
CONTINUOUS
 62
     7
 10
100.097488880157
 20
-65.0071411132813
 30
0.0
 11
100.372008323669
 21
-65.0071411132813
 31
0.0
  0
LINE
  5
   440
  8
0
  6
CONTINUOUS
 62
     7
 10
99.722486645792
 20
-69.8526500988422
 30
0.0
 11
100.097486637089
 21
-69.9197887552479
 31
0.0
  0
LINE
  5
   441
  8
0
  6
CONTINUOUS
 62
     7
 10
99.7224860655034
 20
-68.161665275065
 30
0.0
 11
100.0974860568
 21
-68.0945266186593
 31
0.0
  0
LINE
  5
   442
  8
0
  6
CONTINUOUS
 62
     7
 10
99.7224888801575
 20
-65.0071411132813
 30
0.0
 11
100.097488880157
 21
-65.0071411132813
 31
0.0
  0
LINE
  5
   443
  8
0
  6
CONTINUOUS
 62
     7
 10
98.7224893569946
 20
-68.1616592407227
 30
0.0
 11
99.7224888801575
 21
-68.1616592407227
 31
0.0
  0
LINE
  5
   444
  8
0
  6
CONTINUOUS
 62
     7
 10
98.7224893569946
 20
-65.0071411132813
 30
0.0
 11
99.7224888801575
 21
-65.0071411132813
 31
0.0
  0
LINE
  5
   445
  8
0
  6
CONTINUOUS
 62
     7
 10
98.7224893569946
 20
-69.8526382446289
 30
0.0
 11
99.7224888801575
 21
-69.8526382446289
 31
0.0
  0
LINE
  5
   446
  8
0
  6
CONTINUOUS
 62
     3
 10
112.847489356995
 20
-17.5071411132813
 30
0.0
 11
146.722489357591
 21
-17.5071411132813
 31
0.0
  0
LINE
  5
   447
  8
0
  6
CONTINUOUS
 62
     3
 10
130.882047921207
 20
-18.9071350097656
 30
0.0
 11
145.322487831712
 21
-18.9071350097656
 31
0.0
  0
LINE
  5
   448
  8
0
  6
CONTINUOUS
 62
     3
 10
134.222489357591
 20
-101.107133865356
 30
0.0
 11
145.322487831712
 21
-101.107133865356
 31
0.0
  0
LINE
  5
   449
  8
0
  6
CONTINUOUS
 62
     3
 10
134.222489357591
 20
-102.507133483887
 30
0.0
 11
146.722489357591
 21
-102.507133483887
 31
0.0
  0
LINE
  5
   44A
  8
0
  6
CONTINUOUS
 62
     3
 10
134.222489357591
 20
-102.507133483887
 30
0.0
 11
134.222489357591
 21
-81.3821411132813
 31
0.0
  0
LINE
  5
   44B
  8
0
  6
CONTINUOUS
 62
     3
 10
134.222489357592
 20
-75.6321487426758
 30
0.0
 11
134.222489357592
 21
-74.2571105957031
 31
0.0
  0
LINE
  5
   44C
  8
0
  6
CONTINUOUS
 62
     3
 10
134.222489356995
 20
-25.257117470679
 30
0.0
 11
134.222489356995
 21
-17.5071411132813
 31
0.0
  0
LINE
  5
   44D
  8
0
  6
CONTINUOUS
 62
     3
 10
148.972489357591
 20
-53.5327072143555
 30
0.0
 11
148.972489357591
 21
-48.7573013305664
 31
0.0
  0
LINE
  5
   44E
  8
0
  6
CONTINUOUS
 62
     3
 10
148.972462293148
 20
-78.9819297031583
 30
0.0
 11
148.972485181331
 21
-82.2572893338113
 31
0.0
  0
LINE
  5
   44F
  8
0
  6
CONTINUOUS
 62
     3
 10
146.722489357591
 20
-29.6321411132813
 30
0.0
 11
146.722489357591
 21
-17.5071411132813
 31
0.0
  0
LINE
  5
   450
  8
0
  6
CONTINUOUS
 62
     3
 10
145.322487831712
 20
-25.6321334838867
 30
0.0
 11
146.722489357591
 21
-25.6321334838867
 31
0.0
  0
LINE
  5
   451
  8
0
  6
CONTINUOUS
 62
     3
 10
146.722489357591
 20
-102.507133483887
 30
0.0
 11
146.722489357591
 21
-90.1321325983321
 31
0.0
  0
LINE
  5
   452
  8
0
  6
CONTINUOUS
 62
     3
 10
145.322487831712
 20
-94.3821334838867
 30
0.0
 11
146.722489357591
 21
-94.3821334838867
 31
0.0
  0
LINE
  5
   453
  8
0
  6
CONTINUOUS
 62
     3
 10
145.322487831712
 20
-101.107131958008
 30
0.0
 11
145.322487831712
 21
-90.1321322168619
 31
0.0
  0
LINE
  5
   454
  8
0
  6
CONTINUOUS
 62
     3
 10
134.222487828184
 20
-75.6321411132813
 30
0.0
 11
145.322486302305
 21
-75.6321411132813
 31
0.0
  0
LINE
  5
   455
  8
0
  6
CONTINUOUS
 62
     3
 10
134.222488173389
 20
-81.3821411132813
 30
0.0
 11
145.32248664751
 21
-81.3821411132813
 31
0.0
  0
LINE
  5
   456
  8
0
  6
CONTINUOUS
 62
     1
 10
145.322487831712
 20
-29.6321411132813
 30
0.0
 11
147.972488880754
 21
-29.6321411132813
 31
0.0
  0
LINE
  5
   457
  8
0
  6
CONTINUOUS
 62
     1
 10
146.472489357591
 20
-90.1321330070496
 30
0.0
 11
146.722489357591
 21
-90.1321330070496
 31
0.0
  0
LINE
  5
   458
  8
0
  6
CONTINUOUS
 62
     1
 10
145.322487831712
 20
-90.1321322168619
 30
0.0
 11
147.972488880754
 21
-90.13213293893
 31
0.0
  0
LINE
  5
   459
  8
0
  6
CONTINUOUS
 62
     2
 10
153.473144517838
 20
-87.1321406364441
 30
0.0
 11
153.473144517838
 21
-86.1321420669556
 31
0.0
  0
LINE
  5
   45A
  8
0
  6
CONTINUOUS
 62
     2
 10
148.97314454764
 20
-87.3821411114538
 30
0.0
 11
148.97314454764
 21
-34.8821411114538
 31
0.0
  0
LINE
  5
   45B
  8
0
  6
CONTINUOUS
 62
     2
 10
147.972488880754
 20
-34.8821411132813
 30
0.0
 11
150.723073589278
 21
-34.8821411132813
 31
0.0
  0
LINE
  5
   45C
  8
0
  6
CONTINUOUS
 62
     2
 10
147.972488880754
 20
-87.3821411121012
 30
0.0
 11
150.723073589278
 21
-87.3821411121012
 31
0.0
  0
LINE
  5
   45D
  8
0
  6
CONTINUOUS
 62
     2
 10
153.473116079824
 20
-78.132149150066
 30
0.0
 11
153.473144213216
 21
-87.1321415206178
 31
0.0
  0
LINE
  5
   45E
  8
0
  6
CONTINUOUS
 62
     2
 10
153.473047183839
 20
-71.6321489210508
 30
0.0
 11
153.473114417878
 21
-77.6321489209574
 31
0.0
  0
LINE
  5
   45F
  8
0
  6
CONTINUOUS
 62
     2
 10
153.473143087327
 20
-71.1321413455866
 30
0.0
 11
153.473143087327
 21
-61.3821489749812
 31
0.0
  0
LINE
  5
   460
  8
0
  6
CONTINUOUS
 62
     2
 10
153.473043587286
 20
-71.1321541247155
 30
0.0
 11
153.473070290165
 21
-61.3821541240947
 31
0.0
  0
LINE
  5
   461
  8
0
  6
CONTINUOUS
 62
     2
 10
153.472965307728
 20
-54.8821503651555
 30
0.0
 11
153.47306925817
 21
-60.8821503650951
 31
0.0
  0
LINE
  5
   462
  8
0
  6
CONTINUOUS
 62
     7
 10
131.222469567074
 20
-53.0071541388248
 30
0.0
 11
132.472485542422
 21
-53.0071541388248
 31
0.0
  0
LINE
  5
   463
  8
0
  6
CONTINUOUS
 62
     7
 10
147.972488880754
 20
-34.8821411132813
 30
0.0
 11
147.972488880754
 21
-29.6321411132813
 31
0.0
  0
LINE
  5
   464
  8
0
  6
CONTINUOUS
 62
     7
 10
147.972488880754
 20
-90.13213293893
 30
0.0
 11
147.972488880754
 21
-87.3821411121012
 31
0.0
  0
LINE
  5
   465
  8
0
  6
CONTINUOUS
 62
     3
 10
145.322487831712
 20
-29.6321411132813
 30
0.0
 11
145.322487831712
 21
-18.9071350097656
 31
0.0
  0
LINE
  5
   466
  8
0
  6
CONTINUOUS
 62
     3
 10
145.322487831712
 20
-90.1321322168619
 30
0.0
 11
145.322487831712
 21
-29.6321411132813
 31
0.0
  0
ARC
  5
   467
  8
0
  6
CONTINUOUS
 62
     7
 10
163.810509261668
 20
-72.1540819385673
 30
0.0
 40
0.499999897877905
 50
348.623601768641
 51
436.688817106542
  0
ARC
  5
   468
  8
0
  6
CONTINUOUS
 62
     7
 10
163.21213853312
 20
-75.1279912186162
 30
0.0
 40
0.50000037262337
 50
260.594020595617
 51
348.623601768641
  0
LINE
  5
   469
  8
0
  6
DASHDOT
 62
     7
 10
146.152457369611
 20
-70.1665011450578
 30
0.0
 11
171.210803098601
 21
-75.2084089150981
 31
0.0
  0
LINE
  5
   46A
  8
0
  6
CONTINUOUS
 62
     7
 10
153.473048894115
 20
-69.1944759614662
 30
0.0
 11
163.925628993282
 21
-71.667515411912
 31
0.0
  0
LINE
  5
   46B
  8
0
  6
CONTINUOUS
 62
     7
 10
163.702315026797
 20
-75.2266180273805
 30
0.0
 11
164.300685591052
 21
-72.2527087142746
 31
0.0
  0
LINE
  5
   46C
  8
0
  6
CONTINUOUS
 62
     7
 10
153.473073957785
 20
-74.021469560267
 30
0.0
 11
163.130424038581
 21
-75.6212689819167
 31
0.0
  0
LINE
  5
   46D
  8
0
  6
DASHDOT
 62
     7
 10
95.7224893569946
 20
-107.921867429748
 30
0.0
 11
95.7224893569946
 21
-12.4929885408448
 31
0.0
  0
LINE
  5
   46E
  8
0
  6
CONTINUOUS
 62
     7
 10
109.222489356995
 20
-29.2571411132813
 30
0.0
 11
115.672135598194
 21
-29.2571411132813
 31
0.0
  0
LINE
  5
   46F
  8
0
  6
CONTINUOUS
 62
     7
 10
109.387553389998
 20
-30.5071411132813
 30
0.0
 11
115.96424558239
 21
-30.5071411132813
 31
0.0
  0
LINE
  5
   470
  8
0
  6
CONTINUOUS
 62
     7
 10
102.722489356995
 20
-32.5399184944849
 30
0.0
 11
102.722489356995
 21
-30.5071411132813
 31
0.0
  0
LINE
  5
   471
  8
0
  6
CONTINUOUS
 62
     7
 10
104.722489356995
 20
-32.5399184944849
 30
0.0
 11
104.722489356995
 21
-30.5071411132813
 31
0.0
  0
LINE
  5
   472
  8
0
  6
CONTINUOUS
 62
     7
 10
109.722489356995
 20
-30.5071411132813
 30
0.0
 11
109.722489356995
 21
-29.2571411132813
 31
0.0
  0
LINE
  5
   473
  8
0
  6
CONTINUOUS
 62
     7
 10
102.722489356995
 20
-30.5071411132813
 30
0.0
 11
105.946712773448
 21
-30.5071411132813
 31
0.0
  0
LINE
  5
   474
  8
0
  6
CONTINUOUS
 62
     3
 10
94.6080687940139
 20
-32.5399184944849
 30
0.0
 11
115.96424558239
 21
-32.5399184944849
 31
0.0
  0
LINE
  5
   475
  8
0
  6
CONTINUOUS
 62
     7
 10
107.222489356995
 20
-19.7571411132813
 30
0.0
 11
109.722489356995
 21
-19.7571411132813
 31
0.0
  0
LINE
  5
   476
  8
0
  6
CONTINUOUS
 62
     7
 10
106.933880696909
 20
-33.0399184944849
 30
0.0
 11
108.972124392903
 21
-31.042856790456
 31
0.0
  0
LINE
  5
   477
  8
0
  6
CONTINUOUS
 62
     7
 10
105.472853860487
 20
-30.9714259530247
 30
0.0
 11
107.222489277538
 21
-29.2571410108302
 31
0.0
  0
LINE
  5
   478
  8
0
  6
CONTINUOUS
 62
     7
 10
107.222489356995
 20
-29.2571411132813
 30
0.0
 11
107.222489356995
 21
-26.3571411132813
 31
0.0
  0
ARC
  5
   479
  8
0
  6
CONTINUOUS
 62
     7
 10
107.222488954761
 20
-32.7571403146455
 30
0.0
 40
2.49999952145068
 50
134.415297555408
 51
180.0
  0
ARC
  5
   47A
  8
0
  6
CONTINUOUS
 62
     7
 10
107.222489356995
 20
-29.2571420200844
 30
0.0
 40
2.5
 50
314.415292725986
 51
360.0
  0
LINE
  5
   47B
  8
0
  6
DASHDOT
 62
     7
 10
104.558975244011
 20
-24.2571411132813
 30
0.0
 11
112.888798808309
 21
-24.2571411132813
 31
0.0
  0
INSERT
  5
   47C
  8
0
  6
CONTINUOUS
 62
     7
  2
*HATCH67
 10
98.2224884033203
 20
-66.2571411132813
 30
0.0
 41
0.5
 42
0.5
 43
0.5
  0
LINE
  5
   47D
  8
0
  6
CONTINUOUS
 62
     7
 10
98.2224893569946
 20
-90.7571349042546
 30
0.0
 11
107.222489356995
 21
-90.7571349042546
 31
0.0
  0
LINE
  5
   47E
  8
0
  6
CONTINUOUS
 62
     7
 10
105.222489356995
 20
-90.7571349042546
 30
0.0
 11
105.222489356995
 21
-89.2655377235587
 31
0.0
  0
LINE
  5
   47F
  8
0
  6
CONTINUOUS
 62
     7
 10
107.222489356995
 20
-90.7571349042546
 30
0.0
 11
107.222489356995
 21
-89.2655377235587
 31
0.0
  0
LINE
  5
   480
  8
0
  6
CONTINUOUS
 62
     7
 10
110.222489356995
 20
-90.7571349042546
 30
0.0
 11
110.222489356995
 21
-89.2655377235587
 31
0.0
  0
LINE
  5
   481
  8
0
  6
CONTINUOUS
 62
     7
 10
110.222489356995
 20
-90.7571349042546
 30
0.0
 11
121.826524941145
 21
-90.7571349042546
 31
0.0
  0
LINE
  5
   482
  8
0
  6
CONTINUOUS
 62
     3
 10
97.5285781009104
 20
-89.2655377235587
 30
0.0
 11
121.646089798318
 21
-89.2655377235587
 31
0.0
  0
LINE
  5
   483
  8
0
  6
CONTINUOUS
 62
     7
 10
107.222489356995
 20
-100.257134904255
 30
0.0
 11
108.722488880157
 21
-100.257134904255
 31
0.0
  0
LINE
  5
   484
  8
0
  6
CONTINUOUS
 62
     7
 10
108.722488880157
 20
-100.257134904255
 30
0.0
 11
108.722488880157
 21
-97.7571411132813
 31
0.0
  0
LINE
  5
   485
  8
0
  6
CONTINUOUS
 62
     7
 10
107.222489356992
 20
-100.257134904255
 30
0.0
 11
107.222489356992
 21
-89.2655377235587
 31
0.0
  0
LINE
  5
   486
  8
0
  6
CONTINUOUS
 62
     7
 10
108.722488880157
 20
-100.257134904255
 30
0.0
 11
109.722488880157
 21
-100.257134904255
 31
0.0
  0
LINE
  5
   487
  8
0
  6
CONTINUOUS
 62
     7
 10
108.722488880157
 20
-89.7571349042547
 30
0.0
 11
109.722488880157
 21
-89.7571349042547
 31
0.0
  0
LINE
  5
   488
  8
0
  6
DASHDOT
 62
     7
 10
104.558975244011
 20
-95.7571411132813
 30
0.0
 11
115.268561430827
 21
-95.7571411132813
 31
0.0
  0
INSERT
  5
   489
  8
0
  6
CONTINUOUS
 62
     7
  2
*HATCH68
 10
98.2224884033203
 20
-66.2571411132813
 30
0.0
 41
0.5
 42
0.5
 43
0.5
  0
LINE
  5
   48A
  8
0
  6
CONTINUOUS
 62
     7
 10
107.222489356992
 20
-93.7071411132812
 30
0.0
 11
109.722488880157
 21
-93.7071411132812
 31
0.0
  0
LINE
  5
   48B
  8
0
  6
CONTINUOUS
 62
     7
 10
107.222489356992
 20
-97.8071411132813
 30
0.0
 11
109.722488880157
 21
-97.8071411132813
 31
0.0
  0
INSERT
  5
   48C
  8
0
  6
CONTINUOUS
 62
     7
  2
*HATCH69
 10
98.2224884033203
 20
-66.2571411132813
 30
0.0
 41
0.5
 42
0.5
 43
0.5
  0
INSERT
  5
   48D
  8
0
  6
CONTINUOUS
 62
     7
  2
*HATCH70
 10
98.2224884033203
 20
-66.2571411132813
 30
0.0
 41
0.5
 42
0.5
 43
0.5
  0
INSERT
  5
   48E
  8
0
  6
CONTINUOUS
 62
     7
  2
*HATCH71
 10
98.2224884033203
 20
-66.2571411132813
 30
0.0
 41
0.5
 42
0.5
 43
0.5
  0
ARC
  5
   48F
  8
0
  6
DASHDOT
 62
     7
 10
126.722888301042
 20
-66.2571411132813
 30
0.0
 40
38.0221347997541
 50
337.492314756863
 51
360.0
  0
LINE
  5
   490
  8
0
  6
DASHDOT
 62
     7
 10
164.745023100796
 20
-66.2571411132813
 30
0.0
 11
164.745023100796
 21
-63.3820412959126
 31
0.0
  0
LINE
  5
   491
  8
0
  6
CONTINUOUS
 62
     7
 10
107.222489356995
 20
-22.1571411132813
 30
0.0
 11
109.222489356995
 21
-22.1571411132813
 31
0.0
  0
LINE
  5
   492
  8
0
  6
CONTINUOUS
 62
     7
 10
107.222489356995
 20
-26.3571411132813
 30
0.0
 11
109.222489356995
 21
-26.3571411132813
 31
0.0
  0
INSERT
  5
   493
  8
0
  6
CONTINUOUS
 62
     7
  2
*HATCH72
 10
98.2224884033203
 20
-66.2571411132813
 30
0.0
 41
0.5
 42
0.5
 43
0.5
  0
LINE
  5
   494
  8
0
  6
CONTINUOUS
 62
     7
 10
98.2224893569946
 20
-17.5071487538955
 30
0.0
 11
98.9724893569946
 21
-17.5071487538955
 31
0.0
  0
LINE
  5
   495
  8
0
  6
CONTINUOUS
 62
     1
 10
150.723073589278
 20
-88.6321411132812
 30
0.0
 11
150.723073589278
 21
-87.6321411132813
 31
0.0
  0
LINE
  5
   496
  8
0
  6
CONTINUOUS
 62
     1
 10
150.723073589278
 20
-88.6321411132812
 30
0.0
 11
151.723073589278
 21
-88.6321411132812
 31
0.0
  0
LINE
  5
   497
  8
0
  6
CONTINUOUS
 62
     1
 10
150.723073589278
 20
-34.6321430206299
 30
0.0
 11
150.723073589278
 21
-33.6321430206299
 31
0.0
  0
LINE
  5
   498
  8
0
  6
CONTINUOUS
 62
     1
 10
150.723073589278
 20
-33.6321430206299
 30
0.0
 11
151.723073589278
 21
-33.6321430206299
 31
0.0
  0
LINE
  5
   499
  8
0
  6
CONTINUOUS
 62
     1
 10
150.723073589278
 20
-87.6321411132813
 30
0.0
 11
150.723073589278
 21
-34.6321411132813
 31
0.0
  0
LINE
  5
   49A
  8
0
  6
CONTINUOUS
 62
     1
 10
148.473073678685
 20
-26.843469619751
 30
0.0
 11
148.473073678685
 21
-24.4208164215088
 31
0.0
  0
LINE
  5
   49B
  8
0
  6
CONTINUOUS
 62
     1
 10
148.473073678685
 20
-97.8434658050537
 30
0.0
 11
148.473073678685
 21
-95.4208164215088
 31
0.0
  0
LINE
  5
   49C
  8
0
  6
CONTINUOUS
 62
     1
 10
151.723073589278
 20
-101.88214302063
 30
0.0
 11
151.723073589278
 21
-20.3821430206299
 31
0.0
  0
LINE
  5
   49D
  8
0
  6
CONTINUOUS
 62
     1
 10
151.723073589278
 20
-101.882141113281
 30
0.0
 11
153.473073589278
 21
-101.882141113281
 31
0.0
  0
LINE
  5
   49E
  8
0
  6
CONTINUOUS
 62
     1
 10
153.473073589278
 20
-101.882141113281
 30
0.0
 11
153.473073589278
 21
-20.3821411132812
 31
0.0
  0
LINE
  5
   49F
  8
0
  6
CONTINUOUS
 62
     1
 10
151.723073589278
 20
-20.3821430206299
 30
0.0
 11
152.473073589278
 21
-20.3821430206299
 31
0.0
  0
LINE
  5
   4A0
  8
0
  6
CONTINUOUS
 62
     1
 10
152.973073589278
 20
-20.3821430206299
 30
0.0
 11
153.473073589278
 21
-20.3821430206299
 31
0.0
  0
LINE
  5
   4A1
  8
0
  6
CONTINUOUS
 62
     1
 10
148.97307363813
 20
-27.1321430206299
 30
0.0
 11
151.723073589278
 21
-27.1321430206299
 31
0.0
  0
LINE
  5
   4A2
  8
0
  6
CONTINUOUS
 62
     1
 10
148.973073696289
 20
-24.1321430206299
 30
0.0
 11
151.723073589278
 21
-24.1321430206299
 31
0.0
  0
LINE
  5
   4A3
  8
0
  6
CONTINUOUS
 62
     1
 10
148.473074059233
 20
-26.8434707646624
 30
0.0
 11
148.973074075696
 21
-27.1321441691607
 31
0.0
  0
LINE
  5
   4A4
  8
0
  6
CONTINUOUS
 62
     1
 10
148.973073543155
 20
-27.1321430206298
 30
0.0
 11
148.973073543155
 21
-27.0179615020752
 31
0.0
  0
LINE
  5
   4A5
  8
0
  6
CONTINUOUS
 62
     1
 10
148.97307363813
 20
-27.1321430206299
 30
0.0
 11
148.97307363813
 21
-26.6928043365478
 31
0.0
  0
LINE
  5
   4A6
  8
0
  6
CONTINUOUS
 62
     1
 10
148.973073660436
 20
-26.6928043365479
 30
0.0
 11
148.973073660436
 21
-26.2061634063721
 31
0.0
  0
LINE
  5
   4A7
  8
0
  6
CONTINUOUS
 62
     1
 10
148.973073672835
 20
-26.2061634063721
 30
0.0
 11
148.973073672835
 21
-25.6321430206299
 31
0.0
  0
LINE
  5
   4A8
  8
0
  6
CONTINUOUS
 62
     1
 10
148.973073683732
 20
-25.6321430206299
 30
0.0
 11
148.973073683732
 21
-25.0581150054932
 31
0.0
  0
LINE
  5
   4A9
  8
0
  6
CONTINUOUS
 62
     1
 10
148.973073696289
 20
-25.0581150054932
 30
0.0
 11
148.973073696289
 21
-24.1321430206299
 31
0.0
  0
LINE
  5
   4AA
  8
0
  6
CONTINUOUS
 62
     1
 10
148.973073719125
 20
-24.5714817047119
 30
0.0
 11
148.973073719125
 21
-24.2463245391846
 31
0.0
  0
LINE
  5
   4AB
  8
0
  6
CONTINUOUS
 62
     1
 10
148.473073250095
 20
-24.4208176123778
 30
0.0
 11
148.973073266559
 21
-24.1321442078796
 31
0.0
  0
LINE
  5
   4AC
  8
0
  6
CONTINUOUS
 62
     1
 10
148.973073817054
 20
-24.2463245391846
 30
0.0
 11
148.973073817054
 21
-24.1321430206299
 31
0.0
  0
LINE
  5
   4AD
  8
0
  6
CONTINUOUS
 62
     1
 10
148.973074680388
 20
-95.1321411132813
 30
0.0
 11
151.723073589278
 21
-95.1321411132813
 31
0.0
  0
LINE
  5
   4AE
  8
0
  6
CONTINUOUS
 62
     1
 10
148.97307283861
 20
-98.1321411132813
 30
0.0
 11
151.723073589278
 21
-98.1321411132813
 31
0.0
  0
LINE
  5
   4AF
  8
0
  6
CONTINUOUS
 62
     1
 10
148.973073726257
 20
-95.246322631836
 30
0.0
 11
148.973073726257
 21
-95.1321411132813
 31
0.0
  0
LINE
  5
   4B0
  8
0
  6
CONTINUOUS
 62
     1
 10
148.473073423608
 20
-95.4208171216347
 30
0.0
 11
148.973073440072
 21
-95.1321418293781
 31
0.0
  0
LINE
  5
   4B1
  8
0
  6
CONTINUOUS
 62
     1
 10
148.973073703993
 20
-95.5714817047119
 30
0.0
 11
148.973073703993
 21
-95.246322631836
 31
0.0
  0
LINE
  5
   4B2
  8
0
  6
CONTINUOUS
 62
     1
 10
148.973073698958
 20
-96.0581150054932
 30
0.0
 11
148.973073698958
 21
-95.5714817047119
 31
0.0
  0
LINE
  5
   4B3
  8
0
  6
CONTINUOUS
 62
     1
 10
148.973073696145
 20
-96.6321411132813
 30
0.0
 11
148.973073696145
 21
-96.0581150054932
 31
0.0
  0
LINE
  5
   4B4
  8
0
  6
CONTINUOUS
 62
     1
 10
148.973073693737
 20
-97.2061653137207
 30
0.0
 11
148.973073693737
 21
-96.6321411132813
 31
0.0
  0
LINE
  5
   4B5
  8
0
  6
CONTINUOUS
 62
     1
 10
148.973073691161
 20
-97.6928005218506
 30
0.0
 11
148.973073691161
 21
-97.2061653137207
 31
0.0
  0
LINE
  5
   4B6
  8
0
  6
CONTINUOUS
 62
     1
 10
148.973073686551
 20
-98.0179595947266
 30
0.0
 11
148.973073686551
 21
-97.6928005218506
 31
0.0
  0
LINE
  5
   4B7
  8
0
  6
CONTINUOUS
 62
     1
 10
148.973073667265
 20
-98.1321411132812
 30
0.0
 11
148.973073667265
 21
-98.0179595947265
 31
0.0
  0
LINE
  5
   4B8
  8
0
  6
CONTINUOUS
 62
     1
 10
148.47307388519
 20
-97.8434664347742
 30
0.0
 11
148.973073901654
 21
-98.1321417270308
 31
0.0
  0
LINE
  5
   4B9
  8
0
  6
CONTINUOUS
 62
     1
 10
152.473073589278
 20
-20.3821430206299
 30
0.0
 11
152.973073589278
 21
-20.3821430206299
 31
0.0
  0
LINE
  5
   4BA
  8
0
  6
CONTINUOUS
 62
     7
 10
151.723073589278
 20
-20.3821430206299
 30
0.0
 11
151.723073589278
 21
15.0221525965941
 31
0.0
  0
LINE
  5
   4BB
  8
0
  6
CONTINUOUS
 62
     7
 10
150.723073589278
 20
-34.6321411132813
 30
0.0
 11
150.723073589278
 21
-27.1321430206299
 31
0.0
  0
LINE
  5
   4BC
  8
0
  6
CONTINUOUS
 62
     7
 10
151.723073589278
 20
-124.368576729753
 30
0.0
 11
151.723073589278
 21
-101.882141113281
 31
0.0
  0
LINE
  5
   4BD
  8
0
  6
CONTINUOUS
 62
     7
 10
150.723073589278
 20
-125.088202897978
 30
0.0
 11
150.723073589278
 21
-98.1321411132813
 31
0.0
  0
LINE
  5
   4BE
  8
0
  6
CONTINUOUS
 62
     3
 10
148.837992636482
 20
-126.444756480831
 30
0.0
 11
153.699952904249
 21
-122.945962643279
 31
0.0
  0
LINE
  5
   4BF
  8
0
  6
CONTINUOUS
 62
     3
 10
148.338164945403
 20
16.6422798107567
 30
0.0
 11
153.654514023242
 21
14.097702474355
 31
0.0
  0
LINE
  5
   4C0
  8
0
  6
CONTINUOUS
 62
     7
 10
150.723073589278
 20
-23.8821430206299
 30
0.0
 11
151.723073589278
 21
-23.8821430206299
 31
0.0
  0
LINE
  5
   4C1
  8
0
  6
CONTINUOUS
 62
     7
 10
150.723073589278
 20
-27.3821430206299
 30
0.0
 11
151.723073589278
 21
-27.3821430206299
 31
0.0
  0
LINE
  5
   4C2
  8
0
  6
CONTINUOUS
 62
     7
 10
150.723073589278
 20
-33.1321430206299
 30
0.0
 11
151.723073589278
 21
-33.1321430206299
 31
0.0
  0
LINE
  5
   4C3
  8
0
  6
CONTINUOUS
 62
     7
 10
150.723073589278
 20
-89.1321411132813
 30
0.0
 11
151.723073589278
 21
-89.1321411132813
 31
0.0
  0
LINE
  5
   4C4
  8
0
  6
CONTINUOUS
 62
     7
 10
150.723073589278
 20
-94.8821411132812
 30
0.0
 11
151.723073589278
 21
-94.8821411132812
 31
0.0
  0
LINE
  5
   4C5
  8
0
  6
CONTINUOUS
 62
     7
 10
150.723073589278
 20
-98.3821411132813
 30
0.0
 11
151.723073589278
 21
-98.3821411132813
 31
0.0
  0
LINE
  5
   4C6
  8
0
  6
CONTINUOUS
 62
     7
 10
150.723073589278
 20
-95.1321411132813
 30
0.0
 11
150.723073589278
 21
-88.6321411132812
 31
0.0
  0
LINE
  5
   4C7
  8
0
  6
CONTINUOUS
 62
     7
 10
150.723073589278
 20
-24.1321430206299
 30
0.0
 11
150.723073589278
 21
15.5007850752266
 31
0.0
  0
INSERT
  5
   4C8
  8
0
  6
CONTINUOUS
 62
     7
  2
*HATCH73
 10
98.2224884033203
 20
-66.2571411132813
 30
0.0
 41
0.5
 42
0.5
 43
0.5
  0
INSERT
  5
   4C9
  8
0
  6
CONTINUOUS
 62
     7
  2
*HATCH74
 10
98.2224884033203
 20
-66.2571411132813
 30
0.0
 41
0.5
 42
0.5
 43
0.5
  0
INSERT
  5
   4CA
  8
0
  6
CONTINUOUS
 62
     7
  2
*HATCH75
 10
98.2224884033203
 20
-66.2571411132813
 30
0.0
 41
0.5
 42
0.5
 43
0.5
  0
INSERT
  5
   4CB
  8
0
  6
CONTINUOUS
 62
     7
  2
*HATCH76
 10
98.2224884033203
 20
-66.2571411132813
 30
0.0
 41
0.5
 42
0.5
 43
0.5
  0
LINE
  5
   4CC
  8
0
  6
DASHDOT
 62
     7
 10
86.8831394306545
 20
-61.1321411132813
 30
0.0
 11
167.825813562634
 21
-61.1321411132813
 31
0.0
  0
LINE
  5
   4CD
  8
0
  6
DASHDOT
 62
     7
 10
37.9975251746904
 20
-61.1321411132813
 30
0.0
 11
44.8795732285097
 21
-61.1321411132813
 31
0.0
  0
LINE
  5
   4CE
  8
0
  6
CONTINUOUS
 62
     3
 10
121.646089798318
 20
-89.2655377235587
 30
0.0
 11
123.424877922574
 21
-103.970186217404
 31
0.0
  0
INSERT
  5
   4CF
  8
0
  6
CONTINUOUS
 62
     7
  2
*HATCH77
 10
98.2224884033203
 20
-66.2571411132813
 30
0.0
 41
0.5
 42
0.5
 43
0.5
  0
LINE
  5
   4D0
  8
0
  6
CONTINUOUS
 62
     7
 10
98.2224893569946
 20
-102.507134904255
 30
0.0
 11
98.9724893569921
 21
-102.507134904255
 31
0.0
  0
LINE
  5
   4D1
  8
0
  6
CONTINUOUS
 62
     3
 10
130.303225089943
 20
-29.6279404931664
 30
0.0
 11
131.040023856821
 21
-15.9811459414304
 31
0.0
  0
LINE
  5
   4D2
  8
0
  6
CONTINUOUS
 62
     3
 10
115.96424558239
 20
-29.6279404931664
 30
0.0
 11
130.303225089943
 21
-29.6279404931664
 31
0.0
  0
LINE
  5
   4D3
  8
0
  6
CONTINUOUS
 62
     3
 10
115.96424558239
 20
-32.5399184944849
 30
0.0
 11
115.96424558239
 21
-29.6279404931664
 31
0.0
  0
LINE
  5
   4D4
  8
0
  6
CONTINUOUS
 62
     7
 10
109.722488880157
 20
-100.257134904255
 30
0.0
 11
109.722488880157
 21
-97.7571411132813
 31
0.0
  0
LINE
  5
   4D5
  8
0
  6
CONTINUOUS
 62
     2
 10
109.722489356995
 20
-29.2571420200844
 30
0.0
 11
109.722489356995
 21
-26.2571411132813
 31
0.0
  0
LINE
  5
   4D6
  8
0
  6
CONTINUOUS
 62
     2
 10
109.222489356995
 20
-22.1321411132813
 30
0.0
 11
112.722489356995
 21
-22.1321411132813
 31
0.0
  0
LINE
  5
   4D7
  8
0
  6
CONTINUOUS
 62
     2
 10
109.722489356995
 20
-26.3821411132813
 30
0.0
 11
112.722489356995
 21
-26.3821411132813
 31
0.0
  0
LINE
  5
   4D8
  8
0
  6
CONTINUOUS
 62
     7
 10
107.222489356995
 20
-21.0071413516998
 30
0.0
 11
107.222489356995
 21
-19.7571411132813
 31
0.0
  0
LINE
  5
   4D9
  8
0
  6
CONTINUOUS
 62
     2
 10
108.222489356995
 20
-17.5071417903961
 30
0.0
 11
108.222489356995
 21
-16.7571417903961
 31
0.0
  0
LINE
  5
   4DA
  8
0
  6
CONTINUOUS
 62
     2
 10
106.722489356995
 20
-17.5071417904439
 30
0.0
 11
108.222489356995
 21
-17.5071417904439
 31
0.0
  0
LINE
  5
   4DB
  8
0
  6
CONTINUOUS
 62
     2
 10
106.722489356995
 20
-16.257141828537
 30
0.0
 11
107.722489356995
 21
-16.257141828537
 31
0.0
  0
LINE
  5
   4DC
  8
0
  6
CONTINUOUS
 62
     2
 10
98.9724893569946
 20
-29.2571420669556
 30
0.0
 11
99.7224893569946
 21
-29.2571420669556
 31
0.0
  0
LINE
  5
   4DD
  8
0
  6
CONTINUOUS
 62
     2
 10
98.9724893569946
 20
-16.257141828537
 30
0.0
 11
106.722489356995
 21
-16.257141828537
 31
0.0
  0
LINE
  5
   4DE
  8
0
  6
CONTINUOUS
 62
     2
 10
98.9724893569946
 20
-29.257141828537
 30
0.0
 11
98.9724893569946
 21
-16.257141828537
 31
0.0
  0
LINE
  5
   4DF
  8
0
  6
CONTINUOUS
 62
     2
 10
106.722489356995
 20
-17.5071417904126
 30
0.0
 11
106.722489356995
 21
-16.2571417904126
 31
0.0
  0
LINE
  5
   4E0
  8
0
  6
CONTINUOUS
 62
     2
 10
106.429595947266
 20
-19.1071417331696
 30
0.0
 11
106.722489356995
 21
-19.1071417331696
 31
0.0
  0
LINE
  5
   4E1
  8
0
  6
CONTINUOUS
 62
     2
 10
106.722489356995
 20
-20.0071413516998
 30
0.0
 11
106.722489356995
 21
-17.507141828537
 31
0.0
  0
LINE
  5
   4E2
  8
0
  6
CONTINUOUS
 62
     2
 10
105.888446807861
 20
-18.9071418046951
 30
0.0
 11
106.229596138
 21
-18.9071418046951
 31
0.0
  0
LINE
  5
   4E3
  8
0
  6
CONTINUOUS
 62
     2
 10
106.229596486526
 20
-18.9071419765095
 30
0.0
 11
106.429596294234
 21
-19.1071419022287
 31
0.0
  0
LINE
  5
   4E4
  8
0
  6
CONTINUOUS
 62
     2
 10
99.722489377521
 20
-29.2571419151515
 30
0.0
 11
106.722489315076
 21
-17.5071421946599
 31
0.0
  0
LINE
  5
   4E5
  8
0
  6
CONTINUOUS
 62
     2
 10
106.972489356995
 20
-28.5071411132813
 30
0.0
 11
106.972489356995
 21
-20.0071411132813
 31
0.0
  0
LINE
  5
   4E6
  8
0
  6
CONTINUOUS
 62
     2
 10
107.722489716838
 20
-16.2571419067638
 30
0.0
 11
108.222489699724
 21
-16.7571418475027
 31
0.0
  0
LINE
  5
   4E7
  8
0
  6
CONTINUOUS
 62
   210
 10
107.222489356995
 20
-27.5071411132813
 30
0.0
 11
107.222489356995
 21
-21.0071411132813
 31
0.0
  0
LINE
  5
   4E8
  8
0
  6
CONTINUOUS
 62
     1
 10
147.972489818931
 20
-15.7571415901184
 30
0.0
 11
147.972489818931
 21
-14.7571415901184
 31
0.0
  0
LINE
  5
   4E9
  8
0
  6
CONTINUOUS
 62
     1
 10
97.4724898189306
 20
-14.7571415901184
 30
0.0
 11
109.722489356995
 21
-14.7571415901184
 31
0.0
  0
LINE
  5
   4EA
  8
0
  6
CONTINUOUS
 62
     1
 10
97.4724898189306
 20
-15.7571415901184
 30
0.0
 11
97.4724898189306
 21
-14.7571415901184
 31
0.0
  0
LINE
  5
   4EB
  8
0
  6
CONTINUOUS
 62
     1
 10
97.9724898338318
 20
-16.2571415901184
 30
0.0
 11
98.9724893569946
 21
-16.2571415901184
 31
0.0
  0
LINE
  5
   4EC
  8
0
  6
CONTINUOUS
 62
     1
 10
107.722489356995
 20
-16.2571415901184
 30
0.0
 11
109.722489356995
 21
-16.2571415901184
 31
0.0
  0
LINE
  5
   4ED
  8
0
  6
CONTINUOUS
 62
     1
 10
107.597489356995
 20
-18.9071418046951
 30
0.0
 11
109.722489356995
 21
-18.9071418046951
 31
0.0
  0
LINE
  5
   4EE
  8
0
  6
CONTINUOUS
 62
     1
 10
107.097489356995
 20
-20.507141828537
 30
0.0
 11
107.222489356995
 21
-20.507141828537
 31
0.0
  0
LINE
  5
   4EF
  8
0
  6
CONTINUOUS
 62
     1
 10
112.847489356995
 20
-20.507141828537
 30
0.0
 11
112.847489356995
 21
-16.257141828537
 31
0.0
  0
LINE
  5
   4F0
  8
0
  6
CONTINUOUS
 62
     1
 10
107.097489356995
 20
-20.5071417540312
 30
0.0
 11
107.097489356995
 21
-17.5071417540312
 31
0.0
  0
LINE
  5
   4F1
  8
0
  6
CONTINUOUS
 62
     1
 10
97.4724898189306
 20
-14.7571415901184
 30
0.0
 11
97.4724898189306
 21
61.2428674985296
 31
0.0
  0
LINE
  5
   4F2
  8
0
  6
CONTINUOUS
 62
     1
 10
147.972489818931
 20
-14.7571415901184
 30
0.0
 11
147.972489818931
 21
61.2428674985296
 31
0.0
  0
LINE
  5
   4F3
  8
0
  6
CONTINUOUS
 62
     1
 10
112.347489130658
 20
-18.9071418046951
 30
0.0
 11
112.847488952456
 21
-19.4071416264928
 31
0.0
  0
LINE
  5
   4F4
  8
0
  6
CONTINUOUS
 62
     1
 10
107.097489132584
 20
-19.4071418361426
 30
0.0
 11
107.59748911547
 21
-18.9071418532569
 31
0.0
  0
LINE
  5
   4F5
  8
0
  6
CONTINUOUS
 62
     1
 10
147.472489185703
 20
-16.2571418297182
 30
0.0
 11
147.972489168588
 21
-15.7571418468325
 31
0.0
  0
LINE
  5
   4F6
  8
0
  6
CONTINUOUS
 62
     1
 10
97.4724898403235
 20
-15.7571416371826
 30
0.0
 11
97.9724898232092
 21
-16.2571416200684
 31
0.0
  0
LINE
  5
   4F7
  8
0
  6
CONTINUOUS
 62
     2
 10
98.9724893569946
 20
-16.7571417689324
 30
0.0
 11
106.722489356995
 21
-16.7571417689324
 31
0.0
  0
LINE
  5
   4F8
  8
0
  6
CONTINUOUS
 62
     2
 10
98.9724893569946
 20
-28.7571420669556
 30
0.0
 11
100.020361661911
 21
-28.7571420669556
 31
0.0
  0
LINE
  5
   4F9
  8
0
  6
CONTINUOUS
 62
     2
 10
100.169298410416
 20
-28.5071411132813
 30
0.0
 11
106.972489595413
 21
-28.5071411132813
 31
0.0
  0
LINE
  5
   4FA
  8
0
  6
CONTINUOUS
 62
     2
 10
105.233127593994
 20
-20.0071413516998
 30
0.0
 11
106.972489356995
 21
-20.0071413516998
 31
0.0
  0
LINE
  5
   4FB
  8
0
  6
CONTINUOUS
 62
   210
 10
106.972489356995
 20
-21.0071413516998
 30
0.0
 11
107.222489356995
 21
-21.0071413516998
 31
0.0
  0
LINE
  5
   4FC
  8
0
  6
CONTINUOUS
 62
   210
 10
106.972489356995
 20
-27.5071411132813
 30
0.0
 11
107.222489356995
 21
-27.5071411132813
 31
0.0
  0
LINE
  5
   4FD
  8
0
  6
CONTINUOUS
 62
     1
 10
112.722489356995
 20
-20.507141828537
 30
0.0
 11
112.847489356995
 21
-20.507141828537
 31
0.0
  0
INSERT
  5
   4FE
  8
0
  6
CONTINUOUS
 62
     2
  2
*HATCH78
 10
98.2224884033203
 20
-66.2571411132813
 30
0.0
 41
0.5
 42
0.5
 43
0.5
  0
INSERT
  5
   4FF
  8
0
  6
CONTINUOUS
 62
     2
  2
*HATCH79
 10
98.2224884033203
 20
-66.2571411132813
 30
0.0
 41
0.5
 42
0.5
 43
0.5
  0
LINE
  5
   500
  8
0
  6
CONTINUOUS
 62
     1
 10
112.222489356995
 20
-14.7571415901184
 30
0.0
 11
147.972489818931
 21
-14.7571415901184
 31
0.0
  0
LINE
  5
   501
  8
0
  6
CONTINUOUS
 62
     1
 10
112.222489356995
 20
-16.2571415901184
 30
0.0
 11
147.472489425302
 21
-16.2571415901184
 31
0.0
  0
LINE
  5
   502
  8
0
  6
CONTINUOUS
 62
     2
 10
147.972489357591
 20
-29.1321411132813
 30
0.0
 11
147.972489357591
 21
-16.8821411132813
 31
0.0
  0
ARC
  5
   503
  8
0
  6
CONTINUOUS
 62
     2
 10
147.347489357591
 20
-16.8821411132813
 30
0.0
 40
0.625
 50
0.0
 51
90.0
  0
LINE
  5
   504
  8
0
  6
CONTINUOUS
 62
     2
 10
147.472489357591
 20
-29.1321411132813
 30
0.0
 11
147.972489357591
 21
-29.1321411132813
 31
0.0
  0
LINE
  5
   505
  8
0
  6
CONTINUOUS
 62
     2
 10
147.472489357591
 20
-29.6321411132813
 30
0.0
 11
147.472489357591
 21
-29.1321411132813
 31
0.0
  0
LINE
  5
   506
  8
0
  6
CONTINUOUS
 62
     7
 10
112.722489356995
 20
-28.7571411132813
 30
0.0
 11
112.722489356995
 21
-19.7571411132813
 31
0.0
  0
LINE
  5
   507
  8
0
  6
CONTINUOUS
 62
     7
 10
112.222489356995
 20
-19.7571411132813
 30
0.0
 11
112.722489356995
 21
-19.7571411132813
 31
0.0
  0
LINE
  5
   508
  8
0
  6
CONTINUOUS
 62
     7
 10
112.222489356995
 20
-28.7571411132813
 30
0.0
 11
112.722489356995
 21
-28.7571411132813
 31
0.0
  0
LINE
  5
   509
  8
0
  6
CONTINUOUS
 62
     2
 10
108.222489356992
 20
-103.257140436166
 30
0.0
 11
108.222489356992
 21
-102.507140436166
 31
0.0
  0
LINE
  5
   50A
  8
0
  6
CONTINUOUS
 62
     2
 10
106.722489356992
 20
-102.507140436119
 30
0.0
 11
108.222489356992
 21
-102.507140436119
 31
0.0
  0
LINE
  5
   50B
  8
0
  6
CONTINUOUS
 62
     2
 10
106.722489356992
 20
-103.757140398026
 30
0.0
 11
107.722489356992
 21
-103.757140398026
 31
0.0
  0
LINE
  5
   50C
  8
0
  6
CONTINUOUS
 62
     2
 10
98.9724893569921
 20
-90.7571401596069
 30
0.0
 11
99.7224893569921
 21
-90.7571401596069
 31
0.0
  0
LINE
  5
   50D
  8
0
  6
CONTINUOUS
 62
     2
 10
98.9724893569921
 20
-103.757140398026
 30
0.0
 11
106.722489356992
 21
-103.757140398026
 31
0.0
  0
LINE
  5
   50E
  8
0
  6
CONTINUOUS
 62
     2
 10
98.9724893569921
 20
-103.757140398026
 30
0.0
 11
98.9724893569921
 21
-90.7571403980255
 31
0.0
  0
LINE
  5
   50F
  8
0
  6
CONTINUOUS
 62
     2
 10
106.722489356992
 20
-103.75714043615
 30
0.0
 11
106.722489356992
 21
-102.50714043615
 31
0.0
  0
LINE
  5
   510
  8
0
  6
CONTINUOUS
 62
     2
 10
106.429595947263
 20
-100.907140493393
 30
0.0
 11
106.722489356992
 21
-100.907140493393
 31
0.0
  0
LINE
  5
   511
  8
0
  6
CONTINUOUS
 62
     2
 10
106.722489356992
 20
-102.507140398026
 30
0.0
 11
106.722489356992
 21
-100.007140874863
 31
0.0
  0
LINE
  5
   512
  8
0
  6
CONTINUOUS
 62
     2
 10
105.888446807859
 20
-101.107140421867
 30
0.0
 11
106.229596137998
 21
-101.107140421867
 31
0.0
  0
LINE
  5
   513
  8
0
  6
CONTINUOUS
 62
     2
 10
106.229596486524
 20
-101.107140250053
 30
0.0
 11
106.429596294232
 21
-100.907140324334
 31
0.0
  0
LINE
  5
   514
  8
0
  6
CONTINUOUS
 62
     2
 10
99.7224893775185
 20
-90.757140311411
 30
0.0
 11
106.722489315073
 21
-102.507140031903
 31
0.0
  0
LINE
  5
   515
  8
0
  6
CONTINUOUS
 62
     2
 10
106.972489356992
 20
-100.007141113281
 30
0.0
 11
106.972489356992
 21
-91.5071411132813
 31
0.0
  0
LINE
  5
   516
  8
0
  6
CONTINUOUS
 62
     2
 10
107.722489716835
 20
-103.757140319799
 30
0.0
 11
108.222489699721
 21
-103.25714037906
 31
0.0
  0
LINE
  5
   517
  8
0
  6
CONTINUOUS
 62
   210
 10
107.222489356992
 20
-99.0071411132813
 30
0.0
 11
107.222489356992
 21
-92.5071411132813
 31
0.0
  0
LINE
  5
   518
  8
0
  6
CONTINUOUS
 62
     2
 10
98.9724893569921
 20
-103.25714045763
 30
0.0
 11
106.722489356992
 21
-103.25714045763
 31
0.0
  0
LINE
  5
   519
  8
0
  6
CONTINUOUS
 62
     2
 10
98.9724893569921
 20
-91.2571401596069
 30
0.0
 11
100.020361661909
 21
-91.2571401596069
 31
0.0
  0
LINE
  5
   51A
  8
0
  6
CONTINUOUS
 62
     2
 10
100.169298410413
 20
-91.5071411132813
 30
0.0
 11
106.972489595411
 21
-91.5071411132813
 31
0.0
  0
LINE
  5
   51B
  8
0
  6
CONTINUOUS
 62
     2
 10
105.233127593992
 20
-100.007140874863
 30
0.0
 11
106.972489356992
 21
-100.007140874863
 31
0.0
  0
LINE
  5
   51C
  8
0
  6
CONTINUOUS
 62
   210
 10
106.972489356992
 20
-99.0071408748627
 30
0.0
 11
107.222489356992
 21
-99.0071408748627
 31
0.0
  0
LINE
  5
   51D
  8
0
  6
CONTINUOUS
 62
   210
 10
106.972489356992
 20
-92.5071411132813
 30
0.0
 11
107.222489356992
 21
-92.5071411132813
 31
0.0
  0
LINE
  5
   51E
  8
0
  6
CONTINUOUS
 62
     7
 10
106.722489356992
 20
-102.507134904255
 30
0.0
 11
134.222489356995
 21
-102.507134904255
 31
0.0
  0
LINE
  5
   51F
  8
0
  6
CONTINUOUS
 62
     7
 10
112.222489356995
 20
-100.257141113281
 30
0.0
 11
112.722489356995
 21
-100.257141113281
 31
0.0
  0
LINE
  5
   520
  8
0
  6
CONTINUOUS
 62
     7
 10
112.722489356995
 20
-100.257141113281
 30
0.0
 11
112.722489356995
 21
-91.2571411132813
 31
0.0
  0
LINE
  5
   521
  8
0
  6
CONTINUOUS
 62
     7
 10
112.222489356995
 20
-91.2571411132813
 30
0.0
 11
112.722489356995
 21
-91.2571411132813
 31
0.0
  0
LINE
  5
   522
  8
0
  6
CONTINUOUS
 62
     7
 10
112.222489356995
 20
-100.257141113281
 30
0.0
 11
112.222489356995
 21
-91.2571411132813
 31
0.0
  0
LINE
  5
   523
  8
0
  6
CONTINUOUS
 62
     7
 10
109.722488880157
 20
-93.7571411132813
 30
0.0
 11
109.722488880157
 21
-89.7571349042547
 31
0.0
  0
LINE
  5
   524
  8
0
  6
CONTINUOUS
 62
     7
 10
108.722488880157
 20
-93.7571411132813
 30
0.0
 11
108.722488880157
 21
-89.2655377235587
 31
0.0
  0
LINE
  5
   525
  8
0
  6
CONTINUOUS
 62
     1
 10
112.922489356995
 20
-99.3521411132813
 30
0.0
 11
112.922489356995
 21
-92.1621411132813
 31
0.0
  0
ARC
  5
   526
  8
0
  6
CONTINUOUS
 62
     1
 10
114.099321546551
 20
-98.4533911132813
 30
0.0
 40
1.37316781044413
 50
319.1176078909
 51
400.8823921091
  0
ARC
  5
   527
  8
0
  6
CONTINUOUS
 62
     1
 10
114.099321546551
 20
-93.0608911132813
 30
0.0
 40
1.37316781044413
 50
319.1176078909
 51
400.8823921091
  0
LINE
  5
   528
  8
0
  6
CONTINUOUS
 62
     1
 10
112.922489356995
 20
-97.5546411132813
 30
0.0
 11
115.164087113726
 21
-97.5546411132813
 31
0.0
  0
ARC
  5
   529
  8
0
  6
CONTINUOUS
 62
     1
 10
110.079989356995
 20
-95.7571411132813
 30
0.0
 40
5.3925
 50
340.528779365509
 51
379.471220634491
  0
LINE
  5
   52A
  8
0
  6
CONTINUOUS
 62
     1
 10
112.922489356995
 20
-93.9596411132812
 30
0.0
 11
115.164087113726
 21
-93.9596411132812
 31
0.0
  0
LINE
  5
   52B
  8
0
  6
CONTINUOUS
 62
     1
 10
112.922489356995
 20
-99.3521411132813
 30
0.0
 11
115.137511448803
 21
-99.3521411132813
 31
0.0
  0
LINE
  5
   52C
  8
0
  6
CONTINUOUS
 62
     1
 10
112.922489356995
 20
-92.1621411132813
 30
0.0
 11
115.137511448803
 21
-92.1621411132813
 31
0.0
  0
LINE
  5
   52D
  8
0
  6
CONTINUOUS
 62
     1
 10
112.722489356995
 20
-98.8071411132813
 30
0.0
 11
112.922489356995
 21
-98.8071411132813
 31
0.0
  0
LINE
  5
   52E
  8
0
  6
CONTINUOUS
 62
     1
 10
112.722489356995
 20
-92.7071411132813
 30
0.0
 11
112.922489356995
 21
-92.7071411132813
 31
0.0
  0
LINE
  5
   52F
  8
0
  6
CONTINUOUS
 62
     7
 10
107.222489356992
 20
-97.3737473632813
 30
0.0
 11
111.472489356995
 21
-97.3737473632813
 31
0.0
  0
LINE
  5
   530
  8
0
  6
CONTINUOUS
 62
     7
 10
107.222489356992
 20
-94.1405348632813
 30
0.0
 11
111.472489356995
 21
-94.1405348632813
 31
0.0
  0
LINE
  5
   531
  8
0
  6
CONTINUOUS
 62
     1
 10
107.222489356992
 20
-93.7571411132813
 30
0.0
 11
112.222489356995
 21
-93.7571411132813
 31
0.0
  0
LINE
  5
   532
  8
0
  6
CONTINUOUS
 62
     1
 10
107.222489356992
 20
-97.7571411132813
 30
0.0
 11
112.222489356995
 21
-97.7571411132813
 31
0.0
  0
LINE
  5
   533
  8
0
  6
CONTINUOUS
 62
     1
 10
111.472489356995
 20
-97.7571411132813
 30
0.0
 11
111.472489356995
 21
-93.7571411132813
 31
0.0
  0
LINE
  5
   534
  8
0
  6
CONTINUOUS
 62
     1
 10
112.722489356995
 20
-98.8071411132813
 30
0.0
 11
112.722489356995
 21
-92.7071411132813
 31
0.0
  0
LINE
  5
   535
  8
0
  6
CONTINUOUS
 62
     1
 10
115.472489356995
 20
-98.4533911132813
 30
0.0
 11
115.472489356995
 21
-93.0608911132813
 31
0.0
  0
LINE
  5
   536
  8
0
  6
DASHDOT
 62
     7
 10
105.722489356995
 20
-95.7571411132813
 30
0.0
 11
117.472489356995
 21
-95.7571411132813
 31
0.0
  0
LINE
  5
   537
  8
0
  6
CONTINUOUS
 62
     1
 10
112.922489356995
 20
-27.8521411132813
 30
0.0
 11
112.922489356995
 21
-20.6621411132813
 31
0.0
  0
ARC
  5
   538
  8
0
  6
CONTINUOUS
 62
     1
 10
114.099321546551
 20
-26.9533911132813
 30
0.0
 40
1.37316781044413
 50
319.1176078909
 51
400.8823921091
  0
ARC
  5
   539
  8
0
  6
CONTINUOUS
 62
     1
 10
114.099321546551
 20
-21.5608911132813
 30
0.0
 40
1.37316781044413
 50
319.1176078909
 51
400.8823921091
  0
LINE
  5
   53A
  8
0
  6
CONTINUOUS
 62
     1
 10
112.922489356995
 20
-26.0546411132813
 30
0.0
 11
115.164087113726
 21
-26.0546411132813
 31
0.0
  0
ARC
  5
   53B
  8
0
  6
CONTINUOUS
 62
     1
 10
110.079989356995
 20
-24.2571411132813
 30
0.0
 40
5.3925
 50
340.528779365509
 51
379.471220634491
  0
LINE
  5
   53C
  8
0
  6
CONTINUOUS
 62
     1
 10
112.922489356995
 20
-22.4596411132813
 30
0.0
 11
115.164087113726
 21
-22.4596411132813
 31
0.0
  0
LINE
  5
   53D
  8
0
  6
CONTINUOUS
 62
     1
 10
112.922489356995
 20
-27.8521411132813
 30
0.0
 11
115.137511448803
 21
-27.8521411132813
 31
0.0
  0
LINE
  5
   53E
  8
0
  6
CONTINUOUS
 62
     1
 10
112.922489356995
 20
-20.6621411132813
 30
0.0
 11
115.137511448803
 21
-20.6621411132813
 31
0.0
  0
LINE
  5
   53F
  8
0
  6
CONTINUOUS
 62
     1
 10
112.722489356995
 20
-27.3071411132813
 30
0.0
 11
112.922489356995
 21
-27.3071411132813
 31
0.0
  0
LINE
  5
   540
  8
0
  6
CONTINUOUS
 62
     1
 10
112.722489356995
 20
-21.2071411132813
 30
0.0
 11
112.922489356995
 21
-21.2071411132813
 31
0.0
  0
LINE
  5
   541
  8
0
  6
CONTINUOUS
 62
     7
 10
107.222489356995
 20
-25.8737473632813
 30
0.0
 11
111.472489356995
 21
-25.8737473632813
 31
0.0
  0
LINE
  5
   542
  8
0
  6
CONTINUOUS
 62
     7
 10
107.222489356995
 20
-22.6405348632813
 30
0.0
 11
111.472489356995
 21
-22.6405348632813
 31
0.0
  0
LINE
  5
   543
  8
0
  6
CONTINUOUS
 62
     1
 10
107.222489356995
 20
-22.2571411132813
 30
0.0
 11
112.722489356995
 21
-22.2571411132813
 31
0.0
  0
LINE
  5
   544
  8
0
  6
CONTINUOUS
 62
     1
 10
107.222489356995
 20
-26.2571411132813
 30
0.0
 11
112.722489356995
 21
-26.2571411132813
 31
0.0
  0
LINE
  5
   545
  8
0
  6
CONTINUOUS
 62
     1
 10
111.472489356995
 20
-26.2571411132813
 30
0.0
 11
111.472489356995
 21
-22.2571411132813
 31
0.0
  0
LINE
  5
   546
  8
0
  6
CONTINUOUS
 62
     1
 10
112.722489356995
 20
-27.3071411132813
 30
0.0
 11
112.722489356995
 21
-21.2071411132813
 31
0.0
  0
LINE
  5
   547
  8
0
  6
CONTINUOUS
 62
     1
 10
115.472489356995
 20
-26.9533911132813
 30
0.0
 11
115.472489356995
 21
-21.5608911132813
 31
0.0
  0
LINE
  5
   548
  8
0
  6
DASHDOT
 62
     7
 10
105.722489356995
 20
-24.2571411132813
 30
0.0
 11
117.472489356995
 21
-24.2571411132813
 31
0.0
  0
LINE
  5
   549
  8
0
  6
CONTINUOUS
 62
     2
 10
109.222489356995
 20
-22.2571411132813
 30
0.0
 11
109.222489356995
 21
-19.2571411132812
 31
0.0
  0
LINE
  5
   54A
  8
0
  6
CONTINUOUS
 62
     2
 10
109.222489356995
 20
-29.2571411132813
 30
0.0
 11
109.222489356995
 21
-26.2571411132813
 31
0.0
  0
LINE
  5
   54B
  8
0
  6
DASHDOT
 62
     7
 10
87.855107618027
 20
-25.2571411132813
 30
0.0
 11
99.5852605089011
 21
-25.2571411132813
 31
0.0
  0
LINE
  5
   54C
  8
0
  6
CONTINUOUS
 62
     7
 10
93.7224893569946
 20
-27.2571411132813
 30
0.0
 11
93.7224893569946
 21
-23.2571411132813
 31
0.0
  0
LINE
  5
   54D
  8
0
  6
CONTINUOUS
 62
     7
 10
93.7224893569946
 20
-27.2571411132813
 30
0.0
 11
95.7224893569946
 21
-27.2571411132813
 31
0.0
  0
LINE
  5
   54E
  8
0
  6
CONTINUOUS
 62
     7
 10
93.7224893569946
 20
-23.2571411132813
 30
0.0
 11
95.7224893569946
 21
-23.2571411132813
 31
0.0
  0
LINE
  5
   54F
  8
0
  6
CONTINUOUS
 62
     7
 10
91.7224893569946
 20
-26.5071411132813
 30
0.0
 11
91.7224893569946
 21
-24.0071411132813
 31
0.0
  0
LINE
  5
   550
  8
0
  6
CONTINUOUS
 62
     7
 10
91.7224893569946
 20
-24.0071411132813
 30
0.0
 11
95.7224893569946
 21
-24.0071411132813
 31
0.0
  0
LINE
  5
   551
  8
0
  6
CONTINUOUS
 62
     7
 10
91.7224893569946
 20
-26.5071411132813
 30
0.0
 11
95.7224893569946
 21
-26.5071411132813
 31
0.0
  0
LINE
  5
   552
  8
0
  6
CONTINUOUS
 62
     7
 10
93.7224893569946
 20
-92.7571411132813
 30
0.0
 11
95.7224893569946
 21
-92.7571411132813
 31
0.0
  0
LINE
  5
   553
  8
0
  6
CONTINUOUS
 62
     7
 10
91.7224893569946
 20
-93.5071411132813
 30
0.0
 11
95.7224893569946
 21
-93.5071411132813
 31
0.0
  0
LINE
  5
   554
  8
0
  6
DASHDOT
 62
     7
 10
87.855107618027
 20
-94.7571411132813
 30
0.0
 11
99.5852605089011
 21
-94.7571411132813
 31
0.0
  0
LINE
  5
   555
  8
0
  6
CONTINUOUS
 62
     7
 10
91.7224893569946
 20
-96.0071411132813
 30
0.0
 11
95.7224893569946
 21
-96.0071411132813
 31
0.0
  0
LINE
  5
   556
  8
0
  6
CONTINUOUS
 62
     7
 10
93.7224893569946
 20
-96.7571411132813
 30
0.0
 11
95.7224893569946
 21
-96.7571411132813
 31
0.0
  0
LINE
  5
   557
  8
0
  6
CONTINUOUS
 62
     7
 10
93.7224893569946
 20
-96.7571411132813
 30
0.0
 11
93.7224893569946
 21
-92.7571411132813
 31
0.0
  0
LINE
  5
   558
  8
0
  6
CONTINUOUS
 62
     7
 10
91.7224893569946
 20
-96.0071411132813
 30
0.0
 11
91.7224893569946
 21
-93.5071411132813
 31
0.0
  0
LINE
  5
   559
  8
0
  6
CONTINUOUS
 62
     1
 10
97.4724898189306
 20
61.2428674985296
 30
0.0
 11
147.972489818931
 21
61.2428674985296
 31
0.0
  0
LINE
  5
   55A
  8
0
  6
DOT
 62
     7
 10
97.4724898189306
 20
42.7428674985234
 30
0.0
 11
147.972489818931
 21
42.7428674985234
 31
0.0
  0
LINE
  5
   55B
  8
0
  6
DOT
 62
     7
 10
97.4724898189306
 20
33.9928674985234
 30
0.0
 11
147.972489818931
 21
33.9928674985234
 31
0.0
  0
INSERT
  5
   55C
  8
0
  6
CONTINUOUS
 62
     7
  2
*UDIM204
 10
0.0
 20
0.0
 30
0.0
  0
INSERT
  5
   55D
  8
0
  6
CONTINUOUS
 62
     7
  2
*UDIM205
 10
0.0
 20
0.0
 30
0.0
  0
INSERT
  5
   55E
  8
0
  6
CONTINUOUS
 62
     7
  2
*UDIM206
 10
0.0
 20
0.0
 30
0.0
  0
INSERT
  5
   55F
  8
0
  6
CONTINUOUS
 62
     7
  2
*UDIM207
 10
0.0
 20
0.0
 30
0.0
  0
INSERT
  5
   560
  8
0
  6
CONTINUOUS
 62
     5
  2
*UDIM208
 10
0.0
 20
0.0
 30
0.0
  0
INSERT
  5
   561
  8
0
  6
CONTINUOUS
 62
     7
  2
*UDIM209
 10
0.0
 20
0.0
 30
0.0
  0
TEXT
  5
   562
  8
0
  6
CONTINUOUS
 62
     1
 10
226.377371131629
 20
-185.468277022243
 30
0.0
 40
2.00000008940697
  1
INTERR.AUTOMATICO SERIE ISOMAX
 41
0.699999970942736
 72
     1
 11
247.22737121582
 21
-184.468276977539
 31
0.0
 73
     2
  0
TEXT
  5
   563
  8
0
  6
CONTINUOUS
 62
     1
 10
213.077371089161
 20
-188.468277022243
 30
0.0
 40
2.00000008940697
  1
TRIPOL.ESECUZIONE FISSA TERMINALI ANT.PROL.DIVAR.
 41
0.699999970942736
 72
     1
 11
247.22737121582
 21
-187.468276977539
 31
0.0
 73
     2
  0
TEXT
  5
   564
  8
0
  6
CONTINUOUS
 62
     1
 10
222.624978533387
 20
-178.89801029861
 30
0.0
 40
2.00000008940697
  1
3POLE LOW VOLTAGE M.C.C.B SERIES ISOMAX
 41
0.699999970942736
 72
     1
 11
249.774978637695
 21
-177.898010253906
 31
0.0
 73
     2
  0
TEXT
  5
   565
  8
0
  6
CONTINUOUS
 62
     1
 10
218.424978519976
 20
-181.89801029861
 30
0.0
 40
2.00000008940697
  1
FIXED VERS. SPREADED EXTENDED FRONT TERMINALS
 41
0.699999970942736
 72
     1
 11
249.774978637695
 21
-180.898010253906
 31
0.0
 73
     2
  0
TEXT
  5
   566
  8
0
  6
CONTINUOUS
 62
     1
 10
231.973709106445
 20
-204.689865291119
 30
0.0
 40
4.00000017881393
  1
605032/341
 41
0.937499973922969
 72
     2
 11
268.723709706217
 21
-204.689865291119
 31
0.0
  0
TEXT
  5
   567
  8
0
  6
CONTINUOUS
 62
     1
 10
137.189941622811
 20
-193.705744020968
 30
0.0
 40
2.00000008940697
  1
M 4364 97-04-01
 41
0.749999861419206
 72
     2
 11
159.389938505488
 21
-193.705744020968
 31
0.0
  0
TEXT
  5
   568
  8
0
  6
CONTINUOUS
 62
     1
 10
130.442901611328
 20
-178.463390439749
 30
0.0
 40
2.00000008940697
  1
97-04-01 COLLEONI M.
 41
0.749999861419206
 72
     2
 11
160.142897443473
 21
-178.463390439749
 31
0.0
  0
LINE
  5
   569
  8
0
  6
CONTINUOUS
 62
     1
 10
112.222489356995
 20
-18.9071418046951
 30
0.0
 11
112.347489130658
 21
-18.9071418046951
 31
0.0
  0
INSERT
  5
   56A
  8
0
  6
CONTINUOUS
 62
     7
  2
*HATCH80
 10
98.2224884033203
 20
-66.2571411132813
 30
0.0
 41
0.5
 42
0.5
 43
0.5
  0
LINE
  5
   56B
  8
0
  6
CONTINUOUS
 62
     7
 10
111.743325233459
 20
-10.1778869628906
 30
0.0
 11
119.145108222961
 21
-6.72637939453123
 31
0.0
  0
LINE
  5
   56C
  8
0
  6
CONTINUOUS
 62
     7
 10
119.145108222961
 20
-6.72637939453111
 30
0.0
 11
119.565880775452
 21
-6.35736846923814
 31
0.0
  0
LINE
  5
   56D
  8
0
  6
CONTINUOUS
 62
     7
 10
119.722489356995
 20
-5.82006835937495
 30
0.0
 11
119.722489356995
 21
-2.62583923339839
 31
0.0
  0
LINE
  5
   56E
  8
0
  6
CONTINUOUS
 62
     7
 10
119.722489356995
 20
3.61785888671881
 30
0.0
 11
119.722489356995
 21
7.86785888671881
 31
0.0
  0
LINE
  5
   56F
  8
0
  6
CONTINUOUS
 62
     7
 10
119.722489356995
 20
7.86785888671881
 30
0.0
 11
119.722489356995
 21
11.9928512573243
 31
0.0
  0
LINE
  5
   570
  8
0
  6
CONTINUOUS
 62
     7
 10
119.722489356995
 20
11.9928512573243
 30
0.0
 11
122.222490310669
 21
11.9928512573243
 31
0.0
  0
LINE
  5
   571
  8
0
  6
CONTINUOUS
 62
     7
 10
122.222490310669
 20
7.86785888671881
 30
0.0
 11
122.222490310669
 21
11.9928512573243
 31
0.0
  0
LINE
  5
   572
  8
0
  6
CONTINUOUS
 62
     7
 10
119.722489356995
 20
7.86785888671881
 30
0.0
 11
122.222490310669
 21
7.86785888671881
 31
0.0
  0
LINE
  5
   573
  8
0
  6
CONTINUOUS
 62
     7
 10
119.722489356995
 20
3.61785888671881
 30
0.0
 11
122.222490310669
 21
3.61785888671881
 31
0.0
  0
LINE
  5
   574
  8
0
  6
CONTINUOUS
 62
     7
 10
122.222490310669
 20
-2.62583923339839
 30
0.0
 11
122.222490310669
 21
3.61785888671881
 31
0.0
  0
LINE
  5
   575
  8
0
  6
CONTINUOUS
 62
     7
 10
119.722489356995
 20
-2.62583923339839
 30
0.0
 11
119.722489356995
 21
3.61785888671881
 31
0.0
  0
LINE
  5
   576
  8
0
  6
CONTINUOUS
 62
     7
 10
122.222490310669
 20
3.61785888671881
 30
0.0
 11
122.222490310669
 21
7.86785888671881
 31
0.0
  0
LINE
  5
   577
  8
0
  6
CONTINUOUS
 62
     7
 10
122.222490310669
 20
-5.82006835937495
 30
0.0
 11
122.222490310669
 21
-2.62583923339839
 31
0.0
  0
LINE
  5
   578
  8
0
  6
CONTINUOUS
 62
     7
 10
119.565880775452
 20
-6.35736846923816
 30
0.0
 11
119.722489356995
 21
-5.82006835937489
 31
0.0
  0
ARC
  5
   579
  8
0
  6
CONTINUOUS
 62
     7
 10
118.722474128579
 20
-5.82006413596654
 30
0.0
 40
3.50001618209298
 50
295.000173925889
 51
359.999930860147
  0
LINE
  5
   57A
  8
0
  6
CONTINUOUS
 62
     7
 10
112.799861957554
 20
-12.4436617900228
 30
0.0
 11
120.20165348053
 21
-8.99214935302724
 31
0.0
  0
LINE
  5
   57B
  8
0
  6
CONTINUOUS
 62
     7
 10
112.222489356995
 20
-22.1321411132812
 30
0.0
 11
112.222489356995
 21
-13.3499552742465
 31
0.0
  0
ARC
  5
   57C
  8
0
  6
CONTINUOUS
 62
     7
 10
113.222473594568
 20
-13.3499552742465
 30
0.0
 40
0.999984237584987
 50
115.000002325622
 51
180.0
  0
ARC
  5
   57D
  8
0
  6
CONTINUOUS
 62
     7
 10
113.222512171016
 20
-13.3499874779799
 30
0.0
 40
3.50003081044566
 50
115.000180631326
 51
179.999555538035
  0
LINE
  5
   57E
  8
0
  6
CONTINUOUS
 62
     7
 10
109.722489356995
 20
-22.1321411132812
 30
0.0
 11
109.722489356995
 21
-13.3499603271484
 31
0.0
  0
LINE
  5
   57F
  8
0
  6
CONTINUOUS
 62
     7
 10
109.722489356995
 20
-22.1321411132812
 30
0.0
 11
112.222489356995
 21
-22.1321411132812
 31
0.0
  0
LINE
  5
   580
  8
0
  6
CONTINUOUS
 62
     7
 10
109.722489356995
 20
-26.3821411132812
 30
0.0
 11
112.222489356995
 21
-26.3821411132812
 31
0.0
  0
LINE
  5
   581
  8
0
  6
CONTINUOUS
 62
     7
 10
109.722489356995
 20
-29.2571411132812
 30
0.0
 11
109.722489356995
 21
-26.3821411132812
 31
0.0
  0
LINE
  5
   582
  8
0
  6
CONTINUOUS
 62
     7
 10
109.722489356995
 20
-29.2571411132812
 30
0.0
 11
112.222489356995
 21
-29.2571411132812
 31
0.0
  0
LINE
  5
   583
  8
0
  6
CONTINUOUS
 62
     7
 10
112.222489356995
 20
-29.2571411132812
 30
0.0
 11
112.222489356995
 21
-26.3821411132812
 31
0.0
  0
LINE
  5
   584
  8
0
  6
CONTINUOUS
 62
     7
 10
109.222489356995
 20
-19.2571411132812
 30
0.0
 11
109.722489356995
 21
-19.2571411132812
 31
0.0
  0
LINE
  5
   585
  8
0
  6
CONTINUOUS
 62
     7
 10
109.222489356995
 20
-27.2571411132812
 30
0.0
 11
109.722489356995
 21
-27.2571411132812
 31
0.0
  0
LINE
  5
   586
  8
0
  6
DASHDOT
 62
     7
 10
108.722489356995
 20
-24.2571411132813
 30
0.0
 11
113.222489356995
 21
-24.2571411132813
 31
0.0
  0
LINE
  5
   587
  8
0
  6
DASHDOT
 62
     7
 10
118.722489356995
 20
5.74285888671875
 30
0.0
 11
123.222490310669
 21
5.74285888671875
 31
0.0
  0
INSERT
  5
   588
  8
0
  6
CONTINUOUS
 62
     7
  2
*HATCH81
 10
98.2224884033203
 20
-66.2571411132813
 30
0.0
 41
0.5
 42
0.5
 43
0.5
  0
INSERT
  5
   589
  8
0
  6
CONTINUOUS
 62
     7
  2
*HATCH82
 10
98.2224884033203
 20
-66.2571411132813
 30
0.0
 41
0.5
 42
0.5
 43
0.5
  0
INSERT
  5
   58A
  8
0
  6
CONTINUOUS
 62
     7
  2
*HATCH83
 10
98.2224884033203
 20
-66.2571411132813
 30
0.0
 41
0.5
 42
0.5
 43
0.5
  0
INSERT
  5
   58B
  8
0
  6
CONTINUOUS
 62
     7
  2
*UDIM210
 10
0.0
 20
0.0
 30
0.0
  0
INSERT
  5
   58C
  8
0
  6
CONTINUOUS
 62
     2
  2
*UDIM211
 10
0.0
 20
0.0
 30
0.0
  0
INSERT
  5
   58D
  8
0
  6
CONTINUOUS
 62
     7
  2
*UDIM212
 10
0.0
 20
0.0
 30
0.0
  0
INSERT
  5
   58E
  8
0
  6
CONTINUOUS
 62
     7
  2
*UDIM213
 10
0.0
 20
0.0
 30
0.0
  0
INSERT
  5
   58F
  8
0
  6
CONTINUOUS
 62
     7
  2
*UDIM214
 10
0.0
 20
0.0
 30
0.0
  0
TEXT
  5
   590
  8
0
  6
CONTINUOUS
 62
     5
 10
177.695982620262
 20
-77.0327700292071
 30
0.0
 40
3.00000002980232
  1
=          =
 50
90.0
 41
0.916666604744064
 72
     2
 11
177.695982620221
 21
-44.5827719032765
 31
0.0
  0
INSERT
  5
   591
  8
0
  6
CONTINUOUS
 62
     7
  2
*UDIM215
 10
0.0
 20
0.0
 30
0.0
  0
INSERT
  5
   592
  8
0
  6
CONTINUOUS
 62
     7
  2
*UDIM216
 10
0.0
 20
0.0
 30
0.0
  0
TEXT
  5
   593
  8
0
  6
CONTINUOUS
 62
     7
 10
180.923538386822
 20
-62.5357031164559
 30
0.0
 40
3.00000002980232
  1
X
 41
0.916666604744064
 72
     2
 11
183.123538255692
 21
-62.5357031164559
 31
0.0
  0
INSERT
  5
   594
  8
0
  6
CONTINUOUS
 62
     7
  2
*UDIM217
 10
0.0
 20
0.0
 30
0.0
  0
INSERT
  5
   595
  8
0
  6
CONTINUOUS
 62
     7
  2
*UDIM218
 10
0.0
 20
0.0
 30
0.0
  0
INSERT
  5
   596
  8
0
  6
CONTINUOUS
 62
     7
  2
*UDIM219
 10
0.0
 20
0.0
 30
0.0
  0
INSERT
  5
   597
  8
0
  6
CONTINUOUS
 62
     7
  2
*UDIM220
 10
0.0
 20
0.0
 30
0.0
  0
INSERT
  5
   598
  8
0
  6
CONTINUOUS
 62
     7
  2
*UDIM221
 10
0.0
 20
0.0
 30
0.0
  0
INSERT
  5
   599
  8
0
  6
CONTINUOUS
 62
     7
  2
*UDIM222
 10
0.0
 20
0.0
 30
0.0
  0
INSERT
  5
   59A
  8
0
  6
CONTINUOUS
 62
     7
  2
*UDIM223
 10
0.0
 20
0.0
 30
0.0
  0
TEXT
  5
   59B
  8
0
  6
CONTINUOUS
 62
     1
 10
250.059402596955
 20
-195.708282284134
 30
0.0
 40
3.00000002980232
  1
S3
 41
0.916666604744064
 72
     2
 11
255.009402307375
 21
-195.708282284134
 31
0.0
  0
LINE
  5
   59C
  8
0
  6
DASHDOT
 62
     7
 10
-18.5494441986084
 20
-142.431749884714
 30
0.0
 11
-18.5494441986084
 21
-203.152407059972
 31
0.0
  0
LINE
  5
   59D
  8
0
  6
DASHDOT
 62
     7
 10
-11.0611629407144
 20
-154.199493408203
 30
0.0
 11
-27.1005818171976
 21
-154.199493408203
 31
0.0
  0
LINE
  5
   59E
  8
0
  6
DASHDOT
 62
     7
 10
-12.0305783673151
 20
-188.949493408203
 30
0.0
 11
-27.1005818171976
 21
-188.949493408203
 31
0.0
  0
LINE
  5
   59F
  8
0
  6
DASHDOT
 62
     7
 10
-22.9244441986084
 20
-151.244617399265
 30
0.0
 11
-22.9244441986084
 21
-193.105738093383
 31
0.0
  0
LINE
  5
   5A0
  8
0
  6
DASHDOT
 62
     7
 10
-14.1744441986084
 20
-150.892102698683
 30
0.0
 11
-14.1744441986084
 21
-192.841352067947
 31
0.0
  0
LINE
  5
   5A1
  8
0
  6
CONTINUOUS
 62
     3
 10
-30.4244441986084
 20
-143.841808687042
 30
0.0
 11
-30.4244441986084
 21
-199.715388729297
 31
0.0
  0
LINE
  5
   5A2
  8
0
  6
CONTINUOUS
 62
     3
 10
-6.6744441986084
 20
-143.841808687042
 30
0.0
 11
-6.6744441986084
 21
-199.45100270386
 31
0.0
  0
LINE
  5
   5A3
  8
0
  6
CONTINUOUS
 62
     3
 10
-2.33642410130871
 20
-146.699493408203
 30
0.0
 11
-32.3883023259284
 21
-146.699493408203
 31
0.0
  0
LINE
  5
   5A4
  8
0
  6
CONTINUOUS
 62
     3
 10
-3.39396820305485
 20
-196.449493408203
 30
0.0
 11
-33.357717752529
 21
-196.449493408203
 31
0.0
  0
CIRCLE
  5
   5A5
  8
0
  6
CONTINUOUS
 62
     7
 10
-22.9244441986084
 20
-154.199493408203
 30
0.0
 40
0.6875
  0
CIRCLE
  5
   5A6
  8
0
  6
CONTINUOUS
 62
     7
 10
-14.1744441986084
 20
-154.199493408203
 30
0.0
 40
0.6875
  0
CIRCLE
  5
   5A7
  8
0
  6
CONTINUOUS
 62
     7
 10
-22.9244441986084
 20
-188.949493408203
 30
0.0
 40
0.6875
  0
CIRCLE
  5
   5A8
  8
0
  6
CONTINUOUS
 62
     7
 10
-14.1744441986084
 20
-188.949493408203
 30
0.0
 40
0.6875
  0
LINE
  5
   5A9
  8
0
  6
DASHDOT
 62
     7
 10
12.2054122845444
 20
-172.136993408203
 30
0.0
 11
-46.2437187202323
 21
-172.136993408203
 31
0.0
  0
TEXT
  5
   5AA
  8
0
  6
CONTINUOUS
 62
     7
 10
-15.4239740743153
 20
-205.959198067763
 30
0.0
 40
3.00000002980232
  1
Y
 50
359.999999896069
 41
0.916666604744064
 72
     2
 11
-13.2239742054455
 21
-205.959198071742
 31
0.0
  0
INSERT
  5
   5AB
  8
0
  6
CONTINUOUS
 62
     7
  2
*UDIM224
 10
0.0
 20
0.0
 30
0.0
  0
INSERT
  5
   5AC
  8
0
  6
CONTINUOUS
 62
     5
  2
*UDIM225
 10
0.0
 20
0.0
 30
0.0
  0
TEXT
  5
   5AD
  8
0
  6
CONTINUOUS
 62
     7
 10
-22.3416333225681
 20
-170.989065913356
 30
0.0
 40
3.00000002980232
  1
=
 50
359.999999896069
 41
0.916666604744064
 72
     2
 11
-20.1416334536983
 21
-170.989065917336
 31
0.0
  0
TEXT
  5
   5AE
  8
0
  6
CONTINUOUS
 62
     7
 10
-16.613269570203
 20
-171.253451852001
 30
0.0
 40
3.00000002980232
  1
=
 50
359.999999896069
 41
0.916666604744064
 72
     2
 11
-14.4132697013332
 21
-171.25345185598
 31
0.0
  0
TEXT
  5
   5AF
  8
0
  6
CONTINUOUS
 62
     7
 10
-19.8333234814121
 20
-137.832321194805
 30
0.0
 40
3.00000002980232
  1
Y
 50
359.999999896069
 41
0.916666604744064
 72
     2
 11
-17.6333236125423
 21
-137.832321198784
 31
0.0
  0
TEXT
  5
   5B0
  8
0
  6
CONTINUOUS
 62
     7
 10
-59.5353565243198
 20
-173.345494894184
 30
0.0
 40
3.00000002980232
  1
X
 50
359.999999896069
 41
0.916666604744064
 72
     2
 11
-57.33535665545
 21
-173.345494898163
 31
0.0
  0
TEXT
  5
   5B1
  8
0
  6
CONTINUOUS
 62
     7
 10
15.2011814090298
 20
-173.985440758861
 30
0.0
 40
3.00000002980232
  1
X
 50
359.999999896069
 41
0.916666604744064
 72
     2
 11
17.4011812778996
 21
-173.985440762841
 31
0.0
  0
INSERT
  5
   5B2
  8
0
  6
CONTINUOUS
 62
     7
  2
*UDIM226
 10
0.0
 20
0.0
 30
0.0
  0
INSERT
  5
   5B3
  8
0
  6
CONTINUOUS
 62
     7
  2
*UDIM227
 10
0.0
 20
0.0
 30
0.0
  0
LINE
  5
   5B4
  8
0
  6
CONTINUOUS
 62
     7
 10
227.075653076172
 20
-8.50344228744507
 30
0.0
 11
255.075653076172
 21
-8.50344228744507
 31
0.0
  0
LINE
  5
   5B5
  8
0
  6
CONTINUOUS
 62
     7
 10
227.075653076172
 20
19.4965577125549
 30
0.0
 11
255.075653076172
 21
19.4965577125549
 31
0.0
  0
LINE
  5
   5B6
  8
0
  6
CONTINUOUS
 62
     7
 10
227.075653076172
 20
19.4965577125549
 30
0.0
 11
227.075653076172
 21
-8.50344228744507
 31
0.0
  0
LINE
  5
   5B7
  8
0
  6
CONTINUOUS
 62
     7
 10
255.075653076172
 20
19.4965577125549
 30
0.0
 11
255.075653076172
 21
-8.50344228744507
 31
0.0
  0
LINE
  5
   5B8
  8
0
  6
DASHDOT
 62
     7
 10
241.075653076172
 20
34.5905209585305
 30
0.0
 11
241.075653076172
 21
-24.5402325652523
 31
0.0
  0
CIRCLE
  5
   5B9
  8
0
  6
CONTINUOUS
 62
     7
 10
231.075653076172
 20
23.2465577125549
 30
0.0
 40
0.875
  0
CIRCLE
  5
   5BA
  8
0
  6
CONTINUOUS
 62
     7
 10
251.075653076172
 20
23.2465577125549
 30
0.0
 40
0.875
  0
CIRCLE
  5
   5BB
  8
0
  6
CONTINUOUS
 62
     7
 10
251.075653076172
 20
-12.2534422874451
 30
0.0
 40
0.875
  0
CIRCLE
  5
   5BC
  8
0
  6
CONTINUOUS
 62
     7
 10
231.075653076172
 20
-12.2534422874451
 30
0.0
 40
0.875
  0
LINE
  5
   5BD
  8
0
  6
CONTINUOUS
 62
     3
 10
223.111157406757
 20
25.5963580098462
 30
0.0
 11
258.914526676743
 21
25.5963580098462
 31
0.0
  0
LINE
  5
   5BE
  8
0
  6
CONTINUOUS
 62
     3
 10
223.111157406757
 20
-15.608923114909
 30
0.0
 11
258.914526676743
 21
-15.608923114909
 31
0.0
  0
LINE
  5
   5BF
  8
0
  6
CONTINUOUS
 62
     3
 10
258.914526676743
 20
25.5963580098462
 30
0.0
 11
258.914526676743
 21
-15.608923114909
 31
0.0
  0
LINE
  5
   5C0
  8
0
  6
CONTINUOUS
 62
     3
 10
223.111157406757
 20
25.5963580098462
 30
0.0
 11
223.111157406757
 21
-15.608923114909
 31
0.0
  0
LINE
  5
   5C1
  8
0
  6
DASHDOT
 62
     7
 10
251.075653076172
 20
24.8715577125549
 30
0.0
 11
251.075653076172
 21
21.6215577125549
 31
0.0
  0
LINE
  5
   5C2
  8
0
  6
DASHDOT
 62
     7
 10
249.450653076172
 20
23.2465577125549
 30
0.0
 11
252.700653076172
 21
23.2465577125549
 31
0.0
  0
LINE
  5
   5C3
  8
0
  6
DASHDOT
 62
     7
 10
231.075653076172
 20
24.8715577125549
 30
0.0
 11
231.075653076172
 21
21.6215577125549
 31
0.0
  0
LINE
  5
   5C4
  8
0
  6
DASHDOT
 62
     7
 10
229.450653076172
 20
23.2465577125549
 30
0.0
 11
232.700653076172
 21
23.2465577125549
 31
0.0
  0
LINE
  5
   5C5
  8
0
  6
DASHDOT
 62
     7
 10
231.075653076172
 20
-10.6284422874451
 30
0.0
 11
231.075653076172
 21
-13.8784422874451
 31
0.0
  0
LINE
  5
   5C6
  8
0
  6
DASHDOT
 62
     7
 10
229.450653076172
 20
-12.2534422874451
 30
0.0
 11
232.700653076172
 21
-12.2534422874451
 31
0.0
  0
LINE
  5
   5C7
  8
0
  6
DASHDOT
 62
     7
 10
251.075653076172
 20
-10.6284422874451
 30
0.0
 11
251.075653076172
 21
-13.8784422874451
 31
0.0
  0
LINE
  5
   5C8
  8
0
  6
DASHDOT
 62
     7
 10
249.450653076172
 20
-12.2534422874451
 30
0.0
 11
252.700653076172
 21
-12.2534422874451
 31
0.0
  0
LINE
  5
   5C9
  8
0
  6
DASHDOT
 62
     7
 10
215.709795522815
 20
5.49655771255493
 30
0.0
 11
268.705946375543
 21
5.49655771255493
 31
0.0
  0
TEXT
  5
   5CA
  8
0
  6
CONTINUOUS
 62
     7
 10
233.825649050769
 20
32.0344354544424
 30
0.0
 40
3.00000002980232
  1
=   =
 50
359.999999844103
 41
0.916666604744064
 72
     2
 11
247.025648285843
 21
32.0344354185927
 31
0.0
  0
TEXT
  5
   5CB
  8
0
  6
CONTINUOUS
 62
     7
 10
232.609299607473
 20
40.5547162360863
 30
0.0
 40
3.00000002980232
  1
=    =
 50
359.999999844103
 41
0.916666604744064
 72
     2
 11
248.559298684098
 21
40.5547161927679
 31
0.0
  0
TEXT
  5
   5CC
  8
0
  6
CONTINUOUS
 62
     7
 10
214.516955438478
 20
-4.76734178771072
 30
0.0
 40
3.00000002980232
  1
=     =
 50
449.999999844103
 41
0.916666604744064
 72
     2
 11
214.516955489242
 21
13.932657130465
 31
0.0
  0
TEXT
  5
   5CD
  8
0
  6
CONTINUOUS
 62
     7
 10
204.803835683765
 20
-6.85922894487274
 30
0.0
 40
3.00000002980232
  1
=       =
 50
449.999999844103
 41
0.916666604744064
 72
     2
 11
204.803835749459
 21
17.3407696564049
 31
0.0
  0
INSERT
  5
   5CE
  8
0
  6
CONTINUOUS
 62
     7
  2
*UDIM228
 10
0.0
 20
0.0
 30
0.0
  0
INSERT
  5
   5CF
  8
0
  6
CONTINUOUS
 62
     7
  2
*UDIM229
 10
0.0
 20
0.0
 30
0.0
  0
INSERT
  5
   5D0
  8
0
  6
CONTINUOUS
 62
     7
  2
*UDIM230
 10
0.0
 20
0.0
 30
0.0
  0
INSERT
  5
   5D1
  8
0
  6
CONTINUOUS
 62
     7
  2
*UDIM231
 10
0.0
 20
0.0
 30
0.0
  0
INSERT
  5
   5D2
  8
0
  6
CONTINUOUS
 62
     7
  2
*UDIM232
 10
0.0
 20
0.0
 30
0.0
  0
TEXT
  5
   5D3
  8
0
  6
CONTINUOUS
 62
     7
 10
239.883885135151
 20
-27.948346683974
 30
0.0
 40
3.00000002980232
  1
Y
 50
359.999999844103
 41
0.916666604744064
 72
     2
 11
242.083885004021
 21
-27.9483466899489
 31
0.0
  0
TEXT
  5
   5D4
  8
0
  6
CONTINUOUS
 62
     7
 10
240.054290761448
 20
49.9270271563581
 30
0.0
 40
3.00000002980232
  1
Y
 50
359.999999844103
 41
0.916666604744064
 72
     2
 11
242.254290630318
 21
49.9270271503831
 31
0.0
  0
TEXT
  5
   5D5
  8
0
  6
CONTINUOUS
 62
     7
 10
270.556900133587
 20
4.0879132056287
 30
0.0
 40
3.00000002980232
  1
X
 50
359.999999844103
 41
0.916666604744064
 72
     2
 11
272.756900002457
 21
4.08791319965375
 31
0.0
  0
TEXT
  5
   5D6
  8
0
  6
CONTINUOUS
 62
     7
 10
191.659092058636
 20
4.0879132056287
 30
0.0
 40
3.00000002980232
  1
X
 50
359.999999844103
 41
0.916666604744064
 72
     2
 11
193.859091927506
 21
4.08791319965375
 31
0.0
  0
ENDSEC
  0
EOF
