  0
SECTION
  2
HEADER
  9
$ACADVER
  1
AC1015
  9
$ACADMAINTVER
 70
    20
  9
$DWGCODEPAGE
  3
ANSI_1252
  9
$INSBASE
 10
0.0
 20
0.0
 30
0.0
  9
$EXTMIN
 10
-5.019450386399967
 20
-0.0135924000137493
 30
-0.0000000000000058
  9
$EXTMAX
 10
392.0298325999332
 20
262.5210813032099
 30
0.0000000000000104
  9
$LIMMIN
 10
0.0
 20
0.0
  9
$LIMMAX
 10
420.0
 20
297.0
  9
$ORTHOMODE
 70
     0
  9
$REGENMODE
 70
     1
  9
$FILLMODE
 70
     1
  9
$QTEXTMODE
 70
     0
  9
$MIRRTEXT
 70
     1
  9
$LTSCALE
 40
4.0
  9
$ATTMODE
 70
     1
  9
$TEXTSIZE
 40
2.5
  9
$TRACEWID
 40
1.0
  9
$TEXTSTYLE
  7
T25
  9
$CLAYER
  8
TEXT25
  9
$CELTYPE
  6
ByLayer
  9
$CECOLOR
 62
   256
  9
$CELTSCALE
 40
1.0
  9
$DISPSILH
 70
     0
  9
$DIMSCALE
 40
1.0
  9
$DIMASZ
 40
2.5
  9
$DIMEXO
 40
0.625
  9
$DIMDLI
 40
3.75
  9
$DIMRND
 40
0.0
  9
$DIMDLE
 40
0.0
  9
$DIMEXE
 40
1.25
  9
$DIMTP
 40
0.0
  9
$DIMTM
 40
0.0
  9
$DIMTXT
 40
2.5
  9
$DIMCEN
 40
2.5
  9
$DIMTSZ
 40
0.0
  9
$DIMTOL
 70
     0
  9
$DIMLIM
 70
     0
  9
$DIMTIH
 70
     0
  9
$DIMTOH
 70
     0
  9
$DIMSE1
 70
     0
  9
$DIMSE2
 70
     0
  9
$DIMTAD
 70
     1
  9
$DIMZIN
 70
     8
  9
$DIMBLK
  1

  9
$DIMASO
 70
     1
  9
$DIMSHO
 70
     1
  9
$DIMPOST
  1

  9
$DIMAPOST
  1

  9
$DIMALT
 70
     0
  9
$DIMALTD
 70
     3
  9
$DIMALTF
 40
0.03937007874016
  9
$DIMLFAC
 40
1.0
  9
$DIMTOFL
 70
     1
  9
$DIMTVP
 40
0.0
  9
$DIMTIX
 70
     0
  9
$DIMSOXD
 70
     0
  9
$DIMSAH
 70
     0
  9
$DIMBLK1
  1

  9
$DIMBLK2
  1

  9
$DIMSTYLE
  2
ISO-25
  9
$DIMCLRD
 70
     0
  9
$DIMCLRE
 70
     0
  9
$DIMCLRT
 70
     0
  9
$DIMTFAC
 40
1.0
  9
$DIMGAP
 40
0.625
  9
$DIMJUST
 70
     0
  9
$DIMSD1
 70
     0
  9
$DIMSD2
 70
     0
  9
$DIMTOLJ
 70
     0
  9
$DIMTZIN
 70
     8
  9
$DIMALTZ
 70
     0
  9
$DIMALTTZ
 70
     0
  9
$DIMUPT
 70
     0
  9
$DIMDEC
 70
     2
  9
$DIMTDEC
 70
     2
  9
$DIMALTU
 70
     2
  9
$DIMALTTD
 70
     3
  9
$DIMTXSTY
  7
Standard
  9
$DIMAUNIT
 70
     0
  9
$DIMADEC
 70
     0
  9
$DIMALTRND
 40
0.0
  9
$DIMAZIN
 70
     0
  9
$DIMDSEP
 70
    44
  9
$DIMATFIT
 70
     3
  9
$DIMFRAC
 70
     0
  9
$DIMLDRBLK
  1

  9
$DIMLUNIT
 70
     2
  9
$DIMLWD
 70
    -2
  9
$DIMLWE
 70
    -2
  9
$DIMTMOVE
 70
     0
  9
$LUNITS
 70
     2
  9
$LUPREC
 70
     4
  9
$SKETCHINC
 40
1.0
  9
$FILLETRAD
 40
0.0
  9
$AUNITS
 70
     0
  9
$AUPREC
 70
     0
  9
$MENU
  1
.
  9
$ELEVATION
 40
0.0
  9
$PELEVATION
 40
0.0
  9
$THICKNESS
 40
0.0
  9
$LIMCHECK
 70
     0
  9
$CHAMFERA
 40
10.0
  9
$CHAMFERB
 40
10.0
  9
$CHAMFERC
 40
20.0
  9
$CHAMFERD
 40
0.0
  9
$SKPOLY
 70
     0
  9
$TDCREATE
 40
2451507.447628368
  9
$TDUCREATE
 40
2451507.364295035
  9
$TDUPDATE
 40
2453718.612510278
  9
$TDUUPDATE
 40
2453718.529176944
  9
$TDINDWG
 40
1.8636808565
  9
$TDUSRTIMER
 40
1.8636807407
  9
$USRTIMER
 70
     1
  9
$ANGBASE
 50
0.0
  9
$ANGDIR
 70
     0
  9
$PDMODE
 70
     0
  9
$PDSIZE
 40
0.0
  9
$PLINEWID
 40
0.0
  9
$SPLFRAME
 70
     0
  9
$SPLINETYPE
 70
     6
  9
$SPLINESEGS
 70
     8
  9
$HANDSEED
  5
E2B
  9
$SURFTAB1
 70
     6
  9
$SURFTAB2
 70
     6
  9
$SURFTYPE
 70
     6
  9
$SURFU
 70
     6
  9
$SURFV
 70
     6
  9
$UCSBASE
  2

  9
$UCSNAME
  2

  9
$UCSORG
 10
0.0
 20
0.0
 30
0.0
  9
$UCSXDIR
 10
1.0
 20
0.0
 30
0.0
  9
$UCSYDIR
 10
0.0
 20
1.0
 30
0.0
  9
$UCSORTHOREF
  2

  9
$UCSORTHOVIEW
 70
     0
  9
$UCSORGTOP
 10
0.0
 20
0.0
 30
0.0
  9
$UCSORGBOTTOM
 10
0.0
 20
0.0
 30
0.0
  9
$UCSORGLEFT
 10
0.0
 20
0.0
 30
0.0
  9
$UCSORGRIGHT
 10
0.0
 20
0.0
 30
0.0
  9
$UCSORGFRONT
 10
0.0
 20
0.0
 30
0.0
  9
$UCSORGBACK
 10
0.0
 20
0.0
 30
0.0
  9
$PUCSBASE
  2

  9
$PUCSNAME
  2

  9
$PUCSORG
 10
0.0
 20
0.0
 30
0.0
  9
$PUCSXDIR
 10
1.0
 20
0.0
 30
0.0
  9
$PUCSYDIR
 10
0.0
 20
1.0
 30
0.0
  9
$PUCSORTHOREF
  2

  9
$PUCSORTHOVIEW
 70
     0
  9
$PUCSORGTOP
 10
0.0
 20
0.0
 30
0.0
  9
$PUCSORGBOTTOM
 10
0.0
 20
0.0
 30
0.0
  9
$PUCSORGLEFT
 10
0.0
 20
0.0
 30
0.0
  9
$PUCSORGRIGHT
 10
0.0
 20
0.0
 30
0.0
  9
$PUCSORGFRONT
 10
0.0
 20
0.0
 30
0.0
  9
$PUCSORGBACK
 10
0.0
 20
0.0
 30
0.0
  9
$USERI1
 70
     0
  9
$USERI2
 70
     0
  9
$USERI3
 70
     0
  9
$USERI4
 70
     0
  9
$USERI5
 70
     0
  9
$USERR1
 40
0.0
  9
$USERR2
 40
0.0
  9
$USERR3
 40
0.0
  9
$USERR4
 40
0.0
  9
$USERR5
 40
0.0
  9
$WORLDVIEW
 70
     1
  9
$SHADEDGE
 70
     3
  9
$SHADEDIF
 70
    70
  9
$TILEMODE
 70
     1
  9
$MAXACTVP
 70
    64
  9
$PINSBASE
 10
0.0
 20
0.0
 30
0.0
  9
$PLIMCHECK
 70
     0
  9
$PEXTMIN
 10
1.000000000000000E+20
 20
1.000000000000000E+20
 30
1.000000000000000E+20
  9
$PEXTMAX
 10
-1.000000000000000E+20
 20
-1.000000000000000E+20
 30
-1.000000000000000E+20
  9
$PLIMMIN
 10
0.0
 20
0.0
  9
$PLIMMAX
 10
420.0
 20
297.0
  9
$UNITMODE
 70
     0
  9
$VISRETAIN
 70
     1
  9
$PLINEGEN
 70
     0
  9
$PSLTSCALE
 70
     1
  9
$TREEDEPTH
 70
  3020
  9
$CMLSTYLE
  2
Standard
  9
$CMLJUST
 70
     0
  9
$CMLSCALE
 40
20.0
  9
$PROXYGRAPHICS
 70
     1
  9
$MEASUREMENT
 70
     1
  9
$CELWEIGHT
370
    -1
  9
$ENDCAPS
280
     0
  9
$JOINSTYLE
280
     0
  9
$LWDISPLAY
290
     0
  9
$INSUNITS
 70
     4
  9
$HYPERLINKBASE
  1

  9
$STYLESHEET
  1
PDF.ctb
  9
$XEDIT
290
     1
  9
$CEPSNTYPE
380
     0
  9
$PSTYLEMODE
290
     1
  9
$FINGERPRINTGUID
  2
{16D15905-A24A-11D3-B118-0008C7CA2EDA}
  9
$VERSIONGUID
  2
{43D0F0A8-621F-44F8-A4D0-3EC0E639FE83}
  9
$EXTNAMES
290
     1
  9
$PSVPSCALE
 40
0.0
  9
$OLESTARTUP
290
     0
  0
ENDSEC
  0
SECTION
  2
CLASSES
  0
CLASS
  1
ACDBDICTIONARYWDFLT
  2
AcDbDictionaryWithDefault
  3
ObjectDBX Classes
 90
        0
280
     0
281
     0
  0
CLASS
  1
ACDBPLACEHOLDER
  2
AcDbPlaceHolder
  3
ObjectDBX Classes
 90
        0
280
     0
281
     0
  0
CLASS
  1
LAYOUT
  2
AcDbLayout
  3
ObjectDBX Classes
 90
        0
280
     0
281
     0
  0
CLASS
  1
DICTIONARYVAR
  2
AcDbDictionaryVar
  3
ObjectDBX Classes
 90
        0
280
     0
281
     0
  0
CLASS
  1
ACME_DOCUMENT
  2
AcMeDbDoc
  3
AcMeServices
 90
    32768
280
     0
281
     0
  0
CLASS
  1
AMGSETTINGSOBJ
  2
AmgSettingsObj
  3
"AcadM|Product Description: AutoCAD Mechanical 2000|Company: Autodesk"
 90
        0
280
     0
281
     0
  0
CLASS
  1
AMGOBJPROPCFG
  2
AmgObjPropCfg
  3
"AmgLay|Product Description: AutoCAD Mechanical 2000|Company: Autodesk"
 90
        1
280
     0
281
     0
  0
CLASS
  1
ACMESCOPE
  2
AcMeScope
  3
AcMeServices
 90
        0
280
     0
281
     0
  0
CLASS
  1
ACMECOMMANDHISTORY
  2
AcMeCommandHistory
  3
AcMeServices
 90
        0
280
     0
281
     0
  0
CLASS
  1
ACIMSYSVARMAN
  2
AcImSysVarManager
  3
AcMeServices
 90
        0
280
     0
281
     0
  0
CLASS
  1
ACIMREALSYSVAR
  2
AcImRealSysVar
  3
AcMeServices
 90
        0
280
     0
281
     0
  0
CLASS
  1
ACIMINTSYSVAR
  2
AcImIntSysVar
  3
AcMeServices
 90
        0
280
     0
281
     0
  0
CLASS
  1
ACMEDRAWINGMAN
  2
AcMeDrawingMan
  3
AcMeServices
 90
        0
280
     0
281
     0
  0
CLASS
  1
ACMEVIEW
  2
AcMeView
  3
AcMeServices
 90
        0
280
     0
281
     0
  0
CLASS
  1
ACDBENTITYCACHE
  2
AcMeEntityCache
  3
AcMeServices
 90
    32768
280
     0
281
     0
  0
CLASS
  1
GSMANAGER
  2
AcMeGSManager
  3
AcMeServices
 90
    32768
280
     0
281
     0
  0
CLASS
  1
AMDTINTERNALREACTOR
  2
AmdtInternalReactor
  3
AcMeServices
 90
    32768
280
     0
281
     0
  0
CLASS
  1
ACMESTATEMGR
  2
AcMeStateMgr
  3
AcMeServices
 90
        0
280
     0
281
     0
  0
CLASS
  1
ACGREFMASTER
  2
AcGrefMaster
  3
AcAttribServices
 90
        0
280
     0
281
     0
  0
CLASS
  1
AM_DRAWING_MGR
  2
AcDmDwgMgr
  3
AcMechDwgViewMgmt
 90
        0
280
     0
281
     0
  0
CLASS
  1
AM_DWG_DOCUMENT
  2
AcDmDwgDocument
  3
AcMechDwgViewMgmt
 90
        0
280
     0
281
     0
  0
CLASS
  1
AM_DWG_SHEET
  2
AcDmSheet
  3
AcMechDwgViewMgmt
 90
        0
280
     0
281
     0
  0
CLASS
  1
AM_VIEWDIMPARMAP
  2
AcDmViewDimParMap
  3
AcMechDwgViewMgmt
 90
        0
280
     0
281
     0
  0
CLASS
  1
AM_DWGMGR_NAME
  2
AcDmDwgMgrName
  3
AcMechDwgViewMgmt
 90
        0
280
     0
281
     0
  0
CLASS
  1
ACME_DATABASE
  2
AcMeDbDatabase
  3
AcMeServices
 90
    32768
280
     0
281
     0
  0
CLASS
  1
ACRFINSADJUSTERMGR
  2
AcRfInsAdjusterMgr
  3
AcMeServices
 90
    32768
280
     0
281
     0
  0
CLASS
  1
ACGREFACADMASTER
  2
AcGrefacadMaster
  3
AcGrefServices
 90
        0
280
     0
281
     0
  0
CLASS
  1
AMDTMENUSTATEMGR
  2
AmdtMenuStateMgr
  3
McadcomServices
 90
    32768
280
     0
281
     0
  0
CLASS
  1
AMDTMCOMMENUSTATE
  2
AmdtMcomMenuState
  3
McadcomServices
 90
    32768
280
     0
281
     0
  0
CLASS
  1
AMIMASTER
  2
AmiMaster
  3
AmiServices
 90
        0
280
     0
281
     0
  0
CLASS
  1
ASAPP
  2
AcAsAppObject
  3
AutoSurfServices
 90
        0
280
     0
281
     0
  0
CLASS
  1
IM_STATIC_MAN
  2
AcImStaticVarManager
  3
AcMeServices
 90
        0
280
     0
281
     0
  0
CLASS
  1
ACIMSTRSYSVAR
  2
AcImStrSysVar
  3
AcMeServices
 90
        0
280
     0
281
     0
  0
CLASS
  1
ACIMDBLSTATICVAR
  2
AcImDblStaticVar
  3
AcMeServices
 90
        0
280
     0
281
     0
  0
CLASS
  1
ACIMSTRSTATICVAR
  2
AcImStrStaticVar
  3
AcMeServices
 90
        0
280
     0
281
     0
  0
CLASS
  1
ACIMINTSTATICVAR
  2
AcImIntStaticVar
  3
AcMeServices
 90
        0
280
     0
281
     0
  0
CLASS
  1
ACASGREFMASTER
  2
AcAsGrefMaster
  3
AutoSurfResolverServices
 90
        0
280
     0
281
     0
  0
CLASS
  1
ACADGREFMODULE
  2
AcAdGrefModule
  3
AdGrefServices
 90
        0
280
     0
281
     0
  0
CLASS
  1
AMDTMAPISURFMOUDULE
  2
AmdtMApiSurfModule
  3
MApiSurfServices
 90
        0
280
     0
281
     0
  0
CLASS
  1
MAPIAMMOUDLE
  2
MApiAmModule
  3
MApiAmServices
 90
        0
280
     0
281
     0
  0
CLASS
  1
AMDTADMENUSTATE
  2
AmdtAdMenuState
  3
DesignerServices
 90
    32768
280
     0
281
     0
  0
CLASS
  1
ADAPPL
  2
AcAdAppl
  3
DesignerServices
 90
        0
280
     0
281
     0
  0
CLASS
  1
DEPMGR
  2
AcAdDepMgr
  3
DesignerServices
 90
        0
280
     0
281
     0
  0
CLASS
  1
PARAMMGR
  2
AcAdParamMgr
  3
DesignerServices
 90
        0
280
     0
281
     0
  0
CLASS
  1
PARAMSCOPE
  2
AcAdParamScope
  3
DesignerServices
 90
        0
280
     0
281
     0
  0
CLASS
  1
NAMEDAPPL
  2
AcAdNamedAppl
  3
DesignerServices
 90
        0
280
     0
281
     0
  0
CLASS
  1
AMDTDMMENUSTATE
  2
AmdtDmMenuState
  3
AcMechDwgViewMgmt
 90
    32768
280
     0
281
     0
  0
CLASS
  1
MAPIADMODULE
  2
MApiAdModule
  3
MApiAdServices
 90
        0
280
     0
281
     0
  0
CLASS
  1
AMDTAMMENUSTATE
  2
AmdtAmMenuState
  3
DesignerAssemblies
 90
    32768
280
     0
281
     0
  0
CLASS
  1
ACAMPROJECT
  2
AcAmProject
  3
DesignerAssemblies
 90
        0
280
     0
281
     0
  0
CLASS
  1
ACAMGRCOMPDEF
  2
AcAmGrCompDef
  3
DesignerAssemblies
 90
        0
280
     0
281
     0
  0
CLASS
  1
ACCMCONTEXT
  2
AcCmContext
  3
DesignerAssemblies
 90
        0
280
     0
281
     0
  0
CLASS
  1
ACAMCOMPDEF
  2
AcAmCompDef
  3
DesignerAssemblies
 90
        0
280
     0
281
     0
  0
CLASS
  1
ACAMCOMPDEFMGR
  2
AcAmCompDefMgr
  3
DesignerAssemblies
 90
        0
280
     0
281
     0
  0
CLASS
  1
AMCONTEXTMGR
  2
AcAmContextMgr
  3
DesignerAssemblies
 90
        0
280
     0
281
     0
  0
CLASS
  1
ACAMCONTEXTMODELER
  2
AcAmContextModeler
  3
DesignerAssemblies
 90
        0
280
     0
281
     0
  0
CLASS
  1
ACMDATADICTIONARY
  2
AcmDataDictionary
  3
"AcmSymBB|Product Description: AutoCAD Mechanical 2004 DX|Company: Autodesk"
 90
        0
280
     0
281
     0
  0
CLASS
  1
CATALOGSTATE
  2
AcAmCatalogState
  3
DesignerAssemblies
 90
        0
280
     0
281
     0
  0
CLASS
  1
ACAMGRCOMPDEFSET
  2
AcAmGrCompDefSet
  3
DesignerAssemblies
 90
    32768
280
     0
281
     0
  0
CLASS
  1
AMDTBROWSERDBTAB
  2
AmdtBrowserDbTab
  3
McadcomServices
 90
    32768
280
     0
281
     0
  0
CLASS
  1
CBROWSERAPPOBJECT
  2
CBrowserAppObject
  3
McadcomServices
 90
    32768
280
     0
281
     0
  0
CLASS
  1
DM_PLACEHOLDER
  2
AcDmSelsetPlaceholder
  3
AcMechDwgViewMgmt
 90
    32768
280
     0
281
     0
  0
CLASS
  1
ACMSTANDARDISO
  2
AcmStandardISO
  3
"Amdt_StdImp|Product Description: AutoCAD Mechanical 2004 DX|Company: Autodesk"
 90
        0
280
     0
281
     0
  0
CLASS
  1
AMDTEDGESTANDARDISO
  2
AmdtEdgeStdISO
  3
"Amdt_StdImp|Product Description: AutoCAD Mechanical 2004 DX|Company: Autodesk"
 90
        0
280
     0
281
     0
  0
CLASS
  1
ACMSURFSTANDARDISO
  2
AcmSurfTextStdISO
  3
"Amdt_StdImp|Product Description: AutoCAD Mechanical 2004 DX|Company: Autodesk"
 90
        0
280
     0
281
     0
  0
CLASS
  1
ACMFCFSTANDARDISO
  2
AcmFCFStdISO
  3
"Amdt_StdImp|Product Description: AutoCAD Mechanical 2004 DX|Company: Autodesk"
 90
        0
280
     0
281
     0
  0
CLASS
  1
ACMWELDSTANDARDISO
  2
AcmWeldingStdISO
  3
"Amdt_StdImp|Product Description: AutoCAD Mechanical 2004 DX|Company: Autodesk"
 90
        0
280
     0
281
     0
  0
CLASS
  1
ACMIDSTANDARDISO
  2
AcmIdStdISO
  3
"Amdt_StdImp|Product Description: AutoCAD Mechanical 2004 DX|Company: Autodesk"
 90
        0
280
     0
281
     0
  0
CLASS
  1
ACMDATUMSTANDARDISO
  2
AcmDatumStdISO
  3
"Amdt_StdImp|Product Description: AutoCAD Mechanical 2004 DX|Company: Autodesk"
 90
        0
280
     0
281
     0
  0
CLASS
  1
ACMBOMSTANDARDISO
  2
AcmBOMStdISO
  3
"Amdt_StdImp|Product Description: AutoCAD Mechanical 2004 DX|Company: Autodesk"
 90
        0
280
     0
281
     0
  0
CLASS
  1
ACAMGTITLESTD
  2
AcAmgTitleStd
  3
"TITLEAPP"
 90
        0
280
     0
281
     0
  0
CLASS
  1
ACMDETAILSTANDARDISO
  2
AmdtDetailSymStdISO
  3
"Amdt_StdImp|Product Description: AutoCAD Mechanical 2004 DX|Company: Autodesk"
 90
        0
280
     0
281
     0
  0
CLASS
  1
ACMSECTIONSTANDARDISO
  2
AmdtSectionSymStdISO
  3
"Amdt_StdImp|Product Description: AutoCAD Mechanical 2004 DX|Company: Autodesk"
 90
        0
280
     0
281
     0
  0
CLASS
  1
ACMCENTERLINESTANDARDISO
  2
AmdtCenterLineStdISO
  3
"Amdt_StdImp|Product Description: AutoCAD Mechanical 2004 DX|Company: Autodesk"
 90
        0
280
     0
281
     0
  0
CLASS
  1
ACMTHREADLINESTANDARDISO
  2
AmdtThreadLineStdISO
  3
"Amdt_StdImp|Product Description: AutoCAD Mechanical 2004 DX|Company: Autodesk"
 90
        0
280
     0
281
     0
  0
CLASS
  1
ACMNOTESTANDARDISO
  2
AmdtNoteStdISO
  3
"Amdt_StdImp|Product Description: AutoCAD Mechanical 2004 DX|Company: Autodesk"
 90
        0
280
     0
281
     0
  0
CLASS
  1
ACAMGLAYSTD
  2
AcAmgLayStd
  3
"AcAmgLayStd|Product Description: AutoCAD Mechanical 2000|Company: Autodesk"
 90
        0
280
     0
281
     0
  0
CLASS
  1
ACAMGDIMSTD
  2
AcAmgDimStd
  3
"AcAmgDimStd|Product Description: AutoCAD Mechanical 2000|Company: Autodesk"
 90
        0
280
     0
281
     0
  0
CLASS
  1
ACAMGFILTERDAT
  2
AcAmgFilterDat
  3
"AcadM|Product Description: AutoCAD Mechanical 2000|Company: Autodesk"
 90
        0
280
     0
281
     0
  0
CLASS
  1
LAYER_INDEX
  2
AcDbLayerIndex
  3
ObjectDBX Classes
 90
        0
280
     0
281
     0
  0
CLASS
  1
IDBUFFER
  2
AcDbIdBuffer
  3
ObjectDBX Classes
 90
        0
280
     0
281
     0
  0
ENDSEC
  0
SECTION
  2
TABLES
  0
TABLE
  2
VPORT
  5
8
330
0
100
AcDbSymbolTable
 70
     6
  0
VPORT
  5
E20
330
8
100
AcDbSymbolTableRecord
100
AcDbViewportTableRecord
  2
*Active
 70
     0
 10
0.0
 20
0.0
 11
1.0
 21
1.0
 12
-25.72965151427573
 22
-30.49144503414948
 13
0.0
 23
0.0
 14
0.5
 24
0.5
 15
10.0
 25
10.0
 16
0.0
 26
0.0
 36
1.0
 17
228.535913021652
 27
159.114269270045
 37
0.0
 40
273.1628318310074
 41
1.86105675146771
 42
50.0
 43
0.0
 44
0.0
 50
0.0
 51
0.0
 71
     0
 72
   100
 73
     1
 74
     1
 75
     0
 76
     0
 77
     0
 78
     0
281
     0
 65
     0
110
0.0
120
0.0
130
0.0
111
1.0
121
0.0
131
0.0
112
0.0
122
1.0
132
0.0
 79
     0
146
0.0
  0
ENDTAB
  0
TABLE
  2
LTYPE
  5
5
330
0
100
AcDbSymbolTable
 70
    25
  0
LTYPE
  5
14
330
5
100
AcDbSymbolTableRecord
100
AcDbLinetypeTableRecord
  2
ByBlock
 70
     0
  3

 72
    65
 73
     0
 40
0.0
  0
LTYPE
  5
15
330
5
100
AcDbSymbolTableRecord
100
AcDbLinetypeTableRecord
  2
ByLayer
 70
     0
  3

 72
    65
 73
     0
 40
0.0
  0
LTYPE
  5
16
330
5
100
AcDbSymbolTableRecord
100
AcDbLinetypeTableRecord
  2
Continuous
 70
     0
  3
Solid line
 72
    65
 73
     0
 40
0.0
  0
LTYPE
  5
1BB
330
5
100
AcDbSymbolTableRecord
100
AcDbLinetypeTableRecord
  2
DASHED
 70
     0
  3
__ __ __ __ __ __ __ __ __ __ __ __ __ __ __ __
 72
    65
 73
     2
 40
0.75
 49
0.5
 74
     0
 49
-0.25
 74
     0
  0
LTYPE
  5
1BC
330
5
100
AcDbSymbolTableRecord
100
AcDbLinetypeTableRecord
  2
CENTER
 70
     0
  3
Center ____ _ ____ _ ____ _ ____ _ ____ _ ____
 72
    65
 73
     4
 40
50.8
 49
31.75
 74
     0
 49
-6.349999999999999
 74
     0
 49
6.349999999999999
 74
     0
 49
-6.349999999999999
 74
     0
  0
LTYPE
  5
1BD
330
5
100
AcDbSymbolTableRecord
100
AcDbLinetypeTableRecord
  2
DASHDOT
 70
     0
  3
__ . __ . __ . __ . __ . __ . __ . __ . __ . __
 72
    65
 73
     4
 40
1.0
 49
0.5
 74
     0
 49
-0.25
 74
     0
 49
0.0
 74
     0
 49
-0.25
 74
     0
  0
LTYPE
  5
1BE
330
5
100
AcDbSymbolTableRecord
100
AcDbLinetypeTableRecord
  2
DOT
 70
     0
  3
. . . . . . . . . . . . . . . . . . . . . . . .
 72
    65
 73
     2
 40
0.25
 49
0.0
 74
     0
 49
-0.25
 74
     0
  0
LTYPE
  5
1BF
330
5
100
AcDbSymbolTableRecord
100
AcDbLinetypeTableRecord
  2
HIDDEN
 70
     0
  3
__ __ __ __ __ __ __ __ __ __ __ __ __ __ __ __
 72
    65
 73
     2
 40
0.375
 49
0.25
 74
     0
 49
-0.125
 74
     0
  0
LTYPE
  5
1C0
330
5
100
AcDbSymbolTableRecord
100
AcDbLinetypeTableRecord
  2
PHANTOM2
 70
     0
  3
___ _ _ ___ _ _ ___ _ _ ___ _ _ ___ _ _ ___ _ _
 72
    65
 73
     6
 40
1.25
 49
0.625
 74
     0
 49
-0.125
 74
     0
 49
0.125
 74
     0
 49
-0.125
 74
     0
 49
0.125
 74
     0
 49
-0.125
 74
     0
  0
LTYPE
  5
1C1
330
5
100
AcDbSymbolTableRecord
100
AcDbLinetypeTableRecord
  2
ASULTYPE
 70
     0
  3
Solid line
 72
    65
 73
     2
 40
3.0
 49
2.5
 74
     0
 49
0.5
 74
     0
  0
LTYPE
  5
1C2
330
5
100
AcDbSymbolTableRecord
100
AcDbLinetypeTableRecord
  2
ASVLTYPE
 70
     0
  3
__ __ __ __ __ __ __ __ __ __ __ __ __ __ __ __ __ __ __ __ __
 72
    65
 73
     2
 40
0.75
 49
0.5
 74
     0
 49
-0.25
 74
     0
  0
LTYPE
  5
1C3
330
5
100
AcDbSymbolTableRecord
100
AcDbLinetypeTableRecord
  2
gen3
 70
     0
  3
-- -- -- -- -- -- -- -- -- -- -- -- -- -- --
 72
    65
 73
     2
 40
6.25
 49
4.75
 74
     0
 49
-1.5
 74
     0
  0
LTYPE
  5
1C4
330
5
100
AcDbSymbolTableRecord
100
AcDbLinetypeTableRecord
  2
gen7
 70
     0
  3
____ . ____ . ____ . ____ . ____ . ____ . ____
 72
    65
 73
     4
 40
13.75
 49
9.75
 74
     0
 49
-1.5
 74
     0
 49
1.0
 74
     0
 49
-1.5
 74
     0
  0
LTYPE
  5
B2E
330
5
100
AcDbSymbolTableRecord
100
AcDbLinetypeTableRecord
  2
gen3a
 70
     0
  3
 - - - - -
 72
    65
 73
     2
 40
3.125
 49
2.25
 74
     0
 49
-0.875
 74
     0
  0
LTYPE
  5
B2F
330
5
100
AcDbSymbolTableRecord
100
AcDbLinetypeTableRecord
  2
gen7a
 70
     0
  3
__ . __ . __
 72
    65
 73
     4
 40
6.875
 49
4.75
 74
     0
 49
-0.875
 74
     0
 49
0.375
 74
     0
 49
-0.875
 74
     0
  0
LTYPE
  5
B30
330
5
100
AcDbSymbolTableRecord
100
AcDbLinetypeTableRecord
  2
gen4a
 70
     0
  3
_____ . . _____ . . _____ . . ____ .. ____
 72
    65
 73
     6
 40
16.25
 49
9.75
 74
     0
 49
-1.5
 74
     0
 49
1.0
 74
     0
 49
-1.5
 74
     0
 49
1.0
 74
     0
 49
-1.5
 74
     0
  0
LTYPE
  5
B31
330
5
100
AcDbSymbolTableRecord
100
AcDbLinetypeTableRecord
  2
AM_ISO02W050
 70
     0
  3
__ __ __ __ __ __ __ __ __ __ __ __ __ __ __
 72
    65
 73
     2
 40
7.5
 49
6.0
 74
     0
 49
-1.5
 74
     0
  0
LTYPE
  5
B32
330
5
100
AcDbSymbolTableRecord
100
AcDbLinetypeTableRecord
  2
genzigzag
 70
     0
  3
/\/-/\/-/\/-/\/-/\/-/\/
 72
    65
 73
     2
 40
12.0001
 49
0.0001
 74
     4
 75
   135
340
B33
 46
2.0
 50
0.0
 44
0.0
 45
0.0
 49
-12.0
 74
     0
  0
LTYPE
  5
BF7
330
5
100
AcDbSymbolTableRecord
100
AcDbLinetypeTableRecord
  2
ACISOWELD
 70
     0
  3
_ _ _ _ _
 72
    65
 73
     2
 40
2.0
 49
2.0
 74
     0
 49
-1.0
 74
     0
  0
LTYPE
  5
BFA
330
5
100
AcDbSymbolTableRecord
100
AcDbLinetypeTableRecord
  2
ACISOTGB
 70
     0
  3
__ . . __ . .
 72
    65
 73
     6
 40
9.0
 49
4.0
 74
     0
 49
-1.0
 74
     0
 49
1.0
 74
     0
 49
-1.0
 74
     0
 49
1.0
 74
     0
 49
-1.0
 74
     0
  0
LTYPE
  5
BFB
330
5
100
AcDbSymbolTableRecord
100
AcDbLinetypeTableRecord
  2
ACISOTGL
 70
     0
  3
_ _ _ _ _
 72
    65
 73
     2
 40
3.0
 49
2.0
 74
     0
 49
-1.0
 74
     0
  0
LTYPE
  5
C1E
330
5
100
AcDbSymbolTableRecord
100
AcDbLinetypeTableRecord
  2
AM_ISO08W050
 70
     0
  3
____ . ____ . ____ . ____ . ____ . ____ . ____
 72
    65
 73
     4
 40
18.0
 49
12.0
 74
     0
 49
-1.5
 74
     0
 49
3.0
 74
     0
 49
-1.5
 74
     0
  0
LTYPE
  5
C1F
330
5
100
AcDbSymbolTableRecord
100
AcDbLinetypeTableRecord
  2
AM_ISO09W050
 70
     0
  3
_____ . . _____ . . _____ . . ____ .. ____
 72
    65
 73
     6
 40
22.5
 49
12.0
 74
     0
 49
-1.5
 74
     0
 49
3.0
 74
     0
 49
-1.5
 74
     0
 49
3.0
 74
     0
 49
-1.5
 74
     0
  0
LTYPE
  5
C20
330
5
100
AcDbSymbolTableRecord
100
AcDbLinetypeTableRecord
  2
Amconstr
 70
     0
  3
_______________________
 72
    65
 73
     2
 40
9999.0
 49
9999.0
 74
     0
 49
0.0
 74
     0
  0
LTYPE
  5
C21
330
5
100
AcDbSymbolTableRecord
100
AcDbLinetypeTableRecord
  2
AM_ISO08W050x2
 70
     0
  3
__ . __ . __ . __ . __ . __
 72
    65
 73
     4
 40
9.0
 49
6.0
 74
     0
 49
-0.75
 74
     0
 49
1.5
 74
     0
 49
-0.75
 74
     0
  0
LTYPE
  5
C22
330
5
100
AcDbSymbolTableRecord
100
AcDbLinetypeTableRecord
  2
AM_ISO02W050x2
 70
     0
  3
 _ _ _ _ _ _ _ _ _ _ _ _
 72
    65
 73
     2
 40
3.75
 49
3.0
 74
     0
 49
-0.75
 74
     0
  0
LTYPE
  5
C25
330
5
100
AcDbSymbolTableRecord
100
AcDbLinetypeTableRecord
  2
Amzigzag
 70
     0
  3
/\/-/\/-/\/-/\/-/\/-/\/
 72
    65
 73
     2
 40
11.0001
 49
0.0001
 74
     4
 75
   135
340
C24
 46
0.04
 50
0.0
 44
0.0
 45
0.0
 49
-11.0
 74
     0
  0
ENDTAB
  0
TABLE
  2
LAYER
  5
2
330
0
100
AcDbSymbolTable
 70
    25
  0
LAYER
  5
10
330
2
100
AcDbSymbolTableRecord
100
AcDbLayerTableRecord
  2
0
 70
     0
 62
     7
  6
Continuous
370
    -3
390
F
  0
LAYER
  5
1C5
330
2
100
AcDbSymbolTableRecord
100
AcDbLayerTableRecord
  2
PAKSU
 70
     0
 62
     3
  6
Continuous
370
    -3
390
F
  0
LAYER
  5
1C6
330
2
100
AcDbSymbolTableRecord
100
AcDbLayerTableRecord
  2
RAAMI
 70
     0
 62
     4
  6
Continuous
370
    -3
390
F
  0
LAYER
  5
1C7
330
2
100
AcDbSymbolTableRecord
100
AcDbLayerTableRecord
  2
OHUT
 70
     0
 62
     6
  6
Continuous
370
    -3
390
F
  0
LAYER
  5
1C8
330
2
100
AcDbSymbolTableRecord
100
AcDbLayerTableRecord
  2
KESKI
 70
     0
 62
     2
  6
Continuous
370
    -3
390
F
  0
LAYER
  5
1CA
330
2
100
AcDbSymbolTableRecord
100
AcDbLayerTableRecord
  2
KATKO07
 70
     0
 62
     1
  6
DASHED
370
    -3
390
F
  0
LAYER
  5
1CB
330
2
100
AcDbSymbolTableRecord
100
AcDbLayerTableRecord
  2
PISTKATK
 70
     0
 62
     7
  6
DASHDOT
370
    -3
390
F
  0
LAYER
  5
1CC
330
2
100
AcDbSymbolTableRecord
100
AcDbLayerTableRecord
  2
MITTA
 70
     4
 62
     1
  6
Continuous
370
    -3
390
F
  0
LAYER
  5
1CD
330
2
100
AcDbSymbolTableRecord
100
AcDbLayerTableRecord
  2
APU
 70
     0
 62
     1
  6
DOT
370
    -3
390
F
  0
LAYER
  5
1CE
330
2
100
AcDbSymbolTableRecord
100
AcDbLayerTableRecord
  2
TEXT25
 70
     0
 62
     1
  6
Continuous
370
    -3
390
F
  0
LAYER
  5
1CF
330
2
100
AcDbSymbolTableRecord
100
AcDbLayerTableRecord
  2
TEXT35
 70
     0
 62
     5
  6
Continuous
370
    -3
390
F
  0
LAYER
  5
1D0
330
2
100
AcDbSymbolTableRecord
100
AcDbLayerTableRecord
  2
TEXT5
 70
     0
 62
    14
  6
Continuous
370
    -3
390
F
  0
LAYER
  5
1D1
330
2
100
AcDbSymbolTableRecord
100
AcDbLayerTableRecord
  2
TEXT7
 70
     0
 62
     3
  6
Continuous
370
    -3
390
F
  0
LAYER
  5
1D2
330
2
100
AcDbSymbolTableRecord
100
AcDbLayerTableRecord
  2
TEXT
 70
     0
 62
     1
  6
Continuous
370
    -3
390
F
  0
LAYER
  5
1D3
330
2
100
AcDbSymbolTableRecord
100
AcDbLayerTableRecord
  2
AM_TR
 70
     0
 62
     7
  6
Continuous
370
    -3
390
F
  0
LAYER
  5
1D4
330
2
100
AcDbSymbolTableRecord
100
AcDbLayerTableRecord
  2
AM_BM
 70
     0
 62
     7
  6
Continuous
370
    -3
390
F
  0
LAYER
  5
1D5
330
2
100
AcDbSymbolTableRecord
100
AcDbLayerTableRecord
  2
AM_BL
 70
     0
 62
     7
  6
Continuous
370
    -3
390
F
  0
LAYER
  5
1D6
330
2
100
AcDbSymbolTableRecord
100
AcDbLayerTableRecord
  2
AM_VIEWS
 70
     0
 62
    -7
  6
Continuous
370
    -3
390
F
  0
LAYER
  5
1D7
330
2
100
AcDbSymbolTableRecord
100
AcDbLayerTableRecord
  2
AM_PARDIM
 70
     0
 62
     3
  6
Continuous
370
    -3
390
F
  0
LAYER
  5
1D8
330
2
100
AcDbSymbolTableRecord
100
AcDbLayerTableRecord
  2
AM_REFDIM
 70
     0
 62
     4
  6
Continuous
370
    -3
390
F
  0
LAYER
  5
1D9
330
2
100
AcDbSymbolTableRecord
100
AcDbLayerTableRecord
  2
AM_VIS
 70
     0
 62
     7
  6
Continuous
370
    -3
390
F
  0
LAYER
  5
1DA
330
2
100
AcDbSymbolTableRecord
100
AcDbLayerTableRecord
  2
AM_HID
 70
     0
 62
     6
  6
gen3
370
    -3
390
F
  0
LAYER
  5
AFF
330
2
100
AcDbSymbolTableRecord
100
AcDbLayerTableRecord
  2
MUOTOVIIVA
 70
     0
 62
     3
  6
Continuous
370
    -3
390
F
  0
LAYER
  5
B00
330
2
100
AcDbSymbolTableRecord
100
AcDbLayerTableRecord
  2
OHUTVIIVA
 70
     0
 62
     6
  6
Continuous
370
     0
390
F
  0
LAYER
  5
C2E
330
2
100
AcDbSymbolTableRecord
100
AcDbLayerTableRecord
  2
TEKSTI1.4
 70
     0
 62
     4
  6
Continuous
370
     0
390
F
1001
RAK
1000
{LAYER_STATE1
1070
     0
1070
     4
1000
CONTINUOUS
1071
        0
1071
        1
1005
F
1000
LAYER_STATE1}
  0
ENDTAB
  0
TABLE
  2
STYLE
  5
3
330
0
100
AcDbSymbolTable
 70
    11
  0
STYLE
  5
11
330
3
100
AcDbSymbolTableRecord
100
AcDbTextStyleTableRecord
  2
Standard
 70
     0
 40
0.0
 41
1.0
 50
0.0
 71
     0
 42
2.0
  3
txt
  4

  0
STYLE
  5
1DB
330
3
100
AcDbSymbolTableRecord
100
AcDbTextStyleTableRecord
  2
ROMANS
 70
     0
 40
0.0
 41
1.0
 50
0.0
 71
     0
 42
3.0
  3
romans
  4

  0
STYLE
  5
1DC
330
3
100
AcDbSymbolTableRecord
100
AcDbTextStyleTableRecord
  2
T7
 70
     0
 40
7.0
 41
0.9
 50
0.0
 71
     0
 42
0.2
  3
ROMANS
  4

  0
STYLE
  5
1DD
330
3
100
AcDbSymbolTableRecord
100
AcDbTextStyleTableRecord
  2
T5
 70
     0
 40
5.0
 41
0.9
 50
0.0
 71
     0
 42
0.2
  3
ROMANS
  4

  0
STYLE
  5
1DE
330
3
100
AcDbSymbolTableRecord
100
AcDbTextStyleTableRecord
  2
T35
 70
     0
 40
3.5
 41
0.9
 50
0.0
 71
     0
 42
0.2
  3
ROMANS
  4

  0
STYLE
  5
1DF
330
3
100
AcDbSymbolTableRecord
100
AcDbTextStyleTableRecord
  2
T25
 70
     0
 40
2.5
 41
0.9
 50
0.0
 71
     0
 42
2.5
  3
romans.shx
  4

  0
STYLE
  5
374
330
3
100
AcDbSymbolTableRecord
100
AcDbTextStyleTableRecord
  2
ACANSGDT
 70
     0
 40
0.0
 41
1.0
 50
0.0
 71
     0
 42
1.0
  3
amgdt.shx
  4

  0
STYLE
  5
B33
330
3
100
AcDbSymbolTableRecord
100
AcDbTextStyleTableRecord
  2

 70
     1
 40
0.0
 41
1.0
 50
0.0
 71
     0
 42
3.0
  3
genltshp.shx
  4

  0
STYLE
  5
BF1
330
3
100
AcDbSymbolTableRecord
100
AcDbTextStyleTableRecord
  2
ACISOTS
 70
     0
 40
1.0
 41
1.0
 50
0.0
 71
     0
 42
3.0
  3
isocp.shx
  4

  0
STYLE
  5
BF5
330
3
100
AcDbSymbolTableRecord
100
AcDbTextStyleTableRecord
  2
ACISOGDT
 70
     0
 40
0.0
 41
1.0
 50
0.0
 71
     0
 42
3.0
  3
amgdt.shx
  4

  0
STYLE
  5
C24
330
3
100
AcDbSymbolTableRecord
100
AcDbTextStyleTableRecord
  2

 70
     1
 40
0.0
 41
1.0
 50
0.0
 71
     0
 42
2.5
  3
ltypeshp.shx
  4

  0
ENDTAB
  0
TABLE
  2
VIEW
  5
6
330
0
100
AcDbSymbolTable
 70
     0
  0
ENDTAB
  0
TABLE
  2
UCS
  5
7
330
0
100
AcDbSymbolTable
 70
     0
  0
ENDTAB
  0
TABLE
  2
APPID
  5
9
330
0
100
AcDbSymbolTable
 70
    23
  0
APPID
  5
12
330
9
100
AcDbSymbolTableRecord
100
AcDbRegAppTableRecord
  2
ACAD
 70
     0
  0
APPID
  5
1E1
330
9
100
AcDbSymbolTableRecord
100
AcDbRegAppTableRecord
  2
GENIUS_GENCFG_13
 70
     0
1001
GENIUS_GEVCFG0_13
1000
GEV
1001
GENIUS_GENCFG0_13
1000
GEN@INFO_POS@XLATE
1001
GENIUS_GENCFG1_13
1000
GEN@LAYER@DEFS
1001
GENIUS_GENCFG2_13
1000
GEN@LAYER@ENTSORT
1001
GENIUS_GENCFG3_13
1000
GEN@OSWIZ
1001
GENIUS_GENCFG4_13
1000
GEN
1001
GENIUS_GE3CFG0_13
1000
GE3
1001
GENIUS_GENCFG5_13
1000
GEN@INFO_POS
  0
APPID
  5
1E2
330
9
100
AcDbSymbolTableRecord
100
AcDbRegAppTableRecord
  2
GENIUS_GEVCFG0_13
 70
     0
1001
GENIUS_GENCFG_13
1071
919852330
1000
404
1000
GEV
1070
     1
1000
GenCfgObject
1000
VED
1070
     0
1002
{
1002
}
  0
APPID
  5
1E3
330
9
100
AcDbSymbolTableRecord
100
AcDbRegAppTableRecord
  2
GENIUS_GENCFG0_13
 70
     0
1001
GENIUS_GENCFG_13
1071
919852330
1000
405
1000
GEN@INFO_POS@XLATE
1070
     7
1000
GenCfgObject
1000
GenCfgShort
1000
GenCfgReal
1000
GenCfgBool
1000
GenCfgString
1000
GenCfgDim
1000
GenCfgAttrInf
1000
INFOPOINTS
1070
     0
1002
{
1000
GENINF14
1070
     0
1002
{
1000
2GENINF
1070
     4
1000
2
1002
{
1002
}
1000
3GENINF
1070
     4
1000
3
1002
{
1002
}
1000
4GENINF
1070
     4
1000
4
1002
{
1002
}
1000
5GENINF
1070
     4
1000
5
1002
{
1002
}
1000
6GENINF
1070
     4
1000
6
1002
{
1002
}
1000
7GENINF
1070
     4
1000
7
1002
{
1002
}
1000
8GENINF
1070
     4
1000
8
1002
{
1002
}
1000
9GENINF
1070
     4
1000
9
1002
{
1002
}
1000
10GENINF
1070
     4
1000
10
1002
{
1002
}
1000
11GENINF
1070
     4
1000
11
1002
{
1002
}
1000
12GENINF
1070
     4
1000
12
1002
{
1002
}
1000
13GENINF
1070
     4
1000
13
1002
{
1002
}
1000
14GENINF
1070
     4
1000
14
1002
{
1002
}
1000
15GENINF
1070
     4
1000
15
1002
{
1002
}
1000
16GENINF
1070
     4
1000
16
1002
{
1002
}
1000
17GENINF
1070
     4
1000
17
1002
{
1002
}
1000
18GENINF
1070
     4
1000
18
1002
{
1002
}
1000
19GENINF
1070
     4
1000
19
1002
{
1002
}
1000
20GENINF
1070
     4
1000
20
1002
{
1002
}
1000
21GENINF
1070
     4
1000
21
1002
{
1002
}
1000
22GENINF
1070
     4
1000
22
1002
{
1002
}
1000
23GENINF
1070
     4
1000
23
1002
{
1002
}
1000
24GENINF
1070
     4
1000
24
1002
{
1002
}
1000
25GENINF
1070
     4
1000
25
1002
{
1002
}
1000
26GENINF
1070
     4
1000
26
1002
{
1002
}
1000
27GENINF
1070
     4
1000
27
1002
{
1002
}
1000
0GENINF
1070
     4
1000
0
1002
{
1002
}
1002
}
1000
GENINF13
1070
     0
1002
{
1000
2GENINF
1070
     4
1000
2
1002
{
1002
}
1000
3GENINF
1070
     4
1000
3
1002
{
1002
}
1000
4GENINF
1070
     4
1000
4
1002
{
1002
}
1000
5GENINF
1070
     4
1000
5
1002
{
1002
}
1000
6GENINF
1070
     4
1000
6
1002
{
1002
}
1000
7GENINF
1070
     4
1000
7
1002
{
1002
}
1000
8GENINF
1070
     4
1000
8
1002
{
1002
}
1000
9GENINF
1070
     4
1000
9
1002
{
1002
}
1000
10GENINF
1070
     4
1000
10
1002
{
1002
}
1000
11GENINF
1070
     4
1000
11
1002
{
1002
}
1000
12GENINF
1070
     4
1000
12
1002
{
1002
}
1000
13GENINF
1070
     4
1000
13
1002
{
1002
}
1000
14GENINF
1070
     4
1000
14
1002
{
1002
}
1000
15GENINF
1070
     4
1000
15
1002
{
1002
}
1000
16GENINF
1070
     4
1000
16
1002
{
1002
}
1000
17GENINF
1070
     4
1000
17
1002
{
1002
}
1000
18GENINF
1070
     4
1000
18
1002
{
1002
}
1000
19GENINF
1070
     4
1000
19
1002
{
1002
}
1000
20GENINF
1070
     4
1000
20
1002
{
1002
}
1000
21GENINF
1070
     4
1000
21
1002
{
1002
}
1000
22GENINF
1070
     4
1000
22
1002
{
1002
}
1000
23GENINF
1070
     4
1000
23
1002
{
1002
}
1000
24GENINF
1070
     4
1000
24
1002
{
1002
}
1000
0GENINF
1070
     4
1000
0
1002
{
1002
}
1002
}
1000
GENINFO
1070
     0
1002
{
1000
3GENINF
1070
     4
1000
3
1002
{
1002
}
1000
4GENINF
1070
     4
1000
4
1002
{
1002
}
1000
5GENINF
1070
     4
1000
5
1002
{
1002
}
1000
6GENINF
1070
     4
1000
6
1002
{
1002
}
1000
7GENINF
1070
     4
1000
7
1002
{
1002
}
1000
8GENINF
1070
     4
1000
8
1002
{
1002
}
1000
9GENINF
1070
     4
1000
9
1002
{
1002
}
1000
10GENINF
1070
     4
1000
10
1002
{
1002
}
1000
11GENINF
1070
     4
1000
11
1002
{
1002
}
1000
12GENINF
1070
     4
1000
12
1002
{
1002
}
1000
13GENINF
1070
     4
1000
13
1002
{
1002
}
1000
14GENINF
1070
     4
1000
14
1002
{
1002
}
1000
15GENINF
1070
     4
1000
15
1002
{
1002
}
1000
16GENINF
1070
     4
1000
16
1002
{
1002
}
1000
17GENINF
1070
     4
1000
17
1002
{
1002
}
1000
18GENINF
1070
     4
1000
18
1002
{
1002
}
1000
19GENINF
1070
     4
1000
19
1002
{
1002
}
1000
20GENINF
1070
     4
1000
20
1002
{
1002
}
1000
21GENINF
1070
     4
1000
21
1002
{
1002
}
1000
22GENINF
1070
     4
1000
22
1002
{
1002
}
1002
}
1000
DININFO
1070
     0
1002
{
1000
ST-NAME1
1070
     4
1000
5
1002
{
1002
}
1000
ST-NAME2
1070
     4
1000
6
1002
{
1002
}
1000
ST-NORM1
1070
     4
1000
7
1002
{
1002
}
1000
ST-NORM2
1070
     4
1000
8
1002
{
1002
}
1000
ST-MAT1
1070
     4
1000
9
1002
{
1002
}
1000
ST-MAT2
1070
     4
1000
10
1002
{
1002
}
1002
}
1002
}
1000
POS_NUMBERS
1070
     0
1002
{
1000
GENPOS14
1070
     0
1002
{
1000
1GENPOS
1070
     4
1000
1
1002
{
1002
}
1000
2GENPOS
1070
     4
1000
2
1002
{
1002
}
1000
3GENPOS
1070
     4
1000
3
1002
{
1002
}
1000
4GENPOS
1070
     4
1000
4
1002
{
1002
}
1000
5GENPOS
1070
     4
1000
5
1002
{
1002
}
1000
6GENPOS
1070
     4
1000
6
1002
{
1002
}
1000
7GENPOS
1070
     4
1000
7
1002
{
1002
}
1000
8GENPOS
1070
     4
1000
8
1002
{
1002
}
1000
9GENPOS
1070
     4
1000
9
1002
{
1002
}
1000
10GENPOS
1070
     4
1000
10
1002
{
1002
}
1000
11GENPOS
1070
     4
1000
11
1002
{
1002
}
1000
12GENPOS
1070
     4
1000
12
1002
{
1002
}
1000
13GENPOS
1070
     4
1000
13
1002
{
1002
}
1000
14GENPOS
1070
     4
1000
14
1002
{
1002
}
1000
15GENPOS
1070
     4
1000
15
1002
{
1002
}
1000
16GENPOS
1070
     4
1000
16
1002
{
1002
}
1000
17GENPOS
1070
     4
1000
17
1002
{
1002
}
1000
18GENPOS
1070
     4
1000
18
1002
{
1002
}
1000
19GENPOS
1070
     4
1000
19
1002
{
1002
}
1000
20GENPOS
1070
     4
1000
20
1002
{
1002
}
1000
21GENPOS
1070
     4
1000
21
1002
{
1002
}
1000
22GENPOS
1070
     4
1000
22
1002
{
1002
}
1000
23GENPOS
1070
     4
1000
23
1002
{
1002
}
1000
24GENPOS
1070
     4
1000
24
1002
{
1002
}
1000
25GENPOS
1070
     4
1000
25
1002
{
1002
}
1000
26GENPOS
1070
     4
1000
26
1002
{
1002
}
1000
27GENPOS
1070
     4
1000
27
1002
{
1002
}
1000
0GENPOS
1070
     4
1000
0
1002
{
1002
}
1002
}
1000
GENPOS13
1070
     0
1002
{
1000
1GENPOS
1070
     4
1000
1
1002
{
1002
}
1000
2GENPOS
1070
     4
1000
2
1002
{
1002
}
1000
3GENPOS
1070
     4
1000
3
1002
{
1002
}
1000
4GENPOS
1070
     4
1000
4
1002
{
1002
}
1000
5GENPOS
1070
     4
1000
5
1002
{
1002
}
1000
6GENPOS
1070
     4
1000
6
1002
{
1002
}
1000
7GENPOS
1070
     4
1000
7
1002
{
1002
}
1000
8GENPOS
1070
     4
1000
8
1002
{
1002
}
1000
9GENPOS
1070
     4
1000
9
1002
{
1002
}
1000
10GENPOS
1070
     4
1000
10
1002
{
1002
}
1000
11GENPOS
1070
     4
1000
11
1002
{
1002
}
1000
12GENPOS
1070
     4
1000
12
1002
{
1002
}
1000
13GENPOS
1070
     4
1000
13
1002
{
1002
}
1000
14GENPOS
1070
     4
1000
14
1002
{
1002
}
1000
15GENPOS
1070
     4
1000
15
1002
{
1002
}
1000
16GENPOS
1070
     4
1000
16
1002
{
1002
}
1000
17GENPOS
1070
     4
1000
17
1002
{
1002
}
1000
18GENPOS
1070
     4
1000
18
1002
{
1002
}
1000
19GENPOS
1070
     4
1000
19
1002
{
1002
}
1000
20GENPOS
1070
     4
1000
20
1002
{
1002
}
1000
21GENPOS
1070
     4
1000
21
1002
{
1002
}
1000
22GENPOS
1070
     4
1000
22
1002
{
1002
}
1000
23GENPOS
1070
     4
1000
23
1002
{
1002
}
1000
24GENPOS
1070
     4
1000
24
1002
{
1002
}
1000
0GENPOS
1070
     4
1000
0
1002
{
1002
}
1002
}
1000
GENPOS
1070
     0
1002
{
1000
1GENPOS
1070
     4
1000
1
1002
{
1002
}
1000
2GENPOS
1070
     4
1000
2
1002
{
1002
}
1000
3GENPOS
1070
     4
1000
3
1002
{
1002
}
1000
4GENPOS
1070
     4
1000
4
1002
{
1002
}
1000
5GENPOS
1070
     4
1000
5
1002
{
1002
}
1000
6GENPOS
1070
     4
1000
6
1002
{
1002
}
1000
7GENPOS
1070
     4
1000
7
1002
{
1002
}
1000
8GENPOS
1070
     4
1000
8
1002
{
1002
}
1000
9GENPOS
1070
     4
1000
9
1002
{
1002
}
1000
10GENPOS
1070
     4
1000
10
1002
{
1002
}
1000
11GENPOS
1070
     4
1000
11
1002
{
1002
}
1000
12GENPOS
1070
     4
1000
12
1002
{
1002
}
1000
13GENPOS
1070
     4
1000
13
1002
{
1002
}
1000
14GENPOS
1070
     4
1000
14
1002
{
1002
}
1000
15GENPOS
1070
     4
1000
15
1002
{
1002
}
1000
16GENPOS
1070
     4
1000
16
1002
{
1002
}
1000
17GENPOS
1070
     4
1000
17
1002
{
1002
}
1000
18GENPOS
1070
     4
1000
18
1002
{
1002
}
1000
19GENPOS
1070
     4
1000
19
1002
{
1002
}
1000
20GENPOS
1070
     4
1000
20
1002
{
1002
}
1000
21GENPOS
1070
     4
1000
21
1002
{
1002
}
1000
22GENPOS
1070
     4
1000
22
1002
{
1002
}
1000
23GENPOS
1070
     4
1000
23
1002
{
1002
}
1002
}
1000
DIN985
1070
     0
1002
{
1000
POSITION
1070
     4
1000
1
1002
{
1002
}
1000
MENGE
1070
     4
1000
2
1002
{
1002
}
1000
BLATT
1070
     4
1000
3
1002
{
1002
}
1000
BENENN
1070
     4
1000
5
1002
{
1002
}
1000
BENENN2
1070
     4
1000
6
1002
{
1002
}
1000
NORM
1070
     4
1000
7
1002
{
1002
}
1000
NORM2
1070
     4
1000
8
1002
{
1002
}
1000
WERKSTOFF
1070
     4
1000
9
1002
{
1002
}
1000
WERKSTOFF2
1070
     4
1000
10
1002
{
1002
}
1002
}
1000
DIN986
1070
     0
1002
{
1000
POSITION
1070
     4
1000
1
1002
{
1002
}
1000
MENGE
1070
     4
1000
2
1002
{
1002
}
1000
BLATT
1070
     4
1000
3
1002
{
1002
}
1000
BENENN
1070
     4
1000
5
1002
{
1002
}
1000
BENENN2
1070
     4
1000
6
1002
{
1002
}
1000
NORM
1070
     4
1000
7
1002
{
1002
}
1000
NORM2
1070
     4
1000
8
1002
{
1002
}
1000
WERKSTOFF
1070
     4
1000
9
1002
{
1002
}
1000
WERKSTOFF2
1070
     4
1000
10
1002
{
1002
}
1002
}
1000
DIN987
1070
     0
1002
{
1000
POSITION
1070
     4
1000
1
1002
{
1002
}
1000
MENGE
1070
     4
1000
2
1002
{
1002
}
1000
BLATT
1070
     4
1000
3
1002
{
1002
}
1000
BENENN
1070
     4
1000
5
1002
{
1002
}
1000
BENENN2
1070
     4
1000
6
1002
{
1002
}
1000
NORM
1070
     4
1000
7
1002
{
1002
}
1000
NORM2
1070
     4
1000
8
1002
{
1002
}
1000
WERKSTOFF
1070
     4
1000
9
1002
{
1002
}
1000
WERKSTOFF2
1070
     4
1000
10
1002
{
1002
}
1002
}
1002
}
  0
APPID
  5
1E4
330
9
100
AcDbSymbolTableRecord
100
AcDbRegAppTableRecord
  2
GENIUS_GENCFG1_13
 70
     0
1001
GENIUS_GENCFG_13
1071
919852330
1000
406
1000
GEN@LAYER@DEFS
1070
     9
1000
GenCfgObject
1000
GenCfgShort
1000
GenCfgReal
1000
GenCfgBool
1000
GenCfgString
1000
GenCfgDim
1000
GenCfgAttrInf
1000
GenCfgLaySection
1000
GenCfgLayer
1000
Basic
1070
     0
1002
{
1000
0
1070
     8
1000
0
1002
{
1000
Color
1070
     1
1070
     7
1002
{
1002
}
1000
LType
1070
     4
1000
CONTINUOUS
1002
{
1002
}
1000
Base
1070
     3
1070
     0
1002
{
1002
}
1002
}
1000
1
1070
     8
1000
1
1002
{
1000
Color
1070
     1
1070
    14
1002
{
1002
}
1000
LType
1070
     4
1000
CONTINUOUS
1002
{
1002
}
1000
Base
1070
     3
1070
     0
1002
{
1002
}
1002
}
1000
2
1070
     8
1000
2
1002
{
1000
Color
1070
     1
1070
     5
1002
{
1002
}
1000
LType
1070
     4
1000
CONTINUOUS
1002
{
1002
}
1000
Base
1070
     3
1070
     0
1002
{
1002
}
1002
}
1000
3
1070
     8
1000
3
1002
{
1000
Color
1070
     1
1070
     6
1002
{
1002
}
1000
LType
1070
     4
1000
GEN3
1002
{
1002
}
1000
Base
1070
     3
1070
     0
1002
{
1002
}
1002
}
1000
4
1070
     8
1000
4
1002
{
1000
Color
1070
     1
1070
     3
1002
{
1002
}
1000
LType
1070
     4
1000
CONTINUOUS
1002
{
1002
}
1000
Base
1070
     3
1070
     0
1002
{
1002
}
1002
}
1000
5
1070
     8
1000
5
1002
{
1000
Color
1070
     1
1070
     3
1002
{
1002
}
1000
LType
1070
     4
1000
CONTINUOUS
1002
{
1002
}
1000
Base
1070
     3
1070
     0
1002
{
1002
}
1002
}
1000
6
1070
     8
1000
6
1002
{
1000
Color
1070
     1
1070
     2
1002
{
1002
}
1000
LType
1070
     4
1000
CONTINUOUS
1002
{
1002
}
1000
Base
1070
     3
1070
     0
1002
{
1002
}
1002
}
1000
7
1070
     8
1000
7
1002
{
1000
Color
1070
     1
1070
     4
1002
{
1002
}
1000
LType
1070
     4
1000
GEN7
1002
{
1002
}
1000
Base
1070
     3
1070
     0
1002
{
1002
}
1002
}
1000
8
1070
     8
1000
8
1002
{
1000
Color
1070
     1
1070
     1
1002
{
1002
}
1000
LType
1070
     4
1000
CONTINUOUS
1002
{
1002
}
1000
Base
1070
     3
1070
     0
1002
{
1002
}
1002
}
1000
3A
1070
     8
1000
3A
1002
{
1000
Color
1070
     1
1070
     6
1002
{
1002
}
1000
LType
1070
     4
1000
GEN3A
1002
{
1002
}
1000
Base
1070
     3
1070
     0
1002
{
1002
}
1002
}
1000
7A
1070
     8
1000
7A
1002
{
1000
Color
1070
     1
1070
     4
1002
{
1002
}
1000
LType
1070
     4
1000
GEN7A
1002
{
1002
}
1000
Base
1070
     3
1070
     0
1002
{
1002
}
1002
}
1000
2A
1070
     8
1000
2A
1002
{
1000
Color
1070
     1
1070
     7
1002
{
1002
}
1000
LType
1070
     4
1000
GEN7
1002
{
1002
}
1000
Base
1070
     3
1070
     0
1002
{
1002
}
1002
}
1000
4A
1070
     8
1000
4A
1002
{
1000
Color
1070
     1
1070
     3
1002
{
1002
}
1000
LType
1070
     4
1000
GEN4A
1002
{
1002
}
1000
Base
1070
     3
1070
     0
1002
{
1002
}
1002
}
1000
9
1070
     8
1000
9
1002
{
1000
Color
1070
     1
1070
   253
1002
{
1002
}
1000
LType
1070
     4
1000
CONTINUOUS
1002
{
1002
}
1000
Base
1070
     3
1070
     0
1002
{
1002
}
1002
}
1000
IP
1070
     8
1000
IP
1002
{
1000
Color
1070
     1
1070
     7
1002
{
1002
}
1000
LType
1070
     4
1000
CONTINUOUS
1002
{
1002
}
1000
Base
1070
     3
1070
     0
1002
{
1002
}
1002
}
1002
}
1000
Standard
1070
     0
1002
{
1000
0N
1070
     8
1000
0N
1002
{
1000
Color
1070
     1
1070
     7
1002
{
1002
}
1000
LType
1070
     4
1000
CONTINUOUS
1002
{
1002
}
1000
Base
1070
     3
1070
     0
1002
{
1002
}
1002
}
1000
1N
1070
     8
1000
1N
1002
{
1000
Color
1070
     1
1070
    14
1002
{
1002
}
1000
LType
1070
     4
1000
CONTINUOUS
1002
{
1002
}
1000
Base
1070
     3
1070
     0
1002
{
1002
}
1002
}
1000
2N
1070
     8
1000
2N
1002
{
1000
Color
1070
     1
1070
     5
1002
{
1002
}
1000
LType
1070
     4
1000
CONTINUOUS
1002
{
1002
}
1000
Base
1070
     3
1070
     0
1002
{
1002
}
1002
}
1000
3N
1070
     8
1000
3N
1002
{
1000
Color
1070
     1
1070
     6
1002
{
1002
}
1000
LType
1070
     4
1000
GEN3
1002
{
1002
}
1000
Base
1070
     3
1070
     0
1002
{
1002
}
1002
}
1000
4N
1070
     8
1000
4N
1002
{
1000
Color
1070
     1
1070
     3
1002
{
1002
}
1000
LType
1070
     4
1000
CONTINUOUS
1002
{
1002
}
1000
Base
1070
     3
1070
     0
1002
{
1002
}
1002
}
1000
5N
1070
     8
1000
5N
1002
{
1000
Color
1070
     1
1070
     3
1002
{
1002
}
1000
LType
1070
     4
1000
CONTINUOUS
1002
{
1002
}
1000
Base
1070
     3
1070
     0
1002
{
1002
}
1002
}
1000
6N
1070
     8
1000
6N
1002
{
1000
Color
1070
     1
1070
     2
1002
{
1002
}
1000
LType
1070
     4
1000
CONTINUOUS
1002
{
1002
}
1000
Base
1070
     3
1070
     0
1002
{
1002
}
1002
}
1000
7N
1070
     8
1000
7N
1002
{
1000
Color
1070
     1
1070
     4
1002
{
1002
}
1000
LType
1070
     4
1000
GEN7
1002
{
1002
}
1000
Base
1070
     3
1070
     0
1002
{
1002
}
1002
}
1000
8N
1070
     8
1000
8N
1002
{
1000
Color
1070
     1
1070
     1
1002
{
1002
}
1000
LType
1070
     4
1000
CONTINUOUS
1002
{
1002
}
1000
Base
1070
     3
1070
     0
1002
{
1002
}
1002
}
1000
3AN
1070
     8
1000
3AN
1002
{
1000
Color
1070
     1
1070
     6
1002
{
1002
}
1000
LType
1070
     4
1000
GEN3A
1002
{
1002
}
1000
Base
1070
     3
1070
     0
1002
{
1002
}
1002
}
1000
7AN
1070
     8
1000
7AN
1002
{
1000
Color
1070
     1
1070
     4
1002
{
1002
}
1000
LType
1070
     4
1000
GEN7A
1002
{
1002
}
1000
Base
1070
     3
1070
     0
1002
{
1002
}
1002
}
1000
2AN
1070
     8
1000
2AN
1002
{
1000
Color
1070
     1
1070
     7
1002
{
1002
}
1000
LType
1070
     4
1000
GEN7
1002
{
1002
}
1000
Base
1070
     3
1070
     0
1002
{
1002
}
1002
}
1000
4AN
1070
     8
1000
4AN
1002
{
1000
Color
1070
     1
1070
     3
1002
{
1002
}
1000
LType
1070
     4
1000
GEN4A
1002
{
1002
}
1000
Base
1070
     3
1070
     0
1002
{
1002
}
1002
}
1000
9N
1070
     8
1000
9N
1002
{
1000
Color
1070
     1
1070
   253
1002
{
1002
}
1000
LType
1070
     4
1000
CONTINUOUS
1002
{
1002
}
1000
Base
1070
     3
1070
     0
1002
{
1002
}
1002
}
1000
IPN
1070
     8
1000
IPN
1002
{
1000
Color
1070
     1
1070
     7
1002
{
1002
}
1000
LType
1070
     4
1000
CONTINUOUS
1002
{
1002
}
1000
Base
1070
     3
1070
     0
1002
{
1002
}
1002
}
1002
}
1000
Extra
1070
     0
1002
{
1000
Klin
1070
     8
1000
KLIN
1002
{
1000
Color
1070
     1
1070
     1
1002
{
1002
}
1000
LType
1070
     4
1000
GEN3
1002
{
1002
}
1000
Base
1070
     3
1070
     1
1002
{
1002
}
1002
}
1000
Info
1070
     8
1000
INFO
1002
{
1000
Color
1070
     1
1070
     4
1002
{
1002
}
1000
LType
1070
     4
1000
CONTINUOUS
1002
{
1002
}
1000
Base
1070
     3
1070
     1
1002
{
1002
}
1002
}
1000
Rahm2
1070
     8
1000
RAHM2
1002
{
1000
Color
1070
     1
1070
     1
1002
{
1002
}
1000
LType
1070
     4
1000
CONTINUOUS
1002
{
1002
}
1000
Base
1070
     3
1070
     1
1002
{
1002
}
1002
}
1000
Rahm3
1070
     8
1000
RAHM3
1002
{
1000
Color
1070
     1
1070
     2
1002
{
1002
}
1000
LType
1070
     4
1000
CONTINUOUS
1002
{
1002
}
1000
Base
1070
     3
1070
     1
1002
{
1002
}
1002
}
1000
Rahm5
1070
     8
1000
RAHM5
1002
{
1000
Color
1070
     1
1070
     7
1002
{
1002
}
1000
LType
1070
     4
1000
CONTINUOUS
1002
{
1002
}
1000
Base
1070
     3
1070
     1
1002
{
1002
}
1002
}
1000
View
1070
     8
1000
VIEW
1002
{
1000
Color
1070
     1
1070
     1
1002
{
1002
}
1000
LType
1070
     4
1000
CONTINUOUS
1002
{
1002
}
1000
Base
1070
     3
1070
     1
1002
{
1002
}
1002
}
1000
Behind
1070
     8
1000
BEHIND
1002
{
1000
Color
1070
     1
1070
   253
1002
{
1002
}
1000
LType
1070
     4
1000
CONTINUOUS
1002
{
1002
}
1000
Base
1070
     3
1070
     1
1002
{
1002
}
1002
}
1002
}
  0
APPID
  5
1E5
330
9
100
AcDbSymbolTableRecord
100
AcDbRegAppTableRecord
  2
GENIUS_GENCFG2_13
 70
     0
1001
GENIUS_GENCFG_13
1071
919852330
1000
407
1000
GEN@LAYER@ENTSORT
1070
    10
1000
GenCfgObject
1000
GenCfgShort
1000
GenCfgReal
1000
GenCfgBool
1000
GenCfgString
1000
GenCfgDim
1000
GenCfgAttrInf
1000
GenCfgLaySection
1000
GenCfgLayer
1000
GenCfgEntSort
1000
ADDL
1070
     9
1000
5
1002
{
1000
Class
1070
     4
1000
SYM
1002
{
1002
}
1000
Color
1070
     1
1070
     1
1002
{
1002
}
1000
LType
1070
     4
1000
BYLAYER
1002
{
1002
}
1002
}
1000
ALTR
1070
     9
1000
4
1002
{
1000
Class
1070
     4
1000

1002
{
1002
}
1000
Color
1070
     1
1070
     7
1002
{
1002
}
1000
LType
1070
     4
1000
GEN3A
1002
{
1002
}
1002
}
1000
BELI
1070
     9
1000
4
1002
{
1000
Class
1070
     4
1000

1002
{
1002
}
1000
Color
1070
     1
1070
   256
1002
{
1002
}
1000
LType
1070
     4
1000
BYLAYER
1002
{
1002
}
1002
}
1000
BHNV
1070
     9
1000
9
1002
{
1000
Class
1070
     4
1000
INV
1002
{
1002
}
1000
Color
1070
     1
1070
   256
1002
{
1002
}
1000
LType
1070
     4
1000
BYLAYER
1002
{
1002
}
1002
}
1000
BHNVS
1070
     9
1000
BEHIND
1002
{
1000
Class
1070
     4
1000
INV
1002
{
1002
}
1000
Color
1070
     1
1070
   256
1002
{
1002
}
1000
LType
1070
     4
1000
BYLAYER
1002
{
1002
}
1002
}
1000
BLID
1070
     9
1000
4A
1002
{
1000
Class
1070
     4
1000

1002
{
1002
}
1000
Color
1070
     1
1070
   256
1002
{
1002
}
1000
LType
1070
     4
1000
BYLAYER
1002
{
1002
}
1002
}
1000
BOAP
1070
     9
1000
4A
1002
{
1000
Class
1070
     4
1000

1002
{
1002
}
1000
Color
1070
     1
1070
   256
1002
{
1002
}
1000
LType
1070
     4
1000
BYLAYER
1002
{
1002
}
1002
}
1000
BOR2
1070
     9
1000
RAHM2
1002
{
1000
Class
1070
     4
1000
SPZ,SYM
1002
{
1002
}
1000
Color
1070
     1
1070
   256
1002
{
1002
}
1000
LType
1070
     4
1000
BYLAYER
1002
{
1002
}
1002
}
1000
BOR3
1070
     9
1000
RAHM3
1002
{
1000
Class
1070
     4
1000
SPZ,SYM
1002
{
1002
}
1000
Color
1070
     1
1070
   256
1002
{
1002
}
1000
LType
1070
     4
1000
BYLAYER
1002
{
1002
}
1002
}
1000
BOR5
1070
     9
1000
RAHM5
1002
{
1000
Class
1070
     4
1000
SPZ,SYM
1002
{
1002
}
1000
Color
1070
     1
1070
   256
1002
{
1002
}
1000
LType
1070
     4
1000
BYLAYER
1002
{
1002
}
1002
}
1000
BOR7
1070
     9
1000
RAHM5
1002
{
1000
Class
1070
     4
1000
SPZ,SYM
1002
{
1002
}
1000
Color
1070
     1
1070
     7
1002
{
1002
}
1000
LType
1070
     4
1000
CONTINUOUS
1002
{
1002
}
1002
}
1000
BPAP
1070
     9
1000
e
1002
{
1000
Class
1070
     4
1000

1002
{
1002
}
1000
Color
1070
     1
1070
   256
1002
{
1002
}
1000
LType
1070
     4
1000
BYLAYER
1002
{
1002
}
1002
}
1000
BPEX
1070
     9
1000
4A
1002
{
1000
Class
1070
     4
1000

1002
{
1002
}
1000
Color
1070
     1
1070
   256
1002
{
1002
}
1000
LType
1070
     4
1000
BYLAYER
1002
{
1002
}
1002
}
1000
BTDI
1070
     9
1000
5
1002
{
1000
Class
1070
     4
1000
DIM,SYM
1002
{
1002
}
1000
Color
1070
     1
1070
   256
1002
{
1002
}
1000
LType
1070
     4
1000
BYLAYER
1002
{
1002
}
1002
}
1000
CAL2
1070
     9
1000
4
1002
{
1000
Class
1070
     4
1000
SYM
1002
{
1002
}
1000
Color
1070
     1
1070
   256
1002
{
1002
}
1000
LType
1070
     4
1000
BYLAYER
1002
{
1002
}
1002
}
1000
CAL3
1070
     9
1000
4
1002
{
1000
Class
1070
     4
1000
SYM
1002
{
1002
}
1000
Color
1070
     1
1070
     2
1002
{
1002
}
1000
LType
1070
     4
1000
BYLAYER
1002
{
1002
}
1002
}
1000
CAL5
1070
     9
1000
4
1002
{
1000
Class
1070
     4
1000
SYM
1002
{
1002
}
1000
Color
1070
     1
1070
     7
1002
{
1002
}
1000
LType
1070
     4
1000
BYLAYER
1002
{
1002
}
1002
}
1000
CAL7
1070
     9
1000
4
1002
{
1000
Class
1070
     4
1000
SYM
1002
{
1002
}
1000
Color
1070
     1
1070
     5
1002
{
1002
}
1000
LType
1070
     4
1000
BYLAYER
1002
{
1002
}
1002
}
1000
CENN
1070
     9
1000
7A
1002
{
1000
Class
1070
     4
1000
CEN
1002
{
1002
}
1000
Color
1070
     1
1070
   256
1002
{
1002
}
1000
LType
1070
     4
1000
BYLAYER
1002
{
1002
}
1002
}
1000
CENW
1070
     9
1000
7
1002
{
1000
Class
1070
     4
1000
CEN
1002
{
1002
}
1000
Color
1070
     1
1070
   256
1002
{
1002
}
1000
LType
1070
     4
1000
BYLAYER
1002
{
1002
}
1002
}
1000
CLIN
1070
     9
1000
KLIN
1002
{
1000
Class
1070
     4
1000
SPZ
1002
{
1002
}
1000
Color
1070
     1
1070
   256
1002
{
1002
}
1000
LType
1070
     4
1000
BYLAYER
1002
{
1002
}
1002
}
1000
CON1
1070
     9
1000
0
1002
{
1000
Class
1070
     4
1000
CON,BGD
1002
{
1002
}
1000
Color
1070
     1
1070
   256
1002
{
1002
}
1000
LType
1070
     4
1000
BYLAYER
1002
{
1002
}
1002
}
1000
CON2
1070
     9
1000
1
1002
{
1000
Class
1070
     4
1000
CON,BGD
1002
{
1002
}
1000
Color
1070
     1
1070
   256
1002
{
1002
}
1000
LType
1070
     4
1000
BYLAYER
1002
{
1002
}
1002
}
1000
CON3
1070
     9
1000
2
1002
{
1000
Class
1070
     4
1000
CON,BGD
1002
{
1002
}
1000
Color
1070
     1
1070
   256
1002
{
1002
}
1000
LType
1070
     4
1000
BYLAYER
1002
{
1002
}
1002
}
1000
CON4
1070
     9
1000
2
1002
{
1000
Class
1070
     4
1000
CON,BGD
1002
{
1002
}
1000
Color
1070
     1
1070
   256
1002
{
1002
}
1000
LType
1070
     4
1000
BYLAYER
1002
{
1002
}
1002
}
1000
DERP
1070
     9
1000
4
1002
{
1000
Class
1070
     4
1000

1002
{
1002
}
1000
Color
1070
     1
1070
   256
1002
{
1002
}
1000
LType
1070
     4
1000
BYLAYER
1002
{
1002
}
1002
}
1000
DETA
1070
     9
1000
4
1002
{
1000
Class
1070
     4
1000

1002
{
1002
}
1000
Color
1070
     1
1070
   256
1002
{
1002
}
1000
LType
1070
     4
1000
BYLAYER
1002
{
1002
}
1002
}
1000
DIAG
1070
     9
1000
5
1002
{
1000
Class
1070
     4
1000
SYM
1002
{
1002
}
1000
Color
1070
     1
1070
   256
1002
{
1002
}
1000
LType
1070
     4
1000
BYLAYER
1002
{
1002
}
1002
}
1000
DILI
1070
     9
1000
5
1002
{
1000
Class
1070
     4
1000
DIM,SYM
1002
{
1002
}
1000
Color
1070
     1
1070
   256
1002
{
1002
}
1000
LType
1070
     4
1000
BYLAYER
1002
{
1002
}
1002
}
1000
DITO2
1070
     9
1000
5
1002
{
1000
Class
1070
     4
1000
DIM,SYM
1002
{
1002
}
1000
Color
1070
     1
1070
     3
1002
{
1002
}
1000
LType
1070
     4
1000
BYLAYER
1002
{
1002
}
1002
}
1000
DITO3
1070
     9
1000
5
1002
{
1000
Class
1070
     4
1000
DIM,SYM
1002
{
1002
}
1000
Color
1070
     1
1070
     2
1002
{
1002
}
1000
LType
1070
     4
1000
BYLAYER
1002
{
1002
}
1002
}
1000
DITX
1070
     9
1000
5
1002
{
1000
Class
1070
     4
1000
DIM,SYM
1002
{
1002
}
1000
Color
1070
     1
1070
     1
1002
{
1002
}
1000
LType
1070
     4
1000
CONTINUOUS
1002
{
1002
}
1002
}
1000
DIXL
1070
     9
1000
5
1002
{
1000
Class
1070
     4
1000
DIM,SYM
1002
{
1002
}
1000
Color
1070
     1
1070
   256
1002
{
1002
}
1000
LType
1070
     4
1000
BYLAYER
1002
{
1002
}
1002
}
1000
EXMP
1070
     9
1000
4A
1002
{
1000
Class
1070
     4
1000

1002
{
1002
}
1000
Color
1070
     1
1070
   256
1002
{
1002
}
1000
LType
1070
     4
1000
BYLAYER
1002
{
1002
}
1002
}
1000
FEMN
1070
     9
1000
8
1002
{
1000
Class
1070
     4
1000

1002
{
1002
}
1000
Color
1070
     1
1070
   256
1002
{
1002
}
1000
LType
1070
     4
1000
BYLAYER
1002
{
1002
}
1002
}
1000
FEMPN
1070
     9
1000
8
1002
{
1000
Class
1070
     4
1000
SYM
1002
{
1002
}
1000
Color
1070
     1
1070
     3
1002
{
1002
}
1000
LType
1070
     4
1000
BYLAYER
1002
{
1002
}
1002
}
1000
FEMSP
1070
     9
1000
4A
1002
{
1000
Class
1070
     4
1000

1002
{
1002
}
1000
Color
1070
     1
1070
   256
1002
{
1002
}
1000
LType
1070
     4
1000
CONTINUOUS
1002
{
1002
}
1002
}
1000
FEMST
1070
     9
1000
4A
1002
{
1000
Class
1070
     4
1000
SYM
1002
{
1002
}
1000
Color
1070
     1
1070
     3
1002
{
1002
}
1000
LType
1070
     4
1000
BYLAYER
1002
{
1002
}
1002
}
1000
FEMVN
1070
     9
1000
2
1002
{
1000
Class
1070
     4
1000
CON
1002
{
1002
}
1000
Color
1070
     1
1070
   256
1002
{
1002
}
1000
LType
1070
     4
1000
BYLAYER
1002
{
1002
}
1002
}
1000
FEMVT
1070
     9
1000
2
1002
{
1000
Class
1070
     4
1000
SYM
1002
{
1002
}
1000
Color
1070
     1
1070
     3
1002
{
1002
}
1000
LType
1070
     4
1000
BYLAYER
1002
{
1002
}
1002
}
1000
FLAT
1070
     9
1000
0
1002
{
1000
Class
1070
     4
1000

1002
{
1002
}
1000
Color
1070
     1
1070
   256
1002
{
1002
}
1000
LType
1070
     4
1000
BYLAYER
1002
{
1002
}
1002
}
1000
FRAR
1070
     9
1000
4A
1002
{
1000
Class
1070
     4
1000

1002
{
1002
}
1000
Color
1070
     1
1070
   256
1002
{
1002
}
1000
LType
1070
     4
1000
BYLAYER
1002
{
1002
}
1002
}
1000
GRLI
1070
     9
1000
5
1002
{
1000
Class
1070
     4
1000
SYM
1002
{
1002
}
1000
Color
1070
     1
1070
   256
1002
{
1002
}
1000
LType
1070
     4
1000
BYLAYER
1002
{
1002
}
1002
}
1000
GVLI
1070
     9
1000
4A
1002
{
1000
Class
1070
     4
1000

1002
{
1002
}
1000
Color
1070
     1
1070
   256
1002
{
1002
}
1000
LType
1070
     4
1000
BYLAYER
1002
{
1002
}
1002
}
1000
HATC
1070
     9
1000
8
1002
{
1000
Class
1070
     4
1000
HTC,BGD
1002
{
1002
}
1000
Color
1070
     1
1070
   256
1002
{
1002
}
1000
LType
1070
     4
1000
BYLAYER
1002
{
1002
}
1002
}
1000
HIDN
1070
     9
1000
3A
1002
{
1000
Class
1070
     4
1000
HID,BGD
1002
{
1002
}
1000
Color
1070
     1
1070
   256
1002
{
1002
}
1000
LType
1070
     4
1000
BYLAYER
1002
{
1002
}
1002
}
1000
HIDW
1070
     9
1000
3
1002
{
1000
Class
1070
     4
1000
HID,BGD
1002
{
1002
}
1000
Color
1070
     1
1070
   256
1002
{
1002
}
1000
LType
1070
     4
1000
BYLAYER
1002
{
1002
}
1002
}
1000
HLIN
1070
     9
1000
4
1002
{
1000
Class
1070
     4
1000
BGD
1002
{
1002
}
1000
Color
1070
     1
1070
   256
1002
{
1002
}
1000
LType
1070
     4
1000
BYLAYER
1002
{
1002
}
1002
}
1000
HOCN
1070
     9
1000
7A
1002
{
1000
Class
1070
     4
1000
CEN
1002
{
1002
}
1000
Color
1070
     1
1070
   256
1002
{
1002
}
1000
LType
1070
     4
1000
BYLAYER
1002
{
1002
}
1002
}
1000
HOCW
1070
     9
1000
7
1002
{
1000
Class
1070
     4
1000
CEN
1002
{
1002
}
1000
Color
1070
     1
1070
   256
1002
{
1002
}
1000
LType
1070
     4
1000
BYLAYER
1002
{
1002
}
1002
}
1000
INFO
1070
     9
1000
INFO
1002
{
1000
Class
1070
     4
1000
SPZ,SYM
1002
{
1002
}
1000
Color
1070
     1
1070
   256
1002
{
1002
}
1000
LType
1070
     4
1000
BYLAYER
1002
{
1002
}
1002
}
1000
LADI
1070
     9
1000
4
1002
{
1000
Class
1070
     4
1000
BGD
1002
{
1002
}
1000
Color
1070
     1
1070
   256
1002
{
1002
}
1000
LType
1070
     4
1000
BYLAYER
1002
{
1002
}
1002
}
1000
LEAD
1070
     9
1000
5
1002
{
1000
Class
1070
     4
1000
SYM
1002
{
1002
}
1000
Color
1070
     1
1070
   256
1002
{
1002
}
1000
LType
1070
     4
1000
BYLAYER
1002
{
1002
}
1002
}
1000
N_ADDL
1070
     9
1000
5N
1002
{
1000
Class
1070
     4
1000
SYM
1002
{
1002
}
1000
Color
1070
     1
1070
     1
1002
{
1002
}
1000
LType
1070
     4
1000
BYLAYER
1002
{
1002
}
1002
}
1000
N_BHNV
1070
     9
1000
9N
1002
{
1000
Class
1070
     4
1000
INV
1002
{
1002
}
1000
Color
1070
     1
1070
   256
1002
{
1002
}
1000
LType
1070
     4
1000
BYLAYER
1002
{
1002
}
1002
}
1000
N_CON1
1070
     9
1000
0N
1002
{
1000
Class
1070
     4
1000
CON,BGD
1002
{
1002
}
1000
Color
1070
     1
1070
   256
1002
{
1002
}
1000
LType
1070
     4
1000
BYLAYER
1002
{
1002
}
1002
}
1000
N_CON2
1070
     9
1000
1N
1002
{
1000
Class
1070
     4
1000
CON,BGD
1002
{
1002
}
1000
Color
1070
     1
1070
   256
1002
{
1002
}
1000
LType
1070
     4
1000
BYLAYER
1002
{
1002
}
1002
}
1000
N_CON3
1070
     9
1000
2N
1002
{
1000
Class
1070
     4
1000
CON,BGD
1002
{
1002
}
1000
Color
1070
     1
1070
   256
1002
{
1002
}
1000
LType
1070
     4
1000
BYLAYER
1002
{
1002
}
1002
}
1000
N_CON4
1070
     9
1000
2N
1002
{
1000
Class
1070
     4
1000
CON,BGD
1002
{
1002
}
1000
Color
1070
     1
1070
   256
1002
{
1002
}
1000
LType
1070
     4
1000
BYLAYER
1002
{
1002
}
1002
}
1000
N_CENN
1070
     9
1000
7AN
1002
{
1000
Class
1070
     4
1000
CEN
1002
{
1002
}
1000
Color
1070
     1
1070
   256
1002
{
1002
}
1000
LType
1070
     4
1000
BYLAYER
1002
{
1002
}
1002
}
1000
N_CENW
1070
     9
1000
7N
1002
{
1000
Class
1070
     4
1000
CEN
1002
{
1002
}
1000
Color
1070
     1
1070
   256
1002
{
1002
}
1000
LType
1070
     4
1000
BYLAYER
1002
{
1002
}
1002
}
1000
N_DILI
1070
     9
1000
5N
1002
{
1000
Class
1070
     4
1000
DIM,SYM
1002
{
1002
}
1000
Color
1070
     1
1070
   256
1002
{
1002
}
1000
LType
1070
     4
1000
BYLAYER
1002
{
1002
}
1002
}
1000
N_DITX
1070
     9
1000
5N
1002
{
1000
Class
1070
     4
1000
DIM,SYM
1002
{
1002
}
1000
Color
1070
     1
1070
     2
1002
{
1002
}
1000
LType
1070
     4
1000
CONTINUOUS
1002
{
1002
}
1002
}
1000
N_DIXL
1070
     9
1000
5N
1002
{
1000
Class
1070
     4
1000
DIM,SYM
1002
{
1002
}
1000
Color
1070
     1
1070
   256
1002
{
1002
}
1000
LType
1070
     4
1000
BYLAYER
1002
{
1002
}
1002
}
1000
N_HATC
1070
     9
1000
8N
1002
{
1000
Class
1070
     4
1000
HTC,BGD
1002
{
1002
}
1000
Color
1070
     1
1070
   256
1002
{
1002
}
1000
LType
1070
     4
1000
BYLAYER
1002
{
1002
}
1002
}
1000
N_HIDN
1070
     9
1000
3AN
1002
{
1000
Class
1070
     4
1000
HID,BGD
1002
{
1002
}
1000
Color
1070
     1
1070
   256
1002
{
1002
}
1000
LType
1070
     4
1000
BYLAYER
1002
{
1002
}
1002
}
1000
N_HIDW
1070
     9
1000
3N
1002
{
1000
Class
1070
     4
1000
HID,BGD
1002
{
1002
}
1000
Color
1070
     1
1070
   256
1002
{
1002
}
1000
LType
1070
     4
1000
BYLAYER
1002
{
1002
}
1002
}
1000
N_NGIP
1070
     9
1000
IPN
1002
{
1000
Class
1070
     4
1000

1002
{
1002
}
1000
Color
1070
     1
1070
   256
1002
{
1002
}
1000
LType
1070
     4
1000
BYLAYER
1002
{
1002
}
1002
}
1000
N_PHAN
1070
     9
1000
4AN
1002
{
1000
Class
1070
     4
1000

1002
{
1002
}
1000
Color
1070
     1
1070
   256
1002
{
1002
}
1000
LType
1070
     4
1000
BYLAYER
1002
{
1002
}
1002
}
1000
N_POSL
1070
     9
1000
5N
1002
{
1000
Class
1070
     4
1000
SYM
1002
{
1002
}
1000
Color
1070
     1
1070
   256
1002
{
1002
}
1000
LType
1070
     4
1000
BYLAYER
1002
{
1002
}
1002
}
1000
N_TCON
1070
     9
1000
0N
1002
{
1000
Class
1070
     4
1000
CON,BGD
1002
{
1002
}
1000
Color
1070
     1
1070
   256
1002
{
1002
}
1000
LType
1070
     4
1000
BYLAYER
1002
{
1002
}
1002
}
1000
N_THLI
1070
     9
1000
4N
1002
{
1000
Class
1070
     4
1000
BGD
1002
{
1002
}
1000
Color
1070
     1
1070
   256
1002
{
1002
}
1000
LType
1070
     4
1000
BYLAYER
1002
{
1002
}
1002
}
1000
N_TLEN
1070
     9
1000
0N
1002
{
1000
Class
1070
     4
1000
CON,BGD
1002
{
1002
}
1000
Color
1070
     1
1070
   256
1002
{
1002
}
1000
LType
1070
     4
1000
BYLAYER
1002
{
1002
}
1002
}
1000
N_TXT3
1070
     9
1000
6N
1002
{
1000
Class
1070
     4
1000
SYM
1002
{
1002
}
1000
Color
1070
     1
1070
   256
1002
{
1002
}
1000
LType
1070
     4
1000
BYLAYER
1002
{
1002
}
1002
}
1000
N_VPLI
1070
     9
1000
2AN
1002
{
1000
Class
1070
     4
1000

1002
{
1002
}
1000
Color
1070
     1
1070
   256
1002
{
1002
}
1000
LType
1070
     4
1000
BYLAYER
1002
{
1002
}
1002
}
1000
NGIP
1070
     9
1000
IP
1002
{
1000
Class
1070
     4
1000

1002
{
1002
}
1000
Color
1070
     1
1070
   256
1002
{
1002
}
1000
LType
1070
     4
1000
BYLAYER
1002
{
1002
}
1002
}
1000
PAL2
1070
     9
1000
RAHM2
1002
{
1000
Class
1070
     4
1000
SPZ,SYM
1002
{
1002
}
1000
Color
1070
     1
1070
   256
1002
{
1002
}
1000
LType
1070
     4
1000
BYLAYER
1002
{
1002
}
1002
}
1000
PAL3
1070
     9
1000
RAHM3
1002
{
1000
Class
1070
     4
1000
SPZ,SYM
1002
{
1002
}
1000
Color
1070
     1
1070
   256
1002
{
1002
}
1000
LType
1070
     4
1000
BYLAYER
1002
{
1002
}
1002
}
1000
PAL5
1070
     9
1000
RAHM5
1002
{
1000
Class
1070
     4
1000
SPZ,SYM
1002
{
1002
}
1000
Color
1070
     1
1070
   256
1002
{
1002
}
1000
LType
1070
     4
1000
BYLAYER
1002
{
1002
}
1002
}
1000
PAL7
1070
     9
1000
RAHM5
1002
{
1000
Class
1070
     4
1000
SPZ,SYM
1002
{
1002
}
1000
Color
1070
     1
1070
     7
1002
{
1002
}
1000
LType
1070
     4
1000
CONTINUOUS
1002
{
1002
}
1002
}
1000
PHAN
1070
     9
1000
4A
1002
{
1000
Class
1070
     4
1000

1002
{
1002
}
1000
Color
1070
     1
1070
   256
1002
{
1002
}
1000
LType
1070
     4
1000
BYLAYER
1002
{
1002
}
1002
}
1000
POSL
1070
     9
1000
5
1002
{
1000
Class
1070
     4
1000
SYM
1002
{
1002
}
1000
Color
1070
     1
1070
   256
1002
{
1002
}
1000
LType
1070
     4
1000
BYLAYER
1002
{
1002
}
1002
}
1000
POSN
1070
     9
1000
6
1002
{
1000
Class
1070
     4
1000
SYM
1002
{
1002
}
1000
Color
1070
     1
1070
     7
1002
{
1002
}
1000
LType
1070
     4
1000
BYLAYER
1002
{
1002
}
1002
}
1000
POSREF
1070
     9
1000
6
1002
{
1000
Class
1070
     4
1000
SYM
1002
{
1002
}
1000
Color
1070
     1
1070
     5
1002
{
1002
}
1000
LType
1070
     4
1000
BYLAYER
1002
{
1002
}
1002
}
1000
POSX
1070
     9
1000
5
1002
{
1000
Class
1070
     4
1000
SYM
1002
{
1002
}
1000
Color
1070
     1
1070
     2
1002
{
1002
}
1000
LType
1070
     4
1000
CONTINUOUS
1002
{
1002
}
1002
}
1000
PSEC
1070
     9
1000
4A
1002
{
1000
Class
1070
     4
1000

1002
{
1002
}
1000
Color
1070
     1
1070
   256
1002
{
1002
}
1000
LType
1070
     4
1000
BYLAYER
1002
{
1002
}
1002
}
1000
RCGN
1070
     9
1000
7A
1002
{
1000
Class
1070
     4
1000
CEN
1002
{
1002
}
1000
Color
1070
     1
1070
   256
1002
{
1002
}
1000
LType
1070
     4
1000
BYLAYER
1002
{
1002
}
1002
}
1000
RCGW
1070
     9
1000
7
1002
{
1000
Class
1070
     4
1000
CEN
1002
{
1002
}
1000
Color
1070
     1
1070
   256
1002
{
1002
}
1000
LType
1070
     4
1000
BYLAYER
1002
{
1002
}
1002
}
1000
RFDI
1070
     9
1000
4
1002
{
1000
Class
1070
     4
1000
BGD
1002
{
1002
}
1000
Color
1070
     1
1070
   256
1002
{
1002
}
1000
LType
1070
     4
1000
BYLAYER
1002
{
1002
}
1002
}
1000
RQTR
1070
     9
1000
4
1002
{
1000
Class
1070
     4
1000

1002
{
1002
}
1000
Color
1070
     1
1070
     7
1002
{
1002
}
1000
LType
1070
     4
1000
GEN7A
1002
{
1002
}
1002
}
1000
RSBO
1070
     9
1000
4
1002
{
1000
Class
1070
     4
1000
BGD
1002
{
1002
}
1000
Color
1070
     1
1070
   256
1002
{
1002
}
1000
LType
1070
     4
1000
BYLAYER
1002
{
1002
}
1002
}
1000
SBRK
1070
     9
1000
4
1002
{
1000
Class
1070
     4
1000
BGD
1002
{
1002
}
1000
Color
1070
     1
1070
   256
1002
{
1002
}
1000
LType
1070
     4
1000
BYLAYER
1002
{
1002
}
1002
}
1000
SCEN
1070
     9
1000
7
1002
{
1000
Class
1070
     4
1000

1002
{
1002
}
1000
Color
1070
     1
1070
   256
1002
{
1002
}
1000
LType
1070
     4
1000
CONTINUOUS
1002
{
1002
}
1002
}
1000
SECT
1070
     9
1000
4
1002
{
1000
Class
1070
     4
1000
BGD
1002
{
1002
}
1000
Color
1070
     1
1070
   256
1002
{
1002
}
1000
LType
1070
     4
1000
BYLAYER
1002
{
1002
}
1002
}
1000
SELN
1070
     9
1000
7A
1002
{
1000
Class
1070
     4
1000

1002
{
1002
}
1000
Color
1070
     1
1070
   256
1002
{
1002
}
1000
LType
1070
     4
1000
BYLAYER
1002
{
1002
}
1002
}
1000
SELW
1070
     9
1000
7
1002
{
1000
Class
1070
     4
1000

1002
{
1002
}
1000
Color
1070
     1
1070
   256
1002
{
1002
}
1000
LType
1070
     4
1000
BYLAYER
1002
{
1002
}
1002
}
1000
SSYS
1070
     9
1000
0
1002
{
1000
Class
1070
     4
1000

1002
{
1002
}
1000
Color
1070
     1
1070
   256
1002
{
1002
}
1000
LType
1070
     4
1000
BYLAYER
1002
{
1002
}
1002
}
1000
STLI
1070
     9
1000
4
1002
{
1000
Class
1070
     4
1000

1002
{
1002
}
1000
Color
1070
     1
1070
     7
1002
{
1002
}
1000
LType
1070
     4
1000
GEN3A
1002
{
1002
}
1002
}
1000
SYB1
1070
     9
1000
5
1002
{
1000
Class
1070
     4
1000
SYM
1002
{
1002
}
1000
Color
1070
     1
1070
   256
1002
{
1002
}
1000
LType
1070
     4
1000
BYLAYER
1002
{
1002
}
1002
}
1000
SYB2
1070
     9
1000
5
1002
{
1000
Class
1070
     4
1000
SYM
1002
{
1002
}
1000
Color
1070
     1
1070
   256
1002
{
1002
}
1000
LType
1070
     4
1000
BYLAYER
1002
{
1002
}
1002
}
1000
SYB3
1070
     9
1000
6
1002
{
1000
Class
1070
     4
1000
SYM
1002
{
1002
}
1000
Color
1070
     1
1070
   256
1002
{
1002
}
1000
LType
1070
     4
1000
CONTINUOUS
1002
{
1002
}
1002
}
1000
SYB5
1070
     9
1000
5
1002
{
1000
Class
1070
     4
1000
SYM
1002
{
1002
}
1000
Color
1070
     1
1070
     7
1002
{
1002
}
1000
LType
1070
     4
1000
BYLAYER
1002
{
1002
}
1002
}
1000
SYMN
1070
     9
1000
7A
1002
{
1000
Class
1070
     4
1000
CEN
1002
{
1002
}
1000
Color
1070
     1
1070
   256
1002
{
1002
}
1000
LType
1070
     4
1000
BYLAYER
1002
{
1002
}
1002
}
1000
SYMW
1070
     9
1000
7
1002
{
1000
Class
1070
     4
1000
CEN
1002
{
1002
}
1000
Color
1070
     1
1070
   256
1002
{
1002
}
1000
LType
1070
     4
1000
BYLAYER
1002
{
1002
}
1002
}
1000
TCON
1070
     9
1000
0
1002
{
1000
Class
1070
     4
1000
CON,BGD
1002
{
1002
}
1000
Color
1070
     1
1070
   256
1002
{
1002
}
1000
LType
1070
     4
1000
BYLAYER
1002
{
1002
}
1002
}
1000
THLI
1070
     9
1000
4
1002
{
1000
Class
1070
     4
1000
BGD
1002
{
1002
}
1000
Color
1070
     1
1070
   256
1002
{
1002
}
1000
LType
1070
     4
1000
BYLAYER
1002
{
1002
}
1002
}
1000
TIT2
1070
     9
1000
RAHM2
1002
{
1000
Class
1070
     4
1000
SPZ,SYM
1002
{
1002
}
1000
Color
1070
     1
1070
   256
1002
{
1002
}
1000
LType
1070
     4
1000
BYLAYER
1002
{
1002
}
1002
}
1000
TIT3
1070
     9
1000
RAHM3
1002
{
1000
Class
1070
     4
1000
SPZ,SYM
1002
{
1002
}
1000
Color
1070
     1
1070
   256
1002
{
1002
}
1000
LType
1070
     4
1000
BYLAYER
1002
{
1002
}
1002
}
1000
TIT5
1070
     9
1000
RAHM5
1002
{
1000
Class
1070
     4
1000
SPZ,SYM
1002
{
1002
}
1000
Color
1070
     1
1070
   256
1002
{
1002
}
1000
LType
1070
     4
1000
BYLAYER
1002
{
1002
}
1002
}
1000
TIT7
1070
     9
1000
RAHM5
1002
{
1000
Class
1070
     4
1000
SPZ,SYM
1002
{
1002
}
1000
Color
1070
     1
1070
     7
1002
{
1002
}
1000
LType
1070
     4
1000
CONTINUOUS
1002
{
1002
}
1002
}
1000
TLEN
1070
     9
1000
0
1002
{
1000
Class
1070
     4
1000
CON,BGD
1002
{
1002
}
1000
Color
1070
     1
1070
   256
1002
{
1002
}
1000
LType
1070
     4
1000
BYLAYER
1002
{
1002
}
1002
}
1000
TRKN
1070
     9
1000
7A
1002
{
1000
Class
1070
     4
1000

1002
{
1002
}
1000
Color
1070
     1
1070
   256
1002
{
1002
}
1000
LType
1070
     4
1000
BYLAYER
1002
{
1002
}
1002
}
1000
TRKW
1070
     9
1000
7
1002
{
1000
Class
1070
     4
1000

1002
{
1002
}
1000
Color
1070
     1
1070
   256
1002
{
1002
}
1000
LType
1070
     4
1000
BYLAYER
1002
{
1002
}
1002
}
1000
TRLI
1070
     9
1000
4
1002
{
1000
Class
1070
     4
1000
BGD
1002
{
1002
}
1000
Color
1070
     1
1070
   256
1002
{
1002
}
1000
LType
1070
     4
1000
BYLAYER
1002
{
1002
}
1002
}
1000
TXT1
1070
     9
1000
6
1002
{
1000
Class
1070
     4
1000
SYM
1002
{
1002
}
1000
Color
1070
     1
1070
     2
1002
{
1002
}
1000
LType
1070
     4
1000
BYLAYER
1002
{
1002
}
1002
}
1000
TXT2
1070
     9
1000
6
1002
{
1000
Class
1070
     4
1000
SYM
1002
{
1002
}
1000
Color
1070
     1
1070
     2
1002
{
1002
}
1000
LType
1070
     4
1000
BYLAYER
1002
{
1002
}
1002
}
1000
TXT3
1070
     9
1000
6
1002
{
1000
Class
1070
     4
1000
SYM
1002
{
1002
}
1000
Color
1070
     1
1070
   256
1002
{
1002
}
1000
LType
1070
     4
1000
BYLAYER
1002
{
1002
}
1002
}
1000
TXT5
1070
     9
1000
6
1002
{
1000
Class
1070
     4
1000
SYM
1002
{
1002
}
1000
Color
1070
     1
1070
     7
1002
{
1002
}
1000
LType
1070
     4
1000
BYLAYER
1002
{
1002
}
1002
}
1000
TXT7
1070
     9
1000
6
1002
{
1000
Class
1070
     4
1000
SYM
1002
{
1002
}
1000
Color
1070
     1
1070
     7
1002
{
1002
}
1000
LType
1070
     4
1000
BYLAYER
1002
{
1002
}
1002
}
1000
VIEW
1070
     9
1000
VIEW
1002
{
1000
Class
1070
     4
1000
SPZ
1002
{
1002
}
1000
Color
1070
     1
1070
   256
1002
{
1002
}
1000
LType
1070
     4
1000
BYLAYER
1002
{
1002
}
1002
}
1000
VPLI
1070
     9
1000
2A
1002
{
1000
Class
1070
     4
1000

1002
{
1002
}
1000
Color
1070
     1
1070
   256
1002
{
1002
}
1000
LType
1070
     4
1000
BYLAYER
1002
{
1002
}
1002
}
1000
ZIZA
1070
     9
1000
4
1002
{
1000
Class
1070
     4
1000
BGD
1002
{
1002
}
1000
Color
1070
     1
1070
   256
1002
{
1002
}
1000
LType
1070
     4
1000
GENZIGZAG
1002
{
1002
}
1002
}
  0
APPID
  5
1E6
330
9
100
AcDbSymbolTableRecord
100
AcDbRegAppTableRecord
  2
GENIUS_GENCFG3_13
 70
     0
1001
GENIUS_GENCFG_13
1071
919852330
1000
408
1000
GEN@OSWIZ
1070
    12
1000
GenCfgObject
1000
GenCfgShort
1000
GenCfgReal
1000
GenCfgBool
1000
GenCfgString
1000
GenCfgDim
1000
GenCfgAttrInf
1000
GenCfgLaySection
1000
GenCfgLayer
1000
GenCfgEntSort
1000
GenCfgLType
1000
GenCfgFilter
1000
Filter
1070
     0
1002
{
1000
HATCH
1070
    11
1002
{
1000
EntityType
1070
     4
1000
LINE
1002
{
1002
}
1000
Layer
1070
     4
1000
8,8N,*-8,*-8N
1002
{
1002
}
1000
Linetype
1070
     4
1000
*
1002
{
1002
}
1000
Color
1070
     4
1000
*
1002
{
1002
}
1000
ApplyInDims
1070
     3
1070
     1
1002
{
1002
}
1002
}
1000
SYMBOLS
1070
    11
1002
{
1000
EntityType
1070
     4
1000
*
1002
{
1002
}
1000
Layer
1070
     4
1000
[5-6],[5-6]N,*-[5-6],*-[5-6]N
1002
{
1002
}
1000
Linetype
1070
     4
1000
*
1002
{
1002
}
1000
Color
1070
     4
1000
*
1002
{
1002
}
1000
ApplyInDims
1070
     3
1070
     1
1002
{
1002
}
1002
}
1000
FEM
1070
    11
1002
{
1000
EntityType
1070
     4
1000
*
1002
{
1002
}
1000
Layer
1070
     4
1000
4A,4AN,*-4A,*-4AN
1002
{
1002
}
1000
Linetype
1070
     4
1000
*
1002
{
1002
}
1000
Color
1070
     4
1000
*
1002
{
1002
}
1000
ApplyInDims
1070
     3
1070
     1
1002
{
1002
}
1002
}
1002
}
  0
APPID
  5
1E7
330
9
100
AcDbSymbolTableRecord
100
AcDbRegAppTableRecord
  2
GENIUS_GENCFG4_13
 70
     0
1001
GENIUS_GENCFG_13
1071
919852469
1000
409
1000
GEN
1070
     8
1000
GenCfgObject
1000
GenCfgShort
1000
GenCfgReal
1000
GenCfgBool
1000
GenCfgString
1000
GenCfgDim
1000
GenCfgLaySection
1000
GenCfgLType
1000
Balloon
1070
     0
1002
{
1000
GenIF
1070
     1
1070
     0
1002
{
1002
}
1000
GenPosInc
1070
     1
1070
     1
1002
{
1002
}
1000
GenPosBlk
1070
     1
1070
     8
1002
{
1002
}
1000
GenPosVar
1070
     1
1070
     0
1002
{
1002
}
1000
GenZiCir
1070
     2
1040
1.5
1002
{
1002
}
1000
MaxCharForCenteredText
1070
     1
1070
    30
1002
{
1002
}
1000
Snap
1070
     0
1002
{
1000
ActivationRadius
1070
     2
1040
1.0
1002
{
1002
}
1000
M
1070
     0
1002
{
1000
SnapStepX
1070
     2
1040
20.0
1002
{
1002
}
1000
SnapStepY
1070
     2
1040
10.0
1002
{
1002
}
1002
}
1000
I
1070
     0
1002
{
1000
SnapStepX
1070
     2
1040
1.0
1002
{
1002
}
1000
SnapStepY
1070
     2
1040
0.5
1002
{
1002
}
1002
}
1002
}
1002
}
1000
Centerline
1070
     0
1002
{
1000
ScaleNot
1070
     3
1070
     0
1002
{
1002
}
1000
M
1070
     0
1002
{
1000
GenCenAng
1070
     4
1000
45|90|135
1002
{
1002
}
1000
GenCenDia
1070
     2
1040
10.0
1002
{
1002
}
1000
GenCenDias
1070
     4
1000
10|20|30
1002
{
1002
}
1000
GenCenDist
1070
     2
1040
3.0
1002
{
1002
}
1000
GenCenLen
1070
     2
1040
10.0
1002
{
1002
}
1000
GenCenOff
1070
     2
1040
10.0
1002
{
1002
}
1002
}
1000
I
1070
     0
1002
{
1000
GenCenAng
1070
     4
1000
45|90|135
1002
{
1002
}
1000
GenCenDia
1070
     2
1040
0.5
1002
{
1002
}
1000
GenCenDias
1070
     4
1000
0.5|1.0|1.5
1002
{
1002
}
1000
GenCenDist
1070
     2
1040
0.125
1002
{
1002
}
1000
GenCenLen
1070
     2
1040
0.5
1002
{
1002
}
1000
GenCenOff
1070
     2
1040
0.5
1002
{
1002
}
1002
}
1002
}
1000
CLine
1070
     0
1002
{
1000
CAngArray
1070
     4
1000
30|45|60
1002
{
1002
}
1000
Typ
1070
     4
1000
XLINE
1002
{
1002
}
1000
M
1070
     0
1002
{
1000
CLinArray
1070
     4
1000
10|20|30
1002
{
1002
}
1002
}
1000
I
1070
     0
1002
{
1000
CLinArray
1070
     4
1000
0.125|0.25|0.5
1002
{
1002
}
1002
}
1002
}
1000
Detail
1070
     0
1002
{
1002
}
1000
Dimension
1070
     5
1002
{
1000
DIMALT
1070
     1
1070
     0
1002
{
1002
}
1000
DIMALTD
1070
     1
1070
     2
1002
{
1002
}
1000
DIMALTTD
1070
     1
1070
     4
1002
{
1002
}
1000
DIMALTTZ
1070
     1
1070
     0
1002
{
1002
}
1000
DIMALTU
1070
     1
1070
     2
1002
{
1002
}
1000
DIMALTZ
1070
     1
1070
     0
1002
{
1002
}
1000
DIMAUNIT
1070
     1
1070
     0
1002
{
1002
}
1000
DIMBLK
1070
     4
1000

1002
{
1002
}
1000
DIMBLK1
1070
     4
1000

1002
{
1002
}
1000
DIMBLK2
1070
     4
1000

1002
{
1002
}
1000
DIMCLRD
1070
     1
1070
   256
1002
{
1002
}
1000
DIMCLRE
1070
     1
1070
   256
1002
{
1002
}
1000
DIMCLRT
1070
     1
1070
     1
1002
{
1002
}
1000
DIMDLE
1070
     2
1040
0.0
1002
{
1002
}
1000
DIMFIT
1070
     1
1070
     3
1002
{
1002
}
1000
DIMJUST
1070
     1
1070
     0
1002
{
1002
}
1000
DIMLFAC
1070
     2
1040
1.0
1002
{
1002
}
1000
DIMLIM
1070
     1
1070
     0
1002
{
1002
}
1000
DIMPOST
1070
     4
1000

1002
{
1002
}
1000
DIMRND
1070
     2
1040
0.0
1002
{
1002
}
1000
DIMSAH
1070
     1
1070
     0
1002
{
1002
}
1000
DIMSCALE
1070
     2
1040
1.0
1002
{
1002
}
1000
DIMSD1
1070
     1
1070
     0
1002
{
1002
}
1000
DIMSD2
1070
     1
1070
     0
1002
{
1002
}
1000
DIMSE1
1070
     1
1070
     0
1002
{
1002
}
1000
DIMSE2
1070
     1
1070
     0
1002
{
1002
}
1000
DIMSOXD
1070
     1
1070
     0
1002
{
1002
}
1000
DIMTAD
1070
     1
1070
     2
1002
{
1002
}
1000
DIMTFAC
1070
     2
1040
0.71
1002
{
1002
}
1000
DIMTIH
1070
     1
1070
     0
1002
{
1002
}
1000
DIMTIX
1070
     1
1070
     0
1002
{
1002
}
1000
DIMTM
1070
     2
1040
0.1
1002
{
1002
}
1000
DIMTOFL
1070
     1
1070
     0
1002
{
1002
}
1000
DIMTOH
1070
     1
1070
     0
1002
{
1002
}
1000
DIMTOL
1070
     1
1070
     0
1002
{
1002
}
1000
DIMTOLJ
1070
     1
1070
     1
1002
{
1002
}
1000
DIMTP
1070
     2
1040
0.1
1002
{
1002
}
1000
DIMTSZ
1070
     2
1040
0.0
1002
{
1002
}
1000
DIMTVP
1070
     2
1040
0.0
1002
{
1002
}
1000
DIMTXSTY
1070
     4
1000
STANDARD
1002
{
1002
}
1000
DIMTZIN
1070
     1
1070
     0
1002
{
1002
}
1000
DIMUNIT
1070
     1
1070
     2
1002
{
1002
}
1000
DIMUPT
1070
     1
1070
     0
1002
{
1002
}
1000
M
1070
     0
1002
{
1000
DIMALTF
1070
     2
1040
0.0393701
1002
{
1002
}
1000
DIMAPOST
1070
     4
1000
<>
1002
{
1002
}
1000
DIMASZ
1070
     2
1040
2.5
1002
{
1002
}
1000
DIMCEN
1070
     2
1040
0.0
1002
{
1002
}
1000
DIMDEC
1070
     1
1070
     2
1002
{
1002
}
1000
DIMDLI
1070
     2
1040
0.0
1002
{
1002
}
1000
DIMEXE
1070
     2
1040
1.0
1002
{
1002
}
1000
DIMEXO
1070
     2
1040
1.0
1002
{
1002
}
1000
DIMGAP
1070
     2
1040
1.5
1002
{
1002
}
1000
DIMTDEC
1070
     1
1070
     3
1002
{
1002
}
1000
DIMTXT
1070
     2
1040
3.5
1002
{
1002
}
1000
DIMZIN
1070
     1
1070
     8
1002
{
1002
}
1002
}
1000
I
1070
     0
1002
{
1000
DIMALTF
1070
     2
1040
25.4
1002
{
1002
}
1000
DIMAPOST
1070
     4
1000
mm
1002
{
1002
}
1000
DIMASZ
1070
     2
1040
0.1
1002
{
1002
}
1000
DIMCEN
1070
     2
1040
0.0
1002
{
1002
}
1000
DIMDEC
1070
     1
1070
     4
1002
{
1002
}
1000
DIMDLI
1070
     2
1040
0.5
1002
{
1002
}
1000
DIMEXE
1070
     2
1040
0.1
1002
{
1002
}
1000
DIMEXO
1070
     2
1040
0.05
1002
{
1002
}
1000
DIMGAP
1070
     2
1040
0.06
1002
{
1002
}
1000
DIMTDEC
1070
     1
1070
     4
1002
{
1002
}
1000
DIMTXT
1070
     2
1040
0.12
1002
{
1002
}
1000
DIMZIN
1070
     1
1070
     7
1002
{
1002
}
1002
}
1000
GEN-ISO
1070
     5
1002
{
1000
NAME
1070
     4
1000
GEN-ISO
1002
{
1002
}
1000
DIMTAD
1070
     1
1070
     1
1002
{
1002
}
1000
DIMTOLJ
1070
     1
1070
     0
1002
{
1002
}
1000
DIMTOFL
1070
     1
1070
     1
1002
{
1002
}
1000
M
1070
     0
1002
{
1002
}
1000
I
1070
     0
1002
{
1002
}
1000
DIMPOST
1070
     4
1000
<>
1002
{
1002
}
1002
}
1000
GEN-ISO-POS
1070
     5
1002
{
1000
NAME
1070
     4
1000
GEN-ISO-POS
1002
{
1002
}
1000
DIMTOLJ
1070
     1
1070
     0
1002
{
1002
}
1000
DIMTXSTY
1070
     4
1000
STANDARD
1002
{
1002
}
1000
M
1070
     0
1002
{
1000
DIMASZ
1070
     2
1040
2.5
1002
{
1002
}
1000
DIMGAP
1070
     2
1040
1.5
1002
{
1002
}
1000
DIMTXT
1070
     2
1040
5.0
1002
{
1002
}
1002
}
1000
I
1070
     0
1002
{
1000
DIMASZ
1070
     2
1040
0.1
1002
{
1002
}
1000
DIMGAP
1070
     2
1040
0.06
1002
{
1002
}
1000
DIMTXT
1070
     2
1040
0.2
1002
{
1002
}
1002
}
1002
}
1000
GEN-ISO-CIR
1070
     5
1002
{
1000
NAME
1070
     4
1000
GEN-ISO$3
1002
{
1002
}
1000
DIMFIT
1070
     1
1070
     0
1002
{
1002
}
1000
DIMTAD
1070
     1
1070
     1
1002
{
1002
}
1000
DIMTIH
1070
     1
1070
     0
1002
{
1002
}
1000
DIMTIX
1070
     1
1070
     0
1002
{
1002
}
1000
DIMTOH
1070
     1
1070
     1
1002
{
1002
}
1000
DIMTOLJ
1070
     1
1070
     0
1002
{
1002
}
1000
DIMTOFL
1070
     1
1070
     0
1002
{
1002
}
1000
DIMUPT
1070
     1
1070
     1
1002
{
1002
}
1000
M
1070
     0
1002
{
1002
}
1000
I
1070
     0
1002
{
1002
}
1002
}
1000
GEN-ISO-RAD
1070
     5
1002
{
1000
NAME
1070
     4
1000
GEN-ISO$4
1002
{
1002
}
1000
DIMFIT
1070
     1
1070
     0
1002
{
1002
}
1000
DIMTAD
1070
     1
1070
     1
1002
{
1002
}
1000
DIMTIH
1070
     1
1070
     0
1002
{
1002
}
1000
DIMTIX
1070
     1
1070
     0
1002
{
1002
}
1000
DIMTOH
1070
     1
1070
     1
1002
{
1002
}
1000
DIMTOLJ
1070
     1
1070
     0
1002
{
1002
}
1000
DIMTOFL
1070
     1
1070
     0
1002
{
1002
}
1000
DIMUPT
1070
     1
1070
     1
1002
{
1002
}
1000
M
1070
     0
1002
{
1002
}
1000
I
1070
     0
1002
{
1002
}
1002
}
1000
GEN-ISO-ORD
1070
     5
1002
{
1000
NAME
1070
     4
1000
GEN-ISO$6
1002
{
1002
}
1000
DIMTOLJ
1070
     1
1070
     0
1002
{
1002
}
1000
M
1070
     0
1002
{
1002
}
1000
I
1070
     0
1002
{
1002
}
1002
}
1000
GEN-ISO-AXE-F
1070
     5
1002
{
1000
NAME
1070
     4
1000
GEN-ISO-AXE-F
1002
{
1002
}
1000
DIMSE1
1070
     1
1070
     1
1002
{
1002
}
1000
DIMSE2
1070
     1
1070
     1
1002
{
1002
}
1000
DIMTAD
1070
     1
1070
     1
1002
{
1002
}
1000
DIMTOLJ
1070
     1
1070
     0
1002
{
1002
}
1000
DIMTOFL
1070
     1
1070
     1
1002
{
1002
}
1000
M
1070
     0
1002
{
1002
}
1000
I
1070
     0
1002
{
1002
}
1002
}
1000
GEN-ISO-AXE-H
1070
     5
1002
{
1000
DIMBLK1
1070
     4
1000
GENAXEH
1002
{
1002
}
1000
DIMLFAC
1070
     2
1040
2.0
1002
{
1002
}
1000
DIMSAH
1070
     1
1070
     1
1002
{
1002
}
1000
DIMSE1
1070
     1
1070
     1
1002
{
1002
}
1000
DIMSE2
1070
     1
1070
     1
1002
{
1002
}
1000
DIMTAD
1070
     1
1070
     1
1002
{
1002
}
1000
DIMTOLJ
1070
     1
1070
     0
1002
{
1002
}
1000
DIMTOFL
1070
     1
1070
     1
1002
{
1002
}
1000
M
1070
     0
1002
{
1002
}
1000
I
1070
     0
1002
{
1002
}
1002
}
1000
GEN-ANSI
1070
     5
1002
{
1000
NAME
1070
     4
1000
GEN-ANSI
1002
{
1002
}
1000
DIMTIH
1070
     1
1070
     1
1002
{
1002
}
1000
DIMTOH
1070
     1
1070
     1
1002
{
1002
}
1000
DIMTAD
1070
     1
1070
     0
1002
{
1002
}
1000
DIMTOLJ
1070
     1
1070
     1
1002
{
1002
}
1000
M
1070
     0
1002
{
1002
}
1000
I
1070
     0
1002
{
1002
}
1002
}
1000
GEN-ANSI-POS
1070
     5
1002
{
1000
NAME
1070
     4
1000
GEN-ANSI-POS
1002
{
1002
}
1000
DIMTOLJ
1070
     1
1070
     1
1002
{
1002
}
1000
DIMTXSTY
1070
     4
1000
STANDARD
1002
{
1002
}
1000
M
1070
     0
1002
{
1000
DIMASZ
1070
     2
1040
2.5
1002
{
1002
}
1000
DIMGAP
1070
     2
1040
1.5
1002
{
1002
}
1000
DIMTXT
1070
     2
1040
5.0
1002
{
1002
}
1002
}
1000
I
1070
     0
1002
{
1000
DIMASZ
1070
     2
1040
0.1
1002
{
1002
}
1000
DIMGAP
1070
     2
1040
0.06
1002
{
1002
}
1000
DIMTXT
1070
     2
1040
0.2
1002
{
1002
}
1002
}
1002
}
1000
GEN-ANSI-CIR
1070
     5
1002
{
1000
NAME
1070
     4
1000
GEN-ANSI$3
1002
{
1002
}
1000
DIMFIT
1070
     1
1070
     0
1002
{
1002
}
1000
DIMTAD
1070
     1
1070
     0
1002
{
1002
}
1000
DIMTIH
1070
     1
1070
     1
1002
{
1002
}
1000
DIMTIX
1070
     1
1070
     0
1002
{
1002
}
1000
DIMTOFL
1070
     1
1070
     0
1002
{
1002
}
1000
DIMTOH
1070
     1
1070
     1
1002
{
1002
}
1000
DIMTOLJ
1070
     1
1070
     1
1002
{
1002
}
1000
DIMUPT
1070
     1
1070
     1
1002
{
1002
}
1000
M
1070
     0
1002
{
1002
}
1000
I
1070
     0
1002
{
1002
}
1002
}
1000
GEN-ANSI-RAD
1070
     5
1002
{
1000
NAME
1070
     4
1000
GEN-ANSI$4
1002
{
1002
}
1000
DIMFIT
1070
     1
1070
     0
1002
{
1002
}
1000
DIMTAD
1070
     1
1070
     0
1002
{
1002
}
1000
DIMTIH
1070
     1
1070
     1
1002
{
1002
}
1000
DIMTIX
1070
     1
1070
     0
1002
{
1002
}
1000
DIMTOFL
1070
     1
1070
     0
1002
{
1002
}
1000
DIMTOH
1070
     1
1070
     1
1002
{
1002
}
1000
DIMTOLJ
1070
     1
1070
     1
1002
{
1002
}
1000
DIMUPT
1070
     1
1070
     1
1002
{
1002
}
1000
M
1070
     0
1002
{
1002
}
1000
I
1070
     0
1002
{
1002
}
1002
}
1000
GEN-ANSI-ORD
1070
     5
1002
{
1000
NAME
1070
     4
1000
GEN-ANSI$6
1002
{
1002
}
1000
DIMTAD
1070
     1
1070
     0
1002
{
1002
}
1000
DIMTIH
1070
     1
1070
     1
1002
{
1002
}
1000
DIMTOH
1070
     1
1070
     1
1002
{
1002
}
1000
DIMTOLJ
1070
     1
1070
     1
1002
{
1002
}
1000
M
1070
     0
1002
{
1002
}
1000
I
1070
     0
1002
{
1002
}
1002
}
1000
GEN-ANSI-AXE-F
1070
     5
1002
{
1000
NAME
1070
     4
1000
GEN-ANSI-AXE-F
1002
{
1002
}
1000
DIMBLK1
1070
     4
1000
GENAXEH
1002
{
1002
}
1000
DIMSAH
1070
     1
1070
     1
1002
{
1002
}
1000
DIMSE1
1070
     1
1070
     1
1002
{
1002
}
1000
DIMSE2
1070
     1
1070
     1
1002
{
1002
}
1000
DIMTAD
1070
     1
1070
     0
1002
{
1002
}
1000
DIMTIH
1070
     1
1070
     1
1002
{
1002
}
1000
DIMTOH
1070
     1
1070
     1
1002
{
1002
}
1000
DIMTOLJ
1070
     1
1070
     1
1002
{
1002
}
1000
M
1070
     0
1002
{
1002
}
1000
I
1070
     0
1002
{
1002
}
1002
}
1000
GEN-ANSI-AXE-H
1070
     5
1002
{
1000
NAME
1070
     4
1000
GEN-ANSI-AXE-H
1002
{
1002
}
1000
DIMBLK1
1070
     4
1000
GENAXEH
1002
{
1002
}
1000
DIMLFAC
1070
     2
1040
2.0
1002
{
1002
}
1000
DIMSAH
1070
     1
1070
     1
1002
{
1002
}
1000
DIMSE1
1070
     1
1070
     1
1002
{
1002
}
1000
DIMSE2
1070
     1
1070
     1
1002
{
1002
}
1000
DIMTAD
1070
     1
1070
     0
1002
{
1002
}
1000
DIMTOFL
1070
     1
1070
     1
1002
{
1002
}
1000
DIMTOLJ
1070
     1
1070
     1
1002
{
1002
}
1000
M
1070
     0
1002
{
1002
}
1000
I
1070
     0
1002
{
1002
}
1002
}
1000
DIMAPOST
1070
     4
1000

1002
{
1002
}
1002
}
1000
DimSet
1070
     0
1002
{
1000
ChainSum
1070
     3
1070
     0
1002
{
1002
}
1000
DimDclTyp0
1070
     4
1000
dim11
1002
{
1002
}
1000
HorBra
1070
     3
1070
     0
1002
{
1002
}
1000
StrDia
1070
     4
1000
%%c<>
1002
{
1002
}
1000
StrRad
1070
     4
1000
R<>
1002
{
1002
}
1000
TextMinus
1070
     4
1000
<>
1002
{
1002
}
1000
TextPlus
1070
     4
1000
<>
1002
{
1002
}
1000
M
1070
     0
1002
{
1000
DimdliFirst
1070
     2
1040
12.0
1002
{
1002
}
1000
PointMakeDist
1070
     2
1040
10.0
1002
{
1002
}
1002
}
1000
I
1070
     0
1002
{
1000
DimdliFirst
1070
     2
1040
0.5
1002
{
1002
}
1000
PointMakeDist
1070
     2
1040
0.5
1002
{
1002
}
1002
}
1002
}
1000
Drawing
1070
     0
1002
{
1000
ChamferDimMode
1070
     1
1070
     2
1002
{
1002
}
1000
Gen_Fiso
1070
    -3
1040
1.0
1002
{
1002
}
1000
GenDimStil
1070
     4
1000
ISO
1002
{
1002
}
1000
GenDwgUScale
1070
     2
1040
1.0
1002
{
1002
}
1000
GenInch
1070
     4
1000
M
1002
{
1002
}
1000
GenPlotScale
1070
     4
1000
1:1
1002
{
1002
}
1000
Revisi
1070
     4
1000
0
1002
{
1002
}
1000
Version
1070
    -5
1000
14.01/May 26 1998
1002
{
1002
}
1000
Platform
1070
    -5
1000
WINNT
1002
{
1002
}
1002
}
1000
DwgVar
1070
     0
1002
{
1000
M
1070
     0
1002
{
1002
}
1000
I
1070
     0
1002
{
1002
}
1002
}
1000
Hatch
1070
     0
1002
{
1000
GenHtcFlag
1070
     3
1070
     0
1002
{
1002
}
1002
}
1000
Info_Pos
1070
     0
1002
{
1000
>
1002
}
1000
Layer
1070
     6
1002
{
1000
Defs
1070
     0
1002
{
1000
>
1002
}
1000
EntSort
1070
     0
1002
{
1000
>
1002
}
1000
Match
1070
     0
1002
{
1002
}
1000
Settings
1070
     0
1002
{
1000
FocGrNC
1070
     3
1070
     0
1002
{
1002
}
1000
FocGrLo
1070
     3
1070
     0
1002
{
1002
}
1000
FocLoNC
1070
     3
1070
     0
1002
{
1002
}
1000
FocusCol
1070
     1
1070
   253
1002
{
1002
}
1000
GenStdLG
1070
     4
1000

1002
{
1002
}
1000
LayMatch
1070
     3
1070
     0
1002
{
1002
}
1000
LgOff
1070
     3
1070
     0
1002
{
1002
}
1000
CurLG
1070
    -5
1000

1002
{
1002
}
1002
}
1002
}
1000
LType
1070
     0
1002
{
1000
GEN3
1070
     7
1000
genius.lin
1002
{
1002
}
1000
GEN7
1070
     7
1000
genius.lin
1002
{
1002
}
1000
GEN4A
1070
     7
1000
genius.lin
1002
{
1002
}
1000
GEN3A
1070
     7
1000
genius.lin
1002
{
1002
}
1000
GEN7A
1070
     7
1000
genius.lin
1002
{
1002
}
1000
GENZIGZAG
1070
     7
1000
genius.lin
1002
{
1002
}
1002
}
1000
Objecter
1070
     0
1002
{
1000
CreateGroups
1070
     3
1070
     0
1002
{
1002
}
1000
LaySwitch
1070
     3
1070
     1
1002
{
1002
}
1000
LastObj
1070
    -5
1000
0
1002
{
1002
}
1000
TimeStamp
1070
    -5
1000
19990224.12320750
1002
{
1002
}
1002
}
1000
OSWiz
1070
     0
1002
{
1000
>
1002
}
1000
PaList
1070
     0
1002
{
1000
AutoUpdatePartList
1070
     1
1070
     0
1002
{
1002
}
1000
ReadInfoPoint
1070
     3
1070
     0
1002
{
1002
}
1000
ReadPosNr
1070
     3
1070
     1
1002
{
1002
}
1000
RevStr
1070
     4
1000
0
1002
{
1002
}
1002
}
1000
Paper
1070
     0
1002
{
1002
}
1000
PartDB
1070
     0
1002
{
1000
GenDbOwner
1070
     4
1000

1002
{
1002
}
1002
}
1000
System
1070
     0
1002
{
1000
Menu
1070
     4
1000
GEV
1002
{
1002
}
1002
}
1000
Title
1070
     0
1002
{
1000
MakeView
1070
     1
1070
     2
1002
{
1002
}
1002
}
1000
Tools
1070
     0
1002
{
1000
Trans
1070
     0
1002
{
1000
Drawingtranslation
1070
    -4
1070
     1
1002
{
1002
}
1000
upreserve
1070
     3
1070
     0
1002
{
1002
}
1000
originally_on
1070
    -4
1070
     0
1002
{
1002
}
1000
sourcelang
1070
    -5
1000
GB
1002
{
1002
}
1002
}
1002
}
  0
APPID
  5
1E8
330
9
100
AcDbSymbolTableRecord
100
AcDbRegAppTableRecord
  2
MCAD_NO_VIS
 70
     0
  0
APPID
  5
1E9
330
9
100
AcDbSymbolTableRecord
100
AcDbRegAppTableRecord
  2
AD_DRAW
 70
     0
  0
APPID
  5
1EA
330
9
100
AcDbSymbolTableRecord
100
AcDbRegAppTableRecord
  2
DESIGNERASSEMBLIES
 70
     0
  0
APPID
  5
1EB
330
9
100
AcDbSymbolTableRecord
100
AcDbRegAppTableRecord
  2
ASURF_PCURVE_APPNAME
 70
     0
  0
APPID
  5
1EC
330
9
100
AcDbSymbolTableRecord
100
AcDbRegAppTableRecord
  2
GENIUS_GE3CFG0_13
 70
     0
1001
GENIUS_GENCFG_13
1071
919852330
1000
4CB
1000
GE3
1070
     2
1000
GenCfgObject
1000
GenCfgShort
1000
Dimension
1070
     0
1002
{
1000
RefDimEnhance
1070
     1
1070
     1
1002
{
1002
}
1000
RefDim
1070
     0
1002
{
1000
DIMCLRD
1070
     1
1070
     4
1002
{
1002
}
1002
}
1002
}
1000
Drawing
1070
     0
1002
{
1000
MSpace3D
1070
     1
1070
     1
1002
{
1002
}
1000
UpdateList
1070
     1
1070
     1
1002
{
1002
}
1002
}
1000
Shaft
1070
     0
1002
{
1002
}
1000
View
1070
     0
1002
{
1002
}
  0
APPID
  5
1ED
330
9
100
AcDbSymbolTableRecord
100
AcDbRegAppTableRecord
  2
GENIUS_GENCFG5_13
 70
     0
1001
GENIUS_GENCFG_13
1071
919852330
1000
4CC
1000
GEN@INFO_POS
1070
     7
1000
GenCfgObject
1000
GenCfgShort
1000
GenCfgReal
1000
GenCfgBool
1000
GenCfgString
1000
GenCfgDim
1000
GenCfgAttrInf
1000
DescrText
1070
     4
1000
5,6,7,8
1002
{
1002
}
1000
DescrText2
1070
     4
1000
26
1002
{
1002
}
1000
VisibleAttr1
1070
     4
1000
1
1002
{
1002
}
1000
VisibleAttr2
1070
     4
1000
26
1002
{
1002
}
1000
UpdateBlock
1070
     3
1070
     1
1002
{
1002
}
1000
Attrib
1070
     0
1002
{
1000
0
1070
     6
1002
{
1000
Prompt
1070
     4
1000
(genmsg gendwg 103)
1002
{
1002
}
1000
Value
1070
     4
1000

1002
{
1002
}
1000
EditFlag
1070
     1
1070
     0
1002
{
1002
}
1000
PosInDDATTE
1070
     1
1070
    27
1002
{
1002
}
1000
FieldLen
1070
     1
1070
    -1
1002
{
1002
}
1002
}
1000
1
1070
     6
1002
{
1000
Prompt
1070
     4
1000
(genmsg gendwg 31)
1002
{
1002
}
1000
Value
1070
     4
1000
1
1002
{
1002
}
1000
EditFlag
1070
     1
1070
     1
1002
{
1002
}
1000
PosInDDATTE
1070
     1
1070
     1
1002
{
1002
}
1000
FieldLen
1070
     1
1070
    -1
1002
{
1002
}
1002
}
1000
2
1070
     6
1002
{
1000
Prompt
1070
     4
1000
(genmsg gendwg 32)
1002
{
1002
}
1000
Value
1070
     4
1000
1
1002
{
1002
}
1000
EditFlag
1070
     1
1070
     1
1002
{
1002
}
1000
PosInDDATTE
1070
     1
1070
     2
1002
{
1002
}
1000
FieldLen
1070
     1
1070
    -1
1002
{
1002
}
1002
}
1000
3
1070
     6
1002
{
1000
Prompt
1070
     4
1000
(genmsg gendwg 33)
1002
{
1002
}
1000
Value
1070
     4
1000

1002
{
1002
}
1000
EditFlag
1070
     1
1070
     1
1002
{
1002
}
1000
PosInDDATTE
1070
     1
1070
     3
1002
{
1002
}
1000
FieldLen
1070
     1
1070
    -1
1002
{
1002
}
1002
}
1000
4
1070
     6
1002
{
1000
Prompt
1070
     4
1000
(genmsg gendwg 34)
1002
{
1002
}
1000
Value
1070
     4
1000

1002
{
1002
}
1000
EditFlag
1070
     1
1070
     1
1002
{
1002
}
1000
PosInDDATTE
1070
     1
1070
     4
1002
{
1002
}
1000
FieldLen
1070
     1
1070
    -1
1002
{
1002
}
1002
}
1000
5
1070
     6
1002
{
1000
Prompt
1070
     4
1000
(genmsg gendwg 35)
1002
{
1002
}
1000
Value
1070
     4
1000

1002
{
1002
}
1000
EditFlag
1070
     1
1070
     1
1002
{
1002
}
1000
PosInDDATTE
1070
     1
1070
     5
1002
{
1002
}
1000
FieldLen
1070
     1
1070
    -1
1002
{
1002
}
1002
}
1000
6
1070
     6
1002
{
1000
Prompt
1070
     4
1000
(genmsg gendwg 36)
1002
{
1002
}
1000
Value
1070
     4
1000

1002
{
1002
}
1000
EditFlag
1070
     1
1070
     1
1002
{
1002
}
1000
PosInDDATTE
1070
     1
1070
     6
1002
{
1002
}
1000
FieldLen
1070
     1
1070
    -1
1002
{
1002
}
1002
}
1000
7
1070
     6
1002
{
1000
Prompt
1070
     4
1000
(genmsg gendwg 37)
1002
{
1002
}
1000
Value
1070
     4
1000

1002
{
1002
}
1000
EditFlag
1070
     1
1070
     1
1002
{
1002
}
1000
PosInDDATTE
1070
     1
1070
     7
1002
{
1002
}
1000
FieldLen
1070
     1
1070
    -1
1002
{
1002
}
1002
}
1000
8
1070
     6
1002
{
1000
Prompt
1070
     4
1000
(genmsg gendwg 38)
1002
{
1002
}
1000
Value
1070
     4
1000

1002
{
1002
}
1000
EditFlag
1070
     1
1070
     1
1002
{
1002
}
1000
PosInDDATTE
1070
     1
1070
     8
1002
{
1002
}
1000
FieldLen
1070
     1
1070
    -1
1002
{
1002
}
1002
}
1000
9
1070
     6
1002
{
1000
Prompt
1070
     4
1000
(genmsg gendwg 39)
1002
{
1002
}
1000
Value
1070
     4
1000

1002
{
1002
}
1000
EditFlag
1070
     1
1070
     1
1002
{
1002
}
1000
PosInDDATTE
1070
     1
1070
     9
1002
{
1002
}
1000
FieldLen
1070
     1
1070
    -1
1002
{
1002
}
1002
}
1000
10
1070
     6
1002
{
1000
Prompt
1070
     4
1000
(genmsg gendwg 40)
1002
{
1002
}
1000
Value
1070
     4
1000

1002
{
1002
}
1000
EditFlag
1070
     1
1070
     1
1002
{
1002
}
1000
PosInDDATTE
1070
     1
1070
    10
1002
{
1002
}
1000
FieldLen
1070
     1
1070
    -1
1002
{
1002
}
1002
}
1000
11
1070
     6
1002
{
1000
Prompt
1070
     4
1000
(genmsg gendwg 41)
1002
{
1002
}
1000
Value
1070
     4
1000

1002
{
1002
}
1000
EditFlag
1070
     1
1070
     1
1002
{
1002
}
1000
PosInDDATTE
1070
     1
1070
    11
1002
{
1002
}
1000
FieldLen
1070
     1
1070
    -1
1002
{
1002
}
1002
}
1000
12
1070
     6
1002
{
1000
Prompt
1070
     4
1000
(genmsg gendwg 42)
1002
{
1002
}
1000
Value
1070
     4
1000

1002
{
1002
}
1000
EditFlag
1070
     1
1070
     1
1002
{
1002
}
1000
PosInDDATTE
1070
     1
1070
    12
1002
{
1002
}
1000
FieldLen
1070
     1
1070
    -1
1002
{
1002
}
1002
}
1000
13
1070
     6
1002
{
1000
Prompt
1070
     4
1000
(genmsg gendwg 43)
1002
{
1002
}
1000
Value
1070
     4
1000

1002
{
1002
}
1000
EditFlag
1070
     1
1070
     1
1002
{
1002
}
1000
PosInDDATTE
1070
     1
1070
    13
1002
{
1002
}
1000
FieldLen
1070
     1
1070
    -1
1002
{
1002
}
1002
}
1000
14
1070
     6
1002
{
1000
Prompt
1070
     4
1000
(genmsg gendwg 44)
1002
{
1002
}
1000
Value
1070
     4
1000

1002
{
1002
}
1000
EditFlag
1070
     1
1070
     1
1002
{
1002
}
1000
PosInDDATTE
1070
     1
1070
    14
1002
{
1002
}
1000
FieldLen
1070
     1
1070
    -1
1002
{
1002
}
1002
}
1000
15
1070
     6
1002
{
1000
Prompt
1070
     4
1000
(genmsg gendwg 45)
1002
{
1002
}
1000
Value
1070
     4
1000

1002
{
1002
}
1000
EditFlag
1070
     1
1070
     1
1002
{
1002
}
1000
PosInDDATTE
1070
     1
1070
    15
1002
{
1002
}
1000
FieldLen
1070
     1
1070
    -1
1002
{
1002
}
1002
}
1000
16
1070
     6
1002
{
1000
Prompt
1070
     4
1000
(genmsg gendwg 46)
1002
{
1002
}
1000
Value
1070
     4
1000

1002
{
1002
}
1000
EditFlag
1070
     1
1070
     1
1002
{
1002
}
1000
PosInDDATTE
1070
     1
1070
    16
1002
{
1002
}
1000
FieldLen
1070
     1
1070
    -1
1002
{
1002
}
1002
}
1000
17
1070
     6
1002
{
1000
Prompt
1070
     4
1000
(genmsg gendwg 47)
1002
{
1002
}
1000
Value
1070
     4
1000

1002
{
1002
}
1000
EditFlag
1070
     1
1070
     1
1002
{
1002
}
1000
PosInDDATTE
1070
     1
1070
    17
1002
{
1002
}
1000
FieldLen
1070
     1
1070
    -1
1002
{
1002
}
1002
}
1000
18
1070
     6
1002
{
1000
Prompt
1070
     4
1000
(genmsg gendwg 48)
1002
{
1002
}
1000
Value
1070
     4
1000

1002
{
1002
}
1000
EditFlag
1070
     1
1070
     1
1002
{
1002
}
1000
PosInDDATTE
1070
     1
1070
    18
1002
{
1002
}
1000
FieldLen
1070
     1
1070
    -1
1002
{
1002
}
1002
}
1000
19
1070
     6
1002
{
1000
Prompt
1070
     4
1000
(genmsg gendwg 99)
1002
{
1002
}
1000
Value
1070
     4
1000

1002
{
1002
}
1000
EditFlag
1070
     1
1070
     1
1002
{
1002
}
1000
PosInDDATTE
1070
     1
1070
    19
1002
{
1002
}
1000
FieldLen
1070
     1
1070
    -1
1002
{
1002
}
1002
}
1000
20
1070
     6
1002
{
1000
Prompt
1070
     4
1000
(genmsg gendwg 100)
1002
{
1002
}
1000
Value
1070
     4
1000

1002
{
1002
}
1000
EditFlag
1070
     1
1070
     1
1002
{
1002
}
1000
PosInDDATTE
1070
     1
1070
    20
1002
{
1002
}
1000
FieldLen
1070
     1
1070
    -1
1002
{
1002
}
1002
}
1000
21
1070
     6
1002
{
1000
Prompt
1070
     4
1000
(genmsg gendwg 101)
1002
{
1002
}
1000
Value
1070
     4
1000

1002
{
1002
}
1000
EditFlag
1070
     1
1070
     1
1002
{
1002
}
1000
PosInDDATTE
1070
     1
1070
    21
1002
{
1002
}
1000
FieldLen
1070
     1
1070
    -1
1002
{
1002
}
1002
}
1000
22
1070
     6
1002
{
1000
Prompt
1070
     4
1000
(genmsg gendwg 102)
1002
{
1002
}
1000
Value
1070
     4
1000

1002
{
1002
}
1000
EditFlag
1070
     1
1070
     1
1002
{
1002
}
1000
PosInDDATTE
1070
     1
1070
    22
1002
{
1002
}
1000
FieldLen
1070
     1
1070
    -1
1002
{
1002
}
1002
}
1000
23
1070
     6
1002
{
1000
Prompt
1070
     4
1000
(genmsg gendwg 30)
1002
{
1002
}
1000
Value
1070
     4
1000

1002
{
1002
}
1000
EditFlag
1070
     1
1070
     1
1002
{
1002
}
1000
PosInDDATTE
1070
     1
1070
    23
1002
{
1002
}
1000
FieldLen
1070
     1
1070
    -1
1002
{
1002
}
1002
}
1000
24
1070
     6
1002
{
1000
Prompt
1070
     4
1000
(genmsg gendwg 104)
1002
{
1002
}
1000
Value
1070
     4
1000

1002
{
1002
}
1000
EditFlag
1070
     1
1070
     1
1002
{
1002
}
1000
PosInDDATTE
1070
     1
1070
    24
1002
{
1002
}
1000
FieldLen
1070
     1
1070
    -1
1002
{
1002
}
1002
}
1000
25
1070
     6
1002
{
1000
Prompt
1070
     4
1000
(genmsg gendwg 105)
1002
{
1002
}
1000
Value
1070
     4
1000

1002
{
1002
}
1000
EditFlag
1070
     1
1070
     1
1002
{
1002
}
1000
PosInDDATTE
1070
     1
1070
    25
1002
{
1002
}
1000
FieldLen
1070
     1
1070
    -1
1002
{
1002
}
1002
}
1000
26
1070
     6
1002
{
1000
Prompt
1070
     4
1000
(genmsg gendwg 106)
1002
{
1002
}
1000
Value
1070
     4
1000

1002
{
1002
}
1000
EditFlag
1070
     1
1070
     1
1002
{
1002
}
1000
PosInDDATTE
1070
     1
1070
    26
1002
{
1002
}
1000
FieldLen
1070
     1
1070
    -1
1002
{
1002
}
1002
}
1000
27
1070
     6
1002
{
1000
Prompt
1070
     4
1000
(genmsg gendwg 109)
1002
{
1002
}
1000
Value
1070
     4
1000

1002
{
1002
}
1000
EditFlag
1070
     1
1070
     2
1002
{
1002
}
1000
PosInDDATTE
1070
     1
1070
    27
1002
{
1002
}
1000
FieldLen
1070
     1
1070
    -1
1002
{
1002
}
1002
}
1002
}
1000
Xlate
1070
     0
1002
{
1000
>
1002
}
  0
APPID
  5
B20
330
9
100
AcDbSymbolTableRecord
100
AcDbRegAppTableRecord
  2
GENIUS_GENDIM_13
 70
     0
  0
APPID
  5
B21
330
9
100
AcDbSymbolTableRecord
100
AcDbRegAppTableRecord
  2
GENIUS_GENDTOL_13
 70
     0
  0
APPID
  5
B22
330
9
100
AcDbSymbolTableRecord
100
AcDbRegAppTableRecord
  2
GENIUS_GE3DTOL_13
 70
     0
  0
APPID
  5
B23
330
9
100
AcDbSymbolTableRecord
100
AcDbRegAppTableRecord
  2
ACAD_TEMP_GRAPHIC
 70
     0
  0
APPID
  5
B24
330
9
100
AcDbSymbolTableRecord
100
AcDbRegAppTableRecord
  2
ACATTRIBSERVICES
 70
     0
  0
APPID
  5
B25
330
9
100
AcDbSymbolTableRecord
100
AcDbRegAppTableRecord
  2
ACADM_DIM_EDIT
 70
     0
  0
APPID
  5
B26
330
9
100
AcDbSymbolTableRecord
100
AcDbRegAppTableRecord
  2
AMG_3D2D_5.0
 70
     0
  0
APPID
  5
B27
330
9
100
AcDbSymbolTableRecord
100
AcDbRegAppTableRecord
  2
AMDT_DM_ADJ
 70
     0
  0
APPID
  5
C2F
330
9
100
AcDbSymbolTableRecord
100
AcDbRegAppTableRecord
  2
RAK
 70
     0
  0
ENDTAB
  0
TABLE
  2
DIMSTYLE
  5
A
330
0
100
AcDbSymbolTable
 70
     9
100
AcDbDimStyleTable
 71
     0
  0
DIMSTYLE
105
27
330
A
100
AcDbSymbolTableRecord
100
AcDbDimStyleTableRecord
  2
ISO-25
 70
     0
 41
2.5
 42
0.625
 43
3.75
 44
1.25
 73
     0
 74
     0
 77
     1
 78
     8
140
2.5
141
2.5
143
0.03937007874016
147
0.625
171
     3
172
     1
271
     2
272
     2
274
     3
278
    44
283
     0
284
     8
340
11
  0
DIMSTYLE
105
1E0
330
A
100
AcDbSymbolTableRecord
100
AcDbDimStyleTableRecord
  2
STANDARD
 70
     0
340
11
  0
DIMSTYLE
105
C0E
330
A
100
AcDbSymbolTableRecord
100
AcDbDimStyleTableRecord
  2
GEN-ISO
 70
     0
  3
<>
 41
2.5
 42
1.0
 43
0.0
 44
1.0
 47
0.1
 48
0.1
 73
     0
 74
     0
 77
     1
 78
     8
140
3.5
141
0.0
143
0.0393701
146
0.71
147
1.5
172
     1
271
     2
272
     2
283
     0
340
1DB
  0
DIMSTYLE
105
C10
330
A
100
AcDbSymbolTableRecord
100
AcDbDimStyleTableRecord
  2
GEN-ISO$3
 70
     0
 41
2.5
 42
1.0
 43
0.0
 44
1.0
 47
0.1
 48
0.1
 73
     0
 77
     1
 78
     8
140
3.5
141
0.0
143
0.0393701
146
0.71
147
1.5
271
     2
272
     3
274
     4
283
     0
288
     1
289
     0
340
11
  0
DIMSTYLE
105
C11
330
A
100
AcDbSymbolTableRecord
100
AcDbDimStyleTableRecord
  2
GEN-ISO$4
 70
     0
 41
2.5
 42
1.0
 43
0.0
 44
1.0
 47
0.1
 48
0.1
 73
     0
 77
     1
 78
     8
140
3.5
141
0.0
143
0.0393701
146
0.71
147
1.5
271
     2
272
     3
274
     4
283
     0
288
     1
289
     0
340
11
  0
DIMSTYLE
105
C12
330
A
100
AcDbSymbolTableRecord
100
AcDbDimStyleTableRecord
  2
GEN-ISO$6
 70
     0
 41
2.5
 42
1.0
 43
0.0
 44
1.0
 47
0.1
 48
0.1
 73
     0
 74
     0
 77
     2
 78
     8
140
3.5
141
0.0
143
0.0393701
146
0.71
147
1.5
271
     2
272
     3
274
     4
283
     0
340
11
  0
DIMSTYLE
105
C1B
330
A
100
AcDbSymbolTableRecord
100
AcDbDimStyleTableRecord
  2
GEN-ISO-POS
 70
     0
 41
2.5
 42
1.0
 43
0.0
 44
1.0
 47
0.1
 48
0.1
 73
     0
 74
     0
 77
     2
 78
     8
140
5.0
141
0.0
143
0.0393701
146
0.71
147
1.5
176
   256
177
   256
178
     1
271
     2
272
     3
274
     4
283
     0
340
11
  0
DIMSTYLE
105
C1C
330
A
100
AcDbSymbolTableRecord
100
AcDbDimStyleTableRecord
  2
GEN-ISO-AXE-F
 70
     0
 41
2.5
 42
1.0
 43
0.0
 44
1.0
 47
0.1
 48
0.1
 73
     0
 74
     0
 75
     1
 76
     1
 77
     1
 78
     8
140
3.5
141
0.0
143
0.0393701
146
0.71
147
1.5
172
     1
176
   256
177
   256
178
     1
271
     2
272
     3
274
     4
283
     0
340
11
  0
DIMSTYLE
105
C1D
330
A
100
AcDbSymbolTableRecord
100
AcDbDimStyleTableRecord
  2
GEN-ISO-AXE-H
 70
     0
 41
2.5
 42
1.0
 43
0.0
 44
1.0
 47
0.1
 48
0.1
 73
     0
 74
     0
 75
     1
 76
     1
 77
     1
 78
     8
140
3.5
141
0.0
143
0.0393701
144
2.0
146
0.71
147
1.5
172
     1
173
     1
176
   256
177
   256
178
     1
271
     2
272
     3
274
     4
283
     0
340
11
343
C16
  0
ENDTAB
  0
TABLE
  2
BLOCK_RECORD
  5
1
330
0
100
AcDbSymbolTable
 70
    17
  0
BLOCK_RECORD
  5
1F
102
{ACAD_XDICTIONARY
360
C39
102
}
330
1
100
AcDbSymbolTableRecord
100
AcDbBlockTableRecord
  2
*Model_Space
340
22
  0
BLOCK_RECORD
  5
1B
330
1
100
AcDbSymbolTableRecord
100
AcDbBlockTableRecord
  2
*Paper_Space
340
1E
  0
BLOCK_RECORD
  5
23
330
1
100
AcDbSymbolTableRecord
100
AcDbBlockTableRecord
  2
*Paper_Space0
340
26
  0
BLOCK_RECORD
  5
2B
330
1
100
AcDbSymbolTableRecord
100
AcDbBlockTableRecord
  2
LOGO
340
0
102
{BLKREFS
331
DCF
102
}
  0
BLOCK_RECORD
  5
70
330
1
100
AcDbSymbolTableRecord
100
AcDbBlockTableRecord
  2
*X2
340
0
102
{BLKREFS
331
51
102
}
  0
BLOCK_RECORD
  5
90
330
1
100
AcDbSymbolTableRecord
100
AcDbBlockTableRecord
  2
*X3
340
0
102
{BLKREFS
331
52
102
}
  0
BLOCK_RECORD
  5
B8
330
1
100
AcDbSymbolTableRecord
100
AcDbBlockTableRecord
  2
*X4
340
0
102
{BLKREFS
331
53
102
}
  0
BLOCK_RECORD
  5
DD
330
1
100
AcDbSymbolTableRecord
100
AcDbBlockTableRecord
  2
*X5
340
0
102
{BLKREFS
331
54
102
}
  0
BLOCK_RECORD
  5
10E
330
1
100
AcDbSymbolTableRecord
100
AcDbBlockTableRecord
  2
*X6
340
0
102
{BLKREFS
331
55
331
5C
102
}
  0
BLOCK_RECORD
  5
136
330
1
100
AcDbSymbolTableRecord
100
AcDbBlockTableRecord
  2
*X7
340
0
102
{BLKREFS
331
56
331
5B
102
}
  0
BLOCK_RECORD
  5
15D
330
1
100
AcDbSymbolTableRecord
100
AcDbBlockTableRecord
  2
*X8
340
0
102
{BLKREFS
331
57
331
5A
102
}
  0
BLOCK_RECORD
  5
185
330
1
100
AcDbSymbolTableRecord
100
AcDbBlockTableRecord
  2
*X9
340
0
102
{BLKREFS
331
58
331
59
102
}
  0
BLOCK_RECORD
  5
361
330
1
100
AcDbSymbolTableRecord
100
AcDbBlockTableRecord
  2
INPUT
340
0
310
2800000020000000200000000100080000000000000400000000000000000000000000000000000000000000000080000080000000808000800000008000800080800000C0C0C000C0DCC000F0CAA6000020400000206000002080000020A0000020C0000020E00000400000004020000040400000406000004080000040A0
310
000040C0000040E00000600000006020000060400000606000006080000060A0000060C0000060E00000800000008020000080400000806000008080000080A0000080C0000080E00000A0000000A0200000A0400000A0600000A0800000A0A00000A0C00000A0E00000C0000000C0200000C0400000C0600000C0800000C0
310
A00000C0C00000C0E00000E0000000E0200000E0400000E0600000E0800000E0A00000E0C00000E0E00040000000400020004000400040006000400080004000A0004000C0004000E00040200000402020004020400040206000402080004020A0004020C0004020E000404000004040200040404000404060004040800040
310
40A0004040C0004040E00040600000406020004060400040606000406080004060A0004060C0004060E00040800000408020004080400040806000408080004080A0004080C0004080E00040A0000040A0200040A0400040A0600040A0800040A0A00040A0C00040A0E00040C0000040C0200040C0400040C0600040C08000
310
40C0A00040C0C00040C0E00040E0000040E0200040E0400040E0600040E0800040E0A00040E0C00040E0E00080000000800020008000400080006000800080008000A0008000C0008000E00080200000802020008020400080206000802080008020A0008020C0008020E00080400000804020008040400080406000804080
310
008040A0008040C0008040E00080600000806020008060400080606000806080008060A0008060C0008060E00080800000808020008080400080806000808080008080A0008080C0008080E00080A0000080A0200080A0400080A0600080A0800080A0A00080A0C00080A0E00080C0000080C0200080C0400080C0600080C0
310
800080C0A00080C0C00080C0E00080E0000080E0200080E0400080E0600080E0800080E0A00080E0C00080E0E000C0000000C0002000C0004000C0006000C0008000C000A000C000C000C000E000C0200000C0202000C0204000C0206000C0208000C020A000C020C000C020E000C0400000C0402000C0404000C0406000C0
310
408000C040A000C040C000C040E000C0600000C0602000C0604000C0606000C0608000C060A000C060C000C060E000C0800000C0802000C0804000C0806000C0808000C080A000C080C000C080E000C0A00000C0A02000C0A04000C0A06000C0A08000C0A0A000C0A0C000C0A0E000C0C00000C0C02000C0C04000C0C06000
310
C0C08000C0C0A000F0FBFF00A4A0A000808080000000FF0000FF000000FFFF00FF000000FF00FF00FFFF0000FFFFFF0000000000000000000000000000000000000000000000000000000000000000000000000000000000000000000000000000000000000000000000000000000000000000000000000000000000000000
310
000000000000000000000000000000000000000000000000000000000000000000000000000000000000000000000000000000000000000000000000000000000000000000000000000000000000000000000000000000000000000000000000000000000000000000000000000000000000FBFBFBFBFBFBFBFBFBFBFBFBFB
310
FBFBFBFBFBFBFB000000000000000000000000FBFB0000000000000000000000000000000000FB000000000000000000000000FB00FB000000000000000000000000FBFB0000FB000000000000000000000000FB0000FB000000000000000000FB00FBFB0000FB000000000000000000000000FB000000FB00000000000000
310
00FBFB00000000FB000000000000000000000000FB00000000FB00000000000000FB0000000000FB000000000000000000000000FB0000000000FB000000000000FB0000000000FB000000000000000000000000FB000000FB0000FB0000000000FB0000000000FB000000000000000000000000FB000000FB000000FB0000
310
0000FBFB00000000FB000000FB0000000000000000FB000000FB00000000FB0000000000FB000000FB000000FBFBFB000000000000FB000000FB000000FBFBFB0000000000FB0000FBFBFBFBFBFBFBFBFBFBFB0000FB00FBFBFBFBFBFBFBFB00FB00000000000000FB000000FBFB00000000000000FB0000FBFBFB00FB0000
310
FBFBFB000000000000FB000000000000000000000000FB0000FBFBFB00000000FBFB00FB0000000000FB000000000000000000000000FB00FB00FB00FB0000FB00000000FB00000000FB000000000000000000000000FB00FB00FB00FB0000000000000000FB000000FB000000000000000000000000FBFBFBFBFBFBFBFB00
310
00000000000000FB0000FB000000000000000000000000FB000000FB000000000000000000000000FB00FB000000000000000000000000FB000000FB00000000000000000000000000FBFB000000000000000000000000FBFBFBFBFBFBFBFBFBFBFBFBFBFBFBFBFBFBFBFB0000000000000000000000000000000000000000
310
00000000000000000000000000000000000000000000000000000000000000000000000000000000000000000000000000000000000000000000000000000000000000000000000000000000000000000000000000000000000000000000000000000000000000000000000000000000000000000000000000000000000000
310
0000000000000000000000000000000000000000000000000000000000000000000000000000000000000000000000000000000000000000
1001
ACAD
1000
DesignCenter Data
1002
{
1070
     1
1070
     4
1002
}
  0
BLOCK_RECORD
  5
4C5
330
1
100
AcDbSymbolTableRecord
100
AcDbBlockTableRecord
  2
REL2
340
0
310
2800000020000000200000000100080000000000000400000000000000000000000000000000000000000000000080000080000000808000800000008000800080800000C0C0C000C0DCC000F0CAA6000020400000206000002080000020A0000020C0000020E00000400000004020000040400000406000004080000040A0
310
000040C0000040E00000600000006020000060400000606000006080000060A0000060C0000060E00000800000008020000080400000806000008080000080A0000080C0000080E00000A0000000A0200000A0400000A0600000A0800000A0A00000A0C00000A0E00000C0000000C0200000C0400000C0600000C0800000C0
310
A00000C0C00000C0E00000E0000000E0200000E0400000E0600000E0800000E0A00000E0C00000E0E00040000000400020004000400040006000400080004000A0004000C0004000E00040200000402020004020400040206000402080004020A0004020C0004020E000404000004040200040404000404060004040800040
310
40A0004040C0004040E00040600000406020004060400040606000406080004060A0004060C0004060E00040800000408020004080400040806000408080004080A0004080C0004080E00040A0000040A0200040A0400040A0600040A0800040A0A00040A0C00040A0E00040C0000040C0200040C0400040C0600040C08000
310
40C0A00040C0C00040C0E00040E0000040E0200040E0400040E0600040E0800040E0A00040E0C00040E0E00080000000800020008000400080006000800080008000A0008000C0008000E00080200000802020008020400080206000802080008020A0008020C0008020E00080400000804020008040400080406000804080
310
008040A0008040C0008040E00080600000806020008060400080606000806080008060A0008060C0008060E00080800000808020008080400080806000808080008080A0008080C0008080E00080A0000080A0200080A0400080A0600080A0800080A0A00080A0C00080A0E00080C0000080C0200080C0400080C0600080C0
310
800080C0A00080C0C00080C0E00080E0000080E0200080E0400080E0600080E0800080E0A00080E0C00080E0E000C0000000C0002000C0004000C0006000C0008000C000A000C000C000C000E000C0200000C0202000C0204000C0206000C0208000C020A000C020C000C020E000C0400000C0402000C0404000C0406000C0
310
408000C040A000C040C000C040E000C0600000C0602000C0604000C0606000C0608000C060A000C060C000C060E000C0800000C0802000C0804000C0806000C0808000C080A000C080C000C080E000C0A00000C0A02000C0A04000C0A06000C0A08000C0A0A000C0A0C000C0A0E000C0C00000C0C02000C0C04000C0C06000
310
C0C08000C0C0A000F0FBFF00A4A0A000808080000000FF0000FF000000FFFF00FF000000FF00FF00FFFF0000FFFFFF0000000000000000000000000000000000000000000000000000000000000000000000000000000000000000000000000000000000000000000000000000000000000000000000000000000000000000
310
00000000000000000000000000000000000000000000000000000000000000000000000000000000000000000000000000000000000000000000000000000000000000000000000000000000000000000000000000000000000000000000000000000000000000000000000000000000000000000000000000000000000000
310
0000000000000000000000000000000000000000000000000000000000000000000000000000000000000000000000000000000000000000000000000000000000000000000000000000000000000000000000000000000000000000000000000000000000FBFBFBFBFBFBFBFBFBFBFBFB0000000000000000000000000000
310
000000000000FB0000000000000000000000000000FB00000000000000000000000000000000FB00000000000000000000000000FBFBFBFBFBFBFBFB00000000000000000000FB0000FBFBFBFBFBFBFBFBFB000000FB0000000000FB00000000000000000000FB0000FB0000000000000000000000000000000000FB000000
310
00000000000000FB0000FB0000000000000000000000000000000000FB00000000000000000000FB0000FB0000FBFBFBFBFBFB000000000000FBFBFBFBFBFB0000000000000000FB0000FB0000FB0000000000000000000000FBFB000000FB0000000000000000FB0000FB0000FB0000000000000000000000FB00FBFB00FB
310
FBFBFBFBFBFBFBFBFBFBFBFBFBFBFBFB00000000000000000000FB000000FBFB00000000000000000000FBFB00000000FB000000000000000000FBFBFBFBFBFB0000000000000000FB0000FB0000FB0000000000000000000000000000FB00000000000000000000FBFBFBFB0000FBFBFBFBFBFB000000000000000000FB00
310
00000000000000000000000000000000000000000000000000000000000000000000000000000000000000000000000000000000000000000000000000000000000000000000000000000000000000000000000000000000000000000000000000000000000000000000000000000000000000000000000000000000000000
310
00000000000000000000000000000000000000000000000000000000000000000000000000000000000000000000000000000000000000000000000000000000000000000000000000000000000000000000000000000000000000000000000000000000000000000000000000000000000000000000000000000000000000
310
0000000000000000000000000000000000000000000000000000000000000000000000000000000000000000000000000000000000000000
1001
ACAD
1000
DesignCenter Data
1002
{
1070
     1
1070
     4
1002
}
  0
BLOCK_RECORD
  5
4DC
330
1
100
AcDbSymbolTableRecord
100
AcDbBlockTableRecord
  2
RELV
340
0
310
2800000020000000200000000100080000000000000400000000000000000000000000000000000000000000000080000080000000808000800000008000800080800000C0C0C000C0DCC000F0CAA6000020400000206000002080000020A0000020C0000020E00000400000004020000040400000406000004080000040A0
310
000040C0000040E00000600000006020000060400000606000006080000060A0000060C0000060E00000800000008020000080400000806000008080000080A0000080C0000080E00000A0000000A0200000A0400000A0600000A0800000A0A00000A0C00000A0E00000C0000000C0200000C0400000C0600000C0800000C0
310
A00000C0C00000C0E00000E0000000E0200000E0400000E0600000E0800000E0A00000E0C00000E0E00040000000400020004000400040006000400080004000A0004000C0004000E00040200000402020004020400040206000402080004020A0004020C0004020E000404000004040200040404000404060004040800040
310
40A0004040C0004040E00040600000406020004060400040606000406080004060A0004060C0004060E00040800000408020004080400040806000408080004080A0004080C0004080E00040A0000040A0200040A0400040A0600040A0800040A0A00040A0C00040A0E00040C0000040C0200040C0400040C0600040C08000
310
40C0A00040C0C00040C0E00040E0000040E0200040E0400040E0600040E0800040E0A00040E0C00040E0E00080000000800020008000400080006000800080008000A0008000C0008000E00080200000802020008020400080206000802080008020A0008020C0008020E00080400000804020008040400080406000804080
310
008040A0008040C0008040E00080600000806020008060400080606000806080008060A0008060C0008060E00080800000808020008080400080806000808080008080A0008080C0008080E00080A0000080A0200080A0400080A0600080A0800080A0A00080A0C00080A0E00080C0000080C0200080C0400080C0600080C0
310
800080C0A00080C0C00080C0E00080E0000080E0200080E0400080E0600080E0800080E0A00080E0C00080E0E000C0000000C0002000C0004000C0006000C0008000C000A000C000C000C000E000C0200000C0202000C0204000C0206000C0208000C020A000C020C000C020E000C0400000C0402000C0404000C0406000C0
310
408000C040A000C040C000C040E000C0600000C0602000C0604000C0606000C0608000C060A000C060C000C060E000C0800000C0802000C0804000C0806000C0808000C080A000C080C000C080E000C0A00000C0A02000C0A04000C0A06000C0A08000C0A0A000C0A0C000C0A0E000C0C00000C0C02000C0C04000C0C06000
310
C0C08000C0C0A000F0FBFF00A4A0A000808080000000FF0000FF000000FFFF00FF000000FF00FF00FFFF0000FFFFFF0000000000000000000000000000000000000000000000000000000000000000000000000000000000000000000000000000000000000000000000000000000000000000000000000000000000000000
310
00000000000000000000000000000000000000000000000000000000000000000000000000000000000000000000000000000000000000000000000000000000000000000000000000000000000000000000000000000000000000000000000000000000000000000000000000000000000000000000000000000000000000
310
00000000000000000000000000000000000000000000000000000000000000000000000000000000000000000000000000000000FB00000000000000000000000000000000FBFBFBFBFBFBFBFBFBFBFBFB0000FBFBFBFBFBFBFBFB00000000000000000000FB0000000000000000000000000000FB0000000000FB00000000
310
000000000000FB0000000000000000000000000000000000000000FB00000000000000000000FB0000000000000000000000000000000000000000FB00000000000000000000FB0000000000000000000000000000000000000000FB00000000000000000000FB0000000000000000000000000000000000FBFBFBFBFBFB00
310
00000000000000FB0000000000000000000000000000000000FBFBFB0000FBFBFBFBFBFBFBFBFBFBFB00000000000000000000000000000000FB0000FBFBFB000000000000000000FB00000000000000000000000000000000FBFBFBFBFBFB0000000000000000FBFBFB000000000000000000000000000000000000FB0000
310
0000000000000000FB00FB000000000000000000000000000000000000FB00000000000000000000FB00FB0000000000000000000000000000000000000000000000000000000000FB00FBFBFBFBFBFBFBFBFBFB0000000000000000000000000000000000000000FB00000000000000000000000000000000000000000000
310
000000000000000000FB00000000000000000000000000000000000000000000000000000000000000FBFBFBFBFBFBFBFBFBFBFBFB0000000000000000000000000000000000000000000000000000000000000000000000000000000000000000000000000000000000000000000000000000000000000000000000000000
310
00000000000000000000000000000000000000000000000000000000000000000000000000000000000000000000000000000000000000000000000000000000000000000000000000000000000000000000000000000000000000000000000000000000000000000000000000000000000000000000000000000000000000
310
0000000000000000000000000000000000000000000000000000000000000000000000000000000000000000000000000000000000000000
1001
ACAD
1000
DesignCenter Data
1002
{
1070
     1
1070
     4
1002
}
  0
BLOCK_RECORD
  5
AF9
330
1
100
AcDbSymbolTableRecord
100
AcDbBlockTableRecord
  2
COPYRIGHT
340
0
102
{BLKREFS
331
DDE
102
}
  0
BLOCK_RECORD
  5
BDC
330
1
100
AcDbSymbolTableRecord
100
AcDbBlockTableRecord
  2
*U14
340
0
  0
BLOCK_RECORD
  5
C16
330
1
100
AcDbSymbolTableRecord
100
AcDbBlockTableRecord
  2
GENAXEH
340
0
  0
BLOCK_RECORD
  5
DAB
102
{ACAD_XDICTIONARY
360
DDF
102
}
330
1
100
AcDbSymbolTableRecord
100
AcDbBlockTableRecord
  2
ABB3T
340
0
102
{BLKREFS
331
DE2
102
}
  0
ENDTAB
  0
ENDSEC
  0
SECTION
  2
BLOCKS
  0
BLOCK
  5
20
330
1F
100
AcDbEntity
  8
0
100
AcDbBlockBegin
  2
*Model_Space
 70
     0
 10
0.0
 20
0.0
 30
0.0
  3
*Model_Space
  1

  0
ENDBLK
  5
21
330
1F
100
AcDbEntity
  8
0
100
AcDbBlockEnd
  0
BLOCK
  5
1C
330
1B
100
AcDbEntity
 67
     1
  8
0
100
AcDbBlockBegin
  2
*Paper_Space
 70
     0
 10
0.0
 20
0.0
 30
0.0
  3
*Paper_Space
  1

  0
ENDBLK
  5
1D
330
1B
100
AcDbEntity
 67
     1
  8
0
100
AcDbBlockEnd
  0
BLOCK
  5
24
330
23
100
AcDbEntity
  8
0
100
AcDbBlockBegin
  2
*Paper_Space0
 70
     0
 10
0.0
 20
0.0
 30
0.0
  3
*Paper_Space0
  1

  0
ENDBLK
  5
25
330
23
100
AcDbEntity
  8
0
100
AcDbBlockEnd
  0
BLOCK
  5
6E
330
2B
100
AcDbEntity
  8
0
100
AcDbBlockBegin
  2
LOGO
 70
     0
 10
0.0
 20
0.0
 30
0.0
  3
LOGO
  1

  0
LINE
  5
2C
330
2B
100
AcDbEntity
  8
RAAMI
100
AcDbLine
 10
0.9499999999999992
 20
10.5
 30
0.0
 11
2.699999999999999
 21
10.5
 31
0.0
  0
LINE
  5
2D
330
2B
100
AcDbEntity
  8
RAAMI
100
AcDbLine
 10
6.199999999999999
 20
10.5
 30
0.0
 11
7.949999999999999
 21
10.5
 31
0.0
  0
LINE
  5
2E
330
2B
100
AcDbEntity
  8
RAAMI
100
AcDbLine
 10
3.399999999999998
 20
17.5
 30
0.0
 11
2.250249999999998
 21
14.215
 31
0.0
  0
LINE
  5
2F
330
2B
100
AcDbEntity
  8
RAAMI
100
AcDbLine
 10
3.188786698097196
 20
11.9
 30
0.0
 11
4.235000000000002
 21
11.9
 31
0.0
  0
LINE
  5
30
330
2B
100
AcDbEntity
  8
RAAMI
100
AcDbLine
 10
3.18878989496271
 20
11.89654255703631
 30
0.0
 11
2.699999999999999
 21
10.5
 31
0.0
  0
LINE
  5
31
330
2B
100
AcDbEntity
  8
RAAMI
100
AcDbLine
 10
5.5
 20
17.5
 30
0.0
 11
6.64975
 21
14.215
 31
0.0
  0
LINE
  5
32
330
2B
100
AcDbEntity
  8
RAAMI
100
AcDbLine
 10
5.711097703285556
 20
11.8968637048984
 30
0.0
 11
6.199999999999999
 21
10.5
 31
0.0
  0
LINE
  5
33
330
2B
100
AcDbEntity
  8
RAAMI
100
AcDbLine
 10
5.5
 20
17.5
 30
0.0
 11
4.665
 21
17.5
 31
0.0
  0
LINE
  5
34
330
2B
100
AcDbEntity
  8
RAAMI
100
AcDbLine
 10
4.235000000000002
 20
17.5
 30
0.0
 11
4.235000000000002
 21
14.215
 31
0.0
  0
LINE
  5
35
330
2B
100
AcDbEntity
  8
RAAMI
100
AcDbLine
 10
4.665
 20
17.5
 30
0.0
 11
4.665
 21
14.215
 31
0.0
  0
LINE
  5
36
330
2B
100
AcDbEntity
  8
RAAMI
100
AcDbLine
 10
4.665
 20
11.9
 30
0.0
 11
5.709893393426749
 21
11.9
 31
0.0
  0
LINE
  5
37
330
2B
100
AcDbEntity
  8
RAAMI
100
AcDbLine
 10
4.235000000000002
 20
17.5
 30
0.0
 11
3.399999999999998
 21
17.5
 31
0.0
  0
LINE
  5
38
330
2B
100
AcDbEntity
  8
RAAMI
100
AcDbLine
 10
2.250249999999998
 20
14.215
 30
0.0
 11
4.235000000000002
 21
14.215
 31
0.0
  0
LINE
  5
39
330
2B
100
AcDbEntity
  8
RAAMI
100
AcDbLine
 10
2.09975
 20
13.785
 30
0.0
 11
4.235000000000002
 21
13.785
 31
0.0
  0
LINE
  5
3A
330
2B
100
AcDbEntity
  8
RAAMI
100
AcDbLine
 10
6.800249999999999
 20
13.785
 30
0.0
 11
7.949999999999999
 21
10.5
 31
0.0
  0
LINE
  5
3B
330
2B
100
AcDbEntity
  8
RAAMI
100
AcDbLine
 10
4.665
 20
14.215
 30
0.0
 11
6.64975
 21
14.215
 31
0.0
  0
LINE
  5
3C
330
2B
100
AcDbEntity
  8
RAAMI
100
AcDbLine
 10
4.665
 20
13.785
 30
0.0
 11
6.800249999999999
 21
13.785
 31
0.0
  0
LINE
  5
3D
330
2B
100
AcDbEntity
  8
RAAMI
100
AcDbLine
 10
4.665
 20
13.785
 30
0.0
 11
4.665
 21
11.9
 31
0.0
  0
LINE
  5
3E
330
2B
100
AcDbEntity
  8
RAAMI
100
AcDbLine
 10
4.235000000000002
 20
13.785
 30
0.0
 11
4.235000000000002
 21
11.9
 31
0.0
  0
LINE
  5
3F
330
2B
100
AcDbEntity
  8
RAAMI
100
AcDbLine
 10
2.09975
 20
13.785
 30
0.0
 11
0.9499999999999992
 21
10.5
 31
0.0
  0
LINE
  5
40
330
2B
100
AcDbEntity
  8
RAAMI
100
AcDbLine
 10
8.440000000000001
 20
10.5
 30
0.0
 11
8.440000000000001
 21
13.785
 31
0.0
  0
LINE
  5
41
330
2B
100
AcDbEntity
  8
RAAMI
100
AcDbLine
 10
8.440000000000001
 20
17.5
 30
0.0
 11
10.325
 21
17.5
 31
0.0
  0
LINE
  5
42
330
2B
100
AcDbEntity
  8
RAAMI
100
AcDbLine
 10
10.325
 20
17.5
 30
0.0
 11
10.325
 21
14.215
 31
0.0
  0
LINE
  5
43
330
2B
100
AcDbEntity
  8
RAAMI
100
AcDbLine
 10
10.325
 20
14.215
 30
0.0
 11
8.440000000000001
 21
14.215
 31
0.0
  0
LINE
  5
44
330
2B
100
AcDbEntity
  8
RAAMI
100
AcDbLine
 10
8.440000000000001
 20
13.785
 30
0.0
 11
10.325
 21
13.785
 31
0.0
  0
LINE
  5
45
330
2B
100
AcDbEntity
  8
RAAMI
100
AcDbLine
 10
10.325
 20
13.785
 30
0.0
 11
10.325
 21
10.5
 31
0.0
  0
LINE
  5
46
330
2B
100
AcDbEntity
  8
RAAMI
100
AcDbLine
 10
10.325
 20
10.5
 30
0.0
 11
8.440000000000001
 21
10.5
 31
0.0
  0
LINE
  5
47
330
2B
100
AcDbEntity
  8
RAAMI
100
AcDbLine
 10
8.440000000000001
 20
14.215
 30
0.0
 11
8.440000000000001
 21
17.5
 31
0.0
  0
ARC
  5
48
330
2B
100
AcDbEntity
  8
RAAMI
100
AcDbCircle
 10
11.24
 20
15.925
 30
0.0
 40
1.574999999999998
100
AcDbArc
 50
298.4558593394118
 51
90.0524369955635
  0
LINE
  5
49
330
2B
100
AcDbEntity
  8
RAAMI
100
AcDbLine
 10
10.755
 20
17.49999934039966
 30
0.0
 11
11.23855856300088
 21
17.49999934039966
 31
0.0
  0
LINE
  5
4A
330
2B
100
AcDbEntity
  8
RAAMI
100
AcDbLine
 10
10.755
 20
17.5
 30
0.0
 11
10.755
 21
14.215
 31
0.0
  0
LINE
  5
4B
330
2B
100
AcDbEntity
  8
RAAMI
100
AcDbLine
 10
10.755
 20
14.215
 30
0.0
 11
12.5823021269446
 21
14.215
 31
0.0
  0
LINE
  5
4C
330
2B
100
AcDbEntity
  8
RAAMI
100
AcDbLine
 10
12.97371710495109
 20
13.785
 30
0.0
 11
10.755
 21
13.785
 31
0.0
  0
LINE
  5
4D
330
2B
100
AcDbEntity
  8
RAAMI
100
AcDbLine
 10
10.755
 20
13.785
 30
0.0
 11
10.755
 21
10.5
 31
0.0
  0
ARC
  5
4E
330
2B
100
AcDbEntity
  8
RAAMI
100
AcDbCircle
 10
11.24
 20
12.6
 30
0.0
 40
2.099999999999998
100
AcDbArc
 50
269.9377244294033
 51
34.35270472657854
  0
LINE
  5
4F
330
2B
100
AcDbEntity
  8
RAAMI
100
AcDbLine
 10
10.755
 20
10.50000124045045
 30
0.0
 11
11.23771748157343
 21
10.50000124045045
 31
0.0
  0
ARC
  5
50
330
2B
100
AcDbEntity
  8
RAAMI
100
AcDbCircle
 10
11.24
 20
12.6
 30
0.0
 40
2.099999999999998
100
AcDbArc
 50
50.26844274022763
 51
68.78799932186918
  0
INSERT
  5
51
330
2B
100
AcDbEntity
  8
RAAMI
100
AcDbBlockReference
  2
*X2
 10
0.0
 20
0.0
 30
0.0
  0
INSERT
  5
52
330
2B
100
AcDbEntity
  8
RAAMI
100
AcDbBlockReference
  2
*X3
 10
0.0
 20
0.0
 30
0.0
  0
INSERT
  5
53
330
2B
100
AcDbEntity
  8
RAAMI
100
AcDbBlockReference
  2
*X4
 10
0.0
 20
0.0
 30
0.0
  0
INSERT
  5
54
330
2B
100
AcDbEntity
  8
RAAMI
100
AcDbBlockReference
  2
*X5
 10
0.0
 20
0.0
 30
0.0
  0
INSERT
  5
55
330
2B
100
AcDbEntity
  8
RAAMI
100
AcDbBlockReference
  2
*X6
 10
0.0
 20
0.0
 30
0.0
  0
INSERT
  5
56
330
2B
100
AcDbEntity
  8
RAAMI
100
AcDbBlockReference
  2
*X7
 10
0.0
 20
0.0
 30
0.0
  0
INSERT
  5
57
330
2B
100
AcDbEntity
  8
RAAMI
100
AcDbBlockReference
  2
*X8
 10
0.0
 20
0.0
 30
0.0
  0
INSERT
  5
58
330
2B
100
AcDbEntity
  8
RAAMI
100
AcDbBlockReference
  2
*X9
 10
0.0
 20
0.0
 30
0.0
  0
INSERT
  5
59
330
2B
100
AcDbEntity
  8
RAAMI
100
AcDbBlockReference
  2
*X9
 10
5.459999999999997
 20
0.0
 30
0.0
  0
INSERT
  5
5A
330
2B
100
AcDbEntity
  8
RAAMI
100
AcDbBlockReference
  2
*X8
 10
5.459999999999997
 20
0.0
 30
0.0
  0
INSERT
  5
5B
330
2B
100
AcDbEntity
  8
RAAMI
100
AcDbBlockReference
  2
*X7
 10
5.459999999999997
 20
0.0
 30
0.0
  0
INSERT
  5
5C
330
2B
100
AcDbEntity
  8
RAAMI
100
AcDbBlockReference
  2
*X6
 10
5.459999999999997
 20
0.0
 30
0.0
  0
ARC
  5
5D
330
2B
100
AcDbEntity
  8
RAAMI
100
AcDbCircle
 10
16.69999999999999
 20
12.6
 30
0.0
 40
2.099999999999998
100
AcDbArc
 50
50.26844274022763
 51
68.78799932186918
  0
LINE
  5
5E
330
2B
100
AcDbEntity
  8
RAAMI
100
AcDbLine
 10
16.21499999999999
 20
10.50000124045045
 30
0.0
 11
16.69771748157343
 21
10.50000124045045
 31
0.0
  0
ARC
  5
5F
330
2B
100
AcDbEntity
  8
RAAMI
100
AcDbCircle
 10
16.69999999999999
 20
12.6
 30
0.0
 40
2.099999999999998
100
AcDbArc
 50
269.9377244294033
 51
34.35270472657854
  0
LINE
  5
60
330
2B
100
AcDbEntity
  8
RAAMI
100
AcDbLine
 10
16.21499999999999
 20
13.785
 30
0.0
 11
16.21499999999999
 21
10.5
 31
0.0
  0
LINE
  5
61
330
2B
100
AcDbEntity
  8
RAAMI
100
AcDbLine
 10
18.43371710495109
 20
13.785
 30
0.0
 11
16.21499999999999
 21
13.785
 31
0.0
  0
LINE
  5
62
330
2B
100
AcDbEntity
  8
RAAMI
100
AcDbLine
 10
16.21499999999999
 20
14.215
 30
0.0
 11
18.0423021269446
 21
14.215
 31
0.0
  0
LINE
  5
63
330
2B
100
AcDbEntity
  8
RAAMI
100
AcDbLine
 10
16.21499999999999
 20
17.5
 30
0.0
 11
16.21499999999999
 21
14.215
 31
0.0
  0
LINE
  5
64
330
2B
100
AcDbEntity
  8
RAAMI
100
AcDbLine
 10
16.21499999999999
 20
17.49999934039966
 30
0.0
 11
16.69855856300088
 21
17.49999934039966
 31
0.0
  0
ARC
  5
65
330
2B
100
AcDbEntity
  8
RAAMI
100
AcDbCircle
 10
16.69999999999999
 20
15.925
 30
0.0
 40
1.574999999999998
100
AcDbArc
 50
298.4558593394118
 51
90.0524369955635
  0
LINE
  5
66
330
2B
100
AcDbEntity
  8
RAAMI
100
AcDbLine
 10
13.9
 20
14.215
 30
0.0
 11
13.9
 21
17.5
 31
0.0
  0
LINE
  5
67
330
2B
100
AcDbEntity
  8
RAAMI
100
AcDbLine
 10
15.785
 20
10.5
 30
0.0
 11
13.9
 21
10.5
 31
0.0
  0
LINE
  5
68
330
2B
100
AcDbEntity
  8
RAAMI
100
AcDbLine
 10
15.785
 20
13.785
 30
0.0
 11
15.785
 21
10.5
 31
0.0
  0
LINE
  5
69
330
2B
100
AcDbEntity
  8
RAAMI
100
AcDbLine
 10
13.9
 20
13.785
 30
0.0
 11
15.785
 21
13.785
 31
0.0
  0
LINE
  5
6A
330
2B
100
AcDbEntity
  8
RAAMI
100
AcDbLine
 10
15.785
 20
14.215
 30
0.0
 11
13.9
 21
14.215
 31
0.0
  0
LINE
  5
6B
330
2B
100
AcDbEntity
  8
RAAMI
100
AcDbLine
 10
15.785
 20
17.5
 30
0.0
 11
15.785
 21
14.215
 31
0.0
  0
LINE
  5
6C
330
2B
100
AcDbEntity
  8
RAAMI
100
AcDbLine
 10
13.9
 20
17.5
 30
0.0
 11
15.785
 21
17.5
 31
0.0
  0
LINE
  5
6D
330
2B
100
AcDbEntity
  8
RAAMI
100
AcDbLine
 10
13.9
 20
10.5
 30
0.0
 11
13.9
 21
13.785
 31
0.0
  0
ENDBLK
  5
6F
330
2B
100
AcDbEntity
  8
0
100
AcDbBlockEnd
  0
BLOCK
  5
8E
330
70
100
AcDbEntity
  8
0
100
AcDbBlockBegin
  2
*X2
 70
     1
 10
0.0
 20
0.0
 30
0.0
  3
*X2
  1

  0
LINE
  5
71
330
70
100
AcDbEntity
  8
0
 62
     0
100
AcDbLine
 10
2.585038841218752
 20
15.1715395463393
 30
0.0
 11
4.235000000000002
 21
16.82150070512055
 31
0.0
  0
LINE
  5
72
330
70
100
AcDbEntity
  8
0
 62
     0
100
AcDbLine
 10
2.661188802269611
 20
15.38911086362746
 30
0.0
 11
4.235000000000002
 21
16.96292206135786
 31
0.0
  0
LINE
  5
73
330
70
100
AcDbEntity
  8
0
 62
     0
100
AcDbLine
 10
2.737338763320471
 20
15.60668218091564
 30
0.0
 11
4.235000000000002
 21
17.10434341759517
 31
0.0
  0
LINE
  5
74
330
70
100
AcDbEntity
  8
0
 62
     0
100
AcDbLine
 10
2.81348872437133
 20
15.8242534982038
 30
0.0
 11
4.235000000000002
 21
17.24576477383247
 31
0.0
  0
LINE
  5
75
330
70
100
AcDbEntity
  8
0
 62
     0
100
AcDbLine
 10
2.889638685422188
 20
16.04182481549197
 30
0.0
 11
4.235000000000002
 21
17.38718613006978
 31
0.0
  0
LINE
  5
76
330
70
100
AcDbEntity
  8
0
 62
     0
100
AcDbLine
 10
2.965788646473047
 20
16.25939613278014
 30
0.0
 11
4.206392513692907
 21
17.5
 31
0.0
  0
LINE
  5
77
330
70
100
AcDbEntity
  8
0
 62
     0
100
AcDbLine
 10
3.041938607523906
 20
16.47696745006831
 30
0.0
 11
4.064971157455597
 21
17.5
 31
0.0
  0
LINE
  5
78
330
70
100
AcDbEntity
  8
0
 62
     0
100
AcDbLine
 10
3.118088568574766
 20
16.69453876735648
 30
0.0
 11
3.923549801218286
 21
17.5
 31
0.0
  0
LINE
  5
79
330
70
100
AcDbEntity
  8
0
 62
     0
100
AcDbLine
 10
3.194238529625625
 20
16.91211008464465
 30
0.0
 11
3.782128444980977
 21
17.5
 31
0.0
  0
LINE
  5
7A
330
70
100
AcDbEntity
  8
0
 62
     0
100
AcDbLine
 10
3.270388490676483
 20
17.12968140193281
 30
0.0
 11
3.640707088743668
 21
17.5
 31
0.0
  0
LINE
  5
7B
330
70
100
AcDbEntity
  8
0
 62
     0
100
AcDbLine
 10
3.346538451727341
 20
17.34725271922098
 30
0.0
 11
3.499285732506359
 21
17.5
 31
0.0
  0
LINE
  5
7C
330
70
100
AcDbEntity
  8
0
 62
     0
100
AcDbLine
 10
2.508888880167894
 20
14.95396822905113
 30
0.0
 11
4.235000000000002
 21
16.68007934888324
 31
0.0
  0
LINE
  5
7D
330
70
100
AcDbEntity
  8
0
 62
     0
100
AcDbLine
 10
2.432738919117035
 20
14.73639691176296
 30
0.0
 11
4.235000000000002
 21
16.53865799264593
 31
0.0
  0
LINE
  5
7E
330
70
100
AcDbEntity
  8
0
 62
     0
100
AcDbLine
 10
2.356588958066176
 20
14.51882559447479
 30
0.0
 11
4.235000000000002
 21
16.39723663640862
 31
0.0
  0
LINE
  5
7F
330
70
100
AcDbEntity
  8
0
 62
     0
100
AcDbLine
 10
2.280438997015318
 20
14.30125427718663
 30
0.0
 11
4.235000000000002
 21
16.25581528017131
 31
0.0
  0
LINE
  5
80
330
70
100
AcDbEntity
  8
0
 62
     0
100
AcDbLine
 10
2.335606076066001
 20
14.215
 30
0.0
 11
4.235000000000002
 21
16.114393923934
 31
0.0
  0
LINE
  5
81
330
70
100
AcDbEntity
  8
0
 62
     0
100
AcDbLine
 10
2.47702743230331
 20
14.215
 30
0.0
 11
4.235000000000002
 21
15.97297256769669
 31
0.0
  0
LINE
  5
82
330
70
100
AcDbEntity
  8
0
 62
     0
100
AcDbLine
 10
2.618448788540619
 20
14.215
 30
0.0
 11
4.235000000000002
 21
15.83155121145938
 31
0.0
  0
LINE
  5
83
330
70
100
AcDbEntity
  8
0
 62
     0
100
AcDbLine
 10
2.759870144777928
 20
14.215
 30
0.0
 11
4.235000000000002
 21
15.69012985522207
 31
0.0
  0
LINE
  5
84
330
70
100
AcDbEntity
  8
0
 62
     0
100
AcDbLine
 10
2.901291501015239
 20
14.215
 30
0.0
 11
4.235000000000002
 21
15.54870849898476
 31
0.0
  0
LINE
  5
85
330
70
100
AcDbEntity
  8
0
 62
     0
100
AcDbLine
 10
3.042712857252547
 20
14.215
 30
0.0
 11
4.235000000000002
 21
15.40728714274745
 31
0.0
  0
LINE
  5
86
330
70
100
AcDbEntity
  8
0
 62
     0
100
AcDbLine
 10
3.184134213489858
 20
14.215
 30
0.0
 11
4.235000000000002
 21
15.26586578651014
 31
0.0
  0
LINE
  5
87
330
70
100
AcDbEntity
  8
0
 62
     0
100
AcDbLine
 10
3.325555569727167
 20
14.215
 30
0.0
 11
4.235000000000002
 21
15.12444443027283
 31
0.0
  0
LINE
  5
88
330
70
100
AcDbEntity
  8
0
 62
     0
100
AcDbLine
 10
3.466976925964476
 20
14.215
 30
0.0
 11
4.235000000000002
 21
14.98302307403552
 31
0.0
  0
LINE
  5
89
330
70
100
AcDbEntity
  8
0
 62
     0
100
AcDbLine
 10
3.608398282201786
 20
14.215
 30
0.0
 11
4.235000000000002
 21
14.84160171779821
 31
0.0
  0
LINE
  5
8A
330
70
100
AcDbEntity
  8
0
 62
     0
100
AcDbLine
 10
3.749819638439095
 20
14.215
 30
0.0
 11
4.235000000000002
 21
14.70018036156091
 31
0.0
  0
LINE
  5
8B
330
70
100
AcDbEntity
  8
0
 62
     0
100
AcDbLine
 10
3.891240994676405
 20
14.215
 30
0.0
 11
4.235000000000002
 21
14.55875900532359
 31
0.0
  0
LINE
  5
8C
330
70
100
AcDbEntity
  8
0
 62
     0
100
AcDbLine
 10
4.032662350913715
 20
14.215
 30
0.0
 11
4.235000000000002
 21
14.41733764908629
 31
0.0
  0
LINE
  5
8D
330
70
100
AcDbEntity
  8
0
 62
     0
100
AcDbLine
 10
4.174083707151023
 20
14.215
 30
0.0
 11
4.235000000000002
 21
14.27591629284898
 31
0.0
  0
ENDBLK
  5
8F
330
70
100
AcDbEntity
  8
0
100
AcDbBlockEnd
  0
BLOCK
  5
B6
330
90
100
AcDbEntity
  8
0
100
AcDbBlockBegin
  2
*X3
 70
     1
 10
0.0
 20
0.0
 30
0.0
  3
*X3
  1

  0
LINE
  5
91
330
90
100
AcDbEntity
  8
0
 62
     0
100
AcDbLine
 10
4.665
 20
14.84733764908629
 30
0.0
 11
5.971245794681333
 21
16.15358344376762
 31
0.0
  0
LINE
  5
92
330
90
100
AcDbEntity
  8
0
 62
     0
100
AcDbLine
 10
4.665
 20
14.98875900532359
 30
0.0
 11
5.934580998619808
 21
16.2583400039434
 31
0.0
  0
LINE
  5
93
330
90
100
AcDbEntity
  8
0
 62
     0
100
AcDbLine
 10
4.665
 20
15.1301803615609
 30
0.0
 11
5.897916202558284
 21
16.36309656411919
 31
0.0
  0
LINE
  5
94
330
90
100
AcDbEntity
  8
0
 62
     0
100
AcDbLine
 10
4.665
 20
15.27160171779821
 30
0.0
 11
5.861251406496759
 21
16.46785312429497
 31
0.0
  0
LINE
  5
95
330
90
100
AcDbEntity
  8
0
 62
     0
100
AcDbLine
 10
4.665
 20
15.41302307403552
 30
0.0
 11
5.824586610435234
 21
16.57260968447076
 31
0.0
  0
LINE
  5
96
330
90
100
AcDbEntity
  8
0
 62
     0
100
AcDbLine
 10
4.665
 20
15.55444443027283
 30
0.0
 11
5.787921814373709
 21
16.67736624464654
 31
0.0
  0
LINE
  5
97
330
90
100
AcDbEntity
  8
0
 62
     0
100
AcDbLine
 10
4.665
 20
15.69586578651014
 30
0.0
 11
5.751257018312185
 21
16.78212280482232
 31
0.0
  0
LINE
  5
98
330
90
100
AcDbEntity
  8
0
 62
     0
100
AcDbLine
 10
4.665
 20
15.83728714274745
 30
0.0
 11
5.71459222225066
 21
16.88687936499811
 31
0.0
  0
LINE
  5
99
330
90
100
AcDbEntity
  8
0
 62
     0
100
AcDbLine
 10
4.665
 20
15.97870849898476
 30
0.0
 11
5.677927426189135
 21
16.99163592517389
 31
0.0
  0
LINE
  5
9A
330
90
100
AcDbEntity
  8
0
 62
     0
100
AcDbLine
 10
4.665
 20
16.12012985522207
 30
0.0
 11
5.64126263012761
 21
17.09639248534968
 31
0.0
  0
LINE
  5
9B
330
90
100
AcDbEntity
  8
0
 62
     0
100
AcDbLine
 10
4.665
 20
16.26155121145938
 30
0.0
 11
5.604597834066086
 21
17.20114904552546
 31
0.0
  0
LINE
  5
9C
330
90
100
AcDbEntity
  8
0
 62
     0
100
AcDbLine
 10
4.665
 20
16.40297256769669
 30
0.0
 11
5.567933038004562
 21
17.30590560570125
 31
0.0
  0
LINE
  5
9D
330
90
100
AcDbEntity
  8
0
 62
     0
100
AcDbLine
 10
4.665
 20
16.544393923934
 30
0.0
 11
5.531268241943037
 21
17.41066216587703
 31
0.0
  0
LINE
  5
9E
330
90
100
AcDbEntity
  8
0
 62
     0
100
AcDbLine
 10
4.665
 20
16.68581528017131
 30
0.0
 11
5.47918471982869
 21
17.5
 31
0.0
  0
LINE
  5
9F
330
90
100
AcDbEntity
  8
0
 62
     0
100
AcDbLine
 10
4.665
 20
16.82723663640862
 30
0.0
 11
5.337763363591381
 21
17.5
 31
0.0
  0
LINE
  5
A0
330
90
100
AcDbEntity
  8
0
 62
     0
100
AcDbLine
 10
4.665
 20
16.96865799264593
 30
0.0
 11
5.196342007354072
 21
17.5
 31
0.0
  0
LINE
  5
A1
330
90
100
AcDbEntity
  8
0
 62
     0
100
AcDbLine
 10
4.665
 20
17.11007934888324
 30
0.0
 11
5.054920651116764
 21
17.5
 31
0.0
  0
LINE
  5
A2
330
90
100
AcDbEntity
  8
0
 62
     0
100
AcDbLine
 10
4.665
 20
17.25150070512054
 30
0.0
 11
4.913499294879454
 21
17.5
 31
0.0
  0
LINE
  5
A3
330
90
100
AcDbEntity
  8
0
 62
     0
100
AcDbLine
 10
4.665
 20
17.39292206135785
 30
0.0
 11
4.772077938642145
 21
17.5
 31
0.0
  0
LINE
  5
A4
330
90
100
AcDbEntity
  8
0
 62
     0
100
AcDbLine
 10
4.665
 20
14.70591629284897
 30
0.0
 11
6.007910590742858
 21
16.04882688359183
 31
0.0
  0
LINE
  5
A5
330
90
100
AcDbEntity
  8
0
 62
     0
100
AcDbLine
 10
4.665
 20
14.56449493661166
 30
0.0
 11
6.044575386804383
 21
15.94407032341605
 31
0.0
  0
LINE
  5
A6
330
90
100
AcDbEntity
  8
0
 62
     0
100
AcDbLine
 10
4.665
 20
14.42307358037435
 30
0.0
 11
6.081240182865907
 21
15.83931376324026
 31
0.0
  0
LINE
  5
A7
330
90
100
AcDbEntity
  8
0
 62
     0
100
AcDbLine
 10
4.665
 20
14.28165222413705
 30
0.0
 11
6.117904978927431
 21
15.73455720306448
 31
0.0
  0
LINE
  5
A8
330
90
100
AcDbEntity
  8
0
 62
     0
100
AcDbLine
 10
4.739769132100263
 20
14.215
 30
0.0
 11
6.154569774988956
 21
15.62980064288869
 31
0.0
  0
LINE
  5
A9
330
90
100
AcDbEntity
  8
0
 62
     0
100
AcDbLine
 10
4.881190488337572
 20
14.215
 30
0.0
 11
6.191234571050481
 21
15.52504408271291
 31
0.0
  0
LINE
  5
AA
330
90
100
AcDbEntity
  8
0
 62
     0
100
AcDbLine
 10
5.022611844574882
 20
14.215
 30
0.0
 11
6.227899367112006
 21
15.42028752253712
 31
0.0
  0
LINE
  5
AB
330
90
100
AcDbEntity
  8
0
 62
     0
100
AcDbLine
 10
5.164033200812191
 20
14.215
 30
0.0
 11
6.26456416317353
 21
15.31553096236134
 31
0.0
  0
LINE
  5
AC
330
90
100
AcDbEntity
  8
0
 62
     0
100
AcDbLine
 10
5.305454557049501
 20
14.215
 30
0.0
 11
6.301228959235055
 21
15.21077440218555
 31
0.0
  0
LINE
  5
AD
330
90
100
AcDbEntity
  8
0
 62
     0
100
AcDbLine
 10
5.44687591328681
 20
14.215
 30
0.0
 11
6.33789375529658
 21
15.10601784200977
 31
0.0
  0
LINE
  5
AE
330
90
100
AcDbEntity
  8
0
 62
     0
100
AcDbLine
 10
5.58829726952412
 20
14.215
 30
0.0
 11
6.374558551358104
 21
15.00126128183398
 31
0.0
  0
LINE
  5
AF
330
90
100
AcDbEntity
  8
0
 62
     0
100
AcDbLine
 10
5.72971862576143
 20
14.215
 30
0.0
 11
6.411223347419629
 21
14.8965047216582
 31
0.0
  0
LINE
  5
B0
330
90
100
AcDbEntity
  8
0
 62
     0
100
AcDbLine
 10
5.871139981998739
 20
14.215
 30
0.0
 11
6.447888143481153
 21
14.79174816148241
 31
0.0
  0
LINE
  5
B1
330
90
100
AcDbEntity
  8
0
 62
     0
100
AcDbLine
 10
6.012561338236047
 20
14.215
 30
0.0
 11
6.484552939542679
 21
14.68699160130663
 31
0.0
  0
LINE
  5
B2
330
90
100
AcDbEntity
  8
0
 62
     0
100
AcDbLine
 10
6.153982694473358
 20
14.215
 30
0.0
 11
6.521217735604203
 21
14.58223504113084
 31
0.0
  0
LINE
  5
B3
330
90
100
AcDbEntity
  8
0
 62
     0
100
AcDbLine
 10
6.295404050710667
 20
14.215
 30
0.0
 11
6.557882531665728
 21
14.47747848095506
 31
0.0
  0
LINE
  5
B4
330
90
100
AcDbEntity
  8
0
 62
     0
100
AcDbLine
 10
6.436825406947978
 20
14.215
 30
0.0
 11
6.594547327727252
 21
14.37272192077927
 31
0.0
  0
LINE
  5
B5
330
90
100
AcDbEntity
  8
0
 62
     0
100
AcDbLine
 10
6.578246763185286
 20
14.215
 30
0.0
 11
6.631212123788778
 21
14.26796536060349
 31
0.0
  0
ENDBLK
  5
B7
330
90
100
AcDbEntity
  8
0
100
AcDbBlockEnd
  0
BLOCK
  5
DB
330
B8
100
AcDbEntity
  8
0
100
AcDbBlockBegin
  2
*X4
 70
     1
 10
0.0
 20
0.0
 30
0.0
  3
*X4
  1

  0
LINE
  5
B9
330
B8
100
AcDbEntity
  8
0
 62
     0
100
AcDbLine
 10
1.024769132100263
 20
10.5
 30
0.0
 11
4.235000000000002
 21
13.71023086789974
 31
0.0
  0
LINE
  5
BA
330
B8
100
AcDbEntity
  8
0
 62
     0
100
AcDbLine
 10
0.9858896591507162
 20
10.60254188328776
 30
0.0
 11
4.168347775862955
 21
13.785
 31
0.0
  0
LINE
  5
BB
330
B8
100
AcDbEntity
  8
0
 62
     0
100
AcDbLine
 10
1.062039620201575
 20
10.82011320057593
 30
0.0
 11
4.026926419625644
 21
13.785
 31
0.0
  0
LINE
  5
BC
330
B8
100
AcDbEntity
  8
0
 62
     0
100
AcDbLine
 10
1.138189581252434
 20
11.0376845178641
 30
0.0
 11
3.885505063388335
 21
13.785
 31
0.0
  0
LINE
  5
BD
330
B8
100
AcDbEntity
  8
0
 62
     0
100
AcDbLine
 10
1.214339542303294
 20
11.25525583515227
 30
0.0
 11
3.744083707151025
 21
13.785
 31
0.0
  0
LINE
  5
BE
330
B8
100
AcDbEntity
  8
0
 62
     0
100
AcDbLine
 10
1.290489503354153
 20
11.47282715244044
 30
0.0
 11
3.602662350913716
 21
13.785
 31
0.0
  0
LINE
  5
BF
330
B8
100
AcDbEntity
  8
0
 62
     0
100
AcDbLine
 10
1.366639464405011
 20
11.6903984697286
 30
0.0
 11
3.461240994676407
 21
13.785
 31
0.0
  0
LINE
  5
C0
330
B8
100
AcDbEntity
  8
0
 62
     0
100
AcDbLine
 10
1.442789425455871
 20
11.90796978701677
 30
0.0
 11
3.319819638439096
 21
13.785
 31
0.0
  0
LINE
  5
C1
330
B8
100
AcDbEntity
  8
0
 62
     0
100
AcDbLine
 10
1.51893938650673
 20
12.12554110430494
 30
0.0
 11
3.178398282201788
 21
13.785
 31
0.0
  0
LINE
  5
C2
330
B8
100
AcDbEntity
  8
0
 62
     0
100
AcDbLine
 10
1.595089347557589
 20
12.34311242159311
 30
0.0
 11
3.036976925964477
 21
13.785
 31
0.0
  0
LINE
  5
C3
330
B8
100
AcDbEntity
  8
0
 62
     0
100
AcDbLine
 10
1.671239308608448
 20
12.56068373888128
 30
0.0
 11
2.895555569727168
 21
13.785
 31
0.0
  0
LINE
  5
C4
330
B8
100
AcDbEntity
  8
0
 62
     0
100
AcDbLine
 10
1.747389269659307
 20
12.77825505616945
 30
0.0
 11
2.754134213489859
 21
13.785
 31
0.0
  0
LINE
  5
C5
330
B8
100
AcDbEntity
  8
0
 62
     0
100
AcDbLine
 10
1.823539230710166
 20
12.99582637345762
 30
0.0
 11
2.612712857252549
 21
13.785
 31
0.0
  0
LINE
  5
C6
330
B8
100
AcDbEntity
  8
0
 62
     0
100
AcDbLine
 10
1.899689191761025
 20
13.21339769074578
 30
0.0
 11
2.47129150101524
 21
13.785
 31
0.0
  0
LINE
  5
C7
330
B8
100
AcDbEntity
  8
0
 62
     0
100
AcDbLine
 10
1.975839152811885
 20
13.43096900803395
 30
0.0
 11
2.32987014477793
 21
13.785
 31
0.0
  0
LINE
  5
C8
330
B8
100
AcDbEntity
  8
0
 62
     0
100
AcDbLine
 10
2.051989113862743
 20
13.64854032532212
 30
0.0
 11
2.188448788540621
 21
13.785
 31
0.0
  0
LINE
  5
C9
330
B8
100
AcDbEntity
  8
0
 62
     0
100
AcDbLine
 10
1.166190488337572
 20
10.5
 30
0.0
 11
4.235000000000002
 21
13.56880951166243
 31
0.0
  0
LINE
  5
CA
330
B8
100
AcDbEntity
  8
0
 62
     0
100
AcDbLine
 10
1.307611844574882
 20
10.5
 30
0.0
 11
4.235000000000002
 21
13.42738815542512
 31
0.0
  0
LINE
  5
CB
330
B8
100
AcDbEntity
  8
0
 62
     0
100
AcDbLine
 10
1.449033200812191
 20
10.5
 30
0.0
 11
4.235000000000002
 21
13.28596679918781
 31
0.0
  0
LINE
  5
CC
330
B8
100
AcDbEntity
  8
0
 62
     0
100
AcDbLine
 10
1.590454557049502
 20
10.5
 30
0.0
 11
4.235000000000002
 21
13.1445454429505
 31
0.0
  0
LINE
  5
CD
330
B8
100
AcDbEntity
  8
0
 62
     0
100
AcDbLine
 10
1.731875913286811
 20
10.5
 30
0.0
 11
4.235000000000002
 21
13.00312408671319
 31
0.0
  0
LINE
  5
CE
330
B8
100
AcDbEntity
  8
0
 62
     0
100
AcDbLine
 10
1.87329726952412
 20
10.5
 30
0.0
 11
3.145147624102399
 21
11.77185035457828
 31
0.0
  0
LINE
  5
CF
330
B8
100
AcDbEntity
  8
0
 62
     0
100
AcDbLine
 10
3.27329726952412
 20
11.9
 30
0.0
 11
4.235000000000002
 21
12.86170273047588
 31
0.0
  0
LINE
  5
D0
330
B8
100
AcDbEntity
  8
0
 62
     0
100
AcDbLine
 10
2.01471862576143
 20
10.5
 30
0.0
 11
3.068997663051539
 21
11.55427903729011
 31
0.0
  0
LINE
  5
D1
330
B8
100
AcDbEntity
  8
0
 62
     0
100
AcDbLine
 10
3.41471862576143
 20
11.9
 30
0.0
 11
4.235000000000002
 21
12.72028137423857
 31
0.0
  0
LINE
  5
D2
330
B8
100
AcDbEntity
  8
0
 62
     0
100
AcDbLine
 10
2.156139981998739
 20
10.5
 30
0.0
 11
2.99284770200068
 21
11.33670772000194
 31
0.0
  0
LINE
  5
D3
330
B8
100
AcDbEntity
  8
0
 62
     0
100
AcDbLine
 10
3.556139981998739
 20
11.9
 30
0.0
 11
4.235000000000002
 21
12.57886001800126
 31
0.0
  0
LINE
  5
D4
330
B8
100
AcDbEntity
  8
0
 62
     0
100
AcDbLine
 10
2.297561338236048
 20
10.5
 30
0.0
 11
2.91669774094982
 21
11.11913640271377
 31
0.0
  0
LINE
  5
D5
330
B8
100
AcDbEntity
  8
0
 62
     0
100
AcDbLine
 10
3.697561338236048
 20
11.9
 30
0.0
 11
4.235000000000002
 21
12.43743866176395
 31
0.0
  0
LINE
  5
D6
330
B8
100
AcDbEntity
  8
0
 62
     0
100
AcDbLine
 10
2.438982694473358
 20
10.5
 30
0.0
 11
2.84054777989896
 21
10.9015650854256
 31
0.0
  0
LINE
  5
D7
330
B8
100
AcDbEntity
  8
0
 62
     0
100
AcDbLine
 10
3.838982694473358
 20
11.9
 30
0.0
 11
4.235000000000002
 21
12.29601730552664
 31
0.0
  0
LINE
  5
D8
330
B8
100
AcDbEntity
  8
0
 62
     0
100
AcDbLine
 10
2.580404050710667
 20
10.5
 30
0.0
 11
2.764397818848101
 21
10.68399376813743
 31
0.0
  0
LINE
  5
D9
330
B8
100
AcDbEntity
  8
0
 62
     0
100
AcDbLine
 10
3.980404050710667
 20
11.9
 30
0.0
 11
4.235000000000002
 21
12.15459594928933
 31
0.0
  0
LINE
  5
DA
330
B8
100
AcDbEntity
  8
0
 62
     0
100
AcDbLine
 10
4.121825406947977
 20
11.9
 30
0.0
 11
4.235000000000002
 21
12.01317459305202
 31
0.0
  0
ENDBLK
  5
DC
330
B8
100
AcDbEntity
  8
0
100
AcDbBlockEnd
  0
BLOCK
  5
10C
330
DD
100
AcDbEntity
  8
0
100
AcDbBlockBegin
  2
*X5
 70
     1
 10
0.0
 20
0.0
 30
0.0
  3
*X5
  1

  0
LINE
  5
DE
330
DD
100
AcDbEntity
  8
0
 62
     0
100
AcDbLine
 10
5.811558176292301
 20
11.60983378202199
 30
0.0
 11
7.107854472588599
 21
12.90613007831829
 31
0.0
  0
LINE
  5
DF
330
DD
100
AcDbEntity
  8
0
 62
     0
100
AcDbLine
 10
5.774893380230777
 20
11.71459034219777
 30
0.0
 11
7.071189676527073
 21
13.01088663849407
 31
0.0
  0
LINE
  5
E0
330
DD
100
AcDbEntity
  8
0
 62
     0
100
AcDbLine
 10
5.738228584169251
 20
11.81934690237356
 30
0.0
 11
7.034524880465549
 21
13.11564319866986
 31
0.0
  0
LINE
  5
E1
330
DD
100
AcDbEntity
  8
0
 62
     0
100
AcDbLine
 10
5.677460325558382
 20
11.9
 30
0.0
 11
6.997860084404024
 21
13.22039975884564
 31
0.0
  0
LINE
  5
E2
330
DD
100
AcDbEntity
  8
0
 62
     0
100
AcDbLine
 10
5.536038969321073
 20
11.9
 30
0.0
 11
6.9611952883425
 21
13.32515631902143
 31
0.0
  0
LINE
  5
E3
330
DD
100
AcDbEntity
  8
0
 62
     0
100
AcDbLine
 10
5.394617613083763
 20
11.9
 30
0.0
 11
6.924530492280974
 21
13.42991287919721
 31
0.0
  0
LINE
  5
E4
330
DD
100
AcDbEntity
  8
0
 62
     0
100
AcDbLine
 10
5.253196256846454
 20
11.9
 30
0.0
 11
6.88786569621945
 21
13.534669439373
 31
0.0
  0
LINE
  5
E5
330
DD
100
AcDbEntity
  8
0
 62
     0
100
AcDbLine
 10
5.111774900609144
 20
11.9
 30
0.0
 11
6.851200900157925
 21
13.63942599954878
 31
0.0
  0
LINE
  5
E6
330
DD
100
AcDbEntity
  8
0
 62
     0
100
AcDbLine
 10
4.970353544371834
 20
11.9
 30
0.0
 11
6.814536104096401
 21
13.74418255972457
 31
0.0
  0
LINE
  5
E7
330
DD
100
AcDbEntity
  8
0
 62
     0
100
AcDbLine
 10
4.828932188134526
 20
11.9
 30
0.0
 11
6.713932188134525
 21
13.785
 31
0.0
  0
LINE
  5
E8
330
DD
100
AcDbEntity
  8
0
 62
     0
100
AcDbLine
 10
4.687510831897216
 20
11.9
 30
0.0
 11
6.572510831897214
 21
13.785
 31
0.0
  0
LINE
  5
E9
330
DD
100
AcDbEntity
  8
0
 62
     0
100
AcDbLine
 10
4.665
 20
12.01891052434009
 30
0.0
 11
6.431089475659906
 21
13.785
 31
0.0
  0
LINE
  5
EA
330
DD
100
AcDbEntity
  8
0
 62
     0
100
AcDbLine
 10
4.665
 20
12.1603318805774
 30
0.0
 11
6.289668119422596
 21
13.785
 31
0.0
  0
LINE
  5
EB
330
DD
100
AcDbEntity
  8
0
 62
     0
100
AcDbLine
 10
4.665
 20
12.30175323681471
 30
0.0
 11
6.148246763185286
 21
13.785
 31
0.0
  0
LINE
  5
EC
330
DD
100
AcDbEntity
  8
0
 62
     0
100
AcDbLine
 10
4.665
 20
12.44317459305202
 30
0.0
 11
6.006825406947977
 21
13.785
 31
0.0
  0
LINE
  5
ED
330
DD
100
AcDbEntity
  8
0
 62
     0
100
AcDbLine
 10
4.665
 20
12.58459594928933
 30
0.0
 11
5.865404050710667
 21
13.785
 31
0.0
  0
LINE
  5
EE
330
DD
100
AcDbEntity
  8
0
 62
     0
100
AcDbLine
 10
4.665
 20
12.72601730552664
 30
0.0
 11
5.723982694473358
 21
13.785
 31
0.0
  0
LINE
  5
EF
330
DD
100
AcDbEntity
  8
0
 62
     0
100
AcDbLine
 10
4.665
 20
12.86743866176395
 30
0.0
 11
5.582561338236048
 21
13.785
 31
0.0
  0
LINE
  5
F0
330
DD
100
AcDbEntity
  8
0
 62
     0
100
AcDbLine
 10
4.665
 20
13.00886001800126
 30
0.0
 11
5.441139981998738
 21
13.785
 31
0.0
  0
LINE
  5
F1
330
DD
100
AcDbEntity
  8
0
 62
     0
100
AcDbLine
 10
4.665
 20
13.15028137423857
 30
0.0
 11
5.299718625761429
 21
13.785
 31
0.0
  0
LINE
  5
F2
330
DD
100
AcDbEntity
  8
0
 62
     0
100
AcDbLine
 10
4.665
 20
13.29170273047588
 30
0.0
 11
5.158297269524119
 21
13.785
 31
0.0
  0
LINE
  5
F3
330
DD
100
AcDbEntity
  8
0
 62
     0
100
AcDbLine
 10
4.665
 20
13.43312408671319
 30
0.0
 11
5.01687591328681
 21
13.785
 31
0.0
  0
LINE
  5
F4
330
DD
100
AcDbEntity
  8
0
 62
     0
100
AcDbLine
 10
4.665
 20
13.5745454429505
 30
0.0
 11
4.875454557049502
 21
13.785
 31
0.0
  0
LINE
  5
F5
330
DD
100
AcDbEntity
  8
0
 62
     0
100
AcDbLine
 10
4.665
 20
13.71596679918781
 30
0.0
 11
4.734033200812191
 21
13.785
 31
0.0
  0
LINE
  5
F6
330
DD
100
AcDbEntity
  8
0
 62
     0
100
AcDbLine
 10
5.848222972353826
 20
11.5050772218462
 30
0.0
 11
7.144519268650123
 21
12.8013735181425
 31
0.0
  0
LINE
  5
F7
330
DD
100
AcDbEntity
  8
0
 62
     0
100
AcDbLine
 10
5.88488776841535
 20
11.40032066167042
 30
0.0
 11
7.181184064711648
 21
12.69661695796672
 31
0.0
  0
LINE
  5
F8
330
DD
100
AcDbEntity
  8
0
 62
     0
100
AcDbLine
 10
5.921552564476876
 20
11.29556410149463
 30
0.0
 11
7.217848860773172
 21
12.59186039779093
 31
0.0
  0
LINE
  5
F9
330
DD
100
AcDbEntity
  8
0
 62
     0
100
AcDbLine
 10
5.9582173605384
 20
11.19080754131885
 30
0.0
 11
7.254513656834697
 21
12.48710383761515
 31
0.0
  0
LINE
  5
FA
330
DD
100
AcDbEntity
  8
0
 62
     0
100
AcDbLine
 10
5.994882156599925
 20
11.08605098114306
 30
0.0
 11
7.291178452896222
 21
12.38234727743936
 31
0.0
  0
LINE
  5
FB
330
DD
100
AcDbEntity
  8
0
 62
     0
100
AcDbLine
 10
6.031546952661449
 20
10.98129442096728
 30
0.0
 11
7.327843248957746
 21
12.27759071726358
 31
0.0
  0
LINE
  5
FC
330
DD
100
AcDbEntity
  8
0
 62
     0
100
AcDbLine
 10
6.068211748722974
 20
10.87653786079149
 30
0.0
 11
7.364508045019271
 21
12.17283415708779
 31
0.0
  0
LINE
  5
FD
330
DD
100
AcDbEntity
  8
0
 62
     0
100
AcDbLine
 10
6.104876544784499
 20
10.77178130061571
 30
0.0
 11
7.401172841080795
 21
12.06807759691201
 31
0.0
  0
LINE
  5
FE
330
DD
100
AcDbEntity
  8
0
 62
     0
100
AcDbLine
 10
6.141541340846024
 20
10.66702474043992
 30
0.0
 11
7.437837637142321
 21
11.96332103673622
 31
0.0
  0
LINE
  5
FF
330
DD
100
AcDbEntity
  8
0
 62
     0
100
AcDbLine
 10
6.178206136907548
 20
10.56226818026414
 30
0.0
 11
7.474502433203845
 21
11.85856447656044
 31
0.0
  0
LINE
  5
100
330
DD
100
AcDbEntity
  8
0
 62
     0
100
AcDbLine
 10
6.257359312880715
 20
10.5
 30
0.0
 11
7.51116722926537
 21
11.75380791638465
 31
0.0
  0
LINE
  5
101
330
DD
100
AcDbEntity
  8
0
 62
     0
100
AcDbLine
 10
6.398780669118024
 20
10.5
 30
0.0
 11
7.547832025326894
 21
11.64905135620887
 31
0.0
  0
LINE
  5
102
330
DD
100
AcDbEntity
  8
0
 62
     0
100
AcDbLine
 10
6.540202025355334
 20
10.5
 30
0.0
 11
7.584496821388419
 21
11.54429479603308
 31
0.0
  0
LINE
  5
103
330
DD
100
AcDbEntity
  8
0
 62
     0
100
AcDbLine
 10
6.681623381592643
 20
10.5
 30
0.0
 11
7.621161617449944
 21
11.4395382358573
 31
0.0
  0
LINE
  5
104
330
DD
100
AcDbEntity
  8
0
 62
     0
100
AcDbLine
 10
6.823044737829953
 20
10.5
 30
0.0
 11
7.657826413511468
 21
11.33478167568151
 31
0.0
  0
LINE
  5
105
330
DD
100
AcDbEntity
  8
0
 62
     0
100
AcDbLine
 10
6.964466094067263
 20
10.5
 30
0.0
 11
7.694491209572993
 21
11.23002511550573
 31
0.0
  0
LINE
  5
106
330
DD
100
AcDbEntity
  8
0
 62
     0
100
AcDbLine
 10
7.105887450304572
 20
10.5
 30
0.0
 11
7.731156005634518
 21
11.12526855532994
 31
0.0
  0
LINE
  5
107
330
DD
100
AcDbEntity
  8
0
 62
     0
100
AcDbLine
 10
7.247308806541881
 20
10.5
 30
0.0
 11
7.767820801696043
 21
11.02051199515416
 31
0.0
  0
LINE
  5
108
330
DD
100
AcDbEntity
  8
0
 62
     0
100
AcDbLine
 10
7.388730162779191
 20
10.5
 30
0.0
 11
7.804485597757567
 21
10.91575543497838
 31
0.0
  0
LINE
  5
109
330
DD
100
AcDbEntity
  8
0
 62
     0
100
AcDbLine
 10
7.5301515190165
 20
10.5
 30
0.0
 11
7.841150393819092
 21
10.81099887480259
 31
0.0
  0
LINE
  5
10A
330
DD
100
AcDbEntity
  8
0
 62
     0
100
AcDbLine
 10
7.671572875253811
 20
10.5
 30
0.0
 11
7.877815189880617
 21
10.70624231462681
 31
0.0
  0
LINE
  5
10B
330
DD
100
AcDbEntity
  8
0
 62
     0
100
AcDbLine
 10
7.81299423149112
 20
10.5
 30
0.0
 11
7.914479985942141
 21
10.60148575445102
 31
0.0
  0
ENDBLK
  5
10D
330
DD
100
AcDbEntity
  8
0
100
AcDbBlockEnd
  0
BLOCK
  5
134
330
10E
100
AcDbEntity
  8
0
100
AcDbBlockBegin
  2
*X6
 70
     1
 10
0.0
 20
0.0
 30
0.0
  3
*X6
  1

  0
LINE
  5
10F
330
10E
100
AcDbEntity
  8
0
 62
     0
100
AcDbLine
 10
8.440000000000001
 20
14.80396103067893
 30
0.0
 11
10.325
 21
16.68896103067893
 31
0.0
  0
LINE
  5
110
330
10E
100
AcDbEntity
  8
0
 62
     0
100
AcDbLine
 10
8.440000000000001
 20
14.94538238691624
 30
0.0
 11
10.325
 21
16.83038238691624
 31
0.0
  0
LINE
  5
111
330
10E
100
AcDbEntity
  8
0
 62
     0
100
AcDbLine
 10
8.440000000000001
 20
15.08680374315355
 30
0.0
 11
10.325
 21
16.97180374315355
 31
0.0
  0
LINE
  5
112
330
10E
100
AcDbEntity
  8
0
 62
     0
100
AcDbLine
 10
8.440000000000001
 20
15.22822509939086
 30
0.0
 11
10.325
 21
17.11322509939085
 31
0.0
  0
LINE
  5
113
330
10E
100
AcDbEntity
  8
0
 62
     0
100
AcDbLine
 10
8.440000000000001
 20
15.36964645562816
 30
0.0
 11
10.325
 21
17.25464645562816
 31
0.0
  0
LINE
  5
114
330
10E
100
AcDbEntity
  8
0
 62
     0
100
AcDbLine
 10
8.440000000000001
 20
15.51106781186548
 30
0.0
 11
10.325
 21
17.39606781186547
 31
0.0
  0
LINE
  5
115
330
10E
100
AcDbEntity
  8
0
 62
     0
100
AcDbLine
 10
8.440000000000001
 20
15.65248916810278
 30
0.0
 11
10.28751083189721
 21
17.5
 31
0.0
  0
LINE
  5
116
330
10E
100
AcDbEntity
  8
0
 62
     0
100
AcDbLine
 10
8.440000000000001
 20
15.7939105243401
 30
0.0
 11
10.1460894756599
 21
17.5
 31
0.0
  0
LINE
  5
117
330
10E
100
AcDbEntity
  8
0
 62
     0
100
AcDbLine
 10
8.440000000000001
 20
15.9353318805774
 30
0.0
 11
10.00466811942259
 21
17.5
 31
0.0
  0
LINE
  5
118
330
10E
100
AcDbEntity
  8
0
 62
     0
100
AcDbLine
 10
8.440000000000001
 20
16.07675323681472
 30
0.0
 11
9.863246763185287
 21
17.5
 31
0.0
  0
LINE
  5
119
330
10E
100
AcDbEntity
  8
0
 62
     0
100
AcDbLine
 10
8.440000000000001
 20
16.21817459305202
 30
0.0
 11
9.72182540694798
 21
17.5
 31
0.0
  0
LINE
  5
11A
330
10E
100
AcDbEntity
  8
0
 62
     0
100
AcDbLine
 10
8.440000000000001
 20
16.35959594928933
 30
0.0
 11
9.580404050710669
 21
17.5
 31
0.0
  0
LINE
  5
11B
330
10E
100
AcDbEntity
  8
0
 62
     0
100
AcDbLine
 10
8.440000000000001
 20
16.50101730552664
 30
0.0
 11
9.438982694473359
 21
17.5
 31
0.0
  0
LINE
  5
11C
330
10E
100
AcDbEntity
  8
0
 62
     0
100
AcDbLine
 10
8.440000000000001
 20
16.64243866176395
 30
0.0
 11
9.297561338236048
 21
17.5
 31
0.0
  0
LINE
  5
11D
330
10E
100
AcDbEntity
  8
0
 62
     0
100
AcDbLine
 10
8.440000000000001
 20
16.78386001800126
 30
0.0
 11
9.156139981998741
 21
17.5
 31
0.0
  0
LINE
  5
11E
330
10E
100
AcDbEntity
  8
0
 62
     0
100
AcDbLine
 10
8.440000000000001
 20
16.92528137423857
 30
0.0
 11
9.014718625761432
 21
17.5
 31
0.0
  0
LINE
  5
11F
330
10E
100
AcDbEntity
  8
0
 62
     0
100
AcDbLine
 10
8.440000000000001
 20
17.06670273047588
 30
0.0
 11
8.873297269524121
 21
17.5
 31
0.0
  0
LINE
  5
120
330
10E
100
AcDbEntity
  8
0
 62
     0
100
AcDbLine
 10
8.440000000000001
 20
17.20812408671319
 30
0.0
 11
8.731875913286812
 21
17.5
 31
0.0
  0
LINE
  5
121
330
10E
100
AcDbEntity
  8
0
 62
     0
100
AcDbLine
 10
8.440000000000001
 20
17.3495454429505
 30
0.0
 11
8.590454557049502
 21
17.5
 31
0.0
  0
LINE
  5
122
330
10E
100
AcDbEntity
  8
0
 62
     0
100
AcDbLine
 10
8.440000000000001
 20
17.49096679918781
 30
0.0
 11
8.449033200812193
 21
17.5
 31
0.0
  0
LINE
  5
123
330
10E
100
AcDbEntity
  8
0
 62
     0
100
AcDbLine
 10
8.440000000000001
 20
14.66253967444162
 30
0.0
 11
10.325
 21
16.54753967444162
 31
0.0
  0
LINE
  5
124
330
10E
100
AcDbEntity
  8
0
 62
     0
100
AcDbLine
 10
8.440000000000001
 20
14.52111831820431
 30
0.0
 11
10.325
 21
16.40611831820431
 31
0.0
  0
LINE
  5
125
330
10E
100
AcDbEntity
  8
0
 62
     0
100
AcDbLine
 10
8.440000000000001
 20
14.379696961967
 30
0.0
 11
10.325
 21
16.264696961967
 31
0.0
  0
LINE
  5
126
330
10E
100
AcDbEntity
  8
0
 62
     0
100
AcDbLine
 10
8.440000000000001
 20
14.23827560572969
 30
0.0
 11
10.325
 21
16.12327560572969
 31
0.0
  0
LINE
  5
127
330
10E
100
AcDbEntity
  8
0
 62
     0
100
AcDbLine
 10
8.55814575050762
 20
14.215
 30
0.0
 11
10.325
 21
15.98185424949238
 31
0.0
  0
LINE
  5
128
330
10E
100
AcDbEntity
  8
0
 62
     0
100
AcDbLine
 10
8.699567106744929
 20
14.215
 30
0.0
 11
10.325
 21
15.84043289325507
 31
0.0
  0
LINE
  5
129
330
10E
100
AcDbEntity
  8
0
 62
     0
100
AcDbLine
 10
8.840988462982238
 20
14.215
 30
0.0
 11
10.325
 21
15.69901153701776
 31
0.0
  0
LINE
  5
12A
330
10E
100
AcDbEntity
  8
0
 62
     0
100
AcDbLine
 10
8.982409819219547
 20
14.215
 30
0.0
 11
10.325
 21
15.55759018078045
 31
0.0
  0
LINE
  5
12B
330
10E
100
AcDbEntity
  8
0
 62
     0
100
AcDbLine
 10
9.123831175456857
 20
14.215
 30
0.0
 11
10.325
 21
15.41616882454314
 31
0.0
  0
LINE
  5
12C
330
10E
100
AcDbEntity
  8
0
 62
     0
100
AcDbLine
 10
9.265252531694168
 20
14.215
 30
0.0
 11
10.325
 21
15.27474746830583
 31
0.0
  0
LINE
  5
12D
330
10E
100
AcDbEntity
  8
0
 62
     0
100
AcDbLine
 10
9.406673887931477
 20
14.215
 30
0.0
 11
10.325
 21
15.13332611206852
 31
0.0
  0
LINE
  5
12E
330
10E
100
AcDbEntity
  8
0
 62
     0
100
AcDbLine
 10
9.548095244168786
 20
14.215
 30
0.0
 11
10.325
 21
14.99190475583121
 31
0.0
  0
LINE
  5
12F
330
10E
100
AcDbEntity
  8
0
 62
     0
100
AcDbLine
 10
9.689516600406095
 20
14.215
 30
0.0
 11
10.325
 21
14.8504833995939
 31
0.0
  0
LINE
  5
130
330
10E
100
AcDbEntity
  8
0
 62
     0
100
AcDbLine
 10
9.830937956643404
 20
14.215
 30
0.0
 11
10.325
 21
14.70906204335659
 31
0.0
  0
LINE
  5
131
330
10E
100
AcDbEntity
  8
0
 62
     0
100
AcDbLine
 10
9.972359312880714
 20
14.215
 30
0.0
 11
10.325
 21
14.56764068711929
 31
0.0
  0
LINE
  5
132
330
10E
100
AcDbEntity
  8
0
 62
     0
100
AcDbLine
 10
10.11378066911802
 20
14.215
 30
0.0
 11
10.325
 21
14.42621933088197
 31
0.0
  0
LINE
  5
133
330
10E
100
AcDbEntity
  8
0
 62
     0
100
AcDbLine
 10
10.25520202535533
 20
14.215
 30
0.0
 11
10.325
 21
14.28479797464467
 31
0.0
  0
ENDBLK
  5
135
330
10E
100
AcDbEntity
  8
0
100
AcDbBlockEnd
  0
BLOCK
  5
15B
330
136
100
AcDbEntity
  8
0
100
AcDbBlockBegin
  2
*X7
 70
     1
 10
0.0
 20
0.0
 30
0.0
  3
*X7
  1

  0
LINE
  5
137
330
136
100
AcDbEntity
  8
0
 62
     0
100
AcDbLine
 10
8.440000000000001
 20
11.12700576850888
 30
0.0
 11
10.325
 21
13.01200576850888
 31
0.0
  0
LINE
  5
138
330
136
100
AcDbEntity
  8
0
 62
     0
100
AcDbLine
 10
8.440000000000001
 20
11.26842712474619
 30
0.0
 11
10.325
 21
13.15342712474619
 31
0.0
  0
LINE
  5
139
330
136
100
AcDbEntity
  8
0
 62
     0
100
AcDbLine
 10
8.440000000000001
 20
11.4098484809835
 30
0.0
 11
10.325
 21
13.2948484809835
 31
0.0
  0
LINE
  5
13A
330
136
100
AcDbEntity
  8
0
 62
     0
100
AcDbLine
 10
8.440000000000001
 20
11.55126983722081
 30
0.0
 11
10.325
 21
13.43626983722081
 31
0.0
  0
LINE
  5
13B
330
136
100
AcDbEntity
  8
0
 62
     0
100
AcDbLine
 10
8.440000000000001
 20
11.69269119345812
 30
0.0
 11
10.325
 21
13.57769119345812
 31
0.0
  0
LINE
  5
13C
330
136
100
AcDbEntity
  8
0
 62
     0
100
AcDbLine
 10
8.440000000000001
 20
11.83411254969543
 30
0.0
 11
10.325
 21
13.71911254969543
 31
0.0
  0
LINE
  5
13D
330
136
100
AcDbEntity
  8
0
 62
     0
100
AcDbLine
 10
8.440000000000001
 20
11.97553390593274
 30
0.0
 11
10.24946609406726
 21
13.785
 31
0.0
  0
LINE
  5
13E
330
136
100
AcDbEntity
  8
0
 62
     0
100
AcDbLine
 10
8.440000000000001
 20
12.11695526217005
 30
0.0
 11
10.10804473782995
 21
13.785
 31
0.0
  0
LINE
  5
13F
330
136
100
AcDbEntity
  8
0
 62
     0
100
AcDbLine
 10
8.440000000000001
 20
12.25837661840736
 30
0.0
 11
9.966623381592642
 21
13.785
 31
0.0
  0
LINE
  5
140
330
136
100
AcDbEntity
  8
0
 62
     0
100
AcDbLine
 10
8.440000000000001
 20
12.39979797464467
 30
0.0
 11
9.825202025355332
 21
13.785
 31
0.0
  0
LINE
  5
141
330
136
100
AcDbEntity
  8
0
 62
     0
100
AcDbLine
 10
8.440000000000001
 20
12.54121933088198
 30
0.0
 11
9.683780669118023
 21
13.785
 31
0.0
  0
LINE
  5
142
330
136
100
AcDbEntity
  8
0
 62
     0
100
AcDbLine
 10
8.440000000000001
 20
12.68264068711929
 30
0.0
 11
9.542359312880714
 21
13.785
 31
0.0
  0
LINE
  5
143
330
136
100
AcDbEntity
  8
0
 62
     0
100
AcDbLine
 10
8.440000000000001
 20
12.82406204335659
 30
0.0
 11
9.400937956643405
 21
13.785
 31
0.0
  0
LINE
  5
144
330
136
100
AcDbEntity
  8
0
 62
     0
100
AcDbLine
 10
8.440000000000001
 20
12.9654833995939
 30
0.0
 11
9.259516600406096
 21
13.785
 31
0.0
  0
LINE
  5
145
330
136
100
AcDbEntity
  8
0
 62
     0
100
AcDbLine
 10
8.440000000000001
 20
13.10690475583121
 30
0.0
 11
9.118095244168785
 21
13.785
 31
0.0
  0
LINE
  5
146
330
136
100
AcDbEntity
  8
0
 62
     0
100
AcDbLine
 10
8.440000000000001
 20
13.24832611206852
 30
0.0
 11
8.976673887931477
 21
13.785
 31
0.0
  0
LINE
  5
147
330
136
100
AcDbEntity
  8
0
 62
     0
100
AcDbLine
 10
8.440000000000001
 20
13.38974746830583
 30
0.0
 11
8.835252531694166
 21
13.785
 31
0.0
  0
LINE
  5
148
330
136
100
AcDbEntity
  8
0
 62
     0
100
AcDbLine
 10
8.440000000000001
 20
13.53116882454314
 30
0.0
 11
8.693831175456857
 21
13.785
 31
0.0
  0
LINE
  5
149
330
136
100
AcDbEntity
  8
0
 62
     0
100
AcDbLine
 10
8.440000000000001
 20
13.67259018078045
 30
0.0
 11
8.552409819219548
 21
13.785
 31
0.0
  0
LINE
  5
14A
330
136
100
AcDbEntity
  8
0
 62
     0
100
AcDbLine
 10
8.440000000000001
 20
10.98558441227157
 30
0.0
 11
10.325
 21
12.87058441227157
 31
0.0
  0
LINE
  5
14B
330
136
100
AcDbEntity
  8
0
 62
     0
100
AcDbLine
 10
8.440000000000001
 20
10.84416305603426
 30
0.0
 11
10.325
 21
12.72916305603426
 31
0.0
  0
LINE
  5
14C
330
136
100
AcDbEntity
  8
0
 62
     0
100
AcDbLine
 10
8.440000000000001
 20
10.70274169979695
 30
0.0
 11
10.325
 21
12.58774169979695
 31
0.0
  0
LINE
  5
14D
330
136
100
AcDbEntity
  8
0
 62
     0
100
AcDbLine
 10
8.440000000000001
 20
10.56132034355964
 30
0.0
 11
10.325
 21
12.44632034355964
 31
0.0
  0
LINE
  5
14E
330
136
100
AcDbEntity
  8
0
 62
     0
100
AcDbLine
 10
8.520101012677667
 20
10.5
 30
0.0
 11
10.325
 21
12.30489898732233
 31
0.0
  0
LINE
  5
14F
330
136
100
AcDbEntity
  8
0
 62
     0
100
AcDbLine
 10
8.661522368914976
 20
10.5
 30
0.0
 11
10.325
 21
12.16347763108502
 31
0.0
  0
LINE
  5
150
330
136
100
AcDbEntity
  8
0
 62
     0
100
AcDbLine
 10
8.802943725152285
 20
10.5
 30
0.0
 11
10.325
 21
12.02205627484771
 31
0.0
  0
LINE
  5
151
330
136
100
AcDbEntity
  8
0
 62
     0
100
AcDbLine
 10
8.944365081389594
 20
10.5
 30
0.0
 11
10.325
 21
11.8806349186104
 31
0.0
  0
LINE
  5
152
330
136
100
AcDbEntity
  8
0
 62
     0
100
AcDbLine
 10
9.085786437626904
 20
10.5
 30
0.0
 11
10.325
 21
11.73921356237309
 31
0.0
  0
LINE
  5
153
330
136
100
AcDbEntity
  8
0
 62
     0
100
AcDbLine
 10
9.227207793864213
 20
10.5
 30
0.0
 11
10.325
 21
11.59779220613578
 31
0.0
  0
LINE
  5
154
330
136
100
AcDbEntity
  8
0
 62
     0
100
AcDbLine
 10
9.368629150101524
 20
10.5
 30
0.0
 11
10.325
 21
11.45637084989847
 31
0.0
  0
LINE
  5
155
330
136
100
AcDbEntity
  8
0
 62
     0
100
AcDbLine
 10
9.510050506338833
 20
10.5
 30
0.0
 11
10.325
 21
11.31494949366117
 31
0.0
  0
LINE
  5
156
330
136
100
AcDbEntity
  8
0
 62
     0
100
AcDbLine
 10
9.651471862576142
 20
10.5
 30
0.0
 11
10.325
 21
11.17352813742386
 31
0.0
  0
LINE
  5
157
330
136
100
AcDbEntity
  8
0
 62
     0
100
AcDbLine
 10
9.792893218813452
 20
10.5
 30
0.0
 11
10.325
 21
11.03210678118655
 31
0.0
  0
LINE
  5
158
330
136
100
AcDbEntity
  8
0
 62
     0
100
AcDbLine
 10
9.934314575050761
 20
10.5
 30
0.0
 11
10.325
 21
10.89068542494924
 31
0.0
  0
LINE
  5
159
330
136
100
AcDbEntity
  8
0
 62
     0
100
AcDbLine
 10
10.07573593128807
 20
10.5
 30
0.0
 11
10.325
 21
10.74926406871193
 31
0.0
  0
LINE
  5
15A
330
136
100
AcDbEntity
  8
0
 62
     0
100
AcDbLine
 10
10.21715728752538
 20
10.5
 30
0.0
 11
10.325
 21
10.60784271247462
 31
0.0
  0
ENDBLK
  5
15C
330
136
100
AcDbEntity
  8
0
100
AcDbBlockEnd
  0
BLOCK
  5
183
330
15D
100
AcDbEntity
  8
0
100
AcDbBlockBegin
  2
*X8
 70
     1
 10
0.0
 20
0.0
 30
0.0
  3
*X8
  1

  0
LINE
  5
15E
330
15D
100
AcDbEntity
  8
0
 62
     0
100
AcDbLine
 10
10.755
 20
14.85621933088197
 30
0.0
 11
12.60665195119362
 21
16.7078712820756
 31
0.0
  0
LINE
  5
15F
330
15D
100
AcDbEntity
  8
0
 62
     0
100
AcDbLine
 10
10.755
 20
14.99764068711928
 30
0.0
 11
12.55268873087672
 21
16.79532941799601
 31
0.0
  0
LINE
  5
160
330
15D
100
AcDbEntity
  8
0
 62
     0
100
AcDbLine
 10
10.755
 20
15.13906204335659
 30
0.0
 11
12.49395055341158
 21
16.87801259676817
 31
0.0
  0
LINE
  5
161
330
15D
100
AcDbEntity
  8
0
 62
     0
100
AcDbLine
 10
10.755
 20
15.2804833995939
 30
0.0
 11
12.43059182218045
 21
16.95607522177436
 31
0.0
  0
LINE
  5
162
330
15D
100
AcDbEntity
  8
0
 62
     0
100
AcDbLine
 10
10.755
 20
15.42190475583121
 30
0.0
 11
12.36270405049247
 21
17.02960880632368
 31
0.0
  0
LINE
  5
163
330
15D
100
AcDbEntity
  8
0
 62
     0
100
AcDbLine
 10
10.755
 20
15.56332611206852
 30
0.0
 11
12.29032173141587
 21
17.0986478434844
 31
0.0
  0
LINE
  5
164
330
15D
100
AcDbEntity
  8
0
 62
     0
100
AcDbLine
 10
10.755
 20
15.70474746830583
 30
0.0
 11
12.21342448184602
 21
17.16317195015185
 31
0.0
  0
LINE
  5
165
330
15D
100
AcDbEntity
  8
0
 62
     0
100
AcDbLine
 10
10.755
 20
15.84616882454314
 30
0.0
 11
12.1319357800045
 21
17.22310460454764
 31
0.0
  0
LINE
  5
166
330
15D
100
AcDbEntity
  8
0
 62
     0
100
AcDbLine
 10
10.755
 20
15.98759018078045
 30
0.0
 11
12.04571810938003
 21
17.27830829016048
 31
0.0
  0
LINE
  5
167
330
15D
100
AcDbEntity
  8
0
 62
     0
100
AcDbLine
 10
10.755
 20
16.12901153701776
 30
0.0
 11
11.95456376436614
 21
17.3285753013839
 31
0.0
  0
LINE
  5
168
330
15D
100
AcDbEntity
  8
0
 62
     0
100
AcDbLine
 10
10.755
 20
16.27043289325507
 30
0.0
 11
11.85817979995458
 21
17.37361269320965
 31
0.0
  0
LINE
  5
169
330
15D
100
AcDbEntity
  8
0
 62
     0
100
AcDbLine
 10
10.755
 20
16.41185424949238
 30
0.0
 11
11.75616435283253
 21
17.41301860232491
 31
0.0
  0
LINE
  5
16A
330
15D
100
AcDbEntity
  8
0
 62
     0
100
AcDbLine
 10
10.755
 20
16.55327560572969
 30
0.0
 11
11.64796929664345
 21
17.44624490237314
 31
0.0
  0
LINE
  5
16B
330
15D
100
AcDbEntity
  8
0
 62
     0
100
AcDbLine
 10
10.755
 20
16.69469696196699
 30
0.0
 11
11.53283975161226
 21
17.47253671357926
 31
0.0
  0
LINE
  5
16C
330
15D
100
AcDbEntity
  8
0
 62
     0
100
AcDbLine
 10
10.755
 20
16.83611831820431
 30
0.0
 11
11.40971149630952
 21
17.49082981451383
 31
0.0
  0
LINE
  5
16D
330
15D
100
AcDbEntity
  8
0
 62
     0
100
AcDbLine
 10
10.755
 20
16.97753967444162
 30
0.0
 11
11.2770250730259
 21
17.49956474746752
 31
0.0
  0
LINE
  5
16E
330
15D
100
AcDbEntity
  8
0
 62
     0
100
AcDbLine
 10
10.755
 20
17.11896103067893
 30
0.0
 11
11.13603830972073
 21
17.49999934039966
 31
0.0
  0
LINE
  5
16F
330
15D
100
AcDbEntity
  8
0
 62
     0
100
AcDbLine
 10
10.755
 20
17.26038238691623
 30
0.0
 11
10.99461695348342
 21
17.49999934039966
 31
0.0
  0
LINE
  5
170
330
15D
100
AcDbEntity
  8
0
 62
     0
100
AcDbLine
 10
10.755
 20
17.40180374315355
 30
0.0
 11
10.85319559724611
 21
17.49999934039966
 31
0.0
  0
LINE
  5
171
330
15D
100
AcDbEntity
  8
0
 62
     0
100
AcDbLine
 10
10.755
 20
14.71479797464466
 30
0.0
 11
12.65561241128888
 21
16.61541038593354
 31
0.0
  0
LINE
  5
172
330
15D
100
AcDbEntity
  8
0
 62
     0
100
AcDbLine
 10
10.755
 20
14.57337661840736
 30
0.0
 11
12.69925198078363
 21
16.51762859919098
 31
0.0
  0
LINE
  5
173
330
15D
100
AcDbEntity
  8
0
 62
     0
100
AcDbLine
 10
10.755
 20
14.43195526217005
 30
0.0
 11
12.73713563115315
 21
16.41409089332319
 31
0.0
  0
LINE
  5
174
330
15D
100
AcDbEntity
  8
0
 62
     0
100
AcDbLine
 10
10.755
 20
14.29053390593274
 30
0.0
 11
12.76866932616733
 21
16.30420323210007
 31
0.0
  0
LINE
  5
175
330
15D
100
AcDbEntity
  8
0
 62
     0
100
AcDbLine
 10
10.82088745030457
 20
14.215
 30
0.0
 11
12.79303113012304
 21
16.18714367981847
 31
0.0
  0
LINE
  5
176
330
15D
100
AcDbEntity
  8
0
 62
     0
100
AcDbLine
 10
10.96230880654188
 20
14.215
 30
0.0
 11
12.80905262151017
 21
16.06174381496829
 31
0.0
  0
LINE
  5
177
330
15D
100
AcDbEntity
  8
0
 62
     0
100
AcDbLine
 10
11.10373016277919
 20
14.215
 30
0.0
 11
12.81499948851173
 21
15.92626932573254
 31
0.0
  0
LINE
  5
178
330
15D
100
AcDbEntity
  8
0
 62
     0
100
AcDbLine
 10
11.2451515190165
 20
14.215
 30
0.0
 11
12.80812225109332
 21
15.77797073207682
 31
0.0
  0
LINE
  5
179
330
15D
100
AcDbEntity
  8
0
 62
     0
100
AcDbLine
 10
11.38657287525381
 20
14.215
 30
0.0
 11
12.78358863144548
 21
15.61201575619168
 31
0.0
  0
LINE
  5
17A
330
15D
100
AcDbEntity
  8
0
 62
     0
100
AcDbLine
 10
11.52799423149112
 20
14.215
 30
0.0
 11
12.73125442928398
 21
15.41826019779286
 31
0.0
  0
LINE
  5
17B
330
15D
100
AcDbEntity
  8
0
 62
     0
100
AcDbLine
 10
11.66941558772843
 20
14.215
 30
0.0
 11
11.99980823635216
 21
14.54539264862373
 31
0.0
  0
LINE
  5
17C
330
15D
100
AcDbEntity
  8
0
 62
     0
100
AcDbLine
 10
12.00867663314945
 20
14.55426104542102
 30
0.0
 11
12.61960735137626
 21
15.16519176364784
 31
0.0
  0
LINE
  5
17D
330
15D
100
AcDbEntity
  8
0
 62
     0
100
AcDbLine
 10
11.81083694396574
 20
14.215
 30
0.0
 11
12.1080374877881
 21
14.51220054382236
 31
0.0
  0
LINE
  5
17E
330
15D
100
AcDbEntity
  8
0
 62
     0
100
AcDbLine
 10
11.95225830020305
 20
14.215
 30
0.0
 11
12.20328965915023
 21
14.46603135894718
 31
0.0
  0
LINE
  5
17F
330
15D
100
AcDbEntity
  8
0
 62
     0
100
AcDbLine
 10
12.09367965644036
 20
14.215
 30
0.0
 11
12.29464391921294
 21
14.41596426277258
 31
0.0
  0
LINE
  5
180
330
15D
100
AcDbEntity
  8
0
 62
     0
100
AcDbLine
 10
12.23510101267766
 20
14.215
 30
0.0
 11
12.38226650658783
 21
14.36216549391016
 31
0.0
  0
LINE
  5
181
330
15D
100
AcDbEntity
  8
0
 62
     0
100
AcDbLine
 10
12.37652236891498
 20
14.215
 30
0.0
 11
12.46628661553599
 21
14.30476424662101
 31
0.0
  0
LINE
  5
182
330
15D
100
AcDbEntity
  8
0
 62
     0
100
AcDbLine
 10
12.51794372515228
 20
14.215
 30
0.0
 11
12.54680174666866
 21
14.24385802151638
 31
0.0
  0
ENDBLK
  5
184
330
15D
100
AcDbEntity
  8
0
100
AcDbBlockEnd
  0
BLOCK
  5
1A7
330
185
100
AcDbEntity
  8
0
100
AcDbBlockBegin
  2
*X9
 70
     1
 10
0.0
 20
0.0
 30
0.0
  3
*X9
  1

  0
LINE
  5
186
330
185
100
AcDbEntity
  8
0
 62
     0
100
AcDbLine
 10
10.755
 20
10.89642135623731
 30
0.0
 11
13.20345567881146
 21
13.34487703504877
 31
0.0
  0
LINE
  5
187
330
185
100
AcDbEntity
  8
0
 62
     0
100
AcDbLine
 10
10.755
 20
11.03784271247462
 30
0.0
 11
13.16238970184929
 21
13.44523241432391
 31
0.0
  0
LINE
  5
188
330
185
100
AcDbEntity
  8
0
 62
     0
100
AcDbLine
 10
10.755
 20
11.17926406871193
 30
0.0
 11
13.11715841360858
 21
13.54142248232051
 31
0.0
  0
LINE
  5
189
330
185
100
AcDbEntity
  8
0
 62
     0
100
AcDbLine
 10
10.755
 20
11.32068542494923
 30
0.0
 11
13.06798435218606
 21
13.63366977713529
 31
0.0
  0
LINE
  5
18A
330
185
100
AcDbEntity
  8
0
 62
     0
100
AcDbLine
 10
10.755
 20
11.46210678118654
 30
0.0
 11
13.01504338256579
 21
13.72215016375234
 31
0.0
  0
LINE
  5
18B
330
185
100
AcDbEntity
  8
0
 62
     0
100
AcDbLine
 10
10.755
 20
11.60352813742385
 30
0.0
 11
12.93647186257614
 21
13.785
 31
0.0
  0
LINE
  5
18C
330
185
100
AcDbEntity
  8
0
 62
     0
100
AcDbLine
 10
10.755
 20
11.74494949366116
 30
0.0
 11
12.79505050633883
 21
13.785
 31
0.0
  0
LINE
  5
18D
330
185
100
AcDbEntity
  8
0
 62
     0
100
AcDbLine
 10
10.755
 20
11.88637084989847
 30
0.0
 11
12.65362915010152
 21
13.785
 31
0.0
  0
LINE
  5
18E
330
185
100
AcDbEntity
  8
0
 62
     0
100
AcDbLine
 10
10.755
 20
12.02779220613578
 30
0.0
 11
12.51220779386421
 21
13.785
 31
0.0
  0
LINE
  5
18F
330
185
100
AcDbEntity
  8
0
 62
     0
100
AcDbLine
 10
10.755
 20
12.16921356237309
 30
0.0
 11
12.3707864376269
 21
13.785
 31
0.0
  0
LINE
  5
190
330
185
100
AcDbEntity
  8
0
 62
     0
100
AcDbLine
 10
10.755
 20
12.3106349186104
 30
0.0
 11
12.22936508138959
 21
13.785
 31
0.0
  0
LINE
  5
191
330
185
100
AcDbEntity
  8
0
 62
     0
100
AcDbLine
 10
10.755
 20
12.45205627484771
 30
0.0
 11
12.08794372515228
 21
13.785
 31
0.0
  0
LINE
  5
192
330
185
100
AcDbEntity
  8
0
 62
     0
100
AcDbLine
 10
10.755
 20
12.59347763108502
 30
0.0
 11
11.94652236891498
 21
13.785
 31
0.0
  0
LINE
  5
193
330
185
100
AcDbEntity
  8
0
 62
     0
100
AcDbLine
 10
10.755
 20
12.73489898732233
 30
0.0
 11
11.80510101267767
 21
13.785
 31
0.0
  0
LINE
  5
194
330
185
100
AcDbEntity
  8
0
 62
     0
100
AcDbLine
 10
10.755
 20
12.87632034355964
 30
0.0
 11
11.66367965644035
 21
13.785
 31
0.0
  0
LINE
  5
195
330
185
100
AcDbEntity
  8
0
 62
     0
100
AcDbLine
 10
10.755
 20
13.01774169979695
 30
0.0
 11
11.52225830020304
 21
13.785
 31
0.0
  0
LINE
  5
196
330
185
100
AcDbEntity
  8
0
 62
     0
100
AcDbLine
 10
10.755
 20
13.15916305603426
 30
0.0
 11
11.38083694396573
 21
13.785
 31
0.0
  0
LINE
  5
197
330
185
100
AcDbEntity
  8
0
 62
     0
100
AcDbLine
 10
10.755
 20
13.30058441227157
 30
0.0
 11
11.23941558772843
 21
13.785
 31
0.0
  0
LINE
  5
198
330
185
100
AcDbEntity
  8
0
 62
     0
100
AcDbLine
 10
10.755
 20
13.44200576850888
 30
0.0
 11
11.09799423149112
 21
13.785
 31
0.0
  0
LINE
  5
199
330
185
100
AcDbEntity
  8
0
 62
     0
100
AcDbLine
 10
10.755
 20
13.58342712474619
 30
0.0
 11
10.95657287525381
 21
13.785
 31
0.0
  0
LINE
  5
19A
330
185
100
AcDbEntity
  8
0
 62
     0
100
AcDbLine
 10
10.755
 20
13.7248484809835
 30
0.0
 11
10.8151515190165
 21
13.785
 31
0.0
  0
LINE
  5
19B
330
185
100
AcDbEntity
  8
0
 62
     0
100
AcDbLine
 10
10.755
 20
10.755
 30
0.0
 11
13.24007575540194
 21
13.24007575540194
 31
0.0
  0
LINE
  5
19C
330
185
100
AcDbEntity
  8
0
 62
     0
100
AcDbLine
 10
10.755
 20
10.61357864376269
 30
0.0
 11
13.2718950823941
 21
13.13047372615679
 31
0.0
  0
LINE
  5
19D
330
185
100
AcDbEntity
  8
0
 62
     0
100
AcDbLine
 10
10.78284395292507
 20
10.50000124045045
 30
0.0
 11
13.29846094958801
 21
13.01561823711339
 31
0.0
  0
LINE
  5
19E
330
185
100
AcDbEntity
  8
0
 62
     0
100
AcDbLine
 10
10.92426530916238
 20
10.50000124045045
 30
0.0
 11
13.3191873967026
 21
12.89492332799067
 31
0.0
  0
LINE
  5
19F
330
185
100
AcDbEntity
  8
0
 62
     0
100
AcDbLine
 10
11.06568666539969
 20
10.50000124045045
 30
0.0
 11
13.33330010266433
 21
12.76761467771509
 31
0.0
  0
LINE
  5
1A0
330
185
100
AcDbEntity
  8
0
 62
     0
100
AcDbLine
 10
11.207108021637
 20
10.50000124045045
 30
0.0
 11
13.33974633222868
 21
12.63263955104213
 31
0.0
  0
LINE
  5
1A1
330
185
100
AcDbEntity
  8
0
 62
     0
100
AcDbLine
 10
11.35148974060317
 20
10.50296160317931
 30
0.0
 11
13.33703839682068
 21
12.48851025939682
 31
0.0
  0
LINE
  5
1A2
330
185
100
AcDbEntity
  8
0
 62
     0
100
AcDbLine
 10
11.50699107720297
 20
10.51704158354181
 30
0.0
 11
13.32295841645819
 21
12.33300892279702
 31
0.0
  0
LINE
  5
1A3
330
185
100
AcDbEntity
  8
0
 62
     0
100
AcDbLine
 10
11.67743557368476
 20
10.54606472378628
 30
0.0
 11
13.29393527621371
 21
12.16256442631524
 31
0.0
  0
LINE
  5
1A4
330
185
100
AcDbEntity
  8
0
 62
     0
100
AcDbLine
 10
11.86929982173049
 20
10.59650761559471
 30
0.0
 11
13.24349238440529
 21
11.9707001782695
 31
0.0
  0
LINE
  5
1A5
330
185
100
AcDbEntity
  8
0
 62
     0
100
AcDbLine
 10
12.0970739731583
 20
10.68286041078521
 30
0.0
 11
13.15713958921479
 21
11.7429260268417
 31
0.0
  0
LINE
  5
1A6
330
185
100
AcDbEntity
  8
0
 62
     0
100
AcDbLine
 10
12.41538471448807
 20
10.85974979587767
 30
0.0
 11
12.98025020412233
 21
11.42461528551192
 31
0.0
  0
ENDBLK
  5
1A8
330
185
100
AcDbEntity
  8
0
100
AcDbBlockEnd
  0
BLOCK
  5
372
330
361
100
AcDbEntity
  8
0
100
AcDbBlockBegin
  2
INPUT
 70
     0
 10
0.0
 20
0.0
 30
0.0
  3
INPUT
  1

  0
LINE
  5
362
330
361
100
AcDbEntity
  8
KESKI
100
AcDbLine
 10
0.0
 20
0.0
 30
0.0
 11
7.5
 21
7.5
 31
0.0
  0
LWPOLYLINE
  5
363
330
361
100
AcDbEntity
  8
KESKI
100
AcDbPolyline
 90
        4
 70
     1
 43
0.0
 10
0.0
 20
7.5
 10
7.5
 20
7.5
 10
7.5
 20
0.0
 10
0.0
 20
0.0
  0
LINE
  5
364
330
361
100
AcDbEntity
  8
KESKI
100
AcDbLine
 10
5.0
 20
3.25
 30
0.0
 11
5.0
 21
1.25
 31
0.0
  0
LINE
  5
365
330
361
100
AcDbEntity
  8
KESKI
100
AcDbLine
 10
5.0
 20
1.797891128666691
 30
0.0
 11
6.155449358842815
 21
0.642441769823904
 31
0.0
  0
LWPOLYLINE
  5
366
330
361
100
AcDbEntity
  8
KESKI
100
AcDbPolyline
 90
        3
 70
     1
 43
0.0
 10
6.155449358842815
 20
0.642441769823904
 10
6.043377424821812
 20
1.060699921692787
 10
5.737191206973932
 20
0.7545137038449071
  0
LINE
  5
367
330
361
100
AcDbEntity
  8
KESKI
100
AcDbLine
 10
2.616116523516836
 20
4.883883476483163
 30
0.0
 11
3.5
 21
4.0
 31
0.0
  0
LWPOLYLINE
  5
368
330
361
100
AcDbEntity
  8
KESKI
100
AcDbPolyline
 90
        3
 70
     1
 43
0.0
 10
3.5
 20
4.0
 10
3.387928065978996
 20
4.418258151868883
 10
3.081741848131116
 20
4.112071934021003
  0
LINE
  5
369
330
361
100
AcDbEntity
  8
KESKI
100
AcDbLine
 10
1.5
 20
7.25
 30
0.0
 11
1.5
 21
2.75
 31
0.0
  0
LWPOLYLINE
  5
36A
330
361
100
AcDbEntity
  8
KESKI
100
AcDbPolyline
 90
        3
 70
     1
 43
0.0
 10
1.5
 20
4.25
 10
2.665922381636093
 20
6.269436802675443
 10
0.3340776183639065
 20
6.269436802675443
  0
LINE
  5
36B
330
361
100
AcDbEntity
  8
KESKI
100
AcDbLine
 10
0.4902815986622784
 20
4.25
 30
0.0
 11
2.509718401337721
 21
4.25
 31
0.0
  0
LINE
  5
36C
330
361
100
AcDbEntity
  8
KESKI
100
AcDbLine
 10
5.0
 20
2.70210887133328
 30
0.0
 11
6.155449358842815
 21
3.857558230176096
 31
0.0
  0
LINE
  5
36D
330
361
100
AcDbEntity
  8
KESKI
100
AcDbLine
 10
3.366116523516836
 20
5.633883476483163
 30
0.0
 11
4.25
 21
4.75
 31
0.0
  0
LWPOLYLINE
  5
36E
330
361
100
AcDbEntity
  8
KESKI
100
AcDbPolyline
 90
        3
 70
     1
 43
0.0
 10
4.25
 20
4.75
 10
4.137928065978996
 20
5.168258151868883
 10
3.831741848131116
 20
4.862071934021003
  0
LINE
  5
36F
330
361
100
AcDbEntity
  8
KESKI
100
AcDbLine
 10
7.5
 20
3.75
 30
0.0
 11
11.25
 21
3.75
 31
0.0
  0
HATCH
  5
370
330
361
100
AcDbEntity
  8
KESKI
100
AcDbHatch
 10
0.0
 20
0.0
 30
0.0
210
0.0
220
0.0
230
1.0
  2
SOLID
 70
     1
 71
     1
 91
        1
 92
        1
 93
        3
 72
     1
 10
10.25
 20
3.75
 11
9.03125
 21
4.453645640574848
 72
     1
 10
9.03125
 20
4.453645640574848
 11
9.03125
 21
3.046354359425151
 72
     1
 10
9.03125
 20
3.046354359425151
 11
10.25
 21
3.75
 97
        1
330
371
 75
     0
 76
     1
 98
        1
 10
-71.5
 20
-276.25
  0
LWPOLYLINE
  5
371
102
{ACAD_REACTORS
330
370
102
}
330
361
100
AcDbEntity
  8
KESKI
100
AcDbPolyline
 90
        3
 70
     1
 43
0.0
 10
10.25
 20
3.75
 10
9.03125
 20
4.453645640574848
 10
9.03125
 20
3.046354359425151
  0
ENDBLK
  5
373
330
361
100
AcDbEntity
  8
0
100
AcDbBlockEnd
  0
BLOCK
  5
4DA
330
4C5
100
AcDbEntity
  8
0
100
AcDbBlockBegin
  2
REL2
 70
     0
 10
0.0
 20
0.0
 30
0.0
  3
REL2
  1

  0
LINE
  5
4C6
330
4C5
100
AcDbEntity
  8
KESKI
100
AcDbLine
 10
2.75
 20
-4.25
 30
0.0
 11
-3.25
 21
-4.25
 31
0.0
  0
LINE
  5
4C7
330
4C5
100
AcDbEntity
  8
KESKI
100
AcDbLine
 10
0.0
 20
0.0
 30
0.0
 11
5.5
 21
3.75
 31
0.0
  0
LWPOLYLINE
  5
4C8
330
4C5
100
AcDbEntity
  8
KESKI
100
AcDbPolyline
 90
        4
 70
     1
 43
0.0
 10
0.0
 20
3.75
 10
5.5
 20
3.75
 10
5.5
 20
0.0
 10
0.0
 20
0.0
  0
HATCH
  5
4C9
330
4C5
100
AcDbEntity
  8
KESKI
100
AcDbHatch
 10
0.0
 20
0.0
 30
0.0
210
0.0
220
0.0
230
1.0
  2
SOLID
 70
     1
 71
     1
 91
        1
 92
        1
 93
        3
 72
     1
 10
-1.25
 20
-4.25
 11
-2.46875
 21
-3.546354359425151
 72
     1
 10
-2.46875
 20
-3.546354359425151
 11
-2.46875
 21
-4.953645640574848
 72
     1
 10
-2.46875
 20
-4.953645640574848
 11
-1.25
 21
-4.25
 97
        1
330
4CA
 75
     0
 76
     1
 98
        1
 10
-83.0
 20
-284.25
  0
LWPOLYLINE
  5
4CA
102
{ACAD_REACTORS
330
4C9
102
}
330
4C5
100
AcDbEntity
  8
KESKI
100
AcDbPolyline
 90
        3
 70
     1
 43
0.0
 10
-1.25
 20
-4.25
 10
-2.46875
 20
-3.546354359425151
 10
-2.46875
 20
-4.953645640574848
  0
LINE
  5
4CB
330
4C5
100
AcDbEntity
  8
KESKI
100
AcDbLine
 10
13.75
 20
-7.25
 30
0.0
 11
13.75
 21
0.25
 31
0.0
  0
LINE
  5
4CC
330
4C5
100
AcDbEntity
  8
KESKI
100
AcDbLine
 10
17.25
 20
5.0
 30
0.0
 11
17.25
 21
-4.25
 31
0.0
  0
LINE
  5
4CD
330
4C5
100
AcDbEntity
  8
KESKI
100
AcDbLine
 10
2.75
 20
0.0
 30
0.0
 11
2.75
 21
-4.25
 31
0.0
  0
LINE
  5
4CE
330
4C5
100
AcDbEntity
  8
KESKI
100
AcDbLine
 10
24.25
 20
-7.25
 30
0.0
 11
13.75
 21
-7.25
 31
0.0
  0
LINE
  5
4CF
330
4C5
100
AcDbEntity
  8
KESKI
100
AcDbLine
 10
24.25
 20
-4.25
 30
0.0
 11
17.25
 21
-4.25
 31
0.0
  0
LINE
  5
4D0
330
4C5
100
AcDbEntity
  8
KESKI
100
AcDbLine
 10
13.75
 20
5.0
 30
0.0
 11
17.25
 21
5.0
 31
0.0
  0
LINE
  5
4D1
330
4C5
100
AcDbEntity
  8
KATKO07
100
AcDbLine
 10
5.5
 20
1.875
 30
0.0
 11
21.125
 21
1.875
 31
0.0
  0
LINE
  5
4D2
330
4C5
100
AcDbEntity
  8
KESKI
100
AcDbLine
 10
2.75
 20
3.75
 30
0.0
 11
2.75
 21
5.75
 31
0.0
  0
LINE
  5
4D3
330
4C5
100
AcDbEntity
  8
KESKI
100
AcDbLine
 10
13.75
 20
0.25
 30
0.0
 11
15.5
 21
3.0
 31
0.0
  0
LINE
  5
4D4
330
4C5
100
AcDbEntity
  8
KESKI
100
AcDbLine
 10
13.75
 20
3.5
 30
0.0
 11
13.75
 21
5.0
 31
0.0
  0
LINE
  5
4D5
330
4C5
100
AcDbEntity
  8
KESKI
100
AcDbLine
 10
24.25
 20
5.0
 30
0.0
 11
20.25
 21
5.0
 31
0.0
  0
LINE
  5
4D6
330
4C5
100
AcDbEntity
  8
KESKI
100
AcDbLine
 10
20.25
 20
0.25
 30
0.0
 11
22.0
 21
3.0
 31
0.0
  0
LINE
  5
4D7
330
4C5
100
AcDbEntity
  8
KESKI
100
AcDbLine
 10
24.25
 20
-1.25
 30
0.0
 11
20.25
 21
-1.25
 31
0.0
  0
LINE
  5
4D8
330
4C5
100
AcDbEntity
  8
KESKI
100
AcDbLine
 10
20.25
 20
-1.25
 30
0.0
 11
20.25
 21
0.25
 31
0.0
  0
LINE
  5
4D9
330
4C5
100
AcDbEntity
  8
KESKI
100
AcDbLine
 10
20.25
 20
5.0
 30
0.0
 11
20.25
 21
3.5
 31
0.0
  0
ENDBLK
  5
4DB
330
4C5
100
AcDbEntity
  8
0
100
AcDbBlockEnd
  0
BLOCK
  5
4ED
330
4DC
100
AcDbEntity
  8
0
100
AcDbBlockBegin
  2
RELV
 70
     0
 10
0.0
 20
0.0
 30
0.0
  3
RELV
  1

  0
LWPOLYLINE
  5
4DD
330
4DC
100
AcDbEntity
  8
KESKI
100
AcDbPolyline
 90
        4
 70
     1
 43
0.0
 10
-24.25
 20
-5.25
 10
-18.75
 20
-5.25
 10
-18.75
 20
-9.0
 10
-24.25
 20
-9.0
  0
LINE
  5
4DE
330
4DC
100
AcDbEntity
  8
KESKI
100
AcDbLine
 10
-24.25
 20
-9.0
 30
0.0
 11
-18.75
 21
-5.25
 31
0.0
  0
LINE
  5
4DF
330
4DC
100
AcDbEntity
  8
KESKI
100
AcDbLine
 10
-21.5
 20
-13.25
 30
0.0
 11
-27.5
 21
-13.25
 31
0.0
  0
HATCH
  5
4E0
330
4DC
100
AcDbEntity
  8
KESKI
100
AcDbHatch
 10
0.0
 20
0.0
 30
0.0
210
0.0
220
0.0
230
1.0
  2
SOLID
 70
     1
 71
     1
 91
        1
 92
        1
 93
        3
 72
     1
 10
-25.5
 20
-13.25
 11
-26.71875
 21
-12.54635435942515
 72
     1
 10
-26.71875
 20
-12.54635435942515
 11
-26.71875
 21
-13.95364564057485
 72
     1
 10
-26.71875
 20
-13.95364564057485
 11
-25.5
 21
-13.25
 97
        1
330
4E1
 75
     0
 76
     1
 98
        1
 10
-107.25
 20
-293.25
  0
LWPOLYLINE
  5
4E1
102
{ACAD_REACTORS
330
4E0
102
}
330
4DC
100
AcDbEntity
  8
KESKI
100
AcDbPolyline
 90
        3
 70
     1
 43
0.0
 10
-25.5
 20
-13.25
 10
-26.71875
 20
-12.54635435942515
 10
-26.71875
 20
-13.95364564057485
  0
LINE
  5
4E2
330
4DC
100
AcDbEntity
  8
KESKI
100
AcDbLine
 10
-8.0
 20
-3.0
 30
0.0
 11
0.0
 21
-3.0
 31
0.0
  0
LINE
  5
4E3
330
4DC
100
AcDbEntity
  8
KESKI
100
AcDbLine
 10
-10.5
 20
0.0
 30
0.0
 11
0.0
 21
0.0
 31
0.0
  0
LINE
  5
4E4
330
4DC
100
AcDbEntity
  8
KESKI
100
AcDbLine
 10
-10.5
 20
-14.22868063520036
 30
0.0
 11
0.0
 21
-14.22868063520036
 31
0.0
  0
LINE
  5
4E5
330
4DC
100
AcDbEntity
  8
KATKO07
100
AcDbLine
 10
-18.75
 20
-7.125
 30
0.0
 11
-9.552083333333314
 21
-7.124999999999943
 31
0.0
  0
LINE
  5
4E6
330
4DC
100
AcDbEntity
  8
KESKI
100
AcDbLine
 10
-21.5
 20
-9.0
 30
0.0
 11
-21.5
 21
-13.25
 31
0.0
  0
LINE
  5
4E7
330
4DC
100
AcDbEntity
  8
KESKI
100
AcDbLine
 10
-21.5
 20
-5.25
 30
0.0
 11
-21.5
 21
-3.25
 31
0.0
  0
LINE
  5
4E8
330
4DC
100
AcDbEntity
  8
KESKI
100
AcDbLine
 10
-10.5
 20
-14.22868063520036
 30
0.0
 11
-10.5
 21
-8.75
 31
0.0
  0
LINE
  5
4E9
330
4DC
100
AcDbEntity
  8
KESKI
100
AcDbLine
 10
-9.0
 20
-6.0
 30
0.0
 11
-8.0
 21
-6.0
 31
0.0
  0
LINE
  5
4EA
330
4DC
100
AcDbEntity
  8
KESKI
100
AcDbLine
 10
-10.5
 20
-8.75
 30
0.0
 11
-8.515900833423529
 21
-5.747673904695602
 31
0.0
  0
LINE
  5
4EB
330
4DC
100
AcDbEntity
  8
KESKI
100
AcDbLine
 10
-8.0
 20
-6.0
 30
0.0
 11
-8.0
 21
-3.0
 31
0.0
  0
LINE
  5
4EC
330
4DC
100
AcDbEntity
  8
KESKI
100
AcDbLine
 10
-10.5
 20
-6.0
 30
0.0
 11
-10.5
 21
0.0
 31
0.0
  0
ENDBLK
  5
4EE
330
4DC
100
AcDbEntity
  8
0
100
AcDbBlockEnd
  0
BLOCK
  5
AFD
330
AF9
100
AcDbEntity
  8
0
100
AcDbBlockBegin
  2
COPYRIGHT
 70
     0
 10
0.0
 20
0.0
 30
0.0
  3
COPYRIGHT
  1

  0
MTEXT
  5
AFA
330
AF9
100
AcDbEntity
  8
OHUTVIIVA
100
AcDbMText
 10
-7.069100515778472
 20
0.2480355719440013
 30
0.0
 40
1.5
 41
709.4787
 71
     1
 72
     5
  1
We reserve all rights in this document and in the information contained therein. Reproduction, use or disclosure to third parties without express authority is strictly forbidden.   ABB Oy.
  7
ROMANS
 11
0.0000000000000001
 21
1.0
 31
0.0
 73
     1
 44
1.0
1001
ACAD
1000
MTEXTBEGIN
1070
    73
1070
     1
1070
    44
1040
1.0
1070
    74
1070
     0
1000
MTEXTEND
  0
TEXT
  5
AFB
330
AF9
100
AcDbEntity
  8
OHUTVIIVA
100
AcDbText
 10
-5.528396371740242
 20
211.2153781608922
 30
0.0
 40
1.5
  1
C
 50
90.0
  7
ROMANS
100
AcDbText
  0
CIRCLE
  5
AFC
330
AF9
100
AcDbEntity
  8
OHUTVIIVA
100
AcDbCircle
 10
-6.306905249304691
 20
212.0403355111975
 30
0.0
 40
1.359729291186732
  0
ENDBLK
  5
AFE
330
AF9
100
AcDbEntity
  8
0
100
AcDbBlockEnd
  0
BLOCK
  5
BDD
330
BDC
100
AcDbEntity
  8
0
100
AcDbBlockBegin
  2
*U14
 70
     1
 10
0.0
 20
0.0
 30
0.0
  3
*U14
  1

  0
ENDBLK
  5
BDE
330
BDC
100
AcDbEntity
  8
0
100
AcDbBlockEnd
  0
BLOCK
  5
C17
330
C16
100
AcDbEntity
  8
0
100
AcDbBlockBegin
  2
GENAXEH
 70
     0
 10
0.0
 20
0.0
 30
0.0
  3
GENAXEH
  1

  0
LINE
  5
C18
330
C16
100
AcDbEntity
  8
0
100
AcDbLine
 10
-1.0
 20
0.0
 30
0.0
 11
1.0
 21
0.0
 31
0.0
  0
ENDBLK
  5
C19
330
C16
100
AcDbEntity
  8
0
100
AcDbBlockEnd
  0
BLOCK
  5
DE0
330
DAB
100
AcDbEntity
  8
0
100
AcDbBlockBegin
  2
ABB3T
 70
     0
 10
0.0
 20
0.0
 30
0.0
  3
ABB3T
  1

  0
LINE
  5
DAC
330
DAB
100
AcDbEntity
  8
PAKSU
100
AcDbLine
 10
0.0
 20
0.0
 30
0.0
 11
0.0
 21
262.5
 31
0.0
  0
LINE
  5
DAD
330
DAB
100
AcDbEntity
  8
PAKSU
100
AcDbLine
 10
392.0
 20
262.5
 30
0.0
 11
392.0
 21
0.0
 31
0.0
  0
LINE
  5
DAE
330
DAB
100
AcDbEntity
  8
PAKSU
100
AcDbLine
 10
0.0
 20
0.0
 30
0.0
 11
392.0
 21
0.0
 31
0.0
  0
TEXT
  5
DAF
330
DAB
100
AcDbEntity
  8
RAAMI
100
AcDbText
 10
42.0
 20
0.9523809523809525
 30
0.0
 40
2.5
  1
B
  7
ROMANS
100
AcDbText
  0
TEXT
  5
DB0
330
DAB
100
AcDbEntity
  8
RAAMI
100
AcDbText
 10
42.0
 20
5.354421058643247
 30
0.0
 40
2.5
  1
C
  7
ROMANS
100
AcDbText
  0
TEXT
  5
DB1
330
DAB
100
AcDbEntity
  8
RAAMI
100
AcDbText
 10
230.5533819379558
 20
1.520147635064914
 30
0.0
 40
2.43
  1
Distribution Automation
 41
0.8
  7
ROMANS
100
AcDbText
  0
TEXT
  5
DB2
330
DAB
100
AcDbEntity
  8
RAAMI
100
AcDbText
 10
283.9742533365684
 20
7.0
 30
0.0
 40
1.399999999999999
  1
OSASTO DEPT.
  7
ROMANS
100
AcDbText
  0
TEXT
  5
DB3
330
DAB
100
AcDbEntity
  8
RAAMI
100
AcDbText
 10
210.0
 20
32.0
 30
0.0
 40
1.399999999999999
  1
TEKI  PREPARED
  7
ROMANS
100
AcDbText
  0
LINE
  5
DB4
330
DAB
100
AcDbEntity
  8
OHUT
100
AcDbLine
 10
281.9742533365684
 20
9.5
 30
0.0
 11
281.9742533365684
 21
0.0
 31
0.0
  0
LINE
  5
DB5
330
DAB
100
AcDbEntity
  8
OHUT
100
AcDbLine
 10
257.0
 20
9.5
 30
0.0
 11
257.0
 21
35.0
 31
0.0
  0
LINE
  5
DB6
330
DAB
100
AcDbEntity
  8
OHUT
100
AcDbLine
 10
40.49999999999999
 20
4.5
 30
0.0
 11
209.0
 21
4.5
 31
0.0
  0
LINE
  5
DB7
330
DAB
100
AcDbEntity
  8
OHUT
100
AcDbLine
 10
46.5
 20
0.0
 30
0.0
 11
46.5
 21
9.0
 31
0.0
  0
LINE
  5
DB8
330
DAB
100
AcDbEntity
  8
OHUT
100
AcDbLine
 10
46.5
 20
9.0
 30
0.0
 11
209.0
 21
9.0
 31
0.0
  0
TEXT
  5
DB9
330
DAB
100
AcDbEntity
  8
RAAMI
100
AcDbText
 10
27.5
 20
2.233333333333334
 30
0.0
 40
1.399999999999999
  1
REVISION
  7
ROMANS
100
AcDbText
  0
TEXT
  5
DBA
330
DAB
100
AcDbEntity
  8
RAAMI
100
AcDbText
 10
27.5
 20
4.5
 30
0.0
 40
1.399999999999999
  1
MUUTOS
  7
ROMANS
100
AcDbText
  0
LINE
  5
DBB
330
DAB
100
AcDbEntity
  8
OHUT
100
AcDbLine
 10
282.0
 20
9.5
 30
0.0
 11
282.0
 21
18.0
 31
0.0
  0
LINE
  5
DBC
330
DAB
100
AcDbEntity
  8
RAAMI
100
AcDbLine
 10
209.95
 20
1.5
 30
0.0
 11
211.7
 21
1.5
 31
0.0
  0
LINE
  5
DBD
330
DAB
100
AcDbEntity
  8
OHUT
100
AcDbLine
 10
369.5
 20
18.0
 30
0.0
 11
369.5
 21
0.0
 31
0.0
  0
TEXT
  5
DBE
330
DAB
100
AcDbEntity
  8
RAAMI
100
AcDbText
 10
371.0
 20
7.0
 30
0.0
 40
1.399999999999999
  1
PAINOS  REVISION
  7
ROMANS
100
AcDbText
  0
TEXT
  5
DBF
330
DAB
100
AcDbEntity
  8
RAAMI
100
AcDbText
 10
309.0
 20
32.5
 30
0.0
 40
1.399999999999999
  1
NIMITYS  NAME
  7
ROMANS
100
AcDbText
  0
TEXT
  5
DC0
330
DAB
100
AcDbEntity
  8
RAAMI
100
AcDbText
 10
259.0
 20
15.5
 30
0.0
 40
1.399999999999999
  1
SUHDE  SCALE
  7
ROMANS
100
AcDbText
  0
TEXT
  5
DC1
330
DAB
100
AcDbEntity
  8
RAAMI
100
AcDbText
 10
259.0
 20
23.5
 30
0.0
 40
1.399999999999999
  1
TOLERANSSIT  TOLERANCES
  7
ROMANS
100
AcDbText
  0
TEXT
  5
DC2
330
DAB
100
AcDbEntity
  8
RAAMI
100
AcDbText
 10
259.0
 20
32.5
 30
0.0
 40
1.399999999999999
  1
LIITTYY  CONCERNING
  7
ROMANS
100
AcDbText
  0
LINE
  5
DC3
330
DAB
100
AcDbEntity
  8
OHUT
100
AcDbLine
 10
307.0
 20
0.0
 30
0.0
 11
307.0
 21
35.0
 31
0.0
  0
TEXT
  5
DC4
330
DAB
100
AcDbEntity
  8
RAAMI
100
AcDbText
 10
209.7428347258664
 20
15.46666666666667
 30
0.0
 40
1.399999999999999
  1
HYVÄKSYI  APPROVED
  7
ROMANS
100
AcDbText
  0
TEXT
  5
DC5
330
DAB
100
AcDbEntity
  8
RAAMI
100
AcDbText
 10
210.0
 20
23.73333333333333
 30
0.0
 40
1.399999999999999
  1
TARKASTI  CHECKED
  7
ROMANS
100
AcDbText
  0
LINE
  5
DC6
330
DAB
100
AcDbEntity
  8
PAKSU
100
AcDbLine
 10
209.0
 20
35.0
 30
0.0
 11
392.0
 21
35.0
 31
0.0
  0
LINE
  5
DC7
330
DAB
100
AcDbEntity
  8
OHUT
100
AcDbLine
 10
209.0
 20
26.5
 30
0.0
 11
307.0
 21
26.5
 31
0.0
  0
LINE
  5
DC8
330
DAB
100
AcDbEntity
  8
OHUT
100
AcDbLine
 10
209.0
 20
9.5
 30
0.0
 11
392.0
 21
9.5
 31
0.0
  0
LINE
  5
DC9
330
DAB
100
AcDbEntity
  8
OHUT
100
AcDbLine
 10
209.0
 20
18.0
 30
0.0
 11
392.0
 21
18.0
 31
0.0
  0
LINE
  5
DCA
330
DAB
100
AcDbEntity
  8
PAKSU
100
AcDbLine
 10
392.0
 20
0.0
 30
0.0
 11
392.0
 21
35.0
 31
0.0
  0
LINE
  5
DCB
330
DAB
100
AcDbEntity
  8
PAKSU
100
AcDbLine
 10
209.0
 20
0.0
 30
0.0
 11
209.0
 21
35.0
 31
0.0
  0
LINE
  5
DCC
330
DAB
100
AcDbEntity
  8
PAKSU
100
AcDbLine
 10
209.0
 20
0.0
 30
0.0
 11
392.0
 21
0.0
 31
0.0
  0
LINE
  5
DCD
330
DAB
100
AcDbEntity
  8
PAKSU
100
AcDbLine
 10
0.0
 20
262.5
 30
0.0
 11
392.0
 21
262.5
 31
0.0
  0
TEXT
  5
DCE
330
DAB
100
AcDbEntity
  8
RAAMI
100
AcDbText
 10
309.0
 20
7.0
 30
0.0
 40
1.399999999999999
  1
PIIRUSTUS NO  DRAWING NO
  7
ROMANS
100
AcDbText
  0
INSERT
  5
DCF
330
DAB
100
AcDbEntity
  8
RAAMI
100
AcDbBlockReference
  2
LOGO
 10
209.0
 20
-9.0
 30
0.0
  0
TEXT
  5
DD0
330
DAB
100
AcDbEntity
  8
RAAMI
100
AcDbText
 10
283.5548252099439
 20
15.5009660006533
 30
0.0
 40
1.399999999999999
  1
PROJ
  7
ROMANS
100
AcDbText
  0
LINE
  5
DD1
330
DAB
100
AcDbEntity
  8
RAAMI
  6
DASHDOT
100
AcDbLine
 10
301.5170187530453
 20
13.41212209817375
 30
0.0
 11
298.1744426752647
 21
13.41212209817375
 31
0.0
  0
CIRCLE
  5
DD2
330
DAB
100
AcDbEntity
  8
RAAMI
100
AcDbCircle
 10
301.5170187530453
 20
13.41212209817375
 30
0.0
 40
2.343653787115606
  0
LINE
  5
DD3
330
DAB
100
AcDbEntity
  8
RAAMI
  6
DASHDOT
100
AcDbLine
 10
297.2518098577122
 20
13.41684360465967
 30
0.0
 11
290.0151352470689
 21
13.41684360465967
 31
0.0
  0
LINE
  5
DD4
330
DAB
100
AcDbEntity
  8
RAAMI
100
AcDbLine
 10
291.0980918801337
 20
12.26250875761435
 30
0.0
 11
296.1085865096259
 21
11.10817391056903
 31
0.0
  0
LINE
  5
DD5
330
DAB
100
AcDbEntity
  8
RAAMI
100
AcDbLine
 10
296.1085865096259
 20
15.7255132987503
 30
0.0
 11
291.0980918801337
 21
14.45574496700046
 31
0.0
  0
LINE
  5
DD6
330
DAB
100
AcDbEntity
  8
RAAMI
100
AcDbLine
 10
291.0980918801337
 20
14.45574496700046
 30
0.0
 11
291.0980918801337
 21
12.26250875761435
 31
0.0
  0
LINE
  5
DD7
330
DAB
100
AcDbEntity
  8
RAAMI
100
AcDbLine
 10
296.1085865096259
 20
11.10817391056903
 30
0.0
 11
296.1085865096259
 21
15.7255132987503
 31
0.0
  0
LINE
  5
DD8
330
DAB
100
AcDbEntity
  8
RAAMI
  6
DASHDOT
100
AcDbLine
 10
301.5170187530453
 20
13.41212209817375
 30
0.0
 11
301.5170187530453
 21
10.25506928999831
 31
0.0
  0
LINE
  5
DD9
330
DAB
100
AcDbEntity
  8
RAAMI
  6
DASHDOT
100
AcDbLine
 10
301.5170187530453
 20
13.41212209817375
 30
0.0
 11
301.5170187530453
 21
16.56917490634918
 31
0.0
  0
LINE
  5
DDA
330
DAB
100
AcDbEntity
  8
RAAMI
  6
DASHDOT
100
AcDbLine
 10
301.5170187530453
 20
13.41212209817375
 30
0.0
 11
304.8595948308259
 21
13.41212209817375
 31
0.0
  0
CIRCLE
  5
DDB
330
DAB
100
AcDbEntity
  8
RAAMI
100
AcDbCircle
 10
301.5170187530453
 20
13.41212209817375
 30
0.0
 40
1.114664538372245
  0
TEXT
  5
DDC
330
DAB
100
AcDbEntity
  8
RAAMI
100
AcDbText
 10
371.0
 20
15.5
 30
0.0
 40
1.399999999999999
  1
LEHTI    SHEET
  7
ROMANS
100
AcDbText
  0
TEXT
  5
DDD
330
DAB
100
AcDbEntity
  8
RAAMI
100
AcDbText
 10
230.5533819379558
 20
5.020147635064914
 30
0.0
 40
2.43
  1
ABB Oy
 41
0.8
  7
ROMANS
100
AcDbText
  0
INSERT
  5
DDE
330
DAB
100
AcDbEntity
  8
MUOTOVIIVA
100
AcDbBlockReference
  2
COPYRIGHT
 10
2.66663455815069
 20
4.251963829358913
 30
0.0
  0
ENDBLK
  5
DE1
330
DAB
100
AcDbEntity
  8
0
100
AcDbBlockEnd
  0
ENDSEC
  0
SECTION
  2
ENTITIES
  0
LINE
  5
446
330
1F
100
AcDbEntity
  8
MITTA
100
AcDbLine
 10
171.500000906266
 20
239.5244177334985
 30
0.0
 11
152.9749283546717
 21
239.5244177334985
 31
0.0
  0
LINE
  5
6FC
330
1F
100
AcDbEntity
  8
PISTKATK
100
AcDbLine
 10
264.9749283546718
 20
37.0
 30
0.0
 11
264.9749283546718
 21
252.7883716289935
 31
0.0
  0
LINE
  5
6FD
330
1F
100
AcDbEntity
  8
PISTKATK
100
AcDbLine
 10
264.9749283546718
 20
252.7883716289935
 30
0.0
 11
152.9749283546717
 21
252.7883716289935
 31
0.0
  0
LINE
  5
70F
330
1F
100
AcDbEntity
  8
TEXT25
100
AcDbLine
 10
214.7865677522843
 20
235.5687491795143
 30
0.0
 11
254.2865677522842
 21
235.5687491795143
 31
0.0
  0
TEXT
  5
710
330
1F
100
AcDbEntity
  8
TEXT25
100
AcDbText
 10
216.4496283259911
 20
231.1166387537477
 30
0.0
 40
2.5
  1
BINARY INPUT RANGE
 41
0.9
  7
T25
100
AcDbText
  0
LINE
  5
713
330
1F
100
AcDbEntity
  8
TEXT25
100
AcDbLine
 10
214.7865677522843
 20
229.5687491795142
 30
0.0
 11
254.2865677522842
 21
229.5687491795143
 31
0.0
  0
LINE
  5
717
330
1F
100
AcDbEntity
  8
TEXT25
100
AcDbLine
 10
254.2865677522842
 20
214.6301141817248
 30
0.0
 11
254.2865677522842
 21
235.5687491795143
 31
0.0
  0
TEXT
  5
718
330
1F
100
AcDbEntity
  8
TEXT25
100
AcDbText
 10
222.3400018774902
 20
220.7884463943228
 30
0.0
 40
2.5
  1
80-265VDC
 41
0.9
  7
T25
100
AcDbText
  0
TEXT
  5
719
330
1F
100
AcDbEntity
  8
TEXT25
100
AcDbText
 10
222.3400018774902
 20
225.7884463943228
 30
0.0
 40
2.5
  1
18-265VDC
 41
0.9
  7
T25
100
AcDbText
  0
LINE
  5
71A
330
1F
100
AcDbEntity
  8
TEXT25
100
AcDbLine
 10
214.7865677522842
 20
214.6301141817248
 30
0.0
 11
214.7865677522842
 21
235.5687491795143
 31
0.0
  0
LINE
  5
71B
330
1F
100
AcDbEntity
  8
TEXT25
100
AcDbLine
 10
219.7865677522843
 20
214.6684255125184
 30
0.0
 11
219.7865677522843
 21
229.5687491795142
 31
0.0
  0
TEXT
  5
72D
330
1F
100
AcDbEntity
  8
MITTA
100
AcDbText
 10
185.3865530296002
 20
240.171294715714
 30
0.0
 40
2.5
  1
BIO2_7_BI1
 41
0.9
  7
T25
100
AcDbText
  0
TEXT
  5
72E
330
1F
100
AcDbEntity
  8
MITTA
100
AcDbText
 10
185.3865530296002
 20
231.2641778285002
 30
0.0
 40
2.5
  1
BIO2_7_BI2
 41
0.9
  7
T25
100
AcDbText
  0
TEXT
  5
72F
330
1F
100
AcDbEntity
  8
MITTA
100
AcDbText
 10
185.3865530296002
 20
168.0768228528418
 30
0.0
 40
2.5
  1
BIO2_7_BI9
 41
0.9
  7
T25
100
AcDbText
  0
TEXT
  5
7D5
330
1F
100
AcDbEntity
  8
MITTA
100
AcDbText
 10
155.0
 20
243.8844975661953
 30
0.0
 40
2.5
  1
1
 41
0.9
  7
T25
100
AcDbText
  0
TEXT
  5
7D6
330
1F
100
AcDbEntity
  8
MITTA
100
AcDbText
 10
155.0
 20
239.8844975661952
 30
0.0
 40
2.5
  1
2
 41
0.9
  7
T25
100
AcDbText
  0
TEXT
  5
7D7
330
1F
100
AcDbEntity
  8
MITTA
100
AcDbText
 10
155.0
 20
234.8844975661953
 30
0.0
 40
2.5
  1
3
 41
0.9
  7
T25
100
AcDbText
  0
TEXT
  5
7D9
330
1F
100
AcDbEntity
  8
MITTA
100
AcDbText
 10
154.0
 20
172.1794590258695
 30
0.0
 40
2.5
  1
13
 41
0.9
  7
T25
100
AcDbText
  0
TEXT
  5
7DA
330
1F
100
AcDbEntity
  8
MITTA
100
AcDbText
 10
154.0
 20
168.1794590258695
 30
0.0
 40
2.5
  1
14
 41
0.9
  7
T25
100
AcDbText
  0
TEXT
  5
7DF
330
1F
100
AcDbEntity
  8
MITTA
100
AcDbText
 10
154.1000329835924
 20
247.3204169451767
 30
0.0
 40
2.5
  1
X7.1
 41
0.9
  7
T25
100
AcDbText
  0
LWPOLYLINE
  5
7E7
330
1F
100
AcDbEntity
  8
MITTA
100
AcDbPolyline
 90
        5
 70
     0
 43
0.0
 10
171.5
 20
237.5
 10
171.5
 20
245.5
 10
179.5
 20
245.5
 10
179.5
 20
237.5
 10
171.5
 20
237.5
  0
LINE
  5
7EA
330
1F
100
AcDbEntity
  8
MITTA
100
AcDbLine
 10
177.000000906266
 20
241.0244177334984
 30
0.0
 11
177.000000906266
 21
239.0244177334984
 31
0.0
  0
LINE
  5
7EB
330
1F
100
AcDbEntity
  8
MITTA
100
AcDbLine
 10
177.000000906266
 20
239.5723088621652
 30
0.0
 11
178.1554502651088
 21
238.4168595033224
 31
0.0
  0
LWPOLYLINE
  5
7EC
330
1F
100
AcDbEntity
  8
MITTA
100
AcDbPolyline
 90
        3
 70
     1
 43
0.0
 10
178.1554502651088
 20
238.4168595033224
 10
178.0433783310878
 20
238.8351176551913
 10
177.7371921132399
 20
238.5289314373434
  0
LINE
  5
7ED
330
1F
100
AcDbEntity
  8
MITTA
100
AcDbLine
 10
174.6161174297828
 20
242.6583012099816
 30
0.0
 11
175.500000906266
 21
241.7744177334985
 31
0.0
  0
LWPOLYLINE
  5
7EE
330
1F
100
AcDbEntity
  8
MITTA
100
AcDbPolyline
 90
        3
 70
     1
 43
0.0
 10
175.500000906266
 20
241.7744177334985
 10
175.387928972245
 20
242.1926758853674
 10
175.0817427543971
 20
241.8864896675195
  0
LINE
  5
7EF
330
1F
100
AcDbEntity
  8
MITTA
100
AcDbLine
 10
173.500000906266
 20
245.0244177334985
 30
0.0
 11
173.500000906266
 21
240.5244177334985
 31
0.0
  0
LWPOLYLINE
  5
7F0
330
1F
100
AcDbEntity
  8
MITTA
100
AcDbPolyline
 90
        3
 70
     1
 43
0.0
 10
173.500000906266
 20
242.0244177334985
 10
174.6659232879021
 20
244.0438545361739
 10
172.3340785246299
 20
244.0438545361739
  0
LINE
  5
7F1
330
1F
100
AcDbEntity
  8
MITTA
100
AcDbLine
 10
172.4902825049283
 20
242.0244177334985
 30
0.0
 11
174.5097193076037
 21
242.0244177334985
 31
0.0
  0
LINE
  5
7F2
330
1F
100
AcDbEntity
  8
MITTA
100
AcDbLine
 10
177.000000906266
 20
240.4765266048317
 30
0.0
 11
178.1554502651088
 21
241.6319759636746
 31
0.0
  0
LINE
  5
7F3
330
1F
100
AcDbEntity
  8
MITTA
100
AcDbLine
 10
175.3661174297828
 20
243.4083012099816
 30
0.0
 11
176.250000906266
 21
242.5244177334985
 31
0.0
  0
LWPOLYLINE
  5
7F4
330
1F
100
AcDbEntity
  8
MITTA
100
AcDbPolyline
 90
        3
 70
     1
 43
0.0
 10
176.250000906266
 20
242.5244177334985
 10
176.137928972245
 20
242.9426758853673
 10
175.8317427543971
 20
242.6364896675195
  0
LINE
  5
7F8
330
1F
100
AcDbEntity
  8
MITTA
100
AcDbLine
 10
171.5
 20
237.5
 30
0.0
 11
179.5
 21
245.5
 31
0.0
  0
HATCH
  5
7FC
330
1F
100
AcDbEntity
  8
MITTA
100
AcDbHatch
 10
0.0
 20
0.0
 30
0.0
210
0.0
220
0.0
230
1.0
  2
SOLID
 70
     1
 71
     0
 91
        1
 92
        1
 93
        3
 72
     1
 10
184.25
 20
241.5
 11
181.7499999999999
 21
240.0
 72
     1
 10
181.7499999999999
 20
240.0
 11
181.7499999999999
 21
243.0
 72
     1
 10
181.7499999999999
 20
243.0
 11
184.25
 21
241.5
 97
        0
 75
     0
 76
     1
 98
        1
 10
426.25
 20
355.0
  0
LINE
  5
7FD
330
1F
100
AcDbEntity
  8
MITTA
100
AcDbLine
 10
179.5
 20
241.5
 30
0.0
 11
184.0
 21
241.5
 31
0.0
  0
LINE
  5
7FE
330
1F
100
AcDbEntity
  8
MITTA
100
AcDbLine
 10
171.500000906266
 20
243.5244177334985
 30
0.0
 11
152.9749283546717
 21
243.5244177334985
 31
0.0
  0
LWPOLYLINE
  5
7FF
330
1F
100
AcDbEntity
  8
MITTA
100
AcDbPolyline
 90
        5
 70
     0
 43
0.0
 10
171.5
 20
228.5
 10
171.5
 20
236.5
 10
179.5
 20
236.5
 10
179.5
 20
228.5
 10
171.5
 20
228.5
  0
LINE
  5
800
330
1F
100
AcDbEntity
  8
MITTA
100
AcDbLine
 10
171.5
 20
228.5
 30
0.0
 11
179.5
 21
236.5
 31
0.0
  0
LWPOLYLINE
  5
801
330
1F
100
AcDbEntity
  8
MITTA
100
AcDbPolyline
 90
        3
 70
     1
 43
0.0
 10
173.500000906266
 20
233.0244177334985
 10
174.6659232879021
 20
235.0438545361739
 10
172.3340785246299
 20
235.0438545361739
  0
LINE
  5
802
330
1F
100
AcDbEntity
  8
MITTA
100
AcDbLine
 10
172.4902825049283
 20
233.0244177334985
 30
0.0
 11
174.5097193076037
 21
233.0244177334985
 31
0.0
  0
LINE
  5
804
330
1F
100
AcDbEntity
  8
MITTA
100
AcDbLine
 10
171.500000906266
 20
234.5244177334985
 30
0.0
 11
152.9749283546717
 21
234.5244177334985
 31
0.0
  0
LINE
  5
805
330
1F
100
AcDbEntity
  8
MITTA
100
AcDbLine
 10
173.500000906266
 20
236.0244177334985
 30
0.0
 11
173.500000906266
 21
231.5244177334985
 31
0.0
  0
LINE
  5
806
330
1F
100
AcDbEntity
  8
MITTA
100
AcDbLine
 10
177.000000906266
 20
232.0244177334985
 30
0.0
 11
177.000000906266
 21
230.0244177334985
 31
0.0
  0
LINE
  5
807
330
1F
100
AcDbEntity
  8
MITTA
100
AcDbLine
 10
177.000000906266
 20
230.5723088621652
 30
0.0
 11
178.1554502651088
 21
229.4168595033224
 31
0.0
  0
LWPOLYLINE
  5
808
330
1F
100
AcDbEntity
  8
MITTA
100
AcDbPolyline
 90
        3
 70
     1
 43
0.0
 10
178.1554502651088
 20
229.4168595033224
 10
178.0433783310878
 20
229.8351176551912
 10
177.7371921132399
 20
229.5289314373434
  0
HATCH
  5
809
330
1F
100
AcDbEntity
  8
MITTA
100
AcDbHatch
 10
0.0
 20
0.0
 30
0.0
210
0.0
220
0.0
230
1.0
  2
SOLID
 70
     1
 71
     0
 91
        1
 92
        1
 93
        3
 72
     1
 10
184.25
 20
232.5
 11
181.7499999999999
 21
231.0
 72
     1
 10
181.7499999999999
 20
231.0
 11
181.7499999999999
 21
234.0
 72
     1
 10
181.7499999999999
 20
234.0
 11
184.25
 21
232.5
 97
        0
 75
     0
 76
     1
 98
        1
 10
426.25
 20
346.0
  0
LINE
  5
80A
330
1F
100
AcDbEntity
  8
MITTA
100
AcDbLine
 10
179.5
 20
232.5
 30
0.0
 11
184.0
 21
232.5
 31
0.0
  0
LINE
  5
80B
330
1F
100
AcDbEntity
  8
MITTA
100
AcDbLine
 10
177.000000906266
 20
231.4765266048318
 30
0.0
 11
178.1554502651088
 21
232.6319759636746
 31
0.0
  0
LINE
  5
80C
330
1F
100
AcDbEntity
  8
MITTA
100
AcDbLine
 10
174.6161174297828
 20
233.6583012099816
 30
0.0
 11
175.500000906266
 21
232.7744177334984
 31
0.0
  0
LWPOLYLINE
  5
80D
330
1F
100
AcDbEntity
  8
MITTA
100
AcDbPolyline
 90
        3
 70
     1
 43
0.0
 10
175.500000906266
 20
232.7744177334984
 10
175.387928972245
 20
233.1926758853673
 10
175.0817427543971
 20
232.8864896675195
  0
LINE
  5
80E
330
1F
100
AcDbEntity
  8
MITTA
100
AcDbLine
 10
175.3661174297828
 20
234.4083012099816
 30
0.0
 11
176.250000906266
 21
233.5244177334985
 31
0.0
  0
LWPOLYLINE
  5
80F
330
1F
100
AcDbEntity
  8
MITTA
100
AcDbPolyline
 90
        3
 70
     1
 43
0.0
 10
176.250000906266
 20
233.5244177334985
 10
176.137928972245
 20
233.9426758853674
 10
175.8317427543971
 20
233.6364896675195
  0
LWPOLYLINE
  5
810
330
1F
100
AcDbEntity
  8
MITTA
100
AcDbPolyline
 90
        5
 70
     0
 43
0.0
 10
171.5
 20
165.5
 10
171.5
 20
173.5
 10
179.5
 20
173.5
 10
179.5
 20
165.5
 10
171.5
 20
165.5
  0
LINE
  5
811
330
1F
100
AcDbEntity
  8
MITTA
100
AcDbLine
 10
171.5
 20
165.5
 30
0.0
 11
179.5
 21
173.5
 31
0.0
  0
LWPOLYLINE
  5
812
330
1F
100
AcDbEntity
  8
MITTA
100
AcDbPolyline
 90
        3
 70
     1
 43
0.0
 10
173.500000906266
 20
170.0244177334985
 10
174.6659232879021
 20
172.0438545361739
 10
172.3340785246299
 20
172.0438545361739
  0
LINE
  5
813
330
1F
100
AcDbEntity
  8
MITTA
100
AcDbLine
 10
172.4902825049283
 20
170.0244177334985
 30
0.0
 11
174.5097193076037
 21
170.0244177334985
 31
0.0
  0
LINE
  5
814
330
1F
100
AcDbEntity
  8
MITTA
100
AcDbLine
 10
171.500000906266
 20
167.5244177334984
 30
0.0
 11
152.9749283546717
 21
167.5244177334985
 31
0.0
  0
LINE
  5
815
330
1F
100
AcDbEntity
  8
MITTA
100
AcDbLine
 10
171.500000906266
 20
171.5244177334984
 30
0.0
 11
152.9749283546717
 21
171.5244177334985
 31
0.0
  0
LINE
  5
816
330
1F
100
AcDbEntity
  8
MITTA
100
AcDbLine
 10
173.500000906266
 20
173.0244177334984
 30
0.0
 11
173.500000906266
 21
168.5244177334984
 31
0.0
  0
HATCH
  5
817
330
1F
100
AcDbEntity
  8
MITTA
100
AcDbHatch
 10
0.0
 20
0.0
 30
0.0
210
0.0
220
0.0
230
1.0
  2
SOLID
 70
     1
 71
     0
 91
        1
 92
        1
 93
        3
 72
     1
 10
184.25
 20
169.5
 11
181.7499999999999
 21
168.0
 72
     1
 10
181.7499999999999
 20
168.0
 11
181.7499999999999
 21
171.0
 72
     1
 10
181.7499999999999
 20
171.0
 11
184.25
 21
169.5
 97
        0
 75
     0
 76
     1
 98
        1
 10
426.25
 20
283.0
  0
LINE
  5
818
330
1F
100
AcDbEntity
  8
MITTA
100
AcDbLine
 10
179.5
 20
169.5
 30
0.0
 11
184.0
 21
169.5
 31
0.0
  0
LINE
  5
819
330
1F
100
AcDbEntity
  8
MITTA
100
AcDbLine
 10
175.3661174297828
 20
171.4083012099816
 30
0.0
 11
176.250000906266
 21
170.5244177334984
 31
0.0
  0
LWPOLYLINE
  5
81A
330
1F
100
AcDbEntity
  8
MITTA
100
AcDbPolyline
 90
        3
 70
     1
 43
0.0
 10
176.250000906266
 20
170.5244177334984
 10
176.137928972245
 20
170.9426758853673
 10
175.8317427543971
 20
170.6364896675195
  0
LINE
  5
81B
330
1F
100
AcDbEntity
  8
MITTA
100
AcDbLine
 10
177.000000906266
 20
167.5723088621651
 30
0.0
 11
178.1554502651088
 21
166.4168595033223
 31
0.0
  0
LWPOLYLINE
  5
81C
330
1F
100
AcDbEntity
  8
MITTA
100
AcDbPolyline
 90
        3
 70
     1
 43
0.0
 10
178.1554502651088
 20
166.4168595033223
 10
178.0433783310878
 20
166.8351176551912
 10
177.7371921132399
 20
166.5289314373433
  0
LINE
  5
81D
330
1F
100
AcDbEntity
  8
MITTA
100
AcDbLine
 10
177.000000906266
 20
168.4765266048317
 30
0.0
 11
178.1554502651088
 21
169.6319759636745
 31
0.0
  0
LINE
  5
81E
330
1F
100
AcDbEntity
  8
MITTA
100
AcDbLine
 10
177.000000906266
 20
169.0244177334984
 30
0.0
 11
177.000000906266
 21
167.0244177334985
 31
0.0
  0
LINE
  5
81F
330
1F
100
AcDbEntity
  8
MITTA
100
AcDbLine
 10
174.6161174297828
 20
170.6583012099816
 30
0.0
 11
175.500000906266
 21
169.7744177334984
 31
0.0
  0
LWPOLYLINE
  5
820
330
1F
100
AcDbEntity
  8
MITTA
100
AcDbPolyline
 90
        3
 70
     1
 43
0.0
 10
175.500000906266
 20
169.7744177334984
 10
175.387928972245
 20
170.1926758853673
 10
175.0817427543971
 20
169.8864896675194
  0
LINE
  5
823
330
1F
100
AcDbEntity
  8
PISTKATK
100
AcDbLine
 10
152.9749283546717
 20
37.0
 30
0.0
 11
152.9749283546717
 21
252.7883716289935
 31
0.0
  0
LINE
  5
824
330
1F
100
AcDbEntity
  8
PISTKATK
100
AcDbLine
 10
265.0
 20
36.78837162899353
 30
0.0
 11
152.9749283546717
 21
36.78837162899353
 31
0.0
  0
LINE
  5
827
330
1F
100
AcDbEntity
  8
KATKO07
100
AcDbLine
 10
153.0
 20
243.5
 30
0.0
 11
113.0
 21
243.5
 31
0.0
  0
LINE
  5
828
330
1F
100
AcDbEntity
  8
KATKO07
100
AcDbLine
 10
153.0
 20
239.5
 30
0.0
 11
113.0
 21
239.5
 31
0.0
  0
LINE
  5
829
330
1F
100
AcDbEntity
  8
KATKO07
100
AcDbLine
 10
153.0
 20
234.5
 30
0.0
 11
113.0
 21
234.5
 31
0.0
  0
LINE
  5
82B
330
1F
100
AcDbEntity
  8
KATKO07
100
AcDbLine
 10
153.0
 20
171.5
 30
0.0
 11
113.0
 21
171.5
 31
0.0
  0
LINE
  5
82C
330
1F
100
AcDbEntity
  8
KATKO07
100
AcDbLine
 10
153.0
 20
167.5
 30
0.0
 11
113.0
 21
167.5
 31
0.0
  0
LINE
  5
82D
330
1F
100
AcDbEntity
  8
KATKO07
100
AcDbLine
 10
153.0
 20
146.5
 30
0.0
 11
113.0
 21
146.5
 31
0.0
  0
LINE
  5
82E
330
1F
100
AcDbEntity
  8
KATKO07
100
AcDbLine
 10
153.0
 20
138.5
 30
0.0
 11
113.0
 21
138.5
 31
0.0
  0
LINE
  5
844
330
1F
100
AcDbEntity
  8
TEXT25
100
AcDbLine
 10
214.7865677522843
 20
224.5687491795143
 30
0.0
 11
254.2865677522842
 21
224.5687491795143
 31
0.0
  0
LINE
  5
845
330
1F
100
AcDbEntity
  8
TEXT25
100
AcDbLine
 10
214.7865677522843
 20
219.5687491795143
 30
0.0
 11
254.2865677522842
 21
219.5687491795143
 31
0.0
  0
TEXT
  5
846
330
1F
100
AcDbEntity
  8
TEXT25
100
AcDbText
 10
153.0
 20
254.3587500423093
 30
0.0
 40
2.5
  1
BIO2, BINARY IN/OUT MODULE 2
 41
0.9
  7
T25
100
AcDbText
  0
LINE
  5
861
330
1F
100
AcDbEntity
  8
TEXT25
100
AcDbLine
 10
286.9999995096581
 20
227.5000000291501
 30
0.0
 11
345.4999995096582
 21
227.5000000291501
 31
0.0
  0
LINE
  5
862
330
1F
100
AcDbEntity
  8
TEXT25
100
AcDbLine
 10
286.9999995096581
 20
232.5000000291501
 30
0.0
 11
345.4999995096582
 21
232.5000000291501
 31
0.0
  0
LINE
  5
863
330
1F
100
AcDbEntity
  8
TEXT25
100
AcDbLine
 10
302.9999995096582
 20
237.5000000291501
 30
0.0
 11
345.4999995096582
 21
237.5000000291501
 31
0.0
  0
LINE
  5
864
330
1F
100
AcDbEntity
  8
TEXT25
100
AcDbLine
 10
286.9999995096582
 20
242.5000000291501
 30
0.0
 11
345.4999995096582
 21
242.5000000291501
 31
0.0
  0
TEXT
  5
865
330
1F
100
AcDbEntity
  8
TEXT25
100
AcDbText
 10
319.8421795638588
 20
228.7359550040695
 30
0.0
 40
2.5
  1
X7.1 and X7.2
 41
0.9
  7
T25
100
AcDbText
  0
TEXT
  5
866
330
1F
100
AcDbEntity
  8
TEXT25
100
AcDbText
 10
326.2621080554604
 20
233.2359550040695
 30
0.0
 40
2.5
  1
REAR
 41
0.9
  7
T25
100
AcDbText
  0
LINE
  5
868
330
1F
100
AcDbEntity
  8
TEXT25
100
AcDbLine
 10
302.9999995096582
 20
227.5000000291501
 30
0.0
 11
302.9999995096582
 21
242.5000000291501
 31
0.0
  0
TEXT
  5
869
330
1F
100
AcDbEntity
  8
TEXT25
100
AcDbText
 10
317.2621080554604
 20
238.5507608067667
 30
0.0
 40
2.5
  1
POSITION
 41
0.9
  7
T25
100
AcDbText
  0
TEXT
  5
86A
330
1F
100
AcDbEntity
  8
TEXT25
100
AcDbText
 10
291.7621080554604
 20
228.6883359564505
 30
0.0
 40
2.5
  1
BIO2
 41
0.9
  7
T25
100
AcDbText
  0
TEXT
  5
86B
330
1F
100
AcDbEntity
  8
TEXT25
100
AcDbText
 10
288.7621080554604
 20
233.2359550040695
 30
0.0
 40
2.5
  1
MODULE
 41
0.9
  7
T25
100
AcDbText
  0
LINE
  5
86C
330
1F
100
AcDbEntity
  8
TEXT25
100
AcDbLine
 10
317.4999995096582
 20
227.5000000291501
 30
0.0
 11
317.4999995096582
 21
237.5000000291501
 31
0.0
  0
TEXT
  5
86D
330
1F
100
AcDbEntity
  8
TEXT25
100
AcDbText
 10
308.7621080554604
 20
228.7359550040695
 30
0.0
 40
2.5
  1
S7
 41
0.9
  7
T25
100
AcDbText
  0
TEXT
  5
86E
330
1F
100
AcDbEntity
  8
TEXT25
100
AcDbText
 10
305.2621080554605
 20
233.2359550040695
 30
0.0
 40
2.5
  1
FRONT
 41
0.9
  7
T25
100
AcDbText
  0
LINE
  5
86F
330
1F
100
AcDbEntity
  8
TEXT25
100
AcDbLine
 10
345.4999995096582
 20
227.5000000291501
 30
0.0
 11
345.4999995096582
 21
242.5000000291501
 31
0.0
  0
LWPOLYLINE
  5
873
330
1F
100
AcDbEntity
  8
MITTA
100
AcDbPolyline
 90
        3
 70
     0
 43
0.0
 10
171.5
 20
230.5
 10
162.5
 20
230.5
 10
162.5
 20
239.5
  0
LWPOLYLINE
  5
874
330
1F
100
AcDbEntity
  8
MITTA
100
AcDbPolyline
 90
        2
 70
     1
 43
0.5
 10
162.25
 20
239.5
 42
1.0
 10
162.75
 20
239.5
 42
1.0
  0
LINE
  5
875
330
1F
100
AcDbEntity
  8
MITTA
100
AcDbLine
 10
171.500000906266
 20
216.5244177334985
 30
0.0
 11
152.9749283546717
 21
216.5244177334985
 31
0.0
  0
LINE
  5
876
330
1F
100
AcDbEntity
  8
MITTA
100
AcDbLine
 10
171.500000906266
 20
225.5244177334985
 30
0.0
 11
152.9749283546717
 21
225.5244177334985
 31
0.0
  0
LINE
  5
877
330
1F
100
AcDbEntity
  8
MITTA
100
AcDbLine
 10
171.500000906266
 20
221.5244177334985
 30
0.0
 11
152.9749283546717
 21
221.5244177334985
 31
0.0
  0
TEXT
  5
878
330
1F
100
AcDbEntity
  8
MITTA
100
AcDbText
 10
185.3865530296002
 20
213.2641778285002
 30
0.0
 40
2.5
  1
BIO2_7_BI4
 41
0.9
  7
T25
100
AcDbText
  0
TEXT
  5
879
330
1F
100
AcDbEntity
  8
MITTA
100
AcDbText
 10
185.3865530296002
 20
222.171294715714
 30
0.0
 40
2.5
  1
BIO2_7_BI3
 41
0.9
  7
T25
100
AcDbText
  0
LWPOLYLINE
  5
87A
330
1F
100
AcDbEntity
  8
MITTA
100
AcDbPolyline
 90
        3
 70
     0
 43
0.0
 10
171.5
 20
212.5
 10
162.5
 20
212.5
 10
162.5
 20
221.5
  0
LWPOLYLINE
  5
87B
330
1F
100
AcDbEntity
  8
MITTA
100
AcDbPolyline
 90
        3
 70
     1
 43
0.0
 10
175.500000906266
 20
214.7744177334985
 10
175.387928972245
 20
215.1926758853674
 10
175.0817427543971
 20
214.8864896675195
  0
LINE
  5
87C
330
1F
100
AcDbEntity
  8
MITTA
100
AcDbLine
 10
174.6161174297828
 20
215.6583012099816
 30
0.0
 11
175.500000906266
 21
214.7744177334985
 31
0.0
  0
HATCH
  5
87D
330
1F
100
AcDbEntity
  8
MITTA
100
AcDbHatch
 10
0.0
 20
0.0
 30
0.0
210
0.0
220
0.0
230
1.0
  2
SOLID
 70
     1
 71
     0
 91
        1
 92
        1
 93
        3
 72
     1
 10
184.25
 20
214.5
 11
181.7499999999999
 21
213.0
 72
     1
 10
181.7499999999999
 20
213.0
 11
181.7499999999999
 21
216.0
 72
     1
 10
181.7499999999999
 20
216.0
 11
184.25
 21
214.5
 97
        0
 75
     0
 76
     1
 98
        1
 10
426.25
 20
328.0
  0
LINE
  5
87E
330
1F
100
AcDbEntity
  8
MITTA
100
AcDbLine
 10
173.500000906266
 20
218.0244177334984
 30
0.0
 11
173.500000906266
 21
213.5244177334985
 31
0.0
  0
LWPOLYLINE
  5
87F
330
1F
100
AcDbEntity
  8
MITTA
100
AcDbPolyline
 90
        3
 70
     1
 43
0.0
 10
173.500000906266
 20
215.0244177334985
 10
174.6659232879021
 20
217.0438545361739
 10
172.3340785246299
 20
217.0438545361739
  0
LINE
  5
880
330
1F
100
AcDbEntity
  8
MITTA
100
AcDbLine
 10
171.5
 20
210.5
 30
0.0
 11
179.5
 21
218.5
 31
0.0
  0
LWPOLYLINE
  5
881
330
1F
100
AcDbEntity
  8
MITTA
100
AcDbPolyline
 90
        5
 70
     0
 43
0.0
 10
171.5
 20
210.5
 10
171.5
 20
218.5
 10
179.5
 20
218.5
 10
179.5
 20
210.5
 10
171.5
 20
210.5
  0
LINE
  5
882
330
1F
100
AcDbEntity
  8
MITTA
100
AcDbLine
 10
172.4902825049283
 20
215.0244177334985
 30
0.0
 11
174.5097193076037
 21
215.0244177334985
 31
0.0
  0
LINE
  5
883
330
1F
100
AcDbEntity
  8
MITTA
100
AcDbLine
 10
177.000000906266
 20
213.4765266048317
 30
0.0
 11
178.1554502651088
 21
214.6319759636746
 31
0.0
  0
LWPOLYLINE
  5
884
330
1F
100
AcDbEntity
  8
MITTA
100
AcDbPolyline
 90
        3
 70
     1
 43
0.0
 10
178.1554502651088
 20
211.4168595033224
 10
178.0433783310878
 20
211.8351176551913
 10
177.7371921132399
 20
211.5289314373434
  0
LINE
  5
885
330
1F
100
AcDbEntity
  8
MITTA
100
AcDbLine
 10
177.000000906266
 20
212.5723088621652
 30
0.0
 11
178.1554502651088
 21
211.4168595033224
 31
0.0
  0
LINE
  5
886
330
1F
100
AcDbEntity
  8
MITTA
100
AcDbLine
 10
177.000000906266
 20
214.0244177334984
 30
0.0
 11
177.000000906266
 21
212.0244177334984
 31
0.0
  0
LINE
  5
887
330
1F
100
AcDbEntity
  8
MITTA
100
AcDbLine
 10
179.5
 20
214.5
 30
0.0
 11
184.0
 21
214.5
 31
0.0
  0
LWPOLYLINE
  5
888
330
1F
100
AcDbEntity
  8
MITTA
100
AcDbPolyline
 90
        2
 70
     1
 43
0.5
 10
162.25
 20
221.5
 42
1.0
 10
162.75
 20
221.5
 42
1.0
  0
LINE
  5
889
330
1F
100
AcDbEntity
  8
MITTA
100
AcDbLine
 10
171.5
 20
219.5
 30
0.0
 11
179.5
 21
227.5
 31
0.0
  0
LINE
  5
88A
330
1F
100
AcDbEntity
  8
MITTA
100
AcDbLine
 10
173.500000906266
 20
227.0244177334985
 30
0.0
 11
173.500000906266
 21
222.5244177334985
 31
0.0
  0
LWPOLYLINE
  5
88B
330
1F
100
AcDbEntity
  8
MITTA
100
AcDbPolyline
 90
        5
 70
     0
 43
0.0
 10
171.5
 20
219.5
 10
171.5
 20
227.5
 10
179.5
 20
227.5
 10
179.5
 20
219.5
 10
171.5
 20
219.5
  0
LINE
  5
88C
330
1F
100
AcDbEntity
  8
MITTA
100
AcDbLine
 10
177.000000906266
 20
221.5723088621651
 30
0.0
 11
178.1554502651088
 21
220.4168595033224
 31
0.0
  0
LWPOLYLINE
  5
88D
330
1F
100
AcDbEntity
  8
MITTA
100
AcDbPolyline
 90
        3
 70
     1
 43
0.0
 10
176.250000906266
 20
215.5244177334985
 10
176.137928972245
 20
215.9426758853673
 10
175.8317427543971
 20
215.6364896675195
  0
LINE
  5
88E
330
1F
100
AcDbEntity
  8
MITTA
100
AcDbLine
 10
175.3661174297828
 20
216.4083012099816
 30
0.0
 11
176.250000906266
 21
215.5244177334985
 31
0.0
  0
LWPOLYLINE
  5
88F
330
1F
100
AcDbEntity
  8
MITTA
100
AcDbPolyline
 90
        3
 70
     1
 43
0.0
 10
178.1554502651088
 20
220.4168595033224
 10
178.0433783310878
 20
220.8351176551913
 10
177.7371921132399
 20
220.5289314373434
  0
LINE
  5
890
330
1F
100
AcDbEntity
  8
MITTA
100
AcDbLine
 10
172.4902825049283
 20
224.0244177334985
 30
0.0
 11
174.5097193076037
 21
224.0244177334985
 31
0.0
  0
LWPOLYLINE
  5
891
330
1F
100
AcDbEntity
  8
MITTA
100
AcDbPolyline
 90
        3
 70
     1
 43
0.0
 10
173.500000906266
 20
224.0244177334985
 10
174.6659232879021
 20
226.0438545361739
 10
172.3340785246299
 20
226.0438545361739
  0
LWPOLYLINE
  5
892
330
1F
100
AcDbEntity
  8
MITTA
100
AcDbPolyline
 90
        3
 70
     1
 43
0.0
 10
176.250000906266
 20
224.5244177334985
 10
176.137928972245
 20
224.9426758853673
 10
175.8317427543971
 20
224.6364896675195
  0
LINE
  5
893
330
1F
100
AcDbEntity
  8
MITTA
100
AcDbLine
 10
175.3661174297828
 20
225.4083012099816
 30
0.0
 11
176.250000906266
 21
224.5244177334985
 31
0.0
  0
LINE
  5
894
330
1F
100
AcDbEntity
  8
MITTA
100
AcDbLine
 10
177.000000906266
 20
222.4765266048318
 30
0.0
 11
178.1554502651088
 21
223.6319759636746
 31
0.0
  0
LWPOLYLINE
  5
895
330
1F
100
AcDbEntity
  8
MITTA
100
AcDbPolyline
 90
        3
 70
     1
 43
0.0
 10
175.500000906266
 20
223.7744177334985
 10
175.387928972245
 20
224.1926758853673
 10
175.0817427543971
 20
223.8864896675195
  0
LINE
  5
896
330
1F
100
AcDbEntity
  8
MITTA
100
AcDbLine
 10
174.6161174297828
 20
224.6583012099816
 30
0.0
 11
175.500000906266
 21
223.7744177334985
 31
0.0
  0
LINE
  5
897
330
1F
100
AcDbEntity
  8
MITTA
100
AcDbLine
 10
177.000000906266
 20
223.0244177334985
 30
0.0
 11
177.000000906266
 21
221.0244177334985
 31
0.0
  0
LINE
  5
898
330
1F
100
AcDbEntity
  8
MITTA
100
AcDbLine
 10
179.5
 20
223.5
 30
0.0
 11
184.0
 21
223.5
 31
0.0
  0
HATCH
  5
899
330
1F
100
AcDbEntity
  8
MITTA
100
AcDbHatch
 10
0.0
 20
0.0
 30
0.0
210
0.0
220
0.0
230
1.0
  2
SOLID
 70
     1
 71
     0
 91
        1
 92
        1
 93
        3
 72
     1
 10
184.25
 20
223.5
 11
181.7499999999999
 21
222.0
 72
     1
 10
181.7499999999999
 20
222.0
 11
181.7499999999999
 21
225.0
 72
     1
 10
181.7499999999999
 20
225.0
 11
184.25
 21
223.5
 97
        0
 75
     0
 76
     1
 98
        1
 10
426.25
 20
337.0
  0
LINE
  5
89A
330
1F
100
AcDbEntity
  8
KATKO07
100
AcDbLine
 10
153.0
 20
216.5
 30
0.0
 11
113.0
 21
216.5
 31
0.0
  0
LINE
  5
89B
330
1F
100
AcDbEntity
  8
KATKO07
100
AcDbLine
 10
153.0
 20
221.5
 30
0.0
 11
113.0
 21
221.5
 31
0.0
  0
LINE
  5
89C
330
1F
100
AcDbEntity
  8
KATKO07
100
AcDbLine
 10
153.0
 20
225.5
 30
0.0
 11
113.0
 21
225.5
 31
0.0
  0
LINE
  5
89D
330
1F
100
AcDbEntity
  8
MITTA
100
AcDbLine
 10
171.500000906266
 20
198.5244177334984
 30
0.0
 11
152.9749283546717
 21
198.5244177334985
 31
0.0
  0
LINE
  5
89E
330
1F
100
AcDbEntity
  8
MITTA
100
AcDbLine
 10
171.500000906266
 20
207.5244177334985
 30
0.0
 11
152.9749283546717
 21
207.5244177334985
 31
0.0
  0
LINE
  5
89F
330
1F
100
AcDbEntity
  8
MITTA
100
AcDbLine
 10
171.500000906266
 20
203.5244177334984
 30
0.0
 11
152.9749283546717
 21
203.5244177334985
 31
0.0
  0
TEXT
  5
8A0
330
1F
100
AcDbEntity
  8
MITTA
100
AcDbText
 10
185.3865530296002
 20
195.2641778285002
 30
0.0
 40
2.5
  1
BIO2_7_BI6
 41
0.9
  7
T25
100
AcDbText
  0
TEXT
  5
8A1
330
1F
100
AcDbEntity
  8
MITTA
100
AcDbText
 10
185.3865530296002
 20
204.171294715714
 30
0.0
 40
2.5
  1
BIO2_7_BI5
 41
0.9
  7
T25
100
AcDbText
  0
LWPOLYLINE
  5
8A2
330
1F
100
AcDbEntity
  8
MITTA
100
AcDbPolyline
 90
        3
 70
     0
 43
0.0
 10
171.5
 20
194.5
 10
162.5
 20
194.5
 10
162.5
 20
203.5
  0
LWPOLYLINE
  5
8A3
330
1F
100
AcDbEntity
  8
MITTA
100
AcDbPolyline
 90
        3
 70
     1
 43
0.0
 10
175.500000906266
 20
196.7744177334984
 10
175.387928972245
 20
197.1926758853673
 10
175.0817427543971
 20
196.8864896675194
  0
LINE
  5
8A4
330
1F
100
AcDbEntity
  8
MITTA
100
AcDbLine
 10
174.6161174297828
 20
197.6583012099816
 30
0.0
 11
175.500000906266
 21
196.7744177334984
 31
0.0
  0
HATCH
  5
8A5
330
1F
100
AcDbEntity
  8
MITTA
100
AcDbHatch
 10
0.0
 20
0.0
 30
0.0
210
0.0
220
0.0
230
1.0
  2
SOLID
 70
     1
 71
     0
 91
        1
 92
        1
 93
        3
 72
     1
 10
184.25
 20
196.5
 11
181.7499999999999
 21
195.0
 72
     1
 10
181.7499999999999
 20
195.0
 11
181.7499999999999
 21
198.0
 72
     1
 10
181.7499999999999
 20
198.0
 11
184.25
 21
196.5
 97
        0
 75
     0
 76
     1
 98
        1
 10
426.25
 20
310.0
  0
LINE
  5
8A6
330
1F
100
AcDbEntity
  8
MITTA
100
AcDbLine
 10
173.500000906266
 20
200.0244177334985
 30
0.0
 11
173.500000906266
 21
195.5244177334984
 31
0.0
  0
LWPOLYLINE
  5
8A7
330
1F
100
AcDbEntity
  8
MITTA
100
AcDbPolyline
 90
        3
 70
     1
 43
0.0
 10
173.500000906266
 20
197.0244177334985
 10
174.6659232879021
 20
199.0438545361739
 10
172.3340785246299
 20
199.0438545361739
  0
LINE
  5
8A8
330
1F
100
AcDbEntity
  8
MITTA
100
AcDbLine
 10
171.5
 20
192.5
 30
0.0
 11
179.5
 21
200.5
 31
0.0
  0
LWPOLYLINE
  5
8A9
330
1F
100
AcDbEntity
  8
MITTA
100
AcDbPolyline
 90
        5
 70
     0
 43
0.0
 10
171.5
 20
192.5
 10
171.5
 20
200.5
 10
179.5
 20
200.5
 10
179.5
 20
192.5
 10
171.5
 20
192.5
  0
LINE
  5
8AA
330
1F
100
AcDbEntity
  8
MITTA
100
AcDbLine
 10
172.4902825049283
 20
197.0244177334985
 30
0.0
 11
174.5097193076037
 21
197.0244177334985
 31
0.0
  0
LINE
  5
8AB
330
1F
100
AcDbEntity
  8
MITTA
100
AcDbLine
 10
177.000000906266
 20
195.4765266048317
 30
0.0
 11
178.1554502651088
 21
196.6319759636745
 31
0.0
  0
LWPOLYLINE
  5
8AC
330
1F
100
AcDbEntity
  8
MITTA
100
AcDbPolyline
 90
        3
 70
     1
 43
0.0
 10
178.1554502651088
 20
193.4168595033223
 10
178.0433783310878
 20
193.8351176551912
 10
177.7371921132399
 20
193.5289314373433
  0
LINE
  5
8AD
330
1F
100
AcDbEntity
  8
MITTA
100
AcDbLine
 10
177.000000906266
 20
194.5723088621651
 30
0.0
 11
178.1554502651088
 21
193.4168595033223
 31
0.0
  0
LINE
  5
8AE
330
1F
100
AcDbEntity
  8
MITTA
100
AcDbLine
 10
177.000000906266
 20
196.0244177334985
 30
0.0
 11
177.000000906266
 21
194.0244177334984
 31
0.0
  0
LINE
  5
8AF
330
1F
100
AcDbEntity
  8
MITTA
100
AcDbLine
 10
179.5
 20
196.5
 30
0.0
 11
184.0
 21
196.5
 31
0.0
  0
LWPOLYLINE
  5
8B0
330
1F
100
AcDbEntity
  8
MITTA
100
AcDbPolyline
 90
        2
 70
     1
 43
0.5
 10
162.25
 20
203.5
 42
1.0
 10
162.75
 20
203.5
 42
1.0
  0
LINE
  5
8B1
330
1F
100
AcDbEntity
  8
MITTA
100
AcDbLine
 10
171.5
 20
201.5
 30
0.0
 11
179.5
 21
209.5
 31
0.0
  0
LINE
  5
8B2
330
1F
100
AcDbEntity
  8
MITTA
100
AcDbLine
 10
173.500000906266
 20
209.0244177334985
 30
0.0
 11
173.500000906266
 21
204.5244177334985
 31
0.0
  0
LWPOLYLINE
  5
8B3
330
1F
100
AcDbEntity
  8
MITTA
100
AcDbPolyline
 90
        5
 70
     0
 43
0.0
 10
171.5
 20
201.5
 10
171.5
 20
209.5
 10
179.5
 20
209.5
 10
179.5
 20
201.5
 10
171.5
 20
201.5
  0
LINE
  5
8B4
330
1F
100
AcDbEntity
  8
MITTA
100
AcDbLine
 10
177.000000906266
 20
203.5723088621652
 30
0.0
 11
178.1554502651088
 21
202.4168595033223
 31
0.0
  0
LWPOLYLINE
  5
8B5
330
1F
100
AcDbEntity
  8
MITTA
100
AcDbPolyline
 90
        3
 70
     1
 43
0.0
 10
176.250000906266
 20
197.5244177334984
 10
176.137928972245
 20
197.9426758853673
 10
175.8317427543971
 20
197.6364896675194
  0
LINE
  5
8B6
330
1F
100
AcDbEntity
  8
MITTA
100
AcDbLine
 10
175.3661174297828
 20
198.4083012099816
 30
0.0
 11
176.250000906266
 21
197.5244177334984
 31
0.0
  0
LWPOLYLINE
  5
8B7
330
1F
100
AcDbEntity
  8
MITTA
100
AcDbPolyline
 90
        3
 70
     1
 43
0.0
 10
178.1554502651088
 20
202.4168595033223
 10
178.0433783310878
 20
202.8351176551912
 10
177.7371921132399
 20
202.5289314373434
  0
LINE
  5
8B8
330
1F
100
AcDbEntity
  8
MITTA
100
AcDbLine
 10
172.4902825049283
 20
206.0244177334985
 30
0.0
 11
174.5097193076037
 21
206.0244177334985
 31
0.0
  0
LWPOLYLINE
  5
8B9
330
1F
100
AcDbEntity
  8
MITTA
100
AcDbPolyline
 90
        3
 70
     1
 43
0.0
 10
173.500000906266
 20
206.0244177334985
 10
174.6659232879021
 20
208.0438545361739
 10
172.3340785246299
 20
208.0438545361739
  0
LWPOLYLINE
  5
8BA
330
1F
100
AcDbEntity
  8
MITTA
100
AcDbPolyline
 90
        3
 70
     1
 43
0.0
 10
176.250000906266
 20
206.5244177334985
 10
176.137928972245
 20
206.9426758853674
 10
175.8317427543971
 20
206.6364896675195
  0
LINE
  5
8BB
330
1F
100
AcDbEntity
  8
MITTA
100
AcDbLine
 10
175.3661174297828
 20
207.4083012099816
 30
0.0
 11
176.250000906266
 21
206.5244177334985
 31
0.0
  0
LINE
  5
8BC
330
1F
100
AcDbEntity
  8
MITTA
100
AcDbLine
 10
177.000000906266
 20
204.4765266048317
 30
0.0
 11
178.1554502651088
 21
205.6319759636746
 31
0.0
  0
LWPOLYLINE
  5
8BD
330
1F
100
AcDbEntity
  8
MITTA
100
AcDbPolyline
 90
        3
 70
     1
 43
0.0
 10
175.500000906266
 20
205.7744177334984
 10
175.387928972245
 20
206.1926758853673
 10
175.0817427543971
 20
205.8864896675195
  0
LINE
  5
8BE
330
1F
100
AcDbEntity
  8
MITTA
100
AcDbLine
 10
174.6161174297828
 20
206.6583012099816
 30
0.0
 11
175.500000906266
 21
205.7744177334984
 31
0.0
  0
LINE
  5
8BF
330
1F
100
AcDbEntity
  8
MITTA
100
AcDbLine
 10
177.000000906266
 20
205.0244177334985
 30
0.0
 11
177.000000906266
 21
203.0244177334985
 31
0.0
  0
LINE
  5
8C0
330
1F
100
AcDbEntity
  8
MITTA
100
AcDbLine
 10
179.5
 20
205.5
 30
0.0
 11
184.0
 21
205.5
 31
0.0
  0
HATCH
  5
8C1
330
1F
100
AcDbEntity
  8
MITTA
100
AcDbHatch
 10
0.0
 20
0.0
 30
0.0
210
0.0
220
0.0
230
1.0
  2
SOLID
 70
     1
 71
     0
 91
        1
 92
        1
 93
        3
 72
     1
 10
184.25
 20
205.5
 11
181.7499999999999
 21
204.0
 72
     1
 10
181.7499999999999
 20
204.0
 11
181.7499999999999
 21
207.0
 72
     1
 10
181.7499999999999
 20
207.0
 11
184.25
 21
205.5
 97
        0
 75
     0
 76
     1
 98
        1
 10
426.25
 20
319.0
  0
LINE
  5
8C2
330
1F
100
AcDbEntity
  8
KATKO07
100
AcDbLine
 10
153.0
 20
198.5
 30
0.0
 11
113.0
 21
198.5
 31
0.0
  0
LINE
  5
8C3
330
1F
100
AcDbEntity
  8
KATKO07
100
AcDbLine
 10
153.0
 20
203.5
 30
0.0
 11
113.0
 21
203.5
 31
0.0
  0
LINE
  5
8C4
330
1F
100
AcDbEntity
  8
KATKO07
100
AcDbLine
 10
153.0
 20
207.5
 30
0.0
 11
113.0
 21
207.5
 31
0.0
  0
LINE
  5
8C5
330
1F
100
AcDbEntity
  8
MITTA
100
AcDbLine
 10
171.500000906266
 20
180.5244177334984
 30
0.0
 11
152.9749283546717
 21
180.5244177334985
 31
0.0
  0
LINE
  5
8C6
330
1F
100
AcDbEntity
  8
MITTA
100
AcDbLine
 10
171.500000906266
 20
189.5244177334984
 30
0.0
 11
152.9749283546717
 21
189.5244177334985
 31
0.0
  0
LINE
  5
8C7
330
1F
100
AcDbEntity
  8
MITTA
100
AcDbLine
 10
171.500000906266
 20
185.5244177334984
 30
0.0
 11
152.9749283546717
 21
185.5244177334985
 31
0.0
  0
TEXT
  5
8C8
330
1F
100
AcDbEntity
  8
MITTA
100
AcDbText
 10
185.3865530296002
 20
177.2641778285002
 30
0.0
 40
2.5
  1
BIO2_7_BI8
 41
0.9
  7
T25
100
AcDbText
  0
TEXT
  5
8C9
330
1F
100
AcDbEntity
  8
MITTA
100
AcDbText
 10
185.3865530296002
 20
186.171294715714
 30
0.0
 40
2.5
  1
BIO2_7_BI7
 41
0.9
  7
T25
100
AcDbText
  0
LWPOLYLINE
  5
8CA
330
1F
100
AcDbEntity
  8
MITTA
100
AcDbPolyline
 90
        3
 70
     0
 43
0.0
 10
171.5
 20
176.5
 10
162.5
 20
176.5
 10
162.5
 20
185.5
  0
LWPOLYLINE
  5
8CB
330
1F
100
AcDbEntity
  8
MITTA
100
AcDbPolyline
 90
        3
 70
     1
 43
0.0
 10
175.500000906266
 20
178.7744177334984
 10
175.387928972245
 20
179.1926758853673
 10
175.0817427543971
 20
178.8864896675194
  0
LINE
  5
8CC
330
1F
100
AcDbEntity
  8
MITTA
100
AcDbLine
 10
174.6161174297828
 20
179.6583012099816
 30
0.0
 11
175.500000906266
 21
178.7744177334984
 31
0.0
  0
HATCH
  5
8CD
330
1F
100
AcDbEntity
  8
MITTA
100
AcDbHatch
 10
0.0
 20
0.0
 30
0.0
210
0.0
220
0.0
230
1.0
  2
SOLID
 70
     1
 71
     0
 91
        1
 92
        1
 93
        3
 72
     1
 10
184.25
 20
178.5
 11
181.7499999999999
 21
177.0
 72
     1
 10
181.7499999999999
 20
177.0
 11
181.7499999999999
 21
180.0
 72
     1
 10
181.7499999999999
 20
180.0
 11
184.25
 21
178.5
 97
        0
 75
     0
 76
     1
 98
        1
 10
426.25
 20
292.0
  0
LINE
  5
8CE
330
1F
100
AcDbEntity
  8
MITTA
100
AcDbLine
 10
173.500000906266
 20
182.0244177334984
 30
0.0
 11
173.500000906266
 21
177.5244177334984
 31
0.0
  0
LWPOLYLINE
  5
8CF
330
1F
100
AcDbEntity
  8
MITTA
100
AcDbPolyline
 90
        3
 70
     1
 43
0.0
 10
173.500000906266
 20
179.0244177334984
 10
174.6659232879021
 20
181.0438545361739
 10
172.3340785246299
 20
181.0438545361739
  0
LINE
  5
8D0
330
1F
100
AcDbEntity
  8
MITTA
100
AcDbLine
 10
171.5
 20
174.5
 30
0.0
 11
179.5
 21
182.5
 31
0.0
  0
LWPOLYLINE
  5
8D1
330
1F
100
AcDbEntity
  8
MITTA
100
AcDbPolyline
 90
        5
 70
     0
 43
0.0
 10
171.5
 20
174.5
 10
171.5
 20
182.5
 10
179.5
 20
182.5
 10
179.5
 20
174.5
 10
171.5
 20
174.5
  0
LINE
  5
8D2
330
1F
100
AcDbEntity
  8
MITTA
100
AcDbLine
 10
172.4902825049283
 20
179.0244177334984
 30
0.0
 11
174.5097193076037
 21
179.0244177334984
 31
0.0
  0
LINE
  5
8D3
330
1F
100
AcDbEntity
  8
MITTA
100
AcDbLine
 10
177.000000906266
 20
177.4765266048317
 30
0.0
 11
178.1554502651088
 21
178.6319759636745
 31
0.0
  0
LWPOLYLINE
  5
8D4
330
1F
100
AcDbEntity
  8
MITTA
100
AcDbPolyline
 90
        3
 70
     1
 43
0.0
 10
178.1554502651088
 20
175.4168595033223
 10
178.0433783310878
 20
175.8351176551912
 10
177.7371921132399
 20
175.5289314373434
  0
LINE
  5
8D5
330
1F
100
AcDbEntity
  8
MITTA
100
AcDbLine
 10
177.000000906266
 20
176.5723088621651
 30
0.0
 11
178.1554502651088
 21
175.4168595033223
 31
0.0
  0
LINE
  5
8D6
330
1F
100
AcDbEntity
  8
MITTA
100
AcDbLine
 10
177.000000906266
 20
178.0244177334984
 30
0.0
 11
177.000000906266
 21
176.0244177334984
 31
0.0
  0
LINE
  5
8D7
330
1F
100
AcDbEntity
  8
MITTA
100
AcDbLine
 10
179.5
 20
178.5
 30
0.0
 11
184.0
 21
178.5
 31
0.0
  0
LWPOLYLINE
  5
8D8
330
1F
100
AcDbEntity
  8
MITTA
100
AcDbPolyline
 90
        2
 70
     1
 43
0.5
 10
162.25
 20
185.5
 42
1.0
 10
162.75
 20
185.5
 42
1.0
  0
LINE
  5
8D9
330
1F
100
AcDbEntity
  8
MITTA
100
AcDbLine
 10
171.5
 20
183.5
 30
0.0
 11
179.5
 21
191.5
 31
0.0
  0
LINE
  5
8DA
330
1F
100
AcDbEntity
  8
MITTA
100
AcDbLine
 10
173.500000906266
 20
191.0244177334984
 30
0.0
 11
173.500000906266
 21
186.5244177334984
 31
0.0
  0
LWPOLYLINE
  5
8DB
330
1F
100
AcDbEntity
  8
MITTA
100
AcDbPolyline
 90
        5
 70
     0
 43
0.0
 10
171.5
 20
183.5
 10
171.5
 20
191.5
 10
179.5
 20
191.5
 10
179.5
 20
183.5
 10
171.5
 20
183.5
  0
LINE
  5
8DC
330
1F
100
AcDbEntity
  8
MITTA
100
AcDbLine
 10
177.000000906266
 20
185.5723088621651
 30
0.0
 11
178.1554502651088
 21
184.4168595033224
 31
0.0
  0
LWPOLYLINE
  5
8DD
330
1F
100
AcDbEntity
  8
MITTA
100
AcDbPolyline
 90
        3
 70
     1
 43
0.0
 10
176.250000906266
 20
179.5244177334985
 10
176.137928972245
 20
179.9426758853673
 10
175.8317427543971
 20
179.6364896675195
  0
LINE
  5
8DE
330
1F
100
AcDbEntity
  8
MITTA
100
AcDbLine
 10
175.3661174297828
 20
180.4083012099816
 30
0.0
 11
176.250000906266
 21
179.5244177334985
 31
0.0
  0
LWPOLYLINE
  5
8DF
330
1F
100
AcDbEntity
  8
MITTA
100
AcDbPolyline
 90
        3
 70
     1
 43
0.0
 10
178.1554502651088
 20
184.4168595033224
 10
178.0433783310878
 20
184.8351176551912
 10
177.7371921132399
 20
184.5289314373433
  0
LINE
  5
8E0
330
1F
100
AcDbEntity
  8
MITTA
100
AcDbLine
 10
172.4902825049283
 20
188.0244177334984
 30
0.0
 11
174.5097193076037
 21
188.0244177334984
 31
0.0
  0
LWPOLYLINE
  5
8E1
330
1F
100
AcDbEntity
  8
MITTA
100
AcDbPolyline
 90
        3
 70
     1
 43
0.0
 10
173.500000906266
 20
188.0244177334984
 10
174.6659232879021
 20
190.0438545361739
 10
172.3340785246299
 20
190.0438545361739
  0
LWPOLYLINE
  5
8E2
330
1F
100
AcDbEntity
  8
MITTA
100
AcDbPolyline
 90
        3
 70
     1
 43
0.0
 10
176.250000906266
 20
188.5244177334984
 10
176.137928972245
 20
188.9426758853673
 10
175.8317427543971
 20
188.6364896675194
  0
LINE
  5
8E3
330
1F
100
AcDbEntity
  8
MITTA
100
AcDbLine
 10
175.3661174297828
 20
189.4083012099816
 30
0.0
 11
176.250000906266
 21
188.5244177334984
 31
0.0
  0
LINE
  5
8E4
330
1F
100
AcDbEntity
  8
MITTA
100
AcDbLine
 10
177.000000906266
 20
186.4765266048317
 30
0.0
 11
178.1554502651088
 21
187.6319759636745
 31
0.0
  0
LWPOLYLINE
  5
8E5
330
1F
100
AcDbEntity
  8
MITTA
100
AcDbPolyline
 90
        3
 70
     1
 43
0.0
 10
175.500000906266
 20
187.7744177334984
 10
175.387928972245
 20
188.1926758853673
 10
175.0817427543971
 20
187.8864896675194
  0
LINE
  5
8E6
330
1F
100
AcDbEntity
  8
MITTA
100
AcDbLine
 10
174.6161174297828
 20
188.6583012099816
 30
0.0
 11
175.500000906266
 21
187.7744177334984
 31
0.0
  0
LINE
  5
8E7
330
1F
100
AcDbEntity
  8
MITTA
100
AcDbLine
 10
177.000000906266
 20
187.0244177334985
 30
0.0
 11
177.000000906266
 21
185.0244177334984
 31
0.0
  0
LINE
  5
8E8
330
1F
100
AcDbEntity
  8
MITTA
100
AcDbLine
 10
179.5
 20
187.5
 30
0.0
 11
184.0
 21
187.5
 31
0.0
  0
HATCH
  5
8E9
330
1F
100
AcDbEntity
  8
MITTA
100
AcDbHatch
 10
0.0
 20
0.0
 30
0.0
210
0.0
220
0.0
230
1.0
  2
SOLID
 70
     1
 71
     0
 91
        1
 92
        1
 93
        3
 72
     1
 10
184.25
 20
187.5
 11
181.7499999999999
 21
186.0
 72
     1
 10
181.7499999999999
 20
186.0
 11
181.7499999999999
 21
189.0
 72
     1
 10
181.7499999999999
 20
189.0
 11
184.25
 21
187.5
 97
        0
 75
     0
 76
     1
 98
        1
 10
426.25
 20
301.0
  0
LINE
  5
8EA
330
1F
100
AcDbEntity
  8
KATKO07
100
AcDbLine
 10
153.0
 20
180.5
 30
0.0
 11
113.0
 21
180.5
 31
0.0
  0
LINE
  5
8EB
330
1F
100
AcDbEntity
  8
KATKO07
100
AcDbLine
 10
153.0
 20
185.5
 30
0.0
 11
113.0
 21
185.5
 31
0.0
  0
LINE
  5
8EC
330
1F
100
AcDbEntity
  8
KATKO07
100
AcDbLine
 10
153.0
 20
189.5
 30
0.0
 11
113.0
 21
189.5
 31
0.0
  0
LINE
  5
8ED
330
1F
100
AcDbEntity
  8
MITTA
100
AcDbLine
 10
171.500000906266
 20
162.5244177334984
 30
0.0
 11
152.9749283546717
 21
162.5244177334985
 31
0.0
  0
LINE
  5
8EE
330
1F
100
AcDbEntity
  8
MITTA
100
AcDbLine
 10
171.500000906266
 20
158.5244177334985
 30
0.0
 11
152.9749283546717
 21
158.5244177334985
 31
0.0
  0
LINE
  5
8EF
330
1F
100
AcDbEntity
  8
KATKO07
100
AcDbLine
 10
153.0
 20
158.5
 30
0.0
 11
113.0
 21
158.5
 31
0.0
  0
LINE
  5
8F0
330
1F
100
AcDbEntity
  8
KATKO07
100
AcDbLine
 10
153.0
 20
162.5
 30
0.0
 11
113.0
 21
162.5
 31
0.0
  0
TEXT
  5
8F1
330
1F
100
AcDbEntity
  8
MITTA
100
AcDbText
 10
185.3865530296002
 20
159.0768228528418
 30
0.0
 40
2.5
  1
BIO2_7_BI10
 41
0.9
  7
T25
100
AcDbText
  0
TEXT
  5
8F2
330
1F
100
AcDbEntity
  8
MITTA
100
AcDbText
 10
154.0
 20
159.1794590258695
 30
0.0
 40
2.5
  1
16
 41
0.9
  7
T25
100
AcDbText
  0
LINE
  5
8F3
330
1F
100
AcDbEntity
  8
MITTA
100
AcDbLine
 10
171.5
 20
156.5
 30
0.0
 11
179.5
 21
164.5
 31
0.0
  0
LWPOLYLINE
  5
8F4
330
1F
100
AcDbEntity
  8
MITTA
100
AcDbPolyline
 90
        5
 70
     0
 43
0.0
 10
171.5
 20
156.5
 10
171.5
 20
164.5
 10
179.5
 20
164.5
 10
179.5
 20
156.5
 10
171.5
 20
156.5
  0
LINE
  5
8F5
330
1F
100
AcDbEntity
  8
MITTA
100
AcDbLine
 10
177.000000906266
 20
159.4765266048317
 30
0.0
 11
178.1554502651088
 21
160.6319759636745
 31
0.0
  0
LINE
  5
8F6
330
1F
100
AcDbEntity
  8
MITTA
100
AcDbLine
 10
173.500000906266
 20
164.0244177334984
 30
0.0
 11
173.500000906266
 21
159.5244177334985
 31
0.0
  0
LINE
  5
8F7
330
1F
100
AcDbEntity
  8
MITTA
100
AcDbLine
 10
177.000000906266
 20
160.0244177334984
 30
0.0
 11
177.000000906266
 21
158.0244177334984
 31
0.0
  0
LINE
  5
8F8
330
1F
100
AcDbEntity
  8
MITTA
100
AcDbLine
 10
177.000000906266
 20
158.5723088621651
 30
0.0
 11
178.1554502651088
 21
157.4168595033223
 31
0.0
  0
LWPOLYLINE
  5
8F9
330
1F
100
AcDbEntity
  8
MITTA
100
AcDbPolyline
 90
        3
 70
     1
 43
0.0
 10
178.1554502651088
 20
157.4168595033223
 10
178.0433783310878
 20
157.8351176551912
 10
177.7371921132399
 20
157.5289314373433
  0
LINE
  5
8FA
330
1F
100
AcDbEntity
  8
MITTA
100
AcDbLine
 10
172.4902825049283
 20
161.0244177334984
 30
0.0
 11
174.5097193076037
 21
161.0244177334984
 31
0.0
  0
LWPOLYLINE
  5
8FB
330
1F
100
AcDbEntity
  8
MITTA
100
AcDbPolyline
 90
        3
 70
     1
 43
0.0
 10
173.500000906266
 20
161.0244177334984
 10
174.6659232879021
 20
163.0438545361739
 10
172.3340785246299
 20
163.0438545361739
  0
LWPOLYLINE
  5
8FC
330
1F
100
AcDbEntity
  8
MITTA
100
AcDbPolyline
 90
        3
 70
     1
 43
0.0
 10
175.500000906266
 20
160.7744177334985
 10
175.387928972245
 20
161.1926758853673
 10
175.0817427543971
 20
160.8864896675195
  0
LINE
  5
8FD
330
1F
100
AcDbEntity
  8
MITTA
100
AcDbLine
 10
174.6161174297828
 20
161.6583012099816
 30
0.0
 11
175.500000906266
 21
160.7744177334985
 31
0.0
  0
LWPOLYLINE
  5
8FE
330
1F
100
AcDbEntity
  8
MITTA
100
AcDbPolyline
 90
        3
 70
     1
 43
0.0
 10
176.250000906266
 20
161.5244177334984
 10
176.137928972245
 20
161.9426758853673
 10
175.8317427543971
 20
161.6364896675194
  0
LINE
  5
8FF
330
1F
100
AcDbEntity
  8
MITTA
100
AcDbLine
 10
175.3661174297828
 20
162.4083012099816
 30
0.0
 11
176.250000906266
 21
161.5244177334984
 31
0.0
  0
HATCH
  5
900
330
1F
100
AcDbEntity
  8
MITTA
100
AcDbHatch
 10
0.0
 20
0.0
 30
0.0
210
0.0
220
0.0
230
1.0
  2
SOLID
 70
     1
 71
     0
 91
        1
 92
        1
 93
        3
 72
     1
 10
184.25
 20
160.5
 11
181.7499999999999
 21
159.0
 72
     1
 10
181.7499999999999
 20
159.0
 11
181.7499999999999
 21
162.0
 72
     1
 10
181.7499999999999
 20
162.0
 11
184.25
 21
160.5
 97
        0
 75
     0
 76
     1
 98
        1
 10
426.25
 20
274.0
  0
LINE
  5
901
330
1F
100
AcDbEntity
  8
MITTA
100
AcDbLine
 10
179.5
 20
160.5
 30
0.0
 11
184.0
 21
160.5
 31
0.0
  0
TEXT
  5
902
330
1F
100
AcDbEntity
  8
MITTA
100
AcDbText
 10
154.0
 20
163.1794590258695
 30
0.0
 40
2.5
  1
15
 41
0.9
  7
T25
100
AcDbText
  0
TEXT
  5
92F
330
1F
100
AcDbEntity
  8
MITTA
100
AcDbText
 10
155.0
 20
225.8844975661952
 30
0.0
 40
2.5
  1
4
 41
0.9
  7
T25
100
AcDbText
  0
TEXT
  5
930
330
1F
100
AcDbEntity
  8
MITTA
100
AcDbText
 10
155.0
 20
216.8844975661953
 30
0.0
 40
2.5
  1
6
 41
0.9
  7
T25
100
AcDbText
  0
TEXT
  5
931
330
1F
100
AcDbEntity
  8
MITTA
100
AcDbText
 10
155.0
 20
221.8844975661952
 30
0.0
 40
2.5
  1
5
 41
0.9
  7
T25
100
AcDbText
  0
TEXT
  5
932
330
1F
100
AcDbEntity
  8
MITTA
100
AcDbText
 10
155.0
 20
207.8844975661953
 30
0.0
 40
2.5
  1
7
 41
0.9
  7
T25
100
AcDbText
  0
TEXT
  5
933
330
1F
100
AcDbEntity
  8
MITTA
100
AcDbText
 10
155.0
 20
198.8844975661952
 30
0.0
 40
2.5
  1
9
 41
0.9
  7
T25
100
AcDbText
  0
TEXT
  5
934
330
1F
100
AcDbEntity
  8
MITTA
100
AcDbText
 10
155.0
 20
203.8844975661953
 30
0.0
 40
2.5
  1
8
 41
0.9
  7
T25
100
AcDbText
  0
TEXT
  5
935
330
1F
100
AcDbEntity
  8
MITTA
100
AcDbText
 10
154.0
 20
189.8844975661952
 30
0.0
 40
2.5
  1
10
 41
0.9
  7
T25
100
AcDbText
  0
TEXT
  5
936
330
1F
100
AcDbEntity
  8
MITTA
100
AcDbText
 10
154.0
 20
180.8844975661952
 30
0.0
 40
2.5
  1
12
 41
0.9
  7
T25
100
AcDbText
  0
TEXT
  5
937
330
1F
100
AcDbEntity
  8
MITTA
100
AcDbText
 10
154.0
 20
185.8844975661952
 30
0.0
 40
2.5
  1
11
 41
0.9
  7
T25
100
AcDbText
  0
TEXT
  5
938
330
1F
100
AcDbEntity
  8
MITTA
100
AcDbText
 10
154.1000329835924
 20
131.3204169451767
 30
0.0
 40
2.5
  1
X7.2
 41
0.9
  7
T25
100
AcDbText
  0
LINE
  5
983
330
1F
100
AcDbEntity
  8
TEXT25
100
AcDbLine
 10
286.9999995096582
 20
227.5000000291501
 30
0.0
 11
286.9999995096582
 21
242.5000000291501
 31
0.0
  0
LWPOLYLINE
  5
9A8
330
1F
100
AcDbEntity
  8
MITTA
100
AcDbPolyline
 90
        4
 70
     0
 43
0.0
 10
153.0000000939186
 20
146.5000002172227
 10
168.0250717392469
 20
146.5000002172227
 10
168.0250717392469
 20
148.0000002172227
 10
165.5250717392468
 20
151.5000002172227
  0
LWPOLYLINE
  5
9A9
330
1F
100
AcDbEntity
  8
MITTA
100
AcDbPolyline
 90
        4
 70
     0
 43
0.0
 10
153.0000000939186
 20
138.5000002172227
 10
176.0250717392468
 20
138.5000002172227
 10
176.0250717392468
 20
148.0000002172227
 10
173.5250717392468
 20
151.5000002172227
  0
LWPOLYLINE
  5
9AA
330
1F
100
AcDbEntity
  8
MITTA
100
AcDbPolyline
 90
        3
 70
     0
 43
0.0
 10
185.0250717392468
 20
147.5000002172227
 10
185.0250717392468
 20
142.5000002172227
 10
193.0250717392469
 20
142.5000002172227
  0
LWPOLYLINE
  5
9AB
330
1F
100
AcDbEntity
  8
MITTA
100
AcDbPolyline
 90
        5
 70
     0
 43
0.0
 10
181.5250717392468
 20
147.5000002172227
 10
181.5250717392468
 20
152.5000002172227
 10
188.5250717392468
 20
152.5000002172227
 10
188.5250717392468
 20
147.5000002172227
 10
181.5250717392468
 20
147.5000002172227
  0
LWPOLYLINE
  5
9AC
330
1F
100
AcDbEntity
  8
MITTA
100
AcDbPolyline
 90
        2
 70
     0
 43
0.0
 10
181.5250717392468
 20
147.5000002172227
 10
188.5250717392468
 20
152.5000002172227
  0
TEXT
  5
9AD
330
1F
100
AcDbEntity
  8
MITTA
100
AcDbText
 10
153.6395306782919
 20
139.2384772536772
 30
0.0
 40
2.5
  1
18
 41
0.9
  7
T25
100
AcDbText
  0
LWPOLYLINE
  5
9AE
330
1F
100
AcDbEntity
  8
MITTA
100
AcDbPolyline
 90
        4
 70
     0
 43
0.0
 10
176.0250717392468
 20
151.5000002172227
 10
176.0250717392468
 20
153.5000002172227
 10
168.0250717392469
 20
153.5000002172227
 10
168.0250717392469
 20
151.5000002172227
  0
LINE
  5
9AF
330
1F
100
AcDbEntity
  8
MITTA
100
AcDbLine
 10
181.5250717392468
 20
150.0000002172227
 30
0.0
 11
167.0250717392469
 21
150.0000002172227
 31
0.0
  0
TEXT
  5
9B0
330
1F
100
AcDbEntity
  8
MITTA
100
AcDbText
 10
153.6395306782919
 20
146.9642892406403
 30
0.0
 40
2.5
  1
17
 41
0.9
  7
T25
100
AcDbText
  0
TEXT
  5
9B1
330
1F
100
AcDbEntity
  8
MITTA
100
AcDbText
 10
194.5198662544121
 20
141.2025973811938
 30
0.0
 40
2.5
  1
BIO2_7_PO1
 41
0.9
  7
T25
100
AcDbText
  0
LWPOLYLINE
  5
9B2
330
1F
100
AcDbEntity
  8
MITTA
100
AcDbPolyline
 90
        4
 70
     0
 43
0.0
 10
189.5250717392468
 20
142.5000002172227
 10
192.0250717392469
 20
144.0000002172227
 10
192.0250717392469
 20
141.0000002172227
 10
189.5250717392468
 20
142.5000002172227
  0
HATCH
  5
9B3
330
1F
100
AcDbEntity
  8
MITTA
100
AcDbHatch
 10
0.0
 20
0.0
 30
0.0
210
0.0
220
0.0
230
1.0
  2
SOLID
 70
     1
 71
     0
 91
        1
 92
        1
 93
        3
 72
     1
 10
189.5250717392468
 20
142.5000002172227
 11
192.0250717392469
 21
144.0000002172227
 72
     1
 10
192.0250717392469
 20
144.0000002172227
 11
192.0250717392469
 21
141.0000002172227
 72
     1
 10
192.0250717392469
 20
141.0000002172227
 11
189.5250717392468
 21
142.5000002172227
 97
        0
 75
     0
 76
     1
 98
        1
 10
-52.47492826075313
 20
29.00000021722269
  0
LINE
  5
9B5
330
1F
100
AcDbEntity
  8
MITTA
100
AcDbLine
 10
181.5250717392468
 20
130.0000002172227
 30
0.0
 11
167.0250717392469
 21
130.0000002172227
 31
0.0
  0
LWPOLYLINE
  5
9B6
330
1F
100
AcDbEntity
  8
MITTA
100
AcDbPolyline
 90
        4
 70
     0
 43
0.0
 10
153.0000000939186
 20
126.5000002172227
 10
168.0250717392469
 20
126.5000002172227
 10
168.0250717392469
 20
128.0000002172227
 10
165.5250717392468
 20
131.5000002172227
  0
LWPOLYLINE
  5
9B7
330
1F
100
AcDbEntity
  8
MITTA
100
AcDbPolyline
 90
        4
 70
     0
 43
0.0
 10
153.0000000939186
 20
118.5000002172227
 10
176.0250717392468
 20
118.5000002172227
 10
176.0250717392468
 20
128.0000002172227
 10
173.5250717392468
 20
131.5000002172227
  0
TEXT
  5
9B8
330
1F
100
AcDbEntity
  8
MITTA
100
AcDbText
 10
153.6395306782919
 20
119.2384772536772
 30
0.0
 40
2.5
  1
2
 41
0.9
  7
T25
100
AcDbText
  0
TEXT
  5
9B9
330
1F
100
AcDbEntity
  8
TEXT25
100
AcDbText
 10
153.6395306782919
 20
126.9642892406403
 30
0.0
 40
2.5
  1
1
 41
0.9
  7
T25
100
AcDbText
  0
LWPOLYLINE
  5
9BA
330
1F
100
AcDbEntity
  8
MITTA
100
AcDbPolyline
 90
        4
 70
     0
 43
0.0
 10
176.0250717392468
 20
131.5000002172227
 10
176.0250717392468
 20
133.5000002172227
 10
168.0250717392469
 20
133.5000002172227
 10
168.0250717392469
 20
131.5000002172227
  0
LWPOLYLINE
  5
9BB
330
1F
100
AcDbEntity
  8
MITTA
100
AcDbPolyline
 90
        4
 70
     0
 43
0.0
 10
189.5250717392468
 20
122.5000002172227
 10
192.0250717392469
 20
124.0000002172227
 10
192.0250717392469
 20
121.0000002172227
 10
189.5250717392468
 20
122.5000002172227
  0
HATCH
  5
9BC
330
1F
100
AcDbEntity
  8
MITTA
100
AcDbHatch
 10
0.0
 20
0.0
 30
0.0
210
0.0
220
0.0
230
1.0
  2
SOLID
 70
     1
 71
     0
 91
        1
 92
        1
 93
        3
 72
     1
 10
189.5250717392468
 20
122.5000002172227
 11
192.0250717392469
 21
124.0000002172227
 72
     1
 10
192.0250717392469
 20
124.0000002172227
 11
192.0250717392469
 21
121.0000002172227
 72
     1
 10
192.0250717392469
 20
121.0000002172227
 11
189.5250717392468
 21
122.5000002172227
 97
        0
 75
     0
 76
     1
 98
        1
 10
-52.47492826075313
 20
9.000000217222691
  0
LWPOLYLINE
  5
9BD
330
1F
100
AcDbEntity
  8
MITTA
100
AcDbPolyline
 90
        3
 70
     0
 43
0.0
 10
185.0250717392468
 20
127.5000002172227
 10
185.0250717392468
 20
122.5000002172227
 10
193.0250717392469
 20
122.5000002172227
  0
LWPOLYLINE
  5
9BE
330
1F
100
AcDbEntity
  8
MITTA
100
AcDbPolyline
 90
        5
 70
     0
 43
0.0
 10
181.5250717392468
 20
127.5000002172227
 10
181.5250717392468
 20
132.5000002172227
 10
188.5250717392468
 20
132.5000002172227
 10
188.5250717392468
 20
127.5000002172227
 10
181.5250717392468
 20
127.5000002172227
  0
LWPOLYLINE
  5
9BF
330
1F
100
AcDbEntity
  8
MITTA
100
AcDbPolyline
 90
        2
 70
     0
 43
0.0
 10
181.5250717392468
 20
127.5000002172227
 10
188.5250717392468
 20
132.5000002172227
  0
LINE
  5
9C0
330
1F
100
AcDbEntity
  8
KATKO07
100
AcDbLine
 10
153.0
 20
118.5
 30
0.0
 11
113.0
 21
118.5
 31
0.0
  0
LINE
  5
9C1
330
1F
100
AcDbEntity
  8
KATKO07
100
AcDbLine
 10
153.0
 20
126.5
 30
0.0
 11
113.0
 21
126.5
 31
0.0
  0
LWPOLYLINE
  5
9E8
330
1F
100
AcDbEntity
  8
MITTA
100
AcDbPolyline
 90
        5
 70
     0
 43
0.0
 10
152.4749281594178
 20
102.5000000565849
 10
171.499999804746
 20
102.5000000565849
 10
171.499999804746
 20
113.5000000565849
 10
175.499999804746
 20
113.5000000565849
 10
175.499999804746
 20
111.5000000565849
  0
LWPOLYLINE
  5
9E9
330
1F
100
AcDbEntity
  8
MITTA
100
AcDbPolyline
 90
        4
 70
     0
 43
0.0
 10
152.4749281594178
 20
98.5000000565849
 10
175.499999804746
 20
98.5000000565849
 10
175.499999804746
 20
108.0000000565849
 10
172.999999804746
 20
111.5000000565849
  0
LWPOLYLINE
  5
9EA
330
1F
100
AcDbEntity
  8
MITTA
100
AcDbPolyline
 90
        4
 70
     0
 43
0.0
 10
152.4749281594178
 20
106.5000000565849
 10
167.499999804746
 20
106.5000000565849
 10
167.499999804746
 20
108.0000000565849
 10
164.999999804746
 20
111.5000000565849
  0
LWPOLYLINE
  5
9EB
330
1F
100
AcDbEntity
  8
MITTA
100
AcDbPolyline
 90
        3
 70
     0
 43
0.0
 10
152.4749281594178
 20
113.5000000565849
 10
167.499999804746
 20
113.5000000565849
 10
167.499999804746
 20
111.5000000565849
  0
LWPOLYLINE
  5
9EC
330
1F
100
AcDbEntity
  8
MITTA
100
AcDbPolyline
 90
        2
 70
     0
 43
0.0
 10
180.999999804746
 20
107.5000000565849
 10
187.999999804746
 20
112.5000000565849
  0
LWPOLYLINE
  5
9ED
330
1F
100
AcDbEntity
  8
MITTA
100
AcDbPolyline
 90
        5
 70
     0
 43
0.0
 10
180.999999804746
 20
107.5000000565849
 10
180.999999804746
 20
112.5000000565849
 10
187.999999804746
 20
112.5000000565849
 10
187.999999804746
 20
107.5000000565849
 10
180.999999804746
 20
107.5000000565849
  0
LWPOLYLINE
  5
9EE
330
1F
100
AcDbEntity
  8
MITTA
100
AcDbPolyline
 90
        3
 70
     0
 43
0.0
 10
184.499999804746
 20
107.5000000565849
 10
184.499999804746
 20
102.5000000565849
 10
192.499999804746
 20
102.5000000565849
  0
TEXT
  5
9EF
330
1F
100
AcDbEntity
  8
TEXT25
100
AcDbText
 10
153.1144587437911
 20
103.4476198971798
 30
0.0
 40
2.5
  1
6
 41
0.9
  7
T25
100
AcDbText
  0
TEXT
  5
9F0
330
1F
100
AcDbEntity
  8
TEXT25
100
AcDbText
 10
153.1144587437911
 20
99.23847709303942
 30
0.0
 40
2.5
  1
5
 41
0.9
  7
T25
100
AcDbText
  0
TEXT
  5
9F1
330
1F
100
AcDbEntity
  8
TEXT25
100
AcDbText
 10
153.1144587437911
 20
106.9642890800025
 30
0.0
 40
2.5
  1
4
 41
0.9
  7
T25
100
AcDbText
  0
HATCH
  5
9F3
330
1F
100
AcDbEntity
  8
MITTA
100
AcDbHatch
 10
0.0
 20
0.0
 30
0.0
210
0.0
220
0.0
230
1.0
  2
SOLID
 70
     1
 71
     0
 91
        1
 92
        1
 93
        3
 72
     1
 10
188.999999804746
 20
102.5000000565849
 11
191.499999804746
 21
104.0000000565849
 72
     1
 10
191.499999804746
 20
104.0000000565849
 11
191.499999804746
 21
101.0000000565849
 72
     1
 10
191.499999804746
 20
101.0000000565849
 11
188.999999804746
 21
102.5000000565849
 97
        0
 75
     0
 76
     1
 98
        1
 10
-53.00000019525396
 20
-10.9999999434151
  0
LWPOLYLINE
  5
9F4
330
1F
100
AcDbEntity
  8
MITTA
100
AcDbPolyline
 90
        4
 70
     0
 43
0.0
 10
188.999999804746
 20
102.5000000565849
 10
191.499999804746
 20
104.0000000565849
 10
191.499999804746
 20
101.0000000565849
 10
188.999999804746
 20
102.5000000565849
  0
LINE
  5
9F5
330
1F
100
AcDbEntity
  8
MITTA
100
AcDbLine
 10
180.999999804746
 20
110.0000000565849
 30
0.0
 11
166.499999804746
 21
110.0000000565849
 31
0.0
  0
TEXT
  5
9F6
330
1F
100
AcDbEntity
  8
TEXT25
100
AcDbText
 10
153.1144587437911
 20
113.9358306473261
 30
0.0
 40
2.5
  1
3
 41
0.9
  7
T25
100
AcDbText
  0
LINE
  5
9F7
330
1F
100
AcDbEntity
  8
KATKO07
100
AcDbLine
 10
152.499999804746
 20
98.5000000565849
 30
0.0
 11
112.499999804746
 21
98.5000000565849
 31
0.0
  0
LINE
  5
9F8
330
1F
100
AcDbEntity
  8
KATKO07
100
AcDbLine
 10
152.499999804746
 20
102.5000000565849
 30
0.0
 11
112.499999804746
 21
102.5000000565849
 31
0.0
  0
LINE
  5
9F9
330
1F
100
AcDbEntity
  8
KATKO07
100
AcDbLine
 10
152.499999804746
 20
106.5000000565849
 30
0.0
 11
112.499999804746
 21
106.5000000565849
 31
0.0
  0
LINE
  5
9FA
330
1F
100
AcDbEntity
  8
KATKO07
100
AcDbLine
 10
152.499999804746
 20
113.5000000565849
 30
0.0
 11
112.499999804746
 21
113.5000000565849
 31
0.0
  0
LINE
  5
9FC
330
1F
100
AcDbEntity
  8
KATKO07
100
AcDbLine
 10
152.499999804746
 20
78.5000000565849
 30
0.0
 11
112.499999804746
 21
78.5000000565849
 31
0.0
  0
LINE
  5
9FD
330
1F
100
AcDbEntity
  8
KATKO07
100
AcDbLine
 10
152.499999804746
 20
82.5000000565849
 30
0.0
 11
112.499999804746
 21
82.5000000565849
 31
0.0
  0
LINE
  5
9FE
330
1F
100
AcDbEntity
  8
KATKO07
100
AcDbLine
 10
152.499999804746
 20
86.50000005658489
 30
0.0
 11
112.499999804746
 21
86.50000005658489
 31
0.0
  0
LINE
  5
9FF
330
1F
100
AcDbEntity
  8
KATKO07
100
AcDbLine
 10
152.499999804746
 20
93.5000000565849
 30
0.0
 11
112.499999804746
 21
93.5000000565849
 31
0.0
  0
LWPOLYLINE
  5
A00
330
1F
100
AcDbEntity
  8
MITTA
100
AcDbPolyline
 90
        5
 70
     0
 43
0.0
 10
152.4749281594178
 20
82.5000000565849
 10
171.499999804746
 20
82.5000000565849
 10
171.499999804746
 20
93.5000000565849
 10
175.499999804746
 20
93.5000000565849
 10
175.499999804746
 20
91.50000005658489
  0
LWPOLYLINE
  5
A01
330
1F
100
AcDbEntity
  8
MITTA
100
AcDbPolyline
 90
        4
 70
     0
 43
0.0
 10
152.4749281594178
 20
78.5000000565849
 10
175.499999804746
 20
78.5000000565849
 10
175.499999804746
 20
88.00000005658489
 10
172.999999804746
 20
91.50000005658489
  0
LWPOLYLINE
  5
A02
330
1F
100
AcDbEntity
  8
MITTA
100
AcDbPolyline
 90
        4
 70
     0
 43
0.0
 10
152.4749281594178
 20
86.50000005658489
 10
167.499999804746
 20
86.50000005658489
 10
167.499999804746
 20
88.00000005658489
 10
164.999999804746
 20
91.50000005658489
  0
LWPOLYLINE
  5
A03
330
1F
100
AcDbEntity
  8
MITTA
100
AcDbPolyline
 90
        2
 70
     0
 43
0.0
 10
180.999999804746
 20
87.5000000565849
 10
187.999999804746
 20
92.5000000565849
  0
LWPOLYLINE
  5
A04
330
1F
100
AcDbEntity
  8
MITTA
100
AcDbPolyline
 90
        5
 70
     0
 43
0.0
 10
180.999999804746
 20
87.5000000565849
 10
180.999999804746
 20
92.5000000565849
 10
187.999999804746
 20
92.5000000565849
 10
187.999999804746
 20
87.5000000565849
 10
180.999999804746
 20
87.5000000565849
  0
TEXT
  5
A05
330
1F
100
AcDbEntity
  8
TEXT25
100
AcDbText
 10
153.1144587437911
 20
86.96428908000251
 30
0.0
 40
2.5
  1
8
 41
0.9
  7
T25
100
AcDbText
  0
TEXT
  5
A06
330
1F
100
AcDbEntity
  8
MITTA
100
AcDbText
 10
153.1144587437911
 20
79.23847709303942
 30
0.0
 40
2.5
  1
9
 41
0.9
  7
T25
100
AcDbText
  0
TEXT
  5
A07
330
1F
100
AcDbEntity
  8
TEXT25
100
AcDbText
 10
153.1144587437911
 20
83.44761989717984
 30
0.0
 40
2.5
  1
10
 41
0.9
  7
T25
100
AcDbText
  0
LWPOLYLINE
  5
A08
330
1F
100
AcDbEntity
  8
MITTA
100
AcDbPolyline
 90
        3
 70
     0
 43
0.0
 10
184.499999804746
 20
87.5000000565849
 10
184.499999804746
 20
82.5000000565849
 10
192.499999804746
 20
82.5000000565849
  0
HATCH
  5
A09
330
1F
100
AcDbEntity
  8
MITTA
100
AcDbHatch
 10
0.0
 20
0.0
 30
0.0
210
0.0
220
0.0
230
1.0
  2
SOLID
 70
     1
 71
     0
 91
        1
 92
        1
 93
        3
 72
     1
 10
188.999999804746
 20
82.5000000565849
 11
191.499999804746
 21
84.00000005658489
 72
     1
 10
191.499999804746
 20
84.00000005658489
 11
191.499999804746
 21
81.0000000565849
 72
     1
 10
191.499999804746
 20
81.0000000565849
 11
188.999999804746
 21
82.5000000565849
 97
        0
 75
     0
 76
     1
 98
        1
 10
-53.00000019525396
 20
-30.99999994341511
  0
LWPOLYLINE
  5
A0A
330
1F
100
AcDbEntity
  8
MITTA
100
AcDbPolyline
 90
        4
 70
     0
 43
0.0
 10
188.999999804746
 20
82.5000000565849
 10
191.499999804746
 20
84.00000005658489
 10
191.499999804746
 20
81.0000000565849
 10
188.999999804746
 20
82.5000000565849
  0
LINE
  5
A0B
330
1F
100
AcDbEntity
  8
MITTA
100
AcDbLine
 10
180.999999804746
 20
90.0000000565849
 30
0.0
 11
166.499999804746
 21
90.0000000565849
 31
0.0
  0
LWPOLYLINE
  5
A0C
330
1F
100
AcDbEntity
  8
MITTA
100
AcDbPolyline
 90
        3
 70
     0
 43
0.0
 10
152.4749281594178
 20
93.5000000565849
 10
167.499999804746
 20
93.5000000565849
 10
167.499999804746
 20
91.50000005658489
  0
TEXT
  5
A0D
330
1F
100
AcDbEntity
  8
TEXT25
100
AcDbText
 10
153.1144587437911
 20
93.93583064732615
 30
0.0
 40
2.5
  1
7
 41
0.9
  7
T25
100
AcDbText
  0
LINE
  5
A0F
330
1F
100
AcDbEntity
  8
KATKO07
100
AcDbLine
 10
152.499999804746
 20
58.5000000565849
 30
0.0
 11
112.499999804746
 21
58.5000000565849
 31
0.0
  0
LINE
  5
A10
330
1F
100
AcDbEntity
  8
KATKO07
100
AcDbLine
 10
152.499999804746
 20
62.50000005658489
 30
0.0
 11
112.499999804746
 21
62.50000005658489
 31
0.0
  0
LINE
  5
A11
330
1F
100
AcDbEntity
  8
KATKO07
100
AcDbLine
 10
152.499999804746
 20
66.5000000565849
 30
0.0
 11
112.499999804746
 21
66.5000000565849
 31
0.0
  0
LINE
  5
A12
330
1F
100
AcDbEntity
  8
KATKO07
100
AcDbLine
 10
152.499999804746
 20
73.5000000565849
 30
0.0
 11
112.499999804746
 21
73.5000000565849
 31
0.0
  0
LWPOLYLINE
  5
A13
330
1F
100
AcDbEntity
  8
MITTA
100
AcDbPolyline
 90
        5
 70
     0
 43
0.0
 10
152.4749281594178
 20
62.50000005658489
 10
171.499999804746
 20
62.50000005658489
 10
171.499999804746
 20
73.5000000565849
 10
175.499999804746
 20
73.5000000565849
 10
175.499999804746
 20
71.5000000565849
  0
LWPOLYLINE
  5
A14
330
1F
100
AcDbEntity
  8
MITTA
100
AcDbPolyline
 90
        4
 70
     0
 43
0.0
 10
152.4749281594178
 20
58.5000000565849
 10
175.499999804746
 20
58.5000000565849
 10
175.499999804746
 20
68.00000005658489
 10
172.999999804746
 20
71.5000000565849
  0
LWPOLYLINE
  5
A15
330
1F
100
AcDbEntity
  8
MITTA
100
AcDbPolyline
 90
        4
 70
     0
 43
0.0
 10
152.4749281594178
 20
66.5000000565849
 10
167.499999804746
 20
66.5000000565849
 10
167.499999804746
 20
68.00000005658489
 10
164.999999804746
 20
71.5000000565849
  0
LWPOLYLINE
  5
A16
330
1F
100
AcDbEntity
  8
MITTA
100
AcDbPolyline
 90
        2
 70
     0
 43
0.0
 10
180.999999804746
 20
67.50000005658489
 10
187.999999804746
 20
72.50000005658489
  0
LWPOLYLINE
  5
A17
330
1F
100
AcDbEntity
  8
MITTA
100
AcDbPolyline
 90
        5
 70
     0
 43
0.0
 10
180.999999804746
 20
67.50000005658489
 10
180.999999804746
 20
72.50000005658489
 10
187.999999804746
 20
72.50000005658489
 10
187.999999804746
 20
67.50000005658489
 10
180.999999804746
 20
67.50000005658489
  0
TEXT
  5
A18
330
1F
100
AcDbEntity
  8
MITTA
100
AcDbText
 10
153.1144587437911
 20
66.96428908000251
 30
0.0
 40
2.5
  1
12
 41
0.9
  7
T25
100
AcDbText
  0
TEXT
  5
A19
330
1F
100
AcDbEntity
  8
MITTA
100
AcDbText
 10
153.1144587437911
 20
59.23847709303942
 30
0.0
 40
2.5
  1
13
 41
0.9
  7
T25
100
AcDbText
  0
TEXT
  5
A1A
330
1F
100
AcDbEntity
  8
MITTA
100
AcDbText
 10
153.1144587437911
 20
63.44761989717984
 30
0.0
 40
2.5
  1
14
 41
0.9
  7
T25
100
AcDbText
  0
LWPOLYLINE
  5
A1B
330
1F
100
AcDbEntity
  8
MITTA
100
AcDbPolyline
 90
        3
 70
     0
 43
0.0
 10
184.499999804746
 20
67.50000005658489
 10
184.499999804746
 20
62.50000005658489
 10
192.499999804746
 20
62.50000005658489
  0
HATCH
  5
A1C
330
1F
100
AcDbEntity
  8
MITTA
100
AcDbHatch
 10
0.0
 20
0.0
 30
0.0
210
0.0
220
0.0
230
1.0
  2
SOLID
 70
     1
 71
     0
 91
        1
 92
        1
 93
        3
 72
     1
 10
188.999999804746
 20
62.50000005658489
 11
191.499999804746
 21
64.0000000565849
 72
     1
 10
191.499999804746
 20
64.0000000565849
 11
191.499999804746
 21
61.0000000565849
 72
     1
 10
191.499999804746
 20
61.0000000565849
 11
188.999999804746
 21
62.50000005658489
 97
        0
 75
     0
 76
     1
 98
        1
 10
-53.00000019525396
 20
-50.9999999434151
  0
LWPOLYLINE
  5
A1D
330
1F
100
AcDbEntity
  8
MITTA
100
AcDbPolyline
 90
        4
 70
     0
 43
0.0
 10
188.999999804746
 20
62.50000005658489
 10
191.499999804746
 20
64.0000000565849
 10
191.499999804746
 20
61.0000000565849
 10
188.999999804746
 20
62.50000005658489
  0
LINE
  5
A1E
330
1F
100
AcDbEntity
  8
MITTA
100
AcDbLine
 10
180.999999804746
 20
70.00000005658489
 30
0.0
 11
166.499999804746
 21
70.00000005658489
 31
0.0
  0
LWPOLYLINE
  5
A1F
330
1F
100
AcDbEntity
  8
MITTA
100
AcDbPolyline
 90
        3
 70
     0
 43
0.0
 10
152.4749281594178
 20
73.5000000565849
 10
167.499999804746
 20
73.5000000565849
 10
167.499999804746
 20
71.5000000565849
  0
TEXT
  5
A20
330
1F
100
AcDbEntity
  8
MITTA
100
AcDbText
 10
153.1144587437911
 20
73.93583064732616
 30
0.0
 40
2.5
  1
11
 41
0.9
  7
T25
100
AcDbText
  0
LINE
  5
A22
330
1F
100
AcDbEntity
  8
KATKO07
100
AcDbLine
 10
152.499999804746
 20
38.5000000565849
 30
0.0
 11
112.499999804746
 21
38.5000000565849
 31
0.0
  0
LINE
  5
A23
330
1F
100
AcDbEntity
  8
KATKO07
100
AcDbLine
 10
152.499999804746
 20
42.50000005658489
 30
0.0
 11
112.499999804746
 21
42.50000005658489
 31
0.0
  0
LINE
  5
A24
330
1F
100
AcDbEntity
  8
KATKO07
100
AcDbLine
 10
152.499999804746
 20
46.5000000565849
 30
0.0
 11
112.499999804746
 21
46.5000000565849
 31
0.0
  0
LINE
  5
A25
330
1F
100
AcDbEntity
  8
KATKO07
100
AcDbLine
 10
152.499999804746
 20
53.5000000565849
 30
0.0
 11
112.499999804746
 21
53.5000000565849
 31
0.0
  0
LWPOLYLINE
  5
A26
330
1F
100
AcDbEntity
  8
MITTA
100
AcDbPolyline
 90
        5
 70
     0
 43
0.0
 10
152.4749281594178
 20
42.50000005658489
 10
171.499999804746
 20
42.50000005658489
 10
171.499999804746
 20
53.5000000565849
 10
175.499999804746
 20
53.5000000565849
 10
175.499999804746
 20
51.5000000565849
  0
LWPOLYLINE
  5
A27
330
1F
100
AcDbEntity
  8
MITTA
100
AcDbPolyline
 90
        4
 70
     0
 43
0.0
 10
152.4749281594178
 20
38.5000000565849
 10
175.499999804746
 20
38.5000000565849
 10
175.499999804746
 20
48.00000005658489
 10
172.999999804746
 20
51.5000000565849
  0
LWPOLYLINE
  5
A28
330
1F
100
AcDbEntity
  8
MITTA
100
AcDbPolyline
 90
        4
 70
     0
 43
0.0
 10
152.4749281594178
 20
46.5000000565849
 10
167.499999804746
 20
46.5000000565849
 10
167.499999804746
 20
48.00000005658489
 10
164.999999804746
 20
51.5000000565849
  0
LWPOLYLINE
  5
A29
330
1F
100
AcDbEntity
  8
MITTA
100
AcDbPolyline
 90
        2
 70
     0
 43
0.0
 10
180.999999804746
 20
47.50000005658489
 10
187.999999804746
 20
52.50000005658489
  0
LWPOLYLINE
  5
A2A
330
1F
100
AcDbEntity
  8
MITTA
100
AcDbPolyline
 90
        5
 70
     0
 43
0.0
 10
180.999999804746
 20
47.50000005658489
 10
180.999999804746
 20
52.50000005658489
 10
187.999999804746
 20
52.50000005658489
 10
187.999999804746
 20
47.50000005658489
 10
180.999999804746
 20
47.50000005658489
  0
TEXT
  5
A2B
330
1F
100
AcDbEntity
  8
MITTA
100
AcDbText
 10
153.1144587437911
 20
46.96428908000251
 30
0.0
 40
2.5
  1
16
 41
0.9
  7
T25
100
AcDbText
  0
TEXT
  5
A2C
330
1F
100
AcDbEntity
  8
MITTA
100
AcDbText
 10
153.1144587437911
 20
39.23847709303942
 30
0.0
 40
2.5
  1
17
 41
0.9
  7
T25
100
AcDbText
  0
TEXT
  5
A2D
330
1F
100
AcDbEntity
  8
MITTA
100
AcDbText
 10
153.1144587437911
 20
43.44761989717983
 30
0.0
 40
2.5
  1
18
 41
0.9
  7
T25
100
AcDbText
  0
LWPOLYLINE
  5
A2E
330
1F
100
AcDbEntity
  8
MITTA
100
AcDbPolyline
 90
        3
 70
     0
 43
0.0
 10
184.499999804746
 20
47.50000005658489
 10
184.499999804746
 20
42.50000005658489
 10
192.499999804746
 20
42.50000005658489
  0
HATCH
  5
A2F
330
1F
100
AcDbEntity
  8
MITTA
100
AcDbHatch
 10
0.0
 20
0.0
 30
0.0
210
0.0
220
0.0
230
1.0
  2
SOLID
 70
     1
 71
     0
 91
        1
 92
        1
 93
        3
 72
     1
 10
188.999999804746
 20
42.50000005658489
 11
191.499999804746
 21
44.0000000565849
 72
     1
 10
191.499999804746
 20
44.0000000565849
 11
191.499999804746
 21
41.00000005658489
 72
     1
 10
191.499999804746
 20
41.00000005658489
 11
188.999999804746
 21
42.50000005658489
 97
        0
 75
     0
 76
     1
 98
        1
 10
-53.00000019525396
 20
-70.9999999434151
  0
LWPOLYLINE
  5
A30
330
1F
100
AcDbEntity
  8
MITTA
100
AcDbPolyline
 90
        4
 70
     0
 43
0.0
 10
188.999999804746
 20
42.50000005658489
 10
191.499999804746
 20
44.0000000565849
 10
191.499999804746
 20
41.00000005658489
 10
188.999999804746
 20
42.50000005658489
  0
LINE
  5
A31
330
1F
100
AcDbEntity
  8
MITTA
100
AcDbLine
 10
180.999999804746
 20
50.00000005658489
 30
0.0
 11
166.499999804746
 21
50.00000005658489
 31
0.0
  0
LWPOLYLINE
  5
A32
330
1F
100
AcDbEntity
  8
MITTA
100
AcDbPolyline
 90
        3
 70
     0
 43
0.0
 10
152.4749281594178
 20
53.5000000565849
 10
167.499999804746
 20
53.5000000565849
 10
167.499999804746
 20
51.5000000565849
  0
TEXT
  5
A33
330
1F
100
AcDbEntity
  8
MITTA
100
AcDbText
 10
153.1144587437911
 20
53.93583064732616
 30
0.0
 40
2.5
  1
15
 41
0.9
  7
T25
100
AcDbText
  0
TEXT
  5
A34
330
1F
100
AcDbEntity
  8
MITTA
100
AcDbText
 10
194.5198662544121
 20
121.2025973811938
 30
0.0
 40
2.5
  1
BIO2_7_PO2
 41
0.9
  7
T25
100
AcDbText
  0
TEXT
  5
A35
330
1F
100
AcDbEntity
  8
MITTA
100
AcDbText
 10
194.5198662544121
 20
101.2025973811938
 30
0.0
 40
2.5
  1
BIO2_7_PO3
 41
0.9
  7
T25
100
AcDbText
  0
TEXT
  5
A36
330
1F
100
AcDbEntity
  8
MITTA
100
AcDbText
 10
194.5198662544121
 20
81.20259738119386
 30
0.0
 40
2.5
  1
BIO2_7_PO4
 41
0.9
  7
T25
100
AcDbText
  0
TEXT
  5
A37
330
1F
100
AcDbEntity
  8
MITTA
100
AcDbText
 10
194.5198662544121
 20
61.20259738119386
 30
0.0
 40
2.5
  1
BIO2_7_PO5
 41
0.9
  7
T25
100
AcDbText
  0
TEXT
  5
A38
330
1F
100
AcDbEntity
  8
MITTA
100
AcDbText
 10
194.5198662544121
 20
41.20259738119386
 30
0.0
 40
2.5
  1
BIO2_7_PO6
 41
0.9
  7
T25
100
AcDbText
  0
TEXT
  5
A55
330
1F
100
AcDbEntity
  8
TEXT25
100
AcDbText
 10
210.6624997588508
 20
27.24999972324758
 30
0.0
 40
2.5
  1
16.12.2004  S.Björklund
 41
0.9
  7
T25
100
AcDbText
  0
TEXT
  5
A56
330
1F
100
AcDbEntity
  8
TEXT25
100
AcDbText
 10
286.1624997588508
 20
1.429111452985011
 30
0.0
 40
3.5
  1
RSG
 41
0.9
  7
T25
100
AcDbText
  0
TEXT
  5
A57
330
1F
100
AcDbEntity
  8
TEXT25
100
AcDbText
 10
309.6624997588508
 20
1.267230646970574
 30
0.0
 40
4.0
  1
1MRS010254-AAA
  7
T25
100
AcDbText
  0
TEXT
  5
A58
330
1F
100
AcDbEntity
  8
TEXT25
100
AcDbText
 10
377.6624997588508
 20
1.267230646970574
 30
0.0
 40
4.0
  1
B
  7
T25
100
AcDbText
  0
TEXT
  5
A59
330
1F
100
AcDbEntity
  8
TEXT25
100
AcDbText
 10
372.3187130106555
 20
11.086830880923
 30
0.0
 40
2.5
  1
11 / 12
 41
0.9
  7
T25
100
AcDbText
  0
TEXT
  5
A5A
330
1F
100
AcDbEntity
  8
TEXT25
100
AcDbText
 10
309.1624997588508
 20
28.42623894093458
 30
0.0
 40
3.0
  1
TERMINAL DIAGRAM
 41
0.8
  7
T25
100
AcDbText
  0
TEXT
  5
A5B
330
1F
100
AcDbEntity
  8
TEXT25
100
AcDbText
 10
309.1624997588508
 20
23.92623894093458
 30
0.0
 40
3.0
  1
TRANSFORMER TERMINAL
 41
0.8
  7
T25
100
AcDbText
  0
TEXT
  5
A5C
330
1F
100
AcDbEntity
  8
TEXT25
100
AcDbText
 10
309.1624997588508
 20
19.42623894093458
 30
0.0
 40
3.0
  1
RET 54_ , BIO2-MODULE, BINARY IN/OUT
 41
0.8
  7
T25
100
AcDbText
  0
TEXT
  5
A9D
330
1F
100
AcDbEntity
  8
TEXT25
100
AcDbText
 10
211.1624996838913
 20
19.15811234945863
 30
0.0
 40
2.5
  1
A.Fagerroos
 41
0.9
  7
T25
100
AcDbText
  0
TEXT
  5
A9E
330
1F
100
AcDbEntity
  8
TEXT25
100
AcDbText
 10
211.1624996838913
 20
10.65811234945863
 30
0.0
 40
2.5
  1
K.Latva-Rasku
 41
0.9
  7
T25
100
AcDbText
  0
LINE
  5
AA6
330
1F
100
AcDbEntity
  8
TEXT25
100
AcDbLine
 10
214.7865677522842
 20
214.6301141817248
 30
0.0
 11
254.2865677522842
 21
214.6301141817248
 31
0.0
  0
TEXT
  5
AA7
330
1F
100
AcDbEntity
  8
TEXT25
100
AcDbText
 10
222.3400018774902
 20
215.747861315716
 30
0.0
 40
2.5
  1
155-265VDC
 41
0.9
  7
T25
100
AcDbText
  0
INSERT
  5
DE2
330
1F
100
AcDbEntity
  8
TEXT25
100
AcDbBlockReference
  2
ABB3T
 10
0.0
 20
0.0
 30
0.0
  0
MTEXT
  5
E19
330
1F
100
AcDbEntity
  8
TEXT25
100
AcDbMText
 10
48.49408447960809
 20
3.874674515398581
 30
0.0
 40
2.5
 41
61.65000000000002
 71
     1
 72
     1
  1
Sheet 6 changed. 13.12.2005/SB
  7
T25
 73
     1
 44
1.0
1001
ACAD
1000
MTEXTBEGIN
1070
    73
1070
     1
1070
    44
1040
1.0
1070
    74
1070
     0
1000
MTEXTEND
  0
ENDSEC
  0
SECTION
  2
OBJECTS
  0
DICTIONARY
  5
C
330
0
100
AcDbDictionary
281
     1
  3
ACAD_COLOR
350
B18
  3
ACAD_GROUP
350
D
  3
ACAD_LAYOUT
350
1A
  3
ACAD_MATERIAL
350
B17
  3
ACAD_MLINESTYLE
350
17
  3
ACAD_PLOTSETTINGS
350
19
  3
ACAD_PLOTSTYLENAME
350
E
  3
AcAmCatalogState
350
BE7
  3
AcAsAppObject
350
B6C
  3
ACASGREF_MASTER
350
BB2
  3
ACDBHEADERROUNDTRIPXREC
350
E22
  3
AcDbVariableDictionary
350
AA9
  3
ACDMSYSVARMGR
350
B4A
  3
ACGREF_MASTER
350
B42
  3
ACGREFACAD_MASTER
350
B68
  3
AcmDictionary
350
BE5
  3
ACME_BOM_MANAGER_NAME
350
B3C
  3
ACME_COMMAND_HISTORY
350
B37
  3
ACME_SCOPE_NAME
350
B36
  3
ACMESTATEMGR
350
B41
  3
AcmeSysVarManager
350
B38
  3
AcmSystemVariableManager
350
BEE
  3
AD_APPL
350
BCA
  3
AD_GREF_MODULE
350
BB3
  3
AD_MAPI_MODULE
350
BCC
  3
ADSYSVARMGR
350
BBC
  3
AmdtNamedDwgMgr
350
B65
  3
AMG
350
B1E
  3
AMGSNAPSETTINGS
350
C27
  3
AMI_MASTER
350
B6B
  3
ASURF_STATIC_VARS
350
B6D
  3
AUTOCAD_ASSEMBLIES_PROJECT
350
BDB
  3
AutoSurf_SysVars
350
B6E
  3
Designer_Assemblies_SysVars
350
BCE
  3
DWGPROPS
350
E21
  3
GREFAM_MODULE
350
BB5
  3
MAPISURF_MODULE
350
BB4
  0
DICTIONARY
  5
C39
330
1F
100
AcDbDictionary
280
     1
281
     1
  3
ACAD_INDEX
360
C3A
  0
DICTIONARY
  5
DDF
330
DAB
100
AcDbDictionary
280
     1
281
     1
  0
DICTIONARY
  5
B18
102
{ACAD_REACTORS
330
C
102
}
330
C
100
AcDbDictionary
281
     1
  0
DICTIONARY
  5
D
102
{ACAD_REACTORS
330
C
102
}
330
C
100
AcDbDictionary
281
     1
  0
DICTIONARY
  5
1A
102
{ACAD_REACTORS
330
C
102
}
330
C
100
AcDbDictionary
281
     1
  3
Layout1
350
1E
  3
Layout2
350
26
  3
Model
350
22
  0
DICTIONARY
  5
B17
102
{ACAD_REACTORS
330
C
102
}
330
C
100
AcDbDictionary
281
     1
  0
DICTIONARY
  5
17
102
{ACAD_REACTORS
330
C
102
}
330
C
100
AcDbDictionary
281
     1
  3
Standard
350
18
  0
DICTIONARY
  5
19
102
{ACAD_REACTORS
330
C
102
}
330
C
100
AcDbDictionary
281
     1
  0
ACDBDICTIONARYWDFLT
  5
E
102
{ACAD_REACTORS
330
C
102
}
330
C
100
AcDbDictionary
281
     1
  3
Normal
350
F
100
AcDbDictionaryWithDefault
340
F
  0
ACAD_PROXY_OBJECT
  5
BE7
102
{ACAD_REACTORS
330
C
102
}
330
C
100
AcDbProxyObject
 90
      499
 91
      557
 95
   131097
 70
     0
 93
      384
310
3FFFFFFFE00A02844028D2A9D2E2230BA30AE2922A622A2AA2E2922A32F9AAFAFAE2922A340090A00829D1009BA83ADD20
 94
        0
1001
ACAD
1000
AcRTDxfName
1000
CATALOGSTATE
  0
ACAD_PROXY_OBJECT
  5
B6C
102
{ACAD_REACTORS
330
C
102
}
330
C
100
AcDbProxyObject
 90
      499
 91
      530
 95
   131097
 70
     0
 93
       10
310
4040
 94
        0
1001
ACAD
1000
AcRTDxfName
1000
ASAPP
  0
ACAD_PROXY_OBJECT
  5
BB2
102
{ACAD_REACTORS
330
C
102
}
330
C
100
AcDbProxyObject
 90
      499
 91
      536
 95
   131097
 70
     0
 93
       34
310
010000407D
 94
        0
1001
ACAD
1000
AcRTDxfName
1000
ACASGREFMASTER
  0
DICTIONARY
  5
E22
102
{ACAD_REACTORS
330
C
102
}
330
C
100
AcDbDictionary
281
     1
  3
COLORDICT
350
E24
  3
MATERIALDICT
350
E23
  0
DICTIONARY
  5
AA9
102
{ACAD_REACTORS
330
C
102
}
330
C
100
AcDbDictionary
281
     1
  3
DIMASSOC
350
AAA
  3
INDEXCTL
350
E1E
  3
PROJECTNAME
350
E1F
  0
ACAD_PROXY_OBJECT
  5
B4A
102
{ACAD_REACTORS
330
C
102
}
330
C
100
AcDbProxyObject
 90
      499
 91
      509
 95
   131097
 70
     0
 93
      240
310
4C51A482000000000000000000000000000000000000000000000000000094
330
B4B
330
B4C
330
B4D
330
B4E
330
B4F
330
B50
330
B51
330
B52
330
B53
330
B54
330
B55
330
B56
330
B57
330
B58
330
B59
330
B5A
330
B5B
330
B5C
330
B5D
330
B5E
330
B5F
330
B60
330
B61
330
B62
330
B63
330
B64
 94
        0
1001
ACAD
1000
AcRTDxfName
1000
ACIMSYSVARMAN
  0
ACAD_PROXY_OBJECT
  5
B42
102
{ACAD_REACTORS
330
C
102
}
330
C
100
AcDbProxyObject
 90
      499
 91
      518
 95
   131097
 70
     0
 93
       34
310
0400004280
 94
        0
1001
ACAD
1000
AcRTDxfName
1000
ACGREFMASTER
  0
ACAD_PROXY_OBJECT
  5
B68
102
{ACAD_REACTORS
330
C
102
}
330
C
100
AcDbProxyObject
 90
      499
 91
      526
 95
   131097
 70
     0
 93
      114
310
04000041C080000000000000000012
 94
        0
1001
ACAD
1000
AcRTDxfName
1000
ACGREFACADMASTER
  0
DICTIONARY
  5
BE5
102
{ACAD_REACTORS
330
C
102
}
330
C
100
AcDbDictionary
281
     1
  3
AcmBOMDATA
350
BE6
  3
AcmStdDictionary
350
BEF
  0
ACAD_PROXY_OBJECT
  5
B3C
102
{ACAD_REACTORS
330
C
102
}
330
C
100
AcDbProxyObject
 90
      499
 91
      512
 95
   131097
 70
     0
 93
       50
310
00000040400013
330
0
330
0
330
B3D
 94
        0
1001
ACAD
1000
AcRTDxfName
1000
ACMEDRAWINGMAN
  0
ACAD_PROXY_OBJECT
  5
B37
102
{ACAD_REACTORS
330
C
102
}
330
C
100
AcDbProxyObject
 90
      499
 91
      508
 95
   131097
 70
     0
 93
     3770
310
450050E414D4454524553455444424D4F4440805084E202D20554E444F014213880B4815539113C0504554E444F80504554E444F805045A4F4F4D805054552415345805095041535445434C495080506444445444954805045A4F4F4D805055153415645404052D4D5347202D204D50503A2020206465736B746F702E61727
310
82046696C6556657273696F6E3A20382E312E302E3301411693D3D3601411693D3D360142541054D51150D31254201411693D3D360141911111511255201415454D05591501014B5354D1C80B481354140E88080819195CDADD1BDC0B985C9E08119A5B1955995C9CDA5BDB8E880E0B8C4B8C0B8CC0504504C4F54404052D4
310
D5347202D204D50503A2020206465736B746F702E6172782046696C6556657273696F6E3A20382E312E302E3301411693D3D3601415454D05591501014B5354D1C80B481354140E88080819195CDADD1BDC0B985C9E08119A5B1955995C9CDA5BDB8E880E0B8C4B8C0B8CC0504504C4F54404052D4D5347202D204D50503A2
310
020206465736B746F702E6172782046696C6556657273696F6E3A20382E312E302E33014150D313D4D1501014B5354D1C80B481354140E88080819195CDADD1BDC0B985C9E08119A5B1955995C9CDA5BDB8E880E0B8C4B8C0B8CC8
 94
        0
1001
ACAD
1000
AcRTDxfName
1000
ACMECOMMANDHISTORY
  0
ACAD_PROXY_OBJECT
  5
B36
102
{ACAD_REACTORS
330
C
102
}
330
C
100
AcDbProxyObject
 90
      499
 91
      507
 95
   131097
 70
     0
 93
     1290
310
080000454080000000000000000018A0000400020000000000000000000000000000000000000000000000000000000000000000000000000000000000000000000000000000000000000000000000000000000000000000000000000000000000000000000000000000000000000000000000000000000000000000000000
310
00000000000000000000000000000000000000000000000000000000000000AAAAAA80
360
B39
360
B3A
360
B3B
360
B3D
360
B43
360
B44
360
B45
360
B46
360
B47
360
B48
360
B4B
360
B4C
360
B4D
360
B4E
360
B4F
360
B50
360
B51
360
B52
360
B53
360
B54
360
B55
360
B56
360
B57
360
B58
360
B59
360
B5A
360
B5B
360
B5C
360
B5D
360
B5E
360
B5F
360
B60
360
B61
360
B62
360
B63
360
B64
360
B6F
360
B70
360
B71
360
B72
360
B73
360
B74
360
B75
360
B76
360
B77
360
B78
360
B79
360
B7A
360
B7B
360
B7C
360
B7D
360
B7E
360
B7F
360
B80
360
B81
360
B82
360
B83
360
B84
360
B85
360
B86
360
B87
360
B88
360
B89
360
B8A
360
B8B
360
B8C
360
B8D
360
B8E
360
B8F
360
B90
360
B91
360
B92
360
B93
360
B94
360
B95
360
B96
360
B97
360
B98
360
B99
360
B9A
360
B9B
360
B9C
360
B9D
360
B9E
360
B9F
360
BA0
360
BA1
360
BA2
360
BA3
360
BA4
360
BA5
360
BA6
360
BA7
360
BA8
360
BA9
360
BAA
360
BAB
360
BAC
360
BAD
360
BAE
360
BAF
360
BB0
360
BB8
360
BB9
360
BBA
360
BBB
360
BBD
360
BBE
360
BBF
360
BC0
360
BC1
360
BC2
360
BC3
360
BC4
360
BC5
360
BC6
360
BC7
360
BC8
360
BC9
360
BCF
360
BD0
360
BD1
360
BD2
360
BD3
360
BD4
360
BD5
360
BD6
360
BD7
360
BD8
360
BD9
360
BDA
360
BDF
360
BE0
360
BE1
360
BE2
360
BE3
360
BE4
360
C1A
 94
        0
1001
ACAD
1000
AcRTDxfName
1000
ACMESCOPE
  0
ACAD_PROXY_OBJECT
  5
B41
102
{ACAD_REACTORS
330
C
102
}
330
C
100
AcDbProxyObject
 90
      499
 91
      517
 95
   131097
 70
     0
 93
       50
310
08000041E41293
 94
        0
1001
ACAD
1000
AcRTDxfName
1000
ACMESTATEMGR
  0
ACAD_PROXY_OBJECT
  5
B38
102
{ACAD_REACTORS
330
C
102
}
330
C
100
AcDbProxyObject
 90
      499
 91
      509
 95
   131097
 70
     0
 93
       48
310
90342200000000
330
B39
330
B3A
330
B3B
 94
        0
1001
ACAD
1000
AcRTDxfName
1000
ACIMSYSVARMAN
  0
ACAD_PROXY_OBJECT
  5
BEE
102
{ACAD_REACTORS
330
C
102
}
330
C
100
AcDbProxyObject
 90
      499
 91
      509
 95
   131097
 70
     0
 93
       32
310
9014220000
330
C1A
 94
        0
1001
ACAD
1000
AcRTDxfName
1000
ACIMSYSVARMAN
  0
ACAD_PROXY_OBJECT
  5
BCA
102
{ACAD_REACTORS
330
C
102
}
330
C
100
AcDbProxyObject
 90
      499
 91
      545
 95
   131097
 70
     0
 93
       34
310
00080000BD
330
BB8
 94
        0
1001
ACAD
1000
AcRTDxfName
1000
NAMEDAPPL
  0
ACAD_PROXY_OBJECT
  5
BB3
102
{ACAD_REACTORS
330
C
102
}
330
C
100
AcDbProxyObject
 90
      499
 91
      537
 95
   131097
 70
     0
 93
      114
310
000000438080000000000000000026
 94
        0
1001
ACAD
1000
AcRTDxfName
1000
ACADGREFMODULE
  0
ACAD_PROXY_OBJECT
  5
BCC
102
{ACAD_REACTORS
330
C
102
}
330
C
100
AcDbProxyObject
 90
      499
 91
      547
 95
   131097
 70
     0
 93
       34
310
05000044FD
 94
        0
1001
ACAD
1000
AcRTDxfName
1000
MAPIADMODULE
  0
ACAD_PROXY_OBJECT
  5
BBC
102
{ACAD_REACTORS
330
C
102
}
330
C
100
AcDbProxyObject
 90
      499
 91
      509
 95
   131097
 70
     0
 93
      128
310
90D4420000000000000000000000000000
330
BBD
330
BBE
330
BBF
330
BC0
330
BC1
330
BC2
330
BC3
330
BC4
330
BC5
330
BC6
330
BC7
330
BC8
330
BC9
 94
        0
1001
ACAD
1000
AcRTDxfName
1000
ACIMSYSVARMAN
  0
ACAD_PROXY_OBJECT
  5
B65
102
{ACAD_REACTORS
330
C
102
}
330
C
100
AcDbProxyObject
 90
      499
 91
      523
 95
   131097
 70
     0
 93
       42
310
000100005E93
330
B43
 94
        0
1001
ACAD
1000
AcRTDxfName
1000
AM_DWGMGR_NAME
  0
DICTIONARY
  5
B1E
102
{ACAD_REACTORS
330
C
102
}
330
C
100
AcDbDictionary
281
     1
  3
AcMgSettings
350
B1F
  3
AMGLAYCFG
350
B2C
  0
DICTIONARY
  5
C27
102
{ACAD_REACTORS
330
C
102
}
330
C
100
AcDbDictionary
281
     1
  3
DIMENSION
350
C28
  3
FEA
350
C29
  3
HATCH (1)
350
C2A
  3
HATCH (2)
350
C2B
  3
SYMBOLS
350
C2C
  0
ACAD_PROXY_OBJECT
  5
B6B
102
{ACAD_REACTORS
330
C
102
}
330
C
100
AcDbProxyObject
 90
      499
 91
      529
 95
   131097
 70
     0
 93
       34
310
050000429E
 94
        0
1001
ACAD
1000
AcRTDxfName
1000
AMIMASTER
  0
ACAD_PROXY_OBJECT
  5
B6D
102
{ACAD_REACTORS
330
C
102
}
330
C
100
AcDbProxyObject
 90
      499
 91
      531
 95
   131097
 70
     0
 93
      424
310
585315020000000000000000000000000000000000000000000000000000000000000000000000000000000000000000000000000000
330
B80
330
B81
330
B82
330
B83
330
B84
330
B85
330
B86
330
B87
330
B88
330
B89
330
B8A
330
B8B
330
B8C
330
B8D
330
B8E
330
B8F
330
B90
330
B91
330
B92
330
B93
330
B94
330
B95
330
B96
330
B97
330
B98
330
B99
330
B9A
330
B9B
330
B9C
330
B9D
330
B9E
330
B9F
330
BA0
330
BA1
330
BA2
330
BA3
330
BA4
330
BA5
330
BA6
330
BA7
330
BA8
330
BA9
330
BAA
330
BAB
330
BAC
330
BAD
330
BAE
330
BAF
330
BB0
 94
        0
1001
ACAD
1000
AcRTDxfName
1000
IM_STATIC_MAN
  0
ACAD_PROXY_OBJECT
  5
BDB
102
{ACAD_REACTORS
330
C
102
}
330
C
100
AcDbProxyObject
 90
      499
 91
      549
 95
   131097
 70
     0
 93
       82
310
0800004BC0000000000011
330
BE2
330
0
330
BE3
330
0
330
0
330
0
 94
        0
1001
ACAD
1000
AcRTDxfName
1000
ACAMPROJECT
  0
ACAD_PROXY_OBJECT
  5
B6E
102
{ACAD_REACTORS
330
C
102
}
330
C
100
AcDbProxyObject
 90
      499
 91
      509
 95
   131097
 70
     0
 93
      168
310
4C511482000000000000000000000000000000000000
330
B6F
330
B70
330
B71
330
B72
330
B73
330
B74
330
B75
330
B76
330
B77
330
B78
330
B79
330
B7A
330
B7B
330
B7C
330
B7D
330
B7E
330
B7F
 94
        0
1001
ACAD
1000
AcRTDxfName
1000
ACIMSYSVARMAN
  0
ACAD_PROXY_OBJECT
  5
BCE
102
{ACAD_REACTORS
330
C
102
}
330
C
100
AcDbProxyObject
 90
      499
 91
      509
 95
   131097
 70
     0
 93
      120
310
90C44200000000000000000000000000
330
BCF
330
BD0
330
BD1
330
BD2
330
BD3
330
BD4
330
BD5
330
BD6
330
BD7
330
BD8
330
BD9
330
BDA
 94
        0
1001
ACAD
1000
AcRTDxfName
1000
ACIMSYSVARMAN
  0
XRECORD
  5
E21
102
{ACAD_REACTORS
330
C
102
}
330
C
100
AcDbXrecord
280
     1
  1
DWGPROPS COOKIE
  2

  3

  4

  6

  7

  8
VainSepp
  9

300
AmdtFileType=84
301
=
302
=
303
=
304
=
305
=
306
=
307
=
308
=
309
=
 40
1.863680671296296
 41
2451507.447628368
 42
2453718.612510278
  1

 90
        1
  0
ACAD_PROXY_OBJECT
  5
BB5
102
{ACAD_REACTORS
330
C
102
}
330
C
100
AcDbProxyObject
 90
      499
 91
      539
 95
   131097
 70
     0
 93
        8
310
057E
 94
        0
1001
ACAD
1000
AcRTDxfName
1000
MAPIAMMOUDLE
  0
ACAD_PROXY_OBJECT
  5
BB4
102
{ACAD_REACTORS
330
C
102
}
330
C
100
AcDbProxyObject
 90
      499
 91
      538
 95
   131097
 70
     0
 93
        8
310
047E
 94
        0
1001
ACAD
1000
AcRTDxfName
1000
AMDTMAPISURFMOUDULE
  0
DICTIONARY
  5
C3A
102
{ACAD_REACTORS
330
C39
102
}
330
C39
100
AcDbDictionary
281
     1
  3
*A1
350
C3B
  0
LAYOUT
  5
1E
102
{ACAD_XDICTIONARY
360
E25
102
}
102
{ACAD_REACTORS
330
1A
102
}
330
1A
100
AcDbPlotSettings
  1

  2
\\FISUB-VA-S003\FISUB-VA-P0028
  4

  6

 40
0.0
 41
0.0
 42
0.0
 43
0.0
 44
0.0
 45
0.0
 46
0.0
 47
0.0
 48
0.0
 49
0.0
140
0.0
141
0.0
142
1.0
143
1.0
 70
   688
 72
     0
 73
     0
 74
     5
  7
PDF.ctb
 75
    16
147
1.0
148
0.0
149
0.0
100
AcDbLayout
  1
Layout1
 70
     1
 71
     1
 10
0.0
 20
0.0
 11
420.0
 21
297.0
 12
0.0
 22
0.0
 32
0.0
 14
1.000000000000000E+20
 24
1.000000000000000E+20
 34
1.000000000000000E+20
 15
-1.000000000000000E+20
 25
-1.000000000000000E+20
 35
-1.000000000000000E+20
146
0.0
 13
0.0
 23
0.0
 33
0.0
 16
1.0
 26
0.0
 36
0.0
 17
0.0
 27
1.0
 37
0.0
 76
     0
330
1B
  0
LAYOUT
  5
26
102
{ACAD_XDICTIONARY
360
E29
102
}
102
{ACAD_REACTORS
330
1A
102
}
330
1A
100
AcDbPlotSettings
  1

  2
\\FISUB-VA-S003\FISUB-VA-P0028
  4

  6

 40
0.0
 41
0.0
 42
0.0
 43
0.0
 44
0.0
 45
0.0
 46
0.0
 47
0.0
 48
0.0
 49
0.0
140
0.0
141
0.0
142
1.0
143
1.0
 70
   688
 72
     0
 73
     0
 74
     5
  7
PDF.ctb
 75
    16
147
1.0
148
0.0
149
0.0
100
AcDbLayout
  1
Layout2
 70
     1
 71
     2
 10
0.0
 20
0.0
 11
12.0
 21
9.0
 12
0.0
 22
0.0
 32
0.0
 14
0.0
 24
0.0
 34
0.0
 15
0.0
 25
0.0
 35
0.0
146
0.0
 13
0.0
 23
0.0
 33
0.0
 16
1.0
 26
0.0
 36
0.0
 17
0.0
 27
1.0
 37
0.0
 76
     0
330
23
  0
LAYOUT
  5
22
102
{ACAD_XDICTIONARY
360
E27
102
}
102
{ACAD_REACTORS
330
1A
102
}
330
1A
100
AcDbPlotSettings
  1

  2
Acrobat PDFWriter
  4
A4
  6

 40
7.143749713897705
 41
7.143741130828857
 42
7.143768310546875
 43
7.143753051757812
 44
297.0530090332031
 45
209.9733276367187
 46
0.0
 47
4.36
 48
-6.963566738008921
 49
-1.466994361216393
140
393.3565824549805
141
264.2623693910891
142
1.0
143
1.404114172116831
 70
 11956
 72
     1
 73
     0
 74
     1
  7
monochrome.ctb
 75
     0
147
0.7121927973224628
148
233.5423942290884
149
159.1187985026414
100
AcDbLayout
  1
Model
 70
     1
 71
     0
 10
0.0
 20
0.0
 11
12.0
 21
9.0
 12
0.0
 22
0.0
 32
0.0
 14
0.0
 24
0.0
 34
0.0
 15
0.0
 25
0.0
 35
0.0
146
0.0
 13
0.0
 23
0.0
 33
0.0
 16
1.0
 26
0.0
 36
0.0
 17
0.0
 27
1.0
 37
0.0
 76
     0
330
1F
  0
MLINESTYLE
  5
18
102
{ACAD_REACTORS
330
17
102
}
330
17
100
AcDbMlineStyle
  2
STANDARD
 70
     0
  3

 62
   256
 51
90.0
 52
90.0
 71
     2
 49
0.5
 62
   256
  6
BYLAYER
 49
-0.5
 62
   256
  6
BYLAYER
  0
ACDBPLACEHOLDER
  5
F
102
{ACAD_REACTORS
330
E
102
}
330
E
  0
XRECORD
  5
E24
102
{ACAD_REACTORS
330
E22
102
}
330
E22
100
AcDbXrecord
280
     1
340
B18
  0
XRECORD
  5
E23
102
{ACAD_REACTORS
330
E22
102
}
330
E22
100
AcDbXrecord
280
     1
340
B17
  0
DICTIONARYVAR
  5
AAA
102
{ACAD_REACTORS
330
AA9
102
}
330
AA9
100
DictionaryVariables
280
     0
  1
1
  0
DICTIONARYVAR
  5
E1E
102
{ACAD_REACTORS
330
AA9
102
}
330
AA9
100
DictionaryVariables
280
     0
  1
1
  0
DICTIONARYVAR
  5
E1F
102
{ACAD_REACTORS
330
AA9
102
}
330
AA9
100
DictionaryVariables
280
     0
  1

  0
ACAD_PROXY_OBJECT
  5
BE6
102
{ACAD_REACTORS
330
BE5
102
}
330
BE5
100
AcDbProxyObject
 90
      499
 91
      556
 95
   131097
 70
     0
 93
       84
310
90100057356C1D71405020
330
1F
330
C16
 94
        0
1001
ACAD
1000
AcRTDxfName
1000
ACMDATADICTIONARY
  0
DICTIONARY
  5
BEF
102
{ACAD_REACTORS
330
BE5
102
}
330
BE5
100
AcDbDictionary
281
     1
  3
ISO
350
BF0
  0
ACAD_PROXY_OBJECT
  5
B39
330
0
100
AcDbProxyObject
 90
      499
 91
      510
 95
   131097
 70
     0
 93
      156
310
00010143D050D351505391D5531054925390D495
330
B36
 94
        0
1001
ACAD
1000
AcRTDxfName
1000
ACIMREALSYSVAR
  0
ACAD_PROXY_OBJECT
  5
B3A
330
0
100
AcDbProxyObject
 90
      499
 91
      510
 95
   131097
 70
     0
 93
      148
310
000101439050D351531253915054925390D490
330
B36
 94
        0
1001
ACAD
1000
AcRTDxfName
1000
ACIMREALSYSVAR
  0
ACAD_PROXY_OBJECT
  5
B3B
330
0
100
AcDbProxyObject
 90
      499
 91
      511
 95
   131097
 70
     0
 93
      156
310
000101439050D35154D6535093D314D256915085
330
B36
 94
        0
1001
ACAD
1000
AcRTDxfName
1000
ACIMINTSYSVAR
  0
ACAD_PROXY_OBJECT
  5
B3D
330
0
100
AcDbProxyObject
 90
      499
 91
      513
 95
   131097
 70
     0
 93
       88
310
000101411093D34C402B0098
330
B36
330
0
330
0
 94
        0
1001
ACAD
1000
AcRTDxfName
1000
ACMEVIEW
  0
ACAD_PROXY_OBJECT
  5
B43
330
0
100
AcDbProxyObject
 90
      499
 91
      519
 95
   131097
 70
     0
 93
      374
310
0001014119185D1940508382E302E32342E30014119185D1940508382E302E32342E3040501000041505391D311659
330
B36
330
B44
330
B4A
 94
        0
1001
ACAD
1000
AcRTDxfName
1000
AM_DRAWING_MGR
  0
ACAD_PROXY_OBJECT
  5
B44
330
0
100
AcDbProxyObject
 90
      499
 91
      520
 95
   131097
 70
     0
 93
       56
310
0001902422000000
330
B36
330
B45
330
B47
 94
        0
1001
ACAD
1000
AcRTDxfName
1000
AM_DWG_DOCUMENT
  0
ACAD_PROXY_OBJECT
  5
B45
330
0
100
AcDbProxyObject
 90
      499
 91
      521
 95
   131097
 70
     0
 93
       48
310
0001AA00000000
330
B36
330
1E
330
B46
330
0
 94
        0
1001
ACAD
1000
AcRTDxfName
1000
AM_DWG_SHEET
  0
ACAD_PROXY_OBJECT
  5
B46
330
0
100
AcDbProxyObject
 90
      499
 91
      522
 95
   131097
 70
     0
 93
       28
310
0001AAA2
330
B36
 94
        0
1001
ACAD
1000
AcRTDxfName
1000
AM_VIEWDIMPARMAP
  0
ACAD_PROXY_OBJECT
  5
B47
330
0
100
AcDbProxyObject
 90
      499
 91
      521
 95
   131097
 70
     0
 93
       48
310
0001AA00000000
330
B36
330
26
330
B48
330
0
 94
        0
1001
ACAD
1000
AcRTDxfName
1000
AM_DWG_SHEET
  0
ACAD_PROXY_OBJECT
  5
B48
330
0
100
AcDbProxyObject
 90
      499
 91
      522
 95
   131097
 70
     0
 93
       28
310
0001AAA2
330
B36
 94
        0
1001
ACAD
1000
AcRTDxfName
1000
AM_VIEWDIMPARMAP
  0
ACAD_PROXY_OBJECT
  5
B4B
330
0
100
AcDbProxyObject
 90
      499
 91
      511
 95
   131097
 70
     0
 93
      108
310
000101421053521310D05310D012
330
B36
 94
        0
1001
ACAD
1000
AcRTDxfName
1000
ACIMINTSYSVAR
  0
ACAD_PROXY_OBJECT
  5
B4C
330
0
100
AcDbProxyObject
 90
      499
 91
      511
 95
   131097
 70
     0
 93
      124
310
00010142905354915554D15112535010
330
B36
 94
        0
1001
ACAD
1000
AcRTDxfName
1000
ACIMINTSYSVAR
  0
ACAD_PROXY_OBJECT
  5
B4D
330
0
100
AcDbProxyObject
 90
      499
 91
      511
 95
   131097
 70
     0
 93
      132
310
00010143105354D150D51253D391125360
330
B36
 94
        0
1001
ACAD
1000
AcRTDxfName
1000
ACIMINTSYSVAR
  0
ACAD_PROXY_OBJECT
  5
B4E
330
0
100
AcDbProxyObject
 90
      499
 91
      511
 95
   131097
 70
     0
 93
      124
310
00010142905355941093D49111549010
330
B36
 94
        0
1001
ACAD
1000
AcRTDxfName
1000
ACIMINTSYSVAR
  0
ACAD_PROXY_OBJECT
  5
B4F
330
0
100
AcDbProxyObject
 90
      499
 91
      511
 95
   131097
 70
     0
 93
      116
310
0001014290535115D1D0D3D313D4A2
330
B36
 94
        0
1001
ACAD
1000
AcRTDxfName
1000
ACIMINTSYSVAR
  0
ACAD_PROXY_OBJECT
  5
B50
330
0
100
AcDbProxyObject
 90
      499
 91
      511
 95
   131097
 70
     0
 93
      148
310
00010143505355925155D49151949154D21010
330
B36
 94
        0
1001
ACAD
1000
AcRTDxfName
1000
ACIMINTSYSVAR
  0
ACAD_PROXY_OBJECT
  5
B51
330
0
100
AcDbProxyObject
 90
      499
 91
      511
 95
   131097
 70
     0
 93
      172
310
00010144105350539393D51154149154D15495915018
330
B36
 94
        0
1001
ACAD
1000
AcRTDxfName
1000
ACIMINTSYSVAR
  0
ACAD_PROXY_OBJECT
  5
B52
330
0
100
AcDbProxyObject
 90
      499
 91
      511
 95
   131097
 70
     0
 93
      172
310
00010144105350555513D11253505494905391D15010
330
B36
 94
        0
1001
ACAD
1000
AcRTDxfName
1000
ACIMINTSYSVAR
  0
ACAD_PROXY_OBJECT
  5
B53
330
0
100
AcDbProxyObject
 90
      499
 91
      511
 95
   131097
 70
     0
 93
      124
310
00010142D05351561514915191125364
330
B36
 94
        0
1001
ACAD
1000
AcRTDxfName
1000
ACIMINTSYSVAR
  0
ACAD_PROXY_OBJECT
  5
B54
330
0
100
AcDbProxyObject
 90
      499
 91
      511
 95
   131097
 70
     0
 93
      132
310
00010142D05355105410539393D5115010
330
B36
 94
        0
1001
ACAD
1000
AcRTDxfName
1000
ACIMINTSYSVAR
  0
ACAD_PROXY_OBJECT
  5
B55
330
0
100
AcDbProxyObject
 90
      499
 91
      511
 95
   131097
 70
     0
 93
      108
310
00010142105350555513D0D31012
330
B36
 94
        0
1001
ACAD
1000
AcRTDxfName
1000
ACIMINTSYSVAR
  0
ACAD_PROXY_OBJECT
  5
B56
330
0
100
AcDbProxyObject
 90
      499
 91
      511
 95
   131097
 70
     0
 93
      108
310
00010142105350D3119150551055
330
B36
 94
        0
1001
ACAD
1000
AcRTDxfName
1000
ACIMINTSYSVAR
  0
ACAD_PROXY_OBJECT
  5
B57
330
0
100
AcDbProxyObject
 90
      499
 91
      511
 95
   131097
 70
     0
 93
      108
310
00010142105350D315925155D3F2
330
B36
 94
        0
1001
ACAD
1000
AcRTDxfName
1000
ACIMINTSYSVAR
  0
ACAD_PROXY_OBJECT
  5
B58
330
0
100
AcDbProxyObject
 90
      499
 91
      511
 95
   131097
 70
     0
 93
      148
310
0001014350535212511156915493D112535010
330
B36
 94
        0
1001
ACAD
1000
AcRTDxfName
1000
ACIMINTSYSVAR
  0
ACAD_PROXY_OBJECT
  5
B59
330
0
100
AcDbProxyObject
 90
      499
 91
      511
 95
   131097
 70
     0
 93
      124
310
00010142905352105510D21254D3D014
330
B36
 94
        0
1001
ACAD
1000
AcRTDxfName
1000
ACIMINTSYSVAR
  0
ACAD_PROXY_OBJECT
  5
B5A
330
0
100
AcDbProxyObject
 90
      499
 91
      511
 95
   131097
 70
     0
 93
      148
310
00010143905354D25391D31152105513105660
330
B36
 94
        0
1001
ACAD
1000
AcRTDxfName
1000
ACIMINTSYSVAR
  0
ACAD_PROXY_OBJECT
  5
B5B
330
0
100
AcDbProxyObject
 90
      499
 91
      511
 95
   131097
 70
     0
 93
      124
310
00010142D0535115D1D193111254D424
330
B36
 94
        0
1001
ACAD
1000
AcRTDxfName
1000
ACIMINTSYSVAR
  0
ACAD_PROXY_OBJECT
  5
B5C
330
0
100
AcDbProxyObject
 90
      499
 91
      511
 95
   131097
 70
     0
 93
      100
310
00010142105350555513D213A2
330
B36
 94
        0
1001
ACAD
1000
AcRTDxfName
1000
ACIMINTSYSVAR
  0
ACAD_PROXY_OBJECT
  5
B5D
330
0
100
AcDbProxyObject
 90
      499
 91
      511
 95
   131097
 70
     0
 93
      116
310
000101425053521390D3D553951014
330
B36
 94
        0
1001
ACAD
1000
AcRTDxfName
1000
ACIMINTSYSVAR
  0
ACAD_PROXY_OBJECT
  5
B5E
330
0
100
AcDbProxyObject
 90
      499
 91
      511
 95
   131097
 70
     0
 93
      108
310
0001014210535213941493D29010
330
B36
 94
        0
1001
ACAD
1000
AcRTDxfName
1000
ACIMINTSYSVAR
  0
ACAD_PROXY_OBJECT
  5
B5F
330
0
100
AcDbProxyObject
 90
      499
 91
      511
 95
   131097
 70
     0
 93
      108
310
0001014210535213951654115070
330
B36
 94
        0
1001
ACAD
1000
AcRTDxfName
1000
ACIMINTSYSVAR
  0
ACAD_PROXY_OBJECT
  5
B60
330
0
100
AcDbProxyObject
 90
      499
 91
      511
 95
   131097
 70
     0
 93
      108
310
000101421053521395925155D0F0
330
B36
 94
        0
1001
ACAD
1000
AcRTDxfName
1000
ACIMINTSYSVAR
  0
ACAD_PROXY_OBJECT
  5
B61
330
0
100
AcDbProxyObject
 90
      499
 91
      511
 95
   131097
 70
     0
 93
      140
310
00010143505354D150D51253D390D3D41664
330
B36
 94
        0
1001
ACAD
1000
AcRTDxfName
1000
ACIMINTSYSVAR
  0
ACAD_PROXY_OBJECT
  5
B62
330
0
100
AcDbProxyObject
 90
      499
 91
      511
 95
   131097
 70
     0
 93
      108
310
00010142105350D3141493D29030
330
B36
 94
        0
1001
ACAD
1000
AcRTDxfName
1000
ACIMINTSYSVAR
  0
ACAD_PROXY_OBJECT
  5
B63
330
0
100
AcDbProxyObject
 90
      499
 91
      510
 95
   131097
 70
     0
 93
      212
310
00010143905350555513D2105510D21493D500000000000002E400
330
B36
 94
        0
1001
ACAD
1000
AcRTDxfName
1000
ACIMREALSYSVAR
  0
ACAD_PROXY_OBJECT
  5
B64
330
0
100
AcDbProxyObject
 90
      499
 91
      511
 95
   131097
 70
     0
 93
      156
310
00010143905350555513D2105510D21111551010
330
B36
 94
        0
1001
ACAD
1000
AcRTDxfName
1000
ACIMINTSYSVAR
  0
ACAD_PROXY_OBJECT
  5
B6F
330
0
100
AcDbProxyObject
 90
      499
 91
      511
 95
   131097
 70
     0
 93
      116
310
000101425053541051D1531153919D
330
B36
 94
        0
1001
ACAD
1000
AcRTDxfName
1000
ACIMINTSYSVAR
  0
ACAD_PROXY_OBJECT
  5
B70
330
0
100
AcDbProxyObject
 90
      499
 91
      511
 95
   131097
 70
     0
 93
      108
310
000101421053555312539154D050
330
B36
 94
        0
1001
ACAD
1000
AcRTDxfName
1000
ACIMINTSYSVAR
  0
ACAD_PROXY_OBJECT
  5
B71
330
0
100
AcDbProxyObject
 90
      499
 91
      511
 95
   131097
 70
     0
 93
      108
310
000101421053559312539154D031
330
B36
 94
        0
1001
ACAD
1000
AcRTDxfName
1000
ACIMINTSYSVAR
  0
ACAD_PROXY_OBJECT
  5
B72
330
0
100
AcDbProxyObject
 90
      499
 91
      511
 95
   131097
 70
     0
 93
      140
310
00010143105354D1911254D41353D1115010
330
B36
 94
        0
1001
ACAD
1000
AcRTDxfName
1000
ACIMINTSYSVAR
  0
ACAD_PROXY_OBJECT
  5
B73
330
0
100
AcDbProxyObject
 90
      499
 91
      510
 95
   131097
 70
     0
 93
      172
310
00010142505354119255105391C1C052DC9A6F104408
330
B36
 94
        0
1001
ACAD
1000
AcRTDxfName
1000
ACIMREALSYSVAR
  0
ACAD_PROXY_OBJECT
  5
B74
330
0
100
AcDbProxyObject
 90
      499
 91
      510
 95
   131097
 70
     0
 93
      164
310
000101421053559150D05551C000000000000E03F0
330
B36
 94
        0
1001
ACAD
1000
AcRTDxfName
1000
ACIMREALSYSVAR
  0
ACAD_PROXY_OBJECT
  5
B75
330
0
100
AcDbProxyObject
 90
      499
 91
      510
 95
   131097
 70
     0
 93
      180
310
00010142905350931153911513D307B14AE47E17A843F3
330
B36
 94
        0
1001
ACAD
1000
AcRTDxfName
1000
ACIMREALSYSVAR
  0
ACAD_PROXY_OBJECT
  5
B76
330
0
100
AcDbProxyObject
 90
      499
 91
      510
 95
   131097
 70
     0
 93
      172
310
0001014250535293D25391D05407B14AE47E17A843F3
330
B36
 94
        0
1001
ACAD
1000
AcRTDxfName
1000
ACIMREALSYSVAR
  0
ACAD_PROXY_OBJECT
  5
B77
330
0
100
AcDbProxyObject
 90
      499
 91
      510
 95
   131097
 70
     0
 93
      172
310
000101425053541192551311538000000FC83D797410
330
B36
 94
        0
1001
ACAD
1000
AcRTDxfName
1000
ACIMREALSYSVAR
  0
ACAD_PROXY_OBJECT
  5
B78
330
0
100
AcDbProxyObject
 90
      499
 91
      510
 95
   131097
 70
     0
 93
      156
310
00010141D053559150D4D18000000000000E03F8
330
B36
 94
        0
1001
ACAD
1000
AcRTDxfName
1000
ACIMREALSYSVAR
  0
ACAD_PROXY_OBJECT
  5
B79
330
0
100
AcDbProxyObject
 90
      499
 91
      510
 95
   131097
 70
     0
 93
      156
310
00010141D05354D19513D309A9999999999993F9
330
B36
 94
        0
1001
ACAD
1000
AcRTDxfName
1000
ACIMREALSYSVAR
  0
ACAD_PROXY_OBJECT
  5
B7A
330
0
100
AcDbProxyObject
 90
      499
 91
      510
 95
   131097
 70
     0
 93
      172
310
000101425053541192551513D307B14AE47E17A843F3
330
B36
 94
        0
1001
ACAD
1000
AcRTDxfName
1000
ACIMREALSYSVAR
  0
ACAD_PROXY_OBJECT
  5
B7B
330
0
100
AcDbProxyObject
 90
      499
 91
      510
 95
   131097
 70
     0
 93
      188
310
00010142D05354D151D192551513D307B14AE47E17A843F0
330
B36
 94
        0
1001
ACAD
1000
AcRTDxfName
1000
ACIMREALSYSVAR
  0
ACAD_PROXY_OBJECT
  5
B7C
330
0
100
AcDbProxyObject
 90
      499
 91
      510
 95
   131097
 70
     0
 93
      148
310
000101419053541311538000000FC83D797417
330
B36
 94
        0
1001
ACAD
1000
AcRTDxfName
1000
ACIMREALSYSVAR
  0
ACAD_PROXY_OBJECT
  5
B7D
330
0
100
AcDbProxyObject
 90
      499
 91
      510
 95
   131097
 70
     0
 93
      172
310
00010142505354105391D513D301C052DC9A6F104408
330
B36
 94
        0
1001
ACAD
1000
AcRTDxfName
1000
ACIMREALSYSVAR
  0
ACAD_PROXY_OBJECT
  5
B7E
330
0
100
AcDbProxyObject
 90
      499
 91
      510
 95
   131097
 70
     0
 93
      132
310
0001014114D25691400000000000024409
330
B36
 94
        0
1001
ACAD
1000
AcRTDxfName
1000
ACIMREALSYSVAR
  0
ACAD_PROXY_OBJECT
  5
B7F
330
0
100
AcDbProxyObject
 90
      499
 91
      532
 95
   131097
 70
     0
 93
      156
310
00010142905351D4941491519256005034153470
330
B36
 94
        0
1001
ACAD
1000
AcRTDxfName
1000
ACIMSTRSYSVAR
  0
ACAD_PROXY_OBJECT
  5
B80
330
0
100
AcDbProxyObject
 90
      499
 91
      533
 95
   131097
 70
     0
 93
      314
310
00014080509646973745363616C650000000000003C2FC000000000000F0BF0000003F20F5E5D07D
330
B36
 94
        0
1001
ACAD
1000
AcRTDxfName
1000
ACIMDBLSTATICVAR
  0
ACAD_PROXY_OBJECT
  5
B81
330
0
100
AcDbProxyObject
 90
      499
 91
      533
 95
   131097
 70
     0
 93
      322
310
0001408050A65646175526F74617465060B51153EC87E4FC182D4454FB2119C0060B51153EC8465000
330
B36
 94
        0
1001
ACAD
1000
AcRTDxfName
1000
ACIMDBLSTATICVAR
  0
ACAD_PROXY_OBJECT
  5
B82
330
0
100
AcDbProxyObject
 90
      499
 91
      533
 95
   131097
 70
     0
 93
      314
310
00014080509656461755477697374060B51153EC846500000000FC83D797C10000003F20F5E5D07D
330
B36
 94
        0
1001
ACAD
1000
AcRTDxfName
1000
ACIMDBLSTATICVAR
  0
ACAD_PROXY_OBJECT
  5
B83
330
0
100
AcDbProxyObject
 90
      499
 91
      534
 95
   131097
 70
     0
 93
      286
310
000140C050A656467654F75747075740144941BDB1E5B1A5B994817D41BDB1E5B1A5B995
330
B36
 94
        0
1001
ACAD
1000
AcRTDxfName
1000
ACIMSTRSTATICVAR
  0
ACAD_PROXY_OBJECT
  5
B84
330
0
100
AcDbProxyObject
 90
      499
 91
      535
 95
   131097
 70
     0
 93
      154
310
0001404050B6564697450726576696577406406C
330
B36
 94
        0
1001
ACAD
1000
AcRTDxfName
1000
ACIMINTSTATICVAR
  0
ACAD_PROXY_OBJECT
  5
B85
330
0
100
AcDbProxyObject
 90
      499
 91
      535
 95
   131097
 70
     0
 93
      170
310
0001404050A666C6F77556C696E657342A3A00C00000
330
B36
 94
        0
1001
ACAD
1000
AcRTDxfName
1000
ACIMINTSTATICVAR
  0
ACAD_PROXY_OBJECT
  5
B86
330
0
100
AcDbProxyObject
 90
      499
 91
      535
 95
   131097
 70
     0
 93
      170
310
0001404050A666C6F77566C696E657342A3A00C00000
330
B36
 94
        0
1001
ACAD
1000
AcRTDxfName
1000
ACIMINTSTATICVAR
  0
ACAD_PROXY_OBJECT
  5
B87
330
0
100
AcDbProxyObject
 90
      499
 91
      533
 95
   131097
 70
     0
 93
      322
310
0001408050A666C7366456E645261640000000000003C2FC000000000000F0BF0000003F20F5E5D040
330
B36
 94
        0
1001
ACAD
1000
AcRTDxfName
1000
ACIMDBLSTATICVAR
  0
ACAD_PROXY_OBJECT
  5
B88
330
0
100
AcDbProxyObject
 90
      499
 91
      534
 95
   131097
 70
     0
 93
      238
310
000140C05086A6E33644D6F6465014393585B9D585B0817D3585B9D585B0
330
B36
 94
        0
1001
ACAD
1000
AcRTDxfName
1000
ACIMSTRSTATICVAR
  0
ACAD_PROXY_OBJECT
  5
B89
330
0
100
AcDbProxyObject
 90
      499
 91
      534
 95
   131097
 70
     0
 93
      286
310
000140C050A6A6E33644F75747075740144941BDB1E5B1A5B994817D41BDB1E5B1A5B997
330
B36
 94
        0
1001
ACAD
1000
AcRTDxfName
1000
ACIMSTRSTATICVAR
  0
ACAD_PROXY_OBJECT
  5
B8A
330
0
100
AcDbProxyObject
 90
      499
 91
      533
 95
   131097
 70
     0
 93
      306
310
000140805086C656E675065726300000000002016D002D431CEBE2361A3F0000003F20F5E5D040
330
B36
 94
        0
1001
ACAD
1000
AcRTDxfName
1000
ACIMDBLSTATICVAR
  0
ACAD_PROXY_OBJECT
  5
B8B
330
0
100
AcDbProxyObject
 90
      499
 91
      533
 95
   131097
 70
     0
 93
      266
310
0001408050B6D61737344656E7369747942D431CEBE2361A3F0000003F20F5E5D065
330
B36
 94
        0
1001
ACAD
1000
AcRTDxfName
1000
ACIMDBLSTATICVAR
  0
ACAD_PROXY_OBJECT
  5
B8C
330
0
100
AcDbProxyObject
 90
      499
 91
      533
 95
   131097
 70
     0
 93
      186
310
000140805096D617373546869636BA0000003F20F5E5D043
330
B36
 94
        0
1001
ACAD
1000
AcRTDxfName
1000
ACIMDBLSTATICVAR
  0
ACAD_PROXY_OBJECT
  5
B8D
330
0
100
AcDbProxyObject
 90
      499
 91
      534
 95
   131097
 70
     0
 93
      222
310
000140C05086D61737354797065014314DA195B1B0817D4DA195B1B0
330
B36
 94
        0
1001
ACAD
1000
AcRTDxfName
1000
ACIMSTRSTATICVAR
  0
ACAD_PROXY_OBJECT
  5
B8E
330
0
100
AcDbProxyObject
 90
      499
 91
      533
 95
   131097
 70
     0
 93
      242
310
000140805086F667366446973744000000FC83D797C10000003F20F5E5D040
330
B36
 94
        0
1001
ACAD
1000
AcRTDxfName
1000
ACIMDBLSTATICVAR
  0
ACAD_PROXY_OBJECT
  5
B8F
330
0
100
AcDbProxyObject
 90
      499
 91
      533
 95
   131097
 70
     0
 93
      258
310
0001408050A7072696D52616469757342D431CEBE2361A3F0000003F20F5E5D050
330
B36
 94
        0
1001
ACAD
1000
AcRTDxfName
1000
ACIMDBLSTATICVAR
  0
ACAD_PROXY_OBJECT
  5
B90
330
0
100
AcDbProxyObject
 90
      499
 91
      533
 95
   131097
 70
     0
 93
      194
310
0001408050A7072696D546F70526164A0000003F20F5E5D040
330
B36
 94
        0
1001
ACAD
1000
AcRTDxfName
1000
ACIMDBLSTATICVAR
  0
ACAD_PROXY_OBJECT
  5
B91
330
0
100
AcDbProxyObject
 90
      499
 91
      533
 95
   131097
 70
     0
 93
      266
310
0001408050B7072696D5475626552616442D431CEBE2361A3F0000003F20F5E5D065
330
B36
 94
        0
1001
ACAD
1000
AcRTDxfName
1000
ACIMDBLSTATICVAR
  0
ACAD_PROXY_OBJECT
  5
B92
330
0
100
AcDbProxyObject
 90
      499
 91
      533
 95
   131097
 70
     0
 93
      258
310
0001408050A7072696D4865696768744000000FC83D797C10000003F20F5E5D040
330
B36
 94
        0
1001
ACAD
1000
AcRTDxfName
1000
ACIMDBLSTATICVAR
  0
ACAD_PROXY_OBJECT
  5
B93
330
0
100
AcDbProxyObject
 90
      499
 91
      533
 95
   131097
 70
     0
 93
      250
310
000140805097072696D5374416E678182D4454FB2119C0060B51153EC8465025
330
B36
 94
        0
1001
ACAD
1000
AcRTDxfName
1000
ACIMDBLSTATICVAR
  0
ACAD_PROXY_OBJECT
  5
B94
330
0
100
AcDbProxyObject
 90
      499
 91
      533
 95
   131097
 70
     0
 93
      322
310
0001408050A7072696D456E64416E67060B51153EC846500182D4454FB2119C0060B51153EC8465000
330
B36
 94
        0
1001
ACAD
1000
AcRTDxfName
1000
ACIMDBLSTATICVAR
  0
ACAD_PROXY_OBJECT
  5
B95
330
0
100
AcDbProxyObject
 90
      499
 91
      533
 95
   131097
 70
     0
 93
      242
310
000140805087265765374416E678182D4454FB2119C0060B51153EC8465010
330
B36
 94
        0
1001
ACAD
1000
AcRTDxfName
1000
ACIMDBLSTATICVAR
  0
ACAD_PROXY_OBJECT
  5
B96
330
0
100
AcDbProxyObject
 90
      499
 91
      533
 95
   131097
 70
     0
 93
      314
310
00014080509726576456E64416E67060B51153EC846500182D4454FB2119C0060B51153EC8465010
330
B36
 94
        0
1001
ACAD
1000
AcRTDxfName
1000
ACIMDBLSTATICVAR
  0
ACAD_PROXY_OBJECT
  5
B97
330
0
100
AcDbProxyObject
 90
      499
 91
      535
 95
   131097
 70
     0
 93
      194
310
0001404050C7266736655706174636865734290139C0C00011
330
B36
 94
        0
1001
ACAD
1000
AcRTDxfName
1000
ACIMINTSTATICVAR
  0
ACAD_PROXY_OBJECT
  5
B98
330
0
100
AcDbProxyObject
 90
      499
 91
      535
 95
   131097
 70
     0
 93
      194
310
0001404050C7266736656706174636865734290139C0C0002D
330
B36
 94
        0
1001
ACAD
1000
AcRTDxfName
1000
ACIMINTSTATICVAR
  0
ACAD_PROXY_OBJECT
  5
B99
330
0
100
AcDbProxyObject
 90
      499
 91
      534
 95
   131097
 70
     0
 93
      238
310
000140C0508747562654D6F6465014393585B9D585B0817D3585B9D585B0
330
B36
 94
        0
1001
ACAD
1000
AcRTDxfName
1000
ACIMSTRSTATICVAR
  0
ACAD_PROXY_OBJECT
  5
B9A
330
0
100
AcDbProxyObject
 90
      499
 91
      533
 95
   131097
 70
     0
 93
      274
310
0001408050C747562654469616D6574657242D431CEBE2361A3F0000003F20F5E5D055
330
B36
 94
        0
1001
ACAD
1000
AcRTDxfName
1000
ACIMDBLSTATICVAR
  0
ACAD_PROXY_OBJECT
  5
B9B
330
0
100
AcDbProxyObject
 90
      499
 91
      535
 95
   131097
 70
     0
 93
      130
310
00014040509696E746572506F6C79A4075
330
B36
 94
        0
1001
ACAD
1000
AcRTDxfName
1000
ACIMINTSTATICVAR
  0
ACAD_PROXY_OBJECT
  5
B9C
330
0
100
AcDbProxyObject
 90
      499
 91
      535
 95
   131097
 70
     0
 93
      162
310
0001404050D696E746572417567506F696E74A405C
330
B36
 94
        0
1001
ACAD
1000
AcRTDxfName
1000
ACIMINTSTATICVAR
  0
ACAD_PROXY_OBJECT
  5
B9D
330
0
100
AcDbProxyObject
 90
      499
 91
      534
 95
   131097
 70
     0
 93
      214
310
000140C0509696E7465727472696D0142909BDD1A0817D09BDD1A1
330
B36
 94
        0
1001
ACAD
1000
AcRTDxfName
1000
ACIMSTRSTATICVAR
  0
ACAD_PROXY_OBJECT
  5
B9E
330
0
100
AcDbProxyObject
 90
      499
 91
      534
 95
   131097
 70
     0
 93
      214
310
000140C0509696E746572747970650142951C9A5B4817D51C9A5B4
330
B36
 94
        0
1001
ACAD
1000
AcRTDxfName
1000
ACIMSTRSTATICVAR
  0
ACAD_PROXY_OBJECT
  5
B9F
330
0
100
AcDbProxyObject
 90
      499
 91
      535
 95
   131097
 70
     0
 93
      146
310
0001404050A636F726E65727472696D406407D
330
B36
 94
        0
1001
ACAD
1000
AcRTDxfName
1000
ACIMINTSTATICVAR
  0
ACAD_PROXY_OBJECT
  5
BA0
330
0
100
AcDbProxyObject
 90
      499
 91
      535
 95
   131097
 70
     0
 93
      130
310
000140405086F6673666B6565704064069
330
B36
 94
        0
1001
ACAD
1000
AcRTDxfName
1000
ACIMINTSTATICVAR
  0
ACAD_PROXY_OBJECT
  5
BA1
330
0
100
AcDbProxyObject
 90
      499
 91
      535
 95
   131097
 70
     0
 93
      146
310
0001404050A70726F6A4F757470757440A40FD
330
B36
 94
        0
1001
ACAD
1000
AcRTDxfName
1000
ACIMINTSTATICVAR
  0
ACAD_PROXY_OBJECT
  5
BA2
330
0
100
AcDbProxyObject
 90
      499
 91
      534
 95
   131097
 70
     0
 93
      246
310
000140C050D70726F6A446972656374696F6E01429D92595DC817DD92595DC
330
B36
 94
        0
1001
ACAD
1000
AcRTDxfName
1000
ACIMSTRSTATICVAR
  0
ACAD_PROXY_OBJECT
  5
BA3
330
0
100
AcDbProxyObject
 90
      499
 91
      535
 95
   131097
 70
     0
 93
      130
310
0001404050870726F6A4B656570406404A
330
B36
 94
        0
1001
ACAD
1000
AcRTDxfName
1000
ACIMINTSTATICVAR
  0
ACAD_PROXY_OBJECT
  5
BA4
330
0
100
AcDbProxyObject
 90
      499
 91
      534
 95
   131097
 70
     0
 93
      278
310
000140C050B70726F6A53706163696E67014413DC1D1A5B585B0817D3DC1D1A5B585B1
330
B36
 94
        0
1001
ACAD
1000
AcRTDxfName
1000
ACIMSTRSTATICVAR
  0
ACAD_PROXY_OBJECT
  5
BA5
330
0
100
AcDbProxyObject
 90
      499
 91
      533
 95
   131097
 70
     0
 93
      250
310
0001408050970726F6A54617065728182D4454FB21F9BF060B51153EC87E4FE5
330
B36
 94
        0
1001
ACAD
1000
AcRTDxfName
1000
ACIMDBLSTATICVAR
  0
ACAD_PROXY_OBJECT
  5
BA6
330
0
100
AcDbProxyObject
 90
      499
 91
      535
 95
   131097
 70
     0
 93
      130
310
00014040508647261674B6565704064070
330
B36
 94
        0
1001
ACAD
1000
AcRTDxfName
1000
ACIMINTSTATICVAR
  0
ACAD_PROXY_OBJECT
  5
BA7
330
0
100
AcDbProxyObject
 90
      499
 91
      534
 95
   131097
 70
     0
 93
      294
310
000140C050F647261674F7269656E746174696F6E0143939BDC9B585B0817D39BDC9B585B0
330
B36
 94
        0
1001
ACAD
1000
AcRTDxfName
1000
ACIMSTRSTATICVAR
  0
ACAD_PROXY_OBJECT
  5
BA8
330
0
100
AcDbProxyObject
 90
      499
 91
      534
 95
   131097
 70
     0
 93
      270
310
000140C050E647261675472616E736974696F6E01431CD0D85B194817DCD0D85B195
330
B36
 94
        0
1001
ACAD
1000
AcRTDxfName
1000
ACIMSTRSTATICVAR
  0
ACAD_PROXY_OBJECT
  5
BA9
330
0
100
AcDbProxyObject
 90
      499
 91
      534
 95
   131097
 70
     0
 93
      302
310
000140C051061646A757374436F6E74696E75697479014394DB5BDBDD1A0817D4DB5BDBDD1A1
330
B36
 94
        0
1001
ACAD
1000
AcRTDxfName
1000
ACIMSTRSTATICVAR
  0
ACAD_PROXY_OBJECT
  5
BAA
330
0
100
AcDbProxyObject
 90
      499
 91
      535
 95
   131097
 70
     0
 93
      138
310
0001404050A61646A7573744B656570A4056
330
B36
 94
        0
1001
ACAD
1000
AcRTDxfName
1000
ACIMINTSTATICVAR
  0
ACAD_PROXY_OBJECT
  5
BAB
330
0
100
AcDbProxyObject
 90
      499
 91
      533
 95
   131097
 70
     0
 93
      250
310
0001408050972756C65576964746842D431CEBE2361A3F0000003F20F5E5D07D
330
B36
 94
        0
1001
ACAD
1000
AcRTDxfName
1000
ACIMDBLSTATICVAR
  0
ACAD_PROXY_OBJECT
  5
BAC
330
0
100
AcDbProxyObject
 90
      499
 91
      533
 95
   131097
 70
     0
 93
      274
310
0001408050C616E616C797A65447261667421D139D28615ED8FE060B51153EC8425031
330
B36
 94
        0
1001
ACAD
1000
AcRTDxfName
1000
ACIMDBLSTATICVAR
  0
ACAD_PROXY_OBJECT
  5
BAD
330
0
100
AcDbProxyObject
 90
      499
 91
      535
 95
   131097
 70
     0
 93
      210
310
0001404050F616E616C797A654E756D4C696E65734163FDFC0003F
330
B36
 94
        0
1001
ACAD
1000
AcRTDxfName
1000
ACIMINTSTATICVAR
  0
ACAD_PROXY_OBJECT
  5
BAE
330
0
100
AcDbProxyObject
 90
      499
 91
      535
 95
   131097
 70
     0
 93
      202
310
00014040512616E616C797A65526F746174654C696E6573A407E
330
B36
 94
        0
1001
ACAD
1000
AcRTDxfName
1000
ACIMINTSTATICVAR
  0
ACAD_PROXY_OBJECT
  5
BAF
330
0
100
AcDbProxyObject
 90
      499
 91
      535
 95
   131097
 70
     0
 93
      210
310
00014040513616E616C797A65446973706C61794C696E6573A407F
330
B36
 94
        0
1001
ACAD
1000
AcRTDxfName
1000
ACIMINTSTATICVAR
  0
ACAD_PROXY_OBJECT
  5
BB0
330
0
100
AcDbProxyObject
 90
      499
 91
      535
 95
   131097
 70
     0
 93
      258
310
00014040519616E616C797A655472616E736C7563656E7453757266616365A4042
330
B36
 94
        0
1001
ACAD
1000
AcRTDxfName
1000
ACIMINTSTATICVAR
  0
ACAD_PROXY_OBJECT
  5
BB8
330
0
100
AcDbProxyObject
 90
      499
 91
      541
 95
   131097
 70
     0
 93
      714
310
0001000000009AA6A9AA4051E546875204170722030312030373A35363A3530203230303420285554432901420E0B8C0B8C8D0B8C00518546875204170722030312031333A30323A3538203230303401420E0B8C0B8C8D0B8C00
330
B36
330
BB9
330
BBA
330
BBC
330
0
 94
        0
1001
ACAD
1000
AcRTDxfName
1000
ADAPPL
  0
ACAD_PROXY_OBJECT
  5
BB9
330
0
100
AcDbProxyObject
 90
      499
 91
      542
 95
   131097
 70
     0
 93
       70
310
0001AAA80820000002
330
B36
330
BB9
330
BB9
 94
        0
1001
ACAD
1000
AcRTDxfName
1000
DEPMGR
  0
ACAD_PROXY_OBJECT
  5
BBA
330
0
100
AcDbProxyObject
 90
      499
 91
      543
 95
   131097
 70
     0
 93
       48
310
00010000000000
330
B36
330
0
330
BBB
330
0
330
0
 94
        0
1001
ACAD
1000
AcRTDxfName
1000
PARAMMGR
  0
ACAD_PROXY_OBJECT
  5
BBB
330
0
100
AcDbProxyObject
 90
      499
 91
      544
 95
   131097
 70
     0
 93
       40
310
000100AAAA00
330
B36
330
0
 94
        0
1001
ACAD
1000
AcRTDxfName
1000
PARAMSCOPE
  0
ACAD_PROXY_OBJECT
  5
BBD
330
0
100
AcDbProxyObject
 90
      499
 91
      511
 95
   131097
 70
     0
 93
      124
310
00010142905350D3D39114D414D69050
330
B36
 94
        0
1001
ACAD
1000
AcRTDxfName
1000
ACIMINTSYSVAR
  0
ACAD_PROXY_OBJECT
  5
BBE
330
0
100
AcDbProxyObject
 90
      499
 91
      511
 95
   131097
 70
     0
 93
      124
310
000101429053549553115353D1115010
330
B36
 94
        0
1001
ACAD
1000
AcRTDxfName
1000
ACIMINTSYSVAR
  0
ACAD_PROXY_OBJECT
  5
BBF
330
0
100
AcDbProxyObject
 90
      499
 91
      511
 95
   131097
 70
     0
 93
      108
310
00010142105354D2D353D1115016
330
B36
 94
        0
1001
ACAD
1000
AcRTDxfName
1000
ACIMINTSYSVAR
  0
ACAD_PROXY_OBJECT
  5
BC0
330
0
100
AcDbProxyObject
 90
      499
 91
      511
 95
   131097
 70
     0
 93
      140
310
000101435053511253511254D41353D11167
330
B36
 94
        0
1001
ACAD
1000
AcRTDxfName
1000
ACIMINTSYSVAR
  0
ACAD_PROXY_OBJECT
  5
BC1
330
0
100
AcDbProxyObject
 90
      499
 91
      510
 95
   131097
 70
     0
 93
      180
310
00010142905354D2D05391D513D3000000000000010406
330
B36
 94
        0
1001
ACAD
1000
AcRTDxfName
1000
ACIMREALSYSVAR
  0
ACAD_PROXY_OBJECT
  5
BC2
330
0
100
AcDbProxyObject
 90
      499
 91
      532
 95
   131097
 70
     0
 93
      164
310
00010142505354D2D4D516531140505434F4E542A3
330
B36
 94
        0
1001
ACAD
1000
AcRTDxfName
1000
ACIMSTRSYSVAR
  0
ACAD_PROXY_OBJECT
  5
BC3
330
0
100
AcDbProxyObject
 90
      499
 91
      511
 95
   131097
 70
     0
 93
      108
310
00010142105350D3511112535013
330
B36
 94
        0
1001
ACAD
1000
AcRTDxfName
1000
ACIMINTSYSVAR
  0
ACAD_PROXY_OBJECT
  5
BC4
330
0
100
AcDbProxyObject
 90
      499
 91
      511
 95
   131097
 70
     0
 93
      108
310
00010142105350D3D35414D59010
330
B36
 94
        0
1001
ACAD
1000
AcRTDxfName
1000
ACIMINTSYSVAR
  0
ACAD_PROXY_OBJECT
  5
BC5
330
0
100
AcDbProxyObject
 90
      499
 91
      532
 95
   131097
 70
     0
 93
      164
310
0001014290535410549514D4119600504504152541
330
B36
 94
        0
1001
ACAD
1000
AcRTDxfName
1000
ACIMSTRSYSVAR
  0
ACAD_PROXY_OBJECT
  5
BC6
330
0
100
AcDbProxyObject
 90
      499
 91
      532
 95
   131097
 70
     0
 93
      220
310
0001014350535513D3D31093D11654119600508544F4F4C424F44593
330
B36
 94
        0
1001
ACAD
1000
AcRTDxfName
1000
ACIMSTRSYSVAR
  0
ACAD_PROXY_OBJECT
  5
BC7
330
0
100
AcDbProxyObject
 90
      499
 91
      511
 95
   131097
 70
     0
 93
      116
310
000101425053511254D410D3D39010
330
B36
 94
        0
1001
ACAD
1000
AcRTDxfName
1000
ACIMINTSYSVAR
  0
ACAD_PROXY_OBJECT
  5
BC8
330
0
100
AcDbProxyObject
 90
      499
 91
      511
 95
   131097
 70
     0
 93
      108
310
00010142105350D3D39114D41016
330
B36
 94
        0
1001
ACAD
1000
AcRTDxfName
1000
ACIMINTSYSVAR
  0
ACAD_PROXY_OBJECT
  5
BC9
330
0
100
AcDbProxyObject
 90
      499
 91
      511
 95
   131097
 70
     0
 93
      124
310
0001014290535490511114D414D69190
330
B36
 94
        0
1001
ACAD
1000
AcRTDxfName
1000
ACIMINTSYSVAR
  0
ACAD_PROXY_OBJECT
  5
BCF
330
0
100
AcDbProxyObject
 90
      499
 91
      532
 95
   131097
 70
     0
 93
      180
310
00010143105050D3D35411119390535140504434F4D506
330
B36
 94
        0
1001
ACAD
1000
AcRTDxfName
1000
ACIMSTRSYSVAR
  0
ACAD_PROXY_OBJECT
  5
BD0
330
0
100
AcDbProxyObject
 90
      499
 91
      532
 95
   131097
 70
     0
 93
      212
310
0001014390505193D311115491119390535140506466F6C6465725
330
B36
 94
        0
1001
ACAD
1000
AcRTDxfName
1000
ACIMSTRSYSVAR
  0
ACAD_PROXY_OBJECT
  5
BD1
330
0
100
AcDbProxyObject
 90
      499
 91
      532
 95
   131097
 70
     0
 93
      180
310
00010143105050539393D1119390535140504284156296
330
B36
 94
        0
1001
ACAD
1000
AcRTDxfName
1000
ACIMSTRSYSVAR
  0
ACAD_PROXY_OBJECT
  5
BD2
330
0
100
AcDbProxyObject
 90
      499
 91
      532
 95
   131097
 70
     0
 93
      420
310
00010143905050D3D35415925155D31254D500520546F700A46726F6E740A52696768740A4C6566740A426F74746F6D0A417578310
330
B36
 94
        0
1001
ACAD
1000
AcRTDxfName
1000
ACIMSTRSYSVAR
  0
ACAD_PROXY_OBJECT
  5
BD3
330
0
100
AcDbProxyObject
 90
      499
 91
      511
 95
   131097
 70
     0
 93
      132
310
00010142D05050555513D4D3D315915010
330
B36
 94
        0
1001
ACAD
1000
AcRTDxfName
1000
ACIMINTSYSVAR
  0
ACAD_PROXY_OBJECT
  5
BD4
330
0
100
AcDbProxyObject
 90
      499
 91
      511
 95
   131097
 70
     0
 93
      156
310
00010143905050555513D054D4D1535093115012
330
B36
 94
        0
1001
ACAD
1000
AcRTDxfName
1000
ACIMINTSYSVAR
  0
ACAD_PROXY_OBJECT
  5
BD5
330
0
100
AcDbProxyObject
 90
      499
 91
      511
 95
   131097
 70
     0
 93
      148
310
00010143505055925155D49154D513D4915012
330
B36
 94
        0
1001
ACAD
1000
AcRTDxfName
1000
ACIMINTSYSVAR
  0
ACAD_PROXY_OBJECT
  5
BD6
330
0
100
AcDbProxyObject
 90
      499
 91
      511
 95
   131097
 70
     0
 93
      124
310
00010142D050525394D15495105094E0
330
B36
 94
        0
1001
ACAD
1000
AcRTDxfName
1000
ACIMINTSYSVAR
  0
ACAD_PROXY_OBJECT
  5
BD7
330
0
100
AcDbProxyObject
 90
      499
 91
      511
 95
   131097
 70
     0
 93
      148
310
00010143505054D0D153915554111055115012
330
B36
 94
        0
1001
ACAD
1000
AcRTDxfName
1000
ACIMINTSYSVAR
  0
ACAD_PROXY_OBJECT
  5
BD8
330
0
100
AcDbProxyObject
 90
      499
 91
      532
 95
   131097
 70
     0
 93
      172
310
00010143105054D5509054D4D3541196005035355426
330
B36
 94
        0
1001
ACAD
1000
AcRTDxfName
1000
ACIMSTRSYSVAR
  0
ACAD_PROXY_OBJECT
  5
BD9
330
0
100
AcDbProxyObject
 90
      499
 91
      532
 95
   131097
 70
     0
 93
      172
310
00010142905054D0D15391541196005055343454E452
330
B36
 94
        0
1001
ACAD
1000
AcRTDxfName
1000
ACIMSTRSYSVAR
  0
ACAD_PROXY_OBJECT
  5
BDA
330
0
100
AcDbProxyObject
 90
      499
 91
      511
 95
   131097
 70
     0
 93
      148
310
00010143505350555513D313D0D2D4D0D39015
330
B36
 94
        0
1001
ACAD
1000
AcRTDxfName
1000
ACIMINTSYSVAR
  0
ACAD_PROXY_OBJECT
  5
BDF
330
0
100
AcDbProxyObject
 90
      499
 91
      550
 95
   131097
 70
     0
 93
       32
310
0001000000
330
B36
340
BDC
330
BE1
330
BDC
 94
        0
1001
ACAD
1000
AcRTDxfName
1000
ACAMGRCOMPDEF
  0
ACAD_PROXY_OBJECT
  5
BE0
330
0
100
AcDbProxyObject
 90
      499
 91
      551
 95
   131097
 70
     0
 93
       18
310
0001A1
330
B36
 94
        0
1001
ACAD
1000
AcRTDxfName
1000
ACCMCONTEXT
  0
ACAD_PROXY_OBJECT
  5
BE1
330
0
100
AcDbProxyObject
 90
      499
 91
      552
 95
   131097
 70
     0
 93
      170
310
00010142CC0C4C0C8D0D1050504C4C90500554015500
330
B36
330
BDF
330
BE0
 94
        0
1001
ACAD
1000
AcRTDxfName
1000
ACAMCOMPDEF
  0
ACAD_PROXY_OBJECT
  5
BE2
330
0
100
AcDbProxyObject
 90
      499
 91
      553
 95
   131097
 70
     0
 93
       50
310
000100AAAAAAB8
330
B36
330
BE1
 94
        0
1001
ACAD
1000
AcRTDxfName
1000
ACAMCOMPDEFMGR
  0
ACAD_PROXY_OBJECT
  5
BE3
330
0
100
AcDbProxyObject
 90
      499
 91
      554
 95
   131097
 70
     0
 93
      108
310
0001901422000000000000AAAAA2
330
B36
330
BE4
330
BE4
330
BE4
330
BE4
330
BE4
330
0
 94
        0
1001
ACAD
1000
AcRTDxfName
1000
AMCONTEXTMGR
  0
ACAD_PROXY_OBJECT
  5
BE4
330
0
100
AcDbProxyObject
 90
      499
 91
      555
 95
   131097
 70
     0
 93
       51
310
00010000AAAA80
330
B36
330
BE3
330
BE1
 94
        0
1001
ACAD
1000
AcRTDxfName
1000
ACAMCONTEXTMODELER
  0
ACAD_PROXY_OBJECT
  5
C1A
330
0
100
AcDbProxyObject
 90
      499
 91
      532
 95
   131097
 70
     0
 93
      140
310
00010142105350D55494D5110050349534F4
330
B36
 94
        0
1001
ACAD
1000
AcRTDxfName
1000
ACIMSTRSYSVAR
  0
DICTIONARY
  5
B1F
102
{ACAD_REACTORS
330
B1E
102
}
330
B1E
100
AcDbDictionary
281
     1
  3
DWGSETTINGS
350
B28
  3
TRANSSETTINGS
350
B34
  0
ACAD_PROXY_OBJECT
  5
B2C
102
{ACAD_REACTORS
330
B1E
102
}
330
B1E
100
AcDbProxyObject
 90
      499
 91
      506
 95
   131097
 70
     0
 93
    26232
310
415014A90130404C201C00030C00FDFFFFFF90131404C603800030C00FDFFFFFF90132404CA01400030C00FDFFFFFF90133404CE01800030C00FDFFFFFF90134404D200C00030C00FDFFFFFF90135404D600C00030C00FDFFFFFF90136404DA00800030C00FDFFFFFF90137404DE01000030C00FDFFFFFF90138404E200400
310
030C00FDFFFFFF9023341408CD0601800030C00FDFFFFFF9023741408DD0601000030C00FDFFFFFF9023241408C90601C00030C00FDFFFFFF9023441408D10600C00030C00FDFFFFFF90139404E63F400030C00FDFFFFFF411024950409254201C00030C00FDFFFFFF902304E408C13A01C00030C00FDFFFFFF902314E408C
310
53A03800030C00FDFFFFFF902324E408C93A01400030C00FDFFFFFF902334E408CD3A01800030C00FDFFFFFF902344E408D13A00C00030C00FDFFFFFF902354E408D53A00C00030C00FDFFFFFF902364E408D93A00800030C00FDFFFFFF902374E408DD3A01000030C00FDFFFFFF902384E408E13A00400030C00FDFFFFFF9
310
0333414E40CCD053A01800030C00FDFFFFFF90337414E40CDD053A01000030C00FDFFFFFF90332414E40CC9053A01C00030C00FDFFFFFF90334414E40CD1053A00C00030C00FDFFFFFF902394E408E53A3F400030C00FDFFFFFF4110349504E40D25413A01C00030C00FDFFFFFF9044B6C696E4112D31253A00400030C00FD
310
FFFFFF42504496E666F4112539193E01000030C00FDFFFFFF425055261686D3241549052134CA00400030C00FDFFFFFF425055261686D3341549052134CE00800030C00FDFFFFFF425055261686D3541549052134D601C00030C00FDFFFFFF42504566965774115925155E00400030C00FDFFFFFF42506426568696E644190
310
915212539123F400030C00FDFFFFFF43505545241494C41505357D514A01C00030C01194250348494441905357D21251201800030C01194250356495341905357D59254E01C00030C01324250650415244494D42505357D41054911253600C00030C01194250652454644494D42505357D49151911253601000030C0119425
310
814110511113101358010000C3003FFFFFFFE4110531514901348070000C3003FFFFFFFD034110915312501348000000C0003FFFFFFFD014110921395901398000000C0003FFFFFFFE415092139594D06424548494E448000000C0003FFFFFFFE411093125110234418000000C0003FFFFFFFE411093D05410234418000000
310
C0003FFFFFFFE411093D48C9055241484D328000000C0003FFFFFFFE411093D48CD055241484D338000000C0003FFFFFFFE411093D48D5055241484D358000000C0003FFFFFFFE411093D48DD055241484D358070000C3003FFFFFFFD034110941054101658000000C0003FFFFFFFE411094115610234418000000C0003FFF
310
FFFFE4110951112501358000000C0003FFFFFFFD034110D0530C901348000000C0003FFFFFFFE4110D0530CD01348020000C3003FFFFFFFE4110D0530D501348070000C3003FFFFFFFE4110D0530DD01348050000C3003FFFFFFFE4110D1539390237418000000C0003FFFFFFFE4110D15395D01378000000C0003FFFFFFFE
310
4110D312539044B4C494E8000000C0003FFFFFFFE4110D3D38C501308000000C0003FFFFFFFD034110D3D38C901318000000C0003FFFFFFFD034110D3D38CD01328000000C0003FFFFFFFD034110D3D38D101328000000C0003FFFFFFFD034111115494101348000000C0003FFFFFFFD034111115510501348000000C0003F
310
FFFFFFE4111125051D01358000000C0003FFFFFFFE4111125312501358000000C0003FFFFFFFE4151125513CC901358030000C3003FFFFFFFE4151125513CCD01358020000C3003FFFFFFFE4111125516101358010000C3003FFFFFFFE4111125613101358000000C0003FFFFFFFE411156135410234418000000C0003FFFF
310
FFFE4111915353901388000000C0003FFFFFFFE415191535413901388030000C3003FFFFFFFE4151915354D410234418000000C0003FFFFFFFE4151915354D510234418030000C3003FFFFFFFE415191535593901328000000C0003FFFFFFFE415191535595101328030000C3003FFFFFFFE4111931055101308000000C000
310
3FFFFFFFD03411194905490234418000000C0003FFFFFFFE4111D49312501358000000C0003FFFFFFFE4111D5931250234418000000C0003FFFFFFFE4112105510D01388000000C0003FFFFFFFD01411212511390233418000000C0003FFFFFFFD034112125115D01338000000C0003FFFFFFFD03411213125390134800000
310
0C0003FFFFFFFD01411213D0D390237418000000C0003FFFFFFFE411213D0D5D01378000000C0003FFFFFFFE4112539193D04494E464F8000000C0003FFFFFFFE4113105112501348000000C0003FFFFFFFD014113115051101358000000C0003FFFFFFFE419397D0511113102354E8010000C3003FFFFFFFE419397D09213
310
95902394E8000000C0003FFFFFFFE419397D0D3D38C502304E8000000C0003FFFFFFFD03419397D0D3D38C902314E8000000C0003FFFFFFFD03419397D0D3D38CD02324E8000000C0003FFFFFFFD03419397D0D3D38D102324E8000000C0003FFFFFFFD03419397D0D1539390337414E8000000C0003FFFFFFFE419397D0D1
310
5395D02374E8000000C0003FFFFFFFE419397D1125312502354E8000000C0003FFFFFFFE419397D1125516102354E8020000C3003FFFFFFFE419397D1125613102354E8000000C0003FFFFFFFE419397D2105510D02384E8000000C0003FFFFFFFD01419397D212511390333414E8000000C0003FFFFFFFD03419397D21251
310
15D02334E8000000C0003FFFFFFFD03419397D391D25410349504E8000000C0003FFFFFFFE419397D412105390334414E8000000C0003FFFFFFFE419397D413D4D3102354E8000000C0003FFFFFFFE419397D510D3D3902304E8000000C0003FFFFFFFD03419397D5121312502344E8000000C0003FFFFFFFD01419397D513
310
1153902304E8000000C0003FFFFFFFD03419397D516150CD02364E8000000C0003FFFFFFFD03419397D594131250332414E8000000C0003FFFFFFFE411391D25410249508000000C0003FFFFFFFE411410530C9055241484D328000000C0003FFFFFFFE411410530CD055241484D338000000C0003FFFFFFFE411410530D50
310
55241484D358000000C0003FFFFFFFE411410530DD055241484D358070000C3003FFFFFFFD03411412105390234418000000C0003FFFFFFFE411413D4D3101358000000C0003FFFFFFFE411413D4D3901368070000C3003FFFFFFFE419413D4D49151901368050000C3003FFFFFFFD03411413D4D6101358020000C3003FFF
310
FFFFE411414D150D0234418000000C0003FFFFFFFE411490D1D390237418000000C0003FFFFFFFE411490D1D5D01378000000C0003FFFFFFFE4114919112501348000000C0003FFFFFFFD014114945514901348070000C3003FFFFFFFD03411494D093D01348000000C0003FFFFFFFD014114D09492D01348000000C0003FF
310
FFFFFD014114D0D153901378000000C0003FFFFFFFD034114D150D5101348000000C0003FFFFFFFD014114D1531390237418000000C0003FFFFFFFE4114D15315D01378000000C0003FFFFFFFE4114D4D654D01308000000C0003FFFFFFFD034114D51312501348070000C3003FFFFFFFD034114D6508C501358000000C000
310
3FFFFFFFE4114D6508C901358000000C0003FFFFFFFE4114D6508CD01368000000C0003FFFFFFFE4114D6508D501358070000C3003FFFFFFFD034114D6535390237418000000C0003FFFFFFFE4114D65355D01378000000C0003FFFFFFFE411510D3D3901308000000C0003FFFFFFFD034115121312501348000000C0003FF
310
FFFFFD01411512550C9055241484D328000000C0003FFFFFFFE411512550CD055241484D338000000C0003FFFFFFFE411512550D5055241484D358000000C0003FFFFFFFE411512550DD055241484D358070000C3003FFFFFFFD034115131153901308000000C0003FFFFFFFD0341151492D390237418000000C0003FFFFFF
310
FE41151492D5D01378000000C0003FFFFFFFE4115149312501348000000C0003FFFFFFFD01411516150C501368020000C3003FFFFFFFE411516150C901368020000C3003FFFFFFFE411516150CD01368000000C0003FFFFFFFE411516150D501368070000C3003FFFFFFFE411516150DD01368070000C3003FFFFFFFE41159
310
25155D04564945578000000C0003FFFFFFFE411594131250232418000000C0003FFFFFFFE4116925690501348000000C0003FFFFFFFD01411112535410650415244494D8000000C0003FFFFFFFE411112535490652454644494D8000000C0003FFFFFFFE419397D3115051102354E8000000C0003FFFFFFFE411354D653501
310
358020000C30048E415514905253105545241494C8000000C0003FFFFFFFE41159151121034849448000000C0003FFFFFFFD0241159151159035649538000000C0003FFFFFFFD02AAA3F400030C0290A4393241D3241919415324111940D194092340519479467F600
340
16
340
16
340
16
340
1C3
340
16
340
16
340
16
340
1C4
340
16
340
B2E
340
B2F
340
1C4
340
B30
340
16
340
16
340
16
340
16
340
16
340
1C3
340
16
340
16
340
16
340
1C4
340
16
340
B2E
340
B2F
340
1C4
340
B30
340
16
340
16
340
1C3
340
16
340
16
340
16
340
16
340
16
340
16
340
16
340
1C3
340
16
340
16
340
16
340
15
340
B2E
340
15
340
15
340
15
340
15
340
15
340
15
340
15
340
15
340
16
340
15
340
15
340
15
340
15
340
15
340
15
340
15
340
15
340
15
340
15
340
15
340
15
340
15
340
15
340
15
340
15
340
15
340
15
340
15
340
15
340
16
340
15
340
15
340
15
340
15
340
16
340
15
340
15
340
15
340
15
340
15
340
15
340
15
340
15
340
15
340
15
340
15
340
15
340
15
340
15
340
15
340
15
340
15
340
15
340
15
340
15
340
15
340
15
340
15
340
15
340
15
340
16
340
15
340
15
340
15
340
15
340
15
340
15
340
15
340
15
340
15
340
15
340
15
340
15
340
15
340
15
340
15
340
15
340
16
340
15
340
15
340
15
340
15
340
16
340
15
340
15
340
15
340
15
340
B2F
340
15
340
15
340
16
340
15
340
15
340
15
340
15
340
B2E
340
15
340
15
340
16
340
15
340
15
340
15
340
15
340
15
340
15
340
15
340
15
340
16
340
15
340
15
340
15
340
15
340
15
340
15
340
15
340
15
340
15
340
15
340
15
340
B32
340
15
340
15
340
15
340
15
340
15
340
15
340
15
 94
        0
1001
ACAD
1000
AcRTDxfName
1000
AMGOBJPROPCFG
  0
ACAD_PROXY_OBJECT
  5
C28
102
{ACAD_REACTORS
330
C27
102
}
330
C27
100
AcDbProxyObject
 90
      499
 91
      578
 95
   131097
 70
     0
 93
      253
310
43D1444494D454E53494F4E2C414D44545F2A5F44494D404A9012A404A9012A8
 94
        0
1001
ACAD
1000
AcRTDxfName
1000
ACAMGFILTERDAT
  0
ACAD_PROXY_OBJECT
  5
C29
102
{ACAD_REACTORS
330
C27
102
}
330
C27
100
AcDbProxyObject
 90
      499
 91
      578
 95
   131097
 70
     0
 93
      181
310
43D012A42D05357D191504B505357CA9012A404A9012A8
 94
        0
1001
ACAD
1000
AcRTDxfName
1000
ACAMGFILTERDAT
  0
ACAD_PROXY_OBJECT
  5
C2A
102
{ACAD_REACTORS
330
C27
102
}
330
C27
100
AcDbProxyObject
 90
      499
 91
      578
 95
   131097
 70
     0
 93
      133
310
43D054841544348404A9012A404A9012AD
 94
        0
1001
ACAD
1000
AcRTDxfName
1000
ACAMGFILTERDAT
  0
ACAD_PROXY_OBJECT
  5
C2B
102
{ACAD_REACTORS
330
C27
102
}
330
C27
100
AcDbProxyObject
 90
      499
 91
      578
 95
   131097
 70
     0
 93
      549
310
43D044C494E4549CE0B0E138B0A8B4E0B0A8B4E138B105357CE0B105357CE138B0A8B505357CE0B0A8B505357CE139012A404A910494E534552542C5354445041525432448
 94
        0
1001
ACAD
1000
AcRTDxfName
1000
ACAMGFILTERDAT
  0
ACAD_PROXY_OBJECT
  5
C2C
102
{ACAD_REACTORS
330
C27
102
}
330
C27
100
AcDbProxyObject
 90
      499
 91
      578
 95
   131097
 70
     0
 93
      909
310
43D6641434D46434652414D452C41434D444154554D5441524745542C41434D444154554D49442C41434D57454C4453594D2C41434D5355524653594D2C41434D4645415449442C41434D504152545245462C41434D42414C4C4F4F4E2C414D44544544474553594D404A9012A404A9012A8
 94
        0
1001
ACAD
1000
AcRTDxfName
1000
ACAMGFILTERDAT
  0
LAYER_INDEX
  5
C3B
102
{ACAD_REACTORS
330
C3A
102
}
330
C3A
100
AcDbIndex
 40
2453718.612510278
100
AcDbLayerIndex
  8
0
360
C3C
 90
        0
  8
PAKSU
360
C3D
 90
        0
  8
RAAMI
360
C3E
 90
        0
  8
OHUT
360
C3F
 90
        0
  8
KESKI
360
C40
 90
        0
  8
KATKO07
360
C42
 90
       36
  8
PISTKATK
360
C43
 90
        4
  8
MITTA
360
C44
 90
      278
  8
APU
360
C45
 90
        0
  8
TEXT25
360
C46
 90
       48
  8
TEXT35
360
C47
 90
        0
  8
TEXT5
360
C48
 90
        0
  8
TEXT7
360
C49
 90
        0
  8
TEXT
360
C4A
 90
        0
  8
AM_TR
360
C4B
 90
        0
  8
AM_BM
360
C4C
 90
        0
  8
AM_BL
360
C4D
 90
        0
  8
AM_VIEWS
360
C4E
 90
        0
  8
AM_PARDIM
360
C4F
 90
        0
  8
AM_REFDIM
360
C50
 90
        0
  8
AM_VIS
360
C51
 90
        0
  8
AM_HID
360
C52
 90
        0
  8
MUOTOVIIVA
360
C53
 90
        0
  8
OHUTVIIVA
360
C54
 90
        0
  8
TEKSTI1.4
360
C55
 90
        0
  0
DICTIONARY
  5
E25
330
1E
100
AcDbDictionary
280
     1
281
     1
  3
ACAD_XREC_ROUNDTRIP
360
E26
  0
DICTIONARY
  5
E29
330
26
100
AcDbDictionary
280
     1
281
     1
  3
ACAD_XREC_ROUNDTRIP
360
E2A
  0
DICTIONARY
  5
E27
330
22
100
AcDbDictionary
280
     1
281
     1
  3
ACAD_XREC_ROUNDTRIP
360
E28
  0
ACAD_PROXY_OBJECT
  5
BF0
102
{ACAD_REACTORS
330
BEF
102
}
330
BEF
100
AcDbProxyObject
 90
      499
 91
      562
 95
   131097
 70
     0
 93
     2331
310
5C40000000000000C408000000C00040D254D3D01640600800030C0200800030C000000000000000C40C88A1E85A0B6B23A22B233B2A9BA3220480A1C82C6DAA6EAE4CCA8CAF0E8A6E8C88120284A0B1B6A321A329BA3220480A1A82C6DAAECAD8C8D2DCCEA6E8C8812028420B1B6A4B229BA3220480A1682C6DA88C2E8EAD
310
AA6E8C88120284A0B1B6A127A6A9BA3220480A1A82C682DACEA8D2E8D8CAA6E8C8812028820B6B23A2232BA30B4B629BCB6A9BA3220480A2282DAC8E8A6CAC6E8D2DEDCA6F2DAA6E8C88120288A0B6B23A21B2B73A32B92634B732A9BA3220480A2282DAC8E8A8D0E4CAC2C898D2DCCAA6E8C88120285A0B6B23A2737BA32A
310
9BA3220480A1682C682DACE98C2F2A6E8C88120285A0B1A0B6B3A234B6A9BA3220480C812020
340
BF1
360
BF2
360
BF3
360
BF4
360
BF6
360
BF8
360
BF9
360
BFC
360
BFD
360
BFE
360
BFF
360
C01
360
C02
360
C03
360
C04
360
C0D
340
0
340
0
 94
        0
1001
ACAD
1000
AcRTDxfName
1000
ACMSTANDARDISO
  0
ACAD_PROXY_OBJECT
  5
B28
102
{ACAD_REACTORS
330
B1F
102
}
330
B1F
100
AcDbProxyObject
 90
      499
 91
      505
 95
   131097
 70
     0
 93
     2766
310
4050B44574753455454494E4753A0E8482A68AA6A88882A0692A69E84A1A0A723A0A92920ACA0A8419983E1A1ABE1B1820C868A9C829C8E82A12686AF87260F862666A8321A2A72224A0A50000000000000122020E868A9C889282A682A106260F86460F8666083A1A2A72224A9AA250000000000000042020C868A9C988A9
310
C94000000000000048808321A2A727A32325000000000000012202128698929C82A4A482B282A106260F86460F866608421A624A722AA2CA820A82AC2624A722A128698929C8AA8B2A08A82A0AB098929C8A84A22BA3AAA9A1A0A622A50A0E9882A6A89E849482A02608426A0A5A2AB24A2ABA7E8120CA0A68682988A0C008
310
00010652455649534941501304154D0D0531150540CC4E8C5085354414E444152444150349534F425512535154D510535412800EFEC046B471CD050756455253494F4E4150531352E3030441ED115D1D4D15515125391D4D153911F4
 94
        0
1001
ACAD
1000
AcRTDxfName
1000
AMGSETTINGSOBJ
  0
ACAD_PROXY_OBJECT
  5
B34
102
{ACAD_REACTORS
330
B1F
102
}
330
B1F
100
AcDbProxyObject
 90
      499
 91
      505
 95
   131097
 70
     0
 93
      852
310
4050D5452414E5353455454494E4753A2488A482AE929C8EA8A4829CA69882A8929E9C0C00800050D4F524947494E414C4C595F4F4E0600400008529A7AAA921A2A620A723A0A81A2A72AA12AAA0A48AA68AA4AC8A0C0080001107B44574753455454494E4753454E447D0
 94
        0
1001
ACAD
1000
AcRTDxfName
1000
AMGSETTINGSOBJ
  0
IDBUFFER
  5
C3C
330
0
100
AcDbIdBuffer
  0
IDBUFFER
  5
C3D
330
0
100
AcDbIdBuffer
  0
IDBUFFER
  5
C3E
330
0
100
AcDbIdBuffer
  0
IDBUFFER
  5
C3F
330
0
100
AcDbIdBuffer
  0
IDBUFFER
  5
C40
330
0
100
AcDbIdBuffer
  0
IDBUFFER
  5
C42
330
0
100
AcDbIdBuffer
330
827
330
828
330
829
330
82B
330
82C
330
82D
330
82E
330
89A
330
89B
330
89C
330
8C2
330
8C3
330
8C4
330
8EA
330
8EB
330
8EC
330
8EF
330
8F0
330
9C0
330
9C1
330
9F7
330
9F8
330
9F9
330
9FA
330
9FC
330
9FD
330
9FE
330
9FF
330
A0F
330
A10
330
A11
330
A12
330
A22
330
A23
330
A24
330
A25
  0
IDBUFFER
  5
C43
330
0
100
AcDbIdBuffer
330
6FC
330
6FD
330
823
330
824
  0
IDBUFFER
  5
C44
330
0
100
AcDbIdBuffer
330
446
330
72D
330
72E
330
72F
330
7D5
330
7D6
330
7D7
330
7D9
330
7DA
330
7DF
330
7E7
330
7EA
330
7EB
330
7EC
330
7ED
330
7EE
330
7EF
330
7F0
330
7F1
330
7F2
330
7F3
330
7F4
330
7F8
330
7FC
330
7FD
330
7FE
330
7FF
330
800
330
801
330
802
330
804
330
805
330
806
330
807
330
808
330
809
330
80A
330
80B
330
80C
330
80D
330
80E
330
80F
330
810
330
811
330
812
330
813
330
814
330
815
330
816
330
817
330
818
330
819
330
81A
330
81B
330
81C
330
81D
330
81E
330
81F
330
820
330
873
330
874
330
875
330
876
330
877
330
878
330
879
330
87A
330
87B
330
87C
330
87D
330
87E
330
87F
330
880
330
881
330
882
330
883
330
884
330
885
330
886
330
887
330
888
330
889
330
88A
330
88B
330
88C
330
88D
330
88E
330
88F
330
890
330
891
330
892
330
893
330
894
330
895
330
896
330
897
330
898
330
899
330
89D
330
89E
330
89F
330
8A0
330
8A1
330
8A2
330
8A3
330
8A4
330
8A5
330
8A6
330
8A7
330
8A8
330
8A9
330
8AA
330
8AB
330
8AC
330
8AD
330
8AE
330
8AF
330
8B0
330
8B1
330
8B2
330
8B3
330
8B4
330
8B5
330
8B6
330
8B7
330
8B8
330
8B9
330
8BA
330
8BB
330
8BC
330
8BD
330
8BE
330
8BF
330
8C0
330
8C1
330
8C5
330
8C6
330
8C7
330
8C8
330
8C9
330
8CA
330
8CB
330
8CC
330
8CD
330
8CE
330
8CF
330
8D0
330
8D1
330
8D2
330
8D3
330
8D4
330
8D5
330
8D6
330
8D7
330
8D8
330
8D9
330
8DA
330
8DB
330
8DC
330
8DD
330
8DE
330
8DF
330
8E0
330
8E1
330
8E2
330
8E3
330
8E4
330
8E5
330
8E6
330
8E7
330
8E8
330
8E9
330
8ED
330
8EE
330
8F1
330
8F2
330
8F3
330
8F4
330
8F5
330
8F6
330
8F7
330
8F8
330
8F9
330
8FA
330
8FB
330
8FC
330
8FD
330
8FE
330
8FF
330
900
330
901
330
902
330
92F
330
930
330
931
330
932
330
933
330
934
330
935
330
936
330
937
330
938
330
9A8
330
9A9
330
9AA
330
9AB
330
9AC
330
9AD
330
9AE
330
9AF
330
9B0
330
9B1
330
9B2
330
9B3
330
9B5
330
9B6
330
9B7
330
9B8
330
9BA
330
9BB
330
9BC
330
9BD
330
9BE
330
9BF
330
9E8
330
9E9
330
9EA
330
9EB
330
9EC
330
9ED
330
9EE
330
9F3
330
9F4
330
9F5
330
A00
330
A01
330
A02
330
A03
330
A04
330
A06
330
A08
330
A09
330
A0A
330
A0B
330
A0C
330
A13
330
A14
330
A15
330
A16
330
A17
330
A18
330
A19
330
A1A
330
A1B
330
A1C
330
A1D
330
A1E
330
A1F
330
A20
330
A26
330
A27
330
A28
330
A29
330
A2A
330
A2B
330
A2C
330
A2D
330
A2E
330
A2F
330
A30
330
A31
330
A32
330
A33
330
A34
330
A35
330
A36
330
A37
330
A38
  0
IDBUFFER
  5
C45
330
0
100
AcDbIdBuffer
  0
IDBUFFER
  5
C46
330
0
100
AcDbIdBuffer
330
E19
330
70F
330
710
330
713
330
717
330
718
330
719
330
71A
330
71B
330
844
330
845
330
846
330
861
330
862
330
863
330
864
330
865
330
866
330
868
330
869
330
86A
330
86B
330
86C
330
86D
330
86E
330
86F
330
983
330
9B9
330
9EF
330
9F0
330
9F1
330
9F6
330
A05
330
A07
330
A0D
330
A55
330
A56
330
A57
330
A58
330
A59
330
A5A
330
A5B
330
A5C
330
A9D
330
A9E
330
AA6
330
AA7
330
DE2
  0
IDBUFFER
  5
C47
330
0
100
AcDbIdBuffer
  0
IDBUFFER
  5
C48
330
0
100
AcDbIdBuffer
  0
IDBUFFER
  5
C49
330
0
100
AcDbIdBuffer
  0
IDBUFFER
  5
C4A
330
0
100
AcDbIdBuffer
  0
IDBUFFER
  5
C4B
330
0
100
AcDbIdBuffer
  0
IDBUFFER
  5
C4C
330
0
100
AcDbIdBuffer
  0
IDBUFFER
  5
C4D
330
0
100
AcDbIdBuffer
  0
IDBUFFER
  5
C4E
330
0
100
AcDbIdBuffer
  0
IDBUFFER
  5
C4F
330
0
100
AcDbIdBuffer
  0
IDBUFFER
  5
C50
330
0
100
AcDbIdBuffer
  0
IDBUFFER
  5
C51
330
0
100
AcDbIdBuffer
  0
IDBUFFER
  5
C52
330
0
100
AcDbIdBuffer
  0
IDBUFFER
  5
C53
330
0
100
AcDbIdBuffer
  0
IDBUFFER
  5
C54
330
0
100
AcDbIdBuffer
  0
IDBUFFER
  5
C55
330
0
100
AcDbIdBuffer
  0
XRECORD
  5
E26
102
{ACAD_REACTORS
330
E25
102
}
330
E25
100
AcDbXrecord
280
     1
102
SHADEPLOT
 70
     0
102
SHADEPLOTRESLEVEL
 70
     2
102
SHADEPLOTCUSTOMDPI
 70
   300
  0
XRECORD
  5
E2A
102
{ACAD_REACTORS
330
E29
102
}
330
E29
100
AcDbXrecord
280
     1
102
SHADEPLOT
 70
     0
102
SHADEPLOTRESLEVEL
 70
     2
102
SHADEPLOTCUSTOMDPI
 70
   300
  0
XRECORD
  5
E28
102
{ACAD_REACTORS
330
E27
102
}
330
E27
100
AcDbXrecord
280
     1
102
SHADEPLOT
 70
     0
102
SHADEPLOTRESLEVEL
 70
     2
102
SHADEPLOTCUSTOMDPI
 70
   300
  0
ACAD_PROXY_OBJECT
  5
BF2
330
BF0
100
AcDbProxyObject
 90
      499
 91
      563
 95
   131097
 70
     0
 93
       12
310
5C58
 94
        0
1001
ACAD
1000
AcRTDxfName
1000
AMDTEDGESTANDARDISO
  0
ACAD_PROXY_OBJECT
  5
BF3
330
BF0
100
AcDbProxyObject
 90
      499
 91
      564
 95
   131097
 70
     0
 93
       96
310
5C6A0E80A0280A0280A0280F00
 94
        0
1001
ACAD
1000
AcRTDxfName
1000
ACMSURFSTANDARDISO
  0
ACAD_PROXY_OBJECT
  5
BF4
330
BF0
100
AcDbProxyObject
 90
      499
 91
      565
 95
   131097
 70
     0
 93
      272
310
5C50E4050140501405014050140501405014050140D01405012C000000000000004000
340
BF5
 94
        0
1001
ACAD
1000
AcRTDxfName
1000
ACMFCFSTANDARDISO
  0
ACAD_PROXY_OBJECT
  5
BF6
330
BF0
100
AcDbProxyObject
 90
      499
 91
      566
 95
   131097
 70
     0
 93
      496
310
5C68666666666667A67E199999999999E99FD22405014050140501405014050140501405014050140501405014050140501405014050140501405014050170
340
BF7
 94
        0
1001
ACAD
1000
AcRTDxfName
1000
ACMWELDSTANDARDISO
  0
ACAD_PROXY_OBJECT
  5
BF8
330
BF0
100
AcDbProxyObject
 90
      499
 91
      567
 95
   131097
 70
     0
 93
       10
310
5C78
 94
        0
1001
ACAD
1000
AcRTDxfName
1000
ACMIDSTANDARDISO
  0
ACAD_PROXY_OBJECT
  5
BF9
330
BF0
100
AcDbProxyObject
 90
      499
 91
      568
 95
   131097
 70
     0
 93
      257
310
5C6290EA22A7D90F49F80000000000001081400000000000004204010000618040
340
BFA
340
BFB
 94
        0
1001
ACAD
1000
AcRTDxfName
1000
ACMDATUMSTANDARDISO
  0
ACAD_PROXY_OBJECT
  5
BFC
330
BF0
100
AcDbProxyObject
 90
      499
 91
      569
 95
   131097
 70
     0
 93
     5090
310
5C507411255115350141125D195B501406A9010000000000000910240690120281A8AA2CA0281A8BA3CA028152032020000000000001220480D20240506445241574E4F4050E44726177696E67206E756D6265724051D4050141A8000000000040574090190C3D3C504152543A4E414D453E40480A0A888AA686A480A1688C
310
AE6C6E4D2E0E8D2DEDC80A3B48150000000000100A28120321E7A788286BE888AA686A492A0A89C7C809014214D51053911054911014214DD185B99185C99101476903A000000000000125024049012028426A0AA22A924A0A62028426B0BA32B934B0B62028ED2094389E856BD1B822A04809202405044E414D45405044E6
310
16D654051CA4168000000000080514090110C3D3C504152543A4E414D453E40480A0E88A040000000000000620400800061800020300000000000007C800000000000001F2020E7A7892A88A9A7C80A0300000000000007C800000000000001F2020E7A7892A88A9A7C80A03000000000000068800000000000001A2020E7A
310
7892A88A9A7C80A03000000000000068800000000000001A2020E7A7892A88A9A7C80A052020000000000001F2000000000000007C80839E9E24AA22A69F202831E9E28AA2C9F20280C0000000000001F2000000000000007C80839E9E24AA22A69F203202000000000000001F2000000000000007C8144400000000000000
310
408000000C00090440D0340902405019104290891040690A406908A4050A4290A429028000000000001E17E000000000000785FA03002000186010020001860066E666666666761F99B9999999999D87E0000000000000620240682C80A0481A0920340000000000000C408020000C3008010000C3008020000C300404C501
310
4040
340
0
340
0
 94
        0
1001
ACAD
1000
AcRTDxfName
1000
ACMBOMSTANDARDISO
  0
ACAD_PROXY_OBJECT
  5
BFD
330
BF0
100
AcDbProxyObject
 90
      499
 91
      570
 95
   131097
 70
     0
 93
    10182
310
5C59740D254D3D026134425CDD58985D5D1BDD1CD1349534F5F42525F5265766973696F6E6C69737447911413478342028323937783834316D6D2920421254D3D7D04D1E0D11141327835202835393478323130326D6D29421254D3D7D04C9E0D50261304C10CE97131BD8D05C1C1CD7105D5D1BD9195CDAD71351150D9718
310
58D8591B5711D95B97111DD9D7119BDC9B585D17184C11141347839202832393778313839326D6D29421254D3D7D04D1E0E51141337837202834323078323038306D6D29421254D3D7D04CDE0DD0261314C10CE97131BD8D05C1C1CD7105D5D1BD9195CDAD71351150D971858D8591B5711D95B97111DD9D7119BDC9B585D1
310
7184C51141347838202832393778313638326D6D29421254D3D7D04D1E0E11141327834202835393478313638326D6D29421254D3D7D04C9E0D10E41312028353934783834316D6D29419254D3D7D04C50261324C10CE97131BD8D05C1C1CD7105D5D1BD9195CDAD71351150D971858D8591B5711D95B97111DD9D7119BDC9
310
B585D17184C91141347837202832393778313437316D6D29421254D3D7D04D1E0DD1141347836202832393778313236316D6D29421254D3D7D04D1E0D91141347835202832393778313035316D6D29421254D3D7D04D1E0D5104130202838343078313138396D6D2920419254D3D7D04C10E41332028323937783432306D6D
310
29419254D3D7D04CD0261334C10CE97131BD8D05C1C1CD7105D5D1BD9195CDAD71351150D971858D8591B5711D95B97111DD9D7119BDC9B585D17184CD1141327833202835393478313236316D6D29421254D3D7D04C9E0CD0261344C10CE97131BD8D05C1C1CD7105D5D1BD9195CDAD71351150D971858D8591B5711D95B9
310
7111DD9D7119BDC9B585D17184D110413478332028323937783633306D6D29421254D3D7D04D1E0CD1141337834202834323078313138396D6D29421254D3D7D04CDE0D11141337836202834323078313738336D6D29421254D3D7D04CDE0D91141337835202834323078313438366D6D29421254D3D7D04CDE0D50E413220
310
28343230783539346D6D29419254D3D7D04C910413378332028343230783839316D6D29421254D3D7D04CDE0CD0E41342028323937783231306D6D29419254D3D7D04D1124130783220283131383978313638326D6D29421254D3D7D04C1E0C9036133764C50CE97131BD8D05C1C1CD7105D5D1BD9195CDAD71351150D9718
310
58D8591B5711D95B97111DD9D7119BDC9B585D17184CDD9124130783320283131383978323532336D6D29421254D3D7D04C1E0CD1141317834202838343178323337386D6D29421254D3D7D04C5E0D11141317833202838343178313738336D6D29421254D3D7D04C5E0CD03425CDD58985D5D1BDD1CD36433A5C4C6F63417
310
070735C4175746F6465736B5C4D4454365C616361646D5C47656E5C4477675C5469746C655C7375626175746F7473445254D3C8151A5D1B1948109B1BD8DAC81050A49534F5F5449544C4541445254D3C8151A5D1B1948109B1BD8DAC81090A49534F5F5449544C4542411105265766973696F6E6C6973745F424C5F44D254
310
D3D7D09317D4995D9A5CDA5BDB9B1A5CDD1105265766973696F6E6C6973745F544C5F44D254D3D7D51317D4995D9A5CDA5BDB9B1A5CDD1105265766973696F6E6C6973745F42525F44D254D3D7D09497D4995D9A5CDA5BDB9B1A5CDD1105265766973696F6E6C6973745F54525F44D254D3D7D51497D4995D9A5CDA5BDB9B1
310
A5CDD0
 94
        0
1001
ACAD
1000
AcRTDxfName
1000
ACAMGTITLESTD
  0
ACAD_PROXY_OBJECT
  5
BFE
330
BF0
100
AcDbProxyObject
 90
      499
 91
      571
 95
   131097
 70
     0
 93
      898
310
5C44000000000000144048CF4F11115510525317D3105091530F880A0F11115510525317D05094D4D0D053114F8A51141C9A9999999999B93F26A666666666724FC000000000000E03F400000000000000400000000000000510000000000000024408070000C300000000000000051005
340
16
340
BF1
 94
        0
1001
ACAD
1000
AcRTDxfName
1000
ACMDETAILSTANDARDISO
  0
ACAD_PROXY_OBJECT
  5
BFF
330
BF0
100
AcDbProxyObject
 90
      499
 91
      572
 95
   131097
 70
     0
 93
      813
310
5C40B00000000000002880959E9E29A2A1AA24A7A72FA620A122A62FA324A929AA1F169E29A2A1AA24A7A72FA620A122A62FA620A9AA1F00000000000004880FF8070000C30022300E000186000000000000001220000000000000028800000000000000A200
340
1BC
340
BF1
 94
        0
1001
ACAD
1000
AcRTDxfName
1000
ACMSECTIONSTANDARDISO
  0
ACAD_PROXY_OBJECT
  5
C01
330
BF0
100
AcDbProxyObject
 90
      499
 91
      573
 95
   131097
 70
     0
 93
      279
310
5C40000000000001040199999999999819006666666666660640A3D0A5723F0BD1F201
 94
        0
1001
ACAD
1000
AcRTDxfName
1000
ACMCENTERLINESTANDARDISO
  0
ACAD_PROXY_OBJECT
  5
C02
330
BF0
100
AcDbProxyObject
 90
      499
 91
      574
 95
   131097
 70
     0
 93
       78
310
5C4666666666666E63F1
340
0
 94
        0
1001
ACAD
1000
AcRTDxfName
1000
ACMTHREADLINESTANDARDISO
  0
ACAD_PROXY_OBJECT
  5
C03
330
BF0
100
AcDbProxyObject
 90
      499
 91
      575
 95
   131097
 70
     0
 93
     8109
310
5C5084050BA4050AA405024050A54656D706C61746520314043A013D2525633C486F6C653A63746469613E2078203C486F6C653A637464657074683E20555C503C696628657175616C28486F6C653A7461707065642C223022292C22252563222C486F6C653A6E6F6D696E616C202220782022293E3C696628657175616C28
310
486F6C653A7461707065642C223022292C486F6C653A6469612C486F6C653A706974636864657363293E3C696628657175616C28486F6C653A7461707065642C223122292C22207820222C2222293E3C696628657175616C28486F6C653A7461707065642C223122292C486F6C653A74617064657074682C2222293E203C69
310
6628657175616C28486F6C653A7465726D696E6174696F6E2C223022292C22202F20222C2222293E3C696628657175616C28486F6C653A7465726D696E6174696F6E2C223022292C486F6C653A64657074682C2222293E406A405034050A54656D706C61746520314043B013D2525633C486F6C653A63746469613E2078203
310
C486F6C653A6374616E676C653E2525645C503C696628657175616C28486F6C653A7461707065642C223022292C22252563222C486F6C653A6E6F6D696E616C202220782022293E3C696628657175616C28486F6C653A7461707065642C223022292C486F6C653A6469612C486F6C653A706974636864657363293E3C69662
310
8657175616C28486F6C653A7461707065642C223122292C22207820222C2222293E3C696628657175616C28486F6C653A7461707065642C223122292C486F6C653A74617064657074682C2222293E203C696628657175616C28486F6C653A7465726D696E6174696F6E2C223022292C22202F20222C2222293E3C696628657
310
175616C28486F6C653A7465726D696E6174696F6E2C223022292C486F6C653A64657074682C2222293E406A405014050A54656D706C617465203140416013D3C696628657175616C28486F6C653A7461707065642C223022292C22252563222C486F6C653A6E6F6D696E616C202220782022293E3C696628657175616C2848
310
6F6C653A7461707065642C223022292C486F6C653A6469612C486F6C653A706974636864657363293E3C696628657175616C28486F6C653A7461707065642C223122292C22207820222C2222293E3C696628657175616C28486F6C653A7461707065642C223122292C486F6C653A74617064657074682C2222293E203C6966
310
28657175616C28486F6C653A7465726D696E6174696F6E2C223022292C22202F20222C2222293E3C696628657175616C28486F6C653A7465726D696E6174696F6E2C223022292C486F6C653A64657074682C2222293E406A4051E4050A54656D706C61746520314050C3D3C535444503A444553433E406A40515AA8AE0
360
0
360
0
360
0
360
0
 94
        0
1001
ACAD
1000
AcRTDxfName
1000
ACMNOTESTANDARDISO
  0
ACAD_PROXY_OBJECT
  5
C04
330
BF0
100
AcDbProxyObject
 90
      499
 91
      576
 95
   131097
 70
     0
 93
       26
310
5C502A80
340
B2C
 94
        0
1001
ACAD
1000
AcRTDxfName
1000
ACAMGLAYSTD
  0
ACAD_PROXY_OBJECT
  5
C0D
330
BF0
100
AcDbProxyObject
 90
      499
 91
      577
 95
   131097
 70
     0
 93
      250
310
5C5020000000000000A1000000000000002440408F0F9023C3E409A0DCFFFFBC
340
C0E
340
0
340
0
340
C10
340
C11
340
C12
340
C1B
340
C1C
340
C1D
340
C0E
 94
        0
1001
ACAD
1000
AcRTDxfName
1000
ACAMGDIMSTD
  0
ENDSEC
  0
EOF
