  0
SECTION
  2
HEADER
  9
$ACADVER
  1
AC1009
  9
$DWGCODEPAGE
  3
iso8859-1
  9
$INSBASE
 10
0.0
 20
0.0
 30
0.0
  9
$EXTMIN
 10
1.0E20
 20
1.0E20
  9
$EXTMAX
 10
-1.0E20
 20
-1.0E20
  9
$LIMMIN
 10
0.0
 20
0.0
  9
$LIMMAX
 10
12.0
 20
9.0
  9
$ORTHOMODE
 70
     0
  9
$REGENMODE
 70
     1
  9
$FILLMODE
 70
     1
  9
$QTEXTMODE
 70
     0
  9
$MIRRTEXT
 70
     1
  9
$DRAGMODE
 70
     2
  9
$LTSCALE
 40
15.0
  9
$OSMODE
 70
     0
  9
$ATTMODE
 70
     1
  9
$TEXTSIZE
 40
0.2
  9
$TRACEWID
 40
0.05
  9
$TEXTSTYLE
  7
STANDARD
  9
$CLAYER
  8
0
  9
$CELTYPE
  6
DASHED
  9
$CECOLOR
 62
   256
  9
$DIMSCALE
 40
1.0
  9
$DIMASZ
 40
0.18
  9
$DIMEXO
 40
0.0625
  9
$DIMDLI
 40
0.38
  9
$DIMRND
 40
0.0
  9
$DIMDLE
 40
0.0
  9
$DIMEXE
 40
0.18
  9
$DIMTP
 40
0.0
  9
$DIMTM
 40
0.0
  9
$DIMTXT
 40
0.18
  9
$DIMCEN
 40
0.09
  9
$DIMTSZ
 40
0.0
  9
$DIMTOL
 70
     0
  9
$DIMLIM
 70
     0
  9
$DIMTIH
 70
     1
  9
$DIMTOH
 70
     1
  9
$DIMSE1
 70
     0
  9
$DIMSE2
 70
     0
  9
$DIMTAD
 70
     0
  9
$DIMZIN
 70
     0
  9
$DIMBLK
  1

  9
$DIMASO
 70
     1
  9
$DIMSHO
 70
     1
  9
$DIMPOST
  1

  9
$DIMAPOST
  1

  9
$DIMALT
 70
     0
  9
$DIMALTD
 70
     2
  9
$DIMALTF
 40
25.4
  9
$DIMLFAC
 40
1.0
  9
$DIMTOFL
 70
     0
  9
$DIMTVP
 40
0.0
  9
$DIMTIX
 70
     0
  9
$DIMSOXD
 70
     0
  9
$DIMSAH
 70
     0
  9
$DIMBLK1
  1

  9
$DIMBLK2
  1

  9
$DIMSTYLE
  2
STANDARD
  9
$DIMCLRD
 70
     0
  9
$DIMCLRE
 70
     0
  9
$DIMCLRT
 70
     0
  9
$DIMTFAC
 40
1.0
  9
$DIMGAP
 40
0.09
  9
$LUNITS
 70
     2
  9
$LUPREC
 70
     4
  9
$AXISMODE
 70
     0
  9
$AXISUNIT
 10
0.0
 20
0.0
  9
$SKETCHINC
 40
0.1
  9
$FILLETRAD
 40
0.0
  9
$AUNITS
 70
     0
  9
$AUPREC
 70
     0
  9
$MENU
  1
acad
  9
$ELEVATION
 40
0.0
  9
$PELEVATION
 40
0.0
  9
$THICKNESS
 40
0.0
  9
$LIMCHECK
 70
     0
  9
$BLIPMODE
 70
     1
  9
$CHAMFERA
 40
0.0
  9
$CHAMFERB
 40
0.0
  9
$SKPOLY
 70
     0
  9
$TDCREATE
 40
0.000000000
  9
$TDUPDATE
 40
0.000000000
  9
$TDINDWG
 40
0.0
  9
$TDUSRTIMER
 40
0.0
  9
$USRTIMER
 70
     1
  9
$ANGBASE
 50
0.0
  9
$ANGDIR
 70
     0
  9
$PDMODE
 70
     0
  9
$PDSIZE
 40
0.0
  9
$PLINEWID
 40
0.0
  9
$COORDS
 70
     1
  9
$SPLFRAME
 70
     0
  9
$SPLINETYPE
 70
     6
  9
$SPLINESEGS
 70
     8
  9
$ATTDIA
 70
     0
  9
$ATTREQ
 70
     1
  9
$HANDLING
 70
     1
  9
$HANDSEED
  5
   6EF
  9
$SURFTAB1
 70
     6
  9
$SURFTAB2
 70
     6
  9
$SURFTYPE
 70
     6
  9
$SURFU
 70
     6
  9
$SURFV
 70
     6
  9
$UCSNAME
  2

  9
$UCSORG
 10
0.0
 20
0.0
 30
0.0
  9
$UCSXDIR
 10
1.0
 20
0.0
 30
0.0
  9
$UCSYDIR
 10
0.0
 20
1.0
 30
0.0
  9
$PUCSNAME
  2

  9
$PUCSORG
 10
0.0
 20
0.0
 30
0.0
  9
$PUCSXDIR
 10
1.0
 20
0.0
 30
0.0
  9
$PUCSYDIR
 10
0.0
 20
1.0
 30
0.0
  9
$USERI1
 70
     0
  9
$USERI2
 70
     0
  9
$USERI3
 70
     0
  9
$USERI4
 70
     0
  9
$USERI5
 70
     0
  9
$USERR1
 40
0.0
  9
$USERR2
 40
0.0
  9
$USERR3
 40
0.0
  9
$USERR4
 40
0.0
  9
$USERR5
 40
0.0
  9
$WORLDVIEW
 70
     1
  9
$SHADEDGE
 70
     3
  9
$SHADEDIF
 70
    70
  9
$TILEMODE
 70
     1
  9
$MAXACTVP
 70
    16
  9
$PINSBASE
 10
0.0
 20
0.0
 30
0.0
  9
$PLIMCHECK
 70
     0
  9
$PEXTMIN
 10
1.0E20
 20
1.0E20
 30
1.0E20
  9
$PEXTMAX
 10
-1.0E20
 20
-1.0E20
 30
-1.0E20
  9
$PLIMMIN
 10
0.0
 20
0.0
  9
$PLIMMAX
 10
12.0
 20
9.0
  9
$UNITMODE
 70
     0
  9
$VISRETAIN
 70
     0
  0
ENDSEC
  0
SECTION
  2
TABLES
  0
TABLE
  2
VPORT
 70
     1
  0
VPORT
  2
*ACTIVE
 70
     0
 10
0.0
 20
0.0
 11
1.0
 21
1.0
 12
6.801242
 22
4.5
 13
0.0
 23
0.0
 14
1.0
 24
1.0
 15
0.0
 25
0.0
 16
0.0
 26
0.0
 36
1.0
 17
0.0
 27
0.0
 37
0.0
 40
9.0
 41
1.511387
 42
50.0
 43
0.0
 44
0.0
 50
0.0
 51
0.0
 71
     0
 72
   100
 73
     1
 74
     1
 75
     0
 76
     0
 77
     0
 78
     0
  0
ENDTAB
  0
TABLE
  2
LTYPE
 70
    41
  0
LTYPE
  2
BYBLOCK
 70
     0
  3

 72
    65
 73
     0
 40
0.0
  0
LTYPE
  2
BYLAYER
 70
     0
  3

 72
    65
 73
     0
 40
0.0
  0
LTYPE
  2
CONTINUOUS
 70
     0
  3
Solid line
 72
    65
 73
     0
 40
0.0
  0
LTYPE
  2
BORDER
 70
    64
  3
__ __ . __ __ . __ __ . __ __ . __ __ . __ __ .
 72
    65
 73
     6
 40
1.75
 49
0.5
 49
-0.25
 49
0.5
 49
-0.25
 49
0.0
 49
-0.25
  0
LTYPE
  2
BORDER2
 70
    64
  3
__.__.__.__.__.__.__.__.__.__.__.__.__.__.__.__
 72
    65
 73
     6
 40
0.875
 49
0.25
 49
-0.125
 49
0.25
 49
-0.125
 49
0.0
 49
-0.125
  0
LTYPE
  2
BORDERX2
 70
    64
  3
____  ____  .  ____  ____  .  ____  ____  .  __
 72
    65
 73
     6
 40
3.5
 49
1.0
 49
-0.5
 49
1.0
 49
-0.5
 49
0.0
 49
-0.5
  0
LTYPE
  2
CENTER
 70
    64
  3
____ _ ____ _ ____ _ ____ _ ____ _ ____ _ ____
 72
    65
 73
     4
 40
2.0
 49
1.25
 49
-0.25
 49
0.25
 49
-0.25
  0
LTYPE
  2
CENTER2
 70
    64
  3
___ _ ___ _ ___ _ ___ _ ___ _ ___ _ ___ _ ___ _
 72
    65
 73
     4
 40
1.125
 49
0.75
 49
-0.125
 49
0.125
 49
-0.125
  0
LTYPE
  2
CENTERX2
 70
    64
  3
________  __  ________  __  ________  __  _____
 72
    65
 73
     4
 40
4.0
 49
2.5
 49
-0.5
 49
0.5
 49
-0.5
  0
LTYPE
  2
DASHDOT
 70
    64
  3
__ . __ . __ . __ . __ . __ . __ . __ . __ . __
 72
    65
 73
     4
 40
1.0
 49
0.5
 49
-0.25
 49
0.0
 49
-0.25
  0
LTYPE
  2
DASHDOT2
 70
    64
  3
_._._._._._._._._._._._._._._._._._._._._._._._
 72
    65
 73
     4
 40
0.5
 49
0.25
 49
-0.125
 49
0.0
 49
-0.125
  0
LTYPE
  2
DASHDOTX2
 70
    64
  3
____  .  ____  .  ____  .  ____  .  ____  .  __
 72
    65
 73
     4
 40
2.0
 49
1.0
 49
-0.5
 49
0.0
 49
-0.5
  0
LTYPE
  2
DASHED
 70
    64
  3
__ __ __ __ __ __ __ __ __ __ __ __ __ __ __ __
 72
    65
 73
     2
 40
0.75
 49
0.5
 49
-0.25
  0
LTYPE
  2
DASHED2
 70
    64
  3
_ _ _ _ _ _ _ _ _ _ _ _ _ _ _ _ _ _ _ _ _ _ _ _
 72
    65
 73
     2
 40
0.375
 49
0.25
 49
-0.125
  0
LTYPE
  2
DASHEDX2
 70
    64
  3
____  ____  ____  ____  ____  ____  ____  ____
 72
    65
 73
     2
 40
1.5
 49
1.0
 49
-0.5
  0
LTYPE
  2
DIVIDE
 70
    64
  3
____ . . ____ . . ____ . . ____ . . ____ . . __
 72
    65
 73
     6
 40
1.25
 49
0.5
 49
-0.25
 49
0.0
 49
-0.25
 49
0.0
 49
-0.25
  0
LTYPE
  2
DIVIDE2
 70
    64
  3
__..__..__..__..__..__..__..__..__..__..__..__.
 72
    65
 73
     6
 40
0.625
 49
0.25
 49
-0.125
 49
0.0
 49
-0.125
 49
0.0
 49
-0.125
  0
LTYPE
  2
DIVIDEX2
 70
    64
  3
________  .  .  ________  .  .  ________  .  .
 72
    65
 73
     6
 40
2.5
 49
1.0
 49
-0.5
 49
0.0
 49
-0.5
 49
0.0
 49
-0.5
  0
LTYPE
  2
DOT
 70
    64
  3
. . . . . . . . . . . . . . . . . . . . . . . .
 72
    65
 73
     2
 40
0.25
 49
0.0
 49
-0.25
  0
LTYPE
  2
DOT2
 70
    64
  3
...............................................
 72
    65
 73
     2
 40
0.125
 49
0.0
 49
-0.125
  0
LTYPE
  2
DOTX2
 70
    64
  3
.  .  .  .  .  .  .  .  .  .  .  .  .  .  .  .
 72
    65
 73
     2
 40
0.5
 49
0.0
 49
-0.5
  0
LTYPE
  2
HIDDEN
 70
    64
  3
__ __ __ __ __ __ __ __ __ __ __ __ __ __ __ __
 72
    65
 73
     2
 40
0.375
 49
0.25
 49
-0.125
  0
LTYPE
  2
HIDDEN2
 70
    64
  3
_ _ _ _ _ _ _ _ _ _ _ _ _ _ _ _ _ _ _ _ _ _ _ _
 72
    65
 73
     2
 40
0.1875
 49
0.125
 49
-0.0625
  0
LTYPE
  2
HIDDENX2
 70
    64
  3
____ ____ ____ ____ ____ ____ ____ ____ ____ __
 72
    65
 73
     2
 40
0.75
 49
0.5
 49
-0.25
  0
LTYPE
  2
PHANTOM
 70
    64
  3
______  __  __  ______  __  __  ______  __  __
 72
    65
 73
     6
 40
2.5
 49
1.25
 49
-0.25
 49
0.25
 49
-0.25
 49
0.25
 49
-0.25
  0
LTYPE
  2
PHANTOM2
 70
    64
  3
___ _ _ ___ _ _ ___ _ _ ___ _ _ ___ _ _ ___ _ _
 72
    65
 73
     6
 40
1.25
 49
0.625
 49
-0.125
 49
0.125
 49
-0.125
 49
0.125
 49
-0.125
  0
LTYPE
  2
PHANTOMX2
 70
    64
  3
____________    ____    ____    ____________
 72
    65
 73
     6
 40
5.0
 49
2.5
 49
-0.5
 49
0.5
 49
-0.5
 49
0.5
 49
-0.5
  0
LTYPE
  2
ACAD_ISO02W100
 70
    64
  3
__ __ __ __ __ __ __ __ __ __ __ __ __ __ __ __
 72
    65
 73
     2
 40
15.0
 49
12.0
 49
-3.0
  0
LTYPE
  2
ACAD_ISO03W100
 70
    64
  3
__    __    __    __    __    __    __    __
 72
    65
 73
     2
 40
30.0
 49
12.0
 49
-18.0
  0
LTYPE
  2
ACAD_ISO04W100
 70
    64
  3
____ . ____ . ____ . ____ . ____ . ____ . ____
 72
    65
 73
     4
 40
30.5
 49
24.0
 49
-3.0
 49
0.5
 49
-3.0
  0
LTYPE
  2
ACAD_ISO05W100
 70
    64
  3
____ .. ____ .. ____ .. ____ .. ____ .. ____ ..
 72
    65
 73
     6
 40
34.0
 49
24.0
 49
-3.0
 49
0.5
 49
-3.0
 49
0.5
 49
-3.0
  0
LTYPE
  2
ACAD_ISO06W100
 70
    64
  3
____ ... ____ ... ____ ... ____ ... ____ ... __
 72
    65
 73
     8
 40
37.5
 49
24.0
 49
-3.0
 49
0.5
 49
-3.0
 49
0.5
 49
-3.0
 49
0.5
 49
-3.0
  0
LTYPE
  2
ACAD_ISO07W100
 70
    64
  3
. . . . . . . . . . . . . . . . . . . . . . . .
 72
    65
 73
     2
 40
3.5
 49
0.5
 49
-3.0
  0
LTYPE
  2
ACAD_ISO08W100
 70
    64
  3
____ __ ____ __ ____ __ ____ ____ __ __ ____ __
 72
    65
 73
     4
 40
36.0
 49
24.0
 49
-3.0
 49
6.0
 49
-3.0
  0
LTYPE
  2
ACAD_ISO09W100
 70
    64
  3
____ __ __ ____ __ __ ____ __ __ ____ __ __ ___
 72
    65
 73
     6
 40
45.0
 49
24.0
 49
-3.0
 49
6.0
 49
-3.0
 49
6.0
 49
-3.0
  0
LTYPE
  2
ACAD_ISO10W100
 70
    64
  3
__ . __ . __ . __ . __ . __ . __ . __ . __ . __
 72
    65
 73
     4
 40
18.5
 49
12.0
 49
-3.0
 49
0.5
 49
-3.0
  0
LTYPE
  2
ACAD_ISO11W100
 70
    64
  3
__ __ . __ __ . __ __ . __ __ . __ __ . __ __ .
 72
    65
 73
     6
 40
33.5
 49
12.0
 49
-3.0
 49
12.0
 49
-3.0
 49
0.5
 49
-3.0
  0
LTYPE
  2
ACAD_ISO12W100
 70
    64
  3
__ . . __ . . __ . . __ . . __ . . __ . . __ .
 72
    65
 73
     6
 40
22.0
 49
12.0
 49
-3.0
 49
0.5
 49
-3.0
 49
0.5
 49
-3.0
  0
LTYPE
  2
ACAD_ISO13W100
 70
    64
  3
__ __ . . __ __ . . __ __ . . __ __ . . __ __ .
 72
    65
 73
     8
 40
37.0
 49
12.0
 49
-3.0
 49
12.0
 49
-3.0
 49
0.5
 49
-3.0
 49
0.5
 49
-3.0
  0
LTYPE
  2
ACAD_ISO14W100
 70
    64
  3
__ . . . __ . . . __ . . . __ . . . __ . . . __
 72
    65
 73
     8
 40
25.5
 49
12.0
 49
-3.0
 49
0.5
 49
-3.0
 49
0.5
 49
-3.0
 49
0.5
 49
-3.0
  0
LTYPE
  2
ACAD_ISO15W100
 70
    64
  3
__ __ . . . __ __ . . . __ __ . . . __ __ . . .
 72
    65
 73
    10
 40
40.5
 49
12.0
 49
-3.0
 49
12.0
 49
-3.0
 49
0.5
 49
-3.0
 49
0.5
 49
-3.0
 49
0.5
 49
-3.0
  0
ENDTAB
  0
TABLE
  2
STYLE
 70
     4
  0
STYLE
  2
STANDARD
 70
    64
 40
0.0
 41
1.0
 50
0.0
 71
     0
 42
0.2
  3
txt
  4

  0
STYLE
  2
TOLERANCE
 70
    64
 40
0.0
 41
1.0
 50
0.0
 71
     0
 42
0.2
  3
../igesfont/iges1003.shx
  4

  0
STYLE
  2
ROMANS
 70
    64
 40
0.0
 41
1.0
 50
0.0
 71
     0
 42
0.2
  3
romans.shx
  4

  0
STYLE
  2
ROMANC
 70
    64
 40
0.0
 41
1.0
 50
0.0
 71
     0
 42
0.2
  3
romanc.shx
  4

  0
ENDTAB
  0
TABLE
  2
DIMSTYLE
 70
     2
  0
DIMSTYLE
  2
UNNAMED
 70
     0
  3

  4

  5

  6

  7

 40
1.0
 41
0.18
 42
0.0625
 43
0.38
 44
0.18
 45
0.0
 46
0.0
 47
0.0
 48
0.0
140
0.18
141
0.09
142
0.0
143
25.4
144
1.0
145
0.0
146
1.0
147
0.09
 71
     0
 72
     0
 73
     1
 74
     1
 75
     0
 76
     0
 77
     0
 78
     0
170
     0
171
     2
172
     0
173
     0
174
     0
175
     0
176
     0
177
     0
178
     0
  0
DIMSTYLE
  2
STANDARD
 70
     0
  3

  4

  5

  6

  7

 40
1.0
 41
0.18
 42
0.0625
 43
0.38
 44
0.18
 45
0.0
 46
0.0
 47
0.0
 48
0.0
140
0.18
141
0.09
142
0.0
143
25.4
144
1.0
145
0.0
146
1.0
147
0.09
 71
     0
 72
     0
 73
     1
 74
     1
 75
     0
 76
     0
 77
     0
 78
     0
170
     0
171
     2
172
     0
173
     0
174
     0
175
     0
176
     0
177
     0
178
     0
  0
ENDTAB
  0
TABLE
  2
LAYER
 70
     2
  0
LAYER
  2
0
 70
     0
 62
     7
  6
CONTINUOUS
  0
LAYER
  2
255
 70
     0
 62
     7
  6
CONTINUOUS
  0
ENDTAB
  0
ENDSEC
  0
SECTION
  2
BLOCKS
  0
BLOCK
  5
     B
  8
0
  6
CONTINUOUS
 62
     7
  2
*UDIM656
 70
    65
 10
0.0
 20
0.0
 30
0.0
  3
*UDIM656
  0
TEXT
  5
     C
  8
0
  6
CONTINUOUS
 62
     7
 10
140.0019664293
 20
-99.7544288505573
 30
0.0
 40
3.00000002980232
  1
5,5
 50
380.370483205792
 41
0.933333333333333
 72
     1
 11
143.135932346961
 21
-96.9906889977787
 31
0.0
 73
     2
  0
TEXT
  5
     D
  8
0
  6
CONTINUOUS
 62
     7
 10
137.048962896204
 20
-100.850909673969
 30
0.0
 40
3.00000002980232
  1
Ø
 50
380.370483205792
 41
0.933333333333334
 72
     1
 11
137.558036763319
 21
-99.0618194396422
 31
0.0
 73
     2
  0
TEXT
  5
     E
  8
0
  6
CONTINUOUS
 62
     7
 10
147.829769509403
 20
-96.8478844362694
 30
0.0
 40
3.00000002980232
  1
-M5
 50
380.370483205792
 41
0.933333333333333
 72
     1
 11
150.963735427064
 21
-94.0841445834908
 31
0.0
 73
     2
  0
LINE
  5
     F
  8
0
  6
CONTINUOUS
 62
     7
 10
165.952533912523
 20
-91.185424733916
 30
0.0
 11
137.397052047124
 21
-101.788371111571
 31
0.0
  0
LINE
  5
    10
  8
0
  6
CONTINUOUS
 62
     7
 10
168.540856699925
 20
-89.6686567397201
 30
0.0
 11
165.952533912523
 21
-91.185424733916
 31
0.0
  0
LINE
  5
    11
  8
0
  6
CONTINUOUS
 62
     7
 10
165.952533912523
 20
-91.185424733916
 30
0.0
 11
168.90352690515
 21
-90.6453873671871
 31
0.0
  0
LINE
  5
    12
  8
0
  6
CONTINUOUS
 62
     7
 10
162.075201649685
 20
-93.1808153061784
 30
0.0
 11
164.663524437086
 21
-91.6640473119824
 31
0.0
  0
LINE
  5
    13
  8
0
  6
CONTINUOUS
 62
     7
 10
164.663524437086
 20
-91.6640473119824
 30
0.0
 11
161.712531444459
 21
-92.2040846787113
 31
0.0
  0
ENDBLK
  5
    14
  8
0
  6
CONTINUOUS
 62
     7
  0
BLOCK
  5
    15
  8
0
  6
CONTINUOUS
 62
     7
  2
*UDIM657
 70
    65
 10
0.0
 20
0.0
 30
0.0
  3
*UDIM657
  0
TEXT
  5
    16
  8
0
  6
CONTINUOUS
 62
     7
 10
196.176368706329
 20
-67.5997360703642
 30
0.0
 40
3.00000002980232
  1
224
 50
449.999999896069
 41
0.933333333333333
 72
     1
 11
194.676368698478
 21
-63.6997360289097
 31
0.0
 73
     2
  0
LINE
  5
    17
  8
0
  6
CONTINUOUS
 62
     7
 10
178.171310432699
 20
-35.4247360229492
 30
0.0
 11
199.176368713379
 21
-35.4247360229492
 31
0.0
  0
LINE
  5
    18
  8
0
  6
CONTINUOUS
 62
     7
 10
177.201895006098
 20
-91.4247360229492
 30
0.0
 11
199.176368713379
 21
-91.4247360229492
 31
0.0
  0
LINE
  5
    19
  8
0
  6
CONTINUOUS
 62
     7
 10
197.176368713379
 20
-35.4247360229492
 30
0.0
 11
197.176368713379
 21
-91.4247360229492
 31
0.0
  0
LINE
  5
    1A
  8
0
  6
CONTINUOUS
 62
     7
 10
197.697313143331
 20
-38.3791593001562
 30
0.0
 11
197.176368713379
 21
-35.4247360229492
 31
0.0
  0
LINE
  5
    1B
  8
0
  6
CONTINUOUS
 62
     7
 10
197.176368713379
 20
-35.4247360229492
 30
0.0
 11
196.655424283427
 21
-38.3791593001562
 31
0.0
  0
LINE
  5
    1C
  8
0
  6
CONTINUOUS
 62
     7
 10
196.655424283427
 20
-88.4703127457423
 30
0.0
 11
197.176368713379
 21
-91.4247360229492
 31
0.0
  0
LINE
  5
    1D
  8
0
  6
CONTINUOUS
 62
     7
 10
197.176368713379
 20
-91.4247360229492
 30
0.0
 11
197.697313143331
 21
-88.4703127457423
 31
0.0
  0
ENDBLK
  5
    1E
  8
0
  6
CONTINUOUS
 62
     7
  0
BLOCK
  5
    1F
  8
0
  6
CONTINUOUS
 62
     7
  2
*UDIM658
 70
    65
 10
0.0
 20
0.0
 30
0.0
  3
*UDIM658
  0
TEXT
  5
    20
  8
0
  6
CONTINUOUS
 62
     7
 10
189.625059115696
 20
-89.6448733053898
 30
0.0
 40
3.00000002980232
  1
67,25
 50
449.999999896069
 41
0.933333333333333
 72
     1
 11
188.125059112906
 21
-82.9448732361197
 31
0.0
 73
     2
  0
LINE
  5
    21
  8
0
  6
CONTINUOUS
 62
     7
 10
184.597037300577
 20
-74.6122360229492
 30
0.0
 11
192.625059127808
 21
-74.6122360229492
 31
0.0
  0
LINE
  5
    22
  8
0
  6
CONTINUOUS
 62
     7
 10
177.201895006098
 20
-91.4247360229492
 30
0.0
 11
192.625059127808
 21
-91.4247360229492
 31
0.0
  0
LINE
  5
    23
  8
0
  6
CONTINUOUS
 62
     7
 10
190.625059127808
 20
-74.6122360229492
 30
0.0
 11
190.625059127808
 21
-91.4247360229492
 31
0.0
  0
LINE
  5
    24
  8
0
  6
CONTINUOUS
 62
     7
 10
190.104114697856
 20
-71.6578127457423
 30
0.0
 11
190.625059127808
 21
-74.6122360229492
 31
0.0
  0
LINE
  5
    25
  8
0
  6
CONTINUOUS
 62
     7
 10
190.625059127808
 20
-74.6122360229492
 30
0.0
 11
191.146003557759
 21
-71.6578127457423
 31
0.0
  0
LINE
  5
    26
  8
0
  6
CONTINUOUS
 62
     7
 10
191.146003557759
 20
-94.3791593001562
 30
0.0
 11
190.625059127808
 21
-91.4247360229492
 31
0.0
  0
LINE
  5
    27
  8
0
  6
CONTINUOUS
 62
     7
 10
190.625059127808
 20
-91.4247360229492
 30
0.0
 11
190.104114697856
 21
-94.3791593001562
 31
0.0
  0
ENDBLK
  5
    28
  8
0
  6
CONTINUOUS
 62
     7
  0
BLOCK
  5
    29
  8
0
  6
CONTINUOUS
 62
     7
  2
*UDIM659
 70
    65
 10
0.0
 20
0.0
 30
0.0
  3
*UDIM659
  0
TEXT
  5
    2A
  8
0
  6
CONTINUOUS
 62
     7
 10
177.033029528726
 20
-107.005481715448
 30
0.0
 40
3.00000002980232
  1
35
 50
359.999999896069
 41
0.933333333333333
 72
     1
 11
179.533029556274
 21
-105.50548170507
 31
0.0
 73
     2
  0
LINE
  5
    2B
  8
0
  6
CONTINUOUS
 62
     7
 10
174.058029174805
 20
-103.58844726231
 30
0.0
 11
174.058029174805
 21
-110.005481719971
 31
0.0
  0
LINE
  5
    2C
  8
0
  6
CONTINUOUS
 62
     7
 10
165.308029174805
 20
-103.793176024066
 30
0.0
 11
165.308029174805
 21
-110.005481719971
 31
0.0
  0
LINE
  5
    2D
  8
0
  6
CONTINUOUS
 62
     7
 10
182.03302958111
 20
-108.005481719971
 30
0.0
 11
165.308029174805
 21
-108.005481719971
 31
0.0
  0
LINE
  5
    2E
  8
0
  6
CONTINUOUS
 62
     7
 10
177.012452452012
 20
-107.484537290019
 30
0.0
 11
174.058029174805
 21
-108.005481719971
 31
0.0
  0
LINE
  5
    2F
  8
0
  6
CONTINUOUS
 62
     7
 10
174.058029174805
 20
-108.005481719971
 30
0.0
 11
177.012452452012
 21
-108.526426149922
 31
0.0
  0
LINE
  5
    30
  8
0
  6
CONTINUOUS
 62
     7
 10
162.353605897598
 20
-108.526426149922
 30
0.0
 11
165.308029174805
 21
-108.005481719971
 31
0.0
  0
LINE
  5
    31
  8
0
  6
CONTINUOUS
 62
     7
 10
165.308029174805
 20
-108.005481719971
 30
0.0
 11
162.353605897598
 21
-107.484537290019
 31
0.0
  0
ENDBLK
  5
    32
  8
0
  6
CONTINUOUS
 62
     7
  0
BLOCK
  5
    33
  8
0
  6
CONTINUOUS
 62
     7
  2
*UDIM660
 70
    65
 10
0.0
 20
0.0
 30
0.0
  3
*UDIM660
  0
TEXT
  5
    34
  8
0
  6
CONTINUOUS
 62
     7
 10
84.5144827076133
 20
-101.868507991016
 30
0.0
 40
3.00000002980232
  1
7
 50
401.743212308633
 41
0.933333333333334
 72
     1
 11
84.3365426699662
 21
-100.016930984315
 31
0.0
 73
     2
  0
TEXT
  5
    35
  8
0
  6
CONTINUOUS
 62
     7
 10
82.1641535020137
 20
-103.965756828873
 30
0.0
 40
3.00000002980232
  1
Ø
 50
401.743212308633
 41
0.933333333333334
 72
     1
 11
81.9862134643665
 21
-102.114179822171
 31
0.0
 73
     2
  0
LINE
  5
    36
  8
0
  6
CONTINUOUS
 62
     7
 10
97.322737690957
 20
-91.7796669031597
 30
0.0
 11
82.8299467868007
 21
-104.711893081783
 31
0.0
  0
LINE
  5
    37
  8
0
  6
CONTINUOUS
 62
     7
 10
99.1802987053589
 20
-89.4239362144403
 30
0.0
 11
97.322737690957
 21
-91.7796669031597
 31
0.0
  0
LINE
  5
    38
  8
0
  6
CONTINUOUS
 62
     7
 10
97.322737690957
 20
-91.7796669031597
 30
0.0
 11
99.8739813065388
 21
-90.2013272648203
 31
0.0
  0
LINE
  5
    39
  8
0
  6
CONTINUOUS
 62
     7
 10
94.1594382331177
 20
-95.3005358314581
 30
0.0
 11
96.0169992475195
 21
-92.9448051427388
 31
0.0
  0
LINE
  5
    3A
  8
0
  6
CONTINUOUS
 62
     7
 10
96.0169992475195
 20
-92.9448051427388
 30
0.0
 11
93.4657556319378
 21
-94.5231447810781
 31
0.0
  0
ENDBLK
  5
    3B
  8
0
  6
CONTINUOUS
 62
     7
  0
BLOCK
  5
    3C
  8
0
  6
CONTINUOUS
 62
     7
  2
*UDIM661
 70
    65
 10
0.0
 20
0.0
 30
0.0
  3
*UDIM661
  0
TEXT
  5
    3D
  8
0
  6
CONTINUOUS
 62
     7
 10
65.9008331192958
 20
-78.7872360717247
 30
0.0
 40
3.00000002980232
  1
142
 50
449.999999844103
 41
0.933333333333333
 72
     1
 11
64.4008331149817
 21
-74.8872360289097
 31
0.0
 73
     2
  0
LINE
  5
    3E
  8
0
  6
CONTINUOUS
 62
     7
 10
94.0448684692383
 20
-56.8622360229492
 30
0.0
 11
64.9008331298828
 21
-56.8622360229492
 31
0.0
  0
LINE
  5
    3F
  8
0
  6
CONTINUOUS
 62
     7
 10
94.0448684692383
 20
-92.3622360229492
 30
0.0
 11
64.9008331298828
 21
-92.3622360229492
 31
0.0
  0
LINE
  5
    40
  8
0
  6
CONTINUOUS
 62
     7
 10
66.9008331298828
 20
-56.8622360229492
 30
0.0
 11
66.9008331298828
 21
-92.3622360229492
 31
0.0
  0
LINE
  5
    41
  8
0
  6
CONTINUOUS
 62
     7
 10
67.4217775598345
 20
-59.8166593001562
 30
0.0
 11
66.9008331298828
 21
-56.8622360229492
 31
0.0
  0
LINE
  5
    42
  8
0
  6
CONTINUOUS
 62
     7
 10
66.9008331298828
 20
-56.8622360229492
 30
0.0
 11
66.3798886999311
 21
-59.8166593001562
 31
0.0
  0
LINE
  5
    43
  8
0
  6
CONTINUOUS
 62
     7
 10
66.3798886999311
 20
-89.4078127457423
 30
0.0
 11
66.9008331298828
 21
-92.3622360229492
 31
0.0
  0
LINE
  5
    44
  8
0
  6
CONTINUOUS
 62
     7
 10
66.9008331298828
 20
-92.3622360229492
 30
0.0
 11
67.4217775598345
 21
-89.4078127457423
 31
0.0
  0
ENDBLK
  5
    45
  8
0
  6
CONTINUOUS
 62
     7
  0
BLOCK
  5
    46
  8
0
  6
CONTINUOUS
 62
     7
  2
*UDIM662
 70
    65
 10
0.0
 20
0.0
 30
0.0
  3
*UDIM662
  0
TEXT
  5
    47
  8
0
  6
CONTINUOUS
 62
     7
 10
75.9325275315272
 20
-78.7872360717247
 30
0.0
 40
3.00000002980232
  1
112
 50
449.999999844103
 41
0.933333333333333
 72
     1
 11
74.4325275272131
 21
-74.8872360289097
 31
0.0
 73
     2
  0
LINE
  5
    48
  8
0
  6
CONTINUOUS
 62
     7
 10
91.6698684692383
 20
-60.6122360229492
 30
0.0
 11
74.9325275421143
 21
-60.6122360229492
 31
0.0
  0
LINE
  5
    49
  8
0
  6
CONTINUOUS
 62
     7
 10
91.6698684692383
 20
-88.6122360229492
 30
0.0
 11
74.9325275421143
 21
-88.6122360229492
 31
0.0
  0
LINE
  5
    4A
  8
0
  6
CONTINUOUS
 62
     7
 10
76.9325275421143
 20
-60.6122360229492
 30
0.0
 11
76.9325275421143
 21
-88.6122360229492
 31
0.0
  0
LINE
  5
    4B
  8
0
  6
CONTINUOUS
 62
     7
 10
77.4534719720659
 20
-63.5666593001562
 30
0.0
 11
76.9325275421143
 21
-60.6122360229492
 31
0.0
  0
LINE
  5
    4C
  8
0
  6
CONTINUOUS
 62
     7
 10
76.9325275421143
 20
-60.6122360229492
 30
0.0
 11
76.4115831121626
 21
-63.5666593001562
 31
0.0
  0
LINE
  5
    4D
  8
0
  6
CONTINUOUS
 62
     7
 10
76.4115831121626
 20
-85.6578127457423
 30
0.0
 11
76.9325275421143
 21
-88.6122360229492
 31
0.0
  0
LINE
  5
    4E
  8
0
  6
CONTINUOUS
 62
     7
 10
76.9325275421143
 20
-88.6122360229492
 30
0.0
 11
77.4534719720659
 21
-85.6578127457423
 31
0.0
  0
ENDBLK
  5
    4F
  8
0
  6
CONTINUOUS
 62
     7
  0
BLOCK
  5
    50
  8
0
  6
CONTINUOUS
 62
     7
  2
*UDIM663
 70
    65
 10
0.0
 20
0.0
 30
0.0
  3
*UDIM663
  0
TEXT
  5
    51
  8
0
  6
CONTINUOUS
 62
     7
 10
102.494868420461
 20
-35.896469105619
 30
0.0
 40
3.00000002980232
  1
112
 50
359.999999844103
 41
0.933333333333333
 72
     1
 11
106.394868463278
 21
-34.3964691013098
 31
0.0
 73
     2
  0
LINE
  5
    52
  8
0
  6
CONTINUOUS
 62
     7
 10
92.6698684692383
 20
-59.6122360229492
 30
0.0
 11
92.6698684692383
 21
-34.8964691162109
 31
0.0
  0
LINE
  5
    53
  8
0
  6
CONTINUOUS
 62
     7
 10
120.669868469238
 20
-59.6122360229492
 30
0.0
 11
120.669868469238
 21
-34.8964691162109
 31
0.0
  0
LINE
  5
    54
  8
0
  6
CONTINUOUS
 62
     7
 10
92.6698684692383
 20
-36.8964691162109
 30
0.0
 11
120.669868469238
 21
-36.8964691162109
 31
0.0
  0
LINE
  5
    55
  8
0
  6
CONTINUOUS
 62
     7
 10
95.6242917464452
 20
-36.3755246862593
 30
0.0
 11
92.6698684692383
 21
-36.8964691162109
 31
0.0
  0
LINE
  5
    56
  8
0
  6
CONTINUOUS
 62
     7
 10
92.6698684692383
 20
-36.8964691162109
 30
0.0
 11
95.6242917464452
 21
-37.4174135461626
 31
0.0
  0
LINE
  5
    57
  8
0
  6
CONTINUOUS
 62
     7
 10
117.715445192031
 20
-37.4174135461626
 30
0.0
 11
120.669868469238
 21
-36.8964691162109
 31
0.0
  0
LINE
  5
    58
  8
0
  6
CONTINUOUS
 62
     7
 10
120.669868469238
 20
-36.8964691162109
 30
0.0
 11
117.715445192031
 21
-36.3755246862593
 31
0.0
  0
ENDBLK
  5
    59
  8
0
  6
CONTINUOUS
 62
     7
  0
BLOCK
  5
    5A
  8
0
  6
CONTINUOUS
 62
     7
  2
*UDIM664
 70
    65
 10
0.0
 20
0.0
 30
0.0
  3
*UDIM664
  0
TEXT
  5
    5B
  8
0
  6
CONTINUOUS
 62
     7
 10
103.894868434369
 20
-44.0173625878148
 30
0.0
 40
3.00000002980232
  1
80
 50
359.999999844103
 41
0.933333333333333
 72
     1
 11
106.394868463278
 21
-42.5173625797033
 31
0.0
 73
     2
  0
LINE
  5
    5C
  8
0
  6
CONTINUOUS
 62
     7
 10
96.6698684692383
 20
-54.2372360229492
 30
0.0
 11
96.6698684692383
 21
-43.0173625946045
 31
0.0
  0
LINE
  5
    5D
  8
0
  6
CONTINUOUS
 62
     7
 10
116.669868469238
 20
-54.2372360229492
 30
0.0
 11
116.669868469238
 21
-43.0173625946045
 31
0.0
  0
LINE
  5
    5E
  8
0
  6
CONTINUOUS
 62
     7
 10
96.6698684692383
 20
-45.0173625946045
 30
0.0
 11
116.669868469238
 21
-45.0173625946045
 31
0.0
  0
LINE
  5
    5F
  8
0
  6
CONTINUOUS
 62
     7
 10
99.6242917464452
 20
-44.4964181646528
 30
0.0
 11
96.6698684692383
 21
-45.0173625946045
 31
0.0
  0
LINE
  5
    60
  8
0
  6
CONTINUOUS
 62
     7
 10
96.6698684692383
 20
-45.0173625946045
 30
0.0
 11
99.6242917464452
 21
-45.5383070245562
 31
0.0
  0
LINE
  5
    61
  8
0
  6
CONTINUOUS
 62
     7
 10
113.715445192031
 20
-45.5383070245562
 30
0.0
 11
116.669868469238
 21
-45.0173625946045
 31
0.0
  0
LINE
  5
    62
  8
0
  6
CONTINUOUS
 62
     7
 10
116.669868469238
 20
-45.0173625946045
 30
0.0
 11
113.715445192031
 21
-44.4964181646528
 31
0.0
  0
ENDBLK
  5
    63
  8
0
  6
CONTINUOUS
 62
     7
  0
BLOCK
  5
    64
  8
0
  6
CONTINUOUS
 62
     7
  2
*HATCH121
 70
    65
 10
0.0
 20
0.0
 30
0.0
  3
*HATCH121
  0
LINE
  5
    65
  8
0
  6
CONTINUOUS
 62
   210
 10
14.1969509124756
 20
-46.0167922973633
 30
0.0
 11
17.1801414489746
 21
-48.9999885559082
 31
0.0
  0
ENDBLK
  5
    66
  8
0
  6
CONTINUOUS
 62
     7
  0
BLOCK
  5
    67
  8
0
  6
CONTINUOUS
 62
     7
  2
*HATCH122
 70
    65
 10
0.0
 20
0.0
 30
0.0
  3
*HATCH122
  0
LINE
  5
    68
  8
0
  6
CONTINUOUS
 62
   210
 10
20.7441368103027
 20
-45.0167922973633
 30
0.0
 11
18.0000019073486
 21
-47.7609252929688
 31
0.0
  0
LINE
  5
    69
  8
0
  6
CONTINUOUS
 62
   210
 10
21.0
 20
-49.0035667419434
 30
0.0
 11
18.0000019073486
 21
-52.0035667419434
 31
0.0
  0
LINE
  5
    6A
  8
0
  6
CONTINUOUS
 62
   210
 10
21.0
 20
-53.246208190918
 30
0.0
 11
19.3462104797363
 21
-54.9000015258789
 31
0.0
  0
ENDBLK
  5
    6B
  8
0
  6
CONTINUOUS
 62
     7
  0
BLOCK
  5
    6C
  8
0
  6
CONTINUOUS
 62
     7
  2
*HATCH123
 70
    65
 10
0.0
 20
0.0
 30
0.0
  3
*HATCH123
  0
LINE
  5
    6D
  8
0
  6
CONTINUOUS
 62
   210
 10
21.7528133392334
 20
-63.0999984741211
 30
0.0
 11
18.0000019073486
 21
-66.8528137207031
 31
0.0
  0
LINE
  5
    6E
  8
0
  6
CONTINUOUS
 62
   210
 10
23.0
 20
-66.0954513549805
 30
0.0
 11
21.0954647064209
 21
-67.9999847412109
 31
0.0
  0
ENDBLK
  5
    6F
  8
0
  6
CONTINUOUS
 62
     7
  0
BLOCK
  5
    70
  8
0
  6
CONTINUOUS
 62
     7
  2
*HATCH124
 70
    65
 10
0.0
 20
0.0
 30
0.0
  3
*HATCH124
  0
LINE
  5
    71
  8
0
  6
CONTINUOUS
 62
   210
 10
23.0
 20
-47.0035705566406
 30
0.0
 11
21.0000019073486
 21
-49.0035705566406
 31
0.0
  0
LINE
  5
    72
  8
0
  6
CONTINUOUS
 62
   210
 10
23.0
 20
-51.246208190918
 30
0.0
 11
21.0000019073486
 21
-53.246208190918
 31
0.0
  0
ENDBLK
  5
    73
  8
0
  6
CONTINUOUS
 62
     7
  0
BLOCK
  5
    74
  8
0
  6
CONTINUOUS
 62
     7
  2
*HATCH125
 70
    65
 10
0.0
 20
0.0
 30
0.0
  3
*HATCH125
  0
LINE
  5
    75
  8
0
  6
CONTINUOUS
 62
    52
 10
107.001167297363
 20
-64.8257827758789
 30
0.0
 11
105.001167297363
 21
-66.8257751464844
 31
0.0
  0
LINE
  5
    76
  8
0
  6
CONTINUOUS
 62
    52
 10
107.001167297363
 20
-69.0684280395508
 30
0.0
 11
105.001167297363
 21
-71.0684204101563
 31
0.0
  0
LINE
  5
    77
  8
0
  6
CONTINUOUS
 62
    52
 10
107.001167297363
 20
-73.3110733032227
 30
0.0
 11
105.001167297363
 21
-75.3110656738281
 31
0.0
  0
LINE
  5
    78
  8
0
  6
CONTINUOUS
 62
    52
 10
107.001167297363
 20
-77.5537185668945
 30
0.0
 11
105.001167297363
 21
-79.5537109375
 31
0.0
  0
LINE
  5
    79
  8
0
  6
CONTINUOUS
 62
    52
 10
107.001167297363
 20
-81.7963638305664
 30
0.0
 11
105.001167297363
 21
-83.7963562011719
 31
0.0
  0
LINE
  5
    7A
  8
0
  6
CONTINUOUS
 62
    52
 10
107.001167297363
 20
-86.0390090942383
 30
0.0
 11
105.001167297363
 21
-88.0390014648438
 31
0.0
  0
LINE
  5
    7B
  8
0
  6
CONTINUOUS
 62
    52
 10
107.001167297363
 20
-90.2816543579102
 30
0.0
 11
105.001167297363
 21
-92.2816467285156
 31
0.0
  0
LINE
  5
    7C
  8
0
  6
CONTINUOUS
 62
    52
 10
107.001167297363
 20
-94.524299621582
 30
0.0
 11
105.001167297363
 21
-96.5242919921875
 31
0.0
  0
LINE
  5
    7D
  8
0
  6
CONTINUOUS
 62
    52
 10
107.001167297363
 20
-98.7669448852539
 30
0.0
 11
105.001167297363
 21
-100.766937255859
 31
0.0
  0
LINE
  5
    7E
  8
0
  6
CONTINUOUS
 62
    52
 10
107.001167297363
 20
-103.009590148926
 30
0.0
 11
105.001167297363
 21
-105.009582519531
 31
0.0
  0
LINE
  5
    7F
  8
0
  6
CONTINUOUS
 62
    52
 10
107.001167297363
 20
-107.252235412598
 30
0.0
 11
105.001167297363
 21
-109.252227783203
 31
0.0
  0
LINE
  5
    80
  8
0
  6
CONTINUOUS
 62
    52
 10
107.001167297363
 20
-111.49488067627
 30
0.0
 11
105.001167297363
 21
-113.494873046875
 31
0.0
  0
LINE
  5
    81
  8
0
  6
CONTINUOUS
 62
    52
 10
107.001167297363
 20
-115.737464904785
 30
0.0
 11
105.269889831543
 21
-117.46875
 31
0.0
  0
ENDBLK
  5
    82
  8
0
  6
CONTINUOUS
 62
     7
  0
BLOCK
  5
    83
  8
0
  6
CONTINUOUS
 62
     7
  2
*HATCH126
 70
    65
 10
0.0
 20
0.0
 30
0.0
  3
*HATCH126
  0
LINE
  5
    84
  8
0
  6
CONTINUOUS
 62
    52
 10
107.001167297363
 20
-47.8552169799805
 30
0.0
 11
105.001167297363
 21
-49.8552169799805
 31
0.0
  0
LINE
  5
    85
  8
0
  6
CONTINUOUS
 62
    52
 10
107.001167297363
 20
-52.0978546142578
 30
0.0
 11
105.001167297363
 21
-54.0978546142578
 31
0.0
  0
LINE
  5
    86
  8
0
  6
CONTINUOUS
 62
    52
 10
107.001167297363
 20
-56.3404998779297
 30
0.0
 11
106.091667175293
 21
-57.25
 31
0.0
  0
ENDBLK
  5
    87
  8
0
  6
CONTINUOUS
 62
     7
  0
BLOCK
  5
    88
  8
0
  6
CONTINUOUS
 62
     7
  2
*HATCH127
 70
    65
 10
0.0
 20
0.0
 30
0.0
  3
*HATCH127
  0
LINE
  5
    89
  8
0
  6
CONTINUOUS
 62
    52
 10
107.001167297363
 20
77.3026809692383
 30
0.0
 11
105.001167297363
 21
75.3026809692383
 31
0.0
  0
LINE
  5
    8A
  8
0
  6
CONTINUOUS
 62
    52
 10
107.001167297363
 20
73.0600357055664
 30
0.0
 11
105.001167297363
 21
71.0600357055664
 31
0.0
  0
LINE
  5
    8B
  8
0
  6
CONTINUOUS
 62
    52
 10
107.001167297363
 20
68.8173904418945
 30
0.0
 11
105.001167297363
 21
66.8173904418945
 31
0.0
  0
ENDBLK
  5
    8C
  8
0
  6
CONTINUOUS
 62
     7
  0
BLOCK
  5
    8D
  8
0
  6
CONTINUOUS
 62
     7
  2
*HATCH128
 70
    65
 10
0.0
 20
0.0
 30
0.0
  3
*HATCH128
  0
LINE
  5
    8E
  8
0
  6
CONTINUOUS
 62
   210
 10
24.8035449981689
 20
-46.0167922973633
 30
0.0
 11
27.786735534668
 21
-48.9999885559082
 31
0.0
  0
LINE
  5
    8F
  8
0
  6
CONTINUOUS
 62
   210
 10
29.0461826324463
 20
-46.0167922973633
 30
0.0
 11
32.0293731689453
 21
-48.9999885559082
 31
0.0
  0
LINE
  5
    90
  8
0
  6
CONTINUOUS
 62
   210
 10
33.2888221740723
 20
-46.0167922973633
 30
0.0
 11
36.2720108032227
 21
-48.9999885559082
 31
0.0
  0
LINE
  5
    91
  8
0
  6
CONTINUOUS
 62
   210
 10
37.5314598083496
 20
-46.0167922973633
 30
0.0
 11
40.5146484375
 21
-48.9999885559082
 31
0.0
  0
LINE
  5
    92
  8
0
  6
CONTINUOUS
 62
   210
 10
41.774097442627
 20
-46.0167922973633
 30
0.0
 11
44.7572860717773
 21
-48.9999885559082
 31
0.0
  0
LINE
  5
    93
  8
0
  6
CONTINUOUS
 62
   210
 10
46.0167350769043
 20
-46.0167922973633
 30
0.0
 11
46.9614868164062
 21
-46.9615440368652
 31
0.0
  0
ENDBLK
  5
    94
  8
0
  6
CONTINUOUS
 62
     7
  0
BLOCK
  5
    95
  8
0
  6
CONTINUOUS
 62
     2
  2
*HATCH129
 70
    65
 10
0.0
 20
0.0
 30
0.0
  3
*HATCH129
  0
LINE
  5
    96
  8
0
  6
CONTINUOUS
 62
   210
 10
21.0223026275635
 20
178.0
 30
0.0
 11
18.0000019073486
 21
174.977691650391
 31
0.0
  0
LINE
  5
    97
  8
0
  6
CONTINUOUS
 62
   210
 10
22.0000019073486
 20
174.735061645508
 30
0.0
 11
20.4649429321289
 21
173.199996948242
 31
0.0
  0
ENDBLK
  5
    98
  8
0
  6
CONTINUOUS
 62
     2
  0
BLOCK
  5
    99
  8
0
  6
CONTINUOUS
 62
     7
  2
*HATCH130
 70
    65
 10
0.0
 20
0.0
 30
0.0
  3
*HATCH130
  0
LINE
  5
    9A
  8
0
  6
CONTINUOUS
 62
   210
 10
20.5502243041992
 20
164.800003051758
 30
0.0
 11
18.0000019073486
 21
162.249771118164
 31
0.0
  0
LINE
  5
    9B
  8
0
  6
CONTINUOUS
 62
   210
 10
22.0000019073486
 20
162.007141113281
 30
0.0
 11
18.2512645721436
 21
158.258407592773
 31
0.0
  0
LINE
  5
    9C
  8
0
  6
CONTINUOUS
 62
   210
 10
23.0000019073486
 20
158.764495849609
 30
0.0
 11
22.4939060211182
 21
158.258407592773
 31
0.0
  0
ENDBLK
  5
    9D
  8
0
  6
CONTINUOUS
 62
     7
  0
BLOCK
  5
    9E
  8
0
  6
CONTINUOUS
 62
     7
  2
*HATCH131
 70
    65
 10
0.0
 20
0.0
 30
0.0
  3
*HATCH131
  0
LINE
  5
    9F
  8
0
  6
CONTINUOUS
 62
   210
 10
25.55495262146
 20
159.0
 30
0.0
 11
26.2965507507324
 21
158.258407592773
 31
0.0
  0
LINE
  5
    A0
  8
0
  6
CONTINUOUS
 62
   210
 10
29.7975902557373
 20
159.0
 30
0.0
 11
30.5391883850098
 21
158.258407592773
 31
0.0
  0
LINE
  5
    A1
  8
0
  6
CONTINUOUS
 62
   210
 10
34.0402297973633
 20
159.0
 30
0.0
 11
34.7818260192871
 21
158.258407592773
 31
0.0
  0
ENDBLK
  5
    A2
  8
0
  6
CONTINUOUS
 62
     7
  0
BLOCK
  5
    A3
  8
0
  6
CONTINUOUS
 62
     7
  2
*HATCH132
 70
    65
 10
0.0
 20
0.0
 30
0.0
  3
*HATCH132
  0
LINE
  5
    A4
  8
0
  6
CONTINUOUS
 62
    52
 10
107.001167297363
 20
202.460571289063
 30
0.0
 11
105.001167297363
 21
200.460571289063
 31
0.0
  0
LINE
  5
    A5
  8
0
  6
CONTINUOUS
 62
    52
 10
107.001167297363
 20
198.217926025391
 30
0.0
 11
105.001167297363
 21
196.217926025391
 31
0.0
  0
LINE
  5
    A6
  8
0
  6
CONTINUOUS
 62
    52
 10
107.001167297363
 20
193.975280761719
 30
0.0
 11
105.001167297363
 21
191.975280761719
 31
0.0
  0
LINE
  5
    A7
  8
0
  6
CONTINUOUS
 62
    52
 10
107.001167297363
 20
189.732635498047
 30
0.0
 11
105.001167297363
 21
187.732635498047
 31
0.0
  0
LINE
  5
    A8
  8
0
  6
CONTINUOUS
 62
    52
 10
107.001167297363
 20
185.489990234375
 30
0.0
 11
105.001167297363
 21
183.489990234375
 31
0.0
  0
LINE
  5
    A9
  8
0
  6
CONTINUOUS
 62
    52
 10
107.001167297363
 20
181.247344970703
 30
0.0
 11
105.001167297363
 21
179.247344970703
 31
0.0
  0
LINE
  5
    AA
  8
0
  6
CONTINUOUS
 62
    52
 10
107.001167297363
 20
177.004699707031
 30
0.0
 11
105.001167297363
 21
175.004699707031
 31
0.0
  0
LINE
  5
    AB
  8
0
  6
CONTINUOUS
 62
    52
 10
107.001167297363
 20
172.762054443359
 30
0.0
 11
105.001167297363
 21
170.762054443359
 31
0.0
  0
LINE
  5
    AC
  8
0
  6
CONTINUOUS
 62
    52
 10
107.001167297363
 20
168.519409179688
 30
0.0
 11
105.001167297363
 21
166.519409179688
 31
0.0
  0
LINE
  5
    AD
  8
0
  6
CONTINUOUS
 62
    52
 10
107.001167297363
 20
164.276763916016
 30
0.0
 11
105.001167297363
 21
162.276763916016
 31
0.0
  0
LINE
  5
    AE
  8
0
  6
CONTINUOUS
 62
    52
 10
107.001167297363
 20
160.034118652344
 30
0.0
 11
105.001167297363
 21
158.034118652344
 31
0.0
  0
LINE
  5
    AF
  8
0
  6
CONTINUOUS
 62
    52
 10
107.001167297363
 20
155.791473388672
 30
0.0
 11
105.001167297363
 21
153.791473388672
 31
0.0
  0
LINE
  5
    B0
  8
0
  6
CONTINUOUS
 62
    52
 10
107.001167297363
 20
151.548828125
 30
0.0
 11
105.001167297363
 21
149.548828125
 31
0.0
  0
LINE
  5
    B1
  8
0
  6
CONTINUOUS
 62
    52
 10
107.001167297363
 20
147.306182861328
 30
0.0
 11
105.001167297363
 21
145.306182861328
 31
0.0
  0
LINE
  5
    B2
  8
0
  6
CONTINUOUS
 62
    52
 10
107.001167297363
 20
143.063537597656
 30
0.0
 11
105.001167297363
 21
141.063537597656
 31
0.0
  0
LINE
  5
    B3
  8
0
  6
CONTINUOUS
 62
    52
 10
107.001167297363
 20
138.820892333984
 30
0.0
 11
105.001167297363
 21
136.820892333984
 31
0.0
  0
LINE
  5
    B4
  8
0
  6
CONTINUOUS
 62
    52
 10
107.001167297363
 20
134.578247070313
 30
0.0
 11
105.001167297363
 21
132.578247070313
 31
0.0
  0
LINE
  5
    B5
  8
0
  6
CONTINUOUS
 62
    52
 10
107.001167297363
 20
130.335601806641
 30
0.0
 11
105.001167297363
 21
128.335601806641
 31
0.0
  0
LINE
  5
    B6
  8
0
  6
CONTINUOUS
 62
    52
 10
107.001167297363
 20
126.092956542969
 30
0.0
 11
105.001167297363
 21
124.092956542969
 31
0.0
  0
LINE
  5
    B7
  8
0
  6
CONTINUOUS
 62
    52
 10
107.001167297363
 20
121.850311279297
 30
0.0
 11
105.001167297363
 21
119.850311279297
 31
0.0
  0
LINE
  5
    B8
  8
0
  6
CONTINUOUS
 62
    52
 10
107.001167297363
 20
117.607666015625
 30
0.0
 11
105.001167297363
 21
115.607666015625
 31
0.0
  0
LINE
  5
    B9
  8
0
  6
CONTINUOUS
 62
    52
 10
107.001167297363
 20
113.365020751953
 30
0.0
 11
105.001167297363
 21
111.365020751953
 31
0.0
  0
LINE
  5
    BA
  8
0
  6
CONTINUOUS
 62
    52
 10
107.001167297363
 20
109.122375488281
 30
0.0
 11
105.001167297363
 21
107.122375488281
 31
0.0
  0
LINE
  5
    BB
  8
0
  6
CONTINUOUS
 62
    52
 10
107.001167297363
 20
104.879730224609
 30
0.0
 11
105.001167297363
 21
102.879730224609
 31
0.0
  0
LINE
  5
    BC
  8
0
  6
CONTINUOUS
 62
    52
 10
107.001167297363
 20
100.637084960938
 30
0.0
 11
105.001167297363
 21
98.6370849609375
 31
0.0
  0
LINE
  5
    BD
  8
0
  6
CONTINUOUS
 62
    52
 10
107.001167297363
 20
96.3944396972656
 30
0.0
 11
105.001167297363
 21
94.3944396972656
 31
0.0
  0
LINE
  5
    BE
  8
0
  6
CONTINUOUS
 62
    52
 10
107.001167297363
 20
92.1517944335938
 30
0.0
 11
105.001167297363
 21
90.1517944335938
 31
0.0
  0
LINE
  5
    BF
  8
0
  6
CONTINUOUS
 62
    52
 10
107.001167297363
 20
87.9091491699219
 30
0.0
 11
105.001167297363
 21
85.9091491699219
 31
0.0
  0
ENDBLK
  5
    C0
  8
0
  6
CONTINUOUS
 62
     7
  0
BLOCK
  5
    C1
  8
0
  6
CONTINUOUS
 62
     7
  2
*HATCH133
 70
    65
 10
0.0
 20
0.0
 30
0.0
  3
*HATCH133
  0
LINE
  5
    C2
  8
0
  6
CONTINUOUS
 62
     3
 10
29.5000019073486
 20
184.046340942383
 30
0.0
 11
31.046329498291
 21
182.500015258789
 31
0.0
  0
LINE
  5
    C3
  8
0
  6
CONTINUOUS
 62
     3
 10
30.6676654815674
 20
185.0
 30
0.0
 11
33.167652130127
 21
182.500015258789
 31
0.0
  0
LINE
  5
    C4
  8
0
  6
CONTINUOUS
 62
     3
 10
32.7889823913574
 20
185.0
 30
0.0
 11
35.2889747619629
 21
182.500015258789
 31
0.0
  0
LINE
  5
    C5
  8
0
  6
CONTINUOUS
 62
     3
 10
34.9102973937988
 20
185.0
 30
0.0
 11
37.4102973937988
 21
182.500015258789
 31
0.0
  0
LINE
  5
    C6
  8
0
  6
CONTINUOUS
 62
     3
 10
37.0316123962402
 20
185.0
 30
0.0
 11
39.5316200256348
 21
182.500015258789
 31
0.0
  0
LINE
  5
    C7
  8
0
  6
CONTINUOUS
 62
     3
 10
39.1529273986816
 20
185.0
 30
0.0
 11
41.6529426574707
 21
182.500015258789
 31
0.0
  0
LINE
  5
    C8
  8
0
  6
CONTINUOUS
 62
     3
 10
41.274242401123
 20
185.0
 30
0.0
 11
43.7742652893066
 21
182.500015258789
 31
0.0
  0
LINE
  5
    C9
  8
0
  6
CONTINUOUS
 62
     3
 10
43.3955574035645
 20
185.0
 30
0.0
 11
45.8955879211426
 21
182.500015258789
 31
0.0
  0
LINE
  5
    CA
  8
0
  6
CONTINUOUS
 62
     3
 10
45.5168724060059
 20
185.0
 30
0.0
 11
48.0169105529785
 21
182.500015258789
 31
0.0
  0
LINE
  5
    CB
  8
0
  6
CONTINUOUS
 62
     3
 10
47.6381874084473
 20
185.0
 30
0.0
 11
50.1382331848145
 21
182.500015258789
 31
0.0
  0
LINE
  5
    CC
  8
0
  6
CONTINUOUS
 62
     3
 10
49.7595024108887
 20
185.0
 30
0.0
 11
52.2595558166504
 21
182.500015258789
 31
0.0
  0
LINE
  5
    CD
  8
0
  6
CONTINUOUS
 62
     3
 10
51.8808174133301
 20
185.0
 30
0.0
 11
54.3808784484863
 21
182.500015258789
 31
0.0
  0
LINE
  5
    CE
  8
0
  6
CONTINUOUS
 62
     3
 10
54.0021324157715
 20
185.0
 30
0.0
 11
56.5022010803223
 21
182.500015258789
 31
0.0
  0
LINE
  5
    CF
  8
0
  6
CONTINUOUS
 62
     3
 10
56.1234474182129
 20
185.0
 30
0.0
 11
58.6235237121582
 21
182.500015258789
 31
0.0
  0
LINE
  5
    D0
  8
0
  6
CONTINUOUS
 62
     3
 10
58.2447624206543
 20
185.0
 30
0.0
 11
60.7448463439941
 21
182.500015258789
 31
0.0
  0
LINE
  5
    D1
  8
0
  6
CONTINUOUS
 62
     3
 10
60.3660774230957
 20
185.0
 30
0.0
 11
62.8661689758301
 21
182.500015258789
 31
0.0
  0
LINE
  5
    D2
  8
0
  6
CONTINUOUS
 62
     3
 10
62.4873924255371
 20
185.0
 30
0.0
 11
64.9874877929688
 21
182.500015258789
 31
0.0
  0
LINE
  5
    D3
  8
0
  6
CONTINUOUS
 62
     3
 10
64.608757019043
 20
185.000015258789
 30
0.0
 11
65.5542221069336
 21
184.054550170898
 31
0.0
  0
ENDBLK
  5
    D4
  8
0
  6
CONTINUOUS
 62
     7
  0
BLOCK
  5
    D5
  8
0
  6
CONTINUOUS
 62
     7
  2
*HATCH134
 70
    65
 10
0.0
 20
0.0
 30
0.0
  3
*HATCH134
  0
LINE
  5
    D6
  8
0
  6
CONTINUOUS
 62
   210
 10
23.0000019073486
 20
74.5807647705078
 30
0.0
 11
23.5807666778564
 21
74.0
 31
0.0
  0
LINE
  5
    D7
  8
0
  6
CONTINUOUS
 62
   210
 10
23.0000019073486
 20
76.7020874023438
 30
0.0
 11
25.7020854949951
 21
74.0
 31
0.0
  0
LINE
  5
    D8
  8
0
  6
CONTINUOUS
 62
   210
 10
23.0000019073486
 20
78.8234100341797
 30
0.0
 11
27.8234043121338
 21
74.0
 31
0.0
  0
LINE
  5
    D9
  8
0
  6
CONTINUOUS
 62
   210
 10
24.194730758667
 20
79.75
 30
0.0
 11
28.0000019073486
 21
75.9447250366211
 31
0.0
  0
LINE
  5
    DA
  8
0
  6
CONTINUOUS
 62
   210
 10
26.3160495758057
 20
79.75
 30
0.0
 11
28.0000019073486
 21
78.066047668457
 31
0.0
  0
ENDBLK
  5
    DB
  8
0
  6
CONTINUOUS
 62
     7
  0
BLOCK
  5
    DC
  8
0
  6
CONTINUOUS
 62
     7
  2
*HATCH135
 70
    65
 10
0.0
 20
0.0
 30
0.0
  3
*HATCH135
  0
LINE
  5
    DD
  8
0
  6
CONTINUOUS
 62
   210
 10
23.0000019073486
 20
74.5807647705078
 30
0.0
 11
23.5807666778564
 21
74.0
 31
0.0
  0
LINE
  5
    DE
  8
0
  6
CONTINUOUS
 62
   210
 10
23.0000019073486
 20
76.7020874023438
 30
0.0
 11
25.7020854949951
 21
74.0
 31
0.0
  0
LINE
  5
    DF
  8
0
  6
CONTINUOUS
 62
   210
 10
23.0000019073486
 20
78.8234100341797
 30
0.0
 11
27.8234043121338
 21
74.0
 31
0.0
  0
LINE
  5
    E0
  8
0
  6
CONTINUOUS
 62
   210
 10
24.194730758667
 20
79.75
 30
0.0
 11
28.0000019073486
 21
75.9447250366211
 31
0.0
  0
LINE
  5
    E1
  8
0
  6
CONTINUOUS
 62
   210
 10
26.3160495758057
 20
79.75
 30
0.0
 11
28.0000019073486
 21
78.066047668457
 31
0.0
  0
ENDBLK
  5
    E2
  8
0
  6
CONTINUOUS
 62
     7
  0
BLOCK
  5
    E3
  8
0
  6
CONTINUOUS
 62
     7
  2
*HATCH136
 70
    65
 10
0.0
 20
0.0
 30
0.0
  3
*HATCH136
  0
LINE
  5
    E4
  8
0
  6
CONTINUOUS
 62
   210
 10
23.0
 20
89.4300155639649
 30
0.0
 11
24.1800174713135
 21
88.25
 31
0.0
  0
LINE
  5
    E5
  8
0
  6
CONTINUOUS
 62
   210
 10
22.9999980926514
 20
91.5513381958008
 30
0.0
 11
26.3013362884521
 21
88.25
 31
0.0
  0
LINE
  5
    E6
  8
0
  6
CONTINUOUS
 62
   210
 10
22.9999961853027
 20
93.6726684570313
 30
0.0
 11
28.0000019073486
 21
88.6726531982422
 31
0.0
  0
LINE
  5
    E7
  8
0
  6
CONTINUOUS
 62
   210
 10
22.9999942779541
 20
95.7939910888672
 30
0.0
 11
28.0000019073486
 21
90.7939758300781
 31
0.0
  0
LINE
  5
    E8
  8
0
  6
CONTINUOUS
 62
   210
 10
22.9999923706055
 20
97.9153137207031
 30
0.0
 11
28.0000019073486
 21
92.9152984619141
 31
0.0
  0
LINE
  5
    E9
  8
0
  6
CONTINUOUS
 62
   210
 10
22.9999904632568
 20
100.036636352539
 30
0.0
 11
28.0000019073486
 21
95.03662109375
 31
0.0
  0
LINE
  5
    EA
  8
0
  6
CONTINUOUS
 62
   210
 10
22.9999885559082
 20
102.157958984375
 30
0.0
 11
28.0000019073486
 21
97.1579437255859
 31
0.0
  0
LINE
  5
    EB
  8
0
  6
CONTINUOUS
 62
   210
 10
22.9999866485596
 20
104.279281616211
 30
0.0
 11
28.0000019073486
 21
99.2792663574219
 31
0.0
  0
LINE
  5
    EC
  8
0
  6
CONTINUOUS
 62
   210
 10
23.0440235137939
 20
106.356567382813
 30
0.0
 11
28.0000019073486
 21
101.400581359863
 31
0.0
  0
LINE
  5
    ED
  8
0
  6
CONTINUOUS
 62
   210
 10
23.3986186981201
 20
108.12329864502
 30
0.0
 11
28.0000019073486
 21
103.521903991699
 31
0.0
  0
LINE
  5
    EE
  8
0
  6
CONTINUOUS
 62
   210
 10
24.1018161773682
 20
109.54141998291
 30
0.0
 11
28.0000019073486
 21
105.643226623535
 31
0.0
  0
LINE
  5
    EF
  8
0
  6
CONTINUOUS
 62
   210
 10
25.0352230072022
 20
110.729331970215
 30
0.0
 11
28.5697040557861
 21
107.194847106934
 31
0.0
  0
LINE
  5
    F0
  8
0
  6
CONTINUOUS
 62
   210
 10
26.2040405273438
 20
111.681831359863
 30
0.0
 11
29.907772064209
 21
107.978096008301
 31
0.0
  0
LINE
  5
    F1
  8
0
  6
CONTINUOUS
 62
   210
 10
27.5920448303223
 20
112.415153503418
 30
0.0
 11
31.3544807434082
 21
108.652709960937
 31
0.0
  0
LINE
  5
    F2
  8
0
  6
CONTINUOUS
 62
   210
 10
29.0387535095215
 20
113.089767456055
 30
0.0
 11
32.8011894226074
 21
109.327323913574
 31
0.0
  0
LINE
  5
    F3
  8
0
  6
CONTINUOUS
 62
   210
 10
30.4854621887207
 20
113.764381408691
 30
0.0
 11
34.2478981018066
 21
110.001937866211
 31
0.0
  0
LINE
  5
    F4
  8
0
  6
CONTINUOUS
 62
   210
 10
31.9321708679199
 20
114.438995361328
 30
0.0
 11
35.6946067810059
 21
110.676551818848
 31
0.0
  0
LINE
  5
    F5
  8
0
  6
CONTINUOUS
 62
   210
 10
33.3788795471191
 20
115.113609313965
 30
0.0
 11
37.1413154602051
 21
111.351165771484
 31
0.0
  0
LINE
  5
    F6
  8
0
  6
CONTINUOUS
 62
   210
 10
34.8255882263184
 20
115.788223266602
 30
0.0
 11
38.5880241394043
 21
112.025779724121
 31
0.0
  0
LINE
  5
    F7
  8
0
  6
CONTINUOUS
 62
   210
 10
36.2722969055176
 20
116.462837219238
 30
0.0
 11
40.0347328186035
 21
112.700393676758
 31
0.0
  0
LINE
  5
    F8
  8
0
  6
CONTINUOUS
 62
   210
 10
37.7190055847168
 20
117.137451171875
 30
0.0
 11
41.4814414978027
 21
113.375007629395
 31
0.0
  0
LINE
  5
    F9
  8
0
  6
CONTINUOUS
 62
   210
 10
39.165714263916
 20
117.812065124512
 30
0.0
 11
42.928150177002
 21
114.049621582031
 31
0.0
  0
LINE
  5
    FA
  8
0
  6
CONTINUOUS
 62
   210
 10
40.6124229431152
 20
118.48664855957
 30
0.0
 11
44.3475799560547
 21
114.751487731934
 31
0.0
  0
LINE
  5
    FB
  8
0
  6
CONTINUOUS
 62
   210
 10
42.0123329162598
 20
119.208061218262
 30
0.0
 11
45.5996932983398
 21
115.620697021484
 31
0.0
  0
LINE
  5
    FC
  8
0
  6
CONTINUOUS
 62
   210
 10
42.8798370361328
 20
120.461875915527
 30
0.0
 11
46.624397277832
 21
116.717308044434
 31
0.0
  0
LINE
  5
    FD
  8
0
  6
CONTINUOUS
 62
   210
 10
43.0000038146973
 20
122.463035583496
 30
0.0
 11
47.3902053833008
 21
118.072830200195
 31
0.0
  0
LINE
  5
    FE
  8
0
  6
CONTINUOUS
 62
   210
 10
43.0000038146973
 20
124.584358215332
 30
0.0
 11
47.8946495056152
 21
119.68970489502
 31
0.0
  0
LINE
  5
    FF
  8
0
  6
CONTINUOUS
 62
   210
 10
43.0000038146973
 20
126.705680847168
 30
0.0
 11
48.0000038146973
 21
121.705673217773
 31
0.0
  0
LINE
  5
   100
  8
0
  6
CONTINUOUS
 62
   210
 10
43.0000038146973
 20
128.826995849609
 30
0.0
 11
48.0000038146973
 21
123.826995849609
 31
0.0
  0
LINE
  5
   101
  8
0
  6
CONTINUOUS
 62
   210
 10
43.0000038146973
 20
130.948318481445
 30
0.0
 11
48.0000038146973
 21
125.948318481445
 31
0.0
  0
LINE
  5
   102
  8
0
  6
CONTINUOUS
 62
   210
 10
43.0000038146973
 20
133.069641113281
 30
0.0
 11
48.0000038146973
 21
128.069641113281
 31
0.0
  0
LINE
  5
   103
  8
0
  6
CONTINUOUS
 62
   210
 10
43.0000038146973
 20
135.190963745117
 30
0.0
 11
48.0000038146973
 21
130.190963745117
 31
0.0
  0
LINE
  5
   104
  8
0
  6
CONTINUOUS
 62
   210
 10
43.0000038146973
 20
137.312286376953
 30
0.0
 11
48.0000038146973
 21
132.312286376953
 31
0.0
  0
LINE
  5
   105
  8
0
  6
CONTINUOUS
 62
   210
 10
43.0000038146973
 20
139.433609008789
 30
0.0
 11
48.0000038146973
 21
134.433609008789
 31
0.0
  0
LINE
  5
   106
  8
0
  6
CONTINUOUS
 62
   210
 10
44.8049278259277
 20
139.75
 30
0.0
 11
48.0000038146973
 21
136.554916381836
 31
0.0
  0
LINE
  5
   107
  8
0
  6
CONTINUOUS
 62
   210
 10
46.9262466430664
 20
139.75
 30
0.0
 11
48.0000038146973
 21
138.676239013672
 31
0.0
  0
ENDBLK
  5
   108
  8
0
  6
CONTINUOUS
 62
     7
  0
BLOCK
  5
   109
  8
0
  6
CONTINUOUS
 62
     7
  2
*HATCH137
 70
    65
 10
0.0
 20
0.0
 30
0.0
  3
*HATCH137
  0
LINE
  5
   10A
  8
0
  6
CONTINUOUS
 62
   210
 10
43.0000038146973
 20
150.040222167969
 30
0.0
 11
44.7902145385742
 21
148.25
 31
0.0
  0
LINE
  5
   10B
  8
0
  6
CONTINUOUS
 62
   210
 10
43.0000038146973
 20
152.161544799805
 30
0.0
 11
46.9115333557129
 21
148.25
 31
0.0
  0
LINE
  5
   10C
  8
0
  6
CONTINUOUS
 62
   210
 10
43.0000038146973
 20
154.282852172852
 30
0.0
 11
48.0000038146973
 21
149.282852172852
 31
0.0
  0
LINE
  5
   10D
  8
0
  6
CONTINUOUS
 62
   210
 10
43.0000038146973
 20
156.404174804688
 30
0.0
 11
48.0000038146973
 21
151.404174804688
 31
0.0
  0
LINE
  5
   10E
  8
0
  6
CONTINUOUS
 62
   210
 10
45.0255165100098
 20
156.499984741211
 30
0.0
 11
48.0000038146973
 21
153.525497436523
 31
0.0
  0
LINE
  5
   10F
  8
0
  6
CONTINUOUS
 62
   210
 10
47.1468353271484
 20
156.499984741211
 30
0.0
 11
48.0000038146973
 21
155.646820068359
 31
0.0
  0
ENDBLK
  5
   110
  8
0
  6
CONTINUOUS
 62
     7
  0
BLOCK
  5
   111
  8
0
  6
CONTINUOUS
 62
     7
  2
T_A_D_L_
 70
    64
 10
0.0
 20
0.0
 30
0.0
  3
T_A_D_L_
  0
LINE
  5
   112
  8
0
  6
CONTINUOUS
 62
     1
 10
99.5000028312206
 20
100.999999046326
 30
0.0
 11
99.5000028312206
 21
102.999999046326
 31
0.0
  0
LINE
  5
   113
  8
0
  6
CONTINUOUS
 62
     1
 10
-1.49999716877938
 20
102.999999046326
 30
0.0
 11
23.0000019073486
 21
102.999999046326
 31
0.0
  0
LINE
  5
   114
  8
0
  6
CONTINUOUS
 62
     1
 10
-1.49999716877937
 20
100.999999046326
 30
0.0
 11
-1.49999716877937
 21
102.999999046326
 31
0.0
  0
LINE
  5
   115
  8
0
  6
CONTINUOUS
 62
     1
 10
-0.499997138977059
 20
99.9999990463257
 30
0.0
 11
1.50000190734862
 21
99.9999990463257
 31
0.0
  0
LINE
  5
   116
  8
0
  6
CONTINUOUS
 62
     1
 10
19.0000019073486
 20
99.9999990463257
 30
0.0
 11
23.0000019073486
 21
99.9999990463257
 31
0.0
  0
LINE
  5
   117
  8
0
  6
CONTINUOUS
 62
     1
 10
-1.49999716877937
 20
102.999999046326
 30
0.0
 11
-1.49999716877937
 21
186.499705392366
 31
0.0
  0
LINE
  5
   118
  8
0
  6
CONTINUOUS
 62
     1
 10
99.5000028312206
 20
102.999999046326
 30
0.0
 11
99.5000028312206
 21
189.197535108559
 31
0.0
  0
LINE
  5
   119
  8
0
  6
CONTINUOUS
 62
     1
 10
98.5000015647646
 20
99.9999985671261
 30
0.0
 11
99.5000015305361
 21
100.999998532898
 31
0.0
  0
LINE
  5
   11A
  8
0
  6
CONTINUOUS
 62
     1
 10
-1.49999712599373
 20
100.999998952197
 30
0.0
 11
-0.499997160222257
 21
99.9999989864258
 31
0.0
  0
LINE
  5
   11B
  8
0
  6
CONTINUOUS
 62
     1
 10
28.0000019073486
 20
102.999999046326
 30
0.0
 11
99.5000028312206
 21
102.999999046326
 31
0.0
  0
LINE
  5
   11C
  8
0
  6
CONTINUOUS
 62
     1
 10
28.0000019073486
 20
99.9999990463257
 30
0.0
 11
98.5000020439642
 21
99.9999990463257
 31
0.0
  0
INSERT
  5
   11D
  8
0
  6
CONTINUOUS
 62
     7
  2
*HATCH134
 10
0.0
 20
0.0
 30
0.0
  0
LINE
  5
   11E
  8
0
  6
CONTINUOUS
 62
     7
 10
27.0416736602783
 20
112.158508300781
 30
0.0
 11
41.8452396392822
 21
119.0615234375
 31
0.0
  0
LINE
  5
   11F
  8
0
  6
CONTINUOUS
 62
     7
 10
41.8452396392822
 20
119.0615234375
 30
0.0
 11
42.6867847442627
 21
119.799545288086
 31
0.0
  0
LINE
  5
   120
  8
0
  6
CONTINUOUS
 62
     7
 10
43.0000019073486
 20
120.874145507813
 30
0.0
 11
43.0000019073486
 21
127.262603759766
 31
0.0
  0
LINE
  5
   121
  8
0
  6
CONTINUOUS
 62
     7
 10
43.0000019073486
 20
139.75
 30
0.0
 11
43.0000019073486
 21
148.25
 31
0.0
  0
LINE
  5
   122
  8
0
  6
CONTINUOUS
 62
     7
 10
43.0000019073486
 20
148.25
 30
0.0
 11
43.0000019073486
 21
156.499984741211
 31
0.0
  0
LINE
  5
   123
  8
0
  6
CONTINUOUS
 62
     7
 10
43.0000019073486
 20
156.499984741211
 30
0.0
 11
48.0000038146973
 21
156.499984741211
 31
0.0
  0
LINE
  5
   124
  8
0
  6
CONTINUOUS
 62
     7
 10
48.0000038146973
 20
148.25
 30
0.0
 11
48.0000038146973
 21
156.499984741211
 31
0.0
  0
LINE
  5
   125
  8
0
  6
CONTINUOUS
 62
     7
 10
43.0000019073486
 20
148.25
 30
0.0
 11
48.0000038146973
 21
148.25
 31
0.0
  0
LINE
  5
   126
  8
0
  6
CONTINUOUS
 62
     7
 10
43.0000019073486
 20
139.75
 30
0.0
 11
48.0000038146973
 21
139.75
 31
0.0
  0
LINE
  5
   127
  8
0
  6
CONTINUOUS
 62
     7
 10
48.0000038146973
 20
127.262603759766
 30
0.0
 11
48.0000038146973
 21
139.75
 31
0.0
  0
LINE
  5
   128
  8
0
  6
CONTINUOUS
 62
     7
 10
43.0000019073486
 20
127.262603759766
 30
0.0
 11
43.0000019073486
 21
139.75
 31
0.0
  0
LINE
  5
   129
  8
0
  6
CONTINUOUS
 62
     7
 10
48.0000038146973
 20
139.75
 30
0.0
 11
48.0000038146973
 21
148.25
 31
0.0
  0
LINE
  5
   12A
  8
0
  6
CONTINUOUS
 62
     7
 10
48.0000038146973
 20
120.874145507813
 30
0.0
 11
48.0000038146973
 21
127.262603759766
 31
0.0
  0
LINE
  5
   12B
  8
0
  6
CONTINUOUS
 62
     7
 10
42.6867847442627
 20
119.799545288086
 30
0.0
 11
43.0000019073486
 21
120.874145507813
 31
0.0
  0
ARC
  5
   12C
  8
0
  6
CONTINUOUS
 62
     7
 10
40.9999714505164
 20
120.874153954629
 30
0.0
 40
7.00003236418596
 50
295.000173925889
 51
359.999930860147
  0
LINE
  5
   12D
  8
0
  6
CONTINUOUS
 62
     7
 10
29.1547471084667
 20
107.626958646517
 30
0.0
 11
43.9583301544189
 21
114.529983520508
 31
0.0
  0
LINE
  5
   12E
  8
0
  6
CONTINUOUS
 62
     7
 10
28.0000019073486
 20
88.2500000000001
 30
0.0
 11
28.0000019073486
 21
105.81437167807
 31
0.0
  0
ARC
  5
   12F
  8
0
  6
CONTINUOUS
 62
     7
 10
29.999970382496
 20
105.81437167807
 30
0.0
 40
1.99996847516997
 50
115.000002325622
 51
180.0
  0
ARC
  5
   130
  8
0
  6
CONTINUOUS
 62
     7
 10
30.0000475353922
 20
105.814307270603
 30
0.0
 40
7.00006162089133
 50
115.000180631326
 51
179.999555538035
  0
LINE
  5
   131
  8
0
  6
CONTINUOUS
 62
     7
 10
23.0000019073486
 20
88.2500000000001
 30
0.0
 11
23.0000019073486
 21
105.814361572266
 31
0.0
  0
LINE
  5
   132
  8
0
  6
CONTINUOUS
 62
     7
 10
23.0000019073486
 20
88.2500000000001
 30
0.0
 11
28.0000019073486
 21
88.2500000000001
 31
0.0
  0
LINE
  5
   133
  8
0
  6
CONTINUOUS
 62
     7
 10
23.0000019073486
 20
74.0000000000001
 30
0.0
 11
23.0000019073486
 21
79.7500000000001
 31
0.0
  0
LINE
  5
   134
  8
0
  6
CONTINUOUS
 62
     7
 10
23.0000019073486
 20
74.0000000000001
 30
0.0
 11
28.0000019073486
 21
74.0000000000001
 31
0.0
  0
LINE
  5
   135
  8
0
  6
CONTINUOUS
 62
     7
 10
28.0000019073486
 20
74.0000000000001
 30
0.0
 11
28.0000019073486
 21
79.7500000000001
 31
0.0
  0
LINE
  5
   136
  8
0
  6
DASHDOT
 62
     7
 10
41.0000019073486
 20
144.0
 30
0.0
 11
50.0000038146973
 21
144.0
 31
0.0
  0
INSERT
  5
   137
  8
0
  6
CONTINUOUS
 62
     7
  2
*HATCH135
 10
0.0
 20
0.0
 30
0.0
  0
INSERT
  5
   138
  8
0
  6
CONTINUOUS
 62
     7
  2
*HATCH136
 10
0.0
 20
0.0
 30
0.0
  0
INSERT
  5
   139
  8
0
  6
CONTINUOUS
 62
     7
  2
*HATCH137
 10
0.0
 20
0.0
 30
0.0
  0
POINT
  5
   13A
  8
0
  6
CONTINUOUS
 62
     7
 10
29.0000019073486
 20
84.0
 30
0.0
  0
LINE
  5
   13B
  8
0
  6
CONTINUOUS
 62
     3
 10
-8.95514807263996
 20
194.08088103724
 30
0.0
 11
106.197994010985
 21
196.019486122823
 31
0.0
  0
LINE
  5
   13C
  8
0
  6
CONTINUOUS
 62
     3
 10
-7.98584552984849
 20
186.326460694908
 30
0.0
 11
108.136599096568
 21
189.428228831841
 31
0.0
  0
LINE
  5
   13D
  8
0
  6
CONTINUOUS
 62
     1
 10
99.5000028312206
 20
195.90672532855
 30
0.0
 11
99.5000028312206
 21
213.000017223622
 31
0.0
  0
LINE
  5
   13E
  8
0
  6
CONTINUOUS
 62
     1
 10
-1.49999716877937
 20
194.206388628214
 30
0.0
 11
-1.49999716877937
 21
213.000017223622
 31
0.0
  0
LINE
  5
   13F
  8
0
  6
CONTINUOUS
 62
     1
 10
-1.49999716877937
 20
213.000017223622
 30
0.0
 11
99.5000028312206
 21
213.000017223622
 31
0.0
  0
LINE
  5
   140
  8
0
  6
CONTINUOUS
 62
     7
 10
23.0000019073486
 20
79.7499999999999
 30
0.0
 11
28.0000019073486
 21
79.7499999999999
 31
0.0
  0
ENDBLK
  5
   141
  8
0
  6
CONTINUOUS
 62
     7
  0
BLOCK
  5
   142
  8
0
  6
CONTINUOUS
 62
     7
  2
*UDIM665
 70
    65
 10
0.0
 20
0.0
 30
0.0
  3
*UDIM665
  0
TEXT
  5
   143
  8
0
  6
CONTINUOUS
 62
     7
 10
227.867637175595
 20
185.355374508347
 30
0.0
 40
2.99999994933605
  1
101,5
 41
0.933333333333333
 72
     1
 11
234.567637062445
 21
186.855374483015
 31
0.0
 73
     2
  0
LINE
  5
   144
  8
0
  6
CONTINUOUS
 62
     7
 10
214.542636859417
 20
135.744282952822
 30
0.0
 11
214.542636859417
 21
186.355374508347
 31
0.0
  0
LINE
  5
   145
  8
0
  6
CONTINUOUS
 62
     7
 10
255.142637464404
 20
132.232965809771
 30
0.0
 11
255.142637464404
 21
186.355374508347
 31
0.0
  0
LINE
  5
   146
  8
0
  6
CONTINUOUS
 62
     7
 10
214.542636859417
 20
184.355374508347
 30
0.0
 11
255.142637464404
 21
184.355374508347
 31
0.0
  0
LINE
  5
   147
  8
0
  6
CONTINUOUS
 62
     7
 10
217.497060136624
 20
184.876318938299
 30
0.0
 11
214.542636859417
 21
184.355374508347
 31
0.0
  0
LINE
  5
   148
  8
0
  6
CONTINUOUS
 62
     7
 10
214.542636859417
 20
184.355374508347
 30
0.0
 11
217.497060136624
 21
183.834430078395
 31
0.0
  0
LINE
  5
   149
  8
0
  6
CONTINUOUS
 62
     7
 10
252.188214187197
 20
183.834430078395
 30
0.0
 11
255.142637464404
 21
184.355374508347
 31
0.0
  0
LINE
  5
   14A
  8
0
  6
CONTINUOUS
 62
     7
 10
255.142637464404
 20
184.355374508347
 30
0.0
 11
252.188214187197
 21
184.876318938299
 31
0.0
  0
ENDBLK
  5
   14B
  8
0
  6
CONTINUOUS
 62
     7
  0
BLOCK
  5
   14C
  8
0
  6
CONTINUOUS
 62
     7
  2
*UDIM666
 70
    65
 10
0.0
 20
0.0
 30
0.0
  3
*UDIM666
  0
TEXT
  5
   14D
  8
0
  6
CONTINUOUS
 62
     7
 10
221.042637035747
 20
160.732219426253
 30
0.0
 40
2.99999994933605
  1
45
 41
0.933333333333333
 72
     1
 11
223.542636993527
 21
162.232219400921
 31
0.0
 73
     2
  0
LINE
  5
   14E
  8
0
  6
CONTINUOUS
 62
     7
 10
214.542636859417
 20
135.744282952822
 30
0.0
 11
214.542636859417
 21
161.732219426253
 31
0.0
  0
LINE
  5
   14F
  8
0
  6
CONTINUOUS
 62
     7
 10
232.542637127638
 20
152.032961137593
 30
0.0
 11
232.542637127638
 21
161.732219426253
 31
0.0
  0
LINE
  5
   150
  8
0
  6
CONTINUOUS
 62
     7
 10
214.542636859417
 20
159.732219426253
 30
0.0
 11
232.542637127638
 21
159.732219426253
 31
0.0
  0
LINE
  5
   151
  8
0
  6
CONTINUOUS
 62
     7
 10
217.440414332628
 20
160.508676582671
 30
0.0
 11
214.542636859417
 21
159.732219426253
 31
0.0
  0
LINE
  5
   152
  8
0
  6
CONTINUOUS
 62
     7
 10
214.542636859417
 20
159.732219426253
 30
0.0
 11
217.440414332628
 21
158.955762269834
 31
0.0
  0
LINE
  5
   153
  8
0
  6
CONTINUOUS
 62
     7
 10
229.644859654427
 20
158.955762269834
 30
0.0
 11
232.542637127638
 21
159.732219426253
 31
0.0
  0
LINE
  5
   154
  8
0
  6
CONTINUOUS
 62
     7
 10
232.542637127638
 20
159.732219426253
 30
0.0
 11
229.644859654427
 21
160.508676582671
 31
0.0
  0
ENDBLK
  5
   155
  8
0
  6
CONTINUOUS
 62
     7
  0
BLOCK
  5
   156
  8
0
  6
CONTINUOUS
 62
     7
  2
*UDIM667
 70
    65
 10
0.0
 20
0.0
 30
0.0
  3
*UDIM667
  0
TEXT
  5
   157
  8
0
  6
CONTINUOUS
 62
     7
 10
239.247731027778
 20
160.732219426253
 30
0.0
 40
2.99999994933605
  1
5
 41
0.933333333333333
 72
     1
 11
240.347731009202
 21
162.232219400921
 31
0.0
 73
     2
  0
LINE
  5
   158
  8
0
  6
CONTINUOUS
 62
     7
 10
234.54263792038
 20
152.032961137593
 30
0.0
 11
234.54263792038
 21
161.732219426253
 31
0.0
  0
LINE
  5
   159
  8
0
  6
CONTINUOUS
 62
     7
 10
232.542637127638
 20
159.732219426253
 30
0.0
 11
241.447730990625
 21
159.732219426253
 31
0.0
  0
LINE
  5
   15A
  8
0
  6
CONTINUOUS
 62
     7
 10
229.644859654427
 20
158.955762269834
 30
0.0
 11
232.542637127638
 21
159.732219426253
 31
0.0
  0
LINE
  5
   15B
  8
0
  6
CONTINUOUS
 62
     7
 10
232.542637127638
 20
159.732219426253
 30
0.0
 11
229.644859654427
 21
160.508676582671
 31
0.0
  0
LINE
  5
   15C
  8
0
  6
CONTINUOUS
 62
     7
 10
237.44041539359
 20
160.508676582671
 30
0.0
 11
234.54263792038
 21
159.732219426253
 31
0.0
  0
LINE
  5
   15D
  8
0
  6
CONTINUOUS
 62
     7
 10
234.54263792038
 20
159.732219426253
 30
0.0
 11
237.44041539359
 21
158.955762269834
 31
0.0
  0
ENDBLK
  5
   15E
  8
0
  6
CONTINUOUS
 62
     7
  0
BLOCK
  5
   15F
  8
0
  6
CONTINUOUS
 62
     7
  2
*UDIM668
 70
    65
 10
0.0
 20
0.0
 30
0.0
  3
*UDIM668
  0
TEXT
  5
   160
  8
0
  6
CONTINUOUS
 62
     7
 10
207.592636790822
 20
-35.8657175752306
 30
0.0
 40
2.99999994933605
  1
3
 41
0.933333333333333
 72
     1
 11
208.692636772245
 21
-34.3657176005626
 31
0.0
 73
     2
  0
TEXT
  5
   161
  8
0
  6
CONTINUOUS
 62
     7
 10
204.842636816055
 20
-35.8657175752306
 30
0.0
 40
2.99999994933605
  1
_
 41
0.933333333333333
 72
     1
 11
205.942636797478
 21
-34.3657176005626
 31
0.0
 73
     2
  0
LINE
  5
   162
  8
0
  6
CONTINUOUS
 62
     7
 10
213.342636841536
 20
21.5669584785743
 30
0.0
 11
213.342636841536
 21
-38.8657175752306
 31
0.0
  0
LINE
  5
   163
  8
0
  6
CONTINUOUS
 62
     7
 10
214.542636859417
 20
21.9141720180434
 30
0.0
 11
214.542636859417
 21
-38.8657175752306
 31
0.0
  0
LINE
  5
   164
  8
0
  6
CONTINUOUS
 62
     7
 10
204.842636816055
 20
-36.8657175752306
 30
0.0
 11
214.542636859417
 21
-36.8657175752306
 31
0.0
  0
LINE
  5
   165
  8
0
  6
CONTINUOUS
 62
     7
 10
210.388213564329
 20
-37.3866620051823
 30
0.0
 11
213.342636841536
 21
-36.8657175752306
 31
0.0
  0
LINE
  5
   166
  8
0
  6
CONTINUOUS
 62
     7
 10
213.342636841536
 20
-36.8657175752306
 30
0.0
 11
210.388213564329
 21
-36.344773145279
 31
0.0
  0
LINE
  5
   167
  8
0
  6
CONTINUOUS
 62
     7
 10
217.497060136624
 20
-36.344773145279
 30
0.0
 11
214.542636859417
 21
-36.8657175752306
 31
0.0
  0
LINE
  5
   168
  8
0
  6
CONTINUOUS
 62
     7
 10
214.542636859417
 20
-36.8657175752306
 30
0.0
 11
217.497060136624
 21
-37.3866620051823
 31
0.0
  0
ENDBLK
  5
   169
  8
0
  6
CONTINUOUS
 62
     7
  0
BLOCK
  5
   16A
  8
0
  6
CONTINUOUS
 62
     7
  2
*UDIM669
 70
    65
 10
0.0
 20
0.0
 30
0.0
  3
*UDIM669
  0
TEXT
  5
   16B
  8
0
  6
CONTINUOUS
 62
     7
 10
237.376651393373
 20
-35.8657175752306
 30
0.0
 40
2.99999994933605
  1
135
 41
0.933333333333333
 72
     1
 11
241.27665132751
 21
-34.3657176005626
 31
0.0
 73
     2
  0
LINE
  5
   16C
  8
0
  6
CONTINUOUS
 62
     7
 10
268.56066465939
 20
56.7329597473144
 30
0.0
 11
268.56066465939
 21
-38.8657175752306
 31
0.0
  0
LINE
  5
   16D
  8
0
  6
CONTINUOUS
 62
     7
 10
214.542636859417
 20
-36.8657175752306
 30
0.0
 11
268.56066465939
 21
-36.8657175752306
 31
0.0
  0
LINE
  5
   16E
  8
0
  6
CONTINUOUS
 62
     7
 10
217.497060136624
 20
-36.344773145279
 30
0.0
 11
214.542636859417
 21
-36.8657175752306
 31
0.0
  0
LINE
  5
   16F
  8
0
  6
CONTINUOUS
 62
     7
 10
214.542636859417
 20
-36.8657175752306
 30
0.0
 11
217.497060136624
 21
-37.3866620051823
 31
0.0
  0
LINE
  5
   170
  8
0
  6
CONTINUOUS
 62
     7
 10
265.606241382183
 20
-37.3866620051823
 30
0.0
 11
268.56066465939
 21
-36.8657175752306
 31
0.0
  0
LINE
  5
   171
  8
0
  6
CONTINUOUS
 62
     7
 10
268.56066465939
 20
-36.8657175752306
 30
0.0
 11
265.606241382183
 21
-36.344773145279
 31
0.0
  0
ENDBLK
  5
   172
  8
0
  6
CONTINUOUS
 62
     7
  0
BLOCK
  5
   173
  8
0
  6
CONTINUOUS
 62
     7
  2
*UDIM670
 70
    65
 10
0.0
 20
0.0
 30
0.0
  3
*UDIM670
  0
TEXT
  5
   174
  8
0
  6
CONTINUOUS
 62
     7
 10
231.767871409821
 20
-29.1057024117247
 30
0.0
 40
2.99999994933605
  1
107
 41
0.933333333333333
 72
     1
 11
235.667871343958
 21
-27.6057024370567
 31
0.0
 73
     2
  0
LINE
  5
   175
  8
0
  6
CONTINUOUS
 62
     7
 10
214.542636859417
 20
21.9141720180434
 30
0.0
 11
214.542636859417
 21
-32.1057024117247
 31
0.0
  0
LINE
  5
   176
  8
0
  6
CONTINUOUS
 62
     7
 10
257.343104883021
 20
9.66810961823647
 30
0.0
 11
257.343104883021
 21
-32.1057024117247
 31
0.0
  0
LINE
  5
   177
  8
0
  6
CONTINUOUS
 62
     7
 10
214.542636859417
 20
-30.1057024117247
 30
0.0
 11
257.343104883021
 21
-30.1057024117247
 31
0.0
  0
LINE
  5
   178
  8
0
  6
CONTINUOUS
 62
     7
 10
217.497060136624
 20
-29.5847579817731
 30
0.0
 11
214.542636859417
 21
-30.1057024117247
 31
0.0
  0
LINE
  5
   179
  8
0
  6
CONTINUOUS
 62
     7
 10
214.542636859417
 20
-30.1057024117247
 30
0.0
 11
217.497060136624
 21
-30.6266468416764
 31
0.0
  0
LINE
  5
   17A
  8
0
  6
CONTINUOUS
 62
     7
 10
254.388681605814
 20
-30.6266468416764
 30
0.0
 11
257.343104883021
 21
-30.1057024117247
 31
0.0
  0
LINE
  5
   17B
  8
0
  6
CONTINUOUS
 62
     7
 10
257.343104883021
 20
-30.1057024117247
 30
0.0
 11
254.388681605814
 21
-29.5847579817731
 31
0.0
  0
ENDBLK
  5
   17C
  8
0
  6
CONTINUOUS
 62
     7
  0
BLOCK
  5
   17D
  8
0
  6
CONTINUOUS
 62
     7
  2
*UDIM671
 70
    65
 10
0.0
 20
0.0
 30
0.0
  3
*UDIM671
  0
TEXT
  5
   17E
  8
0
  6
CONTINUOUS
 62
     7
 10
261.143103830204
 20
-29.1057024117247
 30
0.0
 40
2.99999994933605
  1
2
 41
0.933333333333333
 72
     1
 11
262.243103811627
 21
-27.6057024370567
 31
0.0
 73
     2
  0
LINE
  5
   17F
  8
0
  6
CONTINUOUS
 62
     7
 10
258.143104894942
 20
10.2438105613945
 30
0.0
 11
258.143104894942
 21
-32.1057024117247
 31
0.0
  0
LINE
  5
   180
  8
0
  6
CONTINUOUS
 62
     7
 10
257.343104883021
 20
-30.1057024117247
 30
0.0
 11
263.34310379305
 21
-30.1057024117247
 31
0.0
  0
LINE
  5
   181
  8
0
  6
CONTINUOUS
 62
     7
 10
254.388681605814
 20
-30.6266468416764
 30
0.0
 11
257.343104883021
 21
-30.1057024117247
 31
0.0
  0
LINE
  5
   182
  8
0
  6
CONTINUOUS
 62
     7
 10
257.343104883021
 20
-30.1057024117247
 30
0.0
 11
254.388681605814
 21
-29.5847579817731
 31
0.0
  0
LINE
  5
   183
  8
0
  6
CONTINUOUS
 62
     7
 10
261.097528172149
 20
-29.5847579817731
 30
0.0
 11
258.143104894942
 21
-30.1057024117247
 31
0.0
  0
LINE
  5
   184
  8
0
  6
CONTINUOUS
 62
     7
 10
258.143104894942
 20
-30.1057024117247
 30
0.0
 11
261.097528172149
 21
-30.6266468416764
 31
0.0
  0
ENDBLK
  5
   185
  8
0
  6
CONTINUOUS
 62
     7
  0
BLOCK
  5
   186
  8
0
  6
CONTINUOUS
 62
     7
  2
*UDIM672
 70
    65
 10
0.0
 20
0.0
 30
0.0
  3
*UDIM672
  0
TEXT
  5
   187
  8
0
  6
CONTINUOUS
 62
     7
 10
228.267898876348
 20
-23.3114037001482
 30
0.0
 40
2.99999994933605
  1
103,5
 41
0.933333333333333
 72
     1
 11
234.967898763198
 21
-21.8114037254802
 31
0.0
 73
     2
  0
LINE
  5
   188
  8
0
  6
CONTINUOUS
 62
     7
 10
214.542636859417
 20
21.9141720180434
 30
0.0
 11
214.542636859417
 21
-26.3114037001482
 31
0.0
  0
LINE
  5
   189
  8
0
  6
CONTINUOUS
 62
     7
 10
255.94316162885
 20
39.8329594969468
 30
0.0
 11
255.94316162885
 21
-26.3114037001482
 31
0.0
  0
LINE
  5
   18A
  8
0
  6
CONTINUOUS
 62
     7
 10
214.542636859417
 20
-24.3114037001482
 30
0.0
 11
255.94316162885
 21
-24.3114037001482
 31
0.0
  0
LINE
  5
   18B
  8
0
  6
CONTINUOUS
 62
     7
 10
217.497060136624
 20
-23.7904592701966
 30
0.0
 11
214.542636859417
 21
-24.3114037001482
 31
0.0
  0
LINE
  5
   18C
  8
0
  6
CONTINUOUS
 62
     7
 10
214.542636859417
 20
-24.3114037001482
 30
0.0
 11
217.497060136624
 21
-24.8323481300999
 31
0.0
  0
LINE
  5
   18D
  8
0
  6
CONTINUOUS
 62
     7
 10
252.988738351643
 20
-24.8323481300999
 30
0.0
 11
255.94316162885
 21
-24.3114037001482
 31
0.0
  0
LINE
  5
   18E
  8
0
  6
CONTINUOUS
 62
     7
 10
255.94316162885
 20
-24.3114037001482
 30
0.0
 11
252.988738351643
 21
-23.7904592701966
 31
0.0
  0
ENDBLK
  5
   18F
  8
0
  6
CONTINUOUS
 62
     7
  0
BLOCK
  5
   190
  8
0
  6
CONTINUOUS
 62
     7
  2
*UDIM673
 70
    65
 10
0.0
 20
0.0
 30
0.0
  3
*UDIM673
  0
TEXT
  5
   191
  8
0
  6
CONTINUOUS
 62
     7
 10
181.345557861688
 20
159.306877292405
 30
0.0
 40
2.99999994933605
  1
12,5
 50
90.0
 41
0.933333333333333
 72
     1
 11
179.845557887013
 21
164.606877202897
 31
0.0
 73
     2
  0
LINE
  5
   192
  8
0
  6
CONTINUOUS
 62
     7
 10
230.742637115717
 20
149.332961112261
 30
0.0
 11
180.345557861681
 21
149.332961112261
 31
0.0
  0
LINE
  5
   193
  8
0
  6
CONTINUOUS
 62
     7
 10
231.542637127638
 20
154.332955083251
 30
0.0
 11
180.345557861681
 21
154.332955083251
 31
0.0
  0
LINE
  5
   194
  8
0
  6
CONTINUOUS
 62
     7
 10
182.345557861681
 20
149.332961112261
 30
0.0
 11
182.345557861681
 21
169.906877113391
 31
0.0
  0
LINE
  5
   195
  8
0
  6
CONTINUOUS
 62
     7
 10
183.1220150181
 20
146.43518363905
 30
0.0
 11
182.345557861681
 21
149.332961112261
 31
0.0
  0
LINE
  5
   196
  8
0
  6
CONTINUOUS
 62
     7
 10
182.345557861681
 20
149.332961112261
 30
0.0
 11
181.569100705263
 21
146.43518363905
 31
0.0
  0
LINE
  5
   197
  8
0
  6
CONTINUOUS
 62
     7
 10
181.569100705263
 20
157.230732556461
 30
0.0
 11
182.345557861681
 21
154.332955083251
 31
0.0
  0
LINE
  5
   198
  8
0
  6
CONTINUOUS
 62
     7
 10
182.345557861681
 20
154.332955083251
 30
0.0
 11
183.1220150181
 21
157.230732556461
 31
0.0
  0
ENDBLK
  5
   199
  8
0
  6
CONTINUOUS
 62
     7
  0
BLOCK
  5
   19A
  8
0
  6
CONTINUOUS
 62
     7
  2
*UDIM674
 70
    65
 10
0.0
 20
0.0
 30
0.0
  3
*UDIM674
  0
TEXT
  5
   19B
  8
0
  6
CONTINUOUS
 62
     7
 10
181.345557861686
 20
75.832960141005
 30
0.0
 40
2.99999994933605
  1
228
 50
90.0
 41
0.933333333333333
 72
     1
 11
179.845557887013
 21
79.73296007514
 31
0.0
 73
     2
  0
LINE
  5
   19C
  8
0
  6
CONTINUOUS
 62
     7
 10
220.342636960745
 20
34.132959395647
 30
0.0
 11
180.345557861681
 21
34.132959395647
 31
0.0
  0
LINE
  5
   19D
  8
0
  6
CONTINUOUS
 62
     7
 10
182.345557861681
 20
34.132959395647
 30
0.0
 11
182.345557861681
 21
125.332960754633
 31
0.0
  0
LINE
  5
   19E
  8
0
  6
CONTINUOUS
 62
     7
 10
181.569100705263
 20
37.0307368688576
 30
0.0
 11
182.345557861681
 21
34.132959395647
 31
0.0
  0
LINE
  5
   19F
  8
0
  6
CONTINUOUS
 62
     7
 10
182.345557861681
 20
34.132959395647
 30
0.0
 11
183.1220150181
 21
37.0307368688576
 31
0.0
  0
LINE
  5
   1A0
  8
0
  6
CONTINUOUS
 62
     7
 10
183.1220150181
 20
122.435183281422
 30
0.0
 11
182.345557861681
 21
125.332960754633
 31
0.0
  0
LINE
  5
   1A1
  8
0
  6
CONTINUOUS
 62
     7
 10
182.345557861681
 20
125.332960754633
 30
0.0
 11
181.569100705263
 21
122.435183281422
 31
0.0
  0
ENDBLK
  5
   1A2
  8
0
  6
CONTINUOUS
 62
     7
  0
BLOCK
  5
   1A3
  8
0
  6
CONTINUOUS
 62
     7
  2
*UDIM675
 70
    65
 10
0.0
 20
0.0
 30
0.0
  3
*UDIM675
  0
TEXT
  5
   1A4
  8
0
  6
CONTINUOUS
 62
     7
 10
181.345557861684
 20
19.632959259055
 30
0.0
 40
2.99999994933605
  1
60
 50
90.0
 41
0.933333333333333
 72
     1
 11
179.845557887013
 21
22.1329592168331
 31
0.0
 73
     2
  0
LINE
  5
   1A5
  8
0
  6
CONTINUOUS
 62
     7
 10
230.742637115717
 20
10.1329590380192
 30
0.0
 11
180.345557861681
 21
10.1329590380192
 31
0.0
  0
LINE
  5
   1A6
  8
0
  6
CONTINUOUS
 62
     7
 10
182.345557861681
 20
10.1329590380192
 30
0.0
 11
182.345557861681
 21
34.132959395647
 31
0.0
  0
LINE
  5
   1A7
  8
0
  6
CONTINUOUS
 62
     7
 10
181.569100705263
 20
13.0307365112297
 30
0.0
 11
182.345557861681
 21
10.1329590380192
 31
0.0
  0
LINE
  5
   1A8
  8
0
  6
CONTINUOUS
 62
     7
 10
182.345557861681
 20
10.1329590380192
 30
0.0
 11
183.1220150181
 21
13.0307365112297
 31
0.0
  0
LINE
  5
   1A9
  8
0
  6
CONTINUOUS
 62
     7
 10
183.1220150181
 20
31.2351819224365
 30
0.0
 11
182.345557861681
 21
34.132959395647
 31
0.0
  0
LINE
  5
   1AA
  8
0
  6
CONTINUOUS
 62
     7
 10
182.345557861681
 20
34.132959395647
 30
0.0
 11
181.569100705263
 21
31.2351819224365
 31
0.0
  0
ENDBLK
  5
   1AB
  8
0
  6
CONTINUOUS
 62
     7
  0
BLOCK
  5
   1AC
  8
0
  6
CONTINUOUS
 62
     7
  2
*UDIM676
 70
    65
 10
0.0
 20
0.0
 30
0.0
  3
*UDIM676
  0
TEXT
  5
   1AD
  8
0
  6
CONTINUOUS
 62
     7
 10
181.345557861688
 20
-10.5385041142206
 30
0.0
 40
2.99999994933605
  1
12,5
 50
90.0
 41
0.933333333333333
 72
     1
 11
179.845557887013
 21
-5.2385042037288
 31
0.0
 73
     2
  0
LINE
  5
   1AE
  8
0
  6
CONTINUOUS
 62
     7
 10
231.542637127638
 20
5.13296506702905
 30
0.0
 11
180.345557861681
 21
5.13296506702905
 31
0.0
  0
LINE
  5
   1AF
  8
0
  6
CONTINUOUS
 62
     7
 10
182.345557861681
 20
-10.5385041142225
 30
0.0
 11
182.345557861681
 21
10.1329590380192
 31
0.0
  0
LINE
  5
   1B0
  8
0
  6
CONTINUOUS
 62
     7
 10
183.1220150181
 20
2.23518759381852
 30
0.0
 11
182.345557861681
 21
5.13296506702905
 31
0.0
  0
LINE
  5
   1B1
  8
0
  6
CONTINUOUS
 62
     7
 10
182.345557861681
 20
5.13296506702905
 30
0.0
 11
181.569100705263
 21
2.23518759381852
 31
0.0
  0
LINE
  5
   1B2
  8
0
  6
CONTINUOUS
 62
     7
 10
181.569100705263
 20
13.0307365112297
 30
0.0
 11
182.345557861681
 21
10.1329590380192
 31
0.0
  0
LINE
  5
   1B3
  8
0
  6
CONTINUOUS
 62
     7
 10
182.345557861681
 20
10.1329590380192
 30
0.0
 11
183.1220150181
 21
13.0307365112297
 31
0.0
  0
ENDBLK
  5
   1B4
  8
0
  6
CONTINUOUS
 62
     7
  0
BLOCK
  5
   1B5
  8
0
  6
CONTINUOUS
 62
     7
  2
*UDIM677
 70
    65
 10
0.0
 20
0.0
 30
0.0
  3
*UDIM677
  0
TEXT
  5
   1B6
  8
0
  6
CONTINUOUS
 62
     7
 10
181.345557861684
 20
134.832960975669
 30
0.0
 40
2.99999994933605
  1
60
 50
90.0
 41
0.933333333333333
 72
     1
 11
179.845557887013
 21
137.332960933447
 31
0.0
 73
     2
  0
LINE
  5
   1B7
  8
0
  6
CONTINUOUS
 62
     7
 10
220.342636960745
 20
125.332960754633
 30
0.0
 11
180.345557861681
 21
125.332960754633
 31
0.0
  0
LINE
  5
   1B8
  8
0
  6
CONTINUOUS
 62
     7
 10
182.345557861681
 20
125.332960754633
 30
0.0
 11
182.345557861681
 21
149.332961112261
 31
0.0
  0
LINE
  5
   1B9
  8
0
  6
CONTINUOUS
 62
     7
 10
181.569100705263
 20
128.230738227843
 30
0.0
 11
182.345557861681
 21
125.332960754633
 31
0.0
  0
LINE
  5
   1BA
  8
0
  6
CONTINUOUS
 62
     7
 10
182.345557861681
 20
125.332960754633
 30
0.0
 11
183.1220150181
 21
128.230738227843
 31
0.0
  0
LINE
  5
   1BB
  8
0
  6
CONTINUOUS
 62
     7
 10
183.1220150181
 20
146.43518363905
 30
0.0
 11
182.345557861681
 21
149.332961112261
 31
0.0
  0
LINE
  5
   1BC
  8
0
  6
CONTINUOUS
 62
     7
 10
182.345557861681
 20
149.332961112261
 30
0.0
 11
181.569100705263
 21
146.43518363905
 31
0.0
  0
ENDBLK
  5
   1BD
  8
0
  6
CONTINUOUS
 62
     7
  0
BLOCK
  5
   1BE
  8
0
  6
CONTINUOUS
 62
     7
  2
*HATCH138
 70
    65
 10
0.0
 20
0.0
 30
0.0
  3
*HATCH138
  0
LINE
  5
   1BF
  8
0
  6
CONTINUOUS
 62
     3
 10
28.0000019073486
 20
-73.2548980712891
 30
0.0
 11
29.7451000213623
 21
-75.0
 31
0.0
  0
LINE
  5
   1C0
  8
0
  6
CONTINUOUS
 62
     3
 10
29.3664360046387
 20
-72.5000152587891
 30
0.0
 11
31.866418838501
 21
-75.0
 31
0.0
  0
LINE
  5
   1C1
  8
0
  6
CONTINUOUS
 62
     3
 10
31.4877548217773
 20
-72.5000152587891
 30
0.0
 11
33.9877395629883
 21
-75.0
 31
0.0
  0
LINE
  5
   1C2
  8
0
  6
CONTINUOUS
 62
     3
 10
33.6090774536133
 20
-72.5000152587891
 30
0.0
 11
36.1090621948242
 21
-75.0
 31
0.0
  0
LINE
  5
   1C3
  8
0
  6
CONTINUOUS
 62
     3
 10
35.7304000854492
 20
-72.5000152587891
 30
0.0
 11
38.2303848266602
 21
-75.0
 31
0.0
  0
LINE
  5
   1C4
  8
0
  6
CONTINUOUS
 62
     3
 10
37.8517227172852
 20
-72.5000152587891
 30
0.0
 11
40.3517074584961
 21
-75.0
 31
0.0
  0
LINE
  5
   1C5
  8
0
  6
CONTINUOUS
 62
     3
 10
39.9730453491211
 20
-72.5000152587891
 30
0.0
 11
42.473030090332
 21
-75.0
 31
0.0
  0
LINE
  5
   1C6
  8
0
  6
CONTINUOUS
 62
     3
 10
42.094367980957
 20
-72.5000152587891
 30
0.0
 11
44.594352722168
 21
-75.0
 31
0.0
  0
LINE
  5
   1C7
  8
0
  6
CONTINUOUS
 62
     3
 10
44.215690612793
 20
-72.5000152587891
 30
0.0
 11
46.7156753540039
 21
-75.0
 31
0.0
  0
LINE
  5
   1C8
  8
0
  6
CONTINUOUS
 62
     3
 10
46.3370132446289
 20
-72.5000152587891
 30
0.0
 11
48.8369979858398
 21
-75.0
 31
0.0
  0
LINE
  5
   1C9
  8
0
  6
CONTINUOUS
 62
     3
 10
48.4583053588867
 20
-72.5000152587891
 30
0.0
 11
50.2699699401856
 21
-74.3116760253906
 31
0.0
  0
ENDBLK
  5
   1CA
  8
0
  6
CONTINUOUS
 62
     7
  0
BLOCK
  5
   1CB
  8
0
  6
CONTINUOUS
 62
     7
  2
*UDIM678
 70
    65
 10
0.0
 20
0.0
 30
0.0
  3
*UDIM678
  0
TEXT
  5
   1CC
  8
0
  6
CONTINUOUS
 62
     7
 10
265.339804837069
 20
112.807960647471
 30
0.0
 40
2.99999994933605
  1
10
 50
90.0
 41
0.933333333333333
 72
     1
 11
263.839804862397
 21
115.307960605249
 31
0.0
 73
     2
  0
LINE
  5
   1CD
  8
0
  6
CONTINUOUS
 62
     7
 10
230.536042063153
 20
121.332960695028
 30
0.0
 11
268.339804837065
 21
121.332960695028
 31
0.0
  0
LINE
  5
   1CE
  8
0
  6
CONTINUOUS
 62
     7
 10
231.742637100816
 20
125.332960754633
 30
0.0
 11
268.339804837065
 21
125.332960754633
 31
0.0
  0
LINE
  5
   1CF
  8
0
  6
CONTINUOUS
 62
     7
 10
266.339804837065
 20
112.807960647469
 30
0.0
 11
266.339804837065
 21
125.332960754633
 31
0.0
  0
LINE
  5
   1D0
  8
0
  6
CONTINUOUS
 62
     7
 10
266.860749267017
 20
118.378537417821
 30
0.0
 11
266.339804837065
 21
121.332960695028
 31
0.0
  0
LINE
  5
   1D1
  8
0
  6
CONTINUOUS
 62
     7
 10
266.339804837065
 20
121.332960695028
 30
0.0
 11
265.818860407114
 21
118.378537417821
 31
0.0
  0
LINE
  5
   1D2
  8
0
  6
CONTINUOUS
 62
     7
 10
265.818860407114
 20
128.28738403184
 30
0.0
 11
266.339804837065
 21
125.332960754633
 31
0.0
  0
LINE
  5
   1D3
  8
0
  6
CONTINUOUS
 62
     7
 10
266.339804837065
 20
125.332960754633
 30
0.0
 11
266.860749267017
 21
128.28738403184
 31
0.0
  0
ENDBLK
  5
   1D4
  8
0
  6
CONTINUOUS
 62
     7
  0
BLOCK
  5
   1D5
  8
0
  6
CONTINUOUS
 62
     7
  2
*UDIM679
 70
    65
 10
0.0
 20
0.0
 30
0.0
  3
*UDIM679
  0
TEXT
  5
   1D6
  8
0
  6
CONTINUOUS
 62
     7
 10
276.179606023987
 20
57.657959775281
 30
0.0
 40
2.99999994933605
  1
105
 50
90.0
 41
0.933333333333333
 72
     1
 11
274.679606049314
 21
61.557959709416
 31
0.0
 73
     2
  0
LINE
  5
   1D7
  8
0
  6
CONTINUOUS
 62
     7
 10
258.343104883021
 20
40.8329594964288
 30
0.0
 11
279.179606023982
 21
40.8329594964288
 31
0.0
  0
LINE
  5
   1D8
  8
0
  6
CONTINUOUS
 62
     7
 10
258.343104883021
 20
82.8329601213336
 30
0.0
 11
279.179606023982
 21
82.8329601213336
 31
0.0
  0
LINE
  5
   1D9
  8
0
  6
CONTINUOUS
 62
     7
 10
277.179606023982
 20
40.8329594964288
 30
0.0
 11
277.179606023982
 21
82.8329601213336
 31
0.0
  0
LINE
  5
   1DA
  8
0
  6
CONTINUOUS
 62
     7
 10
276.65866159403
 20
43.7873827736358
 30
0.0
 11
277.179606023982
 21
40.8329594964288
 31
0.0
  0
LINE
  5
   1DB
  8
0
  6
CONTINUOUS
 62
     7
 10
277.179606023982
 20
40.8329594964288
 30
0.0
 11
277.700550453933
 21
43.7873827736358
 31
0.0
  0
LINE
  5
   1DC
  8
0
  6
CONTINUOUS
 62
     7
 10
277.700550453933
 20
79.8785368441266
 30
0.0
 11
277.179606023982
 21
82.8329601213336
 31
0.0
  0
LINE
  5
   1DD
  8
0
  6
CONTINUOUS
 62
     7
 10
277.179606023982
 20
82.8329601213336
 30
0.0
 11
276.65866159403
 21
79.8785368441266
 31
0.0
  0
ENDBLK
  5
   1DE
  8
0
  6
CONTINUOUS
 62
     7
  0
BLOCK
  5
   1DF
  8
0
  6
CONTINUOUS
 62
     7
  2
*UDIM680
 70
    65
 10
0.0
 20
0.0
 30
0.0
  3
*UDIM680
  0
TEXT
  5
   1E0
  8
0
  6
CONTINUOUS
 62
     7
 10
189.989196414458
 20
41.0079596157142
 30
0.0
 40
2.99999994933605
  1
69,25
 50
90.0
 41
0.933333333333333
 72
     1
 11
188.489196439781
 21
47.7079595025629
 31
0.0
 73
     2
  0
LINE
  5
   1E1
  8
0
  6
CONTINUOUS
 62
     7
 10
220.342636960745
 20
34.132959395647
 30
0.0
 11
188.989196414449
 21
34.132959395647
 31
0.0
  0
LINE
  5
   1E2
  8
0
  6
CONTINUOUS
 62
     7
 10
205.27115679509
 20
61.8329598084092
 30
0.0
 11
188.989196414449
 21
61.8329598084092
 31
0.0
  0
LINE
  5
   1E3
  8
0
  6
CONTINUOUS
 62
     7
 10
190.989196414449
 20
34.132959395647
 30
0.0
 11
190.989196414449
 21
61.8329598084092
 31
0.0
  0
LINE
  5
   1E4
  8
0
  6
CONTINUOUS
 62
     7
 10
190.468251984498
 20
37.087382672854
 30
0.0
 11
190.989196414449
 21
34.132959395647
 31
0.0
  0
LINE
  5
   1E5
  8
0
  6
CONTINUOUS
 62
     7
 10
190.989196414449
 20
34.132959395647
 30
0.0
 11
191.510140844401
 21
37.087382672854
 31
0.0
  0
LINE
  5
   1E6
  8
0
  6
CONTINUOUS
 62
     7
 10
191.510140844401
 20
58.8785365312022
 30
0.0
 11
190.989196414449
 21
61.8329598084092
 31
0.0
  0
LINE
  5
   1E7
  8
0
  6
CONTINUOUS
 62
     7
 10
190.989196414449
 20
61.8329598084092
 30
0.0
 11
190.468251984498
 21
58.8785365312022
 31
0.0
  0
ENDBLK
  5
   1E8
  8
0
  6
CONTINUOUS
 62
     7
  0
BLOCK
  5
   1E9
  8
0
  6
CONTINUOUS
 62
     7
  2
*UDIM681
 70
    65
 10
0.0
 20
0.0
 30
0.0
  3
*UDIM681
  0
TEXT
  5
   1EA
  8
0
  6
CONTINUOUS
 62
     7
 10
198.077091737608
 20
42.2147453738382
 30
0.0
 40
2.99999994933605
  1
10
 50
90.0
 41
0.933333333333333
 72
     1
 11
196.577091762937
 21
44.7147453316163
 31
0.0
 73
     2
  0
LINE
  5
   1EB
  8
0
  6
CONTINUOUS
 62
     7
 10
220.342636960745
 20
34.132959395647
 30
0.0
 11
197.077091737605
 21
34.132959395647
 31
0.0
  0
LINE
  5
   1EC
  8
0
  6
CONTINUOUS
 62
     7
 10
223.942637014389
 20
38.1329644224731
 30
0.0
 11
197.077091737605
 21
38.1329644224731
 31
0.0
  0
LINE
  5
   1ED
  8
0
  6
CONTINUOUS
 62
     7
 10
199.077091737605
 20
34.132959395647
 30
0.0
 11
199.077091737605
 21
47.2147452893964
 31
0.0
  0
LINE
  5
   1EE
  8
0
  6
CONTINUOUS
 62
     7
 10
199.598036167557
 20
31.1785361184401
 30
0.0
 11
199.077091737605
 21
34.132959395647
 31
0.0
  0
LINE
  5
   1EF
  8
0
  6
CONTINUOUS
 62
     7
 10
199.077091737605
 20
34.132959395647
 30
0.0
 11
198.556147307653
 21
31.1785361184401
 31
0.0
  0
LINE
  5
   1F0
  8
0
  6
CONTINUOUS
 62
     7
 10
198.556147307653
 20
41.0873876996801
 30
0.0
 11
199.077091737605
 21
38.1329644224731
 31
0.0
  0
LINE
  5
   1F1
  8
0
  6
CONTINUOUS
 62
     7
 10
199.077091737605
 20
38.1329644224731
 30
0.0
 11
199.598036167557
 21
41.0873876996801
 31
0.0
  0
ENDBLK
  5
   1F2
  8
0
  6
CONTINUOUS
 62
     7
  0
BLOCK
  5
   1F3
  8
0
  6
CONTINUOUS
 62
     7
  2
$1MOSTRINA
 70
    64
 10
0.0
 20
0.0
 30
0.0
  3
$1MOSTRINA
  0
LINE
  5
   1F4
  8
0
  6
CONTINUOUS
 62
     3
 10
173.338256835938
 20
30.7306251525879
 30
0.0
 11
173.338256835938
 21
189.230621337891
 31
0.0
  0
LINE
  5
   1F5
  8
0
  6
CONTINUOUS
 62
     3
 10
57.5882568359375
 20
29.4806251525879
 30
0.0
 11
172.088256835938
 21
29.4806251525879
 31
0.0
  0
LINE
  5
   1F6
  8
0
  6
CONTINUOUS
 62
     3
 10
56.3382568359375
 20
30.7306251525879
 30
0.0
 11
56.3382568359375
 21
189.230621337891
 31
0.0
  0
LINE
  5
   1F7
  8
0
  6
CONTINUOUS
 62
     3
 10
57.5882568359375
 20
190.480621337891
 30
0.0
 11
172.088256835938
 21
190.480621337891
 31
0.0
  0
LINE
  5
   1F8
  8
0
  6
CONTINUOUS
 62
     3
 10
167.838256835938
 20
56.9806251525879
 30
0.0
 11
167.838256835938
 21
162.980625152588
 31
0.0
  0
LINE
  5
   1F9
  8
0
  6
CONTINUOUS
 62
     3
 10
61.8382568359375
 20
56.9806251525879
 30
0.0
 11
167.838256835938
 21
56.9806251525879
 31
0.0
  0
LINE
  5
   1FA
  8
0
  6
CONTINUOUS
 62
     3
 10
61.8382568359375
 20
56.9806251525879
 30
0.0
 11
61.8382568359375
 21
162.980625152588
 31
0.0
  0
LINE
  5
   1FB
  8
0
  6
CONTINUOUS
 62
     3
 10
61.8382568359375
 20
162.980621337891
 30
0.0
 11
167.838256835938
 21
162.980621337891
 31
0.0
  0
LINE
  5
   1FC
  8
0
  6
CONTINUOUS
 62
     3
 10
168.838256835938
 20
48.4806251525879
 30
0.0
 11
168.838256835938
 21
49.4806251525879
 31
0.0
  0
LINE
  5
   1FD
  8
0
  6
CONTINUOUS
 62
     3
 10
61.8382568359375
 20
50.4806251525879
 30
0.0
 11
167.838256835938
 21
50.4806251525879
 31
0.0
  0
LINE
  5
   1FE
  8
0
  6
CONTINUOUS
 62
     3
 10
60.8382568359375
 20
48.4806251525879
 30
0.0
 11
60.8382568359375
 21
49.4806251525879
 31
0.0
  0
LINE
  5
   1FF
  8
0
  6
CONTINUOUS
 62
     3
 10
61.8382568359375
 20
49.4806251525879
 30
0.0
 11
167.838256835938
 21
49.4806251525879
 31
0.0
  0
LINE
  5
   200
  8
0
  6
CONTINUOUS
 62
     3
 10
60.8382568359375
 20
29.4806251525879
 30
0.0
 11
60.8382568359375
 21
48.4806251525879
 31
0.0
  0
LINE
  5
   201
  8
0
  6
CONTINUOUS
 62
     3
 10
60.8382568359375
 20
49.4806213378906
 30
0.0
 11
60.8382568359375
 21
190.480621337891
 31
0.0
  0
LINE
  5
   202
  8
0
  6
CONTINUOUS
 62
     3
 10
61.8382568359375
 20
29.4806251525879
 30
0.0
 11
61.8382568359375
 21
49.4806251525879
 31
0.0
  0
LINE
  5
   203
  8
0
  6
CONTINUOUS
 62
     3
 10
61.8382568359375
 20
162.980621337891
 30
0.0
 11
61.8382568359375
 21
169.480621337891
 31
0.0
  0
LINE
  5
   204
  8
0
  6
CONTINUOUS
 62
     3
 10
61.8382568359375
 20
50.4806251525879
 30
0.0
 11
61.8382568359375
 21
56.9806251525879
 31
0.0
  0
LINE
  5
   205
  8
0
  6
CONTINUOUS
 62
     3
 10
168.838256835938
 20
29.4806251525879
 30
0.0
 11
168.838256835938
 21
48.4806251525879
 31
0.0
  0
LINE
  5
   206
  8
0
  6
CONTINUOUS
 62
     3
 10
168.838256835938
 20
49.4806251525879
 30
0.0
 11
168.838256835938
 21
190.480621337891
 31
0.0
  0
LINE
  5
   207
  8
0
  6
CONTINUOUS
 62
     3
 10
167.838256835938
 20
50.4806251525879
 30
0.0
 11
167.838256835938
 21
56.9806251525879
 31
0.0
  0
LINE
  5
   208
  8
0
  6
CONTINUOUS
 62
     3
 10
167.838256835938
 20
162.980621337891
 30
0.0
 11
167.838256835938
 21
169.480621337891
 31
0.0
  0
LINE
  5
   209
  8
0
  6
CONTINUOUS
 62
     3
 10
167.838256835938
 20
29.4806251525879
 30
0.0
 11
167.838256835938
 21
49.4806251525879
 31
0.0
  0
LINE
  5
   20A
  8
0
  6
CONTINUOUS
 62
     3
 10
60.8382568359375
 20
170.480621337891
 30
0.0
 11
168.838256835938
 21
170.480621337891
 31
0.0
  0
LINE
  5
   20B
  8
0
  6
CONTINUOUS
 62
     3
 10
61.8382568359375
 20
169.480621337891
 30
0.0
 11
167.838256835938
 21
169.480621337891
 31
0.0
  0
ARC
  5
   20C
  8
0
  6
CONTINUOUS
 62
     3
 10
57.5882568359375
 20
30.7306251525879
 30
0.0
 40
1.25
 50
180.0
 51
270.0
  0
ARC
  5
   20D
  8
0
  6
CONTINUOUS
 62
     3
 10
172.088256835938
 20
30.7306251525879
 30
0.0
 40
1.25
 50
270.0
 51
360.0
  0
ARC
  5
   20E
  8
0
  6
CONTINUOUS
 62
     3
 10
172.088256835938
 20
189.230621337891
 30
0.0
 40
1.25
 50
0.0
 51
90.0
  0
ARC
  5
   20F
  8
0
  6
CONTINUOUS
 62
     3
 10
57.5882568359375
 20
189.230621337891
 30
0.0
 40
1.25
 50
90.0
 51
180.0
  0
LINE
  5
   210
  8
0
  6
DOT
 62
     3
 10
60.3382577409677
 20
179.7306252571
 30
0.0
 11
60.8382568359375
 21
179.7306252571
 31
0.0
  0
LINE
  5
   211
  8
0
  6
DOT
 62
     3
 10
60.3382577409676
 20
181.2306252571
 30
0.0
 11
60.8382568359375
 21
181.2306252571
 31
0.0
  0
LINE
  5
   212
  8
0
  6
CONTINUOUS
 62
     3
 10
168.338257745313
 20
179.730625257273
 30
0.0
 11
168.838256835938
 21
179.730625257273
 31
0.0
  0
LINE
  5
   213
  8
0
  6
CONTINUOUS
 62
     3
 10
168.338257745314
 20
181.230625257273
 30
0.0
 11
168.838256835938
 21
181.230625257273
 31
0.0
  0
ARC
  5
   214
  8
0
  6
DOT
 62
     3
 10
60.3382577401871
 20
180.480625257147
 30
0.0
 40
0.749999999345164
 50
90.0
 51
270.0
  0
ARC
  5
   215
  8
0
  6
CONTINUOUS
 62
     3
 10
61.338257740822
 20
180.480625256974
 30
0.0
 40
0.750000000009701
 50
270.0
 51
450.0
  0
LINE
  5
   216
  8
0
  6
CONTINUOUS
 62
     3
 10
60.8382568359375
 20
181.2306252571
 30
0.0
 11
61.3382577409688
 21
181.2306252571
 31
0.0
  0
LINE
  5
   217
  8
0
  6
CONTINUOUS
 62
     3
 10
60.8382568359375
 20
179.7306252571
 30
0.0
 11
61.3382577409689
 21
179.7306252571
 31
0.0
  0
ARC
  5
   218
  8
0
  6
CONTINUOUS
 62
     3
 10
168.338257745503
 20
180.480625256952
 30
0.0
 40
0.750000000048506
 50
90.0000000038822
 51
269.999999996024
  0
ARC
  5
   219
  8
0
  6
DOT
 62
     3
 10
169.338257745421
 20
180.480625256965
 30
0.0
 40
0.750000000029104
 50
270.000000002449
 51
449.999999997486
  0
LINE
  5
   21A
  8
0
  6
DOT
 62
     3
 10
168.838256835938
 20
181.230625257273
 30
0.0
 11
169.338257745315
 21
181.230625257273
 31
0.0
  0
LINE
  5
   21B
  8
0
  6
DOT
 62
     3
 10
168.838256835938
 20
179.730625257273
 30
0.0
 11
169.338257745315
 21
179.730625257273
 31
0.0
  0
POINT
  5
   21C
  8
0
  6
CONTINUOUS
 62
     3
 10
114.838256835938
 20
109.980621337891
 30
0.0
  0
ENDBLK
  5
   21D
  8
0
  6
CONTINUOUS
 62
     7
  0
BLOCK
  5
   21E
  8
0
  6
CONTINUOUS
 62
     7
  2
T_A_D_F_
 70
    64
 10
0.0
 20
0.0
 30
0.0
  3
T_A_D_F_
  0
LINE
  5
   21F
  8
0
  6
CONTINUOUS
 62
     1
 10
-23.0000351141653
 20
97.5000172236092
 30
0.0
 11
-23.0000351141653
 21
100.000017223609
 31
0.0
  0
LINE
  5
   220
  8
0
  6
CONTINUOUS
 62
     1
 10
-19.2500351141653
 20
94.7000167944558
 30
0.0
 11
-19.0000351141653
 21
94.7000167944558
 31
0.0
  0
LINE
  5
   221
  8
0
  6
CONTINUOUS
 62
     1
 10
-19.7500351141653
 20
91.500016746772
 30
0.0
 11
-19.7500351141653
 21
94.5000172236092
 31
0.0
  0
LINE
  5
   222
  8
0
  6
CONTINUOUS
 62
     1
 10
-19.7500351141653
 20
91.500016746772
 30
0.0
 11
-15.2500351141653
 21
91.500016746772
 31
0.0
  0
LINE
  5
   223
  8
0
  6
CONTINUOUS
 62
     1
 10
-15.2500351141653
 20
91.500016746772
 30
0.0
 11
-15.2500351141653
 21
94.5000172236092
 31
0.0
  0
LINE
  5
   224
  8
0
  6
CONTINUOUS
 62
     1
 10
-16.0000351141653
 20
94.7000167944558
 30
0.0
 11
-15.7500351141653
 21
94.7000167944558
 31
0.0
  0
LINE
  5
   225
  8
0
  6
CONTINUOUS
 62
     1
 10
-16.0000351141653
 20
94.7000165560372
 30
0.0
 11
-16.0000351141653
 21
100.000016746772
 31
0.0
  0
LINE
  5
   226
  8
0
  6
CONTINUOUS
 62
     1
 10
-19.0000351141653
 20
94.7000165560372
 30
0.0
 11
-19.0000351141653
 21
100.000016746772
 31
0.0
  0
LINE
  5
   227
  8
0
  6
CONTINUOUS
 62
     1
 10
-19.0000351141653
 20
93.7000167944558
 30
0.0
 11
-19.0000351141653
 21
94.7000167944558
 31
0.0
  0
LINE
  5
   228
  8
0
  6
CONTINUOUS
 62
     1
 10
-16.0000351141653
 20
93.7000167944558
 30
0.0
 11
-16.0000351141653
 21
94.7000167944558
 31
0.0
  0
LINE
  5
   229
  8
0
  6
CONTINUOUS
 62
     1
 10
-19.7500351141653
 20
93.7000167944558
 30
0.0
 11
-19.0000351141653
 21
93.7000167944558
 31
0.0
  0
LINE
  5
   22A
  8
0
  6
CONTINUOUS
 62
     1
 10
-16.0000351141653
 20
93.7000167944558
 30
0.0
 11
-15.2500351141653
 21
93.7000167944558
 31
0.0
  0
LINE
  5
   22B
  8
0
  6
CONTINUOUS
 62
     7
 10
-65.0000350414602
 20
136.499969482422
 30
0.0
 11
-45.0000293194143
 21
116.54997482426
 31
0.0
  0
LINE
  5
   22C
  8
0
  6
CONTINUOUS
 62
     7
 10
-65.0000350414602
 20
136.499969482422
 30
0.0
 11
-65.0000350414602
 21
156.499954223633
 31
0.0
  0
LINE
  5
   22D
  8
0
  6
CONTINUOUS
 62
     7
 10
-35.0000350414602
 20
136.499969482422
 30
0.0
 11
-35.0000350414602
 21
156.499984741211
 31
0.0
  0
LINE
  5
   22E
  8
0
  6
CONTINUOUS
 62
     7
 10
-35.0000350414602
 20
136.500078882797
 30
0.0
 11
-25.0000312267629
 21
116.549949934608
 31
0.0
  0
CIRCLE
  5
   22F
  8
0
  6
CONTINUOUS
 62
     7
 10
-50.0000350490287
 20
143.999969482422
 30
0.0
 40
4.24999989315225
  0
LINE
  5
   230
  8
0
  6
CONTINUOUS
 62
     7
 10
-45.0000293194143
 20
97.5000172236092
 30
0.0
 11
-45.0000293194143
 21
116.54997482426
 31
0.0
  0
LINE
  5
   231
  8
0
  6
CONTINUOUS
 62
     7
 10
-25.000031226763
 20
97.5000172236092
 30
0.0
 11
-25.000031226763
 21
116.549949934608
 31
0.0
  0
LINE
  5
   232
  8
0
  6
CONTINUOUS
 62
     7
 10
-43.4148668831296
 20
116.414616582203
 30
0.0
 11
-26.2511121498852
 21
116.414616582203
 31
0.0
  0
LINE
  5
   233
  8
0
  6
CONTINUOUS
 62
     7
 10
-43.3102098420734
 20
107.088461541377
 30
0.0
 11
-26.4080977114697
 21
107.088461541377
 31
0.0
  0
LINE
  5
   234
  8
0
  6
CONTINUOUS
 62
     7
 10
-65.0000351189409
 20
156.499954223633
 30
0.0
 11
-35.0000351135236
 21
156.499984741211
 31
0.0
  0
LINE
  5
   235
  8
0
  6
CONTINUOUS
 62
     7
 10
24.9999649585398
 20
100.000017223609
 30
0.0
 11
24.9999649585398
 21
116.549972224341
 31
0.0
  0
LINE
  5
   236
  8
0
  6
CONTINUOUS
 62
     7
 10
44.9999649585398
 20
100.000017223609
 30
0.0
 11
44.9999649585398
 21
116.54997516363
 31
0.0
  0
LINE
  5
   237
  8
0
  6
CONTINUOUS
 62
     7
 10
26.6897781178244
 20
107.088461541377
 30
0.0
 11
43.5918902484281
 21
107.088461541377
 31
0.0
  0
LINE
  5
   238
  8
0
  6
CONTINUOUS
 62
     7
 10
26.5851210767682
 20
116.414616582203
 30
0.0
 11
43.7488758100126
 21
116.414616582203
 31
0.0
  0
LINE
  5
   239
  8
0
  6
CONTINUOUS
 62
     7
 10
24.9999649585398
 20
116.549972224341
 30
0.0
 11
34.9999679051964
 21
136.499969482422
 31
0.0
  0
LINE
  5
   23A
  8
0
  6
CONTINUOUS
 62
     7
 10
44.9999649585397
 20
116.54997516363
 30
0.0
 11
64.9999679051964
 21
136.499969482422
 31
0.0
  0
LINE
  5
   23B
  8
0
  6
CONTINUOUS
 62
     7
 10
34.9999679051964
 20
136.499969482422
 30
0.0
 11
34.9999679051964
 21
156.499984741211
 31
0.0
  0
LINE
  5
   23C
  8
0
  6
CONTINUOUS
 62
     7
 10
64.9999679051964
 20
136.499969482422
 30
0.0
 11
64.9999679051964
 21
156.499954223633
 31
0.0
  0
LINE
  5
   23D
  8
0
  6
CONTINUOUS
 62
     7
 10
34.999967933899
 20
156.499984741211
 30
0.0
 11
64.9999679284816
 21
156.499954223633
 31
0.0
  0
CIRCLE
  5
   23E
  8
0
  6
CONTINUOUS
 62
     7
 10
49.9999679051964
 20
143.999969482422
 30
0.0
 40
4.24999966037541
  0
LINE
  5
   23F
  8
0
  6
CONTINUOUS
 62
     7
 10
-15.0000462517952
 20
156.499969144498
 30
0.0
 11
14.9999537482047
 21
156.499969144498
 31
0.0
  0
LINE
  5
   240
  8
0
  6
CONTINUOUS
 62
     7
 10
-10.0000906795993
 20
100.000017223609
 30
0.0
 11
-10.0000906795993
 21
116.500324563773
 31
0.0
  0
LINE
  5
   241
  8
0
  6
CONTINUOUS
 62
     7
 10
9.99990932040068
 20
100.000017223609
 30
0.0
 11
9.99990932040068
 21
116.499969144498
 31
0.0
  0
LINE
  5
   242
  8
0
  6
CONTINUOUS
 62
     7
 10
-15.0000462517952
 20
136.499969144499
 30
0.0
 11
-10.0000018239912
 21
116.499969144498
 31
0.0
  0
LINE
  5
   243
  8
0
  6
CONTINUOUS
 62
     7
 10
9.99990932040071
 20
116.499969144498
 30
0.0
 11
14.9999537482048
 21
136.499969144498
 31
0.0
  0
LINE
  5
   244
  8
0
  6
CONTINUOUS
 62
     7
 10
14.9999537482047
 20
136.499969144498
 30
0.0
 11
14.9999537482047
 21
156.499969144498
 31
0.0
  0
LINE
  5
   245
  8
0
  6
CONTINUOUS
 62
     7
 10
-15.0000462517953
 20
136.499969144498
 30
0.0
 11
-15.0000462517953
 21
156.499969144498
 31
0.0
  0
CIRCLE
  5
   246
  8
0
  6
CONTINUOUS
 62
     7
 10
-4.62517952169538E-5
 20
143.999969144498
 30
0.0
 40
4.25
  0
LINE
  5
   247
  8
0
  6
CONTINUOUS
 62
     7
 10
-8.41493456137091
 20
116.414616582203
 30
0.0
 11
8.7488201718735
 21
116.414616582203
 31
0.0
  0
LINE
  5
   248
  8
0
  6
CONTINUOUS
 62
     7
 10
-8.31027752031465
 20
107.088461541377
 30
0.0
 11
8.59183461028898
 21
107.088461541377
 31
0.0
  0
LINE
  5
   249
  8
0
  6
CONTINUOUS
 62
     1
 10
22.9999648858347
 20
100.000017223609
 30
0.0
 11
22.9999648858347
 21
103.000017223609
 31
0.0
  0
LINE
  5
   24A
  8
0
  6
CONTINUOUS
 62
     1
 10
11.9999648858347
 20
103.000017223609
 30
0.0
 11
15.9999648858347
 21
103.000017223609
 31
0.0
  0
LINE
  5
   24B
  8
0
  6
CONTINUOUS
 62
     1
 10
18.9999648858347
 20
103.000017223609
 30
0.0
 11
22.9999648858347
 21
103.000017223609
 31
0.0
  0
LINE
  5
   24C
  8
0
  6
CONTINUOUS
 62
     1
 10
11.9999648858347
 20
100.000017223609
 30
0.0
 11
11.9999648858347
 21
103.000017223609
 31
0.0
  0
LINE
  5
   24D
  8
0
  6
CONTINUOUS
 62
     1
 10
11.9999648858347
 20
100.000017223609
 30
0.0
 11
22.9999648858347
 21
100.000017223609
 31
0.0
  0
LINE
  5
   24E
  8
0
  6
CONTINUOUS
 62
     1
 10
11.9999648858347
 20
101.000017223609
 30
0.0
 11
22.9999648858347
 21
101.000017223609
 31
0.0
  0
LINE
  5
   24F
  8
0
  6
CONTINUOUS
 62
     1
 10
18.9999648858348
 20
103.000017223609
 30
0.0
 11
18.9999648858348
 21
115.183092282225
 31
0.0
  0
LINE
  5
   250
  8
0
  6
DASHDOT
 62
     7
 10
17.4999648858348
 20
96.8752352351778
 30
0.0
 11
17.4999648858348
 21
113.717726607193
 31
0.0
  0
LINE
  5
   251
  8
0
  6
CONTINUOUS
 62
     1
 10
18.9999648858348
 20
115.183092282226
 30
0.0
 11
29.1991225179144
 21
132.521658671251
 31
0.0
  0
LINE
  5
   252
  8
0
  6
CONTINUOUS
 62
     1
 10
15.9999648858348
 20
116.000017223609
 30
0.0
 11
26.1697615495216
 21
133.288669970931
 31
0.0
  0
LINE
  5
   253
  8
0
  6
CONTINUOUS
 62
     1
 10
15.9999648858348
 20
103.000017223609
 30
0.0
 11
15.9999648858348
 21
116.000017223609
 31
0.0
  0
LINE
  5
   254
  8
0
  6
CONTINUOUS
 62
     1
 10
26.1697615495216
 20
133.288669970934
 30
0.0
 11
26.3099367312506
 21
199.309587085808
 31
0.0
  0
LINE
  5
   255
  8
0
  6
CONTINUOUS
 62
     1
 10
-22.9999648858347
 20
100.000017223609
 30
0.0
 11
-22.9999648858347
 21
103.000017223609
 31
0.0
  0
LINE
  5
   256
  8
0
  6
CONTINUOUS
 62
     1
 10
-15.9999648858347
 20
103.000017223609
 30
0.0
 11
-11.9999648858347
 21
103.000017223609
 31
0.0
  0
LINE
  5
   257
  8
0
  6
CONTINUOUS
 62
     1
 10
-22.9999648858347
 20
103.000017223609
 30
0.0
 11
-18.9999648858347
 21
103.000017223609
 31
0.0
  0
LINE
  5
   258
  8
0
  6
CONTINUOUS
 62
     1
 10
-11.9999648858347
 20
100.000017223609
 30
0.0
 11
-11.9999648858347
 21
103.000017223609
 31
0.0
  0
LINE
  5
   259
  8
0
  6
CONTINUOUS
 62
     1
 10
-22.9999648858347
 20
100.000017223609
 30
0.0
 11
-11.9999648858347
 21
100.000017223609
 31
0.0
  0
LINE
  5
   25A
  8
0
  6
CONTINUOUS
 62
     1
 10
-22.9999648858347
 20
101.000017223609
 30
0.0
 11
-11.9999648858347
 21
101.000017223609
 31
0.0
  0
LINE
  5
   25B
  8
0
  6
CONTINUOUS
 62
     1
 10
-18.9999648858348
 20
103.000017223609
 30
0.0
 11
-18.9999648858348
 21
115.183092282225
 31
0.0
  0
LINE
  5
   25C
  8
0
  6
DASHDOT
 62
     7
 10
-17.4999648858348
 20
96.8752352351778
 30
0.0
 11
-17.4999648858348
 21
113.717726607193
 31
0.0
  0
LINE
  5
   25D
  8
0
  6
CONTINUOUS
 62
     1
 10
-29.1991225179144
 20
132.521658671251
 30
0.0
 11
-18.9999648858347
 21
115.183092282225
 31
0.0
  0
LINE
  5
   25E
  8
0
  6
CONTINUOUS
 62
     1
 10
-26.1697615495216
 20
133.288669970931
 30
0.0
 11
-15.9999648858347
 21
116.000017223609
 31
0.0
  0
LINE
  5
   25F
  8
0
  6
CONTINUOUS
 62
     1
 10
-15.9999648858348
 20
103.000017223609
 30
0.0
 11
-15.9999648858348
 21
116.000017223609
 31
0.0
  0
LINE
  5
   260
  8
0
  6
CONTINUOUS
 62
     1
 10
-26.3099367312505
 20
199.30958708581
 30
0.0
 11
-26.1697615495216
 21
133.288669970934
 31
0.0
  0
LINE
  5
   261
  8
0
  6
CONTINUOUS
 62
     1
 10
-29.1991225179144
 20
132.521658671253
 30
0.0
 11
-28.8995799341105
 21
199.600804158551
 31
0.0
  0
LINE
  5
   262
  8
0
  6
DASHDOT
 62
     7
 10
-50.0000350490287
 20
137.74996958927
 30
0.0
 11
-50.0000350490287
 21
150.249969375574
 31
0.0
  0
LINE
  5
   263
  8
0
  6
DASHDOT
 62
     7
 10
-56.250034942181
 20
143.999969482422
 30
0.0
 11
-43.7500351558765
 21
143.999969482422
 31
0.0
  0
LINE
  5
   264
  8
0
  6
DASHDOT
 62
     7
 10
-4.62517952168926E-5
 20
104.44072495936
 30
0.0
 11
-4.62517952168926E-5
 21
168.878595036318
 31
0.0
  0
LINE
  5
   265
  8
0
  6
DASHDOT
 62
     7
 10
-6.25004625179523
 20
143.999969144498
 30
0.0
 11
6.24995374820477
 21
143.999969144498
 31
0.0
  0
LINE
  5
   266
  8
0
  6
DASHDOT
 62
     7
 10
49.9999679051964
 20
137.749969822046
 30
0.0
 11
49.9999679051964
 21
150.249969142797
 31
0.0
  0
LINE
  5
   267
  8
0
  6
DASHDOT
 62
     7
 10
43.749968244821
 20
143.999969482422
 30
0.0
 11
56.2499675655718
 21
143.999969482422
 31
0.0
  0
LINE
  5
   268
  8
0
  6
CONTINUOUS
 62
     1
 10
-28.0003668690514
 20
213.000017223609
 30
0.0
 11
-27.5003668690511
 21
213.000017223609
 31
0.0
  0
LINE
  5
   269
  8
0
  6
CONTINUOUS
 62
     1
 10
-27.500366869051
 20
213.000017223609
 30
0.0
 11
-26.4258969827603
 21
211.925547337319
 31
0.0
  0
LINE
  5
   26A
  8
0
  6
CONTINUOUS
 62
     1
 10
-28.6551180010125
 20
212.345266091648
 30
0.0
 11
-28.0003668690514
 21
213.000017223609
 31
0.0
  0
LINE
  5
   26B
  8
0
  6
CONTINUOUS
 62
     1
 10
-28.7002200905975
 20
202.245167499209
 30
0.0
 11
-28.6551180010125
 21
212.345266091649
 31
0.0
  0
LINE
  5
   26C
  8
0
  6
CONTINUOUS
 62
     1
 10
-26.4258969827605
 20
211.925547337318
 30
0.0
 11
-26.4049101328224
 21
202.040979590205
 31
0.0
  0
LINE
  5
   26D
  8
0
  6
CONTINUOUS
 62
     1
 10
28.8995799341106
 20
199.600804158551
 30
0.0
 11
29.1991225179144
 21
132.521658671252
 31
0.0
  0
POINT
  5
   26E
  8
0
  6
CONTINUOUS
 62
     7
 10
-4.62517952168926E-5
 20
100.000017223609
 30
0.0
  0
LINE
  5
   26F
  8
0
  6
CONTINUOUS
 62
     7
 10
-33.8628974177532
 20
202.704432830553
 30
0.0
 11
-20.4842652556106
 21
201.514286411648
 31
0.0
  0
LINE
  5
   270
  8
0
  6
CONTINUOUS
 62
     7
 10
-35.9866503607963
 20
200.397777232558
 30
0.0
 11
-21.8770611967985
 21
198.811090213522
 31
0.0
  0
LINE
  5
   271
  8
0
  6
CONTINUOUS
 62
     7
 10
21.876968693208
 20
198.811090213522
 30
0.0
 11
35.9865578572059
 21
200.397777232558
 31
0.0
  0
LINE
  5
   272
  8
0
  6
CONTINUOUS
 62
     7
 10
20.4841727520202
 20
201.514286411648
 30
0.0
 11
33.8628049141628
 21
202.704432830553
 31
0.0
  0
LINE
  5
   273
  8
0
  6
CONTINUOUS
 62
     1
 10
26.404817629232
 20
202.040979590206
 30
0.0
 11
26.4258044791701
 21
211.925547337319
 31
0.0
  0
LINE
  5
   274
  8
0
  6
CONTINUOUS
 62
     1
 10
28.655025497422
 20
212.34526609165
 30
0.0
 11
28.700127587007
 21
202.24516749921
 31
0.0
  0
LINE
  5
   275
  8
0
  6
CONTINUOUS
 62
     1
 10
28.000274365461
 20
213.000017223609
 30
0.0
 11
28.6550254974221
 21
212.345266091648
 31
0.0
  0
LINE
  5
   276
  8
0
  6
CONTINUOUS
 62
     1
 10
26.4258044791699
 20
211.925547337319
 30
0.0
 11
27.5002743654605
 21
213.000017223609
 31
0.0
  0
LINE
  5
   277
  8
0
  6
CONTINUOUS
 62
     1
 10
27.5002743654606
 20
213.000017223609
 30
0.0
 11
28.000274365461
 21
213.000017223609
 31
0.0
  0
ENDBLK
  5
   278
  8
0
  6
CONTINUOUS
 62
     7
  0
BLOCK
  5
   279
  8
0
  6
CONTINUOUS
 62
     7
  2
*UDIM682
 70
    65
 10
0.0
 20
0.0
 30
0.0
  3
*UDIM682
  0
TEXT
  5
   27A
  8
0
  6
CONTINUOUS
 62
     7
 10
76.2569531269023
 20
38.0829566373654
 30
0.0
 40
2.99999994933605
  1
85,25
 50
89.9999999480344
 41
0.933333333333333
 72
     1
 11
74.7569531583026
 21
44.7829565255745
 31
0.0
 73
     2
  0
LINE
  5
   27B
  8
0
  6
CONTINUOUS
 62
     7
 10
85.1698667577714
 20
27.7329547456315
 30
0.0
 11
75.2569531329706
 21
27.7329547456315
 31
0.0
  0
LINE
  5
   27C
  8
0
  6
CONTINUOUS
 62
     7
 10
77.2569531329706
 20
27.7329547456315
 30
0.0
 11
77.2569531329706
 21
61.8329583055175
 31
0.0
  0
LINE
  5
   27D
  8
0
  6
CONTINUOUS
 62
     7
 10
76.4804959765521
 20
30.630732218842
 30
0.0
 11
77.2569531329706
 21
27.7329547456315
 31
0.0
  0
LINE
  5
   27E
  8
0
  6
CONTINUOUS
 62
     7
 10
77.2569531329706
 20
27.7329547456315
 30
0.0
 11
78.0334102893891
 21
30.630732218842
 31
0.0
  0
LINE
  5
   27F
  8
0
  6
CONTINUOUS
 62
     7
 10
78.0334102893891
 20
58.935180832307
 30
0.0
 11
77.2569531329706
 21
61.8329583055175
 31
0.0
  0
LINE
  5
   280
  8
0
  6
CONTINUOUS
 62
     7
 10
77.2569531329706
 20
61.8329583055175
 30
0.0
 11
76.4804959765521
 21
58.935180832307
 31
0.0
  0
ENDBLK
  5
   281
  8
0
  6
CONTINUOUS
 62
     7
  0
BLOCK
  5
   282
  8
0
  6
CONTINUOUS
 62
     7
  2
*UDIM683
 70
    65
 10
0.0
 20
0.0
 30
0.0
  3
*UDIM683
  0
TEXT
  5
   283
  8
0
  6
CONTINUOUS
 62
     7
 10
76.2569531281703
 20
11.1329672653916
 30
0.0
 40
2.99999994933605
  1
56,5
 50
89.9999999480344
 41
0.933333333333333
 72
     1
 11
74.7569531583026
 21
16.4329671772438
 31
0.0
 73
     2
  0
LINE
  5
   284
  8
0
  6
CONTINUOUS
 62
     7
 10
79.6698725158239
 20
5.13297960885618
 30
0.0
 11
75.2569531329706
 21
5.13297960885618
 31
0.0
  0
LINE
  5
   285
  8
0
  6
CONTINUOUS
 62
     7
 10
77.2569531329706
 20
5.13297960885618
 30
0.0
 11
77.2569531329706
 21
27.7329547456315
 31
0.0
  0
LINE
  5
   286
  8
0
  6
CONTINUOUS
 62
     7
 10
76.4804959765521
 20
8.03075708206672
 30
0.0
 11
77.2569531329706
 21
5.13297960885618
 31
0.0
  0
LINE
  5
   287
  8
0
  6
CONTINUOUS
 62
     7
 10
77.2569531329706
 20
5.13297960885618
 30
0.0
 11
78.0334102893891
 21
8.03075708206672
 31
0.0
  0
LINE
  5
   288
  8
0
  6
CONTINUOUS
 62
     7
 10
78.0334102893891
 20
24.8351772724209
 30
0.0
 11
77.2569531329706
 21
27.7329547456315
 31
0.0
  0
LINE
  5
   289
  8
0
  6
CONTINUOUS
 62
     7
 10
77.2569531329706
 20
27.7329547456315
 30
0.0
 11
76.4804959765521
 21
24.8351772724209
 31
0.0
  0
ENDBLK
  5
   28A
  8
0
  6
CONTINUOUS
 62
     7
  0
BLOCK
  5
   28B
  8
0
  6
CONTINUOUS
 62
     7
  2
*UDIM684
 70
    65
 10
0.0
 20
0.0
 30
0.0
  3
*UDIM684
  0
TEXT
  5
   28C
  8
0
  6
CONTINUOUS
 62
     7
 10
59.2049498514581
 20
150.432956696623
 30
0.0
 40
2.99999994933605
  1
155
 50
89.9999999480344
 41
0.933333333333333
 72
     1
 11
57.7049498803224
 21
154.332956632119
 31
0.0
 73
     2
  0
LINE
  5
   28D
  8
0
  6
CONTINUOUS
 62
     7
 10
100.917579471786
 20
131.732956295352
 30
0.0
 11
58.2049498549904
 21
131.732956295352
 31
0.0
  0
LINE
  5
   28E
  8
0
  6
CONTINUOUS
 62
     7
 10
94.4697400554409
 20
176.932956968885
 30
0.0
 11
58.2049498549904
 21
176.932956968885
 31
0.0
  0
LINE
  5
   28F
  8
0
  6
CONTINUOUS
 62
     7
 10
60.2049498549904
 20
131.732956295352
 30
0.0
 11
60.2049498549904
 21
176.932956968885
 31
0.0
  0
LINE
  5
   290
  8
0
  6
CONTINUOUS
 62
     7
 10
59.4284926985718
 20
134.630733768563
 30
0.0
 11
60.2049498549904
 21
131.732956295352
 31
0.0
  0
LINE
  5
   291
  8
0
  6
CONTINUOUS
 62
     7
 10
60.2049498549904
 20
131.732956295352
 30
0.0
 11
60.9814070114089
 21
134.630733768563
 31
0.0
  0
LINE
  5
   292
  8
0
  6
CONTINUOUS
 62
     7
 10
60.9814070114089
 20
174.035179495674
 30
0.0
 11
60.2049498549904
 21
176.932956968885
 31
0.0
  0
LINE
  5
   293
  8
0
  6
CONTINUOUS
 62
     7
 10
60.2049498549904
 20
176.932956968885
 30
0.0
 11
59.4284926985718
 21
174.035179495674
 31
0.0
  0
ENDBLK
  5
   294
  8
0
  6
CONTINUOUS
 62
     7
  0
BLOCK
  5
   295
  8
0
  6
CONTINUOUS
 62
     7
  2
*UDIM685
 70
    65
 10
0.0
 20
0.0
 30
0.0
  3
*UDIM685
  0
TEXT
  5
   296
  8
0
  6
CONTINUOUS
 62
     7
 10
59.2049498514581
 20
75.8329555849965
 30
0.0
 40
2.99999994933605
  1
260
 50
89.9999999480344
 41
0.933333333333333
 72
     1
 11
57.7049498803224
 21
79.7329555204919
 31
0.0
 73
     2
  0
LINE
  5
   297
  8
0
  6
CONTINUOUS
 62
     7
 10
85.1698667577714
 20
27.7329547456315
 30
0.0
 11
58.2049498549904
 21
27.7329547456315
 31
0.0
  0
LINE
  5
   298
  8
0
  6
CONTINUOUS
 62
     7
 10
60.2049498549904
 20
27.7329547456315
 30
0.0
 11
60.2049498549904
 21
131.732956295352
 31
0.0
  0
LINE
  5
   299
  8
0
  6
CONTINUOUS
 62
     7
 10
59.4284926985718
 20
30.630732218842
 30
0.0
 11
60.2049498549904
 21
27.7329547456315
 31
0.0
  0
LINE
  5
   29A
  8
0
  6
CONTINUOUS
 62
     7
 10
60.2049498549904
 20
27.7329547456315
 30
0.0
 11
60.9814070114089
 21
30.630732218842
 31
0.0
  0
LINE
  5
   29B
  8
0
  6
CONTINUOUS
 62
     7
 10
60.9814070114089
 20
128.835178822142
 30
0.0
 11
60.2049498549904
 21
131.732956295352
 31
0.0
  0
LINE
  5
   29C
  8
0
  6
CONTINUOUS
 62
     7
 10
60.2049498549904
 20
131.732956295352
 30
0.0
 11
59.4284926985718
 21
128.835178822142
 31
0.0
  0
ENDBLK
  5
   29D
  8
0
  6
CONTINUOUS
 62
     7
  0
BLOCK
  5
   29E
  8
0
  6
CONTINUOUS
 62
     7
  2
*UDIM686
 70
    65
 10
0.0
 20
0.0
 30
0.0
  3
*UDIM686
  0
TEXT
  5
   29F
  8
0
  6
CONTINUOUS
 62
     7
 10
59.2049498514581
 20
1.2329544733698
 30
0.0
 40
2.99999994933605
  1
155
 50
89.9999999480344
 41
0.933333333333333
 72
     1
 11
57.7049498803224
 21
5.13295440886524
 31
0.0
 73
     2
  0
LINE
  5
   2A0
  8
0
  6
CONTINUOUS
 62
     7
 10
94.4697400554409
 20
-17.467045927901
 30
0.0
 11
58.2049498549904
 21
-17.467045927901
 31
0.0
  0
LINE
  5
   2A1
  8
0
  6
CONTINUOUS
 62
     7
 10
60.2049498549904
 20
-17.467045927901
 30
0.0
 11
60.2049498549904
 21
27.7329547456315
 31
0.0
  0
LINE
  5
   2A2
  8
0
  6
CONTINUOUS
 62
     7
 10
59.4284926985718
 20
-14.5692684546905
 30
0.0
 11
60.2049498549904
 21
-17.467045927901
 31
0.0
  0
LINE
  5
   2A3
  8
0
  6
CONTINUOUS
 62
     7
 10
60.2049498549904
 20
-17.467045927901
 30
0.0
 11
60.9814070114089
 21
-14.5692684546905
 31
0.0
  0
LINE
  5
   2A4
  8
0
  6
CONTINUOUS
 62
     7
 10
60.9814070114089
 20
24.8351772724209
 30
0.0
 11
60.2049498549904
 21
27.7329547456315
 31
0.0
  0
LINE
  5
   2A5
  8
0
  6
CONTINUOUS
 62
     7
 10
60.2049498549904
 20
27.7329547456315
 30
0.0
 11
59.4284926985718
 21
24.8351772724209
 31
0.0
  0
ENDBLK
  5
   2A6
  8
0
  6
CONTINUOUS
 62
     7
  0
BLOCK
  5
   2A7
  8
0
  6
CONTINUOUS
 62
     7
  2
*UDIM687
 70
    65
 10
0.0
 20
0.0
 30
0.0
  3
*UDIM687
  0
TEXT
  5
   2A8
  8
0
  6
CONTINUOUS
 62
     7
 10
102.494866954605
 20
181.69523343626
 30
0.0
 40
2.99999994933605
  1
105
 50
359.999999948034
 41
0.933333333333333
 72
     1
 11
106.394866890095
 21
183.195233407411
 31
0.0
 73
     2
  0
LINE
  5
   2A9
  8
0
  6
CONTINUOUS
 62
     7
 10
127.669883152866
 20
132.232911267013
 30
0.0
 11
127.669883152866
 21
182.695233432743
 31
0.0
  0
LINE
  5
   2AA
  8
0
  6
CONTINUOUS
 62
     7
 10
85.6698519229802
 20
130.612955043059
 30
0.0
 11
85.6698519229802
 21
182.695233432743
 31
0.0
  0
LINE
  5
   2AB
  8
0
  6
CONTINUOUS
 62
     7
 10
127.669883152866
 20
180.695233432743
 30
0.0
 11
85.6698519229802
 21
180.695233432743
 31
0.0
  0
LINE
  5
   2AC
  8
0
  6
CONTINUOUS
 62
     7
 10
124.715459875659
 20
180.174289002791
 30
0.0
 11
127.669883152866
 21
180.695233432743
 31
0.0
  0
LINE
  5
   2AD
  8
0
  6
CONTINUOUS
 62
     7
 10
127.669883152866
 20
180.695233432743
 30
0.0
 11
124.715459875659
 21
181.216177862695
 31
0.0
  0
LINE
  5
   2AE
  8
0
  6
CONTINUOUS
 62
     7
 10
88.6242752001871
 20
181.216177862695
 30
0.0
 11
85.6698519229802
 21
180.695233432743
 31
0.0
  0
LINE
  5
   2AF
  8
0
  6
CONTINUOUS
 62
     7
 10
85.6698519229802
 20
180.695233432743
 30
0.0
 11
88.6242752001871
 21
180.174289002791
 31
0.0
  0
ENDBLK
  5
   2B0
  8
0
  6
CONTINUOUS
 62
     7
  0
BLOCK
  5
   2B1
  8
0
  6
CONTINUOUS
 62
     7
  2
*UDIM688
 70
    65
 10
0.0
 20
0.0
 30
0.0
  3
*UDIM688
  0
TEXT
  5
   2B2
  8
0
  6
CONTINUOUS
 62
     7
 10
74.6698840149791
 20
137.732925515362
 30
0.0
 40
2.99999994933605
  1
56,5
 50
89.9999999480344
 41
0.933333333333333
 72
     1
 11
73.1698840451114
 21
143.032925427215
 31
0.0
 73
     2
  0
LINE
  5
   2B3
  8
0
  6
CONTINUOUS
 62
     7
 10
100.917579471786
 20
131.7329552781
 30
0.0
 11
73.6698955147319
 21
131.732927560322
 31
0.0
  0
LINE
  5
   2B4
  8
0
  6
CONTINUOUS
 62
     7
 10
79.6698725248233
 20
154.332930414875
 30
0.0
 11
73.6698725248263
 21
154.33292431136
 31
0.0
  0
LINE
  5
   2B5
  8
0
  6
CONTINUOUS
 62
     7
 10
75.6698955147309
 20
131.732929594828
 30
0.0
 11
75.6698725248253
 21
154.332926345865
 31
0.0
  0
LINE
  5
   2B6
  8
0
  6
CONTINUOUS
 62
     7
 10
74.893435410541
 20
134.630706278184
 30
0.0
 11
75.6698955147309
 21
131.732929594828
 31
0.0
  0
LINE
  5
   2B7
  8
0
  6
CONTINUOUS
 62
     7
 10
75.6698955147309
 20
131.732929594828
 30
0.0
 11
76.4463497233773
 21
134.63070785789
 31
0.0
  0
LINE
  5
   2B8
  8
0
  6
CONTINUOUS
 62
     7
 10
76.4463326290151
 20
151.435149662509
 30
0.0
 11
75.6698725248253
 21
154.332926345865
 31
0.0
  0
LINE
  5
   2B9
  8
0
  6
CONTINUOUS
 62
     7
 10
75.6698725248253
 20
154.332926345865
 30
0.0
 11
74.8934183161789
 21
151.435148082803
 31
0.0
  0
ENDBLK
  5
   2BA
  8
0
  6
CONTINUOUS
 62
     7
  0
BLOCK
  5
   2BB
  8
0
  6
CONTINUOUS
 62
     7
  2
*UDIM689
 70
    65
 10
0.0
 20
0.0
 30
0.0
  3
*UDIM689
  0
TEXT
  5
   2BC
  8
0
  6
CONTINUOUS
 62
     7
 10
97.3643603190484
 20
-7.26565356850233
 30
0.0
 40
2.99999994933605
  1
50
 50
359.999999948034
 41
0.933333333333333
 72
     1
 11
99.8643602781814
 21
-5.76565359608917
 31
0.0
 73
     2
  0
LINE
  5
   2BD
  8
0
  6
CONTINUOUS
 62
     7
 10
106.669868469238
 20
-0.818476790000233
 30
0.0
 11
106.669868469238
 21
-10.2656535707572
 31
0.0
  0
LINE
  5
   2BE
  8
0
  6
CONTINUOUS
 62
     7
 10
86.6698726523217
 20
6.63297358533246
 30
0.0
 11
86.6698726523217
 21
-10.2656535707572
 31
0.0
  0
LINE
  5
   2BF
  8
0
  6
CONTINUOUS
 62
     7
 10
106.669868469238
 20
-8.26565357075719
 30
0.0
 11
86.6698726523217
 21
-8.26565357075719
 31
0.0
  0
LINE
  5
   2C0
  8
0
  6
CONTINUOUS
 62
     7
 10
103.772090996028
 20
-9.04211072717574
 30
0.0
 11
106.669868469238
 21
-8.26565357075719
 31
0.0
  0
LINE
  5
   2C1
  8
0
  6
CONTINUOUS
 62
     7
 10
106.669868469238
 20
-8.26565357075719
 30
0.0
 11
103.772090996028
 21
-7.48919641433865
 31
0.0
  0
LINE
  5
   2C2
  8
0
  6
CONTINUOUS
 62
     7
 10
89.5676501255322
 20
-7.48919641433865
 30
0.0
 11
86.6698726523217
 21
-8.26565357075719
 31
0.0
  0
LINE
  5
   2C3
  8
0
  6
CONTINUOUS
 62
     7
 10
86.6698726523217
 20
-8.26565357075719
 30
0.0
 11
89.5676501255322
 21
-9.04211072717574
 31
0.0
  0
ENDBLK
  5
   2C4
  8
0
  6
CONTINUOUS
 62
     7
  0
BLOCK
  5
   2C5
  8
0
  6
CONTINUOUS
 62
     7
  2
*UDIM690
 70
    65
 10
0.0
 20
0.0
 30
0.0
  3
*UDIM690
  0
TEXT
  5
   2C6
  8
0
  6
CONTINUOUS
 62
     7
 10
110.404127415847
 20
-7.26565356850233
 30
0.0
 40
2.99999994933605
  1
50
 50
359.999999948034
 41
0.933333333333333
 72
     1
 11
112.90412737498
 21
-5.76565359608917
 31
0.0
 73
     2
  0
LINE
  5
   2C7
  8
0
  6
CONTINUOUS
 62
     7
 10
126.669874430058
 20
6.63297367844319
 30
0.0
 11
126.669874430058
 21
-10.2656535707572
 31
0.0
  0
LINE
  5
   2C8
  8
0
  6
CONTINUOUS
 62
     7
 10
126.669874430058
 20
-8.26565357075719
 30
0.0
 11
106.669868469238
 21
-8.26565357075719
 31
0.0
  0
LINE
  5
   2C9
  8
0
  6
CONTINUOUS
 62
     7
 10
123.772096956848
 20
-9.04211072717574
 30
0.0
 11
126.669874430058
 21
-8.26565357075719
 31
0.0
  0
LINE
  5
   2CA
  8
0
  6
CONTINUOUS
 62
     7
 10
126.669874430058
 20
-8.26565357075719
 30
0.0
 11
123.772096956848
 21
-7.48919641433865
 31
0.0
  0
LINE
  5
   2CB
  8
0
  6
CONTINUOUS
 62
     7
 10
109.567645942449
 20
-7.48919641433865
 30
0.0
 11
106.669868469238
 21
-8.26565357075719
 31
0.0
  0
LINE
  5
   2CC
  8
0
  6
CONTINUOUS
 62
     7
 10
106.669868469238
 20
-8.26565357075719
 30
0.0
 11
109.567645942449
 21
-9.04211072717574
 31
0.0
  0
ENDBLK
  5
   2CD
  8
0
  6
CONTINUOUS
 62
     7
  0
BLOCK
  5
   2CE
  8
0
  6
CONTINUOUS
 62
     7
  2
*UDIM691
 70
    65
 10
0.0
 20
0.0
 30
0.0
  3
*UDIM691
  0
TEXT
  5
   2CF
  8
0
  6
CONTINUOUS
 62
     7
 10
102.769873607214
 20
-21.8100093043404
 30
0.0
 40
2.99999994933605
  1
130
 50
359.999999948034
 41
0.933333333333333
 72
     1
 11
106.669873542704
 21
-20.3100093331899
 31
0.0
 73
     2
  0
LINE
  5
   2D0
  8
0
  6
CONTINUOUS
 62
     7
 10
132.669874519465
 20
4.13297960885617
 30
0.0
 11
132.669874519465
 21
-24.810009307858
 31
0.0
  0
LINE
  5
   2D1
  8
0
  6
CONTINUOUS
 62
     7
 10
80.6698725659422
 20
4.13297960885617
 30
0.0
 11
80.6698725659422
 21
-24.810009307858
 31
0.0
  0
LINE
  5
   2D2
  8
0
  6
CONTINUOUS
 62
     7
 10
132.669874519465
 20
-22.810009307858
 30
0.0
 11
80.6698725659422
 21
-22.810009307858
 31
0.0
  0
LINE
  5
   2D3
  8
0
  6
CONTINUOUS
 62
     7
 10
129.772097046255
 20
-23.5864664642765
 30
0.0
 11
132.669874519465
 21
-22.810009307858
 31
0.0
  0
LINE
  5
   2D4
  8
0
  6
CONTINUOUS
 62
     7
 10
132.669874519465
 20
-22.810009307858
 30
0.0
 11
129.772097046255
 21
-22.0335521514394
 31
0.0
  0
LINE
  5
   2D5
  8
0
  6
CONTINUOUS
 62
     7
 10
83.5676500391527
 20
-22.0335521514394
 30
0.0
 11
80.6698725659422
 21
-22.810009307858
 31
0.0
  0
LINE
  5
   2D6
  8
0
  6
CONTINUOUS
 62
     7
 10
80.6698725659422
 20
-22.810009307858
 30
0.0
 11
83.5676500391527
 21
-23.5864664642765
 31
0.0
  0
ENDBLK
  5
   2D7
  8
0
  6
CONTINUOUS
 62
     7
  0
BLOCK
  5
   2D8
  8
0
  6
CONTINUOUS
 62
     7
  2
*UDIM692
 70
    65
 10
0.0
 20
0.0
 30
0.0
  3
*UDIM692
  0
TEXT
  5
   2D9
  8
0
  6
CONTINUOUS
 62
     7
 10
107.06938909037
 20
-0.768633876611802
 30
0.0
 40
2.99999994933605
  1
117
 50
359.999999948034
 41
0.933333333333333
 72
     1
 11
110.96938902586
 21
0.731366094538636
 31
0.0
 73
     2
  0
LINE
  5
   2DA
  8
0
  6
CONTINUOUS
 62
     7
 10
130.069868817925
 20
29.1329593590296
 30
0.0
 11
130.069868817925
 21
-3.76863388012939
 31
0.0
  0
LINE
  5
   2DB
  8
0
  6
CONTINUOUS
 62
     7
 10
83.2698681205511
 20
29.1329593590296
 30
0.0
 11
83.2698681205511
 21
-3.76863388012939
 31
0.0
  0
LINE
  5
   2DC
  8
0
  6
CONTINUOUS
 62
     7
 10
130.069868817925
 20
-1.76863388012939
 30
0.0
 11
83.2698681205511
 21
-1.76863388012939
 31
0.0
  0
LINE
  5
   2DD
  8
0
  6
CONTINUOUS
 62
     7
 10
127.115445540718
 20
-2.28957831008105
 30
0.0
 11
130.069868817925
 21
-1.76863388012939
 31
0.0
  0
LINE
  5
   2DE
  8
0
  6
CONTINUOUS
 62
     7
 10
130.069868817925
 20
-1.76863388012939
 30
0.0
 11
127.115445540718
 21
-1.24768945017772
 31
0.0
  0
LINE
  5
   2DF
  8
0
  6
CONTINUOUS
 62
     7
 10
86.2242913977581
 20
-1.24768945017772
 30
0.0
 11
83.2698681205511
 21
-1.76863388012939
 31
0.0
  0
LINE
  5
   2E0
  8
0
  6
CONTINUOUS
 62
     7
 10
83.2698681205511
 20
-1.76863388012939
 30
0.0
 11
86.2242913977581
 21
-2.28957831008105
 31
0.0
  0
ENDBLK
  5
   2E1
  8
0
  6
CONTINUOUS
 62
     7
  0
BLOCK
  5
   2E2
  8
0
  6
CONTINUOUS
 62
     7
  2
*UDIM693
 70
    65
 10
0.0
 20
0.0
 30
0.0
  3
*UDIM693
  0
TEXT
  5
   2E3
  8
0
  6
CONTINUOUS
 62
     7
 10
135.203193727131
 20
167.126148852696
 30
0.0
 40
2.99999994933605
  1
30
 50
359.999999948034
 41
0.933333333333333
 72
     1
 11
137.703193686264
 21
168.626148825109
 31
0.0
 73
     2
  0
LINE
  5
   2E4
  8
0
  6
CONTINUOUS
 62
     7
 10
132.669874519465
 20
155.332931432128
 30
0.0
 11
132.669874519465
 21
168.126148850441
 31
0.0
  0
LINE
  5
   2E5
  8
0
  6
CONTINUOUS
 62
     7
 10
120.669874340651
 20
155.332943639159
 30
0.0
 11
120.669874340651
 21
168.126148850441
 31
0.0
  0
LINE
  5
   2E6
  8
0
  6
CONTINUOUS
 62
     7
 10
140.203193644044
 20
166.126148850441
 30
0.0
 11
120.669874340651
 21
166.126148850441
 31
0.0
  0
LINE
  5
   2E7
  8
0
  6
CONTINUOUS
 62
     7
 10
129.772097046255
 20
165.349691694023
 30
0.0
 11
132.669874519465
 21
166.126148850441
 31
0.0
  0
LINE
  5
   2E8
  8
0
  6
CONTINUOUS
 62
     7
 10
132.669874519465
 20
166.126148850441
 30
0.0
 11
129.772097046255
 21
166.90260600686
 31
0.0
  0
LINE
  5
   2E9
  8
0
  6
CONTINUOUS
 62
     7
 10
123.567651813862
 20
166.90260600686
 30
0.0
 11
120.669874340651
 21
166.126148850441
 31
0.0
  0
LINE
  5
   2EA
  8
0
  6
CONTINUOUS
 62
     7
 10
120.669874340651
 20
166.126148850441
 30
0.0
 11
123.567651813862
 21
165.349691694023
 31
0.0
  0
ENDBLK
  5
   2EB
  8
0
  6
CONTINUOUS
 62
     7
  0
BLOCK
  5
   2EC
  8
0
  6
CONTINUOUS
 62
     7
  2
*UDIM694
 70
    65
 10
0.0
 20
0.0
 30
0.0
  3
*UDIM694
  0
TEXT
  5
   2ED
  8
0
  6
CONTINUOUS
 62
     7
 10
141.187364834409
 20
134.832937702023
 30
0.0
 40
2.99999994933605
  1
8,5
 50
89.9999999480344
 41
0.933333333333333
 72
     1
 11
139.687364863274
 21
138.732937637519
 31
0.0
 73
     2
  0
TEXT
  5
   2EE
  8
0
  6
CONTINUOUS
 62
     7
 10
141.187364836583
 20
130.832937752687
 30
0.0
 40
2.99999994933605
  1
Ø
 50
89.9999999480344
 41
1.2
 72
     1
 11
139.687364863274
 21
132.332937728714
 31
0.0
 73
     2
  0
LINE
  5
   2EF
  8
0
  6
CONTINUOUS
 62
     7
 10
127.669874430058
 20
147.632937571655
 30
0.0
 11
144.187364837942
 21
147.632937571655
 31
0.0
  0
LINE
  5
   2F0
  8
0
  6
CONTINUOUS
 62
     7
 10
127.669874430058
 20
151.03293735062
 30
0.0
 11
144.187364837942
 21
151.03293735062
 31
0.0
  0
LINE
  5
   2F1
  8
0
  6
CONTINUOUS
 62
     7
 10
142.187364837942
 20
130.832937754046
 30
0.0
 11
142.187364837942
 21
156.03293735062
 31
0.0
  0
LINE
  5
   2F2
  8
0
  6
CONTINUOUS
 62
     7
 10
142.96382199436
 20
144.735160098445
 30
0.0
 11
142.187364837942
 21
147.632937571655
 31
0.0
  0
LINE
  5
   2F3
  8
0
  6
CONTINUOUS
 62
     7
 10
142.187364837942
 20
147.632937571655
 30
0.0
 11
141.410907681523
 21
144.735160098445
 31
0.0
  0
LINE
  5
   2F4
  8
0
  6
CONTINUOUS
 62
     7
 10
141.410907681523
 20
153.93071482383
 30
0.0
 11
142.187364837942
 21
151.03293735062
 31
0.0
  0
LINE
  5
   2F5
  8
0
  6
CONTINUOUS
 62
     7
 10
142.187364837942
 20
151.03293735062
 30
0.0
 11
142.96382199436
 21
153.93071482383
 31
0.0
  0
ENDBLK
  5
   2F6
  8
0
  6
CONTINUOUS
 62
     7
  0
BLOCK
  5
   2F7
  8
0
  6
CONTINUOUS
 62
     7
  2
*UDIM695
 70
    65
 10
0.0
 20
0.0
 30
0.0
  3
*UDIM695
  0
TEXT
  5
   2F8
  8
0
  6
CONTINUOUS
 62
     7
 10
67.4587320320579
 20
57.6579605832171
 30
0.0
 40
2.99999994933605
  1
161
 50
89.9999999480344
 41
0.933333333333333
 72
     1
 11
65.9587320609222
 21
61.5579605187125
 31
0.0
 73
     2
  0
LINE
  5
   2F9
  8
0
  6
CONTINUOUS
 62
     7
 10
82.7698681280017
 20
29.6329593515791
 30
0.0
 11
66.4587320355902
 21
29.6329593515791
 31
0.0
  0
LINE
  5
   2FA
  8
0
  6
CONTINUOUS
 62
     7
 10
82.7698681280017
 20
94.0329587853349
 30
0.0
 11
66.4587320355902
 21
94.0329587853349
 31
0.0
  0
LINE
  5
   2FB
  8
0
  6
CONTINUOUS
 62
     7
 10
68.4587320355902
 20
29.6329593515791
 30
0.0
 11
68.4587320355902
 21
94.0329587853349
 31
0.0
  0
LINE
  5
   2FC
  8
0
  6
CONTINUOUS
 62
     7
 10
67.9377876056385
 20
32.587382628786
 30
0.0
 11
68.4587320355902
 21
29.6329593515791
 31
0.0
  0
LINE
  5
   2FD
  8
0
  6
CONTINUOUS
 62
     7
 10
68.4587320355902
 20
29.6329593515791
 30
0.0
 11
68.9796764655418
 21
32.587382628786
 31
0.0
  0
LINE
  5
   2FE
  8
0
  6
CONTINUOUS
 62
     7
 10
68.9796764655418
 20
91.0785355081279
 30
0.0
 11
68.4587320355902
 21
94.0329587853349
 31
0.0
  0
LINE
  5
   2FF
  8
0
  6
CONTINUOUS
 62
     7
 10
68.4587320355902
 20
94.0329587853349
 30
0.0
 11
67.9377876056385
 21
91.0785355081279
 31
0.0
  0
ENDBLK
  5
   300
  8
0
  6
CONTINUOUS
 62
     7
  0
ENDSEC
  0
SECTION
  2
ENTITIES
  0
LINE
  5
   301
  8
0
  6
DASHDOT
 62
     7
 10
169.683029174805
 20
-45.6415372462832
 30
0.0
 11
169.683029174805
 21
-63.3397508401604
 31
0.0
  0
LINE
  5
   302
  8
0
  6
DASHDOT
 62
     7
 10
177.171310432699
 20
-35.4247360229492
 30
0.0
 11
161.131891556215
 21
-35.4247360229492
 31
0.0
  0
LINE
  5
   303
  8
0
  6
DASHDOT
 62
     7
 10
176.201895006098
 20
-91.4247360229492
 30
0.0
 11
161.131891556215
 21
-91.4247360229492
 31
0.0
  0
LINE
  5
   304
  8
0
  6
DASHDOT
 62
     7
 10
165.308029174805
 20
-26.0881332862349
 30
0.0
 11
165.308029174805
 21
-102.793176024066
 31
0.0
  0
LINE
  5
   305
  8
0
  6
DASHDOT
 62
     7
 10
174.058029174805
 20
-25.2009753186265
 30
0.0
 11
174.058029174805
 21
-102.58844726231
 31
0.0
  0
LINE
  5
   306
  8
0
  6
CONTINUOUS
 62
     3
 10
157.808029174805
 20
-27.9247360229492
 30
0.0
 11
157.808029174805
 21
-98.9247360229492
 31
0.0
  0
LINE
  5
   307
  8
0
  6
CONTINUOUS
 62
     3
 10
181.558029174805
 20
-27.9247360229492
 30
0.0
 11
181.558029174805
 21
-98.9247360229492
 31
0.0
  0
LINE
  5
   308
  8
0
  6
CONTINUOUS
 62
     3
 10
181.558029174805
 20
-27.9247360229492
 30
0.0
 11
157.808029174805
 21
-27.9247360229492
 31
0.0
  0
LINE
  5
   309
  8
0
  6
CONTINUOUS
 62
     3
 10
181.558029174805
 20
-98.9247360229492
 30
0.0
 11
157.808029174805
 21
-98.9247360229492
 31
0.0
  0
CIRCLE
  5
   30A
  8
0
  6
CONTINUOUS
 62
     7
 10
165.308029174805
 20
-35.4247360229492
 30
0.0
 40
0.6875
  0
CIRCLE
  5
   30B
  8
0
  6
CONTINUOUS
 62
     7
 10
174.058029174805
 20
-35.4247360229492
 30
0.0
 40
0.6875
  0
CIRCLE
  5
   30C
  8
0
  6
CONTINUOUS
 62
     7
 10
165.308029174805
 20
-91.4247360229492
 30
0.0
 40
0.6875
  0
CIRCLE
  5
   30D
  8
0
  6
CONTINUOUS
 62
     7
 10
174.058029174805
 20
-91.4247360229492
 30
0.0
 40
0.6875
  0
LINE
  5
   30E
  8
0
  6
DASHDOT
 62
     7
 10
183.597037300577
 20
-74.6122360229492
 30
0.0
 11
144.979093686022
 21
-74.6122360229492
 31
0.0
  0
LINE
  5
   30F
  8
0
  6
DASHDOT
 62
     7
 10
169.683029174805
 20
-70.1986718889118
 30
0.0
 11
169.683029174805
 21
-104.976949482794
 31
0.0
  0
INSERT
  5
   310
  8
0
  6
CONTINUOUS
 62
     7
  2
*UDIM656
 10
0.0
 20
0.0
 30
0.0
  0
INSERT
  5
   311
  8
0
  6
CONTINUOUS
 62
     7
  2
*UDIM657
 10
0.0
 20
0.0
 30
0.0
  0
INSERT
  5
   312
  8
0
  6
CONTINUOUS
 62
     7
  2
*UDIM658
 10
0.0
 20
0.0
 30
0.0
  0
INSERT
  5
   313
  8
0
  6
CONTINUOUS
 62
     7
  2
*UDIM659
 10
0.0
 20
0.0
 30
0.0
  0
TEXT
  5
   314
  8
0
  6
CONTINUOUS
 62
     7
 10
165.656698701053
 20
-110.774909995983
 30
0.0
 40
3.00000002980232
  1
= =
 50
359.999999896069
 41
0.916666604744064
 72
     2
 11
173.356698253024
 21
-110.774910009911
 31
0.0
  0
TEXT
  5
   315
  8
0
  6
CONTINUOUS
 62
     7
 10
168.591144201426
 20
-115.278942135967
 30
0.0
 40
3.00000002980232
  1
Y
 50
359.999999896069
 41
0.916666604744064
 72
     2
 11
170.791144070296
 21
-115.278942139946
 31
0.0
  0
TEXT
  5
   316
  8
0
  6
CONTINUOUS
 62
     7
 10
168.697349187999
 20
-22.5537681857715
 30
0.0
 40
3.00000002980232
  1
Y
 50
359.999999896069
 41
0.916666604744064
 72
     2
 11
170.897349056868
 21
-22.5537681897511
 31
0.0
  0
TEXT
  5
   317
  8
0
  6
CONTINUOUS
 62
     7
 10
139.587902066378
 20
-76.2439914623867
 30
0.0
 40
3.00000002980232
  1
X
 50
359.999999896069
 41
0.916666604744064
 72
     2
 11
141.787901935248
 21
-76.2439914663663
 31
0.0
  0
LINE
  5
   318
  8
0
  6
CONTINUOUS
 62
     7
 10
92.6698684692383
 20
-88.6122360229492
 30
0.0
 11
120.669868469238
 21
-88.6122360229492
 31
0.0
  0
LINE
  5
   319
  8
0
  6
CONTINUOUS
 62
     7
 10
92.6698684692383
 20
-60.6122360229492
 30
0.0
 11
120.669868469238
 21
-60.6122360229492
 31
0.0
  0
LINE
  5
   31A
  8
0
  6
CONTINUOUS
 62
     7
 10
92.6698684692383
 20
-60.6122360229492
 30
0.0
 11
92.6698684692383
 21
-88.6122360229492
 31
0.0
  0
LINE
  5
   31B
  8
0
  6
CONTINUOUS
 62
     7
 10
120.669868469238
 20
-60.6122360229492
 30
0.0
 11
120.669868469238
 21
-88.6122360229492
 31
0.0
  0
LINE
  5
   31C
  8
0
  6
DASHDOT
 62
     7
 10
106.669868469238
 20
-45.5182727769736
 30
0.0
 11
106.669868469238
 21
-104.649026300756
 31
0.0
  0
CIRCLE
  5
   31D
  8
0
  6
CONTINUOUS
 62
     7
 10
96.6698684692383
 20
-56.8622360229492
 30
0.0
 40
0.875
  0
CIRCLE
  5
   31E
  8
0
  6
CONTINUOUS
 62
     7
 10
116.669868469238
 20
-56.8622360229492
 30
0.0
 40
0.875
  0
CIRCLE
  5
   31F
  8
0
  6
CONTINUOUS
 62
     7
 10
116.669868469238
 20
-92.3622360229492
 30
0.0
 40
0.875
  0
CIRCLE
  5
   320
  8
0
  6
CONTINUOUS
 62
     7
 10
96.6698684692383
 20
-92.3622360229492
 30
0.0
 40
0.875
  0
LINE
  5
   321
  8
0
  6
CONTINUOUS
 62
     3
 10
88.7053727998238
 20
-54.512435725658
 30
0.0
 11
124.508742069809
 21
-54.512435725658
 31
0.0
  0
LINE
  5
   322
  8
0
  6
CONTINUOUS
 62
     3
 10
88.7053727998238
 20
-95.7177168504132
 30
0.0
 11
124.508742069809
 21
-95.7177168504132
 31
0.0
  0
LINE
  5
   323
  8
0
  6
CONTINUOUS
 62
     3
 10
124.508742069809
 20
-54.512435725658
 30
0.0
 11
124.508742069809
 21
-95.7177168504132
 31
0.0
  0
LINE
  5
   324
  8
0
  6
CONTINUOUS
 62
     3
 10
88.7053727998238
 20
-54.512435725658
 30
0.0
 11
88.7053727998238
 21
-95.7177168504132
 31
0.0
  0
LINE
  5
   325
  8
0
  6
DASHDOT
 62
     7
 10
116.669868469238
 20
-55.2372360229492
 30
0.0
 11
116.669868469238
 21
-58.4872360229492
 31
0.0
  0
LINE
  5
   326
  8
0
  6
DASHDOT
 62
     7
 10
115.044868469238
 20
-56.8622360229492
 30
0.0
 11
118.294868469238
 21
-56.8622360229492
 31
0.0
  0
LINE
  5
   327
  8
0
  6
DASHDOT
 62
     7
 10
96.6698684692383
 20
-55.2372360229492
 30
0.0
 11
96.6698684692383
 21
-58.4872360229492
 31
0.0
  0
LINE
  5
   328
  8
0
  6
DASHDOT
 62
     7
 10
95.0448684692383
 20
-56.8622360229492
 30
0.0
 11
98.2948684692383
 21
-56.8622360229492
 31
0.0
  0
LINE
  5
   329
  8
0
  6
DASHDOT
 62
     7
 10
96.6698684692383
 20
-90.7372360229492
 30
0.0
 11
96.6698684692383
 21
-93.9872360229492
 31
0.0
  0
LINE
  5
   32A
  8
0
  6
DASHDOT
 62
     7
 10
95.0448684692383
 20
-92.3622360229492
 30
0.0
 11
98.2948684692383
 21
-92.3622360229492
 31
0.0
  0
LINE
  5
   32B
  8
0
  6
DASHDOT
 62
     7
 10
116.669868469238
 20
-90.7372360229492
 30
0.0
 11
116.669868469238
 21
-93.9872360229492
 31
0.0
  0
LINE
  5
   32C
  8
0
  6
DASHDOT
 62
     7
 10
115.044868469238
 20
-92.3622360229492
 30
0.0
 11
118.294868469238
 21
-92.3622360229492
 31
0.0
  0
LINE
  5
   32D
  8
0
  6
DASHDOT
 62
     7
 10
81.3040109158817
 20
-74.6122360229492
 30
0.0
 11
134.300161768609
 21
-74.6122360229492
 31
0.0
  0
INSERT
  5
   32E
  8
0
  6
CONTINUOUS
 62
     7
  2
*UDIM660
 10
0.0
 20
0.0
 30
0.0
  0
INSERT
  5
   32F
  8
0
  6
CONTINUOUS
 62
     7
  2
*UDIM661
 10
0.0
 20
0.0
 30
0.0
  0
INSERT
  5
   330
  8
0
  6
CONTINUOUS
 62
     7
  2
*UDIM662
 10
0.0
 20
0.0
 30
0.0
  0
INSERT
  5
   331
  8
0
  6
CONTINUOUS
 62
     7
  2
*UDIM663
 10
0.0
 20
0.0
 30
0.0
  0
INSERT
  5
   332
  8
0
  6
CONTINUOUS
 62
     7
  2
*UDIM664
 10
0.0
 20
0.0
 30
0.0
  0
TEXT
  5
   333
  8
0
  6
CONTINUOUS
 62
     7
 10
99.4198644438358
 20
-48.0743582810618
 30
0.0
 40
3.00000002980232
  1
=   =
 50
359.999999844103
 41
0.916666604744064
 72
     2
 11
112.61986367891
 21
-48.0743583169115
 31
0.0
  0
TEXT
  5
   334
  8
0
  6
CONTINUOUS
 62
     7
 10
98.2035150005392
 20
-39.5540774994179
 30
0.0
 40
3.00000002980232
  1
=    =
 50
359.999999844103
 41
0.916666604744064
 72
     2
 11
114.153514077164
 21
-39.5540775427363
 31
0.0
  0
TEXT
  5
   335
  8
0
  6
CONTINUOUS
 62
     7
 10
80.1111708315449
 20
-84.8761355232149
 30
0.0
 40
3.00000002980232
  1
=     =
 50
449.999999844103
 41
0.916666604744064
 72
     2
 11
80.1111708823084
 21
-66.1761366050392
 31
0.0
  0
TEXT
  5
   336
  8
0
  6
CONTINUOUS
 62
     7
 10
70.3980510768311
 20
-86.9680226803769
 30
0.0
 40
3.00000002980232
  1
=       =
 50
449.999999844103
 41
0.916666604744064
 72
     2
 11
70.3980511425251
 21
-62.7680240790992
 31
0.0
  0
TEXT
  5
   337
  8
0
  6
CONTINUOUS
 62
     7
 10
105.478100528218
 20
-108.057140419478
 30
0.0
 40
3.00000002980232
  1
Y
 50
359.999999844103
 41
0.916666604744064
 72
     2
 11
107.678100397087
 21
-108.057140425453
 31
0.0
  0
TEXT
  5
   338
  8
0
  6
CONTINUOUS
 62
     7
 10
105.648506154515
 20
-30.1817665791461
 30
0.0
 40
3.00000002980232
  1
Y
 50
359.999999844103
 41
0.916666604744064
 72
     2
 11
107.848506023384
 21
-30.181766585121
 31
0.0
  0
TEXT
  5
   339
  8
0
  6
CONTINUOUS
 62
     7
 10
57.2533074517023
 20
-76.0208805298755
 30
0.0
 40
3.00000002980232
  1
X
 50
359.999999844103
 41
0.916666604744064
 72
     2
 11
59.4533073205721
 21
-76.0208805358504
 31
0.0
  0
LINE
  5
   33A
  8
0
  6
CONTINUOUS
 62
     3
 10
235.227478437652
 20
29.85296513021
 30
0.0
 11
244.142637300491
 21
29.85296513021
 31
0.0
  0
LINE
  5
   33B
  8
0
  6
CONTINUOUS
 62
     7
 10
215.342636871338
 20
28.7329642824025
 30
0.0
 11
215.342636871338
 21
44.850652510856
 31
0.0
  0
LINE
  5
   33C
  8
0
  6
CONTINUOUS
 62
     7
 10
215.342636871338
 20
44.8506414401186
 30
0.0
 11
215.342636871338
 21
96.7329542159683
 31
0.0
  0
LINE
  5
   33D
  8
0
  6
DASHDOT
 62
     7
 10
214.542636859417
 20
22.9141720180434
 30
0.0
 11
214.542636859417
 21
134.744282952822
 31
0.0
  0
LINE
  5
   33E
  8
0
  6
CONTINUOUS
 62
     7
 10
214.542636859417
 20
92.4648023058749
 30
0.0
 11
214.542636859417
 21
92.5329480588434
 31
0.0
  0
LINE
  5
   33F
  8
0
  6
CONTINUOUS
 62
     7
 10
242.742628124456
 20
71.6329590167437
 30
0.0
 11
242.742635871248
 21
68.3329494848318
 31
0.0
  0
LINE
  5
   340
  8
0
  6
CONTINUOUS
 62
     7
 10
243.742613605596
 20
90.1329574428819
 30
0.0
 11
244.025462723751
 21
90.2501144089583
 31
0.0
  0
LINE
  5
   341
  8
0
  6
CONTINUOUS
 62
     7
 10
244.025467820996
 20
90.2501059585268
 30
0.0
 11
244.142624796245
 21
90.5329489621214
 31
0.0
  0
LINE
  5
   342
  8
0
  6
CONTINUOUS
 62
     7
 10
242.742630740194
 20
87.3329597543532
 30
0.0
 11
242.742636843709
 21
90.1329597963004
 31
0.0
  0
LINE
  5
   343
  8
0
  6
CONTINUOUS
 62
     7
 10
242.74263727963
 20
90.1329602301121
 30
0.0
 11
243.742625087499
 21
90.1329602301121
 31
0.0
  0
LINE
  5
   344
  8
0
  6
CONTINUOUS
 62
     7
 10
242.742631176114
 20
71.6329599544406
 30
0.0
 11
242.742631176114
 21
87.3329601883888
 31
0.0
  0
LINE
  5
   345
  8
0
  6
CONTINUOUS
 62
     7
 10
240.942637252808
 20
51.332959651947
 30
0.0
 11
240.942637252808
 21
67.5329598933458
 31
0.0
  0
LINE
  5
   346
  8
0
  6
CONTINUOUS
 62
     7
 10
240.942649237692
 20
67.5329819242041
 30
0.0
 11
241.0498269651
 21
67.9329819192095
 31
0.0
  0
LINE
  5
   347
  8
0
  6
CONTINUOUS
 62
     7
 10
241.049840592097
 20
67.9329971412396
 30
0.0
 11
241.342656743666
 21
68.2258193894601
 31
0.0
  0
LINE
  5
   348
  8
0
  6
CONTINUOUS
 62
     7
 10
241.342615344767
 20
68.2257717574703
 30
0.0
 11
241.742621432792
 21
68.3329494848318
 31
0.0
  0
LINE
  5
   349
  8
0
  6
CONTINUOUS
 62
     7
 10
240.942637252808
 20
51.332959651947
 30
0.0
 11
244.142637300491
 21
51.332959651947
 31
0.0
  0
LINE
  5
   34A
  8
0
  6
CONTINUOUS
 62
     7
 10
243.742589718464
 20
45.732954453441
 30
0.0
 11
244.142620225633
 21
45.3329544617552
 31
0.0
  0
LINE
  5
   34B
  8
0
  6
CONTINUOUS
 62
     7
 10
243.742599127149
 20
50.1329638765614
 30
0.0
 11
244.142635737438
 21
50.5329638679986
 31
0.0
  0
LINE
  5
   34C
  8
0
  6
CONTINUOUS
 62
     7
 10
218.635470906648
 20
50.1329494169641
 30
0.0
 11
243.742594083507
 21
50.1329616239948
 31
0.0
  0
LINE
  5
   34D
  8
0
  6
CONTINUOUS
 62
     7
 10
218.635452319575
 20
45.7329595685005
 30
0.0
 11
243.742599910497
 21
45.7329595685005
 31
0.0
  0
LINE
  5
   34E
  8
0
  6
CONTINUOUS
 62
     7
 10
217.142635090111
 20
50.532948182151
 30
0.0
 11
218.635469118999
 21
50.1329420733253
 31
0.0
  0
LINE
  5
   34F
  8
0
  6
CONTINUOUS
 62
     7
 10
215.742635051591
 20
50.9080781083958
 30
0.0
 11
217.142648027504
 21
50.5329438691033
 31
0.0
  0
LINE
  5
   350
  8
0
  6
CONTINUOUS
 62
     7
 10
215.342637315881
 20
44.850653904686
 30
0.0
 11
218.635453126542
 21
45.7329598124494
 31
0.0
  0
LINE
  5
   351
  8
0
  6
CONTINUOUS
 62
     7
 10
215.34264207174
 20
51.8506810973233
 30
0.0
 11
215.742640911963
 21
51.9578588247353
 31
0.0
  0
LINE
  5
   352
  8
0
  6
CONTINUOUS
 62
     7
 10
215.342636871338
 20
42.3329534143209
 30
0.0
 11
216.94263651371
 21
42.3329534143209
 31
0.0
  0
LINE
  5
   353
  8
0
  6
CONTINUOUS
 62
     7
 10
216.94263651371
 20
39.326242184811
 30
0.0
 11
216.94263651371
 21
42.3329534143209
 31
0.0
  0
LINE
  5
   354
  8
0
  6
CONTINUOUS
 62
     7
 10
215.742636877298
 20
44.9578252796064
 30
0.0
 11
215.742636877298
 21
62.7329537183045
 31
0.0
  0
LINE
  5
   355
  8
0
  6
CONTINUOUS
 62
     7
 10
217.14263689816
 20
50.5329596400261
 30
0.0
 11
217.14263689816
 21
60.5329597890377
 31
0.0
  0
LINE
  5
   356
  8
0
  6
CONTINUOUS
 62
     7
 10
215.342636489868
 20
62.7329537183045
 30
0.0
 11
216.54263612628
 21
62.7329537183045
 31
0.0
  0
LINE
  5
   357
  8
0
  6
CONTINUOUS
 62
     7
 10
216.542640247196
 20
62.7329497530542
 30
0.0
 11
216.842640998463
 21
62.6525664575018
 31
0.0
  0
LINE
  5
   358
  8
0
  6
CONTINUOUS
 62
     7
 10
216.542640247196
 20
62.7329497530542
 30
0.0
 11
216.842640998463
 21
62.6525664575018
 31
0.0
  0
LINE
  5
   359
  8
0
  6
CONTINUOUS
 62
     7
 10
216.842638187221
 20
62.6525644371991
 30
0.0
 11
217.062253359968
 21
62.4329477464485
 31
0.0
  0
LINE
  5
   35A
  8
0
  6
CONTINUOUS
 62
     7
 10
217.062246457982
 20
62.432942467549
 30
0.0
 11
217.142630901292
 21
62.1329424640317
 31
0.0
  0
LINE
  5
   35B
  8
0
  6
CONTINUOUS
 62
     7
 10
217.142644146085
 20
60.5329543054144
 30
0.0
 11
217.142644146085
 21
62.1329482257405
 31
0.0
  0
LINE
  5
   35C
  8
0
  6
CONTINUOUS
 62
     7
 10
217.062255213903
 20
60.232951142088
 30
0.0
 11
217.100344198095
 21
60.3751020209602
 31
0.0
  0
LINE
  5
   35D
  8
0
  6
CONTINUOUS
 62
     7
 10
217.100343464367
 20
60.3750981466067
 30
0.0
 11
217.142638919927
 21
60.5329533709611
 31
0.0
  0
LINE
  5
   35E
  8
0
  6
CONTINUOUS
 62
     7
 10
216.842636770097
 20
60.0133225737727
 30
0.0
 11
217.062252313412
 21
60.2329392648476
 31
0.0
  0
LINE
  5
   35F
  8
0
  6
CONTINUOUS
 62
     7
 10
216.542631748314
 20
59.932945365685
 30
0.0
 11
216.842631748643
 21
60.0133286550701
 31
0.0
  0
LINE
  5
   360
  8
0
  6
CONTINUOUS
 62
     7
 10
215.742636877298
 20
59.9329536765813
 30
0.0
 11
216.54263650775
 21
59.9329536765813
 31
0.0
  0
LINE
  5
   361
  8
0
  6
CONTINUOUS
 62
     7
 10
214.542636859417
 20
32.9329536557197
 30
0.0
 11
215.342636871338
 21
32.9329536557197
 31
0.0
  0
LINE
  5
   362
  8
0
  6
CONTINUOUS
 62
     7
 10
214.542636859417
 20
92.5329480588434
 30
0.0
 11
215.342636871338
 21
92.5329480588434
 31
0.0
  0
LINE
  5
   363
  8
0
  6
CONTINUOUS
 62
     7
 10
214.542636859417
 20
88.585609132836
 30
0.0
 11
215.342636871338
 21
88.585609132836
 31
0.0
  0
LINE
  5
   364
  8
0
  6
CONTINUOUS
 62
     7
 10
217.142627486455
 20
45.9329550141804
 30
0.0
 11
218.262242253366
 21
45.6329550329252
 31
0.0
  0
LINE
  5
   365
  8
0
  6
CONTINUOUS
 62
     7
 10
217.142623546719
 20
45.9329588276187
 30
0.0
 11
217.142623546719
 21
49.9329588872234
 31
0.0
  0
LINE
  5
   366
  8
0
  6
CONTINUOUS
 62
     7
 10
217.142623663733
 20
49.9329535375223
 30
0.0
 11
218.262247964848
 21
50.2329535393137
 31
0.0
  0
LINE
  5
   367
  8
0
  6
CONTINUOUS
 62
     7
 10
214.542636859417
 20
36.846802209524
 30
0.0
 11
215.342636871338
 21
36.846802209524
 31
0.0
  0
LINE
  5
   368
  8
0
  6
CONTINUOUS
 62
     7
 10
214.542636859417
 20
36.9329533338546
 30
0.0
 11
215.342636871338
 21
36.9329533338546
 31
0.0
  0
LINE
  5
   369
  8
0
  6
CONTINUOUS
 62
     7
 10
217.062256568872
 20
60.0212342358807
 30
0.0
 11
217.142640625694
 21
60.3751038582629
 31
0.0
  0
LINE
  5
   36A
  8
0
  6
CONTINUOUS
 62
     7
 10
217.100341060127
 20
60.3751045620761
 30
0.0
 11
217.142636135221
 21
60.3751045620761
 31
0.0
  0
LINE
  5
   36B
  8
0
  6
CONTINUOUS
 62
     7
 10
217.089046186871
 20
54.732949477063
 30
0.0
 11
217.142635050953
 21
54.7727321909197
 31
0.0
  0
LINE
  5
   36C
  8
0
  6
CONTINUOUS
 62
     7
 10
217.062254173723
 20
54.7528267878369
 30
0.0
 11
217.089049750177
 21
54.7329354316229
 31
0.0
  0
LINE
  5
   36D
  8
0
  6
CONTINUOUS
 62
     7
 10
217.062252070302
 20
58.7329597622156
 30
0.0
 11
217.14263651669
 21
58.7329597622156
 31
0.0
  0
LINE
  5
   36E
  8
0
  6
CONTINUOUS
 62
     7
 10
217.062249883547
 20
56.3130450739073
 30
0.0
 11
217.089045460001
 21
56.3329364301212
 31
0.0
  0
LINE
  5
   36F
  8
0
  6
CONTINUOUS
 62
     7
 10
217.089049332437
 20
56.3329467152379
 30
0.0
 11
217.142638196519
 21
56.2931640013812
 31
0.0
  0
LINE
  5
   370
  8
0
  6
CONTINUOUS
 62
     7
 10
217.062249807722
 20
59.6656973174668
 30
0.0
 11
217.105919303997
 21
59.4217886252154
 31
0.0
  0
LINE
  5
   371
  8
0
  6
CONTINUOUS
 62
     7
 10
217.105921261557
 20
59.4217914523441
 30
0.0
 11
217.142636196579
 21
58.7329609019435
 31
0.0
  0
LINE
  5
   372
  8
0
  6
CONTINUOUS
 62
     7
 10
216.856106380367
 20
54.7938420078244
 30
0.0
 11
217.062250330233
 21
54.7528385937299
 31
0.0
  0
LINE
  5
   373
  8
0
  6
CONTINUOUS
 62
     7
 10
216.842635883324
 20
54.802847107364
 30
0.0
 11
216.856107486834
 21
54.7938444222774
 31
0.0
  0
LINE
  5
   374
  8
0
  6
CONTINUOUS
 62
     7
 10
216.842629954077
 20
56.2630500242482
 30
0.0
 11
216.856102320063
 21
56.2720527095206
 31
0.0
  0
LINE
  5
   375
  8
0
  6
CONTINUOUS
 62
     7
 10
216.856104957763
 20
56.2720507927822
 30
0.0
 11
217.062248145149
 21
56.3130542004957
 31
0.0
  0
LINE
  5
   376
  8
0
  6
CONTINUOUS
 62
     7
 10
216.84263651222
 20
58.7329597622156
 30
0.0
 11
217.062252070302
 21
58.7329597622156
 31
0.0
  0
LINE
  5
   377
  8
0
  6
CONTINUOUS
 62
     7
 10
216.542634720257
 20
54.8565525160039
 30
0.0
 11
216.842634717765
 21
54.802841590079
 31
0.0
  0
LINE
  5
   378
  8
0
  6
CONTINUOUS
 62
     7
 10
216.542634256026
 20
56.2093403951837
 30
0.0
 11
216.842634253534
 21
56.2630513211087
 31
0.0
  0
LINE
  5
   379
  8
0
  6
CONTINUOUS
 62
     7
 10
216.54263650775
 20
58.7329597622156
 30
0.0
 11
216.84263651222
 21
58.7329597622156
 31
0.0
  0
LINE
  5
   37A
  8
0
  6
CONTINUOUS
 62
     7
 10
215.742636877298
 20
56.2093452226577
 30
0.0
 11
216.54263650775
 21
56.2093452226577
 31
0.0
  0
LINE
  5
   37B
  8
0
  6
CONTINUOUS
 62
     7
 10
215.742636877298
 20
58.7329597622156
 30
0.0
 11
216.54263650775
 21
58.7329597622156
 31
0.0
  0
LINE
  5
   37C
  8
0
  6
CONTINUOUS
 62
     7
 10
215.742636877298
 20
54.8565619993747
 30
0.0
 11
216.54263650775
 21
54.8565619993747
 31
0.0
  0
LINE
  5
   37D
  8
0
  6
CONTINUOUS
 62
     3
 10
215.342636871338
 20
95.612965194583
 30
0.0
 11
253.022636212588
 21
95.612965194583
 31
0.0
  0
LINE
  5
   37E
  8
0
  6
CONTINUOUS
 62
     3
 10
244.142637300968
 20
29.85296513021
 30
0.0
 11
253.022636212588
 21
29.85296513021
 31
0.0
  0
LINE
  5
   37F
  8
0
  6
CONTINUOUS
 62
     3
 10
244.142637300968
 20
29.85296513021
 30
0.0
 11
244.142637300968
 21
45.6329595670104
 31
0.0
  0
LINE
  5
   380
  8
0
  6
CONTINUOUS
 62
     3
 10
244.14263730097
 20
50.23295353204
 30
0.0
 11
244.14263730097
 21
51.3329840660099
 31
0.0
  0
LINE
  5
   381
  8
0
  6
CONTINUOUS
 62
     3
 10
244.142637300491
 20
90.5329791501546
 30
0.0
 11
244.142637300491
 21
96.7329603284598
 31
0.0
  0
LINE
  5
   382
  8
0
  6
CONTINUOUS
 62
     3
 10
255.942637476802
 20
67.9125070181422
 30
0.0
 11
255.942637476802
 21
71.7328317821007
 31
0.0
  0
LINE
  5
   383
  8
0
  6
CONTINUOUS
 62
     3
 10
255.942615825247
 20
47.5531287237215
 30
0.0
 11
255.942634135794
 21
44.9328409801538
 31
0.0
  0
LINE
  5
   384
  8
0
  6
CONTINUOUS
 62
     3
 10
253.022636212588
 20
90.2329663351179
 30
0.0
 11
254.14263744998
 21
90.2329663351179
 31
0.0
  0
LINE
  5
   385
  8
0
  6
CONTINUOUS
 62
     3
 10
253.022636212588
 20
29.8529666560889
 30
0.0
 11
253.022636212588
 21
38.6329665798379
 31
0.0
  0
LINE
  5
   386
  8
0
  6
CONTINUOUS
 62
     3
 10
244.142636077443
 20
50.2329596355557
 30
0.0
 11
253.022634989062
 21
50.2329596355557
 31
0.0
  0
LINE
  5
   387
  8
0
  6
CONTINUOUS
 62
     3
 10
244.142636353607
 20
45.6329595670104
 30
0.0
 11
253.022635265226
 21
45.6329595670104
 31
0.0
  0
LINE
  5
   388
  8
0
  6
CONTINUOUS
 62
     1
 10
253.022636212588
 20
87.0329601839185
 30
0.0
 11
255.142637083411
 21
87.0329601839185
 31
0.0
  0
LINE
  5
   389
  8
0
  6
CONTINUOUS
 62
     1
 10
253.942637447
 20
38.6329659476877
 30
0.0
 11
254.14263744998
 21
38.6329659476877
 31
0.0
  0
LINE
  5
   38A
  8
0
  6
CONTINUOUS
 62
     1
 10
253.022636212588
 20
38.6329665798378
 30
0.0
 11
254.742637458444
 21
38.6329661111746
 31
0.0
  0
LINE
  5
   38B
  8
0
  6
CONTINUOUS
 62
     2
 10
259.543161658652
 20
41.0329598799348
 30
0.0
 11
259.543161658652
 21
41.8329587474465
 31
0.0
  0
LINE
  5
   38C
  8
0
  6
CONTINUOUS
 62
     2
 10
255.94316162885
 20
40.8329594969468
 30
0.0
 11
255.94316162885
 21
82.8329601227956
 31
0.0
  0
LINE
  5
   38D
  8
0
  6
CONTINUOUS
 62
     2
 10
255.142637083411
 20
82.8329601213336
 30
0.0
 11
257.343104883021
 21
82.8329601213336
 31
0.0
  0
LINE
  5
   38E
  8
0
  6
CONTINUOUS
 62
     2
 10
255.142637083411
 20
40.8329594964288
 30
0.0
 11
257.343104883021
 21
40.8329594964288
 31
0.0
  0
LINE
  5
   38F
  8
0
  6
CONTINUOUS
 62
     2
 10
259.54313890824
 20
48.2329531763255
 30
0.0
 11
259.543161414954
 21
41.0329591725959
 31
0.0
  0
LINE
  5
   390
  8
0
  6
CONTINUOUS
 62
     2
 10
259.543083791451
 20
53.4329534370237
 30
0.0
 11
259.543137578684
 21
48.6329533655729
 31
0.0
  0
LINE
  5
   391
  8
0
  6
CONTINUOUS
 62
     2
 10
259.543160514243
 20
53.8329595033556
 30
0.0
 11
259.543160514243
 21
61.632953516069
 31
0.0
  0
LINE
  5
   392
  8
0
  6
CONTINUOUS
 62
     2
 10
259.543080914209
 20
53.8329492800523
 30
0.0
 11
259.543102276513
 21
61.6329493967781
 31
0.0
  0
LINE
  5
   393
  8
0
  6
CONTINUOUS
 62
     2
 10
259.543018290562
 20
66.8329524814155
 30
0.0
 11
259.543101450917
 21
62.0329524099382
 31
0.0
  0
LINE
  5
   394
  8
0
  6
CONTINUOUS
 62
     7
 10
241.742621432792
 20
68.3329494848318
 30
0.0
 11
242.742634227972
 21
68.3329494848318
 31
0.0
  0
LINE
  5
   395
  8
0
  6
CONTINUOUS
 62
     7
 10
255.142637083411
 20
82.8329601213336
 30
0.0
 11
255.142637083411
 21
87.0329601839185
 31
0.0
  0
LINE
  5
   396
  8
0
  6
CONTINUOUS
 62
     7
 10
255.142637083411
 20
38.6329660021834
 30
0.0
 11
255.142637083411
 21
40.8329594964288
 31
0.0
  0
LINE
  5
   397
  8
0
  6
CONTINUOUS
 62
     2
 10
253.022636212588
 20
87.0329601839185
 30
0.0
 11
253.022636212588
 21
87.1329650682212
 31
0.0
  0
LINE
  5
   398
  8
0
  6
CONTINUOUS
 62
     3
 10
253.022636212588
 20
38.6329665798379
 30
0.0
 11
253.022636212588
 21
87.0329601839185
 31
0.0
  0
ARC
  5
   399
  8
0
  6
CONTINUOUS
 62
     7
 10
267.813053576947
 20
53.0154070167886
 30
0.0
 40
0.399999924262788
 50
348.623601768641
 51
436.688817106542
  0
ARC
  5
   39A
  8
0
  6
CONTINUOUS
 62
     7
 10
267.334356986975
 20
50.6362795572977
 30
0.0
 40
0.400000304059165
 50
260.594020595617
 51
348.623601768641
  0
LINE
  5
   39B
  8
0
  6
DASHDOT
 62
     7
 10
253.686611852801
 20
54.60547167529
 30
0.0
 11
273.733288734712
 21
50.5719453991536
 31
0.0
  0
LINE
  5
   39C
  8
0
  6
CONTINUOUS
 62
     7
 10
259.543085159672
 20
55.3830918337508
 30
0.0
 11
267.90514936361
 21
53.4046602439132
 31
0.0
  0
LINE
  5
   39D
  8
0
  6
CONTINUOUS
 62
     7
 10
267.72649818776
 20
50.5573781091106
 30
0.0
 11
268.205194646297
 21
52.936505595047
 31
0.0
  0
LINE
  5
   39E
  8
0
  6
CONTINUOUS
 62
     7
 10
259.543105210609
 20
51.5214968971678
 30
0.0
 11
267.26898539037
 21
50.241657340777
 31
0.0
  0
LINE
  5
   39F
  8
0
  6
DASHDOT
 62
     7
 10
213.342636841536
 20
22.5669584785743
 30
0.0
 11
213.342636841536
 21
134.744282952822
 31
0.0
  0
LINE
  5
   3A0
  8
0
  6
CONTINUOUS
 62
     7
 10
224.142637002468
 20
121.332960695028
 30
0.0
 11
229.536042063153
 21
121.332960695028
 31
0.0
  0
LINE
  5
   3A1
  8
0
  6
CONTINUOUS
 62
     7
 10
224.542637008429
 20
121.0363211867
 30
0.0
 11
224.542637008429
 21
121.332960695028
 31
0.0
  0
LINE
  5
   3A2
  8
0
  6
CONTINUOUS
 62
     7
 10
222.542636978626
 20
128.932960808277
 30
0.0
 11
224.542637008429
 21
128.932960808277
 31
0.0
  0
LINE
  5
   3A3
  8
0
  6
CONTINUOUS
 62
     7
 10
222.542636978626
 20
121.0363211867
 30
0.0
 11
222.542636978626
 21
123.652960729599
 31
0.0
  0
LINE
  5
   3A4
  8
0
  6
DASHDOT
 62
     7
 10
220.411825656487
 20
125.332960754633
 30
0.0
 11
227.075684607225
 21
125.332960754633
 31
0.0
  0
LINE
  5
   3A5
  8
0
  6
CONTINUOUS
 62
     7
 10
215.342636871338
 20
38.1329644224731
 30
0.0
 11
222.542636978626
 21
38.1329644224731
 31
0.0
  0
LINE
  5
   3A6
  8
0
  6
CONTINUOUS
 62
     7
 10
220.942636954784
 20
38.1329644224731
 30
0.0
 11
220.942636954784
 21
39.326242184811
 31
0.0
  0
LINE
  5
   3A7
  8
0
  6
CONTINUOUS
 62
     7
 10
222.542636978626
 20
38.1329644224731
 30
0.0
 11
222.542636978626
 21
39.326242184811
 31
0.0
  0
LINE
  5
   3A8
  8
0
  6
CONTINUOUS
 62
     7
 10
224.942637014389
 20
38.1329644224731
 30
0.0
 11
224.942637014389
 21
39.326242184811
 31
0.0
  0
LINE
  5
   3A9
  8
0
  6
CONTINUOUS
 62
     7
 10
224.942637014389
 20
38.1329644224731
 30
0.0
 11
234.22586562004
 21
38.1329644224731
 31
0.0
  0
LINE
  5
   3AA
  8
0
  6
CONTINUOUS
 62
     3
 10
214.787507858198
 20
39.326242184811
 30
0.0
 11
234.081517503628
 21
39.326242184811
 31
0.0
  0
LINE
  5
   3AB
  8
0
  6
CONTINUOUS
 62
     7
 10
222.542636978626
 20
30.5329643092243
 30
0.0
 11
223.742636615038
 21
30.5329643092243
 31
0.0
  0
LINE
  5
   3AC
  8
0
  6
CONTINUOUS
 62
     7
 10
223.742636615038
 20
30.5329643092242
 30
0.0
 11
223.742636615038
 21
32.5329593718052
 31
0.0
  0
LINE
  5
   3AD
  8
0
  6
CONTINUOUS
 62
     7
 10
222.542636978624
 20
30.5329643092243
 30
0.0
 11
222.542636978624
 21
39.326242184811
 31
0.0
  0
LINE
  5
   3AE
  8
0
  6
CONTINUOUS
 62
     7
 10
223.742636615038
 20
30.5329643092242
 30
0.0
 11
224.542636626959
 21
30.5329643092242
 31
0.0
  0
LINE
  5
   3AF
  8
0
  6
CONTINUOUS
 62
     7
 10
223.742636615038
 20
38.9329644343939
 30
0.0
 11
224.542636626959
 21
38.9329644343939
 31
0.0
  0
LINE
  5
   3B0
  8
0
  6
DASHDOT
 62
     7
 10
220.411825656487
 20
34.132959395647
 30
0.0
 11
228.979494733609
 21
34.132959395647
 31
0.0
  0
INSERT
  5
   3B1
  8
0
  6
CONTINUOUS
 62
     7
  2
*HATCH121
 10
215.342636108398
 20
57.7329597473145
 30
0.0
 41
0.400000005960464
 42
0.400000005960464
 43
0.400000005960464
  0
LINE
  5
   3B2
  8
0
  6
CONTINUOUS
 62
     7
 10
222.542636978624
 20
35.772959420085
 30
0.0
 11
224.542636626959
 21
35.772959420085
 31
0.0
  0
LINE
  5
   3B3
  8
0
  6
CONTINUOUS
 62
     7
 10
222.542636978624
 20
32.4929593712091
 30
0.0
 11
224.542636626959
 21
32.4929593712091
 31
0.0
  0
INSERT
  5
   3B4
  8
0
  6
CONTINUOUS
 62
     7
  2
*HATCH122
 10
215.342636108398
 20
57.7329597473145
 30
0.0
 41
0.400000005960464
 42
0.400000005960464
 43
0.400000005960464
  0
INSERT
  5
   3B5
  8
0
  6
CONTINUOUS
 62
     7
  2
*HATCH123
 10
215.342636108398
 20
57.7329597473145
 30
0.0
 41
0.400000005960464
 42
0.400000005960464
 43
0.400000005960464
  0
INSERT
  5
   3B6
  8
0
  6
CONTINUOUS
 62
     7
  2
*HATCH124
 10
215.342636108398
 20
57.7329597473145
 30
0.0
 41
0.400000005960464
 42
0.400000005960464
 43
0.400000005960464
  0
ARC
  5
   3B7
  8
0
  6
DASHDOT
 62
     7
 10
238.142956366327
 20
57.7329597473145
 30
0.0
 40
30.4177082930624
 50
337.492314756863
 51
360.0
  0
LINE
  5
   3B8
  8
0
  6
DASHDOT
 62
     7
 10
268.56066465939
 20
57.7329597473144
 30
0.0
 11
268.56066465939
 21
60.0330396354833
 31
0.0
  0
LINE
  5
   3B9
  8
0
  6
CONTINUOUS
 62
     7
 10
222.542636978626
 20
127.012960779667
 30
0.0
 11
224.542637008429
 21
127.012960779667
 31
0.0
  0
LINE
  5
   3BA
  8
0
  6
CONTINUOUS
 62
     7
 10
222.542636978626
 20
123.652960729599
 30
0.0
 11
224.142637002468
 21
123.652960729599
 31
0.0
  0
LINE
  5
   3BB
  8
0
  6
CONTINUOUS
 62
     1
 10
257.343104883021
 20
39.8329594805837
 30
0.0
 11
257.343104883021
 21
40.6329594925046
 31
0.0
  0
LINE
  5
   3BC
  8
0
  6
CONTINUOUS
 62
     1
 10
257.343104883021
 20
39.8329594805837
 30
0.0
 11
258.143104894942
 21
39.8329594805837
 31
0.0
  0
LINE
  5
   3BD
  8
0
  6
CONTINUOUS
 62
     1
 10
257.343104883021
 20
83.0329585984349
 30
0.0
 11
257.343104883021
 21
83.8329586103558
 31
0.0
  0
LINE
  5
   3BE
  8
0
  6
CONTINUOUS
 62
     1
 10
257.343104883021
 20
83.8329586103558
 30
0.0
 11
258.143104894942
 21
83.8329586103558
 31
0.0
  0
LINE
  5
   3BF
  8
0
  6
CONTINUOUS
 62
     1
 10
257.343104883021
 20
40.6329594925046
 30
0.0
 11
257.343104883021
 21
83.0329601243138
 31
0.0
  0
LINE
  5
   3C0
  8
0
  6
CONTINUOUS
 62
     1
 10
255.543104927724
 20
89.2638974119862
 30
0.0
 11
255.543104927724
 21
91.2020199994603
 31
0.0
  0
LINE
  5
   3C1
  8
0
  6
CONTINUOUS
 62
     1
 10
255.543104927724
 20
32.4638996173582
 30
0.0
 11
255.543104927724
 21
34.4020191530743
 31
0.0
  0
LINE
  5
   3C2
  8
0
  6
CONTINUOUS
 62
     1
 10
258.143104894942
 20
29.6329593285918
 30
0.0
 11
258.143104894942
 21
94.0329602882266
 31
0.0
  0
LINE
  5
   3C3
  8
0
  6
CONTINUOUS
 62
     1
 10
259.543104915803
 20
29.6329593285918
 30
0.0
 11
259.543104915803
 21
94.0329602882266
 31
0.0
  0
LINE
  5
   3C4
  8
0
  6
CONTINUOUS
 62
     1
 10
255.94310490124
 20
89.0329586878419
 30
0.0
 11
258.143104894942
 21
89.0329586878419
 31
0.0
  0
LINE
  5
   3C5
  8
0
  6
CONTINUOUS
 62
     1
 10
255.943104947768
 20
91.4329587236047
 30
0.0
 11
258.143104894942
 21
91.4329587236047
 31
0.0
  0
LINE
  5
   3C6
  8
0
  6
CONTINUOUS
 62
     1
 10
255.543105232162
 20
89.2638964960571
 30
0.0
 11
255.943105251293
 21
89.0329577690173
 31
0.0
  0
LINE
  5
   3C7
  8
0
  6
CONTINUOUS
 62
     1
 10
255.94310482526
 20
89.0329586878419
 30
0.0
 11
255.94310482526
 21
89.1243039040468
 31
0.0
  0
LINE
  5
   3C8
  8
0
  6
CONTINUOUS
 62
     1
 10
255.94310490124
 20
89.0329586878419
 30
0.0
 11
255.94310490124
 21
89.3844296403448
 31
0.0
  0
LINE
  5
   3C9
  8
0
  6
CONTINUOUS
 62
     1
 10
255.943104919085
 20
89.3844296403448
 30
0.0
 11
255.943104919085
 21
89.7737423902867
 31
0.0
  0
LINE
  5
   3CA
  8
0
  6
CONTINUOUS
 62
     1
 10
255.943104929004
 20
89.7737423902867
 30
0.0
 11
255.943104929004
 21
90.2329587057233
 31
0.0
  0
LINE
  5
   3CB
  8
0
  6
CONTINUOUS
 62
     1
 10
255.943104937722
 20
90.2329587057233
 30
0.0
 11
255.943104937722
 21
90.6921811246756
 31
0.0
  0
LINE
  5
   3CC
  8
0
  6
CONTINUOUS
 62
     1
 10
255.943104947768
 20
90.6921811246756
 30
0.0
 11
255.943104947768
 21
91.4329587236047
 31
0.0
  0
LINE
  5
   3CD
  8
0
  6
CONTINUOUS
 62
     1
 10
255.943104966036
 20
91.0814877711017
 30
0.0
 11
255.943104966036
 21
91.3416135073997
 31
0.0
  0
LINE
  5
   3CE
  8
0
  6
CONTINUOUS
 62
     1
 10
255.543104584852
 20
91.202019046765
 30
0.0
 11
255.943104603983
 21
91.4329577738049
 31
0.0
  0
LINE
  5
   3CF
  8
0
  6
CONTINUOUS
 62
     1
 10
255.943105044379
 20
91.3416135073997
 30
0.0
 11
255.943105044379
 21
91.4329587236046
 31
0.0
  0
LINE
  5
   3D0
  8
0
  6
CONTINUOUS
 62
     1
 10
255.943105735047
 20
34.6329594030976
 30
0.0
 11
258.143104894942
 21
34.6329594030976
 31
0.0
  0
LINE
  5
   3D1
  8
0
  6
CONTINUOUS
 62
     1
 10
255.943104261624
 20
32.2329593673348
 30
0.0
 11
258.143104894942
 21
32.2329593673348
 31
0.0
  0
LINE
  5
   3D2
  8
0
  6
CONTINUOUS
 62
     1
 10
255.943104971742
 20
34.5416141868927
 30
0.0
 11
255.943104971742
 21
34.6329594030976
 31
0.0
  0
LINE
  5
   3D3
  8
0
  6
CONTINUOUS
 62
     1
 10
255.543104723662
 20
34.4020185929736
 30
0.0
 11
255.943104742794
 21
34.6329588302201
 31
0.0
  0
LINE
  5
   3D4
  8
0
  6
CONTINUOUS
 62
     1
 10
255.943104953931
 20
34.2814869247157
 30
0.0
 11
255.943104953931
 21
34.5416141868927
 31
0.0
  0
LINE
  5
   3D5
  8
0
  6
CONTINUOUS
 62
     1
 10
255.943104949903
 20
33.8921802782896
 30
0.0
 11
255.943104949903
 21
34.2814869247157
 31
0.0
  0
LINE
  5
   3D6
  8
0
  6
CONTINUOUS
 62
     1
 10
255.943104947653
 20
33.4329593852162
 30
0.0
 11
255.943104947653
 21
33.8921802782896
 31
0.0
  0
LINE
  5
   3D7
  8
0
  6
CONTINUOUS
 62
     1
 10
255.943104945726
 20
32.9737400180218
 30
0.0
 11
255.943104945726
 21
33.4329593852162
 31
0.0
  0
LINE
  5
   3D8
  8
0
  6
CONTINUOUS
 62
     1
 10
255.943104943665
 20
32.5844318457167
 30
0.0
 11
255.943104943665
 21
32.9737400180218
 31
0.0
  0
LINE
  5
   3D9
  8
0
  6
CONTINUOUS
 62
     1
 10
255.943104939977
 20
32.3243045835397
 30
0.0
 11
255.943104939977
 21
32.5844318457167
 31
0.0
  0
LINE
  5
   3DA
  8
0
  6
CONTINUOUS
 62
     1
 10
255.943104924548
 20
32.2329593673349
 30
0.0
 11
255.943104924548
 21
32.3243045835398
 31
0.0
  0
LINE
  5
   3DB
  8
0
  6
CONTINUOUS
 62
     1
 10
255.543105092928
 20
32.4638991135817
 30
0.0
 11
255.94310511206
 21
32.2329588763352
 31
0.0
  0
LINE
  5
   3DC
  8
0
  6
CONTINUOUS
 62
     7
 10
258.143104894942
 20
94.0329602882266
 30
0.0
 11
258.143104894942
 21
139.230707740182
 31
0.0
  0
LINE
  5
   3DD
  8
0
  6
CONTINUOUS
 62
     7
 10
257.343104883021
 20
83.0329601243138
 30
0.0
 11
257.343104883021
 21
89.0329586878419
 31
0.0
  0
LINE
  5
   3DE
  8
0
  6
CONTINUOUS
 62
     7
 10
258.143104894942
 20
11.2438105613945
 30
0.0
 11
258.143104894942
 21
29.6329593285918
 31
0.0
  0
LINE
  5
   3DF
  8
0
  6
CONTINUOUS
 62
     7
 10
257.343104883021
 20
10.6681096182365
 30
0.0
 11
257.343104883021
 21
32.2329593673348
 31
0.0
  0
LINE
  5
   3E0
  8
0
  6
CONTINUOUS
 62
     3
 10
255.835040098312
 20
9.58286673578226
 30
0.0
 11
259.724608370485
 21
12.381901847533
 31
0.0
  0
LINE
  5
   3E1
  8
0
  6
CONTINUOUS
 62
     7
 10
257.343104883021
 20
91.6329587265849
 30
0.0
 11
258.143104894942
 21
91.6329587265849
 31
0.0
  0
LINE
  5
   3E2
  8
0
  6
CONTINUOUS
 62
     7
 10
257.343104883021
 20
88.8329586848616
 30
0.0
 11
258.143104894942
 21
88.8329586848616
 31
0.0
  0
LINE
  5
   3E3
  8
0
  6
CONTINUOUS
 62
     7
 10
257.343104883021
 20
84.2329586163163
 30
0.0
 11
258.143104894942
 21
84.2329586163163
 31
0.0
  0
LINE
  5
   3E4
  8
0
  6
CONTINUOUS
 62
     7
 10
257.343104883021
 20
39.4329594746232
 30
0.0
 11
258.143104894942
 21
39.4329594746232
 31
0.0
  0
LINE
  5
   3E5
  8
0
  6
CONTINUOUS
 62
     7
 10
257.343104883021
 20
34.8329594060779
 30
0.0
 11
258.143104894942
 21
34.8329594060779
 31
0.0
  0
LINE
  5
   3E6
  8
0
  6
CONTINUOUS
 62
     7
 10
257.343104883021
 20
32.0329593643546
 30
0.0
 11
258.143104894942
 21
32.0329593643546
 31
0.0
  0
LINE
  5
   3E7
  8
0
  6
CONTINUOUS
 62
     7
 10
257.343104883021
 20
34.6329594030976
 30
0.0
 11
257.343104883021
 21
39.8329594805837
 31
0.0
  0
LINE
  5
   3E8
  8
0
  6
CONTINUOUS
 62
     7
 10
257.343104883021
 20
91.4329587236047
 30
0.0
 11
257.343104883021
 21
139.307866304508
 31
0.0
  0
INSERT
  5
   3E9
  8
0
  6
CONTINUOUS
 62
     7
  2
*HATCH125
 10
215.342636108398
 20
57.7329597473145
 30
0.0
 41
0.400000005960464
 42
0.400000005960464
 43
0.400000005960464
  0
INSERT
  5
   3EA
  8
0
  6
CONTINUOUS
 62
     7
  2
*HATCH126
 10
215.342636108398
 20
57.7329597473145
 30
0.0
 41
0.400000005960464
 42
0.400000005960464
 43
0.400000005960464
  0
INSERT
  5
   3EB
  8
0
  6
CONTINUOUS
 62
     7
  2
*HATCH127
 10
215.342636108398
 20
57.7329597473145
 30
0.0
 41
0.400000005960464
 42
0.400000005960464
 43
0.400000005960464
  0
LINE
  5
   3EC
  8
0
  6
DASHDOT
 62
     7
 10
206.27115679509
 20
61.8329598084092
 30
0.0
 11
271.025297065586
 21
61.8329598084092
 31
0.0
  0
LINE
  5
   3ED
  8
0
  6
CONTINUOUS
 62
     3
 10
234.081517503628
 20
39.326242184811
 30
0.0
 11
235.654193338158
 21
26.3254552860288
 31
0.0
  0
INSERT
  5
   3EE
  8
0
  6
CONTINUOUS
 62
     7
  2
*HATCH128
 10
215.342636108398
 20
57.7329597473145
 30
0.0
 41
0.400000005960464
 42
0.400000005960464
 43
0.400000005960464
  0
LINE
  5
   3EF
  8
0
  6
CONTINUOUS
 62
     7
 10
215.342636871338
 20
28.7329642824022
 30
0.0
 11
215.942636880277
 21
28.7329642824022
 31
0.0
  0
LINE
  5
   3F0
  8
0
  6
CONTINUOUS
 62
     3
 10
241.056184804292
 20
121.943126349019
 30
0.0
 11
241.596664862415
 21
131.953756990771
 31
0.0
  0
LINE
  5
   3F1
  8
0
  6
CONTINUOUS
 62
     3
 10
215.074268948045
 20
121.0363211867
 30
0.0
 11
229.536042063153
 21
121.0363211867
 31
0.0
  0
LINE
  5
   3F2
  8
0
  6
CONTINUOUS
 62
     3
 10
229.536042063153
 20
121.0363211867
 30
0.0
 11
229.536042063153
 21
121.943126349019
 31
0.0
  0
LINE
  5
   3F3
  8
0
  6
CONTINUOUS
 62
     7
 10
224.542636626959
 20
30.5329643092242
 30
0.0
 11
224.542636626959
 21
32.5329593718052
 31
0.0
  0
LINE
  5
   3F4
  8
0
  6
CONTINUOUS
 62
     7
 10
222.542636978626
 20
127.932960602641
 30
0.0
 11
222.542636978626
 21
128.932960808277
 31
0.0
  0
LINE
  5
   3F5
  8
0
  6
CONTINUOUS
 62
     2
 10
223.342636990547
 20
130.732960293407
 30
0.0
 11
223.342636990547
 21
131.332960302348
 31
0.0
  0
LINE
  5
   3F6
  8
0
  6
CONTINUOUS
 62
     2
 10
222.142636972666
 20
130.732960293369
 30
0.0
 11
223.342636990547
 21
130.732960293369
 31
0.0
  0
LINE
  5
   3F7
  8
0
  6
CONTINUOUS
 62
     2
 10
222.142636972666
 20
131.732960277796
 30
0.0
 11
222.942636984587
 21
131.732960277796
 31
0.0
  0
LINE
  5
   3F8
  8
0
  6
CONTINUOUS
 62
     2
 10
215.942636880279
 20
121.332959932089
 30
0.0
 11
216.542636889219
 21
121.332959932089
 31
0.0
  0
LINE
  5
   3F9
  8
0
  6
CONTINUOUS
 62
     2
 10
215.942636880279
 20
131.732960277796
 30
0.0
 11
222.142636972666
 21
131.732960277796
 31
0.0
  0
LINE
  5
   3FA
  8
0
  6
CONTINUOUS
 62
     2
 10
215.942636880279
 20
121.332960122824
 30
0.0
 11
215.942636880279
 21
131.732960277796
 31
0.0
  0
LINE
  5
   3FB
  8
0
  6
CONTINUOUS
 62
     2
 10
222.142636972666
 20
130.732960293394
 30
0.0
 11
222.142636972666
 21
131.732960308295
 31
0.0
  0
LINE
  5
   3FC
  8
0
  6
CONTINUOUS
 62
     2
 10
221.908322241391
 20
129.452960320115
 30
0.0
 11
222.142636972666
 21
129.452960320115
 31
0.0
  0
LINE
  5
   3FD
  8
0
  6
CONTINUOUS
 62
     2
 10
222.142636972666
 20
128.732960614562
 30
0.0
 11
222.142636972666
 21
130.732960262895
 31
0.0
  0
LINE
  5
   3FE
  8
0
  6
CONTINUOUS
 62
     2
 10
221.475402923417
 20
129.612960265279
 30
0.0
 11
221.748322391595
 21
129.612960265279
 31
0.0
  0
LINE
  5
   3FF
  8
0
  6
CONTINUOUS
 62
     2
 10
221.748322670415
 20
129.612960127827
 30
0.0
 11
221.908322518966
 21
129.452960184868
 31
0.0
  0
LINE
  5
   400
  8
0
  6
CONTINUOUS
 62
     2
 10
216.54263690564
 20
121.332960053532
 30
0.0
 11
222.142636939131
 21
130.732959969996
 31
0.0
  0
LINE
  5
   401
  8
0
  6
CONTINUOUS
 62
     2
 10
222.342636975646
 20
121.932960703969
 30
0.0
 11
222.342636975646
 21
128.732960805297
 31
0.0
  0
LINE
  5
   402
  8
0
  6
CONTINUOUS
 62
     2
 10
222.942637272461
 20
131.732960215214
 30
0.0
 11
223.34263726473
 21
131.332960256663
 31
0.0
  0
LINE
  5
   403
  8
0
  6
CONTINUOUS
 62
   210
 10
222.542636978626
 20
122.73296071589
 30
0.0
 11
222.542636978626
 21
127.932960793376
 31
0.0
  0
LINE
  5
   404
  8
0
  6
CONTINUOUS
 62
     2
 10
215.942636880279
 20
131.332960319519
 30
0.0
 11
222.142636972666
 21
131.332960319519
 31
0.0
  0
LINE
  5
   405
  8
0
  6
CONTINUOUS
 62
     2
 10
215.942636880279
 20
121.732959938049
 30
0.0
 11
216.780934736703
 21
121.732959938049
 31
0.0
  0
LINE
  5
   406
  8
0
  6
CONTINUOUS
 62
     2
 10
216.900084137283
 20
121.932960703969
 30
0.0
 11
222.342637166381
 21
121.932960703969
 31
0.0
  0
LINE
  5
   407
  8
0
  6
CONTINUOUS
 62
     2
 10
220.951147544511
 20
128.732960614562
 30
0.0
 11
222.342636975646
 21
128.732960614562
 31
0.0
  0
LINE
  5
   408
  8
0
  6
CONTINUOUS
 62
   210
 10
222.342636975646
 20
127.932960602641
 30
0.0
 11
222.542636978626
 21
127.932960602641
 31
0.0
  0
LINE
  5
   409
  8
0
  6
CONTINUOUS
 62
   210
 10
222.342636975646
 20
122.73296071589
 30
0.0
 11
222.542636978626
 21
122.73296071589
 31
0.0
  0
INSERT
  5
   40A
  8
0
  6
CONTINUOUS
 62
     2
  2
*HATCH129
 10
215.342636108398
 20
57.7329597473145
 30
0.0
 41
0.400000005960464
 42
0.400000005960464
 43
0.400000005960464
  0
LINE
  5
   40B
  8
0
  6
CONTINUOUS
 62
     7
 10
226.942637044191
 20
121.732960700989
 30
0.0
 11
226.942637044191
 21
128.932960808277
 31
0.0
  0
LINE
  5
   40C
  8
0
  6
CONTINUOUS
 62
     7
 10
226.542637038231
 20
128.932960808277
 30
0.0
 11
226.942637044191
 21
128.932960808277
 31
0.0
  0
LINE
  5
   40D
  8
0
  6
CONTINUOUS
 62
     7
 10
226.542637038231
 20
121.732960700989
 30
0.0
 11
226.942637044191
 21
121.732960700989
 31
0.0
  0
LINE
  5
   40E
  8
0
  6
CONTINUOUS
 62
     2
 10
223.342636990545
 20
28.132959847932
 30
0.0
 11
223.342636990545
 21
28.7329598568727
 31
0.0
  0
LINE
  5
   40F
  8
0
  6
CONTINUOUS
 62
     2
 10
222.142636972664
 20
28.7329598569109
 30
0.0
 11
223.342636990545
 21
28.7329598569109
 31
0.0
  0
LINE
  5
   410
  8
0
  6
CONTINUOUS
 62
     2
 10
222.142636972664
 20
27.7329598724842
 30
0.0
 11
222.942636984585
 21
27.7329598724842
 31
0.0
  0
LINE
  5
   411
  8
0
  6
CONTINUOUS
 62
     2
 10
215.942636880277
 20
38.1329602181912
 30
0.0
 11
216.542636889217
 21
38.1329602181912
 31
0.0
  0
LINE
  5
   412
  8
0
  6
CONTINUOUS
 62
     2
 10
215.942636880277
 20
27.7329598724842
 30
0.0
 11
222.142636972664
 21
27.7329598724842
 31
0.0
  0
LINE
  5
   413
  8
0
  6
CONTINUOUS
 62
     2
 10
215.942636880277
 20
27.7329598724842
 30
0.0
 11
215.942636880277
 21
38.1329600274563
 31
0.0
  0
LINE
  5
   414
  8
0
  6
CONTINUOUS
 62
     2
 10
222.142636972664
 20
27.7329598419847
 30
0.0
 11
222.142636972664
 21
28.7329598568859
 31
0.0
  0
LINE
  5
   415
  8
0
  6
CONTINUOUS
 62
     2
 10
221.908322241389
 20
30.0129598301649
 30
0.0
 11
222.142636972664
 21
30.0129598301649
 31
0.0
  0
LINE
  5
   416
  8
0
  6
CONTINUOUS
 62
     2
 10
222.142636972664
 20
28.7329598873854
 30
0.0
 11
222.142636972664
 21
30.732959535718
 31
0.0
  0
LINE
  5
   417
  8
0
  6
CONTINUOUS
 62
     2
 10
221.475402923415
 20
29.8529598850012
 30
0.0
 11
221.748322391593
 21
29.8529598850012
 31
0.0
  0
LINE
  5
   418
  8
0
  6
CONTINUOUS
 62
     2
 10
221.748322670413
 20
29.8529600224526
 30
0.0
 11
221.908322518964
 21
30.0129599654123
 31
0.0
  0
LINE
  5
   419
  8
0
  6
CONTINUOUS
 62
     2
 10
216.542636905638
 20
38.1329600967479
 30
0.0
 11
222.142636939129
 21
28.7329601802837
 31
0.0
  0
LINE
  5
   41A
  8
0
  6
CONTINUOUS
 62
     2
 10
222.342636975644
 20
30.7329593449831
 30
0.0
 11
222.342636975644
 21
37.532959446311
 31
0.0
  0
LINE
  5
   41B
  8
0
  6
CONTINUOUS
 62
     2
 10
222.942637272459
 20
27.7329599350657
 30
0.0
 11
223.342637264728
 21
28.1329598936173
 31
0.0
  0
LINE
  5
   41C
  8
0
  6
CONTINUOUS
 62
   210
 10
222.542636978624
 20
31.532959356904
 30
0.0
 11
222.542636978624
 21
36.7329594343901
 31
0.0
  0
LINE
  5
   41D
  8
0
  6
CONTINUOUS
 62
     2
 10
215.942636880277
 20
28.132959830761
 30
0.0
 11
222.142636972664
 21
28.132959830761
 31
0.0
  0
LINE
  5
   41E
  8
0
  6
CONTINUOUS
 62
     2
 10
215.942636880277
 20
37.7329602122307
 30
0.0
 11
216.780934736701
 21
37.7329602122307
 31
0.0
  0
LINE
  5
   41F
  8
0
  6
CONTINUOUS
 62
     2
 10
216.900084137281
 20
37.532959446311
 30
0.0
 11
222.342637166379
 21
37.532959446311
 31
0.0
  0
LINE
  5
   420
  8
0
  6
CONTINUOUS
 62
     2
 10
220.951147544509
 20
30.732959535718
 30
0.0
 11
222.342636975644
 21
30.732959535718
 31
0.0
  0
LINE
  5
   421
  8
0
  6
CONTINUOUS
 62
   210
 10
222.342636975644
 20
31.5329595476389
 30
0.0
 11
222.542636978624
 21
31.5329595476389
 31
0.0
  0
LINE
  5
   422
  8
0
  6
CONTINUOUS
 62
   210
 10
222.342636975644
 20
36.7329594343901
 30
0.0
 11
222.542636978624
 21
36.7329594343901
 31
0.0
  0
LINE
  5
   423
  8
0
  6
CONTINUOUS
 62
     7
 10
226.542637038231
 20
30.5329593420029
 30
0.0
 11
226.942637044191
 21
30.5329593420029
 31
0.0
  0
LINE
  5
   424
  8
0
  6
CONTINUOUS
 62
     7
 10
226.942637044191
 20
30.5329593420029
 30
0.0
 11
226.942637044191
 21
37.7329594492912
 31
0.0
  0
LINE
  5
   425
  8
0
  6
CONTINUOUS
 62
     7
 10
226.542637038231
 20
37.7329594492912
 30
0.0
 11
226.942637044191
 21
37.7329594492912
 31
0.0
  0
LINE
  5
   426
  8
0
  6
CONTINUOUS
 62
     7
 10
226.542637038231
 20
30.5329593420029
 30
0.0
 11
226.542637038231
 21
37.7329594492912
 31
0.0
  0
LINE
  5
   427
  8
0
  6
CONTINUOUS
 62
     7
 10
224.542636626959
 20
35.7329594194889
 30
0.0
 11
224.542636626959
 21
38.9329644343939
 31
0.0
  0
LINE
  5
   428
  8
0
  6
CONTINUOUS
 62
     7
 10
223.742636615038
 20
35.7329594194889
 30
0.0
 11
223.742636615038
 21
39.326242184811
 31
0.0
  0
LINE
  5
   429
  8
0
  6
CONTINUOUS
 62
     1
 10
227.102637046576
 20
31.2569593527913
 30
0.0
 11
227.102637046576
 21
37.0089594385028
 31
0.0
  0
ARC
  5
   42A
  8
0
  6
CONTINUOUS
 62
     1
 10
228.044102812249
 20
31.9759593635052
 30
0.0
 40
1.09853426472474
 50
319.1176078909
 51
400.8823921091
  0
ARC
  5
   42B
  8
0
  6
CONTINUOUS
 62
     1
 10
228.044102812249
 20
36.2899594277889
 30
0.0
 40
1.09853426472474
 50
319.1176078909
 51
400.8823921091
  0
LINE
  5
   42C
  8
0
  6
CONTINUOUS
 62
     1
 10
227.102637046576
 20
32.6949593742192
 30
0.0
 11
228.895915278683
 21
32.6949593742192
 31
0.0
  0
ARC
  5
   42D
  8
0
  6
CONTINUOUS
 62
     1
 10
224.82863701269
 20
34.132959395647
 30
0.0
 40
4.31400006428361
 50
340.528779365509
 51
379.471220634491
  0
LINE
  5
   42E
  8
0
  6
CONTINUOUS
 62
     1
 10
227.102637046576
 20
35.5709594170749
 30
0.0
 11
228.895915278683
 21
35.5709594170749
 31
0.0
  0
LINE
  5
   42F
  8
0
  6
CONTINUOUS
 62
     1
 10
227.102637046576
 20
31.2569593527913
 30
0.0
 11
228.874654746428
 21
31.2569593527913
 31
0.0
  0
LINE
  5
   430
  8
0
  6
CONTINUOUS
 62
     1
 10
227.102637046576
 20
37.0089594385028
 30
0.0
 11
228.874654746428
 21
37.0089594385028
 31
0.0
  0
LINE
  5
   431
  8
0
  6
CONTINUOUS
 62
     1
 10
226.942637044191
 20
31.6929593592882
 30
0.0
 11
227.102637046576
 21
31.6929593592882
 31
0.0
  0
LINE
  5
   432
  8
0
  6
CONTINUOUS
 62
     1
 10
226.942637044191
 20
36.5729594320059
 30
0.0
 11
227.102637046576
 21
36.5729594320059
 31
0.0
  0
LINE
  5
   433
  8
0
  6
CONTINUOUS
 62
     7
 10
222.542636978624
 20
32.8396743763756
 30
0.0
 11
225.94263702929
 21
32.8396743763756
 31
0.0
  0
LINE
  5
   434
  8
0
  6
CONTINUOUS
 62
     7
 10
222.542636978624
 20
35.4262444149185
 30
0.0
 11
225.94263702929
 21
35.4262444149185
 31
0.0
  0
LINE
  5
   435
  8
0
  6
CONTINUOUS
 62
     1
 10
222.542636978624
 20
35.7329594194889
 30
0.0
 11
226.542637038231
 21
35.7329594194889
 31
0.0
  0
LINE
  5
   436
  8
0
  6
CONTINUOUS
 62
     1
 10
222.542636978624
 20
32.5329593718052
 30
0.0
 11
226.542637038231
 21
32.5329593718052
 31
0.0
  0
LINE
  5
   437
  8
0
  6
CONTINUOUS
 62
     1
 10
225.94263702929
 20
32.5329593718052
 30
0.0
 11
225.94263702929
 21
35.7329594194889
 31
0.0
  0
LINE
  5
   438
  8
0
  6
CONTINUOUS
 62
     1
 10
226.942637044191
 20
31.6929593592882
 30
0.0
 11
226.942637044191
 21
36.5729594320059
 31
0.0
  0
LINE
  5
   439
  8
0
  6
CONTINUOUS
 62
     1
 10
229.142637076974
 20
31.9759593635052
 30
0.0
 11
229.142637076974
 21
36.2899594277889
 31
0.0
  0
LINE
  5
   43A
  8
0
  6
DASHDOT
 62
     7
 10
221.342636960745
 20
34.132959395647
 30
0.0
 11
230.742637100816
 21
34.132959395647
 31
0.0
  0
LINE
  5
   43B
  8
0
  6
CONTINUOUS
 62
     1
 10
227.102637046576
 20
122.456960711777
 30
0.0
 11
227.102637046576
 21
128.208960797489
 31
0.0
  0
ARC
  5
   43C
  8
0
  6
CONTINUOUS
 62
     1
 10
228.044102812249
 20
123.175960722491
 30
0.0
 40
1.09853426472474
 50
319.1176078909
 51
400.8823921091
  0
ARC
  5
   43D
  8
0
  6
CONTINUOUS
 62
     1
 10
228.044102812249
 20
127.489960786775
 30
0.0
 40
1.09853426472474
 50
319.1176078909
 51
400.8823921091
  0
LINE
  5
   43E
  8
0
  6
CONTINUOUS
 62
     1
 10
227.102637046576
 20
123.894960733205
 30
0.0
 11
228.895915278683
 21
123.894960733205
 31
0.0
  0
ARC
  5
   43F
  8
0
  6
CONTINUOUS
 62
     1
 10
224.82863701269
 20
125.332960754633
 30
0.0
 40
4.31400006428361
 50
340.528779365509
 51
379.471220634491
  0
LINE
  5
   440
  8
0
  6
CONTINUOUS
 62
     1
 10
227.102637046576
 20
126.770960776061
 30
0.0
 11
228.895915278683
 21
126.770960776061
 31
0.0
  0
LINE
  5
   441
  8
0
  6
CONTINUOUS
 62
     1
 10
227.102637046576
 20
122.456960711777
 30
0.0
 11
228.874654746428
 21
122.456960711777
 31
0.0
  0
LINE
  5
   442
  8
0
  6
CONTINUOUS
 62
     1
 10
227.102637046576
 20
128.208960797489
 30
0.0
 11
228.874654746428
 21
128.208960797489
 31
0.0
  0
LINE
  5
   443
  8
0
  6
CONTINUOUS
 62
     1
 10
226.942637044191
 20
122.892960718274
 30
0.0
 11
227.102637046576
 21
122.892960718274
 31
0.0
  0
LINE
  5
   444
  8
0
  6
CONTINUOUS
 62
     1
 10
226.942637044191
 20
127.772960790992
 30
0.0
 11
227.102637046576
 21
127.772960790992
 31
0.0
  0
LINE
  5
   445
  8
0
  6
CONTINUOUS
 62
     7
 10
222.142636972666
 20
124.039675735361
 30
0.0
 11
225.54263702333
 21
124.039675735361
 31
0.0
  0
LINE
  5
   446
  8
0
  6
CONTINUOUS
 62
     7
 10
222.142636972666
 20
126.626245773904
 30
0.0
 11
225.54263702333
 21
126.626245773904
 31
0.0
  0
LINE
  5
   447
  8
0
  6
CONTINUOUS
 62
     1
 10
222.542636978626
 20
126.932960778475
 30
0.0
 11
226.542637038231
 21
126.932960778475
 31
0.0
  0
LINE
  5
   448
  8
0
  6
CONTINUOUS
 62
     1
 10
222.542636978626
 20
123.732960730791
 30
0.0
 11
226.542637038231
 21
123.732960730791
 31
0.0
  0
LINE
  5
   449
  8
0
  6
CONTINUOUS
 62
     1
 10
225.54263702333
 20
123.732960730791
 30
0.0
 11
225.54263702333
 21
126.932960778475
 31
0.0
  0
LINE
  5
   44A
  8
0
  6
CONTINUOUS
 62
     1
 10
226.942637044191
 20
122.892960718274
 30
0.0
 11
226.942637044191
 21
127.772960790992
 31
0.0
  0
LINE
  5
   44B
  8
0
  6
CONTINUOUS
 62
     1
 10
229.142637076974
 20
123.175960722491
 30
0.0
 11
229.142637076974
 21
127.489960786775
 31
0.0
  0
LINE
  5
   44C
  8
0
  6
DASHDOT
 62
     7
 10
221.342636960745
 20
125.332960754633
 30
0.0
 11
230.742637100816
 21
125.332960754633
 31
0.0
  0
LINE
  5
   44D
  8
0
  6
DASHDOT
 62
     7
 10
207.048731356575
 20
124.532960742712
 30
0.0
 11
216.432853809109
 21
124.532960742712
 31
0.0
  0
LINE
  5
   44E
  8
0
  6
CONTINUOUS
 62
     7
 10
211.742636817694
 20
122.93296071887
 30
0.0
 11
211.742636817694
 21
126.132960766554
 31
0.0
  0
LINE
  5
   44F
  8
0
  6
CONTINUOUS
 62
     7
 10
211.742636817694
 20
122.93296071887
 30
0.0
 11
213.342636841536
 21
122.93296071887
 31
0.0
  0
LINE
  5
   450
  8
0
  6
CONTINUOUS
 62
     7
 10
211.742636817694
 20
126.132960766554
 30
0.0
 11
213.342636841536
 21
126.132960766554
 31
0.0
  0
LINE
  5
   451
  8
0
  6
CONTINUOUS
 62
     7
 10
210.142636793852
 20
123.532960727811
 30
0.0
 11
210.142636793852
 21
125.532960757613
 31
0.0
  0
LINE
  5
   452
  8
0
  6
CONTINUOUS
 62
     7
 10
210.142636793852
 20
125.532960757613
 30
0.0
 11
213.342636841536
 21
125.532960757613
 31
0.0
  0
LINE
  5
   453
  8
0
  6
CONTINUOUS
 62
     7
 10
210.142636793852
 20
123.532960727811
 30
0.0
 11
213.342636841536
 21
123.532960727811
 31
0.0
  0
LINE
  5
   454
  8
0
  6
CONTINUOUS
 62
     7
 10
211.742636817694
 20
36.5329594314098
 30
0.0
 11
213.342636841536
 21
36.5329594314098
 31
0.0
  0
LINE
  5
   455
  8
0
  6
CONTINUOUS
 62
     7
 10
210.142636793852
 20
35.9329594224691
 30
0.0
 11
213.342636841536
 21
35.9329594224691
 31
0.0
  0
LINE
  5
   456
  8
0
  6
DASHDOT
 62
     7
 10
207.048731356575
 20
34.932959407568
 30
0.0
 11
216.432853809109
 21
34.932959407568
 31
0.0
  0
LINE
  5
   457
  8
0
  6
CONTINUOUS
 62
     7
 10
210.142636793852
 20
33.9329593926668
 30
0.0
 11
213.342636841536
 21
33.9329593926668
 31
0.0
  0
LINE
  5
   458
  8
0
  6
CONTINUOUS
 62
     7
 10
211.742636817694
 20
33.3329593837261
 30
0.0
 11
213.342636841536
 21
33.3329593837261
 31
0.0
  0
LINE
  5
   459
  8
0
  6
CONTINUOUS
 62
     7
 10
211.742636817694
 20
33.3329593837261
 30
0.0
 11
211.742636817694
 21
36.5329594314098
 31
0.0
  0
LINE
  5
   45A
  8
0
  6
CONTINUOUS
 62
     7
 10
210.142636793852
 20
33.9329593926668
 30
0.0
 11
210.142636793852
 21
35.9329594224691
 31
0.0
  0
LINE
  5
   45B
  8
0
  6
CONTINUOUS
 62
     1
 10
258.143104894942
 20
94.0329602882266
 30
0.0
 11
259.543104915803
 21
94.0329602882266
 31
0.0
  0
LINE
  5
   45C
  8
0
  6
CONTINUOUS
 62
     1
 10
258.143104894942
 20
29.6329593285918
 30
0.0
 11
259.543104915803
 21
29.6329593285918
 31
0.0
  0
LINE
  5
   45D
  8
0
  6
CONTINUOUS
 62
     3
 10
229.536042063153
 20
121.943126349019
 30
0.0
 11
241.056184804292
 21
121.943126349019
 31
0.0
  0
INSERT
  5
   45E
  8
0
  6
CONTINUOUS
 62
     7
  2
*HATCH130
 10
215.342636108398
 20
57.7329597473145
 30
0.0
 41
0.400000005960464
 42
0.400000005960464
 43
0.400000005960464
  0
INSERT
  5
   45F
  8
0
  6
CONTINUOUS
 62
     7
  2
*HATCH131
 10
215.342636108398
 20
57.7329597473145
 30
0.0
 41
0.400000005960464
 42
0.400000005960464
 43
0.400000005960464
  0
LINE
  5
   460
  8
0
  6
CONTINUOUS
 62
     3
 10
255.02958090861
 20
139.531001536684
 30
0.0
 11
260.67427332971
 21
138.986581090701
 31
0.0
  0
INSERT
  5
   461
  8
0
  6
CONTINUOUS
 62
     7
  2
*HATCH132
 10
215.342636108398
 20
57.7329597473145
 30
0.0
 41
0.400000005960464
 42
0.400000005960464
 43
0.400000005960464
  0
LINE
  5
   462
  8
0
  6
CONTINUOUS
 62
   130
 10
241.463805172798
 20
129.492964478731
 30
0.0
 11
244.142637300491
 21
129.492964478731
 31
0.0
  0
LINE
  5
   463
  8
0
  6
CONTINUOUS
 62
   130
 10
244.142637300491
 20
124.012965617776
 30
0.0
 11
244.142637300491
 21
129.732965787419
 31
0.0
  0
LINE
  5
   464
  8
0
  6
CONTINUOUS
 62
   130
 10
244.142637300491
 20
95.73296528078
 30
0.0
 11
244.142637300491
 21
97.213068978192
 31
0.0
  0
LINE
  5
   465
  8
0
  6
CONTINUOUS
 62
   130
 10
215.342636871338
 20
95.73296528078
 30
0.0
 11
215.342636871338
 21
131.732965817222
 31
0.0
  0
LINE
  5
   466
  8
0
  6
CONTINUOUS
 62
   130
 10
215.342636871338
 20
117.012965513468
 30
0.0
 11
216.94263689518
 21
117.012965513468
 31
0.0
  0
LINE
  5
   467
  8
0
  6
CONTINUOUS
 62
   130
 10
216.94263689518
 20
117.012965513468
 30
0.0
 11
216.94263689518
 21
121.0363211867
 31
0.0
  0
LINE
  5
   468
  8
0
  6
CONTINUOUS
 62
   130
 10
242.74263727963
 20
121.212965576053
 30
0.0
 11
242.782636669874
 21
121.212965576053
 31
0.0
  0
LINE
  5
   469
  8
0
  6
CONTINUOUS
 62
   130
 10
242.74263727963
 20
124.012965617776
 30
0.0
 11
244.142637300491
 21
124.012965617776
 31
0.0
  0
LINE
  5
   46A
  8
0
  6
CONTINUOUS
 62
   130
 10
242.74263727963
 20
97.2130018395192
 30
0.0
 11
244.142637300491
 21
97.2130018395192
 31
0.0
  0
LINE
  5
   46B
  8
0
  6
CONTINUOUS
 62
   130
 10
242.74263727963
 20
100.013001881242
 30
0.0
 11
242.782636669874
 21
100.013001881242
 31
0.0
  0
LINE
  5
   46C
  8
0
  6
CONTINUOUS
 62
   130
 10
242.74263727963
 20
97.2130018395192
 30
0.0
 11
242.74263727963
 21
124.012965617776
 31
0.0
  0
LINE
  5
   46D
  8
0
  6
CONTINUOUS
 62
   130
 10
214.542636859438
 20
122.75836745455
 30
0.0
 11
214.542636859438
 21
126.308965651989
 31
0.0
  0
LINE
  5
   46E
  8
0
  6
CONTINUOUS
 62
   210
 10
244.142637300491
 20
129.492964478731
 30
0.0
 11
253.022636212111
 21
129.492964478731
 31
0.0
  0
LINE
  5
   46F
  8
0
  6
CONTINUOUS
 62
   210
 10
244.142637300491
 20
97.2130018395192
 30
0.0
 11
244.142637300491
 21
97.312965219915
 31
0.0
  0
LINE
  5
   470
  8
0
  6
CONTINUOUS
 62
   210
 10
244.142637300491
 20
123.912965616286
 30
0.0
 11
244.142637300491
 21
124.012965617776
 31
0.0
  0
LINE
  5
   471
  8
0
  6
CONTINUOUS
 62
   210
 10
253.022636212111
 20
100.112965261638
 30
0.0
 11
253.142637434602
 21
100.112965261638
 31
0.0
  0
LINE
  5
   472
  8
0
  6
CONTINUOUS
 62
   210
 10
253.022636212111
 20
97.1129652169348
 30
0.0
 11
253.142637434602
 21
97.1129652169348
 31
0.0
  0
LINE
  5
   473
  8
0
  6
CONTINUOUS
 62
   210
 10
253.022636212111
 20
96.6129652094842
 30
0.0
 11
253.142637434602
 21
96.6129652094842
 31
0.0
  0
LINE
  5
   474
  8
0
  6
CONTINUOUS
 62
   210
 10
253.022636212111
 20
96.7329652956811
 30
0.0
 11
253.022636212111
 21
129.492964478731
 31
0.0
  0
LINE
  5
   475
  8
0
  6
CONTINUOUS
 62
   210
 10
242.982636672854
 20
97.312965219915
 30
0.0
 11
244.142637300491
 21
97.312965219915
 31
0.0
  0
LINE
  5
   476
  8
0
  6
CONTINUOUS
 62
   210
 10
242.841215872018
 20
97.3715485002695
 30
0.0
 11
242.982637385636
 21
97.3129669561242
 31
0.0
  0
LINE
  5
   477
  8
0
  6
CONTINUOUS
 62
   210
 10
242.782636261633
 20
97.5129592270897
 30
0.0
 11
242.841214753803
 21
97.3715407715426
 31
0.0
  0
LINE
  5
   478
  8
0
  6
CONTINUOUS
 62
   210
 10
242.782636669874
 20
97.5129652228952
 30
0.0
 11
242.782636669874
 21
99.7129652556778
 31
0.0
  0
LINE
  5
   479
  8
0
  6
CONTINUOUS
 62
   210
 10
242.782636669874
 20
121.512965580523
 30
0.0
 11
242.782636669874
 21
123.712965613306
 31
0.0
  0
LINE
  5
   47A
  8
0
  6
CONTINUOUS
 62
   210
 10
242.782633302446
 20
123.712956116315
 30
0.0
 11
242.841211794617
 21
123.854374571862
 31
0.0
  0
LINE
  5
   47B
  8
0
  6
CONTINUOUS
 62
   210
 10
242.841217335055
 20
123.85438707992
 30
0.0
 11
242.982638848672
 21
123.912968624066
 31
0.0
  0
LINE
  5
   47C
  8
0
  6
CONTINUOUS
 62
   210
 10
242.982636672854
 20
123.912965616286
 30
0.0
 11
244.142637300491
 21
123.912965616286
 31
0.0
  0
LINE
  5
   47D
  8
0
  6
CONTINUOUS
 62
   210
 10
242.782636669874
 20
99.7129652556778
 30
0.0
 11
242.782636669874
 21
121.512965580523
 31
0.0
  0
LINE
  5
   47E
  8
0
  6
CONTINUOUS
 62
     2
 10
253.142637434602
 20
87.1329650682212
 30
0.0
 11
253.142637434602
 21
120.93296557188
 31
0.0
  0
LINE
  5
   47F
  8
0
  6
CONTINUOUS
 62
     2
 10
255.142637464404
 20
87.5329650741816
 30
0.0
 11
255.142637464404
 21
115.532965491414
 31
0.0
  0
LINE
  5
   480
  8
0
  6
CONTINUOUS
 62
     2
 10
255.142637464404
 20
115.932965497375
 30
0.0
 11
255.142637464404
 21
120.93296557188
 31
0.0
  0
LINE
  5
   481
  8
0
  6
CONTINUOUS
 62
     2
 10
253.142637434602
 20
120.93296557188
 30
0.0
 11
254.142637449503
 21
120.93296557188
 31
0.0
  0
LINE
  5
   482
  8
0
  6
CONTINUOUS
 62
     2
 10
253.142637434602
 20
87.1329650682212
 30
0.0
 11
254.742637458444
 21
87.1329650682212
 31
0.0
  0
LINE
  5
   483
  8
0
  6
CONTINUOUS
 62
     2
 10
254.742637458444
 20
115.932965497375
 30
0.0
 11
255.142637464404
 21
115.932965497375
 31
0.0
  0
LINE
  5
   484
  8
0
  6
CONTINUOUS
 62
     2
 10
254.742637458444
 20
115.532965491414
 30
0.0
 11
255.142637464404
 21
115.532965491414
 31
0.0
  0
LINE
  5
   485
  8
0
  6
CONTINUOUS
 62
     2
 10
254.742637458444
 20
115.532965491414
 30
0.0
 11
254.742637458444
 21
115.932965497375
 31
0.0
  0
LINE
  5
   486
  8
0
  6
CONTINUOUS
 62
     2
 10
254.742637458444
 20
87.1329650682212
 30
0.0
 11
254.742637458444
 21
87.5329650741816
 31
0.0
  0
LINE
  5
   487
  8
0
  6
CONTINUOUS
 62
     2
 10
253.342637437582
 20
87.5329650741816
 30
0.0
 11
254.742637458444
 21
87.5329650741816
 31
0.0
  0
LINE
  5
   488
  8
0
  6
CONTINUOUS
 62
     2
 10
253.342637437582
 20
87.5329650741816
 30
0.0
 11
253.342637437582
 21
120.93296557188
 31
0.0
  0
LINE
  5
   489
  8
0
  6
CONTINUOUS
 62
   130
 10
214.542636859438
 20
126.308965651989
 30
0.0
 11
215.342636871338
 21
126.308965651989
 31
0.0
  0
LINE
  5
   48A
  8
0
  6
CONTINUOUS
 62
   130
 10
214.542636859417
 20
122.75836745455
 30
0.0
 11
215.342636871338
 21
122.75836745455
 31
0.0
  0
LINE
  5
   48B
  8
0
  6
CONTINUOUS
 62
   210
 10
253.022635323189
 20
101.312963856851
 30
0.0
 11
253.142633495154
 21
101.260180651991
 31
0.0
  0
LINE
  5
   48C
  8
0
  6
CONTINUOUS
 62
   210
 10
253.022637858377
 20
119.912967453927
 30
0.0
 11
253.142639083831
 21
119.965750656727
 31
0.0
  0
LINE
  5
   48D
  8
0
  6
CONTINUOUS
 62
     2
 10
254.742637458444
 20
87.5329650741816
 30
0.0
 11
255.142637464404
 21
87.5329650741816
 31
0.0
  0
LINE
  5
   48E
  8
0
  6
CONTINUOUS
 62
     2
 10
254.142637449503
 20
120.93296557188
 30
0.0
 11
254.742637458444
 21
120.93296557188
 31
0.0
  0
LINE
  5
   48F
  8
0
  6
CONTINUOUS
 62
   130
 10
215.342636871338
 20
95.73296528078
 30
0.0
 11
253.142637434602
 21
95.73296528078
 31
0.0
  0
POINT
  5
   490
  8
0
  6
CONTINUOUS
 62
     7
 10
215.342636871338
 20
96.7329652956811
 30
0.0
  0
LINE
  5
   491
  8
0
  6
CONTINUOUS
 62
     7
 10
255.142637464404
 20
121.332965577841
 30
0.0
 11
255.142637464404
 21
131.232965809771
 31
0.0
  0
ARC
  5
   492
  8
0
  6
CONTINUOUS
 62
     7
 10
254.642637456954
 20
131.232965809771
 30
0.0
 40
0.500000007450581
 50
0.0
 51
90.0
  0
LINE
  5
   493
  8
0
  6
CONTINUOUS
 62
     7
 10
253.142637434602
 20
120.93296557188
 30
0.0
 11
253.142637434602
 21
129.732965787419
 31
0.0
  0
LINE
  5
   494
  8
0
  6
CONTINUOUS
 62
     7
 10
241.476762989933
 20
129.732965787419
 30
0.0
 11
253.142637434602
 21
129.732965787419
 31
0.0
  0
LINE
  5
   495
  8
0
  6
CONTINUOUS
 62
     7
 10
241.48756111216
 20
129.9329657904
 30
0.0
 11
253.342637437582
 21
129.9329657904
 31
0.0
  0
LINE
  5
   496
  8
0
  6
CONTINUOUS
 62
     7
 10
253.342637437582
 20
121.332965577841
 30
0.0
 11
253.342637437582
 21
129.9329657904
 31
0.0
  0
LINE
  5
   497
  8
0
  6
CONTINUOUS
 62
     7
 10
253.342637437582
 20
121.332965577841
 30
0.0
 11
254.742637458444
 21
121.332965577841
 31
0.0
  0
LINE
  5
   498
  8
0
  6
CONTINUOUS
 62
     7
 10
254.742637458444
 20
120.935462732192
 30
0.0
 11
254.742637458444
 21
121.332965577841
 31
0.0
  0
LINE
  5
   499
  8
0
  6
CONTINUOUS
 62
     7
 10
234.342642188248
 20
131.732965817222
 30
0.0
 11
254.642637456954
 21
131.732965817222
 31
0.0
  0
LINE
  5
   49A
  8
0
  6
CONTINUOUS
 62
     7
 10
226.542637038231
 20
130.732965802321
 30
0.0
 11
241.530753601066
 21
130.732965802321
 31
0.0
  0
LINE
  5
   49B
  8
0
  6
CONTINUOUS
 62
     7
 10
223.342636990547
 20
130.732965802321
 30
0.0
 11
224.542637008429
 21
130.732965802321
 31
0.0
  0
LINE
  5
   49C
  8
0
  6
CONTINUOUS
 62
     7
 10
227.142637047172
 20
130.732965802321
 30
0.0
 11
227.142637047172
 21
131.732965817222
 31
0.0
  0
INSERT
  5
   49D
  8
0
  6
CONTINUOUS
 62
     7
  2
*HATCH133
 10
215.342636108398
 20
57.7329597473145
 30
0.0
 41
0.400000005960464
 42
0.400000005960464
 43
0.400000005960464
  0
LINE
  5
   49E
  8
0
  6
CONTINUOUS
 62
     7
 10
254.742637458444
 20
121.332965577841
 30
0.0
 11
255.142637464404
 21
121.332965577841
 31
0.0
  0
LINE
  5
   49F
  8
0
  6
CONTINUOUS
 62
     2
 10
254.742637458444
 20
120.93296557188
 30
0.0
 11
255.142637464404
 21
120.93296557188
 31
0.0
  0
LINE
  5
   4A0
  8
0
  6
CONTINUOUS
 62
     2
 10
253.022636212588
 20
87.1329650682212
 30
0.0
 11
253.022636212588
 21
95.612965194583
 31
0.0
  0
LINE
  5
   4A1
  8
0
  6
CONTINUOUS
 62
     1
 10
254.742637458444
 20
38.6329661111746
 30
0.0
 11
255.142637083411
 21
38.6329660021834
 31
0.0
  0
TEXT
  5
   4A2
  8
0
  6
CONTINUOUS
 62
     1
 10
219.42497904852
 20
-177.398010292649
 30
0.0
 40
2.00000007748604
  1
3POLE LOW VOLTAGE M.C.C.B SERIES ISOMAX SUPERLIMITING
 41
0.593749969303609
 72
     1
 11
250.774978637695
 21
-176.398010253906
 31
0.0
 73
     2
  0
TEXT
  5
   4A3
  8
0
  6
CONTINUOUS
 62
     1
 10
222.987479002364
 20
-180.398010292649
 30
0.0
 40
2.00000007748604
  1
FIXED VERSION SPREADED EXTENDED FRONT TERMINALS
 41
0.593749969303609
 72
     1
 11
250.774978637695
 21
-179.398010253906
 31
0.0
 73
     2
  0
TEXT
  5
   4A4
  8
0
  6
CONTINUOUS
 62
     1
 10
215.739869094081
 20
-185.468277016282
 30
0.0
 40
2.00000007748604
  1
INTERR.AUTOMATICO SERIE ISOMAX SUPERLIMITATORE
 41
0.687500019669532
 72
     1
 11
247.22737121582
 21
-184.468276977539
 31
0.0
 73
     2
  0
TEXT
  5
   4A5
  8
0
  6
CONTINUOUS
 62
     1
 10
211.614868816249
 20
-188.468277016282
 30
0.0
 40
2.00000007748604
  1
TRIPOL.ESECUZ. FISSA TERMINALI ANT. PROL. DIVARICATI
 41
0.687500019669532
 72
     1
 11
247.22737121582
 21
-187.468276977539
 31
0.0
 73
     2
  0
TEXT
  5
   4A6
  8
0
  6
CONTINUOUS
 62
     1
 10
231.973709106445
 20
-204.689865267277
 30
0.0
 40
4.00000015497208
  1
605032/381
 41
0.93749995827675
 72
     2
 11
268.723708861321
 21
-204.689865267277
 31
0.0
  0
LINE
  5
   4A7
  8
0
  6
CONTINUOUS
 62
     7
 10
254.742637458444
 20
38.1329545724391
 30
0.0
 11
254.742637458444
 21
38.5304574180881
 31
0.0
  0
LINE
  5
   4A8
  8
0
  6
CONTINUOUS
 62
     7
 10
253.342637437582
 20
38.1329545724391
 30
0.0
 11
254.742637458444
 21
38.1329545724391
 31
0.0
  0
LINE
  5
   4A9
  8
0
  6
CONTINUOUS
 62
     7
 10
255.142637464404
 20
28.2329543405088
 30
0.0
 11
255.142637464404
 21
38.1329545724391
 31
0.0
  0
ARC
  5
   4AA
  8
0
  6
CONTINUOUS
 62
     7
 10
254.642637456954
 20
28.2329543405088
 30
0.0
 40
0.500000007450581
 50
270.0
 51
360.0
  0
LINE
  5
   4AB
  8
0
  6
CONTINUOUS
 62
     7
 10
226.942637044191
 20
27.7329543330582
 30
0.0
 11
254.642637456954
 21
27.7329543330582
 31
0.0
  0
LINE
  5
   4AC
  8
0
  6
CONTINUOUS
 62
     7
 10
226.542637038231
 20
28.7329543479594
 30
0.0
 11
235.362963612925
 21
28.7329543479594
 31
0.0
  0
LINE
  5
   4AD
  8
0
  6
CONTINUOUS
 62
     7
 10
235.266189417934
 20
29.5329543598803
 30
0.0
 11
253.342637437582
 21
29.5329543598803
 31
0.0
  0
LINE
  5
   4AE
  8
0
  6
CONTINUOUS
 62
     7
 10
253.342637437582
 20
29.5329543598803
 30
0.0
 11
253.342637437582
 21
38.5304574180881
 31
0.0
  0
LINE
  5
   4AF
  8
0
  6
CONTINUOUS
 62
     7
 10
253.342637437582
 20
38.5304574180881
 30
0.0
 11
254.742637458444
 21
38.5304574180881
 31
0.0
  0
LINE
  5
   4B0
  8
0
  6
CONTINUOUS
 62
     7
 10
254.742637458444
 20
38.1329545724391
 30
0.0
 11
255.142637464404
 21
38.1329545724391
 31
0.0
  0
INSERT
  5
   4B1
  8
255
  6
CONTINUOUS
 62
     7
  2
T_A_D_L_
 10
215.342636108398
 20
91.7329602539539
 30
0.0
 41
0.400000005960464
 42
0.400000005960464
 43
0.400000005960464
  0
POINT
  5
   4B2
  8
0
  6
CONTINUOUS
 62
     7
 10
226.942637044191
 20
125.332960754633
 30
0.0
  0
INSERT
  5
   4B3
  8
0
  6
CONTINUOUS
 62
     7
  2
*UDIM665
 10
0.0
 20
0.0
 30
0.0
  0
INSERT
  5
   4B4
  8
0
  6
CONTINUOUS
 62
     7
  2
*UDIM666
 10
0.0
 20
0.0
 30
0.0
  0
INSERT
  5
   4B5
  8
0
  6
CONTINUOUS
 62
     7
  2
*UDIM667
 10
0.0
 20
0.0
 30
0.0
  0
INSERT
  5
   4B6
  8
255
  6
CONTINUOUS
 62
     7
  2
T_A_D_L_
 10
215.342636108398
 20
67.7329598963261
 30
0.0
 41
-0.400000005960464
 42
0.400000005960464
 50
180.000000103931
 43
0.400000005960464
  0
LINE
  5
   4B7
  8
0
  6
CONTINUOUS
 62
     7
 10
226.542637038231
 20
123.632960729301
 30
0.0
 11
226.542637038231
 21
127.032960779965
 31
0.0
  0
INSERT
  5
   4B8
  8
0
  6
CONTINUOUS
 62
     7
  2
*UDIM668
 10
0.0
 20
0.0
 30
0.0
  0
INSERT
  5
   4B9
  8
0
  6
CONTINUOUS
 62
     7
  2
*UDIM669
 10
0.0
 20
0.0
 30
0.0
  0
INSERT
  5
   4BA
  8
0
  6
CONTINUOUS
 62
     7
  2
*UDIM670
 10
0.0
 20
0.0
 30
0.0
  0
INSERT
  5
   4BB
  8
0
  6
CONTINUOUS
 62
     7
  2
*UDIM671
 10
0.0
 20
0.0
 30
0.0
  0
INSERT
  5
   4BC
  8
0
  6
CONTINUOUS
 62
     7
  2
*UDIM672
 10
0.0
 20
0.0
 30
0.0
  0
INSERT
  5
   4BD
  8
0
  6
CONTINUOUS
 62
     7
  2
*UDIM673
 10
0.0
 20
0.0
 30
0.0
  0
INSERT
  5
   4BE
  8
0
  6
CONTINUOUS
 62
     7
  2
*UDIM674
 10
0.0
 20
0.0
 30
0.0
  0
INSERT
  5
   4BF
  8
0
  6
CONTINUOUS
 62
     7
  2
*UDIM675
 10
0.0
 20
0.0
 30
0.0
  0
INSERT
  5
   4C0
  8
0
  6
CONTINUOUS
 62
     7
  2
*UDIM676
 10
0.0
 20
0.0
 30
0.0
  0
INSERT
  5
   4C1
  8
0
  6
CONTINUOUS
 62
     7
  2
*UDIM677
 10
0.0
 20
0.0
 30
0.0
  0
TEXT
  5
   4C2
  8
0
  6
CONTINUOUS
 62
     1
 10
130.442901611328
 20
-178.463390427828
 30
0.0
 40
2.00000007748604
  1
97-07-07 BARCELLA
 41
0.749999884366991
 72
     2
 11
155.642898703814
 21
-178.463390427828
 31
0.0
  0
TEXT
  5
   4C3
  8
0
  6
CONTINUOUS
 62
     1
 10
138.596892797845
 20
-193.480718957213
 30
0.0
 40
2.00000007748604
  1
M4371 97-07-07
 41
0.749999884366991
 72
     2
 11
159.296890409785
 21
-193.480718957213
 31
0.0
  0
INSERT
  5
   4C4
  8
0
  6
CONTINUOUS
 62
     7
  2
*HATCH138
 10
215.342636108398
 20
57.7329597473145
 30
0.0
 41
0.400000005960464
 42
0.400000005960464
 43
0.400000005960464
  0
LINE
  5
   4C5
  8
0
  6
CONTINUOUS
 62
     7
 10
224.142637002468
 20
121.0363211867
 30
0.0
 11
224.142637002468
 21
128.932960808277
 31
0.0
  0
INSERT
  5
   4C6
  8
0
  6
CONTINUOUS
 62
     7
  2
*UDIM678
 10
0.0
 20
0.0
 30
0.0
  0
TEXT
  5
   4C7
  8
0
  6
CONTINUOUS
 62
     7
 10
280.61103914493
 20
53.6662669888402
 30
0.0
 40
2.99999994933605
  1
=    =
 50
90.0
 41
0.91666673368878
 72
     1
 11
279.111039170252
 21
61.6412674513952
 31
0.0
 73
     2
  0
INSERT
  5
   4C8
  8
0
  6
CONTINUOUS
 62
     7
  2
*UDIM679
 10
0.0
 20
0.0
 30
0.0
  0
INSERT
  5
   4C9
  8
0
  6
CONTINUOUS
 62
     7
  2
*UDIM680
 10
0.0
 20
0.0
 30
0.0
  0
INSERT
  5
   4CA
  8
0
  6
CONTINUOUS
 62
     7
  2
*UDIM681
 10
0.0
 20
0.0
 30
0.0
  0
TEXT
  5
   4CB
  8
0
  6
CONTINUOUS
 62
     1
 10
250.059403114275
 20
-195.708278948872
 30
0.0
 40
2.99999994933605
  1
S3X
 41
0.916666607525612
 72
     2
 11
257.75940248475
 21
-195.708278948872
 31
0.0
  0
TEXT
  5
   4CC
  8
0
  6
CONTINUOUS
 62
     7
 10
280.953477200282
 20
60.7101101546069
 30
0.0
 40
2.99999994933605
  1
X
 41
0.916666607525612
 72
     2
 11
283.153477018488
 21
60.7101101546069
 31
0.0
  0
LINE
  5
   4CD
  8
0
  6
CONTINUOUS
 62
     7
 10
98.969854308833
 20
130.732956280451
 30
0.0
 11
87.0698564414969
 21
130.732956280451
 31
0.0
  0
LINE
  5
   4CE
  8
0
  6
CONTINUOUS
 62
     7
 10
101.284655051938
 20
130.732956280451
 30
0.0
 11
100.369854329695
 21
130.732956280451
 31
0.0
  0
LINE
  5
   4CF
  8
0
  6
CONTINUOUS
 62
     7
 10
86.6698564355364
 20
129.612955043059
 30
0.0
 11
86.6698564355364
 21
130.332956274491
 31
0.0
  0
LINE
  5
   4D0
  8
0
  6
CONTINUOUS
 62
     7
 10
86.6698564355364
 20
129.612955043059
 30
0.0
 11
85.6698564206353
 21
129.612955043059
 31
0.0
  0
LINE
  5
   4D1
  8
0
  6
CONTINUOUS
 62
     7
 10
85.6698519229802
 20
94.0329587853349
 30
0.0
 11
85.6698519229802
 21
129.612955043059
 31
0.0
  0
LINE
  5
   4D2
  8
0
  6
CONTINUOUS
 62
     7
 10
100.669854334165
 20
128.132956241708
 30
0.0
 11
98.6698543043627
 21
128.132956241708
 31
0.0
  0
LINE
  5
   4D3
  8
0
  6
CONTINUOUS
 62
     7
 10
86.6698540644677
 20
120.932954127789
 30
0.0
 11
86.6698540644677
 21
129.612955043059
 31
0.0
  0
CIRCLE
  5
   4D4
  8
0
  6
CONTINUOUS
 62
     7
 10
92.6698562804716
 20
125.732952565318
 30
0.0
 40
2.20000058570355
  0
ARC
  5
   4D5
  8
0
  6
CONTINUOUS
 62
     7
 10
87.0698574618714
 20
130.332956727423
 30
0.0
 40
0.40000160241227
 50
90.0000472185487
 51
180.000478784316
  0
CIRCLE
  5
   4D6
  8
0
  6
DOT
 62
     7
 10
92.6698629535679
 20
33.7329561979854
 30
0.0
 40
2.19999878903394
  0
CIRCLE
  5
   4D7
  8
0
  6
DOT
 62
     7
 10
99.6698614627873
 20
34.9329557085421
 30
0.0
 40
1.79999922154889
  0
CIRCLE
  5
   4D8
  8
0
  6
DOT
 62
     7
 10
106.669859608166
 20
33.7329543463199
 30
0.0
 40
2.19999885163413
  0
CIRCLE
  5
   4D9
  8
0
  6
DOT
 62
     7
 10
113.669862787485
 20
34.9329455583548
 30
0.0
 40
1.79999176240177
  0
CIRCLE
  5
   4DA
  8
0
  6
DOT
 62
     7
 10
120.669885933734
 20
33.7329064622742
 30
0.0
 40
2.20005287110646
  0
LINE
  5
   4DB
  8
0
  6
DASHDOT
 62
     7
 10
92.6698543707197
 20
127.372958145459
 30
0.0
 11
92.6698543707197
 21
130.892961821149
 31
0.0
  0
LINE
  5
   4DC
  8
0
  6
DASHDOT
 62
     7
 10
92.6698562804716
 20
122.332951961733
 30
0.0
 11
92.6698562804716
 21
129.132953168903
 31
0.0
  0
LINE
  5
   4DD
  8
0
  6
DASHDOT
 62
     7
 10
96.0698568840565
 20
125.732952565318
 30
0.0
 11
89.2698556768866
 21
125.732952565318
 31
0.0
  0
LINE
  5
   4DE
  8
0
  6
DASHDOT
 62
     7
 10
92.6698629535679
 20
30.3329573910701
 30
0.0
 11
92.6698629535679
 21
37.1329550049008
 31
0.0
  0
LINE
  5
   4DF
  8
0
  6
DASHDOT
 62
     7
 10
96.0698617604833
 20
33.7329561979854
 30
0.0
 11
89.2698641466526
 21
33.7329561979854
 31
0.0
  0
LINE
  5
   4E0
  8
0
  6
DASHDOT
 62
     7
 10
99.6698614627873
 20
27.7620854256838
 30
0.0
 11
99.6698614627873
 21
37.9329549479724
 31
0.0
  0
LINE
  5
   4E1
  8
0
  6
DASHDOT
 62
     7
 10
102.669860702218
 20
34.9329557085421
 30
0.0
 11
96.669862223357
 21
34.9329557085421
 31
0.0
  0
LINE
  5
   4E2
  8
0
  6
DASHDOT
 62
     7
 10
110.069858477681
 20
33.7329543463199
 30
0.0
 11
103.26986073865
 21
33.7329543463199
 31
0.0
  0
LINE
  5
   4E3
  8
0
  6
DASHDOT
 62
     7
 10
116.669854567769
 20
34.9329455583548
 30
0.0
 11
110.669871007202
 21
34.9329455583548
 31
0.0
  0
LINE
  5
   4E4
  8
0
  6
DASHDOT
 62
     7
 10
120.669885933734
 20
30.3328535732863
 30
0.0
 11
120.669885933734
 21
37.132959351262
 31
0.0
  0
LINE
  5
   4E5
  8
0
  6
DASHDOT
 62
     7
 10
124.069938822722
 20
33.7329064622742
 30
0.0
 11
117.269833044746
 21
33.7329064622742
 31
0.0
  0
LINE
  5
   4E6
  8
0
  6
DASHDOT
 62
     7
 10
120.669864777328
 20
28.5729593006258
 30
0.0
 11
120.669864777328
 21
32.0929533708674
 31
0.0
  0
LINE
  5
   4E7
  8
0
  6
DASHDOT
 62
     7
 10
92.6698615960654
 20
28.572954880021
 30
0.0
 11
92.6698615960654
 21
32.0929550937744
 31
0.0
  0
LINE
  5
   4E8
  8
0
  6
CONTINUOUS
 62
     3
 10
127.469862675667
 20
82.8329586184419
 30
0.0
 11
85.8698681592941
 21
82.8329586184419
 31
0.0
  0
LINE
  5
   4E9
  8
0
  6
CONTINUOUS
 62
     3
 10
127.469862675667
 20
40.8329640961091
 30
0.0
 11
122.069862619042
 21
40.8329640961091
 31
0.0
  0
LINE
  5
   4EA
  8
0
  6
CONTINUOUS
 62
     3
 10
117.469862526655
 20
40.8329640961087
 30
0.0
 11
107.649580021629
 21
40.8329640961087
 31
0.0
  0
LINE
  5
   4EB
  8
0
  6
CONTINUOUS
 62
     3
 10
91.2698682397604
 20
40.832964096098
 30
0.0
 11
85.8698681592941
 21
40.832964096098
 31
0.0
  0
LINE
  5
   4EC
  8
0
  6
CONTINUOUS
 62
     3
 10
95.8698683083058
 20
40.8329640961077
 30
0.0
 11
91.2698682397604
 21
40.8329640961077
 31
0.0
  0
LINE
  5
   4ED
  8
0
  6
CONTINUOUS
 62
     3
 10
122.0698625952
 20
40.8329640961091
 30
0.0
 11
117.469862526655
 21
40.8329640961091
 31
0.0
  0
LINE
  5
   4EE
  8
0
  6
DASHDOT
 62
     7
 10
106.669868469238
 20
33.58448526042
 30
0.0
 11
106.669868469238
 21
74.9025935439641
 31
0.0
  0
ARC
  5
   4EF
  8
0
  6
CONTINUOUS
 62
     3
 10
85.8698681592941
 20
41.0329640990783
 30
0.0
 40
0.200000002980232
 50
179.999999948034
 51
269.999999948034
  0
ARC
  5
   4F0
  8
0
  6
CONTINUOUS
 62
     3
 10
85.8698681592941
 20
82.6329586154617
 30
0.0
 40
0.200000002980232
 50
449.999999948034
 51
539.999999948034
  0
ARC
  5
   4F1
  8
0
  6
CONTINUOUS
 62
     3
 10
127.469862675667
 20
82.6329586154617
 30
0.0
 40
0.200000002980232
 50
359.999999948034
 51
449.999999948034
  0
ARC
  5
   4F2
  8
0
  6
CONTINUOUS
 62
     3
 10
127.469862675667
 20
41.0329640990893
 30
0.0
 40
0.200000002980232
 50
269.999999948034
 51
359.999999948034
  0
LINE
  5
   4F3
  8
0
  6
DASHDOT
 62
     7
 10
106.669868469238
 20
77.2142873631455
 30
0.0
 11
106.669868469238
 21
144.557978345345
 31
0.0
  0
LINE
  5
   4F4
  8
0
  6
CONTINUOUS
 62
     3
 10
105.690088353912
 20
40.8329640961087
 30
0.0
 11
95.8698683083058
 21
40.8329640961087
 31
0.0
  0
LINE
  5
   4F5
  8
0
  6
CONTINUOUS
 62
     7
 10
95.6698622018098
 20
40.8329579925931
 30
0.0
 11
91.6698682457209
 21
40.8329579925931
 31
0.0
  0
LINE
  5
   4F6
  8
0
  6
CONTINUOUS
 62
     7
 10
121.669856485724
 20
40.8329579925931
 30
0.0
 11
117.66985642612
 21
40.8329579925931
 31
0.0
  0
LINE
  5
   4F7
  8
0
  6
CONTINUOUS
 62
     7
 10
127.669868782163
 20
41.0329579955734
 30
0.0
 11
127.669868782163
 21
48.232951999346
 31
0.0
  0
LINE
  5
   4F8
  8
0
  6
CONTINUOUS
 62
     7
 10
85.6698681563139
 20
41.0329579955734
 30
0.0
 11
85.6698681563139
 21
48.232951999346
 31
0.0
  0
LINE
  5
   4F9
  8
0
  6
CONTINUOUS
 62
     7
 10
127.469868779182
 20
82.8329586184419
 30
0.0
 11
85.8698681593053
 21
82.8329586184419
 31
0.0
  0
LINE
  5
   4FA
  8
0
  6
CONTINUOUS
 62
     7
 10
91.6698682457209
 20
40.8329579925931
 30
0.0
 11
85.8698681592941
 21
40.8329579925931
 31
0.0
  0
LINE
  5
   4FB
  8
0
  6
CONTINUOUS
 62
     7
 10
117.66985642612
 20
40.8329579925931
 30
0.0
 11
95.6698622018098
 21
40.8329579925931
 31
0.0
  0
LINE
  5
   4FC
  8
0
  6
CONTINUOUS
 62
     7
 10
127.469868779182
 20
40.8329579925931
 30
0.0
 11
121.669856485724
 21
40.8329579925931
 31
0.0
  0
LINE
  5
   4FD
  8
0
  6
CONTINUOUS
 62
     7
 10
110.969868533313
 20
49.7329520216978
 30
0.0
 11
110.969868533313
 21
65.7329461566006
 31
0.0
  0
LINE
  5
   4FE
  8
0
  6
CONTINUOUS
 62
     7
 10
102.369868405163
 20
49.7329520216978
 30
0.0
 11
102.369868405163
 21
65.7329461566006
 31
0.0
  0
LINE
  5
   4FF
  8
0
  6
CONTINUOUS
 62
     7
 10
127.669868782163
 20
78.0329463398849
 30
0.0
 11
85.6698681563139
 21
78.0329463398849
 31
0.0
  0
LINE
  5
   500
  8
0
  6
CONTINUOUS
 62
     7
 10
127.669868782163
 20
82.0329463994895
 30
0.0
 11
85.6698681563139
 21
82.0329463994895
 31
0.0
  0
LINE
  5
   501
  8
0
  6
CONTINUOUS
 62
     7
 10
110.969868533313
 20
65.6271600222118
 30
0.0
 11
102.369868405163
 21
65.6271600222118
 31
0.0
  0
LINE
  5
   502
  8
0
  6
CONTINUOUS
 62
     7
 10
110.969868533313
 20
65.7329461566006
 30
0.0
 11
102.369868405163
 21
65.7329461566006
 31
0.0
  0
LINE
  5
   503
  8
0
  6
CONTINUOUS
 62
     7
 10
110.969868533313
 20
49.7329520216977
 30
0.0
 11
102.369868405163
 21
49.7329520216977
 31
0.0
  0
LINE
  5
   504
  8
0
  6
CONTINUOUS
 62
     7
 10
110.969868533313
 20
49.838750363118
 30
0.0
 11
102.369868405163
 21
49.838750363118
 31
0.0
  0
LINE
  5
   505
  8
0
  6
DASHDOT
 62
     7
 10
106.669868469238
 20
23.6194198595738
 30
0.0
 11
106.669868469238
 21
74.1139202035941
 31
0.0
  0
LINE
  5
   506
  8
0
  6
CONTINUOUS
 62
     7
 10
127.669862678647
 20
48.6329520053065
 30
0.0
 11
127.669862678647
 21
53.4329488955366
 31
0.0
  0
LINE
  5
   507
  8
0
  6
CONTINUOUS
 62
     7
 10
127.669862678647
 20
67.2329522824681
 30
0.0
 11
127.669862678647
 21
82.6329586154617
 31
0.0
  0
LINE
  5
   508
  8
0
  6
CONTINUOUS
 62
     7
 10
127.669862678647
 20
53.8329489014971
 30
0.0
 11
127.669862678647
 21
61.6329521990216
 31
0.0
  0
LINE
  5
   509
  8
0
  6
CONTINUOUS
 62
     7
 10
127.669862678647
 20
62.032952204982
 30
0.0
 11
127.669862678647
 21
66.8329522765076
 31
0.0
  0
LINE
  5
   50A
  8
0
  6
CONTINUOUS
 62
     7
 10
85.6698681563119
 20
48.6329520053065
 30
0.0
 11
85.6698681563119
 21
53.4329520768329
 31
0.0
  0
LINE
  5
   50B
  8
0
  6
CONTINUOUS
 62
     7
 10
85.6698681563047
 20
53.8329520827934
 30
0.0
 11
85.6698681563047
 21
61.6329521990216
 31
0.0
  0
LINE
  5
   50C
  8
0
  6
CONTINUOUS
 62
     7
 10
85.669868156316
 20
62.032952204982
 30
0.0
 11
85.669868156316
 21
66.8329522765076
 31
0.0
  0
LINE
  5
   50D
  8
0
  6
CONTINUOUS
 62
     7
 10
85.669868156325
 20
67.2329522824681
 30
0.0
 11
85.669868156325
 21
82.6329586154617
 31
0.0
  0
LINE
  5
   50E
  8
0
  6
CONTINUOUS
 62
     7
 10
102.369865215674
 20
53.4329597710019
 30
0.0
 11
86.0698681384325
 21
53.4329597710019
 31
0.0
  0
LINE
  5
   50F
  8
0
  6
CONTINUOUS
 62
     7
 10
127.669862678647
 20
53.4329565897033
 30
0.0
 11
127.269862672687
 21
53.4329565897033
 31
0.0
  0
LINE
  5
   510
  8
0
  6
CONTINUOUS
 62
     7
 10
102.369857392038
 20
53.8329597769647
 30
0.0
 11
86.0698681384325
 21
53.8329597769647
 31
0.0
  0
LINE
  5
   511
  8
0
  6
CONTINUOUS
 62
     7
 10
127.669862678647
 20
53.8329565956637
 30
0.0
 11
127.269862672687
 21
53.8329565956637
 31
0.0
  0
LINE
  5
   512
  8
0
  6
CONTINUOUS
 62
     7
 10
86.0698681384325
 20
53.4329520768321
 30
0.0
 11
86.0698681384325
 21
53.8329520827925
 31
0.0
  0
LINE
  5
   513
  8
0
  6
CONTINUOUS
 62
     7
 10
127.269862672687
 20
53.432952076832
 30
0.0
 11
127.269862672687
 21
53.8329520827925
 31
0.0
  0
LINE
  5
   514
  8
0
  6
CONTINUOUS
 62
     7
 10
127.669868782163
 20
48.232951999346
 30
0.0
 11
127.269862672687
 21
48.232951999346
 31
0.0
  0
LINE
  5
   515
  8
0
  6
CONTINUOUS
 62
     7
 10
127.669862678647
 20
48.6329520053065
 30
0.0
 11
127.269862672687
 21
48.6329520053065
 31
0.0
  0
LINE
  5
   516
  8
0
  6
CONTINUOUS
 62
     7
 10
86.0698681384325
 20
48.232951999346
 30
0.0
 11
86.0698681384325
 21
48.6329520053065
 31
0.0
  0
LINE
  5
   517
  8
0
  6
CONTINUOUS
 62
     7
 10
127.269862672687
 20
48.232951999346
 30
0.0
 11
127.269862672687
 21
48.6329520053065
 31
0.0
  0
LINE
  5
   518
  8
0
  6
CONTINUOUS
 62
     7
 10
127.669862678647
 20
66.8329522765076
 30
0.0
 11
127.269862672687
 21
66.8329522765076
 31
0.0
  0
LINE
  5
   519
  8
0
  6
CONTINUOUS
 62
     7
 10
127.669862678647
 20
67.2329522824681
 30
0.0
 11
127.269862672687
 21
67.2329522824681
 31
0.0
  0
LINE
  5
   51A
  8
0
  6
CONTINUOUS
 62
     7
 10
86.0698681384325
 20
66.8329522765076
 30
0.0
 11
86.0698681384325
 21
67.2329522824681
 31
0.0
  0
LINE
  5
   51B
  8
0
  6
CONTINUOUS
 62
     7
 10
127.269862672687
 20
66.8329522765076
 30
0.0
 11
127.269862672687
 21
67.2329522824681
 31
0.0
  0
LINE
  5
   51C
  8
0
  6
CONTINUOUS
 62
     7
 10
102.369865234196
 20
61.6329521990216
 30
0.0
 11
86.0698681384325
 21
61.6329521990216
 31
0.0
  0
LINE
  5
   51D
  8
0
  6
CONTINUOUS
 62
     7
 10
127.669862678647
 20
61.6329521990216
 30
0.0
 11
127.269862672687
 21
61.6329521990216
 31
0.0
  0
LINE
  5
   51E
  8
0
  6
CONTINUOUS
 62
     7
 10
102.369868405163
 20
62.032952204982
 30
0.0
 11
86.0698681384325
 21
62.032952204982
 31
0.0
  0
LINE
  5
   51F
  8
0
  6
CONTINUOUS
 62
     7
 10
127.669862678647
 20
62.032952204982
 30
0.0
 11
127.269862672687
 21
62.032952204982
 31
0.0
  0
LINE
  5
   520
  8
0
  6
CONTINUOUS
 62
     7
 10
86.0698681384325
 20
61.6329521990216
 30
0.0
 11
86.0698681384325
 21
62.032952204982
 31
0.0
  0
LINE
  5
   521
  8
0
  6
CONTINUOUS
 62
     7
 10
127.269862672687
 20
61.6329521990216
 30
0.0
 11
127.269862672687
 21
62.032952204982
 31
0.0
  0
ARC
  5
   522
  8
0
  6
CONTINUOUS
 62
     7
 10
85.8698681592941
 20
41.0329579955734
 30
0.0
 40
0.200000002980232
 50
179.999999948034
 51
269.999999948034
  0
ARC
  5
   523
  8
0
  6
CONTINUOUS
 62
     7
 10
127.469868779182
 20
41.0329579955734
 30
0.0
 40
0.200000002980232
 50
269.999999948034
 51
359.999999948034
  0
ARC
  5
   524
  8
0
  6
CONTINUOUS
 62
     7
 10
127.469868779182
 20
82.6329586154617
 30
0.0
 40
0.200000002980232
 50
359.999999948034
 51
449.999999948034
  0
ARC
  5
   525
  8
0
  6
CONTINUOUS
 62
     7
 10
85.8698681593053
 20
82.6329586154617
 30
0.0
 40
0.200000002980232
 50
449.999999948034
 51
539.999999948034
  0
LINE
  5
   526
  8
0
  6
CONTINUOUS
 62
     7
 10
97.6698683351278
 20
66.2329522675669
 30
0.0
 11
97.0698683261871
 21
66.2329522675669
 31
0.0
  0
LINE
  5
   527
  8
0
  6
CONTINUOUS
 62
     7
 10
97.6698683351278
 20
62.6329522139227
 30
0.0
 11
97.0698683261871
 21
62.6329522139227
 31
0.0
  0
CIRCLE
  5
   528
  8
0
  6
CONTINUOUS
 62
     7
 10
97.3698683306575
 20
51.0329520410693
 30
0.0
 40
1.80000002682209
  0
CIRCLE
  5
   529
  8
0
  6
CONTINUOUS
 62
     7
 10
97.3698683306575
 20
51.0329520410693
 30
0.0
 40
1.20000001788139
  0
LINE
  5
   52A
  8
0
  6
CONTINUOUS
 62
     7
 10
97.0698683261871
 20
62.6329522139227
 30
0.0
 11
97.0698683261871
 21
66.2329522675669
 31
0.0
  0
LINE
  5
   52B
  8
0
  6
CONTINUOUS
 62
     7
 10
97.6698683351278
 20
62.6329522139227
 30
0.0
 11
97.6698683351278
 21
66.2329522675669
 31
0.0
  0
LINE
  5
   52C
  8
0
  6
CONTINUOUS
 62
     7
 10
101.269868388772
 20
48.6329520053065
 30
0.0
 11
101.269868388772
 21
53.4329577924983
 31
0.0
  0
LINE
  5
   52D
  8
0
  6
CONTINUOUS
 62
     7
 10
112.069868549705
 20
48.6329520053065
 30
0.0
 11
112.069868549705
 21
53.4329546111998
 31
0.0
  0
LINE
  5
   52E
  8
0
  6
CONTINUOUS
 62
     7
 10
112.069868549705
 20
62.032952204982
 30
0.0
 11
112.069868549705
 21
66.8329522765076
 31
0.0
  0
LINE
  5
   52F
  8
0
  6
CONTINUOUS
 62
     7
 10
101.269868388772
 20
62.032952204982
 30
0.0
 11
101.269868388772
 21
66.8329522765076
 31
0.0
  0
LINE
  5
   530
  8
0
  6
CONTINUOUS
 62
     7
 10
116.889864715278
 20
52.5729520640171
 30
0.0
 11
116.709864712596
 21
52.5729520640171
 31
0.0
  0
LINE
  5
   531
  8
0
  6
CONTINUOUS
 62
     7
 10
116.509864709616
 20
49.4929520181215
 30
0.0
 11
116.189864704847
 21
49.4929520181215
 31
0.0
  0
LINE
  5
   532
  8
0
  6
CONTINUOUS
 62
     7
 10
113.6298646667
 20
50.5329520336187
 30
0.0
 11
113.6298646667
 21
50.7329520365989
 31
0.0
  0
LINE
  5
   533
  8
0
  6
CONTINUOUS
 62
     7
 10
115.709864697695
 20
50.5329520336187
 30
0.0
 11
115.709864697695
 21
50.7329520365989
 31
0.0
  0
ARC
  5
   534
  8
0
  6
CONTINUOUS
 62
     7
 10
114.669864682197
 20
50.7329520365989
 30
0.0
 40
1.04000001549721
 50
359.999999948034
 51
539.999999948034
  0
ARC
  5
   535
  8
0
  6
CONTINUOUS
 62
     7
 10
114.669864682197
 20
50.5329520336187
 30
0.0
 40
1.04000001549721
 50
179.999999948034
 51
359.999999948034
  0
ARC
  5
   536
  8
0
  6
CONTINUOUS
 62
     7
 10
114.669864682197
 20
50.7329520365989
 30
0.0
 40
0.720000010728837
 50
359.999999948034
 51
539.999999948034
  0
ARC
  5
   537
  8
0
  6
CONTINUOUS
 62
     7
 10
114.669864682197
 20
50.5329520336187
 30
0.0
 40
0.720000010728835
 50
179.999999948034
 51
359.999999948034
  0
LINE
  5
   538
  8
0
  6
CONTINUOUS
 62
     7
 10
113.949864671469
 20
50.5329520336187
 30
0.0
 11
113.949864671469
 21
50.7329520365989
 31
0.0
  0
LINE
  5
   539
  8
0
  6
CONTINUOUS
 62
     7
 10
115.389864692926
 20
50.5329520336187
 30
0.0
 11
115.389864692926
 21
50.7329520365989
 31
0.0
  0
LINE
  5
   53A
  8
0
  6
CONTINUOUS
 62
     7
 10
115.809864699185
 20
51.2929520449436
 30
0.0
 11
115.809864699185
 21
51.612952049712
 31
0.0
  0
LINE
  5
   53B
  8
0
  6
CONTINUOUS
 62
     7
 10
116.189864704847
 20
51.2929520449436
 30
0.0
 11
115.809864699185
 21
51.2929520449436
 31
0.0
  0
LINE
  5
   53C
  8
0
  6
CONTINUOUS
 62
     7
 10
116.889864715278
 20
51.2929520449436
 30
0.0
 11
116.889864715278
 21
51.612952049712
 31
0.0
  0
LINE
  5
   53D
  8
0
  6
CONTINUOUS
 62
     7
 10
116.189864704847
 20
51.6129520497119
 30
0.0
 11
115.809864699185
 21
51.6129520497119
 31
0.0
  0
LINE
  5
   53E
  8
0
  6
CONTINUOUS
 62
     7
 10
116.189864704847
 20
49.4929520181215
 30
0.0
 11
116.189864704847
 21
51.2929520449436
 31
0.0
  0
LINE
  5
   53F
  8
0
  6
CONTINUOUS
 62
     7
 10
116.509864709616
 20
49.4929520181215
 30
0.0
 11
116.509864709616
 21
51.2929520449436
 31
0.0
  0
LINE
  5
   540
  8
0
  6
CONTINUOUS
 62
     7
 10
116.889864715278
 20
51.2929520449436
 30
0.0
 11
116.509864709616
 21
51.2929520449436
 31
0.0
  0
LINE
  5
   541
  8
0
  6
CONTINUOUS
 62
     7
 10
116.889864715278
 20
51.6129520497119
 30
0.0
 11
116.509864709616
 21
51.6129520497119
 31
0.0
  0
LINE
  5
   542
  8
0
  6
CONTINUOUS
 62
     7
 10
116.189864704847
 20
51.612952049712
 30
0.0
 11
116.189864704847
 21
52.0529520562685
 31
0.0
  0
LINE
  5
   543
  8
0
  6
CONTINUOUS
 62
     7
 10
116.509864709616
 20
51.612952049712
 30
0.0
 11
116.509864709616
 21
52.0529520562685
 31
0.0
  0
ARC
  5
   544
  8
0
  6
CONTINUOUS
 62
     7
 10
116.709864712596
 20
52.0529520562684
 30
0.0
 40
0.520000007748604
 50
449.999999948034
 51
539.999999948034
  0
ARC
  5
   545
  8
0
  6
CONTINUOUS
 62
     7
 10
116.709864712596
 20
52.0529520562684
 30
0.0
 40
0.200000002980232
 50
449.999999948034
 51
539.999999948034
  0
LINE
  5
   546
  8
0
  6
CONTINUOUS
 62
     7
 10
116.889864715278
 20
52.2529520592487
 30
0.0
 11
116.889864715278
 21
52.5729520640171
 31
0.0
  0
LINE
  5
   547
  8
0
  6
CONTINUOUS
 62
     7
 10
116.889864715278
 20
52.2529520592487
 30
0.0
 11
116.709864712596
 21
52.2529520592487
 31
0.0
  0
LINE
  5
   548
  8
0
  6
CONTINUOUS
 62
     7
 10
118.169864734352
 20
52.5729520640171
 30
0.0
 11
117.989864731669
 21
52.5729520640171
 31
0.0
  0
LINE
  5
   549
  8
0
  6
CONTINUOUS
 62
     7
 10
117.789864728689
 20
49.4929520181215
 30
0.0
 11
117.469864723921
 21
49.4929520181215
 31
0.0
  0
LINE
  5
   54A
  8
0
  6
CONTINUOUS
 62
     7
 10
117.089864718258
 20
51.2929520449436
 30
0.0
 11
117.089864718258
 21
51.612952049712
 31
0.0
  0
LINE
  5
   54B
  8
0
  6
CONTINUOUS
 62
     7
 10
117.469864723921
 20
51.2929520449436
 30
0.0
 11
117.089864718258
 21
51.2929520449436
 31
0.0
  0
LINE
  5
   54C
  8
0
  6
CONTINUOUS
 62
     7
 10
118.169864734352
 20
51.2929520449436
 30
0.0
 11
118.169864734352
 21
51.612952049712
 31
0.0
  0
LINE
  5
   54D
  8
0
  6
CONTINUOUS
 62
     7
 10
117.469864723921
 20
51.6129520497119
 30
0.0
 11
117.089864718258
 21
51.6129520497119
 31
0.0
  0
LINE
  5
   54E
  8
0
  6
CONTINUOUS
 62
     7
 10
117.469864723921
 20
49.4929520181215
 30
0.0
 11
117.469864723921
 21
51.2929520449436
 31
0.0
  0
LINE
  5
   54F
  8
0
  6
CONTINUOUS
 62
     7
 10
117.789864728689
 20
49.4929520181215
 30
0.0
 11
117.789864728689
 21
51.2929520449436
 31
0.0
  0
LINE
  5
   550
  8
0
  6
CONTINUOUS
 62
     7
 10
118.169864734352
 20
51.2929520449436
 30
0.0
 11
117.789864728689
 21
51.2929520449436
 31
0.0
  0
LINE
  5
   551
  8
0
  6
CONTINUOUS
 62
     7
 10
118.169864734352
 20
51.6129520497119
 30
0.0
 11
117.789864728689
 21
51.6129520497119
 31
0.0
  0
LINE
  5
   552
  8
0
  6
CONTINUOUS
 62
     7
 10
117.469864723921
 20
51.612952049712
 30
0.0
 11
117.469864723921
 21
52.0529520562685
 31
0.0
  0
LINE
  5
   553
  8
0
  6
CONTINUOUS
 62
     7
 10
117.789864728689
 20
51.612952049712
 30
0.0
 11
117.789864728689
 21
52.0529520562685
 31
0.0
  0
ARC
  5
   554
  8
0
  6
CONTINUOUS
 62
     7
 10
117.989864731669
 20
52.0529520562684
 30
0.0
 40
0.520000007748604
 50
449.999999948034
 51
539.999999948034
  0
ARC
  5
   555
  8
0
  6
CONTINUOUS
 62
     7
 10
117.989864731669
 20
52.0529520562684
 30
0.0
 40
0.200000002980232
 50
449.999999948034
 51
539.999999948034
  0
LINE
  5
   556
  8
0
  6
CONTINUOUS
 62
     7
 10
118.169864734352
 20
52.2529520592487
 30
0.0
 11
118.169864734352
 21
52.5729520640171
 31
0.0
  0
LINE
  5
   557
  8
0
  6
CONTINUOUS
 62
     7
 10
118.169864734352
 20
52.2529520592487
 30
0.0
 11
117.989864731669
 21
52.2529520592487
 31
0.0
  0
LINE
  5
   558
  8
0
  6
CONTINUOUS
 62
     7
 10
116.349864707231
 20
63.2929522237575
 30
0.0
 11
116.029864702463
 21
63.2929522237575
 31
0.0
  0
ARC
  5
   559
  8
0
  6
CONTINUOUS
 62
     7
 10
114.669864682198
 20
64.5329522422349
 30
0.0
 40
1.04000001549721
 50
359.999999948034
 51
539.999999948034
  0
ARC
  5
   55A
  8
0
  6
CONTINUOUS
 62
     7
 10
114.669864682198
 20
64.5329522422349
 30
0.0
 40
0.720000010728837
 50
359.999999948034
 51
539.999999948034
  0
ARC
  5
   55B
  8
0
  6
CONTINUOUS
 62
     7
 10
114.669864682198
 20
64.3329522392547
 30
0.0
 40
1.04000001549721
 50
179.999999948034
 51
359.999999948034
  0
ARC
  5
   55C
  8
0
  6
CONTINUOUS
 62
     7
 10
114.669864682198
 20
64.3329522392547
 30
0.0
 40
0.720000010728835
 50
179.999999948034
 51
359.999999948034
  0
LINE
  5
   55D
  8
0
  6
CONTINUOUS
 62
     7
 10
115.389864692926
 20
64.3329522392547
 30
0.0
 11
115.389864692926
 21
64.5329522422349
 31
0.0
  0
LINE
  5
   55E
  8
0
  6
CONTINUOUS
 62
     7
 10
115.709864697695
 20
64.3329522392547
 30
0.0
 11
115.709864697695
 21
64.5329522422349
 31
0.0
  0
LINE
  5
   55F
  8
0
  6
CONTINUOUS
 62
     7
 10
113.949864671469
 20
64.3329522392547
 30
0.0
 11
113.949864671469
 21
64.5329522422349
 31
0.0
  0
LINE
  5
   560
  8
0
  6
CONTINUOUS
 62
     7
 10
113.6298646667
 20
64.3329522392547
 30
0.0
 11
113.6298646667
 21
64.5329522422349
 31
0.0
  0
LINE
  5
   561
  8
0
  6
CONTINUOUS
 62
     7
 10
116.029864702463
 20
63.2929522237575
 30
0.0
 11
116.029864702463
 21
65.5729522577322
 31
0.0
  0
LINE
  5
   562
  8
0
  6
CONTINUOUS
 62
     7
 10
116.349864707231
 20
63.2929522237575
 30
0.0
 11
116.349864707231
 21
64.6929522446191
 31
0.0
  0
LINE
  5
   563
  8
0
  6
CONTINUOUS
 62
     7
 10
117.469864723921
 20
63.2929522237575
 30
0.0
 11
117.469864723921
 21
64.6929522446191
 31
0.0
  0
LINE
  5
   564
  8
0
  6
CONTINUOUS
 62
     7
 10
117.789864728689
 20
63.2929522237575
 30
0.0
 11
117.789864728689
 21
64.7729522458112
 31
0.0
  0
LINE
  5
   565
  8
0
  6
CONTINUOUS
 62
     7
 10
116.349864707231
 20
65.5729522577321
 30
0.0
 11
116.029864702463
 21
65.5729522577321
 31
0.0
  0
ARC
  5
   566
  8
0
  6
CONTINUOUS
 62
     7
 10
116.909864715576
 20
64.6929522446191
 30
0.0
 40
0.56000000834465
 50
359.999999948034
 51
539.999999948034
  0
LINE
  5
   567
  8
0
  6
CONTINUOUS
 62
     7
 10
116.349864707231
 20
65.2529522529638
 30
0.0
 11
116.349864707231
 21
65.5729522577322
 31
0.0
  0
ARC
  5
   568
  8
0
  6
CONTINUOUS
 62
     7
 10
116.989864716768
 20
64.7729522458112
 30
0.0
 40
0.800000011920929
 50
359.999999948034
 51
503.13010230219
  0
LINE
  5
   569
  8
0
  6
CONTINUOUS
 62
     7
 10
117.789864728689
 20
63.2929522237575
 30
0.0
 11
117.469864723921
 21
63.2929522237575
 31
0.0
  0
LINE
  5
   56A
  8
0
  6
CONTINUOUS
 62
     7
 10
98.969854308833
 20
129.53295626257
 30
0.0
 11
98.969854308833
 21
130.732956280451
 31
0.0
  0
LINE
  5
   56B
  8
0
  6
CONTINUOUS
 62
     7
 10
100.369854329695
 20
129.53295626257
 30
0.0
 11
100.369854329695
 21
130.732956280451
 31
0.0
  0
LINE
  5
   56C
  8
0
  6
CONTINUOUS
 62
     7
 10
98.6698543043627
 20
128.132956241708
 30
0.0
 11
98.6698543043627
 21
129.53295626257
 31
0.0
  0
LINE
  5
   56D
  8
0
  6
CONTINUOUS
 62
     7
 10
100.669854334165
 20
128.132956241708
 30
0.0
 11
100.669854334165
 21
129.53295626257
 31
0.0
  0
LINE
  5
   56E
  8
0
  6
CONTINUOUS
 62
     7
 10
100.669854334165
 20
129.53295626257
 30
0.0
 11
100.369854329695
 21
129.53295626257
 31
0.0
  0
LINE
  5
   56F
  8
0
  6
CONTINUOUS
 62
     7
 10
98.969854308833
 20
129.53295626257
 30
0.0
 11
98.6698543043627
 21
129.53295626257
 31
0.0
  0
LINE
  5
   570
  8
0
  6
CONTINUOUS
 62
     7
 10
86.0698681384325
 20
67.2329522824681
 30
0.0
 11
85.669868156325
 21
67.2329522824681
 31
0.0
  0
LINE
  5
   571
  8
0
  6
CONTINUOUS
 62
     7
 10
86.0698681384325
 20
66.8329522765076
 30
0.0
 11
85.669868156316
 21
66.8329522765076
 31
0.0
  0
LINE
  5
   572
  8
0
  6
CONTINUOUS
 62
     7
 10
86.0698681384325
 20
62.032952204982
 30
0.0
 11
85.669868156316
 21
62.032952204982
 31
0.0
  0
LINE
  5
   573
  8
0
  6
CONTINUOUS
 62
     7
 10
86.0698681384325
 20
61.6329521990216
 30
0.0
 11
85.6698681563047
 21
61.6329521990216
 31
0.0
  0
LINE
  5
   574
  8
0
  6
CONTINUOUS
 62
     7
 10
86.0698681384325
 20
53.8329597769647
 30
0.0
 11
85.6698681563047
 21
53.8329597769647
 31
0.0
  0
LINE
  5
   575
  8
0
  6
CONTINUOUS
 62
     7
 10
86.0698681384325
 20
53.4329597710019
 30
0.0
 11
85.6698681563119
 21
53.4329597710019
 31
0.0
  0
LINE
  5
   576
  8
0
  6
CONTINUOUS
 62
     7
 10
86.0698681384325
 20
48.6329520053065
 30
0.0
 11
85.6698681563119
 21
48.6329520053065
 31
0.0
  0
LINE
  5
   577
  8
0
  6
CONTINUOUS
 62
     7
 10
86.0698681384325
 20
48.232951999346
 30
0.0
 11
85.6698681563139
 21
48.232951999346
 31
0.0
  0
LINE
  5
   578
  8
0
  6
CONTINUOUS
 62
     7
 10
127.269862672687
 20
67.2329522824681
 30
0.0
 11
86.0698681384325
 21
67.2329522824681
 31
0.0
  0
LINE
  5
   579
  8
0
  6
CONTINUOUS
 62
     7
 10
127.269862672687
 20
66.8329522765076
 30
0.0
 11
86.0698681384325
 21
66.8329522765076
 31
0.0
  0
LINE
  5
   57A
  8
0
  6
CONTINUOUS
 62
     7
 10
127.269862672687
 20
62.032952204982
 30
0.0
 11
110.969868533313
 21
62.032952204982
 31
0.0
  0
LINE
  5
   57B
  8
0
  6
CONTINUOUS
 62
     7
 10
127.269862672687
 20
61.6329521990216
 30
0.0
 11
110.969868533313
 21
61.6329521990216
 31
0.0
  0
LINE
  5
   57C
  8
0
  6
CONTINUOUS
 62
     7
 10
127.269862672687
 20
53.8329565956637
 30
0.0
 11
110.96986733941
 21
53.8329565956637
 31
0.0
  0
LINE
  5
   57D
  8
0
  6
CONTINUOUS
 62
     7
 10
127.269862672687
 20
53.4329565897033
 30
0.0
 11
110.969867192854
 21
53.4329565897033
 31
0.0
  0
LINE
  5
   57E
  8
0
  6
CONTINUOUS
 62
     7
 10
127.269862672687
 20
48.6329520053065
 30
0.0
 11
86.0698681384325
 21
48.6329520053065
 31
0.0
  0
LINE
  5
   57F
  8
0
  6
CONTINUOUS
 62
     7
 10
127.269862672687
 20
48.232951999346
 30
0.0
 11
86.0698681384325
 21
48.232951999346
 31
0.0
  0
LINE
  5
   580
  8
0
  6
DASHDOT
 62
     7
 10
113.669862787485
 20
29.1329537363484
 30
0.0
 11
113.669862787485
 21
37.8156166727979
 31
0.0
  0
LINE
  5
   581
  8
0
  6
CONTINUOUS
 62
     7
 10
110.969868533313
 20
55.383080389659
 30
0.0
 11
102.369868405163
 21
55.383080389659
 31
0.0
  0
LINE
  5
   582
  8
0
  6
CONTINUOUS
 62
     7
 10
110.969868533313
 20
52.9364941509552
 30
0.0
 11
102.369868405163
 21
52.9364941509552
 31
0.0
  0
LINE
  5
   583
  8
0
  6
CONTINUOUS
 62
     7
 10
110.969868533313
 20
50.5573666650188
 30
0.0
 11
102.369868405163
 21
50.5573666650188
 31
0.0
  0
LINE
  5
   584
  8
0
  6
CONTINUOUS
 62
     7
 10
110.969868533313
 20
50.2362678091467
 30
0.0
 11
102.369868405163
 21
50.2362678091467
 31
0.0
  0
LINE
  5
   585
  8
0
  6
DASHDOT
 62
     7
 10
138.502361132471
 20
61.8329583055175
 30
0.0
 11
70.881998701475
 21
61.8329583055175
 31
0.0
  0
LINE
  5
   586
  8
0
  6
DASHDOT
 62
     7
 10
63.5204753865134
 20
61.8329583055175
 30
0.0
 11
55.4773295423888
 21
61.8329583055175
 31
0.0
  0
INSERT
  5
   587
  8
255
  6
CONTINUOUS
 62
     7
  2
$1MOSTRINA
 10
60.7345650503739
 20
17.8407091148257
 30
0.0
 41
0.400000005960464
 42
0.400000005960464
 50
3.50835464724173E-15
 43
0.400000005960464
  0
LINE
  5
   588
  8
0
  6
CONTINUOUS
 62
     3
 10
127.169861594344
 20
131.732956295352
 30
0.0
 11
101.917579471786
 21
131.732956295352
 31
0.0
  0
LINE
  5
   589
  8
0
  6
CONTINUOUS
 62
     3
 10
127.669883152866
 20
94.0329587853349
 30
0.0
 11
127.669883152866
 21
131.232911267013
 31
0.0
  0
LINE
  5
   58A
  8
0
  6
CONTINUOUS
 62
     3
 10
127.523416041368
 20
131.586511184725
 30
0.0
 11
127.16986378773
 21
131.732958943439
 31
0.0
  0
LINE
  5
   58B
  8
0
  6
CONTINUOUS
 62
     3
 10
127.669862588891
 20
131.23296091229
 30
0.0
 11
127.523414830177
 21
131.586513165928
 31
0.0
  0
LINE
  5
   58C
  8
0
  6
CONTINUOUS
 62
     3
 10
126.729862198139
 20
121.332954133749
 30
0.0
 11
126.729862198139
 21
131.608694818891
 31
0.0
  0
LINE
  5
   58D
  8
0
  6
CONTINUOUS
 62
     3
 10
125.289862787033
 20
121.332954133749
 30
0.0
 11
125.289862787033
 21
131.608694818891
 31
0.0
  0
LINE
  5
   58E
  8
0
  6
CONTINUOUS
 62
     3
 10
123.849863375927
 20
121.332954133749
 30
0.0
 11
123.849863375927
 21
131.608694818891
 31
0.0
  0
LINE
  5
   58F
  8
0
  6
CONTINUOUS
 62
     3
 10
122.409863964821
 20
121.332954133749
 30
0.0
 11
122.409863964821
 21
131.608694818891
 31
0.0
  0
LINE
  5
   590
  8
0
  6
CONTINUOUS
 62
     3
 10
120.969861501957
 20
121.332954133749
 30
0.0
 11
120.969861501957
 21
131.608694818891
 31
0.0
  0
LINE
  5
   591
  8
0
  6
CONTINUOUS
 62
     3
 10
119.529862090851
 20
121.332954133749
 30
0.0
 11
119.529862090851
 21
131.608694818891
 31
0.0
  0
LINE
  5
   592
  8
0
  6
CONTINUOUS
 62
     3
 10
118.089862679745
 20
121.332954133749
 30
0.0
 11
118.089862679745
 21
131.608694818891
 31
0.0
  0
LINE
  5
   593
  8
0
  6
CONTINUOUS
 62
     3
 10
116.649863268639
 20
121.332954133749
 30
0.0
 11
116.649863268639
 21
131.608694818891
 31
0.0
  0
LINE
  5
   594
  8
0
  6
CONTINUOUS
 62
     3
 10
115.209863857533
 20
121.332954133749
 30
0.0
 11
115.209863857533
 21
131.608694818891
 31
0.0
  0
LINE
  5
   595
  8
0
  6
CONTINUOUS
 62
     3
 10
113.769861394669
 20
121.332954133749
 30
0.0
 11
113.769861394669
 21
131.608694818891
 31
0.0
  0
LINE
  5
   596
  8
0
  6
CONTINUOUS
 62
     3
 10
112.329861983563
 20
121.332954133749
 30
0.0
 11
112.329861983563
 21
131.608694818891
 31
0.0
  0
LINE
  5
   597
  8
0
  6
CONTINUOUS
 62
     3
 10
110.889862572456
 20
121.332954133749
 30
0.0
 11
110.889862572456
 21
131.608694818891
 31
0.0
  0
LINE
  5
   598
  8
0
  6
CONTINUOUS
 62
     3
 10
109.44986316135
 20
121.332954133749
 30
0.0
 11
109.44986316135
 21
131.608694818891
 31
0.0
  0
LINE
  5
   599
  8
0
  6
CONTINUOUS
 62
     3
 10
108.009862224365
 20
121.332954133749
 30
0.0
 11
108.009862224365
 21
131.608694818891
 31
0.0
  0
LINE
  5
   59A
  8
0
  6
CONTINUOUS
 62
     3
 10
106.569862813259
 20
121.332954133749
 30
0.0
 11
106.569862813259
 21
131.608694818891
 31
0.0
  0
LINE
  5
   59B
  8
0
  6
CONTINUOUS
 62
     3
 10
105.129863402153
 20
121.332954133749
 30
0.0
 11
105.129863402153
 21
131.608694818891
 31
0.0
  0
LINE
  5
   59C
  8
0
  6
CONTINUOUS
 62
     3
 10
103.689862465168
 20
121.332954133749
 30
0.0
 11
103.689862465168
 21
131.608694818891
 31
0.0
  0
LINE
  5
   59D
  8
0
  6
CONTINUOUS
 62
     3
 10
102.249863054062
 20
121.332954133749
 30
0.0
 11
102.249863054062
 21
131.608694818891
 31
0.0
  0
POLYLINE
  5
   59E
  8
0
  6
CONTINUOUS
 62
     3
 66
     1
 10
0.0
 20
0.0
 30
0.0
  0
VERTEX
  5
   59F
  8
0
  6
CONTINUOUS
 10
101.917579471786
 20
131.732956008298
 30
0.0
 40
0.0
 41
0.0
  0
VERTEX
  5
   5A0
  8
0
  6
CONTINUOUS
 10
101.854633116331
 20
131.683078285694
 30
0.0
 40
0.0
 41
0.0
  0
VERTEX
  5
   5A1
  8
0
  6
CONTINUOUS
 10
101.795053262358
 20
131.632092519484
 30
0.0
 40
0.0
 41
0.0
  0
VERTEX
  5
   5A2
  8
0
  6
CONTINUOUS
 10
101.738829160551
 20
131.580001363581
 30
0.0
 40
0.0
 41
0.0
  0
VERTEX
  5
   5A3
  8
0
  6
CONTINUOUS
 10
101.685946363149
 20
131.526808385013
 30
0.0
 40
0.0
 41
0.0
  0
VERTEX
  5
   5A4
  8
0
  6
CONTINUOUS
 10
101.636386175109
 20
131.472518199424
 30
0.0
 40
0.0
 41
0.0
  0
VERTEX
  5
   5A5
  8
0
  6
CONTINUOUS
 10
101.612844920968
 20
131.444963416463
 30
0.0
 40
0.0
 41
0.0
  0
VERTEX
  5
   5A6
  8
0
  6
CONTINUOUS
 10
101.590125105271
 20
131.417136606578
 30
0.0
 40
0.0
 41
0.0
  0
VERTEX
  5
   5A7
  8
0
  6
CONTINUOUS
 10
101.568222952186
 20
131.38903870199
 30
0.0
 40
0.0
 41
0.0
  0
VERTEX
  5
   5A8
  8
0
  6
CONTINUOUS
 10
101.547134317519
 20
131.360670725864
 30
0.0
 40
0.0
 41
0.0
  0
VERTEX
  5
   5A9
  8
0
  6
CONTINUOUS
 10
101.526854671561
 20
131.332033796546
 30
0.0
 40
0.0
 41
0.0
  0
VERTEX
  5
   5AA
  8
0
  6
CONTINUOUS
 10
101.507379081942
 20
131.303129131796
 30
0.0
 40
0.0
 41
0.0
  0
VERTEX
  5
   5AB
  8
0
  6
CONTINUOUS
 10
101.488702196473
 20
131.273958053023
 30
0.0
 40
0.0
 41
0.0
  0
VERTEX
  5
   5AC
  8
0
  6
CONTINUOUS
 10
101.470818226001
 20
131.244521989519
 30
0.0
 40
0.0
 41
0.0
  0
VERTEX
  5
   5AD
  8
0
  6
CONTINUOUS
 10
101.453720927252
 20
131.214822482694
 30
0.0
 40
0.0
 41
0.0
  0
VERTEX
  5
   5AE
  8
0
  6
CONTINUOUS
 10
101.437403585686
 20
131.18486119031
 30
0.0
 40
0.0
 41
0.0
  0
VERTEX
  5
   5AF
  8
0
  6
CONTINUOUS
 10
101.421858998341
 20
131.154639890717
 30
0.0
 40
0.0
 41
0.0
  0
VERTEX
  5
   5B0
  8
0
  6
CONTINUOUS
 10
101.407079456684
 20
131.124160487084
 30
0.0
 40
0.0
 41
0.0
  0
VERTEX
  5
   5B1
  8
0
  6
CONTINUOUS
 10
101.379782045539
 20
131.062435629894
 30
0.0
 40
0.0
 41
0.0
  0
VERTEX
  5
   5B2
  8
0
  6
CONTINUOUS
 10
101.355438920814
 20
130.999704501436
 30
0.0
 40
0.0
 41
0.0
  0
VERTEX
  5
   5B3
  8
0
  6
CONTINUOUS
 10
101.333968464255
 20
130.935987252551
 30
0.0
 40
0.0
 41
0.0
  0
VERTEX
  5
   5B4
  8
0
  6
CONTINUOUS
 10
101.315279321952
 20
130.871306437731
 30
0.0
 40
0.0
 41
0.0
  0
VERTEX
  5
   5B5
  8
0
  6
CONTINUOUS
 10
101.299269855506
 20
130.805687150618
 30
0.0
 40
0.0
 41
0.0
  0
VERTEX
  5
   5B6
  8
0
  6
CONTINUOUS
 10
101.285827593184
 20
130.739157159513
 30
0.0
 40
0.0
 41
0.0
  0
VERTEX
  5
   5B7
  8
0
  6
CONTINUOUS
 10
101.274828681089
 20
130.671747042872
 30
0.0
 40
0.0
 41
0.0
  0
VERTEX
  5
   5B8
  8
0
  6
CONTINUOUS
 10
101.266137334321
 20
130.603490324814
 30
0.0
 40
0.0
 41
0.0
  0
VERTEX
  5
   5B9
  8
0
  6
CONTINUOUS
 10
101.259605288134
 20
130.534423610623
 30
0.0
 40
0.0
 41
0.0
  0
VERTEX
  5
   5BA
  8
0
  6
CONTINUOUS
 10
101.25415860352
 20
130.445406541324
 30
0.0
 40
0.0
 41
0.0
  0
VERTEX
  5
   5BB
  8
0
  6
CONTINUOUS
 10
101.251584789115
 20
130.355231749628
 30
0.0
 40
0.0
 41
0.0
  0
VERTEX
  5
   5BC
  8
0
  6
CONTINUOUS
 10
101.251490466682
 20
130.263996990748
 30
0.0
 40
0.0
 41
0.0
  0
VERTEX
  5
   5BD
  8
0
  6
CONTINUOUS
 10
101.25345682515
 20
130.171807312686
 30
0.0
 40
0.0
 41
0.0
  0
VERTEX
  5
   5BE
  8
0
  6
CONTINUOUS
 10
101.257044721484
 20
130.078774303689
 30
0.0
 40
0.0
 41
0.0
  0
VERTEX
  5
   5BF
  8
0
  6
CONTINUOUS
 10
101.261799781566
 20
129.98501533971
 30
0.0
 40
0.0
 41
0.0
  0
VERTEX
  5
   5C0
  8
0
  6
CONTINUOUS
 10
101.272948346325
 20
129.795813473873
 30
0.0
 40
0.0
 41
0.0
  0
VERTEX
  5
   5C1
  8
0
  6
CONTINUOUS
 10
101.283156738049
 20
129.605227880271
 30
0.0
 40
0.0
 41
0.0
  0
VERTEX
  5
   5C2
  8
0
  6
CONTINUOUS
 10
101.286755978402
 20
129.509749672344
 30
0.0
 40
0.0
 41
0.0
  0
VERTEX
  5
   5C3
  8
0
  6
CONTINUOUS
 10
101.288761934039
 20
129.414329164571
 30
0.0
 40
0.0
 41
0.0
  0
VERTEX
  5
   5C4
  8
0
  6
CONTINUOUS
 10
101.288756437764
 20
129.319103175658
 30
0.0
 40
0.0
 41
0.0
  0
VERTEX
  5
   5C5
  8
0
  6
CONTINUOUS
 10
101.286346898303
 20
129.224208291672
 30
0.0
 40
0.0
 41
0.0
  0
VERTEX
  5
   5C6
  8
0
  6
CONTINUOUS
 10
101.281171401176
 20
129.129780113513
 30
0.0
 40
0.0
 41
0.0
  0
VERTEX
  5
   5C7
  8
0
  6
CONTINUOUS
 10
101.277442963693
 20
129.082782959818
 30
0.0
 40
0.0
 41
0.0
  0
VERTEX
  5
   5C8
  8
0
  6
CONTINUOUS
 10
101.272903809577
 20
129.035952504359
 30
0.0
 40
0.0
 41
0.0
  0
VERTEX
  5
   5C9
  8
0
  6
CONTINUOUS
 10
101.267519598848
 20
128.98930508505
 30
0.0
 40
0.0
 41
0.0
  0
VERTEX
  5
   5CA
  8
0
  6
CONTINUOUS
 10
101.261258865245
 20
128.942856837132
 30
0.0
 40
0.0
 41
0.0
  0
VERTEX
  5
   5CB
  8
0
  6
CONTINUOUS
 10
101.254093175621
 20
128.896623669655
 30
0.0
 40
0.0
 41
0.0
  0
VERTEX
  5
   5CC
  8
0
  6
CONTINUOUS
 10
101.245997289347
 20
128.850621241956
 30
0.0
 40
0.0
 41
0.0
  0
VERTEX
  5
   5CD
  8
0
  6
CONTINUOUS
 10
101.236949317716
 20
128.80486494015
 30
0.0
 40
0.0
 41
0.0
  0
VERTEX
  5
   5CE
  8
0
  6
CONTINUOUS
 10
101.226930883344
 20
128.759369853609
 30
0.0
 40
0.0
 41
0.0
  0
VERTEX
  5
   5CF
  8
0
  6
CONTINUOUS
 10
101.215927279574
 20
128.714150751443
 30
0.0
 40
0.0
 41
0.0
  0
VERTEX
  5
   5D0
  8
0
  6
CONTINUOUS
 10
101.203927629876
 20
128.669222058987
 30
0.0
 40
0.0
 41
0.0
  0
VERTEX
  5
   5D1
  8
0
  6
CONTINUOUS
 10
101.185786301623
 20
128.607933869407
 30
0.0
 40
0.0
 41
0.0
  0
VERTEX
  5
   5D2
  8
0
  6
CONTINUOUS
 10
101.165743237888
 20
128.547256768596
 30
0.0
 40
0.0
 41
0.0
  0
VERTEX
  5
   5D3
  8
0
  6
CONTINUOUS
 10
101.143806817237
 20
128.487224355715
 30
0.0
 40
0.0
 41
0.0
  0
VERTEX
  5
   5D4
  8
0
  6
CONTINUOUS
 10
101.119998240411
 20
128.427868229653
 30
0.0
 40
0.0
 41
0.0
  0
VERTEX
  5
   5D5
  8
0
  6
CONTINUOUS
 10
101.09435052087
 20
128.369217687867
 30
0.0
 40
0.0
 41
0.0
  0
VERTEX
  5
   5D6
  8
0
  6
CONTINUOUS
 10
101.066907475334
 20
128.311299425226
 30
0.0
 40
0.0
 41
0.0
  0
VERTEX
  5
   5D7
  8
0
  6
CONTINUOUS
 10
101.037722714336
 20
128.254137232858
 30
0.0
 40
0.0
 41
0.0
  0
VERTEX
  5
   5D8
  8
0
  6
CONTINUOUS
 10
101.00685863276
 20
128.197751696991
 30
0.0
 40
0.0
 41
0.0
  0
VERTEX
  5
   5D9
  8
0
  6
CONTINUOUS
 10
100.97438540039
 20
128.142159897797
 30
0.0
 40
0.0
 41
0.0
  0
VERTEX
  5
   5DA
  8
0
  6
CONTINUOUS
 10
100.940379952453
 20
128.087375108237
 30
0.0
 40
0.0
 41
0.0
  0
VERTEX
  5
   5DB
  8
0
  6
CONTINUOUS
 10
100.904924980167
 20
128.033406492904
 30
0.0
 40
0.0
 41
0.0
  0
VERTEX
  5
   5DC
  8
0
  6
CONTINUOUS
 10
100.868107921283
 20
127.980258806868
 30
0.0
 40
0.0
 41
0.0
  0
VERTEX
  5
   5DD
  8
0
  6
CONTINUOUS
 10
100.83001995063
 20
127.927932094517
 30
0.0
 40
0.0
 41
0.0
  0
VERTEX
  5
   5DE
  8
0
  6
CONTINUOUS
 10
100.790754970664
 20
127.876421388405
 30
0.0
 40
0.0
 41
0.0
  0
VERTEX
  5
   5DF
  8
0
  6
CONTINUOUS
 10
100.750408602008
 20
127.82571640809
 30
0.0
 40
0.0
 41
0.0
  0
VERTEX
  5
   5E0
  8
0
  6
CONTINUOUS
 10
100.709077174002
 20
127.775801258987
 30
0.0
 40
0.0
 41
0.0
  0
VERTEX
  5
   5E1
  8
0
  6
CONTINUOUS
 10
100.666856715244
 20
127.7266541312
 30
0.0
 40
0.0
 41
0.0
  0
VERTEX
  5
   5E2
  8
0
  6
CONTINUOUS
 10
100.623841944136
 20
127.678246998376
 30
0.0
 40
0.0
 41
0.0
  0
VERTEX
  5
   5E3
  8
0
  6
CONTINUOUS
 10
100.580125259433
 20
127.630545316544
 30
0.0
 40
0.0
 41
0.0
  0
VERTEX
  5
   5E4
  8
0
  6
CONTINUOUS
 10
100.535795730782
 20
127.583507722959
 30
0.0
 40
0.0
 41
0.0
  0
VERTEX
  5
   5E5
  8
0
  6
CONTINUOUS
 10
100.480775281087
 20
127.52671466367
 30
0.0
 40
0.0
 41
0.0
  0
VERTEX
  5
   5E6
  8
0
  6
CONTINUOUS
 10
100.425107585106
 20
127.470741457546
 30
0.0
 40
0.0
 41
0.0
  0
VERTEX
  5
   5E7
  8
0
  6
CONTINUOUS
 10
100.312363119868
 20
127.360769372733
 30
0.0
 40
0.0
 41
0.0
  0
VERTEX
  5
   5E8
  8
0
  6
CONTINUOUS
 10
100.084570241774
 20
127.144752800696
 30
0.0
 40
0.0
 41
0.0
  0
VERTEX
  5
   5E9
  8
0
  6
CONTINUOUS
 10
99.9712905494481
 20
127.036227111035
 30
0.0
 40
0.0
 41
0.0
  0
VERTEX
  5
   5EA
  8
0
  6
CONTINUOUS
 10
99.9151882580366
 20
126.981279644692
 30
0.0
 40
0.0
 41
0.0
  0
VERTEX
  5
   5EB
  8
0
  6
CONTINUOUS
 10
99.8595980196122
 20
126.925671524245
 30
0.0
 40
0.0
 41
0.0
  0
VERTEX
  5
   5EC
  8
0
  6
CONTINUOUS
 10
99.8046424049366
 20
126.86925785101
 30
0.0
 40
0.0
 41
0.0
  0
VERTEX
  5
   5ED
  8
0
  6
CONTINUOUS
 10
99.7504518197584
 20
126.811902944851
 30
0.0
 40
0.0
 41
0.0
  0
VERTEX
  5
   5EE
  8
0
  6
CONTINUOUS
 10
99.697166161703
 20
126.753482505538
 30
0.0
 40
0.0
 41
0.0
  0
VERTEX
  5
   5EF
  8
0
  6
CONTINUOUS
 10
99.6449364771635
 20
126.693885774109
 30
0.0
 40
0.0
 41
0.0
  0
VERTEX
  5
   5F0
  8
0
  6
CONTINUOUS
 10
99.5939266181907
 20
126.633017694234
 30
0.0
 40
0.0
 41
0.0
  0
VERTEX
  5
   5F1
  8
0
  6
CONTINUOUS
 10
99.5443148993843
 20
126.570801073574
 30
0.0
 40
0.0
 41
0.0
  0
VERTEX
  5
   5F2
  8
0
  6
CONTINUOUS
 10
99.4962957547829
 20
126.507178745144
 30
0.0
 40
0.0
 41
0.0
  0
VERTEX
  5
   5F3
  8
0
  6
CONTINUOUS
 10
99.4500813947547
 20
126.442115728674
 30
0.0
 40
0.0
 41
0.0
  0
VERTEX
  5
   5F4
  8
0
  6
CONTINUOUS
 10
99.4198040352643
 20
126.397043722529
 30
0.0
 40
0.0
 41
0.0
  0
VERTEX
  5
   5F5
  8
0
  6
CONTINUOUS
 10
99.3905457872031
 20
126.351303463223
 30
0.0
 40
0.0
 41
0.0
  0
VERTEX
  5
   5F6
  8
0
  6
CONTINUOUS
 10
99.3623876329045
 20
126.30490355846
 30
0.0
 40
0.0
 41
0.0
  0
VERTEX
  5
   5F7
  8
0
  6
CONTINUOUS
 10
99.3354121809578
 20
126.257857405623
 30
0.0
 40
0.0
 41
0.0
  0
VERTEX
  5
   5F8
  8
0
  6
CONTINUOUS
 10
99.3097022247091
 20
126.210182752634
 30
0.0
 40
0.0
 41
0.0
  0
VERTEX
  5
   5F9
  8
0
  6
CONTINUOUS
 10
99.2853393007623
 20
126.161901258816
 30
0.0
 40
0.0
 41
0.0
  0
VERTEX
  5
   5FA
  8
0
  6
CONTINUOUS
 10
99.2624022474801
 20
126.113038055759
 30
0.0
 40
0.0
 41
0.0
  0
VERTEX
  5
   5FB
  8
0
  6
CONTINUOUS
 10
99.240965763485
 20
126.063621308175
 30
0.0
 40
0.0
 41
0.0
  0
VERTEX
  5
   5FC
  8
0
  6
CONTINUOUS
 10
99.2210989661599
 20
126.013681774764
 30
0.0
 40
0.0
 41
0.0
  0
VERTEX
  5
   5FD
  8
0
  6
CONTINUOUS
 10
99.2028639501495
 20
125.963252369076
 30
0.0
 40
0.0
 41
0.0
  0
VERTEX
  5
   5FE
  8
0
  6
CONTINUOUS
 10
99.1863143458614
 20
125.912367720371
 30
0.0
 40
0.0
 41
0.0
  0
VERTEX
  5
   5FF
  8
0
  6
CONTINUOUS
 10
99.1714938779663
 20
125.86106373448
 30
0.0
 40
0.0
 41
0.0
  0
VERTEX
  5
   600
  8
0
  6
CONTINUOUS
 10
99.1584349238997
 20
125.809377154671
 30
0.0
 40
0.0
 41
0.0
  0
VERTEX
  5
   601
  8
0
  6
CONTINUOUS
 10
99.1471570723625
 20
125.757345122507
 30
0.0
 40
0.0
 41
0.0
  0
VERTEX
  5
   602
  8
0
  6
CONTINUOUS
 10
99.1376656818223
 20
125.705004738707
 30
0.0
 40
0.0
 41
0.0
  0
VERTEX
  5
   603
  8
0
  6
CONTINUOUS
 10
99.1299504390137
 20
125.652392624013
 30
0.0
 40
0.0
 41
0.0
  0
VERTEX
  5
   604
  8
0
  6
CONTINUOUS
 10
99.1239839174401
 20
125.599544480045
 30
0.0
 40
0.0
 41
0.0
  0
VERTEX
  5
   605
  8
0
  6
CONTINUOUS
 10
99.1197201358741
 20
125.546494650168
 30
0.0
 40
0.0
 41
0.0
  0
VERTEX
  5
   606
  8
0
  6
CONTINUOUS
 10
99.1170931168586
 20
125.493275680352
 30
0.0
 40
0.0
 41
0.0
  0
VERTEX
  5
   607
  8
0
  6
CONTINUOUS
 10
99.1160154452078
 20
125.439917880034
 30
0.0
 40
0.0
 41
0.0
  0
VERTEX
  5
   608
  8
0
  6
CONTINUOUS
 10
99.1161807564658
 20
125.398189460541
 30
0.0
 40
0.0
 41
0.0
  0
VERTEX
  5
   609
  8
0
  6
CONTINUOUS
 10
99.1171609968598
 20
125.356405258561
 30
0.0
 40
0.0
 41
0.0
  0
VERTEX
  5
   60A
  8
0
  6
CONTINUOUS
 10
99.1212768141174
 20
125.27271211963
 30
0.0
 40
0.0
 41
0.0
  0
VERTEX
  5
   60B
  8
0
  6
CONTINUOUS
 10
99.1277160905755
 20
125.188915430186
 30
0.0
 40
0.0
 41
0.0
  0
VERTEX
  5
   60C
  8
0
  6
CONTINUOUS
 10
99.1357426583378
 20
125.105081792205
 30
0.0
 40
0.0
 41
0.0
  0
VERTEX
  5
   60D
  8
0
  6
CONTINUOUS
 10
99.1533314951937
 20
124.93754266406
 30
0.0
 40
0.0
 41
0.0
  0
VERTEX
  5
   60E
  8
0
  6
CONTINUOUS
 10
99.1612225807261
 20
124.853955168594
 30
0.0
 40
0.0
 41
0.0
  0
VERTEX
  5
   60F
  8
0
  6
CONTINUOUS
 10
99.167413692593
 20
124.770574850789
 30
0.0
 40
0.0
 41
0.0
  0
VERTEX
  5
   610
  8
0
  6
CONTINUOUS
 10
99.1711351215867
 20
124.687477513785
 30
0.0
 40
0.0
 41
0.0
  0
VERTEX
  5
   611
  8
0
  6
CONTINUOUS
 10
99.1718491837306
 20
124.646062380871
 30
0.0
 40
0.0
 41
0.0
  0
VERTEX
  5
   612
  8
0
  6
CONTINUOUS
 10
99.1716931034656
 20
124.604753006167
 30
0.0
 40
0.0
 41
0.0
  0
VERTEX
  5
   613
  8
0
  6
CONTINUOUS
 10
99.1707534612581
 20
124.567762470613
 30
0.0
 40
0.0
 41
0.0
  0
VERTEX
  5
   614
  8
0
  6
CONTINUOUS
 10
99.1690099651067
 20
124.530879661778
 30
0.0
 40
0.0
 41
0.0
  0
VERTEX
  5
   615
  8
0
  6
CONTINUOUS
 10
99.1664222735167
 20
124.494116527311
 30
0.0
 40
0.0
 41
0.0
  0
VERTEX
  5
   616
  8
0
  6
CONTINUOUS
 10
99.1629550188957
 20
124.457485779152
 30
0.0
 40
0.0
 41
0.0
  0
VERTEX
  5
   617
  8
0
  6
CONTINUOUS
 10
99.158577632467
 20
124.421000825081
 30
0.0
 40
0.0
 41
0.0
  0
VERTEX
  5
   618
  8
0
  6
CONTINUOUS
 10
99.1532641691817
 20
124.384675700257
 30
0.0
 40
0.0
 41
0.0
  0
VERTEX
  5
   619
  8
0
  6
CONTINUOUS
 10
99.1469931326321
 20
124.348524998764
 30
0.0
 40
0.0
 41
0.0
  0
VERTEX
  5
   61A
  8
0
  6
CONTINUOUS
 10
99.1397472999642
 20
124.312563805159
 30
0.0
 40
0.0
 41
0.0
  0
VERTEX
  5
   61B
  8
0
  6
CONTINUOUS
 10
99.1315135467905
 20
124.276807626012
 30
0.0
 40
0.0
 41
0.0
  0
VERTEX
  5
   61C
  8
0
  6
CONTINUOUS
 10
99.1222826721029
 20
124.241272321456
 30
0.0
 40
0.0
 41
0.0
  0
VERTEX
  5
   61D
  8
0
  6
CONTINUOUS
 10
99.1120492231855
 20
124.205974036727
 30
0.0
 40
0.0
 41
0.0
  0
VERTEX
  5
   61E
  8
0
  6
CONTINUOUS
 10
99.1008113205273
 20
124.170929133709
 30
0.0
 40
0.0
 41
0.0
  0
VERTEX
  5
   61F
  8
0
  6
CONTINUOUS
 10
99.0885704827349
 20
124.136154122482
 30
0.0
 40
0.0
 41
0.0
  0
VERTEX
  5
   620
  8
0
  6
CONTINUOUS
 10
99.0753314514458
 20
124.101665592865
 30
0.0
 40
0.0
 41
0.0
  0
VERTEX
  5
   621
  8
0
  6
CONTINUOUS
 10
99.0611020162404
 20
124.067480145959
 30
0.0
 40
0.0
 41
0.0
  0
VERTEX
  5
   622
  8
0
  6
CONTINUOUS
 10
99.0458928395557
 20
124.033614325695
 30
0.0
 40
0.0
 41
0.0
  0
VERTEX
  5
   623
  8
0
  6
CONTINUOUS
 10
99.0297172815973
 20
124.000084550374
 30
0.0
 40
0.0
 41
0.0
  0
VERTEX
  5
   624
  8
0
  6
CONTINUOUS
 10
99.0125912252527
 20
123.966907044218
 30
0.0
 40
0.0
 41
0.0
  0
VERTEX
  5
   625
  8
0
  6
CONTINUOUS
 10
98.994532901004
 20
123.934097768908
 30
0.0
 40
0.0
 41
0.0
  0
VERTEX
  5
   626
  8
0
  6
CONTINUOUS
 10
98.9755627118403
 20
123.901672355134
 30
0.0
 40
0.0
 41
0.0
  0
VERTEX
  5
   627
  8
0
  6
CONTINUOUS
 10
98.9557030581713
 20
123.869646034138
 30
0.0
 40
0.0
 41
0.0
  0
VERTEX
  5
   628
  8
0
  6
CONTINUOUS
 10
98.9349781627394
 20
123.838033569256
 30
0.0
 40
0.0
 41
0.0
  0
VERTEX
  5
   629
  8
0
  6
CONTINUOUS
 10
98.9134138955327
 20
123.806849187467
 30
0.0
 40
0.0
 41
0.0
  0
VERTEX
  5
   62A
  8
0
  6
CONTINUOUS
 10
98.8910375986979
 20
123.776106510934
 30
0.0
 40
0.0
 41
0.0
  0
VERTEX
  5
   62B
  8
0
  6
CONTINUOUS
 10
98.8678779114529
 20
123.745818488552
 30
0.0
 40
0.0
 41
0.0
  0
VERTEX
  5
   62C
  8
0
  6
CONTINUOUS
 10
98.8439645950001
 20
123.715997327489
 30
0.0
 40
0.0
 41
0.0
  0
VERTEX
  5
   62D
  8
0
  6
CONTINUOUS
 10
98.8193283574383
 20
123.686654424735
 30
0.0
 40
0.0
 41
0.0
  0
VERTEX
  5
   62E
  8
0
  6
CONTINUOUS
 10
98.7940006786765
 20
123.657800298644
 30
0.0
 40
0.0
 41
0.0
  0
VERTEX
  5
   62F
  8
0
  6
CONTINUOUS
 10
98.768013635346
 20
123.629444520476
 30
0.0
 40
0.0
 41
0.0
  0
VERTEX
  5
   630
  8
0
  6
CONTINUOUS
 10
98.7413997257133
 20
123.60159564595
 30
0.0
 40
0.0
 41
0.0
  0
VERTEX
  5
   631
  8
0
  6
CONTINUOUS
 10
98.6864223582617
 20
123.547447342219
 30
0.0
 40
0.0
 41
0.0
  0
VERTEX
  5
   632
  8
0
  6
CONTINUOUS
 10
98.6293303418478
 20
123.495400920955
 30
0.0
 40
0.0
 41
0.0
  0
VERTEX
  5
   633
  8
0
  6
CONTINUOUS
 10
98.5703809825819
 20
123.445481285779
 30
0.0
 40
0.0
 41
0.0
  0
VERTEX
  5
   634
  8
0
  6
CONTINUOUS
 10
98.5098215243681
 20
123.397690519865
 30
0.0
 40
0.0
 41
0.0
  0
VERTEX
  5
   635
  8
0
  6
CONTINUOUS
 10
98.447883546114
 20
123.352005695366
 30
0.0
 40
0.0
 41
0.0
  0
VERTEX
  5
   636
  8
0
  6
CONTINUOUS
 10
98.3940559055791
 20
123.314620819091
 30
0.0
 40
0.0
 41
0.0
  0
VERTEX
  5
   637
  8
0
  6
CONTINUOUS
 10
98.3394933108755
 20
123.278688264492
 30
0.0
 40
0.0
 41
0.0
  0
VERTEX
  5
   638
  8
0
  6
CONTINUOUS
 10
98.2842991202138
 20
123.244146200697
 30
0.0
 40
0.0
 41
0.0
  0
VERTEX
  5
   639
  8
0
  6
CONTINUOUS
 10
98.2285644805492
 20
123.210919812131
 30
0.0
 40
0.0
 41
0.0
  0
VERTEX
  5
   63A
  8
0
  6
CONTINUOUS
 10
98.172369368428
 20
123.178922623277
 30
0.0
 40
0.0
 41
0.0
  0
VERTEX
  5
   63B
  8
0
  6
CONTINUOUS
 10
98.1157836308337
 20
123.148057823433
 30
0.0
 40
0.0
 41
0.0
  0
VERTEX
  5
   63C
  8
0
  6
CONTINUOUS
 10
98.0588680260336
 20
123.118219591473
 30
0.0
 40
0.0
 41
0.0
  0
VERTEX
  5
   63D
  8
0
  6
CONTINUOUS
 10
98.0016752644243
 20
123.089294420607
 30
0.0
 40
0.0
 41
0.0
  0
VERTEX
  5
   63E
  8
0
  6
CONTINUOUS
 10
97.8866351180915
 20
123.033698755238
 30
0.0
 40
0.0
 41
0.0
  0
VERTEX
  5
   63F
  8
0
  6
CONTINUOUS
 10
97.7709634697609
 20
122.9802594006
 30
0.0
 40
0.0
 41
0.0
  0
VERTEX
  5
   640
  8
0
  6
CONTINUOUS
 10
97.538649327058
 20
122.875655378959
 30
0.0
 40
0.0
 41
0.0
  0
VERTEX
  5
   641
  8
0
  6
CONTINUOUS
 10
97.4224298580245
 20
122.822446497793
 30
0.0
 40
0.0
 41
0.0
  0
VERTEX
  5
   642
  8
0
  6
CONTINUOUS
 10
97.3064915518289
 20
122.767390283659
 30
0.0
 40
0.0
 41
0.0
  0
VERTEX
  5
   643
  8
0
  6
CONTINUOUS
 10
97.2406994548425
 20
122.734900270368
 30
0.0
 40
0.0
 41
0.0
  0
VERTEX
  5
   644
  8
0
  6
CONTINUOUS
 10
97.1751743017497
 20
122.701434331127
 30
0.0
 40
0.0
 41
0.0
  0
VERTEX
  5
   645
  8
0
  6
CONTINUOUS
 10
97.1099990950009
 20
122.666888854563
 30
0.0
 40
0.0
 41
0.0
  0
VERTEX
  5
   646
  8
0
  6
CONTINUOUS
 10
97.0452659090379
 20
122.631176446913
 30
0.0
 40
0.0
 41
0.0
  0
VERTEX
  5
   647
  8
0
  6
CONTINUOUS
 10
96.9810749327359
 20
122.594224895278
 30
0.0
 40
0.0
 41
0.0
  0
VERTEX
  5
   648
  8
0
  6
CONTINUOUS
 10
96.9175335118446
 20
122.555976130878
 30
0.0
 40
0.0
 41
0.0
  0
VERTEX
  5
   649
  8
0
  6
CONTINUOUS
 10
96.8547551914297
 20
122.516385192309
 30
0.0
 40
0.0
 41
0.0
  0
VERTEX
  5
   64A
  8
0
  6
CONTINUOUS
 10
96.7928587583145
 20
122.475419188799
 30
0.0
 40
0.0
 41
0.0
  0
VERTEX
  5
   64B
  8
0
  6
CONTINUOUS
 10
96.7319672835217
 20
122.433056263462
 30
0.0
 40
0.0
 41
0.0
  0
VERTEX
  5
   64C
  8
0
  6
CONTINUOUS
 10
96.6722071647141
 20
122.389284556553
 30
0.0
 40
0.0
 41
0.0
  0
VERTEX
  5
   64D
  8
0
  6
CONTINUOUS
 10
96.6137071686367
 20
122.344101168725
 30
0.0
 40
0.0
 41
0.0
  0
VERTEX
  5
   64E
  8
0
  6
CONTINUOUS
 10
96.5565974735582
 20
122.297511124286
 30
0.0
 40
0.0
 41
0.0
  0
VERTEX
  5
   64F
  8
0
  6
CONTINUOUS
 10
96.5010087117122
 20
122.24952633445
 30
0.0
 40
0.0
 41
0.0
  0
VERTEX
  5
   650
  8
0
  6
CONTINUOUS
 10
96.4470710117387
 20
122.200164560599
 30
0.0
 40
0.0
 41
0.0
  0
VERTEX
  5
   651
  8
0
  6
CONTINUOUS
 10
96.3949130411259
 20
122.149448377531
 30
0.0
 40
0.0
 41
0.0
  0
VERTEX
  5
   652
  8
0
  6
CONTINUOUS
 10
96.3446610486514
 20
122.097404136722
 30
0.0
 40
0.0
 41
0.0
  0
VERTEX
  5
   653
  8
0
  6
CONTINUOUS
 10
96.2964379068237
 20
122.044060929578
 30
0.0
 40
0.0
 41
0.0
  0
VERTEX
  5
   654
  8
0
  6
CONTINUOUS
 10
96.250362154324
 20
121.989449550692
 30
0.0
 40
0.0
 41
0.0
  0
VERTEX
  5
   655
  8
0
  6
CONTINUOUS
 10
96.2065470384472
 20
121.9336014611
 30
0.0
 40
0.0
 41
0.0
  0
VERTEX
  5
   656
  8
0
  6
CONTINUOUS
 10
96.1650995575437
 20
121.876547751534
 30
0.0
 40
0.0
 41
0.0
  0
VERTEX
  5
   657
  8
0
  6
CONTINUOUS
 10
96.1310335171622
 20
121.825937208855
 30
0.0
 40
0.0
 41
0.0
  0
VERTEX
  5
   658
  8
0
  6
CONTINUOUS
 10
96.0988973327974
 20
121.774454313003
 30
0.0
 40
0.0
 41
0.0
  0
VERTEX
  5
   659
  8
0
  6
CONTINUOUS
 10
96.068747439753
 20
121.722115957053
 30
0.0
 40
0.0
 41
0.0
  0
VERTEX
  5
   65A
  8
0
  6
CONTINUOUS
 10
96.0406359369799
 20
121.668937736053
 30
0.0
 40
0.0
 41
0.0
  0
VERTEX
  5
   65B
  8
0
  6
CONTINUOUS
 10
96.0146107604692
 20
121.614933998936
 30
0.0
 40
0.0
 41
0.0
  0
VERTEX
  5
   65C
  8
0
  6
CONTINUOUS
 10
95.9907158566433
 20
121.560117900413
 30
0.0
 40
0.0
 41
0.0
  0
VERTEX
  5
   65D
  8
0
  6
CONTINUOUS
 10
95.968991355749
 20
121.50450145288
 30
0.0
 40
0.0
 41
0.0
  0
VERTEX
  5
   65E
  8
0
  6
CONTINUOUS
 10
95.9494737452489
 20
121.44809557832
 30
0.0
 40
0.0
 41
0.0
  0
VERTEX
  5
   65F
  8
0
  6
CONTINUOUS
 10
95.9321960432138
 20
121.390910160204
 30
0.0
 40
0.0
 41
0.0
  0
VERTEX
  5
   660
  8
0
  6
CONTINUOUS
 10
95.9171879717149
 20
121.332954095396
 30
0.0
 40
0.0
 41
0.0
  0
SEQEND
  5
   661
  8
0
  6
CONTINUOUS
 62
     3
  0
LINE
  5
   662
  8
0
  6
CONTINUOUS
 62
     7
 10
127.669883152866
 20
121.332954133749
 30
0.0
 11
95.9171879717149
 21
121.332954133749
 31
0.0
  0
LINE
  5
   663
  8
0
  6
CONTINUOUS
 62
     7
 10
127.669883152866
 20
120.932954127789
 30
0.0
 11
85.6698519229802
 21
120.932954127789
 31
0.0
  0
LINE
  5
   664
  8
0
  6
CONTINUOUS
 62
     7
 10
127.669883152866
 20
115.932954053283
 30
0.0
 11
85.6698519229802
 21
115.932954053283
 31
0.0
  0
LINE
  5
   665
  8
0
  6
CONTINUOUS
 62
     7
 10
127.669883152866
 20
115.532954047322
 30
0.0
 11
85.6698519229802
 21
115.532954047322
 31
0.0
  0
LINE
  5
   666
  8
0
  6
CONTINUOUS
 62
     7
 10
127.269883146905
 20
120.932954127789
 30
0.0
 11
127.269883146905
 21
121.332954133749
 31
0.0
  0
LINE
  5
   667
  8
0
  6
CONTINUOUS
 62
     3
 10
100.809863642956
 20
121.332954133749
 30
0.0
 11
100.809863642956
 21
127.901202718792
 31
0.0
  0
LINE
  5
   668
  8
0
  6
CONTINUOUS
 62
     3
 10
99.3698642318498
 20
121.332954133749
 30
0.0
 11
99.3698642318498
 21
126.317474597711
 31
0.0
  0
LINE
  5
   669
  8
0
  6
CONTINUOUS
 62
     3
 10
97.9298648207437
 20
121.332954133749
 30
0.0
 11
97.9298648207437
 21
123.054197959897
 31
0.0
  0
LINE
  5
   66A
  8
0
  6
CONTINUOUS
 62
     3
 10
96.4898654096376
 20
121.332954133749
 30
0.0
 11
96.4898654096376
 21
122.239566872592
 31
0.0
  0
POINT
  5
   66B
  8
0
  6
CONTINUOUS
 62
     7
 10
106.669868469238
 20
131.732956295352
 30
0.0
  0
INSERT
  5
   66C
  8
255
  6
CONTINUOUS
 62
     7
  2
T_A_D_F_
 10
106.669886969957
 20
91.7329488098621
 30
0.0
 41
0.400000005960464
 42
0.400000005960464
 50
3.50835464724173E-15
 43
0.400000005960464
  0
LINE
  5
   66D
  8
0
  6
CONTINUOUS
 62
     3
 10
127.169861594344
 20
27.7329547456315
 30
0.0
 11
86.1698667577714
 21
27.7329547456315
 31
0.0
  0
LINE
  5
   66E
  8
0
  6
CONTINUOUS
 62
     3
 10
127.523414830177
 20
27.8793978750558
 30
0.0
 11
127.669862588891
 21
28.232950128694
 31
0.0
  0
LINE
  5
   66F
  8
0
  6
CONTINUOUS
 62
     3
 10
127.669883152866
 20
28.2329997739706
 30
0.0
 11
127.669883152866
 21
29.6329593515791
 31
0.0
  0
LINE
  5
   670
  8
0
  6
CONTINUOUS
 62
     3
 10
127.16986378773
 20
27.732952097545
 30
0.0
 11
127.523416041368
 21
27.8793998562589
 31
0.0
  0
LINE
  5
   671
  8
0
  6
CONTINUOUS
 62
     3
 10
96.4898654096376
 20
27.7329547456315
 30
0.0
 11
96.4898654096376
 21
29.6329593515791
 31
0.0
  0
LINE
  5
   672
  8
0
  6
CONTINUOUS
 62
     3
 10
97.9298648207437
 20
27.7329547456315
 30
0.0
 11
97.9298648207437
 21
29.6329593515791
 31
0.0
  0
LINE
  5
   673
  8
0
  6
CONTINUOUS
 62
     3
 10
99.3698642318498
 20
27.7329547456315
 30
0.0
 11
99.3698642318498
 21
29.6329593515791
 31
0.0
  0
LINE
  5
   674
  8
0
  6
CONTINUOUS
 62
     3
 10
100.809863642956
 20
27.7329547456315
 30
0.0
 11
100.809863642956
 21
29.6329593515791
 31
0.0
  0
LINE
  5
   675
  8
0
  6
CONTINUOUS
 62
     3
 10
102.249863054062
 20
27.8572162220925
 30
0.0
 11
102.249863054062
 21
29.6329593515791
 31
0.0
  0
LINE
  5
   676
  8
0
  6
CONTINUOUS
 62
     3
 10
103.689862465168
 20
27.8572162220925
 30
0.0
 11
103.689862465168
 21
29.6329593515791
 31
0.0
  0
LINE
  5
   677
  8
0
  6
CONTINUOUS
 62
     3
 10
106.569862813259
 20
27.8572162220925
 30
0.0
 11
106.569862813259
 21
29.6329593515791
 31
0.0
  0
LINE
  5
   678
  8
0
  6
CONTINUOUS
 62
     3
 10
108.009862224365
 20
27.8572162220925
 30
0.0
 11
108.009862224365
 21
29.6329593515791
 31
0.0
  0
LINE
  5
   679
  8
0
  6
CONTINUOUS
 62
     3
 10
109.44986316135
 20
27.8572162220925
 30
0.0
 11
109.44986316135
 21
29.6329593515791
 31
0.0
  0
LINE
  5
   67A
  8
0
  6
CONTINUOUS
 62
     3
 10
110.889862572456
 20
27.8572162220925
 30
0.0
 11
110.889862572456
 21
29.6329593515791
 31
0.0
  0
LINE
  5
   67B
  8
0
  6
CONTINUOUS
 62
     3
 10
112.329861983563
 20
27.8572162220925
 30
0.0
 11
112.329861983563
 21
29.6329593515791
 31
0.0
  0
LINE
  5
   67C
  8
0
  6
CONTINUOUS
 62
     3
 10
113.769861394669
 20
27.8572162220925
 30
0.0
 11
113.769861394669
 21
29.6329593515791
 31
0.0
  0
LINE
  5
   67D
  8
0
  6
CONTINUOUS
 62
     3
 10
115.209863857533
 20
27.8572162220925
 30
0.0
 11
115.209863857533
 21
29.6329593515791
 31
0.0
  0
LINE
  5
   67E
  8
0
  6
CONTINUOUS
 62
     3
 10
116.649863268639
 20
27.8572162220925
 30
0.0
 11
116.649863268639
 21
29.6329593515791
 31
0.0
  0
LINE
  5
   67F
  8
0
  6
CONTINUOUS
 62
     3
 10
118.089862679745
 20
27.8572162220925
 30
0.0
 11
118.089862679745
 21
29.6329593515791
 31
0.0
  0
LINE
  5
   680
  8
0
  6
CONTINUOUS
 62
     3
 10
119.529862090851
 20
27.8572162220925
 30
0.0
 11
119.529862090851
 21
29.6329593515791
 31
0.0
  0
LINE
  5
   681
  8
0
  6
CONTINUOUS
 62
     3
 10
120.969861501957
 20
27.8572162220925
 30
0.0
 11
120.969861501957
 21
29.6329593515791
 31
0.0
  0
LINE
  5
   682
  8
0
  6
CONTINUOUS
 62
     3
 10
122.409863964821
 20
27.8572162220925
 30
0.0
 11
122.409863964821
 21
29.6329593515791
 31
0.0
  0
LINE
  5
   683
  8
0
  6
CONTINUOUS
 62
     3
 10
123.849863375927
 20
27.8572162220925
 30
0.0
 11
123.849863375927
 21
29.6329593515791
 31
0.0
  0
LINE
  5
   684
  8
0
  6
CONTINUOUS
 62
     3
 10
125.289862787033
 20
27.8572162220925
 30
0.0
 11
125.289862787033
 21
29.6329593515791
 31
0.0
  0
LINE
  5
   685
  8
0
  6
CONTINUOUS
 62
     3
 10
126.729862198139
 20
27.8572162220925
 30
0.0
 11
126.729862198139
 21
29.6329593515791
 31
0.0
  0
LINE
  5
   686
  8
0
  6
CONTINUOUS
 62
     3
 10
85.6698537856109
 20
28.2329997739706
 30
0.0
 11
85.6698537856109
 21
29.6329593515791
 31
0.0
  0
LINE
  5
   687
  8
0
  6
CONTINUOUS
 62
     3
 10
85.8163221082991
 20
27.8793978750558
 30
0.0
 11
85.6698743495852
 21
28.232950128694
 31
0.0
  0
LINE
  5
   688
  8
0
  6
CONTINUOUS
 62
     3
 10
86.169873150747
 20
27.732952097545
 30
0.0
 11
85.8163208971088
 21
27.8793998562589
 31
0.0
  0
LINE
  5
   689
  8
0
  6
CONTINUOUS
 62
     3
 10
86.6098747403373
 20
27.8572162220925
 30
0.0
 11
86.6098747403373
 21
29.6329593515791
 31
0.0
  0
LINE
  5
   68A
  8
0
  6
CONTINUOUS
 62
     3
 10
88.0498741514434
 20
27.8572162220925
 30
0.0
 11
88.0498741514434
 21
29.6329593515791
 31
0.0
  0
LINE
  5
   68B
  8
0
  6
CONTINUOUS
 62
     3
 10
89.4898735625495
 20
27.8572162220925
 30
0.0
 11
89.4898735625495
 21
29.6329593515791
 31
0.0
  0
LINE
  5
   68C
  8
0
  6
CONTINUOUS
 62
     3
 10
90.9298729736556
 20
27.8572162220925
 30
0.0
 11
90.9298729736556
 21
29.6329593515791
 31
0.0
  0
LINE
  5
   68D
  8
0
  6
CONTINUOUS
 62
     3
 10
93.8098748476256
 20
27.8572162220925
 30
0.0
 11
93.8098748476256
 21
29.6329593515791
 31
0.0
  0
LINE
  5
   68E
  8
0
  6
CONTINUOUS
 62
     3
 10
95.2498742587317
 20
27.8572162220925
 30
0.0
 11
95.2498742587317
 21
29.6329593515791
 31
0.0
  0
LINE
  5
   68F
  8
0
  6
CONTINUOUS
 62
     3
 10
92.3698739106406
 20
27.8572162220925
 30
0.0
 11
92.3698739106406
 21
29.6329593515791
 31
0.0
  0
LINE
  5
   690
  8
0
  6
CONTINUOUS
 62
     3
 10
105.129862639214
 20
27.8572162220925
 30
0.0
 11
105.129862639214
 21
29.6329593515791
 31
0.0
  0
LINE
  5
   691
  8
0
  6
CONTINUOUS
 62
     7
 10
80.6698725659422
 20
13.1329736245498
 30
0.0
 11
88.6698749739698
 21
21.1129716067257
 31
0.0
  0
LINE
  5
   692
  8
0
  6
CONTINUOUS
 62
     7
 10
80.6698725659422
 20
5.13297960885617
 30
0.0
 11
80.6698725659422
 21
13.1329736245497
 31
0.0
  0
LINE
  5
   693
  8
0
  6
CONTINUOUS
 62
     7
 10
92.6698727447561
 20
5.13296740182473
 30
0.0
 11
92.6698727447561
 21
13.1329736245497
 31
0.0
  0
LINE
  5
   694
  8
0
  6
CONTINUOUS
 62
     7
 10
92.6698727447561
 20
13.1329298643988
 30
0.0
 11
96.6698743302397
 21
21.1129815625869
 31
0.0
  0
CIRCLE
  5
   695
  8
0
  6
CONTINUOUS
 62
     7
 10
86.6698726523217
 20
10.1329735798463
 30
0.0
 40
1.69999998259287
  0
LINE
  5
   696
  8
0
  6
CONTINUOUS
 62
     7
 10
88.6698749739698
 20
21.1129716067257
 30
0.0
 11
88.6698749739698
 21
27.7329547456315
 31
0.0
  0
LINE
  5
   697
  8
0
  6
CONTINUOUS
 62
     7
 10
96.6698743302397
 20
21.1129815625868
 30
0.0
 11
96.6698743302397
 21
27.7329547456315
 31
0.0
  0
LINE
  5
   698
  8
0
  6
CONTINUOUS
 62
     7
 10
96.1694419535337
 20
21.1671149043553
 30
0.0
 11
89.303939957932
 21
21.1671149043553
 31
0.0
  0
LINE
  5
   699
  8
0
  6
CONTINUOUS
 62
     7
 10
96.1066477279642
 20
24.897576976274
 30
0.0
 11
89.3458027749783
 21
24.897576976274
 31
0.0
  0
LINE
  5
   69A
  8
0
  6
CONTINUOUS
 62
     7
 10
92.6698727162672
 20
5.13296740182473
 30
0.0
 11
80.6698725158239
 21
5.13297960885618
 31
0.0
  0
LINE
  5
   69B
  8
0
  6
CONTINUOUS
 62
     7
 10
116.669873102384
 20
21.1129726466934
 30
0.0
 11
116.669873102384
 21
27.7329547456315
 31
0.0
  0
LINE
  5
   69C
  8
0
  6
CONTINUOUS
 62
     7
 10
124.669873221593
 20
21.1129714709778
 30
0.0
 11
124.669873221593
 21
27.7329547456315
 31
0.0
  0
LINE
  5
   69D
  8
0
  6
CONTINUOUS
 62
     7
 10
124.106643329156
 20
24.897576976274
 30
0.0
 11
117.34579837617
 21
24.897576976274
 31
0.0
  0
LINE
  5
   69E
  8
0
  6
CONTINUOUS
 62
     7
 10
124.169437554725
 20
21.1671149043553
 30
0.0
 11
117.303935559124
 21
21.1671149043553
 31
0.0
  0
LINE
  5
   69F
  8
0
  6
CONTINUOUS
 62
     7
 10
120.669874340651
 20
13.1329736245497
 30
0.0
 11
116.669873102384
 21
21.1129726466934
 31
0.0
  0
LINE
  5
   6A0
  8
0
  6
CONTINUOUS
 62
     7
 10
132.669874519465
 20
13.1329736245497
 30
0.0
 11
124.669873221593
 21
21.1129714709778
 31
0.0
  0
LINE
  5
   6A1
  8
0
  6
CONTINUOUS
 62
     7
 10
120.669874340651
 20
5.13296740182473
 30
0.0
 11
120.669874340651
 21
13.1329736245498
 31
0.0
  0
LINE
  5
   6A2
  8
0
  6
CONTINUOUS
 62
     7
 10
132.669874519465
 20
5.13297960885617
 30
0.0
 11
132.669874519465
 21
13.1329736245497
 31
0.0
  0
LINE
  5
   6A3
  8
0
  6
CONTINUOUS
 62
     7
 10
120.66987436041
 20
5.13296740182468
 30
0.0
 11
132.669874539946
 21
5.13297960885611
 31
0.0
  0
CIRCLE
  5
   6A4
  8
0
  6
CONTINUOUS
 62
     7
 10
126.669874430058
 20
10.1329735798462
 30
0.0
 40
1.69999988948213
  0
LINE
  5
   6A5
  8
0
  6
CONTINUOUS
 62
     7
 10
112.669868558645
 20
5.13297364050991
 30
0.0
 11
100.669868379831
 21
5.13297364050991
 31
0.0
  0
LINE
  5
   6A6
  8
0
  6
CONTINUOUS
 62
     7
 10
102.669850638512
 20
21.1328317112166
 30
0.0
 11
102.669850638512
 21
27.7329547456315
 31
0.0
  0
LINE
  5
   6A7
  8
0
  6
CONTINUOUS
 62
     7
 10
110.669850757721
 20
21.1329738789286
 30
0.0
 11
110.669850757721
 21
27.7329547456315
 31
0.0
  0
LINE
  5
   6A8
  8
0
  6
CONTINUOUS
 62
     7
 10
100.669868379831
 20
13.1329737597191
 30
0.0
 11
102.669886180755
 21
21.1329738789284
 31
0.0
  0
LINE
  5
   6A9
  8
0
  6
CONTINUOUS
 62
     7
 10
112.669868558645
 20
13.1329737597192
 30
0.0
 11
110.669850757721
 21
21.1329738789285
 31
0.0
  0
LINE
  5
   6AA
  8
0
  6
CONTINUOUS
 62
     7
 10
112.669868558645
 20
5.13297364050991
 30
0.0
 11
112.669868558645
 21
13.1329737597192
 31
0.0
  0
LINE
  5
   6AB
  8
0
  6
CONTINUOUS
 62
     7
 10
100.669868379831
 20
5.13297364050991
 30
0.0
 11
100.669868379831
 21
13.1329737597192
 31
0.0
  0
CIRCLE
  5
   6AC
  8
0
  6
CONTINUOUS
 62
     7
 10
106.669868469238
 20
10.1329737150157
 30
0.0
 40
1.70000002533197
  0
LINE
  5
   6AD
  8
0
  6
CONTINUOUS
 62
     7
 10
110.169415090853
 20
21.1671149043553
 30
0.0
 11
103.303913095251
 21
21.1671149043553
 31
0.0
  0
LINE
  5
   6AE
  8
0
  6
CONTINUOUS
 62
     7
 10
110.106620865284
 20
24.897576976274
 30
0.0
 11
103.345775912298
 21
24.897576976274
 31
0.0
  0
LINE
  5
   6AF
  8
0
  6
CONTINUOUS
 62
     1
 10
115.869873061381
 20
26.5329547277501
 30
0.0
 11
115.869873061381
 21
27.7329547456315
 31
0.0
  0
LINE
  5
   6B0
  8
0
  6
CONTINUOUS
 62
     1
 10
113.069873019658
 20
26.5329547277501
 30
0.0
 11
111.469872995816
 21
26.5329547277501
 31
0.0
  0
LINE
  5
   6B1
  8
0
  6
CONTINUOUS
 62
     1
 10
115.869873061381
 20
26.5329547277501
 30
0.0
 11
114.269873037539
 21
26.5329547277501
 31
0.0
  0
LINE
  5
   6B2
  8
0
  6
CONTINUOUS
 62
     1
 10
111.469872995816
 20
26.5329547277501
 30
0.0
 11
111.469872995816
 21
27.7329547456315
 31
0.0
  0
LINE
  5
   6B3
  8
0
  6
CONTINUOUS
 62
     1
 10
115.869873061381
 20
27.332954739671
 30
0.0
 11
111.469872995816
 21
27.332954739671
 31
0.0
  0
LINE
  5
   6B4
  8
0
  6
CONTINUOUS
 62
     1
 10
114.269873037539
 20
21.6597246316868
 30
0.0
 11
114.269873037539
 21
26.5329547277501
 31
0.0
  0
LINE
  5
   6B5
  8
0
  6
DASHDOT
 62
     7
 10
113.669873028598
 20
22.2458709104339
 30
0.0
 11
113.669873028598
 21
28.9828675596292
 31
0.0
  0
LINE
  5
   6B6
  8
0
  6
CONTINUOUS
 62
     1
 10
118.349536151163
 20
14.7242979727307
 30
0.0
 11
114.269873037539
 21
21.6597246316868
 31
0.0
  0
LINE
  5
   6B7
  8
0
  6
CONTINUOUS
 62
     1
 10
117.137791745749
 20
14.4174934482869
 30
0.0
 11
113.069873019658
 21
21.332954650264
 31
0.0
  0
LINE
  5
   6B8
  8
0
  6
CONTINUOUS
 62
     1
 10
113.069873019658
 20
21.332954650264
 30
0.0
 11
113.069873019658
 21
26.5329547277501
 31
0.0
  0
LINE
  5
   6B9
  8
0
  6
CONTINUOUS
 62
     1
 10
117.193861819276
 20
-11.9908737911794
 30
0.0
 11
117.137791745749
 21
14.4174934482859
 31
0.0
  0
LINE
  5
   6BA
  8
0
  6
CONTINUOUS
 62
     1
 10
97.4699008785323
 20
26.5329547277501
 30
0.0
 11
97.4699008785323
 21
27.7329547456315
 31
0.0
  0
LINE
  5
   6BB
  8
0
  6
CONTINUOUS
 62
     1
 10
101.869900944097
 20
26.5329547277501
 30
0.0
 11
100.269900920256
 21
26.5329547277501
 31
0.0
  0
LINE
  5
   6BC
  8
0
  6
CONTINUOUS
 62
     1
 10
99.0699009023741
 20
26.5329547277501
 30
0.0
 11
97.4699008785323
 21
26.5329547277501
 31
0.0
  0
LINE
  5
   6BD
  8
0
  6
CONTINUOUS
 62
     1
 10
101.869900944097
 20
26.5329547277501
 30
0.0
 11
101.869900944097
 21
27.7329547456315
 31
0.0
  0
LINE
  5
   6BE
  8
0
  6
CONTINUOUS
 62
     1
 10
101.869900944097
 20
27.332954739671
 30
0.0
 11
97.4699008785323
 21
27.332954739671
 31
0.0
  0
LINE
  5
   6BF
  8
0
  6
CONTINUOUS
 62
     1
 10
99.0699009023741
 20
21.6597246316868
 30
0.0
 11
99.0699009023741
 21
26.5329547277501
 31
0.0
  0
LINE
  5
   6C0
  8
0
  6
DASHDOT
 62
     7
 10
99.6699009113148
 20
22.2458709104339
 30
0.0
 11
99.6699009113148
 21
28.9828675596292
 31
0.0
  0
LINE
  5
   6C1
  8
0
  6
CONTINUOUS
 62
     1
 10
94.9902377887506
 20
14.7242979727307
 30
0.0
 11
99.0699009023741
 21
21.6597246316868
 31
0.0
  0
LINE
  5
   6C2
  8
0
  6
CONTINUOUS
 62
     1
 10
96.2019821941641
 20
14.4174934482869
 30
0.0
 11
100.269900920256
 21
21.332954650264
 31
0.0
  0
LINE
  5
   6C3
  8
0
  6
CONTINUOUS
 62
     1
 10
100.269900920256
 20
21.332954650264
 30
0.0
 11
100.269900920256
 21
26.5329547277501
 31
0.0
  0
LINE
  5
   6C4
  8
0
  6
CONTINUOUS
 62
     1
 10
96.145912120637
 20
-11.9908737911799
 30
0.0
 11
96.2019821941641
 21
14.4174934482857
 31
0.0
  0
LINE
  5
   6C5
  8
0
  6
CONTINUOUS
 62
     1
 10
95.1100548240575
 20
-12.107360622012
 30
0.0
 11
94.9902377887505
 21
14.7242979727297
 31
0.0
  0
LINE
  5
   6C6
  8
0
  6
DASHDOT
 62
     7
 10
86.6698726523217
 20
7.63297358533246
 30
0.0
 11
86.6698726523217
 21
12.6329735743601
 31
0.0
  0
LINE
  5
   6C7
  8
0
  6
DASHDOT
 62
     7
 10
89.1698726468355
 20
10.1329735798463
 30
0.0
 11
84.1698726578079
 21
10.1329735798463
 31
0.0
  0
LINE
  5
   6C8
  8
0
  6
DASHDOT
 62
     7
 10
106.669868469238
 20
0.181523209999767
 30
0.0
 11
106.669868469238
 21
25.9566716248624
 31
0.0
  0
LINE
  5
   6C9
  8
0
  6
DASHDOT
 62
     7
 10
109.169868506491
 20
10.1329737150157
 30
0.0
 11
104.169868431985
 21
10.1329737150157
 31
0.0
  0
LINE
  5
   6CA
  8
0
  6
DASHDOT
 62
     7
 10
126.669874430058
 20
7.63297367844319
 30
0.0
 11
126.669874430058
 21
12.6329734812493
 31
0.0
  0
LINE
  5
   6CB
  8
0
  6
DASHDOT
 62
     7
 10
129.169874331461
 20
10.1329735798463
 30
0.0
 11
124.169874528655
 21
10.1329735798463
 31
0.0
  0
LINE
  5
   6CC
  8
0
  6
CONTINUOUS
 62
     1
 10
95.6697400584212
 20
-17.467045927901
 30
0.0
 11
95.4697400554409
 21
-17.467045927901
 31
0.0
  0
LINE
  5
   6CD
  8
0
  6
CONTINUOUS
 62
     1
 10
95.6697400584213
 20
-17.467045927901
 30
0.0
 11
96.0995280193419
 21
-17.0372579669804
 31
0.0
  0
LINE
  5
   6CE
  8
0
  6
CONTINUOUS
 62
     1
 10
95.4697400554409
 20
-17.4670459279011
 30
0.0
 11
95.2078395987538
 21
-17.205145471214
 31
0.0
  0
LINE
  5
   6CF
  8
0
  6
CONTINUOUS
 62
     1
 10
95.2078395987538
 20
-17.2051454712144
 30
0.0
 11
95.189798762651
 21
-13.165105974037
 31
0.0
  0
LINE
  5
   6D0
  8
0
  6
CONTINUOUS
 62
     1
 10
96.0995280193418
 20
-17.0372579669803
 30
0.0
 11
96.1079227594421
 21
-13.0834308092183
 31
0.0
  0
LINE
  5
   6D1
  8
0
  6
CONTINUOUS
 62
     1
 10
118.229719115856
 20
-12.1073606220122
 30
0.0
 11
118.349536151163
 21
14.7242979727303
 31
0.0
  0
POINT
  5
   6D2
  8
0
  6
CONTINUOUS
 62
     7
 10
106.669868469238
 20
27.7329547456315
 30
0.0
  0
LINE
  5
   6D3
  8
0
  6
CONTINUOUS
 62
     7
 10
93.1247278010168
 20
-13.3488121093122
 30
0.0
 11
98.4761807456168
 21
-12.8727535346561
 31
0.0
  0
LINE
  5
   6D4
  8
0
  6
CONTINUOUS
 62
     7
 10
92.2752266111408
 20
-12.4261498563655
 30
0.0
 11
97.9190623608399
 21
-11.7914750392935
 31
0.0
  0
LINE
  5
   6D5
  8
0
  6
CONTINUOUS
 62
     7
 10
121.064510327335
 20
-12.4261498563655
 30
0.0
 11
115.420674577636
 21
-11.7914750392935
 31
0.0
  0
LINE
  5
   6D6
  8
0
  6
CONTINUOUS
 62
     7
 10
120.21500913746
 20
-13.3488121093122
 30
0.0
 11
114.86355619286
 21
-12.8727535346561
 31
0.0
  0
LINE
  5
   6D7
  8
0
  6
CONTINUOUS
 62
     1
 10
117.240208919135
 20
-17.0372579669807
 30
0.0
 11
117.231814179034
 21
-13.0834308092188
 31
0.0
  0
LINE
  5
   6D8
  8
0
  6
CONTINUOUS
 62
     1
 10
118.131897339723
 20
-17.2051454712149
 30
0.0
 11
118.149938175826
 21
-13.1651059740374
 31
0.0
  0
LINE
  5
   6D9
  8
0
  6
CONTINUOUS
 62
     1
 10
117.869996883036
 20
-17.4670459279011
 30
0.0
 11
118.131897339723
 21
-17.205145471214
 31
0.0
  0
LINE
  5
   6DA
  8
0
  6
CONTINUOUS
 62
     1
 10
117.669996880055
 20
-17.467045927901
 30
0.0
 11
117.240208919135
 21
-17.0372579669804
 31
0.0
  0
LINE
  5
   6DB
  8
0
  6
CONTINUOUS
 62
     1
 10
117.869996883036
 20
-17.467045927901
 30
0.0
 11
117.669996880055
 21
-17.467045927901
 31
0.0
  0
INSERT
  5
   6DC
  8
0
  6
CONTINUOUS
 62
     7
  2
*UDIM682
 10
0.0
 20
0.0
 30
0.0
  0
INSERT
  5
   6DD
  8
0
  6
CONTINUOUS
 62
     7
  2
*UDIM683
 10
0.0
 20
0.0
 30
0.0
  0
INSERT
  5
   6DE
  8
0
  6
CONTINUOUS
 62
     7
  2
*UDIM684
 10
0.0
 20
0.0
 30
0.0
  0
INSERT
  5
   6DF
  8
0
  6
CONTINUOUS
 62
     7
  2
*UDIM685
 10
0.0
 20
0.0
 30
0.0
  0
INSERT
  5
   6E0
  8
0
  6
CONTINUOUS
 62
     7
  2
*UDIM686
 10
0.0
 20
0.0
 30
0.0
  0
INSERT
  5
   6E1
  8
0
  6
CONTINUOUS
 62
     7
  2
*UDIM687
 10
0.0
 20
0.0
 30
0.0
  0
INSERT
  5
   6E2
  8
0
  6
CONTINUOUS
 62
     7
  2
*UDIM688
 10
0.0
 20
0.0
 30
0.0
  0
TEXT
  5
   6E3
  8
0
  6
CONTINUOUS
 62
     7
 10
105.631456626082
 20
-15.5139532919875
 30
0.0
 40
2.99999994933605
  1
Y
 50
359.999999948034
 41
0.916666607525612
 72
     1
 11
106.731456536538
 21
-14.0139533183116
 31
0.0
 73
     2
  0
INSERT
  5
   6E4
  8
0
  6
CONTINUOUS
 62
     7
  2
*UDIM689
 10
0.0
 20
0.0
 30
0.0
  0
INSERT
  5
   6E5
  8
0
  6
CONTINUOUS
 62
     7
  2
*UDIM690
 10
0.0
 20
0.0
 30
0.0
  0
INSERT
  5
   6E6
  8
0
  6
CONTINUOUS
 62
     7
  2
*UDIM691
 10
0.0
 20
0.0
 30
0.0
  0
INSERT
  5
   6E7
  8
0
  6
CONTINUOUS
 62
     7
  2
*UDIM692
 10
0.0
 20
0.0
 30
0.0
  0
INSERT
  5
   6E8
  8
0
  6
CONTINUOUS
 62
     7
  2
*UDIM693
 10
0.0
 20
0.0
 30
0.0
  0
INSERT
  5
   6E9
  8
0
  6
CONTINUOUS
 62
     7
  2
*UDIM694
 10
0.0
 20
0.0
 30
0.0
  0
TEXT
  5
   6EA
  8
0
  6
CONTINUOUS
 62
     7
 10
72.2163888970284
 20
53.2364776286586
 30
0.0
 40
2.99999994933605
  1
=    =
 50
89.9999999480344
 41
0.91666673368878
 72
     1
 11
70.7163889295834
 21
61.211478092574
 31
0.0
 73
     2
  0
INSERT
  5
   6EB
  8
0
  6
CONTINUOUS
 62
     7
  2
*UDIM695
 10
0.0
 20
0.0
 30
0.0
  0
TEXT
  5
   6EC
  8
0
  6
CONTINUOUS
 62
     7
 10
105.817557811834
 20
186.626687211392
 30
0.0
 40
2.99999994933605
  1
Y
 50
359.999999948034
 41
0.916666607525612
 72
     2
 11
108.01755763004
 21
186.626687209408
 31
0.0
  0
TEXT
  5
   6ED
  8
0
  6
CONTINUOUS
 62
     7
 10
160.021779462863
 20
60.5615403195518
 30
0.0
 40
2.99999994933605
  1
X
 50
359.999999948034
 41
0.916666607525612
 72
     2
 11
162.221779281069
 21
60.5615403175675
 31
0.0
  0
TEXT
  5
   6EE
  8
0
  6
CONTINUOUS
 62
     7
 10
51.9093816116282
 20
60.8464350762995
 30
0.0
 40
2.99999994933605
  1
X
 50
359.999999948034
 41
0.916666607525612
 72
     2
 11
54.1093814298341
 21
60.8464350743152
 31
0.0
  0
ENDSEC
  0
EOF
