  0
SECTION
  2
HEADER
  9
$ACADVER
  1
AC1009
  9
$INSBASE
 10
0.0
 20
0.0
 30
0.0
  9
$EXTMIN
 10
0.577972
 20
0.580166
 30
0.0
  9
$EXTMAX
 10
392.577972
 20
263.080166
 30
0.0
  9
$LIMMIN
 10
0.0
 20
0.0
  9
$LIMMAX
 10
12.0
 20
9.0
  9
$ORTHOMODE
 70
     1
  9
$REGENMODE
 70
     1
  9
$FILLMODE
 70
     1
  9
$QTEXTMODE
 70
     0
  9
$MIRRTEXT
 70
     1
  9
$DRAGMODE
 70
     2
  9
$LTSCALE
 40
5.0
  9
$OSMODE
 70
     0
  9
$ATTMODE
 70
     1
  9
$TEXTSIZE
 40
1.5
  9
$TRACEWID
 40
0.05
  9
$TEXTSTYLE
  7
ROMANS
  9
$CLAYER
  8
0
  9
$CELTYPE
  6
CONTINUOUS
  9
$CECOLOR
 62
   256
  9
$DIMSCALE
 40
1.0
  9
$DIMASZ
 40
0.18
  9
$DIMEXO
 40
0.0625
  9
$DIMDLI
 40
0.38
  9
$DIMRND
 40
0.0
  9
$DIMDLE
 40
0.0
  9
$DIMEXE
 40
0.18
  9
$DIMTP
 40
0.0
  9
$DIMTM
 40
0.0
  9
$DIMTXT
 40
0.18
  9
$DIMCEN
 40
0.09
  9
$DIMTSZ
 40
0.0
  9
$DIMTOL
 70
     0
  9
$DIMLIM
 70
     0
  9
$DIMTIH
 70
     1
  9
$DIMTOH
 70
     1
  9
$DIMSE1
 70
     0
  9
$DIMSE2
 70
     0
  9
$DIMTAD
 70
     0
  9
$DIMZIN
 70
     0
  9
$DIMBLK
  1

  9
$DIMASO
 70
     1
  9
$DIMSHO
 70
     1
  9
$DIMPOST
  1

  9
$DIMAPOST
  1

  9
$DIMALT
 70
     0
  9
$DIMALTD
 70
     2
  9
$DIMALTF
 40
25.4
  9
$DIMLFAC
 40
1.0
  9
$DIMTOFL
 70
     0
  9
$DIMTVP
 40
0.0
  9
$DIMTIX
 70
     0
  9
$DIMSOXD
 70
     0
  9
$DIMSAH
 70
     0
  9
$DIMBLK1
  1

  9
$DIMBLK2
  1

  9
$DIMSTYLE
  2
*UNNAMED
  9
$DIMCLRD
 70
     0
  9
$DIMCLRE
 70
     0
  9
$DIMCLRT
 70
     0
  9
$DIMTFAC
 40
1.0
  9
$DIMGAP
 40
0.09
  9
$LUNITS
 70
     2
  9
$LUPREC
 70
     4
  9
$SKETCHINC
 40
0.1
  9
$FILLETRAD
 40
0.0
  9
$AUNITS
 70
     0
  9
$AUPREC
 70
     0
  9
$MENU
  1
acad
  9
$ELEVATION
 40
0.0
  9
$PELEVATION
 40
0.0
  9
$THICKNESS
 40
0.0
  9
$LIMCHECK
 70
     0
  9
$BLIPMODE
 70
     1
  9
$CHAMFERA
 40
0.0
  9
$CHAMFERB
 40
0.0
  9
$SKPOLY
 70
     0
  9
$TDCREATE
 40
2449017.490506828
  9
$TDUPDATE
 40
2449618.451756365
  9
$TDINDWG
 40
0.0504950231
  9
$TDUSRTIMER
 40
0.0504950231
  9
$USRTIMER
 70
     1
  9
$ANGBASE
 50
0.0
  9
$ANGDIR
 70
     0
  9
$PDMODE
 70
     0
  9
$PDSIZE
 40
0.0
  9
$PLINEWID
 40
0.0
  9
$COORDS
 70
     2
  9
$SPLFRAME
 70
     0
  9
$SPLINETYPE
 70
     6
  9
$SPLINESEGS
 70
     8
  9
$ATTDIA
 70
     0
  9
$ATTREQ
 70
     1
  9
$HANDLING
 70
     0
  9
$HANDSEED
  5
0
  9
$SURFTAB1
 70
   250
  9
$SURFTAB2
 70
   250
  9
$SURFTYPE
 70
     6
  9
$SURFU
 70
     6
  9
$SURFV
 70
     6
  9
$UCSNAME
  2

  9
$UCSORG
 10
0.0
 20
0.0
 30
0.0
  9
$UCSXDIR
 10
1.0
 20
0.0
 30
0.0
  9
$UCSYDIR
 10
0.0
 20
1.0
 30
0.0
  9
$PUCSNAME
  2

  9
$PUCSORG
 10
0.0
 20
0.0
 30
0.0
  9
$PUCSXDIR
 10
1.0
 20
0.0
 30
0.0
  9
$PUCSYDIR
 10
0.0
 20
1.0
 30
0.0
  9
$USERI1
 70
     0
  9
$USERI2
 70
     0
  9
$USERI3
 70
     0
  9
$USERI4
 70
     0
  9
$USERI5
 70
     0
  9
$USERR1
 40
0.0
  9
$USERR2
 40
0.0
  9
$USERR3
 40
0.0
  9
$USERR4
 40
0.0
  9
$USERR5
 40
0.0
  9
$WORLDVIEW
 70
     1
  9
$SHADEDGE
 70
     3
  9
$SHADEDIF
 70
    70
  9
$TILEMODE
 70
     1
  9
$MAXACTVP
 70
    16
  9
$PINSBASE
 10
0.0
 20
0.0
 30
0.0
  9
$PLIMCHECK
 70
     0
  9
$PEXTMIN
 10
1.000000E+20
 20
1.000000E+20
 30
1.000000E+20
  9
$PEXTMAX
 10
-1.000000E+20
 20
-1.000000E+20
 30
-1.000000E+20
  9
$PLIMMIN
 10
0.0
 20
0.0
  9
$PLIMMAX
 10
12.0
 20
9.0
  9
$UNITMODE
 70
     0
  9
$VISRETAIN
 70
     0
  9
$PLINEGEN
 70
     0
  9
$PSLTSCALE
 70
     0
  9
$TREEDEPTH
 70
  3020
  9
$DWGCODEPAGE
  3
undefined
  0
ENDSEC
  0
SECTION
  2
TABLES
  0
TABLE
  2
VPORT
 70
     2
  0
VPORT
  2
*ACTIVE
 70
     0
 10
0.0
 20
0.0
 11
1.0
 21
1.0
 12
222.716226
 22
142.163925
 13
0.0
 23
0.0
 14
2.5
 24
2.5
 15
0.0
 25
0.0
 16
0.0
 26
0.0
 36
1.0
 17
0.0
 27
0.0
 37
0.0
 40
284.32785
 41
1.566616
 42
50.0
 43
0.0
 44
0.0
 50
0.0
 51
0.0
 71
     0
 72
   100
 73
     1
 74
     1
 75
     1
 76
     0
 77
     0
 78
     0
  0
ENDTAB
  0
TABLE
  2
LTYPE
 70
     7
  0
LTYPE
  2
CONTINUOUS
 70
    64
  3
Solid line
 72
    65
 73
     0
 40
0.0
  0
LTYPE
  2
DASHED
 70
    64
  3
__ __ __ __ __ __ __ __ __ __ __ __ __ __ __ __
 72
    65
 73
     2
 40
0.75
 49
0.5
 49
-0.25
  0
LTYPE
  2
CENTER
 70
    64
  3
____ _ ____ _ ____ _ ____ _ ____ _ ____ _ ____ 
 72
    65
 73
     4
 40
2.0
 49
1.25
 49
-0.25
 49
0.25
 49
-0.25
  0
LTYPE
  2
HIDDEN
 70
    64
  3
__ __ __ __ __ __ __ __ __ __ __ __ __ __ __ __
 72
    65
 73
     2
 40
0.375
 49
0.25
 49
-0.125
  0
LTYPE
  2
DOT
 70
     0
  3
. . . . . . . . . . . . . . . . . . . . . . . .
 72
    65
 73
     2
 40
0.25
 49
0.0
 49
-0.25
  0
LTYPE
  2
DASHDOT
 70
     0
  3
__ . __ . __ . __ . __ . __ . __ . __ . __ . __
 72
    65
 73
     4
 40
1.0
 49
0.5
 49
-0.25
 49
0.0
 49
-0.25
  0
LTYPE
  2
PHANTOM
 70
     0
  3
______  __  __  ______  __  __  ______  __  __ 
 72
    65
 73
     6
 40
2.5
 49
1.25
 49
-0.25
 49
0.25
 49
-0.25
 49
0.25
 49
-0.25
  0
ENDTAB
  0
TABLE
  2
LAYER
 70
    13
  0
LAYER
  2
0
 70
    64
 62
     7
  6
CONTINUOUS
  0
LAYER
  2
RAAMI
 70
    64
 62
    -4
  6
CONTINUOUS
  0
LAYER
  2
PAKSU
 70
    64
 62
    -3
  6
CONTINUOUS
  0
LAYER
  2
OHUT
 70
    64
 62
    -6
  6
CONTINUOUS
  0
LAYER
  2
SWEDEN
 70
    64
 62
    -7
  6
CONTINUOUS
  0
LAYER
  2
SWEDEN2
 70
    64
 62
    -5
  6
CONTINUOUS
  0
LAYER
  2
BASE
 70
    64
 62
    -7
  6
CONTINUOUS
  0
LAYER
  2
21
 70
    64
 62
    -2
  6
CONTINUOUS
  0
LAYER
  2
HEL035
 70
    64
 62
    -7
  6
CONTINUOUS
  0
LAYER
  2
MUO
 70
    64
 62
    -7
  6
CONTINUOUS
  0
LAYER
  2
1
 70
    64
 62
    -2
  6
CONTINUOUS
  0
LAYER
  2
BASE1
 70
    64
 62
    -1
  6
CONTINUOUS
  0
LAYER
  2
TEKS
 70
    64
 62
    -5
  6
CONTINUOUS
  0
ENDTAB
  0
TABLE
  2
STYLE
 70
     7
  0
STYLE
  2
STANDARD
 70
    64
 40
0.0
 41
1.0
 50
0.0
 71
     0
 42
2.5
  3
txt
  4

  0
STYLE
  2
ROMANS
 70
    64
 40
0.0
 41
1.0
 50
0.0
 71
     0
 42
1.5
  3
romans
  4

  0
STYLE
  2
GREEKC
 70
    64
 40
0.0
 41
1.0
 50
0.0
 71
     0
 42
1.5
  3
GREEKC
  4

  0
STYLE
  2
GREEKS
 70
    64
 40
0.0
 41
1.0
 50
0.0
 71
     0
 42
2.0
  3
TXT
  4

  0
STYLE
  2
MONOTXT
 70
    64
 40
0.0
 41
1.0
 50
0.0
 71
     0
 42
2.0
  3
monotxt
  4

  0
STYLE
  2
ROMANT
 70
     0
 40
0.0
 41
1.0
 50
0.0
 71
     0
 42
2.5
  3
romant
  4

  0
STYLE
  2
STAND
 70
    64
 40
0.0
 41
1.0
 50
0.0
 71
     0
 42
2.0
  3
TXT
  4

  0
ENDTAB
  0
TABLE
  2
VIEW
 70
     0
  0
ENDTAB
  0
TABLE
  2
UCS
 70
     0
  0
ENDTAB
  0
TABLE
  2
APPID
 70
     1
  0
APPID
  2
ACAD
 70
    64
  0
ENDTAB
  0
TABLE
  2
DIMSTYLE
 70
     0
  0
ENDTAB
  0
ENDSEC
  0
SECTION
  2
BLOCKS
  0
BLOCK
  8
0
  2
1
 70
    64
 10
0.0
 20
0.0
 30
0.0
  3
1
  0
ENDBLK
  8
0
  0
BLOCK
  8
0
  2
BLC27
 70
    64
 10
0.0
 20
0.0
 30
0.0
  3
BLC27
  0
INSERT
  8
SWEDEN2
  6
CENTER
  2
BLC26
 10
0.08063
 20
0.037985
 30
0.0
 41
1.006225
 42
1.006225
 43
1.006225
  0
ENDBLK
  8
0
  0
BLOCK
  8
0
  2
BLC26
 70
    64
 10
0.0
 20
0.0
 30
0.0
  3
BLC26
  0
ARC
  8
0
  6
CONTINUOUS
 10
-0.180576
 20
1.17922
 30
0.0
 40
1.196859
 50
90.0
 51
265.706237
  0
LINE
  8
0
  6
CONTINUOUS
 10
-0.186638
 20
-0.01092
 30
0.0
 11
0.458942
 21
-0.01092
 31
0.0
  0
LINE
  8
0
  6
CONTINUOUS
 10
-0.186638
 20
2.375671
 30
0.0
 11
0.45288
 21
2.375671
 31
0.0
  0
LINE
  8
0
  6
CONTINUOUS
 10
-0.185509
 20
-2.404629
 30
0.0
 11
0.460071
 21
-2.404629
 31
0.0
  0
ARC
  8
0
  6
CONTINUOUS
 10
-0.180576
 20
-1.207779
 30
0.0
 40
1.196859
 50
90.0
 51
270.0
  0
LINE
  8
0
  6
CONTINUOUS
 10
0.451525
 20
-2.404586
 30
0.0
 11
1.401805
 21
-2.404586
 31
0.0
  0
LINE
  8
0
  6
CONTINUOUS
 10
0.446785
 20
2.375674
 30
0.0
 11
1.418544
 21
2.375674
 31
0.0
  0
LINE
  8
0
  6
CONTINUOUS
 10
0.456627
 20
-0.010911
 30
0.0
 11
1.422749
 21
-0.010911
 31
0.0
  0
ENDBLK
  8
0
  0
BLOCK
  8
0
  2
BLC29
 70
    64
 10
0.0
 20
0.0
 30
0.0
  3
BLC29
  0
LINE
  8
0
  6
CONTINUOUS
 10
0.004865
 20
1.206889
 30
0.0
 11
2.350631
 21
-0.128465
 31
0.0
  0
LINE
  8
0
  6
CONTINUOUS
 10
2.350631
 20
-0.128465
 30
0.0
 11
0.004865
 21
-1.318384
 31
0.0
  0
ENDBLK
  8
0
  0
BLOCK
  8
0
  2
BLC15
 70
    64
 10
0.0
 20
0.0
 30
0.0
  3
BLC15
  0
LINE
  8
0
  6
CONTINUOUS
 10
0.142084
 20
3.490022
 30
0.0
 11
0.142084
 21
0.844365
 31
0.0
  0
LINE
  8
0
  6
CONTINUOUS
 10
-0.461611
 20
-0.937188
 30
0.0
 11
0.745779
 21
-0.937188
 31
0.0
  0
LINE
  8
0
  6
CONTINUOUS
 10
-0.894108
 20
-0.049675
 30
0.0
 11
1.169267
 21
-0.049675
 31
0.0
  0
LINE
  8
0
  6
CONTINUOUS
 10
-1.389679
 20
0.844365
 30
0.0
 11
1.673848
 21
0.844365
 31
0.0
  0
ENDBLK
  8
0
  0
BLOCK
  8
0
  2
BLC43
 70
    64
 10
0.0
 20
0.0
 30
0.0
  3
BLC43
  0
TEXT
  8
SWEDEN2
  6
CONTINUOUS
 10
-0.646672
 20
-0.986365
 30
0.0
 40
2.0
  1
+
  0
ENDBLK
  8
0
  0
BLOCK
  8
0
  2
BLC42
 70
    64
 10
0.0
 20
0.0
 30
0.0
  3
BLC42
  0
TEXT
  8
SWEDEN2
  6
CONTINUOUS
 10
-0.655237
 20
-0.99442
 30
0.0
 40
2.0
  1
-
  0
ENDBLK
  8
0
  0
BLOCK
  8
0
  2
B155
 70
     0
 10
0.0
 20
0.0
 30
0.0
  3
B155
  0
LINE
  8
0
  6
CONTINUOUS
 10
0.0
 20
0.0
 30
0.0
 11
0.0
 21
-1.35427
 31
0.0
  0
LINE
  8
0
  6
CONTINUOUS
 10
-1.210228
 20
-1.35427
 30
0.0
 11
-0.015887
 21
-1.35427
 31
0.0
  0
LINE
  8
0
  6
CONTINUOUS
 10
-0.015887
 20
-1.35427
 30
0.0
 11
1.178454
 21
-1.35427
 31
0.0
  0
LINE
  8
0
  6
CONTINUOUS
 10
-0.831823
 20
-1.833881
 30
0.0
 11
0.752749
 21
-1.833881
 31
0.0
  0
LINE
  8
0
  6
CONTINUOUS
 10
-0.500718
 20
-2.322055
 30
0.0
 11
0.386169
 21
-2.322055
 31
0.0
  0
ENDBLK
  8
0
  0
BLOCK
  8
0
  2
ABBA3SX
 70
    64
 10
0.0
 20
0.0
 30
0.0
  3
ABBA3SX
  0
TEXT
  8
RAAMI
  6
DASHED
 10
354.190282
 20
15.793111
 30
0.0
 40
1.4
  1
LEHTI SHEET
  7
STAND
  0
LINE
  8
PAKSU
 10
0.236802
 20
0.237701
 30
0.0
 11
0.236802
 21
262.737701
 31
0.0
  0
LINE
  8
PAKSU
 10
392.236802
 20
262.737701
 30
0.0
 11
392.236802
 21
0.237701
 31
0.0
  0
LINE
  8
PAKSU
 10
0.236802
 20
0.237701
 30
0.0
 11
392.236802
 21
0.237701
 31
0.0
  0
TEXT
  8
RAAMI
 10
42.236802
 20
5.587211
 30
0.0
 40
2.5
  1
C
  7
ROMANS
  0
TEXT
  8
RAAMI
 10
42.236802
 20
1.194994
 30
0.0
 40
2.5
  1
B
  7
ROMANS
  0
TEXT
  8
RAAMI
 10
257.406709
 20
1.741485
 30
0.0
 40
3.0
  1
Power
 41
0.8
  7
ROMANS
  0
TEXT
  8
RAAMI
 10
273.236802
 20
7.237701
 30
0.0
 40
1.4
  1
VAST.OSASTO RESP.DEPT.
  7
ROMANS
  0
TEXT
  8
RAAMI
 10
210.236802
 20
32.237701
 30
0.0
 40
1.4
  1
TEKI  PREPARED
  7
ROMANS
  0
LINE
  8
OHUT
 10
271.236802
 20
9.737701
 30
0.0
 11
271.236802
 21
0.237701
 31
0.0
  0
LINE
  8
OHUT
 10
257.236802
 20
9.737701
 30
0.0
 11
257.236802
 21
35.237701
 31
0.0
  0
LINE
  8
OHUT
 10
40.736802
 20
4.737701
 30
0.0
 11
209.236802
 21
4.737701
 31
0.0
  0
LINE
  8
OHUT
 10
46.736802
 20
0.237701
 30
0.0
 11
46.736802
 21
9.237701
 31
0.0
  0
LINE
  8
OHUT
 10
46.736802
 20
9.237701
 30
0.0
 11
209.236802
 21
9.237701
 31
0.0
  0
TEXT
  8
RAAMI
 10
27.736802
 20
2.471035
 30
0.0
 40
1.4
  1
REVISION
  7
ROMANS
  0
TEXT
  8
RAAMI
 10
27.736802
 20
4.737701
 30
0.0
 40
1.4
  1
MUUTOS
  7
ROMANS
  0
LINE
  8
OHUT
 10
282.236802
 20
9.737701
 30
0.0
 11
282.236802
 21
18.237701
 31
0.0
  0
TEXT
  8
RAAMI
 10
237.736802
 20
1.737701
 30
0.0
 40
3.0
  1
Strömberg
 41
0.8
  7
ROMANS
  0
TEXT
  8
RAAMI
 10
229.736802
 20
1.737701
 30
0.0
 40
3.0
  1
ABB 
 41
0.8
  7
ROMANS
  0
LINE
  8
RAAMI
 10
223.136802
 20
1.737701
 30
0.0
 11
223.136802
 21
5.097701
 31
0.0
  0
LINE
  8
RAAMI
 10
223.136802
 20
8.737701
 30
0.0
 11
225.096802
 21
8.737701
 31
0.0
  0
LINE
  8
RAAMI
 10
225.096802
 20
8.737701
 30
0.0
 11
225.096802
 21
5.377701
 31
0.0
  0
LINE
  8
RAAMI
 10
225.096802
 20
5.377701
 30
0.0
 11
223.136802
 21
5.377701
 31
0.0
  0
LINE
  8
RAAMI
 10
223.136802
 20
5.097701
 30
0.0
 11
225.096802
 21
5.097701
 31
0.0
  0
LINE
  8
RAAMI
 10
225.096802
 20
5.097701
 30
0.0
 11
225.096802
 21
1.737701
 31
0.0
  0
LINE
  8
RAAMI
 10
225.096802
 20
1.737701
 30
0.0
 11
223.136802
 21
1.737701
 31
0.0
  0
LINE
  8
RAAMI
 10
223.136802
 20
5.377701
 30
0.0
 11
223.136802
 21
8.737701
 31
0.0
  0
ARC
  8
RAAMI
 10
225.936802
 20
7.162701
 30
0.0
 40
1.575
 50
298.455859
 51
90.052437
  0
LINE
  8
RAAMI
 10
225.376802
 20
8.737701
 30
0.0
 11
225.935361
 21
8.737701
 31
0.0
  0
LINE
  8
RAAMI
 10
225.376802
 20
8.737701
 30
0.0
 11
225.376802
 21
5.377701
 31
0.0
  0
LINE
  8
RAAMI
 10
225.376802
 20
5.377701
 30
0.0
 11
227.361245
 21
5.377701
 31
0.0
  0
LINE
  8
RAAMI
 10
227.616802
 20
5.097701
 30
0.0
 11
225.376802
 21
5.097701
 31
0.0
  0
LINE
  8
RAAMI
 10
225.376802
 20
5.097701
 30
0.0
 11
225.376802
 21
1.737701
 31
0.0
  0
ARC
  8
RAAMI
 10
225.936802
 20
3.837701
 30
0.0
 40
2.1
 50
269.937724
 51
37.056553
  0
LINE
  8
RAAMI
 10
225.376802
 20
1.737701
 30
0.0
 11
225.93452
 21
1.737703
 31
0.0
  0
ARC
  8
RAAMI
 10
225.936802
 20
3.837701
 30
0.0
 40
2.1
 50
47.28622
 51
68.787999
  0
INSERT
  8
RAAMI
  2
*X13
 10
215.646802
 20
1.737701
 30
0.0
 41
0.7
 42
0.7
 43
0.7
  0
INSERT
  8
RAAMI
  2
*X14
 10
215.646802
 20
1.737701
 30
0.0
 41
0.7
 42
0.7
 43
0.7
  0
INSERT
  8
RAAMI
  2
*X15
 10
215.646802
 20
1.737701
 30
0.0
 41
0.7
 42
0.7
 43
0.7
  0
INSERT
  8
RAAMI
  2
*X16
 10
215.646802
 20
1.737701
 30
0.0
 41
0.7
 42
0.7
 43
0.7
  0
INSERT
  8
RAAMI
  2
*X16
 10
210.186802
 20
1.737701
 30
0.0
 41
0.7
 42
0.7
 43
0.7
  0
INSERT
  8
RAAMI
  2
*X15
 10
210.186802
 20
1.737701
 30
0.0
 41
0.7
 42
0.7
 43
0.7
  0
INSERT
  8
RAAMI
  2
*X14
 10
210.186802
 20
1.737701
 30
0.0
 41
0.7
 42
0.7
 43
0.7
  0
INSERT
  8
RAAMI
  2
*X13
 10
210.186802
 20
1.737701
 30
0.0
 41
0.7
 42
0.7
 43
0.7
  0
ARC
  8
RAAMI
 10
220.476802
 20
3.837701
 30
0.0
 40
2.1
 50
47.28622
 51
68.787999
  0
LINE
  8
RAAMI
 10
219.916802
 20
1.737701
 30
0.0
 11
220.47452
 21
1.737703
 31
0.0
  0
ARC
  8
RAAMI
 10
220.476802
 20
3.837701
 30
0.0
 40
2.1
 50
269.937724
 51
37.056553
  0
LINE
  8
RAAMI
 10
219.916802
 20
5.097701
 30
0.0
 11
219.916802
 21
1.737701
 31
0.0
  0
LINE
  8
RAAMI
 10
222.156802
 20
5.097701
 30
0.0
 11
219.916802
 21
5.097701
 31
0.0
  0
LINE
  8
RAAMI
 10
219.916802
 20
5.377701
 30
0.0
 11
221.901245
 21
5.377701
 31
0.0
  0
LINE
  8
RAAMI
 10
219.916802
 20
8.737701
 30
0.0
 11
219.916802
 21
5.377701
 31
0.0
  0
LINE
  8
RAAMI
 10
219.916802
 20
8.737701
 30
0.0
 11
220.475361
 21
8.737701
 31
0.0
  0
ARC
  8
RAAMI
 10
220.476802
 20
7.162701
 30
0.0
 40
1.575
 50
298.455859
 51
90.052437
  0
LINE
  8
RAAMI
 10
217.676802
 20
5.377701
 30
0.0
 11
217.676802
 21
8.737701
 31
0.0
  0
LINE
  8
RAAMI
 10
219.636802
 20
1.737701
 30
0.0
 11
217.676802
 21
1.737701
 31
0.0
  0
LINE
  8
RAAMI
 10
219.636802
 20
5.097701
 30
0.0
 11
219.636802
 21
1.737701
 31
0.0
  0
LINE
  8
RAAMI
 10
217.676802
 20
5.097701
 30
0.0
 11
219.636802
 21
5.097701
 31
0.0
  0
LINE
  8
RAAMI
 10
219.636802
 20
5.377701
 30
0.0
 11
217.676802
 21
5.377701
 31
0.0
  0
LINE
  8
RAAMI
 10
219.636802
 20
8.737701
 30
0.0
 11
219.636802
 21
5.377701
 31
0.0
  0
LINE
  8
RAAMI
 10
217.676802
 20
8.737701
 30
0.0
 11
219.636802
 21
8.737701
 31
0.0
  0
LINE
  8
RAAMI
 10
217.676802
 20
1.737701
 30
0.0
 11
217.676802
 21
5.097701
 31
0.0
  0
INSERT
  8
RAAMI
  2
*X12
 10
210.186802
 20
1.737701
 30
0.0
 41
0.7
 42
0.7
 43
0.7
  0
INSERT
  8
RAAMI
  2
*X11
 10
210.186802
 20
1.737701
 30
0.0
 41
0.7
 42
0.7
 43
0.7
  0
INSERT
  8
RAAMI
  2
*X10
 10
210.186802
 20
1.737701
 30
0.0
 41
0.7
 42
0.7
 43
0.7
  0
INSERT
  8
RAAMI
  2
*X9
 10
210.186802
 20
1.737701
 30
0.0
 41
0.7
 42
0.7
 43
0.7
  0
LINE
  8
RAAMI
 10
211.356691
 20
5.08024
 30
0.0
 11
210.186802
 21
1.737701
 31
0.0
  0
LINE
  8
RAAMI
 10
213.546802
 20
5.097701
 30
0.0
 11
213.546802
 21
3.137701
 31
0.0
  0
LINE
  8
RAAMI
 10
213.826802
 20
5.097701
 30
0.0
 11
213.826802
 21
3.137701
 31
0.0
  0
LINE
  8
RAAMI
 10
213.826802
 20
5.097701
 30
0.0
 11
216.010059
 21
5.097701
 31
0.0
  0
LINE
  8
RAAMI
 10
213.826802
 20
5.377701
 30
0.0
 11
215.911916
 21
5.377701
 31
0.0
  0
LINE
  8
RAAMI
 10
216.011294
 20
5.096296
 30
0.0
 11
217.186802
 21
1.737701
 31
0.0
  0
LINE
  8
RAAMI
 10
211.359785
 20
5.097701
 30
0.0
 11
213.546802
 21
5.097701
 31
0.0
  0
LINE
  8
RAAMI
 10
211.458743
 20
5.377701
 30
0.0
 11
213.546802
 21
5.377701
 31
0.0
  0
LINE
  8
RAAMI
 10
213.546802
 20
8.737701
 30
0.0
 11
212.636802
 21
8.737701
 31
0.0
  0
LINE
  8
RAAMI
 10
213.826802
 20
3.137701
 30
0.0
 11
214.946696
 21
3.137701
 31
0.0
  0
LINE
  8
RAAMI
 10
213.826802
 20
8.737701
 30
0.0
 11
213.826802
 21
5.377701
 31
0.0
  0
LINE
  8
RAAMI
 10
213.546802
 20
8.737701
 30
0.0
 11
213.546802
 21
5.377701
 31
0.0
  0
LINE
  8
RAAMI
 10
214.736802
 20
8.737701
 30
0.0
 11
213.826802
 21
8.737701
 31
0.0
  0
LINE
  8
RAAMI
 10
214.9479
 20
3.134565
 30
0.0
 11
215.436802
 21
1.737701
 31
0.0
  0
LINE
  8
RAAMI
 10
214.736802
 20
8.737701
 30
0.0
 11
215.913155
 21
5.376693
 31
0.0
  0
LINE
  8
RAAMI
 10
212.425592
 20
3.134244
 30
0.0
 11
211.936802
 21
1.737701
 31
0.0
  0
LINE
  8
RAAMI
 10
212.425589
 20
3.137701
 30
0.0
 11
213.546802
 21
3.137701
 31
0.0
  0
LINE
  8
RAAMI
 10
212.636802
 20
8.737701
 30
0.0
 11
211.459274
 21
5.373336
 31
0.0
  0
LINE
  8
RAAMI
 10
215.436802
 20
1.737701
 30
0.0
 11
217.186802
 21
1.737701
 31
0.0
  0
LINE
  8
RAAMI
 10
210.186802
 20
1.737701
 30
0.0
 11
211.936802
 21
1.737701
 31
0.0
  0
LINE
  8
OHUT
 10
369.736802
 20
9.737701
 30
0.0
 11
369.736802
 21
0.237701
 31
0.0
  0
TEXT
  8
RAAMI
 10
371.236802
 20
7.237701
 30
0.0
 40
1.4
  1
PAINOS  REVISION
  7
ROMANS
  0
LINE
  8
OHUT
 10
349.736802
 20
9.737701
 30
0.0
 11
349.736802
 21
18.237701
 31
0.0
  0
TEXT
  8
RAAMI
 10
309.236802
 20
7.237701
 30
0.0
 40
1.4
  1
PIIRUSTUS NO  DRAWING NR
  7
ROMANS
  0
TEXT
  8
RAAMI
 10
309.236802
 20
15.737701
 30
0.0
 40
1.4
  1
KOODI  CODE
  7
ROMANS
  0
TEXT
  8
RAAMI
 10
309.236802
 20
32.737701
 30
0.0
 40
1.4
  1
NIMITYS  NAME
  7
ROMANS
  0
TEXT
  8
RAAMI
 10
259.236802
 20
15.737701
 30
0.0
 40
1.4
  1
SUHDE  SCALE
  7
ROMANS
  0
TEXT
  8
RAAMI
 10
259.236802
 20
23.737701
 30
0.0
 40
1.4
  1
TOLERANSSIT  TOLERANCES
  7
ROMANS
  0
TEXT
  8
RAAMI
 10
259.236802
 20
32.737701
 30
0.0
 40
1.4
  1
LIITTYY  CONCERNING
  7
ROMANS
  0
LINE
  8
OHUT
 10
307.236802
 20
0.237701
 30
0.0
 11
307.236802
 21
35.237701
 31
0.0
  0
TEXT
  8
RAAMI
 10
209.979637
 20
15.704368
 30
0.0
 40
1.4
  1
HYVÄKSYI  APPROVED
  7
ROMANS
  0
TEXT
  8
RAAMI
 10
210.236802
 20
23.971035
 30
0.0
 40
1.4
  1
TARKASTI  CHECKED
  7
ROMANS
  0
LINE
  8
PAKSU
 10
209.236802
 20
35.237701
 30
0.0
 11
392.236802
 21
35.237701
 31
0.0
  0
LINE
  8
OHUT
 10
209.236802
 20
26.737701
 30
0.0
 11
307.236802
 21
26.737701
 31
0.0
  0
LINE
  8
OHUT
 10
209.236802
 20
9.737701
 30
0.0
 11
392.236802
 21
9.737701
 31
0.0
  0
LINE
  8
OHUT
 10
209.236802
 20
18.237701
 30
0.0
 11
392.236802
 21
18.237701
 31
0.0
  0
LINE
  8
PAKSU
 10
392.236802
 20
0.237701
 30
0.0
 11
392.236802
 21
35.237701
 31
0.0
  0
LINE
  8
PAKSU
 10
209.236802
 20
0.237701
 30
0.0
 11
209.236802
 21
35.237701
 31
0.0
  0
LINE
  8
PAKSU
 10
209.236802
 20
0.237701
 30
0.0
 11
392.236802
 21
0.237701
 31
0.0
  0
LINE
  8
RAAMI
 10
18.236802
 20
0.237701
 30
0.0
 11
0.236802
 21
0.237701
 31
0.0
  0
LINE
  8
PAKSU
 10
0.236802
 20
262.737701
 30
0.0
 11
392.236802
 21
262.737701
 31
0.0
  0
TEXT
  8
RAAMI
  6
DASHED
 10
292.216898
 20
11.813061
 30
0.0
 40
3.0
  1
A3
  7
GREEKS
  0
ENDBLK
  8
0
  0
BLOCK
  8
0
  2
*X9
 70
    65
 10
0.0
 20
0.0
 30
0.0
  3
*X
  0
LINE
  8
0
 62
     0
 10
2.284499
 20
6.52714
 30
0.0
 11
4.8
 21
9.042641
 31
0.0
  0
LINE
  8
0
 62
     0
 10
2.379686
 20
6.799104
 30
0.0
 11
4.8
 21
9.219417
 31
0.0
  0
LINE
  8
0
 62
     0
 10
2.474874
 20
7.071068
 30
0.0
 11
4.8
 21
9.396194
 31
0.0
  0
LINE
  8
0
 62
     0
 10
2.570061
 20
7.343032
 30
0.0
 11
4.8
 21
9.572971
 31
0.0
  0
LINE
  8
0
 62
     0
 10
2.665249
 20
7.614996
 30
0.0
 11
4.8
 21
9.749747
 31
0.0
  0
LINE
  8
0
 62
     0
 10
2.760436
 20
7.88696
 30
0.0
 11
4.8
 21
9.926524
 31
0.0
  0
LINE
  8
0
 62
     0
 10
2.855624
 20
8.158924
 30
0.0
 11
4.696699
 21
10.0
 31
0.0
  0
LINE
  8
0
 62
     0
 10
2.950811
 20
8.430889
 30
0.0
 11
4.519922
 21
10.0
 31
0.0
  0
LINE
  8
0
 62
     0
 10
3.045998
 20
8.702853
 30
0.0
 11
4.343146
 21
10.0
 31
0.0
  0
LINE
  8
0
 62
     0
 10
3.141186
 20
8.974817
 30
0.0
 11
4.166369
 21
10.0
 31
0.0
  0
LINE
  8
0
 62
     0
 10
3.236373
 20
9.246781
 30
0.0
 11
3.989592
 21
10.0
 31
0.0
  0
LINE
  8
0
 62
     0
 10
3.331561
 20
9.518745
 30
0.0
 11
3.812816
 21
10.0
 31
0.0
  0
LINE
  8
0
 62
     0
 10
3.426748
 20
9.790709
 30
0.0
 11
3.636039
 21
10.0
 31
0.0
  0
LINE
  8
0
 62
     0
 10
2.189311
 20
6.255175
 30
0.0
 11
4.8
 21
8.865864
 31
0.0
  0
LINE
  8
0
 62
     0
 10
2.094124
 20
5.983211
 30
0.0
 11
4.8
 21
8.689087
 31
0.0
  0
LINE
  8
0
 62
     0
 10
1.998936
 20
5.711247
 30
0.0
 11
4.8
 21
8.512311
 31
0.0
  0
LINE
  8
0
 62
     0
 10
1.903749
 20
5.439283
 30
0.0
 11
4.8
 21
8.335534
 31
0.0
  0
LINE
  8
0
 62
     0
 10
1.841243
 20
5.2
 30
0.0
 11
4.8
 21
8.158757
 31
0.0
  0
LINE
  8
0
 62
     0
 10
2.018019
 20
5.2
 30
0.0
 11
4.8
 21
7.981981
 31
0.0
  0
LINE
  8
0
 62
     0
 10
2.194796
 20
5.2
 30
0.0
 11
4.8
 21
7.805204
 31
0.0
  0
LINE
  8
0
 62
     0
 10
2.371573
 20
5.2
 30
0.0
 11
4.8
 21
7.628427
 31
0.0
  0
LINE
  8
0
 62
     0
 10
2.54835
 20
5.2
 30
0.0
 11
4.8
 21
7.45165
 31
0.0
  0
LINE
  8
0
 62
     0
 10
2.725126
 20
5.2
 30
0.0
 11
4.8
 21
7.274874
 31
0.0
  0
LINE
  8
0
 62
     0
 10
2.901903
 20
5.2
 30
0.0
 11
4.8
 21
7.098097
 31
0.0
  0
LINE
  8
0
 62
     0
 10
3.07868
 20
5.2
 30
0.0
 11
4.8
 21
6.92132
 31
0.0
  0
LINE
  8
0
 62
     0
 10
3.255456
 20
5.2
 30
0.0
 11
4.8
 21
6.744544
 31
0.0
  0
LINE
  8
0
 62
     0
 10
3.432233
 20
5.2
 30
0.0
 11
4.8
 21
6.567767
 31
0.0
  0
LINE
  8
0
 62
     0
 10
3.60901
 20
5.2
 30
0.0
 11
4.8
 21
6.39099
 31
0.0
  0
LINE
  8
0
 62
     0
 10
3.785786
 20
5.2
 30
0.0
 11
4.8
 21
6.214214
 31
0.0
  0
LINE
  8
0
 62
     0
 10
3.962563
 20
5.2
 30
0.0
 11
4.8
 21
6.037437
 31
0.0
  0
LINE
  8
0
 62
     0
 10
4.13934
 20
5.2
 30
0.0
 11
4.8
 21
5.86066
 31
0.0
  0
LINE
  8
0
 62
     0
 10
4.316117
 20
5.2
 30
0.0
 11
4.8
 21
5.683883
 31
0.0
  0
LINE
  8
0
 62
     0
 10
4.492893
 20
5.2
 30
0.0
 11
4.8
 21
5.507107
 31
0.0
  0
LINE
  8
0
 62
     0
 10
4.66967
 20
5.2
 30
0.0
 11
4.8
 21
5.33033
 31
0.0
  0
ENDBLK
  8
0
  0
BLOCK
  8
0
  2
*X10
 70
    65
 10
0.0
 20
0.0
 30
0.0
  3
*X
  0
LINE
  8
0
 62
     0
 10
5.2
 20
6.083883
 30
0.0
 11
7.178252
 21
8.062136
 31
0.0
  0
LINE
  8
0
 62
     0
 10
5.2
 20
6.26066
 30
0.0
 11
7.132421
 21
8.193082
 31
0.0
  0
LINE
  8
0
 62
     0
 10
5.2
 20
6.437437
 30
0.0
 11
7.08659
 21
8.324027
 31
0.0
  0
LINE
  8
0
 62
     0
 10
5.2
 20
6.614214
 30
0.0
 11
7.040759
 21
8.454973
 31
0.0
  0
LINE
  8
0
 62
     0
 10
5.2
 20
6.79099
 30
0.0
 11
6.994928
 21
8.585919
 31
0.0
  0
LINE
  8
0
 62
     0
 10
5.2
 20
6.967767
 30
0.0
 11
6.949097
 21
8.716864
 31
0.0
  0
LINE
  8
0
 62
     0
 10
5.2
 20
7.144544
 30
0.0
 11
6.903266
 21
8.84781
 31
0.0
  0
LINE
  8
0
 62
     0
 10
5.2
 20
7.32132
 30
0.0
 11
6.857435
 21
8.978756
 31
0.0
  0
LINE
  8
0
 62
     0
 10
5.2
 20
7.498097
 30
0.0
 11
6.811604
 21
9.109702
 31
0.0
  0
LINE
  8
0
 62
     0
 10
5.2
 20
7.674874
 30
0.0
 11
6.765773
 21
9.240647
 31
0.0
  0
LINE
  8
0
 62
     0
 10
5.2
 20
7.85165
 30
0.0
 11
6.719942
 21
9.371593
 31
0.0
  0
LINE
  8
0
 62
     0
 10
5.2
 20
8.028427
 30
0.0
 11
6.674111
 21
9.502539
 31
0.0
  0
LINE
  8
0
 62
     0
 10
5.2
 20
8.205204
 30
0.0
 11
6.62828
 21
9.633484
 31
0.0
  0
LINE
  8
0
 62
     0
 10
5.2
 20
8.381981
 30
0.0
 11
6.582449
 21
9.76443
 31
0.0
  0
LINE
  8
0
 62
     0
 10
5.2
 20
8.558757
 30
0.0
 11
6.536619
 21
9.895376
 31
0.0
  0
LINE
  8
0
 62
     0
 10
5.2
 20
8.735534
 30
0.0
 11
6.464466
 21
10.0
 31
0.0
  0
LINE
  8
0
 62
     0
 10
5.2
 20
8.912311
 30
0.0
 11
6.287689
 21
10.0
 31
0.0
  0
LINE
  8
0
 62
     0
 10
5.2
 20
9.089087
 30
0.0
 11
6.110913
 21
10.0
 31
0.0
  0
LINE
  8
0
 62
     0
 10
5.2
 20
9.265864
 30
0.0
 11
5.934136
 21
10.0
 31
0.0
  0
LINE
  8
0
 62
     0
 10
5.2
 20
9.442641
 30
0.0
 11
5.757359
 21
10.0
 31
0.0
  0
LINE
  8
0
 62
     0
 10
5.2
 20
9.619417
 30
0.0
 11
5.580583
 21
10.0
 31
0.0
  0
LINE
  8
0
 62
     0
 10
5.2
 20
9.796194
 30
0.0
 11
5.403806
 21
10.0
 31
0.0
  0
LINE
  8
0
 62
     0
 10
5.2
 20
9.972971
 30
0.0
 11
5.227029
 21
10.0
 31
0.0
  0
LINE
  8
0
 62
     0
 10
5.2
 20
5.907107
 30
0.0
 11
7.224083
 21
7.93119
 31
0.0
  0
LINE
  8
0
 62
     0
 10
5.2
 20
5.73033
 30
0.0
 11
7.269914
 21
7.800245
 31
0.0
  0
LINE
  8
0
 62
     0
 10
5.2
 20
5.553553
 30
0.0
 11
7.315745
 21
7.669299
 31
0.0
  0
LINE
  8
0
 62
     0
 10
5.2
 20
5.376777
 30
0.0
 11
7.361576
 21
7.538353
 31
0.0
  0
LINE
  8
0
 62
     0
 10
5.2
 20
5.2
 30
0.0
 11
7.407407
 21
7.407407
 31
0.0
  0
LINE
  8
0
 62
     0
 10
5.376777
 20
5.2
 30
0.0
 11
7.453238
 21
7.276462
 31
0.0
  0
LINE
  8
0
 62
     0
 10
5.553553
 20
5.2
 30
0.0
 11
7.499069
 21
7.145516
 31
0.0
  0
LINE
  8
0
 62
     0
 10
5.73033
 20
5.2
 30
0.0
 11
7.5449
 21
7.01457
 31
0.0
  0
LINE
  8
0
 62
     0
 10
5.907107
 20
5.2
 30
0.0
 11
7.590731
 21
6.883625
 31
0.0
  0
LINE
  8
0
 62
     0
 10
6.083883
 20
5.2
 30
0.0
 11
7.636562
 21
6.752679
 31
0.0
  0
LINE
  8
0
 62
     0
 10
6.26066
 20
5.2
 30
0.0
 11
7.682393
 21
6.621733
 31
0.0
  0
LINE
  8
0
 62
     0
 10
6.437437
 20
5.2
 30
0.0
 11
7.728224
 21
6.490788
 31
0.0
  0
LINE
  8
0
 62
     0
 10
6.614214
 20
5.2
 30
0.0
 11
7.774055
 21
6.359842
 31
0.0
  0
LINE
  8
0
 62
     0
 10
6.79099
 20
5.2
 30
0.0
 11
7.819886
 21
6.228896
 31
0.0
  0
LINE
  8
0
 62
     0
 10
6.967767
 20
5.2
 30
0.0
 11
7.865717
 21
6.09795
 31
0.0
  0
LINE
  8
0
 62
     0
 10
7.144544
 20
5.2
 30
0.0
 11
7.911548
 21
5.967005
 31
0.0
  0
LINE
  8
0
 62
     0
 10
7.32132
 20
5.2
 30
0.0
 11
7.957379
 21
5.836059
 31
0.0
  0
LINE
  8
0
 62
     0
 10
7.498097
 20
5.2
 30
0.0
 11
8.00321
 21
5.705113
 31
0.0
  0
LINE
  8
0
 62
     0
 10
7.674874
 20
5.2
 30
0.0
 11
8.049041
 21
5.574168
 31
0.0
  0
LINE
  8
0
 62
     0
 10
7.85165
 20
5.2
 30
0.0
 11
8.094872
 21
5.443222
 31
0.0
  0
LINE
  8
0
 62
     0
 10
8.028427
 20
5.2
 30
0.0
 11
8.140703
 21
5.312276
 31
0.0
  0
ENDBLK
  8
0
  0
BLOCK
  8
0
  2
*X11
 70
    65
 10
0.0
 20
0.0
 30
0.0
  3
*X
  0
LINE
  8
0
 62
     0
 10
0.0
 20
0.0
 30
0.0
 11
4.8
 21
4.8
 31
0.0
  0
LINE
  8
0
 62
     0
 10
0.095187
 20
0.271964
 30
0.0
 11
4.623223
 21
4.8
 31
0.0
  0
LINE
  8
0
 62
     0
 10
0.190375
 20
0.543928
 30
0.0
 11
4.446447
 21
4.8
 31
0.0
  0
LINE
  8
0
 62
     0
 10
0.285562
 20
0.815892
 30
0.0
 11
4.26967
 21
4.8
 31
0.0
  0
LINE
  8
0
 62
     0
 10
0.38075
 20
1.087857
 30
0.0
 11
4.092893
 21
4.8
 31
0.0
  0
LINE
  8
0
 62
     0
 10
0.475937
 20
1.359821
 30
0.0
 11
3.916117
 21
4.8
 31
0.0
  0
LINE
  8
0
 62
     0
 10
0.571125
 20
1.631785
 30
0.0
 11
3.73934
 21
4.8
 31
0.0
  0
LINE
  8
0
 62
     0
 10
0.666312
 20
1.903749
 30
0.0
 11
3.562563
 21
4.8
 31
0.0
  0
LINE
  8
0
 62
     0
 10
0.7615
 20
2.175713
 30
0.0
 11
3.385786
 21
4.8
 31
0.0
  0
LINE
  8
0
 62
     0
 10
0.856687
 20
2.447677
 30
0.0
 11
3.20901
 21
4.8
 31
0.0
  0
LINE
  8
0
 62
     0
 10
0.951875
 20
2.719641
 30
0.0
 11
3.032233
 21
4.8
 31
0.0
  0
LINE
  8
0
 62
     0
 10
1.047062
 20
2.991606
 30
0.0
 11
2.855456
 21
4.8
 31
0.0
  0
LINE
  8
0
 62
     0
 10
1.142249
 20
3.26357
 30
0.0
 11
2.67868
 21
4.8
 31
0.0
  0
LINE
  8
0
 62
     0
 10
1.237437
 20
3.535534
 30
0.0
 11
2.501903
 21
4.8
 31
0.0
  0
LINE
  8
0
 62
     0
 10
1.332624
 20
3.807498
 30
0.0
 11
2.325126
 21
4.8
 31
0.0
  0
LINE
  8
0
 62
     0
 10
1.427812
 20
4.079462
 30
0.0
 11
2.14835
 21
4.8
 31
0.0
  0
LINE
  8
0
 62
     0
 10
1.522999
 20
4.351426
 30
0.0
 11
1.971573
 21
4.8
 31
0.0
  0
LINE
  8
0
 62
     0
 10
1.618187
 20
4.62339
 30
0.0
 11
1.794796
 21
4.8
 31
0.0
  0
LINE
  8
0
 62
     0
 10
0.176777
 20
0.0
 30
0.0
 11
4.8
 21
4.623223
 31
0.0
  0
LINE
  8
0
 62
     0
 10
0.353553
 20
0.0
 30
0.0
 11
4.8
 21
4.446447
 31
0.0
  0
LINE
  8
0
 62
     0
 10
0.53033
 20
0.0
 30
0.0
 11
4.8
 21
4.26967
 31
0.0
  0
LINE
  8
0
 62
     0
 10
0.707107
 20
0.0
 30
0.0
 11
4.8
 21
4.092893
 31
0.0
  0
LINE
  8
0
 62
     0
 10
0.883883
 20
0.0
 30
0.0
 11
4.8
 21
3.916117
 31
0.0
  0
LINE
  8
0
 62
     0
 10
1.06066
 20
0.0
 30
0.0
 11
4.8
 21
3.73934
 31
0.0
  0
LINE
  8
0
 62
     0
 10
1.237437
 20
0.0
 30
0.0
 11
3.179842
 21
1.942405
 31
0.0
  0
LINE
  8
0
 62
     0
 10
3.237437
 20
2.0
 30
0.0
 11
4.8
 21
3.562563
 31
0.0
  0
LINE
  8
0
 62
     0
 10
1.414214
 20
0.0
 30
0.0
 11
3.084654
 21
1.670441
 31
0.0
  0
LINE
  8
0
 62
     0
 10
3.414214
 20
2.0
 30
0.0
 11
4.8
 21
3.385786
 31
0.0
  0
LINE
  8
0
 62
     0
 10
1.59099
 20
0.0
 30
0.0
 11
2.989467
 21
1.398477
 31
0.0
  0
LINE
  8
0
 62
     0
 10
3.59099
 20
2.0
 30
0.0
 11
4.8
 21
3.20901
 31
0.0
  0
LINE
  8
0
 62
     0
 10
1.767767
 20
0.0
 30
0.0
 11
2.894279
 21
1.126512
 31
0.0
  0
LINE
  8
0
 62
     0
 10
3.767767
 20
2.0
 30
0.0
 11
4.8
 21
3.032233
 31
0.0
  0
LINE
  8
0
 62
     0
 10
1.944544
 20
0.0
 30
0.0
 11
2.799092
 21
0.854548
 31
0.0
  0
LINE
  8
0
 62
     0
 10
3.944544
 20
2.0
 30
0.0
 11
4.8
 21
2.855456
 31
0.0
  0
LINE
  8
0
 62
     0
 10
2.12132
 20
0.0
 30
0.0
 11
2.703904
 21
0.582584
 31
0.0
  0
LINE
  8
0
 62
     0
 10
4.12132
 20
2.0
 30
0.0
 11
4.8
 21
2.67868
 31
0.0
  0
LINE
  8
0
 62
     0
 10
2.298097
 20
0.0
 30
0.0
 11
2.608717
 21
0.31062
 31
0.0
  0
LINE
  8
0
 62
     0
 10
4.298097
 20
2.0
 30
0.0
 11
4.8
 21
2.501903
 31
0.0
  0
LINE
  8
0
 62
     0
 10
2.474874
 20
0.0
 30
0.0
 11
2.51353
 21
0.038656
 31
0.0
  0
LINE
  8
0
 62
     0
 10
4.474874
 20
2.0
 30
0.0
 11
4.8
 21
2.325126
 31
0.0
  0
LINE
  8
0
 62
     0
 10
4.65165
 20
2.0
 30
0.0
 11
4.8
 21
2.14835
 31
0.0
  0
ENDBLK
  8
0
  0
BLOCK
  8
0
  2
*X12
 70
    65
 10
0.0
 20
0.0
 30
0.0
  3
*X
  0
LINE
  8
0
 62
     0
 10
6.884654
 20
1.75813
 30
0.0
 11
8.736506
 21
3.609982
 31
0.0
  0
LINE
  8
0
 62
     0
 10
6.838823
 20
1.889076
 30
0.0
 11
8.690675
 21
3.740928
 31
0.0
  0
LINE
  8
0
 62
     0
 10
6.772971
 20
2.0
 30
0.0
 11
8.644844
 21
3.871874
 31
0.0
  0
LINE
  8
0
 62
     0
 10
6.596194
 20
2.0
 30
0.0
 11
8.599013
 21
4.002819
 31
0.0
  0
LINE
  8
0
 62
     0
 10
6.419417
 20
2.0
 30
0.0
 11
8.553182
 21
4.133765
 31
0.0
  0
LINE
  8
0
 62
     0
 10
6.242641
 20
2.0
 30
0.0
 11
8.507351
 21
4.264711
 31
0.0
  0
LINE
  8
0
 62
     0
 10
6.065864
 20
2.0
 30
0.0
 11
8.46152
 21
4.395656
 31
0.0
  0
LINE
  8
0
 62
     0
 10
5.889087
 20
2.0
 30
0.0
 11
8.415689
 21
4.526602
 31
0.0
  0
LINE
  8
0
 62
     0
 10
5.712311
 20
2.0
 30
0.0
 11
8.369858
 21
4.657548
 31
0.0
  0
LINE
  8
0
 62
     0
 10
5.535534
 20
2.0
 30
0.0
 11
8.324027
 21
4.788493
 31
0.0
  0
LINE
  8
0
 62
     0
 10
5.358757
 20
2.0
 30
0.0
 11
8.158757
 21
4.8
 31
0.0
  0
LINE
  8
0
 62
     0
 10
5.2
 20
2.018019
 30
0.0
 11
7.981981
 21
4.8
 31
0.0
  0
LINE
  8
0
 62
     0
 10
5.2
 20
2.194796
 30
0.0
 11
7.805204
 21
4.8
 31
0.0
  0
LINE
  8
0
 62
     0
 10
5.2
 20
2.371573
 30
0.0
 11
7.628427
 21
4.8
 31
0.0
  0
LINE
  8
0
 62
     0
 10
5.2
 20
2.54835
 30
0.0
 11
7.45165
 21
4.8
 31
0.0
  0
LINE
  8
0
 62
     0
 10
5.2
 20
2.725126
 30
0.0
 11
7.274874
 21
4.8
 31
0.0
  0
LINE
  8
0
 62
     0
 10
5.2
 20
2.901903
 30
0.0
 11
7.098097
 21
4.8
 31
0.0
  0
LINE
  8
0
 62
     0
 10
5.2
 20
3.07868
 30
0.0
 11
6.92132
 21
4.8
 31
0.0
  0
LINE
  8
0
 62
     0
 10
5.2
 20
3.255456
 30
0.0
 11
6.744544
 21
4.8
 31
0.0
  0
LINE
  8
0
 62
     0
 10
5.2
 20
3.432233
 30
0.0
 11
6.567767
 21
4.8
 31
0.0
  0
LINE
  8
0
 62
     0
 10
5.2
 20
3.60901
 30
0.0
 11
6.39099
 21
4.8
 31
0.0
  0
LINE
  8
0
 62
     0
 10
5.2
 20
3.785786
 30
0.0
 11
6.214214
 21
4.8
 31
0.0
  0
LINE
  8
0
 62
     0
 10
5.2
 20
3.962563
 30
0.0
 11
6.037437
 21
4.8
 31
0.0
  0
LINE
  8
0
 62
     0
 10
5.2
 20
4.13934
 30
0.0
 11
5.86066
 21
4.8
 31
0.0
  0
LINE
  8
0
 62
     0
 10
5.2
 20
4.316117
 30
0.0
 11
5.683883
 21
4.8
 31
0.0
  0
LINE
  8
0
 62
     0
 10
5.2
 20
4.492893
 30
0.0
 11
5.507107
 21
4.8
 31
0.0
  0
LINE
  8
0
 62
     0
 10
5.2
 20
4.66967
 30
0.0
 11
5.33033
 21
4.8
 31
0.0
  0
LINE
  8
0
 62
     0
 10
6.930485
 20
1.627185
 30
0.0
 11
8.782337
 21
3.479036
 31
0.0
  0
LINE
  8
0
 62
     0
 10
6.976316
 20
1.496239
 30
0.0
 11
8.828168
 21
3.348091
 31
0.0
  0
LINE
  8
0
 62
     0
 10
7.022147
 20
1.365293
 30
0.0
 11
8.873999
 21
3.217145
 31
0.0
  0
LINE
  8
0
 62
     0
 10
7.067978
 20
1.234347
 30
0.0
 11
8.91983
 21
3.086199
 31
0.0
  0
LINE
  8
0
 62
     0
 10
7.113809
 20
1.103402
 30
0.0
 11
8.965661
 21
2.955254
 31
0.0
  0
LINE
  8
0
 62
     0
 10
7.15964
 20
0.972456
 30
0.0
 11
9.011492
 21
2.824308
 31
0.0
  0
LINE
  8
0
 62
     0
 10
7.205471
 20
0.84151
 30
0.0
 11
9.057323
 21
2.693362
 31
0.0
  0
LINE
  8
0
 62
     0
 10
7.251302
 20
0.710565
 30
0.0
 11
9.103154
 21
2.562416
 31
0.0
  0
LINE
  8
0
 62
     0
 10
7.297133
 20
0.579619
 30
0.0
 11
9.148985
 21
2.431471
 31
0.0
  0
LINE
  8
0
 62
     0
 10
7.342964
 20
0.448673
 30
0.0
 11
9.194816
 21
2.300525
 31
0.0
  0
LINE
  8
0
 62
     0
 10
7.388795
 20
0.317728
 30
0.0
 11
9.240647
 21
2.169579
 31
0.0
  0
LINE
  8
0
 62
     0
 10
7.434626
 20
0.186782
 30
0.0
 11
9.286478
 21
2.038634
 31
0.0
  0
LINE
  8
0
 62
     0
 10
7.480457
 20
0.055836
 30
0.0
 11
9.332309
 21
1.907688
 31
0.0
  0
LINE
  8
0
 62
     0
 10
7.601398
 20
0.0
 30
0.0
 11
9.37814
 21
1.776742
 31
0.0
  0
LINE
  8
0
 62
     0
 10
7.778175
 20
0.0
 30
0.0
 11
9.423971
 21
1.645797
 31
0.0
  0
LINE
  8
0
 62
     0
 10
7.954951
 20
0.0
 30
0.0
 11
9.469802
 21
1.514851
 31
0.0
  0
LINE
  8
0
 62
     0
 10
8.131728
 20
0.0
 30
0.0
 11
9.515633
 21
1.383905
 31
0.0
  0
LINE
  8
0
 62
     0
 10
8.308505
 20
0.0
 30
0.0
 11
9.561464
 21
1.252959
 31
0.0
  0
LINE
  8
0
 62
     0
 10
8.485281
 20
0.0
 30
0.0
 11
9.607295
 21
1.122014
 31
0.0
  0
LINE
  8
0
 62
     0
 10
8.662058
 20
0.0
 30
0.0
 11
9.653126
 21
0.991068
 31
0.0
  0
LINE
  8
0
 62
     0
 10
8.838835
 20
0.0
 30
0.0
 11
9.698957
 21
0.860122
 31
0.0
  0
LINE
  8
0
 62
     0
 10
9.015611
 20
0.0
 30
0.0
 11
9.744788
 21
0.729177
 31
0.0
  0
LINE
  8
0
 62
     0
 10
9.192388
 20
0.0
 30
0.0
 11
9.790619
 21
0.598231
 31
0.0
  0
LINE
  8
0
 62
     0
 10
9.369165
 20
0.0
 30
0.0
 11
9.83645
 21
0.467285
 31
0.0
  0
LINE
  8
0
 62
     0
 10
9.545942
 20
0.0
 30
0.0
 11
9.882281
 21
0.33634
 31
0.0
  0
LINE
  8
0
 62
     0
 10
9.722718
 20
0.0
 30
0.0
 11
9.928112
 21
0.205394
 31
0.0
  0
LINE
  8
0
 62
     0
 10
9.899495
 20
0.0
 30
0.0
 11
9.973943
 21
0.074448
 31
0.0
  0
ENDBLK
  8
0
  0
BLOCK
  8
0
  2
*X13
 70
    65
 10
0.0
 20
0.0
 30
0.0
  3
*X
  0
LINE
  8
0
 62
     0
 10
10.7
 20
6.280583
 30
0.0
 11
13.5
 21
9.080583
 31
0.0
  0
LINE
  8
0
 62
     0
 10
10.7
 20
6.457359
 30
0.0
 11
13.5
 21
9.257359
 31
0.0
  0
LINE
  8
0
 62
     0
 10
10.7
 20
6.634136
 30
0.0
 11
13.5
 21
9.434136
 31
0.0
  0
LINE
  8
0
 62
     0
 10
10.7
 20
6.810913
 30
0.0
 11
13.5
 21
9.610913
 31
0.0
  0
LINE
  8
0
 62
     0
 10
10.7
 20
6.987689
 30
0.0
 11
13.5
 21
9.787689
 31
0.0
  0
LINE
  8
0
 62
     0
 10
10.7
 20
7.164466
 30
0.0
 11
13.5
 21
9.964466
 31
0.0
  0
LINE
  8
0
 62
     0
 10
10.7
 20
7.341243
 30
0.0
 11
13.358757
 21
10.0
 31
0.0
  0
LINE
  8
0
 62
     0
 10
10.7
 20
7.518019
 30
0.0
 11
13.181981
 21
10.0
 31
0.0
  0
LINE
  8
0
 62
     0
 10
10.7
 20
7.694796
 30
0.0
 11
13.005204
 21
10.0
 31
0.0
  0
LINE
  8
0
 62
     0
 10
10.7
 20
7.871573
 30
0.0
 11
12.828427
 21
10.0
 31
0.0
  0
LINE
  8
0
 62
     0
 10
10.7
 20
8.04835
 30
0.0
 11
12.65165
 21
10.0
 31
0.0
  0
LINE
  8
0
 62
     0
 10
10.7
 20
8.225126
 30
0.0
 11
12.474874
 21
10.0
 31
0.0
  0
LINE
  8
0
 62
     0
 10
10.7
 20
8.401903
 30
0.0
 11
12.298097
 21
10.0
 31
0.0
  0
LINE
  8
0
 62
     0
 10
10.7
 20
8.57868
 30
0.0
 11
12.12132
 21
10.0
 31
0.0
  0
LINE
  8
0
 62
     0
 10
10.7
 20
8.755456
 30
0.0
 11
11.944544
 21
10.0
 31
0.0
  0
LINE
  8
0
 62
     0
 10
10.7
 20
8.932233
 30
0.0
 11
11.767767
 21
10.0
 31
0.0
  0
LINE
  8
0
 62
     0
 10
10.7
 20
9.10901
 30
0.0
 11
11.59099
 21
10.0
 31
0.0
  0
LINE
  8
0
 62
     0
 10
10.7
 20
9.285786
 30
0.0
 11
11.414214
 21
10.0
 31
0.0
  0
LINE
  8
0
 62
     0
 10
10.7
 20
9.462563
 30
0.0
 11
11.237437
 21
10.0
 31
0.0
  0
LINE
  8
0
 62
     0
 10
10.7
 20
9.63934
 30
0.0
 11
11.06066
 21
10.0
 31
0.0
  0
LINE
  8
0
 62
     0
 10
10.7
 20
9.816117
 30
0.0
 11
10.883883
 21
10.0
 31
0.0
  0
LINE
  8
0
 62
     0
 10
10.7
 20
9.992893
 30
0.0
 11
10.707107
 21
10.0
 31
0.0
  0
LINE
  8
0
 62
     0
 10
10.7
 20
6.103806
 30
0.0
 11
13.5
 21
8.903806
 31
0.0
  0
LINE
  8
0
 62
     0
 10
10.7
 20
5.927029
 30
0.0
 11
13.5
 21
8.727029
 31
0.0
  0
LINE
  8
0
 62
     0
 10
10.7
 20
5.750253
 30
0.0
 11
13.5
 21
8.550253
 31
0.0
  0
LINE
  8
0
 62
     0
 10
10.7
 20
5.573476
 30
0.0
 11
13.5
 21
8.373476
 31
0.0
  0
LINE
  8
0
 62
     0
 10
10.7
 20
5.396699
 30
0.0
 11
13.5
 21
8.196699
 31
0.0
  0
LINE
  8
0
 62
     0
 10
10.7
 20
5.219922
 30
0.0
 11
13.5
 21
8.019922
 31
0.0
  0
LINE
  8
0
 62
     0
 10
10.856854
 20
5.2
 30
0.0
 11
13.5
 21
7.843146
 31
0.0
  0
LINE
  8
0
 62
     0
 10
11.033631
 20
5.2
 30
0.0
 11
13.5
 21
7.666369
 31
0.0
  0
LINE
  8
0
 62
     0
 10
11.210408
 20
5.2
 30
0.0
 11
13.5
 21
7.489592
 31
0.0
  0
LINE
  8
0
 62
     0
 10
11.387184
 20
5.2
 30
0.0
 11
13.5
 21
7.312816
 31
0.0
  0
LINE
  8
0
 62
     0
 10
11.563961
 20
5.2
 30
0.0
 11
13.5
 21
7.136039
 31
0.0
  0
LINE
  8
0
 62
     0
 10
11.740738
 20
5.2
 30
0.0
 11
13.5
 21
6.959262
 31
0.0
  0
LINE
  8
0
 62
     0
 10
11.917514
 20
5.2
 30
0.0
 11
13.5
 21
6.782486
 31
0.0
  0
LINE
  8
0
 62
     0
 10
12.094291
 20
5.2
 30
0.0
 11
13.5
 21
6.605709
 31
0.0
  0
LINE
  8
0
 62
     0
 10
12.271068
 20
5.2
 30
0.0
 11
13.5
 21
6.428932
 31
0.0
  0
LINE
  8
0
 62
     0
 10
12.447845
 20
5.2
 30
0.0
 11
13.5
 21
6.252155
 31
0.0
  0
LINE
  8
0
 62
     0
 10
12.624621
 20
5.2
 30
0.0
 11
13.5
 21
6.075379
 31
0.0
  0
LINE
  8
0
 62
     0
 10
12.801398
 20
5.2
 30
0.0
 11
13.5
 21
5.898602
 31
0.0
  0
LINE
  8
0
 62
     0
 10
12.978175
 20
5.2
 30
0.0
 11
13.5
 21
5.721825
 31
0.0
  0
LINE
  8
0
 62
     0
 10
13.154951
 20
5.2
 30
0.0
 11
13.5
 21
5.545049
 31
0.0
  0
LINE
  8
0
 62
     0
 10
13.331728
 20
5.2
 30
0.0
 11
13.5
 21
5.368272
 31
0.0
  0
ENDBLK
  8
0
  0
BLOCK
  8
0
  2
*X14
 70
    65
 10
0.0
 20
0.0
 30
0.0
  3
*X
  0
LINE
  8
0
 62
     0
 10
10.7
 20
1.154058
 30
0.0
 11
13.5
 21
3.954058
 31
0.0
  0
LINE
  8
0
 62
     0
 10
10.7
 20
1.330835
 30
0.0
 11
13.5
 21
4.130835
 31
0.0
  0
LINE
  8
0
 62
     0
 10
10.7
 20
1.507612
 30
0.0
 11
13.5
 21
4.307612
 31
0.0
  0
LINE
  8
0
 62
     0
 10
10.7
 20
1.684389
 30
0.0
 11
13.5
 21
4.484389
 31
0.0
  0
LINE
  8
0
 62
     0
 10
10.7
 20
1.861165
 30
0.0
 11
13.5
 21
4.661165
 31
0.0
  0
LINE
  8
0
 62
     0
 10
10.7
 20
2.037942
 30
0.0
 11
13.462058
 21
4.8
 31
0.0
  0
LINE
  8
0
 62
     0
 10
10.7
 20
2.214719
 30
0.0
 11
13.285281
 21
4.8
 31
0.0
  0
LINE
  8
0
 62
     0
 10
10.7
 20
2.391495
 30
0.0
 11
13.108505
 21
4.8
 31
0.0
  0
LINE
  8
0
 62
     0
 10
10.7
 20
2.568272
 30
0.0
 11
12.931728
 21
4.8
 31
0.0
  0
LINE
  8
0
 62
     0
 10
10.7
 20
2.745049
 30
0.0
 11
12.754951
 21
4.8
 31
0.0
  0
LINE
  8
0
 62
     0
 10
10.7
 20
2.921825
 30
0.0
 11
12.578175
 21
4.8
 31
0.0
  0
LINE
  8
0
 62
     0
 10
10.7
 20
3.098602
 30
0.0
 11
12.401398
 21
4.8
 31
0.0
  0
LINE
  8
0
 62
     0
 10
10.7
 20
3.275379
 30
0.0
 11
12.224621
 21
4.8
 31
0.0
  0
LINE
  8
0
 62
     0
 10
10.7
 20
3.452155
 30
0.0
 11
12.047845
 21
4.8
 31
0.0
  0
LINE
  8
0
 62
     0
 10
10.7
 20
3.628932
 30
0.0
 11
11.871068
 21
4.8
 31
0.0
  0
LINE
  8
0
 62
     0
 10
10.7
 20
3.805709
 30
0.0
 11
11.694291
 21
4.8
 31
0.0
  0
LINE
  8
0
 62
     0
 10
10.7
 20
3.982486
 30
0.0
 11
11.517514
 21
4.8
 31
0.0
  0
LINE
  8
0
 62
     0
 10
10.7
 20
4.159262
 30
0.0
 11
11.340738
 21
4.8
 31
0.0
  0
LINE
  8
0
 62
     0
 10
10.7
 20
4.336039
 30
0.0
 11
11.163961
 21
4.8
 31
0.0
  0
LINE
  8
0
 62
     0
 10
10.7
 20
4.512816
 30
0.0
 11
10.987184
 21
4.8
 31
0.0
  0
LINE
  8
0
 62
     0
 10
10.7
 20
4.689592
 30
0.0
 11
10.810408
 21
4.8
 31
0.0
  0
LINE
  8
0
 62
     0
 10
10.7
 20
0.977282
 30
0.0
 11
13.5
 21
3.777282
 31
0.0
  0
LINE
  8
0
 62
     0
 10
10.7
 20
0.800505
 30
0.0
 11
13.5
 21
3.600505
 31
0.0
  0
LINE
  8
0
 62
     0
 10
10.7
 20
0.623728
 30
0.0
 11
13.5
 21
3.423728
 31
0.0
  0
LINE
  8
0
 62
     0
 10
10.7
 20
0.446952
 30
0.0
 11
13.5
 21
3.246952
 31
0.0
  0
LINE
  8
0
 62
     0
 10
10.7
 20
0.270175
 30
0.0
 11
13.5
 21
3.070175
 31
0.0
  0
LINE
  8
0
 62
     0
 10
10.7
 20
0.093398
 30
0.0
 11
13.5
 21
2.893398
 31
0.0
  0
LINE
  8
0
 62
     0
 10
10.783378
 20
0.0
 30
0.0
 11
13.5
 21
2.716622
 31
0.0
  0
LINE
  8
0
 62
     0
 10
10.960155
 20
0.0
 30
0.0
 11
13.5
 21
2.539845
 31
0.0
  0
LINE
  8
0
 62
     0
 10
11.136932
 20
0.0
 30
0.0
 11
13.5
 21
2.363068
 31
0.0
  0
LINE
  8
0
 62
     0
 10
11.313708
 20
0.0
 30
0.0
 11
13.5
 21
2.186292
 31
0.0
  0
LINE
  8
0
 62
     0
 10
11.490485
 20
0.0
 30
0.0
 11
13.5
 21
2.009515
 31
0.0
  0
LINE
  8
0
 62
     0
 10
11.667262
 20
0.0
 30
0.0
 11
13.5
 21
1.832738
 31
0.0
  0
LINE
  8
0
 62
     0
 10
11.844039
 20
0.0
 30
0.0
 11
13.5
 21
1.655961
 31
0.0
  0
LINE
  8
0
 62
     0
 10
12.020815
 20
0.0
 30
0.0
 11
13.5
 21
1.479185
 31
0.0
  0
LINE
  8
0
 62
     0
 10
12.197592
 20
0.0
 30
0.0
 11
13.5
 21
1.302408
 31
0.0
  0
LINE
  8
0
 62
     0
 10
12.374369
 20
0.0
 30
0.0
 11
13.5
 21
1.125631
 31
0.0
  0
LINE
  8
0
 62
     0
 10
12.551145
 20
0.0
 30
0.0
 11
13.5
 21
0.948855
 31
0.0
  0
LINE
  8
0
 62
     0
 10
12.727922
 20
0.0
 30
0.0
 11
13.5
 21
0.772078
 31
0.0
  0
LINE
  8
0
 62
     0
 10
12.904699
 20
0.0
 30
0.0
 11
13.5
 21
0.595301
 31
0.0
  0
LINE
  8
0
 62
     0
 10
13.081475
 20
0.0
 30
0.0
 11
13.5
 21
0.418525
 31
0.0
  0
LINE
  8
0
 62
     0
 10
13.258252
 20
0.0
 30
0.0
 11
13.5
 21
0.241748
 31
0.0
  0
LINE
  8
0
 62
     0
 10
13.435029
 20
0.0
 30
0.0
 11
13.5
 21
0.064971
 31
0.0
  0
ENDBLK
  8
0
  0
BLOCK
  8
0
  2
*X15
 70
    65
 10
0.0
 20
0.0
 30
0.0
  3
*X
  0
LINE
  8
0
 62
     0
 10
13.9
 20
6.298602
 30
0.0
 11
16.582995
 21
8.981597
 31
0.0
  0
LINE
  8
0
 62
     0
 10
13.9
 20
6.475379
 30
0.0
 11
16.510503
 21
9.085882
 31
0.0
  0
LINE
  8
0
 62
     0
 10
13.9
 20
6.652155
 30
0.0
 11
16.432927
 21
9.185083
 31
0.0
  0
LINE
  8
0
 62
     0
 10
13.9
 20
6.828932
 30
0.0
 11
16.350372
 21
9.279304
 31
0.0
  0
LINE
  8
0
 62
     0
 10
13.9
 20
7.005709
 30
0.0
 11
16.262892
 21
9.368601
 31
0.0
  0
LINE
  8
0
 62
     0
 10
13.9
 20
7.182486
 30
0.0
 11
16.170495
 21
9.452981
 31
0.0
  0
LINE
  8
0
 62
     0
 10
13.9
 20
7.359262
 30
0.0
 11
16.073145
 21
9.532407
 31
0.0
  0
LINE
  8
0
 62
     0
 10
13.9
 20
7.536039
 30
0.0
 11
15.970755
 21
9.606794
 31
0.0
  0
LINE
  8
0
 62
     0
 10
13.9
 20
7.712816
 30
0.0
 11
15.863189
 21
9.676004
 31
0.0
  0
LINE
  8
0
 62
     0
 10
13.9
 20
7.889592
 30
0.0
 11
15.75025
 21
9.739843
 31
0.0
  0
LINE
  8
0
 62
     0
 10
13.9
 20
8.066369
 30
0.0
 11
15.631675
 21
9.798044
 31
0.0
  0
LINE
  8
0
 62
     0
 10
13.9
 20
8.243146
 30
0.0
 11
15.50711
 21
9.850256
 31
0.0
  0
LINE
  8
0
 62
     0
 10
13.9
 20
8.419922
 30
0.0
 11
15.376096
 21
9.896018
 31
0.0
  0
LINE
  8
0
 62
     0
 10
13.9
 20
8.596699
 30
0.0
 11
15.238027
 21
9.934726
 31
0.0
  0
LINE
  8
0
 62
     0
 10
13.9
 20
8.773476
 30
0.0
 11
15.092096
 21
9.965572
 31
0.0
  0
LINE
  8
0
 62
     0
 10
13.9
 20
8.950253
 30
0.0
 11
14.937209
 21
9.987461
 31
0.0
  0
LINE
  8
0
 62
     0
 10
13.9
 20
9.127029
 30
0.0
 11
14.771824
 21
9.998853
 31
0.0
  0
LINE
  8
0
 62
     0
 10
13.9
 20
9.303806
 30
0.0
 11
14.596193
 21
9.999999
 31
0.0
  0
LINE
  8
0
 62
     0
 10
13.9
 20
9.480583
 30
0.0
 11
14.419417
 21
9.999999
 31
0.0
  0
LINE
  8
0
 62
     0
 10
13.9
 20
9.657359
 30
0.0
 11
14.24264
 21
10.0
 31
0.0
  0
LINE
  8
0
 62
     0
 10
13.9
 20
9.834136
 30
0.0
 11
14.065864
 21
10.0
 31
0.0
  0
LINE
  8
0
 62
     0
 10
13.9
 20
6.121825
 30
0.0
 11
16.650245
 21
8.872071
 31
0.0
  0
LINE
  8
0
 62
     0
 10
13.9
 20
5.945049
 30
0.0
 11
16.712035
 21
8.757083
 31
0.0
  0
LINE
  8
0
 62
     0
 10
13.9
 20
5.768272
 30
0.0
 11
16.768067
 21
8.636339
 31
0.0
  0
LINE
  8
0
 62
     0
 10
13.9
 20
5.591495
 30
0.0
 11
16.817955
 21
8.509451
 31
0.0
  0
LINE
  8
0
 62
     0
 10
13.9
 20
5.414719
 30
0.0
 11
16.861189
 21
8.375908
 31
0.0
  0
LINE
  8
0
 62
     0
 10
13.9
 20
5.237942
 30
0.0
 11
16.897097
 21
8.235039
 31
0.0
  0
LINE
  8
0
 62
     0
 10
14.038835
 20
5.2
 30
0.0
 11
16.924779
 21
8.085944
 31
0.0
  0
LINE
  8
0
 62
     0
 10
14.215611
 20
5.2
 30
0.0
 11
16.942997
 21
7.927385
 31
0.0
  0
LINE
  8
0
 62
     0
 10
14.392388
 20
5.2
 30
0.0
 11
16.949987
 21
7.757599
 31
0.0
  0
LINE
  8
0
 62
     0
 10
14.569165
 20
5.2
 30
0.0
 11
16.943101
 21
7.573936
 31
0.0
  0
LINE
  8
0
 62
     0
 10
14.745942
 20
5.2
 30
0.0
 11
16.918037
 21
7.372095
 31
0.0
  0
LINE
  8
0
 62
     0
 10
14.922718
 20
5.2
 30
0.0
 11
16.866909
 21
7.144191
 31
0.0
  0
LINE
  8
0
 62
     0
 10
15.099495
 20
5.2
 30
0.0
 11
16.771715
 21
6.87222
 31
0.0
  0
LINE
  8
0
 62
     0
 10
15.276272
 20
5.2
 30
0.0
 11
15.847951
 21
5.77168
 31
0.0
  0
LINE
  8
0
 62
     0
 10
15.96673
 20
5.890458
 30
0.0
 11
16.559542
 21
6.48327
 31
0.0
  0
LINE
  8
0
 62
     0
 10
15.453048
 20
5.2
 30
0.0
 11
15.970661
 21
5.717613
 31
0.0
  0
LINE
  8
0
 62
     0
 10
15.629825
 20
5.2
 30
0.0
 11
16.088934
 21
5.659109
 31
0.0
  0
LINE
  8
0
 62
     0
 10
15.806602
 20
5.2
 30
0.0
 11
16.202964
 21
5.596363
 31
0.0
  0
LINE
  8
0
 62
     0
 10
15.983378
 20
5.2
 30
0.0
 11
16.312909
 21
5.529531
 31
0.0
  0
LINE
  8
0
 62
     0
 10
16.160155
 20
5.2
 30
0.0
 11
16.418895
 21
5.45874
 31
0.0
  0
LINE
  8
0
 62
     0
 10
16.336932
 20
5.2
 30
0.0
 11
16.521021
 21
5.384089
 31
0.0
  0
LINE
  8
0
 62
     0
 10
16.513708
 20
5.2
 30
0.0
 11
16.619363
 21
5.305655
 31
0.0
  0
LINE
  8
0
 62
     0
 10
16.690485
 20
5.2
 30
0.0
 11
16.713975
 21
5.22349
 31
0.0
  0
ENDBLK
  8
0
  0
BLOCK
  8
0
  2
*X16
 70
    65
 10
0.0
 20
0.0
 30
0.0
  3
*X
  0
LINE
  8
0
 62
     0
 10
13.9
 20
0.818525
 30
0.0
 11
17.39645
 21
4.314974
 31
0.0
  0
LINE
  8
0
 62
     0
 10
13.9
 20
0.995301
 30
0.0
 11
17.336354
 21
4.431655
 31
0.0
  0
LINE
  8
0
 62
     0
 10
13.9
 20
1.172078
 30
0.0
 11
17.272078
 21
4.544156
 31
0.0
  0
LINE
  8
0
 62
     0
 10
13.9
 20
1.348855
 30
0.0
 11
17.203766
 21
4.652621
 31
0.0
  0
LINE
  8
0
 62
     0
 10
13.9
 20
1.525631
 30
0.0
 11
17.131535
 21
4.757167
 31
0.0
  0
LINE
  8
0
 62
     0
 10
13.9
 20
1.702408
 30
0.0
 11
16.997592
 21
4.8
 31
0.0
  0
LINE
  8
0
 62
     0
 10
13.9
 20
1.879185
 30
0.0
 11
16.820815
 21
4.8
 31
0.0
  0
LINE
  8
0
 62
     0
 10
13.9
 20
2.055961
 30
0.0
 11
16.644039
 21
4.8
 31
0.0
  0
LINE
  8
0
 62
     0
 10
13.9
 20
2.232738
 30
0.0
 11
16.467262
 21
4.8
 31
0.0
  0
LINE
  8
0
 62
     0
 10
13.9
 20
2.409515
 30
0.0
 11
16.290485
 21
4.8
 31
0.0
  0
LINE
  8
0
 62
     0
 10
13.9
 20
2.586292
 30
0.0
 11
16.113708
 21
4.8
 31
0.0
  0
LINE
  8
0
 62
     0
 10
13.9
 20
2.763068
 30
0.0
 11
15.936932
 21
4.8
 31
0.0
  0
LINE
  8
0
 62
     0
 10
13.9
 20
2.939845
 30
0.0
 11
15.760155
 21
4.8
 31
0.0
  0
LINE
  8
0
 62
     0
 10
13.9
 20
3.116622
 30
0.0
 11
15.583378
 21
4.8
 31
0.0
  0
LINE
  8
0
 62
     0
 10
13.9
 20
3.293398
 30
0.0
 11
15.406602
 21
4.8
 31
0.0
  0
LINE
  8
0
 62
     0
 10
13.9
 20
3.470175
 30
0.0
 11
15.229825
 21
4.8
 31
0.0
  0
LINE
  8
0
 62
     0
 10
13.9
 20
3.646952
 30
0.0
 11
15.053048
 21
4.8
 31
0.0
  0
LINE
  8
0
 62
     0
 10
13.9
 20
3.823728
 30
0.0
 11
14.876272
 21
4.8
 31
0.0
  0
LINE
  8
0
 62
     0
 10
13.9
 20
4.000505
 30
0.0
 11
14.699495
 21
4.8
 31
0.0
  0
LINE
  8
0
 62
     0
 10
13.9
 20
4.177282
 30
0.0
 11
14.522718
 21
4.8
 31
0.0
  0
LINE
  8
0
 62
     0
 10
13.9
 20
4.354058
 30
0.0
 11
14.345942
 21
4.8
 31
0.0
  0
LINE
  8
0
 62
     0
 10
13.9
 20
4.530835
 30
0.0
 11
14.169165
 21
4.8
 31
0.0
  0
LINE
  8
0
 62
     0
 10
13.9
 20
4.707612
 30
0.0
 11
13.992388
 21
4.8
 31
0.0
  0
LINE
  8
0
 62
     0
 10
13.9
 20
0.641748
 30
0.0
 11
17.452185
 21
4.193933
 31
0.0
  0
LINE
  8
0
 62
     0
 10
13.9
 20
0.464971
 30
0.0
 11
17.503339
 21
4.068311
 31
0.0
  0
LINE
  8
0
 62
     0
 10
13.9
 20
0.288194
 30
0.0
 11
17.549642
 21
3.937837
 31
0.0
  0
LINE
  8
0
 62
     0
 10
13.9
 20
0.111418
 30
0.0
 11
17.590762
 21
3.80218
 31
0.0
  0
LINE
  8
0
 62
     0
 10
13.965359
 20
0.0
 30
0.0
 11
17.62629
 21
3.660931
 31
0.0
  0
LINE
  8
0
 62
     0
 10
14.142136
 20
0.000001
 30
0.0
 11
17.655713
 21
3.513577
 31
0.0
  0
LINE
  8
0
 62
     0
 10
14.318913
 20
0.000001
 30
0.0
 11
17.678385
 21
3.359473
 31
0.0
  0
LINE
  8
0
 62
     0
 10
14.49569
 20
0.000001
 30
0.0
 11
17.693473
 21
3.197784
 31
0.0
  0
LINE
  8
0
 62
     0
 10
14.672467
 20
0.000002
 30
0.0
 11
17.699875
 21
3.027409
 31
0.0
  0
LINE
  8
0
 62
     0
 10
14.853154
 20
0.003912
 30
0.0
 11
17.696088
 21
2.846846
 31
0.0
  0
LINE
  8
0
 62
     0
 10
15.046044
 20
0.020025
 30
0.0
 11
17.679975
 21
2.653956
 31
0.0
  0
LINE
  8
0
 62
     0
 10
15.254483
 20
0.051687
 30
0.0
 11
17.648313
 21
2.445517
 31
0.0
  0
LINE
  8
0
 62
     0
 10
15.483762
 20
0.10419
 30
0.0
 11
17.59581
 21
2.216238
 31
0.0
  0
LINE
  8
0
 62
     0
 10
15.743786
 20
0.187437
 30
0.0
 11
17.512563
 21
1.956214
 31
0.0
  0
LINE
  8
0
 62
     0
 10
16.058176
 20
0.32505
 30
0.0
 11
17.37495
 21
1.641824
 31
0.0
  0
LINE
  8
0
 62
     0
 10
16.54193
 20
0.632028
 30
0.0
 11
17.067972
 21
1.15807
 31
0.0
  0
ENDBLK
  8
0
  0
BLOCK
  8
0
  2
RXTX
 70
     0
 10
0.0
 20
0.0
 30
0.0
  3
RXTX
  0
TEXT
  8
0
  6
CONTINUOUS
 10
17.5
 20
-0.932957
 30
0.0
 40
2.0
  1
2)
  7
GREEKS
  0
INSERT
  8
0
  6
CONTINUOUS
  2
B96
 10
0.0
 20
0.086539
 30
0.0
  0
TEXT
  8
BASE
  6
CONTINUOUS
 10
-11.060232
 20
-5.174804
 30
0.0
 40
2.0
  1
RX/TX
  7
GREEKS
  0
TEXT
  8
BASE
  6
CONTINUOUS
 10
-4.52415
 20
2.212024
 30
0.0
 40
2.0
  1
9
  7
GREEKS
  0
LINE
  8
BASE
  6
CONTINUOUS
 10
-6.140421
 20
-1.140421
 30
0.0
 11
-3.859579
 21
1.140421
 31
0.0
  0
ENDBLK
  8
0
  0
BLOCK
  8
0
  2
B96
 70
    64
 10
0.0
 20
0.0
 30
0.0
  3
B96
  0
LINE
  8
0
  6
CONTINUOUS
 10
1.819436
 20
0.403461
 30
0.0
 11
1.819436
 21
-0.576539
 31
0.0
  0
LINE
  8
0
  6
CONTINUOUS
 10
1.819436
 20
-0.576539
 30
0.0
 11
5.249436
 21
-0.576539
 31
0.0
  0
LINE
  8
0
  6
CONTINUOUS
 10
5.249436
 20
-0.576539
 30
0.0
 11
5.249436
 21
0.403461
 31
0.0
  0
LINE
  8
0
  6
CONTINUOUS
 10
5.249436
 20
0.403461
 30
0.0
 11
1.819436
 21
0.403461
 31
0.0
  0
POLYLINE
  8
0
  6
CONTINUOUS
 66
     1
 10
0.0
 20
0.0
 30
0.0
 70
    16
 71
     2
 72
   251
  0
VERTEX
  8
0
  6
CONTINUOUS
 10
1.819436
 20
-0.576539
 30
0.0
 70
    64
  0
VERTEX
  8
0
  6
CONTINUOUS
 10
1.833156
 20
-0.576539
 30
0.0
 70
    64
  0
VERTEX
  8
0
  6
CONTINUOUS
 10
1.846876
 20
-0.576539
 30
0.0
 70
    64
  0
VERTEX
  8
0
  6
CONTINUOUS
 10
1.860596
 20
-0.576539
 30
0.0
 70
    64
  0
VERTEX
  8
0
  6
CONTINUOUS
 10
1.874316
 20
-0.576539
 30
0.0
 70
    64
  0
VERTEX
  8
0
  6
CONTINUOUS
 10
1.888036
 20
-0.576539
 30
0.0
 70
    64
  0
VERTEX
  8
0
  6
CONTINUOUS
 10
1.901756
 20
-0.576539
 30
0.0
 70
    64
  0
VERTEX
  8
0
  6
CONTINUOUS
 10
1.915476
 20
-0.576539
 30
0.0
 70
    64
  0
VERTEX
  8
0
  6
CONTINUOUS
 10
1.929196
 20
-0.576539
 30
0.0
 70
    64
  0
VERTEX
  8
0
  6
CONTINUOUS
 10
1.942916
 20
-0.576539
 30
0.0
 70
    64
  0
VERTEX
  8
0
  6
CONTINUOUS
 10
1.956636
 20
-0.576539
 30
0.0
 70
    64
  0
VERTEX
  8
0
  6
CONTINUOUS
 10
1.970356
 20
-0.576539
 30
0.0
 70
    64
  0
VERTEX
  8
0
  6
CONTINUOUS
 10
1.984076
 20
-0.576539
 30
0.0
 70
    64
  0
VERTEX
  8
0
  6
CONTINUOUS
 10
1.997796
 20
-0.576539
 30
0.0
 70
    64
  0
VERTEX
  8
0
  6
CONTINUOUS
 10
2.011516
 20
-0.576539
 30
0.0
 70
    64
  0
VERTEX
  8
0
  6
CONTINUOUS
 10
2.025236
 20
-0.576539
 30
0.0
 70
    64
  0
VERTEX
  8
0
  6
CONTINUOUS
 10
2.038956
 20
-0.576539
 30
0.0
 70
    64
  0
VERTEX
  8
0
  6
CONTINUOUS
 10
2.052676
 20
-0.576539
 30
0.0
 70
    64
  0
VERTEX
  8
0
  6
CONTINUOUS
 10
2.066396
 20
-0.576539
 30
0.0
 70
    64
  0
VERTEX
  8
0
  6
CONTINUOUS
 10
2.080116
 20
-0.576539
 30
0.0
 70
    64
  0
VERTEX
  8
0
  6
CONTINUOUS
 10
2.093836
 20
-0.576539
 30
0.0
 70
    64
  0
VERTEX
  8
0
  6
CONTINUOUS
 10
2.107556
 20
-0.576539
 30
0.0
 70
    64
  0
VERTEX
  8
0
  6
CONTINUOUS
 10
2.121276
 20
-0.576539
 30
0.0
 70
    64
  0
VERTEX
  8
0
  6
CONTINUOUS
 10
2.134996
 20
-0.576539
 30
0.0
 70
    64
  0
VERTEX
  8
0
  6
CONTINUOUS
 10
2.148716
 20
-0.576539
 30
0.0
 70
    64
  0
VERTEX
  8
0
  6
CONTINUOUS
 10
2.162436
 20
-0.576539
 30
0.0
 70
    64
  0
VERTEX
  8
0
  6
CONTINUOUS
 10
2.176156
 20
-0.576539
 30
0.0
 70
    64
  0
VERTEX
  8
0
  6
CONTINUOUS
 10
2.189876
 20
-0.576539
 30
0.0
 70
    64
  0
VERTEX
  8
0
  6
CONTINUOUS
 10
2.203596
 20
-0.576539
 30
0.0
 70
    64
  0
VERTEX
  8
0
  6
CONTINUOUS
 10
2.217316
 20
-0.576539
 30
0.0
 70
    64
  0
VERTEX
  8
0
  6
CONTINUOUS
 10
2.231036
 20
-0.576539
 30
0.0
 70
    64
  0
VERTEX
  8
0
  6
CONTINUOUS
 10
2.244756
 20
-0.576539
 30
0.0
 70
    64
  0
VERTEX
  8
0
  6
CONTINUOUS
 10
2.258476
 20
-0.576539
 30
0.0
 70
    64
  0
VERTEX
  8
0
  6
CONTINUOUS
 10
2.272196
 20
-0.576539
 30
0.0
 70
    64
  0
VERTEX
  8
0
  6
CONTINUOUS
 10
2.285916
 20
-0.576539
 30
0.0
 70
    64
  0
VERTEX
  8
0
  6
CONTINUOUS
 10
2.299636
 20
-0.576539
 30
0.0
 70
    64
  0
VERTEX
  8
0
  6
CONTINUOUS
 10
2.313356
 20
-0.576539
 30
0.0
 70
    64
  0
VERTEX
  8
0
  6
CONTINUOUS
 10
2.327076
 20
-0.576539
 30
0.0
 70
    64
  0
VERTEX
  8
0
  6
CONTINUOUS
 10
2.340796
 20
-0.576539
 30
0.0
 70
    64
  0
VERTEX
  8
0
  6
CONTINUOUS
 10
2.354516
 20
-0.576539
 30
0.0
 70
    64
  0
VERTEX
  8
0
  6
CONTINUOUS
 10
2.368236
 20
-0.576539
 30
0.0
 70
    64
  0
VERTEX
  8
0
  6
CONTINUOUS
 10
2.381956
 20
-0.576539
 30
0.0
 70
    64
  0
VERTEX
  8
0
  6
CONTINUOUS
 10
2.395676
 20
-0.576539
 30
0.0
 70
    64
  0
VERTEX
  8
0
  6
CONTINUOUS
 10
2.409396
 20
-0.576539
 30
0.0
 70
    64
  0
VERTEX
  8
0
  6
CONTINUOUS
 10
2.423116
 20
-0.576539
 30
0.0
 70
    64
  0
VERTEX
  8
0
  6
CONTINUOUS
 10
2.436836
 20
-0.576539
 30
0.0
 70
    64
  0
VERTEX
  8
0
  6
CONTINUOUS
 10
2.450556
 20
-0.576539
 30
0.0
 70
    64
  0
VERTEX
  8
0
  6
CONTINUOUS
 10
2.464276
 20
-0.576539
 30
0.0
 70
    64
  0
VERTEX
  8
0
  6
CONTINUOUS
 10
2.477996
 20
-0.576539
 30
0.0
 70
    64
  0
VERTEX
  8
0
  6
CONTINUOUS
 10
2.491716
 20
-0.576539
 30
0.0
 70
    64
  0
VERTEX
  8
0
  6
CONTINUOUS
 10
2.505436
 20
-0.576539
 30
0.0
 70
    64
  0
VERTEX
  8
0
  6
CONTINUOUS
 10
2.519156
 20
-0.576539
 30
0.0
 70
    64
  0
VERTEX
  8
0
  6
CONTINUOUS
 10
2.532876
 20
-0.576539
 30
0.0
 70
    64
  0
VERTEX
  8
0
  6
CONTINUOUS
 10
2.546596
 20
-0.576539
 30
0.0
 70
    64
  0
VERTEX
  8
0
  6
CONTINUOUS
 10
2.560316
 20
-0.576539
 30
0.0
 70
    64
  0
VERTEX
  8
0
  6
CONTINUOUS
 10
2.574036
 20
-0.576539
 30
0.0
 70
    64
  0
VERTEX
  8
0
  6
CONTINUOUS
 10
2.587756
 20
-0.576539
 30
0.0
 70
    64
  0
VERTEX
  8
0
  6
CONTINUOUS
 10
2.601476
 20
-0.576539
 30
0.0
 70
    64
  0
VERTEX
  8
0
  6
CONTINUOUS
 10
2.615196
 20
-0.576539
 30
0.0
 70
    64
  0
VERTEX
  8
0
  6
CONTINUOUS
 10
2.628916
 20
-0.576539
 30
0.0
 70
    64
  0
VERTEX
  8
0
  6
CONTINUOUS
 10
2.642636
 20
-0.576539
 30
0.0
 70
    64
  0
VERTEX
  8
0
  6
CONTINUOUS
 10
2.656356
 20
-0.576539
 30
0.0
 70
    64
  0
VERTEX
  8
0
  6
CONTINUOUS
 10
2.670076
 20
-0.576539
 30
0.0
 70
    64
  0
VERTEX
  8
0
  6
CONTINUOUS
 10
2.683796
 20
-0.576539
 30
0.0
 70
    64
  0
VERTEX
  8
0
  6
CONTINUOUS
 10
2.697516
 20
-0.576539
 30
0.0
 70
    64
  0
VERTEX
  8
0
  6
CONTINUOUS
 10
2.711236
 20
-0.576539
 30
0.0
 70
    64
  0
VERTEX
  8
0
  6
CONTINUOUS
 10
2.724956
 20
-0.576539
 30
0.0
 70
    64
  0
VERTEX
  8
0
  6
CONTINUOUS
 10
2.738676
 20
-0.576539
 30
0.0
 70
    64
  0
VERTEX
  8
0
  6
CONTINUOUS
 10
2.752396
 20
-0.576539
 30
0.0
 70
    64
  0
VERTEX
  8
0
  6
CONTINUOUS
 10
2.766116
 20
-0.576539
 30
0.0
 70
    64
  0
VERTEX
  8
0
  6
CONTINUOUS
 10
2.779836
 20
-0.576539
 30
0.0
 70
    64
  0
VERTEX
  8
0
  6
CONTINUOUS
 10
2.793556
 20
-0.576539
 30
0.0
 70
    64
  0
VERTEX
  8
0
  6
CONTINUOUS
 10
2.807276
 20
-0.576539
 30
0.0
 70
    64
  0
VERTEX
  8
0
  6
CONTINUOUS
 10
2.820996
 20
-0.576539
 30
0.0
 70
    64
  0
VERTEX
  8
0
  6
CONTINUOUS
 10
2.834716
 20
-0.576539
 30
0.0
 70
    64
  0
VERTEX
  8
0
  6
CONTINUOUS
 10
2.848436
 20
-0.576539
 30
0.0
 70
    64
  0
VERTEX
  8
0
  6
CONTINUOUS
 10
2.862156
 20
-0.576539
 30
0.0
 70
    64
  0
VERTEX
  8
0
  6
CONTINUOUS
 10
2.875876
 20
-0.576539
 30
0.0
 70
    64
  0
VERTEX
  8
0
  6
CONTINUOUS
 10
2.889596
 20
-0.576539
 30
0.0
 70
    64
  0
VERTEX
  8
0
  6
CONTINUOUS
 10
2.903316
 20
-0.576539
 30
0.0
 70
    64
  0
VERTEX
  8
0
  6
CONTINUOUS
 10
2.917036
 20
-0.576539
 30
0.0
 70
    64
  0
VERTEX
  8
0
  6
CONTINUOUS
 10
2.930756
 20
-0.576539
 30
0.0
 70
    64
  0
VERTEX
  8
0
  6
CONTINUOUS
 10
2.944476
 20
-0.576539
 30
0.0
 70
    64
  0
VERTEX
  8
0
  6
CONTINUOUS
 10
2.958196
 20
-0.576539
 30
0.0
 70
    64
  0
VERTEX
  8
0
  6
CONTINUOUS
 10
2.971916
 20
-0.576539
 30
0.0
 70
    64
  0
VERTEX
  8
0
  6
CONTINUOUS
 10
2.985636
 20
-0.576539
 30
0.0
 70
    64
  0
VERTEX
  8
0
  6
CONTINUOUS
 10
2.999356
 20
-0.576539
 30
0.0
 70
    64
  0
VERTEX
  8
0
  6
CONTINUOUS
 10
3.013076
 20
-0.576539
 30
0.0
 70
    64
  0
VERTEX
  8
0
  6
CONTINUOUS
 10
3.026796
 20
-0.576539
 30
0.0
 70
    64
  0
VERTEX
  8
0
  6
CONTINUOUS
 10
3.040516
 20
-0.576539
 30
0.0
 70
    64
  0
VERTEX
  8
0
  6
CONTINUOUS
 10
3.054236
 20
-0.576539
 30
0.0
 70
    64
  0
VERTEX
  8
0
  6
CONTINUOUS
 10
3.067956
 20
-0.576539
 30
0.0
 70
    64
  0
VERTEX
  8
0
  6
CONTINUOUS
 10
3.081676
 20
-0.576539
 30
0.0
 70
    64
  0
VERTEX
  8
0
  6
CONTINUOUS
 10
3.095396
 20
-0.576539
 30
0.0
 70
    64
  0
VERTEX
  8
0
  6
CONTINUOUS
 10
3.109116
 20
-0.576539
 30
0.0
 70
    64
  0
VERTEX
  8
0
  6
CONTINUOUS
 10
3.122836
 20
-0.576539
 30
0.0
 70
    64
  0
VERTEX
  8
0
  6
CONTINUOUS
 10
3.136556
 20
-0.576539
 30
0.0
 70
    64
  0
VERTEX
  8
0
  6
CONTINUOUS
 10
3.150276
 20
-0.576539
 30
0.0
 70
    64
  0
VERTEX
  8
0
  6
CONTINUOUS
 10
3.163996
 20
-0.576539
 30
0.0
 70
    64
  0
VERTEX
  8
0
  6
CONTINUOUS
 10
3.177716
 20
-0.576539
 30
0.0
 70
    64
  0
VERTEX
  8
0
  6
CONTINUOUS
 10
3.191436
 20
-0.576539
 30
0.0
 70
    64
  0
VERTEX
  8
0
  6
CONTINUOUS
 10
3.205156
 20
-0.576539
 30
0.0
 70
    64
  0
VERTEX
  8
0
  6
CONTINUOUS
 10
3.218876
 20
-0.576539
 30
0.0
 70
    64
  0
VERTEX
  8
0
  6
CONTINUOUS
 10
3.232596
 20
-0.576539
 30
0.0
 70
    64
  0
VERTEX
  8
0
  6
CONTINUOUS
 10
3.246316
 20
-0.576539
 30
0.0
 70
    64
  0
VERTEX
  8
0
  6
CONTINUOUS
 10
3.260036
 20
-0.576539
 30
0.0
 70
    64
  0
VERTEX
  8
0
  6
CONTINUOUS
 10
3.273756
 20
-0.576539
 30
0.0
 70
    64
  0
VERTEX
  8
0
  6
CONTINUOUS
 10
3.287476
 20
-0.576539
 30
0.0
 70
    64
  0
VERTEX
  8
0
  6
CONTINUOUS
 10
3.301196
 20
-0.576539
 30
0.0
 70
    64
  0
VERTEX
  8
0
  6
CONTINUOUS
 10
3.314916
 20
-0.576539
 30
0.0
 70
    64
  0
VERTEX
  8
0
  6
CONTINUOUS
 10
3.328636
 20
-0.576539
 30
0.0
 70
    64
  0
VERTEX
  8
0
  6
CONTINUOUS
 10
3.342356
 20
-0.576539
 30
0.0
 70
    64
  0
VERTEX
  8
0
  6
CONTINUOUS
 10
3.356076
 20
-0.576539
 30
0.0
 70
    64
  0
VERTEX
  8
0
  6
CONTINUOUS
 10
3.369796
 20
-0.576539
 30
0.0
 70
    64
  0
VERTEX
  8
0
  6
CONTINUOUS
 10
3.383516
 20
-0.576539
 30
0.0
 70
    64
  0
VERTEX
  8
0
  6
CONTINUOUS
 10
3.397236
 20
-0.576539
 30
0.0
 70
    64
  0
VERTEX
  8
0
  6
CONTINUOUS
 10
3.410956
 20
-0.576539
 30
0.0
 70
    64
  0
VERTEX
  8
0
  6
CONTINUOUS
 10
3.424676
 20
-0.576539
 30
0.0
 70
    64
  0
VERTEX
  8
0
  6
CONTINUOUS
 10
3.438396
 20
-0.576539
 30
0.0
 70
    64
  0
VERTEX
  8
0
  6
CONTINUOUS
 10
3.452116
 20
-0.576539
 30
0.0
 70
    64
  0
VERTEX
  8
0
  6
CONTINUOUS
 10
3.465836
 20
-0.576539
 30
0.0
 70
    64
  0
VERTEX
  8
0
  6
CONTINUOUS
 10
3.479556
 20
-0.576539
 30
0.0
 70
    64
  0
VERTEX
  8
0
  6
CONTINUOUS
 10
3.493276
 20
-0.576539
 30
0.0
 70
    64
  0
VERTEX
  8
0
  6
CONTINUOUS
 10
3.506996
 20
-0.576539
 30
0.0
 70
    64
  0
VERTEX
  8
0
  6
CONTINUOUS
 10
3.520716
 20
-0.576539
 30
0.0
 70
    64
  0
VERTEX
  8
0
  6
CONTINUOUS
 10
3.534436
 20
-0.576539
 30
0.0
 70
    64
  0
VERTEX
  8
0
  6
CONTINUOUS
 10
3.548156
 20
-0.576539
 30
0.0
 70
    64
  0
VERTEX
  8
0
  6
CONTINUOUS
 10
3.561876
 20
-0.576539
 30
0.0
 70
    64
  0
VERTEX
  8
0
  6
CONTINUOUS
 10
3.575596
 20
-0.576539
 30
0.0
 70
    64
  0
VERTEX
  8
0
  6
CONTINUOUS
 10
3.589316
 20
-0.576539
 30
0.0
 70
    64
  0
VERTEX
  8
0
  6
CONTINUOUS
 10
3.603036
 20
-0.576539
 30
0.0
 70
    64
  0
VERTEX
  8
0
  6
CONTINUOUS
 10
3.616756
 20
-0.576539
 30
0.0
 70
    64
  0
VERTEX
  8
0
  6
CONTINUOUS
 10
3.630476
 20
-0.576539
 30
0.0
 70
    64
  0
VERTEX
  8
0
  6
CONTINUOUS
 10
3.644196
 20
-0.576539
 30
0.0
 70
    64
  0
VERTEX
  8
0
  6
CONTINUOUS
 10
3.657916
 20
-0.576539
 30
0.0
 70
    64
  0
VERTEX
  8
0
  6
CONTINUOUS
 10
3.671636
 20
-0.576539
 30
0.0
 70
    64
  0
VERTEX
  8
0
  6
CONTINUOUS
 10
3.685356
 20
-0.576539
 30
0.0
 70
    64
  0
VERTEX
  8
0
  6
CONTINUOUS
 10
3.699076
 20
-0.576539
 30
0.0
 70
    64
  0
VERTEX
  8
0
  6
CONTINUOUS
 10
3.712796
 20
-0.576539
 30
0.0
 70
    64
  0
VERTEX
  8
0
  6
CONTINUOUS
 10
3.726516
 20
-0.576539
 30
0.0
 70
    64
  0
VERTEX
  8
0
  6
CONTINUOUS
 10
3.740236
 20
-0.576539
 30
0.0
 70
    64
  0
VERTEX
  8
0
  6
CONTINUOUS
 10
3.753956
 20
-0.576539
 30
0.0
 70
    64
  0
VERTEX
  8
0
  6
CONTINUOUS
 10
3.767676
 20
-0.576539
 30
0.0
 70
    64
  0
VERTEX
  8
0
  6
CONTINUOUS
 10
3.781396
 20
-0.576539
 30
0.0
 70
    64
  0
VERTEX
  8
0
  6
CONTINUOUS
 10
3.795116
 20
-0.576539
 30
0.0
 70
    64
  0
VERTEX
  8
0
  6
CONTINUOUS
 10
3.808836
 20
-0.576539
 30
0.0
 70
    64
  0
VERTEX
  8
0
  6
CONTINUOUS
 10
3.822556
 20
-0.576539
 30
0.0
 70
    64
  0
VERTEX
  8
0
  6
CONTINUOUS
 10
3.836276
 20
-0.576539
 30
0.0
 70
    64
  0
VERTEX
  8
0
  6
CONTINUOUS
 10
3.849996
 20
-0.576539
 30
0.0
 70
    64
  0
VERTEX
  8
0
  6
CONTINUOUS
 10
3.863716
 20
-0.576539
 30
0.0
 70
    64
  0
VERTEX
  8
0
  6
CONTINUOUS
 10
3.877436
 20
-0.576539
 30
0.0
 70
    64
  0
VERTEX
  8
0
  6
CONTINUOUS
 10
3.891156
 20
-0.576539
 30
0.0
 70
    64
  0
VERTEX
  8
0
  6
CONTINUOUS
 10
3.904876
 20
-0.576539
 30
0.0
 70
    64
  0
VERTEX
  8
0
  6
CONTINUOUS
 10
3.918596
 20
-0.576539
 30
0.0
 70
    64
  0
VERTEX
  8
0
  6
CONTINUOUS
 10
3.932316
 20
-0.576539
 30
0.0
 70
    64
  0
VERTEX
  8
0
  6
CONTINUOUS
 10
3.946036
 20
-0.576539
 30
0.0
 70
    64
  0
VERTEX
  8
0
  6
CONTINUOUS
 10
3.959756
 20
-0.576539
 30
0.0
 70
    64
  0
VERTEX
  8
0
  6
CONTINUOUS
 10
3.973476
 20
-0.576539
 30
0.0
 70
    64
  0
VERTEX
  8
0
  6
CONTINUOUS
 10
3.987196
 20
-0.576539
 30
0.0
 70
    64
  0
VERTEX
  8
0
  6
CONTINUOUS
 10
4.000916
 20
-0.576539
 30
0.0
 70
    64
  0
VERTEX
  8
0
  6
CONTINUOUS
 10
4.014636
 20
-0.576539
 30
0.0
 70
    64
  0
VERTEX
  8
0
  6
CONTINUOUS
 10
4.028356
 20
-0.576539
 30
0.0
 70
    64
  0
VERTEX
  8
0
  6
CONTINUOUS
 10
4.042076
 20
-0.576539
 30
0.0
 70
    64
  0
VERTEX
  8
0
  6
CONTINUOUS
 10
4.055796
 20
-0.576539
 30
0.0
 70
    64
  0
VERTEX
  8
0
  6
CONTINUOUS
 10
4.069516
 20
-0.576539
 30
0.0
 70
    64
  0
VERTEX
  8
0
  6
CONTINUOUS
 10
4.083236
 20
-0.576539
 30
0.0
 70
    64
  0
VERTEX
  8
0
  6
CONTINUOUS
 10
4.096956
 20
-0.576539
 30
0.0
 70
    64
  0
VERTEX
  8
0
  6
CONTINUOUS
 10
4.110676
 20
-0.576539
 30
0.0
 70
    64
  0
VERTEX
  8
0
  6
CONTINUOUS
 10
4.124396
 20
-0.576539
 30
0.0
 70
    64
  0
VERTEX
  8
0
  6
CONTINUOUS
 10
4.138116
 20
-0.576539
 30
0.0
 70
    64
  0
VERTEX
  8
0
  6
CONTINUOUS
 10
4.151836
 20
-0.576539
 30
0.0
 70
    64
  0
VERTEX
  8
0
  6
CONTINUOUS
 10
4.165556
 20
-0.576539
 30
0.0
 70
    64
  0
VERTEX
  8
0
  6
CONTINUOUS
 10
4.179276
 20
-0.576539
 30
0.0
 70
    64
  0
VERTEX
  8
0
  6
CONTINUOUS
 10
4.192996
 20
-0.576539
 30
0.0
 70
    64
  0
VERTEX
  8
0
  6
CONTINUOUS
 10
4.206716
 20
-0.576539
 30
0.0
 70
    64
  0
VERTEX
  8
0
  6
CONTINUOUS
 10
4.220436
 20
-0.576539
 30
0.0
 70
    64
  0
VERTEX
  8
0
  6
CONTINUOUS
 10
4.234156
 20
-0.576539
 30
0.0
 70
    64
  0
VERTEX
  8
0
  6
CONTINUOUS
 10
4.247876
 20
-0.576539
 30
0.0
 70
    64
  0
VERTEX
  8
0
  6
CONTINUOUS
 10
4.261596
 20
-0.576539
 30
0.0
 70
    64
  0
VERTEX
  8
0
  6
CONTINUOUS
 10
4.275316
 20
-0.576539
 30
0.0
 70
    64
  0
VERTEX
  8
0
  6
CONTINUOUS
 10
4.289036
 20
-0.576539
 30
0.0
 70
    64
  0
VERTEX
  8
0
  6
CONTINUOUS
 10
4.302756
 20
-0.576539
 30
0.0
 70
    64
  0
VERTEX
  8
0
  6
CONTINUOUS
 10
4.316476
 20
-0.576539
 30
0.0
 70
    64
  0
VERTEX
  8
0
  6
CONTINUOUS
 10
4.330196
 20
-0.576539
 30
0.0
 70
    64
  0
VERTEX
  8
0
  6
CONTINUOUS
 10
4.343916
 20
-0.576539
 30
0.0
 70
    64
  0
VERTEX
  8
0
  6
CONTINUOUS
 10
4.357636
 20
-0.576539
 30
0.0
 70
    64
  0
VERTEX
  8
0
  6
CONTINUOUS
 10
4.371356
 20
-0.576539
 30
0.0
 70
    64
  0
VERTEX
  8
0
  6
CONTINUOUS
 10
4.385076
 20
-0.576539
 30
0.0
 70
    64
  0
VERTEX
  8
0
  6
CONTINUOUS
 10
4.398796
 20
-0.576539
 30
0.0
 70
    64
  0
VERTEX
  8
0
  6
CONTINUOUS
 10
4.412516
 20
-0.576539
 30
0.0
 70
    64
  0
VERTEX
  8
0
  6
CONTINUOUS
 10
4.426236
 20
-0.576539
 30
0.0
 70
    64
  0
VERTEX
  8
0
  6
CONTINUOUS
 10
4.439956
 20
-0.576539
 30
0.0
 70
    64
  0
VERTEX
  8
0
  6
CONTINUOUS
 10
4.453676
 20
-0.576539
 30
0.0
 70
    64
  0
VERTEX
  8
0
  6
CONTINUOUS
 10
4.467396
 20
-0.576539
 30
0.0
 70
    64
  0
VERTEX
  8
0
  6
CONTINUOUS
 10
4.481116
 20
-0.576539
 30
0.0
 70
    64
  0
VERTEX
  8
0
  6
CONTINUOUS
 10
4.494836
 20
-0.576539
 30
0.0
 70
    64
  0
VERTEX
  8
0
  6
CONTINUOUS
 10
4.508556
 20
-0.576539
 30
0.0
 70
    64
  0
VERTEX
  8
0
  6
CONTINUOUS
 10
4.522276
 20
-0.576539
 30
0.0
 70
    64
  0
VERTEX
  8
0
  6
CONTINUOUS
 10
4.535996
 20
-0.576539
 30
0.0
 70
    64
  0
VERTEX
  8
0
  6
CONTINUOUS
 10
4.549716
 20
-0.576539
 30
0.0
 70
    64
  0
VERTEX
  8
0
  6
CONTINUOUS
 10
4.563436
 20
-0.576539
 30
0.0
 70
    64
  0
VERTEX
  8
0
  6
CONTINUOUS
 10
4.577156
 20
-0.576539
 30
0.0
 70
    64
  0
VERTEX
  8
0
  6
CONTINUOUS
 10
4.590876
 20
-0.576539
 30
0.0
 70
    64
  0
VERTEX
  8
0
  6
CONTINUOUS
 10
4.604596
 20
-0.576539
 30
0.0
 70
    64
  0
VERTEX
  8
0
  6
CONTINUOUS
 10
4.618316
 20
-0.576539
 30
0.0
 70
    64
  0
VERTEX
  8
0
  6
CONTINUOUS
 10
4.632036
 20
-0.576539
 30
0.0
 70
    64
  0
VERTEX
  8
0
  6
CONTINUOUS
 10
4.645756
 20
-0.576539
 30
0.0
 70
    64
  0
VERTEX
  8
0
  6
CONTINUOUS
 10
4.659476
 20
-0.576539
 30
0.0
 70
    64
  0
VERTEX
  8
0
  6
CONTINUOUS
 10
4.673196
 20
-0.576539
 30
0.0
 70
    64
  0
VERTEX
  8
0
  6
CONTINUOUS
 10
4.686916
 20
-0.576539
 30
0.0
 70
    64
  0
VERTEX
  8
0
  6
CONTINUOUS
 10
4.700636
 20
-0.576539
 30
0.0
 70
    64
  0
VERTEX
  8
0
  6
CONTINUOUS
 10
4.714356
 20
-0.576539
 30
0.0
 70
    64
  0
VERTEX
  8
0
  6
CONTINUOUS
 10
4.728076
 20
-0.576539
 30
0.0
 70
    64
  0
VERTEX
  8
0
  6
CONTINUOUS
 10
4.741796
 20
-0.576539
 30
0.0
 70
    64
  0
VERTEX
  8
0
  6
CONTINUOUS
 10
4.755516
 20
-0.576539
 30
0.0
 70
    64
  0
VERTEX
  8
0
  6
CONTINUOUS
 10
4.769236
 20
-0.576539
 30
0.0
 70
    64
  0
VERTEX
  8
0
  6
CONTINUOUS
 10
4.782956
 20
-0.576539
 30
0.0
 70
    64
  0
VERTEX
  8
0
  6
CONTINUOUS
 10
4.796676
 20
-0.576539
 30
0.0
 70
    64
  0
VERTEX
  8
0
  6
CONTINUOUS
 10
4.810396
 20
-0.576539
 30
0.0
 70
    64
  0
VERTEX
  8
0
  6
CONTINUOUS
 10
4.824116
 20
-0.576539
 30
0.0
 70
    64
  0
VERTEX
  8
0
  6
CONTINUOUS
 10
4.837836
 20
-0.576539
 30
0.0
 70
    64
  0
VERTEX
  8
0
  6
CONTINUOUS
 10
4.851556
 20
-0.576539
 30
0.0
 70
    64
  0
VERTEX
  8
0
  6
CONTINUOUS
 10
4.865276
 20
-0.576539
 30
0.0
 70
    64
  0
VERTEX
  8
0
  6
CONTINUOUS
 10
4.878996
 20
-0.576539
 30
0.0
 70
    64
  0
VERTEX
  8
0
  6
CONTINUOUS
 10
4.892716
 20
-0.576539
 30
0.0
 70
    64
  0
VERTEX
  8
0
  6
CONTINUOUS
 10
4.906436
 20
-0.576539
 30
0.0
 70
    64
  0
VERTEX
  8
0
  6
CONTINUOUS
 10
4.920156
 20
-0.576539
 30
0.0
 70
    64
  0
VERTEX
  8
0
  6
CONTINUOUS
 10
4.933876
 20
-0.576539
 30
0.0
 70
    64
  0
VERTEX
  8
0
  6
CONTINUOUS
 10
4.947596
 20
-0.576539
 30
0.0
 70
    64
  0
VERTEX
  8
0
  6
CONTINUOUS
 10
4.961316
 20
-0.576539
 30
0.0
 70
    64
  0
VERTEX
  8
0
  6
CONTINUOUS
 10
4.975036
 20
-0.576539
 30
0.0
 70
    64
  0
VERTEX
  8
0
  6
CONTINUOUS
 10
4.988756
 20
-0.576539
 30
0.0
 70
    64
  0
VERTEX
  8
0
  6
CONTINUOUS
 10
5.002476
 20
-0.576539
 30
0.0
 70
    64
  0
VERTEX
  8
0
  6
CONTINUOUS
 10
5.016196
 20
-0.576539
 30
0.0
 70
    64
  0
VERTEX
  8
0
  6
CONTINUOUS
 10
5.029916
 20
-0.576539
 30
0.0
 70
    64
  0
VERTEX
  8
0
  6
CONTINUOUS
 10
5.043636
 20
-0.576539
 30
0.0
 70
    64
  0
VERTEX
  8
0
  6
CONTINUOUS
 10
5.057356
 20
-0.576539
 30
0.0
 70
    64
  0
VERTEX
  8
0
  6
CONTINUOUS
 10
5.071076
 20
-0.576539
 30
0.0
 70
    64
  0
VERTEX
  8
0
  6
CONTINUOUS
 10
5.084796
 20
-0.576539
 30
0.0
 70
    64
  0
VERTEX
  8
0
  6
CONTINUOUS
 10
5.098516
 20
-0.576539
 30
0.0
 70
    64
  0
VERTEX
  8
0
  6
CONTINUOUS
 10
5.112236
 20
-0.576539
 30
0.0
 70
    64
  0
VERTEX
  8
0
  6
CONTINUOUS
 10
5.125956
 20
-0.576539
 30
0.0
 70
    64
  0
VERTEX
  8
0
  6
CONTINUOUS
 10
5.139676
 20
-0.576539
 30
0.0
 70
    64
  0
VERTEX
  8
0
  6
CONTINUOUS
 10
5.153396
 20
-0.576539
 30
0.0
 70
    64
  0
VERTEX
  8
0
  6
CONTINUOUS
 10
5.167116
 20
-0.576539
 30
0.0
 70
    64
  0
VERTEX
  8
0
  6
CONTINUOUS
 10
5.180836
 20
-0.576539
 30
0.0
 70
    64
  0
VERTEX
  8
0
  6
CONTINUOUS
 10
5.194556
 20
-0.576539
 30
0.0
 70
    64
  0
VERTEX
  8
0
  6
CONTINUOUS
 10
5.208276
 20
-0.576539
 30
0.0
 70
    64
  0
VERTEX
  8
0
  6
CONTINUOUS
 10
5.221996
 20
-0.576539
 30
0.0
 70
    64
  0
VERTEX
  8
0
  6
CONTINUOUS
 10
5.235716
 20
-0.576539
 30
0.0
 70
    64
  0
VERTEX
  8
0
  6
CONTINUOUS
 10
5.249436
 20
-0.576539
 30
0.0
 70
    64
  0
VERTEX
  8
0
  6
CONTINUOUS
 10
1.819436
 20
0.403461
 30
0.0
 70
    64
  0
VERTEX
  8
0
  6
CONTINUOUS
 10
1.833156
 20
0.403461
 30
0.0
 70
    64
  0
VERTEX
  8
0
  6
CONTINUOUS
 10
1.846876
 20
0.403461
 30
0.0
 70
    64
  0
VERTEX
  8
0
  6
CONTINUOUS
 10
1.860596
 20
0.403461
 30
0.0
 70
    64
  0
VERTEX
  8
0
  6
CONTINUOUS
 10
1.874316
 20
0.403461
 30
0.0
 70
    64
  0
VERTEX
  8
0
  6
CONTINUOUS
 10
1.888036
 20
0.403461
 30
0.0
 70
    64
  0
VERTEX
  8
0
  6
CONTINUOUS
 10
1.901756
 20
0.403461
 30
0.0
 70
    64
  0
VERTEX
  8
0
  6
CONTINUOUS
 10
1.915476
 20
0.403461
 30
0.0
 70
    64
  0
VERTEX
  8
0
  6
CONTINUOUS
 10
1.929196
 20
0.403461
 30
0.0
 70
    64
  0
VERTEX
  8
0
  6
CONTINUOUS
 10
1.942916
 20
0.403461
 30
0.0
 70
    64
  0
VERTEX
  8
0
  6
CONTINUOUS
 10
1.956636
 20
0.403461
 30
0.0
 70
    64
  0
VERTEX
  8
0
  6
CONTINUOUS
 10
1.970356
 20
0.403461
 30
0.0
 70
    64
  0
VERTEX
  8
0
  6
CONTINUOUS
 10
1.984076
 20
0.403461
 30
0.0
 70
    64
  0
VERTEX
  8
0
  6
CONTINUOUS
 10
1.997796
 20
0.403461
 30
0.0
 70
    64
  0
VERTEX
  8
0
  6
CONTINUOUS
 10
2.011516
 20
0.403461
 30
0.0
 70
    64
  0
VERTEX
  8
0
  6
CONTINUOUS
 10
2.025236
 20
0.403461
 30
0.0
 70
    64
  0
VERTEX
  8
0
  6
CONTINUOUS
 10
2.038956
 20
0.403461
 30
0.0
 70
    64
  0
VERTEX
  8
0
  6
CONTINUOUS
 10
2.052676
 20
0.403461
 30
0.0
 70
    64
  0
VERTEX
  8
0
  6
CONTINUOUS
 10
2.066396
 20
0.403461
 30
0.0
 70
    64
  0
VERTEX
  8
0
  6
CONTINUOUS
 10
2.080116
 20
0.403461
 30
0.0
 70
    64
  0
VERTEX
  8
0
  6
CONTINUOUS
 10
2.093836
 20
0.403461
 30
0.0
 70
    64
  0
VERTEX
  8
0
  6
CONTINUOUS
 10
2.107556
 20
0.403461
 30
0.0
 70
    64
  0
VERTEX
  8
0
  6
CONTINUOUS
 10
2.121276
 20
0.403461
 30
0.0
 70
    64
  0
VERTEX
  8
0
  6
CONTINUOUS
 10
2.134996
 20
0.403461
 30
0.0
 70
    64
  0
VERTEX
  8
0
  6
CONTINUOUS
 10
2.148716
 20
0.403461
 30
0.0
 70
    64
  0
VERTEX
  8
0
  6
CONTINUOUS
 10
2.162436
 20
0.403461
 30
0.0
 70
    64
  0
VERTEX
  8
0
  6
CONTINUOUS
 10
2.176156
 20
0.403461
 30
0.0
 70
    64
  0
VERTEX
  8
0
  6
CONTINUOUS
 10
2.189876
 20
0.403461
 30
0.0
 70
    64
  0
VERTEX
  8
0
  6
CONTINUOUS
 10
2.203596
 20
0.403461
 30
0.0
 70
    64
  0
VERTEX
  8
0
  6
CONTINUOUS
 10
2.217316
 20
0.403461
 30
0.0
 70
    64
  0
VERTEX
  8
0
  6
CONTINUOUS
 10
2.231036
 20
0.403461
 30
0.0
 70
    64
  0
VERTEX
  8
0
  6
CONTINUOUS
 10
2.244756
 20
0.403461
 30
0.0
 70
    64
  0
VERTEX
  8
0
  6
CONTINUOUS
 10
2.258476
 20
0.403461
 30
0.0
 70
    64
  0
VERTEX
  8
0
  6
CONTINUOUS
 10
2.272196
 20
0.403461
 30
0.0
 70
    64
  0
VERTEX
  8
0
  6
CONTINUOUS
 10
2.285916
 20
0.403461
 30
0.0
 70
    64
  0
VERTEX
  8
0
  6
CONTINUOUS
 10
2.299636
 20
0.403461
 30
0.0
 70
    64
  0
VERTEX
  8
0
  6
CONTINUOUS
 10
2.313356
 20
0.403461
 30
0.0
 70
    64
  0
VERTEX
  8
0
  6
CONTINUOUS
 10
2.327076
 20
0.403461
 30
0.0
 70
    64
  0
VERTEX
  8
0
  6
CONTINUOUS
 10
2.340796
 20
0.403461
 30
0.0
 70
    64
  0
VERTEX
  8
0
  6
CONTINUOUS
 10
2.354516
 20
0.403461
 30
0.0
 70
    64
  0
VERTEX
  8
0
  6
CONTINUOUS
 10
2.368236
 20
0.403461
 30
0.0
 70
    64
  0
VERTEX
  8
0
  6
CONTINUOUS
 10
2.381956
 20
0.403461
 30
0.0
 70
    64
  0
VERTEX
  8
0
  6
CONTINUOUS
 10
2.395676
 20
0.403461
 30
0.0
 70
    64
  0
VERTEX
  8
0
  6
CONTINUOUS
 10
2.409396
 20
0.403461
 30
0.0
 70
    64
  0
VERTEX
  8
0
  6
CONTINUOUS
 10
2.423116
 20
0.403461
 30
0.0
 70
    64
  0
VERTEX
  8
0
  6
CONTINUOUS
 10
2.436836
 20
0.403461
 30
0.0
 70
    64
  0
VERTEX
  8
0
  6
CONTINUOUS
 10
2.450556
 20
0.403461
 30
0.0
 70
    64
  0
VERTEX
  8
0
  6
CONTINUOUS
 10
2.464276
 20
0.403461
 30
0.0
 70
    64
  0
VERTEX
  8
0
  6
CONTINUOUS
 10
2.477996
 20
0.403461
 30
0.0
 70
    64
  0
VERTEX
  8
0
  6
CONTINUOUS
 10
2.491716
 20
0.403461
 30
0.0
 70
    64
  0
VERTEX
  8
0
  6
CONTINUOUS
 10
2.505436
 20
0.403461
 30
0.0
 70
    64
  0
VERTEX
  8
0
  6
CONTINUOUS
 10
2.519156
 20
0.403461
 30
0.0
 70
    64
  0
VERTEX
  8
0
  6
CONTINUOUS
 10
2.532876
 20
0.403461
 30
0.0
 70
    64
  0
VERTEX
  8
0
  6
CONTINUOUS
 10
2.546596
 20
0.403461
 30
0.0
 70
    64
  0
VERTEX
  8
0
  6
CONTINUOUS
 10
2.560316
 20
0.403461
 30
0.0
 70
    64
  0
VERTEX
  8
0
  6
CONTINUOUS
 10
2.574036
 20
0.403461
 30
0.0
 70
    64
  0
VERTEX
  8
0
  6
CONTINUOUS
 10
2.587756
 20
0.403461
 30
0.0
 70
    64
  0
VERTEX
  8
0
  6
CONTINUOUS
 10
2.601476
 20
0.403461
 30
0.0
 70
    64
  0
VERTEX
  8
0
  6
CONTINUOUS
 10
2.615196
 20
0.403461
 30
0.0
 70
    64
  0
VERTEX
  8
0
  6
CONTINUOUS
 10
2.628916
 20
0.403461
 30
0.0
 70
    64
  0
VERTEX
  8
0
  6
CONTINUOUS
 10
2.642636
 20
0.403461
 30
0.0
 70
    64
  0
VERTEX
  8
0
  6
CONTINUOUS
 10
2.656356
 20
0.403461
 30
0.0
 70
    64
  0
VERTEX
  8
0
  6
CONTINUOUS
 10
2.670076
 20
0.403461
 30
0.0
 70
    64
  0
VERTEX
  8
0
  6
CONTINUOUS
 10
2.683796
 20
0.403461
 30
0.0
 70
    64
  0
VERTEX
  8
0
  6
CONTINUOUS
 10
2.697516
 20
0.403461
 30
0.0
 70
    64
  0
VERTEX
  8
0
  6
CONTINUOUS
 10
2.711236
 20
0.403461
 30
0.0
 70
    64
  0
VERTEX
  8
0
  6
CONTINUOUS
 10
2.724956
 20
0.403461
 30
0.0
 70
    64
  0
VERTEX
  8
0
  6
CONTINUOUS
 10
2.738676
 20
0.403461
 30
0.0
 70
    64
  0
VERTEX
  8
0
  6
CONTINUOUS
 10
2.752396
 20
0.403461
 30
0.0
 70
    64
  0
VERTEX
  8
0
  6
CONTINUOUS
 10
2.766116
 20
0.403461
 30
0.0
 70
    64
  0
VERTEX
  8
0
  6
CONTINUOUS
 10
2.779836
 20
0.403461
 30
0.0
 70
    64
  0
VERTEX
  8
0
  6
CONTINUOUS
 10
2.793556
 20
0.403461
 30
0.0
 70
    64
  0
VERTEX
  8
0
  6
CONTINUOUS
 10
2.807276
 20
0.403461
 30
0.0
 70
    64
  0
VERTEX
  8
0
  6
CONTINUOUS
 10
2.820996
 20
0.403461
 30
0.0
 70
    64
  0
VERTEX
  8
0
  6
CONTINUOUS
 10
2.834716
 20
0.403461
 30
0.0
 70
    64
  0
VERTEX
  8
0
  6
CONTINUOUS
 10
2.848436
 20
0.403461
 30
0.0
 70
    64
  0
VERTEX
  8
0
  6
CONTINUOUS
 10
2.862156
 20
0.403461
 30
0.0
 70
    64
  0
VERTEX
  8
0
  6
CONTINUOUS
 10
2.875876
 20
0.403461
 30
0.0
 70
    64
  0
VERTEX
  8
0
  6
CONTINUOUS
 10
2.889596
 20
0.403461
 30
0.0
 70
    64
  0
VERTEX
  8
0
  6
CONTINUOUS
 10
2.903316
 20
0.403461
 30
0.0
 70
    64
  0
VERTEX
  8
0
  6
CONTINUOUS
 10
2.917036
 20
0.403461
 30
0.0
 70
    64
  0
VERTEX
  8
0
  6
CONTINUOUS
 10
2.930756
 20
0.403461
 30
0.0
 70
    64
  0
VERTEX
  8
0
  6
CONTINUOUS
 10
2.944476
 20
0.403461
 30
0.0
 70
    64
  0
VERTEX
  8
0
  6
CONTINUOUS
 10
2.958196
 20
0.403461
 30
0.0
 70
    64
  0
VERTEX
  8
0
  6
CONTINUOUS
 10
2.971916
 20
0.403461
 30
0.0
 70
    64
  0
VERTEX
  8
0
  6
CONTINUOUS
 10
2.985636
 20
0.403461
 30
0.0
 70
    64
  0
VERTEX
  8
0
  6
CONTINUOUS
 10
2.999356
 20
0.403461
 30
0.0
 70
    64
  0
VERTEX
  8
0
  6
CONTINUOUS
 10
3.013076
 20
0.403461
 30
0.0
 70
    64
  0
VERTEX
  8
0
  6
CONTINUOUS
 10
3.026796
 20
0.403461
 30
0.0
 70
    64
  0
VERTEX
  8
0
  6
CONTINUOUS
 10
3.040516
 20
0.403461
 30
0.0
 70
    64
  0
VERTEX
  8
0
  6
CONTINUOUS
 10
3.054236
 20
0.403461
 30
0.0
 70
    64
  0
VERTEX
  8
0
  6
CONTINUOUS
 10
3.067956
 20
0.403461
 30
0.0
 70
    64
  0
VERTEX
  8
0
  6
CONTINUOUS
 10
3.081676
 20
0.403461
 30
0.0
 70
    64
  0
VERTEX
  8
0
  6
CONTINUOUS
 10
3.095396
 20
0.403461
 30
0.0
 70
    64
  0
VERTEX
  8
0
  6
CONTINUOUS
 10
3.109116
 20
0.403461
 30
0.0
 70
    64
  0
VERTEX
  8
0
  6
CONTINUOUS
 10
3.122836
 20
0.403461
 30
0.0
 70
    64
  0
VERTEX
  8
0
  6
CONTINUOUS
 10
3.136556
 20
0.403461
 30
0.0
 70
    64
  0
VERTEX
  8
0
  6
CONTINUOUS
 10
3.150276
 20
0.403461
 30
0.0
 70
    64
  0
VERTEX
  8
0
  6
CONTINUOUS
 10
3.163996
 20
0.403461
 30
0.0
 70
    64
  0
VERTEX
  8
0
  6
CONTINUOUS
 10
3.177716
 20
0.403461
 30
0.0
 70
    64
  0
VERTEX
  8
0
  6
CONTINUOUS
 10
3.191436
 20
0.403461
 30
0.0
 70
    64
  0
VERTEX
  8
0
  6
CONTINUOUS
 10
3.205156
 20
0.403461
 30
0.0
 70
    64
  0
VERTEX
  8
0
  6
CONTINUOUS
 10
3.218876
 20
0.403461
 30
0.0
 70
    64
  0
VERTEX
  8
0
  6
CONTINUOUS
 10
3.232596
 20
0.403461
 30
0.0
 70
    64
  0
VERTEX
  8
0
  6
CONTINUOUS
 10
3.246316
 20
0.403461
 30
0.0
 70
    64
  0
VERTEX
  8
0
  6
CONTINUOUS
 10
3.260036
 20
0.403461
 30
0.0
 70
    64
  0
VERTEX
  8
0
  6
CONTINUOUS
 10
3.273756
 20
0.403461
 30
0.0
 70
    64
  0
VERTEX
  8
0
  6
CONTINUOUS
 10
3.287476
 20
0.403461
 30
0.0
 70
    64
  0
VERTEX
  8
0
  6
CONTINUOUS
 10
3.301196
 20
0.403461
 30
0.0
 70
    64
  0
VERTEX
  8
0
  6
CONTINUOUS
 10
3.314916
 20
0.403461
 30
0.0
 70
    64
  0
VERTEX
  8
0
  6
CONTINUOUS
 10
3.328636
 20
0.403461
 30
0.0
 70
    64
  0
VERTEX
  8
0
  6
CONTINUOUS
 10
3.342356
 20
0.403461
 30
0.0
 70
    64
  0
VERTEX
  8
0
  6
CONTINUOUS
 10
3.356076
 20
0.403461
 30
0.0
 70
    64
  0
VERTEX
  8
0
  6
CONTINUOUS
 10
3.369796
 20
0.403461
 30
0.0
 70
    64
  0
VERTEX
  8
0
  6
CONTINUOUS
 10
3.383516
 20
0.403461
 30
0.0
 70
    64
  0
VERTEX
  8
0
  6
CONTINUOUS
 10
3.397236
 20
0.403461
 30
0.0
 70
    64
  0
VERTEX
  8
0
  6
CONTINUOUS
 10
3.410956
 20
0.403461
 30
0.0
 70
    64
  0
VERTEX
  8
0
  6
CONTINUOUS
 10
3.424676
 20
0.403461
 30
0.0
 70
    64
  0
VERTEX
  8
0
  6
CONTINUOUS
 10
3.438396
 20
0.403461
 30
0.0
 70
    64
  0
VERTEX
  8
0
  6
CONTINUOUS
 10
3.452116
 20
0.403461
 30
0.0
 70
    64
  0
VERTEX
  8
0
  6
CONTINUOUS
 10
3.465836
 20
0.403461
 30
0.0
 70
    64
  0
VERTEX
  8
0
  6
CONTINUOUS
 10
3.479556
 20
0.403461
 30
0.0
 70
    64
  0
VERTEX
  8
0
  6
CONTINUOUS
 10
3.493276
 20
0.403461
 30
0.0
 70
    64
  0
VERTEX
  8
0
  6
CONTINUOUS
 10
3.506996
 20
0.403461
 30
0.0
 70
    64
  0
VERTEX
  8
0
  6
CONTINUOUS
 10
3.520716
 20
0.403461
 30
0.0
 70
    64
  0
VERTEX
  8
0
  6
CONTINUOUS
 10
3.534436
 20
0.403461
 30
0.0
 70
    64
  0
VERTEX
  8
0
  6
CONTINUOUS
 10
3.548156
 20
0.403461
 30
0.0
 70
    64
  0
VERTEX
  8
0
  6
CONTINUOUS
 10
3.561876
 20
0.403461
 30
0.0
 70
    64
  0
VERTEX
  8
0
  6
CONTINUOUS
 10
3.575596
 20
0.403461
 30
0.0
 70
    64
  0
VERTEX
  8
0
  6
CONTINUOUS
 10
3.589316
 20
0.403461
 30
0.0
 70
    64
  0
VERTEX
  8
0
  6
CONTINUOUS
 10
3.603036
 20
0.403461
 30
0.0
 70
    64
  0
VERTEX
  8
0
  6
CONTINUOUS
 10
3.616756
 20
0.403461
 30
0.0
 70
    64
  0
VERTEX
  8
0
  6
CONTINUOUS
 10
3.630476
 20
0.403461
 30
0.0
 70
    64
  0
VERTEX
  8
0
  6
CONTINUOUS
 10
3.644196
 20
0.403461
 30
0.0
 70
    64
  0
VERTEX
  8
0
  6
CONTINUOUS
 10
3.657916
 20
0.403461
 30
0.0
 70
    64
  0
VERTEX
  8
0
  6
CONTINUOUS
 10
3.671636
 20
0.403461
 30
0.0
 70
    64
  0
VERTEX
  8
0
  6
CONTINUOUS
 10
3.685356
 20
0.403461
 30
0.0
 70
    64
  0
VERTEX
  8
0
  6
CONTINUOUS
 10
3.699076
 20
0.403461
 30
0.0
 70
    64
  0
VERTEX
  8
0
  6
CONTINUOUS
 10
3.712796
 20
0.403461
 30
0.0
 70
    64
  0
VERTEX
  8
0
  6
CONTINUOUS
 10
3.726516
 20
0.403461
 30
0.0
 70
    64
  0
VERTEX
  8
0
  6
CONTINUOUS
 10
3.740236
 20
0.403461
 30
0.0
 70
    64
  0
VERTEX
  8
0
  6
CONTINUOUS
 10
3.753956
 20
0.403461
 30
0.0
 70
    64
  0
VERTEX
  8
0
  6
CONTINUOUS
 10
3.767676
 20
0.403461
 30
0.0
 70
    64
  0
VERTEX
  8
0
  6
CONTINUOUS
 10
3.781396
 20
0.403461
 30
0.0
 70
    64
  0
VERTEX
  8
0
  6
CONTINUOUS
 10
3.795116
 20
0.403461
 30
0.0
 70
    64
  0
VERTEX
  8
0
  6
CONTINUOUS
 10
3.808836
 20
0.403461
 30
0.0
 70
    64
  0
VERTEX
  8
0
  6
CONTINUOUS
 10
3.822556
 20
0.403461
 30
0.0
 70
    64
  0
VERTEX
  8
0
  6
CONTINUOUS
 10
3.836276
 20
0.403461
 30
0.0
 70
    64
  0
VERTEX
  8
0
  6
CONTINUOUS
 10
3.849996
 20
0.403461
 30
0.0
 70
    64
  0
VERTEX
  8
0
  6
CONTINUOUS
 10
3.863716
 20
0.403461
 30
0.0
 70
    64
  0
VERTEX
  8
0
  6
CONTINUOUS
 10
3.877436
 20
0.403461
 30
0.0
 70
    64
  0
VERTEX
  8
0
  6
CONTINUOUS
 10
3.891156
 20
0.403461
 30
0.0
 70
    64
  0
VERTEX
  8
0
  6
CONTINUOUS
 10
3.904876
 20
0.403461
 30
0.0
 70
    64
  0
VERTEX
  8
0
  6
CONTINUOUS
 10
3.918596
 20
0.403461
 30
0.0
 70
    64
  0
VERTEX
  8
0
  6
CONTINUOUS
 10
3.932316
 20
0.403461
 30
0.0
 70
    64
  0
VERTEX
  8
0
  6
CONTINUOUS
 10
3.946036
 20
0.403461
 30
0.0
 70
    64
  0
VERTEX
  8
0
  6
CONTINUOUS
 10
3.959756
 20
0.403461
 30
0.0
 70
    64
  0
VERTEX
  8
0
  6
CONTINUOUS
 10
3.973476
 20
0.403461
 30
0.0
 70
    64
  0
VERTEX
  8
0
  6
CONTINUOUS
 10
3.987196
 20
0.403461
 30
0.0
 70
    64
  0
VERTEX
  8
0
  6
CONTINUOUS
 10
4.000916
 20
0.403461
 30
0.0
 70
    64
  0
VERTEX
  8
0
  6
CONTINUOUS
 10
4.014636
 20
0.403461
 30
0.0
 70
    64
  0
VERTEX
  8
0
  6
CONTINUOUS
 10
4.028356
 20
0.403461
 30
0.0
 70
    64
  0
VERTEX
  8
0
  6
CONTINUOUS
 10
4.042076
 20
0.403461
 30
0.0
 70
    64
  0
VERTEX
  8
0
  6
CONTINUOUS
 10
4.055796
 20
0.403461
 30
0.0
 70
    64
  0
VERTEX
  8
0
  6
CONTINUOUS
 10
4.069516
 20
0.403461
 30
0.0
 70
    64
  0
VERTEX
  8
0
  6
CONTINUOUS
 10
4.083236
 20
0.403461
 30
0.0
 70
    64
  0
VERTEX
  8
0
  6
CONTINUOUS
 10
4.096956
 20
0.403461
 30
0.0
 70
    64
  0
VERTEX
  8
0
  6
CONTINUOUS
 10
4.110676
 20
0.403461
 30
0.0
 70
    64
  0
VERTEX
  8
0
  6
CONTINUOUS
 10
4.124396
 20
0.403461
 30
0.0
 70
    64
  0
VERTEX
  8
0
  6
CONTINUOUS
 10
4.138116
 20
0.403461
 30
0.0
 70
    64
  0
VERTEX
  8
0
  6
CONTINUOUS
 10
4.151836
 20
0.403461
 30
0.0
 70
    64
  0
VERTEX
  8
0
  6
CONTINUOUS
 10
4.165556
 20
0.403461
 30
0.0
 70
    64
  0
VERTEX
  8
0
  6
CONTINUOUS
 10
4.179276
 20
0.403461
 30
0.0
 70
    64
  0
VERTEX
  8
0
  6
CONTINUOUS
 10
4.192996
 20
0.403461
 30
0.0
 70
    64
  0
VERTEX
  8
0
  6
CONTINUOUS
 10
4.206716
 20
0.403461
 30
0.0
 70
    64
  0
VERTEX
  8
0
  6
CONTINUOUS
 10
4.220436
 20
0.403461
 30
0.0
 70
    64
  0
VERTEX
  8
0
  6
CONTINUOUS
 10
4.234156
 20
0.403461
 30
0.0
 70
    64
  0
VERTEX
  8
0
  6
CONTINUOUS
 10
4.247876
 20
0.403461
 30
0.0
 70
    64
  0
VERTEX
  8
0
  6
CONTINUOUS
 10
4.261596
 20
0.403461
 30
0.0
 70
    64
  0
VERTEX
  8
0
  6
CONTINUOUS
 10
4.275316
 20
0.403461
 30
0.0
 70
    64
  0
VERTEX
  8
0
  6
CONTINUOUS
 10
4.289036
 20
0.403461
 30
0.0
 70
    64
  0
VERTEX
  8
0
  6
CONTINUOUS
 10
4.302756
 20
0.403461
 30
0.0
 70
    64
  0
VERTEX
  8
0
  6
CONTINUOUS
 10
4.316476
 20
0.403461
 30
0.0
 70
    64
  0
VERTEX
  8
0
  6
CONTINUOUS
 10
4.330196
 20
0.403461
 30
0.0
 70
    64
  0
VERTEX
  8
0
  6
CONTINUOUS
 10
4.343916
 20
0.403461
 30
0.0
 70
    64
  0
VERTEX
  8
0
  6
CONTINUOUS
 10
4.357636
 20
0.403461
 30
0.0
 70
    64
  0
VERTEX
  8
0
  6
CONTINUOUS
 10
4.371356
 20
0.403461
 30
0.0
 70
    64
  0
VERTEX
  8
0
  6
CONTINUOUS
 10
4.385076
 20
0.403461
 30
0.0
 70
    64
  0
VERTEX
  8
0
  6
CONTINUOUS
 10
4.398796
 20
0.403461
 30
0.0
 70
    64
  0
VERTEX
  8
0
  6
CONTINUOUS
 10
4.412516
 20
0.403461
 30
0.0
 70
    64
  0
VERTEX
  8
0
  6
CONTINUOUS
 10
4.426236
 20
0.403461
 30
0.0
 70
    64
  0
VERTEX
  8
0
  6
CONTINUOUS
 10
4.439956
 20
0.403461
 30
0.0
 70
    64
  0
VERTEX
  8
0
  6
CONTINUOUS
 10
4.453676
 20
0.403461
 30
0.0
 70
    64
  0
VERTEX
  8
0
  6
CONTINUOUS
 10
4.467396
 20
0.403461
 30
0.0
 70
    64
  0
VERTEX
  8
0
  6
CONTINUOUS
 10
4.481116
 20
0.403461
 30
0.0
 70
    64
  0
VERTEX
  8
0
  6
CONTINUOUS
 10
4.494836
 20
0.403461
 30
0.0
 70
    64
  0
VERTEX
  8
0
  6
CONTINUOUS
 10
4.508556
 20
0.403461
 30
0.0
 70
    64
  0
VERTEX
  8
0
  6
CONTINUOUS
 10
4.522276
 20
0.403461
 30
0.0
 70
    64
  0
VERTEX
  8
0
  6
CONTINUOUS
 10
4.535996
 20
0.403461
 30
0.0
 70
    64
  0
VERTEX
  8
0
  6
CONTINUOUS
 10
4.549716
 20
0.403461
 30
0.0
 70
    64
  0
VERTEX
  8
0
  6
CONTINUOUS
 10
4.563436
 20
0.403461
 30
0.0
 70
    64
  0
VERTEX
  8
0
  6
CONTINUOUS
 10
4.577156
 20
0.403461
 30
0.0
 70
    64
  0
VERTEX
  8
0
  6
CONTINUOUS
 10
4.590876
 20
0.403461
 30
0.0
 70
    64
  0
VERTEX
  8
0
  6
CONTINUOUS
 10
4.604596
 20
0.403461
 30
0.0
 70
    64
  0
VERTEX
  8
0
  6
CONTINUOUS
 10
4.618316
 20
0.403461
 30
0.0
 70
    64
  0
VERTEX
  8
0
  6
CONTINUOUS
 10
4.632036
 20
0.403461
 30
0.0
 70
    64
  0
VERTEX
  8
0
  6
CONTINUOUS
 10
4.645756
 20
0.403461
 30
0.0
 70
    64
  0
VERTEX
  8
0
  6
CONTINUOUS
 10
4.659476
 20
0.403461
 30
0.0
 70
    64
  0
VERTEX
  8
0
  6
CONTINUOUS
 10
4.673196
 20
0.403461
 30
0.0
 70
    64
  0
VERTEX
  8
0
  6
CONTINUOUS
 10
4.686916
 20
0.403461
 30
0.0
 70
    64
  0
VERTEX
  8
0
  6
CONTINUOUS
 10
4.700636
 20
0.403461
 30
0.0
 70
    64
  0
VERTEX
  8
0
  6
CONTINUOUS
 10
4.714356
 20
0.403461
 30
0.0
 70
    64
  0
VERTEX
  8
0
  6
CONTINUOUS
 10
4.728076
 20
0.403461
 30
0.0
 70
    64
  0
VERTEX
  8
0
  6
CONTINUOUS
 10
4.741796
 20
0.403461
 30
0.0
 70
    64
  0
VERTEX
  8
0
  6
CONTINUOUS
 10
4.755516
 20
0.403461
 30
0.0
 70
    64
  0
VERTEX
  8
0
  6
CONTINUOUS
 10
4.769236
 20
0.403461
 30
0.0
 70
    64
  0
VERTEX
  8
0
  6
CONTINUOUS
 10
4.782956
 20
0.403461
 30
0.0
 70
    64
  0
VERTEX
  8
0
  6
CONTINUOUS
 10
4.796676
 20
0.403461
 30
0.0
 70
    64
  0
VERTEX
  8
0
  6
CONTINUOUS
 10
4.810396
 20
0.403461
 30
0.0
 70
    64
  0
VERTEX
  8
0
  6
CONTINUOUS
 10
4.824116
 20
0.403461
 30
0.0
 70
    64
  0
VERTEX
  8
0
  6
CONTINUOUS
 10
4.837836
 20
0.403461
 30
0.0
 70
    64
  0
VERTEX
  8
0
  6
CONTINUOUS
 10
4.851556
 20
0.403461
 30
0.0
 70
    64
  0
VERTEX
  8
0
  6
CONTINUOUS
 10
4.865276
 20
0.403461
 30
0.0
 70
    64
  0
VERTEX
  8
0
  6
CONTINUOUS
 10
4.878996
 20
0.403461
 30
0.0
 70
    64
  0
VERTEX
  8
0
  6
CONTINUOUS
 10
4.892716
 20
0.403461
 30
0.0
 70
    64
  0
VERTEX
  8
0
  6
CONTINUOUS
 10
4.906436
 20
0.403461
 30
0.0
 70
    64
  0
VERTEX
  8
0
  6
CONTINUOUS
 10
4.920156
 20
0.403461
 30
0.0
 70
    64
  0
VERTEX
  8
0
  6
CONTINUOUS
 10
4.933876
 20
0.403461
 30
0.0
 70
    64
  0
VERTEX
  8
0
  6
CONTINUOUS
 10
4.947596
 20
0.403461
 30
0.0
 70
    64
  0
VERTEX
  8
0
  6
CONTINUOUS
 10
4.961316
 20
0.403461
 30
0.0
 70
    64
  0
VERTEX
  8
0
  6
CONTINUOUS
 10
4.975036
 20
0.403461
 30
0.0
 70
    64
  0
VERTEX
  8
0
  6
CONTINUOUS
 10
4.988756
 20
0.403461
 30
0.0
 70
    64
  0
VERTEX
  8
0
  6
CONTINUOUS
 10
5.002476
 20
0.403461
 30
0.0
 70
    64
  0
VERTEX
  8
0
  6
CONTINUOUS
 10
5.016196
 20
0.403461
 30
0.0
 70
    64
  0
VERTEX
  8
0
  6
CONTINUOUS
 10
5.029916
 20
0.403461
 30
0.0
 70
    64
  0
VERTEX
  8
0
  6
CONTINUOUS
 10
5.043636
 20
0.403461
 30
0.0
 70
    64
  0
VERTEX
  8
0
  6
CONTINUOUS
 10
5.057356
 20
0.403461
 30
0.0
 70
    64
  0
VERTEX
  8
0
  6
CONTINUOUS
 10
5.071076
 20
0.403461
 30
0.0
 70
    64
  0
VERTEX
  8
0
  6
CONTINUOUS
 10
5.084796
 20
0.403461
 30
0.0
 70
    64
  0
VERTEX
  8
0
  6
CONTINUOUS
 10
5.098516
 20
0.403461
 30
0.0
 70
    64
  0
VERTEX
  8
0
  6
CONTINUOUS
 10
5.112236
 20
0.403461
 30
0.0
 70
    64
  0
VERTEX
  8
0
  6
CONTINUOUS
 10
5.125956
 20
0.403461
 30
0.0
 70
    64
  0
VERTEX
  8
0
  6
CONTINUOUS
 10
5.139676
 20
0.403461
 30
0.0
 70
    64
  0
VERTEX
  8
0
  6
CONTINUOUS
 10
5.153396
 20
0.403461
 30
0.0
 70
    64
  0
VERTEX
  8
0
  6
CONTINUOUS
 10
5.167116
 20
0.403461
 30
0.0
 70
    64
  0
VERTEX
  8
0
  6
CONTINUOUS
 10
5.180836
 20
0.403461
 30
0.0
 70
    64
  0
VERTEX
  8
0
  6
CONTINUOUS
 10
5.194556
 20
0.403461
 30
0.0
 70
    64
  0
VERTEX
  8
0
  6
CONTINUOUS
 10
5.208276
 20
0.403461
 30
0.0
 70
    64
  0
VERTEX
  8
0
  6
CONTINUOUS
 10
5.221996
 20
0.403461
 30
0.0
 70
    64
  0
VERTEX
  8
0
  6
CONTINUOUS
 10
5.235716
 20
0.403461
 30
0.0
 70
    64
  0
VERTEX
  8
0
  6
CONTINUOUS
 10
5.249436
 20
0.403461
 30
0.0
 70
    64
  0
SEQEND
  8
0
  6
CONTINUOUS
  0
LINE
  8
0
  6
DASHED
 10
5.0
 20
-0.086539
 30
0.0
 11
15.0
 21
-0.086539
 31
0.0
  0
ARC
  8
0
  6
CONTINUOUS
 10
2.5
 20
-0.086539
 30
0.0
 40
2.5
 50
90.0
 51
270.0
  0
ENDBLK
  8
0
  0
BLOCK
  8
0
  2
B506
 70
    64
 10
0.0
 20
0.0
 30
0.0
  3
B506
  0
INSERT
  8
BASE
  6
CONTINUOUS
  2
BLC29
 10
1.994594
 20
-0.128476
 30
0.0
 50
180.0
  0
ENDBLK
  8
0
  0
BLOCK
  8
0
  2
MAA
 70
    64
 10
0.0
 20
0.0
 30
0.0
  3
MAA
  0
LINE
  8
0
  6
CONTINUOUS
 10
-0.500718
 20
-2.587966
 30
0.0
 11
0.386169
 21
-2.587966
 31
0.0
  0
LINE
  8
0
  6
CONTINUOUS
 10
-0.831823
 20
-1.976333
 30
0.0
 11
0.752749
 21
-1.976333
 31
0.0
  0
LINE
  8
0
  6
CONTINUOUS
 10
-0.015887
 20
-1.35427
 30
0.0
 11
1.178454
 21
-1.35427
 31
0.0
  0
LINE
  8
0
  6
CONTINUOUS
 10
-1.210228
 20
-1.35427
 30
0.0
 11
-0.015887
 21
-1.35427
 31
0.0
  0
LINE
  8
0
  6
CONTINUOUS
 10
0.0
 20
0.0
 30
0.0
 11
0.0
 21
-1.35427
 31
0.0
  0
ENDBLK
  8
0
  0
BLOCK
  8
0
  2
B507
 70
    64
 10
0.0
 20
0.0
 30
0.0
  3
B507
  0
LINE
  8
0
  6
CONTINUOUS
 10
0.079622
 20
0.147754
 30
0.0
 11
0.079622
 21
-9.002074
 31
0.0
  0
INSERT
  8
0
  6
CONTINUOUS
  2
BLC29
 10
0.212369
 20
-6.641509
 30
0.0
 50
270.0
  0
ENDBLK
  8
0
  0
ENDSEC
  0
SECTION
  2
ENTITIES
  0
INSERT
  8
0
  2
1
 10
65.405438
 20
98.713066
 30
0.0
  0
INSERT
  8
0
  2
1
 10
72.541652
 20
49.71056
 30
0.0
  0
INSERT
  8
0
  2
1
 10
85.390443
 20
73.497234
 30
0.0
  0
LINE
  8
0
  6
CENTER
 62
   249
 10
260.0
 20
195.0
 30
0.0
 11
260.0
 21
87.5
 31
0.0
  0
LINE
  8
0
  6
CENTER
 62
   249
 10
260.0
 20
87.5
 30
0.0
 11
260.0
 21
42.5
 31
0.0
  0
LINE
  8
0
  6
CONTINUOUS
 62
   249
 10
210.450615
 20
187.209828
 30
0.0
 11
210.450615
 21
100.0
 31
0.0
  0
LINE
  8
0
  6
CONTINUOUS
 62
   249
 10
210.450615
 20
215.0
 30
0.0
 11
210.450615
 21
187.18832
 31
0.0
  0
LINE
  8
0
  6
CENTER
 62
   249
 10
260.0
 20
217.5
 30
0.0
 11
260.0
 21
195.0
 31
0.0
  0
LINE
  8
0
  6
CONTINUOUS
 62
   249
 10
200.0
 20
147.5
 30
0.0
 11
200.0
 21
215.0
 31
0.0
  0
LINE
  8
0
  6
CONTINUOUS
 62
   249
 10
180.0
 20
200.0
 30
0.0
 11
180.0
 21
185.0
 31
0.0
  0
LINE
  8
0
  6
CONTINUOUS
 62
   249
 10
180.0
 20
200.0
 30
0.0
 11
180.0
 21
215.0
 31
0.0
  0
LINE
  8
0
  6
CONTINUOUS
 62
   249
 10
180.0
 20
185.0
 30
0.0
 11
180.0
 21
110.0
 31
0.0
  0
LINE
  8
0
  6
CENTER
 62
   249
 10
40.0
 20
242.5
 30
0.0
 11
40.0
 21
40.0
 31
0.0
  0
LINE
  8
0
  6
CONTINUOUS
 62
   249
 10
62.5
 20
132.5
 30
0.0
 11
56.756076
 21
129.285297
 31
0.0
  0
LINE
  8
0
  6
CONTINUOUS
 62
   249
 10
85.0
 20
122.5
 30
0.0
 11
79.256076
 21
119.285297
 31
0.0
  0
LINE
  8
0
  6
CONTINUOUS
 62
   249
 10
85.0
 20
122.5
 30
0.0
 11
87.5
 21
122.5
 31
0.0
  0
LINE
  8
0
  6
CONTINUOUS
 62
   249
 10
80.0
 20
122.5
 30
0.0
 11
40.0
 21
122.5
 31
0.0
  0
LINE
  8
0
  6
DASHED
 62
   249
 10
60.0
 20
137.5
 30
0.0
 11
60.0
 21
131.100824
 31
0.0
  0
LINE
  8
0
  6
DASHED
 62
   249
 10
82.5
 20
135.0
 30
0.0
 11
82.5
 21
121.100824
 31
0.0
  0
LINE
  8
0
  6
DASHED
 62
   249
 10
100.0
 20
135.0
 30
0.0
 11
100.0
 21
106.100824
 31
0.0
  0
LINE
  8
0
  6
DASHED
 62
   249
 10
117.5
 20
135.0
 30
0.0
 11
117.5
 21
91.100824
 31
0.0
  0
LINE
  8
0
  6
DASHED
 62
   249
 10
132.5
 20
112.5
 30
0.0
 11
132.5
 21
76.100824
 31
0.0
  0
TEXT
  8
0
  6
DASHED
 62
   249
 10
55.697373
 20
133.403492
 30
0.0
 40
2.0
  1
A
  7
ROMANS
  0
TEXT
  8
0
  6
DASHED
 62
   249
 10
79.143373
 20
123.774588
 30
0.0
 40
2.0
  1
B
  7
ROMANS
  0
TEXT
  8
0
  6
DASHED
 62
   249
 10
96.055109
 20
108.134364
 30
0.0
 40
2.0
  1
C
  7
ROMANS
  0
TEXT
  8
0
  6
DASHED
 62
   249
 10
113.484014
 20
93.255752
 30
0.0
 40
2.0
  1
D
  7
ROMANS
  0
TEXT
  8
0
  6
DASHED
 62
   249
 10
128.171573
 20
78.364654
 30
0.0
 40
2.0
  1
E
  7
ROMANS
  0
LINE
  8
0
  6
CENTER
 62
   249
 10
40.0
 20
40.0
 30
0.0
 11
260.0
 21
40.0
 31
0.0
  0
LINE
  8
0
  6
CENTER
 62
   249
 10
260.0
 20
217.5
 30
0.0
 11
260.0
 21
242.5
 31
0.0
  0
LINE
  8
0
  6
CENTER
 62
   249
 10
260.0
 20
242.5
 30
0.0
 11
40.0
 21
242.5
 31
0.0
  0
LINE
  8
0
  6
CONTINUOUS
 62
   249
 10
25.0
 20
107.5
 30
0.0
 11
25.0
 21
97.499655
 31
0.0
  0
LINE
  8
0
  6
CONTINUOUS
 62
   249
 10
25.0
 20
107.5
 30
0.0
 11
26.0
 21
108.5
 31
0.0
  0
LINE
  8
0
  6
CONTINUOUS
 62
   249
 10
25.0
 20
97.499655
 30
0.0
 11
26.0
 21
96.499655
 31
0.0
  0
TEXT
  8
0
  6
CONTINUOUS
 62
   249
 10
20.0
 20
129.277191
 30
0.0
 40
2.0
  1
4)
  7
ROMANS
  0
LINE
  8
0
  6
CONTINUOUS
 62
   249
 10
180.0
 20
147.5
 30
0.0
 11
210.450615
 21
147.5
 31
0.0
  0
LINE
  8
0
  6
CONTINUOUS
 62
   249
 10
132.5
 20
175.0
 30
0.0
 11
132.5
 21
112.5
 31
0.0
  0
TEXT
  8
0
 62
   249
 10
350.447956
 20
88.338465
 30
0.0
 40
2.0
  1
TERMINALS / UTTAG
  7
ROMANS
 11
350.447956
 21
87.671798
 31
0.0
 73
     1
  0
LINE
  8
0
 62
   249
 10
358.50882
 20
61.936434
 30
0.0
 11
388.50882
 21
61.936434
 31
0.0
  0
LINE
  8
0
 62
   249
 10
373.780454
 20
87.671798
 30
0.0
 11
373.780454
 21
47.396548
 31
0.0
  0
LINE
  8
0
 62
   249
 10
358.50882
 20
87.671798
 30
0.0
 11
358.50882
 21
47.396548
 31
0.0
  0
LINE
  8
0
 62
   249
 10
344.50882
 20
87.671798
 30
0.0
 11
388.50882
 21
87.671798
 31
0.0
  0
LINE
  8
0
 62
   249
 10
388.50882
 20
47.396548
 30
0.0
 11
388.50882
 21
93.671798
 31
0.0
  0
LINE
  8
0
 62
   249
 10
344.50882
 20
93.671798
 30
0.0
 11
344.50882
 21
47.396548
 31
0.0
  0
LINE
  8
0
  6
CONTINUOUS
 62
   249
 10
344.50882
 20
47.396548
 30
0.0
 11
388.50882
 21
47.396548
 31
0.0
  0
LINE
  8
0
  6
CONTINUOUS
 62
   249
 10
199.245375
 20
206.710612
 30
0.0
 11
199.245375
 21
204.922481
 31
0.0
  0
LINE
  8
0
  6
CONTINUOUS
 62
   249
 10
193.845856
 20
204.697731
 30
0.0
 11
196.721966
 21
207.526289
 31
0.0
  0
ARC
  8
0
  6
HIDDEN
 62
   249
 10
198.156579
 20
209.793878
 30
0.0
 40
4.998196
 50
206.402922
 51
282.21115
  0
LINE
  8
0
  6
CONTINUOUS
 62
   249
 10
196.291263
 20
208.063496
 30
0.0
 11
197.19194
 21
206.939747
 31
0.0
  0
LINE
  8
0
  6
CONTINUOUS
 62
   249
 10
191.461711
 20
205.865333
 30
0.0
 11
199.249916
 21
205.865333
 31
0.0
  0
LINE
  8
0
  6
CONTINUOUS
 62
   249
 10
191.430679
 20
206.710612
 30
0.0
 11
191.430679
 21
204.922481
 31
0.0
  0
LINE
  8
0
  6
HIDDEN
 62
   249
 10
180.0
 20
162.5
 30
0.0
 11
200.0
 21
162.5
 31
0.0
  0
LINE
  8
0
  6
HIDDEN
 62
   249
 10
180.0
 20
157.5
 30
0.0
 11
200.0
 21
157.5
 31
0.0
  0
LINE
  8
0
  6
HIDDEN
 62
   249
 10
180.0
 20
172.5
 30
0.0
 11
200.0
 21
172.5
 31
0.0
  0
LINE
  8
0
  6
CONTINUOUS
 62
   249
 10
186.941403
 20
176.177597
 30
0.0
 11
189.287169
 21
174.842244
 31
0.0
  0
LINE
  8
0
  6
CONTINUOUS
 62
   249
 10
189.287169
 20
174.842244
 30
0.0
 11
186.941403
 21
173.652325
 31
0.0
  0
LINE
  8
0
  6
HIDDEN
 62
   249
 10
182.5
 20
197.5
 30
0.0
 11
200.0
 21
197.5
 31
0.0
  0
TEXT
  8
0
  6
CONTINUOUS
 62
   249
 10
183.770128
 20
192.3404
 30
0.0
 40
2.5
  1
I
 11
183.770128
 21
191.507066
 31
0.0
 73
     1
  0
LINE
  8
0
  6
CONTINUOUS
 62
   249
 10
189.577068
 20
193.543003
 30
0.0
 11
187.231302
 21
192.353084
 31
0.0
  0
LINE
  8
0
  6
CONTINUOUS
 62
   249
 10
187.231302
 20
194.878357
 30
0.0
 11
189.577068
 21
193.543003
 31
0.0
  0
LINE
  8
0
  6
CONTINUOUS
 62
   249
 10
187.678827
 20
193.543003
 30
0.0
 11
185.333062
 21
192.353084
 31
0.0
  0
LINE
  8
0
  6
CONTINUOUS
 62
   249
 10
185.333062
 20
194.878357
 30
0.0
 11
187.678827
 21
193.543003
 31
0.0
  0
LINE
  8
0
  6
CONTINUOUS
 62
   249
 10
199.245829
 20
194.115882
 30
0.0
 11
199.245829
 21
192.32775
 31
0.0
  0
LINE
  8
0
  6
CONTINUOUS
 62
   249
 10
193.84631
 20
192.103
 30
0.0
 11
196.72242
 21
194.931559
 31
0.0
  0
LINE
  8
0
  6
CONTINUOUS
 62
   249
 10
196.291717
 20
195.468766
 30
0.0
 11
197.192394
 21
194.345017
 31
0.0
  0
LINE
  8
0
  6
CONTINUOUS
 62
   249
 10
191.462165
 20
193.270603
 30
0.0
 11
199.25037
 21
193.270603
 31
0.0
  0
LINE
  8
0
  6
CONTINUOUS
 62
   249
 10
191.431134
 20
194.115882
 30
0.0
 11
191.431134
 21
192.32775
 31
0.0
  0
LINE
  8
0
  6
HIDDEN
 62
   249
 10
182.5
 20
202.5
 30
0.0
 11
200.0
 21
202.5
 31
0.0
  0
LINE
  8
0
  6
CONTINUOUS
 62
   249
 10
185.333062
 20
201.230934
 30
0.0
 11
187.678827
 21
199.895581
 31
0.0
  0
LINE
  8
0
  6
CONTINUOUS
 62
   249
 10
187.678827
 20
199.895581
 30
0.0
 11
185.333062
 21
198.705662
 31
0.0
  0
LINE
  8
0
  6
CONTINUOUS
 62
   249
 10
187.231302
 20
201.230934
 30
0.0
 11
189.577068
 21
199.895581
 31
0.0
  0
LINE
  8
0
  6
CONTINUOUS
 62
   249
 10
189.577068
 20
199.895581
 30
0.0
 11
187.231302
 21
198.705662
 31
0.0
  0
TEXT
  8
0
  6
CONTINUOUS
 62
   249
 10
183.770128
 20
198.692977
 30
0.0
 40
2.5
  1
I
 11
183.770128
 21
197.859644
 31
0.0
 73
     1
  0
LINE
  8
0
  6
HIDDEN
 62
   249
 10
182.5
 20
210.0
 30
0.0
 11
200.0
 21
210.0
 31
0.0
  0
TEXT
  8
0
  6
CONTINUOUS
 62
   249
 10
183.770128
 20
204.752437
 30
0.0
 40
2.5
  1
I
 11
183.770128
 21
203.919104
 31
0.0
 73
     1
  0
LINE
  8
0
  6
CONTINUOUS
 62
   249
 10
188.906117
 20
205.955041
 30
0.0
 11
186.560351
 21
204.765121
 31
0.0
  0
LINE
  8
0
  6
CONTINUOUS
 62
   249
 10
186.560351
 20
207.290394
 30
0.0
 11
188.906117
 21
205.955041
 31
0.0
  0
LINE
  8
0
  6
CONTINUOUS
 62
   249
 10
180.0
 20
215.0
 30
0.0
 11
210.450615
 21
215.0
 31
0.0
  0
LINE
  8
0
  6
CONTINUOUS
 62
   249
 10
186.560351
 20
213.279314
 30
0.0
 11
188.906117
 21
211.94396
 31
0.0
  0
LINE
  8
0
  6
CONTINUOUS
 62
   249
 10
188.906117
 20
211.94396
 30
0.0
 11
186.560351
 21
210.754041
 31
0.0
  0
TEXT
  8
0
  6
CONTINUOUS
 62
   249
 10
183.770128
 20
210.741357
 30
0.0
 40
2.5
  1
I
 11
183.770128
 21
209.908023
 31
0.0
 73
     1
  0
TEXT
  8
0
  6
CONTINUOUS
 62
   249
 10
205.0
 20
210.0
 30
0.0
 40
2.5
  1
U1
  7
MONOTXT
  0
LINE
  8
0
  6
CONTINUOUS
 62
   249
 10
208.262126
 20
196.590072
 30
0.0
 11
210.079543
 21
195.555487
 31
0.0
  0
LINE
  8
0
  6
CONTINUOUS
 62
   249
 10
210.079543
 20
195.555487
 30
0.0
 11
208.262126
 21
194.633579
 31
0.0
  0
LINE
  8
0
  6
CONTINUOUS
 62
   249
 10
52.798812
 20
215.0
 30
0.0
 11
47.5
 21
215.0
 31
0.0
  0
LINE
  8
0
  6
CONTINUOUS
 62
   249
 10
52.798812
 20
220.0
 30
0.0
 11
40.0
 21
220.0
 31
0.0
  0
LINE
  8
0
 62
   249
 10
52.798812
 20
221.589925
 30
0.0
 11
52.798812
 21
213.4
 31
0.0
  0
LINE
  8
0
 62
   249
 10
57.004853
 20
221.59384
 30
0.0
 11
55.09105
 21
219.315018
 31
0.0
  0
LINE
  8
0
 62
   249
 10
58.496971
 20
221.59384
 30
0.0
 11
56.642636
 21
219.315018
 31
0.0
  0
LINE
  8
0
 62
   249
 10
60.221556
 20
221.589925
 30
0.0
 11
52.798812
 21
221.589925
 31
0.0
  0
LINE
  8
0
 62
   249
 10
60.221556
 20
213.4
 30
0.0
 11
60.221556
 21
221.589925
 31
0.0
  0
LINE
  8
0
  6
CONTINUOUS
 62
   249
 10
60.221556
 20
217.5
 30
0.0
 11
65.0
 21
217.5
 31
0.0
  0
LINE
  8
0
  6
CONTINUOUS
 62
   249
 10
60.221556
 20
210.0
 30
0.0
 11
167.5
 21
210.0
 31
0.0
  0
LINE
  8
0
 62
   249
 10
60.221556
 20
206.204212
 30
0.0
 11
60.221556
 21
214.089925
 31
0.0
  0
LINE
  8
0
 62
   249
 10
60.221556
 20
213.704212
 30
0.0
 11
52.798812
 21
213.704212
 31
0.0
  0
LINE
  8
0
 62
   249
 10
58.496971
 20
213.708127
 30
0.0
 11
56.642636
 21
211.429305
 31
0.0
  0
LINE
  8
0
 62
   249
 10
57.004853
 20
213.708127
 30
0.0
 11
55.09105
 21
211.429305
 31
0.0
  0
LINE
  8
0
 62
   249
 10
52.798812
 20
214.089925
 30
0.0
 11
52.798812
 21
206.204212
 31
0.0
  0
LINE
  8
0
  6
CONTINUOUS
 62
   249
 10
52.798812
 20
212.5
 30
0.0
 11
40.0
 21
212.5
 31
0.0
  0
LINE
  8
0
  6
CONTINUOUS
 62
   249
 10
52.798812
 20
207.5
 30
0.0
 11
47.5
 21
207.5
 31
0.0
  0
LINE
  8
0
 62
   249
 10
60.221556
 20
206.204212
 30
0.0
 11
52.798812
 21
206.204212
 31
0.0
  0
LINE
  8
0
 62
   249
 10
245.0
 20
137.5
 30
0.0
 11
243.480133
 21
137.5
 31
0.0
  0
ARC
  8
0
 62
   249
 10
245.065849
 20
138.75
 30
0.0
 40
1.251733
 50
266.984476
 51
93.015524
  0
LINE
  8
0
 62
   249
 10
245.0
 20
140.0
 30
0.0
 11
243.480133
 21
140.0
 31
0.0
  0
LINE
  8
0
 62
   249
 10
245.0
 20
142.5
 30
0.0
 11
243.480133
 21
142.5
 31
0.0
  0
ARC
  8
0
 62
   249
 10
245.065849
 20
141.25
 30
0.0
 40
1.251733
 50
266.984476
 51
93.015524
  0
LINE
  8
0
 62
   249
 10
250.0
 20
135.0
 30
0.0
 11
252.5
 21
135.0
 31
0.0
  0
ARC
  8
0
 62
   249
 10
249.934151
 20
136.25
 30
0.0
 40
1.251733
 50
86.984476
 51
273.015524
  0
ARC
  8
0
 62
   249
 10
249.934151
 20
138.75
 30
0.0
 40
1.251733
 50
86.984476
 51
273.015524
  0
LINE
  8
0
 62
   249
 10
250.0
 20
137.5
 30
0.0
 11
252.5
 21
137.5
 31
0.0
  0
LINE
  8
0
 62
   249
 10
250.0
 20
140.0
 30
0.0
 11
252.5
 21
140.0
 31
0.0
  0
LINE
  8
0
 62
   249
 10
252.5
 20
140.0
 30
0.0
 11
255.0
 21
140.0
 31
0.0
  0
LINE
  8
0
 62
   249
 10
252.5
 20
135.0
 30
0.0
 11
260.0
 21
135.0
 31
0.0
  0
LINE
  8
0
 62
   249
 10
252.5
 20
140.0
 30
0.0
 11
260.0
 21
140.0
 31
0.0
  0
LINE
  8
0
 62
   249
 10
252.5
 20
145.0
 30
0.0
 11
260.0
 21
145.0
 31
0.0
  0
LINE
  8
0
 62
   249
 10
250.0
 20
145.0
 30
0.0
 11
252.5
 21
145.0
 31
0.0
  0
LINE
  8
0
 62
   249
 10
250.0
 20
142.5
 30
0.0
 11
252.5
 21
142.5
 31
0.0
  0
ARC
  8
0
 62
   249
 10
249.934151
 20
143.75
 30
0.0
 40
1.251733
 50
86.984476
 51
273.015524
  0
ARC
  8
0
 62
   249
 10
249.934151
 20
141.25
 30
0.0
 40
1.251733
 50
86.984476
 51
273.015524
  0
LINE
  8
0
 62
   249
 10
250.0
 20
140.0
 30
0.0
 11
252.5
 21
140.0
 31
0.0
  0
LINE
  8
0
 62
   249
 10
245.0
 20
185.0
 30
0.0
 11
243.480133
 21
185.0
 31
0.0
  0
ARC
  8
0
 62
   249
 10
245.065849
 20
186.25
 30
0.0
 40
1.251733
 50
266.984476
 51
93.015524
  0
LINE
  8
0
 62
   249
 10
245.0
 20
187.5
 30
0.0
 11
243.480133
 21
187.5
 31
0.0
  0
LINE
  8
0
 62
   249
 10
245.0
 20
190.0
 30
0.0
 11
243.480133
 21
190.0
 31
0.0
  0
ARC
  8
0
 62
   249
 10
245.065849
 20
188.75
 30
0.0
 40
1.251733
 50
266.984476
 51
93.015524
  0
LINE
  8
0
 62
   249
 10
250.0
 20
182.5
 30
0.0
 11
252.5
 21
182.5
 31
0.0
  0
ARC
  8
0
 62
   249
 10
249.934151
 20
183.75
 30
0.0
 40
1.251733
 50
86.984476
 51
273.015524
  0
ARC
  8
0
 62
   249
 10
249.934151
 20
186.25
 30
0.0
 40
1.251733
 50
86.984476
 51
273.015524
  0
LINE
  8
0
 62
   249
 10
250.0
 20
185.0
 30
0.0
 11
252.5
 21
185.0
 31
0.0
  0
LINE
  8
0
 62
   249
 10
250.0
 20
187.5
 30
0.0
 11
252.5
 21
187.5
 31
0.0
  0
LINE
  8
0
 62
   249
 10
252.5
 20
187.5
 30
0.0
 11
255.0
 21
187.5
 31
0.0
  0
LINE
  8
0
 62
   249
 10
252.5
 20
182.5
 30
0.0
 11
260.0
 21
182.5
 31
0.0
  0
LINE
  8
0
 62
   249
 10
252.5
 20
187.5
 30
0.0
 11
260.0
 21
187.5
 31
0.0
  0
LINE
  8
0
 62
   249
 10
252.5
 20
192.5
 30
0.0
 11
260.0
 21
192.5
 31
0.0
  0
LINE
  8
0
 62
   249
 10
250.0
 20
192.5
 30
0.0
 11
252.5
 21
192.5
 31
0.0
  0
LINE
  8
0
 62
   249
 10
250.0
 20
190.0
 30
0.0
 11
252.5
 21
190.0
 31
0.0
  0
ARC
  8
0
 62
   249
 10
249.934151
 20
191.25
 30
0.0
 40
1.251733
 50
86.984476
 51
273.015524
  0
ARC
  8
0
 62
   249
 10
249.934151
 20
188.75
 30
0.0
 40
1.251733
 50
86.984476
 51
273.015524
  0
LINE
  8
0
 62
   249
 10
250.0
 20
187.5
 30
0.0
 11
252.5
 21
187.5
 31
0.0
  0
LINE
  8
0
 62
   249
 10
245.0
 20
205.0
 30
0.0
 11
243.480133
 21
205.0
 31
0.0
  0
ARC
  8
0
 62
   249
 10
245.065849
 20
206.25
 30
0.0
 40
1.251733
 50
266.984476
 51
93.015524
  0
LINE
  8
0
 62
   249
 10
245.0
 20
207.5
 30
0.0
 11
243.480133
 21
207.5
 31
0.0
  0
LINE
  8
0
 62
   249
 10
245.0
 20
210.0
 30
0.0
 11
243.480133
 21
210.0
 31
0.0
  0
ARC
  8
0
 62
   249
 10
245.065849
 20
208.75
 30
0.0
 40
1.251733
 50
266.984476
 51
93.015524
  0
LINE
  8
0
 62
   249
 10
250.0
 20
202.5
 30
0.0
 11
252.5
 21
202.5
 31
0.0
  0
ARC
  8
0
 62
   249
 10
249.934151
 20
203.75
 30
0.0
 40
1.251733
 50
86.984476
 51
273.015524
  0
ARC
  8
0
 62
   249
 10
249.934151
 20
206.25
 30
0.0
 40
1.251733
 50
86.984476
 51
273.015524
  0
LINE
  8
0
 62
   249
 10
250.0
 20
205.0
 30
0.0
 11
252.5
 21
205.0
 31
0.0
  0
LINE
  8
0
 62
   249
 10
250.0
 20
207.5
 30
0.0
 11
252.5
 21
207.5
 31
0.0
  0
LINE
  8
0
 62
   249
 10
252.5
 20
207.5
 30
0.0
 11
255.0
 21
207.5
 31
0.0
  0
LINE
  8
0
 62
   249
 10
252.5
 20
202.5
 30
0.0
 11
260.0
 21
202.5
 31
0.0
  0
LINE
  8
0
 62
   249
 10
252.5
 20
207.5
 30
0.0
 11
255.0
 21
207.5
 31
0.0
  0
LINE
  8
0
 62
   249
 10
252.5
 20
212.5
 30
0.0
 11
255.0
 21
212.5
 31
0.0
  0
LINE
  8
0
 62
   249
 10
250.0
 20
212.5
 30
0.0
 11
260.0
 21
212.5
 31
0.0
  0
LINE
  8
0
 62
   249
 10
250.0
 20
210.0
 30
0.0
 11
252.5
 21
210.0
 31
0.0
  0
ARC
  8
0
 62
   249
 10
249.934151
 20
211.25
 30
0.0
 40
1.251733
 50
86.984476
 51
273.015524
  0
ARC
  8
0
 62
   249
 10
249.934151
 20
208.75
 30
0.0
 40
1.251733
 50
86.984476
 51
273.015524
  0
LINE
  8
0
 62
   249
 10
250.0
 20
207.5
 30
0.0
 11
260.0
 21
207.5
 31
0.0
  0
TEXT
  8
0
  6
CONTINUOUS
 62
   249
 10
256.164704
 20
209.217174
 30
0.0
 40
2.0
  1
3
  7
ROMANS
  0
TEXT
  8
0
  6
CONTINUOUS
 62
   249
 10
256.164704
 20
204.252826
 30
0.0
 40
2.0
  1
2
  7
ROMANS
  0
TEXT
  8
0
  6
CONTINUOUS
 62
   249
 10
256.507231
 20
199.299498
 30
0.0
 40
2.0
  1
1
  7
ROMANS
  0
TEXT
  8
0
  6
CONTINUOUS
 62
   249
 10
256.164704
 20
189.160098
 30
0.0
 40
2.0
  1
9
  7
ROMANS
  0
TEXT
  8
0
  6
CONTINUOUS
 62
   249
 10
256.164704
 20
184.559422
 30
0.0
 40
2.0
  1
8
  7
ROMANS
  0
TEXT
  8
0
  6
CONTINUOUS
 62
   249
 10
256.164704
 20
179.055075
 30
0.0
 40
2.0
  1
7
  7
ROMANS
  0
LINE
  8
0
  6
HIDDEN
 62
   249
 10
260.0
 20
217.5
 30
0.0
 11
255.0
 21
217.5
 31
0.0
  0
LINE
  8
0
  6
HIDDEN
 62
   249
 10
255.0
 20
217.5
 30
0.0
 11
255.0
 21
130.0
 31
0.0
  0
LINE
  8
0
  6
HIDDEN
 62
   249
 10
255.0
 20
80.0
 30
0.0
 11
260.0
 21
80.0
 31
0.0
  0
TEXT
  8
0
  6
HIDDEN
 62
   249
 10
255.929881
 20
213.686149
 30
0.0
 40
2.0
  1
X0
  7
ROMANS
  0
LINE
  8
0
  6
CONTINUOUS
 62
   249
 10
240.0
 20
150.0
 30
0.0
 11
232.5
 21
150.0
 31
0.0
  0
LINE
  8
0
  6
DASHED
 62
   249
 10
40.0
 20
220.0
 30
0.0
 11
32.5
 21
220.0
 31
0.0
  0
LINE
  8
0
  6
DASHED
 62
   249
 10
40.0
 20
212.5
 30
0.0
 11
32.5
 21
212.5
 31
0.0
  0
LINE
  8
0
  6
DASHED
 62
   249
 10
40.0
 20
207.5
 30
0.0
 11
32.5
 21
207.5
 31
0.0
  0
LINE
  8
0
  6
CONTINUOUS
 62
   249
 10
22.5
 20
207.499655
 30
0.0
 11
23.5
 21
206.499655
 31
0.0
  0
LINE
  8
0
  6
CONTINUOUS
 62
   249
 10
22.5
 20
220.0
 30
0.0
 11
23.5
 21
221.0
 31
0.0
  0
LINE
  8
0
  6
CONTINUOUS
 62
   249
 10
22.5
 20
220.0
 30
0.0
 11
22.5
 21
207.499655
 31
0.0
  0
LINE
  8
0
  6
DASHED
 62
   249
 10
40.0
 20
107.5
 30
0.0
 11
27.5
 21
107.5
 31
0.0
  0
LINE
  8
0
  6
DASHED
 62
   249
 10
40.0
 20
97.5
 30
0.0
 11
27.5
 21
97.5
 31
0.0
  0
LINE
  8
0
  6
DASHED
 62
   249
 10
40.0
 20
92.5
 30
0.0
 11
27.5
 21
92.5
 31
0.0
  0
LINE
  8
0
  6
DASHED
 62
   249
 10
40.0
 20
82.5
 30
0.0
 11
27.5
 21
82.5
 31
0.0
  0
LINE
  8
0
  6
DASHED
 62
   249
 10
40.0
 20
77.5
 30
0.0
 11
27.5
 21
77.5
 31
0.0
  0
LINE
  8
0
  6
CONTINUOUS
 62
   249
 10
25.0
 20
92.5
 30
0.0
 11
26.0
 21
93.5
 31
0.0
  0
LINE
  8
0
  6
CONTINUOUS
 62
   249
 10
25.0
 20
67.499655
 30
0.0
 11
26.0
 21
66.499655
 31
0.0
  0
LINE
  8
0
  6
CONTINUOUS
 62
   249
 10
25.0
 20
92.5
 30
0.0
 11
25.0
 21
67.499655
 31
0.0
  0
LINE
  8
0
  6
CONTINUOUS
 62
   249
 10
355.727984
 20
200.0
 30
0.0
 11
355.727984
 21
260.0
 31
0.0
  0
LINE
  8
0
  6
CONTINUOUS
 62
   249
 10
375.727984
 20
200.0
 30
0.0
 11
355.727984
 21
200.0
 31
0.0
  0
LINE
  8
0
  6
CONTINUOUS
 62
   249
 10
375.727984
 20
260.0
 30
0.0
 11
375.727984
 21
200.0
 31
0.0
  0
LINE
  8
0
  6
CONTINUOUS
 62
   249
 10
355.727984
 20
260.0
 30
0.0
 11
375.727984
 21
260.0
 31
0.0
  0
LINE
  8
0
  6
CONTINUOUS
 62
   249
 10
355.727984
 20
227.5
 30
0.0
 11
375.727984
 21
227.5
 31
0.0
  0
LINE
  8
0
  6
CONTINUOUS
 62
   249
 10
361.32826
 20
238.052173
 30
0.0
 11
361.32826
 21
236.264041
 31
0.0
  0
LINE
  8
0
  6
CONTINUOUS
 62
   249
 10
361.359291
 20
237.206894
 30
0.0
 11
369.147496
 21
237.206894
 31
0.0
  0
LINE
  8
0
  6
CONTINUOUS
 62
   249
 10
363.743436
 20
236.039291
 30
0.0
 11
366.619546
 21
238.86785
 31
0.0
  0
LINE
  8
0
  6
CONTINUOUS
 62
   249
 10
366.188843
 20
239.405057
 30
0.0
 11
367.08952
 21
238.281308
 31
0.0
  0
LINE
  8
0
  6
CONTINUOUS
 62
   249
 10
369.142955
 20
238.052173
 30
0.0
 11
369.142955
 21
236.264041
 31
0.0
  0
LINE
  8
0
  6
CONTINUOUS
 62
   249
 10
371.05558
 20
244.50956
 30
0.0
 11
368.709814
 21
243.319641
 31
0.0
  0
LINE
  8
0
  6
CONTINUOUS
 62
   249
 10
368.709814
 20
245.844914
 30
0.0
 11
371.05558
 21
244.50956
 31
0.0
  0
LINE
  8
0
  6
CONTINUOUS
 62
   249
 10
366.821088
 20
245.844914
 30
0.0
 11
369.166854
 21
244.50956
 31
0.0
  0
LINE
  8
0
  6
CONTINUOUS
 62
   249
 10
369.166854
 20
244.50956
 30
0.0
 11
366.821088
 21
243.319641
 31
0.0
  0
LINE
  8
0
  6
CONTINUOUS
 62
   249
 10
369.142955
 20
250.206143
 30
0.0
 11
369.142955
 21
248.418012
 31
0.0
  0
LINE
  8
0
  6
CONTINUOUS
 62
   249
 10
363.743436
 20
248.193262
 30
0.0
 11
366.619546
 21
251.021821
 31
0.0
  0
ARC
  8
0
  6
HIDDEN
 62
   249
 10
368.054159
 20
253.289409
 30
0.0
 40
4.998196
 50
206.402922
 51
282.21115
  0
LINE
  8
0
  6
CONTINUOUS
 62
   249
 10
366.188843
 20
251.559027
 30
0.0
 11
367.08952
 21
250.435278
 31
0.0
  0
LINE
  8
0
  6
CONTINUOUS
 62
   249
 10
361.359291
 20
249.360865
 30
0.0
 11
369.147496
 21
249.360865
 31
0.0
  0
LINE
  8
0
  6
CONTINUOUS
 62
   249
 10
361.32826
 20
250.206143
 30
0.0
 11
361.32826
 21
248.418012
 31
0.0
  0
LINE
  8
0
  6
CONTINUOUS
 62
   249
 10
368.924329
 20
256.9814
 30
0.0
 11
366.578563
 21
255.791481
 31
0.0
  0
LINE
  8
0
  6
CONTINUOUS
 62
   249
 10
366.578563
 20
258.316754
 30
0.0
 11
368.924329
 21
256.9814
 31
0.0
  0
TEXT
  8
0
  6
CONTINUOUS
 62
   249
 10
361.074498
 20
83.820117
 30
0.0
 40
2.0
  1
In=1A
  7
ROMANS
  0
TEXT
  8
0
  6
CONTINUOUS
 62
   249
 10
347.268226
 20
73.754223
 30
0.0
 40
2.0
  1
L3
  7
ROMANS
  0
TEXT
  8
0
  6
CONTINUOUS
 62
   249
 10
362.23092
 20
73.682262
 30
0.0
 40
2.0
  1
7-9
  7
ROMANS
  0
TEXT
  8
0
  6
CONTINUOUS
 62
   249
 10
377.370919
 20
73.682262
 30
0.0
 40
2.0
  1
7-8
  7
ROMANS
  0
TEXT
  8
0
  6
CONTINUOUS
 62
   249
 10
203.537884
 20
167.744195
 30
0.0
 40
2.5
  1
U
  7
GREEKS
  0
TEXT
  8
0
  6
CONTINUOUS
 62
   249
 10
255.893945
 20
142.094856
 30
0.0
 40
2.0
  1
30
  7
ROMANS
  0
TEXT
  8
0
  6
CONTINUOUS
 62
   249
 10
255.893945
 20
137.046374
 30
0.0
 40
2.0
  1
29
  7
ROMANS
  0
TEXT
  8
0
  6
CONTINUOUS
 62
   249
 10
255.893945
 20
131.997892
 30
0.0
 40
2.0
  1
28
  7
ROMANS
  0
LINE
  8
0
 62
   249
 10
358.50882
 20
83.171798
 30
0.0
 11
388.50882
 21
83.171798
 31
0.0
  0
TEXT
  8
0
  6
DASHED
 62
   249
 10
376.077552
 20
83.820117
 30
0.0
 40
2.0
  1
In=5A
  7
ROMANS
  0
TEXT
  8
0
  6
DASHED
 62
   249
 10
347.268226
 20
77.869116
 30
0.0
 40
2.0
  1
L1            
  7
ROMANS
  0
TEXT
  8
0
  6
DASHED
 62
   249
 10
362.098009
 20
77.869116
 30
0.0
 40
2.0
  1
1-3
  7
ROMANS
  0
TEXT
  8
0
  6
DASHED
 62
   249
 10
377.253224
 20
77.869116
 30
0.0
 40
2.0
  1
1-2
  7
ROMANS
  0
TEXT
  8
0
  6
CONTINUOUS
 62
   249
 10
359.206231
 20
62.966284
 30
0.0
 40
2.0
  1
Un=100V
  7
ROMANS
  0
TEXT
  8
0
  6
CONTINUOUS
 62
   249
 10
374.156524
 20
62.966284
 30
0.0
 40
2.0
  1
Un=110V
  7
ROMANS
  0
TEXT
  8
0
  6
CONTINUOUS
 62
   249
 10
360.836678
 20
57.876638
 30
0.0
 40
2.0
  1
28-29
  7
ROMANS
  0
TEXT
  8
0
  6
CONTINUOUS
 62
   249
 10
376.258445
 20
57.876638
 30
0.0
 40
2.0
  1
28-30
  7
ROMANS
  0
LINE
  8
0
  6
CONTINUOUS
 62
   249
 10
47.5
 20
207.5
 30
0.0
 11
40.0
 21
207.5
 31
0.0
  0
LINE
  8
0
  6
CONTINUOUS
 62
   249
 10
47.5
 20
215.0
 30
0.0
 11
47.5
 21
207.5
 31
0.0
  0
LINE
  8
0
  6
CONTINUOUS
 62
   249
 10
180.0
 20
177.5
 30
0.0
 11
210.450615
 21
177.5
 31
0.0
  0
LINE
  8
0
  6
CONTINUOUS
 62
   249
 10
189.900936
 20
167.460055
 30
0.0
 11
192.400936
 21
167.460055
 31
0.0
  0
LINE
  8
0
  6
CONTINUOUS
 62
   249
 10
189.900936
 20
167.460055
 30
0.0
 11
187.676489
 21
166.899413
 31
0.0
  0
LINE
  8
0
  6
CONTINUOUS
 62
   249
 10
184.900936
 20
167.460055
 30
0.0
 11
187.400936
 21
167.460055
 31
0.0
  0
TEXT
  8
0
  6
HIDDEN
 62
   249
 10
181.080478
 20
166.726807
 30
0.0
 40
1.5
  1
EN
  0
TEXT
  8
0
  6
HIDDEN
 62
   249
 10
181.080478
 20
169.667847
 30
0.0
 40
1.5
  1
EN
  0
LINE
  8
0
  6
CONTINUOUS
 62
   249
 10
184.900936
 20
170.401095
 30
0.0
 11
187.400936
 21
170.401095
 31
0.0
  0
LINE
  8
0
  6
CONTINUOUS
 62
   249
 10
189.900936
 20
170.401095
 30
0.0
 11
187.676489
 21
169.840453
 31
0.0
  0
LINE
  8
0
  6
CONTINUOUS
 62
   249
 10
189.900936
 20
170.401095
 30
0.0
 11
192.400936
 21
170.401095
 31
0.0
  0
LINE
  8
0
  6
CONTINUOUS
 62
   249
 10
178.01273
 20
167.471652
 30
0.0
 11
170.0
 21
167.471652
 31
0.0
  0
LINE
  8
0
  6
CONTINUOUS
 62
   249
 10
178.01273
 20
170.500813
 30
0.0
 11
167.5
 21
170.500813
 31
0.0
  0
CIRCLE
  8
0
  6
CONTINUOUS
 62
   249
 10
179.012659
 20
170.494509
 30
0.0
 40
1.0
  0
CIRCLE
  8
0
  6
CONTINUOUS
 62
   249
 10
179.012659
 20
167.465349
 30
0.0
 40
1.0
  0
LINE
  8
0
  6
CONTINUOUS
 62
   249
 10
191.431134
 20
165.090902
 30
0.0
 11
191.431134
 21
163.30277
 31
0.0
  0
LINE
  8
0
  6
CONTINUOUS
 62
   249
 10
191.462165
 20
164.245623
 30
0.0
 11
199.25037
 21
164.245623
 31
0.0
  0
LINE
  8
0
  6
CONTINUOUS
 62
   249
 10
196.291717
 20
166.443786
 30
0.0
 11
197.192394
 21
165.320037
 31
0.0
  0
LINE
  8
0
  6
CONTINUOUS
 62
   249
 10
193.84631
 20
163.078021
 30
0.0
 11
196.72242
 21
165.906579
 31
0.0
  0
LINE
  8
0
  6
CONTINUOUS
 62
   249
 10
199.245829
 20
165.090902
 30
0.0
 11
199.245829
 21
163.30277
 31
0.0
  0
LINE
  8
0
  6
CONTINUOUS
 62
   249
 10
186.955194
 20
161.061795
 30
0.0
 11
189.300959
 21
159.726442
 31
0.0
  0
LINE
  8
0
  6
CONTINUOUS
 62
   249
 10
189.300959
 20
159.726442
 30
0.0
 11
186.955194
 21
158.536523
 31
0.0
  0
LINE
  8
0
  6
CONTINUOUS
 62
   249
 10
188.673715
 20
161.061795
 30
0.0
 11
191.019481
 21
159.726442
 31
0.0
  0
LINE
  8
0
  6
CONTINUOUS
 62
   249
 10
191.019481
 20
159.726442
 30
0.0
 11
188.673715
 21
158.536523
 31
0.0
  0
LINE
  8
0
  6
CONTINUOUS
 62
   249
 10
189.900936
 20
155.401095
 30
0.0
 11
192.400936
 21
155.401095
 31
0.0
  0
LINE
  8
0
  6
CONTINUOUS
 62
   249
 10
189.900936
 20
155.401095
 30
0.0
 11
187.676489
 21
154.840453
 31
0.0
  0
LINE
  8
0
  6
CONTINUOUS
 62
   249
 10
184.900936
 20
155.401095
 30
0.0
 11
187.400936
 21
155.401095
 31
0.0
  0
TEXT
  8
0
  6
HIDDEN
 62
   249
 10
181.080478
 20
154.667847
 30
0.0
 40
1.5
  1
EN
  0
TEXT
  8
0
  6
HIDDEN
 62
   249
 10
181.080478
 20
151.726807
 30
0.0
 40
1.5
  1
EN
  0
LINE
  8
0
  6
CONTINUOUS
 62
   249
 10
184.900936
 20
152.460055
 30
0.0
 11
187.400936
 21
152.460055
 31
0.0
  0
LINE
  8
0
  6
CONTINUOUS
 62
   249
 10
189.900936
 20
152.460055
 30
0.0
 11
187.676489
 21
151.899413
 31
0.0
  0
LINE
  8
0
  6
CONTINUOUS
 62
   249
 10
189.900936
 20
152.460055
 30
0.0
 11
192.400936
 21
152.460055
 31
0.0
  0
LINE
  8
0
  6
CONTINUOUS
 62
   249
 10
178.01273
 20
155.500813
 30
0.0
 11
167.5
 21
155.500813
 31
0.0
  0
CIRCLE
  8
0
  6
CONTINUOUS
 62
   249
 10
179.012659
 20
155.494509
 30
0.0
 40
1.0
  0
LINE
  8
0
  6
CONTINUOUS
 62
   249
 10
199.245829
 20
149.989158
 30
0.0
 11
199.245829
 21
148.201026
 31
0.0
  0
LINE
  8
0
  6
CONTINUOUS
 62
   249
 10
193.84631
 20
147.976276
 30
0.0
 11
196.72242
 21
150.804835
 31
0.0
  0
LINE
  8
0
  6
CONTINUOUS
 62
   249
 10
196.291717
 20
151.342042
 30
0.0
 11
197.192394
 21
150.218293
 31
0.0
  0
LINE
  8
0
  6
CONTINUOUS
 62
   249
 10
191.462165
 20
149.143879
 30
0.0
 11
199.25037
 21
149.143879
 31
0.0
  0
LINE
  8
0
  6
CONTINUOUS
 62
   249
 10
191.431134
 20
149.989158
 30
0.0
 11
191.431134
 21
148.201026
 31
0.0
  0
TEXT
  8
0
  6
CONTINUOUS
 62
   249
 10
205.0
 20
173.275586
 30
0.0
 40
2.5
  1
U2
  7
MONOTXT
  0
ARC
  8
0
 62
   249
 10
249.934151
 20
111.25
 30
0.0
 40
1.251733
 50
86.984476
 51
273.015524
  0
ARC
  8
0
 62
   249
 10
249.934151
 20
113.75
 30
0.0
 40
1.251733
 50
86.984476
 51
273.015524
  0
LINE
  8
0
 62
   249
 10
250.0
 20
112.5
 30
0.0
 11
252.5
 21
112.5
 31
0.0
  0
LINE
  8
0
 62
   249
 10
252.5
 20
115.0
 30
0.0
 11
255.0
 21
115.0
 31
0.0
  0
LINE
  8
0
 62
   249
 10
252.5
 20
110.0
 30
0.0
 11
255.0
 21
110.0
 31
0.0
  0
LINE
  8
0
 62
   249
 10
252.5
 20
110.0
 30
0.0
 11
255.0
 21
110.0
 31
0.0
  0
LINE
  8
0
 62
   249
 10
250.0
 20
110.0
 30
0.0
 11
260.0
 21
110.0
 31
0.0
  0
LINE
  8
0
 62
   249
 10
250.0
 20
107.5
 30
0.0
 11
252.5
 21
107.5
 31
0.0
  0
ARC
  8
0
 62
   249
 10
249.934151
 20
108.75
 30
0.0
 40
1.251733
 50
86.984476
 51
273.015524
  0
ARC
  8
0
 62
   249
 10
249.934151
 20
106.25
 30
0.0
 40
1.251733
 50
86.984476
 51
273.015524
  0
LINE
  8
0
 62
   249
 10
250.0
 20
105.0
 30
0.0
 11
252.5
 21
105.0
 31
0.0
  0
ARC
  8
0
 62
   249
 10
245.065849
 20
111.25
 30
0.0
 40
1.251733
 50
266.984476
 51
93.015524
  0
LINE
  8
0
 62
   249
 10
245.0
 20
112.5
 30
0.0
 11
243.480133
 21
112.5
 31
0.0
  0
LINE
  8
0
 62
   249
 10
245.0
 20
110.0
 30
0.0
 11
243.480133
 21
110.0
 31
0.0
  0
ARC
  8
0
 62
   249
 10
245.065849
 20
108.75
 30
0.0
 40
1.251733
 50
266.984476
 51
93.015524
  0
LINE
  8
0
 62
   249
 10
245.0
 20
107.5
 30
0.0
 11
243.480133
 21
107.5
 31
0.0
  0
LINE
  8
0
 62
   249
 10
250.0
 20
90.0
 30
0.0
 11
252.5
 21
90.0
 31
0.0
  0
ARC
  8
0
 62
   249
 10
249.934151
 20
91.25
 30
0.0
 40
1.251733
 50
86.984476
 51
273.015524
  0
ARC
  8
0
 62
   249
 10
249.934151
 20
93.75
 30
0.0
 40
1.251733
 50
86.984476
 51
273.015524
  0
LINE
  8
0
 62
   249
 10
250.0
 20
92.5
 30
0.0
 11
252.5
 21
92.5
 31
0.0
  0
LINE
  8
0
 62
   249
 10
252.5
 20
90.0
 30
0.0
 11
255.0
 21
90.0
 31
0.0
  0
LINE
  8
0
 62
   249
 10
250.0
 20
90.0
 30
0.0
 11
260.0
 21
90.0
 31
0.0
  0
LINE
  8
0
 62
   249
 10
250.0
 20
87.5
 30
0.0
 11
252.5
 21
87.5
 31
0.0
  0
ARC
  8
0
 62
   249
 10
249.934151
 20
88.75
 30
0.0
 40
1.251733
 50
86.984476
 51
273.015524
  0
ARC
  8
0
 62
   249
 10
249.934151
 20
86.25
 30
0.0
 40
1.251733
 50
86.984476
 51
273.015524
  0
LINE
  8
0
 62
   249
 10
250.0
 20
85.0
 30
0.0
 11
252.5
 21
85.0
 31
0.0
  0
ARC
  8
0
 62
   249
 10
245.065849
 20
91.25
 30
0.0
 40
1.251733
 50
266.984476
 51
93.015524
  0
LINE
  8
0
 62
   249
 10
245.0
 20
92.5
 30
0.0
 11
243.480133
 21
92.5
 31
0.0
  0
LINE
  8
0
 62
   249
 10
245.0
 20
90.0
 30
0.0
 11
243.480133
 21
90.0
 31
0.0
  0
ARC
  8
0
 62
   249
 10
245.065849
 20
88.75
 30
0.0
 40
1.251733
 50
266.984476
 51
93.015524
  0
LINE
  8
0
 62
   249
 10
245.0
 20
87.5
 30
0.0
 11
243.480133
 21
87.5
 31
0.0
  0
LINE
  8
0
 62
   249
 10
250.0
 20
115.0
 30
0.0
 11
260.0
 21
115.0
 31
0.0
  0
LINE
  8
0
 62
   249
 10
252.5
 20
105.0
 30
0.0
 11
260.0
 21
105.0
 31
0.0
  0
LINE
  8
0
 62
   249
 10
252.5
 20
85.0
 30
0.0
 11
260.0
 21
85.0
 31
0.0
  0
LINE
  8
0
 62
   249
 10
250.0
 20
95.0
 30
0.0
 11
260.0
 21
95.0
 31
0.0
  0
TEXT
  8
0
  6
HIDDEN
 62
   249
 10
255.076757
 20
112.12166
 30
0.0
 40
2.0
  1
15
  7
ROMANS
  0
TEXT
  8
0
  6
HIDDEN
 62
   249
 10
255.076757
 20
107.01489
 30
0.0
 40
2.0
  1
14
  7
ROMANS
  0
TEXT
  8
0
  6
HIDDEN
 62
   249
 10
255.076757
 20
102.007257
 30
0.0
 40
2.0
  1
13
  7
ROMANS
  0
TEXT
  8
0
  6
HIDDEN
 62
   249
 10
255.076757
 20
91.888508
 30
0.0
 40
2.0
  1
18
  7
ROMANS
  0
TEXT
  8
0
  6
HIDDEN
 62
   249
 10
255.076757
 20
86.89189
 30
0.0
 40
2.0
  1
17
  7
ROMANS
  0
TEXT
  8
0
  6
HIDDEN
 62
   249
 10
255.076757
 20
81.884257
 30
0.0
 40
2.0
  1
16
  7
ROMANS
  0
LINE
  8
0
  6
CONTINUOUS
 62
   249
 10
240.0
 20
137.5
 30
0.0
 11
241.0
 21
136.5
 31
0.0
  0
LINE
  8
0
  6
CONTINUOUS
 62
   249
 10
240.0
 20
162.5
 30
0.0
 11
241.0
 21
163.5
 31
0.0
  0
LINE
  8
0
  6
CONTINUOUS
 62
   249
 10
240.0
 20
162.5
 30
0.0
 11
240.0
 21
137.5
 31
0.0
  0
TEXT
  8
0
  6
CONTINUOUS
 62
   249
 10
51.636438
 20
154.2654
 30
0.0
 40
2.0
  1
SGR
 50
90.0
  7
ROMANS
  0
LINE
  8
0
  6
CONTINUOUS
 62
   249
 10
55.0
 20
157.5
 30
0.0
 11
55.0
 21
163.898487
 31
0.0
  0
LINE
  8
0
  6
CONTINUOUS
 62
   249
 10
55.0
 20
152.5
 30
0.0
 11
53.285914
 21
157.586297
 31
0.0
  0
LINE
  8
0
  6
CONTINUOUS
 62
   249
 10
55.0
 20
147.5
 30
0.0
 11
55.0
 21
152.5
 31
0.0
  0
TEXT
  8
0
  6
CONTINUOUS
 62
   249
 10
61.182478
 20
143.964455
 30
0.0
 40
2.5
  1
1
 11
61.182478
 21
143.131122
 31
0.0
 73
     1
  0
LINE
  8
0
  6
CONTINUOUS
 62
   249
 10
56.748617
 20
146.624549
 30
0.0
 11
59.094382
 21
145.289195
 31
0.0
  0
LINE
  8
0
  6
CONTINUOUS
 62
   249
 10
56.740575
 20
143.299262
 30
0.0
 11
59.124035
 21
144.487454
 31
0.0
  0
LINE
  8
0
  6
CONTINUOUS
 62
   249
 10
59.094382
 20
145.289195
 30
0.0
 11
56.748617
 21
144.099276
 31
0.0
  0
LINE
  8
0
  6
CONTINUOUS
 62
   249
 10
60.0
 20
142.5
 30
0.0
 11
60.0
 21
137.5
 31
0.0
  0
LINE
  8
0
  6
CONTINUOUS
 62
   249
 10
67.5
 20
147.5
 30
0.0
 11
52.5
 21
147.5
 31
0.0
  0
LINE
  8
0
  6
CONTINUOUS
 62
   249
 10
67.5
 20
147.5
 30
0.0
 11
67.5
 21
142.5
 31
0.0
  0
LINE
  8
0
  6
CONTINUOUS
 62
   249
 10
60.0
 20
147.5
 30
0.0
 11
60.0
 21
193.668365
 31
0.0
  0
LINE
  8
0
  6
CONTINUOUS
 62
   249
 10
52.5
 20
142.5
 30
0.0
 11
67.5
 21
142.5
 31
0.0
  0
LINE
  8
0
  6
CONTINUOUS
 62
   249
 10
52.5
 20
147.5
 30
0.0
 11
52.5
 21
142.5
 31
0.0
  0
LINE
  8
0
  6
CONTINUOUS
 62
   249
 10
77.5
 20
147.5
 30
0.0
 11
87.5
 21
147.5
 31
0.0
  0
LINE
  8
0
  6
CONTINUOUS
 62
   249
 10
87.5
 20
147.5
 30
0.0
 11
87.5
 21
142.5
 31
0.0
  0
LINE
  8
0
  6
CONTINUOUS
 62
   249
 10
87.5
 20
142.5
 30
0.0
 11
77.5
 21
142.5
 31
0.0
  0
LINE
  8
0
  6
CONTINUOUS
 62
   249
 10
77.5
 20
142.5
 30
0.0
 11
77.5
 21
147.5
 31
0.0
  0
LINE
  8
0
  6
CONTINUOUS
 62
   249
 10
82.142063
 20
145.289195
 30
0.0
 11
79.796297
 21
144.099276
 31
0.0
  0
LINE
  8
0
  6
CONTINUOUS
 62
   249
 10
79.788256
 20
143.299262
 30
0.0
 11
82.171716
 21
144.487454
 31
0.0
  0
LINE
  8
0
  6
CONTINUOUS
 62
   249
 10
79.796297
 20
146.624549
 30
0.0
 11
82.142063
 21
145.289195
 31
0.0
  0
TEXT
  8
0
  6
CONTINUOUS
 62
   249
 10
84.230159
 20
143.964455
 30
0.0
 40
2.5
  1
1
 11
84.230159
 21
143.131122
 31
0.0
 73
     1
  0
TEXT
  8
0
  6
CONTINUOUS
 62
   249
 10
101.507071
 20
143.964455
 30
0.0
 40
2.5
  1
1
 11
101.507071
 21
143.131122
 31
0.0
 73
     1
  0
LINE
  8
0
  6
CONTINUOUS
 62
   249
 10
97.07321
 20
146.624549
 30
0.0
 11
99.418975
 21
145.289195
 31
0.0
  0
LINE
  8
0
  6
CONTINUOUS
 62
   249
 10
97.065168
 20
143.299262
 30
0.0
 11
99.448628
 21
144.487454
 31
0.0
  0
LINE
  8
0
  6
CONTINUOUS
 62
   249
 10
99.418975
 20
145.289195
 30
0.0
 11
97.07321
 21
144.099276
 31
0.0
  0
LINE
  8
0
  6
CONTINUOUS
 62
   249
 10
92.5
 20
142.5
 30
0.0
 11
92.5
 21
147.5
 31
0.0
  0
LINE
  8
0
  6
CONTINUOUS
 62
   249
 10
107.5
 20
142.5
 30
0.0
 11
92.5
 21
142.5
 31
0.0
  0
LINE
  8
0
  6
CONTINUOUS
 62
   249
 10
107.5
 20
147.5
 30
0.0
 11
107.5
 21
142.5
 31
0.0
  0
LINE
  8
0
  6
CONTINUOUS
 62
   249
 10
92.5
 20
147.5
 30
0.0
 11
107.5
 21
147.5
 31
0.0
  0
LINE
  8
0
  6
CONTINUOUS
 62
   249
 10
112.5
 20
147.5
 30
0.0
 11
122.5
 21
147.5
 31
0.0
  0
LINE
  8
0
  6
CONTINUOUS
 62
   249
 10
122.5
 20
147.5
 30
0.0
 11
122.5
 21
142.5
 31
0.0
  0
LINE
  8
0
  6
CONTINUOUS
 62
   249
 10
122.5
 20
142.5
 30
0.0
 11
112.5
 21
142.5
 31
0.0
  0
LINE
  8
0
  6
CONTINUOUS
 62
   249
 10
112.5
 20
142.5
 30
0.0
 11
112.5
 21
147.5
 31
0.0
  0
LINE
  8
0
  6
CONTINUOUS
 62
   249
 10
116.707396
 20
145.289195
 30
0.0
 11
114.36163
 21
144.099276
 31
0.0
  0
LINE
  8
0
  6
CONTINUOUS
 62
   249
 10
114.353589
 20
143.299262
 30
0.0
 11
116.737049
 21
144.487454
 31
0.0
  0
LINE
  8
0
  6
CONTINUOUS
 62
   249
 10
114.36163
 20
146.624549
 30
0.0
 11
116.707396
 21
145.289195
 31
0.0
  0
TEXT
  8
0
  6
CONTINUOUS
 62
   249
 10
118.795492
 20
143.964455
 30
0.0
 40
2.5
  1
1
 11
118.795492
 21
143.131122
 31
0.0
 73
     1
  0
LINE
  8
0
  6
CONTINUOUS
 62
   249
 10
115.0
 20
147.5
 30
0.0
 11
115.0
 21
152.5
 31
0.0
  0
LINE
  8
0
  6
CONTINUOUS
 62
   249
 10
115.0
 20
152.5
 30
0.0
 11
113.285914
 21
157.586297
 31
0.0
  0
LINE
  8
0
  6
CONTINUOUS
 62
   249
 10
115.0
 20
157.5
 30
0.0
 11
115.0
 21
160.0
 31
0.0
  0
LINE
  8
0
  6
CONTINUOUS
 62
   249
 10
105.0
 20
147.5
 30
0.0
 11
105.0
 21
152.5
 31
0.0
  0
LINE
  8
0
  6
CONTINUOUS
 62
   249
 10
105.0
 20
152.5
 30
0.0
 11
103.285914
 21
157.586297
 31
0.0
  0
LINE
  8
0
  6
CONTINUOUS
 62
   249
 10
105.0
 20
157.5
 30
0.0
 11
105.0
 21
170.0
 31
0.0
  0
LINE
  8
0
  6
CONTINUOUS
 62
   249
 10
85.0
 20
157.5
 30
0.0
 11
85.0
 21
170.0
 31
0.0
  0
LINE
  8
0
  6
CONTINUOUS
 62
   249
 10
85.0
 20
152.5
 30
0.0
 11
83.285914
 21
157.586297
 31
0.0
  0
LINE
  8
0
  6
CONTINUOUS
 62
   249
 10
85.0
 20
147.5
 30
0.0
 11
85.0
 21
152.5
 31
0.0
  0
LINE
  8
0
  6
CONTINUOUS
 62
   249
 10
80.0
 20
147.5
 30
0.0
 11
80.0
 21
152.5
 31
0.0
  0
LINE
  8
0
  6
CONTINUOUS
 62
   249
 10
80.0
 20
152.5
 30
0.0
 11
78.285914
 21
157.586297
 31
0.0
  0
TEXT
  8
0
  6
CONTINUOUS
 62
   249
 10
55.549319
 20
155.0
 30
0.0
 40
2.0
  1
3
  7
ROMANS
  0
TEXT
  8
0
  6
CONTINUOUS
 62
   249
 10
80.598159
 20
155.0
 30
0.0
 40
2.0
  1
2
  7
ROMANS
  0
TEXT
  8
0
  6
CONTINUOUS
 62
   249
 10
85.699971
 20
155.0
 30
0.0
 40
2.0
  1
7
  7
ROMANS
  0
TEXT
  8
0
  6
CONTINUOUS
 62
   249
 10
105.7578
 20
155.0
 30
0.0
 40
2.0
  1
8
  7
ROMANS
  0
TEXT
  8
0
  6
CONTINUOUS
 62
   249
 10
115.955229
 20
155.0
 30
0.0
 40
2.0
  1
1
  7
ROMANS
  0
LINE
  8
0
  6
CONTINUOUS
 62
   249
 10
57.5
 20
132.5
 30
0.0
 11
40.0
 21
132.5
 31
0.0
  0
LINE
  8
0
  6
CONTINUOUS
 62
   249
 10
65.0
 20
132.5
 30
0.0
 11
65.0
 21
127.5
 31
0.0
  0
LINE
  8
0
  6
CONTINUOUS
 62
   249
 10
65.0
 20
127.5
 30
0.0
 11
40.0
 21
127.5
 31
0.0
  0
LINE
  8
0
  6
CONTINUOUS
 62
   249
 10
62.5
 20
132.5
 30
0.0
 11
65.0
 21
132.5
 31
0.0
  0
LINE
  8
0
  6
CONTINUOUS
 62
   249
 10
87.5
 20
122.5
 30
0.0
 11
87.5
 21
117.5
 31
0.0
  0
LINE
  8
0
  6
CONTINUOUS
 62
   249
 10
87.5
 20
117.5
 30
0.0
 11
40.0
 21
117.5
 31
0.0
  0
LINE
  8
0
  6
CONTINUOUS
 62
   249
 10
82.5
 20
135.0
 30
0.0
 11
82.5
 21
142.5
 31
0.0
  0
LINE
  8
0
  6
CONTINUOUS
 62
   249
 10
100.0
 20
135.0
 30
0.0
 11
100.0
 21
142.5
 31
0.0
  0
LINE
  8
0
  6
CONTINUOUS
 62
   249
 10
117.5
 20
135.0
 30
0.0
 11
117.5
 21
142.5
 31
0.0
  0
LINE
  8
0
  6
CONTINUOUS
 62
   249
 10
115.0
 20
160.0
 30
0.0
 11
115.0
 21
212.5
 31
0.0
  0
LINE
  8
0
  6
CONTINUOUS
 62
   249
 10
115.0
 20
212.5
 30
0.0
 11
180.0
 21
212.5
 31
0.0
  0
LINE
  8
0
  6
CONTINUOUS
 62
   249
 10
120.0
 20
147.5
 30
0.0
 11
120.0
 21
200.0
 31
0.0
  0
LINE
  8
0
  6
CONTINUOUS
 62
   249
 10
120.0
 20
200.0
 30
0.0
 11
180.0
 21
200.0
 31
0.0
  0
LINE
  8
0
  6
CONTINUOUS
 62
   249
 10
65.0
 20
217.5
 30
0.0
 11
170.0
 21
217.5
 31
0.0
  0
LINE
  8
0
  6
CONTINUOUS
 62
   249
 10
170.0
 20
217.5
 30
0.0
 11
170.0
 21
152.519111
 31
0.0
  0
LINE
  8
0
  6
CONTINUOUS
 62
   249
 10
167.5
 20
210.0
 30
0.0
 11
167.5
 21
155.500813
 31
0.0
  0
LINE
  8
0
  6
CONTINUOUS
 62
   249
 10
40.0
 20
107.5
 30
0.0
 11
97.5
 21
107.5
 31
0.0
  0
LINE
  8
0
  6
CONTINUOUS
 62
   249
 10
97.5
 20
102.5
 30
0.0
 11
40.0
 21
102.5
 31
0.0
  0
LINE
  8
0
  6
CONTINUOUS
 62
   249
 10
97.5
 20
102.5
 30
0.0
 11
97.5
 21
105.0
 31
0.0
  0
LINE
  8
0
  6
CONTINUOUS
 62
   249
 10
102.5
 20
107.5
 30
0.0
 11
105.0
 21
107.5
 31
0.0
  0
LINE
  8
0
  6
CONTINUOUS
 62
   249
 10
102.5
 20
107.5
 30
0.0
 11
96.756076
 21
104.285297
 31
0.0
  0
LINE
  8
0
  6
CONTINUOUS
 62
   249
 10
120.0
 20
92.5
 30
0.0
 11
114.256076
 21
89.285297
 31
0.0
  0
LINE
  8
0
  6
CONTINUOUS
 62
   249
 10
120.0
 20
92.5
 30
0.0
 11
122.5
 21
92.5
 31
0.0
  0
LINE
  8
0
  6
CONTINUOUS
 62
   249
 10
115.0
 20
87.5
 30
0.0
 11
115.0
 21
90.0
 31
0.0
  0
LINE
  8
0
  6
CONTINUOUS
 62
   249
 10
115.0
 20
87.5
 30
0.0
 11
40.0
 21
87.5
 31
0.0
  0
LINE
  8
0
  6
CONTINUOUS
 62
   249
 10
40.0
 20
92.5
 30
0.0
 11
115.0
 21
92.5
 31
0.0
  0
LINE
  8
0
  6
CONTINUOUS
 62
   249
 10
40.0
 20
77.5
 30
0.0
 11
130.0
 21
77.5
 31
0.0
  0
LINE
  8
0
  6
CONTINUOUS
 62
   249
 10
130.0
 20
72.5
 30
0.0
 11
40.0
 21
72.5
 31
0.0
  0
LINE
  8
0
  6
CONTINUOUS
 62
   249
 10
130.0
 20
72.5
 30
0.0
 11
130.0
 21
75.0
 31
0.0
  0
LINE
  8
0
  6
CONTINUOUS
 62
   249
 10
135.0
 20
77.5
 30
0.0
 11
137.5
 21
77.5
 31
0.0
  0
LINE
  8
0
  6
CONTINUOUS
 62
   249
 10
135.0
 20
77.5
 30
0.0
 11
129.256076
 21
74.285297
 31
0.0
  0
LINE
  8
0
  6
CONTINUOUS
 62
   249
 10
105.0
 20
107.5
 30
0.0
 11
105.0
 21
97.5
 31
0.0
  0
LINE
  8
0
  6
CONTINUOUS
 62
   249
 10
105.0
 20
97.5
 30
0.0
 11
40.0
 21
97.5
 31
0.0
  0
LINE
  8
0
  6
CONTINUOUS
 62
   249
 10
122.5
 20
92.5
 30
0.0
 11
122.5
 21
82.5
 31
0.0
  0
LINE
  8
0
  6
CONTINUOUS
 62
   249
 10
122.5
 20
82.5
 30
0.0
 11
40.0
 21
82.5
 31
0.0
  0
LINE
  8
0
  6
CONTINUOUS
 62
   249
 10
137.5
 20
77.5
 30
0.0
 11
137.5
 21
67.5
 31
0.0
  0
LINE
  8
0
  6
CONTINUOUS
 62
   249
 10
137.5
 20
67.5
 30
0.0
 11
40.0
 21
67.5
 31
0.0
  0
LINE
  8
0
  6
CONTINUOUS
 62
   249
 10
180.0
 20
193.668365
 30
0.0
 11
60.0
 21
193.668365
 31
0.0
  0
LINE
  8
0
  6
CONTINUOUS
 62
   249
 10
180.0
 20
204.665835
 30
0.0
 11
80.0
 21
204.665835
 31
0.0
  0
LINE
  8
0
  6
CONTINUOUS
 62
   249
 10
100.0
 20
160.0
 30
0.0
 11
100.0
 21
147.5
 31
0.0
  0
LINE
  8
0
  6
CONTINUOUS
 62
   249
 10
162.5
 20
148.668039
 30
0.0
 11
162.5
 21
160.0
 31
0.0
  0
LINE
  8
0
  6
HIDDEN
 62
   249
 10
40.0
 20
225.0
 30
0.0
 11
45.0
 21
225.0
 31
0.0
  0
LINE
  8
0
  6
HIDDEN
 62
   249
 10
45.0
 20
225.0
 30
0.0
 11
45.0
 21
202.5
 31
0.0
  0
LINE
  8
0
  6
HIDDEN
 62
   249
 10
45.0
 20
202.5
 30
0.0
 11
40.0
 21
202.5
 31
0.0
  0
TEXT
  8
0
  6
HIDDEN
 62
   249
 10
40.879157
 20
221.746473
 30
0.0
 40
2.0
  1
X2
  7
ROMANS
  0
TEXT
  8
0
  6
HIDDEN
 62
   249
 10
40.571089
 20
217.333058
 30
0.0
 40
2.0
  1
12
  7
ROMANS
  0
TEXT
  8
0
  6
HIDDEN
 62
   249
 10
40.571089
 20
209.949416
 30
0.0
 40
2.0
  1
10
  7
ROMANS
  0
TEXT
  8
0
  6
HIDDEN
 62
   249
 10
40.571089
 20
204.809022
 30
0.0
 40
2.0
  1
11
  7
ROMANS
  0
LINE
  8
0
  6
HIDDEN
 62
   249
 10
40.0
 20
137.5
 30
0.0
 11
45.0
 21
137.5
 31
0.0
  0
LINE
  8
0
  6
HIDDEN
 62
   249
 10
45.0
 20
137.5
 30
0.0
 11
45.0
 21
113.211798
 31
0.0
  0
LINE
  8
0
  6
HIDDEN
 62
   249
 10
45.0
 20
113.211798
 30
0.0
 11
40.0
 21
113.211798
 31
0.0
  0
LINE
  8
0
  6
HIDDEN
 62
   249
 10
40.0
 20
63.801629
 30
0.0
 11
45.0
 21
63.801629
 31
0.0
  0
LINE
  8
0
  6
HIDDEN
 62
   249
 10
45.0
 20
63.801629
 30
0.0
 11
45.0
 21
111.97351
 31
0.0
  0
LINE
  8
0
  6
HIDDEN
 62
   249
 10
45.0
 20
111.97351
 30
0.0
 11
40.0
 21
111.97351
 31
0.0
  0
TEXT
  8
0
  6
HIDDEN
 62
   249
 10
41.1717
 20
133.629257
 30
0.0
 40
2.0
  1
X1
  7
ROMANS
  0
TEXT
  8
0
  6
HIDDEN
 62
   249
 10
41.1717
 20
129.910394
 30
0.0
 40
2.0
  1
4
  7
ROMANS
  0
TEXT
  8
0
  6
HIDDEN
 62
   249
 10
41.1717
 20
124.573015
 30
0.0
 40
2.0
  1
3
  7
ROMANS
  0
TEXT
  8
0
  6
HIDDEN
 62
   249
 10
41.1717
 20
119.61975
 30
0.0
 40
2.0
  1
7
  7
ROMANS
  0
TEXT
  8
0
  6
HIDDEN
 62
   249
 10
41.1717
 20
114.810389
 30
0.0
 40
2.0
  1
6
  7
ROMANS
  0
TEXT
  8
0
  6
HIDDEN
 62
   249
 10
40.745853
 20
108.976621
 30
0.0
 40
2.0
  1
X2
  7
ROMANS
  0
TEXT
  8
0
  6
HIDDEN
 62
   249
 10
41.1717
 20
104.773092
 30
0.0
 40
2.0
  1
3
  7
ROMANS
  0
TEXT
  8
0
  6
HIDDEN
 62
   249
 10
41.1717
 20
99.842565
 30
0.0
 40
2.0
  1
1
  7
ROMANS
  0
TEXT
  8
0
  6
HIDDEN
 62
   249
 10
41.1717
 20
94.625644
 30
0.0
 40
2.0
  1
2
  7
ROMANS
  0
TEXT
  8
0
  6
HIDDEN
 62
   249
 10
41.1717
 20
89.695117
 30
0.0
 40
2.0
  1
6
  7
ROMANS
  0
TEXT
  8
0
  6
HIDDEN
 62
   249
 10
41.1717
 20
84.918802
 30
0.0
 40
2.0
  1
4
  7
ROMANS
  0
TEXT
  8
0
  6
HIDDEN
 62
   249
 10
41.1717
 20
79.690866
 30
0.0
 40
2.0
  1
5
  7
ROMANS
  0
TEXT
  8
0
  6
HIDDEN
 62
   249
 10
41.1717
 20
74.760338
 30
0.0
 40
2.0
  1
9
  7
ROMANS
  0
TEXT
  8
0
  6
HIDDEN
 62
   249
 10
41.1717
 20
69.686614
 30
0.0
 40
2.0
  1
7
  7
ROMANS
  0
TEXT
  8
0
  6
HIDDEN
 62
   249
 10
41.1717
 20
64.756087
 30
0.0
 40
2.0
  1
8
  7
ROMANS
  0
TEXT
  8
0
  6
HIDDEN
 62
   249
 10
17.455888
 20
231.239977
 30
0.0
 40
2.0
  1
2)
  7
ROMANS
  0
LINE
  8
0
  6
DASHED
 62
   249
 10
40.0
 20
132.5
 30
0.0
 11
27.5
 21
132.5
 31
0.0
  0
LINE
  8
0
  6
DASHED
 62
   249
 10
40.0
 20
127.5
 30
0.0
 11
27.5
 21
127.5
 31
0.0
  0
LINE
  8
0
  6
DASHED
 62
   249
 10
40.0
 20
117.5
 30
0.0
 11
27.5
 21
117.5
 31
0.0
  0
LINE
  8
0
  6
DASHED
 62
   249
 10
40.0
 20
122.5
 30
0.0
 11
27.5
 21
122.5
 31
0.0
  0
LINE
  8
0
  6
CONTINUOUS
 62
   249
 10
25.0
 20
122.5
 30
0.0
 11
26.0
 21
123.5
 31
0.0
  0
LINE
  8
0
  6
CONTINUOUS
 62
   249
 10
25.0
 20
117.499655
 30
0.0
 11
26.0
 21
116.499655
 31
0.0
  0
LINE
  8
0
  6
CONTINUOUS
 62
   249
 10
25.0
 20
122.5
 30
0.0
 11
25.0
 21
117.5
 31
0.0
  0
LINE
  8
0
  6
DASHED
 62
   249
 10
40.0
 20
67.5
 30
0.0
 11
27.5
 21
67.5
 31
0.0
  0
LINE
  8
0
 62
   249
 10
388.50882
 20
93.671798
 30
0.0
 11
344.50882
 21
93.671798
 31
0.0
  0
TEXT
  8
0
  6
HIDDEN
 62
   249
 10
347.335794
 20
57.9052
 30
0.0
 40
2.0
  1
Uo
  7
ROMANS
  0
TEXT
  8
0
  6
HIDDEN
 62
   249
 10
347.305056
 20
53.816437
 30
0.0
 40
2.0
  1
U12
  7
ROMANS
  0
TEXT
  8
0
  6
HIDDEN
 62
   249
 10
347.305056
 20
49.743883
 30
0.0
 40
2.0
  1
U23
  7
ROMANS
  0
LINE
  8
0
  6
CONTINUOUS
 62
   249
 10
358.50882
 20
66.432554
 30
0.0
 11
388.493873
 21
66.432554
 31
0.0
  0
TEXT
  8
0
  6
CONTINUOUS
 62
   249
 10
360.815824
 20
53.814579
 30
0.0
 40
2.0
  1
13-14
  7
ROMANS
  0
TEXT
  8
0
  6
CONTINUOUS
 62
   249
 10
360.815824
 20
49.73186
 30
0.0
 40
2.0
  1
16-17
  7
ROMANS
  0
TEXT
  8
0
  6
CONTINUOUS
 62
   249
 10
376.290577
 20
53.792538
 30
0.0
 40
2.0
  1
13-15
  7
ROMANS
  0
TEXT
  8
0
  6
CONTINUOUS
 62
   249
 10
376.290577
 20
49.72084
 30
0.0
 40
2.0
  1
16-18
  7
ROMANS
  0
TEXT
  8
0
  6
CONTINUOUS
 62
   249
 10
338.252853
 20
92.284112
 30
0.0
 40
2.0
  1
1)
  7
ROMANS
  0
LINE
  8
0
 62
   249
 10
60.221556
 20
228.704212
 30
0.0
 11
52.798812
 21
228.704212
 31
0.0
  0
LINE
  8
0
  6
CONTINUOUS
 62
   249
 10
60.221556
 20
232.5
 30
0.0
 11
65.0
 21
232.5
 31
0.0
  0
LINE
  8
0
 62
   249
 10
60.221556
 20
228.704212
 30
0.0
 11
60.221556
 21
236.589925
 31
0.0
  0
LINE
  8
0
 62
   249
 10
60.221556
 20
236.589925
 30
0.0
 11
52.798812
 21
236.589925
 31
0.0
  0
LINE
  8
0
 62
   249
 10
58.496971
 20
236.567786
 30
0.0
 11
56.642636
 21
234.288964
 31
0.0
  0
LINE
  8
0
 62
   249
 10
57.004853
 20
236.567786
 30
0.0
 11
55.09105
 21
234.288964
 31
0.0
  0
LINE
  8
0
 62
   249
 10
52.798812
 20
236.589925
 30
0.0
 11
52.798812
 21
228.704212
 31
0.0
  0
LINE
  8
0
  6
CONTINUOUS
 62
   249
 10
52.798812
 20
230.0
 30
0.0
 11
40.0
 21
230.0
 31
0.0
  0
LINE
  8
0
  6
CONTINUOUS
 62
   249
 10
52.798812
 20
235.0
 30
0.0
 11
40.0
 21
235.0
 31
0.0
  0
LINE
  8
0
  6
HIDDEN
 62
   249
 10
40.0
 20
240.0
 30
0.0
 11
45.0
 21
240.0
 31
0.0
  0
LINE
  8
0
  6
HIDDEN
 62
   249
 10
40.0
 20
226.348482
 30
0.0
 11
45.0
 21
226.348482
 31
0.0
  0
LINE
  8
0
  6
HIDDEN
 62
   249
 10
45.0
 20
240.0
 30
0.0
 11
45.0
 21
226.348482
 31
0.0
  0
TEXT
  8
0
  6
CONTINUOUS
 62
   249
 10
41.09856
 20
236.598074
 30
0.0
 40
2.0
  1
X1
  7
ROMANS
  0
TEXT
  8
0
  6
CONTINUOUS
 62
   249
 10
40.538276
 20
232.252652
 30
0.0
 40
2.0
  1
12
  7
ROMANS
  0
TEXT
  8
0
  6
CONTINUOUS
 62
   249
 10
40.538276
 20
227.401185
 30
0.0
 40
2.0
  1
11
  7
ROMANS
  0
LINE
  8
0
  6
HIDDEN
 62
   249
 10
182.5
 20
190.0
 30
0.0
 11
200.0
 21
190.0
 31
0.0
  0
LINE
  8
0
  6
HIDDEN
 62
   249
 10
182.5
 20
185.0
 30
0.0
 11
200.0
 21
185.0
 31
0.0
  0
LINE
  8
0
  6
CONTINUOUS
 62
   249
 10
185.333062
 20
188.732238
 30
0.0
 11
187.678827
 21
187.396885
 31
0.0
  0
LINE
  8
0
  6
CONTINUOUS
 62
   249
 10
187.678827
 20
187.396885
 30
0.0
 11
185.333062
 21
186.206966
 31
0.0
  0
LINE
  8
0
  6
CONTINUOUS
 62
   249
 10
187.135452
 20
188.732238
 30
0.0
 11
189.481217
 21
187.396885
 31
0.0
  0
LINE
  8
0
  6
CONTINUOUS
 62
   249
 10
189.481217
 20
187.396885
 30
0.0
 11
187.135452
 21
186.206966
 31
0.0
  0
TEXT
  8
0
  6
CONTINUOUS
 62
   249
 10
183.770128
 20
186.194281
 30
0.0
 40
2.5
  1
I
 11
183.770128
 21
185.360948
 31
0.0
 73
     1
  0
LINE
  8
0
  6
CONTINUOUS
 62
   249
 10
191.384084
 20
187.396885
 30
0.0
 11
189.038319
 21
186.206966
 31
0.0
  0
LINE
  8
0
  6
CONTINUOUS
 62
   249
 10
189.038319
 20
188.732238
 30
0.0
 11
191.384084
 21
187.396885
 31
0.0
  0
LINE
  8
0
  6
CONTINUOUS
 62
   249
 10
189.038319
 20
182.257133
 30
0.0
 11
191.384084
 21
180.921779
 31
0.0
  0
LINE
  8
0
  6
CONTINUOUS
 62
   249
 10
191.384084
 20
180.921779
 30
0.0
 11
189.038319
 21
179.73186
 31
0.0
  0
TEXT
  8
0
  6
CONTINUOUS
 62
   249
 10
183.770128
 20
179.719176
 30
0.0
 40
2.5
  1
I
 11
183.770128
 21
178.885842
 31
0.0
 73
     1
  0
LINE
  8
0
  6
CONTINUOUS
 62
   249
 10
189.481217
 20
180.921779
 30
0.0
 11
187.135452
 21
179.73186
 31
0.0
  0
LINE
  8
0
  6
CONTINUOUS
 62
   249
 10
187.135452
 20
182.257133
 30
0.0
 11
189.481217
 21
180.921779
 31
0.0
  0
LINE
  8
0
  6
CONTINUOUS
 62
   249
 10
187.678827
 20
180.921779
 30
0.0
 11
185.333062
 21
179.73186
 31
0.0
  0
LINE
  8
0
  6
CONTINUOUS
 62
   249
 10
185.333062
 20
182.257133
 30
0.0
 11
187.678827
 21
180.921779
 31
0.0
  0
LINE
  8
0
  6
CONTINUOUS
 62
   249
 10
192.102084
 20
181.494658
 30
0.0
 11
192.102084
 21
179.706526
 31
0.0
  0
LINE
  8
0
  6
CONTINUOUS
 62
   249
 10
192.102084
 20
180.649379
 30
0.0
 11
199.25037
 21
180.649379
 31
0.0
  0
LINE
  8
0
  6
CONTINUOUS
 62
   249
 10
196.675117
 20
182.847542
 30
0.0
 11
197.575794
 21
181.723793
 31
0.0
  0
LINE
  8
0
  6
CONTINUOUS
 62
   249
 10
194.22971
 20
179.481776
 30
0.0
 11
197.105821
 21
182.310335
 31
0.0
  0
LINE
  8
0
  6
CONTINUOUS
 62
   249
 10
199.245829
 20
181.494658
 30
0.0
 11
199.245829
 21
179.706526
 31
0.0
  0
LINE
  8
0
  6
CONTINUOUS
 62
   249
 10
182.5
 20
215.0
 30
0.0
 11
182.5
 21
177.5
 31
0.0
  0
TEXT
  8
0
  6
CONTINUOUS
 62
   249
 10
181.991916
 20
178.287092
 30
0.0
 40
1.5
  1
PROGRAMMING: SEE SHEET 3
 50
90.0
  7
ROMANS
  0
TEXT
  8
0
  6
CONTINUOUS
 62
   249
 10
182.005063
 20
158.846592
 30
0.0
 40
2.5
  1
I
 11
182.005063
 21
158.013259
 31
0.0
 73
     1
  0
TEXT
  8
0
  6
CONTINUOUS
 62
   249
 10
182.005063
 20
163.265761
 30
0.0
 40
2.5
  1
I
 11
182.005063
 21
162.432428
 31
0.0
 73
     1
  0
LINE
  8
0
  6
CONTINUOUS
 62
   249
 10
189.287169
 20
164.262687
 30
0.0
 11
186.941403
 21
163.072768
 31
0.0
  0
LINE
  8
0
  6
CONTINUOUS
 62
   249
 10
186.941403
 20
165.598041
 30
0.0
 11
189.287169
 21
164.262687
 31
0.0
  0
TEXT
  8
0
  6
CONTINUOUS
 62
   249
 10
182.005063
 20
173.768175
 30
0.0
 40
2.5
  1
I
 11
182.005063
 21
172.934842
 31
0.0
 73
     1
  0
CIRCLE
  8
0
  6
CONTINUOUS
 62
   249
 10
179.012659
 20
152.521725
 30
0.0
 40
1.0
  0
LINE
  8
0
  6
CONTINUOUS
 62
   249
 10
178.01273
 20
152.519111
 30
0.0
 11
170.0
 21
152.519111
 31
0.0
  0
TEXT
  8
0
  6
CONTINUOUS
 62
   249
 10
182.005063
 20
148.233974
 30
0.0
 40
2.5
  1
I
 11
182.005063
 21
147.400641
 31
0.0
 73
     1
  0
LINE
  8
0
  6
CONTINUOUS
 62
   249
 10
191.034697
 20
149.113824
 30
0.0
 11
188.688931
 21
147.923905
 31
0.0
  0
LINE
  8
0
  6
CONTINUOUS
 62
   249
 10
188.688931
 20
150.449178
 30
0.0
 11
191.034697
 21
149.113824
 31
0.0
  0
LINE
  8
0
  6
CONTINUOUS
 62
   249
 10
189.316175
 20
149.113824
 30
0.0
 11
186.97041
 21
147.923905
 31
0.0
  0
LINE
  8
0
  6
CONTINUOUS
 62
   249
 10
186.97041
 20
150.449178
 30
0.0
 11
189.316175
 21
149.113824
 31
0.0
  0
LINE
  8
0
  6
CONTINUOUS
 62
   249
 10
180.0
 20
110.0
 30
0.0
 11
210.450615
 21
110.0
 31
0.0
  0
TEXT
  8
0
  6
CONTINUOUS
 62
   249
 10
200.396803
 20
194.59134
 30
0.0
 40
2.0
  1
2
  7
GREEKS
  0
LINE
  8
0
  6
CONTINUOUS
 62
   249
 10
201.724689
 20
160.714764
 30
0.0
 11
209.268276
 21
160.714764
 31
0.0
  0
TEXT
  8
0
  6
CONTINUOUS
 62
   249
 10
204.296619
 20
163.276781
 30
0.0
 40
2.5
  1
I
 11
204.296619
 21
162.443448
 31
0.0
 73
     1
  0
TEXT
  8
0
  6
CONTINUOUS
 62
   249
 10
204.72661
 20
155.525469
 30
0.0
 40
1.5
  1
f
  7
GREEKC
  0
TEXT
  8
0
  6
CONTINUOUS
 62
   249
 10
200.471568
 20
155.010459
 30
0.0
 40
1.5
  1
SIN
  7
GREEKS
  0
TEXT
  8
0
  6
CONTINUOUS
 62
   249
 10
200.471568
 20
150.857643
 30
0.0
 40
1.5
  1
COS
  7
GREEKS
  0
TEXT
  8
0
  6
CONTINUOUS
 62
   249
 10
204.72661
 20
151.364059
 30
0.0
 40
1.5
  1
f
  7
GREEKC
  0
TEXT
  8
0
  6
HIDDEN
 62
   249
 10
207.367691
 20
150.862921
 30
0.0
 40
1.5
  1
EN
  0
TEXT
  8
0
  6
HIDDEN
 62
   249
 10
207.367691
 20
154.999914
 30
0.0
 40
1.5
  1
EN
  0
LINE
  8
0
  6
CONTINUOUS
 62
   249
 10
201.724689
 20
190.086908
 30
0.0
 11
209.268276
 21
190.086908
 31
0.0
  0
LINE
  8
0
  6
CONTINUOUS
 62
   249
 10
180.0
 20
207.5
 30
0.0
 11
170.0
 21
207.5
 31
0.0
  0
LINE
  8
0
  6
CONTINUOUS
 62
   249
 10
80.0
 20
157.5
 30
0.0
 11
80.0
 21
204.665835
 31
0.0
  0
LINE
  8
0
  6
CONTINUOUS
 62
   249
 10
55.0
 20
163.898487
 30
0.0
 11
180.0
 21
163.898487
 31
0.0
  0
LINE
  8
0
  6
CONTINUOUS
 62
   249
 10
65.0
 20
147.5
 30
0.0
 11
65.0
 21
160.0
 31
0.0
  0
LINE
  8
0
  6
CONTINUOUS
 62
   249
 10
65.0
 20
160.0
 30
0.0
 11
162.5
 21
160.0
 31
0.0
  0
LINE
  8
0
  6
CONTINUOUS
 62
   249
 10
45.0
 20
139.78824
 30
0.0
 11
45.0
 21
170.0
 31
0.0
  0
LINE
  8
0
  6
CONTINUOUS
 62
   249
 10
45.0
 20
170.0
 30
0.0
 11
105.0
 21
170.0
 31
0.0
  0
LINE
  8
0
  6
CONTINUOUS
 62
   249
 10
60.0
 20
139.78824
 30
0.0
 11
45.0
 21
139.78824
 31
0.0
  0
LINE
  8
0
  6
CONTINUOUS
 62
   249
 10
95.0
 20
147.5
 30
0.0
 11
95.0
 21
163.898487
 31
0.0
  0
LINE
  8
0
  6
CONTINUOUS
 62
   249
 10
180.0
 20
148.668039
 30
0.0
 11
162.5
 21
148.668039
 31
0.0
  0
LINE
  8
0
  6
CONTINUOUS
 62
   249
 10
180.0
 20
175.0
 30
0.0
 11
132.5
 21
175.0
 31
0.0
  0
TEXT
  8
0
  6
CONTINUOUS
 62
   249
 10
174.842601
 20
213.021445
 30
0.0
 40
1.5
  1
SS1
  7
ROMANS
  0
TEXT
  8
0
  6
CONTINUOUS
 62
   249
 10
174.842601
 20
205.156162
 30
0.0
 40
1.5
  1
TS1
  7
ROMANS
  0
TEXT
  8
0
  6
CONTINUOUS
 62
   249
 10
174.842601
 20
200.629465
 30
0.0
 40
1.5
  1
SS2
  7
ROMANS
  0
TEXT
  8
0
  6
CONTINUOUS
 62
   249
 10
174.842601
 20
194.168574
 30
0.0
 40
1.5
  1
TS2
  7
ROMANS
  0
TEXT
  8
0
  6
CONTINUOUS
 62
   249
 10
174.842601
 20
175.646044
 30
0.0
 40
1.5
  1
SS1
  7
ROMANS
  0
TEXT
  8
0
  6
CONTINUOUS
 62
   249
 10
174.842601
 20
164.568319
 30
0.0
 40
1.5
  1
TS1
  7
ROMANS
  0
TEXT
  8
0
  6
CONTINUOUS
 62
   249
 10
174.842601
 20
149.434831
 30
0.0
 40
1.5
  1
TS2
  7
ROMANS
  0
ARC
  8
0
 62
   249
 10
249.934151
 20
161.25
 30
0.0
 40
1.251733
 50
86.984476
 51
273.015524
  0
LINE
  8
0
 62
   249
 10
250.0
 20
160.0
 30
0.0
 11
252.5
 21
160.0
 31
0.0
  0
ARC
  8
0
 62
   249
 10
249.934151
 20
163.75
 30
0.0
 40
1.251733
 50
86.984476
 51
273.015524
  0
LINE
  8
0
 62
   249
 10
250.0
 20
162.5
 30
0.0
 11
252.5
 21
162.5
 31
0.0
  0
LINE
  8
0
 62
   249
 10
250.0
 20
165.0
 30
0.0
 11
252.5
 21
165.0
 31
0.0
  0
LINE
  8
0
 62
   249
 10
252.5
 20
160.0
 30
0.0
 11
255.0
 21
160.0
 31
0.0
  0
LINE
  8
0
 62
   249
 10
250.0
 20
160.0
 30
0.0
 11
252.5
 21
160.0
 31
0.0
  0
LINE
  8
0
 62
   249
 10
250.0
 20
157.5
 30
0.0
 11
252.5
 21
157.5
 31
0.0
  0
ARC
  8
0
 62
   249
 10
249.934151
 20
158.75
 30
0.0
 40
1.251733
 50
86.984476
 51
273.015524
  0
ARC
  8
0
 62
   249
 10
249.934151
 20
156.25
 30
0.0
 40
1.251733
 50
86.984476
 51
273.015524
  0
LINE
  8
0
 62
   249
 10
250.0
 20
155.0
 30
0.0
 11
252.5
 21
155.0
 31
0.0
  0
ARC
  8
0
 62
   249
 10
245.065849
 20
161.25
 30
0.0
 40
1.251733
 50
266.984476
 51
93.015524
  0
LINE
  8
0
 62
   249
 10
245.0
 20
162.5
 30
0.0
 11
243.480133
 21
162.5
 31
0.0
  0
LINE
  8
0
 62
   249
 10
245.0
 20
160.0
 30
0.0
 11
243.480133
 21
160.0
 31
0.0
  0
ARC
  8
0
 62
   249
 10
245.065849
 20
158.75
 30
0.0
 40
1.251733
 50
266.984476
 51
93.015524
  0
LINE
  8
0
 62
   249
 10
245.0
 20
157.5
 30
0.0
 11
243.480133
 21
157.5
 31
0.0
  0
LINE
  8
0
 62
   249
 10
252.5
 20
155.0
 30
0.0
 11
260.0
 21
155.0
 31
0.0
  0
LINE
  8
0
 62
   249
 10
252.5
 20
160.0
 30
0.0
 11
260.0
 21
160.0
 31
0.0
  0
LINE
  8
0
 62
   249
 10
252.5
 20
165.0
 30
0.0
 11
260.0
 21
165.0
 31
0.0
  0
TEXT
  8
0
  6
CONTINUOUS
 62
   249
 10
255.47633
 20
162.10337
 30
0.0
 40
2.0
  1
27
  7
ROMANS
  0
TEXT
  8
0
  6
CONTINUOUS
 62
   249
 10
255.47633
 20
157.205888
 30
0.0
 40
2.0
  1
26
  7
ROMANS
  0
TEXT
  8
0
  6
CONTINUOUS
 62
   249
 10
255.47633
 20
152.18724
 30
0.0
 40
2.0
  1
25
  7
ROMANS
  0
LINE
  8
0
  6
CONTINUOUS
 62
   249
 10
240.0
 20
210.0
 30
0.0
 11
241.0
 21
211.0
 31
0.0
  0
LINE
  8
0
  6
CONTINUOUS
 62
   249
 10
240.0
 20
210.0
 30
0.0
 11
240.0
 21
185.0
 31
0.0
  0
LINE
  8
0
  6
CONTINUOUS
 62
   249
 10
240.0
 20
185.0
 30
0.0
 11
241.0
 21
184.0
 31
0.0
  0
LINE
  8
0
  6
CONTINUOUS
 62
   249
 10
240.0
 20
197.5
 30
0.0
 11
210.450615
 21
197.5
 31
0.0
  0
LINE
  8
0
  6
CONTINUOUS
 62
   249
 10
240.0
 20
112.5
 30
0.0
 11
241.0
 21
113.5
 31
0.0
  0
LINE
  8
0
  6
CONTINUOUS
 62
   249
 10
240.0
 20
87.5
 30
0.0
 11
241.0
 21
86.5
 31
0.0
  0
LINE
  8
0
  6
CONTINUOUS
 62
   249
 10
240.0
 20
112.5
 30
0.0
 11
240.0
 21
87.5
 31
0.0
  0
LINE
  8
0
  6
CONTINUOUS
 62
   249
 10
210.450615
 20
167.060179
 30
0.0
 11
222.5
 21
167.060179
 31
0.0
  0
LINE
  8
0
  6
CONTINUOUS
 62
   249
 10
222.5
 20
167.060179
 30
0.0
 11
222.5
 21
150.0
 31
0.0
  0
LINE
  8
0
  6
CONTINUOUS
 62
   249
 10
222.5
 20
150.0
 30
0.0
 11
232.5
 21
150.0
 31
0.0
  0
CIRCLE
  8
0
  6
CONTINUOUS
 62
   249
 10
211.450323
 20
155.983421
 30
0.0
 40
1.0
  0
LINE
  8
0
  6
CONTINUOUS
 62
   249
 10
65.0
 20
232.5
 30
0.0
 11
215.0
 21
232.5
 31
0.0
  0
LINE
  8
0
  6
CONTINUOUS
 62
   249
 10
215.0
 20
232.5
 30
0.0
 11
215.0
 21
151.543906
 31
0.0
  0
LINE
  8
0
  6
CONTINUOUS
 62
   249
 10
210.450615
 20
151.543906
 30
0.0
 11
215.0
 21
151.543906
 31
0.0
  0
LINE
  8
0
  6
CONTINUOUS
 62
   249
 10
212.450316
 20
155.979447
 30
0.0
 11
215.0
 21
155.979447
 31
0.0
  0
LINE
  8
0
  6
CONTINUOUS
 62
   249
 10
210.450615
 20
192.5
 30
0.0
 11
227.5
 21
192.5
 31
0.0
  0
LINE
  8
0
  6
CONTINUOUS
 62
   249
 10
227.5
 20
192.5
 30
0.0
 11
227.5
 21
100.0
 31
0.0
  0
LINE
  8
0
  6
CONTINUOUS
 62
   249
 10
227.5
 20
100.0
 30
0.0
 11
240.0
 21
100.0
 31
0.0
  0
TEXT
  8
0
  6
CONTINUOUS
 62
   249
 10
65.0
 20
230.0
 30
0.0
 40
1.5
  1
BACTRL
  7
ROMANS
  0
TEXT
  8
0
  6
CONTINUOUS
 62
   249
 10
65.0
 20
215.0
 30
0.0
 40
1.5
  1
BS1
  7
ROMANS
  0
TEXT
  8
0
  6
CONTINUOUS
 62
   249
 10
65.0
 20
207.5
 30
0.0
 40
1.5
  1
BS2
  7
ROMANS
  0
LINE
  8
0
  6
DASHED
 62
   249
 10
40.0
 20
235.0
 30
0.0
 11
32.5
 21
235.0
 31
0.0
  0
LINE
  8
0
  6
DASHED
 62
   249
 10
40.0
 20
230.0
 30
0.0
 11
32.5
 21
230.0
 31
0.0
  0
LINE
  8
0
  6
CONTINUOUS
 62
   249
 10
22.5
 20
235.0
 30
0.0
 11
23.5
 21
236.0
 31
0.0
  0
LINE
  8
0
  6
CONTINUOUS
 62
   249
 10
22.5
 20
229.999655
 30
0.0
 11
23.5
 21
228.999655
 31
0.0
  0
LINE
  8
0
  6
CONTINUOUS
 62
   249
 10
22.5
 20
235.0
 30
0.0
 11
22.5
 21
230.0
 31
0.0
  0
TEXT
  8
0
  6
CONTINUOUS
 62
   249
 10
17.440672
 20
213.067384
 30
0.0
 40
2.0
  1
3)
  7
ROMANS
  0
TEXT
  8
0
  6
CONTINUOUS
 62
   249
 10
17.993014
 20
119.173819
 30
0.0
 40
2.0
  1
5a)
  7
ROMANS
  0
TEXT
  8
0
  6
CONTINUOUS
 62
   249
 10
17.993014
 20
101.591145
 30
0.0
 40
2.0
  1
5b)
  7
ROMANS
  0
TEXT
  8
0
  6
CONTINUOUS
 62
   249
 10
17.993014
 20
80.437871
 30
0.0
 40
2.0
  1
5c)
  7
ROMANS
  0
TEXT
  8
0
  6
CONTINUOUS
 62
   249
 10
347.15588
 20
69.16431
 30
0.0
 40
2.5
  1
I
 11
347.15588
 21
68.330977
 31
0.0
 73
     1
  0
LINE
  8
0
  6
CONTINUOUS
 62
   249
 10
361.221603
 20
252.974187
 30
0.0
 11
368.765189
 21
252.974187
 31
0.0
  0
TEXT
  8
0
  6
DASHED
 62
   249
 10
362.133208
 20
255.789445
 30
0.0
 40
2.0
  1
2
  7
GREEKS
  0
TEXT
  8
0
  6
DASHED
 62
   249
 10
364.383505
 20
255.776511
 30
0.0
 40
2.5
  1
I
  7
GREEKS
  0
TEXT
  8
0
  6
DASHED
 62
   249
 10
364.383505
 20
243.345531
 30
0.0
 40
2.5
  1
I
  7
GREEKS
  0
TEXT
  8
0
  6
DASHED
 62
   249
 10
362.133208
 20
243.358466
 30
0.0
 40
2.0
  1
2
  7
GREEKS
  0
LINE
  8
0
  6
CONTINUOUS
 62
   249
 10
361.221603
 20
240.837859
 30
0.0
 11
368.765189
 21
240.837859
 31
0.0
  0
TEXT
  8
0
  6
DASHED
 62
   249
 10
362.133208
 20
232.378826
 30
0.0
 40
2.0
  1
2
  7
GREEKS
  0
TEXT
  8
0
  6
DASHED
 62
   249
 10
364.383505
 20
232.365891
 30
0.0
 40
2.5
  1
I
  7
GREEKS
  0
LINE
  8
0
  6
CONTINUOUS
 62
   249
 10
369.166854
 20
233.529919
 30
0.0
 11
366.821088
 21
232.34
 31
0.0
  0
LINE
  8
0
  6
CONTINUOUS
 62
   249
 10
366.821088
 20
234.865273
 30
0.0
 11
369.166854
 21
233.529919
 31
0.0
  0
LINE
  8
0
  6
CONTINUOUS
 62
   249
 10
368.709814
 20
234.865273
 30
0.0
 11
371.05558
 21
233.529919
 31
0.0
  0
LINE
  8
0
  6
CONTINUOUS
 62
   249
 10
371.05558
 20
233.529919
 30
0.0
 11
368.709814
 21
232.34
 31
0.0
  0
LINE
  8
0
  6
CONTINUOUS
 62
   249
 10
372.893859
 20
233.529919
 30
0.0
 11
370.548094
 21
232.34
 31
0.0
  0
LINE
  8
0
  6
CONTINUOUS
 62
   249
 10
370.548094
 20
234.865273
 30
0.0
 11
372.893859
 21
233.529919
 31
0.0
  0
LINE
  8
0
  6
CONTINUOUS
 62
   249
 10
369.142955
 20
230.012174
 30
0.0
 11
369.142955
 21
228.224043
 31
0.0
  0
LINE
  8
0
  6
CONTINUOUS
 62
   249
 10
366.188843
 20
231.365059
 30
0.0
 11
367.08952
 21
230.24131
 31
0.0
  0
LINE
  8
0
  6
CONTINUOUS
 62
   249
 10
363.743436
 20
227.999293
 30
0.0
 11
366.619546
 21
230.827852
 31
0.0
  0
LINE
  8
0
  6
CONTINUOUS
 62
   249
 10
361.359291
 20
229.166896
 30
0.0
 11
369.147496
 21
229.166896
 31
0.0
  0
LINE
  8
0
  6
CONTINUOUS
 62
   249
 10
361.32826
 20
230.012174
 30
0.0
 11
361.32826
 21
228.224043
 31
0.0
  0
LINE
  8
0
  6
CONTINUOUS
 62
   249
 10
366.672272
 20
224.603633
 30
0.0
 11
369.018038
 21
223.26828
 31
0.0
  0
LINE
  8
0
  6
CONTINUOUS
 62
   249
 10
369.018038
 20
223.26828
 30
0.0
 11
366.672272
 21
222.078361
 31
0.0
  0
TEXT
  8
0
  6
CONTINUOUS
 62
   249
 10
362.148225
 20
222.38843
 30
0.0
 40
2.5
  1
I
 11
362.148225
 21
221.555097
 31
0.0
 73
     1
  0
LINE
  8
0
  6
CONTINUOUS
 62
   249
 10
361.32826
 20
219.741188
 30
0.0
 11
361.32826
 21
217.953057
 31
0.0
  0
LINE
  8
0
  6
CONTINUOUS
 62
   249
 10
361.359291
 20
218.89591
 30
0.0
 11
369.147496
 21
218.89591
 31
0.0
  0
LINE
  8
0
  6
CONTINUOUS
 62
   249
 10
363.743436
 20
217.728307
 30
0.0
 11
366.619546
 21
220.556866
 31
0.0
  0
LINE
  8
0
  6
CONTINUOUS
 62
   249
 10
366.188843
 20
221.094072
 30
0.0
 11
367.08952
 21
219.970323
 31
0.0
  0
LINE
  8
0
  6
CONTINUOUS
 62
   249
 10
369.142955
 20
219.741188
 30
0.0
 11
369.142955
 21
217.953057
 31
0.0
  0
LINE
  8
0
  6
CONTINUOUS
 62
   249
 10
361.221603
 20
215.094271
 30
0.0
 11
368.765189
 21
215.094271
 31
0.0
  0
TEXT
  8
0
  6
CONTINUOUS
 62
   249
 10
362.148225
 20
209.858267
 30
0.0
 40
2.5
  1
I
 11
362.148225
 21
209.024934
 31
0.0
 73
     1
  0
LINE
  8
0
  6
CONTINUOUS
 62
   249
 10
369.142955
 20
206.560824
 30
0.0
 11
369.142955
 21
204.772692
 31
0.0
  0
LINE
  8
0
  6
CONTINUOUS
 62
   249
 10
366.188843
 20
207.913708
 30
0.0
 11
367.08952
 21
206.789959
 31
0.0
  0
LINE
  8
0
  6
CONTINUOUS
 62
   249
 10
363.743436
 20
204.547943
 30
0.0
 11
366.619546
 21
207.376501
 31
0.0
  0
LINE
  8
0
  6
CONTINUOUS
 62
   249
 10
361.359291
 20
205.715545
 30
0.0
 11
369.147496
 21
205.715545
 31
0.0
  0
LINE
  8
0
  6
CONTINUOUS
 62
   249
 10
361.32826
 20
206.560824
 30
0.0
 11
361.32826
 21
204.772692
 31
0.0
  0
LINE
  8
0
  6
CONTINUOUS
 62
   249
 10
361.221603
 20
201.935947
 30
0.0
 11
368.765189
 21
201.935947
 31
0.0
  0
TEXT
  8
0
  6
DASHED
 62
   249
 10
351.620768
 20
193.206917
 30
0.0
 40
2.0
  1
FEEDER TERMINAL
  7
ROMANS
  0
TEXT
  8
0
  6
DASHED
 62
   249
 10
351.620768
 20
189.873584
 30
0.0
 40
2.0
  1
LEDNINGSTERMINAL
  7
ROMANS
  0
TEXT
  8
0
  6
DASHED
 62
   249
 10
360.070236
 20
69.577194
 30
0.0
 40
2.0
  1
25-27
  7
ROMANS
  0
TEXT
  8
0
  6
DASHED
 62
   249
 10
375.514557
 20
69.577194
 30
0.0
 40
2.0
  1
25-26
  7
ROMANS
  0
TEXT
  8
0
  6
CONTINUOUS
 62
   249
 10
52.713192
 20
26.887285
 30
0.0
 40
2.014518
  1
f
  7
GREEKC
  0
TEXT
  8
0
  6
DASHED
 62
   249
 10
19.98632
 20
36.221695
 30
0.0
 40
2.0
  1
2) OPERATING CHARACTERISTICS
  7
ROMANS
  0
TEXT
  8
0
  6
DASHED
 62
   249
 10
21.313679
 20
32.888361
 30
0.0
 40
2.0
  1
  SIN  OR COS  /
  7
ROMANS
  0
TEXT
  8
0
  6
DASHED
 62
   249
 10
21.313679
 20
29.555028
 30
0.0
 40
2.0
  1
  FUNKTIONSKARAKTERISTIKEN
  7
ROMANS
  0
TEXT
  8
0
  6
DASHED
 62
   249
 10
21.313679
 20
26.221695
 30
0.0
 40
2.0
  1
  SIN  ELLER COS
  7
ROMANS
  0
TEXT
  8
0
  6
CONTINUOUS
 62
   249
 10
30.676688
 20
26.887285
 30
0.0
 40
2.014518
  1
f
  7
GREEKC
  0
TEXT
  8
0
  6
CONTINUOUS
 62
   249
 10
30.676688
 20
33.574201
 30
0.0
 40
2.014518
  1
f
  7
GREEKC
  0
TEXT
  8
0
  6
CONTINUOUS
 62
   249
 10
46.675472
 20
33.574201
 30
0.0
 40
2.014518
  1
f
  7
GREEKC
  0
TEXT
  8
0
  6
DASHED
 62
   249
 10
19.996249
 20
21.479261
 30
0.0
 40
2.0
  1
3) BLOCKING INPUT /
  7
ROMANS
  0
TEXT
  8
0
  6
DASHED
 62
   249
 10
21.323608
 20
18.145927
 30
0.0
 40
2.0
  1
  BLOCKERING IN
  7
ROMANS
  0
TEXT
  8
0
  6
DASHED
 62
   249
 10
20.043235
 20
13.843157
 30
0.0
 40
2.0
  1
4) TRIP 1 /
  7
ROMANS
  0
TEXT
  8
0
  6
DASHED
 62
   249
 10
21.323608
 20
10.509824
 30
0.0
 40
2.0
  1
  UTLÖSNING 1
  7
ROMANS
  0
TEXT
  8
0
  6
DASHED
 62
   249
 10
80.0
 20
32.5
 30
0.0
 40
2.0
  1
5a) TRIP 2 OR ALARM OUTPUT /
  7
ROMANS
  0
TEXT
  8
0
  6
DASHED
 62
   249
 10
81.339015
 20
29.166667
 30
0.0
 40
2.0
  1
   UTLÖSNING 2 ELLER SIGNALUTGÅNG
  7
ROMANS
  0
TEXT
  8
0
  6
DASHED
 62
   249
 10
80.0
 20
23.333333
 30
0.0
 40
2.0
  1
5b) ALARM OUTPUT /
  7
ROMANS
  0
TEXT
  8
0
  6
DASHED
 62
   249
 10
81.339015
 20
20.0
 30
0.0
 40
2.0
  1
   SIGNALUTGÅNG
  7
ROMANS
  0
TEXT
  8
0
  6
DASHED
 62
   249
 10
80.0
 20
13.809142
 30
0.0
 40
2.0
  1
5c) START, BLOCKING ETC.
  7
ROMANS
  0
TEXT
  8
0
  6
DASHED
 62
   249
 10
81.339015
 20
10.475808
 30
0.0
 40
2.0
  1
   START, BLOCKERING MM.
  7
ROMANS
  0
LINE
  8
0
  6
CONTINUOUS
 62
   249
 10
265.0
 20
145.3468
 30
0.0
 11
265.0
 21
139.66187
 31
0.0
  0
LINE
  8
0
  6
CONTINUOUS
 62
   249
 10
265.0
 20
139.66187
 30
0.0
 11
264.0
 21
138.66187
 31
0.0
  0
LINE
  8
0
  6
CONTINUOUS
 62
   249
 10
265.0
 20
145.3468
 30
0.0
 11
264.0
 21
146.3468
 31
0.0
  0
LINE
  8
0
  6
CONTINUOUS
 62
   249
 10
265.0
 20
165.3468
 30
0.0
 11
264.0
 21
166.3468
 31
0.0
  0
LINE
  8
0
  6
CONTINUOUS
 62
   249
 10
265.0
 20
159.66187
 30
0.0
 11
264.0
 21
158.66187
 31
0.0
  0
LINE
  8
0
  6
CONTINUOUS
 62
   249
 10
265.0
 20
165.3468
 30
0.0
 11
265.0
 21
159.66187
 31
0.0
  0
LINE
  8
0
  6
CONTINUOUS
 62
   249
 10
265.0
 20
192.8468
 30
0.0
 11
265.0
 21
187.16187
 31
0.0
  0
LINE
  8
0
  6
CONTINUOUS
 62
   249
 10
265.0
 20
187.16187
 30
0.0
 11
264.0
 21
186.16187
 31
0.0
  0
LINE
  8
0
  6
CONTINUOUS
 62
   249
 10
265.0
 20
192.8468
 30
0.0
 11
264.0
 21
193.8468
 31
0.0
  0
LINE
  8
0
  6
CONTINUOUS
 62
   249
 10
265.0
 20
212.8468
 30
0.0
 11
265.0
 21
207.16187
 31
0.0
  0
LINE
  8
0
  6
CONTINUOUS
 62
   249
 10
265.0
 20
207.16187
 30
0.0
 11
264.0
 21
206.16187
 31
0.0
  0
LINE
  8
0
  6
CONTINUOUS
 62
   249
 10
265.0
 20
212.8468
 30
0.0
 11
264.0
 21
213.8468
 31
0.0
  0
LINE
  8
0
  6
DASHED
 62
   249
 10
295.0
 20
147.5
 30
0.0
 11
295.0
 21
137.5
 31
0.0
  0
LINE
  8
0
  6
DASHED
 62
   249
 10
317.5
 20
135.0
 30
0.0
 11
317.5
 21
225.0
 31
0.0
  0
LINE
  8
0
  6
DASHED
 62
   249
 10
325.0
 20
145.0
 30
0.0
 11
325.0
 21
212.5
 31
0.0
  0
LINE
  8
0
  6
DASHED
 62
   249
 10
265.0
 20
145.0
 30
0.0
 11
325.0
 21
145.0
 31
0.0
  0
LINE
  8
0
  6
CONTINUOUS
 62
   249
 10
322.5
 20
225.0
 30
0.0
 11
317.5
 21
232.5
 31
0.0
  0
LINE
  8
0
  6
CONTINUOUS
 62
   249
 10
325.0
 20
225.0
 30
0.0
 11
322.5
 21
225.0
 31
0.0
  0
LINE
  8
0
  6
CONTINUOUS
 62
   249
 10
316.506031
 20
230.098556
 30
0.0
 11
317.478167
 21
230.098556
 31
0.0
  0
LINE
  8
0
  6
CONTINUOUS
 62
   249
 10
316.496128
 20
232.499996
 30
0.0
 11
317.473936
 21
232.499996
 31
0.0
  0
LINE
  8
0
  6
CONTINUOUS
 62
   249
 10
316.500897
 20
227.68998
 30
0.0
 11
317.5
 21
227.68998
 31
0.0
  0
ARC
  8
0
  6
CONTINUOUS
 62
   249
 10
315.864862
 20
228.894238
 30
0.0
 40
1.204309
 50
90.0
 51
270.0
  0
LINE
  8
0
  6
CONTINUOUS
 62
   249
 10
315.859898
 20
227.689937
 30
0.0
 11
316.509496
 21
227.689937
 31
0.0
  0
LINE
  8
0
  6
CONTINUOUS
 62
   249
 10
315.858762
 20
232.499993
 30
0.0
 11
316.502261
 21
232.499993
 31
0.0
  0
LINE
  8
0
  6
CONTINUOUS
 62
   249
 10
315.858762
 20
230.098547
 30
0.0
 11
316.50836
 21
230.098547
 31
0.0
  0
ARC
  8
0
  6
CONTINUOUS
 62
   249
 10
315.864862
 20
231.296095
 30
0.0
 40
1.204309
 50
90.0
 51
265.706237
  0
LINE
  8
0
  6
CONTINUOUS
 62
   249
 10
324.006031
 20
230.098556
 30
0.0
 11
324.978167
 21
230.098556
 31
0.0
  0
LINE
  8
0
  6
CONTINUOUS
 62
   249
 10
323.996128
 20
232.499996
 30
0.0
 11
324.973936
 21
232.499996
 31
0.0
  0
LINE
  8
0
  6
CONTINUOUS
 62
   249
 10
324.000897
 20
227.68998
 30
0.0
 11
325.0
 21
227.68998
 31
0.0
  0
ARC
  8
0
  6
CONTINUOUS
 62
   249
 10
323.364862
 20
228.894238
 30
0.0
 40
1.204309
 50
90.0
 51
270.0
  0
LINE
  8
0
  6
CONTINUOUS
 62
   249
 10
323.359898
 20
227.689937
 30
0.0
 11
324.009496
 21
227.689937
 31
0.0
  0
LINE
  8
0
  6
CONTINUOUS
 62
   249
 10
323.358762
 20
232.499993
 30
0.0
 11
324.002261
 21
232.499993
 31
0.0
  0
LINE
  8
0
  6
CONTINUOUS
 62
   249
 10
323.358762
 20
230.098547
 30
0.0
 11
324.00836
 21
230.098547
 31
0.0
  0
ARC
  8
0
  6
CONTINUOUS
 62
   249
 10
323.364862
 20
231.296095
 30
0.0
 40
1.204309
 50
90.0
 51
265.706237
  0
LINE
  8
0
  6
CONTINUOUS
 62
   249
 10
325.0
 20
227.68998
 30
0.0
 11
325.0
 21
225.0
 31
0.0
  0
LINE
  8
0
  6
CONTINUOUS
 62
   249
 10
317.5
 20
227.68998
 30
0.0
 11
317.5
 21
225.0
 31
0.0
  0
LINE
  8
0
  6
DASHED
 62
   249
 10
325.0
 20
242.5
 30
0.0
 11
325.0
 21
252.5
 31
0.0
  0
LINE
  8
0
  6
DASHED
 62
   249
 10
317.5
 20
242.5
 30
0.0
 11
317.5
 21
257.5
 31
0.0
  0
LINE
  8
0
  6
DASHED
 62
   249
 10
300.0
 20
192.5
 30
0.0
 11
265.0
 21
192.5
 31
0.0
  0
LINE
  8
0
  6
DASHED
 62
   249
 10
290.0
 20
212.5
 30
0.0
 11
265.0
 21
212.5
 31
0.0
  0
LINE
  8
0
  6
DASHED
 62
   249
 10
292.5
 20
155.0
 30
0.0
 11
295.0
 21
155.0
 31
0.0
  0
LINE
  8
0
  6
DASHED
 62
   249
 10
295.0
 20
155.0
 30
0.0
 11
295.0
 21
155.0
 31
0.0
  0
LINE
  8
0
  6
DASHED
 62
   249
 10
282.5
 20
159.810016
 30
0.0
 11
295.0
 21
159.810016
 31
0.0
  0
LINE
  8
0
  6
CONTINUOUS
 62
   249
 10
292.5
 20
157.40144
 30
0.0
 11
295.0
 21
157.40144
 31
0.0
  0
LINE
  8
0
  6
DASHED
 62
   249
 10
282.5
 20
150.0
 30
0.0
 11
282.5
 21
155.0
 31
0.0
  0
LINE
  8
0
  6
DASHED
 62
   249
 10
292.5
 20
172.5
 30
0.0
 11
292.5
 21
150.0
 31
0.0
  0
LINE
  8
0
  6
CONTINUOUS
 62
   249
 10
295.0
 20
167.5
 30
0.0
 11
295.0
 21
147.5
 31
0.0
  0
LINE
  8
0
  6
CONTINUOUS
 62
   249
 10
295.0
 20
167.5
 30
0.0
 11
297.5
 21
172.5
 31
0.0
  0
LINE
  8
0
  6
CONTINUOUS
 62
   249
 10
292.5
 20
172.5
 30
0.0
 11
295.0
 21
167.5
 31
0.0
  0
LINE
  8
0
  6
CONTINUOUS
 62
   249
 10
290.0
 20
172.5
 30
0.0
 11
300.0
 21
172.5
 31
0.0
  0
LINE
  8
0
  6
DASHED
 62
   249
 10
285.0
 20
207.689992
 30
0.0
 11
285.0
 21
180.0
 31
0.0
  0
LINE
  8
0
  6
DASHED
 62
   249
 10
282.5
 20
165.0
 30
0.0
 11
282.5
 21
159.810016
 31
0.0
  0
LINE
  8
0
  6
DASHED
 62
   249
 10
265.0
 20
165.0
 30
0.0
 11
282.5
 21
165.0
 31
0.0
  0
LINE
  8
0
  6
DASHED
 62
   249
 10
270.0
 20
202.5
 30
0.0
 11
270.0
 21
182.5
 31
0.0
  0
LINE
  8
0
  6
DASHED
 62
   249
 10
300.006921
 20
187.689984
 30
0.0
 11
285.0
 21
187.689984
 31
0.0
  0
LINE
  8
0
  6
DASHED
 62
   249
 10
290.0
 20
197.5
 30
0.0
 11
290.0
 21
172.5
 31
0.0
  0
LINE
  8
0
  6
DASHED
 62
   249
 10
295.0
 20
197.5
 30
0.0
 11
295.0
 21
172.5
 31
0.0
  0
LINE
  8
0
  6
DASHED
 62
   249
 10
300.0
 20
197.5
 30
0.0
 11
300.0
 21
172.5
 31
0.0
  0
LINE
  8
0
  6
DASHED
 62
   249
 10
290.0
 20
230.0
 30
0.0
 11
290.0
 21
197.5
 31
0.0
  0
LINE
  8
0
  6
DASHED
 62
   249
 10
290.0
 20
237.5
 30
0.0
 11
290.0
 21
250.0
 31
0.0
  0
LINE
  8
0
  6
DASHED
 62
   249
 10
295.0
 20
252.5
 30
0.0
 11
295.0
 21
237.5
 31
0.0
  0
LINE
  8
0
  6
DASHED
 62
   249
 10
295.0
 20
230.0
 30
0.0
 11
295.0
 21
197.5
 31
0.0
  0
LINE
  8
0
  6
DASHED
 62
   249
 10
300.0
 20
230.0
 30
0.0
 11
300.0
 21
197.5
 31
0.0
  0
LINE
  8
0
  6
DASHED
 62
   249
 10
295.0
 20
250.0
 30
0.0
 11
295.0
 21
252.5
 31
0.0
  0
LINE
  8
0
  6
DASHED
 62
   249
 10
290.0
 20
250.0
 30
0.0
 11
290.0
 21
257.5
 31
0.0
  0
LINE
  8
0
  6
CONTINUOUS
 62
   249
 10
290.0
 20
230.0
 30
0.0
 11
287.5
 21
237.5
 31
0.0
  0
LINE
  8
0
  6
CONTINUOUS
 62
   249
 10
295.0
 20
230.0
 30
0.0
 11
292.5
 21
237.5
 31
0.0
  0
LINE
  8
0
  6
CONTINUOUS
 62
   249
 10
300.0
 20
230.0
 30
0.0
 11
297.5
 21
237.5
 31
0.0
  0
LINE
  8
0
  6
CONTINUOUS
 62
   249
 10
290.0
 20
237.5
 30
0.0
 11
289.5
 21
238.0
 31
0.0
  0
LINE
  8
0
  6
CONTINUOUS
 62
   249
 10
290.0
 20
237.5
 30
0.0
 11
290.5
 21
237.0
 31
0.0
  0
LINE
  8
0
  6
CONTINUOUS
 62
   249
 10
290.0
 20
237.5
 30
0.0
 11
290.5
 21
238.0
 31
0.0
  0
LINE
  8
0
  6
CONTINUOUS
 62
   249
 10
290.0
 20
237.5
 30
0.0
 11
289.5
 21
237.0
 31
0.0
  0
LINE
  8
0
  6
CONTINUOUS
 62
   249
 10
295.0
 20
237.5
 30
0.0
 11
295.5
 21
238.0
 31
0.0
  0
LINE
  8
0
  6
CONTINUOUS
 62
   249
 10
295.0
 20
237.5
 30
0.0
 11
295.5
 21
237.0
 31
0.0
  0
LINE
  8
0
  6
CONTINUOUS
 62
   249
 10
295.0
 20
237.5
 30
0.0
 11
294.5
 21
237.0
 31
0.0
  0
LINE
  8
0
  6
CONTINUOUS
 62
   249
 10
295.0
 20
237.5
 30
0.0
 11
294.5
 21
238.0
 31
0.0
  0
LINE
  8
0
  6
CONTINUOUS
 62
   249
 10
300.0
 20
237.5
 30
0.0
 11
300.5
 21
237.0
 31
0.0
  0
LINE
  8
0
  6
CONTINUOUS
 62
   249
 10
300.0
 20
237.5
 30
0.0
 11
300.5
 21
238.0
 31
0.0
  0
LINE
  8
0
  6
CONTINUOUS
 62
   249
 10
300.0
 20
237.5
 30
0.0
 11
299.5
 21
238.0
 31
0.0
  0
LINE
  8
0
  6
CONTINUOUS
 62
   249
 10
300.0
 20
237.5
 30
0.0
 11
299.5
 21
237.0
 31
0.0
  0
LINE
  8
0
  6
DASHED
 62
   249
 10
290.0
 20
207.689992
 30
0.0
 11
285.0
 21
207.689992
 31
0.0
  0
LINE
  8
0
  6
DASHED
 62
   249
 10
260.0
 20
135.0
 30
0.0
 11
317.5
 21
135.0
 31
0.0
  0
LINE
  8
0
  6
CONTINUOUS
 62
   249
 10
260.0
 20
140.0
 30
0.0
 11
262.5
 21
140.0
 31
0.0
  0
LINE
  8
0
  6
CONTINUOUS
 62
   249
 10
260.0
 20
145.0
 30
0.0
 11
262.5
 21
145.0
 31
0.0
  0
LINE
  8
0
  6
DASHED
 62
   249
 10
260.0
 20
155.0
 30
0.0
 11
292.5
 21
155.0
 31
0.0
  0
LINE
  8
0
  6
CONTINUOUS
 62
   249
 10
260.0
 20
160.0
 30
0.0
 11
262.5
 21
160.0
 31
0.0
  0
LINE
  8
0
  6
CONTINUOUS
 62
   249
 10
260.0
 20
165.0
 30
0.0
 11
262.5
 21
165.0
 31
0.0
  0
LINE
  8
0
  6
DASHED
 62
   249
 10
260.0
 20
182.5
 30
0.0
 11
285.0
 21
182.5
 31
0.0
  0
LINE
  8
0
  6
CONTINUOUS
 62
   249
 10
260.0
 20
187.5
 30
0.0
 11
262.5
 21
187.5
 31
0.0
  0
LINE
  8
0
  6
CONTINUOUS
 62
   249
 10
260.0
 20
192.5
 30
0.0
 11
262.5
 21
192.5
 31
0.0
  0
LINE
  8
0
  6
DASHED
 62
   249
 10
260.0
 20
202.5
 30
0.0
 11
270.0
 21
202.5
 31
0.0
  0
LINE
  8
0
  6
CONTINUOUS
 62
   249
 10
260.0
 20
207.5
 30
0.0
 11
262.5
 21
207.5
 31
0.0
  0
LINE
  8
0
  6
CONTINUOUS
 62
   249
 10
260.0
 20
212.5
 30
0.0
 11
262.5
 21
212.5
 31
0.0
  0
LINE
  8
0
  6
DASHED
 62
   249
 10
342.5
 20
212.5
 30
0.0
 11
342.5
 21
232.5
 31
0.0
  0
LINE
  8
0
  6
DASHED
 62
   249
 10
325.0
 20
212.5
 30
0.0
 11
342.5
 21
212.5
 31
0.0
  0
LINE
  8
0
  6
DASHED
 62
   249
 10
337.5
 20
237.68998
 30
0.0
 11
346.663362
 21
237.68998
 31
0.0
  0
LINE
  8
0
  6
DASHED
 62
   249
 10
337.5
 20
232.5
 30
0.0
 11
346.84682
 21
232.5
 31
0.0
  0
LINE
  8
0
  6
CONTINUOUS
 62
   249
 10
332.5
 20
232.5
 30
0.0
 11
337.5
 21
232.5
 31
0.0
  0
LINE
  8
0
  6
CONTINUOUS
 62
   249
 10
330.0
 20
225.0
 30
0.0
 11
325.0
 21
232.5
 31
0.0
  0
LINE
  8
0
  6
CONTINUOUS
 62
   249
 10
332.5
 20
225.0
 30
0.0
 11
330.0
 21
225.0
 31
0.0
  0
LINE
  8
0
  6
CONTINUOUS
 62
   249
 10
331.506031
 20
230.098556
 30
0.0
 11
332.478167
 21
230.098556
 31
0.0
  0
LINE
  8
0
  6
CONTINUOUS
 62
   249
 10
331.496128
 20
232.499996
 30
0.0
 11
332.473936
 21
232.499996
 31
0.0
  0
LINE
  8
0
  6
CONTINUOUS
 62
   249
 10
331.500897
 20
227.68998
 30
0.0
 11
332.5
 21
227.68998
 31
0.0
  0
ARC
  8
0
  6
CONTINUOUS
 62
   249
 10
330.864862
 20
228.894238
 30
0.0
 40
1.204309
 50
90.0
 51
270.0
  0
LINE
  8
0
  6
CONTINUOUS
 62
   249
 10
330.859898
 20
227.689937
 30
0.0
 11
331.509496
 21
227.689937
 31
0.0
  0
LINE
  8
0
  6
CONTINUOUS
 62
   249
 10
330.858762
 20
232.499993
 30
0.0
 11
331.502261
 21
232.499993
 31
0.0
  0
LINE
  8
0
  6
CONTINUOUS
 62
   249
 10
330.858762
 20
230.098547
 30
0.0
 11
331.50836
 21
230.098547
 31
0.0
  0
ARC
  8
0
  6
CONTINUOUS
 62
   249
 10
330.864862
 20
231.296095
 30
0.0
 40
1.204309
 50
90.0
 51
265.706237
  0
LINE
  8
0
  6
CONTINUOUS
 62
   249
 10
332.5
 20
227.68998
 30
0.0
 11
332.5
 21
225.0
 31
0.0
  0
LINE
  8
0
  6
CONTINUOUS
 62
   249
 10
317.5
 20
237.68998
 30
0.0
 11
337.5
 21
237.68998
 31
0.0
  0
LINE
  8
0
  6
DASHED
 62
   249
 10
332.5
 20
242.5
 30
0.0
 11
332.5
 21
247.5
 31
0.0
  0
LINE
  8
0
  6
DASHED
 62
   249
 10
337.5
 20
247.5
 30
0.0
 11
282.5
 21
247.5
 31
0.0
  0
LINE
  8
0
  6
DASHED
 62
   249
 10
337.5
 20
252.5
 30
0.0
 11
282.5
 21
252.5
 31
0.0
  0
LINE
  8
0
  6
DASHED
 62
   249
 10
337.5
 20
257.5
 30
0.0
 11
282.5
 21
257.5
 31
0.0
  0
LINE
  8
0
  6
DASHED
 62
   249
 10
355.0
 20
137.5
 30
0.0
 11
355.0
 21
142.5
 31
0.0
  0
LINE
  8
0
  6
CONTINUOUS
 62
   249
 10
340.0
 20
132.68998
 30
0.0
 11
361.617732
 21
132.68998
 31
0.0
  0
LINE
  8
0
  6
CONTINUOUS
 62
   249
 10
355.0
 20
122.68998
 30
0.0
 11
355.0
 21
120.0
 31
0.0
  0
ARC
  8
0
  6
CONTINUOUS
 62
   249
 10
353.364862
 20
126.296095
 30
0.0
 40
1.204309
 50
90.0
 51
265.706237
  0
LINE
  8
0
  6
CONTINUOUS
 62
   249
 10
353.358762
 20
125.098547
 30
0.0
 11
354.00836
 21
125.098547
 31
0.0
  0
LINE
  8
0
  6
CONTINUOUS
 62
   249
 10
353.358762
 20
127.499993
 30
0.0
 11
354.002261
 21
127.499993
 31
0.0
  0
LINE
  8
0
  6
CONTINUOUS
 62
   249
 10
353.359898
 20
122.689937
 30
0.0
 11
354.009496
 21
122.689937
 31
0.0
  0
ARC
  8
0
  6
CONTINUOUS
 62
   249
 10
353.364862
 20
123.894238
 30
0.0
 40
1.204309
 50
90.0
 51
270.0
  0
LINE
  8
0
  6
CONTINUOUS
 62
   249
 10
354.000897
 20
122.68998
 30
0.0
 11
355.0
 21
122.68998
 31
0.0
  0
LINE
  8
0
  6
CONTINUOUS
 62
   249
 10
353.996128
 20
127.499996
 30
0.0
 11
354.973936
 21
127.499996
 31
0.0
  0
LINE
  8
0
  6
CONTINUOUS
 62
   249
 10
354.006031
 20
125.098556
 30
0.0
 11
354.978167
 21
125.098556
 31
0.0
  0
LINE
  8
0
  6
CONTINUOUS
 62
   249
 10
355.0
 20
127.5
 30
0.0
 11
361.617732
 21
127.5
 31
0.0
  0
LINE
  8
0
  6
DASHED
 62
   249
 10
340.0
 20
137.5
 30
0.0
 11
340.0
 21
152.5
 31
0.0
  0
LINE
  8
0
  6
DASHED
 62
   249
 10
347.5
 20
137.5
 30
0.0
 11
347.5
 21
147.5
 31
0.0
  0
LINE
  8
0
  6
CONTINUOUS
 62
   249
 10
340.0
 20
122.68998
 30
0.0
 11
340.0
 21
120.0
 31
0.0
  0
LINE
  8
0
  6
CONTINUOUS
 62
   249
 10
347.5
 20
122.68998
 30
0.0
 11
347.5
 21
120.0
 31
0.0
  0
ARC
  8
0
  6
CONTINUOUS
 62
   249
 10
345.864862
 20
126.296095
 30
0.0
 40
1.204309
 50
90.0
 51
265.706237
  0
LINE
  8
0
  6
CONTINUOUS
 62
   249
 10
345.858762
 20
125.098547
 30
0.0
 11
346.50836
 21
125.098547
 31
0.0
  0
LINE
  8
0
  6
CONTINUOUS
 62
   249
 10
345.858762
 20
127.499993
 30
0.0
 11
346.502261
 21
127.499993
 31
0.0
  0
LINE
  8
0
  6
CONTINUOUS
 62
   249
 10
345.859898
 20
122.689937
 30
0.0
 11
346.509496
 21
122.689937
 31
0.0
  0
ARC
  8
0
  6
CONTINUOUS
 62
   249
 10
345.864862
 20
123.894238
 30
0.0
 40
1.204309
 50
90.0
 51
270.0
  0
LINE
  8
0
  6
CONTINUOUS
 62
   249
 10
346.500897
 20
122.68998
 30
0.0
 11
347.5
 21
122.68998
 31
0.0
  0
LINE
  8
0
  6
CONTINUOUS
 62
   249
 10
346.496128
 20
127.499996
 30
0.0
 11
347.473936
 21
127.499996
 31
0.0
  0
LINE
  8
0
  6
CONTINUOUS
 62
   249
 10
346.506031
 20
125.098556
 30
0.0
 11
347.478167
 21
125.098556
 31
0.0
  0
ARC
  8
0
  6
CONTINUOUS
 62
   249
 10
338.364862
 20
126.296095
 30
0.0
 40
1.204309
 50
90.0
 51
265.706237
  0
LINE
  8
0
  6
CONTINUOUS
 62
   249
 10
338.358762
 20
125.098547
 30
0.0
 11
339.00836
 21
125.098547
 31
0.0
  0
LINE
  8
0
  6
CONTINUOUS
 62
   249
 10
338.358762
 20
127.499993
 30
0.0
 11
339.002261
 21
127.499993
 31
0.0
  0
LINE
  8
0
  6
CONTINUOUS
 62
   249
 10
338.359898
 20
122.689937
 30
0.0
 11
339.009496
 21
122.689937
 31
0.0
  0
ARC
  8
0
  6
CONTINUOUS
 62
   249
 10
338.364862
 20
123.894238
 30
0.0
 40
1.204309
 50
90.0
 51
270.0
  0
LINE
  8
0
  6
CONTINUOUS
 62
   249
 10
339.000897
 20
122.68998
 30
0.0
 11
340.0
 21
122.68998
 31
0.0
  0
LINE
  8
0
  6
CONTINUOUS
 62
   249
 10
338.996128
 20
127.499996
 30
0.0
 11
355.0
 21
127.499996
 31
0.0
  0
LINE
  8
0
  6
CONTINUOUS
 62
   249
 10
339.006031
 20
125.098556
 30
0.0
 11
339.978167
 21
125.098556
 31
0.0
  0
LINE
  8
0
  6
DASHED
 62
   249
 10
337.5
 20
142.5
 30
0.0
 11
370.0
 21
142.5
 31
0.0
  0
LINE
  8
0
  6
DASHED
 62
   249
 10
337.5
 20
147.5
 30
0.0
 11
370.0
 21
147.5
 31
0.0
  0
LINE
  8
0
  6
DASHED
 62
   249
 10
337.5
 20
152.5
 30
0.0
 11
370.0
 21
152.5
 31
0.0
  0
TEXT
  8
0
  6
DASHED
 62
   249
 10
372.5
 20
151.475105
 30
0.0
 40
2.0
  1
L1 (R)
  7
ROMANS
  0
TEXT
  8
0
  6
DASHED
 62
   249
 10
372.5
 20
146.422594
 30
0.0
 40
2.0
  1
L2 (S)
  7
ROMANS
  0
TEXT
  8
0
  6
DASHED
 62
   249
 10
372.5
 20
141.480287
 30
0.0
 40
2.0
  1
L3 (T)
  7
ROMANS
  0
TEXT
  8
0
  6
DASHED
 62
   249
 10
277.5
 20
256.486126
 30
0.0
 40
2.0
  1
L1
  7
ROMANS
  0
TEXT
  8
0
  6
DASHED
 62
   249
 10
277.5
 20
251.543818
 30
0.0
 40
2.0
  1
L2
  7
ROMANS
  0
TEXT
  8
0
  6
DASHED
 62
   249
 10
277.5
 20
246.491307
 30
0.0
 40
2.0
  1
L3
  7
ROMANS
  0
LINE
  8
0
  6
CONTINUOUS
 62
   249
 10
265.0
 20
109.66187
 30
0.0
 11
264.0
 21
108.66187
 31
0.0
  0
LINE
  8
0
  6
CONTINUOUS
 62
   249
 10
265.0
 20
115.3468
 30
0.0
 11
265.0
 21
109.66187
 31
0.0
  0
LINE
  8
0
  6
CONTINUOUS
 62
   249
 10
265.0
 20
115.3468
 30
0.0
 11
264.0
 21
116.3468
 31
0.0
  0
LINE
  8
0
  6
CONTINUOUS
 62
   249
 10
260.0
 20
115.0
 30
0.0
 11
262.5
 21
115.0
 31
0.0
  0
LINE
  8
0
  6
CONTINUOUS
 62
   249
 10
260.0
 20
110.0
 30
0.0
 11
262.5
 21
110.0
 31
0.0
  0
LINE
  8
0
  6
CONTINUOUS
 62
   249
 10
260.0
 20
90.0
 30
0.0
 11
262.5
 21
90.0
 31
0.0
  0
LINE
  8
0
  6
CONTINUOUS
 62
   249
 10
260.0
 20
95.0
 30
0.0
 11
262.5
 21
95.0
 31
0.0
  0
LINE
  8
0
  6
CONTINUOUS
 62
   249
 10
265.0
 20
95.3468
 30
0.0
 11
264.0
 21
96.3468
 31
0.0
  0
LINE
  8
0
  6
CONTINUOUS
 62
   249
 10
265.0
 20
95.3468
 30
0.0
 11
265.0
 21
89.66187
 31
0.0
  0
LINE
  8
0
  6
CONTINUOUS
 62
   249
 10
265.0
 20
89.66187
 30
0.0
 11
264.0
 21
88.66187
 31
0.0
  0
LINE
  8
0
  6
DASHED
 62
   249
 10
355.0
 20
120.0
 30
0.0
 11
355.0
 21
110.0
 31
0.0
  0
LINE
  8
0
  6
DASHED
 62
   249
 10
355.0
 20
110.0
 30
0.0
 11
295.0
 21
110.0
 31
0.0
  0
LINE
  8
0
  6
DASHED
 62
   249
 10
295.0
 20
110.0
 30
0.0
 11
295.0
 21
85.0
 31
0.0
  0
LINE
  8
0
  6
DASHED
 62
   249
 10
347.5
 20
120.0
 30
0.0
 11
347.5
 21
115.0
 31
0.0
  0
LINE
  8
0
  6
DASHED
 62
   249
 10
347.5
 20
115.0
 30
0.0
 11
290.0
 21
115.0
 31
0.0
  0
LINE
  8
0
  6
DASHED
 62
   249
 10
290.0
 20
115.0
 30
0.0
 11
290.0
 21
95.0
 31
0.0
  0
LINE
  8
0
  6
DASHED
 62
   249
 10
295.0
 20
85.0
 30
0.0
 11
260.0
 21
85.0
 31
0.0
  0
LINE
  8
0
  6
DASHED
 62
   249
 10
340.0
 20
120.0
 30
0.0
 11
285.0
 21
120.0
 31
0.0
  0
LINE
  8
0
  6
DASHED
 62
   249
 10
285.0
 20
120.0
 30
0.0
 11
285.0
 21
115.0
 31
0.0
  0
LINE
  8
0
  6
DASHED
 62
   249
 10
277.5
 20
105.0
 30
0.0
 11
260.0
 21
105.0
 31
0.0
  0
LINE
  8
0
  6
DASHED
 62
   249
 10
265.0
 20
115.0
 30
0.0
 11
285.0
 21
115.0
 31
0.0
  0
LINE
  8
0
  6
DASHED
 62
   249
 10
265.0
 20
95.0
 30
0.0
 11
290.0
 21
95.0
 31
0.0
  0
TEXT
  8
0
  6
DASHED
 62
   249
 10
265.363959
 20
213.294779
 30
0.0
 40
2.0
  1
1)
  7
ROMANS
  0
TEXT
  8
0
  6
DASHED
 62
   249
 10
265.363959
 20
193.294779
 30
0.0
 40
2.0
  1
1)
  7
ROMANS
  0
TEXT
  8
0
  6
DASHED
 62
   249
 10
265.363959
 20
165.794779
 30
0.0
 40
2.0
  1
1)
  7
ROMANS
  0
TEXT
  8
0
  6
DASHED
 62
   249
 10
265.363959
 20
145.794779
 30
0.0
 40
2.0
  1
1)
  7
ROMANS
  0
TEXT
  8
0
  6
DASHED
 62
   249
 10
265.363959
 20
115.794779
 30
0.0
 40
2.0
  1
1)
  7
ROMANS
  0
TEXT
  8
0
  6
DASHED
 62
   249
 10
265.363959
 20
95.794779
 30
0.0
 40
2.0
  1
1)
  7
ROMANS
  0
TEXT
  8
0
  6
DASHED
 62
   249
 10
317.5
 20
27.5
 30
0.0
 40
2.0
  1
TERMINAL DIAGRAM / UTTAGSSCHEMA
  7
ROMANS
  0
TEXT
  8
0
  6
DASHED
 62
   249
 10
370.307098
 20
11.986662
 30
0.0
 40
2.0
  1
1
  7
ROMANS
  0
TEXT
  8
0
  6
CONTINUOUS
 62
   249
 10
65.284588
 20
238.824891
 30
0.0
 40
2.0
  1
RS 10190-AA  SPAC 538 C1 / E239
  7
ROMANS
  0
TEXT
  8
0
  6
CONTINUOUS
 62
   249
 10
202.381462
 20
194.578099
 30
0.0
 40
2.0
  1
I
  7
GREEKS
  0
TEXT
  8
0
  6
CONTINUOUS
 62
   249
 10
203.218347
 20
192.969125
 30
0.0
 40
1.3
  1
L1,L3
  7
GREEKS
  0
LINE
  8
0
  6
CONTINUOUS
 62
   249
 10
208.262126
 20
196.590072
 30
0.0
 11
210.079543
 21
195.555487
 31
0.0
  0
TEXT
  8
0
  6
CONTINUOUS
 62
   249
 10
203.218347
 20
192.969125
 30
0.0
 40
1.3
  1
L1,L3
  7
ROMANS
  0
TEXT
  8
0
  6
CONTINUOUS
 62
   249
 10
200.396803
 20
194.59134
 30
0.0
 40
2.0
  1
2
  7
GREEKS
  0
TEXT
  8
0
  6
CONTINUOUS
 62
   249
 10
202.381462
 20
194.578099
 30
0.0
 40
2.0
  1
I
  7
GREEKS
  0
LINE
  8
0
  6
CONTINUOUS
 62
   249
 10
210.079543
 20
195.555487
 30
0.0
 11
208.262126
 21
194.633579
 31
0.0
  0
TEXT
  8
0
  6
CONTINUOUS
 62
   249
 10
212.560522
 20
28.10378
 30
0.0
 40
2.0
  1
1993-01-29  JR / RITU
  7
ROMANS
  0
TEXT
  8
0
  6
CONTINUOUS
 62
   249
 10
317.5
 20
24.166667
 30
0.0
 40
2.0
  1
SPAC 538 C1 / E239
  7
ROMANS
  0
TEXT
  8
0
  6
CONTINUOUS
 62
   249
 10
322.5
 20
2.5
 30
0.0
 40
2.5
  1
RS 10190-AAB
  7
ROMANS
  0
TEXT
  8
0
  6
CONTINUOUS
 62
   249
 10
380.0
 20
2.5
 30
0.0
 40
2.5
  1
C
  7
ROMANS
  0
LINE
  8
0
  6
CONTINUOUS
 62
   249
 10
210.450615
 20
187.5
 30
0.0
 11
220.0
 21
187.5
 31
0.0
  0
LINE
  8
0
  6
CONTINUOUS
 62
   249
 10
220.0
 20
187.5
 30
0.0
 11
220.0
 21
125.0
 31
0.0
  0
TEXT
  8
0
  6
HIDDEN
 62
   249
 10
255.929881
 20
116.186149
 30
0.0
 40
2.0
  1
X0
  7
ROMANS
  0
LINE
  8
0
  6
HIDDEN
 62
   249
 10
260.0
 20
120.0
 30
0.0
 11
255.0
 21
120.0
 31
0.0
  0
LINE
  8
0
  6
HIDDEN
 62
   249
 10
260.0
 20
130.0
 30
0.0
 11
255.0
 21
130.0
 31
0.0
  0
LINE
  8
0
  6
HIDDEN
 62
   249
 10
255.0
 20
120.0
 30
0.0
 11
255.0
 21
80.0
 31
0.0
  0
TEXT
  8
0
  6
CONTINUOUS
 62
   249
 10
277.5
 20
124.067043
 30
0.0
 40
2.0
  1
6)
  7
ROMANS
  0
TEXT
  8
0
  6
CONTINUOUS
 62
   249
 10
237.180933
 20
121.169424
 30
0.0
 40
2.0
  1
SERIAL PORT
  7
ROMANS
  0
TEXT
  8
0
  6
CONTINUOUS
 62
   249
 10
249.611796
 20
127.212024
 30
0.0
 40
2.0
  1
9
  7
ROMANS
  0
LINE
  8
0
  6
CONTINUOUS
 62
   249
 10
247.995525
 20
123.859579
 30
0.0
 11
250.276367
 21
126.140421
 31
0.0
  0
LINE
  8
0
  6
CONTINUOUS
 62
   249
 10
220.0
 20
125.0
 30
0.0
 11
260.0
 21
125.0
 31
0.0
  0
INSERT
  8
0
  6
CONTINUOUS
 62
   249
  2
BLC29
 10
238.06021
 20
124.871524
 30
0.0
 41
-1.0
 50
180.0
  0
TEXT
  8
0
  6
CONTINUOUS
 62
   249
 10
149.620952
 20
33.137776
 30
0.0
 40
2.0
  1
6) BUS CONNECTION, TTL-LEVEL
  7
ROMANS
  0
TEXT
  8
0
  6
CONTINUOUS
 62
   249
 10
150.938891
 20
29.804443
 30
0.0
 40
2.0
  1
  BUSSANSLUTNING, TTL-NIVÅ
  7
ROMANS
  0
LINE
  8
0
  6
CONTINUOUS
 62
   249
 10
369.166854
 20
210.912135
 30
0.0
 11
366.821088
 21
209.722216
 31
0.0
  0
LINE
  8
0
  6
CONTINUOUS
 62
   249
 10
366.821088
 20
212.247488
 30
0.0
 11
369.166854
 21
210.912135
 31
0.0
  0
LINE
  8
0
  6
CONTINUOUS
 62
   249
 10
368.709814
 20
212.247488
 30
0.0
 11
371.05558
 21
210.912135
 31
0.0
  0
LINE
  8
0
  6
CONTINUOUS
 62
   249
 10
371.05558
 20
210.912135
 30
0.0
 11
368.709814
 21
209.722216
 31
0.0
  0
LINE
  8
0
  6
CONTINUOUS
 62
   249
 10
25.0
 20
132.5
 30
0.0
 11
25.0
 21
127.5
 31
0.0
  0
LINE
  8
0
  6
CONTINUOUS
 62
   249
 10
25.0
 20
127.499655
 30
0.0
 11
26.0
 21
126.499655
 31
0.0
  0
LINE
  8
0
  6
CONTINUOUS
 62
   249
 10
25.0
 20
132.5
 30
0.0
 11
26.0
 21
133.5
 31
0.0
  0
LINE
  8
0
  6
CONTINUOUS
 62
   249
 10
210.450615
 20
149.373018
 30
0.0
 11
220.0
 21
149.373018
 31
0.0
  0
LINE
  8
0
  6
DASHED
 62
   249
 10
300.0
 20
247.5
 30
0.0
 11
300.0
 21
237.5
 31
0.0
  0
LINE
  8
0
  6
HIDDEN
 62
   249
 10
40.0
 20
41.125185
 30
0.0
 11
45.0
 21
41.125185
 31
0.0
  0
TEXT
  8
0
  6
HIDDEN
 62
   249
 10
41.1717
 20
42.513519
 30
0.0
 40
2.0
  1
9
  7
ROMANS
  0
TEXT
  8
0
  6
HIDDEN
 62
   249
 10
40.524712
 20
47.444046
 30
0.0
 40
2.0
  1
10
  7
ROMANS
  0
TEXT
  8
0
  6
HIDDEN
 62
   249
 10
41.1717
 20
52.51777
 30
0.0
 40
2.0
  1
8
  7
ROMANS
  0
TEXT
  8
0
  6
HIDDEN
 62
   249
 10
41.1717
 20
57.448298
 30
0.0
 40
2.0
  1
X1
  7
ROMANS
  0
LINE
  8
0
  6
HIDDEN
 62
   249
 10
45.0
 20
60.773945
 30
0.0
 11
40.0
 21
60.773945
 31
0.0
  0
LINE
  8
0
  6
HIDDEN
 62
   249
 10
45.0
 20
41.125185
 30
0.0
 11
45.0
 21
60.773945
 31
0.0
  0
LINE
  8
0
  6
CONTINUOUS
 62
   249
 10
45.0
 20
55.773945
 30
0.0
 11
40.0
 21
55.773945
 31
0.0
  0
LINE
  8
0
  6
CONTINUOUS
 62
   249
 10
45.0
 20
50.773945
 30
0.0
 11
40.0
 21
50.773945
 31
0.0
  0
LINE
  8
0
  6
CONTINUOUS
 62
   249
 10
45.0
 20
45.773945
 30
0.0
 11
40.0
 21
45.773945
 31
0.0
  0
LINE
  8
0
  6
CONTINUOUS
 62
   249
 10
144.891875
 20
55.897825
 30
0.0
 11
139.147951
 21
52.683121
 31
0.0
  0
LINE
  8
0
  6
CONTINUOUS
 62
   249
 10
139.891875
 20
50.773945
 30
0.0
 11
139.891875
 21
53.397825
 31
0.0
  0
LINE
  8
0
  6
CONTINUOUS
 62
   249
 10
144.891875
 20
55.897825
 30
0.0
 11
147.391875
 21
55.897825
 31
0.0
  0
LINE
  8
0
  6
CONTINUOUS
 62
   249
 10
147.391875
 20
55.897825
 30
0.0
 11
147.391875
 21
45.773945
 31
0.0
  0
LINE
  8
0
  6
CONTINUOUS
 62
   249
 10
45.0
 20
55.773945
 30
0.0
 11
140.0
 21
55.773945
 31
0.0
  0
LINE
  8
0
  6
CONTINUOUS
 62
   249
 10
45.0
 20
50.773945
 30
0.0
 11
139.891875
 21
50.773945
 31
0.0
  0
LINE
  8
0
  6
CONTINUOUS
 62
   249
 10
45.0
 20
45.773945
 30
0.0
 11
147.391875
 21
45.773945
 31
0.0
  0
TEXT
  8
0
  6
CONTINUOUS
 62
   249
 10
139.444754
 20
46.548639
 30
0.0
 40
2.0
  1
IRF
  7
ROMANS
  0
LINE
  8
0
  6
CONTINUOUS
 62
   249
 10
180.0
 20
110.0
 30
0.0
 11
180.0
 21
100.0
 31
0.0
  0
LINE
  8
0
  6
CONTINUOUS
 62
   249
 10
180.0
 20
100.0
 30
0.0
 11
210.450615
 21
100.0
 31
0.0
  0
LINE
  8
0
  6
CONTINUOUS
 62
   249
 10
180.0
 20
105.0
 30
0.0
 11
210.450615
 21
105.0
 31
0.0
  0
TEXT
  8
0
  6
CONTINUOUS
 62
   249
 10
185.667599
 20
105.885569
 30
0.0
 40
2.0
  1
SERIAL I/O
  7
GREEKS
  0
TEXT
  8
0
  6
CONTINUOUS
 62
   249
 10
192.137479
 20
101.703001
 30
0.0
 40
2.0
  1
IRF
  7
GREEKS
  0
LINE
  8
0
  6
CONTINUOUS
 62
   249
 10
180.0
 20
102.5
 30
0.0
 11
142.5
 21
102.5
 31
0.0
  0
LINE
  8
0
  6
CONTINUOUS
 62
   249
 10
210.450615
 20
107.595042
 30
0.0
 11
217.5
 21
107.595042
 31
0.0
  0
LINE
  8
0
  6
CONTINUOUS
 62
   249
 10
217.5
 20
107.595042
 30
0.0
 11
217.5
 21
77.5
 31
0.0
  0
LINE
  8
0
  6
DASHED
 62
   249
 10
142.5
 20
54.559164
 30
0.0
 11
142.5
 21
102.5
 31
0.0
  0
LINE
  8
0
  6
CONTINUOUS
 62
   249
 10
217.5
 20
77.5
 30
0.0
 11
217.5
 21
67.5
 31
0.0
  0
LINE
  8
0
  6
CONTINUOUS
 62
   249
 10
217.5
 20
67.5
 30
0.0
 11
260.0
 21
67.5
 31
0.0
  0
INSERT
  8
0
  6
CONTINUOUS
 62
   249
  2
BLC29
 10
238.06021
 20
67.371524
 30
0.0
 41
-1.0
 50
180.0
  0
LINE
  8
0
  6
CONTINUOUS
 62
   249
 10
247.995525
 20
66.359579
 30
0.0
 11
250.276367
 21
68.640421
 31
0.0
  0
TEXT
  8
0
  6
CONTINUOUS
 62
   249
 10
249.611796
 20
69.712024
 30
0.0
 40
2.0
  1
9
  7
ROMANS
  0
TEXT
  8
0
  6
CONTINUOUS
 62
   249
 10
238.558778
 20
63.079353
 30
0.0
 40
2.0
  1
SERIAL PORT
  7
ROMANS
  0
TEXT
  8
0
  6
CONTINUOUS
 62
   249
 10
277.5
 20
66.567043
 30
0.0
 40
2.0
  1
8)
  7
ROMANS
  0
LINE
  8
0
  6
CONTINUOUS
 62
   249
 10
220.0
 20
67.5
 30
0.0
 11
260.0
 21
67.5
 31
0.0
  0
TEXT
  8
0
  6
CONTINUOUS
 62
   249
 10
149.620952
 20
24.781317
 30
0.0
 40
2.0
  1
7) INTERNAL RELAY FAULT /
  7
ROMANS
  0
TEXT
  8
0
  6
CONTINUOUS
 62
   249
 10
155.084407
 20
21.447984
 30
0.0
 40
2.0
  1
INTERNT RELÄFEL
  7
ROMANS
  0
TEXT
  8
0
  6
CONTINUOUS
 62
   249
 10
149.620952
 20
16.112468
 30
0.0
 40
2.0
  1
8) BUS CONNECTION MODULE /
  7
ROMANS
  0
TEXT
  8
0
  6
CONTINUOUS
 62
   249
 10
155.084407
 20
12.779135
 30
0.0
 40
2.0
  1
BUSSANSLUTNINGSMODUL
  7
ROMANS
  0
TEXT
  8
0
  6
CONTINUOUS
 62
   249
 10
50.794553
 20
1.384066
 30
0.0
 40
2.0
  1
SERIAL I/O AND IRF ADDITION TO UNITS U1,U2,U3  1993-06-22  KM / RITU Power
  7
ROMANS
  0
LINE
  8
0
  6
DASHED
 62
   249
 10
40.0
 20
45.773945
 30
0.0
 11
27.5
 21
45.773945
 31
0.0
  0
TEXT
  8
0
  6
CONTINUOUS
 62
   249
 10
17.993014
 20
46.873196
 30
0.0
 40
2.0
  1
7)
  7
ROMANS
  0
LINE
  8
0
  6
DASHED
 62
   249
 10
40.0
 20
50.773945
 30
0.0
 11
27.5
 21
50.773945
 31
0.0
  0
LINE
  8
0
  6
DASHED
 62
   249
 10
277.5
 20
105.0
 30
0.0
 11
277.5
 21
95.0
 31
0.0
  0
TEXT
  8
0
  6
CONTINUOUS
 62
   249
 10
305.384351
 20
207.284427
 30
0.0
 40
2.0
  1
P/Q
  7
GREEKS
  0
TEXT
  8
0
  6
CONTINUOUS
 62
   249
 10
50.794553
 20
6.581904
 30
0.0
 40
2.0
  1
A CHANGE OF CONNECTION FOR THE VOLTAGE TRANSFORMER 1994-09-20 KM / AD-ELECT.
  7
ROMANS
  0
TEXT
  8
0
  6
DASHED
 62
   249
 10
354.531451
 20
16.135576
 30
0.0
 40
1.4
  1
LEHTI SHEET
  7
STAND
  0
LINE
  8
0
 62
   249
 10
0.577972
 20
0.580166
 30
0.0
 11
0.577972
 21
263.080166
 31
0.0
  0
LINE
  8
0
 62
   249
 10
392.577972
 20
263.080166
 30
0.0
 11
392.577972
 21
0.580166
 31
0.0
  0
LINE
  8
0
 62
   249
 10
0.577972
 20
0.580166
 30
0.0
 11
392.577972
 21
0.580166
 31
0.0
  0
TEXT
  8
0
 62
   249
 10
42.577972
 20
5.929675
 30
0.0
 40
2.5
  1
C
  7
ROMANS
  0
TEXT
  8
0
 62
   249
 10
42.577972
 20
1.537459
 30
0.0
 40
2.5
  1
B
  7
ROMANS
  0
TEXT
  8
0
 62
   249
 10
257.747879
 20
2.08395
 30
0.0
 40
3.0
  1
Power
 41
0.8
  7
ROMANS
  0
TEXT
  8
0
 62
   249
 10
273.577972
 20
7.580166
 30
0.0
 40
1.4
  1
VAST.OSASTO RESP.DEPT.
  7
ROMANS
  0
TEXT
  8
0
 62
   249
 10
210.577972
 20
32.580166
 30
0.0
 40
1.4
  1
TEKI  PREPARED
  7
ROMANS
  0
LINE
  8
0
 62
   249
 10
271.577972
 20
10.080166
 30
0.0
 11
271.577972
 21
0.580166
 31
0.0
  0
LINE
  8
0
 62
   249
 10
257.577972
 20
10.080166
 30
0.0
 11
257.577972
 21
35.580166
 31
0.0
  0
LINE
  8
0
 62
   249
 10
41.077972
 20
5.080166
 30
0.0
 11
209.577972
 21
5.080166
 31
0.0
  0
LINE
  8
0
 62
   249
 10
47.077972
 20
0.580166
 30
0.0
 11
47.077972
 21
9.580166
 31
0.0
  0
LINE
  8
0
 62
   249
 10
47.077972
 20
9.580166
 30
0.0
 11
209.577972
 21
9.580166
 31
0.0
  0
TEXT
  8
0
 62
   249
 10
28.077972
 20
2.813499
 30
0.0
 40
1.4
  1
REVISION
  7
ROMANS
  0
TEXT
  8
0
 62
   249
 10
28.077972
 20
5.080166
 30
0.0
 40
1.4
  1
MUUTOS
  7
ROMANS
  0
LINE
  8
0
 62
   249
 10
282.577972
 20
10.080166
 30
0.0
 11
282.577972
 21
18.580166
 31
0.0
  0
TEXT
  8
0
 62
   249
 10
238.077972
 20
2.080166
 30
0.0
 40
3.0
  1
Strömberg
 41
0.8
  7
ROMANS
  0
TEXT
  8
0
 62
   249
 10
230.077972
 20
2.080166
 30
0.0
 40
3.0
  1
ABB 
 41
0.8
  7
ROMANS
  0
LINE
  8
0
 62
   249
 10
223.477972
 20
2.080166
 30
0.0
 11
223.477972
 21
5.440166
 31
0.0
  0
LINE
  8
0
 62
   249
 10
223.477972
 20
9.080166
 30
0.0
 11
225.437972
 21
9.080166
 31
0.0
  0
LINE
  8
0
 62
   249
 10
225.437972
 20
9.080166
 30
0.0
 11
225.437972
 21
5.720166
 31
0.0
  0
LINE
  8
0
 62
   249
 10
225.437972
 20
5.720166
 30
0.0
 11
223.477972
 21
5.720166
 31
0.0
  0
LINE
  8
0
 62
   249
 10
223.477972
 20
5.440166
 30
0.0
 11
225.437972
 21
5.440166
 31
0.0
  0
LINE
  8
0
 62
   249
 10
225.437972
 20
5.440166
 30
0.0
 11
225.437972
 21
2.080166
 31
0.0
  0
LINE
  8
0
 62
   249
 10
225.437972
 20
2.080166
 30
0.0
 11
223.477972
 21
2.080166
 31
0.0
  0
LINE
  8
0
 62
   249
 10
223.477972
 20
5.720166
 30
0.0
 11
223.477972
 21
9.080166
 31
0.0
  0
ARC
  8
0
 62
   249
 10
226.277972
 20
7.505166
 30
0.0
 40
1.575
 50
298.455859
 51
90.052437
  0
LINE
  8
0
 62
   249
 10
225.717972
 20
9.080166
 30
0.0
 11
226.27653
 21
9.080165
 31
0.0
  0
LINE
  8
0
 62
   249
 10
225.717972
 20
9.080166
 30
0.0
 11
225.717972
 21
5.720166
 31
0.0
  0
LINE
  8
0
 62
   249
 10
225.717972
 20
5.720166
 30
0.0
 11
227.702415
 21
5.720166
 31
0.0
  0
LINE
  8
0
 62
   249
 10
227.957972
 20
5.440166
 30
0.0
 11
225.717972
 21
5.440166
 31
0.0
  0
LINE
  8
0
 62
   249
 10
225.717972
 20
5.440166
 30
0.0
 11
225.717972
 21
2.080166
 31
0.0
  0
ARC
  8
0
 62
   249
 10
226.277972
 20
4.180166
 30
0.0
 40
2.1
 50
269.937724
 51
37.056553
  0
LINE
  8
0
 62
   249
 10
225.717972
 20
2.080166
 30
0.0
 11
226.275689
 21
2.080167
 31
0.0
  0
ARC
  8
0
 62
   249
 10
226.277972
 20
4.180166
 30
0.0
 40
2.1
 50
47.28622
 51
68.787999
  0
INSERT
  8
0
 62
   249
  2
*X13
 10
215.987972
 20
2.080166
 30
0.0
 41
0.7
 42
0.7
 43
0.7
  0
INSERT
  8
0
 62
   249
  2
*X14
 10
215.987972
 20
2.080166
 30
0.0
 41
0.7
 42
0.7
 43
0.7
  0
INSERT
  8
0
 62
   249
  2
*X15
 10
215.987972
 20
2.080166
 30
0.0
 41
0.7
 42
0.7
 43
0.7
  0
INSERT
  8
0
 62
   249
  2
*X16
 10
215.987972
 20
2.080166
 30
0.0
 41
0.7
 42
0.7
 43
0.7
  0
INSERT
  8
0
 62
   249
  2
*X16
 10
210.527972
 20
2.080166
 30
0.0
 41
0.7
 42
0.7
 43
0.7
  0
INSERT
  8
0
 62
   249
  2
*X15
 10
210.527972
 20
2.080166
 30
0.0
 41
0.7
 42
0.7
 43
0.7
  0
INSERT
  8
0
 62
   249
  2
*X14
 10
210.527972
 20
2.080166
 30
0.0
 41
0.7
 42
0.7
 43
0.7
  0
INSERT
  8
0
 62
   249
  2
*X13
 10
210.527972
 20
2.080166
 30
0.0
 41
0.7
 42
0.7
 43
0.7
  0
ARC
  8
0
 62
   249
 10
220.817972
 20
4.180166
 30
0.0
 40
2.1
 50
47.28622
 51
68.787999
  0
LINE
  8
0
 62
   249
 10
220.257972
 20
2.080166
 30
0.0
 11
220.815689
 21
2.080167
 31
0.0
  0
ARC
  8
0
 62
   249
 10
220.817972
 20
4.180166
 30
0.0
 40
2.1
 50
269.937724
 51
37.056553
  0
LINE
  8
0
 62
   249
 10
220.257972
 20
5.440166
 30
0.0
 11
220.257972
 21
2.080166
 31
0.0
  0
LINE
  8
0
 62
   249
 10
222.497972
 20
5.440166
 30
0.0
 11
220.257972
 21
5.440166
 31
0.0
  0
LINE
  8
0
 62
   249
 10
220.257972
 20
5.720166
 30
0.0
 11
222.242415
 21
5.720166
 31
0.0
  0
LINE
  8
0
 62
   249
 10
220.257972
 20
9.080166
 30
0.0
 11
220.257972
 21
5.720166
 31
0.0
  0
LINE
  8
0
 62
   249
 10
220.257972
 20
9.080166
 30
0.0
 11
220.81653
 21
9.080165
 31
0.0
  0
ARC
  8
0
 62
   249
 10
220.817972
 20
7.505166
 30
0.0
 40
1.575
 50
298.455859
 51
90.052437
  0
LINE
  8
0
 62
   249
 10
218.017972
 20
5.720166
 30
0.0
 11
218.017972
 21
9.080166
 31
0.0
  0
LINE
  8
0
 62
   249
 10
219.977972
 20
2.080166
 30
0.0
 11
218.017972
 21
2.080166
 31
0.0
  0
LINE
  8
0
 62
   249
 10
219.977972
 20
5.440166
 30
0.0
 11
219.977972
 21
2.080166
 31
0.0
  0
LINE
  8
0
 62
   249
 10
218.017972
 20
5.440166
 30
0.0
 11
219.977972
 21
5.440166
 31
0.0
  0
LINE
  8
0
 62
   249
 10
219.977972
 20
5.720166
 30
0.0
 11
218.017972
 21
5.720166
 31
0.0
  0
LINE
  8
0
 62
   249
 10
219.977972
 20
9.080166
 30
0.0
 11
219.977972
 21
5.720166
 31
0.0
  0
LINE
  8
0
 62
   249
 10
218.017972
 20
9.080166
 30
0.0
 11
219.977972
 21
9.080166
 31
0.0
  0
LINE
  8
0
 62
   249
 10
218.017972
 20
2.080166
 30
0.0
 11
218.017972
 21
5.440166
 31
0.0
  0
INSERT
  8
0
 62
   249
  2
*X12
 10
210.527972
 20
2.080166
 30
0.0
 41
0.7
 42
0.7
 43
0.7
  0
INSERT
  8
0
 62
   249
  2
*X11
 10
210.527972
 20
2.080166
 30
0.0
 41
0.7
 42
0.7
 43
0.7
  0
INSERT
  8
0
 62
   249
  2
*X10
 10
210.527972
 20
2.080166
 30
0.0
 41
0.7
 42
0.7
 43
0.7
  0
INSERT
  8
0
 62
   249
  2
*X9
 10
210.527972
 20
2.080166
 30
0.0
 41
0.7
 42
0.7
 43
0.7
  0
LINE
  8
0
 62
   249
 10
211.69786
 20
5.422705
 30
0.0
 11
210.527972
 21
2.080166
 31
0.0
  0
LINE
  8
0
 62
   249
 10
213.887972
 20
5.440166
 30
0.0
 11
213.887972
 21
3.480166
 31
0.0
  0
LINE
  8
0
 62
   249
 10
214.167972
 20
5.440166
 30
0.0
 11
214.167972
 21
3.480166
 31
0.0
  0
LINE
  8
0
 62
   249
 10
214.167972
 20
5.440166
 30
0.0
 11
216.351228
 21
5.440166
 31
0.0
  0
LINE
  8
0
 62
   249
 10
214.167972
 20
5.720166
 30
0.0
 11
216.253085
 21
5.720166
 31
0.0
  0
LINE
  8
0
 62
   249
 10
216.352464
 20
5.438761
 30
0.0
 11
217.527972
 21
2.080166
 31
0.0
  0
LINE
  8
0
 62
   249
 10
211.700954
 20
5.440166
 30
0.0
 11
213.887972
 21
5.440166
 31
0.0
  0
LINE
  8
0
 62
   249
 10
211.799912
 20
5.720166
 30
0.0
 11
213.887972
 21
5.720166
 31
0.0
  0
LINE
  8
0
 62
   249
 10
213.887972
 20
9.080166
 30
0.0
 11
212.977972
 21
9.080166
 31
0.0
  0
LINE
  8
0
 62
   249
 10
214.167972
 20
3.480166
 30
0.0
 11
215.287865
 21
3.480166
 31
0.0
  0
LINE
  8
0
 62
   249
 10
214.167972
 20
9.080166
 30
0.0
 11
214.167972
 21
5.720166
 31
0.0
  0
LINE
  8
0
 62
   249
 10
213.887972
 20
9.080166
 30
0.0
 11
213.887972
 21
5.720166
 31
0.0
  0
LINE
  8
0
 62
   249
 10
215.077972
 20
9.080166
 30
0.0
 11
214.167972
 21
9.080166
 31
0.0
  0
LINE
  8
0
 62
   249
 10
215.289069
 20
3.47703
 30
0.0
 11
215.777972
 21
2.080166
 31
0.0
  0
LINE
  8
0
 62
   249
 10
215.077972
 20
9.080166
 30
0.0
 11
216.254325
 21
5.719158
 31
0.0
  0
LINE
  8
0
 62
   249
 10
212.766762
 20
3.476709
 30
0.0
 11
212.277972
 21
2.080166
 31
0.0
  0
LINE
  8
0
 62
   249
 10
212.766758
 20
3.480166
 30
0.0
 11
213.887972
 21
3.480166
 31
0.0
  0
LINE
  8
0
 62
   249
 10
212.977972
 20
9.080166
 30
0.0
 11
211.800444
 21
5.715801
 31
0.0
  0
LINE
  8
0
 62
   249
 10
215.777972
 20
2.080166
 30
0.0
 11
217.527972
 21
2.080166
 31
0.0
  0
LINE
  8
0
 62
   249
 10
210.527972
 20
2.080166
 30
0.0
 11
212.277972
 21
2.080166
 31
0.0
  0
LINE
  8
0
 62
   249
 10
370.077972
 20
10.080166
 30
0.0
 11
370.077972
 21
0.580166
 31
0.0
  0
TEXT
  8
0
 62
   249
 10
371.577972
 20
7.580166
 30
0.0
 40
1.4
  1
PAINOS  REVISION
  7
ROMANS
  0
LINE
  8
0
 62
   249
 10
350.077972
 20
10.080166
 30
0.0
 11
350.077972
 21
18.580166
 31
0.0
  0
TEXT
  8
0
 62
   249
 10
309.577972
 20
7.580166
 30
0.0
 40
1.4
  1
PIIRUSTUS NO  DRAWING NR
  7
ROMANS
  0
TEXT
  8
0
 62
   249
 10
309.577972
 20
16.080166
 30
0.0
 40
1.4
  1
KOODI  CODE
  7
ROMANS
  0
TEXT
  8
0
 62
   249
 10
309.577972
 20
33.080166
 30
0.0
 40
1.4
  1
NIMITYS  NAME
  7
ROMANS
  0
TEXT
  8
0
 62
   249
 10
259.577972
 20
16.080166
 30
0.0
 40
1.4
  1
SUHDE  SCALE
  7
ROMANS
  0
TEXT
  8
0
 62
   249
 10
259.577972
 20
24.080166
 30
0.0
 40
1.4
  1
TOLERANSSIT  TOLERANCES
  7
ROMANS
  0
TEXT
  8
0
 62
   249
 10
259.577972
 20
33.080166
 30
0.0
 40
1.4
  1
LIITTYY  CONCERNING
  7
ROMANS
  0
LINE
  8
0
 62
   249
 10
307.577972
 20
0.580166
 30
0.0
 11
307.577972
 21
35.580166
 31
0.0
  0
TEXT
  8
0
 62
   249
 10
210.320806
 20
16.046833
 30
0.0
 40
1.4
  1
HYVÄKSYI  APPROVED
  7
ROMANS
  0
TEXT
  8
0
 62
   249
 10
210.577972
 20
24.313499
 30
0.0
 40
1.4
  1
TARKASTI  CHECKED
  7
ROMANS
  0
LINE
  8
0
 62
   249
 10
209.577972
 20
35.580166
 30
0.0
 11
392.577972
 21
35.580166
 31
0.0
  0
LINE
  8
0
 62
   249
 10
209.577972
 20
27.080166
 30
0.0
 11
307.577972
 21
27.080166
 31
0.0
  0
LINE
  8
0
 62
   249
 10
209.577972
 20
10.080166
 30
0.0
 11
392.577972
 21
10.080166
 31
0.0
  0
LINE
  8
0
 62
   249
 10
209.577972
 20
18.580166
 30
0.0
 11
392.577972
 21
18.580166
 31
0.0
  0
LINE
  8
0
 62
   249
 10
392.577972
 20
0.580166
 30
0.0
 11
392.577972
 21
35.580166
 31
0.0
  0
LINE
  8
0
 62
   249
 10
209.577972
 20
0.580166
 30
0.0
 11
209.577972
 21
35.580166
 31
0.0
  0
LINE
  8
0
 62
   249
 10
209.577972
 20
0.580166
 30
0.0
 11
392.577972
 21
0.580166
 31
0.0
  0
LINE
  8
0
 62
   249
 10
18.577972
 20
0.580166
 30
0.0
 11
0.577972
 21
0.580166
 31
0.0
  0
LINE
  8
0
 62
   249
 10
0.577972
 20
263.080166
 30
0.0
 11
392.577972
 21
263.080166
 31
0.0
  0
TEXT
  8
0
  6
DASHED
 62
   249
 10
292.558067
 20
12.155526
 30
0.0
 40
3.0
  1
A3
  7
GREEKS
  0
INSERT
  8
0
  6
CONTINUOUS
 62
   249
  2
BLC29
 10
174.494594
 20
102.371524
 30
0.0
 50
180.0
  0
ARC
  8
0
  6
CONTINUOUS
 62
   249
 10
60.0
 20
139.78824
 30
0.0
 40
0.5
 50
180.0
 51
0.0
  0
ARC
  8
0
  6
CONTINUOUS
 62
   249
 10
60.0
 20
139.78824
 30
0.0
 40
0.5
 50
0.0
 51
180.0
  0
TEXT
  8
0
  6
CONTINUOUS
 62
   249
 10
26.844763
 20
206.50558
 30
0.0
 40
2.0
  1
-
  0
TEXT
  8
0
  6
CONTINUOUS
 62
   249
 10
26.853328
 20
211.513635
 30
0.0
 40
2.0
  1
+
  0
ARC
  8
0
  6
CONTINUOUS
 62
   249
 10
47.5
 20
207.5
 30
0.0
 40
0.5
 50
180.0
 51
0.0
  0
ARC
  8
0
  6
CONTINUOUS
 62
   249
 10
47.5
 20
207.5
 30
0.0
 40
0.5
 50
0.0
 51
180.0
  0
TEXT
  8
0
  6
CONTINUOUS
 62
   249
 10
26.844763
 20
229.00558
 30
0.0
 40
2.0
  1
-
  0
TEXT
  8
0
  6
CONTINUOUS
 62
   249
 10
26.853328
 20
219.013635
 30
0.0
 40
2.0
  1
+
  0
TEXT
  8
0
  6
CONTINUOUS
 62
   249
 10
26.853328
 20
234.013635
 30
0.0
 40
2.0
  1
+
  0
ARC
  8
0
  6
CONTINUOUS
 62
   249
 10
85.0
 20
170.0
 30
0.0
 40
0.5
 50
180.0
 51
0.0
  0
ARC
  8
0
  6
CONTINUOUS
 62
   249
 10
85.0
 20
170.0
 30
0.0
 40
0.5
 50
0.0
 51
180.0
  0
ARC
  8
0
  6
CONTINUOUS
 62
   249
 10
100.0
 20
160.0
 30
0.0
 40
0.5
 50
180.0
 51
0.0
  0
ARC
  8
0
  6
CONTINUOUS
 62
   249
 10
100.0
 20
160.0
 30
0.0
 40
0.5
 50
0.0
 51
180.0
  0
ARC
  8
0
  6
CONTINUOUS
 62
   249
 10
95.0
 20
163.898487
 30
0.0
 40
0.5
 50
180.0
 51
0.0
  0
ARC
  8
0
  6
CONTINUOUS
 62
   249
 10
95.0
 20
163.898487
 30
0.0
 40
0.5
 50
0.0
 51
180.0
  0
LINE
  8
0
  6
CONTINUOUS
 62
   249
 10
173.924362
 20
147.332673
 30
0.0
 11
171.578597
 21
148.668027
 31
0.0
  0
LINE
  8
0
  6
CONTINUOUS
 62
   249
 10
171.578597
 20
148.668027
 30
0.0
 11
173.924362
 21
149.857946
 31
0.0
  0
LINE
  8
0
  6
CONTINUOUS
 62
   249
 10
184.352155
 20
148.316613
 30
0.0
 11
185.239042
 21
148.316613
 31
0.0
  0
LINE
  8
0
  6
CONTINUOUS
 62
   249
 10
184.02105
 20
148.928247
 30
0.0
 11
185.605622
 21
148.928247
 31
0.0
  0
LINE
  8
0
  6
CONTINUOUS
 62
   249
 10
184.836986
 20
149.550309
 30
0.0
 11
186.031327
 21
149.550309
 31
0.0
  0
LINE
  8
0
  6
CONTINUOUS
 62
   249
 10
183.642645
 20
149.550309
 30
0.0
 11
184.836986
 21
149.550309
 31
0.0
  0
LINE
  8
0
  6
CONTINUOUS
 62
   249
 10
184.852873
 20
150.904579
 30
0.0
 11
184.852873
 21
149.550309
 31
0.0
  0
LINE
  8
0
  6
CONTINUOUS
 62
   249
 10
173.924362
 20
162.563601
 30
0.0
 11
171.578597
 21
163.898954
 31
0.0
  0
LINE
  8
0
  6
CONTINUOUS
 62
   249
 10
171.578597
 20
163.898954
 30
0.0
 11
173.924362
 21
165.088874
 31
0.0
  0
ARC
  8
0
  6
CONTINUOUS
 62
   249
 10
170.0
 20
167.471652
 30
0.0
 40
0.5
 50
180.0
 51
0.0
  0
ARC
  8
0
  6
CONTINUOUS
 62
   249
 10
170.0
 20
167.471652
 30
0.0
 40
0.5
 50
0.0
 51
180.0
  0
ARC
  8
0
  6
CONTINUOUS
 62
   249
 10
167.5
 20
170.500813
 30
0.0
 40
0.5
 50
180.0
 51
0.0
  0
ARC
  8
0
  6
CONTINUOUS
 62
   249
 10
167.5
 20
170.500813
 30
0.0
 40
0.5
 50
0.0
 51
180.0
  0
LINE
  8
0
  6
CONTINUOUS
 62
   249
 10
184.352155
 20
158.252382
 30
0.0
 11
185.239042
 21
158.252382
 31
0.0
  0
LINE
  8
0
  6
CONTINUOUS
 62
   249
 10
184.02105
 20
158.864015
 30
0.0
 11
185.605622
 21
158.864015
 31
0.0
  0
LINE
  8
0
  6
CONTINUOUS
 62
   249
 10
184.836986
 20
159.486077
 30
0.0
 11
186.031327
 21
159.486077
 31
0.0
  0
LINE
  8
0
  6
CONTINUOUS
 62
   249
 10
183.642645
 20
159.486077
 30
0.0
 11
184.836986
 21
159.486077
 31
0.0
  0
LINE
  8
0
  6
CONTINUOUS
 62
   249
 10
184.852873
 20
160.840348
 30
0.0
 11
184.852873
 21
159.486077
 31
0.0
  0
LINE
  8
0
  6
CONTINUOUS
 62
   249
 10
184.352155
 20
163.129152
 30
0.0
 11
185.239042
 21
163.129152
 31
0.0
  0
LINE
  8
0
  6
CONTINUOUS
 62
   249
 10
184.02105
 20
163.740785
 30
0.0
 11
185.605622
 21
163.740785
 31
0.0
  0
LINE
  8
0
  6
CONTINUOUS
 62
   249
 10
184.836986
 20
164.362847
 30
0.0
 11
186.031327
 21
164.362847
 31
0.0
  0
LINE
  8
0
  6
CONTINUOUS
 62
   249
 10
183.642645
 20
164.362847
 30
0.0
 11
184.836986
 21
164.362847
 31
0.0
  0
LINE
  8
0
  6
CONTINUOUS
 62
   249
 10
184.852873
 20
165.717118
 30
0.0
 11
184.852873
 21
164.362847
 31
0.0
  0
LINE
  8
0
  6
CONTINUOUS
 62
   249
 10
173.924362
 20
192.333016
 30
0.0
 11
171.578597
 21
193.66837
 31
0.0
  0
LINE
  8
0
  6
CONTINUOUS
 62
   249
 10
171.578597
 20
193.66837
 30
0.0
 11
173.924362
 21
194.858289
 31
0.0
  0
LINE
  8
0
  6
CONTINUOUS
 62
   249
 10
173.924362
 20
173.664635
 30
0.0
 11
171.578597
 21
174.999989
 31
0.0
  0
LINE
  8
0
  6
CONTINUOUS
 62
   249
 10
171.578597
 20
174.999989
 30
0.0
 11
173.924362
 21
176.189908
 31
0.0
  0
LINE
  8
0
  6
CONTINUOUS
 62
   249
 10
184.352155
 20
173.472764
 30
0.0
 11
185.239042
 21
173.472764
 31
0.0
  0
LINE
  8
0
  6
CONTINUOUS
 62
   249
 10
184.02105
 20
174.084397
 30
0.0
 11
185.605622
 21
174.084397
 31
0.0
  0
LINE
  8
0
  6
CONTINUOUS
 62
   249
 10
184.836986
 20
174.70646
 30
0.0
 11
186.031327
 21
174.70646
 31
0.0
  0
LINE
  8
0
  6
CONTINUOUS
 62
   249
 10
183.642645
 20
174.70646
 30
0.0
 11
184.836986
 21
174.70646
 31
0.0
  0
LINE
  8
0
  6
CONTINUOUS
 62
   249
 10
184.852873
 20
176.06073
 30
0.0
 11
184.852873
 21
174.70646
 31
0.0
  0
LINE
  8
0
  6
CONTINUOUS
 62
   249
 10
173.924362
 20
203.331255
 30
0.0
 11
171.578597
 21
204.666609
 31
0.0
  0
LINE
  8
0
  6
CONTINUOUS
 62
   249
 10
171.578597
 20
204.666609
 30
0.0
 11
173.924362
 21
205.856528
 31
0.0
  0
LINE
  8
0
  6
CONTINUOUS
 62
   249
 10
173.924362
 20
198.664635
 30
0.0
 11
171.578597
 21
199.999989
 31
0.0
  0
LINE
  8
0
  6
CONTINUOUS
 62
   249
 10
171.578597
 20
199.999989
 30
0.0
 11
173.924362
 21
201.189908
 31
0.0
  0
LINE
  8
0
  6
CONTINUOUS
 62
   249
 10
173.924362
 20
211.164635
 30
0.0
 11
171.578597
 21
212.499989
 31
0.0
  0
LINE
  8
0
  6
CONTINUOUS
 62
   249
 10
171.578597
 20
212.499989
 30
0.0
 11
173.924362
 21
213.689908
 31
0.0
  0
ARC
  8
0
  6
CONTINUOUS
 62
   249
 10
170.0
 20
207.5
 30
0.0
 40
0.5
 50
180.0
 51
0.0
  0
ARC
  8
0
  6
CONTINUOUS
 62
   249
 10
170.0
 20
207.5
 30
0.0
 40
0.5
 50
0.0
 51
180.0
  0
LINE
  8
0
  6
CONTINUOUS
 62
   249
 10
361.509978
 20
132.68998
 30
0.0
 11
364.155635
 21
132.68998
 31
0.0
  0
LINE
  8
0
  6
CONTINUOUS
 62
   249
 10
365.937188
 20
132.086285
 30
0.0
 11
365.937188
 21
133.293675
 31
0.0
  0
LINE
  8
0
  6
CONTINUOUS
 62
   249
 10
365.049675
 20
131.653787
 30
0.0
 11
365.049675
 21
133.717163
 31
0.0
  0
LINE
  8
0
  6
CONTINUOUS
 62
   249
 10
364.155635
 20
131.158217
 30
0.0
 11
364.155635
 21
134.221743
 31
0.0
  0
LINE
  8
0
  6
CONTINUOUS
 62
   249
 10
235.428695
 20
66.164635
 30
0.0
 11
233.082929
 21
67.499989
 31
0.0
  0
LINE
  8
0
  6
CONTINUOUS
 62
   249
 10
233.082929
 20
67.499989
 30
0.0
 11
235.428695
 21
68.689908
 31
0.0
  0
LINE
  8
0
  6
CONTINUOUS
 62
   249
 10
234.220942
 20
98.664635
 30
0.0
 11
231.875176
 21
99.999989
 31
0.0
  0
LINE
  8
0
  6
CONTINUOUS
 62
   249
 10
231.875176
 20
99.999989
 30
0.0
 11
234.220942
 21
101.189908
 31
0.0
  0
LINE
  8
0
  6
CONTINUOUS
 62
   249
 10
235.428695
 20
123.664635
 30
0.0
 11
233.082929
 21
124.999989
 31
0.0
  0
LINE
  8
0
  6
CONTINUOUS
 62
   249
 10
233.082929
 20
124.999989
 30
0.0
 11
235.428695
 21
126.189908
 31
0.0
  0
LINE
  8
0
  6
CONTINUOUS
 62
   249
 10
261.819436
 20
67.99
 30
0.0
 11
261.819436
 21
67.01
 31
0.0
  0
LINE
  8
0
  6
CONTINUOUS
 62
   249
 10
261.819436
 20
67.01
 30
0.0
 11
265.249436
 21
67.01
 31
0.0
  0
LINE
  8
0
  6
CONTINUOUS
 62
   249
 10
265.249436
 20
67.01
 30
0.0
 11
265.249436
 21
67.99
 31
0.0
  0
LINE
  8
0
  6
CONTINUOUS
 62
   249
 10
265.249436
 20
67.99
 30
0.0
 11
261.819436
 21
67.99
 31
0.0
  0
POLYLINE
  8
0
  6
CONTINUOUS
 62
   249
 66
     1
 10
0.0
 20
0.0
 30
0.0
 70
    16
 71
     2
 72
   251
  0
VERTEX
  8
0
  6
CONTINUOUS
 62
   249
 10
261.819436
 20
67.01
 30
0.0
 70
    64
  0
VERTEX
  8
0
  6
CONTINUOUS
 62
   249
 10
261.833156
 20
67.01
 30
0.0
 70
    64
  0
VERTEX
  8
0
  6
CONTINUOUS
 62
   249
 10
261.846876
 20
67.01
 30
0.0
 70
    64
  0
VERTEX
  8
0
  6
CONTINUOUS
 62
   249
 10
261.860596
 20
67.01
 30
0.0
 70
    64
  0
VERTEX
  8
0
  6
CONTINUOUS
 62
   249
 10
261.874316
 20
67.01
 30
0.0
 70
    64
  0
VERTEX
  8
0
  6
CONTINUOUS
 62
   249
 10
261.888036
 20
67.01
 30
0.0
 70
    64
  0
VERTEX
  8
0
  6
CONTINUOUS
 62
   249
 10
261.901756
 20
67.01
 30
0.0
 70
    64
  0
VERTEX
  8
0
  6
CONTINUOUS
 62
   249
 10
261.915476
 20
67.01
 30
0.0
 70
    64
  0
VERTEX
  8
0
  6
CONTINUOUS
 62
   249
 10
261.929196
 20
67.01
 30
0.0
 70
    64
  0
VERTEX
  8
0
  6
CONTINUOUS
 62
   249
 10
261.942916
 20
67.01
 30
0.0
 70
    64
  0
VERTEX
  8
0
  6
CONTINUOUS
 62
   249
 10
261.956636
 20
67.01
 30
0.0
 70
    64
  0
VERTEX
  8
0
  6
CONTINUOUS
 62
   249
 10
261.970356
 20
67.01
 30
0.0
 70
    64
  0
VERTEX
  8
0
  6
CONTINUOUS
 62
   249
 10
261.984076
 20
67.01
 30
0.0
 70
    64
  0
VERTEX
  8
0
  6
CONTINUOUS
 62
   249
 10
261.997796
 20
67.01
 30
0.0
 70
    64
  0
VERTEX
  8
0
  6
CONTINUOUS
 62
   249
 10
262.011516
 20
67.01
 30
0.0
 70
    64
  0
VERTEX
  8
0
  6
CONTINUOUS
 62
   249
 10
262.025236
 20
67.01
 30
0.0
 70
    64
  0
VERTEX
  8
0
  6
CONTINUOUS
 62
   249
 10
262.038956
 20
67.01
 30
0.0
 70
    64
  0
VERTEX
  8
0
  6
CONTINUOUS
 62
   249
 10
262.052676
 20
67.01
 30
0.0
 70
    64
  0
VERTEX
  8
0
  6
CONTINUOUS
 62
   249
 10
262.066396
 20
67.01
 30
0.0
 70
    64
  0
VERTEX
  8
0
  6
CONTINUOUS
 62
   249
 10
262.080116
 20
67.01
 30
0.0
 70
    64
  0
VERTEX
  8
0
  6
CONTINUOUS
 62
   249
 10
262.093836
 20
67.01
 30
0.0
 70
    64
  0
VERTEX
  8
0
  6
CONTINUOUS
 62
   249
 10
262.107556
 20
67.01
 30
0.0
 70
    64
  0
VERTEX
  8
0
  6
CONTINUOUS
 62
   249
 10
262.121276
 20
67.01
 30
0.0
 70
    64
  0
VERTEX
  8
0
  6
CONTINUOUS
 62
   249
 10
262.134996
 20
67.01
 30
0.0
 70
    64
  0
VERTEX
  8
0
  6
CONTINUOUS
 62
   249
 10
262.148716
 20
67.01
 30
0.0
 70
    64
  0
VERTEX
  8
0
  6
CONTINUOUS
 62
   249
 10
262.162436
 20
67.01
 30
0.0
 70
    64
  0
VERTEX
  8
0
  6
CONTINUOUS
 62
   249
 10
262.176156
 20
67.01
 30
0.0
 70
    64
  0
VERTEX
  8
0
  6
CONTINUOUS
 62
   249
 10
262.189876
 20
67.01
 30
0.0
 70
    64
  0
VERTEX
  8
0
  6
CONTINUOUS
 62
   249
 10
262.203596
 20
67.01
 30
0.0
 70
    64
  0
VERTEX
  8
0
  6
CONTINUOUS
 62
   249
 10
262.217316
 20
67.01
 30
0.0
 70
    64
  0
VERTEX
  8
0
  6
CONTINUOUS
 62
   249
 10
262.231036
 20
67.01
 30
0.0
 70
    64
  0
VERTEX
  8
0
  6
CONTINUOUS
 62
   249
 10
262.244756
 20
67.01
 30
0.0
 70
    64
  0
VERTEX
  8
0
  6
CONTINUOUS
 62
   249
 10
262.258476
 20
67.01
 30
0.0
 70
    64
  0
VERTEX
  8
0
  6
CONTINUOUS
 62
   249
 10
262.272196
 20
67.01
 30
0.0
 70
    64
  0
VERTEX
  8
0
  6
CONTINUOUS
 62
   249
 10
262.285916
 20
67.01
 30
0.0
 70
    64
  0
VERTEX
  8
0
  6
CONTINUOUS
 62
   249
 10
262.299636
 20
67.01
 30
0.0
 70
    64
  0
VERTEX
  8
0
  6
CONTINUOUS
 62
   249
 10
262.313356
 20
67.01
 30
0.0
 70
    64
  0
VERTEX
  8
0
  6
CONTINUOUS
 62
   249
 10
262.327076
 20
67.01
 30
0.0
 70
    64
  0
VERTEX
  8
0
  6
CONTINUOUS
 62
   249
 10
262.340796
 20
67.01
 30
0.0
 70
    64
  0
VERTEX
  8
0
  6
CONTINUOUS
 62
   249
 10
262.354516
 20
67.01
 30
0.0
 70
    64
  0
VERTEX
  8
0
  6
CONTINUOUS
 62
   249
 10
262.368236
 20
67.01
 30
0.0
 70
    64
  0
VERTEX
  8
0
  6
CONTINUOUS
 62
   249
 10
262.381956
 20
67.01
 30
0.0
 70
    64
  0
VERTEX
  8
0
  6
CONTINUOUS
 62
   249
 10
262.395676
 20
67.01
 30
0.0
 70
    64
  0
VERTEX
  8
0
  6
CONTINUOUS
 62
   249
 10
262.409396
 20
67.01
 30
0.0
 70
    64
  0
VERTEX
  8
0
  6
CONTINUOUS
 62
   249
 10
262.423116
 20
67.01
 30
0.0
 70
    64
  0
VERTEX
  8
0
  6
CONTINUOUS
 62
   249
 10
262.436836
 20
67.01
 30
0.0
 70
    64
  0
VERTEX
  8
0
  6
CONTINUOUS
 62
   249
 10
262.450556
 20
67.01
 30
0.0
 70
    64
  0
VERTEX
  8
0
  6
CONTINUOUS
 62
   249
 10
262.464276
 20
67.01
 30
0.0
 70
    64
  0
VERTEX
  8
0
  6
CONTINUOUS
 62
   249
 10
262.477996
 20
67.01
 30
0.0
 70
    64
  0
VERTEX
  8
0
  6
CONTINUOUS
 62
   249
 10
262.491716
 20
67.01
 30
0.0
 70
    64
  0
VERTEX
  8
0
  6
CONTINUOUS
 62
   249
 10
262.505436
 20
67.01
 30
0.0
 70
    64
  0
VERTEX
  8
0
  6
CONTINUOUS
 62
   249
 10
262.519156
 20
67.01
 30
0.0
 70
    64
  0
VERTEX
  8
0
  6
CONTINUOUS
 62
   249
 10
262.532876
 20
67.01
 30
0.0
 70
    64
  0
VERTEX
  8
0
  6
CONTINUOUS
 62
   249
 10
262.546596
 20
67.01
 30
0.0
 70
    64
  0
VERTEX
  8
0
  6
CONTINUOUS
 62
   249
 10
262.560316
 20
67.01
 30
0.0
 70
    64
  0
VERTEX
  8
0
  6
CONTINUOUS
 62
   249
 10
262.574036
 20
67.01
 30
0.0
 70
    64
  0
VERTEX
  8
0
  6
CONTINUOUS
 62
   249
 10
262.587756
 20
67.01
 30
0.0
 70
    64
  0
VERTEX
  8
0
  6
CONTINUOUS
 62
   249
 10
262.601476
 20
67.01
 30
0.0
 70
    64
  0
VERTEX
  8
0
  6
CONTINUOUS
 62
   249
 10
262.615196
 20
67.01
 30
0.0
 70
    64
  0
VERTEX
  8
0
  6
CONTINUOUS
 62
   249
 10
262.628916
 20
67.01
 30
0.0
 70
    64
  0
VERTEX
  8
0
  6
CONTINUOUS
 62
   249
 10
262.642636
 20
67.01
 30
0.0
 70
    64
  0
VERTEX
  8
0
  6
CONTINUOUS
 62
   249
 10
262.656356
 20
67.01
 30
0.0
 70
    64
  0
VERTEX
  8
0
  6
CONTINUOUS
 62
   249
 10
262.670076
 20
67.01
 30
0.0
 70
    64
  0
VERTEX
  8
0
  6
CONTINUOUS
 62
   249
 10
262.683796
 20
67.01
 30
0.0
 70
    64
  0
VERTEX
  8
0
  6
CONTINUOUS
 62
   249
 10
262.697516
 20
67.01
 30
0.0
 70
    64
  0
VERTEX
  8
0
  6
CONTINUOUS
 62
   249
 10
262.711236
 20
67.01
 30
0.0
 70
    64
  0
VERTEX
  8
0
  6
CONTINUOUS
 62
   249
 10
262.724956
 20
67.01
 30
0.0
 70
    64
  0
VERTEX
  8
0
  6
CONTINUOUS
 62
   249
 10
262.738676
 20
67.01
 30
0.0
 70
    64
  0
VERTEX
  8
0
  6
CONTINUOUS
 62
   249
 10
262.752396
 20
67.01
 30
0.0
 70
    64
  0
VERTEX
  8
0
  6
CONTINUOUS
 62
   249
 10
262.766116
 20
67.01
 30
0.0
 70
    64
  0
VERTEX
  8
0
  6
CONTINUOUS
 62
   249
 10
262.779836
 20
67.01
 30
0.0
 70
    64
  0
VERTEX
  8
0
  6
CONTINUOUS
 62
   249
 10
262.793556
 20
67.01
 30
0.0
 70
    64
  0
VERTEX
  8
0
  6
CONTINUOUS
 62
   249
 10
262.807276
 20
67.01
 30
0.0
 70
    64
  0
VERTEX
  8
0
  6
CONTINUOUS
 62
   249
 10
262.820996
 20
67.01
 30
0.0
 70
    64
  0
VERTEX
  8
0
  6
CONTINUOUS
 62
   249
 10
262.834716
 20
67.01
 30
0.0
 70
    64
  0
VERTEX
  8
0
  6
CONTINUOUS
 62
   249
 10
262.848436
 20
67.01
 30
0.0
 70
    64
  0
VERTEX
  8
0
  6
CONTINUOUS
 62
   249
 10
262.862156
 20
67.01
 30
0.0
 70
    64
  0
VERTEX
  8
0
  6
CONTINUOUS
 62
   249
 10
262.875876
 20
67.01
 30
0.0
 70
    64
  0
VERTEX
  8
0
  6
CONTINUOUS
 62
   249
 10
262.889596
 20
67.01
 30
0.0
 70
    64
  0
VERTEX
  8
0
  6
CONTINUOUS
 62
   249
 10
262.903316
 20
67.01
 30
0.0
 70
    64
  0
VERTEX
  8
0
  6
CONTINUOUS
 62
   249
 10
262.917036
 20
67.01
 30
0.0
 70
    64
  0
VERTEX
  8
0
  6
CONTINUOUS
 62
   249
 10
262.930756
 20
67.01
 30
0.0
 70
    64
  0
VERTEX
  8
0
  6
CONTINUOUS
 62
   249
 10
262.944476
 20
67.01
 30
0.0
 70
    64
  0
VERTEX
  8
0
  6
CONTINUOUS
 62
   249
 10
262.958196
 20
67.01
 30
0.0
 70
    64
  0
VERTEX
  8
0
  6
CONTINUOUS
 62
   249
 10
262.971916
 20
67.01
 30
0.0
 70
    64
  0
VERTEX
  8
0
  6
CONTINUOUS
 62
   249
 10
262.985636
 20
67.01
 30
0.0
 70
    64
  0
VERTEX
  8
0
  6
CONTINUOUS
 62
   249
 10
262.999356
 20
67.01
 30
0.0
 70
    64
  0
VERTEX
  8
0
  6
CONTINUOUS
 62
   249
 10
263.013076
 20
67.01
 30
0.0
 70
    64
  0
VERTEX
  8
0
  6
CONTINUOUS
 62
   249
 10
263.026796
 20
67.01
 30
0.0
 70
    64
  0
VERTEX
  8
0
  6
CONTINUOUS
 62
   249
 10
263.040516
 20
67.01
 30
0.0
 70
    64
  0
VERTEX
  8
0
  6
CONTINUOUS
 62
   249
 10
263.054236
 20
67.01
 30
0.0
 70
    64
  0
VERTEX
  8
0
  6
CONTINUOUS
 62
   249
 10
263.067956
 20
67.01
 30
0.0
 70
    64
  0
VERTEX
  8
0
  6
CONTINUOUS
 62
   249
 10
263.081676
 20
67.01
 30
0.0
 70
    64
  0
VERTEX
  8
0
  6
CONTINUOUS
 62
   249
 10
263.095396
 20
67.01
 30
0.0
 70
    64
  0
VERTEX
  8
0
  6
CONTINUOUS
 62
   249
 10
263.109116
 20
67.01
 30
0.0
 70
    64
  0
VERTEX
  8
0
  6
CONTINUOUS
 62
   249
 10
263.122836
 20
67.01
 30
0.0
 70
    64
  0
VERTEX
  8
0
  6
CONTINUOUS
 62
   249
 10
263.136556
 20
67.01
 30
0.0
 70
    64
  0
VERTEX
  8
0
  6
CONTINUOUS
 62
   249
 10
263.150276
 20
67.01
 30
0.0
 70
    64
  0
VERTEX
  8
0
  6
CONTINUOUS
 62
   249
 10
263.163996
 20
67.01
 30
0.0
 70
    64
  0
VERTEX
  8
0
  6
CONTINUOUS
 62
   249
 10
263.177716
 20
67.01
 30
0.0
 70
    64
  0
VERTEX
  8
0
  6
CONTINUOUS
 62
   249
 10
263.191436
 20
67.01
 30
0.0
 70
    64
  0
VERTEX
  8
0
  6
CONTINUOUS
 62
   249
 10
263.205156
 20
67.01
 30
0.0
 70
    64
  0
VERTEX
  8
0
  6
CONTINUOUS
 62
   249
 10
263.218876
 20
67.01
 30
0.0
 70
    64
  0
VERTEX
  8
0
  6
CONTINUOUS
 62
   249
 10
263.232596
 20
67.01
 30
0.0
 70
    64
  0
VERTEX
  8
0
  6
CONTINUOUS
 62
   249
 10
263.246316
 20
67.01
 30
0.0
 70
    64
  0
VERTEX
  8
0
  6
CONTINUOUS
 62
   249
 10
263.260036
 20
67.01
 30
0.0
 70
    64
  0
VERTEX
  8
0
  6
CONTINUOUS
 62
   249
 10
263.273756
 20
67.01
 30
0.0
 70
    64
  0
VERTEX
  8
0
  6
CONTINUOUS
 62
   249
 10
263.287476
 20
67.01
 30
0.0
 70
    64
  0
VERTEX
  8
0
  6
CONTINUOUS
 62
   249
 10
263.301196
 20
67.01
 30
0.0
 70
    64
  0
VERTEX
  8
0
  6
CONTINUOUS
 62
   249
 10
263.314916
 20
67.01
 30
0.0
 70
    64
  0
VERTEX
  8
0
  6
CONTINUOUS
 62
   249
 10
263.328636
 20
67.01
 30
0.0
 70
    64
  0
VERTEX
  8
0
  6
CONTINUOUS
 62
   249
 10
263.342356
 20
67.01
 30
0.0
 70
    64
  0
VERTEX
  8
0
  6
CONTINUOUS
 62
   249
 10
263.356076
 20
67.01
 30
0.0
 70
    64
  0
VERTEX
  8
0
  6
CONTINUOUS
 62
   249
 10
263.369796
 20
67.01
 30
0.0
 70
    64
  0
VERTEX
  8
0
  6
CONTINUOUS
 62
   249
 10
263.383516
 20
67.01
 30
0.0
 70
    64
  0
VERTEX
  8
0
  6
CONTINUOUS
 62
   249
 10
263.397236
 20
67.01
 30
0.0
 70
    64
  0
VERTEX
  8
0
  6
CONTINUOUS
 62
   249
 10
263.410956
 20
67.01
 30
0.0
 70
    64
  0
VERTEX
  8
0
  6
CONTINUOUS
 62
   249
 10
263.424676
 20
67.01
 30
0.0
 70
    64
  0
VERTEX
  8
0
  6
CONTINUOUS
 62
   249
 10
263.438396
 20
67.01
 30
0.0
 70
    64
  0
VERTEX
  8
0
  6
CONTINUOUS
 62
   249
 10
263.452116
 20
67.01
 30
0.0
 70
    64
  0
VERTEX
  8
0
  6
CONTINUOUS
 62
   249
 10
263.465836
 20
67.01
 30
0.0
 70
    64
  0
VERTEX
  8
0
  6
CONTINUOUS
 62
   249
 10
263.479556
 20
67.01
 30
0.0
 70
    64
  0
VERTEX
  8
0
  6
CONTINUOUS
 62
   249
 10
263.493276
 20
67.01
 30
0.0
 70
    64
  0
VERTEX
  8
0
  6
CONTINUOUS
 62
   249
 10
263.506996
 20
67.01
 30
0.0
 70
    64
  0
VERTEX
  8
0
  6
CONTINUOUS
 62
   249
 10
263.520716
 20
67.01
 30
0.0
 70
    64
  0
VERTEX
  8
0
  6
CONTINUOUS
 62
   249
 10
263.534436
 20
67.01
 30
0.0
 70
    64
  0
VERTEX
  8
0
  6
CONTINUOUS
 62
   249
 10
263.548156
 20
67.01
 30
0.0
 70
    64
  0
VERTEX
  8
0
  6
CONTINUOUS
 62
   249
 10
263.561876
 20
67.01
 30
0.0
 70
    64
  0
VERTEX
  8
0
  6
CONTINUOUS
 62
   249
 10
263.575596
 20
67.01
 30
0.0
 70
    64
  0
VERTEX
  8
0
  6
CONTINUOUS
 62
   249
 10
263.589316
 20
67.01
 30
0.0
 70
    64
  0
VERTEX
  8
0
  6
CONTINUOUS
 62
   249
 10
263.603036
 20
67.01
 30
0.0
 70
    64
  0
VERTEX
  8
0
  6
CONTINUOUS
 62
   249
 10
263.616756
 20
67.01
 30
0.0
 70
    64
  0
VERTEX
  8
0
  6
CONTINUOUS
 62
   249
 10
263.630476
 20
67.01
 30
0.0
 70
    64
  0
VERTEX
  8
0
  6
CONTINUOUS
 62
   249
 10
263.644196
 20
67.01
 30
0.0
 70
    64
  0
VERTEX
  8
0
  6
CONTINUOUS
 62
   249
 10
263.657916
 20
67.01
 30
0.0
 70
    64
  0
VERTEX
  8
0
  6
CONTINUOUS
 62
   249
 10
263.671636
 20
67.01
 30
0.0
 70
    64
  0
VERTEX
  8
0
  6
CONTINUOUS
 62
   249
 10
263.685356
 20
67.01
 30
0.0
 70
    64
  0
VERTEX
  8
0
  6
CONTINUOUS
 62
   249
 10
263.699076
 20
67.01
 30
0.0
 70
    64
  0
VERTEX
  8
0
  6
CONTINUOUS
 62
   249
 10
263.712796
 20
67.01
 30
0.0
 70
    64
  0
VERTEX
  8
0
  6
CONTINUOUS
 62
   249
 10
263.726516
 20
67.01
 30
0.0
 70
    64
  0
VERTEX
  8
0
  6
CONTINUOUS
 62
   249
 10
263.740236
 20
67.01
 30
0.0
 70
    64
  0
VERTEX
  8
0
  6
CONTINUOUS
 62
   249
 10
263.753956
 20
67.01
 30
0.0
 70
    64
  0
VERTEX
  8
0
  6
CONTINUOUS
 62
   249
 10
263.767676
 20
67.01
 30
0.0
 70
    64
  0
VERTEX
  8
0
  6
CONTINUOUS
 62
   249
 10
263.781396
 20
67.01
 30
0.0
 70
    64
  0
VERTEX
  8
0
  6
CONTINUOUS
 62
   249
 10
263.795116
 20
67.01
 30
0.0
 70
    64
  0
VERTEX
  8
0
  6
CONTINUOUS
 62
   249
 10
263.808836
 20
67.01
 30
0.0
 70
    64
  0
VERTEX
  8
0
  6
CONTINUOUS
 62
   249
 10
263.822556
 20
67.01
 30
0.0
 70
    64
  0
VERTEX
  8
0
  6
CONTINUOUS
 62
   249
 10
263.836276
 20
67.01
 30
0.0
 70
    64
  0
VERTEX
  8
0
  6
CONTINUOUS
 62
   249
 10
263.849996
 20
67.01
 30
0.0
 70
    64
  0
VERTEX
  8
0
  6
CONTINUOUS
 62
   249
 10
263.863716
 20
67.01
 30
0.0
 70
    64
  0
VERTEX
  8
0
  6
CONTINUOUS
 62
   249
 10
263.877436
 20
67.01
 30
0.0
 70
    64
  0
VERTEX
  8
0
  6
CONTINUOUS
 62
   249
 10
263.891156
 20
67.01
 30
0.0
 70
    64
  0
VERTEX
  8
0
  6
CONTINUOUS
 62
   249
 10
263.904876
 20
67.01
 30
0.0
 70
    64
  0
VERTEX
  8
0
  6
CONTINUOUS
 62
   249
 10
263.918596
 20
67.01
 30
0.0
 70
    64
  0
VERTEX
  8
0
  6
CONTINUOUS
 62
   249
 10
263.932316
 20
67.01
 30
0.0
 70
    64
  0
VERTEX
  8
0
  6
CONTINUOUS
 62
   249
 10
263.946036
 20
67.01
 30
0.0
 70
    64
  0
VERTEX
  8
0
  6
CONTINUOUS
 62
   249
 10
263.959756
 20
67.01
 30
0.0
 70
    64
  0
VERTEX
  8
0
  6
CONTINUOUS
 62
   249
 10
263.973476
 20
67.01
 30
0.0
 70
    64
  0
VERTEX
  8
0
  6
CONTINUOUS
 62
   249
 10
263.987196
 20
67.01
 30
0.0
 70
    64
  0
VERTEX
  8
0
  6
CONTINUOUS
 62
   249
 10
264.000916
 20
67.01
 30
0.0
 70
    64
  0
VERTEX
  8
0
  6
CONTINUOUS
 62
   249
 10
264.014636
 20
67.01
 30
0.0
 70
    64
  0
VERTEX
  8
0
  6
CONTINUOUS
 62
   249
 10
264.028356
 20
67.01
 30
0.0
 70
    64
  0
VERTEX
  8
0
  6
CONTINUOUS
 62
   249
 10
264.042076
 20
67.01
 30
0.0
 70
    64
  0
VERTEX
  8
0
  6
CONTINUOUS
 62
   249
 10
264.055796
 20
67.01
 30
0.0
 70
    64
  0
VERTEX
  8
0
  6
CONTINUOUS
 62
   249
 10
264.069516
 20
67.01
 30
0.0
 70
    64
  0
VERTEX
  8
0
  6
CONTINUOUS
 62
   249
 10
264.083236
 20
67.01
 30
0.0
 70
    64
  0
VERTEX
  8
0
  6
CONTINUOUS
 62
   249
 10
264.096956
 20
67.01
 30
0.0
 70
    64
  0
VERTEX
  8
0
  6
CONTINUOUS
 62
   249
 10
264.110676
 20
67.01
 30
0.0
 70
    64
  0
VERTEX
  8
0
  6
CONTINUOUS
 62
   249
 10
264.124396
 20
67.01
 30
0.0
 70
    64
  0
VERTEX
  8
0
  6
CONTINUOUS
 62
   249
 10
264.138116
 20
67.01
 30
0.0
 70
    64
  0
VERTEX
  8
0
  6
CONTINUOUS
 62
   249
 10
264.151836
 20
67.01
 30
0.0
 70
    64
  0
VERTEX
  8
0
  6
CONTINUOUS
 62
   249
 10
264.165556
 20
67.01
 30
0.0
 70
    64
  0
VERTEX
  8
0
  6
CONTINUOUS
 62
   249
 10
264.179276
 20
67.01
 30
0.0
 70
    64
  0
VERTEX
  8
0
  6
CONTINUOUS
 62
   249
 10
264.192996
 20
67.01
 30
0.0
 70
    64
  0
VERTEX
  8
0
  6
CONTINUOUS
 62
   249
 10
264.206716
 20
67.01
 30
0.0
 70
    64
  0
VERTEX
  8
0
  6
CONTINUOUS
 62
   249
 10
264.220436
 20
67.01
 30
0.0
 70
    64
  0
VERTEX
  8
0
  6
CONTINUOUS
 62
   249
 10
264.234156
 20
67.01
 30
0.0
 70
    64
  0
VERTEX
  8
0
  6
CONTINUOUS
 62
   249
 10
264.247876
 20
67.01
 30
0.0
 70
    64
  0
VERTEX
  8
0
  6
CONTINUOUS
 62
   249
 10
264.261596
 20
67.01
 30
0.0
 70
    64
  0
VERTEX
  8
0
  6
CONTINUOUS
 62
   249
 10
264.275316
 20
67.01
 30
0.0
 70
    64
  0
VERTEX
  8
0
  6
CONTINUOUS
 62
   249
 10
264.289036
 20
67.01
 30
0.0
 70
    64
  0
VERTEX
  8
0
  6
CONTINUOUS
 62
   249
 10
264.302756
 20
67.01
 30
0.0
 70
    64
  0
VERTEX
  8
0
  6
CONTINUOUS
 62
   249
 10
264.316476
 20
67.01
 30
0.0
 70
    64
  0
VERTEX
  8
0
  6
CONTINUOUS
 62
   249
 10
264.330196
 20
67.01
 30
0.0
 70
    64
  0
VERTEX
  8
0
  6
CONTINUOUS
 62
   249
 10
264.343916
 20
67.01
 30
0.0
 70
    64
  0
VERTEX
  8
0
  6
CONTINUOUS
 62
   249
 10
264.357636
 20
67.01
 30
0.0
 70
    64
  0
VERTEX
  8
0
  6
CONTINUOUS
 62
   249
 10
264.371356
 20
67.01
 30
0.0
 70
    64
  0
VERTEX
  8
0
  6
CONTINUOUS
 62
   249
 10
264.385076
 20
67.01
 30
0.0
 70
    64
  0
VERTEX
  8
0
  6
CONTINUOUS
 62
   249
 10
264.398796
 20
67.01
 30
0.0
 70
    64
  0
VERTEX
  8
0
  6
CONTINUOUS
 62
   249
 10
264.412516
 20
67.01
 30
0.0
 70
    64
  0
VERTEX
  8
0
  6
CONTINUOUS
 62
   249
 10
264.426236
 20
67.01
 30
0.0
 70
    64
  0
VERTEX
  8
0
  6
CONTINUOUS
 62
   249
 10
264.439956
 20
67.01
 30
0.0
 70
    64
  0
VERTEX
  8
0
  6
CONTINUOUS
 62
   249
 10
264.453676
 20
67.01
 30
0.0
 70
    64
  0
VERTEX
  8
0
  6
CONTINUOUS
 62
   249
 10
264.467396
 20
67.01
 30
0.0
 70
    64
  0
VERTEX
  8
0
  6
CONTINUOUS
 62
   249
 10
264.481116
 20
67.01
 30
0.0
 70
    64
  0
VERTEX
  8
0
  6
CONTINUOUS
 62
   249
 10
264.494836
 20
67.01
 30
0.0
 70
    64
  0
VERTEX
  8
0
  6
CONTINUOUS
 62
   249
 10
264.508556
 20
67.01
 30
0.0
 70
    64
  0
VERTEX
  8
0
  6
CONTINUOUS
 62
   249
 10
264.522276
 20
67.01
 30
0.0
 70
    64
  0
VERTEX
  8
0
  6
CONTINUOUS
 62
   249
 10
264.535996
 20
67.01
 30
0.0
 70
    64
  0
VERTEX
  8
0
  6
CONTINUOUS
 62
   249
 10
264.549716
 20
67.01
 30
0.0
 70
    64
  0
VERTEX
  8
0
  6
CONTINUOUS
 62
   249
 10
264.563436
 20
67.01
 30
0.0
 70
    64
  0
VERTEX
  8
0
  6
CONTINUOUS
 62
   249
 10
264.577156
 20
67.01
 30
0.0
 70
    64
  0
VERTEX
  8
0
  6
CONTINUOUS
 62
   249
 10
264.590876
 20
67.01
 30
0.0
 70
    64
  0
VERTEX
  8
0
  6
CONTINUOUS
 62
   249
 10
264.604596
 20
67.01
 30
0.0
 70
    64
  0
VERTEX
  8
0
  6
CONTINUOUS
 62
   249
 10
264.618316
 20
67.01
 30
0.0
 70
    64
  0
VERTEX
  8
0
  6
CONTINUOUS
 62
   249
 10
264.632036
 20
67.01
 30
0.0
 70
    64
  0
VERTEX
  8
0
  6
CONTINUOUS
 62
   249
 10
264.645756
 20
67.01
 30
0.0
 70
    64
  0
VERTEX
  8
0
  6
CONTINUOUS
 62
   249
 10
264.659476
 20
67.01
 30
0.0
 70
    64
  0
VERTEX
  8
0
  6
CONTINUOUS
 62
   249
 10
264.673196
 20
67.01
 30
0.0
 70
    64
  0
VERTEX
  8
0
  6
CONTINUOUS
 62
   249
 10
264.686916
 20
67.01
 30
0.0
 70
    64
  0
VERTEX
  8
0
  6
CONTINUOUS
 62
   249
 10
264.700636
 20
67.01
 30
0.0
 70
    64
  0
VERTEX
  8
0
  6
CONTINUOUS
 62
   249
 10
264.714356
 20
67.01
 30
0.0
 70
    64
  0
VERTEX
  8
0
  6
CONTINUOUS
 62
   249
 10
264.728076
 20
67.01
 30
0.0
 70
    64
  0
VERTEX
  8
0
  6
CONTINUOUS
 62
   249
 10
264.741796
 20
67.01
 30
0.0
 70
    64
  0
VERTEX
  8
0
  6
CONTINUOUS
 62
   249
 10
264.755516
 20
67.01
 30
0.0
 70
    64
  0
VERTEX
  8
0
  6
CONTINUOUS
 62
   249
 10
264.769236
 20
67.01
 30
0.0
 70
    64
  0
VERTEX
  8
0
  6
CONTINUOUS
 62
   249
 10
264.782956
 20
67.01
 30
0.0
 70
    64
  0
VERTEX
  8
0
  6
CONTINUOUS
 62
   249
 10
264.796676
 20
67.01
 30
0.0
 70
    64
  0
VERTEX
  8
0
  6
CONTINUOUS
 62
   249
 10
264.810396
 20
67.01
 30
0.0
 70
    64
  0
VERTEX
  8
0
  6
CONTINUOUS
 62
   249
 10
264.824116
 20
67.01
 30
0.0
 70
    64
  0
VERTEX
  8
0
  6
CONTINUOUS
 62
   249
 10
264.837836
 20
67.01
 30
0.0
 70
    64
  0
VERTEX
  8
0
  6
CONTINUOUS
 62
   249
 10
264.851556
 20
67.01
 30
0.0
 70
    64
  0
VERTEX
  8
0
  6
CONTINUOUS
 62
   249
 10
264.865276
 20
67.01
 30
0.0
 70
    64
  0
VERTEX
  8
0
  6
CONTINUOUS
 62
   249
 10
264.878996
 20
67.01
 30
0.0
 70
    64
  0
VERTEX
  8
0
  6
CONTINUOUS
 62
   249
 10
264.892716
 20
67.01
 30
0.0
 70
    64
  0
VERTEX
  8
0
  6
CONTINUOUS
 62
   249
 10
264.906436
 20
67.01
 30
0.0
 70
    64
  0
VERTEX
  8
0
  6
CONTINUOUS
 62
   249
 10
264.920156
 20
67.01
 30
0.0
 70
    64
  0
VERTEX
  8
0
  6
CONTINUOUS
 62
   249
 10
264.933876
 20
67.01
 30
0.0
 70
    64
  0
VERTEX
  8
0
  6
CONTINUOUS
 62
   249
 10
264.947596
 20
67.01
 30
0.0
 70
    64
  0
VERTEX
  8
0
  6
CONTINUOUS
 62
   249
 10
264.961316
 20
67.01
 30
0.0
 70
    64
  0
VERTEX
  8
0
  6
CONTINUOUS
 62
   249
 10
264.975036
 20
67.01
 30
0.0
 70
    64
  0
VERTEX
  8
0
  6
CONTINUOUS
 62
   249
 10
264.988756
 20
67.01
 30
0.0
 70
    64
  0
VERTEX
  8
0
  6
CONTINUOUS
 62
   249
 10
265.002476
 20
67.01
 30
0.0
 70
    64
  0
VERTEX
  8
0
  6
CONTINUOUS
 62
   249
 10
265.016196
 20
67.01
 30
0.0
 70
    64
  0
VERTEX
  8
0
  6
CONTINUOUS
 62
   249
 10
265.029916
 20
67.01
 30
0.0
 70
    64
  0
VERTEX
  8
0
  6
CONTINUOUS
 62
   249
 10
265.043636
 20
67.01
 30
0.0
 70
    64
  0
VERTEX
  8
0
  6
CONTINUOUS
 62
   249
 10
265.057356
 20
67.01
 30
0.0
 70
    64
  0
VERTEX
  8
0
  6
CONTINUOUS
 62
   249
 10
265.071076
 20
67.01
 30
0.0
 70
    64
  0
VERTEX
  8
0
  6
CONTINUOUS
 62
   249
 10
265.084796
 20
67.01
 30
0.0
 70
    64
  0
VERTEX
  8
0
  6
CONTINUOUS
 62
   249
 10
265.098516
 20
67.01
 30
0.0
 70
    64
  0
VERTEX
  8
0
  6
CONTINUOUS
 62
   249
 10
265.112236
 20
67.01
 30
0.0
 70
    64
  0
VERTEX
  8
0
  6
CONTINUOUS
 62
   249
 10
265.125956
 20
67.01
 30
0.0
 70
    64
  0
VERTEX
  8
0
  6
CONTINUOUS
 62
   249
 10
265.139676
 20
67.01
 30
0.0
 70
    64
  0
VERTEX
  8
0
  6
CONTINUOUS
 62
   249
 10
265.153396
 20
67.01
 30
0.0
 70
    64
  0
VERTEX
  8
0
  6
CONTINUOUS
 62
   249
 10
265.167116
 20
67.01
 30
0.0
 70
    64
  0
VERTEX
  8
0
  6
CONTINUOUS
 62
   249
 10
265.180836
 20
67.01
 30
0.0
 70
    64
  0
VERTEX
  8
0
  6
CONTINUOUS
 62
   249
 10
265.194556
 20
67.01
 30
0.0
 70
    64
  0
VERTEX
  8
0
  6
CONTINUOUS
 62
   249
 10
265.208276
 20
67.01
 30
0.0
 70
    64
  0
VERTEX
  8
0
  6
CONTINUOUS
 62
   249
 10
265.221996
 20
67.01
 30
0.0
 70
    64
  0
VERTEX
  8
0
  6
CONTINUOUS
 62
   249
 10
265.235716
 20
67.01
 30
0.0
 70
    64
  0
VERTEX
  8
0
  6
CONTINUOUS
 62
   249
 10
265.249436
 20
67.01
 30
0.0
 70
    64
  0
VERTEX
  8
0
  6
CONTINUOUS
 62
   249
 10
261.819436
 20
67.99
 30
0.0
 70
    64
  0
VERTEX
  8
0
  6
CONTINUOUS
 62
   249
 10
261.833156
 20
67.99
 30
0.0
 70
    64
  0
VERTEX
  8
0
  6
CONTINUOUS
 62
   249
 10
261.846876
 20
67.99
 30
0.0
 70
    64
  0
VERTEX
  8
0
  6
CONTINUOUS
 62
   249
 10
261.860596
 20
67.99
 30
0.0
 70
    64
  0
VERTEX
  8
0
  6
CONTINUOUS
 62
   249
 10
261.874316
 20
67.99
 30
0.0
 70
    64
  0
VERTEX
  8
0
  6
CONTINUOUS
 62
   249
 10
261.888036
 20
67.99
 30
0.0
 70
    64
  0
VERTEX
  8
0
  6
CONTINUOUS
 62
   249
 10
261.901756
 20
67.99
 30
0.0
 70
    64
  0
VERTEX
  8
0
  6
CONTINUOUS
 62
   249
 10
261.915476
 20
67.99
 30
0.0
 70
    64
  0
VERTEX
  8
0
  6
CONTINUOUS
 62
   249
 10
261.929196
 20
67.99
 30
0.0
 70
    64
  0
VERTEX
  8
0
  6
CONTINUOUS
 62
   249
 10
261.942916
 20
67.99
 30
0.0
 70
    64
  0
VERTEX
  8
0
  6
CONTINUOUS
 62
   249
 10
261.956636
 20
67.99
 30
0.0
 70
    64
  0
VERTEX
  8
0
  6
CONTINUOUS
 62
   249
 10
261.970356
 20
67.99
 30
0.0
 70
    64
  0
VERTEX
  8
0
  6
CONTINUOUS
 62
   249
 10
261.984076
 20
67.99
 30
0.0
 70
    64
  0
VERTEX
  8
0
  6
CONTINUOUS
 62
   249
 10
261.997796
 20
67.99
 30
0.0
 70
    64
  0
VERTEX
  8
0
  6
CONTINUOUS
 62
   249
 10
262.011516
 20
67.99
 30
0.0
 70
    64
  0
VERTEX
  8
0
  6
CONTINUOUS
 62
   249
 10
262.025236
 20
67.99
 30
0.0
 70
    64
  0
VERTEX
  8
0
  6
CONTINUOUS
 62
   249
 10
262.038956
 20
67.99
 30
0.0
 70
    64
  0
VERTEX
  8
0
  6
CONTINUOUS
 62
   249
 10
262.052676
 20
67.99
 30
0.0
 70
    64
  0
VERTEX
  8
0
  6
CONTINUOUS
 62
   249
 10
262.066396
 20
67.99
 30
0.0
 70
    64
  0
VERTEX
  8
0
  6
CONTINUOUS
 62
   249
 10
262.080116
 20
67.99
 30
0.0
 70
    64
  0
VERTEX
  8
0
  6
CONTINUOUS
 62
   249
 10
262.093836
 20
67.99
 30
0.0
 70
    64
  0
VERTEX
  8
0
  6
CONTINUOUS
 62
   249
 10
262.107556
 20
67.99
 30
0.0
 70
    64
  0
VERTEX
  8
0
  6
CONTINUOUS
 62
   249
 10
262.121276
 20
67.99
 30
0.0
 70
    64
  0
VERTEX
  8
0
  6
CONTINUOUS
 62
   249
 10
262.134996
 20
67.99
 30
0.0
 70
    64
  0
VERTEX
  8
0
  6
CONTINUOUS
 62
   249
 10
262.148716
 20
67.99
 30
0.0
 70
    64
  0
VERTEX
  8
0
  6
CONTINUOUS
 62
   249
 10
262.162436
 20
67.99
 30
0.0
 70
    64
  0
VERTEX
  8
0
  6
CONTINUOUS
 62
   249
 10
262.176156
 20
67.99
 30
0.0
 70
    64
  0
VERTEX
  8
0
  6
CONTINUOUS
 62
   249
 10
262.189876
 20
67.99
 30
0.0
 70
    64
  0
VERTEX
  8
0
  6
CONTINUOUS
 62
   249
 10
262.203596
 20
67.99
 30
0.0
 70
    64
  0
VERTEX
  8
0
  6
CONTINUOUS
 62
   249
 10
262.217316
 20
67.99
 30
0.0
 70
    64
  0
VERTEX
  8
0
  6
CONTINUOUS
 62
   249
 10
262.231036
 20
67.99
 30
0.0
 70
    64
  0
VERTEX
  8
0
  6
CONTINUOUS
 62
   249
 10
262.244756
 20
67.99
 30
0.0
 70
    64
  0
VERTEX
  8
0
  6
CONTINUOUS
 62
   249
 10
262.258476
 20
67.99
 30
0.0
 70
    64
  0
VERTEX
  8
0
  6
CONTINUOUS
 62
   249
 10
262.272196
 20
67.99
 30
0.0
 70
    64
  0
VERTEX
  8
0
  6
CONTINUOUS
 62
   249
 10
262.285916
 20
67.99
 30
0.0
 70
    64
  0
VERTEX
  8
0
  6
CONTINUOUS
 62
   249
 10
262.299636
 20
67.99
 30
0.0
 70
    64
  0
VERTEX
  8
0
  6
CONTINUOUS
 62
   249
 10
262.313356
 20
67.99
 30
0.0
 70
    64
  0
VERTEX
  8
0
  6
CONTINUOUS
 62
   249
 10
262.327076
 20
67.99
 30
0.0
 70
    64
  0
VERTEX
  8
0
  6
CONTINUOUS
 62
   249
 10
262.340796
 20
67.99
 30
0.0
 70
    64
  0
VERTEX
  8
0
  6
CONTINUOUS
 62
   249
 10
262.354516
 20
67.99
 30
0.0
 70
    64
  0
VERTEX
  8
0
  6
CONTINUOUS
 62
   249
 10
262.368236
 20
67.99
 30
0.0
 70
    64
  0
VERTEX
  8
0
  6
CONTINUOUS
 62
   249
 10
262.381956
 20
67.99
 30
0.0
 70
    64
  0
VERTEX
  8
0
  6
CONTINUOUS
 62
   249
 10
262.395676
 20
67.99
 30
0.0
 70
    64
  0
VERTEX
  8
0
  6
CONTINUOUS
 62
   249
 10
262.409396
 20
67.99
 30
0.0
 70
    64
  0
VERTEX
  8
0
  6
CONTINUOUS
 62
   249
 10
262.423116
 20
67.99
 30
0.0
 70
    64
  0
VERTEX
  8
0
  6
CONTINUOUS
 62
   249
 10
262.436836
 20
67.99
 30
0.0
 70
    64
  0
VERTEX
  8
0
  6
CONTINUOUS
 62
   249
 10
262.450556
 20
67.99
 30
0.0
 70
    64
  0
VERTEX
  8
0
  6
CONTINUOUS
 62
   249
 10
262.464276
 20
67.99
 30
0.0
 70
    64
  0
VERTEX
  8
0
  6
CONTINUOUS
 62
   249
 10
262.477996
 20
67.99
 30
0.0
 70
    64
  0
VERTEX
  8
0
  6
CONTINUOUS
 62
   249
 10
262.491716
 20
67.99
 30
0.0
 70
    64
  0
VERTEX
  8
0
  6
CONTINUOUS
 62
   249
 10
262.505436
 20
67.99
 30
0.0
 70
    64
  0
VERTEX
  8
0
  6
CONTINUOUS
 62
   249
 10
262.519156
 20
67.99
 30
0.0
 70
    64
  0
VERTEX
  8
0
  6
CONTINUOUS
 62
   249
 10
262.532876
 20
67.99
 30
0.0
 70
    64
  0
VERTEX
  8
0
  6
CONTINUOUS
 62
   249
 10
262.546596
 20
67.99
 30
0.0
 70
    64
  0
VERTEX
  8
0
  6
CONTINUOUS
 62
   249
 10
262.560316
 20
67.99
 30
0.0
 70
    64
  0
VERTEX
  8
0
  6
CONTINUOUS
 62
   249
 10
262.574036
 20
67.99
 30
0.0
 70
    64
  0
VERTEX
  8
0
  6
CONTINUOUS
 62
   249
 10
262.587756
 20
67.99
 30
0.0
 70
    64
  0
VERTEX
  8
0
  6
CONTINUOUS
 62
   249
 10
262.601476
 20
67.99
 30
0.0
 70
    64
  0
VERTEX
  8
0
  6
CONTINUOUS
 62
   249
 10
262.615196
 20
67.99
 30
0.0
 70
    64
  0
VERTEX
  8
0
  6
CONTINUOUS
 62
   249
 10
262.628916
 20
67.99
 30
0.0
 70
    64
  0
VERTEX
  8
0
  6
CONTINUOUS
 62
   249
 10
262.642636
 20
67.99
 30
0.0
 70
    64
  0
VERTEX
  8
0
  6
CONTINUOUS
 62
   249
 10
262.656356
 20
67.99
 30
0.0
 70
    64
  0
VERTEX
  8
0
  6
CONTINUOUS
 62
   249
 10
262.670076
 20
67.99
 30
0.0
 70
    64
  0
VERTEX
  8
0
  6
CONTINUOUS
 62
   249
 10
262.683796
 20
67.99
 30
0.0
 70
    64
  0
VERTEX
  8
0
  6
CONTINUOUS
 62
   249
 10
262.697516
 20
67.99
 30
0.0
 70
    64
  0
VERTEX
  8
0
  6
CONTINUOUS
 62
   249
 10
262.711236
 20
67.99
 30
0.0
 70
    64
  0
VERTEX
  8
0
  6
CONTINUOUS
 62
   249
 10
262.724956
 20
67.99
 30
0.0
 70
    64
  0
VERTEX
  8
0
  6
CONTINUOUS
 62
   249
 10
262.738676
 20
67.99
 30
0.0
 70
    64
  0
VERTEX
  8
0
  6
CONTINUOUS
 62
   249
 10
262.752396
 20
67.99
 30
0.0
 70
    64
  0
VERTEX
  8
0
  6
CONTINUOUS
 62
   249
 10
262.766116
 20
67.99
 30
0.0
 70
    64
  0
VERTEX
  8
0
  6
CONTINUOUS
 62
   249
 10
262.779836
 20
67.99
 30
0.0
 70
    64
  0
VERTEX
  8
0
  6
CONTINUOUS
 62
   249
 10
262.793556
 20
67.99
 30
0.0
 70
    64
  0
VERTEX
  8
0
  6
CONTINUOUS
 62
   249
 10
262.807276
 20
67.99
 30
0.0
 70
    64
  0
VERTEX
  8
0
  6
CONTINUOUS
 62
   249
 10
262.820996
 20
67.99
 30
0.0
 70
    64
  0
VERTEX
  8
0
  6
CONTINUOUS
 62
   249
 10
262.834716
 20
67.99
 30
0.0
 70
    64
  0
VERTEX
  8
0
  6
CONTINUOUS
 62
   249
 10
262.848436
 20
67.99
 30
0.0
 70
    64
  0
VERTEX
  8
0
  6
CONTINUOUS
 62
   249
 10
262.862156
 20
67.99
 30
0.0
 70
    64
  0
VERTEX
  8
0
  6
CONTINUOUS
 62
   249
 10
262.875876
 20
67.99
 30
0.0
 70
    64
  0
VERTEX
  8
0
  6
CONTINUOUS
 62
   249
 10
262.889596
 20
67.99
 30
0.0
 70
    64
  0
VERTEX
  8
0
  6
CONTINUOUS
 62
   249
 10
262.903316
 20
67.99
 30
0.0
 70
    64
  0
VERTEX
  8
0
  6
CONTINUOUS
 62
   249
 10
262.917036
 20
67.99
 30
0.0
 70
    64
  0
VERTEX
  8
0
  6
CONTINUOUS
 62
   249
 10
262.930756
 20
67.99
 30
0.0
 70
    64
  0
VERTEX
  8
0
  6
CONTINUOUS
 62
   249
 10
262.944476
 20
67.99
 30
0.0
 70
    64
  0
VERTEX
  8
0
  6
CONTINUOUS
 62
   249
 10
262.958196
 20
67.99
 30
0.0
 70
    64
  0
VERTEX
  8
0
  6
CONTINUOUS
 62
   249
 10
262.971916
 20
67.99
 30
0.0
 70
    64
  0
VERTEX
  8
0
  6
CONTINUOUS
 62
   249
 10
262.985636
 20
67.99
 30
0.0
 70
    64
  0
VERTEX
  8
0
  6
CONTINUOUS
 62
   249
 10
262.999356
 20
67.99
 30
0.0
 70
    64
  0
VERTEX
  8
0
  6
CONTINUOUS
 62
   249
 10
263.013076
 20
67.99
 30
0.0
 70
    64
  0
VERTEX
  8
0
  6
CONTINUOUS
 62
   249
 10
263.026796
 20
67.99
 30
0.0
 70
    64
  0
VERTEX
  8
0
  6
CONTINUOUS
 62
   249
 10
263.040516
 20
67.99
 30
0.0
 70
    64
  0
VERTEX
  8
0
  6
CONTINUOUS
 62
   249
 10
263.054236
 20
67.99
 30
0.0
 70
    64
  0
VERTEX
  8
0
  6
CONTINUOUS
 62
   249
 10
263.067956
 20
67.99
 30
0.0
 70
    64
  0
VERTEX
  8
0
  6
CONTINUOUS
 62
   249
 10
263.081676
 20
67.99
 30
0.0
 70
    64
  0
VERTEX
  8
0
  6
CONTINUOUS
 62
   249
 10
263.095396
 20
67.99
 30
0.0
 70
    64
  0
VERTEX
  8
0
  6
CONTINUOUS
 62
   249
 10
263.109116
 20
67.99
 30
0.0
 70
    64
  0
VERTEX
  8
0
  6
CONTINUOUS
 62
   249
 10
263.122836
 20
67.99
 30
0.0
 70
    64
  0
VERTEX
  8
0
  6
CONTINUOUS
 62
   249
 10
263.136556
 20
67.99
 30
0.0
 70
    64
  0
VERTEX
  8
0
  6
CONTINUOUS
 62
   249
 10
263.150276
 20
67.99
 30
0.0
 70
    64
  0
VERTEX
  8
0
  6
CONTINUOUS
 62
   249
 10
263.163996
 20
67.99
 30
0.0
 70
    64
  0
VERTEX
  8
0
  6
CONTINUOUS
 62
   249
 10
263.177716
 20
67.99
 30
0.0
 70
    64
  0
VERTEX
  8
0
  6
CONTINUOUS
 62
   249
 10
263.191436
 20
67.99
 30
0.0
 70
    64
  0
VERTEX
  8
0
  6
CONTINUOUS
 62
   249
 10
263.205156
 20
67.99
 30
0.0
 70
    64
  0
VERTEX
  8
0
  6
CONTINUOUS
 62
   249
 10
263.218876
 20
67.99
 30
0.0
 70
    64
  0
VERTEX
  8
0
  6
CONTINUOUS
 62
   249
 10
263.232596
 20
67.99
 30
0.0
 70
    64
  0
VERTEX
  8
0
  6
CONTINUOUS
 62
   249
 10
263.246316
 20
67.99
 30
0.0
 70
    64
  0
VERTEX
  8
0
  6
CONTINUOUS
 62
   249
 10
263.260036
 20
67.99
 30
0.0
 70
    64
  0
VERTEX
  8
0
  6
CONTINUOUS
 62
   249
 10
263.273756
 20
67.99
 30
0.0
 70
    64
  0
VERTEX
  8
0
  6
CONTINUOUS
 62
   249
 10
263.287476
 20
67.99
 30
0.0
 70
    64
  0
VERTEX
  8
0
  6
CONTINUOUS
 62
   249
 10
263.301196
 20
67.99
 30
0.0
 70
    64
  0
VERTEX
  8
0
  6
CONTINUOUS
 62
   249
 10
263.314916
 20
67.99
 30
0.0
 70
    64
  0
VERTEX
  8
0
  6
CONTINUOUS
 62
   249
 10
263.328636
 20
67.99
 30
0.0
 70
    64
  0
VERTEX
  8
0
  6
CONTINUOUS
 62
   249
 10
263.342356
 20
67.99
 30
0.0
 70
    64
  0
VERTEX
  8
0
  6
CONTINUOUS
 62
   249
 10
263.356076
 20
67.99
 30
0.0
 70
    64
  0
VERTEX
  8
0
  6
CONTINUOUS
 62
   249
 10
263.369796
 20
67.99
 30
0.0
 70
    64
  0
VERTEX
  8
0
  6
CONTINUOUS
 62
   249
 10
263.383516
 20
67.99
 30
0.0
 70
    64
  0
VERTEX
  8
0
  6
CONTINUOUS
 62
   249
 10
263.397236
 20
67.99
 30
0.0
 70
    64
  0
VERTEX
  8
0
  6
CONTINUOUS
 62
   249
 10
263.410956
 20
67.99
 30
0.0
 70
    64
  0
VERTEX
  8
0
  6
CONTINUOUS
 62
   249
 10
263.424676
 20
67.99
 30
0.0
 70
    64
  0
VERTEX
  8
0
  6
CONTINUOUS
 62
   249
 10
263.438396
 20
67.99
 30
0.0
 70
    64
  0
VERTEX
  8
0
  6
CONTINUOUS
 62
   249
 10
263.452116
 20
67.99
 30
0.0
 70
    64
  0
VERTEX
  8
0
  6
CONTINUOUS
 62
   249
 10
263.465836
 20
67.99
 30
0.0
 70
    64
  0
VERTEX
  8
0
  6
CONTINUOUS
 62
   249
 10
263.479556
 20
67.99
 30
0.0
 70
    64
  0
VERTEX
  8
0
  6
CONTINUOUS
 62
   249
 10
263.493276
 20
67.99
 30
0.0
 70
    64
  0
VERTEX
  8
0
  6
CONTINUOUS
 62
   249
 10
263.506996
 20
67.99
 30
0.0
 70
    64
  0
VERTEX
  8
0
  6
CONTINUOUS
 62
   249
 10
263.520716
 20
67.99
 30
0.0
 70
    64
  0
VERTEX
  8
0
  6
CONTINUOUS
 62
   249
 10
263.534436
 20
67.99
 30
0.0
 70
    64
  0
VERTEX
  8
0
  6
CONTINUOUS
 62
   249
 10
263.548156
 20
67.99
 30
0.0
 70
    64
  0
VERTEX
  8
0
  6
CONTINUOUS
 62
   249
 10
263.561876
 20
67.99
 30
0.0
 70
    64
  0
VERTEX
  8
0
  6
CONTINUOUS
 62
   249
 10
263.575596
 20
67.99
 30
0.0
 70
    64
  0
VERTEX
  8
0
  6
CONTINUOUS
 62
   249
 10
263.589316
 20
67.99
 30
0.0
 70
    64
  0
VERTEX
  8
0
  6
CONTINUOUS
 62
   249
 10
263.603036
 20
67.99
 30
0.0
 70
    64
  0
VERTEX
  8
0
  6
CONTINUOUS
 62
   249
 10
263.616756
 20
67.99
 30
0.0
 70
    64
  0
VERTEX
  8
0
  6
CONTINUOUS
 62
   249
 10
263.630476
 20
67.99
 30
0.0
 70
    64
  0
VERTEX
  8
0
  6
CONTINUOUS
 62
   249
 10
263.644196
 20
67.99
 30
0.0
 70
    64
  0
VERTEX
  8
0
  6
CONTINUOUS
 62
   249
 10
263.657916
 20
67.99
 30
0.0
 70
    64
  0
VERTEX
  8
0
  6
CONTINUOUS
 62
   249
 10
263.671636
 20
67.99
 30
0.0
 70
    64
  0
VERTEX
  8
0
  6
CONTINUOUS
 62
   249
 10
263.685356
 20
67.99
 30
0.0
 70
    64
  0
VERTEX
  8
0
  6
CONTINUOUS
 62
   249
 10
263.699076
 20
67.99
 30
0.0
 70
    64
  0
VERTEX
  8
0
  6
CONTINUOUS
 62
   249
 10
263.712796
 20
67.99
 30
0.0
 70
    64
  0
VERTEX
  8
0
  6
CONTINUOUS
 62
   249
 10
263.726516
 20
67.99
 30
0.0
 70
    64
  0
VERTEX
  8
0
  6
CONTINUOUS
 62
   249
 10
263.740236
 20
67.99
 30
0.0
 70
    64
  0
VERTEX
  8
0
  6
CONTINUOUS
 62
   249
 10
263.753956
 20
67.99
 30
0.0
 70
    64
  0
VERTEX
  8
0
  6
CONTINUOUS
 62
   249
 10
263.767676
 20
67.99
 30
0.0
 70
    64
  0
VERTEX
  8
0
  6
CONTINUOUS
 62
   249
 10
263.781396
 20
67.99
 30
0.0
 70
    64
  0
VERTEX
  8
0
  6
CONTINUOUS
 62
   249
 10
263.795116
 20
67.99
 30
0.0
 70
    64
  0
VERTEX
  8
0
  6
CONTINUOUS
 62
   249
 10
263.808836
 20
67.99
 30
0.0
 70
    64
  0
VERTEX
  8
0
  6
CONTINUOUS
 62
   249
 10
263.822556
 20
67.99
 30
0.0
 70
    64
  0
VERTEX
  8
0
  6
CONTINUOUS
 62
   249
 10
263.836276
 20
67.99
 30
0.0
 70
    64
  0
VERTEX
  8
0
  6
CONTINUOUS
 62
   249
 10
263.849996
 20
67.99
 30
0.0
 70
    64
  0
VERTEX
  8
0
  6
CONTINUOUS
 62
   249
 10
263.863716
 20
67.99
 30
0.0
 70
    64
  0
VERTEX
  8
0
  6
CONTINUOUS
 62
   249
 10
263.877436
 20
67.99
 30
0.0
 70
    64
  0
VERTEX
  8
0
  6
CONTINUOUS
 62
   249
 10
263.891156
 20
67.99
 30
0.0
 70
    64
  0
VERTEX
  8
0
  6
CONTINUOUS
 62
   249
 10
263.904876
 20
67.99
 30
0.0
 70
    64
  0
VERTEX
  8
0
  6
CONTINUOUS
 62
   249
 10
263.918596
 20
67.99
 30
0.0
 70
    64
  0
VERTEX
  8
0
  6
CONTINUOUS
 62
   249
 10
263.932316
 20
67.99
 30
0.0
 70
    64
  0
VERTEX
  8
0
  6
CONTINUOUS
 62
   249
 10
263.946036
 20
67.99
 30
0.0
 70
    64
  0
VERTEX
  8
0
  6
CONTINUOUS
 62
   249
 10
263.959756
 20
67.99
 30
0.0
 70
    64
  0
VERTEX
  8
0
  6
CONTINUOUS
 62
   249
 10
263.973476
 20
67.99
 30
0.0
 70
    64
  0
VERTEX
  8
0
  6
CONTINUOUS
 62
   249
 10
263.987196
 20
67.99
 30
0.0
 70
    64
  0
VERTEX
  8
0
  6
CONTINUOUS
 62
   249
 10
264.000916
 20
67.99
 30
0.0
 70
    64
  0
VERTEX
  8
0
  6
CONTINUOUS
 62
   249
 10
264.014636
 20
67.99
 30
0.0
 70
    64
  0
VERTEX
  8
0
  6
CONTINUOUS
 62
   249
 10
264.028356
 20
67.99
 30
0.0
 70
    64
  0
VERTEX
  8
0
  6
CONTINUOUS
 62
   249
 10
264.042076
 20
67.99
 30
0.0
 70
    64
  0
VERTEX
  8
0
  6
CONTINUOUS
 62
   249
 10
264.055796
 20
67.99
 30
0.0
 70
    64
  0
VERTEX
  8
0
  6
CONTINUOUS
 62
   249
 10
264.069516
 20
67.99
 30
0.0
 70
    64
  0
VERTEX
  8
0
  6
CONTINUOUS
 62
   249
 10
264.083236
 20
67.99
 30
0.0
 70
    64
  0
VERTEX
  8
0
  6
CONTINUOUS
 62
   249
 10
264.096956
 20
67.99
 30
0.0
 70
    64
  0
VERTEX
  8
0
  6
CONTINUOUS
 62
   249
 10
264.110676
 20
67.99
 30
0.0
 70
    64
  0
VERTEX
  8
0
  6
CONTINUOUS
 62
   249
 10
264.124396
 20
67.99
 30
0.0
 70
    64
  0
VERTEX
  8
0
  6
CONTINUOUS
 62
   249
 10
264.138116
 20
67.99
 30
0.0
 70
    64
  0
VERTEX
  8
0
  6
CONTINUOUS
 62
   249
 10
264.151836
 20
67.99
 30
0.0
 70
    64
  0
VERTEX
  8
0
  6
CONTINUOUS
 62
   249
 10
264.165556
 20
67.99
 30
0.0
 70
    64
  0
VERTEX
  8
0
  6
CONTINUOUS
 62
   249
 10
264.179276
 20
67.99
 30
0.0
 70
    64
  0
VERTEX
  8
0
  6
CONTINUOUS
 62
   249
 10
264.192996
 20
67.99
 30
0.0
 70
    64
  0
VERTEX
  8
0
  6
CONTINUOUS
 62
   249
 10
264.206716
 20
67.99
 30
0.0
 70
    64
  0
VERTEX
  8
0
  6
CONTINUOUS
 62
   249
 10
264.220436
 20
67.99
 30
0.0
 70
    64
  0
VERTEX
  8
0
  6
CONTINUOUS
 62
   249
 10
264.234156
 20
67.99
 30
0.0
 70
    64
  0
VERTEX
  8
0
  6
CONTINUOUS
 62
   249
 10
264.247876
 20
67.99
 30
0.0
 70
    64
  0
VERTEX
  8
0
  6
CONTINUOUS
 62
   249
 10
264.261596
 20
67.99
 30
0.0
 70
    64
  0
VERTEX
  8
0
  6
CONTINUOUS
 62
   249
 10
264.275316
 20
67.99
 30
0.0
 70
    64
  0
VERTEX
  8
0
  6
CONTINUOUS
 62
   249
 10
264.289036
 20
67.99
 30
0.0
 70
    64
  0
VERTEX
  8
0
  6
CONTINUOUS
 62
   249
 10
264.302756
 20
67.99
 30
0.0
 70
    64
  0
VERTEX
  8
0
  6
CONTINUOUS
 62
   249
 10
264.316476
 20
67.99
 30
0.0
 70
    64
  0
VERTEX
  8
0
  6
CONTINUOUS
 62
   249
 10
264.330196
 20
67.99
 30
0.0
 70
    64
  0
VERTEX
  8
0
  6
CONTINUOUS
 62
   249
 10
264.343916
 20
67.99
 30
0.0
 70
    64
  0
VERTEX
  8
0
  6
CONTINUOUS
 62
   249
 10
264.357636
 20
67.99
 30
0.0
 70
    64
  0
VERTEX
  8
0
  6
CONTINUOUS
 62
   249
 10
264.371356
 20
67.99
 30
0.0
 70
    64
  0
VERTEX
  8
0
  6
CONTINUOUS
 62
   249
 10
264.385076
 20
67.99
 30
0.0
 70
    64
  0
VERTEX
  8
0
  6
CONTINUOUS
 62
   249
 10
264.398796
 20
67.99
 30
0.0
 70
    64
  0
VERTEX
  8
0
  6
CONTINUOUS
 62
   249
 10
264.412516
 20
67.99
 30
0.0
 70
    64
  0
VERTEX
  8
0
  6
CONTINUOUS
 62
   249
 10
264.426236
 20
67.99
 30
0.0
 70
    64
  0
VERTEX
  8
0
  6
CONTINUOUS
 62
   249
 10
264.439956
 20
67.99
 30
0.0
 70
    64
  0
VERTEX
  8
0
  6
CONTINUOUS
 62
   249
 10
264.453676
 20
67.99
 30
0.0
 70
    64
  0
VERTEX
  8
0
  6
CONTINUOUS
 62
   249
 10
264.467396
 20
67.99
 30
0.0
 70
    64
  0
VERTEX
  8
0
  6
CONTINUOUS
 62
   249
 10
264.481116
 20
67.99
 30
0.0
 70
    64
  0
VERTEX
  8
0
  6
CONTINUOUS
 62
   249
 10
264.494836
 20
67.99
 30
0.0
 70
    64
  0
VERTEX
  8
0
  6
CONTINUOUS
 62
   249
 10
264.508556
 20
67.99
 30
0.0
 70
    64
  0
VERTEX
  8
0
  6
CONTINUOUS
 62
   249
 10
264.522276
 20
67.99
 30
0.0
 70
    64
  0
VERTEX
  8
0
  6
CONTINUOUS
 62
   249
 10
264.535996
 20
67.99
 30
0.0
 70
    64
  0
VERTEX
  8
0
  6
CONTINUOUS
 62
   249
 10
264.549716
 20
67.99
 30
0.0
 70
    64
  0
VERTEX
  8
0
  6
CONTINUOUS
 62
   249
 10
264.563436
 20
67.99
 30
0.0
 70
    64
  0
VERTEX
  8
0
  6
CONTINUOUS
 62
   249
 10
264.577156
 20
67.99
 30
0.0
 70
    64
  0
VERTEX
  8
0
  6
CONTINUOUS
 62
   249
 10
264.590876
 20
67.99
 30
0.0
 70
    64
  0
VERTEX
  8
0
  6
CONTINUOUS
 62
   249
 10
264.604596
 20
67.99
 30
0.0
 70
    64
  0
VERTEX
  8
0
  6
CONTINUOUS
 62
   249
 10
264.618316
 20
67.99
 30
0.0
 70
    64
  0
VERTEX
  8
0
  6
CONTINUOUS
 62
   249
 10
264.632036
 20
67.99
 30
0.0
 70
    64
  0
VERTEX
  8
0
  6
CONTINUOUS
 62
   249
 10
264.645756
 20
67.99
 30
0.0
 70
    64
  0
VERTEX
  8
0
  6
CONTINUOUS
 62
   249
 10
264.659476
 20
67.99
 30
0.0
 70
    64
  0
VERTEX
  8
0
  6
CONTINUOUS
 62
   249
 10
264.673196
 20
67.99
 30
0.0
 70
    64
  0
VERTEX
  8
0
  6
CONTINUOUS
 62
   249
 10
264.686916
 20
67.99
 30
0.0
 70
    64
  0
VERTEX
  8
0
  6
CONTINUOUS
 62
   249
 10
264.700636
 20
67.99
 30
0.0
 70
    64
  0
VERTEX
  8
0
  6
CONTINUOUS
 62
   249
 10
264.714356
 20
67.99
 30
0.0
 70
    64
  0
VERTEX
  8
0
  6
CONTINUOUS
 62
   249
 10
264.728076
 20
67.99
 30
0.0
 70
    64
  0
VERTEX
  8
0
  6
CONTINUOUS
 62
   249
 10
264.741796
 20
67.99
 30
0.0
 70
    64
  0
VERTEX
  8
0
  6
CONTINUOUS
 62
   249
 10
264.755516
 20
67.99
 30
0.0
 70
    64
  0
VERTEX
  8
0
  6
CONTINUOUS
 62
   249
 10
264.769236
 20
67.99
 30
0.0
 70
    64
  0
VERTEX
  8
0
  6
CONTINUOUS
 62
   249
 10
264.782956
 20
67.99
 30
0.0
 70
    64
  0
VERTEX
  8
0
  6
CONTINUOUS
 62
   249
 10
264.796676
 20
67.99
 30
0.0
 70
    64
  0
VERTEX
  8
0
  6
CONTINUOUS
 62
   249
 10
264.810396
 20
67.99
 30
0.0
 70
    64
  0
VERTEX
  8
0
  6
CONTINUOUS
 62
   249
 10
264.824116
 20
67.99
 30
0.0
 70
    64
  0
VERTEX
  8
0
  6
CONTINUOUS
 62
   249
 10
264.837836
 20
67.99
 30
0.0
 70
    64
  0
VERTEX
  8
0
  6
CONTINUOUS
 62
   249
 10
264.851556
 20
67.99
 30
0.0
 70
    64
  0
VERTEX
  8
0
  6
CONTINUOUS
 62
   249
 10
264.865276
 20
67.99
 30
0.0
 70
    64
  0
VERTEX
  8
0
  6
CONTINUOUS
 62
   249
 10
264.878996
 20
67.99
 30
0.0
 70
    64
  0
VERTEX
  8
0
  6
CONTINUOUS
 62
   249
 10
264.892716
 20
67.99
 30
0.0
 70
    64
  0
VERTEX
  8
0
  6
CONTINUOUS
 62
   249
 10
264.906436
 20
67.99
 30
0.0
 70
    64
  0
VERTEX
  8
0
  6
CONTINUOUS
 62
   249
 10
264.920156
 20
67.99
 30
0.0
 70
    64
  0
VERTEX
  8
0
  6
CONTINUOUS
 62
   249
 10
264.933876
 20
67.99
 30
0.0
 70
    64
  0
VERTEX
  8
0
  6
CONTINUOUS
 62
   249
 10
264.947596
 20
67.99
 30
0.0
 70
    64
  0
VERTEX
  8
0
  6
CONTINUOUS
 62
   249
 10
264.961316
 20
67.99
 30
0.0
 70
    64
  0
VERTEX
  8
0
  6
CONTINUOUS
 62
   249
 10
264.975036
 20
67.99
 30
0.0
 70
    64
  0
VERTEX
  8
0
  6
CONTINUOUS
 62
   249
 10
264.988756
 20
67.99
 30
0.0
 70
    64
  0
VERTEX
  8
0
  6
CONTINUOUS
 62
   249
 10
265.002476
 20
67.99
 30
0.0
 70
    64
  0
VERTEX
  8
0
  6
CONTINUOUS
 62
   249
 10
265.016196
 20
67.99
 30
0.0
 70
    64
  0
VERTEX
  8
0
  6
CONTINUOUS
 62
   249
 10
265.029916
 20
67.99
 30
0.0
 70
    64
  0
VERTEX
  8
0
  6
CONTINUOUS
 62
   249
 10
265.043636
 20
67.99
 30
0.0
 70
    64
  0
VERTEX
  8
0
  6
CONTINUOUS
 62
   249
 10
265.057356
 20
67.99
 30
0.0
 70
    64
  0
VERTEX
  8
0
  6
CONTINUOUS
 62
   249
 10
265.071076
 20
67.99
 30
0.0
 70
    64
  0
VERTEX
  8
0
  6
CONTINUOUS
 62
   249
 10
265.084796
 20
67.99
 30
0.0
 70
    64
  0
VERTEX
  8
0
  6
CONTINUOUS
 62
   249
 10
265.098516
 20
67.99
 30
0.0
 70
    64
  0
VERTEX
  8
0
  6
CONTINUOUS
 62
   249
 10
265.112236
 20
67.99
 30
0.0
 70
    64
  0
VERTEX
  8
0
  6
CONTINUOUS
 62
   249
 10
265.125956
 20
67.99
 30
0.0
 70
    64
  0
VERTEX
  8
0
  6
CONTINUOUS
 62
   249
 10
265.139676
 20
67.99
 30
0.0
 70
    64
  0
VERTEX
  8
0
  6
CONTINUOUS
 62
   249
 10
265.153396
 20
67.99
 30
0.0
 70
    64
  0
VERTEX
  8
0
  6
CONTINUOUS
 62
   249
 10
265.167116
 20
67.99
 30
0.0
 70
    64
  0
VERTEX
  8
0
  6
CONTINUOUS
 62
   249
 10
265.180836
 20
67.99
 30
0.0
 70
    64
  0
VERTEX
  8
0
  6
CONTINUOUS
 62
   249
 10
265.194556
 20
67.99
 30
0.0
 70
    64
  0
VERTEX
  8
0
  6
CONTINUOUS
 62
   249
 10
265.208276
 20
67.99
 30
0.0
 70
    64
  0
VERTEX
  8
0
  6
CONTINUOUS
 62
   249
 10
265.221996
 20
67.99
 30
0.0
 70
    64
  0
VERTEX
  8
0
  6
CONTINUOUS
 62
   249
 10
265.235716
 20
67.99
 30
0.0
 70
    64
  0
VERTEX
  8
0
  6
CONTINUOUS
 62
   249
 10
265.249436
 20
67.99
 30
0.0
 70
    64
  0
SEQEND
  8
0
  6
CONTINUOUS
 62
   249
  0
LINE
  8
0
  6
DASHED
 62
   249
 10
265.0
 20
67.5
 30
0.0
 11
275.0
 21
67.5
 31
0.0
  0
ARC
  8
0
  6
CONTINUOUS
 62
   249
 10
262.5
 20
67.5
 30
0.0
 40
2.5
 50
90.0
 51
270.0
  0
ARC
  8
0
  6
CONTINUOUS
 62
   249
 10
277.5
 20
95.0
 30
0.0
 40
0.5
 50
180.0
 51
0.0
  0
ARC
  8
0
  6
CONTINUOUS
 62
   249
 10
277.5
 20
95.0
 30
0.0
 40
0.5
 50
0.0
 51
180.0
  0
LINE
  8
0
  6
CONTINUOUS
 62
   249
 10
261.819436
 20
125.49
 30
0.0
 11
261.819436
 21
124.51
 31
0.0
  0
LINE
  8
0
  6
CONTINUOUS
 62
   249
 10
261.819436
 20
124.51
 30
0.0
 11
265.249436
 21
124.51
 31
0.0
  0
LINE
  8
0
  6
CONTINUOUS
 62
   249
 10
265.249436
 20
124.51
 30
0.0
 11
265.249436
 21
125.49
 31
0.0
  0
LINE
  8
0
  6
CONTINUOUS
 62
   249
 10
265.249436
 20
125.49
 30
0.0
 11
261.819436
 21
125.49
 31
0.0
  0
POLYLINE
  8
0
  6
CONTINUOUS
 62
   249
 66
     1
 10
0.0
 20
0.0
 30
0.0
 70
    16
 71
     2
 72
   251
  0
VERTEX
  8
0
  6
CONTINUOUS
 62
   249
 10
261.819436
 20
124.51
 30
0.0
 70
    64
  0
VERTEX
  8
0
  6
CONTINUOUS
 62
   249
 10
261.833156
 20
124.51
 30
0.0
 70
    64
  0
VERTEX
  8
0
  6
CONTINUOUS
 62
   249
 10
261.846876
 20
124.51
 30
0.0
 70
    64
  0
VERTEX
  8
0
  6
CONTINUOUS
 62
   249
 10
261.860596
 20
124.51
 30
0.0
 70
    64
  0
VERTEX
  8
0
  6
CONTINUOUS
 62
   249
 10
261.874316
 20
124.51
 30
0.0
 70
    64
  0
VERTEX
  8
0
  6
CONTINUOUS
 62
   249
 10
261.888036
 20
124.51
 30
0.0
 70
    64
  0
VERTEX
  8
0
  6
CONTINUOUS
 62
   249
 10
261.901756
 20
124.51
 30
0.0
 70
    64
  0
VERTEX
  8
0
  6
CONTINUOUS
 62
   249
 10
261.915476
 20
124.51
 30
0.0
 70
    64
  0
VERTEX
  8
0
  6
CONTINUOUS
 62
   249
 10
261.929196
 20
124.51
 30
0.0
 70
    64
  0
VERTEX
  8
0
  6
CONTINUOUS
 62
   249
 10
261.942916
 20
124.51
 30
0.0
 70
    64
  0
VERTEX
  8
0
  6
CONTINUOUS
 62
   249
 10
261.956636
 20
124.51
 30
0.0
 70
    64
  0
VERTEX
  8
0
  6
CONTINUOUS
 62
   249
 10
261.970356
 20
124.51
 30
0.0
 70
    64
  0
VERTEX
  8
0
  6
CONTINUOUS
 62
   249
 10
261.984076
 20
124.51
 30
0.0
 70
    64
  0
VERTEX
  8
0
  6
CONTINUOUS
 62
   249
 10
261.997796
 20
124.51
 30
0.0
 70
    64
  0
VERTEX
  8
0
  6
CONTINUOUS
 62
   249
 10
262.011516
 20
124.51
 30
0.0
 70
    64
  0
VERTEX
  8
0
  6
CONTINUOUS
 62
   249
 10
262.025236
 20
124.51
 30
0.0
 70
    64
  0
VERTEX
  8
0
  6
CONTINUOUS
 62
   249
 10
262.038956
 20
124.51
 30
0.0
 70
    64
  0
VERTEX
  8
0
  6
CONTINUOUS
 62
   249
 10
262.052676
 20
124.51
 30
0.0
 70
    64
  0
VERTEX
  8
0
  6
CONTINUOUS
 62
   249
 10
262.066396
 20
124.51
 30
0.0
 70
    64
  0
VERTEX
  8
0
  6
CONTINUOUS
 62
   249
 10
262.080116
 20
124.51
 30
0.0
 70
    64
  0
VERTEX
  8
0
  6
CONTINUOUS
 62
   249
 10
262.093836
 20
124.51
 30
0.0
 70
    64
  0
VERTEX
  8
0
  6
CONTINUOUS
 62
   249
 10
262.107556
 20
124.51
 30
0.0
 70
    64
  0
VERTEX
  8
0
  6
CONTINUOUS
 62
   249
 10
262.121276
 20
124.51
 30
0.0
 70
    64
  0
VERTEX
  8
0
  6
CONTINUOUS
 62
   249
 10
262.134996
 20
124.51
 30
0.0
 70
    64
  0
VERTEX
  8
0
  6
CONTINUOUS
 62
   249
 10
262.148716
 20
124.51
 30
0.0
 70
    64
  0
VERTEX
  8
0
  6
CONTINUOUS
 62
   249
 10
262.162436
 20
124.51
 30
0.0
 70
    64
  0
VERTEX
  8
0
  6
CONTINUOUS
 62
   249
 10
262.176156
 20
124.51
 30
0.0
 70
    64
  0
VERTEX
  8
0
  6
CONTINUOUS
 62
   249
 10
262.189876
 20
124.51
 30
0.0
 70
    64
  0
VERTEX
  8
0
  6
CONTINUOUS
 62
   249
 10
262.203596
 20
124.51
 30
0.0
 70
    64
  0
VERTEX
  8
0
  6
CONTINUOUS
 62
   249
 10
262.217316
 20
124.51
 30
0.0
 70
    64
  0
VERTEX
  8
0
  6
CONTINUOUS
 62
   249
 10
262.231036
 20
124.51
 30
0.0
 70
    64
  0
VERTEX
  8
0
  6
CONTINUOUS
 62
   249
 10
262.244756
 20
124.51
 30
0.0
 70
    64
  0
VERTEX
  8
0
  6
CONTINUOUS
 62
   249
 10
262.258476
 20
124.51
 30
0.0
 70
    64
  0
VERTEX
  8
0
  6
CONTINUOUS
 62
   249
 10
262.272196
 20
124.51
 30
0.0
 70
    64
  0
VERTEX
  8
0
  6
CONTINUOUS
 62
   249
 10
262.285916
 20
124.51
 30
0.0
 70
    64
  0
VERTEX
  8
0
  6
CONTINUOUS
 62
   249
 10
262.299636
 20
124.51
 30
0.0
 70
    64
  0
VERTEX
  8
0
  6
CONTINUOUS
 62
   249
 10
262.313356
 20
124.51
 30
0.0
 70
    64
  0
VERTEX
  8
0
  6
CONTINUOUS
 62
   249
 10
262.327076
 20
124.51
 30
0.0
 70
    64
  0
VERTEX
  8
0
  6
CONTINUOUS
 62
   249
 10
262.340796
 20
124.51
 30
0.0
 70
    64
  0
VERTEX
  8
0
  6
CONTINUOUS
 62
   249
 10
262.354516
 20
124.51
 30
0.0
 70
    64
  0
VERTEX
  8
0
  6
CONTINUOUS
 62
   249
 10
262.368236
 20
124.51
 30
0.0
 70
    64
  0
VERTEX
  8
0
  6
CONTINUOUS
 62
   249
 10
262.381956
 20
124.51
 30
0.0
 70
    64
  0
VERTEX
  8
0
  6
CONTINUOUS
 62
   249
 10
262.395676
 20
124.51
 30
0.0
 70
    64
  0
VERTEX
  8
0
  6
CONTINUOUS
 62
   249
 10
262.409396
 20
124.51
 30
0.0
 70
    64
  0
VERTEX
  8
0
  6
CONTINUOUS
 62
   249
 10
262.423116
 20
124.51
 30
0.0
 70
    64
  0
VERTEX
  8
0
  6
CONTINUOUS
 62
   249
 10
262.436836
 20
124.51
 30
0.0
 70
    64
  0
VERTEX
  8
0
  6
CONTINUOUS
 62
   249
 10
262.450556
 20
124.51
 30
0.0
 70
    64
  0
VERTEX
  8
0
  6
CONTINUOUS
 62
   249
 10
262.464276
 20
124.51
 30
0.0
 70
    64
  0
VERTEX
  8
0
  6
CONTINUOUS
 62
   249
 10
262.477996
 20
124.51
 30
0.0
 70
    64
  0
VERTEX
  8
0
  6
CONTINUOUS
 62
   249
 10
262.491716
 20
124.51
 30
0.0
 70
    64
  0
VERTEX
  8
0
  6
CONTINUOUS
 62
   249
 10
262.505436
 20
124.51
 30
0.0
 70
    64
  0
VERTEX
  8
0
  6
CONTINUOUS
 62
   249
 10
262.519156
 20
124.51
 30
0.0
 70
    64
  0
VERTEX
  8
0
  6
CONTINUOUS
 62
   249
 10
262.532876
 20
124.51
 30
0.0
 70
    64
  0
VERTEX
  8
0
  6
CONTINUOUS
 62
   249
 10
262.546596
 20
124.51
 30
0.0
 70
    64
  0
VERTEX
  8
0
  6
CONTINUOUS
 62
   249
 10
262.560316
 20
124.51
 30
0.0
 70
    64
  0
VERTEX
  8
0
  6
CONTINUOUS
 62
   249
 10
262.574036
 20
124.51
 30
0.0
 70
    64
  0
VERTEX
  8
0
  6
CONTINUOUS
 62
   249
 10
262.587756
 20
124.51
 30
0.0
 70
    64
  0
VERTEX
  8
0
  6
CONTINUOUS
 62
   249
 10
262.601476
 20
124.51
 30
0.0
 70
    64
  0
VERTEX
  8
0
  6
CONTINUOUS
 62
   249
 10
262.615196
 20
124.51
 30
0.0
 70
    64
  0
VERTEX
  8
0
  6
CONTINUOUS
 62
   249
 10
262.628916
 20
124.51
 30
0.0
 70
    64
  0
VERTEX
  8
0
  6
CONTINUOUS
 62
   249
 10
262.642636
 20
124.51
 30
0.0
 70
    64
  0
VERTEX
  8
0
  6
CONTINUOUS
 62
   249
 10
262.656356
 20
124.51
 30
0.0
 70
    64
  0
VERTEX
  8
0
  6
CONTINUOUS
 62
   249
 10
262.670076
 20
124.51
 30
0.0
 70
    64
  0
VERTEX
  8
0
  6
CONTINUOUS
 62
   249
 10
262.683796
 20
124.51
 30
0.0
 70
    64
  0
VERTEX
  8
0
  6
CONTINUOUS
 62
   249
 10
262.697516
 20
124.51
 30
0.0
 70
    64
  0
VERTEX
  8
0
  6
CONTINUOUS
 62
   249
 10
262.711236
 20
124.51
 30
0.0
 70
    64
  0
VERTEX
  8
0
  6
CONTINUOUS
 62
   249
 10
262.724956
 20
124.51
 30
0.0
 70
    64
  0
VERTEX
  8
0
  6
CONTINUOUS
 62
   249
 10
262.738676
 20
124.51
 30
0.0
 70
    64
  0
VERTEX
  8
0
  6
CONTINUOUS
 62
   249
 10
262.752396
 20
124.51
 30
0.0
 70
    64
  0
VERTEX
  8
0
  6
CONTINUOUS
 62
   249
 10
262.766116
 20
124.51
 30
0.0
 70
    64
  0
VERTEX
  8
0
  6
CONTINUOUS
 62
   249
 10
262.779836
 20
124.51
 30
0.0
 70
    64
  0
VERTEX
  8
0
  6
CONTINUOUS
 62
   249
 10
262.793556
 20
124.51
 30
0.0
 70
    64
  0
VERTEX
  8
0
  6
CONTINUOUS
 62
   249
 10
262.807276
 20
124.51
 30
0.0
 70
    64
  0
VERTEX
  8
0
  6
CONTINUOUS
 62
   249
 10
262.820996
 20
124.51
 30
0.0
 70
    64
  0
VERTEX
  8
0
  6
CONTINUOUS
 62
   249
 10
262.834716
 20
124.51
 30
0.0
 70
    64
  0
VERTEX
  8
0
  6
CONTINUOUS
 62
   249
 10
262.848436
 20
124.51
 30
0.0
 70
    64
  0
VERTEX
  8
0
  6
CONTINUOUS
 62
   249
 10
262.862156
 20
124.51
 30
0.0
 70
    64
  0
VERTEX
  8
0
  6
CONTINUOUS
 62
   249
 10
262.875876
 20
124.51
 30
0.0
 70
    64
  0
VERTEX
  8
0
  6
CONTINUOUS
 62
   249
 10
262.889596
 20
124.51
 30
0.0
 70
    64
  0
VERTEX
  8
0
  6
CONTINUOUS
 62
   249
 10
262.903316
 20
124.51
 30
0.0
 70
    64
  0
VERTEX
  8
0
  6
CONTINUOUS
 62
   249
 10
262.917036
 20
124.51
 30
0.0
 70
    64
  0
VERTEX
  8
0
  6
CONTINUOUS
 62
   249
 10
262.930756
 20
124.51
 30
0.0
 70
    64
  0
VERTEX
  8
0
  6
CONTINUOUS
 62
   249
 10
262.944476
 20
124.51
 30
0.0
 70
    64
  0
VERTEX
  8
0
  6
CONTINUOUS
 62
   249
 10
262.958196
 20
124.51
 30
0.0
 70
    64
  0
VERTEX
  8
0
  6
CONTINUOUS
 62
   249
 10
262.971916
 20
124.51
 30
0.0
 70
    64
  0
VERTEX
  8
0
  6
CONTINUOUS
 62
   249
 10
262.985636
 20
124.51
 30
0.0
 70
    64
  0
VERTEX
  8
0
  6
CONTINUOUS
 62
   249
 10
262.999356
 20
124.51
 30
0.0
 70
    64
  0
VERTEX
  8
0
  6
CONTINUOUS
 62
   249
 10
263.013076
 20
124.51
 30
0.0
 70
    64
  0
VERTEX
  8
0
  6
CONTINUOUS
 62
   249
 10
263.026796
 20
124.51
 30
0.0
 70
    64
  0
VERTEX
  8
0
  6
CONTINUOUS
 62
   249
 10
263.040516
 20
124.51
 30
0.0
 70
    64
  0
VERTEX
  8
0
  6
CONTINUOUS
 62
   249
 10
263.054236
 20
124.51
 30
0.0
 70
    64
  0
VERTEX
  8
0
  6
CONTINUOUS
 62
   249
 10
263.067956
 20
124.51
 30
0.0
 70
    64
  0
VERTEX
  8
0
  6
CONTINUOUS
 62
   249
 10
263.081676
 20
124.51
 30
0.0
 70
    64
  0
VERTEX
  8
0
  6
CONTINUOUS
 62
   249
 10
263.095396
 20
124.51
 30
0.0
 70
    64
  0
VERTEX
  8
0
  6
CONTINUOUS
 62
   249
 10
263.109116
 20
124.51
 30
0.0
 70
    64
  0
VERTEX
  8
0
  6
CONTINUOUS
 62
   249
 10
263.122836
 20
124.51
 30
0.0
 70
    64
  0
VERTEX
  8
0
  6
CONTINUOUS
 62
   249
 10
263.136556
 20
124.51
 30
0.0
 70
    64
  0
VERTEX
  8
0
  6
CONTINUOUS
 62
   249
 10
263.150276
 20
124.51
 30
0.0
 70
    64
  0
VERTEX
  8
0
  6
CONTINUOUS
 62
   249
 10
263.163996
 20
124.51
 30
0.0
 70
    64
  0
VERTEX
  8
0
  6
CONTINUOUS
 62
   249
 10
263.177716
 20
124.51
 30
0.0
 70
    64
  0
VERTEX
  8
0
  6
CONTINUOUS
 62
   249
 10
263.191436
 20
124.51
 30
0.0
 70
    64
  0
VERTEX
  8
0
  6
CONTINUOUS
 62
   249
 10
263.205156
 20
124.51
 30
0.0
 70
    64
  0
VERTEX
  8
0
  6
CONTINUOUS
 62
   249
 10
263.218876
 20
124.51
 30
0.0
 70
    64
  0
VERTEX
  8
0
  6
CONTINUOUS
 62
   249
 10
263.232596
 20
124.51
 30
0.0
 70
    64
  0
VERTEX
  8
0
  6
CONTINUOUS
 62
   249
 10
263.246316
 20
124.51
 30
0.0
 70
    64
  0
VERTEX
  8
0
  6
CONTINUOUS
 62
   249
 10
263.260036
 20
124.51
 30
0.0
 70
    64
  0
VERTEX
  8
0
  6
CONTINUOUS
 62
   249
 10
263.273756
 20
124.51
 30
0.0
 70
    64
  0
VERTEX
  8
0
  6
CONTINUOUS
 62
   249
 10
263.287476
 20
124.51
 30
0.0
 70
    64
  0
VERTEX
  8
0
  6
CONTINUOUS
 62
   249
 10
263.301196
 20
124.51
 30
0.0
 70
    64
  0
VERTEX
  8
0
  6
CONTINUOUS
 62
   249
 10
263.314916
 20
124.51
 30
0.0
 70
    64
  0
VERTEX
  8
0
  6
CONTINUOUS
 62
   249
 10
263.328636
 20
124.51
 30
0.0
 70
    64
  0
VERTEX
  8
0
  6
CONTINUOUS
 62
   249
 10
263.342356
 20
124.51
 30
0.0
 70
    64
  0
VERTEX
  8
0
  6
CONTINUOUS
 62
   249
 10
263.356076
 20
124.51
 30
0.0
 70
    64
  0
VERTEX
  8
0
  6
CONTINUOUS
 62
   249
 10
263.369796
 20
124.51
 30
0.0
 70
    64
  0
VERTEX
  8
0
  6
CONTINUOUS
 62
   249
 10
263.383516
 20
124.51
 30
0.0
 70
    64
  0
VERTEX
  8
0
  6
CONTINUOUS
 62
   249
 10
263.397236
 20
124.51
 30
0.0
 70
    64
  0
VERTEX
  8
0
  6
CONTINUOUS
 62
   249
 10
263.410956
 20
124.51
 30
0.0
 70
    64
  0
VERTEX
  8
0
  6
CONTINUOUS
 62
   249
 10
263.424676
 20
124.51
 30
0.0
 70
    64
  0
VERTEX
  8
0
  6
CONTINUOUS
 62
   249
 10
263.438396
 20
124.51
 30
0.0
 70
    64
  0
VERTEX
  8
0
  6
CONTINUOUS
 62
   249
 10
263.452116
 20
124.51
 30
0.0
 70
    64
  0
VERTEX
  8
0
  6
CONTINUOUS
 62
   249
 10
263.465836
 20
124.51
 30
0.0
 70
    64
  0
VERTEX
  8
0
  6
CONTINUOUS
 62
   249
 10
263.479556
 20
124.51
 30
0.0
 70
    64
  0
VERTEX
  8
0
  6
CONTINUOUS
 62
   249
 10
263.493276
 20
124.51
 30
0.0
 70
    64
  0
VERTEX
  8
0
  6
CONTINUOUS
 62
   249
 10
263.506996
 20
124.51
 30
0.0
 70
    64
  0
VERTEX
  8
0
  6
CONTINUOUS
 62
   249
 10
263.520716
 20
124.51
 30
0.0
 70
    64
  0
VERTEX
  8
0
  6
CONTINUOUS
 62
   249
 10
263.534436
 20
124.51
 30
0.0
 70
    64
  0
VERTEX
  8
0
  6
CONTINUOUS
 62
   249
 10
263.548156
 20
124.51
 30
0.0
 70
    64
  0
VERTEX
  8
0
  6
CONTINUOUS
 62
   249
 10
263.561876
 20
124.51
 30
0.0
 70
    64
  0
VERTEX
  8
0
  6
CONTINUOUS
 62
   249
 10
263.575596
 20
124.51
 30
0.0
 70
    64
  0
VERTEX
  8
0
  6
CONTINUOUS
 62
   249
 10
263.589316
 20
124.51
 30
0.0
 70
    64
  0
VERTEX
  8
0
  6
CONTINUOUS
 62
   249
 10
263.603036
 20
124.51
 30
0.0
 70
    64
  0
VERTEX
  8
0
  6
CONTINUOUS
 62
   249
 10
263.616756
 20
124.51
 30
0.0
 70
    64
  0
VERTEX
  8
0
  6
CONTINUOUS
 62
   249
 10
263.630476
 20
124.51
 30
0.0
 70
    64
  0
VERTEX
  8
0
  6
CONTINUOUS
 62
   249
 10
263.644196
 20
124.51
 30
0.0
 70
    64
  0
VERTEX
  8
0
  6
CONTINUOUS
 62
   249
 10
263.657916
 20
124.51
 30
0.0
 70
    64
  0
VERTEX
  8
0
  6
CONTINUOUS
 62
   249
 10
263.671636
 20
124.51
 30
0.0
 70
    64
  0
VERTEX
  8
0
  6
CONTINUOUS
 62
   249
 10
263.685356
 20
124.51
 30
0.0
 70
    64
  0
VERTEX
  8
0
  6
CONTINUOUS
 62
   249
 10
263.699076
 20
124.51
 30
0.0
 70
    64
  0
VERTEX
  8
0
  6
CONTINUOUS
 62
   249
 10
263.712796
 20
124.51
 30
0.0
 70
    64
  0
VERTEX
  8
0
  6
CONTINUOUS
 62
   249
 10
263.726516
 20
124.51
 30
0.0
 70
    64
  0
VERTEX
  8
0
  6
CONTINUOUS
 62
   249
 10
263.740236
 20
124.51
 30
0.0
 70
    64
  0
VERTEX
  8
0
  6
CONTINUOUS
 62
   249
 10
263.753956
 20
124.51
 30
0.0
 70
    64
  0
VERTEX
  8
0
  6
CONTINUOUS
 62
   249
 10
263.767676
 20
124.51
 30
0.0
 70
    64
  0
VERTEX
  8
0
  6
CONTINUOUS
 62
   249
 10
263.781396
 20
124.51
 30
0.0
 70
    64
  0
VERTEX
  8
0
  6
CONTINUOUS
 62
   249
 10
263.795116
 20
124.51
 30
0.0
 70
    64
  0
VERTEX
  8
0
  6
CONTINUOUS
 62
   249
 10
263.808836
 20
124.51
 30
0.0
 70
    64
  0
VERTEX
  8
0
  6
CONTINUOUS
 62
   249
 10
263.822556
 20
124.51
 30
0.0
 70
    64
  0
VERTEX
  8
0
  6
CONTINUOUS
 62
   249
 10
263.836276
 20
124.51
 30
0.0
 70
    64
  0
VERTEX
  8
0
  6
CONTINUOUS
 62
   249
 10
263.849996
 20
124.51
 30
0.0
 70
    64
  0
VERTEX
  8
0
  6
CONTINUOUS
 62
   249
 10
263.863716
 20
124.51
 30
0.0
 70
    64
  0
VERTEX
  8
0
  6
CONTINUOUS
 62
   249
 10
263.877436
 20
124.51
 30
0.0
 70
    64
  0
VERTEX
  8
0
  6
CONTINUOUS
 62
   249
 10
263.891156
 20
124.51
 30
0.0
 70
    64
  0
VERTEX
  8
0
  6
CONTINUOUS
 62
   249
 10
263.904876
 20
124.51
 30
0.0
 70
    64
  0
VERTEX
  8
0
  6
CONTINUOUS
 62
   249
 10
263.918596
 20
124.51
 30
0.0
 70
    64
  0
VERTEX
  8
0
  6
CONTINUOUS
 62
   249
 10
263.932316
 20
124.51
 30
0.0
 70
    64
  0
VERTEX
  8
0
  6
CONTINUOUS
 62
   249
 10
263.946036
 20
124.51
 30
0.0
 70
    64
  0
VERTEX
  8
0
  6
CONTINUOUS
 62
   249
 10
263.959756
 20
124.51
 30
0.0
 70
    64
  0
VERTEX
  8
0
  6
CONTINUOUS
 62
   249
 10
263.973476
 20
124.51
 30
0.0
 70
    64
  0
VERTEX
  8
0
  6
CONTINUOUS
 62
   249
 10
263.987196
 20
124.51
 30
0.0
 70
    64
  0
VERTEX
  8
0
  6
CONTINUOUS
 62
   249
 10
264.000916
 20
124.51
 30
0.0
 70
    64
  0
VERTEX
  8
0
  6
CONTINUOUS
 62
   249
 10
264.014636
 20
124.51
 30
0.0
 70
    64
  0
VERTEX
  8
0
  6
CONTINUOUS
 62
   249
 10
264.028356
 20
124.51
 30
0.0
 70
    64
  0
VERTEX
  8
0
  6
CONTINUOUS
 62
   249
 10
264.042076
 20
124.51
 30
0.0
 70
    64
  0
VERTEX
  8
0
  6
CONTINUOUS
 62
   249
 10
264.055796
 20
124.51
 30
0.0
 70
    64
  0
VERTEX
  8
0
  6
CONTINUOUS
 62
   249
 10
264.069516
 20
124.51
 30
0.0
 70
    64
  0
VERTEX
  8
0
  6
CONTINUOUS
 62
   249
 10
264.083236
 20
124.51
 30
0.0
 70
    64
  0
VERTEX
  8
0
  6
CONTINUOUS
 62
   249
 10
264.096956
 20
124.51
 30
0.0
 70
    64
  0
VERTEX
  8
0
  6
CONTINUOUS
 62
   249
 10
264.110676
 20
124.51
 30
0.0
 70
    64
  0
VERTEX
  8
0
  6
CONTINUOUS
 62
   249
 10
264.124396
 20
124.51
 30
0.0
 70
    64
  0
VERTEX
  8
0
  6
CONTINUOUS
 62
   249
 10
264.138116
 20
124.51
 30
0.0
 70
    64
  0
VERTEX
  8
0
  6
CONTINUOUS
 62
   249
 10
264.151836
 20
124.51
 30
0.0
 70
    64
  0
VERTEX
  8
0
  6
CONTINUOUS
 62
   249
 10
264.165556
 20
124.51
 30
0.0
 70
    64
  0
VERTEX
  8
0
  6
CONTINUOUS
 62
   249
 10
264.179276
 20
124.51
 30
0.0
 70
    64
  0
VERTEX
  8
0
  6
CONTINUOUS
 62
   249
 10
264.192996
 20
124.51
 30
0.0
 70
    64
  0
VERTEX
  8
0
  6
CONTINUOUS
 62
   249
 10
264.206716
 20
124.51
 30
0.0
 70
    64
  0
VERTEX
  8
0
  6
CONTINUOUS
 62
   249
 10
264.220436
 20
124.51
 30
0.0
 70
    64
  0
VERTEX
  8
0
  6
CONTINUOUS
 62
   249
 10
264.234156
 20
124.51
 30
0.0
 70
    64
  0
VERTEX
  8
0
  6
CONTINUOUS
 62
   249
 10
264.247876
 20
124.51
 30
0.0
 70
    64
  0
VERTEX
  8
0
  6
CONTINUOUS
 62
   249
 10
264.261596
 20
124.51
 30
0.0
 70
    64
  0
VERTEX
  8
0
  6
CONTINUOUS
 62
   249
 10
264.275316
 20
124.51
 30
0.0
 70
    64
  0
VERTEX
  8
0
  6
CONTINUOUS
 62
   249
 10
264.289036
 20
124.51
 30
0.0
 70
    64
  0
VERTEX
  8
0
  6
CONTINUOUS
 62
   249
 10
264.302756
 20
124.51
 30
0.0
 70
    64
  0
VERTEX
  8
0
  6
CONTINUOUS
 62
   249
 10
264.316476
 20
124.51
 30
0.0
 70
    64
  0
VERTEX
  8
0
  6
CONTINUOUS
 62
   249
 10
264.330196
 20
124.51
 30
0.0
 70
    64
  0
VERTEX
  8
0
  6
CONTINUOUS
 62
   249
 10
264.343916
 20
124.51
 30
0.0
 70
    64
  0
VERTEX
  8
0
  6
CONTINUOUS
 62
   249
 10
264.357636
 20
124.51
 30
0.0
 70
    64
  0
VERTEX
  8
0
  6
CONTINUOUS
 62
   249
 10
264.371356
 20
124.51
 30
0.0
 70
    64
  0
VERTEX
  8
0
  6
CONTINUOUS
 62
   249
 10
264.385076
 20
124.51
 30
0.0
 70
    64
  0
VERTEX
  8
0
  6
CONTINUOUS
 62
   249
 10
264.398796
 20
124.51
 30
0.0
 70
    64
  0
VERTEX
  8
0
  6
CONTINUOUS
 62
   249
 10
264.412516
 20
124.51
 30
0.0
 70
    64
  0
VERTEX
  8
0
  6
CONTINUOUS
 62
   249
 10
264.426236
 20
124.51
 30
0.0
 70
    64
  0
VERTEX
  8
0
  6
CONTINUOUS
 62
   249
 10
264.439956
 20
124.51
 30
0.0
 70
    64
  0
VERTEX
  8
0
  6
CONTINUOUS
 62
   249
 10
264.453676
 20
124.51
 30
0.0
 70
    64
  0
VERTEX
  8
0
  6
CONTINUOUS
 62
   249
 10
264.467396
 20
124.51
 30
0.0
 70
    64
  0
VERTEX
  8
0
  6
CONTINUOUS
 62
   249
 10
264.481116
 20
124.51
 30
0.0
 70
    64
  0
VERTEX
  8
0
  6
CONTINUOUS
 62
   249
 10
264.494836
 20
124.51
 30
0.0
 70
    64
  0
VERTEX
  8
0
  6
CONTINUOUS
 62
   249
 10
264.508556
 20
124.51
 30
0.0
 70
    64
  0
VERTEX
  8
0
  6
CONTINUOUS
 62
   249
 10
264.522276
 20
124.51
 30
0.0
 70
    64
  0
VERTEX
  8
0
  6
CONTINUOUS
 62
   249
 10
264.535996
 20
124.51
 30
0.0
 70
    64
  0
VERTEX
  8
0
  6
CONTINUOUS
 62
   249
 10
264.549716
 20
124.51
 30
0.0
 70
    64
  0
VERTEX
  8
0
  6
CONTINUOUS
 62
   249
 10
264.563436
 20
124.51
 30
0.0
 70
    64
  0
VERTEX
  8
0
  6
CONTINUOUS
 62
   249
 10
264.577156
 20
124.51
 30
0.0
 70
    64
  0
VERTEX
  8
0
  6
CONTINUOUS
 62
   249
 10
264.590876
 20
124.51
 30
0.0
 70
    64
  0
VERTEX
  8
0
  6
CONTINUOUS
 62
   249
 10
264.604596
 20
124.51
 30
0.0
 70
    64
  0
VERTEX
  8
0
  6
CONTINUOUS
 62
   249
 10
264.618316
 20
124.51
 30
0.0
 70
    64
  0
VERTEX
  8
0
  6
CONTINUOUS
 62
   249
 10
264.632036
 20
124.51
 30
0.0
 70
    64
  0
VERTEX
  8
0
  6
CONTINUOUS
 62
   249
 10
264.645756
 20
124.51
 30
0.0
 70
    64
  0
VERTEX
  8
0
  6
CONTINUOUS
 62
   249
 10
264.659476
 20
124.51
 30
0.0
 70
    64
  0
VERTEX
  8
0
  6
CONTINUOUS
 62
   249
 10
264.673196
 20
124.51
 30
0.0
 70
    64
  0
VERTEX
  8
0
  6
CONTINUOUS
 62
   249
 10
264.686916
 20
124.51
 30
0.0
 70
    64
  0
VERTEX
  8
0
  6
CONTINUOUS
 62
   249
 10
264.700636
 20
124.51
 30
0.0
 70
    64
  0
VERTEX
  8
0
  6
CONTINUOUS
 62
   249
 10
264.714356
 20
124.51
 30
0.0
 70
    64
  0
VERTEX
  8
0
  6
CONTINUOUS
 62
   249
 10
264.728076
 20
124.51
 30
0.0
 70
    64
  0
VERTEX
  8
0
  6
CONTINUOUS
 62
   249
 10
264.741796
 20
124.51
 30
0.0
 70
    64
  0
VERTEX
  8
0
  6
CONTINUOUS
 62
   249
 10
264.755516
 20
124.51
 30
0.0
 70
    64
  0
VERTEX
  8
0
  6
CONTINUOUS
 62
   249
 10
264.769236
 20
124.51
 30
0.0
 70
    64
  0
VERTEX
  8
0
  6
CONTINUOUS
 62
   249
 10
264.782956
 20
124.51
 30
0.0
 70
    64
  0
VERTEX
  8
0
  6
CONTINUOUS
 62
   249
 10
264.796676
 20
124.51
 30
0.0
 70
    64
  0
VERTEX
  8
0
  6
CONTINUOUS
 62
   249
 10
264.810396
 20
124.51
 30
0.0
 70
    64
  0
VERTEX
  8
0
  6
CONTINUOUS
 62
   249
 10
264.824116
 20
124.51
 30
0.0
 70
    64
  0
VERTEX
  8
0
  6
CONTINUOUS
 62
   249
 10
264.837836
 20
124.51
 30
0.0
 70
    64
  0
VERTEX
  8
0
  6
CONTINUOUS
 62
   249
 10
264.851556
 20
124.51
 30
0.0
 70
    64
  0
VERTEX
  8
0
  6
CONTINUOUS
 62
   249
 10
264.865276
 20
124.51
 30
0.0
 70
    64
  0
VERTEX
  8
0
  6
CONTINUOUS
 62
   249
 10
264.878996
 20
124.51
 30
0.0
 70
    64
  0
VERTEX
  8
0
  6
CONTINUOUS
 62
   249
 10
264.892716
 20
124.51
 30
0.0
 70
    64
  0
VERTEX
  8
0
  6
CONTINUOUS
 62
   249
 10
264.906436
 20
124.51
 30
0.0
 70
    64
  0
VERTEX
  8
0
  6
CONTINUOUS
 62
   249
 10
264.920156
 20
124.51
 30
0.0
 70
    64
  0
VERTEX
  8
0
  6
CONTINUOUS
 62
   249
 10
264.933876
 20
124.51
 30
0.0
 70
    64
  0
VERTEX
  8
0
  6
CONTINUOUS
 62
   249
 10
264.947596
 20
124.51
 30
0.0
 70
    64
  0
VERTEX
  8
0
  6
CONTINUOUS
 62
   249
 10
264.961316
 20
124.51
 30
0.0
 70
    64
  0
VERTEX
  8
0
  6
CONTINUOUS
 62
   249
 10
264.975036
 20
124.51
 30
0.0
 70
    64
  0
VERTEX
  8
0
  6
CONTINUOUS
 62
   249
 10
264.988756
 20
124.51
 30
0.0
 70
    64
  0
VERTEX
  8
0
  6
CONTINUOUS
 62
   249
 10
265.002476
 20
124.51
 30
0.0
 70
    64
  0
VERTEX
  8
0
  6
CONTINUOUS
 62
   249
 10
265.016196
 20
124.51
 30
0.0
 70
    64
  0
VERTEX
  8
0
  6
CONTINUOUS
 62
   249
 10
265.029916
 20
124.51
 30
0.0
 70
    64
  0
VERTEX
  8
0
  6
CONTINUOUS
 62
   249
 10
265.043636
 20
124.51
 30
0.0
 70
    64
  0
VERTEX
  8
0
  6
CONTINUOUS
 62
   249
 10
265.057356
 20
124.51
 30
0.0
 70
    64
  0
VERTEX
  8
0
  6
CONTINUOUS
 62
   249
 10
265.071076
 20
124.51
 30
0.0
 70
    64
  0
VERTEX
  8
0
  6
CONTINUOUS
 62
   249
 10
265.084796
 20
124.51
 30
0.0
 70
    64
  0
VERTEX
  8
0
  6
CONTINUOUS
 62
   249
 10
265.098516
 20
124.51
 30
0.0
 70
    64
  0
VERTEX
  8
0
  6
CONTINUOUS
 62
   249
 10
265.112236
 20
124.51
 30
0.0
 70
    64
  0
VERTEX
  8
0
  6
CONTINUOUS
 62
   249
 10
265.125956
 20
124.51
 30
0.0
 70
    64
  0
VERTEX
  8
0
  6
CONTINUOUS
 62
   249
 10
265.139676
 20
124.51
 30
0.0
 70
    64
  0
VERTEX
  8
0
  6
CONTINUOUS
 62
   249
 10
265.153396
 20
124.51
 30
0.0
 70
    64
  0
VERTEX
  8
0
  6
CONTINUOUS
 62
   249
 10
265.167116
 20
124.51
 30
0.0
 70
    64
  0
VERTEX
  8
0
  6
CONTINUOUS
 62
   249
 10
265.180836
 20
124.51
 30
0.0
 70
    64
  0
VERTEX
  8
0
  6
CONTINUOUS
 62
   249
 10
265.194556
 20
124.51
 30
0.0
 70
    64
  0
VERTEX
  8
0
  6
CONTINUOUS
 62
   249
 10
265.208276
 20
124.51
 30
0.0
 70
    64
  0
VERTEX
  8
0
  6
CONTINUOUS
 62
   249
 10
265.221996
 20
124.51
 30
0.0
 70
    64
  0
VERTEX
  8
0
  6
CONTINUOUS
 62
   249
 10
265.235716
 20
124.51
 30
0.0
 70
    64
  0
VERTEX
  8
0
  6
CONTINUOUS
 62
   249
 10
265.249436
 20
124.51
 30
0.0
 70
    64
  0
VERTEX
  8
0
  6
CONTINUOUS
 62
   249
 10
261.819436
 20
125.49
 30
0.0
 70
    64
  0
VERTEX
  8
0
  6
CONTINUOUS
 62
   249
 10
261.833156
 20
125.49
 30
0.0
 70
    64
  0
VERTEX
  8
0
  6
CONTINUOUS
 62
   249
 10
261.846876
 20
125.49
 30
0.0
 70
    64
  0
VERTEX
  8
0
  6
CONTINUOUS
 62
   249
 10
261.860596
 20
125.49
 30
0.0
 70
    64
  0
VERTEX
  8
0
  6
CONTINUOUS
 62
   249
 10
261.874316
 20
125.49
 30
0.0
 70
    64
  0
VERTEX
  8
0
  6
CONTINUOUS
 62
   249
 10
261.888036
 20
125.49
 30
0.0
 70
    64
  0
VERTEX
  8
0
  6
CONTINUOUS
 62
   249
 10
261.901756
 20
125.49
 30
0.0
 70
    64
  0
VERTEX
  8
0
  6
CONTINUOUS
 62
   249
 10
261.915476
 20
125.49
 30
0.0
 70
    64
  0
VERTEX
  8
0
  6
CONTINUOUS
 62
   249
 10
261.929196
 20
125.49
 30
0.0
 70
    64
  0
VERTEX
  8
0
  6
CONTINUOUS
 62
   249
 10
261.942916
 20
125.49
 30
0.0
 70
    64
  0
VERTEX
  8
0
  6
CONTINUOUS
 62
   249
 10
261.956636
 20
125.49
 30
0.0
 70
    64
  0
VERTEX
  8
0
  6
CONTINUOUS
 62
   249
 10
261.970356
 20
125.49
 30
0.0
 70
    64
  0
VERTEX
  8
0
  6
CONTINUOUS
 62
   249
 10
261.984076
 20
125.49
 30
0.0
 70
    64
  0
VERTEX
  8
0
  6
CONTINUOUS
 62
   249
 10
261.997796
 20
125.49
 30
0.0
 70
    64
  0
VERTEX
  8
0
  6
CONTINUOUS
 62
   249
 10
262.011516
 20
125.49
 30
0.0
 70
    64
  0
VERTEX
  8
0
  6
CONTINUOUS
 62
   249
 10
262.025236
 20
125.49
 30
0.0
 70
    64
  0
VERTEX
  8
0
  6
CONTINUOUS
 62
   249
 10
262.038956
 20
125.49
 30
0.0
 70
    64
  0
VERTEX
  8
0
  6
CONTINUOUS
 62
   249
 10
262.052676
 20
125.49
 30
0.0
 70
    64
  0
VERTEX
  8
0
  6
CONTINUOUS
 62
   249
 10
262.066396
 20
125.49
 30
0.0
 70
    64
  0
VERTEX
  8
0
  6
CONTINUOUS
 62
   249
 10
262.080116
 20
125.49
 30
0.0
 70
    64
  0
VERTEX
  8
0
  6
CONTINUOUS
 62
   249
 10
262.093836
 20
125.49
 30
0.0
 70
    64
  0
VERTEX
  8
0
  6
CONTINUOUS
 62
   249
 10
262.107556
 20
125.49
 30
0.0
 70
    64
  0
VERTEX
  8
0
  6
CONTINUOUS
 62
   249
 10
262.121276
 20
125.49
 30
0.0
 70
    64
  0
VERTEX
  8
0
  6
CONTINUOUS
 62
   249
 10
262.134996
 20
125.49
 30
0.0
 70
    64
  0
VERTEX
  8
0
  6
CONTINUOUS
 62
   249
 10
262.148716
 20
125.49
 30
0.0
 70
    64
  0
VERTEX
  8
0
  6
CONTINUOUS
 62
   249
 10
262.162436
 20
125.49
 30
0.0
 70
    64
  0
VERTEX
  8
0
  6
CONTINUOUS
 62
   249
 10
262.176156
 20
125.49
 30
0.0
 70
    64
  0
VERTEX
  8
0
  6
CONTINUOUS
 62
   249
 10
262.189876
 20
125.49
 30
0.0
 70
    64
  0
VERTEX
  8
0
  6
CONTINUOUS
 62
   249
 10
262.203596
 20
125.49
 30
0.0
 70
    64
  0
VERTEX
  8
0
  6
CONTINUOUS
 62
   249
 10
262.217316
 20
125.49
 30
0.0
 70
    64
  0
VERTEX
  8
0
  6
CONTINUOUS
 62
   249
 10
262.231036
 20
125.49
 30
0.0
 70
    64
  0
VERTEX
  8
0
  6
CONTINUOUS
 62
   249
 10
262.244756
 20
125.49
 30
0.0
 70
    64
  0
VERTEX
  8
0
  6
CONTINUOUS
 62
   249
 10
262.258476
 20
125.49
 30
0.0
 70
    64
  0
VERTEX
  8
0
  6
CONTINUOUS
 62
   249
 10
262.272196
 20
125.49
 30
0.0
 70
    64
  0
VERTEX
  8
0
  6
CONTINUOUS
 62
   249
 10
262.285916
 20
125.49
 30
0.0
 70
    64
  0
VERTEX
  8
0
  6
CONTINUOUS
 62
   249
 10
262.299636
 20
125.49
 30
0.0
 70
    64
  0
VERTEX
  8
0
  6
CONTINUOUS
 62
   249
 10
262.313356
 20
125.49
 30
0.0
 70
    64
  0
VERTEX
  8
0
  6
CONTINUOUS
 62
   249
 10
262.327076
 20
125.49
 30
0.0
 70
    64
  0
VERTEX
  8
0
  6
CONTINUOUS
 62
   249
 10
262.340796
 20
125.49
 30
0.0
 70
    64
  0
VERTEX
  8
0
  6
CONTINUOUS
 62
   249
 10
262.354516
 20
125.49
 30
0.0
 70
    64
  0
VERTEX
  8
0
  6
CONTINUOUS
 62
   249
 10
262.368236
 20
125.49
 30
0.0
 70
    64
  0
VERTEX
  8
0
  6
CONTINUOUS
 62
   249
 10
262.381956
 20
125.49
 30
0.0
 70
    64
  0
VERTEX
  8
0
  6
CONTINUOUS
 62
   249
 10
262.395676
 20
125.49
 30
0.0
 70
    64
  0
VERTEX
  8
0
  6
CONTINUOUS
 62
   249
 10
262.409396
 20
125.49
 30
0.0
 70
    64
  0
VERTEX
  8
0
  6
CONTINUOUS
 62
   249
 10
262.423116
 20
125.49
 30
0.0
 70
    64
  0
VERTEX
  8
0
  6
CONTINUOUS
 62
   249
 10
262.436836
 20
125.49
 30
0.0
 70
    64
  0
VERTEX
  8
0
  6
CONTINUOUS
 62
   249
 10
262.450556
 20
125.49
 30
0.0
 70
    64
  0
VERTEX
  8
0
  6
CONTINUOUS
 62
   249
 10
262.464276
 20
125.49
 30
0.0
 70
    64
  0
VERTEX
  8
0
  6
CONTINUOUS
 62
   249
 10
262.477996
 20
125.49
 30
0.0
 70
    64
  0
VERTEX
  8
0
  6
CONTINUOUS
 62
   249
 10
262.491716
 20
125.49
 30
0.0
 70
    64
  0
VERTEX
  8
0
  6
CONTINUOUS
 62
   249
 10
262.505436
 20
125.49
 30
0.0
 70
    64
  0
VERTEX
  8
0
  6
CONTINUOUS
 62
   249
 10
262.519156
 20
125.49
 30
0.0
 70
    64
  0
VERTEX
  8
0
  6
CONTINUOUS
 62
   249
 10
262.532876
 20
125.49
 30
0.0
 70
    64
  0
VERTEX
  8
0
  6
CONTINUOUS
 62
   249
 10
262.546596
 20
125.49
 30
0.0
 70
    64
  0
VERTEX
  8
0
  6
CONTINUOUS
 62
   249
 10
262.560316
 20
125.49
 30
0.0
 70
    64
  0
VERTEX
  8
0
  6
CONTINUOUS
 62
   249
 10
262.574036
 20
125.49
 30
0.0
 70
    64
  0
VERTEX
  8
0
  6
CONTINUOUS
 62
   249
 10
262.587756
 20
125.49
 30
0.0
 70
    64
  0
VERTEX
  8
0
  6
CONTINUOUS
 62
   249
 10
262.601476
 20
125.49
 30
0.0
 70
    64
  0
VERTEX
  8
0
  6
CONTINUOUS
 62
   249
 10
262.615196
 20
125.49
 30
0.0
 70
    64
  0
VERTEX
  8
0
  6
CONTINUOUS
 62
   249
 10
262.628916
 20
125.49
 30
0.0
 70
    64
  0
VERTEX
  8
0
  6
CONTINUOUS
 62
   249
 10
262.642636
 20
125.49
 30
0.0
 70
    64
  0
VERTEX
  8
0
  6
CONTINUOUS
 62
   249
 10
262.656356
 20
125.49
 30
0.0
 70
    64
  0
VERTEX
  8
0
  6
CONTINUOUS
 62
   249
 10
262.670076
 20
125.49
 30
0.0
 70
    64
  0
VERTEX
  8
0
  6
CONTINUOUS
 62
   249
 10
262.683796
 20
125.49
 30
0.0
 70
    64
  0
VERTEX
  8
0
  6
CONTINUOUS
 62
   249
 10
262.697516
 20
125.49
 30
0.0
 70
    64
  0
VERTEX
  8
0
  6
CONTINUOUS
 62
   249
 10
262.711236
 20
125.49
 30
0.0
 70
    64
  0
VERTEX
  8
0
  6
CONTINUOUS
 62
   249
 10
262.724956
 20
125.49
 30
0.0
 70
    64
  0
VERTEX
  8
0
  6
CONTINUOUS
 62
   249
 10
262.738676
 20
125.49
 30
0.0
 70
    64
  0
VERTEX
  8
0
  6
CONTINUOUS
 62
   249
 10
262.752396
 20
125.49
 30
0.0
 70
    64
  0
VERTEX
  8
0
  6
CONTINUOUS
 62
   249
 10
262.766116
 20
125.49
 30
0.0
 70
    64
  0
VERTEX
  8
0
  6
CONTINUOUS
 62
   249
 10
262.779836
 20
125.49
 30
0.0
 70
    64
  0
VERTEX
  8
0
  6
CONTINUOUS
 62
   249
 10
262.793556
 20
125.49
 30
0.0
 70
    64
  0
VERTEX
  8
0
  6
CONTINUOUS
 62
   249
 10
262.807276
 20
125.49
 30
0.0
 70
    64
  0
VERTEX
  8
0
  6
CONTINUOUS
 62
   249
 10
262.820996
 20
125.49
 30
0.0
 70
    64
  0
VERTEX
  8
0
  6
CONTINUOUS
 62
   249
 10
262.834716
 20
125.49
 30
0.0
 70
    64
  0
VERTEX
  8
0
  6
CONTINUOUS
 62
   249
 10
262.848436
 20
125.49
 30
0.0
 70
    64
  0
VERTEX
  8
0
  6
CONTINUOUS
 62
   249
 10
262.862156
 20
125.49
 30
0.0
 70
    64
  0
VERTEX
  8
0
  6
CONTINUOUS
 62
   249
 10
262.875876
 20
125.49
 30
0.0
 70
    64
  0
VERTEX
  8
0
  6
CONTINUOUS
 62
   249
 10
262.889596
 20
125.49
 30
0.0
 70
    64
  0
VERTEX
  8
0
  6
CONTINUOUS
 62
   249
 10
262.903316
 20
125.49
 30
0.0
 70
    64
  0
VERTEX
  8
0
  6
CONTINUOUS
 62
   249
 10
262.917036
 20
125.49
 30
0.0
 70
    64
  0
VERTEX
  8
0
  6
CONTINUOUS
 62
   249
 10
262.930756
 20
125.49
 30
0.0
 70
    64
  0
VERTEX
  8
0
  6
CONTINUOUS
 62
   249
 10
262.944476
 20
125.49
 30
0.0
 70
    64
  0
VERTEX
  8
0
  6
CONTINUOUS
 62
   249
 10
262.958196
 20
125.49
 30
0.0
 70
    64
  0
VERTEX
  8
0
  6
CONTINUOUS
 62
   249
 10
262.971916
 20
125.49
 30
0.0
 70
    64
  0
VERTEX
  8
0
  6
CONTINUOUS
 62
   249
 10
262.985636
 20
125.49
 30
0.0
 70
    64
  0
VERTEX
  8
0
  6
CONTINUOUS
 62
   249
 10
262.999356
 20
125.49
 30
0.0
 70
    64
  0
VERTEX
  8
0
  6
CONTINUOUS
 62
   249
 10
263.013076
 20
125.49
 30
0.0
 70
    64
  0
VERTEX
  8
0
  6
CONTINUOUS
 62
   249
 10
263.026796
 20
125.49
 30
0.0
 70
    64
  0
VERTEX
  8
0
  6
CONTINUOUS
 62
   249
 10
263.040516
 20
125.49
 30
0.0
 70
    64
  0
VERTEX
  8
0
  6
CONTINUOUS
 62
   249
 10
263.054236
 20
125.49
 30
0.0
 70
    64
  0
VERTEX
  8
0
  6
CONTINUOUS
 62
   249
 10
263.067956
 20
125.49
 30
0.0
 70
    64
  0
VERTEX
  8
0
  6
CONTINUOUS
 62
   249
 10
263.081676
 20
125.49
 30
0.0
 70
    64
  0
VERTEX
  8
0
  6
CONTINUOUS
 62
   249
 10
263.095396
 20
125.49
 30
0.0
 70
    64
  0
VERTEX
  8
0
  6
CONTINUOUS
 62
   249
 10
263.109116
 20
125.49
 30
0.0
 70
    64
  0
VERTEX
  8
0
  6
CONTINUOUS
 62
   249
 10
263.122836
 20
125.49
 30
0.0
 70
    64
  0
VERTEX
  8
0
  6
CONTINUOUS
 62
   249
 10
263.136556
 20
125.49
 30
0.0
 70
    64
  0
VERTEX
  8
0
  6
CONTINUOUS
 62
   249
 10
263.150276
 20
125.49
 30
0.0
 70
    64
  0
VERTEX
  8
0
  6
CONTINUOUS
 62
   249
 10
263.163996
 20
125.49
 30
0.0
 70
    64
  0
VERTEX
  8
0
  6
CONTINUOUS
 62
   249
 10
263.177716
 20
125.49
 30
0.0
 70
    64
  0
VERTEX
  8
0
  6
CONTINUOUS
 62
   249
 10
263.191436
 20
125.49
 30
0.0
 70
    64
  0
VERTEX
  8
0
  6
CONTINUOUS
 62
   249
 10
263.205156
 20
125.49
 30
0.0
 70
    64
  0
VERTEX
  8
0
  6
CONTINUOUS
 62
   249
 10
263.218876
 20
125.49
 30
0.0
 70
    64
  0
VERTEX
  8
0
  6
CONTINUOUS
 62
   249
 10
263.232596
 20
125.49
 30
0.0
 70
    64
  0
VERTEX
  8
0
  6
CONTINUOUS
 62
   249
 10
263.246316
 20
125.49
 30
0.0
 70
    64
  0
VERTEX
  8
0
  6
CONTINUOUS
 62
   249
 10
263.260036
 20
125.49
 30
0.0
 70
    64
  0
VERTEX
  8
0
  6
CONTINUOUS
 62
   249
 10
263.273756
 20
125.49
 30
0.0
 70
    64
  0
VERTEX
  8
0
  6
CONTINUOUS
 62
   249
 10
263.287476
 20
125.49
 30
0.0
 70
    64
  0
VERTEX
  8
0
  6
CONTINUOUS
 62
   249
 10
263.301196
 20
125.49
 30
0.0
 70
    64
  0
VERTEX
  8
0
  6
CONTINUOUS
 62
   249
 10
263.314916
 20
125.49
 30
0.0
 70
    64
  0
VERTEX
  8
0
  6
CONTINUOUS
 62
   249
 10
263.328636
 20
125.49
 30
0.0
 70
    64
  0
VERTEX
  8
0
  6
CONTINUOUS
 62
   249
 10
263.342356
 20
125.49
 30
0.0
 70
    64
  0
VERTEX
  8
0
  6
CONTINUOUS
 62
   249
 10
263.356076
 20
125.49
 30
0.0
 70
    64
  0
VERTEX
  8
0
  6
CONTINUOUS
 62
   249
 10
263.369796
 20
125.49
 30
0.0
 70
    64
  0
VERTEX
  8
0
  6
CONTINUOUS
 62
   249
 10
263.383516
 20
125.49
 30
0.0
 70
    64
  0
VERTEX
  8
0
  6
CONTINUOUS
 62
   249
 10
263.397236
 20
125.49
 30
0.0
 70
    64
  0
VERTEX
  8
0
  6
CONTINUOUS
 62
   249
 10
263.410956
 20
125.49
 30
0.0
 70
    64
  0
VERTEX
  8
0
  6
CONTINUOUS
 62
   249
 10
263.424676
 20
125.49
 30
0.0
 70
    64
  0
VERTEX
  8
0
  6
CONTINUOUS
 62
   249
 10
263.438396
 20
125.49
 30
0.0
 70
    64
  0
VERTEX
  8
0
  6
CONTINUOUS
 62
   249
 10
263.452116
 20
125.49
 30
0.0
 70
    64
  0
VERTEX
  8
0
  6
CONTINUOUS
 62
   249
 10
263.465836
 20
125.49
 30
0.0
 70
    64
  0
VERTEX
  8
0
  6
CONTINUOUS
 62
   249
 10
263.479556
 20
125.49
 30
0.0
 70
    64
  0
VERTEX
  8
0
  6
CONTINUOUS
 62
   249
 10
263.493276
 20
125.49
 30
0.0
 70
    64
  0
VERTEX
  8
0
  6
CONTINUOUS
 62
   249
 10
263.506996
 20
125.49
 30
0.0
 70
    64
  0
VERTEX
  8
0
  6
CONTINUOUS
 62
   249
 10
263.520716
 20
125.49
 30
0.0
 70
    64
  0
VERTEX
  8
0
  6
CONTINUOUS
 62
   249
 10
263.534436
 20
125.49
 30
0.0
 70
    64
  0
VERTEX
  8
0
  6
CONTINUOUS
 62
   249
 10
263.548156
 20
125.49
 30
0.0
 70
    64
  0
VERTEX
  8
0
  6
CONTINUOUS
 62
   249
 10
263.561876
 20
125.49
 30
0.0
 70
    64
  0
VERTEX
  8
0
  6
CONTINUOUS
 62
   249
 10
263.575596
 20
125.49
 30
0.0
 70
    64
  0
VERTEX
  8
0
  6
CONTINUOUS
 62
   249
 10
263.589316
 20
125.49
 30
0.0
 70
    64
  0
VERTEX
  8
0
  6
CONTINUOUS
 62
   249
 10
263.603036
 20
125.49
 30
0.0
 70
    64
  0
VERTEX
  8
0
  6
CONTINUOUS
 62
   249
 10
263.616756
 20
125.49
 30
0.0
 70
    64
  0
VERTEX
  8
0
  6
CONTINUOUS
 62
   249
 10
263.630476
 20
125.49
 30
0.0
 70
    64
  0
VERTEX
  8
0
  6
CONTINUOUS
 62
   249
 10
263.644196
 20
125.49
 30
0.0
 70
    64
  0
VERTEX
  8
0
  6
CONTINUOUS
 62
   249
 10
263.657916
 20
125.49
 30
0.0
 70
    64
  0
VERTEX
  8
0
  6
CONTINUOUS
 62
   249
 10
263.671636
 20
125.49
 30
0.0
 70
    64
  0
VERTEX
  8
0
  6
CONTINUOUS
 62
   249
 10
263.685356
 20
125.49
 30
0.0
 70
    64
  0
VERTEX
  8
0
  6
CONTINUOUS
 62
   249
 10
263.699076
 20
125.49
 30
0.0
 70
    64
  0
VERTEX
  8
0
  6
CONTINUOUS
 62
   249
 10
263.712796
 20
125.49
 30
0.0
 70
    64
  0
VERTEX
  8
0
  6
CONTINUOUS
 62
   249
 10
263.726516
 20
125.49
 30
0.0
 70
    64
  0
VERTEX
  8
0
  6
CONTINUOUS
 62
   249
 10
263.740236
 20
125.49
 30
0.0
 70
    64
  0
VERTEX
  8
0
  6
CONTINUOUS
 62
   249
 10
263.753956
 20
125.49
 30
0.0
 70
    64
  0
VERTEX
  8
0
  6
CONTINUOUS
 62
   249
 10
263.767676
 20
125.49
 30
0.0
 70
    64
  0
VERTEX
  8
0
  6
CONTINUOUS
 62
   249
 10
263.781396
 20
125.49
 30
0.0
 70
    64
  0
VERTEX
  8
0
  6
CONTINUOUS
 62
   249
 10
263.795116
 20
125.49
 30
0.0
 70
    64
  0
VERTEX
  8
0
  6
CONTINUOUS
 62
   249
 10
263.808836
 20
125.49
 30
0.0
 70
    64
  0
VERTEX
  8
0
  6
CONTINUOUS
 62
   249
 10
263.822556
 20
125.49
 30
0.0
 70
    64
  0
VERTEX
  8
0
  6
CONTINUOUS
 62
   249
 10
263.836276
 20
125.49
 30
0.0
 70
    64
  0
VERTEX
  8
0
  6
CONTINUOUS
 62
   249
 10
263.849996
 20
125.49
 30
0.0
 70
    64
  0
VERTEX
  8
0
  6
CONTINUOUS
 62
   249
 10
263.863716
 20
125.49
 30
0.0
 70
    64
  0
VERTEX
  8
0
  6
CONTINUOUS
 62
   249
 10
263.877436
 20
125.49
 30
0.0
 70
    64
  0
VERTEX
  8
0
  6
CONTINUOUS
 62
   249
 10
263.891156
 20
125.49
 30
0.0
 70
    64
  0
VERTEX
  8
0
  6
CONTINUOUS
 62
   249
 10
263.904876
 20
125.49
 30
0.0
 70
    64
  0
VERTEX
  8
0
  6
CONTINUOUS
 62
   249
 10
263.918596
 20
125.49
 30
0.0
 70
    64
  0
VERTEX
  8
0
  6
CONTINUOUS
 62
   249
 10
263.932316
 20
125.49
 30
0.0
 70
    64
  0
VERTEX
  8
0
  6
CONTINUOUS
 62
   249
 10
263.946036
 20
125.49
 30
0.0
 70
    64
  0
VERTEX
  8
0
  6
CONTINUOUS
 62
   249
 10
263.959756
 20
125.49
 30
0.0
 70
    64
  0
VERTEX
  8
0
  6
CONTINUOUS
 62
   249
 10
263.973476
 20
125.49
 30
0.0
 70
    64
  0
VERTEX
  8
0
  6
CONTINUOUS
 62
   249
 10
263.987196
 20
125.49
 30
0.0
 70
    64
  0
VERTEX
  8
0
  6
CONTINUOUS
 62
   249
 10
264.000916
 20
125.49
 30
0.0
 70
    64
  0
VERTEX
  8
0
  6
CONTINUOUS
 62
   249
 10
264.014636
 20
125.49
 30
0.0
 70
    64
  0
VERTEX
  8
0
  6
CONTINUOUS
 62
   249
 10
264.028356
 20
125.49
 30
0.0
 70
    64
  0
VERTEX
  8
0
  6
CONTINUOUS
 62
   249
 10
264.042076
 20
125.49
 30
0.0
 70
    64
  0
VERTEX
  8
0
  6
CONTINUOUS
 62
   249
 10
264.055796
 20
125.49
 30
0.0
 70
    64
  0
VERTEX
  8
0
  6
CONTINUOUS
 62
   249
 10
264.069516
 20
125.49
 30
0.0
 70
    64
  0
VERTEX
  8
0
  6
CONTINUOUS
 62
   249
 10
264.083236
 20
125.49
 30
0.0
 70
    64
  0
VERTEX
  8
0
  6
CONTINUOUS
 62
   249
 10
264.096956
 20
125.49
 30
0.0
 70
    64
  0
VERTEX
  8
0
  6
CONTINUOUS
 62
   249
 10
264.110676
 20
125.49
 30
0.0
 70
    64
  0
VERTEX
  8
0
  6
CONTINUOUS
 62
   249
 10
264.124396
 20
125.49
 30
0.0
 70
    64
  0
VERTEX
  8
0
  6
CONTINUOUS
 62
   249
 10
264.138116
 20
125.49
 30
0.0
 70
    64
  0
VERTEX
  8
0
  6
CONTINUOUS
 62
   249
 10
264.151836
 20
125.49
 30
0.0
 70
    64
  0
VERTEX
  8
0
  6
CONTINUOUS
 62
   249
 10
264.165556
 20
125.49
 30
0.0
 70
    64
  0
VERTEX
  8
0
  6
CONTINUOUS
 62
   249
 10
264.179276
 20
125.49
 30
0.0
 70
    64
  0
VERTEX
  8
0
  6
CONTINUOUS
 62
   249
 10
264.192996
 20
125.49
 30
0.0
 70
    64
  0
VERTEX
  8
0
  6
CONTINUOUS
 62
   249
 10
264.206716
 20
125.49
 30
0.0
 70
    64
  0
VERTEX
  8
0
  6
CONTINUOUS
 62
   249
 10
264.220436
 20
125.49
 30
0.0
 70
    64
  0
VERTEX
  8
0
  6
CONTINUOUS
 62
   249
 10
264.234156
 20
125.49
 30
0.0
 70
    64
  0
VERTEX
  8
0
  6
CONTINUOUS
 62
   249
 10
264.247876
 20
125.49
 30
0.0
 70
    64
  0
VERTEX
  8
0
  6
CONTINUOUS
 62
   249
 10
264.261596
 20
125.49
 30
0.0
 70
    64
  0
VERTEX
  8
0
  6
CONTINUOUS
 62
   249
 10
264.275316
 20
125.49
 30
0.0
 70
    64
  0
VERTEX
  8
0
  6
CONTINUOUS
 62
   249
 10
264.289036
 20
125.49
 30
0.0
 70
    64
  0
VERTEX
  8
0
  6
CONTINUOUS
 62
   249
 10
264.302756
 20
125.49
 30
0.0
 70
    64
  0
VERTEX
  8
0
  6
CONTINUOUS
 62
   249
 10
264.316476
 20
125.49
 30
0.0
 70
    64
  0
VERTEX
  8
0
  6
CONTINUOUS
 62
   249
 10
264.330196
 20
125.49
 30
0.0
 70
    64
  0
VERTEX
  8
0
  6
CONTINUOUS
 62
   249
 10
264.343916
 20
125.49
 30
0.0
 70
    64
  0
VERTEX
  8
0
  6
CONTINUOUS
 62
   249
 10
264.357636
 20
125.49
 30
0.0
 70
    64
  0
VERTEX
  8
0
  6
CONTINUOUS
 62
   249
 10
264.371356
 20
125.49
 30
0.0
 70
    64
  0
VERTEX
  8
0
  6
CONTINUOUS
 62
   249
 10
264.385076
 20
125.49
 30
0.0
 70
    64
  0
VERTEX
  8
0
  6
CONTINUOUS
 62
   249
 10
264.398796
 20
125.49
 30
0.0
 70
    64
  0
VERTEX
  8
0
  6
CONTINUOUS
 62
   249
 10
264.412516
 20
125.49
 30
0.0
 70
    64
  0
VERTEX
  8
0
  6
CONTINUOUS
 62
   249
 10
264.426236
 20
125.49
 30
0.0
 70
    64
  0
VERTEX
  8
0
  6
CONTINUOUS
 62
   249
 10
264.439956
 20
125.49
 30
0.0
 70
    64
  0
VERTEX
  8
0
  6
CONTINUOUS
 62
   249
 10
264.453676
 20
125.49
 30
0.0
 70
    64
  0
VERTEX
  8
0
  6
CONTINUOUS
 62
   249
 10
264.467396
 20
125.49
 30
0.0
 70
    64
  0
VERTEX
  8
0
  6
CONTINUOUS
 62
   249
 10
264.481116
 20
125.49
 30
0.0
 70
    64
  0
VERTEX
  8
0
  6
CONTINUOUS
 62
   249
 10
264.494836
 20
125.49
 30
0.0
 70
    64
  0
VERTEX
  8
0
  6
CONTINUOUS
 62
   249
 10
264.508556
 20
125.49
 30
0.0
 70
    64
  0
VERTEX
  8
0
  6
CONTINUOUS
 62
   249
 10
264.522276
 20
125.49
 30
0.0
 70
    64
  0
VERTEX
  8
0
  6
CONTINUOUS
 62
   249
 10
264.535996
 20
125.49
 30
0.0
 70
    64
  0
VERTEX
  8
0
  6
CONTINUOUS
 62
   249
 10
264.549716
 20
125.49
 30
0.0
 70
    64
  0
VERTEX
  8
0
  6
CONTINUOUS
 62
   249
 10
264.563436
 20
125.49
 30
0.0
 70
    64
  0
VERTEX
  8
0
  6
CONTINUOUS
 62
   249
 10
264.577156
 20
125.49
 30
0.0
 70
    64
  0
VERTEX
  8
0
  6
CONTINUOUS
 62
   249
 10
264.590876
 20
125.49
 30
0.0
 70
    64
  0
VERTEX
  8
0
  6
CONTINUOUS
 62
   249
 10
264.604596
 20
125.49
 30
0.0
 70
    64
  0
VERTEX
  8
0
  6
CONTINUOUS
 62
   249
 10
264.618316
 20
125.49
 30
0.0
 70
    64
  0
VERTEX
  8
0
  6
CONTINUOUS
 62
   249
 10
264.632036
 20
125.49
 30
0.0
 70
    64
  0
VERTEX
  8
0
  6
CONTINUOUS
 62
   249
 10
264.645756
 20
125.49
 30
0.0
 70
    64
  0
VERTEX
  8
0
  6
CONTINUOUS
 62
   249
 10
264.659476
 20
125.49
 30
0.0
 70
    64
  0
VERTEX
  8
0
  6
CONTINUOUS
 62
   249
 10
264.673196
 20
125.49
 30
0.0
 70
    64
  0
VERTEX
  8
0
  6
CONTINUOUS
 62
   249
 10
264.686916
 20
125.49
 30
0.0
 70
    64
  0
VERTEX
  8
0
  6
CONTINUOUS
 62
   249
 10
264.700636
 20
125.49
 30
0.0
 70
    64
  0
VERTEX
  8
0
  6
CONTINUOUS
 62
   249
 10
264.714356
 20
125.49
 30
0.0
 70
    64
  0
VERTEX
  8
0
  6
CONTINUOUS
 62
   249
 10
264.728076
 20
125.49
 30
0.0
 70
    64
  0
VERTEX
  8
0
  6
CONTINUOUS
 62
   249
 10
264.741796
 20
125.49
 30
0.0
 70
    64
  0
VERTEX
  8
0
  6
CONTINUOUS
 62
   249
 10
264.755516
 20
125.49
 30
0.0
 70
    64
  0
VERTEX
  8
0
  6
CONTINUOUS
 62
   249
 10
264.769236
 20
125.49
 30
0.0
 70
    64
  0
VERTEX
  8
0
  6
CONTINUOUS
 62
   249
 10
264.782956
 20
125.49
 30
0.0
 70
    64
  0
VERTEX
  8
0
  6
CONTINUOUS
 62
   249
 10
264.796676
 20
125.49
 30
0.0
 70
    64
  0
VERTEX
  8
0
  6
CONTINUOUS
 62
   249
 10
264.810396
 20
125.49
 30
0.0
 70
    64
  0
VERTEX
  8
0
  6
CONTINUOUS
 62
   249
 10
264.824116
 20
125.49
 30
0.0
 70
    64
  0
VERTEX
  8
0
  6
CONTINUOUS
 62
   249
 10
264.837836
 20
125.49
 30
0.0
 70
    64
  0
VERTEX
  8
0
  6
CONTINUOUS
 62
   249
 10
264.851556
 20
125.49
 30
0.0
 70
    64
  0
VERTEX
  8
0
  6
CONTINUOUS
 62
   249
 10
264.865276
 20
125.49
 30
0.0
 70
    64
  0
VERTEX
  8
0
  6
CONTINUOUS
 62
   249
 10
264.878996
 20
125.49
 30
0.0
 70
    64
  0
VERTEX
  8
0
  6
CONTINUOUS
 62
   249
 10
264.892716
 20
125.49
 30
0.0
 70
    64
  0
VERTEX
  8
0
  6
CONTINUOUS
 62
   249
 10
264.906436
 20
125.49
 30
0.0
 70
    64
  0
VERTEX
  8
0
  6
CONTINUOUS
 62
   249
 10
264.920156
 20
125.49
 30
0.0
 70
    64
  0
VERTEX
  8
0
  6
CONTINUOUS
 62
   249
 10
264.933876
 20
125.49
 30
0.0
 70
    64
  0
VERTEX
  8
0
  6
CONTINUOUS
 62
   249
 10
264.947596
 20
125.49
 30
0.0
 70
    64
  0
VERTEX
  8
0
  6
CONTINUOUS
 62
   249
 10
264.961316
 20
125.49
 30
0.0
 70
    64
  0
VERTEX
  8
0
  6
CONTINUOUS
 62
   249
 10
264.975036
 20
125.49
 30
0.0
 70
    64
  0
VERTEX
  8
0
  6
CONTINUOUS
 62
   249
 10
264.988756
 20
125.49
 30
0.0
 70
    64
  0
VERTEX
  8
0
  6
CONTINUOUS
 62
   249
 10
265.002476
 20
125.49
 30
0.0
 70
    64
  0
VERTEX
  8
0
  6
CONTINUOUS
 62
   249
 10
265.016196
 20
125.49
 30
0.0
 70
    64
  0
VERTEX
  8
0
  6
CONTINUOUS
 62
   249
 10
265.029916
 20
125.49
 30
0.0
 70
    64
  0
VERTEX
  8
0
  6
CONTINUOUS
 62
   249
 10
265.043636
 20
125.49
 30
0.0
 70
    64
  0
VERTEX
  8
0
  6
CONTINUOUS
 62
   249
 10
265.057356
 20
125.49
 30
0.0
 70
    64
  0
VERTEX
  8
0
  6
CONTINUOUS
 62
   249
 10
265.071076
 20
125.49
 30
0.0
 70
    64
  0
VERTEX
  8
0
  6
CONTINUOUS
 62
   249
 10
265.084796
 20
125.49
 30
0.0
 70
    64
  0
VERTEX
  8
0
  6
CONTINUOUS
 62
   249
 10
265.098516
 20
125.49
 30
0.0
 70
    64
  0
VERTEX
  8
0
  6
CONTINUOUS
 62
   249
 10
265.112236
 20
125.49
 30
0.0
 70
    64
  0
VERTEX
  8
0
  6
CONTINUOUS
 62
   249
 10
265.125956
 20
125.49
 30
0.0
 70
    64
  0
VERTEX
  8
0
  6
CONTINUOUS
 62
   249
 10
265.139676
 20
125.49
 30
0.0
 70
    64
  0
VERTEX
  8
0
  6
CONTINUOUS
 62
   249
 10
265.153396
 20
125.49
 30
0.0
 70
    64
  0
VERTEX
  8
0
  6
CONTINUOUS
 62
   249
 10
265.167116
 20
125.49
 30
0.0
 70
    64
  0
VERTEX
  8
0
  6
CONTINUOUS
 62
   249
 10
265.180836
 20
125.49
 30
0.0
 70
    64
  0
VERTEX
  8
0
  6
CONTINUOUS
 62
   249
 10
265.194556
 20
125.49
 30
0.0
 70
    64
  0
VERTEX
  8
0
  6
CONTINUOUS
 62
   249
 10
265.208276
 20
125.49
 30
0.0
 70
    64
  0
VERTEX
  8
0
  6
CONTINUOUS
 62
   249
 10
265.221996
 20
125.49
 30
0.0
 70
    64
  0
VERTEX
  8
0
  6
CONTINUOUS
 62
   249
 10
265.235716
 20
125.49
 30
0.0
 70
    64
  0
VERTEX
  8
0
  6
CONTINUOUS
 62
   249
 10
265.249436
 20
125.49
 30
0.0
 70
    64
  0
SEQEND
  8
0
  6
CONTINUOUS
 62
   249
  0
LINE
  8
0
  6
DASHED
 62
   249
 10
265.0
 20
125.0
 30
0.0
 11
275.0
 21
125.0
 31
0.0
  0
ARC
  8
0
  6
CONTINUOUS
 62
   249
 10
262.5
 20
125.0
 30
0.0
 40
2.5
 50
90.0
 51
270.0
  0
LINE
  8
0
  6
CONTINUOUS
 62
   249
 10
349.746313
 20
68.215554
 30
0.0
 11
350.6332
 21
68.215554
 31
0.0
  0
LINE
  8
0
  6
CONTINUOUS
 62
   249
 10
349.415208
 20
68.827187
 30
0.0
 11
350.99978
 21
68.827187
 31
0.0
  0
LINE
  8
0
  6
CONTINUOUS
 62
   249
 10
350.231144
 20
69.449249
 30
0.0
 11
351.425485
 21
69.449249
 31
0.0
  0
LINE
  8
0
  6
CONTINUOUS
 62
   249
 10
349.036803
 20
69.449249
 30
0.0
 11
350.231144
 21
69.449249
 31
0.0
  0
LINE
  8
0
  6
CONTINUOUS
 62
   249
 10
350.247031
 20
70.80352
 30
0.0
 11
350.247031
 21
69.449249
 31
0.0
  0
LINE
  8
0
  6
CONTINUOUS
 62
   249
 10
361.509978
 20
127.5
 30
0.0
 11
364.155635
 21
127.5
 31
0.0
  0
LINE
  8
0
  6
CONTINUOUS
 62
   249
 10
365.937188
 20
126.896305
 30
0.0
 11
365.937188
 21
128.103695
 31
0.0
  0
LINE
  8
0
  6
CONTINUOUS
 62
   249
 10
365.049675
 20
126.463807
 30
0.0
 11
365.049675
 21
128.527182
 31
0.0
  0
LINE
  8
0
  6
CONTINUOUS
 62
   249
 10
364.155635
 20
125.968237
 30
0.0
 11
364.155635
 21
129.031763
 31
0.0
  0
ARC
  8
0
  6
CONTINUOUS
 62
   249
 10
220.0
 20
149.373018
 30
0.0
 40
0.5
 50
180.0
 51
0.0
  0
ARC
  8
0
  6
CONTINUOUS
 62
   249
 10
220.0
 20
149.373018
 30
0.0
 40
0.5
 50
0.0
 51
180.0
  0
LINE
  8
0
  6
CONTINUOUS
 62
   249
 10
203.72323
 20
159.990627
 30
0.0
 11
202.474557
 21
160.701449
 31
0.0
  0
LINE
  8
0
  6
CONTINUOUS
 62
   249
 10
202.474557
 20
160.701449
 30
0.0
 11
203.72323
 21
161.334854
 31
0.0
  0
LINE
  8
0
  6
CONTINUOUS
 62
   249
 10
207.347595
 20
161.425586
 30
0.0
 11
208.596268
 21
160.714764
 31
0.0
  0
LINE
  8
0
  6
CONTINUOUS
 62
   249
 10
208.596268
 20
160.714764
 30
0.0
 11
207.347595
 21
160.081359
 31
0.0
  0
LINE
  8
0
  6
CONTINUOUS
 62
   249
 10
207.284287
 20
166.981974
 30
0.0
 11
208.171174
 21
166.981974
 31
0.0
  0
LINE
  8
0
  6
CONTINUOUS
 62
   249
 10
206.953182
 20
167.593607
 30
0.0
 11
208.537754
 21
167.593607
 31
0.0
  0
LINE
  8
0
  6
CONTINUOUS
 62
   249
 10
207.769118
 20
168.215669
 30
0.0
 11
208.963459
 21
168.215669
 31
0.0
  0
LINE
  8
0
  6
CONTINUOUS
 62
   249
 10
206.574777
 20
168.215669
 30
0.0
 11
207.769118
 21
168.215669
 31
0.0
  0
LINE
  8
0
  6
CONTINUOUS
 62
   249
 10
207.785005
 20
169.56994
 30
0.0
 11
207.785005
 21
168.215669
 31
0.0
  0
LINE
  8
0
  6
CONTINUOUS
 62
   249
 10
207.284287
 20
162.920891
 30
0.0
 11
208.171174
 21
162.920891
 31
0.0
  0
LINE
  8
0
  6
CONTINUOUS
 62
   249
 10
206.953182
 20
163.532524
 30
0.0
 11
208.537754
 21
163.532524
 31
0.0
  0
LINE
  8
0
  6
CONTINUOUS
 62
   249
 10
207.769118
 20
164.154587
 30
0.0
 11
208.963459
 21
164.154587
 31
0.0
  0
LINE
  8
0
  6
CONTINUOUS
 62
   249
 10
206.574777
 20
164.154587
 30
0.0
 11
207.769118
 21
164.154587
 31
0.0
  0
LINE
  8
0
  6
CONTINUOUS
 62
   249
 10
207.785005
 20
165.508857
 30
0.0
 11
207.785005
 21
164.154587
 31
0.0
  0
ARC
  8
0
  6
CONTINUOUS
 62
   249
 10
215.0
 20
155.979447
 30
0.0
 40
0.5
 50
180.0
 51
0.0
  0
ARC
  8
0
  6
CONTINUOUS
 62
   249
 10
215.0
 20
155.979447
 30
0.0
 40
0.5
 50
0.0
 51
180.0
  0
LINE
  8
0
  6
CONTINUOUS
 62
   249
 10
234.220942
 20
148.664635
 30
0.0
 11
231.875176
 21
149.999989
 31
0.0
  0
LINE
  8
0
  6
CONTINUOUS
 62
   249
 10
231.875176
 20
149.999989
 30
0.0
 11
234.220942
 21
151.189908
 31
0.0
  0
LINE
  8
0
  6
CONTINUOUS
 62
   249
 10
203.72323
 20
189.362772
 30
0.0
 11
202.474557
 21
190.073593
 31
0.0
  0
LINE
  8
0
  6
CONTINUOUS
 62
   249
 10
202.474557
 20
190.073593
 30
0.0
 11
203.72323
 21
190.706998
 31
0.0
  0
LINE
  8
0
  6
CONTINUOUS
 62
   249
 10
207.347595
 20
190.79773
 30
0.0
 11
208.596268
 21
190.086908
 31
0.0
  0
LINE
  8
0
  6
CONTINUOUS
 62
   249
 10
208.596268
 20
190.086908
 30
0.0
 11
207.347595
 21
189.453503
 31
0.0
  0
LINE
  8
0
  6
CONTINUOUS
 62
   249
 10
234.220942
 20
196.164635
 30
0.0
 11
231.875176
 21
197.499989
 31
0.0
  0
LINE
  8
0
  6
CONTINUOUS
 62
   249
 10
231.875176
 20
197.499989
 30
0.0
 11
234.220942
 21
198.689908
 31
0.0
  0
ARC
  8
0
  6
CONTINUOUS
 62
   249
 10
292.5
 20
172.5
 30
0.0
 40
0.5
 50
180.0
 51
0.0
  0
ARC
  8
0
  6
CONTINUOUS
 62
   249
 10
292.5
 20
172.5
 30
0.0
 40
0.5
 50
0.0
 51
180.0
  0
LINE
  8
0
  6
CONTINUOUS
 62
   249
 10
282.5
 20
150.990022
 30
0.0
 11
282.5
 21
148.344365
 31
0.0
  0
LINE
  8
0
  6
CONTINUOUS
 62
   249
 10
281.896305
 20
146.562812
 30
0.0
 11
283.103695
 21
146.562812
 31
0.0
  0
LINE
  8
0
  6
CONTINUOUS
 62
   249
 10
281.463807
 20
147.450325
 30
0.0
 11
283.527182
 21
147.450325
 31
0.0
  0
LINE
  8
0
  6
CONTINUOUS
 62
   249
 10
280.968237
 20
148.344365
 30
0.0
 11
284.031763
 21
148.344365
 31
0.0
  0
ARC
  8
0
  6
CONTINUOUS
 62
   249
 10
282.5
 20
155.0
 30
0.0
 40
0.5
 50
180.0
 51
0.0
  0
ARC
  8
0
  6
CONTINUOUS
 62
   249
 10
282.5
 20
155.0
 30
0.0
 40
0.5
 50
0.0
 51
180.0
  0
LINE
  8
0
  6
CONTINUOUS
 62
   249
 10
292.5
 20
150.990022
 30
0.0
 11
292.5
 21
148.344365
 31
0.0
  0
LINE
  8
0
  6
CONTINUOUS
 62
   249
 10
291.896305
 20
146.562812
 30
0.0
 11
293.103695
 21
146.562812
 31
0.0
  0
LINE
  8
0
  6
CONTINUOUS
 62
   249
 10
291.463807
 20
147.450325
 30
0.0
 11
293.527182
 21
147.450325
 31
0.0
  0
LINE
  8
0
  6
CONTINUOUS
 62
   249
 10
290.968237
 20
148.344365
 30
0.0
 11
294.031763
 21
148.344365
 31
0.0
  0
INSERT
  8
0
  6
CENTER
 62
   249
  2
BLC26
 10
296.41053
 20
157.390461
 30
0.0
 41
1.006225
 42
1.006225
 50
180.0
 43
1.006225
  0
ARC
  8
0
  6
CONTINUOUS
 62
   249
 10
270.0
 20
182.5
 30
0.0
 40
0.5
 50
180.0
 51
0.0
  0
ARC
  8
0
  6
CONTINUOUS
 62
   249
 10
270.0
 20
182.5
 30
0.0
 40
0.5
 50
0.0
 51
180.0
  0
ARC
  8
0
  6
CONTINUOUS
 62
   249
 10
285.0
 20
182.5
 30
0.0
 40
0.5
 50
180.0
 51
0.0
  0
ARC
  8
0
  6
CONTINUOUS
 62
   249
 10
285.0
 20
182.5
 30
0.0
 40
0.5
 50
0.0
 51
180.0
  0
LINE
  8
0
  6
CONTINUOUS
 62
   249
 10
285.0
 20
180.990022
 30
0.0
 11
285.0
 21
178.344365
 31
0.0
  0
LINE
  8
0
  6
CONTINUOUS
 62
   249
 10
284.396305
 20
176.562812
 30
0.0
 11
285.603695
 21
176.562812
 31
0.0
  0
LINE
  8
0
  6
CONTINUOUS
 62
   249
 10
283.963807
 20
177.450325
 30
0.0
 11
286.027182
 21
177.450325
 31
0.0
  0
LINE
  8
0
  6
CONTINUOUS
 62
   249
 10
283.468237
 20
178.344365
 30
0.0
 11
286.531763
 21
178.344365
 31
0.0
  0
ARC
  8
0
  6
CONTINUOUS
 62
   249
 10
285.0
 20
187.689984
 30
0.0
 40
0.5
 50
180.0
 51
0.0
  0
ARC
  8
0
  6
CONTINUOUS
 62
   249
 10
285.0
 20
187.689984
 30
0.0
 40
0.5
 50
0.0
 51
180.0
  0
INSERT
  8
0
  6
CENTER
 62
   249
  2
BLC26
 10
301.410526
 20
190.080446
 30
0.0
 41
1.006225
 42
1.006225
 50
180.0
 43
1.006225
  0
INSERT
  8
0
  6
CENTER
 62
   249
  2
BLC26
 10
291.410524
 20
210.080448
 30
0.0
 41
1.006225
 42
1.006225
 50
180.0
 43
1.006225
  0
LINE
  8
0
  6
CONTINUOUS
 62
   249
 10
307.932113
 20
205.445027
 30
0.0
 11
307.932113
 21
196.295199
 31
0.0
  0
INSERT
  8
0
  6
CONTINUOUS
 62
   249
  2
BLC29
 10
308.064859
 20
198.655764
 30
0.0
 50
270.0
  0
ARC
  8
0
  6
CONTINUOUS
 62
   249
 10
295.0
 20
252.5
 30
0.0
 40
0.5
 50
180.0
 51
0.0
  0
ARC
  8
0
  6
CONTINUOUS
 62
   249
 10
295.0
 20
252.5
 30
0.0
 40
0.5
 50
0.0
 51
180.0
  0
ARC
  8
0
  6
CONTINUOUS
 62
   249
 10
300.0
 20
247.5
 30
0.0
 40
0.5
 50
180.0
 51
0.0
  0
ARC
  8
0
  6
CONTINUOUS
 62
   249
 10
300.0
 20
247.5
 30
0.0
 40
0.5
 50
0.0
 51
180.0
  0
INSERT
  8
0
  6
CENTER
 62
   249
  2
BLC26
 10
316.046562
 20
240.109534
 30
0.0
 41
1.006225
 42
1.006225
 43
1.006225
  0
ARC
  8
0
  6
CONTINUOUS
 62
   249
 10
290.0
 20
257.5
 30
0.0
 40
0.5
 50
180.0
 51
0.0
  0
ARC
  8
0
  6
CONTINUOUS
 62
   249
 10
290.0
 20
257.5
 30
0.0
 40
0.5
 50
0.0
 51
180.0
  0
ARC
  8
0
  6
CONTINUOUS
 62
   249
 10
317.5
 20
257.5
 30
0.0
 40
0.5
 50
180.0
 51
0.0
  0
ARC
  8
0
  6
CONTINUOUS
 62
   249
 10
317.5
 20
257.5
 30
0.0
 40
0.5
 50
0.0
 51
180.0
  0
ARC
  8
0
  6
CONTINUOUS
 62
   249
 10
340.0
 20
152.5
 30
0.0
 40
0.5
 50
180.0
 51
0.0
  0
ARC
  8
0
  6
CONTINUOUS
 62
   249
 10
340.0
 20
152.5
 30
0.0
 40
0.5
 50
0.0
 51
180.0
  0
INSERT
  8
0
  6
CENTER
 62
   249
  2
BLC26
 10
338.546562
 20
135.109534
 30
0.0
 41
1.006225
 42
1.006225
 43
1.006225
  0
INSERT
  8
0
  6
CENTER
 62
   249
  2
BLC26
 10
346.046562
 20
135.109534
 30
0.0
 41
1.006225
 42
1.006225
 43
1.006225
  0
ARC
  8
0
  6
CONTINUOUS
 62
   249
 10
347.5
 20
147.5
 30
0.0
 40
0.5
 50
180.0
 51
0.0
  0
ARC
  8
0
  6
CONTINUOUS
 62
   249
 10
347.5
 20
147.5
 30
0.0
 40
0.5
 50
0.0
 51
180.0
  0
ARC
  8
0
  6
CONTINUOUS
 62
   249
 10
355.0
 20
142.5
 30
0.0
 40
0.5
 50
180.0
 51
0.0
  0
ARC
  8
0
  6
CONTINUOUS
 62
   249
 10
355.0
 20
142.5
 30
0.0
 40
0.5
 50
0.0
 51
180.0
  0
INSERT
  8
0
  6
CENTER
 62
   249
  2
BLC26
 10
353.546562
 20
135.109534
 30
0.0
 41
1.006225
 42
1.006225
 43
1.006225
  0
LINE
  8
0
  6
CONTINUOUS
 62
   249
 10
364.499223
 20
208.735739
 30
0.0
 11
365.386109
 21
208.735739
 31
0.0
  0
LINE
  8
0
  6
CONTINUOUS
 62
   249
 10
364.168118
 20
209.347372
 30
0.0
 11
365.752689
 21
209.347372
 31
0.0
  0
LINE
  8
0
  6
CONTINUOUS
 62
   249
 10
364.984054
 20
209.969435
 30
0.0
 11
366.178395
 21
209.969435
 31
0.0
  0
LINE
  8
0
  6
CONTINUOUS
 62
   249
 10
363.789713
 20
209.969435
 30
0.0
 11
364.984054
 21
209.969435
 31
0.0
  0
LINE
  8
0
  6
CONTINUOUS
 62
   249
 10
364.999941
 20
211.323705
 30
0.0
 11
364.999941
 21
209.969435
 31
0.0
  0
LINE
  8
0
  6
CONTINUOUS
 62
   249
 10
363.220143
 20
201.211811
 30
0.0
 11
361.97147
 21
201.922632
 31
0.0
  0
LINE
  8
0
  6
CONTINUOUS
 62
   249
 10
361.97147
 20
201.922632
 30
0.0
 11
363.220143
 21
202.556038
 31
0.0
  0
LINE
  8
0
  6
CONTINUOUS
 62
   249
 10
366.844508
 20
202.646769
 30
0.0
 11
368.093182
 21
201.935947
 31
0.0
  0
LINE
  8
0
  6
CONTINUOUS
 62
   249
 10
368.093182
 20
201.935947
 30
0.0
 11
366.844508
 21
201.302542
 31
0.0
  0
LINE
  8
0
  6
CONTINUOUS
 62
   249
 10
346.509978
 20
232.5
 30
0.0
 11
349.155635
 21
232.5
 31
0.0
  0
LINE
  8
0
  6
CONTINUOUS
 62
   249
 10
350.937188
 20
231.896305
 30
0.0
 11
350.937188
 21
233.103695
 31
0.0
  0
LINE
  8
0
  6
CONTINUOUS
 62
   249
 10
350.049675
 20
231.463807
 30
0.0
 11
350.049675
 21
233.527182
 31
0.0
  0
LINE
  8
0
  6
CONTINUOUS
 62
   249
 10
349.155635
 20
230.968237
 30
0.0
 11
349.155635
 21
234.031763
 31
0.0
  0
LINE
  8
0
  6
CONTINUOUS
 62
   249
 10
346.509978
 20
237.68998
 30
0.0
 11
349.155635
 21
237.68998
 31
0.0
  0
LINE
  8
0
  6
CONTINUOUS
 62
   249
 10
350.937188
 20
237.086285
 30
0.0
 11
350.937188
 21
238.293675
 31
0.0
  0
LINE
  8
0
  6
CONTINUOUS
 62
   249
 10
350.049675
 20
236.653787
 30
0.0
 11
350.049675
 21
238.717163
 31
0.0
  0
LINE
  8
0
  6
CONTINUOUS
 62
   249
 10
349.155635
 20
236.158217
 30
0.0
 11
349.155635
 21
239.221743
 31
0.0
  0
ARC
  8
0
  6
CONTINUOUS
 62
   249
 10
342.5
 20
232.5
 30
0.0
 40
0.5
 50
180.0
 51
0.0
  0
ARC
  8
0
  6
CONTINUOUS
 62
   249
 10
342.5
 20
232.5
 30
0.0
 40
0.5
 50
0.0
 51
180.0
  0
INSERT
  8
0
  6
CENTER
 62
   249
  2
BLC26
 10
323.546562
 20
240.109534
 30
0.0
 41
1.006225
 42
1.006225
 43
1.006225
  0
INSERT
  8
0
  6
CENTER
 62
   249
  2
BLC26
 10
331.046562
 20
240.109534
 30
0.0
 41
1.006225
 42
1.006225
 43
1.006225
  0
ARC
  8
0
  6
CONTINUOUS
 62
   249
 10
325.0
 20
252.5
 30
0.0
 40
0.5
 50
180.0
 51
0.0
  0
ARC
  8
0
  6
CONTINUOUS
 62
   249
 10
325.0
 20
252.5
 30
0.0
 40
0.5
 50
0.0
 51
180.0
  0
ARC
  8
0
  6
CONTINUOUS
 62
   249
 10
332.5
 20
247.5
 30
0.0
 40
0.5
 50
180.0
 51
0.0
  0
ARC
  8
0
  6
CONTINUOUS
 62
   249
 10
332.5
 20
247.5
 30
0.0
 40
0.5
 50
0.0
 51
180.0
  0
LINE
  8
0
  6
CONTINUOUS
 62
   249
 10
364.27584
 20
221.535906
 30
0.0
 11
365.162727
 21
221.535906
 31
0.0
  0
LINE
  8
0
  6
CONTINUOUS
 62
   249
 10
363.944736
 20
222.147539
 30
0.0
 11
365.529307
 21
222.147539
 31
0.0
  0
LINE
  8
0
  6
CONTINUOUS
 62
   249
 10
364.760672
 20
222.769601
 30
0.0
 11
365.955013
 21
222.769601
 31
0.0
  0
LINE
  8
0
  6
CONTINUOUS
 62
   249
 10
363.566331
 20
222.769601
 30
0.0
 11
364.760672
 21
222.769601
 31
0.0
  0
LINE
  8
0
  6
CONTINUOUS
 62
   249
 10
364.776558
 20
224.123872
 30
0.0
 11
364.776558
 21
222.769601
 31
0.0
  0
LINE
  8
0
  6
CONTINUOUS
 62
   249
 10
364.105614
 20
215.805092
 30
0.0
 11
365.354287
 21
215.094271
 31
0.0
  0
LINE
  8
0
  6
CONTINUOUS
 62
   249
 10
365.354287
 20
215.094271
 30
0.0
 11
364.105614
 21
214.460866
 31
0.0
  0
LINE
  8
0
  6
CONTINUOUS
 62
   249
 10
363.220143
 20
240.113722
 30
0.0
 11
361.97147
 21
240.824544
 31
0.0
  0
LINE
  8
0
  6
CONTINUOUS
 62
   249
 10
361.97147
 20
240.824544
 30
0.0
 11
363.220143
 21
241.457949
 31
0.0
  0
LINE
  8
0
  6
CONTINUOUS
 62
   249
 10
363.220143
 20
252.25005
 30
0.0
 11
361.97147
 21
252.960872
 31
0.0
  0
LINE
  8
0
  6
CONTINUOUS
 62
   249
 10
361.97147
 20
252.960872
 30
0.0
 11
363.220143
 21
253.594277
 31
0.0
  0
LINE
  8
0
  6
CONTINUOUS
 62
   249
 10
366.844508
 20
241.54868
 30
0.0
 11
368.093182
 21
240.837859
 31
0.0
  0
LINE
  8
0
  6
CONTINUOUS
 62
   249
 10
368.093182
 20
240.837859
 30
0.0
 11
366.844508
 21
240.204454
 31
0.0
  0
LINE
  8
0
  6
CONTINUOUS
 62
   249
 10
366.844508
 20
253.685008
 30
0.0
 11
368.093182
 21
252.974187
 31
0.0
  0
LINE
  8
0
  6
CONTINUOUS
 62
   249
 10
368.093182
 20
252.974187
 30
0.0
 11
366.844508
 21
252.340781
 31
0.0
  0
ENDSEC
  0
EOF
