  0
SECTION
  2
HEADER
  9
$ACADVER
  1
AC1009
999
I-DEAS Drafting Master Series 7m3 Not Encoded
  9
$EXTMIN
 10
0.0
 20
0.0
  9
$EXTMAX
 10
4.2E+002
 20
2.97E+002
  9
$TEXTSIZE
 40
1.25E-001
  9
$LTSCALE
 40
1.0
  9
$CLAYER
  8
AUTOCAD1
  9
$CECOLOR
 62
2
  9
$DIMASZ
 40
1.25E-001
  9
$DIMEXO
 40
6.25E-002
  9
$DIMDLI
 40
2.5E-001
  9
$DIMEXE
 40
1.25E-001
  9
$DIMTP
 40
5.0E-003
  9
$DIMTM
 40
-5.0E-003
  9
$DIMTXT
 40
3.0
  9
$DIMLIM
 70
0
  9
$DIMTIH
 70
1
  9
$DIMTOH
 70
1
  9
$DIMSE1
 70
0
  9
$DIMSE2
 70
0
  9
$DIMTAD
 70
0
  9
$DIMASO
 70
1
  9
$DIMALT
 70
0
  9
$DIMALTD
 70
0
  9
$DIMTOFL
 70
1
  9
$DIMTIX
 70
0
  9
$DIMSAH
 70
0
  9
$DIMTFAC
 40
1.0
  9
$DIMGAP
 40
6.25E-002
  9
$LUNITS
 70
2
  9
$LUPREC
 70
3
  9
$FILLETRAD
 40
1.0E+001
  9
$AUNITS
 70
0
  9
$AUPREC
 70
1
  9
$CHAMFERA
 40
6.0
  9
$CHAMFERB
 40
6.0
  9
$ANGBASE
 50
0.0
  9
$ANGDIR
 70
0
  9
$PDMODE
 70
2
  9
$PDSIZE
 40
-1.0E-002
  9
$SPLINETYPE
 70
6
  0
ENDSEC
  0
SECTION
  2
TABLES
  0
TABLE
  2
LTYPE
 70
8
  0
LTYPE
  2
HIDDENNEW00
  3
_ 
 70
64
 72
65
 73
2
 40
4.5
 49
3.0
 49
-1.5
  0
LTYPE
  2
HIDDENNEW01
  3
_ 
 70
64
 72
65
 73
2
 40
4.5
 49
3.0
 49
-1.5
  0
LTYPE
  2
HIDDEN
  3
_ 
 70
64
 72
65
 73
2
 40
4.5
 49
3.0
 49
-1.5
  0
LTYPE
  2
CENTERLINE
  3
_ 
 70
64
 72
65
 73
4
 40
3.0E+001
 49
2.4E+001
 49
-1.5
 49
3.0
 49
-1.5
  0
LTYPE
  2
PHANTOM
  3
_ 
 70
64
 72
65
 73
6
 40
2.95E+001
 49
1.9E+001
 49
-1.5
 49
3.0
 49
-1.5
 49
3.0
 49
-1.5
  0
LTYPE
  2
SHORT_DASH
  3
_ 
 70
64
 72
65
 73
2
 40
3.0
 49
1.5
 49
-1.5
  0
LTYPE
  2
LONG_DASH
  3
_ 
 70
64
 72
65
 73
2
 40
9.0
 49
4.5
 49
-4.5
  0
LTYPE
  2
DASHED
  3
_ 
 70
64
 72
65
 73
2
 40
1.375
 49
1.125
 49
-2.5E-001
  0
ENDTAB
  0
TABLE
  2
LAYER
 70
258
  0
LAYER
  2
AUTOCAD1
 70
0
 62
7
  6
HIDDENNEW00
  0
LAYER
  2
Drafting_Hidden_Entities
 70
1
 62
7
  6
CONTINUOUS
  0
ENDTAB
  0
TABLE
  2
STYLE
 70
1
  0
STYLE
  2
STANDARD
 70
64
 40
0.0
 41
1.0
 50
0.0
 71
0
 42
1.0
  3
monotxt.shx
  4

  0
ENDTAB
  0
TABLE
  2
VIEW
 70
0
  0
ENDTAB
  0
TABLE
  2
DIMSTYLE
 70
0
  0
ENDTAB
  0
ENDSEC
  0
SECTION
  2
BLOCKS
  0
ENDSEC
  0
SECTION
  2
ENTITIES
  0
CIRCLE
  8
AUTOCAD1
  6
CONTINUOUS
 62
40
 10
1.43652E+002
 20
8.0306E+001
 40
3.5
  0
LINE
  8
AUTOCAD1
  6
CONTINUOUS
 62
40
 10
1.40842E+002
 20
7.8216E+001
 11
1.45742E+002
 21
8.3116E+001
  0
LINE
  8
AUTOCAD1
  6
CONTINUOUS
 62
40
 10
1.41552E+002
 20
7.7506E+001
 11
1.46452E+002
 21
8.2406E+001
  0
TEXT
  8
AUTOCAD1
  6
CONTINUOUS
 62
40
 10
2.53282E+002
 20
4.7176E+001
 40
4.0
  1
OESA-ZX 71
  0
LINE
  8
AUTOCAD1
  6
CONTINUOUS
 62
40
 10
1.07152E+002
 20
6.8306E+001
 11
1.07152E+002
 21
1.27306E+002
  0
LINE
  8
AUTOCAD1
  6
CONTINUOUS
 62
40
 10
1.05152E+002
 20
4.7306E+001
 11
1.05152E+002
 21
1.03806E+002
  0
LINE
  8
AUTOCAD1
  6
CONTINUOUS
 62
40
 10
1.00152E+002
 20
8.3806E+001
 11
1.02152E+002
 21
8.3806E+001
  0
LINE
  8
AUTOCAD1
  6
CONTINUOUS
 62
40
 10
1.00152E+002
 20
7.6806E+001
 11
1.02152E+002
 21
7.6806E+001
  0
LINE
  8
AUTOCAD1
  6
CONTINUOUS
 62
40
 10
9.9652E+001
 20
7.7306E+001
 11
9.9652E+001
 21
8.3306E+001
  0
LINE
  8
AUTOCAD1
  6
CONTINUOUS
 62
40
 10
1.07152E+002
 20
7.8306E+001
 11
1.08652E+002
 21
7.8306E+001
  0
LINE
  8
AUTOCAD1
  6
CONTINUOUS
 62
40
 10
1.07152E+002
 20
8.2306E+001
 11
1.08652E+002
 21
8.2306E+001
  0
ARC
  8
AUTOCAD1
  6
CONTINUOUS
 62
40
 10
1.00152E+002
 20
8.3306E+001
 40
5.0E-001
 50
9.0E+001
 51
1.8E+002
  0
ARC
  8
AUTOCAD1
  6
CONTINUOUS
 62
40
 10
1.00152E+002
 20
7.7306E+001
 40
5.0E-001
 50
1.8E+002
 51
2.7E+002
  0
LINE
  8
AUTOCAD1
  6
CONTINUOUS
 62
40
 10
1.41652E+002
 20
1.52306E+002
 11
1.41652E+002
 21
1.53806E+002
  0
LINE
  8
AUTOCAD1
  6
CONTINUOUS
 62
40
 10
1.45652E+002
 20
1.52306E+002
 11
1.45652E+002
 21
1.53806E+002
  0
LINE
  8
AUTOCAD1
  6
CONTINUOUS
 62
40
 10
1.40152E+002
 20
1.58806E+002
 11
1.40152E+002
 21
1.60806E+002
  0
ARC
  8
AUTOCAD1
  6
CONTINUOUS
 62
40
 10
1.40652E+002
 20
1.60806E+002
 40
5.0E-001
 50
9.0E+001
 51
1.8E+002
  0
LINE
  8
AUTOCAD1
  6
CONTINUOUS
 62
40
 10
1.40652E+002
 20
1.61306E+002
 11
1.46652E+002
 21
1.61306E+002
  0
ARC
  8
AUTOCAD1
  6
CONTINUOUS
 62
40
 10
1.46652E+002
 20
1.60806E+002
 40
5.0E-001
 50
0.0
 51
9.0E+001
  0
LINE
  8
AUTOCAD1
  6
CONTINUOUS
 62
40
 10
1.47152E+002
 20
1.58806E+002
 11
1.47152E+002
 21
1.60806E+002
  0
LINE
  8
AUTOCAD1
  6
CONTINUOUS
 62
40
 10
1.05152E+002
 20
6.8306E+001
 11
1.07152E+002
 21
6.8306E+001
  0
LINE
  8
AUTOCAD1
  6
CONTINUOUS
 62
40
 10
1.27152E+002
 20
1.27306E+002
 11
1.51152E+002
 21
1.27306E+002
  0
LINE
  8
AUTOCAD1
  6
LONG_DASH
 62
40
 10
1.51152E+002
 20
6.8306E+001
 11
1.51152E+002
 21
1.18806E+002
  0
LINE
  8
AUTOCAD1
  6
CONTINUOUS
 62
40
 10
1.27152E+002
 20
6.8306E+001
 11
1.27152E+002
 21
1.27306E+002
  0
CIRCLE
  8
AUTOCAD1
  6
CONTINUOUS
 62
40
 10
1.37152E+002
 20
1.18306E+002
 40
3.5
  0
LINE
  8
AUTOCAD1
  6
CONTINUOUS
 62
40
 10
1.37652E+002
 20
4.7306E+001
 11
1.37652E+002
 21
1.04806E+002
  0
LINE
  8
AUTOCAD1
  6
CONTINUOUS
 62
40
 10
1.37652E+002
 20
4.7306E+001
 11
1.57152E+002
 21
4.7306E+001
  0
LINE
  8
AUTOCAD1
  6
CONTINUOUS
 62
40
 10
1.50152E+002
 20
1.18806E+002
 11
3.94152E+002
 21
1.18806E+002
  0
LINE
  8
AUTOCAD1
  6
CONTINUOUS
 62
40
 10
9.152
 20
4.2806E+001
 11
3.0152E+001
 21
4.2806E+001
  0
LINE
  8
AUTOCAD1
  6
CONTINUOUS
 62
40
 10
1.50152E+002
 20
4.7306E+001
 11
1.50152E+002
 21
1.18806E+002
  0
LINE
  8
AUTOCAD1
  6
CONTINUOUS
 62
40
 10
1.57152E+002
 20
4.2806E+001
 11
1.57152E+002
 21
4.7306E+001
  0
LINE
  8
AUTOCAD1
  6
CONTINUOUS
 62
40
 10
9.0152E+001
 20
1.03806E+002
 11
1.05152E+002
 21
1.03806E+002
  0
LINE
  8
AUTOCAD1
  6
CONTINUOUS
 62
40
 10
1.51152E+002
 20
1.18806E+002
 11
1.51152E+002
 21
1.27306E+002
  0
LINE
  8
AUTOCAD1
  6
LONG_DASH
 62
40
 10
1.37652E+002
 20
6.8306E+001
 11
1.51152E+002
 21
6.8306E+001
  0
LINE
  8
AUTOCAD1
  6
CONTINUOUS
 62
40
 10
3.93152E+002
 20
1.27306E+002
 11
4.17152E+002
 21
1.27306E+002
  0
LINE
  8
AUTOCAD1
  6
CONTINUOUS
 62
40
 10
3.93152E+002
 20
1.18806E+002
 11
3.93152E+002
 21
1.27306E+002
  0
LINE
  8
AUTOCAD1
  6
CONTINUOUS
 62
40
 10
4.17152E+002
 20
6.8306E+001
 11
4.17152E+002
 21
1.27306E+002
  0
CIRCLE
  8
AUTOCAD1
  6
CONTINUOUS
 62
40
 10
4.07152E+002
 20
1.18306E+002
 40
3.5
  0
LINE
  8
AUTOCAD1
  6
CONTINUOUS
 62
40
 10
4.06652E+002
 20
6.8306E+001
 11
4.17152E+002
 21
6.8306E+001
  0
LINE
  8
AUTOCAD1
  6
LONG_DASH
 62
40
 10
3.93152E+002
 20
6.8306E+001
 11
4.06652E+002
 21
6.8306E+001
  0
LINE
  8
AUTOCAD1
  6
LONG_DASH
 62
40
 10
3.93152E+002
 20
6.8306E+001
 11
3.93152E+002
 21
1.18806E+002
  0
LINE
  8
AUTOCAD1
  6
CONTINUOUS
 62
40
 10
4.06652E+002
 20
4.7306E+001
 11
4.06652E+002
 21
1.04806E+002
  0
LINE
  8
AUTOCAD1
  6
CONTINUOUS
 62
40
 10
3.94152E+002
 20
4.7306E+001
 11
3.94152E+002
 21
1.18806E+002
  0
LINE
  8
AUTOCAD1
  6
CONTINUOUS
 62
40
 10
3.87152E+002
 20
4.7306E+001
 11
4.06652E+002
 21
4.7306E+001
  0
LINE
  8
AUTOCAD1
  6
CONTINUOUS
 62
40
 10
3.87152E+002
 20
4.2806E+001
 11
3.87152E+002
 21
4.7306E+001
  0
LINE
  8
AUTOCAD1
  6
CONTINUOUS
 62
40
 10
3.94152E+002
 20
1.04806E+002
 11
4.06652E+002
 21
1.04806E+002
  0
CIRCLE
  8
AUTOCAD1
  6
CONTINUOUS
 62
40
 10
4.00652E+002
 20
8.0306E+001
 40
3.5
  0
LINE
  8
AUTOCAD1
  6
CONTINUOUS
 62
40
 10
3.97842E+002
 20
8.2406E+001
 11
4.02742E+002
 21
7.7506E+001
  0
LINE
  8
AUTOCAD1
  6
CONTINUOUS
 62
40
 10
3.98552E+002
 20
8.3116E+001
 11
4.03452E+002
 21
7.8216E+001
  0
LINE
  8
AUTOCAD1
  6
CONTINUOUS
 62
40
 10
1.02152E+002
 20
4.7306E+001
 11
1.02152E+002
 21
1.03806E+002
  0
LINE
  8
AUTOCAD1
  6
CONTINUOUS
 62
40
 10
1.05152E+002
 20
1.27306E+002
 11
1.07152E+002
 21
1.27306E+002
  0
LINE
  8
AUTOCAD1
  6
CONTINUOUS
 62
40
 10
1.02152E+002
 20
4.7306E+001
 11
1.05152E+002
 21
4.7306E+001
  0
LINE
  8
AUTOCAD1
  6
CONTINUOUS
 62
40
 10
1.37652E+002
 20
1.04806E+002
 11
1.50152E+002
 21
1.04806E+002
  0
LINE
  8
AUTOCAD1
  6
CONTINUOUS
 62
40
 10
1.27152E+002
 20
6.8306E+001
 11
1.37652E+002
 21
6.8306E+001
  0
LINE
  8
AUTOCAD1
  6
CONTINUOUS
 62
40
 10
1.08652E+002
 20
7.8306E+001
 11
1.08652E+002
 21
8.2306E+001
  0
LINE
  8
AUTOCAD1
  6
LONG_DASH
 62
40
 10
1.05152E+002
 20
1.14806E+002
 11
1.07152E+002
 21
1.14806E+002
  0
LINE
  8
AUTOCAD1
  6
LONG_DASH
 62
40
 10
1.05152E+002
 20
1.21806E+002
 11
1.07152E+002
 21
1.21806E+002
  0
LINE
  8
AUTOCAD1
  6
CONTINUOUS
 62
40
 10
5.152
 20
1.18806E+002
 11
9.0152E+001
 21
1.18806E+002
  0
LINE
  8
AUTOCAD1
  6
CONTINUOUS
 62
40
 10
9.0152E+001
 20
1.03806E+002
 11
9.0152E+001
 21
1.18806E+002
  0
LINE
  8
AUTOCAD1
  6
CONTINUOUS
 62
40
 10
5.152
 20
4.7306E+001
 11
1.02152E+002
 21
4.7306E+001
  0
LINE
  8
AUTOCAD1
  6
CONTINUOUS
 62
40
 10
5.152
 20
4.6806E+001
 11
5.152
 21
1.18806E+002
  0
LINE
  8
AUTOCAD1
  6
CONTINUOUS
 62
40
 10
1.57152E+002
 20
4.2806E+001
 11
3.87152E+002
 21
4.2806E+001
  0
LINE
  8
AUTOCAD1
  6
CONTINUOUS
 62
40
 10
1.0152E+001
 20
4.5676E+001
 11
3.0152E+001
 21
4.5676E+001
  0
LINE
  8
AUTOCAD1
  6
CONTINUOUS
 62
40
 10
3.0152E+001
 20
4.2806E+001
 11
3.0152E+001
 21
4.5676E+001
  0
ARC
  8
AUTOCAD1
  6
CONTINUOUS
 62
40
 10
9.152
 20
4.6806E+001
 40
4.0
 50
1.8E+002
 51
2.7E+002
  0
ARC
  8
AUTOCAD1
  6
CONTINUOUS
 62
40
 10
1.0152E+001
 20
4.7676E+001
 40
2.0
 50
1.9059E+002
 51
2.7E+002
  0
LINE
  8
AUTOCAD1
  6
CONTINUOUS
 62
40
 10
1.37652E+002
 20
1.58806E+002
 11
1.48152E+002
 21
1.58806E+002
  0
LINE
  8
AUTOCAD1
  6
CONTINUOUS
 62
40
 10
1.27152E+002
 20
1.55806E+002
 11
1.37652E+002
 21
1.55806E+002
  0
LINE
  8
AUTOCAD1
  6
CONTINUOUS
 62
40
 10
1.27152E+002
 20
1.53806E+002
 11
1.51152E+002
 21
1.53806E+002
  0
LINE
  8
AUTOCAD1
  6
LONG_DASH
 62
40
 10
1.40652E+002
 20
1.53806E+002
 11
1.40652E+002
 21
1.55806E+002
  0
LINE
  8
AUTOCAD1
  6
LONG_DASH
 62
40
 10
1.33652E+002
 20
1.53806E+002
 11
1.33652E+002
 21
1.55806E+002
  0
LINE
  8
AUTOCAD1
  6
CONTINUOUS
 62
40
 10
1.41652E+002
 20
1.52306E+002
 11
1.45652E+002
 21
1.52306E+002
  0
LINE
  8
AUTOCAD1
  6
CONTINUOUS
 62
40
 10
1.27152E+002
 20
1.53806E+002
 11
1.27152E+002
 21
1.55806E+002
  0
LINE
  8
AUTOCAD1
  6
CONTINUOUS
 62
40
 10
1.51152E+002
 20
1.53806E+002
 11
1.51152E+002
 21
1.55806E+002
  0
LINE
  8
AUTOCAD1
  6
CONTINUOUS
 62
40
 10
1.37652E+002
 20
1.55806E+002
 11
1.37652E+002
 21
1.58806E+002
  0
LINE
  8
AUTOCAD1
  6
CONTINUOUS
 62
40
 10
1.53152E+002
 20
1.59806E+002
 11
1.53152E+002
 21
2.50806E+002
  0
LINE
  8
AUTOCAD1
  6
CONTINUOUS
 62
40
 10
1.50152E+002
 20
1.60806E+002
 11
1.50152E+002
 21
2.51806E+002
  0
LINE
  8
AUTOCAD1
  6
CONTINUOUS
 62
40
 10
1.57152E+002
 20
2.30806E+002
 11
1.57152E+002
 21
2.55806E+002
  0
LINE
  8
AUTOCAD1
  6
CONTINUOUS
 62
40
 10
1.54152E+002
 20
2.55806E+002
 11
3.90152E+002
 21
2.55806E+002
  0
LINE
  8
AUTOCAD1
  6
CONTINUOUS
 62
40
 10
1.57152E+002
 20
2.30806E+002
 11
3.87152E+002
 21
2.30806E+002
  0
LINE
  8
AUTOCAD1
  6
CONTINUOUS
 62
40
 10
1.55152E+002
 20
2.52806E+002
 11
1.57152E+002
 21
2.52806E+002
  0
ARC
  8
AUTOCAD1
  6
CONTINUOUS
 62
40
 10
1.55152E+002
 20
2.50806E+002
 40
2.0
 50
9.0E+001
 51
1.8E+002
  0
ARC
  8
AUTOCAD1
  6
CONTINUOUS
 62
40
 10
1.54152E+002
 20
2.51806E+002
 40
4.0
 50
9.0E+001
 51
1.8E+002
  0
ARC
  8
AUTOCAD1
  6
CONTINUOUS
 62
40
 10
1.49152E+002
 20
1.59806E+002
 40
4.0
 50
2.7E+002
 51
3.6E+002
  0
ARC
  8
AUTOCAD1
  6
CONTINUOUS
 62
40
 10
1.48152E+002
 20
1.60806E+002
 40
2.0
 50
2.7E+002
 51
3.6E+002
  0
LINE
  8
AUTOCAD1
  6
CONTINUOUS
 62
40
 10
4.02652E+002
 20
1.52306E+002
 11
4.02652E+002
 21
1.53806E+002
  0
LINE
  8
AUTOCAD1
  6
CONTINUOUS
 62
40
 10
3.98652E+002
 20
1.52306E+002
 11
3.98652E+002
 21
1.53806E+002
  0
LINE
  8
AUTOCAD1
  6
CONTINUOUS
 62
40
 10
4.04152E+002
 20
1.58806E+002
 11
4.04152E+002
 21
1.60806E+002
  0
ARC
  8
AUTOCAD1
  6
CONTINUOUS
 62
40
 10
4.03652E+002
 20
1.60806E+002
 40
5.0E-001
 50
0.0
 51
9.0E+001
  0
LINE
  8
AUTOCAD1
  6
CONTINUOUS
 62
40
 10
3.97652E+002
 20
1.61306E+002
 11
4.03652E+002
 21
1.61306E+002
  0
ARC
  8
AUTOCAD1
  6
CONTINUOUS
 62
40
 10
3.97652E+002
 20
1.60806E+002
 40
5.0E-001
 50
9.0E+001
 51
1.8E+002
  0
LINE
  8
AUTOCAD1
  6
CONTINUOUS
 62
40
 10
3.97152E+002
 20
1.58806E+002
 11
3.97152E+002
 21
1.60806E+002
  0
LINE
  8
AUTOCAD1
  6
CONTINUOUS
 62
40
 10
3.96152E+002
 20
1.58806E+002
 11
4.06652E+002
 21
1.58806E+002
  0
LINE
  8
AUTOCAD1
  6
CONTINUOUS
 62
40
 10
3.93152E+002
 20
1.55806E+002
 11
3.95152E+002
 21
1.55806E+002
  0
LINE
  8
AUTOCAD1
  6
CONTINUOUS
 62
40
 10
3.93152E+002
 20
1.53806E+002
 11
4.17152E+002
 21
1.53806E+002
  0
LINE
  8
AUTOCAD1
  6
LONG_DASH
 62
40
 10
4.03652E+002
 20
1.53806E+002
 11
4.03652E+002
 21
1.55806E+002
  0
LINE
  8
AUTOCAD1
  6
LONG_DASH
 62
40
 10
4.10652E+002
 20
1.53806E+002
 11
4.10652E+002
 21
1.55806E+002
  0
LINE
  8
AUTOCAD1
  6
CONTINUOUS
 62
40
 10
3.98652E+002
 20
1.52306E+002
 11
4.02652E+002
 21
1.52306E+002
  0
LINE
  8
AUTOCAD1
  6
CONTINUOUS
 62
40
 10
4.17152E+002
 20
1.53806E+002
 11
4.17152E+002
 21
1.55806E+002
  0
LINE
  8
AUTOCAD1
  6
CONTINUOUS
 62
40
 10
3.93152E+002
 20
1.53806E+002
 11
3.93152E+002
 21
1.55806E+002
  0
LINE
  8
AUTOCAD1
  6
CONTINUOUS
 62
40
 10
4.06652E+002
 20
1.55806E+002
 11
4.06652E+002
 21
1.58806E+002
  0
LINE
  8
AUTOCAD1
  6
CONTINUOUS
 62
40
 10
3.91152E+002
 20
1.59806E+002
 11
3.91152E+002
 21
2.50806E+002
  0
LINE
  8
AUTOCAD1
  6
CONTINUOUS
 62
40
 10
3.94152E+002
 20
1.60806E+002
 11
3.94152E+002
 21
2.51806E+002
  0
LINE
  8
AUTOCAD1
  6
CONTINUOUS
 62
40
 10
3.87152E+002
 20
2.30806E+002
 11
3.87152E+002
 21
2.55806E+002
  0
LINE
  8
AUTOCAD1
  6
CONTINUOUS
 62
40
 10
3.87152E+002
 20
2.52806E+002
 11
3.89152E+002
 21
2.52806E+002
  0
ARC
  8
AUTOCAD1
  6
CONTINUOUS
 62
40
 10
3.89152E+002
 20
2.50806E+002
 40
2.0
 50
0.0
 51
9.0E+001
  0
ARC
  8
AUTOCAD1
  6
CONTINUOUS
 62
40
 10
3.90152E+002
 20
2.51806E+002
 40
4.0
 50
0.0
 51
9.0E+001
  0
ARC
  8
AUTOCAD1
  6
CONTINUOUS
 62
40
 10
3.95152E+002
 20
1.59806E+002
 40
4.0
 50
1.8E+002
 51
2.7E+002
  0
ARC
  8
AUTOCAD1
  6
CONTINUOUS
 62
40
 10
3.96152E+002
 20
1.60806E+002
 40
2.0
 50
1.8E+002
 51
2.7E+002
  0
LINE
  8
AUTOCAD1
  6
CONTINUOUS
 62
40
 10
1.05152E+002
 20
1.03806E+002
 11
1.05152E+002
 21
1.27306E+002
  0
LINE
  8
AUTOCAD1
  6
CONTINUOUS
 62
40
 10
1.49152E+002
 20
1.55806E+002
 11
1.51152E+002
 21
1.55806E+002
  0
LINE
  8
AUTOCAD1
  6
CONTINUOUS
 62
40
 10
1.37652E+002
 20
1.55806E+002
 11
1.49152E+002
 21
1.55806E+002
  0
LINE
  8
AUTOCAD1
  6
CONTINUOUS
 62
40
 10
3.95152E+002
 20
1.55806E+002
 11
4.06652E+002
 21
1.55806E+002
  0
LINE
  8
AUTOCAD1
  6
CONTINUOUS
 62
40
 10
4.06652E+002
 20
1.55806E+002
 11
4.17152E+002
 21
1.55806E+002
  0
LINE
  8
AUTOCAD1
  6
CONTINUOUS
 62
40
 10
2.52152E+002
 20
5.3806E+001
 11
2.92152E+002
 21
5.3806E+001
  0
LINE
  8
AUTOCAD1
  6
CONTINUOUS
 62
40
 10
2.52152E+002
 20
8.5806E+001
 11
2.92152E+002
 21
8.5806E+001
  0
LINE
  8
AUTOCAD1
  6
CONTINUOUS
 62
40
 10
2.92152E+002
 20
5.3806E+001
 11
2.92152E+002
 21
8.5806E+001
  0
LINE
  8
AUTOCAD1
  6
CONTINUOUS
 62
40
 10
2.52152E+002
 20
5.3806E+001
 11
2.52152E+002
 21
8.5806E+001
  0
LINE
  8
AUTOCAD1
  6
CONTINUOUS
 62
40
 10
2.60762E+002
 20
5.7806E+001
 11
2.83542E+002
 21
5.7806E+001
  0
LINE
  8
AUTOCAD1
  6
CONTINUOUS
 62
40
 10
2.59462E+002
 20
6.0066E+001
 11
2.70852E+002
 21
7.9586E+001
  0
LINE
  8
AUTOCAD1
  6
CONTINUOUS
 62
40
 10
2.73442E+002
 20
7.9586E+001
 11
2.84832E+002
 21
6.0066E+001
  0
ARC
  8
AUTOCAD1
  6
CONTINUOUS
 62
40
 10
2.72152E+002
 20
7.8836E+001
 40
1.5
 50
3.026E+001
 51
1.4974E+002
  0
ARC
  8
AUTOCAD1
  6
CONTINUOUS
 62
40
 10
2.83542E+002
 20
5.9306E+001
 40
1.5
 50
2.7E+002
 51
3.9026E+002
  0
ARC
  8
AUTOCAD1
  6
CONTINUOUS
 62
40
 10
2.60762E+002
 20
5.9306E+001
 40
1.5
 50
1.4974E+002
 51
2.7E+002
  0
LINE
  8
AUTOCAD1
  6
CONTINUOUS
 62
40
 10
2.71542E+002
 20
7.6206E+001
 11
2.72532E+002
 21
7.6026E+001
  0
LINE
  8
AUTOCAD1
  6
CONTINUOUS
 62
40
 10
2.70242E+002
 20
6.7316E+001
 11
2.71542E+002
 21
7.6206E+001
  0
LINE
  8
AUTOCAD1
  6
CONTINUOUS
 62
40
 10
2.70832E+002
 20
6.7806E+001
 11
2.72532E+002
 21
7.6026E+001
  0
LINE
  8
AUTOCAD1
  6
CONTINUOUS
 62
40
 10
2.72252E+002
 20
6.1836E+001
 11
2.73212E+002
 21
6.8286E+001
  0
LINE
  8
AUTOCAD1
  6
CONTINUOUS
 62
40
 10
2.72852E+002
 20
6.1726E+001
 11
2.74402E+002
 21
6.9256E+001
  0
LINE
  8
AUTOCAD1
  6
CONTINUOUS
 62
40
 10
2.70832E+002
 20
6.7806E+001
 11
2.74402E+002
 21
6.9256E+001
  0
LINE
  8
AUTOCAD1
  6
CONTINUOUS
 62
40
 10
2.70242E+002
 20
6.7316E+001
 11
2.73212E+002
 21
6.8286E+001
  0
LINE
  8
AUTOCAD1
  6
CONTINUOUS
 62
40
 10
2.71572E+002
 20
6.1946E+001
 11
2.72082E+002
 21
5.9086E+001
  0
LINE
  8
AUTOCAD1
  6
CONTINUOUS
 62
40
 10
2.72082E+002
 20
5.9086E+001
 11
2.73532E+002
 21
6.1606E+001
  0
LINE
  8
AUTOCAD1
  6
CONTINUOUS
 62
40
 10
2.71572E+002
 20
6.1946E+001
 11
2.72252E+002
 21
6.1836E+001
  0
LINE
  8
AUTOCAD1
  6
CONTINUOUS
 62
40
 10
2.72852E+002
 20
6.1726E+001
 11
2.73532E+002
 21
6.1606E+001
  0
ENDSEC
  0
EOF
