  0
SECTION
  2
HEADER
  9
$ACADVER
  1
AC1009
  9
$DWGCODEPAGE
  3
iso8859-1
  9
$INSBASE
 10
0.0
 20
0.0
 30
0.0
  9
$EXTMIN
 10
1.0E20
 20
1.0E20
  9
$EXTMAX
 10
-1.0E20
 20
-1.0E20
  9
$LIMMIN
 10
0.0
 20
0.0
  9
$LIMMAX
 10
12.0
 20
9.0
  9
$ORTHOMODE
 70
     0
  9
$REGENMODE
 70
     1
  9
$FILLMODE
 70
     1
  9
$QTEXTMODE
 70
     0
  9
$MIRRTEXT
 70
     1
  9
$DRAGMODE
 70
     2
  9
$LTSCALE
 40
15.0
  9
$OSMODE
 70
     0
  9
$ATTMODE
 70
     1
  9
$TEXTSIZE
 40
0.2
  9
$TRACEWID
 40
0.05
  9
$TEXTSTYLE
  7
STANDARD
  9
$CLAYER
  8
0
  9
$CELTYPE
  6
DASHED
  9
$CECOLOR
 62
   256
  9
$DIMSCALE
 40
1.0
  9
$DIMASZ
 40
0.18
  9
$DIMEXO
 40
0.0625
  9
$DIMDLI
 40
0.38
  9
$DIMRND
 40
0.0
  9
$DIMDLE
 40
0.0
  9
$DIMEXE
 40
0.18
  9
$DIMTP
 40
0.0
  9
$DIMTM
 40
0.0
  9
$DIMTXT
 40
0.18
  9
$DIMCEN
 40
0.09
  9
$DIMTSZ
 40
0.0
  9
$DIMTOL
 70
     0
  9
$DIMLIM
 70
     0
  9
$DIMTIH
 70
     1
  9
$DIMTOH
 70
     1
  9
$DIMSE1
 70
     0
  9
$DIMSE2
 70
     0
  9
$DIMTAD
 70
     0
  9
$DIMZIN
 70
     0
  9
$DIMBLK
  1

  9
$DIMASO
 70
     1
  9
$DIMSHO
 70
     1
  9
$DIMPOST
  1

  9
$DIMAPOST
  1

  9
$DIMALT
 70
     0
  9
$DIMALTD
 70
     2
  9
$DIMALTF
 40
25.4
  9
$DIMLFAC
 40
1.0
  9
$DIMTOFL
 70
     0
  9
$DIMTVP
 40
0.0
  9
$DIMTIX
 70
     0
  9
$DIMSOXD
 70
     0
  9
$DIMSAH
 70
     0
  9
$DIMBLK1
  1

  9
$DIMBLK2
  1

  9
$DIMSTYLE
  2
STANDARD
  9
$DIMCLRD
 70
     0
  9
$DIMCLRE
 70
     0
  9
$DIMCLRT
 70
     0
  9
$DIMTFAC
 40
1.0
  9
$DIMGAP
 40
0.09
  9
$LUNITS
 70
     2
  9
$LUPREC
 70
     4
  9
$AXISMODE
 70
     0
  9
$AXISUNIT
 10
0.0
 20
0.0
  9
$SKETCHINC
 40
0.1
  9
$FILLETRAD
 40
0.0
  9
$AUNITS
 70
     0
  9
$AUPREC
 70
     0
  9
$MENU
  1
acad
  9
$ELEVATION
 40
0.0
  9
$PELEVATION
 40
0.0
  9
$THICKNESS
 40
0.0
  9
$LIMCHECK
 70
     0
  9
$BLIPMODE
 70
     1
  9
$CHAMFERA
 40
0.0
  9
$CHAMFERB
 40
0.0
  9
$SKPOLY
 70
     0
  9
$TDCREATE
 40
0.000000000
  9
$TDUPDATE
 40
0.000000000
  9
$TDINDWG
 40
0.0
  9
$TDUSRTIMER
 40
0.0
  9
$USRTIMER
 70
     1
  9
$ANGBASE
 50
0.0
  9
$ANGDIR
 70
     0
  9
$PDMODE
 70
     0
  9
$PDSIZE
 40
0.0
  9
$PLINEWID
 40
0.0
  9
$COORDS
 70
     1
  9
$SPLFRAME
 70
     0
  9
$SPLINETYPE
 70
     6
  9
$SPLINESEGS
 70
     8
  9
$ATTDIA
 70
     0
  9
$ATTREQ
 70
     1
  9
$HANDLING
 70
     1
  9
$HANDSEED
  5
   82B
  9
$SURFTAB1
 70
     6
  9
$SURFTAB2
 70
     6
  9
$SURFTYPE
 70
     6
  9
$SURFU
 70
     6
  9
$SURFV
 70
     6
  9
$UCSNAME
  2

  9
$UCSORG
 10
0.0
 20
0.0
 30
0.0
  9
$UCSXDIR
 10
1.0
 20
0.0
 30
0.0
  9
$UCSYDIR
 10
0.0
 20
1.0
 30
0.0
  9
$PUCSNAME
  2

  9
$PUCSORG
 10
0.0
 20
0.0
 30
0.0
  9
$PUCSXDIR
 10
1.0
 20
0.0
 30
0.0
  9
$PUCSYDIR
 10
0.0
 20
1.0
 30
0.0
  9
$USERI1
 70
     0
  9
$USERI2
 70
     0
  9
$USERI3
 70
     0
  9
$USERI4
 70
     0
  9
$USERI5
 70
     0
  9
$USERR1
 40
0.0
  9
$USERR2
 40
0.0
  9
$USERR3
 40
0.0
  9
$USERR4
 40
0.0
  9
$USERR5
 40
0.0
  9
$WORLDVIEW
 70
     1
  9
$SHADEDGE
 70
     3
  9
$SHADEDIF
 70
    70
  9
$TILEMODE
 70
     1
  9
$MAXACTVP
 70
    16
  9
$PINSBASE
 10
0.0
 20
0.0
 30
0.0
  9
$PLIMCHECK
 70
     0
  9
$PEXTMIN
 10
1.0E20
 20
1.0E20
 30
1.0E20
  9
$PEXTMAX
 10
-1.0E20
 20
-1.0E20
 30
-1.0E20
  9
$PLIMMIN
 10
0.0
 20
0.0
  9
$PLIMMAX
 10
12.0
 20
9.0
  9
$UNITMODE
 70
     0
  9
$VISRETAIN
 70
     0
  0
ENDSEC
  0
SECTION
  2
TABLES
  0
TABLE
  2
VPORT
 70
     1
  0
VPORT
  2
*ACTIVE
 70
     0
 10
0.0
 20
0.0
 11
1.0
 21
1.0
 12
6.801242
 22
4.5
 13
0.0
 23
0.0
 14
1.0
 24
1.0
 15
0.0
 25
0.0
 16
0.0
 26
0.0
 36
1.0
 17
0.0
 27
0.0
 37
0.0
 40
9.0
 41
1.511387
 42
50.0
 43
0.0
 44
0.0
 50
0.0
 51
0.0
 71
     0
 72
   100
 73
     1
 74
     1
 75
     0
 76
     0
 77
     0
 78
     0
  0
ENDTAB
  0
TABLE
  2
LTYPE
 70
    41
  0
LTYPE
  2
BYBLOCK
 70
     0
  3

 72
    65
 73
     0
 40
0.0
  0
LTYPE
  2
BYLAYER
 70
     0
  3

 72
    65
 73
     0
 40
0.0
  0
LTYPE
  2
CONTINUOUS
 70
     0
  3
Solid line
 72
    65
 73
     0
 40
0.0
  0
LTYPE
  2
BORDER
 70
    64
  3
__ __ . __ __ . __ __ . __ __ . __ __ . __ __ .
 72
    65
 73
     6
 40
1.75
 49
0.5
 49
-0.25
 49
0.5
 49
-0.25
 49
0.0
 49
-0.25
  0
LTYPE
  2
BORDER2
 70
    64
  3
__.__.__.__.__.__.__.__.__.__.__.__.__.__.__.__
 72
    65
 73
     6
 40
0.875
 49
0.25
 49
-0.125
 49
0.25
 49
-0.125
 49
0.0
 49
-0.125
  0
LTYPE
  2
BORDERX2
 70
    64
  3
____  ____  .  ____  ____  .  ____  ____  .  __
 72
    65
 73
     6
 40
3.5
 49
1.0
 49
-0.5
 49
1.0
 49
-0.5
 49
0.0
 49
-0.5
  0
LTYPE
  2
CENTER
 70
    64
  3
____ _ ____ _ ____ _ ____ _ ____ _ ____ _ ____
 72
    65
 73
     4
 40
2.0
 49
1.25
 49
-0.25
 49
0.25
 49
-0.25
  0
LTYPE
  2
CENTER2
 70
    64
  3
___ _ ___ _ ___ _ ___ _ ___ _ ___ _ ___ _ ___ _
 72
    65
 73
     4
 40
1.125
 49
0.75
 49
-0.125
 49
0.125
 49
-0.125
  0
LTYPE
  2
CENTERX2
 70
    64
  3
________  __  ________  __  ________  __  _____
 72
    65
 73
     4
 40
4.0
 49
2.5
 49
-0.5
 49
0.5
 49
-0.5
  0
LTYPE
  2
DASHDOT
 70
    64
  3
__ . __ . __ . __ . __ . __ . __ . __ . __ . __
 72
    65
 73
     4
 40
1.0
 49
0.5
 49
-0.25
 49
0.0
 49
-0.25
  0
LTYPE
  2
DASHDOT2
 70
    64
  3
_._._._._._._._._._._._._._._._._._._._._._._._
 72
    65
 73
     4
 40
0.5
 49
0.25
 49
-0.125
 49
0.0
 49
-0.125
  0
LTYPE
  2
DASHDOTX2
 70
    64
  3
____  .  ____  .  ____  .  ____  .  ____  .  __
 72
    65
 73
     4
 40
2.0
 49
1.0
 49
-0.5
 49
0.0
 49
-0.5
  0
LTYPE
  2
DASHED
 70
    64
  3
__ __ __ __ __ __ __ __ __ __ __ __ __ __ __ __
 72
    65
 73
     2
 40
0.75
 49
0.5
 49
-0.25
  0
LTYPE
  2
DASHED2
 70
    64
  3
_ _ _ _ _ _ _ _ _ _ _ _ _ _ _ _ _ _ _ _ _ _ _ _
 72
    65
 73
     2
 40
0.375
 49
0.25
 49
-0.125
  0
LTYPE
  2
DASHEDX2
 70
    64
  3
____  ____  ____  ____  ____  ____  ____  ____
 72
    65
 73
     2
 40
1.5
 49
1.0
 49
-0.5
  0
LTYPE
  2
DIVIDE
 70
    64
  3
____ . . ____ . . ____ . . ____ . . ____ . . __
 72
    65
 73
     6
 40
1.25
 49
0.5
 49
-0.25
 49
0.0
 49
-0.25
 49
0.0
 49
-0.25
  0
LTYPE
  2
DIVIDE2
 70
    64
  3
__..__..__..__..__..__..__..__..__..__..__..__.
 72
    65
 73
     6
 40
0.625
 49
0.25
 49
-0.125
 49
0.0
 49
-0.125
 49
0.0
 49
-0.125
  0
LTYPE
  2
DIVIDEX2
 70
    64
  3
________  .  .  ________  .  .  ________  .  .
 72
    65
 73
     6
 40
2.5
 49
1.0
 49
-0.5
 49
0.0
 49
-0.5
 49
0.0
 49
-0.5
  0
LTYPE
  2
DOT
 70
    64
  3
. . . . . . . . . . . . . . . . . . . . . . . .
 72
    65
 73
     2
 40
0.25
 49
0.0
 49
-0.25
  0
LTYPE
  2
DOT2
 70
    64
  3
...............................................
 72
    65
 73
     2
 40
0.125
 49
0.0
 49
-0.125
  0
LTYPE
  2
DOTX2
 70
    64
  3
.  .  .  .  .  .  .  .  .  .  .  .  .  .  .  .
 72
    65
 73
     2
 40
0.5
 49
0.0
 49
-0.5
  0
LTYPE
  2
HIDDEN
 70
    64
  3
__ __ __ __ __ __ __ __ __ __ __ __ __ __ __ __
 72
    65
 73
     2
 40
0.375
 49
0.25
 49
-0.125
  0
LTYPE
  2
HIDDEN2
 70
    64
  3
_ _ _ _ _ _ _ _ _ _ _ _ _ _ _ _ _ _ _ _ _ _ _ _
 72
    65
 73
     2
 40
0.1875
 49
0.125
 49
-0.0625
  0
LTYPE
  2
HIDDENX2
 70
    64
  3
____ ____ ____ ____ ____ ____ ____ ____ ____ __
 72
    65
 73
     2
 40
0.75
 49
0.5
 49
-0.25
  0
LTYPE
  2
PHANTOM
 70
    64
  3
______  __  __  ______  __  __  ______  __  __
 72
    65
 73
     6
 40
2.5
 49
1.25
 49
-0.25
 49
0.25
 49
-0.25
 49
0.25
 49
-0.25
  0
LTYPE
  2
PHANTOM2
 70
    64
  3
___ _ _ ___ _ _ ___ _ _ ___ _ _ ___ _ _ ___ _ _
 72
    65
 73
     6
 40
1.25
 49
0.625
 49
-0.125
 49
0.125
 49
-0.125
 49
0.125
 49
-0.125
  0
LTYPE
  2
PHANTOMX2
 70
    64
  3
____________    ____    ____    ____________
 72
    65
 73
     6
 40
5.0
 49
2.5
 49
-0.5
 49
0.5
 49
-0.5
 49
0.5
 49
-0.5
  0
LTYPE
  2
ACAD_ISO02W100
 70
    64
  3
__ __ __ __ __ __ __ __ __ __ __ __ __ __ __ __
 72
    65
 73
     2
 40
15.0
 49
12.0
 49
-3.0
  0
LTYPE
  2
ACAD_ISO03W100
 70
    64
  3
__    __    __    __    __    __    __    __
 72
    65
 73
     2
 40
30.0
 49
12.0
 49
-18.0
  0
LTYPE
  2
ACAD_ISO04W100
 70
    64
  3
____ . ____ . ____ . ____ . ____ . ____ . ____
 72
    65
 73
     4
 40
30.5
 49
24.0
 49
-3.0
 49
0.5
 49
-3.0
  0
LTYPE
  2
ACAD_ISO05W100
 70
    64
  3
____ .. ____ .. ____ .. ____ .. ____ .. ____ ..
 72
    65
 73
     6
 40
34.0
 49
24.0
 49
-3.0
 49
0.5
 49
-3.0
 49
0.5
 49
-3.0
  0
LTYPE
  2
ACAD_ISO06W100
 70
    64
  3
____ ... ____ ... ____ ... ____ ... ____ ... __
 72
    65
 73
     8
 40
37.5
 49
24.0
 49
-3.0
 49
0.5
 49
-3.0
 49
0.5
 49
-3.0
 49
0.5
 49
-3.0
  0
LTYPE
  2
ACAD_ISO07W100
 70
    64
  3
. . . . . . . . . . . . . . . . . . . . . . . .
 72
    65
 73
     2
 40
3.5
 49
0.5
 49
-3.0
  0
LTYPE
  2
ACAD_ISO08W100
 70
    64
  3
____ __ ____ __ ____ __ ____ ____ __ __ ____ __
 72
    65
 73
     4
 40
36.0
 49
24.0
 49
-3.0
 49
6.0
 49
-3.0
  0
LTYPE
  2
ACAD_ISO09W100
 70
    64
  3
____ __ __ ____ __ __ ____ __ __ ____ __ __ ___
 72
    65
 73
     6
 40
45.0
 49
24.0
 49
-3.0
 49
6.0
 49
-3.0
 49
6.0
 49
-3.0
  0
LTYPE
  2
ACAD_ISO10W100
 70
    64
  3
__ . __ . __ . __ . __ . __ . __ . __ . __ . __
 72
    65
 73
     4
 40
18.5
 49
12.0
 49
-3.0
 49
0.5
 49
-3.0
  0
LTYPE
  2
ACAD_ISO11W100
 70
    64
  3
__ __ . __ __ . __ __ . __ __ . __ __ . __ __ .
 72
    65
 73
     6
 40
33.5
 49
12.0
 49
-3.0
 49
12.0
 49
-3.0
 49
0.5
 49
-3.0
  0
LTYPE
  2
ACAD_ISO12W100
 70
    64
  3
__ . . __ . . __ . . __ . . __ . . __ . . __ .
 72
    65
 73
     6
 40
22.0
 49
12.0
 49
-3.0
 49
0.5
 49
-3.0
 49
0.5
 49
-3.0
  0
LTYPE
  2
ACAD_ISO13W100
 70
    64
  3
__ __ . . __ __ . . __ __ . . __ __ . . __ __ .
 72
    65
 73
     8
 40
37.0
 49
12.0
 49
-3.0
 49
12.0
 49
-3.0
 49
0.5
 49
-3.0
 49
0.5
 49
-3.0
  0
LTYPE
  2
ACAD_ISO14W100
 70
    64
  3
__ . . . __ . . . __ . . . __ . . . __ . . . __
 72
    65
 73
     8
 40
25.5
 49
12.0
 49
-3.0
 49
0.5
 49
-3.0
 49
0.5
 49
-3.0
 49
0.5
 49
-3.0
  0
LTYPE
  2
ACAD_ISO15W100
 70
    64
  3
__ __ . . . __ __ . . . __ __ . . . __ __ . . .
 72
    65
 73
    10
 40
40.5
 49
12.0
 49
-3.0
 49
12.0
 49
-3.0
 49
0.5
 49
-3.0
 49
0.5
 49
-3.0
 49
0.5
 49
-3.0
  0
ENDTAB
  0
TABLE
  2
STYLE
 70
     4
  0
STYLE
  2
STANDARD
 70
    64
 40
0.0
 41
1.0
 50
0.0
 71
     0
 42
0.2
  3
txt
  4

  0
STYLE
  2
TOLERANCE
 70
    64
 40
0.0
 41
1.0
 50
0.0
 71
     0
 42
0.2
  3
../igesfont/iges1003.shx
  4

  0
STYLE
  2
ROMANS
 70
    64
 40
0.0
 41
1.0
 50
0.0
 71
     0
 42
0.2
  3
romans.shx
  4

  0
STYLE
  2
ROMANC
 70
    64
 40
0.0
 41
1.0
 50
0.0
 71
     0
 42
0.2
  3
romanc.shx
  4

  0
ENDTAB
  0
TABLE
  2
DIMSTYLE
 70
     2
  0
DIMSTYLE
  2
UNNAMED
 70
     0
  3

  4

  5

  6

  7

 40
1.0
 41
0.18
 42
0.0625
 43
0.38
 44
0.18
 45
0.0
 46
0.0
 47
0.0
 48
0.0
140
0.18
141
0.09
142
0.0
143
25.4
144
1.0
145
0.0
146
1.0
147
0.09
 71
     0
 72
     0
 73
     1
 74
     1
 75
     0
 76
     0
 77
     0
 78
     0
170
     0
171
     2
172
     0
173
     0
174
     0
175
     0
176
     0
177
     0
178
     0
  0
DIMSTYLE
  2
STANDARD
 70
     0
  3

  4

  5

  6

  7

 40
1.0
 41
0.18
 42
0.0625
 43
0.38
 44
0.18
 45
0.0
 46
0.0
 47
0.0
 48
0.0
140
0.18
141
0.09
142
0.0
143
25.4
144
1.0
145
0.0
146
1.0
147
0.09
 71
     0
 72
     0
 73
     1
 74
     1
 75
     0
 76
     0
 77
     0
 78
     0
170
     0
171
     2
172
     0
173
     0
174
     0
175
     0
176
     0
177
     0
178
     0
  0
ENDTAB
  0
TABLE
  2
LAYER
 70
     2
  0
LAYER
  2
0
 70
     0
 62
     7
  6
CONTINUOUS
  0
LAYER
  2
255
 70
     0
 62
     7
  6
CONTINUOUS
  0
ENDTAB
  0
ENDSEC
  0
SECTION
  2
BLOCKS
  0
BLOCK
  5
     B
  8
0
  6
CONTINUOUS
 62
     7
  2
*UDIM1426
 70
    65
 10
0.0
 20
0.0
 30
0.0
  3
*UDIM1426
  0
TEXT
  5
     C
  8
0
  6
CONTINUOUS
 62
     7
 10
-540.899144999086
 20
-108.570225132005
 30
0.0
 40
3.00000002980232
  1
5,5
 50
350.732338238479
 41
0.933333333333333
 72
     1
 11
-536.808482348026
 21
-107.717887509862
 31
0.0
 73
     2
  0
TEXT
  5
     D
  8
0
  6
CONTINUOUS
 62
     7
 10
-544.008027335576
 20
-108.062927704016
 30
0.0
 40
3.00000002980232
  1
Ø
 50
350.732338238479
 41
0.933333333333334
 72
     1
 11
-542.680815667481
 21
-106.759659022271
 31
0.0
 73
     2
  0
TEXT
  5
     E
  8
0
  6
CONTINUOUS
 62
     7
 10
-532.658139379549
 20
-109.914965951593
 30
0.0
 40
3.00000002980232
  1
 - M5
 50
350.732338238479
 41
0.933333333333333
 72
     1
 11
-525.804025745524
 21
-109.513559389052
 31
0.0
 73
     2
  0
LINE
  5
     F
  8
0
  6
CONTINUOUS
 62
     7
 10
-519.594099331485
 20
-113.059939923994
 30
0.0
 11
-559.124692896643
 21
-106.609464648686
 31
0.0
  0
LINE
  5
    10
  8
0
  6
CONTINUOUS
 62
     7
 10
-554.767886141428
 20
-106.792560006427
 30
0.0
 11
-557.767641087732
 21
-106.830904003657
 31
0.0
  0
LINE
  5
    11
  8
0
  6
CONTINUOUS
 62
     7
 10
-557.767641087732
 20
-106.830904003657
 30
0.0
 11
-554.935679012037
 21
-107.82084885153
 31
0.0
  0
LINE
  5
    12
  8
0
  6
CONTINUOUS
 62
     7
 10
-562.124447842947
 20
-106.647808645917
 30
0.0
 11
-559.124692896643
 21
-106.609464648686
 31
0.0
  0
LINE
  5
    13
  8
0
  6
CONTINUOUS
 62
     7
 10
-559.124692896643
 20
-106.609464648686
 30
0.0
 11
-561.956654972338
 21
-105.619519800814
 31
0.0
  0
ENDBLK
  5
    14
  8
0
  6
CONTINUOUS
 62
     7
  0
BLOCK
  5
    15
  8
0
  6
CONTINUOUS
 62
     7
  2
*UDIM1427
 70
    65
 10
0.0
 20
0.0
 30
0.0
  3
*UDIM1427
  0
TEXT
  5
    16
  8
0
  6
CONTINUOUS
 62
     7
 10
-588.939819342987
 20
-93.5201843735869
 30
0.0
 40
3.00000002980232
  1
139
 50
449.999999896069
 41
0.933333333333333
 72
     1
 11
-590.439819350839
 21
-89.6201843321323
 31
0.0
 73
     2
  0
LINE
  5
    17
  8
0
  6
CONTINUOUS
 62
     7
 10
-578.883666992188
 20
-71.9701843261719
 30
0.0
 11
-589.939819335938
 21
-71.9701843261719
 31
0.0
  0
LINE
  5
    18
  8
0
  6
CONTINUOUS
 62
     7
 10
-578.883666992188
 20
-106.720184326172
 30
0.0
 11
-589.939819335938
 21
-106.720184326172
 31
0.0
  0
LINE
  5
    19
  8
0
  6
CONTINUOUS
 62
     7
 10
-587.939819335938
 20
-71.9701843261719
 30
0.0
 11
-587.939819335938
 21
-106.720184326172
 31
0.0
  0
LINE
  5
    1A
  8
0
  6
CONTINUOUS
 62
     7
 10
-587.418874905986
 20
-74.9246076033788
 30
0.0
 11
-587.939819335938
 21
-71.9701843261719
 31
0.0
  0
LINE
  5
    1B
  8
0
  6
CONTINUOUS
 62
     7
 10
-587.939819335938
 20
-71.9701843261719
 30
0.0
 11
-588.460763765889
 21
-74.9246076033788
 31
0.0
  0
LINE
  5
    1C
  8
0
  6
CONTINUOUS
 62
     7
 10
-588.460763765889
 20
-103.765761048965
 30
0.0
 11
-587.939819335938
 21
-106.720184326172
 31
0.0
  0
LINE
  5
    1D
  8
0
  6
CONTINUOUS
 62
     7
 10
-587.939819335938
 20
-106.720184326172
 30
0.0
 11
-587.418874905986
 21
-103.765761048965
 31
0.0
  0
ENDBLK
  5
    1E
  8
0
  6
CONTINUOUS
 62
     7
  0
BLOCK
  5
    1F
  8
0
  6
CONTINUOUS
 62
     7
  2
*UDIM1428
 70
    65
 10
0.0
 20
0.0
 30
0.0
  3
*UDIM1428
  0
TEXT
  5
    20
  8
0
  6
CONTINUOUS
 62
     7
 10
-545.765897762966
 20
-87.1339241482113
 30
0.0
 40
3.00000002980232
  1
71,75
 50
449.999999896069
 41
0.933333333333333
 72
     1
 11
-547.265897765756
 21
-80.4339240789414
 31
0.0
 73
     2
  0
LINE
  5
    21
  8
0
  6
CONTINUOUS
 62
     7
 10
-573.008666992188
 20
-71.9701843261719
 30
0.0
 11
-542.765897750855
 21
-71.9701843261719
 31
0.0
  0
LINE
  5
    22
  8
0
  6
CONTINUOUS
 62
     7
 10
-544.765897750855
 20
-71.9701843261719
 30
0.0
 11
-544.765897750855
 21
-89.9076843261719
 31
0.0
  0
LINE
  5
    23
  8
0
  6
CONTINUOUS
 62
     7
 10
-544.244953320903
 20
-74.9246076033788
 30
0.0
 11
-544.765897750855
 21
-71.9701843261719
 31
0.0
  0
LINE
  5
    24
  8
0
  6
CONTINUOUS
 62
     7
 10
-544.765897750855
 20
-71.9701843261719
 30
0.0
 11
-545.286842180806
 21
-74.9246076033788
 31
0.0
  0
LINE
  5
    25
  8
0
  6
CONTINUOUS
 62
     7
 10
-545.286842180806
 20
-86.9532610489649
 30
0.0
 11
-544.765897750855
 21
-89.9076843261719
 31
0.0
  0
LINE
  5
    26
  8
0
  6
CONTINUOUS
 62
     7
 10
-544.765897750855
 20
-89.9076843261719
 30
0.0
 11
-544.244953320903
 21
-86.9532610489649
 31
0.0
  0
ENDBLK
  5
    27
  8
0
  6
CONTINUOUS
 62
     7
  0
BLOCK
  5
    28
  8
0
  6
CONTINUOUS
 62
     7
  2
*UDIM1429
 70
    65
 10
0.0
 20
0.0
 30
0.0
  3
*UDIM1429
  0
TEXT
  5
    29
  8
0
  6
CONTINUOUS
 62
     7
 10
-555.521170480779
 20
-62.1307754420729
 30
0.0
 40
3.00000002980232
  1
17,5
 50
359.999999896069
 41
0.933333333333333
 72
     1
 11
-550.221170425415
 21
-60.630775436759
 31
0.0
 73
     2
  0
LINE
  5
    2A
  8
0
  6
CONTINUOUS
 62
     7
 10
-558.446166992188
 20
-68.2252936166517
 30
0.0
 11
-558.446166992188
 21
-61.1307754516602
 31
0.0
  0
LINE
  5
    2B
  8
0
  6
CONTINUOUS
 62
     7
 10
-544.921170372764
 20
-63.1307754516602
 30
0.0
 11
-562.821166992188
 21
-63.1307754516602
 31
0.0
  0
LINE
  5
    2C
  8
0
  6
CONTINUOUS
 62
     7
 10
-555.491743714981
 20
-62.6098310217085
 30
0.0
 11
-558.446166992188
 21
-63.1307754516602
 31
0.0
  0
LINE
  5
    2D
  8
0
  6
CONTINUOUS
 62
     7
 10
-558.446166992188
 20
-63.1307754516602
 30
0.0
 11
-555.491743714981
 21
-63.6517198816118
 31
0.0
  0
LINE
  5
    2E
  8
0
  6
CONTINUOUS
 62
     7
 10
-565.775590269395
 20
-63.6517198816118
 30
0.0
 11
-562.821166992188
 21
-63.1307754516602
 31
0.0
  0
LINE
  5
    2F
  8
0
  6
CONTINUOUS
 62
     7
 10
-562.821166992188
 20
-63.1307754516602
 30
0.0
 11
-565.775590269395
 21
-62.6098310217085
 31
0.0
  0
ENDBLK
  5
    30
  8
0
  6
CONTINUOUS
 62
     7
  0
BLOCK
  5
    31
  8
0
  6
CONTINUOUS
 62
     7
  2
*UDIM1430
 70
    65
 10
0.0
 20
0.0
 30
0.0
  3
*UDIM1430
  0
TEXT
  5
    32
  8
0
  6
CONTINUOUS
 62
     7
 10
-559.896166666082
 20
-118.256872167537
 30
0.0
 40
3.00000002980232
  1
52,5
 50
359.999999896069
 41
0.933333333333333
 72
     1
 11
-554.596166610718
 21
-116.756872162223
 31
0.0
 73
     2
  0
LINE
  5
    33
  8
0
  6
CONTINUOUS
 62
     7
 10
-575.946166992188
 20
-112.438929011352
 30
0.0
 11
-575.946166992188
 21
-121.256872177124
 31
0.0
  0
LINE
  5
    34
  8
0
  6
CONTINUOUS
 62
     7
 10
-549.296166558067
 20
-119.256872177124
 30
0.0
 11
-575.946166992188
 21
-119.256872177124
 31
0.0
  0
LINE
  5
    35
  8
0
  6
CONTINUOUS
 62
     7
 10
-559.866743714981
 20
-118.735927747172
 30
0.0
 11
-562.821166992188
 21
-119.256872177124
 31
0.0
  0
LINE
  5
    36
  8
0
  6
CONTINUOUS
 62
     7
 10
-562.821166992188
 20
-119.256872177124
 30
0.0
 11
-559.866743714981
 21
-119.777816607076
 31
0.0
  0
LINE
  5
    37
  8
0
  6
CONTINUOUS
 62
     7
 10
-578.900590269394
 20
-119.777816607076
 30
0.0
 11
-575.946166992188
 21
-119.256872177124
 31
0.0
  0
LINE
  5
    38
  8
0
  6
CONTINUOUS
 62
     7
 10
-575.946166992188
 20
-119.256872177124
 30
0.0
 11
-578.900590269394
 21
-118.735927747172
 31
0.0
  0
ENDBLK
  5
    39
  8
0
  6
CONTINUOUS
 62
     7
  0
BLOCK
  5
    3A
  8
0
  6
CONTINUOUS
 62
     7
  2
MOSTRINA
 70
    64
 10
0.0
 20
0.0
 30
0.0
  3
MOSTRINA
  0
LINE
  5
    3B
  8
0
  6
CONTINUOUS
 62
     3
 10
173.338256835938
 20
30.7306251525879
 30
0.0
 11
173.338256835938
 21
189.230621337891
 31
0.0
  0
LINE
  5
    3C
  8
0
  6
CONTINUOUS
 62
     3
 10
57.5882568359375
 20
29.4806251525879
 30
0.0
 11
172.088256835938
 21
29.4806251525879
 31
0.0
  0
LINE
  5
    3D
  8
0
  6
CONTINUOUS
 62
     3
 10
56.3382568359375
 20
30.7306251525879
 30
0.0
 11
56.3382568359375
 21
189.230621337891
 31
0.0
  0
LINE
  5
    3E
  8
0
  6
CONTINUOUS
 62
     3
 10
57.5882568359375
 20
190.480621337891
 30
0.0
 11
172.088256835938
 21
190.480621337891
 31
0.0
  0
LINE
  5
    3F
  8
0
  6
CONTINUOUS
 62
     3
 10
167.838256835938
 20
56.9806251525879
 30
0.0
 11
167.838256835938
 21
162.980625152588
 31
0.0
  0
LINE
  5
    40
  8
0
  6
CONTINUOUS
 62
     3
 10
61.8382568359375
 20
56.9806251525879
 30
0.0
 11
167.838256835938
 21
56.9806251525879
 31
0.0
  0
LINE
  5
    41
  8
0
  6
CONTINUOUS
 62
     3
 10
61.8382568359375
 20
56.9806251525879
 30
0.0
 11
61.8382568359375
 21
162.980625152588
 31
0.0
  0
LINE
  5
    42
  8
0
  6
CONTINUOUS
 62
     3
 10
61.8382568359375
 20
162.980621337891
 30
0.0
 11
167.838256835938
 21
162.980621337891
 31
0.0
  0
LINE
  5
    43
  8
0
  6
CONTINUOUS
 62
     3
 10
168.838256835938
 20
48.4806251525879
 30
0.0
 11
168.838256835938
 21
49.4806251525879
 31
0.0
  0
LINE
  5
    44
  8
0
  6
CONTINUOUS
 62
     3
 10
61.8382568359375
 20
50.4806251525879
 30
0.0
 11
167.838256835938
 21
50.4806251525879
 31
0.0
  0
LINE
  5
    45
  8
0
  6
CONTINUOUS
 62
     3
 10
60.8382568359375
 20
48.4806251525879
 30
0.0
 11
60.8382568359375
 21
49.4806251525879
 31
0.0
  0
LINE
  5
    46
  8
0
  6
CONTINUOUS
 62
     3
 10
61.8382568359375
 20
49.4806251525879
 30
0.0
 11
167.838256835938
 21
49.4806251525879
 31
0.0
  0
LINE
  5
    47
  8
0
  6
CONTINUOUS
 62
     3
 10
60.8382568359375
 20
29.4806251525879
 30
0.0
 11
60.8382568359375
 21
48.4806251525879
 31
0.0
  0
LINE
  5
    48
  8
0
  6
CONTINUOUS
 62
     3
 10
60.8382568359375
 20
49.4806213378906
 30
0.0
 11
60.8382568359375
 21
190.480621337891
 31
0.0
  0
LINE
  5
    49
  8
0
  6
CONTINUOUS
 62
     3
 10
61.8382568359375
 20
29.4806251525879
 30
0.0
 11
61.8382568359375
 21
49.4806251525879
 31
0.0
  0
LINE
  5
    4A
  8
0
  6
CONTINUOUS
 62
     3
 10
61.8382568359375
 20
162.980621337891
 30
0.0
 11
61.8382568359375
 21
169.480621337891
 31
0.0
  0
LINE
  5
    4B
  8
0
  6
CONTINUOUS
 62
     3
 10
61.8382568359375
 20
50.4806251525879
 30
0.0
 11
61.8382568359375
 21
56.9806251525879
 31
0.0
  0
LINE
  5
    4C
  8
0
  6
CONTINUOUS
 62
     3
 10
168.838256835938
 20
29.4806251525879
 30
0.0
 11
168.838256835938
 21
48.4806251525879
 31
0.0
  0
LINE
  5
    4D
  8
0
  6
CONTINUOUS
 62
     3
 10
168.838256835938
 20
49.4806251525879
 30
0.0
 11
168.838256835938
 21
190.480621337891
 31
0.0
  0
LINE
  5
    4E
  8
0
  6
CONTINUOUS
 62
     3
 10
167.838256835938
 20
50.4806251525879
 30
0.0
 11
167.838256835938
 21
56.9806251525879
 31
0.0
  0
LINE
  5
    4F
  8
0
  6
CONTINUOUS
 62
     3
 10
167.838256835938
 20
162.980621337891
 30
0.0
 11
167.838256835938
 21
169.480621337891
 31
0.0
  0
LINE
  5
    50
  8
0
  6
CONTINUOUS
 62
     3
 10
167.838256835938
 20
29.4806251525879
 30
0.0
 11
167.838256835938
 21
49.4806251525879
 31
0.0
  0
LINE
  5
    51
  8
0
  6
CONTINUOUS
 62
     3
 10
60.8382568359375
 20
170.480621337891
 30
0.0
 11
168.838256835938
 21
170.480621337891
 31
0.0
  0
LINE
  5
    52
  8
0
  6
CONTINUOUS
 62
     3
 10
61.8382568359375
 20
169.480621337891
 30
0.0
 11
167.838256835938
 21
169.480621337891
 31
0.0
  0
ARC
  5
    53
  8
0
  6
CONTINUOUS
 62
     3
 10
57.5882568359375
 20
30.7306251525879
 30
0.0
 40
1.25
 50
180.0
 51
270.0
  0
ARC
  5
    54
  8
0
  6
CONTINUOUS
 62
     3
 10
172.088256835938
 20
30.7306251525879
 30
0.0
 40
1.25
 50
270.0
 51
360.0
  0
ARC
  5
    55
  8
0
  6
CONTINUOUS
 62
     3
 10
172.088256835938
 20
189.230621337891
 30
0.0
 40
1.25
 50
0.0
 51
90.0
  0
ARC
  5
    56
  8
0
  6
CONTINUOUS
 62
     3
 10
57.5882568359375
 20
189.230621337891
 30
0.0
 40
1.25
 50
90.0
 51
180.0
  0
LINE
  5
    57
  8
0
  6
DOT
 62
     3
 10
60.3382577409677
 20
179.7306252571
 30
0.0
 11
60.8382568359375
 21
179.7306252571
 31
0.0
  0
LINE
  5
    58
  8
0
  6
DOT
 62
     3
 10
60.3382577409676
 20
181.2306252571
 30
0.0
 11
60.8382568359375
 21
181.2306252571
 31
0.0
  0
LINE
  5
    59
  8
0
  6
CONTINUOUS
 62
     3
 10
168.338257745313
 20
179.730625257273
 30
0.0
 11
168.838256835938
 21
179.730625257273
 31
0.0
  0
LINE
  5
    5A
  8
0
  6
CONTINUOUS
 62
     3
 10
168.338257745314
 20
181.230625257273
 30
0.0
 11
168.838256835938
 21
181.230625257273
 31
0.0
  0
ARC
  5
    5B
  8
0
  6
DOT
 62
     3
 10
60.3382577401871
 20
180.480625257147
 30
0.0
 40
0.749999999345164
 50
90.0
 51
270.0
  0
ARC
  5
    5C
  8
0
  6
CONTINUOUS
 62
     3
 10
61.338257740822
 20
180.480625256974
 30
0.0
 40
0.750000000009701
 50
270.0
 51
450.0
  0
LINE
  5
    5D
  8
0
  6
CONTINUOUS
 62
     3
 10
60.8382568359375
 20
181.2306252571
 30
0.0
 11
61.3382577409688
 21
181.2306252571
 31
0.0
  0
LINE
  5
    5E
  8
0
  6
CONTINUOUS
 62
     3
 10
60.8382568359375
 20
179.7306252571
 30
0.0
 11
61.3382577409689
 21
179.7306252571
 31
0.0
  0
ARC
  5
    5F
  8
0
  6
CONTINUOUS
 62
     3
 10
168.338257745503
 20
180.480625256952
 30
0.0
 40
0.750000000048506
 50
90.0000000038822
 51
269.999999996024
  0
ARC
  5
    60
  8
0
  6
DOT
 62
     3
 10
169.338257745421
 20
180.480625256965
 30
0.0
 40
0.750000000029104
 50
270.000000002449
 51
449.999999997486
  0
LINE
  5
    61
  8
0
  6
DOT
 62
     3
 10
168.838256835938
 20
181.230625257273
 30
0.0
 11
169.338257745315
 21
181.230625257273
 31
0.0
  0
LINE
  5
    62
  8
0
  6
DOT
 62
     3
 10
168.838256835938
 20
179.730625257273
 30
0.0
 11
169.338257745315
 21
179.730625257273
 31
0.0
  0
POINT
  5
    63
  8
0
  6
CONTINUOUS
 62
     3
 10
114.838256835938
 20
109.980621337891
 30
0.0
  0
ENDBLK
  5
    64
  8
0
  6
CONTINUOUS
 62
     7
  0
BLOCK
  5
    65
  8
0
  6
CONTINUOUS
 62
     7
  2
*UDIM1431
 70
    65
 10
0.0
 20
0.0
 30
0.0
  3
*UDIM1431
  0
TEXT
  5
    66
  8
0
  6
CONTINUOUS
 62
     7
 10
-547.866223172544
 20
106.509994510354
 30
0.0
 40
3.00000002980232
  1
117
 50
359.999999948034
 41
0.933333333333333
 72
     1
 11
-543.966223132448
 21
108.009994521737
 31
0.0
 73
     2
  0
LINE
  5
    67
  8
0
  6
CONTINUOUS
 62
     7
 10
-514.441226315336
 20
67.4420433044414
 30
0.0
 11
-514.441226315336
 21
107.509994506836
 31
0.0
  0
LINE
  5
    68
  8
0
  6
CONTINUOUS
 62
     7
 10
-572.941226315336
 20
67.4420433044414
 30
0.0
 11
-572.941226315336
 21
107.509994506836
 31
0.0
  0
LINE
  5
    69
  8
0
  6
CONTINUOUS
 62
     7
 10
-514.441226315336
 20
105.509994506836
 30
0.0
 11
-572.941226315336
 21
105.509994506836
 31
0.0
  0
LINE
  5
    6A
  8
0
  6
CONTINUOUS
 62
     7
 10
-517.395649592543
 20
104.989050076884
 30
0.0
 11
-514.441226315336
 21
105.509994506836
 31
0.0
  0
LINE
  5
    6B
  8
0
  6
CONTINUOUS
 62
     7
 10
-514.441226315336
 20
105.509994506836
 30
0.0
 11
-517.395649592543
 21
106.030938936788
 31
0.0
  0
LINE
  5
    6C
  8
0
  6
CONTINUOUS
 62
     7
 10
-569.986803038129
 20
106.030938936788
 30
0.0
 11
-572.941226315336
 21
105.509994506836
 31
0.0
  0
LINE
  5
    6D
  8
0
  6
CONTINUOUS
 62
     7
 10
-572.941226315336
 20
105.509994506836
 30
0.0
 11
-569.986803038129
 21
104.989050076884
 31
0.0
  0
ENDBLK
  5
    6E
  8
0
  6
CONTINUOUS
 62
     7
  0
BLOCK
  5
    6F
  8
0
  6
CONTINUOUS
 62
     7
  2
*UDIM1432
 70
    65
 10
0.0
 20
0.0
 30
0.0
  3
*UDIM1432
  0
TEXT
  5
    70
  8
0
  6
CONTINUOUS
 62
     7
 10
-503.875930789665
 20
22.6420470730766
 30
0.0
 40
3.00000002980232
  1
161
 50
89.9999999480344
 41
0.933333333333333
 72
     1
 11
-505.375930801034
 21
26.5420471131782
 31
0.0
 73
     2
  0
LINE
  5
    71
  8
0
  6
CONTINUOUS
 62
     7
 10
-514.066226315336
 20
-13.4329547882099
 30
0.0
 11
-500.875930786133
 21
-13.4329547882099
 31
0.0
  0
LINE
  5
    72
  8
0
  6
CONTINUOUS
 62
     7
 10
-514.066226315336
 20
67.0670433044414
 30
0.0
 11
-500.875930786133
 21
67.0670433044414
 31
0.0
  0
LINE
  5
    73
  8
0
  6
CONTINUOUS
 62
     7
 10
-502.875930786133
 20
-13.4329547882099
 30
0.0
 11
-502.875930786133
 21
67.0670433044414
 31
0.0
  0
LINE
  5
    74
  8
0
  6
CONTINUOUS
 62
     7
 10
-503.396875216085
 20
-10.478531511003
 30
0.0
 11
-502.875930786133
 21
-13.4329547882099
 31
0.0
  0
LINE
  5
    75
  8
0
  6
CONTINUOUS
 62
     7
 10
-502.875930786133
 20
-13.4329547882099
 30
0.0
 11
-502.354986356181
 21
-10.478531511003
 31
0.0
  0
LINE
  5
    76
  8
0
  6
CONTINUOUS
 62
     7
 10
-502.354986356181
 20
64.1126200272345
 30
0.0
 11
-502.875930786133
 21
67.0670433044414
 31
0.0
  0
LINE
  5
    77
  8
0
  6
CONTINUOUS
 62
     7
 10
-502.875930786133
 20
67.0670433044414
 30
0.0
 11
-503.396875216085
 21
64.1126200272345
 31
0.0
  0
ENDBLK
  5
    78
  8
0
  6
CONTINUOUS
 62
     7
  0
BLOCK
  5
    79
  8
0
  6
CONTINUOUS
 62
     7
  2
*UDIM1433
 70
    65
 10
0.0
 20
0.0
 30
0.0
  3
*UDIM1433
  0
TEXT
  5
    7A
  8
0
  6
CONTINUOUS
 62
     7
 10
-609.335302832007
 20
-28.8329605424083
 30
0.0
 40
3.00000002980232
  1
46
 50
89.9999999480344
 41
0.933333333333333
 72
     1
 11
-610.835302844644
 21
-26.3329605162144
 31
0.0
 73
     2
  0
LINE
  5
    7B
  8
0
  6
CONTINUOUS
 62
     7
 10
-562.99170850586
 20
-37.5579605102538
 30
0.0
 11
-610.335302829743
 21
-37.5579605102538
 31
0.0
  0
LINE
  5
    7C
  8
0
  6
CONTINUOUS
 62
     7
 10
-586.691240984934
 20
-14.5579605102541
 30
0.0
 11
-610.335302829743
 21
-14.5579605102541
 31
0.0
  0
LINE
  5
    7D
  8
0
  6
CONTINUOUS
 62
     7
 10
-608.335302829742
 20
-37.5579605102538
 30
0.0
 11
-608.335302829742
 21
-14.5579605102541
 31
0.0
  0
LINE
  5
    7E
  8
0
  6
CONTINUOUS
 62
     7
 10
-608.856247259694
 20
-34.6035372330469
 30
0.0
 11
-608.335302829742
 21
-37.5579605102538
 31
0.0
  0
LINE
  5
    7F
  8
0
  6
CONTINUOUS
 62
     7
 10
-608.335302829742
 20
-37.5579605102538
 30
0.0
 11
-607.814358399791
 21
-34.6035372330469
 31
0.0
  0
LINE
  5
    80
  8
0
  6
CONTINUOUS
 62
     7
 10
-607.814358399791
 20
-17.512383787461
 30
0.0
 11
-608.335302829742
 21
-14.5579605102541
 31
0.0
  0
LINE
  5
    81
  8
0
  6
CONTINUOUS
 62
     7
 10
-608.335302829742
 20
-14.5579605102541
 30
0.0
 11
-608.856247259694
 21
-17.512383787461
 31
0.0
  0
ENDBLK
  5
    82
  8
0
  6
CONTINUOUS
 62
     7
  0
BLOCK
  5
    83
  8
0
  6
CONTINUOUS
 62
     7
  2
*UDIM1434
 70
    65
 10
0.0
 20
0.0
 30
0.0
  3
*UDIM1434
  0
TEXT
  5
    84
  8
0
  6
CONTINUOUS
 62
     7
 10
-599.810249811519
 20
41.6545394158676
 30
0.0
 40
3.00000002980232
  1
87,25
 50
89.9999999480344
 41
0.933333333333333
 72
     1
 11
-601.310249820352
 21
48.3545394837847
 31
0.0
 73
     2
  0
LINE
  5
    85
  8
0
  6
CONTINUOUS
 62
     7
 10
-593.300734413783
 20
26.8170433044414
 30
0.0
 11
-600.810249805451
 21
26.8170433044414
 31
0.0
  0
LINE
  5
    86
  8
0
  6
CONTINUOUS
 62
     7
 10
-570.066243872418
 20
70.4420394897461
 30
0.0
 11
-600.810249805451
 21
70.4420394897461
 31
0.0
  0
LINE
  5
    87
  8
0
  6
CONTINUOUS
 62
     7
 10
-598.810249805451
 20
26.8170433044414
 30
0.0
 11
-598.810249805451
 21
70.4420394897461
 31
0.0
  0
LINE
  5
    88
  8
0
  6
CONTINUOUS
 62
     7
 10
-599.331194235402
 20
29.7714665816484
 30
0.0
 11
-598.810249805451
 21
26.8170433044414
 31
0.0
  0
LINE
  5
    89
  8
0
  6
CONTINUOUS
 62
     7
 10
-598.810249805451
 20
26.8170433044414
 30
0.0
 11
-598.289305375499
 21
29.7714665816484
 31
0.0
  0
LINE
  5
    8A
  8
0
  6
CONTINUOUS
 62
     7
 10
-598.289305375499
 20
67.4876162125391
 30
0.0
 11
-598.810249805451
 21
70.4420394897461
 31
0.0
  0
LINE
  5
    8B
  8
0
  6
CONTINUOUS
 62
     7
 10
-598.810249805451
 20
70.4420394897461
 30
0.0
 11
-599.331194235402
 21
67.4876162125391
 31
0.0
  0
ENDBLK
  5
    8C
  8
0
  6
CONTINUOUS
 62
     7
  0
BLOCK
  5
    8D
  8
0
  6
CONTINUOUS
 62
     7
  2
*UDIM1435
 70
    65
 10
0.0
 20
0.0
 30
0.0
  3
*UDIM1435
  0
TEXT
  5
    8E
  8
0
  6
CONTINUOUS
 62
     7
 10
-547.866226987234
 20
98.3623275792012
 30
0.0
 40
3.00000002980232
  1
105
 50
359.999999948034
 41
0.933333333333333
 72
     1
 11
-543.966226947138
 21
99.8623275905848
 31
0.0
 73
     2
  0
LINE
  5
    8F
  8
0
  6
CONTINUOUS
 62
     7
 10
-517.44123394473
 20
53.8170433044414
 30
0.0
 11
-517.44123394473
 21
99.3623275756836
 31
0.0
  0
LINE
  5
    90
  8
0
  6
CONTINUOUS
 62
     7
 10
-569.941226315322
 20
53.8170433044414
 30
0.0
 11
-569.941226315322
 21
99.3623275756836
 31
0.0
  0
LINE
  5
    91
  8
0
  6
CONTINUOUS
 62
     7
 10
-517.44123394473
 20
97.3623275756836
 30
0.0
 11
-569.941226315322
 21
97.3623275756836
 31
0.0
  0
LINE
  5
    92
  8
0
  6
CONTINUOUS
 62
     7
 10
-520.395657221937
 20
96.8413831457319
 30
0.0
 11
-517.44123394473
 21
97.3623275756836
 31
0.0
  0
LINE
  5
    93
  8
0
  6
CONTINUOUS
 62
     7
 10
-517.44123394473
 20
97.3623275756836
 30
0.0
 11
-520.395657221937
 21
97.8832720056353
 31
0.0
  0
LINE
  5
    94
  8
0
  6
CONTINUOUS
 62
     7
 10
-566.986803038115
 20
97.8832720056353
 30
0.0
 11
-569.941226315322
 21
97.3623275756836
 31
0.0
  0
LINE
  5
    95
  8
0
  6
CONTINUOUS
 62
     7
 10
-569.941226315322
 20
97.3623275756836
 30
0.0
 11
-566.986803038115
 21
96.8413831457319
 31
0.0
  0
ENDBLK
  5
    96
  8
0
  6
CONTINUOUS
 62
     7
  0
BLOCK
  5
    97
  8
0
  6
CONTINUOUS
 62
     7
  2
*UDIM1436
 70
    65
 10
0.0
 20
0.0
 30
0.0
  3
*UDIM1436
  0
TEXT
  5
    98
  8
0
  6
CONTINUOUS
 62
     7
 10
-537.716226980197
 20
79.7032089255947
 30
0.0
 40
3.00000002980232
  1
35
 50
359.999999948034
 41
0.933333333333333
 72
     1
 11
-535.216226954009
 21
81.203208938241
 31
0.0
 73
     2
  0
LINE
  5
    99
  8
0
  6
CONTINUOUS
 62
     7
 10
-526.191230877077
 20
-9.35796230992052
 30
0.0
 11
-526.191202605392
 21
80.7032089233397
 31
0.0
  0
LINE
  5
    9A
  8
0
  6
CONTINUOUS
 62
     7
 10
-543.691220652432
 20
73.0246376180743
 30
0.0
 11
-543.69117716942
 21
80.7032089233078
 31
0.0
  0
LINE
  5
    9B
  8
0
  6
CONTINUOUS
 62
     7
 10
-526.191203233225
 20
78.7032089233398
 30
0.0
 11
-543.691188495228
 21
78.7032089233398
 31
0.0
  0
LINE
  5
    9C
  8
0
  6
CONTINUOUS
 62
     7
 10
-529.145626510432
 20
78.1822644933882
 30
0.0
 11
-526.191203233225
 21
78.7032089233398
 31
0.0
  0
LINE
  5
    9D
  8
0
  6
CONTINUOUS
 62
     7
 10
-526.191203233225
 20
78.7032089233398
 30
0.0
 11
-529.145626510432
 21
79.2241533532915
 31
0.0
  0
LINE
  5
    9E
  8
0
  6
CONTINUOUS
 62
     7
 10
-540.736765218021
 20
79.2241533532915
 30
0.0
 11
-543.691188495228
 21
78.7032089233398
 31
0.0
  0
LINE
  5
    9F
  8
0
  6
CONTINUOUS
 62
     7
 10
-543.691188495228
 20
78.7032089233398
 30
0.0
 11
-540.736765218021
 21
78.1822644933882
 31
0.0
  0
ENDBLK
  5
    A0
  8
0
  6
CONTINUOUS
 62
     7
  0
BLOCK
  5
    A1
  8
0
  6
CONTINUOUS
 62
     7
  2
*UDIM1437
 70
    65
 10
0.0
 20
0.0
 30
0.0
  3
*UDIM1437
  0
TEXT
  5
    A2
  8
0
  6
CONTINUOUS
 62
     7
 10
-555.216226979182
 20
79.7032089255947
 30
0.0
 40
3.00000002980232
  1
35
 50
359.999999948034
 41
0.933333333333333
 72
     1
 11
-552.716226952994
 21
81.203208938241
 31
0.0
 73
     2
  0
LINE
  5
    A3
  8
0
  6
CONTINUOUS
 62
     7
 10
-561.191234332115
 20
-9.35796015628676
 30
0.0
 11
-561.19120606043
 21
80.7032089233397
 31
0.0
  0
LINE
  5
    A4
  8
0
  6
CONTINUOUS
 62
     7
 10
-543.691188495228
 20
78.7032089233398
 30
0.0
 11
-561.191206688263
 21
78.7032089233398
 31
0.0
  0
LINE
  5
    A5
  8
0
  6
CONTINUOUS
 62
     7
 10
-546.645611772435
 20
78.1822644933882
 30
0.0
 11
-543.691188495228
 21
78.7032089233398
 31
0.0
  0
LINE
  5
    A6
  8
0
  6
CONTINUOUS
 62
     7
 10
-543.691188495228
 20
78.7032089233398
 30
0.0
 11
-546.645611772435
 21
79.2241533532915
 31
0.0
  0
LINE
  5
    A7
  8
0
  6
CONTINUOUS
 62
     7
 10
-558.236783411056
 20
79.2241533532915
 30
0.0
 11
-561.191206688263
 21
78.7032089233398
 31
0.0
  0
LINE
  5
    A8
  8
0
  6
CONTINUOUS
 62
     7
 10
-561.191206688263
 20
78.7032089233398
 30
0.0
 11
-558.236783411056
 21
78.1822644933882
 31
0.0
  0
ENDBLK
  5
    A9
  8
0
  6
CONTINUOUS
 62
     7
  0
BLOCK
  5
    AA
  8
0
  6
CONTINUOUS
 62
     7
  2
*UDIM1438
 70
    65
 10
0.0
 20
0.0
 30
0.0
  3
*UDIM1438
  0
TEXT
  5
    AB
  8
0
  6
CONTINUOUS
 62
     7
 10
-572.716230792075
 20
79.7032089255947
 30
0.0
 40
3.00000002980232
  1
35
 50
359.999999948034
 41
0.933333333333333
 72
     1
 11
-570.216230765886
 21
81.203208938241
 31
0.0
 73
     2
  0
LINE
  5
    AC
  8
0
  6
CONTINUOUS
 62
     7
 10
-578.691232635237
 20
-3.05796036125613
 30
0.0
 11
-578.691206341226
 21
80.7032089233397
 31
0.0
  0
LINE
  5
    AD
  8
0
  6
CONTINUOUS
 62
     7
 10
-561.191206688263
 20
78.7032089233398
 30
0.0
 11
-578.691206969059
 21
78.7032089233398
 31
0.0
  0
LINE
  5
    AE
  8
0
  6
CONTINUOUS
 62
     7
 10
-564.14562996547
 20
78.1822644933882
 30
0.0
 11
-561.191206688263
 21
78.7032089233398
 31
0.0
  0
LINE
  5
    AF
  8
0
  6
CONTINUOUS
 62
     7
 10
-561.191206688263
 20
78.7032089233398
 30
0.0
 11
-564.14562996547
 21
79.2241533532915
 31
0.0
  0
LINE
  5
    B0
  8
0
  6
CONTINUOUS
 62
     7
 10
-575.736783691852
 20
79.2241533532915
 30
0.0
 11
-578.691206969059
 21
78.7032089233398
 31
0.0
  0
LINE
  5
    B1
  8
0
  6
CONTINUOUS
 62
     7
 10
-578.691206969059
 20
78.7032089233398
 30
0.0
 11
-575.736783691852
 21
78.1822644933882
 31
0.0
  0
ENDBLK
  5
    B2
  8
0
  6
CONTINUOUS
 62
     7
  0
BLOCK
  5
    B3
  8
0
  6
CONTINUOUS
 62
     7
  2
*UDIM1439
 70
    65
 10
0.0
 20
0.0
 30
0.0
  3
*UDIM1439
  0
TEXT
  5
    B4
  8
0
  6
CONTINUOUS
 62
     7
 10
-536.141223191043
 20
87.4102401781201
 30
0.0
 40
3.00000002980232
  1
52,5
 50
359.999999948034
 41
0.933333333333333
 72
     1
 11
-530.84122313704
 21
88.910240188241
 31
0.0
 73
     2
  0
LINE
  5
    B5
  8
0
  6
CONTINUOUS
 62
     7
 10
-517.441233630814
 20
53.8170433044414
 30
0.0
 11
-517.441222771439
 21
88.4102401733398
 31
0.0
  0
LINE
  5
    B6
  8
0
  6
CONTINUOUS
 62
     7
 10
-543.691226001419
 20
81.9186053568498
 30
0.0
 11
-543.691223963588
 21
88.4102401733398
 31
0.0
  0
LINE
  5
    B7
  8
0
  6
CONTINUOUS
 62
     7
 10
-517.441223399272
 20
86.4102401733398
 30
0.0
 11
-543.691224591421
 21
86.4102401733398
 31
0.0
  0
LINE
  5
    B8
  8
0
  6
CONTINUOUS
 62
     7
 10
-520.395646676479
 20
85.8892957433882
 30
0.0
 11
-517.441223399272
 21
86.4102401733398
 31
0.0
  0
LINE
  5
    B9
  8
0
  6
CONTINUOUS
 62
     7
 10
-517.441223399272
 20
86.4102401733398
 30
0.0
 11
-520.395646676479
 21
86.9311846032915
 31
0.0
  0
LINE
  5
    BA
  8
0
  6
CONTINUOUS
 62
     7
 10
-540.736801314214
 20
86.9311846032915
 30
0.0
 11
-543.691224591421
 21
86.4102401733398
 31
0.0
  0
LINE
  5
    BB
  8
0
  6
CONTINUOUS
 62
     7
 10
-543.691224591421
 20
86.4102401733398
 30
0.0
 11
-540.736801314214
 21
85.8892957433882
 31
0.0
  0
ENDBLK
  5
    BC
  8
0
  6
CONTINUOUS
 62
     7
  0
BLOCK
  5
    BD
  8
0
  6
CONTINUOUS
 62
     7
  2
*UDIM1440
 70
    65
 10
0.0
 20
0.0
 30
0.0
  3
*UDIM1440
  0
TEXT
  5
    BE
  8
0
  6
CONTINUOUS
 62
     7
 10
-556.616238443064
 20
113.492340091408
 30
0.0
 40
3.00000002980232
  1
140
 50
359.999999948034
 41
0.933333333333333
 72
     1
 11
-552.716238402968
 21
114.992340102792
 31
0.0
 73
     2
  0
LINE
  5
    BF
  8
0
  6
CONTINUOUS
 62
     7
 10
-517.441233630814
 20
53.8170433044414
 30
0.0
 11
-517.441214583839
 21
114.492340087891
 31
0.0
  0
LINE
  5
    C0
  8
0
  6
CONTINUOUS
 62
     7
 10
-587.441245699214
 20
70.0420379638669
 30
0.0
 11
-587.441205347725
 21
114.49234008789
 31
0.0
  0
LINE
  5
    C1
  8
0
  6
CONTINUOUS
 62
     7
 10
-517.441215211671
 20
112.492340087891
 30
0.0
 11
-587.441207163302
 21
112.492340087891
 31
0.0
  0
LINE
  5
    C2
  8
0
  6
CONTINUOUS
 62
     7
 10
-520.395638488878
 20
111.971395657939
 30
0.0
 11
-517.441215211671
 21
112.492340087891
 31
0.0
  0
LINE
  5
    C3
  8
0
  6
CONTINUOUS
 62
     7
 10
-517.441215211671
 20
112.492340087891
 30
0.0
 11
-520.395638488878
 21
113.013284517842
 31
0.0
  0
LINE
  5
    C4
  8
0
  6
CONTINUOUS
 62
     7
 10
-584.486783886095
 20
113.013284517842
 30
0.0
 11
-587.441207163302
 21
112.492340087891
 31
0.0
  0
LINE
  5
    C5
  8
0
  6
CONTINUOUS
 62
     7
 10
-587.441207163302
 20
112.492340087891
 30
0.0
 11
-584.486783886095
 21
111.971395657939
 31
0.0
  0
ENDBLK
  5
    C6
  8
0
  6
CONTINUOUS
 62
     7
  0
BLOCK
  5
    C7
  8
0
  6
CONTINUOUS
 62
     7
  2
*UDIM1441
 70
    65
 10
0.0
 20
0.0
 30
0.0
  3
*UDIM1441
  0
TEXT
  5
    C8
  8
0
  6
CONTINUOUS
 62
     7
 10
-608.987795833305
 20
23.767039443684
 30
0.0
 40
3.00000002980232
  1
170
 50
89.9999999480344
 41
0.933333333333333
 72
     1
 11
-610.487795844674
 21
27.6670394837855
 31
0.0
 73
     2
  0
LINE
  5
    C9
  8
0
  6
CONTINUOUS
 62
     7
 10
-586.691240984934
 20
-14.5579605102541
 30
0.0
 11
-609.987795829773
 21
-14.5579605102541
 31
0.0
  0
LINE
  5
    CA
  8
0
  6
CONTINUOUS
 62
     7
 10
-586.691240984934
 20
70.4420394897461
 30
0.0
 11
-609.987795829773
 21
70.4420394897461
 31
0.0
  0
LINE
  5
    CB
  8
0
  6
CONTINUOUS
 62
     7
 10
-607.987795829773
 20
-14.5579605102541
 30
0.0
 11
-607.987795829773
 21
70.4420394897461
 31
0.0
  0
LINE
  5
    CC
  8
0
  6
CONTINUOUS
 62
     7
 10
-608.508740259725
 20
-11.6035372330471
 30
0.0
 11
-607.987795829773
 21
-14.5579605102541
 31
0.0
  0
LINE
  5
    CD
  8
0
  6
CONTINUOUS
 62
     7
 10
-607.987795829773
 20
-14.5579605102541
 30
0.0
 11
-607.466851399821
 21
-11.6035372330471
 31
0.0
  0
LINE
  5
    CE
  8
0
  6
CONTINUOUS
 62
     7
 10
-607.466851399821
 20
67.4876162125391
 30
0.0
 11
-607.987795829773
 21
70.4420394897461
 31
0.0
  0
LINE
  5
    CF
  8
0
  6
CONTINUOUS
 62
     7
 10
-607.987795829773
 20
70.4420394897461
 30
0.0
 11
-608.508740259725
 21
67.4876162125391
 31
0.0
  0
ENDBLK
  5
    D0
  8
0
  6
CONTINUOUS
 62
     7
  0
BLOCK
  5
    D1
  8
0
  6
CONTINUOUS
 62
     7
  2
*UDIM1442
 70
    65
 10
0.0
 20
0.0
 30
0.0
  3
*UDIM1442
  0
TEXT
  5
    D2
  8
0
  6
CONTINUOUS
 62
     7
 10
-330.113801966764
 20
65.4598266113808
 30
0.0
 40
3.00000002980232
  1
142
 50
449.999999844103
 41
0.933333333333333
 72
     1
 11
-331.613801971078
 21
69.3598266541958
 31
0.0
 73
     2
  0
LINE
  5
    D3
  8
0
  6
CONTINUOUS
 62
     7
 10
-290.944000244141
 20
87.3848266601563
 30
0.0
 11
-331.113801956177
 21
87.3848266601563
 31
0.0
  0
LINE
  5
    D4
  8
0
  6
CONTINUOUS
 62
     7
 10
-290.944000244141
 20
51.8848266601563
 30
0.0
 11
-331.113801956177
 21
51.8848266601563
 31
0.0
  0
LINE
  5
    D5
  8
0
  6
CONTINUOUS
 62
     7
 10
-329.113801956177
 20
87.3848266601563
 30
0.0
 11
-329.113801956177
 21
51.8848266601563
 31
0.0
  0
LINE
  5
    D6
  8
0
  6
CONTINUOUS
 62
     7
 10
-328.592857526225
 20
84.4304033829493
 30
0.0
 11
-329.113801956177
 21
87.3848266601563
 31
0.0
  0
LINE
  5
    D7
  8
0
  6
CONTINUOUS
 62
     7
 10
-329.113801956177
 20
87.3848266601563
 30
0.0
 11
-329.634746386128
 21
84.4304033829493
 31
0.0
  0
LINE
  5
    D8
  8
0
  6
CONTINUOUS
 62
     7
 10
-329.634746386128
 20
54.8392499373632
 30
0.0
 11
-329.113801956177
 21
51.8848266601563
 31
0.0
  0
LINE
  5
    D9
  8
0
  6
CONTINUOUS
 62
     7
 10
-329.113801956177
 20
51.8848266601563
 30
0.0
 11
-328.592857526225
 21
54.8392499373632
 31
0.0
  0
ENDBLK
  5
    DA
  8
0
  6
CONTINUOUS
 62
     7
  0
BLOCK
  5
    DB
  8
0
  6
CONTINUOUS
 62
     7
  2
*UDIM1443
 70
    65
 10
0.0
 20
0.0
 30
0.0
  3
*UDIM1443
  0
TEXT
  5
    DC
  8
0
  6
CONTINUOUS
 62
     7
 10
-322.530115138151
 20
65.4598266113808
 30
0.0
 40
3.00000002980232
  1
112
 50
449.999999844103
 41
0.933333333333333
 72
     1
 11
-324.030115142465
 21
69.3598266541958
 31
0.0
 73
     2
  0
LINE
  5
    DD
  8
0
  6
CONTINUOUS
 62
     7
 10
-312.819000244141
 20
83.6348266601563
 30
0.0
 11
-323.530115127563
 21
83.6348266601563
 31
0.0
  0
LINE
  5
    DE
  8
0
  6
CONTINUOUS
 62
     7
 10
-312.819000244141
 20
55.6348266601563
 30
0.0
 11
-323.530115127563
 21
55.6348266601563
 31
0.0
  0
LINE
  5
    DF
  8
0
  6
CONTINUOUS
 62
     7
 10
-321.530115127564
 20
83.6348266601563
 30
0.0
 11
-321.530115127564
 21
55.6348266601563
 31
0.0
  0
LINE
  5
    E0
  8
0
  6
CONTINUOUS
 62
     7
 10
-321.009170697612
 20
80.6804033829493
 30
0.0
 11
-321.530115127564
 21
83.6348266601563
 31
0.0
  0
LINE
  5
    E1
  8
0
  6
CONTINUOUS
 62
     7
 10
-321.530115127564
 20
83.6348266601563
 30
0.0
 11
-322.051059557515
 21
80.6804033829493
 31
0.0
  0
LINE
  5
    E2
  8
0
  6
CONTINUOUS
 62
     7
 10
-322.051059557515
 20
58.5892499373632
 30
0.0
 11
-321.530115127564
 21
55.6348266601563
 31
0.0
  0
LINE
  5
    E3
  8
0
  6
CONTINUOUS
 62
     7
 10
-321.530115127564
 20
55.6348266601563
 30
0.0
 11
-321.009170697612
 21
58.5892499373632
 31
0.0
  0
ENDBLK
  5
    E4
  8
0
  6
CONTINUOUS
 62
     7
  0
BLOCK
  5
    E5
  8
0
  6
CONTINUOUS
 62
     7
  2
*UDIM1444
 70
    65
 10
0.0
 20
0.0
 30
0.0
  3
*UDIM1444
  0
TEXT
  5
    E6
  8
0
  6
CONTINUOUS
 62
     7
 10
-301.994000292918
 20
103.046298991305
 30
0.0
 40
3.00000002980232
  1
112
 50
359.999999844103
 41
0.933333333333333
 72
     1
 11
-298.094000250101
 21
104.546298995614
 31
0.0
 73
     2
  0
LINE
  5
    E7
  8
0
  6
CONTINUOUS
 62
     7
 10
-311.819000244141
 20
84.6348266601563
 30
0.0
 11
-311.819000244141
 21
104.046298980713
 31
0.0
  0
LINE
  5
    E8
  8
0
  6
CONTINUOUS
 62
     7
 10
-283.819000244141
 20
84.6348266601563
 30
0.0
 11
-283.819000244141
 21
104.046298980713
 31
0.0
  0
LINE
  5
    E9
  8
0
  6
CONTINUOUS
 62
     7
 10
-311.819000244141
 20
102.046298980713
 30
0.0
 11
-283.819000244141
 21
102.046298980713
 31
0.0
  0
LINE
  5
    EA
  8
0
  6
CONTINUOUS
 62
     7
 10
-308.864576966934
 20
102.567243410665
 30
0.0
 11
-311.819000244141
 21
102.046298980713
 31
0.0
  0
LINE
  5
    EB
  8
0
  6
CONTINUOUS
 62
     7
 10
-311.819000244141
 20
102.046298980713
 30
0.0
 11
-308.864576966934
 21
101.525354550761
 31
0.0
  0
LINE
  5
    EC
  8
0
  6
CONTINUOUS
 62
     7
 10
-286.773423521348
 20
101.525354550761
 30
0.0
 11
-283.819000244141
 21
102.046298980713
 31
0.0
  0
LINE
  5
    ED
  8
0
  6
CONTINUOUS
 62
     7
 10
-283.819000244141
 20
102.046298980713
 30
0.0
 11
-286.773423521348
 21
102.567243410665
 31
0.0
  0
ENDBLK
  5
    EE
  8
0
  6
CONTINUOUS
 62
     7
  0
BLOCK
  5
    EF
  8
0
  6
CONTINUOUS
 62
     7
  2
*UDIM1445
 70
    65
 10
0.0
 20
0.0
 30
0.0
  3
*UDIM1445
  0
TEXT
  5
    F0
  8
0
  6
CONTINUOUS
 62
     7
 10
-300.59400027901
 20
96.3881282874294
 30
0.0
 40
3.00000002980232
  1
80
 50
359.999999844103
 41
0.933333333333333
 72
     1
 11
-298.094000250101
 21
97.8881282955408
 31
0.0
 73
     2
  0
LINE
  5
    F1
  8
0
  6
CONTINUOUS
 62
     7
 10
-307.819000244141
 20
89.4473266601563
 30
0.0
 11
-307.819000244141
 21
97.3881282806397
 31
0.0
  0
LINE
  5
    F2
  8
0
  6
CONTINUOUS
 62
     7
 10
-287.819000244141
 20
89.4473266601563
 30
0.0
 11
-287.819000244141
 21
97.3881282806397
 31
0.0
  0
LINE
  5
    F3
  8
0
  6
CONTINUOUS
 62
     7
 10
-307.819000244141
 20
95.3881282806397
 30
0.0
 11
-287.819000244141
 21
95.3881282806397
 31
0.0
  0
LINE
  5
    F4
  8
0
  6
CONTINUOUS
 62
     7
 10
-304.864576966934
 20
95.9090727105913
 30
0.0
 11
-307.819000244141
 21
95.3881282806397
 31
0.0
  0
LINE
  5
    F5
  8
0
  6
CONTINUOUS
 62
     7
 10
-307.819000244141
 20
95.3881282806397
 30
0.0
 11
-304.864576966934
 21
94.867183850688
 31
0.0
  0
LINE
  5
    F6
  8
0
  6
CONTINUOUS
 62
     7
 10
-290.773423521348
 20
94.867183850688
 30
0.0
 11
-287.819000244141
 21
95.3881282806397
 31
0.0
  0
LINE
  5
    F7
  8
0
  6
CONTINUOUS
 62
     7
 10
-287.819000244141
 20
95.3881282806397
 30
0.0
 11
-290.773423521348
 21
95.9090727105913
 31
0.0
  0
ENDBLK
  5
    F8
  8
0
  6
CONTINUOUS
 62
     7
  0
BLOCK
  5
    F9
  8
0
  6
CONTINUOUS
 62
   218
  2
*HATCH1013
 70
    65
 10
0.0
 20
0.0
 30
0.0
  3
*HATCH1013
  0
LINE
  5
    FA
  8
0
  6
CONTINUOUS
 62
     3
 10
15.7025470733643
 20
116.465255737305
 30
0.0
 11
13.2488441467285
 21
114.011558532715
 31
0.0
  0
LINE
  5
    FB
  8
0
  6
CONTINUOUS
 62
     3
 10
17.9081954956055
 20
116.549583435059
 30
0.0
 11
14.4746265411377
 21
113.116020202637
 31
0.0
  0
LINE
  5
    FC
  8
0
  6
CONTINUOUS
 62
     3
 10
19.5914745330811
 20
116.111541748047
 30
0.0
 11
16.1562938690186
 21
112.676361083984
 31
0.0
  0
LINE
  5
    FD
  8
0
  6
CONTINUOUS
 62
     3
 10
20.8223094940186
 20
115.221061706543
 30
0.0
 11
18.3576564788818
 21
112.756408691406
 31
0.0
  0
ENDBLK
  5
    FE
  8
0
  6
CONTINUOUS
 62
   218
  0
BLOCK
  5
    FF
  8
0
  6
CONTINUOUS
 62
    98
  2
*HATCH1014
 70
    65
 10
0.0
 20
0.0
 30
0.0
  3
*HATCH1014
  0
LINE
  5
   100
  8
0
  6
CONTINUOUS
 62
   210
 10
-15.9264526367188
 20
26.4999542236328
 30
0.0
 11
-18.4264526367188
 21
23.9999542236328
 31
0.0
  0
LINE
  5
   101
  8
0
  6
CONTINUOUS
 62
   210
 10
-11.6838111877441
 20
26.4999542236328
 30
0.0
 11
-14.1838111877441
 21
23.9999542236328
 31
0.0
  0
LINE
  5
   102
  8
0
  6
CONTINUOUS
 62
   210
 10
-7.44116973876953
 20
26.4999542236328
 30
0.0
 11
-9.94116973876953
 21
23.9999542236328
 31
0.0
  0
LINE
  5
   103
  8
0
  6
CONTINUOUS
 62
   210
 10
-3.1985285282135
 20
26.4999542236328
 30
0.0
 11
-5.69852828979492
 21
23.9999542236328
 31
0.0
  0
LINE
  5
   104
  8
0
  6
CONTINUOUS
 62
   210
 10
1.04411244392395
 20
26.4999542236328
 30
0.0
 11
-1.45588731765747
 21
23.9999542236328
 31
0.0
  0
LINE
  5
   105
  8
0
  6
CONTINUOUS
 62
   210
 10
3.53710412979126
 20
24.7503070831299
 30
0.0
 11
1.53710401058197
 21
22.7503070831299
 31
0.0
  0
LINE
  5
   106
  8
0
  6
CONTINUOUS
 62
   210
 10
3.53710412979126
 20
22.6289863586426
 30
0.0
 11
1.53710401058197
 21
20.6289863586426
 31
0.0
  0
LINE
  5
   107
  8
0
  6
CONTINUOUS
 62
   210
 10
3.53710412979126
 20
20.5076656341553
 30
0.0
 11
1.53710401058197
 21
18.5076656341553
 31
0.0
  0
LINE
  5
   108
  8
0
  6
CONTINUOUS
 62
   210
 10
3.53710412979126
 20
18.386344909668
 30
0.0
 11
1.53710401058197
 21
16.386344909668
 31
0.0
  0
LINE
  5
   109
  8
0
  6
CONTINUOUS
 62
   210
 10
25.7720336914063
 20
38.4999542236328
 30
0.0
 11
24.5371036529541
 21
37.265022277832
 31
0.0
  0
LINE
  5
   10A
  8
0
  6
CONTINUOUS
 62
   210
 10
-8.72798347473145
 20
3.99993896484375
 30
0.0
 11
-11.2279682159424
 21
1.49995422363281
 31
0.0
  0
LINE
  5
   10B
  8
0
  6
CONTINUOUS
 62
   210
 10
3.53710412979126
 20
14.143705368042
 30
0.0
 11
1.53710401058197
 21
12.143705368042
 31
0.0
  0
LINE
  5
   10C
  8
0
  6
CONTINUOUS
 62
   210
 10
26.5371036529541
 20
35.0223846435547
 30
0.0
 11
24.5371036529541
 21
33.0223846435547
 31
0.0
  0
LINE
  5
   10D
  8
0
  6
CONTINUOUS
 62
   210
 10
-4.48534202575684
 20
3.99993896484375
 30
0.0
 11
-6.98532724380493
 21
1.49995422363281
 31
0.0
  0
LINE
  5
   10E
  8
0
  6
CONTINUOUS
 62
   210
 10
3.53710412979126
 20
9.90106391906738
 30
0.0
 11
1.53710401058197
 21
7.90106439590454
 31
0.0
  0
LINE
  5
   10F
  8
0
  6
CONTINUOUS
 62
   210
 10
26.5371036529541
 20
30.7797451019287
 30
0.0
 11
24.5371036529541
 21
28.7797431945801
 31
0.0
  0
LINE
  5
   110
  8
0
  6
CONTINUOUS
 62
   210
 10
-0.242701053619385
 20
3.99993896484375
 30
0.0
 11
-2.74268674850464
 21
1.49995422363281
 31
0.0
  0
LINE
  5
   111
  8
0
  6
CONTINUOUS
 62
   210
 10
24.3786354064941
 20
26.4999542236328
 30
0.0
 11
22.5371036529541
 21
24.6584224700928
 31
0.0
  0
LINE
  5
   112
  8
0
  6
CONTINUOUS
 62
   210
 10
26.5371036529541
 20
26.5371017456055
 30
0.0
 11
22.5371036529541
 21
22.5371017456055
 31
0.0
  0
LINE
  5
   113
  8
0
  6
CONTINUOUS
 62
   210
 10
26.5371036529541
 20
24.4157810211182
 30
0.0
 11
26.1212768554688
 21
23.9999542236328
 31
0.0
  0
LINE
  5
   114
  8
0
  6
CONTINUOUS
 62
   210
 10
6.12125968933105
 20
3.99993896484375
 30
0.0
 11
3.62127470970154
 21
1.49995422363281
 31
0.0
  0
LINE
  5
   115
  8
0
  6
CONTINUOUS
 62
   210
 10
8.24258041381836
 20
3.99993896484375
 30
0.0
 11
5.74259519577026
 21
1.49995422363281
 31
0.0
  0
LINE
  5
   116
  8
0
  6
CONTINUOUS
 62
   210
 10
10.3639011383057
 20
3.99993896484375
 30
0.0
 11
7.86391544342041
 21
1.49995422363281
 31
0.0
  0
LINE
  5
   117
  8
0
  6
CONTINUOUS
 62
   210
 10
12.485221862793
 20
3.99993896484375
 30
0.0
 11
9.9852352142334
 21
1.49995422363281
 31
0.0
  0
LINE
  5
   118
  8
0
  6
CONTINUOUS
 62
   210
 10
14.6065425872803
 20
3.99993896484375
 30
0.0
 11
12.1065559387207
 21
1.49995422363281
 31
0.0
  0
LINE
  5
   119
  8
0
  6
CONTINUOUS
 62
   210
 10
16.7278633117676
 20
3.99993896484375
 30
0.0
 11
14.227876663208
 21
1.49995422363281
 31
0.0
  0
LINE
  5
   11A
  8
0
  6
CONTINUOUS
 62
   210
 10
18.8491840362549
 20
3.99993896484375
 30
0.0
 11
16.3491973876953
 21
1.49995422363281
 31
0.0
  0
LINE
  5
   11B
  8
0
  6
CONTINUOUS
 62
   210
 10
20.9705047607422
 20
3.99993896484375
 30
0.0
 11
18.4705181121826
 21
1.49995422363281
 31
0.0
  0
LINE
  5
   11C
  8
0
  6
CONTINUOUS
 62
   210
 10
25.2131443023682
 20
3.99993896484375
 30
0.0
 11
22.7131576538086
 21
1.49995422363281
 31
0.0
  0
LINE
  5
   11D
  8
0
  6
CONTINUOUS
 62
   210
 10
29.4557857513428
 20
3.99993896484375
 30
0.0
 11
26.9557991027832
 21
1.49995422363281
 31
0.0
  0
LINE
  5
   11E
  8
0
  6
CONTINUOUS
 62
   210
 10
33.6984252929688
 20
3.99993896484375
 30
0.0
 11
31.1984405517578
 21
1.49995422363281
 31
0.0
  0
LINE
  5
   11F
  8
0
  6
CONTINUOUS
 62
   210
 10
37.9410629272461
 20
3.99993896484375
 30
0.0
 11
35.4410781860352
 21
1.49995422363281
 31
0.0
  0
LINE
  5
   120
  8
0
  6
CONTINUOUS
 62
   210
 10
42.1837005615234
 20
3.99993896484375
 30
0.0
 11
39.6837158203125
 21
1.49995422363281
 31
0.0
  0
LINE
  5
   121
  8
0
  6
CONTINUOUS
 62
   210
 10
46.4263381958008
 20
3.99993896484375
 30
0.0
 11
43.9263534545898
 21
1.49995422363281
 31
0.0
  0
LINE
  5
   122
  8
0
  6
CONTINUOUS
 62
   210
 10
50.6689758300781
 20
3.99993896484375
 30
0.0
 11
48.1689910888672
 21
1.49995422363281
 31
0.0
  0
ENDBLK
  5
   123
  8
0
  6
CONTINUOUS
 62
    98
  0
BLOCK
  5
   124
  8
0
  6
CONTINUOUS
 62
     7
  2
*HATCH1015
 70
    65
 10
0.0
 20
0.0
 30
0.0
  3
*HATCH1015
  0
LINE
  5
   125
  8
0
  6
CONTINUOUS
 62
   210
 10
167.171508789063
 20
91.6295318603516
 30
0.0
 11
170.80110168457
 21
87.9999389648438
 31
0.0
  0
LINE
  5
   126
  8
0
  6
CONTINUOUS
 62
   210
 10
171.043731689453
 20
91.9999389648438
 30
0.0
 11
171.237060546875
 21
91.8066101074219
 31
0.0
  0
ENDBLK
  5
   127
  8
0
  6
CONTINUOUS
 62
     7
  0
BLOCK
  5
   128
  8
0
  6
CONTINUOUS
 62
     7
  2
*HATCH1016
 70
    65
 10
0.0
 20
0.0
 30
0.0
  3
*HATCH1016
  0
LINE
  5
   129
  8
0
  6
CONTINUOUS
 62
   210
 10
50.8859062194824
 20
86.9999389648438
 30
0.0
 11
53.7202682495117
 21
84.1655731201172
 31
0.0
  0
ENDBLK
  5
   12A
  8
0
  6
CONTINUOUS
 62
     7
  0
BLOCK
  5
   12B
  8
0
  6
CONTINUOUS
 62
     7
  2
*HATCH1017
 70
    65
 10
0.0
 20
0.0
 30
0.0
  3
*HATCH1017
  0
LINE
  5
   12C
  8
0
  6
CONTINUOUS
 62
   210
 10
49.0588188171387
 20
82.9999389648438
 30
0.0
 11
46.0588188171387
 21
79.9999389648438
 31
0.0
  0
LINE
  5
   12D
  8
0
  6
CONTINUOUS
 62
   210
 10
53.301456451416
 20
82.9999389648438
 30
0.0
 11
50.301456451416
 21
79.9999389648438
 31
0.0
  0
LINE
  5
   12E
  8
0
  6
CONTINUOUS
 62
   210
 10
54.7202682495117
 20
80.1761016845703
 30
0.0
 11
54.5440979003906
 21
79.9999389648438
 31
0.0
  0
ENDBLK
  5
   12F
  8
0
  6
CONTINUOUS
 62
     7
  0
BLOCK
  5
   130
  8
0
  6
CONTINUOUS
 62
     7
  2
*HATCH1018
 70
    65
 10
0.0
 20
0.0
 30
0.0
  3
*HATCH1018
  0
LINE
  5
   131
  8
0
  6
CONTINUOUS
 62
   210
 10
34.2095756530762
 20
82.9999389648438
 30
0.0
 11
31.7370738983154
 21
80.5274353027344
 31
0.0
  0
LINE
  5
   132
  8
0
  6
CONTINUOUS
 62
   210
 10
36.6370620727539
 20
81.1847839355469
 30
0.0
 11
33.4522171020508
 21
77.9999389648438
 31
0.0
  0
ENDBLK
  5
   133
  8
0
  6
CONTINUOUS
 62
     7
  0
BLOCK
  5
   134
  8
0
  6
CONTINUOUS
 62
     7
  2
*HATCH1019
 70
    65
 10
0.0
 20
0.0
 30
0.0
  3
*HATCH1019
  0
LINE
  5
   135
  8
0
  6
CONTINUOUS
 62
   210
 10
48.1801414489746
 20
79.9999389648438
 30
0.0
 11
46.1801376342773
 21
77.9999389648438
 31
0.0
  0
LINE
  5
   136
  8
0
  6
CONTINUOUS
 62
   210
 10
52.422779083252
 20
79.9999389648438
 30
0.0
 11
50.4227752685547
 21
77.9999389648438
 31
0.0
  0
ENDBLK
  5
   137
  8
0
  6
CONTINUOUS
 62
     7
  0
BLOCK
  5
   138
  8
0
  6
CONTINUOUS
 62
     7
  2
*HATCH1020
 70
    65
 10
0.0
 20
0.0
 30
0.0
  3
*HATCH1020
  0
LINE
  5
   139
  8
0
  6
CONTINUOUS
 62
   210
 10
191.187286376953
 20
82.9999389648438
 30
0.0
 11
187.937057495117
 21
79.7497100830078
 31
0.0
  0
LINE
  5
   13A
  8
0
  6
CONTINUOUS
 62
   210
 10
192.737060546875
 20
80.3070678710938
 30
0.0
 11
190.429931640625
 21
77.9999389648438
 31
0.0
  0
ENDBLK
  5
   13B
  8
0
  6
CONTINUOUS
 62
     7
  0
BLOCK
  5
   13C
  8
0
  6
CONTINUOUS
 62
     7
  2
*HATCH1021
 70
    65
 10
0.0
 20
0.0
 30
0.0
  3
*HATCH1021
  0
LINE
  5
   13D
  8
0
  6
CONTINUOUS
 62
   210
 10
168.320602416992
 20
87.7104110717774
 30
0.0
 11
166.171508789063
 21
85.5613250732422
 31
0.0
  0
LINE
  5
   13E
  8
0
  6
CONTINUOUS
 62
   210
 10
170.824935913086
 20
85.9721145629883
 30
0.0
 11
167.289215087891
 21
82.436393737793
 31
0.0
  0
LINE
  5
   13F
  8
0
  6
CONTINUOUS
 62
   210
 10
172.924606323242
 20
83.8291397094727
 30
0.0
 11
169.388885498047
 21
80.2934188842774
 31
0.0
  0
LINE
  5
   140
  8
0
  6
CONTINUOUS
 62
   210
 10
176.338043212891
 20
82.9999389648438
 30
0.0
 11
171.783187866211
 21
78.4450836181641
 31
0.0
  0
LINE
  5
   141
  8
0
  6
CONTINUOUS
 62
   210
 10
179.537063598633
 20
81.9563140869141
 30
0.0
 11
175.580688476563
 21
77.9999389648438
 31
0.0
  0
ENDBLK
  5
   142
  8
0
  6
CONTINUOUS
 62
     7
  0
BLOCK
  5
   143
  8
0
  6
CONTINUOUS
 62
     7
  2
*HATCH1022
 70
    65
 10
0.0
 20
0.0
 30
0.0
  3
*HATCH1022
  0
LINE
  5
   144
  8
0
  6
CONTINUOUS
 62
   210
 10
171.237060546875
 20
70.5933990478516
 30
0.0
 11
173.737060546875
 21
68.093391418457
 31
0.0
  0
LINE
  5
   145
  8
0
  6
CONTINUOUS
 62
   210
 10
171.237060546875
 20
74.8360443115234
 30
0.0
 11
173.737060546875
 21
72.3360366821289
 31
0.0
  0
LINE
  5
   146
  8
0
  6
CONTINUOUS
 62
   210
 10
172.315795898438
 20
77.9999389648438
 30
0.0
 11
173.737060546875
 21
76.5786819458008
 31
0.0
  0
ENDBLK
  5
   147
  8
0
  6
CONTINUOUS
 62
     7
  0
BLOCK
  5
   148
  8
0
  6
CONTINUOUS
 62
     7
  2
*HATCH1023
 70
    65
 10
0.0
 20
0.0
 30
0.0
  3
*HATCH1023
  0
LINE
  5
   149
  8
0
  6
CONTINUOUS
 62
    52
 10
186.918792724609
 20
-4.00005149841309
 30
0.0
 11
184.918792724609
 21
-6.00005149841309
 31
0.0
  0
LINE
  5
   14A
  8
0
  6
CONTINUOUS
 62
    52
 10
191.161437988281
 20
-4.00005149841309
 30
0.0
 11
189.161437988281
 21
-6.00005149841309
 31
0.0
  0
LINE
  5
   14B
  8
0
  6
CONTINUOUS
 62
    52
 10
195.404083251953
 20
-4.00005149841309
 30
0.0
 11
193.404083251953
 21
-6.00005149841309
 31
0.0
  0
LINE
  5
   14C
  8
0
  6
CONTINUOUS
 62
    52
 10
199.646728515625
 20
-4.00005149841309
 30
0.0
 11
197.646728515625
 21
-6.00005149841309
 31
0.0
  0
LINE
  5
   14D
  8
0
  6
CONTINUOUS
 62
    52
 10
203.889373779297
 20
-4.00005149841309
 30
0.0
 11
201.889373779297
 21
-6.00005149841309
 31
0.0
  0
LINE
  5
   14E
  8
0
  6
CONTINUOUS
 62
    52
 10
208.132019042969
 20
-4.00005149841309
 30
0.0
 11
206.132019042969
 21
-6.00005149841309
 31
0.0
  0
LINE
  5
   14F
  8
0
  6
CONTINUOUS
 62
    52
 10
212.374664306641
 20
-4.00005149841309
 30
0.0
 11
210.374664306641
 21
-6.00005149841309
 31
0.0
  0
LINE
  5
   150
  8
0
  6
CONTINUOUS
 62
    52
 10
216.617309570313
 20
-4.00005149841309
 30
0.0
 11
214.617309570313
 21
-6.00005149841309
 31
0.0
  0
LINE
  5
   151
  8
0
  6
CONTINUOUS
 62
    52
 10
220.859954833984
 20
-4.00005149841309
 30
0.0
 11
218.859954833984
 21
-6.00005149841309
 31
0.0
  0
LINE
  5
   152
  8
0
  6
CONTINUOUS
 62
    52
 10
225.102600097656
 20
-4.00005149841309
 30
0.0
 11
223.102600097656
 21
-6.00005149841309
 31
0.0
  0
LINE
  5
   153
  8
0
  6
CONTINUOUS
 62
    52
 10
229.345245361328
 20
-4.00005149841309
 30
0.0
 11
227.345245361328
 21
-6.00005149841309
 31
0.0
  0
LINE
  5
   154
  8
0
  6
CONTINUOUS
 62
    52
 10
233.587890625
 20
-4.00005149841309
 30
0.0
 11
231.587890625
 21
-6.00005149841309
 31
0.0
  0
ENDBLK
  5
   155
  8
0
  6
CONTINUOUS
 62
     7
  0
BLOCK
  5
   156
  8
0
  6
CONTINUOUS
 62
     7
  2
*HATCH1024
 70
    65
 10
0.0
 20
0.0
 30
0.0
  3
*HATCH1024
  0
LINE
  5
   157
  8
0
  6
CONTINUOUS
 62
    52
 10
169.948226928711
 20
-4.00005149841309
 30
0.0
 11
167.948226928711
 21
-6.00005149841309
 31
0.0
  0
LINE
  5
   158
  8
0
  6
CONTINUOUS
 62
    52
 10
174.190872192383
 20
-4.00005149841309
 30
0.0
 11
172.190872192383
 21
-6.00005149841309
 31
0.0
  0
LINE
  5
   159
  8
0
  6
CONTINUOUS
 62
    52
 10
177.480621337891
 20
-4.95293474197388
 30
0.0
 11
176.433502197266
 21
-6.00005149841309
 31
0.0
  0
ENDBLK
  5
   15A
  8
0
  6
CONTINUOUS
 62
     7
  0
BLOCK
  5
   15B
  8
0
  6
CONTINUOUS
 62
     7
  2
*HATCH1025
 70
    65
 10
0.0
 20
0.0
 30
0.0
  3
*HATCH1025
  0
LINE
  5
   15C
  8
0
  6
CONTINUOUS
 62
    52
 10
44.7903175354004
 20
-4.00005149841309
 30
0.0
 11
42.7903175354004
 21
-6.00005149841309
 31
0.0
  0
LINE
  5
   15D
  8
0
  6
CONTINUOUS
 62
    52
 10
49.0329551696777
 20
-4.00005149841309
 30
0.0
 11
47.0329551696777
 21
-6.00005149841309
 31
0.0
  0
LINE
  5
   15E
  8
0
  6
CONTINUOUS
 62
    52
 10
53.2755928039551
 20
-4.00005149841309
 30
0.0
 11
51.2755928039551
 21
-6.00005149841309
 31
0.0
  0
ENDBLK
  5
   15F
  8
0
  6
CONTINUOUS
 62
     7
  0
BLOCK
  5
   160
  8
0
  6
CONTINUOUS
 62
     7
  2
*HATCH1026
 70
    65
 10
0.0
 20
0.0
 30
0.0
  3
*HATCH1026
  0
LINE
  5
   161
  8
0
  6
CONTINUOUS
 62
    52
 10
-6.12137222290039
 20
-4.00005149841309
 30
0.0
 11
-8.12137222290039
 21
-6.00005149841309
 31
0.0
  0
LINE
  5
   162
  8
0
  6
CONTINUOUS
 62
    52
 10
-1.87873101234436
 20
-4.00005149841309
 30
0.0
 11
-3.8787317276001
 21
-6.00005149841309
 31
0.0
  0
LINE
  5
   163
  8
0
  6
CONTINUOUS
 62
    52
 10
2.36390995979309
 20
-4.00005149841309
 30
0.0
 11
0.363908767700195
 21
-6.00005149841309
 31
0.0
  0
LINE
  5
   164
  8
0
  6
CONTINUOUS
 62
    52
 10
6.60655117034912
 20
-4.00005149841309
 30
0.0
 11
4.60654926300049
 21
-6.00005149841309
 31
0.0
  0
LINE
  5
   165
  8
0
  6
CONTINUOUS
 62
    52
 10
10.8491926193237
 20
-4.00005149841309
 30
0.0
 11
8.84918975830078
 21
-6.00005149841309
 31
0.0
  0
LINE
  5
   166
  8
0
  6
CONTINUOUS
 62
    52
 10
15.0918340682983
 20
-4.00005149841309
 30
0.0
 11
13.0918312072754
 21
-6.00005149841309
 31
0.0
  0
LINE
  5
   167
  8
0
  6
CONTINUOUS
 62
    52
 10
19.3344745635986
 20
-4.00005149841309
 30
0.0
 11
17.33447265625
 21
-6.00005149841309
 31
0.0
  0
LINE
  5
   168
  8
0
  6
CONTINUOUS
 62
    52
 10
23.5771160125732
 20
-4.00005149841309
 30
0.0
 11
21.5771141052246
 21
-6.00005149841309
 31
0.0
  0
LINE
  5
   169
  8
0
  6
CONTINUOUS
 62
    52
 10
27.8197574615479
 20
-4.00005149841309
 30
0.0
 11
25.8197555541992
 21
-6.00005149841309
 31
0.0
  0
LINE
  5
   16A
  8
0
  6
CONTINUOUS
 62
    52
 10
32.0623970031738
 20
-4.00005149841309
 30
0.0
 11
30.0623970031738
 21
-6.00005149841309
 31
0.0
  0
LINE
  5
   16B
  8
0
  6
CONTINUOUS
 62
    52
 10
35.4806251525879
 20
-4.82446241378784
 30
0.0
 11
34.3050346374512
 21
-6.00005149841309
 31
0.0
  0
ENDBLK
  5
   16C
  8
0
  6
CONTINUOUS
 62
     7
  0
BLOCK
  5
   16D
  8
0
  6
CONTINUOUS
 62
    98
  2
*HATCH1027
 70
    65
 10
0.0
 20
0.0
 30
0.0
  3
*HATCH1027
  0
LINE
  5
   16E
  8
0
  6
CONTINUOUS
 62
     3
 10
190.825103759766
 20
53.9999389648438
 30
0.0
 11
189.737060546875
 21
52.9118881225586
 31
0.0
  0
LINE
  5
   16F
  8
0
  6
CONTINUOUS
 62
     3
 10
192.946411132813
 20
53.9999389648438
 30
0.0
 11
189.737060546875
 21
50.7905654907227
 31
0.0
  0
LINE
  5
   170
  8
0
  6
CONTINUOUS
 62
     3
 10
193.737060546875
 20
52.669246673584
 30
0.0
 11
191.067749023438
 21
49.9999389648438
 31
0.0
  0
LINE
  5
   171
  8
0
  6
CONTINUOUS
 62
     3
 10
193.737060546875
 20
50.547924041748
 30
0.0
 11
193.189056396484
 21
49.9999389648438
 31
0.0
  0
ENDBLK
  5
   172
  8
0
  6
CONTINUOUS
 62
    98
  0
BLOCK
  5
   173
  8
0
  6
CONTINUOUS
 62
    98
  2
*HATCH1028
 70
    65
 10
0.0
 20
0.0
 30
0.0
  3
*HATCH1028
  0
LINE
  5
   174
  8
0
  6
CONTINUOUS
 62
     3
 10
174.91520690918
 20
53.9999389648438
 30
0.0
 11
173.737060546875
 21
52.8217926025391
 31
0.0
  0
LINE
  5
   175
  8
0
  6
CONTINUOUS
 62
     3
 10
177.036514282227
 20
53.9999389648438
 30
0.0
 11
173.737060546875
 21
50.7004699707031
 31
0.0
  0
LINE
  5
   176
  8
0
  6
CONTINUOUS
 62
     3
 10
177.737060546875
 20
52.5791511535645
 30
0.0
 11
175.157836914063
 21
49.9999389648438
 31
0.0
  0
LINE
  5
   177
  8
0
  6
CONTINUOUS
 62
     3
 10
177.737060546875
 20
50.4578285217285
 30
0.0
 11
177.279144287109
 21
49.9999389648438
 31
0.0
  0
ENDBLK
  5
   178
  8
0
  6
CONTINUOUS
 62
    98
  0
BLOCK
  5
   179
  8
0
  6
CONTINUOUS
 62
    98
  2
*HATCH1029
 70
    65
 10
0.0
 20
0.0
 30
0.0
  3
*HATCH1029
  0
LINE
  5
   17A
  8
0
  6
CONTINUOUS
 62
     3
 10
175.656051635742
 20
85.4999389648438
 30
0.0
 11
173.737060546875
 21
83.5809326171875
 31
0.0
  0
LINE
  5
   17B
  8
0
  6
CONTINUOUS
 62
     3
 10
177.777374267578
 20
85.4999389648438
 30
0.0
 11
175.277374267578
 21
82.9999389648438
 31
0.0
  0
LINE
  5
   17C
  8
0
  6
CONTINUOUS
 62
     3
 10
179.869384765625
 20
85.4706192016602
 30
0.0
 11
177.398696899414
 21
82.9999389648438
 31
0.0
  0
LINE
  5
   17D
  8
0
  6
CONTINUOUS
 62
     3
 10
181.247085571289
 20
84.7270050048828
 30
0.0
 11
179.52001953125
 21
82.9999389648438
 31
0.0
  0
LINE
  5
   17E
  8
0
  6
CONTINUOUS
 62
     3
 10
181.765274047852
 20
83.1238708496094
 30
0.0
 11
180.092300415039
 21
81.4508972167969
 31
0.0
  0
LINE
  5
   17F
  8
0
  6
CONTINUOUS
 62
     3
 10
182.342498779297
 20
81.5797729492188
 30
0.0
 11
180.956253051758
 21
80.1935348510742
 31
0.0
  0
LINE
  5
   180
  8
0
  6
CONTINUOUS
 62
     3
 10
182.986572265625
 20
81.1631851196289
 30
0.0
 11
181.519302368164
 21
79.6959075927734
 31
0.0
  0
LINE
  5
   181
  8
0
  6
CONTINUOUS
 62
     3
 10
183.898391723633
 20
81.0143432617187
 30
0.0
 11
182.221939086914
 21
79.3378982543945
 31
0.0
  0
LINE
  5
   182
  8
0
  6
CONTINUOUS
 62
     3
 10
190.505310058594
 20
85.4999389648438
 30
0.0
 11
188.005310058594
 21
82.9999389648438
 31
0.0
  0
LINE
  5
   183
  8
0
  6
CONTINUOUS
 62
     3
 10
191.565963745117
 20
85.4999389648438
 30
0.0
 11
189.065963745117
 21
82.9999389648438
 31
0.0
  0
LINE
  5
   184
  8
0
  6
CONTINUOUS
 62
     3
 10
192.62663269043
 20
85.4999389648438
 30
0.0
 11
190.12663269043
 21
82.9999389648438
 31
0.0
  0
LINE
  5
   185
  8
0
  6
CONTINUOUS
 62
     3
 10
193.737060546875
 20
84.4890518188477
 30
0.0
 11
192.247940063477
 21
82.9999389648438
 31
0.0
  0
ENDBLK
  5
   186
  8
0
  6
CONTINUOUS
 62
    98
  0
BLOCK
  5
   187
  8
0
  6
CONTINUOUS
 62
     1
  2
*HATCH1030
 70
    65
 10
0.0
 20
0.0
 30
0.0
  3
*HATCH1030
  0
LINE
  5
   188
  8
0
  6
CONTINUOUS
 62
   210
 10
48.301456451416
 20
77.9999389648438
 30
0.0
 11
44.737060546875
 21
74.4355392456055
 31
0.0
  0
LINE
  5
   189
  8
0
  6
CONTINUOUS
 62
   210
 10
49.737060546875
 20
75.1928939819336
 30
0.0
 11
44.737060546875
 21
70.1929016113281
 31
0.0
  0
LINE
  5
   18A
  8
0
  6
CONTINUOUS
 62
   210
 10
49.737060546875
 20
70.9502487182617
 30
0.0
 11
44.737060546875
 21
65.9502563476563
 31
0.0
  0
LINE
  5
   18B
  8
0
  6
CONTINUOUS
 62
   210
 10
49.737060546875
 20
66.7076187133789
 30
0.0
 11
46.0293807983398
 21
62.9999389648438
 31
0.0
  0
ENDBLK
  5
   18C
  8
0
  6
CONTINUOUS
 62
     1
  0
BLOCK
  5
   18D
  8
0
  6
CONTINUOUS
 62
     1
  2
*HATCH1031
 70
    65
 10
0.0
 20
0.0
 30
0.0
  3
*HATCH1031
  0
LINE
  5
   18E
  8
0
  6
CONTINUOUS
 62
   210
 10
29.9669361114502
 20
82.9999389648438
 30
0.0
 11
27.237060546875
 21
80.2700653076172
 31
0.0
  0
LINE
  5
   18F
  8
0
  6
CONTINUOUS
 62
   210
 10
30.237060546875
 20
79.0274200439453
 30
0.0
 11
27.237060546875
 21
76.0274200439453
 31
0.0
  0
LINE
  5
   190
  8
0
  6
CONTINUOUS
 62
   210
 10
33.4522171020508
 20
77.9999389648438
 30
0.0
 11
27.237060546875
 21
71.784782409668
 31
0.0
  0
LINE
  5
   191
  8
0
  6
CONTINUOUS
 62
   210
 10
36.737060546875
 20
77.0421447753906
 30
0.0
 11
27.237060546875
 21
67.5421447753906
 31
0.0
  0
LINE
  5
   192
  8
0
  6
CONTINUOUS
 62
   210
 10
36.737060546875
 20
72.7994995117188
 30
0.0
 11
27.237060546875
 21
63.299503326416
 31
0.0
  0
LINE
  5
   193
  8
0
  6
CONTINUOUS
 62
   210
 10
36.737060546875
 20
68.5568618774414
 30
0.0
 11
31.180139541626
 21
62.9999389648438
 31
0.0
  0
LINE
  5
   194
  8
0
  6
CONTINUOUS
 62
   210
 10
36.737060546875
 20
64.3142166137695
 30
0.0
 11
35.422779083252
 21
62.9999389648438
 31
0.0
  0
ENDBLK
  5
   195
  8
0
  6
CONTINUOUS
 62
     1
  0
BLOCK
  5
   196
  8
0
  6
CONTINUOUS
 62
     1
  2
*HATCH1032
 70
    65
 10
0.0
 20
0.0
 30
0.0
  3
*HATCH1032
  0
LINE
  5
   197
  8
0
  6
CONTINUOUS
 62
   210
 10
3.48165249824524
 20
64.9999389648438
 30
0.0
 11
1.48165237903595
 21
62.9999389648438
 31
0.0
  0
LINE
  5
   198
  8
0
  6
CONTINUOUS
 62
   210
 10
7.72429370880127
 20
64.9999389648438
 30
0.0
 11
5.72429370880127
 21
62.9999389648438
 31
0.0
  0
LINE
  5
   199
  8
0
  6
CONTINUOUS
 62
   210
 10
11.237060546875
 20
64.2700653076172
 30
0.0
 11
9.96693420410156
 21
62.9999389648438
 31
0.0
  0
ENDBLK
  5
   19A
  8
0
  6
CONTINUOUS
 62
     1
  0
BLOCK
  5
   19B
  8
0
  6
CONTINUOUS
 62
     1
  2
*HATCH1033
 70
    65
 10
0.0
 20
0.0
 30
0.0
  3
*HATCH1033
  0
LINE
  5
   19C
  8
0
  6
CONTINUOUS
 62
   210
 10
2.38977003097534
 20
82.9999389648438
 30
0.0
 11
0.389769941568375
 21
80.9999389648438
 31
0.0
  0
LINE
  5
   19D
  8
0
  6
CONTINUOUS
 62
   210
 10
6.63241100311279
 20
82.9999389648438
 30
0.0
 11
4.63241100311279
 21
80.9999389648438
 31
0.0
  0
LINE
  5
   19E
  8
0
  6
CONTINUOUS
 62
   210
 10
10.8750524520874
 20
82.9999389648438
 30
0.0
 11
8.8750524520874
 21
80.9999389648438
 31
0.0
  0
ENDBLK
  5
   19F
  8
0
  6
CONTINUOUS
 62
     1
  0
BLOCK
  5
   1A0
  8
0
  6
CONTINUOUS
 62
   218
  2
*HATCH1034
 70
    65
 10
0.0
 20
0.0
 30
0.0
  3
*HATCH1034
  0
LINE
  5
   1A1
  8
0
  6
CONTINUOUS
 62
     3
 10
-70.4023208618164
 20
252.038360595703
 30
0.0
 11
-72.2455978393555
 21
250.195083618164
 31
0.0
  0
LINE
  5
   1A2
  8
0
  6
CONTINUOUS
 62
     3
 10
-69.0759735107422
 20
252.304061889648
 30
0.0
 11
-71.8744277954102
 21
249.505599975586
 31
0.0
  0
LINE
  5
   1A3
  8
0
  6
CONTINUOUS
 62
     3
 10
-68.0004959106445
 20
252.318878173828
 30
0.0
 11
-71.2877426147461
 21
249.031631469727
 31
0.0
  0
LINE
  5
   1A4
  8
0
  6
CONTINUOUS
 62
     3
 10
-67.0423049926758
 20
252.216400146484
 30
0.0
 11
-70.5405578613281
 21
248.718139648438
 31
0.0
  0
LINE
  5
   1A5
  8
0
  6
CONTINUOUS
 62
     3
 10
-66.1708908081055
 20
252.027160644531
 30
0.0
 11
-69.6915588378906
 21
248.506484985352
 31
0.0
  0
LINE
  5
   1A6
  8
0
  6
CONTINUOUS
 62
     3
 10
-65.423713684082
 20
251.713668823242
 30
0.0
 11
-68.7577438354492
 21
248.379638671875
 31
0.0
  0
LINE
  5
   1A7
  8
0
  6
CONTINUOUS
 62
     3
 10
-64.8103408813477
 20
251.266387939453
 30
0.0
 11
-67.6970825195313
 21
248.379638671875
 31
0.0
  0
LINE
  5
   1A8
  8
0
  6
CONTINUOUS
 62
     3
 10
-64.3956069946289
 20
250.620452880859
 30
0.0
 11
-66.4208602905273
 21
248.595199584961
 31
0.0
  0
ENDBLK
  5
   1A9
  8
0
  6
CONTINUOUS
 62
   218
  0
BLOCK
  5
   1AA
  8
0
  6
CONTINUOUS
 62
     7
  2
$1CAVO
 70
    64
 10
0.0
 20
0.0
 30
0.0
  3
$1CAVO
  0
LINE
  5
   1AB
  8
0
  6
CONTINUOUS
 62
   218
 10
-58.099964209298
 20
208.737096448575
 30
0.0
 11
-58.099964209298
 21
231.737096448575
 31
0.0
  0
LINE
  5
   1AC
  8
0
  6
CONTINUOUS
 62
   218
 10
-70.499964209298
 20
208.737096448575
 30
0.0
 11
-70.499964209298
 21
231.737096448575
 31
0.0
  0
LINE
  5
   1AD
  8
0
  6
CONTINUOUS
 62
   218
 10
-70.499964209298
 20
208.737096448575
 30
0.0
 11
-58.099964209298
 21
208.737096448575
 31
0.0
  0
LINE
  5
   1AE
  8
0
  6
CONTINUOUS
 62
   218
 10
-72.299964209298
 20
231.737096448575
 30
0.0
 11
-56.299964209298
 21
231.737096448575
 31
0.0
  0
LINE
  5
   1AF
  8
0
  6
DASHDOT
 62
   218
 10
-64.299964209298
 20
203.675830579354
 30
0.0
 11
-64.299964209298
 21
252.349255591
 31
0.0
  0
LINE
  5
   1B0
  8
0
  6
CONTINUOUS
 62
   218
 10
-72.299964209298
 20
231.737096448575
 30
0.0
 11
-72.299964209298
 21
250.349255591
 31
0.0
  0
LINE
  5
   1B1
  8
0
  6
CONTINUOUS
 62
   218
 10
-56.299964209298
 20
231.737096448575
 30
0.0
 11
-56.299964209298
 21
250.349255591
 31
0.0
  0
LINE
  5
   1B2
  8
0
  6
CONTINUOUS
 62
   218
 10
-64.299964209298
 20
208.737096448575
 30
0.0
 11
-60.2444436530033
 21
231.737096448575
 31
0.0
  0
POLYLINE
  5
   1B3
  8
0
  6
CONTINUOUS
 62
   218
 66
     1
 10
0.0
 20
0.0
 30
0.0
 70
     1
  0
VERTEX
  5
   1B4
  8
0
  6
CONTINUOUS
 10
-72.299964209298
 20
250.34925559099
 30
0.0
 40
0.0
 41
0.0
  0
VERTEX
  5
   1B5
  8
0
  6
CONTINUOUS
 10
-72.2987594840827
 20
250.300173133944
 30
0.0
 40
0.0
 41
0.0
  0
VERTEX
  5
   1B6
  8
0
  6
CONTINUOUS
 10
-72.2951460341185
 20
250.251120242335
 30
0.0
 40
0.0
 41
0.0
  0
VERTEX
  5
   1B7
  8
0
  6
CONTINUOUS
 10
-72.2891260360124
 20
250.20212646379
 30
0.0
 40
0.0
 41
0.0
  0
VERTEX
  5
   1B8
  8
0
  6
CONTINUOUS
 10
-72.2807031159863
 20
250.153221310331
 30
0.0
 40
0.0
 41
0.0
  0
VERTEX
  5
   1B9
  8
0
  6
CONTINUOUS
 10
-72.2698823476922
 20
250.104434240591
 30
0.0
 40
0.0
 41
0.0
  0
VERTEX
  5
   1BA
  8
0
  6
CONTINUOUS
 10
-72.2566702491564
 20
250.055794642079
 30
0.0
 40
0.0
 41
0.0
  0
VERTEX
  5
   1BB
  8
0
  6
CONTINUOUS
 10
-72.2410747788529
 20
250.007331813469
 30
0.0
 40
0.0
 41
0.0
  0
VERTEX
  5
   1BC
  8
0
  6
CONTINUOUS
 10
-72.22310533091
 20
249.959074946958
 30
0.0
 40
0.0
 41
0.0
  0
VERTEX
  5
   1BD
  8
0
  6
CONTINUOUS
 10
-72.202772729451
 20
249.911053110676
 30
0.0
 40
0.0
 41
0.0
  0
VERTEX
  5
   1BE
  8
0
  6
CONTINUOUS
 10
-72.180089222075
 20
249.863295231183
 30
0.0
 40
0.0
 41
0.0
  0
VERTEX
  5
   1BF
  8
0
  6
CONTINUOUS
 10
-72.1550684724784
 20
249.81583007604
 30
0.0
 40
0.0
 41
0.0
  0
VERTEX
  5
   1C0
  8
0
  6
CONTINUOUS
 10
-72.1277255522254
 20
249.768686236481
 30
0.0
 40
0.0
 41
0.0
  0
VERTEX
  5
   1C1
  8
0
  6
CONTINUOUS
 10
-72.0980769316686
 20
249.721892110192
 30
0.0
 40
0.0
 41
0.0
  0
VERTEX
  5
   1C2
  8
0
  6
CONTINUOUS
 10
-72.0661404700284
 20
249.675475884206
 30
0.0
 40
0.0
 41
0.0
  0
VERTEX
  5
   1C3
  8
0
  6
CONTINUOUS
 10
-72.0319354046352
 20
249.62946551792
 30
0.0
 40
0.0
 41
0.0
  0
VERTEX
  5
   1C4
  8
0
  6
CONTINUOUS
 10
-71.9954823393412
 20
249.58388872626
 30
0.0
 40
0.0
 41
0.0
  0
VERTEX
  5
   1C5
  8
0
  6
CONTINUOUS
 10
-71.9159213817896
 20
249.49414540413
 30
0.0
 40
0.0
 41
0.0
  0
VERTEX
  5
   1C6
  8
0
  6
CONTINUOUS
 10
-71.8276492666891
 20
249.406462117339
 30
0.0
 40
0.0
 41
0.0
  0
VERTEX
  5
   1C7
  8
0
  6
CONTINUOUS
 10
-71.7308786492965
 20
249.321050102605
 30
0.0
 40
0.0
 41
0.0
  0
VERTEX
  5
   1C8
  8
0
  6
CONTINUOUS
 10
-71.6258426585054
 20
249.238115124952
 30
0.0
 40
0.0
 41
0.0
  0
VERTEX
  5
   1C9
  8
0
  6
CONTINUOUS
 10
-71.5127943352176
 20
249.157856982007
 30
0.0
 40
0.0
 41
0.0
  0
VERTEX
  5
   1CA
  8
0
  6
CONTINUOUS
 10
-71.3920060227458
 20
249.080469022665
 30
0.0
 40
0.0
 41
0.0
  0
VERTEX
  5
   1CB
  8
0
  6
CONTINUOUS
 10
-71.2637687107145
 20
249.006137681298
 30
0.0
 40
0.0
 41
0.0
  0
VERTEX
  5
   1CC
  8
0
  6
CONTINUOUS
 10
-71.1283913340406
 20
248.93504202862
 30
0.0
 40
0.0
 41
0.0
  0
VERTEX
  5
   1CD
  8
0
  6
CONTINUOUS
 10
-70.9862000286824
 20
248.867353340283
 30
0.0
 40
0.0
 41
0.0
  0
VERTEX
  5
   1CE
  8
0
  6
CONTINUOUS
 10
-70.8375373459487
 20
248.803234684268
 30
0.0
 40
0.0
 41
0.0
  0
VERTEX
  5
   1CF
  8
0
  6
CONTINUOUS
 10
-70.6827614272637
 20
248.742840528032
 30
0.0
 40
0.0
 41
0.0
  0
VERTEX
  5
   1D0
  8
0
  6
CONTINUOUS
 10
-70.5222451413722
 20
248.686316366389
 30
0.0
 40
0.0
 41
0.0
  0
VERTEX
  5
   1D1
  8
0
  6
CONTINUOUS
 10
-70.3563751860666
 20
248.633798370994
 30
0.0
 40
0.0
 41
0.0
  0
VERTEX
  5
   1D2
  8
0
  6
CONTINUOUS
 10
-70.1855511565976
 20
248.585413062298
 30
0.0
 40
0.0
 41
0.0
  0
VERTEX
  5
   1D3
  8
0
  6
CONTINUOUS
 10
-70.0101845830146
 20
248.541277004749
 30
0.0
 40
0.0
 41
0.0
  0
VERTEX
  5
   1D4
  8
0
  6
CONTINUOUS
 10
-69.8306979387537
 20
248.501496525973
 30
0.0
 40
0.0
 41
0.0
  0
VERTEX
  5
   1D5
  8
0
  6
CONTINUOUS
 10
-69.6475236228622
 20
248.46616746063
 30
0.0
 40
0.0
 41
0.0
  0
VERTEX
  5
   1D6
  8
0
  6
CONTINUOUS
 10
-69.4611029183111
 20
248.435374919532
 30
0.0
 40
0.0
 41
0.0
  0
VERTEX
  5
   1D7
  8
0
  6
CONTINUOUS
 10
-69.2718849289062
 20
248.409193084608
 30
0.0
 40
0.0
 41
0.0
  0
VERTEX
  5
   1D8
  8
0
  6
CONTINUOUS
 10
-69.0803254973576
 20
248.387685030191
 30
0.0
 40
0.0
 41
0.0
  0
VERTEX
  5
   1D9
  8
0
  6
CONTINUOUS
 10
-68.8868861071145
 20
248.370902571069
 30
0.0
 40
0.0
 41
0.0
  0
VERTEX
  5
   1DA
  8
0
  6
CONTINUOUS
 10
-68.6920327706112
 20
248.358886137654
 30
0.0
 40
0.0
 41
0.0
  0
VERTEX
  5
   1DB
  8
0
  6
CONTINUOUS
 10
-68.4962349066027
 20
248.351664678589
 30
0.0
 40
0.0
 41
0.0
  0
VERTEX
  5
   1DC
  8
0
  6
CONTINUOUS
 10
-68.299964209293
 20
248.349255591
 30
0.0
 40
0.0
 41
0.0
  0
VERTEX
  5
   1DD
  8
0
  6
CONTINUOUS
 10
-68.1036935119833
 20
248.35166467859
 30
0.0
 40
0.0
 41
0.0
  0
VERTEX
  5
   1DE
  8
0
  6
CONTINUOUS
 10
-67.9078956479748
 20
248.358886137656
 30
0.0
 40
0.0
 41
0.0
  0
VERTEX
  5
   1DF
  8
0
  6
CONTINUOUS
 10
-67.7130423114716
 20
248.370902571072
 30
0.0
 40
0.0
 41
0.0
  0
VERTEX
  5
   1E0
  8
0
  6
CONTINUOUS
 10
-67.5196029212286
 20
248.387685030195
 30
0.0
 40
0.0
 41
0.0
  0
VERTEX
  5
   1E1
  8
0
  6
CONTINUOUS
 10
-67.3280434896801
 20
248.409193084613
 30
0.0
 40
0.0
 41
0.0
  0
VERTEX
  5
   1E2
  8
0
  6
CONTINUOUS
 10
-67.1388255002754
 20
248.435374919538
 30
0.0
 40
0.0
 41
0.0
  0
VERTEX
  5
   1E3
  8
0
  6
CONTINUOUS
 10
-66.9524047957244
 20
248.466167460637
 30
0.0
 40
0.0
 41
0.0
  0
VERTEX
  5
   1E4
  8
0
  6
CONTINUOUS
 10
-66.769230479833
 20
248.501496525981
 30
0.0
 40
0.0
 41
0.0
  0
VERTEX
  5
   1E5
  8
0
  6
CONTINUOUS
 10
-66.5897438355723
 20
248.541277004757
 30
0.0
 40
0.0
 41
0.0
  0
VERTEX
  5
   1E6
  8
0
  6
CONTINUOUS
 10
-66.4143772619896
 20
248.585413062308
 30
0.0
 40
0.0
 41
0.0
  0
VERTEX
  5
   1E7
  8
0
  6
CONTINUOUS
 10
-66.2435532325208
 20
248.633798371004
 30
0.0
 40
0.0
 41
0.0
  0
VERTEX
  5
   1E8
  8
0
  6
CONTINUOUS
 10
-66.0776832772154
 20
248.6863163664
 30
0.0
 40
0.0
 41
0.0
  0
VERTEX
  5
   1E9
  8
0
  6
CONTINUOUS
 10
-65.9171669913242
 20
248.742840528044
 30
0.0
 40
0.0
 41
0.0
  0
VERTEX
  5
   1EA
  8
0
  6
CONTINUOUS
 10
-65.7623910726396
 20
248.803234684281
 30
0.0
 40
0.0
 41
0.0
  0
VERTEX
  5
   1EB
  8
0
  6
CONTINUOUS
 10
-65.6137283899062
 20
248.867353340297
 30
0.0
 40
0.0
 41
0.0
  0
VERTEX
  5
   1EC
  8
0
  6
CONTINUOUS
 10
-65.4715370845483
 20
248.935042028634
 30
0.0
 40
0.0
 41
0.0
  0
VERTEX
  5
   1ED
  8
0
  6
CONTINUOUS
 10
-65.3361597078748
 20
249.006137681313
 30
0.0
 40
0.0
 41
0.0
  0
VERTEX
  5
   1EE
  8
0
  6
CONTINUOUS
 10
-65.2079223958439
 20
249.08046902268
 30
0.0
 40
0.0
 41
0.0
  0
VERTEX
  5
   1EF
  8
0
  6
CONTINUOUS
 10
-65.0871340833724
 20
249.157856982023
 30
0.0
 40
0.0
 41
0.0
  0
VERTEX
  5
   1F0
  8
0
  6
CONTINUOUS
 10
-64.974085760085
 20
249.238115124969
 30
0.0
 40
0.0
 41
0.0
  0
VERTEX
  5
   1F1
  8
0
  6
CONTINUOUS
 10
-64.8690497692943
 20
249.321050102622
 30
0.0
 40
0.0
 41
0.0
  0
VERTEX
  5
   1F2
  8
0
  6
CONTINUOUS
 10
-64.7722791519022
 20
249.406462117357
 30
0.0
 40
0.0
 41
0.0
  0
VERTEX
  5
   1F3
  8
0
  6
CONTINUOUS
 10
-64.6840070368021
 20
249.494145404148
 30
0.0
 40
0.0
 41
0.0
  0
VERTEX
  5
   1F4
  8
0
  6
CONTINUOUS
 10
-64.604446079251
 20
249.583888726279
 30
0.0
 40
0.0
 41
0.0
  0
VERTEX
  5
   1F5
  8
0
  6
CONTINUOUS
 10
-64.5679930139573
 20
249.629465517939
 30
0.0
 40
0.0
 41
0.0
  0
VERTEX
  5
   1F6
  8
0
  6
CONTINUOUS
 10
-64.5337879485642
 20
249.675475884225
 30
0.0
 40
0.0
 41
0.0
  0
VERTEX
  5
   1F7
  8
0
  6
CONTINUOUS
 10
-64.5018514869243
 20
249.721892110211
 30
0.0
 40
0.0
 41
0.0
  0
VERTEX
  5
   1F8
  8
0
  6
CONTINUOUS
 10
-64.4722028663677
 20
249.7686862365
 30
0.0
 40
0.0
 41
0.0
  0
VERTEX
  5
   1F9
  8
0
  6
CONTINUOUS
 10
-64.4448599461149
 20
249.81583007606
 30
0.0
 40
0.0
 41
0.0
  0
VERTEX
  5
   1FA
  8
0
  6
CONTINUOUS
 10
-64.4198391965186
 20
249.863295231203
 30
0.0
 40
0.0
 41
0.0
  0
VERTEX
  5
   1FB
  8
0
  6
CONTINUOUS
 10
-64.3971556891428
 20
249.911053110696
 30
0.0
 40
0.0
 41
0.0
  0
VERTEX
  5
   1FC
  8
0
  6
CONTINUOUS
 10
-64.3768230876841
 20
249.959074946977
 30
0.0
 40
0.0
 41
0.0
  0
VERTEX
  5
   1FD
  8
0
  6
CONTINUOUS
 10
-64.3588536397414
 20
250.007331813489
 30
0.0
 40
0.0
 41
0.0
  0
VERTEX
  5
   1FE
  8
0
  6
CONTINUOUS
 10
-64.3432581694382
 20
250.055794642099
 30
0.0
 40
0.0
 41
0.0
  0
VERTEX
  5
   1FF
  8
0
  6
CONTINUOUS
 10
-64.3300460709026
 20
250.104434240611
 30
0.0
 40
0.0
 41
0.0
  0
VERTEX
  5
   200
  8
0
  6
CONTINUOUS
 10
-64.3192253026087
 20
250.153221310351
 30
0.0
 40
0.0
 41
0.0
  0
VERTEX
  5
   201
  8
0
  6
CONTINUOUS
 10
-64.3108023825829
 20
250.20212646381
 30
0.0
 40
0.0
 41
0.0
  0
VERTEX
  5
   202
  8
0
  6
CONTINUOUS
 10
-64.3047823844771
 20
250.251120242355
 30
0.0
 40
0.0
 41
0.0
  0
VERTEX
  5
   203
  8
0
  6
CONTINUOUS
 10
-64.3011689345131
 20
250.300173133964
 30
0.0
 40
0.0
 41
0.0
  0
VERTEX
  5
   204
  8
0
  6
CONTINUOUS
 10
-64.299964209298
 20
250.34925559101
 30
0.0
 40
0.0
 41
0.0
  0
VERTEX
  5
   205
  8
0
  6
CONTINUOUS
 10
-64.3011689345133
 20
250.398338048056
 30
0.0
 40
0.0
 41
0.0
  0
VERTEX
  5
   206
  8
0
  6
CONTINUOUS
 10
-64.3047823844776
 20
250.447390939665
 30
0.0
 40
0.0
 41
0.0
  0
VERTEX
  5
   207
  8
0
  6
CONTINUOUS
 10
-64.3108023825836
 20
250.496384718209
 30
0.0
 40
0.0
 41
0.0
  0
VERTEX
  5
   208
  8
0
  6
CONTINUOUS
 10
-64.3192253026097
 20
250.545289871669
 30
0.0
 40
0.0
 41
0.0
  0
VERTEX
  5
   209
  8
0
  6
CONTINUOUS
 10
-64.3300460709038
 20
250.594076941408
 30
0.0
 40
0.0
 41
0.0
  0
VERTEX
  5
   20A
  8
0
  6
CONTINUOUS
 10
-64.3432581694396
 20
250.64271653992
 30
0.0
 40
0.0
 41
0.0
  0
VERTEX
  5
   20B
  8
0
  6
CONTINUOUS
 10
-64.3588536397431
 20
250.69117936853
 30
0.0
 40
0.0
 41
0.0
  0
VERTEX
  5
   20C
  8
0
  6
CONTINUOUS
 10
-64.3768230876861
 20
250.739436235042
 30
0.0
 40
0.0
 41
0.0
  0
VERTEX
  5
   20D
  8
0
  6
CONTINUOUS
 10
-64.397155689145
 20
250.787458071323
 30
0.0
 40
0.0
 41
0.0
  0
VERTEX
  5
   20E
  8
0
  6
CONTINUOUS
 10
-64.4198391965211
 20
250.835215950816
 30
0.0
 40
0.0
 41
0.0
  0
VERTEX
  5
   20F
  8
0
  6
CONTINUOUS
 10
-64.4448599461176
 20
250.882681105959
 30
0.0
 40
0.0
 41
0.0
  0
VERTEX
  5
   210
  8
0
  6
CONTINUOUS
 10
-64.4722028663706
 20
250.929824945518
 30
0.0
 40
0.0
 41
0.0
  0
VERTEX
  5
   211
  8
0
  6
CONTINUOUS
 10
-64.5018514869274
 20
250.976619071807
 30
0.0
 40
0.0
 41
0.0
  0
VERTEX
  5
   212
  8
0
  6
CONTINUOUS
 10
-64.5337879485676
 20
251.023035297794
 30
0.0
 40
0.0
 41
0.0
  0
VERTEX
  5
   213
  8
0
  6
CONTINUOUS
 10
-64.5679930139609
 20
251.069045664079
 30
0.0
 40
0.0
 41
0.0
  0
VERTEX
  5
   214
  8
0
  6
CONTINUOUS
 10
-64.6044460792548
 20
251.114622455739
 30
0.0
 40
0.0
 41
0.0
  0
VERTEX
  5
   215
  8
0
  6
CONTINUOUS
 10
-64.6840070368064
 20
251.204365777869
 30
0.0
 40
0.0
 41
0.0
  0
VERTEX
  5
   216
  8
0
  6
CONTINUOUS
 10
-64.772279151907
 20
251.292049064661
 30
0.0
 40
0.0
 41
0.0
  0
VERTEX
  5
   217
  8
0
  6
CONTINUOUS
 10
-64.8690497692995
 20
251.377461079395
 30
0.0
 40
0.0
 41
0.0
  0
VERTEX
  5
   218
  8
0
  6
CONTINUOUS
 10
-64.9740857600906
 20
251.460396057047
 30
0.0
 40
0.0
 41
0.0
  0
VERTEX
  5
   219
  8
0
  6
CONTINUOUS
 10
-65.0871340833784
 20
251.540654199993
 30
0.0
 40
0.0
 41
0.0
  0
VERTEX
  5
   21A
  8
0
  6
CONTINUOUS
 10
-65.2079223958502
 20
251.618042159335
 30
0.0
 40
0.0
 41
0.0
  0
VERTEX
  5
   21B
  8
0
  6
CONTINUOUS
 10
-65.3361597078815
 20
251.692373500701
 30
0.0
 40
0.0
 41
0.0
  0
VERTEX
  5
   21C
  8
0
  6
CONTINUOUS
 10
-65.4715370845554
 20
251.76346915338
 30
0.0
 40
0.0
 41
0.0
  0
VERTEX
  5
   21D
  8
0
  6
CONTINUOUS
 10
-65.6137283899137
 20
251.831157841716
 30
0.0
 40
0.0
 41
0.0
  0
VERTEX
  5
   21E
  8
0
  6
CONTINUOUS
 10
-65.7623910726473
 20
251.895276497732
 30
0.0
 40
0.0
 41
0.0
  0
VERTEX
  5
   21F
  8
0
  6
CONTINUOUS
 10
-65.9171669913323
 20
251.955670653967
 30
0.0
 40
0.0
 41
0.0
  0
VERTEX
  5
   220
  8
0
  6
CONTINUOUS
 10
-66.0776832772238
 20
252.01219481561
 30
0.0
 40
0.0
 41
0.0
  0
VERTEX
  5
   221
  8
0
  6
CONTINUOUS
 10
-66.2435532325294
 20
252.064712811005
 30
0.0
 40
0.0
 41
0.0
  0
VERTEX
  5
   222
  8
0
  6
CONTINUOUS
 10
-66.4143772619985
 20
252.113098119701
 30
0.0
 40
0.0
 41
0.0
  0
VERTEX
  5
   223
  8
0
  6
CONTINUOUS
 10
-66.5897438355814
 20
252.157234177251
 30
0.0
 40
0.0
 41
0.0
  0
VERTEX
  5
   224
  8
0
  6
CONTINUOUS
 10
-66.7692304798423
 20
252.197014656026
 30
0.0
 40
0.0
 41
0.0
  0
VERTEX
  5
   225
  8
0
  6
CONTINUOUS
 10
-66.9524047957339
 20
252.232343721369
 30
0.0
 40
0.0
 41
0.0
  0
VERTEX
  5
   226
  8
0
  6
CONTINUOUS
 10
-67.138825500285
 20
252.263136262467
 30
0.0
 40
0.0
 41
0.0
  0
VERTEX
  5
   227
  8
0
  6
CONTINUOUS
 10
-67.3280434896898
 20
252.289318097391
 30
0.0
 40
0.0
 41
0.0
  0
VERTEX
  5
   228
  8
0
  6
CONTINUOUS
 10
-67.5196029212384
 20
252.310826151808
 30
0.0
 40
0.0
 41
0.0
  0
VERTEX
  5
   229
  8
0
  6
CONTINUOUS
 10
-67.7130423114815
 20
252.327608610931
 30
0.0
 40
0.0
 41
0.0
  0
VERTEX
  5
   22A
  8
0
  6
CONTINUOUS
 10
-67.9078956479848
 20
252.339625044345
 30
0.0
 40
0.0
 41
0.0
  0
VERTEX
  5
   22B
  8
0
  6
CONTINUOUS
 10
-68.1036935119934
 20
252.346846503411
 30
0.0
 40
0.0
 41
0.0
  0
VERTEX
  5
   22C
  8
0
  6
CONTINUOUS
 10
-68.299964209303
 20
252.349255591
 30
0.0
 40
0.0
 41
0.0
  0
VERTEX
  5
   22D
  8
0
  6
CONTINUOUS
 10
-68.4962349066127
 20
252.34684650341
 30
0.0
 40
0.0
 41
0.0
  0
VERTEX
  5
   22E
  8
0
  6
CONTINUOUS
 10
-68.6920327706213
 20
252.339625044343
 30
0.0
 40
0.0
 41
0.0
  0
VERTEX
  5
   22F
  8
0
  6
CONTINUOUS
 10
-68.8868861071244
 20
252.327608610928
 30
0.0
 40
0.0
 41
0.0
  0
VERTEX
  5
   230
  8
0
  6
CONTINUOUS
 10
-69.0803254973675
 20
252.310826151804
 30
0.0
 40
0.0
 41
0.0
  0
VERTEX
  5
   231
  8
0
  6
CONTINUOUS
 10
-69.2718849289159
 20
252.289318097386
 30
0.0
 40
0.0
 41
0.0
  0
VERTEX
  5
   232
  8
0
  6
CONTINUOUS
 10
-69.4611029183207
 20
252.263136262461
 30
0.0
 40
0.0
 41
0.0
  0
VERTEX
  5
   233
  8
0
  6
CONTINUOUS
 10
-69.6475236228716
 20
252.232343721362
 30
0.0
 40
0.0
 41
0.0
  0
VERTEX
  5
   234
  8
0
  6
CONTINUOUS
 10
-69.830697938763
 20
252.197014656018
 30
0.0
 40
0.0
 41
0.0
  0
VERTEX
  5
   235
  8
0
  6
CONTINUOUS
 10
-70.0101845830237
 20
252.157234177242
 30
0.0
 40
0.0
 41
0.0
  0
VERTEX
  5
   236
  8
0
  6
CONTINUOUS
 10
-70.1855511566064
 20
252.113098119692
 30
0.0
 40
0.0
 41
0.0
  0
VERTEX
  5
   237
  8
0
  6
CONTINUOUS
 10
-70.3563751860752
 20
252.064712810995
 30
0.0
 40
0.0
 41
0.0
  0
VERTEX
  5
   238
  8
0
  6
CONTINUOUS
 10
-70.5222451413806
 20
252.012194815599
 30
0.0
 40
0.0
 41
0.0
  0
VERTEX
  5
   239
  8
0
  6
CONTINUOUS
 10
-70.6827614272718
 20
251.955670653955
 30
0.0
 40
0.0
 41
0.0
  0
VERTEX
  5
   23A
  8
0
  6
CONTINUOUS
 10
-70.8375373459565
 20
251.895276497719
 30
0.0
 40
0.0
 41
0.0
  0
VERTEX
  5
   23B
  8
0
  6
CONTINUOUS
 10
-70.9862000286898
 20
251.831157841703
 30
0.0
 40
0.0
 41
0.0
  0
VERTEX
  5
   23C
  8
0
  6
CONTINUOUS
 10
-71.1283913340478
 20
251.763469153366
 30
0.0
 40
0.0
 41
0.0
  0
VERTEX
  5
   23D
  8
0
  6
CONTINUOUS
 10
-71.2637687107212
 20
251.692373500686
 30
0.0
 40
0.0
 41
0.0
  0
VERTEX
  5
   23E
  8
0
  6
CONTINUOUS
 10
-71.3920060227521
 20
251.618042159319
 30
0.0
 40
0.0
 41
0.0
  0
VERTEX
  5
   23F
  8
0
  6
CONTINUOUS
 10
-71.5127943352236
 20
251.540654199976
 30
0.0
 40
0.0
 41
0.0
  0
VERTEX
  5
   240
  8
0
  6
CONTINUOUS
 10
-71.625842658511
 20
251.460396057031
 30
0.0
 40
0.0
 41
0.0
  0
VERTEX
  5
   241
  8
0
  6
CONTINUOUS
 10
-71.7308786493017
 20
251.377461079378
 30
0.0
 40
0.0
 41
0.0
  0
VERTEX
  5
   242
  8
0
  6
CONTINUOUS
 10
-71.8276492666938
 20
251.292049064643
 30
0.0
 40
0.0
 41
0.0
  0
VERTEX
  5
   243
  8
0
  6
CONTINUOUS
 10
-71.9159213817939
 20
251.204365777851
 30
0.0
 40
0.0
 41
0.0
  0
VERTEX
  5
   244
  8
0
  6
CONTINUOUS
 10
-71.9954823393451
 20
251.114622455721
 30
0.0
 40
0.0
 41
0.0
  0
VERTEX
  5
   245
  8
0
  6
CONTINUOUS
 10
-72.0319354046388
 20
251.06904566406
 30
0.0
 40
0.0
 41
0.0
  0
VERTEX
  5
   246
  8
0
  6
CONTINUOUS
 10
-72.0661404700318
 20
251.023035297775
 30
0.0
 40
0.0
 41
0.0
  0
VERTEX
  5
   247
  8
0
  6
CONTINUOUS
 10
-72.0980769316717
 20
250.976619071788
 30
0.0
 40
0.0
 41
0.0
  0
VERTEX
  5
   248
  8
0
  6
CONTINUOUS
 10
-72.1277255522283
 20
250.929824945499
 30
0.0
 40
0.0
 41
0.0
  0
VERTEX
  5
   249
  8
0
  6
CONTINUOUS
 10
-72.1550684724811
 20
250.88268110594
 30
0.0
 40
0.0
 41
0.0
  0
VERTEX
  5
   24A
  8
0
  6
CONTINUOUS
 10
-72.1800892220774
 20
250.835215950796
 30
0.0
 40
0.0
 41
0.0
  0
VERTEX
  5
   24B
  8
0
  6
CONTINUOUS
 10
-72.2027727294532
 20
250.787458071304
 30
0.0
 40
0.0
 41
0.0
  0
VERTEX
  5
   24C
  8
0
  6
CONTINUOUS
 10
-72.2231053309119
 20
250.739436235022
 30
0.0
 40
0.0
 41
0.0
  0
VERTEX
  5
   24D
  8
0
  6
CONTINUOUS
 10
-72.2410747788546
 20
250.69117936851
 30
0.0
 40
0.0
 41
0.0
  0
VERTEX
  5
   24E
  8
0
  6
CONTINUOUS
 10
-72.2566702491579
 20
250.642716539901
 30
0.0
 40
0.0
 41
0.0
  0
VERTEX
  5
   24F
  8
0
  6
CONTINUOUS
 10
-72.2698823476935
 20
250.594076941388
 30
0.0
 40
0.0
 41
0.0
  0
VERTEX
  5
   250
  8
0
  6
CONTINUOUS
 10
-72.2807031159873
 20
250.545289871649
 30
0.0
 40
0.0
 41
0.0
  0
VERTEX
  5
   251
  8
0
  6
CONTINUOUS
 10
-72.2891260360131
 20
250.496384718189
 30
0.0
 40
0.0
 41
0.0
  0
VERTEX
  5
   252
  8
0
  6
CONTINUOUS
 10
-72.2951460341189
 20
250.447390939645
 30
0.0
 40
0.0
 41
0.0
  0
VERTEX
  5
   253
  8
0
  6
CONTINUOUS
 10
-72.298759484083
 20
250.398338048035
 30
0.0
 40
0.0
 41
0.0
  0
VERTEX
  5
   254
  8
0
  6
CONTINUOUS
 10
-72.299964209298
 20
250.34925559099
 30
0.0
 40
0.0
 41
0.0
  0
SEQEND
  5
   255
  8
0
  6
CONTINUOUS
 62
   218
  0
POLYLINE
  5
   256
  8
0
  6
CONTINUOUS
 62
   218
 66
     1
 10
0.0
 20
0.0
 30
0.0
  0
VERTEX
  5
   257
  8
0
  6
CONTINUOUS
 10
-56.299964209298
 20
250.349255591015
 30
0.0
 40
0.0
 41
0.0
  0
VERTEX
  5
   258
  8
0
  6
CONTINUOUS
 10
-56.3011689345136
 20
250.398338048061
 30
0.0
 40
0.0
 41
0.0
  0
VERTEX
  5
   259
  8
0
  6
CONTINUOUS
 10
-56.3047823844781
 20
250.44739093967
 30
0.0
 40
0.0
 41
0.0
  0
VERTEX
  5
   25A
  8
0
  6
CONTINUOUS
 10
-56.3108023825844
 20
250.496384718214
 30
0.0
 40
0.0
 41
0.0
  0
VERTEX
  5
   25B
  8
0
  6
CONTINUOUS
 10
-56.3192253026107
 20
250.545289871674
 30
0.0
 40
0.0
 41
0.0
  0
VERTEX
  5
   25C
  8
0
  6
CONTINUOUS
 10
-56.3300460709051
 20
250.594076941413
 30
0.0
 40
0.0
 41
0.0
  0
VERTEX
  5
   25D
  8
0
  6
CONTINUOUS
 10
-56.3432581694412
 20
250.642716539926
 30
0.0
 40
0.0
 41
0.0
  0
VERTEX
  5
   25E
  8
0
  6
CONTINUOUS
 10
-56.3588536397449
 20
250.691179368535
 30
0.0
 40
0.0
 41
0.0
  0
VERTEX
  5
   25F
  8
0
  6
CONTINUOUS
 10
-56.3768230876882
 20
250.739436235047
 30
0.0
 40
0.0
 41
0.0
  0
VERTEX
  5
   260
  8
0
  6
CONTINUOUS
 10
-56.3971556891474
 20
250.787458071328
 30
0.0
 40
0.0
 41
0.0
  0
VERTEX
  5
   261
  8
0
  6
CONTINUOUS
 10
-56.4198391965237
 20
250.835215950821
 30
0.0
 40
0.0
 41
0.0
  0
VERTEX
  5
   262
  8
0
  6
CONTINUOUS
 10
-56.4448599461205
 20
250.882681105964
 30
0.0
 40
0.0
 41
0.0
  0
VERTEX
  5
   263
  8
0
  6
CONTINUOUS
 10
-56.4722028663738
 20
250.929824945523
 30
0.0
 40
0.0
 41
0.0
  0
VERTEX
  5
   264
  8
0
  6
CONTINUOUS
 10
-56.5018514869309
 20
250.976619071812
 30
0.0
 40
0.0
 41
0.0
  0
VERTEX
  5
   265
  8
0
  6
CONTINUOUS
 10
-56.5337879485714
 20
251.023035297799
 30
0.0
 40
0.0
 41
0.0
  0
VERTEX
  5
   266
  8
0
  6
CONTINUOUS
 10
-56.5679930139649
 20
251.069045664084
 30
0.0
 40
0.0
 41
0.0
  0
VERTEX
  5
   267
  8
0
  6
CONTINUOUS
 10
-56.6044460792591
 20
251.114622455744
 30
0.0
 40
0.0
 41
0.0
  0
VERTEX
  5
   268
  8
0
  6
CONTINUOUS
 10
-56.6840070368113
 20
251.204365777875
 30
0.0
 40
0.0
 41
0.0
  0
VERTEX
  5
   269
  8
0
  6
CONTINUOUS
 10
-56.7722791519124
 20
251.292049064666
 30
0.0
 40
0.0
 41
0.0
  0
VERTEX
  5
   26A
  8
0
  6
CONTINUOUS
 10
-56.8690497693056
 20
251.3774610794
 30
0.0
 40
0.0
 41
0.0
  0
VERTEX
  5
   26B
  8
0
  6
CONTINUOUS
 10
-56.9740857600973
 20
251.460396057052
 30
0.0
 40
0.0
 41
0.0
  0
VERTEX
  5
   26C
  8
0
  6
CONTINUOUS
 10
-57.0871340833856
 20
251.540654199997
 30
0.0
 40
0.0
 41
0.0
  0
VERTEX
  5
   26D
  8
0
  6
CONTINUOUS
 10
-57.207922395858
 20
251.61804215934
 30
0.0
 40
0.0
 41
0.0
  0
VERTEX
  5
   26E
  8
0
  6
CONTINUOUS
 10
-57.3361597078899
 20
251.692373500706
 30
0.0
 40
0.0
 41
0.0
  0
VERTEX
  5
   26F
  8
0
  6
CONTINUOUS
 10
-57.4715370845643
 20
251.763469153384
 30
0.0
 40
0.0
 41
0.0
  0
VERTEX
  5
   270
  8
0
  6
CONTINUOUS
 10
-57.6137283899231
 20
251.831157841721
 30
0.0
 40
0.0
 41
0.0
  0
VERTEX
  5
   271
  8
0
  6
CONTINUOUS
 10
-57.7623910726573
 20
251.895276497736
 30
0.0
 40
0.0
 41
0.0
  0
VERTEX
  5
   272
  8
0
  6
CONTINUOUS
 10
-57.9171669913428
 20
251.955670653971
 30
0.0
 40
0.0
 41
0.0
  0
VERTEX
  5
   273
  8
0
  6
CONTINUOUS
 10
-58.0776832772348
 20
252.012194815614
 30
0.0
 40
0.0
 41
0.0
  0
VERTEX
  5
   274
  8
0
  6
CONTINUOUS
 10
-58.2435532325409
 20
252.064712811009
 30
0.0
 40
0.0
 41
0.0
  0
VERTEX
  5
   275
  8
0
  6
CONTINUOUS
 10
-58.4143772620104
 20
252.113098119704
 30
0.0
 40
0.0
 41
0.0
  0
VERTEX
  5
   276
  8
0
  6
CONTINUOUS
 10
-58.5897438355938
 20
252.157234177254
 30
0.0
 40
0.0
 41
0.0
  0
VERTEX
  5
   277
  8
0
  6
CONTINUOUS
 10
-58.7692304798551
 20
252.197014656029
 30
0.0
 40
0.0
 41
0.0
  0
VERTEX
  5
   278
  8
0
  6
CONTINUOUS
 10
-58.952404795747
 20
252.232343721371
 30
0.0
 40
0.0
 41
0.0
  0
VERTEX
  5
   279
  8
0
  6
CONTINUOUS
 10
-59.1388255002985
 20
252.263136262469
 30
0.0
 40
0.0
 41
0.0
  0
VERTEX
  5
   27A
  8
0
  6
CONTINUOUS
 10
-59.3280434897037
 20
252.289318097393
 30
0.0
 40
0.0
 41
0.0
  0
VERTEX
  5
   27B
  8
0
  6
CONTINUOUS
 10
-59.5196029212526
 20
252.31082615181
 30
0.0
 40
0.0
 41
0.0
  0
VERTEX
  5
   27C
  8
0
  6
CONTINUOUS
 10
-59.713042311496
 20
252.327608610932
 30
0.0
 40
0.0
 41
0.0
  0
VERTEX
  5
   27D
  8
0
  6
CONTINUOUS
 10
-59.9078956479995
 20
252.339625044346
 30
0.0
 40
0.0
 41
0.0
  0
VERTEX
  5
   27E
  8
0
  6
CONTINUOUS
 10
-60.1036935120083
 20
252.346846503411
 30
0.0
 40
0.0
 41
0.0
  0
VERTEX
  5
   27F
  8
0
  6
CONTINUOUS
 10
-60.2999642093181
 20
252.349255591
 30
0.0
 40
0.0
 41
0.0
  0
VERTEX
  5
   280
  8
0
  6
CONTINUOUS
 10
-60.4962349066279
 20
252.346846503409
 30
0.0
 40
0.0
 41
0.0
  0
VERTEX
  5
   281
  8
0
  6
CONTINUOUS
 10
-60.6920327706366
 20
252.339625044342
 30
0.0
 40
0.0
 41
0.0
  0
VERTEX
  5
   282
  8
0
  6
CONTINUOUS
 10
-60.8868861071398
 20
252.327608610927
 30
0.0
 40
0.0
 41
0.0
  0
VERTEX
  5
   283
  8
0
  6
CONTINUOUS
 10
-61.0803254973829
 20
252.310826151803
 30
0.0
 40
0.0
 41
0.0
  0
VERTEX
  5
   284
  8
0
  6
CONTINUOUS
 10
-61.2718849289313
 20
252.289318097384
 30
0.0
 40
0.0
 41
0.0
  0
VERTEX
  5
   285
  8
0
  6
CONTINUOUS
 10
-61.461102918336
 20
252.263136262459
 30
0.0
 40
0.0
 41
0.0
  0
VERTEX
  5
   286
  8
0
  6
CONTINUOUS
 10
-61.6475236228869
 20
252.23234372136
 30
0.0
 40
0.0
 41
0.0
  0
VERTEX
  5
   287
  8
0
  6
CONTINUOUS
 10
-61.8306979387781
 20
252.197014656015
 30
0.0
 40
0.0
 41
0.0
  0
VERTEX
  5
   288
  8
0
  6
CONTINUOUS
 10
-62.0101845830386
 20
252.157234177239
 30
0.0
 40
0.0
 41
0.0
  0
VERTEX
  5
   289
  8
0
  6
CONTINUOUS
 10
-62.1855511566211
 20
252.113098119688
 30
0.0
 40
0.0
 41
0.0
  0
VERTEX
  5
   28A
  8
0
  6
CONTINUOUS
 10
-62.3563751860896
 20
252.064712810991
 30
0.0
 40
0.0
 41
0.0
  0
VERTEX
  5
   28B
  8
0
  6
CONTINUOUS
 10
-62.5222451413947
 20
252.012194815594
 30
0.0
 40
0.0
 41
0.0
  0
VERTEX
  5
   28C
  8
0
  6
CONTINUOUS
 10
-62.6827614272855
 20
251.95567065395
 30
0.0
 40
0.0
 41
0.0
  0
VERTEX
  5
   28D
  8
0
  6
CONTINUOUS
 10
-62.8375373459698
 20
251.895276497713
 30
0.0
 40
0.0
 41
0.0
  0
VERTEX
  5
   28E
  8
0
  6
CONTINUOUS
 10
-62.9862000287027
 20
251.831157841697
 30
0.0
 40
0.0
 41
0.0
  0
VERTEX
  5
   28F
  8
0
  6
CONTINUOUS
 10
-63.1283913340602
 20
251.763469153359
 30
0.0
 40
0.0
 41
0.0
  0
VERTEX
  5
   290
  8
0
  6
CONTINUOUS
 10
-63.2637687107331
 20
251.69237350068
 30
0.0
 40
0.0
 41
0.0
  0
VERTEX
  5
   291
  8
0
  6
CONTINUOUS
 10
-63.3920060227635
 20
251.618042159312
 30
0.0
 40
0.0
 41
0.0
  0
VERTEX
  5
   292
  8
0
  6
CONTINUOUS
 10
-63.5127943352343
 20
251.540654199969
 30
0.0
 40
0.0
 41
0.0
  0
VERTEX
  5
   293
  8
0
  6
CONTINUOUS
 10
-63.6258426585211
 20
251.460396057023
 30
0.0
 40
0.0
 41
0.0
  0
VERTEX
  5
   294
  8
0
  6
CONTINUOUS
 10
-63.7308786493111
 20
251.37746107937
 30
0.0
 40
0.0
 41
0.0
  0
VERTEX
  5
   295
  8
0
  6
CONTINUOUS
 10
-63.8276492667025
 20
251.292049064635
 30
0.0
 40
0.0
 41
0.0
  0
VERTEX
  5
   296
  8
0
  6
CONTINUOUS
 10
-63.9159213818019
 20
251.204365777843
 30
0.0
 40
0.0
 41
0.0
  0
VERTEX
  5
   297
  8
0
  6
CONTINUOUS
 10
-63.9954823393523
 20
251.114622455712
 30
0.0
 40
0.0
 41
0.0
  0
VERTEX
  5
   298
  8
0
  6
CONTINUOUS
 10
-64.0319354046456
 20
251.069045664051
 30
0.0
 40
0.0
 41
0.0
  0
VERTEX
  5
   299
  8
0
  6
CONTINUOUS
 10
-64.0661404700382
 20
251.023035297766
 30
0.0
 40
0.0
 41
0.0
  0
VERTEX
  5
   29A
  8
0
  6
CONTINUOUS
 10
-64.0980769316777
 20
250.976619071779
 30
0.0
 40
0.0
 41
0.0
  0
VERTEX
  5
   29B
  8
0
  6
CONTINUOUS
 10
-64.1277255522339
 20
250.92982494549
 30
0.0
 40
0.0
 41
0.0
  0
VERTEX
  5
   29C
  8
0
  6
CONTINUOUS
 10
-64.1550684724862
 20
250.882681105931
 30
0.0
 40
0.0
 41
0.0
  0
VERTEX
  5
   29D
  8
0
  6
CONTINUOUS
 10
-64.1800892220821
 20
250.835215950787
 30
0.0
 40
0.0
 41
0.0
  0
VERTEX
  5
   29E
  8
0
  6
CONTINUOUS
 10
-64.2027727294575
 20
250.787458071294
 30
0.0
 40
0.0
 41
0.0
  0
VERTEX
  5
   29F
  8
0
  6
CONTINUOUS
 10
-64.2231053309157
 20
250.739436235013
 30
0.0
 40
0.0
 41
0.0
  0
VERTEX
  5
   2A0
  8
0
  6
CONTINUOUS
 10
-64.241074778858
 20
250.691179368501
 30
0.0
 40
0.0
 41
0.0
  0
VERTEX
  5
   2A1
  8
0
  6
CONTINUOUS
 10
-64.2566702491608
 20
250.642716539891
 30
0.0
 40
0.0
 41
0.0
  0
VERTEX
  5
   2A2
  8
0
  6
CONTINUOUS
 10
-64.2698823476959
 20
250.594076941378
 30
0.0
 40
0.0
 41
0.0
  0
VERTEX
  5
   2A3
  8
0
  6
CONTINUOUS
 10
-64.2807031159892
 20
250.545289871639
 30
0.0
 40
0.0
 41
0.0
  0
VERTEX
  5
   2A4
  8
0
  6
CONTINUOUS
 10
-64.2891260360146
 20
250.496384718179
 30
0.0
 40
0.0
 41
0.0
  0
VERTEX
  5
   2A5
  8
0
  6
CONTINUOUS
 10
-64.2951460341199
 20
250.447390939635
 30
0.0
 40
0.0
 41
0.0
  0
VERTEX
  5
   2A6
  8
0
  6
CONTINUOUS
 10
-64.2987594840834
 20
250.398338048025
 30
0.0
 40
0.0
 41
0.0
  0
VERTEX
  5
   2A7
  8
0
  6
CONTINUOUS
 10
-64.299964209298
 20
250.34925559098
 30
0.0
 40
0.0
 41
0.0
  0
SEQEND
  5
   2A8
  8
0
  6
CONTINUOUS
 62
   218
  0
INSERT
  5
   2A9
  8
0
  6
CONTINUOUS
 62
   218
  2
*HATCH1034
 10
0.0
 20
0.0
 30
0.0
  0
LINE
  5
   2AA
  8
0
  6
CONTINUOUS
 62
   218
 10
-62.878366952658
 20
208.737096448576
 30
0.0
 11
-58.8228463963633
 21
231.737096448576
 31
0.0
  0
LINE
  5
   2AB
  8
0
  6
CONTINUOUS
 62
   218
 10
-61.456769696018
 20
208.737096448575
 30
0.0
 11
-58.099964209298
 21
227.774486377403
 31
0.0
  0
LINE
  5
   2AC
  8
0
  6
CONTINUOUS
 62
   218
 10
-60.035172439378
 20
208.737096448575
 30
0.0
 11
-58.099964209298
 21
219.712207701002
 31
0.0
  0
LINE
  5
   2AD
  8
0
  6
CONTINUOUS
 62
   218
 10
-58.613575182738
 20
208.737096448575
 30
0.0
 11
-58.0999642092981
 21
211.649929024601
 31
0.0
  0
LINE
  5
   2AE
  8
0
  6
CONTINUOUS
 62
   218
 10
-65.7215614659381
 20
208.737096448575
 30
0.0
 11
-61.6660409096434
 21
231.737096448576
 31
0.0
  0
LINE
  5
   2AF
  8
0
  6
CONTINUOUS
 62
   218
 10
-67.1431587225781
 20
208.737096448575
 30
0.0
 11
-63.0876381662835
 21
231.737096448575
 31
0.0
  0
LINE
  5
   2B0
  8
0
  6
CONTINUOUS
 62
   218
 10
-68.5647559792182
 20
208.737096448576
 30
0.0
 11
-64.5092354229235
 21
231.737096448576
 31
0.0
  0
LINE
  5
   2B1
  8
0
  6
CONTINUOUS
 62
   218
 10
-69.9863532358582
 20
208.737096448575
 30
0.0
 11
-65.9308326795636
 21
231.737096448575
 31
0.0
  0
LINE
  5
   2B2
  8
0
  6
CONTINUOUS
 62
   218
 10
-70.499964209298
 20
213.886542548952
 30
0.0
 11
-67.3524299362037
 21
231.737096448576
 31
0.0
  0
LINE
  5
   2B3
  8
0
  6
CONTINUOUS
 62
   218
 10
-70.4999642092981
 20
221.948821225353
 30
0.0
 11
-68.7740271928438
 21
231.737096448575
 31
0.0
  0
LINE
  5
   2B4
  8
0
  6
CONTINUOUS
 62
   218
 10
-70.499964209298
 20
230.011099901754
 30
0.0
 11
-70.1956244494838
 21
231.737096448575
 31
0.0
  0
ENDBLK
  5
   2B5
  8
0
  6
CONTINUOUS
 62
     7
  0
BLOCK
  5
   2B6
  8
0
  6
CONTINUOUS
 62
     7
  2
*UDIM1446
 70
    65
 10
0.0
 20
0.0
 30
0.0
  3
*UDIM1446
  0
TEXT
  5
   2B7
  8
0
  6
CONTINUOUS
 62
     7
 10
-435.806524690352
 20
90.1755256675381
 30
0.0
 40
3.00000002980232
  1
25
 50
359.999999948034
 41
0.933333333333333
 72
     1
 11
-433.306524664164
 21
91.6755256801844
 31
0.0
 73
     2
  0
LINE
  5
   2B8
  8
0
  6
CONTINUOUS
 62
     7
 10
-426.781524658203
 20
71.9420433156631
 30
0.0
 11
-426.781524658203
 21
91.1755256652832
 31
0.0
  0
LINE
  5
   2B9
  8
0
  6
CONTINUOUS
 62
     7
 10
-439.281524658203
 20
75.6902326798505
 30
0.0
 11
-439.281524658203
 21
91.1755256652832
 31
0.0
  0
LINE
  5
   2BA
  8
0
  6
CONTINUOUS
 62
     7
 10
-426.781524658203
 20
89.1755256652832
 30
0.0
 11
-439.281524658203
 21
89.1755256652832
 31
0.0
  0
LINE
  5
   2BB
  8
0
  6
CONTINUOUS
 62
     7
 10
-429.73594793541
 20
88.6545812353315
 30
0.0
 11
-426.781524658203
 21
89.1755256652832
 31
0.0
  0
LINE
  5
   2BC
  8
0
  6
CONTINUOUS
 62
     7
 10
-426.781524658203
 20
89.1755256652832
 30
0.0
 11
-429.73594793541
 21
89.6964700952349
 31
0.0
  0
LINE
  5
   2BD
  8
0
  6
CONTINUOUS
 62
     7
 10
-436.327101380996
 20
89.6964700952349
 30
0.0
 11
-439.281524658203
 21
89.1755256652832
 31
0.0
  0
LINE
  5
   2BE
  8
0
  6
CONTINUOUS
 62
     7
 10
-439.281524658203
 20
89.1755256652832
 30
0.0
 11
-436.327101380996
 21
88.6545812353315
 31
0.0
  0
ENDBLK
  5
   2BF
  8
0
  6
CONTINUOUS
 62
     7
  0
BLOCK
  5
   2C0
  8
0
  6
CONTINUOUS
 62
     7
  2
*UDIM1447
 70
    65
 10
0.0
 20
0.0
 30
0.0
  3
*UDIM1447
  0
TEXT
  5
   2C1
  8
0
  6
CONTINUOUS
 62
     7
 10
-469.23417664181
 20
38.2795432417855
 30
0.0
 40
3.00000002980232
  1
73,75
 50
89.9999999480344
 41
0.933333333333333
 72
     1
 11
-470.734176650643
 21
44.9795433097026
 31
0.0
 73
     2
  0
LINE
  5
   2C2
  8
0
  6
CONTINUOUS
 62
     7
 10
-454.363893951276
 20
26.817043315663
 30
0.0
 11
-470.234176635742
 21
26.817043315663
 31
0.0
  0
LINE
  5
   2C3
  8
0
  6
CONTINUOUS
 62
     7
 10
-432.945038771187
 20
63.692043315663
 30
0.0
 11
-470.234176635742
 21
63.692043315663
 31
0.0
  0
LINE
  5
   2C4
  8
0
  6
CONTINUOUS
 62
     7
 10
-468.234176635742
 20
26.817043315663
 30
0.0
 11
-468.234176635742
 21
63.692043315663
 31
0.0
  0
LINE
  5
   2C5
  8
0
  6
CONTINUOUS
 62
     7
 10
-468.755121065694
 20
29.77146659287
 30
0.0
 11
-468.234176635742
 21
26.817043315663
 31
0.0
  0
LINE
  5
   2C6
  8
0
  6
CONTINUOUS
 62
     7
 10
-468.234176635742
 20
26.817043315663
 30
0.0
 11
-467.713232205791
 21
29.77146659287
 31
0.0
  0
LINE
  5
   2C7
  8
0
  6
CONTINUOUS
 62
     7
 10
-467.713232205791
 20
60.7376200384561
 30
0.0
 11
-468.234176635742
 21
63.692043315663
 31
0.0
  0
LINE
  5
   2C8
  8
0
  6
CONTINUOUS
 62
     7
 10
-468.234176635742
 20
63.692043315663
 30
0.0
 11
-468.755121065694
 21
60.7376200384561
 31
0.0
  0
ENDBLK
  5
   2C9
  8
0
  6
CONTINUOUS
 62
     7
  0
BLOCK
  5
   2CA
  8
0
  6
CONTINUOUS
 62
     7
  2
*UDIM1448
 70
    65
 10
0.0
 20
0.0
 30
0.0
  3
*UDIM1448
  0
TEXT
  5
   2CB
  8
0
  6
CONTINUOUS
 62
     7
 10
-381.781529534223
 20
-63.9223480214688
 30
0.0
 40
3.00000002980232
  1
2
 50
359.999999948034
 41
0.933333333333334
 72
     1
 11
-380.681529521942
 21
-62.4223480075598
 31
0.0
 73
     2
  0
LINE
  5
   2CC
  8
0
  6
CONTINUOUS
 62
     7
 10
-384.781529426575
 20
-34.4156466195241
 30
0.0
 11
-384.781529426575
 21
-66.9223480224609
 31
0.0
  0
LINE
  5
   2CD
  8
0
  6
CONTINUOUS
 62
     7
 10
-385.781529426575
 20
-33.8165408073036
 30
0.0
 11
-385.781529426575
 21
-66.9223480224609
 31
0.0
  0
LINE
  5
   2CE
  8
0
  6
CONTINUOUS
 62
     7
 10
-379.581529511015
 20
-64.9223480224609
 30
0.0
 11
-385.781529426575
 21
-64.9223480224609
 31
0.0
  0
LINE
  5
   2CF
  8
0
  6
CONTINUOUS
 62
     7
 10
-381.827106149368
 20
-64.4014035925093
 30
0.0
 11
-384.781529426575
 21
-64.9223480224609
 31
0.0
  0
LINE
  5
   2D0
  8
0
  6
CONTINUOUS
 62
     7
 10
-384.781529426575
 20
-64.9223480224609
 30
0.0
 11
-381.827106149368
 21
-65.4432924524126
 31
0.0
  0
LINE
  5
   2D1
  8
0
  6
CONTINUOUS
 62
     7
 10
-388.735952703782
 20
-65.4432924524126
 30
0.0
 11
-385.781529426575
 21
-64.9223480224609
 31
0.0
  0
LINE
  5
   2D2
  8
0
  6
CONTINUOUS
 62
     7
 10
-385.781529426575
 20
-64.9223480224609
 30
0.0
 11
-388.735952703782
 21
-64.4014035925093
 31
0.0
  0
ENDBLK
  5
   2D3
  8
0
  6
CONTINUOUS
 62
     7
  0
BLOCK
  5
   2D4
  8
0
  6
CONTINUOUS
 62
     7
  2
*UDIM1449
 70
    65
 10
0.0
 20
0.0
 30
0.0
  3
*UDIM1449
  0
TEXT
  5
   2D5
  8
0
  6
CONTINUOUS
 62
     7
 10
-416.706526611608
 20
-63.9223480189434
 30
0.0
 40
3.00000002980232
  1
107
 50
359.999999948034
 41
0.933333333333333
 72
     1
 11
-412.806526571512
 21
-62.4223480075598
 31
0.0
 73
     2
  0
LINE
  5
   2D6
  8
0
  6
CONTINUOUS
 62
     7
 10
-439.281524658203
 20
-14.657956684337
 30
0.0
 11
-439.281524658203
 21
-66.9223480224609
 31
0.0
  0
LINE
  5
   2D7
  8
0
  6
CONTINUOUS
 62
     7
 10
-385.781529426575
 20
-64.9223480224609
 30
0.0
 11
-439.281524658203
 21
-64.9223480224609
 31
0.0
  0
LINE
  5
   2D8
  8
0
  6
CONTINUOUS
 62
     7
 10
-388.735952703782
 20
-65.4432924524126
 30
0.0
 11
-385.781529426575
 21
-64.9223480224609
 31
0.0
  0
LINE
  5
   2D9
  8
0
  6
CONTINUOUS
 62
     7
 10
-385.781529426575
 20
-64.9223480224609
 30
0.0
 11
-388.735952703782
 21
-64.4014035925093
 31
0.0
  0
LINE
  5
   2DA
  8
0
  6
CONTINUOUS
 62
     7
 10
-436.327101380996
 20
-64.4014035925093
 30
0.0
 11
-439.281524658203
 21
-64.9223480224609
 31
0.0
  0
LINE
  5
   2DB
  8
0
  6
CONTINUOUS
 62
     7
 10
-439.281524658203
 20
-64.9223480224609
 30
0.0
 11
-436.327101380996
 21
-65.4432924524126
 31
0.0
  0
ENDBLK
  5
   2DC
  8
0
  6
CONTINUOUS
 62
     7
  0
BLOCK
  5
   2DD
  8
0
  6
CONTINUOUS
 62
     7
  2
*UDIM1450
 70
    65
 10
0.0
 20
0.0
 30
0.0
  3
*UDIM1450
  0
TEXT
  5
   2DE
  8
0
  6
CONTINUOUS
 62
     7
 10
-409.695259888719
 20
-71.5420494044414
 30
0.0
 40
3.00000002980232
  1
135
 50
359.999999948034
 41
0.933333333333333
 72
     1
 11
-405.795259848623
 21
-70.0420493930578
 31
0.0
 73
     2
  0
LINE
  5
   2DF
  8
0
  6
CONTINUOUS
 62
     7
 10
-371.758990914402
 20
20.692043315663
 30
0.0
 11
-371.758990914402
 21
-74.542049407959
 31
0.0
  0
LINE
  5
   2E0
  8
0
  6
CONTINUOUS
 62
     7
 10
-439.281524658203
 20
-14.657956684337
 30
0.0
 11
-439.281524658203
 21
-74.542049407959
 31
0.0
  0
LINE
  5
   2E1
  8
0
  6
CONTINUOUS
 62
     7
 10
-371.758990914402
 20
-72.542049407959
 30
0.0
 11
-439.281524658203
 21
-72.542049407959
 31
0.0
  0
LINE
  5
   2E2
  8
0
  6
CONTINUOUS
 62
     7
 10
-374.713414191609
 20
-73.0629938379107
 30
0.0
 11
-371.758990914402
 21
-72.542049407959
 31
0.0
  0
LINE
  5
   2E3
  8
0
  6
CONTINUOUS
 62
     7
 10
-371.758990914402
 20
-72.542049407959
 30
0.0
 11
-374.713414191609
 21
-72.0211049780073
 31
0.0
  0
LINE
  5
   2E4
  8
0
  6
CONTINUOUS
 62
     7
 10
-436.327101380996
 20
-72.0211049780073
 30
0.0
 11
-439.281524658203
 21
-72.542049407959
 31
0.0
  0
LINE
  5
   2E5
  8
0
  6
CONTINUOUS
 62
     7
 10
-439.281524658203
 20
-72.542049407959
 30
0.0
 11
-436.327101380996
 21
-73.0629938379107
 31
0.0
  0
ENDBLK
  5
   2E6
  8
0
  6
CONTINUOUS
 62
     7
  0
BLOCK
  5
   2E7
  8
0
  6
CONTINUOUS
 62
     7
  2
*UDIM1451
 70
    65
 10
0.0
 20
0.0
 30
0.0
  3
*UDIM1451
  0
TEXT
  5
   2E8
  8
0
  6
CONTINUOUS
 62
     7
 10
-420.381196667587
 20
-56.9308700501093
 30
0.0
 40
3.00000002980232
  1
103,5
 50
359.999999948034
 41
0.933333333333333
 72
     1
 11
-413.681196599675
 21
-55.4308700412512
 31
0.0
 73
     2
  0
LINE
  5
   2E9
  8
0
  6
CONTINUOUS
 62
     7
 10
-387.530869781474
 20
-0.432956682509413
 30
0.0
 11
-387.530888458849
 21
-59.9308700561522
 31
0.0
  0
LINE
  5
   2EA
  8
0
  6
CONTINUOUS
 62
     7
 10
-439.28152497212
 20
-14.6579566843369
 30
0.0
 11
-439.281539184033
 21
-59.9308700561522
 31
0.0
  0
LINE
  5
   2EB
  8
0
  6
CONTINUOUS
 62
     7
 10
-387.530887831016
 20
-57.9308700561523
 30
0.0
 11
-439.2815385562
 21
-57.9308700561523
 31
0.0
  0
LINE
  5
   2EC
  8
0
  6
CONTINUOUS
 62
     7
 10
-390.485311108223
 20
-58.451814486104
 30
0.0
 11
-387.530887831016
 21
-57.9308700561523
 31
0.0
  0
LINE
  5
   2ED
  8
0
  6
CONTINUOUS
 62
     7
 10
-387.530887831016
 20
-57.9308700561523
 30
0.0
 11
-390.485311108223
 21
-57.4099256262007
 31
0.0
  0
LINE
  5
   2EE
  8
0
  6
CONTINUOUS
 62
     7
 10
-436.327115278993
 20
-57.4099256262007
 30
0.0
 11
-439.2815385562
 21
-57.9308700561523
 31
0.0
  0
LINE
  5
   2EF
  8
0
  6
CONTINUOUS
 62
     7
 10
-439.2815385562
 20
-57.9308700561523
 30
0.0
 11
-436.327115278993
 21
-58.451814486104
 31
0.0
  0
ENDBLK
  5
   2F0
  8
0
  6
CONTINUOUS
 62
     7
  0
BLOCK
  5
   2F1
  8
0
  6
CONTINUOUS
 62
     7
  2
*UDIM1452
 70
    65
 10
0.0
 20
0.0
 30
0.0
  3
*UDIM1452
  0
TEXT
  5
   2F2
  8
0
  6
CONTINUOUS
 62
     7
 10
-446.53152483557
 20
-56.9308700551602
 30
0.0
 40
3.00000002980232
  1
3
 50
359.999999948034
 41
0.933333333333334
 72
     1
 11
-445.43152482329
 21
-55.4308700412512
 31
0.0
 73
     2
  0
TEXT
  5
   2F3
  8
0
  6
CONTINUOUS
 62
     7
 10
-449.281524869346
 20
-56.9308700551602
 30
0.0
 40
3.00000002980232
  1
_
 50
359.999999948034
 41
0.933333333333334
 72
     1
 11
-448.181524857066
 21
-55.4308700412512
 31
0.0
 73
     2
  0
LINE
  5
   2F4
  8
0
  6
CONTINUOUS
 62
     7
 10
-440.78152497212
 20
-14.6579566843369
 30
0.0
 11
-440.781539184033
 21
-59.9308700561522
 31
0.0
  0
LINE
  5
   2F5
  8
0
  6
CONTINUOUS
 62
     7
 10
-439.2815385562
 20
-57.9308700561523
 30
0.0
 11
-449.281524867993
 21
-57.9308700561523
 31
0.0
  0
LINE
  5
   2F6
  8
0
  6
CONTINUOUS
 62
     7
 10
-436.327115278993
 20
-57.4099256262007
 30
0.0
 11
-439.2815385562
 21
-57.9308700561523
 31
0.0
  0
LINE
  5
   2F7
  8
0
  6
CONTINUOUS
 62
     7
 10
-439.2815385562
 20
-57.9308700561523
 30
0.0
 11
-436.327115278993
 21
-58.451814486104
 31
0.0
  0
LINE
  5
   2F8
  8
0
  6
CONTINUOUS
 62
     7
 10
-443.735961833407
 20
-58.451814486104
 30
0.0
 11
-440.7815385562
 21
-57.9308700561523
 31
0.0
  0
LINE
  5
   2F9
  8
0
  6
CONTINUOUS
 62
     7
 10
-440.7815385562
 20
-57.9308700561523
 30
0.0
 11
-443.735961833407
 21
-57.4099256262007
 31
0.0
  0
ENDBLK
  5
   2FA
  8
0
  6
CONTINUOUS
 62
     7
  0
BLOCK
  5
   2FB
  8
0
  6
CONTINUOUS
 62
     7
  2
*UDIM1453
 70
    65
 10
0.0
 20
0.0
 30
0.0
  3
*UDIM1453
  0
TEXT
  5
   2FC
  8
0
  6
CONTINUOUS
 62
     7
 10
-476.888648990349
 20
23.767043269601
 30
0.0
 40
3.00000002980232
  1
143
 50
89.9999999480344
 41
0.933333333333333
 72
     1
 11
-478.388649001718
 21
27.6670433097026
 31
0.0
 73
     2
  0
LINE
  5
   2FD
  8
0
  6
CONTINUOUS
 62
     7
 10
-432.945038771187
 20
-7.80795668433695
 30
0.0
 11
-477.888648986816
 21
-7.80795668433695
 31
0.0
  0
LINE
  5
   2FE
  8
0
  6
CONTINUOUS
 62
     7
 10
-432.945038771187
 20
63.692043315663
 30
0.0
 11
-477.888648986816
 21
63.692043315663
 31
0.0
  0
LINE
  5
   2FF
  8
0
  6
CONTINUOUS
 62
     7
 10
-475.888648986816
 20
-7.80795668433695
 30
0.0
 11
-475.888648986816
 21
63.692043315663
 31
0.0
  0
LINE
  5
   300
  8
0
  6
CONTINUOUS
 62
     7
 10
-476.409593416768
 20
-4.85353340712999
 30
0.0
 11
-475.888648986816
 21
-7.80795668433695
 31
0.0
  0
LINE
  5
   301
  8
0
  6
CONTINUOUS
 62
     7
 10
-475.888648986816
 20
-7.80795668433695
 30
0.0
 11
-475.367704556865
 21
-4.85353340712999
 31
0.0
  0
LINE
  5
   302
  8
0
  6
CONTINUOUS
 62
     7
 10
-475.367704556865
 20
60.7376200384561
 30
0.0
 11
-475.888648986816
 21
63.692043315663
 31
0.0
  0
LINE
  5
   303
  8
0
  6
CONTINUOUS
 62
     7
 10
-475.888648986816
 20
63.692043315663
 30
0.0
 11
-476.409593416768
 21
60.7376200384561
 31
0.0
  0
ENDBLK
  5
   304
  8
0
  6
CONTINUOUS
 62
     7
  0
BLOCK
  5
   305
  8
0
  6
CONTINUOUS
 62
     7
  2
*UDIM1454
 70
    65
 10
0.0
 20
0.0
 30
0.0
  3
*UDIM1454
  0
TEXT
  5
   306
  8
0
  6
CONTINUOUS
 62
     7
 10
-362.947528842644
 20
23.5149833038652
 30
0.0
 40
3.00000002980232
  1
105
 50
89.9999999480344
 41
0.933333333333333
 72
     1
 11
-364.447528854013
 21
27.4149833439668
 31
0.0
 73
     2
  0
LINE
  5
   307
  8
0
  6
CONTINUOUS
 62
     7
 10
-384.781529426575
 20
0.567043316843048
 30
0.0
 11
-359.947528839111
 21
0.567043316843048
 31
0.0
  0
LINE
  5
   308
  8
0
  6
CONTINUOUS
 62
     7
 10
-384.781529426575
 20
53.067043315663
 30
0.0
 11
-359.947528839111
 21
53.067043315663
 31
0.0
  0
LINE
  5
   309
  8
0
  6
CONTINUOUS
 62
     7
 10
-361.947528839111
 20
0.567043316843048
 30
0.0
 11
-361.947528839111
 21
53.067043315663
 31
0.0
  0
LINE
  5
   30A
  8
0
  6
CONTINUOUS
 62
     7
 10
-362.468473269063
 20
3.52146659405001
 30
0.0
 11
-361.947528839111
 21
0.567043316843048
 31
0.0
  0
LINE
  5
   30B
  8
0
  6
CONTINUOUS
 62
     7
 10
-361.947528839111
 20
0.567043316843048
 30
0.0
 11
-361.42658440916
 21
3.52146659405001
 31
0.0
  0
LINE
  5
   30C
  8
0
  6
CONTINUOUS
 62
     7
 10
-361.42658440916
 20
50.1126200384561
 30
0.0
 11
-361.947528839111
 21
53.067043315663
 31
0.0
  0
LINE
  5
   30D
  8
0
  6
CONTINUOUS
 62
     7
 10
-361.947528839111
 20
53.067043315663
 30
0.0
 11
-362.468473269063
 21
50.1126200384561
 31
0.0
  0
ENDBLK
  5
   30E
  8
0
  6
CONTINUOUS
 62
     7
  0
BLOCK
  5
   30F
  8
0
  6
CONTINUOUS
 62
     7
  2
*UDIM1455
 70
    65
 10
0.0
 20
0.0
 30
0.0
  3
*UDIM1455
  0
TEXT
  5
   310
  8
0
  6
CONTINUOUS
 62
     7
 10
-420.881524730722
 20
96.9424018920294
 30
0.0
 40
3.00000002980232
  1
101,5
 50
359.999999948034
 41
0.933333333333333
 72
     1
 11
-414.181524662811
 21
98.4424019008875
 31
0.0
 73
     2
  0
LINE
  5
   311
  8
0
  6
CONTINUOUS
 62
     7
 10
-388.531524776726
 20
59.317043315663
 30
0.0
 11
-388.531510959726
 21
97.9424018859862
 31
0.0
  0
LINE
  5
   312
  8
0
  6
CONTINUOUS
 62
     7
 10
-439.281523039293
 20
75.6902326798492
 30
0.0
 11
-439.281487015024
 21
97.9424018859837
 31
0.0
  0
LINE
  5
   313
  8
0
  6
CONTINUOUS
 62
     7
 10
-388.531511675163
 20
95.9424018859863
 30
0.0
 11
-439.281490252845
 21
95.9424018859863
 31
0.0
  0
LINE
  5
   314
  8
0
  6
CONTINUOUS
 62
     7
 10
-391.48593495237
 20
95.4214574560347
 30
0.0
 11
-388.531511675163
 21
95.9424018859863
 31
0.0
  0
LINE
  5
   315
  8
0
  6
CONTINUOUS
 62
     7
 10
-388.531511675163
 20
95.9424018859863
 30
0.0
 11
-391.48593495237
 21
96.463346315938
 31
0.0
  0
LINE
  5
   316
  8
0
  6
CONTINUOUS
 62
     7
 10
-436.327066975638
 20
96.463346315938
 30
0.0
 11
-439.281490252845
 21
95.9424018859863
 31
0.0
  0
LINE
  5
   317
  8
0
  6
CONTINUOUS
 62
     7
 10
-439.281490252845
 20
95.9424018859863
 30
0.0
 11
-436.327066975638
 21
95.4214574560347
 31
0.0
  0
ENDBLK
  5
   318
  8
0
  6
CONTINUOUS
 62
     7
  0
BLOCK
  5
   319
  8
0
  6
CONTINUOUS
 62
     7
  2
*UDIM1456
 70
    65
 10
0.0
 20
0.0
 30
0.0
  3
*UDIM1456
  0
TEXT
  5
   31A
  8
0
  6
CONTINUOUS
 62
     7
 10
-374.419059755682
 20
58.5693946554527
 30
0.0
 40
3.00000002980232
  1
10
 50
89.9999999480344
 41
0.933333333333333
 72
     1
 11
-375.919059768319
 21
61.0693946816465
 31
0.0
 73
     2
  0
LINE
  5
   31B
  8
0
  6
CONTINUOUS
 62
     7
 10
-419.831878417003
 20
58.692043315663
 30
0.0
 11
-371.419059753418
 21
58.692043315663
 31
0.0
  0
LINE
  5
   31C
  8
0
  6
CONTINUOUS
 62
     7
 10
-422.615215206889
 20
63.692043315663
 30
0.0
 11
-371.419059753418
 21
63.692043315663
 31
0.0
  0
LINE
  5
   31D
  8
0
  6
CONTINUOUS
 62
     7
 10
-373.419059753418
 20
58.5693946568113
 30
0.0
 11
-373.419059753418
 21
63.692043315663
 31
0.0
  0
LINE
  5
   31E
  8
0
  6
CONTINUOUS
 62
     7
 10
-372.898115323466
 20
55.7376200384561
 30
0.0
 11
-373.419059753418
 21
58.692043315663
 31
0.0
  0
LINE
  5
   31F
  8
0
  6
CONTINUOUS
 62
     7
 10
-373.419059753418
 20
58.692043315663
 30
0.0
 11
-373.94000418337
 21
55.7376200384561
 31
0.0
  0
LINE
  5
   320
  8
0
  6
CONTINUOUS
 62
     7
 10
-373.94000418337
 20
66.64646659287
 30
0.0
 11
-373.419059753418
 21
63.692043315663
 31
0.0
  0
LINE
  5
   321
  8
0
  6
CONTINUOUS
 62
     7
 10
-373.419059753418
 20
63.692043315663
 30
0.0
 11
-372.898115323466
 21
66.64646659287
 31
0.0
  0
ENDBLK
  5
   322
  8
0
  6
CONTINUOUS
 62
     7
  0
BLOCK
  5
   323
  8
0
  6
CONTINUOUS
 62
     7
  2
*UDIM1457
 70
    65
 10
0.0
 20
0.0
 30
0.0
  3
*UDIM1457
  0
TEXT
  5
   324
  8
0
  6
CONTINUOUS
 62
     7
 10
-460.913299562811
 20
-30.5228908638889
 30
0.0
 40
3.00000002980232
  1
16
 50
89.9999999480344
 41
0.933333333333333
 72
     1
 11
-462.413299575448
 21
-28.0228908376951
 31
0.0
 73
     2
  0
TEXT
  5
   325
  8
0
  6
CONTINUOUS
 62
     7
 10
-460.913299561543
 20
-33.672890873823
 30
0.0
 40
3.00000002980232
  1
Ø
 50
89.9999999480344
 41
0.933333333333334
 72
     1
 11
-462.413299575448
 21
-32.572890861537
 31
0.0
 73
     2
  0
LINE
  5
   326
  8
0
  6
CONTINUOUS
 62
     7
 10
-430.28152513504
 20
-22.557956684337
 30
0.0
 11
-461.913299560547
 21
-22.557956684337
 31
0.0
  0
LINE
  5
   327
  8
0
  6
CONTINUOUS
 62
     7
 10
-431.78152513504
 20
-14.557956684337
 30
0.0
 11
-461.913299560547
 21
-14.557956684337
 31
0.0
  0
LINE
  5
   328
  8
0
  6
CONTINUOUS
 62
     7
 10
-459.913299560547
 20
-33.6728908724645
 30
0.0
 11
-459.913299560547
 21
-14.557956684337
 31
0.0
  0
LINE
  5
   329
  8
0
  6
CONTINUOUS
 62
     7
 10
-460.434243990499
 20
-19.60353340713
 30
0.0
 11
-459.913299560547
 21
-22.557956684337
 31
0.0
  0
LINE
  5
   32A
  8
0
  6
CONTINUOUS
 62
     7
 10
-459.913299560547
 20
-22.557956684337
 30
0.0
 11
-459.392355130595
 21
-19.60353340713
 31
0.0
  0
LINE
  5
   32B
  8
0
  6
CONTINUOUS
 62
     7
 10
-459.392355130595
 20
-17.5123799615439
 30
0.0
 11
-459.913299560547
 21
-14.557956684337
 31
0.0
  0
LINE
  5
   32C
  8
0
  6
CONTINUOUS
 62
     7
 10
-459.913299560547
 20
-14.557956684337
 30
0.0
 11
-460.434243990499
 21
-17.5123799615439
 31
0.0
  0
ENDBLK
  5
   32D
  8
0
  6
CONTINUOUS
 62
     7
  0
BLOCK
  5
   32E
  8
0
  6
CONTINUOUS
 62
     7
  2
*UDIM1458
 70
    65
 10
0.0
 20
0.0
 30
0.0
  3
*UDIM1458
  0
TEXT
  5
   32F
  8
0
  6
CONTINUOUS
 62
     7
 10
-470.706031804117
 20
-28.6329563568766
 30
0.0
 40
3.00000002980232
  1
13,5
 50
89.9999999480344
 41
0.933333333333333
 72
     1
 11
-472.206031814218
 21
-23.3329563028672
 31
0.0
 73
     2
  0
LINE
  5
   330
  8
0
  6
CONTINUOUS
 62
     7
 10
-431.78152513504
 20
-14.557956684337
 30
0.0
 11
-471.706031799317
 21
-14.557956684337
 31
0.0
  0
LINE
  5
   331
  8
0
  6
CONTINUOUS
 62
     7
 10
-432.945038771187
 20
-7.80795668433695
 30
0.0
 11
-471.706031799317
 21
-7.80795668433695
 31
0.0
  0
LINE
  5
   332
  8
0
  6
CONTINUOUS
 62
     7
 10
-469.706031799316
 20
-28.632956355518
 30
0.0
 11
-469.706031799316
 21
-7.80795668433695
 31
0.0
  0
LINE
  5
   333
  8
0
  6
CONTINUOUS
 62
     7
 10
-469.185087369365
 20
-17.5123799615439
 30
0.0
 11
-469.706031799316
 21
-14.557956684337
 31
0.0
  0
LINE
  5
   334
  8
0
  6
CONTINUOUS
 62
     7
 10
-469.706031799316
 20
-14.557956684337
 30
0.0
 11
-470.226976229268
 21
-17.5123799615439
 31
0.0
  0
LINE
  5
   335
  8
0
  6
CONTINUOUS
 62
     7
 10
-470.226976229268
 20
-4.85353340712999
 30
0.0
 11
-469.706031799316
 21
-7.80795668433695
 31
0.0
  0
LINE
  5
   336
  8
0
  6
CONTINUOUS
 62
     7
 10
-469.706031799316
 20
-7.80795668433695
 30
0.0
 11
-469.185087369365
 21
-4.85353340712999
 31
0.0
  0
ENDBLK
  5
   337
  8
0
  6
CONTINUOUS
 62
     7
  0
BLOCK
  5
   338
  8
0
  6
CONTINUOUS
 62
     7
  2
*UDIM1459
 70
    65
 10
0.0
 20
0.0
 30
0.0
  3
*UDIM1459
  0
TEXT
  5
   339
  8
0
  6
CONTINUOUS
 62
     7
 10
-420.431523963175
 20
90.0926933349005
 30
0.0
 40
3.00000002980232
  1
18x18
 50
359.999999948034
 41
0.933333333333333
 72
     1
 11
-413.731523895264
 21
91.5926933437586
 31
0.0
 73
     2
  0
LINE
  5
   33A
  8
0
  6
CONTINUOUS
 62
     7
 10
-420.581524658203
 20
71.9420433156631
 30
0.0
 11
-420.581524658203
 21
91.0926933288574
 31
0.0
  0
LINE
  5
   33B
  8
0
  6
CONTINUOUS
 62
     7
 10
-426.781524658203
 20
71.9420433156631
 30
0.0
 11
-426.781524658203
 21
91.0926933288574
 31
0.0
  0
LINE
  5
   33C
  8
0
  6
CONTINUOUS
 62
     7
 10
-407.031523828705
 20
89.0926933288574
 30
0.0
 11
-426.781524658203
 21
89.0926933288574
 31
0.0
  0
LINE
  5
   33D
  8
0
  6
CONTINUOUS
 62
     7
 10
-417.627101380996
 20
89.6136377588091
 30
0.0
 11
-420.581524658203
 21
89.0926933288574
 31
0.0
  0
LINE
  5
   33E
  8
0
  6
CONTINUOUS
 62
     7
 10
-420.581524658203
 20
89.0926933288574
 30
0.0
 11
-417.627101380996
 21
88.5717488989058
 31
0.0
  0
LINE
  5
   33F
  8
0
  6
CONTINUOUS
 62
     7
 10
-429.73594793541
 20
88.5717488989058
 30
0.0
 11
-426.781524658203
 21
89.0926933288574
 31
0.0
  0
LINE
  5
   340
  8
0
  6
CONTINUOUS
 62
     7
 10
-426.781524658203
 20
89.0926933288574
 30
0.0
 11
-429.73594793541
 21
89.6136377588091
 31
0.0
  0
ENDBLK
  5
   341
  8
0
  6
CONTINUOUS
 62
     7
  0
BLOCK
  5
   342
  8
0
  6
CONTINUOUS
 62
     7
  2
*UDIM1460
 70
    65
 10
0.0
 20
0.0
 30
0.0
  3
*UDIM1460
  0
TEXT
  5
   343
  8
0
  6
CONTINUOUS
 62
     7
 10
-459.70795250644
 20
-91.9865845200712
 30
0.0
 40
3.00000002980232
  1
185
 50
449.999999896069
 41
0.933333333333333
 72
     1
 11
-461.207952514291
 21
-88.0865844786167
 31
0.0
 73
     2
  0
LINE
  5
   344
  8
0
  6
CONTINUOUS
 62
     7
 10
-467.794158935547
 20
-64.6865844726563
 30
0.0
 11
-456.70795249939
 21
-64.6865844726563
 31
0.0
  0
LINE
  5
   345
  8
0
  6
CONTINUOUS
 62
     7
 10
-467.794158935547
 20
-110.936584472656
 30
0.0
 11
-456.70795249939
 21
-110.936584472656
 31
0.0
  0
LINE
  5
   346
  8
0
  6
CONTINUOUS
 62
     7
 10
-458.70795249939
 20
-64.6865844726563
 30
0.0
 11
-458.70795249939
 21
-110.936584472656
 31
0.0
  0
LINE
  5
   347
  8
0
  6
CONTINUOUS
 62
     7
 10
-458.187008069438
 20
-67.6410077498632
 30
0.0
 11
-458.70795249939
 21
-64.6865844726563
 31
0.0
  0
LINE
  5
   348
  8
0
  6
CONTINUOUS
 62
     7
 10
-458.70795249939
 20
-64.6865844726563
 30
0.0
 11
-459.228896929341
 21
-67.6410077498632
 31
0.0
  0
LINE
  5
   349
  8
0
  6
CONTINUOUS
 62
     7
 10
-459.228896929341
 20
-107.982161195449
 30
0.0
 11
-458.70795249939
 21
-110.936584472656
 31
0.0
  0
LINE
  5
   34A
  8
0
  6
CONTINUOUS
 62
     7
 10
-458.70795249939
 20
-110.936584472656
 30
0.0
 11
-458.187008069438
 21
-107.982161195449
 31
0.0
  0
ENDBLK
  5
   34B
  8
0
  6
CONTINUOUS
 62
     7
  0
BLOCK
  5
   34C
  8
0
  6
CONTINUOUS
 62
     7
  2
*UDIM1461
 70
    65
 10
0.0
 20
0.0
 30
0.0
  3
*UDIM1461
  0
TEXT
  5
   34D
  8
0
  6
CONTINUOUS
 62
     7
 10
-511.019252789211
 20
-83.5053345478867
 30
0.0
 40
3.00000002980232
  1
94,75
 50
449.999999896069
 41
0.933333333333333
 72
     1
 11
-512.519252792001
 21
-76.8053344786167
 31
0.0
 73
     2
  0
LINE
  5
   34E
  8
0
  6
CONTINUOUS
 62
     7
 10
-505.493862584998
 20
-64.6865844726563
 30
0.0
 11
-512.0192527771
 21
-64.6865844726563
 31
0.0
  0
LINE
  5
   34F
  8
0
  6
CONTINUOUS
 62
     7
 10
-506.073750680561
 20
-88.3740844726563
 30
0.0
 11
-512.0192527771
 21
-88.3740844726563
 31
0.0
  0
LINE
  5
   350
  8
0
  6
CONTINUOUS
 62
     7
 10
-510.0192527771
 20
-64.6865844726563
 30
0.0
 11
-510.0192527771
 21
-88.3740844726563
 31
0.0
  0
LINE
  5
   351
  8
0
  6
CONTINUOUS
 62
     7
 10
-509.498308347148
 20
-67.6410077498632
 30
0.0
 11
-510.0192527771
 21
-64.6865844726563
 31
0.0
  0
LINE
  5
   352
  8
0
  6
CONTINUOUS
 62
     7
 10
-510.0192527771
 20
-64.6865844726563
 30
0.0
 11
-510.540197207051
 21
-67.6410077498632
 31
0.0
  0
LINE
  5
   353
  8
0
  6
CONTINUOUS
 62
     7
 10
-510.540197207051
 20
-85.4196611954493
 30
0.0
 11
-510.0192527771
 21
-88.3740844726563
 31
0.0
  0
LINE
  5
   354
  8
0
  6
CONTINUOUS
 62
     7
 10
-510.0192527771
 20
-88.3740844726563
 30
0.0
 11
-509.498308347148
 21
-85.4196611954493
 31
0.0
  0
ENDBLK
  5
   355
  8
0
  6
CONTINUOUS
 62
     7
  0
BLOCK
  5
   356
  8
0
  6
CONTINUOUS
 62
     7
  2
*UDIM1462
 70
    65
 10
0.0
 20
0.0
 30
0.0
  3
*UDIM1462
  0
TEXT
  5
   357
  8
0
  6
CONTINUOUS
 62
     7
 10
-493.282330459089
 20
-48.3629074026132
 30
0.0
 40
3.00000002980232
  1
105
 50
359.999999896069
 41
0.933333333333333
 72
     1
 11
-489.382330417633
 21
-46.8629073947668
 31
0.0
 73
     2
  0
LINE
  5
   358
  8
0
  6
CONTINUOUS
 62
     7
 10
-473.294158935547
 20
-58.4352329941426
 30
0.0
 11
-473.294158935547
 21
-47.362907409668
 31
0.0
  0
LINE
  5
   359
  8
0
  6
CONTINUOUS
 62
     7
 10
-499.544158935547
 20
-58.2625645725847
 30
0.0
 11
-499.544158935547
 21
-47.362907409668
 31
0.0
  0
LINE
  5
   35A
  8
0
  6
CONTINUOUS
 62
     7
 10
-473.294158935547
 20
-49.362907409668
 30
0.0
 11
-499.544158935547
 21
-49.362907409668
 31
0.0
  0
LINE
  5
   35B
  8
0
  6
CONTINUOUS
 62
     7
 10
-476.248582212754
 20
-49.8838518396196
 30
0.0
 11
-473.294158935547
 21
-49.362907409668
 31
0.0
  0
LINE
  5
   35C
  8
0
  6
CONTINUOUS
 62
     7
 10
-473.294158935547
 20
-49.362907409668
 30
0.0
 11
-476.248582212754
 21
-48.8419629797163
 31
0.0
  0
LINE
  5
   35D
  8
0
  6
CONTINUOUS
 62
     7
 10
-496.58973565834
 20
-48.8419629797163
 30
0.0
 11
-499.544158935547
 21
-49.362907409668
 31
0.0
  0
LINE
  5
   35E
  8
0
  6
CONTINUOUS
 62
     7
 10
-499.544158935547
 20
-49.362907409668
 30
0.0
 11
-496.58973565834
 21
-49.8838518396196
 31
0.0
  0
ENDBLK
  5
   35F
  8
0
  6
CONTINUOUS
 62
     7
  0
BLOCK
  5
   360
  8
0
  6
CONTINUOUS
 62
     7
  2
*UDIM1463
 70
    65
 10
0.0
 20
0.0
 30
0.0
  3
*UDIM1463
  0
TEXT
  5
   361
  8
0
  6
CONTINUOUS
 62
     7
 10
-480.463784632813
 20
-54.6940841629582
 30
0.0
 40
3.00000002980232
  1
35
 50
359.999999896069
 41
0.933333333333333
 72
     1
 11
-477.963784605265
 21
-53.1940841525793
 31
0.0
 73
     2
  0
LINE
  5
   362
  8
0
  6
CONTINUOUS
 62
     7
 10
-473.294158935547
 20
-58.4352329941426
 30
0.0
 11
-473.294158935547
 21
-53.6940841674805
 31
0.0
  0
LINE
  5
   363
  8
0
  6
CONTINUOUS
 62
     7
 10
-482.044158935547
 20
-58.2313409491669
 30
0.0
 11
-482.044158935547
 21
-53.6940841674805
 31
0.0
  0
LINE
  5
   364
  8
0
  6
CONTINUOUS
 62
     7
 10
-473.294158935547
 20
-55.6940841674805
 30
0.0
 11
-482.044158935547
 21
-55.6940841674805
 31
0.0
  0
LINE
  5
   365
  8
0
  6
CONTINUOUS
 62
     7
 10
-470.33973565834
 20
-55.1731397375288
 30
0.0
 11
-473.294158935547
 21
-55.6940841674805
 31
0.0
  0
LINE
  5
   366
  8
0
  6
CONTINUOUS
 62
     7
 10
-473.294158935547
 20
-55.6940841674805
 30
0.0
 11
-470.33973565834
 21
-56.2150285974321
 31
0.0
  0
LINE
  5
   367
  8
0
  6
CONTINUOUS
 62
     7
 10
-484.998582212754
 20
-56.2150285974321
 30
0.0
 11
-482.044158935547
 21
-55.6940841674805
 31
0.0
  0
LINE
  5
   368
  8
0
  6
CONTINUOUS
 62
     7
 10
-482.044158935547
 20
-55.6940841674805
 30
0.0
 11
-484.998582212754
 21
-55.1731397375288
 31
0.0
  0
ENDBLK
  5
   369
  8
0
  6
CONTINUOUS
 62
     7
  0
BLOCK
  5
   36A
  8
0
  6
CONTINUOUS
 62
     7
  2
*UDIM1464
 70
    65
 10
0.0
 20
0.0
 30
0.0
  3
*UDIM1464
  0
TEXT
  5
   36B
  8
0
  6
CONTINUOUS
 62
     7
 10
-463.260858422305
 20
-117.717229186331
 30
0.0
 40
3.00000002980232
  1
15
 50
321.211823876089
 41
0.933333333333333
 72
     1
 11
-460.37252579489
 21
-118.114135727333
 31
0.0
 73
     2
  0
TEXT
  5
   36C
  8
0
  6
CONTINUOUS
 62
     7
 10
-465.404393412259
 20
-115.994511004907
 30
0.0
 40
3.00000002980232
  1
R
 50
321.211823876089
 41
0.933333333333334
 72
     1
 11
-463.607314956591
 21
-115.5143973799
 31
0.0
 73
     2
  0
LINE
  5
   36D
  8
0
  6
CONTINUOUS
 62
     7
 10
-459.989965057776
 20
-121.628911322034
 30
0.0
 11
-482.063165598438
 21
-103.889101081674
 31
0.0
  0
LINE
  5
   36E
  8
0
  6
CONTINUOUS
 62
     7
 10
-473.000374903075
 20
-111.84102704309
 30
0.0
 11
-470.371156714583
 21
-113.285745602984
 31
0.0
  0
LINE
  5
   36F
  8
0
  6
CONTINUOUS
 62
     7
 10
-470.371156714583
 20
-113.285745602984
 30
0.0
 11
-472.34769095326
 21
-111.028908789358
 31
0.0
  0
ENDBLK
  5
   370
  8
0
  6
CONTINUOUS
 62
     7
  0
ENDSEC
  0
SECTION
  2
ENTITIES
  0
LINE
  5
   371
  8
0
  6
DASHDOT
 62
     7
 10
-562.821166992188
 20
-60.7649408026826
 30
0.0
 11
-562.821166992188
 21
-121.48559797794
 31
0.0
  0
LINE
  5
   372
  8
0
  6
DASHDOT
 62
     7
 10
-542.816108213865
 20
-89.9076843261719
 30
0.0
 11
-585.850758737202
 21
-89.9076843261719
 31
0.0
  0
LINE
  5
   373
  8
0
  6
DASHDOT
 62
     7
 10
-558.446166992188
 20
-69.2252936166517
 30
0.0
 11
-558.446166992188
 21
-111.174542985916
 31
0.0
  0
LINE
  5
   374
  8
0
  6
DASHDOT
 62
     7
 10
-575.946166992188
 20
-69.5778083172338
 30
0.0
 11
-575.946166992188
 21
-111.438929011352
 31
0.0
  0
CIRCLE
  5
   375
  8
0
  6
CONTINUOUS
 62
     5
 10
-575.946166992188
 20
-71.9701843261719
 30
0.0
 40
0.6875
  0
CIRCLE
  5
   376
  8
0
  6
CONTINUOUS
 62
     5
 10
-558.446166992188
 20
-71.9701843261719
 30
0.0
 40
0.6875
  0
CIRCLE
  5
   377
  8
0
  6
CONTINUOUS
 62
     5
 10
-558.446166992188
 20
-106.720184326172
 30
0.0
 40
0.6875
  0
CIRCLE
  5
   378
  8
0
  6
CONTINUOUS
 62
     5
 10
-575.946166992188
 20
-106.720184326172
 30
0.0
 40
0.6875
  0
LINE
  5
   379
  8
0
  6
DASHDOT
 62
     5
 10
-558.446166992188
 20
-70.0326843261719
 30
0.0
 11
-558.446166992188
 21
-73.9076843261719
 31
0.0
  0
LINE
  5
   37A
  8
0
  6
DASHDOT
 62
     5
 10
-556.508666992188
 20
-71.9701843261719
 30
0.0
 11
-560.383666992188
 21
-71.9701843261719
 31
0.0
  0
LINE
  5
   37B
  8
0
  6
DASHDOT
 62
     5
 10
-575.946166992188
 20
-70.0326843261719
 30
0.0
 11
-575.946166992188
 21
-73.9076843261719
 31
0.0
  0
LINE
  5
   37C
  8
0
  6
DASHDOT
 62
     5
 10
-574.008666992188
 20
-71.9701843261719
 30
0.0
 11
-577.883666992188
 21
-71.9701843261719
 31
0.0
  0
LINE
  5
   37D
  8
0
  6
DASHDOT
 62
     5
 10
-575.946166992188
 20
-104.782684326172
 30
0.0
 11
-575.946166992188
 21
-108.657684326172
 31
0.0
  0
LINE
  5
   37E
  8
0
  6
DASHDOT
 62
     5
 10
-574.008666992188
 20
-106.720184326172
 30
0.0
 11
-577.883666992188
 21
-106.720184326172
 31
0.0
  0
LINE
  5
   37F
  8
0
  6
DASHDOT
 62
     5
 10
-558.446166992188
 20
-104.782684326172
 30
0.0
 11
-558.446166992188
 21
-108.657684326172
 31
0.0
  0
LINE
  5
   380
  8
0
  6
DASHDOT
 62
     5
 10
-556.508666992188
 20
-106.720184326172
 30
0.0
 11
-560.383666992188
 21
-106.720184326172
 31
0.0
  0
LINE
  5
   381
  8
0
  6
CONTINUOUS
 62
     3
 10
-553.446166992188
 20
-68.5150210273434
 30
0.0
 11
-580.946166992188
 21
-68.5150210273434
 31
0.0
  0
LINE
  5
   382
  8
0
  6
CONTINUOUS
 62
     3
 10
-553.446166992188
 20
-109.782684326172
 30
0.0
 11
-580.946166992188
 21
-109.782684326172
 31
0.0
  0
LINE
  5
   383
  8
0
  6
CONTINUOUS
 62
     3
 10
-580.946166992188
 20
-68.5150210273434
 30
0.0
 11
-580.946166992188
 21
-109.782684326172
 31
0.0
  0
LINE
  5
   384
  8
0
  6
CONTINUOUS
 62
     3
 10
-553.446166992188
 20
-68.5150210273434
 30
0.0
 11
-553.446166992188
 21
-109.782684326172
 31
0.0
  0
CIRCLE
  5
   385
  8
0
  6
CONTINUOUS
 62
     7
 10
-578.330140199143
 20
-70.6513937404211
 30
0.0
 40
0.075
  0
TEXT
  5
   386
  8
0
  6
CONTINUOUS
 62
     7
 10
-563.428173842759
 20
-58.4708862582813
 30
0.0
 40
3.00000002980232
  1
Y
 50
359.999999896069
 41
0.916666604744064
 72
     2
 11
-561.22817397389
 21
-58.4708862622609
 31
0.0
  0
INSERT
  5
   387
  8
0
  6
CONTINUOUS
 62
     7
  2
*UDIM1426
 10
0.0
 20
0.0
 30
0.0
  0
INSERT
  5
   388
  8
0
  6
CONTINUOUS
 62
     7
  2
*UDIM1427
 10
0.0
 20
0.0
 30
0.0
  0
INSERT
  5
   389
  8
0
  6
CONTINUOUS
 62
     7
  2
*UDIM1428
 10
0.0
 20
0.0
 30
0.0
  0
INSERT
  5
   38A
  8
0
  6
CONTINUOUS
 62
     7
  2
*UDIM1429
 10
0.0
 20
0.0
 30
0.0
  0
INSERT
  5
   38B
  8
0
  6
CONTINUOUS
 62
     7
  2
*UDIM1430
 10
0.0
 20
0.0
 30
0.0
  0
TEXT
  5
   38C
  8
0
  6
CONTINUOUS
 62
     7
 10
-563.706715288491
 20
-127.827701596416
 30
0.0
 40
3.00000002980232
  1
Y
 50
359.999999896069
 41
0.916666604744064
 72
     2
 11
-561.506715419622
 21
-127.827701600396
 31
0.0
  0
TEXT
  5
   38D
  8
0
  6
CONTINUOUS
 62
     7
 10
-597.270957949491
 20
-91.338774351276
 30
0.0
 40
3.00000002980232
  1
X
 50
359.999999896069
 41
0.916666604744064
 72
     2
 11
-595.070958080621
 21
-91.3387743552556
 31
0.0
  0
TEXT
  5
   38E
  8
0
  6
CONTINUOUS
 62
     7
 10
-540.309234621854
 20
-91.1995036880145
 30
0.0
 40
3.00000002980232
  1
X
 50
359.999999896069
 41
0.916666604744064
 72
     2
 11
-538.109234752984
 21
-91.1995036919942
 31
0.0
  0
LINE
  5
   38F
  8
0
  6
CONTINUOUS
 62
     7
 10
-517.441240984934
 20
69.0420379638672
 30
0.0
 11
-518.691240984934
 21
69.0420379638672
 31
0.0
  0
LINE
  5
   390
  8
0
  6
CONTINUOUS
 62
     7
 10
-518.691240984934
 20
69.0420379638672
 30
0.0
 11
-518.691240984934
 21
69.9420394897461
 31
0.0
  0
LINE
  5
   391
  8
0
  6
CONTINUOUS
 62
     7
 10
-553.316243872418
 20
70.4420394897461
 30
0.0
 11
-569.066243872418
 21
70.4420394897461
 31
0.0
  0
LINE
  5
   392
  8
0
  6
CONTINUOUS
 62
     7
 10
-535.816208758253
 20
70.4420394897461
 30
0.0
 11
-551.566243872418
 21
70.4420394897461
 31
0.0
  0
LINE
  5
   393
  8
0
  6
CONTINUOUS
 62
     7
 10
-519.191240984934
 20
70.4420394897461
 30
0.0
 11
-534.066208758253
 21
70.4420394897461
 31
0.0
  0
LINE
  5
   394
  8
0
  6
CONTINUOUS
 62
     7
 10
-586.191240984934
 20
69.0420379638672
 30
0.0
 11
-586.191240984934
 21
69.9420394897461
 31
0.0
  0
LINE
  5
   395
  8
0
  6
CONTINUOUS
 62
     7
 10
-586.191240984934
 20
69.0420379638672
 30
0.0
 11
-587.441240984934
 21
69.0420379638672
 31
0.0
  0
LINE
  5
   396
  8
0
  6
CONTINUOUS
 62
     7
 10
-587.441246607002
 20
-13.1579605340957
 30
0.0
 11
-587.441246607002
 21
69.0420379638673
 31
0.0
  0
LINE
  5
   397
  8
0
  6
CONTINUOUS
 62
     7
 10
-586.191240984934
 20
-13.1579605340958
 30
0.0
 11
-587.441240984934
 21
-13.1579605340958
 31
0.0
  0
LINE
  5
   398
  8
0
  6
CONTINUOUS
 62
     7
 10
-586.191240984934
 20
-14.0579605102539
 30
0.0
 11
-586.191240984934
 21
-13.1579605340958
 31
0.0
  0
LINE
  5
   399
  8
0
  6
CONTINUOUS
 62
     7
 10
-551.191243872418
 20
67.1920394897461
 30
0.0
 11
-553.691243872418
 21
67.1920394897461
 31
0.0
  0
LINE
  5
   39A
  8
0
  6
CONTINUOUS
 62
     7
 10
-582.816240984934
 20
58.4420394897461
 30
0.0
 11
-582.816240984934
 21
60.4420394897461
 31
0.0
  0
LINE
  5
   39B
  8
0
  6
CONTINUOUS
 62
     7
 10
-518.691240984934
 20
67.0670433044414
 30
0.0
 11
-518.691240984934
 21
69.0420379638672
 31
0.0
  0
LINE
  5
   39C
  8
0
  6
CONTINUOUS
 62
     7
 10
-584.691240746515
 20
62.3170394897461
 30
0.0
 11
-586.191241223352
 21
62.3170394897461
 31
0.0
  0
LINE
  5
   39D
  8
0
  6
CONTINUOUS
 62
     7
 10
-586.19124394877
 20
62.3170394897462
 30
0.0
 11
-586.19124394877
 21
69.0420379638673
 31
0.0
  0
LINE
  5
   39E
  8
0
  6
CONTINUOUS
 62
     7
 10
-582.816240984934
 20
-4.55796051025391
 30
0.0
 11
-582.816240984934
 21
-2.55796051025391
 31
0.0
  0
LINE
  5
   39F
  8
0
  6
CONTINUOUS
 62
     7
 10
-584.691240269678
 20
-6.43296051025391
 30
0.0
 11
-586.191241461771
 21
-6.43296051025391
 31
0.0
  0
LINE
  5
   3A0
  8
0
  6
CONTINUOUS
 62
     7
 10
-586.191240885666
 20
-13.1579605340958
 30
0.0
 11
-586.191240885666
 21
-6.43296062946319
 31
0.0
  0
CIRCLE
  5
   3A1
  8
0
  6
DOT
 62
     7
 10
-561.191241290523
 20
64.1920349389619
 30
0.0
 40
2.75000069115123
  0
CIRCLE
  5
   3A2
  8
0
  6
CONTINUOUS
 62
     7
 10
-561.191243677713
 20
68.4420441481142
 30
0.0
 40
0.700002264523652
  0
CIRCLE
  5
   3A3
  8
0
  6
DOT
 62
     7
 10
-552.441243872418
 20
62.6920414049318
 30
0.0
 40
2.24999656892357
  0
CIRCLE
  5
   3A4
  8
0
  6
DOT
 62
     7
 10
-543.691226315336
 20
64.1920338325055
 30
0.0
 40
2.75001556139296
  0
CIRCLE
  5
   3A5
  8
0
  6
CONTINUOUS
 62
     7
 10
-543.691241669388
 20
68.4420403775573
 30
0.0
 40
0.700001066288022
  0
CIRCLE
  5
   3A6
  8
0
  6
DOT
 62
     7
 10
-534.941239305947
 20
62.6920429185668
 30
0.0
 40
2.24999987091582
  0
CIRCLE
  5
   3A7
  8
0
  6
DOT
 62
     7
 10
-526.191237784372
 20
64.19205559716
 30
0.0
 40
2.74998599955911
  0
CIRCLE
  5
   3A8
  8
0
  6
CONTINUOUS
 62
     7
 10
-526.191235045639
 20
68.4420450941821
 30
0.0
 40
0.699995380710385
  0
ARC
  5
   3A9
  8
0
  6
CONTINUOUS
 62
     7
 10
-519.191238273112
 20
69.9420427523653
 30
0.0
 40
0.499997602395233
 50
359.999798760808
 51
450.00023088902
  0
CIRCLE
  5
   3AA
  8
0
  6
CONTINUOUS
 62
     7
 10
-584.691237979758
 20
60.4420427238718
 30
0.0
 40
0.875002904842779
  0
ARC
  5
   3AB
  8
0
  6
CONTINUOUS
 62
     7
 10
-584.69122693805
 20
60.4419960273324
 30
0.0
 40
1.87496000544276
 50
269.999551104867
 51
450.000408982336
  0
ARC
  5
   3AC
  8
0
  6
CONTINUOUS
 62
     7
 10
-585.691239709466
 20
69.9420400559111
 30
0.0
 40
0.500001995564727
 50
90.0000472185487
 51
180.000478784316
  0
CIRCLE
  5
   3AD
  8
0
  6
CONTINUOUS
 62
     7
 10
-584.691240901546
 20
-4.55795950445062
 30
0.0
 40
0.874999581588754
  0
ARC
  5
   3AE
  8
0
  6
CONTINUOUS
 62
     7
 10
-585.691240864299
 20
-14.0579604584119
 30
0.0
 40
0.500000053060852
 50
180.000006024791
 51
269.999989483217
  0
LINE
  5
   3AF
  8
0
  6
DASHDOT
 62
     7
 10
-561.191243677713
 20
66.2420418835906
 30
0.0
 11
-561.191243677713
 21
70.6420464126379
 31
0.0
  0
LINE
  5
   3B0
  8
0
  6
DASHDOT
 62
     7
 10
-558.99124141319
 20
68.4420441481142
 30
0.0
 11
-563.391245942237
 21
68.4420441481142
 31
0.0
  0
LINE
  5
   3B1
  8
0
  6
DASHDOT
 62
     7
 10
-561.191241290523
 20
59.9420342478107
 30
0.0
 11
-561.191241290523
 21
68.4420356301131
 31
0.0
  0
LINE
  5
   3B2
  8
0
  6
DASHDOT
 62
     7
 10
-556.941240599372
 20
64.1920349389619
 30
0.0
 11
-565.441241981675
 21
64.1920349389619
 31
0.0
  0
LINE
  5
   3B3
  8
0
  6
DASHDOT
 62
     7
 10
-541.4912406031
 20
68.4420403775573
 30
0.0
 11
-545.891242735676
 21
68.4420403775573
 31
0.0
  0
LINE
  5
   3B4
  8
0
  6
DASHDOT
 62
     7
 10
-539.441210753943
 20
64.1920338325055
 30
0.0
 11
-547.941241876729
 21
64.1920338325055
 31
0.0
  0
LINE
  5
   3B5
  8
0
  6
DASHDOT
 62
     7
 10
-552.441243872418
 20
58.9420448360082
 30
0.0
 11
-552.441243872418
 21
71.6238479250361
 31
0.0
  0
LINE
  5
   3B6
  8
0
  6
DASHDOT
 62
     7
 10
-548.691247303495
 20
62.6920414049318
 30
0.0
 11
-556.191240441342
 21
62.6920414049318
 31
0.0
  0
LINE
  5
   3B7
  8
0
  6
DASHDOT
 62
     7
 10
-531.191239435032
 20
62.6920429185668
 30
0.0
 11
-538.691239176863
 21
62.6920429185668
 31
0.0
  0
LINE
  5
   3B8
  8
0
  6
DASHDOT
 62
     7
 10
-526.191235045639
 20
66.2420497134717
 30
0.0
 11
-526.191235045639
 21
70.6420404748925
 31
0.0
  0
LINE
  5
   3B9
  8
0
  6
DASHDOT
 62
     7
 10
-523.991239664929
 20
68.4420450941821
 30
0.0
 11
-528.391230426349
 21
68.4420450941821
 31
0.0
  0
LINE
  5
   3BA
  8
0
  6
DASHDOT
 62
     7
 10
-526.191237784372
 20
59.9420695976008
 30
0.0
 11
-526.191237784372
 21
68.4420415967191
 31
0.0
  0
LINE
  5
   3BB
  8
0
  6
DASHDOT
 62
     7
 10
-521.941251784813
 20
64.1920555971599
 30
0.0
 11
-530.441223783931
 21
64.1920555971599
 31
0.0
  0
LINE
  5
   3BC
  8
0
  6
DASHDOT
 62
     7
 10
-584.69122693805
 20
57.0670360218896
 30
0.0
 11
-584.69122693805
 21
63.8169560327751
 31
0.0
  0
LINE
  5
   3BD
  8
0
  6
DASHDOT
 62
     7
 10
-581.316266932608
 20
60.4419960273324
 30
0.0
 11
-588.066186943493
 21
60.4419960273324
 31
0.0
  0
LINE
  5
   3BE
  8
0
  6
DASHDOT
 62
     7
 10
-561.191232949153
 20
-12.5579572518846
 30
0.0
 11
-561.191232949153
 21
-4.05796036125608
 31
0.0
  0
LINE
  5
   3BF
  8
0
  6
DASHDOT
 62
     7
 10
-526.191204745487
 20
-12.5580870241124
 30
0.0
 11
-526.191204745487
 21
-4.05795492830458
 31
0.0
  0
LINE
  5
   3C0
  8
0
  6
DASHDOT
 62
     7
 10
-526.191231190994
 20
-14.7579548321575
 30
0.0
 11
-526.191231190994
 21
-10.3579623099205
 31
0.0
  0
LINE
  5
   3C1
  8
0
  6
DASHDOT
 62
     7
 10
-561.191234646031
 20
-14.7579603579134
 30
0.0
 11
-561.191234646031
 21
-10.3579601562867
 31
0.0
  0
CIRCLE
  5
   3C2
  8
0
  6
CONTINUOUS
 62
     7
 10
-584.691241902238
 20
-4.55796179332643
 30
0.0
 40
1.87500067183884
  0
LINE
  5
   3C3
  8
0
  6
DASHDOT
 62
     7
 10
-584.691241902238
 20
-7.93296246516526
 30
0.0
 11
-584.691241902238
 21
-1.18296112148759
 31
0.0
  0
LINE
  5
   3C4
  8
0
  6
DASHDOT
 62
     7
 10
-581.316241230399
 20
-4.55796179332643
 30
0.0
 11
-588.066242574077
 21
-4.55796179332643
 31
0.0
  0
LINE
  5
   3C5
  8
0
  6
CONTINUOUS
 62
     7
 10
-572.941226315336
 20
-2.18294906616404
 30
0.0
 11
-586.941226315336
 21
-2.18294906616404
 31
0.0
  0
LINE
  5
   3C6
  8
0
  6
CONTINUOUS
 62
     3
 10
-517.69123394473
 20
53.0670433044414
 30
0.0
 11
-569.691226315336
 21
53.0670433044414
 31
0.0
  0
LINE
  5
   3C7
  8
0
  6
CONTINUOUS
 62
     3
 10
-517.69123394473
 20
0.567050933836232
 30
0.0
 11
-524.441233914928
 21
0.567050933836232
 31
0.0
  0
LINE
  5
   3C8
  8
0
  6
CONTINUOUS
 62
     3
 10
-530.19123394473
 20
0.567050933835738
 30
0.0
 11
-542.466586893096
 21
0.567050933835738
 31
0.0
  0
LINE
  5
   3C9
  8
0
  6
CONTINUOUS
 62
     3
 10
-562.941226315336
 20
0.567050933822447
 30
0.0
 11
-569.691226315336
 21
0.567050933822447
 31
0.0
  0
LINE
  5
   3CA
  8
0
  6
CONTINUOUS
 62
     7
 10
-586.941226315336
 20
-2.18294906616403
 30
0.0
 11
-586.941226315336
 21
-1.68294906616403
 31
0.0
  0
LINE
  5
   3CB
  8
0
  6
CONTINUOUS
 62
     7
 10
-572.941226315336
 20
-1.68294902948422
 30
0.0
 11
-587.441246607002
 21
-1.68294902948422
 31
0.0
  0
LINE
  5
   3CC
  8
0
  6
CONTINUOUS
 62
     3
 10
-557.191226315336
 20
0.567050933834487
 30
0.0
 11
-562.941226315336
 21
0.567050933834487
 31
0.0
  0
LINE
  5
   3CD
  8
0
  6
CONTINUOUS
 62
     3
 10
-524.44123394473
 20
0.567050933836249
 30
0.0
 11
-530.19123394473
 21
0.567050933836249
 31
0.0
  0
LINE
  5
   3CE
  8
0
  6
DASHDOT
 62
     7
 10
-543.691226315336
 20
-8.49354747576165
 30
0.0
 11
-543.691226315336
 21
43.1540871090587
 31
0.0
  0
ARC
  5
   3CF
  8
0
  6
CONTINUOUS
 62
     3
 10
-569.691226315336
 20
0.817050933822447
 30
0.0
 40
0.25
 50
179.999999948034
 51
269.999999948034
  0
ARC
  5
   3D0
  8
0
  6
CONTINUOUS
 62
     3
 10
-569.691226315336
 20
52.8170433044414
 30
0.0
 40
0.25
 50
449.999999948034
 51
539.999999948034
  0
ARC
  5
   3D1
  8
0
  6
CONTINUOUS
 62
     3
 10
-517.69123394473
 20
52.8170433044414
 30
0.0
 40
0.25
 50
359.999999948034
 51
449.999999948034
  0
ARC
  5
   3D2
  8
0
  6
CONTINUOUS
 62
     3
 10
-517.69123394473
 20
0.817050933836232
 30
0.0
 40
0.25
 50
269.999999948034
 51
359.999999948034
  0
LINE
  5
   3D3
  8
0
  6
DASHDOT
 62
     7
 10
-543.691226315336
 20
46.0437043399768
 30
0.0
 11
-543.691226315336
 21
60.4988293748564
 31
0.0
  0
LINE
  5
   3D4
  8
0
  6
CONTINUOUS
 62
     3
 10
-544.915951441243
 20
0.567050933835738
 30
0.0
 11
-557.191226315336
 21
0.567050933835738
 31
0.0
  0
LINE
  5
   3D5
  8
0
  6
CONTINUOUS
 62
     7
 10
-557.44123394473
 20
0.567043304441427
 30
0.0
 11
-562.441226315336
 21
0.567043304441427
 31
0.0
  0
LINE
  5
   3D6
  8
0
  6
CONTINUOUS
 62
     7
 10
-524.941241574125
 20
0.567043304441427
 30
0.0
 11
-529.941241574125
 21
0.567043304441427
 31
0.0
  0
LINE
  5
   3D7
  8
0
  6
CONTINUOUS
 62
     7
 10
-517.441226315336
 20
0.817043304441434
 30
0.0
 11
-517.441226315336
 21
9.8170356750469
 31
0.0
  0
LINE
  5
   3D8
  8
0
  6
CONTINUOUS
 62
     7
 10
-569.941226315336
 20
0.81704330444143
 30
0.0
 11
-569.941226315336
 21
9.8170356750469
 31
0.0
  0
LINE
  5
   3D9
  8
0
  6
CONTINUOUS
 62
     7
 10
-517.691226315336
 20
53.0670433044414
 30
0.0
 11
-569.691226315322
 21
53.0670433044414
 31
0.0
  0
LINE
  5
   3DA
  8
0
  6
CONTINUOUS
 62
     7
 10
-562.441226315336
 20
0.567043304441427
 30
0.0
 11
-569.691226315336
 21
0.567043304441427
 31
0.0
  0
LINE
  5
   3DB
  8
0
  6
CONTINUOUS
 62
     7
 10
-529.941241574125
 20
0.567043304441427
 30
0.0
 11
-557.44123394473
 21
0.567043304441427
 31
0.0
  0
LINE
  5
   3DC
  8
0
  6
CONTINUOUS
 62
     7
 10
-517.691226315336
 20
0.567043304441427
 30
0.0
 11
-524.941241574125
 21
0.567043304441427
 31
0.0
  0
LINE
  5
   3DD
  8
0
  6
CONTINUOUS
 62
     7
 10
-538.316226315336
 20
11.6920356750469
 30
0.0
 11
-538.316226315336
 21
31.6920280456524
 31
0.0
  0
LINE
  5
   3DE
  8
0
  6
CONTINUOUS
 62
     7
 10
-549.066226315336
 20
11.6920356750469
 30
0.0
 11
-549.066226315336
 21
31.6920280456524
 31
0.0
  0
LINE
  5
   3DF
  8
0
  6
CONTINUOUS
 62
     7
 10
-517.441226315336
 20
47.0670280456524
 30
0.0
 11
-569.941226315336
 21
47.0670280456524
 31
0.0
  0
LINE
  5
   3E0
  8
0
  6
CONTINUOUS
 62
     7
 10
-517.441226315336
 20
52.0670280456524
 30
0.0
 11
-569.941226315336
 21
52.0670280456524
 31
0.0
  0
LINE
  5
   3E1
  8
0
  6
CONTINUOUS
 62
     7
 10
-538.316226315336
 20
31.5597953796367
 30
0.0
 11
-549.066226315336
 21
31.5597953796367
 31
0.0
  0
LINE
  5
   3E2
  8
0
  6
CONTINUOUS
 62
     7
 10
-538.316226315336
 20
31.6920280456524
 30
0.0
 11
-549.066226315336
 21
31.6920280456524
 31
0.0
  0
LINE
  5
   3E3
  8
0
  6
CONTINUOUS
 62
     7
 10
-538.316226315336
 20
11.6920356750469
 30
0.0
 11
-549.066226315336
 21
11.6920356750469
 31
0.0
  0
LINE
  5
   3E4
  8
0
  6
CONTINUOUS
 62
     7
 10
-538.316226315336
 20
11.8242835998516
 30
0.0
 11
-549.066226315336
 21
11.8242835998516
 31
0.0
  0
LINE
  5
   3E5
  8
0
  6
DASHDOT
 62
     7
 10
-543.691226315336
 20
-41.7750412584307
 30
0.0
 11
-543.691226315336
 21
72.0246376180904
 31
0.0
  0
LINE
  5
   3E6
  8
0
  6
DASHDOT
 62
     7
 10
-543.691226315336
 20
71.4240035423956
 30
0.0
 11
-543.691226315336
 21
80.9186053568499
 31
0.0
  0
LINE
  5
   3E7
  8
0
  6
CONTINUOUS
 62
     7
 10
-517.44123394473
 20
10.3170356750469
 30
0.0
 11
-517.44123394473
 21
16.3170316984276
 31
0.0
  0
LINE
  5
   3E8
  8
0
  6
CONTINUOUS
 62
     7
 10
-517.44123394473
 20
33.5670356750469
 30
0.0
 11
-517.44123394473
 21
52.8170433044414
 31
0.0
  0
LINE
  5
   3E9
  8
0
  6
CONTINUOUS
 62
     7
 10
-517.44123394473
 20
16.8170316984277
 30
0.0
 11
-517.44123394473
 21
26.5670356750469
 31
0.0
  0
LINE
  5
   3EA
  8
0
  6
CONTINUOUS
 62
     7
 10
-517.44123394473
 20
27.0670356750469
 30
0.0
 11
-517.44123394473
 21
33.0670356750469
 31
0.0
  0
LINE
  5
   3EB
  8
0
  6
CONTINUOUS
 62
     7
 10
-569.941226315338
 20
10.3170356750469
 30
0.0
 11
-569.941226315338
 21
16.317035675048
 31
0.0
  0
LINE
  5
   3EC
  8
0
  6
CONTINUOUS
 62
     7
 10
-569.941226315347
 20
16.817035675048
 30
0.0
 11
-569.941226315347
 21
26.5670356750469
 31
0.0
  0
LINE
  5
   3ED
  8
0
  6
CONTINUOUS
 62
     7
 10
-569.941226315333
 20
27.0670356750469
 30
0.0
 11
-569.941226315333
 21
33.0670356750469
 31
0.0
  0
LINE
  5
   3EE
  8
0
  6
CONTINUOUS
 62
     7
 10
-569.941226315322
 20
33.5670356750469
 30
0.0
 11
-569.941226315322
 21
52.8170433044414
 31
0.0
  0
LINE
  5
   3EF
  8
0
  6
CONTINUOUS
 62
     7
 10
-549.066230302197
 20
16.317045292759
 30
0.0
 11
-569.441226345138
 21
16.317045292759
 31
0.0
  0
LINE
  5
   3F0
  8
0
  6
CONTINUOUS
 62
     7
 10
-517.44123394473
 20
16.3170413161359
 30
0.0
 11
-517.94123394473
 21
16.3170413161359
 31
0.0
  0
LINE
  5
   3F1
  8
0
  6
CONTINUOUS
 62
     7
 10
-549.066240081742
 20
16.817045292762
 30
0.0
 11
-569.441226345138
 21
16.817045292762
 31
0.0
  0
LINE
  5
   3F2
  8
0
  6
CONTINUOUS
 62
     7
 10
-517.44123394473
 20
16.8170413161358
 30
0.0
 11
-517.94123394473
 21
16.8170413161358
 31
0.0
  0
LINE
  5
   3F3
  8
0
  6
CONTINUOUS
 62
     7
 10
-569.441226345138
 20
16.3170356750469
 30
0.0
 11
-569.441226345138
 21
16.8170356750469
 31
0.0
  0
LINE
  5
   3F4
  8
0
  6
CONTINUOUS
 62
     7
 10
-517.94123394473
 20
16.3170356750469
 30
0.0
 11
-517.94123394473
 21
16.8170356750469
 31
0.0
  0
LINE
  5
   3F5
  8
0
  6
CONTINUOUS
 62
     7
 10
-517.441226315336
 20
9.8170356750469
 30
0.0
 11
-517.94123394473
 21
9.8170356750469
 31
0.0
  0
LINE
  5
   3F6
  8
0
  6
CONTINUOUS
 62
     7
 10
-517.44123394473
 20
10.3170356750469
 30
0.0
 11
-517.94123394473
 21
10.3170356750469
 31
0.0
  0
LINE
  5
   3F7
  8
0
  6
CONTINUOUS
 62
     7
 10
-569.441226345138
 20
9.8170356750469
 30
0.0
 11
-569.441226345138
 21
10.3170356750469
 31
0.0
  0
LINE
  5
   3F8
  8
0
  6
CONTINUOUS
 62
     7
 10
-517.94123394473
 20
9.8170356750469
 30
0.0
 11
-517.94123394473
 21
10.3170356750469
 31
0.0
  0
LINE
  5
   3F9
  8
0
  6
CONTINUOUS
 62
     7
 10
-517.44123394473
 20
33.0670356750469
 30
0.0
 11
-517.94123394473
 21
33.0670356750469
 31
0.0
  0
LINE
  5
   3FA
  8
0
  6
CONTINUOUS
 62
     7
 10
-517.44123394473
 20
33.5670356750469
 30
0.0
 11
-517.94123394473
 21
33.5670356750469
 31
0.0
  0
LINE
  5
   3FB
  8
0
  6
CONTINUOUS
 62
     7
 10
-569.441226345138
 20
33.0670356750469
 30
0.0
 11
-569.441226345138
 21
33.5670356750469
 31
0.0
  0
LINE
  5
   3FC
  8
0
  6
CONTINUOUS
 62
     7
 10
-517.94123394473
 20
33.0670356750469
 30
0.0
 11
-517.94123394473
 21
33.5670356750469
 31
0.0
  0
LINE
  5
   3FD
  8
0
  6
CONTINUOUS
 62
     7
 10
-549.066230279045
 20
26.5670356750469
 30
0.0
 11
-569.441226345138
 21
26.5670356750469
 31
0.0
  0
LINE
  5
   3FE
  8
0
  6
CONTINUOUS
 62
     7
 10
-517.44123394473
 20
26.5670356750469
 30
0.0
 11
-517.94123394473
 21
26.5670356750469
 31
0.0
  0
LINE
  5
   3FF
  8
0
  6
CONTINUOUS
 62
     7
 10
-549.066226315336
 20
27.0670356750469
 30
0.0
 11
-569.441226345138
 21
27.0670356750469
 31
0.0
  0
LINE
  5
   400
  8
0
  6
CONTINUOUS
 62
     7
 10
-517.44123394473
 20
27.0670356750469
 30
0.0
 11
-517.94123394473
 21
27.0670356750469
 31
0.0
  0
LINE
  5
   401
  8
0
  6
CONTINUOUS
 62
     7
 10
-569.441226345138
 20
26.5670356750469
 30
0.0
 11
-569.441226345138
 21
27.0670356750469
 31
0.0
  0
LINE
  5
   402
  8
0
  6
CONTINUOUS
 62
     7
 10
-517.94123394473
 20
26.5670356750469
 30
0.0
 11
-517.94123394473
 21
27.0670356750469
 31
0.0
  0
ARC
  5
   403
  8
0
  6
CONTINUOUS
 62
     7
 10
-569.691226315336
 20
0.817043304441423
 30
0.0
 40
0.25
 50
179.999999948034
 51
269.999999948034
  0
ARC
  5
   404
  8
0
  6
CONTINUOUS
 62
     7
 10
-517.691226315336
 20
0.817043304441434
 30
0.0
 40
0.25
 50
269.999999948034
 51
359.999999948034
  0
ARC
  5
   405
  8
0
  6
CONTINUOUS
 62
     7
 10
-517.691226315336
 20
52.8170433044414
 30
0.0
 40
0.25
 50
359.999999948034
 51
449.999999948034
  0
ARC
  5
   406
  8
0
  6
CONTINUOUS
 62
     7
 10
-569.691226315322
 20
52.8170433044414
 30
0.0
 40
0.25
 50
449.999999948034
 51
539.999999948034
  0
LINE
  5
   407
  8
0
  6
CONTINUOUS
 62
     7
 10
-554.941226315336
 20
32.3170356750469
 30
0.0
 11
-555.691226315336
 21
32.3170356750469
 31
0.0
  0
LINE
  5
   408
  8
0
  6
CONTINUOUS
 62
     7
 10
-554.941226315336
 20
27.8170356750469
 30
0.0
 11
-555.691226315336
 21
27.8170356750469
 31
0.0
  0
CIRCLE
  5
   409
  8
0
  6
CONTINUOUS
 62
     7
 10
-555.316226315336
 20
13.3170356750469
 30
0.0
 40
2.25
  0
CIRCLE
  5
   40A
  8
0
  6
CONTINUOUS
 62
     7
 10
-555.316226315336
 20
13.3170356750469
 30
0.0
 40
1.5
  0
LINE
  5
   40B
  8
0
  6
CONTINUOUS
 62
     7
 10
-555.691226315336
 20
27.8170356750469
 30
0.0
 11
-555.691226315336
 21
32.3170356750469
 31
0.0
  0
LINE
  5
   40C
  8
0
  6
CONTINUOUS
 62
     7
 10
-554.941226315336
 20
27.8170356750469
 30
0.0
 11
-554.941226315336
 21
32.3170356750469
 31
0.0
  0
LINE
  5
   40D
  8
0
  6
CONTINUOUS
 62
     7
 10
-550.441226315336
 20
10.3170356750469
 30
0.0
 11
-550.441226315336
 21
16.3170428196297
 31
0.0
  0
LINE
  5
   40E
  8
0
  6
CONTINUOUS
 62
     7
 10
-536.941226315336
 20
10.3170356750469
 30
0.0
 11
-536.941226315336
 21
16.3170388430065
 31
0.0
  0
LINE
  5
   40F
  8
0
  6
CONTINUOUS
 62
     7
 10
-536.941226315336
 20
27.0670356750469
 30
0.0
 11
-536.941226315336
 21
33.0670356750469
 31
0.0
  0
LINE
  5
   410
  8
0
  6
CONTINUOUS
 62
     7
 10
-550.441226315336
 20
27.0670356750469
 30
0.0
 11
-550.441226315336
 21
33.0670356750469
 31
0.0
  0
LINE
  5
   411
  8
0
  6
CONTINUOUS
 62
     7
 10
-530.916231198148
 20
15.2420356750469
 30
0.0
 11
-531.141231198148
 21
15.2420356750469
 31
0.0
  0
LINE
  5
   412
  8
0
  6
CONTINUOUS
 62
     7
 10
-531.391231198148
 20
11.3920356750469
 30
0.0
 11
-531.791231198148
 21
11.3920356750469
 31
0.0
  0
LINE
  5
   413
  8
0
  6
CONTINUOUS
 62
     7
 10
-534.991231198148
 20
12.6920356750469
 30
0.0
 11
-534.991231198148
 21
12.9420356750469
 31
0.0
  0
LINE
  5
   414
  8
0
  6
CONTINUOUS
 62
     7
 10
-532.391231198148
 20
12.6920356750469
 30
0.0
 11
-532.391231198148
 21
12.9420356750469
 31
0.0
  0
ARC
  5
   415
  8
0
  6
CONTINUOUS
 62
     7
 10
-533.691231198148
 20
12.9420356750469
 30
0.0
 40
1.3
 50
359.999999948034
 51
539.999999948034
  0
ARC
  5
   416
  8
0
  6
CONTINUOUS
 62
     7
 10
-533.691231198148
 20
12.6920356750469
 30
0.0
 40
1.3
 50
179.999999948034
 51
359.999999948034
  0
ARC
  5
   417
  8
0
  6
CONTINUOUS
 62
     7
 10
-533.691231198148
 20
12.9420356750469
 30
0.0
 40
0.900000000000001
 50
359.999999948034
 51
539.999999948034
  0
ARC
  5
   418
  8
0
  6
CONTINUOUS
 62
     7
 10
-533.691231198148
 20
12.6920356750469
 30
0.0
 40
0.899999999999999
 50
179.999999948034
 51
359.999999948034
  0
LINE
  5
   419
  8
0
  6
CONTINUOUS
 62
     7
 10
-534.591231198148
 20
12.6920356750469
 30
0.0
 11
-534.591231198148
 21
12.9420356750469
 31
0.0
  0
LINE
  5
   41A
  8
0
  6
CONTINUOUS
 62
     7
 10
-532.791231198148
 20
12.6920356750469
 30
0.0
 11
-532.791231198148
 21
12.9420356750469
 31
0.0
  0
LINE
  5
   41B
  8
0
  6
CONTINUOUS
 62
     7
 10
-532.266231198148
 20
13.6420356750469
 30
0.0
 11
-532.266231198148
 21
14.0420356750469
 31
0.0
  0
LINE
  5
   41C
  8
0
  6
CONTINUOUS
 62
     7
 10
-531.791231198148
 20
13.6420356750469
 30
0.0
 11
-532.266231198148
 21
13.6420356750469
 31
0.0
  0
LINE
  5
   41D
  8
0
  6
CONTINUOUS
 62
     7
 10
-530.916231198148
 20
13.6420356750469
 30
0.0
 11
-530.916231198148
 21
14.0420356750469
 31
0.0
  0
LINE
  5
   41E
  8
0
  6
CONTINUOUS
 62
     7
 10
-531.791231198148
 20
14.0420356750469
 30
0.0
 11
-532.266231198148
 21
14.0420356750469
 31
0.0
  0
LINE
  5
   41F
  8
0
  6
CONTINUOUS
 62
     7
 10
-531.791231198148
 20
11.3920356750469
 30
0.0
 11
-531.791231198148
 21
13.6420356750469
 31
0.0
  0
LINE
  5
   420
  8
0
  6
CONTINUOUS
 62
     7
 10
-531.391231198148
 20
11.3920356750469
 30
0.0
 11
-531.391231198148
 21
13.6420356750469
 31
0.0
  0
LINE
  5
   421
  8
0
  6
CONTINUOUS
 62
     7
 10
-530.916231198148
 20
13.6420356750469
 30
0.0
 11
-531.391231198148
 21
13.6420356750469
 31
0.0
  0
LINE
  5
   422
  8
0
  6
CONTINUOUS
 62
     7
 10
-530.916231198148
 20
14.0420356750469
 30
0.0
 11
-531.391231198148
 21
14.0420356750469
 31
0.0
  0
LINE
  5
   423
  8
0
  6
CONTINUOUS
 62
     7
 10
-531.791231198148
 20
14.0420356750469
 30
0.0
 11
-531.791231198148
 21
14.5920356750469
 31
0.0
  0
LINE
  5
   424
  8
0
  6
CONTINUOUS
 62
     7
 10
-531.391231198148
 20
14.0420356750469
 30
0.0
 11
-531.391231198148
 21
14.5920356750469
 31
0.0
  0
ARC
  5
   425
  8
0
  6
CONTINUOUS
 62
     7
 10
-531.141231198148
 20
14.5920356750469
 30
0.0
 40
0.65
 50
449.999999948034
 51
539.999999948034
  0
ARC
  5
   426
  8
0
  6
CONTINUOUS
 62
     7
 10
-531.141231198148
 20
14.5920356750469
 30
0.0
 40
0.25
 50
449.999999948034
 51
539.999999948034
  0
LINE
  5
   427
  8
0
  6
CONTINUOUS
 62
     7
 10
-530.916231198148
 20
14.8420356750469
 30
0.0
 11
-530.916231198148
 21
15.2420356750469
 31
0.0
  0
LINE
  5
   428
  8
0
  6
CONTINUOUS
 62
     7
 10
-530.916231198148
 20
14.8420356750469
 30
0.0
 11
-531.141231198148
 21
14.8420356750469
 31
0.0
  0
LINE
  5
   429
  8
0
  6
CONTINUOUS
 62
     7
 10
-529.316231198148
 20
15.2420356750469
 30
0.0
 11
-529.541231198148
 21
15.2420356750469
 31
0.0
  0
LINE
  5
   42A
  8
0
  6
CONTINUOUS
 62
     7
 10
-529.791231198148
 20
11.3920356750469
 30
0.0
 11
-530.191231198148
 21
11.3920356750469
 31
0.0
  0
LINE
  5
   42B
  8
0
  6
CONTINUOUS
 62
     7
 10
-530.666231198148
 20
13.6420356750469
 30
0.0
 11
-530.666231198148
 21
14.0420356750469
 31
0.0
  0
LINE
  5
   42C
  8
0
  6
CONTINUOUS
 62
     7
 10
-530.191231198148
 20
13.6420356750469
 30
0.0
 11
-530.666231198148
 21
13.6420356750469
 31
0.0
  0
LINE
  5
   42D
  8
0
  6
CONTINUOUS
 62
     7
 10
-529.316231198148
 20
13.6420356750469
 30
0.0
 11
-529.316231198148
 21
14.0420356750469
 31
0.0
  0
LINE
  5
   42E
  8
0
  6
CONTINUOUS
 62
     7
 10
-530.191231198148
 20
14.0420356750469
 30
0.0
 11
-530.666231198148
 21
14.0420356750469
 31
0.0
  0
LINE
  5
   42F
  8
0
  6
CONTINUOUS
 62
     7
 10
-530.191231198148
 20
11.3920356750469
 30
0.0
 11
-530.191231198148
 21
13.6420356750469
 31
0.0
  0
LINE
  5
   430
  8
0
  6
CONTINUOUS
 62
     7
 10
-529.791231198148
 20
11.3920356750469
 30
0.0
 11
-529.791231198148
 21
13.6420356750469
 31
0.0
  0
LINE
  5
   431
  8
0
  6
CONTINUOUS
 62
     7
 10
-529.316231198148
 20
13.6420356750469
 30
0.0
 11
-529.791231198148
 21
13.6420356750469
 31
0.0
  0
LINE
  5
   432
  8
0
  6
CONTINUOUS
 62
     7
 10
-529.316231198148
 20
14.0420356750469
 30
0.0
 11
-529.791231198148
 21
14.0420356750469
 31
0.0
  0
LINE
  5
   433
  8
0
  6
CONTINUOUS
 62
     7
 10
-530.191231198148
 20
14.0420356750469
 30
0.0
 11
-530.191231198148
 21
14.5920356750469
 31
0.0
  0
LINE
  5
   434
  8
0
  6
CONTINUOUS
 62
     7
 10
-529.791231198148
 20
14.0420356750469
 30
0.0
 11
-529.791231198148
 21
14.5920356750469
 31
0.0
  0
ARC
  5
   435
  8
0
  6
CONTINUOUS
 62
     7
 10
-529.541231198148
 20
14.5920356750469
 30
0.0
 40
0.65
 50
449.999999948034
 51
539.999999948034
  0
ARC
  5
   436
  8
0
  6
CONTINUOUS
 62
     7
 10
-529.541231198148
 20
14.5920356750469
 30
0.0
 40
0.25
 50
449.999999948034
 51
539.999999948034
  0
LINE
  5
   437
  8
0
  6
CONTINUOUS
 62
     7
 10
-529.316231198148
 20
14.8420356750469
 30
0.0
 11
-529.316231198148
 21
15.2420356750469
 31
0.0
  0
LINE
  5
   438
  8
0
  6
CONTINUOUS
 62
     7
 10
-529.316231198148
 20
14.8420356750469
 30
0.0
 11
-529.541231198148
 21
14.8420356750469
 31
0.0
  0
LINE
  5
   439
  8
0
  6
CONTINUOUS
 62
     7
 10
-531.591231198148
 20
28.6420356750469
 30
0.0
 11
-531.991231198148
 21
28.6420356750469
 31
0.0
  0
ARC
  5
   43A
  8
0
  6
CONTINUOUS
 62
     7
 10
-533.691231198148
 20
30.1920356750469
 30
0.0
 40
1.3
 50
359.999999948034
 51
539.999999948034
  0
ARC
  5
   43B
  8
0
  6
CONTINUOUS
 62
     7
 10
-533.691231198148
 20
30.1920356750469
 30
0.0
 40
0.900000000000001
 50
359.999999948034
 51
539.999999948034
  0
ARC
  5
   43C
  8
0
  6
CONTINUOUS
 62
     7
 10
-533.691231198148
 20
29.9420356750469
 30
0.0
 40
1.3
 50
179.999999948034
 51
359.999999948034
  0
ARC
  5
   43D
  8
0
  6
CONTINUOUS
 62
     7
 10
-533.691231198148
 20
29.9420356750469
 30
0.0
 40
0.899999999999999
 50
179.999999948034
 51
359.999999948034
  0
LINE
  5
   43E
  8
0
  6
CONTINUOUS
 62
     7
 10
-532.791231198148
 20
29.9420356750469
 30
0.0
 11
-532.791231198148
 21
30.1920356750469
 31
0.0
  0
LINE
  5
   43F
  8
0
  6
CONTINUOUS
 62
     7
 10
-532.391231198148
 20
29.9420356750469
 30
0.0
 11
-532.391231198148
 21
30.1920356750469
 31
0.0
  0
LINE
  5
   440
  8
0
  6
CONTINUOUS
 62
     7
 10
-534.591231198148
 20
29.9420356750469
 30
0.0
 11
-534.591231198148
 21
30.1920356750469
 31
0.0
  0
LINE
  5
   441
  8
0
  6
CONTINUOUS
 62
     7
 10
-534.991231198148
 20
29.9420356750469
 30
0.0
 11
-534.991231198148
 21
30.1920356750469
 31
0.0
  0
LINE
  5
   442
  8
0
  6
CONTINUOUS
 62
     7
 10
-531.991231198148
 20
28.6420356750469
 30
0.0
 11
-531.991231198148
 21
31.4920356750469
 31
0.0
  0
LINE
  5
   443
  8
0
  6
CONTINUOUS
 62
     7
 10
-531.591231198148
 20
28.6420356750469
 30
0.0
 11
-531.591231198148
 21
30.3920356750469
 31
0.0
  0
LINE
  5
   444
  8
0
  6
CONTINUOUS
 62
     7
 10
-530.191231198148
 20
28.6420356750469
 30
0.0
 11
-530.191231198148
 21
30.3920356750469
 31
0.0
  0
LINE
  5
   445
  8
0
  6
CONTINUOUS
 62
     7
 10
-529.791231198148
 20
28.6420356750469
 30
0.0
 11
-529.791231198148
 21
30.4920356750469
 31
0.0
  0
LINE
  5
   446
  8
0
  6
CONTINUOUS
 62
     7
 10
-531.591231198148
 20
31.4920356750469
 30
0.0
 11
-531.991231198148
 21
31.4920356750469
 31
0.0
  0
ARC
  5
   447
  8
0
  6
CONTINUOUS
 62
     7
 10
-530.891231198148
 20
30.3920356750469
 30
0.0
 40
0.699999999999999
 50
359.999999948034
 51
539.999999948034
  0
LINE
  5
   448
  8
0
  6
CONTINUOUS
 62
     7
 10
-531.591231198148
 20
31.0920356750469
 30
0.0
 11
-531.591231198148
 21
31.4920356750469
 31
0.0
  0
ARC
  5
   449
  8
0
  6
CONTINUOUS
 62
     7
 10
-530.791231198148
 20
30.4920356750469
 30
0.0
 40
1.0
 50
359.999999948034
 51
503.13010230219
  0
LINE
  5
   44A
  8
0
  6
CONTINUOUS
 62
     7
 10
-529.791231198148
 20
28.6420356750469
 30
0.0
 11
-530.191231198148
 21
28.6420356750469
 31
0.0
  0
LINE
  5
   44B
  8
0
  6
CONTINUOUS
 62
     7
 10
-553.316243872418
 20
68.9420394897461
 30
0.0
 11
-553.316243872418
 21
70.4420394897461
 31
0.0
  0
LINE
  5
   44C
  8
0
  6
CONTINUOUS
 62
     7
 10
-551.566243872418
 20
68.9420394897461
 30
0.0
 11
-551.566243872418
 21
70.4420394897461
 31
0.0
  0
LINE
  5
   44D
  8
0
  6
CONTINUOUS
 62
     7
 10
-553.691243872418
 20
67.1920394897461
 30
0.0
 11
-553.691243872418
 21
68.9420394897461
 31
0.0
  0
LINE
  5
   44E
  8
0
  6
CONTINUOUS
 62
     7
 10
-551.191243872418
 20
67.1920394897461
 30
0.0
 11
-551.191243872418
 21
68.9420394897461
 31
0.0
  0
LINE
  5
   44F
  8
0
  6
CONTINUOUS
 62
     7
 10
-551.191243872418
 20
68.9420394897461
 30
0.0
 11
-551.566243872418
 21
68.9420394897461
 31
0.0
  0
LINE
  5
   450
  8
0
  6
CONTINUOUS
 62
     7
 10
-553.316243872418
 20
68.9420394897461
 30
0.0
 11
-553.691243872418
 21
68.9420394897461
 31
0.0
  0
LINE
  5
   451
  8
0
  6
CONTINUOUS
 62
     7
 10
-535.816208758253
 20
68.9420394897461
 30
0.0
 11
-535.816208758253
 21
70.4420394897461
 31
0.0
  0
LINE
  5
   452
  8
0
  6
CONTINUOUS
 62
     7
 10
-534.066208758253
 20
68.9420394897461
 30
0.0
 11
-534.066208758253
 21
70.4420394897461
 31
0.0
  0
LINE
  5
   453
  8
0
  6
CONTINUOUS
 62
     7
 10
-533.691208758253
 20
67.1920394897461
 30
0.0
 11
-533.691208758253
 21
68.9420394897461
 31
0.0
  0
LINE
  5
   454
  8
0
  6
CONTINUOUS
 62
     7
 10
-533.691208758253
 20
67.1920394897461
 30
0.0
 11
-536.191208758253
 21
67.1920394897461
 31
0.0
  0
LINE
  5
   455
  8
0
  6
CONTINUOUS
 62
     7
 10
-536.191208758253
 20
67.1920394897461
 30
0.0
 11
-536.191208758253
 21
68.9420394897461
 31
0.0
  0
LINE
  5
   456
  8
0
  6
CONTINUOUS
 62
     7
 10
-533.691208758253
 20
68.9420394897461
 30
0.0
 11
-534.066208758253
 21
68.9420394897461
 31
0.0
  0
LINE
  5
   457
  8
0
  6
CONTINUOUS
 62
     7
 10
-535.816208758253
 20
68.9420394897461
 30
0.0
 11
-536.191208758253
 21
68.9420394897461
 31
0.0
  0
LINE
  5
   458
  8
0
  6
CONTINUOUS
 62
     7
 10
-569.441226345138
 20
33.5670356750469
 30
0.0
 11
-569.941226315322
 21
33.5670356750469
 31
0.0
  0
LINE
  5
   459
  8
0
  6
CONTINUOUS
 62
     7
 10
-569.441226345138
 20
33.0670356750469
 30
0.0
 11
-569.941226315333
 21
33.0670356750469
 31
0.0
  0
LINE
  5
   45A
  8
0
  6
CONTINUOUS
 62
     7
 10
-569.441226345138
 20
27.0670356750469
 30
0.0
 11
-569.941226315333
 21
27.0670356750469
 31
0.0
  0
LINE
  5
   45B
  8
0
  6
CONTINUOUS
 62
     7
 10
-569.441226345138
 20
26.5670356750469
 30
0.0
 11
-569.941226315347
 21
26.5670356750469
 31
0.0
  0
LINE
  5
   45C
  8
0
  6
CONTINUOUS
 62
     7
 10
-569.441226345138
 20
16.817045292762
 30
0.0
 11
-569.941226315347
 21
16.817045292762
 31
0.0
  0
LINE
  5
   45D
  8
0
  6
CONTINUOUS
 62
     7
 10
-569.441226345138
 20
16.317045292759
 30
0.0
 11
-569.941226315338
 21
16.317045292759
 31
0.0
  0
LINE
  5
   45E
  8
0
  6
CONTINUOUS
 62
     7
 10
-569.441226345138
 20
10.3170356750469
 30
0.0
 11
-569.941226315338
 21
10.3170356750469
 31
0.0
  0
LINE
  5
   45F
  8
0
  6
CONTINUOUS
 62
     7
 10
-569.441226345138
 20
9.8170356750469
 30
0.0
 11
-569.941226315336
 21
9.8170356750469
 31
0.0
  0
LINE
  5
   460
  8
0
  6
CONTINUOUS
 62
     7
 10
-517.94123394473
 20
33.5670356750469
 30
0.0
 11
-569.441226345138
 21
33.5670356750469
 31
0.0
  0
LINE
  5
   461
  8
0
  6
CONTINUOUS
 62
     7
 10
-517.94123394473
 20
33.0670356750469
 30
0.0
 11
-569.441226345138
 21
33.0670356750469
 31
0.0
  0
LINE
  5
   462
  8
0
  6
CONTINUOUS
 62
     7
 10
-517.94123394473
 20
27.0670356750469
 30
0.0
 11
-538.316226315336
 21
27.0670356750469
 31
0.0
  0
LINE
  5
   463
  8
0
  6
CONTINUOUS
 62
     7
 10
-517.94123394473
 20
26.5670356750469
 30
0.0
 11
-538.316226315336
 21
26.5670356750469
 31
0.0
  0
LINE
  5
   464
  8
0
  6
CONTINUOUS
 62
     7
 10
-517.94123394473
 20
16.8170413161358
 30
0.0
 11
-538.316227807715
 21
16.8170413161358
 31
0.0
  0
LINE
  5
   465
  8
0
  6
CONTINUOUS
 62
     7
 10
-517.94123394473
 20
16.3170413161359
 30
0.0
 11
-538.316227990909
 21
16.3170413161359
 31
0.0
  0
LINE
  5
   466
  8
0
  6
CONTINUOUS
 62
     7
 10
-517.94123394473
 20
10.3170356750469
 30
0.0
 11
-569.441226345138
 21
10.3170356750469
 31
0.0
  0
LINE
  5
   467
  8
0
  6
CONTINUOUS
 62
     7
 10
-517.94123394473
 20
9.8170356750469
 30
0.0
 11
-569.441226345138
 21
9.8170356750469
 31
0.0
  0
LINE
  5
   468
  8
0
  6
CONTINUOUS
 62
     7
 10
-538.316226315336
 20
18.7546960297566
 30
0.0
 11
-549.066226315336
 21
18.7546960297566
 31
0.0
  0
LINE
  5
   469
  8
0
  6
CONTINUOUS
 62
     7
 10
-538.316226315336
 20
15.6964632769481
 30
0.0
 11
-549.066226315336
 21
15.6964632769481
 31
0.0
  0
LINE
  5
   46A
  8
0
  6
CONTINUOUS
 62
     7
 10
-538.316226315336
 20
12.7225539638423
 30
0.0
 11
-549.066226315336
 21
12.7225539638423
 31
0.0
  0
LINE
  5
   46B
  8
0
  6
CONTINUOUS
 62
     7
 10
-538.316226315336
 20
12.3211803999831
 30
0.0
 11
-549.066226315336
 21
12.3211803999831
 31
0.0
  0
ARC
  5
   46C
  8
0
  6
CONTINUOUS
 62
     7
 10
-584.6911941024
 20
60.4420109174361
 30
0.0
 40
1.87505277579048
 50
90.0014244293144
 51
269.998569947076
  0
LINE
  5
   46D
  8
0
  6
CONTINUOUS
 62
     7
 10
-570.816243872418
 20
70.4420394897461
 30
0.0
 11
-585.691240984934
 21
70.4420394897461
 31
0.0
  0
LINE
  5
   46E
  8
0
  6
CONTINUOUS
 62
     7
 10
-568.691243872418
 20
67.1920394897461
 30
0.0
 11
-571.191243872418
 21
67.1920394897461
 31
0.0
  0
CIRCLE
  5
   46F
  8
0
  6
CONTINUOUS
 62
     7
 10
-578.691241290523
 20
64.1920349389619
 30
0.0
 40
2.75000069115123
  0
CIRCLE
  5
   470
  8
0
  6
CONTINUOUS
 62
     7
 10
-578.691243677713
 20
68.4420441481142
 30
0.0
 40
0.700002264523652
  0
CIRCLE
  5
   471
  8
0
  6
DOT
 62
     7
 10
-569.941243872418
 20
62.6920414049318
 30
0.0
 40
2.24999656892357
  0
LINE
  5
   472
  8
0
  6
CONTINUOUS
 62
     7
 10
-570.816243872418
 20
68.9420394897461
 30
0.0
 11
-570.816243872418
 21
70.4420394897461
 31
0.0
  0
LINE
  5
   473
  8
0
  6
CONTINUOUS
 62
     7
 10
-569.066243872418
 20
68.9420394897461
 30
0.0
 11
-569.066243872418
 21
70.4420394897461
 31
0.0
  0
LINE
  5
   474
  8
0
  6
CONTINUOUS
 62
     7
 10
-571.191243872418
 20
67.1920394897461
 30
0.0
 11
-571.191243872418
 21
68.9420394897461
 31
0.0
  0
LINE
  5
   475
  8
0
  6
CONTINUOUS
 62
     7
 10
-568.691243872418
 20
67.1920394897461
 30
0.0
 11
-568.691243872418
 21
68.9420394897461
 31
0.0
  0
LINE
  5
   476
  8
0
  6
CONTINUOUS
 62
     7
 10
-568.691243872418
 20
68.9420394897461
 30
0.0
 11
-569.066243872418
 21
68.9420394897461
 31
0.0
  0
LINE
  5
   477
  8
0
  6
CONTINUOUS
 62
     7
 10
-570.816243872418
 20
68.9420394897461
 30
0.0
 11
-571.191243872418
 21
68.9420394897461
 31
0.0
  0
LINE
  5
   478
  8
0
  6
CONTINUOUS
 62
     7
 10
-570.816243872418
 20
-14.5579605102541
 30
0.0
 11
-585.691240984934
 21
-14.5579605102541
 31
0.0
  0
CIRCLE
  5
   479
  8
0
  6
CONTINUOUS
 62
     7
 10
-578.691232949153
 20
-8.30795880657034
 30
0.0
 40
2.74999844531425
  0
CIRCLE
  5
   47A
  8
0
  6
CONTINUOUS
 62
     7
 10
-578.691234646031
 20
-12.5579602571
 30
0.0
 40
0.700000100813335
  0
LINE
  5
   47B
  8
0
  6
DASHDOT
 62
     7
 10
-578.691232949153
 20
-12.5579572518846
 30
0.0
 11
-578.691232949153
 21
-4.05796036125608
 31
0.0
  0
LINE
  5
   47C
  8
0
  6
DASHDOT
 62
     7
 10
-578.691234646031
 20
-14.7579603579134
 30
0.0
 11
-578.691234646031
 21
-10.3579601562867
 31
0.0
  0
LINE
  5
   47D
  8
0
  6
CONTINUOUS
 62
     7
 10
-569.066243872418
 20
-14.5579605102539
 30
0.0
 11
-569.066243872418
 21
-13.4329547882099
 31
0.0
  0
LINE
  5
   47E
  8
0
  6
CONTINUOUS
 62
     7
 10
-570.816243872418
 20
-14.5579605102539
 30
0.0
 11
-570.816243872418
 21
-13.4329547882099
 31
0.0
  0
LINE
  5
   47F
  8
0
  6
DASHDOT
 62
     7
 10
-578.691243677713
 20
62.7420418835906
 30
0.0
 11
-578.691243677713
 21
74.1420464126379
 31
0.0
  0
LINE
  5
   480
  8
0
  6
DASHDOT
 62
     7
 10
-572.99124141319
 20
68.4420441481142
 30
0.0
 11
-584.391245942237
 21
68.4420441481142
 31
0.0
  0
LINE
  5
   481
  8
0
  6
DASHDOT
 62
     7
 10
-578.691241290523
 20
56.4420342478107
 30
0.0
 11
-578.691241290523
 21
71.9420356301131
 31
0.0
  0
LINE
  5
   482
  8
0
  6
DASHDOT
 62
     7
 10
-570.941240599372
 20
64.1920349389619
 30
0.0
 11
-586.441241981675
 21
64.1920349389619
 31
0.0
  0
LINE
  5
   483
  8
0
  6
DASHDOT
 62
     7
 10
-569.941243872418
 20
55.4420448360082
 30
0.0
 11
-569.941243872418
 21
69.9420379738554
 31
0.0
  0
LINE
  5
   484
  8
0
  6
DASHDOT
 62
     7
 10
-562.691247303495
 20
62.6920414049318
 30
0.0
 11
-577.191240441342
 21
62.6920414049318
 31
0.0
  0
LINE
  5
   485
  8
0
  6
DASHDOT
 62
     7
 10
-570.941234503839
 20
-8.30795880657033
 30
0.0
 11
-586.441231394467
 21
-8.30795880657033
 31
0.0
  0
LINE
  5
   486
  8
0
  6
DASHDOT
 62
     7
 10
-572.991234545218
 20
-12.5579602571
 30
0.0
 11
-584.391234746845
 21
-12.5579602571
 31
0.0
  0
LINE
  5
   487
  8
0
  6
CONTINUOUS
 62
     7
 10
-573.541226315322
 20
-1.68294902948422
 30
0.0
 11
-573.541226315322
 21
58.3170394897461
 31
0.0
  0
LINE
  5
   488
  8
0
  6
CONTINUOUS
 62
     7
 10
-575.341226315322
 20
-1.68294902948422
 30
0.0
 11
-575.341226315322
 21
58.3170394897461
 31
0.0
  0
LINE
  5
   489
  8
0
  6
CONTINUOUS
 62
     7
 10
-577.141226315322
 20
-1.68294902948422
 30
0.0
 11
-577.141226315322
 21
58.3170394897461
 31
0.0
  0
LINE
  5
   48A
  8
0
  6
CONTINUOUS
 62
     7
 10
-578.941226315322
 20
-1.68294902948422
 30
0.0
 11
-578.941226315322
 21
58.3170394897461
 31
0.0
  0
LINE
  5
   48B
  8
0
  6
CONTINUOUS
 62
     7
 10
-580.741226315322
 20
-1.68294902948422
 30
0.0
 11
-580.741226315322
 21
58.3170394897461
 31
0.0
  0
LINE
  5
   48C
  8
0
  6
CONTINUOUS
 62
     7
 10
-582.541226315322
 20
-1.68294902948422
 30
0.0
 11
-582.541226315322
 21
58.3170394897461
 31
0.0
  0
LINE
  5
   48D
  8
0
  6
CONTINUOUS
 62
     7
 10
-584.341226315322
 20
-1.68294902948422
 30
0.0
 11
-584.341226315322
 21
58.3170394897461
 31
0.0
  0
LINE
  5
   48E
  8
0
  6
CONTINUOUS
 62
     7
 10
-586.141226315322
 20
-1.68294902948422
 30
0.0
 11
-586.141226315322
 21
58.3170394897461
 31
0.0
  0
LINE
  5
   48F
  8
0
  6
CONTINUOUS
 62
     7
 10
-572.941226315336
 20
53.0670433044414
 30
0.0
 11
-587.441246607002
 21
53.0670433044414
 31
0.0
  0
LINE
  5
   490
  8
0
  6
CONTINUOUS
 62
     7
 10
-572.941226315336
 20
0.567043304441423
 30
0.0
 11
-587.441246607002
 21
0.567043304441423
 31
0.0
  0
LINE
  5
   491
  8
0
  6
DASHDOT
 62
     5
 10
-501.525354828036
 20
26.8170433044414
 30
0.0
 11
-592.300734413783
 21
26.8170433044414
 31
0.0
  0
LINE
  5
   492
  8
0
  6
CONTINUOUS
 62
     7
 10
-584.191232949153
 20
-28.3079528696397
 30
0.0
 11
-584.191232949153
 21
-14.5579605102541
 31
0.0
  0
LINE
  5
   493
  8
0
  6
CONTINUOUS
 62
     7
 10
-573.191232949153
 20
-28.3079528696397
 30
0.0
 11
-573.191232949153
 21
-14.5579605102541
 31
0.0
  0
LINE
  5
   494
  8
0
  6
CONTINUOUS
 62
     7
 10
-573.191232949153
 20
-28.3079528696397
 30
0.0
 11
-584.191232949153
 21
-28.3079528696397
 31
0.0
  0
CIRCLE
  5
   495
  8
0
  6
CONTINUOUS
 62
     7
 10
-578.691232949153
 20
-18.8079528696397
 30
0.0
 40
4.0
  0
LINE
  5
   496
  8
0
  6
DOT
 62
     7
 10
-582.691234646031
 20
-28.3079528696397
 30
0.0
 11
-582.691234646031
 21
-18.8079528696397
 31
0.0
  0
LINE
  5
   497
  8
0
  6
DOT
 62
     7
 10
-574.691234646031
 20
-28.3079528696397
 30
0.0
 11
-574.691234646031
 21
-18.8079528696397
 31
0.0
  0
LINE
  5
   498
  8
0
  6
DOT
 62
     7
 10
-575.441234646031
 20
-28.3079528696397
 30
0.0
 11
-575.441234646031
 21
-21.1397999979278
 31
0.0
  0
LINE
  5
   499
  8
0
  6
DOT
 62
     7
 10
-581.941234646031
 20
-28.3079528696397
 30
0.0
 11
-581.941234646031
 21
-21.1397952678924
 31
0.0
  0
INSERT
  5
   49A
  8
255
  6
CONTINUOUS
 62
     7
  2
MOSTRINA
 10
-601.110354733304
 20
-28.1732673645039
 30
0.0
 41
0.5
 42
0.5
 50
3.50835464724173E-15
 43
0.5
  0
LINE
  5
   49B
  8
0
  6
CONTINUOUS
 62
     7
 10
-572.941226315336
 20
58.3170394897461
 30
0.0
 11
-587.441246607002
 21
58.3170394897461
 31
0.0
  0
LINE
  5
   49C
  8
0
  6
CONTINUOUS
 62
     1
 10
-517.441226315336
 20
-36.9329605102538
 30
0.0
 11
-517.441226315336
 21
-13.4329547882099
 31
0.0
  0
LINE
  5
   49D
  8
0
  6
CONTINUOUS
 62
     1
 10
-518.066226315336
 20
-37.5579605102538
 30
0.0
 11
-561.99170850586
 21
-37.5579605102538
 31
0.0
  0
ARC
  5
   49E
  8
0
  6
CONTINUOUS
 62
     1
 10
-518.066226315336
 20
-36.9329605102538
 30
0.0
 40
0.625
 50
269.999999948034
 51
359.999999948034
  0
LINE
  5
   49F
  8
0
  6
CONTINUOUS
 62
     1
 10
-519.241226315336
 20
-37.5579605102538
 30
0.0
 11
-519.241226315336
 21
-13.4329547882099
 31
0.0
  0
LINE
  5
   4A0
  8
0
  6
CONTINUOUS
 62
     1
 10
-521.041226315336
 20
-37.5579605102538
 30
0.0
 11
-521.041226315336
 21
-13.4329547882099
 31
0.0
  0
LINE
  5
   4A1
  8
0
  6
CONTINUOUS
 62
     1
 10
-522.841226315336
 20
-37.5579605102538
 30
0.0
 11
-522.841226315336
 21
-13.4329547882099
 31
0.0
  0
LINE
  5
   4A2
  8
0
  6
CONTINUOUS
 62
     1
 10
-524.641226315336
 20
-37.5579605102538
 30
0.0
 11
-524.641226315336
 21
-13.4329547882099
 31
0.0
  0
LINE
  5
   4A3
  8
0
  6
CONTINUOUS
 62
     1
 10
-526.441226315336
 20
-37.5579605102538
 30
0.0
 11
-526.441226315336
 21
-13.4329547882099
 31
0.0
  0
LINE
  5
   4A4
  8
0
  6
CONTINUOUS
 62
     1
 10
-528.241226315336
 20
-37.5579605102538
 30
0.0
 11
-528.241226315336
 21
-13.4329547882099
 31
0.0
  0
LINE
  5
   4A5
  8
0
  6
CONTINUOUS
 62
     1
 10
-530.041226315336
 20
-37.5579605102538
 30
0.0
 11
-530.041226315336
 21
-13.4329547882099
 31
0.0
  0
LINE
  5
   4A6
  8
0
  6
CONTINUOUS
 62
     1
 10
-531.841226315336
 20
-37.5579605102538
 30
0.0
 11
-531.841226315336
 21
-13.4329547882099
 31
0.0
  0
LINE
  5
   4A7
  8
0
  6
CONTINUOUS
 62
     1
 10
-533.641226315336
 20
-37.5579605102538
 30
0.0
 11
-533.641226315336
 21
-13.4329547882099
 31
0.0
  0
LINE
  5
   4A8
  8
0
  6
CONTINUOUS
 62
     1
 10
-535.441226315336
 20
-37.5579605102538
 30
0.0
 11
-535.441226315336
 21
-13.4329547882099
 31
0.0
  0
LINE
  5
   4A9
  8
0
  6
CONTINUOUS
 62
     1
 10
-537.241226315336
 20
-37.5579605102538
 30
0.0
 11
-537.241226315336
 21
-13.4329547882099
 31
0.0
  0
LINE
  5
   4AA
  8
0
  6
CONTINUOUS
 62
     1
 10
-539.041226315336
 20
-37.5579605102538
 30
0.0
 11
-539.041226315336
 21
-13.4329547882099
 31
0.0
  0
LINE
  5
   4AB
  8
0
  6
CONTINUOUS
 62
     1
 10
-540.841226315336
 20
-37.5579605102538
 30
0.0
 11
-540.841226315336
 21
-13.4329547882099
 31
0.0
  0
LINE
  5
   4AC
  8
0
  6
CONTINUOUS
 62
     1
 10
-542.641226315336
 20
-37.5579605102538
 30
0.0
 11
-542.641226315336
 21
-13.4329547882099
 31
0.0
  0
LINE
  5
   4AD
  8
0
  6
CONTINUOUS
 62
     1
 10
-544.441226315336
 20
-37.5579605102538
 30
0.0
 11
-544.441226315336
 21
-13.4329547882099
 31
0.0
  0
LINE
  5
   4AE
  8
0
  6
CONTINUOUS
 62
     1
 10
-546.241226315336
 20
-37.5579605102538
 30
0.0
 11
-546.241226315336
 21
-13.4329547882099
 31
0.0
  0
LINE
  5
   4AF
  8
0
  6
CONTINUOUS
 62
     1
 10
-548.041226315336
 20
-37.5579605102538
 30
0.0
 11
-548.041226315336
 21
-13.4329547882099
 31
0.0
  0
LINE
  5
   4B0
  8
0
  6
CONTINUOUS
 62
     1
 10
-549.841226315336
 20
-37.5579605102538
 30
0.0
 11
-549.841226315336
 21
-13.4329547882099
 31
0.0
  0
LINE
  5
   4B1
  8
0
  6
CONTINUOUS
 62
     1
 10
-551.641226315336
 20
-37.5579605102538
 30
0.0
 11
-551.641226315336
 21
-13.4329547882099
 31
0.0
  0
LINE
  5
   4B2
  8
0
  6
CONTINUOUS
 62
     1
 10
-553.441226315336
 20
-37.5579605102538
 30
0.0
 11
-553.441226315336
 21
-13.4329547882099
 31
0.0
  0
LINE
  5
   4B3
  8
0
  6
CONTINUOUS
 62
     1
 10
-555.241226315336
 20
-37.5579605102538
 30
0.0
 11
-555.241226315336
 21
-13.4329547882099
 31
0.0
  0
LINE
  5
   4B4
  8
0
  6
CONTINUOUS
 62
     1
 10
-557.041226315336
 20
-37.5579605102538
 30
0.0
 11
-557.041226315336
 21
-13.4329547882099
 31
0.0
  0
LINE
  5
   4B5
  8
0
  6
CONTINUOUS
 62
     1
 10
-558.841226315336
 20
-37.5579605102538
 30
0.0
 11
-558.841226315336
 21
-13.4329547882099
 31
0.0
  0
LINE
  5
   4B6
  8
0
  6
CONTINUOUS
 62
     1
 10
-560.641226315336
 20
-37.5579605102538
 30
0.0
 11
-560.641226315336
 21
-13.4329547882099
 31
0.0
  0
POLYLINE
  5
   4B7
  8
0
  6
CONTINUOUS
 62
     1
 66
     1
 10
0.0
 20
0.0
 30
0.0
  0
VERTEX
  5
   4B8
  8
0
  6
CONTINUOUS
 10
-561.99170850586
 20
-37.5578627488701
 30
0.0
 40
0.0
 41
0.0
  0
VERTEX
  5
   4B9
  8
0
  6
CONTINUOUS
 10
-562.105511164583
 20
-37.400210760788
 30
0.0
 40
0.0
 41
0.0
  0
VERTEX
  5
   4BA
  8
0
  6
CONTINUOUS
 10
-562.218351583746
 20
-37.2415509400889
 30
0.0
 40
0.0
 41
0.0
  0
VERTEX
  5
   4BB
  8
0
  6
CONTINUOUS
 10
-562.330206315807
 20
-37.0818797880071
 30
0.0
 40
0.0
 41
0.0
  0
VERTEX
  5
   4BC
  8
0
  6
CONTINUOUS
 10
-562.441039735619
 20
-36.9211919886748
 30
0.0
 40
0.0
 41
0.0
  0
VERTEX
  5
   4BD
  8
0
  6
CONTINUOUS
 10
-562.550801474333
 20
-36.7594800262166
 30
0.0
 40
0.0
 41
0.0
  0
VERTEX
  5
   4BE
  8
0
  6
CONTINUOUS
 10
-562.659423853297
 20
-36.5967338018446
 30
0.0
 40
0.0
 41
0.0
  0
VERTEX
  5
   4BF
  8
0
  6
CONTINUOUS
 10
-562.766819317953
 20
-36.4329402509537
 30
0.0
 40
0.0
 41
0.0
  0
VERTEX
  5
   4C0
  8
0
  6
CONTINUOUS
 10
-562.872877871736
 20
-36.2680829602155
 30
0.0
 40
0.0
 41
0.0
  0
VERTEX
  5
   4C1
  8
0
  6
CONTINUOUS
 10
-562.977464509979
 20
-36.1021417846739
 30
0.0
 40
0.0
 41
0.0
  0
VERTEX
  5
   4C2
  8
0
  6
CONTINUOUS
 10
-563.080416653806
 20
-35.9350924648399
 30
0.0
 40
0.0
 41
0.0
  0
VERTEX
  5
   4C3
  8
0
  6
CONTINUOUS
 10
-563.211385138077
 20
-35.7164025726472
 30
0.0
 40
0.0
 41
0.0
  0
VERTEX
  5
   4C4
  8
0
  6
CONTINUOUS
 10
-563.275560048968
 20
-35.6063155116795
 30
0.0
 40
0.0
 41
0.0
  0
VERTEX
  5
   4C5
  8
0
  6
CONTINUOUS
 10
-563.338772162349
 20
-35.495720489526
 30
0.0
 40
0.0
 41
0.0
  0
VERTEX
  5
   4C6
  8
0
  6
CONTINUOUS
 10
-563.400950286612
 20
-35.3846072209468
 30
0.0
 40
0.0
 41
0.0
  0
VERTEX
  5
   4C7
  8
0
  6
CONTINUOUS
 10
-563.462021428038
 20
-35.2729653679504
 30
0.0
 40
0.0
 41
0.0
  0
VERTEX
  5
   4C8
  8
0
  6
CONTINUOUS
 10
-563.521911795108
 20
-35.1607847436916
 30
0.0
 40
0.0
 41
0.0
  0
VERTEX
  5
   4C9
  8
0
  6
CONTINUOUS
 10
-563.580547802805
 20
-35.0480555163691
 30
0.0
 40
0.0
 41
0.0
  0
VERTEX
  5
   4CA
  8
0
  6
CONTINUOUS
 10
-563.637857076926
 20
-34.9347684131231
 30
0.0
 40
0.0
 41
0.0
  0
VERTEX
  5
   4CB
  8
0
  6
CONTINUOUS
 10
-563.693769458383
 20
-34.8209149239332
 30
0.0
 40
0.0
 41
0.0
  0
VERTEX
  5
   4CC
  8
0
  6
CONTINUOUS
 10
-563.748218007515
 20
-34.7064875055162
 30
0.0
 40
0.0
 41
0.0
  0
VERTEX
  5
   4CD
  8
0
  6
CONTINUOUS
 10
-563.801140008392
 20
-34.5914797852237
 30
0.0
 40
0.0
 41
0.0
  0
VERTEX
  5
   4CE
  8
0
  6
CONTINUOUS
 10
-563.852477973125
 20
-34.4758867649398
 30
0.0
 40
0.0
 41
0.0
  0
VERTEX
  5
   4CF
  8
0
  6
CONTINUOUS
 10
-563.90218064617
 20
-34.359705024979
 30
0.0
 40
0.0
 41
0.0
  0
VERTEX
  5
   4D0
  8
0
  6
CONTINUOUS
 10
-563.950204008634
 20
-34.2429329279839
 30
0.0
 40
0.0
 41
0.0
  0
VERTEX
  5
   4D1
  8
0
  6
CONTINUOUS
 10
-563.996512282586
 20
-34.1255708228227
 30
0.0
 40
0.0
 41
0.0
  0
VERTEX
  5
   4D2
  8
0
  6
CONTINUOUS
 10
-564.041078935362
 20
-34.0076212484873
 30
0.0
 40
0.0
 41
0.0
  0
VERTEX
  5
   4D3
  8
0
  6
CONTINUOUS
 10
-564.083887683871
 20
-33.8890891379909
 30
0.0
 40
0.0
 41
0.0
  0
VERTEX
  5
   4D4
  8
0
  6
CONTINUOUS
 10
-564.124933498902
 20
-33.7699820222654
 30
0.0
 40
0.0
 41
0.0
  0
VERTEX
  5
   4D5
  8
0
  6
CONTINUOUS
 10
-564.164223609432
 20
-33.6503102340599
 30
0.0
 40
0.0
 41
0.0
  0
VERTEX
  5
   4D6
  8
0
  6
CONTINUOUS
 10
-564.213928239596
 20
-33.4898544531267
 30
0.0
 40
0.0
 41
0.0
  0
VERTEX
  5
   4D7
  8
0
  6
CONTINUOUS
 10
-564.260634582999
 20
-33.3284585531407
 30
0.0
 40
0.0
 41
0.0
  0
VERTEX
  5
   4D8
  8
0
  6
CONTINUOUS
 10
-564.30446961032
 20
-33.1661717239403
 30
0.0
 40
0.0
 41
0.0
  0
VERTEX
  5
   4D9
  8
0
  6
CONTINUOUS
 10
-564.345596366434
 20
-33.0030511229822
 30
0.0
 40
0.0
 41
0.0
  0
VERTEX
  5
   4DA
  8
0
  6
CONTINUOUS
 10
-564.384209440855
 20
-32.8391607823132
 30
0.0
 40
0.0
 41
0.0
  0
VERTEX
  5
   4DB
  8
0
  6
CONTINUOUS
 10
-564.420530438169
 20
-32.6745705155413
 30
0.0
 40
0.0
 41
0.0
  0
VERTEX
  5
   4DC
  8
0
  6
CONTINUOUS
 10
-564.454803448472
 20
-32.5093548248073
 30
0.0
 40
0.0
 41
0.0
  0
VERTEX
  5
   4DD
  8
0
  6
CONTINUOUS
 10
-564.487290517804
 20
-32.3435918077563
 30
0.0
 40
0.0
 41
0.0
  0
VERTEX
  5
   4DE
  8
0
  6
CONTINUOUS
 10
-564.518267118592
 20
-32.1773620645087
 30
0.0
 40
0.0
 41
0.0
  0
VERTEX
  5
   4DF
  8
0
  6
CONTINUOUS
 10
-564.548017620077
 20
-32.0107476046319
 30
0.0
 40
0.0
 41
0.0
  0
VERTEX
  5
   4E0
  8
0
  6
CONTINUOUS
 10
-564.604995108832
 20
-31.6766930623241
 30
0.0
 40
0.0
 41
0.0
  0
VERTEX
  5
   4E1
  8
0
  6
CONTINUOUS
 10
-564.716676770536
 20
-31.0074764790464
 30
0.0
 40
0.0
 41
0.0
  0
VERTEX
  5
   4E2
  8
0
  6
CONTINUOUS
 10
-564.775354902448
 20
-30.6734227139075
 30
0.0
 40
0.0
 41
0.0
  0
VERTEX
  5
   4E3
  8
0
  6
CONTINUOUS
 10
-564.806092967461
 20
-30.5067277444943
 30
0.0
 40
0.0
 41
0.0
  0
VERTEX
  5
   4E4
  8
0
  6
CONTINUOUS
 10
-564.837941446714
 20
-30.340305207417
 30
0.0
 40
0.0
 41
0.0
  0
VERTEX
  5
   4E5
  8
0
  6
CONTINUOUS
 10
-564.869094057993
 20
-30.1835091108006
 30
0.0
 40
0.0
 41
0.0
  0
VERTEX
  5
   4E6
  8
0
  6
CONTINUOUS
 10
-564.901344882358
 20
-30.0269905651583
 30
0.0
 40
0.0
 41
0.0
  0
VERTEX
  5
   4E7
  8
0
  6
CONTINUOUS
 10
-564.934695334713
 20
-29.870753223485
 30
0.0
 40
0.0
 41
0.0
  0
VERTEX
  5
   4E8
  8
0
  6
CONTINUOUS
 10
-564.96911661456
 20
-29.7147929636187
 30
0.0
 40
0.0
 41
0.0
  0
VERTEX
  5
   4E9
  8
0
  6
CONTINUOUS
 10
-565.040922935724
 20
-29.4036528655114
 30
0.0
 40
0.0
 41
0.0
  0
VERTEX
  5
   4EA
  8
0
  6
CONTINUOUS
 10
-565.116040334571
 20
-29.0934105477613
 30
0.0
 40
0.0
 41
0.0
  0
VERTEX
  5
   4EB
  8
0
  6
CONTINUOUS
 10
-565.193449138913
 20
-28.783830318222
 30
0.0
 40
0.0
 41
0.0
  0
VERTEX
  5
   4EC
  8
0
  6
CONTINUOUS
 10
-565.350143327509
 20
-28.165478810138
 30
0.0
 40
0.0
 41
0.0
  0
VERTEX
  5
   4ED
  8
0
  6
CONTINUOUS
 10
-565.426751347905
 20
-27.856074252399
 30
0.0
 40
0.0
 41
0.0
  0
VERTEX
  5
   4EE
  8
0
  6
CONTINUOUS
 10
-565.500483331648
 20
-27.5461136579169
 30
0.0
 40
0.0
 41
0.0
  0
VERTEX
  5
   4EF
  8
0
  6
CONTINUOUS
 10
-565.535919079978
 20
-27.3908435828278
 30
0.0
 40
0.0
 41
0.0
  0
VERTEX
  5
   4F0
  8
0
  6
CONTINUOUS
 10
-565.570243443759
 20
-27.2353447399468
 30
0.0
 40
0.0
 41
0.0
  0
VERTEX
  5
   4F1
  8
0
  6
CONTINUOUS
 10
-565.604309397245
 20
-27.0750467015731
 30
0.0
 40
0.0
 41
0.0
  0
VERTEX
  5
   4F2
  8
0
  6
CONTINUOUS
 10
-565.637018266428
 20
-26.9144684223654
 30
0.0
 40
0.0
 41
0.0
  0
VERTEX
  5
   4F3
  8
0
  6
CONTINUOUS
 10
-565.668313926194
 20
-26.7535997438642
 30
0.0
 40
0.0
 41
0.0
  0
VERTEX
  5
   4F4
  8
0
  6
CONTINUOUS
 10
-565.698162099826
 20
-26.5924360818097
 30
0.0
 40
0.0
 41
0.0
  0
VERTEX
  5
   4F5
  8
0
  6
CONTINUOUS
 10
-565.726548684292
 20
-26.4309779333207
 30
0.0
 40
0.0
 41
0.0
  0
VERTEX
  5
   4F6
  8
0
  6
CONTINUOUS
 10
-565.753478075537
 20
-26.2692303840743
 30
0.0
 40
0.0
 41
0.0
  0
VERTEX
  5
   4F7
  8
0
  6
CONTINUOUS
 10
-565.778971493773
 20
-26.1072026154843
 30
0.0
 40
0.0
 41
0.0
  0
VERTEX
  5
   4F8
  8
0
  6
CONTINUOUS
 10
-565.803065308765
 20
-25.9449074118811
 30
0.0
 40
0.0
 41
0.0
  0
VERTEX
  5
   4F9
  8
0
  6
CONTINUOUS
 10
-565.825809365128
 20
-25.7823606676902
 30
0.0
 40
0.0
 41
0.0
  0
VERTEX
  5
   4FA
  8
0
  6
CONTINUOUS
 10
-565.847265307611
 20
-25.619580894612
 30
0.0
 40
0.0
 41
0.0
  0
VERTEX
  5
   4FB
  8
0
  6
CONTINUOUS
 10
-565.867504906389
 20
-25.4565887288003
 30
0.0
 40
0.0
 41
0.0
  0
VERTEX
  5
   4FC
  8
0
  6
CONTINUOUS
 10
-565.886608382355
 20
-25.2934064380421
 30
0.0
 40
0.0
 41
0.0
  0
VERTEX
  5
   4FD
  8
0
  6
CONTINUOUS
 10
-565.921760054741
 20
-24.9665657540728
 30
0.0
 40
0.0
 41
0.0
  0
VERTEX
  5
   4FE
  8
0
  6
CONTINUOUS
 10
-565.953467467252
 20
-24.6392508904645
 30
0.0
 40
0.0
 41
0.0
  0
VERTEX
  5
   4FF
  8
0
  6
CONTINUOUS
 10
-565.982505792396
 20
-24.3116484605701
 30
0.0
 40
0.0
 41
0.0
  0
VERTEX
  5
   500
  8
0
  6
CONTINUOUS
 10
-566.009624641985
 20
-23.9839238730675
 30
0.0
 40
0.0
 41
0.0
  0
VERTEX
  5
   501
  8
0
  6
CONTINUOUS
 10
-566.054971146083
 20
-23.4032407032827
 30
0.0
 40
0.0
 41
0.0
  0
VERTEX
  5
   502
  8
0
  6
CONTINUOUS
 10
-566.144382241737
 20
-22.2430135406018
 30
0.0
 40
0.0
 41
0.0
  0
VERTEX
  5
   503
  8
0
  6
CONTINUOUS
 10
-566.192085914427
 20
-21.6634002275062
 30
0.0
 40
0.0
 41
0.0
  0
VERTEX
  5
   504
  8
0
  6
CONTINUOUS
 10
-566.21738667967
 20
-21.373674816521
 30
0.0
 40
0.0
 41
0.0
  0
VERTEX
  5
   505
  8
0
  6
CONTINUOUS
 10
-566.24396128104
 20
-21.0840079647698
 30
0.0
 40
0.0
 41
0.0
  0
VERTEX
  5
   506
  8
0
  6
CONTINUOUS
 10
-566.2732155179
 20
-20.7832199891055
 30
0.0
 40
0.0
 41
0.0
  0
VERTEX
  5
   507
  8
0
  6
CONTINUOUS
 10
-566.304521627009
 20
-20.4825792300838
 30
0.0
 40
0.0
 41
0.0
  0
VERTEX
  5
   508
  8
0
  6
CONTINUOUS
 10
-566.338304017352
 20
-20.1821670099263
 30
0.0
 40
0.0
 41
0.0
  0
VERTEX
  5
   509
  8
0
  6
CONTINUOUS
 10
-566.375022736608
 20
-19.8820866884869
 30
0.0
 40
0.0
 41
0.0
  0
VERTEX
  5
   50A
  8
0
  6
CONTINUOUS
 10
-566.415157960735
 20
-19.5824599977378
 30
0.0
 40
0.0
 41
0.0
  0
VERTEX
  5
   50B
  8
0
  6
CONTINUOUS
 10
-566.43665850392
 20
-19.4328589266793
 30
0.0
 40
0.0
 41
0.0
  0
VERTEX
  5
   50C
  8
0
  6
CONTINUOUS
 10
-566.459194483545
 20
-19.283423376255
 30
0.0
 40
0.0
 41
0.0
  0
VERTEX
  5
   50D
  8
0
  6
CONTINUOUS
 10
-566.4828246757
 20
-19.1341720978203
 30
0.0
 40
0.0
 41
0.0
  0
VERTEX
  5
   50E
  8
0
  6
CONTINUOUS
 10
-566.507606206285
 20
-18.9851243037038
 30
0.0
 40
0.0
 41
0.0
  0
VERTEX
  5
   50F
  8
0
  6
CONTINUOUS
 10
-566.533594066316
 20
-18.8362995526605
 30
0.0
 40
0.0
 41
0.0
  0
VERTEX
  5
   510
  8
0
  6
CONTINUOUS
 10
-566.560840627218
 20
-18.6877176353241
 30
0.0
 40
0.0
 41
0.0
  0
VERTEX
  5
   511
  8
0
  6
CONTINUOUS
 10
-566.58939515613
 20
-18.5393984596596
 30
0.0
 40
0.0
 41
0.0
  0
VERTEX
  5
   512
  8
0
  6
CONTINUOUS
 10
-566.619303331201
 20
-18.3913619364163
 30
0.0
 40
0.0
 41
0.0
  0
VERTEX
  5
   513
  8
0
  6
CONTINUOUS
 10
-566.65060675689
 20
-18.2436278645802
 30
0.0
 40
0.0
 41
0.0
  0
VERTEX
  5
   514
  8
0
  6
CONTINUOUS
 10
-566.683342479267
 20
-18.0962158168267
 30
0.0
 40
0.0
 41
0.0
  0
VERTEX
  5
   515
  8
0
  6
CONTINUOUS
 10
-566.717677220791
 20
-17.9485787271028
 30
0.0
 40
0.0
 41
0.0
  0
VERTEX
  5
   516
  8
0
  6
CONTINUOUS
 10
-566.753514440432
 20
-17.8013044978002
 30
0.0
 40
0.0
 41
0.0
  0
VERTEX
  5
   517
  8
0
  6
CONTINUOUS
 10
-566.790875297425
 20
-17.6544114192424
 30
0.0
 40
0.0
 41
0.0
  0
VERTEX
  5
   518
  8
0
  6
CONTINUOUS
 10
-566.829775142903
 20
-17.5079168877673
 30
0.0
 40
0.0
 41
0.0
  0
VERTEX
  5
   519
  8
0
  6
CONTINUOUS
 10
-566.870223422616
 20
-17.3618371899682
 30
0.0
 40
0.0
 41
0.0
  0
VERTEX
  5
   51A
  8
0
  6
CONTINUOUS
 10
-566.912223579641
 20
-17.2161872869353
 30
0.0
 40
0.0
 41
0.0
  0
VERTEX
  5
   51B
  8
0
  6
CONTINUOUS
 10
-566.955772957098
 20
-17.0709805984973
 30
0.0
 40
0.0
 41
0.0
  0
VERTEX
  5
   51C
  8
0
  6
CONTINUOUS
 10
-567.000862700865
 20
-16.9262287874625
 30
0.0
 40
0.0
 41
0.0
  0
VERTEX
  5
   51D
  8
0
  6
CONTINUOUS
 10
-567.047477662287
 20
-16.7819415438605
 30
0.0
 40
0.0
 41
0.0
  0
VERTEX
  5
   51E
  8
0
  6
CONTINUOUS
 10
-567.095596300899
 20
-16.6381263691831
 30
0.0
 40
0.0
 41
0.0
  0
VERTEX
  5
   51F
  8
0
  6
CONTINUOUS
 10
-567.145190587131
 20
-16.4947883606262
 30
0.0
 40
0.0
 41
0.0
  0
VERTEX
  5
   520
  8
0
  6
CONTINUOUS
 10
-567.196225905028
 20
-16.3519299953309
 30
0.0
 40
0.0
 41
0.0
  0
VERTEX
  5
   521
  8
0
  6
CONTINUOUS
 10
-567.248660954961
 20
-16.2095509146248
 30
0.0
 40
0.0
 41
0.0
  0
VERTEX
  5
   522
  8
0
  6
CONTINUOUS
 10
-567.302447656344
 20
-16.0676477082635
 30
0.0
 40
0.0
 41
0.0
  0
VERTEX
  5
   523
  8
0
  6
CONTINUOUS
 10
-567.357531050344
 20
-15.9262136986722
 30
0.0
 40
0.0
 41
0.0
  0
VERTEX
  5
   524
  8
0
  6
CONTINUOUS
 10
-567.4138492026
 20
-15.7852387251866
 30
0.0
 40
0.0
 41
0.0
  0
VERTEX
  5
   525
  8
0
  6
CONTINUOUS
 10
-567.471333105934
 20
-15.6447089282946
 30
0.0
 40
0.0
 41
0.0
  0
VERTEX
  5
   526
  8
0
  6
CONTINUOUS
 10
-567.529906583064
 20
-15.5046065338778
 30
0.0
 40
0.0
 41
0.0
  0
VERTEX
  5
   527
  8
0
  6
CONTINUOUS
 10
-567.649981115366
 20
-15.2255919884109
 30
0.0
 40
0.0
 41
0.0
  0
VERTEX
  5
   528
  8
0
  6
CONTINUOUS
 10
-567.729741127173
 20
-15.0451949512379
 30
0.0
 40
0.0
 41
0.0
  0
VERTEX
  5
   529
  8
0
  6
CONTINUOUS
 10
-567.810645496502
 20
-14.8653063300175
 30
0.0
 40
0.0
 41
0.0
  0
VERTEX
  5
   52A
  8
0
  6
CONTINUOUS
 10
-567.974885000646
 20
-14.5066886003883
 30
0.0
 40
0.0
 41
0.0
  0
VERTEX
  5
   52B
  8
0
  6
CONTINUOUS
 10
-568.305869968906
 20
-13.7912428431477
 30
0.0
 40
0.0
 41
0.0
  0
VERTEX
  5
   52C
  8
0
  6
CONTINUOUS
 10
-568.46879193101
 20
-13.4328044360057
 30
0.0
 40
0.0
 41
0.0
  0
SEQEND
  5
   52D
  8
0
  6
CONTINUOUS
 62
     1
  0
LINE
  5
   52E
  8
0
  6
CONTINUOUS
 62
     1
 10
-562.441226315336
 20
-36.9209193253372
 30
0.0
 11
-562.441226315336
 21
-13.4329547882099
 31
0.0
  0
LINE
  5
   52F
  8
0
  6
CONTINUOUS
 62
     1
 10
-564.241226315336
 20
-33.3968759103032
 30
0.0
 11
-564.241226315336
 21
-13.4329547882099
 31
0.0
  0
LINE
  5
   530
  8
0
  6
CONTINUOUS
 62
     1
 10
-566.041226315336
 20
-23.5821793886467
 30
0.0
 11
-566.041226315336
 21
-13.4329547882099
 31
0.0
  0
LINE
  5
   531
  8
0
  6
CONTINUOUS
 62
     1
 10
-567.841226315336
 20
-14.7979679239418
 30
0.0
 11
-567.841226315336
 21
-13.4329547882099
 31
0.0
  0
LINE
  5
   532
  8
0
  6
CONTINUOUS
 62
     7
 10
-567.951228710748
 20
-14.5579605102541
 30
0.0
 11
-569.066243872418
 21
-14.5579605102541
 31
0.0
  0
CIRCLE
  5
   533
  8
0
  6
CONTINUOUS
 62
     7
 10
-515.74695740924
 20
64.6709439523991
 30
0.0
 40
0.1
  0
LINE
  5
   534
  8
0
  6
CONTINUOUS
 62
     7
 10
-517.441226315336
 20
67.0670433044414
 30
0.0
 11
-517.441226315336
 21
69.0420379638672
 31
0.0
  0
TEXT
  5
   535
  8
0
  6
CONTINUOUS
 62
     7
 10
-500.612533570332
 20
5.96537035567802
 30
0.0
 40
3.00000002980232
  1
=
 50
89.9999999480344
 41
0.916666604744064
 72
     2
 11
-500.61253356834
 21
8.1653702245478
 31
0.0
  0
TEXT
  5
   536
  8
0
  6
CONTINUOUS
 62
     7
 10
-500.895454407735
 20
43.5944063053851
 30
0.0
 40
3.00000002980232
  1
=
 50
89.9999999480344
 41
0.916666604744064
 72
     2
 11
-500.895454405742
 21
45.7944061742548
 31
0.0
  0
TEXT
  5
   537
  8
0
  6
CONTINUOUS
 62
     7
 10
-561.898046414912
 20
102.957291397307
 30
0.0
 40
3.00000002980232
  1
=          =
 50
359.999999948034
 41
0.916666604744064
 72
     2
 11
-529.448048288981
 21
102.957291368039
 31
0.0
  0
INSERT
  5
   538
  8
0
  6
CONTINUOUS
 62
     7
  2
*UDIM1431
 10
0.0
 20
0.0
 30
0.0
  0
INSERT
  5
   539
  8
0
  6
CONTINUOUS
 62
     7
  2
*UDIM1432
 10
0.0
 20
0.0
 30
0.0
  0
INSERT
  5
   53A
  8
0
  6
CONTINUOUS
 62
     7
  2
*UDIM1433
 10
0.0
 20
0.0
 30
0.0
  0
INSERT
  5
   53B
  8
0
  6
CONTINUOUS
 62
     7
  2
*UDIM1434
 10
0.0
 20
0.0
 30
0.0
  0
TEXT
  5
   53C
  8
0
  6
CONTINUOUS
 62
     7
 10
-561.155202786982
 20
94.3876884309981
 30
0.0
 40
3.00000002980232
  1
=          =
 50
359.999999948034
 41
0.916666604744064
 72
     2
 11
-528.705204661051
 21
94.3876884017299
 31
0.0
  0
INSERT
  5
   53D
  8
0
  6
CONTINUOUS
 62
     7
  2
*UDIM1435
 10
0.0
 20
0.0
 30
0.0
  0
INSERT
  5
   53E
  8
0
  6
CONTINUOUS
 62
     7
  2
*UDIM1436
 10
0.0
 20
0.0
 30
0.0
  0
INSERT
  5
   53F
  8
0
  6
CONTINUOUS
 62
     7
  2
*UDIM1437
 10
0.0
 20
0.0
 30
0.0
  0
INSERT
  5
   540
  8
0
  6
CONTINUOUS
 62
     7
  2
*UDIM1438
 10
0.0
 20
0.0
 30
0.0
  0
INSERT
  5
   541
  8
0
  6
CONTINUOUS
 62
     7
  2
*UDIM1439
 10
0.0
 20
0.0
 30
0.0
  0
INSERT
  5
   542
  8
0
  6
CONTINUOUS
 62
     7
  2
*UDIM1440
 10
0.0
 20
0.0
 30
0.0
  0
INSERT
  5
   543
  8
0
  6
CONTINUOUS
 62
     7
  2
*UDIM1441
 10
0.0
 20
0.0
 30
0.0
  0
TEXT
  5
   544
  8
0
  6
CONTINUOUS
 62
     7
 10
-545.087232906984
 20
118.123307829292
 30
0.0
 40
3.00000002980232
  1
Y
 50
359.999999948034
 41
0.916666604744064
 72
     2
 11
-542.887233038115
 21
118.123307827308
 31
0.0
  0
TEXT
  5
   545
  8
0
  6
CONTINUOUS
 62
     7
 10
-619.221239407229
 20
26.2073379806592
 30
0.0
 40
3.00000002980232
  1
X
 50
359.999999948034
 41
0.916666604744064
 72
     2
 11
-617.021239538359
 21
26.2073379786749
 31
0.0
  0
TEXT
  5
   546
  8
0
  6
CONTINUOUS
 62
     7
 10
-544.715980465571
 20
-46.7248306081691
 30
0.0
 40
3.00000002980232
  1
Y
 50
359.999999948034
 41
0.916666604744064
 72
     2
 11
-542.515980596701
 21
-46.7248306101533
 31
0.0
  0
LINE
  5
   547
  8
0
  6
CONTINUOUS
 62
     7
 10
-311.819000244141
 20
83.6348266601563
 30
0.0
 11
-311.819000244141
 21
55.6348266601563
 31
0.0
  0
LINE
  5
   548
  8
0
  6
CONTINUOUS
 62
     7
 10
-283.819000244141
 20
83.6348266601563
 30
0.0
 11
-283.819000244141
 21
55.6348266601563
 31
0.0
  0
LINE
  5
   549
  8
0
  6
DASHDOT
 62
     7
 10
-318.798516483659
 20
69.6348266601563
 30
0.0
 11
-265.407530883592
 21
69.6348266601563
 31
0.0
  0
LINE
  5
   54A
  8
0
  6
DASHDOT
 62
     7
 10
-297.819000244141
 20
101.54379432891
 30
0.0
 11
-297.819000244141
 21
44.7005735484129
 31
0.0
  0
LINE
  5
   54B
  8
0
  6
CONTINUOUS
 62
     3
 10
-315.783495913555
 20
89.1721269574475
 30
0.0
 11
-279.98012664357
 21
89.1721269574475
 31
0.0
  0
LINE
  5
   54C
  8
0
  6
CONTINUOUS
 62
     3
 10
-315.783495913555
 20
47.9668458326923
 30
0.0
 11
-279.98012664357
 21
47.9668458326923
 31
0.0
  0
LINE
  5
   54D
  8
0
  6
CONTINUOUS
 62
     3
 10
-279.98012664357
 20
89.1721269574475
 30
0.0
 11
-279.98012664357
 21
47.9668458326923
 31
0.0
  0
LINE
  5
   54E
  8
0
  6
CONTINUOUS
 62
     3
 10
-315.783495913555
 20
89.1721269574475
 30
0.0
 11
-315.783495913555
 21
47.9668458326923
 31
0.0
  0
LINE
  5
   54F
  8
0
  6
DASHDOT
 62
     7
 10
-287.819000244141
 20
88.4473266601563
 30
0.0
 11
-287.819000244141
 21
85.1973266601563
 31
0.0
  0
LINE
  5
   550
  8
0
  6
DASHDOT
 62
     7
 10
-307.819000244141
 20
88.4473266601563
 30
0.0
 11
-307.819000244141
 21
85.1973266601563
 31
0.0
  0
CIRCLE
  5
   551
  8
0
  6
CONTINUOUS
 62
     7
 10
-314.150363433608
 20
87.8505759063539
 30
0.0
 40
0.0625
  0
LINE
  5
   552
  8
0
  6
CONTINUOUS
 62
     5
 10
-311.819000244141
 20
83.6348266601563
 30
0.0
 11
-283.819000244141
 21
83.6348266601563
 31
0.0
  0
LINE
  5
   553
  8
0
  6
CONTINUOUS
 62
     5
 10
-311.819000244141
 20
55.6348266601563
 30
0.0
 11
-283.819000244141
 21
55.6348266601563
 31
0.0
  0
CIRCLE
  5
   554
  8
0
  6
CONTINUOUS
 62
     5
 10
-287.819000244141
 20
87.3848266601563
 30
0.0
 40
0.875
  0
CIRCLE
  5
   555
  8
0
  6
CONTINUOUS
 62
     5
 10
-307.819000244141
 20
87.3848266601563
 30
0.0
 40
0.875
  0
CIRCLE
  5
   556
  8
0
  6
CONTINUOUS
 62
     5
 10
-287.819000244141
 20
51.8848266601563
 30
0.0
 40
0.875
  0
CIRCLE
  5
   557
  8
0
  6
CONTINUOUS
 62
     5
 10
-307.819000244141
 20
51.8848266601563
 30
0.0
 40
0.875
  0
LINE
  5
   558
  8
0
  6
DASHDOT
 62
     5
 10
-287.819000244141
 20
89.5098266601562
 30
0.0
 11
-287.819000244141
 21
85.2598266601563
 31
0.0
  0
LINE
  5
   559
  8
0
  6
DASHDOT
 62
     5
 10
-289.944000244141
 20
87.3848266601563
 30
0.0
 11
-285.694000244141
 21
87.3848266601563
 31
0.0
  0
LINE
  5
   55A
  8
0
  6
DASHDOT
 62
     5
 10
-307.819000244141
 20
89.5098266601562
 30
0.0
 11
-307.819000244141
 21
85.2598266601563
 31
0.0
  0
LINE
  5
   55B
  8
0
  6
DASHDOT
 62
     5
 10
-309.944000244141
 20
87.3848266601563
 30
0.0
 11
-305.694000244141
 21
87.3848266601563
 31
0.0
  0
LINE
  5
   55C
  8
0
  6
DASHDOT
 62
     5
 10
-307.819000244141
 20
54.0098266601563
 30
0.0
 11
-307.819000244141
 21
49.7598266601563
 31
0.0
  0
LINE
  5
   55D
  8
0
  6
DASHDOT
 62
     5
 10
-309.944000244141
 20
51.8848266601563
 30
0.0
 11
-305.694000244141
 21
51.8848266601563
 31
0.0
  0
LINE
  5
   55E
  8
0
  6
DASHDOT
 62
     5
 10
-287.819000244141
 20
54.0098266601563
 30
0.0
 11
-287.819000244141
 21
49.7598266601563
 31
0.0
  0
LINE
  5
   55F
  8
0
  6
DASHDOT
 62
     5
 10
-289.944000244141
 20
51.8848266601563
 30
0.0
 11
-285.694000244141
 21
51.8848266601563
 31
0.0
  0
TEXT
  5
   560
  8
0
  6
CONTINUOUS
 62
     7
 10
-317.596882881261
 20
58.3728518331101
 30
0.0
 40
3.00000002980232
  1
=      =
 50
449.999999844103
 41
0.916666604744064
 72
     2
 11
-317.596882823032
 21
79.8228505928368
 31
0.0
  0
TEXT
  5
   561
  8
0
  6
CONTINUOUS
 62
     7
 10
-325.30910593424
 20
58.3728518331101
 30
0.0
 40
3.00000002980232
  1
=      =
 50
449.999999844103
 41
0.916666604744064
 72
     2
 11
-325.309105876011
 21
79.8228505928368
 31
0.0
  0
INSERT
  5
   562
  8
0
  6
CONTINUOUS
 62
     7
  2
*UDIM1442
 10
0.0
 20
0.0
 30
0.0
  0
INSERT
  5
   563
  8
0
  6
CONTINUOUS
 62
     7
  2
*UDIM1443
 10
0.0
 20
0.0
 30
0.0
  0
INSERT
  5
   564
  8
0
  6
CONTINUOUS
 62
     7
  2
*UDIM1444
 10
0.0
 20
0.0
 30
0.0
  0
INSERT
  5
   565
  8
0
  6
CONTINUOUS
 62
     7
  2
*UDIM1445
 10
0.0
 20
0.0
 30
0.0
  0
TEXT
  5
   566
  8
0
  6
CONTINUOUS
 62
     7
 10
-298.307736526035
 20
28.0526694560102
 30
0.0
 40
3.00000002980232
  1
Y
 50
359.999999844103
 41
0.916666604744064
 72
     2
 11
-296.107736657165
 21
28.0526694500352
 31
0.0
  0
TEXT
  5
   567
  8
0
  6
CONTINUOUS
 62
     7
 10
-299.061491618656
 20
110.086353232866
 30
0.0
 40
3.00000002980232
  1
Y
 50
359.999999844103
 41
0.916666604744064
 72
     2
 11
-296.861491749786
 21
110.086353226891
 31
0.0
  0
TEXT
  5
   568
  8
0
  6
CONTINUOUS
 62
     7
 10
-256.474326978229
 20
68.3785679841092
 30
0.0
 40
3.00000002980232
  1
X
 50
359.999999844103
 41
0.916666604744064
 72
     2
 11
-254.27432710936
 21
68.3785679781343
 31
0.0
  0
TEXT
  5
   569
  8
0
  6
CONTINUOUS
 62
     7
 10
-342.025535474323
 20
68.1273162865689
 30
0.0
 40
3.00000002980232
  1
X
 50
359.999999844103
 41
0.916666604744064
 72
     2
 11
-339.825535605453
 21
68.127316280594
 31
0.0
  0
LINE
  5
   56A
  8
0
  6
CONTINUOUS
 62
     7
 10
-426.78152513504
 20
-3.30795668433696
 30
0.0
 11
-426.78152513504
 21
-1.31635329461439
 31
0.0
  0
LINE
  5
   56B
  8
0
  6
DASHDOT
 62
   218
 10
-435.078776131771
 20
62.692043315663
 30
0.0
 11
-448.715955346257
 21
62.692043315663
 31
0.0
  0
LINE
  5
   56C
  8
0
  6
CONTINUOUS
 62
     7
 10
-442.781524658203
 20
60.692043315663
 30
0.0
 11
-442.781524658203
 21
64.692043315663
 31
0.0
  0
LINE
  5
   56D
  8
0
  6
CONTINUOUS
 62
     7
 10
-444.781524658203
 20
61.442043315663
 30
0.0
 11
-444.781524658203
 21
63.942043315663
 31
0.0
  0
LINE
  5
   56E
  8
0
  6
CONTINUOUS
 62
     7
 10
-440.781524658203
 20
60.692043315663
 30
0.0
 11
-442.781524658203
 21
60.692043315663
 31
0.0
  0
LINE
  5
   56F
  8
0
  6
CONTINUOUS
 62
     7
 10
-440.781524658203
 20
64.692043315663
 30
0.0
 11
-442.781524658203
 21
64.692043315663
 31
0.0
  0
LINE
  5
   570
  8
0
  6
CONTINUOUS
 62
     7
 10
-440.781524658203
 20
61.442043315663
 30
0.0
 11
-444.781524658203
 21
61.442043315663
 31
0.0
  0
LINE
  5
   571
  8
0
  6
CONTINUOUS
 62
     7
 10
-440.781524658203
 20
63.942043315663
 30
0.0
 11
-444.781524658203
 21
63.942043315663
 31
0.0
  0
LINE
  5
   572
  8
0
  6
CONTINUOUS
 62
     7
 10
-440.781524658203
 20
-4.80795668433696
 30
0.0
 11
-442.781524658203
 21
-4.80795668433696
 31
0.0
  0
LINE
  5
   573
  8
0
  6
CONTINUOUS
 62
     7
 10
-440.781524658203
 20
-5.55795668433696
 30
0.0
 11
-444.781524658203
 21
-5.55795668433696
 31
0.0
  0
LINE
  5
   574
  8
0
  6
DASHDOT
 62
   218
 10
-435.078776131771
 20
-6.80795668433696
 30
0.0
 11
-448.715955346257
 21
-6.80795668433696
 31
0.0
  0
LINE
  5
   575
  8
0
  6
CONTINUOUS
 62
     7
 10
-440.781524658203
 20
-8.05795668433696
 30
0.0
 11
-444.781524658203
 21
-8.05795668433696
 31
0.0
  0
LINE
  5
   576
  8
0
  6
CONTINUOUS
 62
     7
 10
-440.781524658203
 20
-8.80795668433696
 30
0.0
 11
-442.781524658203
 21
-8.80795668433696
 31
0.0
  0
LINE
  5
   577
  8
0
  6
CONTINUOUS
 62
     7
 10
-442.781524658203
 20
-8.80795668433696
 30
0.0
 11
-442.781524658203
 21
-4.80795668433696
 31
0.0
  0
LINE
  5
   578
  8
0
  6
CONTINUOUS
 62
     7
 10
-444.781524658203
 20
-8.05795668433696
 30
0.0
 11
-444.781524658203
 21
-5.55795668433696
 31
0.0
  0
CIRCLE
  5
   579
  8
0
  6
CONTINUOUS
 62
     7
 10
-441.972295295137
 20
62.4017083025593
 30
0.0
 40
0.1
  0
LINE
  5
   57A
  8
0
  6
CONTINUOUS
 62
   218
 10
-419.28152513504
 20
-14.557956684337
 30
0.0
 11
-430.78152513504
 21
-14.557956684337
 31
0.0
  0
LINE
  5
   57B
  8
0
  6
CONTINUOUS
 62
   218
 10
-419.28152513504
 20
-20.757956684337
 30
0.0
 11
-430.78152513504
 21
-20.757956684337
 31
0.0
  0
LINE
  5
   57C
  8
0
  6
CONTINUOUS
 62
   218
 10
-419.28152513504
 20
-20.757956684337
 30
0.0
 11
-419.28152513504
 21
-14.557956684337
 31
0.0
  0
LINE
  5
   57D
  8
0
  6
CONTINUOUS
 62
   218
 10
-430.78152513504
 20
-21.657956684337
 30
0.0
 11
-430.78152513504
 21
-13.657956684337
 31
0.0
  0
LINE
  5
   57E
  8
0
  6
DASHDOT
 62
   218
 10
-416.75089220043
 20
-17.657956684337
 30
0.0
 11
-441.087604706253
 21
-17.657956684337
 31
0.0
  0
LINE
  5
   57F
  8
0
  6
CONTINUOUS
 62
   218
 10
-430.78152513504
 20
-21.657956684337
 30
0.0
 11
-445.087604706252
 21
-21.657956684337
 31
0.0
  0
LINE
  5
   580
  8
0
  6
CONTINUOUS
 62
   218
 10
-430.78152513504
 20
-13.657956684337
 30
0.0
 11
-445.087604706252
 21
-13.657956684337
 31
0.0
  0
LINE
  5
   581
  8
0
  6
CONTINUOUS
 62
   218
 10
-419.28152513504
 20
-17.657956684337
 30
0.0
 11
-430.78152513504
 21
-15.6301964061896
 31
0.0
  0
POLYLINE
  5
   582
  8
0
  6
CONTINUOUS
 62
   218
 66
     1
 10
0.0
 20
0.0
 30
0.0
 70
     1
  0
VERTEX
  5
   583
  8
0
  6
CONTINUOUS
 10
-445.087604706247
 20
-21.657956684337
 30
0.0
 40
0.0
 41
0.0
  0
VERTEX
  5
   584
  8
0
  6
CONTINUOUS
 10
-445.063063477725
 20
-21.6573543217293
 30
0.0
 40
0.0
 41
0.0
  0
VERTEX
  5
   585
  8
0
  6
CONTINUOUS
 10
-445.03853703192
 20
-21.6555475967472
 30
0.0
 40
0.0
 41
0.0
  0
VERTEX
  5
   586
  8
0
  6
CONTINUOUS
 10
-445.014040142648
 20
-21.6525375976942
 30
0.0
 40
0.0
 41
0.0
  0
VERTEX
  5
   587
  8
0
  6
CONTINUOUS
 10
-444.989587565918
 20
-21.6483261376811
 30
0.0
 40
0.0
 41
0.0
  0
VERTEX
  5
   588
  8
0
  6
CONTINUOUS
 10
-444.965194031048
 20
-21.6429157535341
 30
0.0
 40
0.0
 41
0.0
  0
VERTEX
  5
   589
  8
0
  6
CONTINUOUS
 10
-444.940874231792
 20
-21.6363097042662
 30
0.0
 40
0.0
 41
0.0
  0
VERTEX
  5
   58A
  8
0
  6
CONTINUOUS
 10
-444.916642817487
 20
-21.6285119691144
 30
0.0
 40
0.0
 41
0.0
  0
VERTEX
  5
   58B
  8
0
  6
CONTINUOUS
 10
-444.892514384231
 20
-21.6195272451429
 30
0.0
 40
0.0
 41
0.0
  0
VERTEX
  5
   58C
  8
0
  6
CONTINUOUS
 10
-444.868503466091
 20
-21.6093609444135
 30
0.0
 40
0.0
 41
0.0
  0
VERTEX
  5
   58D
  8
0
  6
CONTINUOUS
 10
-444.844624526344
 20
-21.5980191907254
 30
0.0
 40
0.0
 41
0.0
  0
VERTEX
  5
   58E
  8
0
  6
CONTINUOUS
 10
-444.820891948773
 20
-21.5855088159272
 30
0.0
 40
0.0
 41
0.0
  0
VERTEX
  5
   58F
  8
0
  6
CONTINUOUS
 10
-444.797320028993
 20
-21.5718373558006
 30
0.0
 40
0.0
 41
0.0
  0
VERTEX
  5
   590
  8
0
  6
CONTINUOUS
 10
-444.773922965849
 20
-21.5570130455222
 30
0.0
 40
0.0
 41
0.0
  0
VERTEX
  5
   591
  8
0
  6
CONTINUOUS
 10
-444.750714852856
 20
-21.5410448147022
 30
0.0
 40
0.0
 41
0.0
  0
VERTEX
  5
   592
  8
0
  6
CONTINUOUS
 10
-444.727709669713
 20
-21.5239422820055
 30
0.0
 40
0.0
 41
0.0
  0
VERTEX
  5
   593
  8
0
  6
CONTINUOUS
 10
-444.704921273883
 20
-21.5057157493586
 30
0.0
 40
0.0
 41
0.0
  0
VERTEX
  5
   594
  8
0
  6
CONTINUOUS
 10
-444.660049612818
 20
-21.4659352705828
 30
0.0
 40
0.0
 41
0.0
  0
VERTEX
  5
   595
  8
0
  6
CONTINUOUS
 10
-444.616207969422
 20
-21.4217992130325
 30
0.0
 40
0.0
 41
0.0
  0
VERTEX
  5
   596
  8
0
  6
CONTINUOUS
 10
-444.573501962055
 20
-21.3734139043362
 30
0.0
 40
0.0
 41
0.0
  0
VERTEX
  5
   597
  8
0
  6
CONTINUOUS
 10
-444.532034473229
 20
-21.3208959089407
 30
0.0
 40
0.0
 41
0.0
  0
VERTEX
  5
   598
  8
0
  6
CONTINUOUS
 10
-444.491905401756
 20
-21.2643717472968
 30
0.0
 40
0.0
 41
0.0
  0
VERTEX
  5
   599
  8
0
  6
CONTINUOUS
 10
-444.453211422085
 20
-21.2039775910608
 30
0.0
 40
0.0
 41
0.0
  0
VERTEX
  5
   59A
  8
0
  6
CONTINUOUS
 10
-444.416045751402
 20
-21.1398589350452
 30
0.0
 40
0.0
 41
0.0
  0
VERTEX
  5
   59B
  8
0
  6
CONTINUOUS
 10
-444.380497925062
 20
-21.0721702467083
 30
0.0
 40
0.0
 41
0.0
  0
VERTEX
  5
   59C
  8
0
  6
CONTINUOUS
 10
-444.346653580894
 20
-21.0010745940291
 30
0.0
 40
0.0
 41
0.0
  0
VERTEX
  5
   59D
  8
0
  6
CONTINUOUS
 10
-444.314594252887
 20
-20.9267432526623
 30
0.0
 40
0.0
 41
0.0
  0
VERTEX
  5
   59E
  8
0
  6
CONTINUOUS
 10
-444.284397174769
 20
-20.8493552933198
 30
0.0
 40
0.0
 41
0.0
  0
VERTEX
  5
   59F
  8
0
  6
CONTINUOUS
 10
-444.256135093947
 20
-20.7690971503741
 30
0.0
 40
0.0
 41
0.0
  0
VERTEX
  5
   5A0
  8
0
  6
CONTINUOUS
 10
-444.22987609625
 20
-20.6861621727212
 30
0.0
 40
0.0
 41
0.0
  0
VERTEX
  5
   5A1
  8
0
  6
CONTINUOUS
 10
-444.205683441902
 20
-20.6007501579867
 30
0.0
 40
0.0
 41
0.0
  0
VERTEX
  5
   5A2
  8
0
  6
CONTINUOUS
 10
-444.183615413127
 20
-20.5130668711953
 30
0.0
 40
0.0
 41
0.0
  0
VERTEX
  5
   5A3
  8
0
  6
CONTINUOUS
 10
-444.163725173739
 20
-20.4233235490648
 30
0.0
 40
0.0
 41
0.0
  0
VERTEX
  5
   5A4
  8
0
  6
CONTINUOUS
 10
-444.146060641068
 20
-20.331736391119
 30
0.0
 40
0.0
 41
0.0
  0
VERTEX
  5
   5A5
  8
0
  6
CONTINUOUS
 10
-444.130664370519
 20
-20.2385260388435
 30
0.0
 40
0.0
 41
0.0
  0
VERTEX
  5
   5A6
  8
0
  6
CONTINUOUS
 10
-444.117573453057
 20
-20.1439170441411
 30
0.0
 40
0.0
 41
0.0
  0
VERTEX
  5
   5A7
  8
0
  6
CONTINUOUS
 10
-444.106819425848
 20
-20.0481373283667
 30
0.0
 40
0.0
 41
0.0
  0
VERTEX
  5
   5A8
  8
0
  6
CONTINUOUS
 10
-444.098428196287
 20
-19.9514176332452
 30
0.0
 40
0.0
 41
0.0
  0
VERTEX
  5
   5A9
  8
0
  6
CONTINUOUS
 10
-444.09241997958
 20
-19.8539909649936
 30
0.0
 40
0.0
 41
0.0
  0
VERTEX
  5
   5AA
  8
0
  6
CONTINUOUS
 10
-444.088809250047
 20
-19.7560920329893
 30
0.0
 40
0.0
 41
0.0
  0
VERTEX
  5
   5AB
  8
0
  6
CONTINUOUS
 10
-444.087604706253
 20
-19.6579566843344
 30
0.0
 40
0.0
 41
0.0
  0
VERTEX
  5
   5AC
  8
0
  6
CONTINUOUS
 10
-444.088809250048
 20
-19.5598213356796
 30
0.0
 40
0.0
 41
0.0
  0
VERTEX
  5
   5AD
  8
0
  6
CONTINUOUS
 10
-444.092419979581
 20
-19.4619224036753
 30
0.0
 40
0.0
 41
0.0
  0
VERTEX
  5
   5AE
  8
0
  6
CONTINUOUS
 10
-444.098428196289
 20
-19.3644957354238
 30
0.0
 40
0.0
 41
0.0
  0
VERTEX
  5
   5AF
  8
0
  6
CONTINUOUS
 10
-444.10681942585
 20
-19.2677760403022
 30
0.0
 40
0.0
 41
0.0
  0
VERTEX
  5
   5B0
  8
0
  6
CONTINUOUS
 10
-444.117573453059
 20
-19.171996324528
 30
0.0
 40
0.0
 41
0.0
  0
VERTEX
  5
   5B1
  8
0
  6
CONTINUOUS
 10
-444.130664370522
 20
-19.0773873298256
 30
0.0
 40
0.0
 41
0.0
  0
VERTEX
  5
   5B2
  8
0
  6
CONTINUOUS
 10
-444.146060641071
 20
-18.9841769775502
 30
0.0
 40
0.0
 41
0.0
  0
VERTEX
  5
   5B3
  8
0
  6
CONTINUOUS
 10
-444.163725173743
 20
-18.8925898196045
 30
0.0
 40
0.0
 41
0.0
  0
VERTEX
  5
   5B4
  8
0
  6
CONTINUOUS
 10
-444.183615413131
 20
-18.8028464974741
 30
0.0
 40
0.0
 41
0.0
  0
VERTEX
  5
   5B5
  8
0
  6
CONTINUOUS
 10
-444.205683441907
 20
-18.7151632106827
 30
0.0
 40
0.0
 41
0.0
  0
VERTEX
  5
   5B6
  8
0
  6
CONTINUOUS
 10
-444.229876096255
 20
-18.6297511959484
 30
0.0
 40
0.0
 41
0.0
  0
VERTEX
  5
   5B7
  8
0
  6
CONTINUOUS
 10
-444.256135093953
 20
-18.5468162182957
 30
0.0
 40
0.0
 41
0.0
  0
VERTEX
  5
   5B8
  8
0
  6
CONTINUOUS
 10
-444.284397174775
 20
-18.4665580753501
 30
0.0
 40
0.0
 41
0.0
  0
VERTEX
  5
   5B9
  8
0
  6
CONTINUOUS
 10
-444.314594252893
 20
-18.3891701160077
 30
0.0
 40
0.0
 41
0.0
  0
VERTEX
  5
   5BA
  8
0
  6
CONTINUOUS
 10
-444.346653580901
 20
-18.3148387746411
 30
0.0
 40
0.0
 41
0.0
  0
VERTEX
  5
   5BB
  8
0
  6
CONTINUOUS
 10
-444.38049792507
 20
-18.2437431219621
 30
0.0
 40
0.0
 41
0.0
  0
VERTEX
  5
   5BC
  8
0
  6
CONTINUOUS
 10
-444.416045751409
 20
-18.1760544336254
 30
0.0
 40
0.0
 41
0.0
  0
VERTEX
  5
   5BD
  8
0
  6
CONTINUOUS
 10
-444.453211422093
 20
-18.1119357776099
 30
0.0
 40
0.0
 41
0.0
  0
VERTEX
  5
   5BE
  8
0
  6
CONTINUOUS
 10
-444.491905401764
 20
-18.0515416213742
 30
0.0
 40
0.0
 41
0.0
  0
VERTEX
  5
   5BF
  8
0
  6
CONTINUOUS
 10
-444.532034473237
 20
-17.9950174597305
 30
0.0
 40
0.0
 41
0.0
  0
VERTEX
  5
   5C0
  8
0
  6
CONTINUOUS
 10
-444.573501962064
 20
-17.9424994643351
 30
0.0
 40
0.0
 41
0.0
  0
VERTEX
  5
   5C1
  8
0
  6
CONTINUOUS
 10
-444.616207969431
 20
-17.8941141556391
 30
0.0
 40
0.0
 41
0.0
  0
VERTEX
  5
   5C2
  8
0
  6
CONTINUOUS
 10
-444.660049612827
 20
-17.849978098089
 30
0.0
 40
0.0
 41
0.0
  0
VERTEX
  5
   5C3
  8
0
  6
CONTINUOUS
 10
-444.704921273892
 20
-17.8101976193134
 30
0.0
 40
0.0
 41
0.0
  0
VERTEX
  5
   5C4
  8
0
  6
CONTINUOUS
 10
-444.727709669722
 20
-17.7919710866666
 30
0.0
 40
0.0
 41
0.0
  0
VERTEX
  5
   5C5
  8
0
  6
CONTINUOUS
 10
-444.750714852865
 20
-17.7748685539701
 30
0.0
 40
0.0
 41
0.0
  0
VERTEX
  5
   5C6
  8
0
  6
CONTINUOUS
 10
-444.773922965858
 20
-17.7589003231501
 30
0.0
 40
0.0
 41
0.0
  0
VERTEX
  5
   5C7
  8
0
  6
CONTINUOUS
 10
-444.797320029003
 20
-17.7440760128718
 30
0.0
 40
0.0
 41
0.0
  0
VERTEX
  5
   5C8
  8
0
  6
CONTINUOUS
 10
-444.820891948782
 20
-17.7304045527454
 30
0.0
 40
0.0
 41
0.0
  0
VERTEX
  5
   5C9
  8
0
  6
CONTINUOUS
 10
-444.844624526354
 20
-17.7178941779473
 30
0.0
 40
0.0
 41
0.0
  0
VERTEX
  5
   5CA
  8
0
  6
CONTINUOUS
 10
-444.868503466101
 20
-17.7065524242593
 30
0.0
 40
0.0
 41
0.0
  0
VERTEX
  5
   5CB
  8
0
  6
CONTINUOUS
 10
-444.892514384241
 20
-17.69638612353
 30
0.0
 40
0.0
 41
0.0
  0
VERTEX
  5
   5CC
  8
0
  6
CONTINUOUS
 10
-444.916642817497
 20
-17.6874013995586
 30
0.0
 40
0.0
 41
0.0
  0
VERTEX
  5
   5CD
  8
0
  6
CONTINUOUS
 10
-444.940874231802
 20
-17.679603664407
 30
0.0
 40
0.0
 41
0.0
  0
VERTEX
  5
   5CE
  8
0
  6
CONTINUOUS
 10
-444.965194031058
 20
-17.6729976151392
 30
0.0
 40
0.0
 41
0.0
  0
VERTEX
  5
   5CF
  8
0
  6
CONTINUOUS
 10
-444.989587565928
 20
-17.6675872309923
 30
0.0
 40
0.0
 41
0.0
  0
VERTEX
  5
   5D0
  8
0
  6
CONTINUOUS
 10
-445.014040142658
 20
-17.6633757709794
 30
0.0
 40
0.0
 41
0.0
  0
VERTEX
  5
   5D1
  8
0
  6
CONTINUOUS
 10
-445.03853703193
 20
-17.6603657719265
 30
0.0
 40
0.0
 41
0.0
  0
VERTEX
  5
   5D2
  8
0
  6
CONTINUOUS
 10
-445.063063477735
 20
-17.6585590469445
 30
0.0
 40
0.0
 41
0.0
  0
VERTEX
  5
   5D3
  8
0
  6
CONTINUOUS
 10
-445.087604706258
 20
-17.657956684337
 30
0.0
 40
0.0
 41
0.0
  0
VERTEX
  5
   5D4
  8
0
  6
CONTINUOUS
 10
-445.11214593478
 20
-17.6585590469446
 30
0.0
 40
0.0
 41
0.0
  0
VERTEX
  5
   5D5
  8
0
  6
CONTINUOUS
 10
-445.136672380585
 20
-17.6603657719267
 30
0.0
 40
0.0
 41
0.0
  0
VERTEX
  5
   5D6
  8
0
  6
CONTINUOUS
 10
-445.161169269857
 20
-17.6633757709798
 30
0.0
 40
0.0
 41
0.0
  0
VERTEX
  5
   5D7
  8
0
  6
CONTINUOUS
 10
-445.185621846587
 20
-17.6675872309928
 30
0.0
 40
0.0
 41
0.0
  0
VERTEX
  5
   5D8
  8
0
  6
CONTINUOUS
 10
-445.210015381457
 20
-17.6729976151398
 30
0.0
 40
0.0
 41
0.0
  0
VERTEX
  5
   5D9
  8
0
  6
CONTINUOUS
 10
-445.234335180713
 20
-17.6796036644078
 30
0.0
 40
0.0
 41
0.0
  0
VERTEX
  5
   5DA
  8
0
  6
CONTINUOUS
 10
-445.258566595018
 20
-17.6874013995595
 30
0.0
 40
0.0
 41
0.0
  0
VERTEX
  5
   5DB
  8
0
  6
CONTINUOUS
 10
-445.282695028274
 20
-17.696386123531
 30
0.0
 40
0.0
 41
0.0
  0
VERTEX
  5
   5DC
  8
0
  6
CONTINUOUS
 10
-445.306705946414
 20
-17.7065524242605
 30
0.0
 40
0.0
 41
0.0
  0
VERTEX
  5
   5DD
  8
0
  6
CONTINUOUS
 10
-445.330584886161
 20
-17.7178941779485
 30
0.0
 40
0.0
 41
0.0
  0
VERTEX
  5
   5DE
  8
0
  6
CONTINUOUS
 10
-445.354317463732
 20
-17.7304045527467
 30
0.0
 40
0.0
 41
0.0
  0
VERTEX
  5
   5DF
  8
0
  6
CONTINUOUS
 10
-445.377889383512
 20
-17.7440760128733
 30
0.0
 40
0.0
 41
0.0
  0
VERTEX
  5
   5E0
  8
0
  6
CONTINUOUS
 10
-445.401286446656
 20
-17.7589003231517
 30
0.0
 40
0.0
 41
0.0
  0
VERTEX
  5
   5E1
  8
0
  6
CONTINUOUS
 10
-445.42449455965
 20
-17.7748685539718
 30
0.0
 40
0.0
 41
0.0
  0
VERTEX
  5
   5E2
  8
0
  6
CONTINUOUS
 10
-445.447499742792
 20
-17.7919710866684
 30
0.0
 40
0.0
 41
0.0
  0
VERTEX
  5
   5E3
  8
0
  6
CONTINUOUS
 10
-445.470288138622
 20
-17.8101976193153
 30
0.0
 40
0.0
 41
0.0
  0
VERTEX
  5
   5E4
  8
0
  6
CONTINUOUS
 10
-445.515159799687
 20
-17.8499780980911
 30
0.0
 40
0.0
 41
0.0
  0
VERTEX
  5
   5E5
  8
0
  6
CONTINUOUS
 10
-445.559001443083
 20
-17.8941141556414
 30
0.0
 40
0.0
 41
0.0
  0
VERTEX
  5
   5E6
  8
0
  6
CONTINUOUS
 10
-445.60170745045
 20
-17.9424994643377
 30
0.0
 40
0.0
 41
0.0
  0
VERTEX
  5
   5E7
  8
0
  6
CONTINUOUS
 10
-445.643174939276
 20
-17.9950174597333
 30
0.0
 40
0.0
 41
0.0
  0
VERTEX
  5
   5E8
  8
0
  6
CONTINUOUS
 10
-445.683304010749
 20
-18.0515416213772
 30
0.0
 40
0.0
 41
0.0
  0
VERTEX
  5
   5E9
  8
0
  6
CONTINUOUS
 10
-445.72199799042
 20
-18.1119357776131
 30
0.0
 40
0.0
 41
0.0
  0
VERTEX
  5
   5EA
  8
0
  6
CONTINUOUS
 10
-445.759163661103
 20
-18.1760544336287
 30
0.0
 40
0.0
 41
0.0
  0
VERTEX
  5
   5EB
  8
0
  6
CONTINUOUS
 10
-445.794711487443
 20
-18.2437431219656
 30
0.0
 40
0.0
 41
0.0
  0
VERTEX
  5
   5EC
  8
0
  6
CONTINUOUS
 10
-445.828555831611
 20
-18.3148387746448
 30
0.0
 40
0.0
 41
0.0
  0
VERTEX
  5
   5ED
  8
0
  6
CONTINUOUS
 10
-445.860615159619
 20
-18.3891701160116
 30
0.0
 40
0.0
 41
0.0
  0
VERTEX
  5
   5EE
  8
0
  6
CONTINUOUS
 10
-445.890812237736
 20
-18.4665580753541
 30
0.0
 40
0.0
 41
0.0
  0
VERTEX
  5
   5EF
  8
0
  6
CONTINUOUS
 10
-445.919074318558
 20
-18.5468162182998
 30
0.0
 40
0.0
 41
0.0
  0
VERTEX
  5
   5F0
  8
0
  6
CONTINUOUS
 10
-445.945333316255
 20
-18.6297511959527
 30
0.0
 40
0.0
 41
0.0
  0
VERTEX
  5
   5F1
  8
0
  6
CONTINUOUS
 10
-445.969525970603
 20
-18.7151632106872
 30
0.0
 40
0.0
 41
0.0
  0
VERTEX
  5
   5F2
  8
0
  6
CONTINUOUS
 10
-445.991593999378
 20
-18.8028464974787
 30
0.0
 40
0.0
 41
0.0
  0
VERTEX
  5
   5F3
  8
0
  6
CONTINUOUS
 10
-446.011484238766
 20
-18.8925898196091
 30
0.0
 40
0.0
 41
0.0
  0
VERTEX
  5
   5F4
  8
0
  6
CONTINUOUS
 10
-446.029148771437
 20
-18.9841769775549
 30
0.0
 40
0.0
 41
0.0
  0
VERTEX
  5
   5F5
  8
0
  6
CONTINUOUS
 10
-446.044545041986
 20
-19.0773873298304
 30
0.0
 40
0.0
 41
0.0
  0
VERTEX
  5
   5F6
  8
0
  6
CONTINUOUS
 10
-446.057635959448
 20
-19.1719963245329
 30
0.0
 40
0.0
 41
0.0
  0
VERTEX
  5
   5F7
  8
0
  6
CONTINUOUS
 10
-446.068389986657
 20
-19.2677760403072
 30
0.0
 40
0.0
 41
0.0
  0
VERTEX
  5
   5F8
  8
0
  6
CONTINUOUS
 10
-446.076781216218
 20
-19.3644957354287
 30
0.0
 40
0.0
 41
0.0
  0
VERTEX
  5
   5F9
  8
0
  6
CONTINUOUS
 10
-446.082789432925
 20
-19.4619224036803
 30
0.0
 40
0.0
 41
0.0
  0
VERTEX
  5
   5FA
  8
0
  6
CONTINUOUS
 10
-446.086400162458
 20
-19.5598213356846
 30
0.0
 40
0.0
 41
0.0
  0
VERTEX
  5
   5FB
  8
0
  6
CONTINUOUS
 10
-446.087604706253
 20
-19.6579566843395
 30
0.0
 40
0.0
 41
0.0
  0
VERTEX
  5
   5FC
  8
0
  6
CONTINUOUS
 10
-446.086400162457
 20
-19.7560920329943
 30
0.0
 40
0.0
 41
0.0
  0
VERTEX
  5
   5FD
  8
0
  6
CONTINUOUS
 10
-446.082789432924
 20
-19.8539909649986
 30
0.0
 40
0.0
 41
0.0
  0
VERTEX
  5
   5FE
  8
0
  6
CONTINUOUS
 10
-446.076781216217
 20
-19.9514176332502
 30
0.0
 40
0.0
 41
0.0
  0
VERTEX
  5
   5FF
  8
0
  6
CONTINUOUS
 10
-446.068389986655
 20
-20.0481373283717
 30
0.0
 40
0.0
 41
0.0
  0
VERTEX
  5
   600
  8
0
  6
CONTINUOUS
 10
-446.057635959446
 20
-20.1439170441459
 30
0.0
 40
0.0
 41
0.0
  0
VERTEX
  5
   601
  8
0
  6
CONTINUOUS
 10
-446.044545041983
 20
-20.2385260388483
 30
0.0
 40
0.0
 41
0.0
  0
VERTEX
  5
   602
  8
0
  6
CONTINUOUS
 10
-446.029148771434
 20
-20.3317363911238
 30
0.0
 40
0.0
 41
0.0
  0
VERTEX
  5
   603
  8
0
  6
CONTINUOUS
 10
-446.011484238762
 20
-20.4233235490695
 30
0.0
 40
0.0
 41
0.0
  0
VERTEX
  5
   604
  8
0
  6
CONTINUOUS
 10
-445.991593999374
 20
-20.5130668711998
 30
0.0
 40
0.0
 41
0.0
  0
VERTEX
  5
   605
  8
0
  6
CONTINUOUS
 10
-445.969525970598
 20
-20.6007501579912
 30
0.0
 40
0.0
 41
0.0
  0
VERTEX
  5
   606
  8
0
  6
CONTINUOUS
 10
-445.94533331625
 20
-20.6861621727256
 30
0.0
 40
0.0
 41
0.0
  0
VERTEX
  5
   607
  8
0
  6
CONTINUOUS
 10
-445.919074318552
 20
-20.7690971503783
 30
0.0
 40
0.0
 41
0.0
  0
VERTEX
  5
   608
  8
0
  6
CONTINUOUS
 10
-445.89081223773
 20
-20.8493552933238
 30
0.0
 40
0.0
 41
0.0
  0
VERTEX
  5
   609
  8
0
  6
CONTINUOUS
 10
-445.860615159612
 20
-20.9267432526662
 30
0.0
 40
0.0
 41
0.0
  0
VERTEX
  5
   60A
  8
0
  6
CONTINUOUS
 10
-445.828555831604
 20
-21.0010745940329
 30
0.0
 40
0.0
 41
0.0
  0
VERTEX
  5
   60B
  8
0
  6
CONTINUOUS
 10
-445.794711487436
 20
-21.0721702467118
 30
0.0
 40
0.0
 41
0.0
  0
VERTEX
  5
   60C
  8
0
  6
CONTINUOUS
 10
-445.759163661096
 20
-21.1398589350486
 30
0.0
 40
0.0
 41
0.0
  0
VERTEX
  5
   60D
  8
0
  6
CONTINUOUS
 10
-445.721997990412
 20
-21.203977591064
 30
0.0
 40
0.0
 41
0.0
  0
VERTEX
  5
   60E
  8
0
  6
CONTINUOUS
 10
-445.683304010741
 20
-21.2643717472998
 30
0.0
 40
0.0
 41
0.0
  0
VERTEX
  5
   60F
  8
0
  6
CONTINUOUS
 10
-445.643174939268
 20
-21.3208959089434
 30
0.0
 40
0.0
 41
0.0
  0
VERTEX
  5
   610
  8
0
  6
CONTINUOUS
 10
-445.601707450441
 20
-21.3734139043388
 30
0.0
 40
0.0
 41
0.0
  0
VERTEX
  5
   611
  8
0
  6
CONTINUOUS
 10
-445.559001443074
 20
-21.4217992130349
 30
0.0
 40
0.0
 41
0.0
  0
VERTEX
  5
   612
  8
0
  6
CONTINUOUS
 10
-445.515159799678
 20
-21.4659352705849
 30
0.0
 40
0.0
 41
0.0
  0
VERTEX
  5
   613
  8
0
  6
CONTINUOUS
 10
-445.470288138613
 20
-21.5057157493605
 30
0.0
 40
0.0
 41
0.0
  0
VERTEX
  5
   614
  8
0
  6
CONTINUOUS
 10
-445.447499742783
 20
-21.5239422820073
 30
0.0
 40
0.0
 41
0.0
  0
VERTEX
  5
   615
  8
0
  6
CONTINUOUS
 10
-445.42449455964
 20
-21.5410448147038
 30
0.0
 40
0.0
 41
0.0
  0
VERTEX
  5
   616
  8
0
  6
CONTINUOUS
 10
-445.401286446647
 20
-21.5570130455238
 30
0.0
 40
0.0
 41
0.0
  0
VERTEX
  5
   617
  8
0
  6
CONTINUOUS
 10
-445.377889383502
 20
-21.5718373558021
 30
0.0
 40
0.0
 41
0.0
  0
VERTEX
  5
   618
  8
0
  6
CONTINUOUS
 10
-445.354317463723
 20
-21.5855088159285
 30
0.0
 40
0.0
 41
0.0
  0
VERTEX
  5
   619
  8
0
  6
CONTINUOUS
 10
-445.330584886151
 20
-21.5980191907267
 30
0.0
 40
0.0
 41
0.0
  0
VERTEX
  5
   61A
  8
0
  6
CONTINUOUS
 10
-445.306705946405
 20
-21.6093609444146
 30
0.0
 40
0.0
 41
0.0
  0
VERTEX
  5
   61B
  8
0
  6
CONTINUOUS
 10
-445.282695028264
 20
-21.6195272451439
 30
0.0
 40
0.0
 41
0.0
  0
VERTEX
  5
   61C
  8
0
  6
CONTINUOUS
 10
-445.258566595008
 20
-21.6285119691153
 30
0.0
 40
0.0
 41
0.0
  0
VERTEX
  5
   61D
  8
0
  6
CONTINUOUS
 10
-445.234335180703
 20
-21.6363097042669
 30
0.0
 40
0.0
 41
0.0
  0
VERTEX
  5
   61E
  8
0
  6
CONTINUOUS
 10
-445.210015381447
 20
-21.6429157535347
 30
0.0
 40
0.0
 41
0.0
  0
VERTEX
  5
   61F
  8
0
  6
CONTINUOUS
 10
-445.185621846577
 20
-21.6483261376816
 30
0.0
 40
0.0
 41
0.0
  0
VERTEX
  5
   620
  8
0
  6
CONTINUOUS
 10
-445.161169269847
 20
-21.6525375976945
 30
0.0
 40
0.0
 41
0.0
  0
VERTEX
  5
   621
  8
0
  6
CONTINUOUS
 10
-445.136672380575
 20
-21.6555475967474
 30
0.0
 40
0.0
 41
0.0
  0
VERTEX
  5
   622
  8
0
  6
CONTINUOUS
 10
-445.11214593477
 20
-21.6573543217294
 30
0.0
 40
0.0
 41
0.0
  0
VERTEX
  5
   623
  8
0
  6
CONTINUOUS
 10
-445.087604706247
 20
-21.657956684337
 30
0.0
 40
0.0
 41
0.0
  0
SEQEND
  5
   624
  8
0
  6
CONTINUOUS
 62
   218
  0
POLYLINE
  5
   625
  8
0
  6
CONTINUOUS
 62
   218
 66
     1
 10
0.0
 20
0.0
 30
0.0
  0
VERTEX
  5
   626
  8
0
  6
CONTINUOUS
 10
-445.08760470626
 20
-13.657956684337
 30
0.0
 40
0.0
 41
0.0
  0
VERTEX
  5
   627
  8
0
  6
CONTINUOUS
 10
-445.112145934783
 20
-13.6585590469447
 30
0.0
 40
0.0
 41
0.0
  0
VERTEX
  5
   628
  8
0
  6
CONTINUOUS
 10
-445.136672380587
 20
-13.660365771927
 30
0.0
 40
0.0
 41
0.0
  0
VERTEX
  5
   629
  8
0
  6
CONTINUOUS
 10
-445.16116926986
 20
-13.6633757709801
 30
0.0
 40
0.0
 41
0.0
  0
VERTEX
  5
   62A
  8
0
  6
CONTINUOUS
 10
-445.18562184659
 20
-13.6675872309933
 30
0.0
 40
0.0
 41
0.0
  0
VERTEX
  5
   62B
  8
0
  6
CONTINUOUS
 10
-445.210015381459
 20
-13.6729976151405
 30
0.0
 40
0.0
 41
0.0
  0
VERTEX
  5
   62C
  8
0
  6
CONTINUOUS
 10
-445.234335180715
 20
-13.6796036644085
 30
0.0
 40
0.0
 41
0.0
  0
VERTEX
  5
   62D
  8
0
  6
CONTINUOUS
 10
-445.25856659502
 20
-13.6874013995604
 30
0.0
 40
0.0
 41
0.0
  0
VERTEX
  5
   62E
  8
0
  6
CONTINUOUS
 10
-445.282695028276
 20
-13.696386123532
 30
0.0
 40
0.0
 41
0.0
  0
VERTEX
  5
   62F
  8
0
  6
CONTINUOUS
 10
-445.306705946417
 20
-13.7065524242616
 30
0.0
 40
0.0
 41
0.0
  0
VERTEX
  5
   630
  8
0
  6
CONTINUOUS
 10
-445.330584886163
 20
-13.7178941779498
 30
0.0
 40
0.0
 41
0.0
  0
VERTEX
  5
   631
  8
0
  6
CONTINUOUS
 10
-445.354317463735
 20
-13.7304045527482
 30
0.0
 40
0.0
 41
0.0
  0
VERTEX
  5
   632
  8
0
  6
CONTINUOUS
 10
-445.377889383514
 20
-13.7440760128749
 30
0.0
 40
0.0
 41
0.0
  0
VERTEX
  5
   633
  8
0
  6
CONTINUOUS
 10
-445.401286446659
 20
-13.7589003231534
 30
0.0
 40
0.0
 41
0.0
  0
VERTEX
  5
   634
  8
0
  6
CONTINUOUS
 10
-445.424494559652
 20
-13.7748685539736
 30
0.0
 40
0.0
 41
0.0
  0
VERTEX
  5
   635
  8
0
  6
CONTINUOUS
 10
-445.447499742795
 20
-13.7919710866704
 30
0.0
 40
0.0
 41
0.0
  0
VERTEX
  5
   636
  8
0
  6
CONTINUOUS
 10
-445.470288138625
 20
-13.8101976193175
 30
0.0
 40
0.0
 41
0.0
  0
VERTEX
  5
   637
  8
0
  6
CONTINUOUS
 10
-445.51515979969
 20
-13.8499780980936
 30
0.0
 40
0.0
 41
0.0
  0
VERTEX
  5
   638
  8
0
  6
CONTINUOUS
 10
-445.559001443086
 20
-13.8941141556442
 30
0.0
 40
0.0
 41
0.0
  0
VERTEX
  5
   639
  8
0
  6
CONTINUOUS
 10
-445.601707450453
 20
-13.9424994643407
 30
0.0
 40
0.0
 41
0.0
  0
VERTEX
  5
   63A
  8
0
  6
CONTINUOUS
 10
-445.643174939279
 20
-13.9950174597366
 30
0.0
 40
0.0
 41
0.0
  0
VERTEX
  5
   63B
  8
0
  6
CONTINUOUS
 10
-445.683304010751
 20
-14.0515416213808
 30
0.0
 40
0.0
 41
0.0
  0
VERTEX
  5
   63C
  8
0
  6
CONTINUOUS
 10
-445.721997990422
 20
-14.111935777617
 30
0.0
 40
0.0
 41
0.0
  0
VERTEX
  5
   63D
  8
0
  6
CONTINUOUS
 10
-445.759163661106
 20
-14.1760544336329
 30
0.0
 40
0.0
 41
0.0
  0
VERTEX
  5
   63E
  8
0
  6
CONTINUOUS
 10
-445.794711487445
 20
-14.2437431219701
 30
0.0
 40
0.0
 41
0.0
  0
VERTEX
  5
   63F
  8
0
  6
CONTINUOUS
 10
-445.828555831613
 20
-14.3148387746495
 30
0.0
 40
0.0
 41
0.0
  0
VERTEX
  5
   640
  8
0
  6
CONTINUOUS
 10
-445.860615159621
 20
-14.3891701160166
 30
0.0
 40
0.0
 41
0.0
  0
VERTEX
  5
   641
  8
0
  6
CONTINUOUS
 10
-445.890812237738
 20
-14.4665580753593
 30
0.0
 40
0.0
 41
0.0
  0
VERTEX
  5
   642
  8
0
  6
CONTINUOUS
 10
-445.91907431856
 20
-14.5468162183053
 30
0.0
 40
0.0
 41
0.0
  0
VERTEX
  5
   643
  8
0
  6
CONTINUOUS
 10
-445.945333316257
 20
-14.6297511959584
 30
0.0
 40
0.0
 41
0.0
  0
VERTEX
  5
   644
  8
0
  6
CONTINUOUS
 10
-445.969525970605
 20
-14.7151632106931
 30
0.0
 40
0.0
 41
0.0
  0
VERTEX
  5
   645
  8
0
  6
CONTINUOUS
 10
-445.99159399938
 20
-14.8028464974848
 30
0.0
 40
0.0
 41
0.0
  0
VERTEX
  5
   646
  8
0
  6
CONTINUOUS
 10
-446.011484238767
 20
-14.8925898196155
 30
0.0
 40
0.0
 41
0.0
  0
VERTEX
  5
   647
  8
0
  6
CONTINUOUS
 10
-446.029148771438
 20
-14.9841769775615
 30
0.0
 40
0.0
 41
0.0
  0
VERTEX
  5
   648
  8
0
  6
CONTINUOUS
 10
-446.044545041987
 20
-15.0773873298372
 30
0.0
 40
0.0
 41
0.0
  0
VERTEX
  5
   649
  8
0
  6
CONTINUOUS
 10
-446.057635959449
 20
-15.1719963245398
 30
0.0
 40
0.0
 41
0.0
  0
VERTEX
  5
   64A
  8
0
  6
CONTINUOUS
 10
-446.068389986657
 20
-15.2677760403143
 30
0.0
 40
0.0
 41
0.0
  0
VERTEX
  5
   64B
  8
0
  6
CONTINUOUS
 10
-446.076781216219
 20
-15.3644957354359
 30
0.0
 40
0.0
 41
0.0
  0
VERTEX
  5
   64C
  8
0
  6
CONTINUOUS
 10
-446.082789432926
 20
-15.4619224036877
 30
0.0
 40
0.0
 41
0.0
  0
VERTEX
  5
   64D
  8
0
  6
CONTINUOUS
 10
-446.086400162458
 20
-15.5598213356921
 30
0.0
 40
0.0
 41
0.0
  0
VERTEX
  5
   64E
  8
0
  6
CONTINUOUS
 10
-446.087604706253
 20
-15.657956684347
 30
0.0
 40
0.0
 41
0.0
  0
VERTEX
  5
   64F
  8
0
  6
CONTINUOUS
 10
-446.086400162457
 20
-15.7560920330019
 30
0.0
 40
0.0
 41
0.0
  0
VERTEX
  5
   650
  8
0
  6
CONTINUOUS
 10
-446.082789432924
 20
-15.8539909650062
 30
0.0
 40
0.0
 41
0.0
  0
VERTEX
  5
   651
  8
0
  6
CONTINUOUS
 10
-446.076781216216
 20
-15.9514176332579
 30
0.0
 40
0.0
 41
0.0
  0
VERTEX
  5
   652
  8
0
  6
CONTINUOUS
 10
-446.068389986654
 20
-16.0481373283794
 30
0.0
 40
0.0
 41
0.0
  0
VERTEX
  5
   653
  8
0
  6
CONTINUOUS
 10
-446.057635959445
 20
-16.1439170441536
 30
0.0
 40
0.0
 41
0.0
  0
VERTEX
  5
   654
  8
0
  6
CONTINUOUS
 10
-446.044545041982
 20
-16.238526038856
 30
0.0
 40
0.0
 41
0.0
  0
VERTEX
  5
   655
  8
0
  6
CONTINUOUS
 10
-446.029148771432
 20
-16.3317363911314
 30
0.0
 40
0.0
 41
0.0
  0
VERTEX
  5
   656
  8
0
  6
CONTINUOUS
 10
-446.01148423876
 20
-16.423323549077
 30
0.0
 40
0.0
 41
0.0
  0
VERTEX
  5
   657
  8
0
  6
CONTINUOUS
 10
-445.991593999372
 20
-16.5130668712073
 30
0.0
 40
0.0
 41
0.0
  0
VERTEX
  5
   658
  8
0
  6
CONTINUOUS
 10
-445.969525970597
 20
-16.6007501579985
 30
0.0
 40
0.0
 41
0.0
  0
VERTEX
  5
   659
  8
0
  6
CONTINUOUS
 10
-445.945333316248
 20
-16.6861621727328
 30
0.0
 40
0.0
 41
0.0
  0
VERTEX
  5
   65A
  8
0
  6
CONTINUOUS
 10
-445.91907431855
 20
-16.7690971503853
 30
0.0
 40
0.0
 41
0.0
  0
VERTEX
  5
   65B
  8
0
  6
CONTINUOUS
 10
-445.890812237728
 20
-16.8493552933307
 30
0.0
 40
0.0
 41
0.0
  0
VERTEX
  5
   65C
  8
0
  6
CONTINUOUS
 10
-445.860615159609
 20
-16.9267432526729
 30
0.0
 40
0.0
 41
0.0
  0
VERTEX
  5
   65D
  8
0
  6
CONTINUOUS
 10
-445.828555831601
 20
-17.0010745940393
 30
0.0
 40
0.0
 41
0.0
  0
VERTEX
  5
   65E
  8
0
  6
CONTINUOUS
 10
-445.794711487432
 20
-17.0721702467181
 30
0.0
 40
0.0
 41
0.0
  0
VERTEX
  5
   65F
  8
0
  6
CONTINUOUS
 10
-445.759163661093
 20
-17.1398589350545
 30
0.0
 40
0.0
 41
0.0
  0
VERTEX
  5
   660
  8
0
  6
CONTINUOUS
 10
-445.721997990409
 20
-17.2039775910697
 30
0.0
 40
0.0
 41
0.0
  0
VERTEX
  5
   661
  8
0
  6
CONTINUOUS
 10
-445.683304010737
 20
-17.2643717473051
 30
0.0
 40
0.0
 41
0.0
  0
VERTEX
  5
   662
  8
0
  6
CONTINUOUS
 10
-445.643174939264
 20
-17.3208959089485
 30
0.0
 40
0.0
 41
0.0
  0
VERTEX
  5
   663
  8
0
  6
CONTINUOUS
 10
-445.601707450438
 20
-17.3734139043435
 30
0.0
 40
0.0
 41
0.0
  0
VERTEX
  5
   664
  8
0
  6
CONTINUOUS
 10
-445.55900144307
 20
-17.4217992130392
 30
0.0
 40
0.0
 41
0.0
  0
VERTEX
  5
   665
  8
0
  6
CONTINUOUS
 10
-445.515159799674
 20
-17.4659352705889
 30
0.0
 40
0.0
 41
0.0
  0
VERTEX
  5
   666
  8
0
  6
CONTINUOUS
 10
-445.470288138609
 20
-17.5057157493641
 30
0.0
 40
0.0
 41
0.0
  0
VERTEX
  5
   667
  8
0
  6
CONTINUOUS
 10
-445.447499742778
 20
-17.5239422820107
 30
0.0
 40
0.0
 41
0.0
  0
VERTEX
  5
   668
  8
0
  6
CONTINUOUS
 10
-445.424494559636
 20
-17.541044814707
 30
0.0
 40
0.0
 41
0.0
  0
VERTEX
  5
   669
  8
0
  6
CONTINUOUS
 10
-445.401286446642
 20
-17.5570130455268
 30
0.0
 40
0.0
 41
0.0
  0
VERTEX
  5
   66A
  8
0
  6
CONTINUOUS
 10
-445.377889383498
 20
-17.5718373558049
 30
0.0
 40
0.0
 41
0.0
  0
VERTEX
  5
   66B
  8
0
  6
CONTINUOUS
 10
-445.354317463718
 20
-17.5855088159311
 30
0.0
 40
0.0
 41
0.0
  0
VERTEX
  5
   66C
  8
0
  6
CONTINUOUS
 10
-445.330584886146
 20
-17.598019190729
 30
0.0
 40
0.0
 41
0.0
  0
VERTEX
  5
   66D
  8
0
  6
CONTINUOUS
 10
-445.3067059464
 20
-17.6093609444167
 30
0.0
 40
0.0
 41
0.0
  0
VERTEX
  5
   66E
  8
0
  6
CONTINUOUS
 10
-445.282695028259
 20
-17.6195272451458
 30
0.0
 40
0.0
 41
0.0
  0
VERTEX
  5
   66F
  8
0
  6
CONTINUOUS
 10
-445.258566595003
 20
-17.6285119691169
 30
0.0
 40
0.0
 41
0.0
  0
VERTEX
  5
   670
  8
0
  6
CONTINUOUS
 10
-445.234335180698
 20
-17.6363097042683
 30
0.0
 40
0.0
 41
0.0
  0
VERTEX
  5
   671
  8
0
  6
CONTINUOUS
 10
-445.210015381442
 20
-17.6429157535359
 30
0.0
 40
0.0
 41
0.0
  0
VERTEX
  5
   672
  8
0
  6
CONTINUOUS
 10
-445.185621846572
 20
-17.6483261376826
 30
0.0
 40
0.0
 41
0.0
  0
VERTEX
  5
   673
  8
0
  6
CONTINUOUS
 10
-445.161169269842
 20
-17.6525375976953
 30
0.0
 40
0.0
 41
0.0
  0
VERTEX
  5
   674
  8
0
  6
CONTINUOUS
 10
-445.13667238057
 20
-17.6555475967479
 30
0.0
 40
0.0
 41
0.0
  0
VERTEX
  5
   675
  8
0
  6
CONTINUOUS
 10
-445.112145934765
 20
-17.6573543217297
 30
0.0
 40
0.0
 41
0.0
  0
VERTEX
  5
   676
  8
0
  6
CONTINUOUS
 10
-445.087604706243
 20
-17.657956684337
 30
0.0
 40
0.0
 41
0.0
  0
SEQEND
  5
   677
  8
0
  6
CONTINUOUS
 62
   218
  0
INSERT
  5
   678
  8
0
  6
CONTINUOUS
 62
   218
  2
*HATCH1013
 10
-387.781555175781
 20
-28.1764869689941
 30
0.0
 41
0.5
 42
0.5
 50
89.9999999480344
 43
0.5
  0
LINE
  5
   679
  8
0
  6
CONTINUOUS
 62
   218
 10
-419.28152513504
 20
-16.9471580560169
 30
0.0
 11
-430.78152513504
 21
-14.9193977778696
 31
0.0
  0
LINE
  5
   67A
  8
0
  6
CONTINUOUS
 62
   218
 10
-419.28152513504
 20
-16.2363594276969
 30
0.0
 11
-428.800220099454
 21
-14.557956684337
 31
0.0
  0
LINE
  5
   67B
  8
0
  6
CONTINUOUS
 62
   218
 10
-419.28152513504
 20
-15.5255607993769
 30
0.0
 11
-424.769080761254
 21
-14.557956684337
 31
0.0
  0
LINE
  5
   67C
  8
0
  6
CONTINUOUS
 62
   218
 10
-419.28152513504
 20
-14.8147621710569
 30
0.0
 11
-420.737941423053
 21
-14.557956684337
 31
0.0
  0
LINE
  5
   67D
  8
0
  6
CONTINUOUS
 62
   218
 10
-419.28152513504
 20
-18.368755312657
 30
0.0
 11
-430.78152513504
 21
-16.3409950345096
 31
0.0
  0
LINE
  5
   67E
  8
0
  6
CONTINUOUS
 62
   218
 10
-419.28152513504
 20
-19.079553940977
 30
0.0
 11
-430.78152513504
 21
-17.0517936628297
 31
0.0
  0
LINE
  5
   67F
  8
0
  6
CONTINUOUS
 62
   218
 10
-419.28152513504
 20
-19.790352569297
 30
0.0
 11
-430.78152513504
 21
-17.7625922911497
 31
0.0
  0
LINE
  5
   680
  8
0
  6
CONTINUOUS
 62
   218
 10
-419.28152513504
 20
-20.5011511976171
 30
0.0
 11
-430.78152513504
 21
-18.4733909194697
 31
0.0
  0
LINE
  5
   681
  8
0
  6
CONTINUOUS
 62
   218
 10
-421.856248185228
 20
-20.757956684337
 30
0.0
 11
-430.78152513504
 21
-19.1841895477898
 31
0.0
  0
LINE
  5
   682
  8
0
  6
CONTINUOUS
 62
   218
 10
-425.887387523429
 20
-20.757956684337
 30
0.0
 11
-430.78152513504
 21
-19.8949881761098
 31
0.0
  0
LINE
  5
   683
  8
0
  6
CONTINUOUS
 62
   218
 10
-429.91852686163
 20
-20.757956684337
 30
0.0
 11
-430.78152513504
 21
-20.6057868044298
 31
0.0
  0
LINE
  5
   684
  8
0
  6
CONTINUOUS
 62
     7
 10
-435.920416842141
 20
-42.3517725231968
 30
0.0
 11
-443.630002747587
 21
-42.0370955474643
 31
0.0
  0
LINE
  5
   685
  8
0
  6
CONTINUOUS
 62
    98
 10
-389.156532287001
 20
-37.5579349541826
 30
0.0
 11
-438.281524657607
 21
-37.5579349541826
 31
0.0
  0
LINE
  5
   686
  8
0
  6
CONTINUOUS
 62
    98
 10
-438.281524657607
 20
-37.5579349541826
 30
0.0
 11
-438.281524657607
 21
-21.657956684337
 31
0.0
  0
ARC
  5
   687
  8
0
  6
CONTINUOUS
 62
    98
 10
-389.156532287001
 20
-36.9329349541826
 30
0.0
 40
0.625
 50
269.999999948034
 51
359.999999948034
  0
LINE
  5
   688
  8
0
  6
CONTINUOUS
 62
    98
 10
-388.531532287001
 20
-36.9329349541826
 30
0.0
 11
-388.531532287001
 21
-17.0579349541826
 31
0.0
  0
LINE
  5
   689
  8
0
  6
CONTINUOUS
 62
    98
 10
-388.531532287001
 20
-17.0579349541826
 30
0.0
 11
-388.531532287001
 21
-3.05793495418258
 31
0.0
  0
LINE
  5
   68A
  8
0
  6
CONTINUOUS
 62
    98
 10
-388.531532287001
 20
-3.05793495418258
 30
0.0
 11
-389.031532287001
 21
-3.05793495418258
 31
0.0
  0
LINE
  5
   68B
  8
0
  6
CONTINUOUS
 62
    98
 10
-389.031532287001
 20
-3.05793495418258
 30
0.0
 11
-389.031532287001
 21
-2.55793495418258
 31
0.0
  0
LINE
  5
   68C
  8
0
  6
CONTINUOUS
 62
    98
 10
-389.781524657607
 20
-15.9079349541826
 30
0.0
 11
-389.781524657607
 21
-2.55793495418258
 31
0.0
  0
LINE
  5
   68D
  8
0
  6
CONTINUOUS
 62
    98
 10
-389.781524657607
 20
-14.3425750919711
 30
0.0
 11
-389.781524657607
 21
-11.5579349541826
 31
0.0
  0
LINE
  5
   68E
  8
0
  6
CONTINUOUS
 62
    98
 10
-389.781524657607
 20
-26.4079349541826
 30
0.0
 11
-401.031532287001
 21
-26.4079349541826
 31
0.0
  0
LINE
  5
   68F
  8
0
  6
CONTINUOUS
 62
    98
 10
-389.781524657607
 20
-16.9079349541826
 30
0.0
 11
-401.031532287001
 21
-16.9079349541826
 31
0.0
  0
LINE
  5
   690
  8
0
  6
CONTINUOUS
 62
    98
 10
-389.781524657607
 20
-27.4079349541826
 30
0.0
 11
-399.781532287001
 21
-27.4079349541826
 31
0.0
  0
LINE
  5
   691
  8
0
  6
CONTINUOUS
 62
    98
 10
-389.781524657607
 20
-15.9079349541826
 30
0.0
 11
-399.781532287001
 21
-15.9079349541826
 31
0.0
  0
LINE
  5
   692
  8
0
  6
CONTINUOUS
 62
     1
 10
-399.781532287001
 20
-15.9079349541826
 30
0.0
 11
-399.781532287001
 21
-14.9079349541826
 31
0.0
  0
LINE
  5
   693
  8
0
  6
CONTINUOUS
 62
    98
 10
-399.781532287001
 20
-37.5579349541826
 30
0.0
 11
-399.781532287001
 21
-27.4079349541826
 31
0.0
  0
LINE
  5
   694
  8
0
  6
CONTINUOUS
 62
    98
 10
-389.781524657607
 20
-37.5579349541826
 30
0.0
 11
-389.781524657607
 21
-27.4079349541826
 31
0.0
  0
LINE
  5
   695
  8
0
  6
CONTINUOUS
 62
    98
 10
-389.781524657607
 20
-26.4079349541826
 30
0.0
 11
-389.781524657607
 21
-16.9079349541826
 31
0.0
  0
LINE
  5
   696
  8
0
  6
CONTINUOUS
 62
    98
 10
-401.031532287001
 20
-36.5579349541826
 30
0.0
 11
-438.281524657607
 21
-36.5579349541826
 31
0.0
  0
LINE
  5
   697
  8
0
  6
CONTINUOUS
 62
    98
 10
-401.031532287001
 20
-35.5579349541826
 30
0.0
 11
-438.281524657607
 21
-35.5579349541826
 31
0.0
  0
LINE
  5
   698
  8
0
  6
CONTINUOUS
 62
    98
 10
-401.031532287001
 20
-34.5579349541826
 30
0.0
 11
-438.281524657607
 21
-34.5579349541826
 31
0.0
  0
LINE
  5
   699
  8
0
  6
CONTINUOUS
 62
    98
 10
-399.781532287001
 20
-14.9079349541826
 30
0.0
 11
-419.28152513504
 21
-14.9079349541826
 31
0.0
  0
LINE
  5
   69A
  8
0
  6
CONTINUOUS
 62
    98
 10
-401.031532287001
 20
-15.9079349541826
 30
0.0
 11
-419.28152513504
 21
-15.9079349541826
 31
0.0
  0
LINE
  5
   69B
  8
0
  6
CONTINUOUS
 62
    98
 10
-401.031532287001
 20
-37.5579349541826
 30
0.0
 11
-401.031532287001
 21
-15.9079349541826
 31
0.0
  0
LINE
  5
   69C
  8
0
  6
CONTINUOUS
 62
     1
 10
-407.031532287001
 20
-15.9079349541826
 30
0.0
 11
-407.031532287001
 21
-14.9079349541826
 31
0.0
  0
INSERT
  5
   69D
  8
0
  6
CONTINUOUS
 62
    98
  2
*HATCH1014
 10
-387.781555175781
 20
-28.1764869689941
 30
0.0
 41
0.5
 42
0.5
 50
89.9999999480344
 43
0.5
  0
LINE
  5
   69E
  8
0
  6
CONTINUOUS
 62
     7
 10
-389.031532287001
 20
-2.55793495418258
 30
0.0
 11
-389.781524657607
 21
-2.55793495418258
 31
0.0
  0
LINE
  5
   69F
  8
0
  6
DASHDOT
 62
     7
 10
-439.281524658203
 20
-42.2145844490718
 30
0.0
 11
-439.281524658203
 21
-21.657956684337
 31
0.0
  0
LINE
  5
   6A0
  8
0
  6
DASHDOT
 62
     7
 10
-440.781524658203
 20
-42.1533599592758
 30
0.0
 11
-440.781524658203
 21
-21.657956684337
 31
0.0
  0
LINE
  5
   6A1
  8
0
  6
CONTINUOUS
 62
     3
 10
-416.647166739627
 20
-13.5704121915113
 30
0.0
 11
-417.535434600358
 21
-1.31635329461438
 31
0.0
  0
LINE
  5
   6A2
  8
0
  6
CONTINUOUS
 62
     7
 10
-402.281524658203
 20
-13.1579494364121
 30
0.0
 11
-418.819867639641
 21
-13.1579494364121
 31
0.0
  0
LINE
  5
   6A3
  8
0
  6
CONTINUOUS
 62
     7
 10
-438.281524658203
 20
-13.657956684337
 30
0.0
 11
-438.281524658203
 21
5.5891595100417
 31
0.0
  0
LINE
  5
   6A4
  8
0
  6
CONTINUOUS
 62
     7
 10
-438.281524658203
 20
5.58914567162007
 30
0.0
 11
-438.281524658203
 21
70.4420356750488
 31
0.0
  0
LINE
  5
   6A5
  8
0
  6
DASHDOT
 62
     7
 10
-439.281524658203
 20
-13.657956684337
 30
0.0
 11
-439.281524658203
 21
74.6902326798505
 31
0.0
  0
LINE
  5
   6A6
  8
0
  6
CONTINUOUS
 62
     7
 10
-439.281524658203
 20
65.1068458669326
 30
0.0
 11
-439.281524658203
 21
65.192028056874
 31
0.0
  0
LINE
  5
   6A7
  8
0
  6
CONTINUOUS
 62
     7
 10
-404.03152641868
 20
34.9420302901195
 30
0.0
 11
-404.03153610217
 21
39.0670421435419
 31
0.0
  0
LINE
  5
   6A8
  8
0
  6
CONTINUOUS
 62
     7
 10
-402.781554269372
 20
62.1920398316254
 30
0.0
 11
-402.427992876946
 21
62.3384860370386
 31
0.0
  0
LINE
  5
   6A9
  8
0
  6
CONTINUOUS
 62
     7
 10
-402.42798650539
 20
62.3384754739993
 30
0.0
 11
-402.281540288511
 21
62.6920292232243
 31
0.0
  0
LINE
  5
   6AA
  8
0
  6
CONTINUOUS
 62
     7
 10
-404.031532832498
 20
58.6920427731185
 30
0.0
 11
-404.031525203104
 21
62.1920427733985
 31
0.0
  0
LINE
  5
   6AB
  8
0
  6
CONTINUOUS
 62
     7
 10
-402.781539916992
 20
62.192043315663
 30
0.0
 11
-404.031524658203
 21
62.192043315663
 31
0.0
  0
LINE
  5
   6AC
  8
0
  6
CONTINUOUS
 62
     7
 10
-404.031532287598
 20
39.067043315663
 30
0.0
 11
-404.031532287598
 21
58.692043315663
 31
0.0
  0
LINE
  5
   6AD
  8
0
  6
CONTINUOUS
 62
     7
 10
-406.281524658203
 20
13.692043315663
 30
0.0
 11
-406.281524658203
 21
33.9420433156631
 31
0.0
  0
LINE
  5
   6AE
  8
0
  6
CONTINUOUS
 62
     7
 10
-406.281509677099
 20
33.9420708542354
 30
0.0
 11
-406.147537519834
 21
34.4420708405416
 31
0.0
  0
LINE
  5
   6AF
  8
0
  6
CONTINUOUS
 62
     7
 10
-406.147520486088
 20
34.442089868079
 30
0.0
 11
-405.781500302081
 21
34.8081176729003
 31
0.0
  0
LINE
  5
   6B0
  8
0
  6
CONTINUOUS
 62
     7
 10
-405.781552050704
 20
34.8080581329141
 30
0.0
 11
-405.281544448124
 21
34.9420302901195
 31
0.0
  0
LINE
  5
   6B1
  8
0
  6
CONTINUOUS
 62
     7
 10
-402.281524658203
 20
13.692043315663
 30
0.0
 11
-406.281524658203
 21
13.692043315663
 31
0.0
  0
LINE
  5
   6B2
  8
0
  6
CONTINUOUS
 62
     7
 10
-402.281546001776
 20
6.19203693968213
 30
0.0
 11
-402.781584128287
 21
6.69203692183881
 31
0.0
  0
LINE
  5
   6B3
  8
0
  6
CONTINUOUS
 62
     7
 10
-402.781572367429
 20
12.1920486187826
 30
0.0
 11
-402.281526612019
 21
12.6920486006285
 31
0.0
  0
LINE
  5
   6B4
  8
0
  6
CONTINUOUS
 62
     7
 10
-402.781578671982
 20
12.1920285430768
 30
0.0
 11
-434.1654821754
 21
12.1920285430768
 31
0.0
  0
LINE
  5
   6B5
  8
0
  6
CONTINUOUS
 62
     7
 10
-402.781571388245
 20
6.69204331566305
 30
0.0
 11
-434.165505409241
 21
6.69204331566305
 31
0.0
  0
LINE
  5
   6B6
  8
0
  6
CONTINUOUS
 62
     7
 10
-434.16548440996
 20
12.192021364738
 30
0.0
 11
-436.031526918265
 21
12.6920289933194
 31
0.0
  0
LINE
  5
   6B7
  8
0
  6
CONTINUOUS
 62
     7
 10
-436.031510746523
 20
12.6920236020098
 30
0.0
 11
-437.781526940338
 21
13.160941394138
 31
0.0
  0
LINE
  5
   6B8
  8
0
  6
CONTINUOUS
 62
     7
 10
-438.281524102525
 20
5.58916125232908
 30
0.0
 11
-434.165504400531
 21
6.69204362059914
 31
0.0
  0
LINE
  5
   6B9
  8
0
  6
CONTINUOUS
 62
     7
 10
-438.281518157701
 20
14.3391951127401
 30
0.0
 11
-437.781519614872
 21
14.4731672700087
 31
0.0
  0
LINE
  5
   6BA
  8
0
  6
CONTINUOUS
 62
     7
 10
-436.28152513504
 20
2.44203568626852
 30
0.0
 11
-438.281524658203
 21
2.44203568626852
 31
0.0
  0
LINE
  5
   6BB
  8
0
  6
CONTINUOUS
 62
     7
 10
-436.28152513504
 20
-1.31635329461439
 30
0.0
 11
-436.28152513504
 21
2.44203568626851
 31
0.0
  0
LINE
  5
   6BC
  8
0
  6
CONTINUOUS
 62
     7
 10
-437.781524658203
 20
5.72312546898335
 30
0.0
 11
-437.781524658203
 21
27.9420356862685
 31
0.0
  0
LINE
  5
   6BD
  8
0
  6
CONTINUOUS
 62
     7
 10
-436.031524658203
 20
12.692043315663
 30
0.0
 11
-436.031524658203
 21
25.192043315663
 31
0.0
  0
LINE
  5
   6BE
  8
0
  6
CONTINUOUS
 62
     7
 10
-436.781525611877
 20
27.9420356862685
 30
0.0
 11
-438.28152513504
 21
27.9420356862685
 31
0.0
  0
LINE
  5
   6BF
  8
0
  6
CONTINUOUS
 62
     7
 10
-436.406519527236
 20
27.8415516117625
 30
0.0
 11
-436.781520460732
 21
27.9420307297056
 31
0.0
  0
LINE
  5
   6C0
  8
0
  6
CONTINUOUS
 62
     7
 10
-436.406519527236
 20
27.8415516117625
 30
0.0
 11
-436.781520460732
 21
27.9420307297056
 31
0.0
  0
LINE
  5
   6C1
  8
0
  6
CONTINUOUS
 62
     7
 10
-436.132004079446
 20
27.5670282270365
 30
0.0
 11
-436.406523041289
 21
27.8415490863842
 31
0.0
  0
LINE
  5
   6C2
  8
0
  6
CONTINUOUS
 62
     7
 10
-436.031532154288
 20
27.1920216296036
 30
0.0
 11
-436.132012706928
 21
27.5670216284122
 31
0.0
  0
LINE
  5
   6C3
  8
0
  6
CONTINUOUS
 62
     7
 10
-436.031515598297
 20
25.192036461134
 30
0.0
 11
-436.031515598297
 21
27.1920288317395
 31
0.0
  0
LINE
  5
   6C4
  8
0
  6
CONTINUOUS
 62
     7
 10
-436.132001762027
 20
24.817032512564
 30
0.0
 11
-436.084390532497
 21
24.9947211085065
 31
0.0
  0
LINE
  5
   6C5
  8
0
  6
CONTINUOUS
 62
     7
 10
-436.084391449656
 20
24.9947162655647
 30
0.0
 11
-436.031522130995
 21
25.1920352930674
 31
0.0
  0
LINE
  5
   6C6
  8
0
  6
CONTINUOUS
 62
     7
 10
-436.406524812694
 20
24.5424968062608
 30
0.0
 11
-436.132005387641
 21
24.8170176660137
 31
0.0
  0
LINE
  5
   6C7
  8
0
  6
CONTINUOUS
 62
     7
 10
-436.781531084334
 20
24.4420252976483
 30
0.0
 11
-436.406531089511
 21
24.5425044078824
 31
0.0
  0
LINE
  5
   6C8
  8
0
  6
CONTINUOUS
 62
     7
 10
-436.78152513504
 20
24.4420356862685
 30
0.0
 11
-437.781524658203
 21
24.4420356862685
 31
0.0
  0
LINE
  5
   6C9
  8
0
  6
CONTINUOUS
 62
     7
 10
-438.281524658203
 20
-9.30796383689432
 30
0.0
 11
-439.281524658203
 21
-9.30796383689432
 31
0.0
  0
LINE
  5
   6CA
  8
0
  6
CONTINUOUS
 62
     7
 10
-438.281524658203
 20
65.192028056874
 30
0.0
 11
-439.281524658203
 21
65.192028056874
 31
0.0
  0
LINE
  5
   6CB
  8
0
  6
CONTINUOUS
 62
     7
 10
-438.281524658203
 20
60.2578544728896
 30
0.0
 11
-439.281524658203
 21
60.2578544728896
 31
0.0
  0
LINE
  5
   6CC
  8
0
  6
CONTINUOUS
 62
     7
 10
-434.63201798505
 20
6.56703764805668
 30
0.0
 11
-436.031536422835
 21
6.94203761903765
 31
0.0
  0
LINE
  5
   6CD
  8
0
  6
CONTINUOUS
 62
     7
 10
-436.031541347504
 20
6.94204238583551
 30
0.0
 11
-436.031541347504
 21
11.9420423858355
 31
0.0
  0
LINE
  5
   6CE
  8
0
  6
CONTINUOUS
 62
     7
 10
-436.031541201237
 20
11.9420356987093
 30
0.0
 11
-434.632010845698
 21
12.3170356953606
 31
0.0
  0
LINE
  5
   6CF
  8
0
  6
CONTINUOUS
 62
     7
 10
-438.281524658203
 20
-4.41565321754008
 30
0.0
 11
-439.281524658203
 21
-4.41565321754008
 31
0.0
  0
LINE
  5
   6D0
  8
0
  6
CONTINUOUS
 62
     7
 10
-438.281524658203
 20
-4.30796431373148
 30
0.0
 11
-439.281524658203
 21
-4.30796431373148
 31
0.0
  0
LINE
  5
   6D1
  8
0
  6
CONTINUOUS
 62
     7
 10
-436.132000068316
 20
24.5523863837485
 30
0.0
 11
-436.031519998786
 21
24.9947234051349
 31
0.0
  0
LINE
  5
   6D2
  8
0
  6
CONTINUOUS
 62
     7
 10
-436.031525611878
 20
24.9947242849013
 30
0.0
 11
-436.084394454956
 21
24.9947242849013
 31
0.0
  0
LINE
  5
   6D3
  8
0
  6
CONTINUOUS
 62
     7
 10
-436.098513046316
 20
17.9420305337282
 30
0.0
 11
-436.031526967212
 21
17.9917589253081
 31
0.0
  0
LINE
  5
   6D4
  8
0
  6
CONTINUOUS
 62
     7
 10
-436.098508592184
 20
17.9420129769284
 30
0.0
 11
-436.132003062253
 21
17.9668771718254
 31
0.0
  0
LINE
  5
   6D5
  8
0
  6
CONTINUOUS
 62
     7
 10
-436.03152513504
 20
22.9420433156631
 30
0.0
 11
-436.132005691528
 21
22.9420433156631
 31
0.0
  0
LINE
  5
   6D6
  8
0
  6
CONTINUOUS
 62
     7
 10
-436.132008424972
 20
19.917150000352
 30
0.0
 11
-436.098513954904
 21
19.942014195249
 31
0.0
  0
LINE
  5
   6D7
  8
0
  6
CONTINUOUS
 62
     7
 10
-436.031523035255
 20
19.8922986600648
 30
0.0
 11
-436.098509114359
 21
19.9420270516447
 31
0.0
  0
LINE
  5
   6D8
  8
0
  6
CONTINUOUS
 62
     7
 10
-436.077421650223
 20
23.8030793815824
 30
0.0
 11
-436.132008519754
 21
24.1079652423535
 31
0.0
  0
LINE
  5
   6D9
  8
0
  6
CONTINUOUS
 62
     7
 10
-436.03152553518
 20
22.9420447403229
 30
0.0
 11
-436.077419203273
 21
23.8030829154931
 31
0.0
  0
LINE
  5
   6DA
  8
0
  6
CONTINUOUS
 62
     7
 10
-436.132007866615
 20
17.9668919291914
 30
0.0
 11
-436.389687800108
 21
18.0181461960459
 31
0.0
  0
LINE
  5
   6DB
  8
0
  6
CONTINUOUS
 62
     7
 10
-436.389686417023
 20
18.0181492141121
 30
0.0
 11
-436.40652592116
 21
18.0294025703027
 31
0.0
  0
LINE
  5
   6DC
  8
0
  6
CONTINUOUS
 62
     7
 10
-436.406533332719
 20
19.8546561892093
 30
0.0
 11
-436.389692875487
 21
19.8659095456322
 31
0.0
  0
LINE
  5
   6DD
  8
0
  6
CONTINUOUS
 62
     7
 10
-436.389689578362
 20
19.8659071497093
 30
0.0
 11
-436.132010597969
 21
19.9171614085874
 31
0.0
  0
LINE
  5
   6DE
  8
0
  6
CONTINUOUS
 62
     7
 10
-436.132005691528
 20
22.9420433156631
 30
0.0
 11
-436.40652513504
 21
22.9420433156631
 31
0.0
  0
LINE
  5
   6DF
  8
0
  6
CONTINUOUS
 62
     7
 10
-436.406527378109
 20
18.0293956736964
 30
0.0
 11
-436.781527369406
 21
18.0965343301021
 31
0.0
  0
LINE
  5
   6E0
  8
0
  6
CONTINUOUS
 62
     7
 10
-436.781527949694
 20
19.7875191538793
 30
0.0
 11
-436.406527958398
 21
19.854657810285
 31
0.0
  0
LINE
  5
   6E1
  8
0
  6
CONTINUOUS
 62
     7
 10
-436.40652513504
 20
22.9420433156631
 30
0.0
 11
-436.78152513504
 21
22.9420433156631
 31
0.0
  0
LINE
  5
   6E2
  8
0
  6
CONTINUOUS
 62
     7
 10
-436.78152513504
 20
19.7875251882216
 30
0.0
 11
-437.781524658203
 21
19.7875251882216
 31
0.0
  0
LINE
  5
   6E3
  8
0
  6
CONTINUOUS
 62
     7
 10
-436.78152513504
 20
22.9420433156631
 30
0.0
 11
-437.781524658203
 21
22.9420433156631
 31
0.0
  0
LINE
  5
   6E4
  8
0
  6
CONTINUOUS
 62
     7
 10
-436.78152513504
 20
18.0965461843154
 30
0.0
 11
-437.781524658203
 21
18.0965461843154
 31
0.0
  0
LINE
  5
   6E5
  8
0
  6
CONTINUOUS
 62
     3
 10
-389.781524657607
 20
70.442043315663
 30
0.0
 11
-420.581524658203
 21
70.442043315663
 31
0.0
  0
LINE
  5
   6E6
  8
0
  6
CONTINUOUS
 62
     3
 10
-391.181526183486
 20
69.0420494191787
 30
0.0
 11
-405.513326452175
 21
69.0420494191787
 31
0.0
  0
LINE
  5
   6E7
  8
0
  6
CONTINUOUS
 62
     3
 10
-391.181526183486
 20
-13.1579494364121
 30
0.0
 11
-402.281524657607
 21
-13.1579494364121
 31
0.0
  0
LINE
  5
   6E8
  8
0
  6
CONTINUOUS
 62
     3
 10
-389.781524657607
 20
-14.5579490549424
 30
0.0
 11
-419.28152513504
 21
-14.5579490549424
 31
0.0
  0
LINE
  5
   6E9
  8
0
  6
CONTINUOUS
 62
     3
 10
-402.281524657607
 20
-14.5579490549424
 30
0.0
 11
-402.281524657607
 21
6.56704331566304
 31
0.0
  0
LINE
  5
   6EA
  8
0
  6
CONTINUOUS
 62
     3
 10
-402.281524657606
 20
12.3170356862685
 30
0.0
 11
-402.281524657606
 21
13.6920738332412
 31
0.0
  0
LINE
  5
   6EB
  8
0
  6
CONTINUOUS
 62
     3
 10
-402.281524658203
 20
62.6920669582653
 30
0.0
 11
-402.281524658203
 21
70.442043315663
 31
0.0
  0
LINE
  5
   6EC
  8
0
  6
CONTINUOUS
 62
     3
 10
-387.531524657607
 20
34.4164772145888
 30
0.0
 11
-387.531524657607
 21
39.1918830983779
 31
0.0
  0
LINE
  5
   6ED
  8
0
  6
CONTINUOUS
 62
     3
 10
-387.531528833867
 20
5.69189509513306
 30
0.0
 11
-387.53155172205
 21
8.96725472578604
 31
0.0
  0
LINE
  5
   6EE
  8
0
  6
CONTINUOUS
 62
     3
 10
-389.781524657607
 20
58.317043315663
 30
0.0
 11
-389.781524657607
 21
70.442043315663
 31
0.0
  0
LINE
  5
   6EF
  8
0
  6
CONTINUOUS
 62
     3
 10
-389.781524657607
 20
62.3170509450576
 30
0.0
 11
-391.181526183486
 21
62.3170509450576
 31
0.0
  0
LINE
  5
   6F0
  8
0
  6
CONTINUOUS
 62
     3
 10
-389.781524657607
 20
-2.55793495418258
 30
0.0
 11
-389.781524657607
 21
-2.18294816938781
 31
0.0
  0
LINE
  5
   6F1
  8
0
  6
CONTINUOUS
 62
     3
 10
-389.781524657607
 20
-6.43294905494242
 30
0.0
 11
-391.181526183486
 21
-6.43294905494242
 31
0.0
  0
LINE
  5
   6F2
  8
0
  6
CONTINUOUS
 62
     3
 10
-391.181526183486
 20
-13.1579475290635
 30
0.0
 11
-391.181526183486
 21
-2.18294778791761
 31
0.0
  0
LINE
  5
   6F3
  8
0
  6
CONTINUOUS
 62
     3
 10
-391.181527712893
 20
12.317043315663
 30
0.0
 11
-402.281526187014
 21
12.317043315663
 31
0.0
  0
LINE
  5
   6F4
  8
0
  6
CONTINUOUS
 62
     3
 10
-391.181527367688
 20
6.56704331566304
 30
0.0
 11
-402.281525841809
 21
6.56704331566304
 31
0.0
  0
LINE
  5
   6F5
  8
0
  6
CONTINUOUS
 62
     1
 10
-388.531525134444
 20
58.317043315663
 30
0.0
 11
-391.181526183486
 21
58.317043315663
 31
0.0
  0
LINE
  5
   6F6
  8
0
  6
CONTINUOUS
 62
     1
 10
-386.552988720902
 20
52.9938532917619
 30
0.0
 11
-386.568148327505
 21
53.0304591260869
 31
0.0
  0
LINE
  5
   6F7
  8
0
  6
CONTINUOUS
 62
     1
 10
-386.568131756444
 20
53.0304247541743
 30
0.0
 11
-386.656519720956
 21
53.0670305889891
 31
0.0
  0
LINE
  5
   6F8
  8
0
  6
CONTINUOUS
 62
     1
 10
-389.781524657607
 20
-2.18294857810526
 30
0.0
 11
-390.031524657607
 21
-2.18294857810526
 31
0.0
  0
LINE
  5
   6F9
  8
0
  6
CONTINUOUS
 62
     1
 10
-388.531525134444
 20
-2.18293495418258
 30
0.0
 11
-391.181526183486
 21
-2.18293495418258
 31
0.0
  0
LINE
  5
   6FA
  8
0
  6
CONTINUOUS
 62
     2
 10
-383.03086949736
 20
0.817043792500208
 30
0.0
 11
-383.03086949736
 21
1.81704236198873
 31
0.0
  0
LINE
  5
   6FB
  8
0
  6
CONTINUOUS
 62
     2
 10
-387.530869467557
 20
0.567043317490537
 30
0.0
 11
-387.530869467557
 21
53.0670433174905
 31
0.0
  0
LINE
  5
   6FC
  8
0
  6
CONTINUOUS
 62
     2
 10
-385.781529426575
 20
53.067043315663
 30
0.0
 11
-388.531525134444
 21
53.067043315663
 31
0.0
  0
LINE
  5
   6FD
  8
0
  6
CONTINUOUS
 62
     2
 10
-385.781529426575
 20
0.567043316843048
 30
0.0
 11
-388.531525134444
 21
0.567043316843048
 31
0.0
  0
LINE
  5
   6FE
  8
0
  6
CONTINUOUS
 62
     2
 10
-383.030970427912
 20
16.8170303042288
 30
0.0
 11
-383.030943725033
 21
26.5670303048496
 31
0.0
  0
LINE
  5
   6FF
  8
0
  6
CONTINUOUS
 62
     7
 10
-404.031528472776
 20
34.9420302901195
 30
0.0
 11
-405.281544448124
 21
34.9420302901195
 31
0.0
  0
LINE
  5
   700
  8
0
  6
CONTINUOUS
 62
     7
 10
-388.531525134444
 20
53.067043315663
 30
0.0
 11
-388.531525134444
 21
58.317043315663
 31
0.0
  0
LINE
  5
   701
  8
0
  6
CONTINUOUS
 62
     7
 10
-388.531525134444
 20
-2.1829485099857
 30
0.0
 11
-388.531525134444
 21
0.567043316843048
 31
0.0
  0
LINE
  5
   702
  8
0
  6
CONTINUOUS
 62
     3
 10
-391.181526183486
 20
58.317043315663
 30
0.0
 11
-391.181526183486
 21
69.0420494191787
 31
0.0
  0
LINE
  5
   703
  8
0
  6
CONTINUOUS
 62
     3
 10
-391.181526183486
 20
-2.18294778791761
 30
0.0
 11
-391.181526183486
 21
58.317043315663
 31
0.0
  0
ARC
  5
   704
  8
0
  6
CONTINUOUS
 62
     7
 10
-372.69350475353
 20
15.795102490377
 30
0.0
 40
0.499999897877905
 50
348.623601716676
 51
436.688817054576
  0
ARC
  5
   705
  8
0
  6
CONTINUOUS
 62
     7
 10
-373.291875482078
 20
12.8211932103281
 30
0.0
 40
0.50000037262337
 50
260.594020543651
 51
348.623601716676
  0
LINE
  5
   706
  8
0
  6
DASHDOT
 62
     7
 10
-365.293210916597
 20
12.7407755138462
 30
0.0
 11
-390.351556645587
 21
17.7826832838865
 31
0.0
  0
LINE
  5
   707
  8
0
  6
CONTINUOUS
 62
     7
 10
-372.578385021916
 20
16.2816690170323
 30
0.0
 11
-383.030965121083
 21
18.7547084674781
 31
0.0
  0
LINE
  5
   708
  8
0
  6
CONTINUOUS
 62
     7
 10
-372.801698988401
 20
12.7225664015638
 30
0.0
 11
-372.203328424146
 21
15.6964757146697
 31
0.0
  0
LINE
  5
   709
  8
0
  6
CONTINUOUS
 62
     7
 10
-373.373589976617
 20
12.3279154470276
 30
0.0
 11
-383.030940057413
 21
13.9277148686773
 31
0.0
  0
LINE
  5
   70A
  8
0
  6
DASHDOT
 62
     7
 10
-440.781524658203
 20
-13.657956684337
 30
0.0
 11
-440.781524658203
 21
74.894778134396
 31
0.0
  0
LINE
  5
   70B
  8
0
  6
CONTINUOUS
 62
     7
 10
-420.831878417003
 20
58.692043315663
 30
0.0
 11
-426.83203473032
 21
58.692043315663
 31
0.0
  0
LINE
  5
   70C
  8
0
  6
CONTINUOUS
 62
     7
 10
-420.982126248478
 20
57.442043315663
 30
0.0
 11
-427.116460625199
 21
57.442043315663
 31
0.0
  0
LINE
  5
   70D
  8
0
  6
CONTINUOUS
 62
     7
 10
-433.781524658203
 20
55.4092659344594
 30
0.0
 11
-433.781524658203
 21
57.442043315663
 31
0.0
  0
LINE
  5
   70E
  8
0
  6
CONTINUOUS
 62
     7
 10
-431.781524658203
 20
55.4092659344594
 30
0.0
 11
-431.781524658203
 21
57.442043315663
 31
0.0
  0
LINE
  5
   70F
  8
0
  6
CONTINUOUS
 62
     7
 10
-426.781524658203
 20
57.442043315663
 30
0.0
 11
-426.781524658203
 21
58.692043315663
 31
0.0
  0
LINE
  5
   710
  8
0
  6
CONTINUOUS
 62
     7
 10
-430.557301241749
 20
57.442043315663
 30
0.0
 11
-433.781524658203
 21
57.442043315663
 31
0.0
  0
LINE
  5
   711
  8
0
  6
CONTINUOUS
 62
     3
 10
-420.662553755706
 20
55.4092659344594
 30
0.0
 11
-441.895945221184
 21
55.4092659344594
 31
0.0
  0
LINE
  5
   712
  8
0
  6
CONTINUOUS
 62
     7
 10
-426.781524658203
 20
68.192043315663
 30
0.0
 11
-429.281524658203
 21
68.192043315663
 31
0.0
  0
LINE
  5
   713
  8
0
  6
CONTINUOUS
 62
     7
 10
-426.781524658203
 20
58.69204240886
 30
0.0
 11
-426.781524658203
 21
68.192043315663
 31
0.0
  0
LINE
  5
   714
  8
0
  6
CONTINUOUS
 62
     7
 10
-429.570133318289
 20
54.9092659344594
 30
0.0
 11
-427.531889622295
 21
56.9063276384882
 31
0.0
  0
LINE
  5
   715
  8
0
  6
CONTINUOUS
 62
     7
 10
-431.031160154711
 20
56.9777584759196
 30
0.0
 11
-429.28152473766
 21
58.6920434181141
 31
0.0
  0
LINE
  5
   716
  8
0
  6
CONTINUOUS
 62
     7
 10
-429.281524658203
 20
58.692043315663
 30
0.0
 11
-429.281524658203
 21
61.592043315663
 31
0.0
  0
ARC
  5
   717
  8
0
  6
CONTINUOUS
 62
     7
 10
-429.281525060436
 20
55.1920441142988
 30
0.0
 40
2.49999952145068
 50
134.415297503443
 51
179.999999948034
  0
ARC
  5
   718
  8
0
  6
CONTINUOUS
 62
     7
 10
-429.281524658203
 20
58.69204240886
 30
0.0
 40
2.5
 50
314.415292674021
 51
359.999999948034
  0
LINE
  5
   719
  8
0
  6
DASHDOT
 62
     7
 10
-423.615215206889
 20
63.692043315663
 30
0.0
 11
-431.945038771187
 21
63.692043315663
 31
0.0
  0
INSERT
  5
   71A
  8
0
  6
CONTINUOUS
 62
     7
  2
*HATCH1015
 10
-387.781555175781
 20
-28.1764869689941
 30
0.0
 41
0.5
 42
0.5
 50
89.9999999480344
 43
0.5
  0
LINE
  5
   71B
  8
0
  6
CONTINUOUS
 62
     7
 10
-429.281524658203
 20
-2.8079504753103
 30
0.0
 11
-438.281524658203
 21
-2.8079504753103
 31
0.0
  0
LINE
  5
   71C
  8
0
  6
CONTINUOUS
 62
     7
 10
-431.281524658203
 20
-2.8079504753103
 30
0.0
 11
-431.281524658203
 21
-1.31635329461439
 31
0.0
  0
LINE
  5
   71D
  8
0
  6
CONTINUOUS
 62
     7
 10
-429.281524658203
 20
-2.8079504753103
 30
0.0
 11
-429.281524658203
 21
-1.31635329461439
 31
0.0
  0
LINE
  5
   71E
  8
0
  6
CONTINUOUS
 62
     7
 10
-426.281524658203
 20
-2.8079504753103
 30
0.0
 11
-426.281524658203
 21
-1.31635329461439
 31
0.0
  0
LINE
  5
   71F
  8
0
  6
CONTINUOUS
 62
     7
 10
-417.427312234706
 20
-2.8079504753103
 30
0.0
 11
-426.281524658203
 21
-2.8079504753103
 31
0.0
  0
LINE
  5
   720
  8
0
  6
CONTINUOUS
 62
     3
 10
-417.535434600358
 20
-1.31635329461439
 30
0.0
 11
-438.975435914287
 21
-1.31635329461439
 31
0.0
  0
LINE
  5
   721
  8
0
  6
CONTINUOUS
 62
     7
 10
-427.78152513504
 20
-12.3079504753103
 30
0.0
 11
-429.281524658203
 21
-12.3079504753103
 31
0.0
  0
LINE
  5
   722
  8
0
  6
CONTINUOUS
 62
     7
 10
-427.78152513504
 20
-5.80795668433695
 30
0.0
 11
-427.78152513504
 21
-1.31635329461439
 31
0.0
  0
LINE
  5
   723
  8
0
  6
CONTINUOUS
 62
     7
 10
-427.78152513504
 20
-12.3079504753104
 30
0.0
 11
-427.78152513504
 21
-9.93295142898472
 31
0.0
  0
LINE
  5
   724
  8
0
  6
CONTINUOUS
 62
     7
 10
-429.281524658206
 20
-12.3079504753103
 30
0.0
 11
-429.281524658206
 21
-1.31635329461439
 31
0.0
  0
LINE
  5
   725
  8
0
  6
CONTINUOUS
 62
     7
 10
-426.78152513504
 20
-12.3079504753104
 30
0.0
 11
-427.78152513504
 21
-12.3079504753104
 31
0.0
  0
LINE
  5
   726
  8
0
  6
CONTINUOUS
 62
     7
 10
-426.78152513504
 20
-1.8079504753104
 30
0.0
 11
-427.78152513504
 21
-1.8079504753104
 31
0.0
  0
LINE
  5
   727
  8
0
  6
DASHDOT
 62
     7
 10
-418.349440865489
 20
-7.80795668433695
 30
0.0
 11
-431.945038771187
 21
-7.80795668433695
 31
0.0
  0
INSERT
  5
   728
  8
0
  6
CONTINUOUS
 62
     7
  2
*HATCH1016
 10
-387.781555175781
 20
-28.1764869689941
 30
0.0
 41
0.5
 42
0.5
 50
89.9999999480344
 43
0.5
  0
LINE
  5
   729
  8
0
  6
CONTINUOUS
 62
     7
 10
-426.78152513504
 20
-5.75795668433695
 30
0.0
 11
-429.281524658206
 21
-5.75795668433695
 31
0.0
  0
LINE
  5
   72A
  8
0
  6
CONTINUOUS
 62
     7
 10
-426.78152513504
 20
-9.85795668433695
 30
0.0
 11
-429.281524658206
 21
-9.85795668433695
 31
0.0
  0
INSERT
  5
   72B
  8
0
  6
CONTINUOUS
 62
     7
  2
*HATCH1017
 10
-387.781555175781
 20
-28.1764869689941
 30
0.0
 41
0.5
 42
0.5
 50
89.9999999480344
 43
0.5
  0
INSERT
  5
   72C
  8
0
  6
CONTINUOUS
 62
     7
  2
*HATCH1018
 10
-387.781555175781
 20
-28.1764869689941
 30
0.0
 41
0.5
 42
0.5
 50
89.9999999480344
 43
0.5
  0
INSERT
  5
   72D
  8
0
  6
CONTINUOUS
 62
     7
  2
*HATCH1019
 10
-387.781555175781
 20
-28.1764869689941
 30
0.0
 41
0.5
 42
0.5
 50
89.9999999480344
 43
0.5
  0
ARC
  5
   72E
  8
0
  6
DASHDOT
 62
     7
 10
-409.781125714156
 20
21.692043315663
 30
0.0
 40
38.0221347997541
 50
337.492314704898
 51
359.999999948034
  0
LINE
  5
   72F
  8
0
  6
DASHDOT
 62
     7
 10
-371.758990914402
 20
21.692043315663
 30
0.0
 11
-371.758990914402
 21
24.5671431330318
 31
0.0
  0
LINE
  5
   730
  8
0
  6
CONTINUOUS
 62
     7
 10
-426.781524658203
 20
65.792043315663
 30
0.0
 11
-429.281524658203
 21
65.792043315663
 31
0.0
  0
LINE
  5
   731
  8
0
  6
CONTINUOUS
 62
     7
 10
-426.781524658203
 20
61.592043315663
 30
0.0
 11
-429.281524658203
 21
61.592043315663
 31
0.0
  0
INSERT
  5
   732
  8
0
  6
CONTINUOUS
 62
     7
  2
*HATCH1020
 10
-387.781555175781
 20
-28.1764869689941
 30
0.0
 41
0.5
 42
0.5
 50
89.9999999480344
 43
0.5
  0
INSERT
  5
   733
  8
0
  6
CONTINUOUS
 62
     7
  2
*HATCH1021
 10
-387.781555175781
 20
-28.1764869689941
 30
0.0
 41
0.5
 42
0.5
 50
89.9999999480344
 43
0.5
  0
INSERT
  5
   734
  8
0
  6
CONTINUOUS
 62
     7
  2
*HATCH1022
 10
-387.781555175781
 20
-28.1764869689941
 30
0.0
 41
0.5
 42
0.5
 50
89.9999999480344
 43
0.5
  0
LINE
  5
   735
  8
0
  6
CONTINUOUS
 62
     7
 10
-426.781524658203
 20
70.4420356750488
 30
0.0
 11
-438.281524658203
 21
70.4420356750488
 31
0.0
  0
LINE
  5
   736
  8
0
  6
CONTINUOUS
 62
     7
 10
-436.1594168926
 20
74.2644907118137
 30
0.0
 11
-444.567762046813
 21
75.4110832328427
 31
0.0
  0
LINE
  5
   737
  8
0
  6
CONTINUOUS
 62
     1
 10
-385.781529426575
 20
-0.686174392700195
 30
0.0
 11
-385.781529426575
 21
0.313825607299805
 31
0.0
  0
LINE
  5
   738
  8
0
  6
CONTINUOUS
 62
     1
 10
-384.781529426575
 20
-0.686174392700195
 30
0.0
 11
-385.781529426575
 21
-0.686174392700195
 31
0.0
  0
LINE
  5
   739
  8
0
  6
CONTINUOUS
 62
     1
 10
-385.781529426575
 20
53.3138236999512
 30
0.0
 11
-385.781529426575
 21
54.3138236999512
 31
0.0
  0
LINE
  5
   73A
  8
0
  6
CONTINUOUS
 62
     1
 10
-384.781529426575
 20
54.3138236999512
 30
0.0
 11
-385.781529426575
 21
54.3138236999512
 31
0.0
  0
LINE
  5
   73B
  8
0
  6
CONTINUOUS
 62
     1
 10
-385.781529426575
 20
0.313825607299805
 30
0.0
 11
-385.781529426575
 21
53.3138256072998
 31
0.0
  0
LINE
  5
   73C
  8
0
  6
CONTINUOUS
 62
     1
 10
-388.031529337168
 20
61.1024971008301
 30
0.0
 11
-388.031529337168
 21
63.5251502990723
 31
0.0
  0
LINE
  5
   73D
  8
0
  6
CONTINUOUS
 62
     1
 10
-388.031529337168
 20
-9.89749908447266
 30
0.0
 11
-388.031529337168
 21
-7.47484970092773
 31
0.0
  0
LINE
  5
   73E
  8
0
  6
CONTINUOUS
 62
     1
 10
-384.781529426575
 20
-13.9361743927002
 30
0.0
 11
-384.781529426575
 21
67.5638256072998
 31
0.0
  0
LINE
  5
   73F
  8
0
  6
CONTINUOUS
 62
     1
 10
-383.031529426575
 20
-13.9361743927002
 30
0.0
 11
-384.781529426575
 21
-13.9361743927002
 31
0.0
  0
LINE
  5
   740
  8
0
  6
CONTINUOUS
 62
     1
 10
-383.031529426575
 20
-13.9361763000488
 30
0.0
 11
-383.031529426575
 21
67.5638236999512
 31
0.0
  0
LINE
  5
   741
  8
0
  6
CONTINUOUS
 62
     1
 10
-383.031529426575
 20
67.5638236999512
 30
0.0
 11
-383.531529426575
 21
67.5638236999512
 31
0.0
  0
LINE
  5
   742
  8
0
  6
CONTINUOUS
 62
     1
 10
-384.031529426575
 20
67.5638236999512
 30
0.0
 11
-384.781529426575
 21
67.5638236999512
 31
0.0
  0
LINE
  5
   743
  8
0
  6
CONTINUOUS
 62
     1
 10
-384.781529426575
 20
60.8138236999512
 30
0.0
 11
-387.531529344018
 21
60.8138236999512
 31
0.0
  0
LINE
  5
   744
  8
0
  6
CONTINUOUS
 62
     1
 10
-384.781529426575
 20
63.8138236999512
 30
0.0
 11
-387.531529344018
 21
63.8138236999512
 31
0.0
  0
LINE
  5
   745
  8
0
  6
CONTINUOUS
 62
     1
 10
-387.531528946156
 20
60.8138225514204
 30
0.0
 11
-388.03152896262
 21
61.1024959559186
 31
0.0
  0
LINE
  5
   746
  8
0
  6
CONTINUOUS
 62
     1
 10
-387.531529344018
 20
60.8138236999512
 30
0.0
 11
-387.531529344018
 21
61.2531623840332
 31
0.0
  0
LINE
  5
   747
  8
0
  6
CONTINUOUS
 62
     1
 10
-387.531529344018
 20
61.2531623840332
 30
0.0
 11
-387.531529344018
 21
61.739803314209
 31
0.0
  0
LINE
  5
   748
  8
0
  6
CONTINUOUS
 62
     1
 10
-387.531529344018
 20
61.739803314209
 30
0.0
 11
-387.531529344018
 21
62.3138236999512
 31
0.0
  0
LINE
  5
   749
  8
0
  6
CONTINUOUS
 62
     1
 10
-387.531529344018
 20
62.3138236999512
 30
0.0
 11
-387.531529344018
 21
62.8878517150879
 31
0.0
  0
LINE
  5
   74A
  8
0
  6
CONTINUOUS
 62
     1
 10
-387.531529344018
 20
62.8878517150879
 30
0.0
 11
-387.531529344018
 21
63.8138236999512
 31
0.0
  0
LINE
  5
   74B
  8
0
  6
CONTINUOUS
 62
     1
 10
-387.531529344018
 20
63.3744850158691
 30
0.0
 11
-387.531529344018
 21
63.6996421813965
 31
0.0
  0
LINE
  5
   74C
  8
0
  6
CONTINUOUS
 62
     1
 10
-387.781529344018
 20
63.6996421813965
 30
0.0
 11
-387.781529344018
 21
63.8138236999512
 31
0.0
  0
LINE
  5
   74D
  8
0
  6
CONTINUOUS
 62
     1
 10
-388.031529771757
 20
63.5251491082032
 30
0.0
 11
-387.531529755293
 21
63.8138225127015
 31
0.0
  0
LINE
  5
   74E
  8
0
  6
CONTINUOUS
 62
     1
 10
-384.781529426575
 20
-7.1861743927002
 30
0.0
 11
-387.531529327373
 21
-7.1861743927002
 31
0.0
  0
LINE
  5
   74F
  8
0
  6
CONTINUOUS
 62
     1
 10
-384.781529426575
 20
-10.1861743927002
 30
0.0
 11
-387.53152932736
 21
-10.1861743927002
 31
0.0
  0
LINE
  5
   750
  8
0
  6
CONTINUOUS
 62
     1
 10
-388.031529598242
 20
-7.4748504010536
 30
0.0
 11
-387.531529581778
 21
-7.18617510879705
 31
0.0
  0
LINE
  5
   751
  8
0
  6
CONTINUOUS
 62
     1
 10
-387.531529327373
 20
-7.62551498413087
 30
0.0
 11
-387.531529327373
 21
-7.1861743927002
 31
0.0
  0
LINE
  5
   752
  8
0
  6
CONTINUOUS
 62
     1
 10
-387.531529327358
 20
-8.11214828491212
 30
0.0
 11
-387.531529327358
 21
-7.62551498413087
 31
0.0
  0
LINE
  5
   753
  8
0
  6
CONTINUOUS
 62
     1
 10
-387.531529327393
 20
-8.6861743927002
 30
0.0
 11
-387.531529327393
 21
-8.11214828491212
 31
0.0
  0
LINE
  5
   754
  8
0
  6
CONTINUOUS
 62
     1
 10
-387.531529327331
 20
-9.26019859313966
 30
0.0
 11
-387.531529327331
 21
-8.6861743927002
 31
0.0
  0
LINE
  5
   755
  8
0
  6
CONTINUOUS
 62
     1
 10
-387.531529327359
 20
-9.74683380126954
 30
0.0
 11
-387.531529327359
 21
-9.26019859313966
 31
0.0
  0
LINE
  5
   756
  8
0
  6
CONTINUOUS
 62
     1
 10
-387.531529327371
 20
-10.0719928741455
 30
0.0
 11
-387.531529327371
 21
-9.74683380126954
 31
0.0
  0
LINE
  5
   757
  8
0
  6
CONTINUOUS
 62
     1
 10
-387.531529120198
 20
-10.1861750064497
 30
0.0
 11
-388.031529136662
 21
-9.89749971419318
 31
0.0
  0
LINE
  5
   758
  8
0
  6
CONTINUOUS
 62
     1
 10
-387.53152932736
 20
-10.1861743927002
 30
0.0
 11
-387.53152932736
 21
-10.0719928741455
 31
0.0
  0
LINE
  5
   759
  8
0
  6
CONTINUOUS
 62
     1
 10
-383.531529426575
 20
67.5638236999512
 30
0.0
 11
-384.031529426575
 21
67.5638236999512
 31
0.0
  0
LINE
  5
   75A
  8
0
  6
CONTINUOUS
 62
     7
 10
-384.781529426575
 20
67.5638236999512
 30
0.0
 11
-384.781529426575
 21
88.9134190200681
 31
0.0
  0
LINE
  5
   75B
  8
0
  6
CONTINUOUS
 62
     7
 10
-385.781529426575
 20
54.3138236999512
 30
0.0
 11
-385.781529426575
 21
60.8138236999512
 31
0.0
  0
LINE
  5
   75C
  8
0
  6
CONTINUOUS
 62
     7
 10
-384.781529426575
 20
-33.4156466195241
 30
0.0
 11
-384.781529426575
 21
-13.9361743927002
 31
0.0
  0
LINE
  5
   75D
  8
0
  6
CONTINUOUS
 62
     7
 10
-385.781529426575
 20
-32.8165408073036
 30
0.0
 11
-385.781529426575
 21
-10.1861743927002
 31
0.0
  0
LINE
  5
   75E
  8
0
  6
CONTINUOUS
 62
     7
 10
-384.781529426575
 20
64.0638236999512
 30
0.0
 11
-385.781529426575
 21
64.0638236999512
 31
0.0
  0
LINE
  5
   75F
  8
0
  6
CONTINUOUS
 62
     7
 10
-384.781529426575
 20
60.5638236999512
 30
0.0
 11
-385.781529426575
 21
60.5638236999512
 31
0.0
  0
LINE
  5
   760
  8
0
  6
CONTINUOUS
 62
     7
 10
-384.781529426575
 20
54.8138236999512
 30
0.0
 11
-385.781529426575
 21
54.8138236999512
 31
0.0
  0
LINE
  5
   761
  8
0
  6
CONTINUOUS
 62
     7
 10
-384.781529426575
 20
-1.1861743927002
 30
0.0
 11
-385.781529426575
 21
-1.1861743927002
 31
0.0
  0
LINE
  5
   762
  8
0
  6
CONTINUOUS
 62
     7
 10
-384.781529426575
 20
-6.9361743927002
 30
0.0
 11
-385.781529426575
 21
-6.9361743927002
 31
0.0
  0
LINE
  5
   763
  8
0
  6
CONTINUOUS
 62
     7
 10
-384.781529426575
 20
-10.4361743927002
 30
0.0
 11
-385.781529426575
 21
-10.4361743927002
 31
0.0
  0
LINE
  5
   764
  8
0
  6
CONTINUOUS
 62
     7
 10
-385.781529426575
 20
-7.1861743927002
 30
0.0
 11
-385.781529426575
 21
-0.686174392700195
 31
0.0
  0
LINE
  5
   765
  8
0
  6
CONTINUOUS
 62
     7
 10
-385.781529426575
 20
63.8138236999512
 30
0.0
 11
-385.781529426575
 21
89.7534960913591
 31
0.0
  0
LINE
  5
   766
  8
0
  6
CONTINUOUS
 62
     3
 10
-382.761931807821
 20
87.2168013673195
 30
0.0
 11
-387.569866420734
 21
91.2558369958941
 31
0.0
  0
LINE
  5
   767
  8
0
  6
CONTINUOUS
 62
     3
 10
-382.057879725776
 20
-35.0474009857254
 30
0.0
 11
-388.27391850278
 21
-31.3233360254342
 31
0.0
  0
INSERT
  5
   768
  8
0
  6
CONTINUOUS
 62
     7
  2
*HATCH1023
 10
-387.781555175781
 20
-28.1764869689941
 30
0.0
 41
0.5
 42
0.5
 50
89.9999999480344
 43
0.5
  0
INSERT
  5
   769
  8
0
  6
CONTINUOUS
 62
     7
  2
*HATCH1024
 10
-387.781555175781
 20
-28.1764869689941
 30
0.0
 41
0.5
 42
0.5
 50
89.9999999480344
 43
0.5
  0
INSERT
  5
   76A
  8
0
  6
CONTINUOUS
 62
     7
  2
*HATCH1025
 10
-387.781555175781
 20
-28.1764869689941
 30
0.0
 41
0.5
 42
0.5
 50
89.9999999480344
 43
0.5
  0
INSERT
  5
   76B
  8
0
  6
CONTINUOUS
 62
     7
  2
*HATCH1026
 10
-387.781555175781
 20
-28.1764869689941
 30
0.0
 41
0.5
 42
0.5
 50
89.9999999480344
 43
0.5
  0
LINE
  5
   76C
  8
0
  6
DASHDOT
 62
     7
 10
-371.758990914402
 20
21.692043315663
 30
0.0
 11
-371.758990914402
 21
32.224270220958
 31
0.0
  0
LINE
  5
   76D
  8
0
  6
DASHDOT
 62
     5
 10
-358.800487997999
 20
26.817043315663
 30
0.0
 11
-453.363893951276
 21
26.817043315663
 31
0.0
  0
LINE
  5
   76E
  8
0
  6
CONTINUOUS
 62
     3
 10
-406.692099126782
 20
58.3310861739532
 30
0.0
 11
-405.021696017893
 21
73.5092682691459
 31
0.0
  0
LINE
  5
   76F
  8
0
  6
CONTINUOUS
 62
     3
 10
-420.662553755706
 20
55.4092659344595
 30
0.0
 11
-420.896924363152
 21
58.3310861739532
 31
0.0
  0
LINE
  5
   770
  8
0
  6
CONTINUOUS
 62
     3
 10
-406.692099126782
 20
58.3310861739532
 30
0.0
 11
-420.896924363152
 21
58.3310861739532
 31
0.0
  0
CIRCLE
  5
   771
  8
0
  6
CONTINUOUS
 62
     7
 10
-430.141387557085
 20
67.062716338576
 30
0.0
 40
0.25
  0
LINE
  5
   772
  8
0
  6
CONTINUOUS
 62
     7
 10
-429.281524658203
 20
65.792043315663
 30
0.0
 11
-429.281524658203
 21
68.192043315663
 31
0.0
  0
CIRCLE
  5
   773
  8
0
  6
CONTINUOUS
 62
     7
 10
-427.09488200536
 20
-25.2840869911547
 30
0.0
 40
0.125
  0
LINE
  5
   774
  8
0
  6
CONTINUOUS
 62
     3
 10
-430.531524658203
 20
58.692043315663
 30
0.0
 11
-430.531524658203
 21
68.692043315663
 31
0.0
  0
LINE
  5
   775
  8
0
  6
DASHDOT
 62
     3
 10
-406.237017728258
 20
63.692043315663
 30
0.0
 11
-432.866349471097
 21
63.692043315663
 31
0.0
  0
LINE
  5
   776
  8
0
  6
CONTINUOUS
 62
     3
 10
-429.281524658203
 20
58.692043315663
 30
0.0
 11
-429.281524658203
 21
61.692043315663
 31
0.0
  0
LINE
  5
   777
  8
0
  6
CONTINUOUS
 62
     3
 10
-426.781524658203
 20
68.692043315663
 30
0.0
 11
-430.531524658203
 21
68.692043315663
 31
0.0
  0
LINE
  5
   778
  8
0
  6
CONTINUOUS
 62
     3
 10
-429.281524658203
 20
58.692043315663
 30
0.0
 11
-430.531524658203
 21
58.692043315663
 31
0.0
  0
LINE
  5
   779
  8
0
  6
CONTINUOUS
 62
     3
 10
-411.031524658203
 20
59.692043315663
 30
0.0
 11
-411.031524658203
 21
60.692043315663
 31
0.0
  0
ARC
  5
   77A
  8
0
  6
CONTINUOUS
 62
     3
 10
-429.281524658203
 20
63.692043315663
 30
0.0
 40
2.0
 50
359.999999948034
 51
449.999999948034
  0
ARC
  5
   77B
  8
0
  6
CONTINUOUS
 62
     3
 10
-412.031524658203
 20
67.692043315663
 30
0.0
 40
1.0
 50
359.999999948034
 51
449.999999948034
  0
ARC
  5
   77C
  8
0
  6
CONTINUOUS
 62
     3
 10
-412.031524658203
 20
59.692043315663
 30
0.0
 40
1.0
 50
269.999999948034
 51
359.999999948034
  0
ARC
  5
   77D
  8
0
  6
CONTINUOUS
 62
     3
 10
-429.281524658203
 20
63.692043315663
 30
0.0
 40
2.0
 50
269.999999948034
 51
359.999999948034
  0
ARC
  5
   77E
  8
0
  6
CONTINUOUS
 62
     3
 10
-429.281524658203
 20
63.692043315663
 30
0.0
 40
1.0
 50
262.819244166576
 51
457.180755729493
  0
ARC
  5
   77F
  8
0
  6
CONTINUOUS
 62
     3
 10
-429.531524658203
 20
65.6763567989615
 30
0.0
 40
1.0
 50
179.999999948034
 51
277.180755729493
  0
ARC
  5
   780
  8
0
  6
CONTINUOUS
 62
     3
 10
-429.531524658203
 20
61.7077298323646
 30
0.0
 40
1.0
 50
442.819244166576
 51
539.999999948034
  0
LINE
  5
   781
  8
0
  6
CONTINUOUS
 62
     3
 10
-429.281524658203
 20
65.692043315663
 30
0.0
 11
-429.281524658203
 21
68.692043315663
 31
0.0
  0
LINE
  5
   782
  8
0
  6
CONTINUOUS
 62
     3
 10
-414.781524658203
 20
58.692043315663
 30
0.0
 11
-414.781524658203
 21
60.692043315663
 31
0.0
  0
LINE
  5
   783
  8
0
  6
CONTINUOUS
 62
     3
 10
-412.781524658203
 20
58.692043315663
 30
0.0
 11
-412.781524658203
 21
60.692043315663
 31
0.0
  0
LINE
  5
   784
  8
0
  6
CONTINUOUS
 62
     3
 10
-412.781524658203
 20
66.192043315663
 30
0.0
 11
-414.781524658203
 21
66.192043315663
 31
0.0
  0
LINE
  5
   785
  8
0
  6
CONTINUOUS
 62
     3
 10
-412.781524658203
 20
61.192043315663
 30
0.0
 11
-414.781524658203
 21
61.192043315663
 31
0.0
  0
LINE
  5
   786
  8
0
  6
CONTINUOUS
 62
     3
 10
-412.781524658203
 20
66.692043315663
 30
0.0
 11
-414.781524658203
 21
66.692043315663
 31
0.0
  0
LINE
  5
   787
  8
0
  6
CONTINUOUS
 62
     3
 10
-412.781524658203
 20
60.692043315663
 30
0.0
 11
-414.781524658203
 21
60.692043315663
 31
0.0
  0
LINE
  5
   788
  8
0
  6
CONTINUOUS
 62
     3
 10
-412.031524658203
 20
58.692043315663
 30
0.0
 11
-426.781524658203
 21
58.692043315663
 31
0.0
  0
LINE
  5
   789
  8
0
  6
DOT
 62
     3
 10
-426.781524658203
 20
58.692043315663
 30
0.0
 11
-429.281524658203
 21
58.692043315663
 31
0.0
  0
INSERT
  5
   78A
  8
0
  6
CONTINUOUS
 62
    98
  2
*HATCH1027
 10
-387.781555175781
 20
-28.1764869689941
 30
0.0
 41
0.5
 42
0.5
 50
89.9999999480344
 43
0.5
  0
INSERT
  5
   78B
  8
0
  6
CONTINUOUS
 62
    98
  2
*HATCH1028
 10
-387.781555175781
 20
-28.1764869689941
 30
0.0
 41
0.5
 42
0.5
 50
89.9999999480344
 43
0.5
  0
INSERT
  5
   78C
  8
0
  6
CONTINUOUS
 62
    98
  2
*HATCH1029
 10
-387.781555175781
 20
-28.1764869689941
 30
0.0
 41
0.5
 42
0.5
 50
89.9999999480344
 43
0.5
  0
LINE
  5
   78D
  8
0
  6
DOT
 62
     3
 10
-420.581524658203
 20
68.692043315663
 30
0.0
 11
-426.781524658203
 21
68.692043315663
 31
0.0
  0
LINE
  5
   78E
  8
0
  6
CONTINUOUS
 62
     3
 10
-412.031524658203
 20
68.692043315663
 30
0.0
 11
-420.581524658203
 21
68.692043315663
 31
0.0
  0
LINE
  5
   78F
  8
0
  6
CONTINUOUS
 62
     3
 10
-414.781524658203
 20
66.692043315663
 30
0.0
 11
-414.781524658203
 21
68.692043315663
 31
0.0
  0
LINE
  5
   790
  8
0
  6
CONTINUOUS
 62
     3
 10
-412.781524658203
 20
66.692043315663
 30
0.0
 11
-412.781524658203
 21
68.692043315663
 31
0.0
  0
LINE
  5
   791
  8
0
  6
CONTINUOUS
 62
     3
 10
-411.031524658203
 20
66.692043315663
 30
0.0
 11
-411.031524658203
 21
67.692043315663
 31
0.0
  0
LINE
  5
   792
  8
0
  6
DOT
 62
     3
 10
-414.781524658203
 20
60.692043315663
 30
0.0
 11
-414.781524658203
 21
66.692043315663
 31
0.0
  0
LINE
  5
   793
  8
0
  6
DOT
 62
     3
 10
-412.781524658203
 20
60.692043315663
 30
0.0
 11
-412.781524658203
 21
66.692043315663
 31
0.0
  0
LINE
  5
   794
  8
0
  6
DOT
 62
     3
 10
-411.031524658203
 20
60.692043315663
 30
0.0
 11
-411.031524658203
 21
66.692043315663
 31
0.0
  0
LINE
  5
   795
  8
0
  6
CONTINUOUS
 62
     2
 10
-409.081524658203
 20
66.692043315663
 30
0.0
 11
-417.581524658203
 21
66.692043315663
 31
0.0
  0
LINE
  5
   796
  8
0
  6
CONTINUOUS
 62
     2
 10
-409.081524658203
 20
60.692043315663
 30
0.0
 11
-417.581524658203
 21
60.692043315663
 31
0.0
  0
LINE
  5
   797
  8
0
  6
CONTINUOUS
 62
     2
 10
-418.081524658203
 20
61.192043315663
 30
0.0
 11
-418.081524658203
 21
66.192043315663
 31
0.0
  0
LINE
  5
   798
  8
0
  6
DOT
 62
     2
 10
-420.081524658203
 20
62.192043315663
 30
0.0
 11
-420.081524658203
 21
65.192043315663
 31
0.0
  0
LINE
  5
   799
  8
0
  6
CONTINUOUS
 62
     2
 10
-408.581524658203
 20
61.192043315663
 30
0.0
 11
-408.581524658203
 21
66.192043315663
 31
0.0
  0
LINE
  5
   79A
  8
0
  6
DOT
 62
     2
 10
-418.081524658203
 20
65.192043315663
 30
0.0
 11
-420.081524658203
 21
65.192043315663
 31
0.0
  0
LINE
  5
   79B
  8
0
  6
DOT
 62
     2
 10
-418.081524658203
 20
62.192043315663
 30
0.0
 11
-420.081524658203
 21
62.192043315663
 31
0.0
  0
LINE
  5
   79C
  8
0
  6
CONTINUOUS
 62
     2
 10
-418.081524658203
 20
66.192043315663
 30
0.0
 11
-417.581524658203
 21
66.692043315663
 31
0.0
  0
LINE
  5
   79D
  8
0
  6
CONTINUOUS
 62
     2
 10
-417.581524658203
 20
60.6920433156631
 30
0.0
 11
-418.081524658203
 21
61.1920433156631
 31
0.0
  0
LINE
  5
   79E
  8
0
  6
CONTINUOUS
 62
     2
 10
-408.581524658203
 20
66.192043315663
 30
0.0
 11
-409.081524658203
 21
66.692043315663
 31
0.0
  0
LINE
  5
   79F
  8
0
  6
CONTINUOUS
 62
     2
 10
-409.081524658203
 20
60.692043315663
 30
0.0
 11
-408.581524658203
 21
61.192043315663
 31
0.0
  0
LINE
  5
   7A0
  8
0
  6
CONTINUOUS
 62
     2
 10
-408.581524658203
 20
66.192043315663
 30
0.0
 11
-418.081524658203
 21
66.192043315663
 31
0.0
  0
LINE
  5
   7A1
  8
0
  6
CONTINUOUS
 62
     2
 10
-408.581524658203
 20
61.192043315663
 30
0.0
 11
-418.081524658203
 21
61.192043315663
 31
0.0
  0
LINE
  5
   7A2
  8
0
  6
CONTINUOUS
 62
     2
 10
-417.581524658203
 20
60.692043315663
 30
0.0
 11
-417.581524658203
 21
66.692043315663
 31
0.0
  0
LINE
  5
   7A3
  8
0
  6
CONTINUOUS
 62
     2
 10
-409.081524658203
 20
60.692043315663
 30
0.0
 11
-409.081524658203
 21
66.692043315663
 31
0.0
  0
LINE
  5
   7A4
  8
0
  6
CONTINUOUS
 62
    98
 10
-418.081524658203
 20
61.442043315663
 30
0.0
 11
-418.081524658203
 21
65.942043315663
 31
0.0
  0
LINE
  5
   7A5
  8
0
  6
CONTINUOUS
 62
    98
 10
-420.581524658203
 20
59.442043315663
 30
0.0
 11
-420.581524658203
 21
67.942043315663
 31
0.0
  0
LINE
  5
   7A6
  8
0
  6
CONTINUOUS
 62
    98
 10
-419.125757395559
 20
67.942043315663
 30
0.0
 11
-420.581524658203
 21
67.942043315663
 31
0.0
  0
LINE
  5
   7A7
  8
0
  6
CONTINUOUS
 62
    98
 10
-419.125757395559
 20
59.442043315663
 30
0.0
 11
-420.581524658203
 21
59.442043315663
 31
0.0
  0
LINE
  5
   7A8
  8
0
  6
CONTINUOUS
 62
    98
 10
-419.331524658203
 20
59.442043315663
 30
0.0
 11
-419.331524658203
 21
67.942043315663
 31
0.0
  0
LINE
  5
   7A9
  8
0
  6
CONTINUOUS
 62
    98
 10
-419.125757395559
 20
59.442043315663
 30
0.0
 11
-419.125757395559
 21
60.1920433156641
 31
0.0
  0
LINE
  5
   7AA
  8
0
  6
CONTINUOUS
 62
    98
 10
-418.081524658203
 20
65.942043315663
 30
0.0
 11
-419.125757395559
 21
65.942043315663
 31
0.0
  0
LINE
  5
   7AB
  8
0
  6
CONTINUOUS
 62
    98
 10
-418.081524658203
 20
61.442043315663
 30
0.0
 11
-419.125757395559
 21
61.442043315663
 31
0.0
  0
ARC
  5
   7AC
  8
0
  6
CONTINUOUS
 62
    98
 10
-406.927121497121
 20
63.692043315663
 30
0.0
 40
12.4044031610825
 50
169.549429035223
 51
190.450570860846
  0
LINE
  5
   7AD
  8
0
  6
CONTINUOUS
 62
    98
 10
-419.125757395559
 20
65.9420433156631
 30
0.0
 11
-419.125757395559
 21
66.1920433156659
 31
0.0
  0
ARC
  5
   7AE
  8
0
  6
CONTINUOUS
 62
    98
 10
-418.750757395564
 20
60.6920433156635
 30
0.0
 40
0.624999999996834
 50
126.86989759357
 51
158.314733408302
  0
ARC
  5
   7AF
  8
0
  6
CONTINUOUS
 62
    98
 10
-418.75075739556
 20
66.6920433156635
 30
0.0
 40
0.624999999999017
 50
126.869897593937
 51
158.314733408761
  0
ARC
  5
   7B0
  8
0
  6
CONTINUOUS
 62
    98
 10
-418.75075739556
 20
66.6920433156635
 30
0.0
 40
0.624999999999017
 50
201.685266487308
 51
233.130102302132
  0
ARC
  5
   7B1
  8
0
  6
CONTINUOUS
 62
    98
 10
-418.750757395564
 20
60.6920433156635
 30
0.0
 40
0.624999999996834
 50
201.685266487767
 51
233.130102302499
  0
LINE
  5
   7B2
  8
0
  6
CONTINUOUS
 62
    98
 10
-419.125757395559
 20
67.1920433156611
 30
0.0
 11
-419.125757395559
 21
67.942043315663
 31
0.0
  0
LINE
  5
   7B3
  8
0
  6
CONTINUOUS
 62
    98
 10
-419.125757395559
 20
61.192043315663
 30
0.0
 11
-419.125757395559
 21
61.4420433156629
 31
0.0
  0
LINE
  5
   7B4
  8
0
  6
CONTINUOUS
 62
     1
 10
-419.28152513504
 20
-3.30795668433695
 30
0.0
 11
-426.78152513504
 21
-3.30795668433695
 31
0.0
  0
LINE
  5
   7B5
  8
0
  6
CONTINUOUS
 62
     1
 10
-419.28152513504
 20
-28.307956684337
 30
0.0
 11
-419.28152513504
 21
-9.80795668433696
 31
0.0
  0
LINE
  5
   7B6
  8
0
  6
CONTINUOUS
 62
     1
 10
-419.28152513504
 20
-28.307956684337
 30
0.0
 11
-429.28152513504
 21
-28.307956684337
 31
0.0
  0
LINE
  5
   7B7
  8
0
  6
CONTINUOUS
 62
     1
 10
-429.28152513504
 20
-28.307956684337
 30
0.0
 11
-429.28152513504
 21
-20.753880271975
 31
0.0
  0
LINE
  5
   7B8
  8
0
  6
CONTINUOUS
 62
     1
 10
-426.78152513504
 20
-13.057956684337
 30
0.0
 11
-429.28152513504
 21
-13.057956684337
 31
0.0
  0
LINE
  5
   7B9
  8
0
  6
CONTINUOUS
 62
     1
 10
-426.78152513504
 20
-13.057956684337
 30
0.0
 11
-426.78152513504
 21
-9.80795668433696
 31
0.0
  0
LINE
  5
   7BA
  8
0
  6
CONTINUOUS
 62
     1
 10
-419.03152513504
 20
-5.80795668433695
 30
0.0
 11
-429.28152513504
 21
-5.80795668433695
 31
0.0
  0
LINE
  5
   7BB
  8
0
  6
CONTINUOUS
 62
     1
 10
-419.03152513504
 20
-9.80795668433695
 30
0.0
 11
-429.28152513504
 21
-9.80795668433695
 31
0.0
  0
LINE
  5
   7BC
  8
0
  6
CONTINUOUS
 62
     1
 10
-419.28152513504
 20
-14.557956684337
 30
0.0
 11
-429.28152513504
 21
-14.557956684337
 31
0.0
  0
LINE
  5
   7BD
  8
0
  6
CONTINUOUS
 62
     1
 10
-428.28152513504
 20
-22.557956684337
 30
0.0
 11
-429.28152513504
 21
-22.557956684337
 31
0.0
  0
INSERT
  5
   7BE
  8
0
  6
CONTINUOUS
 62
     1
  2
*HATCH1030
 10
-387.781555175781
 20
-28.1764869689941
 30
0.0
 41
0.5
 42
0.5
 50
89.9999999480344
 43
0.5
  0
INSERT
  5
   7BF
  8
0
  6
CONTINUOUS
 62
     1
  2
*HATCH1031
 10
-387.781555175781
 20
-28.1764869689941
 30
0.0
 41
0.5
 42
0.5
 50
89.9999999480344
 43
0.5
  0
LINE
  5
   7C0
  8
0
  6
CONTINUOUS
 62
     1
 10
-428.28152513504
 20
-28.307956684337
 30
0.0
 11
-428.28152513504
 21
-21.253880271975
 31
0.0
  0
LINE
  5
   7C1
  8
0
  6
CONTINUOUS
 62
     1
 10
-420.28152513504
 20
-28.307956684337
 30
0.0
 11
-420.28152513504
 21
-21.253880271975
 31
0.0
  0
LINE
  5
   7C2
  8
0
  6
CONTINUOUS
 62
     1
 10
-427.53152513504
 20
-27.107956684337
 30
0.0
 11
-427.53152513504
 21
-21.253880271975
 31
0.0
  0
LINE
  5
   7C3
  8
0
  6
CONTINUOUS
 62
     1
 10
-421.03152513504
 20
-27.107956684337
 30
0.0
 11
-421.03152513504
 21
-21.253880271975
 31
0.0
  0
LINE
  5
   7C4
  8
0
  6
DASHDOT
 62
     1
 10
-424.28152513504
 20
-31.5057598524643
 30
0.0
 11
-424.28152513504
 21
-20.3702283668342
 31
0.0
  0
LINE
  5
   7C5
  8
0
  6
CONTINUOUS
 62
     1
 10
-421.03152513504
 20
-27.107956684337
 30
0.0
 11
-427.53152513504
 21
-27.107956684337
 31
0.0
  0
LINE
  5
   7C6
  8
0
  6
CONTINUOUS
 62
     1
 10
-431.13152513504
 20
-11.057956684337
 30
0.0
 11
-431.13152513504
 21
-4.55795668433696
 31
0.0
  0
LINE
  5
   7C7
  8
0
  6
CONTINUOUS
 62
     1
 10
-431.28152513504
 20
-10.907956684337
 30
0.0
 11
-431.28152513504
 21
-4.70795668433696
 31
0.0
  0
LINE
  5
   7C8
  8
0
  6
CONTINUOUS
 62
     1
 10
-429.78152513504
 20
-11.807956684337
 30
0.0
 11
-429.78152513504
 21
-3.80795668433696
 31
0.0
  0
LINE
  5
   7C9
  8
0
  6
CONTINUOUS
 62
     1
 10
-428.28152513504
 20
-9.80795668433695
 30
0.0
 11
-428.28152513504
 21
-5.80795668433695
 31
0.0
  0
LINE
  5
   7CA
  8
0
  6
CONTINUOUS
 62
     1
 10
-429.78152513504
 20
-4.55795668433695
 30
0.0
 11
-431.13152513504
 21
-4.55795668433695
 31
0.0
  0
LINE
  5
   7CB
  8
0
  6
CONTINUOUS
 62
     1
 10
-429.28152513504
 20
-3.80795668433695
 30
0.0
 11
-429.78152513504
 21
-3.80795668433695
 31
0.0
  0
LINE
  5
   7CC
  8
0
  6
CONTINUOUS
 62
     1
 10
-431.28152513504
 20
-4.70795668433696
 30
0.0
 11
-431.13152513504
 21
-4.55795668433696
 31
0.0
  0
LINE
  5
   7CD
  8
0
  6
CONTINUOUS
 62
     1
 10
-429.78152513504
 20
-11.057956684337
 30
0.0
 11
-431.13152513504
 21
-11.057956684337
 31
0.0
  0
LINE
  5
   7CE
  8
0
  6
CONTINUOUS
 62
     1
 10
-431.13152513504
 20
-11.057956684337
 30
0.0
 11
-431.28152513504
 21
-10.907956684337
 31
0.0
  0
LINE
  5
   7CF
  8
0
  6
CONTINUOUS
 62
     1
 10
-429.28152513504
 20
-11.807956684337
 30
0.0
 11
-429.78152513504
 21
-11.807956684337
 31
0.0
  0
LINE
  5
   7D0
  8
0
  6
CONTINUOUS
 62
     1
 10
-418.78152513504
 20
-6.05795668433695
 30
0.0
 11
-428.28152513504
 21
-6.05795668433695
 31
0.0
  0
LINE
  5
   7D1
  8
0
  6
CONTINUOUS
 62
     1
 10
-418.78152513504
 20
-9.55795668433695
 30
0.0
 11
-428.28152513504
 21
-9.55795668433695
 31
0.0
  0
LINE
  5
   7D2
  8
0
  6
CONTINUOUS
 62
     1
 10
-418.78152513504
 20
-9.55795668433696
 30
0.0
 11
-418.78152513504
 21
-6.05795668433696
 31
0.0
  0
LINE
  5
   7D3
  8
0
  6
CONTINUOUS
 62
     1
 10
-419.03152513504
 20
-9.80795668433696
 30
0.0
 11
-419.03152513504
 21
-5.80795668433696
 31
0.0
  0
LINE
  5
   7D4
  8
0
  6
CONTINUOUS
 62
     1
 10
-418.78152513504
 20
-6.05795668433696
 30
0.0
 11
-419.03152513504
 21
-5.80795668433696
 31
0.0
  0
LINE
  5
   7D5
  8
0
  6
CONTINUOUS
 62
     1
 10
-419.03152513504
 20
-9.80795668433696
 30
0.0
 11
-418.78152513504
 21
-9.55795668433696
 31
0.0
  0
LINE
  5
   7D6
  8
0
  6
CONTINUOUS
 62
     1
 10
-422.03152513504
 20
-9.80795668433695
 30
0.0
 11
-422.281526088715
 21
-9.80795668433695
 31
0.0
  0
LINE
  5
   7D7
  8
0
  6
CONTINUOUS
 62
     1
 10
-422.03152513504
 20
-5.80795668433695
 30
0.0
 11
-422.281526088715
 21
-5.80795668433695
 31
0.0
  0
LINE
  5
   7D8
  8
0
  6
CONTINUOUS
 62
     1
 10
-429.28152513504
 20
-11.807956684337
 30
0.0
 11
-429.28152513504
 21
-3.80795668433696
 31
0.0
  0
LINE
  5
   7D9
  8
0
  6
CONTINUOUS
 62
     1
 10
-426.78152513504
 20
-5.80795668433696
 30
0.0
 11
-426.78152513504
 21
-3.30795668433696
 31
0.0
  0
LINE
  5
   7DA
  8
0
  6
CONTINUOUS
 62
     1
 10
-419.28152513504
 20
-5.80795668433696
 30
0.0
 11
-419.28152513504
 21
-3.30795668433696
 31
0.0
  0
LINE
  5
   7DB
  8
0
  6
CONTINUOUS
 62
     1
 10
-420.28152513504
 20
-26.357956684337
 30
0.0
 11
-428.28152513504
 21
-26.357956684337
 31
0.0
  0
LINE
  5
   7DC
  8
0
  6
CONTINUOUS
 62
     1
 10
-421.03152513504
 20
-27.107956684337
 30
0.0
 11
-420.28152513504
 21
-26.357956684337
 31
0.0
  0
LINE
  5
   7DD
  8
0
  6
CONTINUOUS
 62
     1
 10
-427.53152513504
 20
-27.107956684337
 30
0.0
 11
-428.28152513504
 21
-26.357956684337
 31
0.0
  0
ARC
  5
   7DE
  8
0
  6
CONTINUOUS
 62
     1
 10
-424.28152513504
 20
-37.003880271975
 30
0.0
 40
16.25
 50
435.749967250231
 51
464.250032645838
  0
LINE
  5
   7DF
  8
0
  6
CONTINUOUS
 62
     1
 10
-420.28152513504
 20
-21.253880271975
 30
0.0
 11
-428.28152513504
 21
-21.253880271975
 31
0.0
  0
INSERT
  5
   7E0
  8
0
  6
CONTINUOUS
 62
     1
  2
*HATCH1032
 10
-387.781555175781
 20
-28.1764869689941
 30
0.0
 41
0.5
 42
0.5
 50
89.9999999480344
 43
0.5
  0
INSERT
  5
   7E1
  8
0
  6
CONTINUOUS
 62
     1
  2
*HATCH1033
 10
-387.781555175781
 20
-28.1764869689941
 30
0.0
 41
0.5
 42
0.5
 50
89.9999999480344
 43
0.5
  0
LINE
  5
   7E2
  8
0
  6
CONTINUOUS
 62
     1
 10
-419.28152513504
 20
-22.557956684337
 30
0.0
 11
-420.28152513504
 21
-22.557956684337
 31
0.0
  0
LINE
  5
   7E3
  8
0
  6
CONTINUOUS
 62
     1
 10
-429.28152513504
 20
-14.557956684337
 30
0.0
 11
-429.28152513504
 21
-13.057956684337
 31
0.0
  0
INSERT
  5
   7E4
  8
255
  6
CONTINUOUS
 62
     7
  2
$1CAVO
 10
-391.531542553554
 20
-44.9265049086246
 30
0.0
 41
0.5
 42
0.5
 50
359.999999792138
 43
0.5
  0
INSERT
  5
   7E5
  8
0
  6
CONTINUOUS
 62
     7
  2
*UDIM1446
 10
0.0
 20
0.0
 30
0.0
  0
INSERT
  5
   7E6
  8
0
  6
CONTINUOUS
 62
     7
  2
*UDIM1447
 10
0.0
 20
0.0
 30
0.0
  0
TEXT
  5
   7E7
  8
0
  6
CONTINUOUS
 62
     7
 10
-358.201051726731
 20
9.24565698020897
 30
0.0
 40
3.00000002980232
  1
=          =
 50
89.9999999480344
 41
0.916666604744064
 72
     2
 11
-358.201051697341
 21
41.6956551061396
 31
0.0
  0
INSERT
  5
   7E8
  8
0
  6
CONTINUOUS
 62
     7
  2
*UDIM1448
 10
0.0
 20
0.0
 30
0.0
  0
INSERT
  5
   7E9
  8
0
  6
CONTINUOUS
 62
     7
  2
*UDIM1449
 10
0.0
 20
0.0
 30
0.0
  0
INSERT
  5
   7EA
  8
0
  6
CONTINUOUS
 62
     7
  2
*UDIM1450
 10
0.0
 20
0.0
 30
0.0
  0
INSERT
  5
   7EB
  8
0
  6
CONTINUOUS
 62
     7
  2
*UDIM1451
 10
0.0
 20
0.0
 30
0.0
  0
INSERT
  5
   7EC
  8
0
  6
CONTINUOUS
 62
     7
  2
*UDIM1452
 10
0.0
 20
0.0
 30
0.0
  0
INSERT
  5
   7ED
  8
0
  6
CONTINUOUS
 62
     7
  2
*UDIM1453
 10
0.0
 20
0.0
 30
0.0
  0
TEXT
  5
   7EE
  8
0
  6
CONTINUOUS
 62
     7
 10
-357.504289944338
 20
25.9110161117627
 30
0.0
 40
3.00000002980232
  1
X
 50
359.999999948034
 41
0.916666604744064
 72
     2
 11
-355.304290075468
 21
25.9110161097784
 31
0.0
  0
INSERT
  5
   7EF
  8
0
  6
CONTINUOUS
 62
     7
  2
*UDIM1454
 10
0.0
 20
0.0
 30
0.0
  0
INSERT
  5
   7F0
  8
0
  6
CONTINUOUS
 62
     7
  2
*UDIM1455
 10
0.0
 20
0.0
 30
0.0
  0
INSERT
  5
   7F1
  8
0
  6
CONTINUOUS
 62
     7
  2
*UDIM1456
 10
0.0
 20
0.0
 30
0.0
  0
INSERT
  5
   7F2
  8
0
  6
CONTINUOUS
 62
     7
  2
*UDIM1457
 10
0.0
 20
0.0
 30
0.0
  0
TEXT
  5
   7F3
  8
0
  6
CONTINUOUS
 62
     1
 10
-400.505734152508
 20
-138.042682773637
 30
0.0
 40
2.00000008940697
  1
M 3076 95-01-16
 50
359.999999948034
 41
0.749999861419206
 72
     2
 11
-378.305737269831
 21
-138.04268279366
 31
0.0
  0
INSERT
  5
   7F4
  8
0
  6
CONTINUOUS
 62
     7
  2
*UDIM1458
 10
0.0
 20
0.0
 30
0.0
  0
INSERT
  5
   7F5
  8
0
  6
CONTINUOUS
 62
     7
  2
*UDIM1459
 10
0.0
 20
0.0
 30
0.0
  0
TEXT
  5
   7F6
  8
0
  6
CONTINUOUS
 62
     1
 10
-406.69010921012
 20
-123.287311114694
 30
0.0
 40
2.00000008940697
  1
93-04-05 ROTA S.
 50
359.999999948034
 41
0.749999861419206
 72
     2
 11
-382.99011253755
 21
-123.28731113607
 31
0.0
  0
TEXT
  5
   7F7
  8
0
  6
CONTINUOUS
 62
     1
 10
-305.695556555006
 20
-149.360415771397
 30
0.0
 40
4.00000017881393
  1
601812/011
 50
359.999999948034
 41
0.937499973922969
 72
     2
 11
-268.945555955234
 21
-149.360415804544
 31
0.0
  0
TEXT
  5
   7F8
  8
0
  6
CONTINUOUS
 62
     1
 10
-287.609863217036
 20
-140.378833690136
 30
0.0
 40
3.00000002980232
  1
S3
 50
359.999999948034
 41
0.916666604744064
 72
     2
 11
-282.659863506615
 21
-140.378833694601
 31
0.0
  0
TEXT
  5
   7F9
  8
0
  6
CONTINUOUS
 62
     1
 10
-316.144283072064
 20
-122.068561578969
 30
0.0
 40
2.00000008940697
  1
4POLE LOW VOLTAGE M.C.C.B SERIES ISOMAX
 50
359.999999948034
 41
0.749999861419206
 72
     1
 11
-287.0442871511
 21
-121.068561560512
 31
0.0
 73
     2
  0
TEXT
  5
   7FA
  8
0
  6
CONTINUOUS
 62
     1
 10
-308.644283991462
 20
-125.068561585733
 30
0.0
 40
2.00000008940697
  1
FIXED VERSION TERMINALS CABLE
 50
359.999999948034
 41
0.749999861419206
 72
     1
 11
-287.044287019966
 21
-124.068561560512
 31
0.0
 73
     2
  0
TEXT
  5
   7FB
  8
0
  6
CONTINUOUS
 62
     1
 10
-312.941891439418
 20
-130.13882830869
 30
0.0
 40
2.00000008940697
  1
INTERR.AUTOMATICO SERIE ISOMAX
 50
359.999999948034
 41
0.749999861419206
 72
     1
 11
-290.591894572975
 21
-129.138828284145
 31
0.0
 73
     2
  0
TEXT
  5
   7FC
  8
0
  6
CONTINUOUS
 62
     1
 10
-321.941890047645
 20
-133.138828300572
 30
0.0
 40
2.00000008940697
  1
TETRAP.ESECUZIONE FISSA TERMINALI PER CAVI
 50
359.999999948034
 41
0.749999861419206
 72
     1
 11
-290.591894441841
 21
-132.138828284145
 31
0.0
 73
     2
  0
LINE
  5
   7FD
  8
0
  6
DASHDOT
 62
     7
 10
-482.044158935547
 20
-59.2313409491669
 30
0.0
 11
-482.044158935547
 21
-119.951998124425
 31
0.0
  0
LINE
  5
   7FE
  8
0
  6
DASHDOT
 62
     7
 10
-464.348454572801
 20
-88.3740844726563
 30
0.0
 11
-505.073750680561
 21
-88.3740844726563
 31
0.0
  0
LINE
  5
   7FF
  8
0
  6
DASHDOT
 62
     7
 10
-477.669158935547
 20
-67.6916937631361
 30
0.0
 11
-477.669158935547
 21
-109.6409431324
 31
0.0
  0
LINE
  5
   800
  8
0
  6
DASHDOT
 62
     7
 10
-495.169158935547
 20
-68.0442084637182
 30
0.0
 11
-495.169158935547
 21
-109.905329157836
 31
0.0
  0
CIRCLE
  5
   801
  8
0
  6
CONTINUOUS
 62
     5
 10
-495.169158935547
 20
-70.4365844726563
 30
0.0
 40
0.6875
  0
CIRCLE
  5
   802
  8
0
  6
CONTINUOUS
 62
     5
 10
-477.669158935547
 20
-70.4365844726563
 30
0.0
 40
0.6875
  0
CIRCLE
  5
   803
  8
0
  6
CONTINUOUS
 62
     5
 10
-477.669158935547
 20
-105.186584472656
 30
0.0
 40
0.6875
  0
CIRCLE
  5
   804
  8
0
  6
CONTINUOUS
 62
     5
 10
-495.169158935547
 20
-105.186584472656
 30
0.0
 40
0.6875
  0
LINE
  5
   805
  8
0
  6
DASHDOT
 62
     5
 10
-477.669158935547
 20
-68.4990844726563
 30
0.0
 11
-477.669158935547
 21
-72.3740844726563
 31
0.0
  0
LINE
  5
   806
  8
0
  6
DASHDOT
 62
     5
 10
-475.731658935547
 20
-70.4365844726563
 30
0.0
 11
-479.606658935547
 21
-70.4365844726563
 31
0.0
  0
LINE
  5
   807
  8
0
  6
DASHDOT
 62
     5
 10
-495.169158935547
 20
-68.4990844726563
 30
0.0
 11
-495.169158935547
 21
-72.3740844726563
 31
0.0
  0
LINE
  5
   808
  8
0
  6
DASHDOT
 62
     5
 10
-493.231658935547
 20
-70.4365844726563
 30
0.0
 11
-497.106658935547
 21
-70.4365844726563
 31
0.0
  0
LINE
  5
   809
  8
0
  6
DASHDOT
 62
     5
 10
-495.169158935547
 20
-103.249084472656
 30
0.0
 11
-495.169158935547
 21
-107.124084472656
 31
0.0
  0
LINE
  5
   80A
  8
0
  6
DASHDOT
 62
     5
 10
-493.231658935547
 20
-105.186584472656
 30
0.0
 11
-497.106658935547
 21
-105.186584472656
 31
0.0
  0
LINE
  5
   80B
  8
0
  6
DASHDOT
 62
     5
 10
-477.669158935547
 20
-103.249084472656
 30
0.0
 11
-477.669158935547
 21
-107.124084472656
 31
0.0
  0
LINE
  5
   80C
  8
0
  6
DASHDOT
 62
     5
 10
-475.731658935547
 20
-105.186584472656
 30
0.0
 11
-479.606658935547
 21
-105.186584472656
 31
0.0
  0
ARC
  5
   80D
  8
0
  6
CONTINUOUS
 62
     7
 10
-499.544158935547
 20
-64.6865844726563
 30
0.0
 40
3.75
 50
449.999999896069
 51
629.999999896069
  0
ARC
  5
   80E
  8
0
  6
CONTINUOUS
 62
     7
 10
-473.294158935547
 20
-64.6865844726563
 30
0.0
 40
3.75
 50
269.999999896069
 51
449.999999896069
  0
ARC
  5
   80F
  8
0
  6
CONTINUOUS
 62
     7
 10
-473.294158935547
 20
-110.936584472656
 30
0.0
 40
3.75
 50
269.999999896069
 51
449.999999896069
  0
ARC
  5
   810
  8
0
  6
CONTINUOUS
 62
     7
 10
-499.544158935547
 20
-110.936584472656
 30
0.0
 40
3.75
 50
449.999999896069
 51
629.999999896069
  0
LINE
  5
   811
  8
0
  6
CONTINUOUS
 62
     7
 10
-473.294158935547
 20
-60.9365844726563
 30
0.0
 11
-499.544158935547
 21
-60.9365844726563
 31
0.0
  0
LINE
  5
   812
  8
0
  6
CONTINUOUS
 62
     7
 10
-473.294158935547
 20
-68.4365844726563
 30
0.0
 11
-499.544158935547
 21
-68.4365844726563
 31
0.0
  0
LINE
  5
   813
  8
0
  6
CONTINUOUS
 62
     7
 10
-473.294158935547
 20
-107.186584472656
 30
0.0
 11
-499.544158935547
 21
-107.186584472656
 31
0.0
  0
LINE
  5
   814
  8
0
  6
CONTINUOUS
 62
     7
 10
-473.294158935547
 20
-114.686584472656
 30
0.0
 11
-499.544158935547
 21
-114.686584472656
 31
0.0
  0
LINE
  5
   815
  8
0
  6
DASHDOT
 62
     7
 10
-473.294158935547
 20
-59.4352329941426
 30
0.0
 11
-473.294158935547
 21
-69.4500014444972
 31
0.0
  0
LINE
  5
   816
  8
0
  6
DASHDOT
 62
     7
 10
-468.794158935547
 20
-64.6865844726563
 30
0.0
 11
-477.794158935547
 21
-64.6865844726563
 31
0.0
  0
LINE
  5
   817
  8
0
  6
DASHDOT
 62
     7
 10
-499.544158935547
 20
-59.2625645725847
 30
0.0
 11
-499.544158935547
 21
-69.6802260065743
 31
0.0
  0
LINE
  5
   818
  8
0
  6
DASHDOT
 62
     7
 10
-495.044158935547
 20
-64.6865844726563
 30
0.0
 11
-504.493862584998
 21
-64.6865844726563
 31
0.0
  0
LINE
  5
   819
  8
0
  6
DASHDOT
 62
     7
 10
-499.544158935547
 20
-106.436584472656
 30
0.0
 11
-499.544158935547
 21
-115.869028773296
 31
0.0
  0
LINE
  5
   81A
  8
0
  6
DASHDOT
 62
     7
 10
-495.044158935547
 20
-110.936584472656
 30
0.0
 11
-504.954311709153
 21
-110.936584472656
 31
0.0
  0
LINE
  5
   81B
  8
0
  6
DASHDOT
 62
     7
 10
-473.294158935547
 20
-106.436584472656
 30
0.0
 11
-473.294158935547
 21
-116.156809475892
 31
0.0
  0
LINE
  5
   81C
  8
0
  6
DASHDOT
 62
     7
 10
-468.794158935547
 20
-110.936584472656
 30
0.0
 11
-477.794158935547
 21
-110.936584472656
 31
0.0
  0
LINE
  5
   81D
  8
0
  6
CONTINUOUS
 62
     3
 10
-506.565883643692
 20
-58.7445593079112
 30
0.0
 11
-506.565883643692
 21
-117.710825269913
 31
0.0
  0
LINE
  5
   81E
  8
0
  6
CONTINUOUS
 62
     3
 10
-466.82336861513
 20
-58.7445593079112
 30
0.0
 11
-466.82336861513
 21
-117.710825269913
 31
0.0
  0
LINE
  5
   81F
  8
0
  6
CONTINUOUS
 62
     3
 10
-466.82336861513
 20
-117.710825269913
 30
0.0
 11
-506.565883643692
 21
-117.710825269913
 31
0.0
  0
LINE
  5
   820
  8
0
  6
CONTINUOUS
 62
     3
 10
-466.82336861513
 20
-58.7445593079112
 30
0.0
 11
-506.565883643692
 21
-58.7445593079112
 31
0.0
  0
CIRCLE
  5
   821
  8
0
  6
CONTINUOUS
 62
     7
 10
-504.695309076816
 20
-60.1259066803739
 30
0.0
 40
0.075
  0
INSERT
  5
   822
  8
0
  6
CONTINUOUS
 62
     7
  2
*UDIM1460
 10
0.0
 20
0.0
 30
0.0
  0
INSERT
  5
   823
  8
0
  6
CONTINUOUS
 62
     7
  2
*UDIM1461
 10
0.0
 20
0.0
 30
0.0
  0
INSERT
  5
   824
  8
0
  6
CONTINUOUS
 62
     7
  2
*UDIM1462
 10
0.0
 20
0.0
 30
0.0
  0
INSERT
  5
   825
  8
0
  6
CONTINUOUS
 62
     7
  2
*UDIM1463
 10
0.0
 20
0.0
 30
0.0
  0
INSERT
  5
   826
  8
0
  6
CONTINUOUS
 62
     7
  2
*UDIM1464
 10
0.0
 20
0.0
 30
0.0
  0
TEXT
  5
   827
  8
0
  6
CONTINUOUS
 62
     7
 10
-483.140534403653
 20
-44.3050499240528
 30
0.0
 40
3.00000002980232
  1
Y
 50
359.999999896069
 41
0.916666604744064
 72
     2
 11
-480.940534534784
 21
-44.3050499280324
 31
0.0
  0
TEXT
  5
   828
  8
0
  6
CONTINUOUS
 62
     7
 10
-484.118988755079
 20
-124.353752164043
 30
0.0
 40
3.00000002980232
  1
Y
 50
359.999999896069
 41
0.916666604744064
 72
     2
 11
-481.918988886209
 21
-124.353752168023
 31
0.0
  0
TEXT
  5
   829
  8
0
  6
CONTINUOUS
 62
     7
 10
-520.954917910428
 20
-89.3427286426197
 30
0.0
 40
3.00000002980232
  1
X
 50
359.999999896069
 41
0.916666604744064
 72
     2
 11
-518.754918041558
 21
-89.3427286465993
 31
0.0
  0
TEXT
  5
   82A
  8
0
  6
CONTINUOUS
 62
     7
 10
-456.520818713041
 20
-89.4578409473072
 30
0.0
 40
3.00000002980232
  1
X
 50
359.999999896069
 41
0.916666604744064
 72
     2
 11
-454.320818844171
 21
-89.4578409512868
 31
0.0
  0
ENDSEC
  0
EOF
