  0
SECTION
  2
HEADER
  9
$ACADVER
  1
AC1009
  9
$DWGCODEPAGE
  3
iso8859-1
  9
$INSBASE
 10
0.0
 20
0.0
 30
0.0
  9
$EXTMIN
 10
1.0E20
 20
1.0E20
  9
$EXTMAX
 10
-1.0E20
 20
-1.0E20
  9
$LIMMIN
 10
0.0
 20
0.0
  9
$LIMMAX
 10
12.0
 20
9.0
  9
$ORTHOMODE
 70
     0
  9
$REGENMODE
 70
     1
  9
$FILLMODE
 70
     1
  9
$QTEXTMODE
 70
     0
  9
$MIRRTEXT
 70
     1
  9
$DRAGMODE
 70
     2
  9
$LTSCALE
 40
15.0
  9
$OSMODE
 70
     0
  9
$ATTMODE
 70
     1
  9
$TEXTSIZE
 40
0.2
  9
$TRACEWID
 40
0.05
  9
$TEXTSTYLE
  7
STANDARD
  9
$CLAYER
  8
0
  9
$CELTYPE
  6
DASHED
  9
$CECOLOR
 62
   256
  9
$DIMSCALE
 40
1.0
  9
$DIMASZ
 40
0.18
  9
$DIMEXO
 40
0.0625
  9
$DIMDLI
 40
0.38
  9
$DIMRND
 40
0.0
  9
$DIMDLE
 40
0.0
  9
$DIMEXE
 40
0.18
  9
$DIMTP
 40
0.0
  9
$DIMTM
 40
0.0
  9
$DIMTXT
 40
0.18
  9
$DIMCEN
 40
0.09
  9
$DIMTSZ
 40
0.0
  9
$DIMTOL
 70
     0
  9
$DIMLIM
 70
     0
  9
$DIMTIH
 70
     1
  9
$DIMTOH
 70
     1
  9
$DIMSE1
 70
     0
  9
$DIMSE2
 70
     0
  9
$DIMTAD
 70
     0
  9
$DIMZIN
 70
     0
  9
$DIMBLK
  1

  9
$DIMASO
 70
     1
  9
$DIMSHO
 70
     1
  9
$DIMPOST
  1

  9
$DIMAPOST
  1

  9
$DIMALT
 70
     0
  9
$DIMALTD
 70
     2
  9
$DIMALTF
 40
25.4
  9
$DIMLFAC
 40
1.0
  9
$DIMTOFL
 70
     0
  9
$DIMTVP
 40
0.0
  9
$DIMTIX
 70
     0
  9
$DIMSOXD
 70
     0
  9
$DIMSAH
 70
     0
  9
$DIMBLK1
  1

  9
$DIMBLK2
  1

  9
$DIMSTYLE
  2
STANDARD
  9
$DIMCLRD
 70
     0
  9
$DIMCLRE
 70
     0
  9
$DIMCLRT
 70
     0
  9
$DIMTFAC
 40
1.0
  9
$DIMGAP
 40
0.09
  9
$LUNITS
 70
     2
  9
$LUPREC
 70
     4
  9
$AXISMODE
 70
     0
  9
$AXISUNIT
 10
0.0
 20
0.0
  9
$SKETCHINC
 40
0.1
  9
$FILLETRAD
 40
0.0
  9
$AUNITS
 70
     0
  9
$AUPREC
 70
     0
  9
$MENU
  1
acad
  9
$ELEVATION
 40
0.0
  9
$PELEVATION
 40
0.0
  9
$THICKNESS
 40
0.0
  9
$LIMCHECK
 70
     0
  9
$BLIPMODE
 70
     1
  9
$CHAMFERA
 40
0.0
  9
$CHAMFERB
 40
0.0
  9
$SKPOLY
 70
     0
  9
$TDCREATE
 40
0.000000000
  9
$TDUPDATE
 40
0.000000000
  9
$TDINDWG
 40
0.0
  9
$TDUSRTIMER
 40
0.0
  9
$USRTIMER
 70
     1
  9
$ANGBASE
 50
0.0
  9
$ANGDIR
 70
     0
  9
$PDMODE
 70
     0
  9
$PDSIZE
 40
0.0
  9
$PLINEWID
 40
0.0
  9
$COORDS
 70
     1
  9
$SPLFRAME
 70
     0
  9
$SPLINETYPE
 70
     6
  9
$SPLINESEGS
 70
     8
  9
$ATTDIA
 70
     0
  9
$ATTREQ
 70
     1
  9
$HANDLING
 70
     1
  9
$HANDSEED
  5
   6DF
  9
$SURFTAB1
 70
     6
  9
$SURFTAB2
 70
     6
  9
$SURFTYPE
 70
     6
  9
$SURFU
 70
     6
  9
$SURFV
 70
     6
  9
$UCSNAME
  2

  9
$UCSORG
 10
0.0
 20
0.0
 30
0.0
  9
$UCSXDIR
 10
1.0
 20
0.0
 30
0.0
  9
$UCSYDIR
 10
0.0
 20
1.0
 30
0.0
  9
$PUCSNAME
  2

  9
$PUCSORG
 10
0.0
 20
0.0
 30
0.0
  9
$PUCSXDIR
 10
1.0
 20
0.0
 30
0.0
  9
$PUCSYDIR
 10
0.0
 20
1.0
 30
0.0
  9
$USERI1
 70
     0
  9
$USERI2
 70
     0
  9
$USERI3
 70
     0
  9
$USERI4
 70
     0
  9
$USERI5
 70
     0
  9
$USERR1
 40
0.0
  9
$USERR2
 40
0.0
  9
$USERR3
 40
0.0
  9
$USERR4
 40
0.0
  9
$USERR5
 40
0.0
  9
$WORLDVIEW
 70
     1
  9
$SHADEDGE
 70
     3
  9
$SHADEDIF
 70
    70
  9
$TILEMODE
 70
     1
  9
$MAXACTVP
 70
    16
  9
$PINSBASE
 10
0.0
 20
0.0
 30
0.0
  9
$PLIMCHECK
 70
     0
  9
$PEXTMIN
 10
1.0E20
 20
1.0E20
 30
1.0E20
  9
$PEXTMAX
 10
-1.0E20
 20
-1.0E20
 30
-1.0E20
  9
$PLIMMIN
 10
0.0
 20
0.0
  9
$PLIMMAX
 10
12.0
 20
9.0
  9
$UNITMODE
 70
     0
  9
$VISRETAIN
 70
     0
  0
ENDSEC
  0
SECTION
  2
TABLES
  0
TABLE
  2
VPORT
 70
     1
  0
VPORT
  2
*ACTIVE
 70
     0
 10
0.0
 20
0.0
 11
1.0
 21
1.0
 12
6.801242
 22
4.5
 13
0.0
 23
0.0
 14
1.0
 24
1.0
 15
0.0
 25
0.0
 16
0.0
 26
0.0
 36
1.0
 17
0.0
 27
0.0
 37
0.0
 40
9.0
 41
1.511387
 42
50.0
 43
0.0
 44
0.0
 50
0.0
 51
0.0
 71
     0
 72
   100
 73
     1
 74
     1
 75
     0
 76
     0
 77
     0
 78
     0
  0
ENDTAB
  0
TABLE
  2
LTYPE
 70
    41
  0
LTYPE
  2
BYBLOCK
 70
     0
  3

 72
    65
 73
     0
 40
0.0
  0
LTYPE
  2
BYLAYER
 70
     0
  3

 72
    65
 73
     0
 40
0.0
  0
LTYPE
  2
CONTINUOUS
 70
     0
  3
Solid line
 72
    65
 73
     0
 40
0.0
  0
LTYPE
  2
BORDER
 70
    64
  3
__ __ . __ __ . __ __ . __ __ . __ __ . __ __ .
 72
    65
 73
     6
 40
1.75
 49
0.5
 49
-0.25
 49
0.5
 49
-0.25
 49
0.0
 49
-0.25
  0
LTYPE
  2
BORDER2
 70
    64
  3
__.__.__.__.__.__.__.__.__.__.__.__.__.__.__.__
 72
    65
 73
     6
 40
0.875
 49
0.25
 49
-0.125
 49
0.25
 49
-0.125
 49
0.0
 49
-0.125
  0
LTYPE
  2
BORDERX2
 70
    64
  3
____  ____  .  ____  ____  .  ____  ____  .  __
 72
    65
 73
     6
 40
3.5
 49
1.0
 49
-0.5
 49
1.0
 49
-0.5
 49
0.0
 49
-0.5
  0
LTYPE
  2
CENTER
 70
    64
  3
____ _ ____ _ ____ _ ____ _ ____ _ ____ _ ____
 72
    65
 73
     4
 40
2.0
 49
1.25
 49
-0.25
 49
0.25
 49
-0.25
  0
LTYPE
  2
CENTER2
 70
    64
  3
___ _ ___ _ ___ _ ___ _ ___ _ ___ _ ___ _ ___ _
 72
    65
 73
     4
 40
1.125
 49
0.75
 49
-0.125
 49
0.125
 49
-0.125
  0
LTYPE
  2
CENTERX2
 70
    64
  3
________  __  ________  __  ________  __  _____
 72
    65
 73
     4
 40
4.0
 49
2.5
 49
-0.5
 49
0.5
 49
-0.5
  0
LTYPE
  2
DASHDOT
 70
    64
  3
__ . __ . __ . __ . __ . __ . __ . __ . __ . __
 72
    65
 73
     4
 40
1.0
 49
0.5
 49
-0.25
 49
0.0
 49
-0.25
  0
LTYPE
  2
DASHDOT2
 70
    64
  3
_._._._._._._._._._._._._._._._._._._._._._._._
 72
    65
 73
     4
 40
0.5
 49
0.25
 49
-0.125
 49
0.0
 49
-0.125
  0
LTYPE
  2
DASHDOTX2
 70
    64
  3
____  .  ____  .  ____  .  ____  .  ____  .  __
 72
    65
 73
     4
 40
2.0
 49
1.0
 49
-0.5
 49
0.0
 49
-0.5
  0
LTYPE
  2
DASHED
 70
    64
  3
__ __ __ __ __ __ __ __ __ __ __ __ __ __ __ __
 72
    65
 73
     2
 40
0.75
 49
0.5
 49
-0.25
  0
LTYPE
  2
DASHED2
 70
    64
  3
_ _ _ _ _ _ _ _ _ _ _ _ _ _ _ _ _ _ _ _ _ _ _ _
 72
    65
 73
     2
 40
0.375
 49
0.25
 49
-0.125
  0
LTYPE
  2
DASHEDX2
 70
    64
  3
____  ____  ____  ____  ____  ____  ____  ____
 72
    65
 73
     2
 40
1.5
 49
1.0
 49
-0.5
  0
LTYPE
  2
DIVIDE
 70
    64
  3
____ . . ____ . . ____ . . ____ . . ____ . . __
 72
    65
 73
     6
 40
1.25
 49
0.5
 49
-0.25
 49
0.0
 49
-0.25
 49
0.0
 49
-0.25
  0
LTYPE
  2
DIVIDE2
 70
    64
  3
__..__..__..__..__..__..__..__..__..__..__..__.
 72
    65
 73
     6
 40
0.625
 49
0.25
 49
-0.125
 49
0.0
 49
-0.125
 49
0.0
 49
-0.125
  0
LTYPE
  2
DIVIDEX2
 70
    64
  3
________  .  .  ________  .  .  ________  .  .
 72
    65
 73
     6
 40
2.5
 49
1.0
 49
-0.5
 49
0.0
 49
-0.5
 49
0.0
 49
-0.5
  0
LTYPE
  2
DOT
 70
    64
  3
. . . . . . . . . . . . . . . . . . . . . . . .
 72
    65
 73
     2
 40
0.25
 49
0.0
 49
-0.25
  0
LTYPE
  2
DOT2
 70
    64
  3
...............................................
 72
    65
 73
     2
 40
0.125
 49
0.0
 49
-0.125
  0
LTYPE
  2
DOTX2
 70
    64
  3
.  .  .  .  .  .  .  .  .  .  .  .  .  .  .  .
 72
    65
 73
     2
 40
0.5
 49
0.0
 49
-0.5
  0
LTYPE
  2
HIDDEN
 70
    64
  3
__ __ __ __ __ __ __ __ __ __ __ __ __ __ __ __
 72
    65
 73
     2
 40
0.375
 49
0.25
 49
-0.125
  0
LTYPE
  2
HIDDEN2
 70
    64
  3
_ _ _ _ _ _ _ _ _ _ _ _ _ _ _ _ _ _ _ _ _ _ _ _
 72
    65
 73
     2
 40
0.1875
 49
0.125
 49
-0.0625
  0
LTYPE
  2
HIDDENX2
 70
    64
  3
____ ____ ____ ____ ____ ____ ____ ____ ____ __
 72
    65
 73
     2
 40
0.75
 49
0.5
 49
-0.25
  0
LTYPE
  2
PHANTOM
 70
    64
  3
______  __  __  ______  __  __  ______  __  __
 72
    65
 73
     6
 40
2.5
 49
1.25
 49
-0.25
 49
0.25
 49
-0.25
 49
0.25
 49
-0.25
  0
LTYPE
  2
PHANTOM2
 70
    64
  3
___ _ _ ___ _ _ ___ _ _ ___ _ _ ___ _ _ ___ _ _
 72
    65
 73
     6
 40
1.25
 49
0.625
 49
-0.125
 49
0.125
 49
-0.125
 49
0.125
 49
-0.125
  0
LTYPE
  2
PHANTOMX2
 70
    64
  3
____________    ____    ____    ____________
 72
    65
 73
     6
 40
5.0
 49
2.5
 49
-0.5
 49
0.5
 49
-0.5
 49
0.5
 49
-0.5
  0
LTYPE
  2
ACAD_ISO02W100
 70
    64
  3
__ __ __ __ __ __ __ __ __ __ __ __ __ __ __ __
 72
    65
 73
     2
 40
15.0
 49
12.0
 49
-3.0
  0
LTYPE
  2
ACAD_ISO03W100
 70
    64
  3
__    __    __    __    __    __    __    __
 72
    65
 73
     2
 40
30.0
 49
12.0
 49
-18.0
  0
LTYPE
  2
ACAD_ISO04W100
 70
    64
  3
____ . ____ . ____ . ____ . ____ . ____ . ____
 72
    65
 73
     4
 40
30.5
 49
24.0
 49
-3.0
 49
0.5
 49
-3.0
  0
LTYPE
  2
ACAD_ISO05W100
 70
    64
  3
____ .. ____ .. ____ .. ____ .. ____ .. ____ ..
 72
    65
 73
     6
 40
34.0
 49
24.0
 49
-3.0
 49
0.5
 49
-3.0
 49
0.5
 49
-3.0
  0
LTYPE
  2
ACAD_ISO06W100
 70
    64
  3
____ ... ____ ... ____ ... ____ ... ____ ... __
 72
    65
 73
     8
 40
37.5
 49
24.0
 49
-3.0
 49
0.5
 49
-3.0
 49
0.5
 49
-3.0
 49
0.5
 49
-3.0
  0
LTYPE
  2
ACAD_ISO07W100
 70
    64
  3
. . . . . . . . . . . . . . . . . . . . . . . .
 72
    65
 73
     2
 40
3.5
 49
0.5
 49
-3.0
  0
LTYPE
  2
ACAD_ISO08W100
 70
    64
  3
____ __ ____ __ ____ __ ____ ____ __ __ ____ __
 72
    65
 73
     4
 40
36.0
 49
24.0
 49
-3.0
 49
6.0
 49
-3.0
  0
LTYPE
  2
ACAD_ISO09W100
 70
    64
  3
____ __ __ ____ __ __ ____ __ __ ____ __ __ ___
 72
    65
 73
     6
 40
45.0
 49
24.0
 49
-3.0
 49
6.0
 49
-3.0
 49
6.0
 49
-3.0
  0
LTYPE
  2
ACAD_ISO10W100
 70
    64
  3
__ . __ . __ . __ . __ . __ . __ . __ . __ . __
 72
    65
 73
     4
 40
18.5
 49
12.0
 49
-3.0
 49
0.5
 49
-3.0
  0
LTYPE
  2
ACAD_ISO11W100
 70
    64
  3
__ __ . __ __ . __ __ . __ __ . __ __ . __ __ .
 72
    65
 73
     6
 40
33.5
 49
12.0
 49
-3.0
 49
12.0
 49
-3.0
 49
0.5
 49
-3.0
  0
LTYPE
  2
ACAD_ISO12W100
 70
    64
  3
__ . . __ . . __ . . __ . . __ . . __ . . __ .
 72
    65
 73
     6
 40
22.0
 49
12.0
 49
-3.0
 49
0.5
 49
-3.0
 49
0.5
 49
-3.0
  0
LTYPE
  2
ACAD_ISO13W100
 70
    64
  3
__ __ . . __ __ . . __ __ . . __ __ . . __ __ .
 72
    65
 73
     8
 40
37.0
 49
12.0
 49
-3.0
 49
12.0
 49
-3.0
 49
0.5
 49
-3.0
 49
0.5
 49
-3.0
  0
LTYPE
  2
ACAD_ISO14W100
 70
    64
  3
__ . . . __ . . . __ . . . __ . . . __ . . . __
 72
    65
 73
     8
 40
25.5
 49
12.0
 49
-3.0
 49
0.5
 49
-3.0
 49
0.5
 49
-3.0
 49
0.5
 49
-3.0
  0
LTYPE
  2
ACAD_ISO15W100
 70
    64
  3
__ __ . . . __ __ . . . __ __ . . . __ __ . . .
 72
    65
 73
    10
 40
40.5
 49
12.0
 49
-3.0
 49
12.0
 49
-3.0
 49
0.5
 49
-3.0
 49
0.5
 49
-3.0
 49
0.5
 49
-3.0
  0
ENDTAB
  0
TABLE
  2
STYLE
 70
     4
  0
STYLE
  2
STANDARD
 70
    64
 40
0.0
 41
1.0
 50
0.0
 71
     0
 42
0.2
  3
txt
  4

  0
STYLE
  2
TOLERANCE
 70
    64
 40
0.0
 41
1.0
 50
0.0
 71
     0
 42
0.2
  3
../igesfont/iges1003.shx
  4

  0
STYLE
  2
ROMANS
 70
    64
 40
0.0
 41
1.0
 50
0.0
 71
     0
 42
0.2
  3
romans.shx
  4

  0
STYLE
  2
ROMANC
 70
    64
 40
0.0
 41
1.0
 50
0.0
 71
     0
 42
0.2
  3
romanc.shx
  4

  0
ENDTAB
  0
TABLE
  2
DIMSTYLE
 70
     2
  0
DIMSTYLE
  2
UNNAMED
 70
     0
  3

  4

  5

  6

  7

 40
1.0
 41
0.18
 42
0.0625
 43
0.38
 44
0.18
 45
0.0
 46
0.0
 47
0.0
 48
0.0
140
0.18
141
0.09
142
0.0
143
25.4
144
1.0
145
0.0
146
1.0
147
0.09
 71
     0
 72
     0
 73
     1
 74
     1
 75
     0
 76
     0
 77
     0
 78
     0
170
     0
171
     2
172
     0
173
     0
174
     0
175
     0
176
     0
177
     0
178
     0
  0
DIMSTYLE
  2
STANDARD
 70
     0
  3

  4

  5

  6

  7

 40
1.0
 41
0.18
 42
0.0625
 43
0.38
 44
0.18
 45
0.0
 46
0.0
 47
0.0
 48
0.0
140
0.18
141
0.09
142
0.0
143
25.4
144
1.0
145
0.0
146
1.0
147
0.09
 71
     0
 72
     0
 73
     1
 74
     1
 75
     0
 76
     0
 77
     0
 78
     0
170
     0
171
     2
172
     0
173
     0
174
     0
175
     0
176
     0
177
     0
178
     0
  0
ENDTAB
  0
TABLE
  2
LAYER
 70
     2
  0
LAYER
  2
0
 70
     0
 62
     7
  6
CONTINUOUS
  0
LAYER
  2
255
 70
     0
 62
     7
  6
CONTINUOUS
  0
ENDTAB
  0
ENDSEC
  0
SECTION
  2
BLOCKS
  0
BLOCK
  5
     B
  8
0
  6
CONTINUOUS
 62
     7
  2
MOSTRINA
 70
    64
 10
0.0
 20
0.0
 30
0.0
  3
MOSTRINA
  0
LINE
  5
     C
  8
0
  6
CONTINUOUS
 62
     3
 10
208.338256835938
 20
30.7306251525879
 30
0.0
 11
208.338256835938
 21
189.230621337891
 31
0.0
  0
LINE
  5
     D
  8
0
  6
CONTINUOUS
 62
     3
 10
57.5882568359375
 20
29.4806251525879
 30
0.0
 11
207.088256835938
 21
29.4806251525879
 31
0.0
  0
LINE
  5
     E
  8
0
  6
CONTINUOUS
 62
     3
 10
56.3382568359375
 20
30.7306251525879
 30
0.0
 11
56.3382568359375
 21
189.230621337891
 31
0.0
  0
LINE
  5
     F
  8
0
  6
CONTINUOUS
 62
     3
 10
57.5882568359375
 20
190.480621337891
 30
0.0
 11
207.088256835938
 21
190.480621337891
 31
0.0
  0
LINE
  5
    10
  8
0
  6
CONTINUOUS
 62
     3
 10
202.838256835938
 20
56.9806251525879
 30
0.0
 11
202.838256835938
 21
162.980625152588
 31
0.0
  0
LINE
  5
    11
  8
0
  6
CONTINUOUS
 62
     3
 10
61.8382568359375
 20
56.9806251525879
 30
0.0
 11
202.838256835938
 21
56.9806251525879
 31
0.0
  0
LINE
  5
    12
  8
0
  6
CONTINUOUS
 62
     3
 10
61.8382568359375
 20
56.9806251525879
 30
0.0
 11
61.8382568359375
 21
162.980625152588
 31
0.0
  0
LINE
  5
    13
  8
0
  6
CONTINUOUS
 62
     3
 10
61.8382568359375
 20
162.980621337891
 30
0.0
 11
202.838256835938
 21
162.980621337891
 31
0.0
  0
LINE
  5
    14
  8
0
  6
CONTINUOUS
 62
     3
 10
203.838256835938
 20
48.4806251525879
 30
0.0
 11
203.838256835938
 21
49.4806251525879
 31
0.0
  0
LINE
  5
    15
  8
0
  6
CONTINUOUS
 62
     3
 10
61.8382568359375
 20
50.4806251525879
 30
0.0
 11
202.838256835938
 21
50.4806251525879
 31
0.0
  0
LINE
  5
    16
  8
0
  6
CONTINUOUS
 62
     3
 10
60.8382568359375
 20
48.4806251525879
 30
0.0
 11
60.8382568359375
 21
49.4806251525879
 31
0.0
  0
LINE
  5
    17
  8
0
  6
CONTINUOUS
 62
     3
 10
61.8382568359375
 20
49.4806251525879
 30
0.0
 11
202.838256835938
 21
49.4806251525879
 31
0.0
  0
LINE
  5
    18
  8
0
  6
CONTINUOUS
 62
     3
 10
60.8382568359375
 20
29.4806251525879
 30
0.0
 11
60.8382568359375
 21
48.4806251525879
 31
0.0
  0
LINE
  5
    19
  8
0
  6
CONTINUOUS
 62
     3
 10
60.8382568359375
 20
49.4806213378906
 30
0.0
 11
60.8382568359375
 21
190.480621337891
 31
0.0
  0
LINE
  5
    1A
  8
0
  6
CONTINUOUS
 62
     3
 10
61.8382568359375
 20
29.4806251525879
 30
0.0
 11
61.8382568359375
 21
49.4806251525879
 31
0.0
  0
LINE
  5
    1B
  8
0
  6
CONTINUOUS
 62
     3
 10
61.8382568359375
 20
162.980621337891
 30
0.0
 11
61.8382568359375
 21
169.480621337891
 31
0.0
  0
LINE
  5
    1C
  8
0
  6
CONTINUOUS
 62
     3
 10
61.8382568359375
 20
50.4806251525879
 30
0.0
 11
61.8382568359375
 21
56.9806251525879
 31
0.0
  0
LINE
  5
    1D
  8
0
  6
CONTINUOUS
 62
     3
 10
203.838256835938
 20
29.4806251525879
 30
0.0
 11
203.838256835938
 21
48.4806251525879
 31
0.0
  0
LINE
  5
    1E
  8
0
  6
CONTINUOUS
 62
     3
 10
203.838256835938
 20
49.4806251525879
 30
0.0
 11
203.838256835938
 21
190.480621337891
 31
0.0
  0
LINE
  5
    1F
  8
0
  6
CONTINUOUS
 62
     3
 10
202.838256835938
 20
50.4806251525879
 30
0.0
 11
202.838256835938
 21
56.9806251525879
 31
0.0
  0
LINE
  5
    20
  8
0
  6
CONTINUOUS
 62
     3
 10
202.838256835938
 20
162.980621337891
 30
0.0
 11
202.838256835938
 21
169.480621337891
 31
0.0
  0
LINE
  5
    21
  8
0
  6
CONTINUOUS
 62
     3
 10
202.838256835938
 20
29.4806251525879
 30
0.0
 11
202.838256835938
 21
49.4806251525879
 31
0.0
  0
LINE
  5
    22
  8
0
  6
CONTINUOUS
 62
     3
 10
60.8382568359375
 20
170.480621337891
 30
0.0
 11
203.838256835938
 21
170.480621337891
 31
0.0
  0
LINE
  5
    23
  8
0
  6
CONTINUOUS
 62
     3
 10
61.8382568359375
 20
169.480621337891
 30
0.0
 11
202.838256835938
 21
169.480621337891
 31
0.0
  0
ARC
  5
    24
  8
0
  6
CONTINUOUS
 62
     3
 10
57.5882568359375
 20
30.7306251525879
 30
0.0
 40
1.25
 50
180.0
 51
270.0
  0
ARC
  5
    25
  8
0
  6
CONTINUOUS
 62
     3
 10
207.088256835938
 20
30.7306251525879
 30
0.0
 40
1.25
 50
270.0
 51
360.0
  0
ARC
  5
    26
  8
0
  6
CONTINUOUS
 62
     3
 10
207.088256835938
 20
189.230621337891
 30
0.0
 40
1.25
 50
0.0
 51
90.0
  0
ARC
  5
    27
  8
0
  6
CONTINUOUS
 62
     3
 10
57.5882568359375
 20
189.230621337891
 30
0.0
 40
1.25
 50
90.0
 51
180.0
  0
LINE
  5
    28
  8
0
  6
DOT
 62
     3
 10
60.3382577409677
 20
179.7306252571
 30
0.0
 11
60.8382568359375
 21
179.7306252571
 31
0.0
  0
LINE
  5
    29
  8
0
  6
DOT
 62
     3
 10
60.3382577409676
 20
181.2306252571
 30
0.0
 11
60.8382568359375
 21
181.2306252571
 31
0.0
  0
LINE
  5
    2A
  8
0
  6
CONTINUOUS
 62
     3
 10
203.338257745313
 20
179.730625257273
 30
0.0
 11
203.838256835938
 21
179.730625257273
 31
0.0
  0
LINE
  5
    2B
  8
0
  6
CONTINUOUS
 62
     3
 10
203.338257745314
 20
181.230625257273
 30
0.0
 11
203.838256835938
 21
181.230625257273
 31
0.0
  0
ARC
  5
    2C
  8
0
  6
DOT
 62
     3
 10
60.3382577401871
 20
180.480625257147
 30
0.0
 40
0.749999999345164
 50
90.0
 51
270.0
  0
ARC
  5
    2D
  8
0
  6
CONTINUOUS
 62
     3
 10
61.338257740822
 20
180.480625256974
 30
0.0
 40
0.750000000009701
 50
270.0
 51
450.0
  0
LINE
  5
    2E
  8
0
  6
CONTINUOUS
 62
     3
 10
60.8382568359375
 20
181.2306252571
 30
0.0
 11
61.3382577409688
 21
181.2306252571
 31
0.0
  0
LINE
  5
    2F
  8
0
  6
CONTINUOUS
 62
     3
 10
60.8382568359375
 20
179.7306252571
 30
0.0
 11
61.3382577409689
 21
179.7306252571
 31
0.0
  0
ARC
  5
    30
  8
0
  6
CONTINUOUS
 62
     3
 10
203.338257745503
 20
180.480625256952
 30
0.0
 40
0.750000000048506
 50
90.0000000038822
 51
269.999999996024
  0
ARC
  5
    31
  8
0
  6
DOT
 62
     3
 10
204.338257745421
 20
180.480625256965
 30
0.0
 40
0.750000000029104
 50
270.000000002449
 51
449.999999997486
  0
LINE
  5
    32
  8
0
  6
DOT
 62
     3
 10
203.838256835938
 20
181.230625257273
 30
0.0
 11
204.338257745315
 21
181.230625257273
 31
0.0
  0
LINE
  5
    33
  8
0
  6
DOT
 62
     3
 10
203.838256835938
 20
179.730625257273
 30
0.0
 11
204.338257745315
 21
179.730625257273
 31
0.0
  0
POINT
  5
    34
  8
0
  6
CONTINUOUS
 62
     7
 10
132.338256835938
 20
109.980623245239
 30
0.0
  0
ENDBLK
  5
    35
  8
0
  6
CONTINUOUS
 62
     7
  0
BLOCK
  5
    36
  8
0
  6
CONTINUOUS
 62
     7
  2
*UDIM196
 70
    65
 10
0.0
 20
0.0
 30
0.0
  3
*UDIM196
  0
TEXT
  5
    37
  8
0
  6
CONTINUOUS
 62
     7
 10
-14.8457249148308
 20
58.2910690342793
 30
0.0
 40
3.00000002980232
  1
152
 50
359.999999948034
 41
0.933333333333333
 72
     1
 11
-10.9457248747349
 21
59.7910690456629
 31
0.0
 73
     2
  0
LINE
  5
    38
  8
0
  6
CONTINUOUS
 62
     7
 10
27.3292751312256
 20
-0.150216345072408
 30
0.0
 11
27.3292751312256
 21
59.2910690307617
 31
0.0
  0
LINE
  5
    39
  8
0
  6
CONTINUOUS
 62
     7
 10
-48.6707248687744
 20
-0.15021634507238
 30
0.0
 11
-48.6707248687744
 21
59.2910690307617
 31
0.0
  0
LINE
  5
    3A
  8
0
  6
CONTINUOUS
 62
     7
 10
27.3292751312256
 20
57.2910690307617
 30
0.0
 11
-48.6707248687744
 21
57.2910690307617
 31
0.0
  0
LINE
  5
    3B
  8
0
  6
CONTINUOUS
 62
     7
 10
24.3748518540187
 20
56.7701246008101
 30
0.0
 11
27.3292751312256
 21
57.2910690307617
 31
0.0
  0
LINE
  5
    3C
  8
0
  6
CONTINUOUS
 62
     7
 10
27.3292751312256
 20
57.2910690307617
 30
0.0
 11
24.3748518540187
 21
57.8120134607134
 31
0.0
  0
LINE
  5
    3D
  8
0
  6
CONTINUOUS
 62
     7
 10
-45.7163015915674
 20
57.8120134607134
 30
0.0
 11
-48.6707248687744
 21
57.2910690307617
 31
0.0
  0
LINE
  5
    3E
  8
0
  6
CONTINUOUS
 62
     7
 10
-48.6707248687744
 20
57.2910690307617
 30
0.0
 11
-45.7163015915674
 21
56.7701246008101
 31
0.0
  0
ENDBLK
  5
    3F
  8
0
  6
CONTINUOUS
 62
     7
  0
BLOCK
  5
    40
  8
0
  6
CONTINUOUS
 62
     7
  2
*UDIM197
 70
    65
 10
0.0
 20
0.0
 30
0.0
  3
*UDIM197
  0
TEXT
  5
    41
  8
0
  6
CONTINUOUS
 62
     7
 10
48.2861919367753
 20
-44.9502151990415
 30
0.0
 40
3.00000002980232
  1
161
 50
89.9999999480344
 41
0.933333333333333
 72
     1
 11
46.7861919254065
 21
-41.0502151589399
 31
0.0
 73
     2
  0
LINE
  5
    42
  8
0
  6
CONTINUOUS
 62
     7
 10
27.7042751312256
 20
-81.0252144377237
 30
0.0
 11
51.2861919403076
 21
-81.0252144377237
 31
0.0
  0
LINE
  5
    43
  8
0
  6
CONTINUOUS
 62
     7
 10
27.7042751312256
 20
-0.52521634507238
 30
0.0
 11
51.2861919403076
 21
-0.52521634507238
 31
0.0
  0
LINE
  5
    44
  8
0
  6
CONTINUOUS
 62
     7
 10
49.2861919403076
 20
-81.0252144377237
 30
0.0
 11
49.2861919403076
 21
-0.52521634507238
 31
0.0
  0
LINE
  5
    45
  8
0
  6
CONTINUOUS
 62
     7
 10
48.765247510356
 20
-78.0707911605168
 30
0.0
 11
49.2861919403076
 21
-81.0252144377237
 31
0.0
  0
LINE
  5
    46
  8
0
  6
CONTINUOUS
 62
     7
 10
49.2861919403076
 20
-81.0252144377237
 30
0.0
 11
49.8071363702593
 21
-78.0707911605168
 31
0.0
  0
LINE
  5
    47
  8
0
  6
CONTINUOUS
 62
     7
 10
49.8071363702593
 20
-3.47963962227935
 30
0.0
 11
49.2861919403076
 21
-0.52521634507238
 31
0.0
  0
LINE
  5
    48
  8
0
  6
CONTINUOUS
 62
     7
 10
49.2861919403076
 20
-0.52521634507238
 30
0.0
 11
48.765247510356
 21
-3.47963962227935
 31
0.0
  0
ENDBLK
  5
    49
  8
0
  6
CONTINUOUS
 62
     7
  0
BLOCK
  5
    4A
  8
0
  6
CONTINUOUS
 62
     2
  2
*UDIM198
 70
    65
 10
0.0
 20
0.0
 30
0.0
  3
*UDIM198
  0
TEXT
  5
    4B
  8
0
  6
CONTINUOUS
 62
     2
 10
49.3903619990452
 20
46.0568653620289
 30
0.0
 40
3.00000002980232
  1
14
 50
374.447343141344
 41
0.933333333333333
 72
     1
 11
51.4370701638915
 21
48.1331567329187
 31
0.0
 73
     2
  0
TEXT
  5
    4C
  8
0
  6
CONTINUOUS
 62
     2
 10
46.3399733706789
 20
45.270971426107
 30
0.0
 40
3.00000002980232
  1
Ø
 50
374.447343141344
 41
0.933333333333334
 72
     1
 11
47.030953246604
 21
46.9979766026513
 31
0.0
 73
     2
  0
LINE
  5
    4D
  8
0
  6
CONTINUOUS
 62
     2
 10
21.0650326404809
 20
37.7265482609982
 30
0.0
 11
54.4817388831529
 21
46.335938719256
 31
0.0
  0
LINE
  5
    4E
  8
0
  6
CONTINUOUS
 62
     2
 10
23.7960586957693
 20
38.9681185108576
 30
0.0
 11
21.0650326404809
 21
37.7265482609982
 31
0.0
  0
LINE
  5
    4F
  8
0
  6
CONTINUOUS
 62
     2
 10
21.0650326404809
 20
37.7265482609982
 30
0.0
 11
24.0559996903873
 21
37.9591769487701
 31
0.0
  0
LINE
  5
    50
  8
0
  6
CONTINUOUS
 62
     2
 10
25.1126396620941
 20
38.2314068335518
 30
0.0
 11
27.8436657173825
 21
39.4729770834111
 31
0.0
  0
LINE
  5
    51
  8
0
  6
CONTINUOUS
 62
     2
 10
27.8436657173825
 20
39.4729770834111
 30
0.0
 11
24.8526986674762
 21
39.2403483956393
 31
0.0
  0
ENDBLK
  5
    52
  8
0
  6
CONTINUOUS
 62
     2
  0
BLOCK
  5
    53
  8
0
  6
CONTINUOUS
 62
     2
  2
*UDIM199
 70
    65
 10
0.0
 20
0.0
 30
0.0
  3
*UDIM199
  0
TEXT
  5
    54
  8
0
  6
CONTINUOUS
 62
     2
 10
21.6793399473278
 20
52.6416854880947
 30
0.0
 40
3.00000002980232
  1
50
 50
359.999999948034
 41
0.933333333333333
 72
     1
 11
24.179339973516
 21
54.141685500741
 31
0.0
 73
     2
  0
LINE
  5
    55
  8
0
  6
CONTINUOUS
 62
     2
 10
36.954340128488
 20
48.5997704513698
 30
0.0
 11
36.954340128488
 21
53.6416854858398
 31
0.0
  0
LINE
  5
    56
  8
0
  6
CONTINUOUS
 62
     2
 10
11.954340128488
 20
48.5997704513698
 30
0.0
 11
11.954340128488
 21
53.6416854858398
 31
0.0
  0
LINE
  5
    57
  8
0
  6
CONTINUOUS
 62
     2
 10
36.954340128488
 20
51.6416854858398
 30
0.0
 11
11.954340128488
 21
51.6416854858398
 31
0.0
  0
LINE
  5
    58
  8
0
  6
CONTINUOUS
 62
     2
 10
33.9999168512811
 20
51.1207410558882
 30
0.0
 11
36.954340128488
 21
51.6416854858398
 31
0.0
  0
LINE
  5
    59
  8
0
  6
CONTINUOUS
 62
     2
 10
36.954340128488
 20
51.6416854858398
 30
0.0
 11
33.9999168512811
 21
52.1626299157915
 31
0.0
  0
LINE
  5
    5A
  8
0
  6
CONTINUOUS
 62
     2
 10
14.908763405695
 20
52.1626299157915
 30
0.0
 11
11.954340128488
 21
51.6416854858398
 31
0.0
  0
LINE
  5
    5B
  8
0
  6
CONTINUOUS
 62
     2
 10
11.954340128488
 20
51.6416854858398
 30
0.0
 11
14.908763405695
 21
51.1207410558882
 31
0.0
  0
ENDBLK
  5
    5C
  8
0
  6
CONTINUOUS
 62
     2
  0
BLOCK
  5
    5D
  8
0
  6
CONTINUOUS
 62
     2
  2
*UDIM200
 70
    65
 10
0.0
 20
0.0
 30
0.0
  3
*UDIM200
  0
TEXT
  5
    5E
  8
0
  6
CONTINUOUS
 62
     2
 10
-83.1319446611724
 20
29.6497848034127
 30
0.0
 40
3.00000002980232
  1
53,5
 50
89.9999999480344
 41
0.933333333333333
 72
     1
 11
-84.6319446712732
 21
34.9497848574221
 31
0.0
 73
     2
  0
LINE
  5
    5F
  8
0
  6
CONTINUOUS
 62
     2
 10
-62.4207186320301
 20
21.8498001098603
 30
0.0
 11
-84.1319446563721
 21
21.8498001098603
 31
0.0
  0
LINE
  5
    60
  8
0
  6
CONTINUOUS
 62
     2
 10
-58.045659871512
 20
48.5997704513698
 30
0.0
 11
-84.1319446563721
 21
48.5997704513698
 31
0.0
  0
LINE
  5
    61
  8
0
  6
CONTINUOUS
 62
     2
 10
-82.1319446563721
 20
21.8498001098603
 30
0.0
 11
-82.1319446563721
 21
48.5997704513698
 31
0.0
  0
LINE
  5
    62
  8
0
  6
CONTINUOUS
 62
     2
 10
-82.6528890863237
 20
24.8042233870673
 30
0.0
 11
-82.1319446563721
 21
21.8498001098603
 31
0.0
  0
LINE
  5
    63
  8
0
  6
CONTINUOUS
 62
     2
 10
-82.1319446563721
 20
21.8498001098603
 30
0.0
 11
-81.6110002264204
 21
24.8042233870673
 31
0.0
  0
LINE
  5
    64
  8
0
  6
CONTINUOUS
 62
     2
 10
-81.6110002264204
 20
45.6453471741628
 30
0.0
 11
-82.1319446563721
 21
48.5997704513698
 31
0.0
  0
LINE
  5
    65
  8
0
  6
CONTINUOUS
 62
     2
 10
-82.1319446563721
 20
48.5997704513698
 30
0.0
 11
-82.6528890863237
 21
45.6453471741628
 31
0.0
  0
ENDBLK
  5
    66
  8
0
  6
CONTINUOUS
 62
     2
  0
BLOCK
  5
    67
  8
0
  6
CONTINUOUS
 62
     2
  2
*UDIM201
 70
    65
 10
0.0
 20
0.0
 30
0.0
  3
*UDIM201
  0
TEXT
  5
    68
  8
0
  6
CONTINUOUS
 62
     2
 10
-83.1572361040435
 20
-129.850203751357
 30
0.0
 40
3.00000002980232
  1
48,5
 50
89.9999999480344
 41
0.933333333333333
 72
     1
 11
-84.6572361141443
 21
-124.550203697348
 31
0.0
 73
     2
  0
LINE
  5
    69
  8
0
  6
CONTINUOUS
 62
     2
 10
-55.6707718812086
 20
-136.400201110892
 30
0.0
 11
-84.1572360992432
 21
-136.400201110892
 31
0.0
  0
LINE
  5
    6A
  8
0
  6
CONTINUOUS
 62
     2
 10
-62.1707400248477
 20
-112.150207761999
 30
0.0
 11
-84.1572360992432
 21
-112.150207761999
 31
0.0
  0
LINE
  5
    6B
  8
0
  6
CONTINUOUS
 62
     2
 10
-82.1572360992432
 20
-136.400201110892
 30
0.0
 11
-82.1572360992432
 21
-112.150207761999
 31
0.0
  0
LINE
  5
    6C
  8
0
  6
CONTINUOUS
 62
     2
 10
-82.6781805291948
 20
-133.445777833685
 30
0.0
 11
-82.1572360992432
 21
-136.400201110892
 31
0.0
  0
LINE
  5
    6D
  8
0
  6
CONTINUOUS
 62
     2
 10
-82.1572360992432
 20
-136.400201110892
 30
0.0
 11
-81.6362916692915
 21
-133.445777833685
 31
0.0
  0
LINE
  5
    6E
  8
0
  6
CONTINUOUS
 62
     2
 10
-81.6362916692915
 20
-115.104631039206
 30
0.0
 11
-82.1572360992432
 21
-112.150207761999
 31
0.0
  0
LINE
  5
    6F
  8
0
  6
CONTINUOUS
 62
     2
 10
-82.1572360992432
 20
-112.150207761999
 30
0.0
 11
-82.6781805291948
 21
-115.104631039206
 31
0.0
  0
ENDBLK
  5
    70
  8
0
  6
CONTINUOUS
 62
     2
  0
BLOCK
  5
    71
  8
0
  6
CONTINUOUS
 62
     2
  2
*UDIM202
 70
    65
 10
0.0
 20
0.0
 30
0.0
  3
*UDIM202
  0
TEXT
  5
    72
  8
0
  6
CONTINUOUS
 62
     2
 10
-64.8243432968417
 20
-130.469691999999
 30
0.0
 40
3.00000002980232
  1
11
 50
367.667167138913
 41
0.933333333333333
 72
     1
 11
-62.5468211659815
 21
-128.649556534622
 31
0.0
 73
     2
  0
TEXT
  5
    73
  8
0
  6
CONTINUOUS
 62
     2
 10
-67.9461817285891
 20
-130.889959615513
 30
0.0
 40
3.00000002980232
  1
Ø
 50
367.667167138913
 41
0.933333333333334
 72
     1
 11
-67.0561433548232
 21
-129.256609756491
 31
0.0
 73
     2
  0
LINE
  5
    74
  8
0
  6
CONTINUOUS
 62
     2
 10
-67.8127634372946
 20
-131.881019432846
 30
0.0
 11
-42.9453632321893
 21
-128.533324417537
 31
0.0
  0
LINE
  5
    75
  8
0
  6
CONTINUOUS
 62
     2
 10
-51.2548032864567
 20
-130.177600256579
 30
0.0
 11
-48.3962966103312
 21
-129.267139064355
 31
0.0
  0
LINE
  5
    76
  8
0
  6
CONTINUOUS
 62
     2
 10
-48.3962966103312
 20
-129.267139064355
 30
0.0
 11
-51.393810316329
 21
-129.145026074239
 31
0.0
  0
LINE
  5
    77
  8
0
  6
CONTINUOUS
 62
     2
 10
-40.0868565560638
 20
-127.622863225313
 30
0.0
 11
-42.9453632321893
 21
-128.533324417537
 31
0.0
  0
LINE
  5
    78
  8
0
  6
CONTINUOUS
 62
     2
 10
-42.9453632321893
 20
-128.533324417537
 30
0.0
 11
-39.9478495261915
 21
-128.655437407654
 31
0.0
  0
ENDBLK
  5
    79
  8
0
  6
CONTINUOUS
 62
     2
  0
BLOCK
  5
    7A
  8
0
  6
CONTINUOUS
 62
     2
  2
*UDIM203
 70
    65
 10
0.0
 20
0.0
 30
0.0
  3
*UDIM203
  0
TEXT
  5
    7B
  8
0
  6
CONTINUOUS
 62
     2
 10
-68.0069850192742
 20
-141.553108213077
 30
0.0
 40
3.00000002980232
  1
40
 50
359.999999948034
 41
0.933333333333333
 72
     1
 11
-65.506984993086
 21
-140.053108200431
 31
0.0
 73
     2
  0
LINE
  5
    7C
  8
0
  6
CONTINUOUS
 62
     2
 10
-35.6708004914381
 20
-136.400201110892
 30
0.0
 11
-35.6708004914381
 21
-144.553108215332
 31
0.0
  0
LINE
  5
    7D
  8
0
  6
CONTINUOUS
 62
     2
 10
-55.6707718812086
 20
-136.400201110892
 30
0.0
 11
-55.6707718812086
 21
-144.553108215332
 31
0.0
  0
LINE
  5
    7E
  8
0
  6
CONTINUOUS
 62
     2
 10
-35.6708004914381
 20
-142.553108215332
 30
0.0
 11
-68.0069850179213
 21
-142.553108215332
 31
0.0
  0
LINE
  5
    7F
  8
0
  6
CONTINUOUS
 62
     2
 10
-38.6252237686451
 20
-143.074052645284
 30
0.0
 11
-35.6708004914381
 21
-142.553108215332
 31
0.0
  0
LINE
  5
    80
  8
0
  6
CONTINUOUS
 62
     2
 10
-35.6708004914381
 20
-142.553108215332
 30
0.0
 11
-38.6252237686451
 21
-142.03216378538
 31
0.0
  0
LINE
  5
    81
  8
0
  6
CONTINUOUS
 62
     2
 10
-52.7163486040016
 20
-142.03216378538
 30
0.0
 11
-55.6707718812086
 21
-142.553108215332
 31
0.0
  0
LINE
  5
    82
  8
0
  6
CONTINUOUS
 62
     2
 10
-55.6707718812086
 20
-142.553108215332
 30
0.0
 11
-52.7163486040016
 21
-143.074052645284
 31
0.0
  0
ENDBLK
  5
    83
  8
0
  6
CONTINUOUS
 62
     2
  0
BLOCK
  5
    84
  8
0
  6
CONTINUOUS
 62
     7
  2
*UDIM204
 70
    65
 10
0.0
 20
0.0
 30
0.0
  3
*UDIM204
  0
TEXT
  5
    85
  8
0
  6
CONTINUOUS
 62
     7
 10
-74.7092228009154
 20
-17.8377076093449
 30
0.0
 40
3.00000002980232
  1
125,25
 50
89.9999999480344
 41
0.933333333333333
 72
     1
 11
-76.2092228084803
 21
-9.73770752752004
 31
0.0
 73
     2
  0
LINE
  5
    86
  8
0
  6
CONTINUOUS
 62
     7
 10
-68.858849806738
 20
-40.7752153913981
 30
0.0
 11
-75.7092227935791
 21
-40.7752153913981
 31
0.0
  0
LINE
  5
    87
  8
0
  6
CONTINUOUS
 62
     7
 10
-62.4207186320301
 20
21.8498001098603
 30
0.0
 11
-75.7092227935791
 21
21.8498001098603
 31
0.0
  0
LINE
  5
    88
  8
0
  6
CONTINUOUS
 62
     7
 10
-73.7092227935791
 20
-40.7752153913981
 30
0.0
 11
-73.7092227935791
 21
21.8498001098603
 31
0.0
  0
LINE
  5
    89
  8
0
  6
CONTINUOUS
 62
     7
 10
-74.2301672235308
 20
-37.8207921141911
 30
0.0
 11
-73.7092227935791
 21
-40.7752153913981
 31
0.0
  0
LINE
  5
    8A
  8
0
  6
CONTINUOUS
 62
     7
 10
-73.7092227935791
 20
-40.7752153913981
 30
0.0
 11
-73.1882783636274
 21
-37.8207921141911
 31
0.0
  0
LINE
  5
    8B
  8
0
  6
CONTINUOUS
 62
     7
 10
-73.1882783636274
 20
18.8953768326534
 30
0.0
 11
-73.7092227935791
 21
21.8498001098603
 31
0.0
  0
LINE
  5
    8C
  8
0
  6
CONTINUOUS
 62
     7
 10
-73.7092227935791
 20
21.8498001098603
 30
0.0
 11
-74.2301672235308
 21
18.8953768326534
 31
0.0
  0
ENDBLK
  5
    8D
  8
0
  6
CONTINUOUS
 62
     7
  0
BLOCK
  5
    8E
  8
0
  6
CONTINUOUS
 62
     7
  2
*UDIM205
 70
    65
 10
0.0
 20
0.0
 30
0.0
  3
*UDIM205
  0
TEXT
  5
    8F
  8
0
  6
CONTINUOUS
 62
     7
 10
4.05421789399468
 20
-146.776382444034
 30
0.0
 40
3.00000002980232
  1
70
 50
359.999999948034
 41
0.933333333333333
 72
     1
 11
6.55421792018287
 21
-145.276382431388
 31
0.0
 73
     2
  0
LINE
  5
    90
  8
0
  6
CONTINUOUS
 62
     7
 10
24.3292748173091
 20
5.97557770610433
 30
0.0
 11
24.3292259242031
 21
-149.776382446289
 31
0.0
  0
LINE
  5
    91
  8
0
  6
CONTINUOUS
 62
     7
 10
-10.6707251826909
 20
-79.1949854911014
 30
0.0
 11
-10.6707473393545
 21
-149.776382446289
 31
0.0
  0
LINE
  5
    92
  8
0
  6
CONTINUOUS
 62
     7
 10
24.329226552036
 20
-147.776382446289
 30
0.0
 11
-10.6707467115215
 21
-147.776382446289
 31
0.0
  0
LINE
  5
    93
  8
0
  6
CONTINUOUS
 62
     7
 10
21.3748032748291
 20
-148.297326876241
 30
0.0
 11
24.329226552036
 21
-147.776382446289
 31
0.0
  0
LINE
  5
    94
  8
0
  6
CONTINUOUS
 62
     7
 10
24.329226552036
 20
-147.776382446289
 30
0.0
 11
21.3748032748291
 21
-147.255438016337
 31
0.0
  0
LINE
  5
    95
  8
0
  6
CONTINUOUS
 62
     7
 10
-7.71632343431457
 20
-147.255438016337
 30
0.0
 11
-10.6707467115215
 21
-147.776382446289
 31
0.0
  0
LINE
  5
    96
  8
0
  6
CONTINUOUS
 62
     7
 10
-10.6707467115215
 20
-147.776382446289
 30
0.0
 11
-7.71632343431457
 21
-148.297326876241
 31
0.0
  0
ENDBLK
  5
    97
  8
0
  6
CONTINUOUS
 62
     7
  0
BLOCK
  5
    98
  8
0
  6
CONTINUOUS
 62
     7
  2
*UDIM206
 70
    65
 10
0.0
 20
0.0
 30
0.0
  3
*UDIM206
  0
TEXT
  5
    99
  8
0
  6
CONTINUOUS
 62
     7
 10
-30.9457821193535
 20
-146.776382444034
 30
0.0
 40
3.00000002980232
  1
70
 50
359.999999948034
 41
0.933333333333333
 72
     1
 11
-28.4457820931653
 21
-145.276382431388
 31
0.0
 73
     2
  0
LINE
  5
    9A
  8
0
  6
CONTINUOUS
 62
     7
 10
-45.6707251826909
 20
7.00999190182554
 30
0.0
 11
-45.6707744005165
 21
-149.776382446289
 31
0.0
  0
LINE
  5
    9B
  8
0
  6
CONTINUOUS
 62
     7
 10
-10.6707467115215
 20
-147.776382446289
 30
0.0
 11
-45.6707737726836
 21
-147.776382446289
 31
0.0
  0
LINE
  5
    9C
  8
0
  6
CONTINUOUS
 62
     7
 10
-13.6251699887285
 20
-148.297326876241
 30
0.0
 11
-10.6707467115215
 21
-147.776382446289
 31
0.0
  0
LINE
  5
    9D
  8
0
  6
CONTINUOUS
 62
     7
 10
-10.6707467115215
 20
-147.776382446289
 30
0.0
 11
-13.6251699887285
 21
-147.255438016337
 31
0.0
  0
LINE
  5
    9E
  8
0
  6
CONTINUOUS
 62
     7
 10
-42.7163504954766
 20
-147.255438016337
 30
0.0
 11
-45.6707737726836
 21
-147.776382446289
 31
0.0
  0
LINE
  5
    9F
  8
0
  6
CONTINUOUS
 62
     7
 10
-45.6707737726836
 20
-147.776382446289
 30
0.0
 11
-42.7163504954766
 21
-148.297326876241
 31
0.0
  0
ENDBLK
  5
    A0
  8
0
  6
CONTINUOUS
 62
     7
  0
BLOCK
  5
    A1
  8
0
  6
CONTINUOUS
 62
     7
  2
*UDIM207
 70
    65
 10
0.0
 20
0.0
 30
0.0
  3
*UDIM207
  0
TEXT
  5
    A2
  8
0
  6
CONTINUOUS
 62
     7
 10
-14.8457778241181
 20
-153.080329891502
 30
0.0
 40
3.00000002980232
  1
140
 50
359.999999948034
 41
0.933333333333333
 72
     1
 11
-10.9457777840221
 21
-151.580329880118
 31
0.0
 73
     2
  0
LINE
  5
    A3
  8
0
  6
CONTINUOUS
 62
     7
 10
24.3292900317291
 20
-33.0251999114544
 30
0.0
 11
24.3292459432755
 21
-156.080329895019
 31
0.0
  0
LINE
  5
    A4
  8
0
  6
CONTINUOUS
 62
     7
 10
-45.670717597662
 20
-33.0252077620038
 30
0.0
 11
-45.6707616861132
 21
-156.080329895019
 31
0.0
  0
LINE
  5
    A5
  8
0
  6
CONTINUOUS
 62
     7
 10
24.3292466598398
 20
-154.08032989502
 30
0.0
 11
-45.6707609695489
 21
-154.08032989502
 31
0.0
  0
LINE
  5
    A6
  8
0
  6
CONTINUOUS
 62
     7
 10
21.3748233826328
 20
-154.601274324971
 30
0.0
 11
24.3292466598398
 21
-154.08032989502
 31
0.0
  0
LINE
  5
    A7
  8
0
  6
CONTINUOUS
 62
     7
 10
24.3292466598398
 20
-154.08032989502
 30
0.0
 11
21.3748233826328
 21
-153.559385465068
 31
0.0
  0
LINE
  5
    A8
  8
0
  6
CONTINUOUS
 62
     7
 10
-42.7163376923419
 20
-153.559385465068
 30
0.0
 11
-45.6707609695489
 21
-154.08032989502
 31
0.0
  0
LINE
  5
    A9
  8
0
  6
CONTINUOUS
 62
     7
 10
-45.6707609695489
 20
-154.08032989502
 30
0.0
 11
-42.7163376923419
 21
-154.601274324971
 31
0.0
  0
ENDBLK
  5
    AA
  8
0
  6
CONTINUOUS
 62
     7
  0
BLOCK
  5
    AB
  8
0
  6
CONTINUOUS
 62
     7
  2
*UDIM208
 70
    65
 10
0.0
 20
0.0
 30
0.0
  3
*UDIM208
  0
TEXT
  5
    AC
  8
0
  6
CONTINUOUS
 62
     7
 10
-83.1597690617598
 20
-49.3252075676192
 30
0.0
 40
3.00000002980232
  1
268
 50
89.9999999480344
 41
0.933333333333333
 72
     1
 11
-84.6597690731287
 21
-45.4252075275176
 31
0.0
 73
     2
  0
LINE
  5
    AD
  8
0
  6
CONTINUOUS
 62
     7
 10
-62.1707400248477
 20
-112.150207761999
 30
0.0
 11
-84.1597690582275
 21
-112.150207761999
 31
0.0
  0
LINE
  5
    AE
  8
0
  6
CONTINUOUS
 62
     7
 10
-62.4207186320301
 20
21.8498001098603
 30
0.0
 11
-84.1597690582275
 21
21.8498001098603
 31
0.0
  0
LINE
  5
    AF
  8
0
  6
CONTINUOUS
 62
     7
 10
-82.1597690582275
 20
-112.150207761999
 30
0.0
 11
-82.1597690582275
 21
21.8498001098603
 31
0.0
  0
LINE
  5
    B0
  8
0
  6
CONTINUOUS
 62
     7
 10
-82.6807134881792
 20
-109.195784484792
 30
0.0
 11
-82.1597690582275
 21
-112.150207761999
 31
0.0
  0
LINE
  5
    B1
  8
0
  6
CONTINUOUS
 62
     7
 10
-82.1597690582275
 20
-112.150207761999
 30
0.0
 11
-81.6388246282759
 21
-109.195784484792
 31
0.0
  0
LINE
  5
    B2
  8
0
  6
CONTINUOUS
 62
     7
 10
-81.6388246282759
 20
18.8953768326534
 30
0.0
 11
-82.1597690582275
 21
21.8498001098603
 31
0.0
  0
LINE
  5
    B3
  8
0
  6
CONTINUOUS
 62
     7
 10
-82.1597690582275
 20
21.8498001098603
 30
0.0
 11
-82.6807134881792
 21
18.8953768326534
 31
0.0
  0
ENDBLK
  5
    B4
  8
0
  6
CONTINUOUS
 62
     7
  0
BLOCK
  5
    B5
  8
0
  6
CONTINUOUS
 62
     7
  2
*UDIM209
 70
    65
 10
0.0
 20
0.0
 30
0.0
  3
*UDIM209
  0
TEXT
  5
    B6
  8
0
  6
CONTINUOUS
 62
     7
 10
-20.9687870912342
 20
64.0306777989277
 30
0.0
 40
3.00000002980232
  1
210
 50
359.999999948034
 41
0.933333333333333
 72
     1
 11
-17.0687870511383
 21
65.5306778103113
 31
0.0
 73
     2
  0
LINE
  5
    B7
  8
0
  6
CONTINUOUS
 62
     7
 10
41.5792754451415
 20
21.3497923902826
 30
0.0
 11
41.579289157291
 21
65.0306777954101
 31
0.0
  0
LINE
  5
    B8
  8
0
  6
CONTINUOUS
 62
     7
 10
-62.9207245548575
 20
21.3497917093229
 30
0.0
 11
-62.9207108427078
 21
65.0306777954101
 31
0.0
  0
LINE
  5
    B9
  8
0
  6
CONTINUOUS
 62
     7
 10
41.5792885294581
 20
63.0306777954102
 30
0.0
 11
-62.9207114705407
 21
63.0306777954102
 31
0.0
  0
LINE
  5
    BA
  8
0
  6
CONTINUOUS
 62
     7
 10
38.6248652522511
 20
62.5097333654585
 30
0.0
 11
41.5792885294581
 21
63.0306777954102
 31
0.0
  0
LINE
  5
    BB
  8
0
  6
CONTINUOUS
 62
     7
 10
41.5792885294581
 20
63.0306777954102
 30
0.0
 11
38.6248652522511
 21
63.5516222253618
 31
0.0
  0
LINE
  5
    BC
  8
0
  6
CONTINUOUS
 62
     7
 10
-59.9662881933338
 20
63.5516222253618
 30
0.0
 11
-62.9207114705407
 21
63.0306777954102
 31
0.0
  0
LINE
  5
    BD
  8
0
  6
CONTINUOUS
 62
     7
 10
-62.9207114705407
 20
63.0306777954102
 30
0.0
 11
-59.9662881933338
 21
62.5097333654585
 31
0.0
  0
ENDBLK
  5
    BE
  8
0
  6
CONTINUOUS
 62
     7
  0
BLOCK
  5
    BF
  8
0
  6
CONTINUOUS
 62
     7
  2
*HATCH171
 70
    65
 10
0.0
 20
0.0
 30
0.0
  3
*HATCH171
  0
LINE
  5
    C0
  8
0
  6
CONTINUOUS
 62
   210
 10
-3.69108244776726E-2
 20
165.5
 30
0.0
 11
2.9523138999939
 21
162.510772705078
 31
0.0
  0
LINE
  5
    C1
  8
0
  6
CONTINUOUS
 62
   210
 10
4.20579242706299
 20
165.499938964844
 30
0.0
 11
7.1949520111084
 21
162.510772705078
 31
0.0
  0
LINE
  5
    C2
  8
0
  6
CONTINUOUS
 62
   210
 10
7.26335382461548
 20
166.685012817383
 30
0.0
 11
11.1375408172607
 21
162.810821533203
 31
0.0
  0
LINE
  5
    C3
  8
0
  6
CONTINUOUS
 62
   210
 10
8.19100952148438
 20
170.0
 30
0.0
 11
10.5168390274048
 21
167.674163818359
 31
0.0
  0
ENDBLK
  5
    C4
  8
0
  6
CONTINUOUS
 62
     7
  0
BLOCK
  5
    C5
  8
0
  6
CONTINUOUS
 62
     7
  2
*HATCH172
 70
    65
 10
0.0
 20
0.0
 30
0.0
  3
*HATCH172
  0
LINE
  5
    C6
  8
0
  6
CONTINUOUS
 62
   210
 10
22.282886505127
 20
175.0
 30
0.0
 11
24.739839553833
 21
172.543045043945
 31
0.0
  0
LINE
  5
    C7
  8
0
  6
CONTINUOUS
 62
   210
 10
24.4042053222656
 20
175.0
 30
0.0
 11
29.4041996002197
 21
170.0
 31
0.0
  0
LINE
  5
    C8
  8
0
  6
CONTINUOUS
 62
   210
 10
28.646842956543
 20
175.0
 30
0.0
 11
33.6468391418457
 21
170.0
 31
0.0
  0
LINE
  5
    C9
  8
0
  6
CONTINUOUS
 62
   210
 10
32.8894805908203
 20
175.0
 30
0.0
 11
37.889476776123
 21
170.0
 31
0.0
  0
LINE
  5
    CA
  8
0
  6
CONTINUOUS
 62
   210
 10
37.1321182250977
 20
175.0
 30
0.0
 11
42.1321144104004
 21
170.0
 31
0.0
  0
LINE
  5
    CB
  8
0
  6
CONTINUOUS
 62
   210
 10
41.374755859375
 20
175.0
 30
0.0
 11
46.3747520446777
 21
170.0
 31
0.0
  0
LINE
  5
    CC
  8
0
  6
CONTINUOUS
 62
   210
 10
45.6173934936523
 20
175.0
 30
0.0
 11
50.6173896789551
 21
170.0
 31
0.0
  0
LINE
  5
    CD
  8
0
  6
CONTINUOUS
 62
   210
 10
49.8600311279297
 20
175.0
 30
0.0
 11
54.8600273132324
 21
170.0
 31
0.0
  0
LINE
  5
    CE
  8
0
  6
CONTINUOUS
 62
   210
 10
54.1026725769043
 20
175.0
 30
0.0
 11
55.6382675170898
 21
173.464401245117
 31
0.0
  0
ENDBLK
  5
    CF
  8
0
  6
CONTINUOUS
 62
     7
  0
BLOCK
  5
    D0
  8
0
  6
CONTINUOUS
 62
     2
  2
*HATCH173
 70
    65
 10
0.0
 20
0.0
 30
0.0
  3
*HATCH173
  0
LINE
  5
    D1
  8
0
  6
CONTINUOUS
 62
   210
 10
14.4451389312744
 20
199.0
 30
0.0
 11
11.5500001907349
 21
196.104858398438
 31
0.0
  0
LINE
  5
    D2
  8
0
  6
CONTINUOUS
 62
   210
 10
18.687780380249
 20
199.0
 30
0.0
 11
11.5500001907349
 21
191.862213134766
 31
0.0
  0
LINE
  5
    D3
  8
0
  6
CONTINUOUS
 62
   210
 10
20.5499858856201
 20
196.619567871094
 30
0.0
 11
13.930419921875
 21
190.0
 31
0.0
  0
LINE
  5
    D4
  8
0
  6
CONTINUOUS
 62
   210
 10
20.5499858856201
 20
192.376922607422
 30
0.0
 11
18.1730613708496
 21
190.0
 31
0.0
  0
ENDBLK
  5
    D5
  8
0
  6
CONTINUOUS
 62
     2
  0
BLOCK
  5
    D6
  8
0
  6
CONTINUOUS
 62
     2
  2
*HATCH174
 70
    65
 10
0.0
 20
0.0
 30
0.0
  3
*HATCH174
  0
LINE
  5
    D7
  8
0
  6
CONTINUOUS
 62
   210
 10
14.2943811416626
 20
184.0
 30
0.0
 11
11.5500001907349
 21
181.255615234375
 31
0.0
  0
LINE
  5
    D8
  8
0
  6
CONTINUOUS
 62
   210
 10
18.5370235443115
 20
184.0
 30
0.0
 11
11.5500001907349
 21
177.012969970703
 31
0.0
  0
LINE
  5
    D9
  8
0
  6
CONTINUOUS
 62
   210
 10
20.5499877929687
 20
181.770324707031
 30
0.0
 11
11.5500001907349
 21
172.77033996582
 31
0.0
  0
LINE
  5
    DA
  8
0
  6
CONTINUOUS
 62
   210
 10
20.549991607666
 20
177.527679443359
 30
0.0
 11
11.5500001907349
 21
168.527694702148
 31
0.0
  0
LINE
  5
    DB
  8
0
  6
CONTINUOUS
 62
   210
 10
20.5499935150146
 20
173.285049438477
 30
0.0
 11
11.3327283859253
 21
164.067779541016
 31
0.0
  0
LINE
  5
    DC
  8
0
  6
CONTINUOUS
 62
   210
 10
20.5499973297119
 20
169.042404174805
 30
0.0
 11
14.1683549880981
 21
162.660766601563
 31
0.0
  0
LINE
  5
    DD
  8
0
  6
CONTINUOUS
 62
   210
 10
20.5500011444092
 20
164.799758911133
 30
0.0
 11
18.4109954833984
 21
162.660766601563
 31
0.0
  0
ENDBLK
  5
    DE
  8
0
  6
CONTINUOUS
 62
     2
  0
BLOCK
  5
    DF
  8
0
  6
CONTINUOUS
 62
     2
  2
*HATCH175
 70
    65
 10
0.0
 20
0.0
 30
0.0
  3
*HATCH175
  0
LINE
  5
    E0
  8
0
  6
CONTINUOUS
 62
     3
 10
2.22191214561462
 20
191.171905517578
 30
0.0
 11
3.39382290840149
 21
190.0
 31
0.0
  0
LINE
  5
    E1
  8
0
  6
CONTINUOUS
 62
     3
 10
4.01514434814453
 20
191.5
 30
0.0
 11
5.51514148712158
 21
190.0
 31
0.0
  0
LINE
  5
    E2
  8
0
  6
CONTINUOUS
 62
     3
 10
6.1364631652832
 20
191.5
 30
0.0
 11
7.63646030426025
 21
190.0
 31
0.0
  0
LINE
  5
    E3
  8
0
  6
CONTINUOUS
 62
     3
 10
8.25778198242188
 20
191.5
 30
0.0
 11
9.75777912139893
 21
190.0
 31
0.0
  0
LINE
  5
    E4
  8
0
  6
CONTINUOUS
 62
     3
 10
10.3791007995605
 20
191.5
 30
0.0
 11
11.8790979385376
 21
190.0
 31
0.0
  0
ENDBLK
  5
    E5
  8
0
  6
CONTINUOUS
 62
     2
  0
BLOCK
  5
    E6
  8
0
  6
CONTINUOUS
 62
     2
  2
*HATCH176
 70
    65
 10
0.0
 20
0.0
 30
0.0
  3
*HATCH176
  0
LINE
  5
    E7
  8
0
  6
CONTINUOUS
 62
     3
 10
3.02985763549805
 20
184.0
 30
0.0
 11
4.52985525131226
 21
182.5
 31
0.0
  0
LINE
  5
    E8
  8
0
  6
CONTINUOUS
 62
     3
 10
5.15117645263672
 20
184.0
 30
0.0
 11
6.65117406845093
 21
182.5
 31
0.0
  0
LINE
  5
    E9
  8
0
  6
CONTINUOUS
 62
     3
 10
7.27249526977539
 20
184.0
 30
0.0
 11
8.77249240875244
 21
182.5
 31
0.0
  0
LINE
  5
    EA
  8
0
  6
CONTINUOUS
 62
     3
 10
9.39381408691406
 20
184.0
 30
0.0
 11
10.8938112258911
 21
182.5
 31
0.0
  0
LINE
  5
    EB
  8
0
  6
CONTINUOUS
 62
     3
 10
11.5151309967041
 20
184.0
 30
0.0
 11
12.0500001907349
 21
183.465133666992
 31
0.0
  0
ENDBLK
  5
    EC
  8
0
  6
CONTINUOUS
 62
     2
  0
BLOCK
  5
    ED
  8
0
  6
CONTINUOUS
 62
     2
  2
*HATCH177
 70
    65
 10
0.0
 20
0.0
 30
0.0
  3
*HATCH177
  0
LINE
  5
    EE
  8
0
  6
CONTINUOUS
 62
     3
 10
2.15654945373535
 20
200.5
 30
0.0
 11
4.99976091086864E-2
 21
198.393447875977
 31
0.0
  0
LINE
  5
    EF
  8
0
  6
CONTINUOUS
 62
     3
 10
4.27786588668823
 20
200.499984741211
 30
0.0
 11
2.27785897254944
 21
198.499984741211
 31
0.0
  0
LINE
  5
    F0
  8
0
  6
CONTINUOUS
 62
     3
 10
5.33852386474609
 20
200.499984741211
 30
0.0
 11
3.33851957321167
 21
198.499984741211
 31
0.0
  0
LINE
  5
    F1
  8
0
  6
CONTINUOUS
 62
     3
 10
6.39918231964111
 20
200.499984741211
 30
0.0
 11
4.39917993545532
 21
198.499984741211
 31
0.0
  0
LINE
  5
    F2
  8
0
  6
CONTINUOUS
 62
     3
 10
7.45984077453613
 20
200.499984741211
 30
0.0
 11
5.45984029769897
 21
198.499984741211
 31
0.0
  0
LINE
  5
    F3
  8
0
  6
CONTINUOUS
 62
     3
 10
8.52049922943115
 20
200.499984741211
 30
0.0
 11
6.52050065994263
 21
198.499984741211
 31
0.0
  0
LINE
  5
    F4
  8
0
  6
CONTINUOUS
 62
     3
 10
9.58115673065186
 20
200.499984741211
 30
0.0
 11
7.58116149902344
 21
198.499984741211
 31
0.0
  0
LINE
  5
    F5
  8
0
  6
CONTINUOUS
 62
     3
 10
10.6418151855469
 20
200.499984741211
 30
0.0
 11
8.64182186126709
 21
198.499984741211
 31
0.0
  0
LINE
  5
    F6
  8
0
  6
CONTINUOUS
 62
     3
 10
11.7024736404419
 20
200.499969482422
 30
0.0
 11
9.70248222351074
 21
198.499984741211
 31
0.0
  0
LINE
  5
    F7
  8
0
  6
CONTINUOUS
 62
     3
 10
2.04999971389771
 20
190.847503662109
 30
0.0
 11
1.70249402523041
 21
190.5
 31
0.0
  0
LINE
  5
    F8
  8
0
  6
CONTINUOUS
 62
     3
 10
12.7631320953369
 20
200.499969482422
 30
0.0
 11
11.7631435394287
 21
199.499984741211
 31
0.0
  0
LINE
  5
    F9
  8
0
  6
CONTINUOUS
 62
     3
 10
5.42884683609009
 20
193.16569519043
 30
0.0
 11
3.76315402984619
 21
191.5
 31
0.0
  0
LINE
  5
    FA
  8
0
  6
CONTINUOUS
 62
     3
 10
13.0499925613403
 20
199.726181030273
 30
0.0
 11
12.8238124847412
 21
199.5
 31
0.0
  0
LINE
  5
    FB
  8
0
  6
CONTINUOUS
 62
     3
 10
1.05000126361847
 20
187.726181030273
 30
0.0
 11
0.049999475479126
 21
186.726181030273
 31
0.0
  0
LINE
  5
    FC
  8
0
  6
CONTINUOUS
 62
     3
 10
1.05000138282776
 20
186.66552734375
 30
0.0
 11
4.99996468424797E-2
 21
185.66552734375
 31
0.0
  0
LINE
  5
    FD
  8
0
  6
CONTINUOUS
 62
     3
 10
1.05000150203705
 20
185.604873657227
 30
0.0
 11
4.99998182058334E-2
 21
184.604873657227
 31
0.0
  0
LINE
  5
    FE
  8
0
  6
CONTINUOUS
 62
     3
 10
1.05000162124634
 20
184.544219970703
 30
0.0
 11
4.99999895691872E-2
 21
183.544219970703
 31
0.0
  0
LINE
  5
    FF
  8
0
  6
CONTINUOUS
 62
     3
 10
1.06645560264587
 20
183.5
 30
0.0
 11
5.00001572072506E-2
 21
182.483535766602
 31
0.0
  0
LINE
  5
   100
  8
0
  6
CONTINUOUS
 62
     3
 10
2.04999995231628
 20
183.422882080078
 30
0.0
 11
0.050000324845314
 21
181.422882080078
 31
0.0
  0
LINE
  5
   101
  8
0
  6
CONTINUOUS
 62
     3
 10
2.36888837814331
 20
182.681106567383
 30
0.0
 11
5.00004962086678E-2
 21
180.362228393555
 31
0.0
  0
LINE
  5
   102
  8
0
  6
CONTINUOUS
 62
     3
 10
4.30909824371338
 20
182.5
 30
0.0
 11
2.63195157051086
 21
180.822860717773
 31
0.0
  0
LINE
  5
   103
  8
0
  6
CONTINUOUS
 62
     3
 10
5.36975908279419
 20
182.5
 30
0.0
 11
3.68893575668335
 21
180.819183349609
 31
0.0
  0
LINE
  5
   104
  8
0
  6
CONTINUOUS
 62
     3
 10
6.430419921875
 20
182.5
 30
0.0
 11
4.74591970443726
 21
180.815505981445
 31
0.0
  0
LINE
  5
   105
  8
0
  6
CONTINUOUS
 62
     3
 10
7.49108123779297
 20
182.5
 30
0.0
 11
5.80290365219116
 21
180.811828613281
 31
0.0
  0
LINE
  5
   106
  8
0
  6
CONTINUOUS
 62
     3
 10
8.55174255371094
 20
182.5
 30
0.0
 11
6.85988759994507
 21
180.808151245117
 31
0.0
  0
LINE
  5
   107
  8
0
  6
CONTINUOUS
 62
     3
 10
9.61240386962891
 20
182.5
 30
0.0
 11
7.91687154769897
 21
180.804473876953
 31
0.0
  0
LINE
  5
   108
  8
0
  6
CONTINUOUS
 62
     3
 10
10.6730651855469
 20
182.5
 30
0.0
 11
8.97385597229004
 21
180.800796508789
 31
0.0
  0
LINE
  5
   109
  8
0
  6
CONTINUOUS
 62
     3
 10
11.5500001907349
 20
182.316284179688
 30
0.0
 11
10.0308399200439
 21
180.797119140625
 31
0.0
  0
LINE
  5
   10A
  8
0
  6
CONTINUOUS
 62
     3
 10
11.5500001907349
 20
181.255630493164
 30
0.0
 11
11.0878238677979
 21
180.793441772461
 31
0.0
  0
LINE
  5
   10B
  8
0
  6
CONTINUOUS
 62
     3
 10
10.8550405502319
 20
179.5
 30
0.0
 11
8.85503959655762
 21
177.5
 31
0.0
  0
LINE
  5
   10C
  8
0
  6
CONTINUOUS
 62
     3
 10
11.5500001907349
 20
178.073638916016
 30
0.0
 11
10.9763612747192
 21
177.5
 31
0.0
  0
ENDBLK
  5
   10D
  8
0
  6
CONTINUOUS
 62
     2
  0
BLOCK
  5
   10E
  8
0
  6
CONTINUOUS
 62
     7
  2
*HATCH178
 70
    65
 10
0.0
 20
0.0
 30
0.0
  3
*HATCH178
  0
LINE
  5
   10F
  8
0
  6
CONTINUOUS
 62
     3
 10
2.19918513298035
 20
-56.9999961853027
 30
0.0
 11
3.69918298721313
 21
-58.4999961853027
 31
0.0
  0
LINE
  5
   110
  8
0
  6
CONTINUOUS
 62
     3
 10
4.32050514221191
 20
-56.9999961853027
 30
0.0
 11
5.82050275802612
 21
-58.4999961853027
 31
0.0
  0
LINE
  5
   111
  8
0
  6
CONTINUOUS
 62
     3
 10
6.4418249130249
 20
-56.9999961853027
 30
0.0
 11
7.94182252883911
 21
-58.4999961853027
 31
0.0
  0
LINE
  5
   112
  8
0
  6
CONTINUOUS
 62
     3
 10
8.56314468383789
 20
-56.9999961853027
 30
0.0
 11
10.0631427764893
 21
-58.4999961853027
 31
0.0
  0
LINE
  5
   113
  8
0
  6
CONTINUOUS
 62
     3
 10
10.6844635009766
 20
-57.0
 30
0.0
 11
11.8672294616699
 21
-58.1827659606934
 31
0.0
  0
ENDBLK
  5
   114
  8
0
  6
CONTINUOUS
 62
     7
  0
BLOCK
  5
   115
  8
0
  6
CONTINUOUS
 62
     7
  2
*HATCH179
 70
    65
 10
0.0
 20
0.0
 30
0.0
  3
*HATCH179
  0
LINE
  5
   116
  8
0
  6
CONTINUOUS
 62
     3
 10
2.33690619468689
 20
-49.7130928039551
 30
0.0
 11
3.62381052970886
 21
-51.0
 31
0.0
  0
LINE
  5
   117
  8
0
  6
CONTINUOUS
 62
     3
 10
4.24513149261475
 20
-49.5
 30
0.0
 11
5.74513006210327
 21
-51.0
 31
0.0
  0
LINE
  5
   118
  8
0
  6
CONTINUOUS
 62
     3
 10
6.36645030975342
 20
-49.5
 30
0.0
 11
7.86644983291626
 21
-51.0
 31
0.0
  0
LINE
  5
   119
  8
0
  6
CONTINUOUS
 62
     3
 10
8.48776912689209
 20
-49.5
 30
0.0
 11
9.98777008056641
 21
-51.0
 31
0.0
  0
LINE
  5
   11A
  8
0
  6
CONTINUOUS
 62
     3
 10
10.6090898513794
 20
-49.5
 30
0.0
 11
12.0500011444092
 21
-50.9409141540527
 31
0.0
  0
ENDBLK
  5
   11B
  8
0
  6
CONTINUOUS
 62
     7
  0
BLOCK
  5
   11C
  8
0
  6
CONTINUOUS
 62
     7
  2
*HATCH180
 70
    65
 10
0.0
 20
0.0
 30
0.0
  3
*HATCH180
  0
LINE
  5
   11D
  8
0
  6
CONTINUOUS
 62
     3
 10
2.33690619468689
 20
-49.7130928039551
 30
0.0
 11
3.62381052970886
 21
-51.0
 31
0.0
  0
LINE
  5
   11E
  8
0
  6
CONTINUOUS
 62
     3
 10
4.24513149261475
 20
-49.5
 30
0.0
 11
5.74513006210327
 21
-51.0
 31
0.0
  0
LINE
  5
   11F
  8
0
  6
CONTINUOUS
 62
     3
 10
6.36645030975342
 20
-49.5
 30
0.0
 11
7.86644983291626
 21
-51.0
 31
0.0
  0
LINE
  5
   120
  8
0
  6
CONTINUOUS
 62
     3
 10
8.48776912689209
 20
-49.5
 30
0.0
 11
9.98777008056641
 21
-51.0
 31
0.0
  0
LINE
  5
   121
  8
0
  6
CONTINUOUS
 62
     3
 10
10.6090898513794
 20
-49.5
 30
0.0
 11
12.0500011444092
 21
-50.9409141540527
 31
0.0
  0
ENDBLK
  5
   122
  8
0
  6
CONTINUOUS
 62
     7
  0
BLOCK
  5
   123
  8
0
  6
CONTINUOUS
 62
     7
  2
*HATCH181
 70
    65
 10
0.0
 20
0.0
 30
0.0
  3
*HATCH181
  0
LINE
  5
   124
  8
0
  6
CONTINUOUS
 62
     3
 10
2.16904735565186
 20
-44.5
 30
0.0
 11
0.050000611692667
 21
-46.6190452575684
 31
0.0
  0
LINE
  5
   125
  8
0
  6
CONTINUOUS
 62
     3
 10
4.290367603302
 20
-44.5
 30
0.0
 11
2.29036784172058
 21
-46.5
 31
0.0
  0
LINE
  5
   126
  8
0
  6
CONTINUOUS
 62
     3
 10
5.3510274887085
 20
-44.5
 30
0.0
 11
3.35102772712708
 21
-46.5
 31
0.0
  0
LINE
  5
   127
  8
0
  6
CONTINUOUS
 62
     3
 10
6.41168737411499
 20
-44.5
 30
0.0
 11
4.41168785095215
 21
-46.5
 31
0.0
  0
LINE
  5
   128
  8
0
  6
CONTINUOUS
 62
     3
 10
7.47234725952148
 20
-44.5
 30
0.0
 11
5.47234773635864
 21
-46.5
 31
0.0
  0
LINE
  5
   129
  8
0
  6
CONTINUOUS
 62
     3
 10
1.05000174045563
 20
-50.9223442077637
 30
0.0
 11
4.99997660517693E-2
 21
-51.9223480224609
 31
0.0
  0
LINE
  5
   12A
  8
0
  6
CONTINUOUS
 62
     3
 10
5.21915149688721
 20
-47.8138542175293
 30
0.0
 11
3.53300762176514
 21
-49.5
 31
0.0
  0
LINE
  5
   12B
  8
0
  6
CONTINUOUS
 62
     3
 10
9.59366607666016
 20
-44.5
 30
0.0
 11
7.59366750717163
 21
-46.5
 31
0.0
  0
LINE
  5
   12C
  8
0
  6
CONTINUOUS
 62
     3
 10
1.05000150203705
 20
-53.0436668395996
 30
0.0
 11
4.99994233250618E-2
 21
-54.0436668395996
 31
0.0
  0
LINE
  5
   12D
  8
0
  6
CONTINUOUS
 62
     3
 10
7.34787559509277
 20
-47.806453704834
 30
0.0
 11
5.65432643890381
 21
-49.5
 31
0.0
  0
LINE
  5
   12E
  8
0
  6
CONTINUOUS
 62
     3
 10
11.5500001907349
 20
-44.6649894714356
 30
0.0
 11
9.71498680114746
 21
-46.5
 31
0.0
  0
LINE
  5
   12F
  8
0
  6
CONTINUOUS
 62
     3
 10
1.05000126361847
 20
-55.1649856567383
 30
0.0
 11
4.99990843236446E-2
 21
-56.1649894714355
 31
0.0
  0
LINE
  5
   130
  8
0
  6
CONTINUOUS
 62
     3
 10
9.47660064697266
 20
-47.7990493774414
 30
0.0
 11
7.77564525604248
 21
-49.5
 31
0.0
  0
LINE
  5
   131
  8
0
  6
CONTINUOUS
 62
     3
 10
10.5409622192383
 20
-47.7953453063965
 30
0.0
 11
8.83630466461182
 21
-49.5000038146973
 31
0.0
  0
LINE
  5
   132
  8
0
  6
CONTINUOUS
 62
     3
 10
11.5500011444092
 20
-47.8469657897949
 30
0.0
 11
9.89696407318115
 21
-49.5000038146973
 31
0.0
  0
LINE
  5
   133
  8
0
  6
CONTINUOUS
 62
     3
 10
11.5500001907349
 20
-48.9076271057129
 30
0.0
 11
10.9576234817505
 21
-49.5000038146973
 31
0.0
  0
LINE
  5
   134
  8
0
  6
CONTINUOUS
 62
     3
 10
3.01829099655151
 20
-58.4999961853027
 30
0.0
 11
4.99982349574566E-2
 21
-61.4682884216309
 31
0.0
  0
LINE
  5
   135
  8
0
  6
CONTINUOUS
 62
     3
 10
2.05000019073486
 20
-60.5289459228516
 30
0.0
 11
4.99980673193932E-2
 21
-62.5289497375488
 31
0.0
  0
LINE
  5
   136
  8
0
  6
CONTINUOUS
 62
     3
 10
2.05000042915344
 20
-61.5896072387695
 30
0.0
 11
4.99978959560394E-2
 21
-63.5896110534668
 31
0.0
  0
LINE
  5
   137
  8
0
  6
CONTINUOUS
 62
     3
 10
2.05000066757202
 20
-62.6502685546875
 30
0.0
 11
4.99977245926857E-2
 21
-64.6502685546875
 31
0.0
  0
LINE
  5
   138
  8
0
  6
CONTINUOUS
 62
     3
 10
2.0500009059906
 20
-63.7109298706055
 30
0.0
 11
0.049997553229332
 21
-65.7109298706055
 31
0.0
  0
LINE
  5
   139
  8
0
  6
CONTINUOUS
 62
     3
 10
2.05000114440918
 20
-64.7715911865234
 30
0.0
 11
4.99973818659782E-2
 21
-66.7715911865234
 31
0.0
  0
LINE
  5
   13A
  8
0
  6
CONTINUOUS
 62
     3
 10
2.38226532936096
 20
-65.4999847412109
 30
0.0
 11
0.382251262664795
 21
-67.5
 31
0.0
  0
LINE
  5
   13B
  8
0
  6
CONTINUOUS
 62
     3
 10
3.44292521476746
 20
-65.4999847412109
 30
0.0
 11
1.44291341304779
 21
-67.5
 31
0.0
  0
LINE
  5
   13C
  8
0
  6
CONTINUOUS
 62
     3
 10
4.50358486175537
 20
-65.4999847412109
 30
0.0
 11
2.50357556343079
 21
-67.5
 31
0.0
  0
LINE
  5
   13D
  8
0
  6
CONTINUOUS
 62
     3
 10
5.56424522399902
 20
-65.4999847412109
 30
0.0
 11
3.56423783302307
 21
-67.4999923706055
 31
0.0
  0
LINE
  5
   13E
  8
0
  6
CONTINUOUS
 62
     3
 10
7.68556499481201
 20
-65.4999847412109
 30
0.0
 11
5.68556213378906
 21
-67.4999923706055
 31
0.0
  0
LINE
  5
   13F
  8
0
  6
CONTINUOUS
 62
     3
 10
9.806884765625
 20
-65.4999847412109
 30
0.0
 11
7.80688667297363
 21
-67.4999923706055
 31
0.0
  0
LINE
  5
   140
  8
0
  6
CONTINUOUS
 62
     3
 10
11.5499963760376
 20
-65.8781967163086
 30
0.0
 11
9.9282112121582
 21
-67.4999771118164
 31
0.0
  0
LINE
  5
   141
  8
0
  6
CONTINUOUS
 62
     3
 10
13.0495147705078
 20
-66.4999923706055
 30
0.0
 11
12.0495357513428
 21
-67.4999771118164
 31
0.0
  0
ENDBLK
  5
   142
  8
0
  6
CONTINUOUS
 62
     7
  0
BLOCK
  5
   143
  8
0
  6
CONTINUOUS
 62
     7
  2
*HATCH182
 70
    65
 10
0.0
 20
0.0
 30
0.0
  3
*HATCH182
  0
LINE
  5
   144
  8
0
  6
CONTINUOUS
 62
   210
 10
15.2756481170654
 20
-42.0
 30
0.0
 11
11.4999847412109
 21
-45.7756614685059
 31
0.0
  0
LINE
  5
   145
  8
0
  6
CONTINUOUS
 62
   210
 10
17.4999847412109
 20
-44.0183029174805
 30
0.0
 11
11.7841444015503
 21
-49.7341461181641
 31
0.0
  0
LINE
  5
   146
  8
0
  6
CONTINUOUS
 62
   210
 10
17.4999847412109
 20
-48.2609443664551
 30
0.0
 11
15.0109281539917
 21
-50.75
 31
0.0
  0
ENDBLK
  5
   147
  8
0
  6
CONTINUOUS
 62
     7
  0
BLOCK
  5
   148
  8
0
  6
CONTINUOUS
 62
     7
  2
*HATCH183
 70
    65
 10
0.0
 20
0.0
 30
0.0
  3
*HATCH183
  0
LINE
  5
   149
  8
0
  6
CONTINUOUS
 62
   210
 10
14.8748893737793
 20
-57.25
 30
0.0
 11
11.5360698699951
 21
-60.5888214111328
 31
0.0
  0
LINE
  5
   14A
  8
0
  6
CONTINUOUS
 62
   210
 10
17.4999847412109
 20
-58.867546081543
 30
0.0
 11
11.5075874328613
 21
-64.8599395751953
 31
0.0
  0
LINE
  5
   14B
  8
0
  6
CONTINUOUS
 62
   210
 10
17.4999847412109
 20
-63.1101837158203
 30
0.0
 11
14.6101713180542
 21
-66.0
 31
0.0
  0
ENDBLK
  5
   14C
  8
0
  6
CONTINUOUS
 62
     7
  0
BLOCK
  5
   14D
  8
0
  6
CONTINUOUS
 62
     7
  2
*HATCH184
 70
    65
 10
0.0
 20
0.0
 30
0.0
  3
*HATCH184
  0
LINE
  5
   14E
  8
0
  6
CONTINUOUS
 62
   210
 10
17.4999847412109
 20
-47.1985092163086
 30
0.0
 11
20.4999847412109
 21
-50.1985130310059
 31
0.0
  0
LINE
  5
   14F
  8
0
  6
CONTINUOUS
 62
   210
 10
17.4999847412109
 20
-42.9558639526367
 30
0.0
 11
20.4999847412109
 21
-45.955867767334
 31
0.0
  0
ENDBLK
  5
   150
  8
0
  6
CONTINUOUS
 62
     7
  0
BLOCK
  5
   151
  8
0
  6
CONTINUOUS
 62
     7
  2
*HATCH185
 70
    65
 10
0.0
 20
0.0
 30
0.0
  3
*HATCH185
  0
LINE
  5
   152
  8
0
  6
CONTINUOUS
 62
   210
 10
17.4999847412109
 20
-62.0477600097656
 30
0.0
 11
20.4999847412109
 21
-65.0477676391602
 31
0.0
  0
LINE
  5
   153
  8
0
  6
CONTINUOUS
 62
   210
 10
17.4999847412109
 20
-57.8051147460938
 30
0.0
 11
20.4999847412109
 21
-60.8051223754883
 31
0.0
  0
ENDBLK
  5
   154
  8
0
  6
CONTINUOUS
 62
     7
  0
BLOCK
  5
   155
  8
0
  6
CONTINUOUS
 62
     7
  2
*HATCH186
 70
    65
 10
0.0
 20
0.0
 30
0.0
  3
*HATCH186
  0
LINE
  5
   156
  8
0
  6
CONTINUOUS
 62
    52
 10
105.836601257324
 20
228.873168945313
 30
0.0
 11
104.499938964844
 21
227.536499023438
 31
0.0
  0
LINE
  5
   157
  8
0
  6
CONTINUOUS
 62
    52
 10
106.499938964844
 20
225.293869018555
 30
0.0
 11
104.499938964844
 21
223.293869018555
 31
0.0
  0
LINE
  5
   158
  8
0
  6
CONTINUOUS
 62
    52
 10
106.499938964844
 20
221.051223754883
 30
0.0
 11
104.499938964844
 21
219.051223754883
 31
0.0
  0
LINE
  5
   159
  8
0
  6
CONTINUOUS
 62
    52
 10
106.499938964844
 20
216.808578491211
 30
0.0
 11
104.499938964844
 21
214.808578491211
 31
0.0
  0
LINE
  5
   15A
  8
0
  6
CONTINUOUS
 62
    52
 10
106.499938964844
 20
212.565933227539
 30
0.0
 11
104.499938964844
 21
210.565933227539
 31
0.0
  0
LINE
  5
   15B
  8
0
  6
CONTINUOUS
 62
    52
 10
106.499938964844
 20
208.323287963867
 30
0.0
 11
104.499938964844
 21
206.323287963867
 31
0.0
  0
LINE
  5
   15C
  8
0
  6
CONTINUOUS
 62
    52
 10
106.499938964844
 20
204.080642700195
 30
0.0
 11
104.499938964844
 21
202.080642700195
 31
0.0
  0
LINE
  5
   15D
  8
0
  6
CONTINUOUS
 62
    52
 10
106.499938964844
 20
199.837997436523
 30
0.0
 11
104.499938964844
 21
197.837997436523
 31
0.0
  0
LINE
  5
   15E
  8
0
  6
CONTINUOUS
 62
    52
 10
106.499938964844
 20
195.595352172852
 30
0.0
 11
104.499938964844
 21
193.595352172852
 31
0.0
  0
LINE
  5
   15F
  8
0
  6
CONTINUOUS
 62
    52
 10
106.499938964844
 20
191.35270690918
 30
0.0
 11
104.499938964844
 21
189.35270690918
 31
0.0
  0
LINE
  5
   160
  8
0
  6
CONTINUOUS
 62
    52
 10
106.499938964844
 20
187.110061645508
 30
0.0
 11
104.499938964844
 21
185.110061645508
 31
0.0
  0
LINE
  5
   161
  8
0
  6
CONTINUOUS
 62
    52
 10
106.499938964844
 20
182.867416381836
 30
0.0
 11
104.499938964844
 21
180.867416381836
 31
0.0
  0
LINE
  5
   162
  8
0
  6
CONTINUOUS
 62
    52
 10
106.499938964844
 20
178.624771118164
 30
0.0
 11
104.499938964844
 21
176.624771118164
 31
0.0
  0
LINE
  5
   163
  8
0
  6
CONTINUOUS
 62
    52
 10
106.499938964844
 20
174.382125854492
 30
0.0
 11
104.499938964844
 21
172.382125854492
 31
0.0
  0
LINE
  5
   164
  8
0
  6
CONTINUOUS
 62
    52
 10
106.499938964844
 20
170.13948059082
 30
0.0
 11
104.499938964844
 21
168.13948059082
 31
0.0
  0
LINE
  5
   165
  8
0
  6
CONTINUOUS
 62
    52
 10
106.499938964844
 20
165.896835327148
 30
0.0
 11
104.499938964844
 21
163.896835327148
 31
0.0
  0
LINE
  5
   166
  8
0
  6
CONTINUOUS
 62
    52
 10
106.499938964844
 20
161.654190063477
 30
0.0
 11
104.499938964844
 21
159.654190063477
 31
0.0
  0
LINE
  5
   167
  8
0
  6
CONTINUOUS
 62
    52
 10
106.499938964844
 20
157.411544799805
 30
0.0
 11
104.499938964844
 21
155.411544799805
 31
0.0
  0
LINE
  5
   168
  8
0
  6
CONTINUOUS
 62
    52
 10
106.499938964844
 20
153.168899536133
 30
0.0
 11
104.499938964844
 21
151.168899536133
 31
0.0
  0
ENDBLK
  5
   169
  8
0
  6
CONTINUOUS
 62
     7
  0
BLOCK
  5
   16A
  8
0
  6
CONTINUOUS
 62
     7
  2
*HATCH187
 70
    65
 10
0.0
 20
0.0
 30
0.0
  3
*HATCH187
  0
LINE
  5
   16B
  8
0
  6
CONTINUOUS
 62
    52
 10
106.499938964844
 20
142.562377929688
 30
0.0
 11
104.499938964844
 21
140.562377929688
 31
0.0
  0
LINE
  5
   16C
  8
0
  6
CONTINUOUS
 62
    52
 10
106.499938964844
 20
138.319732666016
 30
0.0
 11
104.499938964844
 21
136.319732666016
 31
0.0
  0
LINE
  5
   16D
  8
0
  6
CONTINUOUS
 62
    52
 10
106.499938964844
 20
134.077087402344
 30
0.0
 11
104.499938964844
 21
132.077087402344
 31
0.0
  0
ENDBLK
  5
   16E
  8
0
  6
CONTINUOUS
 62
     7
  0
BLOCK
  5
   16F
  8
0
  6
CONTINUOUS
 62
     7
  2
*HATCH188
 70
    65
 10
0.0
 20
0.0
 30
0.0
  3
*HATCH188
  0
LINE
  5
   170
  8
0
  6
CONTINUOUS
 62
    52
 10
106.499938964844
 20
17.4044799804688
 30
0.0
 11
104.499938964844
 21
15.4044799804688
 31
0.0
  0
LINE
  5
   171
  8
0
  6
CONTINUOUS
 62
    52
 10
106.499938964844
 20
13.1618385314941
 30
0.0
 11
104.499938964844
 21
11.1618385314941
 31
0.0
  0
LINE
  5
   172
  8
0
  6
CONTINUOUS
 62
    52
 10
106.499938964844
 20
8.91919898986816
 30
0.0
 11
105.330741882324
 21
7.75
 31
0.0
  0
ENDBLK
  5
   173
  8
0
  6
CONTINUOUS
 62
     7
  0
BLOCK
  5
   174
  8
0
  6
CONTINUOUS
 62
     7
  2
*HATCH189
 70
    65
 10
0.0
 20
0.0
 30
0.0
  3
*HATCH189
  0
LINE
  5
   175
  8
0
  6
CONTINUOUS
 62
    52
 10
106.499938964844
 20
0.433917760848999
 30
0.0
 11
104.499938964844
 21
-1.56608211994171
 31
0.0
  0
LINE
  5
   176
  8
0
  6
CONTINUOUS
 62
    52
 10
106.499938964844
 20
-3.80872273445129
 30
0.0
 11
104.499938964844
 21
-5.80872249603271
 31
0.0
  0
LINE
  5
   177
  8
0
  6
CONTINUOUS
 62
    52
 10
106.499938964844
 20
-8.05136299133301
 30
0.0
 11
104.499938964844
 21
-10.051362991333
 31
0.0
  0
LINE
  5
   178
  8
0
  6
CONTINUOUS
 62
    52
 10
106.499938964844
 20
-12.2940044403076
 30
0.0
 11
104.499938964844
 21
-14.2940044403076
 31
0.0
  0
LINE
  5
   179
  8
0
  6
CONTINUOUS
 62
    52
 10
106.499938964844
 20
-16.5366458892822
 30
0.0
 11
104.499938964844
 21
-18.5366458892822
 31
0.0
  0
LINE
  5
   17A
  8
0
  6
CONTINUOUS
 62
    52
 10
106.499938964844
 20
-20.7792873382568
 30
0.0
 11
104.499938964844
 21
-22.7792873382568
 31
0.0
  0
LINE
  5
   17B
  8
0
  6
CONTINUOUS
 62
    52
 10
106.499938964844
 20
-25.0219287872314
 30
0.0
 11
104.499938964844
 21
-27.0219287872314
 31
0.0
  0
LINE
  5
   17C
  8
0
  6
CONTINUOUS
 62
    52
 10
106.499938964844
 20
-29.2645702362061
 30
0.0
 11
104.499938964844
 21
-31.2645702362061
 31
0.0
  0
LINE
  5
   17D
  8
0
  6
CONTINUOUS
 62
    52
 10
106.499938964844
 20
-33.507209777832
 30
0.0
 11
104.499938964844
 21
-35.507209777832
 31
0.0
  0
LINE
  5
   17E
  8
0
  6
CONTINUOUS
 62
    52
 10
106.499938964844
 20
-37.7498474121094
 30
0.0
 11
104.499938964844
 21
-39.7498474121094
 31
0.0
  0
LINE
  5
   17F
  8
0
  6
CONTINUOUS
 62
    52
 10
106.499938964844
 20
-41.9924850463867
 30
0.0
 11
104.499938964844
 21
-43.9924850463867
 31
0.0
  0
LINE
  5
   180
  8
0
  6
CONTINUOUS
 62
    52
 10
106.499938964844
 20
-46.2351226806641
 30
0.0
 11
104.499938964844
 21
-48.2351226806641
 31
0.0
  0
LINE
  5
   181
  8
0
  6
CONTINUOUS
 62
    52
 10
106.499938964844
 20
-50.4777603149414
 30
0.0
 11
104.499938964844
 21
-52.4777603149414
 31
0.0
  0
LINE
  5
   182
  8
0
  6
CONTINUOUS
 62
    52
 10
106.499938964844
 20
-54.7203979492188
 30
0.0
 11
104.499938964844
 21
-56.7203979492188
 31
0.0
  0
LINE
  5
   183
  8
0
  6
CONTINUOUS
 62
    52
 10
106.499938964844
 20
-58.9630355834961
 30
0.0
 11
104.499938964844
 21
-60.9630355834961
 31
0.0
  0
LINE
  5
   184
  8
0
  6
CONTINUOUS
 62
    52
 10
106.499938964844
 20
-63.2056732177734
 30
0.0
 11
104.499938964844
 21
-65.2056732177734
 31
0.0
  0
LINE
  5
   185
  8
0
  6
CONTINUOUS
 62
    52
 10
106.499938964844
 20
-67.4483184814453
 30
0.0
 11
104.499938964844
 21
-69.4483184814453
 31
0.0
  0
LINE
  5
   186
  8
0
  6
CONTINUOUS
 62
    52
 10
106.499938964844
 20
-71.6909637451172
 30
0.0
 11
104.499938964844
 21
-73.6909637451172
 31
0.0
  0
LINE
  5
   187
  8
0
  6
CONTINUOUS
 62
    52
 10
106.499938964844
 20
-75.9336090087891
 30
0.0
 11
104.499938964844
 21
-77.9336090087891
 31
0.0
  0
LINE
  5
   188
  8
0
  6
CONTINUOUS
 62
    52
 10
106.499938964844
 20
-80.1762542724609
 30
0.0
 11
104.499938964844
 21
-82.1762542724609
 31
0.0
  0
LINE
  5
   189
  8
0
  6
CONTINUOUS
 62
    52
 10
106.499938964844
 20
-84.4188995361328
 30
0.0
 11
104.499938964844
 21
-86.4188995361328
 31
0.0
  0
LINE
  5
   18A
  8
0
  6
CONTINUOUS
 62
    52
 10
106.499938964844
 20
-88.6615447998047
 30
0.0
 11
104.499938964844
 21
-90.6615447998047
 31
0.0
  0
LINE
  5
   18B
  8
0
  6
CONTINUOUS
 62
    52
 10
106.499938964844
 20
-92.9041900634766
 30
0.0
 11
104.499938964844
 21
-94.9041900634766
 31
0.0
  0
LINE
  5
   18C
  8
0
  6
CONTINUOUS
 62
    52
 10
106.499938964844
 20
-97.1468353271484
 30
0.0
 11
104.499938964844
 21
-99.1468353271484
 31
0.0
  0
LINE
  5
   18D
  8
0
  6
CONTINUOUS
 62
    52
 10
106.499938964844
 20
-101.389457702637
 30
0.0
 11
106.065864562988
 21
-101.823524475098
 31
0.0
  0
ENDBLK
  5
   18E
  8
0
  6
CONTINUOUS
 62
     7
  0
BLOCK
  5
   18F
  8
0
  6
CONTINUOUS
 62
     7
  2
*HATCH190
 70
    65
 10
0.0
 20
0.0
 30
0.0
  3
*HATCH190
  0
LINE
  5
   190
  8
0
  6
CONTINUOUS
 62
     3
 10
-0.830074667930603
 20
-35.831859588623
 30
0.0
 11
-2.49821591377258
 21
-37.5
 31
0.0
  0
LINE
  5
   191
  8
0
  6
CONTINUOUS
 62
     3
 10
1.29124581813812
 20
-35.831859588623
 30
0.0
 11
-0.376895427703857
 21
-37.5
 31
0.0
  0
LINE
  5
   192
  8
0
  6
CONTINUOUS
 62
     3
 10
3.41256618499756
 20
-35.831859588623
 30
0.0
 11
1.74442505836487
 21
-37.5
 31
0.0
  0
LINE
  5
   193
  8
0
  6
CONTINUOUS
 62
     3
 10
5.53388690948486
 20
-35.831859588623
 30
0.0
 11
3.86574554443359
 21
-37.5
 31
0.0
  0
LINE
  5
   194
  8
0
  6
CONTINUOUS
 62
     3
 10
7.65520763397217
 20
-35.831859588623
 30
0.0
 11
5.9870662689209
 21
-37.5
 31
0.0
  0
LINE
  5
   195
  8
0
  6
CONTINUOUS
 62
     3
 10
9.77652835845947
 20
-35.831859588623
 30
0.0
 11
8.1083869934082
 21
-37.5
 31
0.0
  0
LINE
  5
   196
  8
0
  6
CONTINUOUS
 62
     3
 10
11.8978490829468
 20
-35.831859588623
 30
0.0
 11
10.2297077178955
 21
-37.5
 31
0.0
  0
LINE
  5
   197
  8
0
  6
CONTINUOUS
 62
     3
 10
14.0191679000854
 20
-35.831859588623
 30
0.0
 11
11.4999847412109
 21
-38.3510437011719
 31
0.0
  0
LINE
  5
   198
  8
0
  6
CONTINUOUS
 62
     3
 10
16.1404876708984
 20
-35.831859588623
 30
0.0
 11
11.4999847412109
 21
-40.4723663330078
 31
0.0
  0
LINE
  5
   199
  8
0
  6
CONTINUOUS
 62
     3
 10
18.2618083953857
 20
-35.831859588623
 30
0.0
 11
12.0936679840088
 21
-42.0
 31
0.0
  0
LINE
  5
   19A
  8
0
  6
CONTINUOUS
 62
     3
 10
20.3831272125244
 20
-35.831859588623
 30
0.0
 11
14.2149887084961
 21
-42.0
 31
0.0
  0
LINE
  5
   19B
  8
0
  6
CONTINUOUS
 62
     3
 10
22.5044460296631
 20
-35.831859588623
 30
0.0
 11
16.3363094329834
 21
-42.0
 31
0.0
  0
LINE
  5
   19C
  8
0
  6
CONTINUOUS
 62
     3
 10
24.6257648468018
 20
-35.831859588623
 30
0.0
 11
18.4576282501221
 21
-42.0
 31
0.0
  0
LINE
  5
   19D
  8
0
  6
CONTINUOUS
 62
     3
 10
26.7470836639404
 20
-35.831859588623
 30
0.0
 11
20.5789470672607
 21
-42.0
 31
0.0
  0
LINE
  5
   19E
  8
0
  6
CONTINUOUS
 62
     3
 10
28.8684024810791
 20
-35.831859588623
 30
0.0
 11
22.7002658843994
 21
-42.0
 31
0.0
  0
LINE
  5
   19F
  8
0
  6
CONTINUOUS
 62
     3
 10
30.9897212982178
 20
-35.831859588623
 30
0.0
 11
24.8215847015381
 21
-42.0
 31
0.0
  0
LINE
  5
   1A0
  8
0
  6
CONTINUOUS
 62
     3
 10
33.1110420227051
 20
-35.831859588623
 30
0.0
 11
26.9429035186768
 21
-42.0
 31
0.0
  0
LINE
  5
   1A1
  8
0
  6
CONTINUOUS
 62
     3
 10
35.232364654541
 20
-35.831859588623
 30
0.0
 11
29.0642223358154
 21
-42.0
 31
0.0
  0
LINE
  5
   1A2
  8
0
  6
CONTINUOUS
 62
     3
 10
36.1029396057129
 20
-37.0826148986816
 30
0.0
 11
31.1855506896973
 21
-42.0
 31
0.0
  0
LINE
  5
   1A3
  8
0
  6
CONTINUOUS
 62
     3
 10
36.5830268859863
 20
-38.7238502502441
 30
0.0
 11
33.3068733215332
 21
-42.0
 31
0.0
  0
LINE
  5
   1A4
  8
0
  6
CONTINUOUS
 62
     3
 10
37.0631141662598
 20
-40.3650856018066
 30
0.0
 11
35.4281959533691
 21
-42.0
 31
0.0
  0
ENDBLK
  5
   1A5
  8
0
  6
CONTINUOUS
 62
     7
  0
BLOCK
  5
   1A6
  8
0
  6
CONTINUOUS
 62
     2
  2
*HATCH191
 70
    65
 10
0.0
 20
0.0
 30
0.0
  3
*HATCH191
  0
LINE
  5
   1A7
  8
0
  6
CONTINUOUS
 62
   210
 10
20.5499858856201
 20
178.854232788086
 30
0.0
 11
23.4042053222656
 21
176.0
 31
0.0
  0
LINE
  5
   1A8
  8
0
  6
CONTINUOUS
 62
   210
 10
20.5499858856201
 20
183.096878051758
 30
0.0
 11
27.646842956543
 21
176.0
 31
0.0
  0
LINE
  5
   1A9
  8
0
  6
CONTINUOUS
 62
   210
 10
24.1394901275635
 20
183.75
 30
0.0
 11
28.5499858856201
 21
179.339508056641
 31
0.0
  0
LINE
  5
   1AA
  8
0
  6
CONTINUOUS
 62
   210
 10
28.3821277618408
 20
183.75
 30
0.0
 11
28.5499858856201
 21
183.582153320313
 31
0.0
  0
ENDBLK
  5
   1AB
  8
0
  6
CONTINUOUS
 62
     2
  0
BLOCK
  5
   1AC
  8
0
  6
CONTINUOUS
 62
     2
  2
*HATCH192
 70
    65
 10
0.0
 20
0.0
 30
0.0
  3
*HATCH192
  0
LINE
  5
   1AD
  8
0
  6
CONTINUOUS
 62
   210
 10
20.5499801635742
 20
193.703475952148
 30
0.0
 11
24.0034561157227
 21
190.25
 31
0.0
  0
LINE
  5
   1AE
  8
0
  6
CONTINUOUS
 62
   210
 10
20.5499725341797
 20
197.94612121582
 30
0.0
 11
28.24609375
 21
190.25
 31
0.0
  0
LINE
  5
   1AF
  8
0
  6
CONTINUOUS
 62
   210
 10
20.9694766998291
 20
201.769271850586
 30
0.0
 11
28.5499858856201
 21
194.188751220703
 31
0.0
  0
LINE
  5
   1B0
  8
0
  6
CONTINUOUS
 62
   210
 10
22.3180809020996
 20
204.663314819336
 30
0.0
 11
28.5499858856201
 21
198.431396484375
 31
0.0
  0
LINE
  5
   1B1
  8
0
  6
CONTINUOUS
 62
   210
 10
24.3255176544189
 20
206.898513793945
 30
0.0
 11
30.003978729248
 21
201.22004699707
 31
0.0
  0
LINE
  5
   1B2
  8
0
  6
CONTINUOUS
 62
   210
 10
26.6324310302734
 20
208.834243774414
 30
0.0
 11
32.3108901977539
 21
203.155776977539
 31
0.0
  0
LINE
  5
   1B3
  8
0
  6
CONTINUOUS
 62
   210
 10
28.9393463134766
 20
210.769973754883
 30
0.0
 11
34.617805480957
 21
205.091506958008
 31
0.0
  0
LINE
  5
   1B4
  8
0
  6
CONTINUOUS
 62
   210
 10
30.9769496917725
 20
212.975006103516
 30
0.0
 11
36.7792892456055
 21
207.172653198242
 31
0.0
  0
LINE
  5
   1B5
  8
0
  6
CONTINUOUS
 62
   210
 10
31.0499858856201
 20
217.144607543945
 30
0.0
 11
38.3244438171387
 21
209.870147705078
 31
0.0
  0
LINE
  5
   1B6
  8
0
  6
CONTINUOUS
 62
   210
 10
31.0499858856201
 20
221.387252807617
 30
0.0
 11
39.0414581298828
 21
213.395767211914
 31
0.0
  0
LINE
  5
   1B7
  8
0
  6
CONTINUOUS
 62
   210
 10
31.0499858856201
 20
225.629898071289
 30
0.0
 11
39.0499877929688
 21
217.6298828125
 31
0.0
  0
LINE
  5
   1B8
  8
0
  6
CONTINUOUS
 62
   210
 10
31.0499858856201
 20
229.872543334961
 30
0.0
 11
39.0499877929688
 21
221.872528076172
 31
0.0
  0
LINE
  5
   1B9
  8
0
  6
CONTINUOUS
 62
   210
 10
34.6651611328125
 20
230.5
 30
0.0
 11
39.0499877929688
 21
226.115173339844
 31
0.0
  0
LINE
  5
   1BA
  8
0
  6
CONTINUOUS
 62
   210
 10
38.9077987670898
 20
230.5
 30
0.0
 11
39.0499877929688
 21
230.357818603516
 31
0.0
  0
ENDBLK
  5
   1BB
  8
0
  6
CONTINUOUS
 62
     2
  0
BLOCK
  5
   1BC
  8
0
  6
CONTINUOUS
 62
     2
  2
*HATCH193
 70
    65
 10
0.0
 20
0.0
 30
0.0
  3
*HATCH193
  0
LINE
  5
   1BD
  8
0
  6
CONTINUOUS
 62
   210
 10
31.0499858856201
 20
240.479156494141
 30
0.0
 11
34.0291290283203
 21
237.5
 31
0.0
  0
LINE
  5
   1BE
  8
0
  6
CONTINUOUS
 62
   210
 10
31.0499858856201
 20
244.721801757813
 30
0.0
 11
38.2717666625977
 21
237.5
 31
0.0
  0
LINE
  5
   1BF
  8
0
  6
CONTINUOUS
 62
   210
 10
31.0499858856201
 20
248.964431762695
 30
0.0
 11
39.0499839782715
 21
240.964431762695
 31
0.0
  0
LINE
  5
   1C0
  8
0
  6
CONTINUOUS
 62
   210
 10
31.0499858856201
 20
253.207077026367
 30
0.0
 11
39.0499839782715
 21
245.207077026367
 31
0.0
  0
LINE
  5
   1C1
  8
0
  6
CONTINUOUS
 62
   210
 10
34.4997024536133
 20
254.0
 30
0.0
 11
39.0499839782715
 21
249.44970703125
 31
0.0
  0
LINE
  5
   1C2
  8
0
  6
CONTINUOUS
 62
   210
 10
38.7423400878906
 20
254.0
 30
0.0
 11
39.0499839782715
 21
253.692352294922
 31
0.0
  0
ENDBLK
  5
   1C3
  8
0
  6
CONTINUOUS
 62
     2
  0
BLOCK
  5
   1C4
  8
0
  6
CONTINUOUS
 62
     2
  2
*HATCH194
 70
    65
 10
0.0
 20
0.0
 30
0.0
  3
*HATCH194
  0
LINE
  5
   1C5
  8
0
  6
CONTINUOUS
 62
   210
 10
22.7609272003174
 20
-43.0000038146973
 30
0.0
 11
20.4999847412109
 21
-45.2609443664551
 31
0.0
  0
LINE
  5
   1C6
  8
0
  6
CONTINUOUS
 62
   210
 10
25.4999847412109
 20
-44.5035858154297
 30
0.0
 11
20.4999847412109
 21
-49.5035858154297
 31
0.0
  0
LINE
  5
   1C7
  8
0
  6
CONTINUOUS
 62
   210
 10
25.4999847412109
 20
-48.746223449707
 30
0.0
 11
23.496208190918
 21
-50.7500038146973
 31
0.0
  0
ENDBLK
  5
   1C8
  8
0
  6
CONTINUOUS
 62
     2
  0
BLOCK
  5
   1C9
  8
0
  6
CONTINUOUS
 62
     2
  2
*HATCH195
 70
    65
 10
0.0
 20
0.0
 30
0.0
  3
*HATCH195
  0
LINE
  5
   1CA
  8
0
  6
CONTINUOUS
 62
   210
 10
23.3601703643799
 20
-57.2500038146973
 30
0.0
 11
20.4999847412109
 21
-60.1101837158203
 31
0.0
  0
LINE
  5
   1CB
  8
0
  6
CONTINUOUS
 62
   210
 10
25.4999847412109
 20
-59.3528289794922
 30
0.0
 11
20.6374073028564
 21
-64.2154083251953
 31
0.0
  0
LINE
  5
   1CC
  8
0
  6
CONTINUOUS
 62
   210
 10
25.5492992401123
 20
-63.5461540222168
 30
0.0
 11
21.865930557251
 21
-67.2295227050781
 31
0.0
  0
LINE
  5
   1CD
  8
0
  6
CONTINUOUS
 62
   210
 10
27.419038772583
 20
-65.9190521240234
 30
0.0
 11
23.8835048675537
 21
-69.45458984375
 31
0.0
  0
LINE
  5
   1CE
  8
0
  6
CONTINUOUS
 62
   210
 10
29.5403575897217
 20
-68.0403747558594
 30
0.0
 11
26.0048274993897
 21
-71.5759124755859
 31
0.0
  0
LINE
  5
   1CF
  8
0
  6
CONTINUOUS
 62
   210
 10
31.6616764068604
 20
-70.1616973876953
 30
0.0
 11
28.1261501312256
 21
-73.6972351074219
 31
0.0
  0
LINE
  5
   1D0
  8
0
  6
CONTINUOUS
 62
   210
 10
33.7829971313477
 20
-72.2830200195313
 30
0.0
 11
30.2474727630615
 21
-75.8185577392578
 31
0.0
  0
LINE
  5
   1D1
  8
0
  6
CONTINUOUS
 62
   210
 10
35.9043197631836
 20
-74.4043426513672
 30
0.0
 11
32.3687934875488
 21
-77.9398803710938
 31
0.0
  0
LINE
  5
   1D2
  8
0
  6
CONTINUOUS
 62
   210
 10
37.8839950561523
 20
-76.6673049926758
 30
0.0
 11
33.9999847412109
 21
-80.5513153076172
 31
0.0
  0
LINE
  5
   1D3
  8
0
  6
CONTINUOUS
 62
   210
 10
38.9295349121094
 20
-79.8644027709961
 30
0.0
 11
33.9999847412109
 21
-84.7939529418945
 31
0.0
  0
LINE
  5
   1D4
  8
0
  6
CONTINUOUS
 62
   210
 10
38.9999847412109
 20
-84.0365982055664
 30
0.0
 11
33.9999847412109
 21
-89.0365982055664
 31
0.0
  0
LINE
  5
   1D5
  8
0
  6
CONTINUOUS
 62
   210
 10
38.9999847412109
 20
-88.2792434692383
 30
0.0
 11
33.9999847412109
 21
-93.2792434692383
 31
0.0
  0
LINE
  5
   1D6
  8
0
  6
CONTINUOUS
 62
   210
 10
38.9999847412109
 20
-92.5218887329102
 30
0.0
 11
33.9999847412109
 21
-97.5218887329102
 31
0.0
  0
LINE
  5
   1D7
  8
0
  6
CONTINUOUS
 62
   210
 10
38.9999847412109
 20
-96.764518737793
 30
0.0
 11
37.5144958496094
 21
-98.25
 31
0.0
  0
ENDBLK
  5
   1D8
  8
0
  6
CONTINUOUS
 62
     2
  0
BLOCK
  5
   1D9
  8
0
  6
CONTINUOUS
 62
     2
  2
*HATCH196
 70
    65
 10
0.0
 20
0.0
 30
0.0
  3
*HATCH196
  0
LINE
  5
   1DA
  8
0
  6
CONTINUOUS
 62
   210
 10
36.257137298584
 20
-103.75
 30
0.0
 11
33.9999847412109
 21
-106.00715637207
 31
0.0
  0
LINE
  5
   1DB
  8
0
  6
CONTINUOUS
 62
   210
 10
38.9999847412109
 20
-105.249794006348
 30
0.0
 11
33.9999847412109
 21
-110.249794006348
 31
0.0
  0
LINE
  5
   1DC
  8
0
  6
CONTINUOUS
 62
   210
 10
38.9999847412109
 20
-109.49243927002
 30
0.0
 11
33.9999847412109
 21
-114.49243927002
 31
0.0
  0
LINE
  5
   1DD
  8
0
  6
CONTINUOUS
 62
   210
 10
38.9999847412109
 20
-113.735076904297
 30
0.0
 11
36.7350578308105
 21
-116.0
 31
0.0
  0
ENDBLK
  5
   1DE
  8
0
  6
CONTINUOUS
 62
     2
  0
BLOCK
  5
   1DF
  8
0
  6
CONTINUOUS
 62
     2
  2
*UDIM210
 70
    65
 10
0.0
 20
0.0
 30
0.0
  3
*UDIM210
  0
TEXT
  5
   1E0
  8
0
  6
CONTINUOUS
 62
     2
 10
94.6539565592995
 20
-25.773754119873
 30
0.0
 40
3.00000002980232
  1
115
 41
0.933333333333333
 72
     1
 11
98.5539565980425
 21
-24.2737541049719
 31
0.0
 73
     2
  0
LINE
  5
   1E1
  8
0
  6
CONTINUOUS
 62
     2
 10
70.078971862793
 20
-26.773754119873
 30
0.0
 11
127.578941345213
 21
-26.773754119873
 31
0.0
  0
LINE
  5
   1E2
  8
0
  6
CONTINUOUS
 62
     2
 10
73.0333951399999
 20
-26.2528096899214
 30
0.0
 11
70.078971862793
 21
-26.773754119873
 31
0.0
  0
LINE
  5
   1E3
  8
0
  6
CONTINUOUS
 62
     2
 10
70.078971862793
 20
-26.773754119873
 30
0.0
 11
73.0333951399999
 21
-27.2946985498247
 31
0.0
  0
LINE
  5
   1E4
  8
0
  6
CONTINUOUS
 62
     2
 10
124.624518068006
 20
-27.2946985498247
 30
0.0
 11
127.578941345213
 21
-26.773754119873
 31
0.0
  0
LINE
  5
   1E5
  8
0
  6
CONTINUOUS
 62
     2
 10
127.578941345213
 20
-26.773754119873
 30
0.0
 11
124.624518068006
 21
-26.2528096899214
 31
0.0
  0
ENDBLK
  5
   1E6
  8
0
  6
CONTINUOUS
 62
     2
  0
BLOCK
  5
   1E7
  8
0
  6
CONTINUOUS
 62
     2
  2
*UDIM211
 70
    65
 10
0.0
 20
0.0
 30
0.0
  3
*UDIM211
  0
TEXT
  5
   1E8
  8
0
  6
CONTINUOUS
 62
     2
 10
143.392158508307
 20
-119.475196233634
 30
0.0
 40
3.00000002980232
  1
16,5
 50
90.0
 41
0.933333333333333
 72
     1
 11
141.8921584934
 21
-114.175196180985
 31
0.0
 73
     2
  0
LINE
  5
   1E9
  8
0
  6
CONTINUOUS
 62
     2
 10
90.1197250222074
 20
-105.400195427883
 30
0.0
 11
146.392158508301
 21
-105.400189198682
 31
0.0
  0
LINE
  5
   1EA
  8
0
  6
CONTINUOUS
 62
     2
 10
78.0789642333984
 20
-97.1501922607422
 30
0.0
 11
146.392158508301
 21
-97.1501922607422
 31
0.0
  0
LINE
  5
   1EB
  8
0
  6
CONTINUOUS
 62
     2
 10
144.392158508301
 20
-119.475196233636
 30
0.0
 11
144.392158508301
 21
-97.1501922607422
 31
0.0
  0
LINE
  5
   1EC
  8
0
  6
CONTINUOUS
 62
     2
 10
144.913102938252
 20
-108.354612697283
 30
0.0
 11
144.392158508301
 21
-105.400189420076
 31
0.0
  0
LINE
  5
   1ED
  8
0
  6
CONTINUOUS
 62
     2
 10
144.392158508301
 20
-105.400189420076
 30
0.0
 11
143.871214078349
 21
-108.354612697283
 31
0.0
  0
LINE
  5
   1EE
  8
0
  6
CONTINUOUS
 62
     2
 10
143.871214078349
 20
-94.1957689835352
 30
0.0
 11
144.392158508301
 21
-97.1501922607422
 31
0.0
  0
LINE
  5
   1EF
  8
0
  6
CONTINUOUS
 62
     2
 10
144.392158508301
 20
-97.1501922607422
 30
0.0
 11
144.913102938252
 21
-94.1957689835352
 31
0.0
  0
ENDBLK
  5
   1F0
  8
0
  6
CONTINUOUS
 62
     2
  0
BLOCK
  5
   1F1
  8
0
  6
CONTINUOUS
 62
     7
  2
*UDIM212
 70
    65
 10
0.0
 20
0.0
 30
0.0
  3
*UDIM212
  0
TEXT
  5
   1F2
  8
0
  6
CONTINUOUS
 62
     7
 10
179.038658142093
 20
-144.925222688765
 30
0.0
 40
3.00000002980232
  1
15
 50
90.0
 41
0.933333333333333
 72
     1
 11
177.538658127189
 21
-142.425222663932
 31
0.0
 73
     2
  0
LINE
  5
   1F3
  8
0
  6
CONTINUOUS
 62
     2
 10
91.8289642333984
 20
-136.400193481498
 30
0.0
 11
182.03865814209
 21
-136.400193481498
 31
0.0
  0
LINE
  5
   1F4
  8
0
  6
CONTINUOUS
 62
     2
 10
93.1326170043083
 20
-128.900193481498
 30
0.0
 11
182.03865814209
 21
-128.900193481498
 31
0.0
  0
LINE
  5
   1F5
  8
0
  6
CONTINUOUS
 62
     2
 10
180.03865814209
 20
-144.925222688767
 30
0.0
 11
180.03865814209
 21
-128.900193481498
 31
0.0
  0
LINE
  5
   1F6
  8
0
  6
CONTINUOUS
 62
     2
 10
179.517713712138
 20
-133.445770204291
 30
0.0
 11
180.03865814209
 21
-136.400193481498
 31
0.0
  0
LINE
  5
   1F7
  8
0
  6
CONTINUOUS
 62
     2
 10
180.03865814209
 20
-136.400193481498
 30
0.0
 11
180.559602572042
 21
-133.445770204291
 31
0.0
  0
LINE
  5
   1F8
  8
0
  6
CONTINUOUS
 62
     2
 10
180.559602572042
 20
-131.854616758705
 30
0.0
 11
180.03865814209
 21
-128.900193481498
 31
0.0
  0
LINE
  5
   1F9
  8
0
  6
CONTINUOUS
 62
     2
 10
180.03865814209
 20
-128.900193481498
 30
0.0
 11
179.517713712138
 21
-131.854616758705
 31
0.0
  0
ENDBLK
  5
   1FA
  8
0
  6
CONTINUOUS
 62
     7
  0
BLOCK
  5
   1FB
  8
0
  6
CONTINUOUS
 62
     7
  2
*UDIM213
 70
    65
 10
0.0
 20
0.0
 30
0.0
  3
*UDIM213
  0
TEXT
  5
   1FC
  8
0
  6
CONTINUOUS
 62
     7
 10
179.038658142093
 20
-119.925222803822
 30
0.0
 40
3.00000002980232
  1
47
 50
90.0
 41
0.933333333333333
 72
     1
 11
177.538658127189
 21
-117.425222778988
 31
0.0
 73
     2
  0
LINE
  5
   1FD
  8
0
  6
CONTINUOUS
 62
     2
 10
90.1197250222074
 20
-105.400195471284
 30
0.0
 11
182.03865814209
 21
-105.400189285483
 31
0.0
  0
LINE
  5
   1FE
  8
0
  6
CONTINUOUS
 62
     2
 10
180.03865814209
 20
-128.900193481498
 30
0.0
 11
180.03865814209
 21
-105.400189420076
 31
0.0
  0
LINE
  5
   1FF
  8
0
  6
CONTINUOUS
 62
     2
 10
179.517713712138
 20
-125.945770204291
 30
0.0
 11
180.03865814209
 21
-128.900193481498
 31
0.0
  0
LINE
  5
   200
  8
0
  6
CONTINUOUS
 62
     2
 10
180.03865814209
 20
-128.900193481498
 30
0.0
 11
180.559602572042
 21
-125.945770204291
 31
0.0
  0
LINE
  5
   201
  8
0
  6
CONTINUOUS
 62
     2
 10
180.559602572042
 20
-108.354612697283
 30
0.0
 11
180.03865814209
 21
-105.400189420076
 31
0.0
  0
LINE
  5
   202
  8
0
  6
CONTINUOUS
 62
     2
 10
180.03865814209
 20
-105.400189420076
 30
0.0
 11
179.517713712138
 21
-108.354612697283
 31
0.0
  0
ENDBLK
  5
   203
  8
0
  6
CONTINUOUS
 62
     7
  0
BLOCK
  5
   204
  8
0
  6
CONTINUOUS
 62
     7
  2
*UDIM214
 70
    65
 10
0.0
 20
0.0
 30
0.0
  3
*UDIM214
  0
TEXT
  5
   205
  8
0
  6
CONTINUOUS
 62
     7
 10
179.038658142095
 20
-55.1705634851021
 30
0.0
 40
3.00000002980232
  1
241
 50
90.0
 41
0.933333333333333
 72
     1
 11
177.538658127189
 21
-51.270563446361
 31
0.0
 73
     2
  0
LINE
  5
   206
  8
0
  6
CONTINUOUS
 62
     2
 10
90.1197250222074
 20
15.0998109532331
 30
0.0
 11
182.03865814209
 21
15.0998050830391
 31
0.0
  0
LINE
  5
   207
  8
0
  6
CONTINUOUS
 62
     2
 10
180.03865814209
 20
-105.400189420076
 30
0.0
 11
180.03865814209
 21
15.0998052107646
 31
0.0
  0
LINE
  5
   208
  8
0
  6
CONTINUOUS
 62
     2
 10
179.517713712138
 20
-102.445766142869
 30
0.0
 11
180.03865814209
 21
-105.400189420076
 31
0.0
  0
LINE
  5
   209
  8
0
  6
CONTINUOUS
 62
     2
 10
180.03865814209
 20
-105.400189420076
 30
0.0
 11
180.559602572042
 21
-102.445766142869
 31
0.0
  0
LINE
  5
   20A
  8
0
  6
CONTINUOUS
 62
     2
 10
180.559602572042
 20
12.1453819335576
 30
0.0
 11
180.03865814209
 21
15.0998052107646
 31
0.0
  0
LINE
  5
   20B
  8
0
  6
CONTINUOUS
 62
     2
 10
180.03865814209
 20
15.0998052107646
 30
0.0
 11
179.517713712138
 21
12.1453819335576
 31
0.0
  0
ENDBLK
  5
   20C
  8
0
  6
CONTINUOUS
 62
     7
  0
BLOCK
  5
   20D
  8
0
  6
CONTINUOUS
 62
     7
  2
*UDIM215
 70
    65
 10
0.0
 20
0.0
 30
0.0
  3
*UDIM215
  0
TEXT
  5
   20E
  8
0
  6
CONTINUOUS
 62
     7
 10
179.038658142093
 20
24.0747619372891
 30
0.0
 40
3.00000002980232
  1
47
 50
90.0
 41
0.933333333333333
 72
     1
 11
177.538658127189
 21
26.5747619621224
 31
0.0
 73
     2
  0
LINE
  5
   20F
  8
0
  6
CONTINUOUS
 62
     2
 10
93.6277225344108
 20
38.5998089668334
 30
0.0
 11
182.03865814209
 21
38.5998089668334
 31
0.0
  0
LINE
  5
   210
  8
0
  6
CONTINUOUS
 62
     2
 10
180.03865814209
 20
15.0998052107646
 30
0.0
 11
180.03865814209
 21
38.5998089668334
 31
0.0
  0
LINE
  5
   211
  8
0
  6
CONTINUOUS
 62
     2
 10
179.517713712138
 20
18.0542284879715
 30
0.0
 11
180.03865814209
 21
15.0998052107646
 31
0.0
  0
LINE
  5
   212
  8
0
  6
CONTINUOUS
 62
     2
 10
180.03865814209
 20
15.0998052107646
 30
0.0
 11
180.559602572042
 21
18.0542284879715
 31
0.0
  0
LINE
  5
   213
  8
0
  6
CONTINUOUS
 62
     2
 10
180.559602572042
 20
35.6453856896265
 30
0.0
 11
180.03865814209
 21
38.5998089668334
 31
0.0
  0
LINE
  5
   214
  8
0
  6
CONTINUOUS
 62
     2
 10
180.03865814209
 20
38.5998089668334
 30
0.0
 11
179.517713712138
 21
35.6453856896265
 31
0.0
  0
ENDBLK
  5
   215
  8
0
  6
CONTINUOUS
 62
     7
  0
BLOCK
  5
   216
  8
0
  6
CONTINUOUS
 62
     7
  2
*UDIM216
 70
    65
 10
0.0
 20
0.0
 30
0.0
  3
*UDIM216
  0
TEXT
  5
   217
  8
0
  6
CONTINUOUS
 62
     7
 10
179.038658142093
 20
51.574776898543
 30
0.0
 40
3.00000002980232
  1
20
 50
90.0
 41
0.933333333333333
 72
     1
 11
177.538658127189
 21
54.0747769233764
 31
0.0
 73
     2
  0
LINE
  5
   218
  8
0
  6
CONTINUOUS
 62
     2
 10
91.8539647102356
 20
48.5998089668334
 30
0.0
 11
182.03865814209
 21
48.5998089668334
 31
0.0
  0
LINE
  5
   219
  8
0
  6
CONTINUOUS
 62
     2
 10
180.03865814209
 20
38.5998089668334
 30
0.0
 11
180.03865814209
 21
56.5747769482117
 31
0.0
  0
LINE
  5
   21A
  8
0
  6
CONTINUOUS
 62
     2
 10
179.517713712138
 20
41.5542322440404
 30
0.0
 11
180.03865814209
 21
38.5998089668334
 31
0.0
  0
LINE
  5
   21B
  8
0
  6
CONTINUOUS
 62
     2
 10
180.03865814209
 20
38.5998089668334
 30
0.0
 11
180.559602572042
 21
41.5542322440404
 31
0.0
  0
LINE
  5
   21C
  8
0
  6
CONTINUOUS
 62
     2
 10
180.559602572042
 20
45.6453856896265
 30
0.0
 11
180.03865814209
 21
48.5998089668334
 31
0.0
  0
LINE
  5
   21D
  8
0
  6
CONTINUOUS
 62
     2
 10
180.03865814209
 20
48.5998089668334
 30
0.0
 11
179.517713712138
 21
45.6453856896265
 31
0.0
  0
ENDBLK
  5
   21E
  8
0
  6
CONTINUOUS
 62
     7
  0
BLOCK
  5
   21F
  8
0
  6
CONTINUOUS
 62
     2
  2
*UDIM217
 70
    65
 10
0.0
 20
0.0
 30
0.0
  3
*UDIM217
  0
TEXT
  5
   220
  8
0
  6
CONTINUOUS
 62
     2
 10
168.510643005381
 20
-21.2127075887029
 30
0.0
 40
3.00000002980232
  1
111,75
 50
90.0
 41
0.933333333333333
 72
     1
 11
167.01064299047
 21
-13.1127075082385
 31
0.0
 73
     2
  0
LINE
  5
   221
  8
0
  6
CONTINUOUS
 62
     2
 10
90.1197250222074
 20
15.0998109448696
 30
0.0
 11
171.510643005371
 21
15.0998050663122
 31
0.0
  0
LINE
  5
   222
  8
0
  6
CONTINUOUS
 62
     2
 10
169.510643005371
 20
-40.7752151489258
 30
0.0
 11
169.510643005371
 21
15.0998052107646
 31
0.0
  0
LINE
  5
   223
  8
0
  6
CONTINUOUS
 62
     2
 10
168.989698575419
 20
-37.8207918717188
 30
0.0
 11
169.510643005371
 21
-40.7752151489258
 31
0.0
  0
LINE
  5
   224
  8
0
  6
CONTINUOUS
 62
     2
 10
169.510643005371
 20
-40.7752151489258
 30
0.0
 11
170.031587435323
 21
-37.8207918717188
 31
0.0
  0
LINE
  5
   225
  8
0
  6
CONTINUOUS
 62
     2
 10
170.031587435323
 20
12.1453819335576
 30
0.0
 11
169.510643005371
 21
15.0998052107646
 31
0.0
  0
LINE
  5
   226
  8
0
  6
CONTINUOUS
 62
     2
 10
169.510643005371
 20
15.0998052107646
 30
0.0
 11
168.989698575419
 21
12.1453819335576
 31
0.0
  0
ENDBLK
  5
   227
  8
0
  6
CONTINUOUS
 62
     2
  0
BLOCK
  5
   228
  8
0
  6
CONTINUOUS
 62
     2
  2
*UDIM218
 70
    65
 10
0.0
 20
0.0
 30
0.0
  3
*UDIM218
  0
TEXT
  5
   229
  8
0
  6
CONTINUOUS
 62
     2
 10
74.8789641747872
 20
-146.887275695801
 30
0.0
 40
3.00000002980232
  1
41,5
 41
0.933333333333333
 72
     1
 11
80.178964227438
 21
-145.3872756809
 31
0.0
 73
     2
  0
LINE
  5
   22A
  8
0
  6
CONTINUOUS
 62
     2
 10
70.0789642333984
 20
-118.535198722933
 30
0.0
 11
70.0789642333984
 21
-149.887275695801
 31
0.0
  0
LINE
  5
   22B
  8
0
  6
CONTINUOUS
 62
     2
 10
90.8289642333984
 20
-137.400193481498
 30
0.0
 11
90.8289642333984
 21
-149.887275695801
 31
0.0
  0
LINE
  5
   22C
  8
0
  6
CONTINUOUS
 62
     2
 10
70.0789642333984
 20
-147.887275695801
 30
0.0
 11
90.8289642333984
 21
-147.887275695801
 31
0.0
  0
LINE
  5
   22D
  8
0
  6
CONTINUOUS
 62
     2
 10
73.0333875106054
 20
-147.366331265849
 30
0.0
 11
70.0789642333984
 21
-147.887275695801
 31
0.0
  0
LINE
  5
   22E
  8
0
  6
CONTINUOUS
 62
     2
 10
70.0789642333984
 20
-147.887275695801
 30
0.0
 11
73.0333875106054
 21
-148.408220125752
 31
0.0
  0
LINE
  5
   22F
  8
0
  6
CONTINUOUS
 62
     2
 10
87.8745409561915
 20
-148.408220125752
 30
0.0
 11
90.8289642333984
 21
-147.887275695801
 31
0.0
  0
LINE
  5
   230
  8
0
  6
CONTINUOUS
 62
     2
 10
90.8289642333984
 20
-147.887275695801
 30
0.0
 11
87.8745409561915
 21
-147.366331265849
 31
0.0
  0
ENDBLK
  5
   231
  8
0
  6
CONTINUOUS
 62
     2
  0
BLOCK
  5
   232
  8
0
  6
CONTINUOUS
 62
     2
  2
*UDIM219
 70
    65
 10
0.0
 20
0.0
 30
0.0
  3
*UDIM219
  0
TEXT
  5
   233
  8
0
  6
CONTINUOUS
 62
     2
 10
81.569619072477
 20
-140.097686767578
 30
0.0
 40
3.00000002980232
  1
5
 41
0.933333333333334
 72
     1
 11
82.6696190834045
 21
-138.597686752677
 31
0.0
 73
     2
  0
LINE
  5
   234
  8
0
  6
CONTINUOUS
 62
     2
 10
88.3289642333984
 20
-137.400193481498
 30
0.0
 11
88.3289642333984
 21
-143.097686767578
 31
0.0
  0
LINE
  5
   235
  8
0
  6
CONTINUOUS
 62
     2
 10
90.8289642333984
 20
-137.400193481498
 30
0.0
 11
90.8289642333984
 21
-143.097686767578
 31
0.0
  0
LINE
  5
   236
  8
0
  6
CONTINUOUS
 62
     2
 10
81.569619072477
 20
-141.097686767578
 30
0.0
 11
90.8289642333984
 21
-141.097686767578
 31
0.0
  0
LINE
  5
   237
  8
0
  6
CONTINUOUS
 62
     2
 10
85.3745409561915
 20
-141.61863119753
 30
0.0
 11
88.3289642333984
 21
-141.097686767578
 31
0.0
  0
LINE
  5
   238
  8
0
  6
CONTINUOUS
 62
     2
 10
88.3289642333984
 20
-141.097686767578
 30
0.0
 11
85.3745409561915
 21
-140.576742337626
 31
0.0
  0
LINE
  5
   239
  8
0
  6
CONTINUOUS
 62
     2
 10
93.7833875106054
 20
-140.576742337626
 30
0.0
 11
90.8289642333984
 21
-141.097686767578
 31
0.0
  0
LINE
  5
   23A
  8
0
  6
CONTINUOUS
 62
     2
 10
90.8289642333984
 20
-141.097686767578
 30
0.0
 11
93.7833875106054
 21
-141.61863119753
 31
0.0
  0
ENDBLK
  5
   23B
  8
0
  6
CONTINUOUS
 62
     2
  0
BLOCK
  5
   23C
  8
0
  6
CONTINUOUS
 62
     2
  2
*UDIM220
 70
    65
 10
0.0
 20
0.0
 30
0.0
  3
*UDIM220
  0
TEXT
  5
   23D
  8
0
  6
CONTINUOUS
 62
     2
 10
81.1039646039406
 20
44.656120300293
 30
0.0
 40
3.00000002980232
  1
8
 41
0.933333333333334
 72
     1
 11
82.2039646148681
 21
46.1561203151941
 31
0.0
 73
     2
  0
LINE
  5
   23E
  8
0
  6
CONTINUOUS
 62
     2
 10
81.1039646039406
 20
43.656120300293
 30
0.0
 11
90.8539647102356
 21
43.656120300293
 31
0.0
  0
LINE
  5
   23F
  8
0
  6
CONTINUOUS
 62
     2
 10
83.8995414330286
 20
43.1351758703413
 30
0.0
 11
86.8539647102356
 21
43.656120300293
 31
0.0
  0
LINE
  5
   240
  8
0
  6
CONTINUOUS
 62
     2
 10
86.8539647102356
 20
43.656120300293
 30
0.0
 11
83.8995414330286
 21
44.1770647302446
 31
0.0
  0
LINE
  5
   241
  8
0
  6
CONTINUOUS
 62
     2
 10
93.8083879874426
 20
44.1770647302446
 30
0.0
 11
90.8539647102356
 21
43.656120300293
 31
0.0
  0
LINE
  5
   242
  8
0
  6
CONTINUOUS
 62
     2
 10
90.8539647102356
 20
43.656120300293
 30
0.0
 11
93.8083879874426
 21
43.1351758703413
 31
0.0
  0
ENDBLK
  5
   243
  8
0
  6
CONTINUOUS
 62
     2
  0
BLOCK
  5
   244
  8
0
  6
CONTINUOUS
 62
     2
  2
*UDIM221
 70
    65
 10
0.0
 20
0.0
 30
0.0
  3
*UDIM221
  0
TEXT
  5
   245
  8
0
  6
CONTINUOUS
 62
     2
 10
74.9662930975358
 20
54.56884765625
 30
0.0
 40
3.00000002980232
  1
41,5
 41
0.933333333333333
 72
     1
 11
80.2662931501865
 21
56.0688476711512
 31
0.0
 73
     2
  0
LINE
  5
   246
  8
0
  6
CONTINUOUS
 62
     2
 10
70.078971862793
 20
33.2249646243025
 30
0.0
 11
70.078971862793
 21
55.56884765625
 31
0.0
  0
LINE
  5
   247
  8
0
  6
CONTINUOUS
 62
     2
 10
90.8539647102356
 20
49.5998089668334
 30
0.0
 11
90.8539647102356
 21
55.56884765625
 31
0.0
  0
LINE
  5
   248
  8
0
  6
CONTINUOUS
 62
     2
 10
70.078971862793
 20
53.56884765625
 30
0.0
 11
90.8539647102356
 21
53.56884765625
 31
0.0
  0
LINE
  5
   249
  8
0
  6
CONTINUOUS
 62
     2
 10
73.0333951399999
 20
54.0897920862017
 30
0.0
 11
70.078971862793
 21
53.56884765625
 31
0.0
  0
LINE
  5
   24A
  8
0
  6
CONTINUOUS
 62
     2
 10
70.078971862793
 20
53.56884765625
 30
0.0
 11
73.0333951399999
 21
53.0479032262983
 31
0.0
  0
LINE
  5
   24B
  8
0
  6
CONTINUOUS
 62
     2
 10
87.8995414330286
 20
53.0479032262983
 30
0.0
 11
90.8539647102356
 21
53.56884765625
 31
0.0
  0
LINE
  5
   24C
  8
0
  6
CONTINUOUS
 62
     2
 10
90.8539647102356
 20
53.56884765625
 30
0.0
 11
87.8995414330286
 21
54.0897920862017
 31
0.0
  0
ENDBLK
  5
   24D
  8
0
  6
CONTINUOUS
 62
     2
  0
BLOCK
  5
   24E
  8
0
  6
CONTINUOUS
 62
     7
  2
*UDIM222
 70
    65
 10
0.0
 20
0.0
 30
0.0
  3
*UDIM222
  0
TEXT
  5
   24F
  8
0
  6
CONTINUOUS
 62
     7
 10
92.6539527446022
 20
-161.36856842041
 30
0.0
 40
3.00000002980232
  1
107
 41
0.933333333333333
 72
     1
 11
96.5539527833453
 21
-159.868568405509
 31
0.0
 73
     2
  0
LINE
  5
   250
  8
0
  6
CONTINUOUS
 62
     7
 10
70.0789642333984
 20
-118.535198722933
 30
0.0
 11
70.0789642333984
 21
-164.36856842041
 31
0.0
  0
LINE
  5
   251
  8
0
  6
CONTINUOUS
 62
     7
 10
123.578941345213
 20
-130.539561241326
 30
0.0
 11
123.578941345213
 21
-164.36856842041
 31
0.0
  0
LINE
  5
   252
  8
0
  6
CONTINUOUS
 62
     7
 10
70.0789642333984
 20
-162.36856842041
 30
0.0
 11
123.578941345213
 21
-162.36856842041
 31
0.0
  0
LINE
  5
   253
  8
0
  6
CONTINUOUS
 62
     7
 10
73.0333875106054
 20
-161.847623990458
 30
0.0
 11
70.0789642333984
 21
-162.36856842041
 31
0.0
  0
LINE
  5
   254
  8
0
  6
CONTINUOUS
 62
     7
 10
70.0789642333984
 20
-162.36856842041
 30
0.0
 11
73.0333875106054
 21
-162.889512850362
 31
0.0
  0
LINE
  5
   255
  8
0
  6
CONTINUOUS
 62
     7
 10
120.624518068006
 20
-162.889512850362
 30
0.0
 11
123.578941345213
 21
-162.36856842041
 31
0.0
  0
LINE
  5
   256
  8
0
  6
CONTINUOUS
 62
     7
 10
123.578941345213
 20
-162.36856842041
 30
0.0
 11
120.624518068006
 21
-161.847623990458
 31
0.0
  0
ENDBLK
  5
   257
  8
0
  6
CONTINUOUS
 62
     7
  0
BLOCK
  5
   258
  8
0
  6
CONTINUOUS
 62
     7
  2
*UDIM223
 70
    65
 10
0.0
 20
0.0
 30
0.0
  3
*UDIM223
  0
TEXT
  5
   259
  8
0
  6
CONTINUOUS
 62
     7
 10
127.578941238918
 20
-161.36856842041
 30
0.0
 40
3.00000002980232
  1
2
 41
0.933333333333334
 72
     1
 11
128.678941249846
 21
-159.868568405509
 31
0.0
 73
     2
  0
LINE
  5
   25A
  8
0
  6
CONTINUOUS
 62
     7
 10
124.578941345213
 20
-130.248863566907
 30
0.0
 11
124.578941345213
 21
-164.36856842041
 31
0.0
  0
LINE
  5
   25B
  8
0
  6
CONTINUOUS
 62
     7
 10
123.578941345213
 20
-162.36856842041
 30
0.0
 11
129.778941260773
 21
-162.36856842041
 31
0.0
  0
LINE
  5
   25C
  8
0
  6
CONTINUOUS
 62
     7
 10
120.624518068006
 20
-162.889512850362
 30
0.0
 11
123.578941345213
 21
-162.36856842041
 31
0.0
  0
LINE
  5
   25D
  8
0
  6
CONTINUOUS
 62
     7
 10
123.578941345213
 20
-162.36856842041
 30
0.0
 11
120.624518068006
 21
-161.847623990458
 31
0.0
  0
LINE
  5
   25E
  8
0
  6
CONTINUOUS
 62
     7
 10
127.53336462242
 20
-161.847623990458
 30
0.0
 11
124.578941345213
 21
-162.36856842041
 31
0.0
  0
LINE
  5
   25F
  8
0
  6
CONTINUOUS
 62
     7
 10
124.578941345213
 20
-162.36856842041
 30
0.0
 11
127.53336462242
 21
-162.889512850362
 31
0.0
  0
ENDBLK
  5
   260
  8
0
  6
CONTINUOUS
 62
     7
  0
BLOCK
  5
   261
  8
0
  6
CONTINUOUS
 62
     7
  2
*UDIM224
 70
    65
 10
0.0
 20
0.0
 30
0.0
  3
*UDIM224
  0
TEXT
  5
   262
  8
0
  6
CONTINUOUS
 62
     7
 10
133.264659881595
 20
-113.925207204792
 30
0.0
 40
3.00000002980232
  1
12
 50
90.0
 41
0.933333333333333
 72
     1
 11
131.764659866691
 21
-111.425207179959
 31
0.0
 73
     2
  0
LINE
  5
   263
  8
0
  6
CONTINUOUS
 62
     7
 10
90.1197250222073
 20
-105.400195872927
 30
0.0
 11
136.264659881592
 21
-105.400211301322
 31
0.0
  0
LINE
  5
   264
  8
0
  6
CONTINUOUS
 62
     7
 10
91.0996515157135
 20
-99.4001926672072
 30
0.0
 11
136.264659881592
 21
-99.4002110252046
 31
0.0
  0
LINE
  5
   265
  8
0
  6
CONTINUOUS
 62
     7
 10
134.264659881592
 20
-113.925207204794
 30
0.0
 11
134.264659881592
 21
-99.4002102122745
 31
0.0
  0
LINE
  5
   266
  8
0
  6
CONTINUOUS
 62
     7
 10
134.785604311543
 20
-108.354633909836
 30
0.0
 11
134.264659881592
 21
-105.400210632629
 31
0.0
  0
LINE
  5
   267
  8
0
  6
CONTINUOUS
 62
     7
 10
134.264659881592
 20
-105.400210632629
 30
0.0
 11
133.74371545164
 21
-108.354633909836
 31
0.0
  0
LINE
  5
   268
  8
0
  6
CONTINUOUS
 62
     7
 10
133.74371545164
 20
-96.4457869350675
 30
0.0
 11
134.264659881592
 21
-99.4002102122745
 31
0.0
  0
LINE
  5
   269
  8
0
  6
CONTINUOUS
 62
     7
 10
134.264659881592
 20
-99.4002102122745
 30
0.0
 11
134.785604311543
 21
-96.4457869350675
 31
0.0
  0
ENDBLK
  5
   26A
  8
0
  6
CONTINUOUS
 62
     7
  0
BLOCK
  5
   26B
  8
0
  6
CONTINUOUS
 62
     7
  2
*UDIM225
 70
    65
 10
0.0
 20
0.0
 30
0.0
  3
*UDIM225
  0
TEXT
  5
   26C
  8
0
  6
CONTINUOUS
 62
     7
 10
88.4789527167867
 20
62.2605438232422
 30
0.0
 40
3.00000002980232
  1
101,5
 41
0.933333333333333
 72
     1
 11
95.1789527833453
 21
63.7605438381433
 31
0.0
 73
     2
  0
LINE
  5
   26D
  8
0
  6
CONTINUOUS
 62
     7
 10
70.078971862793
 20
33.2249646243025
 30
0.0
 11
70.078971862793
 21
63.2605438232422
 31
0.0
  0
LINE
  5
   26E
  8
0
  6
CONTINUOUS
 62
     7
 10
120.828941345213
 20
10.5997848510742
 30
0.0
 11
120.828941345213
 21
63.2605438232422
 31
0.0
  0
LINE
  5
   26F
  8
0
  6
CONTINUOUS
 62
     7
 10
70.078971862793
 20
61.2605438232422
 30
0.0
 11
120.828941345213
 21
61.2605438232422
 31
0.0
  0
LINE
  5
   270
  8
0
  6
CONTINUOUS
 62
     7
 10
73.0333951399999
 20
61.7814882531939
 30
0.0
 11
70.078971862793
 21
61.2605438232422
 31
0.0
  0
LINE
  5
   271
  8
0
  6
CONTINUOUS
 62
     7
 10
70.078971862793
 20
61.2605438232422
 30
0.0
 11
73.0333951399999
 21
60.7395993932905
 31
0.0
  0
LINE
  5
   272
  8
0
  6
CONTINUOUS
 62
     7
 10
117.874518068006
 20
60.7395993932905
 30
0.0
 11
120.828941345213
 21
61.2605438232422
 31
0.0
  0
LINE
  5
   273
  8
0
  6
CONTINUOUS
 62
     7
 10
120.828941345213
 20
61.2605438232422
 30
0.0
 11
117.874518068006
 21
61.7814882531939
 31
0.0
  0
ENDBLK
  5
   274
  8
0
  6
CONTINUOUS
 62
     7
  0
BLOCK
  5
   275
  8
0
  6
CONTINUOUS
 62
     7
  2
*UDIM226
 70
    65
 10
0.0
 20
0.0
 30
0.0
  3
*UDIM226
  0
TEXT
  5
   276
  8
0
  6
CONTINUOUS
 62
     7
 10
142.22881317139
 20
9.36944730249902
 30
0.0
 40
3.00000002980232
  1
12
 50
90.0
 41
0.933333333333333
 72
     1
 11
140.728813156486
 21
11.8694473273324
 31
0.0
 73
     2
  0
LINE
  5
   277
  8
0
  6
CONTINUOUS
 62
     7
 10
100.313817631456
 20
9.09980742534133
 30
0.0
 11
145.228813171387
 21
9.09979332578432
 31
0.0
  0
LINE
  5
   278
  8
0
  6
CONTINUOUS
 62
     7
 10
90.1197250222073
 20
15.0998104723879
 30
0.0
 11
145.228813171386
 21
15.0997804540313
 31
0.0
  0
LINE
  5
   279
  8
0
  6
CONTINUOUS
 62
     7
 10
143.228813171387
 20
9.09979395361727
 30
0.0
 11
143.228813171387
 21
15.0997815434472
 31
0.0
  0
LINE
  5
   27A
  8
0
  6
CONTINUOUS
 62
     7
 10
143.749757601338
 20
6.14537067641029
 30
0.0
 11
143.228813171387
 21
9.09979395361727
 31
0.0
  0
LINE
  5
   27B
  8
0
  6
CONTINUOUS
 62
     7
 10
143.228813171387
 20
9.09979395361727
 30
0.0
 11
142.707868741435
 21
6.14537067641029
 31
0.0
  0
LINE
  5
   27C
  8
0
  6
CONTINUOUS
 62
     7
 10
142.707868741435
 20
18.0542048206541
 30
0.0
 11
143.228813171387
 21
15.0997815434472
 31
0.0
  0
LINE
  5
   27D
  8
0
  6
CONTINUOUS
 62
     7
 10
143.228813171387
 20
15.0997815434472
 30
0.0
 11
143.749757601338
 21
18.0542048206541
 31
0.0
  0
ENDBLK
  5
   27E
  8
0
  6
CONTINUOUS
 62
     7
  0
BLOCK
  5
   27F
  8
0
  6
CONTINUOUS
 62
     7
  2
*UDIM227
 70
    65
 10
0.0
 20
0.0
 30
0.0
  3
*UDIM227
  0
TEXT
  5
   280
  8
0
  6
CONTINUOUS
 62
     7
 10
62.8289641271035
 20
-154.151664733887
 30
0.0
 40
3.00000002980232
  1
3
 41
0.933333333333334
 72
     1
 11
63.928964138031
 21
-152.651664718986
 31
0.0
 73
     2
  0
TEXT
  5
   281
  8
0
  6
CONTINUOUS
 62
     7
 10
60.0789640933275
 20
-154.151664733887
 30
0.0
 40
3.00000002980232
  1
_
 41
0.933333333333334
 72
     1
 11
61.1789641042551
 21
-152.651664718986
 31
0.0
 73
     2
  0
LINE
  5
   282
  8
0
  6
CONTINUOUS
 62
     7
 10
68.5789642333984
 20
-119.120199361008
 30
0.0
 11
68.5789642333984
 21
-157.151664733887
 31
0.0
  0
LINE
  5
   283
  8
0
  6
CONTINUOUS
 62
     7
 10
70.0789642333984
 20
-118.535198722933
 30
0.0
 11
70.0789642333984
 21
-157.151664733887
 31
0.0
  0
LINE
  5
   284
  8
0
  6
CONTINUOUS
 62
     7
 10
60.0789640933275
 20
-155.151664733887
 30
0.0
 11
70.0789642333984
 21
-155.151664733887
 31
0.0
  0
LINE
  5
   285
  8
0
  6
CONTINUOUS
 62
     7
 10
65.6245409561915
 20
-155.672609163838
 30
0.0
 11
68.5789642333984
 21
-155.151664733887
 31
0.0
  0
LINE
  5
   286
  8
0
  6
CONTINUOUS
 62
     7
 10
68.5789642333984
 20
-155.151664733887
 30
0.0
 11
65.6245409561915
 21
-154.630720303935
 31
0.0
  0
LINE
  5
   287
  8
0
  6
CONTINUOUS
 62
     7
 10
73.0333875106054
 20
-154.630720303935
 30
0.0
 11
70.0789642333984
 21
-155.151664733887
 31
0.0
  0
LINE
  5
   288
  8
0
  6
CONTINUOUS
 62
     7
 10
70.0789642333984
 20
-155.151664733887
 30
0.0
 11
73.0333875106054
 21
-155.672609163838
 31
0.0
  0
ENDBLK
  5
   289
  8
0
  6
CONTINUOUS
 62
     7
  0
BLOCK
  5
   28A
  8
0
  6
CONTINUOUS
 62
     7
  2
*UDIM228
 70
    65
 10
0.0
 20
0.0
 30
0.0
  3
*UDIM228
  0
TEXT
  5
   28B
  8
0
  6
CONTINUOUS
 62
     7
 10
88.9789489020895
 20
-154.151664733887
 30
0.0
 40
3.00000002980232
  1
103,5
 41
0.933333333333333
 72
     1
 11
95.678948968648
 21
-152.651664718986
 31
0.0
 73
     2
  0
LINE
  5
   28C
  8
0
  6
CONTINUOUS
 62
     7
 10
121.828941345213
 20
-68.0252075195313
 30
0.0
 11
121.828941345213
 21
-157.151664733887
 31
0.0
  0
LINE
  5
   28D
  8
0
  6
CONTINUOUS
 62
     7
 10
70.0789642333984
 20
-155.151664733887
 30
0.0
 11
121.828941345213
 21
-155.151664733887
 31
0.0
  0
LINE
  5
   28E
  8
0
  6
CONTINUOUS
 62
     7
 10
73.0333875106054
 20
-154.630720303935
 30
0.0
 11
70.0789642333984
 21
-155.151664733887
 31
0.0
  0
LINE
  5
   28F
  8
0
  6
CONTINUOUS
 62
     7
 10
70.0789642333984
 20
-155.151664733887
 30
0.0
 11
73.0333875106054
 21
-155.672609163838
 31
0.0
  0
LINE
  5
   290
  8
0
  6
CONTINUOUS
 62
     7
 10
118.874518068006
 20
-155.672609163838
 30
0.0
 11
121.828941345213
 21
-155.151664733887
 31
0.0
  0
LINE
  5
   291
  8
0
  6
CONTINUOUS
 62
     7
 10
121.828941345213
 20
-155.151664733887
 30
0.0
 11
118.874518068006
 21
-154.630720303935
 31
0.0
  0
ENDBLK
  5
   292
  8
0
  6
CONTINUOUS
 62
     7
  0
BLOCK
  5
   293
  8
0
  6
CONTINUOUS
 62
     7
  2
*UDIM229
 70
    65
 10
0.0
 20
0.0
 30
0.0
  3
*UDIM229
  0
TEXT
  5
   294
  8
0
  6
CONTINUOUS
 62
     7
 10
105.653353848421
 20
-168.632949829102
 30
0.0
 40
3.00000002980232
  1
159
 41
0.933333333333333
 72
     1
 11
109.553353887164
 21
-167.1329498142
 31
0.0
 73
     2
  0
LINE
  5
   295
  8
0
  6
CONTINUOUS
 62
     7
 10
70.0789642333984
 20
-118.535198722933
 30
0.0
 11
70.0789642333984
 21
-171.632949829102
 31
0.0
  0
LINE
  5
   296
  8
0
  6
CONTINUOUS
 62
     7
 10
149.577742301154
 20
-56.1816542385131
 30
0.0
 11
149.577742301154
 21
-171.632949829102
 31
0.0
  0
LINE
  5
   297
  8
0
  6
CONTINUOUS
 62
     7
 10
70.0789642333984
 20
-169.632949829102
 30
0.0
 11
149.577742301154
 21
-169.632949829102
 31
0.0
  0
LINE
  5
   298
  8
0
  6
CONTINUOUS
 62
     7
 10
73.0333875106054
 20
-169.11200539915
 30
0.0
 11
70.0789642333984
 21
-169.632949829102
 31
0.0
  0
LINE
  5
   299
  8
0
  6
CONTINUOUS
 62
     7
 10
70.0789642333984
 20
-169.632949829102
 30
0.0
 11
73.0333875106054
 21
-170.153894259053
 31
0.0
  0
LINE
  5
   29A
  8
0
  6
CONTINUOUS
 62
     7
 10
146.623319023947
 20
-170.153894259053
 30
0.0
 11
149.577742301154
 21
-169.632949829102
 31
0.0
  0
LINE
  5
   29B
  8
0
  6
CONTINUOUS
 62
     7
 10
149.577742301154
 20
-169.632949829102
 30
0.0
 11
146.623319023947
 21
-169.11200539915
 31
0.0
  0
ENDBLK
  5
   29C
  8
0
  6
CONTINUOUS
 62
     7
  0
BLOCK
  5
   29D
  8
0
  6
CONTINUOUS
 62
     7
  2
*UDIM230
 70
    65
 10
0.0
 20
0.0
 30
0.0
  3
*UDIM230
  0
TEXT
  5
   29E
  8
0
  6
CONTINUOUS
 62
     7
 10
158.576484680181
 20
-44.9502113607256
 30
0.0
 40
3.00000002980232
  1
105
 50
90.0
 41
0.933333333333333
 72
     1
 11
157.076484665275
 21
-41.0502113219845
 31
0.0
 73
     2
  0
LINE
  5
   29F
  8
0
  6
CONTINUOUS
 62
     7
 10
124.578941345213
 20
-67.0252078487086
 30
0.0
 11
161.576484680176
 21
-67.0252200274619
 31
0.0
  0
LINE
  5
   2A0
  8
0
  6
CONTINUOUS
 62
     7
 10
124.578941345213
 20
-14.5252154628423
 30
0.0
 11
161.576484680176
 21
-14.5252270769806
 31
0.0
  0
LINE
  5
   2A1
  8
0
  6
CONTINUOUS
 62
     7
 10
159.576484680176
 20
-67.0252193691072
 30
0.0
 11
159.576484680176
 21
-14.5252264491476
 31
0.0
  0
LINE
  5
   2A2
  8
0
  6
CONTINUOUS
 62
     7
 10
159.055540250224
 20
-64.0707960919002
 30
0.0
 11
159.576484680176
 21
-67.0252193691072
 31
0.0
  0
LINE
  5
   2A3
  8
0
  6
CONTINUOUS
 62
     7
 10
159.576484680176
 20
-67.0252193691072
 30
0.0
 11
160.097429110127
 21
-64.0707960919002
 31
0.0
  0
LINE
  5
   2A4
  8
0
  6
CONTINUOUS
 62
     7
 10
160.097429110127
 20
-17.4796497263546
 30
0.0
 11
159.576484680176
 21
-14.5252264491476
 31
0.0
  0
LINE
  5
   2A5
  8
0
  6
CONTINUOUS
 62
     7
 10
159.576484680176
 20
-14.5252264491476
 30
0.0
 11
159.055540250224
 21
-17.4796497263546
 31
0.0
  0
ENDBLK
  5
   2A6
  8
0
  6
CONTINUOUS
 62
     7
  0
BLOCK
  5
   2A7
  8
0
  6
CONTINUOUS
 62
     2
  2
*UDIM231
 70
    65
 10
0.0
 20
0.0
 30
0.0
  3
*UDIM231
  0
TEXT
  5
   2A8
  8
0
  6
CONTINUOUS
 62
     2
 10
-38.0293363754708
 20
-188.964340258568
 30
0.0
 40
2.99999994933605
  1
237
 50
449.999999896069
 41
0.933333333333333
 72
     1
 11
-39.5293363430889
 21
-185.06434032172
 31
0.0
 73
     2
  0
LINE
  5
   2A9
  8
0
  6
CONTINUOUS
 62
     2
 10
-21.2352347716501
 20
-166.26433994621
 30
0.0
 11
-39.0293363684209
 21
-166.26433994621
 31
0.0
  0
LINE
  5
   2AA
  8
0
  6
CONTINUOUS
 62
     2
 10
-21.3731566664681
 20
-201.664340473712
 30
0.0
 11
-39.0293363684209
 21
-201.664340473712
 31
0.0
  0
LINE
  5
   2AB
  8
0
  6
CONTINUOUS
 62
     2
 10
-37.0293363684209
 20
-166.26433994621
 30
0.0
 11
-37.0293363684209
 21
-201.664340473712
 31
0.0
  0
LINE
  5
   2AC
  8
0
  6
CONTINUOUS
 62
     2
 10
-36.5083919384692
 20
-169.218763223417
 30
0.0
 11
-37.0293363684209
 21
-166.26433994621
 31
0.0
  0
LINE
  5
   2AD
  8
0
  6
CONTINUOUS
 62
     2
 10
-37.0293363684209
 20
-166.26433994621
 30
0.0
 11
-37.5502807983726
 21
-169.218763223417
 31
0.0
  0
LINE
  5
   2AE
  8
0
  6
CONTINUOUS
 62
     2
 10
-37.5502807983726
 20
-198.709917196505
 30
0.0
 11
-37.0293363684209
 21
-201.664340473712
 31
0.0
  0
LINE
  5
   2AF
  8
0
  6
CONTINUOUS
 62
     2
 10
-37.0293363684209
 20
-201.664340473712
 30
0.0
 11
-36.5083919384692
 21
-198.709917196505
 31
0.0
  0
ENDBLK
  5
   2B0
  8
0
  6
CONTINUOUS
 62
     2
  0
BLOCK
  5
   2B1
  8
0
  6
CONTINUOUS
 62
     7
  2
*UDIM232
 70
    65
 10
0.0
 20
0.0
 30
0.0
  3
*UDIM232
  0
TEXT
  5
   2B2
  8
0
  6
CONTINUOUS
 62
     7
 10
-29.7484997728525
 20
-184.095623360468
 30
0.0
 40
2.99999994933605
  1
109.75
 50
449.999999896069
 41
0.933333333333333
 72
     1
 11
-31.2484997328784
 21
-175.995623494549
 31
0.0
 73
     2
  0
LINE
  5
   2B3
  8
0
  6
CONTINUOUS
 62
     7
 10
-21.23523477165
 20
-166.264339632294
 30
0.0
 11
-30.7484997582103
 21
-166.264336645923
 31
0.0
  0
LINE
  5
   2B4
  8
0
  6
CONTINUOUS
 62
     7
 10
-28.7484997582104
 20
-166.264337273756
 30
0.0
 11
-28.7484997582104
 21
-184.095623357756
 31
0.0
  0
LINE
  5
   2B5
  8
0
  6
CONTINUOUS
 62
     7
 10
-29.2694441881621
 20
-163.309913996549
 30
0.0
 11
-28.7484997582104
 21
-166.264337273756
 31
0.0
  0
LINE
  5
   2B6
  8
0
  6
CONTINUOUS
 62
     7
 10
-28.7484997582104
 20
-166.264337273756
 30
0.0
 11
-28.2275553282588
 21
-163.309913996549
 31
0.0
  0
LINE
  5
   2B7
  8
0
  6
CONTINUOUS
 62
     7
 10
-28.2275553282588
 20
-185.168752068625
 30
0.0
 11
-28.7484997582104
 21
-182.214328791418
 31
0.0
  0
LINE
  5
   2B8
  8
0
  6
CONTINUOUS
 62
     7
 10
-28.7484997582104
 20
-182.214328791418
 30
0.0
 11
-29.2694441881621
 21
-185.168752068625
 31
0.0
  0
ENDBLK
  5
   2B9
  8
0
  6
CONTINUOUS
 62
     7
  0
BLOCK
  5
   2BA
  8
0
  6
CONTINUOUS
 62
     7
  2
*UDIM233
 70
    65
 10
0.0
 20
0.0
 30
0.0
  3
*UDIM233
  0
TEXT
  5
   2BB
  8
0
  6
CONTINUOUS
 62
     7
 10
-63.5527830888508
 20
-204.918099110753
 30
0.0
 40
2.99999994933605
  1
5,5
 50
365.302111861461
 41
0.933333333333333
 72
     1
 11
-59.8080810431817
 21
-203.064128776731
 31
0.0
 73
     2
  0
TEXT
  5
   2BC
  8
0
  6
CONTINUOUS
 62
     7
 10
-66.6893051113942
 20
-205.20918207647
 30
0.0
 40
2.99999994933605
  1
Ø
 50
365.302111861461
 41
0.933333333333333
 72
     1
 11
-65.7326226385543
 21
-203.613952146556
 31
0.0
 73
     2
  0
TEXT
  5
   2BD
  8
0
  6
CONTINUOUS
 62
     7
 10
-55.2385104149088
 20
-204.146498240748
 30
0.0
 40
2.99999994933605
  1
 - M5
 50
365.302111861461
 41
0.933333333333333
 72
     1
 11
-48.7057887964104
 21
-202.03378750262
 31
0.0
 73
     2
  0
LINE
  5
   2BE
  8
0
  6
CONTINUOUS
 62
     7
 10
-17.1230773002852
 20
-201.613516463156
 30
0.0
 11
-66.5968978179659
 21
-206.20490337086
 31
0.0
  0
LINE
  5
   2BF
  8
0
  6
CONTINUOUS
 62
     7
 10
-14.2294341989379
 20
-200.821790751798
 30
0.0
 11
-17.1230773002852
 21
-201.613516463156
 31
0.0
  0
LINE
  5
   2C0
  8
0
  6
CONTINUOUS
 62
     7
 10
-17.1230773002852
 20
-201.613516463156
 30
0.0
 11
-14.1331560723476
 21
-201.859221674188
 31
0.0
  0
LINE
  5
   2C1
  8
0
  6
CONTINUOUS
 62
     7
 10
-21.1120138398785
 20
-202.506890195625
 30
0.0
 11
-18.2183707385313
 21
-201.715164484267
 31
0.0
  0
LINE
  5
   2C2
  8
0
  6
CONTINUOUS
 62
     7
 10
-18.2183707385313
 20
-201.715164484267
 30
0.0
 11
-21.2082919664689
 21
-201.469459273235
 31
0.0
  0
ENDBLK
  5
   2C3
  8
0
  6
CONTINUOUS
 62
     7
  0
BLOCK
  5
   2C4
  8
0
  6
CONTINUOUS
 62
     7
  2
*UDIM234
 70
    65
 10
0.0
 20
0.0
 30
0.0
  3
*UDIM234
  0
TEXT
  5
   2C5
  8
0
  6
CONTINUOUS
 62
     7
 10
-13.4457239273751
 20
-175.883938488604
 30
0.0
 40
2.99999994933605
  1
70
 50
359.999999896069
 41
0.933333333333333
 72
     1
 11
-10.9457239668816
 21
-174.383938518459
 31
0.0
 73
     2
  0
LINE
  5
   2C6
  8
0
  6
CONTINUOUS
 62
     7
 10
-3.67072381079197
 20
-176.883938493127
 30
0.0
 11
-17.6707240194082
 21
-176.883938493127
 31
0.0
  0
LINE
  5
   2C7
  8
0
  6
CONTINUOUS
 62
     7
 10
-6.62514708799893
 20
-177.404882923078
 30
0.0
 11
-3.67072381079197
 21
-176.883938493127
 31
0.0
  0
LINE
  5
   2C8
  8
0
  6
CONTINUOUS
 62
     7
 10
-3.67072381079197
 20
-176.883938493127
 30
0.0
 11
-6.62514708799893
 21
-176.362994063175
 31
0.0
  0
LINE
  5
   2C9
  8
0
  6
CONTINUOUS
 62
     7
 10
-14.7163007422013
 20
-176.362994063175
 30
0.0
 11
-17.6707240194082
 21
-176.883938493127
 31
0.0
  0
LINE
  5
   2CA
  8
0
  6
CONTINUOUS
 62
     7
 10
-17.6707240194082
 20
-176.883938493127
 30
0.0
 11
-14.7163007422013
 21
-177.404882923078
 31
0.0
  0
ENDBLK
  5
   2CB
  8
0
  6
CONTINUOUS
 62
     7
  0
BLOCK
  5
   2CC
  8
0
  6
CONTINUOUS
 62
     7
  2
*UDIM235
 70
    65
 10
0.0
 20
0.0
 30
0.0
  3
*UDIM235
  0
TEXT
  5
   2CD
  8
0
  6
CONTINUOUS
 62
     7
 10
247.839450506457
 20
-2.33824156655648
 30
0.0
 40
3.00000002980232
  1
147
 50
359.999999844103
 41
0.933333333333333
 72
     1
 11
251.739450549274
 21
-0.838241562247276
 31
0.0
 73
     2
  0
LINE
  5
   2CE
  8
0
  6
CONTINUOUS
 62
     7
 10
233.639449180295
 20
10.8417205810551
 30
0.0
 11
233.639434732447
 21
-5.33824157714764
 31
0.0
  0
LINE
  5
   2CF
  8
0
  6
CONTINUOUS
 62
     7
 10
270.389449180295
 20
10.8417205810551
 30
0.0
 11
270.389434732447
 21
-5.33824157714764
 31
0.0
  0
LINE
  5
   2D0
  8
0
  6
CONTINUOUS
 62
     7
 10
233.639436518341
 20
-3.33824157714844
 30
0.0
 11
270.389436518341
 21
-3.33824157714844
 31
0.0
  0
LINE
  5
   2D1
  8
0
  6
CONTINUOUS
 62
     7
 10
236.593859795548
 20
-2.81729714719678
 30
0.0
 11
233.639436518341
 21
-3.33824157714844
 31
0.0
  0
LINE
  5
   2D2
  8
0
  6
CONTINUOUS
 62
     7
 10
233.639436518341
 20
-3.33824157714844
 30
0.0
 11
236.593859795548
 21
-3.8591860071001
 31
0.0
  0
LINE
  5
   2D3
  8
0
  6
CONTINUOUS
 62
     7
 10
267.435013241134
 20
-3.8591860071001
 30
0.0
 11
270.389436518341
 21
-3.33824157714844
 31
0.0
  0
LINE
  5
   2D4
  8
0
  6
CONTINUOUS
 62
     7
 10
270.389436518341
 20
-3.33824157714844
 30
0.0
 11
267.435013241134
 21
-2.81729714719677
 31
0.0
  0
ENDBLK
  5
   2D5
  8
0
  6
CONTINUOUS
 62
     7
  0
BLOCK
  5
   2D6
  8
0
  6
CONTINUOUS
 62
     7
  2
*UDIM236
 70
    65
 10
0.0
 20
0.0
 30
0.0
  3
*UDIM236
  0
TEXT
  5
   2D7
  8
0
  6
CONTINUOUS
 62
     7
 10
247.839450505105
 20
52.8997459517541
 30
0.0
 40
3.00000002980232
  1
115
 50
359.999999844103
 41
0.933333333333333
 72
     1
 11
251.739450547922
 21
54.3997459560633
 31
0.0
 73
     2
  0
LINE
  5
   2D8
  8
0
  6
CONTINUOUS
 62
     7
 10
237.639450387159
 20
46.7167205810546
 30
0.0
 11
237.639452642029
 21
53.899745941162
 31
0.0
  0
LINE
  5
   2D9
  8
0
  6
CONTINUOUS
 62
     7
 10
266.389450387159
 20
46.7167205810546
 30
0.0
 11
266.389452642029
 21
53.899745941162
 31
0.0
  0
LINE
  5
   2DA
  8
0
  6
CONTINUOUS
 62
     7
 10
237.639452014196
 20
51.8997459411621
 30
0.0
 11
266.389452014196
 21
51.8997459411621
 31
0.0
  0
LINE
  5
   2DB
  8
0
  6
CONTINUOUS
 62
     7
 10
240.593875291403
 20
52.4206903711138
 30
0.0
 11
237.639452014196
 21
51.8997459411621
 31
0.0
  0
LINE
  5
   2DC
  8
0
  6
CONTINUOUS
 62
     7
 10
237.639452014196
 20
51.8997459411621
 30
0.0
 11
240.593875291403
 21
51.3788015112105
 31
0.0
  0
LINE
  5
   2DD
  8
0
  6
CONTINUOUS
 62
     7
 10
263.435028736989
 20
51.3788015112105
 30
0.0
 11
266.389452014196
 21
51.8997459411621
 31
0.0
  0
LINE
  5
   2DE
  8
0
  6
CONTINUOUS
 62
     7
 10
266.389452014196
 20
51.8997459411621
 30
0.0
 11
263.435028736989
 21
52.4206903711138
 31
0.0
  0
ENDBLK
  5
   2DF
  8
0
  6
CONTINUOUS
 62
     7
  0
BLOCK
  5
   2E0
  8
0
  6
CONTINUOUS
 62
     7
  2
*UDIM237
 70
    65
 10
0.0
 20
0.0
 30
0.0
  3
*UDIM237
  0
TEXT
  5
   2E1
  8
0
  6
CONTINUOUS
 62
     7
 10
212.525627125643
 20
21.6667205322793
 30
0.0
 40
3.00000002980232
  1
142
 50
449.999999844103
 41
0.933333333333333
 72
     1
 11
211.025627121329
 21
25.5667205750942
 31
0.0
 73
     2
  0
LINE
  5
   2E2
  8
0
  6
CONTINUOUS
 62
     7
 10
234.514450073242
 20
43.5917205810547
 30
0.0
 11
211.525627136231
 21
43.5917205810547
 31
0.0
  0
LINE
  5
   2E3
  8
0
  6
CONTINUOUS
 62
     7
 10
234.514450073242
 20
8.09172058105469
 30
0.0
 11
211.525627136231
 21
8.09172058105469
 31
0.0
  0
LINE
  5
   2E4
  8
0
  6
CONTINUOUS
 62
     7
 10
213.52562713623
 20
43.5917205810547
 30
0.0
 11
213.52562713623
 21
8.09172058105469
 31
0.0
  0
LINE
  5
   2E5
  8
0
  6
CONTINUOUS
 62
     7
 10
214.046571566182
 20
40.6372973038477
 30
0.0
 11
213.52562713623
 21
43.5917205810547
 31
0.0
  0
LINE
  5
   2E6
  8
0
  6
CONTINUOUS
 62
     7
 10
213.52562713623
 20
43.5917205810547
 30
0.0
 11
213.004682706279
 21
40.6372973038477
 31
0.0
  0
LINE
  5
   2E7
  8
0
  6
CONTINUOUS
 62
     7
 10
213.004682706279
 20
11.0461438582617
 30
0.0
 11
213.52562713623
 21
8.09172058105469
 31
0.0
  0
LINE
  5
   2E8
  8
0
  6
CONTINUOUS
 62
     7
 10
213.52562713623
 20
8.09172058105469
 30
0.0
 11
214.046571566182
 21
11.0461438582617
 31
0.0
  0
ENDBLK
  5
   2E9
  8
0
  6
CONTINUOUS
 62
     7
  0
BLOCK
  5
   2EA
  8
0
  6
CONTINUOUS
 62
     7
  2
*UDIM238
 70
    65
 10
0.0
 20
0.0
 30
0.0
  3
*UDIM238
  0
TEXT
  5
   2EB
  8
0
  6
CONTINUOUS
 62
     7
 10
220.651153553866
 20
21.6667205322793
 30
0.0
 40
3.00000002980232
  1
112
 50
449.999999844103
 41
0.933333333333333
 72
     1
 11
219.151153549552
 21
25.5667205750942
 31
0.0
 73
     2
  0
LINE
  5
   2EC
  8
0
  6
CONTINUOUS
 62
     7
 10
232.639450073242
 20
39.8417205810547
 30
0.0
 11
219.651153564453
 21
39.8417205810547
 31
0.0
  0
LINE
  5
   2ED
  8
0
  6
CONTINUOUS
 62
     7
 10
232.639450073242
 20
11.8417205810547
 30
0.0
 11
219.651153564453
 21
11.8417205810547
 31
0.0
  0
LINE
  5
   2EE
  8
0
  6
CONTINUOUS
 62
     7
 10
221.651153564453
 20
39.8417205810547
 30
0.0
 11
221.651153564453
 21
11.8417205810547
 31
0.0
  0
LINE
  5
   2EF
  8
0
  6
CONTINUOUS
 62
     7
 10
222.172097994405
 20
36.8872973038477
 30
0.0
 11
221.651153564453
 21
39.8417205810547
 31
0.0
  0
LINE
  5
   2F0
  8
0
  6
CONTINUOUS
 62
     7
 10
221.651153564453
 20
39.8417205810547
 30
0.0
 11
221.130209134501
 21
36.8872973038477
 31
0.0
  0
LINE
  5
   2F1
  8
0
  6
CONTINUOUS
 62
     7
 10
221.130209134501
 20
14.7961438582617
 30
0.0
 11
221.651153564453
 21
11.8417205810547
 31
0.0
  0
LINE
  5
   2F2
  8
0
  6
CONTINUOUS
 62
     7
 10
221.651153564453
 20
11.8417205810547
 30
0.0
 11
222.172097994405
 21
14.7961438582617
 31
0.0
  0
ENDBLK
  5
   2F3
  8
0
  6
CONTINUOUS
 62
     7
  0
BLOCK
  5
   2F4
  8
0
  6
CONTINUOUS
 62
     7
  2
*UDIM239
 70
    65
 10
0.0
 20
0.0
 30
0.0
  3
*UDIM239
  0
TEXT
  5
   2F5
  8
0
  6
CONTINUOUS
 62
     7
 10
278.304203533209
 20
56.8628482693115
 30
0.0
 40
3.00000002980232
  1
7
 50
404.868411918951
 41
0.933333333333334
 72
     1
 11
278.025583891139
 21
58.7019706588758
 31
0.0
 73
     2
  0
TEXT
  5
   2F6
  8
0
  6
CONTINUOUS
 62
     7
 10
276.071707533884
 20
54.6405832816061
 30
0.0
 40
3.00000002980232
  1
Ø
 50
404.868411918951
 41
0.933333333333334
 72
     1
 11
275.793087891814
 21
56.4797056711704
 31
0.0
 73
     2
  0
LINE
  5
   2F7
  8
0
  6
CONTINUOUS
 62
     7
 10
280.568888050112
 20
57.7061774808034
 30
0.0
 11
265.769312297608
 21
42.9744247530833
 31
0.0
  0
LINE
  5
   2F8
  8
0
  6
CONTINUOUS
 62
     7
 10
268.735956598815
 20
46.6625141039986
 30
0.0
 11
267.009587848877
 21
44.2090164090261
 31
0.0
  0
LINE
  5
   2F9
  8
0
  6
CONTINUOUS
 62
     7
 10
267.009587848877
 20
44.2090164090261
 30
0.0
 11
269.470989337591
 21
45.9240973725255
 31
0.0
  0
LINE
  5
   2FA
  8
0
  6
CONTINUOUS
 62
     7
 10
264.042943547669
 20
40.5209270581108
 30
0.0
 11
265.769312297608
 21
42.9744247530833
 31
0.0
  0
LINE
  5
   2FB
  8
0
  6
CONTINUOUS
 62
     7
 10
265.769312297608
 20
42.9744247530833
 30
0.0
 11
263.307910808894
 21
41.2593437895839
 31
0.0
  0
ENDBLK
  5
   2FC
  8
0
  6
CONTINUOUS
 62
     7
  0
ENDSEC
  0
SECTION
  2
ENTITIES
  0
LINE
  5
   2FD
  8
0
  6
CONTINUOUS
 62
     7
 10
-61.9206943511963
 20
20.3497924804687
 30
0.0
 11
-62.9206943511963
 21
20.3497924804687
 31
0.0
  0
LINE
  5
   2FE
  8
0
  6
CONTINUOUS
 62
     7
 10
-62.920724868774
 20
9.59981757688109
 30
0.0
 11
-62.920724868774
 21
20.3497917093229
 31
0.0
  0
LINE
  5
   2FF
  8
0
  6
CONTINUOUS
 62
     7
 10
-61.9206943511963
 20
20.3497924804687
 30
0.0
 11
-61.9206943511963
 21
21.3497924804688
 31
0.0
  0
LINE
  5
   300
  8
0
  6
CONTINUOUS
 62
     7
 10
-29.2957476542423
 20
21.8498001098603
 30
0.0
 11
-61.4207186320301
 21
21.8498001098603
 31
0.0
  0
LINE
  5
   301
  8
0
  6
CONTINUOUS
 62
     1
 10
-39.9204058176749
 20
18.0997924804688
 30
0.0
 11
-42.6603255271912
 21
18.0997924804688
 31
0.0
  0
LINE
  5
   302
  8
0
  6
CONTINUOUS
 62
     1
 10
-39.9204058176749
 20
12.0997924804688
 30
0.0
 11
-42.6603255271912
 21
12.0997924804688
 31
0.0
  0
LINE
  5
   303
  8
0
  6
CONTINUOUS
 62
     1
 10
-48.6810977273324
 20
12.0997922664788
 30
0.0
 11
-51.4204777965305
 21
12.0998015983829
 31
0.0
  0
LINE
  5
   304
  8
0
  6
CONTINUOUS
 62
     1
 10
-51.4204777939193
 20
18.0997833631948
 30
0.0
 11
-48.6810938867356
 21
18.0997926951419
 31
0.0
  0
LINE
  5
   305
  8
0
  6
CONTINUOUS
 62
     7
 10
-61.9206943511963
 20
9.59981733439633
 30
0.0
 11
-61.9206943511963
 21
20.3497924804687
 31
0.0
  0
LINE
  5
   306
  8
0
  6
CONTINUOUS
 62
     7
 10
5.70425997515226
 20
21.8497924804658
 30
0.0
 11
-27.0457476542423
 21
21.8497924804658
 31
0.0
  0
LINE
  5
   307
  8
0
  6
CONTINUOUS
 62
     1
 10
-13.6811218261719
 20
18.0997924804688
 30
0.0
 11
-16.4205336084392
 21
18.0997924804688
 31
0.0
  0
LINE
  5
   308
  8
0
  6
CONTINUOUS
 62
     1
 10
-13.6816581984152
 20
12.0997924804688
 30
0.0
 11
-16.4205336084392
 21
12.0997924804688
 31
0.0
  0
LINE
  5
   309
  8
0
  6
CONTINUOUS
 62
     1
 10
-7.66032721499084
 20
12.0997874773835
 30
0.0
 11
-4.92065684836831
 21
12.0997968103064
 31
0.0
  0
LINE
  5
   30A
  8
0
  6
CONTINUOUS
 62
     1
 10
-4.92065685240292
 20
18.0997881517161
 30
0.0
 11
-7.6603272414477
 21
18.0997974846391
 31
0.0
  0
LINE
  5
   30B
  8
0
  6
CONTINUOUS
 62
     7
 10
41.5792446136475
 20
20.3497924804687
 30
0.0
 11
40.5792446136475
 21
20.3497924804687
 31
0.0
  0
LINE
  5
   30C
  8
0
  6
CONTINUOUS
 62
     7
 10
41.579275131225
 20
9.59979223799594
 30
0.0
 11
41.579275131225
 21
20.3497923902826
 31
0.0
  0
LINE
  5
   30D
  8
0
  6
CONTINUOUS
 62
     7
 10
40.5792446136475
 20
20.3497924804687
 30
0.0
 11
40.5792446136475
 21
21.3497924804687
 31
0.0
  0
LINE
  5
   30E
  8
0
  6
CONTINUOUS
 62
     7
 10
40.0792688944812
 20
21.8498001098603
 30
0.0
 11
7.95425997515226
 21
21.8498001098603
 31
0.0
  0
LINE
  5
   30F
  8
0
  6
CONTINUOUS
 62
     1
 10
21.318868637085
 20
18.0997924804688
 30
0.0
 11
18.5791581149818
 21
18.0997924804688
 31
0.0
  0
LINE
  5
   310
  8
0
  6
CONTINUOUS
 62
     1
 10
21.318868637085
 20
12.0997924804688
 30
0.0
 11
18.5791581149818
 21
12.0997924804688
 31
0.0
  0
LINE
  5
   311
  8
0
  6
CONTINUOUS
 62
     1
 10
27.3396484663884
 20
12.0997922664805
 30
0.0
 11
30.0793405318455
 21
12.0998015994474
 31
0.0
  0
LINE
  5
   312
  8
0
  6
CONTINUOUS
 62
     1
 10
30.0793634179684
 20
18.0997833624971
 30
0.0
 11
27.3396446256183
 21
18.0997926955551
 31
0.0
  0
CIRCLE
  5
   313
  8
0
  6
CONTINUOUS
 62
     1
 10
6.82915670395741
 20
14.0998419141879
 30
0.0
 40
2.625
  0
LINE
  5
   314
  8
0
  6
DASHDOT
 62
     7
 10
-12.8204178275308
 20
15.0997974429154
 30
0.0
 11
-20.0206489125105
 21
15.0997974429154
 31
0.0
  0
LINE
  5
   315
  8
0
  6
DASHDOT
 62
     7
 10
-16.4205336084392
 20
11.4996821388441
 30
0.0
 11
-16.4205336084392
 21
18.6999127469867
 31
0.0
  0
ARC
  5
   316
  8
0
  6
CONTINUOUS
 62
     1
 10
-16.4205336084392
 20
15.0997974429154
 30
0.0
 40
3.00009560988892
 50
90.0036557603355
 51
269.996301839899
  0
LINE
  5
   317
  8
0
  6
DASHDOT
 62
     7
 10
-5.5705422530721
 20
15.0995899067783
 30
0.0
 11
-15.7710172370302
 21
15.0995899067783
 31
0.0
  0
ARC
  5
   318
  8
0
  6
CONTINUOUS
 62
     1
 10
-10.6707797450366
 20
15.0995899067784
 30
0.0
 40
4.25019790998254
 50
224.89430374687
 51
315.105491686916
  0
LINE
  5
   319
  8
0
  6
DASHDOT
 62
     7
 10
-1.32075315683424
 20
15.0998746691797
 30
0.0
 11
-8.52058193684465
 21
15.0998746691797
 31
0.0
  0
LINE
  5
   31A
  8
0
  6
DASHDOT
 62
     7
 10
-4.92066706999795
 20
11.4999580905004
 30
0.0
 11
-4.92066706999795
 21
18.6997859168365
 31
0.0
  0
ARC
  5
   31B
  8
0
  6
CONTINUOUS
 62
     1
 10
-4.92066707000228
 20
15.0998746691797
 30
0.0
 40
2.99992778413622
 50
269.999007927624
 51
450.00105270767
  0
LINE
  5
   31C
  8
0
  6
DASHDOT
 62
     7
 10
22.1790109144482
 20
15.0998215947848
 30
0.0
 11
14.9792747979373
 21
15.0998215947848
 31
0.0
  0
LINE
  5
   31D
  8
0
  6
DASHDOT
 62
     7
 10
18.5791581149818
 20
11.4999459071348
 30
0.0
 11
18.5791581149818
 21
18.6996972824347
 31
0.0
  0
ARC
  5
   31E
  8
0
  6
CONTINUOUS
 62
     1
 10
18.5791581149818
 20
15.0998215947848
 30
0.0
 40
2.99989545270067
 50
449.999999948034
 51
630.002376467854
  0
LINE
  5
   31F
  8
0
  6
DASHDOT
 62
     7
 10
29.4293135069408
 20
15.0997503124641
 30
0.0
 11
19.2292296273195
 21
15.0997503124641
 31
0.0
  0
ARC
  5
   320
  8
0
  6
CONTINUOUS
 62
     1
 10
24.3292791965247
 20
15.0997503124641
 30
0.0
 40
4.25003494984219
 50
404.901045292561
 51
495.098630845462
  0
LINE
  5
   321
  8
0
  6
DASHDOT
 62
     7
 10
33.6793429659869
 20
15.09977753589
 30
0.0
 11
26.479332915371
 21
15.09977753589
 31
0.0
  0
LINE
  5
   322
  8
0
  6
DASHDOT
 62
     7
 10
30.079337940679
 20
11.4997648811875
 30
0.0
 11
30.079337940679
 21
18.6997901905925
 31
0.0
  0
ARC
  5
   323
  8
0
  6
CONTINUOUS
 62
     1
 10
30.079337940679
 20
15.09977753589
 30
0.0
 40
3.0000095919111
 50
269.998338346111
 51
450.001473300288
  0
LINE
  5
   324
  8
0
  6
DASHDOT
 62
     7
 10
39.7192330011122
 20
19.8498056114313
 30
0.0
 11
37.4392625156635
 21
19.8498056114313
 31
0.0
  0
LINE
  5
   325
  8
0
  6
DASHDOT
 62
     7
 10
38.5792515730851
 20
18.7098241834042
 30
0.0
 11
38.5792515730851
 21
20.9897870394584
 31
0.0
  0
CIRCLE
  5
   326
  8
0
  6
CONTINUOUS
 62
     1
 10
38.5792515730851
 20
19.8498056114313
 30
0.0
 40
0.949984523355937
  0
CIRCLE
  5
   327
  8
0
  6
CONTINUOUS
 62
     1
 10
38.5792815355982
 20
19.8498004013562
 30
0.0
 40
0.700028280783465
  0
ARC
  5
   328
  8
0
  6
CONTINUOUS
 62
     7
 10
40.0792485390262
 20
21.3497810594751
 30
0.0
 40
0.499999612525094
 50
360.000054589548
 51
449.999945306521
  0
CIRCLE
  5
   329
  8
0
  6
CONTINUOUS
 62
     1
 10
-59.9207607177336
 20
19.8497970220944
 30
0.0
 40
0.69997229631058
  0
LINE
  5
   32A
  8
0
  6
DASHDOT
 62
     7
 10
-58.7807786102478
 20
19.8498964757095
 30
0.0
 11
-61.0606181943241
 21
19.8498964757095
 31
0.0
  0
LINE
  5
   32B
  8
0
  6
DASHDOT
 62
     7
 10
-59.9206984022859
 20
18.7099843130659
 30
0.0
 11
-59.9206984022859
 21
20.9898086383531
 31
0.0
  0
CIRCLE
  5
   32C
  8
0
  6
CONTINUOUS
 62
     1
 10
-59.9206984022859
 20
19.8498964757095
 30
0.0
 40
0.949926802203016
  0
ARC
  5
   32D
  8
0
  6
CONTINUOUS
 62
     7
 10
-61.4206959626734
 20
21.349789956386
 30
0.0
 40
0.499994297126469
 50
90.0005173512766
 51
180.001122723422
  0
LINE
  5
   32E
  8
0
  6
DASHDOT
 62
     7
 10
-47.820262960356
 20
15.099814942791
 30
0.0
 11
-55.0206416736226
 21
15.099814942791
 31
0.0
  0
LINE
  5
   32F
  8
0
  6
DASHDOT
 62
     7
 10
-51.4204523169893
 20
11.4996179567631
 30
0.0
 11
-51.4204523169893
 21
18.7000119288188
 31
0.0
  0
ARC
  5
   330
  8
0
  6
CONTINUOUS
 62
     1
 10
-51.4204523169893
 20
15.099814942791
 30
0.0
 40
3.0001641550232
 50
90.0052836333811
 51
269.995265213079
  0
LINE
  5
   331
  8
0
  6
DASHDOT
 62
     7
 10
-40.5706146690878
 20
15.0998792855472
 30
0.0
 11
-50.7708272786476
 21
15.0998792855472
 31
0.0
  0
ARC
  5
   332
  8
0
  6
CONTINUOUS
 62
     1
 10
-45.6707019003814
 20
15.0998792855472
 30
0.0
 40
4.25008540840222
 50
224.901380849089
 51
315.098568474349
  0
LINE
  5
   333
  8
0
  6
DASHDOT
 62
     7
 10
-36.3206602526338
 20
15.099815202103
 30
0.0
 11
-43.520151382716
 21
15.099815202103
 31
0.0
  0
LINE
  5
   334
  8
0
  6
DASHDOT
 62
     7
 10
-39.9204058176749
 20
11.5000620076674
 30
0.0
 11
-39.9204058176749
 21
18.6995683965386
 31
0.0
  0
ARC
  5
   335
  8
0
  6
CONTINUOUS
 62
     1
 10
-39.9204058176749
 20
15.099815202103
 30
0.0
 40
2.99979432869636
 50
269.999999948034
 51
449.999945306521
  0
ARC
  5
   336
  8
0
  6
CONTINUOUS
 62
     1
 10
-45.6707019003814
 20
15.0998792855472
 30
0.0
 40
4.25008540840222
 50
404.897963373026
 51
495.101923170488
  0
ARC
  5
   337
  8
0
  6
CONTINUOUS
 62
     1
 10
-10.6707797450366
 20
15.0995899067784
 30
0.0
 40
4.25019790998254
 50
404.902109287098
 51
495.097767281763
  0
ARC
  5
   338
  8
0
  6
CONTINUOUS
 62
     1
 10
24.3292791965247
 20
15.0997503124641
 30
0.0
 40
4.25003494984219
 50
224.899545375473
 51
315.100341172749
  0
LINE
  5
   339
  8
0
  6
CONTINUOUS
 62
     7
 10
40.5792713165263
 20
9.84980490743335
 30
0.0
 11
-61.9206943511963
 21
9.84980490743335
 31
0.0
  0
LINE
  5
   33A
  8
0
  6
CONTINUOUS
 62
     7
 10
40.5792636871338
 20
9.59979248047608
 30
0.0
 11
40.5792636871338
 21
21.3497810594751
 31
0.0
  0
LINE
  5
   33B
  8
0
  6
CONTINUOUS
 62
     7
 10
-61.8135356903076
 20
9.59981730841278
 30
0.0
 11
-61.8135356903076
 21
9.84980010986328
 31
0.0
  0
LINE
  5
   33C
  8
0
  6
CONTINUOUS
 62
     1
 10
41.7042862603276
 20
-14.5252077620041
 30
0.0
 11
41.7042862603276
 21
9.59979223799594
 31
0.0
  0
LINE
  5
   33D
  8
0
  6
CONTINUOUS
 62
     1
 10
41.7042862603276
 20
-110.75020814347
 30
0.0
 11
41.7042862603276
 21
-67.025192503215
 31
0.0
  0
LINE
  5
   33E
  8
0
  6
CONTINUOUS
 62
     1
 10
-63.0457137396724
 20
-110.75020814347
 30
0.0
 11
-63.0457137396724
 21
-67.0252230207931
 31
0.0
  0
LINE
  5
   33F
  8
0
  6
CONTINUOUS
 62
     1
 10
-63.0457137396724
 20
-14.5252382795822
 30
0.0
 11
-63.0457137396724
 21
9.59979223799594
 31
0.0
  0
LINE
  5
   340
  8
0
  6
CONTINUOUS
 62
     1
 10
41.7042862603276
 20
9.59979223799594
 30
0.0
 11
-63.0457137396724
 21
9.59979223799594
 31
0.0
  0
LINE
  5
   341
  8
0
  6
CONTINUOUS
 62
     1
 10
41.2042862603276
 20
-78.4002077620041
 30
0.0
 11
27.3292751312256
 21
-78.4002077620041
 31
0.0
  0
LINE
  5
   342
  8
0
  6
CONTINUOUS
 62
     1
 10
-63.0457137396724
 20
-67.0252153913986
 30
0.0
 11
-63.0457137396724
 21
-14.5252153913986
 31
0.0
  0
LINE
  5
   343
  8
0
  6
CONTINUOUS
 62
     1
 10
41.7042862603276
 20
-67.0252153913986
 30
0.0
 11
41.7042862603276
 21
-14.5252153913986
 31
0.0
  0
LINE
  5
   344
  8
0
  6
CONTINUOUS
 62
     1
 10
-48.6707248687744
 20
-67.0252153913986
 30
0.0
 11
-62.7957137396724
 21
-67.0252153913986
 31
0.0
  0
LINE
  5
   345
  8
0
  6
CONTINUOUS
 62
     1
 10
41.4542862603276
 20
-14.5252153913986
 30
0.0
 11
27.3292751312256
 21
-14.5252153913986
 31
0.0
  0
LINE
  5
   346
  8
0
  6
CONTINUOUS
 62
     1
 10
41.7042862603276
 20
-77.9002077918064
 30
0.0
 11
27.3292751312256
 21
-77.9002077918064
 31
0.0
  0
LINE
  5
   347
  8
0
  6
CONTINUOUS
 62
     1
 10
-62.5457137694747
 20
-78.4002077620041
 30
0.0
 11
-62.5457137694747
 21
-77.9002077918064
 31
0.0
  0
LINE
  5
   348
  8
0
  6
CONTINUOUS
 62
     1
 10
41.2042862603276
 20
-78.4002077620041
 30
0.0
 11
41.2042862603276
 21
-77.9002077918064
 31
0.0
  0
LINE
  5
   349
  8
0
  6
CONTINUOUS
 62
     1
 10
39.604280156812
 20
-14.5252153913986
 30
0.0
 11
39.604280156812
 21
9.59979223799594
 31
0.0
  0
LINE
  5
   34A
  8
0
  6
CONTINUOUS
 62
     1
 10
40.7542816826909
 20
-14.5252153913986
 30
0.0
 11
40.7542816826909
 21
9.59979223799594
 31
0.0
  0
LINE
  5
   34B
  8
0
  6
CONTINUOUS
 62
     1
 10
32.4042832085698
 20
-14.5252153913986
 30
0.0
 11
32.4042832085698
 21
9.59979223799594
 31
0.0
  0
LINE
  5
   34C
  8
0
  6
CONTINUOUS
 62
     1
 10
34.2042786309331
 20
-14.5252153913986
 30
0.0
 11
34.2042786309331
 21
9.59979223799594
 31
0.0
  0
LINE
  5
   34D
  8
0
  6
CONTINUOUS
 62
     1
 10
36.0042816826909
 20
-14.5252153913986
 30
0.0
 11
36.0042816826909
 21
9.59979223799594
 31
0.0
  0
LINE
  5
   34E
  8
0
  6
CONTINUOUS
 62
     1
 10
37.8042847344487
 20
-14.5252153913986
 30
0.0
 11
37.8042847344487
 21
9.59979223799594
 31
0.0
  0
LINE
  5
   34F
  8
0
  6
CONTINUOUS
 62
     1
 10
24.3042847344487
 20
-0.52521634507238
 30
0.0
 11
24.3042847344487
 21
9.59979223799594
 31
0.0
  0
LINE
  5
   350
  8
0
  6
CONTINUOUS
 62
     1
 10
25.4542786309331
 20
-0.52521634507238
 30
0.0
 11
25.4542786309331
 21
9.59979223799594
 31
0.0
  0
LINE
  5
   351
  8
0
  6
CONTINUOUS
 62
     1
 10
27.0042816826909
 20
-0.52521634507238
 30
0.0
 11
27.0042816826909
 21
9.59979223799594
 31
0.0
  0
LINE
  5
   352
  8
0
  6
CONTINUOUS
 62
     1
 10
28.8042847344487
 20
-14.5252153913986
 30
0.0
 11
28.8042847344487
 21
9.59979223799594
 31
0.0
  0
LINE
  5
   353
  8
0
  6
CONTINUOUS
 62
     1
 10
30.604280156812
 20
-14.5252153913986
 30
0.0
 11
30.604280156812
 21
9.59979223799594
 31
0.0
  0
LINE
  5
   354
  8
0
  6
CONTINUOUS
 62
     1
 10
34.2042786309331
 20
-67.0252153913986
 30
0.0
 11
34.2042786309331
 21
-14.5252153913986
 31
0.0
  0
LINE
  5
   355
  8
0
  6
CONTINUOUS
 62
     1
 10
37.8042847344487
 20
-67.0252153913986
 30
0.0
 11
37.8042847344487
 21
-14.5252153913986
 31
0.0
  0
LINE
  5
   356
  8
0
  6
CONTINUOUS
 62
     1
 10
36.0042816826909
 20
-67.0252153913986
 30
0.0
 11
36.0042816826909
 21
-14.5252153913986
 31
0.0
  0
LINE
  5
   357
  8
0
  6
CONTINUOUS
 62
     1
 10
30.604280156812
 20
-67.0252153913986
 30
0.0
 11
30.604280156812
 21
-14.5252153913986
 31
0.0
  0
LINE
  5
   358
  8
0
  6
CONTINUOUS
 62
     1
 10
28.8042847344487
 20
-67.0252153913986
 30
0.0
 11
28.8042847344487
 21
-14.5252153913986
 31
0.0
  0
LINE
  5
   359
  8
0
  6
CONTINUOUS
 62
     1
 10
39.604280156812
 20
-67.0252153913986
 30
0.0
 11
39.604280156812
 21
-14.5252153913986
 31
0.0
  0
LINE
  5
   35A
  8
0
  6
CONTINUOUS
 62
     1
 10
40.7542816826909
 20
-67.0252153913986
 30
0.0
 11
40.7542816826909
 21
-14.5252153913986
 31
0.0
  0
LINE
  5
   35B
  8
0
  6
CONTINUOUS
 62
     1
 10
39.604280156812
 20
-77.9002077918064
 30
0.0
 11
39.604280156812
 21
-67.0252154212009
 31
0.0
  0
LINE
  5
   35C
  8
0
  6
CONTINUOUS
 62
     1
 10
40.7542816826909
 20
-77.9002077918064
 30
0.0
 11
40.7542816826909
 21
-67.0252154212009
 31
0.0
  0
LINE
  5
   35D
  8
0
  6
CONTINUOUS
 62
     1
 10
32.4042832085698
 20
-77.9002077918064
 30
0.0
 11
32.4042832085698
 21
-14.5252153913986
 31
0.0
  0
LINE
  5
   35E
  8
0
  6
CONTINUOUS
 62
     1
 10
34.2042786309331
 20
-77.9002077918064
 30
0.0
 11
34.2042786309331
 21
-67.0252154212009
 31
0.0
  0
LINE
  5
   35F
  8
0
  6
CONTINUOUS
 62
     1
 10
36.0042816826909
 20
-77.9002077918064
 30
0.0
 11
36.0042816826909
 21
-67.0252154212009
 31
0.0
  0
LINE
  5
   360
  8
0
  6
CONTINUOUS
 62
     1
 10
37.8042847344487
 20
-77.9002077918064
 30
0.0
 11
37.8042847344487
 21
-67.0252154212009
 31
0.0
  0
LINE
  5
   361
  8
0
  6
CONTINUOUS
 62
     1
 10
24.3042847344487
 20
-77.9002077918064
 30
0.0
 11
24.3042847344487
 21
-67.0252154212009
 31
0.0
  0
LINE
  5
   362
  8
0
  6
CONTINUOUS
 62
     1
 10
28.8042847344487
 20
-77.9002077918064
 30
0.0
 11
28.8042847344487
 21
-67.0252154212009
 31
0.0
  0
LINE
  5
   363
  8
0
  6
CONTINUOUS
 62
     1
 10
30.604280156812
 20
-77.9002077918064
 30
0.0
 11
30.604280156812
 21
-67.0252154212009
 31
0.0
  0
LINE
  5
   364
  8
0
  6
CONTINUOUS
 62
     1
 10
-60.9457138350398
 20
-14.5252153913986
 30
0.0
 11
-60.9457138350398
 21
9.59979223799594
 31
0.0
  0
LINE
  5
   365
  8
0
  6
CONTINUOUS
 62
     1
 10
-62.0957139304072
 20
-14.5252153913986
 30
0.0
 11
-62.0957139304072
 21
9.59979223799594
 31
0.0
  0
LINE
  5
   366
  8
0
  6
CONTINUOUS
 62
     1
 10
-53.7457183173091
 20
-14.5252153913986
 30
0.0
 11
-53.7457183173091
 21
9.59979223799594
 31
0.0
  0
LINE
  5
   367
  8
0
  6
CONTINUOUS
 62
     1
 10
-55.5457137396724
 20
-14.5252153913986
 30
0.0
 11
-55.5457137396724
 21
9.59979223799594
 31
0.0
  0
LINE
  5
   368
  8
0
  6
CONTINUOUS
 62
     1
 10
-57.3457139304072
 20
-14.5252153913986
 30
0.0
 11
-57.3457139304072
 21
9.59979223799594
 31
0.0
  0
LINE
  5
   369
  8
0
  6
CONTINUOUS
 62
     1
 10
-59.1457141211421
 20
-14.5252153913986
 30
0.0
 11
-59.1457141211421
 21
9.59979223799594
 31
0.0
  0
LINE
  5
   36A
  8
0
  6
CONTINUOUS
 62
     1
 10
-45.645719843188
 20
-0.52521634507238
 30
0.0
 11
-45.645719843188
 21
9.59979223799594
 31
0.0
  0
LINE
  5
   36B
  8
0
  6
CONTINUOUS
 62
     1
 10
-46.5457137396724
 20
-14.5252153913986
 30
0.0
 11
-46.5457137396724
 21
9.59979223799594
 31
0.0
  0
LINE
  5
   36C
  8
0
  6
CONTINUOUS
 62
     1
 10
-48.3457167914302
 20
-0.601919120620849
 30
0.0
 11
-48.3457167914302
 21
9.59979223799594
 31
0.0
  0
LINE
  5
   36D
  8
0
  6
CONTINUOUS
 62
     1
 10
-50.145719843188
 20
-14.5252153913986
 30
0.0
 11
-50.145719843188
 21
9.59979223799594
 31
0.0
  0
LINE
  5
   36E
  8
0
  6
CONTINUOUS
 62
     1
 10
-51.9457152655513
 20
-14.5252153913986
 30
0.0
 11
-51.9457152655513
 21
9.59979223799594
 31
0.0
  0
LINE
  5
   36F
  8
0
  6
CONTINUOUS
 62
     1
 10
-55.5457142165095
 20
-67.0252153913986
 30
0.0
 11
-55.5457142165095
 21
-14.5252153913986
 31
0.0
  0
LINE
  5
   370
  8
0
  6
CONTINUOUS
 62
     1
 10
-53.7457183173091
 20
-67.0252153913986
 30
0.0
 11
-53.7457183173091
 21
-14.5252153913986
 31
0.0
  0
LINE
  5
   371
  8
0
  6
CONTINUOUS
 62
     1
 10
-59.1457141211421
 20
-67.0252153913986
 30
0.0
 11
-59.1457141211421
 21
-14.5252153913986
 31
0.0
  0
LINE
  5
   372
  8
0
  6
CONTINUOUS
 62
     1
 10
-57.3457139304072
 20
-67.0252153913986
 30
0.0
 11
-57.3457139304072
 21
-14.5252153913986
 31
0.0
  0
LINE
  5
   373
  8
0
  6
CONTINUOUS
 62
     1
 10
-46.5457213690669
 20
-67.0252153913986
 30
0.0
 11
-46.5457213690669
 21
-14.5252153913986
 31
0.0
  0
LINE
  5
   374
  8
0
  6
CONTINUOUS
 62
     1
 10
-51.9457152655513
 20
-67.0252153913986
 30
0.0
 11
-51.9457152655513
 21
-14.5252153913986
 31
0.0
  0
LINE
  5
   375
  8
0
  6
CONTINUOUS
 62
     1
 10
-50.145719843188
 20
-67.0252153913986
 30
0.0
 11
-50.145719843188
 21
-14.5252153913986
 31
0.0
  0
LINE
  5
   376
  8
0
  6
CONTINUOUS
 62
     1
 10
-60.9457138350398
 20
-67.0252153913986
 30
0.0
 11
-60.9457138350398
 21
-14.5252153913986
 31
0.0
  0
LINE
  5
   377
  8
0
  6
CONTINUOUS
 62
     1
 10
-62.0957139304072
 20
-67.0252153913986
 30
0.0
 11
-62.0957139304072
 21
-14.5252153913986
 31
0.0
  0
LINE
  5
   378
  8
0
  6
CONTINUOUS
 62
     1
 10
-60.9457138350398
 20
-77.9002077918064
 30
0.0
 11
-60.9457138350398
 21
-67.0252154212009
 31
0.0
  0
LINE
  5
   379
  8
0
  6
CONTINUOUS
 62
     1
 10
-62.0957139304072
 20
-77.9002077918064
 30
0.0
 11
-62.0957139304072
 21
-67.0252154212009
 31
0.0
  0
LINE
  5
   37A
  8
0
  6
CONTINUOUS
 62
     1
 10
-53.7457183173091
 20
-77.9002077918064
 30
0.0
 11
-53.7457183173091
 21
-67.0252154212009
 31
0.0
  0
LINE
  5
   37B
  8
0
  6
CONTINUOUS
 62
     1
 10
-55.5457137396724
 20
-77.9002077918064
 30
0.0
 11
-55.5457137396724
 21
-67.0252154212009
 31
0.0
  0
LINE
  5
   37C
  8
0
  6
CONTINUOUS
 62
     1
 10
-57.3457139304072
 20
-77.9002077918064
 30
0.0
 11
-57.3457139304072
 21
-67.0252154212009
 31
0.0
  0
LINE
  5
   37D
  8
0
  6
CONTINUOUS
 62
     1
 10
-59.1457141211421
 20
-77.9002077918064
 30
0.0
 11
-59.1457141211421
 21
-67.0252154212009
 31
0.0
  0
LINE
  5
   37E
  8
0
  6
CONTINUOUS
 62
     1
 10
-45.645719843188
 20
-77.9002077918064
 30
0.0
 11
-45.645719843188
 21
-67.0252154212009
 31
0.0
  0
LINE
  5
   37F
  8
0
  6
CONTINUOUS
 62
     1
 10
-46.5457137396724
 20
-77.9002077918064
 30
0.0
 11
-46.5457137396724
 21
-67.0252154212009
 31
0.0
  0
LINE
  5
   380
  8
0
  6
CONTINUOUS
 62
     1
 10
-50.145719843188
 20
-77.9002077918064
 30
0.0
 11
-50.145719843188
 21
-67.0252154212009
 31
0.0
  0
LINE
  5
   381
  8
0
  6
CONTINUOUS
 62
     1
 10
-51.9457152655513
 20
-77.9002077918064
 30
0.0
 11
-51.9457152655513
 21
-67.0252154212009
 31
0.0
  0
LINE
  5
   382
  8
0
  6
CONTINUOUS
 62
     1
 10
23.5792751312256
 20
7.09979223799593
 30
0.0
 11
-44.9207248687744
 21
7.09979223799593
 31
0.0
  0
LINE
  5
   383
  8
0
  6
CONTINUOUS
 62
     1
 10
23.5792751312256
 20
-0.52521634507238
 30
0.0
 11
23.5792751312256
 21
7.09979223799593
 31
0.0
  0
LINE
  5
   384
  8
0
  6
CONTINUOUS
 62
     1
 10
-44.9207248687744
 20
-0.52521634507238
 30
0.0
 11
-44.9207248687744
 21
7.09979223799593
 31
0.0
  0
ARC
  5
   385
  8
0
  6
CONTINUOUS
 62
     1
 10
-62.7957137396724
 20
-14.7752153913986
 30
0.0
 40
0.25
 50
89.9999999480344
 51
179.999999948034
  0
ARC
  5
   386
  8
0
  6
CONTINUOUS
 62
     1
 10
41.4542862603276
 20
-14.7752153913986
 30
0.0
 40
0.25
 50
359.999999948034
 51
449.999999948034
  0
ARC
  5
   387
  8
0
  6
CONTINUOUS
 62
     1
 10
41.4542862603276
 20
-66.7752153913986
 30
0.0
 40
0.25
 50
269.999999948034
 51
359.999999948034
  0
ARC
  5
   388
  8
0
  6
CONTINUOUS
 62
     1
 10
-62.7957137396724
 20
-66.7752153913986
 30
0.0
 40
0.25
 50
179.999999948034
 51
269.999999948034
  0
LINE
  5
   389
  8
0
  6
CONTINUOUS
 62
     3
 10
24.3292751312252
 20
-66.7752000955729
 30
0.0
 11
24.3292751312252
 21
-62.5252003749112
 31
0.0
  0
LINE
  5
   38A
  8
0
  6
CONTINUOUS
 62
     3
 10
24.0792750941901
 20
-67.0252001326088
 30
0.0
 11
-45.4207096470216
 21
-67.0252001326088
 31
0.0
  0
LINE
  5
   38B
  8
0
  6
CONTINUOUS
 62
     3
 10
-45.6707096099849
 20
-66.7752001696447
 30
0.0
 11
-45.6707096099849
 21
-62.5252003749112
 31
0.0
  0
LINE
  5
   38C
  8
0
  6
CONTINUOUS
 62
     3
 10
24.0792672530455
 20
-14.5252153913981
 30
0.0
 11
-45.4207172670226
 21
-14.5252153913981
 31
0.0
  0
LINE
  5
   38D
  8
0
  6
CONTINUOUS
 62
     1
 10
24.3292446136475
 20
-20.5252153913984
 30
0.0
 11
-45.6707096099853
 21
-20.5252153913984
 31
0.0
  0
LINE
  5
   38E
  8
0
  6
CONTINUOUS
 62
     1
 10
24.3292598724365
 20
-15.5252153913984
 30
0.0
 11
-45.6707096099853
 21
-15.5252153913984
 31
0.0
  0
LINE
  5
   38F
  8
0
  6
CONTINUOUS
 62
     1
 10
-0.170724868774411
 20
-34.1502001326093
 30
0.0
 11
-21.1707248687744
 21
-34.1502001326093
 31
0.0
  0
LINE
  5
   390
  8
0
  6
CONTINUOUS
 62
     7
 10
-0.170724868774389
 20
-64.9897514669616
 30
0.0
 11
-0.170724868774389
 21
-51.7787250385788
 31
0.0
  0
LINE
  5
   391
  8
0
  6
CONTINUOUS
 62
     7
 10
-21.1707248687744
 20
-64.9897514669616
 30
0.0
 11
-21.1707248687744
 21
-51.7787250385788
 31
0.0
  0
LINE
  5
   392
  8
0
  6
CONTINUOUS
 62
     7
 10
-0.170724868774411
 20
-33.9136126081953
 30
0.0
 11
-21.1707248687744
 21
-33.9136126081953
 31
0.0
  0
LINE
  5
   393
  8
0
  6
DASHDOT
 62
     7
 10
-10.6707248687744
 20
-78.1949854911015
 30
0.0
 11
-10.6707248687744
 21
24.2715589147652
 31
0.0
  0
LINE
  5
   394
  8
0
  6
CONTINUOUS
 62
   218
 10
24.3292903900113
 20
-32.0251999114545
 30
0.0
 11
24.3292903900113
 21
-14.7752114384889
 31
0.0
  0
LINE
  5
   395
  8
0
  6
CONTINUOUS
 62
   218
 10
24.3292751312256
 20
-52.5252001326093
 30
0.0
 11
24.3292751312256
 21
-42.0252001326093
 31
0.0
  0
LINE
  5
   396
  8
0
  6
CONTINUOUS
 62
   218
 10
24.3292751312256
 20
-41.5252001326093
 30
0.0
 11
24.3292751312256
 21
-32.5252001326093
 31
0.0
  0
LINE
  5
   397
  8
0
  6
CONTINUOUS
 62
   218
 10
24.3292751312256
 20
-62.0251925032148
 30
0.0
 11
24.3292751312256
 21
-53.0252001326093
 31
0.0
  0
LINE
  5
   398
  8
0
  6
CONTINUOUS
 62
   218
 10
-45.6707172393799
 20
-62.0252001326093
 30
0.0
 11
-45.6707172393799
 21
-53.0252077620039
 31
0.0
  0
LINE
  5
   399
  8
0
  6
CONTINUOUS
 62
   218
 10
-45.6707172393799
 20
-32.0252077620039
 30
0.0
 11
-45.6707172393799
 21
-14.7752192337363
 31
0.0
  0
LINE
  5
   39A
  8
0
  6
CONTINUOUS
 62
   218
 10
-45.6707172393799
 20
-52.5252077620039
 30
0.0
 11
-45.6707172393799
 21
-42.0252077620039
 31
0.0
  0
LINE
  5
   39B
  8
0
  6
CONTINUOUS
 62
   218
 10
-45.6707172393799
 20
-41.5252077620039
 30
0.0
 11
-45.6707172393799
 21
-32.5252077620039
 31
0.0
  0
LINE
  5
   39C
  8
0
  6
CONTINUOUS
 62
   218
 10
24.3292751312256
 20
-53.0252001326093
 30
0.0
 11
23.8292827606201
 21
-53.0252001326093
 31
0.0
  0
LINE
  5
   39D
  8
0
  6
CONTINUOUS
 62
     1
 10
-21.1707248687744
 20
-53.0252001326093
 30
0.0
 11
-45.1707172393799
 21
-53.0252001326093
 31
0.0
  0
LINE
  5
   39E
  8
0
  6
CONTINUOUS
 62
   218
 10
24.3292751312256
 20
-52.5252001326093
 30
0.0
 11
23.8292827606201
 21
-52.5252001326093
 31
0.0
  0
LINE
  5
   39F
  8
0
  6
CONTINUOUS
 62
     1
 10
-21.1707248687744
 20
-52.5252001326093
 30
0.0
 11
-45.6189441680908
 21
-52.5252001326093
 31
0.0
  0
LINE
  5
   3A0
  8
0
  6
CONTINUOUS
 62
   218
 10
23.8292827606201
 20
-53.0252001326093
 30
0.0
 11
23.8292827606201
 21
-52.5252001326093
 31
0.0
  0
LINE
  5
   3A1
  8
0
  6
CONTINUOUS
 62
   218
 10
-45.1707172393799
 20
-53.0252001326093
 30
0.0
 11
-45.1707172393799
 21
-52.5252001326093
 31
0.0
  0
LINE
  5
   3A2
  8
0
  6
CONTINUOUS
 62
   218
 10
-45.6707172471908
 20
-52.525215389594
 30
0.0
 11
-45.1707172472023
 21
-52.5252077601995
 31
0.0
  0
LINE
  5
   3A3
  8
0
  6
CONTINUOUS
 62
   218
 10
24.3292751312256
 20
-62.0251977484233
 30
0.0
 11
23.8292827606201
 21
-62.0251977484233
 31
0.0
  0
LINE
  5
   3A4
  8
0
  6
CONTINUOUS
 62
   218
 10
23.8292827606201
 20
-62.5251948874006
 30
0.0
 11
23.8292827606201
 21
-62.0251948874006
 31
0.0
  0
LINE
  5
   3A5
  8
0
  6
CONTINUOUS
 62
   218
 10
24.3292751312256
 20
-32.5252001326093
 30
0.0
 11
23.8292751312256
 21
-32.5252001326093
 31
0.0
  0
LINE
  5
   3A6
  8
0
  6
CONTINUOUS
 62
   218
 10
24.3292749100809
 20
-32.0252001326093
 30
0.0
 11
23.8292751312256
 21
-32.0252001326093
 31
0.0
  0
LINE
  5
   3A7
  8
0
  6
CONTINUOUS
 62
   218
 10
23.8292751312256
 20
-32.5252001326093
 30
0.0
 11
23.8292751312256
 21
-32.0252001326093
 31
0.0
  0
LINE
  5
   3A8
  8
0
  6
CONTINUOUS
 62
   218
 10
-45.6707172471908
 20
-32.0252153872075
 30
0.0
 11
-45.1707172472022
 21
-32.025207757813
 31
0.0
  0
LINE
  5
   3A9
  8
0
  6
CONTINUOUS
 62
   218
 10
24.3292751312256
 20
-42.0252001326093
 30
0.0
 11
23.8292751312256
 21
-42.0252001326093
 31
0.0
  0
LINE
  5
   3AA
  8
0
  6
CONTINUOUS
 62
     1
 10
-21.1707248687744
 20
-42.0252001326093
 30
0.0
 11
-45.1707172393798
 21
-42.0252001326093
 31
0.0
  0
LINE
  5
   3AB
  8
0
  6
CONTINUOUS
 62
   218
 10
24.3292751312256
 20
-41.5252001326093
 30
0.0
 11
23.8292751312256
 21
-41.5252001326093
 31
0.0
  0
LINE
  5
   3AC
  8
0
  6
CONTINUOUS
 62
     1
 10
-21.1707248687744
 20
-41.5252001326093
 30
0.0
 11
-45.1707172393798
 21
-41.5252001326093
 31
0.0
  0
LINE
  5
   3AD
  8
0
  6
CONTINUOUS
 62
   218
 10
23.8292751312256
 20
-42.0252001326093
 30
0.0
 11
23.8292751312256
 21
-41.5252001326093
 31
0.0
  0
LINE
  5
   3AE
  8
0
  6
CONTINUOUS
 62
     7
 10
-45.170709609985
 20
-62.5252003008394
 30
0.0
 11
-45.170709609985
 21
-62.0252003373894
 31
0.0
  0
LINE
  5
   3AF
  8
0
  6
CONTINUOUS
 62
     7
 10
-45.1707172393798
 20
-42.0252077620039
 30
0.0
 11
-45.1707172393798
 21
-41.5252001326093
 31
0.0
  0
LINE
  5
   3B0
  8
0
  6
CONTINUOUS
 62
     7
 10
-45.1707172393798
 20
-32.5252077620039
 30
0.0
 11
-45.1707172393798
 21
-32.0252001326093
 31
0.0
  0
ARC
  5
   3B1
  8
0
  6
CONTINUOUS
 62
     7
 10
-45.4207172393799
 20
-14.7752192337363
 30
0.0
 40
0.25
 50
90.0000062832808
 51
179.999999948034
  0
ARC
  5
   3B2
  8
0
  6
CONTINUOUS
 62
     7
 10
24.0792672806883
 20
-14.7752115490599
 30
0.0
 40
0.25
 50
360.000025289036
 51
450.000006283281
  0
ARC
  5
   3B3
  8
0
  6
CONTINUOUS
 62
     7
 10
24.0792750941901
 20
-66.7752001326088
 30
0.0
 40
0.25
 50
269.999999948034
 51
360.000008436035
  0
ARC
  5
   3B4
  8
0
  6
CONTINUOUS
 62
     7
 10
-45.4207096470216
 20
-66.7752001326089
 30
0.0
 40
0.25
 50
180.000008436035
 51
269.999999948034
  0
LINE
  5
   3B5
  8
0
  6
CONTINUOUS
 62
     1
 10
-22.5457248687744
 20
-62.0251986395535
 30
0.0
 11
-22.5457248687744
 21
-53.0252001326093
 31
0.0
  0
LINE
  5
   3B6
  8
0
  6
CONTINUOUS
 62
     1
 10
1.20427513122561
 20
-62.0251968572936
 30
0.0
 11
1.20427513122561
 21
-53.0252001326093
 31
0.0
  0
LINE
  5
   3B7
  8
0
  6
CONTINUOUS
 62
     1
 10
-22.5457248687744
 20
-41.5252001326093
 30
0.0
 11
-22.5457248687744
 21
-32.5252001326093
 31
0.0
  0
LINE
  5
   3B8
  8
0
  6
CONTINUOUS
 62
     1
 10
1.20427513122561
 20
-41.5252001326093
 30
0.0
 11
1.20427513122561
 21
-32.5252001326093
 31
0.0
  0
LINE
  5
   3B9
  8
0
  6
CONTINUOUS
 62
     1
 10
-27.0457248687744
 20
-34.7752001326093
 30
0.0
 11
-27.7957248687744
 21
-34.7752001326093
 31
0.0
  0
LINE
  5
   3BA
  8
0
  6
CONTINUOUS
 62
     1
 10
-27.0457248687744
 20
-39.2752001326093
 30
0.0
 11
-27.7957248687744
 21
-39.2752001326093
 31
0.0
  0
LINE
  5
   3BB
  8
0
  6
CONTINUOUS
 62
     1
 10
-27.7957248687744
 20
-39.2752001326093
 30
0.0
 11
-27.7957248687744
 21
-34.7752001326093
 31
0.0
  0
LINE
  5
   3BC
  8
0
  6
CONTINUOUS
 62
     1
 10
-27.0457248687744
 20
-39.2752001326093
 30
0.0
 11
-27.0457248687744
 21
-34.7752001326094
 31
0.0
  0
CIRCLE
  5
   3BD
  8
0
  6
CONTINUOUS
 62
     1
 10
-27.4207248687744
 20
-57.5252001326093
 30
0.0
 40
2.25
  0
CIRCLE
  5
   3BE
  8
0
  6
CONTINUOUS
 62
     1
 10
-27.4207248687744
 20
-57.5252001326093
 30
0.0
 40
1.5
  0
LINE
  5
   3BF
  8
0
  6
CONTINUOUS
 62
     2
 10
-61.9207400248477
 20
-110.75020814347
 30
0.0
 11
-63.0457137396724
 21
-110.75020814347
 31
0.0
  0
LINE
  5
   3C0
  8
0
  6
CONTINUOUS
 62
     2
 10
-61.9207400248477
 20
-111.400208238838
 30
0.0
 11
-61.9207400248477
 21
-110.75020814347
 31
0.0
  0
LINE
  5
   3C1
  8
0
  6
CONTINUOUS
 62
     2
 10
-29.2957476542423
 20
-112.150207761999
 30
0.0
 11
-61.1707400248477
 21
-112.150207761999
 31
0.0
  0
LINE
  5
   3C2
  8
0
  6
CONTINUOUS
 62
     2
 10
5.70425997515227
 20
-112.150207762
 30
0.0
 11
-27.0457400248477
 21
-112.150207762
 31
0.0
  0
LINE
  5
   3C3
  8
0
  6
CONTINUOUS
 62
     2
 10
39.8292523457577
 20
-112.150207762028
 30
0.0
 11
7.95425997515227
 21
-112.150207762028
 31
0.0
  0
LINE
  5
   3C4
  8
0
  6
CONTINUOUS
 62
     2
 10
40.5792523457577
 20
-111.400207762001
 30
0.0
 11
40.5792523457577
 21
-110.75020814347
 31
0.0
  0
LINE
  5
   3C5
  8
0
  6
CONTINUOUS
 62
     2
 10
41.7042862603276
 20
-110.75020814347
 30
0.0
 11
40.5792523457577
 21
-110.75020814347
 31
0.0
  0
LINE
  5
   3C6
  8
0
  6
CONTINUOUS
 62
     1
 10
-58.4207405016849
 20
-100.150215391395
 30
0.0
 11
-61.9207400248477
 21
-100.150215391395
 31
0.0
  0
LINE
  5
   3C7
  8
0
  6
CONTINUOUS
 62
     1
 10
-38.1707400248477
 20
-100.150215391395
 30
0.0
 11
-54.9207476542423
 21
-100.150215391395
 31
0.0
  0
LINE
  5
   3C8
  8
0
  6
CONTINUOUS
 62
     1
 10
-1.42074765424226
 20
-100.150215391395
 30
0.0
 11
-35.6707476542423
 21
-100.150215391395
 31
0.0
  0
LINE
  5
   3C9
  8
0
  6
CONTINUOUS
 62
     1
 10
33.5792468799441
 20
-100.150229625337
 30
0.0
 11
2.07925234575774
 21
-100.150229625337
 31
0.0
  0
LINE
  5
   3CA
  8
0
  6
CONTINUOUS
 62
     1
 10
40.5792556171258
 20
-100.150220295388
 30
0.0
 11
37.0792479884795
 21
-100.150212665997
 31
0.0
  0
LINE
  5
   3CB
  8
0
  6
CONTINUOUS
 62
     1
 10
40.5792447163363
 20
-110.750208431421
 30
0.0
 11
40.5792447163363
 21
-100.150217586695
 31
0.0
  0
LINE
  5
   3CC
  8
0
  6
CONTINUOUS
 62
     1
 10
-60.6707405016849
 20
-98.1502077620008
 30
0.0
 11
-62.2957405016849
 21
-98.1502077620008
 31
0.0
  0
LINE
  5
   3CD
  8
0
  6
CONTINUOUS
 62
     1
 10
-61.9207400248477
 20
-110.75020814347
 30
0.0
 11
-61.9207400248477
 21
-100.150217298744
 31
0.0
  0
LINE
  5
   3CE
  8
0
  6
CONTINUOUS
 62
     1
 10
30.0792566115284
 20
-102.400215678946
 30
0.0
 11
27.3396478474061
 21
-102.400208049554
 31
0.0
  0
LINE
  5
   3CF
  8
0
  6
CONTINUOUS
 62
     1
 10
21.3188577466172
 20
-102.400221800151
 30
0.0
 11
18.5792489824949
 21
-102.400214170759
 31
0.0
  0
LINE
  5
   3D0
  8
0
  6
CONTINUOUS
 62
     1
 10
21.3188611104062
 20
-108.400207762001
 30
0.0
 11
18.5792523457577
 21
-108.400207762001
 31
0.0
  0
LINE
  5
   3D1
  8
0
  6
CONTINUOUS
 62
     1
 10
30.0792523457577
 20
-108.400207762001
 30
0.0
 11
27.3396512105038
 21
-108.400207762001
 31
0.0
  0
LINE
  5
   3D2
  8
0
  6
CONTINUOUS
 62
     1
 10
37.0792523457577
 20
-100.150207762001
 30
0.0
 11
33.5792523457577
 21
-100.150207762001
 31
0.0
  0
LINE
  5
   3D3
  8
0
  6
CONTINUOUS
 62
     1
 10
-35.6707552836368
 20
-100.150207762001
 30
0.0
 11
-38.1707400248477
 21
-100.150207762001
 31
0.0
  0
LINE
  5
   3D4
  8
0
  6
CONTINUOUS
 62
     1
 10
-39.9207433883046
 20
-102.400219103892
 30
0.0
 11
-42.6603521524269
 21
-102.4002114745
 31
0.0
  0
LINE
  5
   3D5
  8
0
  6
CONTINUOUS
 62
     1
 10
-48.6811422531946
 20
-102.400217595702
 30
0.0
 11
-51.4207510179548
 21
-102.40020996631
 31
0.0
  0
LINE
  5
   3D6
  8
0
  6
CONTINUOUS
 62
     1
 10
-48.6811388895938
 20
-108.400207762001
 30
0.0
 11
-51.4207476542423
 21
-108.400207762001
 31
0.0
  0
LINE
  5
   3D7
  8
0
  6
CONTINUOUS
 62
     1
 10
-39.9207476542423
 20
-108.400207762001
 30
0.0
 11
-42.6603487894962
 21
-108.400207762001
 31
0.0
  0
LINE
  5
   3D8
  8
0
  6
CONTINUOUS
 62
     1
 10
-54.9207481310794
 20
-100.150207762001
 30
0.0
 11
-58.4207405016849
 21
-100.150207762001
 31
0.0
  0
LINE
  5
   3D9
  8
0
  6
CONTINUOUS
 62
     1
 10
-4.92074338838809
 20
-102.400217391419
 30
0.0
 11
-7.66035215314828
 21
-102.400209762027
 31
0.0
  0
LINE
  5
   3DA
  8
0
  6
CONTINUOUS
 62
     1
 10
-13.6811422532781
 20
-102.400215883229
 30
0.0
 11
-16.4207510180383
 21
-102.400208253837
 31
0.0
  0
LINE
  5
   3DB
  8
0
  6
CONTINUOUS
 62
     1
 10
-13.6811388895938
 20
-108.400207762001
 30
0.0
 11
-16.4207476542423
 21
-108.400207762001
 31
0.0
  0
LINE
  5
   3DC
  8
0
  6
CONTINUOUS
 62
     1
 10
-4.92074765424226
 20
-108.400207762001
 30
0.0
 11
-7.66034878949617
 21
-108.400207762001
 31
0.0
  0
LINE
  5
   3DD
  8
0
  6
CONTINUOUS
 62
     1
 10
2.07925234575774
 20
-100.150207762001
 30
0.0
 11
-1.42074765424226
 21
-100.150207762001
 31
0.0
  0
LINE
  5
   3DE
  8
0
  6
CONTINUOUS
 62
     2
 10
8.57925997515226
 20
-110.900207762001
 30
0.0
 11
8.57925997515226
 21
-108.650207762001
 31
0.0
  0
LINE
  5
   3DF
  8
0
  6
CONTINUOUS
 62
     2
 10
8.57925997515227
 20
-110.900207762001
 30
0.0
 11
7.95425997515227
 21
-110.900207762001
 31
0.0
  0
LINE
  5
   3E0
  8
0
  6
CONTINUOUS
 62
     2
 10
7.95425997515226
 20
-112.150207762009
 30
0.0
 11
7.95425997515226
 21
-110.900207762009
 31
0.0
  0
LINE
  5
   3E1
  8
0
  6
CONTINUOUS
 62
     2
 10
5.70425997515226
 20
-112.150207762
 30
0.0
 11
5.70425997515226
 21
-110.900207762
 31
0.0
  0
LINE
  5
   3E2
  8
0
  6
CONTINUOUS
 62
     2
 10
5.70425997515227
 20
-110.900207762001
 30
0.0
 11
5.07925997515227
 21
-110.900207762001
 31
0.0
  0
LINE
  5
   3E3
  8
0
  6
CONTINUOUS
 62
     2
 10
5.07925997515226
 20
-110.900207762001
 30
0.0
 11
5.07925997515226
 21
-108.650207762001
 31
0.0
  0
LINE
  5
   3E4
  8
0
  6
CONTINUOUS
 62
     2
 10
8.57925997515227
 20
-108.650207762001
 30
0.0
 11
5.07925997515227
 21
-108.650207762001
 31
0.0
  0
LINE
  5
   3E5
  8
0
  6
CONTINUOUS
 62
     2
 10
-29.9207476542423
 20
-110.900207762001
 30
0.0
 11
-29.9207476542423
 21
-108.650207762001
 31
0.0
  0
LINE
  5
   3E6
  8
0
  6
CONTINUOUS
 62
     2
 10
-29.2957476542423
 20
-110.900207762001
 30
0.0
 11
-29.9207476542423
 21
-110.900207762001
 31
0.0
  0
LINE
  5
   3E7
  8
0
  6
CONTINUOUS
 62
     2
 10
-29.2957476542423
 20
-112.150207762009
 30
0.0
 11
-29.2957476542423
 21
-110.900207762009
 31
0.0
  0
LINE
  5
   3E8
  8
0
  6
CONTINUOUS
 62
     2
 10
-27.0457476542423
 20
-112.150207762
 30
0.0
 11
-27.0457476542423
 21
-110.900207762
 31
0.0
  0
LINE
  5
   3E9
  8
0
  6
CONTINUOUS
 62
     2
 10
-26.4207476542423
 20
-110.900207762001
 30
0.0
 11
-27.0457476542423
 21
-110.900207762001
 31
0.0
  0
LINE
  5
   3EA
  8
0
  6
CONTINUOUS
 62
     2
 10
-26.4207476542423
 20
-110.900207762001
 30
0.0
 11
-26.4207476542423
 21
-108.650207762001
 31
0.0
  0
LINE
  5
   3EB
  8
0
  6
CONTINUOUS
 62
     2
 10
-26.4207476542423
 20
-108.650207762001
 30
0.0
 11
-29.9207476542423
 21
-108.650207762001
 31
0.0
  0
ARC
  5
   3EC
  8
0
  6
CONTINUOUS
 62
     2
 10
-61.1707424756275
 20
-111.400209132795
 30
0.0
 40
0.749997974207768
 50
179.999941123702
 51
270.000103159103
  0
CIRCLE
  5
   3ED
  8
0
  6
CONTINUOUS
 62
     1
 10
-59.9207411321818
 20
-110.150208474771
 30
0.0
 40
0.700000571742353
  0
ARC
  5
   3EE
  8
0
  6
CONTINUOUS
 62
     1
 10
-51.4207564893598
 20
-105.400214409026
 30
0.0
 40
2.99999717282428
 50
90.0001399327154
 51
270.000100332566
  0
ARC
  5
   3EF
  8
0
  6
CONTINUOUS
 62
     1
 10
-45.6707526743798
 20
-105.400161889819
 30
0.0
 40
4.25004659666948
 50
404.899302393594
 51
495.100813987516
  0
ARC
  5
   3F0
  8
0
  6
CONTINUOUS
 62
     1
 10
-39.92074557207
 20
-105.400211362032
 30
0.0
 40
2.99999304693031
 50
269.999747131106
 51
450.000048027357
  0
CIRCLE
  5
   3F1
  8
0
  6
CONTINUOUS
 62
     1
 10
-28.1707411259214
 20
-104.40018983603
 30
0.0
 40
2.62498613468348
  0
CIRCLE
  5
   3F2
  8
0
  6
CONTINUOUS
 62
     1
 10
-28.1707549195012
 20
-104.400223220966
 30
0.0
 40
1.37501058116071
  0
ARC
  5
   3F3
  8
0
  6
CONTINUOUS
 62
     1
 10
-16.4207905756212
 20
-105.400237404802
 30
0.0
 40
2.99995440277177
 50
449.999680793011
 51
630.000858183329
  0
ARC
  5
   3F4
  8
0
  6
CONTINUOUS
 62
     1
 10
-10.6707248687744
 20
-105.400200472105
 30
0.0
 40
4.24999539339322
 50
404.900757179708
 51
495.099359217673
  0
ARC
  5
   3F5
  8
0
  6
CONTINUOUS
 62
     1
 10
-4.9207466393039
 20
-105.400210676661
 30
0.0
 40
2.99999476675888
 50
269.999783457987
 51
450.000092622467
  0
CIRCLE
  5
   3F6
  8
0
  6
CONTINUOUS
 62
     1
 10
6.82930906379227
 20
-104.400280849387
 30
0.0
 40
2.6250798519489
  0
CIRCLE
  5
   3F7
  8
0
  6
CONTINUOUS
 62
     1
 10
6.82923111535132
 20
-104.400180539246
 30
0.0
 40
1.37496900326851
  0
ARC
  5
   3F8
  8
0
  6
CONTINUOUS
 62
     1
 10
18.5792338349313
 20
-105.400209201057
 30
0.0
 40
2.9999904527241
 50
90.0003609959681
 51
270.000490903722
  0
ARC
  5
   3F9
  8
0
  6
CONTINUOUS
 62
     1
 10
30.0791822471382
 20
-105.400198294679
 30
0.0
 40
3.00005899423791
 50
270.001034630644
 51
449.998799421533
  0
ARC
  5
   3FA
  8
0
  6
CONTINUOUS
 62
     1
 10
24.3292138136767
 20
-105.400231684541
 30
0.0
 40
4.25000561981434
 50
404.901246442185
 51
495.09901516511
  0
CIRCLE
  5
   3FB
  8
0
  6
CONTINUOUS
 62
     1
 10
38.5792520867298
 20
-110.150211516448
 30
0.0
 40
0.69999819897844
  0
ARC
  5
   3FC
  8
0
  6
CONTINUOUS
 62
     1
 10
24.3292138136767
 20
-105.400231684541
 30
0.0
 40
4.25000561981434
 50
224.900341297451
 51
315.099658598617
  0
ARC
  5
   3FD
  8
0
  6
CONTINUOUS
 62
     1
 10
-10.6707248687744
 20
-105.400200472105
 30
0.0
 40
4.24999539339322
 50
224.901072739214
 51
315.098927156855
  0
ARC
  5
   3FE
  8
0
  6
CONTINUOUS
 62
     1
 10
-45.6707526743798
 20
-105.400161889819
 30
0.0
 40
4.25004659666948
 50
224.901119153159
 51
315.09888074291
  0
LINE
  5
   3FF
  8
0
  6
DASHDOT
 62
     2
 10
-45.6707526743798
 20
-113.970330426855
 30
0.0
 11
-45.6707526743798
 21
-76.1213787661666
 31
0.0
  0
LINE
  5
   400
  8
0
  6
DASHDOT
 62
     2
 10
-39.9207060777103
 20
-105.400161889819
 30
0.0
 11
-51.4207992710493
 21
-105.400161889819
 31
0.0
  0
LINE
  5
   401
  8
0
  6
DASHDOT
 62
     2
 10
-39.92074557207
 20
-109.900204408962
 30
0.0
 11
-39.92074557207
 21
-100.900218315102
 31
0.0
  0
LINE
  5
   402
  8
0
  6
DASHDOT
 62
     2
 10
-35.4207525251397
 20
-105.400211362032
 30
0.0
 11
-44.4207386190003
 21
-105.400211362032
 31
0.0
  0
LINE
  5
   403
  8
0
  6
DASHDOT
 62
     2
 10
-51.4207564893599
 20
-109.900211581851
 30
0.0
 11
-51.4207564893599
 21
-100.900217236202
 31
0.0
  0
LINE
  5
   404
  8
0
  6
DASHDOT
 62
     2
 10
-46.9207593165356
 20
-105.400214409026
 30
0.0
 11
-55.9207536621841
 21
-105.400214409026
 31
0.0
  0
LINE
  5
   405
  8
0
  6
DASHDOT
 62
     2
 10
-23.5589252045763
 20
-104.40018983603
 30
0.0
 11
-32.2957272606048
 21
-104.40018983603
 31
0.0
  0
LINE
  5
   406
  8
0
  6
DASHDOT
 62
     2
 10
-16.4207905756212
 20
-109.900191807574
 30
0.0
 11
-16.4207905756212
 21
-100.90028300203
 31
0.0
  0
LINE
  5
   407
  8
0
  6
DASHDOT
 62
     2
 10
-11.9208361728494
 20
-105.400237404802
 30
0.0
 11
-20.9207449783929
 21
-105.400237404802
 31
0.0
  0
LINE
  5
   408
  8
0
  6
DASHDOT
 62
     2
 10
-4.92072947538116
 20
-105.400200472105
 30
0.0
 11
-16.4207202621676
 21
-105.400200472105
 31
0.0
  0
LINE
  5
   409
  8
0
  6
DASHDOT
 62
     2
 10
-4.9207466393039
 20
-109.90020544342
 30
0.0
 11
-4.9207466393039
 21
-100.900215909903
 31
0.0
  0
LINE
  5
   40A
  8
0
  6
DASHDOT
 62
     2
 10
-0.420751872545026
 20
-105.400210676661
 30
0.0
 11
-9.42074140606277
 21
-105.400210676661
 31
0.0
  0
LINE
  5
   40B
  8
0
  6
DASHDOT
 62
     2
 10
6.82930906379226
 20
-108.525360701336
 30
0.0
 11
6.82930906379226
 21
-100.275200997438
 31
0.0
  0
LINE
  5
   40C
  8
0
  6
DASHDOT
 62
     2
 10
18.5792338349313
 20
-109.900199653781
 30
0.0
 11
18.5792338349313
 21
-100.900218748333
 31
0.0
  0
LINE
  5
   40D
  8
0
  6
DASHDOT
 62
     2
 10
23.0792242876554
 20
-105.400209201057
 30
0.0
 11
14.0792433822072
 21
-105.400209201057
 31
0.0
  0
LINE
  5
   40E
  8
0
  6
DASHDOT
 62
     2
 10
24.3292138136767
 20
-114.382628375228
 30
0.0
 11
24.3292138136767
 21
-76.8222852784016
 31
0.0
  0
LINE
  5
   40F
  8
0
  6
DASHDOT
 62
     2
 10
30.079219433491
 20
-105.400231684541
 30
0.0
 11
18.5792081938623
 21
-105.400231684541
 31
0.0
  0
LINE
  5
   410
  8
0
  6
DASHDOT
 62
     2
 10
30.0791822471382
 20
-109.900257288917
 30
0.0
 11
30.0791822471382
 21
-100.900139300442
 31
0.0
  0
LINE
  5
   411
  8
0
  6
DASHDOT
 62
     2
 10
34.5792412413761
 20
-105.400198294679
 30
0.0
 11
25.5791232529003
 21
-105.400198294679
 31
0.0
  0
LINE
  5
   412
  8
0
  6
DASHDOT
 62
     2
 10
38.5792520867298
 20
-112.350209715427
 30
0.0
 11
38.5792520867298
 21
-107.95021331747
 31
0.0
  0
LINE
  5
   413
  8
0
  6
DASHDOT
 62
     2
 10
-59.9207411321818
 20
-112.350209046514
 30
0.0
 11
-59.9207411321818
 21
-107.950207903029
 31
0.0
  0
LINE
  5
   414
  8
0
  6
DASHDOT
 62
     2
 10
-57.7207405604394
 20
-110.150208474771
 30
0.0
 11
-62.1207417039242
 21
-110.150208474771
 31
0.0
  0
ARC
  5
   415
  8
0
  6
CONTINUOUS
 62
     2
 10
39.8292310168482
 20
-111.400214290753
 30
0.0
 40
0.750008403603322
 50
270.001088208967
 51
360.000070595423
  0
LINE
  5
   416
  8
0
  6
DASHDOT
 62
     2
 10
-59.1707248687744
 20
-98.6250389281604
 30
0.0
 11
-59.1707248687744
 21
-77.3144891070704
 31
0.0
  0
LINE
  5
   417
  8
0
  6
DASHDOT
 62
     2
 10
-12.1312222220652
 20
-104.40018983603
 30
0.0
 11
-21.2098973692823
 21
-104.40018983603
 31
0.0
  0
LINE
  5
   418
  8
0
  6
DASHDOT
 62
     2
 10
11.2320816532906
 20
-104.40018983603
 30
0.0
 11
-9.35894612815978
 21
-104.40018983603
 31
0.0
  0
LINE
  5
   419
  8
0
  6
CONTINUOUS
 62
     1
 10
40.8292523457577
 20
-98.1502153913953
 30
0.0
 11
40.8292523457577
 21
-78.4002153913953
 31
0.0
  0
LINE
  5
   41A
  8
0
  6
CONTINUOUS
 62
     1
 10
-45.6707248687744
 20
-98.1502077620041
 30
0.0
 11
-45.6707248687744
 21
-81.0252144377237
 31
0.0
  0
LINE
  5
   41B
  8
0
  6
CONTINUOUS
 62
     1
 10
24.3292751312256
 20
-98.1502077620041
 30
0.0
 11
24.3292751312256
 21
-81.0252144377237
 31
0.0
  0
LINE
  5
   41C
  8
0
  6
CONTINUOUS
 62
     1
 10
-62.1707137396724
 20
-98.1502077620008
 30
0.0
 11
-62.1707137396724
 21
-78.4002077620041
 31
0.0
  0
LINE
  5
   41D
  8
0
  6
CONTINUOUS
 62
     1
 10
7.22927513122559
 20
-55.6002001326093
 30
0.0
 11
7.00427513122559
 21
-55.6002001326093
 31
0.0
  0
LINE
  5
   41E
  8
0
  6
CONTINUOUS
 62
     1
 10
6.75427513122559
 20
-59.4502001326093
 30
0.0
 11
6.35427513122559
 21
-59.4502001326093
 31
0.0
  0
LINE
  5
   41F
  8
0
  6
CONTINUOUS
 62
     1
 10
3.1542751312256
 20
-58.1502001326093
 30
0.0
 11
3.1542751312256
 21
-57.9002001326093
 31
0.0
  0
LINE
  5
   420
  8
0
  6
CONTINUOUS
 62
     1
 10
5.7542751312256
 20
-58.1502001326093
 30
0.0
 11
5.7542751312256
 21
-57.9002001326093
 31
0.0
  0
ARC
  5
   421
  8
0
  6
CONTINUOUS
 62
     1
 10
4.4542751312256
 20
-57.9002001326093
 30
0.0
 40
1.3
 50
359.999999948034
 51
539.999999948034
  0
ARC
  5
   422
  8
0
  6
CONTINUOUS
 62
     1
 10
4.4542751312256
 20
-58.1502001326093
 30
0.0
 40
1.3
 50
179.999999948034
 51
359.999999948034
  0
ARC
  5
   423
  8
0
  6
CONTINUOUS
 62
     1
 10
4.4542751312256
 20
-57.9002001326093
 30
0.0
 40
0.900000000000001
 50
359.999999948034
 51
539.999999948034
  0
ARC
  5
   424
  8
0
  6
CONTINUOUS
 62
     1
 10
4.4542751312256
 20
-58.1502001326093
 30
0.0
 40
0.899999999999999
 50
179.999999948034
 51
359.999999948034
  0
LINE
  5
   425
  8
0
  6
CONTINUOUS
 62
     1
 10
3.5542751312256
 20
-58.1502001326093
 30
0.0
 11
3.5542751312256
 21
-57.9002001326093
 31
0.0
  0
LINE
  5
   426
  8
0
  6
CONTINUOUS
 62
     1
 10
5.3542751312256
 20
-58.1502001326093
 30
0.0
 11
5.3542751312256
 21
-57.9002001326093
 31
0.0
  0
LINE
  5
   427
  8
0
  6
CONTINUOUS
 62
     1
 10
5.87927513122559
 20
-57.2002001326093
 30
0.0
 11
5.87927513122559
 21
-56.8002001326093
 31
0.0
  0
LINE
  5
   428
  8
0
  6
CONTINUOUS
 62
     1
 10
6.35427513122559
 20
-57.2002001326093
 30
0.0
 11
5.87927513122559
 21
-57.2002001326093
 31
0.0
  0
LINE
  5
   429
  8
0
  6
CONTINUOUS
 62
     1
 10
7.22927513122559
 20
-57.2002001326093
 30
0.0
 11
7.22927513122559
 21
-56.8002001326093
 31
0.0
  0
LINE
  5
   42A
  8
0
  6
CONTINUOUS
 62
     1
 10
6.35427513122559
 20
-56.8002001326093
 30
0.0
 11
5.87927513122559
 21
-56.8002001326093
 31
0.0
  0
LINE
  5
   42B
  8
0
  6
CONTINUOUS
 62
     1
 10
6.35427513122559
 20
-59.4502001326093
 30
0.0
 11
6.35427513122559
 21
-57.2002001326093
 31
0.0
  0
LINE
  5
   42C
  8
0
  6
CONTINUOUS
 62
     1
 10
6.75427513122559
 20
-59.4502001326093
 30
0.0
 11
6.75427513122559
 21
-57.2002001326093
 31
0.0
  0
LINE
  5
   42D
  8
0
  6
CONTINUOUS
 62
     1
 10
7.22927513122559
 20
-57.2002001326093
 30
0.0
 11
6.75427513122559
 21
-57.2002001326093
 31
0.0
  0
LINE
  5
   42E
  8
0
  6
CONTINUOUS
 62
     1
 10
7.22927513122559
 20
-56.8002001326093
 30
0.0
 11
6.75427513122559
 21
-56.8002001326093
 31
0.0
  0
LINE
  5
   42F
  8
0
  6
CONTINUOUS
 62
     1
 10
6.35427513122559
 20
-56.8002001326093
 30
0.0
 11
6.35427513122559
 21
-56.2502001326093
 31
0.0
  0
LINE
  5
   430
  8
0
  6
CONTINUOUS
 62
     1
 10
6.75427513122559
 20
-56.8002001326093
 30
0.0
 11
6.75427513122559
 21
-56.2502001326093
 31
0.0
  0
ARC
  5
   431
  8
0
  6
CONTINUOUS
 62
     1
 10
7.00427513122559
 20
-56.2502001326093
 30
0.0
 40
0.65
 50
449.999999948034
 51
539.999999948034
  0
ARC
  5
   432
  8
0
  6
CONTINUOUS
 62
     1
 10
7.00427513122559
 20
-56.2502001326093
 30
0.0
 40
0.25
 50
449.999999948034
 51
539.999999948034
  0
LINE
  5
   433
  8
0
  6
CONTINUOUS
 62
     1
 10
7.22927513122559
 20
-56.0002001326093
 30
0.0
 11
7.22927513122559
 21
-55.6002001326093
 31
0.0
  0
LINE
  5
   434
  8
0
  6
CONTINUOUS
 62
     1
 10
7.22927513122559
 20
-56.0002001326093
 30
0.0
 11
7.00427513122559
 21
-56.0002001326093
 31
0.0
  0
LINE
  5
   435
  8
0
  6
CONTINUOUS
 62
     1
 10
8.82927513122559
 20
-55.6002001326093
 30
0.0
 11
8.60427513122559
 21
-55.6002001326093
 31
0.0
  0
LINE
  5
   436
  8
0
  6
CONTINUOUS
 62
     1
 10
8.35427513122559
 20
-59.4502001326093
 30
0.0
 11
7.95427513122559
 21
-59.4502001326093
 31
0.0
  0
LINE
  5
   437
  8
0
  6
CONTINUOUS
 62
     1
 10
7.47927513122559
 20
-57.2002001326093
 30
0.0
 11
7.47927513122559
 21
-56.8002001326093
 31
0.0
  0
LINE
  5
   438
  8
0
  6
CONTINUOUS
 62
     1
 10
7.95427513122559
 20
-57.2002001326093
 30
0.0
 11
7.47927513122559
 21
-57.2002001326093
 31
0.0
  0
LINE
  5
   439
  8
0
  6
CONTINUOUS
 62
     1
 10
8.82927513122559
 20
-57.2002001326093
 30
0.0
 11
8.82927513122559
 21
-56.8002001326093
 31
0.0
  0
LINE
  5
   43A
  8
0
  6
CONTINUOUS
 62
     1
 10
7.95427513122559
 20
-56.8002001326093
 30
0.0
 11
7.47927513122559
 21
-56.8002001326093
 31
0.0
  0
LINE
  5
   43B
  8
0
  6
CONTINUOUS
 62
     1
 10
7.95427513122559
 20
-59.4502001326093
 30
0.0
 11
7.95427513122559
 21
-57.2002001326093
 31
0.0
  0
LINE
  5
   43C
  8
0
  6
CONTINUOUS
 62
     1
 10
8.35427513122559
 20
-59.4502001326093
 30
0.0
 11
8.35427513122559
 21
-57.2002001326093
 31
0.0
  0
LINE
  5
   43D
  8
0
  6
CONTINUOUS
 62
     1
 10
8.82927513122559
 20
-57.2002001326093
 30
0.0
 11
8.35427513122559
 21
-57.2002001326093
 31
0.0
  0
LINE
  5
   43E
  8
0
  6
CONTINUOUS
 62
     1
 10
8.82927513122559
 20
-56.8002001326093
 30
0.0
 11
8.35427513122559
 21
-56.8002001326093
 31
0.0
  0
LINE
  5
   43F
  8
0
  6
CONTINUOUS
 62
     1
 10
7.95427513122559
 20
-56.8002001326093
 30
0.0
 11
7.95427513122559
 21
-56.2502001326093
 31
0.0
  0
LINE
  5
   440
  8
0
  6
CONTINUOUS
 62
     1
 10
8.35427513122559
 20
-56.8002001326093
 30
0.0
 11
8.35427513122559
 21
-56.2502001326093
 31
0.0
  0
ARC
  5
   441
  8
0
  6
CONTINUOUS
 62
     1
 10
8.60427513122559
 20
-56.2502001326093
 30
0.0
 40
0.65
 50
449.999999948034
 51
539.999999948034
  0
ARC
  5
   442
  8
0
  6
CONTINUOUS
 62
     1
 10
8.60427513122559
 20
-56.2502001326093
 30
0.0
 40
0.25
 50
449.999999948034
 51
539.999999948034
  0
LINE
  5
   443
  8
0
  6
CONTINUOUS
 62
     1
 10
8.82927513122559
 20
-56.0002001326093
 30
0.0
 11
8.82927513122559
 21
-55.6002001326093
 31
0.0
  0
LINE
  5
   444
  8
0
  6
CONTINUOUS
 62
     1
 10
8.82927513122559
 20
-56.0002001326093
 30
0.0
 11
8.60427513122559
 21
-56.0002001326093
 31
0.0
  0
LINE
  5
   445
  8
0
  6
CONTINUOUS
 62
     1
 10
6.55427513122559
 20
-38.4502001326093
 30
0.0
 11
6.1542751312256
 21
-38.4502001326093
 31
0.0
  0
ARC
  5
   446
  8
0
  6
CONTINUOUS
 62
     1
 10
4.4542751312256
 20
-36.9002001326093
 30
0.0
 40
1.3
 50
359.999999948034
 51
539.999999948034
  0
ARC
  5
   447
  8
0
  6
CONTINUOUS
 62
     1
 10
4.4542751312256
 20
-36.9002001326093
 30
0.0
 40
0.900000000000001
 50
359.999999948034
 51
539.999999948034
  0
ARC
  5
   448
  8
0
  6
CONTINUOUS
 62
     1
 10
4.4542751312256
 20
-37.1502001326093
 30
0.0
 40
1.3
 50
179.999999948034
 51
359.999999948034
  0
ARC
  5
   449
  8
0
  6
CONTINUOUS
 62
     1
 10
4.4542751312256
 20
-37.1502001326093
 30
0.0
 40
0.899999999999999
 50
179.999999948034
 51
359.999999948034
  0
LINE
  5
   44A
  8
0
  6
CONTINUOUS
 62
     1
 10
5.3542751312256
 20
-37.1502001326093
 30
0.0
 11
5.3542751312256
 21
-36.9002001326093
 31
0.0
  0
LINE
  5
   44B
  8
0
  6
CONTINUOUS
 62
     1
 10
5.7542751312256
 20
-37.1502001326093
 30
0.0
 11
5.7542751312256
 21
-36.9002001326093
 31
0.0
  0
LINE
  5
   44C
  8
0
  6
CONTINUOUS
 62
     1
 10
3.5542751312256
 20
-37.1502001326093
 30
0.0
 11
3.5542751312256
 21
-36.9002001326093
 31
0.0
  0
LINE
  5
   44D
  8
0
  6
CONTINUOUS
 62
     1
 10
3.1542751312256
 20
-37.1502001326093
 30
0.0
 11
3.1542751312256
 21
-36.9002001326093
 31
0.0
  0
LINE
  5
   44E
  8
0
  6
CONTINUOUS
 62
     1
 10
6.1542751312256
 20
-38.4502001326093
 30
0.0
 11
6.1542751312256
 21
-35.6002001326093
 31
0.0
  0
LINE
  5
   44F
  8
0
  6
CONTINUOUS
 62
     1
 10
6.55427513122559
 20
-38.4502001326093
 30
0.0
 11
6.55427513122559
 21
-36.7002001326093
 31
0.0
  0
LINE
  5
   450
  8
0
  6
CONTINUOUS
 62
     1
 10
7.95427513122559
 20
-38.4502001326093
 30
0.0
 11
7.95427513122559
 21
-36.7002001326093
 31
0.0
  0
LINE
  5
   451
  8
0
  6
CONTINUOUS
 62
     1
 10
8.35427513122559
 20
-38.4502001326093
 30
0.0
 11
8.35427513122559
 21
-36.6002001326093
 31
0.0
  0
LINE
  5
   452
  8
0
  6
CONTINUOUS
 62
     1
 10
6.55427513122559
 20
-35.6002001326093
 30
0.0
 11
6.1542751312256
 21
-35.6002001326093
 31
0.0
  0
ARC
  5
   453
  8
0
  6
CONTINUOUS
 62
     1
 10
7.25427513122559
 20
-36.7002001326093
 30
0.0
 40
0.699999999999999
 50
359.999999948034
 51
539.999999948034
  0
LINE
  5
   454
  8
0
  6
CONTINUOUS
 62
     1
 10
6.55427513122559
 20
-36.0002001326093
 30
0.0
 11
6.55427513122559
 21
-35.6002001326093
 31
0.0
  0
ARC
  5
   455
  8
0
  6
CONTINUOUS
 62
     1
 10
7.35427513122559
 20
-36.6002001326093
 30
0.0
 40
1.0
 50
359.999999948034
 51
503.13010230219
  0
LINE
  5
   456
  8
0
  6
CONTINUOUS
 62
     1
 10
8.35427513122559
 20
-38.4502001326093
 30
0.0
 11
7.95427513122559
 21
-38.4502001326093
 31
0.0
  0
LINE
  5
   457
  8
0
  6
CONTINUOUS
 62
     7
 10
-0.170724868774389
 20
-55.8889789630499
 30
0.0
 11
-21.1707248687744
 21
-55.8889789630499
 31
0.0
  0
LINE
  5
   458
  8
0
  6
CONTINUOUS
 62
     7
 10
-0.170724868774389
 20
-51.7787250385788
 30
0.0
 11
-21.1707248687744
 21
-51.7787250385788
 31
0.0
  0
LINE
  5
   459
  8
0
  6
CONTINUOUS
 62
     7
 10
-0.170724868774389
 20
-60.2082045071025
 30
0.0
 11
-21.1707248687744
 21
-60.2082045071025
 31
0.0
  0
LINE
  5
   45A
  8
0
  6
CONTINUOUS
 62
     7
 10
-0.170724868774389
 20
-64.9897514669616
 30
0.0
 11
-21.1707248687744
 21
-64.9897514669616
 31
0.0
  0
LINE
  5
   45B
  8
0
  6
CONTINUOUS
 62
     7
 10
-0.170724868774389
 20
-51.7787250385788
 30
0.0
 11
-0.170724868774389
 21
-33.9136126081953
 31
0.0
  0
LINE
  5
   45C
  8
0
  6
CONTINUOUS
 62
     7
 10
-21.1707248687744
 20
-51.7787250385788
 30
0.0
 11
-21.1707248687744
 21
-33.9136126081953
 31
0.0
  0
LINE
  5
   45D
  8
0
  6
CONTINUOUS
 62
     1
 10
-21.1707248687744
 20
-62.0251977484233
 30
0.0
 11
-45.170709609985
 21
-62.0251977484233
 31
0.0
  0
LINE
  5
   45E
  8
0
  6
DASHDOT
 62
     7
 10
24.3292751312256
 20
6.97557770610429
 30
0.0
 11
24.3292751312256
 21
23.5262048376435
 31
0.0
  0
LINE
  5
   45F
  8
0
  6
DASHDOT
 62
     7
 10
-45.6707248687744
 20
8.0099919018255
 30
0.0
 11
-45.6707248687744
 21
25.4226308631323
 31
0.0
  0
LINE
  5
   460
  8
0
  6
CONTINUOUS
 62
     1
 10
-48.6707248687744
 20
-14.5252153913986
 30
0.0
 11
-62.7957137396724
 21
-14.5252153913986
 31
0.0
  0
LINE
  5
   461
  8
0
  6
CONTINUOUS
 62
   218
 10
-45.1707172393798
 20
-32.5252001326093
 30
0.0
 11
-45.6707172393799
 21
-32.5252001326093
 31
0.0
  0
LINE
  5
   462
  8
0
  6
CONTINUOUS
 62
     1
 10
23.8292751312256
 20
-32.0252001326093
 30
0.0
 11
-45.1707172393798
 21
-32.0252001326093
 31
0.0
  0
LINE
  5
   463
  8
0
  6
CONTINUOUS
 62
     1
 10
23.8292751312256
 20
-32.5252001326093
 30
0.0
 11
-45.1707172393798
 21
-32.5252001326093
 31
0.0
  0
LINE
  5
   464
  8
0
  6
CONTINUOUS
 62
     1
 10
23.8292751312256
 20
-41.5252001326093
 30
0.0
 11
-0.17073249816894
 21
-41.5252001326093
 31
0.0
  0
LINE
  5
   465
  8
0
  6
CONTINUOUS
 62
     1
 10
23.8292751312256
 20
-42.0252001326093
 30
0.0
 11
-0.17073249816894
 21
-42.0252001326093
 31
0.0
  0
LINE
  5
   466
  8
0
  6
CONTINUOUS
 62
     1
 10
23.8292827606201
 20
-52.5252001326093
 30
0.0
 11
-0.170732498168938
 21
-52.5252001326093
 31
0.0
  0
LINE
  5
   467
  8
0
  6
CONTINUOUS
 62
     1
 10
23.8292827606201
 20
-53.0252001326093
 30
0.0
 11
-0.170732498168938
 21
-53.0252001326093
 31
0.0
  0
LINE
  5
   468
  8
0
  6
CONTINUOUS
 62
     1
 10
23.8292827606201
 20
-62.0251977484233
 30
0.0
 11
-0.170724868774389
 21
-62.0251977484233
 31
0.0
  0
LINE
  5
   469
  8
0
  6
CONTINUOUS
 62
   218
 10
-45.170709609985
 20
-62.0251977484233
 30
0.0
 11
-45.6707172393798
 21
-62.0251977484233
 31
0.0
  0
LINE
  5
   46A
  8
0
  6
CONTINUOUS
 62
   218
 10
-45.1707172393799
 20
-53.0252001326093
 30
0.0
 11
-45.6707172393799
 21
-53.0252001326093
 31
0.0
  0
LINE
  5
   46B
  8
0
  6
CONTINUOUS
 62
   218
 10
-45.1707172393798
 20
-41.5252001326093
 30
0.0
 11
-45.6707172393799
 21
-41.5252001326093
 31
0.0
  0
LINE
  5
   46C
  8
0
  6
CONTINUOUS
 62
   218
 10
-45.1707172393798
 20
-42.0252001326093
 30
0.0
 11
-45.6707172393799
 21
-42.0252001326093
 31
0.0
  0
LINE
  5
   46D
  8
0
  6
CONTINUOUS
 62
     1
 10
-45.1707172393798
 20
-32.0252001326093
 30
0.0
 11
-45.6189441680908
 21
-32.0252001326093
 31
0.0
  0
LINE
  5
   46E
  8
0
  6
CONTINUOUS
 62
     7
 10
-45.170709609985
 20
-62.5252003008394
 30
0.0
 11
-45.6707096099849
 21
-62.5252003008394
 31
0.0
  0
LINE
  5
   46F
  8
0
  6
CONTINUOUS
 62
     7
 10
24.3292751312252
 20
-62.5252003749112
 30
0.0
 11
23.8292827606201
 21
-62.5251948874006
 31
0.0
  0
LINE
  5
   470
  8
0
  6
CONTINUOUS
 62
     1
 10
40.8292523454564
 20
-98.150215393576
 30
0.0
 11
-62.1707137396724
 21
-98.150215393576
 31
0.0
  0
LINE
  5
   471
  8
0
  6
CONTINUOUS
 62
     7
 10
-26.4207476542423
 20
18.3498079817214
 30
0.0
 11
-29.9207476542423
 21
18.3498079817214
 31
0.0
  0
LINE
  5
   472
  8
0
  6
CONTINUOUS
 62
     7
 10
-29.9207476542423
 20
18.3498079817214
 30
0.0
 11
-29.9207476542423
 21
20.5998079817214
 31
0.0
  0
LINE
  5
   473
  8
0
  6
CONTINUOUS
 62
     7
 10
-29.2957476542423
 20
20.5998079817214
 30
0.0
 11
-29.9207476542423
 21
20.5998079817214
 31
0.0
  0
LINE
  5
   474
  8
0
  6
CONTINUOUS
 62
     7
 10
-29.2957476542423
 20
20.5998079817298
 30
0.0
 11
-29.2957476542423
 21
21.8498079817298
 31
0.0
  0
LINE
  5
   475
  8
0
  6
CONTINUOUS
 62
     7
 10
-27.0457476542423
 20
20.5998079817205
 30
0.0
 11
-27.0457476542423
 21
21.8498079817205
 31
0.0
  0
LINE
  5
   476
  8
0
  6
CONTINUOUS
 62
     7
 10
-26.4207476542423
 20
20.5998079817214
 30
0.0
 11
-27.0457476542423
 21
20.5998079817214
 31
0.0
  0
LINE
  5
   477
  8
0
  6
CONTINUOUS
 62
     7
 10
-26.4207476542423
 20
18.3498079817214
 30
0.0
 11
-26.4207476542423
 21
20.5998079817214
 31
0.0
  0
LINE
  5
   478
  8
0
  6
CONTINUOUS
 62
     7
 10
7.95425997515226
 20
20.5998079817298
 30
0.0
 11
7.95425997515226
 21
21.8498079817298
 31
0.0
  0
LINE
  5
   479
  8
0
  6
CONTINUOUS
 62
     7
 10
8.57925997515227
 20
20.5998079817214
 30
0.0
 11
7.95425997515227
 21
20.5998079817214
 31
0.0
  0
LINE
  5
   47A
  8
0
  6
CONTINUOUS
 62
     7
 10
8.57925997515226
 20
18.3498079817214
 30
0.0
 11
8.57925997515226
 21
20.5998079817214
 31
0.0
  0
LINE
  5
   47B
  8
0
  6
CONTINUOUS
 62
     7
 10
8.57925997515227
 20
18.3498079817214
 30
0.0
 11
5.07925997515227
 21
18.3498079817214
 31
0.0
  0
LINE
  5
   47C
  8
0
  6
CONTINUOUS
 62
     7
 10
5.70425997515227
 20
20.5998079817214
 30
0.0
 11
5.07925997515227
 21
20.5998079817214
 31
0.0
  0
LINE
  5
   47D
  8
0
  6
CONTINUOUS
 62
     7
 10
5.70425997515226
 20
20.5998079817205
 30
0.0
 11
5.70425997515226
 21
21.8498079817205
 31
0.0
  0
LINE
  5
   47E
  8
0
  6
CONTINUOUS
 62
     7
 10
5.07925997515226
 20
18.3498079817214
 30
0.0
 11
5.07925997515226
 21
20.5998079817214
 31
0.0
  0
LINE
  5
   47F
  8
0
  6
CONTINUOUS
 62
     1
 10
23.8292827606201
 20
-62.5251948874006
 30
0.0
 11
-0.170724868774389
 21
-62.5251948874006
 31
0.0
  0
LINE
  5
   480
  8
0
  6
CONTINUOUS
 62
     1
 10
-21.1707248687744
 20
-62.5252003008394
 30
0.0
 11
-45.170709609985
 21
-62.5252003008394
 31
0.0
  0
LINE
  5
   481
  8
0
  6
DASHDOT
 62
     7
 10
6.82915670395741
 20
8.97484191418789
 30
0.0
 11
6.82915670395741
 21
19.2248419141879
 31
0.0
  0
LINE
  5
   482
  8
0
  6
DASHDOT
 62
     7
 10
11.9541567039574
 20
14.0998419141879
 30
0.0
 11
1.70415670395741
 21
14.0998419141879
 31
0.0
  0
CIRCLE
  5
   483
  8
0
  6
CONTINUOUS
 62
     1
 10
-28.1706064415062
 20
14.0998419141879
 30
0.0
 40
2.625
  0
LINE
  5
   484
  8
0
  6
DASHDOT
 62
     7
 10
-28.1706064415062
 20
8.97484191418789
 30
0.0
 11
-28.1706064415062
 21
19.2248419141879
 31
0.0
  0
LINE
  5
   485
  8
0
  6
DASHDOT
 62
     7
 10
-23.0456064415062
 20
14.0998419141879
 30
0.0
 11
-33.2956064415062
 21
14.0998419141879
 31
0.0
  0
LINE
  5
   486
  8
0
  6
DASHDOT
 62
     7
 10
49.4072571671974
 20
-40.7752153913981
 30
0.0
 11
-67.858849806738
 21
-40.7752153913981
 31
0.0
  0
LINE
  5
   487
  8
0
  6
DASHDOT
 62
     7
 10
-87.0350836880936
 20
-40.7752153913981
 30
0.0
 11
-90.7728241903917
 21
-40.7752153913981
 31
0.0
  0
LINE
  5
   488
  8
0
  6
CONTINUOUS
 62
     7
 10
33.3291995085619
 20
-136.400201110892
 30
0.0
 11
15.3292281187914
 21
-136.400201110892
 31
0.0
  0
LINE
  5
   489
  8
0
  6
CONTINUOUS
 62
     7
 10
14.3292281187914
 20
-135.400201110892
 30
0.0
 11
14.3292281187914
 21
-112.150207762028
 31
0.0
  0
LINE
  5
   48A
  8
0
  6
CONTINUOUS
 62
     7
 10
34.3291995085619
 20
-135.400201110892
 30
0.0
 11
34.3291995085619
 21
-112.150207762028
 31
0.0
  0
LINE
  5
   48B
  8
0
  6
CONTINUOUS
 62
     1
 10
34.3291995085619
 20
-118.599946289115
 30
0.0
 11
14.3292281187914
 21
-118.599946289115
 31
0.0
  0
CIRCLE
  5
   48C
  8
0
  6
CONTINUOUS
 62
     7
 10
24.3291700787398
 20
-128.900231740946
 30
0.0
 40
2.75005266444242
  0
LINE
  5
   48D
  8
0
  6
DASHDOT
 62
     2
 10
24.3291700787398
 20
-132.150284405389
 30
0.0
 11
24.3291700787398
 21
-125.650179076504
 31
0.0
  0
LINE
  5
   48E
  8
0
  6
DASHDOT
 62
     2
 10
27.5792227431822
 20
-128.900231740946
 30
0.0
 11
21.0791174142973
 21
-128.900231740946
 31
0.0
  0
LINE
  5
   48F
  8
0
  6
CONTINUOUS
 62
     2
 10
-20.6707718812086
 20
-135.400201110892
 30
0.0
 11
-20.6707718812086
 21
-112.150207762028
 31
0.0
  0
LINE
  5
   490
  8
0
  6
CONTINUOUS
 62
     1
 10
-0.670800491438094
 20
-118.599946289115
 30
0.0
 11
-20.6707718812086
 21
-118.599946289115
 31
0.0
  0
LINE
  5
   491
  8
0
  6
CONTINUOUS
 62
     2
 10
-0.670800491438094
 20
-135.400201110892
 30
0.0
 11
-0.670800491438094
 21
-112.150207762028
 31
0.0
  0
CIRCLE
  5
   492
  8
0
  6
CONTINUOUS
 62
     2
 10
-10.6708299212602
 20
-128.900231740946
 30
0.0
 40
2.75005266444242
  0
LINE
  5
   493
  8
0
  6
CONTINUOUS
 62
     2
 10
-1.67080049143809
 20
-136.400201110892
 30
0.0
 11
-19.6707718812086
 21
-136.400201110892
 31
0.0
  0
LINE
  5
   494
  8
0
  6
CONTINUOUS
 62
     2
 10
-36.6708004914381
 20
-136.400201110892
 30
0.0
 11
-54.6707718812086
 21
-136.400201110892
 31
0.0
  0
LINE
  5
   495
  8
0
  6
CONTINUOUS
 62
     2
 10
-35.6708004914381
 20
-135.400201110892
 30
0.0
 11
-35.6708004914381
 21
-112.150207762028
 31
0.0
  0
LINE
  5
   496
  8
0
  6
CONTINUOUS
 62
     1
 10
-35.6708004914381
 20
-118.599946289115
 30
0.0
 11
-55.6707718812086
 21
-118.599946289115
 31
0.0
  0
LINE
  5
   497
  8
0
  6
CONTINUOUS
 62
     2
 10
-55.6707718812086
 20
-135.400201110892
 30
0.0
 11
-55.6707718812086
 21
-112.150207762028
 31
0.0
  0
CIRCLE
  5
   498
  8
0
  6
CONTINUOUS
 62
     2
 10
-45.6708299212602
 20
-128.900231740946
 30
0.0
 40
2.75005266444242
  0
ARC
  5
   499
  8
0
  6
CONTINUOUS
 62
     7
 10
15.329232866869
 20
-135.400193134253
 30
0.0
 40
1.00000576921498
 50
180.00008433977
 51
269.999863832817
  0
ARC
  5
   49A
  8
0
  6
CONTINUOUS
 62
     7
 10
33.3291844183105
 20
-135.400192896712
 30
0.0
 40
1.00001498232322
 50
270.000959112258
 51
359.999822049471
  0
ARC
  5
   49B
  8
0
  6
CONTINUOUS
 62
     2
 10
-1.67081558168946
 20
-135.400192896712
 30
0.0
 40
1.00001498232322
 50
270.000959112258
 51
359.999822049471
  0
ARC
  5
   49C
  8
0
  6
CONTINUOUS
 62
     2
 10
-36.6708155816895
 20
-135.400192896712
 30
0.0
 40
1.00001498232322
 50
270.000959112258
 51
359.999822049471
  0
ARC
  5
   49D
  8
0
  6
CONTINUOUS
 62
     2
 10
-19.670767133131
 20
-135.400193134253
 30
0.0
 40
1.00000576921498
 50
180.00008433977
 51
269.999863832817
  0
ARC
  5
   49E
  8
0
  6
CONTINUOUS
 62
     2
 10
-54.670767133131
 20
-135.400193134253
 30
0.0
 40
1.00000576921498
 50
180.00008433977
 51
269.999863832817
  0
LINE
  5
   49F
  8
0
  6
DASHDOT
 62
     2
 10
-45.6708299212602
 20
-132.150284405389
 30
0.0
 11
-45.6708299212602
 21
-125.650179076504
 31
0.0
  0
LINE
  5
   4A0
  8
0
  6
DASHDOT
 62
     2
 10
-42.4207772568178
 20
-128.900231740946
 30
0.0
 11
-48.9208825857027
 21
-128.900231740946
 31
0.0
  0
LINE
  5
   4A1
  8
0
  6
DASHDOT
 62
     2
 10
-10.6708299212602
 20
-132.150284405389
 30
0.0
 11
-10.6708299212602
 21
-125.650179076504
 31
0.0
  0
LINE
  5
   4A2
  8
0
  6
DASHDOT
 62
     2
 10
-7.42077725681782
 20
-128.900231740946
 30
0.0
 11
-13.9208825857027
 21
-128.900231740946
 31
0.0
  0
LINE
  5
   4A3
  8
0
  6
CONTINUOUS
 62
     5
 10
34.4543649240203
 20
21.8498001098603
 30
0.0
 11
34.4543649240203
 21
28.5997704513698
 31
0.0
  0
LINE
  5
   4A4
  8
0
  6
CONTINUOUS
 62
     5
 10
34.454360509071
 20
28.5997630733678
 30
0.0
 11
36.9543356411631
 21
31.0997401020501
 31
0.0
  0
LINE
  5
   4A5
  8
0
  6
CONTINUOUS
 62
     5
 10
36.954340128488
 20
31.0997475631862
 30
0.0
 11
36.954340128488
 21
47.5997704513698
 31
0.0
  0
LINE
  5
   4A6
  8
0
  6
CONTINUOUS
 62
     5
 10
35.954340128488
 20
48.5997704513698
 30
0.0
 11
12.954340128488
 21
48.5997704513698
 31
0.0
  0
LINE
  5
   4A7
  8
0
  6
CONTINUOUS
 62
     5
 10
11.954340128488
 20
31.0997933395534
 30
0.0
 11
11.954340128488
 21
47.5997704513698
 31
0.0
  0
LINE
  5
   4A8
  8
0
  6
CONTINUOUS
 62
     5
 10
14.4543641667837
 20
28.5997731987018
 30
0.0
 11
11.9543393857048
 21
31.0997960831544
 31
0.0
  0
LINE
  5
   4A9
  8
0
  6
CONTINUOUS
 62
     5
 10
14.4543649240203
 20
21.8498001098603
 30
0.0
 11
14.4543649240203
 21
28.5997704513698
 31
0.0
  0
LINE
  5
   4AA
  8
0
  6
CONTINUOUS
 62
     1
 10
34.4543649240203
 20
28.3365792282252
 30
0.0
 11
14.4543649240203
 21
28.3365792282252
 31
0.0
  0
CIRCLE
  5
   4AB
  8
0
  6
CONTINUOUS
 62
     5
 10
24.4543491789317
 20
38.5997626722047
 30
0.0
 40
3.49999571510538
  0
ARC
  5
   4AC
  8
0
  6
CONTINUOUS
 62
     5
 10
12.9543448337943
 20
47.5997623521345
 30
0.0
 40
1.00000565163777
 50
90.0001503466694
 51
179.999917361423
  0
ARC
  5
   4AD
  8
0
  6
CONTINUOUS
 62
     5
 10
35.9543246723612
 20
47.5997620292754
 30
0.0
 40
1.00001528688656
 50
360.000182522284
 51
449.999003087461
  0
LINE
  5
   4AE
  8
0
  6
DASHDOT
 62
     2
 10
30.079337940679
 20
13.0997760121728
 30
0.0
 11
30.079337940679
 21
17.0997790596072
 31
0.0
  0
LINE
  5
   4AF
  8
0
  6
DASHDOT
 62
     2
 10
32.0793394643962
 20
15.09977753589
 30
0.0
 11
28.0793364169617
 21
15.09977753589
 31
0.0
  0
LINE
  5
   4B0
  8
0
  6
DASHDOT
 62
     2
 10
24.4543491789317
 20
34.5997669570993
 30
0.0
 11
24.4543491789317
 21
42.5997583873101
 31
0.0
  0
LINE
  5
   4B1
  8
0
  6
DASHDOT
 62
     2
 10
28.4543448940371
 20
38.5997626722047
 30
0.0
 11
20.4543534638263
 21
38.5997626722047
 31
0.0
  0
LINE
  5
   4B2
  8
0
  6
CONTINUOUS
 62
     2
 10
0.954340128488042
 20
48.5997704513698
 30
0.0
 11
-22.045659871512
 21
48.5997704513698
 31
0.0
  0
CIRCLE
  5
   4B3
  8
0
  6
CONTINUOUS
 62
     2
 10
-10.5456508210683
 20
38.5997626722047
 30
0.0
 40
3.49999571510538
  0
ARC
  5
   4B4
  8
0
  6
CONTINUOUS
 62
     2
 10
0.954324672361224
 20
47.5997620292754
 30
0.0
 40
1.00001528688656
 50
360.000182522284
 51
449.999003087461
  0
ARC
  5
   4B5
  8
0
  6
CONTINUOUS
 62
     2
 10
-22.0456551662057
 20
47.5997623521345
 30
0.0
 40
1.00000565163777
 50
90.0001503466694
 51
179.999917361423
  0
LINE
  5
   4B6
  8
0
  6
CONTINUOUS
 62
     2
 10
-23.045659871512
 20
31.0997933395534
 30
0.0
 11
-23.045659871512
 21
47.5997704513698
 31
0.0
  0
LINE
  5
   4B7
  8
0
  6
CONTINUOUS
 62
     2
 10
1.95434012848804
 20
31.0997475631862
 30
0.0
 11
1.95434012848804
 21
47.5997704513698
 31
0.0
  0
LINE
  5
   4B8
  8
0
  6
CONTINUOUS
 62
     2
 10
-0.545639490929062
 20
28.5997630733678
 30
0.0
 11
1.95433564116308
 21
31.0997401020501
 31
0.0
  0
LINE
  5
   4B9
  8
0
  6
CONTINUOUS
 62
     2
 10
-20.5456358332163
 20
28.5997731987018
 30
0.0
 11
-23.0456606142952
 21
31.0997960831544
 31
0.0
  0
LINE
  5
   4BA
  8
0
  6
CONTINUOUS
 62
     1
 10
-0.545635075979732
 20
28.3365792282252
 30
0.0
 11
-20.5456350759797
 21
28.3365792282252
 31
0.0
  0
LINE
  5
   4BB
  8
0
  6
CONTINUOUS
 62
     2
 10
-20.5456350759797
 20
21.8498001098603
 30
0.0
 11
-20.5456350759797
 21
28.5997704513698
 31
0.0
  0
LINE
  5
   4BC
  8
0
  6
CONTINUOUS
 62
     2
 10
-0.545635075979732
 20
21.8498001098603
 30
0.0
 11
-0.545635075979732
 21
28.5997704513698
 31
0.0
  0
LINE
  5
   4BD
  8
0
  6
CONTINUOUS
 62
     2
 10
-58.045659871512
 20
31.0997933395534
 30
0.0
 11
-58.045659871512
 21
47.5997704513698
 31
0.0
  0
ARC
  5
   4BE
  8
0
  6
CONTINUOUS
 62
     2
 10
-57.0456551662057
 20
47.5997623521345
 30
0.0
 40
1.00000565163777
 50
90.0001503466694
 51
179.999917361423
  0
LINE
  5
   4BF
  8
0
  6
CONTINUOUS
 62
     2
 10
-34.045659871512
 20
48.5997704513698
 30
0.0
 11
-57.045659871512
 21
48.5997704513698
 31
0.0
  0
ARC
  5
   4C0
  8
0
  6
CONTINUOUS
 62
     2
 10
-34.0456753276388
 20
47.5997620292754
 30
0.0
 40
1.00001528688656
 50
360.000182522284
 51
449.999003087461
  0
LINE
  5
   4C1
  8
0
  6
CONTINUOUS
 62
     2
 10
-33.045659871512
 20
31.0997475631862
 30
0.0
 11
-33.045659871512
 21
47.5997704513698
 31
0.0
  0
LINE
  5
   4C2
  8
0
  6
CONTINUOUS
 62
     2
 10
-35.5456394909291
 20
28.5997630733678
 30
0.0
 11
-33.045664358837
 21
31.0997401020501
 31
0.0
  0
LINE
  5
   4C3
  8
0
  6
CONTINUOUS
 62
     1
 10
-35.5456350759797
 20
28.3365792282252
 30
0.0
 11
-55.5456350759797
 21
28.3365792282252
 31
0.0
  0
LINE
  5
   4C4
  8
0
  6
CONTINUOUS
 62
     2
 10
-55.5456358332163
 20
28.5997731987018
 30
0.0
 11
-58.0456606142952
 21
31.0997960831544
 31
0.0
  0
LINE
  5
   4C5
  8
0
  6
CONTINUOUS
 62
     2
 10
-55.5456350759797
 20
21.8498001098603
 30
0.0
 11
-55.5456350759797
 21
28.5997704513698
 31
0.0
  0
LINE
  5
   4C6
  8
0
  6
CONTINUOUS
 62
     2
 10
-35.5456350759797
 20
21.8498001098603
 30
0.0
 11
-35.5456350759797
 21
28.5997704513698
 31
0.0
  0
CIRCLE
  5
   4C7
  8
0
  6
CONTINUOUS
 62
     2
 10
-45.5456508210683
 20
38.5997626722047
 30
0.0
 40
3.49999571510538
  0
LINE
  5
   4C8
  8
0
  6
DASHDOT
 62
     2
 10
-45.5456508210683
 20
34.5997669570993
 30
0.0
 11
-45.5456508210683
 21
42.5997583873101
 31
0.0
  0
LINE
  5
   4C9
  8
0
  6
DASHDOT
 62
     2
 10
-41.5456551059629
 20
38.5997626722047
 30
0.0
 11
-49.5456465361737
 21
38.5997626722047
 31
0.0
  0
LINE
  5
   4CA
  8
0
  6
DASHDOT
 62
     2
 10
-10.5456508210683
 20
27.2056243366191
 30
0.0
 11
-10.5456508210683
 21
50.6551313487466
 31
0.0
  0
LINE
  5
   4CB
  8
0
  6
DASHDOT
 62
     2
 10
-6.5456551059629
 20
38.5997626722047
 30
0.0
 11
-14.5456465361737
 21
38.5997626722047
 31
0.0
  0
INSERT
  5
   4CC
  8
255
  6
CONTINUOUS
 62
     7
  2
MOSTRINA
 10
-76.8398532867432
 20
-95.7655270140177
 30
0.0
 41
0.5
 42
0.5
 50
359.999999792138
 43
0.5
  0
LINE
  5
   4CD
  8
0
  6
CONTINUOUS
 62
     1
 10
-48.6707248687744
 20
-77.9002077918064
 30
0.0
 11
-63.0457137396724
 21
-77.9002077918064
 31
0.0
  0
LINE
  5
   4CE
  8
0
  6
CONTINUOUS
 62
     1
 10
-48.6707248687744
 20
-78.4002077620041
 30
0.0
 11
-62.5457137694747
 21
-78.4002077620041
 31
0.0
  0
TEXT
  5
   4CF
  8
0
  6
CONTINUOUS
 62
     7
 10
52.8553676744273
 20
-58.5326613499399
 30
0.0
 40
3.00000002980232
  1
=
 50
89.9999999480344
 41
0.916666604744064
 72
     1
 11
51.3553676605225
 21
-57.4326614141464
 31
0.0
 73
     2
  0
TEXT
  5
   4D0
  8
0
  6
CONTINUOUS
 62
     7
 10
53.1170025010875
 20
-23.2937697483774
 30
0.0
 40
3.00000002980232
  1
=
 50
89.9999999480344
 41
0.916666604744064
 72
     1
 11
51.6170024871826
 21
-22.1937698125839
 31
0.0
 73
     2
  0
TEXT
  5
   4D1
  8
0
  6
CONTINUOUS
 62
     7
 10
-38.2395075871168
 20
60.2715530376624
 30
0.0
 40
3.00000002980232
  1
=
 50
359.999999948034
 41
0.916666604744064
 72
     1
 11
-37.139507651329
 21
61.7715530515714
 31
0.0
 73
     2
  0
TEXT
  5
   4D2
  8
0
  6
CONTINUOUS
 62
     7
 10
11.6509171412767
 20
59.9608688335608
 30
0.0
 40
3.00000002980232
  1
=
 50
359.999999948034
 41
0.916666604744064
 72
     1
 11
12.7509170770645
 21
61.4608688474698
 31
0.0
 73
     2
  0
INSERT
  5
   4D3
  8
0
  6
CONTINUOUS
 62
     7
  2
*UDIM196
 10
0.0
 20
0.0
 30
0.0
  0
INSERT
  5
   4D4
  8
0
  6
CONTINUOUS
 62
     7
  2
*UDIM197
 10
0.0
 20
0.0
 30
0.0
  0
INSERT
  5
   4D5
  8
0
  6
CONTINUOUS
 62
     2
  2
*UDIM198
 10
0.0
 20
0.0
 30
0.0
  0
INSERT
  5
   4D6
  8
0
  6
CONTINUOUS
 62
     2
  2
*UDIM199
 10
0.0
 20
0.0
 30
0.0
  0
INSERT
  5
   4D7
  8
0
  6
CONTINUOUS
 62
     2
  2
*UDIM200
 10
0.0
 20
0.0
 30
0.0
  0
INSERT
  5
   4D8
  8
0
  6
CONTINUOUS
 62
     2
  2
*UDIM201
 10
0.0
 20
0.0
 30
0.0
  0
INSERT
  5
   4D9
  8
0
  6
CONTINUOUS
 62
     2
  2
*UDIM202
 10
0.0
 20
0.0
 30
0.0
  0
INSERT
  5
   4DA
  8
0
  6
CONTINUOUS
 62
     2
  2
*UDIM203
 10
0.0
 20
0.0
 30
0.0
  0
INSERT
  5
   4DB
  8
0
  6
CONTINUOUS
 62
     7
  2
*UDIM204
 10
0.0
 20
0.0
 30
0.0
  0
INSERT
  5
   4DC
  8
0
  6
CONTINUOUS
 62
     7
  2
*UDIM205
 10
0.0
 20
0.0
 30
0.0
  0
INSERT
  5
   4DD
  8
0
  6
CONTINUOUS
 62
     7
  2
*UDIM206
 10
0.0
 20
0.0
 30
0.0
  0
INSERT
  5
   4DE
  8
0
  6
CONTINUOUS
 62
     7
  2
*UDIM207
 10
0.0
 20
0.0
 30
0.0
  0
TEXT
  5
   4DF
  8
0
  6
CONTINUOUS
 62
     7
 10
11.4204003260932
 20
54.7025065020729
 30
0.0
 40
3.00000002980232
  1
=
 50
359.999999948034
 41
0.916666604744064
 72
     2
 11
13.620400194963
 21
54.7025065000886
 31
0.0
  0
TEXT
  5
   4E0
  8
0
  6
CONTINUOUS
 62
     7
 10
-38.6659243656792
 20
54.9301828936745
 30
0.0
 40
3.00000002980232
  1
=
 50
359.999999948034
 41
0.916666604744064
 72
     2
 11
-36.4659244968095
 21
54.9301828916902
 31
0.0
  0
TEXT
  5
   4E1
  8
0
  6
CONTINUOUS
 62
     7
 10
-93.1978018833794
 20
-41.646957914431
 30
0.0
 40
3.00000002980232
  1
X
 50
359.999999948034
 41
0.916666604744064
 72
     2
 11
-90.9978020145097
 21
-41.6469579164153
 31
0.0
  0
TEXT
  5
   4E2
  8
0
  6
CONTINUOUS
 62
     7
 10
52.4934441493354
 20
-42.2752385540795
 30
0.0
 40
3.00000002980232
  1
X
 50
359.999999948034
 41
0.916666604744064
 72
     2
 11
54.6934440182052
 21
-42.2752385560637
 31
0.0
  0
TEXT
  5
   4E3
  8
0
  6
CONTINUOUS
 62
     7
 10
-11.537857468287
 20
52.3036570147682
 30
0.0
 40
3.00000002980232
  1
Y
 50
359.999999948034
 41
0.916666604744064
 72
     2
 11
-9.33785759941719
 21
52.3036570127839
 31
0.0
  0
INSERT
  5
   4E4
  8
0
  6
CONTINUOUS
 62
     7
  2
*UDIM208
 10
0.0
 20
0.0
 30
0.0
  0
INSERT
  5
   4E5
  8
0
  6
CONTINUOUS
 62
     7
  2
*UDIM209
 10
0.0
 20
0.0
 30
0.0
  0
LINE
  5
   4E6
  8
0
  6
CONTINUOUS
 62
   130
 10
70.5789719223976
 20
-37.1501846313477
 30
0.0
 11
70.5789719223976
 21
-30.6501846313477
 31
0.0
  0
LINE
  5
   4E7
  8
0
  6
CONTINUOUS
 62
   130
 10
70.0789723396301
 20
16.5998153686523
 30
0.0
 11
71.328971862793
 21
16.5998153686523
 31
0.0
  0
LINE
  5
   4E8
  8
0
  6
CONTINUOUS
 62
   130
 10
70.0789723396301
 20
11.5998077392578
 30
0.0
 11
71.328971862793
 21
11.5998077392578
 31
0.0
  0
LINE
  5
   4E9
  8
0
  6
CONTINUOUS
 62
   130
 10
70.0789723396301
 20
11.5998077392578
 30
0.0
 11
70.0789723396301
 21
12.2681427001953
 31
0.0
  0
LINE
  5
   4EA
  8
0
  6
CONTINUOUS
 62
   130
 10
70.0789723396301
 20
12.2681884765625
 30
0.0
 11
70.0789723396301
 21
13.1322479248047
 31
0.0
  0
LINE
  5
   4EB
  8
0
  6
CONTINUOUS
 62
   130
 10
70.0789723396301
 20
13.1323089599609
 30
0.0
 11
70.0789723396301
 21
16.5998148918152
 31
0.0
  0
LINE
  5
   4EC
  8
0
  6
CONTINUOUS
 62
     3
 10
70.828971862793
 20
-77.4001851081848
 30
0.0
 11
71.3289718329906
 21
-77.4001851081848
 31
0.0
  0
LINE
  5
   4ED
  8
0
  6
CONTINUOUS
 62
   130
 10
70.828971862793
 20
-69.9001922607422
 30
0.0
 11
70.828971862793
 21
-65.6501846313477
 31
0.0
  0
LINE
  5
   4EE
  8
0
  6
CONTINUOUS
 62
     3
 10
70.828971862793
 20
-36.7970504760742
 30
0.0
 11
70.828971862793
 21
-30.6501846313477
 31
0.0
  0
LINE
  5
   4EF
  8
0
  6
CONTINUOUS
 62
   130
 10
70.8289718627928
 20
4.3498153782857
 30
0.0
 11
74.828971862793
 21
4.34975434312945
 31
0.0
  0
LINE
  5
   4F0
  8
0
  6
CONTINUOUS
 62
   130
 10
71.3289709561823
 20
4.65088816969632
 30
0.0
 11
71.3289719396587
 21
4.34979411452811
 31
0.0
  0
LINE
  5
   4F1
  8
0
  6
CONTINUOUS
 62
   130
 10
71.328971862793
 20
4.3498077392578
 30
0.0
 11
71.328971862793
 21
21.8498077392578
 31
0.0
  0
LINE
  5
   4F2
  8
0
  6
CONTINUOUS
 62
     3
 10
71.3289718329906
 20
-77.4001851081848
 30
0.0
 11
93.5610122382641
 21
-77.4001851081848
 31
0.0
  0
LINE
  5
   4F3
  8
0
  6
CONTINUOUS
 62
     3
 10
107.853964710236
 20
20.3498153686523
 30
0.0
 11
109.828948944807
 21
20.3498153686523
 31
0.0
  0
LINE
  5
   4F4
  8
0
  6
CONTINUOUS
 62
   130
 10
70.8289699748361
 20
-44.5027964668831
 30
0.0
 11
71.328971862793
 21
-44.3688260138714
 31
0.0
  0
LINE
  5
   4F5
  8
0
  6
CONTINUOUS
 62
     3
 10
70.8289755450726
 20
-36.7970575694078
 30
0.0
 11
74.9458377955254
 21
-37.9002067306406
 31
0.0
  0
LINE
  5
   4F6
  8
0
  6
CONTINUOUS
 62
     3
 10
72.5789398193341
 20
-37.9002066885335
 30
0.0
 11
118.178939819334
 21
-37.9001850348279
 31
0.0
  0
LINE
  5
   4F7
  8
0
  6
CONTINUOUS
 62
     3
 10
72.5789398193341
 20
-43.4002219473699
 30
0.0
 11
118.178939819334
 21
-43.4002002948827
 31
0.0
  0
LINE
  5
   4F8
  8
0
  6
CONTINUOUS
 62
   130
 10
71.328971862793
 20
-44.3688507080078
 30
0.0
 11
71.328971862793
 21
-37.1501846313477
 31
0.0
  0
LINE
  5
   4F9
  8
0
  6
DASHDOT
 62
   130
 10
70.078971862793
 20
-77.4001846313477
 30
0.0
 11
70.078971862793
 21
32.2249646243025
 31
0.0
  0
LINE
  5
   4FA
  8
0
  6
CONTINUOUS
 62
   130
 10
70.078971862793
 20
-69.9001846313477
 30
0.0
 11
70.8289713859558
 21
-69.9001846313477
 31
0.0
  0
LINE
  5
   4FB
  8
0
  6
CONTINUOUS
 62
     3
 10
70.0789720217384
 20
-77.4001846313476
 30
0.0
 11
70.8289720217384
 21
-77.4001851081847
 31
0.0
  0
LINE
  5
   4FC
  8
0
  6
CONTINUOUS
 62
     3
 10
93.5610002079354
 20
-77.400187383954
 30
0.0
 11
93.8289445224636
 21
-78.400186862909
 31
0.0
  0
LINE
  5
   4FD
  8
0
  6
CONTINUOUS
 62
     3
 10
93.5789642333984
 20
-78.4001846313477
 30
0.0
 11
109.828941345215
 21
-78.4001846313477
 31
0.0
  0
LINE
  5
   4FE
  8
0
  6
CONTINUOUS
 62
     3
 10
107.078941345215
 20
-43.5252151489258
 30
0.0
 11
107.078941345215
 21
-43.4001998901367
 31
0.0
  0
LINE
  5
   4FF
  8
0
  6
CONTINUOUS
 62
     3
 10
107.078941345215
 20
-37.9001846313477
 30
0.0
 11
107.078941345215
 21
-37.7752151489258
 31
0.0
  0
LINE
  5
   500
  8
0
  6
CONTINUOUS
 62
     3
 10
107.078941345215
 20
-37.7752151489258
 30
0.0
 11
118.178939819334
 21
-37.7752151489258
 31
0.0
  0
LINE
  5
   501
  8
0
  6
CONTINUOUS
 62
     3
 10
107.078936489972
 20
-43.52521792137
 30
0.0
 11
118.178939819334
 21
-43.5252795110583
 31
0.0
  0
LINE
  5
   502
  8
0
  6
CONTINUOUS
 62
     1
 10
70.0789742469788
 20
-64.2126847300037
 30
0.0
 11
70.0789742469788
 21
-60.5876999887928
 31
0.0
  0
LINE
  5
   503
  8
0
  6
CONTINUOUS
 62
   130
 10
70.5789718618378
 20
-59.1501846313477
 30
0.0
 11
70.8289718618378
 21
-59.1501846313477
 31
0.0
  0
LINE
  5
   504
  8
0
  6
CONTINUOUS
 62
   130
 10
70.5789718618378
 20
-65.6501846313477
 30
0.0
 11
70.8289718618378
 21
-65.6501846313477
 31
0.0
  0
LINE
  5
   505
  8
0
  6
CONTINUOUS
 62
   130
 10
70.5789723396301
 20
-30.6501846313477
 30
0.0
 11
70.8289728164673
 21
-30.6501846313477
 31
0.0
  0
LINE
  5
   506
  8
0
  6
CONTINUOUS
 62
   130
 10
70.5789723098278
 20
-37.1501846313477
 30
0.0
 11
71.3289718329906
 21
-37.1501846313477
 31
0.0
  0
LINE
  5
   507
  8
0
  6
CONTINUOUS
 62
     1
 10
70.078971862793
 20
-60.5876998901367
 30
0.0
 11
70.5789747238159
 21
-60.5876998901367
 31
0.0
  0
LINE
  5
   508
  8
0
  6
CONTINUOUS
 62
     1
 10
70.0789723396301
 20
-64.2126846313477
 30
0.0
 11
70.5789747238159
 21
-64.2126846313477
 31
0.0
  0
LINE
  5
   509
  8
0
  6
CONTINUOUS
 62
     3
 10
120.828941345213
 20
-78.4002075195313
 30
0.0
 11
120.828941345213
 21
-67.0252075195313
 31
0.0
  0
LINE
  5
   50A
  8
0
  6
CONTINUOUS
 62
     3
 10
120.828941345213
 20
-14.5252151489258
 30
0.0
 11
120.828941345213
 21
9.5997848510742
 31
0.0
  0
LINE
  5
   50B
  8
0
  6
CONTINUOUS
 62
     3
 10
118.328941345213
 20
9.5997848510742
 30
0.0
 11
120.828941345213
 21
9.5997848510742
 31
0.0
  0
LINE
  5
   50C
  8
0
  6
CONTINUOUS
 62
     3
 10
118.328941345213
 20
-78.4002075195313
 30
0.0
 11
120.828941345213
 21
-78.4002075195313
 31
0.0
  0
LINE
  5
   50D
  8
0
  6
CONTINUOUS
 62
     3
 10
121.828941345213
 20
-67.0252075195313
 30
0.0
 11
121.828941345213
 21
-14.5252151489258
 31
0.0
  0
LINE
  5
   50E
  8
0
  6
CONTINUOUS
 62
     3
 10
120.828941345213
 20
-67.0252075195313
 30
0.0
 11
121.828941345213
 21
-67.0252075195313
 31
0.0
  0
LINE
  5
   50F
  8
0
  6
CONTINUOUS
 62
     3
 10
120.828941345213
 20
-14.5252151489258
 30
0.0
 11
121.828941345213
 21
-14.5252151489258
 31
0.0
  0
LINE
  5
   510
  8
0
  6
CONTINUOUS
 62
     3
 10
108.328941345213
 20
-28.6501950574536
 30
0.0
 11
108.328941345213
 21
8.44788312911986
 31
0.0
  0
LINE
  5
   511
  8
0
  6
CONTINUOUS
 62
     3
 10
108.328940142182
 20
-28.6501948569425
 30
0.0
 11
109.828940572917
 21
-28.9002024518788
 31
0.0
  0
LINE
  5
   512
  8
0
  6
CONTINUOUS
 62
     3
 10
108.328940869367
 20
-28.6501985389381
 30
0.0
 11
108.328941346204
 21
-28.4002061680998
 31
0.0
  0
LINE
  5
   513
  8
0
  6
CONTINUOUS
 62
     3
 10
108.328940391598
 20
6.34979875689986
 30
0.0
 11
108.328940868435
 21
6.09979875689986
 31
0.0
  0
LINE
  5
   514
  8
0
  6
CONTINUOUS
 62
     3
 10
109.828936063313
 20
20.3497927388428
 30
0.0
 11
118.928934537434
 21
20.3497851094484
 31
0.0
  0
LINE
  5
   515
  8
0
  6
CONTINUOUS
 62
     3
 10
109.828941345213
 20
21.8498077392578
 30
0.0
 11
119.328941345213
 21
21.8498077392578
 31
0.0
  0
LINE
  5
   516
  8
0
  6
CONTINUOUS
 62
     3
 10
109.828941345213
 20
-78.4001846313477
 30
0.0
 11
118.328933715818
 21
-78.4001846313477
 31
0.0
  0
LINE
  5
   517
  8
0
  6
CONTINUOUS
 62
     3
 10
109.828941345213
 20
-77.4001922607422
 30
0.0
 11
118.178939819334
 21
-77.4001922607422
 31
0.0
  0
LINE
  5
   518
  8
0
  6
CONTINUOUS
 62
     3
 10
119.328941345213
 20
9.5997848510742
 30
0.0
 11
119.328941345213
 21
9.84979248046874
 31
0.0
  0
LINE
  5
   519
  8
0
  6
CONTINUOUS
 62
     3
 10
109.828941345213
 20
-78.4001846313477
 30
0.0
 11
109.828941345213
 21
-43.5252331800989
 31
0.0
  0
LINE
  5
   51A
  8
0
  6
CONTINUOUS
 62
     3
 10
109.828941345213
 20
8.84979389816634
 30
0.0
 11
109.828941345213
 21
21.8498077392578
 31
0.0
  0
LINE
  5
   51B
  8
0
  6
CONTINUOUS
 62
     3
 10
119.328941345213
 20
21.8498077392578
 30
0.0
 11
119.578941345213
 21
21.8498077392578
 31
0.0
  0
LINE
  5
   51C
  8
0
  6
CONTINUOUS
 62
     3
 10
119.328941345213
 20
9.84979248046874
 30
0.0
 11
119.578941345213
 21
9.84979248046874
 31
0.0
  0
LINE
  5
   51D
  8
0
  6
CONTINUOUS
 62
     3
 10
119.578941345213
 20
9.84979248046874
 30
0.0
 11
119.578941345213
 21
21.8498077392578
 31
0.0
  0
LINE
  5
   51E
  8
0
  6
CONTINUOUS
 62
     3
 10
118.178939819334
 20
-37.7752151489258
 30
0.0
 11
118.178939819334
 21
9.84977722167967
 31
0.0
  0
LINE
  5
   51F
  8
0
  6
CONTINUOUS
 62
     3
 10
118.178939819334
 20
-77.4001922607422
 30
0.0
 11
118.178939819334
 21
-43.5252795110583
 31
0.0
  0
LINE
  5
   520
  8
0
  6
CONTINUOUS
 62
     3
 10
118.178934513438
 20
9.84978413464682
 30
0.0
 11
119.328936039316
 21
9.8497917640413
 31
0.0
  0
LINE
  5
   521
  8
0
  6
CONTINUOUS
 62
     3
 10
118.928939819334
 20
9.84977722167967
 30
0.0
 11
118.928939819334
 21
20.3497924804687
 31
0.0
  0
LINE
  5
   522
  8
0
  6
CONTINUOUS
 62
     3
 10
121.828941345213
 20
-67.0252075195313
 30
0.0
 11
123.578941345213
 21
-67.0252075195313
 31
0.0
  0
LINE
  5
   523
  8
0
  6
CONTINUOUS
 62
     3
 10
121.828941345213
 20
-14.5252151489258
 30
0.0
 11
123.578941345213
 21
-14.5252151489258
 31
0.0
  0
LINE
  5
   524
  8
0
  6
CONTINUOUS
 62
     3
 10
127.578941345213
 20
-67.0252075195313
 30
0.0
 11
127.578941345213
 21
-62.5251872580061
 31
0.0
  0
LINE
  5
   525
  8
0
  6
CONTINUOUS
 62
     3
 10
127.578941345213
 20
-15.6502227783203
 30
0.0
 11
127.578941345213
 21
-14.5252151489258
 31
0.0
  0
LINE
  5
   526
  8
0
  6
CONTINUOUS
 62
     3
 10
119.328933715818
 20
9.59980010986327
 30
0.0
 11
120.828941345213
 21
9.59980010986327
 31
0.0
  0
LINE
  5
   527
  8
0
  6
CONTINUOUS
 62
     3
 10
120.828941345213
 20
-14.5251998901367
 30
0.0
 11
121.828941345213
 21
-14.5251998901367
 31
0.0
  0
LINE
  5
   528
  8
0
  6
CONTINUOUS
 62
     3
 10
127.578941345213
 20
-20.4002075195313
 30
0.0
 11
127.578941345213
 21
-15.6502075195313
 31
0.0
  0
LINE
  5
   529
  8
0
  6
CONTINUOUS
 62
     3
 10
118.328941345213
 20
-78.4002075195313
 30
0.0
 11
118.328941345213
 21
9.5997848510742
 31
0.0
  0
LINE
  5
   52A
  8
0
  6
CONTINUOUS
 62
     3
 10
108.328940300053
 20
8.44787701131592
 30
0.0
 11
109.828939796167
 21
8.84979348310826
 31
0.0
  0
LINE
  5
   52B
  8
0
  6
CONTINUOUS
 62
     3
 10
118.178942155725
 20
-49.175214087387
 30
0.0
 11
118.328943676711
 21
-49.2016623300568
 31
0.0
  0
LINE
  5
   52C
  8
0
  6
CONTINUOUS
 62
     3
 10
118.178942550575
 20
-77.4001846126471
 30
0.0
 11
118.328936439253
 21
-77.4988937130666
 31
0.0
  0
LINE
  5
   52D
  8
0
  6
CONTINUOUS
 62
     3
 10
118.178937355755
 20
-32.1252090882224
 30
0.0
 11
118.328938876353
 21
-32.0987579794874
 31
0.0
  0
LINE
  5
   52E
  8
0
  6
CONTINUOUS
 62
     3
 10
118.178937740285
 20
5.51069215092613
 30
0.0
 11
118.328931628358
 21
5.44683412740618
 31
0.0
  0
LINE
  5
   52F
  8
0
  6
CONTINUOUS
 62
     3
 10
118.17894589539
 20
7.68892294436318
 30
0.0
 11
118.328939791205
 21
7.75277333890172
 31
0.0
  0
LINE
  5
   530
  8
0
  6
CONTINUOUS
 62
     2
 10
70.078971862793
 20
-106.900192260743
 30
0.0
 11
71.0789642333984
 21
-106.900192260743
 31
0.0
  0
LINE
  5
   531
  8
0
  6
CONTINUOUS
 62
     2
 10
70.078971862793
 20
-106.900192260743
 30
0.0
 11
70.078971862793
 21
-101.900199890137
 31
0.0
  0
LINE
  5
   532
  8
0
  6
CONTINUOUS
 62
     3
 10
98.1362562210036
 20
-110.750192642212
 30
0.0
 11
118.17896270752
 21
-110.750192642212
 31
0.0
  0
LINE
  5
   533
  8
0
  6
CONTINUOUS
 62
     2
 10
71.0789642333984
 20
-112.150192260742
 30
0.0
 11
82.2934284224566
 21
-112.150192260742
 31
0.0
  0
LINE
  5
   534
  8
0
  6
CONTINUOUS
 62
     2
 10
93.8226699829102
 20
-112.150192260741
 30
0.0
 11
119.578964233398
 21
-112.150192260741
 31
0.0
  0
LINE
  5
   535
  8
0
  6
CONTINUOUS
 62
     3
 10
70.0789642333984
 20
-77.6501922607425
 30
0.0
 11
93.5789642333984
 21
-77.6501922607425
 31
0.0
  0
LINE
  5
   536
  8
0
  6
CONTINUOUS
 62
     2
 10
119.578964233398
 20
-112.150192260743
 30
0.0
 11
119.578964233398
 21
-100.150199890137
 31
0.0
  0
LINE
  5
   537
  8
0
  6
CONTINUOUS
 62
     2
 10
70.0789642333984
 20
-117.535198722933
 30
0.0
 11
70.0789642333984
 21
-77.6501922607425
 31
0.0
  0
LINE
  5
   538
  8
0
  6
CONTINUOUS
 62
     2
 10
118.178964614868
 20
-100.150199890137
 30
0.0
 11
119.578964233398
 21
-100.150199890137
 31
0.0
  0
LINE
  5
   539
  8
0
  6
CONTINUOUS
 62
     3
 10
118.178964614868
 20
-110.750190734864
 30
0.0
 11
118.178964614868
 21
-100.150199890137
 31
0.0
  0
LINE
  5
   53A
  8
0
  6
CONTINUOUS
 62
     3
 10
93.5789642333984
 20
-78.400199890137
 30
0.0
 11
93.5789642333984
 21
-77.6501922607425
 31
0.0
  0
LINE
  5
   53B
  8
0
  6
CONTINUOUS
 62
     2
 10
118.178964614868
 20
-98.150199890137
 30
0.0
 11
118.178964614868
 21
-78.400199890137
 31
0.0
  0
LINE
  5
   53C
  8
0
  6
CONTINUOUS
 62
     3
 10
98.9539642333984
 20
-112.150192260741
 30
0.0
 11
98.9539642333984
 21
-110.750192642211
 31
0.0
  0
LINE
  5
   53D
  8
0
  6
CONTINUOUS
 62
     2
 10
71.0789642333984
 20
-112.150192260741
 30
0.0
 11
71.0789642333984
 21
-106.900192260743
 31
0.0
  0
LINE
  5
   53E
  8
0
  6
CONTINUOUS
 62
     3
 10
98.8352813720703
 20
-112.150192260742
 30
0.0
 11
98.8352813720703
 21
-110.750194072723
 31
0.0
  0
LINE
  5
   53F
  8
0
  6
CONTINUOUS
 62
     7
 10
120.828964614868
 20
-98.1502001326095
 30
0.0
 11
120.828964614868
 21
-78.6502001326095
 31
0.0
  0
LINE
  5
   540
  8
0
  6
CONTINUOUS
 62
     7
 10
118.178964614868
 20
-78.6502001326095
 30
0.0
 11
120.828964614868
 21
-78.6502001326095
 31
0.0
  0
LINE
  5
   541
  8
0
  6
CONTINUOUS
 62
     7
 10
118.178964614868
 20
-98.1502001326095
 30
0.0
 11
120.828964614868
 21
-98.1502001326095
 31
0.0
  0
LINE
  5
   542
  8
0
  6
CONTINUOUS
 62
     7
 10
119.578964614868
 20
-98.1502001326095
 30
0.0
 11
119.578964614868
 21
-78.6502001326095
 31
0.0
  0
LINE
  5
   543
  8
0
  6
CONTINUOUS
 62
   130
 10
146.261041367488
 20
-61.7705588941541
 30
0.0
 11
147.532364742121
 21
-57.9374423338884
 31
0.0
  0
LINE
  5
   544
  8
0
  6
CONTINUOUS
 62
   130
 10
133.850525460729
 20
-58.6876983862614
 30
0.0
 11
145.647773025656
 21
-62.093536932057
 31
0.0
  0
LINE
  5
   545
  8
0
  6
CONTINUOUS
 62
   130
 10
135.73936207824
 20
-52.9927633374712
 30
0.0
 11
147.23365169649
 21
-57.3119899721978
 31
0.0
  0
LINE
  5
   546
  8
0
  6
CONTINUOUS
 62
   130
 10
127.578941345213
 20
-50.2862099166767
 30
0.0
 11
135.739366242743
 21
-52.9927644281453
 31
0.0
  0
LINE
  5
   547
  8
0
  6
CONTINUOUS
 62
   130
 10
127.578941345213
 20
-56.6076122181724
 30
0.0
 11
133.850536405008
 21
-58.6877016885538
 31
0.0
  0
ARC
  5
   548
  8
0
  6
CONTINUOUS
 62
   130
 10
145.786465727511
 20
-61.6131613333773
 30
0.0
 40
0.499987101173646
 50
253.896746069851
 51
341.65100647314
  0
ARC
  5
   549
  8
0
  6
CONTINUOUS
 62
   130
 10
147.057793660723
 20
-57.7800382177728
 30
0.0
 40
0.499987202459568
 50
341.650951831627
 51
429.405209888843
  0
ARC
  5
   54A
  8
0
  6
CONTINUOUS
 62
     7
 10
96.8467030548045
 20
-43.2540006140212
 30
0.0
 40
52.731039246349
 50
327.264349717579
 51
356.916833212326
  0
LINE
  5
   54B
  8
0
  6
CONTINUOUS
 62
     3
 10
109.828941345213
 20
-37.7752151489258
 30
0.0
 11
109.828941345213
 21
-28.9002227783203
 31
0.0
  0
LINE
  5
   54C
  8
0
  6
CONTINUOUS
 62
     3
 10
118.178939819334
 20
-43.4002002948827
 30
0.0
 11
118.178939819334
 21
-37.9001850348279
 31
0.0
  0
LINE
  5
   54D
  8
0
  6
CONTINUOUS
 62
     3
 10
72.5789398193341
 20
-43.4002002948827
 30
0.0
 11
72.5789398193341
 21
-37.9002066885335
 31
0.0
  0
LINE
  5
   54E
  8
0
  6
CONTINUOUS
 62
     3
 10
81.4274833784457
 20
2.85519380978297
 30
0.0
 11
81.6039721018855
 21
3.85611141303855
 31
0.0
  0
LINE
  5
   54F
  8
0
  6
CONTINUOUS
 62
     3
 10
81.6039647102356
 20
3.85609963489242
 30
0.0
 11
81.6039647102356
 21
13.5998089668334
 31
0.0
  0
LINE
  5
   550
  8
0
  6
CONTINUOUS
 62
     3
 10
77.1039719342072
 20
21.0998077392578
 30
0.0
 11
81.6039715926227
 21
21.0998089668355
 31
0.0
  0
LINE
  5
   551
  8
0
  6
CONTINUOUS
 62
     3
 10
76.8712886718624
 20
2.85519380978297
 30
0.0
 11
77.1039724356837
 21
4.17480942409178
 31
0.0
  0
LINE
  5
   552
  8
0
  6
DASHDOT
 62
     7
 10
67.8351354607677
 20
15.0998052107646
 30
0.0
 11
89.1197250222074
 21
15.0998110170958
 31
0.0
  0
LINE
  5
   553
  8
0
  6
CONTINUOUS
 62
     7
 10
68.8962030558742
 20
2.85519380978299
 30
0.0
 11
97.9660592294113
 21
2.85519380978299
 31
0.0
  0
LINE
  5
   554
  8
0
  6
CONTINUOUS
 62
     7
 10
97.9660592294113
 20
2.85519380978297
 30
0.0
 11
99.1789258100697
 21
8.47480896683339
 31
0.0
  0
LINE
  5
   555
  8
0
  6
CONTINUOUS
 62
     7
 10
71.328971862793
 20
6.5998077392578
 30
0.0
 11
77.103971862793
 21
6.5998077392578
 31
0.0
  0
LINE
  5
   556
  8
0
  6
CONTINUOUS
 62
     7
 10
81.6039647102356
 20
6.5998077392578
 30
0.0
 11
98.7742492861325
 21
6.5998077392578
 31
0.0
  0
LINE
  5
   557
  8
0
  6
CONTINUOUS
 62
     7
 10
82.1039647102356
 20
9.0998077392578
 30
0.0
 11
99.3138176314562
 21
9.0998077392578
 31
0.0
  0
LINE
  5
   558
  8
0
  6
CONTINUOUS
 62
     7
 10
82.1039647102356
 20
8.34980773925777
 30
0.0
 11
82.1039647102356
 21
9.0998077392578
 31
0.0
  0
LINE
  5
   559
  8
0
  6
CONTINUOUS
 62
     7
 10
84.6039647102356
 20
6.5998077392578
 30
0.0
 11
84.6039647102356
 21
7.59980773925777
 31
0.0
  0
LINE
  5
   55A
  8
0
  6
CONTINUOUS
 62
     7
 10
82.1039647102356
 20
8.34980773925776
 30
0.0
 11
84.6039647102356
 21
7.59980773925777
 31
0.0
  0
LINE
  5
   55B
  8
0
  6
CONTINUOUS
 62
     7
 10
74.828971862793
 20
4.34975434312945
 30
0.0
 11
75.328971862793
 21
6.5998077392578
 31
0.0
  0
LINE
  5
   55C
  8
0
  6
CONTINUOUS
 62
     7
 10
76.328971862793
 20
6.59980773925778
 30
0.0
 11
76.9995042179011
 21
3.58234053360768
 31
0.0
  0
INSERT
  5
   55D
  8
0
  6
CONTINUOUS
 62
     7
  2
*HATCH171
 10
71.328971862793
 20
-78.4001922607422
 30
0.0
 41
0.5
 42
0.5
 43
0.5
  0
INSERT
  5
   55E
  8
0
  6
CONTINUOUS
 62
     7
  2
*HATCH172
 10
71.328971862793
 20
-78.4001922607422
 30
0.0
 41
0.5
 42
0.5
 43
0.5
  0
LINE
  5
   55F
  8
0
  6
CONTINUOUS
 62
     7
 10
71.3539736354068
 20
10.3498066475233
 30
0.0
 11
77.1039731585694
 21
10.3498082160948
 31
0.0
  0
LINE
  5
   560
  8
0
  6
CONTINUOUS
 62
     7
 10
77.1039704322814
 20
18.1826530382562
 30
0.0
 11
77.1039704322814
 21
21.3497997209953
 31
0.0
  0
LINE
  5
   561
  8
0
  6
CONTINUOUS
 62
     3
 10
77.103971862793
 20
4.17480617506594
 30
0.0
 11
77.103971862793
 21
12.0122456550596
 31
0.0
  0
LINE
  5
   562
  8
0
  6
CONTINUOUS
 62
     7
 10
77.103971862793
 20
17.3498063087459
 30
0.0
 11
77.103971862793
 21
18.1826534271236
 31
0.0
  0
LINE
  5
   563
  8
0
  6
CONTINUOUS
 62
     7
 10
77.103971862793
 20
12.0122456550596
 30
0.0
 11
77.103971862793
 21
12.8498106002805
 31
0.0
  0
LINE
  5
   564
  8
0
  6
CONTINUOUS
 62
     7
 10
77.1039703174072
 20
21.3497980441675
 30
0.0
 11
77.853969840568
 21
21.3498058781576
 31
0.0
  0
LINE
  5
   565
  8
0
  6
CONTINUOUS
 62
     7
 10
77.8539613723725
 20
21.3498022217207
 30
0.0
 11
77.8539613723725
 21
21.8497945923261
 31
0.0
  0
LINE
  5
   566
  8
0
  6
CONTINUOUS
 62
     7
 10
71.3539704982693
 20
21.8498066475308
 30
0.0
 11
81.6555355435515
 21
21.8497973662548
 31
0.0
  0
LINE
  5
   567
  8
0
  6
CONTINUOUS
 62
     7
 10
72.3539707710605
 20
20.8497992909234
 30
0.0
 11
77.103969817386
 21
20.8498005866998
 31
0.0
  0
LINE
  5
   568
  8
0
  6
CONTINUOUS
 62
     7
 10
72.353973181902
 20
12.0122443592831
 30
0.0
 11
77.1039722282275
 21
12.0122456550595
 31
0.0
  0
LINE
  5
   569
  8
0
  6
CONTINUOUS
 62
     7
 10
72.3539733626117
 20
11.3498069203183
 30
0.0
 11
77.1039724089372
 21
11.3498082160946
 31
0.0
  0
LINE
  5
   56A
  8
0
  6
CONTINUOUS
 62
     7
 10
72.3539714973584
 20
18.187369004516
 30
0.0
 11
77.1039705436839
 21
18.1873703002924
 31
0.0
  0
LINE
  5
   56B
  8
0
  6
CONTINUOUS
 62
     7
 10
72.3539723396303
 20
18.1826526081843
 30
0.0
 11
72.3539723396303
 21
20.8497992909234
 31
0.0
  0
LINE
  5
   56C
  8
0
  6
CONTINUOUS
 62
     7
 10
72.3539728164672
 20
11.3498066864641
 30
0.0
 11
72.3539728164672
 21
12.0122465096147
 31
0.0
  0
LINE
  5
   56D
  8
0
  6
CONTINUOUS
 62
     7
 10
71.853972309828
 20
13.3498067839207
 30
0.0
 11
71.853972309828
 21
16.8498063070834
 31
0.0
  0
LINE
  5
   56E
  8
0
  6
CONTINUOUS
 62
     7
 10
72.3539718627931
 20
16.8498064434808
 30
0.0
 11
72.3539718627931
 21
17.0998064434808
 31
0.0
  0
LINE
  5
   56F
  8
0
  6
CONTINUOUS
 62
     7
 10
72.3539718627931
 20
13.0998069203181
 30
0.0
 11
72.3539718627931
 21
13.3498107350154
 31
0.0
  0
LINE
  5
   570
  8
0
  6
CONTINUOUS
 62
   210
 10
72.3539718627931
 20
13.5998069203181
 30
0.0
 11
72.3539718627931
 21
13.6509181416316
 31
0.0
  0
LINE
  5
   571
  8
0
  6
CONTINUOUS
 62
   210
 10
77.3539718627929
 20
13.5998082842935
 30
0.0
 11
77.3539718627929
 21
13.650919505607
 31
0.0
  0
LINE
  5
   572
  8
0
  6
CONTINUOUS
 62
   210
 10
72.3539718627931
 20
13.6509181416316
 30
0.0
 11
72.3539718627931
 21
13.800768480329
 31
0.0
  0
LINE
  5
   573
  8
0
  6
CONTINUOUS
 62
   210
 10
72.3539718627931
 20
13.8007685101313
 30
0.0
 11
72.3539718627931
 21
14.0391465580744
 31
0.0
  0
LINE
  5
   574
  8
0
  6
CONTINUOUS
 62
   210
 10
72.3539718627931
 20
14.0391465580744
 30
0.0
 11
72.3539718627931
 21
14.3498069203181
 31
0.0
  0
LINE
  5
   575
  8
0
  6
CONTINUOUS
 62
   210
 10
72.3539718627931
 20
14.3498069203181
 30
0.0
 11
72.3539718627931
 21
14.711578027038
 31
0.0
  0
LINE
  5
   576
  8
0
  6
CONTINUOUS
 62
   210
 10
72.3539718627931
 20
14.711578027038
 30
0.0
 11
72.3539718627931
 21
15.0998064434809
 31
0.0
  0
LINE
  5
   577
  8
0
  6
CONTINUOUS
 62
   210
 10
72.3539718627931
 20
15.0998064434809
 30
0.0
 11
72.3539718627931
 21
15.4880353367609
 31
0.0
  0
LINE
  5
   578
  8
0
  6
CONTINUOUS
 62
   210
 10
72.3539718627931
 20
15.4880353367609
 30
0.0
 11
72.3539718627931
 21
15.8498064434808
 31
0.0
  0
LINE
  5
   579
  8
0
  6
CONTINUOUS
 62
   210
 10
72.3539718627931
 20
15.8498064434808
 30
0.0
 11
72.3539718627931
 21
16.1604668057245
 31
0.0
  0
LINE
  5
   57A
  8
0
  6
CONTINUOUS
 62
   210
 10
72.3539718627931
 20
16.1604668057245
 30
0.0
 11
72.3539718627931
 21
16.3988448536676
 31
0.0
  0
LINE
  5
   57B
  8
0
  6
CONTINUOUS
 62
   210
 10
72.3539718627931
 20
16.3988448536676
 30
0.0
 11
72.3539718627931
 21
16.548695192365
 31
0.0
  0
LINE
  5
   57C
  8
0
  6
CONTINUOUS
 62
   210
 10
77.3539718627929
 20
16.5486965861427
 30
0.0
 11
77.3539718627929
 21
16.5998078074562
 31
0.0
  0
LINE
  5
   57D
  8
0
  6
CONTINUOUS
 62
   210
 10
72.3539718627931
 20
16.5486952221674
 30
0.0
 11
72.3539718627931
 21
16.5998064434808
 31
0.0
  0
LINE
  5
   57E
  8
0
  6
CONTINUOUS
 62
   210
 10
77.1039719414787
 20
12.8498077444643
 30
0.0
 11
77.3539718647227
 21
13.099807804106
 31
0.0
  0
LINE
  5
   57F
  8
0
  6
CONTINUOUS
 62
   210
 10
77.3539718627929
 20
13.0998082842935
 30
0.0
 11
77.3539718627929
 21
13.5998082842935
 31
0.0
  0
LINE
  5
   580
  8
0
  6
CONTINUOUS
 62
   210
 10
72.3539722719856
 20
13.5998069203181
 30
0.0
 11
81.6039647102356
 21
13.5998094436705
 31
0.0
  0
LINE
  5
   581
  8
0
  6
CONTINUOUS
 62
   210
 10
72.3539718627931
 20
13.3498069203181
 30
0.0
 11
72.3539718627931
 21
13.5998069203181
 31
0.0
  0
LINE
  5
   582
  8
0
  6
CONTINUOUS
 62
   210
 10
77.3539718627929
 20
16.5998078074562
 30
0.0
 11
77.3539718627929
 21
17.0998078074562
 31
0.0
  0
LINE
  5
   583
  8
0
  6
CONTINUOUS
 62
   210
 10
72.3539718627931
 20
16.5998064434808
 30
0.0
 11
72.3539718627931
 21
16.8498064434808
 31
0.0
  0
LINE
  5
   584
  8
0
  6
CONTINUOUS
 62
   210
 10
72.3539714536005
 20
16.5998064434808
 30
0.0
 11
81.6039647102356
 21
16.5998089668334
 31
0.0
  0
LINE
  5
   585
  8
0
  6
CONTINUOUS
 62
     7
 10
72.3539731864085
 20
11.9957248127743
 30
0.0
 11
77.103972232734
 21
11.9957261085507
 31
0.0
  0
LINE
  5
   586
  8
0
  6
CONTINUOUS
 62
   210
 10
72.6039724765819
 20
12.8498069885169
 30
0.0
 11
77.1039724765818
 21
12.8498082160947
 31
0.0
  0
LINE
  5
   587
  8
0
  6
CONTINUOUS
 62
   210
 10
72.3539719558505
 20
13.0998065000305
 30
0.0
 11
72.6039720154921
 21
12.8498065767864
 31
0.0
  0
LINE
  5
   588
  8
0
  6
CONTINUOUS
 62
   210
 10
71.8539727872192
 20
13.3498067839207
 30
0.0
 11
72.3539723401844
 21
13.3498069203181
 31
0.0
  0
LINE
  5
   589
  8
0
  6
CONTINUOUS
 62
   210
 10
71.8539718324366
 20
16.8498063070834
 30
0.0
 11
72.3539713854018
 21
16.8498064434808
 31
0.0
  0
LINE
  5
   58A
  8
0
  6
CONTINUOUS
 62
   210
 10
72.3539707833775
 20
17.0998060430557
 30
0.0
 11
72.6039707066216
 21
17.3498061026973
 31
0.0
  0
LINE
  5
   58B
  8
0
  6
CONTINUOUS
 62
   210
 10
72.6039712490042
 20
17.3498065116796
 30
0.0
 11
77.103971249004
 21
17.3498077392574
 31
0.0
  0
LINE
  5
   58C
  8
0
  6
CONTINUOUS
 62
   210
 10
72.3539719754823
 20
18.1826521313472
 30
0.0
 11
77.1039710218078
 21
18.1826534271236
 31
0.0
  0
LINE
  5
   58D
  8
0
  6
CONTINUOUS
 62
   130
 10
85.901900412462
 20
21.8498077392578
 30
0.0
 11
109.828971862793
 21
21.8498077392578
 31
0.0
  0
INSERT
  5
   58E
  8
0
  6
CONTINUOUS
 62
     2
  2
*HATCH173
 10
71.328971862793
 20
-78.4001922607422
 30
0.0
 41
0.5
 42
0.5
 43
0.5
  0
INSERT
  5
   58F
  8
0
  6
CONTINUOUS
 62
     2
  2
*HATCH174
 10
71.328971862793
 20
-78.4001922607422
 30
0.0
 41
0.5
 42
0.5
 43
0.5
  0
INSERT
  5
   590
  8
0
  6
CONTINUOUS
 62
     2
  2
*HATCH175
 10
71.328971862793
 20
-78.4001922607422
 30
0.0
 41
0.5
 42
0.5
 43
0.5
  0
INSERT
  5
   591
  8
0
  6
CONTINUOUS
 62
     2
  2
*HATCH176
 10
71.328971862793
 20
-78.4001922607422
 30
0.0
 41
0.5
 42
0.5
 43
0.5
  0
INSERT
  5
   592
  8
0
  6
CONTINUOUS
 62
     2
  2
*HATCH177
 10
71.328971862793
 20
-78.4001922607422
 30
0.0
 41
0.5
 42
0.5
 43
0.5
  0
LINE
  5
   593
  8
0
  6
CONTINUOUS
 62
     7
 10
149.577742301154
 20
-55.1816542385131
 30
0.0
 11
149.577742301154
 21
-43.2540006140212
 31
0.0
  0
LINE
  5
   594
  8
0
  6
DASHDOT
 62
     7
 10
68.5789642333984
 20
-118.120199361008
 30
0.0
 11
68.5789642333984
 21
29.4595070624928
 31
0.0
  0
LINE
  5
   595
  8
0
  6
CONTINUOUS
 62
     3
 10
71.328971862793
 20
-44.3688260138714
 30
0.0
 11
74.9440149991925
 21
-43.4002117379944
 31
0.0
  0
LINE
  5
   596
  8
0
  6
CONTINUOUS
 62
     3
 10
71.328971862793
 20
-37.1501846313477
 30
0.0
 11
71.328971862793
 21
-36.9310302734375
 31
0.0
  0
LINE
  5
   597
  8
0
  6
CONTINUOUS
 62
   130
 10
70.828971862793
 20
-30.6501846313477
 30
0.0
 11
70.828971862793
 21
4.34981536865233
 31
0.0
  0
LINE
  5
   598
  8
0
  6
CONTINUOUS
 62
   130
 10
70.828971862793
 20
-59.1501846313477
 30
0.0
 11
70.828971862793
 21
-44.502799987793
 31
0.0
  0
LINE
  5
   599
  8
0
  6
CONTINUOUS
 62
     3
 10
70.828971862793
 20
-65.6501846313477
 30
0.0
 11
70.828971862793
 21
-59.1501846313477
 31
0.0
  0
LINE
  5
   59A
  8
0
  6
CONTINUOUS
 62
   130
 10
70.578971862793
 20
-65.6501846313477
 30
0.0
 11
70.578971862793
 21
-64.2126846313477
 31
0.0
  0
LINE
  5
   59B
  8
0
  6
CONTINUOUS
 62
   130
 10
70.578971862793
 20
-60.5876998901367
 30
0.0
 11
70.578971862793
 21
-59.1501846313477
 31
0.0
  0
LINE
  5
   59C
  8
0
  6
CONTINUOUS
 62
     3
 10
70.578971862793
 20
-64.2126846313477
 30
0.0
 11
70.578971862793
 21
-60.5876998901367
 31
0.0
  0
LINE
  5
   59D
  8
0
  6
CONTINUOUS
 62
     2
 10
118.178964614868
 20
-100.150199890137
 30
0.0
 11
118.178964614868
 21
-98.150199890137
 31
0.0
  0
LINE
  5
   59E
  8
0
  6
DASHDOT
 62
     2
 10
66.690785388496
 20
-105.400189420076
 30
0.0
 11
89.1197250222074
 21
-105.40019553858
 31
0.0
  0
LINE
  5
   59F
  8
0
  6
CONTINUOUS
 62
     2
 10
85.8289636992498
 20
-112.150192260742
 30
0.0
 11
93.8226547241211
 21
-112.150192260742
 31
0.0
  0
LINE
  5
   5A0
  8
0
  6
CONTINUOUS
 62
     7
 10
77.0789642333984
 20
-99.4001922607422
 30
0.0
 11
90.0996515157136
 21
-99.4001922607422
 31
0.0
  0
LINE
  5
   5A1
  8
0
  6
CONTINUOUS
 62
     7
 10
70.0789642333984
 20
-97.1501922607422
 30
0.0
 11
77.0789642333984
 21
-97.1501922607422
 31
0.0
  0
LINE
  5
   5A2
  8
0
  6
CONTINUOUS
 62
     7
 10
77.0789642333984
 20
-99.4001922607422
 30
0.0
 11
77.0789642333984
 21
-97.1501922607422
 31
0.0
  0
LINE
  5
   5A3
  8
0
  6
CONTINUOUS
 62
     7
 10
77.0789642333984
 20
-111.400192260742
 30
0.0
 11
80.0789642333984
 21
-111.400192260742
 31
0.0
  0
LINE
  5
   5A4
  8
0
  6
CONTINUOUS
 62
     7
 10
80.0789642333984
 20
-103.900193481498
 30
0.0
 11
80.0789642333984
 21
-99.4001922607422
 31
0.0
  0
LINE
  5
   5A5
  8
0
  6
CONTINUOUS
 62
     7
 10
77.0789642333984
 20
-111.650182304455
 30
0.0
 11
77.0789642333984
 21
-107.67519920813
 31
0.0
  0
LINE
  5
   5A6
  8
0
  6
CONTINUOUS
 62
     7
 10
80.0789642333984
 20
-111.400192260742
 30
0.0
 11
81.5789642333984
 21
-111.400192260742
 31
0.0
  0
LINE
  5
   5A7
  8
0
  6
CONTINUOUS
 62
     7
 10
69.3425865755101
 20
-96.3161217433769
 30
0.0
 11
89.1975084392054
 21
-96.3161217433769
 31
0.0
  0
LINE
  5
   5A8
  8
0
  6
CONTINUOUS
 62
     7
 10
89.1975084392054
 20
-96.3161217433768
 30
0.0
 11
94.7460636031623
 21
-115.284438234113
 31
0.0
  0
LINE
  5
   5A9
  8
0
  6
CONTINUOUS
 62
     7
 10
72.3539707710605
 20
-111.150183812408
 30
0.0
 11
77.0789642333984
 21
-111.150185101363
 31
0.0
  0
LINE
  5
   5AA
  8
0
  6
CONTINUOUS
 62
     7
 10
77.1039703174072
 20
-111.650182565652
 30
0.0
 11
77.853969840568
 21
-111.650190399642
 31
0.0
  0
LINE
  5
   5AB
  8
0
  6
CONTINUOUS
 62
     7
 10
77.8539613723725
 20
-112.150179113811
 30
0.0
 11
77.8539613723725
 21
-111.650186743205
 31
0.0
  0
LINE
  5
   5AC
  8
0
  6
CONTINUOUS
 62
     7
 10
72.3539723396303
 20
-111.150183812408
 30
0.0
 11
72.3539723396303
 21
-108.483037129669
 31
0.0
  0
LINE
  5
   5AD
  8
0
  6
CONTINUOUS
 62
     7
 10
72.3539719754823
 20
-108.483036652832
 30
0.0
 11
77.0789642333984
 21
-108.483037941786
 31
0.0
  0
LINE
  5
   5AE
  8
0
  6
CONTINUOUS
 62
     7
 10
72.6039712490042
 20
-107.650191033164
 30
0.0
 11
77.103971249004
 21
-107.650192260742
 31
0.0
  0
LINE
  5
   5AF
  8
0
  6
CONTINUOUS
 62
     7
 10
77.3539718627929
 20
-107.400192328941
 30
0.0
 11
77.3539718627929
 21
-106.900192328941
 31
0.0
  0
LINE
  5
   5B0
  8
0
  6
CONTINUOUS
 62
     7
 10
72.3539714536005
 20
-106.900190964965
 30
0.0
 11
77.3539714536003
 21
-106.900192328941
 31
0.0
  0
LINE
  5
   5B1
  8
0
  6
CONTINUOUS
 62
     7
 10
72.6039712490042
 20
-107.650191033164
 30
0.0
 11
77.103971249004
 21
-107.650192260742
 31
0.0
  0
LINE
  5
   5B2
  8
0
  6
CONTINUOUS
 62
     7
 10
72.3539707833775
 20
-107.40019056454
 30
0.0
 11
72.6039707066216
 21
-107.650190624182
 31
0.0
  0
LINE
  5
   5B3
  8
0
  6
CONTINUOUS
 62
     7
 10
72.3539718627931
 20
-107.400191643956
 30
0.0
 11
72.3539718627931
 21
-106.900193481498
 31
0.0
  0
LINE
  5
   5B4
  8
0
  6
CONTINUOUS
 62
     7
 10
71.8539718324366
 20
-107.150190828568
 30
0.0
 11
72.3539713854018
 21
-107.150190964965
 31
0.0
  0
LINE
  5
   5B5
  8
0
  6
CONTINUOUS
 62
     7
 10
71.853972309828
 20
-107.150190828568
 30
0.0
 11
71.853972309828
 21
-103.650191305405
 31
0.0
  0
INSERT
  5
   5B6
  8
0
  6
CONTINUOUS
 62
     7
  2
*HATCH178
 10
71.328971862793
 20
-78.4001922607422
 30
0.0
 41
0.5
 42
0.5
 43
0.5
  0
INSERT
  5
   5B7
  8
0
  6
CONTINUOUS
 62
     7
  2
*HATCH179
 10
71.328971862793
 20
-78.4001922607422
 30
0.0
 41
0.5
 42
0.5
 43
0.5
  0
LINE
  5
   5B8
  8
0
  6
CONTINUOUS
 62
     7
 10
72.3539722719856
 20
-103.900191441802
 30
0.0
 11
77.3539722719854
 21
-103.900192805778
 31
0.0
  0
LINE
  5
   5B9
  8
0
  6
CONTINUOUS
 62
     7
 10
77.3539718627929
 20
-103.900192805778
 30
0.0
 11
77.3539718627929
 21
-103.400192805778
 31
0.0
  0
LINE
  5
   5BA
  8
0
  6
CONTINUOUS
 62
     7
 10
77.1039719414787
 20
-103.150192265949
 30
0.0
 11
77.3539718647227
 21
-103.40019232559
 31
0.0
  0
LINE
  5
   5BB
  8
0
  6
CONTINUOUS
 62
     7
 10
72.6039724765819
 20
-103.150191510001
 30
0.0
 11
77.1039724765818
 21
-103.150192737579
 31
0.0
  0
LINE
  5
   5BC
  8
0
  6
CONTINUOUS
 62
     7
 10
72.3539719558505
 20
-103.400191021515
 30
0.0
 11
72.6039720154921
 21
-103.150191098271
 31
0.0
  0
INSERT
  5
   5BD
  8
0
  6
CONTINUOUS
 62
     7
  2
*HATCH180
 10
71.328971862793
 20
-78.4001922607422
 30
0.0
 41
0.5
 42
0.5
 43
0.5
  0
LINE
  5
   5BE
  8
0
  6
CONTINUOUS
 62
     7
 10
72.353973181902
 20
-102.312628880768
 30
0.0
 11
77.1039722282275
 21
-102.312630176544
 31
0.0
  0
LINE
  5
   5BF
  8
0
  6
CONTINUOUS
 62
     7
 10
72.3539731864085
 20
-102.296109334259
 30
0.0
 11
77.0789642333984
 21
-102.296110623213
 31
0.0
  0
LINE
  5
   5C0
  8
0
  6
CONTINUOUS
 62
     7
 10
72.3539728164672
 20
-102.312631031099
 30
0.0
 11
72.3539728164672
 21
-101.650191207948
 31
0.0
  0
LINE
  5
   5C1
  8
0
  6
CONTINUOUS
 62
     7
 10
72.3539733626117
 20
-101.650191441803
 30
0.0
 11
77.0789642333984
 21
-101.650192730757
 31
0.0
  0
LINE
  5
   5C2
  8
0
  6
CONTINUOUS
 62
     7
 10
71.328971862793
 20
-100.650191162187
 30
0.0
 11
77.0789642333984
 21
-100.650192730757
 31
0.0
  0
INSERT
  5
   5C3
  8
0
  6
CONTINUOUS
 62
     7
  2
*HATCH181
 10
71.328971862793
 20
-78.4001922607422
 30
0.0
 41
0.5
 42
0.5
 43
0.5
  0
LINE
  5
   5C4
  8
0
  6
CONTINUOUS
 62
     7
 10
71.328971862793
 20
-112.150192260742
 30
0.0
 11
71.328971862793
 21
-100.650191162187
 31
0.0
  0
LINE
  5
   5C5
  8
0
  6
CONTINUOUS
 62
     7
 10
71.853972309828
 20
-103.650191305405
 30
0.0
 11
72.3539718627931
 21
-103.650191305405
 31
0.0
  0
LINE
  5
   5C6
  8
0
  6
CONTINUOUS
 62
     7
 10
77.103971249004
 20
-107.650192260742
 30
0.0
 11
77.3539718627929
 21
-107.400192328941
 31
0.0
  0
LINE
  5
   5C7
  8
0
  6
CONTINUOUS
 62
     7
 10
77.0789642333984
 20
-103.125184544225
 30
0.0
 11
77.0789642333984
 21
-99.4001922607422
 31
0.0
  0
LINE
  5
   5C8
  8
0
  6
CONTINUOUS
 62
     7
 10
72.3539718627931
 20
-103.775190964965
 30
0.0
 11
77.3539718627929
 21
-103.775192328941
 31
0.0
  0
LINE
  5
   5C9
  8
0
  6
CONTINUOUS
 62
     7
 10
72.3539718627931
 20
-107.025190964965
 30
0.0
 11
77.3539718627929
 21
-107.025192328941
 31
0.0
  0
INSERT
  5
   5CA
  8
0
  6
CONTINUOUS
 62
     7
  2
*HATCH182
 10
71.328971862793
 20
-78.4001922607422
 30
0.0
 41
0.5
 42
0.5
 43
0.5
  0
INSERT
  5
   5CB
  8
0
  6
CONTINUOUS
 62
     7
  2
*HATCH183
 10
71.328971862793
 20
-78.4001922607422
 30
0.0
 41
0.5
 42
0.5
 43
0.5
  0
INSERT
  5
   5CC
  8
0
  6
CONTINUOUS
 62
     7
  2
*HATCH184
 10
71.328971862793
 20
-78.4001922607422
 30
0.0
 41
0.5
 42
0.5
 43
0.5
  0
INSERT
  5
   5CD
  8
0
  6
CONTINUOUS
 62
     7
  2
*HATCH185
 10
71.328971862793
 20
-78.4001922607422
 30
0.0
 41
0.5
 42
0.5
 43
0.5
  0
LINE
  5
   5CE
  8
0
  6
CONTINUOUS
 62
     7
 10
77.3539718627929
 20
-103.775192328941
 30
0.0
 11
81.5789642333984
 21
-103.775193481498
 31
0.0
  0
LINE
  5
   5CF
  8
0
  6
CONTINUOUS
 62
     7
 10
77.3539718627929
 20
-107.025192328941
 30
0.0
 11
81.5789642333984
 21
-107.025193481498
 31
0.0
  0
LINE
  5
   5D0
  8
0
  6
CONTINUOUS
 62
     3
 10
127.578941345213
 20
-62.0251901190287
 30
0.0
 11
127.578941345213
 21
-53.0251925032148
 31
0.0
  0
LINE
  5
   5D1
  8
0
  6
CONTINUOUS
 62
     3
 10
127.578941345213
 20
-52.5251925032148
 30
0.0
 11
127.578941345213
 21
-42.0251925032148
 31
0.0
  0
LINE
  5
   5D2
  8
0
  6
CONTINUOUS
 62
     3
 10
127.578941345213
 20
-41.5251925032148
 30
0.0
 11
127.578941345213
 21
-32.5251925032148
 31
0.0
  0
LINE
  5
   5D3
  8
0
  6
CONTINUOUS
 62
     3
 10
127.578941345213
 20
-32.0251925032148
 30
0.0
 11
127.578941345213
 21
-20.4002075195313
 31
0.0
  0
LINE
  5
   5D4
  8
0
  6
CONTINUOUS
 62
     1
 10
123.578941345213
 20
-68.2751922607422
 30
0.0
 11
123.578941345213
 21
-67.2751922607422
 31
0.0
  0
LINE
  5
   5D5
  8
0
  6
CONTINUOUS
 62
     1
 10
123.578941345213
 20
-68.2751922607422
 30
0.0
 11
124.578941345213
 21
-68.2751922607422
 31
0.0
  0
LINE
  5
   5D6
  8
0
  6
CONTINUOUS
 62
     1
 10
123.578941345213
 20
-14.2751941680908
 30
0.0
 11
123.578941345213
 21
-13.2751941680908
 31
0.0
  0
LINE
  5
   5D7
  8
0
  6
CONTINUOUS
 62
     1
 10
123.578941345213
 20
-13.2751941680908
 30
0.0
 11
124.578941345213
 21
-13.2751941680908
 31
0.0
  0
LINE
  5
   5D8
  8
0
  6
CONTINUOUS
 62
     1
 10
123.578941345213
 20
-67.2751922607422
 30
0.0
 11
123.578941345213
 21
-14.2751922607422
 31
0.0
  0
LINE
  5
   5D9
  8
0
  6
CONTINUOUS
 62
     1
 10
121.328941345213
 20
-6.48652076721191
 30
0.0
 11
121.328941345213
 21
-4.06386756896973
 31
0.0
  0
LINE
  5
   5DA
  8
0
  6
CONTINUOUS
 62
     1
 10
121.328941345213
 20
-77.4865169525147
 30
0.0
 11
121.328941345213
 21
-75.0638675689697
 31
0.0
  0
LINE
  5
   5DB
  8
0
  6
CONTINUOUS
 62
     1
 10
124.578941345213
 20
-81.0251941680908
 30
0.0
 11
124.578941345213
 21
-0.52519416809082
 31
0.0
  0
LINE
  5
   5DC
  8
0
  6
CONTINUOUS
 62
     1
 10
124.578941345213
 20
-81.0251922607422
 30
0.0
 11
126.328941345213
 21
-81.0251922607422
 31
0.0
  0
LINE
  5
   5DD
  8
0
  6
CONTINUOUS
 62
     1
 10
126.328941345213
 20
-81.0251922607422
 30
0.0
 11
126.328941345213
 21
-0.525192260742188
 31
0.0
  0
LINE
  5
   5DE
  8
0
  6
CONTINUOUS
 62
     1
 10
124.578941345213
 20
-0.52519416809082
 30
0.0
 11
126.328941345213
 21
-0.52519416809082
 31
0.0
  0
LINE
  5
   5DF
  8
0
  6
CONTINUOUS
 62
     1
 10
124.578941345213
 20
-0.52519416809082
 30
0.0
 11
125.078941345213
 21
-0.52519416809082
 31
0.0
  0
LINE
  5
   5E0
  8
0
  6
CONTINUOUS
 62
     1
 10
121.32894144623
 20
-6.4865218456993
 30
0.0
 11
121.828941462694
 21
-6.77519525019751
 31
0.0
  0
LINE
  5
   5E1
  8
0
  6
CONTINUOUS
 62
     1
 10
121.328940637093
 20
-4.06386882626276
 30
0.0
 11
121.828940653557
 21
-3.77519542176456
 31
0.0
  0
LINE
  5
   5E2
  8
0
  6
CONTINUOUS
 62
     1
 10
123.078941345213
 20
-6.77519416809082
 30
0.0
 11
123.078941345213
 21
-6.73758125305176
 31
0.0
  0
LINE
  5
   5E3
  8
0
  6
CONTINUOUS
 62
     1
 10
121.828941345213
 20
-6.77519416809082
 30
0.0
 11
124.578941345213
 21
-6.77519416809082
 31
0.0
  0
LINE
  5
   5E4
  8
0
  6
CONTINUOUS
 62
     1
 10
121.828941345213
 20
-6.73758125305176
 30
0.0
 11
121.828941345213
 21
-6.62664222717285
 31
0.0
  0
LINE
  5
   5E5
  8
0
  6
CONTINUOUS
 62
     1
 10
121.828941345213
 20
-6.62664222717285
 30
0.0
 11
121.828941345213
 21
-6.44793891906738
 31
0.0
  0
LINE
  5
   5E6
  8
0
  6
CONTINUOUS
 62
     1
 10
121.828941345213
 20
-6.44793891906738
 30
0.0
 11
121.828941345213
 21
-6.21042823791504
 31
0.0
  0
LINE
  5
   5E7
  8
0
  6
CONTINUOUS
 62
     1
 10
121.828941345213
 20
-6.21042823791504
 30
0.0
 11
121.828941345213
 21
-5.9260196685791
 31
0.0
  0
LINE
  5
   5E8
  8
0
  6
CONTINUOUS
 62
     1
 10
121.828941345213
 20
-5.9260196685791
 30
0.0
 11
121.828941345213
 21
-5.60897254943848
 31
0.0
  0
LINE
  5
   5E9
  8
0
  6
CONTINUOUS
 62
     1
 10
121.828941345213
 20
-5.60897254943848
 30
0.0
 11
121.828941345213
 21
-5.27519416809082
 31
0.0
  0
LINE
  5
   5EA
  8
0
  6
CONTINUOUS
 62
     1
 10
121.828941345213
 20
-5.27519416809082
 30
0.0
 11
121.828941345213
 21
-4.94140815734863
 31
0.0
  0
LINE
  5
   5EB
  8
0
  6
CONTINUOUS
 62
     1
 10
121.828941345213
 20
-4.94140815734863
 30
0.0
 11
121.828941345213
 21
-4.62436866760254
 31
0.0
  0
LINE
  5
   5EC
  8
0
  6
CONTINUOUS
 62
     1
 10
121.828941345213
 20
-4.62436866760254
 30
0.0
 11
121.828941345213
 21
-4.3399600982666
 31
0.0
  0
LINE
  5
   5ED
  8
0
  6
CONTINUOUS
 62
     1
 10
121.828941345213
 20
-4.3399600982666
 30
0.0
 11
121.828941345213
 21
-4.10244178771973
 31
0.0
  0
LINE
  5
   5EE
  8
0
  6
CONTINUOUS
 62
     1
 10
121.828941345213
 20
-4.10244178771973
 30
0.0
 11
121.828941345213
 21
-3.92373847961426
 31
0.0
  0
LINE
  5
   5EF
  8
0
  6
CONTINUOUS
 62
     1
 10
121.828941345213
 20
-3.92373847961426
 30
0.0
 11
121.828941345213
 21
-3.81279945373535
 31
0.0
  0
LINE
  5
   5F0
  8
0
  6
CONTINUOUS
 62
     1
 10
121.828941345213
 20
-3.77519416809082
 30
0.0
 11
124.578941345213
 21
-3.77519416809082
 31
0.0
  0
LINE
  5
   5F1
  8
0
  6
CONTINUOUS
 62
     1
 10
121.828941345213
 20
-3.81279945373535
 30
0.0
 11
121.828941345213
 21
-3.77519416809082
 31
0.0
  0
LINE
  5
   5F2
  8
0
  6
CONTINUOUS
 62
     1
 10
121.328940773163
 20
-77.4865173811158
 30
0.0
 11
121.828940789627
 21
-77.7751926733723
 31
0.0
  0
LINE
  5
   5F3
  8
0
  6
CONTINUOUS
 62
     1
 10
121.328940312491
 20
-75.063868470215
 30
0.0
 11
121.828940328955
 21
-74.7751931779585
 31
0.0
  0
LINE
  5
   5F4
  8
0
  6
CONTINUOUS
 62
     1
 10
121.828941345213
 20
-77.7751922607422
 30
0.0
 11
121.828941345213
 21
-77.7375831604004
 31
0.0
  0
LINE
  5
   5F5
  8
0
  6
CONTINUOUS
 62
     1
 10
121.828941345213
 20
-77.7751922607422
 30
0.0
 11
124.578941345213
 21
-77.7751922607422
 31
0.0
  0
LINE
  5
   5F6
  8
0
  6
CONTINUOUS
 62
     1
 10
121.828941345213
 20
-77.7375831604004
 30
0.0
 11
121.828941345213
 21
-77.6266460418701
 31
0.0
  0
LINE
  5
   5F7
  8
0
  6
CONTINUOUS
 62
     1
 10
121.828941345213
 20
-77.6266460418701
 30
0.0
 11
121.828941345213
 21
-77.4479389190674
 31
0.0
  0
LINE
  5
   5F8
  8
0
  6
CONTINUOUS
 62
     1
 10
121.828941345213
 20
-77.4479389190674
 30
0.0
 11
121.828941345213
 21
-77.2104263305664
 31
0.0
  0
LINE
  5
   5F9
  8
0
  6
CONTINUOUS
 62
     1
 10
121.828941345213
 20
-77.2104263305664
 30
0.0
 11
121.828941345213
 21
-76.9260177612305
 31
0.0
  0
LINE
  5
   5FA
  8
0
  6
CONTINUOUS
 62
     1
 10
121.828941345213
 20
-76.9260177612305
 30
0.0
 11
121.828941345213
 21
-76.6089744567871
 31
0.0
  0
LINE
  5
   5FB
  8
0
  6
CONTINUOUS
 62
     1
 10
121.828941345213
 20
-76.6089744567871
 30
0.0
 11
121.828941345213
 21
-76.2751922607422
 31
0.0
  0
LINE
  5
   5FC
  8
0
  6
CONTINUOUS
 62
     1
 10
121.828941345213
 20
-76.2751922607422
 30
0.0
 11
121.828941345213
 21
-75.9414100646973
 31
0.0
  0
LINE
  5
   5FD
  8
0
  6
CONTINUOUS
 62
     1
 10
121.828941345213
 20
-75.9414100646973
 30
0.0
 11
121.828941345213
 21
-75.6243667602539
 31
0.0
  0
LINE
  5
   5FE
  8
0
  6
CONTINUOUS
 62
     1
 10
121.828941345213
 20
-75.6243667602539
 30
0.0
 11
121.828941345213
 21
-75.339958190918
 31
0.0
  0
LINE
  5
   5FF
  8
0
  6
CONTINUOUS
 62
     1
 10
121.828941345213
 20
-75.339958190918
 30
0.0
 11
121.828941345213
 21
-75.102445602417
 31
0.0
  0
LINE
  5
   600
  8
0
  6
CONTINUOUS
 62
     1
 10
121.828941345213
 20
-75.102445602417
 30
0.0
 11
121.828941345213
 21
-74.9237384796143
 31
0.0
  0
LINE
  5
   601
  8
0
  6
CONTINUOUS
 62
     1
 10
121.828941345213
 20
-74.9237384796143
 30
0.0
 11
121.828941345213
 21
-74.8127994537354
 31
0.0
  0
LINE
  5
   602
  8
0
  6
CONTINUOUS
 62
     1
 10
121.828941345213
 20
-74.7751922607422
 30
0.0
 11
124.578941345213
 21
-74.7751922607422
 31
0.0
  0
LINE
  5
   603
  8
0
  6
CONTINUOUS
 62
     1
 10
121.828941345213
 20
-74.8127994537354
 30
0.0
 11
121.828941345213
 21
-74.7751922607422
 31
0.0
  0
LINE
  5
   604
  8
0
  6
CONTINUOUS
 62
     7
 10
124.578941345213
 20
-0.52519416809082
 30
0.0
 11
124.578941345213
 21
35.8249509237315
 31
0.0
  0
LINE
  5
   605
  8
0
  6
CONTINUOUS
 62
     7
 10
123.578941345213
 20
-13.2751941680908
 30
0.0
 11
123.578941345213
 21
-6.77519416809082
 31
0.0
  0
LINE
  5
   606
  8
0
  6
CONTINUOUS
 62
     7
 10
124.578941345213
 20
-129.248863566907
 30
0.0
 11
124.578941345213
 21
-81.0251922607422
 31
0.0
  0
LINE
  5
   607
  8
0
  6
CONTINUOUS
 62
     7
 10
123.578941345213
 20
-129.539561241326
 30
0.0
 11
123.578941345213
 21
-77.7751922607422
 31
0.0
  0
LINE
  5
   608
  8
0
  6
CONTINUOUS
 62
     7
 10
120.08731700965
 20
-130.554568315617
 30
0.0
 11
128.071295155045
 21
-128.233644436142
 31
0.0
  0
LINE
  5
   609
  8
0
  6
CONTINUOUS
 62
     7
 10
121.108523516619
 20
38.03734228946
 30
0.0
 11
128.53547993094
 21
33.3026575753306
 31
0.0
  0
LINE
  5
   60A
  8
0
  6
CONTINUOUS
 62
     7
 10
123.578941345213
 20
-3.52519416809082
 30
0.0
 11
124.578941345213
 21
-3.52519416809082
 31
0.0
  0
LINE
  5
   60B
  8
0
  6
CONTINUOUS
 62
     7
 10
123.578941345213
 20
-7.02519416809082
 30
0.0
 11
124.578941345213
 21
-7.02519416809082
 31
0.0
  0
LINE
  5
   60C
  8
0
  6
CONTINUOUS
 62
     7
 10
123.578941345213
 20
-74.5251922607422
 30
0.0
 11
124.578941345213
 21
-74.5251922607422
 31
0.0
  0
LINE
  5
   60D
  8
0
  6
CONTINUOUS
 62
     7
 10
123.578941345213
 20
-78.0251922607422
 30
0.0
 11
124.578941345213
 21
-78.0251922607422
 31
0.0
  0
LINE
  5
   60E
  8
0
  6
CONTINUOUS
 62
     7
 10
123.578941345213
 20
-68.7751922607422
 30
0.0
 11
124.578941345213
 21
-68.7751922607422
 31
0.0
  0
LINE
  5
   60F
  8
0
  6
CONTINUOUS
 62
     7
 10
123.578941345213
 20
-12.7751941680908
 30
0.0
 11
124.578941345213
 21
-12.7751941680908
 31
0.0
  0
LINE
  5
   610
  8
0
  6
CONTINUOUS
 62
     7
 10
123.578941345213
 20
-3.77519416809082
 30
0.0
 11
123.578941345213
 21
36.4624509237315
 31
0.0
  0
LINE
  5
   611
  8
0
  6
CONTINUOUS
 62
     7
 10
123.578941345213
 20
-74.7751922607422
 30
0.0
 11
123.578941345213
 21
-68.2751922607422
 31
0.0
  0
INSERT
  5
   612
  8
0
  6
CONTINUOUS
 62
     7
  2
*HATCH186
 10
71.328971862793
 20
-78.4001922607422
 30
0.0
 41
0.5
 42
0.5
 43
0.5
  0
INSERT
  5
   613
  8
0
  6
CONTINUOUS
 62
     7
  2
*HATCH187
 10
71.328971862793
 20
-78.4001922607422
 30
0.0
 41
0.5
 42
0.5
 43
0.5
  0
INSERT
  5
   614
  8
0
  6
CONTINUOUS
 62
     7
  2
*HATCH188
 10
71.328971862793
 20
-78.4001922607422
 30
0.0
 41
0.5
 42
0.5
 43
0.5
  0
INSERT
  5
   615
  8
0
  6
CONTINUOUS
 62
     7
  2
*HATCH189
 10
71.328971862793
 20
-78.4001922607422
 30
0.0
 41
0.5
 42
0.5
 43
0.5
  0
LINE
  5
   616
  8
0
  6
DASHDOT
 62
     7
 10
58.9625808581511
 20
-40.7752151489258
 30
0.0
 11
170.025603146875
 21
-40.7752151489258
 31
0.0
  0
LINE
  5
   617
  8
0
  6
CONTINUOUS
 62
     3
 10
81.6039647102356
 20
16.5998089668335
 30
0.0
 11
81.6039647102356
 21
21.0998089668336
 31
0.0
  0
LINE
  5
   618
  8
0
  6
CONTINUOUS
 62
     7
 10
99.1789258100697
 20
8.47480896683342
 30
0.0
 11
110.409182111278
 21
8.47480896683342
 31
0.0
  0
LINE
  5
   619
  8
0
  6
CONTINUOUS
 62
     7
 10
110.409182111278
 20
8.47480896683342
 30
0.0
 11
113.751932269754
 21
23.9628847011072
 31
0.0
  0
INSERT
  5
   61A
  8
0
  6
CONTINUOUS
 62
     7
  2
*HATCH190
 10
71.328971862793
 20
-78.4001922607422
 30
0.0
 41
0.5
 42
0.5
 43
0.5
  0
LINE
  5
   61B
  8
0
  6
CONTINUOUS
 62
     5
 10
81.6039647102356
 20
9.59980896683342
 30
0.0
 11
85.6039647102356
 21
9.59980896683342
 31
0.0
  0
LINE
  5
   61C
  8
0
  6
CONTINUOUS
 62
     5
 10
86.8539647102356
 20
48.5998089668334
 30
0.0
 11
90.8539647102356
 21
48.5998089668334
 31
0.0
  0
LINE
  5
   61D
  8
0
  6
CONTINUOUS
 62
     5
 10
90.8539647102356
 20
28.3366177436889
 30
0.0
 11
90.8539647102356
 21
48.5998089668334
 31
0.0
  0
LINE
  5
   61E
  8
0
  6
CONTINUOUS
 62
     5
 10
81.6039647102356
 20
9.59980896683342
 30
0.0
 11
81.6039647102356
 21
21.1335003730834
 31
0.0
  0
LINE
  5
   61F
  8
0
  6
CONTINUOUS
 62
     5
 10
85.6039647102356
 20
9.59980896683342
 30
0.0
 11
85.6039647102356
 21
21.1335003730834
 31
0.0
  0
LINE
  5
   620
  8
0
  6
CONTINUOUS
 62
     5
 10
85.9611769518067
 20
21.8995466083772
 30
0.0
 11
89.0679026920711
 21
24.5063962438838
 31
0.0
  0
LINE
  5
   621
  8
0
  6
CONTINUOUS
 62
     5
 10
86.8539647102356
 20
28.3366177436889
 30
0.0
 11
86.8539647102356
 21
48.5998089668334
 31
0.0
  0
LINE
  5
   622
  8
0
  6
CONTINUOUS
 62
     5
 10
83.3900270788621
 20
24.963725131061
 30
0.0
 11
86.4967528191266
 21
27.5705747665676
 31
0.0
  0
LINE
  5
   623
  8
0
  6
DASHDOT
 62
     7
 10
79.3799407891769
 20
15.0998089668334
 30
0.0
 11
87.2868879587809
 21
15.0998089668334
 31
0.0
  0
LINE
  5
   624
  8
0
  6
CONTINUOUS
 62
     2
 10
81.6039647102356
 20
16.7248089668334
 30
0.0
 11
85.6039647102356
 21
16.7248089668334
 31
0.0
  0
LINE
  5
   625
  8
0
  6
CONTINUOUS
 62
     2
 10
81.6039647102356
 20
13.4748089668334
 30
0.0
 11
85.6039647102356
 21
13.4748089668334
 31
0.0
  0
LINE
  5
   626
  8
0
  6
CONTINUOUS
 62
     2
 10
77.103971249004
 20
17.3498077392574
 30
0.0
 11
77.2802182569985
 21
17.1567156350563
 31
0.0
  0
LINE
  5
   627
  8
0
  6
CONTINUOUS
 62
     2
 10
85.6039647102356
 20
18.5998089668334
 30
0.0
 11
86.0039647102356
 21
18.5998089668334
 31
0.0
  0
LINE
  5
   628
  8
0
  6
CONTINUOUS
 62
     2
 10
85.6039647102356
 20
11.5998089668334
 30
0.0
 11
86.0039647102356
 21
11.5998089668334
 31
0.0
  0
LINE
  5
   629
  8
0
  6
CONTINUOUS
 62
     2
 10
86.0039647102356
 20
11.5998089668334
 30
0.0
 11
86.0039647102356
 21
18.5998089668334
 31
0.0
  0
LINE
  5
   62A
  8
0
  6
CONTINUOUS
 62
     1
 10
89.0039647102356
 20
12.5998089668334
 30
0.0
 11
89.0039647102356
 21
17.5998089668334
 31
0.0
  0
LINE
  5
   62B
  8
0
  6
CONTINUOUS
 62
     1
 10
86.0039647102356
 20
12.5998089668334
 30
0.0
 11
86.0039647102356
 21
17.5998089668334
 31
0.0
  0
LINE
  5
   62C
  8
0
  6
CONTINUOUS
 62
     1
 10
84.5039647102356
 20
13.5998089668334
 30
0.0
 11
84.5039647102356
 21
16.5998089668334
 31
0.0
  0
LINE
  5
   62D
  8
0
  6
CONTINUOUS
 62
     1
 10
81.0039647102356
 20
16.5998089668334
 30
0.0
 11
85.6039647102356
 21
16.5998089668334
 31
0.0
  0
LINE
  5
   62E
  8
0
  6
CONTINUOUS
 62
     1
 10
81.0039647102356
 20
13.5998089668334
 30
0.0
 11
85.6039647102356
 21
13.5998089668334
 31
0.0
  0
LINE
  5
   62F
  8
0
  6
CONTINUOUS
 62
     1
 10
86.0039647102356
 20
17.5998089668334
 30
0.0
 11
89.0039647102356
 21
17.5998089668334
 31
0.0
  0
LINE
  5
   630
  8
0
  6
CONTINUOUS
 62
     1
 10
86.0039647102356
 20
12.5998089668334
 30
0.0
 11
89.0039647102356
 21
12.5998089668334
 31
0.0
  0
LINE
  5
   631
  8
0
  6
CONTINUOUS
 62
     7
 10
73.5039647102356
 20
16.2930939668334
 30
0.0
 11
84.5039647744242
 21
16.2930939668334
 31
0.0
  0
LINE
  5
   632
  8
0
  6
CONTINUOUS
 62
     7
 10
73.5039647102356
 20
13.9065239668334
 30
0.0
 11
84.5039647744242
 21
13.9065239668334
 31
0.0
  0
LINE
  5
   633
  8
0
  6
DASHDOT
 62
     7
 10
80.0039651870727
 20
15.0998089668334
 30
0.0
 11
89.9539647102356
 21
15.0998089668334
 31
0.0
  0
LINE
  5
   634
  8
0
  6
CONTINUOUS
 62
     1
 10
73.5039647102356
 20
13.5998072340304
 30
0.0
 11
73.5039647102356
 21
16.5998067571933
 31
0.0
  0
LINE
  5
   635
  8
0
  6
DASHDOT
 62
     7
 10
84.6295791581574
 20
38.5998089668334
 30
0.0
 11
92.6277225344108
 21
38.5998089668334
 31
0.0
  0
LINE
  5
   636
  8
0
  6
CONTINUOUS
 62
     5
 10
86.8539647102356
 20
40.3498089668334
 30
0.0
 11
90.8539647102356
 21
40.3498089668334
 31
0.0
  0
LINE
  5
   637
  8
0
  6
CONTINUOUS
 62
     5
 10
86.8539647102356
 20
36.8498089668334
 30
0.0
 11
90.8539647102356
 21
36.8498089668334
 31
0.0
  0
INSERT
  5
   638
  8
0
  6
CONTINUOUS
 62
     2
  2
*HATCH191
 10
71.328971862793
 20
-78.4001922607422
 30
0.0
 41
0.5
 42
0.5
 43
0.5
  0
ARC
  5
   639
  8
0
  6
CONTINUOUS
 62
     5
 10
86.6039484301545
 20
21.1335075994395
 30
0.0
 40
0.999983695070884
 50
129.999969834231
 51
180.0
  0
ARC
  5
   63A
  8
0
  6
CONTINUOUS
 62
     5
 10
86.6040326915922
 20
21.1334759469873
 30
0.0
 40
5.00007403943861
 50
129.999969834231
 51
180.0
  0
ARC
  5
   63B
  8
0
  6
CONTINUOUS
 62
     5
 10
85.853966980367
 20
28.3366166040026
 30
0.0
 40
0.999997713389462
 50
309.999969834231
 51
360.0
  0
ARC
  5
   63C
  8
0
  6
CONTINUOUS
 62
     5
 10
85.853949820275
 20
28.3366214762579
 30
0.0
 40
5.00001541578228
 50
309.999969834231
 51
360.0
  0
INSERT
  5
   63D
  8
0
  6
CONTINUOUS
 62
     2
  2
*HATCH192
 10
71.328971862793
 20
-78.4001922607422
 30
0.0
 41
0.5
 42
0.5
 43
0.5
  0
INSERT
  5
   63E
  8
0
  6
CONTINUOUS
 62
     2
  2
*HATCH193
 10
71.328971862793
 20
-78.4001922607422
 30
0.0
 41
0.5
 42
0.5
 43
0.5
  0
LINE
  5
   63F
  8
0
  6
CONTINUOUS
 62
     7
 10
88.3289642333984
 20
-136.400193481498
 30
0.0
 11
90.8289642333984
 21
-136.400193481498
 31
0.0
  0
LINE
  5
   640
  8
0
  6
CONTINUOUS
 62
     7
 10
81.5789642333984
 20
-99.9001934814978
 30
0.0
 11
84.0789642333984
 21
-99.9001934814978
 31
0.0
  0
LINE
  5
   641
  8
0
  6
CONTINUOUS
 62
     7
 10
90.8289642333984
 20
-136.400193481498
 30
0.0
 11
90.8289642333984
 21
-118.59993865972
 31
0.0
  0
LINE
  5
   642
  8
0
  6
CONTINUOUS
 62
     7
 10
81.5789642333984
 20
-103.900193481498
 30
0.0
 11
81.5789642333984
 21
-99.9001934814978
 31
0.0
  0
LINE
  5
   643
  8
0
  6
CONTINUOUS
 62
     7
 10
84.3718565471264
 20
-110.693084371669
 30
0.0
 11
89.8038376857645
 21
-116.125068257598
 31
0.0
  0
LINE
  5
   644
  8
0
  6
CONTINUOUS
 62
     7
 10
89.8038379463587
 20
-116.125070866368
 30
0.0
 11
90.3600532239861
 21
-116.849939663296
 31
0.0
  0
LINE
  5
   645
  8
0
  6
CONTINUOUS
 62
     7
 10
90.3600531519537
 20
-116.849939528582
 30
0.0
 11
90.7097044846793
 21
-117.694078625227
 31
0.0
  0
LINE
  5
   646
  8
0
  6
CONTINUOUS
 62
     7
 10
90.7097043559832
 20
-117.694084270296
 30
0.0
 11
90.8289641920159
 21
-118.599945177632
 31
0.0
  0
LINE
  5
   647
  8
0
  6
CONTINUOUS
 62
     7
 10
88.3289642333984
 20
-136.400193481498
 30
0.0
 11
88.3289642333984
 21
-118.59993865972
 31
0.0
  0
LINE
  5
   648
  8
0
  6
CONTINUOUS
 62
     7
 10
88.2528438434942
 20
-118.217253815355
 30
0.0
 11
88.3289642192601
 21
-118.59993662557
 31
0.0
  0
LINE
  5
   649
  8
0
  6
CONTINUOUS
 62
     7
 10
88.0360709536867
 20
-117.892832019168
 30
0.0
 11
88.2528439981038
 21
-118.217256756829
 31
0.0
  0
LINE
  5
   64A
  8
0
  6
CONTINUOUS
 62
     7
 10
82.6040896248663
 20
-112.460853201284
 30
0.0
 11
88.0360707176354
 21
-117.892829715237
 31
0.0
  0
LINE
  5
   64B
  8
0
  6
CONTINUOUS
 62
     7
 10
82.0478746943691
 20
-111.735982091295
 30
0.0
 11
82.6040899879852
 21
-112.460858496167
 31
0.0
  0
LINE
  5
   64C
  8
0
  6
CONTINUOUS
 62
     7
 10
81.6982230838146
 20
-110.891844503605
 30
0.0
 11
82.0478744207644
 21
-111.735975958623
 31
0.0
  0
LINE
  5
   64D
  8
0
  6
CONTINUOUS
 62
     7
 10
81.5789641743677
 20
-109.985979065971
 30
0.0
 11
81.6982230495788
 21
-110.891847577985
 31
0.0
  0
LINE
  5
   64E
  8
0
  6
CONTINUOUS
 62
     7
 10
84.0789642333984
 20
-109.985978393607
 30
0.0
 11
84.0789642333984
 21
-99.9001934814978
 31
0.0
  0
LINE
  5
   64F
  8
0
  6
DASHDOT
 62
     7
 10
79.8106094346767
 20
-105.400193481498
 30
0.0
 11
85.726337910937
 21
-105.400193481498
 31
0.0
  0
LINE
  5
   650
  8
0
  6
CONTINUOUS
 62
     2
 10
81.5789642333984
 20
-103.775193481498
 30
0.0
 11
84.0789642333984
 21
-103.775193481498
 31
0.0
  0
LINE
  5
   651
  8
0
  6
CONTINUOUS
 62
     2
 10
81.5789642333984
 20
-107.025193481498
 30
0.0
 11
84.0789642333984
 21
-107.025193481498
 31
0.0
  0
ARC
  5
   652
  8
0
  6
CONTINUOUS
 62
     7
 10
85.0789722056922
 20
-109.98597565492
 30
0.0
 40
1.000007901091
 50
180.000053690574
 51
224.999736642428
  0
LINE
  5
   653
  8
0
  6
DASHDOT
 62
     2
 10
86.7098659010698
 20
-128.900193481498
 30
0.0
 11
92.1326170043083
 21
-128.900193481498
 31
0.0
  0
LINE
  5
   654
  8
0
  6
CONTINUOUS
 62
     2
 10
88.3289642333984
 20
-127.525193481498
 30
0.0
 11
90.8289642333984
 21
-127.525193481498
 31
0.0
  0
LINE
  5
   655
  8
0
  6
CONTINUOUS
 62
     2
 10
88.3289642333984
 20
-130.275193481498
 30
0.0
 11
90.8289642333984
 21
-130.275193481498
 31
0.0
  0
INSERT
  5
   656
  8
0
  6
CONTINUOUS
 62
     2
  2
*HATCH194
 10
71.328971862793
 20
-78.4001922607422
 30
0.0
 41
0.5
 42
0.5
 43
0.5
  0
INSERT
  5
   657
  8
0
  6
CONTINUOUS
 62
     2
  2
*HATCH195
 10
71.328971862793
 20
-78.4001922607422
 30
0.0
 41
0.5
 42
0.5
 43
0.5
  0
INSERT
  5
   658
  8
0
  6
CONTINUOUS
 62
     2
  2
*HATCH196
 10
71.328971862793
 20
-78.4001922607422
 30
0.0
 41
0.5
 42
0.5
 43
0.5
  0
LINE
  5
   659
  8
0
  6
CONTINUOUS
 62
     2
 10
84.4789642333985
 20
-108.900193481498
 30
0.0
 11
84.4789642333985
 21
-101.900193481498
 31
0.0
  0
LINE
  5
   65A
  8
0
  6
CONTINUOUS
 62
     2
 10
84.0789642333984
 20
-101.900193481498
 30
0.0
 11
84.4789642333985
 21
-101.900193481498
 31
0.0
  0
LINE
  5
   65B
  8
0
  6
CONTINUOUS
 62
     2
 10
84.0789642333984
 20
-108.900193481498
 30
0.0
 11
84.4789642333985
 21
-108.900193481498
 31
0.0
  0
LINE
  5
   65C
  8
0
  6
CONTINUOUS
 62
     1
 10
87.4789642333984
 20
-107.900193481498
 30
0.0
 11
87.4789642333984
 21
-102.900193481498
 31
0.0
  0
LINE
  5
   65D
  8
0
  6
CONTINUOUS
 62
     1
 10
84.4789642333985
 20
-107.900193481498
 30
0.0
 11
84.4789642333985
 21
-102.900193481498
 31
0.0
  0
LINE
  5
   65E
  8
0
  6
CONTINUOUS
 62
     1
 10
82.9789642333984
 20
-106.900193481498
 30
0.0
 11
82.9789642333984
 21
-103.900193481498
 31
0.0
  0
LINE
  5
   65F
  8
0
  6
CONTINUOUS
 62
     1
 10
71.9789642333985
 20
-103.900193481498
 30
0.0
 11
84.0789642333984
 21
-103.900193481498
 31
0.0
  0
LINE
  5
   660
  8
0
  6
CONTINUOUS
 62
     1
 10
71.9789642333985
 20
-106.900193481498
 30
0.0
 11
84.0789642333984
 21
-106.900193481498
 31
0.0
  0
LINE
  5
   661
  8
0
  6
CONTINUOUS
 62
     1
 10
84.4789642333985
 20
-102.900193481498
 30
0.0
 11
87.4789642333984
 21
-102.900193481498
 31
0.0
  0
LINE
  5
   662
  8
0
  6
CONTINUOUS
 62
     1
 10
84.4789642333985
 20
-107.900193481498
 30
0.0
 11
87.4789642333984
 21
-107.900193481498
 31
0.0
  0
LINE
  5
   663
  8
0
  6
CONTINUOUS
 62
     7
 10
71.9789642333985
 20
-104.206908481498
 30
0.0
 11
82.978964297587
 21
-104.206908481498
 31
0.0
  0
LINE
  5
   664
  8
0
  6
CONTINUOUS
 62
     7
 10
71.9789642333985
 20
-106.593478481498
 30
0.0
 11
82.978964297587
 21
-106.593478481498
 31
0.0
  0
LINE
  5
   665
  8
0
  6
DASHDOT
 62
     7
 10
78.4789647102356
 20
-105.400193481498
 30
0.0
 11
88.4289642333984
 21
-105.400193481498
 31
0.0
  0
LINE
  5
   666
  8
0
  6
CONTINUOUS
 62
     1
 10
71.9789642333985
 20
-106.900193481498
 30
0.0
 11
71.9789642333985
 21
-103.900191339502
 31
0.0
  0
LINE
  5
   667
  8
0
  6
CONTINUOUS
 62
     2
 10
81.5789642333984
 20
-111.400192260742
 30
0.0
 11
81.5789642333984
 21
-106.900193481498
 31
0.0
  0
LINE
  5
   668
  8
0
  6
CONTINUOUS
 62
     2
 10
80.0789642333984
 20
-111.400192260742
 30
0.0
 11
80.0789642333984
 21
-106.900193481498
 31
0.0
  0
LINE
  5
   669
  8
0
  6
CONTINUOUS
 62
     2
 10
72.3539719558505
 20
-103.900193481498
 30
0.0
 11
72.3539719558505
 21
-103.400191021515
 31
0.0
  0
LINE
  5
   66A
  8
0
  6
CONTINUOUS
 62
     3
 10
126.328941345213
 20
-14.5252151489258
 30
0.0
 11
127.578941345213
 21
-14.5252151489258
 31
0.0
  0
LINE
  5
   66B
  8
0
  6
CONTINUOUS
 62
     3
 10
126.328941345213
 20
-32.0251925032148
 30
0.0
 11
127.578941345213
 21
-32.0251925032148
 31
0.0
  0
LINE
  5
   66C
  8
0
  6
CONTINUOUS
 62
     3
 10
126.328941345213
 20
-32.5251925032148
 30
0.0
 11
127.578941345213
 21
-32.5251925032148
 31
0.0
  0
LINE
  5
   66D
  8
0
  6
CONTINUOUS
 62
     3
 10
126.328941345213
 20
-41.5251925032148
 30
0.0
 11
127.578941345213
 21
-41.5251925032148
 31
0.0
  0
LINE
  5
   66E
  8
0
  6
CONTINUOUS
 62
     3
 10
126.328941345213
 20
-42.0251925032148
 30
0.0
 11
127.578941345213
 21
-42.0251925032148
 31
0.0
  0
LINE
  5
   66F
  8
0
  6
CONTINUOUS
 62
     3
 10
126.328941345213
 20
-52.5251925032148
 30
0.0
 11
127.578941345213
 21
-52.5251925032148
 31
0.0
  0
LINE
  5
   670
  8
0
  6
CONTINUOUS
 62
     3
 10
126.328941345213
 20
-53.0251925032148
 30
0.0
 11
127.578941345213
 21
-53.0251925032148
 31
0.0
  0
LINE
  5
   671
  8
0
  6
CONTINUOUS
 62
     3
 10
126.328941345213
 20
-62.0251901190287
 30
0.0
 11
127.578941345213
 21
-62.0251901190287
 31
0.0
  0
LINE
  5
   672
  8
0
  6
CONTINUOUS
 62
     3
 10
126.328941345213
 20
-62.5251872580061
 30
0.0
 11
127.578941345213
 21
-62.5251872580061
 31
0.0
  0
LINE
  5
   673
  8
0
  6
CONTINUOUS
 62
     3
 10
126.328941345213
 20
-67.0252075195313
 30
0.0
 11
127.578941345213
 21
-67.0252075195313
 31
0.0
  0
LINE
  5
   674
  8
0
  6
DASHDOT
 62
     7
 10
61.8272971612853
 20
14.0997848510742
 30
0.0
 11
72.5841885019997
 21
14.0997848510742
 31
0.0
  0
LINE
  5
   675
  8
0
  6
CONTINUOUS
 62
     2
 10
66.5789642333984
 20
12.0997848510742
 30
0.0
 11
66.5789642333984
 21
16.0997848510742
 31
0.0
  0
LINE
  5
   676
  8
0
  6
CONTINUOUS
 62
     2
 10
64.5789642333984
 20
12.8497848510742
 30
0.0
 11
64.5789642333984
 21
15.3497848510742
 31
0.0
  0
LINE
  5
   677
  8
0
  6
CONTINUOUS
 62
     2
 10
66.5789642333984
 20
16.0997848510742
 30
0.0
 11
68.5789642333984
 21
16.0997848510742
 31
0.0
  0
LINE
  5
   678
  8
0
  6
CONTINUOUS
 62
     2
 10
66.5789642333984
 20
12.0997848510742
 30
0.0
 11
68.5789642333984
 21
12.0997848510742
 31
0.0
  0
LINE
  5
   679
  8
0
  6
CONTINUOUS
 62
     2
 10
64.5789642333984
 20
15.3497848510742
 30
0.0
 11
68.5789642333984
 21
15.3497848510742
 31
0.0
  0
LINE
  5
   67A
  8
0
  6
CONTINUOUS
 62
     2
 10
64.5789642333984
 20
12.8497848510742
 30
0.0
 11
68.5789642333984
 21
12.8497848510742
 31
0.0
  0
LINE
  5
   67B
  8
0
  6
CONTINUOUS
 62
     2
 10
66.5789642333984
 20
-102.400215148926
 30
0.0
 11
68.5789642333984
 21
-102.400215148926
 31
0.0
  0
LINE
  5
   67C
  8
0
  6
CONTINUOUS
 62
     2
 10
64.5789642333984
 20
-103.150215148926
 30
0.0
 11
68.5789642333984
 21
-103.150215148926
 31
0.0
  0
LINE
  5
   67D
  8
0
  6
DASHDOT
 62
     7
 10
61.8272971612853
 20
-104.400215148926
 30
0.0
 11
72.5841885019997
 21
-104.400215148926
 31
0.0
  0
LINE
  5
   67E
  8
0
  6
CONTINUOUS
 62
     2
 10
64.5789642333984
 20
-105.650215148926
 30
0.0
 11
68.5789642333984
 21
-105.650215148926
 31
0.0
  0
LINE
  5
   67F
  8
0
  6
CONTINUOUS
 62
     2
 10
66.5789642333984
 20
-106.400215148926
 30
0.0
 11
68.5789642333984
 21
-106.400215148926
 31
0.0
  0
LINE
  5
   680
  8
0
  6
CONTINUOUS
 62
     2
 10
66.5789642333984
 20
-106.400215148926
 30
0.0
 11
66.5789642333984
 21
-102.400215148926
 31
0.0
  0
LINE
  5
   681
  8
0
  6
CONTINUOUS
 62
     2
 10
64.5789642333984
 20
-105.650215148926
 30
0.0
 11
64.5789642333984
 21
-103.150215148926
 31
0.0
  0
INSERT
  5
   682
  8
0
  6
CONTINUOUS
 62
     2
  2
*UDIM210
 10
0.0
 20
0.0
 30
0.0
  0
INSERT
  5
   683
  8
0
  6
CONTINUOUS
 62
     2
  2
*UDIM211
 10
0.0
 20
0.0
 30
0.0
  0
INSERT
  5
   684
  8
0
  6
CONTINUOUS
 62
     7
  2
*UDIM212
 10
0.0
 20
0.0
 30
0.0
  0
INSERT
  5
   685
  8
0
  6
CONTINUOUS
 62
     7
  2
*UDIM213
 10
0.0
 20
0.0
 30
0.0
  0
INSERT
  5
   686
  8
0
  6
CONTINUOUS
 62
     7
  2
*UDIM214
 10
0.0
 20
0.0
 30
0.0
  0
INSERT
  5
   687
  8
0
  6
CONTINUOUS
 62
     7
  2
*UDIM215
 10
0.0
 20
0.0
 30
0.0
  0
INSERT
  5
   688
  8
0
  6
CONTINUOUS
 62
     7
  2
*UDIM216
 10
0.0
 20
0.0
 30
0.0
  0
INSERT
  5
   689
  8
0
  6
CONTINUOUS
 62
     2
  2
*UDIM217
 10
0.0
 20
0.0
 30
0.0
  0
TEXT
  5
   68A
  8
0
  6
CONTINUOUS
 62
     2
 10
162.244018987442
 20
-50.5680760234595
 30
0.0
 40
3.00000002980232
  1
=     =
 50
90.0
 41
0.916666604744064
 72
     2
 11
162.244018987418
 21
-31.8680771052838
 31
0.0
  0
INSERT
  5
   68B
  8
0
  6
CONTINUOUS
 62
     2
  2
*UDIM218
 10
0.0
 20
0.0
 30
0.0
  0
INSERT
  5
   68C
  8
0
  6
CONTINUOUS
 62
     2
  2
*UDIM219
 10
0.0
 20
0.0
 30
0.0
  0
INSERT
  5
   68D
  8
0
  6
CONTINUOUS
 62
     2
  2
*UDIM220
 10
0.0
 20
0.0
 30
0.0
  0
INSERT
  5
   68E
  8
0
  6
CONTINUOUS
 62
     2
  2
*UDIM221
 10
0.0
 20
0.0
 30
0.0
  0
INSERT
  5
   68F
  8
0
  6
CONTINUOUS
 62
     7
  2
*UDIM222
 10
0.0
 20
0.0
 30
0.0
  0
INSERT
  5
   690
  8
0
  6
CONTINUOUS
 62
     7
  2
*UDIM223
 10
0.0
 20
0.0
 30
0.0
  0
INSERT
  5
   691
  8
0
  6
CONTINUOUS
 62
     7
  2
*UDIM224
 10
0.0
 20
0.0
 30
0.0
  0
INSERT
  5
   692
  8
0
  6
CONTINUOUS
 62
     7
  2
*UDIM225
 10
0.0
 20
0.0
 30
0.0
  0
INSERT
  5
   693
  8
0
  6
CONTINUOUS
 62
     7
  2
*UDIM226
 10
0.0
 20
0.0
 30
0.0
  0
TEXT
  5
   694
  8
0
  6
CONTINUOUS
 62
     7
 10
172.654045283794
 20
-41.6744462786111
 30
0.0
 40
3.00000002980232
  1
X
 41
0.916666604744064
 72
     2
 11
174.854045152664
 21
-41.6744462786111
 31
0.0
  0
INSERT
  5
   695
  8
0
  6
CONTINUOUS
 62
     7
  2
*UDIM227
 10
0.0
 20
0.0
 30
0.0
  0
INSERT
  5
   696
  8
0
  6
CONTINUOUS
 62
     7
  2
*UDIM228
 10
0.0
 20
0.0
 30
0.0
  0
INSERT
  5
   697
  8
0
  6
CONTINUOUS
 62
     7
  2
*UDIM229
 10
0.0
 20
0.0
 30
0.0
  0
INSERT
  5
   698
  8
0
  6
CONTINUOUS
 62
     7
  2
*UDIM230
 10
0.0
 20
0.0
 30
0.0
  0
LINE
  5
   699
  8
0
  6
DASHDOT
 62
     2
 10
-1.75370086603502
 20
-166.26433994621
 30
0.0
 11
-20.2352347716501
 21
-166.26433994621
 31
0.0
  0
LINE
  5
   69A
  8
0
  6
DASHDOT
 62
     2
 10
-0.995130444535897
 20
-201.664340473712
 30
0.0
 11
-20.3731566664681
 21
-201.664340473712
 31
0.0
  0
LINE
  5
   69B
  8
0
  6
DASHDOT
 62
     2
 10
-17.6707240194082
 20
-161.258425975289
 30
0.0
 11
-17.6707240194082
 21
-206.698878736845
 31
0.0
  0
LINE
  5
   69C
  8
0
  6
DASHDOT
 62
     2
 10
-3.67072381079197
 20
-161.059125743878
 30
0.0
 11
-3.67072381079197
 21
-207.097479199666
 31
0.0
  0
LINE
  5
   69D
  8
0
  6
CONTINUOUS
 62
     7
 10
0.329276248812675
 20
-162.264339886606
 30
0.0
 11
0.329276248812675
 21
-205.664340533316
 31
0.0
  0
LINE
  5
   69E
  8
0
  6
CONTINUOUS
 62
     7
 10
-21.6707240790129
 20
-162.264339886606
 30
0.0
 11
-21.6707240790129
 21
-205.664340533316
 31
0.0
  0
LINE
  5
   69F
  8
0
  6
DASHDOT
 62
     2
 10
-10.6707239151001
 20
-161.519083047068
 30
0.0
 11
-10.6707239151001
 21
-207.71525028593
 31
0.0
  0
CIRCLE
  5
   6A0
  8
0
  6
CONTINUOUS
 62
     7
 10
-3.67072381079197
 20
-166.26433994621
 30
0.0
 40
0.550000008195639
  0
CIRCLE
  5
   6A1
  8
0
  6
CONTINUOUS
 62
     7
 10
-17.6707240194082
 20
-166.26433994621
 30
0.0
 40
0.550000008195639
  0
CIRCLE
  5
   6A2
  8
0
  6
CONTINUOUS
 62
     7
 10
-17.6707240194082
 20
-201.664340473712
 30
0.0
 40
0.550000008195639
  0
CIRCLE
  5
   6A3
  8
0
  6
CONTINUOUS
 62
     7
 10
-3.67072381079197
 20
-201.664340473712
 30
0.0
 40
0.550000008195639
  0
LINE
  5
   6A4
  8
0
  6
DASHDOT
 62
     2
 10
7.54289136927795
 20
-182.214340183884
 30
0.0
 11
-36.3999367560174
 21
-182.214340183884
 31
0.0
  0
LINE
  5
   6A5
  8
0
  6
CONTINUOUS
 62
     7
 10
1.86557194118514
 20
-164.266009261082
 30
0.0
 11
-23.4350642405255
 21
-164.266009261082
 31
0.0
  0
LINE
  5
   6A6
  8
0
  6
CONTINUOUS
 62
     7
 10
2.15472206897611
 20
-204.457877024028
 30
0.0
 11
-23.579639304421
 21
-204.457877024028
 31
0.0
  0
TEXT
  5
   6A7
  8
0
  6
CONTINUOUS
 62
     2
 10
-11.6850260711708
 20
-160.980788590956
 30
0.0
 40
2.99999994933605
  1
Y
 50
359.999999896069
 41
0.916666607525612
 72
     2
 11
-9.48502625296501
 21
-160.980788594935
 31
0.0
  0
INSERT
  5
   6A8
  8
0
  6
CONTINUOUS
 62
     2
  2
*UDIM231
 10
0.0
 20
0.0
 30
0.0
  0
INSERT
  5
   6A9
  8
0
  6
CONTINUOUS
 62
     7
  2
*UDIM232
 10
0.0
 20
0.0
 30
0.0
  0
TEXT
  5
   6AA
  8
0
  6
CONTINUOUS
 62
     7
 10
-54.4135987151409
 20
-184.729008397924
 30
0.0
 40
2.99999994933605
  1
X
 50
359.999999896069
 41
0.916666607525612
 72
     2
 11
-52.2135988969351
 21
-184.729008401904
 31
0.0
  0
TEXT
  5
   6AB
  8
0
  6
CONTINUOUS
 62
     7
 10
10.7931008649131
 20
-185.344399375417
 30
0.0
 40
2.99999994933605
  1
X
 50
359.999999896069
 41
0.916666607525612
 72
     2
 11
12.9931006831189
 21
-185.344399379396
 31
0.0
  0
INSERT
  5
   6AC
  8
0
  6
CONTINUOUS
 62
     7
  2
*UDIM233
 10
0.0
 20
0.0
 30
0.0
  0
TEXT
  5
   6AD
  8
0
  6
CONTINUOUS
 62
     7
 10
-7.8554338062823
 20
-180.382046358051
 30
0.0
 40
2.99999994933605
  1
=
 50
359.999999896069
 41
0.916666607525612
 72
     2
 11
-5.65543398807647
 21
-180.382046362031
 31
0.0
  0
TEXT
  5
   6AE
  8
0
  6
CONTINUOUS
 62
     7
 10
-15.4025103347581
 20
-180.382046358051
 30
0.0
 40
2.99999994933605
  1
=
 50
359.999999896069
 41
0.916666607525612
 72
     2
 11
-13.2025105165523
 21
-180.382046362031
 31
0.0
  0
INSERT
  5
   6AF
  8
0
  6
CONTINUOUS
 62
     7
  2
*UDIM234
 10
0.0
 20
0.0
 30
0.0
  0
TEXT
  5
   6B0
  8
0
  6
CONTINUOUS
 62
     7
 10
-11.5829830608459
 20
-197.229123658114
 30
0.0
 40
2.99999994933605
  1
Y
 50
359.999999896069
 41
0.916666607525612
 72
     2
 11
-9.38298324264003
 21
-197.229123662093
 31
0.0
  0
LINE
  5
   6B1
  8
0
  6
CONTINUOUS
 62
     7
 10
233.639450073242
 20
11.8417205810547
 30
0.0
 11
270.389450073242
 21
11.8417205810547
 31
0.0
  0
LINE
  5
   6B2
  8
0
  6
CONTINUOUS
 62
     7
 10
233.639450073242
 20
39.8417205810547
 30
0.0
 11
270.389450073242
 21
39.8417205810547
 31
0.0
  0
LINE
  5
   6B3
  8
0
  6
CONTINUOUS
 62
     7
 10
233.639450073242
 20
39.8417205810547
 30
0.0
 11
233.639450073242
 21
11.8417205810547
 31
0.0
  0
LINE
  5
   6B4
  8
0
  6
CONTINUOUS
 62
     7
 10
270.389450073242
 20
39.8417205810547
 30
0.0
 11
270.389450073242
 21
11.8417205810547
 31
0.0
  0
LINE
  5
   6B5
  8
0
  6
DASHDOT
 62
     2
 10
252.014450073242
 20
49.9501698086436
 30
0.0
 11
252.014450073242
 21
3.88792233758295E-3
 31
0.0
  0
CIRCLE
  5
   6B6
  8
0
  6
CONTINUOUS
 62
     7
 10
237.639450073242
 20
43.5917205810547
 30
0.0
 40
0.875
  0
CIRCLE
  5
   6B7
  8
0
  6
CONTINUOUS
 62
     7
 10
266.389450073242
 20
43.5917205810547
 30
0.0
 40
0.875
  0
CIRCLE
  5
   6B8
  8
0
  6
CONTINUOUS
 62
     7
 10
266.389450073242
 20
8.09172058105469
 30
0.0
 40
0.875
  0
CIRCLE
  5
   6B9
  8
0
  6
CONTINUOUS
 62
     7
 10
237.639450073242
 20
8.09172058105469
 30
0.0
 40
0.875
  0
LINE
  5
   6BA
  8
0
  6
DASHDOT
 62
     7
 10
266.389450073242
 20
45.7167205810547
 30
0.0
 11
266.389450073242
 21
41.4667205810547
 31
0.0
  0
LINE
  5
   6BB
  8
0
  6
DASHDOT
 62
     7
 10
264.264450073242
 20
43.5917205810547
 30
0.0
 11
268.514450073242
 21
43.5917205810547
 31
0.0
  0
LINE
  5
   6BC
  8
0
  6
DASHDOT
 62
     7
 10
237.639450073242
 20
45.7167205810547
 30
0.0
 11
237.639450073242
 21
41.4667205810547
 31
0.0
  0
LINE
  5
   6BD
  8
0
  6
DASHDOT
 62
     7
 10
235.514450073242
 20
43.5917205810547
 30
0.0
 11
239.764450073242
 21
43.5917205810547
 31
0.0
  0
LINE
  5
   6BE
  8
0
  6
DASHDOT
 62
     7
 10
237.639450073242
 20
10.2167205810547
 30
0.0
 11
237.639450073242
 21
5.96672058105469
 31
0.0
  0
LINE
  5
   6BF
  8
0
  6
DASHDOT
 62
     7
 10
235.514450073242
 20
8.09172058105469
 30
0.0
 11
239.764450073242
 21
8.09172058105469
 31
0.0
  0
LINE
  5
   6C0
  8
0
  6
DASHDOT
 62
     7
 10
266.389450073242
 20
10.2167205810547
 30
0.0
 11
266.389450073242
 21
5.96672058105469
 31
0.0
  0
LINE
  5
   6C1
  8
0
  6
DASHDOT
 62
     7
 10
264.264450073242
 20
8.09172058105469
 30
0.0
 11
268.514450073242
 21
8.09172058105469
 31
0.0
  0
LINE
  5
   6C2
  8
0
  6
CONTINUOUS
 62
     7
 10
230.914551081858
 20
46.7008763773783
 30
0.0
 11
272.876854822769
 21
46.7008763773783
 31
0.0
  0
LINE
  5
   6C3
  8
0
  6
CONTINUOUS
 62
     7
 10
230.914551081858
 20
4.36722481575093
 30
0.0
 11
272.876854822769
 21
4.36722481575093
 31
0.0
  0
LINE
  5
   6C4
  8
0
  6
CONTINUOUS
 62
     7
 10
272.876854822769
 20
46.7008763773783
 30
0.0
 11
272.876854822769
 21
4.36722481575093
 31
0.0
  0
LINE
  5
   6C5
  8
0
  6
CONTINUOUS
 62
     7
 10
230.914551081858
 20
46.7008763773783
 30
0.0
 11
230.914551081858
 21
4.36722481575093
 31
0.0
  0
LINE
  5
   6C6
  8
0
  6
DASHDOT
 62
     2
 10
223.113745038158
 20
25.8417205810547
 30
0.0
 11
281.780019878576
 21
25.8417205810547
 31
0.0
  0
TEXT
  5
   6C7
  8
0
  6
CONTINUOUS
 62
     1
 10
163.45571128976
 20
-193.704193131828
 30
0.0
 40
2.00000008940697
  1
M4371 97-07-07
 50
359.999999844103
 41
0.749999861419206
 72
     1
 11
173.805709838867
 21
-192.704193115234
 31
0.0
 73
     2
  0
TEXT
  5
   6C8
  8
0
  6
CONTINUOUS
 62
     1
 10
188.29571128976
 20
-193.704193131828
 30
0.0
 40
2.00000008940697
  1
M4380 97-11-03
 50
359.999999844103
 41
0.749999861419206
 72
     1
 11
198.645709838867
 21
-192.704193115234
 31
0.0
 73
     2
  0
TEXT
  5
   6C9
  8
0
  6
CONTINUOUS
 62
     1
 10
130.357192990448
 20
-187.156173755131
 30
0.0
 40
2.00000008940697
  1
97-11-03 SCARPELLINI
 50
359.999999844103
 41
0.749999861419206
 72
     2
 11
160.057188822593
 21
-187.156173835793
 31
0.0
  0
TEXT
  5
   6CA
  8
0
  6
CONTINUOUS
 62
     1
 10
137.715715080764
 20
-193.70419313158
 30
0.0
 40
2.00000008940697
  1
M 3076 95-01-16
 50
359.999999844103
 41
0.749999861419206
 72
     1
 11
148.815713524818
 21
-192.704193117023
 31
0.0
 73
     2
  0
TEXT
  5
   6CB
  8
0
  6
CONTINUOUS
 62
     1
 10
130.357193002373
 20
-178.689422523336
 30
0.0
 40
2.00000008940697
  1
93-04-05 ROTA S.
 50
359.999999844103
 41
0.749999861419206
 72
     2
 11
154.057189674944
 21
-178.689422587702
 31
0.0
  0
TEXT
  5
   6CC
  8
0
  6
CONTINUOUS
 62
     7
 10
226.363963501118
 20
13.7822955691886
 30
0.0
 40
3.00000002980232
  1
=      =
 50
449.999999844103
 41
0.916666604744064
 72
     2
 11
226.363963559347
 21
35.2322943289153
 31
0.0
  0
TEXT
  5
   6CD
  8
0
  6
CONTINUOUS
 62
     7
 10
217.425887481831
 20
13.7822955691886
 30
0.0
 40
3.00000002980232
  1
=      =
 50
449.999999844103
 41
0.916666604744064
 72
     2
 11
217.42588754006
 21
35.2322943289153
 31
0.0
  0
TEXT
  5
   6CE
  8
0
  6
CONTINUOUS
 62
     7
 10
251.373790432907
 20
-9.37264581083756
 30
0.0
 40
3.00000002980232
  1
Y
 50
359.999999844103
 41
0.916666604744064
 72
     2
 11
253.573790301777
 21
-9.3726458168125
 31
0.0
  0
TEXT
  5
   6CF
  8
0
  6
CONTINUOUS
 62
     7
 10
250.631094862915
 20
58.9553533041527
 30
0.0
 40
3.00000002980232
  1
Y
 50
359.999999844103
 41
0.916666604744064
 72
     2
 11
252.831094731785
 21
58.9553532981777
 31
0.0
  0
TEXT
  5
   6D0
  8
0
  6
CONTINUOUS
 62
     7
 10
205.698010136582
 20
23.6773120009949
 30
0.0
 40
3.00000002980232
  1
X
 50
359.999999844103
 41
0.916666604744064
 72
     2
 11
207.898010005451
 21
23.6773119950199
 31
0.0
  0
TEXT
  5
   6D1
  8
0
  6
CONTINUOUS
 62
     7
 10
283.417801548935
 20
24.4065666639854
 30
0.0
 40
3.00000002980232
  1
X
 50
359.999999844103
 41
0.916666604744064
 72
     2
 11
285.617801417805
 21
24.4065666580105
 31
0.0
  0
TEXT
  5
   6D2
  8
0
  6
CONTINUOUS
 62
     7
 10
242.150182571409
 20
-6.77320504962818
 30
0.0
 40
3.00000002980232
  1
=      =
 50
359.999999844103
 41
0.916666604744064
 72
     2
 11
263.600181331136
 21
-6.77320510788392
 31
0.0
  0
TEXT
  5
   6D3
  8
0
  6
CONTINUOUS
 62
     7
 10
241.407483901975
 20
48.8361279887019
 30
0.0
 40
3.00000002980232
  1
=      =
 50
359.999999844103
 41
0.916666604744064
 72
     2
 11
262.857482661702
 21
48.8361279304462
 31
0.0
  0
INSERT
  5
   6D4
  8
0
  6
CONTINUOUS
 62
     7
  2
*UDIM235
 10
0.0
 20
0.0
 30
0.0
  0
INSERT
  5
   6D5
  8
0
  6
CONTINUOUS
 62
     7
  2
*UDIM236
 10
0.0
 20
0.0
 30
0.0
  0
INSERT
  5
   6D6
  8
0
  6
CONTINUOUS
 62
     7
  2
*UDIM237
 10
0.0
 20
0.0
 30
0.0
  0
INSERT
  5
   6D7
  8
0
  6
CONTINUOUS
 62
     7
  2
*UDIM238
 10
0.0
 20
0.0
 30
0.0
  0
INSERT
  5
   6D8
  8
0
  6
CONTINUOUS
 62
     7
  2
*UDIM239
 10
0.0
 20
0.0
 30
0.0
  0
TEXT
  5
   6D9
  8
0
  6
CONTINUOUS
 62
     1
 10
231.973709124863
 20
-204.689865022095
 30
0.0
 40
4.00000017881393
  1
601840/061
 50
359.999999844103
 41
0.937499973922969
 72
     2
 11
268.723709724635
 21
-204.689865121903
 31
0.0
  0
TEXT
  5
   6DA
  8
0
  6
CONTINUOUS
 62
     1
 10
233.059402479634
 20
-195.708282202566
 30
0.0
 40
3.00000002980232
  1
     S6 630 800
 50
359.999999844103
 41
0.916666604744064
 72
     2
 11
273.759400130217
 21
-195.708282313102
 31
0.0
  0
TEXT
  5
   6DB
  8
0
  6
CONTINUOUS
 62
     1
 10
221.524982720872
 20
-177.398010221366
 30
0.0
 40
2.00000008940697
  1
3POLE LOW VOLTAGE M.C.C.B SERIES ISOMAX
 50
359.999999844103
 41
0.749999861419206
 72
     1
 11
250.62497864365
 21
-176.398010255695
 31
0.0
 73
     2
  0
TEXT
  5
   6DC
  8
0
  6
CONTINUOUS
 62
     1
 10
222.274982651593
 20
-180.398010223403
 30
0.0
 40
2.00000008940697
  1
FIXED VERSION EXTENDED FRONT TERMINALS
 50
359.999999844103
 41
0.749999861419206
 72
     1
 11
250.624978679425
 21
-179.398010255695
 31
0.0
 73
     2
  0
TEXT
  5
   6DD
  8
0
  6
CONTINUOUS
 62
     1
 10
224.727374353518
 20
-185.468276963331
 30
0.0
 40
2.00000008940697
  1
INTERR.AUTOMATICO SERIE ISOMAX
 50
359.999999844103
 41
0.749999861419206
 72
     1
 11
247.077371221775
 21
-184.468276979328
 31
0.0
 73
     2
  0
TEXT
  5
   6DE
  8
0
  6
CONTINUOUS
 62
     1
 10
211.22737628025
 20
-188.468276926667
 30
0.0
 40
2.00000008940697
  1
TRIPOL.ESECUZIONE FISSA TERMINALI ANT.PROLUNGATI
 50
359.999999844103
 41
0.749999861419206
 72
     1
 11
247.077371257549
 21
-187.468276979328
 31
0.0
 73
     2
  0
ENDSEC
  0
EOF
