  0
SECTION
  2
HEADER
  9
$ACADVER
  1
AC1009
  9
$INSBASE
 10
0.0
 20
0.0
 30
0.0
  9
$EXTMIN
 10
-11.25
 20
-6.25
 30
0.0
  9
$EXTMAX
 10
189.25
 20
282.25
 30
0.0
  9
$LIMMIN
 10
0.0
 20
0.0
  9
$LIMMAX
 10
183.0
 20
276.0
  9
$ORTHOMODE
 70
     1
  9
$REGENMODE
 70
     0
  9
$FILLMODE
 70
     1
  9
$QTEXTMODE
 70
     0
  9
$MIRRTEXT
 70
     1
  9
$DRAGMODE
 70
     2
  9
$LTSCALE
 40
10.0
  9
$OSMODE
 70
    37
  9
$ATTMODE
 70
     1
  9
$TEXTSIZE
 40
7.000000000000048
  9
$TRACEWID
 40
0.05
  9
$TEXTSTYLE
  7
ROMANS
  9
$CLAYER
  8
11
  9
$CELTYPE
  6
BYLAYER
  9
$CECOLOR
 62
   256
  9
$DIMSCALE
 40
1.0
  9
$DIMASZ
 40
1.4599999999999991
  9
$DIMEXO
 40
0.0
  9
$DIMDLI
 40
10.0
  9
$DIMRND
 40
0.0
  9
$DIMDLE
 40
0.0
  9
$DIMEXE
 40
2.0
  9
$DIMTP
 40
0.0
  9
$DIMTM
 40
0.0
  9
$DIMTXT
 40
3.5
  9
$DIMCEN
 40
0.0
  9
$DIMTSZ
 40
0.0
  9
$DIMTOL
 70
     0
  9
$DIMLIM
 70
     0
  9
$DIMTIH
 70
     0
  9
$DIMTOH
 70
     0
  9
$DIMSE1
 70
     0
  9
$DIMSE2
 70
     0
  9
$DIMTAD
 70
     1
  9
$DIMZIN
 70
     0
  9
$DIMBLK
  1

  9
$DIMASO
 70
     0
  9
$DIMSHO
 70
     0
  9
$DIMPOST
  1

  9
$DIMAPOST
  1

  9
$DIMALT
 70
     0
  9
$DIMALTD
 70
     2
  9
$DIMALTF
 40
25.399999999999999
  9
$DIMLFAC
 40
1.0
  9
$DIMTOFL
 70
     1
  9
$DIMTVP
 40
0.0
  9
$DIMTIX
 70
     1
  9
$DIMSOXD
 70
     0
  9
$DIMSAH
 70
     0
  9
$DIMBLK1
  1

  9
$DIMBLK2
  1

  9
$DIMSTYLE
  2
STANDARD
  9
$DIMCLRD
 70
     0
  9
$DIMCLRE
 70
     0
  9
$DIMCLRT
 70
     0
  9
$DIMTFAC
 40
1.0
  9
$DIMGAP
 40
0.09
  9
$LUNITS
 70
     2
  9
$LUPREC
 70
     2
  9
$SKETCHINC
 40
0.1
  9
$FILLETRAD
 40
0.0
  9
$AUNITS
 70
     0
  9
$AUPREC
 70
     1
  9
$MENU
  1
c:\mek\mek
  9
$ELEVATION
 40
0.0
  9
$PELEVATION
 40
0.0
  9
$THICKNESS
 40
0.0
  9
$LIMCHECK
 70
     0
  9
$BLIPMODE
 70
     0
  9
$CHAMFERA
 40
0.0
  9
$CHAMFERB
 40
0.0
  9
$SKPOLY
 70
     0
  9
$TDCREATE
 40
2449532.6291453699
  9
$TDUPDATE
 40
2452719.3357240618
  9
$TDINDWG
 40
0.4829631481
  9
$TDUSRTIMER
 40
0.4829631481
  9
$USRTIMER
 70
     1
  9
$ANGBASE
 50
0.0
  9
$ANGDIR
 70
     0
  9
$PDMODE
 70
     0
  9
$PDSIZE
 40
0.0
  9
$PLINEWID
 40
0.0
  9
$COORDS
 70
     1
  9
$SPLFRAME
 70
     0
  9
$SPLINETYPE
 70
     6
  9
$SPLINESEGS
 70
     8
  9
$ATTDIA
 70
     0
  9
$ATTREQ
 70
     1
  9
$HANDLING
 70
  4097
  9
$HANDSEED
  5
522
  9
$SURFTAB1
 70
     6
  9
$SURFTAB2
 70
     6
  9
$SURFTYPE
 70
     6
  9
$SURFU
 70
     6
  9
$SURFV
 70
     6
  9
$UCSNAME
  2

  9
$UCSORG
 10
0.0
 20
0.0
 30
0.0
  9
$UCSXDIR
 10
1.0
 20
0.0
 30
0.0
  9
$UCSYDIR
 10
0.0
 20
1.0
 30
0.0
  9
$PUCSNAME
  2

  9
$PUCSORG
 10
0.0
 20
0.0
 30
0.0
  9
$PUCSXDIR
 10
1.0
 20
0.0
 30
0.0
  9
$PUCSYDIR
 10
0.0
 20
1.0
 30
0.0
  9
$USERI1
 70
   140
  9
$USERI2
 70
     0
  9
$USERI3
 70
     0
  9
$USERI4
 70
     0
  9
$USERI5
 70
     0
  9
$USERR1
 40
1.0
  9
$USERR2
 40
0.0
  9
$USERR3
 40
0.0
  9
$USERR4
 40
0.0
  9
$USERR5
 40
0.0
  9
$WORLDVIEW
 70
     1
  9
$SHADEDGE
 70
     3
  9
$SHADEDIF
 70
    70
  9
$TILEMODE
 70
     1
  9
$MAXACTVP
 70
    16
  9
$PLIMCHECK
 70
     0
  9
$PEXTMIN
 10
1.0000000000000000E+020
 20
1.0000000000000000E+020
 30
1.0000000000000000E+020
  9
$PEXTMAX
 10
-1.0000000000000000E+020
 20
-1.0000000000000000E+020
 30
-1.0000000000000000E+020
  9
$PLIMMIN
 10
0.0
 20
0.0
  9
$PLIMMAX
 10
12.0
 20
9.0
  9
$UNITMODE
 70
     0
  9
$VISRETAIN
 70
     0
  9
$PLINEGEN
 70
     0
  9
$PSLTSCALE
 70
     0
  0
ENDSEC
  0
SECTION
  2
TABLES
  0
TABLE
  2
VPORT
 70
     3
  0
VPORT
  2
*ACTIVE
 70
     0
 10
0.0
 20
0.0
 11
1.0
 21
1.0
 12
252.87375745526839
 22
138.0
 13
0.0
 23
0.0
 14
5.0
 24
5.0
 15
10.0
 25
10.0
 16
0.0
 26
0.0
 36
1.0
 17
0.0
 27
0.0
 37
0.0
 40
288.5
 41
1.8310139165009931
 42
50.0
 43
0.0
 44
0.0
 50
0.0
 51
0.0
 71
     0
 72
   200
 73
     1
 74
     0
 75
     0
 76
     0
 77
     0
 78
     0
  0
ENDTAB
  0
TABLE
  2
LTYPE
 70
     5
  0
LTYPE
  2
CONTINUOUS
 70
     0
  3
Solid line
 72
    65
 73
     0
 40
0.0
  0
LTYPE
  2
HIDDEN
 70
     0
  3
_ _ _ _ _ _ _ _ _ _ _ _ _ _ _ _ _ _ _ _ _ _ _
 72
    65
 73
     2
 40
0.375
 49
0.25
 49
-0.125
  0
LTYPE
  2
DASHDOT
 70
     0
  3
__ . __ . __ . __ . __ . __ . __ . __ . __ . __
 72
    65
 73
     4
 40
1.0
 49
0.5
 49
-0.25
 49
0.0
 49
-0.25
  0
LTYPE
  2
PHANTOM
 70
     0
  3
_____ _ _ _____ _ _ _____ _ _ _____ _ _ ____
 72
    65
 73
     6
 40
2.5
 49
1.25
 49
-0.25
 49
0.25
 49
-0.25
 49
0.25
 49
-0.25
  0
LTYPE
  2
DIVIDE
 70
     0
  3
__ . . __ . . __ . . __ . . __ . . __ . . __
 72
    65
 73
     6
 40
1.25
 49
0.5
 49
-0.25
 49
0.0
 49
-0.25
 49
0.0
 49
-0.25
  0
ENDTAB
  0
TABLE
  2
LAYER
 70
    33
  0
LAYER
  2
0
 70
     0
 62
     7
  6
CONTINUOUS
  0
LAYER
  2
01
 70
     0
 62
     3
  6
CONTINUOUS
  0
LAYER
  2
02
 70
     0
 62
     1
  6
CONTINUOUS
  0
LAYER
  2
03
 70
     0
 62
     3
  6
HIDDEN
  0
LAYER
  2
04
 70
     0
 62
     4
  6
HIDDEN
  0
LAYER
  2
05
 70
     0
 62
     6
  6
DASHDOT
  0
LAYER
  2
06
 70
     0
 62
     3
  6
DASHDOT
  0
LAYER
  2
07
 70
     0
 62
     6
  6
PHANTOM
  0
LAYER
  2
08
 70
     0
 62
     2
  6
CONTINUOUS
  0
LAYER
  2
09
 70
     0
 62
     2
  6
CONTINUOUS
  0
LAYER
  2
10
 70
     0
 62
     1
  6
CONTINUOUS
  0
LAYER
  2
11
 70
     0
 62
     7
  6
CONTINUOUS
  0
LAYER
  2
12
 70
     0
 62
     7
  6
CONTINUOUS
  0
LAYER
  2
13
 70
     0
 62
     7
  6
CONTINUOUS
  0
LAYER
  2
14
 70
     0
 62
     7
  6
CONTINUOUS
  0
LAYER
  2
15
 70
     0
 62
     5
  6
CONTINUOUS
  0
LAYER
  2
16
 70
     0
 62
     7
  6
CONTINUOUS
  0
LAYER
  2
1
 70
     0
 62
     7
  6
CONTINUOUS
  0
LAYER
  2
103
 70
     0
 62
     3
  6
CONTINUOUS
  0
LAYER
  2
104
 70
     0
 62
     7
  6
HIDDEN
  0
LAYER
  2
105
 70
     0
 62
     3
  6
HIDDEN
  0
LAYER
  2
106
 70
     0
 62
     7
  6
DASHDOT
  0
LAYER
  2
107
 70
     0
 62
     7
  6
DIVIDE
  0
LAYER
  2
102
 70
     0
 62
     7
  6
CONTINUOUS
  0
LAYER
  2
108
 70
     0
 62
     7
  6
CONTINUOUS
  0
LAYER
  2
109
 70
     0
 62
     7
  6
CONTINUOUS
  0
LAYER
  2
110
 70
     0
 62
     7
  6
CONTINUOUS
  0
LAYER
  2
111
 70
     0
 62
     7
  6
CONTINUOUS
  0
LAYER
  2
POSNR
 70
     0
 62
     7
  6
CONTINUOUS
  0
LAYER
  2
NOD
 70
     0
 62
     7
  6
CONTINUOUS
  0
LAYER
  2
MASTERLINE_CFG
 70
     5
 62
     7
  6
CONTINUOUS
  0
LAYER
  2
101
 70
     0
 62
    -5
  6
CONTINUOUS
  0
LAYER
  2
DEFPOINTS
 70
     0
 62
     7
  6
CONTINUOUS
  0
ENDTAB
  0
TABLE
  2
STYLE
 70
     5
  0
STYLE
  2
STANDARD
 70
     0
 40
3.149999999999999
 41
1.0
 50
0.0
 71
     0
 42
7.000000000000048
  3
SIMPLEX
  4

  0
STYLE
  2
SIMPLEX
 70
     0
 40
3.149999999999999
 41
1.0
 50
0.0
 71
     0
 42
5.0
  3
SIMPLEX
  4

  0
STYLE
  2
VERTIKAL
 70
     4
 40
3.149999999999999
 41
1.0
 50
0.0
 71
     0
 42
7.000000000000048
  3
SIMPLEX
  4

  0
STYLE
  2
ISO
 70
     0
 40
3.149999999999999
 41
1.0
 50
0.0
 71
     0
 42
7.000000000000048
  3
ISO.SHX
  4

  0
STYLE
  2
ROMANS
 70
     0
 40
3.149999999999999
 41
0.7
 50
0.0
 71
     0
 42
7.000000000000048
  3
romans
  4

  0
ENDTAB
  0
TABLE
  2
VIEW
 70
     0
  0
ENDTAB
  0
TABLE
  2
UCS
 70
     0
  0
ENDTAB
  0
TABLE
  2
APPID
 70
     3
  0
APPID
  2
ACAD
 70
     0
  0
APPID
  2
MASTERLINE_CFG
 70
     0
  0
APPID
  2
MASTERLINE_CFG_LAYER
 70
     0
  0
ENDTAB
  0
TABLE
  2
DIMSTYLE
 70
     1
  0
DIMSTYLE
  2
STANDARD
 70
     0
  3

  4

  5

  6

  7

 40
1.0
 41
0.18
 42
0.0625
 43
0.38
 44
0.18
 45
0.0
 46
0.0
 47
0.0
 48
0.0
140
0.18
141
0.09
142
0.0
143
25.399999999999999
144
1.0
145
0.0
146
1.0
147
0.09
 71
     0
 72
     0
 73
     1
 74
     1
 75
     0
 76
     0
 77
     0
 78
     0
170
     0
171
     2
172
     0
173
     0
174
     0
175
     0
176
     0
177
     0
178
     0
  0
ENDTAB
  0
ENDSEC
  0
SECTION
  2
BLOCKS
  0
BLOCK
  8
0
  2
$MODEL_SPACE
 70
     0
 10
0.0
 20
0.0
 30
0.0
  3
$MODEL_SPACE
  1

  0
ENDBLK
  5
6E
  8
0
  0
BLOCK
 67
     1
  8
0
  2
$PAPER_SPACE
 70
     0
 10
0.0
 20
0.0
 30
0.0
  3
$PAPER_SPACE
  1

  0
ENDBLK
  5
6C
 67
     1
  8
0
  0
BLOCK
  8
0
  2
PURGE_ME_3
 70
     2
 10
0.0
 20
0.0
 30
0.0
  3
PURGE_ME_3
  1

  0
ATTDEF
  5
70
  8
11
 10
4.8967877461232368
 20
37.721700250033649
 30
0.0
 40
3.149999999999999
  1
3.15
  7
ISO
 72
     1
 11
9.3967877461232376
 21
37.721700250033649
 31
0.0
  3
Måttextens höjd
  2
G:HTXT
 70
     1
  0
ATTDEF
  5
72
  8
11
 10
5.826772134685922
 20
34.071792740622008
 30
0.0
 40
3.149999999999999
  1
2.0
  7
ISO
 72
     1
 11
9.1267721346859219
 21
34.071792740622008
 31
0.0
  3
Måttgränslinjeutbredning
  2
G:MEXE
 70
     1
  0
ATTDEF
  5
73
  8
11
 10
5.9917643289672347
 20
30.286875982151539
 30
0.0
 40
3.149999999999999
  1
1.5
  7
ISO
 72
     1
 11
8.9917643289672355
 21
30.286875982151539
 31
0.0
  3
Måttextens förskjutning
  2
G:MTI1
 70
     1
  0
ATTDEF
  5
74
  8
11
 10
6.3967877461232368
 20
26.501959223681069
 30
0.0
 40
3.149999999999999
  1
1.5
  7
ISO
 72
     1
 11
9.3967877461232376
 21
26.501959223681069
 31
0.0
  3
Radavstånd för måttext
  2
G:MTI2
 70
     1
  0
ATTDEF
  5
75
  8
11
 10
8.0767721346858927
 20
22.987060963328268
 30
0.0
 40
3.149999999999999
  1
8
  7
ISO
 72
     1
 11
9.1267721346858934
 21
22.987060963328268
 31
0.0
  3
Små mått, sida 1
  2
G:MOT1
 70
     1
  0
ATTDEF
  5
76
  8
11
 10
8.2867799404045517
 20
19.33715345391661
 30
0.0
 40
3.149999999999999
  1
6
  7
ISO
 72
     1
 11
9.2617799404045513
 21
19.33715345391661
 31
0.0
  3
Små mått, sida 2
  2
G:MOT2
 70
     1
  0
ATTDEF
  5
77
  8
11
 10
-3.0382981167820811
 20
15.68724594450495
 30
0.0
 40
3.149999999999999
  1
PILHUVUD
  7
ISO
 72
     1
 11
7.9117018832179147
 21
15.68724594450495
 31
0.0
  3
Måttgränsmarkering
  2
G:PIL
 70
     1
  0
ATTDEF
  5
78
  8
11
 10
8.3352830008829351
 20
11.990876373347019
 30
0.0
 40
3.149999999999999
  1
N
  7
ISO
 72
     1
 11
9.3852830008829358
 21
11.990876373347019
 31
0.0
  3
Parallell bas-text J/N
  2
G:FBPA
 70
     1
  0
ATTDEF
  5
79
  8
11
 10
8.3950448179475927
 20
8.3986583070106349
 30
0.0
 40
3.149999999999999
  1
J
  7
ISO
 72
     1
 11
9.1450448179475927
 21
8.3986583070106349
 31
0.0
  3
Decimalkomma J/N
  2
G:MDEC
 70
     1
  0
ATTDEF
  5
7A
  8
11
 10
8.9079317993855796
 20
4.6634591054952628
 30
0.0
 40
3.149999999999999
  1
1
  7
ISO
 72
     1
 11
9.2829317993855796
 21
4.6634591054952628
 31
0.0
  3
Alternativ skalfaktor
  2
G:MSCA
 70
     1
  0
ATTDEF
  5
7B
  8
11
 10
0.7010354372155235
 20
1.087866306593156
 30
0.0
 40
3.149999999999999
  1
N
  7
ISO
  3
Toleranssymbol J/N
  2
G:MTOL
 70
     1
  0
ENDBLK
  5
7C
  8
0
  0
BLOCK
  8
0
  2
PURGE_ME_2
 70
     2
 10
0.0
 20
0.0
 30
0.0
  3
PURGE_ME_2
  1

  0
ATTDEF
  5
7E
  8
11
 10
-1.0499999999999989
 20
-1.3375796178343931
 30
0.0
 40
3.149999999999999
  1
N
  7
ISO
 72
     1
 11
0.0
 21
-1.3375796178343931
 31
0.0
  3
Lagergrupper eller ej J/N
  2
G:LGR
 70
     1
  0
ATTDEF
  5
7F
  8
11
 10
-2.3249999999999988
 20
-8.4713375796178525
 30
0.0
 40
3.149999999999999
  1
-1
  7
ISO
 72
     1
 11
0.0
 21
-8.4713375796178525
 31
0.0
  3
Aktiv lagergrupp
  2
G:LG_A
 70
     1
  0
ENDBLK
  5
80
  8
0
  0
BLOCK
  8
0
  2
PURGE_ME_1
 70
     2
 10
0.0
 20
0.0
 30
0.0
  3
PURGE_ME_1
  1

  0
ATTDEF
  5
82
  8
11
 10
-0.75
 20
-1.575
 30
0.0
 40
3.149999999999999
  1
J
  7
ISO
 72
     4
 11
0.0
 21
0.0
 31
0.0
  3
Utskärningshörn J/N
  2
G:UTSH
 70
     1
  0
ATTDEF
  5
83
  8
11
 10
-0.75
 20
-6.5750000000000002
 30
0.0
 40
3.149999999999999
  1
J
  7
ISO
 72
     4
 11
0.0
 21
-5.0
 31
0.0
  3
Orienteringsmärken J/N
  2
G:CENM
 70
     1
  0
ATTDEF
  5
84
  8
11
 10
-1.7145735388511301
 20
-11.65704987165385
 30
0.0
 40
3.149999999999999
  1
5
  7
ISO
 72
     4
 11
-0.6645735388511298
 21
-10.082049871653849
 31
0.0
  3
Delning SNITT
  2
G:DHA
 70
     1
  0
ATTDEF
  5
85
  8
11
 10
-3.2145735388511292
 20
-16.65704987165385
 30
0.0
 40
3.149999999999999
  1
45
  7
ISO
 72
     4
 11
-0.6645735388511298
 21
-15.082049871653849
 31
0.0
  3
Vinkel SNITT
  2
G:DVI
 70
     1
  0
ATTDEF
  5
86
  8
11
 10
-4.9395735388511302
 20
-21.65704987165385
 30
0.0
 40
3.149999999999999
  1
POS
  7
ISO
 72
     4
 11
-0.6645735388511298
 21
-20.082049871653851
 31
0.0
  3
Positionsblock
  2
G:POBA
 70
     1
  0
ATTDEF
  5
87
  8
11
 10
-1.714573538851129
 20
-26.65704987165385
 30
0.0
 40
3.149999999999999
  1
7
  7
ISO
 72
     4
 11
-0.6645735388511298
 21
-25.082049871653851
 31
0.0
  3
Positionradie
  2
G:PORA
 70
     1
  0
ATTDEF
  5
88
  8
11
 10
-1.7895735388511289
 20
-31.65704987165385
 30
0.0
 40
3.149999999999999
  1
C
  7
ISO
 72
     4
 11
-0.6645735388511298
 21
-30.082049871653851
 31
0.0
  3
Positionsform (C/K)
  2
G:POFO
 70
     1
  0
ATTDEF
  5
89
  8
11
 10
-2.2395735388511291
 20
-36.657049871653847
 30
0.0
 40
3.149999999999999
  1
PI
  7
ISO
 72
     4
 11
-0.6645735388511298
 21
-35.082049871653851
 31
0.0
  3
POS-anslut. (PI/PU/ST)
  2
G:POAN
 70
     1
  0
ATTDEF
  5
8A
  8
11
 10
-1.05
 20
-41.355885588558863
 30
0.0
 40
3.149999999999999
  1
5
  7
ISO
 72
     1
 11
0.0
 21
-41.355885588558863
 31
0.0
  3
Stycklistans radavstånd
  2
G:RAAV
 70
     1
  0
ATTDEF
  5
8B
  8
11
 10
-1.0499999999999989
 20
-46.575000000000003
 30
0.0
 40
3.149999999999999
  1
7
  7
ISO
 72
     4
 11
0.0
 21
-45.0
 31
0.0
  3
Stycklisthuvudets höjd
  2
G:HUAV
 70
     1
  0
ATTDEF
  5
8C
  8
11
 10
-1.0499999999999989
 20
-51.114155153025791
 30
0.0
 40
3.149999999999999
  1
N
  7
ISO
 72
     1
 11
0.0
 21
-51.114155153025791
 31
0.0
  3
Summera stycklista J/N
  2
G:S_SU
 70
     1
  0
ATTDEF
  5
8D
  8
11
 10
-2.399999999999999
 20
-56.274999999999999
 30
0.0
 40
3.149999999999999
  1
,2,
  7
ISO
 72
     4
 11
0.0
 21
-55.0
 31
0.0
  3
Kolumner att summera
  2
G:SU_L
 70
     1
  0
ATTDEF
  5
8E
  8
11
 10
-9.4500000000000011
 20
-61.114155153025791
 30
0.0
 40
3.149999999999999
  1
REVRING
  7
ISO
 72
     1
 11
0.0
 21
-61.114155153025791
 31
0.0
  3
Revisionsblock
  2
G:REBA
 70
     1
  0
ATTDEF
  5
8F
  8
11
 10
-3.2999999999999989
 20
-66.575000000000003
 30
0.0
 40
3.149999999999999
  1
3.5
  7
ISO
 72
     4
 11
0.0
 21
-65.0
 31
0.0
  3
Radie på revisionsringen
  2
G:RERA
 70
     1
  0
ATTDEF
  5
90
  8
11
 10
-1.875
 20
-71.575000000000003
 30
0.0
 40
3.149999999999999
  1
01
  7
ISO
 72
     4
 11
0.0
 21
-70.0
 31
0.0
  3
Grov heldragen linje
  2
LA1
 70
     1
  0
ATTDEF
  5
91
  8
11
 10
-2.5499999999999989
 20
-76.575000000000003
 30
0.0
 40
3.149999999999999
  1
02
  7
ISO
 72
     4
 11
0.0
 21
-75.0
 31
0.0
  3
Fin heldragen linje
  2
LA2
 70
     1
  0
ATTDEF
  5
92
  8
11
 10
-2.5499999999999989
 20
-81.575000000000003
 30
0.0
 40
3.149999999999999
  1
03
  7
ISO
 72
     4
 11
0.0
 21
-80.0
 31
0.0
  3
Grov streckad linje
  2
LA3
 70
     1
  0
ATTDEF
  5
93
  8
11
 10
-2.625
 20
-86.575000000000003
 30
0.0
 40
3.149999999999999
  1
04
  7
ISO
 72
     4
 11
0.0
 21
-85.0
 31
0.0
  3
Fin streckad linje
  2
LA4
 70
     1
  0
ATTDEF
  5
94
  8
11
 10
-2.5499999999999998
 20
-91.575000000000003
 30
0.0
 40
3.149999999999999
  1
05
  7
ISO
 72
     4
 11
0.0
 21
-90.0
 31
0.0
  3
Fin centrumlinje
  2
LA5
 70
     1
  0
ATTDEF
  5
95
  8
11
 10
-2.4750000000000001
 20
-96.575000000000003
 30
0.0
 40
3.149999999999999
  1
06
  7
ISO
 72
     4
 11
0.0
 21
-95.0
 31
0.0
  3
Grov centrumlinje
  2
LA6
 70
     1
  0
ATTDEF
  5
96
  8
11
 10
-2.5499999999999989
 20
-101.575
 30
0.0
 40
3.149999999999999
  1
07
  7
ISO
 72
     4
 11
0.0
 21
-100.0
 31
0.0
  3
Dubbelpunktstreckad
  2
LA7
 70
     1
  0
ATTDEF
  5
97
  8
11
 10
-2.5499999999999989
 20
-106.5749999999999
 30
0.0
 40
3.149999999999999
  1
08
  7
ISO
 72
     4
 11
0.0
 21
-105.0
 31
0.0
  3
Dim o toleranslinjer
  2
LA8
 70
     1
  0
ATTDEF
  5
98
  8
11
 10
-2.4750000000000001
 20
-111.575
 30
0.0
 40
3.149999999999999
  1
09
  7
ISO
 72
     4
 11
0.0
 21
-110.0
 31
0.0
  3
Positionslinjer
  2
LA9
 70
     1
  0
ATTDEF
  5
99
  8
11
 10
-2.25
 20
-116.575
 30
0.0
 40
3.149999999999999
  1
10
  7
ISO
 72
     4
 11
0.0
 21
-115.0
 31
0.0
  3
Snittmarkeringar
  2
LA10
 70
     1
  0
ATTDEF
  5
9A
  8
11
 10
-1.5749999999999991
 20
-121.575
 30
0.0
 40
3.149999999999999
  1
11
  7
ISO
 72
     4
 11
0.0
 21
-120.0
 31
0.0
  3
Text
  2
LA11
 70
     1
  0
ATTDEF
  5
9B
  8
11
 10
-2.2499999999999991
 20
-126.575
 30
0.0
 40
3.149999999999999
  1
12
  7
ISO
 72
     4
 11
0.0
 21
-125.0
 31
0.0
  3
Dimtext
  2
LA12
 70
     1
  0
ATTDEF
  5
9C
  8
11
 10
-2.2499999999999991
 20
-131.5749999999999
 30
0.0
 40
3.149999999999999
  1
13
  7
ISO
 72
     4
 11
0.0
 21
-130.0
 31
0.0
  3
Vakant
  2
LA13
 70
     1
  0
ATTDEF
  5
9D
  8
11
 10
-2.3249999999999988
 20
-136.57499999999999
 30
0.0
 40
3.149999999999999
  1
14
  7
ISO
 72
     4
 11
0.0
 21
-135.0
 31
0.0
  3
Konstruktionslinjer
  2
LA14
 70
     1
  0
ATTDEF
  5
9E
  8
11
 10
-2.25
 20
-141.5749999999999
 30
0.0
 40
3.149999999999999
  1
15
  7
ISO
 72
     4
 11
0.0
 21
-140.0
 31
0.0
  3
Ritram
  2
LA15
 70
     1
  0
ATTDEF
  5
9F
  8
11
 10
-2.1749999999999989
 20
-146.5749999999999
 30
0.0
 40
3.149999999999999
  1
16
  7
ISO
 72
     4
 11
0.0
 21
-145.0
 31
0.0
  3
Information
  2
LA16
 70
     1
  0
ENDBLK
  5
A0
  8
0
  0
BLOCK
  8
0
  2
A4S
 70
     2
 10
0.0
 20
0.0
 30
0.0
  3
A4S
  1

  0
ATTDEF
  5
A2
  8
11
 62
     3
 10
-49.5
 20
8.5000000000000284
 30
0.0
 40
4.5
  1

 41
0.9
  7
ISO
 72
     4
 11
-49.5
 21
8.5000000000000284
 31
0.0
  3
Document No.
  2
DOCNO
 70
     0
  0
ATTDEF
  5
A3
  8
11
 10
-84.500000000000014
 20
27.000000000000021
 30
0.0
 40
3.149999999999999
  1

 41
0.9
  7
ISO
  3
Title (engelska)
  2
TITLE1
 70
     0
  0
ATTDEF
  5
A4
  8
11
 10
-84.500000000000014
 20
18.500000000000028
 30
0.0
 40
3.149999999999999
  1

 41
0.9
  7
ISO
  3
Title  (svenska)
  2
TITLE2
 70
     0
  0
ATTDEF
  5
A5
  8
11
 10
-129.99999999999969
 20
10.00000000000002
 30
0.0
 40
3.149999999999999
  1

 41
0.9
  7
ISO
  3
Filnamn(XXXX.DWG)
  2
FILENAME
 70
     0
  0
ATTDEF
  5
A6
  8
11
 10
-87.804719000804255
 20
10.120724129054009
 30
0.0
 40
3.149999999999999
  1

 41
0.9
  7
ISO
 72
     2
 11
-87.804719000804255
 21
10.120724129054009
 31
0.0
  3
Skala
  2
SCALE
 70
     0
  0
ATTDEF
  5
A7
  8
11
 10
-181.49999999999969
 20
27.000000000000021
 30
0.0
 40
3.149999999999999
  1

 41
0.9
  7
ISO
  3
Prepared
  2
PREPARED
 70
     0
  0
ATTDEF
  5
A8
  8
11
 10
-149.99999999999969
 20
31.500000000000028
 30
0.0
 40
2.149999999999999
  1
P
 41
0.9
  7
ISO
  3
P granskning
  2
P
 70
     0
  0
ATTDEF
  5
A9
  8
11
 10
-139.99999999999969
 20
31.500000000000028
 30
0.0
 40
2.149999999999999
  1
Q
 41
0.9
  7
ISO
  3
Q granskning
  2
Q
 70
     0
  0
ATTDEF
  5
AA
  8
11
 10
-181.49999999999969
 20
18.500000000000028
 30
0.0
 40
3.149999999999999
  1

 41
0.9
  7
ISO
  3
Approved
  2
APPROVED
 70
     0
  0
ATTDEF
  5
AB
  8
11
 10
-135.42999999999969
 20
18.500000000000028
 30
0.0
 40
3.149999999999999
  1
-
 41
0.9
  7
ISO
 72
     2
 11
-132.99999999999969
 21
18.500000000000028
 31
0.0
  3
Iss Date (ÅÅMMDD)
  2
ISSDATE
 70
     0
  0
ATTDEF
  5
AC
  8
11
 10
-181.49999999999969
 20
10.00000000000002
 30
0.0
 40
3.149999999999999
  1

 41
0.9
  7
ISO
  3
Revision
  2
REVISION
 70
     0
  0
ATTDEF
  5
AD
  8
11
 10
-129.99999999999969
 20
27.000000000000021
 30
0.0
 40
3.149999999999999
  1
SECRL/KA
 41
0.9
  7
ISO
  3
Responsible dept.
  2
RESPDEPT
 70
     0
  0
ATTDEF
  5
AE
  8
11
 10
-129.99999999999969
 20
18.500000000000028
 30
0.0
 40
3.149999999999999
  1

 41
0.9
  7
ISO
  3
Take over dept.
  2
TAKEOVDEPT
 70
     0
  0
ATTDEF
  5
AF
  8
11
 10
-8.7949999999999982
 20
18.675000000000029
 30
0.0
 40
3.149999999999999
  1
82
 41
0.9
  7
ISO
 72
     4
 11
-6.5
 21
20.250000000000028
 31
0.0
  3
Language (82=E,S)
  2
LANG
 70
     0
  0
ATTDEF
  5
B0
  8
11
 10
-6.8375000000000004
 20
1.4933336661250849
 30
0.0
 40
3.149999999999999
  1
1
 41
0.9
  7
ISO
 72
     4
 11
-6.5
 21
3.068333666125084
 31
0.0
  3
Sheet
  2
SHEET
 70
     0
  0
ATTDEF
  5
B1
  8
11
 10
-7.714999999999999
 20
10.40000000000002
 30
0.0
 40
3.149999999999999
  1
-
 41
0.9
  7
ISO
 72
     4
 11
-6.5
 21
11.75000000000002
 31
0.0
  3
Cont
  2
CONT
 70
     0
  0
ATTDEF
  5
B2
  8
11
 10
-84.0
 20
1.500000000000028
 30
0.0
 40
2.165624999999999
  1

 41
0.9
  7
ISO
  3
Status
  2
STATUS
 70
     0
  0
ATTDEF
  5
B3
  8
11
 10
-177.9999999999998
 20
265.0
 30
0.0
 40
3.5
  1

 41
0.8
  7
ROMANS
  3
Typ
  2
TYPE
 70
     0
  0
LINE
  5
B5
  8
15
 10
-92.0
 20
271.0
 30
0.0
 11
-92.0
 21
276.0
 31
0.0
  0
LINE
  5
B6
  8
15
 10
-92.0
 20
271.0
 30
0.0
 11
0.0
 21
271.0
 31
0.0
  0
LINE
  5
B7
  8
15
 10
-82.0
 20
271.0
 30
0.0
 11
-82.0
 21
276.0
 31
0.0
  0
LINE
  5
B8
  8
15
 10
-31.5
 20
271.0
 30
0.0
 11
-31.5
 21
276.0
 31
0.0
  0
LINE
  5
B9
  8
15
 10
-21.0
 20
271.0
 30
0.0
 11
-21.0
 21
276.0
 31
0.0
  0
TEXT
  5
BA
  8
15
 62
     2
 10
-91.0
 20
273.0
 30
0.0
 40
1.6200000000000001
  1
Rev ind
 41
0.8643141475260469
  7
ISO
 72
     5
 11
-83.465650102565803
 21
273.0
 31
0.0
  0
TEXT
  5
BB
  8
15
 62
     2
 10
-80.0
 20
273.0
 30
0.0
 40
1.6200000000000001
  1
Revision
  7
ISO
  0
TEXT
  5
BC
  8
15
 62
     2
 10
-30.0
 20
273.0
 30
0.0
 40
1.6200000000000001
  1
Appd
  7
ISO
  0
TEXT
  5
BD
  8
15
 62
     2
 10
-19.0
 20
273.0
 30
0.0
 40
1.6200000000000001
  1
Year    Week
  7
ISO
  0
TEXT
  5
BE
  8
11
 62
     2
 10
-94.538883240173732
 20
14.50000000000002
 30
0.0
 40
1.75
  1
Scale
 41
0.9
  7
ISO
  0
LINE
  5
BF
  8
15
 10
-131.49999999999969
 20
34.500000000000021
 30
0.0
 11
-131.49999999999969
 21
9.0000000000000284
 31
0.0
  0
LINE
  5
C0
  8
15
 10
-86.0
 20
34.500000000000021
 30
0.0
 11
-86.0
 21
0.0000000000000284
 31
0.0
  0
LINE
  5
C1
  8
02
 10
-141.49999999999969
 20
34.500000000000021
 30
0.0
 11
-141.49999999999969
 21
32.500000000000028
 31
0.0
  0
LINE
  5
C2
  8
02
 10
-151.49999999999969
 20
34.500000000000021
 30
0.0
 11
-151.49999999999969
 21
32.500000000000028
 31
0.0
  0
LINE
  5
C3
  8
15
 10
-13.0
 20
9.0000000000000284
 30
0.0
 11
0.0
 21
9.0000000000000284
 31
0.0
  0
LINE
  5
C4
  8
15
 10
-13.0
 20
0.0000000000000284
 30
0.0
 11
-13.0
 21
34.500000000000021
 31
0.0
  0
LINE
  5
C5
  8
15
 10
-182.99999999999969
 20
17.500000000000021
 30
0.0
 11
0.0
 21
17.500000000000021
 31
0.0
  0
LINE
  5
C6
  8
15
 10
-182.99999999999969
 20
26.000000000000028
 30
0.0
 11
0.0
 21
26.000000000000028
 31
0.0
  0
LINE
  5
C7
  8
15
 10
-182.99999999999969
 20
34.500000000000021
 30
0.0
 11
0.0
 21
34.500000000000021
 31
0.0
  0
LINE
  5
C8
  8
15
 10
-182.99999999999969
 20
9.0000000000000284
 30
0.0
 11
-86.0
 21
9.0000000000000284
 31
0.0
  0
INSERT
  5
C9
  8
0
 66
     1
  2
PURGE_ME_3
 10
-203.0
 20
-14.0
 30
0.0
  0
ATTRIB
  5
CA
  8
11
 10
-198.10321225387671
 20
23.721700250033638
 30
0.0
 40
3.149999999999999
  1
3.15
  7
ISO
 72
     1
 11
-193.60321225387671
 21
23.721700250033638
 31
0.0
  2
G:HTXT
 70
     1
  0
ATTRIB
  5
CB
  8
11
 10
-197.17322786531409
 20
20.071792740622008
 30
0.0
 40
3.149999999999999
  1
2.0
  7
ISO
 72
     1
 11
-193.87322786531399
 21
20.071792740622008
 31
0.0
  2
G:MEXE
 70
     1
  0
ATTRIB
  5
CC
  8
11
 10
-197.00823567103271
 20
16.286875982151539
 30
0.0
 40
3.149999999999999
  1
1.5
  7
ISO
 72
     1
 11
-194.00823567103271
 21
16.286875982151539
 31
0.0
  2
G:MTI1
 70
     1
  0
ATTRIB
  5
CD
  8
11
 10
-196.60321225387671
 20
12.501959223681061
 30
0.0
 40
3.149999999999999
  1
1.5
  7
ISO
 72
     1
 11
-193.60321225387671
 21
12.501959223681061
 31
0.0
  2
G:MTI2
 70
     1
  0
ATTRIB
  5
CE
  8
11
 10
-194.92322786531409
 20
8.9870609633282754
 30
0.0
 40
3.149999999999999
  1
8
  7
ISO
 72
     1
 11
-193.87322786531411
 21
8.9870609633282754
 31
0.0
  2
G:MOT1
 70
     1
  0
ATTRIB
  5
CF
  8
11
 10
-194.71322005959539
 20
5.3371534539166134
 30
0.0
 40
3.149999999999999
  1
6
  7
ISO
 72
     1
 11
-193.73822005959539
 21
5.3371534539166134
 31
0.0
  2
G:MOT2
 70
     1
  0
ATTRIB
  5
D0
  8
11
 10
-206.03829811678199
 20
1.687245944504951
 30
0.0
 40
3.149999999999999
  1
PILHUVUD
  7
ISO
 72
     1
 11
-195.088298116782
 21
1.687245944504951
 31
0.0
  2
G:PIL
 70
     1
  0
ATTRIB
  5
D1
  8
11
 10
-194.66471699911699
 20
-2.0091236266529791
 30
0.0
 40
3.149999999999999
  1
N
  7
ISO
 72
     1
 11
-193.61471699911701
 21
-2.0091236266529791
 31
0.0
  2
G:FBPA
 70
     1
  0
ATTRIB
  5
D2
  8
11
 10
-194.60495518205241
 20
-5.6013416929893651
 30
0.0
 40
3.149999999999999
  1
J
  7
ISO
 72
     1
 11
-193.85495518205229
 21
-5.6013416929893651
 31
0.0
  2
G:MDEC
 70
     1
  0
ATTRIB
  5
D3
  8
11
 10
-194.09206820061439
 20
-9.3365408945047363
 30
0.0
 40
3.149999999999999
  1
1
  7
ISO
 72
     1
 11
-193.71706820061439
 21
-9.3365408945047363
 31
0.0
  2
G:MSCA
 70
     1
  0
ATTRIB
  5
D4
  8
11
 10
-202.29896456278439
 20
-12.91213369340684
 30
0.0
 40
3.149999999999999
  1
N
  7
ISO
  2
G:MTOL
 70
     1
  0
SEQEND
  5
D5
  8
0
  0
INSERT
  5
D6
  8
0
 66
     1
  2
PURGE_ME_2
 10
-203.0
 20
-14.0
 30
0.0
  0
ATTRIB
  5
D7
  8
11
 10
-204.05000000000001
 20
-15.33757961783439
 30
0.0
 40
3.149999999999999
  1
N
  7
ISO
 72
     1
 11
-203.0
 21
-15.33757961783439
 31
0.0
  2
G:LGR
 70
     1
  0
ATTRIB
  5
D8
  8
11
 10
-205.3249999999999
 20
-22.471337579617849
 30
0.0
 40
3.149999999999999
  1
-1
  7
ISO
 72
     1
 11
-203.0
 21
-22.471337579617849
 31
0.0
  2
G:LG_A
 70
     1
  0
SEQEND
  5
D9
  8
0
  0
INSERT
  5
DA
  8
0
 66
     1
  2
PURGE_ME_1
 10
-203.0
 20
-14.0
 30
0.0
  0
ATTRIB
  5
DB
  8
11
 10
-203.75
 20
-15.574999999999999
 30
0.0
 40
3.149999999999999
  1
J
  7
ISO
 72
     4
 11
-203.0
 21
-14.0
 31
0.0
  2
G:UTSH
 70
     1
  0
ATTRIB
  5
DC
  8
11
 10
-203.75
 20
-20.574999999999999
 30
0.0
 40
3.149999999999999
  1
J
  7
ISO
 72
     4
 11
-203.0
 21
-19.0
 31
0.0
  2
G:CENM
 70
     1
  0
ATTRIB
  5
DD
  8
11
 10
-204.71457353885111
 20
-25.65704987165385
 30
0.0
 40
3.149999999999999
  1
5
  7
ISO
 72
     4
 11
-203.6645735388511
 21
-24.082049871653851
 31
0.0
  2
G:DHA
 70
     1
  0
ATTRIB
  5
DE
  8
11
 10
-206.21457353885111
 20
-30.65704987165385
 30
0.0
 40
3.149999999999999
  1
45
  7
ISO
 72
     4
 11
-203.6645735388511
 21
-29.082049871653851
 31
0.0
  2
G:DVI
 70
     1
  0
ATTRIB
  5
DF
  8
11
 10
-207.93957353885111
 20
-35.657049871653847
 30
0.0
 40
3.149999999999999
  1
POS
  7
ISO
 72
     4
 11
-203.6645735388511
 21
-34.082049871653851
 31
0.0
  2
G:POBA
 70
     1
  0
ATTRIB
  5
E0
  8
11
 10
-204.71457353885111
 20
-40.657049871653847
 30
0.0
 40
3.149999999999999
  1
7
  7
ISO
 72
     4
 11
-203.6645735388511
 21
-39.082049871653851
 31
0.0
  2
G:PORA
 70
     1
  0
ATTRIB
  5
E1
  8
11
 10
-204.7895735388511
 20
-45.657049871653847
 30
0.0
 40
3.149999999999999
  1
C
  7
ISO
 72
     4
 11
-203.6645735388511
 21
-44.082049871653851
 31
0.0
  2
G:POFO
 70
     1
  0
ATTRIB
  5
E2
  8
11
 10
-205.23957353885109
 20
-50.657049871653861
 30
0.0
 40
3.149999999999999
  1
PI
  7
ISO
 72
     4
 11
-203.6645735388511
 21
-49.082049871653851
 31
0.0
  2
G:POAN
 70
     1
  0
ATTRIB
  5
E3
  8
11
 10
-204.05000000000001
 20
-55.355885588558863
 30
0.0
 40
3.149999999999999
  1
5
  7
ISO
 72
     1
 11
-203.0
 21
-55.355885588558863
 31
0.0
  2
G:RAAV
 70
     1
  0
ATTRIB
  5
E4
  8
11
 10
-204.05000000000001
 20
-60.575000000000003
 30
0.0
 40
3.149999999999999
  1
7
  7
ISO
 72
     4
 11
-203.0
 21
-59.0
 31
0.0
  2
G:HUAV
 70
     1
  0
ATTRIB
  5
E5
  8
11
 10
-204.05000000000001
 20
-65.114155153025791
 30
0.0
 40
3.149999999999999
  1
N
  7
ISO
 72
     1
 11
-203.0
 21
-65.114155153025791
 31
0.0
  2
G:S_SU
 70
     1
  0
ATTRIB
  5
E6
  8
11
 10
-205.40000000000001
 20
-70.275000000000006
 30
0.0
 40
3.149999999999999
  1
,2,
  7
ISO
 72
     4
 11
-203.0
 21
-69.0
 31
0.0
  2
G:SU_L
 70
     1
  0
ATTRIB
  5
E7
  8
11
 10
-212.4499999999999
 20
-75.114155153025791
 30
0.0
 40
3.149999999999999
  1
REVRING
  7
ISO
 72
     1
 11
-203.0
 21
-75.114155153025791
 31
0.0
  2
G:REBA
 70
     1
  0
ATTRIB
  5
E8
  8
11
 10
-206.30000000000001
 20
-80.575000000000003
 30
0.0
 40
3.149999999999999
  1
3.5
  7
ISO
 72
     4
 11
-203.0
 21
-79.0
 31
0.0
  2
G:RERA
 70
     1
  0
ATTRIB
  5
E9
  8
11
 10
-204.875
 20
-85.575000000000003
 30
0.0
 40
3.149999999999999
  1
01
  7
ISO
 72
     4
 11
-203.0
 21
-84.0
 31
0.0
  2
LA1
 70
     1
  0
ATTRIB
  5
EA
  8
11
 10
-205.55000000000001
 20
-90.575000000000003
 30
0.0
 40
3.149999999999999
  1
02
  7
ISO
 72
     4
 11
-203.0
 21
-89.0
 31
0.0
  2
LA2
 70
     1
  0
ATTRIB
  5
EB
  8
11
 10
-205.55000000000001
 20
-95.575000000000003
 30
0.0
 40
3.149999999999999
  1
03
  7
ISO
 72
     4
 11
-203.0
 21
-94.0
 31
0.0
  2
LA3
 70
     1
  0
ATTRIB
  5
EC
  8
11
 10
-205.62499999999989
 20
-100.575
 30
0.0
 40
3.149999999999999
  1
04
  7
ISO
 72
     4
 11
-203.0
 21
-99.0
 31
0.0
  2
LA4
 70
     1
  0
ATTRIB
  5
ED
  8
11
 10
-205.55000000000001
 20
-105.5749999999999
 30
0.0
 40
3.149999999999999
  1
05
  7
ISO
 72
     4
 11
-203.0
 21
-104.0
 31
0.0
  2
LA5
 70
     1
  0
ATTRIB
  5
EE
  8
11
 10
-205.47499999999991
 20
-110.575
 30
0.0
 40
3.149999999999999
  1
06
  7
ISO
 72
     4
 11
-203.0
 21
-109.0
 31
0.0
  2
LA6
 70
     1
  0
ATTRIB
  5
EF
  8
11
 10
-205.55000000000001
 20
-115.575
 30
0.0
 40
3.149999999999999
  1
07
  7
ISO
 72
     4
 11
-203.0
 21
-114.0
 31
0.0
  2
LA7
 70
     1
  0
ATTRIB
  5
F0
  8
11
 10
-205.55000000000001
 20
-120.575
 30
0.0
 40
3.149999999999999
  1
08
  7
ISO
 72
     4
 11
-203.0
 21
-119.0
 31
0.0
  2
LA8
 70
     1
  0
ATTRIB
  5
F1
  8
11
 10
-205.47499999999991
 20
-125.575
 30
0.0
 40
3.149999999999999
  1
09
  7
ISO
 72
     4
 11
-203.0
 21
-124.0
 31
0.0
  2
LA9
 70
     1
  0
ATTRIB
  5
F2
  8
11
 10
-205.25
 20
-130.5749999999999
 30
0.0
 40
3.149999999999999
  1
10
  7
ISO
 72
     4
 11
-203.0
 21
-129.0
 31
0.0
  2
LA10
 70
     1
  0
ATTRIB
  5
F3
  8
11
 10
-204.5749999999999
 20
-135.57499999999999
 30
0.0
 40
3.149999999999999
  1
11
  7
ISO
 72
     4
 11
-203.0
 21
-134.0
 31
0.0
  2
LA11
 70
     1
  0
ATTRIB
  5
F4
  8
11
 10
-205.25
 20
-140.5749999999999
 30
0.0
 40
3.149999999999999
  1
12
  7
ISO
 72
     4
 11
-203.0
 21
-139.0
 31
0.0
  2
LA12
 70
     1
  0
ATTRIB
  5
F5
  8
11
 10
-205.25
 20
-145.5749999999999
 30
0.0
 40
3.149999999999999
  1
13
  7
ISO
 72
     4
 11
-203.0
 21
-144.0
 31
0.0
  2
LA13
 70
     1
  0
ATTRIB
  5
F6
  8
11
 10
-205.3249999999999
 20
-150.5749999999999
 30
0.0
 40
3.149999999999999
  1
14
  7
ISO
 72
     4
 11
-203.0
 21
-149.0
 31
0.0
  2
LA14
 70
     1
  0
ATTRIB
  5
F7
  8
11
 10
-205.25
 20
-155.5749999999999
 30
0.0
 40
3.149999999999999
  1
15
  7
ISO
 72
     4
 11
-203.0
 21
-154.0
 31
0.0
  2
LA15
 70
     1
  0
ATTRIB
  5
F8
  8
11
 10
-205.17500000000001
 20
-160.57499999999999
 30
0.0
 40
3.149999999999999
  1
16
  7
ISO
 72
     4
 11
-203.0
 21
-159.0
 31
0.0
  2
LA16
 70
     1
  0
SEQEND
  5
F9
  8
0
  0
ENDBLK
  5
FA
  8
0
  0
BLOCK
  8
0
  2
S71
 70
     0
 10
0.0
 20
0.0
 30
0.0
  3
S71
  1

  0
POLYLINE
  5
FC
  8
111
 66
     1
 10
0.0
 20
0.0
 30
0.0
 70
     1
 40
0.5
 41
0.5
  0
VERTEX
  5
519
  8
111
 10
-0.25
 20
0.0
 30
0.0
 42
1.0
  0
VERTEX
  5
51A
  8
111
 10
0.25
 20
0.0
 30
0.0
 42
1.0
  0
SEQEND
  5
51B
  8
111
  0
ENDBLK
  5
100
  8
0
  0
BLOCK
  8
0
  2
WA4
 70
     0
 10
0.0
 20
0.0
 30
0.0
  3
WA4
  1

  0
LINE
  5
102
  8
01
 10
88.250000000000014
 20
-6.0
 30
0.0
 11
88.250000000000014
 21
0.0
 31
0.0
  0
LINE
  5
103
  8
01
 10
87.75
 20
-6.0
 30
0.0
 11
87.75
 21
0.0
 31
0.0
  0
LINE
  5
104
  8
01
 10
88.250000000000014
 20
282.0
 30
0.0
 11
88.250000000000014
 21
276.0
 31
0.0
  0
LINE
  5
105
  8
01
 10
87.75
 20
282.0
 30
0.0
 11
87.75
 21
276.0
 31
0.0
  0
LINE
  5
106
  8
01
 10
189.0
 20
138.25
 30
0.0
 11
183.0
 21
138.25
 31
0.0
  0
LINE
  5
107
  8
01
 10
189.0
 20
137.74999999999989
 30
0.0
 11
183.0
 21
137.74999999999989
 31
0.0
  0
LINE
  5
108
  8
01
 10
0.0
 20
138.25
 30
0.0
 11
-3.2911498247611668
 21
138.25
 31
0.0
  0
LINE
  5
109
  8
01
 10
0.0
 20
137.74999999999989
 30
0.0
 11
-3.2911498247611668
 21
137.74999999999989
 31
0.0
  0
LINE
  5
10A
  8
01
 10
0.0
 20
138.0
 30
0.0
 11
-3.2911498247611668
 21
138.0
 31
0.0
  0
INSERT
  5
10B
  8
01
  2
I
 10
178.91397021035451
 20
30.250000000000028
 30
0.0
  0
LINE
  5
10C
  8
01
 10
88.0
 20
282.0
 30
0.0
 11
88.0
 21
276.0
 31
0.0
  0
LINE
  5
10D
  8
01
 10
88.0
 20
-6.0
 30
0.0
 11
88.0
 21
0.0
 31
0.0
  0
LINE
  5
10E
  8
01
 10
189.0
 20
138.0
 30
0.0
 11
183.0
 21
138.0
 31
0.0
  0
TEXT
  5
10F
  8
15
 62
     2
 10
0.589224735534728
 20
-2.9249894138882331
 30
0.0
 40
1.75
  1
(A4)
 41
0.9
  7
ISO
  0
TEXT
  5
110
  8
09
 10
-8.721722844170344
 20
114.81402649383681
 30
0.0
 40
1.8
  1
We reserve all rights in this document and in the 
 50
90.0
 41
0.7
  7
ROMANS
  0
TEXT
  5
111
  8
09
 10
-6.307437129884633
 20
114.81402649383681
 30
0.0
 40
1.8
  1
information contained therein. Reproduction, use or
 50
90.0
 41
0.7
  7
ROMANS
  0
TEXT
  5
112
  8
09
 10
-3.8931514155989211
 20
114.81402649383681
 30
0.0
 40
1.8
  1
disclosure to third parties without express authority
 50
90.0
 41
0.7
  7
ROMANS
  0
TEXT
  5
113
  8
09
 10
-1.4788657013132109
 20
114.81402649383681
 30
0.0
 40
1.8
  1
is strictly forbidden.            c  ABB Control
 50
90.0
 41
0.7
  7
ROMANS
  0
CIRCLE
  5
114
  8
11
 10
-2.0821424806752269
 20
150.0908336320079
 30
0.0
 40
1.129850332034507
  0
TEXT
  5
115
  8
15
 62
     2
 10
0.7409803324612853
 20
31.777364721317468
 30
0.0
 40
1.75
  1
Prepared
 41
0.9
  7
ISO
  0
TEXT
  5
116
  8
15
 62
     2
 10
0.7409803324612853
 20
23.277364721317468
 30
0.0
 40
1.75
  1
Approved
 41
0.9
  7
ISO
  0
TEXT
  5
117
  8
15
 62
     2
 10
0.7409803324612853
 20
14.77736472131747
 30
0.0
 40
1.75
  1
Revision
 41
0.9
  7
ISO
  0
TEXT
  5
118
  8
15
 62
     2
 10
52.240980332461248
 20
31.777364721317468
 30
0.0
 40
1.75
  1
Responsible department
 41
0.9
  7
ISO
  0
TEXT
  5
119
  8
15
 62
     2
 10
52.240980332461248
 20
23.277364721317468
 30
0.0
 40
1.75
  1
Take over department
 41
0.9
  7
ISO
  0
TEXT
  5
11A
  8
15
 62
     2
 10
97.740980332461064
 20
31.777364721317468
 30
0.0
 40
1.75
  1
Title
 41
0.9
  7
ISO
  0
TEXT
  5
11B
  8
15
 62
     2
 10
170.66891985023301
 20
23.255944026549439
 30
0.0
 40
1.75
  1
Lang.
 41
0.9
  7
ISO
  0
TEXT
  5
11C
  8
15
 62
     2
 10
170.66891985023301
 20
14.755944026549439
 30
0.0
 40
1.75
  1
Cont.
 41
0.9
  7
ISO
  0
TEXT
  5
11D
  8
15
 62
     2
 10
170.66891985023301
 20
6.2559440265494386
 30
0.0
 40
1.75
  1
Sheet
 41
0.9
  7
ISO
  0
TEXT
  5
11E
  8
15
 62
     2
 10
97.740980332461064
 20
14.77736472131747
 30
0.0
 40
1.75
  1
Document No.
 41
0.9
  7
ISO
  0
TEXT
  5
11F
  8
15
 10
24.252871287496468
 20
1.5
 30
0.0
 40
3.0
  1
ABB Control
 41
0.7
  7
ROMANS
  0
INSERT
  5
120
  8
15
  2
ABB6
 10
2.9955826296620378
 20
1.5020587371055281
 30
0.0
  0
POLYLINE
  5
121
  8
15
 66
     1
 10
0.0
 20
0.0
 30
0.0
 70
     1
 40
0.25
 41
0.25
  0
VERTEX
  5
51C
  8
15
 10
188.87499999999989
 20
282.0
 30
0.0
 42
1.0
  0
VERTEX
  5
51D
  8
15
 10
189.125
 20
282.0
 30
0.0
 42
1.0
  0
SEQEND
  5
51E
  8
15
  0
POLYLINE
  5
125
  8
15
 66
     1
 10
0.0
 20
0.0
 30
0.0
 70
     1
 40
0.25
 41
0.25
  0
VERTEX
  5
51F
  8
15
 10
-11.125
 20
-6.0
 30
0.0
 42
1.0
  0
VERTEX
  5
520
  8
15
 10
-10.875
 20
-6.0
 30
0.0
 42
1.0
  0
SEQEND
  5
521
  8
15
  0
ENDBLK
  5
129
  8
0
  0
BLOCK
  8
0
  2
ABBS6
 70
     0
 10
0.0
 20
0.0
 30
0.0
  3
ABBS6
  1

  0
LINE
  5
12B
  8
0
 10
1.464514291267363
 20
0.994296481590851
 30
0.0
 11
1.415136022229148
 21
0.994296481590851
 31
0.0
  0
LINE
  5
12C
  8
0
 10
0.3202927767734991
 20
0.1943721627066281
 30
0.0
 11
0.2504062141669578
 21
-0.0048552008318268
 31
0.0
  0
LINE
  5
12D
  8
0
 10
0.0
 20
0.003568034422301
 30
0.0
 11
0.0
 21
-0.0061137569405787
 31
0.0
  0
LINE
  5
12E
  8
0
 10
0.7495657522430294
 20
-0.0061137569405787
 30
0.0
 11
1.0003369618247291
 21
-0.0061137569405787
 31
0.0
  0
LINE
  5
12F
  8
0
 10
1.0698765565045389
 20
-0.0061137569405787
 30
0.0
 11
1.3256286060050111
 21
-0.0061137569405787
 31
0.0
  0
LINE
  5
130
  8
0
 10
1.416102504671414
 20
0.4498522188094114
 30
0.0
 11
1.7302364202082281
 21
0.4498522188094114
 31
0.0
  0
ARC
  5
131
  8
0
 10
1.472715251712486
 20
0.2949012854932675
 30
0.0
 40
0.3005444126230841
 50
54.789554089554208
 51
68.052793173282026
  0
LINE
  5
132
  8
0
 10
1.0695193325592811
 20
0.4498522188094114
 30
0.0
 11
1.325169408972612
 21
0.4498522188094114
 31
0.0
  0
LINE
  5
133
  8
0
 10
1.0695193325592811
 20
0.54045802992718
 30
0.0
 11
1.3250601854495581
 21
0.54045802992718
 31
0.0
  0
LINE
  5
134
  8
0
 10
1.416102504671414
 20
0.4498522188094114
 30
0.0
 11
1.416102504671414
 21
-0.0059843926131578
 31
0.0
  0
LINE
  5
135
  8
0
 10
1.325169408972612
 20
0.4498522188094114
 30
0.0
 11
1.325169408972612
 21
-0.0059843926131578
 31
0.0
  0
LINE
  5
136
  8
0
 10
1.4161388888024069
 20
0.9942707061973123
 30
0.0
 11
1.4161388888024069
 21
0.943067171377237
 31
0.0
  0
LINE
  5
137
  8
0
 10
1.3250601854495581
 20
0.9942497998554529
 30
0.0
 11
1.3250601854495581
 21
0.54045802992718
 31
0.0
  0
LINE
  5
138
  8
0
 10
1.4161388888024069
 20
0.54045802992718
 30
0.0
 11
1.646003535280584
 21
0.54045802992718
 31
0.0
  0
LINE
  5
139
  8
0
 10
1.4161388888024069
 20
0.943067171377237
 30
0.0
 11
1.4161388888024069
 21
0.54045802992718
 31
0.0
  0
LINE
  5
13A
  8
0
 10
0.5448696393942784
 20
0.4500904685621379
 30
0.0
 11
0.5448696393942784
 21
0.195257407028464
 31
0.0
  0
LINE
  5
13B
  8
0
 10
0.4535526929703622
 20
0.4500904685621379
 30
0.0
 11
0.4535526929703622
 21
0.195019251052571
 31
0.0
  0
LINE
  5
13C
  8
0
 10
0.5448696393942784
 20
0.4500904685621379
 30
0.0
 11
0.8407387596055002
 21
0.4500904685621379
 31
0.0
  0
LINE
  5
13D
  8
0
 10
0.5448696393942784
 20
0.54045802992718
 30
0.0
 11
0.8091101131277299
 21
0.54045802992718
 31
0.0
  0
LINE
  5
13E
  8
0
 10
0.5448696393942784
 20
0.943067171377237
 30
0.0
 11
0.5448696393942784
 21
0.54045802992718
 31
0.0
  0
LINE
  5
13F
  8
0
 10
0.5448696393942784
 20
0.9942707061973123
 30
0.0
 11
0.5448696393942784
 21
0.943067171377237
 31
0.0
  0
LINE
  5
140
  8
0
 10
0.4535526929703622
 20
0.9942497998554529
 30
0.0
 11
0.4535526929703622
 21
0.54045802992718
 31
0.0
  0
LINE
  5
141
  8
0
 10
0.1665030902303783
 20
0.4500904685621379
 30
0.0
 11
0.4535526929703622
 21
0.4500904685621379
 31
0.0
  0
LINE
  5
142
  8
0
 10
0.1895861756831891
 20
0.54045802992718
 30
0.0
 11
0.4535526929703622
 21
0.54045802992718
 31
0.0
  0
ARC
  5
143
  8
0
 10
1.472715251712486
 20
0.2949012854932675
 30
0.0
 40
0.3005444126230841
 50
267.09691870851123
 51
31.001762798321259
  0
ARC
  5
144
  8
0
 10
1.4725961770640761
 20
0.7676408976691677
 30
0.0
 40
0.2244557122799182
 50
300.31696906619862
 51
92.196755116877156
  0
LINE
  5
145
  8
0
 10
1.0695284921476109
 20
0.994127230756959
 30
0.0
 11
1.0695284921476109
 21
0.5415185517101975
 31
0.0
  0
LINE
  5
146
  8
0
 10
0.6796429015687125
 20
0.1939525341391004
 30
0.0
 11
0.7497329468219789
 21
-0.0063047380130854
 31
0.0
  0
LINE
  5
147
  8
0
 10
0.3224541479331719
 20
0.1947566976242569
 30
0.0
 11
0.4545976592919488
 21
0.1947566976242569
 31
0.0
  0
LINE
  5
148
  8
0
 10
0.6502666550454422
 20
0.994296481590851
 30
0.0
 11
0.8091101131277299
 21
0.54045802992718
 31
0.0
  0
LINE
  5
149
  8
0
 10
0.3487696452349667
 20
0.9942463087449198
 30
0.0
 11
0.1895861756831891
 21
0.54045802992718
 31
0.0
  0
LINE
  5
14A
  8
0
 10
0.0
 20
-0.0061137569405787
 30
0.0
 11
0.2508811246418077
 21
-0.0061137569405787
 31
0.0
  0
LINE
  5
14B
  8
0
 10
0.1576875210619448
 20
0.4495237412228335
 30
0.0
 11
-0.0020242690231953
 21
-0.0057706340896573
 31
0.0
  0
LINE
  5
14C
  8
0
 10
0.5464854219518145
 20
0.9942773962474689
 30
0.0
 11
0.6502666550454422
 21
0.994296481590851
 31
0.0
  0
LINE
  5
14D
  8
0
 10
0.5464855919050251
 20
0.1947566976242569
 30
0.0
 11
0.6794910630600271
 21
0.1947566976242569
 31
0.0
  0
LINE
  5
14E
  8
0
 10
0.1665030902303783
 20
0.4500904685621379
 30
0.0
 11
0.1589375237856245
 21
0.4500904685621379
 31
0.0
  0
LINE
  5
14F
  8
0
 10
0.832085843327036
 20
0.4500904685621379
 30
0.0
 11
0.8405983917585331
 21
0.4500904685621379
 31
0.0
  0
LINE
  5
150
  8
0
 10
1.0695284921476109
 20
0.4496280420377446
 30
0.0
 11
1.0695284921476109
 21
-0.0056515561016965
 31
0.0
  0
LINE
  5
151
  8
0
 10
0.1665030902303783
 20
0.4500904685621379
 30
0.0
 11
0.1604848594384407
 21
0.4500904685621379
 31
0.0
  0
LINE
  5
152
  8
0
 10
0.1665030902303783
 20
0.4500904685621379
 30
0.0
 11
0.1581641174936408
 21
0.4500904685621379
 31
0.0
  0
LINE
  5
153
  8
0
 10
0.8407042507200515
 20
0.4501890653777139
 30
0.0
 11
1.0004102385314291
 21
-0.0061137569405787
 31
0.0
  0
LINE
  5
154
  8
0
 10
0.4553118142086135
 20
0.994296481590851
 30
0.0
 11
0.3491177095918942
 21
0.994296481590851
 31
0.0
  0
SOLID
  5
155
  8
0
 10
0.3491177095918942
 20
0.994296481590851
 30
0.0
 11
0.4535526929703622
 21
0.9942497998554529
 31
0.0
 12
0.1895861756831891
 22
0.54045802992718
 32
0.0
 13
0.4535526929703622
 23
0.54045802992718
 33
0.0
  0
SOLID
  5
156
  8
0
 10
0.5464854219518145
 20
0.9942773962474689
 30
0.0
 11
0.6502666550454422
 21
0.994296481590851
 31
0.0
 12
0.5448696393942784
 22
0.54045802992718
 32
0.0
 13
0.8091101131277299
 23
0.54045802992718
 33
0.0
  0
SOLID
  5
157
  8
0
 10
0.1576875210619448
 20
0.4495237412228335
 30
0.0
 11
0.4535526929703622
 21
0.4500904685621379
 31
0.0
 12
0.3202927767734991
 22
0.1943721627066281
 32
0.0
 13
0.4535526929703622
 23
0.195019251052571
 33
0.0
  0
SOLID
  5
158
  8
0
 10
0.1576875210619448
 20
0.4495237412228335
 30
0.0
 11
0.3202927767734991
 21
0.1943721627066281
 31
0.0
 12
-0.0024614873844939
 22
-0.0044681942322313
 32
0.0
 13
0.2511825338570475
 23
-0.0044681942322313
 33
0.0
  0
SOLID
  5
159
  8
0
 10
0.5448696393942784
 20
0.4500904685621379
 30
0.0
 11
0.8405983917585331
 21
0.4500904685621379
 31
0.0
 12
0.5464855919050251
 22
0.1947566976242569
 32
0.0
 13
0.6796429015687125
 23
0.1939525341391004
 33
0.0
  0
SOLID
  5
15A
  8
0
 10
0.6796429015687125
 20
0.1939525341391004
 30
0.0
 11
0.8407387596055002
 21
0.4500904685621379
 31
0.0
 12
0.7534714919233352
 22
-0.0078010106452382
 32
0.0
 13
0.9987837058035609
 23
-0.0044681942322313
 33
0.0
  0
LINE
  5
15B
  8
0
 10
1.4163262804236181
 20
-0.0061137569405787
 30
0.0
 11
1.45867529642004
 21
-0.0061137569405787
 31
0.0
  0
LINE
  5
15C
  8
0
 10
1.3270569158383689
 20
0.994296481590851
 30
0.0
 11
1.0688048846687359
 21
0.994296481590851
 31
0.0
  0
SOLID
  5
15D
  8
0
 10
1.0695284921476109
 20
0.994127230756959
 30
0.0
 11
1.3250601854495581
 21
0.9942497998554529
 31
0.0
 12
1.0695284921476109
 22
0.5415185517101975
 32
0.0
 13
1.3250601854495581
 23
0.54045802992718
 33
0.0
  0
SOLID
  5
15E
  8
0
 10
1.0695284921476109
 20
0.4496280420377446
 30
0.0
 11
1.325169408972612
 21
0.4498522188094114
 31
0.0
 12
1.0698765565045389
 22
-0.0061137569405787
 32
0.0
 13
1.325169408972612
 23
-0.0059843926131578
 33
0.0
  0
SOLID
  5
15F
  8
0
 10
1.4725961770640761
 20
0.7676408976691677
 30
0.0
 11
1.4738157512165051
 21
0.9922819715671948
 31
0.0
 12
1.5171411494952161
 22
0.9862114845292637
 32
0.0
 13
1.5171411494952161
 23
0.9862114845292637
 33
0.0
  0
SOLID
  5
160
  8
0
 10
1.4725961770640761
 20
0.7676408976691677
 30
0.0
 11
1.5173792011341041
 21
0.9859734262140592
 31
0.0
 12
1.56141875432948
 22
0.9739514812957565
 32
0.0
 13
1.56141875432948
 23
0.9739514812957565
 33
0.0
  0
SOLID
  5
161
  8
0
 10
1.4725961770640761
 20
0.7676408976691677
 30
0.0
 11
1.56141875432948
 21
0.9727611897196766
 31
0.0
 12
1.604506100969302
 22
0.9469318625190226
 32
0.0
 13
1.604506100969302
 23
0.9469318625190226
 33
0.0
  0
SOLID
  5
162
  8
0
 10
1.4725961770640761
 20
0.7676408976691677
 30
0.0
 11
1.604506100969302
 21
0.9469318625190226
 31
0.0
 12
1.639737743525614
 22
0.9149130191227926
 32
0.0
 13
1.639737743525614
 23
0.9149130191227926
 33
0.0
  0
SOLID
  5
163
  8
0
 10
1.4725961770640761
 20
0.7676408976691677
 30
0.0
 11
1.6402469082339901
 21
0.9140605358317657
 31
0.0
 12
1.6676968280322619
 22
0.8751635324418317
 32
0.0
 13
1.6676968280322619
 23
0.8751635324418317
 33
0.0
  0
SOLID
  5
164
  8
0
 10
1.4721471978169509
 20
0.7666682616607546
 30
0.0
 11
1.685729335055498
 21
0.8293432068469144
 31
0.0
 12
1.694349849476338
 22
0.7825226803572605
 32
0.0
 13
1.694349849476338
 23
0.7825226803572605
 33
0.0
  0
SOLID
  5
165
  8
0
 10
1.4721471978169509
 20
0.7666682616607546
 30
0.0
 11
1.667055803469764
 21
0.8741676269795846
 31
0.0
 12
1.6856243331236831
 22
0.8303306029457928
 32
0.0
 13
1.6856243331236831
 23
0.8303306029457928
 33
0.0
  0
SOLID
  5
166
  8
0
 10
1.4722584627652959
 20
0.7665367378924657
 30
0.0
 11
1.6583804728304581
 21
0.6444544890977682
 31
0.0
 12
1.628301635706435
 22
0.6075527475817637
 32
0.0
 13
1.628301635706435
 23
0.6075527475817637
 33
0.0
  0
SOLID
  5
167
  8
0
 10
1.4722584627652959
 20
0.7665367378924657
 30
0.0
 11
1.6804254207130209
 21
0.687720523061671
 31
0.0
 12
1.659064560607163
 22
0.6451742115272339
 32
0.0
 13
1.659064560607163
 23
0.6451742115272339
 33
0.0
  0
SOLID
  5
168
  8
0
 10
1.473290235507448
 20
0.7668249186997969
 30
0.0
 11
1.6934429833625579
 21
0.7339882667187681
 31
0.0
 12
1.6815993456727361
 22
0.6878774955701488
 32
0.0
 13
1.6815993456727361
 23
0.6878774955701488
 33
0.0
  0
SOLID
  5
169
  8
0
 10
1.473290235507448
 20
0.7668249186997969
 30
0.0
 11
1.6953250233974579
 21
0.7825102962251549
 31
0.0
 12
1.69376244567556
 22
0.7349284370715737
 32
0.0
 13
1.69376244567556
 23
0.7349284370715737
 33
0.0
  0
SOLID
  5
16A
  8
0
 10
1.4725961770640761
 20
0.7676408976691677
 30
0.0
 11
1.6286683423170409
 21
0.6079368216548176
 31
0.0
 12
1.5852239182188721
 22
0.5737754534216606
 32
0.0
 13
1.5852239182188721
 23
0.5737754534216606
 33
0.0
  0
SOLID
  5
16B
  8
0
 10
1.4176355644375169
 20
0.992639059040016
 30
0.0
 11
1.472149389744231
 21
0.992639059040016
 31
0.0
 12
1.4176355644375169
 22
0.5423517558134563
 32
0.0
 13
1.471673286466455
 23
0.5423517558134563
 33
0.0
  0
SOLID
  5
16C
  8
0
 10
1.472149389744231
 20
0.7667217179022999
 30
0.0
 11
1.471673286466455
 21
0.5412804933949929
 31
0.0
 12
1.5852239182188721
 22
0.5737754534216606
 32
0.0
 13
1.5852239182188721
 23
0.5737754534216606
 33
0.0
  0
SOLID
  5
16D
  8
0
 10
1.4754821126887521
 20
0.5423517558134563
 30
0.0
 11
1.5852239182188721
 21
0.5727041910031973
 31
0.0
 12
1.6430704664701059
 22
0.5423517558134563
 32
0.0
 13
1.6430704664701059
 23
0.5423517558134563
 33
0.0
  0
SOLID
  5
16E
  8
0
 10
1.472715251712486
 20
0.2949012854932675
 30
0.0
 11
1.729840288846958
 21
0.44819969214646
 31
0.0
 12
1.756144994944747
 22
0.390470550707164
 32
0.0
 13
1.756144994944747
 23
0.390470550707164
 33
0.0
  0
SOLID
  5
16F
  8
0
 10
1.472715251712486
 20
0.2949012854932675
 30
0.0
 11
1.7561384336843839
 21
0.3912599183434224
 31
0.0
 12
1.7698372259253281
 22
0.3293169249918719
 32
0.0
 13
1.7698372259253281
 23
0.3293169249918719
 33
0.0
  0
SOLID
  5
170
  8
0
 10
1.473258723563645
 20
0.2946587633512081
 30
0.0
 11
1.7713480360043541
 21
0.2671551633607976
 31
0.0
 12
1.7586152701373969
 22
0.2050064062727586
 32
0.0
 13
1.7586152701373969
 23
0.2050064062727586
 33
0.0
  0
SOLID
  5
171
  8
0
 10
1.473258723563645
 20
0.2946587633512081
 30
0.0
 11
1.770536202828253
 21
0.3298693658154548
 31
0.0
 12
1.7710323511041111
 22
0.2664316390978456
 32
0.0
 13
1.7710323511041111
 23
0.2664316390978456
 33
0.0
  0
SOLID
  5
172
  8
0
 10
1.473430364726368
 20
0.2941036940071626
 30
0.0
 11
1.734376950687988
 21
0.1474048000822563
 31
0.0
 12
1.697401761701854
 22
0.0958545650328517
 32
0.0
 13
1.697401761701854
 23
0.0958545650328517
 33
0.0
  0
SOLID
  5
173
  8
0
 10
1.473430364726368
 20
0.2941036940071626
 30
0.0
 11
1.75921613013395
 21
0.2049959923522806
 31
0.0
 12
1.7337936030614849
 22
0.1468729637709885
 32
0.0
 13
1.7337936030614849
 23
0.1468729637709885
 33
0.0
  0
SOLID
  5
174
  8
0
 10
1.472715251712486
 20
0.2949012854932675
 30
0.0
 11
1.695203775387909
 21
0.0963495022607219
 31
0.0
 12
1.650569093095271
 22
0.0556415303591962
 32
0.0
 13
1.650569093095271
 23
0.0556415303591962
 33
0.0
  0
SOLID
  5
175
  8
0
 10
1.472715251712486
 20
0.2949012854932675
 30
0.0
 11
1.6499540400292569
 21
0.0550880963061786
 31
0.0
 12
1.597945042615009
 22
0.0243560604532718
 32
0.0
 13
1.597945042615009
 23
0.0243560604532718
 33
0.0
  0
SOLID
  5
176
  8
0
 10
1.472715251712486
 20
0.2949012854932675
 30
0.0
 11
1.597760944634359
 21
0.024184591376013
 31
0.0
 12
1.540609186637254
 22
0.0046124070947542
 32
0.0
 13
1.540609186637254
 23
0.0046124070947542
 33
0.0
  0
SOLID
  5
177
  8
0
 10
1.472715251712486
 20
0.2949012854932675
 30
0.0
 11
1.4735776995776171
 21
-0.0042301359170267
 31
0.0
 12
1.539518003551251
 22
0.0045780217458855
 32
0.0
 13
1.539518003551251
 23
0.0045780217458855
 33
0.0
  0
SOLID
  5
178
  8
0
 10
1.417516538618087
 20
0.4487948379345142
 30
0.0
 11
1.4735776995776171
 21
0.4487948379345142
 31
0.0
 12
1.417516538618087
 22
-0.0042301359170267
 32
0.0
 13
1.4735776995776171
 23
-0.003754019286589
 33
0.0
  0
SOLID
  5
179
  8
0
 10
1.474053802855394
 20
0.4487948379345142
 30
0.0
 11
1.7292451597497229
 21
0.44819969214646
 31
0.0
 12
1.474053802855394
 22
0.2959613995673464
 32
0.0
 13
1.474053802855394
 23
0.2959613995673464
 33
0.0
  0
SOLID
  5
17A
  8
0
 10
2.2416513124690312
 20
0.4487948379345142
 30
0.0
 11
2.4968426693633599
 21
0.44819969214646
 31
0.0
 12
2.2416513124690312
 22
0.2959613995673464
 32
0.0
 13
2.2416513124690312
 23
0.2959613995673464
 33
0.0
  0
SOLID
  5
17B
  8
0
 10
2.185114048231696
 20
0.4487948379345142
 30
0.0
 11
2.2411752091912258
 21
0.4487948379345142
 31
0.0
 12
2.185114048231696
 22
-0.0042301359170267
 32
0.0
 13
2.2411752091912258
 23
-0.003754019286589
 33
0.0
  0
SOLID
  5
17C
  8
0
 10
2.2403127613261229
 20
0.2949012854932675
 30
0.0
 11
2.2411752091912258
 21
-0.0042301359170267
 31
0.0
 12
2.3071155131648591
 22
0.0045780217458855
 32
0.0
 13
2.3071155131648591
 23
0.0045780217458855
 33
0.0
  0
SOLID
  5
17D
  8
0
 10
2.2403127613261229
 20
0.2949012854932675
 30
0.0
 11
2.3653584542479669
 21
0.024184591376013
 31
0.0
 12
2.3082066962508629
 22
0.0046124070947542
 32
0.0
 13
2.3082066962508629
 23
0.0046124070947542
 33
0.0
  0
SOLID
  5
17E
  8
0
 10
2.2403127613261229
 20
0.2949012854932675
 30
0.0
 11
2.4175515496428939
 21
0.0550880963061786
 31
0.0
 12
2.365542552228646
 22
0.0243560604532718
 32
0.0
 13
2.365542552228646
 23
0.0243560604532718
 33
0.0
  0
SOLID
  5
17F
  8
0
 10
2.2403127613261229
 20
0.2949012854932675
 30
0.0
 11
2.4628012850015182
 21
0.0963495022607219
 31
0.0
 12
2.418166602708907
 22
0.0556415303591962
 32
0.0
 13
2.418166602708907
 23
0.0556415303591962
 33
0.0
  0
SOLID
  5
180
  8
0
 10
2.2410278743399772
 20
0.2941036940071626
 30
0.0
 11
2.5268136397475578
 21
0.2049959923522806
 31
0.0
 12
2.5013911126750941
 22
0.1468729637709885
 32
0.0
 13
2.5013911126750941
 23
0.1468729637709885
 33
0.0
  0
SOLID
  5
181
  8
0
 10
2.2410278743399772
 20
0.2941036940071626
 30
0.0
 11
2.5019744603015961
 21
0.1474048000822563
 31
0.0
 12
2.4649992713154631
 22
0.0958545650328517
 32
0.0
 13
2.4649992713154631
 23
0.0958545650328517
 33
0.0
  0
SOLID
  5
182
  8
0
 10
2.2408562331772539
 20
0.2946587633512081
 30
0.0
 11
2.5381337124418621
 21
0.3298693658154548
 31
0.0
 12
2.5386298607177471
 22
0.2664316390978456
 32
0.0
 13
2.5386298607177471
 23
0.2664316390978456
 33
0.0
  0
SOLID
  5
183
  8
0
 10
2.2408562331772539
 20
0.2946587633512081
 30
0.0
 11
2.5389455456179908
 21
0.2671551633607976
 31
0.0
 12
2.5262127797510341
 22
0.2050064062727586
 32
0.0
 13
2.5262127797510341
 23
0.2050064062727586
 33
0.0
  0
SOLID
  5
184
  8
0
 10
2.2403127613261229
 20
0.2949012854932675
 30
0.0
 11
2.523735943297992
 21
0.3912599183434224
 31
0.0
 12
2.5374347355389371
 22
0.3293169249918719
 32
0.0
 13
2.5374347355389371
 23
0.3293169249918719
 33
0.0
  0
SOLID
  5
185
  8
0
 10
2.2403127613261229
 20
0.2949012854932675
 30
0.0
 11
2.4974377984605951
 21
0.44819969214646
 31
0.0
 12
2.5237425045583839
 22
0.390470550707164
 32
0.0
 13
2.5237425045583839
 23
0.390470550707164
 33
0.0
  0
SOLID
  5
186
  8
0
 10
2.2430796223023881
 20
0.5423517558134563
 30
0.0
 11
2.352821427832509
 21
0.5727041910031973
 31
0.0
 12
2.4106679760837428
 22
0.5423517558134563
 32
0.0
 13
2.4106679760837428
 23
0.5423517558134563
 33
0.0
  0
SOLID
  5
187
  8
0
 10
2.239746899357868
 20
0.7667217179022999
 30
0.0
 11
2.2392707960800631
 21
0.5412804933949929
 31
0.0
 12
2.352821427832509
 22
0.5737754534216606
 32
0.0
 13
2.352821427832509
 23
0.5737754534216606
 33
0.0
  0
SOLID
  5
188
  8
0
 10
2.1852330740511539
 20
0.992639059040016
 30
0.0
 11
2.239746899357868
 21
0.992639059040016
 31
0.0
 12
2.1852330740511539
 22
0.5423517558134563
 32
0.0
 13
2.2392707960800631
 23
0.5423517558134563
 33
0.0
  0
SOLID
  5
189
  8
0
 10
2.240193686677685
 20
0.7676408976691677
 30
0.0
 11
2.3962658519306501
 21
0.6079368216548176
 31
0.0
 12
2.352821427832509
 22
0.5737754534216606
 32
0.0
 13
2.352821427832509
 23
0.5737754534216606
 33
0.0
  0
SOLID
  5
18A
  8
0
 10
2.2408877451210851
 20
0.7668249186997969
 30
0.0
 11
2.4629225330110951
 21
0.7825102962251549
 31
0.0
 12
2.4613599552891681
 22
0.7349284370715737
 32
0.0
 13
2.4613599552891681
 23
0.7349284370715737
 33
0.0
  0
SOLID
  5
18B
  8
0
 10
2.2408877451210851
 20
0.7668249186997969
 30
0.0
 11
2.4610404929761671
 21
0.7339882667187681
 31
0.0
 12
2.449196855286373
 22
0.6878774955701488
 32
0.0
 13
2.449196855286373
 23
0.6878774955701488
 33
0.0
  0
SOLID
  5
18C
  8
0
 10
2.239855972378904
 20
0.7665367378924657
 30
0.0
 11
2.4480229303266579
 21
0.687720523061671
 31
0.0
 12
2.4266620702207709
 22
0.6451742115272339
 32
0.0
 13
2.4266620702207709
 23
0.6451742115272339
 33
0.0
  0
SOLID
  5
18D
  8
0
 10
2.239855972378904
 20
0.7665367378924657
 30
0.0
 11
2.425977982444067
 21
0.6444544890977682
 31
0.0
 12
2.3958991453200431
 22
0.6075527475817637
 32
0.0
 13
2.3958991453200431
 23
0.6075527475817637
 33
0.0
  0
SOLID
  5
18E
  8
0
 10
2.2397447074305878
 20
0.7666682616607546
 30
0.0
 11
2.434653313083373
 21
0.8741676269795846
 31
0.0
 12
2.45322184273732
 22
0.8303306029457928
 32
0.0
 13
2.45322184273732
 23
0.8303306029457928
 33
0.0
  0
SOLID
  5
18F
  8
0
 10
2.2397447074305878
 20
0.7666682616607546
 30
0.0
 11
2.4533268446691059
 21
0.8293432068469144
 31
0.0
 12
2.461947359089947
 22
0.7825226803572605
 32
0.0
 13
2.461947359089947
 23
0.7825226803572605
 33
0.0
  0
SOLID
  5
190
  8
0
 10
2.240193686677685
 20
0.7676408976691677
 30
0.0
 11
2.4078444178475991
 21
0.9140605358317657
 31
0.0
 12
2.4352943376458711
 22
0.8751635324418317
 32
0.0
 13
2.4352943376458711
 23
0.8751635324418317
 33
0.0
  0
SOLID
  5
191
  8
0
 10
2.240193686677685
 20
0.7676408976691677
 30
0.0
 11
2.372103610582911
 21
0.9469318625190226
 31
0.0
 12
2.4073352531392231
 22
0.9149130191227926
 32
0.0
 13
2.4073352531392231
 23
0.9149130191227926
 33
0.0
  0
SOLID
  5
192
  8
0
 10
2.240193686677685
 20
0.7676408976691677
 30
0.0
 11
2.3290162639431169
 21
0.9727611897196766
 31
0.0
 12
2.372103610582911
 22
0.9469318625190226
 32
0.0
 13
2.372103610582911
 23
0.9469318625190226
 33
0.0
  0
SOLID
  5
193
  8
0
 10
2.240193686677685
 20
0.7676408976691677
 30
0.0
 11
2.284976710747713
 21
0.9859734262140592
 31
0.0
 12
2.3290162639431169
 22
0.9739514812957565
 32
0.0
 13
2.3290162639431169
 23
0.9739514812957565
 33
0.0
  0
SOLID
  5
194
  8
0
 10
2.240193686677685
 20
0.7676408976691677
 30
0.0
 11
2.2414132608301141
 21
0.9922819715671948
 31
0.0
 12
2.2847386591088248
 22
0.9862114845292637
 32
0.0
 13
2.2847386591088248
 23
0.9862114845292637
 33
0.0
  0
SOLID
  5
195
  8
0
 10
1.8371260017612481
 20
0.4496280420377446
 30
0.0
 11
2.092766918586221
 21
0.4498522188094114
 31
0.0
 12
1.8374740661181761
 22
-0.0061137569405787
 32
0.0
 13
2.092766918586221
 23
-0.0059843926131578
 33
0.0
  0
SOLID
  5
196
  8
0
 10
1.8371260017612481
 20
0.994127230756959
 30
0.0
 11
2.092657695063167
 21
0.9942497998554529
 31
0.0
 12
1.8371260017612481
 22
0.5415185517101975
 32
0.0
 13
2.092657695063167
 23
0.54045802992718
 33
0.0
  0
LINE
  5
197
  8
0
 10
2.094654425451977
 20
0.994296481590851
 30
0.0
 11
1.8364023942823451
 21
0.994296481590851
 31
0.0
  0
LINE
  5
198
  8
0
 10
2.1839237900372259
 20
-0.0061137569405787
 30
0.0
 11
2.2262728060336761
 21
-0.0061137569405787
 31
0.0
  0
LINE
  5
199
  8
0
 10
1.8371260017612481
 20
0.4496280420377446
 30
0.0
 11
1.8371260017612481
 21
-0.0056515561016965
 31
0.0
  0
LINE
  5
19A
  8
0
 10
1.8371260017612481
 20
0.994127230756959
 30
0.0
 11
1.8371260017612481
 21
0.5415185517101975
 31
0.0
  0
ARC
  5
19B
  8
0
 10
2.240193686677685
 20
0.7676408976691677
 30
0.0
 40
0.2244557122799182
 50
300.31696906619862
 51
92.196755116877156
  0
ARC
  5
19C
  8
0
 10
2.2403127613261229
 20
0.2949012854932675
 30
0.0
 40
0.3005444126230841
 50
267.09691870851123
 51
31.001762798321259
  0
LINE
  5
19D
  8
0
 10
2.1837363984160159
 20
0.943067171377237
 30
0.0
 11
2.1837363984160159
 21
0.54045802992718
 31
0.0
  0
LINE
  5
19E
  8
0
 10
2.1837363984160159
 20
0.54045802992718
 30
0.0
 11
2.4136010448942211
 21
0.54045802992718
 31
0.0
  0
LINE
  5
19F
  8
0
 10
2.092657695063167
 20
0.9942497998554529
 30
0.0
 11
2.092657695063167
 21
0.54045802992718
 31
0.0
  0
LINE
  5
1A0
  8
0
 10
2.1837363984160159
 20
0.9942707061973123
 30
0.0
 11
2.1837363984160159
 21
0.943067171377237
 31
0.0
  0
LINE
  5
1A1
  8
0
 10
2.092766918586221
 20
0.4498522188094114
 30
0.0
 11
2.092766918586221
 21
-0.0059843926131578
 31
0.0
  0
LINE
  5
1A2
  8
0
 10
2.1837000142850509
 20
0.4498522188094114
 30
0.0
 11
2.1837000142850509
 21
-0.0059843926131578
 31
0.0
  0
LINE
  5
1A3
  8
0
 10
1.837116842172889
 20
0.54045802992718
 30
0.0
 11
2.092657695063167
 21
0.54045802992718
 31
0.0
  0
LINE
  5
1A4
  8
0
 10
1.837116842172889
 20
0.4498522188094114
 30
0.0
 11
2.092766918586221
 21
0.4498522188094114
 31
0.0
  0
ARC
  5
1A5
  8
0
 10
2.2403127613261229
 20
0.2949012854932675
 30
0.0
 40
0.3005444126230841
 50
54.789554089554208
 51
68.052793173282026
  0
LINE
  5
1A6
  8
0
 10
2.1837000142850509
 20
0.4498522188094114
 30
0.0
 11
2.4978339298218648
 21
0.4498522188094114
 31
0.0
  0
LINE
  5
1A7
  8
0
 10
1.8374740661181761
 20
-0.0061137569405787
 30
0.0
 11
2.09322611561862
 21
-0.0061137569405787
 31
0.0
  0
LINE
  5
1A8
  8
0
 10
2.2321118008809999
 20
0.994296481590851
 30
0.0
 11
2.1827335318427572
 21
0.994296481590851
 31
0.0
  0
ENDBLK
  5
1A9
  8
0
  0
BLOCK
  8
0
  2
ABB6
 70
     0
 10
0.0
 20
0.0
 30
0.0
  3
ABB6
  1

  0
INSERT
  5
1AB
  8
02
  2
ABBS6
 10
0.0121456141391718
 20
0.0346238045379437
 30
0.0
 41
6.0
 42
6.0
 43
6.0
  0
ENDBLK
  5
1AC
  8
0
  0
BLOCK
  8
0
  2
I
 70
     0
 10
0.0
 20
0.0
 30
0.0
  3
I
  1

  0
LINE
  5
1AE
  8
05
 10
-3.34304839950505
 20
0.0
 30
0.0
 11
-8.0980678865166738
 21
0.0
 31
0.0
  0
LINE
  5
1AF
  8
02
 10
-7.5988719209096871
 20
-1.200000000000002
 30
0.0
 11
-3.5988719209097999
 21
-2.2999999999999972
 31
0.0
  0
LINE
  5
1B0
  8
02
 10
-7.5988719209096871
 20
1.200000000000002
 30
0.0
 11
-3.598871920909573
 21
2.2999999999999972
 31
0.0
  0
LINE
  5
1B1
  8
02
 10
-3.598871920909573
 20
2.2999999999999972
 30
0.0
 11
-3.5988719209097999
 21
-2.2999999999999972
 31
0.0
  0
LINE
  5
1B2
  8
02
 10
-7.5988719209096871
 20
1.200000000000002
 30
0.0
 11
-7.5988719209096871
 21
-1.200000000000002
 31
0.0
  0
CIRCLE
  5
1B3
  8
02
 10
0.0000000000001137
 20
0.0
 30
0.0
 40
2.2999999999999989
  0
CIRCLE
  5
1B4
  8
02
 10
0.0000000000001137
 20
0.0
 30
0.0
 40
1.1999999999999991
  0
LINE
  5
1B5
  8
05
 10
0.0
 20
2.8287771384382969
 30
0.0
 11
0.0
 21
-2.8287771384391358
 31
0.0
  0
LINE
  5
1B6
  8
05
 10
-2.828777138440727
 20
0.0
 30
0.0
 11
2.8287771384409548
 21
0.0
 31
0.0
  0
ENDBLK
  5
1B7
  8
0
  0
BLOCK
  8
0
  2
REV4
 70
     2
 10
0.0
 20
0.0
 30
0.0
  3
REV4
  1

  0
ATTDEF
  5
1B9
  8
11
 62
     7
 10
1.0
 20
-3.58000000000004
 30
0.0
 40
2.149999999999999
  1

 41
0.9
  7
ISO
  3
Rev Ind
  2
REVIND
 70
     0
  0
ATTDEF
  5
1BA
  8
11
 62
     7
 10
11.49999999999994
 20
-3.58000000000004
 30
0.0
 40
2.149999999999999
  1

 41
0.9
  7
ISO
  3
Revision
  2
REVTEXT
 70
     0
  0
ATTDEF
  5
1BB
  8
11
 62
     7
 10
62.5
 20
-3.58000000000004
 30
0.0
 40
2.149999999999999
  1

 41
0.9
  7
ISO
  3
Appd
  2
REVAPPD
 70
     0
  0
ATTDEF
  5
1BC
  8
11
 62
     7
 10
73.0
 20
-3.58000000000004
 30
0.0
 40
2.149999999999999
  1

 41
0.9
  7
ISO
  3
Year Week
  2
REVDATE
 70
     0
  0
LINE
  5
1BD
  8
02
 10
0.0
 20
-5.0
 30
0.0
 11
0.0
 21
0.0
 31
0.0
  0
LINE
  5
1BE
  8
02
 10
0.0
 20
-5.0
 30
0.0
 11
92.0
 21
-5.0
 31
0.0
  0
LINE
  5
1BF
  8
02
 10
9.9999999999999432
 20
-5.0
 30
0.0
 11
9.9999999999999432
 21
0.0
 31
0.0
  0
LINE
  5
1C0
  8
02
 10
60.5
 20
-5.0
 30
0.0
 11
60.5
 21
0.0
 31
0.0
  0
LINE
  5
1C1
  8
02
 10
71.0
 20
-5.0
 30
0.0
 11
71.0
 21
0.0
 31
0.0
  0
INSERT
  5
1C2
  8
02
 66
     1
  2
PURGE_ME_3
 10
-111.0
 20
-284.0
 30
0.0
  0
ATTRIB
  5
1C3
  8
11
 10
-106.10321225387671
 20
-246.27829974996629
 30
0.0
 40
3.149999999999999
  1
3.15
  7
ISO
 72
     1
 11
-101.60321225387671
 21
-246.27829974996629
 31
0.0
  2
G:HTXT
 70
     1
  0
ATTRIB
  5
1C4
  8
11
 10
-105.173227865314
 20
-249.9282072593779
 30
0.0
 40
3.149999999999999
  1
2.0
  7
ISO
 72
     1
 11
-101.87322786531401
 21
-249.9282072593779
 31
0.0
  2
G:MEXE
 70
     1
  0
ATTRIB
  5
1C5
  8
11
 10
-105.00823567103269
 20
-253.7131240178484
 30
0.0
 40
3.149999999999999
  1
1.5
  7
ISO
 72
     1
 11
-102.00823567103269
 21
-253.7131240178484
 31
0.0
  2
G:MTI1
 70
     1
  0
ATTRIB
  5
1C6
  8
11
 10
-104.60321225387671
 20
-257.49804077631887
 30
0.0
 40
3.149999999999999
  1
1.5
  7
ISO
 72
     1
 11
-101.60321225387671
 21
-257.49804077631887
 31
0.0
  2
G:MTI2
 70
     1
  0
ATTRIB
  5
1C7
  8
11
 10
-102.9232278653141
 20
-261.01293903667158
 30
0.0
 40
3.149999999999999
  1
8
  7
ISO
 72
     1
 11
-101.87322786531401
 21
-261.01293903667158
 31
0.0
  2
G:MOT1
 70
     1
  0
ATTRIB
  5
1C8
  8
11
 10
-102.7132200595954
 20
-264.66284654608341
 30
0.0
 40
3.149999999999999
  1
6
  7
ISO
 72
     1
 11
-101.73822005959541
 21
-264.66284654608341
 31
0.0
  2
G:MOT2
 70
     1
  0
ATTRIB
  5
1C9
  8
11
 10
-114.038298116782
 20
-268.31275405549502
 30
0.0
 40
3.149999999999999
  1
PILHUVUD
  7
ISO
 72
     1
 11
-103.088298116782
 21
-268.31275405549502
 31
0.0
  2
G:PIL
 70
     1
  0
ATTRIB
  5
1CA
  8
11
 10
-102.664716999117
 20
-272.00912362665292
 30
0.0
 40
3.149999999999999
  1
N
  7
ISO
 72
     1
 11
-101.61471699911699
 21
-272.00912362665292
 31
0.0
  2
G:FBPA
 70
     1
  0
ATTRIB
  5
1CB
  8
11
 10
-102.60495518205239
 20
-275.60134169298931
 30
0.0
 40
3.149999999999999
  1
J
  7
ISO
 72
     1
 11
-101.85495518205239
 21
-275.60134169298931
 31
0.0
  2
G:MDEC
 70
     1
  0
ATTRIB
  5
1CC
  8
11
 10
-102.09206820061441
 20
-279.33654089450471
 30
0.0
 40
3.149999999999999
  1
1
  7
ISO
 72
     1
 11
-101.71706820061441
 21
-279.33654089450471
 31
0.0
  2
G:MSCA
 70
     1
  0
ATTRIB
  5
1CD
  8
11
 10
-110.29896456278441
 20
-282.91213369340682
 30
0.0
 40
3.149999999999999
  1
N
  7
ISO
  2
G:MTOL
 70
     1
  0
SEQEND
  5
1CE
  8
02
  0
INSERT
  5
1CF
  8
02
 66
     1
  2
PURGE_ME_2
 10
-111.0
 20
-284.0
 30
0.0
  0
ATTRIB
  5
1D0
  8
11
 10
-112.05
 20
-285.33757961783442
 30
0.0
 40
3.149999999999999
  1
N
  7
ISO
 72
     1
 11
-111.0
 21
-285.33757961783442
 31
0.0
  2
G:LGR
 70
     1
  0
ATTRIB
  5
1D1
  8
11
 10
-113.325
 20
-292.4713375796178
 30
0.0
 40
3.149999999999999
  1
-1
  7
ISO
 72
     1
 11
-111.0
 21
-292.4713375796178
 31
0.0
  2
G:LG_A
 70
     1
  0
SEQEND
  5
1D2
  8
02
  0
INSERT
  5
1D3
  8
02
 66
     1
  2
PURGE_ME_1
 10
-111.0
 20
-284.0
 30
0.0
  0
ATTRIB
  5
1D4
  8
11
 10
-111.7499999999999
 20
-285.57499999999999
 30
0.0
 40
3.149999999999999
  1
J
  7
ISO
 72
     4
 11
-111.0
 21
-284.0
 31
0.0
  2
G:UTSH
 70
     1
  0
ATTRIB
  5
1D5
  8
11
 10
-111.7499999999999
 20
-290.57499999999987
 30
0.0
 40
3.149999999999999
  1
J
  7
ISO
 72
     4
 11
-111.0
 21
-289.0
 31
0.0
  2
G:CENM
 70
     1
  0
ATTRIB
  5
1D6
  8
11
 10
-112.7145735388511
 20
-295.65704987165378
 30
0.0
 40
3.149999999999999
  1
5
  7
ISO
 72
     4
 11
-111.6645735388511
 21
-294.08204987165379
 31
0.0
  2
G:DHA
 70
     1
  0
ATTRIB
  5
1D7
  8
11
 10
-114.2145735388511
 20
-300.65704987165378
 30
0.0
 40
3.149999999999999
  1
45
  7
ISO
 72
     4
 11
-111.6645735388511
 21
-299.08204987165379
 31
0.0
  2
G:DVI
 70
     1
  0
ATTRIB
  5
1D8
  8
11
 10
-115.93957353885111
 20
-305.65704987165378
 30
0.0
 40
3.149999999999999
  1
POS
  7
ISO
 72
     4
 11
-111.6645735388511
 21
-304.08204987165379
 31
0.0
  2
G:POBA
 70
     1
  0
ATTRIB
  5
1D9
  8
11
 10
-112.7145735388511
 20
-310.65704987165378
 30
0.0
 40
3.149999999999999
  1
7
  7
ISO
 72
     4
 11
-111.6645735388511
 21
-309.08204987165379
 31
0.0
  2
G:PORA
 70
     1
  0
ATTRIB
  5
1DA
  8
11
 10
-112.7895735388511
 20
-315.65704987165378
 30
0.0
 40
3.149999999999999
  1
C
  7
ISO
 72
     4
 11
-111.6645735388511
 21
-314.08204987165379
 31
0.0
  2
G:POFO
 70
     1
  0
ATTRIB
  5
1DB
  8
11
 10
-113.2395735388511
 20
-320.65704987165378
 30
0.0
 40
3.149999999999999
  1
PI
  7
ISO
 72
     4
 11
-111.6645735388511
 21
-319.08204987165379
 31
0.0
  2
G:POAN
 70
     1
  0
ATTRIB
  5
1DC
  8
11
 10
-112.05
 20
-325.35588558855881
 30
0.0
 40
3.149999999999999
  1
5
  7
ISO
 72
     1
 11
-111.0
 21
-325.35588558855881
 31
0.0
  2
G:RAAV
 70
     1
  0
ATTRIB
  5
1DD
  8
11
 10
-112.05
 20
-330.57499999999987
 30
0.0
 40
3.149999999999999
  1
7
  7
ISO
 72
     4
 11
-111.0
 21
-329.0
 31
0.0
  2
G:HUAV
 70
     1
  0
ATTRIB
  5
1DE
  8
11
 10
-112.05
 20
-335.11415515302571
 30
0.0
 40
3.149999999999999
  1
N
  7
ISO
 72
     1
 11
-111.0
 21
-335.11415515302571
 31
0.0
  2
G:S_SU
 70
     1
  0
ATTRIB
  5
1DF
  8
11
 10
-113.40000000000001
 20
-340.27499999999992
 30
0.0
 40
3.149999999999999
  1
,2,
  7
ISO
 72
     4
 11
-111.0
 21
-339.0
 31
0.0
  2
G:SU_L
 70
     1
  0
ATTRIB
  5
1E0
  8
11
 10
-120.45
 20
-345.11415515302571
 30
0.0
 40
3.149999999999999
  1
REVRING
  7
ISO
 72
     1
 11
-111.0
 21
-345.11415515302571
 31
0.0
  2
G:REBA
 70
     1
  0
ATTRIB
  5
1E1
  8
11
 10
-114.3
 20
-350.57499999999987
 30
0.0
 40
3.149999999999999
  1
3.5
  7
ISO
 72
     4
 11
-111.0
 21
-349.0
 31
0.0
  2
G:RERA
 70
     1
  0
ATTRIB
  5
1E2
  8
11
 10
-112.8749999999999
 20
-355.57499999999987
 30
0.0
 40
3.149999999999999
  1
01
  7
ISO
 72
     4
 11
-111.0
 21
-354.0
 31
0.0
  2
LA1
 70
     1
  0
ATTRIB
  5
1E3
  8
11
 10
-113.5499999999999
 20
-360.57499999999999
 30
0.0
 40
3.149999999999999
  1
02
  7
ISO
 72
     4
 11
-111.0
 21
-359.0
 31
0.0
  2
LA2
 70
     1
  0
ATTRIB
  5
1E4
  8
11
 10
-113.5499999999999
 20
-365.57499999999987
 30
0.0
 40
3.149999999999999
  1
03
  7
ISO
 72
     4
 11
-111.0
 21
-364.0
 31
0.0
  2
LA3
 70
     1
  0
ATTRIB
  5
1E5
  8
11
 10
-113.6249999999999
 20
-370.57499999999999
 30
0.0
 40
3.149999999999999
  1
04
  7
ISO
 72
     4
 11
-111.0
 21
-369.0
 31
0.0
  2
LA4
 70
     1
  0
ATTRIB
  5
1E6
  8
11
 10
-113.5499999999999
 20
-375.57499999999987
 30
0.0
 40
3.149999999999999
  1
05
  7
ISO
 72
     4
 11
-111.0
 21
-374.0
 31
0.0
  2
LA5
 70
     1
  0
ATTRIB
  5
1E7
  8
11
 10
-113.47499999999989
 20
-380.57499999999987
 30
0.0
 40
3.149999999999999
  1
06
  7
ISO
 72
     4
 11
-111.0
 21
-379.0
 31
0.0
  2
LA6
 70
     1
  0
ATTRIB
  5
1E8
  8
11
 10
-113.5499999999999
 20
-385.57499999999999
 30
0.0
 40
3.149999999999999
  1
07
  7
ISO
 72
     4
 11
-111.0
 21
-384.0
 31
0.0
  2
LA7
 70
     1
  0
ATTRIB
  5
1E9
  8
11
 10
-113.5499999999999
 20
-390.57499999999987
 30
0.0
 40
3.149999999999999
  1
08
  7
ISO
 72
     4
 11
-111.0
 21
-389.0
 31
0.0
  2
LA8
 70
     1
  0
ATTRIB
  5
1EA
  8
11
 10
-113.47499999999989
 20
-395.57499999999999
 30
0.0
 40
3.149999999999999
  1
09
  7
ISO
 72
     4
 11
-111.0
 21
-394.0
 31
0.0
  2
LA9
 70
     1
  0
ATTRIB
  5
1EB
  8
11
 10
-113.25
 20
-400.57499999999987
 30
0.0
 40
3.149999999999999
  1
10
  7
ISO
 72
     4
 11
-111.0
 21
-399.0
 31
0.0
  2
LA10
 70
     1
  0
ATTRIB
  5
1EC
  8
11
 10
-112.575
 20
-405.57499999999987
 30
0.0
 40
3.149999999999999
  1
11
  7
ISO
 72
     4
 11
-111.0
 21
-404.0
 31
0.0
  2
LA11
 70
     1
  0
ATTRIB
  5
1ED
  8
11
 10
-113.25
 20
-410.57499999999987
 30
0.0
 40
3.149999999999999
  1
12
  7
ISO
 72
     4
 11
-111.0
 21
-409.0
 31
0.0
  2
LA12
 70
     1
  0
ATTRIB
  5
1EE
  8
11
 10
-113.25
 20
-415.57499999999999
 30
0.0
 40
3.149999999999999
  1
13
  7
ISO
 72
     4
 11
-111.0
 21
-414.0
 31
0.0
  2
LA13
 70
     1
  0
ATTRIB
  5
1EF
  8
11
 10
-113.325
 20
-420.57499999999999
 30
0.0
 40
3.149999999999999
  1
14
  7
ISO
 72
     4
 11
-111.0
 21
-419.0
 31
0.0
  2
LA14
 70
     1
  0
ATTRIB
  5
1F0
  8
11
 10
-113.25
 20
-425.57499999999987
 30
0.0
 40
3.149999999999999
  1
15
  7
ISO
 72
     4
 11
-111.0
 21
-424.0
 31
0.0
  2
LA15
 70
     1
  0
ATTRIB
  5
1F1
  8
11
 10
-113.175
 20
-430.57499999999987
 30
0.0
 40
3.149999999999999
  1
16
  7
ISO
 72
     4
 11
-111.0
 21
-429.0
 31
0.0
  2
LA16
 70
     1
  0
SEQEND
  5
1F2
  8
02
  0
ENDBLK
  5
1F3
  8
0
  0
BLOCK
  8
0
  2
DIMRING
 70
     0
 10
0.0
 20
0.0
 30
0.0
  3
DIMRING
  1

  0
CIRCLE
  5
1F5
  8
0
 62
     0
 10
0.0
 20
0.0
 30
0.0
 40
0.5
  0
LINE
  5
1F6
  8
0
 62
     0
 10
0.0
 20
0.0
 30
0.0
 11
-1.0
 21
0.0
 31
0.0
  0
ENDBLK
  5
1F7
  8
0
  0
BLOCK
  8
0
  2
DC
 70
     0
 10
0.0
 20
0.0
 30
0.0
  3
DC
  1

  0
LINE
  5
1F9
  8
111
 10
-8.5
 20
-4.25
 30
0.0
 11
-8.5
 21
6.25
 31
0.0
  0
LINE
  5
1FA
  8
111
 10
-11.5
 20
6.25
 30
0.0
 11
-11.5
 21
-4.25
 31
0.0
  0
LINE
  5
1FB
  8
111
 10
-11.5
 20
5.5
 30
0.0
 11
-26.5
 21
5.5
 31
0.0
  0
TEXT
  5
1FC
  8
11
 10
-26.41104659313185
 20
6.1812188643422701
 30
0.0
 40
2.5
  1
A1
 41
0.7
  7
ROMANS
  0
LINE
  5
1FD
  8
111
 10
-11.5
 20
4.25
 30
0.0
 11
-8.5
 21
1.75
 31
0.0
  0
LINE
  5
1FE
  8
111
 10
-8.5
 20
6.25
 30
0.0
 11
-11.5
 21
6.25
 31
0.0
  0
TEXT
  5
1FF
  8
11
 10
-26.41104659313185
 20
-2.818781135657729
 30
0.0
 40
2.5
  1
A2
 41
0.7
  7
ROMANS
  0
LINE
  5
200
  8
111
 10
-11.5
 20
-3.5
 30
0.0
 11
-20.0
 21
-3.5
 31
0.0
  0
LINE
  5
201
  8
111
 10
-20.0
 20
-8.75
 30
0.0
 11
-12.5
 21
-8.75
 31
0.0
  0
LINE
  5
202
  8
111
 10
-20.0
 20
-3.5
 30
0.0
 11
-26.5
 21
-3.5
 31
0.0
  0
LINE
  5
203
  8
102
 10
-20.0
 20
-3.5
 30
0.0
 11
-20.0
 21
-8.75
 31
0.0
  0
INSERT
  5
204
  8
102
  2
S71
 10
-20.0
 20
-3.5
 30
0.0
  0
LINE
  5
205
  8
111
 10
-11.5
 20
0.25
 30
0.0
 11
-8.5
 21
-2.25
 31
0.0
  0
LINE
  5
206
  8
111
 10
-11.5
 20
-4.25
 30
0.0
 11
-8.5
 21
-4.25
 31
0.0
  0
LINE
  5
207
  8
111
 10
0.0
 20
0.0
 30
0.0
 11
-8.5
 21
0.0
 31
0.0
  0
ENDBLK
  5
208
  8
0
  0
BLOCK
  8
0
  2
DC1
 70
     0
 10
0.0
 20
0.0
 30
0.0
  3
DC1
  1

  0
LINE
  5
20A
  8
11
 10
6.8033131750322582
 20
-5.0579826645341077
 30
0.0
 11
5.7303876674014873
 21
-3.9850571569033368
 31
0.0
  0
TEXT
  5
20B
  8
11
 10
10.94563553324331
 20
-9.294985410829895
 30
0.0
 40
3.5
  1
Endast EK
 41
0.7
  7
ROMANS
  0
LINE
  5
20C
  8
11
 10
6.8033131750322582
 20
-5.0579826645341077
 30
0.0
 11
5.7303876674014873
 21
-6.1309081721649363
 31
0.0
  0
LINE
  5
20D
  8
11
 10
5.7303876674014873
 20
-6.1309081721649363
 30
0.0
 11
5.7303876674014873
 21
-7.2328450431226079
 31
0.0
  0
LINE
  5
20E
  8
11
 10
5.7303876674014873
 20
-7.2328450431226079
 30
0.0
 11
4.6574621597707164
 21
-8.3057705507534365
 31
0.0
  0
TEXT
  5
20F
  8
11
 10
10.94563553324331
 20
-3.628318744163237
 30
0.0
 40
3.5
  1
Only for EK
 41
0.7
  7
ROMANS
  0
LINE
  5
210
  8
11
 10
5.7303876674014873
 20
-2.883120285945608
 30
0.0
 11
4.6574621597707164
 21
-1.8101947783148371
 31
0.0
  0
LINE
  5
211
  8
11
 10
5.7303876674014873
 20
-2.883120285945608
 30
0.0
 11
5.7303876674014873
 21
-3.9850571569033368
 31
0.0
  0
CIRCLE
  5
212
  8
111
 10
-10.08669986389568
 20
-4.9975092177130023
 30
0.0
 40
0.75
  0
ARC
  5
213
  8
111
 10
-16.586699863895682
 20
-4.9975092177130023
 30
0.0
 40
1.5
 50
180.0
 51
0.0
  0
TEXT
  5
214
  8
11
 10
-25.086699863895682
 20
-4.212731467287937
 30
0.0
 40
2.5
  1
7/L4
 41
0.7
  7
ROMANS
  0
TEXT
  5
215
  8
11
 10
-6.5785559218814731
 20
-4.212731467287937
 30
0.0
 40
2.5
  1
8/T4
 41
0.7
  7
ROMANS
  0
LINE
  5
216
  8
111
 10
-15.08669986389568
 20
-7.4975092177130023
 30
0.0
 11
-10.757520257145609
 21
-5.3329194143379928
 31
0.0
  0
LINE
  5
217
  8
103
 10
-25.086699863895682
 20
-4.9975092177130591
 30
0.0
 11
-20.086699863895682
 21
-4.9975092177130591
 31
0.0
  0
LINE
  5
218
  8
103
 10
-15.08669986389568
 20
-4.9975092177130023
 30
0.0
 11
-20.086699863895682
 21
-4.9975092177130023
 31
0.0
  0
LINE
  5
219
  8
103
 10
-5.0866998638956877
 20
-4.9975092177130023
 30
0.0
 11
-9.3366998638956886
 21
-4.9975092177130023
 31
0.0
  0
LINE
  5
21A
  8
103
 10
-5.0866998638956877
 20
-4.9975092177130591
 30
0.0
 11
-0.0866998638956886
 21
-4.9975092177130591
 31
0.0
  0
ENDBLK
  5
21B
  8
0
  0
BLOCK
  8
0
  2
1951
 70
     0
 10
0.0
 20
0.0
 30
0.0
  3
1951
  1

  0
INSERT
  5
21D
  8
01
 66
     1
  2
SOSMDIM
 10
0.0
 20
0.0
 30
0.0
  0
ATTRIB
  5
21E
  8
11
 10
4.8967877461232368
 20
37.721700250033649
 30
0.0
 40
3.149999999999999
  1
3.15
  7
ISO
 72
     1
 11
9.3967877461232376
 21
37.721700250033649
 31
0.0
  2
G:HTXT
 70
     1
  0
ATTRIB
  5
21F
  8
11
 10
5.826772134685922
 20
34.071792740622008
 30
0.0
 40
3.149999999999999
  1
2.0
  7
ISO
 72
     1
 11
9.1267721346859219
 21
34.071792740622008
 31
0.0
  2
G:MEXE
 70
     1
  0
ATTRIB
  5
220
  8
11
 10
5.9917643289672347
 20
30.286875982151539
 30
0.0
 40
3.149999999999999
  1
1.2
  7
ISO
 72
     1
 11
8.9917643289672355
 21
30.286875982151539
 31
0.0
  2
G:MTI1
 70
     1
  0
ATTRIB
  5
221
  8
11
 10
6.3967877461232368
 20
26.501959223681069
 30
0.0
 40
3.149999999999999
  1
1.2
  7
ISO
 72
     1
 11
9.3967877461232376
 21
26.501959223681069
 31
0.0
  2
G:MTI2
 70
     1
  0
ATTRIB
  5
222
  8
11
 10
8.0767721346858927
 20
22.987060963328268
 30
0.0
 40
3.149999999999999
  1
8
  7
ISO
 72
     1
 11
9.1267721346858934
 21
22.987060963328268
 31
0.0
  2
G:MOT1
 70
     1
  0
ATTRIB
  5
223
  8
11
 10
8.2867799404045517
 20
19.33715345391661
 30
0.0
 40
3.149999999999999
  1
6
  7
ISO
 72
     1
 11
9.2617799404045513
 21
19.33715345391661
 31
0.0
  2
G:MOT2
 70
     1
  0
ATTRIB
  5
224
  8
11
 10
-3.0382981167820811
 20
15.68724594450495
 30
0.0
 40
3.149999999999999
  1
PILHUVUD
  7
ISO
 72
     1
 11
7.9117018832179147
 21
15.68724594450495
 31
0.0
  2
G:PIL
 70
     1
  0
ATTRIB
  5
225
  8
11
 10
8.3352830008829351
 20
11.990876373347019
 30
0.0
 40
3.149999999999999
  1
N
  7
ISO
 72
     1
 11
9.3852830008829358
 21
11.990876373347019
 31
0.0
  2
G:FBPA
 70
     1
  0
ATTRIB
  5
226
  8
11
 10
8.3950448179475927
 20
8.3986583070106349
 30
0.0
 40
3.149999999999999
  1
J
  7
ISO
 72
     1
 11
9.1450448179475927
 21
8.3986583070106349
 31
0.0
  2
G:MDEC
 70
     1
  0
ATTRIB
  5
227
  8
11
 10
8.9079317993855796
 20
4.6634591054952628
 30
0.0
 40
3.149999999999999
  1
1
  7
ISO
 72
     1
 11
9.2829317993855796
 21
4.6634591054952628
 31
0.0
  2
G:MSCA
 70
     1
  0
ATTRIB
  5
228
  8
11
 10
0.7010354372155235
 20
1.087866306593156
 30
0.0
 40
3.149999999999999
  1
N
  7
ISO
  2
G:MTOL
 70
     1
  0
SEQEND
  5
229
  8
01
  0
INSERT
  5
22A
  8
01
 66
     1
  2
SOSLGR
 10
0.0
 20
0.0
 30
0.0
  0
ATTRIB
  5
22B
  8
11
 10
-1.0499999999999989
 20
-1.3375796178343931
 30
0.0
 40
3.149999999999999
  1
N
  7
ISO
 72
     1
 11
0.0
 21
-1.3375796178343931
 31
0.0
  2
G:LGR
 70
     1
  0
ATTRIB
  5
22C
  8
11
 10
-2.3249999999999988
 20
-8.4713375796178525
 30
0.0
 40
3.149999999999999
  1
-1
  7
ISO
 72
     1
 11
0.0
 21
-8.4713375796178525
 31
0.0
  2
G:LG_A
 70
     1
  0
SEQEND
  5
22D
  8
01
  0
INSERT
  5
22E
  8
01
 66
     1
  2
SOKONFIG
 10
0.0
 20
0.0
 30
0.0
  0
ATTRIB
  5
22F
  8
11
 10
-1.0499999999999989
 20
-1.575
 30
0.0
 40
3.149999999999999
  1
N
  7
ISO
 72
     4
 11
0.0
 21
0.0
 31
0.0
  2
G:UTSH
 70
     1
  0
ATTRIB
  5
230
  8
11
 10
-1.0499999999999989
 20
-6.5750000000000002
 30
0.0
 40
3.149999999999999
  1
N
  7
ISO
 72
     4
 11
0.0
 21
-5.0
 31
0.0
  2
G:CENM
 70
     1
  0
ATTRIB
  5
231
  8
11
 10
-1.7145735388511301
 20
-11.65704987165385
 30
0.0
 40
3.149999999999999
  1
5
  7
ISO
 72
     4
 11
-0.6645735388511298
 21
-10.082049871653849
 31
0.0
  2
G:DHA
 70
     1
  0
ATTRIB
  5
232
  8
11
 10
-3.2145735388511292
 20
-16.65704987165385
 30
0.0
 40
3.149999999999999
  1
45
  7
ISO
 72
     4
 11
-0.6645735388511298
 21
-15.082049871653849
 31
0.0
  2
G:DVI
 70
     1
  0
ATTRIB
  5
233
  8
11
 10
-4.9395735388511302
 20
-21.65704987165385
 30
0.0
 40
3.149999999999999
  1
POS
  7
ISO
 72
     4
 11
-0.6645735388511298
 21
-20.082049871653851
 31
0.0
  2
G:POBA
 70
     1
  0
ATTRIB
  5
234
  8
11
 10
-1.639573538851129
 20
-26.65704987165385
 30
0.0
 40
3.149999999999999
  1
6
  7
ISO
 72
     4
 11
-0.6645735388511298
 21
-25.082049871653851
 31
0.0
  2
G:PORA
 70
     1
  0
ATTRIB
  5
235
  8
11
 10
-1.7895735388511289
 20
-31.65704987165385
 30
0.0
 40
3.149999999999999
  1
C
  7
ISO
 72
     4
 11
-0.6645735388511298
 21
-30.082049871653851
 31
0.0
  2
G:POFO
 70
     1
  0
ATTRIB
  5
236
  8
11
 10
-2.2395735388511291
 20
-36.657049871653847
 30
0.0
 40
3.149999999999999
  1
PI
  7
ISO
 72
     4
 11
-0.6645735388511298
 21
-35.082049871653851
 31
0.0
  2
G:POAN
 70
     1
  0
ATTRIB
  5
237
  8
11
 10
-1.05
 20
-41.355885588558863
 30
0.0
 40
3.149999999999999
  1
5
  7
ISO
 72
     1
 11
0.0
 21
-41.355885588558863
 31
0.0
  2
G:RAAV
 70
     1
  0
ATTRIB
  5
238
  8
11
 10
-1.0499999999999989
 20
-46.575000000000003
 30
0.0
 40
3.149999999999999
  1
7
  7
ISO
 72
     4
 11
0.0
 21
-45.0
 31
0.0
  2
G:HUAV
 70
     1
  0
ATTRIB
  5
239
  8
11
 10
-0.7499999999999999
 20
-51.114155153025791
 30
0.0
 40
3.149999999999999
  1
J
  7
ISO
 72
     1
 11
0.0
 21
-51.114155153025791
 31
0.0
  2
G:S_SU
 70
     1
  0
ATTRIB
  5
23A
  8
11
 10
-2.399999999999999
 20
-56.274999999999999
 30
0.0
 40
3.149999999999999
  1
,2,
  7
ISO
 72
     4
 11
0.0
 21
-55.0
 31
0.0
  2
G:SU_L
 70
     1
  0
ATTRIB
  5
23B
  8
11
 10
-9.4500000000000011
 20
-61.114155153025791
 30
0.0
 40
3.149999999999999
  1
REVRING
  7
ISO
 72
     1
 11
0.0
 21
-61.114155153025791
 31
0.0
  2
G:REBA
 70
     1
  0
ATTRIB
  5
23C
  8
11
 10
-3.2999999999999989
 20
-66.575000000000003
 30
0.0
 40
3.149999999999999
  1
3.5
  7
ISO
 72
     4
 11
0.0
 21
-65.0
 31
0.0
  2
G:RERA
 70
     1
  0
ATTRIB
  5
23D
  8
11
 10
-1.875
 20
-71.575000000000003
 30
0.0
 40
3.149999999999999
  1
01
  7
ISO
 72
     4
 11
0.0
 21
-70.0
 31
0.0
  2
LA1
 70
     1
  0
ATTRIB
  5
23E
  8
11
 10
-2.5499999999999989
 20
-76.575000000000003
 30
0.0
 40
3.149999999999999
  1
02
  7
ISO
 72
     4
 11
0.0
 21
-75.0
 31
0.0
  2
LA2
 70
     1
  0
ATTRIB
  5
23F
  8
11
 10
-2.5499999999999989
 20
-81.575000000000003
 30
0.0
 40
3.149999999999999
  1
03
  7
ISO
 72
     4
 11
0.0
 21
-80.0
 31
0.0
  2
LA3
 70
     1
  0
ATTRIB
  5
240
  8
11
 10
-2.625
 20
-86.575000000000003
 30
0.0
 40
3.149999999999999
  1
04
  7
ISO
 72
     4
 11
0.0
 21
-85.0
 31
0.0
  2
LA4
 70
     1
  0
ATTRIB
  5
241
  8
11
 10
-2.5499999999999998
 20
-91.575000000000003
 30
0.0
 40
3.149999999999999
  1
05
  7
ISO
 72
     4
 11
0.0
 21
-90.0
 31
0.0
  2
LA5
 70
     1
  0
ATTRIB
  5
242
  8
11
 10
-2.4750000000000001
 20
-96.575000000000003
 30
0.0
 40
3.149999999999999
  1
06
  7
ISO
 72
     4
 11
0.0
 21
-95.0
 31
0.0
  2
LA6
 70
     1
  0
ATTRIB
  5
243
  8
11
 10
-2.5499999999999989
 20
-101.575
 30
0.0
 40
3.149999999999999
  1
07
  7
ISO
 72
     4
 11
0.0
 21
-100.0
 31
0.0
  2
LA7
 70
     1
  0
ATTRIB
  5
244
  8
11
 10
-2.5499999999999989
 20
-106.5749999999999
 30
0.0
 40
3.149999999999999
  1
08
  7
ISO
 72
     4
 11
0.0
 21
-105.0
 31
0.0
  2
LA8
 70
     1
  0
ATTRIB
  5
245
  8
11
 10
-2.4750000000000001
 20
-111.575
 30
0.0
 40
3.149999999999999
  1
09
  7
ISO
 72
     4
 11
0.0
 21
-110.0
 31
0.0
  2
LA9
 70
     1
  0
ATTRIB
  5
246
  8
11
 10
-2.25
 20
-116.575
 30
0.0
 40
3.149999999999999
  1
10
  7
ISO
 72
     4
 11
0.0
 21
-115.0
 31
0.0
  2
LA10
 70
     1
  0
ATTRIB
  5
247
  8
11
 10
-1.5749999999999991
 20
-121.575
 30
0.0
 40
3.149999999999999
  1
11
  7
ISO
 72
     4
 11
0.0
 21
-120.0
 31
0.0
  2
LA11
 70
     1
  0
ATTRIB
  5
248
  8
11
 10
-2.2499999999999991
 20
-126.575
 30
0.0
 40
3.149999999999999
  1
12
  7
ISO
 72
     4
 11
0.0
 21
-125.0
 31
0.0
  2
LA12
 70
     1
  0
ATTRIB
  5
249
  8
11
 10
-2.2499999999999991
 20
-131.5749999999999
 30
0.0
 40
3.149999999999999
  1
13
  7
ISO
 72
     4
 11
0.0
 21
-130.0
 31
0.0
  2
LA13
 70
     1
  0
ATTRIB
  5
24A
  8
11
 10
-2.3249999999999988
 20
-136.57499999999999
 30
0.0
 40
3.149999999999999
  1
14
  7
ISO
 72
     4
 11
0.0
 21
-135.0
 31
0.0
  2
LA14
 70
     1
  0
ATTRIB
  5
24B
  8
11
 10
-2.25
 20
-141.5749999999999
 30
0.0
 40
3.149999999999999
  1
15
  7
ISO
 72
     4
 11
0.0
 21
-140.0
 31
0.0
  2
LA15
 70
     1
  0
ATTRIB
  5
24C
  8
11
 10
-2.1749999999999989
 20
-146.5749999999999
 30
0.0
 40
3.149999999999999
  1
16
  7
ISO
 72
     4
 11
0.0
 21
-145.0
 31
0.0
  2
LA16
 70
     1
  0
SEQEND
  5
24D
  8
01
  0
INSERT
  5
24E
  8
101
 66
     1
  2
A3EL
 10
0.0
 20
0.0
 30
0.0
  0
ATTRIB
  5
24F
  8
110
 62
     3
 10
310.0833333333332
 20
5.75
 30
0.0
 40
5.0
  1
5354 0859-5
 41
0.7
  7
ROMANS
 72
     4
 11
328.99999999999989
 21
8.25
 31
0.0
  2
DOCNO
 70
     0
  0
ATTRIB
  5
250
  8
110
 10
216.4999999999998
 20
17.25
 30
0.0
 40
2.5
  1
KRETSSCHEMA
 41
0.8
  7
ROMANS
  2
DOCTYPE
 70
     0
  0
ATTRIB
  5
251
  8
110
 10
370.76090090186432
 20
24.218724570201431
 30
0.0
 40
2.5
  1
1951
 41
0.8
  7
ROMANS
 72
     2
 11
377.52280566376902
 21
24.218724570201431
 31
0.0
  2
FILENAME
 70
     0
  0
ATTRIB
  5
252
  8
110
 10
216.4999999999998
 20
13.0
 30
0.0
 40
2.5
  1
CONTACTOR DC
 41
0.8
  7
ROMANS
  2
TITLE1
 70
     0
  0
ATTRIB
  5
253
  8
110
 10
216.4999999999998
 20
8.7499999999999858
 30
0.0
 40
2.5
  1
KONTAKTOR LS
 41
0.8
  7
ROMANS
  2
TITLE2
 70
     0
  0
ATTRIB
  5
254
  8
110
 10
269.09934116482867
 20
2.4499999999999602
 30
0.0
 40
2.0
  1
SECRL/AM
 41
0.8
  7
ROMANS
  2
RESPDEPT
 70
     0
  0
ATTRIB
  5
255
  8
110
 10
284.20476190476182
 20
2.4500000000000171
 30
0.0
 40
2.0
  1
91
 41
0.8
  7
ROMANS
 72
     1
 11
285.49999999999989
 21
2.4500000000000171
 31
0.0
  2
ISSYEAR
 70
     0
  0
ATTRIB
  5
256
  8
110
 10
289.97619047619042
 20
2.4500000000000171
 30
0.0
 40
2.0
  1
40
 41
0.8
  7
ROMANS
 72
     1
 11
291.49999999999989
 21
2.4500000000000171
 31
0.0
  2
ISSWEEK
 70
     0
  0
ATTRIB
  5
257
  8
110
 10
297.49999999999989
 20
1.5
 30
0.0
 40
2.0
  1
ISSUED
 41
0.8
  7
ROMANS
  2
STATUS
 70
     0
  0
ATTRIB
  5
258
  8
110
 10
180.4999999999998
 20
15.74999999999998
 30
0.0
 40
2.5
  1
RESMALM
 41
0.8
  7
ROMANS
  2
APPROVED
 70
     0
  0
ATTRIB
  5
259
  8
110
 10
180.4999999999998
 20
8.7499999999999858
 30
0.0
 40
2.5
  1
AVEBO
 41
0.8
  7
ROMANS
  2
PREPARED
 70
     0
  0
ATTRIB
  5
25A
  8
110
 10
180.4999999999998
 20
1.7034907830826009
 30
0.0
 40
2.5
  1
LUNDQVIST
 41
0.8
  7
ROMANS
  2
DRAWNBY
 70
     0
  0
ATTRIB
  5
25B
  8
110
 10
2.6330824642484698
 20
270.33845961209829
 30
0.0
 40
2.5
  1
EK 100-550
 41
0.8
  7
ROMANS
  2
TYPE
 70
     0
  0
ATTRIB
  5
25C
  8
110
 10
363.93733210269761
 20
9.3094336396732391
 30
0.0
 40
2.5
  1
82
 41
0.8
  7
ROMANS
 72
     4
 11
365.84209400745948
 21
10.559433639673239
 31
0.0
  2
LANG
 70
     0
  0
ATTRIB
  5
25D
  8
110
 10
365.92966295032983
 20
3.0061531099255672
 30
0.0
 40
2.5
  1

 41
0.8
  7
ROMANS
 72
     4
 11
365.92966295032983
 21
3.0061531099255672
 31
0.0
  2
REVISION
 70
     0
  0
ATTRIB
  5
25E
  8
110
 10
376.69047619047598
 20
9.2499999999999858
 30
0.0
 40
2.5
  1
1
 41
0.8
  7
ROMANS
 72
     1
 11
377.49999999999989
 21
9.2499999999999858
 31
0.0
  2
SHEET
 70
     0
  0
ATTRIB
  5
25F
  8
110
 10
376.26190476190459
 20
1.7247605996102331
 30
0.0
 40
2.5
  1
-
 41
0.8
  7
ROMANS
 72
     1
 11
377.49999999999989
 21
1.7247605996102331
 31
0.0
  2
CONT
 70
     0
  0
SEQEND
  5
260
  8
101
  0
INSERT
  5
261
  8
101
  2
S89
 10
85.0
 20
220.0
 30
0.0
  0
INSERT
  5
262
  8
101
  2
S89
 10
105.0
 20
220.0
 30
0.0
  0
INSERT
  5
263
  8
101
 66
     1
  2
S51
 10
125.0
 20
220.0
 30
0.0
  0
ATTRIB
  5
264
  8
109
 10
132.49999999999989
 20
224.0
 30
0.0
 40
2.2000000000000002
  1

 72
     1
 11
132.49999999999989
 21
224.0
 31
0.0
  2
POS
 70
     0
  0
ATTRIB
  5
265
  8
109
 10
131.49999999999989
 20
224.0
 30
0.0
 40
2.2000000000000002
  1

 72
     2
 11
131.49999999999989
 21
224.0
 31
0.0
  2
POS
 70
     0
  0
ATTRIB
  5
266
  8
108
 10
135.0
 20
217.0
 30
0.0
 40
2.2000000000000002
  1
A2
  2
ANSL
 70
     0
  0
ATTRIB
  5
267
  8
108
 10
127.17142857142851
 20
217.0
 30
0.0
 40
2.2000000000000002
  1
A1
 72
     2
 11
130.0
 21
217.0
 31
0.0
  2
ANSL
 70
     0
  0
SEQEND
  5
268
  8
101
  0
LINE
  5
269
  8
102
 10
105.0
 20
220.0
 30
0.0
 11
105.0
 21
210.0
 31
0.0
  0
LINE
  5
26A
  8
102
 10
125.0
 20
220.0
 30
0.0
 11
125.0
 21
210.0
 31
0.0
  0
INSERT
  5
26B
  8
102
 66
     1
  2
S30
 10
107.4999999999999
 20
210.0
 30
0.0
  0
ATTRIB
  5
26C
  8
108
 10
118.5
 20
206.65000000000001
 30
0.0
 40
2.2000000000000002
  1
36
  2
ANSL
 70
     0
  0
ATTRIB
  5
26D
  8
108
 10
107.9380952380952
 20
206.65000000000001
 30
0.0
 40
2.2000000000000002
  1
35
 72
     2
 11
111.4999999999999
 21
206.65000000000001
 31
0.0
  2
ANSL
 70
     0
  0
ATTRIB
  5
26E
  8
109
 10
115.0
 20
214.0
 30
0.0
 40
2.2000000000000002
  1

 72
     1
 11
115.0
 21
214.0
 31
0.0
  2
POS
 70
     0
  0
SEQEND
  5
26F
  8
102
  0
INSERT
  5
270
  8
102
 66
     1
  2
S28
 10
107.4999999999999
 20
205.0
 30
0.0
  0
ATTRIB
  5
271
  8
108
 10
118.5
 20
201.65000000000001
 30
0.0
 40
2.2000000000000002
  1
48
  2
ANSL
 70
     0
  0
ATTRIB
  5
272
  8
108
 10
107.9380952380952
 20
201.65000000000001
 30
0.0
 40
2.2000000000000002
  1
47
 72
     2
 11
111.4999999999999
 21
201.65000000000001
 31
0.0
  2
ANSL
 70
     0
  0
ATTRIB
  5
273
  8
109
 10
115.0
 20
206.15000000000001
 30
0.0
 40
2.2000000000000002
  1

 72
     1
 11
115.0
 21
206.15000000000001
 31
0.0
  2
POS
 70
     0
  0
SEQEND
  5
274
  8
102
  0
LINE
  5
275
  8
102
 10
105.0
 20
210.0
 30
0.0
 11
107.4999999999999
 21
210.0
 31
0.0
  0
LINE
  5
276
  8
102
 10
122.5
 20
210.0
 30
0.0
 11
125.0
 21
210.0
 31
0.0
  0
LINE
  5
277
  8
104
 10
115.0
 20
210.99994853139299
 30
0.0
 11
115.0
 21
197.5
 31
0.0
  0
LINE
  5
278
  8
104
 10
115.0
 20
197.5
 30
0.0
 11
132.49999999999989
 21
197.5
 31
0.0
  0
LINE
  5
279
  8
104
 10
132.49999999999989
 20
217.0
 30
0.0
 11
132.49999999999989
 21
185.625
 31
0.0
  0
LINE
  5
27A
  8
103
 10
167.5
 20
212.5
 30
0.0
 11
167.5
 21
217.5
 31
0.0
  0
LINE
  5
27B
  8
103
 10
162.5
 20
212.5
 30
0.0
 11
162.5
 21
217.5
 31
0.0
  0
LINE
  5
27C
  8
103
 10
157.5
 20
212.5
 30
0.0
 11
157.5
 21
217.5
 31
0.0
  0
CIRCLE
  5
27D
  8
111
 10
157.5
 20
207.5
 30
0.0
 40
0.75
  0
CIRCLE
  5
27E
  8
111
 10
162.5
 20
207.5
 30
0.0
 40
0.75
  0
CIRCLE
  5
27F
  8
111
 10
167.5
 20
207.5
 30
0.0
 40
0.75
  0
ARC
  5
280
  8
111
 10
157.5
 20
214.0
 30
0.0
 40
1.5
 50
90.0
 51
270.0
  0
ARC
  5
281
  8
111
 10
162.5
 20
214.0
 30
0.0
 40
1.5
 50
90.0
 51
270.0
  0
ARC
  5
282
  8
111
 10
167.5
 20
214.0
 30
0.0
 40
1.5
 50
90.0
 51
270.0
  0
LINE
  5
283
  8
103
 10
157.5
 20
202.49999999999989
 30
0.0
 11
157.5
 21
206.74999999999989
 31
0.0
  0
LINE
  5
284
  8
103
 10
162.5
 20
202.49999999999989
 30
0.0
 11
162.5
 21
206.74999999999989
 31
0.0
  0
LINE
  5
285
  8
103
 10
167.5
 20
202.49999999999989
 30
0.0
 11
167.5
 21
206.74999999999989
 31
0.0
  0
TEXT
  5
286
  8
108
 10
170.5
 20
200.74795341010881
 30
0.0
 40
2.149999999999999
  1
6T3
 50
90.0
  0
TEXT
  5
287
  8
108
 10
165.5
 20
200.74795341010881
 30
0.0
 40
2.149999999999999
  1
4T2
 50
90.0
  0
TEXT
  5
288
  8
108
 10
160.49999999999989
 20
200.74795341010881
 30
0.0
 40
2.149999999999999
  1
2T1
 50
90.0
  0
TEXT
  5
289
  8
108
 10
160.49999999999989
 20
215.5
 30
0.0
 40
2.149999999999999
  1
1L1
 50
90.0
  0
TEXT
  5
28A
  8
108
 10
165.5
 20
215.5
 30
0.0
 40
2.149999999999999
  1
3L2
 50
90.0
  0
TEXT
  5
28B
  8
108
 10
170.5
 20
215.5
 30
0.0
 40
2.149999999999999
  1
5L3
 50
90.0
  0
LINE
  5
28C
  8
104
 10
132.49999999999989
 20
209.99999999999989
 30
0.0
 11
171.25
 21
210.0
 31
0.0
  0
LINE
  5
28D
  8
111
 10
155.0
 20
212.5
 30
0.0
 11
157.16458980337501
 21
208.1708203932499
 31
0.0
  0
LINE
  5
28E
  8
111
 10
160.0
 20
212.5
 30
0.0
 11
162.16458980337501
 21
208.1708203932499
 31
0.0
  0
LINE
  5
28F
  8
111
 10
165.0
 20
212.5
 30
0.0
 11
167.16458980337501
 21
208.1708203932499
 31
0.0
  0
LINE
  5
290
  8
111
 10
170.0
 20
212.5
 30
0.0
 11
172.16458980337501
 21
208.1708203932499
 31
0.0
  0
TEXT
  5
291
  8
108
 10
175.5
 20
215.5
 30
0.0
 40
2.149999999999999
  1
7L4
 50
90.0
  0
TEXT
  5
292
  8
108
 10
175.5
 20
200.74795341010881
 30
0.0
 40
2.149999999999999
  1
8T4
 50
90.0
  0
LINE
  5
293
  8
103
 10
172.5
 20
202.49999999999989
 30
0.0
 11
172.5
 21
206.74999999999989
 31
0.0
  0
ARC
  5
294
  8
111
 10
172.5
 20
214.0
 30
0.0
 40
1.5
 50
90.0
 51
270.0
  0
CIRCLE
  5
295
  8
111
 10
172.5
 20
207.5
 30
0.0
 40
0.75
  0
LINE
  5
296
  8
103
 10
172.5
 20
212.5
 30
0.0
 11
172.5
 21
217.5
 31
0.0
  0
INSERT
  5
297
  8
104
  2
S71
 10
132.49999999999989
 20
210.0
 30
0.0
  0
INSERT
  5
298
  8
104
  2
S71
 10
132.49999999999989
 20
197.5
 30
0.0
  0
INSERT
  5
299
  8
104
  2
S71
 10
105.0
 20
220.0
 30
0.0
  0
INSERT
  5
29A
  8
104
  2
S71
 10
125.0
 20
220.0
 30
0.0
  0
INSERT
  5
29B
  8
104
 66
     1
  2
S25
 10
125.0
 20
190.0
 30
0.0
  0
ATTRIB
  5
29C
  8
108
 10
136.0
 20
186.65000000000001
 30
0.0
 40
2.2000000000000002
  1
14
  2
ANSL
 70
     0
  0
ATTRIB
  5
29D
  8
108
 10
125.8571428571428
 20
186.65000000000001
 30
0.0
 40
2.2000000000000002
  1
13
 72
     2
 11
129.0
 21
186.65000000000001
 31
0.0
  2
ANSL
 70
     0
  0
ATTRIB
  5
29E
  8
109
 10
132.49999999999989
 20
191.15000000000001
 30
0.0
 40
2.2000000000000002
  1

 72
     1
 11
132.49999999999989
 21
191.15000000000001
 31
0.0
  2
POS
 70
     0
  0
SEQEND
  5
29F
  8
104
  0
INSERT
  5
2A0
  8
104
 66
     1
  2
S26
 10
125.0
 20
185.0
 30
0.0
  0
ATTRIB
  5
2A1
  8
108
 10
136.0
 20
181.64999999999989
 30
0.0
 40
2.2000000000000002
  1
22
  2
ANSL
 70
     0
  0
ATTRIB
  5
2A2
  8
108
 10
126.38095238095229
 20
181.64999999999989
 30
0.0
 40
2.2000000000000002
  1
21
 72
     2
 11
129.0
 21
181.64999999999989
 31
0.0
  2
ANSL
 70
     0
  0
ATTRIB
  5
2A3
  8
109
 10
132.49999999999989
 20
188.0
 30
0.0
 40
2.2000000000000002
  1

 72
     1
 11
132.49999999999989
 21
188.0
 31
0.0
  2
POS
 70
     0
  0
SEQEND
  5
2A4
  8
104
  0
TEXT
  5
2A5
  8
108
 10
93.166237263989558
 20
222.015749579518
 30
0.0
 40
2.149999999999999
  1
R2
 50
0.0000000000000013
  0
TEXT
  5
2A6
  8
108
 10
113.1210192772426
 20
221.9723967790419
 30
0.0
 40
2.149999999999999
  1
R1
 50
0.0000000000000013
  0
INSERT
  5
2A7
  8
104
 66
     1
  2
S25
 10
125.0
 20
170.0
 30
0.0
  0
ATTRIB
  5
2A8
  8
108
 10
136.0
 20
166.65000000000001
 30
0.0
 40
2.2000000000000002
  1
54
  2
ANSL
 70
     0
  0
ATTRIB
  5
2A9
  8
108
 10
125.4380952380952
 20
166.65000000000001
 30
0.0
 40
2.2000000000000002
  1
53
 72
     2
 11
129.0
 21
166.65000000000001
 31
0.0
  2
ANSL
 70
     0
  0
ATTRIB
  5
2AA
  8
109
 10
132.49999999999989
 20
171.15000000000001
 30
0.0
 40
2.2000000000000002
  1

 72
     1
 11
132.49999999999989
 21
171.15000000000001
 31
0.0
  2
POS
 70
     0
  0
SEQEND
  5
2AB
  8
104
  0
INSERT
  5
2AC
  8
104
 66
     1
  2
S26
 10
125.0
 20
165.0
 30
0.0
  0
ATTRIB
  5
2AD
  8
108
 10
136.0
 20
161.65000000000001
 30
0.0
 40
2.2000000000000002
  1
62
  2
ANSL
 70
     0
  0
ATTRIB
  5
2AE
  8
108
 10
126.38095238095229
 20
161.65000000000001
 30
0.0
 40
2.2000000000000002
  1
61
 72
     2
 11
129.0
 21
161.65000000000001
 31
0.0
  2
ANSL
 70
     0
  0
ATTRIB
  5
2AF
  8
109
 10
132.49999999999989
 20
168.0
 30
0.0
 40
2.2000000000000002
  1

 72
     1
 11
132.49999999999989
 21
168.0
 31
0.0
  2
POS
 70
     0
  0
SEQEND
  5
2B0
  8
104
  0
LINE
  5
2B1
  8
102
 10
145.9408425740834
 20
169.899155863678
 30
0.0
 11
145.9408425740834
 21
166.55915742591651
 31
0.0
  0
LINE
  5
2B2
  8
102
 10
147.5
 20
165.0
 30
0.0
 11
145.9408425740834
 21
163.4408425740834
 31
0.0
  0
LINE
  5
2B3
  8
102
 10
147.5
 20
165.0
 30
0.0
 11
145.9408425740834
 21
166.55915742591651
 31
0.0
  0
LINE
  5
2B4
  8
102
 10
145.9408425740834
 20
163.4408425740834
 30
0.0
 11
145.9408425740834
 21
159.899155863678
 31
0.0
  0
LINE
  5
2B5
  8
102
 10
145.9408425740834
 20
159.899155863678
 30
0.0
 11
144.38168514816689
 21
158.33999843776149
 31
0.0
  0
LINE
  5
2B6
  8
102
 10
145.9408425740834
 20
169.899155863678
 30
0.0
 11
144.38168514816689
 21
171.45831328959451
 31
0.0
  0
TEXT
  5
2B7
  8
110
 10
152.5
 20
165.0
 30
0.0
 40
2.2000000000000002
  1
Extra auxiliary contacts
  7
ROMANS
  0
TEXT
  5
2B8
  8
110
 10
152.5
 20
161.4380952380952
 30
0.0
 40
2.2000000000000002
  1
Extra hjälpkontakter
  7
ROMANS
  0
LINE
  5
2B9
  8
102
 10
99.059157425916524
 20
169.899155863678
 30
0.0
 11
100.61831485183301
 21
171.45831328959451
 31
0.0
  0
LINE
  5
2BA
  8
102
 10
99.059157425916524
 20
159.899155863678
 30
0.0
 11
100.61831485183301
 21
158.33999843776149
 31
0.0
  0
LINE
  5
2BB
  8
102
 10
99.059157425916524
 20
163.4408425740834
 30
0.0
 11
99.059157425916524
 21
159.899155863678
 31
0.0
  0
LINE
  5
2BC
  8
102
 10
97.5
 20
165.0
 30
0.0
 11
99.059157425916524
 21
166.55915742591651
 31
0.0
  0
LINE
  5
2BD
  8
102
 10
97.5
 20
165.0
 30
0.0
 11
99.059157425916524
 21
163.4408425740834
 31
0.0
  0
LINE
  5
2BE
  8
102
 10
99.059157425916524
 20
169.899155863678
 30
0.0
 11
99.059157425916524
 21
166.55915742591651
 31
0.0
  0
LINE
  5
2BF
  8
102
 10
99.059157425916524
 20
189.899155863678
 30
0.0
 11
99.059157425916524
 21
186.55915742591651
 31
0.0
  0
LINE
  5
2C0
  8
102
 10
97.5
 20
185.0
 30
0.0
 11
99.059157425916524
 21
183.4408425740834
 31
0.0
  0
LINE
  5
2C1
  8
102
 10
97.5
 20
185.0
 30
0.0
 11
99.059157425916524
 21
186.55915742591651
 31
0.0
  0
LINE
  5
2C2
  8
102
 10
99.059157425916524
 20
183.4408425740834
 30
0.0
 11
99.059157425916524
 21
179.899155863678
 31
0.0
  0
LINE
  5
2C3
  8
102
 10
99.059157425916524
 20
179.899155863678
 30
0.0
 11
100.61831485183301
 21
178.33999843776149
 31
0.0
  0
LINE
  5
2C4
  8
102
 10
99.059157425916524
 20
189.899155863678
 30
0.0
 11
100.61831485183301
 21
191.45831328959451
 31
0.0
  0
LINE
  5
2C5
  8
102
 10
99.059157425916524
 20
209.89915586367809
 30
0.0
 11
99.059157425916524
 21
206.55915742591651
 31
0.0
  0
LINE
  5
2C6
  8
102
 10
97.5
 20
205.0
 30
0.0
 11
99.059157425916524
 21
203.44084257408349
 31
0.0
  0
LINE
  5
2C7
  8
102
 10
97.5
 20
205.0
 30
0.0
 11
99.059157425916524
 21
206.55915742591651
 31
0.0
  0
LINE
  5
2C8
  8
102
 10
99.059157425916524
 20
203.44084257408349
 30
0.0
 11
99.059157425916524
 21
199.89915586367809
 31
0.0
  0
LINE
  5
2C9
  8
102
 10
99.059157425916524
 20
199.89915586367809
 30
0.0
 11
100.61831485183301
 21
198.33999843776149
 31
0.0
  0
LINE
  5
2CA
  8
102
 10
99.059157425916524
 20
209.89915586367809
 30
0.0
 11
100.61831485183301
 21
211.45831328959451
 31
0.0
  0
TEXT
  5
2CB
  8
110
 10
70.0
 20
205.0
 30
0.0
 40
2.2000000000000002
  1
Right side
  7
ROMANS
  0
TEXT
  5
2CC
  8
110
 10
70.0
 20
201.4380952380952
 30
0.0
 40
2.2000000000000002
  1
Höger sida
  7
ROMANS
  0
TEXT
  5
2CD
  8
110
 10
70.0
 20
185.0
 30
0.0
 40
2.2000000000000002
  1
Left side
  7
ROMANS
  0
TEXT
  5
2CE
  8
110
 10
70.0
 20
181.4380952380952
 30
0.0
 40
2.2000000000000002
  1
Vänster sida
  7
ROMANS
  0
TEXT
  5
2CF
  8
110
 10
70.0
 20
165.0
 30
0.0
 40
2.2000000000000002
  1
Left side
  7
ROMANS
  0
TEXT
  5
2D0
  8
110
 10
70.0
 20
161.4380952380952
 30
0.0
 40
2.2000000000000002
  1
Vänster sida
  7
ROMANS
  0
TEXT
  5
2D1
  8
110
 10
70.0
 20
130.0
 30
0.0
 40
2.2000000000000002
  1
R1  Economic resistor
  7
ROMANS
  0
TEXT
  5
2D2
  8
110
 10
70.0
 20
126.4380952380952
 30
0.0
 40
2.2000000000000002
  1
    Sparmotstånd
  7
ROMANS
  0
TEXT
  5
2D3
  8
110
 10
70.0
 20
119.3142857142857
 30
0.0
 40
2.2000000000000002
  1
R2  Serie resistor (if used)
  7
ROMANS
  0
TEXT
  5
2D4
  8
110
 10
70.0
 20
115.7523809523809
 30
0.0
 40
2.2000000000000002
  1
    Seriemotstånd (ev.)
  7
ROMANS
  0
ENDBLK
  5
2D5
  8
0
  0
BLOCK
  8
0
  2
SOSMDIM
 70
     2
 10
0.0
 20
0.0
 30
0.0
  3
SOSMDIM
  1

  0
ATTDEF
  5
2D7
  8
11
 10
4.8967877461232368
 20
37.721700250033649
 30
0.0
 40
3.149999999999999
  1
3.15
  7
ISO
 72
     1
 11
9.3967877461232376
 21
37.721700250033649
 31
0.0
  3
Måttextens höjd
  2
G:HTXT
 70
     1
  0
ATTDEF
  5
2D8
  8
11
 10
5.826772134685922
 20
34.071792740622008
 30
0.0
 40
3.149999999999999
  1
2.0
  7
ISO
 72
     1
 11
9.1267721346859219
 21
34.071792740622008
 31
0.0
  3
Måttgränslinjeutbredning
  2
G:MEXE
 70
     1
  0
ATTDEF
  5
2D9
  8
11
 10
5.9917643289672347
 20
30.286875982151539
 30
0.0
 40
3.149999999999999
  1
1.5
  7
ISO
 72
     1
 11
8.9917643289672355
 21
30.286875982151539
 31
0.0
  3
Måttextens förskjutning
  2
G:MTI1
 70
     1
  0
ATTDEF
  5
2DA
  8
11
 10
6.3967877461232368
 20
26.501959223681069
 30
0.0
 40
3.149999999999999
  1
1.5
  7
ISO
 72
     1
 11
9.3967877461232376
 21
26.501959223681069
 31
0.0
  3
Radavstånd för måttext
  2
G:MTI2
 70
     1
  0
ATTDEF
  5
2DB
  8
11
 10
8.0767721346858927
 20
22.987060963328268
 30
0.0
 40
3.149999999999999
  1
8
  7
ISO
 72
     1
 11
9.1267721346858934
 21
22.987060963328268
 31
0.0
  3
Små mått, sida 1
  2
G:MOT1
 70
     1
  0
ATTDEF
  5
2DC
  8
11
 10
8.2867799404045517
 20
19.33715345391661
 30
0.0
 40
3.149999999999999
  1
6
  7
ISO
 72
     1
 11
9.2617799404045513
 21
19.33715345391661
 31
0.0
  3
Små mått, sida 2
  2
G:MOT2
 70
     1
  0
ATTDEF
  5
2DD
  8
11
 10
-3.0382981167820811
 20
15.68724594450495
 30
0.0
 40
3.149999999999999
  1
PILHUVUD
  7
ISO
 72
     1
 11
7.9117018832179147
 21
15.68724594450495
 31
0.0
  3
Måttgränsmarkering
  2
G:PIL
 70
     1
  0
ATTDEF
  5
2DE
  8
11
 10
8.3352830008829351
 20
11.990876373347019
 30
0.0
 40
3.149999999999999
  1
N
  7
ISO
 72
     1
 11
9.3852830008829358
 21
11.990876373347019
 31
0.0
  3
Parallell bas-text J/N
  2
G:FBPA
 70
     1
  0
ATTDEF
  5
2DF
  8
11
 10
8.3950448179475927
 20
8.3986583070106349
 30
0.0
 40
3.149999999999999
  1
J
  7
ISO
 72
     1
 11
9.1450448179475927
 21
8.3986583070106349
 31
0.0
  3
Decimalkomma J/N
  2
G:MDEC
 70
     1
  0
ATTDEF
  5
2E0
  8
11
 10
8.9079317993855796
 20
4.6634591054952628
 30
0.0
 40
3.149999999999999
  1
1
  7
ISO
 72
     1
 11
9.2829317993855796
 21
4.6634591054952628
 31
0.0
  3
Alternativ skalfaktor
  2
G:MSCA
 70
     1
  0
ATTDEF
  5
2E1
  8
11
 10
0.7010354372155235
 20
1.087866306593156
 30
0.0
 40
3.149999999999999
  1
N
  7
ISO
  3
Toleranssymbol J/N
  2
G:MTOL
 70
     1
  0
ENDBLK
  5
2E2
  8
0
  0
BLOCK
  8
0
  2
SOSLGR
 70
     2
 10
0.0
 20
0.0
 30
0.0
  3
SOSLGR
  1

  0
ATTDEF
  5
2E4
  8
11
 10
-1.0499999999999989
 20
-1.3375796178343931
 30
0.0
 40
3.149999999999999
  1
N
  7
ISO
 72
     1
 11
0.0
 21
-1.3375796178343931
 31
0.0
  3
Lagergrupper eller ej J/N
  2
G:LGR
 70
     1
  0
ATTDEF
  5
2E5
  8
11
 10
-2.3249999999999988
 20
-8.4713375796178525
 30
0.0
 40
3.149999999999999
  1
-1
  7
ISO
 72
     1
 11
0.0
 21
-8.4713375796178525
 31
0.0
  3
Aktiv lagergrupp
  2
G:LG_A
 70
     1
  0
ENDBLK
  5
2E6
  8
0
  0
BLOCK
  8
0
  2
SOKONFIG
 70
     2
 10
0.0
 20
0.0
 30
0.0
  3
SOKONFIG
  1

  0
ATTDEF
  5
2E8
  8
11
 10
-0.75
 20
-1.575
 30
0.0
 40
3.149999999999999
  1
J
  7
ISO
 72
     4
 11
0.0
 21
0.0
 31
0.0
  3
Utskärningshörn J/N
  2
G:UTSH
 70
     1
  0
ATTDEF
  5
2E9
  8
11
 10
-0.75
 20
-6.5750000000000002
 30
0.0
 40
3.149999999999999
  1
J
  7
ISO
 72
     4
 11
0.0
 21
-5.0
 31
0.0
  3
Orienteringsmärken J/N
  2
G:CENM
 70
     1
  0
ATTDEF
  5
2EA
  8
11
 10
-1.7145735388511301
 20
-11.65704987165385
 30
0.0
 40
3.149999999999999
  1
5
  7
ISO
 72
     4
 11
-0.6645735388511298
 21
-10.082049871653849
 31
0.0
  3
Delning SNITT
  2
G:DHA
 70
     1
  0
ATTDEF
  5
2EB
  8
11
 10
-3.2145735388511292
 20
-16.65704987165385
 30
0.0
 40
3.149999999999999
  1
45
  7
ISO
 72
     4
 11
-0.6645735388511298
 21
-15.082049871653849
 31
0.0
  3
Vinkel SNITT
  2
G:DVI
 70
     1
  0
ATTDEF
  5
2EC
  8
11
 10
-4.9395735388511302
 20
-21.65704987165385
 30
0.0
 40
3.149999999999999
  1
POS
  7
ISO
 72
     4
 11
-0.6645735388511298
 21
-20.082049871653851
 31
0.0
  3
Positionsblock
  2
G:POBA
 70
     1
  0
ATTDEF
  5
2ED
  8
11
 10
-1.714573538851129
 20
-26.65704987165385
 30
0.0
 40
3.149999999999999
  1
7
  7
ISO
 72
     4
 11
-0.6645735388511298
 21
-25.082049871653851
 31
0.0
  3
Positionradie
  2
G:PORA
 70
     1
  0
ATTDEF
  5
2EE
  8
11
 10
-1.7895735388511289
 20
-31.65704987165385
 30
0.0
 40
3.149999999999999
  1
C
  7
ISO
 72
     4
 11
-0.6645735388511298
 21
-30.082049871653851
 31
0.0
  3
Positionsform (C/K)
  2
G:POFO
 70
     1
  0
ATTDEF
  5
2EF
  8
11
 10
-2.2395735388511291
 20
-36.657049871653847
 30
0.0
 40
3.149999999999999
  1
PI
  7
ISO
 72
     4
 11
-0.6645735388511298
 21
-35.082049871653851
 31
0.0
  3
POS-anslut. (PI/PU/ST)
  2
G:POAN
 70
     1
  0
ATTDEF
  5
2F0
  8
11
 10
-1.05
 20
-41.355885588558863
 30
0.0
 40
3.149999999999999
  1
5
  7
ISO
 72
     1
 11
0.0
 21
-41.355885588558863
 31
0.0
  3
Stycklistans radavstånd
  2
G:RAAV
 70
     1
  0
ATTDEF
  5
2F1
  8
11
 10
-1.0499999999999989
 20
-46.575000000000003
 30
0.0
 40
3.149999999999999
  1
7
  7
ISO
 72
     4
 11
0.0
 21
-45.0
 31
0.0
  3
Stycklisthuvudets höjd
  2
G:HUAV
 70
     1
  0
ATTDEF
  5
2F2
  8
11
 10
-1.0499999999999989
 20
-51.114155153025791
 30
0.0
 40
3.149999999999999
  1
N
  7
ISO
 72
     1
 11
0.0
 21
-51.114155153025791
 31
0.0
  3
Summera stycklista J/N
  2
G:S_SU
 70
     1
  0
ATTDEF
  5
2F3
  8
11
 10
-2.399999999999999
 20
-56.274999999999999
 30
0.0
 40
3.149999999999999
  1
,2,
  7
ISO
 72
     4
 11
0.0
 21
-55.0
 31
0.0
  3
Kolumner att summera
  2
G:SU_L
 70
     1
  0
ATTDEF
  5
2F4
  8
11
 10
-9.4500000000000011
 20
-61.114155153025791
 30
0.0
 40
3.149999999999999
  1
REVRING
  7
ISO
 72
     1
 11
0.0
 21
-61.114155153025791
 31
0.0
  3
Revisionsblock
  2
G:REBA
 70
     1
  0
ATTDEF
  5
2F5
  8
11
 10
-3.2999999999999989
 20
-66.575000000000003
 30
0.0
 40
3.149999999999999
  1
3.5
  7
ISO
 72
     4
 11
0.0
 21
-65.0
 31
0.0
  3
Radie på revisionsringen
  2
G:RERA
 70
     1
  0
ATTDEF
  5
2F6
  8
11
 10
-1.875
 20
-71.575000000000003
 30
0.0
 40
3.149999999999999
  1
01
  7
ISO
 72
     4
 11
0.0
 21
-70.0
 31
0.0
  3
Grov heldragen linje
  2
LA1
 70
     1
  0
ATTDEF
  5
2F7
  8
11
 10
-2.5499999999999989
 20
-76.575000000000003
 30
0.0
 40
3.149999999999999
  1
02
  7
ISO
 72
     4
 11
0.0
 21
-75.0
 31
0.0
  3
Fin heldragen linje
  2
LA2
 70
     1
  0
ATTDEF
  5
2F8
  8
11
 10
-2.5499999999999989
 20
-81.575000000000003
 30
0.0
 40
3.149999999999999
  1
03
  7
ISO
 72
     4
 11
0.0
 21
-80.0
 31
0.0
  3
Grov streckad linje
  2
LA3
 70
     1
  0
ATTDEF
  5
2F9
  8
11
 10
-2.625
 20
-86.575000000000003
 30
0.0
 40
3.149999999999999
  1
04
  7
ISO
 72
     4
 11
0.0
 21
-85.0
 31
0.0
  3
Fin streckad linje
  2
LA4
 70
     1
  0
ATTDEF
  5
2FA
  8
11
 10
-2.5499999999999998
 20
-91.575000000000003
 30
0.0
 40
3.149999999999999
  1
05
  7
ISO
 72
     4
 11
0.0
 21
-90.0
 31
0.0
  3
Fin centrumlinje
  2
LA5
 70
     1
  0
ATTDEF
  5
2FB
  8
11
 10
-2.4750000000000001
 20
-96.575000000000003
 30
0.0
 40
3.149999999999999
  1
06
  7
ISO
 72
     4
 11
0.0
 21
-95.0
 31
0.0
  3
Grov centrumlinje
  2
LA6
 70
     1
  0
ATTDEF
  5
2FC
  8
11
 10
-2.5499999999999989
 20
-101.575
 30
0.0
 40
3.149999999999999
  1
07
  7
ISO
 72
     4
 11
0.0
 21
-100.0
 31
0.0
  3
Dubbelpunktstreckad
  2
LA7
 70
     1
  0
ATTDEF
  5
2FD
  8
11
 10
-2.5499999999999989
 20
-106.5749999999999
 30
0.0
 40
3.149999999999999
  1
08
  7
ISO
 72
     4
 11
0.0
 21
-105.0
 31
0.0
  3
Dim o toleranslinjer
  2
LA8
 70
     1
  0
ATTDEF
  5
2FE
  8
11
 10
-2.4750000000000001
 20
-111.575
 30
0.0
 40
3.149999999999999
  1
09
  7
ISO
 72
     4
 11
0.0
 21
-110.0
 31
0.0
  3
Positionslinjer
  2
LA9
 70
     1
  0
ATTDEF
  5
2FF
  8
11
 10
-2.25
 20
-116.575
 30
0.0
 40
3.149999999999999
  1
10
  7
ISO
 72
     4
 11
0.0
 21
-115.0
 31
0.0
  3
Snittmarkeringar
  2
LA10
 70
     1
  0
ATTDEF
  5
300
  8
11
 10
-1.5749999999999991
 20
-121.575
 30
0.0
 40
3.149999999999999
  1
11
  7
ISO
 72
     4
 11
0.0
 21
-120.0
 31
0.0
  3
Text
  2
LA11
 70
     1
  0
ATTDEF
  5
301
  8
11
 10
-2.2499999999999991
 20
-126.575
 30
0.0
 40
3.149999999999999
  1
12
  7
ISO
 72
     4
 11
0.0
 21
-125.0
 31
0.0
  3
Dimtext
  2
LA12
 70
     1
  0
ATTDEF
  5
302
  8
11
 10
-2.2499999999999991
 20
-131.5749999999999
 30
0.0
 40
3.149999999999999
  1
13
  7
ISO
 72
     4
 11
0.0
 21
-130.0
 31
0.0
  3
Vakant
  2
LA13
 70
     1
  0
ATTDEF
  5
303
  8
11
 10
-2.3249999999999988
 20
-136.57499999999999
 30
0.0
 40
3.149999999999999
  1
14
  7
ISO
 72
     4
 11
0.0
 21
-135.0
 31
0.0
  3
Konstruktionslinjer
  2
LA14
 70
     1
  0
ATTDEF
  5
304
  8
11
 10
-2.25
 20
-141.5749999999999
 30
0.0
 40
3.149999999999999
  1
15
  7
ISO
 72
     4
 11
0.0
 21
-140.0
 31
0.0
  3
Ritram
  2
LA15
 70
     1
  0
ATTDEF
  5
305
  8
11
 10
-2.1749999999999989
 20
-146.5749999999999
 30
0.0
 40
3.149999999999999
  1
16
  7
ISO
 72
     4
 11
0.0
 21
-145.0
 31
0.0
  3
Information
  2
LA16
 70
     1
  0
ENDBLK
  5
306
  8
0
  0
BLOCK
  8
0
  2
A3EL
 70
     2
 10
0.0
 20
0.0
 30
0.0
  3
A3EL
  1

  0
LINE
  5
308
  8
101
 10
0.0
 20
0.0
 30
0.0
 11
0.0
 21
276.0
 31
0.0
  0
TEXT
  5
309
  8
101
 62
     2
 10
84.196500024349476
 20
1.4743638690138141
 30
0.0
 40
1.6200000000000001
  1
Year    Week
 41
0.7
  7
ROMANS
  0
TEXT
  5
30A
  8
101
 62
     2
 10
77.079999999999885
 20
1.591666666666659
 30
0.0
 40
1.6000000000000001
  1
Appd
 41
0.7
  7
ROMANS
 72
     4
 11
78.999999999999886
 21
2.124999999999992
 31
0.0
  0
TEXT
  5
30B
  8
101
 62
     2
 10
0.9866666666666099
 20
1.324999999999992
 30
0.0
 40
1.6000000000000001
  1
Rev Ind
 41
0.7
 72
     4
 11
3.9999999999999432
 21
2.124999999999992
 31
0.0
  0
LINE
  5
30C
  8
101
 10
384.99999999999989
 20
0.0
 30
0.0
 11
0.0
 21
0.0
 31
0.0
  0
LINE
  5
30D
  8
101
 10
97.999999999999901
 20
4.2499999999999849
 30
0.0
 11
0.0
 21
4.2499999999999849
 31
0.0
  0
LINE
  5
30E
  8
101
 10
97.999999999999901
 20
8.4999999999999858
 30
0.0
 11
0.0
 21
8.4999999999999858
 31
0.0
  0
LINE
  5
30F
  8
101
 10
97.999999999999901
 20
12.74999999999998
 30
0.0
 11
0.0
 21
12.74999999999998
 31
0.0
  0
LINE
  5
310
  8
101
 10
97.999999999999901
 20
16.999999999999979
 30
0.0
 11
0.0
 21
16.999999999999979
 31
0.0
  0
LINE
  5
311
  8
101
 10
7.9999999999998863
 20
0.0
 30
0.0
 11
7.9999999999998863
 21
21.250000000000028
 31
0.0
  0
LINE
  5
312
  8
101
 10
74.999999999999886
 20
0.0
 30
0.0
 11
74.999999999999886
 21
21.250000000000011
 31
0.0
  0
LINE
  5
313
  8
101
 10
82.999999999999886
 20
0.0
 30
0.0
 11
82.999999999999886
 21
21.250000000000011
 31
0.0
  0
LINE
  5
314
  8
101
 10
97.999999999999901
 20
0.0
 30
0.0
 11
97.999999999999901
 21
21.250000000000011
 31
0.0
  0
LINE
  5
315
  8
101
 10
384.99999999999977
 20
21.249999999999979
 30
0.0
 11
0.0
 21
21.249999999999979
 31
0.0
  0
LINE
  5
316
  8
101
 10
178.9999999999998
 20
0.0
 30
0.0
 11
178.9999999999998
 21
21.250000000000011
 31
0.0
  0
LINE
  5
317
  8
101
 10
214.9999999999998
 20
14.24999999999998
 30
0.0
 11
178.9999999999998
 21
14.24999999999998
 31
0.0
  0
LINE
  5
318
  8
101
 10
295.99999999999989
 20
7.2499999999999849
 30
0.0
 11
178.9999999999998
 21
7.2499999999999849
 31
0.0
  0
LINE
  5
319
  8
101
 10
0.0
 20
276.0
 30
0.0
 11
385.0
 21
276.0
 31
0.0
  0
LINE
  5
31A
  8
101
 10
385.0
 20
276.0
 30
0.0
 11
384.99999999999989
 21
0.0
 31
0.0
  0
LINE
  5
31B
  8
101
 10
214.99999999999989
 20
0.0
 30
0.0
 11
214.99999999999989
 21
21.25
 31
0.0
  0
LINE
  5
31C
  8
101
 10
267.99999999999977
 20
0.0
 30
0.0
 11
267.99999999999977
 21
7.2499999999999849
 31
0.0
  0
LINE
  5
31D
  8
101
 10
295.99999999999989
 20
0.0
 30
0.0
 11
295.99999999999989
 21
21.25
 31
0.0
  0
LINE
  5
31E
  8
101
 10
384.99999999999977
 20
14.24999999999998
 30
0.0
 11
295.99999999999989
 21
14.24999999999998
 31
0.0
  0
LINE
  5
31F
  8
101
 10
361.99999999999977
 20
0.0
 30
0.0
 11
361.99999999999977
 21
21.249999999999979
 31
0.0
  0
LINE
  5
320
  8
101
 10
369.99999999999977
 20
0.0
 30
0.0
 11
369.99999999999977
 21
21.249999999999979
 31
0.0
  0
LINE
  5
321
  8
101
 10
384.99999999999977
 20
7.2499999999999849
 30
0.0
 11
361.99999999999989
 21
7.2499999999999849
 31
0.0
  0
ATTDEF
  5
322
  8
110
 62
     3
 10
328.99999999999989
 20
8.25
 30
0.0
 40
5.0
  1

 41
0.7
  7
ROMANS
 72
     4
 11
328.99999999999989
 21
8.25
 31
0.0
  3
Document No.
  2
DOCNO
 70
     0
  0
ATTDEF
  5
323
  8
110
 10
216.4999999999998
 20
17.25
 30
0.0
 40
2.5
  1
KRETSSCHEMA
 41
0.8
  7
ROMANS
  3
Dokumenttyp
  2
DOCTYPE
 70
     0
  0
ATTDEF
  5
324
  8
110
 10
377.52280566376902
 20
24.218724570201431
 30
0.0
 40
2.5
  1

 41
0.8
  7
ROMANS
 72
     2
 11
377.52280566376902
 21
24.218724570201431
 31
0.0
  3
Filnamn
  2
FILENAME
 70
     0
  0
ATTDEF
  5
325
  8
110
 10
216.4999999999998
 20
13.0
 30
0.0
 40
2.5
  1

 41
0.8
  7
ROMANS
  3
Title (engelska)
  2
TITLE1
 70
     0
  0
ATTDEF
  5
326
  8
110
 10
216.4999999999998
 20
8.7499999999999858
 30
0.0
 40
2.5
  1

 41
0.8
  7
ROMANS
  3
Title (svenska)
  2
TITLE2
 70
     0
  0
ATTDEF
  5
327
  8
110
 10
269.09934116482867
 20
2.4499999999999602
 30
0.0
 40
2.0
  1
SECRL/KA
 41
0.8
  7
ROMANS
  3
Iss by Dept
  2
RESPDEPT
 70
     0
  0
ATTDEF
  5
328
  8
110
 10
285.49999999999989
 20
2.4500000000000171
 30
0.0
 40
2.0
  1

 41
0.8
  7
ROMANS
 72
     1
 11
285.49999999999989
 21
2.4500000000000171
 31
0.0
  3
Year
  2
ISSYEAR
 70
     0
  0
ATTDEF
  5
329
  8
110
 10
291.49999999999989
 20
2.4500000000000171
 30
0.0
 40
2.0
  1

 41
0.8
  7
ROMANS
 72
     1
 11
291.49999999999989
 21
2.4500000000000171
 31
0.0
  3
Week
  2
ISSWEEK
 70
     0
  0
ATTDEF
  5
32A
  8
110
 10
297.49999999999989
 20
1.5
 30
0.0
 40
2.0
  1
PREL
 41
0.8
  7
ROMANS
  3
Status
  2
STATUS
 70
     0
  0
ATTDEF
  5
32B
  8
110
 10
180.4999999999998
 20
15.74999999999998
 30
0.0
 40
2.5
  1

 41
0.8
  7
ROMANS
  3
Design checked by
  2
APPROVED
 70
     0
  0
ATTDEF
  5
32C
  8
110
 10
180.4999999999998
 20
8.7499999999999858
 30
0.0
 40
2.5
  1

 41
0.8
  7
ROMANS
  3
Drawing checked by
  2
PREPARED
 70
     0
  0
ATTDEF
  5
32D
  8
110
 10
180.4999999999998
 20
1.7034907830826009
 30
0.0
 40
2.5
  1

 41
0.8
  7
ROMANS
  3
Drawn by
  2
DRAWNBY
 70
     0
  0
ATTDEF
  5
32E
  8
110
 10
2.6330824642484698
 20
270.33845961209829
 30
0.0
 40
2.5
  1

 41
0.8
  7
ROMANS
  3
Typ
  2
TYPE
 70
     0
  0
ATTDEF
  5
32F
  8
110
 10
363.93733210269761
 20
9.3094336396732391
 30
0.0
 40
2.5
  1
82
 41
0.8
  7
ROMANS
 72
     4
 11
365.84209400745948
 21
10.559433639673239
 31
0.0
  3
Language (82=E,S)
  2
LANG
 70
     0
  0
ATTDEF
  5
330
  8
110
 10
365.92966295032983
 20
3.0061531099255672
 30
0.0
 40
2.5
  1

 41
0.8
  7
ROMANS
 72
     4
 11
365.92966295032983
 21
3.0061531099255672
 31
0.0
  3
Rev Ind
  2
REVISION
 70
     0
  0
ATTDEF
  5
331
  8
110
 10
376.69047619047598
 20
9.2499999999999858
 30
0.0
 40
2.5
  1
1
 41
0.8
  7
ROMANS
 72
     1
 11
377.49999999999989
 21
9.2499999999999858
 31
0.0
  3
Sheet
  2
SHEET
 70
     0
  0
ATTDEF
  5
332
  8
110
 10
376.26190476190459
 20
1.7247605996102331
 30
0.0
 40
2.5
  1
-
 41
0.8
  7
ROMANS
 72
     1
 11
377.49999999999989
 21
1.7247605996102331
 31
0.0
  3
Cont
  2
CONT
 70
     0
  0
ENDBLK
  5
333
  8
0
  0
BLOCK
  8
0
  2
S89
 70
     0
 10
0.0
 20
0.0
 30
0.0
  3
S89
  1

  0
LINE
  5
335
  8
111
 10
0.0
 20
0.0
 30
0.0
 11
5.0
 21
0.0
 31
0.0
  0
LINE
  5
336
  8
111
 10
5.0
 20
0.0
 30
0.0
 11
5.0
 21
1.25
 31
0.0
  0
LINE
  5
337
  8
111
 10
5.0
 20
0.0
 30
0.0
 11
5.0
 21
-1.25
 31
0.0
  0
LINE
  5
338
  8
111
 10
5.0
 20
1.25
 30
0.0
 11
15.0
 21
1.25
 31
0.0
  0
LINE
  5
339
  8
111
 10
15.0
 20
1.25
 30
0.0
 11
15.0
 21
-1.25
 31
0.0
  0
LINE
  5
33A
  8
111
 10
5.0
 20
-1.25
 30
0.0
 11
15.0
 21
-1.25
 31
0.0
  0
LINE
  5
33B
  8
111
 10
15.0
 20
0.0
 30
0.0
 11
20.0
 21
0.0
 31
0.0
  0
ENDBLK
  5
33C
  8
0
  0
BLOCK
  8
0
  2
S51
 70
     2
 10
0.0
 20
0.0
 30
0.0
  3
S51
  1

  0
ATTDEF
  5
33E
  8
109
 10
7.5
 20
4.0
 30
0.0
 40
2.2000000000000002
  1

 72
     1
 11
7.5
 21
4.0
 31
0.0
  3
Post, center
  2
POS
 70
     0
  0
ATTDEF
  5
33F
  8
109
 10
6.5
 20
4.0
 30
0.0
 40
2.2000000000000002
  1

 72
     2
 11
6.5
 21
4.0
 31
0.0
  3
Post, sida
  2
POS
 70
     0
  0
ATTDEF
  5
340
  8
108
 10
10.0
 20
-3.0
 30
0.0
 40
2.2000000000000002
  1
A2
  3
Uttag
  2
ANSL
 70
     0
  0
ATTDEF
  5
341
  8
108
 10
2.1714285714285708
 20
-3.0
 30
0.0
 40
2.2000000000000002
  1
A1
 72
     2
 11
5.0
 21
-3.0
 31
0.0
  3
Uttag
  2
ANSL
 70
     0
  0
POINT
  5
342
  8
NOD
 10
7.5
 20
-3.0
 30
0.0
  0
POINT
  5
343
  8
NOD
 10
7.5
 20
3.0
 30
0.0
  0
LINE
  5
344
  8
111
 10
6.0
 20
0.0
 30
0.0
 11
0.0
 21
0.0
 31
0.0
  0
LINE
  5
345
  8
111
 10
15.0
 20
0.0
 30
0.0
 11
9.0
 21
0.0
 31
0.0
  0
LINE
  5
346
  8
111
 10
6.0
 20
-3.0
 30
0.0
 11
9.0
 21
-3.0
 31
0.0
  0
LINE
  5
347
  8
111
 10
6.0
 20
3.0
 30
0.0
 11
6.0
 21
-3.0
 31
0.0
  0
LINE
  5
348
  8
111
 10
9.0
 20
3.0
 30
0.0
 11
6.0
 21
3.0
 31
0.0
  0
LINE
  5
349
  8
111
 10
9.0
 20
-3.0
 30
0.0
 11
9.0
 21
3.0
 31
0.0
  0
ENDBLK
  5
34A
  8
0
  0
BLOCK
  8
0
  2
S30
 70
     2
 10
0.0
 20
0.0
 30
0.0
  3
S30
  1

  0
CIRCLE
  5
34C
  8
111
 10
10.0
 20
0.0
 30
0.0
 40
0.75
  0
LINE
  5
34D
  8
111
 10
15.0
 20
0.0
 30
0.0
 11
10.749999999999989
 21
0.0
 31
0.0
  0
LINE
  5
34E
  8
111
 10
5.0
 20
0.0
 30
0.0
 11
0.0
 21
0.0
 31
0.0
  0
LINE
  5
34F
  8
111
 10
5.0
 20
0.0
 30
0.0
 11
5.0
 21
3.0
 31
0.0
  0
LINE
  5
350
  8
111
 10
9.3036424818349985
 20
0.2785430072659949
 30
0.0
 11
3.7327275205495312
 21
2.5067500205674089
 31
0.0
  0
LINE
  5
351
  8
111
 10
3.7327275205495312
 20
2.5067500205674089
 30
0.0
 11
3.3613596849992851
 21
1.578264193686493
 31
0.0
  0
POINT
  5
352
  8
111
 10
7.5
 20
0.9999485313929881
 30
0.0
  0
ATTDEF
  5
353
  8
108
 10
11.0
 20
-3.3499999999999939
 30
0.0
 40
2.2000000000000002
  1
12
  3
Uttag
  2
ANSL
 70
     0
  0
ATTDEF
  5
354
  8
108
 10
1.8
 20
-3.3499999999999939
 30
0.0
 40
2.2000000000000002
  1
11
 72
     2
 11
4.0
 21
-3.3499999999999939
 31
0.0
  3
Uttag
  2
ANSL
 70
     0
  0
ATTDEF
  5
355
  8
109
 10
7.5
 20
4.0
 30
0.0
 40
2.2000000000000002
  1

 72
     1
 11
7.5
 21
4.0
 31
0.0
  3
Post
  2
POS
 70
     0
  0
ENDBLK
  5
356
  8
0
  0
BLOCK
  8
0
  2
S28
 70
     2
 10
0.0
 20
0.0
 30
0.0
  3
S28
  1

  0
LINE
  5
358
  8
111
 10
9.3036424818349985
 20
-0.2785430072659949
 30
0.0
 11
4.9999999999999138
 21
-1.999999999999857
 31
0.0
  0
LINE
  5
359
  8
111
 10
4.9999999999999138
 20
-1.999999999999857
 30
0.0
 11
4.6266499168116999
 21
-1.072309472192756
 31
0.0
  0
CIRCLE
  5
35A
  8
111
 10
10.0
 20
0.0
 30
0.0
 40
0.75
  0
LINE
  5
35B
  8
111
 10
15.0
 20
0.0
 30
0.0
 11
10.749999999999989
 21
0.0
 31
0.0
  0
LINE
  5
35C
  8
111
 10
5.0
 20
0.0
 30
0.0
 11
0.0
 21
0.0
 31
0.0
  0
POINT
  5
35D
  8
111
 10
7.4999999999999849
 20
-0.9999999999999431
 30
0.0
  0
ATTDEF
  5
35E
  8
108
 10
11.0
 20
-3.3499999999999939
 30
0.0
 40
2.2000000000000002
  1
14
  3
Uttag
  2
ANSL
 70
     0
  0
ATTDEF
  5
35F
  8
108
 10
0.8571428571428567
 20
-3.3499999999999939
 30
0.0
 40
2.2000000000000002
  1
13
 72
     2
 11
4.0
 21
-3.3499999999999939
 31
0.0
  3
Uttag
  2
ANSL
 70
     0
  0
ATTDEF
  5
360
  8
109
 10
7.5
 20
1.150000000000005
 30
0.0
 40
2.2000000000000002
  1

 72
     1
 11
7.5
 21
1.150000000000005
 31
0.0
  3
Post
  2
POS
 70
     0
  0
ENDBLK
  5
361
  8
0
  0
BLOCK
  8
0
  2
S25
 70
     2
 10
0.0
 20
0.0
 30
0.0
  3
S25
  1

  0
LINE
  5
363
  8
111
 10
9.3036424818349985
 20
-0.2785430072659949
 30
0.0
 11
4.9999999999999138
 21
-1.999999999999857
 31
0.0
  0
CIRCLE
  5
364
  8
111
 10
10.0
 20
0.0
 30
0.0
 40
0.75
  0
LINE
  5
365
  8
111
 10
15.0
 20
0.0
 30
0.0
 11
10.749999999999989
 21
0.0
 31
0.0
  0
LINE
  5
366
  8
111
 10
5.0
 20
0.0
 30
0.0
 11
0.0
 21
0.0
 31
0.0
  0
POINT
  5
367
  8
111
 10
7.4999999999999849
 20
-0.9999999999999147
 30
0.0
  0
ATTDEF
  5
368
  8
108
 10
11.0
 20
-3.3499999999999939
 30
0.0
 40
2.2000000000000002
  1
14
  3
Uttag
  2
ANSL
 70
     0
  0
ATTDEF
  5
369
  8
108
 10
0.8571428571428567
 20
-3.3499999999999939
 30
0.0
 40
2.2000000000000002
  1
13
 72
     2
 11
4.0
 21
-3.3499999999999939
 31
0.0
  3
Uttag
  2
ANSL
 70
     0
  0
ATTDEF
  5
36A
  8
109
 10
7.5
 20
1.150000000000005
 30
0.0
 40
2.2000000000000002
  1

 72
     1
 11
7.5
 21
1.150000000000005
 31
0.0
  3
Post
  2
POS
 70
     0
  0
ENDBLK
  5
36B
  8
0
  0
BLOCK
  8
0
  2
S26
 70
     2
 10
0.0
 20
0.0
 30
0.0
  3
S26
  1

  0
LINE
  5
36D
  8
111
 10
0.0
 20
0.0
 30
0.0
 11
5.0
 21
0.0
 31
0.0
  0
LINE
  5
36E
  8
111
 10
5.0
 20
0.0
 30
0.0
 11
5.0
 21
2.0
 31
0.0
  0
LINE
  5
36F
  8
111
 10
4.0
 20
1.5
 30
0.0
 11
9.2723931248882536
 21
0.181901718777965
 31
0.0
  0
LINE
  5
370
  8
111
 10
10.749999999999989
 20
0.0
 30
0.0
 11
15.0
 21
0.0
 31
0.0
  0
CIRCLE
  5
371
  8
111
 10
10.0
 20
0.0
 30
0.0
 40
0.75
  0
POINT
  5
372
  8
111
 10
7.5
 20
0.625000000000057
 30
0.0
  0
ATTDEF
  5
373
  8
108
 10
11.0
 20
-3.3499999999999939
 30
0.0
 40
2.2000000000000002
  1
12
  3
Uttag
  2
ANSL
 70
     0
  0
ATTDEF
  5
374
  8
108
 10
1.7999999999999861
 20
-3.3499999999999939
 30
0.0
 40
2.2000000000000002
  1
11
 72
     2
 11
3.9999999999999849
 21
-3.3499999999999939
 31
0.0
  3
Uttag
  2
ANSL
 70
     0
  0
ATTDEF
  5
375
  8
109
 10
7.5
 20
3.0
 30
0.0
 40
2.2000000000000002
  1

 72
     1
 11
7.5
 21
3.0
 31
0.0
  3
Post
  2
POS
 70
     0
  0
ENDBLK
  5
376
  8
0
  0
BLOCK
  8
0
  2
*X27
 70
     1
 10
0.0
 20
0.0
 30
0.0
  3
*X27
  1

  0
LINE
  5
378
  8
0
 62
     0
 10
47.988243646963291
 20
225.12379563505229
 30
0.0
 11
47.988243646963291
 21
225.12379563505229
 31
0.0
  0
LINE
  5
379
  8
0
 62
     0
 10
48.325003251503389
 20
225.4605552395924
 30
0.0
 11
48.325003251503389
 21
225.4605552395924
 31
0.0
  0
LINE
  5
37A
  8
0
 62
     0
 10
48.661762856043481
 20
225.7973148441325
 30
0.0
 11
48.661762856043481
 21
225.7973148441325
 31
0.0
  0
LINE
  5
37B
  8
0
 62
     0
 10
48.998522460583573
 20
226.13407444867261
 30
0.0
 11
48.998522460583573
 21
226.13407444867261
 31
0.0
  0
LINE
  5
37C
  8
0
 62
     0
 10
49.335282065123671
 20
226.47083405321271
 30
0.0
 11
49.335282065123671
 21
226.47083405321271
 31
0.0
  0
LINE
  5
37D
  8
0
 62
     0
 10
49.672041669663749
 20
226.80759365775279
 30
0.0
 11
49.672041669663749
 21
226.80759365775279
 31
0.0
  0
LINE
  5
37E
  8
0
 62
     0
 10
50.00880127420384
 20
227.1443532622929
 30
0.0
 11
50.00880127420384
 21
227.1443532622929
 31
0.0
  0
LINE
  5
37F
  8
0
 62
     0
 10
47.819863844693252
 20
225.62893504186241
 30
0.0
 11
47.819863844693252
 21
225.62893504186241
 31
0.0
  0
LINE
  5
380
  8
0
 62
     0
 10
48.156623449233336
 20
225.96569464640251
 30
0.0
 11
48.156623449233336
 21
225.96569464640251
 31
0.0
  0
LINE
  5
381
  8
0
 62
     0
 10
48.493383053773442
 20
226.30245425094259
 30
0.0
 11
48.493383053773442
 21
226.30245425094259
 31
0.0
  0
LINE
  5
382
  8
0
 62
     0
 10
48.83014265831352
 20
226.63921385548269
 30
0.0
 11
48.83014265831352
 21
226.63921385548269
 31
0.0
  0
LINE
  5
383
  8
0
 62
     0
 10
49.166902262853618
 20
226.9759734600228
 30
0.0
 11
49.166902262853618
 21
226.9759734600228
 31
0.0
  0
LINE
  5
384
  8
0
 62
     0
 10
49.50366186739371
 20
227.31273306456291
 30
0.0
 11
49.50366186739371
 21
227.31273306456291
 31
0.0
  0
LINE
  5
385
  8
0
 62
     0
 10
47.988243646963291
 20
226.47083405321271
 30
0.0
 11
47.988243646963291
 21
226.47083405321271
 31
0.0
  0
LINE
  5
386
  8
0
 62
     0
 10
48.325003251503389
 20
226.80759365775279
 30
0.0
 11
48.325003251503389
 21
226.80759365775279
 31
0.0
  0
LINE
  5
387
  8
0
 62
     0
 10
48.661762856043481
 20
227.1443532622929
 30
0.0
 11
48.661762856043481
 21
227.1443532622929
 31
0.0
  0
LINE
  5
388
  8
0
 62
     0
 10
48.998522460583573
 20
227.481112866833
 30
0.0
 11
48.998522460583573
 21
227.481112866833
 31
0.0
  0
LINE
  5
389
  8
0
 62
     0
 10
49.335282065123671
 20
227.81787247137311
 30
0.0
 11
49.335282065123671
 21
227.81787247137311
 31
0.0
  0
LINE
  5
38A
  8
0
 62
     0
 10
47.819863844693231
 20
226.9759734600228
 30
0.0
 11
47.819863844693231
 21
226.9759734600228
 31
0.0
  0
LINE
  5
38B
  8
0
 62
     0
 10
48.156623449233329
 20
227.31273306456291
 30
0.0
 11
48.156623449233329
 21
227.31273306456291
 31
0.0
  0
LINE
  5
38C
  8
0
 62
     0
 10
48.493383053773421
 20
227.64949266910301
 30
0.0
 11
48.493383053773421
 21
227.64949266910301
 31
0.0
  0
LINE
  5
38D
  8
0
 62
     0
 10
48.830142658313513
 20
227.98625227364309
 30
0.0
 11
48.830142658313513
 21
227.98625227364309
 31
0.0
  0
LINE
  5
38E
  8
0
 62
     0
 10
47.988243646963276
 20
227.81787247137299
 30
0.0
 11
47.988243646963276
 21
227.81787247137299
 31
0.0
  0
LINE
  5
38F
  8
0
 62
     0
 10
48.325003251503382
 20
228.1546320759131
 30
0.0
 11
48.325003251503382
 21
228.1546320759131
 31
0.0
  0
LINE
  5
390
  8
0
 62
     0
 10
47.819863844693259
 20
228.32301187818319
 30
0.0
 11
47.819863844693259
 21
228.32301187818319
 31
0.0
  0
LINE
  5
391
  8
0
 62
     0
 10
48.156623449233351
 20
228.6597714827233
 30
0.0
 11
48.156623449233351
 21
228.6597714827233
 31
0.0
  0
LINE
  5
392
  8
0
 62
     0
 10
47.819863844693238
 20
224.28189662370201
 30
0.0
 11
47.819863844693238
 21
224.28189662370201
 31
0.0
  0
LINE
  5
393
  8
0
 62
     0
 10
48.156623449233336
 20
224.61865622824209
 30
0.0
 11
48.156623449233336
 21
224.61865622824209
 31
0.0
  0
LINE
  5
394
  8
0
 62
     0
 10
48.493383053773428
 20
224.95541583278219
 30
0.0
 11
48.493383053773428
 21
224.95541583278219
 31
0.0
  0
LINE
  5
395
  8
0
 62
     0
 10
48.83014265831352
 20
225.29217543732241
 30
0.0
 11
48.83014265831352
 21
225.29217543732241
 31
0.0
  0
LINE
  5
396
  8
0
 62
     0
 10
49.166902262853611
 20
225.62893504186241
 30
0.0
 11
49.166902262853611
 21
225.62893504186241
 31
0.0
  0
LINE
  5
397
  8
0
 62
     0
 10
49.503661867393703
 20
225.96569464640251
 30
0.0
 11
49.503661867393703
 21
225.96569464640251
 31
0.0
  0
LINE
  5
398
  8
0
 62
     0
 10
49.840421471933787
 20
226.30245425094259
 30
0.0
 11
49.840421471933787
 21
226.30245425094259
 31
0.0
  0
LINE
  5
399
  8
0
 62
     0
 10
50.177181076473893
 20
226.63921385548281
 30
0.0
 11
50.177181076473893
 21
226.63921385548281
 31
0.0
  0
ENDBLK
  5
39A
  8
0
  0
BLOCK
  8
0
  2
DOTLINE
 70
     0
 10
0.0
 20
0.0
 30
0.0
  3
DOTLINE
  1
DOTLINE
  0
LINE
  5
39C
  8
11
 10
10.4999985554013
 20
-0.0000166362024459
 30
0.0
 11
11.2499985554013
 21
-0.0000166362024459
 31
0.0
  0
LINE
  5
39D
  8
11
 10
-0.0000014445986949
 20
-0.0000166362024459
 30
0.0
 11
0.7499985554013052
 21
-0.0000166362024459
 31
0.0
  0
LINE
  5
39E
  8
11
 10
1.4999985554013049
 20
-0.0000166362024459
 30
0.0
 11
2.2499985554013051
 21
-0.0000166362024459
 31
0.0
  0
LINE
  5
39F
  8
11
 10
4.4999985554013051
 20
-0.0000166362024459
 30
0.0
 11
5.2499985554013051
 21
-0.0000166362024459
 31
0.0
  0
LINE
  5
3A0
  8
11
 10
2.9999985554013051
 20
-0.0000166362024459
 30
0.0
 11
3.7499985554013051
 21
-0.0000166362024459
 31
0.0
  0
LINE
  5
3A1
  8
11
 10
5.9999985554013051
 20
-0.0000166362024459
 30
0.0
 11
6.7499985554013051
 21
-0.0000166362024459
 31
0.0
  0
LINE
  5
3A2
  8
11
 10
7.4999985554013051
 20
-0.0000166362024459
 30
0.0
 11
8.2499985554013051
 21
-0.0000166362024459
 31
0.0
  0
LINE
  5
3A3
  8
11
 10
8.9999985554013051
 20
-0.0000166362024459
 30
0.0
 11
9.7499985554013051
 21
-0.0000166362024459
 31
0.0
  0
LINE
  5
3A4
  8
11
 10
17.999998555401302
 20
-0.0000166362024459
 30
0.0
 11
18.749998555401302
 21
-0.0000166362024459
 31
0.0
  0
LINE
  5
3A5
  8
11
 10
11.9999985554013
 20
-0.0000166362024459
 30
0.0
 11
12.7499985554013
 21
-0.0000166362024459
 31
0.0
  0
LINE
  5
3A6
  8
11
 10
13.4999985554013
 20
-0.0000166362024459
 30
0.0
 11
14.2499985554013
 21
-0.0000166362024459
 31
0.0
  0
LINE
  5
3A7
  8
11
 10
16.499998555401302
 20
-0.0000166362024459
 30
0.0
 11
17.249998555401302
 21
-0.0000166362024459
 31
0.0
  0
LINE
  5
3A8
  8
11
 10
14.9999985554013
 20
-0.0000166362024459
 30
0.0
 11
15.7499985554013
 21
-0.0000166362024459
 31
0.0
  0
LINE
  5
3A9
  8
11
 10
19.499998555401302
 20
-0.0000166362024459
 30
0.0
 11
20.249998555401302
 21
-0.0000166362024459
 31
0.0
  0
LINE
  5
3AA
  8
11
 10
20.999998555401302
 20
-0.0000166362024459
 30
0.0
 11
21.749998555401302
 21
-0.0000166362024459
 31
0.0
  0
LINE
  5
3AB
  8
11
 10
23.999998555401302
 20
-0.0000166362024459
 30
0.0
 11
24.749998555401302
 21
-0.0000166362024459
 31
0.0
  0
LINE
  5
3AC
  8
11
 10
22.499998555401302
 20
-0.0000166362024459
 30
0.0
 11
23.249998555401302
 21
-0.0000166362024459
 31
0.0
  0
LINE
  5
3AD
  8
11
 10
25.499998555401302
 20
-0.0000166362024459
 30
0.0
 11
26.249998555401302
 21
-0.0000166362024459
 31
0.0
  0
LINE
  5
3AE
  8
11
 10
29.999998555401302
 20
-0.0000166362024459
 30
0.0
 11
30.749998555401302
 21
-0.0000166362024459
 31
0.0
  0
LINE
  5
3AF
  8
11
 10
26.999998555401302
 20
-0.0000166362024459
 30
0.0
 11
27.749998555401302
 21
-0.0000166362024459
 31
0.0
  0
LINE
  5
3B0
  8
11
 10
28.499998555401302
 20
-0.0000166362024459
 30
0.0
 11
29.249998555401302
 21
-0.0000166362024459
 31
0.0
  0
LINE
  5
3B1
  8
11
 10
31.499998555401302
 20
-0.0000166362024459
 30
0.0
 11
32.249998555401298
 21
-0.0000166362024459
 31
0.0
  0
LINE
  5
3B2
  8
11
 10
32.999998555401298
 20
-0.0000166362024459
 30
0.0
 11
33.749998555401298
 21
-0.0000166362024459
 31
0.0
  0
LINE
  5
3B3
  8
11
 10
35.999998555401298
 20
-0.0000166362024459
 30
0.0
 11
36.749998555401298
 21
-0.0000166362024459
 31
0.0
  0
LINE
  5
3B4
  8
11
 10
34.499998555401298
 20
-0.0000166362024459
 30
0.0
 11
35.249998555401298
 21
-0.0000166362024459
 31
0.0
  0
ENDBLK
  5
3B5
  8
0
  0
ENDSEC
  0
SECTION
  2
ENTITIES
  0
LINE
  5
3B6
  8
15
 10
0.0
 20
0.0
 30
0.0
 11
0.0
 21
276.0
 31
0.0
  0
LINE
  5
3B7
  8
15
 10
0.0
 20
276.0
 30
0.0
 11
183.0
 21
276.0
 31
0.0
  0
LINE
  5
3B8
  8
15
 10
183.0
 20
276.0
 30
0.0
 11
183.0
 21
0.0
 31
0.0
  0
LINE
  5
3B9
  8
15
 10
183.0
 20
0.0
 30
0.0
 11
0.0
 21
0.0
 31
0.0
  0
INSERT
  5
3BA
  8
15
 66
     1
  2
A4S
 10
183.0
 20
0.0
 30
0.0
  0
ATTRIB
  5
3BB
  8
11
 62
     3
 10
110.7428571428571
 20
6.2500000000000258
 30
0.0
 40
4.5
  1
5354 0859-14
 41
0.9
  7
ISO
 72
     4
 11
133.49999999999989
 21
8.5000000000000284
 31
0.0
  2
DOCNO
 70
     0
  0
ATTRIB
  5
3BC
  8
11
 10
98.500000000000014
 20
27.000000000000021
 30
0.0
 40
3.149999999999999
  1
 CONTACTOR
 41
0.9
  7
ISO
  2
TITLE1
 70
     0
  0
ATTRIB
  5
3BD
  8
11
 10
98.500000000000014
 20
18.500000000000028
 30
0.0
 40
3.149999999999999
  1
 KONTAKTOR
 41
0.9
  7
ISO
  2
TITLE2
 70
     0
  0
ATTRIB
  5
3BE
  8
11
 10
53.00000000000022
 20
10.00000000000002
 30
0.0
 40
3.149999999999999
  1
7681
 41
0.9
  7
ISO
  2
FILENAME
 70
     0
  0
ATTRIB
  5
3BF
  8
11
 10
90.335280999195732
 20
10.120724129054009
 30
0.0
 40
3.149999999999999
  1
1:1
 41
0.9
  7
ISO
 72
     2
 11
95.195280999195745
 21
10.120724129054009
 31
0.0
  2
SCALE
 70
     0
  0
ATTRIB
  5
3C0
  8
11
 10
1.5000000000002269
 20
27.000000000000021
 30
0.0
 40
3.149999999999999
  1
G Engblom
 41
0.9
  7
ISO
  2
PREPARED
 70
     0
  0
ATTRIB
  5
3C1
  8
11
 10
33.00000000000022
 20
31.500000000000028
 30
0.0
 40
2.149999999999999
  1
P
 41
0.9
  7
ISO
  2
P
 70
     0
  0
ATTRIB
  5
3C2
  8
11
 10
43.00000000000022
 20
31.500000000000028
 30
0.0
 40
2.149999999999999
  1
Q
 41
0.9
  7
ISO
  2
Q
 70
     0
  0
ATTRIB
  5
3C3
  8
11
 10
1.5000000000002269
 20
18.500000000000028
 30
0.0
 40
3.149999999999999
  1
B L÷÷v
 41
0.9
  7
ISO
  2
APPROVED
 70
     0
  0
ATTRIB
  5
3C4
  8
11
 10
35.150000000000219
 20
18.500000000000028
 30
0.0
 40
3.149999999999999
  1
010507
 41
0.9
  7
ISO
 72
     2
 11
50.000000000000227
 21
18.500000000000028
 31
0.0
  2
ISSDATE
 70
     0
  0
ATTRIB
  5
3C5
  8
11
 10
1.5000000000002269
 20
10.00000000000002
 30
0.0
 40
3.149999999999999
  1
2
 41
0.9
  7
ISO
  2
REVISION
 70
     0
  0
ATTRIB
  5
3C6
  8
11
 10
53.00000000000022
 20
27.000000000000021
 30
0.0
 40
3.149999999999999
  1
ATCL/MM
 41
0.9
  7
ISO
  2
RESPDEPT
 70
     0
  0
ATTRIB
  5
3C7
  8
11
 10
53.00000000000022
 20
18.500000000000028
 30
0.0
 40
3.149999999999999
  1

 41
0.9
  7
ISO
  2
TAKEOVDEPT
 70
     0
  0
ATTRIB
  5
3C8
  8
11
 10
174.20500000000001
 20
18.675000000000029
 30
0.0
 40
3.149999999999999
  1
82
 41
0.9
  7
ISO
 72
     4
 11
176.5
 21
20.250000000000028
 31
0.0
  2
LANG
 70
     0
  0
ATTRIB
  5
3C9
  8
11
 10
176.16249999999991
 20
1.4933336661250849
 30
0.0
 40
3.149999999999999
  1
1
 41
0.9
  7
ISO
 72
     4
 11
176.5
 21
3.068333666125084
 31
0.0
  2
SHEET
 70
     0
  0
ATTRIB
  5
3CA
  8
11
 10
175.285
 20
10.40000000000002
 30
0.0
 40
3.149999999999999
  1
-
 41
0.9
  7
ISO
 72
     4
 11
176.5
 21
11.75000000000002
 31
0.0
  2
CONT
 70
     0
  0
ATTRIB
  5
3CB
  8
11
 10
99.0
 20
1.500000000000028
 30
0.0
 40
2.165624999999999
  1
ISSUED
 41
0.9
  7
ISO
  2
STATUS
 70
     0
  0
ATTRIB
  5
3CC
  8
11
 10
5.0000000000001128
 20
265.0
 30
0.0
 40
3.5
  1
EH1200
 41
0.8
  7
ROMANS
  2
TYPE
 70
     0
  0
SEQEND
  5
3CD
  8
15
  0
INSERT
  5
3CE
  8
11
  2
WA4
 10
0.0
 20
0.0
 30
0.0
  0
POINT
  5
3CF
  8
MASTERLINE_CFG
 62
     7
 10
0.0
 20
0.0
 30
0.0
1001
MASTERLINE_CFG
1000
MEKVERSION
1000
12
1000
ARROWHEAD
1000
pilhuvud
1000
ITEMLISTHEAD
1000
shuv6
1000
ITEMLISTROW
1000
skol6
1000
ITEMLISTTEMPLATE
1000
kol6
1000
DWGNAME
1000
3504
1000
CFGVER
1000
12
1000
DRAWINGSCALE
1000
1.00
1000
MDIM_MLDIMEXO
1000
12
1000
FORMATTYPE
1000

1000
HEADNAME
1000
sms_687
1000
ITEMLISTSUMCOLUMNS
1000
,2,
1000
ITEMLISTSUM
1000
0
1000
ITEMLISTDISTHEAD
1000
7
1000
ITEMLISTDISTROW
1000
5
1000
REVLISTROW
1000
3.5
1000
AUTOUPDATE_FROM_DMI
1000
0
1000
AUTOUPDATE_TO_DMI
1000
1
1000
AUTOINSERT
1000
0
1000
FRAMEEXPLODE
1000
0
1000
FORMATNAME
1000

1000
FORMSET
1000

1000
LGRAUTOLOCK
1000
0
1000
REVBLOCK
1000
REVRING
1000
REVRADIUS
1000
5
1000
MDIM_PARATEXT
1000
0
1000
TOLPREC
1000
2
1000
TOLDIMZIN
1000
8
1000
POSBLOCK
1000
POS
1000
POSRADIUS
1000
7
1000
POSSHAPE
1000
1
1000
POSENDBLOCK
1000
ARROW
1001
MASTERLINE_CFG_LAYER
1000
COLOR_16
1000
7
1000
LINETYPE_16
1000
CONTINUOUS
1000
LAYERDESC_16
1000

1000
LAYER_16
1000
16
1000
COLOR_15
1000
5
1000
LINETYPE_15
1000
CONTINUOUS
1000
LAYERDESC_15
1000

1000
LAYER_15
1000
15
1000
COLOR_14
1000
7
1000
LINETYPE_14
1000
CONTINUOUS
1000
LAYERDESC_14
1000

1000
LAYER_14
1000
14
1000
COLOR_13
1000
7
1000
LINETYPE_13
1000
CONTINUOUS
1000
LAYERDESC_13
1000

1000
LAYER_13
1000
13
1000
COLOR_12
1000
7
1000
LINETYPE_12
1000
CONTINUOUS
1000
LAYERDESC_12
1000

1000
LAYER_12
1000
12
1000
COLOR_11
1000
7
1000
LINETYPE_11
1000
CONTINUOUS
1000
LAYERDESC_11
1000

1000
LAYER_11
1000
11
1000
COLOR_10
1000
1
1000
LINETYPE_10
1000
CONTINUOUS
1000
LAYERDESC_10
1000

1000
LAYER_10
1000
10
1000
COLOR_9
1000
2
1000
LINETYPE_9
1000
CONTINUOUS
1000
LAYERDESC_9
1000

1000
LAYER_9
1000
09
1000
COLOR_8
1000
2
1000
LINETYPE_8
1000
CONTINUOUS
1000
LAYERDESC_8
1000

1000
LAYER_8
1000
08
1000
COLOR_7
1000
6
1000
LINETYPE_7
1000
PHANTOM
1000
LAYERDESC_7
1000

1000
LAYER_7
1000
07
1000
COLOR_6
1000
3
1000
LINETYPE_6
1000
DASHDOT
1000
LAYERDESC_6
1000

1000
LAYER_6
1000
06
1000
COLOR_5
1000
6
1000
LINETYPE_5
1000
DASHDOT
1000
LAYERDESC_5
1000

1000
LAYER_5
1000
05
1000
COLOR_4
1000
4
1000
LINETYPE_4
1000
HIDDEN
1000
LAYERDESC_4
1000

1000
LAYER_4
1000
04
1000
COLOR_3
1000
3
1000
LINETYPE_3
1000
HIDDEN
1000
LAYERDESC_3
1000

1000
LAYER_3
1000
03
1000
COLOR_2
1000
1
1000
LINETYPE_2
1000
CONTINUOUS
1000
LAYERDESC_2
1000

1000
LAYER_2
1000
02
1000
COLOR_1
1000
3
1000
LINETYPE_1
1000
CONTINUOUS
1000
LAYERDESC_1
1000

1000
LAYER_1
1000
01
1000
GROUPDESC_0
1000

1000
GROUP_0
1000

1000
ACTIVE_GROUP
1000

1000
LAYERMODE
1000
1
  0
LINE
  5
3D0
  8
11
 10
101.31129437340439
 20
214.80547830400729
 30
0.0
 11
104.31129437340429
 21
214.80547830400729
 31
0.0
  0
LINE
  5
3D1
  8
11
 10
101.31129437340429
 20
211.80547830400729
 30
0.0
 11
104.31129437340439
 21
211.80547830400729
 31
0.0
  0
LINE
  5
3D2
  8
11
 10
102.81129437340429
 20
214.80547830400729
 30
0.0
 11
104.31129437340429
 21
211.80547830400729
 31
0.0
  0
LINE
  5
3D3
  8
111
 10
107.81129437340439
 20
218.30547830400729
 30
0.0
 11
102.81129437340439
 21
218.30547830400729
 31
0.0
  0
LINE
  5
3D4
  8
111
 10
107.81129437340439
 20
205.80547830400729
 30
0.0
 11
77.825643706318672
 21
205.80547830400729
 31
0.0
  0
LINE
  5
3D5
  8
11
 10
77.825643706318672
 20
205.80547830400729
 30
0.0
 11
77.825643706318672
 21
218.30547830400729
 31
0.0
  0
LINE
  5
3D6
  8
11
 10
102.81129437340439
 20
208.30547830400729
 30
0.0
 11
102.81129437340439
 21
218.30547830400729
 31
0.0
  0
LINE
  5
3D7
  8
111
 10
102.81129437340439
 20
208.30547830400729
 30
0.0
 11
72.825643706318672
 21
208.30547830400729
 31
0.0
  0
INSERT
  5
3D8
  8
102
  2
S71
 10
72.825643706318672
 20
208.30547830400729
 30
0.0
  0
LINE
  5
3D9
  8
111
 10
77.825643706318672
 20
218.30547830400729
 30
0.0
 11
72.825643706318672
 21
218.30547830400729
 31
0.0
  0
LINE
  5
3DA
  8
11
 10
77.825643706318672
 20
211.80547830400729
 30
0.0
 11
79.325643706318672
 21
214.80547830400729
 31
0.0
  0
LINE
  5
3DB
  8
11
 10
76.325643706318672
 20
214.80547830400729
 30
0.0
 11
79.325643706318672
 21
214.80547830400729
 31
0.0
  0
LINE
  5
3DC
  8
11
 10
76.325643706318672
 20
211.80547830400729
 30
0.0
 11
79.325643706318672
 21
211.80547830400729
 31
0.0
  0
INSERT
  5
3DD
  8
102
  2
S71
 10
72.825643706318672
 20
218.30547830400729
 30
0.0
  0
LINE
  5
3DE
  8
11
 10
71.325643706318616
 20
211.80547830400729
 30
0.0
 11
72.825643706318616
 21
214.80547830400729
 31
0.0
  0
LINE
  5
3DF
  8
11
 10
71.325643706318616
 20
211.80547830400729
 30
0.0
 11
74.325643706318672
 21
211.80547830400729
 31
0.0
  0
LINE
  5
3E0
  8
11
 10
71.325643706318672
 20
214.80547830400729
 30
0.0
 11
74.325643706318616
 21
214.80547830400729
 31
0.0
  0
LINE
  5
3E1
  8
11
 10
72.825643706318616
 20
214.80547830400729
 30
0.0
 11
74.325643706318616
 21
211.80547830400729
 31
0.0
  0
LINE
  5
3E2
  8
11
 10
76.325643706318672
 20
214.80547830400729
 30
0.0
 11
77.825643706318672
 21
211.80547830400729
 31
0.0
  0
LINE
  5
3E3
  8
11
 10
101.31129437340429
 20
211.80547830400729
 30
0.0
 11
102.81129437340429
 21
214.80547830400729
 31
0.0
  0
INSERT
  5
3E4
  8
102
  2
S71
 10
107.81129437340439
 20
205.80547830400729
 30
0.0
  0
LINE
  5
3E5
  8
11
 10
107.81129437340439
 20
211.80547830400729
 30
0.0
 11
109.31129437340439
 21
214.80547830400729
 31
0.0
  0
LINE
  5
3E6
  8
11
 10
106.31129437340439
 20
211.80547830400729
 30
0.0
 11
109.31129437340439
 21
211.80547830400729
 31
0.0
  0
LINE
  5
3E7
  8
11
 10
106.31129437340439
 20
214.80547830400729
 30
0.0
 11
109.31129437340439
 21
214.80547830400729
 31
0.0
  0
LINE
  5
3E8
  8
11
 10
106.31129437340439
 20
214.80547830400729
 30
0.0
 11
107.81129437340439
 21
211.80547830400729
 31
0.0
  0
INSERT
  5
3E9
  8
102
  2
S71
 10
107.81129437340439
 20
218.30547830400729
 30
0.0
  0
LINE
  5
3EA
  8
102
 10
107.81129437340439
 20
198.53491286441459
 30
0.0
 11
107.81129437340439
 21
218.30547830400729
 31
0.0
  0
INSERT
  5
3EB
  8
01
 66
     1
  2
SOSMDIM
 10
275.80012066172429
 20
50.378028941746848
 30
0.0
  0
ATTRIB
  5
3EC
  8
11
 10
280.6969084078475
 20
88.099729191780511
 30
0.0
 40
3.149999999999999
  1
3.15
  7
ISO
 72
     1
 11
285.1969084078475
 21
88.099729191780511
 31
0.0
  2
G:HTXT
 70
     1
  0
ATTRIB
  5
3ED
  8
11
 10
281.62689279641017
 20
84.449821682368878
 30
0.0
 40
3.149999999999999
  1
2.0
  7
ISO
 72
     1
 11
284.92689279641019
 21
84.449821682368878
 31
0.0
  2
G:MEXE
 70
     1
  0
ATTRIB
  5
3EE
  8
11
 10
281.79188499069153
 20
80.664904923898405
 30
0.0
 40
3.149999999999999
  1
1.2
  7
ISO
 72
     1
 11
284.79188499069153
 21
80.664904923898405
 31
0.0
  2
G:MTI1
 70
     1
  0
ATTRIB
  5
3EF
  8
11
 10
282.1969084078475
 20
76.879988165427932
 30
0.0
 40
3.149999999999999
  1
1.2
  7
ISO
 72
     1
 11
285.1969084078475
 21
76.879988165427932
 31
0.0
  2
G:MTI2
 70
     1
  0
ATTRIB
  5
3F0
  8
11
 10
283.87689279641012
 20
73.365089905075138
 30
0.0
 40
3.149999999999999
  1
8
  7
ISO
 72
     1
 11
284.92689279641019
 21
73.365089905075138
 31
0.0
  2
G:MOT1
 70
     1
  0
ATTRIB
  5
3F1
  8
11
 10
284.08690060212882
 20
69.715182395663476
 30
0.0
 40
3.149999999999999
  1
6
  7
ISO
 72
     1
 11
285.06190060212879
 21
69.715182395663476
 31
0.0
  2
G:MOT2
 70
     1
  0
ATTRIB
  5
3F2
  8
11
 10
272.76182254494222
 20
66.065274886251814
 30
0.0
 40
3.149999999999999
  1
PILHUVUD
  7
ISO
 72
     1
 11
283.71182254494221
 21
66.065274886251814
 31
0.0
  2
G:PIL
 70
     1
  0
ATTRIB
  5
3F3
  8
11
 10
284.13540366260708
 20
62.368905315093883
 30
0.0
 40
3.149999999999999
  1
N
  7
ISO
 72
     1
 11
285.18540366260709
 21
62.368905315093883
 31
0.0
  2
G:FBPA
 70
     1
  0
ATTRIB
  5
3F4
  8
11
 10
284.19516547967191
 20
58.77668724875749
 30
0.0
 40
3.149999999999999
  1
J
  7
ISO
 72
     1
 11
284.94516547967191
 21
58.77668724875749
 31
0.0
  2
G:MDEC
 70
     1
  0
ATTRIB
  5
3F5
  8
11
 10
284.7080524611099
 20
55.041488047242119
 30
0.0
 40
3.149999999999999
  1
1
  7
ISO
 72
     1
 11
285.0830524611099
 21
55.041488047242119
 31
0.0
  2
G:MSCA
 70
     1
  0
ATTRIB
  5
3F6
  8
11
 10
276.50115609893982
 20
51.465895248340011
 30
0.0
 40
3.149999999999999
  1
N
  7
ISO
  2
G:MTOL
 70
     1
  0
SEQEND
  5
3F7
  8
01
  0
INSERT
  5
3F8
  8
01
 66
     1
  2
SOSLGR
 10
275.80012066172429
 20
50.378028941746848
 30
0.0
  0
ATTRIB
  5
3F9
  8
11
 10
274.75012066172428
 20
49.040449323912462
 30
0.0
 40
3.149999999999999
  1
N
  7
ISO
 72
     1
 11
275.80012066172429
 21
49.040449323912462
 31
0.0
  2
G:LGR
 70
     1
  0
ATTRIB
  5
3FA
  8
11
 10
273.4751206617243
 20
41.906691362129003
 30
0.0
 40
3.149999999999999
  1
-1
  7
ISO
 72
     1
 11
275.80012066172429
 21
41.906691362129003
 31
0.0
  2
G:LG_A
 70
     1
  0
SEQEND
  5
3FB
  8
01
  0
INSERT
  5
3FC
  8
01
 66
     1
  2
SOKONFIG
 10
275.80012066172429
 20
50.378028941746848
 30
0.0
  0
ATTRIB
  5
3FD
  8
11
 10
274.75012066172428
 20
48.803028941746852
 30
0.0
 40
3.149999999999999
  1
N
  7
ISO
 72
     4
 11
275.80012066172429
 21
50.378028941746848
 31
0.0
  2
G:UTSH
 70
     1
  0
ATTRIB
  5
3FE
  8
11
 10
274.75012066172428
 20
43.803028941746852
 30
0.0
 40
3.149999999999999
  1
N
  7
ISO
 72
     4
 11
275.80012066172429
 21
45.378028941746848
 31
0.0
  2
G:CENM
 70
     1
  0
ATTRIB
  5
3FF
  8
11
 10
274.08554712287309
 20
38.720979070093001
 30
0.0
 40
3.149999999999999
  1
5
  7
ISO
 72
     4
 11
275.13554712287311
 21
40.295979070092997
 31
0.0
  2
G:DHA
 70
     1
  0
ATTRIB
  5
400
  8
11
 10
272.58554712287309
 20
33.720979070093001
 30
0.0
 40
3.149999999999999
  1
45
  7
ISO
 72
     4
 11
275.13554712287311
 21
35.295979070092997
 31
0.0
  2
G:DVI
 70
     1
  0
ATTRIB
  5
401
  8
11
 10
270.86054712287307
 20
28.720979070093001
 30
0.0
 40
3.149999999999999
  1
POS
  7
ISO
 72
     4
 11
275.13554712287311
 21
30.295979070093001
 31
0.0
  2
G:POBA
 70
     1
  0
ATTRIB
  5
402
  8
11
 10
274.16054712287308
 20
23.720979070093001
 30
0.0
 40
3.149999999999999
  1
6
  7
ISO
 72
     4
 11
275.13554712287311
 21
25.295979070093001
 31
0.0
  2
G:PORA
 70
     1
  0
ATTRIB
  5
403
  8
11
 10
274.01054712287311
 20
18.720979070093001
 30
0.0
 40
3.149999999999999
  1
C
  7
ISO
 72
     4
 11
275.13554712287311
 21
20.295979070093001
 31
0.0
  2
G:POFO
 70
     1
  0
ATTRIB
  5
404
  8
11
 10
273.56054712287312
 20
13.720979070093
 30
0.0
 40
3.149999999999999
  1
PI
  7
ISO
 72
     4
 11
275.13554712287311
 21
15.295979070093001
 31
0.0
  2
G:POAN
 70
     1
  0
ATTRIB
  5
405
  8
11
 10
274.75012066172428
 20
9.0221433531879924
 30
0.0
 40
3.149999999999999
  1
5
  7
ISO
 72
     1
 11
275.80012066172429
 21
9.0221433531879924
 31
0.0
  2
G:RAAV
 70
     1
  0
ATTRIB
  5
406
  8
11
 10
274.75012066172428
 20
3.803028941746855
 30
0.0
 40
3.149999999999999
  1
7
  7
ISO
 72
     4
 11
275.80012066172429
 21
5.3780289417468552
 31
0.0
  2
G:HUAV
 70
     1
  0
ATTRIB
  5
407
  8
11
 10
275.05012066172429
 20
-0.7361262112789362
 30
0.0
 40
3.149999999999999
  1
J
  7
ISO
 72
     1
 11
275.80012066172429
 21
-0.7361262112789362
 31
0.0
  2
G:S_SU
 70
     1
  0
ATTRIB
  5
408
  8
11
 10
273.4001206617242
 20
-5.8969710582531443
 30
0.0
 40
3.149999999999999
  1
,2,
  7
ISO
 72
     4
 11
275.80012066172429
 21
-4.6219710582531439
 31
0.0
  2
G:SU_L
 70
     1
  0
ATTRIB
  5
409
  8
11
 10
266.35012066172419
 20
-10.736126211278931
 30
0.0
 40
3.149999999999999
  1
REVRING
  7
ISO
 72
     1
 11
275.80012066172429
 21
-10.736126211278931
 31
0.0
  2
G:REBA
 70
     1
  0
ATTRIB
  5
40A
  8
11
 10
272.50012066172422
 20
-16.196971058253141
 30
0.0
 40
3.149999999999999
  1
3.5
  7
ISO
 72
     4
 11
275.80012066172429
 21
-14.621971058253139
 31
0.0
  2
G:RERA
 70
     1
  0
ATTRIB
  5
40B
  8
11
 10
273.92512066172429
 20
-21.196971058253141
 30
0.0
 40
3.149999999999999
  1
01
  7
ISO
 72
     4
 11
275.80012066172429
 21
-19.621971058253141
 31
0.0
  2
LA1
 70
     1
  0
ATTRIB
  5
40C
  8
11
 10
273.25012066172422
 20
-26.196971058253141
 30
0.0
 40
3.149999999999999
  1
02
  7
ISO
 72
     4
 11
275.80012066172429
 21
-24.621971058253141
 31
0.0
  2
LA2
 70
     1
  0
ATTRIB
  5
40D
  8
11
 10
273.25012066172422
 20
-31.196971058253141
 30
0.0
 40
3.149999999999999
  1
03
  7
ISO
 72
     4
 11
275.80012066172429
 21
-29.621971058253141
 31
0.0
  2
LA3
 70
     1
  0
ATTRIB
  5
40E
  8
11
 10
273.17512066172418
 20
-36.196971058253148
 30
0.0
 40
3.149999999999999
  1
04
  7
ISO
 72
     4
 11
275.80012066172429
 21
-34.621971058253138
 31
0.0
  2
LA4
 70
     1
  0
ATTRIB
  5
40F
  8
11
 10
273.25012066172422
 20
-41.196971058253148
 30
0.0
 40
3.149999999999999
  1
05
  7
ISO
 72
     4
 11
275.80012066172429
 21
-39.621971058253138
 31
0.0
  2
LA5
 70
     1
  0
ATTRIB
  5
410
  8
11
 10
273.32512066172421
 20
-46.196971058253148
 30
0.0
 40
3.149999999999999
  1
06
  7
ISO
 72
     4
 11
275.80012066172429
 21
-44.621971058253138
 31
0.0
  2
LA6
 70
     1
  0
ATTRIB
  5
411
  8
11
 10
273.25012066172422
 20
-51.196971058253148
 30
0.0
 40
3.149999999999999
  1
07
  7
ISO
 72
     4
 11
275.80012066172429
 21
-49.621971058253138
 31
0.0
  2
LA7
 70
     1
  0
ATTRIB
  5
412
  8
11
 10
273.25012066172422
 20
-56.196971058253148
 30
0.0
 40
3.149999999999999
  1
08
  7
ISO
 72
     4
 11
275.80012066172429
 21
-54.621971058253138
 31
0.0
  2
LA8
 70
     1
  0
ATTRIB
  5
413
  8
11
 10
273.32512066172421
 20
-61.196971058253148
 30
0.0
 40
3.149999999999999
  1
09
  7
ISO
 72
     4
 11
275.80012066172429
 21
-59.621971058253138
 31
0.0
  2
LA9
 70
     1
  0
ATTRIB
  5
414
  8
11
 10
273.55012066172429
 20
-66.196971058253141
 30
0.0
 40
3.149999999999999
  1
10
  7
ISO
 72
     4
 11
275.80012066172429
 21
-64.621971058253138
 31
0.0
  2
LA10
 70
     1
  0
ATTRIB
  5
415
  8
11
 10
274.2251206617243
 20
-71.196971058253141
 30
0.0
 40
3.149999999999999
  1
11
  7
ISO
 72
     4
 11
275.80012066172429
 21
-69.621971058253138
 31
0.0
  2
LA11
 70
     1
  0
ATTRIB
  5
416
  8
11
 10
273.55012066172429
 20
-76.196971058253141
 30
0.0
 40
3.149999999999999
  1
12
  7
ISO
 72
     4
 11
275.80012066172429
 21
-74.621971058253138
 31
0.0
  2
LA12
 70
     1
  0
ATTRIB
  5
417
  8
11
 10
273.55012066172429
 20
-81.196971058253155
 30
0.0
 40
3.149999999999999
  1
13
  7
ISO
 72
     4
 11
275.80012066172429
 21
-79.621971058253138
 31
0.0
  2
LA13
 70
     1
  0
ATTRIB
  5
418
  8
11
 10
273.4751206617243
 20
-86.196971058253155
 30
0.0
 40
3.149999999999999
  1
14
  7
ISO
 72
     4
 11
275.80012066172429
 21
-84.621971058253138
 31
0.0
  2
LA14
 70
     1
  0
ATTRIB
  5
419
  8
11
 10
273.55012066172429
 20
-91.196971058253155
 30
0.0
 40
3.149999999999999
  1
15
  7
ISO
 72
     4
 11
275.80012066172429
 21
-89.621971058253138
 31
0.0
  2
LA15
 70
     1
  0
ATTRIB
  5
41A
  8
11
 10
273.62512066172428
 20
-96.196971058253155
 30
0.0
 40
3.149999999999999
  1
16
  7
ISO
 72
     4
 11
275.80012066172429
 21
-94.621971058253138
 31
0.0
  2
LA16
 70
     1
  0
SEQEND
  5
41B
  8
01
  0
INSERT
  5
41C
  8
101
  2
S89
 10
72.825643706318687
 20
179.0083343847474
 30
0.0
  0
INSERT
  5
41D
  8
101
 66
     1
  2
S51
 10
92.825643706318672
 20
179.0083343847474
 30
0.0
  0
ATTRIB
  5
41E
  8
109
 10
100.3256437063186
 20
183.00833438474729
 30
0.0
 40
2.2000000000000002
  1

 72
     1
 11
100.3256437063186
 21
183.00833438474729
 31
0.0
  2
POS
 70
     0
  0
ATTRIB
  5
41F
  8
109
 10
99.325643706318672
 20
183.00833438474729
 30
0.0
 40
2.2000000000000002
  1

 72
     2
 11
99.325643706318672
 21
183.00833438474729
 31
0.0
  2
POS
 70
     0
  0
ATTRIB
  5
420
  8
108
 10
102.8256437063186
 20
176.0083343847474
 30
0.0
 40
2.2000000000000002
  1
 
  2
ANSL
 70
     0
  0
ATTRIB
  5
421
  8
108
 10
95.835167515842485
 20
176.0083343847474
 30
0.0
 40
2.2000000000000002
  1
 
 72
     2
 11
97.825643706318672
 21
176.0083343847474
 31
0.0
  2
ANSL
 70
     0
  0
SEQEND
  5
422
  8
101
  0
LINE
  5
423
  8
102
 10
72.825643706318687
 20
179.0083343847474
 30
0.0
 11
72.825643706318687
 21
169.0083343847474
 31
0.0
  0
LINE
  5
424
  8
102
 10
92.825643706318672
 20
179.0083343847474
 30
0.0
 11
92.825643706318672
 21
169.0083343847474
 31
0.0
  0
INSERT
  5
425
  8
102
 66
     1
  2
S30
 10
75.325643706318687
 20
169.0083343847474
 30
0.0
  0
ATTRIB
  5
426
  8
108
 10
86.325643706318658
 20
165.65833438474741
 30
0.0
 40
2.2000000000000002
  1
36
  2
ANSL
 70
     0
  0
ATTRIB
  5
427
  8
108
 10
75.763738944413916
 20
165.65833438474741
 30
0.0
 40
2.2000000000000002
  1
35
 72
     2
 11
79.325643706318672
 21
165.65833438474741
 31
0.0
  2
ANSL
 70
     0
  0
ATTRIB
  5
428
  8
109
 10
82.825643706318672
 20
173.0083343847474
 30
0.0
 40
2.2000000000000002
  1

 72
     1
 11
82.825643706318672
 21
173.0083343847474
 31
0.0
  2
POS
 70
     0
  0
SEQEND
  5
429
  8
102
  0
INSERT
  5
42A
  8
102
 66
     1
  2
S28
 10
75.325643706318687
 20
164.0083343847474
 30
0.0
  0
ATTRIB
  5
42B
  8
108
 10
86.325643706318658
 20
160.65833438474741
 30
0.0
 40
2.2000000000000002
  1
48
  2
ANSL
 70
     0
  0
ATTRIB
  5
42C
  8
108
 10
75.763738944413916
 20
160.65833438474741
 30
0.0
 40
2.2000000000000002
  1
47
 72
     2
 11
79.325643706318672
 21
160.65833438474741
 31
0.0
  2
ANSL
 70
     0
  0
ATTRIB
  5
42D
  8
109
 10
82.825643706318672
 20
165.15833438474741
 30
0.0
 40
2.2000000000000002
  1

 72
     1
 11
82.825643706318672
 21
165.15833438474741
 31
0.0
  2
POS
 70
     0
  0
SEQEND
  5
42E
  8
102
  0
LINE
  5
42F
  8
102
 10
72.825643706318687
 20
169.0083343847474
 30
0.0
 11
75.325643706318687
 21
169.0083343847474
 31
0.0
  0
LINE
  5
430
  8
102
 10
90.325643706318672
 20
169.0083343847474
 30
0.0
 11
92.825643706318672
 21
169.0083343847474
 31
0.0
  0
LINE
  5
431
  8
104
 10
82.825643706318672
 20
170.0082829161403
 30
0.0
 11
82.825643706318672
 21
156.5083343847474
 31
0.0
  0
LINE
  5
432
  8
104
 10
82.825643706318672
 20
156.5083343847474
 30
0.0
 11
100.3256437063186
 21
156.5083343847474
 31
0.0
  0
LINE
  5
433
  8
104
 10
100.3256437063186
 20
176.0083343847474
 30
0.0
 11
100.3256437063186
 21
144.63333438474751
 31
0.0
  0
LINE
  5
434
  8
103
 10
135.3256437063186
 20
171.50833438474729
 30
0.0
 11
135.3256437063186
 21
176.50833438474729
 31
0.0
  0
LINE
  5
435
  8
103
 10
130.3256437063186
 20
171.50833438474729
 30
0.0
 11
130.3256437063186
 21
176.50833438474729
 31
0.0
  0
LINE
  5
436
  8
103
 10
125.3256437063186
 20
171.50833438474729
 30
0.0
 11
125.3256437063186
 21
176.50833438474729
 31
0.0
  0
CIRCLE
  5
437
  8
111
 10
125.3256437063186
 20
166.5083343847474
 30
0.0
 40
0.75
  0
CIRCLE
  5
438
  8
111
 10
130.3256437063186
 20
166.5083343847474
 30
0.0
 40
0.75
  0
CIRCLE
  5
439
  8
111
 10
135.3256437063186
 20
166.5083343847474
 30
0.0
 40
0.75
  0
ARC
  5
43A
  8
111
 10
125.3256437063186
 20
173.0083343847474
 30
0.0
 40
1.5
 50
90.0
 51
270.0
  0
ARC
  5
43B
  8
111
 10
130.3256437063186
 20
173.0083343847474
 30
0.0
 40
1.5
 50
90.0
 51
270.0
  0
ARC
  5
43C
  8
111
 10
135.3256437063186
 20
173.0083343847474
 30
0.0
 40
1.5
 50
90.0
 51
270.0
  0
LINE
  5
43D
  8
103
 10
125.3256437063186
 20
161.5083343847474
 30
0.0
 11
125.3256437063186
 21
165.7583343847474
 31
0.0
  0
LINE
  5
43E
  8
103
 10
130.3256437063186
 20
161.5083343847474
 30
0.0
 11
130.3256437063186
 21
165.7583343847474
 31
0.0
  0
LINE
  5
43F
  8
103
 10
135.3256437063186
 20
161.5083343847474
 30
0.0
 11
135.3256437063186
 21
165.7583343847474
 31
0.0
  0
TEXT
  5
440
  8
108
 10
138.3256437063186
 20
159.75628779485621
 30
0.0
 40
2.149999999999999
  1
6T3
 50
90.0
  0
TEXT
  5
441
  8
108
 10
133.3256437063186
 20
159.75628779485621
 30
0.0
 40
2.149999999999999
  1
4T2
 50
90.0
  0
TEXT
  5
442
  8
108
 10
128.3256437063186
 20
159.75628779485621
 30
0.0
 40
2.149999999999999
  1
2T1
 50
90.0
  0
TEXT
  5
443
  8
108
 10
128.3256437063186
 20
174.5083343847474
 30
0.0
 40
2.149999999999999
  1
1L1
 50
90.0
  0
TEXT
  5
444
  8
108
 10
133.3256437063186
 20
174.5083343847474
 30
0.0
 40
2.149999999999999
  1
3L2
 50
90.0
  0
TEXT
  5
445
  8
108
 10
138.3256437063186
 20
174.5083343847474
 30
0.0
 40
2.149999999999999
  1
5L3
 50
90.0
  0
LINE
  5
446
  8
104
 10
100.3256437063186
 20
169.0083343847474
 30
0.0
 11
134.0756437063186
 21
169.0083343847474
 31
0.0
  0
LINE
  5
447
  8
111
 10
122.8256437063186
 20
171.50833438474729
 30
0.0
 11
124.9902335096936
 21
167.1791547779973
 31
0.0
  0
LINE
  5
448
  8
111
 10
127.8256437063186
 20
171.50833438474729
 30
0.0
 11
129.99023350969361
 21
167.1791547779973
 31
0.0
  0
LINE
  5
449
  8
111
 10
132.8256437063186
 20
171.50833438474729
 30
0.0
 11
134.9902335096937
 21
167.1791547779973
 31
0.0
  0
INSERT
  5
44A
  8
104
  2
S71
 10
100.3256437063186
 20
169.0083343847474
 30
0.0
  0
INSERT
  5
44B
  8
104
  2
S71
 10
100.3256437063186
 20
156.5083343847474
 30
0.0
  0
INSERT
  5
44C
  8
104
  2
S71
 10
72.825643706318687
 20
169.0083343847474
 30
0.0
  0
INSERT
  5
44D
  8
104
  2
S71
 10
92.825643706318672
 20
179.0083343847474
 30
0.0
  0
INSERT
  5
44E
  8
104
 66
     1
  2
S25
 10
92.825643706318672
 20
149.0083343847474
 30
0.0
  0
ATTRIB
  5
44F
  8
108
 10
103.8256437063186
 20
145.65833438474741
 30
0.0
 40
2.2000000000000002
  1
14
  2
ANSL
 70
     0
  0
ATTRIB
  5
450
  8
108
 10
93.682786563461534
 20
145.65833438474741
 30
0.0
 40
2.2000000000000002
  1
13
 72
     2
 11
96.825643706318672
 21
145.65833438474741
 31
0.0
  2
ANSL
 70
     0
  0
ATTRIB
  5
451
  8
109
 10
100.3256437063186
 20
150.15833438474741
 30
0.0
 40
2.2000000000000002
  1

 72
     1
 11
100.3256437063186
 21
150.15833438474741
 31
0.0
  2
POS
 70
     0
  0
SEQEND
  5
452
  8
104
  0
INSERT
  5
453
  8
104
 66
     1
  2
S26
 10
92.825643706318672
 20
144.0083343847474
 30
0.0
  0
ATTRIB
  5
454
  8
108
 10
103.8256437063186
 20
140.65833438474741
 30
0.0
 40
2.2000000000000002
  1
22
  2
ANSL
 70
     0
  0
ATTRIB
  5
455
  8
108
 10
94.206596087271038
 20
140.65833438474741
 30
0.0
 40
2.2000000000000002
  1
21
 72
     2
 11
96.825643706318672
 21
140.65833438474741
 31
0.0
  2
ANSL
 70
     0
  0
ATTRIB
  5
456
  8
109
 10
100.3256437063186
 20
147.0083343847474
 30
0.0
 40
2.2000000000000002
  1

 72
     1
 11
100.3256437063186
 21
147.0083343847474
 31
0.0
  2
POS
 70
     0
  0
SEQEND
  5
457
  8
104
  0
TEXT
  5
458
  8
108
 10
80.946662983561353
 20
180.9807311637893
 30
0.0
 40
2.149999999999999
  1
R1
 50
0.0000000000000013
  0
INSERT
  5
459
  8
104
 66
     1
  2
S25
 10
92.825643706318672
 20
129.0083343847474
 30
0.0
  0
ATTRIB
  5
45A
  8
108
 10
103.8256437063186
 20
125.65833438474741
 30
0.0
 40
2.2000000000000002
  1
54
  2
ANSL
 70
     0
  0
ATTRIB
  5
45B
  8
108
 10
93.263738944413916
 20
125.65833438474741
 30
0.0
 40
2.2000000000000002
  1
53
 72
     2
 11
96.825643706318672
 21
125.65833438474741
 31
0.0
  2
ANSL
 70
     0
  0
ATTRIB
  5
45C
  8
109
 10
100.3256437063186
 20
130.15833438474741
 30
0.0
 40
2.2000000000000002
  1

 72
     1
 11
100.3256437063186
 21
130.15833438474741
 31
0.0
  2
POS
 70
     0
  0
SEQEND
  5
45D
  8
104
  0
INSERT
  5
45E
  8
104
 66
     1
  2
S26
 10
92.825643706318672
 20
124.0083343847474
 30
0.0
  0
ATTRIB
  5
45F
  8
108
 10
103.8256437063186
 20
120.65833438474741
 30
0.0
 40
2.2000000000000002
  1
62
  2
ANSL
 70
     0
  0
ATTRIB
  5
460
  8
108
 10
94.206596087271038
 20
120.65833438474741
 30
0.0
 40
2.2000000000000002
  1
61
 72
     2
 11
96.825643706318672
 21
120.65833438474741
 31
0.0
  2
ANSL
 70
     0
  0
ATTRIB
  5
461
  8
109
 10
100.3256437063186
 20
127.0083343847474
 30
0.0
 40
2.2000000000000002
  1

 72
     1
 11
100.3256437063186
 21
127.0083343847474
 31
0.0
  2
POS
 70
     0
  0
SEQEND
  5
462
  8
104
  0
TEXT
  5
463
  8
110
 10
118.9540994755634
 20
124.92207450152721
 30
0.0
 40
2.2000000000000002
  1
Extra auxiliary contacts
  7
ROMANS
  0
TEXT
  5
464
  8
110
 10
118.9540994755634
 20
121.36016973962241
 30
0.0
 40
2.2000000000000002
  1
Extra hjõlpkontakter
  7
ROMANS
  0
TEXT
  5
465
  8
110
 10
30.018998551448728
 20
164.88773035811411
 30
0.0
 40
2.2000000000000002
  1
Right hand side
  7
ROMANS
  0
TEXT
  5
466
  8
110
 10
30.018998551448728
 20
161.3258255962094
 30
0.0
 40
2.2000000000000002
  1
H÷ger sida
  7
ROMANS
  0
TEXT
  5
467
  8
110
 10
30.018998551448728
 20
144.88773035811411
 30
0.0
 40
2.2000000000000002
  1
Left hand side
  7
ROMANS
  0
TEXT
  5
468
  8
110
 10
30.018998551448728
 20
141.3258255962094
 30
0.0
 40
2.2000000000000002
  1
Võnster sida
  7
ROMANS
  0
TEXT
  5
469
  8
110
 10
30.018998551448728
 20
124.8877303581142
 30
0.0
 40
2.2000000000000002
  1
Left hand side
  7
ROMANS
  0
TEXT
  5
46A
  8
110
 10
30.018998551448728
 20
121.3258255962094
 30
0.0
 40
2.2000000000000002
  1
Võnster sida
  7
ROMANS
  0
TEXT
  5
46B
  8
110
 10
36.689800589518477
 20
89.008334384747428
 30
0.0
 40
2.2000000000000002
  1
R1  Economic resistor
  7
ROMANS
  0
TEXT
  5
46C
  8
110
 10
36.689800589518477
 20
85.446429622842658
 30
0.0
 40
2.2000000000000002
  1
    SparmotstÕnd
  7
ROMANS
  0
LINE
  5
46D
  8
05
 10
66.974359270404364
 20
198.53491286441459
 30
0.0
 11
112.147389287587
 21
198.53491286441459
 31
0.0
  0
LINE
  5
46E
  8
05
 10
66.974359270404364
 20
196.53491286441459
 30
0.0
 11
112.147389287587
 21
196.53491286441459
 31
0.0
  0
LINE
  5
46F
  8
11
 10
72.825643706318672
 20
198.53491286441459
 30
0.0
 11
72.825643706318672
 21
218.30547830400729
 31
0.0
  0
INSERT
  5
470
  8
102
  2
S71
 10
107.8256437063186
 20
179.0083343847474
 30
0.0
  0
TEXT
  5
471
  8
110
 10
18.815052410324419
 20
223.8287915698937
 30
0.0
 40
2.2000000000000002
  1
Coil codes/Spolkoder
  7
ROMANS
  0
TEXT
  5
472
  8
110
 10
18.815052410324419
 20
219.68062282574439
 30
0.0
 40
2.2000000000000002
  1
EF, EL, EP
  7
ROMANS
  0
TEXT
  5
473
  8
110
 10
18.815052410324419
 20
180.20318106491641
 30
0.0
 40
2.2000000000000002
  1
DB, DE
  7
ROMANS
  0
TEXT
  5
474
  8
110
 10
18.815052410324419
 20
184.35134980906571
 30
0.0
 40
2.2000000000000002
  1
Coil codes/Spolkoder
  7
ROMANS
  0
INSERT
  5
475
  8
02
 66
     1
  2
REV4
 10
91.0
 20
271.0
 30
0.0
  0
ATTRIB
  5
476
  8
11
 62
     7
 10
92.0
 20
267.4199999999999
 30
0.0
 40
2.149999999999999
  1
1
 41
0.9
  7
ISO
  2
REVIND
 70
     0
  0
ATTRIB
  5
477
  8
11
 62
     7
 10
102.4999999999999
 20
267.4199999999999
 30
0.0
 40
2.149999999999999
  1
DC-version added
 41
0.9
  7
ISO
  2
REVTEXT
 70
     0
  0
ATTRIB
  5
478
  8
11
 62
     7
 10
153.5
 20
267.4199999999999
 30
0.0
 40
2.149999999999999
  1
BL
 41
0.9
  7
ISO
  2
REVAPPD
 70
     0
  0
ATTRIB
  5
479
  8
11
 62
     7
 10
164.0
 20
267.4199999999999
 30
0.0
 40
2.149999999999999
  1
02   35
 41
0.9
  7
ISO
  2
REVDATE
 70
     0
  0
SEQEND
  5
47A
  8
02
  0
SOLID
  5
47B
  8
11
 10
73.312310372985351
 20
221.77902989872609
 30
0.0
 11
72.338977039651994
 21
221.77902989872609
 31
0.0
 12
72.825643706318672
 22
218.85902989872611
 32
0.0
 13
72.825643706318672
 23
218.85902989872611
 33
0.0
  0
LINE
  5
47C
  8
11
 10
72.825643706318672
 20
218.30547830400729
 30
0.0
 11
72.825643706318672
 21
219.05547830400721
 31
0.0
  0
LINE
  5
47D
  8
11
 10
72.825643706318672
 20
219.80547830400729
 30
0.0
 11
72.825643706318672
 21
220.55547830400729
 31
0.0
  0
LINE
  5
47E
  8
11
 10
72.825643706318672
 20
223.16407484138969
 30
0.0
 11
72.825643706318672
 21
223.91407484138961
 31
0.0
  0
LINE
  5
47F
  8
11
 10
72.825643706318672
 20
221.66407484138969
 30
0.0
 11
72.825643706318672
 21
222.41407484138961
 31
0.0
  0
LINE
  5
480
  8
11
 10
72.825643706318672
 20
224.66407484138961
 30
0.0
 11
72.825643706318672
 21
225.41407484138969
 31
0.0
  0
LINE
  5
481
  8
11
 10
72.825643706318672
 20
226.16407484138961
 30
0.0
 11
72.825643706318672
 21
226.91407484138961
 31
0.0
  0
LINE
  5
482
  8
11
 10
83.325643706318672
 20
226.91407484138961
 30
0.0
 11
84.075643706318672
 21
226.91407484138961
 31
0.0
  0
LINE
  5
483
  8
11
 10
72.825643706318672
 20
226.91407484138961
 30
0.0
 11
73.575643706318672
 21
226.91407484138961
 31
0.0
  0
LINE
  5
484
  8
11
 10
74.325643706318672
 20
226.91407484138961
 30
0.0
 11
75.075643706318672
 21
226.91407484138961
 31
0.0
  0
LINE
  5
485
  8
11
 10
77.325643706318672
 20
226.91407484138961
 30
0.0
 11
78.075643706318672
 21
226.91407484138961
 31
0.0
  0
LINE
  5
486
  8
11
 10
75.825643706318672
 20
226.91407484138961
 30
0.0
 11
76.575643706318672
 21
226.91407484138961
 31
0.0
  0
LINE
  5
487
  8
11
 10
78.825643706318672
 20
226.91407484138961
 30
0.0
 11
79.575643706318672
 21
226.91407484138961
 31
0.0
  0
LINE
  5
488
  8
11
 10
80.325643706318672
 20
226.91407484138961
 30
0.0
 11
81.075643706318687
 21
226.91407484138961
 31
0.0
  0
LINE
  5
489
  8
11
 10
81.825643706318672
 20
226.91407484138961
 30
0.0
 11
82.575643706318658
 21
226.91407484138961
 31
0.0
  0
LINE
  5
48A
  8
11
 10
90.825643706318672
 20
226.91407484138961
 30
0.0
 11
91.575643706318672
 21
226.91407484138961
 31
0.0
  0
LINE
  5
48B
  8
11
 10
84.825643706318687
 20
226.91407484138961
 30
0.0
 11
85.575643706318672
 21
226.91407484138961
 31
0.0
  0
LINE
  5
48C
  8
11
 10
86.325643706318658
 20
226.91407484138961
 30
0.0
 11
87.075643706318672
 21
226.91407484138961
 31
0.0
  0
LINE
  5
48D
  8
11
 10
89.325643706318672
 20
226.91407484138961
 30
0.0
 11
90.075643706318658
 21
226.91407484138961
 31
0.0
  0
LINE
  5
48E
  8
11
 10
87.825643706318672
 20
226.91407484138961
 30
0.0
 11
88.575643706318687
 21
226.91407484138961
 31
0.0
  0
LINE
  5
48F
  8
11
 10
92.325643706318687
 20
226.91407484138961
 30
0.0
 11
93.075643706318672
 21
226.91407484138961
 31
0.0
  0
LINE
  5
490
  8
11
 10
93.825643706318658
 20
226.91407484138961
 30
0.0
 11
94.575643706318672
 21
226.91407484138961
 31
0.0
  0
LINE
  5
491
  8
11
 10
96.825643706318672
 20
226.91407484138961
 30
0.0
 11
97.575643706318687
 21
226.91407484138961
 31
0.0
  0
LINE
  5
492
  8
11
 10
95.325643706318672
 20
226.91407484138961
 30
0.0
 11
96.075643706318687
 21
226.91407484138961
 31
0.0
  0
LINE
  5
493
  8
11
 10
98.325643706318672
 20
226.91407484138961
 30
0.0
 11
99.075643706318672
 21
226.91407484138961
 31
0.0
  0
LINE
  5
494
  8
11
 10
102.8256437063186
 20
226.91407484138961
 30
0.0
 11
103.5756437063186
 21
226.91407484138961
 31
0.0
  0
LINE
  5
495
  8
11
 10
99.825643706318687
 20
226.91407484138961
 30
0.0
 11
100.5756437063186
 21
226.91407484138961
 31
0.0
  0
LINE
  5
496
  8
11
 10
101.3256437063186
 20
226.91407484138961
 30
0.0
 11
102.0756437063186
 21
226.91407484138961
 31
0.0
  0
LINE
  5
497
  8
11
 10
104.3256437063186
 20
226.91407484138961
 30
0.0
 11
105.0756437063186
 21
226.91407484138961
 31
0.0
  0
LINE
  5
498
  8
11
 10
105.8256437063186
 20
226.91407484138961
 30
0.0
 11
106.5756437063186
 21
226.91407484138961
 31
0.0
  0
LINE
  5
499
  8
11
 10
108.8256437063186
 20
226.91407484138961
 30
0.0
 11
109.5756437063186
 21
226.91407484138961
 31
0.0
  0
LINE
  5
49A
  8
11
 10
107.3256437063186
 20
226.91407484138961
 30
0.0
 11
108.0756437063186
 21
226.91407484138961
 31
0.0
  0
SOLID
  5
49B
  8
11
 10
111.28484596812331
 20
217.81881163734059
 30
0.0
 11
111.28484596812331
 21
218.792144970674
 31
0.0
 12
108.3648459681233
 22
218.30547830400729
 32
0.0
 13
108.3648459681233
 23
218.30547830400729
 33
0.0
  0
LINE
  5
49C
  8
11
 10
107.81129437340439
 20
218.30547830400729
 30
0.0
 11
108.56129437340439
 21
218.30547830400729
 31
0.0
  0
LINE
  5
49D
  8
11
 10
109.31129437340439
 20
218.30547830400729
 30
0.0
 11
110.06129437340439
 21
218.30547830400729
 31
0.0
  0
LINE
  5
49E
  8
11
 10
111.63207894817469
 20
218.30547830400729
 30
0.0
 11
112.38207894817469
 21
218.30547830400729
 31
0.0
  0
LINE
  5
49F
  8
11
 10
114.63207894817469
 20
218.30547830400729
 30
0.0
 11
115.38207894817469
 21
218.30547830400729
 31
0.0
  0
LINE
  5
4A0
  8
11
 10
113.13207894817469
 20
218.30547830400729
 30
0.0
 11
113.88207894817469
 21
218.30547830400729
 31
0.0
  0
LINE
  5
4A1
  8
11
 10
110.3256437063186
 20
226.91407484138961
 30
0.0
 11
111.0756437063186
 21
226.91407484138961
 31
0.0
  0
LINE
  5
4A2
  8
11
 10
111.8256437063186
 20
226.91407484138961
 30
0.0
 11
112.5756437063186
 21
226.91407484138961
 31
0.0
  0
LINE
  5
4A3
  8
11
 10
113.3256437063186
 20
226.91407484138961
 30
0.0
 11
114.0756437063186
 21
226.91407484138961
 31
0.0
  0
LINE
  5
4A4
  8
11
 10
114.8256437063186
 20
226.91407484138961
 30
0.0
 11
115.5756437063186
 21
226.91407484138961
 31
0.0
  0
ARC
  5
4A5
  8
11
 10
113.8935538759041
 20
129.06408002057509
 30
0.0
 40
1.361677150941345
 50
0.0
 51
69.431172876577222
  0
ARC
  5
4A6
  8
11
 10
113.8935538759041
 20
119.364881630669
 30
0.0
 40
1.361677150941345
 50
290.56882712342269
 51
0.0
  0
ARC
  5
4A7
  8
11
 10
116.8375915495959
 20
122.8009473215986
 30
0.0
 40
1.599259248775871
 50
117.8875063349674
 51
171.66341201629041
  0
LINE
  5
4A8
  8
11
 10
115.25523102684549
 20
119.364881630669
 30
0.0
 11
115.25523102684549
 21
123.0328208233968
 31
0.0
  0
LINE
  5
4A9
  8
11
 10
115.25523102684549
 20
129.06408002057509
 30
0.0
 11
115.25523102684549
 21
125.3961408278472
 31
0.0
  0
ARC
  5
4AA
  8
11
 10
116.8375915495959
 20
125.6280143296454
 30
0.0
 40
1.599259248775871
 50
188.33658798370951
 51
242.1124936650325
  0
LINE
  5
4AB
  8
11
 10
60.160477194979563
 20
119.3648816306689
 30
0.0
 11
60.160477194979563
 21
123.0328208233968
 31
0.0
  0
LINE
  5
4AC
  8
11
 10
60.160477194979563
 20
129.06408002057509
 30
0.0
 11
60.160477194979563
 21
125.3961408278472
 31
0.0
  0
ARC
  5
4AD
  8
11
 10
61.52215434592091
 20
129.06408002057509
 30
0.0
 40
1.361677150941345
 50
110.56882712342269
 51
180.0
  0
ARC
  5
4AE
  8
11
 10
58.57811667222915
 20
122.8009473215986
 30
0.0
 40
1.599259248775871
 50
8.3365879837095758
 51
62.112493665032559
  0
ARC
  5
4AF
  8
11
 10
58.57811667222915
 20
125.6280143296454
 30
0.0
 40
1.599259248775871
 50
297.88750633496738
 51
351.66341201629041
  0
ARC
  5
4B0
  8
11
 10
61.52215434592091
 20
119.3648816306689
 30
0.0
 40
1.361677150941345
 50
180.0
 51
249.43117287657719
  0
LINE
  5
4B1
  8
11
 10
60.160477194979563
 20
148.84082956283169
 30
0.0
 11
60.160477194979563
 21
145.1728903701038
 31
0.0
  0
ARC
  5
4B2
  8
11
 10
58.57811667222915
 20
145.40476387190199
 30
0.0
 40
1.599259248775871
 50
297.88750633496738
 51
351.66341201629041
  0
ARC
  5
4B3
  8
11
 10
58.57811667222915
 20
142.57769686385521
 30
0.0
 40
1.599259248775871
 50
8.3365879837095758
 51
62.112493665032559
  0
LINE
  5
4B4
  8
11
 10
60.160477194979563
 20
139.14163117292551
 30
0.0
 11
60.160477194979563
 21
142.8095703656534
 31
0.0
  0
ARC
  5
4B5
  8
11
 10
61.52215434592091
 20
139.14163117292551
 30
0.0
 40
1.361677150941345
 50
180.0
 51
249.43117287657719
  0
ARC
  5
4B6
  8
11
 10
61.52215434592091
 20
148.84082956283169
 30
0.0
 40
1.361677150941345
 50
110.56882712342269
 51
180.0
  0
ARC
  5
4B7
  8
11
 10
61.52215434592091
 20
168.87922366192069
 30
0.0
 40
1.361677150941345
 50
110.56882712342269
 51
180.0
  0
ARC
  5
4B8
  8
11
 10
61.52215434592091
 20
159.1800252720146
 30
0.0
 40
1.361677150941345
 50
180.0
 51
249.43117287657719
  0
ARC
  5
4B9
  8
11
 10
58.57811667222915
 20
162.6160909629443
 30
0.0
 40
1.599259248775871
 50
8.3365879837095758
 51
62.112493665032559
  0
ARC
  5
4BA
  8
11
 10
58.57811667222915
 20
165.44315797099111
 30
0.0
 40
1.599259248775871
 50
297.88750633496738
 51
351.66341201629041
  0
LINE
  5
4BB
  8
11
 10
60.160477194979563
 20
159.1800252720146
 30
0.0
 11
60.160477194979563
 21
162.84796446474249
 31
0.0
  0
LINE
  5
4BC
  8
11
 10
60.160477194979563
 20
168.87922366192069
 30
0.0
 11
60.160477194979563
 21
165.2112844691928
 31
0.0
  0
LINE
  5
4BD
  8
11
 10
117.3464614191828
 20
226.35193911704641
 30
0.0
 11
117.3464614191828
 21
223.68399992431861
 31
0.0
  0
LINE
  5
4BE
  8
11
 10
117.3464614191828
 20
218.65274072714041
 30
0.0
 11
117.3464614191828
 21
221.32067991986821
 31
0.0
  0
ARC
  5
4BF
  8
11
 10
115.9847842682414
 20
218.65274072714041
 30
0.0
 40
1.361677150941345
 50
290.56882712342269
 51
0.0
  0
ARC
  5
4C0
  8
11
 10
118.92882194193319
 20
223.9158734261168
 30
0.0
 40
1.599259248775871
 50
188.33658798370951
 51
242.1124936650325
  0
ARC
  5
4C1
  8
11
 10
118.92882194193319
 20
221.08880641806999
 30
0.0
 40
1.599259248775871
 50
117.8875063349674
 51
171.66341201629041
  0
ARC
  5
4C2
  8
11
 10
115.9847842682414
 20
226.35193911704641
 30
0.0
 40
1.361677150941345
 50
0.0
 51
69.431172876577222
  0
TEXT
  5
4C3
  8
110
 10
120.30166507627369
 20
221.5876807568886
 30
0.0
 40
2.2000000000000002
  1
V a.c.
  7
ROMANS
  0
LINE
  5
4C4
  8
11
 10
67.575643706318687
 20
169.0083343847474
 30
0.0
 11
68.325643706318687
 21
169.0083343847474
 31
0.0
  0
LINE
  5
4C5
  8
11
 10
66.075643706318687
 20
169.0083343847474
 30
0.0
 11
66.825643706318687
 21
169.0083343847474
 31
0.0
  0
LINE
  5
4C6
  8
11
 10
69.075643706318687
 20
169.0083343847474
 30
0.0
 11
69.825643706318687
 21
169.0083343847474
 31
0.0
  0
LINE
  5
4C7
  8
11
 10
70.575643706318687
 20
169.0083343847474
 30
0.0
 11
71.325643706318687
 21
169.0083343847474
 31
0.0
  0
LINE
  5
4C8
  8
11
 10
72.075643706318687
 20
169.0083343847474
 30
0.0
 11
72.825643706318687
 21
169.0083343847474
 31
0.0
  0
SOLID
  5
4C9
  8
11
 10
69.352092111599831
 20
169.49500105141399
 30
0.0
 11
69.352092111599831
 21
168.52166771808069
 31
0.0
 12
72.272092111599846
 22
169.0083343847474
 32
0.0
 13
72.272092111599846
 23
169.0083343847474
 33
0.0
  0
LINE
  5
4CA
  8
11
 10
66.075643706318687
 20
179.5083343847474
 30
0.0
 11
66.075643706318687
 21
180.2583343847474
 31
0.0
  0
LINE
  5
4CB
  8
11
 10
66.075643706318687
 20
169.0083343847474
 30
0.0
 11
66.075643706318687
 21
169.7583343847474
 31
0.0
  0
LINE
  5
4CC
  8
11
 10
66.075643706318687
 20
170.50833438474729
 30
0.0
 11
66.075643706318687
 21
171.2583343847474
 31
0.0
  0
LINE
  5
4CD
  8
11
 10
66.075643706318687
 20
173.50833438474729
 30
0.0
 11
66.075643706318687
 21
174.25833438474729
 31
0.0
  0
LINE
  5
4CE
  8
11
 10
66.075643706318687
 20
172.0083343847474
 30
0.0
 11
66.075643706318687
 21
172.7583343847474
 31
0.0
  0
LINE
  5
4CF
  8
11
 10
66.075643706318687
 20
175.0083343847474
 30
0.0
 11
66.075643706318687
 21
175.75833438474729
 31
0.0
  0
LINE
  5
4D0
  8
11
 10
66.075643706318687
 20
176.50833438474729
 30
0.0
 11
66.075643706318687
 21
177.2583343847474
 31
0.0
  0
LINE
  5
4D1
  8
11
 10
66.075643706318687
 20
178.0083343847474
 30
0.0
 11
66.075643706318687
 21
178.75833438474729
 31
0.0
  0
LINE
  5
4D2
  8
11
 10
66.075643706318687
 20
181.00833438474729
 30
0.0
 11
66.075643706318687
 21
181.75833438474729
 31
0.0
  0
LINE
  5
4D3
  8
11
 10
108.0756437063186
 20
179.0083343847474
 30
0.0
 11
108.8256437063186
 21
179.0083343847474
 31
0.0
  0
LINE
  5
4D4
  8
11
 10
109.5756437063186
 20
179.0083343847474
 30
0.0
 11
110.3256437063186
 21
179.0083343847474
 31
0.0
  0
LINE
  5
4D5
  8
11
 10
111.0756437063186
 20
179.0083343847474
 30
0.0
 11
111.8256437063186
 21
179.0083343847474
 31
0.0
  0
LINE
  5
4D6
  8
11
 10
114.0756437063186
 20
179.0083343847474
 30
0.0
 11
114.8256437063186
 21
179.0083343847474
 31
0.0
  0
LINE
  5
4D7
  8
11
 10
112.5756437063186
 20
179.0083343847474
 30
0.0
 11
113.3256437063186
 21
179.0083343847474
 31
0.0
  0
SOLID
  5
4D8
  8
11
 10
111.2991953010375
 20
178.52166771808069
 30
0.0
 11
111.2991953010375
 21
179.49500105141399
 31
0.0
 12
108.3791953010375
 22
179.0083343847474
 32
0.0
 13
108.3791953010375
 23
179.0083343847474
 33
0.0
  0
LINE
  5
4D9
  8
11
 10
76.575643706318687
 20
187.7583343847474
 30
0.0
 11
77.325643706318687
 21
187.7583343847474
 31
0.0
  0
LINE
  5
4DA
  8
11
 10
66.075643706318687
 20
187.7583343847474
 30
0.0
 11
66.825643706318687
 21
187.7583343847474
 31
0.0
  0
LINE
  5
4DB
  8
11
 10
67.575643706318687
 20
187.7583343847474
 30
0.0
 11
68.325643706318687
 21
187.7583343847474
 31
0.0
  0
LINE
  5
4DC
  8
11
 10
70.575643706318687
 20
187.7583343847474
 30
0.0
 11
71.325643706318687
 21
187.7583343847474
 31
0.0
  0
LINE
  5
4DD
  8
11
 10
69.075643706318687
 20
187.7583343847474
 30
0.0
 11
69.825643706318687
 21
187.7583343847474
 31
0.0
  0
LINE
  5
4DE
  8
11
 10
72.075643706318687
 20
187.7583343847474
 30
0.0
 11
72.825643706318687
 21
187.7583343847474
 31
0.0
  0
LINE
  5
4DF
  8
11
 10
73.575643706318687
 20
187.7583343847474
 30
0.0
 11
74.325643706318687
 21
187.7583343847474
 31
0.0
  0
LINE
  5
4E0
  8
11
 10
75.075643706318687
 20
187.7583343847474
 30
0.0
 11
75.825643706318687
 21
187.7583343847474
 31
0.0
  0
LINE
  5
4E1
  8
11
 10
84.075643706318687
 20
187.7583343847474
 30
0.0
 11
84.825643706318687
 21
187.7583343847474
 31
0.0
  0
LINE
  5
4E2
  8
11
 10
78.075643706318687
 20
187.7583343847474
 30
0.0
 11
78.825643706318687
 21
187.7583343847474
 31
0.0
  0
LINE
  5
4E3
  8
11
 10
79.575643706318687
 20
187.7583343847474
 30
0.0
 11
80.325643706318687
 21
187.7583343847474
 31
0.0
  0
LINE
  5
4E4
  8
11
 10
82.575643706318687
 20
187.7583343847474
 30
0.0
 11
83.325643706318687
 21
187.7583343847474
 31
0.0
  0
LINE
  5
4E5
  8
11
 10
81.075643706318687
 20
187.7583343847474
 30
0.0
 11
81.825643706318687
 21
187.7583343847474
 31
0.0
  0
LINE
  5
4E6
  8
11
 10
85.575643706318687
 20
187.7583343847474
 30
0.0
 11
86.325643706318687
 21
187.7583343847474
 31
0.0
  0
LINE
  5
4E7
  8
11
 10
87.075643706318687
 20
187.7583343847474
 30
0.0
 11
87.825643706318687
 21
187.7583343847474
 31
0.0
  0
LINE
  5
4E8
  8
11
 10
90.075643706318687
 20
187.7583343847474
 30
0.0
 11
90.825643706318687
 21
187.7583343847474
 31
0.0
  0
LINE
  5
4E9
  8
11
 10
88.575643706318687
 20
187.7583343847474
 30
0.0
 11
89.325643706318687
 21
187.7583343847474
 31
0.0
  0
LINE
  5
4EA
  8
11
 10
91.575643706318687
 20
187.7583343847474
 30
0.0
 11
92.325643706318687
 21
187.7583343847474
 31
0.0
  0
LINE
  5
4EB
  8
11
 10
96.075643706318701
 20
187.7583343847474
 30
0.0
 11
96.825643706318687
 21
187.7583343847474
 31
0.0
  0
LINE
  5
4EC
  8
11
 10
93.075643706318687
 20
187.7583343847474
 30
0.0
 11
93.825643706318687
 21
187.7583343847474
 31
0.0
  0
LINE
  5
4ED
  8
11
 10
94.575643706318687
 20
187.7583343847474
 30
0.0
 11
95.325643706318687
 21
187.7583343847474
 31
0.0
  0
LINE
  5
4EE
  8
11
 10
97.575643706318687
 20
187.7583343847474
 30
0.0
 11
98.325643706318687
 21
187.7583343847474
 31
0.0
  0
LINE
  5
4EF
  8
11
 10
99.075643706318687
 20
187.7583343847474
 30
0.0
 11
99.825643706318701
 21
187.7583343847474
 31
0.0
  0
LINE
  5
4F0
  8
11
 10
102.0756437063186
 20
187.7583343847474
 30
0.0
 11
102.8256437063186
 21
187.7583343847474
 31
0.0
  0
LINE
  5
4F1
  8
11
 10
100.5756437063186
 20
187.7583343847474
 30
0.0
 11
101.3256437063186
 21
187.7583343847474
 31
0.0
  0
LINE
  5
4F2
  8
11
 10
66.075643706318687
 20
182.5083343847474
 30
0.0
 11
66.075643706318687
 21
183.2583343847474
 31
0.0
  0
LINE
  5
4F3
  8
11
 10
66.075643706318687
 20
184.00833438474729
 30
0.0
 11
66.075643706318687
 21
184.7583343847474
 31
0.0
  0
LINE
  5
4F4
  8
11
 10
66.075643706318687
 20
185.50833438474729
 30
0.0
 11
66.075643706318687
 21
186.25833438474729
 31
0.0
  0
LINE
  5
4F5
  8
11
 10
66.075643706318687
 20
187.0083343847474
 30
0.0
 11
66.075643706318687
 21
187.7583343847474
 31
0.0
  0
LINE
  5
4F6
  8
11
 10
103.5756437063186
 20
187.7583343847474
 30
0.0
 11
104.3256437063186
 21
187.7583343847474
 31
0.0
  0
LINE
  5
4F7
  8
11
 10
105.0756437063186
 20
187.7583343847474
 30
0.0
 11
105.8256437063186
 21
187.7583343847474
 31
0.0
  0
LINE
  5
4F8
  8
11
 10
106.5756437063186
 20
187.7583343847474
 30
0.0
 11
107.3256437063186
 21
187.7583343847474
 31
0.0
  0
LINE
  5
4F9
  8
11
 10
108.0756437063186
 20
187.7583343847474
 30
0.0
 11
108.8256437063186
 21
187.7583343847474
 31
0.0
  0
LINE
  5
4FA
  8
11
 10
109.5756437063186
 20
187.7583343847474
 30
0.0
 11
110.3256437063186
 21
187.7583343847474
 31
0.0
  0
LINE
  5
4FB
  8
11
 10
111.0756437063186
 20
187.7583343847474
 30
0.0
 11
111.8256437063186
 21
187.7583343847474
 31
0.0
  0
LINE
  5
4FC
  8
11
 10
112.5756437063186
 20
187.7583343847474
 30
0.0
 11
113.3256437063186
 21
187.7583343847474
 31
0.0
  0
LINE
  5
4FD
  8
11
 10
114.0756437063186
 20
187.7583343847474
 30
0.0
 11
114.8256437063186
 21
187.7583343847474
 31
0.0
  0
LINE
  5
4FE
  8
11
 10
117.3464614191828
 20
179.42341790313941
 30
0.0
 11
117.3464614191828
 21
182.09135709586729
 31
0.0
  0
ARC
  5
4FF
  8
11
 10
115.9847842682414
 20
179.42341790313941
 30
0.0
 40
1.361677150941345
 50
290.56882712342269
 51
0.0
  0
ARC
  5
500
  8
11
 10
115.9847842682414
 20
187.1226162930455
 30
0.0
 40
1.361677150941345
 50
0.0
 51
69.431172876577222
  0
ARC
  5
501
  8
11
 10
118.92882194193319
 20
184.6865506021158
 30
0.0
 40
1.599259248775871
 50
188.33658798370951
 51
242.1124936650325
  0
ARC
  5
502
  8
11
 10
118.92882194193319
 20
181.85948359406899
 30
0.0
 40
1.599259248775871
 50
117.8875063349674
 51
171.66341201629041
  0
LINE
  5
503
  8
11
 10
117.3464614191828
 20
187.1226162930455
 30
0.0
 11
117.3464614191828
 21
184.45467710031761
 31
0.0
  0
TEXT
  5
504
  8
110
 10
120.30166507627369
 20
182.08572743182151
 30
0.0
 40
2.2000000000000002
  1
V d.c.
  7
ROMANS
  0
TEXT
  5
505
  8
108
 10
95.328909380615755
 20
179.57127247171249
 30
0.0
 40
2.149999999999999
  1
A1
 50
0.0000000000000013
  0
TEXT
  5
506
  8
108
 10
102.5792064564811
 20
179.61117663013741
 30
0.0
 40
2.149999999999999
  1
A2
 50
0.0000000000000013
  0
INSERT
  5
507
  8
11
 66
     1
  2
REV4
 10
91.0
 20
266.0
 30
0.0
  0
ATTRIB
  5
508
  8
11
 62
     7
 10
92.0
 20
262.4199999999999
 30
0.0
 40
2.149999999999999
  1
2
 41
0.9
  7
ISO
  2
REVIND
 70
     0
  0
ATTRIB
  5
509
  8
11
 62
     7
 10
102.4999999999999
 20
262.4199999999999
 30
0.0
 40
2.149999999999999
  1
Adjust schema
 41
0.9
  7
ISO
  2
REVTEXT
 70
     0
  0
ATTRIB
  5
50A
  8
11
 62
     7
 10
153.5
 20
262.4199999999999
 30
0.0
 40
2.149999999999999
  1
BL
 41
0.9
  7
ISO
  2
REVAPPD
 70
     0
  0
ATTRIB
  5
50B
  8
11
 62
     7
 10
164.0
 20
262.4199999999999
 30
0.0
 40
2.149999999999999
  1
03   02
 41
0.9
  7
ISO
  2
REVDATE
 70
     0
  0
SEQEND
  5
50C
  8
11
  0
LINE
  5
50D
  8
11
 10
60.45164010029989
 20
222.863468749166
 30
0.0
 11
56.776295501382272
 21
226.02142841721121
 31
0.0
  0
LINE
  5
50E
  8
11
 10
60.45164010029989
 20
222.863468749166
 30
0.0
 11
56.776295501382272
 21
219.70550908112079
 31
0.0
  0
LINE
  5
50F
  8
11
 10
56.776295501382272
 20
219.70550908112079
 30
0.0
 11
56.776295501382272
 21
226.02142841721121
 31
0.0
  0
LINE
  5
510
  8
11
 10
60.45164010029989
 20
183.08700090404861
 30
0.0
 11
56.776295501382272
 21
186.24496057209379
 31
0.0
  0
LINE
  5
511
  8
11
 10
60.45164010029989
 20
183.08700090404861
 30
0.0
 11
56.776295501382272
 21
179.92904123600351
 31
0.0
  0
LINE
  5
512
  8
11
 10
56.776295501382272
 20
179.92904123600351
 30
0.0
 11
56.776295501382272
 21
186.24496057209379
 31
0.0
  0
ENDSEC
  0
EOF
