  0
SECTION
  2
HEADER
  9
$ACADVER
  1
AC1009
  9
$DWGCODEPAGE
  3
iso8859-1
  9
$INSBASE
 10
0.0
 20
0.0
 30
0.0
  9
$EXTMIN
 10
1.0E20
 20
1.0E20
  9
$EXTMAX
 10
-1.0E20
 20
-1.0E20
  9
$LIMMIN
 10
0.0
 20
0.0
  9
$LIMMAX
 10
12.0
 20
9.0
  9
$ORTHOMODE
 70
     0
  9
$REGENMODE
 70
     1
  9
$FILLMODE
 70
     1
  9
$QTEXTMODE
 70
     0
  9
$MIRRTEXT
 70
     1
  9
$DRAGMODE
 70
     2
  9
$LTSCALE
 40
15.0
  9
$OSMODE
 70
     0
  9
$ATTMODE
 70
     1
  9
$TEXTSIZE
 40
0.2
  9
$TRACEWID
 40
0.05
  9
$TEXTSTYLE
  7
STANDARD
  9
$CLAYER
  8
0
  9
$CELTYPE
  6
DASHED
  9
$CECOLOR
 62
   256
  9
$DIMSCALE
 40
1.0
  9
$DIMASZ
 40
0.18
  9
$DIMEXO
 40
0.0625
  9
$DIMDLI
 40
0.38
  9
$DIMRND
 40
0.0
  9
$DIMDLE
 40
0.0
  9
$DIMEXE
 40
0.18
  9
$DIMTP
 40
0.0
  9
$DIMTM
 40
0.0
  9
$DIMTXT
 40
0.18
  9
$DIMCEN
 40
0.09
  9
$DIMTSZ
 40
0.0
  9
$DIMTOL
 70
     0
  9
$DIMLIM
 70
     0
  9
$DIMTIH
 70
     1
  9
$DIMTOH
 70
     1
  9
$DIMSE1
 70
     0
  9
$DIMSE2
 70
     0
  9
$DIMTAD
 70
     0
  9
$DIMZIN
 70
     0
  9
$DIMBLK
  1

  9
$DIMASO
 70
     1
  9
$DIMSHO
 70
     1
  9
$DIMPOST
  1

  9
$DIMAPOST
  1

  9
$DIMALT
 70
     0
  9
$DIMALTD
 70
     2
  9
$DIMALTF
 40
25.4
  9
$DIMLFAC
 40
1.0
  9
$DIMTOFL
 70
     0
  9
$DIMTVP
 40
0.0
  9
$DIMTIX
 70
     0
  9
$DIMSOXD
 70
     0
  9
$DIMSAH
 70
     0
  9
$DIMBLK1
  1

  9
$DIMBLK2
  1

  9
$DIMSTYLE
  2
STANDARD
  9
$DIMCLRD
 70
     0
  9
$DIMCLRE
 70
     0
  9
$DIMCLRT
 70
     0
  9
$DIMTFAC
 40
1.0
  9
$DIMGAP
 40
0.09
  9
$LUNITS
 70
     2
  9
$LUPREC
 70
     4
  9
$AXISMODE
 70
     0
  9
$AXISUNIT
 10
0.0
 20
0.0
  9
$SKETCHINC
 40
0.1
  9
$FILLETRAD
 40
0.0
  9
$AUNITS
 70
     0
  9
$AUPREC
 70
     0
  9
$MENU
  1
acad
  9
$ELEVATION
 40
0.0
  9
$PELEVATION
 40
0.0
  9
$THICKNESS
 40
0.0
  9
$LIMCHECK
 70
     0
  9
$BLIPMODE
 70
     1
  9
$CHAMFERA
 40
0.0
  9
$CHAMFERB
 40
0.0
  9
$SKPOLY
 70
     0
  9
$TDCREATE
 40
0.000000000
  9
$TDUPDATE
 40
0.000000000
  9
$TDINDWG
 40
0.0
  9
$TDUSRTIMER
 40
0.0
  9
$USRTIMER
 70
     1
  9
$ANGBASE
 50
0.0
  9
$ANGDIR
 70
     0
  9
$PDMODE
 70
     0
  9
$PDSIZE
 40
0.0
  9
$PLINEWID
 40
0.0
  9
$COORDS
 70
     1
  9
$SPLFRAME
 70
     0
  9
$SPLINETYPE
 70
     6
  9
$SPLINESEGS
 70
     8
  9
$ATTDIA
 70
     0
  9
$ATTREQ
 70
     1
  9
$HANDLING
 70
     1
  9
$HANDSEED
  5
   845
  9
$SURFTAB1
 70
     6
  9
$SURFTAB2
 70
     6
  9
$SURFTYPE
 70
     6
  9
$SURFU
 70
     6
  9
$SURFV
 70
     6
  9
$UCSNAME
  2

  9
$UCSORG
 10
0.0
 20
0.0
 30
0.0
  9
$UCSXDIR
 10
1.0
 20
0.0
 30
0.0
  9
$UCSYDIR
 10
0.0
 20
1.0
 30
0.0
  9
$PUCSNAME
  2

  9
$PUCSORG
 10
0.0
 20
0.0
 30
0.0
  9
$PUCSXDIR
 10
1.0
 20
0.0
 30
0.0
  9
$PUCSYDIR
 10
0.0
 20
1.0
 30
0.0
  9
$USERI1
 70
     0
  9
$USERI2
 70
     0
  9
$USERI3
 70
     0
  9
$USERI4
 70
     0
  9
$USERI5
 70
     0
  9
$USERR1
 40
0.0
  9
$USERR2
 40
0.0
  9
$USERR3
 40
0.0
  9
$USERR4
 40
0.0
  9
$USERR5
 40
0.0
  9
$WORLDVIEW
 70
     1
  9
$SHADEDGE
 70
     3
  9
$SHADEDIF
 70
    70
  9
$TILEMODE
 70
     1
  9
$MAXACTVP
 70
    16
  9
$PINSBASE
 10
0.0
 20
0.0
 30
0.0
  9
$PLIMCHECK
 70
     0
  9
$PEXTMIN
 10
1.0E20
 20
1.0E20
 30
1.0E20
  9
$PEXTMAX
 10
-1.0E20
 20
-1.0E20
 30
-1.0E20
  9
$PLIMMIN
 10
0.0
 20
0.0
  9
$PLIMMAX
 10
12.0
 20
9.0
  9
$UNITMODE
 70
     0
  9
$VISRETAIN
 70
     0
  0
ENDSEC
  0
SECTION
  2
TABLES
  0
TABLE
  2
VPORT
 70
     1
  0
VPORT
  2
*ACTIVE
 70
     0
 10
0.0
 20
0.0
 11
1.0
 21
1.0
 12
6.801242
 22
4.5
 13
0.0
 23
0.0
 14
1.0
 24
1.0
 15
0.0
 25
0.0
 16
0.0
 26
0.0
 36
1.0
 17
0.0
 27
0.0
 37
0.0
 40
9.0
 41
1.511387
 42
50.0
 43
0.0
 44
0.0
 50
0.0
 51
0.0
 71
     0
 72
   100
 73
     1
 74
     1
 75
     0
 76
     0
 77
     0
 78
     0
  0
ENDTAB
  0
TABLE
  2
LTYPE
 70
    41
  0
LTYPE
  2
BYBLOCK
 70
     0
  3

 72
    65
 73
     0
 40
0.0
  0
LTYPE
  2
BYLAYER
 70
     0
  3

 72
    65
 73
     0
 40
0.0
  0
LTYPE
  2
CONTINUOUS
 70
     0
  3
Solid line
 72
    65
 73
     0
 40
0.0
  0
LTYPE
  2
BORDER
 70
    64
  3
__ __ . __ __ . __ __ . __ __ . __ __ . __ __ .
 72
    65
 73
     6
 40
1.75
 49
0.5
 49
-0.25
 49
0.5
 49
-0.25
 49
0.0
 49
-0.25
  0
LTYPE
  2
BORDER2
 70
    64
  3
__.__.__.__.__.__.__.__.__.__.__.__.__.__.__.__
 72
    65
 73
     6
 40
0.875
 49
0.25
 49
-0.125
 49
0.25
 49
-0.125
 49
0.0
 49
-0.125
  0
LTYPE
  2
BORDERX2
 70
    64
  3
____  ____  .  ____  ____  .  ____  ____  .  __
 72
    65
 73
     6
 40
3.5
 49
1.0
 49
-0.5
 49
1.0
 49
-0.5
 49
0.0
 49
-0.5
  0
LTYPE
  2
CENTER
 70
    64
  3
____ _ ____ _ ____ _ ____ _ ____ _ ____ _ ____
 72
    65
 73
     4
 40
2.0
 49
1.25
 49
-0.25
 49
0.25
 49
-0.25
  0
LTYPE
  2
CENTER2
 70
    64
  3
___ _ ___ _ ___ _ ___ _ ___ _ ___ _ ___ _ ___ _
 72
    65
 73
     4
 40
1.125
 49
0.75
 49
-0.125
 49
0.125
 49
-0.125
  0
LTYPE
  2
CENTERX2
 70
    64
  3
________  __  ________  __  ________  __  _____
 72
    65
 73
     4
 40
4.0
 49
2.5
 49
-0.5
 49
0.5
 49
-0.5
  0
LTYPE
  2
DASHDOT
 70
    64
  3
__ . __ . __ . __ . __ . __ . __ . __ . __ . __
 72
    65
 73
     4
 40
1.0
 49
0.5
 49
-0.25
 49
0.0
 49
-0.25
  0
LTYPE
  2
DASHDOT2
 70
    64
  3
_._._._._._._._._._._._._._._._._._._._._._._._
 72
    65
 73
     4
 40
0.5
 49
0.25
 49
-0.125
 49
0.0
 49
-0.125
  0
LTYPE
  2
DASHDOTX2
 70
    64
  3
____  .  ____  .  ____  .  ____  .  ____  .  __
 72
    65
 73
     4
 40
2.0
 49
1.0
 49
-0.5
 49
0.0
 49
-0.5
  0
LTYPE
  2
DASHED
 70
    64
  3
__ __ __ __ __ __ __ __ __ __ __ __ __ __ __ __
 72
    65
 73
     2
 40
0.75
 49
0.5
 49
-0.25
  0
LTYPE
  2
DASHED2
 70
    64
  3
_ _ _ _ _ _ _ _ _ _ _ _ _ _ _ _ _ _ _ _ _ _ _ _
 72
    65
 73
     2
 40
0.375
 49
0.25
 49
-0.125
  0
LTYPE
  2
DASHEDX2
 70
    64
  3
____  ____  ____  ____  ____  ____  ____  ____
 72
    65
 73
     2
 40
1.5
 49
1.0
 49
-0.5
  0
LTYPE
  2
DIVIDE
 70
    64
  3
____ . . ____ . . ____ . . ____ . . ____ . . __
 72
    65
 73
     6
 40
1.25
 49
0.5
 49
-0.25
 49
0.0
 49
-0.25
 49
0.0
 49
-0.25
  0
LTYPE
  2
DIVIDE2
 70
    64
  3
__..__..__..__..__..__..__..__..__..__..__..__.
 72
    65
 73
     6
 40
0.625
 49
0.25
 49
-0.125
 49
0.0
 49
-0.125
 49
0.0
 49
-0.125
  0
LTYPE
  2
DIVIDEX2
 70
    64
  3
________  .  .  ________  .  .  ________  .  .
 72
    65
 73
     6
 40
2.5
 49
1.0
 49
-0.5
 49
0.0
 49
-0.5
 49
0.0
 49
-0.5
  0
LTYPE
  2
DOT
 70
    64
  3
. . . . . . . . . . . . . . . . . . . . . . . .
 72
    65
 73
     2
 40
0.25
 49
0.0
 49
-0.25
  0
LTYPE
  2
DOT2
 70
    64
  3
...............................................
 72
    65
 73
     2
 40
0.125
 49
0.0
 49
-0.125
  0
LTYPE
  2
DOTX2
 70
    64
  3
.  .  .  .  .  .  .  .  .  .  .  .  .  .  .  .
 72
    65
 73
     2
 40
0.5
 49
0.0
 49
-0.5
  0
LTYPE
  2
HIDDEN
 70
    64
  3
__ __ __ __ __ __ __ __ __ __ __ __ __ __ __ __
 72
    65
 73
     2
 40
0.375
 49
0.25
 49
-0.125
  0
LTYPE
  2
HIDDEN2
 70
    64
  3
_ _ _ _ _ _ _ _ _ _ _ _ _ _ _ _ _ _ _ _ _ _ _ _
 72
    65
 73
     2
 40
0.1875
 49
0.125
 49
-0.0625
  0
LTYPE
  2
HIDDENX2
 70
    64
  3
____ ____ ____ ____ ____ ____ ____ ____ ____ __
 72
    65
 73
     2
 40
0.75
 49
0.5
 49
-0.25
  0
LTYPE
  2
PHANTOM
 70
    64
  3
______  __  __  ______  __  __  ______  __  __
 72
    65
 73
     6
 40
2.5
 49
1.25
 49
-0.25
 49
0.25
 49
-0.25
 49
0.25
 49
-0.25
  0
LTYPE
  2
PHANTOM2
 70
    64
  3
___ _ _ ___ _ _ ___ _ _ ___ _ _ ___ _ _ ___ _ _
 72
    65
 73
     6
 40
1.25
 49
0.625
 49
-0.125
 49
0.125
 49
-0.125
 49
0.125
 49
-0.125
  0
LTYPE
  2
PHANTOMX2
 70
    64
  3
____________    ____    ____    ____________
 72
    65
 73
     6
 40
5.0
 49
2.5
 49
-0.5
 49
0.5
 49
-0.5
 49
0.5
 49
-0.5
  0
LTYPE
  2
ACAD_ISO02W100
 70
    64
  3
__ __ __ __ __ __ __ __ __ __ __ __ __ __ __ __
 72
    65
 73
     2
 40
15.0
 49
12.0
 49
-3.0
  0
LTYPE
  2
ACAD_ISO03W100
 70
    64
  3
__    __    __    __    __    __    __    __
 72
    65
 73
     2
 40
30.0
 49
12.0
 49
-18.0
  0
LTYPE
  2
ACAD_ISO04W100
 70
    64
  3
____ . ____ . ____ . ____ . ____ . ____ . ____
 72
    65
 73
     4
 40
30.5
 49
24.0
 49
-3.0
 49
0.5
 49
-3.0
  0
LTYPE
  2
ACAD_ISO05W100
 70
    64
  3
____ .. ____ .. ____ .. ____ .. ____ .. ____ ..
 72
    65
 73
     6
 40
34.0
 49
24.0
 49
-3.0
 49
0.5
 49
-3.0
 49
0.5
 49
-3.0
  0
LTYPE
  2
ACAD_ISO06W100
 70
    64
  3
____ ... ____ ... ____ ... ____ ... ____ ... __
 72
    65
 73
     8
 40
37.5
 49
24.0
 49
-3.0
 49
0.5
 49
-3.0
 49
0.5
 49
-3.0
 49
0.5
 49
-3.0
  0
LTYPE
  2
ACAD_ISO07W100
 70
    64
  3
. . . . . . . . . . . . . . . . . . . . . . . .
 72
    65
 73
     2
 40
3.5
 49
0.5
 49
-3.0
  0
LTYPE
  2
ACAD_ISO08W100
 70
    64
  3
____ __ ____ __ ____ __ ____ ____ __ __ ____ __
 72
    65
 73
     4
 40
36.0
 49
24.0
 49
-3.0
 49
6.0
 49
-3.0
  0
LTYPE
  2
ACAD_ISO09W100
 70
    64
  3
____ __ __ ____ __ __ ____ __ __ ____ __ __ ___
 72
    65
 73
     6
 40
45.0
 49
24.0
 49
-3.0
 49
6.0
 49
-3.0
 49
6.0
 49
-3.0
  0
LTYPE
  2
ACAD_ISO10W100
 70
    64
  3
__ . __ . __ . __ . __ . __ . __ . __ . __ . __
 72
    65
 73
     4
 40
18.5
 49
12.0
 49
-3.0
 49
0.5
 49
-3.0
  0
LTYPE
  2
ACAD_ISO11W100
 70
    64
  3
__ __ . __ __ . __ __ . __ __ . __ __ . __ __ .
 72
    65
 73
     6
 40
33.5
 49
12.0
 49
-3.0
 49
12.0
 49
-3.0
 49
0.5
 49
-3.0
  0
LTYPE
  2
ACAD_ISO12W100
 70
    64
  3
__ . . __ . . __ . . __ . . __ . . __ . . __ .
 72
    65
 73
     6
 40
22.0
 49
12.0
 49
-3.0
 49
0.5
 49
-3.0
 49
0.5
 49
-3.0
  0
LTYPE
  2
ACAD_ISO13W100
 70
    64
  3
__ __ . . __ __ . . __ __ . . __ __ . . __ __ .
 72
    65
 73
     8
 40
37.0
 49
12.0
 49
-3.0
 49
12.0
 49
-3.0
 49
0.5
 49
-3.0
 49
0.5
 49
-3.0
  0
LTYPE
  2
ACAD_ISO14W100
 70
    64
  3
__ . . . __ . . . __ . . . __ . . . __ . . . __
 72
    65
 73
     8
 40
25.5
 49
12.0
 49
-3.0
 49
0.5
 49
-3.0
 49
0.5
 49
-3.0
 49
0.5
 49
-3.0
  0
LTYPE
  2
ACAD_ISO15W100
 70
    64
  3
__ __ . . . __ __ . . . __ __ . . . __ __ . . .
 72
    65
 73
    10
 40
40.5
 49
12.0
 49
-3.0
 49
12.0
 49
-3.0
 49
0.5
 49
-3.0
 49
0.5
 49
-3.0
 49
0.5
 49
-3.0
  0
ENDTAB
  0
TABLE
  2
STYLE
 70
     4
  0
STYLE
  2
STANDARD
 70
    64
 40
0.0
 41
1.0
 50
0.0
 71
     0
 42
0.2
  3
txt
  4

  0
STYLE
  2
TOLERANCE
 70
    64
 40
0.0
 41
1.0
 50
0.0
 71
     0
 42
0.2
  3
../igesfont/iges1003.shx
  4

  0
STYLE
  2
ROMANS
 70
    64
 40
0.0
 41
1.0
 50
0.0
 71
     0
 42
0.2
  3
romans.shx
  4

  0
STYLE
  2
ROMANC
 70
    64
 40
0.0
 41
1.0
 50
0.0
 71
     0
 42
0.2
  3
romanc.shx
  4

  0
ENDTAB
  0
TABLE
  2
DIMSTYLE
 70
     2
  0
DIMSTYLE
  2
UNNAMED
 70
     0
  3

  4

  5

  6

  7

 40
1.0
 41
0.18
 42
0.0625
 43
0.38
 44
0.18
 45
0.0
 46
0.0
 47
0.0
 48
0.0
140
0.18
141
0.09
142
0.0
143
25.4
144
1.0
145
0.0
146
1.0
147
0.09
 71
     0
 72
     0
 73
     1
 74
     1
 75
     0
 76
     0
 77
     0
 78
     0
170
     0
171
     2
172
     0
173
     0
174
     0
175
     0
176
     0
177
     0
178
     0
  0
DIMSTYLE
  2
STANDARD
 70
     0
  3

  4

  5

  6

  7

 40
1.0
 41
0.18
 42
0.0625
 43
0.38
 44
0.18
 45
0.0
 46
0.0
 47
0.0
 48
0.0
140
0.18
141
0.09
142
0.0
143
25.4
144
1.0
145
0.0
146
1.0
147
0.09
 71
     0
 72
     0
 73
     1
 74
     1
 75
     0
 76
     0
 77
     0
 78
     0
170
     0
171
     2
172
     0
173
     0
174
     0
175
     0
176
     0
177
     0
178
     0
  0
ENDTAB
  0
TABLE
  2
LAYER
 70
     1
  0
LAYER
  2
0
 70
     0
 62
     7
  6
CONTINUOUS
  0
ENDTAB
  0
ENDSEC
  0
SECTION
  2
BLOCKS
  0
BLOCK
  5
     B
  8
0
  6
CONTINUOUS
 62
     7
  2
*HATCH87
 70
    65
 10
0.0
 20
0.0
 30
0.0
  3
*HATCH87
  0
LINE
  5
     C
  8
0
  6
CONTINUOUS
 62
   210
 10
-3.69108244776726E-2
 20
165.5
 30
0.0
 11
2.9523138999939
 21
162.510772705078
 31
0.0
  0
LINE
  5
     D
  8
0
  6
CONTINUOUS
 62
   210
 10
4.20579242706299
 20
165.499938964844
 30
0.0
 11
7.1949520111084
 21
162.510772705078
 31
0.0
  0
LINE
  5
     E
  8
0
  6
CONTINUOUS
 62
   210
 10
7.26335382461548
 20
166.685012817383
 30
0.0
 11
11.1375408172607
 21
162.810821533203
 31
0.0
  0
LINE
  5
     F
  8
0
  6
CONTINUOUS
 62
   210
 10
8.19100952148438
 20
170.0
 30
0.0
 11
10.5168390274048
 21
167.674163818359
 31
0.0
  0
ENDBLK
  5
    10
  8
0
  6
CONTINUOUS
 62
     7
  0
BLOCK
  5
    11
  8
0
  6
CONTINUOUS
 62
     7
  2
*HATCH88
 70
    65
 10
0.0
 20
0.0
 30
0.0
  3
*HATCH88
  0
LINE
  5
    12
  8
0
  6
CONTINUOUS
 62
   210
 10
22.282886505127
 20
175.0
 30
0.0
 11
24.739839553833
 21
172.543045043945
 31
0.0
  0
LINE
  5
    13
  8
0
  6
CONTINUOUS
 62
   210
 10
24.4042053222656
 20
175.0
 30
0.0
 11
29.4041996002197
 21
170.0
 31
0.0
  0
LINE
  5
    14
  8
0
  6
CONTINUOUS
 62
   210
 10
28.646842956543
 20
175.0
 30
0.0
 11
33.6468391418457
 21
170.0
 31
0.0
  0
LINE
  5
    15
  8
0
  6
CONTINUOUS
 62
   210
 10
32.8894805908203
 20
175.0
 30
0.0
 11
37.889476776123
 21
170.0
 31
0.0
  0
LINE
  5
    16
  8
0
  6
CONTINUOUS
 62
   210
 10
37.1321182250977
 20
175.0
 30
0.0
 11
42.1321144104004
 21
170.0
 31
0.0
  0
LINE
  5
    17
  8
0
  6
CONTINUOUS
 62
   210
 10
41.374755859375
 20
175.0
 30
0.0
 11
46.3747520446777
 21
170.0
 31
0.0
  0
LINE
  5
    18
  8
0
  6
CONTINUOUS
 62
   210
 10
45.6173934936523
 20
175.0
 30
0.0
 11
50.6173896789551
 21
170.0
 31
0.0
  0
LINE
  5
    19
  8
0
  6
CONTINUOUS
 62
   210
 10
49.8600311279297
 20
175.0
 30
0.0
 11
54.8600273132324
 21
170.0
 31
0.0
  0
LINE
  5
    1A
  8
0
  6
CONTINUOUS
 62
   210
 10
54.1026725769043
 20
175.0
 30
0.0
 11
55.6382675170898
 21
173.464401245117
 31
0.0
  0
ENDBLK
  5
    1B
  8
0
  6
CONTINUOUS
 62
     7
  0
BLOCK
  5
    1C
  8
0
  6
CONTINUOUS
 62
     2
  2
*HATCH89
 70
    65
 10
0.0
 20
0.0
 30
0.0
  3
*HATCH89
  0
LINE
  5
    1D
  8
0
  6
CONTINUOUS
 62
   210
 10
14.4451389312744
 20
199.0
 30
0.0
 11
11.5500001907349
 21
196.104858398438
 31
0.0
  0
LINE
  5
    1E
  8
0
  6
CONTINUOUS
 62
   210
 10
18.687780380249
 20
199.0
 30
0.0
 11
11.5500001907349
 21
191.862213134766
 31
0.0
  0
LINE
  5
    1F
  8
0
  6
CONTINUOUS
 62
   210
 10
20.5499858856201
 20
196.619567871094
 30
0.0
 11
13.930419921875
 21
190.0
 31
0.0
  0
LINE
  5
    20
  8
0
  6
CONTINUOUS
 62
   210
 10
20.5499858856201
 20
192.376922607422
 30
0.0
 11
18.1730613708496
 21
190.0
 31
0.0
  0
ENDBLK
  5
    21
  8
0
  6
CONTINUOUS
 62
     2
  0
BLOCK
  5
    22
  8
0
  6
CONTINUOUS
 62
     2
  2
*HATCH90
 70
    65
 10
0.0
 20
0.0
 30
0.0
  3
*HATCH90
  0
LINE
  5
    23
  8
0
  6
CONTINUOUS
 62
   210
 10
14.2943811416626
 20
184.0
 30
0.0
 11
11.5500001907349
 21
181.255615234375
 31
0.0
  0
LINE
  5
    24
  8
0
  6
CONTINUOUS
 62
   210
 10
18.5370235443115
 20
184.0
 30
0.0
 11
11.5500001907349
 21
177.012969970703
 31
0.0
  0
LINE
  5
    25
  8
0
  6
CONTINUOUS
 62
   210
 10
20.5499877929687
 20
181.770324707031
 30
0.0
 11
11.5500001907349
 21
172.77033996582
 31
0.0
  0
LINE
  5
    26
  8
0
  6
CONTINUOUS
 62
   210
 10
20.549991607666
 20
177.527679443359
 30
0.0
 11
11.5500001907349
 21
168.527694702148
 31
0.0
  0
LINE
  5
    27
  8
0
  6
CONTINUOUS
 62
   210
 10
20.5499935150146
 20
173.285049438477
 30
0.0
 11
11.3327283859253
 21
164.067779541016
 31
0.0
  0
LINE
  5
    28
  8
0
  6
CONTINUOUS
 62
   210
 10
20.5499973297119
 20
169.042404174805
 30
0.0
 11
14.1683549880981
 21
162.660766601563
 31
0.0
  0
LINE
  5
    29
  8
0
  6
CONTINUOUS
 62
   210
 10
20.5500011444092
 20
164.799758911133
 30
0.0
 11
18.4109954833984
 21
162.660766601563
 31
0.0
  0
ENDBLK
  5
    2A
  8
0
  6
CONTINUOUS
 62
     2
  0
BLOCK
  5
    2B
  8
0
  6
CONTINUOUS
 62
     2
  2
*HATCH91
 70
    65
 10
0.0
 20
0.0
 30
0.0
  3
*HATCH91
  0
LINE
  5
    2C
  8
0
  6
CONTINUOUS
 62
     3
 10
2.22191214561462
 20
191.171905517578
 30
0.0
 11
3.39382290840149
 21
190.0
 31
0.0
  0
LINE
  5
    2D
  8
0
  6
CONTINUOUS
 62
     3
 10
4.01514434814453
 20
191.5
 30
0.0
 11
5.51514148712158
 21
190.0
 31
0.0
  0
LINE
  5
    2E
  8
0
  6
CONTINUOUS
 62
     3
 10
6.1364631652832
 20
191.5
 30
0.0
 11
7.63646030426025
 21
190.0
 31
0.0
  0
LINE
  5
    2F
  8
0
  6
CONTINUOUS
 62
     3
 10
8.25778198242188
 20
191.5
 30
0.0
 11
9.75777912139893
 21
190.0
 31
0.0
  0
LINE
  5
    30
  8
0
  6
CONTINUOUS
 62
     3
 10
10.3791007995605
 20
191.5
 30
0.0
 11
11.8790979385376
 21
190.0
 31
0.0
  0
ENDBLK
  5
    31
  8
0
  6
CONTINUOUS
 62
     2
  0
BLOCK
  5
    32
  8
0
  6
CONTINUOUS
 62
     2
  2
*HATCH92
 70
    65
 10
0.0
 20
0.0
 30
0.0
  3
*HATCH92
  0
LINE
  5
    33
  8
0
  6
CONTINUOUS
 62
     3
 10
3.02985763549805
 20
184.0
 30
0.0
 11
4.52985525131226
 21
182.5
 31
0.0
  0
LINE
  5
    34
  8
0
  6
CONTINUOUS
 62
     3
 10
5.15117645263672
 20
184.0
 30
0.0
 11
6.65117406845093
 21
182.5
 31
0.0
  0
LINE
  5
    35
  8
0
  6
CONTINUOUS
 62
     3
 10
7.27249526977539
 20
184.0
 30
0.0
 11
8.77249240875244
 21
182.5
 31
0.0
  0
LINE
  5
    36
  8
0
  6
CONTINUOUS
 62
     3
 10
9.39381408691406
 20
184.0
 30
0.0
 11
10.8938112258911
 21
182.5
 31
0.0
  0
LINE
  5
    37
  8
0
  6
CONTINUOUS
 62
     3
 10
11.5151309967041
 20
184.0
 30
0.0
 11
12.0500001907349
 21
183.465133666992
 31
0.0
  0
ENDBLK
  5
    38
  8
0
  6
CONTINUOUS
 62
     2
  0
BLOCK
  5
    39
  8
0
  6
CONTINUOUS
 62
     2
  2
*HATCH93
 70
    65
 10
0.0
 20
0.0
 30
0.0
  3
*HATCH93
  0
LINE
  5
    3A
  8
0
  6
CONTINUOUS
 62
     3
 10
2.15654945373535
 20
200.5
 30
0.0
 11
4.99976091086864E-2
 21
198.393447875977
 31
0.0
  0
LINE
  5
    3B
  8
0
  6
CONTINUOUS
 62
     3
 10
4.27786588668823
 20
200.499984741211
 30
0.0
 11
2.27785897254944
 21
198.499984741211
 31
0.0
  0
LINE
  5
    3C
  8
0
  6
CONTINUOUS
 62
     3
 10
5.33852386474609
 20
200.499984741211
 30
0.0
 11
3.33851957321167
 21
198.499984741211
 31
0.0
  0
LINE
  5
    3D
  8
0
  6
CONTINUOUS
 62
     3
 10
6.39918231964111
 20
200.499984741211
 30
0.0
 11
4.39917993545532
 21
198.499984741211
 31
0.0
  0
LINE
  5
    3E
  8
0
  6
CONTINUOUS
 62
     3
 10
7.45984077453613
 20
200.499984741211
 30
0.0
 11
5.45984029769897
 21
198.499984741211
 31
0.0
  0
LINE
  5
    3F
  8
0
  6
CONTINUOUS
 62
     3
 10
8.52049922943115
 20
200.499984741211
 30
0.0
 11
6.52050065994263
 21
198.499984741211
 31
0.0
  0
LINE
  5
    40
  8
0
  6
CONTINUOUS
 62
     3
 10
9.58115673065186
 20
200.499984741211
 30
0.0
 11
7.58116149902344
 21
198.499984741211
 31
0.0
  0
LINE
  5
    41
  8
0
  6
CONTINUOUS
 62
     3
 10
10.6418151855469
 20
200.499984741211
 30
0.0
 11
8.64182186126709
 21
198.499984741211
 31
0.0
  0
LINE
  5
    42
  8
0
  6
CONTINUOUS
 62
     3
 10
11.7024736404419
 20
200.499969482422
 30
0.0
 11
9.70248222351074
 21
198.499984741211
 31
0.0
  0
LINE
  5
    43
  8
0
  6
CONTINUOUS
 62
     3
 10
2.04999971389771
 20
190.847503662109
 30
0.0
 11
1.70249402523041
 21
190.5
 31
0.0
  0
LINE
  5
    44
  8
0
  6
CONTINUOUS
 62
     3
 10
12.7631320953369
 20
200.499969482422
 30
0.0
 11
11.7631435394287
 21
199.499984741211
 31
0.0
  0
LINE
  5
    45
  8
0
  6
CONTINUOUS
 62
     3
 10
5.42884683609009
 20
193.16569519043
 30
0.0
 11
3.76315402984619
 21
191.5
 31
0.0
  0
LINE
  5
    46
  8
0
  6
CONTINUOUS
 62
     3
 10
13.0499925613403
 20
199.726181030273
 30
0.0
 11
12.8238124847412
 21
199.5
 31
0.0
  0
LINE
  5
    47
  8
0
  6
CONTINUOUS
 62
     3
 10
1.05000126361847
 20
187.726181030273
 30
0.0
 11
0.049999475479126
 21
186.726181030273
 31
0.0
  0
LINE
  5
    48
  8
0
  6
CONTINUOUS
 62
     3
 10
1.05000138282776
 20
186.66552734375
 30
0.0
 11
4.99996468424797E-2
 21
185.66552734375
 31
0.0
  0
LINE
  5
    49
  8
0
  6
CONTINUOUS
 62
     3
 10
1.05000150203705
 20
185.604873657227
 30
0.0
 11
4.99998182058334E-2
 21
184.604873657227
 31
0.0
  0
LINE
  5
    4A
  8
0
  6
CONTINUOUS
 62
     3
 10
1.05000162124634
 20
184.544219970703
 30
0.0
 11
4.99999895691872E-2
 21
183.544219970703
 31
0.0
  0
LINE
  5
    4B
  8
0
  6
CONTINUOUS
 62
     3
 10
1.06645560264587
 20
183.5
 30
0.0
 11
5.00001572072506E-2
 21
182.483535766602
 31
0.0
  0
LINE
  5
    4C
  8
0
  6
CONTINUOUS
 62
     3
 10
2.04999995231628
 20
183.422882080078
 30
0.0
 11
0.050000324845314
 21
181.422882080078
 31
0.0
  0
LINE
  5
    4D
  8
0
  6
CONTINUOUS
 62
     3
 10
2.36888837814331
 20
182.681106567383
 30
0.0
 11
5.00004962086678E-2
 21
180.362228393555
 31
0.0
  0
LINE
  5
    4E
  8
0
  6
CONTINUOUS
 62
     3
 10
4.30909824371338
 20
182.5
 30
0.0
 11
2.63195157051086
 21
180.822860717773
 31
0.0
  0
LINE
  5
    4F
  8
0
  6
CONTINUOUS
 62
     3
 10
5.36975908279419
 20
182.5
 30
0.0
 11
3.68893575668335
 21
180.819183349609
 31
0.0
  0
LINE
  5
    50
  8
0
  6
CONTINUOUS
 62
     3
 10
6.430419921875
 20
182.5
 30
0.0
 11
4.74591970443726
 21
180.815505981445
 31
0.0
  0
LINE
  5
    51
  8
0
  6
CONTINUOUS
 62
     3
 10
7.49108123779297
 20
182.5
 30
0.0
 11
5.80290365219116
 21
180.811828613281
 31
0.0
  0
LINE
  5
    52
  8
0
  6
CONTINUOUS
 62
     3
 10
8.55174255371094
 20
182.5
 30
0.0
 11
6.85988759994507
 21
180.808151245117
 31
0.0
  0
LINE
  5
    53
  8
0
  6
CONTINUOUS
 62
     3
 10
9.61240386962891
 20
182.5
 30
0.0
 11
7.91687154769897
 21
180.804473876953
 31
0.0
  0
LINE
  5
    54
  8
0
  6
CONTINUOUS
 62
     3
 10
10.6730651855469
 20
182.5
 30
0.0
 11
8.97385597229004
 21
180.800796508789
 31
0.0
  0
LINE
  5
    55
  8
0
  6
CONTINUOUS
 62
     3
 10
11.5500001907349
 20
182.316284179688
 30
0.0
 11
10.0308399200439
 21
180.797119140625
 31
0.0
  0
LINE
  5
    56
  8
0
  6
CONTINUOUS
 62
     3
 10
11.5500001907349
 20
181.255630493164
 30
0.0
 11
11.0878238677979
 21
180.793441772461
 31
0.0
  0
LINE
  5
    57
  8
0
  6
CONTINUOUS
 62
     3
 10
10.8550405502319
 20
179.5
 30
0.0
 11
8.85503959655762
 21
177.5
 31
0.0
  0
LINE
  5
    58
  8
0
  6
CONTINUOUS
 62
     3
 10
11.5500001907349
 20
178.073638916016
 30
0.0
 11
10.9763612747192
 21
177.5
 31
0.0
  0
ENDBLK
  5
    59
  8
0
  6
CONTINUOUS
 62
     2
  0
BLOCK
  5
    5A
  8
0
  6
CONTINUOUS
 62
     7
  2
*HATCH94
 70
    65
 10
0.0
 20
0.0
 30
0.0
  3
*HATCH94
  0
LINE
  5
    5B
  8
0
  6
CONTINUOUS
 62
     3
 10
2.19918513298035
 20
-56.9999961853027
 30
0.0
 11
3.69918298721313
 21
-58.4999961853027
 31
0.0
  0
LINE
  5
    5C
  8
0
  6
CONTINUOUS
 62
     3
 10
4.32050514221191
 20
-56.9999961853027
 30
0.0
 11
5.82050275802612
 21
-58.4999961853027
 31
0.0
  0
LINE
  5
    5D
  8
0
  6
CONTINUOUS
 62
     3
 10
6.4418249130249
 20
-56.9999961853027
 30
0.0
 11
7.94182252883911
 21
-58.4999961853027
 31
0.0
  0
LINE
  5
    5E
  8
0
  6
CONTINUOUS
 62
     3
 10
8.56314468383789
 20
-56.9999961853027
 30
0.0
 11
10.0631427764893
 21
-58.4999961853027
 31
0.0
  0
LINE
  5
    5F
  8
0
  6
CONTINUOUS
 62
     3
 10
10.6844635009766
 20
-57.0
 30
0.0
 11
11.8672294616699
 21
-58.1827659606934
 31
0.0
  0
ENDBLK
  5
    60
  8
0
  6
CONTINUOUS
 62
     7
  0
BLOCK
  5
    61
  8
0
  6
CONTINUOUS
 62
     7
  2
*HATCH95
 70
    65
 10
0.0
 20
0.0
 30
0.0
  3
*HATCH95
  0
LINE
  5
    62
  8
0
  6
CONTINUOUS
 62
     3
 10
2.33690619468689
 20
-49.7130928039551
 30
0.0
 11
3.62381052970886
 21
-51.0
 31
0.0
  0
LINE
  5
    63
  8
0
  6
CONTINUOUS
 62
     3
 10
4.24513149261475
 20
-49.5
 30
0.0
 11
5.74513006210327
 21
-51.0
 31
0.0
  0
LINE
  5
    64
  8
0
  6
CONTINUOUS
 62
     3
 10
6.36645030975342
 20
-49.5
 30
0.0
 11
7.86644983291626
 21
-51.0
 31
0.0
  0
LINE
  5
    65
  8
0
  6
CONTINUOUS
 62
     3
 10
8.48776912689209
 20
-49.5
 30
0.0
 11
9.98777008056641
 21
-51.0
 31
0.0
  0
LINE
  5
    66
  8
0
  6
CONTINUOUS
 62
     3
 10
10.6090898513794
 20
-49.5
 30
0.0
 11
12.0500011444092
 21
-50.9409141540527
 31
0.0
  0
ENDBLK
  5
    67
  8
0
  6
CONTINUOUS
 62
     7
  0
BLOCK
  5
    68
  8
0
  6
CONTINUOUS
 62
     7
  2
*HATCH96
 70
    65
 10
0.0
 20
0.0
 30
0.0
  3
*HATCH96
  0
LINE
  5
    69
  8
0
  6
CONTINUOUS
 62
     3
 10
2.33690619468689
 20
-49.7130928039551
 30
0.0
 11
3.62381052970886
 21
-51.0
 31
0.0
  0
LINE
  5
    6A
  8
0
  6
CONTINUOUS
 62
     3
 10
4.24513149261475
 20
-49.5
 30
0.0
 11
5.74513006210327
 21
-51.0
 31
0.0
  0
LINE
  5
    6B
  8
0
  6
CONTINUOUS
 62
     3
 10
6.36645030975342
 20
-49.5
 30
0.0
 11
7.86644983291626
 21
-51.0
 31
0.0
  0
LINE
  5
    6C
  8
0
  6
CONTINUOUS
 62
     3
 10
8.48776912689209
 20
-49.5
 30
0.0
 11
9.98777008056641
 21
-51.0
 31
0.0
  0
LINE
  5
    6D
  8
0
  6
CONTINUOUS
 62
     3
 10
10.6090898513794
 20
-49.5
 30
0.0
 11
12.0500011444092
 21
-50.9409141540527
 31
0.0
  0
ENDBLK
  5
    6E
  8
0
  6
CONTINUOUS
 62
     7
  0
BLOCK
  5
    6F
  8
0
  6
CONTINUOUS
 62
     7
  2
*HATCH97
 70
    65
 10
0.0
 20
0.0
 30
0.0
  3
*HATCH97
  0
LINE
  5
    70
  8
0
  6
CONTINUOUS
 62
     3
 10
2.16904735565186
 20
-44.5
 30
0.0
 11
0.050000611692667
 21
-46.6190452575684
 31
0.0
  0
LINE
  5
    71
  8
0
  6
CONTINUOUS
 62
     3
 10
4.290367603302
 20
-44.5
 30
0.0
 11
2.29036784172058
 21
-46.5
 31
0.0
  0
LINE
  5
    72
  8
0
  6
CONTINUOUS
 62
     3
 10
5.3510274887085
 20
-44.5
 30
0.0
 11
3.35102772712708
 21
-46.5
 31
0.0
  0
LINE
  5
    73
  8
0
  6
CONTINUOUS
 62
     3
 10
6.41168737411499
 20
-44.5
 30
0.0
 11
4.41168785095215
 21
-46.5
 31
0.0
  0
LINE
  5
    74
  8
0
  6
CONTINUOUS
 62
     3
 10
7.47234725952148
 20
-44.5
 30
0.0
 11
5.47234773635864
 21
-46.5
 31
0.0
  0
LINE
  5
    75
  8
0
  6
CONTINUOUS
 62
     3
 10
1.05000174045563
 20
-50.9223442077637
 30
0.0
 11
4.99997660517693E-2
 21
-51.9223480224609
 31
0.0
  0
LINE
  5
    76
  8
0
  6
CONTINUOUS
 62
     3
 10
5.21915149688721
 20
-47.8138542175293
 30
0.0
 11
3.53300762176514
 21
-49.5
 31
0.0
  0
LINE
  5
    77
  8
0
  6
CONTINUOUS
 62
     3
 10
9.59366607666016
 20
-44.5
 30
0.0
 11
7.59366750717163
 21
-46.5
 31
0.0
  0
LINE
  5
    78
  8
0
  6
CONTINUOUS
 62
     3
 10
1.05000150203705
 20
-53.0436668395996
 30
0.0
 11
4.99994233250618E-2
 21
-54.0436668395996
 31
0.0
  0
LINE
  5
    79
  8
0
  6
CONTINUOUS
 62
     3
 10
7.34787559509277
 20
-47.806453704834
 30
0.0
 11
5.65432643890381
 21
-49.5
 31
0.0
  0
LINE
  5
    7A
  8
0
  6
CONTINUOUS
 62
     3
 10
11.5500001907349
 20
-44.6649894714356
 30
0.0
 11
9.71498680114746
 21
-46.5
 31
0.0
  0
LINE
  5
    7B
  8
0
  6
CONTINUOUS
 62
     3
 10
1.05000126361847
 20
-55.1649856567383
 30
0.0
 11
4.99990843236446E-2
 21
-56.1649894714355
 31
0.0
  0
LINE
  5
    7C
  8
0
  6
CONTINUOUS
 62
     3
 10
9.47660064697266
 20
-47.7990493774414
 30
0.0
 11
7.77564525604248
 21
-49.5
 31
0.0
  0
LINE
  5
    7D
  8
0
  6
CONTINUOUS
 62
     3
 10
10.5409622192383
 20
-47.7953453063965
 30
0.0
 11
8.83630466461182
 21
-49.5000038146973
 31
0.0
  0
LINE
  5
    7E
  8
0
  6
CONTINUOUS
 62
     3
 10
11.5500011444092
 20
-47.8469657897949
 30
0.0
 11
9.89696407318115
 21
-49.5000038146973
 31
0.0
  0
LINE
  5
    7F
  8
0
  6
CONTINUOUS
 62
     3
 10
11.5500001907349
 20
-48.9076271057129
 30
0.0
 11
10.9576234817505
 21
-49.5000038146973
 31
0.0
  0
LINE
  5
    80
  8
0
  6
CONTINUOUS
 62
     3
 10
3.01829099655151
 20
-58.4999961853027
 30
0.0
 11
4.99982349574566E-2
 21
-61.4682884216309
 31
0.0
  0
LINE
  5
    81
  8
0
  6
CONTINUOUS
 62
     3
 10
2.05000019073486
 20
-60.5289459228516
 30
0.0
 11
4.99980673193932E-2
 21
-62.5289497375488
 31
0.0
  0
LINE
  5
    82
  8
0
  6
CONTINUOUS
 62
     3
 10
2.05000042915344
 20
-61.5896072387695
 30
0.0
 11
4.99978959560394E-2
 21
-63.5896110534668
 31
0.0
  0
LINE
  5
    83
  8
0
  6
CONTINUOUS
 62
     3
 10
2.05000066757202
 20
-62.6502685546875
 30
0.0
 11
4.99977245926857E-2
 21
-64.6502685546875
 31
0.0
  0
LINE
  5
    84
  8
0
  6
CONTINUOUS
 62
     3
 10
2.0500009059906
 20
-63.7109298706055
 30
0.0
 11
0.049997553229332
 21
-65.7109298706055
 31
0.0
  0
LINE
  5
    85
  8
0
  6
CONTINUOUS
 62
     3
 10
2.05000114440918
 20
-64.7715911865234
 30
0.0
 11
4.99973818659782E-2
 21
-66.7715911865234
 31
0.0
  0
LINE
  5
    86
  8
0
  6
CONTINUOUS
 62
     3
 10
2.38226532936096
 20
-65.4999847412109
 30
0.0
 11
0.382251262664795
 21
-67.5
 31
0.0
  0
LINE
  5
    87
  8
0
  6
CONTINUOUS
 62
     3
 10
3.44292521476746
 20
-65.4999847412109
 30
0.0
 11
1.44291341304779
 21
-67.5
 31
0.0
  0
LINE
  5
    88
  8
0
  6
CONTINUOUS
 62
     3
 10
4.50358486175537
 20
-65.4999847412109
 30
0.0
 11
2.50357556343079
 21
-67.5
 31
0.0
  0
LINE
  5
    89
  8
0
  6
CONTINUOUS
 62
     3
 10
5.56424522399902
 20
-65.4999847412109
 30
0.0
 11
3.56423783302307
 21
-67.4999923706055
 31
0.0
  0
LINE
  5
    8A
  8
0
  6
CONTINUOUS
 62
     3
 10
7.68556499481201
 20
-65.4999847412109
 30
0.0
 11
5.68556213378906
 21
-67.4999923706055
 31
0.0
  0
LINE
  5
    8B
  8
0
  6
CONTINUOUS
 62
     3
 10
9.806884765625
 20
-65.4999847412109
 30
0.0
 11
7.80688667297363
 21
-67.4999923706055
 31
0.0
  0
LINE
  5
    8C
  8
0
  6
CONTINUOUS
 62
     3
 10
11.5499963760376
 20
-65.8781967163086
 30
0.0
 11
9.9282112121582
 21
-67.4999771118164
 31
0.0
  0
LINE
  5
    8D
  8
0
  6
CONTINUOUS
 62
     3
 10
13.0495147705078
 20
-66.4999923706055
 30
0.0
 11
12.0495357513428
 21
-67.4999771118164
 31
0.0
  0
ENDBLK
  5
    8E
  8
0
  6
CONTINUOUS
 62
     7
  0
BLOCK
  5
    8F
  8
0
  6
CONTINUOUS
 62
     7
  2
*HATCH98
 70
    65
 10
0.0
 20
0.0
 30
0.0
  3
*HATCH98
  0
LINE
  5
    90
  8
0
  6
CONTINUOUS
 62
   210
 10
15.2756481170654
 20
-42.0
 30
0.0
 11
11.4999847412109
 21
-45.7756614685059
 31
0.0
  0
LINE
  5
    91
  8
0
  6
CONTINUOUS
 62
   210
 10
17.4999847412109
 20
-44.0183029174805
 30
0.0
 11
11.7841444015503
 21
-49.7341461181641
 31
0.0
  0
LINE
  5
    92
  8
0
  6
CONTINUOUS
 62
   210
 10
17.4999847412109
 20
-48.2609443664551
 30
0.0
 11
15.0109281539917
 21
-50.75
 31
0.0
  0
ENDBLK
  5
    93
  8
0
  6
CONTINUOUS
 62
     7
  0
BLOCK
  5
    94
  8
0
  6
CONTINUOUS
 62
     7
  2
*HATCH99
 70
    65
 10
0.0
 20
0.0
 30
0.0
  3
*HATCH99
  0
LINE
  5
    95
  8
0
  6
CONTINUOUS
 62
   210
 10
14.8748893737793
 20
-57.25
 30
0.0
 11
11.5360698699951
 21
-60.5888214111328
 31
0.0
  0
LINE
  5
    96
  8
0
  6
CONTINUOUS
 62
   210
 10
17.4999847412109
 20
-58.867546081543
 30
0.0
 11
11.5075874328613
 21
-64.8599395751953
 31
0.0
  0
LINE
  5
    97
  8
0
  6
CONTINUOUS
 62
   210
 10
17.4999847412109
 20
-63.1101837158203
 30
0.0
 11
14.6101713180542
 21
-66.0
 31
0.0
  0
ENDBLK
  5
    98
  8
0
  6
CONTINUOUS
 62
     7
  0
BLOCK
  5
    99
  8
0
  6
CONTINUOUS
 62
     7
  2
*HATCH100
 70
    65
 10
0.0
 20
0.0
 30
0.0
  3
*HATCH100
  0
LINE
  5
    9A
  8
0
  6
CONTINUOUS
 62
   210
 10
17.4999847412109
 20
-47.1985092163086
 30
0.0
 11
20.4999847412109
 21
-50.1985130310059
 31
0.0
  0
LINE
  5
    9B
  8
0
  6
CONTINUOUS
 62
   210
 10
17.4999847412109
 20
-42.9558639526367
 30
0.0
 11
20.4999847412109
 21
-45.955867767334
 31
0.0
  0
ENDBLK
  5
    9C
  8
0
  6
CONTINUOUS
 62
     7
  0
BLOCK
  5
    9D
  8
0
  6
CONTINUOUS
 62
     7
  2
*HATCH101
 70
    65
 10
0.0
 20
0.0
 30
0.0
  3
*HATCH101
  0
LINE
  5
    9E
  8
0
  6
CONTINUOUS
 62
   210
 10
17.4999847412109
 20
-62.0477600097656
 30
0.0
 11
20.4999847412109
 21
-65.0477676391602
 31
0.0
  0
LINE
  5
    9F
  8
0
  6
CONTINUOUS
 62
   210
 10
17.4999847412109
 20
-57.8051147460938
 30
0.0
 11
20.4999847412109
 21
-60.8051223754883
 31
0.0
  0
ENDBLK
  5
    A0
  8
0
  6
CONTINUOUS
 62
     7
  0
BLOCK
  5
    A1
  8
0
  6
CONTINUOUS
 62
     7
  2
*HATCH102
 70
    65
 10
0.0
 20
0.0
 30
0.0
  3
*HATCH102
  0
LINE
  5
    A2
  8
0
  6
CONTINUOUS
 62
    52
 10
105.836601257324
 20
228.873168945313
 30
0.0
 11
104.499938964844
 21
227.536499023438
 31
0.0
  0
LINE
  5
    A3
  8
0
  6
CONTINUOUS
 62
    52
 10
106.499938964844
 20
225.293869018555
 30
0.0
 11
104.499938964844
 21
223.293869018555
 31
0.0
  0
LINE
  5
    A4
  8
0
  6
CONTINUOUS
 62
    52
 10
106.499938964844
 20
221.051223754883
 30
0.0
 11
104.499938964844
 21
219.051223754883
 31
0.0
  0
LINE
  5
    A5
  8
0
  6
CONTINUOUS
 62
    52
 10
106.499938964844
 20
216.808578491211
 30
0.0
 11
104.499938964844
 21
214.808578491211
 31
0.0
  0
LINE
  5
    A6
  8
0
  6
CONTINUOUS
 62
    52
 10
106.499938964844
 20
212.565933227539
 30
0.0
 11
104.499938964844
 21
210.565933227539
 31
0.0
  0
LINE
  5
    A7
  8
0
  6
CONTINUOUS
 62
    52
 10
106.499938964844
 20
208.323287963867
 30
0.0
 11
104.499938964844
 21
206.323287963867
 31
0.0
  0
LINE
  5
    A8
  8
0
  6
CONTINUOUS
 62
    52
 10
106.499938964844
 20
204.080642700195
 30
0.0
 11
104.499938964844
 21
202.080642700195
 31
0.0
  0
LINE
  5
    A9
  8
0
  6
CONTINUOUS
 62
    52
 10
106.499938964844
 20
199.837997436523
 30
0.0
 11
104.499938964844
 21
197.837997436523
 31
0.0
  0
LINE
  5
    AA
  8
0
  6
CONTINUOUS
 62
    52
 10
106.499938964844
 20
195.595352172852
 30
0.0
 11
104.499938964844
 21
193.595352172852
 31
0.0
  0
LINE
  5
    AB
  8
0
  6
CONTINUOUS
 62
    52
 10
106.499938964844
 20
191.35270690918
 30
0.0
 11
104.499938964844
 21
189.35270690918
 31
0.0
  0
LINE
  5
    AC
  8
0
  6
CONTINUOUS
 62
    52
 10
106.499938964844
 20
187.110061645508
 30
0.0
 11
104.499938964844
 21
185.110061645508
 31
0.0
  0
LINE
  5
    AD
  8
0
  6
CONTINUOUS
 62
    52
 10
106.499938964844
 20
182.867416381836
 30
0.0
 11
104.499938964844
 21
180.867416381836
 31
0.0
  0
LINE
  5
    AE
  8
0
  6
CONTINUOUS
 62
    52
 10
106.499938964844
 20
178.624771118164
 30
0.0
 11
104.499938964844
 21
176.624771118164
 31
0.0
  0
LINE
  5
    AF
  8
0
  6
CONTINUOUS
 62
    52
 10
106.499938964844
 20
174.382125854492
 30
0.0
 11
104.499938964844
 21
172.382125854492
 31
0.0
  0
LINE
  5
    B0
  8
0
  6
CONTINUOUS
 62
    52
 10
106.499938964844
 20
170.13948059082
 30
0.0
 11
104.499938964844
 21
168.13948059082
 31
0.0
  0
LINE
  5
    B1
  8
0
  6
CONTINUOUS
 62
    52
 10
106.499938964844
 20
165.896835327148
 30
0.0
 11
104.499938964844
 21
163.896835327148
 31
0.0
  0
LINE
  5
    B2
  8
0
  6
CONTINUOUS
 62
    52
 10
106.499938964844
 20
161.654190063477
 30
0.0
 11
104.499938964844
 21
159.654190063477
 31
0.0
  0
LINE
  5
    B3
  8
0
  6
CONTINUOUS
 62
    52
 10
106.499938964844
 20
157.411544799805
 30
0.0
 11
104.499938964844
 21
155.411544799805
 31
0.0
  0
LINE
  5
    B4
  8
0
  6
CONTINUOUS
 62
    52
 10
106.499938964844
 20
153.168899536133
 30
0.0
 11
104.499938964844
 21
151.168899536133
 31
0.0
  0
ENDBLK
  5
    B5
  8
0
  6
CONTINUOUS
 62
     7
  0
BLOCK
  5
    B6
  8
0
  6
CONTINUOUS
 62
     7
  2
*HATCH103
 70
    65
 10
0.0
 20
0.0
 30
0.0
  3
*HATCH103
  0
LINE
  5
    B7
  8
0
  6
CONTINUOUS
 62
    52
 10
106.499938964844
 20
142.562377929688
 30
0.0
 11
104.499938964844
 21
140.562377929688
 31
0.0
  0
LINE
  5
    B8
  8
0
  6
CONTINUOUS
 62
    52
 10
106.499938964844
 20
138.319732666016
 30
0.0
 11
104.499938964844
 21
136.319732666016
 31
0.0
  0
LINE
  5
    B9
  8
0
  6
CONTINUOUS
 62
    52
 10
106.499938964844
 20
134.077087402344
 30
0.0
 11
104.499938964844
 21
132.077087402344
 31
0.0
  0
ENDBLK
  5
    BA
  8
0
  6
CONTINUOUS
 62
     7
  0
BLOCK
  5
    BB
  8
0
  6
CONTINUOUS
 62
     7
  2
*HATCH104
 70
    65
 10
0.0
 20
0.0
 30
0.0
  3
*HATCH104
  0
LINE
  5
    BC
  8
0
  6
CONTINUOUS
 62
    52
 10
106.499938964844
 20
17.4044799804688
 30
0.0
 11
104.499938964844
 21
15.4044799804688
 31
0.0
  0
LINE
  5
    BD
  8
0
  6
CONTINUOUS
 62
    52
 10
106.499938964844
 20
13.1618385314941
 30
0.0
 11
104.499938964844
 21
11.1618385314941
 31
0.0
  0
LINE
  5
    BE
  8
0
  6
CONTINUOUS
 62
    52
 10
106.499938964844
 20
8.91919898986816
 30
0.0
 11
105.330741882324
 21
7.75
 31
0.0
  0
ENDBLK
  5
    BF
  8
0
  6
CONTINUOUS
 62
     7
  0
BLOCK
  5
    C0
  8
0
  6
CONTINUOUS
 62
     7
  2
*HATCH105
 70
    65
 10
0.0
 20
0.0
 30
0.0
  3
*HATCH105
  0
LINE
  5
    C1
  8
0
  6
CONTINUOUS
 62
    52
 10
106.499938964844
 20
0.433917760848999
 30
0.0
 11
104.499938964844
 21
-1.56608211994171
 31
0.0
  0
LINE
  5
    C2
  8
0
  6
CONTINUOUS
 62
    52
 10
106.499938964844
 20
-3.80872273445129
 30
0.0
 11
104.499938964844
 21
-5.80872249603271
 31
0.0
  0
LINE
  5
    C3
  8
0
  6
CONTINUOUS
 62
    52
 10
106.499938964844
 20
-8.05136299133301
 30
0.0
 11
104.499938964844
 21
-10.051362991333
 31
0.0
  0
LINE
  5
    C4
  8
0
  6
CONTINUOUS
 62
    52
 10
106.499938964844
 20
-12.2940044403076
 30
0.0
 11
104.499938964844
 21
-14.2940044403076
 31
0.0
  0
LINE
  5
    C5
  8
0
  6
CONTINUOUS
 62
    52
 10
106.499938964844
 20
-16.5366458892822
 30
0.0
 11
104.499938964844
 21
-18.5366458892822
 31
0.0
  0
LINE
  5
    C6
  8
0
  6
CONTINUOUS
 62
    52
 10
106.499938964844
 20
-20.7792873382568
 30
0.0
 11
104.499938964844
 21
-22.7792873382568
 31
0.0
  0
LINE
  5
    C7
  8
0
  6
CONTINUOUS
 62
    52
 10
106.499938964844
 20
-25.0219287872314
 30
0.0
 11
104.499938964844
 21
-27.0219287872314
 31
0.0
  0
LINE
  5
    C8
  8
0
  6
CONTINUOUS
 62
    52
 10
106.499938964844
 20
-29.2645702362061
 30
0.0
 11
104.499938964844
 21
-31.2645702362061
 31
0.0
  0
LINE
  5
    C9
  8
0
  6
CONTINUOUS
 62
    52
 10
106.499938964844
 20
-33.507209777832
 30
0.0
 11
104.499938964844
 21
-35.507209777832
 31
0.0
  0
LINE
  5
    CA
  8
0
  6
CONTINUOUS
 62
    52
 10
106.499938964844
 20
-37.7498474121094
 30
0.0
 11
104.499938964844
 21
-39.7498474121094
 31
0.0
  0
LINE
  5
    CB
  8
0
  6
CONTINUOUS
 62
    52
 10
106.499938964844
 20
-41.9924850463867
 30
0.0
 11
104.499938964844
 21
-43.9924850463867
 31
0.0
  0
LINE
  5
    CC
  8
0
  6
CONTINUOUS
 62
    52
 10
106.499938964844
 20
-46.2351226806641
 30
0.0
 11
104.499938964844
 21
-48.2351226806641
 31
0.0
  0
LINE
  5
    CD
  8
0
  6
CONTINUOUS
 62
    52
 10
106.499938964844
 20
-50.4777603149414
 30
0.0
 11
104.499938964844
 21
-52.4777603149414
 31
0.0
  0
LINE
  5
    CE
  8
0
  6
CONTINUOUS
 62
    52
 10
106.499938964844
 20
-54.7203979492188
 30
0.0
 11
104.499938964844
 21
-56.7203979492188
 31
0.0
  0
LINE
  5
    CF
  8
0
  6
CONTINUOUS
 62
    52
 10
106.499938964844
 20
-58.9630355834961
 30
0.0
 11
104.499938964844
 21
-60.9630355834961
 31
0.0
  0
LINE
  5
    D0
  8
0
  6
CONTINUOUS
 62
    52
 10
106.499938964844
 20
-63.2056732177734
 30
0.0
 11
104.499938964844
 21
-65.2056732177734
 31
0.0
  0
LINE
  5
    D1
  8
0
  6
CONTINUOUS
 62
    52
 10
106.499938964844
 20
-67.4483184814453
 30
0.0
 11
104.499938964844
 21
-69.4483184814453
 31
0.0
  0
LINE
  5
    D2
  8
0
  6
CONTINUOUS
 62
    52
 10
106.499938964844
 20
-71.6909637451172
 30
0.0
 11
104.499938964844
 21
-73.6909637451172
 31
0.0
  0
LINE
  5
    D3
  8
0
  6
CONTINUOUS
 62
    52
 10
106.499938964844
 20
-75.9336090087891
 30
0.0
 11
104.499938964844
 21
-77.9336090087891
 31
0.0
  0
LINE
  5
    D4
  8
0
  6
CONTINUOUS
 62
    52
 10
106.499938964844
 20
-80.1762542724609
 30
0.0
 11
104.499938964844
 21
-82.1762542724609
 31
0.0
  0
LINE
  5
    D5
  8
0
  6
CONTINUOUS
 62
    52
 10
106.499938964844
 20
-84.4188995361328
 30
0.0
 11
104.499938964844
 21
-86.4188995361328
 31
0.0
  0
LINE
  5
    D6
  8
0
  6
CONTINUOUS
 62
    52
 10
106.499938964844
 20
-88.6615447998047
 30
0.0
 11
104.499938964844
 21
-90.6615447998047
 31
0.0
  0
LINE
  5
    D7
  8
0
  6
CONTINUOUS
 62
    52
 10
106.499938964844
 20
-92.9041900634766
 30
0.0
 11
104.499938964844
 21
-94.9041900634766
 31
0.0
  0
LINE
  5
    D8
  8
0
  6
CONTINUOUS
 62
    52
 10
106.499938964844
 20
-97.1468353271484
 30
0.0
 11
104.499938964844
 21
-99.1468353271484
 31
0.0
  0
LINE
  5
    D9
  8
0
  6
CONTINUOUS
 62
    52
 10
106.499938964844
 20
-101.389457702637
 30
0.0
 11
106.065864562988
 21
-101.823524475098
 31
0.0
  0
ENDBLK
  5
    DA
  8
0
  6
CONTINUOUS
 62
     7
  0
BLOCK
  5
    DB
  8
0
  6
CONTINUOUS
 62
     7
  2
*HATCH106
 70
    65
 10
0.0
 20
0.0
 30
0.0
  3
*HATCH106
  0
LINE
  5
    DC
  8
0
  6
CONTINUOUS
 62
     3
 10
-0.830074667930603
 20
-35.831859588623
 30
0.0
 11
-2.49821591377258
 21
-37.5
 31
0.0
  0
LINE
  5
    DD
  8
0
  6
CONTINUOUS
 62
     3
 10
1.29124581813812
 20
-35.831859588623
 30
0.0
 11
-0.376895427703857
 21
-37.5
 31
0.0
  0
LINE
  5
    DE
  8
0
  6
CONTINUOUS
 62
     3
 10
3.41256618499756
 20
-35.831859588623
 30
0.0
 11
1.74442505836487
 21
-37.5
 31
0.0
  0
LINE
  5
    DF
  8
0
  6
CONTINUOUS
 62
     3
 10
5.53388690948486
 20
-35.831859588623
 30
0.0
 11
3.86574554443359
 21
-37.5
 31
0.0
  0
LINE
  5
    E0
  8
0
  6
CONTINUOUS
 62
     3
 10
7.65520763397217
 20
-35.831859588623
 30
0.0
 11
5.9870662689209
 21
-37.5
 31
0.0
  0
LINE
  5
    E1
  8
0
  6
CONTINUOUS
 62
     3
 10
9.77652835845947
 20
-35.831859588623
 30
0.0
 11
8.1083869934082
 21
-37.5
 31
0.0
  0
LINE
  5
    E2
  8
0
  6
CONTINUOUS
 62
     3
 10
11.8978490829468
 20
-35.831859588623
 30
0.0
 11
10.2297077178955
 21
-37.5
 31
0.0
  0
LINE
  5
    E3
  8
0
  6
CONTINUOUS
 62
     3
 10
14.0191679000854
 20
-35.831859588623
 30
0.0
 11
11.4999847412109
 21
-38.3510437011719
 31
0.0
  0
LINE
  5
    E4
  8
0
  6
CONTINUOUS
 62
     3
 10
16.1404876708984
 20
-35.831859588623
 30
0.0
 11
11.4999847412109
 21
-40.4723663330078
 31
0.0
  0
LINE
  5
    E5
  8
0
  6
CONTINUOUS
 62
     3
 10
18.2618083953857
 20
-35.831859588623
 30
0.0
 11
12.0936679840088
 21
-42.0
 31
0.0
  0
LINE
  5
    E6
  8
0
  6
CONTINUOUS
 62
     3
 10
20.3831272125244
 20
-35.831859588623
 30
0.0
 11
14.2149887084961
 21
-42.0
 31
0.0
  0
LINE
  5
    E7
  8
0
  6
CONTINUOUS
 62
     3
 10
22.5044460296631
 20
-35.831859588623
 30
0.0
 11
16.3363094329834
 21
-42.0
 31
0.0
  0
LINE
  5
    E8
  8
0
  6
CONTINUOUS
 62
     3
 10
24.6257648468018
 20
-35.831859588623
 30
0.0
 11
18.4576282501221
 21
-42.0
 31
0.0
  0
LINE
  5
    E9
  8
0
  6
CONTINUOUS
 62
     3
 10
26.7470836639404
 20
-35.831859588623
 30
0.0
 11
20.5789470672607
 21
-42.0
 31
0.0
  0
LINE
  5
    EA
  8
0
  6
CONTINUOUS
 62
     3
 10
28.8684024810791
 20
-35.831859588623
 30
0.0
 11
22.7002658843994
 21
-42.0
 31
0.0
  0
LINE
  5
    EB
  8
0
  6
CONTINUOUS
 62
     3
 10
30.9897212982178
 20
-35.831859588623
 30
0.0
 11
24.8215847015381
 21
-42.0
 31
0.0
  0
LINE
  5
    EC
  8
0
  6
CONTINUOUS
 62
     3
 10
33.1110420227051
 20
-35.831859588623
 30
0.0
 11
26.9429035186768
 21
-42.0
 31
0.0
  0
LINE
  5
    ED
  8
0
  6
CONTINUOUS
 62
     3
 10
35.232364654541
 20
-35.831859588623
 30
0.0
 11
29.0642223358154
 21
-42.0
 31
0.0
  0
LINE
  5
    EE
  8
0
  6
CONTINUOUS
 62
     3
 10
36.1029396057129
 20
-37.0826148986816
 30
0.0
 11
31.1855506896973
 21
-42.0
 31
0.0
  0
LINE
  5
    EF
  8
0
  6
CONTINUOUS
 62
     3
 10
36.5830268859863
 20
-38.7238502502441
 30
0.0
 11
33.3068733215332
 21
-42.0
 31
0.0
  0
LINE
  5
    F0
  8
0
  6
CONTINUOUS
 62
     3
 10
37.0631141662598
 20
-40.3650856018066
 30
0.0
 11
35.4281959533691
 21
-42.0
 31
0.0
  0
ENDBLK
  5
    F1
  8
0
  6
CONTINUOUS
 62
     7
  0
BLOCK
  5
    F2
  8
0
  6
CONTINUOUS
 62
     7
  2
*UDIM475
 70
    65
 10
0.0
 20
0.0
 30
0.0
  3
*UDIM475
  0
TEXT
  5
    F3
  8
0
  6
CONTINUOUS
 62
     7
 10
253.788765881987
 20
109.331831912348
 30
0.0
 40
2.99999997871263
  1
12
 50
90.0
 41
0.933333333333333
 72
     1
 11
252.288765892628
 21
111.831831894607
 31
0.0
 73
     2
  0
LINE
  5
    F4
  8
0
  6
CONTINUOUS
 62
     7
 10
229.5529231986
 20
100.852866083384
 30
0.0
 11
256.788765881984
 21
100.852866083384
 31
0.0
  0
LINE
  5
    F5
  8
0
  6
CONTINUOUS
 62
     7
 10
223.001026265323
 20
105.052866871161
 30
0.0
 11
256.788765881984
 21
105.052866871161
 31
0.0
  0
LINE
  5
    F6
  8
0
  6
CONTINUOUS
 62
     7
 10
254.788765881984
 20
95.8528660833836
 30
0.0
 11
254.788765881984
 21
114.331831876867
 31
0.0
  0
LINE
  5
    F7
  8
0
  6
CONTINUOUS
 62
     7
 10
255.565223038403
 20
97.955088610173
 30
0.0
 11
254.788765881984
 21
100.852866083384
 31
0.0
  0
LINE
  5
    F8
  8
0
  6
CONTINUOUS
 62
     7
 10
254.788765881984
 20
100.852866083384
 30
0.0
 11
254.012308725566
 21
97.955088610173
 31
0.0
  0
LINE
  5
    F9
  8
0
  6
CONTINUOUS
 62
     7
 10
254.012308725566
 20
107.950644344371
 30
0.0
 11
254.788765881984
 21
105.052866871161
 31
0.0
  0
LINE
  5
    FA
  8
0
  6
CONTINUOUS
 62
     7
 10
254.788765881984
 20
105.052866871161
 30
0.0
 11
255.565223038403
 21
107.950644344371
 31
0.0
  0
ENDBLK
  5
    FB
  8
0
  6
CONTINUOUS
 62
     7
  0
BLOCK
  5
    FC
  8
0
  6
CONTINUOUS
 62
     7
  2
*UDIM476
 70
    65
 10
0.0
 20
0.0
 30
0.0
  3
*UDIM476
  0
TEXT
  5
    FD
  8
0
  6
CONTINUOUS
 62
     7
 10
274.798802429043
 20
77.6937524035738
 30
0.0
 40
2.99999997871263
  1
111,75
 50
90.0
 41
0.933333333333333
 72
     1
 11
273.298802439676
 21
85.793752346096
 31
0.0
 73
     2
  0
LINE
  5
    FE
  8
0
  6
CONTINUOUS
 62
     7
 10
223.001026265323
 20
105.052866871161
 30
0.0
 11
277.798802429032
 21
105.052866871161
 31
0.0
  0
LINE
  5
    FF
  8
0
  6
CONTINUOUS
 62
     7
 10
275.798802429033
 20
65.9403506562117
 30
0.0
 11
275.798802429033
 21
105.052866871161
 31
0.0
  0
LINE
  5
   100
  8
0
  6
CONTINUOUS
 62
     7
 10
275.022345272614
 20
68.8381281294222
 30
0.0
 11
275.798802429033
 21
65.9403506562117
 31
0.0
  0
LINE
  5
   101
  8
0
  6
CONTINUOUS
 62
     7
 10
275.798802429033
 20
65.9403506562117
 30
0.0
 11
276.575259585451
 21
68.8381281294222
 31
0.0
  0
LINE
  5
   102
  8
0
  6
CONTINUOUS
 62
     7
 10
276.575259585451
 20
102.15508939795
 30
0.0
 11
275.798802429033
 21
105.052866871161
 31
0.0
  0
LINE
  5
   103
  8
0
  6
CONTINUOUS
 62
     7
 10
275.798802429033
 20
105.052866871161
 30
0.0
 11
275.022345272614
 21
102.15508939795
 31
0.0
  0
ENDBLK
  5
   104
  8
0
  6
CONTINUOUS
 62
     7
  0
BLOCK
  5
   105
  8
0
  6
CONTINUOUS
 62
     7
  2
*UDIM477
 70
    65
 10
0.0
 20
0.0
 30
0.0
  3
*UDIM477
  0
TEXT
  5
   106
  8
0
  6
CONTINUOUS
 62
     7
 10
266.201746876132
 20
62.0403533541752
 30
0.0
 40
2.99999997871263
  1
105
 50
90.0
 41
0.933333333333333
 72
     1
 11
264.701746886771
 21
65.9403533264997
 31
0.0
 73
     2
  0
LINE
  5
   107
  8
0
  6
CONTINUOUS
 62
     7
 10
249.338509461283
 20
47.5653563097121
 30
0.0
 11
269.201746876127
 21
47.5653563097121
 31
0.0
  0
LINE
  5
   108
  8
0
  6
CONTINUOUS
 62
     7
 10
249.338509461283
 20
84.3153503432873
 30
0.0
 11
269.201746876127
 21
84.3153503432873
 31
0.0
  0
LINE
  5
   109
  8
0
  6
CONTINUOUS
 62
     7
 10
267.201746876127
 20
47.5653563097121
 30
0.0
 11
267.201746876127
 21
84.3153503432873
 31
0.0
  0
LINE
  5
   10A
  8
0
  6
CONTINUOUS
 62
     7
 10
266.425289719708
 20
50.4631337829226
 30
0.0
 11
267.201746876127
 21
47.5653563097121
 31
0.0
  0
LINE
  5
   10B
  8
0
  6
CONTINUOUS
 62
     7
 10
267.201746876127
 20
47.5653563097121
 30
0.0
 11
267.978204032546
 21
50.4631337829226
 31
0.0
  0
LINE
  5
   10C
  8
0
  6
CONTINUOUS
 62
     7
 10
267.978204032546
 20
81.4175728700767
 30
0.0
 11
267.201746876127
 21
84.3153503432873
 31
0.0
  0
LINE
  5
   10D
  8
0
  6
CONTINUOUS
 62
     7
 10
267.201746876127
 20
84.3153503432873
 30
0.0
 11
266.425289719708
 21
81.4175728700767
 31
0.0
  0
ENDBLK
  5
   10E
  8
0
  6
CONTINUOUS
 62
     7
  0
BLOCK
  5
   10F
  8
0
  6
CONTINUOUS
 62
     7
  2
*UDIM478
 70
    65
 10
0.0
 20
0.0
 30
0.0
  3
*UDIM478
  0
TEXT
  5
   110
  8
0
  6
CONTINUOUS
 62
     7
 10
254.103018565383
 20
29.9028673768062
 30
0.0
 40
2.99999997871263
  1
12
 50
90.0
 41
0.933333333333333
 72
     1
 11
252.603018576024
 21
32.4028673590649
 31
0.0
 73
     2
  0
LINE
  5
   111
  8
0
  6
CONTINUOUS
 62
     7
 10
221.933525949717
 20
20.702866593801
 30
0.0
 11
257.10301856538
 21
20.702866593801
 31
0.0
  0
LINE
  5
   112
  8
0
  6
CONTINUOUS
 62
     7
 10
223.103007027421
 20
24.9028673768043
 30
0.0
 11
257.10301856538
 21
24.9028673768043
 31
0.0
  0
LINE
  5
   113
  8
0
  6
CONTINUOUS
 62
     7
 10
255.10301856538
 20
15.702866593801
 30
0.0
 11
255.10301856538
 21
34.9028673413254
 31
0.0
  0
LINE
  5
   114
  8
0
  6
CONTINUOUS
 62
     7
 10
255.879475721799
 20
17.8050891205905
 30
0.0
 11
255.10301856538
 21
20.702866593801
 31
0.0
  0
LINE
  5
   115
  8
0
  6
CONTINUOUS
 62
     7
 10
255.10301856538
 20
20.702866593801
 30
0.0
 11
254.326561408962
 21
17.8050891205905
 31
0.0
  0
LINE
  5
   116
  8
0
  6
CONTINUOUS
 62
     7
 10
254.326561408962
 20
27.8006448500149
 30
0.0
 11
255.10301856538
 21
24.9028673768043
 31
0.0
  0
LINE
  5
   117
  8
0
  6
CONTINUOUS
 62
     7
 10
255.10301856538
 20
24.9028673768043
 30
0.0
 11
255.879475721799
 21
27.8006448500149
 31
0.0
  0
ENDBLK
  5
   118
  8
0
  6
CONTINUOUS
 62
     7
  0
BLOCK
  5
   119
  8
0
  6
CONTINUOUS
 62
     7
  2
*UDIM479
 70
    65
 10
0.0
 20
0.0
 30
0.0
  3
*UDIM479
  0
TEXT
  5
   11A
  8
0
  6
CONTINUOUS
 62
     7
 10
285.191587601349
 20
58.9778667601564
 30
0.0
 40
2.99999997871263
  1
241
 50
90.0
 41
0.933333333333333
 72
     1
 11
283.691587611988
 21
62.877866732481
 31
0.0
 73
     2
  0
LINE
  5
   11B
  8
0
  6
CONTINUOUS
 62
     7
 10
221.933525949717
 20
20.702866593801
 30
0.0
 11
288.191587601344
 21
20.702866593801
 31
0.0
  0
LINE
  5
   11C
  8
0
  6
CONTINUOUS
 62
     7
 10
223.001026265323
 20
105.052866871161
 30
0.0
 11
288.191587601344
 21
105.052866871161
 31
0.0
  0
LINE
  5
   11D
  8
0
  6
CONTINUOUS
 62
     7
 10
286.191587601344
 20
20.702866593801
 30
0.0
 11
286.191587601344
 21
105.052866871161
 31
0.0
  0
LINE
  5
   11E
  8
0
  6
CONTINUOUS
 62
     7
 10
285.415130444925
 20
23.6006440670115
 30
0.0
 11
286.191587601344
 21
20.702866593801
 31
0.0
  0
LINE
  5
   11F
  8
0
  6
CONTINUOUS
 62
     7
 10
286.191587601344
 20
20.702866593801
 30
0.0
 11
286.968044757762
 21
23.6006440670115
 31
0.0
  0
LINE
  5
   120
  8
0
  6
CONTINUOUS
 62
     7
 10
286.968044757762
 20
102.15508939795
 30
0.0
 11
286.191587601344
 21
105.052866871161
 31
0.0
  0
LINE
  5
   121
  8
0
  6
CONTINUOUS
 62
     7
 10
286.191587601344
 20
105.052866871161
 30
0.0
 11
285.415130444925
 21
102.15508939795
 31
0.0
  0
ENDBLK
  5
   122
  8
0
  6
CONTINUOUS
 62
     7
  0
BLOCK
  5
   123
  8
0
  6
CONTINUOUS
 62
     7
  2
*UDIM480
 70
    65
 10
0.0
 20
0.0
 30
0.0
  3
*UDIM480
  0
TEXT
  5
   124
  8
0
  6
CONTINUOUS
 62
     7
 10
219.151020572937
 20
166.253813072584
 30
0.0
 40
2.99999997871263
  1
101,5
 41
0.933333333333333
 72
     1
 11
225.851020525395
 21
167.753813061941
 31
0.0
 73
     2
  0
LINE
  5
   125
  8
0
  6
CONTINUOUS
 62
     7
 10
208.088531509042
 20
118.040475627242
 30
0.0
 11
208.088531509042
 21
167.253813072584
 31
0.0
  0
LINE
  5
   126
  8
0
  6
CONTINUOUS
 62
     7
 10
243.613509541749
 20
102.202850055695
 30
0.0
 11
243.613509541749
 21
167.253813072584
 31
0.0
  0
LINE
  5
   127
  8
0
  6
CONTINUOUS
 62
     7
 10
208.088531509042
 20
165.253813072584
 30
0.0
 11
243.613509541749
 21
165.253813072584
 31
0.0
  0
LINE
  5
   128
  8
0
  6
CONTINUOUS
 62
     7
 10
210.986308982252
 20
166.030270229003
 30
0.0
 11
208.088531509042
 21
165.253813072584
 31
0.0
  0
LINE
  5
   129
  8
0
  6
CONTINUOUS
 62
     7
 10
208.088531509042
 20
165.253813072584
 30
0.0
 11
210.986308982252
 21
164.477355916166
 31
0.0
  0
LINE
  5
   12A
  8
0
  6
CONTINUOUS
 62
     7
 10
240.715732068539
 20
164.477355916166
 30
0.0
 11
243.613509541749
 21
165.253813072584
 31
0.0
  0
LINE
  5
   12B
  8
0
  6
CONTINUOUS
 62
     7
 10
243.613509541749
 20
165.253813072584
 30
0.0
 11
240.715732068539
 21
166.030270229003
 31
0.0
  0
ENDBLK
  5
   12C
  8
0
  6
CONTINUOUS
 62
     7
  0
BLOCK
  5
   12D
  8
0
  6
CONTINUOUS
 62
     7
  2
*UDIM481
 70
    65
 10
0.0
 20
0.0
 30
0.0
  3
*UDIM481
  0
TEXT
  5
   12E
  8
0
  6
CONTINUOUS
 62
     7
 10
199.929110383864
 20
-33.3933263298975
 30
0.0
 40
2.99999997871263
  1
3
 41
0.933333333333333
 72
     1
 11
201.029110376059
 21
-31.8933263405412
 31
0.0
 73
     2
  0
TEXT
  5
   12F
  8
0
  6
CONTINUOUS
 62
     7
 10
196.362443699713
 20
-33.6433263524621
 30
0.0
 40
3.50000002384186
  1
_
 41
0.933333333333333
 72
     1
 11
197.645777041789
 21
-31.8933263405412
 31
0.0
 73
     2
  0
LINE
  5
   130
  8
0
  6
CONTINUOUS
 62
     7
 10
207.038526186347
 20
10.7988626297783
 30
0.0
 11
207.038526186347
 21
-36.3933263298975
 31
0.0
  0
LINE
  5
   131
  8
0
  6
CONTINUOUS
 62
     7
 10
208.088526168466
 20
11.2083630694572
 30
0.0
 11
208.088526168466
 21
-36.3933263298975
 31
0.0
  0
LINE
  5
   132
  8
0
  6
CONTINUOUS
 62
     7
 10
196.362443699713
 20
-34.3933263298975
 30
0.0
 11
208.088526168466
 21
-34.3933263298975
 31
0.0
  0
LINE
  5
   133
  8
0
  6
CONTINUOUS
 62
     7
 10
204.140748713137
 20
-35.1697834863161
 30
0.0
 11
207.038526186347
 21
-34.3933263298975
 31
0.0
  0
LINE
  5
   134
  8
0
  6
CONTINUOUS
 62
     7
 10
207.038526186347
 20
-34.3933263298975
 30
0.0
 11
204.140748713137
 21
-33.616869173479
 31
0.0
  0
LINE
  5
   135
  8
0
  6
CONTINUOUS
 62
     7
 10
210.986303641676
 20
-33.616869173479
 30
0.0
 11
208.088526168466
 21
-34.3933263298975
 31
0.0
  0
LINE
  5
   136
  8
0
  6
CONTINUOUS
 62
     7
 10
208.088526168466
 20
-34.3933263298975
 30
0.0
 11
210.986303641676
 21
-35.1697834863161
 31
0.0
  0
ENDBLK
  5
   137
  8
0
  6
CONTINUOUS
 62
     7
  0
BLOCK
  5
   138
  8
0
  6
CONTINUOUS
 62
     7
  2
*UDIM482
 70
    65
 10
0.0
 20
0.0
 30
0.0
  3
*UDIM482
  0
TEXT
  5
   139
  8
0
  6
CONTINUOUS
 62
     7
 10
219.501017896689
 20
-33.3933263298975
 30
0.0
 40
2.99999997871263
  1
103,5
 41
0.933333333333333
 72
     1
 11
226.201017849147
 21
-31.8933263405412
 31
0.0
 73
     2
  0
LINE
  5
   13A
  8
0
  6
CONTINUOUS
 62
     7
 10
244.313509529828
 20
46.5653563097121
 30
0.0
 11
244.313509529828
 21
-36.3933263298975
 31
0.0
  0
LINE
  5
   13B
  8
0
  6
CONTINUOUS
 62
     7
 10
208.088526168466
 20
-34.3933263298975
 30
0.0
 11
244.313509529828
 21
-34.3933263298975
 31
0.0
  0
LINE
  5
   13C
  8
0
  6
CONTINUOUS
 62
     7
 10
210.986303641676
 20
-33.616869173479
 30
0.0
 11
208.088526168466
 21
-34.3933263298975
 31
0.0
  0
LINE
  5
   13D
  8
0
  6
CONTINUOUS
 62
     7
 10
208.088526168466
 20
-34.3933263298975
 30
0.0
 11
210.986303641676
 21
-35.1697834863161
 31
0.0
  0
LINE
  5
   13E
  8
0
  6
CONTINUOUS
 62
     7
 10
241.415732056618
 20
-35.1697834863161
 30
0.0
 11
244.313509529828
 21
-34.3933263298975
 31
0.0
  0
LINE
  5
   13F
  8
0
  6
CONTINUOUS
 62
     7
 10
244.313509529828
 20
-34.3933263298975
 30
0.0
 11
241.415732056618
 21
-33.616869173479
 31
0.0
  0
ENDBLK
  5
   140
  8
0
  6
CONTINUOUS
 62
     7
  0
BLOCK
  5
   141
  8
0
  6
CONTINUOUS
 62
     7
  2
*UDIM483
 70
    65
 10
0.0
 20
0.0
 30
0.0
  3
*UDIM483
  0
TEXT
  5
   142
  8
0
  6
CONTINUOUS
 62
     7
 10
222.913520536678
 20
175.729206327176
 30
0.0
 40
2.99999997871263
  1
107
 41
0.933333333333333
 72
     1
 11
226.813520509004
 21
177.229206316532
 31
0.0
 73
     2
  0
LINE
  5
   143
  8
0
  6
CONTINUOUS
 62
     7
 10
208.088531509042
 20
118.040475627242
 30
0.0
 11
208.088531509042
 21
176.729206327176
 31
0.0
  0
LINE
  5
   144
  8
0
  6
CONTINUOUS
 62
     7
 10
245.538509508966
 20
121.006715986327
 30
0.0
 11
245.538509508966
 21
176.729206327176
 31
0.0
  0
LINE
  5
   145
  8
0
  6
CONTINUOUS
 62
     7
 10
208.088531509042
 20
174.729206327176
 30
0.0
 11
245.538509508966
 21
174.729206327176
 31
0.0
  0
LINE
  5
   146
  8
0
  6
CONTINUOUS
 62
     7
 10
210.986308982252
 20
175.505663483595
 30
0.0
 11
208.088531509042
 21
174.729206327176
 31
0.0
  0
LINE
  5
   147
  8
0
  6
CONTINUOUS
 62
     7
 10
208.088531509042
 20
174.729206327176
 30
0.0
 11
210.986308982252
 21
173.952749170757
 31
0.0
  0
LINE
  5
   148
  8
0
  6
CONTINUOUS
 62
     7
 10
242.640732035756
 20
173.952749170757
 30
0.0
 11
245.538509508966
 21
174.729206327176
 31
0.0
  0
LINE
  5
   149
  8
0
  6
CONTINUOUS
 62
     7
 10
245.538509508966
 20
174.729206327176
 30
0.0
 11
242.640732035756
 21
175.505663483595
 31
0.0
  0
ENDBLK
  5
   14A
  8
0
  6
CONTINUOUS
 62
     7
  0
BLOCK
  5
   14B
  8
0
  6
CONTINUOUS
 62
     7
  2
*UDIM484
 70
    65
 10
0.0
 20
0.0
 30
0.0
  3
*UDIM484
  0
TEXT
  5
   14C
  8
0
  6
CONTINUOUS
 62
     7
 10
253.486746495707
 20
175.729206327176
 30
0.0
 40
2.99999997871263
  1
2
 41
0.933333333333333
 72
     1
 11
254.586746487902
 21
177.229206316532
 31
0.0
 73
     2
  0
LINE
  5
   14D
  8
0
  6
CONTINUOUS
 62
     7
 10
246.238509497046
 20
120.560465993927
 30
0.0
 11
246.238509497046
 21
176.729206327176
 31
0.0
  0
LINE
  5
   14E
  8
0
  6
CONTINUOUS
 62
     7
 10
245.538509508966
 20
174.729206327176
 30
0.0
 11
255.686746480097
 21
174.729206327176
 31
0.0
  0
LINE
  5
   14F
  8
0
  6
CONTINUOUS
 62
     7
 10
242.640732035756
 20
173.952749170757
 30
0.0
 11
245.538509508966
 21
174.729206327176
 31
0.0
  0
LINE
  5
   150
  8
0
  6
CONTINUOUS
 62
     7
 10
245.538509508966
 20
174.729206327176
 30
0.0
 11
242.640732035756
 21
175.505663483595
 31
0.0
  0
LINE
  5
   151
  8
0
  6
CONTINUOUS
 62
     7
 10
249.136286970256
 20
175.505663483595
 30
0.0
 11
246.238509497046
 21
174.729206327176
 31
0.0
  0
LINE
  5
   152
  8
0
  6
CONTINUOUS
 62
     7
 10
246.238509497046
 20
174.729206327176
 30
0.0
 11
249.136286970256
 21
173.952749170757
 31
0.0
  0
ENDBLK
  5
   153
  8
0
  6
CONTINUOUS
 62
     7
  0
BLOCK
  5
   154
  8
0
  6
CONTINUOUS
 62
     7
  2
*UDIM485
 70
    65
 10
0.0
 20
0.0
 30
0.0
  3
*UDIM485
  0
TEXT
  5
   155
  8
0
  6
CONTINUOUS
 62
     7
 10
227.389823083158
 20
-42.2651913517127
 30
0.0
 40
2.99999997871263
  1
159
 41
0.933333333333333
 72
     1
 11
231.289823055484
 21
-40.7651913623564
 31
0.0
 73
     2
  0
LINE
  5
   156
  8
0
  6
CONTINUOUS
 62
     7
 10
208.088526168466
 20
11.2083630694572
 30
0.0
 11
208.088526168466
 21
-45.2651913517127
 31
0.0
  0
LINE
  5
   157
  8
0
  6
CONTINUOUS
 62
     7
 10
260.587669921839
 20
54.8558434652387
 30
0.0
 11
260.587669921839
 21
-45.2651913517127
 31
0.0
  0
LINE
  5
   158
  8
0
  6
CONTINUOUS
 62
     7
 10
208.088526168466
 20
-43.2651913517128
 30
0.0
 11
260.587669921839
 21
-43.2651913517128
 31
0.0
  0
LINE
  5
   159
  8
0
  6
CONTINUOUS
 62
     7
 10
210.986303641676
 20
-42.4887341952942
 30
0.0
 11
208.088526168466
 21
-43.2651913517128
 31
0.0
  0
LINE
  5
   15A
  8
0
  6
CONTINUOUS
 62
     7
 10
208.088526168466
 20
-43.2651913517128
 30
0.0
 11
210.986303641676
 21
-44.0416485081313
 31
0.0
  0
LINE
  5
   15B
  8
0
  6
CONTINUOUS
 62
     7
 10
257.689892448629
 20
-44.0416485081313
 30
0.0
 11
260.587669921839
 21
-43.2651913517128
 31
0.0
  0
LINE
  5
   15C
  8
0
  6
CONTINUOUS
 62
     7
 10
260.587669921839
 20
-43.2651913517128
 30
0.0
 11
257.689892448629
 21
-42.4887341952942
 31
0.0
  0
ENDBLK
  5
   15D
  8
0
  6
CONTINUOUS
 62
     7
  0
BLOCK
  5
   15E
  8
0
  6
CONTINUOUS
 62
     7
  2
*UDIM486
 70
    65
 10
0.0
 20
0.0
 30
0.0
  3
*UDIM486
  0
TEXT
  5
   15F
  8
0
  6
CONTINUOUS
 62
     7
 10
211.45983094837
 20
159.373591218932
 30
0.0
 40
2.99999997871263
  1
49,5
 41
0.933333333333333
 72
     1
 11
216.759830910762
 21
160.873591208288
 31
0.0
 73
     2
  0
LINE
  5
   160
  8
0
  6
CONTINUOUS
 62
     7
 10
208.088531509042
 20
118.040475627242
 30
0.0
 11
208.088531509042
 21
160.373591218932
 31
0.0
  0
LINE
  5
   161
  8
0
  6
CONTINUOUS
 62
     7
 10
225.431130312482
 20
151.552842882281
 30
0.0
 11
225.431130312482
 21
160.373591218932
 31
0.0
  0
LINE
  5
   162
  8
0
  6
CONTINUOUS
 62
     7
 10
208.088531509042
 20
158.373591218932
 30
0.0
 11
225.431130312482
 21
158.373591218932
 31
0.0
  0
LINE
  5
   163
  8
0
  6
CONTINUOUS
 62
     7
 10
210.986308982252
 20
159.15004837535
 30
0.0
 11
208.088531509042
 21
158.373591218932
 31
0.0
  0
LINE
  5
   164
  8
0
  6
CONTINUOUS
 62
     7
 10
208.088531509042
 20
158.373591218932
 30
0.0
 11
210.986308982252
 21
157.597134062513
 31
0.0
  0
LINE
  5
   165
  8
0
  6
CONTINUOUS
 62
     7
 10
222.533352839272
 20
157.597134062513
 30
0.0
 11
225.431130312482
 21
158.373591218932
 31
0.0
  0
LINE
  5
   166
  8
0
  6
CONTINUOUS
 62
     7
 10
225.431130312482
 20
158.373591218932
 30
0.0
 11
222.533352839272
 21
159.15004837535
 31
0.0
  0
ENDBLK
  5
   167
  8
0
  6
CONTINUOUS
 62
     7
  0
BLOCK
  5
   168
  8
0
  6
CONTINUOUS
 62
     7
  2
*UDIM487
 70
    65
 10
0.0
 20
0.0
 30
0.0
  3
*UDIM487
  0
TEXT
  5
   169
  8
0
  6
CONTINUOUS
 62
     7
 10
225.731078698948
 20
159.373591218932
 30
0.0
 40
2.99999997871263
  1
8
 41
0.933333333333333
 72
     1
 11
226.831078691143
 21
160.873591208288
 31
0.0
 73
     2
  0
LINE
  5
   16A
  8
0
  6
CONTINUOUS
 62
     7
 10
228.231027069803
 20
151.552842882281
 30
0.0
 11
228.231027069803
 21
160.373591218932
 31
0.0
  0
LINE
  5
   16B
  8
0
  6
CONTINUOUS
 62
     7
 10
225.431130312482
 20
158.373591218932
 30
0.0
 11
233.231027069803
 21
158.373591218932
 31
0.0
  0
LINE
  5
   16C
  8
0
  6
CONTINUOUS
 62
     7
 10
222.533352839272
 20
157.597134062513
 30
0.0
 11
225.431130312482
 21
158.373591218932
 31
0.0
  0
LINE
  5
   16D
  8
0
  6
CONTINUOUS
 62
     7
 10
225.431130312482
 20
158.373591218932
 30
0.0
 11
222.533352839272
 21
159.15004837535
 31
0.0
  0
LINE
  5
   16E
  8
0
  6
CONTINUOUS
 62
     7
 10
231.128804543014
 20
159.15004837535
 30
0.0
 11
228.231027069803
 21
158.373591218932
 31
0.0
  0
LINE
  5
   16F
  8
0
  6
CONTINUOUS
 62
     7
 10
228.231027069803
 20
158.373591218932
 30
0.0
 11
231.128804543014
 21
157.597134062513
 31
0.0
  0
ENDBLK
  5
   170
  8
0
  6
CONTINUOUS
 62
     7
  0
BLOCK
  5
   171
  8
0
  6
CONTINUOUS
 62
     7
  2
*UDIM488
 70
    65
 10
0.0
 20
0.0
 30
0.0
  3
*UDIM488
  0
TEXT
  5
   172
  8
0
  6
CONTINUOUS
 62
     7
 10
211.459828278082
 20
-0.681329907340286
 30
0.0
 40
2.99999997871263
  1
49,5
 41
0.933333333333333
 72
     1
 11
216.759828240474
 21
0.818670082016027
 31
0.0
 73
     2
  0
LINE
  5
   173
  8
0
  6
CONTINUOUS
 62
     7
 10
208.088526168466
 20
11.2083630694572
 30
0.0
 11
208.088526168466
 21
-3.68132990734028
 31
0.0
  0
LINE
  5
   174
  8
0
  6
CONTINUOUS
 62
     7
 10
208.088526168466
 20
-1.68132990734028
 30
0.0
 11
225.431130312482
 21
-1.68132990734028
 31
0.0
  0
LINE
  5
   175
  8
0
  6
CONTINUOUS
 62
     7
 10
210.986303641676
 20
-0.90487275092174
 30
0.0
 11
208.088526168466
 21
-1.68132990734028
 31
0.0
  0
LINE
  5
   176
  8
0
  6
CONTINUOUS
 62
     7
 10
208.088526168466
 20
-1.68132990734028
 30
0.0
 11
210.986303641676
 21
-2.45778706375883
 31
0.0
  0
LINE
  5
   177
  8
0
  6
CONTINUOUS
 62
     7
 10
222.533352839272
 20
-2.45778706375883
 30
0.0
 11
225.431130312482
 21
-1.68132990734028
 31
0.0
  0
LINE
  5
   178
  8
0
  6
CONTINUOUS
 62
     7
 10
225.431130312482
 20
-1.68132990734028
 30
0.0
 11
222.533352839272
 21
-0.90487275092174
 31
0.0
  0
ENDBLK
  5
   179
  8
0
  6
CONTINUOUS
 62
     7
  0
BLOCK
  5
   17A
  8
0
  6
CONTINUOUS
 62
     7
  2
*UDIM489
 70
    65
 10
0.0
 20
0.0
 30
0.0
  3
*UDIM489
  0
TEXT
  5
   17B
  8
0
  6
CONTINUOUS
 62
     7
 10
234.401174084166
 20
-0.681329907340286
 30
0.0
 40
2.99999997871263
  1
8
 41
0.933333333333333
 72
     1
 11
235.501174076361
 21
0.818670082016027
 31
0.0
 73
     2
  0
LINE
  5
   17C
  8
0
  6
CONTINUOUS
 62
     7
 10
225.431130312482
 20
-1.68132990734028
 30
0.0
 11
236.601174068555
 21
-1.68132990734028
 31
0.0
  0
LINE
  5
   17D
  8
0
  6
CONTINUOUS
 62
     7
 10
222.533352839272
 20
-2.45778706375883
 30
0.0
 11
225.431130312482
 21
-1.68132990734028
 31
0.0
  0
LINE
  5
   17E
  8
0
  6
CONTINUOUS
 62
     7
 10
225.431130312482
 20
-1.68132990734028
 30
0.0
 11
222.533352839272
 21
-0.90487275092174
 31
0.0
  0
LINE
  5
   17F
  8
0
  6
CONTINUOUS
 62
     7
 10
231.128860415879
 20
-0.90487275092174
 30
0.0
 11
228.231082942669
 21
-1.68132990734028
 31
0.0
  0
LINE
  5
   180
  8
0
  6
CONTINUOUS
 62
     7
 10
228.231082942669
 20
-1.68132990734028
 30
0.0
 11
231.128860415879
 21
-2.45778706375883
 31
0.0
  0
ENDBLK
  5
   181
  8
0
  6
CONTINUOUS
 62
     7
  0
BLOCK
  5
   182
  8
0
  6
CONTINUOUS
 62
     7
  2
*HATCH107
 70
    65
 10
0.0
 20
0.0
 30
0.0
  3
*HATCH107
  0
LINE
  5
   183
  8
0
  6
CONTINUOUS
 62
    92
 10
26.7723064422607
 20
183.75
 30
0.0
 11
20.5499858856201
 21
177.527679443359
 31
0.0
  0
LINE
  5
   184
  8
0
  6
CONTINUOUS
 62
    92
 10
28.5501136779785
 20
177.042526245117
 30
0.0
 11
27.5075874328613
 21
176.0
 31
0.0
  0
ENDBLK
  5
   185
  8
0
  6
CONTINUOUS
 62
     7
  0
BLOCK
  5
   186
  8
0
  6
CONTINUOUS
 62
     7
  2
*HATCH108
 70
    65
 10
0.0
 20
0.0
 30
0.0
  3
*HATCH108
  0
LINE
  5
   187
  8
0
  6
CONTINUOUS
 62
    92
 10
52.9119644165039
 20
290.499816894531
 30
0.0
 11
47.0502815246582
 21
284.638153076172
 31
0.0
  0
LINE
  5
   188
  8
0
  6
CONTINUOUS
 62
    92
 10
55.0499992370606
 20
284.152557373047
 30
0.0
 11
47.0502815246582
 21
276.152862548828
 31
0.0
  0
LINE
  5
   189
  8
0
  6
CONTINUOUS
 62
    92
 10
55.0500144958496
 20
275.667266845703
 30
0.0
 11
47.0502815246582
 21
267.667572021484
 31
0.0
  0
LINE
  5
   18A
  8
0
  6
CONTINUOUS
 62
    92
 10
55.0500297546387
 20
267.181976318359
 30
0.0
 11
47.0502815246582
 21
259.182281494141
 31
0.0
  0
LINE
  5
   18B
  8
0
  6
CONTINUOUS
 62
    92
 10
55.0500450134277
 20
258.696685791016
 30
0.0
 11
47.0502815246582
 21
250.696990966797
 31
0.0
  0
LINE
  5
   18C
  8
0
  6
CONTINUOUS
 62
    92
 10
55.0500602722168
 20
250.21142578125
 30
0.0
 11
47.0502815246582
 21
242.211700439453
 31
0.0
  0
LINE
  5
   18D
  8
0
  6
CONTINUOUS
 62
    92
 10
55.0500755310059
 20
241.726165771484
 30
0.0
 11
47.0502815246582
 21
233.726409912109
 31
0.0
  0
LINE
  5
   18E
  8
0
  6
CONTINUOUS
 62
    92
 10
24.7640285491943
 20
207.197570800781
 30
0.0
 11
22.4283962249756
 21
204.861938476563
 31
0.0
  0
LINE
  5
   18F
  8
0
  6
CONTINUOUS
 62
    92
 10
33.0987548828125
 20
211.289657592773
 30
0.0
 11
20.5499858856201
 21
198.74089050293
 31
0.0
  0
LINE
  5
   190
  8
0
  6
CONTINUOUS
 62
    92
 10
41.0483551025391
 20
214.996612548828
 30
0.0
 11
20.5499858856201
 21
194.498245239258
 31
0.0
  0
LINE
  5
   191
  8
0
  6
CONTINUOUS
 62
    92
 10
28.5499687194824
 20
198.255584716797
 30
0.0
 11
20.5499858856201
 21
190.255599975586
 31
0.0
  0
LINE
  5
   192
  8
0
  6
CONTINUOUS
 62
    92
 10
28.5499687194824
 20
194.012954711914
 30
0.0
 11
24.7870235443115
 21
190.25
 31
0.0
  0
ENDBLK
  5
   193
  8
0
  6
CONTINUOUS
 62
     7
  0
BLOCK
  5
   194
  8
0
  6
CONTINUOUS
 62
     7
  2
*HATCH109
 70
    65
 10
0.0
 20
0.0
 30
0.0
  3
*HATCH109
  0
LINE
  5
   195
  8
0
  6
CONTINUOUS
 62
    92
 10
53.956226348877
 20
316.999938964844
 30
0.0
 11
47.0502815246582
 21
310.093994140625
 31
0.0
  0
LINE
  5
   196
  8
0
  6
CONTINUOUS
 62
    92
 10
55.0499877929688
 20
309.608428955078
 30
0.0
 11
48.9414215087891
 21
303.499847412109
 31
0.0
  0
ENDBLK
  5
   197
  8
0
  6
CONTINUOUS
 62
     7
  0
BLOCK
  5
   198
  8
0
  6
CONTINUOUS
 62
     7
  2
*UDIM490
 70
    65
 10
0.0
 20
0.0
 30
0.0
  3
*UDIM490
  0
TEXT
  5
   199
  8
0
  6
CONTINUOUS
 62
     7
 10
235.162409533354
 20
130.654468303378
 30
0.0
 40
2.99999997871263
  1
13
 50
90.0
 41
0.933333333333333
 72
     1
 11
233.662409543995
 21
133.154468285637
 31
0.0
 73
     2
  0
TEXT
  5
   19A
  8
0
  6
CONTINUOUS
 62
     7
 10
235.162409533353
 20
126.654468324666
 30
0.0
 40
2.99999997871263
  1
Ø
 50
90.0
 41
1.2
 72
     1
 11
233.662409543995
 21
128.15446831402
 31
0.0
 73
     2
  0
LINE
  5
   19B
  8
0
  6
CONTINUOUS
 62
     7
 10
229.231082942669
 20
141.277805730039
 30
0.0
 11
238.162409533351
 21
141.277805730039
 31
0.0
  0
LINE
  5
   19C
  8
0
  6
CONTINUOUS
 62
     7
 10
229.231082942669
 20
145.827812798025
 30
0.0
 11
238.162409533351
 21
145.827812798025
 31
0.0
  0
LINE
  5
   19D
  8
0
  6
CONTINUOUS
 62
     7
 10
236.162409533351
 20
126.654468324664
 30
0.0
 11
236.162409533351
 21
150.827812798025
 31
0.0
  0
LINE
  5
   19E
  8
0
  6
CONTINUOUS
 62
     7
 10
236.938866689769
 20
138.380028256828
 30
0.0
 11
236.162409533351
 21
141.277805730039
 31
0.0
  0
LINE
  5
   19F
  8
0
  6
CONTINUOUS
 62
     7
 10
236.162409533351
 20
141.277805730039
 30
0.0
 11
235.385952376932
 21
138.380028256828
 31
0.0
  0
LINE
  5
   1A0
  8
0
  6
CONTINUOUS
 62
     7
 10
235.385952376932
 20
148.725590271236
 30
0.0
 11
236.162409533351
 21
145.827812798025
 31
0.0
  0
LINE
  5
   1A1
  8
0
  6
CONTINUOUS
 62
     7
 10
236.162409533351
 20
145.827812798025
 30
0.0
 11
236.938866689769
 21
148.725590271236
 31
0.0
  0
ENDBLK
  5
   1A2
  8
0
  6
CONTINUOUS
 62
     7
  0
BLOCK
  5
   1A3
  8
0
  6
CONTINUOUS
 62
     7
  2
*HATCH110
 70
    65
 10
0.0
 20
0.0
 30
0.0
  3
*HATCH110
  0
LINE
  5
   1A4
  8
0
  6
CONTINUOUS
 62
    92
 10
54.3600730895996
 20
-170.499877929688
 30
0.0
 11
47.0502815246582
 21
-177.809677124023
 31
0.0
  0
LINE
  5
   1A5
  8
0
  6
CONTINUOUS
 62
    92
 10
55.0499877929688
 20
-178.29524230957
 30
0.0
 11
49.3452644348145
 21
-183.999969482422
 31
0.0
  0
ENDBLK
  5
   1A6
  8
0
  6
CONTINUOUS
 62
     7
  0
BLOCK
  5
   1A7
  8
0
  6
CONTINUOUS
 62
     7
  2
*HATCH111
 70
    65
 10
0.0
 20
0.0
 30
0.0
  3
*HATCH111
  0
LINE
  5
   1A8
  8
0
  6
CONTINUOUS
 62
    92
 10
27.6028099060059
 20
-57.2500038146973
 30
0.0
 11
20.5499858856201
 21
-64.3028259277344
 31
0.0
  0
LINE
  5
   1A9
  8
0
  6
CONTINUOUS
 62
    92
 10
28.5499687194824
 20
-64.7881240844727
 30
0.0
 11
22.0402755737305
 21
-71.2978210449219
 31
0.0
  0
LINE
  5
   1AA
  8
0
  6
CONTINUOUS
 62
    92
 10
32.5954437255859
 20
-69.2279357910156
 30
0.0
 11
26.5755424499512
 21
-75.2478332519531
 31
0.0
  0
LINE
  5
   1AB
  8
0
  6
CONTINUOUS
 62
    92
 10
38.3822784423828
 20
-71.9263763427734
 30
0.0
 11
32.362377166748
 21
-77.9462738037109
 31
0.0
  0
LINE
  5
   1AC
  8
0
  6
CONTINUOUS
 62
    92
 10
44.1691131591797
 20
-74.6248168945313
 30
0.0
 11
38.1492118835449
 21
-80.6447143554688
 31
0.0
  0
LINE
  5
   1AD
  8
0
  6
CONTINUOUS
 62
    92
 10
49.9168815612793
 20
-77.3623352050781
 30
0.0
 11
43.9360504150391
 21
-83.3431701660156
 31
0.0
  0
LINE
  5
   1AE
  8
0
  6
CONTINUOUS
 62
    92
 10
54.0405197143555
 20
-81.7239837646484
 30
0.0
 11
47.0502815246582
 21
-88.7142181396484
 31
0.0
  0
LINE
  5
   1AF
  8
0
  6
CONTINUOUS
 62
    92
 10
55.0501403808594
 20
-89.1996383666992
 30
0.0
 11
47.0502815246582
 21
-97.1995010375977
 31
0.0
  0
LINE
  5
   1B0
  8
0
  6
CONTINUOUS
 62
    92
 10
55.0501251220703
 20
-97.684944152832
 30
0.0
 11
47.0502815246582
 21
-105.684776306152
 31
0.0
  0
LINE
  5
   1B1
  8
0
  6
CONTINUOUS
 62
    92
 10
55.0501098632813
 20
-106.170249938965
 30
0.0
 11
47.0502815246582
 21
-114.170051574707
 31
0.0
  0
LINE
  5
   1B2
  8
0
  6
CONTINUOUS
 62
    92
 10
55.0500946044922
 20
-114.655555725098
 30
0.0
 11
47.0502815246582
 21
-122.655326843262
 31
0.0
  0
LINE
  5
   1B3
  8
0
  6
CONTINUOUS
 62
    92
 10
55.0500793457031
 20
-123.14086151123
 30
0.0
 11
47.0502815246582
 21
-131.140609741211
 31
0.0
  0
LINE
  5
   1B4
  8
0
  6
CONTINUOUS
 62
    92
 10
55.0500640869141
 20
-131.626159667969
 30
0.0
 11
47.0502815246582
 21
-139.625900268555
 31
0.0
  0
LINE
  5
   1B5
  8
0
  6
CONTINUOUS
 62
    92
 10
55.050048828125
 20
-140.111450195313
 30
0.0
 11
47.0502815246582
 21
-148.111190795898
 31
0.0
  0
LINE
  5
   1B6
  8
0
  6
CONTINUOUS
 62
    92
 10
55.0500335693359
 20
-148.596740722656
 30
0.0
 11
47.0502815246582
 21
-156.596481323242
 31
0.0
  0
LINE
  5
   1B7
  8
0
  6
CONTINUOUS
 62
    92
 10
55.049991607666
 20
-157.08203125
 30
0.0
 11
54.6321716308594
 21
-157.499862670898
 31
0.0
  0
ENDBLK
  5
   1B8
  8
0
  6
CONTINUOUS
 62
     7
  0
BLOCK
  5
   1B9
  8
0
  6
CONTINUOUS
 62
     7
  2
*HATCH112
 70
    65
 10
0.0
 20
0.0
 30
0.0
  3
*HATCH112
  0
LINE
  5
   1BA
  8
0
  6
CONTINUOUS
 62
    92
 10
24.8822402954102
 20
-43.0000114440918
 30
0.0
 11
20.5499858856201
 21
-47.3322639465332
 31
0.0
  0
LINE
  5
   1BB
  8
0
  6
CONTINUOUS
 62
    92
 10
28.5500316619873
 20
-47.8175010681152
 30
0.0
 11
25.6175289154053
 21
-50.7500038146973
 31
0.0
  0
ENDBLK
  5
   1BC
  8
0
  6
CONTINUOUS
 62
     7
  0
BLOCK
  5
   1BD
  8
0
  6
CONTINUOUS
 62
     7
  2
*UDIM491
 70
    65
 10
0.0
 20
0.0
 30
0.0
  3
*UDIM491
  0
TEXT
  5
   1BE
  8
0
  6
CONTINUOUS
 62
     7
 10
247.839450506457
 20
-114.847412098783
 30
0.0
 40
3.00000002980232
  1
147
 50
359.999999844103
 41
0.933333333333333
 72
     1
 11
251.739450549274
 21
-113.347412094474
 31
0.0
 73
     2
  0
LINE
  5
   1BF
  8
0
  6
CONTINUOUS
 62
     7
 10
233.639449180295
 20
-101.667449951171
 30
0.0
 11
233.639434732447
 21
-117.847412109374
 31
0.0
  0
LINE
  5
   1C0
  8
0
  6
CONTINUOUS
 62
     7
 10
270.389449180295
 20
-101.667449951171
 30
0.0
 11
270.389434732447
 21
-117.847412109374
 31
0.0
  0
LINE
  5
   1C1
  8
0
  6
CONTINUOUS
 62
     7
 10
233.639436518341
 20
-115.847412109375
 30
0.0
 11
270.389436518341
 21
-115.847412109375
 31
0.0
  0
LINE
  5
   1C2
  8
0
  6
CONTINUOUS
 62
     7
 10
236.593859795548
 20
-115.326467679423
 30
0.0
 11
233.639436518341
 21
-115.847412109375
 31
0.0
  0
LINE
  5
   1C3
  8
0
  6
CONTINUOUS
 62
     7
 10
233.639436518341
 20
-115.847412109375
 30
0.0
 11
236.593859795548
 21
-116.368356539327
 31
0.0
  0
LINE
  5
   1C4
  8
0
  6
CONTINUOUS
 62
     7
 10
267.435013241134
 20
-116.368356539327
 30
0.0
 11
270.389436518341
 21
-115.847412109375
 31
0.0
  0
LINE
  5
   1C5
  8
0
  6
CONTINUOUS
 62
     7
 10
270.389436518341
 20
-115.847412109375
 30
0.0
 11
267.435013241134
 21
-115.326467679423
 31
0.0
  0
ENDBLK
  5
   1C6
  8
0
  6
CONTINUOUS
 62
     7
  0
BLOCK
  5
   1C7
  8
0
  6
CONTINUOUS
 62
     7
  2
*UDIM492
 70
    65
 10
0.0
 20
0.0
 30
0.0
  3
*UDIM492
  0
TEXT
  5
   1C8
  8
0
  6
CONTINUOUS
 62
     7
 10
247.839450505105
 20
-59.6094245804725
 30
0.0
 40
3.00000002980232
  1
115
 50
359.999999844103
 41
0.933333333333333
 72
     1
 11
251.739450547922
 21
-58.1094245761633
 31
0.0
 73
     2
  0
LINE
  5
   1C9
  8
0
  6
CONTINUOUS
 62
     7
 10
237.639450387159
 20
-65.7924499511719
 30
0.0
 11
237.639452642029
 21
-58.6094245910646
 31
0.0
  0
LINE
  5
   1CA
  8
0
  6
CONTINUOUS
 62
     7
 10
266.389450387159
 20
-65.7924499511719
 30
0.0
 11
266.389452642029
 21
-58.6094245910646
 31
0.0
  0
LINE
  5
   1CB
  8
0
  6
CONTINUOUS
 62
     7
 10
237.639452014196
 20
-60.6094245910645
 30
0.0
 11
266.389452014196
 21
-60.6094245910645
 31
0.0
  0
LINE
  5
   1CC
  8
0
  6
CONTINUOUS
 62
     7
 10
240.593875291403
 20
-60.0884801611128
 30
0.0
 11
237.639452014196
 21
-60.6094245910645
 31
0.0
  0
LINE
  5
   1CD
  8
0
  6
CONTINUOUS
 62
     7
 10
237.639452014196
 20
-60.6094245910645
 30
0.0
 11
240.593875291403
 21
-61.1303690210161
 31
0.0
  0
LINE
  5
   1CE
  8
0
  6
CONTINUOUS
 62
     7
 10
263.435028736989
 20
-61.1303690210161
 30
0.0
 11
266.389452014196
 21
-60.6094245910645
 31
0.0
  0
LINE
  5
   1CF
  8
0
  6
CONTINUOUS
 62
     7
 10
266.389452014196
 20
-60.6094245910645
 30
0.0
 11
263.435028736989
 21
-60.0884801611128
 31
0.0
  0
ENDBLK
  5
   1D0
  8
0
  6
CONTINUOUS
 62
     7
  0
BLOCK
  5
   1D1
  8
0
  6
CONTINUOUS
 62
     7
  2
*UDIM493
 70
    65
 10
0.0
 20
0.0
 30
0.0
  3
*UDIM493
  0
TEXT
  5
   1D2
  8
0
  6
CONTINUOUS
 62
     7
 10
212.525627125643
 20
-90.8424499999473
 30
0.0
 40
3.00000002980232
  1
142
 50
449.999999844103
 41
0.933333333333333
 72
     1
 11
211.025627121329
 21
-86.9424499571323
 31
0.0
 73
     2
  0
LINE
  5
   1D3
  8
0
  6
CONTINUOUS
 62
     7
 10
234.514450073242
 20
-68.9174499511719
 30
0.0
 11
211.525627136231
 21
-68.9174499511719
 31
0.0
  0
LINE
  5
   1D4
  8
0
  6
CONTINUOUS
 62
     7
 10
234.514450073242
 20
-104.417449951172
 30
0.0
 11
211.525627136231
 21
-104.417449951172
 31
0.0
  0
LINE
  5
   1D5
  8
0
  6
CONTINUOUS
 62
     7
 10
213.52562713623
 20
-68.9174499511719
 30
0.0
 11
213.52562713623
 21
-104.417449951172
 31
0.0
  0
LINE
  5
   1D6
  8
0
  6
CONTINUOUS
 62
     7
 10
214.046571566182
 20
-71.8718732283788
 30
0.0
 11
213.52562713623
 21
-68.9174499511719
 31
0.0
  0
LINE
  5
   1D7
  8
0
  6
CONTINUOUS
 62
     7
 10
213.52562713623
 20
-68.9174499511719
 30
0.0
 11
213.004682706279
 21
-71.8718732283788
 31
0.0
  0
LINE
  5
   1D8
  8
0
  6
CONTINUOUS
 62
     7
 10
213.004682706279
 20
-101.463026673965
 30
0.0
 11
213.52562713623
 21
-104.417449951172
 31
0.0
  0
LINE
  5
   1D9
  8
0
  6
CONTINUOUS
 62
     7
 10
213.52562713623
 20
-104.417449951172
 30
0.0
 11
214.046571566182
 21
-101.463026673965
 31
0.0
  0
ENDBLK
  5
   1DA
  8
0
  6
CONTINUOUS
 62
     7
  0
BLOCK
  5
   1DB
  8
0
  6
CONTINUOUS
 62
     7
  2
*UDIM494
 70
    65
 10
0.0
 20
0.0
 30
0.0
  3
*UDIM494
  0
TEXT
  5
   1DC
  8
0
  6
CONTINUOUS
 62
     7
 10
220.651153553866
 20
-90.8424499999473
 30
0.0
 40
3.00000002980232
  1
112
 50
449.999999844103
 41
0.933333333333333
 72
     1
 11
219.151153549552
 21
-86.9424499571323
 31
0.0
 73
     2
  0
LINE
  5
   1DD
  8
0
  6
CONTINUOUS
 62
     7
 10
232.639450073242
 20
-72.6674499511719
 30
0.0
 11
219.651153564453
 21
-72.6674499511719
 31
0.0
  0
LINE
  5
   1DE
  8
0
  6
CONTINUOUS
 62
     7
 10
232.639450073242
 20
-100.667449951172
 30
0.0
 11
219.651153564453
 21
-100.667449951172
 31
0.0
  0
LINE
  5
   1DF
  8
0
  6
CONTINUOUS
 62
     7
 10
221.651153564453
 20
-72.6674499511719
 30
0.0
 11
221.651153564453
 21
-100.667449951172
 31
0.0
  0
LINE
  5
   1E0
  8
0
  6
CONTINUOUS
 62
     7
 10
222.172097994405
 20
-75.6218732283788
 30
0.0
 11
221.651153564453
 21
-72.6674499511719
 31
0.0
  0
LINE
  5
   1E1
  8
0
  6
CONTINUOUS
 62
     7
 10
221.651153564453
 20
-72.6674499511719
 30
0.0
 11
221.130209134501
 21
-75.6218732283788
 31
0.0
  0
LINE
  5
   1E2
  8
0
  6
CONTINUOUS
 62
     7
 10
221.130209134501
 20
-97.7130266739649
 30
0.0
 11
221.651153564453
 21
-100.667449951172
 31
0.0
  0
LINE
  5
   1E3
  8
0
  6
CONTINUOUS
 62
     7
 10
221.651153564453
 20
-100.667449951172
 30
0.0
 11
222.172097994405
 21
-97.7130266739649
 31
0.0
  0
ENDBLK
  5
   1E4
  8
0
  6
CONTINUOUS
 62
     7
  0
BLOCK
  5
   1E5
  8
0
  6
CONTINUOUS
 62
     7
  2
*UDIM495
 70
    65
 10
0.0
 20
0.0
 30
0.0
  3
*UDIM495
  0
TEXT
  5
   1E6
  8
0
  6
CONTINUOUS
 62
     7
 10
278.304203533209
 20
-55.6463222629151
 30
0.0
 40
3.00000002980232
  1
7
 50
404.868411918951
 41
0.933333333333334
 72
     1
 11
278.025583891139
 21
-53.8071998733508
 31
0.0
 73
     2
  0
TEXT
  5
   1E7
  8
0
  6
CONTINUOUS
 62
     7
 10
276.071707533884
 20
-57.8685872506205
 30
0.0
 40
3.00000002980232
  1
Ø
 50
404.868411918951
 41
0.933333333333334
 72
     1
 11
275.793087891814
 21
-56.0294648610562
 31
0.0
 73
     2
  0
LINE
  5
   1E8
  8
0
  6
CONTINUOUS
 62
     7
 10
280.568888050112
 20
-54.8029930514231
 30
0.0
 11
265.769312297608
 21
-69.5347457791433
 31
0.0
  0
LINE
  5
   1E9
  8
0
  6
CONTINUOUS
 62
     7
 10
268.735956598815
 20
-65.846656428228
 30
0.0
 11
267.009587848877
 21
-68.3001541232005
 31
0.0
  0
LINE
  5
   1EA
  8
0
  6
CONTINUOUS
 62
     7
 10
267.009587848877
 20
-68.3001541232005
 30
0.0
 11
269.470989337591
 21
-66.5850731597011
 31
0.0
  0
LINE
  5
   1EB
  8
0
  6
CONTINUOUS
 62
     7
 10
264.042943547669
 20
-71.9882434741158
 30
0.0
 11
265.769312297608
 21
-69.5347457791433
 31
0.0
  0
LINE
  5
   1EC
  8
0
  6
CONTINUOUS
 62
     7
 10
265.769312297608
 20
-69.5347457791433
 30
0.0
 11
263.307910808894
 21
-71.2498267426427
 31
0.0
  0
ENDBLK
  5
   1ED
  8
0
  6
CONTINUOUS
 62
     7
  0
BLOCK
  5
   1EE
  8
0
  6
CONTINUOUS
 62
     7
  2
*UDIM496
 70
    65
 10
0.0
 20
0.0
 30
0.0
  3
*UDIM496
  0
TEXT
  5
   1EF
  8
0
  6
CONTINUOUS
 62
     7
 10
142.701316818854
 20
-109.414001166552
 30
0.0
 40
3.00000002980232
  1
109.75
 50
449.999999896069
 41
0.933333333333333
 72
     1
 11
141.201316818595
 21
-101.314001083374
 31
0.0
 73
     2
  0
LINE
  5
   1F0
  8
0
  6
CONTINUOUS
 62
     7
 10
131.889190937719
 20
-69.5424499511719
 30
0.0
 11
145.701316833496
 21
-69.5424499511719
 31
0.0
  0
LINE
  5
   1F1
  8
0
  6
CONTINUOUS
 62
     7
 10
141.974729346001
 20
-86.6674499511719
 30
0.0
 11
145.701316833496
 21
-86.6674499511719
 31
0.0
  0
LINE
  5
   1F2
  8
0
  6
CONTINUOUS
 62
     7
 10
143.701316833496
 20
-69.5424499511719
 30
0.0
 11
143.701316833496
 21
-109.41400116384
 31
0.0
  0
LINE
  5
   1F3
  8
0
  6
CONTINUOUS
 62
     7
 10
144.222261263448
 20
-72.4968732283789
 30
0.0
 11
143.701316833496
 21
-69.5424499511719
 31
0.0
  0
LINE
  5
   1F4
  8
0
  6
CONTINUOUS
 62
     7
 10
143.701316833496
 20
-69.5424499511719
 30
0.0
 11
143.180372403544
 21
-72.4968732283789
 31
0.0
  0
LINE
  5
   1F5
  8
0
  6
CONTINUOUS
 62
     7
 10
143.180372403544
 20
-83.7130266739649
 30
0.0
 11
143.701316833496
 21
-86.6674499511719
 31
0.0
  0
LINE
  5
   1F6
  8
0
  6
CONTINUOUS
 62
     7
 10
143.701316833496
 20
-86.6674499511719
 30
0.0
 11
144.222261263448
 21
-83.7130266739649
 31
0.0
  0
ENDBLK
  5
   1F7
  8
0
  6
CONTINUOUS
 62
     7
  0
BLOCK
  5
   1F8
  8
0
  6
CONTINUOUS
 62
     2
  2
*UDIM497
 70
    65
 10
0.0
 20
0.0
 30
0.0
  3
*UDIM497
  0
TEXT
  5
   1F9
  8
0
  6
CONTINUOUS
 62
     2
 10
54.04294327563
 20
-111.388832466045
 30
0.0
 40
3.00000002980232
  1
5,5
 50
372.325635602095
 41
0.933333333333333
 72
     1
 11
57.5328476593668
 21
-109.090883872348
 31
0.0
 73
     2
  0
TEXT
  5
   1FA
  8
0
  6
CONTINUOUS
 62
     2
 10
50.9655502598801
 20
-112.061255167327
 30
0.0
 40
3.00000002980232
  1
Ø
 50
372.325635602095
 41
0.933333333333334
 72
     1
 11
51.719994164583
 21
-110.361015636143
 31
0.0
 73
     2
  0
TEXT
  5
   1FB
  8
0
  6
CONTINUOUS
 62
     2
 10
62.2004772061809
 20
-109.606378633542
 30
0.0
 40
3.00000002980232
  1
 - M5
 50
372.325635602095
 41
0.933333333333333
 72
     1
 11
68.4258420689516
 21
-106.710720977332
 31
0.0
 73
     2
  0
LINE
  5
   1FC
  8
0
  6
CONTINUOUS
 62
     2
 10
94.1645655281629
 20
-103.645691029816
 30
0.0
 11
51.1790177849279
 21
-113.038205329684
 31
0.0
  0
LINE
  5
   1FD
  8
0
  6
CONTINUOUS
 62
     2
 10
96.9396851079226
 20
-102.506080869263
 30
0.0
 11
94.1645655281629
 21
-103.645691029816
 31
0.0
  0
LINE
  5
   1FE
  8
0
  6
CONTINUOUS
 62
     2
 10
94.1645655281629
 20
-103.645691029816
 30
0.0
 11
97.1620945410169
 21
-103.523954358682
 31
0.0
  0
LINE
  5
   1FF
  8
0
  6
CONTINUOUS
 62
     2
 10
90.0461394770384
 20
-105.078819033081
 30
0.0
 11
92.821259056798
 21
-103.939208872528
 31
0.0
  0
LINE
  5
   200
  8
0
  6
CONTINUOUS
 62
     2
 10
92.821259056798
 20
-103.939208872528
 30
0.0
 11
89.8237300439441
 21
-104.060945543662
 31
0.0
  0
ENDBLK
  5
   201
  8
0
  6
CONTINUOUS
 62
     2
  0
BLOCK
  5
   202
  8
0
  6
CONTINUOUS
 62
     2
  2
*UDIM498
 70
    65
 10
0.0
 20
0.0
 30
0.0
  3
*UDIM498
  0
TEXT
  5
   203
  8
0
  6
CONTINUOUS
 62
     2
 10
121.808445992339
 20
-76.5406207993107
 30
0.0
 40
3.00000002980232
  1
35
 50
359.999999896069
 41
0.933333333333333
 72
     1
 11
124.308446019888
 21
-75.0406207889318
 31
0.0
 73
     2
  0
LINE
  5
   204
  8
0
  6
CONTINUOUS
 62
     2
 10
128.49291229248
 20
-77.540620803833
 30
0.0
 11
119.74291229248
 21
-77.540620803833
 31
0.0
  0
LINE
  5
   205
  8
0
  6
CONTINUOUS
 62
     2
 10
131.447335569687
 20
-77.0196763738813
 30
0.0
 11
128.49291229248
 21
-77.540620803833
 31
0.0
  0
LINE
  5
   206
  8
0
  6
CONTINUOUS
 62
     2
 10
128.49291229248
 20
-77.540620803833
 30
0.0
 11
131.447335569687
 21
-78.0615652337847
 31
0.0
  0
LINE
  5
   207
  8
0
  6
CONTINUOUS
 62
     2
 10
116.788489015274
 20
-78.0615652337847
 30
0.0
 11
119.74291229248
 21
-77.540620803833
 31
0.0
  0
LINE
  5
   208
  8
0
  6
CONTINUOUS
 62
     2
 10
119.74291229248
 20
-77.540620803833
 30
0.0
 11
116.788489015274
 21
-77.0196763738813
 31
0.0
  0
ENDBLK
  5
   209
  8
0
  6
CONTINUOUS
 62
     2
  0
BLOCK
  5
   20A
  8
0
  6
CONTINUOUS
 62
     2
  2
*UDIM499
 70
    65
 10
0.0
 20
0.0
 30
0.0
  3
*UDIM499
  0
TEXT
  5
   20B
  8
0
  6
CONTINUOUS
 62
     2
 10
102.442912245064
 20
-58.4865398336435
 30
0.0
 40
3.00000002980232
  1
105
 50
359.999999896069
 41
0.933333333333333
 72
     1
 11
106.34291228652
 21
-56.9865398257971
 31
0.0
 73
     2
  0
LINE
  5
   20C
  8
0
  6
CONTINUOUS
 62
     2
 10
93.4929122924805
 20
-61.6579136909064
 30
0.0
 11
93.4929122924805
 21
-57.4865398406982
 31
0.0
  0
LINE
  5
   20D
  8
0
  6
CONTINUOUS
 62
     2
 10
119.74291229248
 20
-59.4865398406982
 30
0.0
 11
93.4929122924805
 21
-59.4865398406982
 31
0.0
  0
LINE
  5
   20E
  8
0
  6
CONTINUOUS
 62
     2
 10
116.788489015274
 20
-60.0074842706499
 30
0.0
 11
119.74291229248
 21
-59.4865398406982
 31
0.0
  0
LINE
  5
   20F
  8
0
  6
CONTINUOUS
 62
     2
 10
119.74291229248
 20
-59.4865398406982
 30
0.0
 11
116.788489015274
 21
-58.9655954107466
 31
0.0
  0
LINE
  5
   210
  8
0
  6
CONTINUOUS
 62
     2
 10
96.4473355696874
 20
-58.9655954107466
 30
0.0
 11
93.4929122924805
 21
-59.4865398406982
 31
0.0
  0
LINE
  5
   211
  8
0
  6
CONTINUOUS
 62
     2
 10
93.4929122924805
 20
-59.4865398406982
 30
0.0
 11
96.4473355696874
 21
-60.0074842706499
 31
0.0
  0
ENDBLK
  5
   212
  8
0
  6
CONTINUOUS
 62
     2
  0
BLOCK
  5
   213
  8
0
  6
CONTINUOUS
 62
     2
  2
*UDIM500
 70
    65
 10
0.0
 20
0.0
 30
0.0
  3
*UDIM500
  0
TEXT
  5
   214
  8
0
  6
CONTINUOUS
 62
     2
 10
78.8926391531064
 20
-90.8424533318182
 30
0.0
 40
3.00000002980232
  1
237
 50
449.999999896069
 41
0.933333333333333
 72
     1
 11
77.3926391452551
 21
-86.9424532903637
 31
0.0
 73
     2
  0
LINE
  5
   215
  8
0
  6
CONTINUOUS
 62
     2
 10
90.3543339055255
 20
-69.5424485544624
 30
0.0
 11
77.8926391601582
 21
-69.5424311490953
 31
0.0
  0
LINE
  5
   216
  8
0
  6
CONTINUOUS
 62
     2
 10
90.2784286137863
 20
-103.792448519008
 30
0.0
 11
77.8926391601583
 21
-103.792430780527
 31
0.0
  0
LINE
  5
   217
  8
0
  6
CONTINUOUS
 62
     2
 10
79.8926391601563
 20
-69.5424339425142
 30
0.0
 11
79.8926391601563
 21
-103.792433644855
 31
0.0
  0
LINE
  5
   218
  8
0
  6
CONTINUOUS
 62
     2
 10
80.4135835901079
 20
-72.4968572197212
 30
0.0
 11
79.8926391601563
 21
-69.5424339425142
 31
0.0
  0
LINE
  5
   219
  8
0
  6
CONTINUOUS
 62
     2
 10
79.8926391601563
 20
-69.5424339425142
 30
0.0
 11
79.3716947302046
 21
-72.4968572197212
 31
0.0
  0
LINE
  5
   21A
  8
0
  6
CONTINUOUS
 62
     2
 10
79.3716947302046
 20
-100.838010367648
 30
0.0
 11
79.8926391601563
 21
-103.792433644855
 31
0.0
  0
LINE
  5
   21B
  8
0
  6
CONTINUOUS
 62
     2
 10
79.8926391601563
 20
-103.792433644855
 30
0.0
 11
80.4135835901079
 21
-100.838010367648
 31
0.0
  0
ENDBLK
  5
   21C
  8
0
  6
CONTINUOUS
 62
     2
  0
BLOCK
  5
   21D
  8
0
  6
CONTINUOUS
 62
     7
  2
*UDIM501
 70
    65
 10
0.0
 20
0.0
 30
0.0
  3
*UDIM501
  0
TEXT
  5
   21E
  8
0
  6
CONTINUOUS
 62
     7
 10
163.190420713934
 20
62.8074448257518
 30
0.0
 40
2.99999997871263
  1
161
 50
89.9999999480344
 41
0.933333333333333
 72
     1
 11
161.69042072811
 21
66.7074447994368
 31
0.0
 73
     2
  0
TEXT
  5
   21F
  8
0
  6
CONTINUOUS
 62
     7
 10
167.690420735708
 20
60.5241114223979
 30
0.0
 40
3.50000002384186
  1
=  =
 50
89.9999999480344
 41
0.933333333333333
 72
     1
 11
165.940420729387
 21
66.7074447994368
 31
0.0
 73
     2
  0
LINE
  5
   220
  8
0
  6
CONTINUOUS
 62
     7
 10
146.905411846936
 20
37.7653569744465
 30
0.0
 11
166.190420717466
 21
37.7653569744465
 31
0.0
  0
LINE
  5
   221
  8
0
  6
CONTINUOUS
 62
     7
 10
146.905411846936
 20
94.1153546796677
 30
0.0
 11
166.190420717466
 21
94.1153546796677
 31
0.0
  0
LINE
  5
   222
  8
0
  6
CONTINUOUS
 62
     7
 10
164.190420717466
 20
37.7653569744465
 30
0.0
 11
164.190420717466
 21
94.1153546796677
 31
0.0
  0
LINE
  5
   223
  8
0
  6
CONTINUOUS
 62
     7
 10
163.413963561048
 20
40.6631344476571
 30
0.0
 11
164.190420717466
 21
37.7653569744465
 31
0.0
  0
LINE
  5
   224
  8
0
  6
CONTINUOUS
 62
     7
 10
164.190420717466
 20
37.7653569744465
 30
0.0
 11
164.966877873885
 21
40.6631344476571
 31
0.0
  0
LINE
  5
   225
  8
0
  6
CONTINUOUS
 62
     7
 10
164.966877873885
 20
91.2175772064572
 30
0.0
 11
164.190420717466
 21
94.1153546796677
 31
0.0
  0
LINE
  5
   226
  8
0
  6
CONTINUOUS
 62
     7
 10
164.190420717466
 20
94.1153546796677
 30
0.0
 11
163.413963561048
 21
91.2175772064572
 31
0.0
  0
ENDBLK
  5
   227
  8
0
  6
CONTINUOUS
 62
     7
  0
BLOCK
  5
   228
  8
0
  6
CONTINUOUS
 62
     7
  2
*UDIM502
 70
    65
 10
0.0
 20
0.0
 30
0.0
  3
*UDIM502
  0
TEXT
  5
   229
  8
0
  6
CONTINUOUS
 62
     7
 10
51.734928064038
 20
79.7591109353407
 30
0.0
 40
2.99999997871263
  1
125,25
 50
89.9999999480344
 41
0.933333333333333
 72
     1
 11
50.234928082018
 21
87.8591108792234
 31
0.0
 73
     2
  0
LINE
  5
   22A
  8
0
  6
CONTINUOUS
 62
     7
 10
58.7179176804211
 20
109.77786593139
 30
0.0
 11
50.7349280713743
 21
109.77786593139
 31
0.0
  0
LINE
  5
   22B
  8
0
  6
CONTINUOUS
 62
     7
 10
52.7349280713743
 20
65.9403558270571
 30
0.0
 11
52.7349280713743
 21
109.77786593139
 31
0.0
  0
LINE
  5
   22C
  8
0
  6
CONTINUOUS
 62
     7
 10
51.9584709149557
 20
68.8381333002677
 30
0.0
 11
52.7349280713743
 21
65.9403558270571
 31
0.0
  0
LINE
  5
   22D
  8
0
  6
CONTINUOUS
 62
     7
 10
52.7349280713743
 20
65.9403558270571
 30
0.0
 11
53.5113852277928
 21
68.8381333002677
 31
0.0
  0
LINE
  5
   22E
  8
0
  6
CONTINUOUS
 62
     7
 10
53.5113852277928
 20
106.880088458179
 30
0.0
 11
52.7349280713743
 21
109.77786593139
 31
0.0
  0
LINE
  5
   22F
  8
0
  6
CONTINUOUS
 62
     7
 10
52.7349280713743
 20
109.77786593139
 30
0.0
 11
51.9584709149557
 21
106.880088458179
 31
0.0
  0
ENDBLK
  5
   230
  8
0
  6
CONTINUOUS
 62
     7
  0
BLOCK
  5
   231
  8
0
  6
CONTINUOUS
 62
     7
  2
*UDIM503
 70
    65
 10
0.0
 20
0.0
 30
0.0
  3
*UDIM503
  0
TEXT
  5
   232
  8
0
  6
CONTINUOUS
 62
     7
 10
115.842912318801
 20
119.485140141479
 30
0.0
 40
2.99999997871263
  1
152
 50
359.999999948034
 41
0.933333333333333
 72
     1
 11
119.74291229248
 21
120.985140127317
 31
0.0
 73
     2
  0
LINE
  5
   233
  8
0
  6
CONTINUOUS
 62
     7
 10
146.342911839485
 20
94.6778546871183
 30
0.0
 11
146.342911839485
 21
120.485140137961
 31
0.0
  0
LINE
  5
   234
  8
0
  6
CONTINUOUS
 62
     7
 10
93.1429127454758
 20
94.6778546871183
 30
0.0
 11
93.1429127454758
 21
120.485140137961
 31
0.0
  0
LINE
  5
   235
  8
0
  6
CONTINUOUS
 62
     7
 10
146.342911839485
 20
118.485140137961
 30
0.0
 11
93.1429127454758
 21
118.485140137961
 31
0.0
  0
LINE
  5
   236
  8
0
  6
CONTINUOUS
 62
     7
 10
143.445134366275
 20
117.708682981543
 30
0.0
 11
146.342911839485
 21
118.485140137961
 31
0.0
  0
LINE
  5
   237
  8
0
  6
CONTINUOUS
 62
     7
 10
146.342911839485
 20
118.485140137961
 30
0.0
 11
143.445134366275
 21
119.26159729438
 31
0.0
  0
LINE
  5
   238
  8
0
  6
CONTINUOUS
 62
     7
 10
96.0406902186863
 20
119.26159729438
 30
0.0
 11
93.1429127454758
 21
118.485140137961
 31
0.0
  0
LINE
  5
   239
  8
0
  6
CONTINUOUS
 62
     7
 10
93.1429127454758
 20
118.485140137961
 30
0.0
 11
96.0406902186863
 21
117.708682981543
 31
0.0
  0
ENDBLK
  5
   23A
  8
0
  6
CONTINUOUS
 62
     7
  0
BLOCK
  5
   23B
  8
0
  6
CONTINUOUS
 62
     7
  2
*UDIM504
 70
    65
 10
0.0
 20
0.0
 30
0.0
  3
*UDIM504
  0
TEXT
  5
   23C
  8
0
  6
CONTINUOUS
 62
     7
 10
115.842917659377
 20
31.4096789987335
 30
0.0
 40
2.99999997871263
  1
140
 50
359.999999948034
 41
0.933333333333333
 72
     1
 11
119.742917633057
 21
32.9096789845722
 31
0.0
 73
     2
  0
LINE
  5
   23D
  8
0
  6
CONTINUOUS
 62
     7
 10
144.242911875248
 20
46.7403668440787
 30
0.0
 11
144.242911875248
 21
28.4096789952159
 31
0.0
  0
LINE
  5
   23E
  8
0
  6
CONTINUOUS
 62
     7
 10
95.2429233908654
 20
46.7403667922284
 30
0.0
 11
95.2429233908654
 21
28.4096789952159
 31
0.0
  0
LINE
  5
   23F
  8
0
  6
CONTINUOUS
 62
     7
 10
144.242911875248
 20
30.4096789952159
 30
0.0
 11
95.2429233908654
 21
30.4096789952159
 31
0.0
  0
LINE
  5
   240
  8
0
  6
CONTINUOUS
 62
     7
 10
141.345134402037
 20
29.6332218387974
 30
0.0
 11
144.242911875248
 21
30.4096789952159
 31
0.0
  0
LINE
  5
   241
  8
0
  6
CONTINUOUS
 62
     7
 10
144.242911875248
 20
30.4096789952159
 30
0.0
 11
141.345134402037
 21
31.1861361516344
 31
0.0
  0
LINE
  5
   242
  8
0
  6
CONTINUOUS
 62
     7
 10
98.1407008640759
 20
31.1861361516344
 30
0.0
 11
95.2429233908654
 21
30.4096789952159
 31
0.0
  0
LINE
  5
   243
  8
0
  6
CONTINUOUS
 62
     7
 10
95.2429233908654
 20
30.4096789952159
 30
0.0
 11
98.1407008640759
 21
29.6332218387974
 31
0.0
  0
ENDBLK
  5
   244
  8
0
  6
CONTINUOUS
 62
     7
  0
BLOCK
  5
   245
  8
0
  6
CONTINUOUS
 62
     7
  2
*UDIM505
 70
    65
 10
0.0
 20
0.0
 30
0.0
  3
*UDIM505
  0
TEXT
  5
   246
  8
0
  6
CONTINUOUS
 62
     7
 10
80.4928934707924
 20
2.25250249852888
 30
0.0
 40
2.99999997871263
  1
70
 50
359.999999948034
 41
0.933333333333333
 72
     1
 11
82.9928934544058
 21
3.75250248563033
 31
0.0
 73
     2
  0
LINE
  5
   247
  8
0
  6
CONTINUOUS
 62
     7
 10
95.2428932457895
 20
16.3778614875081
 30
0.0
 11
95.2428932457895
 21
-0.747497503725981
 31
0.0
  0
LINE
  5
   248
  8
0
  6
CONTINUOUS
 62
     7
 10
70.742893663022
 20
16.3778614875081
 30
0.0
 11
70.742893663022
 21
-0.747497503725981
 31
0.0
  0
LINE
  5
   249
  8
0
  6
CONTINUOUS
 62
     7
 10
95.2428932457895
 20
1.25250249627402
 30
0.0
 11
70.742893663022
 21
1.25250249627402
 31
0.0
  0
LINE
  5
   24A
  8
0
  6
CONTINUOUS
 62
     7
 10
92.345115772579
 20
0.476045339855474
 30
0.0
 11
95.2428932457895
 21
1.25250249627402
 31
0.0
  0
LINE
  5
   24B
  8
0
  6
CONTINUOUS
 62
     7
 10
95.2428932457895
 20
1.25250249627402
 30
0.0
 11
92.345115772579
 21
2.02895965269256
 31
0.0
  0
LINE
  5
   24C
  8
0
  6
CONTINUOUS
 62
     7
 10
73.6406711362326
 20
2.02895965269256
 30
0.0
 11
70.742893663022
 21
1.25250249627402
 31
0.0
  0
LINE
  5
   24D
  8
0
  6
CONTINUOUS
 62
     7
 10
70.742893663022
 20
1.25250249627402
 30
0.0
 11
73.6406711362326
 21
0.476045339855474
 31
0.0
  0
ENDBLK
  5
   24E
  8
0
  6
CONTINUOUS
 62
     7
  0
BLOCK
  5
   24F
  8
0
  6
CONTINUOUS
 62
     7
  2
*UDIM506
 70
    65
 10
0.0
 20
0.0
 30
0.0
  3
*UDIM506
  0
TEXT
  5
   250
  8
0
  6
CONTINUOUS
 62
     7
 10
104.992902785522
 20
2.25250249852888
 30
0.0
 40
2.99999997871263
  1
70
 50
359.999999948034
 41
0.933333333333333
 72
     1
 11
107.492902769135
 21
3.75250248563033
 31
0.0
 73
     2
  0
LINE
  5
   251
  8
0
  6
CONTINUOUS
 62
     7
 10
119.74291229248
 20
1.25250249627402
 30
0.0
 11
95.2428932457895
 21
1.25250249627402
 31
0.0
  0
LINE
  5
   252
  8
0
  6
CONTINUOUS
 62
     7
 10
116.84513481927
 20
0.476045339855474
 30
0.0
 11
119.74291229248
 21
1.25250249627402
 31
0.0
  0
LINE
  5
   253
  8
0
  6
CONTINUOUS
 62
     7
 10
119.74291229248
 20
1.25250249627402
 30
0.0
 11
116.84513481927
 21
2.02895965269256
 31
0.0
  0
LINE
  5
   254
  8
0
  6
CONTINUOUS
 62
     7
 10
98.1406707190001
 20
2.02895965269256
 30
0.0
 11
95.2428932457895
 21
1.25250249627402
 31
0.0
  0
LINE
  5
   255
  8
0
  6
CONTINUOUS
 62
     7
 10
95.2428932457895
 20
1.25250249627402
 30
0.0
 11
98.1406707190001
 21
0.476045339855474
 31
0.0
  0
ENDBLK
  5
   256
  8
0
  6
CONTINUOUS
 62
     7
  0
BLOCK
  5
   257
  8
0
  6
CONTINUOUS
 62
     7
  2
*UDIM507
 70
    65
 10
0.0
 20
0.0
 30
0.0
  3
*UDIM507
  0
TEXT
  5
   258
  8
0
  6
CONTINUOUS
 62
     7
 10
129.492890639109
 20
2.25250249852888
 30
0.0
 40
2.99999997871263
  1
70
 50
359.999999948034
 41
0.933333333333333
 72
     1
 11
131.992890622722
 21
3.75250248563033
 31
0.0
 73
     2
  0
LINE
  5
   259
  8
0
  6
CONTINUOUS
 62
     7
 10
144.242868952964
 20
16.3778413150016
 30
0.0
 11
144.242868952964
 21
-0.747497503725981
 31
0.0
  0
LINE
  5
   25A
  8
0
  6
CONTINUOUS
 62
     7
 10
144.242868952964
 20
1.25250249627402
 30
0.0
 11
119.74291229248
 21
1.25250249627402
 31
0.0
  0
LINE
  5
   25B
  8
0
  6
CONTINUOUS
 62
     7
 10
141.345091479754
 20
0.476045339855474
 30
0.0
 11
144.242868952964
 21
1.25250249627402
 31
0.0
  0
LINE
  5
   25C
  8
0
  6
CONTINUOUS
 62
     7
 10
144.242868952964
 20
1.25250249627402
 30
0.0
 11
141.345091479754
 21
2.02895965269256
 31
0.0
  0
LINE
  5
   25D
  8
0
  6
CONTINUOUS
 62
     7
 10
122.640689765691
 20
2.02895965269256
 30
0.0
 11
119.74291229248
 21
1.25250249627402
 31
0.0
  0
LINE
  5
   25E
  8
0
  6
CONTINUOUS
 62
     7
 10
119.74291229248
 20
1.25250249627402
 30
0.0
 11
122.640689765691
 21
0.476045339855474
 31
0.0
  0
ENDBLK
  5
   25F
  8
0
  6
CONTINUOUS
 62
     7
  0
BLOCK
  5
   260
  8
0
  6
CONTINUOUS
 62
     7
  2
*UDIM508
 70
    65
 10
0.0
 20
0.0
 30
0.0
  3
*UDIM508
  0
TEXT
  5
   261
  8
0
  6
CONTINUOUS
 62
     7
 10
42.2117609419087
 20
-39.1360995794306
 30
0.0
 40
2.99999997871263
  1
79
 50
359.999999948034
 41
0.933333333333333
 72
     1
 11
44.7117609255221
 21
-37.6360995923292
 31
0.0
 73
     2
  0
LINE
  5
   262
  8
0
  6
CONTINUOUS
 62
     7
 10
58.5804211244429
 20
15.9578617347734
 30
0.0
 11
58.5804211244429
 21
-42.1360995816855
 31
0.0
  0
LINE
  5
   263
  8
0
  6
CONTINUOUS
 62
     7
 10
30.8431007266013
 20
-25.7971127467972
 30
0.0
 11
30.8431007266013
 21
-42.1360995816855
 31
0.0
  0
LINE
  5
   264
  8
0
  6
CONTINUOUS
 62
     7
 10
58.5804211244429
 20
-40.1360995816855
 30
0.0
 11
30.8431007266013
 21
-40.1360995816855
 31
0.0
  0
LINE
  5
   265
  8
0
  6
CONTINUOUS
 62
     7
 10
55.6826436512324
 20
-40.912556738104
 30
0.0
 11
58.5804211244429
 21
-40.1360995816855
 31
0.0
  0
LINE
  5
   266
  8
0
  6
CONTINUOUS
 62
     7
 10
58.5804211244429
 20
-40.1360995816855
 30
0.0
 11
55.6826436512324
 21
-39.359642425267
 31
0.0
  0
LINE
  5
   267
  8
0
  6
CONTINUOUS
 62
     7
 10
33.7408781998118
 20
-39.359642425267
 30
0.0
 11
30.8431007266013
 21
-40.1360995816855
 31
0.0
  0
LINE
  5
   268
  8
0
  6
CONTINUOUS
 62
     7
 10
30.8431007266013
 20
-40.1360995816855
 30
0.0
 11
33.7408781998118
 21
-40.912556738104
 31
0.0
  0
ENDBLK
  5
   269
  8
0
  6
CONTINUOUS
 62
     7
  0
BLOCK
  5
   26A
  8
0
  6
CONTINUOUS
 62
     7
  2
*UDIM509
 70
    65
 10
0.0
 20
0.0
 30
0.0
  3
*UDIM509
  0
TEXT
  5
   26B
  8
0
  6
CONTINUOUS
 62
     7
 10
103.592920317789
 20
-39.1360995781679
 30
0.0
 40
2.99999997871263
  1
280
 50
359.999999948034
 41
0.933333333333333
 72
     1
 11
107.492920291468
 21
-37.6360995923292
 31
0.0
 73
     2
  0
LINE
  5
   26C
  8
0
  6
CONTINUOUS
 62
     7
 10
156.405419458493
 20
15.9578617347734
 30
0.0
 11
156.405419458493
 21
-42.1360995816855
 31
0.0
  0
LINE
  5
   26D
  8
0
  6
CONTINUOUS
 62
     7
 10
156.405419458493
 20
-40.1360995816855
 30
0.0
 11
58.5804211244429
 21
-40.1360995816855
 31
0.0
  0
LINE
  5
   26E
  8
0
  6
CONTINUOUS
 62
     7
 10
153.507641985283
 20
-40.912556738104
 30
0.0
 11
156.405419458493
 21
-40.1360995816855
 31
0.0
  0
LINE
  5
   26F
  8
0
  6
CONTINUOUS
 62
     7
 10
156.405419458493
 20
-40.1360995816855
 30
0.0
 11
153.507641985283
 21
-39.359642425267
 31
0.0
  0
LINE
  5
   270
  8
0
  6
CONTINUOUS
 62
     7
 10
61.4781985976535
 20
-39.359642425267
 30
0.0
 11
58.5804211244429
 21
-40.1360995816855
 31
0.0
  0
LINE
  5
   271
  8
0
  6
CONTINUOUS
 62
     7
 10
58.5804211244429
 20
-40.1360995816855
 30
0.0
 11
61.4781985976535
 21
-40.912556738104
 31
0.0
  0
ENDBLK
  5
   272
  8
0
  6
CONTINUOUS
 62
     7
  0
BLOCK
  5
   273
  8
0
  6
CONTINUOUS
 62
     7
  2
*UDIM510
 70
    65
 10
0.0
 20
0.0
 30
0.0
  3
*UDIM510
  0
TEXT
  5
   274
  8
0
  6
CONTINUOUS
 62
     7
 10
167.774152649105
 20
-39.1360995794306
 30
0.0
 40
2.99999997871263
  1
79
 50
359.999999948034
 41
0.933333333333333
 72
     1
 11
170.274152632718
 21
-37.6360995923292
 31
0.0
 73
     2
  0
LINE
  5
   275
  8
0
  6
CONTINUOUS
 62
     7
 10
184.142885806943
 20
-25.7970913844929
 30
0.0
 11
184.142885806943
 21
-42.1360995816855
 31
0.0
  0
LINE
  5
   276
  8
0
  6
CONTINUOUS
 62
     7
 10
184.142885806943
 20
-40.1360995816855
 30
0.0
 11
156.405419458493
 21
-40.1360995816855
 31
0.0
  0
LINE
  5
   277
  8
0
  6
CONTINUOUS
 62
     7
 10
181.245108333733
 20
-40.912556738104
 30
0.0
 11
184.142885806943
 21
-40.1360995816855
 31
0.0
  0
LINE
  5
   278
  8
0
  6
CONTINUOUS
 62
     7
 10
184.142885806943
 20
-40.1360995816855
 30
0.0
 11
181.245108333733
 21
-39.359642425267
 31
0.0
  0
LINE
  5
   279
  8
0
  6
CONTINUOUS
 62
     7
 10
159.303196931704
 20
-39.359642425267
 30
0.0
 11
156.405419458493
 21
-40.1360995816855
 31
0.0
  0
LINE
  5
   27A
  8
0
  6
CONTINUOUS
 62
     7
 10
156.405419458493
 20
-40.1360995816855
 30
0.0
 11
159.303196931704
 21
-40.912556738104
 31
0.0
  0
ENDBLK
  5
   27B
  8
0
  6
CONTINUOUS
 62
     7
  0
BLOCK
  5
   27C
  8
0
  6
CONTINUOUS
 62
     7
  2
*UDIM511
 70
    65
 10
0.0
 20
0.0
 30
0.0
  3
*UDIM511
  0
TEXT
  5
   27D
  8
0
  6
CONTINUOUS
 62
     7
 10
121.267884508091
 20
158.790531972005
 30
0.0
 40
2.99999997871263
  1
23
 50
359.999999948034
 41
0.933333333333333
 72
     1
 11
123.767884491704
 21
160.290531959106
 31
0.0
 73
     2
  0
LINE
  5
   27E
  8
0
  6
CONTINUOUS
 62
     7
 10
127.792895104311
 20
147.52782516644
 30
0.0
 11
127.792895104311
 21
159.79053196975
 31
0.0
  0
LINE
  5
   27F
  8
0
  6
CONTINUOUS
 62
     7
 10
132.792895104311
 20
157.79053196975
 30
0.0
 11
114.742873879098
 21
157.79053196975
 31
0.0
  0
LINE
  5
   280
  8
0
  6
CONTINUOUS
 62
     7
 10
130.690672577522
 20
158.566989126169
 30
0.0
 11
127.792895104311
 21
157.79053196975
 31
0.0
  0
LINE
  5
   281
  8
0
  6
CONTINUOUS
 62
     7
 10
127.792895104311
 20
157.79053196975
 30
0.0
 11
130.690672577522
 21
157.014074813332
 31
0.0
  0
LINE
  5
   282
  8
0
  6
CONTINUOUS
 62
     7
 10
116.845096405887
 20
157.014074813332
 30
0.0
 11
119.742873879098
 21
157.79053196975
 31
0.0
  0
LINE
  5
   283
  8
0
  6
CONTINUOUS
 62
     7
 10
119.742873879098
 20
157.79053196975
 30
0.0
 11
116.845096405887
 21
158.566989126169
 31
0.0
  0
ENDBLK
  5
   284
  8
0
  6
CONTINUOUS
 62
     7
  0
BLOCK
  5
   285
  8
0
  6
CONTINUOUS
 62
     7
  2
*UDIM512
 70
    65
 10
0.0
 20
0.0
 30
0.0
  3
*UDIM512
  0
TEXT
  5
   286
  8
0
  6
CONTINUOUS
 62
     7
 10
105.403022180296
 20
166.576651049751
 30
0.0
 40
2.99999997871263
  1
22,5
 50
359.999999948034
 41
0.933333333333333
 72
     1
 11
110.703022144042
 21
168.076651034327
 31
0.0
 73
     2
  0
LINE
  5
   287
  8
0
  6
CONTINUOUS
 62
     7
 10
127.792895104311
 20
147.52782516644
 30
0.0
 11
127.792895104311
 21
167.57665104497
 31
0.0
  0
LINE
  5
   288
  8
0
  6
CONTINUOUS
 62
     7
 10
119.917991112512
 20
147.527827213358
 30
0.0
 11
119.917991112512
 21
167.57665104497
 31
0.0
  0
LINE
  5
   289
  8
0
  6
CONTINUOUS
 62
     7
 10
127.792895104311
 20
165.57665104497
 30
0.0
 11
105.403022181649
 21
165.57665104497
 31
0.0
  0
LINE
  5
   28A
  8
0
  6
CONTINUOUS
 62
     7
 10
130.690672577522
 20
166.353108201389
 30
0.0
 11
127.792895104311
 21
165.57665104497
 31
0.0
  0
LINE
  5
   28B
  8
0
  6
CONTINUOUS
 62
     7
 10
127.792895104311
 20
165.57665104497
 30
0.0
 11
130.690672577522
 21
164.800193888552
 31
0.0
  0
LINE
  5
   28C
  8
0
  6
CONTINUOUS
 62
     7
 10
117.020213639302
 20
164.800193888552
 30
0.0
 11
119.917991112512
 21
165.57665104497
 31
0.0
  0
LINE
  5
   28D
  8
0
  6
CONTINUOUS
 62
     7
 10
119.917991112512
 20
165.57665104497
 30
0.0
 11
117.020213639302
 21
166.353108201389
 31
0.0
  0
ENDBLK
  5
   28E
  8
0
  6
CONTINUOUS
 62
     7
  0
BLOCK
  5
   28F
  8
0
  6
CONTINUOUS
 62
     7
  2
*UDIM513
 70
    65
 10
0.0
 20
0.0
 30
0.0
  3
*UDIM513
  0
TEXT
  5
   290
  8
0
  6
CONTINUOUS
 62
     7
 10
138.645978857485
 20
166.576651049751
 30
0.0
 40
2.99999997871263
  1
22,5
 50
359.999999948034
 41
0.933333333333333
 72
     1
 11
143.94597882123
 21
168.076651034327
 31
0.0
 73
     2
  0
LINE
  5
   291
  8
0
  6
CONTINUOUS
 62
     7
 10
135.667804180408
 20
147.527843554483
 30
0.0
 11
135.667804180408
 21
167.57665104497
 31
0.0
  0
LINE
  5
   292
  8
0
  6
CONTINUOUS
 62
     7
 10
149.245978783623
 20
165.57665104497
 30
0.0
 11
127.792895104311
 21
165.57665104497
 31
0.0
  0
LINE
  5
   293
  8
0
  6
CONTINUOUS
 62
     7
 10
138.565581653618
 20
166.353108201389
 30
0.0
 11
135.667804180408
 21
165.57665104497
 31
0.0
  0
LINE
  5
   294
  8
0
  6
CONTINUOUS
 62
     7
 10
135.667804180408
 20
165.57665104497
 30
0.0
 11
138.565581653618
 21
164.800193888552
 31
0.0
  0
CIRCLE
  5
   295
  8
0
  6
CONTINUOUS
 62
     7
 10
127.792895104311
 20
165.57665104497
 30
0.0
 40
0.500000000000001
  0
ENDBLK
  5
   296
  8
0
  6
CONTINUOUS
 62
     7
  0
BLOCK
  5
   297
  8
0
  6
CONTINUOUS
 62
     7
  2
*UDIM514
 70
    65
 10
0.0
 20
0.0
 30
0.0
  3
*UDIM514
  0
TEXT
  5
   298
  8
0
  6
CONTINUOUS
 62
     7
 10
165.892853438909
 20
159.512955391355
 30
0.0
 40
2.99999997871263
  1
90
 50
359.999999948034
 41
0.933333333333333
 72
     1
 11
168.392853422523
 21
161.012955378457
 31
0.0
 73
     2
  0
LINE
  5
   299
  8
0
  6
CONTINUOUS
 62
     7
 10
184.142847393561
 20
151.552813993799
 30
0.0
 11
184.142847393561
 21
160.5129553891
 31
0.0
  0
LINE
  5
   29A
  8
0
  6
CONTINUOUS
 62
     7
 10
152.642859451485
 20
151.552824674951
 30
0.0
 11
152.642859451485
 21
160.5129553891
 31
0.0
  0
LINE
  5
   29B
  8
0
  6
CONTINUOUS
 62
     7
 10
184.142847393561
 20
158.5129553891
 30
0.0
 11
152.642859451485
 21
158.5129553891
 31
0.0
  0
LINE
  5
   29C
  8
0
  6
CONTINUOUS
 62
     7
 10
181.24506992035
 20
157.736498232682
 30
0.0
 11
184.142847393561
 21
158.5129553891
 31
0.0
  0
LINE
  5
   29D
  8
0
  6
CONTINUOUS
 62
     7
 10
184.142847393561
 20
158.5129553891
 30
0.0
 11
181.24506992035
 21
159.289412545519
 31
0.0
  0
LINE
  5
   29E
  8
0
  6
CONTINUOUS
 62
     7
 10
155.540636924695
 20
159.289412545519
 30
0.0
 11
152.642859451485
 21
158.5129553891
 31
0.0
  0
LINE
  5
   29F
  8
0
  6
CONTINUOUS
 62
     7
 10
152.642859451485
 20
158.5129553891
 30
0.0
 11
155.540636924695
 21
157.736498232682
 31
0.0
  0
ENDBLK
  5
   2A0
  8
0
  6
CONTINUOUS
 62
     7
  0
BLOCK
  5
   2A1
  8
0
  6
CONTINUOUS
 62
     7
  2
*UDIM515
 70
    65
 10
0.0
 20
0.0
 30
0.0
  3
*UDIM515
  0
TEXT
  5
   2A2
  8
0
  6
CONTINUOUS
 62
     7
 10
173.767870209324
 20
175.96815549878
 30
0.0
 40
2.99999997871263
  1
45
 50
359.999999948034
 41
0.933333333333333
 72
     1
 11
176.267870192938
 21
177.468155485881
 31
0.0
 73
     2
  0
LINE
  5
   2A3
  8
0
  6
CONTINUOUS
 62
     7
 10
184.142847393561
 20
151.552813993799
 30
0.0
 11
184.142847393561
 21
176.968155496525
 31
0.0
  0
LINE
  5
   2A4
  8
0
  6
CONTINUOUS
 62
     7
 10
168.392892992315
 20
147.527813702473
 30
0.0
 11
168.392892992315
 21
176.968155496525
 31
0.0
  0
LINE
  5
   2A5
  8
0
  6
CONTINUOUS
 62
     7
 10
184.142847393561
 20
174.968155496525
 30
0.0
 11
168.392892992315
 21
174.968155496525
 31
0.0
  0
LINE
  5
   2A6
  8
0
  6
CONTINUOUS
 62
     7
 10
181.24506992035
 20
174.191698340106
 30
0.0
 11
184.142847393561
 21
174.968155496525
 31
0.0
  0
LINE
  5
   2A7
  8
0
  6
CONTINUOUS
 62
     7
 10
184.142847393561
 20
174.968155496525
 30
0.0
 11
181.24506992035
 21
175.744612652943
 31
0.0
  0
LINE
  5
   2A8
  8
0
  6
CONTINUOUS
 62
     7
 10
171.290670465526
 20
175.744612652943
 30
0.0
 11
168.392892992315
 21
174.968155496525
 31
0.0
  0
LINE
  5
   2A9
  8
0
  6
CONTINUOUS
 62
     7
 10
168.392892992315
 20
174.968155496525
 30
0.0
 11
171.290670465526
 21
174.191698340106
 31
0.0
  0
ENDBLK
  5
   2AA
  8
0
  6
CONTINUOUS
 62
     7
  0
BLOCK
  5
   2AB
  8
0
  6
CONTINUOUS
 62
     7
  2
*UDIM516
 70
    65
 10
0.0
 20
0.0
 30
0.0
  3
*UDIM516
  0
TEXT
  5
   2AC
  8
0
  6
CONTINUOUS
 62
     7
 10
144.192894074634
 20
175.968155500042
 30
0.0
 40
2.99999997871263
  1
116
 50
359.999999948034
 41
0.933333333333333
 72
     1
 11
148.092894048313
 21
177.468155485881
 31
0.0
 73
     2
  0
LINE
  5
   2AD
  8
0
  6
CONTINUOUS
 62
     7
 10
127.792895104311
 20
147.52782516644
 30
0.0
 11
127.792895104311
 21
176.968155496525
 31
0.0
  0
LINE
  5
   2AE
  8
0
  6
CONTINUOUS
 62
     7
 10
168.392892992315
 20
174.968155496525
 30
0.0
 11
127.792895104311
 21
174.968155496525
 31
0.0
  0
LINE
  5
   2AF
  8
0
  6
CONTINUOUS
 62
     7
 10
165.495115519104
 20
174.191698340106
 30
0.0
 11
168.392892992315
 21
174.968155496525
 31
0.0
  0
LINE
  5
   2B0
  8
0
  6
CONTINUOUS
 62
     7
 10
168.392892992315
 20
174.968155496525
 30
0.0
 11
165.495115519104
 21
175.744612652943
 31
0.0
  0
LINE
  5
   2B1
  8
0
  6
CONTINUOUS
 62
     7
 10
130.690672577522
 20
175.744612652943
 30
0.0
 11
127.792895104311
 21
174.968155496525
 31
0.0
  0
LINE
  5
   2B2
  8
0
  6
CONTINUOUS
 62
     7
 10
127.792895104311
 20
174.968155496525
 30
0.0
 11
130.690672577522
 21
174.191698340106
 31
0.0
  0
ENDBLK
  5
   2B3
  8
0
  6
CONTINUOUS
 62
     7
  0
BLOCK
  5
   2B4
  8
0
  6
CONTINUOUS
 62
     7
  2
*UDIM517
 70
    65
 10
0.0
 20
0.0
 30
0.0
  3
*UDIM517
  0
TEXT
  5
   2B5
  8
0
  6
CONTINUOUS
 62
     7
 10
103.592980051659
 20
175.968155500042
 30
0.0
 40
2.99999997871263
  1
116
 50
359.999999948034
 41
0.933333333333333
 72
     1
 11
107.492980025338
 21
177.468155485881
 31
0.0
 73
     2
  0
LINE
  5
   2B6
  8
0
  6
CONTINUOUS
 62
     7
 10
87.1930649463651
 20
147.5278386392
 30
0.0
 11
87.1930649463651
 21
176.968155496525
 31
0.0
  0
LINE
  5
   2B7
  8
0
  6
CONTINUOUS
 62
     7
 10
127.792895104311
 20
174.968155496525
 30
0.0
 11
87.1930649463651
 21
174.968155496525
 31
0.0
  0
LINE
  5
   2B8
  8
0
  6
CONTINUOUS
 62
     7
 10
124.895117631101
 20
174.191698340106
 30
0.0
 11
127.792895104311
 21
174.968155496525
 31
0.0
  0
LINE
  5
   2B9
  8
0
  6
CONTINUOUS
 62
     7
 10
127.792895104311
 20
174.968155496525
 30
0.0
 11
124.895117631101
 21
175.744612652943
 31
0.0
  0
LINE
  5
   2BA
  8
0
  6
CONTINUOUS
 62
     7
 10
90.0908424195756
 20
175.744612652943
 30
0.0
 11
87.1930649463651
 21
174.968155496525
 31
0.0
  0
LINE
  5
   2BB
  8
0
  6
CONTINUOUS
 62
     7
 10
87.1930649463651
 20
174.968155496525
 30
0.0
 11
90.0908424195756
 21
174.191698340106
 31
0.0
  0
ENDBLK
  5
   2BC
  8
0
  6
CONTINUOUS
 62
     7
  0
BLOCK
  5
   2BD
  8
0
  6
CONTINUOUS
 62
     7
  2
*UDIM518
 70
    65
 10
0.0
 20
0.0
 30
0.0
  3
*UDIM518
  0
TEXT
  5
   2BE
  8
0
  6
CONTINUOUS
 62
     7
 10
62.9930635220018
 20
175.968155500042
 30
0.0
 40
2.99999997871263
  1
116
 50
359.999999948034
 41
0.933333333333333
 72
     1
 11
66.8930634956812
 21
177.468155485881
 31
0.0
 73
     2
  0
LINE
  5
   2BF
  8
0
  6
CONTINUOUS
 62
     7
 10
46.5930620449972
 20
147.527820065845
 30
0.0
 11
46.5930620449972
 21
176.968155496525
 31
0.0
  0
LINE
  5
   2C0
  8
0
  6
CONTINUOUS
 62
     7
 10
87.1930649463651
 20
174.968155496525
 30
0.0
 11
46.5930620449972
 21
174.968155496525
 31
0.0
  0
LINE
  5
   2C1
  8
0
  6
CONTINUOUS
 62
     7
 10
84.2952874731546
 20
174.191698340106
 30
0.0
 11
87.1930649463651
 21
174.968155496525
 31
0.0
  0
LINE
  5
   2C2
  8
0
  6
CONTINUOUS
 62
     7
 10
87.1930649463651
 20
174.968155496525
 30
0.0
 11
84.2952874731546
 21
175.744612652943
 31
0.0
  0
LINE
  5
   2C3
  8
0
  6
CONTINUOUS
 62
     7
 10
49.4908395182077
 20
175.744612652943
 30
0.0
 11
46.5930620449972
 21
174.968155496525
 31
0.0
  0
LINE
  5
   2C4
  8
0
  6
CONTINUOUS
 62
     7
 10
46.5930620449972
 20
174.968155496525
 30
0.0
 11
49.4908395182077
 21
174.191698340106
 31
0.0
  0
ENDBLK
  5
   2C5
  8
0
  6
CONTINUOUS
 62
     7
  0
BLOCK
  5
   2C6
  8
0
  6
CONTINUOUS
 62
     7
  2
*UDIM519
 70
    65
 10
0.0
 20
0.0
 30
0.0
  3
*UDIM519
  0
TEXT
  5
   2C7
  8
0
  6
CONTINUOUS
 62
     7
 10
36.2180621954944
 20
175.96815549878
 30
0.0
 40
2.99999997871263
  1
45
 50
359.999999948034
 41
0.933333333333333
 72
     1
 11
38.7180621791078
 21
177.468155485881
 31
0.0
 73
     2
  0
LINE
  5
   2C8
  8
0
  6
CONTINUOUS
 62
     7
 10
30.8430623132184
 20
151.552835356103
 30
0.0
 11
30.8430623132184
 21
176.968155496525
 31
0.0
  0
LINE
  5
   2C9
  8
0
  6
CONTINUOUS
 62
     7
 10
46.5930620449972
 20
174.968155496525
 30
0.0
 11
30.8430623132184
 21
174.968155496525
 31
0.0
  0
LINE
  5
   2CA
  8
0
  6
CONTINUOUS
 62
     7
 10
43.6952845717867
 20
174.191698340106
 30
0.0
 11
46.5930620449972
 21
174.968155496525
 31
0.0
  0
LINE
  5
   2CB
  8
0
  6
CONTINUOUS
 62
     7
 10
46.5930620449972
 20
174.968155496525
 30
0.0
 11
43.6952845717867
 21
175.744612652943
 31
0.0
  0
LINE
  5
   2CC
  8
0
  6
CONTINUOUS
 62
     7
 10
33.7408397864289
 20
175.744612652943
 30
0.0
 11
30.8430623132184
 21
174.968155496525
 31
0.0
  0
LINE
  5
   2CD
  8
0
  6
CONTINUOUS
 62
     7
 10
30.8430623132184
 20
174.968155496525
 30
0.0
 11
33.7408397864289
 21
174.191698340106
 31
0.0
  0
ENDBLK
  5
   2CE
  8
0
  6
CONTINUOUS
 62
     7
  0
BLOCK
  5
   2CF
  8
0
  6
CONTINUOUS
 62
     7
  2
*UDIM520
 70
    65
 10
0.0
 20
0.0
 30
0.0
  3
*UDIM520
  0
TEXT
  5
   2D0
  8
0
  6
CONTINUOUS
 62
     7
 10
33.2178879643084
 20
117.136631181771
 30
0.0
 40
2.99999997871263
  1
116,5
 50
89.9999999480344
 41
0.933333333333333
 72
     1
 11
31.7178879810203
 21
123.836631135587
 31
0.0
 73
     2
  0
LINE
  5
   2D1
  8
0
  6
CONTINUOUS
 62
     7
 10
58.7179176804211
 20
109.77786593139
 30
0.0
 11
32.2178879703767
 21
109.77786593139
 31
0.0
  0
LINE
  5
   2D2
  8
0
  6
CONTINUOUS
 62
     7
 10
34.2178879703767
 20
109.77786593139
 30
0.0
 11
34.2178879703767
 21
150.552835356103
 31
0.0
  0
LINE
  5
   2D3
  8
0
  6
CONTINUOUS
 62
     7
 10
33.4414308139581
 20
112.6756434046
 30
0.0
 11
34.2178879703767
 21
109.77786593139
 31
0.0
  0
LINE
  5
   2D4
  8
0
  6
CONTINUOUS
 62
     7
 10
34.2178879703767
 20
109.77786593139
 30
0.0
 11
34.9943451267952
 21
112.6756434046
 31
0.0
  0
LINE
  5
   2D5
  8
0
  6
CONTINUOUS
 62
     7
 10
34.9943451267952
 20
147.655057882892
 30
0.0
 11
34.2178879703767
 21
150.552835356103
 31
0.0
  0
LINE
  5
   2D6
  8
0
  6
CONTINUOUS
 62
     7
 10
34.2178879703767
 20
150.552835356103
 30
0.0
 11
33.4414308139581
 21
147.655057882892
 31
0.0
  0
ENDBLK
  5
   2D7
  8
0
  6
CONTINUOUS
 62
     7
  0
BLOCK
  5
   2D8
  8
0
  6
CONTINUOUS
 62
     7
  2
*UDIM521
 70
    65
 10
0.0
 20
0.0
 30
0.0
  3
*UDIM521
  0
TEXT
  5
   2D9
  8
0
  6
CONTINUOUS
 62
     7
 10
33.2178879668444
 20
58.9778640012563
 30
0.0
 40
2.99999997871263
  1
268
 50
89.9999999480344
 41
0.933333333333333
 72
     1
 11
31.7178879810203
 21
62.8778639749413
 31
0.0
 73
     2
  0
LINE
  5
   2DA
  8
0
  6
CONTINUOUS
 62
     7
 10
58.8929027024687
 20
15.977862018493
 30
0.0
 11
32.2178879703767
 21
15.977862018493
 31
0.0
  0
LINE
  5
   2DB
  8
0
  6
CONTINUOUS
 62
     7
 10
34.2178879703767
 20
15.977862018493
 30
0.0
 11
34.2178879703767
 21
109.77786593139
 31
0.0
  0
LINE
  5
   2DC
  8
0
  6
CONTINUOUS
 62
     7
 10
33.4414308139581
 20
18.8756394917035
 30
0.0
 11
34.2178879703767
 21
15.977862018493
 31
0.0
  0
LINE
  5
   2DD
  8
0
  6
CONTINUOUS
 62
     7
 10
34.2178879703767
 20
15.977862018493
 30
0.0
 11
34.9943451267952
 21
18.8756394917035
 31
0.0
  0
LINE
  5
   2DE
  8
0
  6
CONTINUOUS
 62
     7
 10
34.9943451267952
 20
106.880088458179
 30
0.0
 11
34.2178879703767
 21
109.77786593139
 31
0.0
  0
LINE
  5
   2DF
  8
0
  6
CONTINUOUS
 62
     7
 10
34.2178879703767
 20
109.77786593139
 30
0.0
 11
33.4414308139581
 21
106.880088458179
 31
0.0
  0
ENDBLK
  5
   2E0
  8
0
  6
CONTINUOUS
 62
     7
  0
BLOCK
  5
   2E1
  8
0
  6
CONTINUOUS
 62
     7
  2
*UDIM522
 70
    65
 10
0.0
 20
0.0
 30
0.0
  3
*UDIM522
  0
TEXT
  5
   2E2
  8
0
  6
CONTINUOUS
 62
     7
 10
33.2178879643084
 20
-6.07669646004515
 30
0.0
 40
2.99999997871263
  1
116,5
 50
89.9999999480344
 41
0.933333333333333
 72
     1
 11
31.7178879810203
 21
0.623303493771616
 31
0.0
 73
     2
  0
LINE
  5
   2E3
  8
0
  6
CONTINUOUS
 62
     7
 10
34.2178879703767
 20
-24.7971127467972
 30
0.0
 11
34.2178879703767
 21
15.977862018493
 31
0.0
  0
LINE
  5
   2E4
  8
0
  6
CONTINUOUS
 62
     7
 10
33.4414308139581
 20
-21.8993352735867
 30
0.0
 11
34.2178879703767
 21
-24.7971127467972
 31
0.0
  0
LINE
  5
   2E5
  8
0
  6
CONTINUOUS
 62
     7
 10
34.2178879703767
 20
-24.7971127467972
 30
0.0
 11
34.9943451267952
 21
-21.8993352735867
 31
0.0
  0
LINE
  5
   2E6
  8
0
  6
CONTINUOUS
 62
     7
 10
34.9943451267952
 20
13.0800845452824
 30
0.0
 11
34.2178879703767
 21
15.977862018493
 31
0.0
  0
LINE
  5
   2E7
  8
0
  6
CONTINUOUS
 62
     7
 10
34.2178879703767
 20
15.977862018493
 30
0.0
 11
33.4414308139581
 21
13.0800845452824
 31
0.0
  0
ENDBLK
  5
   2E8
  8
0
  6
CONTINUOUS
 62
     7
  0
BLOCK
  5
   2E9
  8
0
  6
CONTINUOUS
 62
     7
  2
*UDIM523
 70
    65
 10
0.0
 20
0.0
 30
0.0
  3
*UDIM523
  0
TEXT
  5
   2EA
  8
0
  6
CONTINUOUS
 62
     7
 10
179.517106464017
 20
95.7749918233722
 30
0.0
 40
2.99999997871263
  1
221,75
 50
89.9999999480344
 41
0.933333333333333
 72
     1
 11
178.017106481997
 21
103.874991767255
 31
0.0
 73
     2
  0
LINE
  5
   2EB
  8
0
  6
CONTINUOUS
 62
     7
 10
160.142389443773
 20
65.9403558270571
 30
0.0
 11
182.517106471353
 21
65.9403558270571
 31
0.0
  0
LINE
  5
   2EC
  8
0
  6
CONTINUOUS
 62
     7
 10
180.242803438336
 20
143.552809264032
 30
0.0
 11
182.517106471353
 21
143.552809264032
 31
0.0
  0
LINE
  5
   2ED
  8
0
  6
CONTINUOUS
 62
     7
 10
180.517106471353
 20
65.9403558270571
 30
0.0
 11
180.517106471353
 21
143.552809264032
 31
0.0
  0
LINE
  5
   2EE
  8
0
  6
CONTINUOUS
 62
     7
 10
179.740649314935
 20
68.8381333002677
 30
0.0
 11
180.517106471353
 21
65.9403558270571
 31
0.0
  0
LINE
  5
   2EF
  8
0
  6
CONTINUOUS
 62
     7
 10
180.517106471353
 20
65.9403558270571
 30
0.0
 11
181.293563627772
 21
68.8381333002677
 31
0.0
  0
LINE
  5
   2F0
  8
0
  6
CONTINUOUS
 62
     7
 10
181.293563627772
 20
140.655031790821
 30
0.0
 11
180.517106471353
 21
143.552809264032
 31
0.0
  0
LINE
  5
   2F1
  8
0
  6
CONTINUOUS
 62
     7
 10
180.517106471353
 20
143.552809264032
 30
0.0
 11
179.740649314935
 21
140.655031790821
 31
0.0
  0
ENDBLK
  5
   2F2
  8
0
  6
CONTINUOUS
 62
     7
  0
BLOCK
  5
   2F3
  8
0
  6
CONTINUOUS
 62
     7
  2
*UDIM524
 70
    65
 10
0.0
 20
0.0
 30
0.0
  3
*UDIM524
  0
TEXT
  5
   2F4
  8
0
  6
CONTINUOUS
 62
     7
 10
189.837439249568
 20
156.05464989116
 30
0.0
 40
2.99999997871263
  1
20
 50
89.9999999480344
 41
0.933333333333333
 72
     1
 11
188.337439262476
 21
158.554649874779
 31
0.0
 73
     2
  0
LINE
  5
   2F5
  8
0
  6
CONTINUOUS
 62
     7
 10
180.242803438336
 20
143.552809264032
 30
0.0
 11
192.837439251832
 21
143.552809264032
 31
0.0
  0
LINE
  5
   2F6
  8
0
  6
CONTINUOUS
 62
     7
 10
185.142894144676
 20
150.552842882281
 30
0.0
 11
192.837439251832
 21
150.552842882281
 31
0.0
  0
LINE
  5
   2F7
  8
0
  6
CONTINUOUS
 62
     7
 10
190.837439251832
 20
143.552809264032
 30
0.0
 11
190.837439251832
 21
161.05464985704
 31
0.0
  0
LINE
  5
   2F8
  8
0
  6
CONTINUOUS
 62
     7
 10
191.613896408251
 20
140.655031790821
 30
0.0
 11
190.837439251832
 21
143.552809264032
 31
0.0
  0
LINE
  5
   2F9
  8
0
  6
CONTINUOUS
 62
     7
 10
190.837439251832
 20
143.552809264032
 30
0.0
 11
190.060982095414
 21
140.655031790821
 31
0.0
  0
LINE
  5
   2FA
  8
0
  6
CONTINUOUS
 62
     7
 10
190.060982095414
 20
153.450620355492
 30
0.0
 11
190.837439251832
 21
150.552842882281
 31
0.0
  0
LINE
  5
   2FB
  8
0
  6
CONTINUOUS
 62
     7
 10
190.837439251832
 20
150.552842882281
 30
0.0
 11
191.613896408251
 21
153.450620355492
 31
0.0
  0
ENDBLK
  5
   2FC
  8
0
  6
CONTINUOUS
 62
     7
  0
BLOCK
  5
   2FD
  8
0
  6
CONTINUOUS
 62
     7
  2
*UDIM525
 70
    65
 10
0.0
 20
0.0
 30
0.0
  3
*UDIM525
  0
TEXT
  5
   2FE
  8
0
  6
CONTINUOUS
 62
     7
 10
189.8374392483
 20
58.9778613309679
 30
0.0
 40
2.99999997871263
  1
461
 50
89.9999999480344
 41
0.933333333333333
 72
     1
 11
188.337439262476
 21
62.8778613046529
 31
0.0
 73
     2
  0
LINE
  5
   2FF
  8
0
  6
CONTINUOUS
 62
     7
 10
180.242841851719
 20
-17.7970866547263
 30
0.0
 11
192.837439251832
 21
-17.7970866547263
 31
0.0
  0
LINE
  5
   300
  8
0
  6
CONTINUOUS
 62
     7
 10
190.837439251832
 20
-17.7970866547263
 30
0.0
 11
190.837439251832
 21
143.552809264032
 31
0.0
  0
LINE
  5
   301
  8
0
  6
CONTINUOUS
 62
     7
 10
190.060982095414
 20
-14.8993091815158
 30
0.0
 11
190.837439251832
 21
-17.7970866547263
 31
0.0
  0
LINE
  5
   302
  8
0
  6
CONTINUOUS
 62
     7
 10
190.837439251832
 20
-17.7970866547263
 30
0.0
 11
191.613896408251
 21
-14.8993091815158
 31
0.0
  0
LINE
  5
   303
  8
0
  6
CONTINUOUS
 62
     7
 10
191.613896408251
 20
140.655031790821
 30
0.0
 11
190.837439251832
 21
143.552809264032
 31
0.0
  0
LINE
  5
   304
  8
0
  6
CONTINUOUS
 62
     7
 10
190.837439251832
 20
143.552809264032
 30
0.0
 11
190.060982095414
 21
140.655031790821
 31
0.0
  0
ENDBLK
  5
   305
  8
0
  6
CONTINUOUS
 62
     7
  0
BLOCK
  5
   306
  8
0
  6
CONTINUOUS
 62
     7
  2
*UDIM526
 70
    65
 10
0.0
 20
0.0
 30
0.0
  3
*UDIM526
  0
TEXT
  5
   307
  8
0
  6
CONTINUOUS
 62
     7
 10
189.837439249568
 20
-35.8673287668177
 30
0.0
 40
2.99999997871263
  1
20
 50
89.9999999480344
 41
0.933333333333333
 72
     1
 11
188.337439262476
 21
-33.3673287831986
 31
0.0
 73
     2
  0
LINE
  5
   308
  8
0
  6
CONTINUOUS
 62
     7
 10
185.142932558059
 20
-24.7971202729756
 30
0.0
 11
192.837439251832
 21
-24.7971202729756
 31
0.0
  0
LINE
  5
   309
  8
0
  6
CONTINUOUS
 62
     7
 10
190.837439251832
 20
-35.8673287654591
 30
0.0
 11
190.837439251832
 21
-17.7970866547263
 31
0.0
  0
LINE
  5
   30A
  8
0
  6
CONTINUOUS
 62
     7
 10
191.613896408251
 20
-27.6948977461862
 30
0.0
 11
190.837439251832
 21
-24.7971202729756
 31
0.0
  0
LINE
  5
   30B
  8
0
  6
CONTINUOUS
 62
     7
 10
190.837439251832
 20
-24.7971202729756
 30
0.0
 11
190.060982095414
 21
-27.6948977461862
 31
0.0
  0
LINE
  5
   30C
  8
0
  6
CONTINUOUS
 62
     7
 10
190.060982095414
 20
-14.8993091815158
 30
0.0
 11
190.837439251832
 21
-17.7970866547263
 31
0.0
  0
LINE
  5
   30D
  8
0
  6
CONTINUOUS
 62
     7
 10
190.837439251832
 20
-17.7970866547263
 30
0.0
 11
191.613896408251
 21
-14.8993091815158
 31
0.0
  0
ENDBLK
  5
   30E
  8
0
  6
CONTINUOUS
 62
     7
  0
BLOCK
  5
   30F
  8
0
  6
CONTINUOUS
 62
     7
  2
*UDIM527
 70
    65
 10
0.0
 20
0.0
 30
0.0
  3
*UDIM527
  0
TEXT
  5
   310
  8
0
  6
CONTINUOUS
 62
     7
 10
134.174165901807
 20
-31.0157879271079
 30
0.0
 40
2.99999997871263
  1
105
 50
359.999999948034
 41
0.933333333333333
 72
     1
 11
138.074165875487
 21
-29.5157879412692
 31
0.0
 73
     2
  0
LINE
  5
   311
  8
0
  6
CONTINUOUS
 62
     7
 10
156.405419458493
 20
15.9578617347734
 30
0.0
 11
156.405419458493
 21
-34.0157879306255
 31
0.0
  0
LINE
  5
   312
  8
0
  6
CONTINUOUS
 62
     7
 10
156.405419458493
 20
-32.0157879306255
 30
0.0
 11
119.74291229248
 21
-32.0157879306255
 31
0.0
  0
LINE
  5
   313
  8
0
  6
CONTINUOUS
 62
     7
 10
153.507641985283
 20
-32.792245087044
 30
0.0
 11
156.405419458493
 21
-32.0157879306255
 31
0.0
  0
LINE
  5
   314
  8
0
  6
CONTINUOUS
 62
     7
 10
156.405419458493
 20
-32.0157879306255
 30
0.0
 11
153.507641985283
 21
-31.2393307742069
 31
0.0
  0
LINE
  5
   315
  8
0
  6
CONTINUOUS
 62
     7
 10
122.640689765691
 20
-31.2393307742069
 30
0.0
 11
119.74291229248
 21
-32.0157879306255
 31
0.0
  0
LINE
  5
   316
  8
0
  6
CONTINUOUS
 62
     7
 10
119.74291229248
 20
-32.0157879306255
 30
0.0
 11
122.640689765691
 21
-32.792245087044
 31
0.0
  0
ENDBLK
  5
   317
  8
0
  6
CONTINUOUS
 62
     7
  0
ENDSEC
  0
SECTION
  2
ENTITIES
  0
LINE
  5
   318
  8
0
  6
CONTINUOUS
 62
   130
 10
208.438531544805
 20
68.4778719753026
 30
0.0
 11
208.438531544805
 21
73.0278718978166
 31
0.0
  0
LINE
  5
   319
  8
0
  6
CONTINUOUS
 62
   130
 10
208.088531842828
 20
106.102871334553
 30
0.0
 11
208.963531494141
 21
106.102871334553
 31
0.0
  0
LINE
  5
   31A
  8
0
  6
CONTINUOUS
 62
   130
 10
208.088531842828
 20
102.602866053581
 30
0.0
 11
208.963531494141
 21
102.602866053581
 31
0.0
  0
LINE
  5
   31B
  8
0
  6
CONTINUOUS
 62
   130
 10
208.088531842828
 20
102.602866053581
 30
0.0
 11
208.088531842828
 21
103.07070051827
 31
0.0
  0
LINE
  5
   31C
  8
0
  6
CONTINUOUS
 62
   130
 10
208.088531842828
 20
103.070732561727
 30
0.0
 11
208.088531842828
 21
103.675574165196
 31
0.0
  0
LINE
  5
   31D
  8
0
  6
CONTINUOUS
 62
   130
 10
208.088531842828
 20
103.675616889805
 30
0.0
 11
208.088531842828
 21
106.102871000767
 31
0.0
  0
LINE
  5
   31E
  8
0
  6
CONTINUOUS
 62
     3
 10
208.613531500101
 20
40.302872121334
 30
0.0
 11
208.963531473279
 21
40.302872121334
 31
0.0
  0
LINE
  5
   31F
  8
0
  6
CONTINUOUS
 62
   130
 10
208.613531500101
 20
45.5528670251369
 30
0.0
 11
208.613531500101
 21
48.5278723150491
 31
0.0
  0
LINE
  5
   320
  8
0
  6
CONTINUOUS
 62
     3
 10
208.613531500101
 20
68.7250658797843
 30
0.0
 11
208.613531500101
 21
73.0278718978166
 31
0.0
  0
LINE
  5
   321
  8
0
  6
CONTINUOUS
 62
   130
 10
208.613531500101
 20
97.5278714873274
 30
0.0
 11
211.413531452417
 21
97.5278287627188
 31
0.0
  0
LINE
  5
   322
  8
0
  6
CONTINUOUS
 62
   130
 10
208.963530859513
 20
97.7386224377258
 30
0.0
 11
208.963531547947
 21
97.5278566026974
 31
0.0
  0
LINE
  5
   323
  8
0
  6
CONTINUOUS
 62
   130
 10
208.963531494141
 20
97.527866140008
 30
0.0
 11
208.963531494141
 21
109.777865931392
 31
0.0
  0
LINE
  5
   324
  8
0
  6
CONTINUOUS
 62
     3
 10
208.963531473279
 20
40.302872121334
 30
0.0
 11
224.525959491944
 21
40.302872121334
 31
0.0
  0
LINE
  5
   325
  8
0
  6
CONTINUOUS
 62
     3
 10
234.531026051939
 20
108.727871289849
 30
0.0
 11
235.913514992595
 21
108.727871289849
 31
0.0
  0
LINE
  5
   326
  8
0
  6
CONTINUOUS
 62
   130
 10
208.613530178531
 20
63.3310437780777
 30
0.0
 11
208.963531494141
 21
63.4248230935889
 31
0.0
  0
LINE
  5
   327
  8
0
  6
CONTINUOUS
 62
     3
 10
208.613534077697
 20
68.7250609144509
 30
0.0
 11
211.495337603937
 21
67.9528565147385
 31
0.0
  0
LINE
  5
   328
  8
0
  6
CONTINUOUS
 62
     3
 10
209.838509048819
 20
67.9528565442135
 30
0.0
 11
241.758508505224
 21
67.9528717018071
 31
0.0
  0
LINE
  5
   329
  8
0
  6
CONTINUOUS
 62
     3
 10
209.838509048819
 20
64.1028459285933
 30
0.0
 11
241.758508505224
 21
64.1028610853341
 31
0.0
  0
LINE
  5
   32A
  8
0
  6
CONTINUOUS
 62
   130
 10
208.963531494141
 20
63.4248058076937
 30
0.0
 11
208.963531494141
 21
68.4778719753026
 31
0.0
  0
LINE
  5
   32B
  8
0
  6
DASHDOT
 62
   130
 10
208.088531509042
 20
40.30287245512
 30
0.0
 11
208.088531509042
 21
117.040475627242
 31
0.0
  0
LINE
  5
   32C
  8
0
  6
CONTINUOUS
 62
   130
 10
208.088531509042
 20
45.552872365713
 30
0.0
 11
208.613531166315
 21
45.552872365713
 31
0.0
  0
LINE
  5
   32D
  8
0
  6
CONTINUOUS
 62
     3
 10
208.088531620304
 20
40.30287245512
 30
0.0
 11
208.613531611363
 21
40.3028721213341
 31
0.0
  0
LINE
  5
   32E
  8
0
  6
CONTINUOUS
 62
     3
 10
224.525951070714
 20
40.3028705282956
 30
0.0
 11
224.71351208769
 21
39.602870904948
 31
0.0
  0
LINE
  5
   32F
  8
0
  6
CONTINUOUS
 62
     3
 10
224.538525888324
 20
39.6028724670409
 30
0.0
 11
235.913509672881
 21
39.6028724670409
 31
0.0
  0
LINE
  5
   330
  8
0
  6
CONTINUOUS
 62
     3
 10
233.988509705663
 20
64.0153506889942
 30
0.0
 11
233.988509705663
 21
64.1028613686563
 31
0.0
  0
LINE
  5
   331
  8
0
  6
CONTINUOUS
 62
     3
 10
233.988509705663
 20
67.9528719842433
 30
0.0
 11
233.988509705663
 21
68.0403506204489
 31
0.0
  0
LINE
  5
   332
  8
0
  6
CONTINUOUS
 62
     3
 10
233.988509705663
 20
68.0403506204489
 30
0.0
 11
241.758508505224
 21
68.0403506204489
 31
0.0
  0
LINE
  5
   333
  8
0
  6
CONTINUOUS
 62
     3
 10
233.988506306994
 20
64.0153487482833
 30
0.0
 11
241.758508505224
 21
64.0153056355022
 31
0.0
  0
LINE
  5
   334
  8
0
  6
CONTINUOUS
 62
     1
 10
208.088533177972
 20
49.5341222288535
 30
0.0
 11
208.088533177972
 21
52.071611504488
 31
0.0
  0
LINE
  5
   335
  8
0
  6
CONTINUOUS
 62
   130
 10
208.438531502413
 20
53.077872237563
 30
0.0
 11
208.613531499433
 21
53.077872237563
 31
0.0
  0
LINE
  5
   336
  8
0
  6
CONTINUOUS
 62
   130
 10
208.438531502413
 20
48.5278723150491
 30
0.0
 11
208.613531499433
 21
48.5278723150491
 31
0.0
  0
LINE
  5
   337
  8
0
  6
CONTINUOUS
 62
   130
 10
208.438531836867
 20
73.0278718978166
 30
0.0
 11
208.613532167673
 21
73.0278718978166
 31
0.0
  0
LINE
  5
   338
  8
0
  6
CONTINUOUS
 62
   130
 10
208.438531816006
 20
68.4778719753026
 30
0.0
 11
208.963531473279
 21
68.4778719753026
 31
0.0
  0
LINE
  5
   339
  8
0
  6
CONTINUOUS
 62
     1
 10
208.088531509042
 20
52.0716115735472
 30
0.0
 11
208.438533505797
 21
52.0716115735472
 31
0.0
  0
LINE
  5
   33A
  8
0
  6
CONTINUOUS
 62
     1
 10
208.088531842828
 20
49.5341222979128
 30
0.0
 11
208.438533505797
 21
49.5341222979128
 31
0.0
  0
LINE
  5
   33B
  8
0
  6
CONTINUOUS
 62
     3
 10
243.613509541749
 20
39.6028564453127
 30
0.0
 11
243.613509541749
 21
47.5653563097121
 31
0.0
  0
LINE
  5
   33C
  8
0
  6
CONTINUOUS
 62
     3
 10
243.613509541749
 20
84.3153503432873
 30
0.0
 11
243.613509541749
 21
101.202850055695
 31
0.0
  0
LINE
  5
   33D
  8
0
  6
CONTINUOUS
 62
     3
 10
241.863509571551
 20
101.202850055695
 30
0.0
 11
243.613509541749
 21
101.202850055695
 31
0.0
  0
LINE
  5
   33E
  8
0
  6
CONTINUOUS
 62
     3
 10
241.863509571551
 20
39.6028564453127
 30
0.0
 11
243.613509541749
 21
39.6028564453127
 31
0.0
  0
LINE
  5
   33F
  8
0
  6
CONTINUOUS
 62
     3
 10
244.313509529828
 20
47.5653563097121
 30
0.0
 11
244.313509529828
 21
84.3153503432873
 31
0.0
  0
LINE
  5
   340
  8
0
  6
CONTINUOUS
 62
     3
 10
243.613509541749
 20
47.5653563097121
 30
0.0
 11
244.313509529828
 21
47.5653563097121
 31
0.0
  0
LINE
  5
   341
  8
0
  6
CONTINUOUS
 62
     3
 10
243.613509541749
 20
84.3153503432873
 30
0.0
 11
244.313509529828
 21
84.3153503432873
 31
0.0
  0
LINE
  5
   342
  8
0
  6
CONTINUOUS
 62
     3
 10
234.863509690761
 20
74.4278645757007
 30
0.0
 11
234.863509690761
 21
100.396518864059
 31
0.0
  0
LINE
  5
   343
  8
0
  6
CONTINUOUS
 62
     3
 10
234.863508848639
 20
74.4278647160585
 30
0.0
 11
235.913509132272
 21
74.2528594025834
 31
0.0
  0
LINE
  5
   344
  8
0
  6
CONTINUOUS
 62
     3
 10
234.863509357668
 20
74.4278621386616
 30
0.0
 11
234.863509691454
 21
74.6028567952682
 31
0.0
  0
LINE
  5
   345
  8
0
  6
CONTINUOUS
 62
     3
 10
234.86350902323
 20
98.9278598285157
 30
0.0
 11
234.863509357016
 21
98.7528598314959
 31
0.0
  0
LINE
  5
   346
  8
0
  6
CONTINUOUS
 62
     3
 10
235.91350597555
 20
108.727855448983
 30
0.0
 11
242.283504798954
 21
108.727850108407
 31
0.0
  0
LINE
  5
   347
  8
0
  6
CONTINUOUS
 62
     3
 10
235.913509672879
 20
109.777865931392
 30
0.0
 11
242.56350955963
 21
109.777865931392
 31
0.0
  0
LINE
  5
   348
  8
0
  6
CONTINUOUS
 62
     3
 10
235.913509672879
 20
39.6028724670409
 30
0.0
 11
241.863504230975
 21
39.6028724670409
 31
0.0
  0
LINE
  5
   349
  8
0
  6
CONTINUOUS
 62
     3
 10
235.913509672879
 20
40.3028671145439
 30
0.0
 11
241.758508505224
 21
40.3028671145439
 31
0.0
  0
LINE
  5
   34A
  8
0
  6
CONTINUOUS
 62
     3
 10
242.56350955963
 20
101.202850055695
 30
0.0
 11
242.56350955963
 21
101.377855393291
 31
0.0
  0
LINE
  5
   34B
  8
0
  6
CONTINUOUS
 62
     3
 10
235.913509672879
 20
39.6028724670409
 30
0.0
 11
235.913509672879
 21
64.0153380671732
 31
0.0
  0
LINE
  5
   34C
  8
0
  6
CONTINUOUS
 62
     3
 10
235.913509672879
 20
100.6778563976
 30
0.0
 11
235.913509672879
 21
109.777865931392
 31
0.0
  0
LINE
  5
   34D
  8
0
  6
CONTINUOUS
 62
     3
 10
242.56350955963
 20
109.777865931392
 30
0.0
 11
242.73850955665
 21
109.777865931392
 31
0.0
  0
LINE
  5
   34E
  8
0
  6
CONTINUOUS
 62
     3
 10
242.56350955963
 20
101.377855393291
 30
0.0
 11
242.73850955665
 21
101.377855393291
 31
0.0
  0
LINE
  5
   34F
  8
0
  6
CONTINUOUS
 62
     3
 10
242.73850955665
 20
101.377855393291
 30
0.0
 11
242.73850955665
 21
109.777865931392
 31
0.0
  0
LINE
  5
   350
  8
0
  6
CONTINUOUS
 62
     3
 10
241.758508505224
 20
68.0403506204489
 30
0.0
 11
241.758508505224
 21
101.377844712139
 31
0.0
  0
LINE
  5
   351
  8
0
  6
CONTINUOUS
 62
     3
 10
241.758508505224
 20
40.3028671145439
 30
0.0
 11
241.758508505224
 21
64.0153056355022
 31
0.0
  0
LINE
  5
   352
  8
0
  6
CONTINUOUS
 62
     3
 10
241.758504791097
 20
101.377849551215
 30
0.0
 11
242.563505845503
 21
101.377854891791
 31
0.0
  0
LINE
  5
   353
  8
0
  6
CONTINUOUS
 62
     3
 10
242.283508496284
 20
101.377844712139
 30
0.0
 11
242.283508496284
 21
108.727855268121
 31
0.0
  0
LINE
  5
   354
  8
0
  6
CONTINUOUS
 62
     3
 10
244.313509529828
 20
47.5653563097121
 30
0.0
 11
245.538509508966
 21
47.5653563097121
 31
0.0
  0
LINE
  5
   355
  8
0
  6
CONTINUOUS
 62
     3
 10
244.313509529828
 20
84.3153503432873
 30
0.0
 11
245.538509508966
 21
84.3153503432873
 31
0.0
  0
LINE
  5
   356
  8
0
  6
CONTINUOUS
 62
     3
 10
248.338509461283
 20
47.5653563097121
 30
0.0
 11
248.338509461283
 21
50.7153704391353
 31
0.0
  0
LINE
  5
   357
  8
0
  6
CONTINUOUS
 62
     3
 10
248.338509461283
 20
83.5278450161222
 30
0.0
 11
248.338509461283
 21
84.3153503432873
 31
0.0
  0
LINE
  5
   358
  8
0
  6
CONTINUOUS
 62
     3
 10
242.563504219054
 20
101.202860736847
 30
0.0
 11
243.613509541749
 21
101.202860736847
 31
0.0
  0
LINE
  5
   359
  8
0
  6
CONTINUOUS
 62
     3
 10
243.613509541749
 20
84.3153610244394
 30
0.0
 11
244.313509529828
 21
84.3153610244394
 31
0.0
  0
LINE
  5
   35A
  8
0
  6
CONTINUOUS
 62
     3
 10
248.338509461283
 20
80.2028557538988
 30
0.0
 11
248.338509461283
 21
83.5278556972744
 31
0.0
  0
LINE
  5
   35B
  8
0
  6
CONTINUOUS
 62
     3
 10
241.863509571551
 20
39.6028564453127
 30
0.0
 11
241.863509571551
 21
101.202850055695
 31
0.0
  0
LINE
  5
   35C
  8
0
  6
CONTINUOUS
 62
     3
 10
234.863508959148
 20
100.396514581596
 30
0.0
 11
235.913508588547
 21
100.677856107059
 31
0.0
  0
LINE
  5
   35D
  8
0
  6
CONTINUOUS
 62
     3
 10
241.758510140698
 20
60.0603514994246
 30
0.0
 11
241.8635112036
 21
60.041837729871
 31
0.0
  0
LINE
  5
   35E
  8
0
  6
CONTINUOUS
 62
     3
 10
241.758510417093
 20
40.3028724682104
 30
0.0
 11
241.863506137379
 21
40.2337760990934
 31
0.0
  0
LINE
  5
   35F
  8
0
  6
CONTINUOUS
 62
     3
 10
241.758506780719
 20
71.9953547955879
 30
0.0
 11
241.86350784335
 21
72.0138705713871
 31
0.0
  0
LINE
  5
   360
  8
0
  6
CONTINUOUS
 62
     3
 10
241.75850704989
 20
98.340485214337
 30
0.0
 11
241.863502769753
 21
98.2957845986343
 31
0.0
  0
LINE
  5
   361
  8
0
  6
CONTINUOUS
 62
     3
 10
241.758512758463
 20
99.8652467437764
 30
0.0
 11
241.863508483746
 21
99.9099420191922
 31
0.0
  0
LINE
  5
   362
  8
0
  6
CONTINUOUS
 62
     2
 10
208.088531509042
 20
19.6528674662111
 30
0.0
 11
208.788526156545
 21
19.6528674662111
 31
0.0
  0
LINE
  5
   363
  8
0
  6
CONTINUOUS
 62
     2
 10
208.088531509042
 20
19.6528674662111
 30
0.0
 11
208.088531509042
 21
23.1528620660304
 31
0.0
  0
LINE
  5
   364
  8
0
  6
CONTINUOUS
 62
     3
 10
227.72863022532
 20
16.9578672450779
 30
0.0
 11
241.758524526954
 21
16.9578672450779
 31
0.0
  0
LINE
  5
   365
  8
0
  6
CONTINUOUS
 62
     2
 10
208.788526156545
 20
15.9778675287962
 30
0.0
 11
216.192181193906
 21
15.9778675287962
 31
0.0
  0
LINE
  5
   366
  8
0
  6
CONTINUOUS
 62
     2
 10
224.709119910077
 20
15.977867528797
 30
0.0
 11
242.73852557838
 21
15.977867528797
 31
0.0
  0
LINE
  5
   367
  8
0
  6
CONTINUOUS
 62
     3
 10
208.088526168466
 20
40.1278671175239
 30
0.0
 11
224.538525888324
 21
40.1278671175239
 31
0.0
  0
LINE
  5
   368
  8
0
  6
CONTINUOUS
 62
     2
 10
242.73852557838
 20
15.977867528796
 30
0.0
 11
242.73852557838
 21
24.3778620451687
 31
0.0
  0
LINE
  5
   369
  8
0
  6
CONTINUOUS
 62
     2
 10
208.088526168466
 20
12.2083630694572
 30
0.0
 11
208.088526168466
 21
40.1278671175239
 31
0.0
  0
LINE
  5
   36A
  8
0
  6
CONTINUOUS
 62
     2
 10
241.758525862098
 20
24.3778620451687
 30
0.0
 11
242.73852557838
 21
24.3778620451687
 31
0.0
  0
LINE
  5
   36B
  8
0
  6
CONTINUOUS
 62
     3
 10
241.758525862098
 20
16.9578685802219
 30
0.0
 11
241.758525862098
 21
24.3778620451687
 31
0.0
  0
LINE
  5
   36C
  8
0
  6
CONTINUOUS
 62
     3
 10
224.538525888324
 20
39.6028617858885
 30
0.0
 11
224.538525888324
 21
40.1278671175239
 31
0.0
  0
LINE
  5
   36D
  8
0
  6
CONTINUOUS
 62
     2
 10
241.758525862098
 20
25.7778620213269
 30
0.0
 11
241.758525862098
 21
39.6028617858885
 31
0.0
  0
LINE
  5
   36E
  8
0
  6
CONTINUOUS
 62
     3
 10
228.301025824249
 20
15.9778675287968
 30
0.0
 11
228.301025824249
 21
16.9578672450787
 31
0.0
  0
LINE
  5
   36F
  8
0
  6
CONTINUOUS
 62
     2
 10
208.788526156545
 20
15.977867528797
 30
0.0
 11
208.788526156545
 21
19.6528674662111
 31
0.0
  0
LINE
  5
   370
  8
0
  6
CONTINUOUS
 62
     3
 10
228.217947822734
 20
15.9778675287966
 30
0.0
 11
228.217947822734
 21
16.9578662437205
 31
0.0
  0
LINE
  5
   371
  8
0
  6
CONTINUOUS
 62
     7
 10
243.613525830507
 20
25.7778618515962
 30
0.0
 11
243.613525830507
 21
39.427861619138
 31
0.0
  0
LINE
  5
   372
  8
0
  6
CONTINUOUS
 62
     7
 10
241.758525862098
 20
39.427861619138
 30
0.0
 11
243.613525830507
 21
39.427861619138
 31
0.0
  0
LINE
  5
   373
  8
0
  6
CONTINUOUS
 62
     7
 10
241.758525862098
 20
25.7778618515962
 30
0.0
 11
243.613525830507
 21
25.7778618515962
 31
0.0
  0
LINE
  5
   374
  8
0
  6
CONTINUOUS
 62
     7
 10
242.738525845409
 20
25.7778618515962
 30
0.0
 11
242.738525845409
 21
39.427861619138
 31
0.0
  0
LINE
  5
   375
  8
0
  6
CONTINUOUS
 62
   130
 10
258.265979307811
 20
51.2436102848359
 30
0.0
 11
259.155905654899
 21
53.9267918313275
 31
0.0
  0
LINE
  5
   376
  8
0
  6
CONTINUOUS
 62
   130
 10
249.578618321025
 20
53.4016126036102
 30
0.0
 11
257.83669147584
 21
51.017525662154
 31
0.0
  0
LINE
  5
   377
  8
0
  6
CONTINUOUS
 62
   130
 10
250.900803930766
 20
57.3880670698744
 30
0.0
 11
258.946806526518
 21
54.3646084770549
 31
0.0
  0
LINE
  5
   378
  8
0
  6
CONTINUOUS
 62
   130
 10
248.338509461283
 20
58.2378992052027
 30
0.0
 11
250.900806845918
 21
57.3880663064025
 31
0.0
  0
LINE
  5
   379
  8
0
  6
CONTINUOUS
 62
   130
 10
248.338509461283
 20
53.8129176695127
 30
0.0
 11
249.57862598202
 21
53.4016102920055
 31
0.0
  0
ARC
  5
   37A
  8
0
  6
CONTINUOUS
 62
   130
 10
257.933776365485
 20
51.3537885755032
 30
0.0
 40
0.349990964861241
 50
253.896746069851
 51
341.65100647314
  0
ARC
  5
   37B
  8
0
  6
CONTINUOUS
 62
   130
 10
258.823705903578
 20
54.0369747107321
 30
0.0
 40
0.349991035761385
 50
341.650951831627
 51
429.405209888843
  0
ARC
  5
   37C
  8
0
  6
CONTINUOUS
 62
     7
 10
223.675943077998
 20
64.2052008601943
 30
0.0
 40
36.9117268438413
 50
327.264349717579
 51
356.916833212326
  0
LINE
  5
   37D
  8
0
  6
CONTINUOUS
 62
     3
 10
235.913509672879
 20
68.0403506204489
 30
0.0
 11
235.913509672879
 21
74.2528451740745
 31
0.0
  0
LINE
  5
   37E
  8
0
  6
CONTINUOUS
 62
     3
 10
241.758508505224
 20
64.1028610853341
 30
0.0
 11
241.758508505224
 21
67.9528717018071
 31
0.0
  0
LINE
  5
   37F
  8
0
  6
CONTINUOUS
 62
     3
 10
209.838509048819
 20
64.1028610853341
 30
0.0
 11
209.838509048819
 21
67.9528565442135
 31
0.0
  0
LINE
  5
   380
  8
0
  6
CONTINUOUS
 62
     3
 10
216.032489434714
 20
96.4816364071928
 30
0.0
 11
216.156031539018
 21
97.1822787175398
 31
0.0
  0
LINE
  5
   381
  8
0
  6
CONTINUOUS
 62
     3
 10
216.156026364863
 20
97.1822704728377
 30
0.0
 11
216.156026364863
 21
104.002866889042
 31
0.0
  0
LINE
  5
   382
  8
0
  6
CONTINUOUS
 62
     3
 10
213.006031475287
 20
109.252865940332
 30
0.0
 11
216.156031182534
 21
109.252866799637
 31
0.0
  0
LINE
  5
   383
  8
0
  6
CONTINUOUS
 62
     3
 10
212.84315319442
 20
96.4816364071928
 30
0.0
 11
213.006031826321
 21
97.4053673214779
 31
0.0
  0
LINE
  5
   384
  8
0
  6
DASHDOT
 62
     7
 10
206.517846054373
 20
105.052864241913
 30
0.0
 11
221.417058493648
 21
105.052868306345
 31
0.0
  0
LINE
  5
   385
  8
0
  6
CONTINUOUS
 62
     7
 10
207.260593358298
 20
96.4816364071928
 30
0.0
 11
227.609492333235
 21
96.4816364071928
 31
0.0
  0
LINE
  5
   386
  8
0
  6
CONTINUOUS
 62
     7
 10
227.609492333235
 20
96.4816364071928
 30
0.0
 11
228.458498925237
 21
100.415366950137
 31
0.0
  0
LINE
  5
   387
  8
0
  6
CONTINUOUS
 62
     7
 10
208.963531494141
 20
99.1028661131859
 30
0.0
 11
213.006031425297
 21
99.1028661131859
 31
0.0
  0
LINE
  5
   388
  8
0
  6
CONTINUOUS
 62
     7
 10
216.156026364863
 20
99.1028661131859
 30
0.0
 11
228.175225363305
 21
99.1028661131859
 31
0.0
  0
LINE
  5
   389
  8
0
  6
CONTINUOUS
 62
     7
 10
216.506026358903
 20
100.852866083384
 30
0.0
 11
228.5529231986
 21
100.852866083384
 31
0.0
  0
LINE
  5
   38A
  8
0
  6
CONTINUOUS
 62
     7
 10
216.506026358903
 20
100.327866092324
 30
0.0
 11
216.506026358903
 21
100.852866083384
 31
0.0
  0
LINE
  5
   38B
  8
0
  6
CONTINUOUS
 62
     7
 10
218.2560263291
 20
99.1028661131859
 30
0.0
 11
218.2560263291
 21
99.8028661012649
 31
0.0
  0
LINE
  5
   38C
  8
0
  6
CONTINUOUS
 62
     7
 10
216.506026358903
 20
100.327866092324
 30
0.0
 11
218.2560263291
 21
99.8028661012649
 31
0.0
  0
LINE
  5
   38D
  8
0
  6
CONTINUOUS
 62
     7
 10
211.413531452417
 20
97.5278287627188
 30
0.0
 11
211.763531446457
 21
99.1028661131859
 31
0.0
  0
LINE
  5
   38E
  8
0
  6
CONTINUOUS
 62
     7
 10
212.463531434536
 20
99.1028661131859
 30
0.0
 11
212.932904075118
 21
96.9906391052018
 31
0.0
  0
INSERT
  5
   38F
  8
0
  6
CONTINUOUS
 62
     7
  2
*HATCH87
 10
208.963531494141
 20
39.6028671264648
 30
0.0
 41
0.349999994039536
 42
0.349999994039536
 43
0.349999994039536
  0
INSERT
  5
   390
  8
0
  6
CONTINUOUS
 62
     7
  2
*HATCH88
 10
208.963531494141
 20
39.6028671264648
 30
0.0
 41
0.349999994039536
 42
0.349999994039536
 43
0.349999994039536
  0
LINE
  5
   391
  8
0
  6
CONTINUOUS
 62
     7
 10
208.981032734672
 20
101.727865304268
 30
0.0
 11
213.006032332341
 21
101.727866402268
 31
0.0
  0
LINE
  5
   392
  8
0
  6
CONTINUOUS
 62
     7
 10
213.006030423939
 20
107.210857684406
 30
0.0
 11
213.006030423939
 21
109.427860324569
 31
0.0
  0
LINE
  5
   393
  8
0
  6
CONTINUOUS
 62
     3
 10
213.006031425297
 20
97.4053650471599
 30
0.0
 11
213.006031425297
 21
102.891572589726
 31
0.0
  0
LINE
  5
   394
  8
0
  6
CONTINUOUS
 62
     7
 10
213.006031425297
 20
106.627864983678
 30
0.0
 11
213.006031425297
 21
107.210857956614
 31
0.0
  0
LINE
  5
   395
  8
0
  6
CONTINUOUS
 62
     7
 10
213.006031425297
 20
102.891572589726
 30
0.0
 11
213.006031425297
 21
103.477868041396
 31
0.0
  0
LINE
  5
   396
  8
0
  6
CONTINUOUS
 62
     7
 10
213.006030343527
 20
109.427859150789
 30
0.0
 11
213.531030000799
 21
109.427864634582
 31
0.0
  0
LINE
  5
   397
  8
0
  6
CONTINUOUS
 62
     7
 10
213.531024073062
 20
109.427862075076
 30
0.0
 11
213.531024073062
 21
109.77785672854
 31
0.0
  0
LINE
  5
   398
  8
0
  6
CONTINUOUS
 62
     7
 10
208.981030538676
 20
109.777865167183
 30
0.0
 11
216.192125947569
 21
109.77785867029
 31
0.0
  0
LINE
  5
   399
  8
0
  6
CONTINUOUS
 62
     7
 10
209.681030717709
 20
109.077860029479
 30
0.0
 11
213.006029993512
 21
109.077860936522
 31
0.0
  0
LINE
  5
   39A
  8
0
  6
CONTINUOUS
 62
     7
 10
209.681032405298
 20
102.891571682682
 30
0.0
 11
213.006031681101
 21
102.891572589726
 31
0.0
  0
LINE
  5
   39B
  8
0
  6
CONTINUOUS
 62
     7
 10
209.681032531795
 20
102.427865483304
 30
0.0
 11
213.006031807598
 21
102.427866390347
 31
0.0
  0
LINE
  5
   39C
  8
0
  6
CONTINUOUS
 62
     7
 10
209.681031226118
 20
107.214158860732
 30
0.0
 11
213.006030501921
 21
107.214159767776
 31
0.0
  0
LINE
  5
   39D
  8
0
  6
CONTINUOUS
 62
     7
 10
209.681031815708
 20
107.210857383356
 30
0.0
 11
209.681031815708
 21
109.077860029479
 31
0.0
  0
LINE
  5
   39E
  8
0
  6
CONTINUOUS
 62
     7
 10
209.681032149494
 20
102.427865319606
 30
0.0
 11
209.681032149494
 21
102.891573187914
 31
0.0
  0
LINE
  5
   39F
  8
0
  6
CONTINUOUS
 62
     7
 10
209.331031800807
 20
103.827865363984
 30
0.0
 11
209.331031800807
 21
106.277864988474
 31
0.0
  0
LINE
  5
   3A0
  8
0
  6
CONTINUOUS
 62
     7
 10
209.681031481922
 20
106.277865083952
 30
0.0
 11
209.681031481922
 21
106.452865080972
 31
0.0
  0
LINE
  5
   3A1
  8
0
  6
CONTINUOUS
 62
     7
 10
209.681031481922
 20
103.652865462442
 30
0.0
 11
209.681031481922
 21
103.82786812975
 31
0.0
  0
LINE
  5
   3A2
  8
0
  6
CONTINUOUS
 62
   210
 10
209.681031481922
 20
104.002865456482
 30
0.0
 11
209.681031481922
 21
104.038643310792
 31
0.0
  0
LINE
  5
   3A3
  8
0
  6
CONTINUOUS
 62
   210
 10
213.181031422317
 20
104.002866411264
 30
0.0
 11
213.181031422317
 21
104.038644265574
 31
0.0
  0
LINE
  5
   3A4
  8
0
  6
CONTINUOUS
 62
   210
 10
209.681031481922
 20
104.038643310792
 30
0.0
 11
209.681031481922
 21
104.143538546094
 31
0.0
  0
LINE
  5
   3A5
  8
0
  6
CONTINUOUS
 62
   210
 10
209.681031481922
 20
104.143538566955
 30
0.0
 11
209.681031481922
 21
104.310403197674
 31
0.0
  0
LINE
  5
   3A6
  8
0
  6
CONTINUOUS
 62
   210
 10
209.681031481922
 20
104.310403197674
 30
0.0
 11
209.681031481922
 21
104.527865447541
 31
0.0
  0
LINE
  5
   3A7
  8
0
  6
CONTINUOUS
 62
   210
 10
209.681031481922
 20
104.527865447541
 30
0.0
 11
209.681031481922
 21
104.781105217932
 31
0.0
  0
LINE
  5
   3A8
  8
0
  6
CONTINUOUS
 62
   210
 10
209.681031481922
 20
104.781105217932
 30
0.0
 11
209.681031481922
 21
105.052865104814
 31
0.0
  0
LINE
  5
   3A9
  8
0
  6
CONTINUOUS
 62
   210
 10
209.681031481922
 20
105.052865104814
 30
0.0
 11
209.681031481922
 21
105.324625325482
 31
0.0
  0
LINE
  5
   3AA
  8
0
  6
CONTINUOUS
 62
   210
 10
209.681031481922
 20
105.324625325482
 30
0.0
 11
209.681031481922
 21
105.577865095873
 31
0.0
  0
LINE
  5
   3AB
  8
0
  6
CONTINUOUS
 62
   210
 10
209.681031481922
 20
105.577865095873
 30
0.0
 11
209.681031481922
 21
105.795327345741
 31
0.0
  0
LINE
  5
   3AC
  8
0
  6
CONTINUOUS
 62
   210
 10
209.681031481922
 20
105.795327345741
 30
0.0
 11
209.681031481922
 21
105.962191976459
 31
0.0
  0
LINE
  5
   3AD
  8
0
  6
CONTINUOUS
 62
   210
 10
209.681031481922
 20
105.962191976459
 30
0.0
 11
209.681031481922
 21
106.067087211761
 31
0.0
  0
LINE
  5
   3AE
  8
0
  6
CONTINUOUS
 62
   210
 10
213.181031422317
 20
106.067088187405
 30
0.0
 11
213.181031422317
 21
106.102866041715
 31
0.0
  0
LINE
  5
   3AF
  8
0
  6
CONTINUOUS
 62
   210
 10
209.681031481922
 20
106.067087232623
 30
0.0
 11
209.681031481922
 21
106.102865086933
 31
0.0
  0
LINE
  5
   3B0
  8
0
  6
CONTINUOUS
 62
   210
 10
213.006031480377
 20
103.477866042325
 30
0.0
 11
213.181031423668
 21
103.652866081094
 31
0.0
  0
LINE
  5
   3B1
  8
0
  6
CONTINUOUS
 62
   210
 10
213.181031422317
 20
103.652866417225
 30
0.0
 11
213.181031422317
 21
104.002866411264
 31
0.0
  0
LINE
  5
   3B2
  8
0
  6
CONTINUOUS
 62
   210
 10
209.681031768357
 20
104.002865456482
 30
0.0
 11
216.156026364863
 21
104.002867222828
 31
0.0
  0
LINE
  5
   3B3
  8
0
  6
CONTINUOUS
 62
   210
 10
209.681031481922
 20
103.827865459462
 30
0.0
 11
209.681031481922
 21
104.002865456482
 31
0.0
  0
LINE
  5
   3B4
  8
0
  6
CONTINUOUS
 62
   210
 10
213.181031422317
 20
106.102866041715
 30
0.0
 11
213.181031422317
 21
106.452866035755
 31
0.0
  0
LINE
  5
   3B5
  8
0
  6
CONTINUOUS
 62
   210
 10
209.681031481922
 20
106.102865086933
 30
0.0
 11
209.681031481922
 21
106.277865083952
 31
0.0
  0
LINE
  5
   3B6
  8
0
  6
CONTINUOUS
 62
   210
 10
209.681031195487
 20
106.102865086933
 30
0.0
 11
216.156026364863
 21
106.10286685328
 31
0.0
  0
LINE
  5
   3B7
  8
0
  6
CONTINUOUS
 62
     7
 10
209.681032408453
 20
102.880008000323
 30
0.0
 11
213.006031684256
 21
102.880008907367
 31
0.0
  0
LINE
  5
   3B8
  8
0
  6
CONTINUOUS
 62
   210
 10
209.856031908594
 20
103.477865513161
 30
0.0
 11
213.006031854949
 21
103.477866372466
 31
0.0
  0
LINE
  5
   3B9
  8
0
  6
CONTINUOUS
 62
   210
 10
209.681031547062
 20
103.652865168241
 30
0.0
 11
209.856031585831
 21
103.47786522495
 31
0.0
  0
LINE
  5
   3BA
  8
0
  6
CONTINUOUS
 62
   210
 10
209.331032134981
 20
103.827865363984
 30
0.0
 11
209.681031816096
 21
103.827865459462
 31
0.0
  0
LINE
  5
   3BB
  8
0
  6
CONTINUOUS
 62
   210
 10
209.331031466633
 20
106.277864988474
 30
0.0
 11
209.681031147748
 21
106.277865083952
 31
0.0
  0
LINE
  5
   3BC
  8
0
  6
CONTINUOUS
 62
   210
 10
209.681030726331
 20
106.452864800675
 30
0.0
 11
209.856030669622
 21
106.627864839444
 31
0.0
  0
LINE
  5
   3BD
  8
0
  6
CONTINUOUS
 62
   210
 10
209.856031049289
 20
106.627865125731
 30
0.0
 11
213.006030995645
 21
106.627865985036
 31
0.0
  0
LINE
  5
   3BE
  8
0
  6
CONTINUOUS
 62
   210
 10
209.681031560804
 20
107.21085704957
 30
0.0
 11
213.006030836608
 21
107.210857956614
 31
0.0
  0
LINE
  5
   3BF
  8
0
  6
CONTINUOUS
 62
   130
 10
219.167618186287
 20
109.777865931392
 30
0.0
 11
235.913531035185
 21
109.777865931392
 31
0.0
  0
INSERT
  5
   3C0
  8
0
  6
CONTINUOUS
 62
     2
  2
*HATCH89
 10
208.963531494141
 20
39.6028671264648
 30
0.0
 41
0.349999994039536
 42
0.349999994039536
 43
0.349999994039536
  0
INSERT
  5
   3C1
  8
0
  6
CONTINUOUS
 62
     2
  2
*HATCH90
 10
208.963531494141
 20
39.6028671264648
 30
0.0
 41
0.349999994039536
 42
0.349999994039536
 43
0.349999994039536
  0
INSERT
  5
   3C2
  8
0
  6
CONTINUOUS
 62
     2
  2
*HATCH91
 10
208.963531494141
 20
39.6028671264648
 30
0.0
 41
0.349999994039536
 42
0.349999994039536
 43
0.349999994039536
  0
INSERT
  5
   3C3
  8
0
  6
CONTINUOUS
 62
     2
  2
*HATCH92
 10
208.963531494141
 20
39.6028671264648
 30
0.0
 41
0.349999994039536
 42
0.349999994039536
 43
0.349999994039536
  0
INSERT
  5
   3C4
  8
0
  6
CONTINUOUS
 62
     2
  2
*HATCH93
 10
208.963531494141
 20
39.6028671264648
 30
0.0
 41
0.349999994039536
 42
0.349999994039536
 43
0.349999994039536
  0
LINE
  5
   3C5
  8
0
  6
CONTINUOUS
 62
     7
 10
260.587669921839
 20
55.8558434652387
 30
0.0
 11
260.587669921839
 21
64.2052008601943
 31
0.0
  0
LINE
  5
   3C6
  8
0
  6
DASHDOT
 62
     7
 10
207.038526186347
 20
11.7988626297783
 30
0.0
 11
207.038526186347
 21
115.104655366942
 31
0.0
  0
LINE
  5
   3C7
  8
0
  6
CONTINUOUS
 62
     3
 10
208.963531494141
 20
63.4248230935889
 30
0.0
 11
211.494061646526
 21
64.102853075156
 31
0.0
  0
LINE
  5
   3C8
  8
0
  6
CONTINUOUS
 62
     3
 10
208.963531494141
 20
68.4778719753026
 30
0.0
 11
208.963531494141
 21
68.6312800232272
 31
0.0
  0
LINE
  5
   3C9
  8
0
  6
CONTINUOUS
 62
   130
 10
208.613531500101
 20
73.0278718978166
 30
0.0
 11
208.613531500101
 21
97.5278714805841
 31
0.0
  0
LINE
  5
   3CA
  8
0
  6
CONTINUOUS
 62
   130
 10
208.613531500101
 20
53.077872237563
 30
0.0
 11
208.613531500101
 21
63.3310413134409
 31
0.0
  0
LINE
  5
   3CB
  8
0
  6
CONTINUOUS
 62
     3
 10
208.613531500101
 20
48.5278723150491
 30
0.0
 11
208.613531500101
 21
53.077872237563
 31
0.0
  0
LINE
  5
   3CC
  8
0
  6
CONTINUOUS
 62
   130
 10
208.438531503081
 20
48.5278723150491
 30
0.0
 11
208.438531503081
 21
49.5341222979128
 31
0.0
  0
LINE
  5
   3CD
  8
0
  6
CONTINUOUS
 62
   130
 10
208.438531503081
 20
52.0716115735472
 30
0.0
 11
208.438531503081
 21
53.077872237563
 31
0.0
  0
LINE
  5
   3CE
  8
0
  6
CONTINUOUS
 62
     3
 10
208.438531503081
 20
49.5341222979128
 30
0.0
 11
208.438531503081
 21
52.0716115735472
 31
0.0
  0
LINE
  5
   3CF
  8
0
  6
CONTINUOUS
 62
     2
 10
241.758525862098
 20
24.3778620451687
 30
0.0
 11
241.758525862098
 21
25.7778620213269
 31
0.0
  0
LINE
  5
   3D0
  8
0
  6
DASHDOT
 62
     2
 10
205.716801017424
 20
20.7028694367963
 30
0.0
 11
221.417058493648
 21
20.7028651538433
 31
0.0
  0
LINE
  5
   3D1
  8
0
  6
CONTINUOUS
 62
     2
 10
219.113525606807
 20
15.9778675287962
 30
0.0
 11
224.709109228925
 21
15.9778675287962
 31
0.0
  0
LINE
  5
   3D2
  8
0
  6
CONTINUOUS
 62
     7
 10
212.988526085019
 20
24.9028673768043
 30
0.0
 11
222.103007027421
 21
24.9028673768043
 31
0.0
  0
LINE
  5
   3D3
  8
0
  6
CONTINUOUS
 62
     7
 10
208.088526168466
 20
26.4778673499823
 30
0.0
 11
212.988526085019
 21
26.4778673499823
 31
0.0
  0
LINE
  5
   3D4
  8
0
  6
CONTINUOUS
 62
     7
 10
212.988526085019
 20
24.9028673768043
 30
0.0
 11
212.988526085019
 21
26.4778673499823
 31
0.0
  0
LINE
  5
   3D5
  8
0
  6
CONTINUOUS
 62
     7
 10
212.988526085019
 20
16.5028675198555
 30
0.0
 11
215.088526049256
 21
16.5028675198555
 31
0.0
  0
LINE
  5
   3D6
  8
0
  6
CONTINUOUS
 62
     7
 10
215.088526049256
 20
21.7528665759196
 30
0.0
 11
215.088526049256
 21
24.9028673768043
 31
0.0
  0
LINE
  5
   3D7
  8
0
  6
CONTINUOUS
 62
     7
 10
212.988526085019
 20
16.3278744922366
 30
0.0
 11
212.988526085019
 21
19.1103626122789
 31
0.0
  0
LINE
  5
   3D8
  8
0
  6
CONTINUOUS
 62
     7
 10
215.088526049256
 20
16.5028675198555
 30
0.0
 11
216.138526031375
 21
16.5028675198555
 31
0.0
  0
LINE
  5
   3D9
  8
0
  6
CONTINUOUS
 62
     7
 10
207.573061816722
 20
27.0617167021951
 30
0.0
 11
221.47150688462
 21
27.0617167021951
 31
0.0
  0
LINE
  5
   3DA
  8
0
  6
CONTINUOUS
 62
     7
 10
221.47150688462
 20
27.0617167021951
 30
0.0
 11
225.355495433246
 21
13.7838953847996
 31
0.0
  0
LINE
  5
   3DB
  8
0
  6
CONTINUOUS
 62
     7
 10
209.681030717709
 20
16.6778734307092
 30
0.0
 11
212.988526085019
 21
16.6778725284408
 31
0.0
  0
LINE
  5
   3DC
  8
0
  6
CONTINUOUS
 62
     7
 10
213.006030343527
 20
16.3278743093989
 30
0.0
 11
213.531030000799
 21
16.3278688256058
 31
0.0
  0
LINE
  5
   3DD
  8
0
  6
CONTINUOUS
 62
     7
 10
213.531024073062
 20
15.9778767316482
 30
0.0
 11
213.531024073062
 21
16.3278713851116
 31
0.0
  0
LINE
  5
   3DE
  8
0
  6
CONTINUOUS
 62
     7
 10
209.681031815708
 20
16.6778734307092
 30
0.0
 11
209.681031815708
 21
18.5448760768318
 31
0.0
  0
LINE
  5
   3DF
  8
0
  6
CONTINUOUS
 62
     7
 10
209.681031560804
 20
18.5448764106177
 30
0.0
 11
212.988526085019
 21
18.5448755083495
 31
0.0
  0
LINE
  5
   3E0
  8
0
  6
CONTINUOUS
 62
     7
 10
209.856031049289
 20
19.1278683344568
 30
0.0
 11
213.006030995645
 21
19.1278674751523
 31
0.0
  0
LINE
  5
   3E1
  8
0
  6
CONTINUOUS
 62
     7
 10
213.181031422317
 20
19.3028674244329
 30
0.0
 11
213.181031422317
 21
19.6528674184724
 31
0.0
  0
LINE
  5
   3E2
  8
0
  6
CONTINUOUS
 62
     7
 10
209.681031195487
 20
19.6528683732552
 30
0.0
 11
213.181031135882
 21
19.6528674184724
 31
0.0
  0
LINE
  5
   3E3
  8
0
  6
CONTINUOUS
 62
     7
 10
209.856031049289
 20
19.1278683344568
 30
0.0
 11
213.006030995645
 21
19.1278674751523
 31
0.0
  0
LINE
  5
   3E4
  8
0
  6
CONTINUOUS
 62
     7
 10
209.681030726331
 20
19.3028686595132
 30
0.0
 11
209.856030669622
 21
19.1278686207443
 31
0.0
  0
LINE
  5
   3E5
  8
0
  6
CONTINUOUS
 62
     7
 10
209.681031481922
 20
19.3028679039219
 30
0.0
 11
209.681031481922
 21
19.6528666116824
 31
0.0
  0
LINE
  5
   3E6
  8
0
  6
CONTINUOUS
 62
     7
 10
209.331031466633
 20
19.4778684717136
 30
0.0
 11
209.681031147748
 21
19.4778683762354
 31
0.0
  0
LINE
  5
   3E7
  8
0
  6
CONTINUOUS
 62
     7
 10
209.331031800807
 20
19.4778684717136
 30
0.0
 11
209.331031800807
 21
21.9278680962043
 31
0.0
  0
INSERT
  5
   3E8
  8
0
  6
CONTINUOUS
 62
     7
  2
*HATCH94
 10
208.963531494141
 20
39.6028671264648
 30
0.0
 41
0.349999994039536
 42
0.349999994039536
 43
0.349999994039536
  0
INSERT
  5
   3E9
  8
0
  6
CONTINUOUS
 62
     7
  2
*HATCH95
 10
208.963531494141
 20
39.6028671264648
 30
0.0
 41
0.349999994039536
 42
0.349999994039536
 43
0.349999994039536
  0
LINE
  5
   3EA
  8
0
  6
CONTINUOUS
 62
     7
 10
209.681031768357
 20
21.7528680037063
 30
0.0
 11
213.181031708752
 21
21.7528670489236
 31
0.0
  0
LINE
  5
   3EB
  8
0
  6
CONTINUOUS
 62
     7
 10
213.181031422317
 20
21.7528670489236
 30
0.0
 11
213.181031422317
 21
22.1028670429631
 31
0.0
  0
LINE
  5
   3EC
  8
0
  6
CONTINUOUS
 62
     7
 10
213.006031480377
 20
22.2778674178633
 30
0.0
 11
213.181031423668
 21
22.1028673790944
 31
0.0
  0
LINE
  5
   3ED
  8
0
  6
CONTINUOUS
 62
     7
 10
209.856031908594
 20
22.2778679470265
 30
0.0
 11
213.006031854949
 21
22.277867087722
 31
0.0
  0
LINE
  5
   3EE
  8
0
  6
CONTINUOUS
 62
     7
 10
209.681031547062
 20
22.1028682919471
 30
0.0
 11
209.856031585831
 21
22.2778682352378
 31
0.0
  0
INSERT
  5
   3EF
  8
0
  6
CONTINUOUS
 62
     7
  2
*HATCH96
 10
208.963531494141
 20
39.6028671264648
 30
0.0
 41
0.349999994039536
 42
0.349999994039536
 43
0.349999994039536
  0
LINE
  5
   3F0
  8
0
  6
CONTINUOUS
 62
     7
 10
209.681032405298
 20
22.8641617775056
 30
0.0
 11
213.006031681101
 21
22.8641608704621
 31
0.0
  0
LINE
  5
   3F1
  8
0
  6
CONTINUOUS
 62
     7
 10
209.681032408453
 20
22.8757254598648
 30
0.0
 11
212.988526085019
 21
22.8757245575968
 31
0.0
  0
LINE
  5
   3F2
  8
0
  6
CONTINUOUS
 62
     7
 10
209.681032149494
 20
22.8641602722735
 30
0.0
 11
209.681032149494
 21
23.3278681405821
 31
0.0
  0
LINE
  5
   3F3
  8
0
  6
CONTINUOUS
 62
     7
 10
209.681032531795
 20
23.3278679768841
 30
0.0
 11
212.988526085019
 21
23.3278670746161
 31
0.0
  0
LINE
  5
   3F4
  8
0
  6
CONTINUOUS
 62
     7
 10
208.963531494141
 20
24.0278681606939
 30
0.0
 11
212.988526085019
 21
24.0278670626952
 31
0.0
  0
INSERT
  5
   3F5
  8
0
  6
CONTINUOUS
 62
     7
  2
*HATCH97
 10
208.963531494141
 20
39.6028671264648
 30
0.0
 41
0.349999994039536
 42
0.349999994039536
 43
0.349999994039536
  0
LINE
  5
   3F6
  8
0
  6
CONTINUOUS
 62
     7
 10
208.963531494141
 20
15.9778675287962
 30
0.0
 11
208.963531494141
 21
24.0278681606939
 31
0.0
  0
LINE
  5
   3F7
  8
0
  6
CONTINUOUS
 62
     7
 10
209.331031800807
 20
21.9278680962043
 30
0.0
 11
209.681031481922
 21
21.9278680962043
 31
0.0
  0
LINE
  5
   3F8
  8
0
  6
CONTINUOUS
 62
     7
 10
213.006030995645
 20
19.1278674751523
 30
0.0
 11
213.181031422317
 21
19.3028674244329
 31
0.0
  0
LINE
  5
   3F9
  8
0
  6
CONTINUOUS
 62
     7
 10
212.988526085019
 20
22.2953728227721
 30
0.0
 11
212.988526085019
 21
24.9028673768043
 31
0.0
  0
LINE
  5
   3FA
  8
0
  6
CONTINUOUS
 62
     7
 10
209.681031481922
 20
21.8403683360023
 30
0.0
 11
213.181031422317
 21
21.8403673812195
 31
0.0
  0
LINE
  5
   3FB
  8
0
  6
CONTINUOUS
 62
     7
 10
209.681031481922
 20
19.5653683747452
 30
0.0
 11
213.181031422317
 21
19.5653674199625
 31
0.0
  0
INSERT
  5
   3FC
  8
0
  6
CONTINUOUS
 62
     7
  2
*HATCH98
 10
208.963531494141
 20
39.6028671264648
 30
0.0
 41
0.349999994039536
 42
0.349999994039536
 43
0.349999994039536
  0
INSERT
  5
   3FD
  8
0
  6
CONTINUOUS
 62
     7
  2
*HATCH99
 10
208.963531494141
 20
39.6028671264648
 30
0.0
 41
0.349999994039536
 42
0.349999994039536
 43
0.349999994039536
  0
INSERT
  5
   3FE
  8
0
  6
CONTINUOUS
 62
     7
  2
*HATCH100
 10
208.963531494141
 20
39.6028671264648
 30
0.0
 41
0.349999994039536
 42
0.349999994039536
 43
0.349999994039536
  0
INSERT
  5
   3FF
  8
0
  6
CONTINUOUS
 62
     7
  2
*HATCH101
 10
208.963531494141
 20
39.6028671264648
 30
0.0
 41
0.349999994039536
 42
0.349999994039536
 43
0.349999994039536
  0
LINE
  5
   400
  8
0
  6
CONTINUOUS
 62
     7
 10
213.181031422317
 20
21.8403673812195
 30
0.0
 11
216.138526031375
 21
21.8403665744295
 31
0.0
  0
LINE
  5
   401
  8
0
  6
CONTINUOUS
 62
     7
 10
213.181031422317
 20
19.5653674199624
 30
0.0
 11
216.138526031375
 21
19.5653666131725
 31
0.0
  0
LINE
  5
   402
  8
0
  6
CONTINUOUS
 62
     3
 10
248.338509461283
 20
51.065368430459
 30
0.0
 11
248.338509461283
 21
57.3653666542404
 31
0.0
  0
LINE
  5
   403
  8
0
  6
CONTINUOUS
 62
     3
 10
248.338509461283
 20
57.71536664828
 30
0.0
 11
248.338509461283
 21
65.0653665231102
 31
0.0
  0
LINE
  5
   404
  8
0
  6
CONTINUOUS
 62
     3
 10
248.338509461283
 20
65.4153665171498
 30
0.0
 11
248.338509461283
 21
71.7153664098614
 31
0.0
  0
LINE
  5
   405
  8
0
  6
CONTINUOUS
 62
     3
 10
248.338509461283
 20
72.0653664039009
 30
0.0
 11
248.338509461283
 21
80.2028557538988
 31
0.0
  0
LINE
  5
   406
  8
0
  6
CONTINUOUS
 62
     1
 10
245.538509508966
 20
46.6903670057654
 30
0.0
 11
245.538509508966
 21
47.3903669938445
 31
0.0
  0
LINE
  5
   407
  8
0
  6
CONTINUOUS
 62
     1
 10
245.538509508966
 20
46.6903670057654
 30
0.0
 11
246.238509497046
 21
46.6903670057654
 31
0.0
  0
LINE
  5
   408
  8
0
  6
CONTINUOUS
 62
     1
 10
245.538509508966
 20
84.4903650268913
 30
0.0
 11
245.538509508966
 21
85.1903650149703
 31
0.0
  0
LINE
  5
   409
  8
0
  6
CONTINUOUS
 62
     1
 10
245.538509508966
 20
85.1903650149703
 30
0.0
 11
246.238509497046
 21
85.1903650149703
 31
0.0
  0
LINE
  5
   40A
  8
0
  6
CONTINUOUS
 62
     1
 10
245.538509508966
 20
47.3903669938445
 30
0.0
 11
245.538509508966
 21
84.4903663620353
 31
0.0
  0
LINE
  5
   40B
  8
0
  6
CONTINUOUS
 62
     1
 10
243.963509535789
 20
89.9424363146583
 30
0.0
 11
243.963509535789
 21
91.6382935245475
 31
0.0
  0
LINE
  5
   40C
  8
0
  6
CONTINUOUS
 62
     1
 10
243.963509535789
 20
40.2424398313323
 30
0.0
 11
243.963509535789
 21
41.9382943709335
 31
0.0
  0
LINE
  5
   40D
  8
0
  6
CONTINUOUS
 62
     1
 10
246.238509497046
 20
37.7653658226133
 30
0.0
 11
246.238509497046
 21
94.1153648629785
 31
0.0
  0
LINE
  5
   40E
  8
0
  6
CONTINUOUS
 62
     1
 10
246.238509497046
 20
37.7653671577573
 30
0.0
 11
247.463509476184
 21
37.7653671577573
 31
0.0
  0
LINE
  5
   40F
  8
0
  6
CONTINUOUS
 62
     1
 10
247.463509476184
 20
37.7653671577573
 30
0.0
 11
247.463509476184
 21
94.1153661981225
 31
0.0
  0
LINE
  5
   410
  8
0
  6
CONTINUOUS
 62
     1
 10
246.238509497046
 20
94.1153648629785
 30
0.0
 11
247.463509476184
 21
94.1153648629785
 31
0.0
  0
LINE
  5
   411
  8
0
  6
CONTINUOUS
 62
     1
 10
246.238509497046
 20
94.1153648629785
 30
0.0
 11
246.588509491085
 21
94.1153648629785
 31
0.0
  0
LINE
  5
   412
  8
0
  6
CONTINUOUS
 62
     1
 10
243.963509606501
 20
89.9424355597171
 30
0.0
 11
244.313509612065
 21
89.7403641800096
 31
0.0
  0
LINE
  5
   413
  8
0
  6
CONTINUOUS
 62
     1
 10
243.963509040105
 20
91.6382926444424
 30
0.0
 11
244.313509045669
 21
91.8403640241499
 31
0.0
  0
LINE
  5
   414
  8
0
  6
CONTINUOUS
 62
     1
 10
245.188509514927
 20
89.7403649374843
 30
0.0
 11
245.188509514927
 21
89.7666939775632
 31
0.0
  0
LINE
  5
   415
  8
0
  6
CONTINUOUS
 62
     1
 10
244.313509529828
 20
89.7403649374843
 30
0.0
 11
246.238509497046
 21
89.7403649374843
 31
0.0
  0
LINE
  5
   416
  8
0
  6
CONTINUOUS
 62
     1
 10
244.313509529828
 20
89.7666939775632
 30
0.0
 11
244.313509529828
 21
89.844351294356
 31
0.0
  0
LINE
  5
   417
  8
0
  6
CONTINUOUS
 62
     1
 10
244.313509529828
 20
89.844351294356
 30
0.0
 11
244.313509529828
 21
89.9694436078995
 31
0.0
  0
LINE
  5
   418
  8
0
  6
CONTINUOUS
 62
     1
 10
244.313509529828
 20
89.9694436078995
 30
0.0
 11
244.313509529828
 21
90.1357010818748
 31
0.0
  0
LINE
  5
   419
  8
0
  6
CONTINUOUS
 62
     1
 10
244.313509529828
 20
90.1357010818748
 30
0.0
 11
244.313509529828
 21
90.3347870770195
 31
0.0
  0
LINE
  5
   41A
  8
0
  6
CONTINUOUS
 62
     1
 10
244.313509529828
 20
90.3347870770195
 30
0.0
 11
244.313509529828
 21
90.5567200566385
 31
0.0
  0
LINE
  5
   41B
  8
0
  6
CONTINUOUS
 62
     1
 10
244.313509529828
 20
90.5567200566385
 30
0.0
 11
244.313509529828
 21
90.7903649196029
 31
0.0
  0
LINE
  5
   41C
  8
0
  6
CONTINUOUS
 62
     1
 10
244.313509529828
 20
90.7903649196029
 30
0.0
 11
244.313509529828
 21
91.0240151231434
 31
0.0
  0
LINE
  5
   41D
  8
0
  6
CONTINUOUS
 62
     1
 10
244.313509529828
 20
91.0240151231434
 30
0.0
 11
244.313509529828
 21
91.2459427621862
 31
0.0
  0
LINE
  5
   41E
  8
0
  6
CONTINUOUS
 62
     1
 10
244.313509529828
 20
91.2459427621862
 30
0.0
 11
244.313509529828
 21
91.445028757331
 31
0.0
  0
LINE
  5
   41F
  8
0
  6
CONTINUOUS
 62
     1
 10
244.313509529828
 20
91.445028757331
 30
0.0
 11
244.313509529828
 21
91.6112915718824
 31
0.0
  0
LINE
  5
   420
  8
0
  6
CONTINUOUS
 62
     1
 10
244.313509529828
 20
91.6112915718824
 30
0.0
 11
244.313509529828
 21
91.7363838854259
 31
0.0
  0
LINE
  5
   421
  8
0
  6
CONTINUOUS
 62
     1
 10
244.313509529828
 20
91.7363838854259
 30
0.0
 11
244.313509529828
 21
91.8140412022186
 31
0.0
  0
LINE
  5
   422
  8
0
  6
CONTINUOUS
 62
     1
 10
244.313509529828
 20
91.8403649017215
 30
0.0
 11
246.238509497046
 21
91.8403649017215
 31
0.0
  0
LINE
  5
   423
  8
0
  6
CONTINUOUS
 62
     1
 10
244.313509529828
 20
91.8140412022186
 30
0.0
 11
244.313509529828
 21
91.8403649017215
 31
0.0
  0
LINE
  5
   424
  8
0
  6
CONTINUOUS
 62
     1
 10
243.963509135354
 20
40.2424395313115
 30
0.0
 11
244.313509140918
 21
40.0403668301732
 31
0.0
  0
LINE
  5
   425
  8
0
  6
CONTINUOUS
 62
     1
 10
243.963508812883
 20
41.9382937400618
 30
0.0
 11
244.313508818448
 21
42.1403664412001
 31
0.0
  0
LINE
  5
   426
  8
0
  6
CONTINUOUS
 62
     1
 10
244.313509529828
 20
40.0403671190143
 30
0.0
 11
244.313509529828
 21
40.0666934888052
 31
0.0
  0
LINE
  5
   427
  8
0
  6
CONTINUOUS
 62
     1
 10
244.313509529828
 20
40.0403671190143
 30
0.0
 11
246.238509497046
 21
40.0403671190143
 31
0.0
  0
LINE
  5
   428
  8
0
  6
CONTINUOUS
 62
     1
 10
244.313509529828
 20
40.0666934888052
 30
0.0
 11
244.313509529828
 21
40.1443494704539
 31
0.0
  0
LINE
  5
   429
  8
0
  6
CONTINUOUS
 62
     1
 10
244.313509529828
 20
40.1443494704539
 30
0.0
 11
244.313509529828
 21
40.2694444542855
 31
0.0
  0
LINE
  5
   42A
  8
0
  6
CONTINUOUS
 62
     1
 10
244.313509529828
 20
40.2694444542855
 30
0.0
 11
244.313509529828
 21
40.4357032634048
 31
0.0
  0
LINE
  5
   42B
  8
0
  6
CONTINUOUS
 62
     1
 10
244.313509529828
 20
40.4357032634048
 30
0.0
 11
244.313509529828
 21
40.6347892585495
 31
0.0
  0
LINE
  5
   42C
  8
0
  6
CONTINUOUS
 62
     1
 10
244.313509529828
 20
40.6347892585495
 30
0.0
 11
244.313509529828
 21
40.8567195678804
 31
0.0
  0
LINE
  5
   42D
  8
0
  6
CONTINUOUS
 62
     1
 10
244.313509529828
 20
40.8567195678804
 30
0.0
 11
244.313509529828
 21
41.0903671011329
 31
0.0
  0
LINE
  5
   42E
  8
0
  6
CONTINUOUS
 62
     1
 10
244.313509529828
 20
41.0903671011329
 30
0.0
 11
244.313509529828
 21
41.3240146343853
 31
0.0
  0
LINE
  5
   42F
  8
0
  6
CONTINUOUS
 62
     1
 10
244.313509529828
 20
41.3240146343853
 30
0.0
 11
244.313509529828
 21
41.5459449437162
 31
0.0
  0
LINE
  5
   430
  8
0
  6
CONTINUOUS
 62
     1
 10
244.313509529828
 20
41.5459449437162
 30
0.0
 11
244.313509529828
 21
41.745030938861
 31
0.0
  0
LINE
  5
   431
  8
0
  6
CONTINUOUS
 62
     1
 10
244.313509529828
 20
41.745030938861
 30
0.0
 11
244.313509529828
 21
41.9112897479803
 31
0.0
  0
LINE
  5
   432
  8
0
  6
CONTINUOUS
 62
     1
 10
244.313509529828
 20
41.9112897479803
 30
0.0
 11
244.313509529828
 21
42.0363847318118
 31
0.0
  0
LINE
  5
   433
  8
0
  6
CONTINUOUS
 62
     1
 10
244.313509529828
 20
42.0363847318118
 30
0.0
 11
244.313509529828
 21
42.1140420486046
 31
0.0
  0
LINE
  5
   434
  8
0
  6
CONTINUOUS
 62
     1
 10
244.313509529828
 20
42.1403670832515
 30
0.0
 11
246.238509497046
 21
42.1403670832515
 31
0.0
  0
LINE
  5
   435
  8
0
  6
CONTINUOUS
 62
     1
 10
244.313509529828
 20
42.1140420486046
 30
0.0
 11
244.313509529828
 21
42.1403670832515
 31
0.0
  0
LINE
  5
   436
  8
0
  6
CONTINUOUS
 62
     7
 10
246.238509497046
 20
94.1153648629785
 30
0.0
 11
246.238509497046
 21
119.560465993927
 31
0.0
  0
LINE
  5
   437
  8
0
  6
CONTINUOUS
 62
     7
 10
245.538509508966
 20
85.1903650149703
 30
0.0
 11
245.538509508966
 21
89.7403649374843
 31
0.0
  0
LINE
  5
   438
  8
0
  6
CONTINUOUS
 62
     7
 10
246.238509497046
 20
4.00879781831264
 30
0.0
 11
246.238509497046
 21
37.7653671577573
 31
0.0
  0
LINE
  5
   439
  8
0
  6
CONTINUOUS
 62
     7
 10
245.538509508966
 20
3.80530944968501
 30
0.0
 11
245.538509508966
 21
40.0403671190143
 31
0.0
  0
LINE
  5
   43A
  8
0
  6
CONTINUOUS
 62
     7
 10
243.094372515696
 20
3.09480450978075
 30
0.0
 11
248.683157122296
 21
4.71945119774581
 31
0.0
  0
LINE
  5
   43B
  8
0
  6
CONTINUOUS
 62
     7
 10
243.809217058401
 20
121.109139923563
 30
0.0
 11
249.008086459889
 21
117.794860680114
 31
0.0
  0
LINE
  5
   43C
  8
0
  6
CONTINUOUS
 62
     7
 10
245.538509508966
 20
92.0153648987413
 30
0.0
 11
246.238509497046
 21
92.0153648987413
 31
0.0
  0
LINE
  5
   43D
  8
0
  6
CONTINUOUS
 62
     7
 10
245.538509508966
 20
89.5653649404645
 30
0.0
 11
246.238509497046
 21
89.5653649404645
 31
0.0
  0
LINE
  5
   43E
  8
0
  6
CONTINUOUS
 62
     7
 10
245.538509508966
 20
42.3153670802712
 30
0.0
 11
246.238509497046
 21
42.3153670802712
 31
0.0
  0
LINE
  5
   43F
  8
0
  6
CONTINUOUS
 62
     7
 10
245.538509508966
 20
39.8653671219945
 30
0.0
 11
246.238509497046
 21
39.8653671219945
 31
0.0
  0
LINE
  5
   440
  8
0
  6
CONTINUOUS
 62
     7
 10
245.538509508966
 20
46.3403670117259
 30
0.0
 11
246.238509497046
 21
46.3403670117259
 31
0.0
  0
LINE
  5
   441
  8
0
  6
CONTINUOUS
 62
     7
 10
245.538509508966
 20
85.5403650090099
 30
0.0
 11
246.238509497046
 21
85.5403650090099
 31
0.0
  0
LINE
  5
   442
  8
0
  6
CONTINUOUS
 62
     7
 10
245.538509508966
 20
91.8403649017215
 30
0.0
 11
245.538509508966
 21
120.006715986327
 31
0.0
  0
LINE
  5
   443
  8
0
  6
CONTINUOUS
 62
     7
 10
245.538509508966
 20
42.1403670832515
 30
0.0
 11
245.538509508966
 21
46.6903670057654
 31
0.0
  0
INSERT
  5
   444
  8
0
  6
CONTINUOUS
 62
     7
  2
*HATCH102
 10
208.963531494141
 20
39.6028671264648
 30
0.0
 41
0.349999994039536
 42
0.349999994039536
 43
0.349999994039536
  0
INSERT
  5
   445
  8
0
  6
CONTINUOUS
 62
     7
  2
*HATCH103
 10
208.963531494141
 20
39.6028671264648
 30
0.0
 41
0.349999994039536
 42
0.349999994039536
 43
0.349999994039536
  0
INSERT
  5
   446
  8
0
  6
CONTINUOUS
 62
     7
  2
*HATCH104
 10
208.963531494141
 20
39.6028671264648
 30
0.0
 41
0.349999994039536
 42
0.349999994039536
 43
0.349999994039536
  0
INSERT
  5
   447
  8
0
  6
CONTINUOUS
 62
     7
  2
*HATCH105
 10
208.963531494141
 20
39.6028671264648
 30
0.0
 41
0.349999994039536
 42
0.349999994039536
 43
0.349999994039536
  0
LINE
  5
   448
  8
0
  6
DASHDOT
 62
     7
 10
200.30705793831
 20
65.9403506562117
 30
0.0
 11
278.051172216442
 21
65.9403506562117
 31
0.0
  0
LINE
  5
   449
  8
0
  6
CONTINUOUS
 62
     3
 10
216.156026364863
 20
106.10286685328
 30
0.0
 11
216.156026364863
 21
109.252866799635
 31
0.0
  0
LINE
  5
   44A
  8
0
  6
CONTINUOUS
 62
     7
 10
228.458498925237
 20
100.415366950137
 30
0.0
 11
236.319678202208
 21
100.415366950137
 31
0.0
  0
LINE
  5
   44B
  8
0
  6
CONTINUOUS
 62
     7
 10
236.319678202208
 20
100.415366950137
 30
0.0
 11
238.659603273292
 21
111.257019779496
 31
0.0
  0
INSERT
  5
   44C
  8
0
  6
CONTINUOUS
 62
     7
  2
*HATCH106
 10
208.963531494141
 20
39.6028671264648
 30
0.0
 41
0.349999994039536
 42
0.349999994039536
 43
0.349999994039536
  0
LINE
  5
   44D
  8
0
  6
DASHDOT
 62
     7
 10
214.599209646634
 20
105.052866871161
 30
0.0
 11
220.134072571099
 21
105.052866871161
 31
0.0
  0
LINE
  5
   44E
  8
0
  6
CONTINUOUS
 62
     2
 10
216.156026364863
 20
106.190366851789
 30
0.0
 11
218.956026317179
 21
106.190366851789
 31
0.0
  0
LINE
  5
   44F
  8
0
  6
CONTINUOUS
 62
     2
 10
216.156026364863
 20
103.915366890532
 30
0.0
 11
218.956026317179
 21
103.915366890532
 31
0.0
  0
LINE
  5
   450
  8
0
  6
CONTINUOUS
 62
     2
 10
213.006030995645
 20
106.627865985036
 30
0.0
 11
213.12940389914
 21
106.492701514397
 31
0.0
  0
LINE
  5
   451
  8
0
  6
CONTINUOUS
 62
     2
 10
218.956026317179
 20
107.502866829438
 30
0.0
 11
219.236026312411
 21
107.502866829438
 31
0.0
  0
LINE
  5
   452
  8
0
  6
CONTINUOUS
 62
     2
 10
218.956026317179
 20
102.602866912884
 30
0.0
 11
219.236026312411
 21
102.602866912884
 31
0.0
  0
LINE
  5
   453
  8
0
  6
CONTINUOUS
 62
     2
 10
219.236026312411
 20
102.602866912884
 30
0.0
 11
219.236026312411
 21
107.502866829438
 31
0.0
  0
LINE
  5
   454
  8
0
  6
CONTINUOUS
 62
     1
 10
221.336026276648
 20
103.302866900963
 30
0.0
 11
221.336026276648
 21
106.802866841359
 31
0.0
  0
LINE
  5
   455
  8
0
  6
CONTINUOUS
 62
     1
 10
219.236026312411
 20
103.302866900963
 30
0.0
 11
219.236026312411
 21
106.802866841359
 31
0.0
  0
LINE
  5
   456
  8
0
  6
CONTINUOUS
 62
     1
 10
218.186026330292
 20
104.002866889042
 30
0.0
 11
218.186026330292
 21
106.10286685328
 31
0.0
  0
LINE
  5
   457
  8
0
  6
CONTINUOUS
 62
     1
 10
215.736026372016
 20
106.10286685328
 30
0.0
 11
218.956026317179
 21
106.10286685328
 31
0.0
  0
LINE
  5
   458
  8
0
  6
CONTINUOUS
 62
     1
 10
215.736026372016
 20
104.002866889042
 30
0.0
 11
218.956026317179
 21
104.002866889042
 31
0.0
  0
LINE
  5
   459
  8
0
  6
CONTINUOUS
 62
     1
 10
219.236026312411
 20
106.802866841359
 30
0.0
 11
221.336026276648
 21
106.802866841359
 31
0.0
  0
LINE
  5
   45A
  8
0
  6
CONTINUOUS
 62
     1
 10
219.236026312411
 20
103.302866900963
 30
0.0
 11
221.336026276648
 21
103.302866900963
 31
0.0
  0
LINE
  5
   45B
  8
0
  6
CONTINUOUS
 62
     7
 10
210.486026461423
 20
105.888166356936
 30
0.0
 11
218.186026375224
 21
105.888166356936
 31
0.0
  0
LINE
  5
   45C
  8
0
  6
CONTINUOUS
 62
     7
 10
210.486026461423
 20
104.217567385386
 30
0.0
 11
218.186026375224
 21
104.217567385386
 31
0.0
  0
LINE
  5
   45D
  8
0
  6
DASHDOT
 62
     7
 10
215.036026717722
 20
105.052866871161
 30
0.0
 11
222.001026265323
 21
105.052866871161
 31
0.0
  0
LINE
  5
   45E
  8
0
  6
CONTINUOUS
 62
     1
 10
210.486026461423
 20
104.00286567608
 30
0.0
 11
210.486026461423
 21
106.102865306531
 31
0.0
  0
LINE
  5
   45F
  8
0
  6
CONTINUOUS
 62
     7
 10
216.138526031375
 20
21.7528665759196
 30
0.0
 11
216.138526031375
 21
24.9028673768043
 31
0.0
  0
LINE
  5
   460
  8
0
  6
DASHDOT
 62
     7
 10
214.90067769335
 20
20.702866593801
 30
0.0
 11
219.041687556211
 21
20.702866593801
 31
0.0
  0
LINE
  5
   461
  8
0
  6
CONTINUOUS
 62
     2
 10
216.138526031375
 20
21.8403665744295
 30
0.0
 11
218.956020369371
 21
21.8403665744295
 31
0.0
  0
LINE
  5
   462
  8
0
  6
CONTINUOUS
 62
     2
 10
216.138526031375
 20
19.5653666131725
 30
0.0
 11
218.956020369371
 21
19.5653666131725
 31
0.0
  0
LINE
  5
   463
  8
0
  6
CONTINUOUS
 62
     2
 10
219.236020364602
 20
18.2528666355243
 30
0.0
 11
219.236020364602
 21
23.1528665520778
 31
0.0
  0
LINE
  5
   464
  8
0
  6
CONTINUOUS
 62
     2
 10
218.956020369371
 20
23.1528665520778
 30
0.0
 11
219.236020364602
 21
23.1528665520778
 31
0.0
  0
LINE
  5
   465
  8
0
  6
CONTINUOUS
 62
     2
 10
218.956020369371
 20
18.2528666355243
 30
0.0
 11
219.236020364602
 21
18.2528666355243
 31
0.0
  0
LINE
  5
   466
  8
0
  6
CONTINUOUS
 62
     1
 10
221.33602032884
 20
18.9528666236033
 30
0.0
 11
221.33602032884
 21
22.4528665639987
 31
0.0
  0
LINE
  5
   467
  8
0
  6
CONTINUOUS
 62
     1
 10
219.236020364602
 20
18.9528666236033
 30
0.0
 11
219.236020364602
 21
22.4528665639987
 31
0.0
  0
LINE
  5
   468
  8
0
  6
CONTINUOUS
 62
     1
 10
218.186020382484
 20
19.6528666116824
 30
0.0
 11
218.186020382484
 21
21.7528665759196
 31
0.0
  0
LINE
  5
   469
  8
0
  6
CONTINUOUS
 62
     1
 10
210.486020513614
 20
21.7528665759196
 30
0.0
 11
218.956020369371
 21
21.7528665759196
 31
0.0
  0
LINE
  5
   46A
  8
0
  6
CONTINUOUS
 62
     1
 10
210.486020513614
 20
19.6528666116824
 30
0.0
 11
218.956020369371
 21
19.6528666116824
 31
0.0
  0
LINE
  5
   46B
  8
0
  6
CONTINUOUS
 62
     1
 10
219.236020364602
 20
22.4528665639987
 30
0.0
 11
221.33602032884
 21
22.4528665639987
 31
0.0
  0
LINE
  5
   46C
  8
0
  6
CONTINUOUS
 62
     1
 10
219.236020364602
 20
18.9528666236033
 30
0.0
 11
221.33602032884
 21
18.9528666236033
 31
0.0
  0
LINE
  5
   46D
  8
0
  6
CONTINUOUS
 62
     7
 10
210.486020513614
 20
21.5381660795759
 30
0.0
 11
218.186020427416
 21
21.5381660795759
 31
0.0
  0
LINE
  5
   46E
  8
0
  6
CONTINUOUS
 62
     7
 10
210.486020513614
 20
19.8675671080261
 30
0.0
 11
218.186020427416
 21
19.8675671080261
 31
0.0
  0
LINE
  5
   46F
  8
0
  6
DASHDOT
 62
     7
 10
213.968526402116
 20
20.702866593801
 30
0.0
 11
220.933525949717
 21
20.702866593801
 31
0.0
  0
LINE
  5
   470
  8
0
  6
CONTINUOUS
 62
     1
 10
210.486020513614
 20
19.6528666116824
 30
0.0
 11
210.486020513614
 21
21.7528680753166
 31
0.0
  0
LINE
  5
   471
  8
0
  6
CONTINUOUS
 62
     2
 10
216.138526031375
 20
16.5028675198555
 30
0.0
 11
216.138526031375
 21
19.6528666116824
 31
0.0
  0
LINE
  5
   472
  8
0
  6
CONTINUOUS
 62
     2
 10
215.088526049256
 20
16.5028675198555
 30
0.0
 11
215.088526049256
 21
19.6528666116824
 31
0.0
  0
LINE
  5
   473
  8
0
  6
CONTINUOUS
 62
     2
 10
209.681031547062
 20
19.6528683732551
 30
0.0
 11
209.681031547062
 21
22.1028682919471
 31
0.0
  0
LINE
  5
   474
  8
0
  6
CONTINUOUS
 62
     3
 10
247.463509476184
 20
84.3153503432873
 30
0.0
 11
248.338509461283
 21
84.3153503432873
 31
0.0
  0
LINE
  5
   475
  8
0
  6
CONTINUOUS
 62
     3
 10
247.463509476184
 20
72.0653664039009
 30
0.0
 11
248.338509461283
 21
72.0653664039009
 31
0.0
  0
LINE
  5
   476
  8
0
  6
CONTINUOUS
 62
     3
 10
247.463509476184
 20
71.7153664098614
 30
0.0
 11
248.338509461283
 21
71.7153664098614
 31
0.0
  0
LINE
  5
   477
  8
0
  6
CONTINUOUS
 62
     3
 10
247.463509476184
 20
65.4153665171498
 30
0.0
 11
248.338509461283
 21
65.4153665171498
 31
0.0
  0
LINE
  5
   478
  8
0
  6
CONTINUOUS
 62
     3
 10
247.463509476184
 20
65.0653665231102
 30
0.0
 11
248.338509461283
 21
65.0653665231102
 31
0.0
  0
LINE
  5
   479
  8
0
  6
CONTINUOUS
 62
     3
 10
247.463509476184
 20
57.71536664828
 30
0.0
 11
248.338509461283
 21
57.71536664828
 31
0.0
  0
LINE
  5
   47A
  8
0
  6
CONTINUOUS
 62
     3
 10
247.463509476184
 20
57.3653666542404
 30
0.0
 11
248.338509461283
 21
57.3653666542404
 31
0.0
  0
LINE
  5
   47B
  8
0
  6
CONTINUOUS
 62
     3
 10
247.463509476184
 20
51.065368430459
 30
0.0
 11
248.338509461283
 21
51.065368430459
 31
0.0
  0
LINE
  5
   47C
  8
0
  6
CONTINUOUS
 62
     3
 10
247.463509476184
 20
50.7153704391353
 30
0.0
 11
248.338509461283
 21
50.7153704391353
 31
0.0
  0
LINE
  5
   47D
  8
0
  6
CONTINUOUS
 62
     3
 10
247.463509476184
 20
47.5653563097121
 30
0.0
 11
248.338509461283
 21
47.5653563097121
 31
0.0
  0
LINE
  5
   47E
  8
0
  6
DASHDOT
 62
     7
 10
202.312359316354
 20
104.352850002051
 30
0.0
 11
209.842183126622
 21
104.352850002051
 31
0.0
  0
LINE
  5
   47F
  8
0
  6
CONTINUOUS
 62
     2
 10
205.638526210189
 20
102.952850025893
 30
0.0
 11
205.638526210189
 21
105.752849978209
 31
0.0
  0
LINE
  5
   480
  8
0
  6
CONTINUOUS
 62
     2
 10
204.238526234031
 20
103.477850016952
 30
0.0
 11
204.238526234031
 21
105.22784998715
 31
0.0
  0
LINE
  5
   481
  8
0
  6
CONTINUOUS
 62
     2
 10
205.638526210189
 20
105.752849978209
 30
0.0
 11
207.038526186347
 21
105.752849978209
 31
0.0
  0
LINE
  5
   482
  8
0
  6
CONTINUOUS
 62
     2
 10
205.638526210189
 20
102.952850025893
 30
0.0
 11
207.038526186347
 21
102.952850025893
 31
0.0
  0
LINE
  5
   483
  8
0
  6
CONTINUOUS
 62
     2
 10
204.238526234031
 20
105.22784998715
 30
0.0
 11
207.038526186347
 21
105.22784998715
 31
0.0
  0
LINE
  5
   484
  8
0
  6
CONTINUOUS
 62
     2
 10
204.238526234031
 20
103.477850016952
 30
0.0
 11
207.038526186347
 21
103.477850016952
 31
0.0
  0
LINE
  5
   485
  8
0
  6
CONTINUOUS
 62
     2
 10
205.638526210189
 20
22.8028513908389
 30
0.0
 11
207.038526186347
 21
22.8028513908389
 31
0.0
  0
LINE
  5
   486
  8
0
  6
CONTINUOUS
 62
     2
 10
204.238526234031
 20
22.2778513997796
 30
0.0
 11
207.038526186347
 21
22.2778513997796
 31
0.0
  0
LINE
  5
   487
  8
0
  6
DASHDOT
 62
     7
 10
202.312359316354
 20
21.4028514146808
 30
0.0
 11
209.842183126622
 21
21.4028514146808
 31
0.0
  0
LINE
  5
   488
  8
0
  6
CONTINUOUS
 62
     2
 10
204.238526234031
 20
20.5278514295819
 30
0.0
 11
207.038526186347
 21
20.5278514295819
 31
0.0
  0
LINE
  5
   489
  8
0
  6
CONTINUOUS
 62
     2
 10
205.638526210189
 20
20.0028514385226
 30
0.0
 11
207.038526186347
 21
20.0028514385226
 31
0.0
  0
LINE
  5
   48A
  8
0
  6
CONTINUOUS
 62
     2
 10
205.638526210189
 20
20.0028514385226
 30
0.0
 11
205.638526210189
 21
22.8028513908389
 31
0.0
  0
LINE
  5
   48B
  8
0
  6
CONTINUOUS
 62
     2
 10
204.238526234031
 20
20.5278514295819
 30
0.0
 11
204.238526234031
 21
22.2778513997796
 31
0.0
  0
POINT
  5
   48C
  8
0
  6
CONTINUOUS
 62
     7
 10
216.156026364863
 20
105.052866871161
 30
0.0
  0
INSERT
  5
   48D
  8
0
  6
CONTINUOUS
 62
     7
  2
*UDIM475
 10
0.0
 20
0.0
 30
0.0
  0
INSERT
  5
   48E
  8
0
  6
CONTINUOUS
 62
     7
  2
*UDIM476
 10
0.0
 20
0.0
 30
0.0
  0
INSERT
  5
   48F
  8
0
  6
CONTINUOUS
 62
     7
  2
*UDIM477
 10
0.0
 20
0.0
 30
0.0
  0
INSERT
  5
   490
  8
0
  6
CONTINUOUS
 62
     7
  2
*UDIM478
 10
0.0
 20
0.0
 30
0.0
  0
INSERT
  5
   491
  8
0
  6
CONTINUOUS
 62
     7
  2
*UDIM479
 10
0.0
 20
0.0
 30
0.0
  0
INSERT
  5
   492
  8
0
  6
CONTINUOUS
 62
     7
  2
*UDIM480
 10
0.0
 20
0.0
 30
0.0
  0
INSERT
  5
   493
  8
0
  6
CONTINUOUS
 62
     7
  2
*UDIM481
 10
0.0
 20
0.0
 30
0.0
  0
INSERT
  5
   494
  8
0
  6
CONTINUOUS
 62
     7
  2
*UDIM482
 10
0.0
 20
0.0
 30
0.0
  0
INSERT
  5
   495
  8
0
  6
CONTINUOUS
 62
     7
  2
*UDIM483
 10
0.0
 20
0.0
 30
0.0
  0
INSERT
  5
   496
  8
0
  6
CONTINUOUS
 62
     7
  2
*UDIM484
 10
0.0
 20
0.0
 30
0.0
  0
INSERT
  5
   497
  8
0
  6
CONTINUOUS
 62
     7
  2
*UDIM485
 10
0.0
 20
0.0
 30
0.0
  0
INSERT
  5
   498
  8
0
  6
CONTINUOUS
 62
     7
  2
*UDIM486
 10
0.0
 20
0.0
 30
0.0
  0
INSERT
  5
   499
  8
0
  6
CONTINUOUS
 62
     7
  2
*UDIM487
 10
0.0
 20
0.0
 30
0.0
  0
INSERT
  5
   49A
  8
0
  6
CONTINUOUS
 62
     7
  2
*UDIM488
 10
0.0
 20
0.0
 30
0.0
  0
INSERT
  5
   49B
  8
0
  6
CONTINUOUS
 62
     7
  2
*UDIM489
 10
0.0
 20
0.0
 30
0.0
  0
LINE
  5
   49C
  8
0
  6
CONTINUOUS
 62
     7
 10
218.956020369371
 20
19.5653666131725
 30
0.0
 11
218.956020369371
 21
21.8403665744295
 31
0.0
  0
TEXT
  5
   49D
  8
0
  6
CONTINUOUS
 62
     7
 10
279.066081634972
 20
65.3108888243554
 30
0.0
 40
2.99999997871263
  1
X
 41
0.91666663951344
 72
     2
 11
281.266081570684
 21
65.3108888243554
 31
0.0
  0
TEXT
  5
   49E
  8
0
  6
CONTINUOUS
 62
     7
 10
195.544893679689
 20
64.1398634629577
 30
0.0
 40
2.99999997871263
  1
X
 41
0.933333333333333
 72
     1
 11
196.644893671884
 21
65.639863452314
 31
0.0
 73
     2
  0
LINE
  5
   49F
  8
0
  6
CONTINUOUS
 62
   130
 10
216.156070402138
 20
101.202872277036
 30
0.0
 11
218.606076368563
 21
101.20286693646
 31
0.0
  0
ARC
  5
   4A0
  8
0
  6
CONTINUOUS
 62
   130
 10
218.606080321215
 20
101.55285762473
 30
0.0
 40
0.349990688292749
 50
270.0
 51
359.999953164316
  0
LINE
  5
   4A1
  8
0
  6
CONTINUOUS
 62
   130
 10
218.956020369371
 20
101.552872271075
 30
0.0
 11
218.956020369371
 21
106.10286685328
 31
0.0
  0
LINE
  5
   4A2
  8
0
  6
CONTINUOUS
 62
   130
 10
216.156026364863
 20
101.15387227787
 30
0.0
 11
216.156026364863
 21
104.002866889042
 31
0.0
  0
ARC
  5
   4A3
  8
0
  6
CONTINUOUS
 62
   130
 10
219.656191848664
 20
109.276397017345
 30
0.0
 40
3.5001201248008
 50
114.878407544051
 51
180.000262279264
  0
ARC
  5
   4A4
  8
0
  6
CONTINUOUS
 62
   130
 10
219.656111555494
 20
109.27644536653
 30
0.0
 40
0.700034538166198
 50
115.0
 51
179.999892527423
  0
LINE
  5
   4A5
  8
0
  6
CONTINUOUS
 62
   130
 10
219.360264175816
 20
109.910892119664
 30
0.0
 11
226.210246893176
 21
113.105091518999
 31
0.0
  0
LINE
  5
   4A6
  8
0
  6
CONTINUOUS
 62
   130
 10
228.231082942669
 20
116.277168719607
 30
0.0
 11
228.231082942669
 21
136.552865921613
 31
0.0
  0
LINE
  5
   4A7
  8
0
  6
CONTINUOUS
 62
   130
 10
228.231027069803
 20
136.552865921613
 30
0.0
 11
228.231027069803
 21
150.552842882281
 31
0.0
  0
LINE
  5
   4A8
  8
0
  6
CONTINUOUS
 62
   130
 10
225.431130312482
 20
116.277190786279
 30
0.0
 11
225.431130312482
 21
150.552842882281
 31
0.0
  0
LINE
  5
   4A9
  8
0
  6
CONTINUOUS
 62
   130
 10
218.183712469095
 20
112.451715169087
 30
0.0
 11
225.026963102584
 21
115.642775346157
 31
0.0
  0
ARC
  5
   4AA
  8
0
  6
CONTINUOUS
 62
   130
 10
224.731130324403
 20
116.277190786279
 30
0.0
 40
0.699999988079071
 50
295.0
 51
360.0
  0
ARC
  5
   4AB
  8
0
  6
CONTINUOUS
 62
   130
 10
224.731083002274
 20
116.277168719607
 30
0.0
 40
3.49999994039536
 50
295.0
 51
360.0
  0
LINE
  5
   4AC
  8
0
  6
CONTINUOUS
 62
   130
 10
218.956020369371
 20
106.10286685328
 30
0.0
 11
218.956020369371
 21
109.27644536653
 31
0.0
  0
LINE
  5
   4AD
  8
0
  6
CONTINUOUS
 62
   130
 10
216.156026364863
 20
106.10286685328
 30
0.0
 11
216.156026364863
 21
109.276397017345
 31
0.0
  0
LINE
  5
   4AE
  8
0
  6
CONTINUOUS
 62
   130
 10
216.156070402138
 20
24.552861183153
 30
0.0
 11
218.606076368563
 21
24.5528665237291
 31
0.0
  0
ARC
  5
   4AF
  8
0
  6
CONTINUOUS
 62
   130
 10
218.606080321215
 20
24.2028758354588
 30
0.0
 40
0.349990688292749
 50
4.68356838579018E-5
 51
90.0
  0
LINE
  5
   4B0
  8
0
  6
CONTINUOUS
 62
   130
 10
218.956020369371
 20
21.7528665711464
 30
0.0
 11
218.956020369371
 21
24.2028611891135
 31
0.0
  0
LINE
  5
   4B1
  8
0
  6
CONTINUOUS
 62
   130
 10
216.156026364863
 20
21.7528665711464
 30
0.0
 11
216.156026364863
 21
24.6018611823186
 31
0.0
  0
ARC
  5
   4B2
  8
0
  6
CONTINUOUS
 62
   130
 10
219.656191848664
 20
16.4793364428433
 30
0.0
 40
3.5001201248008
 50
179.999737720736
 51
245.121592455949
  0
ARC
  5
   4B3
  8
0
  6
CONTINUOUS
 62
   130
 10
219.656111555494
 20
16.4792880936591
 30
0.0
 40
0.700034538166198
 50
180.000107472577
 51
245.0
  0
LINE
  5
   4B4
  8
0
  6
CONTINUOUS
 62
   130
 10
219.360264175816
 20
15.8448413405244
 30
0.0
 11
226.210246893176
 21
12.6506419411899
 31
0.0
  0
LINE
  5
   4B5
  8
0
  6
CONTINUOUS
 62
   130
 10
228.231082942669
 20
-10.7971324614239
 30
0.0
 11
228.231082942669
 21
9.47856474058175
 31
0.0
  0
LINE
  5
   4B6
  8
0
  6
CONTINUOUS
 62
   130
 10
228.231027069803
 20
-24.7971202729756
 30
0.0
 11
228.231027069803
 21
-10.7971324614239
 31
0.0
  0
LINE
  5
   4B7
  8
0
  6
CONTINUOUS
 62
   130
 10
225.431130312482
 20
-24.7971202729756
 30
0.0
 11
225.431130312482
 21
9.4785426739102
 31
0.0
  0
LINE
  5
   4B8
  8
0
  6
CONTINUOUS
 62
   130
 10
218.183712469095
 20
13.3040182911016
 30
0.0
 11
225.026963102584
 21
10.1129581140318
 31
0.0
  0
ARC
  5
   4B9
  8
0
  6
CONTINUOUS
 62
   130
 10
224.731130324403
 20
9.4785426739102
 30
0.0
 40
0.699999988079071
 50
7.01670929853487E-15
 51
65.0000000000003
  0
ARC
  5
   4BA
  8
0
  6
CONTINUOUS
 62
   130
 10
224.731083002274
 20
9.47856474058175
 30
0.0
 40
3.49999994039536
 50
7.01670929853487E-15
 51
65.0
  0
LINE
  5
   4BB
  8
0
  6
CONTINUOUS
 62
   130
 10
218.956020369371
 20
16.4792880936591
 30
0.0
 11
218.956020369371
 21
19.6528666069092
 31
0.0
  0
LINE
  5
   4BC
  8
0
  6
CONTINUOUS
 62
   130
 10
216.156026364863
 20
16.4793364428433
 30
0.0
 11
216.156026364863
 21
19.6528666069092
 31
0.0
  0
LINE
  5
   4BD
  8
0
  6
CONTINUOUS
 62
   130
 10
225.431130312482
 20
150.552842882281
 30
0.0
 11
228.231082942669
 21
150.552842882281
 31
0.0
  0
LINE
  5
   4BE
  8
0
  6
CONTINUOUS
 62
   130
 10
225.431130312482
 20
145.827812798025
 30
0.0
 11
228.231082942669
 21
145.827812798025
 31
0.0
  0
LINE
  5
   4BF
  8
0
  6
DASHDOT
 62
     7
 10
222.884788412267
 20
143.552809264032
 30
0.0
 11
230.609949791807
 21
143.552809264032
 31
0.0
  0
LINE
  5
   4C0
  8
0
  6
CONTINUOUS
 62
   130
 10
225.431130312482
 20
141.277805730039
 30
0.0
 11
228.231082942669
 21
141.277805730039
 31
0.0
  0
INSERT
  5
   4C1
  8
0
  6
CONTINUOUS
 62
     7
  2
*HATCH107
 10
208.963531494141
 20
39.6028671264648
 30
0.0
 41
0.349999994039536
 42
0.349999994039536
 43
0.349999994039536
  0
INSERT
  5
   4C2
  8
0
  6
CONTINUOUS
 62
     7
  2
*HATCH108
 10
208.963531494141
 20
39.6028671264648
 30
0.0
 41
0.349999994039536
 42
0.349999994039536
 43
0.349999994039536
  0
INSERT
  5
   4C3
  8
0
  6
CONTINUOUS
 62
     7
  2
*HATCH109
 10
208.963531494141
 20
39.6028671264648
 30
0.0
 41
0.349999994039536
 42
0.349999994039536
 43
0.349999994039536
  0
INSERT
  5
   4C4
  8
0
  6
CONTINUOUS
 62
     7
  2
*UDIM490
 10
0.0
 20
0.0
 30
0.0
  0
LINE
  5
   4C5
  8
0
  6
CONTINUOUS
 62
   130
 10
225.431130312482
 20
-24.7971202729756
 30
0.0
 11
228.231027069803
 21
-24.7971202729756
 31
0.0
  0
LINE
  5
   4C6
  8
0
  6
CONTINUOUS
 62
   130
 10
225.431130312482
 20
-20.0720901887197
 30
0.0
 11
228.231027069803
 21
-20.0720901887197
 31
0.0
  0
LINE
  5
   4C7
  8
0
  6
DASHDOT
 62
     7
 10
222.643377119156
 20
-17.7970866547263
 30
0.0
 11
231.03241955475
 21
-17.7970866547263
 31
0.0
  0
LINE
  5
   4C8
  8
0
  6
CONTINUOUS
 62
   130
 10
225.431130312482
 20
-15.5220831207329
 30
0.0
 11
228.231027069803
 21
-15.5220831207329
 31
0.0
  0
INSERT
  5
   4C9
  8
0
  6
CONTINUOUS
 62
     7
  2
*HATCH110
 10
208.963531494141
 20
39.6028671264648
 30
0.0
 41
0.349999994039536
 42
0.349999994039536
 43
0.349999994039536
  0
INSERT
  5
   4CA
  8
0
  6
CONTINUOUS
 62
     7
  2
*HATCH111
 10
208.963531494141
 20
39.6028671264648
 30
0.0
 41
0.349999994039536
 42
0.349999994039536
 43
0.349999994039536
  0
INSERT
  5
   4CB
  8
0
  6
CONTINUOUS
 62
     7
  2
*HATCH112
 10
208.963531494141
 20
39.6028671264648
 30
0.0
 41
0.349999994039536
 42
0.349999994039536
 43
0.349999994039536
  0
TEXT
  5
   4CC
  8
0
  6
CONTINUOUS
 62
     2
 10
272.60406352743
 20
53.3103478387852
 30
0.0
 40
2.99999997871263
  1
=     =
 50
90.0
 41
0.91666663951344
 72
     2
 11
272.604063527406
 21
72.0103471686587
 31
0.0
  0
LINE
  5
   4CD
  8
0
  6
CONTINUOUS
 62
     7
 10
233.639450073242
 20
-100.667449951172
 30
0.0
 11
270.389450073242
 21
-100.667449951172
 31
0.0
  0
LINE
  5
   4CE
  8
0
  6
CONTINUOUS
 62
     7
 10
233.639450073242
 20
-72.6674499511719
 30
0.0
 11
270.389450073242
 21
-72.6674499511719
 31
0.0
  0
LINE
  5
   4CF
  8
0
  6
CONTINUOUS
 62
     7
 10
233.639450073242
 20
-72.6674499511719
 30
0.0
 11
233.639450073242
 21
-100.667449951172
 31
0.0
  0
LINE
  5
   4D0
  8
0
  6
CONTINUOUS
 62
     7
 10
270.389450073242
 20
-72.6674499511719
 30
0.0
 11
270.389450073242
 21
-100.667449951172
 31
0.0
  0
LINE
  5
   4D1
  8
0
  6
DASHDOT
 62
     2
 10
252.014450073242
 20
-62.559000723583
 30
0.0
 11
252.014450073242
 21
-112.505282609889
 31
0.0
  0
CIRCLE
  5
   4D2
  8
0
  6
CONTINUOUS
 62
     7
 10
237.639450073242
 20
-68.9174499511719
 30
0.0
 40
0.875
  0
CIRCLE
  5
   4D3
  8
0
  6
CONTINUOUS
 62
     7
 10
266.389450073242
 20
-68.9174499511719
 30
0.0
 40
0.875
  0
CIRCLE
  5
   4D4
  8
0
  6
CONTINUOUS
 62
     7
 10
266.389450073242
 20
-104.417449951172
 30
0.0
 40
0.875
  0
CIRCLE
  5
   4D5
  8
0
  6
CONTINUOUS
 62
     7
 10
237.639450073242
 20
-104.417449951172
 30
0.0
 40
0.875
  0
LINE
  5
   4D6
  8
0
  6
DASHDOT
 62
     7
 10
266.389450073242
 20
-66.7924499511719
 30
0.0
 11
266.389450073242
 21
-71.0424499511719
 31
0.0
  0
LINE
  5
   4D7
  8
0
  6
DASHDOT
 62
     7
 10
264.264450073242
 20
-68.9174499511719
 30
0.0
 11
268.514450073242
 21
-68.9174499511719
 31
0.0
  0
LINE
  5
   4D8
  8
0
  6
DASHDOT
 62
     7
 10
237.639450073242
 20
-66.7924499511719
 30
0.0
 11
237.639450073242
 21
-71.0424499511719
 31
0.0
  0
LINE
  5
   4D9
  8
0
  6
DASHDOT
 62
     7
 10
235.514450073242
 20
-68.9174499511719
 30
0.0
 11
239.764450073242
 21
-68.9174499511719
 31
0.0
  0
LINE
  5
   4DA
  8
0
  6
DASHDOT
 62
     7
 10
237.639450073242
 20
-102.292449951172
 30
0.0
 11
237.639450073242
 21
-106.542449951172
 31
0.0
  0
LINE
  5
   4DB
  8
0
  6
DASHDOT
 62
     7
 10
235.514450073242
 20
-104.417449951172
 30
0.0
 11
239.764450073242
 21
-104.417449951172
 31
0.0
  0
LINE
  5
   4DC
  8
0
  6
DASHDOT
 62
     7
 10
266.389450073242
 20
-102.292449951172
 30
0.0
 11
266.389450073242
 21
-106.542449951172
 31
0.0
  0
LINE
  5
   4DD
  8
0
  6
DASHDOT
 62
     7
 10
264.264450073242
 20
-104.417449951172
 30
0.0
 11
268.514450073242
 21
-104.417449951172
 31
0.0
  0
LINE
  5
   4DE
  8
0
  6
CONTINUOUS
 62
     7
 10
230.914551081858
 20
-65.8082941548483
 30
0.0
 11
272.876854822769
 21
-65.8082941548483
 31
0.0
  0
LINE
  5
   4DF
  8
0
  6
CONTINUOUS
 62
     7
 10
230.914551081858
 20
-108.141945716476
 30
0.0
 11
272.876854822769
 21
-108.141945716476
 31
0.0
  0
LINE
  5
   4E0
  8
0
  6
CONTINUOUS
 62
     7
 10
272.876854822769
 20
-65.8082941548483
 30
0.0
 11
272.876854822769
 21
-108.141945716476
 31
0.0
  0
LINE
  5
   4E1
  8
0
  6
CONTINUOUS
 62
     7
 10
230.914551081858
 20
-65.8082941548483
 30
0.0
 11
230.914551081858
 21
-108.141945716476
 31
0.0
  0
LINE
  5
   4E2
  8
0
  6
DASHDOT
 62
     2
 10
223.113745038158
 20
-86.6674499511719
 30
0.0
 11
281.780019878576
 21
-86.6674499511719
 31
0.0
  0
TEXT
  5
   4E3
  8
0
  6
CONTINUOUS
 62
     1
 10
221.524982738759
 20
-177.398010219578
 30
0.0
 40
2.00000008940697
  1
4POLE LOW VOLTAGE M.C.C.B SERIES ISOMAX
 50
359.999999844103
 41
0.749999861419206
 72
     1
 11
250.624978661537
 21
-176.398010253906
 31
0.0
 73
     2
  0
TEXT
  5
   4E4
  8
0
  6
CONTINUOUS
 62
     1
 10
220.774982843812
 20
-180.398010217541
 30
0.0
 40
2.00000008940697
  1
FIXED VERS.SPREADED EXTENDED FRONT TERM.
 50
359.999999844103
 41
0.749999861419206
 72
     1
 11
250.624978661537
 21
-179.398010253906
 31
0.0
 73
     2
  0
TEXT
  5
   4E5
  8
0
  6
CONTINUOUS
 62
     1
 10
224.727374371406
 20
-185.468276961543
 30
0.0
 40
2.00000008940697
  1
INTERR.AUTOMATICO SERIE ISOMAX
 50
359.999999844103
 41
0.749999861419206
 72
     1
 11
247.077371239662
 21
-184.468276977539
 31
0.0
 73
     2
  0
TEXT
  5
   4E6
  8
0
  6
CONTINUOUS
 62
     1
 10
212.727376052257
 20
-188.468276928952
 30
0.0
 40
2.00000008940697
  1
TETRAP.ESECUZIONE FISSA TERM.ANT.PROL.DIVARIC.
 50
359.999999844103
 41
0.749999861419206
 72
     1
 11
247.077371239662
 21
-187.468276977539
 31
0.0
 73
     2
  0
TEXT
  5
   4E7
  8
0
  6
CONTINUOUS
 62
     1
 10
233.059402461747
 20
-195.708282475112
 30
0.0
 40
3.00000002980232
  1
     S6
 50
359.999999844103
 41
0.916666604744064
 72
     2
 11
251.759401379922
 21
-195.708282525899
 31
0.0
  0
TEXT
  5
   4E8
  8
0
  6
CONTINUOUS
 62
     1
 10
231.973709101014
 20
-204.689865241214
 30
0.0
 40
4.00000017881393
  1
601840/441
 50
359.999999844103
 41
0.937499973922969
 72
     2
 11
268.723709700785
 21
-204.689865341023
 31
0.0
  0
TEXT
  5
   4E9
  8
0
  6
CONTINUOUS
 62
     1
 10
162.305714975711
 20
-193.704193131828
 30
0.0
 40
2.00000008940697
  1
N0022 99-11-11
 50
359.999999844103
 41
0.749999861419206
 72
     1
 11
172.655713524818
 21
-192.704193115234
 31
0.0
 73
     2
  0
TEXT
  5
   4EA
  8
0
  6
CONTINUOUS
 62
     7
 10
226.363963501118
 20
-98.7268749630379
 30
0.0
 40
3.00000002980232
  1
=      =
 50
449.999999844103
 41
0.916666604744064
 72
     2
 11
226.363963559347
 21
-77.2768762033112
 31
0.0
  0
TEXT
  5
   4EB
  8
0
  6
CONTINUOUS
 62
     7
 10
217.425887481831
 20
-98.7268749630379
 30
0.0
 40
3.00000002980232
  1
=      =
 50
449.999999844103
 41
0.916666604744064
 72
     2
 11
217.42588754006
 21
-77.2768762033112
 31
0.0
  0
TEXT
  5
   4EC
  8
0
  6
CONTINUOUS
 62
     7
 10
251.373790432907
 20
-121.881816343064
 30
0.0
 40
3.00000002980232
  1
Y
 50
359.999999844103
 41
0.916666604744064
 72
     2
 11
253.573790301777
 21
-121.881816349039
 31
0.0
  0
TEXT
  5
   4ED
  8
0
  6
CONTINUOUS
 62
     7
 10
250.631094862915
 20
-53.5538172280739
 30
0.0
 40
3.00000002980232
  1
Y
 50
359.999999844103
 41
0.916666604744064
 72
     2
 11
252.831094731785
 21
-53.5538172340488
 31
0.0
  0
TEXT
  5
   4EE
  8
0
  6
CONTINUOUS
 62
     7
 10
205.698010136582
 20
-88.8318585312317
 30
0.0
 40
3.00000002980232
  1
X
 50
359.999999844103
 41
0.916666604744064
 72
     2
 11
207.898010005451
 21
-88.8318585372066
 31
0.0
  0
TEXT
  5
   4EF
  8
0
  6
CONTINUOUS
 62
     7
 10
283.417801548935
 20
-88.1026038682411
 30
0.0
 40
3.00000002980232
  1
X
 50
359.999999844103
 41
0.916666604744064
 72
     2
 11
285.617801417805
 21
-88.1026038742161
 31
0.0
  0
TEXT
  5
   4F0
  8
0
  6
CONTINUOUS
 62
     7
 10
242.150182571409
 20
-119.282375581855
 30
0.0
 40
3.00000002980232
  1
=      =
 50
359.999999844103
 41
0.916666604744064
 72
     2
 11
263.600181331136
 21
-119.28237564011
 31
0.0
  0
TEXT
  5
   4F1
  8
0
  6
CONTINUOUS
 62
     7
 10
241.407483901975
 20
-63.6730425435247
 30
0.0
 40
3.00000002980232
  1
=      =
 50
359.999999844103
 41
0.916666604744064
 72
     2
 11
262.857482661702
 21
-63.6730426017804
 31
0.0
  0
INSERT
  5
   4F2
  8
0
  6
CONTINUOUS
 62
     7
  2
*UDIM491
 10
0.0
 20
0.0
 30
0.0
  0
INSERT
  5
   4F3
  8
0
  6
CONTINUOUS
 62
     7
  2
*UDIM492
 10
0.0
 20
0.0
 30
0.0
  0
INSERT
  5
   4F4
  8
0
  6
CONTINUOUS
 62
     7
  2
*UDIM493
 10
0.0
 20
0.0
 30
0.0
  0
INSERT
  5
   4F5
  8
0
  6
CONTINUOUS
 62
     7
  2
*UDIM494
 10
0.0
 20
0.0
 30
0.0
  0
INSERT
  5
   4F6
  8
0
  6
CONTINUOUS
 62
     7
  2
*UDIM495
 10
0.0
 20
0.0
 30
0.0
  0
LINE
  5
   4F7
  8
0
  6
DASHDOT
 62
     2
 10
130.889190937719
 20
-69.5424499511719
 30
0.0
 11
91.3543339055245
 21
-69.5424499511719
 31
0.0
  0
LINE
  5
   4F8
  8
0
  6
DASHDOT
 62
     2
 10
131.837403950464
 20
-103.792449951172
 30
0.0
 11
91.2784286137852
 21
-103.792449951172
 31
0.0
  0
LINE
  5
   4F9
  8
0
  6
DASHDOT
 62
     2
 10
128.49291229248
 20
-62.5820083991671
 30
0.0
 11
128.49291229248
 21
-86.6674499511719
 31
0.0
  0
LINE
  5
   4FA
  8
0
  6
CONTINUOUS
 62
     7
 10
133.49291229248
 20
-61.8988607735134
 30
0.0
 11
133.49291229248
 21
-84.1674499511719
 31
0.0
  0
LINE
  5
   4FB
  8
0
  6
CONTINUOUS
 62
     7
 10
136.061261916325
 20
-64.5424499511719
 30
0.0
 11
86.8759216929058
 21
-64.5424499511719
 31
0.0
  0
LINE
  5
   4FC
  8
0
  6
CONTINUOUS
 62
     7
 10
136.750871380139
 20
-108.792449951172
 30
0.0
 11
87.179542859863
 21
-108.792449951172
 31
0.0
  0
LINE
  5
   4FD
  8
0
  6
DASHDOT
 62
     2
 10
140.974729346001
 20
-86.6674499511719
 30
0.0
 11
72.7575374293959
 21
-86.6674499511719
 31
0.0
  0
LINE
  5
   4FE
  8
0
  6
DASHDOT
 62
     2
 10
119.74291229248
 20
-54.9445517288933
 30
0.0
 11
119.74291229248
 21
-81.6674499511719
 31
0.0
  0
CIRCLE
  5
   4FF
  8
0
  6
CONTINUOUS
 62
     7
 10
128.49291229248
 20
-69.5424499511719
 30
0.0
 40
0.6875
  0
CIRCLE
  5
   500
  8
0
  6
CONTINUOUS
 62
     7
 10
128.49291229248
 20
-103.792449951172
 30
0.0
 40
0.6875
  0
LINE
  5
   501
  8
0
  6
CONTINUOUS
 62
     7
 10
140.974729346001
 20
-84.1674499511719
 30
0.0
 11
85.2819105663805
 21
-84.1674499511719
 31
0.0
  0
LINE
  5
   502
  8
0
  6
DASHDOT
 62
     2
 10
119.74291229248
 20
-79.1674499511719
 30
0.0
 11
119.74291229248
 21
-114.018067602146
 31
0.0
  0
LINE
  5
   503
  8
0
  6
DASHDOT
 62
     2
 10
128.49291229248
 20
-86.6674499511719
 30
0.0
 11
128.49291229248
 21
-107.745656984051
 31
0.0
  0
LINE
  5
   504
  8
0
  6
CONTINUOUS
 62
     7
 10
133.49291229248
 20
-89.1674499511719
 30
0.0
 11
133.49291229248
 21
-111.949239210703
 31
0.0
  0
LINE
  5
   505
  8
0
  6
CONTINUOUS
 62
     7
 10
140.974729346001
 20
-89.1674499511719
 30
0.0
 11
85.4337211498591
 21
-89.1674499511719
 31
0.0
  0
LINE
  5
   506
  8
0
  6
DASHDOT
 62
     2
 10
93.4929122924805
 20
-62.6579136909064
 30
0.0
 11
93.4929122924805
 21
-108.201088734487
 31
0.0
  0
CIRCLE
  5
   507
  8
0
  6
CONTINUOUS
 62
     2
 10
93.4929122924805
 20
-69.5424499511719
 30
0.0
 40
0.6875
  0
CIRCLE
  5
   508
  8
0
  6
CONTINUOUS
 62
     2
 10
93.4929122924805
 20
-103.792449951172
 30
0.0
 40
0.6875
  0
LINE
  5
   509
  8
0
  6
CONTINUOUS
 62
     7
 10
88.4929122924805
 20
-61.8229554817741
 30
0.0
 11
88.4929122924805
 21
-84.1674499511719
 31
0.0
  0
LINE
  5
   50A
  8
0
  6
CONTINUOUS
 62
     7
 10
88.4929122924805
 20
-89.1674499511719
 30
0.0
 11
88.4929122924805
 21
-111.08548982058
 31
0.0
  0
TEXT
  5
   50B
  8
0
  6
CONTINUOUS
 62
     7
 10
118.492265867052
 20
-52.3671811537588
 30
0.0
 40
3.5
  1
Y
 50
359.999999896069
 41
0.933333333333334
 72
     1
 11
119.775599203551
 21
-50.6171811560802
 31
0.0
 73
     2
  0
TEXT
  5
   50C
  8
0
  6
CONTINUOUS
 62
     7
 10
118.492265867052
 20
-119.945105145234
 30
0.0
 40
3.5
  1
Y
 50
359.999999896069
 41
0.933333333333334
 72
     1
 11
119.775599203551
 21
-118.195105147555
 31
0.0
 73
     2
  0
TEXT
  5
   50D
  8
0
  6
CONTINUOUS
 62
     7
 10
68.8243408175991
 20
-87.7130413333545
 30
0.0
 40
3.00000002980232
  1
X
 50
359.999999896069
 41
0.916666604744064
 72
     2
 11
71.0243406864689
 21
-87.7130413373341
 31
0.0
  0
TEXT
  5
   50E
  8
0
  6
CONTINUOUS
 62
     7
 10
144.681377408175
 20
-88.1440472880969
 30
0.0
 40
3.00000002980232
  1
X
 50
359.999999896069
 41
0.916666604744064
 72
     2
 11
146.881377277045
 21
-88.1440472920766
 31
0.0
  0
INSERT
  5
   50F
  8
0
  6
CONTINUOUS
 62
     7
  2
*UDIM496
 10
0.0
 20
0.0
 30
0.0
  0
INSERT
  5
   510
  8
0
  6
CONTINUOUS
 62
     2
  2
*UDIM497
 10
0.0
 20
0.0
 30
0.0
  0
INSERT
  5
   511
  8
0
  6
CONTINUOUS
 62
     2
  2
*UDIM498
 10
0.0
 20
0.0
 30
0.0
  0
INSERT
  5
   512
  8
0
  6
CONTINUOUS
 62
     2
  2
*UDIM499
 10
0.0
 20
0.0
 30
0.0
  0
INSERT
  5
   513
  8
0
  6
CONTINUOUS
 62
     2
  2
*UDIM500
 10
0.0
 20
0.0
 30
0.0
  0
LINE
  5
   514
  8
0
  6
CONTINUOUS
 62
     7
 10
59.3679346829649
 20
108.727860608697
 30
0.0
 11
58.5804211244429
 21
108.727860608697
 31
0.0
  0
LINE
  5
   515
  8
0
  6
CONTINUOUS
 62
     7
 10
59.3679346829649
 20
108.727860608697
 30
0.0
 11
59.3679346829649
 21
109.427860596776
 31
0.0
  0
LINE
  5
   516
  8
0
  6
CONTINUOUS
 62
     7
 10
106.705396564681
 20
109.77786593139
 30
0.0
 11
83.7803969550909
 21
109.77786593139
 31
0.0
  0
LINE
  5
   517
  8
0
  6
CONTINUOUS
 62
     1
 10
99.2681359769335
 20
107.152860635519
 30
0.0
 11
97.3501922129345
 21
107.152860635519
 31
0.0
  0
LINE
  5
   518
  8
0
  6
CONTINUOUS
 62
     1
 10
99.2681359769335
 20
102.952860707045
 30
0.0
 11
97.3501922129345
 21
102.952860707045
 31
0.0
  0
LINE
  5
   519
  8
0
  6
CONTINUOUS
 62
     1
 10
93.1356517447499
 20
102.952860557252
 30
0.0
 11
91.2180857267771
 21
102.952867089585
 31
0.0
  0
LINE
  5
   51A
  8
0
  6
CONTINUOUS
 62
     1
 10
91.2180857253613
 20
107.152854253428
 30
0.0
 11
93.135654430289
 21
107.15286078579
 31
0.0
  0
LINE
  5
   51B
  8
0
  6
CONTINUOUS
 62
     7
 10
131.205401488024
 20
109.777860590814
 30
0.0
 11
108.280396537858
 21
109.777860590814
 31
0.0
  0
LINE
  5
   51C
  8
0
  6
CONTINUOUS
 62
     1
 10
117.635634458189
 20
107.152860635519
 30
0.0
 11
115.718046243258
 21
107.152860635519
 31
0.0
  0
LINE
  5
   51D
  8
0
  6
CONTINUOUS
 62
     1
 10
117.635258997625
 20
102.952860707045
 30
0.0
 11
115.718046243258
 21
102.952860707045
 31
0.0
  0
LINE
  5
   51E
  8
0
  6
CONTINUOUS
 62
     1
 10
121.850190614024
 20
102.952857204885
 30
0.0
 11
123.767959836905
 21
102.952863737931
 31
0.0
  0
LINE
  5
   51F
  8
0
  6
CONTINUOUS
 62
     1
 10
123.767959841103
 20
107.152857605392
 30
0.0
 11
121.850190600701
 21
107.152864138438
 31
0.0
  0
LINE
  5
   520
  8
0
  6
CONTINUOUS
 62
     7
 10
156.317890307308
 20
108.727860608697
 30
0.0
 11
155.617890319229
 21
108.727860608697
 31
0.0
  0
LINE
  5
   521
  8
0
  6
CONTINUOUS
 62
     7
 10
156.317911669612
 20
101.202860567116
 30
0.0
 11
156.317911669612
 21
108.727860545567
 31
0.0
  0
LINE
  5
   522
  8
0
  6
CONTINUOUS
 62
     7
 10
155.617890319229
 20
108.727860608697
 30
0.0
 11
155.617890319229
 21
109.427860596776
 31
0.0
  0
LINE
  5
   523
  8
0
  6
CONTINUOUS
 62
     7
 10
155.267907321772
 20
109.77786593139
 30
0.0
 11
132.780401461202
 21
109.77786593139
 31
0.0
  0
LINE
  5
   524
  8
0
  6
CONTINUOUS
 62
     1
 10
142.135627365236
 20
107.152860635519
 30
0.0
 11
140.217830032424
 21
107.152860635519
 31
0.0
  0
LINE
  5
   525
  8
0
  6
CONTINUOUS
 62
     1
 10
142.135627365236
 20
102.952860707045
 30
0.0
 11
140.217830032424
 21
102.952860707045
 31
0.0
  0
LINE
  5
   526
  8
0
  6
CONTINUOUS
 62
     1
 10
146.350173172032
 20
102.952860557253
 30
0.0
 11
148.267957585558
 21
102.95286709033
 31
0.0
  0
LINE
  5
   527
  8
0
  6
CONTINUOUS
 62
     1
 10
148.26797360958
 20
107.152854252939
 30
0.0
 11
146.350170486865
 21
107.15286078608
 31
0.0
  0
CIRCLE
  5
   528
  8
0
  6
CONTINUOUS
 62
     1
 10
107.492908632286
 20
104.352935834888
 30
0.0
 40
1.83749996870756
  0
CIRCLE
  5
   529
  8
0
  6
CONTINUOUS
 62
     1
 10
131.992829184778
 20
104.352895286806
 30
0.0
 40
1.83749996870756
  0
LINE
  5
   52A
  8
0
  6
DASHDOT
 62
     7
 10
118.238127246977
 20
105.052864144995
 30
0.0
 11
113.197965573325
 21
105.052864144995
 31
0.0
  0
LINE
  5
   52B
  8
0
  6
DASHDOT
 62
     7
 10
115.718046243258
 20
102.532783475061
 30
0.0
 11
115.718046243258
 21
107.572944814928
 31
0.0
  0
ARC
  5
   52C
  8
0
  6
CONTINUOUS
 62
     1
 10
115.718046243258
 20
105.052864144995
 30
0.0
 40
2.10006689115832
 50
90.0036557603355
 51
269.996301839899
  0
LINE
  5
   52D
  8
0
  6
DASHDOT
 62
     7
 10
123.313040062673
 20
105.052718869701
 30
0.0
 11
116.172707695502
 21
105.052718869701
 31
0.0
  0
ARC
  5
   52E
  8
0
  6
CONTINUOUS
 62
     1
 10
119.742873879098
 20
105.052718869701
 30
0.0
 40
2.97513848632147
 50
224.89430374687
 51
315.105491686916
  0
LINE
  5
   52F
  8
0
  6
DASHDOT
 62
     7
 10
126.287892379378
 20
105.052918203379
 30
0.0
 11
121.2480123192
 21
105.052918203379
 31
0.0
  0
LINE
  5
   530
  8
0
  6
DASHDOT
 62
     7
 10
123.767952683078
 20
102.532976641217
 30
0.0
 11
123.767952683078
 21
107.572856033824
 31
0.0
  0
ARC
  5
   531
  8
0
  6
CONTINUOUS
 62
     1
 10
123.767952683075
 20
105.052918203379
 30
0.0
 40
2.09994941313343
 50
269.999007927624
 51
450.00105270767
  0
LINE
  5
   532
  8
0
  6
DASHDOT
 62
     7
 10
142.737726949137
 20
105.052881051303
 30
0.0
 11
137.697911753407
 21
105.052881051303
 31
0.0
  0
LINE
  5
   533
  8
0
  6
DASHDOT
 62
     7
 10
140.217830032424
 20
102.532968112862
 30
0.0
 11
140.217830032424
 21
107.572793989744
 31
0.0
  0
ARC
  5
   534
  8
0
  6
CONTINUOUS
 62
     1
 10
140.217830032424
 20
105.052881051303
 30
0.0
 40
2.09992678112893
 50
449.999999948034
 51
630.002376467854
  0
LINE
  5
   535
  8
0
  6
DASHDOT
 62
     7
 10
147.812938677451
 20
105.052831153679
 30
0.0
 11
140.672880083311
 21
105.052831153679
 31
0.0
  0
ARC
  5
   536
  8
0
  6
CONTINUOUS
 62
     1
 10
144.242914720957
 20
105.052831153679
 30
0.0
 40
2.97502441422517
 50
404.901045292561
 51
495.098630845462
  0
LINE
  5
   537
  8
0
  6
DASHDOT
 62
     7
 10
150.787959248119
 20
105.052850210077
 30
0.0
 11
145.747952298519
 21
105.052850210077
 31
0.0
  0
LINE
  5
   538
  8
0
  6
DASHDOT
 62
     7
 10
148.267955773319
 20
102.532841394701
 30
0.0
 11
148.267955773319
 21
107.572859025453
 31
0.0
  0
ARC
  5
   539
  8
0
  6
CONTINUOUS
 62
     1
 10
148.267955773319
 20
105.052850210077
 30
0.0
 40
2.10000667857487
 50
269.998338346111
 51
450.001473300288
  0
LINE
  5
   53A
  8
0
  6
DASHDOT
 62
     7
 10
155.015882200706
 20
108.377869806331
 30
0.0
 11
153.419902888071
 21
108.377869806331
 31
0.0
  0
LINE
  5
   53B
  8
0
  6
DASHDOT
 62
     7
 10
154.217895214677
 20
107.579882820302
 30
0.0
 11
154.217895214677
 21
109.17585679236
 31
0.0
  0
CIRCLE
  5
   53C
  8
0
  6
CONTINUOUS
 62
     1
 10
154.217895214677
 20
108.377869806331
 30
0.0
 40
0.664989155024458
  0
CIRCLE
  5
   53D
  8
0
  6
CONTINUOUS
 62
     1
 10
154.217916188435
 20
108.377866159279
 30
0.0
 40
0.490019788203438
  0
ARC
  5
   53E
  8
0
  6
CONTINUOUS
 62
     7
 10
155.267893072954
 20
109.427852602081
 30
0.0
 40
0.349999722807106
 50
360.000054589548
 51
449.999945306521
  0
CIRCLE
  5
   53F
  8
0
  6
CONTINUOUS
 62
     1
 10
60.7678882025477
 20
108.377863793795
 30
0.0
 40
0.489980599073086
  0
LINE
  5
   540
  8
0
  6
DASHDOT
 62
     7
 10
61.5658756641982
 20
108.377933411325
 30
0.0
 11
59.9699879825226
 21
108.377933411325
 31
0.0
  0
LINE
  5
   541
  8
0
  6
DASHDOT
 62
     7
 10
60.7679318233604
 20
107.579994911063
 30
0.0
 11
60.7679318233604
 21
109.175871911586
 31
0.0
  0
CIRCLE
  5
   542
  8
0
  6
CONTINUOUS
 62
     1
 10
60.7679318233604
 20
108.377933411325
 30
0.0
 40
0.664948750218101
  0
ARC
  5
   543
  8
0
  6
CONTINUOUS
 62
     7
 10
59.7179335489704
 20
109.427858829918
 30
0.0
 40
0.349996002028132
 50
90.0005173512766
 51
180.001122723422
  0
LINE
  5
   544
  8
0
  6
DASHDOT
 62
     7
 10
91.2181035645047
 20
102.532738547605
 30
0.0
 11
91.2181035645047
 21
107.573014242209
 31
0.0
  0
ARC
  5
   545
  8
0
  6
CONTINUOUS
 62
     1
 10
91.2181035645047
 20
105.052876394907
 30
0.0
 40
2.1001148727515
 50
90.0052836333811
 51
269.995265213079
  0
LINE
  5
   546
  8
0
  6
DASHDOT
 62
     7
 10
98.8129897886956
 20
105.052921434836
 30
0.0
 11
91.6728410835997
 21
105.052921434836
 31
0.0
  0
ARC
  5
   547
  8
0
  6
CONTINUOUS
 62
     1
 10
95.2429287875878
 20
105.052921434836
 30
0.0
 40
2.97505973521659
 50
224.901380849089
 51
315.098568474349
  0
LINE
  5
   548
  8
0
  6
DASHDOT
 62
     7
 10
99.2681359769335
 20
102.533049383233
 30
0.0
 11
99.2681359769335
 21
107.572703769618
 31
0.0
  0
ARC
  5
   549
  8
0
  6
CONTINUOUS
 62
     1
 10
99.2681359769335
 20
105.052876576426
 30
0.0
 40
2.09985599432712
 50
269.999999948034
 51
449.999945306521
  0
ARC
  5
   54A
  8
0
  6
CONTINUOUS
 62
     1
 10
95.2429287875878
 20
105.052921434836
 30
0.0
 40
2.97505973521659
 50
404.897963373026
 51
495.101923170488
  0
ARC
  5
   54B
  8
0
  6
CONTINUOUS
 62
     1
 10
119.742873879098
 20
105.052718869701
 30
0.0
 40
2.97513848632147
 50
404.902109287098
 51
495.097767281763
  0
ARC
  5
   54C
  8
0
  6
CONTINUOUS
 62
     1
 10
144.242914720957
 20
105.052831153679
 30
0.0
 40
2.97502441422517
 50
224.899545375473
 51
315.100341172749
  0
LINE
  5
   54D
  8
0
  6
CONTINUOUS
 62
     7
 10
155.617909011243
 20
101.377869432742
 30
0.0
 11
59.2454209796036
 21
101.377869432742
 31
0.0
  0
LINE
  5
   54E
  8
0
  6
CONTINUOUS
 62
     7
 10
155.617903670669
 20
101.202860736852
 30
0.0
 11
155.617903670669
 21
109.427852602081
 31
0.0
  0
LINE
  5
   54F
  8
0
  6
CONTINUOUS
 62
     7
 10
83.942945327077
 20
101.202878116408
 30
0.0
 11
83.942945327077
 21
101.377866074443
 31
0.0
  0
LINE
  5
   550
  8
0
  6
CONTINUOUS
 62
     1
 10
156.405419458493
 20
84.3153608547085
 30
0.0
 11
156.405419458493
 21
101.202860567116
 31
0.0
  0
LINE
  5
   551
  8
0
  6
CONTINUOUS
 62
     1
 10
156.405419458493
 20
16.9578617347734
 30
0.0
 11
156.405419458493
 21
47.5653721617094
 31
0.0
  0
LINE
  5
   552
  8
0
  6
CONTINUOUS
 62
     1
 10
58.5804211244429
 20
16.9578617347734
 30
0.0
 11
58.5804211244429
 21
47.5653507994051
 31
0.0
  0
LINE
  5
   553
  8
0
  6
CONTINUOUS
 62
     1
 10
58.5804211244429
 20
84.3153394924042
 30
0.0
 11
58.5804211244429
 21
108.727860608697
 31
0.0
  0
LINE
  5
   554
  8
0
  6
CONTINUOUS
 62
     1
 10
156.405419458493
 20
101.202860567116
 30
0.0
 11
58.5804211244429
 21
101.202860567116
 31
0.0
  0
LINE
  5
   555
  8
0
  6
CONTINUOUS
 62
     1
 10
156.055419464454
 20
39.6028616161578
 30
0.0
 11
146.342911839485
 21
39.6028616161578
 31
0.0
  0
LINE
  5
   556
  8
0
  6
CONTINUOUS
 62
     1
 10
58.5804211244429
 20
47.5653561399812
 30
0.0
 11
58.5804211244429
 21
84.3153555141324
 31
0.0
  0
LINE
  5
   557
  8
0
  6
CONTINUOUS
 62
     1
 10
156.405419458493
 20
47.5653561399811
 30
0.0
 11
156.405419458493
 21
84.3153555141324
 31
0.0
  0
LINE
  5
   558
  8
0
  6
CONTINUOUS
 62
     1
 10
156.405419458493
 20
47.5653561399812
 30
0.0
 11
146.342911839485
 21
47.5653561399812
 31
0.0
  0
LINE
  5
   559
  8
0
  6
CONTINUOUS
 62
     1
 10
156.230419461473
 20
84.3153555141324
 30
0.0
 11
146.342911839485
 21
84.3153555141324
 31
0.0
  0
LINE
  5
   55A
  8
0
  6
CONTINUOUS
 62
     1
 10
156.405419458493
 20
39.9528615893357
 30
0.0
 11
146.342911839485
 21
39.9528615893357
 31
0.0
  0
LINE
  5
   55B
  8
0
  6
CONTINUOUS
 62
     1
 10
58.9304210976208
 20
39.6028616161578
 30
0.0
 11
58.9304210976208
 21
39.9528615893357
 31
0.0
  0
LINE
  5
   55C
  8
0
  6
CONTINUOUS
 62
     1
 10
156.055419464454
 20
39.6028616161578
 30
0.0
 11
156.055419464454
 21
39.9528615893357
 31
0.0
  0
LINE
  5
   55D
  8
0
  6
CONTINUOUS
 62
     1
 10
154.935415211066
 20
84.3153555141324
 30
0.0
 11
154.935415211066
 21
101.202860567116
 31
0.0
  0
LINE
  5
   55E
  8
0
  6
CONTINUOUS
 62
     1
 10
155.740416265472
 20
84.3153555141324
 30
0.0
 11
155.740416265472
 21
101.202860567116
 31
0.0
  0
LINE
  5
   55F
  8
0
  6
CONTINUOUS
 62
     1
 10
149.895417433127
 20
84.3153555141324
 30
0.0
 11
149.895417433127
 21
101.202860567116
 31
0.0
  0
LINE
  5
   560
  8
0
  6
CONTINUOUS
 62
     1
 10
151.155414207324
 20
84.3153555141324
 30
0.0
 11
151.155414207324
 21
101.202860567116
 31
0.0
  0
LINE
  5
   561
  8
0
  6
CONTINUOUS
 62
     1
 10
152.415416322097
 20
84.3153555141324
 30
0.0
 11
152.415416322097
 21
101.202860567116
 31
0.0
  0
LINE
  5
   562
  8
0
  6
CONTINUOUS
 62
     1
 10
153.67541843687
 20
84.3153555141324
 30
0.0
 11
153.67541843687
 21
101.202860567116
 31
0.0
  0
LINE
  5
   563
  8
0
  6
CONTINUOUS
 62
     1
 10
144.225418597802
 20
94.1153546796677
 30
0.0
 11
144.225418597802
 21
101.202860567116
 31
0.0
  0
LINE
  5
   564
  8
0
  6
CONTINUOUS
 62
     1
 10
145.030414311632
 20
94.1153546796677
 30
0.0
 11
145.030414311632
 21
101.202860567116
 31
0.0
  0
LINE
  5
   565
  8
0
  6
CONTINUOUS
 62
     1
 10
146.115416429385
 20
94.06165713478
 30
0.0
 11
146.115416429385
 21
101.202860567116
 31
0.0
  0
LINE
  5
   566
  8
0
  6
CONTINUOUS
 62
     1
 10
147.375418544158
 20
84.3153555141324
 30
0.0
 11
147.375418544158
 21
101.202860567116
 31
0.0
  0
LINE
  5
   567
  8
0
  6
CONTINUOUS
 62
     1
 10
148.635415318355
 20
84.3153555141324
 30
0.0
 11
148.635415318355
 21
101.202860567116
 31
0.0
  0
LINE
  5
   568
  8
0
  6
CONTINUOUS
 62
     1
 10
151.155414207324
 20
47.5653561399811
 30
0.0
 11
151.155414207324
 21
84.3153555141324
 31
0.0
  0
LINE
  5
   569
  8
0
  6
CONTINUOUS
 62
     1
 10
153.67541843687
 20
47.5653561399811
 30
0.0
 11
153.67541843687
 21
84.3153555141324
 31
0.0
  0
LINE
  5
   56A
  8
0
  6
CONTINUOUS
 62
     1
 10
152.415416322097
 20
47.5653561399811
 30
0.0
 11
152.415416322097
 21
84.3153555141324
 31
0.0
  0
LINE
  5
   56B
  8
0
  6
CONTINUOUS
 62
     1
 10
148.635415318355
 20
47.5653561399811
 30
0.0
 11
148.635415318355
 21
84.3153555141324
 31
0.0
  0
LINE
  5
   56C
  8
0
  6
CONTINUOUS
 62
     1
 10
147.375418544158
 20
47.5653561399811
 30
0.0
 11
147.375418544158
 21
84.3153555141324
 31
0.0
  0
LINE
  5
   56D
  8
0
  6
CONTINUOUS
 62
     1
 10
154.935415211066
 20
47.5653561399811
 30
0.0
 11
154.935415211066
 21
84.3153555141324
 31
0.0
  0
LINE
  5
   56E
  8
0
  6
CONTINUOUS
 62
     1
 10
155.740416265472
 20
47.5653561399811
 30
0.0
 11
155.740416265472
 21
84.3153555141324
 31
0.0
  0
LINE
  5
   56F
  8
0
  6
CONTINUOUS
 62
     1
 10
154.935415211066
 20
39.9528615893357
 30
0.0
 11
154.935415211066
 21
47.5653561191195
 31
0.0
  0
LINE
  5
   570
  8
0
  6
CONTINUOUS
 62
     1
 10
155.740416265472
 20
39.9528615893357
 30
0.0
 11
155.740416265472
 21
47.5653561191195
 31
0.0
  0
LINE
  5
   571
  8
0
  6
CONTINUOUS
 62
     1
 10
149.895417433127
 20
39.9528615893357
 30
0.0
 11
149.895417433127
 21
84.3153555141324
 31
0.0
  0
LINE
  5
   572
  8
0
  6
CONTINUOUS
 62
     1
 10
151.155414207324
 20
39.9528615893357
 30
0.0
 11
151.155414207324
 21
47.5653561191195
 31
0.0
  0
LINE
  5
   573
  8
0
  6
CONTINUOUS
 62
     1
 10
152.415416322097
 20
39.9528615893357
 30
0.0
 11
152.415416322097
 21
47.5653561191195
 31
0.0
  0
LINE
  5
   574
  8
0
  6
CONTINUOUS
 62
     1
 10
153.67541843687
 20
39.9528615893357
 30
0.0
 11
153.67541843687
 21
47.5653561191195
 31
0.0
  0
LINE
  5
   575
  8
0
  6
CONTINUOUS
 62
     1
 10
144.225418597802
 20
39.9528615893357
 30
0.0
 11
144.225418597802
 21
47.5653561191195
 31
0.0
  0
LINE
  5
   576
  8
0
  6
CONTINUOUS
 62
     1
 10
147.375418544158
 20
39.9528615893357
 30
0.0
 11
147.375418544158
 21
47.5653561191195
 31
0.0
  0
LINE
  5
   577
  8
0
  6
CONTINUOUS
 62
     1
 10
148.635415318355
 20
39.9528615893357
 30
0.0
 11
148.635415318355
 21
47.5653561191195
 31
0.0
  0
LINE
  5
   578
  8
0
  6
CONTINUOUS
 62
     1
 10
60.0504210326518
 20
84.3153555141324
 30
0.0
 11
60.0504210326518
 21
101.202860567116
 31
0.0
  0
LINE
  5
   579
  8
0
  6
CONTINUOUS
 62
     1
 10
59.2454209796036
 20
84.3153555141324
 30
0.0
 11
59.2454209796036
 21
108.727860608697
 31
0.0
  0
LINE
  5
   57A
  8
0
  6
CONTINUOUS
 62
     1
 10
65.0904178092326
 20
84.3153555141324
 30
0.0
 11
65.0904178092326
 21
101.202860567116
 31
0.0
  0
LINE
  5
   57B
  8
0
  6
CONTINUOUS
 62
     1
 10
63.8304210350359
 20
84.3153555141324
 30
0.0
 11
63.8304210350359
 21
101.202860567116
 31
0.0
  0
LINE
  5
   57C
  8
0
  6
CONTINUOUS
 62
     1
 10
62.5704209229792
 20
84.3153555141324
 30
0.0
 11
62.5704209229792
 21
101.202860567116
 31
0.0
  0
LINE
  5
   57D
  8
0
  6
CONTINUOUS
 62
     1
 10
61.3104208109225
 20
84.3153555141324
 30
0.0
 11
61.3104208109225
 21
101.202860567116
 31
0.0
  0
LINE
  5
   57E
  8
0
  6
CONTINUOUS
 62
     1
 10
70.1304209277476
 20
84.3153555141324
 30
0.0
 11
70.1304209277476
 21
101.202860567116
 31
0.0
  0
LINE
  5
   57F
  8
0
  6
CONTINUOUS
 62
     1
 10
68.8704188129748
 20
84.3153555141324
 30
0.0
 11
68.8704188129748
 21
101.202860567116
 31
0.0
  0
LINE
  5
   580
  8
0
  6
CONTINUOUS
 62
     1
 10
67.6104166982021
 20
84.3153555141324
 30
0.0
 11
67.6104166982021
 21
101.202860567116
 31
0.0
  0
LINE
  5
   581
  8
0
  6
CONTINUOUS
 62
     1
 10
66.3504199240054
 20
84.3153555141324
 30
0.0
 11
66.3504199240054
 21
101.202860567116
 31
0.0
  0
LINE
  5
   582
  8
0
  6
CONTINUOUS
 62
     1
 10
63.8304207012499
 20
47.5653561399812
 30
0.0
 11
63.8304207012499
 21
84.3153555141324
 31
0.0
  0
LINE
  5
   583
  8
0
  6
CONTINUOUS
 62
     1
 10
65.0904178092326
 20
47.5653561399812
 30
0.0
 11
65.0904178092326
 21
84.3153555141324
 31
0.0
  0
LINE
  5
   584
  8
0
  6
CONTINUOUS
 62
     1
 10
61.3104208109225
 20
47.5653561399812
 30
0.0
 11
61.3104208109225
 21
84.3153555141324
 31
0.0
  0
LINE
  5
   585
  8
0
  6
CONTINUOUS
 62
     1
 10
62.5704209229792
 20
47.5653561399812
 30
0.0
 11
62.5704209229792
 21
84.3153555141324
 31
0.0
  0
LINE
  5
   586
  8
0
  6
CONTINUOUS
 62
     1
 10
68.8704188129748
 20
47.5653561399812
 30
0.0
 11
68.8704188129748
 21
84.3153555141324
 31
0.0
  0
LINE
  5
   587
  8
0
  6
CONTINUOUS
 62
     1
 10
70.1304155871715
 20
47.5653561399812
 30
0.0
 11
70.1304155871715
 21
84.3153555141324
 31
0.0
  0
LINE
  5
   588
  8
0
  6
CONTINUOUS
 62
     1
 10
66.3504199240054
 20
47.5653561399812
 30
0.0
 11
66.3504199240054
 21
84.3153555141324
 31
0.0
  0
LINE
  5
   589
  8
0
  6
CONTINUOUS
 62
     1
 10
67.6104166982021
 20
47.5653561399812
 30
0.0
 11
67.6104166982021
 21
84.3153555141324
 31
0.0
  0
LINE
  5
   58A
  8
0
  6
CONTINUOUS
 62
     1
 10
60.0504210326518
 20
47.5653561399812
 30
0.0
 11
60.0504210326518
 21
84.3153555141324
 31
0.0
  0
LINE
  5
   58B
  8
0
  6
CONTINUOUS
 62
     1
 10
59.2454209796036
 20
47.5653561399812
 30
0.0
 11
59.2454209796036
 21
84.3153555141324
 31
0.0
  0
LINE
  5
   58C
  8
0
  6
CONTINUOUS
 62
     1
 10
60.0504210326518
 20
25.7778565094959
 30
0.0
 11
60.0504210326518
 21
39.427861619138
 31
0.0
  0
LINE
  5
   58D
  8
0
  6
CONTINUOUS
 62
     1
 10
59.2454209796036
 20
25.7778565094959
 30
0.0
 11
59.2454209796036
 21
39.427861619138
 31
0.0
  0
LINE
  5
   58E
  8
0
  6
CONTINUOUS
 62
     1
 10
65.0904178092326
 20
25.7778565094959
 30
0.0
 11
65.0904178092326
 21
39.427861619138
 31
0.0
  0
LINE
  5
   58F
  8
0
  6
CONTINUOUS
 62
     1
 10
63.8304210350359
 20
25.7778565094959
 30
0.0
 11
63.8304210350359
 21
39.427861619138
 31
0.0
  0
LINE
  5
   590
  8
0
  6
CONTINUOUS
 62
     1
 10
62.5704209229792
 20
25.7778565094959
 30
0.0
 11
62.5704209229792
 21
39.427861619138
 31
0.0
  0
LINE
  5
   591
  8
0
  6
CONTINUOUS
 62
     1
 10
61.3104208109225
 20
25.7778565094959
 30
0.0
 11
61.3104208109225
 21
39.427861619138
 31
0.0
  0
LINE
  5
   592
  8
0
  6
CONTINUOUS
 62
     1
 10
95.2604162273254
 20
25.7778565094959
 30
0.0
 11
95.2604162273254
 21
37.7653569744465
 31
0.0
  0
LINE
  5
   593
  8
0
  6
CONTINUOUS
 62
     1
 10
70.1304209277476
 20
25.7778565094959
 30
0.0
 11
70.1304209277476
 21
39.427861619138
 31
0.0
  0
LINE
  5
   594
  8
0
  6
CONTINUOUS
 62
     1
 10
68.8704188129748
 20
25.7778565094959
 30
0.0
 11
68.8704188129748
 21
39.427861619138
 31
0.0
  0
LINE
  5
   595
  8
0
  6
CONTINUOUS
 62
     1
 10
67.6104166982021
 20
25.7778565094959
 30
0.0
 11
67.6104166982021
 21
39.427861619138
 31
0.0
  0
LINE
  5
   596
  8
0
  6
CONTINUOUS
 62
     1
 10
66.3504199240054
 20
25.7778565094959
 30
0.0
 11
66.3504199240054
 21
39.427861619138
 31
0.0
  0
LINE
  5
   597
  8
0
  6
CONTINUOUS
 62
     1
 10
143.717911884189
 20
99.4528605969184
 30
0.0
 11
95.7679127007723
 21
99.4528605969184
 31
0.0
  0
LINE
  5
   598
  8
0
  6
CONTINUOUS
 62
     1
 10
143.717911884189
 20
94.1153546796677
 30
0.0
 11
143.717911884189
 21
99.4528605969184
 31
0.0
  0
LINE
  5
   599
  8
0
  6
CONTINUOUS
 62
     1
 10
95.7679127007723
 20
94.1153546796677
 30
0.0
 11
95.7679127007723
 21
99.4528605969184
 31
0.0
  0
ARC
  5
   59A
  8
0
  6
CONTINUOUS
 62
     1
 10
58.7554211214627
 20
84.1403555171126
 30
0.0
 40
0.174999997019768
 50
89.9999999480344
 51
179.999999948034
  0
ARC
  5
   59B
  8
0
  6
CONTINUOUS
 62
     1
 10
156.230419461473
 20
84.1403555171126
 30
0.0
 40
0.174999997019768
 50
359.999999948034
 51
449.999999948034
  0
ARC
  5
   59C
  8
0
  6
CONTINUOUS
 62
     1
 10
156.230419461473
 20
47.7403561370009
 30
0.0
 40
0.174999997019768
 50
269.999999948034
 51
359.999999948034
  0
ARC
  5
   59D
  8
0
  6
CONTINUOUS
 62
     1
 10
58.7554211214627
 20
47.7403561370009
 30
0.0
 40
0.174999997019768
 50
179.999999948034
 51
269.999999948034
  0
LINE
  5
   59E
  8
0
  6
CONTINUOUS
 62
     3
 10
144.242911875248
 20
47.7403668440787
 30
0.0
 11
144.242911875248
 21
50.715366597878
 31
0.0
  0
LINE
  5
   59F
  8
0
  6
CONTINUOUS
 62
     3
 10
144.067911852303
 20
47.5653668211338
 30
0.0
 11
95.4179233619595
 21
47.5653668211338
 31
0.0
  0
LINE
  5
   5A0
  8
0
  6
CONTINUOUS
 62
     3
 10
95.2429233908654
 20
47.7403667922284
 30
0.0
 11
95.2429233908654
 21
50.715366597878
 31
0.0
  0
LINE
  5
   5A1
  8
0
  6
CONTINUOUS
 62
     3
 10
144.067906363502
 20
84.3153555141327
 30
0.0
 11
95.4179180279589
 21
84.3153555141327
 31
0.0
  0
LINE
  5
   5A2
  8
0
  6
CONTINUOUS
 62
     1
 10
144.242890512944
 20
80.1153555856581
 30
0.0
 11
95.2429233908651
 21
80.1153555856581
 31
0.0
  0
LINE
  5
   5A3
  8
0
  6
CONTINUOUS
 62
     1
 10
144.242901194096
 20
83.6153555260534
 30
0.0
 11
95.2429233908651
 21
83.6153555260534
 31
0.0
  0
LINE
  5
   5A4
  8
0
  6
CONTINUOUS
 62
     1
 10
127.092912167311
 20
70.5778664292329
 30
0.0
 11
112.39291241765
 21
70.5778664292329
 31
0.0
  0
LINE
  5
   5A5
  8
0
  6
CONTINUOUS
 62
     7
 10
127.092912167311
 20
48.9901808628224
 30
0.0
 11
127.092912167311
 21
58.2378992052027
 31
0.0
  0
LINE
  5
   5A6
  8
0
  6
CONTINUOUS
 62
     7
 10
112.39291241765
 20
48.9901808628224
 30
0.0
 11
112.39291241765
 21
58.2378992052027
 31
0.0
  0
LINE
  5
   5A7
  8
0
  6
CONTINUOUS
 62
     7
 10
127.092912167311
 20
70.7434776935024
 30
0.0
 11
112.39291241765
 21
70.7434776935024
 31
0.0
  0
LINE
  5
   5A8
  8
0
  6
CONTINUOUS
 62
   218
 10
144.242922556398
 20
72.0653665587093
 30
0.0
 11
144.242922556398
 21
84.1403582841494
 31
0.0
  0
LINE
  5
   5A9
  8
0
  6
CONTINUOUS
 62
   218
 10
144.242911875248
 20
57.71536664828
 30
0.0
 11
144.242911875248
 21
65.0653665231102
 31
0.0
  0
LINE
  5
   5AA
  8
0
  6
CONTINUOUS
 62
   218
 10
144.242911875248
 20
65.4153665171498
 30
0.0
 11
144.242911875248
 21
71.7153664098614
 31
0.0
  0
LINE
  5
   5AB
  8
0
  6
CONTINUOUS
 62
   218
 10
144.242911875248
 20
51.0653721021049
 30
0.0
 11
144.242911875248
 21
57.3653666542404
 31
0.0
  0
LINE
  5
   5AC
  8
0
  6
CONTINUOUS
 62
   218
 10
95.2429180502891
 20
51.0653667615288
 30
0.0
 11
95.2429180502891
 21
57.3653613136644
 31
0.0
  0
LINE
  5
   5AD
  8
0
  6
CONTINUOUS
 62
   218
 10
95.2429180502891
 20
72.0653610633248
 30
0.0
 11
95.2429180502891
 21
84.1403528274762
 31
0.0
  0
LINE
  5
   5AE
  8
0
  6
CONTINUOUS
 62
   218
 10
95.2429180502891
 20
57.7153613077039
 30
0.0
 11
95.2429180502891
 21
65.0653611825341
 31
0.0
  0
LINE
  5
   5AF
  8
0
  6
CONTINUOUS
 62
   218
 10
95.2429180502891
 20
65.4153611765737
 30
0.0
 11
95.2429180502891
 21
71.7153610692853
 31
0.0
  0
LINE
  5
   5B0
  8
0
  6
CONTINUOUS
 62
   218
 10
144.242911875248
 20
57.3653666542404
 30
0.0
 11
143.892917221785
 21
57.3653666542404
 31
0.0
  0
LINE
  5
   5B1
  8
0
  6
CONTINUOUS
 62
     1
 10
112.39291241765
 20
57.3653666542404
 30
0.0
 11
95.5929180443286
 21
57.3653666542404
 31
0.0
  0
LINE
  5
   5B2
  8
0
  6
CONTINUOUS
 62
   218
 10
144.242911875248
 20
57.71536664828
 30
0.0
 11
143.892917221785
 21
57.71536664828
 31
0.0
  0
LINE
  5
   5B3
  8
0
  6
CONTINUOUS
 62
     1
 10
112.39291241765
 20
57.71536664828
 30
0.0
 11
95.2791591995742
 21
57.71536664828
 31
0.0
  0
LINE
  5
   5B4
  8
0
  6
CONTINUOUS
 62
   218
 10
143.892917221785
 20
57.3653666542404
 30
0.0
 11
143.892917221785
 21
57.71536664828
 31
0.0
  0
LINE
  5
   5B5
  8
0
  6
CONTINUOUS
 62
   218
 10
95.5929180443286
 20
57.3653666542404
 30
0.0
 11
95.5929180443286
 21
57.71536664828
 31
0.0
  0
LINE
  5
   5B6
  8
0
  6
CONTINUOUS
 62
   218
 10
95.2429180448035
 20
57.7153559683909
 30
0.0
 11
95.5929180388351
 21
57.715361308967
 31
0.0
  0
LINE
  5
   5B7
  8
0
  6
CONTINUOUS
 62
   218
 10
144.242911875248
 20
51.065368430459
 30
0.0
 11
143.892917221785
 21
51.065368430459
 31
0.0
  0
LINE
  5
   5B8
  8
0
  6
CONTINUOUS
 62
   218
 10
143.892917221785
 20
50.7153704391353
 30
0.0
 11
143.892917221785
 21
51.0653704331749
 31
0.0
  0
LINE
  5
   5B9
  8
0
  6
CONTINUOUS
 62
   218
 10
144.242911875248
 20
71.7153664098614
 30
0.0
 11
143.892911881208
 21
71.7153664098614
 31
0.0
  0
LINE
  5
   5BA
  8
0
  6
CONTINUOUS
 62
   218
 10
144.242911720447
 20
72.0653664039009
 30
0.0
 11
143.892911881208
 21
72.0653664039009
 31
0.0
  0
LINE
  5
   5BB
  8
0
  6
CONTINUOUS
 62
   218
 10
143.892911881208
 20
71.7153664098614
 30
0.0
 11
143.892911881208
 21
72.0653664039009
 31
0.0
  0
LINE
  5
   5BC
  8
0
  6
CONTINUOUS
 62
   218
 10
95.2429180446405
 20
72.0653557256824
 30
0.0
 11
95.5929180386721
 21
72.0653610662585
 31
0.0
  0
LINE
  5
   5BD
  8
0
  6
CONTINUOUS
 62
   218
 10
144.242911875248
 20
65.0653665231102
 30
0.0
 11
143.892911881208
 21
65.0653665231102
 31
0.0
  0
LINE
  5
   5BE
  8
0
  6
CONTINUOUS
 62
     1
 10
112.39291241765
 20
65.0653665231102
 30
0.0
 11
95.5929180443286
 21
65.0653665231102
 31
0.0
  0
LINE
  5
   5BF
  8
0
  6
CONTINUOUS
 62
   218
 10
144.242911875248
 20
65.4153665171498
 30
0.0
 11
143.892911881208
 21
65.4153665171498
 31
0.0
  0
LINE
  5
   5C0
  8
0
  6
CONTINUOUS
 62
     1
 10
112.39291241765
 20
65.4153665171498
 30
0.0
 11
95.5929180443286
 21
65.4153665171498
 31
0.0
  0
LINE
  5
   5C1
  8
0
  6
CONTINUOUS
 62
   218
 10
143.892911881208
 20
65.0653665231102
 30
0.0
 11
143.892911881208
 21
65.4153665171498
 31
0.0
  0
LINE
  5
   5C2
  8
0
  6
CONTINUOUS
 62
     7
 10
95.5929233849049
 20
50.7153666497282
 30
0.0
 11
95.5929233849049
 21
51.0653666181827
 31
0.0
  0
LINE
  5
   5C3
  8
0
  6
CONTINUOUS
 62
     7
 10
95.5929180443286
 20
65.0653611825341
 30
0.0
 11
95.5929180443286
 21
65.4153665171498
 31
0.0
  0
LINE
  5
   5C4
  8
0
  6
CONTINUOUS
 62
     7
 10
95.5929180443286
 20
71.7153610692853
 30
0.0
 11
95.5929180443286
 21
72.0653664039009
 31
0.0
  0
ARC
  5
   5C5
  8
0
  6
CONTINUOUS
 62
     7
 10
95.4179180473088
 20
84.1403528274762
 30
0.0
 40
0.174999997019768
 50
90.0000062832808
 51
179.999999948034
  0
ARC
  5
   5C6
  8
0
  6
CONTINUOUS
 62
     7
 10
144.067906382852
 20
84.1403582067497
 30
0.0
 40
0.174999997019768
 50
360.000025289036
 51
450.000006283281
  0
ARC
  5
   5C7
  8
0
  6
CONTINUOUS
 62
     7
 10
144.067911852303
 20
47.7403668181536
 30
0.0
 40
0.174999997019768
 50
269.999999948034
 51
360.000008436035
  0
ARC
  5
   5C8
  8
0
  6
CONTINUOUS
 62
     7
 10
95.4179233619595
 20
47.7403668181536
 30
0.0
 40
0.174999997019768
 50
180.000008436035
 51
269.999999948034
  0
LINE
  5
   5C9
  8
0
  6
CONTINUOUS
 62
     1
 10
111.430412434042
 20
51.0653678066679
 30
0.0
 11
111.430412434042
 21
57.3653666542404
 31
0.0
  0
LINE
  5
   5CA
  8
0
  6
CONTINUOUS
 62
     1
 10
128.055412150919
 20
51.0653690542498
 30
0.0
 11
128.055412150919
 21
57.3653666542404
 31
0.0
  0
LINE
  5
   5CB
  8
0
  6
CONTINUOUS
 62
     1
 10
111.430412434042
 20
65.4153665171498
 30
0.0
 11
111.430412434042
 21
71.7153664098614
 31
0.0
  0
LINE
  5
   5CC
  8
0
  6
CONTINUOUS
 62
     1
 10
128.055412150919
 20
65.4153665171498
 30
0.0
 11
128.055412150919
 21
71.7153664098614
 31
0.0
  0
LINE
  5
   5CD
  8
0
  6
CONTINUOUS
 62
     1
 10
108.280412487686
 20
70.1403664366835
 30
0.0
 11
107.755412496626
 21
70.1403664366835
 31
0.0
  0
LINE
  5
   5CE
  8
0
  6
CONTINUOUS
 62
     1
 10
108.280412487686
 20
66.9903664903277
 30
0.0
 11
107.755412496626
 21
66.9903664903277
 31
0.0
  0
LINE
  5
   5CF
  8
0
  6
CONTINUOUS
 62
     1
 10
107.755412496626
 20
66.9903664903277
 30
0.0
 11
107.755412496626
 21
70.1403664366835
 31
0.0
  0
LINE
  5
   5D0
  8
0
  6
CONTINUOUS
 62
     1
 10
108.280412487686
 20
66.9903664903277
 30
0.0
 11
108.280412487686
 21
70.1403664366835
 31
0.0
  0
CIRCLE
  5
   5D1
  8
0
  6
CONTINUOUS
 62
     1
 10
108.017912492156
 20
54.2153667078846
 30
0.0
 40
1.57499997317791
  0
CIRCLE
  5
   5D2
  8
0
  6
CONTINUOUS
 62
     1
 10
108.017912492156
 20
54.2153667078846
 30
0.0
 40
1.04999998211861
  0
LINE
  5
   5D3
  8
0
  6
CONTINUOUS
 62
     2
 10
59.3679027114094
 20
16.9578617347734
 30
0.0
 11
58.5804211244429
 21
16.9578617347734
 31
0.0
  0
LINE
  5
   5D4
  8
0
  6
CONTINUOUS
 62
     2
 10
59.3679027114094
 20
16.5028616757648
 30
0.0
 11
59.3679027114094
 21
16.9578617347734
 31
0.0
  0
LINE
  5
   5D5
  8
0
  6
CONTINUOUS
 62
     2
 10
106.705396564681
 20
15.977862018493
 30
0.0
 11
83.7803969550909
 21
15.977862018493
 31
0.0
  0
LINE
  5
   5D6
  8
0
  6
CONTINUOUS
 62
     2
 10
131.205401488024
 20
15.9778620184921
 30
0.0
 11
108.280401878435
 21
15.9778620184921
 31
0.0
  0
LINE
  5
   5D7
  8
0
  6
CONTINUOUS
 62
     2
 10
155.092895740646
 20
15.9778620184726
 30
0.0
 11
132.780401461202
 21
15.9778620184726
 31
0.0
  0
LINE
  5
   5D8
  8
0
  6
CONTINUOUS
 62
     2
 10
155.617895731706
 20
16.5028620095508
 30
0.0
 11
155.617895731706
 21
16.9578617347734
 31
0.0
  0
LINE
  5
   5D9
  8
0
  6
CONTINUOUS
 62
     2
 10
156.405419458493
 20
16.9578617347734
 30
0.0
 11
155.617895731706
 21
16.9578617347734
 31
0.0
  0
LINE
  5
   5DA
  8
0
  6
CONTINUOUS
 62
     1
 10
86.3179019186677
 20
24.3778565348642
 30
0.0
 11
58.5804211244429
 21
24.3778565348642
 31
0.0
  0
LINE
  5
   5DB
  8
0
  6
CONTINUOUS
 62
     1
 10
100.492902011055
 20
24.3778565348642
 30
0.0
 11
88.7678968701543
 21
24.3778565348642
 31
0.0
  0
LINE
  5
   5DC
  8
0
  6
CONTINUOUS
 62
     1
 10
126.217896232385
 20
24.3778565348642
 30
0.0
 11
102.242896640676
 21
24.3778565348642
 31
0.0
  0
LINE
  5
   5DD
  8
0
  6
CONTINUOUS
 62
     1
 10
137.24289604463
 20
24.3778565348642
 30
0.0
 11
128.667896190661
 21
24.3778565348642
 31
0.0
  0
LINE
  5
   5DE
  8
0
  6
CONTINUOUS
 62
     1
 10
150.717891989083
 20
24.3778465711054
 30
0.0
 11
138.992892188758
 21
24.3778465711054
 31
0.0
  0
LINE
  5
   5DF
  8
0
  6
CONTINUOUS
 62
     1
 10
155.617898021264
 20
24.3778531020691
 30
0.0
 11
153.167892723505
 21
24.3778584426432
 31
0.0
  0
LINE
  5
   5E0
  8
0
  6
CONTINUOUS
 62
     1
 10
155.617890391111
 20
16.9578615332078
 30
0.0
 11
155.617890391111
 21
24.3778549981547
 31
0.0
  0
LINE
  5
   5E1
  8
0
  6
CONTINUOUS
 62
     1
 10
84.7429019454898
 20
25.7778618515985
 30
0.0
 11
83.6054019648613
 21
25.7778618515985
 31
0.0
  0
LINE
  5
   5E2
  8
0
  6
CONTINUOUS
 62
     1
 10
59.3679027114094
 20
16.9578617347734
 30
0.0
 11
59.3679027114094
 21
24.3778551997202
 31
0.0
  0
LINE
  5
   5E3
  8
0
  6
CONTINUOUS
 62
     1
 10
138.992896014828
 20
24.3778618754403
 30
0.0
 11
137.242901385206
 21
24.3778618754403
 31
0.0
  0
LINE
  5
   5E4
  8
0
  6
CONTINUOUS
 62
     1
 10
148.267898842424
 20
22.802856360401
 30
0.0
 11
146.350172740643
 21
22.8028617009754
 31
0.0
  0
LINE
  5
   5E5
  8
0
  6
CONTINUOUS
 62
     1
 10
142.135619741448
 20
22.8028520755576
 30
0.0
 11
140.217893638774
 21
22.802857416132
 31
0.0
  0
LINE
  5
   5E6
  8
0
  6
CONTINUOUS
 62
     1
 10
142.135622096561
 20
18.602861973788
 30
0.0
 11
140.217895993966
 21
18.602861973788
 31
0.0
  0
LINE
  5
   5E7
  8
0
  6
CONTINUOUS
 62
     1
 10
148.267895856875
 20
18.602861973788
 30
0.0
 11
146.350175094856
 21
18.602861973788
 31
0.0
  0
LINE
  5
   5E8
  8
0
  6
CONTINUOUS
 62
     1
 10
153.167895773429
 20
24.3778618754403
 30
0.0
 11
150.717895815152
 21
24.3778618754403
 31
0.0
  0
LINE
  5
   5E9
  8
0
  6
CONTINUOUS
 62
     1
 10
102.2428913001
 20
24.3778618754403
 30
0.0
 11
100.492902011055
 21
24.3778618754403
 31
0.0
  0
LINE
  5
   5EA
  8
0
  6
CONTINUOUS
 62
     1
 10
99.2678996780921
 20
22.8028539629388
 30
0.0
 11
97.3501735754187
 21
22.8028593035132
 31
0.0
  0
LINE
  5
   5EB
  8
0
  6
CONTINUOUS
 62
     1
 10
93.1356205762305
 20
22.8028550186715
 30
0.0
 11
91.2178944735571
 21
22.8028603592459
 31
0.0
  0
LINE
  5
   5EC
  8
0
  6
CONTINUOUS
 62
     1
 10
93.1356229310263
 20
18.602861973788
 30
0.0
 11
91.2178968284311
 21
18.602861973788
 31
0.0
  0
LINE
  5
   5ED
  8
0
  6
CONTINUOUS
 62
     1
 10
99.2678966913404
 20
18.602861973788
 30
0.0
 11
97.3501759293213
 21
18.602861973788
 31
0.0
  0
LINE
  5
   5EE
  8
0
  6
CONTINUOUS
 62
     1
 10
88.7678965363683
 20
24.3778618754403
 30
0.0
 11
86.3179019186677
 21
24.3778618754403
 31
0.0
  0
LINE
  5
   5EF
  8
0
  6
CONTINUOUS
 62
     1
 10
123.767899259812
 20
22.8028551616699
 30
0.0
 11
121.850173157138
 21
22.8028605022443
 31
0.0
  0
LINE
  5
   5F0
  8
0
  6
CONTINUOUS
 62
     1
 10
117.635620158843
 20
22.8028562174026
 30
0.0
 11
115.717894056169
 21
22.802861557977
 31
0.0
  0
LINE
  5
   5F1
  8
0
  6
CONTINUOUS
 62
     1
 10
117.635622513794
 20
18.602861973788
 30
0.0
 11
115.717896411199
 21
18.602861973788
 31
0.0
  0
LINE
  5
   5F2
  8
0
  6
CONTINUOUS
 62
     1
 10
123.767896274108
 20
18.602861973788
 30
0.0
 11
121.850175512089
 21
18.602861973788
 31
0.0
  0
LINE
  5
   5F3
  8
0
  6
CONTINUOUS
 62
     1
 10
128.667896190661
 20
24.3778618754403
 30
0.0
 11
126.217896232385
 21
24.3778618754403
 31
0.0
  0
LINE
  5
   5F4
  8
0
  6
CONTINUOUS
 62
     2
 10
133.217901453751
 20
16.8528620035903
 30
0.0
 11
133.217901453751
 21
18.4278619767682
 31
0.0
  0
LINE
  5
   5F5
  8
0
  6
CONTINUOUS
 62
     2
 10
133.217901453751
 20
16.8528620035903
 30
0.0
 11
132.780401461202
 21
16.8528620035903
 31
0.0
  0
LINE
  5
   5F6
  8
0
  6
CONTINUOUS
 62
     2
 10
132.780401461202
 20
15.9778620184856
 30
0.0
 11
132.780401461202
 21
16.8528620035845
 31
0.0
  0
LINE
  5
   5F7
  8
0
  6
CONTINUOUS
 62
     2
 10
131.205401488024
 20
15.9778620184921
 30
0.0
 11
131.205401488024
 21
16.852862003591
 31
0.0
  0
LINE
  5
   5F8
  8
0
  6
CONTINUOUS
 62
     2
 10
131.205401488024
 20
16.8528620035903
 30
0.0
 11
130.767901495475
 21
16.8528620035903
 31
0.0
  0
LINE
  5
   5F9
  8
0
  6
CONTINUOUS
 62
     2
 10
130.767901495475
 20
16.8528620035903
 30
0.0
 11
130.767901495475
 21
18.4278619767682
 31
0.0
  0
LINE
  5
   5FA
  8
0
  6
CONTINUOUS
 62
     2
 10
133.217901453751
 20
18.4278619767682
 30
0.0
 11
130.767901495475
 21
18.4278619767682
 31
0.0
  0
LINE
  5
   5FB
  8
0
  6
CONTINUOUS
 62
     2
 10
106.267896572131
 20
16.8528620035903
 30
0.0
 11
106.267896572131
 21
18.4278619767682
 31
0.0
  0
LINE
  5
   5FC
  8
0
  6
CONTINUOUS
 62
     2
 10
106.705396564681
 20
16.8528620035903
 30
0.0
 11
106.267896572131
 21
16.8528620035903
 31
0.0
  0
LINE
  5
   5FD
  8
0
  6
CONTINUOUS
 62
     2
 10
106.705396564681
 20
15.9778620184856
 30
0.0
 11
106.705396564681
 21
16.8528620035845
 31
0.0
  0
LINE
  5
   5FE
  8
0
  6
CONTINUOUS
 62
     2
 10
108.280396537858
 20
15.9778620184921
 30
0.0
 11
108.280396537858
 21
16.852862003591
 31
0.0
  0
LINE
  5
   5FF
  8
0
  6
CONTINUOUS
 62
     2
 10
108.717896530408
 20
16.8528620035903
 30
0.0
 11
108.280396537858
 21
16.8528620035903
 31
0.0
  0
LINE
  5
   600
  8
0
  6
CONTINUOUS
 62
     2
 10
108.717896530408
 20
16.8528620035903
 30
0.0
 11
108.717896530408
 21
18.4278619767682
 31
0.0
  0
LINE
  5
   601
  8
0
  6
CONTINUOUS
 62
     2
 10
108.717896530408
 20
18.4278619767682
 30
0.0
 11
106.267896572131
 21
18.4278619767682
 31
0.0
  0
ARC
  5
   602
  8
0
  6
CONTINUOUS
 62
     2
 10
59.8929009869229
 20
16.5028610499945
 30
0.0
 40
0.524998573004765
 50
179.999941123702
 51
270.000103159103
  0
CIRCLE
  5
   603
  8
0
  6
CONTINUOUS
 62
     1
 10
60.7679019124337
 20
17.3778614957102
 30
0.0
 40
0.49000039187499
  0
ARC
  5
   604
  8
0
  6
CONTINUOUS
 62
     1
 10
91.2178906438489
 20
20.7028572851074
 30
0.0
 40
2.09999798521424
 50
90.0001399327154
 51
270.000100332566
  0
ARC
  5
   605
  8
0
  6
CONTINUOUS
 62
     1
 10
95.2428932457895
 20
20.7028940485517
 30
0.0
 40
2.97503256700413
 50
404.899302393594
 51
495.100813987516
  0
ARC
  5
   606
  8
0
  6
CONTINUOUS
 62
     1
 10
99.267898148861
 20
20.7028594180034
 30
0.0
 40
2.09999509708851
 50
269.999747131106
 51
450.000048027357
  0
CIRCLE
  5
   607
  8
0
  6
CONTINUOUS
 62
     1
 10
107.492901121094
 20
21.4028744742835
 30
0.0
 40
1.83749026298616
  0
CIRCLE
  5
   608
  8
0
  6
CONTINUOUS
 62
     1
 10
107.492891465588
 20
21.4028511048288
 30
0.0
 40
0.962507390421093
  0
ARC
  5
   609
  8
0
  6
CONTINUOUS
 62
     1
 10
115.717866366234
 20
20.7028411880645
 30
0.0
 40
2.09996804617799
 50
449.999680793011
 51
630.000858183329
  0
ARC
  5
   60A
  8
0
  6
CONTINUOUS
 62
     1
 10
119.74291229248
 20
20.7028670409523
 30
0.0
 40
2.97499672471136
 50
404.900757179708
 51
495.099359217673
  0
ARC
  5
   60B
  8
0
  6
CONTINUOUS
 62
     1
 10
123.767896984565
 20
20.7028598977627
 30
0.0
 40
2.09999630096849
 50
269.999783457987
 51
450.000092622467
  0
CIRCLE
  5
   60C
  8
0
  6
CONTINUOUS
 62
     1
 10
131.99293583666
 20
21.4028107649347
 30
0.0
 40
1.83755586507084
  0
CIRCLE
  5
   60D
  8
0
  6
CONTINUOUS
 62
     1
 10
131.992881272753
 20
21.402880982032
 30
0.0
 40
0.962478285897051
  0
ARC
  5
   60E
  8
0
  6
CONTINUOUS
 62
     1
 10
140.217883036388
 20
20.7028609306857
 30
0.0
 40
2.09999328114419
 50
90.0003609959681
 51
270.000490903722
  0
ARC
  5
   60F
  8
0
  6
CONTINUOUS
 62
     1
 10
148.267846787843
 20
20.70286856515
 30
0.0
 40
2.10004126020305
 50
270.001034630644
 51
449.998799421533
  0
ARC
  5
   610
  8
0
  6
CONTINUOUS
 62
     1
 10
144.242868952964
 20
20.7028451922471
 30
0.0
 40
2.97500388320602
 50
404.901246442185
 51
495.09901516511
  0
CIRCLE
  5
   611
  8
0
  6
CONTINUOUS
 62
     1
 10
154.217895574228
 20
17.3778593665363
 30
0.0
 40
0.489998730940279
  0
ARC
  5
   612
  8
0
  6
CONTINUOUS
 62
     1
 10
144.242868952964
 20
20.7028451922471
 30
0.0
 40
2.97500388320602
 50
224.900341297451
 51
315.099658598617
  0
ARC
  5
   613
  8
0
  6
CONTINUOUS
 62
     1
 10
119.74291229248
 20
20.7028670409523
 30
0.0
 40
2.97499672471136
 50
224.901072739214
 51
315.098927156855
  0
ARC
  5
   614
  8
0
  6
CONTINUOUS
 62
     1
 10
95.2428932457895
 20
20.7028940485517
 30
0.0
 40
2.97503256700413
 50
224.901119153159
 51
315.09888074291
  0
LINE
  5
   615
  8
0
  6
DASHDOT
 62
     2
 10
99.267898148861
 20
17.5528643387962
 30
0.0
 11
99.267898148861
 21
23.8528544972105
 31
0.0
  0
LINE
  5
   616
  8
0
  6
DASHDOT
 62
     2
 10
102.417893228068
 20
20.7028594180034
 30
0.0
 11
96.1179030696538
 21
20.7028594180034
 31
0.0
  0
LINE
  5
   617
  8
0
  6
DASHDOT
 62
     2
 10
91.2178906438489
 20
17.5528593177745
 30
0.0
 11
91.2178906438489
 21
23.8528552524402
 31
0.0
  0
LINE
  5
   618
  8
0
  6
DASHDOT
 62
     2
 10
94.3678886111817
 20
20.7028572851074
 30
0.0
 11
88.067892676516
 21
20.7028572851074
 31
0.0
  0
LINE
  5
   619
  8
0
  6
DASHDOT
 62
     2
 10
115.717866366234
 20
17.5528731597679
 30
0.0
 11
115.717866366234
 21
23.8528092163611
 31
0.0
  0
LINE
  5
   61A
  8
0
  6
DASHDOT
 62
     2
 10
118.86783439453
 20
20.7028411880645
 30
0.0
 11
112.567898337937
 21
20.7028411880645
 31
0.0
  0
LINE
  5
   61B
  8
0
  6
DASHDOT
 62
     2
 10
119.74291229248
 20
-46.3494198673706
 30
0.0
 11
119.74291229248
 21
98.8837131891915
 31
0.0
  0
LINE
  5
   61C
  8
0
  6
DASHDOT
 62
     2
 10
123.767896984565
 20
17.5528636146756
 30
0.0
 11
123.767896984565
 21
23.8528561808498
 31
0.0
  0
LINE
  5
   61D
  8
0
  6
DASHDOT
 62
     2
 10
126.917893267652
 20
20.7028598977627
 30
0.0
 11
120.617900701478
 21
20.7028598977627
 31
0.0
  0
LINE
  5
   61E
  8
0
  6
DASHDOT
 62
     2
 10
140.217883036388
 20
17.5528676674229
 30
0.0
 11
140.217883036388
 21
23.8528541939485
 31
0.0
  0
LINE
  5
   61F
  8
0
  6
DASHDOT
 62
     2
 10
143.367876299651
 20
20.7028609306857
 30
0.0
 11
137.067889773125
 21
20.7028609306857
 31
0.0
  0
LINE
  5
   620
  8
0
  6
DASHDOT
 62
     2
 10
148.267846787843
 20
17.5528273228284
 30
0.0
 11
148.267846787843
 21
23.8529098074717
 31
0.0
  0
LINE
  5
   621
  8
0
  6
DASHDOT
 62
     2
 10
151.417888030164
 20
20.70286856515
 30
0.0
 11
145.117805545521
 21
20.70286856515
 31
0.0
  0
LINE
  5
   622
  8
0
  6
DASHDOT
 62
     2
 10
154.217895574228
 20
15.8378606534774
 30
0.0
 11
154.217895574228
 21
18.9178580795952
 31
0.0
  0
LINE
  5
   623
  8
0
  6
DASHDOT
 62
     2
 10
60.7679019124337
 20
15.8378611217166
 30
0.0
 11
60.7679019124337
 21
18.9178618697038
 31
0.0
  0
LINE
  5
   624
  8
0
  6
DASHDOT
 62
     2
 10
62.3079022864273
 20
17.3778614957102
 30
0.0
 11
59.2279015384402
 21
17.3778614957102
 31
0.0
  0
ARC
  5
   625
  8
0
  6
CONTINUOUS
 62
     2
 10
155.09288081041
 20
16.5028574394241
 30
0.0
 40
0.525005873581529
 50
270.001088208967
 51
360.000070595423
  0
LINE
  5
   626
  8
0
  6
CONTINUOUS
 62
     1
 10
155.792895728725
 20
25.7778565110224
 30
0.0
 11
155.792895728725
 21
39.602856275584
 31
0.0
  0
LINE
  5
   627
  8
0
  6
CONTINUOUS
 62
     1
 10
59.1929211140121
 20
25.7778618515985
 30
0.0
 11
59.1929211140121
 21
39.427861619138
 31
0.0
  0
LINE
  5
   628
  8
0
  6
CONTINUOUS
 62
     1
 10
132.272912079096
 20
55.5628666849368
 30
0.0
 11
132.115412081778
 21
55.5628666849368
 31
0.0
  0
LINE
  5
   629
  8
0
  6
CONTINUOUS
 62
     1
 10
131.940412084758
 20
52.8678667308324
 30
0.0
 11
131.660412089527
 21
52.8678667308324
 31
0.0
  0
LINE
  5
   62A
  8
0
  6
CONTINUOUS
 62
     1
 10
129.420412127674
 20
53.7778667153352
 30
0.0
 11
129.420412127674
 21
53.952866712355
 31
0.0
  0
LINE
  5
   62B
  8
0
  6
CONTINUOUS
 62
     1
 10
131.240412096679
 20
53.7778667153352
 30
0.0
 11
131.240412096679
 21
53.952866712355
 31
0.0
  0
ARC
  5
   62C
  8
0
  6
CONTINUOUS
 62
     1
 10
130.330412112176
 20
53.952866712355
 30
0.0
 40
0.909999984502793
 50
359.999999948034
 51
539.999999948034
  0
ARC
  5
   62D
  8
0
  6
CONTINUOUS
 62
     1
 10
130.330412112176
 20
53.7778667153352
 30
0.0
 40
0.909999984502792
 50
179.999999948034
 51
359.999999948034
  0
ARC
  5
   62E
  8
0
  6
CONTINUOUS
 62
     1
 10
130.330412112176
 20
53.952866712355
 30
0.0
 40
0.629999989271164
 50
359.999999948034
 51
539.999999948034
  0
ARC
  5
   62F
  8
0
  6
CONTINUOUS
 62
     1
 10
130.330412112176
 20
53.7778667153352
 30
0.0
 40
0.629999989271163
 50
179.999999948034
 51
359.999999948034
  0
LINE
  5
   630
  8
0
  6
CONTINUOUS
 62
     1
 10
129.700412122905
 20
53.7778667153352
 30
0.0
 11
129.700412122905
 21
53.952866712355
 31
0.0
  0
LINE
  5
   631
  8
0
  6
CONTINUOUS
 62
     1
 10
130.960412101448
 20
53.7778667153352
 30
0.0
 11
130.960412101448
 21
53.952866712355
 31
0.0
  0
LINE
  5
   632
  8
0
  6
CONTINUOUS
 62
     1
 10
131.327912095189
 20
54.4428667040103
 30
0.0
 11
131.327912095189
 21
54.722866699242
 31
0.0
  0
LINE
  5
   633
  8
0
  6
CONTINUOUS
 62
     1
 10
131.660412089527
 20
54.4428667040103
 30
0.0
 11
131.327912095189
 21
54.4428667040103
 31
0.0
  0
LINE
  5
   634
  8
0
  6
CONTINUOUS
 62
     1
 10
132.272912079096
 20
54.4428667040103
 30
0.0
 11
132.272912079096
 21
54.722866699242
 31
0.0
  0
LINE
  5
   635
  8
0
  6
CONTINUOUS
 62
     1
 10
131.660412089527
 20
54.722866699242
 30
0.0
 11
131.327912095189
 21
54.722866699242
 31
0.0
  0
LINE
  5
   636
  8
0
  6
CONTINUOUS
 62
     1
 10
131.660412089527
 20
52.8678667308324
 30
0.0
 11
131.660412089527
 21
54.4428667040103
 31
0.0
  0
LINE
  5
   637
  8
0
  6
CONTINUOUS
 62
     1
 10
131.940412084758
 20
52.8678667308324
 30
0.0
 11
131.940412084758
 21
54.4428667040103
 31
0.0
  0
LINE
  5
   638
  8
0
  6
CONTINUOUS
 62
     1
 10
132.272912079096
 20
54.4428667040103
 30
0.0
 11
131.940412084758
 21
54.4428667040103
 31
0.0
  0
LINE
  5
   639
  8
0
  6
CONTINUOUS
 62
     1
 10
132.272912079096
 20
54.722866699242
 30
0.0
 11
131.940412084758
 21
54.722866699242
 31
0.0
  0
LINE
  5
   63A
  8
0
  6
CONTINUOUS
 62
     1
 10
131.660412089527
 20
54.722866699242
 30
0.0
 11
131.660412089527
 21
55.1078666926854
 31
0.0
  0
LINE
  5
   63B
  8
0
  6
CONTINUOUS
 62
     1
 10
131.940412084758
 20
54.722866699242
 30
0.0
 11
131.940412084758
 21
55.1078666926854
 31
0.0
  0
ARC
  5
   63C
  8
0
  6
CONTINUOUS
 62
     1
 10
132.115412081778
 20
55.1078666926854
 30
0.0
 40
0.454999992251396
 50
449.999999948034
 51
539.999999948034
  0
ARC
  5
   63D
  8
0
  6
CONTINUOUS
 62
     1
 10
132.115412081778
 20
55.1078666926854
 30
0.0
 40
0.174999997019768
 50
449.999999948034
 51
539.999999948034
  0
LINE
  5
   63E
  8
0
  6
CONTINUOUS
 62
     1
 10
132.272912079096
 20
55.2828666897052
 30
0.0
 11
132.272912079096
 21
55.5628666849368
 31
0.0
  0
LINE
  5
   63F
  8
0
  6
CONTINUOUS
 62
     1
 10
132.272912079096
 20
55.2828666897052
 30
0.0
 11
132.115412081778
 21
55.2828666897052
 31
0.0
  0
LINE
  5
   640
  8
0
  6
CONTINUOUS
 62
     1
 10
133.392912060022
 20
55.5628666849368
 30
0.0
 11
133.235412062705
 21
55.5628666849368
 31
0.0
  0
LINE
  5
   641
  8
0
  6
CONTINUOUS
 62
     1
 10
133.060412065685
 20
52.8678667308324
 30
0.0
 11
132.780412070453
 21
52.8678667308324
 31
0.0
  0
LINE
  5
   642
  8
0
  6
CONTINUOUS
 62
     1
 10
132.447912076116
 20
54.4428667040103
 30
0.0
 11
132.447912076116
 21
54.722866699242
 31
0.0
  0
LINE
  5
   643
  8
0
  6
CONTINUOUS
 62
     1
 10
132.780412070453
 20
54.4428667040103
 30
0.0
 11
132.447912076116
 21
54.4428667040103
 31
0.0
  0
LINE
  5
   644
  8
0
  6
CONTINUOUS
 62
     1
 10
133.392912060022
 20
54.4428667040103
 30
0.0
 11
133.392912060022
 21
54.722866699242
 31
0.0
  0
LINE
  5
   645
  8
0
  6
CONTINUOUS
 62
     1
 10
132.780412070453
 20
54.722866699242
 30
0.0
 11
132.447912076116
 21
54.722866699242
 31
0.0
  0
LINE
  5
   646
  8
0
  6
CONTINUOUS
 62
     1
 10
132.780412070453
 20
52.8678667308324
 30
0.0
 11
132.780412070453
 21
54.4428667040103
 31
0.0
  0
LINE
  5
   647
  8
0
  6
CONTINUOUS
 62
     1
 10
133.060412065685
 20
52.8678667308324
 30
0.0
 11
133.060412065685
 21
54.4428667040103
 31
0.0
  0
LINE
  5
   648
  8
0
  6
CONTINUOUS
 62
     1
 10
133.392912060022
 20
54.4428667040103
 30
0.0
 11
133.060412065685
 21
54.4428667040103
 31
0.0
  0
LINE
  5
   649
  8
0
  6
CONTINUOUS
 62
     1
 10
133.392912060022
 20
54.722866699242
 30
0.0
 11
133.060412065685
 21
54.722866699242
 31
0.0
  0
LINE
  5
   64A
  8
0
  6
CONTINUOUS
 62
     1
 10
132.780412070453
 20
54.722866699242
 30
0.0
 11
132.780412070453
 21
55.1078666926854
 31
0.0
  0
LINE
  5
   64B
  8
0
  6
CONTINUOUS
 62
     1
 10
133.060412065685
 20
54.722866699242
 30
0.0
 11
133.060412065685
 21
55.1078666926854
 31
0.0
  0
ARC
  5
   64C
  8
0
  6
CONTINUOUS
 62
     1
 10
133.235412062705
 20
55.1078666926854
 30
0.0
 40
0.454999992251396
 50
449.999999948034
 51
539.999999948034
  0
ARC
  5
   64D
  8
0
  6
CONTINUOUS
 62
     1
 10
133.235412062705
 20
55.1078666926854
 30
0.0
 40
0.174999997019768
 50
449.999999948034
 51
539.999999948034
  0
LINE
  5
   64E
  8
0
  6
CONTINUOUS
 62
     1
 10
133.392912060022
 20
55.2828666897052
 30
0.0
 11
133.392912060022
 21
55.5628666849368
 31
0.0
  0
LINE
  5
   64F
  8
0
  6
CONTINUOUS
 62
     1
 10
133.392912060022
 20
55.2828666897052
 30
0.0
 11
133.235412062705
 21
55.2828666897052
 31
0.0
  0
LINE
  5
   650
  8
0
  6
CONTINUOUS
 62
     1
 10
131.800412087142
 20
67.5678664804929
 30
0.0
 11
131.520412091911
 21
67.5678664804929
 31
0.0
  0
ARC
  5
   651
  8
0
  6
CONTINUOUS
 62
     1
 10
130.330412112176
 20
68.6528664620155
 30
0.0
 40
0.909999984502793
 50
359.999999948034
 51
539.999999948034
  0
ARC
  5
   652
  8
0
  6
CONTINUOUS
 62
     1
 10
130.330412112176
 20
68.6528664620155
 30
0.0
 40
0.629999989271164
 50
359.999999948034
 51
539.999999948034
  0
ARC
  5
   653
  8
0
  6
CONTINUOUS
 62
     1
 10
130.330412112176
 20
68.4778664649957
 30
0.0
 40
0.909999984502792
 50
179.999999948034
 51
359.999999948034
  0
ARC
  5
   654
  8
0
  6
CONTINUOUS
 62
     1
 10
130.330412112176
 20
68.4778664649957
 30
0.0
 40
0.629999989271163
 50
179.999999948034
 51
359.999999948034
  0
LINE
  5
   655
  8
0
  6
CONTINUOUS
 62
     1
 10
130.960412101448
 20
68.4778664649957
 30
0.0
 11
130.960412101448
 21
68.6528664620155
 31
0.0
  0
LINE
  5
   656
  8
0
  6
CONTINUOUS
 62
     1
 10
131.240412096679
 20
68.4778664649957
 30
0.0
 11
131.240412096679
 21
68.6528664620155
 31
0.0
  0
LINE
  5
   657
  8
0
  6
CONTINUOUS
 62
     1
 10
129.700412122905
 20
68.4778664649957
 30
0.0
 11
129.700412122905
 21
68.6528664620155
 31
0.0
  0
LINE
  5
   658
  8
0
  6
CONTINUOUS
 62
     1
 10
129.420412127674
 20
68.4778664649957
 30
0.0
 11
129.420412127674
 21
68.6528664620155
 31
0.0
  0
LINE
  5
   659
  8
0
  6
CONTINUOUS
 62
     1
 10
131.520412091911
 20
67.5678664804929
 30
0.0
 11
131.520412091911
 21
69.5628664465183
 31
0.0
  0
LINE
  5
   65A
  8
0
  6
CONTINUOUS
 62
     1
 10
131.800412087142
 20
67.5678664804929
 30
0.0
 11
131.800412087142
 21
68.7928664596313
 31
0.0
  0
LINE
  5
   65B
  8
0
  6
CONTINUOUS
 62
     1
 10
132.780412070453
 20
67.5678664804929
 30
0.0
 11
132.780412070453
 21
68.7928664596313
 31
0.0
  0
LINE
  5
   65C
  8
0
  6
CONTINUOUS
 62
     1
 10
133.060412065685
 20
67.5678664804929
 30
0.0
 11
133.060412065685
 21
68.8628664584392
 31
0.0
  0
LINE
  5
   65D
  8
0
  6
CONTINUOUS
 62
     1
 10
131.800412087142
 20
69.5628664465183
 30
0.0
 11
131.520412091911
 21
69.5628664465183
 31
0.0
  0
ARC
  5
   65E
  8
0
  6
CONTINUOUS
 62
     1
 10
132.290412078798
 20
68.7928664596313
 30
0.0
 40
0.489999991655349
 50
359.999999948034
 51
539.999999948034
  0
LINE
  5
   65F
  8
0
  6
CONTINUOUS
 62
     1
 10
131.800412087142
 20
69.2828664512866
 30
0.0
 11
131.800412087142
 21
69.5628664465183
 31
0.0
  0
ARC
  5
   660
  8
0
  6
CONTINUOUS
 62
     1
 10
132.360412077606
 20
68.8628664584392
 30
0.0
 40
0.699999988079071
 50
359.999999948034
 51
503.13010230219
  0
LINE
  5
   661
  8
0
  6
CONTINUOUS
 62
     1
 10
133.060412065685
 20
67.5678664804929
 30
0.0
 11
132.780412070453
 21
67.5678664804929
 31
0.0
  0
LINE
  5
   662
  8
0
  6
CONTINUOUS
 62
     7
 10
127.092912167311
 20
55.3607215070709
 30
0.0
 11
112.39291241765
 21
55.3607215070709
 31
0.0
  0
LINE
  5
   663
  8
0
  6
CONTINUOUS
 62
     7
 10
127.092912167311
 20
58.2378992052027
 30
0.0
 11
112.39291241765
 21
58.2378992052027
 31
0.0
  0
LINE
  5
   664
  8
0
  6
CONTINUOUS
 62
     7
 10
127.092912167311
 20
52.3372636777233
 30
0.0
 11
112.39291241765
 21
52.3372636777233
 31
0.0
  0
LINE
  5
   665
  8
0
  6
CONTINUOUS
 62
     7
 10
127.092912167311
 20
48.9901808628224
 30
0.0
 11
112.39291241765
 21
48.9901808628224
 31
0.0
  0
LINE
  5
   666
  8
0
  6
CONTINUOUS
 62
     7
 10
127.092912167311
 20
58.2378992052027
 30
0.0
 11
127.092912167311
 21
70.7434776935024
 31
0.0
  0
LINE
  5
   667
  8
0
  6
CONTINUOUS
 62
     7
 10
112.39291241765
 20
58.2378992052027
 30
0.0
 11
112.39291241765
 21
70.7434776935024
 31
0.0
  0
LINE
  5
   668
  8
0
  6
CONTINUOUS
 62
     1
 10
112.39291241765
 20
51.065368430459
 30
0.0
 11
95.5929233849049
 21
51.065368430459
 31
0.0
  0
LINE
  5
   669
  8
0
  6
DASHDOT
 62
     7
 10
144.242911875248
 20
99.365910426075
 30
0.0
 11
144.242911875248
 21
110.951349220854
 31
0.0
  0
LINE
  5
   66A
  8
0
  6
DASHDOT
 62
     7
 10
95.242912709713
 20
100.090000350749
 30
0.0
 11
95.242912709713
 21
112.278847416089
 31
0.0
  0
LINE
  5
   66B
  8
0
  6
CONTINUOUS
 62
     1
 10
93.1429127454758
 20
84.3153555141324
 30
0.0
 11
58.7554211214627
 21
84.3153555141324
 31
0.0
  0
LINE
  5
   66C
  8
0
  6
CONTINUOUS
 62
   218
 10
95.5929180443286
 20
71.7153664098614
 30
0.0
 11
95.2429180502891
 21
71.7153664098614
 31
0.0
  0
LINE
  5
   66D
  8
0
  6
CONTINUOUS
 62
     1
 10
143.892911881208
 20
72.0653664039009
 30
0.0
 11
95.5929180443286
 21
72.0653664039009
 31
0.0
  0
LINE
  5
   66E
  8
0
  6
CONTINUOUS
 62
     1
 10
143.892911881208
 20
71.7153664098614
 30
0.0
 11
95.5929180443286
 21
71.7153664098614
 31
0.0
  0
LINE
  5
   66F
  8
0
  6
CONTINUOUS
 62
     1
 10
143.892911881208
 20
65.4153665171498
 30
0.0
 11
127.092906826735
 21
65.4153665171498
 31
0.0
  0
LINE
  5
   670
  8
0
  6
CONTINUOUS
 62
     1
 10
143.892911881208
 20
65.0653665231102
 30
0.0
 11
127.092906826735
 21
65.0653665231102
 31
0.0
  0
LINE
  5
   671
  8
0
  6
CONTINUOUS
 62
     1
 10
143.892917221785
 20
57.71536664828
 30
0.0
 11
127.092906826735
 21
57.71536664828
 31
0.0
  0
LINE
  5
   672
  8
0
  6
CONTINUOUS
 62
     1
 10
143.892917221785
 20
57.3653666542404
 30
0.0
 11
127.092906826735
 21
57.3653666542404
 31
0.0
  0
LINE
  5
   673
  8
0
  6
CONTINUOUS
 62
     1
 10
143.892917221785
 20
51.065368430459
 30
0.0
 11
127.092912167311
 21
51.065368430459
 31
0.0
  0
LINE
  5
   674
  8
0
  6
CONTINUOUS
 62
   218
 10
95.5929233849049
 20
51.065368430459
 30
0.0
 11
95.2429180502891
 21
51.065368430459
 31
0.0
  0
LINE
  5
   675
  8
0
  6
CONTINUOUS
 62
   218
 10
95.5929180443286
 20
57.3653666542404
 30
0.0
 11
95.2429180502891
 21
57.3653666542404
 31
0.0
  0
LINE
  5
   676
  8
0
  6
CONTINUOUS
 62
   218
 10
95.5929180443286
 20
65.4153665171498
 30
0.0
 11
95.2429180502891
 21
65.4153665171498
 31
0.0
  0
LINE
  5
   677
  8
0
  6
CONTINUOUS
 62
   218
 10
95.5929180443286
 20
65.0653665231102
 30
0.0
 11
95.2429180502891
 21
65.0653665231102
 31
0.0
  0
LINE
  5
   678
  8
0
  6
CONTINUOUS
 62
     1
 10
95.5929180443286
 20
72.0653664039009
 30
0.0
 11
95.2791591995742
 21
72.0653664039009
 31
0.0
  0
LINE
  5
   679
  8
0
  6
CONTINUOUS
 62
     7
 10
95.5929233849049
 20
50.7153666497282
 30
0.0
 11
95.2429233908654
 21
50.7153666497282
 31
0.0
  0
LINE
  5
   67A
  8
0
  6
CONTINUOUS
 62
     7
 10
144.242911875301
 20
50.715366597878
 30
0.0
 11
143.892917221838
 21
50.7153704391353
 31
0.0
  0
LINE
  5
   67B
  8
0
  6
CONTINUOUS
 62
     1
 10
155.792895728514
 20
25.7778565094959
 30
0.0
 11
58.5804211244429
 21
25.7778565094959
 31
0.0
  0
LINE
  5
   67C
  8
0
  6
CONTINUOUS
 62
     7
 10
108.717896530408
 20
107.327871483416
 30
0.0
 11
106.267896572131
 21
107.327871483416
 31
0.0
  0
LINE
  5
   67D
  8
0
  6
CONTINUOUS
 62
     7
 10
106.267896572131
 20
107.327871483416
 30
0.0
 11
106.267896572131
 21
108.902871456593
 31
0.0
  0
LINE
  5
   67E
  8
0
  6
CONTINUOUS
 62
     7
 10
106.705396564681
 20
108.902871456593
 30
0.0
 11
106.267896572131
 21
108.902871456593
 31
0.0
  0
LINE
  5
   67F
  8
0
  6
CONTINUOUS
 62
     7
 10
106.705396564681
 20
108.902871456599
 30
0.0
 11
106.705396564681
 21
109.777871441698
 31
0.0
  0
LINE
  5
   680
  8
0
  6
CONTINUOUS
 62
     7
 10
108.280396537858
 20
108.902871456593
 30
0.0
 11
108.280396537858
 21
109.777871441692
 31
0.0
  0
LINE
  5
   681
  8
0
  6
CONTINUOUS
 62
     7
 10
108.717896530408
 20
108.902871456593
 30
0.0
 11
108.280396537858
 21
108.902871456593
 31
0.0
  0
LINE
  5
   682
  8
0
  6
CONTINUOUS
 62
     7
 10
108.717896530408
 20
107.327871483416
 30
0.0
 11
108.717896530408
 21
108.902871456593
 31
0.0
  0
LINE
  5
   683
  8
0
  6
CONTINUOUS
 62
     7
 10
132.780401461202
 20
108.902871456599
 30
0.0
 11
132.780401461202
 21
109.777871441698
 31
0.0
  0
LINE
  5
   684
  8
0
  6
CONTINUOUS
 62
     7
 10
133.217901453751
 20
108.902871456593
 30
0.0
 11
132.780401461202
 21
108.902871456593
 31
0.0
  0
LINE
  5
   685
  8
0
  6
CONTINUOUS
 62
     7
 10
133.217901453751
 20
107.327871483416
 30
0.0
 11
133.217901453751
 21
108.902871456593
 31
0.0
  0
LINE
  5
   686
  8
0
  6
CONTINUOUS
 62
     7
 10
133.217901453751
 20
107.327871483416
 30
0.0
 11
130.767901495475
 21
107.327871483416
 31
0.0
  0
LINE
  5
   687
  8
0
  6
CONTINUOUS
 62
     7
 10
131.205401488024
 20
108.902871456593
 30
0.0
 11
130.767901495475
 21
108.902871456593
 31
0.0
  0
LINE
  5
   688
  8
0
  6
CONTINUOUS
 62
     7
 10
131.205401488024
 20
108.902871456593
 30
0.0
 11
131.205401488024
 21
109.777871441692
 31
0.0
  0
LINE
  5
   689
  8
0
  6
CONTINUOUS
 62
     7
 10
130.767901495475
 20
107.327871483416
 30
0.0
 11
130.767901495475
 21
108.902871456593
 31
0.0
  0
LINE
  5
   68A
  8
0
  6
CONTINUOUS
 62
     1
 10
143.892917221785
 20
50.7153704391353
 30
0.0
 11
127.092912167311
 21
50.7153704391353
 31
0.0
  0
LINE
  5
   68B
  8
0
  6
CONTINUOUS
 62
     1
 10
112.39291241765
 20
50.7153666497282
 30
0.0
 11
95.5929233849049
 21
50.7153666497282
 31
0.0
  0
LINE
  5
   68C
  8
0
  6
CONTINUOUS
 62
     1
 10
71.3904209062899
 20
25.7778565094959
 30
0.0
 11
71.3904209062899
 21
39.427861619138
 31
0.0
  0
LINE
  5
   68D
  8
0
  6
CONTINUOUS
 62
     1
 10
72.6504208848322
 20
25.7778565094959
 30
0.0
 11
72.6504208848322
 21
39.427861619138
 31
0.0
  0
LINE
  5
   68E
  8
0
  6
CONTINUOUS
 62
     1
 10
73.9104208633746
 20
25.7778565094959
 30
0.0
 11
73.9104208633746
 21
39.427861619138
 31
0.0
  0
LINE
  5
   68F
  8
0
  6
CONTINUOUS
 62
     1
 10
75.1704208419169
 20
25.7778565094959
 30
0.0
 11
75.1704208419169
 21
39.427861619138
 31
0.0
  0
LINE
  5
   690
  8
0
  6
CONTINUOUS
 62
     1
 10
76.4304208204592
 20
25.7778565094959
 30
0.0
 11
76.4304208204592
 21
39.427861619138
 31
0.0
  0
LINE
  5
   691
  8
0
  6
CONTINUOUS
 62
     1
 10
77.6904207990016
 20
25.7778565094959
 30
0.0
 11
77.6904207990016
 21
39.427861619138
 31
0.0
  0
LINE
  5
   692
  8
0
  6
CONTINUOUS
 62
     1
 10
78.9504207775439
 20
25.7778565094959
 30
0.0
 11
78.9504207775439
 21
39.427861619138
 31
0.0
  0
LINE
  5
   693
  8
0
  6
CONTINUOUS
 62
     1
 10
80.2104207560862
 20
25.7778565094959
 30
0.0
 11
80.2104207560862
 21
39.427861619138
 31
0.0
  0
LINE
  5
   694
  8
0
  6
CONTINUOUS
 62
     1
 10
81.4704207346285
 20
25.7778565094959
 30
0.0
 11
81.4704207346285
 21
39.427861619138
 31
0.0
  0
LINE
  5
   695
  8
0
  6
CONTINUOUS
 62
     1
 10
82.7304207131709
 20
25.7778565094959
 30
0.0
 11
82.7304207131709
 21
39.427861619138
 31
0.0
  0
LINE
  5
   696
  8
0
  6
CONTINUOUS
 62
     1
 10
83.9904206917132
 20
25.7778565094959
 30
0.0
 11
83.9904206917132
 21
39.427861619138
 31
0.0
  0
LINE
  5
   697
  8
0
  6
CONTINUOUS
 62
     1
 10
85.2504206702555
 20
25.7778565094959
 30
0.0
 11
85.2504206702555
 21
39.427861619138
 31
0.0
  0
LINE
  5
   698
  8
0
  6
CONTINUOUS
 62
     1
 10
86.5104206487979
 20
25.7778565094959
 30
0.0
 11
86.5104206487979
 21
39.427861619138
 31
0.0
  0
LINE
  5
   699
  8
0
  6
CONTINUOUS
 62
     1
 10
87.7704206273402
 20
25.7778565094959
 30
0.0
 11
87.7704206273402
 21
39.427861619138
 31
0.0
  0
LINE
  5
   69A
  8
0
  6
CONTINUOUS
 62
     1
 10
89.0304206058825
 20
25.7778565094959
 30
0.0
 11
89.0304206058825
 21
39.427861619138
 31
0.0
  0
LINE
  5
   69B
  8
0
  6
CONTINUOUS
 62
     1
 10
90.2904205844249
 20
25.7778565094959
 30
0.0
 11
90.2904205844249
 21
39.427861619138
 31
0.0
  0
LINE
  5
   69C
  8
0
  6
CONTINUOUS
 62
     1
 10
91.5504205629672
 20
25.7778565094959
 30
0.0
 11
91.5504205629672
 21
39.427861619138
 31
0.0
  0
LINE
  5
   69D
  8
0
  6
CONTINUOUS
 62
     1
 10
92.8104205415095
 20
25.7778565094959
 30
0.0
 11
92.8104205415095
 21
39.427861619138
 31
0.0
  0
LINE
  5
   69E
  8
0
  6
CONTINUOUS
 62
     1
 10
94.0704205200519
 20
25.7778565094959
 30
0.0
 11
94.0704205200519
 21
37.7653569744465
 31
0.0
  0
LINE
  5
   69F
  8
0
  6
CONTINUOUS
 62
     1
 10
95.3304204985942
 20
94.1153546796677
 30
0.0
 11
95.3304204985942
 21
101.202860567116
 31
0.0
  0
LINE
  5
   6A0
  8
0
  6
CONTINUOUS
 62
     2
 10
82.205396981913
 20
109.77786593139
 30
0.0
 11
59.7179176804211
 21
109.77786593139
 31
0.0
  0
LINE
  5
   6A1
  8
0
  6
CONTINUOUS
 62
     1
 10
74.768136394166
 20
107.152860635519
 30
0.0
 11
72.850192630167
 21
107.152860635519
 31
0.0
  0
LINE
  5
   6A2
  8
0
  6
CONTINUOUS
 62
     1
 10
74.768136394166
 20
102.952860707045
 30
0.0
 11
72.850192630167
 21
102.952860707045
 31
0.0
  0
LINE
  5
   6A3
  8
0
  6
CONTINUOUS
 62
     1
 10
68.6356521618402
 20
102.952860557252
 30
0.0
 11
66.7180861467875
 21
102.952867089585
 31
0.0
  0
LINE
  5
   6A4
  8
0
  6
CONTINUOUS
 62
     1
 10
66.7180861482919
 20
107.152854253427
 30
0.0
 11
68.6356548502995
 21
107.15286078579
 31
0.0
  0
CIRCLE
  5
   6A5
  8
0
  6
CONTINUOUS
 62
     1
 10
82.9929090495189
 20
104.352935834888
 30
0.0
 40
1.83749996870756
  0
LINE
  5
   6A6
  8
0
  6
DASHDOT
 62
     7
 10
66.7181039817372
 20
102.532738547605
 30
0.0
 11
66.7181039817372
 21
107.573014242209
 31
0.0
  0
ARC
  5
   6A7
  8
0
  6
CONTINUOUS
 62
     1
 10
66.7181039817372
 20
105.052876394907
 30
0.0
 40
2.1001148727515
 50
90.0052836333811
 51
269.995265213079
  0
LINE
  5
   6A8
  8
0
  6
DASHDOT
 62
     7
 10
74.3129902059281
 20
105.052921434836
 30
0.0
 11
67.1728415008322
 21
105.052921434836
 31
0.0
  0
ARC
  5
   6A9
  8
0
  6
CONTINUOUS
 62
     1
 10
70.7429292048203
 20
105.052921434836
 30
0.0
 40
2.97505973521659
 50
224.901380849089
 51
315.098568474349
  0
LINE
  5
   6AA
  8
0
  6
DASHDOT
 62
     7
 10
74.768136394166
 20
102.533049383233
 30
0.0
 11
74.768136394166
 21
107.572703769618
 31
0.0
  0
ARC
  5
   6AB
  8
0
  6
CONTINUOUS
 62
     1
 10
74.768136394166
 20
105.052876576426
 30
0.0
 40
2.09985599432712
 50
269.999999948034
 51
449.999945306521
  0
ARC
  5
   6AC
  8
0
  6
CONTINUOUS
 62
     1
 10
70.7429292048203
 20
105.052921434836
 30
0.0
 40
2.97505973521659
 50
404.897963373026
 51
495.101923170488
  0
LINE
  5
   6AD
  8
0
  6
DASHDOT
 62
     7
 10
70.7429131269455
 20
100.090000350749
 30
0.0
 11
70.7429131269455
 21
112.278847416089
 31
0.0
  0
LINE
  5
   6AE
  8
0
  6
CONTINUOUS
 62
     2
 10
84.2178969476404
 20
107.327871483416
 30
0.0
 11
81.7678969893636
 21
107.327871483416
 31
0.0
  0
LINE
  5
   6AF
  8
0
  6
CONTINUOUS
 62
     2
 10
81.7678969893636
 20
107.327871483416
 30
0.0
 11
81.7678969893636
 21
108.902871456593
 31
0.0
  0
LINE
  5
   6B0
  8
0
  6
CONTINUOUS
 62
     2
 10
82.205396981913
 20
108.902871456593
 30
0.0
 11
81.7678969893636
 21
108.902871456593
 31
0.0
  0
LINE
  5
   6B1
  8
0
  6
CONTINUOUS
 62
     2
 10
82.205396981913
 20
108.902871456599
 30
0.0
 11
82.205396981913
 21
109.777871441698
 31
0.0
  0
LINE
  5
   6B2
  8
0
  6
CONTINUOUS
 62
     2
 10
83.7803969550909
 20
108.902871456593
 30
0.0
 11
83.7803969550909
 21
109.777871441692
 31
0.0
  0
LINE
  5
   6B3
  8
0
  6
CONTINUOUS
 62
     2
 10
84.2178969476404
 20
108.902871456593
 30
0.0
 11
83.7803969550909
 21
108.902871456593
 31
0.0
  0
LINE
  5
   6B4
  8
0
  6
CONTINUOUS
 62
     2
 10
84.2178969476404
 20
107.327871483416
 30
0.0
 11
84.2178969476404
 21
108.902871456593
 31
0.0
  0
LINE
  5
   6B5
  8
0
  6
DASHDOT
 62
     2
 10
82.9929090495189
 20
99.0154359257854
 30
0.0
 11
82.9929090495189
 21
109.690435743991
 31
0.0
  0
LINE
  5
   6B6
  8
0
  6
DASHDOT
 62
     2
 10
88.3304089586218
 20
104.352935834888
 30
0.0
 11
77.655409140416
 21
104.352935834888
 31
0.0
  0
LINE
  5
   6B7
  8
0
  6
DASHDOT
 62
     2
 10
107.492908632286
 20
99.0154359257854
 30
0.0
 11
107.492908632286
 21
109.690435743991
 31
0.0
  0
LINE
  5
   6B8
  8
0
  6
DASHDOT
 62
     2
 10
112.830408541389
 20
104.352935834888
 30
0.0
 11
102.155408723183
 21
104.352935834888
 31
0.0
  0
LINE
  5
   6B9
  8
0
  6
DASHDOT
 62
     2
 10
131.992829184778
 20
99.0153953777027
 30
0.0
 11
131.992829184778
 21
109.690395195909
 31
0.0
  0
LINE
  5
   6BA
  8
0
  6
DASHDOT
 62
     2
 10
137.330329093881
 20
104.352895286806
 30
0.0
 11
126.655329275675
 21
104.352895286806
 31
0.0
  0
LINE
  5
   6BB
  8
0
  6
CONTINUOUS
 62
     2
 10
82.205396981913
 20
15.977862018493
 30
0.0
 11
59.8929027024687
 21
15.977862018493
 31
0.0
  0
LINE
  5
   6BC
  8
0
  6
CONTINUOUS
 62
     1
 10
74.7679000954814
 20
22.8028539629388
 30
0.0
 11
72.850173992808
 21
22.8028593035132
 31
0.0
  0
LINE
  5
   6BD
  8
0
  6
CONTINUOUS
 62
     1
 10
68.6356209945128
 20
22.8028550186715
 30
0.0
 11
66.7178948918394
 21
22.8028603592459
 31
0.0
  0
LINE
  5
   6BE
  8
0
  6
CONTINUOUS
 62
     1
 10
68.6356233482588
 20
18.602861973788
 30
0.0
 11
66.7178972456636
 21
18.602861973788
 31
0.0
  0
LINE
  5
   6BF
  8
0
  6
CONTINUOUS
 62
     1
 10
74.7678971085729
 20
18.602861973788
 30
0.0
 11
72.8501763465538
 21
18.602861973788
 31
0.0
  0
LINE
  5
   6C0
  8
0
  6
CONTINUOUS
 62
     2
 10
81.7678969893636
 20
16.8528620035903
 30
0.0
 11
81.7678969893636
 21
18.4278619767682
 31
0.0
  0
LINE
  5
   6C1
  8
0
  6
CONTINUOUS
 62
     2
 10
82.205396981913
 20
16.8528620035903
 30
0.0
 11
81.7678969893636
 21
16.8528620035903
 31
0.0
  0
LINE
  5
   6C2
  8
0
  6
CONTINUOUS
 62
     2
 10
82.205396981913
 20
15.9778620184856
 30
0.0
 11
82.205396981913
 21
16.8528620035845
 31
0.0
  0
LINE
  5
   6C3
  8
0
  6
CONTINUOUS
 62
     2
 10
83.7803969550909
 20
15.9778620184921
 30
0.0
 11
83.7803969550909
 21
16.852862003591
 31
0.0
  0
LINE
  5
   6C4
  8
0
  6
CONTINUOUS
 62
     2
 10
84.2178969476404
 20
16.8528620035903
 30
0.0
 11
83.7803969550909
 21
16.8528620035903
 31
0.0
  0
LINE
  5
   6C5
  8
0
  6
CONTINUOUS
 62
     2
 10
84.2178969476404
 20
16.8528620035903
 30
0.0
 11
84.2178969476404
 21
18.4278619767682
 31
0.0
  0
LINE
  5
   6C6
  8
0
  6
CONTINUOUS
 62
     2
 10
84.2178969476404
 20
18.4278619767682
 30
0.0
 11
81.7678969893636
 21
18.4278619767682
 31
0.0
  0
ARC
  5
   6C7
  8
0
  6
CONTINUOUS
 62
     1
 10
66.7178910610814
 20
20.7028572851074
 30
0.0
 40
2.09999798521424
 50
90.0001399327154
 51
270.000100332566
  0
ARC
  5
   6C8
  8
0
  6
CONTINUOUS
 62
     1
 10
70.742893663022
 20
20.7028940485517
 30
0.0
 40
2.97503256700413
 50
404.899302393594
 51
495.100813987516
  0
ARC
  5
   6C9
  8
0
  6
CONTINUOUS
 62
     1
 10
74.7678985660935
 20
20.7028594180034
 30
0.0
 40
2.09999509708851
 50
269.999747131106
 51
450.000048027357
  0
CIRCLE
  5
   6CA
  8
0
  6
CONTINUOUS
 62
     1
 10
82.9929015383266
 20
21.4028744742835
 30
0.0
 40
1.83749026298616
  0
CIRCLE
  5
   6CB
  8
0
  6
CONTINUOUS
 62
     1
 10
82.9928918828208
 20
21.4028511048288
 30
0.0
 40
0.962507390421093
  0
ARC
  5
   6CC
  8
0
  6
CONTINUOUS
 62
     1
 10
70.742893663022
 20
20.7028940485517
 30
0.0
 40
2.97503256700413
 50
224.901119153159
 51
315.09888074291
  0
LINE
  5
   6CD
  8
0
  6
DASHDOT
 62
     2
 10
74.7678985660935
 20
17.5528643387962
 30
0.0
 11
74.7678985660935
 21
23.8528544972105
 31
0.0
  0
LINE
  5
   6CE
  8
0
  6
DASHDOT
 62
     2
 10
77.9178936453006
 20
20.7028594180034
 30
0.0
 11
71.6179034868864
 21
20.7028594180034
 31
0.0
  0
LINE
  5
   6CF
  8
0
  6
DASHDOT
 62
     2
 10
66.7178910610814
 20
17.5528593177745
 30
0.0
 11
66.7178910610814
 21
23.8528552524402
 31
0.0
  0
LINE
  5
   6D0
  8
0
  6
DASHDOT
 62
     2
 10
69.8678890284142
 20
20.7028572851074
 30
0.0
 11
63.5678930937486
 21
20.7028572851074
 31
0.0
  0
LINE
  5
   6D1
  8
0
  6
DASHDOT
 62
     2
 10
82.9929015383266
 20
16.065384270902
 30
0.0
 11
82.9929015383266
 21
26.740364677665
 31
0.0
  0
LINE
  5
   6D2
  8
0
  6
DASHDOT
 62
     2
 10
88.3303917417081
 20
21.4028744742835
 30
0.0
 11
77.655411334945
 21
21.4028744742835
 31
0.0
  0
LINE
  5
   6D3
  8
0
  6
DASHDOT
 62
     2
 10
107.492901121094
 20
16.065384270902
 30
0.0
 11
107.492901121094
 21
26.740364677665
 31
0.0
  0
LINE
  5
   6D4
  8
0
  6
DASHDOT
 62
     2
 10
112.830391324476
 20
21.4028744742835
 30
0.0
 11
102.155410917713
 21
21.4028744742835
 31
0.0
  0
LINE
  5
   6D5
  8
0
  6
DASHDOT
 62
     2
 10
131.99293583666
 20
16.0652549594685
 30
0.0
 11
131.99293583666
 21
26.7403665704009
 31
0.0
  0
LINE
  5
   6D6
  8
0
  6
DASHDOT
 62
     2
 10
137.330491642127
 20
21.4028107649347
 30
0.0
 11
126.655380031194
 21
21.4028107649347
 31
0.0
  0
LINE
  5
   6D7
  8
0
  6
CONTINUOUS
 62
     1
 10
60.0504210326518
 20
39.9528615893357
 30
0.0
 11
60.0504210326518
 21
47.5653561191195
 31
0.0
  0
LINE
  5
   6D8
  8
0
  6
CONTINUOUS
 62
     1
 10
59.2454209796036
 20
39.9528615893357
 30
0.0
 11
59.2454209796036
 21
47.5653561191195
 31
0.0
  0
LINE
  5
   6D9
  8
0
  6
CONTINUOUS
 62
     1
 10
65.0904178092326
 20
39.9528615893357
 30
0.0
 11
65.0904178092326
 21
47.5653561191195
 31
0.0
  0
LINE
  5
   6DA
  8
0
  6
CONTINUOUS
 62
     1
 10
63.8304210350359
 20
39.9528615893357
 30
0.0
 11
63.8304210350359
 21
47.5653561191195
 31
0.0
  0
LINE
  5
   6DB
  8
0
  6
CONTINUOUS
 62
     1
 10
62.5704209229792
 20
39.9528615893357
 30
0.0
 11
62.5704209229792
 21
47.5653561191195
 31
0.0
  0
LINE
  5
   6DC
  8
0
  6
CONTINUOUS
 62
     1
 10
61.3104208109225
 20
39.9528615893357
 30
0.0
 11
61.3104208109225
 21
47.5653561191195
 31
0.0
  0
LINE
  5
   6DD
  8
0
  6
CONTINUOUS
 62
     1
 10
70.1304209277476
 20
39.9528615893357
 30
0.0
 11
70.1304209277476
 21
47.5653561191195
 31
0.0
  0
LINE
  5
   6DE
  8
0
  6
CONTINUOUS
 62
     1
 10
68.8704188129748
 20
39.9528615893357
 30
0.0
 11
68.8704188129748
 21
47.5653561191195
 31
0.0
  0
LINE
  5
   6DF
  8
0
  6
CONTINUOUS
 62
     1
 10
67.6104166982021
 20
39.9528615893357
 30
0.0
 11
67.6104166982021
 21
47.5653561191195
 31
0.0
  0
LINE
  5
   6E0
  8
0
  6
CONTINUOUS
 62
     1
 10
66.3504199240054
 20
39.9528615893357
 30
0.0
 11
66.3504199240054
 21
47.5653561191195
 31
0.0
  0
LINE
  5
   6E1
  8
0
  6
CONTINUOUS
 62
     1
 10
71.3904209062899
 20
39.9528615893357
 30
0.0
 11
71.3904209062899
 21
101.202860567116
 31
0.0
  0
LINE
  5
   6E2
  8
0
  6
CONTINUOUS
 62
     1
 10
72.6504208848322
 20
39.9528615893357
 30
0.0
 11
72.6504208848322
 21
101.202860567116
 31
0.0
  0
LINE
  5
   6E3
  8
0
  6
CONTINUOUS
 62
     1
 10
73.9104208633746
 20
39.9528615893357
 30
0.0
 11
73.9104208633746
 21
101.202860567116
 31
0.0
  0
LINE
  5
   6E4
  8
0
  6
CONTINUOUS
 62
     1
 10
75.1704208419169
 20
39.9528615893357
 30
0.0
 11
75.1704208419169
 21
101.202860567116
 31
0.0
  0
LINE
  5
   6E5
  8
0
  6
CONTINUOUS
 62
     1
 10
76.4304208204592
 20
39.9528615893357
 30
0.0
 11
76.4304208204592
 21
101.202860567116
 31
0.0
  0
LINE
  5
   6E6
  8
0
  6
CONTINUOUS
 62
     1
 10
77.6904207990016
 20
39.9528615893357
 30
0.0
 11
77.6904207990016
 21
101.202860567116
 31
0.0
  0
LINE
  5
   6E7
  8
0
  6
CONTINUOUS
 62
     1
 10
78.9504207775439
 20
39.9528615893357
 30
0.0
 11
78.9504207775439
 21
101.202860567116
 31
0.0
  0
LINE
  5
   6E8
  8
0
  6
CONTINUOUS
 62
     1
 10
80.2104207560862
 20
39.9528615893357
 30
0.0
 11
80.2104207560862
 21
101.202860567116
 31
0.0
  0
LINE
  5
   6E9
  8
0
  6
CONTINUOUS
 62
     1
 10
81.4704207346285
 20
39.9528615893357
 30
0.0
 11
81.4704207346285
 21
101.202860567116
 31
0.0
  0
LINE
  5
   6EA
  8
0
  6
CONTINUOUS
 62
     1
 10
82.7304207131709
 20
39.9528615893357
 30
0.0
 11
82.7304207131709
 21
101.202860567116
 31
0.0
  0
LINE
  5
   6EB
  8
0
  6
CONTINUOUS
 62
     1
 10
83.9904206917132
 20
39.9528615893357
 30
0.0
 11
83.9904206917132
 21
101.202860567116
 31
0.0
  0
LINE
  5
   6EC
  8
0
  6
CONTINUOUS
 62
     1
 10
85.2504206702555
 20
39.9528615893357
 30
0.0
 11
85.2504206702555
 21
101.202860567116
 31
0.0
  0
LINE
  5
   6ED
  8
0
  6
CONTINUOUS
 62
     1
 10
86.5104206487979
 20
39.9528615893357
 30
0.0
 11
86.5104206487979
 21
101.202860567116
 31
0.0
  0
LINE
  5
   6EE
  8
0
  6
CONTINUOUS
 62
     1
 10
87.7704206273402
 20
39.9528615893357
 30
0.0
 11
87.7704206273402
 21
101.202860567116
 31
0.0
  0
LINE
  5
   6EF
  8
0
  6
CONTINUOUS
 62
     1
 10
89.0304206058825
 20
39.9528615893357
 30
0.0
 11
89.0304206058825
 21
101.202860567116
 31
0.0
  0
LINE
  5
   6F0
  8
0
  6
CONTINUOUS
 62
     1
 10
90.2904205844249
 20
39.9528615893357
 30
0.0
 11
90.2904205844249
 21
101.202860567116
 31
0.0
  0
LINE
  5
   6F1
  8
0
  6
CONTINUOUS
 62
     1
 10
91.5504205629672
 20
39.9528615893357
 30
0.0
 11
91.5504205629672
 21
101.202860567116
 31
0.0
  0
LINE
  5
   6F2
  8
0
  6
CONTINUOUS
 62
     1
 10
92.8104205415095
 20
39.9528615893357
 30
0.0
 11
92.8104205415095
 21
101.202860567116
 31
0.0
  0
LINE
  5
   6F3
  8
0
  6
CONTINUOUS
 62
     1
 10
94.0704205200519
 20
94.1153546796677
 30
0.0
 11
94.0704205200519
 21
101.202860567116
 31
0.0
  0
LINE
  5
   6F4
  8
0
  6
DASHDOT
 62
     7
 10
159.142389443773
 20
65.9403558270571
 30
0.0
 11
50.3543564910166
 21
65.9403558270571
 31
0.0
  0
LINE
  5
   6F5
  8
0
  6
CONTINUOUS
 62
     1
 10
93.1429127454758
 20
39.9528615893357
 30
0.0
 11
58.5804211244429
 21
39.9528615893357
 31
0.0
  0
LINE
  5
   6F6
  8
0
  6
CONTINUOUS
 62
     1
 10
93.1429127454758
 20
39.6028616161578
 30
0.0
 11
58.9304210976208
 21
39.6028616161578
 31
0.0
  0
LINE
  5
   6F7
  8
0
  6
CONTINUOUS
 62
     1
 10
93.1429127454758
 20
39.427861619138
 30
0.0
 11
59.1929211140121
 21
39.427861619138
 31
0.0
  0
LINE
  5
   6F8
  8
0
  6
CONTINUOUS
 62
     1
 10
93.1429127454758
 20
47.5653561399812
 30
0.0
 11
58.7554211214627
 21
47.5653561399812
 31
0.0
  0
LINE
  5
   6F9
  8
0
  6
DASHDOT
 62
     7
 10
119.742873879098
 20
101.72758038934
 30
0.0
 11
119.742873879098
 21
178.483211849746
 31
0.0
  0
LINE
  5
   6FA
  8
0
  6
DASHDOT
 62
     7
 10
123.068012359459
 20
105.052718869701
 30
0.0
 11
116.417735398737
 21
105.052718869701
 31
0.0
  0
LINE
  5
   6FB
  8
0
  6
CONTINUOUS
 62
     3
 10
146.342911839485
 20
38.2028569669959
 30
0.0
 11
146.342911839485
 21
93.6778546871183
 31
0.0
  0
LINE
  5
   6FC
  8
0
  6
CONTINUOUS
 62
     3
 10
145.905411846936
 20
37.7653569744465
 30
0.0
 11
93.5804127380252
 21
37.7653569744465
 31
0.0
  0
LINE
  5
   6FD
  8
0
  6
CONTINUOUS
 62
     3
 10
93.1429127454758
 20
38.2028569669959
 30
0.0
 11
93.1429127454758
 21
93.6778546871183
 31
0.0
  0
LINE
  5
   6FE
  8
0
  6
CONTINUOUS
 62
     3
 10
145.905411846936
 20
94.1153546796677
 30
0.0
 11
93.5804127380252
 21
94.1153546796677
 31
0.0
  0
LINE
  5
   6FF
  8
0
  6
CONTINUOUS
 62
     3
 10
144.417911872268
 20
47.3903568105337
 30
0.0
 11
144.417911872268
 21
84.4903561787245
 31
0.0
  0
LINE
  5
   700
  8
0
  6
CONTINUOUS
 62
     3
 10
144.417911872268
 20
47.3903568105338
 30
0.0
 11
95.0679127126932
 21
47.3903568105338
 31
0.0
  0
LINE
  5
   701
  8
0
  6
CONTINUOUS
 62
     3
 10
95.0679127126932
 20
47.3903568105337
 30
0.0
 11
95.0679127126932
 21
84.4903561787245
 31
0.0
  0
LINE
  5
   702
  8
0
  6
CONTINUOUS
 62
     3
 10
144.417911872268
 20
84.4903548435805
 30
0.0
 11
95.0679127126932
 21
84.4903548435805
 31
0.0
  0
LINE
  5
   703
  8
0
  6
CONTINUOUS
 62
     3
 10
144.767911866307
 20
44.4153568611977
 30
0.0
 11
144.767911866307
 21
44.7653568552372
 31
0.0
  0
LINE
  5
   704
  8
0
  6
CONTINUOUS
 62
     3
 10
144.417911872268
 20
45.1153568492768
 30
0.0
 11
95.0679127126932
 21
45.1153568492768
 31
0.0
  0
LINE
  5
   705
  8
0
  6
CONTINUOUS
 62
     3
 10
94.7179127186537
 20
44.4153568611977
 30
0.0
 11
94.7179127186537
 21
44.7653568552372
 31
0.0
  0
LINE
  5
   706
  8
0
  6
CONTINUOUS
 62
     3
 10
144.417911872268
 20
44.7653568552372
 30
0.0
 11
95.0679127126932
 21
44.7653568552372
 31
0.0
  0
LINE
  5
   707
  8
0
  6
CONTINUOUS
 62
     3
 10
94.7179127186537
 20
37.7653569744465
 30
0.0
 11
94.7179127186537
 21
44.4153568611977
 31
0.0
  0
LINE
  5
   708
  8
0
  6
CONTINUOUS
 62
     3
 10
94.7179127186537
 20
44.7653555200932
 30
0.0
 11
94.7179127186537
 21
94.1153546796677
 31
0.0
  0
LINE
  5
   709
  8
0
  6
CONTINUOUS
 62
     3
 10
95.0679127126932
 20
37.7653569744465
 30
0.0
 11
95.0679127126932
 21
44.7653568552372
 31
0.0
  0
LINE
  5
   70A
  8
0
  6
CONTINUOUS
 62
     3
 10
95.0679127126932
 20
84.4903548435805
 30
0.0
 11
95.0679127126932
 21
86.7653548048375
 31
0.0
  0
LINE
  5
   70B
  8
0
  6
CONTINUOUS
 62
     3
 10
95.0679127126932
 20
45.1153568492768
 30
0.0
 11
95.0679127126932
 21
47.3903568105337
 31
0.0
  0
LINE
  5
   70C
  8
0
  6
CONTINUOUS
 62
     3
 10
144.767911866307
 20
37.7653569744465
 30
0.0
 11
144.767911866307
 21
44.4153568611977
 31
0.0
  0
LINE
  5
   70D
  8
0
  6
CONTINUOUS
 62
     3
 10
144.767911866307
 20
44.7653568552372
 30
0.0
 11
144.767911866307
 21
94.1153546796677
 31
0.0
  0
LINE
  5
   70E
  8
0
  6
CONTINUOUS
 62
     3
 10
144.417911872268
 20
45.1153568492768
 30
0.0
 11
144.417911872268
 21
47.3903568105337
 31
0.0
  0
LINE
  5
   70F
  8
0
  6
CONTINUOUS
 62
     3
 10
144.417911872268
 20
84.4903548435805
 30
0.0
 11
144.417911872268
 21
86.7653548048375
 31
0.0
  0
LINE
  5
   710
  8
0
  6
CONTINUOUS
 62
     3
 10
144.417911872268
 20
37.7653569744465
 30
0.0
 11
144.417911872268
 21
44.7653568552372
 31
0.0
  0
LINE
  5
   711
  8
0
  6
CONTINUOUS
 62
     3
 10
144.767911866307
 20
87.115354798877
 30
0.0
 11
94.7179127186537
 21
87.115354798877
 31
0.0
  0
LINE
  5
   712
  8
0
  6
CONTINUOUS
 62
     3
 10
144.417911872268
 20
86.7653548048375
 30
0.0
 11
95.0679127126932
 21
86.7653548048375
 31
0.0
  0
ARC
  5
   713
  8
0
  6
CONTINUOUS
 62
     3
 10
93.5804127380252
 20
38.2028569669959
 30
0.0
 40
0.437499992549419
 50
179.999999948034
 51
269.999999948034
  0
ARC
  5
   714
  8
0
  6
CONTINUOUS
 62
     3
 10
145.905411846936
 20
38.2028569669959
 30
0.0
 40
0.437499992549419
 50
269.999999948034
 51
359.999999948034
  0
ARC
  5
   715
  8
0
  6
CONTINUOUS
 62
     3
 10
145.905411846936
 20
93.6778546871183
 30
0.0
 40
0.437499992549419
 50
359.999999948034
 51
449.999999948034
  0
ARC
  5
   716
  8
0
  6
CONTINUOUS
 62
     3
 10
93.5804127380252
 20
93.6778546871183
 30
0.0
 40
0.437499992549419
 50
89.9999999480344
 51
179.999999948034
  0
LINE
  5
   717
  8
0
  6
DOT
 62
     3
 10
94.7179127186537
 20
90.3528561154661
 30
0.0
 11
94.5429130383945
 21
90.3528561154661
 31
0.0
  0
LINE
  5
   718
  8
0
  6
DOT
 62
     3
 10
94.7179127186537
 20
90.8778561065252
 30
0.0
 11
94.5429130383944
 21
90.8778561065252
 31
0.0
  0
LINE
  5
   719
  8
0
  6
CONTINUOUS
 62
     3
 10
144.767911866307
 20
90.3528561155266
 30
0.0
 11
144.592912187569
 21
90.3528561155266
 31
0.0
  0
LINE
  5
   71A
  8
0
  6
CONTINUOUS
 62
     3
 10
144.767911866307
 20
90.8778561065857
 30
0.0
 11
144.592912187569
 21
90.8778561065857
 31
0.0
  0
ARC
  5
   71B
  8
0
  6
DOT
 62
     3
 10
94.5429130381213
 20
90.6153561110119
 30
0.0
 40
0.262499995300459
 50
89.9999999480344
 51
269.999999948034
  0
ARC
  5
   71C
  8
0
  6
CONTINUOUS
 62
     3
 10
94.892913032383
 20
90.6153561109514
 30
0.0
 40
0.262499995533047
 50
269.999999948034
 51
449.999999948034
  0
LINE
  5
   71D
  8
0
  6
CONTINUOUS
 62
     3
 10
94.8929130324344
 20
90.8778561065252
 30
0.0
 11
94.7179127186537
 21
90.8778561065252
 31
0.0
  0
LINE
  5
   71E
  8
0
  6
CONTINUOUS
 62
     3
 10
94.8929130324344
 20
90.3528561154661
 30
0.0
 11
94.7179127186537
 21
90.3528561154661
 31
0.0
  0
ARC
  5
   71F
  8
0
  6
CONTINUOUS
 62
     3
 10
144.592912187636
 20
90.6153561109438
 30
0.0
 40
0.262499995546629
 50
89.9999999519166
 51
269.999999944059
  0
ARC
  5
   720
  8
0
  6
DOT
 62
     3
 10
144.942912181646
 20
90.6153561109485
 30
0.0
 40
0.262499995539838
 50
269.999999950483
 51
449.99999994552
  0
LINE
  5
   721
  8
0
  6
DOT
 62
     3
 10
144.942912181609
 20
90.8778561065857
 30
0.0
 11
144.767911866307
 21
90.8778561065857
 31
0.0
  0
LINE
  5
   722
  8
0
  6
DOT
 62
     3
 10
144.942912181609
 20
90.3528561155266
 30
0.0
 11
144.767911866307
 21
90.3528561155266
 31
0.0
  0
POINT
  5
   723
  8
0
  6
CONTINUOUS
 62
     7
 10
119.74291229248
 20
65.9403558270571
 30
0.0
  0
POINT
  5
   724
  8
0
  6
CONTINUOUS
 62
     7
 10
119.742873879098
 20
109.777860590814
 30
0.0
  0
INSERT
  5
   725
  8
0
  6
CONTINUOUS
 62
     7
  2
*UDIM501
 10
0.0
 20
0.0
 30
0.0
  0
INSERT
  5
   726
  8
0
  6
CONTINUOUS
 62
     7
  2
*UDIM502
 10
0.0
 20
0.0
 30
0.0
  0
TEXT
  5
   727
  8
0
  6
CONTINUOUS
 62
     7
 10
43.0942773003484
 20
64.2466215986683
 30
0.0
 40
2.99999997871263
  1
X
 50
359.999999948034
 41
0.933333333333333
 72
     1
 11
44.194277293896
 21
65.7466215870325
 31
0.0
 73
     2
  0
INSERT
  5
   728
  8
0
  6
CONTINUOUS
 62
     7
  2
*UDIM503
 10
0.0
 20
0.0
 30
0.0
  0
TEXT
  5
   729
  8
0
  6
CONTINUOUS
 62
     7
 10
118.465520411595
 20
180.399472172374
 30
0.0
 40
2.99999997871263
  1
Y
 50
359.999999948034
 41
0.933333333333333
 72
     1
 11
119.565520405142
 21
181.899472160738
 31
0.0
 73
     2
  0
INSERT
  5
   72A
  8
0
  6
CONTINUOUS
 62
     7
  2
*UDIM504
 10
0.0
 20
0.0
 30
0.0
  0
LINE
  5
   72B
  8
0
  6
CONTINUOUS
 62
     1
 10
144.225408357636
 20
25.7778565094959
 30
0.0
 11
144.225408357636
 21
37.7653569744465
 31
0.0
  0
LINE
  5
   72C
  8
0
  6
CONTINUOUS
 62
     1
 10
145.415404064909
 20
25.7778565094959
 30
0.0
 11
145.415404064909
 21
37.7653569744465
 31
0.0
  0
LINE
  5
   72D
  8
0
  6
CONTINUOUS
 62
     1
 10
146.675404043451
 20
25.7778565094959
 30
0.0
 11
146.675404043451
 21
39.427861619138
 31
0.0
  0
LINE
  5
   72E
  8
0
  6
CONTINUOUS
 62
     1
 10
147.935404021994
 20
25.7778565094959
 30
0.0
 11
147.935404021994
 21
39.427861619138
 31
0.0
  0
LINE
  5
   72F
  8
0
  6
CONTINUOUS
 62
     1
 10
149.195404000536
 20
25.7778565094959
 30
0.0
 11
149.195404000536
 21
39.427861619138
 31
0.0
  0
LINE
  5
   730
  8
0
  6
CONTINUOUS
 62
     1
 10
150.455403979078
 20
25.7778565094959
 30
0.0
 11
150.455403979078
 21
39.427861619138
 31
0.0
  0
LINE
  5
   731
  8
0
  6
CONTINUOUS
 62
     1
 10
151.715403957621
 20
25.7778565094959
 30
0.0
 11
151.715403957621
 21
39.427861619138
 31
0.0
  0
LINE
  5
   732
  8
0
  6
CONTINUOUS
 62
     1
 10
152.975403936163
 20
25.7778565094959
 30
0.0
 11
152.975403936163
 21
39.427861619138
 31
0.0
  0
LINE
  5
   733
  8
0
  6
CONTINUOUS
 62
     1
 10
154.235403914705
 20
25.7778565094959
 30
0.0
 11
154.235403914705
 21
39.427861619138
 31
0.0
  0
LINE
  5
   734
  8
0
  6
CONTINUOUS
 62
     1
 10
155.495403893248
 20
25.7778565094959
 30
0.0
 11
155.495403893248
 21
39.427861619138
 31
0.0
  0
LINE
  5
   735
  8
0
  6
DASHDOT
 62
     7
 10
144.242868952964
 20
17.3778413150016
 30
0.0
 11
144.242868952964
 21
24.0278490694927
 31
0.0
  0
LINE
  5
   736
  8
0
  6
DASHDOT
 62
     7
 10
147.56787283021
 20
20.7028451922471
 30
0.0
 11
140.917865075719
 21
20.7028451922471
 31
0.0
  0
LINE
  5
   737
  8
0
  6
DASHDOT
 62
     7
 10
70.742893663022
 20
17.3778614875081
 30
0.0
 11
70.742893663022
 21
24.0279266095954
 31
0.0
  0
LINE
  5
   738
  8
0
  6
DASHDOT
 62
     7
 10
74.0679262240657
 20
20.7028940485517
 30
0.0
 11
67.4178611019784
 21
20.7028940485517
 31
0.0
  0
LINE
  5
   739
  8
0
  6
DASHDOT
 62
     7
 10
95.2428932457895
 20
17.3778614875081
 30
0.0
 11
95.2428932457895
 21
24.0279266095954
 31
0.0
  0
LINE
  5
   73A
  8
0
  6
DASHDOT
 62
     7
 10
98.5679258068332
 20
20.7028940485517
 30
0.0
 11
91.9178606847459
 21
20.7028940485517
 31
0.0
  0
INSERT
  5
   73B
  8
0
  6
CONTINUOUS
 62
     7
  2
*UDIM505
 10
0.0
 20
0.0
 30
0.0
  0
INSERT
  5
   73C
  8
0
  6
CONTINUOUS
 62
     7
  2
*UDIM506
 10
0.0
 20
0.0
 30
0.0
  0
INSERT
  5
   73D
  8
0
  6
CONTINUOUS
 62
     7
  2
*UDIM507
 10
0.0
 20
0.0
 30
0.0
  0
POINT
  5
   73E
  8
0
  6
CONTINUOUS
 62
     7
 10
119.74291229248
 20
15.9778620184921
 30
0.0
  0
INSERT
  5
   73F
  8
0
  6
CONTINUOUS
 62
     7
  2
*UDIM508
 10
0.0
 20
0.0
 30
0.0
  0
INSERT
  5
   740
  8
0
  6
CONTINUOUS
 62
     7
  2
*UDIM509
 10
0.0
 20
0.0
 30
0.0
  0
INSERT
  5
   741
  8
0
  6
CONTINUOUS
 62
     7
  2
*UDIM510
 10
0.0
 20
0.0
 30
0.0
  0
INSERT
  5
   742
  8
0
  6
CONTINUOUS
 62
     7
  2
*UDIM511
 10
0.0
 20
0.0
 30
0.0
  0
INSERT
  5
   743
  8
0
  6
CONTINUOUS
 62
     7
  2
*UDIM512
 10
0.0
 20
0.0
 30
0.0
  0
INSERT
  5
   744
  8
0
  6
CONTINUOUS
 62
     7
  2
*UDIM513
 10
0.0
 20
0.0
 30
0.0
  0
INSERT
  5
   745
  8
0
  6
CONTINUOUS
 62
     7
  2
*UDIM514
 10
0.0
 20
0.0
 30
0.0
  0
INSERT
  5
   746
  8
0
  6
CONTINUOUS
 62
     7
  2
*UDIM515
 10
0.0
 20
0.0
 30
0.0
  0
INSERT
  5
   747
  8
0
  6
CONTINUOUS
 62
     7
  2
*UDIM516
 10
0.0
 20
0.0
 30
0.0
  0
INSERT
  5
   748
  8
0
  6
CONTINUOUS
 62
     7
  2
*UDIM517
 10
0.0
 20
0.0
 30
0.0
  0
INSERT
  5
   749
  8
0
  6
CONTINUOUS
 62
     7
  2
*UDIM518
 10
0.0
 20
0.0
 30
0.0
  0
INSERT
  5
   74A
  8
0
  6
CONTINUOUS
 62
     7
  2
*UDIM519
 10
0.0
 20
0.0
 30
0.0
  0
INSERT
  5
   74B
  8
0
  6
CONTINUOUS
 62
     7
  2
*UDIM520
 10
0.0
 20
0.0
 30
0.0
  0
INSERT
  5
   74C
  8
0
  6
CONTINUOUS
 62
     7
  2
*UDIM521
 10
0.0
 20
0.0
 30
0.0
  0
INSERT
  5
   74D
  8
0
  6
CONTINUOUS
 62
     7
  2
*UDIM522
 10
0.0
 20
0.0
 30
0.0
  0
LINE
  5
   74E
  8
0
  6
CONTINUOUS
 62
    50
 10
83.7632870125707
 20
-5.35991520183418
 30
0.0
 11
88.2431117653813
 21
7.56105320605272
 31
0.0
  0
LINE
  5
   74F
  8
0
  6
CONTINUOUS
 62
    50
 10
88.2431117653813
 20
7.56105320767702
 30
0.0
 11
88.2431151032413
 21
9.41604890356257
 31
0.0
  0
LINE
  5
   750
  8
0
  6
CONTINUOUS
 62
    50
 10
102.243087513361
 20
-24.7971127467972
 30
0.0
 11
102.243087513361
 21
9.41604890200138
 31
0.0
  0
LINE
  5
   751
  8
0
  6
CONTINUOUS
 62
    50
 10
102.243096172806
 20
-24.7971127467972
 30
0.0
 11
71.4431027054754
 21
-24.7971127467972
 31
0.0
  0
LINE
  5
   752
  8
0
  6
CONTINUOUS
 62
    50
 10
71.4431027054754
 20
-24.7971127467972
 30
0.0
 11
71.4431027054754
 21
-15.4487974763106
 31
0.0
  0
LINE
  5
   753
  8
0
  6
CONTINUOUS
 62
    50
 10
73.2008358298383
 20
-12.413246075369
 30
0.0
 11
82.19866110843
 21
-7.24893036741835
 31
0.0
  0
LINE
  5
   754
  8
0
  6
CONTINUOUS
 62
    50
 10
88.2431151032413
 20
9.41604890190801
 30
0.0
 11
88.2431157708134
 21
10.0738797012124
 31
0.0
  0
LINE
  5
   755
  8
0
  6
CONTINUOUS
 62
    50
 10
88.2431157708134
 20
10.0738797010519
 30
0.0
 11
88.2431171059574
 21
10.7082707119583
 31
0.0
  0
LINE
  5
   756
  8
0
  6
CONTINUOUS
 62
    50
 10
88.2431197762454
 20
12.2535770834207
 30
0.0
 11
88.2431204438174
 21
12.5881267908479
 31
0.0
  0
LINE
  5
   757
  8
0
  6
CONTINUOUS
 62
    50
 10
88.2431191086734
 20
11.8178928851711
 30
0.0
 11
88.2431197762454
 21
12.2535770818356
 31
0.0
  0
LINE
  5
   758
  8
0
  6
CONTINUOUS
 62
    50
 10
88.2431171059574
 20
10.7082707113146
 30
0.0
 11
88.2431177735294
 21
11.2965939129337
 31
0.0
  0
LINE
  5
   759
  8
0
  6
CONTINUOUS
 62
    50
 10
88.2431177735294
 20
11.2965939138359
 30
0.0
 11
88.2431297631312
 21
15.9778620188326
 31
0.0
  0
LINE
  5
   75A
  8
0
  6
CONTINUOUS
 62
    50
 10
102.243042562319
 20
11.8178928857564
 30
0.0
 11
102.243042562319
 21
12.2535824230144
 31
0.0
  0
LINE
  5
   75B
  8
0
  6
CONTINUOUS
 62
    50
 10
102.243099510667
 20
11.2965992544973
 30
0.0
 11
102.243099510667
 21
11.8178928857564
 31
0.0
  0
LINE
  5
   75C
  8
0
  6
CONTINUOUS
 62
    50
 10
102.243093502518
 20
9.41604890196918
 30
0.0
 11
102.243099510667
 21
10.073885041953
 31
0.0
  0
LINE
  5
   75D
  8
0
  6
CONTINUOUS
 62
    50
 10
102.243099510667
 20
10.0738850419216
 30
0.0
 11
102.243099510667
 21
10.7082707122704
 31
0.0
  0
LINE
  5
   75E
  8
0
  6
CONTINUOUS
 62
    50
 10
102.243099176881
 20
12.2535824230144
 30
0.0
 11
102.243099176881
 21
15.9778620184921
 31
0.0
  0
LINE
  5
   75F
  8
0
  6
CONTINUOUS
 62
    50
 10
102.243099510667
 20
10.7082707122704
 30
0.0
 11
102.243099510667
 21
11.2965992544973
 31
0.0
  0
LINE
  5
   760
  8
0
  6
CONTINUOUS
 62
    50
 10
77.743094587323
 20
8.76560945995331
 30
0.0
 11
77.743094587323
 21
9.41604356142531
 31
0.0
  0
LINE
  5
   761
  8
0
  6
CONTINUOUS
 62
    50
 10
64.1006431903633
 20
-7.15651688876088
 30
0.0
 11
70.7342124840766
 21
-3.32661820514318
 31
0.0
  0
LINE
  5
   762
  8
0
  6
CONTINUOUS
 62
    50
 10
62.3430948495834
 20
-24.7971127467972
 30
0.0
 11
62.3430948495834
 21
-10.191961628334
 31
0.0
  0
LINE
  5
   763
  8
0
  6
CONTINUOUS
 62
    50
 10
62.3430948495834
 20
-24.7971127467972
 30
0.0
 11
30.8431007266013
 21
-24.7971127467972
 31
0.0
  0
LINE
  5
   764
  8
0
  6
CONTINUOUS
 62
    50
 10
30.8431007266013
 20
-24.7971127467972
 30
0.0
 11
30.8431007266013
 21
-12.1228896350013
 31
0.0
  0
LINE
  5
   765
  8
0
  6
CONTINUOUS
 62
    50
 10
32.5996589242263
 20
-9.08802182779803
 30
0.0
 11
63.7431375503502
 21
8.80288668099816
 31
0.0
  0
LINE
  5
   766
  8
0
  6
CONTINUOUS
 62
    50
 10
63.7431375503502
 20
8.80288668099817
 30
0.0
 11
63.7431375503502
 21
9.41604356142531
 31
0.0
  0
LINE
  5
   767
  8
0
  6
CONTINUOUS
 62
    50
 10
77.743099927899
 20
10.0738797013455
 30
0.0
 11
77.743099927899
 21
10.7082653716943
 31
0.0
  0
LINE
  5
   768
  8
0
  6
CONTINUOUS
 62
    50
 10
77.743094587323
 20
9.41604356134675
 30
0.0
 11
77.743099927899
 21
10.073879701262
 31
0.0
  0
LINE
  5
   769
  8
0
  6
CONTINUOUS
 62
    50
 10
77.743099927899
 20
10.7082653716943
 30
0.0
 11
77.743099927899
 21
11.2965939139212
 31
0.0
  0
LINE
  5
   76A
  8
0
  6
CONTINUOUS
 62
    50
 10
77.743099927899
 20
11.2965939139212
 30
0.0
 11
77.743099927899
 21
11.8178928857564
 31
0.0
  0
LINE
  5
   76B
  8
0
  6
CONTINUOUS
 62
    50
 10
77.743099927899
 20
12.2535770824383
 30
0.0
 11
77.743099927899
 21
12.5881214492997
 31
0.0
  0
LINE
  5
   76C
  8
0
  6
CONTINUOUS
 62
    50
 10
77.743099927899
 20
11.8178928857564
 30
0.0
 11
77.743099927899
 21
15.9778620184921
 31
0.0
  0
LINE
  5
   76D
  8
0
  6
CONTINUOUS
 62
    50
 10
63.7431375503502
 20
10.0738797013455
 30
0.0
 11
63.7431375503502
 21
10.7082653716943
 31
0.0
  0
LINE
  5
   76E
  8
0
  6
CONTINUOUS
 62
    50
 10
63.7431375503502
 20
9.41604356142531
 30
0.0
 11
63.7431375503502
 21
10.0738797013455
 31
0.0
  0
LINE
  5
   76F
  8
0
  6
CONTINUOUS
 62
    50
 10
63.7431375503502
 20
12.2535770824383
 30
0.0
 11
63.7431375503502
 21
12.5881214492997
 31
0.0
  0
LINE
  5
   770
  8
0
  6
CONTINUOUS
 62
    50
 10
63.7431375503502
 20
10.7082653716943
 30
0.0
 11
63.7431375503502
 21
11.2965939139212
 31
0.0
  0
LINE
  5
   771
  8
0
  6
CONTINUOUS
 62
    50
 10
63.7431375503502
 20
11.8178875451804
 30
0.0
 11
63.7431375503502
 21
12.2535770824383
 31
0.0
  0
LINE
  5
   772
  8
0
  6
CONTINUOUS
 62
    50
 10
63.7431375503502
 20
11.2965939139212
 30
0.0
 11
63.7431375503502
 21
15.9778620184921
 31
0.0
  0
LINE
  5
   773
  8
0
  6
CONTINUOUS
 62
    50
 10
131.22273959637
 20
-5.35991520183417
 30
0.0
 11
126.742912173271
 21
7.56105854662882
 31
0.0
  0
LINE
  5
   774
  8
0
  6
CONTINUOUS
 62
    50
 10
126.742912173271
 20
7.56105855366142
 30
0.0
 11
126.742909502983
 21
9.416054249689
 31
0.0
  0
LINE
  5
   775
  8
0
  6
CONTINUOUS
 62
    50
 10
112.74291180109
 20
-24.7971127467972
 30
0.0
 11
112.74291180109
 21
9.41604890200139
 31
0.0
  0
LINE
  5
   776
  8
0
  6
CONTINUOUS
 62
    50
 10
143.542930579185
 20
-24.7971175309808
 30
0.0
 11
112.742937779426
 21
-24.7971175309808
 31
0.0
  0
LINE
  5
   777
  8
0
  6
CONTINUOUS
 62
    50
 10
143.542898887164
 20
-24.7971020656451
 30
0.0
 11
143.542898887164
 21
-15.4487867951584
 31
0.0
  0
LINE
  5
   778
  8
0
  6
CONTINUOUS
 62
    50
 10
141.785192114246
 20
-12.4132353942169
 30
0.0
 11
132.787368170799
 21
-7.24893036741835
 31
0.0
  0
LINE
  5
   779
  8
0
  6
CONTINUOUS
 62
    50
 10
126.742906832695
 20
10.0738850419216
 30
0.0
 11
126.742906832695
 21
10.7082760528465
 31
0.0
  0
LINE
  5
   77A
  8
0
  6
CONTINUOUS
 62
    50
 10
126.742909502983
 20
9.41605424370048
 30
0.0
 11
126.742906832695
 21
10.0738850430545
 31
0.0
  0
LINE
  5
   77B
  8
0
  6
CONTINUOUS
 62
    50
 10
126.742904162407
 20
11.8178982273696
 30
0.0
 11
126.742901492119
 21
12.2535877646319
 31
0.0
  0
LINE
  5
   77C
  8
0
  6
CONTINUOUS
 62
    50
 10
126.742901492119
 20
12.2535877635905
 30
0.0
 11
126.742901492119
 21
12.5881321304518
 31
0.0
  0
LINE
  5
   77D
  8
0
  6
CONTINUOUS
 62
    50
 10
126.742906832695
 20
10.7082760533491
 30
0.0
 11
126.742904162407
 21
11.2965992550079
 31
0.0
  0
LINE
  5
   77E
  8
0
  6
CONTINUOUS
 62
    50
 10
126.742904162407
 20
11.2965992544973
 30
0.0
 11
126.742904162407
 21
15.9778620184921
 31
0.0
  0
LINE
  5
   77F
  8
0
  6
CONTINUOUS
 62
    50
 10
112.742929768562
 20
9.41604890217011
 30
0.0
 11
112.742923092842
 21
10.0738850420942
 31
0.0
  0
LINE
  5
   780
  8
0
  6
CONTINUOUS
 62
    50
 10
112.742923092842
 20
10.0738850419216
 30
0.0
 11
112.742923092842
 21
10.7082707122704
 31
0.0
  0
LINE
  5
   781
  8
0
  6
CONTINUOUS
 62
    50
 10
112.742923092842
 20
10.7082707122704
 30
0.0
 11
112.742923092842
 21
11.2965992544973
 31
0.0
  0
LINE
  5
   782
  8
0
  6
CONTINUOUS
 62
    50
 10
112.742923092842
 20
11.2965992544973
 30
0.0
 11
112.742923092842
 21
11.8178982263325
 31
0.0
  0
LINE
  5
   783
  8
0
  6
CONTINUOUS
 62
    50
 10
112.742923092842
 20
12.2535824230144
 30
0.0
 11
112.742923092842
 21
12.5881267898758
 31
0.0
  0
LINE
  5
   784
  8
0
  6
CONTINUOUS
 62
    50
 10
112.742923092842
 20
11.8178982263325
 30
0.0
 11
112.742923092842
 21
15.9778620184921
 31
0.0
  0
LINE
  5
   785
  8
0
  6
CONTINUOUS
 62
    50
 10
137.242930686474
 20
8.76561480012935
 30
0.0
 11
137.242928016185
 21
9.41605424218715
 31
0.0
  0
LINE
  5
   786
  8
0
  6
CONTINUOUS
 62
    50
 10
150.892933124303
 20
-7.16085358669175
 30
0.0
 11
144.242890512944
 21
-3.32145469577751
 31
0.0
  0
LINE
  5
   787
  8
0
  6
CONTINUOUS
 62
    50
 10
152.642897864867
 20
-24.7971020656451
 30
0.0
 11
152.642897864867
 21
-10.1919509471818
 31
0.0
  0
LINE
  5
   788
  8
0
  6
CONTINUOUS
 62
    50
 10
184.142932558059
 20
-24.7971202729756
 30
0.0
 11
152.642938435077
 21
-24.7971202729756
 31
0.0
  0
LINE
  5
   789
  8
0
  6
CONTINUOUS
 62
    50
 10
184.142885806943
 20
-24.7970913844929
 30
0.0
 11
184.142885806943
 21
-12.1316376544302
 31
0.0
  0
LINE
  5
   78A
  8
0
  6
CONTINUOUS
 62
    50
 10
182.386369019858
 20
-9.08800046549373
 30
0.0
 11
151.242885053158
 21
8.8029027027264
 31
0.0
  0
LINE
  5
   78B
  8
0
  6
CONTINUOUS
 62
    50
 10
151.242885053158
 20
8.80290270272642
 30
0.0
 11
151.242885053158
 21
9.41605424257748
 31
0.0
  0
LINE
  5
   78C
  8
0
  6
CONTINUOUS
 62
    50
 10
137.242922675609
 20
10.0738903824976
 30
0.0
 11
137.242922675609
 21
10.7082760528465
 31
0.0
  0
LINE
  5
   78D
  8
0
  6
CONTINUOUS
 62
    50
 10
137.242928016185
 20
9.41605424257787
 30
0.0
 11
137.242922675609
 21
10.073890382503
 31
0.0
  0
LINE
  5
   78E
  8
0
  6
CONTINUOUS
 62
    50
 10
137.242922675609
 20
10.7082760528465
 30
0.0
 11
137.242922675609
 21
11.2966045950734
 31
0.0
  0
LINE
  5
   78F
  8
0
  6
CONTINUOUS
 62
    50
 10
137.242922675609
 20
11.2966045950734
 30
0.0
 11
137.242922675609
 21
11.8178982263325
 31
0.0
  0
LINE
  5
   790
  8
0
  6
CONTINUOUS
 62
    50
 10
137.242922675609
 20
12.2535877635905
 30
0.0
 11
137.242922675609
 21
12.5881321304518
 31
0.0
  0
LINE
  5
   791
  8
0
  6
CONTINUOUS
 62
    50
 10
137.242922675609
 20
11.8178982263325
 30
0.0
 11
137.242922675609
 21
15.9778620184921
 31
0.0
  0
LINE
  5
   792
  8
0
  6
CONTINUOUS
 62
    50
 10
151.242885053158
 20
10.0738903824976
 30
0.0
 11
151.242885053158
 21
10.7082760528465
 31
0.0
  0
LINE
  5
   793
  8
0
  6
CONTINUOUS
 62
    50
 10
151.242885053158
 20
9.41605424257748
 30
0.0
 11
151.242885053158
 21
10.0738903824976
 31
0.0
  0
LINE
  5
   794
  8
0
  6
CONTINUOUS
 62
    50
 10
151.242885053158
 20
12.2535877635905
 30
0.0
 11
151.242885053158
 21
12.5881321304518
 31
0.0
  0
LINE
  5
   795
  8
0
  6
CONTINUOUS
 62
    50
 10
151.242885053158
 20
10.7082760528465
 30
0.0
 11
151.242885053158
 21
11.2966045950734
 31
0.0
  0
LINE
  5
   796
  8
0
  6
CONTINUOUS
 62
    50
 10
151.242885053158
 20
11.8179035669086
 30
0.0
 11
151.242885053158
 21
12.2535877635905
 31
0.0
  0
LINE
  5
   797
  8
0
  6
CONTINUOUS
 62
    50
 10
151.242885053158
 20
11.2966045950734
 30
0.0
 11
151.242885053158
 21
15.9778620184921
 31
0.0
  0
CIRCLE
  5
   798
  8
0
  6
CONTINUOUS
 62
    50
 10
38.7181954229653
 20
-17.7971271356836
 30
0.0
 40
2.27498569158352
  0
CIRCLE
  5
   799
  8
0
  6
CONTINUOUS
 62
    50
 10
46.5931004583801
 20
-17.7971046436124
 30
0.0
 40
2.27499282484765
  0
CIRCLE
  5
   79A
  8
0
  6
CONTINUOUS
 62
    50
 10
54.4680197455895
 20
-17.7971037609332
 30
0.0
 40
2.27498707987405
  0
CIRCLE
  5
   79B
  8
0
  6
CONTINUOUS
 62
    50
 10
79.3181886881545
 20
-17.7971200893127
 30
0.0
 40
2.27499400335305
  0
CIRCLE
  5
   79C
  8
0
  6
CONTINUOUS
 62
    50
 10
87.193103359748
 20
-17.7971175648444
 30
0.0
 40
2.27499847697113
  0
CIRCLE
  5
   79D
  8
0
  6
CONTINUOUS
 62
    50
 10
95.0680067569002
 20
-17.7971209956679
 30
0.0
 40
2.2750050365559
  0
CIRCLE
  5
   79E
  8
0
  6
CONTINUOUS
 62
    50
 10
119.918029525895
 20
-17.7971097390015
 30
0.0
 40
2.27499487697177
  0
CIRCLE
  5
   79F
  8
0
  6
CONTINUOUS
 62
    50
 10
127.792933517694
 20
-17.7971016968665
 30
0.0
 40
2.2750008721891
  0
CIRCLE
  5
   7A0
  8
0
  6
CONTINUOUS
 62
    50
 10
135.66784259379
 20
-17.7971139786555
 30
0.0
 40
2.27500697844256
  0
CIRCLE
  5
   7A1
  8
0
  6
CONTINUOUS
 62
    50
 10
160.518025169091
 20
-17.7970925927924
 30
0.0
 40
2.27499887216728
  0
CIRCLE
  5
   7A2
  8
0
  6
CONTINUOUS
 62
    50
 10
168.392931405698
 20
-17.7970913600712
 30
0.0
 40
2.27499974501663
  0
CIRCLE
  5
   7A3
  8
0
  6
CONTINUOUS
 62
    50
 10
176.267838329642
 20
-17.7970866547263
 30
0.0
 40
2.27500353399792
  0
LINE
  5
   7A4
  8
0
  6
DASHDOT
 62
     7
 10
176.267838329642
 20
-20.7720901768033
 30
0.0
 11
176.267838329642
 21
-14.8220831326493
 31
0.0
  0
LINE
  5
   7A5
  8
0
  6
DASHDOT
 62
     7
 10
179.242841851719
 20
-17.7970866547263
 30
0.0
 11
173.292834807565
 21
-17.7970866547263
 31
0.0
  0
LINE
  5
   7A6
  8
0
  6
DASHDOT
 62
     7
 10
168.392931405698
 20
-20.7720910931669
 30
0.0
 11
168.392931405698
 21
-14.8220916269755
 31
0.0
  0
LINE
  5
   7A7
  8
0
  6
DASHDOT
 62
     7
 10
171.367931138794
 20
-17.7970913600712
 30
0.0
 11
165.417931672602
 21
-17.7970913600712
 31
0.0
  0
LINE
  5
   7A8
  8
0
  6
DASHDOT
 62
     7
 10
160.518025169091
 20
-20.7720914530388
 30
0.0
 11
160.518025169091
 21
-14.8220937325461
 31
0.0
  0
LINE
  5
   7A9
  8
0
  6
DASHDOT
 62
     7
 10
163.493024029337
 20
-17.7970925927924
 30
0.0
 11
157.543026308845
 21
-17.7970925927924
 31
0.0
  0
LINE
  5
   7AA
  8
0
  6
DASHDOT
 62
     7
 10
135.66784259379
 20
-20.7721209451772
 30
0.0
 11
135.66784259379
 21
-14.8221070121339
 31
0.0
  0
LINE
  5
   7AB
  8
0
  6
DASHDOT
 62
     7
 10
138.642849560312
 20
-17.7971139786555
 30
0.0
 11
132.692835627269
 21
-17.7971139786555
 31
0.0
  0
LINE
  5
   7AC
  8
0
  6
DASHDOT
 62
     7
 10
127.792933517694
 20
-20.7721025571346
 30
0.0
 11
127.792933517694
 21
-14.8221008365983
 31
0.0
  0
LINE
  5
   7AD
  8
0
  6
DASHDOT
 62
     7
 10
130.767934377962
 20
-17.7971016968665
 30
0.0
 11
124.817932657426
 21
-17.7971016968665
 31
0.0
  0
LINE
  5
   7AE
  8
0
  6
DASHDOT
 62
     7
 10
119.918029525895
 20
-20.7721046040524
 30
0.0
 11
119.918029525895
 21
-14.8221148739507
 31
0.0
  0
LINE
  5
   7AF
  8
0
  6
DASHDOT
 62
     7
 10
122.893024390946
 20
-17.7971097390015
 30
0.0
 11
116.943034660844
 21
-17.7971097390015
 31
0.0
  0
LINE
  5
   7B0
  8
0
  6
DASHDOT
 62
     7
 10
95.0680067569002
 20
-20.7721260203029
 30
0.0
 11
95.0680067569002
 21
-14.8221159710329
 31
0.0
  0
LINE
  5
   7B1
  8
0
  6
DASHDOT
 62
     7
 10
98.0430117815352
 20
-17.7971209956679
 30
0.0
 11
92.0930017322652
 21
-17.7971209956679
 31
0.0
  0
LINE
  5
   7B2
  8
0
  6
DASHDOT
 62
     7
 10
87.193103359748
 20
-20.7721160298946
 30
0.0
 11
87.193103359748
 21
-14.8221190997942
 31
0.0
  0
LINE
  5
   7B3
  8
0
  6
DASHDOT
 62
     7
 10
90.1681018247982
 20
-17.7971175648444
 30
0.0
 11
84.2181048946978
 21
-17.7971175648444
 31
0.0
  0
LINE
  5
   7B4
  8
0
  6
DASHDOT
 62
     7
 10
79.3181886881545
 20
-20.7721140807448
 30
0.0
 11
79.3181886881545
 21
-14.8221260978805
 31
0.0
  0
LINE
  5
   7B5
  8
0
  6
DASHDOT
 62
     7
 10
82.2931826795866
 20
-17.7971200893127
 30
0.0
 11
76.3431946967224
 21
-17.7971200893127
 31
0.0
  0
LINE
  5
   7B6
  8
0
  6
DASHDOT
 62
     7
 10
54.4680197455895
 20
-20.7720908288863
 30
0.0
 11
54.4680197455895
 21
-14.8221166929801
 31
0.0
  0
LINE
  5
   7B7
  8
0
  6
DASHDOT
 62
     7
 10
57.4430068135426
 20
-17.7971037609332
 30
0.0
 11
51.4930326776364
 21
-17.7971037609332
 31
0.0
  0
LINE
  5
   7B8
  8
0
  6
DASHDOT
 62
     7
 10
46.5931004583801
 20
-20.7720974565391
 30
0.0
 11
46.5931004583801
 21
-14.8221118306857
 31
0.0
  0
LINE
  5
   7B9
  8
0
  6
DASHDOT
 62
     7
 10
49.5680932713068
 20
-17.7971046436124
 30
0.0
 11
43.6181076454534
 21
-17.7971046436124
 31
0.0
  0
LINE
  5
   7BA
  8
0
  6
DASHDOT
 62
     7
 10
38.7181954229653
 20
-20.7721128153462
 30
0.0
 11
38.7181954229653
 21
-14.822141456021
 31
0.0
  0
LINE
  5
   7BB
  8
0
  6
DASHDOT
 62
     7
 10
41.6931811026279
 20
-17.7971271356836
 30
0.0
 11
35.7432097433027
 21
-17.7971271356836
 31
0.0
  0
ARC
  5
   7BC
  8
0
  6
CONTINUOUS
 62
    50
 10
34.343061682742
 20
-12.1228650719727
 30
0.0
 40
3.49996095622695
 50
119.875956646121
 51
179.999999948034
  0
ARC
  5
   7BD
  8
0
  6
CONTINUOUS
 62
    50
 10
65.8431253076773
 20
-10.1919689602783
 30
0.0
 40
3.50003045810159
 50
119.857706864811
 51
179.999999948034
  0
ARC
  5
   7BE
  8
0
  6
CONTINUOUS
 62
    50
 10
63.7431245288594
 20
8.80289347823035
 30
0.0
 40
14.0000130169467
 50
299.95786273393
 51
360.130029147156
  0
ARC
  5
   7BF
  8
0
  6
CONTINUOUS
 62
    50
 10
74.9430870896509
 20
-15.4487775341996
 30
0.0
 40
3.49998438423225
 50
119.853735536458
 51
179.999999948034
  0
ARC
  5
   7C0
  8
0
  6
CONTINUOUS
 62
    50
 10
80.4564163607735
 20
-4.21339225959128
 30
0.0
 40
3.49998690923364
 50
299.853735536458
 51
340.878073839679
  0
ARC
  5
   7C1
  8
0
  6
CONTINUOUS
 62
    50
 10
134.529613455117
 20
-4.21338714053338
 30
0.0
 40
3.49999161613542
 50
199.121929297037
 51
240.146311850348
  0
ARC
  5
   7C2
  8
0
  6
CONTINUOUS
 62
    50
 10
140.042967394887
 20
-15.4487604408536
 30
0.0
 40
3.49996051410946
 50
360.000016314217
 51
420.146311850348
  0
ARC
  5
   7C3
  8
0
  6
CONTINUOUS
 62
    50
 10
149.142923365735
 20
-10.1919480996323
 30
0.0
 40
3.50000972876675
 50
360.000020899031
 51
420.000032263154
  0
ARC
  5
   7C4
  8
0
  6
CONTINUOUS
 62
    50
 10
151.242851977746
 20
8.80287622806872
 30
0.0
 40
13.9999586509132
 50
179.882680683266
 51
240.000032263154
  0
ARC
  5
   7C5
  8
0
  6
CONTINUOUS
 62
    50
 10
180.642936391546
 20
-12.1228736418849
 30
0.0
 40
3.50000180220315
 50
359.856531034712
 51
420.128943698257
  0
POINT
  5
   7C6
  8
0
  6
CONTINUOUS
 62
     7
 10
119.74291229248
 20
15.9778620184921
 30
0.0
  0
LINE
  5
   7C7
  8
0
  6
CONTINUOUS
 62
    50
 10
88.2430733519984
 20
118.194669403253
 30
0.0
 11
83.7632485991878
 21
131.11563781114
 31
0.0
  0
LINE
  5
   7C8
  8
0
  6
CONTINUOUS
 62
    50
 10
88.2430766898584
 20
116.339673705743
 30
0.0
 11
88.2430733519984
 21
118.194669401629
 31
0.0
  0
LINE
  5
   7C9
  8
0
  6
CONTINUOUS
 62
    50
 10
102.243049099978
 20
116.339673707304
 30
0.0
 11
102.243049099978
 21
150.552835356103
 31
0.0
  0
LINE
  5
   7CA
  8
0
  6
CONTINUOUS
 62
    50
 10
102.243057759424
 20
150.552835356103
 30
0.0
 11
71.4430642920926
 21
150.552835356103
 31
0.0
  0
LINE
  5
   7CB
  8
0
  6
CONTINUOUS
 62
    50
 10
71.4430642920926
 20
141.204520085616
 30
0.0
 11
71.4430642920926
 21
150.552835356103
 31
0.0
  0
LINE
  5
   7CC
  8
0
  6
CONTINUOUS
 62
    50
 10
82.1986226950471
 20
133.004652976724
 30
0.0
 11
73.2007974164554
 21
138.168968684675
 31
0.0
  0
LINE
  5
   7CD
  8
0
  6
CONTINUOUS
 62
    50
 10
88.2430773574305
 20
115.681842908093
 30
0.0
 11
88.2430766898584
 21
116.339673707398
 31
0.0
  0
LINE
  5
   7CE
  8
0
  6
CONTINUOUS
 62
    50
 10
88.2430786925745
 20
115.047451897347
 30
0.0
 11
88.2430773574305
 21
115.681842908254
 31
0.0
  0
LINE
  5
   7CF
  8
0
  6
CONTINUOUS
 62
    50
 10
88.2430820304345
 20
113.167595818458
 30
0.0
 11
88.2430813628625
 21
113.502145525885
 31
0.0
  0
LINE
  5
   7D0
  8
0
  6
CONTINUOUS
 62
    50
 10
88.2430813628625
 20
113.50214552747
 30
0.0
 11
88.2430806952905
 21
113.937829724135
 31
0.0
  0
LINE
  5
   7D1
  8
0
  6
CONTINUOUS
 62
    50
 10
88.2430793601465
 20
114.459128696372
 30
0.0
 11
88.2430786925745
 21
115.047451897991
 31
0.0
  0
LINE
  5
   7D2
  8
0
  6
CONTINUOUS
 62
    50
 10
88.2430913497483
 20
109.777860590473
 30
0.0
 11
88.2430793601465
 21
114.45912869547
 31
0.0
  0
LINE
  5
   7D3
  8
0
  6
CONTINUOUS
 62
    50
 10
102.243004148936
 20
113.502140186291
 30
0.0
 11
102.243004148936
 21
113.937829723549
 31
0.0
  0
LINE
  5
   7D4
  8
0
  6
CONTINUOUS
 62
    50
 10
102.243061097284
 20
113.937829723549
 30
0.0
 11
102.243061097284
 21
114.459123354808
 31
0.0
  0
LINE
  5
   7D5
  8
0
  6
CONTINUOUS
 62
    50
 10
102.243061097284
 20
115.681837567353
 30
0.0
 11
102.243055089136
 21
116.339673707337
 31
0.0
  0
LINE
  5
   7D6
  8
0
  6
CONTINUOUS
 62
    50
 10
102.243061097284
 20
115.047451897035
 30
0.0
 11
102.243061097284
 21
115.681837567384
 31
0.0
  0
LINE
  5
   7D7
  8
0
  6
CONTINUOUS
 62
    50
 10
102.243060763498
 20
109.777860590814
 30
0.0
 11
102.243060763498
 21
113.502140186291
 31
0.0
  0
LINE
  5
   7D8
  8
0
  6
CONTINUOUS
 62
    50
 10
102.243061097284
 20
114.459123354808
 30
0.0
 11
102.243061097284
 21
115.047451897035
 31
0.0
  0
LINE
  5
   7D9
  8
0
  6
CONTINUOUS
 62
    50
 10
77.7430561739401
 20
116.33967904788
 30
0.0
 11
77.7430561739401
 21
116.990113149352
 31
0.0
  0
LINE
  5
   7DA
  8
0
  6
CONTINUOUS
 62
    50
 10
70.7341740706937
 20
129.082340814449
 30
0.0
 11
64.1006047769805
 21
132.912239498067
 31
0.0
  0
LINE
  5
   7DB
  8
0
  6
CONTINUOUS
 62
    50
 10
62.3430564362005
 20
135.94768423764
 30
0.0
 11
62.3430564362005
 21
150.552835356103
 31
0.0
  0
LINE
  5
   7DC
  8
0
  6
CONTINUOUS
 62
    50
 10
62.3430564362005
 20
150.552835356103
 30
0.0
 11
30.8430623132184
 21
150.552835356103
 31
0.0
  0
LINE
  5
   7DD
  8
0
  6
CONTINUOUS
 62
    50
 10
30.8430623132184
 20
137.878612244307
 30
0.0
 11
30.8430623132184
 21
150.552835356103
 31
0.0
  0
LINE
  5
   7DE
  8
0
  6
CONTINUOUS
 62
    50
 10
63.7430991369673
 20
116.952835928308
 30
0.0
 11
32.5996205108435
 21
134.843744437104
 31
0.0
  0
LINE
  5
   7DF
  8
0
  6
CONTINUOUS
 62
    50
 10
63.7430991369673
 20
116.33967904788
 30
0.0
 11
63.7430991369673
 21
116.952835928308
 31
0.0
  0
LINE
  5
   7E0
  8
0
  6
CONTINUOUS
 62
    50
 10
77.7430615145162
 20
115.047457237611
 30
0.0
 11
77.7430615145162
 21
115.68184290796
 31
0.0
  0
LINE
  5
   7E1
  8
0
  6
CONTINUOUS
 62
    50
 10
77.7430615145162
 20
115.681842908044
 30
0.0
 11
77.7430561739401
 21
116.339679047959
 31
0.0
  0
LINE
  5
   7E2
  8
0
  6
CONTINUOUS
 62
    50
 10
77.7430615145162
 20
114.459128695384
 30
0.0
 11
77.7430615145162
 21
115.047457237611
 31
0.0
  0
LINE
  5
   7E3
  8
0
  6
CONTINUOUS
 62
    50
 10
77.7430615145162
 20
113.937829723549
 30
0.0
 11
77.7430615145162
 21
114.459128695384
 31
0.0
  0
LINE
  5
   7E4
  8
0
  6
CONTINUOUS
 62
    50
 10
77.7430615145162
 20
113.167601160006
 30
0.0
 11
77.7430615145162
 21
113.502145526867
 31
0.0
  0
LINE
  5
   7E5
  8
0
  6
CONTINUOUS
 62
    50
 10
77.7430615145162
 20
109.777860590814
 30
0.0
 11
77.7430615145162
 21
113.937829723549
 31
0.0
  0
LINE
  5
   7E6
  8
0
  6
CONTINUOUS
 62
    50
 10
63.7430991369673
 20
115.047457237611
 30
0.0
 11
63.7430991369673
 21
115.68184290796
 31
0.0
  0
LINE
  5
   7E7
  8
0
  6
CONTINUOUS
 62
    50
 10
63.7430991369673
 20
115.68184290796
 30
0.0
 11
63.7430991369673
 21
116.33967904788
 31
0.0
  0
LINE
  5
   7E8
  8
0
  6
CONTINUOUS
 62
    50
 10
63.7430991369673
 20
113.167601160006
 30
0.0
 11
63.7430991369673
 21
113.502145526867
 31
0.0
  0
LINE
  5
   7E9
  8
0
  6
CONTINUOUS
 62
    50
 10
63.7430991369673
 20
114.459128695384
 30
0.0
 11
63.7430991369673
 21
115.047457237611
 31
0.0
  0
LINE
  5
   7EA
  8
0
  6
CONTINUOUS
 62
    50
 10
63.7430991369673
 20
113.502145526867
 30
0.0
 11
63.7430991369673
 21
113.937835064125
 31
0.0
  0
LINE
  5
   7EB
  8
0
  6
CONTINUOUS
 62
    50
 10
63.7430991369673
 20
109.777860590814
 30
0.0
 11
63.7430991369673
 21
114.459128695384
 31
0.0
  0
LINE
  5
   7EC
  8
0
  6
CONTINUOUS
 62
    50
 10
126.742873759888
 20
118.194664062677
 30
0.0
 11
131.222701182987
 21
131.11563781114
 31
0.0
  0
LINE
  5
   7ED
  8
0
  6
CONTINUOUS
 62
    50
 10
126.7428710896
 20
116.339668359617
 30
0.0
 11
126.742873759888
 21
118.194664055644
 31
0.0
  0
LINE
  5
   7EE
  8
0
  6
CONTINUOUS
 62
    50
 10
112.742873387707
 20
116.339673707304
 30
0.0
 11
112.742873387707
 21
150.552835356103
 31
0.0
  0
LINE
  5
   7EF
  8
0
  6
CONTINUOUS
 62
    50
 10
143.542892165802
 20
150.552840140287
 30
0.0
 11
112.742899366043
 21
150.552840140287
 31
0.0
  0
LINE
  5
   7F0
  8
0
  6
CONTINUOUS
 62
    50
 10
143.542860473781
 20
141.204509404464
 30
0.0
 11
143.542860473781
 21
150.552824674951
 31
0.0
  0
LINE
  5
   7F1
  8
0
  6
CONTINUOUS
 62
    50
 10
132.787329757416
 20
133.004652976724
 30
0.0
 11
141.785153700863
 21
138.168958003523
 31
0.0
  0
LINE
  5
   7F2
  8
0
  6
CONTINUOUS
 62
    50
 10
126.742868419312
 20
115.047446556459
 30
0.0
 11
126.742868419312
 21
115.681837567384
 31
0.0
  0
LINE
  5
   7F3
  8
0
  6
CONTINUOUS
 62
    50
 10
126.742868419312
 20
115.681837566251
 30
0.0
 11
126.7428710896
 21
116.339668365605
 31
0.0
  0
LINE
  5
   7F4
  8
0
  6
CONTINUOUS
 62
    50
 10
126.742863078736
 20
113.502134844674
 30
0.0
 11
126.742865749024
 21
113.937824381936
 31
0.0
  0
LINE
  5
   7F5
  8
0
  6
CONTINUOUS
 62
    50
 10
126.742863078736
 20
113.167590478854
 30
0.0
 11
126.742863078736
 21
113.502134845715
 31
0.0
  0
LINE
  5
   7F6
  8
0
  6
CONTINUOUS
 62
    50
 10
126.742865749024
 20
114.459123354298
 30
0.0
 11
126.742868419312
 21
115.047446555957
 31
0.0
  0
LINE
  5
   7F7
  8
0
  6
CONTINUOUS
 62
    50
 10
126.742865749024
 20
109.777860590814
 30
0.0
 11
126.742865749024
 21
114.459123354808
 31
0.0
  0
LINE
  5
   7F8
  8
0
  6
CONTINUOUS
 62
    50
 10
112.742884679459
 20
115.681837567211
 30
0.0
 11
112.742891355179
 21
116.339673707136
 31
0.0
  0
LINE
  5
   7F9
  8
0
  6
CONTINUOUS
 62
    50
 10
112.742884679459
 20
115.047451897035
 30
0.0
 11
112.742884679459
 21
115.681837567384
 31
0.0
  0
LINE
  5
   7FA
  8
0
  6
CONTINUOUS
 62
    50
 10
112.742884679459
 20
114.459123354808
 30
0.0
 11
112.742884679459
 21
115.047451897035
 31
0.0
  0
LINE
  5
   7FB
  8
0
  6
CONTINUOUS
 62
    50
 10
112.742884679459
 20
113.937824382973
 30
0.0
 11
112.742884679459
 21
114.459123354808
 31
0.0
  0
LINE
  5
   7FC
  8
0
  6
CONTINUOUS
 62
    50
 10
112.742884679459
 20
113.16759581943
 30
0.0
 11
112.742884679459
 21
113.502140186291
 31
0.0
  0
LINE
  5
   7FD
  8
0
  6
CONTINUOUS
 62
    50
 10
112.742884679459
 20
109.777860590814
 30
0.0
 11
112.742884679459
 21
113.937824382973
 31
0.0
  0
LINE
  5
   7FE
  8
0
  6
CONTINUOUS
 62
    50
 10
137.242889602803
 20
116.339668367119
 30
0.0
 11
137.242892273091
 21
116.990107809176
 31
0.0
  0
LINE
  5
   7FF
  8
0
  6
CONTINUOUS
 62
    50
 10
144.242852099561
 20
129.077177305083
 30
0.0
 11
150.892894710921
 21
132.916576195997
 31
0.0
  0
LINE
  5
   800
  8
0
  6
CONTINUOUS
 62
    50
 10
152.642859451485
 20
135.947673556488
 30
0.0
 11
152.642859451485
 21
150.552824674951
 31
0.0
  0
LINE
  5
   801
  8
0
  6
CONTINUOUS
 62
    50
 10
184.142894144676
 20
150.552842882281
 30
0.0
 11
152.642900021694
 21
150.552842882281
 31
0.0
  0
LINE
  5
   802
  8
0
  6
CONTINUOUS
 62
    50
 10
184.142847393561
 20
137.887360263736
 30
0.0
 11
184.142847393561
 21
150.552813993799
 31
0.0
  0
LINE
  5
   803
  8
0
  6
CONTINUOUS
 62
    50
 10
151.242846639775
 20
116.952819906579
 30
0.0
 11
182.386330606475
 21
134.843723074799
 31
0.0
  0
LINE
  5
   804
  8
0
  6
CONTINUOUS
 62
    50
 10
151.242846639775
 20
116.339668366728
 30
0.0
 11
151.242846639775
 21
116.952819906579
 31
0.0
  0
LINE
  5
   805
  8
0
  6
CONTINUOUS
 62
    50
 10
137.242884262227
 20
115.047446556459
 30
0.0
 11
137.242884262227
 21
115.681832226808
 31
0.0
  0
LINE
  5
   806
  8
0
  6
CONTINUOUS
 62
    50
 10
137.242884262227
 20
115.681832226803
 30
0.0
 11
137.242889602803
 21
116.339668366728
 31
0.0
  0
LINE
  5
   807
  8
0
  6
CONTINUOUS
 62
    50
 10
137.242884262227
 20
114.459118014232
 30
0.0
 11
137.242884262227
 21
115.047446556459
 31
0.0
  0
LINE
  5
   808
  8
0
  6
CONTINUOUS
 62
    50
 10
137.242884262227
 20
113.937824382973
 30
0.0
 11
137.242884262227
 21
114.459118014232
 31
0.0
  0
LINE
  5
   809
  8
0
  6
CONTINUOUS
 62
    50
 10
137.242884262227
 20
113.167590478854
 30
0.0
 11
137.242884262227
 21
113.502134845715
 31
0.0
  0
LINE
  5
   80A
  8
0
  6
CONTINUOUS
 62
    50
 10
137.242884262227
 20
109.777860590814
 30
0.0
 11
137.242884262227
 21
113.937824382973
 31
0.0
  0
LINE
  5
   80B
  8
0
  6
CONTINUOUS
 62
    50
 10
151.242846639775
 20
115.047446556459
 30
0.0
 11
151.242846639775
 21
115.681832226808
 31
0.0
  0
LINE
  5
   80C
  8
0
  6
CONTINUOUS
 62
    50
 10
151.242846639775
 20
115.681832226808
 30
0.0
 11
151.242846639775
 21
116.339668366728
 31
0.0
  0
LINE
  5
   80D
  8
0
  6
CONTINUOUS
 62
    50
 10
151.242846639775
 20
113.167590478854
 30
0.0
 11
151.242846639775
 21
113.502134845715
 31
0.0
  0
LINE
  5
   80E
  8
0
  6
CONTINUOUS
 62
    50
 10
151.242846639775
 20
114.459118014232
 30
0.0
 11
151.242846639775
 21
115.047446556459
 31
0.0
  0
LINE
  5
   80F
  8
0
  6
CONTINUOUS
 62
    50
 10
151.242846639775
 20
113.502134845715
 30
0.0
 11
151.242846639775
 21
113.937819042397
 31
0.0
  0
LINE
  5
   810
  8
0
  6
CONTINUOUS
 62
    50
 10
151.242846639775
 20
109.777860590814
 30
0.0
 11
151.242846639775
 21
114.459118014232
 31
0.0
  0
CIRCLE
  5
   811
  8
0
  6
CONTINUOUS
 62
    50
 10
38.7181570095824
 20
143.552849744989
 30
0.0
 40
2.27498569158352
  0
CIRCLE
  5
   812
  8
0
  6
CONTINUOUS
 62
    50
 10
46.5930620449972
 20
143.552827252918
 30
0.0
 40
2.27499282484765
  0
CIRCLE
  5
   813
  8
0
  6
CONTINUOUS
 62
    50
 10
54.4679813322066
 20
143.552826370239
 30
0.0
 40
2.27498707987405
  0
CIRCLE
  5
   814
  8
0
  6
CONTINUOUS
 62
    50
 10
79.3181502747716
 20
143.552842698618
 30
0.0
 40
2.27499400335305
  0
CIRCLE
  5
   815
  8
0
  6
CONTINUOUS
 62
    50
 10
87.1930649463651
 20
143.55284017415
 30
0.0
 40
2.27499847697113
  0
CIRCLE
  5
   816
  8
0
  6
CONTINUOUS
 62
    50
 10
95.0679683435173
 20
143.552843604974
 30
0.0
 40
2.2750050365559
  0
CIRCLE
  5
   817
  8
0
  6
CONTINUOUS
 62
    50
 10
119.917991112512
 20
143.552832348307
 30
0.0
 40
2.27499487697177
  0
CIRCLE
  5
   818
  8
0
  6
CONTINUOUS
 62
    50
 10
127.792895104311
 20
143.552824306172
 30
0.0
 40
2.2750008721891
  0
CIRCLE
  5
   819
  8
0
  6
CONTINUOUS
 62
    50
 10
135.667804180408
 20
143.552836587961
 30
0.0
 40
2.27500697844256
  0
CIRCLE
  5
   81A
  8
0
  6
CONTINUOUS
 62
    50
 10
160.517986755708
 20
143.552815202098
 30
0.0
 40
2.27499887216728
  0
CIRCLE
  5
   81B
  8
0
  6
CONTINUOUS
 62
    50
 10
168.392892992315
 20
143.552813969377
 30
0.0
 40
2.27499974501663
  0
CIRCLE
  5
   81C
  8
0
  6
CONTINUOUS
 62
    50
 10
176.267799916259
 20
143.552809264032
 30
0.0
 40
2.27500353399792
  0
LINE
  5
   81D
  8
0
  6
DASHDOT
 62
     7
 10
176.267799916259
 20
140.577805741955
 30
0.0
 11
176.267799916259
 21
146.527812786109
 31
0.0
  0
LINE
  5
   81E
  8
0
  6
DASHDOT
 62
     7
 10
179.242803438336
 20
143.552809264032
 30
0.0
 11
173.292796394182
 21
143.552809264032
 31
0.0
  0
LINE
  5
   81F
  8
0
  6
DASHDOT
 62
     7
 10
168.392892992315
 20
140.577814236281
 30
0.0
 11
168.392892992315
 21
146.527813702473
 31
0.0
  0
LINE
  5
   820
  8
0
  6
DASHDOT
 62
     7
 10
171.367892725411
 20
143.552813969377
 30
0.0
 11
165.417893259219
 21
143.552813969377
 31
0.0
  0
LINE
  5
   821
  8
0
  6
DASHDOT
 62
     7
 10
160.517986755708
 20
140.577816341852
 30
0.0
 11
160.517986755708
 21
146.527814062344
 31
0.0
  0
LINE
  5
   822
  8
0
  6
DASHDOT
 62
     7
 10
163.492985615955
 20
143.552815202098
 30
0.0
 11
157.542987895462
 21
143.552815202098
 31
0.0
  0
LINE
  5
   823
  8
0
  6
DASHDOT
 62
     7
 10
135.667804180408
 20
140.57782962144
 30
0.0
 11
135.667804180408
 21
146.527843554483
 31
0.0
  0
LINE
  5
   824
  8
0
  6
DASHDOT
 62
     7
 10
138.642811146929
 20
143.552836587961
 30
0.0
 11
132.692797213886
 21
143.552836587961
 31
0.0
  0
LINE
  5
   825
  8
0
  6
DASHDOT
 62
     7
 10
127.792895104311
 20
140.577823445904
 30
0.0
 11
127.792895104311
 21
146.52782516644
 31
0.0
  0
LINE
  5
   826
  8
0
  6
DASHDOT
 62
     7
 10
130.767895964579
 20
143.552824306172
 30
0.0
 11
124.817894244043
 21
143.552824306172
 31
0.0
  0
LINE
  5
   827
  8
0
  6
DASHDOT
 62
     7
 10
119.917991112512
 20
140.577837483256
 30
0.0
 11
119.917991112512
 21
146.527827213358
 31
0.0
  0
LINE
  5
   828
  8
0
  6
DASHDOT
 62
     7
 10
122.892985977563
 20
143.552832348307
 30
0.0
 11
116.942996247461
 21
143.552832348307
 31
0.0
  0
LINE
  5
   829
  8
0
  6
DASHDOT
 62
     7
 10
95.0679683435173
 20
140.577838580339
 30
0.0
 11
95.0679683435173
 21
146.527848629609
 31
0.0
  0
LINE
  5
   82A
  8
0
  6
DASHDOT
 62
     7
 10
98.0429733681523
 20
143.552843604974
 30
0.0
 11
92.0929633188823
 21
143.552843604974
 31
0.0
  0
LINE
  5
   82B
  8
0
  6
DASHDOT
 62
     7
 10
87.1930649463651
 20
140.5778417091
 30
0.0
 11
87.1930649463651
 21
146.5278386392
 31
0.0
  0
LINE
  5
   82C
  8
0
  6
DASHDOT
 62
     7
 10
90.1680634114153
 20
143.55284017415
 30
0.0
 11
84.2180664813149
 21
143.55284017415
 31
0.0
  0
LINE
  5
   82D
  8
0
  6
DASHDOT
 62
     7
 10
79.3181502747716
 20
140.577848707186
 30
0.0
 11
79.3181502747716
 21
146.527836690051
 31
0.0
  0
LINE
  5
   82E
  8
0
  6
DASHDOT
 62
     7
 10
82.2931442662038
 20
143.552842698618
 30
0.0
 11
76.3431562833395
 21
143.552842698618
 31
0.0
  0
LINE
  5
   82F
  8
0
  6
DASHDOT
 62
     7
 10
54.4679813322066
 20
140.577839302286
 30
0.0
 11
54.4679813322066
 21
146.527813438192
 31
0.0
  0
LINE
  5
   830
  8
0
  6
DASHDOT
 62
     7
 10
57.4429684001597
 20
143.552826370239
 30
0.0
 11
51.4929942642535
 21
143.552826370239
 31
0.0
  0
LINE
  5
   831
  8
0
  6
DASHDOT
 62
     7
 10
46.5930620449972
 20
140.577834439991
 30
0.0
 11
46.5930620449972
 21
146.527820065845
 31
0.0
  0
LINE
  5
   832
  8
0
  6
DASHDOT
 62
     7
 10
49.5680548579239
 20
143.552827252918
 30
0.0
 11
43.6180692320705
 21
143.552827252918
 31
0.0
  0
LINE
  5
   833
  8
0
  6
DASHDOT
 62
     7
 10
38.7181570095824
 20
140.577864065327
 30
0.0
 11
38.7181570095824
 21
146.527835424652
 31
0.0
  0
LINE
  5
   834
  8
0
  6
DASHDOT
 62
     7
 10
41.693142689245
 20
143.552849744989
 30
0.0
 11
35.7431713299198
 21
143.552849744989
 31
0.0
  0
ARC
  5
   835
  8
0
  6
CONTINUOUS
 62
    50
 10
34.3430232693591
 20
137.878587681278
 30
0.0
 40
3.49996095622695
 50
179.999999948034
 51
240.124043249948
  0
ARC
  5
   836
  8
0
  6
CONTINUOUS
 62
    50
 10
65.8430868942944
 20
135.947691569584
 30
0.0
 40
3.50003045810159
 50
179.999999948034
 51
240.142293031258
  0
ARC
  5
   837
  8
0
  6
CONTINUOUS
 62
    50
 10
63.7430861154765
 20
116.952829131075
 30
0.0
 40
14.0000130169467
 50
359.869970748912
 51
420.042137162139
  0
ARC
  5
   838
  8
0
  6
CONTINUOUS
 62
    50
 10
74.943048676268
 20
141.204500143505
 30
0.0
 40
3.49998438423225
 50
179.999999948034
 51
240.14626435961
  0
ARC
  5
   839
  8
0
  6
CONTINUOUS
 62
    50
 10
80.4563779473906
 20
129.969114868897
 30
0.0
 40
3.49998690923364
 50
379.121926056389
 51
420.146264359611
  0
ARC
  5
   83A
  8
0
  6
CONTINUOUS
 62
    50
 10
134.529575041735
 20
129.969109749839
 30
0.0
 40
3.49999161613542
 50
119.853688045721
 51
160.878070599032
  0
ARC
  5
   83B
  8
0
  6
CONTINUOUS
 62
    50
 10
140.042928981504
 20
141.204483050159
 30
0.0
 40
3.49996051410946
 50
299.853688045721
 51
359.999983581852
  0
ARC
  5
   83C
  8
0
  6
CONTINUOUS
 62
    50
 10
149.142884952352
 20
135.947670708938
 30
0.0
 40
3.50000972876675
 50
299.999967632915
 51
359.999978997038
  0
ARC
  5
   83D
  8
0
  6
CONTINUOUS
 62
    50
 10
151.242813564363
 20
116.952846381237
 30
0.0
 40
13.9999586509132
 50
119.999967632915
 51
180.117319212803
  0
ARC
  5
   83E
  8
0
  6
CONTINUOUS
 62
    50
 10
180.642897978163
 20
137.878596251191
 30
0.0
 40
3.50000180220315
 50
299.871056197812
 51
360.143468861357
  0
POINT
  5
   83F
  8
0
  6
CONTINUOUS
 62
     7
 10
119.742873879098
 20
109.777860590814
 30
0.0
  0
INSERT
  5
   840
  8
0
  6
CONTINUOUS
 62
     7
  2
*UDIM523
 10
0.0
 20
0.0
 30
0.0
  0
INSERT
  5
   841
  8
0
  6
CONTINUOUS
 62
     7
  2
*UDIM524
 10
0.0
 20
0.0
 30
0.0
  0
INSERT
  5
   842
  8
0
  6
CONTINUOUS
 62
     7
  2
*UDIM525
 10
0.0
 20
0.0
 30
0.0
  0
INSERT
  5
   843
  8
0
  6
CONTINUOUS
 62
     7
  2
*UDIM526
 10
0.0
 20
0.0
 30
0.0
  0
INSERT
  5
   844
  8
0
  6
CONTINUOUS
 62
     7
  2
*UDIM527
 10
0.0
 20
0.0
 30
0.0
  0
ENDSEC
  0
EOF
