  0
SECTION
  2
HEADER
  9
$ACADVER
  1
AC1009
  9
$INSBASE
 10
0.0
 20
0.0
 30
0.0
  9
$EXTMIN
 10
-234.3464476
 20
318.40582499999999
 30
0.0
  9
$EXTMAX
 10
1173.318336999999
 20
858.83165799999995
 30
0.0
  9
$LIMMIN
 10
0.0
 20
0.0
  9
$LIMMAX
 10
420.0
 20
297.0
  9
$ORTHOMODE
 70
     0
  9
$REGENMODE
 70
     1
  9
$FILLMODE
 70
     1
  9
$QTEXTMODE
 70
     0
  9
$MIRRTEXT
 70
     1
  9
$DRAGMODE
 70
     2
  9
$LTSCALE
 40
1.0
  9
$OSMODE
 70
    47
  9
$ATTMODE
 70
     1
  9
$TEXTSIZE
 40
0.0
  9
$TRACEWID
 40
1.0
  9
$TEXTSTYLE
  7
STANDARD
  9
$CLAYER
  8
0
  9
$CELTYPE
  6
BYLAYER
  9
$CECOLOR
 62
   256
  9
$DIMSCALE
 40
1.0
  9
$DIMASZ
 40
2.5
  9
$DIMEXO
 40
0.625
  9
$DIMDLI
 40
3.75
  9
$DIMRND
 40
0.0
  9
$DIMDLE
 40
0.0
  9
$DIMEXE
 40
1.25
  9
$DIMTP
 40
0.0
  9
$DIMTM
 40
0.0
  9
$DIMTXT
 40
2.5
  9
$DIMCEN
 40
2.5
  9
$DIMTSZ
 40
0.0
  9
$DIMTOL
 70
     0
  9
$DIMLIM
 70
     0
  9
$DIMTIH
 70
     0
  9
$DIMTOH
 70
     0
  9
$DIMSE1
 70
     0
  9
$DIMSE2
 70
     0
  9
$DIMTAD
 70
     1
  9
$DIMZIN
 70
     8
  9
$DIMBLK
  1

  9
$DIMASO
 70
     1
  9
$DIMSHO
 70
     1
  9
$DIMPOST
  1

  9
$DIMAPOST
  1

  9
$DIMALT
 70
     0
  9
$DIMALTD
 70
     3
  9
$DIMALTF
 40
0.03937
  9
$DIMLFAC
 40
1.0
  9
$DIMTOFL
 70
     1
  9
$DIMTVP
 40
0.0
  9
$DIMTIX
 70
     0
  9
$DIMSOXD
 70
     0
  9
$DIMSAH
 70
     0
  9
$DIMBLK1
  1

  9
$DIMBLK2
  1

  9
$DIMSTYLE
  2
STANDARD
  9
$DIMCLRD
 70
     0
  9
$DIMCLRE
 70
     0
  9
$DIMCLRT
 70
     0
  9
$DIMTFAC
 40
1.0
  9
$DIMGAP
 40
0.625
  9
$LUNITS
 70
     2
  9
$LUPREC
 70
     4
  9
$SKETCHINC
 40
1.0
  9
$FILLETRAD
 40
2.5
  9
$AUNITS
 70
     0
  9
$AUPREC
 70
     0
  9
$MENU
  1
.
  9
$ELEVATION
 40
0.0
  9
$PELEVATION
 40
0.0
  9
$THICKNESS
 40
0.0
  9
$LIMCHECK
 70
     0
  9
$BLIPMODE
 70
     0
  9
$CHAMFERA
 40
2.5
  9
$CHAMFERB
 40
2.5
  9
$SKPOLY
 70
     0
  9
$TDCREATE
 40
2311942.6599061568
  9
$TDUPDATE
 40
2454455.3908595601
  9
$TDINDWG
 40
0.000922037
  9
$TDUSRTIMER
 40
0.000922037
  9
$USRTIMER
 70
     1
  9
$ANGBASE
 50
0.0
  9
$ANGDIR
 70
     0
  9
$PDMODE
 70
     0
  9
$PDSIZE
 40
0.0
  9
$PLINEWID
 40
0.0
  9
$COORDS
 70
     1
  9
$SPLFRAME
 70
     0
  9
$SPLINETYPE
 70
     6
  9
$SPLINESEGS
 70
     8
  9
$ATTDIA
 70
     0
  9
$ATTREQ
 70
     1
  9
$HANDLING
 70
 22529
  9
$HANDSEED
  5
C5D
  9
$SURFTAB1
 70
     6
  9
$SURFTAB2
 70
     6
  9
$SURFTYPE
 70
     6
  9
$SURFU
 70
     6
  9
$SURFV
 70
     6
  9
$UCSNAME
  2

  9
$UCSORG
 10
0.0
 20
0.0
 30
0.0
  9
$UCSXDIR
 10
1.0
 20
0.0
 30
0.0
  9
$UCSYDIR
 10
0.0
 20
1.0
 30
0.0
  9
$PUCSNAME
  2

  9
$PUCSORG
 10
0.0
 20
0.0
 30
0.0
  9
$PUCSXDIR
 10
1.0
 20
0.0
 30
0.0
  9
$PUCSYDIR
 10
0.0
 20
1.0
 30
0.0
  9
$USERI1
 70
     0
  9
$USERI2
 70
     0
  9
$USERI3
 70
     0
  9
$USERI4
 70
     0
  9
$USERI5
 70
     0
  9
$USERR1
 40
0.0
  9
$USERR2
 40
0.0
  9
$USERR3
 40
0.0
  9
$USERR4
 40
0.0
  9
$USERR5
 40
0.0
  9
$WORLDVIEW
 70
     1
  9
$SHADEDGE
 70
     3
  9
$SHADEDIF
 70
    70
  9
$TILEMODE
 70
     1
  9
$MAXACTVP
 70
    48
  9
$PLIMCHECK
 70
     0
  9
$PEXTMIN
 10
0.0
 20
0.0
 30
0.0
  9
$PEXTMAX
 10
267.94271900000001
 20
205.19999699999991
 30
2.0
  9
$PLIMMIN
 10
0.0
 20
0.0
  9
$PLIMMAX
 10
420.0
 20
297.0
  9
$UNITMODE
 70
     0
  9
$VISRETAIN
 70
     0
  9
$PLINEGEN
 70
     0
  9
$PSLTSCALE
 70
     1
  0
ENDSEC
  0
SECTION
  2
TABLES
  0
TABLE
  2
VPORT
 70
     2
  0
VPORT
  2
*ACTIVE
 70
     0
 10
0.0
 20
0.0
 11
1.0
 21
1.0
 12
469.48594469999978
 22
588.61874149999994
 13
0.0
 23
0.0
 14
1.0
 24
1.0
 15
0.0
 25
0.0
 16
0.0
 26
0.0
 36
1.0
 17
0.0
 27
0.0
 37
0.0
 40
912.36778571907564
 41
1.550724637681159
 42
50.0
 43
0.0
 44
0.0
 50
0.0
 51
0.0
 71
     0
 72
   100
 73
     1
 74
     1
 75
     0
 76
     0
 77
     0
 78
     0
  0
ENDTAB
  0
TABLE
  2
LTYPE
 70
     8
  0
LTYPE
  2
CONTINUOUS
 70
     0
  3
Solid line
 72
    65
 73
     0
 40
0.0
  0
LTYPE
  2
DASHED
 70
     0
  3
__ __ __ __ __ __ __ __ __ __ __ __ __ __ __ __
 72
    65
 73
     2
 40
15.0
 49
12.0
 49
-3.0
  0
LTYPE
  2
DASHDOT
 70
     0
  3
 __ . __ . __ . __ . __ . __ . __ . 
 72
    65
 73
     4
 40
18.5
 49
12.0
 49
-3.0
 49
0.5
 49
-3.0
  0
LTYPE
  2
DOT
 70
     0
  3
 . . . . . . . . . . . . . . . .
 72
    65
 73
     2
 40
3.5
 49
0.5
 49
-3.0
  0
LTYPE
  2
DASHSPACE
 70
     0
  3
__    __    __    __    __   
 72
    65
 73
     2
 40
30.0
 49
12.0
 49
-18.0
  0
LTYPE
  2
DASHDOT2
 70
     0
  3
__ . . __ . . __ . . __ 
 72
    65
 73
     6
 40
22.0
 49
12.0
 49
-3.0
 49
0.5
 49
-3.0
 49
0.5
 49
-3.0
  0
LTYPE
  2
PHANTOM
 70
     0
  3
____________    ____    ____   _
 72
    65
 73
     6
 40
20.0
 49
10.0
 49
-2.0
 49
2.0
 49
-2.0
 49
2.0
 49
-2.0
  0
LTYPE
  2
AXES
 70
     0
  3
________  __  ________  __  _____
 72
    65
 73
     4
 40
24.0
 49
15.0
 49
-3.0
 49
3.0
 49
-3.0
  0
ENDTAB
  0
TABLE
  2
LAYER
 70
     1
  0
LAYER
  2
0
 70
     0
 62
     7
  6
CONTINUOUS
  0
ENDTAB
  0
TABLE
  2
STYLE
 70
     2
  0
STYLE
  2
STANDARD
 70
     0
 40
0.0
 41
1.0
 50
0.0
 71
     0
 42
0.0
  3
isocp.shx
  4

  0
STYLE
  2
GDT
 70
     0
 40
0.0
 41
1.0
 50
0.0
 71
     0
 42
0.0
  3
amgdt.shx
  4

  0
ENDTAB
  0
TABLE
  2
VIEW
 70
     0
  0
ENDTAB
  0
TABLE
  2
UCS
 70
     0
  0
ENDTAB
  0
TABLE
  2
APPID
 70
     1
  0
APPID
  2
ACAD
 70
     0
  0
ENDTAB
  0
TABLE
  2
DIMSTYLE
 70
     1
  0
DIMSTYLE
  2
STANDARD
 70
     0
  3

  4

  5

  6

  7

 40
1.0
 41
2.5
 42
0.625
 43
3.75
 44
1.25
 45
0.0
 46
0.0
 47
0.0
 48
0.0
140
2.5
141
2.5
142
0.0
143
0.03937
144
1.0
145
0.0
146
1.0
147
0.625
 71
     0
 72
     0
 73
     0
 74
     0
 75
     0
 76
     0
 77
     1
 78
     8
170
     0
171
     3
172
     1
173
     0
174
     0
175
     0
176
     0
177
     0
178
     0
  0
ENDTAB
  0
ENDSEC
  0
SECTION
  2
BLOCKS
  0
BLOCK
  8
0
  2
$MODEL_SPACE
 70
     0
 10
0.0
 20
0.0
 30
0.0
  3
$MODEL_SPACE
  1

  0
ENDBLK
  5
E
  8
0
  0
BLOCK
 67
     1
  8
0
  2
$PAPER_SPACE
 70
     0
 10
0.0
 20
0.0
 30
0.0
  3
$PAPER_SPACE
  1

  0
ENDBLK
  5
10
 67
     1
  8
0
  0
BLOCK
  8
0
  2
BLOCK0
 70
     0
 10
0.0
 20
0.0
 30
0.0
  3
BLOCK0
  1

  0
TEXT
  5
820
  8
0
 62
     1
 10
-552.0
 20
-85.0
 30
0.0
 40
3.0
  1
Ts3
 50
180.0
 41
1.225762527177944
 72
     5
 11
-559.69995099999994
 21
-85.0
 31
0.0
  0
ENDBLK
  5
821
  8
0
  0
BLOCK
  8
0
  2
BLOCK1
 70
     0
 10
0.0
 20
0.0
 30
0.0
  3
BLOCK1
  1

  0
TEXT
  5
823
  8
0
 62
     1
 10
-471.15213
 20
-86.0
 30
0.0
 40
2.0
  1
N0204 2007-09-17
 50
180.0
 41
1.1017693073406229
 72
     5
 11
-494.84786999999989
 21
-86.0
 31
0.0
  0
ENDBLK
  5
824
  8
0
  0
BLOCK
  8
0
  2
BLOCK2
 70
     0
 10
0.0
 20
0.0
 30
0.0
  3
BLOCK2
  1

  0
TEXT
  5
826
  8
0
 62
     1
 10
-526.0
 20
-74.0
 30
0.0
 40
4.0
  1
1SDH000637R0.113
 50
180.0
 41
1.4121732172344621
 72
     5
 11
-585.26281700000004
 21
-74.0
 31
0.0
  0
ENDBLK
  5
827
  8
0
  0
BLOCK
  8
0
  2
BLOCK3
 70
     0
 10
0.0
 20
0.0
 30
0.0
  3
BLOCK3
  1

  0
TEXT
  5
829
  8
0
 62
     1
 10
-532.0
 20
-101.0
 30
0.0
 40
2.0
  1
INTERR.AUTOMATICO SERIE ISOMAX
 50
179.9999897438901
 41
1.076916072289172
 72
     5
 11
-576.69201699999985
 21
-100.99999200000001
 31
0.0
  0
ENDBLK
  5
82A
  8
0
  0
BLOCK
  8
0
  2
BLOCK4
 70
     0
 10
0.0
 20
0.0
 30
0.0
  3
BLOCK4
  1

  0
TEXT
  5
82C
  8
0
 62
     1
 10
-520.0
 20
-98.0
 30
0.0
 40
2.0
  1
TRIPOL.ESECUZIONE ESTRAIBILE TERMIN.POSTERIORI
 50
179.99999332681179
 41
1.1241856628478
 72
     5
 11
-588.68774400000007
 21
-97.99999200000002
 31
0.0
  0
ENDBLK
  5
82D
  8
0
  0
BLOCK
  8
0
  2
BLOCK5
 70
     0
 10
0.0
 20
0.0
 30
0.0
  3
BLOCK5
  1

  0
TEXT
  5
82F
  8
0
 62
     1
 10
-529.0
 20
-109.0
 30
0.0
 40
2.0
  1
3POLE LOW VOLTAGE M.C.C.B SERIES ISOMAX
 50
179.9999921228804
 41
1.0999919659735451
 72
     5
 11
-587.18957499999999
 21
-108.99999199999991
 31
0.0
  0
ENDBLK
  5
830
  8
0
  0
BLOCK
  8
0
  2
BLOCK6
 70
     0
 10
0.0
 20
0.0
 30
0.0
  3
BLOCK6
  1

  0
TEXT
  5
832
  8
0
 62
     1
 10
-531.0
 20
-106.0
 30
0.0
 40
2.0
  1
WITHDRAWABLE VERSION REAR  TERMINALS
 50
179.99999146278469
 41
1.0250319990800101
 72
     5
 11
-584.69036900000003
 21
-105.99999199999991
 31
0.0
  0
ENDBLK
  5
833
  8
0
  0
BLOCK
  8
0
  2
BLOCK7
 70
     0
 10
0.0
 20
0.0
 30
0.0
  3
BLOCK7
  1

  0
TEXT
  5
835
  8
0
 62
     7
 10
-519.0
 20
-111.0
 30
0.0
 40
1.6000000000000001
  1
Title
 50
180.0
 41
1.6505691037735899
 72
     5
 11
-525.99841300000003
 21
-111.0
 31
0.0
  0
ENDBLK
  5
836
  8
0
  0
BLOCK
  8
0
  2
BLOCK8
 70
     0
 10
0.0
 20
0.0
 30
0.0
  3
BLOCK8
  1

  0
TEXT
  5
838
  8
0
 62
     7
 10
-519.0
 20
-108.0
 30
0.0
 40
1.6000000000000001
  1
Titolo
 50
180.0
 41
1.5854679104477609
 72
     5
 11
-527.49810799999989
 21
-108.0
 31
0.0
  0
ENDBLK
  5
839
  8
0
  0
BLOCK
  8
0
  2
BLOCK9
 70
     0
 10
0.0
 20
0.0
 30
0.0
  3
BLOCK9
  1

  0
LINE
  5
83B
  8
0
 62
     2
 10
75.736808999999994
 20
-175.33813499999999
 30
0.0
 11
75.736808999999994
 21
-210.83813499999999
 31
0.0
  0
LINE
  5
83C
  8
0
 62
     2
 10
90.736808999999994
 20
-175.33813499999999
 30
0.0
 11
90.736808999999994
 21
-210.83813499999999
 31
0.0
  0
LINE
  5
83D
  8
0
 62
     2
 10
74.736808999999994
 20
-210.83813499999999
 30
0.0
 11
91.736808999999994
 21
-210.83813499999999
 31
0.0
  0
LINE
  5
83E
  8
0
 62
     2
 10
75.736808999999994
 20
-175.33813499999999
 30
0.0
 11
90.736808999999994
 21
-175.33813499999999
 31
0.0
  0
LINE
  5
83F
  8
0
 62
     2
 10
91.736808999999994
 20
-210.83813499999999
 30
0.0
 11
189.73049900000001
 21
-210.83813499999999
 31
0.0
  0
LINE
  5
840
  8
0
 62
     2
 10
31.236809000000001
 20
-210.83813499999999
 30
0.0
 11
74.736808999999994
 21
-210.83813499999999
 31
0.0
  0
LINE
  5
841
  8
0
 62
     2
 10
29.986809000000001
 20
-37.588135000000001
 30
0.0
 11
29.986809000000001
 21
-209.58813499999999
 31
0.0
  0
LINE
  5
842
  8
0
 62
     2
 10
31.236809000000001
 20
-36.338135000000001
 30
0.0
 11
189.73049900000001
 21
-36.338135000000001
 31
0.0
  0
LINE
  5
843
  8
0
 62
     2
 10
169.986816
 20
-175.33813499999999
 30
0.0
 11
170.986816
 21
-175.33813499999999
 31
0.0
  0
LINE
  5
844
  8
0
 62
     2
 10
169.986816
 20
-45.338134999999987
 30
0.0
 11
170.986816
 21
-45.338134999999987
 31
0.0
  0
LINE
  5
845
  8
0
 62
     2
 10
49.986809000000001
 20
-175.33813499999999
 30
0.0
 11
50.986809000000001
 21
-175.33813499999999
 31
0.0
  0
LINE
  5
846
  8
0
 62
     2
 10
49.986809000000001
 20
-46.338135000000001
 30
0.0
 11
49.986809000000001
 21
-174.33813499999999
 31
0.0
  0
LINE
  5
847
  8
0
 62
     2
 10
49.986809000000001
 20
-45.338134999999987
 30
0.0
 11
50.986809000000001
 21
-45.338134999999987
 31
0.0
  0
LINE
  5
848
  8
0
 62
     2
 10
29.986809000000001
 20
-174.33813499999999
 30
0.0
 11
49.986809000000001
 21
-174.33813499999999
 31
0.0
  0
LINE
  5
849
  8
0
 62
     2
 10
170.986816
 20
-175.33813499999999
 30
0.0
 11
190.986816
 21
-175.33813499999999
 31
0.0
  0
LINE
  5
84A
  8
0
 62
     2
 10
50.986809000000001
 20
-175.33813499999999
 30
0.0
 11
74.736808999999994
 21
-175.33813499999999
 31
0.0
  0
LINE
  5
84B
  8
0
 62
     2
 10
91.736808999999994
 20
-175.33813499999999
 30
0.0
 11
169.986816
 21
-175.33813499999999
 31
0.0
  0
LINE
  5
84C
  8
0
 62
     2
 10
29.986809000000001
 20
-175.33813499999999
 30
0.0
 11
49.986809000000001
 21
-175.33813499999999
 31
0.0
  0
LINE
  5
84D
  8
0
 62
     2
 10
170.986816
 20
-45.338134999999987
 30
0.0
 11
190.986816
 21
-45.338134999999987
 31
0.0
  0
LINE
  5
84E
  8
0
 62
     2
 10
50.986809000000001
 20
-45.338134999999987
 30
0.0
 11
169.986816
 21
-45.338134999999987
 31
0.0
  0
LINE
  5
84F
  8
0
 62
     2
 10
29.986809000000001
 20
-45.338134999999987
 30
0.0
 11
49.986809000000001
 21
-45.338134999999987
 31
0.0
  0
LINE
  5
850
  8
0
 62
     2
 10
29.986809000000001
 20
-46.338135000000001
 30
0.0
 11
49.986809000000001
 21
-46.338135000000001
 31
0.0
  0
LINE
  5
851
  8
0
 62
     2
 10
74.736808999999994
 20
-175.33813499999999
 30
0.0
 11
74.736808999999994
 21
-210.83813499999999
 31
0.0
  0
LINE
  5
852
  8
0
 62
     2
 10
91.736808999999994
 20
-175.33813499999999
 30
0.0
 11
91.736808999999994
 21
-210.83813499999999
 31
0.0
  0
LINE
  5
853
  8
0
 62
     2
 10
90.736808999999994
 20
-175.38813799999991
 30
0.0
 11
91.736808999999994
 21
-175.38813799999991
 31
0.0
  0
LINE
  5
854
  8
0
 62
     2
 10
74.736808999999994
 20
-175.38813799999991
 30
0.0
 11
75.736808999999994
 21
-175.38813799999991
 31
0.0
  0
LINE
  5
855
  8
0
 62
     2
 10
169.986816
 20
-46.338135000000001
 30
0.0
 11
169.986816
 21
-174.33813499999999
 31
0.0
  0
LINE
  5
856
  8
0
 62
     2
 10
50.986809000000001
 20
-46.338135000000001
 30
0.0
 11
50.986809000000001
 21
-174.33813499999999
 31
0.0
  0
LINE
  5
857
  8
0
 62
     2
 10
50.986809000000001
 20
-174.33813499999999
 30
0.0
 11
169.986816
 21
-174.33813499999999
 31
0.0
  0
LINE
  5
858
  8
0
 62
     2
 10
50.986809000000001
 20
-46.338135000000001
 30
0.0
 11
169.986816
 21
-46.338135000000001
 31
0.0
  0
LINE
  5
859
  8
0
 62
     2
 10
162.986816
 20
-167.33813499999999
 30
0.0
 11
169.986816
 21
-174.33813499999999
 31
0.0
  0
LINE
  5
85A
  8
0
 62
     2
 10
169.986816
 20
-46.338135000000001
 30
0.0
 11
162.4573969999999
 21
-62.338138999999998
 31
0.0
  0
LINE
  5
85B
  8
0
 62
     2
 10
57.986828000000003
 20
-167.33813499999999
 30
0.0
 11
50.986804999999997
 21
-174.33815000000001
 31
0.0
  0
LINE
  5
85C
  8
0
 62
     2
 10
50.986809000000001
 20
-46.338138999999991
 30
0.0
 11
58.51621999999999
 21
-62.338138999999998
 31
0.0
  0
LINE
  5
85D
  8
0
 62
     2
 10
170.98049900000001
 20
-174.33807400000001
 30
0.0
 11
190.9804989999999
 21
-174.33807400000001
 31
0.0
  0
LINE
  5
85E
  8
0
 62
     2
 10
170.98049900000001
 20
-45.338134999999987
 30
0.0
 11
170.98049900000001
 21
-175.33813499999999
 31
0.0
  0
LINE
  5
85F
  8
0
 62
     2
 10
190.9804989999999
 20
-37.588135000000001
 30
0.0
 11
190.9804989999999
 21
-45.338134999999987
 31
0.0
  0
LINE
  5
860
  8
0
 62
     2
 10
190.9804989999999
 20
-115.34339900000001
 30
0.0
 11
190.9804989999999
 21
-175.33813499999999
 31
0.0
  0
ARC
  5
861
  8
0
 62
     2
 10
195.12768600000001
 20
-110.338104
 30
0.0
 40
6.5001670000000003
 50
129.64374699999991
 51
230.3562529999999
  0
LINE
  5
862
  8
0
 62
     2
 10
190.9804989999999
 20
-105.3328019999999
 30
0.0
 11
190.9804989999999
 21
-115.34339900000001
 31
0.0
  0
LINE
  5
863
  8
0
 62
     2
 10
170.986816
 20
-46.338135000000001
 30
0.0
 11
190.986816
 21
-46.338135000000001
 31
0.0
  0
LINE
  5
864
  8
0
 62
     2
 10
190.9804989999999
 20
-45.338134999999987
 30
0.0
 11
190.9804989999999
 21
-105.3328019999999
 31
0.0
  0
LINE
  5
865
  8
0
 62
     2
 10
190.9804989999999
 20
-175.33813499999999
 30
0.0
 11
190.9804989999999
 21
-209.58813499999999
 31
0.0
  0
POINT
  5
866
  8
0
 62
     2
 10
110.48680899999999
 20
-114.83813499999999
 30
0.0
  0
ARC
  5
867
  8
0
 62
     2
 10
189.73049900000001
 20
-37.588135000000001
 30
0.0
 40
1.25
 50
0.000003
 51
90.000005000000002
  0
ARC
  5
868
  8
0
 62
     2
 10
31.236809000000001
 20
-37.588135000000001
 30
0.0
 40
1.25
 50
90.000005000000002
 51
180.00000099999991
  0
ARC
  5
869
  8
0
 62
     2
 10
31.236809000000001
 20
-209.58813499999999
 30
0.0
 40
1.25
 50
180.00000099999991
 51
270.0
  0
ARC
  5
86A
  8
0
 62
     2
 10
189.73049900000001
 20
-209.58813499999999
 30
0.0
 40
1.25
 50
270.0
 51
0.000003
  0
ENDBLK
  5
86B
  8
0
  0
BLOCK
  8
0
  2
BLOCK10
 70
     0
 10
0.0
 20
0.0
 30
0.0
  3
BLOCK10
  1

  0
TEXT
  5
86D
  8
0
 62
     7
 10
217.430939
 20
-106.58813499999999
 30
0.0
 40
3.0
  1
105
 50
270.0
 41
1.432750773232002
 72
     5
 11
217.430939
 21
-114.2881159999999
 31
0.0
  0
ENDBLK
  5
86E
  8
0
  0
BLOCK
  8
0
  2
BLOCK11
 70
     0
 10
0.0
 20
0.0
 30
0.0
  3
BLOCK11
  1

  0
TEXT
  5
870
  8
0
 62
     7
 10
8.6121649999999992
 20
-126.838165
 30
0.0
 40
3.0
  1
35
 50
269.99998842508802
 41
1.277661231193729
 72
     5
 11
8.6121639999999982
 21
-131.788162
 31
0.0
  0
ENDBLK
  5
871
  8
0
  0
BLOCK
  8
0
  2
BLOCK12
 70
     0
 10
0.0
 20
0.0
 30
0.0
  3
BLOCK12
  1

  0
TEXT
  5
873
  8
0
 62
     7
 10
8.6121770000000009
 20
-91.838134999999994
 30
0.0
 40
3.0
  1
35
 50
269.99997685013858
 41
1.2776591662855139
 72
     5
 11
8.6121750000000006
 21
-96.788123999999996
 31
0.0
  0
ENDBLK
  5
874
  8
0
  0
BLOCK
  8
0
  2
BLOCK13
 70
     0
 10
0.0
 20
0.0
 30
0.0
  3
BLOCK13
  1

  0
TEXT
  5
876
  8
0
 62
     7
 10
109.934479
 20
14.88598599999999
 30
0.0
 40
3.0
  1
X
 50
270.0
 41
0.9777773333333332
 72
     5
 11
109.934479
 21
12.685987000000001
 31
0.0
  0
ENDBLK
  5
877
  8
0
  0
BLOCK
  8
0
  2
BLOCK14
 70
     0
 10
0.0
 20
0.0
 30
0.0
  3
BLOCK14
  1

  0
TEXT
  5
879
  8
0
 62
     7
 10
245.385773
 20
-112.9165949999999
 30
0.0
 40
3.0
  1
Y
 50
270.0
 41
0.9777764444444427
 72
     5
 11
245.385773
 21
-115.1165919999999
 31
0.0
  0
ENDBLK
  5
87A
  8
0
  0
BLOCK
  8
0
  2
BLOCK15
 70
     0
 10
0.0
 20
0.0
 30
0.0
  3
BLOCK15
  1

  0
TEXT
  5
87C
  8
0
 62
     7
 10
-8.9828469999999996
 20
-151.3381959999999
 30
0.0
 40
3.0
  1
84
 50
270.0000231498239
 41
1.222221481481587
 72
     5
 11
-8.9828449999999993
 21
-156.28819300000001
 31
0.0
  0
ENDBLK
  5
87D
  8
0
  0
BLOCK
  8
0
  2
BLOCK16
 70
     0
 10
0.0
 20
0.0
 30
0.0
  3
BLOCK16
  1

  0
TEXT
  5
87F
  8
0
 62
     7
 10
102.23365799999991
 20
-222.43591299999991
 30
0.0
 40
3.0
  1
161
 41
1.6559101075268829
 72
     5
 11
109.93364
 21
-222.43591299999991
 31
0.0
  0
ENDBLK
  5
880
  8
0
  0
BLOCK
  8
0
  2
BLOCK17
 70
     0
 10
0.0
 20
0.0
 30
0.0
  3
BLOCK17
  1

  0
TEXT
  5
882
  8
0
 62
     7
 10
235.60652200000001
 20
-157.33813499999999
 30
0.0
 40
3.0
  1
96
 50
270.0
 41
1.2662099629029859
 72
     5
 11
235.60652200000001
 21
-162.28813199999999
 31
0.0
  0
ENDBLK
  5
883
  8
0
  0
BLOCK
  8
0
  2
BLOCK18
 70
     0
 10
0.0
 20
0.0
 30
0.0
  3
BLOCK18
  1

  0
TEXT
  5
885
  8
0
 62
     7
 10
235.60652200000001
 20
-64.588134999999994
 30
0.0
 40
3.0
  1
78,5
 50
270.0
 41
1.487695493474843
 72
     5
 11
235.60652200000001
 21
-75.038100999999983
 31
0.0
  0
ENDBLK
  5
886
  8
0
  0
BLOCK
  8
0
  2
BLOCK19
 70
     0
 10
0.0
 20
0.0
 30
0.0
  3
BLOCK19
  1

  0
TEXT
  5
888
  8
0
 62
     7
 10
148.11180100000001
 20
-27.848060999999991
 30
0.0
 40
3.0
  1
89,75
 41
1.4669255658310809
 72
     5
 11
161.51179500000001
 21
-27.848060999999991
 31
0.0
  0
LINE
  5
889
  8
0
 62
     7
 10
110.48680899999999
 20
-45.519001000000003
 30
0.0
 11
110.48680899999999
 21
-26.848060999999991
 31
0.0
  0
LINE
  5
88A
  8
0
 62
     7
 10
200.23680100000001
 20
-62.588154000000003
 30
0.0
 11
200.23680100000001
 21
-26.848060999999991
 31
0.0
  0
POLYLINE
  5
88B
  8
0
 62
     7
 66
     1
 10
0.0
 20
0.0
 30
0.0
  0
VERTEX
  5
C35
  8
0
 62
     7
 10
112.418663
 20
-28.330423
 30
0.0
  0
VERTEX
  5
C36
  8
0
 62
     7
 10
110.48680899999999
 20
-28.848061000000001
 30
0.0
  0
VERTEX
  5
C37
  8
0
 62
     7
 10
112.418663
 20
-29.3657
 30
0.0
  0
SEQEND
  5
C38
  8
0
 62
     7
  0
POLYLINE
  5
890
  8
0
 62
     7
 66
     1
 10
0.0
 20
0.0
 30
0.0
  0
VERTEX
  5
C39
  8
0
 62
     7
 10
198.304947
 20
-29.3657
 30
0.0
  0
VERTEX
  5
C3A
  8
0
 62
     7
 10
200.23680100000001
 20
-28.848061000000001
 30
0.0
  0
VERTEX
  5
C3B
  8
0
 62
     7
 10
198.304947
 20
-28.330423
 30
0.0
  0
SEQEND
  5
C3C
  8
0
 62
     7
  0
LINE
  5
895
  8
0
 62
     7
 10
110.48680899999999
 20
-28.848061000000001
 30
0.0
 11
200.23680100000001
 21
-28.848061000000001
 31
0.0
  0
ENDBLK
  5
896
  8
0
  0
BLOCK
  8
0
  2
BLOCK20
 70
     0
 10
0.0
 20
0.0
 30
0.0
  3
BLOCK20
  1

  0
TEXT
  5
898
  8
0
 62
     7
 10
92.256630000000001
 20
-16.684097000000001
 30
0.0
 40
3.0
  1
175
 41
1.4513620656287261
 72
     5
 11
100.05663299999991
 21
-16.684097000000001
 31
0.0
  0
LINE
  5
899
  8
0
 62
     7
 10
25.236798999999991
 20
-62.588154000000003
 30
0.0
 11
25.236798999999991
 21
-15.684098000000001
 31
0.0
  0
LINE
  5
89A
  8
0
 62
     7
 10
200.23680100000001
 20
-62.588154000000003
 30
0.0
 11
200.23680100000001
 21
-15.684098000000001
 31
0.0
  0
POLYLINE
  5
89B
  8
0
 62
     7
 66
     1
 10
0.0
 20
0.0
 30
0.0
  0
VERTEX
  5
C3D
  8
0
 62
     7
 10
27.168652000000002
 20
-17.166460000000001
 30
0.0
  0
VERTEX
  5
C3E
  8
0
 62
     7
 10
25.236798999999991
 20
-17.684098999999989
 30
0.0
  0
VERTEX
  5
C3F
  8
0
 62
     7
 10
27.168652000000002
 20
-18.201736
 30
0.0
  0
SEQEND
  5
C40
  8
0
 62
     7
  0
POLYLINE
  5
8A0
  8
0
 62
     7
 66
     1
 10
0.0
 20
0.0
 30
0.0
  0
VERTEX
  5
C41
  8
0
 62
     7
 10
198.304947
 20
-18.201736
 30
0.0
  0
VERTEX
  5
C42
  8
0
 62
     7
 10
200.23680100000001
 20
-17.684098999999989
 30
0.0
  0
VERTEX
  5
C43
  8
0
 62
     7
 10
198.304947
 20
-17.166460000000001
 30
0.0
  0
SEQEND
  5
C44
  8
0
 62
     7
  0
LINE
  5
8A5
  8
0
 62
     7
 10
25.236798999999991
 20
-17.684098999999989
 30
0.0
 11
200.23680100000001
 21
-17.684098999999989
 31
0.0
  0
ENDBLK
  5
8A6
  8
0
  0
BLOCK
  8
0
  2
BLOCK21
 70
     0
 10
0.0
 20
0.0
 30
0.0
  3
BLOCK21
  1

  0
TEXT
  5
8A8
  8
0
 62
     7
 10
107.5019989999999
 20
99.428589000000002
 30
0.0
 40
3.0
  1
X
 50
270.0
 41
0.9777764444444425
 72
     5
 11
107.5019989999999
 21
97.22859200000002
 31
0.0
  0
ENDBLK
  5
8A9
  8
0
  0
BLOCK
  8
0
  2
BLOCK22
 70
     0
 10
0.0
 20
0.0
 30
0.0
  3
BLOCK22
  1

  0
TEXT
  5
8AB
  8
0
 62
     7
 10
-17.617256000000001
 20
-60.749938999999998
 30
0.0
 40
3.0
  1
167
 50
270.00001488205538
 41
1.4666632380952871
 72
     5
 11
-17.617253999999988
 21
-68.449921000000003
 31
0.0
  0
ENDBLK
  5
8AC
  8
0
  0
BLOCK
  8
0
  2
BLOCK23
 70
     0
 10
0.0
 20
0.0
 30
0.0
  3
BLOCK23
  1

  0
TEXT
  5
8AE
  8
0
 62
     7
 10
-40.525996999999997
 20
-49.25
 30
0.0
 40
3.0
  1
190
 50
270.00002976411082
 41
1.463083505771775
 72
     5
 11
-40.525992999999993
 21
-56.949981999999991
 31
0.0
  0
ENDBLK
  5
8AF
  8
0
  0
BLOCK
  8
0
  2
BLOCK24
 70
     0
 10
0.0
 20
0.0
 30
0.0
  3
BLOCK24
  1

  0
TEXT
  5
8B1
  8
0
 62
     7
 10
-40.526001000000001
 20
24.985596000000001
 30
0.0
 40
3.0
  1
2
 50
270.0
 41
1.202069964398264
 72
     5
 11
-40.526001000000001
 21
22.785595000000001
 31
0.0
  0
ENDBLK
  5
8B2
  8
0
  0
BLOCK
  8
0
  2
BLOCK25
 70
     0
 10
0.0
 20
0.0
 30
0.0
  3
BLOCK25
  1

  0
TEXT
  5
8B4
  8
0
 62
     7
 10
-59.221637999999992
 20
-41.0
 30
0.0
 40
3.0
  1
195,5
 50
270.00001736241131
 41
1.546613966049907
 72
     5
 11
-59.221633999999987
 21
-54.199958999999993
 31
0.0
  0
ENDBLK
  5
8B5
  8
0
  0
BLOCK
  8
0
  2
BLOCK26
 70
     0
 10
0.0
 20
0.0
 30
0.0
  3
BLOCK26
  1

  0
TEXT
  5
8B7
  8
0
 62
     7
 10
80.236976999999996
 20
-39.062865999999993
 30
0.0
 40
3.0
  1
1,75
 50
359.99997806854651
 41
1.6266414157685769
 72
     5
 11
90.686951000000008
 21
-39.062869999999997
 31
0.0
  0
ENDBLK
  5
8B8
  8
0
  0
BLOCK
  8
0
  2
BLOCK27
 70
     0
 10
0.0
 20
0.0
 30
0.0
  3
BLOCK27
  1

  0
TEXT
  5
8BA
  8
0
 62
     7
 10
101.7370609999999
 20
84.153747999999993
 30
0.0
 40
3.0
  1
105
 41
1.4327507732320039
 72
     5
 11
109.43704199999991
 21
84.153747999999993
 31
0.0
  0
ENDBLK
  5
8BB
  8
0
  0
BLOCK
  8
0
  2
BLOCK28
 70
     0
 10
0.0
 20
0.0
 30
0.0
  3
BLOCK28
  1

  0
TEXT
  5
8BD
  8
0
 62
     7
 10
133.11206100000001
 20
-207.59399400000001
 30
0.0
 40
3.0
  1
73,75
 41
1.446688291855128
 72
     5
 11
146.312027
 21
-207.59399400000001
 31
0.0
  0
ENDBLK
  5
8BE
  8
0
  0
BLOCK
  8
0
  2
BLOCK29
 70
     0
 10
0.0
 20
0.0
 30
0.0
  3
BLOCK29
  1

  0
TEXT
  5
8C0
  8
0
 62
     7
 10
103.9870609999999
 20
-260.13421599999998
 30
0.0
 40
3.0
  1
143
 41
1.357000821032974
 72
     5
 11
111.68704199999991
 21
-260.13421599999998
 31
0.0
  0
ENDBLK
  5
8C1
  8
0
  0
BLOCK
  8
0
  2
BLOCK30
 70
     0
 10
0.0
 20
0.0
 30
0.0
  3
BLOCK30
  1

  0
TEXT
  5
8C3
  8
0
 62
     7
 10
-17.841083999999999
 20
-173.07006799999991
 30
0.0
 40
3.0
  1
3
 50
270.0
 41
1.2399490238209789
 72
     5
 11
-17.841083999999999
 21
-175.2700649999999
 31
0.0
  0
ENDBLK
  5
8C4
  8
0
  0
BLOCK
  8
0
  2
BLOCK31
 70
     0
 10
0.0
 20
0.0
 30
0.0
  3
BLOCK31
  1

  0
TEXT
  5
8C6
  8
0
 62
     7
 10
-17.841085
 20
-167.57006799999999
 30
0.0
 40
3.0
  1
\U+2265
 50
270.0
 41
1.2422315693532049
 72
     5
 11
-17.841085
 21
-169.7700649999999
 31
0.0
  0
ENDBLK
  5
8C7
  8
0
  0
BLOCK
  8
0
  2
BLOCK32
 70
     0
 10
0.0
 20
0.0
 30
0.0
  3
BLOCK32
  1

  0
TEXT
  5
8C9
  8
0
 62
     7
 10
232.790741
 20
-162.3999629999999
 30
0.0
 40
3.0
  1
31
 50
270.0
 41
1.571427619047626
 72
     5
 11
232.790741
 21
-167.34996000000001
 31
0.0
  0
ENDBLK
  5
8CA
  8
0
  0
BLOCK
  8
0
  2
BLOCK33
 70
     0
 10
0.0
 20
0.0
 30
0.0
  3
BLOCK33
  1

  0
TEXT
  5
8CC
  8
0
 62
     7
 10
251.45623800000001
 20
-188.3999629999999
 30
0.0
 40
3.0
  1
83
 50
270.0
 41
1.277661231193707
 72
     5
 11
251.45623800000001
 21
-193.34996000000001
 31
0.0
  0
ENDBLK
  5
8CD
  8
0
  0
BLOCK
  8
0
  2
BLOCK34
 70
     0
 10
0.0
 20
0.0
 30
0.0
  3
BLOCK34
  1

  0
TEXT
  5
8CF
  8
0
 62
     7
 10
95.663681000000011
 20
2.50177
 30
0.0
 40
3.0
  1
 5,5
 50
217.05125796949139
 41
1.70632265912081
 72
     5
 11
87.323593000000002
 21
-3.7946430000000002
 31
0.0
  0
ENDBLK
  5
8D0
  8
0
  0
BLOCK
  8
0
  2
BLOCK35
 70
     0
 10
0.0
 20
0.0
 30
0.0
  3
BLOCK35
  1

  0
TEXT
  5
8D2
  8
0
 62
     7
 10
96.302170000000004
 20
2.983763999999999
 30
0.0
 40
3.0
  1
%%c
 50
217.0512338310599
 41
0.9777780525951079
 72
     5
 11
94.546356000000003
 21
1.658199999999999
 31
0.0
  0
ENDBLK
  5
8D3
  8
0
  0
BLOCK
  8
0
  2
BLOCK36
 70
     0
 10
0.0
 20
0.0
 30
0.0
  3
BLOCK36
  1

  0
TEXT
  5
8D5
  8
0
 62
     7
 10
252.934967
 20
37.0
 30
0.0
 40
3.0
  1
27,5
 50
270.0
 41
1.4876960629295159
 72
     5
 11
252.934967
 21
26.55003
 31
0.0
  0
ENDBLK
  5
8D6
  8
0
  0
BLOCK
  8
0
  2
BLOCK37
 70
     0
 10
0.0
 20
0.0
 30
0.0
  3
BLOCK37
  1

  0
TEXT
  5
8D8
  8
0
 62
     7
 10
252.934967
 20
15.0
 30
0.0
 40
3.0
  1
 CORSA DI SEZIONAMENTO
 50
270.000014335944
 41
1.310377704918074
 72
     5
 11
252.93498199999991
 21
-44.94977999999999
 31
0.0
  0
ENDBLK
  5
8D9
  8
0
  0
BLOCK
  8
0
  2
BLOCK38
 70
     0
 10
0.0
 20
0.0
 30
0.0
  3
BLOCK38
  1

  0
TEXT
  5
8DB
  8
0
 62
     7
 10
263.64273100000003
 20
11.20257599999999
 30
0.0
 40
3.0
  1
ISOLATING DISTANCE
 50
270.0
 41
1.3319680544217689
 72
     5
 11
263.64273100000003
 21
-37.747250000000001
 31
0.0
  0
ENDBLK
  5
8DC
  8
0
  0
BLOCK
  8
0
  2
BLOCK39
 70
     0
 10
0.0
 20
0.0
 30
0.0
  3
BLOCK39
  1

  0
LINE
  5
8DE
  8
0
 62
     2
 10
184.48692299999999
 20
38.251700999999997
 30
0.0
 11
185.23863199999991
 21
37.499996000000003
 31
0.0
  0
LINE
  5
8DF
  8
0
 62
     2
 10
185.35995500000001
 20
39.499996000000003
 30
0.0
 11
187.35995500000001
 21
37.499996000000003
 31
0.0
  0
LINE
  5
8E0
  8
0
 62
     2
 10
187.48127700000001
 20
39.499996000000003
 30
0.0
 11
189.48127700000001
 21
37.499996000000003
 31
0.0
  0
LINE
  5
8E1
  8
0
 62
     2
 10
189.602585
 20
39.499996000000003
 30
0.0
 11
191.602585
 21
37.499996000000003
 31
0.0
  0
LINE
  5
8E2
  8
0
 62
     2
 10
191.72390699999991
 20
39.499996000000003
 30
0.0
 11
193.723907
 21
37.499996000000003
 31
0.0
  0
LINE
  5
8E3
  8
0
 62
     2
 10
193.84522999999999
 20
39.499996000000003
 30
0.0
 11
195.84522999999999
 21
37.499996000000003
 31
0.0
  0
LINE
  5
8E4
  8
0
 62
     2
 10
195.966553
 20
39.499996000000003
 30
0.0
 11
197.966553
 21
37.499996000000003
 31
0.0
  0
LINE
  5
8E5
  8
0
 62
     2
 10
198.087875
 20
39.499996000000003
 30
0.0
 11
200.087875
 21
37.499996000000003
 31
0.0
  0
LINE
  5
8E6
  8
0
 62
     2
 10
200.2091979999999
 20
39.499996000000003
 30
0.0
 11
202.2091979999999
 21
37.499996000000003
 31
0.0
  0
LINE
  5
8E7
  8
0
 62
     2
 10
202.33050499999999
 20
39.499996000000003
 30
0.0
 11
204.33050499999999
 21
37.499996000000003
 31
0.0
  0
LINE
  5
8E8
  8
0
 62
     2
 10
204.45182800000001
 20
39.499996000000003
 30
0.0
 11
206.45182800000001
 21
37.499996000000003
 31
0.0
  0
LINE
  5
8E9
  8
0
 62
     2
 10
206.57315099999991
 20
39.499996000000003
 30
0.0
 11
208.573151
 21
37.499996000000003
 31
0.0
  0
LINE
  5
8EA
  8
0
 62
     2
 10
208.6944729999999
 20
39.499996000000003
 30
0.0
 11
210.6944729999999
 21
37.499996000000003
 31
0.0
  0
LINE
  5
8EB
  8
0
 62
     2
 10
210.81579600000001
 20
39.499996000000003
 30
0.0
 11
212.81579600000001
 21
37.499996000000003
 31
0.0
  0
LINE
  5
8EC
  8
0
 62
     2
 10
212.937119
 20
39.499996000000003
 30
0.0
 11
214.937119
 21
37.499996000000003
 31
0.0
  0
LINE
  5
8ED
  8
0
 62
     2
 10
215.05842599999991
 20
39.499996000000003
 30
0.0
 11
217.05842599999991
 21
37.499996000000003
 31
0.0
  0
LINE
  5
8EE
  8
0
 62
     2
 10
217.17974899999999
 20
39.499996000000003
 30
0.0
 11
219.17974899999999
 21
37.499996000000003
 31
0.0
  0
LINE
  5
8EF
  8
0
 62
     2
 10
219.30107100000001
 20
39.499996000000003
 30
0.0
 11
221.30107100000001
 21
37.499996000000003
 31
0.0
  0
LINE
  5
8F0
  8
0
 62
     2
 10
221.422394
 20
39.499996000000003
 30
0.0
 11
223.422394
 21
37.499996000000003
 31
0.0
  0
LINE
  5
8F1
  8
0
 62
     2
 10
223.54371599999999
 20
39.499996000000003
 30
0.0
 11
225.54371599999999
 21
37.499996000000003
 31
0.0
  0
LINE
  5
8F2
  8
0
 62
     2
 10
225.66503900000001
 20
39.499996000000003
 30
0.0
 11
227.66503899999989
 21
37.499996000000003
 31
0.0
  0
LINE
  5
8F3
  8
0
 62
     2
 10
227.786362
 20
39.499996000000003
 30
0.0
 11
229.786362
 21
37.499996000000003
 31
0.0
  0
LINE
  5
8F4
  8
0
 62
     2
 10
229.907669
 20
39.499996000000003
 30
0.0
 11
231.907669
 21
37.499996000000003
 31
0.0
  0
LINE
  5
8F5
  8
0
 62
     2
 10
232.02899199999999
 20
39.499996000000003
 30
0.0
 11
234.02899199999999
 21
37.499996000000003
 31
0.0
  0
LINE
  5
8F6
  8
0
 62
     2
 10
234.1503139999999
 20
39.499996000000003
 30
0.0
 11
236.1503139999999
 21
37.499996000000003
 31
0.0
  0
LINE
  5
8F7
  8
0
 62
     2
 10
236.271637
 20
39.499996000000003
 30
0.0
 11
238.271637
 21
37.499996000000003
 31
0.0
  0
LINE
  5
8F8
  8
0
 62
     2
 10
238.39295999999999
 20
39.499996000000003
 30
0.0
 11
240.39295999999999
 21
37.499996000000003
 31
0.0
  0
LINE
  5
8F9
  8
0
 62
     2
 10
240.51428200000001
 20
39.499996000000003
 30
0.0
 11
242.51428200000001
 21
37.499996000000003
 31
0.0
  0
LINE
  5
8FA
  8
0
 62
     2
 10
242.63558999999989
 20
39.499996000000003
 30
0.0
 11
244.63558999999989
 21
37.499996000000003
 31
0.0
  0
LINE
  5
8FB
  8
0
 62
     2
 10
244.756912
 20
39.499996000000003
 30
0.0
 11
245.140533
 21
39.116382999999992
 31
0.0
  0
ENDBLK
  5
8FC
  8
0
  0
BLOCK
  8
0
  2
BLOCK40
 70
     0
 10
0.0
 20
0.0
 30
0.0
  3
BLOCK40
  1

  0
LINE
  5
8FE
  8
0
 62
     2
 10
172.98692299999999
 20
39.145102999999999
 30
0.0
 11
174.632034
 21
37.499996000000003
 31
0.0
  0
LINE
  5
8FF
  8
0
 62
     2
 10
174.75335699999991
 20
39.499996000000003
 30
0.0
 11
176.753342
 21
37.499996000000003
 31
0.0
  0
LINE
  5
900
  8
0
 62
     2
 10
176.87466399999991
 20
39.499996000000003
 30
0.0
 11
177.48692299999999
 21
38.887740999999998
 31
0.0
  0
ENDBLK
  5
901
  8
0
  0
BLOCK
  8
0
  2
BLOCK41
 70
     0
 10
0.0
 20
0.0
 30
0.0
  3
BLOCK41
  1

  0
LINE
  5
903
  8
0
 62
     2
 10
113.486931
 20
39.248131000000001
 30
0.0
 11
115.235062
 21
37.499996000000003
 31
0.0
  0
LINE
  5
904
  8
0
 62
     2
 10
115.35638400000001
 20
39.499996000000003
 30
0.0
 11
117.35638400000001
 21
37.499996000000003
 31
0.0
  0
LINE
  5
905
  8
0
 62
     2
 10
117.477707
 20
39.499996000000003
 30
0.0
 11
119.477707
 21
37.499996000000003
 31
0.0
  0
LINE
  5
906
  8
0
 62
     2
 10
119.59902199999991
 20
39.499996000000003
 30
0.0
 11
121.59902199999991
 21
37.499996000000003
 31
0.0
  0
LINE
  5
907
  8
0
 62
     2
 10
121.7203449999999
 20
39.499996000000003
 30
0.0
 11
123.7203449999999
 21
37.499996000000003
 31
0.0
  0
LINE
  5
908
  8
0
 62
     2
 10
123.8416669999999
 20
39.499996000000003
 30
0.0
 11
125.8416669999999
 21
37.499996000000003
 31
0.0
  0
LINE
  5
909
  8
0
 62
     2
 10
125.962982
 20
39.499996000000003
 30
0.0
 11
127.962982
 21
37.499996000000003
 31
0.0
  0
LINE
  5
90A
  8
0
 62
     2
 10
128.084305
 20
39.499996000000003
 30
0.0
 11
130.084305
 21
37.499996000000003
 31
0.0
  0
LINE
  5
90B
  8
0
 62
     2
 10
130.20562699999999
 20
39.499996000000003
 30
0.0
 11
132.20562699999999
 21
37.499996000000003
 31
0.0
  0
LINE
  5
90C
  8
0
 62
     2
 10
132.32695000000001
 20
39.499996000000003
 30
0.0
 11
134.32695000000001
 21
37.499996000000003
 31
0.0
  0
LINE
  5
90D
  8
0
 62
     2
 10
134.44827299999989
 20
39.499996000000003
 30
0.0
 11
136.44827299999989
 21
37.499996000000003
 31
0.0
  0
LINE
  5
90E
  8
0
 62
     2
 10
136.56958
 20
39.499996000000003
 30
0.0
 11
138.56958
 21
37.499996000000003
 31
0.0
  0
LINE
  5
90F
  8
0
 62
     2
 10
138.69090299999991
 20
39.499996000000003
 30
0.0
 11
140.69090299999999
 21
37.499996000000003
 31
0.0
  0
LINE
  5
910
  8
0
 62
     2
 10
140.81222500000001
 20
39.499996000000003
 30
0.0
 11
142.81222500000001
 21
37.499996000000003
 31
0.0
  0
LINE
  5
911
  8
0
 62
     2
 10
142.93354799999989
 20
39.499996000000003
 30
0.0
 11
144.933548
 21
37.499996000000003
 31
0.0
  0
LINE
  5
912
  8
0
 62
     2
 10
145.05487099999991
 20
39.499996000000003
 30
0.0
 11
147.05487099999991
 21
37.499996000000003
 31
0.0
  0
LINE
  5
913
  8
0
 62
     2
 10
147.1761929999999
 20
39.499996000000003
 30
0.0
 11
149.1761929999999
 21
37.499996000000003
 31
0.0
  0
LINE
  5
914
  8
0
 62
     2
 10
149.29750100000001
 20
39.499996000000003
 30
0.0
 11
151.29750100000001
 21
37.499996000000003
 31
0.0
  0
LINE
  5
915
  8
0
 62
     2
 10
151.418823
 20
39.499996000000003
 30
0.0
 11
153.41882299999989
 21
37.499996000000003
 31
0.0
  0
LINE
  5
916
  8
0
 62
     2
 10
153.54014599999991
 20
39.499996000000003
 30
0.0
 11
155.54014599999991
 21
37.499996000000003
 31
0.0
  0
LINE
  5
917
  8
0
 62
     2
 10
155.6614689999999
 20
39.499996000000003
 30
0.0
 11
157.6614689999999
 21
37.499996000000003
 31
0.0
  0
LINE
  5
918
  8
0
 62
     2
 10
157.782791
 20
39.499996000000003
 30
0.0
 11
159.782791
 21
37.499996000000003
 31
0.0
  0
LINE
  5
919
  8
0
 62
     2
 10
159.90411399999991
 20
39.499996000000003
 30
0.0
 11
161.90411399999999
 21
37.499996000000003
 31
0.0
  0
LINE
  5
91A
  8
0
 62
     2
 10
162.02542099999991
 20
39.499996000000003
 30
0.0
 11
164.02542099999991
 21
37.499996000000003
 31
0.0
  0
LINE
  5
91B
  8
0
 62
     2
 10
164.1467439999999
 20
39.499996000000003
 30
0.0
 11
166.1467439999999
 21
37.499996000000003
 31
0.0
  0
LINE
  5
91C
  8
0
 62
     2
 10
166.268066
 20
39.499996000000003
 30
0.0
 11
168.268066
 21
37.499996000000003
 31
0.0
  0
LINE
  5
91D
  8
0
 62
     2
 10
168.38938899999999
 20
39.499996000000003
 30
0.0
 11
170.38938899999991
 21
37.499996000000003
 31
0.0
  0
LINE
  5
91E
  8
0
 62
     2
 10
170.51071200000001
 20
39.499996000000003
 30
0.0
 11
171.98692299999999
 21
38.023781
 31
0.0
  0
ENDBLK
  5
91F
  8
0
  0
BLOCK
  8
0
  2
BLOCK42
 70
     0
 10
0.0
 20
0.0
 30
0.0
  3
BLOCK42
  1

  0
LINE
  5
921
  8
0
 62
     2
 10
89.736931000000013
 20
37.54228599999999
 30
0.0
 11
89.779220999999978
 21
37.499996000000003
 31
0.0
  0
LINE
  5
922
  8
0
 62
     2
 10
89.900542999999999
 20
39.499996000000003
 30
0.0
 11
91.900542999999985
 21
37.499996000000003
 31
0.0
  0
LINE
  5
923
  8
0
 62
     2
 10
92.021857999999995
 20
39.499996000000003
 30
0.0
 11
94.021857999999995
 21
37.499996000000003
 31
0.0
  0
LINE
  5
924
  8
0
 62
     2
 10
94.143180999999998
 20
39.499996000000003
 30
0.0
 11
96.143181000000013
 21
37.499996000000003
 31
0.0
  0
LINE
  5
925
  8
0
 62
     2
 10
96.264503000000005
 20
39.499996000000003
 30
0.0
 11
98.264503000000005
 21
37.499996000000003
 31
0.0
  0
LINE
  5
926
  8
0
 62
     2
 10
98.385818
 20
39.499996000000003
 30
0.0
 11
100.3858179999999
 21
37.499996000000003
 31
0.0
  0
LINE
  5
927
  8
0
 62
     2
 10
100.5071409999999
 20
39.499996000000003
 30
0.0
 11
102.507141
 21
37.499996000000003
 31
0.0
  0
LINE
  5
928
  8
0
 62
     2
 10
102.62846399999999
 20
39.499996000000003
 30
0.0
 11
104.62846399999999
 21
37.499996000000003
 31
0.0
  0
LINE
  5
929
  8
0
 62
     2
 10
104.749786
 20
39.499996000000003
 30
0.0
 11
106.486931
 21
37.762847999999991
 31
0.0
  0
ENDBLK
  5
92A
  8
0
  0
BLOCK
  8
0
  2
BLOCK43
 70
     0
 10
0.0
 20
0.0
 30
0.0
  3
BLOCK43
  1

  0
LINE
  5
92C
  8
0
 62
     2
 10
47.986927000000001
 20
38.987206
 30
0.0
 11
49.474136000000001
 21
37.499996000000003
 31
0.0
  0
LINE
  5
92D
  8
0
 62
     2
 10
49.595459000000012
 20
39.499996000000003
 30
0.0
 11
51.595459000000012
 21
37.499996000000003
 31
0.0
  0
LINE
  5
92E
  8
0
 62
     2
 10
51.716778000000012
 20
39.499996000000003
 30
0.0
 11
53.716777999999998
 21
37.499996000000003
 31
0.0
  0
LINE
  5
92F
  8
0
 62
     2
 10
53.838096999999998
 20
39.499996000000003
 30
0.0
 11
55.838096999999991
 21
37.499996000000003
 31
0.0
  0
LINE
  5
930
  8
0
 62
     2
 10
55.95941899999999
 20
39.499996000000003
 30
0.0
 11
57.95941899999999
 21
37.499996000000003
 31
0.0
  0
LINE
  5
931
  8
0
 62
     2
 10
58.080737999999997
 20
39.499996000000003
 30
0.0
 11
60.080737999999997
 21
37.499996000000003
 31
0.0
  0
LINE
  5
932
  8
0
 62
     2
 10
60.202056999999989
 20
39.499996000000003
 30
0.0
 11
62.202057000000003
 21
37.499996000000003
 31
0.0
  0
LINE
  5
933
  8
0
 62
     2
 10
62.323380000000007
 20
39.499996000000003
 30
0.0
 11
64.32338
 21
37.499996000000003
 31
0.0
  0
LINE
  5
934
  8
0
 62
     2
 10
64.444702000000007
 20
39.499996000000003
 30
0.0
 11
66.444702000000007
 21
37.499996000000003
 31
0.0
  0
LINE
  5
935
  8
0
 62
     2
 10
66.566017000000002
 20
39.499996000000003
 30
0.0
 11
68.566017000000002
 21
37.499996000000003
 31
0.0
  0
LINE
  5
936
  8
0
 62
     2
 10
68.687340000000006
 20
39.499996000000003
 30
0.0
 11
70.687340000000006
 21
37.499996000000003
 31
0.0
  0
LINE
  5
937
  8
0
 62
     2
 10
70.808661999999984
 20
39.499996000000003
 30
0.0
 11
72.808661999999998
 21
37.499996000000003
 31
0.0
  0
LINE
  5
938
  8
0
 62
     2
 10
72.929976999999994
 20
39.499996000000003
 30
0.0
 11
74.929976999999994
 21
37.499996000000003
 31
0.0
  0
LINE
  5
939
  8
0
 62
     2
 10
75.051299999999998
 20
39.499996000000003
 30
0.0
 11
75.73712900000001
 21
38.814166999999991
 31
0.0
  0
ENDBLK
  5
93A
  8
0
  0
BLOCK
  8
0
  2
BLOCK44
 70
     0
 10
0.0
 20
0.0
 30
0.0
  3
BLOCK44
  1

  0
LINE
  5
93C
  8
0
 62
     2
 10
42.486927000000001
 20
38.123244999999997
 30
0.0
 11
43.110176000000003
 21
37.499996000000003
 31
0.0
  0
LINE
  5
93D
  8
0
 62
     2
 10
43.231498999999992
 20
39.499996000000003
 30
0.0
 11
45.231495000000002
 21
37.499996000000003
 31
0.0
  0
LINE
  5
93E
  8
0
 62
     2
 10
45.352817999999992
 20
39.499996000000003
 30
0.0
 11
46.986927000000001
 21
37.865887000000001
 31
0.0
  0
ENDBLK
  5
93F
  8
0
  0
BLOCK
  8
0
  2
BLOCK45
 70
     0
 10
0.0
 20
0.0
 30
0.0
  3
BLOCK45
  1

  0
LINE
  5
941
  8
0
 62
     2
 10
-37.352443999999998
 20
39.473770000000002
 30
0.0
 11
-35.37867
 21
37.499996000000003
 31
0.0
  0
LINE
  5
942
  8
0
 62
     2
 10
-35.257351
 20
39.499996000000003
 30
0.0
 11
-33.257351
 21
37.499996000000003
 31
0.0
  0
LINE
  5
943
  8
0
 62
     2
 10
-33.136032
 20
39.499996000000003
 30
0.0
 11
-31.136029999999991
 21
37.499996000000003
 31
0.0
  0
LINE
  5
944
  8
0
 62
     2
 10
-31.014709
 20
39.499996000000003
 30
0.0
 11
-29.014709
 21
37.499996000000003
 31
0.0
  0
LINE
  5
945
  8
0
 62
     2
 10
-28.89339099999999
 20
39.499996000000003
 30
0.0
 11
-26.89339099999999
 21
37.499996000000003
 31
0.0
  0
LINE
  5
946
  8
0
 62
     2
 10
-26.772069999999999
 20
39.499996000000003
 30
0.0
 11
-24.772069999999999
 21
37.499996000000003
 31
0.0
  0
LINE
  5
947
  8
0
 62
     2
 10
-24.65074899999999
 20
39.499996000000003
 30
0.0
 11
-22.65074899999999
 21
37.499996000000003
 31
0.0
  0
LINE
  5
948
  8
0
 62
     2
 10
-22.529427999999999
 20
39.499996000000003
 30
0.0
 11
-20.529429999999991
 21
37.499996000000003
 31
0.0
  0
LINE
  5
949
  8
0
 62
     2
 10
-20.408110000000001
 20
39.499996000000003
 30
0.0
 11
-18.408110000000001
 21
37.499996000000003
 31
0.0
  0
LINE
  5
94A
  8
0
 62
     2
 10
-18.286788999999999
 20
39.499996000000003
 30
0.0
 11
-16.286788999999999
 21
37.499996000000003
 31
0.0
  0
LINE
  5
94B
  8
0
 62
     2
 10
-16.165468000000001
 20
39.499996000000003
 30
0.0
 11
-14.165469
 21
37.499996000000003
 31
0.0
  0
LINE
  5
94C
  8
0
 62
     2
 10
-14.044148
 20
39.499996000000003
 30
0.0
 11
-12.044148
 21
37.499996000000003
 31
0.0
  0
LINE
  5
94D
  8
0
 62
     2
 10
-11.922829
 20
39.499996000000003
 30
0.0
 11
-9.9228290000000001
 21
37.499996000000003
 31
0.0
  0
LINE
  5
94E
  8
0
 62
     2
 10
-9.8015080000000001
 20
39.499996000000003
 30
0.0
 11
-7.8015080000000001
 21
37.499996000000003
 31
0.0
  0
LINE
  5
94F
  8
0
 62
     2
 10
-7.6801880000000002
 20
39.499996000000003
 30
0.0
 11
-5.6801879999999993
 21
37.499996000000003
 31
0.0
  0
LINE
  5
950
  8
0
 62
     2
 10
-5.5588670000000002
 20
39.499996000000003
 30
0.0
 11
-3.558867999999999
 21
37.499996000000003
 31
0.0
  0
LINE
  5
951
  8
0
 62
     2
 10
-3.437546999999999
 20
39.499996000000003
 30
0.0
 11
-1.437548
 21
37.499996000000003
 31
0.0
  0
LINE
  5
952
  8
0
 62
     2
 10
-1.316227
 20
39.499996000000003
 30
0.0
 11
0.6837720000000001
 21
37.499996000000003
 31
0.0
  0
LINE
  5
953
  8
0
 62
     2
 10
0.8050930000000001
 20
39.499996000000003
 30
0.0
 11
2.8050929999999989
 21
37.499996000000003
 31
0.0
  0
LINE
  5
954
  8
0
 62
     2
 10
2.9264130000000002
 20
39.499996000000003
 30
0.0
 11
4.9264130000000002
 21
37.499996000000003
 31
0.0
  0
LINE
  5
955
  8
0
 62
     2
 10
5.047733
 20
39.499996000000003
 30
0.0
 11
7.047733
 21
37.499996000000003
 31
0.0
  0
LINE
  5
956
  8
0
 62
     2
 10
7.1690539999999991
 20
39.499996000000003
 30
0.0
 11
9.1690529999999981
 21
37.499996000000003
 31
0.0
  0
LINE
  5
957
  8
0
 62
     2
 10
9.2903739999999981
 20
39.499996000000003
 30
0.0
 11
11.290374
 21
37.499996000000003
 31
0.0
  0
LINE
  5
958
  8
0
 62
     2
 10
11.411694000000001
 20
39.499996000000003
 30
0.0
 11
13.411694000000001
 21
37.499996000000003
 31
0.0
  0
LINE
  5
959
  8
0
 62
     2
 10
13.533014
 20
39.499996000000003
 30
0.0
 11
15.533014
 21
37.499996000000003
 31
0.0
  0
LINE
  5
95A
  8
0
 62
     2
 10
15.654334
 20
39.499996000000003
 30
0.0
 11
17.654335
 21
37.499996000000003
 31
0.0
  0
LINE
  5
95B
  8
0
 62
     2
 10
17.775653999999999
 20
39.499996000000003
 30
0.0
 11
19.775653999999989
 21
37.499996000000003
 31
0.0
  0
LINE
  5
95C
  8
0
 62
     2
 10
19.896975000000001
 20
39.499996000000003
 30
0.0
 11
21.896975000000001
 21
37.499996000000003
 31
0.0
  0
LINE
  5
95D
  8
0
 62
     2
 10
22.018294999999998
 20
39.499996000000003
 30
0.0
 11
24.018294999999998
 21
37.499996000000003
 31
0.0
  0
LINE
  5
95E
  8
0
 62
     2
 10
24.139616
 20
39.499996000000003
 30
0.0
 11
26.139614000000002
 21
37.499996000000003
 31
0.0
  0
LINE
  5
95F
  8
0
 62
     2
 10
26.260934999999989
 20
39.499996000000003
 30
0.0
 11
28.260934999999989
 21
37.499996000000003
 31
0.0
  0
LINE
  5
960
  8
0
 62
     2
 10
28.382255999999991
 20
39.499996000000003
 30
0.0
 11
30.382256000000002
 21
37.499996000000003
 31
0.0
  0
LINE
  5
961
  8
0
 62
     2
 10
30.503575999999999
 20
39.499996000000003
 30
0.0
 11
32.503574
 21
37.499996000000003
 31
0.0
  0
LINE
  5
962
  8
0
 62
     2
 10
32.62489699999999
 20
39.499996000000003
 30
0.0
 11
34.62489699999999
 21
37.499996000000003
 31
0.0
  0
LINE
  5
963
  8
0
 62
     2
 10
34.74621599999999
 20
39.499996000000003
 30
0.0
 11
35.486927000000001
 21
38.759284999999998
 31
0.0
  0
ENDBLK
  5
964
  8
0
  0
BLOCK
  8
0
  2
BLOCK46
 70
     0
 10
0.0
 20
0.0
 30
0.0
  3
BLOCK46
  1

  0
LINE
  5
966
  8
0
 62
     2
 10
163.98706100000001
 20
29.053082
 30
0.0
 11
165.04014599999991
 21
27.999998000000001
 31
0.0
  0
LINE
  5
967
  8
0
 62
     2
 10
164.66145299999991
 20
30.500004000000001
 30
0.0
 11
167.16146900000001
 21
27.999998000000001
 31
0.0
  0
LINE
  5
968
  8
0
 62
     2
 10
166.78277600000001
 20
30.500004000000001
 30
0.0
 11
169.282791
 21
27.999998000000001
 31
0.0
  0
LINE
  5
969
  8
0
 62
     2
 10
168.904099
 20
30.500004000000001
 30
0.0
 11
171.40409899999989
 21
27.999998000000001
 31
0.0
  0
LINE
  5
96A
  8
0
 62
     2
 10
171.02542099999991
 20
30.500004000000001
 30
0.0
 11
172.98706100000001
 21
28.538363
 31
0.0
  0
ENDBLK
  5
96B
  8
0
  0
BLOCK
  8
0
  2
BLOCK47
 70
     0
 10
0.0
 20
0.0
 30
0.0
  3
BLOCK47
  1

  0
TEXT
  5
96D
  8
0
 62
     7
 10
-96.0
 20
-3.0
 30
0.0
 40
3.0
  1
X
 50
180.0
 41
0.9777764444444425
 72
     5
 11
-98.199996999999996
 21
-3.0
 31
0.0
  0
ENDBLK
  5
96E
  8
0
  0
BLOCK
  8
0
  2
BLOCK48
 70
     0
 10
0.0
 20
0.0
 30
0.0
  3
BLOCK48
  1

  0
TEXT
  5
970
  8
0
 62
     7
 10
146.0
 20
0.0
 30
0.0
 40
3.0
  1
X
 50
180.0
 41
0.9777764444444425
 72
     5
 11
143.80000299999989
 21
0.0
 31
0.0
  0
ENDBLK
  5
971
  8
0
  0
BLOCK
  8
0
  2
BLOCK49
 70
     0
 10
0.0
 20
0.0
 30
0.0
  3
BLOCK49
  1

  0
TEXT
  5
973
  8
0
 62
     7
 10
1.0
 20
-125.0
 30
0.0
 40
3.0
  1
Y
 50
180.0
 41
0.9777777777777778
 72
     5
 11
-1.1999999999999991
 21
-125.0
 31
0.0
  0
ENDBLK
  5
974
  8
0
  0
BLOCK
  8
0
  2
BLOCK50
 70
     0
 10
0.0
 20
0.0
 30
0.0
  3
BLOCK50
  1

  0
TEXT
  5
976
  8
0
 62
     7
 10
2.0
 20
199.0
 30
0.0
 40
3.0
  1
Y
 50
180.0
 41
0.9777777777777778
 72
     5
 11
-0.2
 21
199.0
 31
0.0
  0
ENDBLK
  5
977
  8
0
  0
BLOCK
  8
0
  2
BLOCK51
 70
     0
 10
0.0
 20
0.0
 30
0.0
  3
BLOCK51
  1

  0
TEXT
  5
979
  8
0
 62
     7
 10
191.28906299999991
 20
137.28756699999991
 30
0.0
 40
3.0
  1
 5
 50
212.16907711288269
 41
1.6642712179118559
 72
     5
 11
187.09899899999991
 21
134.6520999999999
 31
0.0
  0
ENDBLK
  5
97A
  8
0
  0
BLOCK
  8
0
  2
BLOCK52
 70
     0
 10
0.0
 20
0.0
 30
0.0
  3
BLOCK52
  1

  0
TEXT
  5
97C
  8
0
 62
     7
 10
192.64343299999999
 20
138.13943499999999
 30
0.0
 40
3.0
  1
%%c
 50
212.16912322799229
 41
0.9777791092270867
 72
     5
 11
190.78117399999991
 21
136.968109
 31
0.0
  0
ENDBLK
  5
97D
  8
0
  0
BLOCK
  8
0
  2
BLOCK53
 70
     0
 10
0.0
 20
0.0
 30
0.0
  3
BLOCK53
  1

  0
TEXT
  5
97F
  8
0
 62
     7
 10
172.666504
 20
125.574341
 30
0.0
 40
3.0
  1
 (M4)
 50
212.16911195962359
 41
1.600224488236758
 72
     5
 11
161.49299599999989
 21
118.54641699999991
 31
0.0
  0
ENDBLK
  5
980
  8
0
  0
BLOCK
  8
0
  2
BLOCK54
 70
     0
 10
0.0
 20
0.0
 30
0.0
  3
BLOCK54
  1

  0
TEXT
  5
982
  8
0
 62
     7
 10
-103.268066
 20
16.5
 30
0.0
 40
3.0
  1
100
 50
269.99994047176278
 41
1.4660032381388619
 72
     5
 11
-103.2680739999999
 21
8.8000199999999982
 31
0.0
  0
ENDBLK
  5
983
  8
0
  0
BLOCK
  8
0
  2
BLOCK55
 70
     0
 10
0.0
 20
0.0
 30
0.0
  3
BLOCK55
  1

  0
TEXT
  5
985
  8
0
 62
     7
 10
-37.0
 20
134.743469
 30
0.0
 40
3.0
  1
25
 50
180.0
 41
1.2776591662854091
 72
     5
 11
-41.949989000000002
 21
134.743469
 31
0.0
  0
ENDBLK
  5
986
  8
0
  0
BLOCK
  8
0
  2
BLOCK56
 70
     0
 10
0.0
 20
0.0
 30
0.0
  3
BLOCK56
  1

  0
TEXT
  5
988
  8
0
 62
     7
 10
-12.0
 20
171.426208
 30
0.0
 40
3.0
  1
45
 50
180.0
 41
1.185835136090813
 72
     5
 11
-16.949988999999999
 21
171.426208
 31
0.0
  0
ENDBLK
  5
989
  8
0
  0
BLOCK
  8
0
  2
BLOCK57
 70
     0
 10
0.0
 20
0.0
 30
0.0
  3
BLOCK57
  1

  0
TEXT
  5
98B
  8
0
 62
     7
 10
-47.0
 20
-119.2830049999999
 30
0.0
 40
3.0
  1
35
 50
180.0
 41
1.2776591662854091
 72
     5
 11
-51.949989000000002
 21
-119.2830049999999
 31
0.0
  0
ENDBLK
  5
98C
  8
0
  0
BLOCK
  8
0
  2
BLOCK58
 70
     0
 10
0.0
 20
0.0
 30
0.0
  3
BLOCK58
  1

  0
TEXT
  5
98E
  8
0
 62
     7
 10
69.0
 20
-119.2830049999999
 30
0.0
 40
3.0
  1
35
 50
180.0
 41
1.2776591662854091
 72
     5
 11
64.050010999999984
 21
-119.2830049999999
 31
0.0
  0
ENDBLK
  5
98F
  8
0
  0
BLOCK
  8
0
  2
BLOCK59
 70
     0
 10
0.0
 20
0.0
 30
0.0
  3
BLOCK59
  1

  0
TEXT
  5
991
  8
0
 62
     7
 10
-138.77880899999991
 20
16.5
 30
0.0
 40
3.0
  1
143
 50
269.99988838455522
 41
1.357000644801243
 72
     5
 11
-138.7788239999999
 21
8.8000199999999982
 31
0.0
  0
ENDBLK
  5
992
  8
0
  0
BLOCK
  8
0
  2
BLOCK60
 70
     0
 10
0.0
 20
0.0
 30
0.0
  3
BLOCK60
  1

  0
TEXT
  5
994
  8
0
 62
     7
 10
-100.934326
 20
-95.078522000000007
 30
0.0
 40
3.0
  1
 14
 50
196.4025570591979
 41
1.65591026350836
 72
     5
 11
-108.32093
 21
-97.252876000000015
 31
0.0
  0
ENDBLK
  5
995
  8
0
  0
BLOCK
  8
0
  2
BLOCK61
 70
     0
 10
0.0
 20
0.0
 30
0.0
  3
BLOCK61
  1

  0
TEXT
  5
997
  8
0
 62
     7
 10
-100.934326
 20
-95.078522000000007
 30
0.0
 40
3.0
  1
R
 50
196.40255029335219
 41
1.1282066817788829
 72
     5
 11
-103.044792
 21
-95.699768000000006
 31
0.0
  0
ENDBLK
  5
998
  8
0
  0
BLOCK
  8
0
  2
BLOCK62
 70
     0
 10
0.0
 20
0.0
 30
0.0
  3
BLOCK62
  1

  0
TEXT
  5
99A
  8
0
 62
     7
 10
93.718750000000014
 20
-3.4010009999999999
 30
0.0
 40
3.0
  1
52,25
 50
270.0000347248174
 41
1.446687743865994
 72
     5
 11
93.718757999999994
 21
-16.600961999999988
 31
0.0
  0
ENDBLK
  5
99B
  8
0
  0
BLOCK
  8
0
  2
BLOCK63
 70
     0
 10
0.0
 20
0.0
 30
0.0
  3
BLOCK63
  1

  0
TEXT
  5
99D
  8
0
 62
     7
 10
126.500732
 20
70.091583
 30
0.0
 40
3.0
  1
73,75
 50
270.00003472482263
 41
1.446687524670234
 72
     5
 11
126.50073999999999
 21
56.891624
 31
0.0
  0
ENDBLK
  5
99E
  8
0
  0
BLOCK
  8
0
  2
BLOCK64
 70
     0
 10
0.0
 20
0.0
 30
0.0
  3
BLOCK64
  1

  0
TEXT
  5
9A0
  8
0
 62
     7
 10
-51.724243000000001
 20
19.315139999999989
 30
0.0
 40
3.0
  1
48
 50
270.0
 41
1.2222200000000001
 72
     5
 11
-51.724243000000001
 21
14.36514899999999
 31
0.0
  0
ENDBLK
  5
9A1
  8
0
  0
BLOCK
  8
0
  2
BLOCK65
 70
     0
 10
0.0
 20
0.0
 30
0.0
  3
BLOCK65
  1

  0
TEXT
  5
9A3
  8
0
 62
     7
 10
-35.928162
 20
-3.93486
 30
0.0
 40
3.0
  1
100
 50
270.0
 41
1.4660032381380701
 72
     5
 11
-35.928162
 21
-11.63483999999999
 31
0.0
  0
ENDBLK
  5
9A4
  8
0
  0
BLOCK
  8
0
  2
BLOCK66
 70
     0
 10
0.0
 20
0.0
 30
0.0
  3
BLOCK66
  1

  0
TEXT
  5
9A6
  8
0
 62
     7
 10
-114.0
 20
-77.0
 30
0.0
 40
3.0
  1
Y
 50
180.0
 41
0.9777764444444427
 72
     5
 11
-116.1999969999999
 21
-77.0
 31
0.0
  0
ENDBLK
  5
9A7
  8
0
  0
BLOCK
  8
0
  2
BLOCK67
 70
     0
 10
0.0
 20
0.0
 30
0.0
  3
BLOCK67
  1

  0
TEXT
  5
9A9
  8
0
 62
     7
 10
-114.0
 20
104.0
 30
0.0
 40
3.0
  1
Y
 50
180.0
 41
0.9777764444444427
 72
     5
 11
-116.1999969999999
 21
104.0
 31
0.0
  0
ENDBLK
  5
9AA
  8
0
  0
BLOCK
  8
0
  2
BLOCK68
 70
     0
 10
0.0
 20
0.0
 30
0.0
  3
BLOCK68
  1

  0
TEXT
  5
9AC
  8
0
 62
     7
 10
-56.973297000000002
 20
-24.105765999999999
 30
0.0
 40
3.0
  1
12
 50
180.0
 41
1.4864041023094701
 72
     5
 11
-61.92328599999999
 21
-24.105765999999999
 31
0.0
  0
ENDBLK
  5
9AD
  8
0
  0
BLOCK
  8
0
  2
BLOCK69
 70
     0
 10
0.0
 20
0.0
 30
0.0
  3
BLOCK69
  1

  0
TEXT
  5
9AF
  8
0
 62
     7
 10
-51.473297000000002
 20
-24.105765999999999
 30
0.0
 40
3.0
  1
M
 50
180.0
 41
0.9777782222222223
 72
     5
 11
-53.673298000000003
 21
-24.105765999999999
 31
0.0
  0
ENDBLK
  5
9B0
  8
0
  0
BLOCK
  8
0
  2
BLOCK70
 70
     0
 10
0.0
 20
0.0
 30
0.0
  3
BLOCK70
  1

  0
TEXT
  5
9B2
  8
0
 62
     7
 10
1.0
 20
203.0
 30
0.0
 40
3.0
  1
X
 50
90.0
 41
0.9777764444444425
 72
     5
 11
1.0
 21
205.19999699999991
 31
0.0
  0
ENDBLK
  5
9B3
  8
0
  0
BLOCK
  8
0
  2
BLOCK71
 70
     0
 10
0.0
 20
0.0
 30
0.0
  3
BLOCK71
  1

  0
TEXT
  5
9B5
  8
0
 62
     7
 10
-157.0
 20
-1.0
 30
0.0
 40
3.0
  1
Y
 50
90.0
 41
0.9777777777777778
 72
     5
 11
-157.0
 21
1.1999999999999991
 31
0.0
  0
ENDBLK
  5
9B6
  8
0
  0
BLOCK
  8
0
  2
BLOCK72
 70
     0
 10
0.0
 20
0.0
 30
0.0
  3
BLOCK72
  1

  0
TEXT
  5
9B8
  8
0
 62
     7
 10
186.5364229999999
 20
-3.7605589999999989
 30
0.0
 40
3.0
  1
Y
 50
90.0
 41
0.9777777777777776
 72
     5
 11
186.5364229999999
 21
-1.560559
 31
0.0
  0
ENDBLK
  5
9B9
  8
0
  0
BLOCK
  8
0
  2
BLOCK73
 70
     0
 10
0.0
 20
0.0
 30
0.0
  3
BLOCK73
  1

  0
TEXT
  5
9BB
  8
0
 62
     7
 10
-142.934662
 20
20.5
 30
0.0
 40
3.0
  1
63
 50
90.0
 41
1.2776591662854091
 72
     5
 11
-142.934662
 21
25.449988999999999
 31
0.0
  0
ENDBLK
  5
9BC
  8
0
  0
BLOCK
  8
0
  2
BLOCK74
 70
     0
 10
0.0
 20
0.0
 30
0.0
  3
BLOCK74
  1

  0
TEXT
  5
9BE
  8
0
 62
     7
 10
-175.88308699999999
 20
-21.0
 30
0.0
 40
3.0
  1
135
 50
90.0
 41
1.432750587160017
 72
     5
 11
-175.88308699999999
 21
-13.30002
 31
0.0
  0
ENDBLK
  5
9BF
  8
0
  0
BLOCK
  8
0
  2
BLOCK75
 70
     0
 10
0.0
 20
0.0
 30
0.0
  3
BLOCK75
  1

  0
TEXT
  5
9C1
  8
0
 62
     7
 10
98.069702000000021
 20
29.5
 30
0.0
 40
3.0
  1
81
 50
90.0
 41
1.571425079365079
 72
     5
 11
98.069702000000021
 21
34.449989000000002
 31
0.0
  0
ENDBLK
  5
9C2
  8
0
  0
BLOCK
  8
0
  2
BLOCK76
 70
     0
 10
0.0
 20
0.0
 30
0.0
  3
BLOCK76
  1

  0
TEXT
  5
9C4
  8
0
 62
     7
 10
126.482727
 20
2.0
 30
0.0
 40
3.0
  1
125
 50
90.0
 41
1.432750587160017
 72
     5
 11
126.482727
 21
9.69998
 31
0.0
  0
ENDBLK
  5
9C5
  8
0
  0
BLOCK
  8
0
  2
BLOCK77
 70
     0
 10
0.0
 20
0.0
 30
0.0
  3
BLOCK77
  1

  0
TEXT
  5
9C7
  8
0
 62
     7
 10
-15.944335999999989
 20
36.0
 30
0.0
 40
3.0
  1
94
 50
89.99997685013868
 41
1.2190640892680471
 72
     5
 11
-15.944333999999991
 21
40.949989000000002
 31
0.0
  0
ENDBLK
  5
9C8
  8
0
  0
BLOCK
  8
0
  2
BLOCK78
 70
     0
 10
0.0
 20
0.0
 30
0.0
  3
BLOCK78
  1

  0
TEXT
  5
9CA
  8
0
 62
     7
 10
40.158935999999997
 20
28.069884999999999
 30
0.0
 40
3.0
  1
16
 50
179.9999537002866
 41
1.5005340255405279
 72
     5
 11
35.208945999999997
 21
28.069889
 31
0.0
  0
ENDBLK
  5
9CB
  8
0
  0
BLOCK
  8
0
  2
BLOCK79
 70
     0
 10
0.0
 20
0.0
 30
0.0
  3
BLOCK79
  1

  0
TEXT
  5
9CD
  8
0
 62
     7
 10
18.75
 20
190.662994
 30
0.0
 40
3.0
  1
142
 50
180.0
 41
1.3437594995413831
 72
     5
 11
11.05002
 21
190.662994
 31
0.0
  0
ENDBLK
  5
9CE
  8
0
  0
BLOCK
  8
0
  2
BLOCK80
 70
     0
 10
0.0
 20
0.0
 30
0.0
  3
BLOCK80
  1

  0
TEXT
  5
9D0
  8
0
 62
     7
 10
18.75
 20
-111.8509219999999
 30
0.0
 40
3.0
  1
126
 50
179.9999404717627
 41
1.4262341719543901
 72
     5
 11
11.05002
 21
-111.850914
 31
0.0
  0
ENDBLK
  5
9D1
  8
0
  0
BLOCK
  8
0
  2
BLOCK81
 70
     0
 10
0.0
 20
0.0
 30
0.0
  3
BLOCK81
  1

  0
TEXT
  5
9D3
  8
0
 62
     7
 10
-33.25
 20
165.37545800000001
 30
0.0
 40
3.0
  1
=
 50
180.0
 41
1.333333939393939
 72
     5
 11
-35.450001
 21
165.37545800000001
 31
0.0
  0
ENDBLK
  5
9D4
  8
0
  0
BLOCK
  8
0
  2
BLOCK82
 70
     0
 10
0.0
 20
0.0
 30
0.0
  3
BLOCK82
  1

  0
TEXT
  5
9D6
  8
0
 62
     7
 10
37.75
 20
165.37545800000001
 30
0.0
 40
3.0
  1
=
 50
180.0
 41
1.333333939393939
 72
     5
 11
35.549999
 21
165.37545800000001
 31
0.0
  0
ENDBLK
  5
9D7
  8
0
  0
BLOCK
  8
0
  2
BLOCK83
 70
     0
 10
0.0
 20
0.0
 30
0.0
  3
BLOCK83
  1

  0
TEXT
  5
9D9
  8
0
 62
     7
 10
-9.75
 20
144.7707979999999
 30
0.0
 40
3.0
  1
27,25
 50
179.9999348909673
 41
1.446687743866663
 72
     5
 11
-22.949960999999998
 21
144.77081299999989
 31
0.0
  0
ENDBLK
  5
9DA
  8
0
  0
BLOCK
  8
0
  2
BLOCK84
 70
     0
 10
0.0
 20
0.0
 30
0.0
  3
BLOCK84
  1

  0
TEXT
  5
9DC
  8
0
 62
     7
 10
44.479644999999998
 20
-97.314423000000005
 30
0.0
 40
3.0
  1
=     =
 50
180.0
 41
1.917942769230768
 72
     5
 11
25.779703000000001
 21
-97.314423000000005
 31
0.0
  0
ENDBLK
  5
9DD
  8
0
  0
BLOCK
  8
0
  2
BLOCK85
 70
     0
 10
0.0
 20
0.0
 30
0.0
  3
BLOCK85
  1

  0
TEXT
  5
9DF
  8
0
 62
     7
 10
-113.18023700000001
 20
-56.5
 30
0.0
 40
3.0
  1
45
 50
90.0
 41
1.185835136090813
 72
     5
 11
-113.18023700000001
 21
-51.550010999999991
 31
0.0
  0
ENDBLK
  5
9E0
  8
0
  0
BLOCK
  8
0
  2
BLOCK86
 70
     0
 10
0.0
 20
0.0
 30
0.0
  3
BLOCK86
  1

  0
TEXT
  5
9E2
  8
0
 62
     7
 10
-12.0
 20
-137.60672
 30
0.0
 40
3.0
  1
72,5
 50
179.99991775701821
 41
1.4876960629310481
 72
     5
 11
-22.44997
 21
-137.60670500000001
 31
0.0
  0
ENDBLK
  5
9E3
  8
0
  0
BLOCK
  8
0
  2
BLOCK87
 70
     0
 10
0.0
 20
0.0
 30
0.0
  3
BLOCK87
  1

  0
TEXT
  5
9E5
  8
0
 62
     7
 10
158.56886299999991
 20
8.2120669999999993
 30
0.0
 40
3.0
  1
R min.200
 50
90.0
 41
1.50756129791774
 72
     5
 11
158.56886299999991
 21
32.411986999999989
 31
0.0
  0
ENDBLK
  5
9E6
  8
0
  0
BLOCK
  8
0
  2
BLOCK88
 70
     0
 10
0.0
 20
0.0
 30
0.0
  3
BLOCK88
  1

  0
TEXT
  5
9E8
  8
0
 62
     7
 10
-161.41625999999999
 20
168.32591199999999
 30
0.0
 40
3.0
  1
8
 50
136.2494211711759
 41
1.3333221349127371
 72
     5
 11
-163.00543200000001
 21
169.8472439999999
 31
0.0
  0
TEXT
  5
9E9
  8
0
 62
     7
 10
-159.1047209999999
 20
166.11305200000001
 30
0.0
 40
3.0
  1
%%c
 50
136.2494211711759
 41
0.9777695656026917
 72
     5
 11
-160.693893
 21
167.63438400000001
 31
0.0
  0
TEXT
  5
9EA
  8
0
 62
     7
 10
-146.680161
 20
154.218918
 30
0.0
 40
3.0
  1
3 fori
 50
136.2495453454593
 41
1.7142859646969479
 72
     5
 11
-158.38237000000001
 21
165.42152400000001
 31
0.0
  0
POLYLINE
  5
9EB
  8
0
 62
     7
 66
     1
 10
0.0
 20
0.0
 30
0.0
  0
VERTEX
  5
C45
  8
0
 62
     7
 10
-67.614013999999997
 20
79.195914999999999
 30
0.0
  0
VERTEX
  5
C46
  8
0
 62
     7
 10
-65.860573000000002
 20
78.233924999999999
 30
0.0
  0
VERTEX
  5
C47
  8
0
 62
     7
 10
-66.898102000000009
 20
79.943756000000008
 30
0.0
  0
SEQEND
  5
C48
  8
0
 62
     7
  0
POLYLINE
  5
9F0
  8
0
 62
     7
 66
     1
 10
0.0
 20
0.0
 30
0.0
  0
VERTEX
  5
C49
  8
0
 62
     7
 10
-69.885986000000003
 20
82.804085000000001
 30
0.0
  0
VERTEX
  5
C4A
  8
0
 62
     7
 10
-71.639426999999984
 20
83.766075000000001
 30
0.0
  0
VERTEX
  5
C4B
  8
0
 62
     7
 10
-70.601897999999991
 20
82.056243999999992
 30
0.0
  0
SEQEND
  5
C4C
  8
0
 62
     7
  0
LINE
  5
9F5
  8
0
 62
     7
 10
-162.313919
 20
170.56961100000001
 30
0.0
 11
-65.860573000000002
 21
78.233924999999999
 31
0.0
  0
ENDBLK
  5
9F6
  8
0
  0
BLOCK
  8
0
  2
BLOCK89
 70
     0
 10
0.0
 20
0.0
 30
0.0
  3
BLOCK89
  1

  0
TEXT
  5
9F8
  8
0
 62
     7
 10
-105.398735
 20
-111.1385499999999
 30
0.0
 40
3.0
  1
7
 50
62.120596877427708
 41
1.333335164620377
 72
     5
 11
-104.3699869999999
 21
-109.1938929999999
 31
0.0
  0
TEXT
  5
9F9
  8
0
 62
     7
 10
-107.26919599999989
 20
-114.67427099999991
 30
0.0
 40
3.0
  1
%%c
 50
62.120341820604793
 41
1.3333332765280681
 72
     5
 11
-105.866348
 21
-112.0224759999999
 31
0.0
  0
POLYLINE
  5
9FA
  8
0
 62
     7
 66
     1
 10
0.0
 20
0.0
 30
0.0
  0
VERTEX
  5
C4D
  8
0
 62
     7
 10
-66.667541999999983
 20
-38.95655399999999
 30
0.0
  0
VERTEX
  5
C4E
  8
0
 62
     7
 10
-67.113349999999997
 20
-40.906238999999992
 30
0.0
  0
VERTEX
  5
C4F
  8
0
 62
     7
 10
-65.752426
 20
-39.440666
 30
0.0
  0
SEQEND
  5
C50
  8
0
 62
     7
  0
POLYLINE
  5
9FF
  8
0
 62
     7
 66
     1
 10
0.0
 20
0.0
 30
0.0
  0
VERTEX
  5
C51
  8
0
 62
     7
 10
-70.832458000000003
 20
-49.043446000000003
 30
0.0
  0
VERTEX
  5
C52
  8
0
 62
     7
 10
-70.386650000000003
 20
-47.093761000000001
 30
0.0
  0
VERTEX
  5
C53
  8
0
 62
     7
 10
-71.747574
 20
-48.559334
 30
0.0
  0
SEQEND
  5
C54
  8
0
 62
     7
  0
LINE
  5
A04
  8
0
 62
     7
 10
-106.385262
 20
-115.1418909999999
 30
0.0
 11
-64.775268999999994
 21
-36.486575999999992
 31
0.0
  0
ENDBLK
  5
A05
  8
0
  0
BLOCK
  8
0
  2
BLOCK90
 70
     0
 10
0.0
 20
0.0
 30
0.0
  3
BLOCK90
  1

  0
TEXT
  5
A07
  8
0
 62
     7
 10
111.36222099999991
 20
156.4775239999999
 30
0.0
 40
3.0
  1
7
 50
62.531016854153293
 41
1.3333275464090719
 72
     5
 11
112.37700700000001
 21
158.4294889999999
 31
0.0
  0
TEXT
  5
A08
  8
0
 62
     7
 10
109.5171429999999
 20
152.92848199999989
 30
0.0
 40
3.0
  1
%%c
 50
62.53094795585401
 41
1.333330155929626
 72
     5
 11
110.900948
 21
155.59025600000001
 31
0.0
  0
POLYLINE
  5
A09
  8
0
 62
     7
 66
     1
 10
0.0
 20
0.0
 30
0.0
  0
VERTEX
  5
C55
  8
0
 62
     7
 10
75.296265000000005
 20
86.058234999999996
 30
0.0
  0
VERTEX
  5
C56
  8
0
 62
     7
 10
74.864440999999985
 20
84.105407999999997
 30
0.0
  0
VERTEX
  5
C57
  8
0
 62
     7
 10
76.214827999999983
 20
85.580696000000003
 30
0.0
  0
SEQEND
  5
C58
  8
0
 62
     7
  0
POLYLINE
  5
A0E
  8
0
 62
     7
 66
     1
 10
0.0
 20
0.0
 30
0.0
  0
VERTEX
  5
C59
  8
0
 62
     7
 10
71.203734999999995
 20
75.941765000000004
 30
0.0
  0
VERTEX
  5
C5A
  8
0
 62
     7
 10
71.635559000000001
 20
77.894592000000003
 30
0.0
  0
VERTEX
  5
C5B
  8
0
 62
     7
 10
70.285172000000003
 20
76.419303999999997
 30
0.0
  0
SEQEND
  5
C5C
  8
0
 62
     7
  0
LINE
  5
A13
  8
0
 62
     7
 10
69.329207999999994
 20
73.458290000000005
 30
0.0
 11
113.264275
 21
157.968231
 31
0.0
  0
ENDBLK
  5
A14
  8
0
  0
BLOCK
  8
0
  2
BLOCK91
 70
     0
 10
0.0
 20
0.0
 30
0.0
  3
BLOCK91
  1

  0
TEXT
  5
A16
  8
0
 62
     7
 10
-5.9100650000000003
 20
-21.445678999999998
 30
0.0
 40
3.0
  1
%%c4
 50
179.9999537002866
 41
1.0645139784949711
 72
     5
 11
-10.860054999999999
 21
-21.445675000000001
 31
0.0
  0
ENDBLK
  5
A17
  8
0
  0
BLOCK
  8
0
  2
BLOCK92
 70
     0
 10
0.0
 20
0.0
 30
0.0
  3
BLOCK92
  1

  0
TEXT
  5
A19
  8
0
 62
     7
 10
4.125
 20
16.886779999999991
 30
0.0
 40
3.0
  1
80%%d
 50
179.999955353822
 41
1.3873837837842049
 72
     5
 11
-3.57498
 21
16.88678599999999
 31
0.0
  0
ENDBLK
  5
A1A
  8
0
  0
BLOCK
  8
0
  2
BLOCK93
 70
     0
 10
0.0
 20
0.0
 30
0.0
  3
BLOCK93
  1

  0
TEXT
  5
A1C
  8
0
 62
     7
 10
-20.04721799999999
 20
-13.413207999999999
 30
0.0
 40
4.0
  1
PART. Z
 50
90.0
 41
1.3391355376344081
 72
     5
 11
-20.04721799999999
 21
11.494713000000001
 31
0.0
  0
ENDBLK
  5
A1D
  8
0
  0
BLOCK
  8
0
  2
BLOCK94
 70
     0
 10
0.0
 20
0.0
 30
0.0
  3
BLOCK94
  1

  0
LINE
  5
A1F
  8
0
 62
     2
 10
-3.2426400000000002
 20
-1.0
 30
0.0
 11
-5.2426399999999989
 21
1.0
 31
0.0
  0
LINE
  5
A20
  8
0
 62
     2
 10
-5.3639609999999989
 20
-1.0
 30
0.0
 11
-7.3639599999999996
 21
1.0
 31
0.0
  0
LINE
  5
A21
  8
0
 62
     2
 10
-7.4852809999999987
 20
-1.0
 30
0.0
 11
-9.4852810000000005
 21
1.0
 31
0.0
  0
LINE
  5
A22
  8
0
 62
     2
 10
-9.6066009999999995
 20
-1.0
 30
0.0
 11
-11.606601
 21
1.0
 31
0.0
  0
LINE
  5
A23
  8
0
 62
     2
 10
-11.727921
 20
-1.0
 30
0.0
 11
-11.976111
 21
-0.7518100000000001
 31
0.0
  0
ENDBLK
  5
A24
  8
0
  0
BLOCK
  8
0
  2
BLOCK95
 70
     0
 10
0.0
 20
0.0
 30
0.0
  3
BLOCK95
  1

  0
LINE
  5
A26
  8
0
 62
     2
 10
9.4852810000000005
 20
-1.0
 30
0.0
 11
7.4852809999999987
 21
1.0
 31
0.0
  0
LINE
  5
A27
  8
0
 62
     2
 10
7.3639599999999996
 20
-1.0
 30
0.0
 11
5.3639609999999989
 21
1.0
 31
0.0
  0
LINE
  5
A28
  8
0
 62
     2
 10
5.2426399999999989
 20
-1.0
 30
0.0
 11
3.479473
 21
0.7631670000000002
 31
0.0
  0
LINE
  5
A29
  8
0
 62
     2
 10
3.121319999999999
 20
-1.0
 30
0.0
 11
2.5116089999999991
 21
-0.390289
 31
0.0
  0
ENDBLK
  5
A2A
  8
0
  0
ENDSEC
  0
SECTION
  2
ENTITIES
  0
LINE
  5
25
  8
0
  6
DASHDOT
 62
     7
 10
269.47605899999991
 20
591.44856300000004
 30
0.0
 11
269.47605899999991
 21
614.94856500000003
 31
0.0
  0
LINE
  5
26
  8
0
  6
DASHDOT
 62
     7
 10
339.47611999999998
 20
591.44856300000004
 30
0.0
 11
339.47611999999998
 21
614.948576
 31
0.0
  0
LINE
  5
27
  8
0
  6
DASHDOT
 62
     7
 10
339.47605899999991
 20
591.44856300000004
 30
0.0
 11
339.47605899999991
 21
602.34855800000003
 31
0.0
  0
LINE
  5
28
  8
0
  6
DASHDOT
 62
     7
 10
269.47605899999991
 20
591.44856300000004
 30
0.0
 11
269.47605899999991
 21
602.34856200000002
 31
0.0
  0
LINE
  5
29
  8
0
 62
     3
 10
356.47605899999991
 20
729.19856500000003
 30
0.0
 11
252.47607400000001
 21
729.19856500000003
 31
0.0
  0
LINE
  5
2A
  8
0
  6
DASHDOT
 62
     7
 10
304.47607399999998
 20
606.07739100000003
 30
0.0
 11
304.47607399999998
 21
709.37265199999979
 31
0.0
  0
ARC
  5
2B
  8
0
 62
     3
 10
252.47607400000001
 20
728.69856500000003
 30
0.0
 40
0.5
 50
90.0
 51
180.00000299999991
  0
ARC
  5
2C
  8
0
 62
     3
 10
356.47605899999991
 20
728.69856500000003
 30
0.0
 40
0.5
 50
0.000001
 51
90.0
  0
LINE
  5
2D
  8
0
  6
DASHDOT
 62
     7
 10
304.47607399999998
 20
715.15188799999999
 30
0.0
 11
304.47607399999998
 21
744.06213600000001
 31
0.0
  0
ARC
  5
2E
  8
0
 62
     7
 10
304.47598999999991
 20
622.94878600000004
 30
0.0
 40
2.7497989999999999
 50
152.96715299999991
 51
27.032851999999998
  0
LINE
  5
2F
  8
0
  6
DASHDOT
 62
     7
 10
308.489937
 20
622.94878600000004
 30
0.0
 11
300.83425899999992
 21
622.94878600000004
 31
0.0
  0
LINE
  5
30
  8
0
  6
DASHDOT
 62
     7
 10
306.01924100000002
 20
619.44855700000005
 30
0.0
 11
303.09616099999988
 21
619.44855700000005
 31
0.0
  0
LINE
  5
31
  8
0
 62
     7
 10
356.47607399999998
 20
729.19856500000003
 30
0.0
 11
251.97607400000001
 21
729.19856500000003
 31
0.0
  0
LINE
  5
32
  8
0
 62
     7
 10
315.22607399999998
 20
646.44855700000005
 30
0.0
 11
315.22607399999998
 21
686.44854199999997
 31
0.0
  0
LINE
  5
33
  8
0
 62
     7
 10
293.72607399999998
 20
646.44855700000005
 30
0.0
 11
293.72607399999998
 21
686.44854199999997
 31
0.0
  0
LINE
  5
34
  8
0
 62
     7
 10
315.22607399999998
 20
646.44855700000005
 30
0.0
 11
293.72607399999998
 21
646.44855700000005
 31
0.0
  0
LINE
  5
35
  8
0
 62
     7
 10
315.22607399999998
 20
646.71305299999995
 30
0.0
 11
293.72607399999998
 21
646.71305299999995
 31
0.0
  0
LINE
  5
36
  8
0
  6
DASHDOT
 62
     7
 10
304.47607399999998
 20
542.03265399999987
 30
0.0
 11
304.47607399999998
 21
783.42563099999995
 31
0.0
  0
LINE
  5
37
  8
0
 62
     7
 10
356.97605899999991
 20
690.19855700000005
 30
0.0
 11
356.97605899999991
 21
728.69856500000003
 31
0.0
  0
LINE
  5
38
  8
0
 62
     7
 10
251.97607400000001
 20
690.19855700000005
 30
0.0
 11
251.97607400000001
 21
728.69856500000003
 31
0.0
  0
ARC
  5
39
  8
0
 62
     7
 10
356.47607399999998
 20
728.69856500000003
 30
0.0
 40
0.5
 50
0.000001
 51
90.0
  0
ARC
  5
3A
  8
0
 62
     7
 10
252.47607400000001
 20
728.69856500000003
 30
0.0
 40
0.5
 50
90.0
 51
180.00000299999991
  0
LINE
  5
3B
  8
0
 62
     7
 10
315.22607399999998
 20
660.57387699999992
 30
0.0
 11
293.72607399999998
 21
660.57387699999992
 31
0.0
  0
LINE
  5
3C
  8
0
 62
     7
 10
315.22607399999998
 20
654.45741499999997
 30
0.0
 11
293.72607399999998
 21
654.45741499999997
 31
0.0
  0
LINE
  5
3D
  8
0
 62
     7
 10
315.22607399999998
 20
648.509592
 30
0.0
 11
293.72607399999998
 21
648.509592
 31
0.0
  0
LINE
  5
3E
  8
0
 62
     7
 10
315.22607399999998
 20
647.70684199999994
 30
0.0
 11
293.72607399999998
 21
647.70684199999994
 31
0.0
  0
LINE
  5
3F
  8
0
  6
DASHDOT
 62
     7
 10
304.47607399999998
 20
777.84848199999999
 30
0.0
 11
304.47607399999998
 21
790.04860099999985
 31
0.0
  0
LINE
  5
40
  8
0
 62
     3
 10
355.72607399999998
 20
766.44856500000003
 30
0.0
 11
253.22609299999999
 21
766.44856500000003
 31
0.0
  0
LINE
  5
41
  8
0
 62
     3
 10
356.97607399999998
 20
757.19226300000003
 30
0.0
 11
356.97607399999998
 21
765.19854900000007
 31
0.0
  0
LINE
  5
42
  8
0
 62
     3
 10
251.9760859999999
 20
757.19226300000003
 30
0.0
 11
251.9760859999999
 21
765.19857999999999
 31
0.0
  0
LINE
  5
43
  8
0
 62
     3
 10
255.626091
 20
757.19226300000003
 30
0.0
 11
255.626091
 21
766.44856500000003
 31
0.0
  0
LINE
  5
44
  8
0
 62
     3
 10
259.22608899999989
 20
757.19226300000003
 30
0.0
 11
259.22608899999989
 21
766.44856500000003
 31
0.0
  0
LINE
  5
45
  8
0
 62
     3
 10
262.82608799999991
 20
757.19226300000003
 30
0.0
 11
262.82608799999991
 21
766.44856500000003
 31
0.0
  0
LINE
  5
46
  8
0
 62
     3
 10
266.426086
 20
757.19226300000003
 30
0.0
 11
266.426086
 21
766.44856500000003
 31
0.0
  0
LINE
  5
47
  8
0
 62
     3
 10
270.02607699999987
 20
757.19226300000003
 30
0.0
 11
270.02607699999987
 21
766.44856500000003
 31
0.0
  0
LINE
  5
48
  8
0
 62
     3
 10
273.62608299999988
 20
757.19226300000003
 30
0.0
 11
273.62608299999988
 21
766.44856500000003
 31
0.0
  0
LINE
  5
49
  8
0
 62
     3
 10
277.22607399999998
 20
757.19226300000003
 30
0.0
 11
277.22607399999998
 21
766.44856500000003
 31
0.0
  0
LINE
  5
4A
  8
0
 62
     3
 10
280.82607999999988
 20
757.19226300000003
 30
0.0
 11
280.82607999999988
 21
766.44856500000003
 31
0.0
  0
LINE
  5
4B
  8
0
 62
     3
 10
284.42607099999998
 20
757.19226300000003
 30
0.0
 11
284.42607099999998
 21
766.44856500000003
 31
0.0
  0
LINE
  5
4C
  8
0
 62
     3
 10
288.02607699999987
 20
757.19226300000003
 30
0.0
 11
288.02607699999987
 21
766.44856500000003
 31
0.0
  0
LINE
  5
4D
  8
0
 62
     3
 10
291.62608299999999
 20
757.19226300000003
 30
0.0
 11
291.62608299999999
 21
766.44856500000003
 31
0.0
  0
LINE
  5
4E
  8
0
 62
     3
 10
295.22607399999998
 20
757.19226300000003
 30
0.0
 11
295.22607399999998
 21
766.44856500000003
 31
0.0
  0
LINE
  5
4F
  8
0
 62
     3
 10
298.82607999999988
 20
757.19226300000003
 30
0.0
 11
298.82607999999988
 21
766.44856500000003
 31
0.0
  0
LINE
  5
50
  8
0
 62
     3
 10
302.42607099999998
 20
757.19226300000003
 30
0.0
 11
302.42607099999998
 21
766.44856500000003
 31
0.0
  0
LINE
  5
51
  8
0
 62
     3
 10
306.02607699999987
 20
757.19226300000003
 30
0.0
 11
306.02607699999987
 21
766.44856500000003
 31
0.0
  0
LINE
  5
52
  8
0
 62
     3
 10
309.62608299999988
 20
757.19226300000003
 30
0.0
 11
309.62608299999988
 21
766.44856500000003
 31
0.0
  0
LINE
  5
53
  8
0
 62
     3
 10
313.22607399999998
 20
757.19226300000003
 30
0.0
 11
313.22607399999998
 21
766.44856500000003
 31
0.0
  0
LINE
  5
54
  8
0
 62
     3
 10
316.82607999999999
 20
757.19226300000003
 30
0.0
 11
316.82607999999999
 21
766.44856500000003
 31
0.0
  0
LINE
  5
55
  8
0
 62
     3
 10
320.42607099999992
 20
757.19226300000003
 30
0.0
 11
320.42607099999992
 21
766.44856500000003
 31
0.0
  0
LINE
  5
56
  8
0
 62
     3
 10
324.02607699999987
 20
757.19226300000003
 30
0.0
 11
324.02607699999987
 21
766.44856500000003
 31
0.0
  0
LINE
  5
57
  8
0
 62
     3
 10
327.62608299999999
 20
757.19226300000003
 30
0.0
 11
327.62608299999999
 21
766.44856500000003
 31
0.0
  0
LINE
  5
58
  8
0
 62
     3
 10
331.22607399999998
 20
757.19226300000003
 30
0.0
 11
331.22607399999998
 21
766.44856500000003
 31
0.0
  0
LINE
  5
59
  8
0
 62
     3
 10
334.82607999999988
 20
757.19226300000003
 30
0.0
 11
334.82607999999988
 21
766.44856500000003
 31
0.0
  0
LINE
  5
5A
  8
0
 62
     3
 10
338.42607099999992
 20
757.19226300000003
 30
0.0
 11
338.42607099999992
 21
766.44856500000003
 31
0.0
  0
LINE
  5
5B
  8
0
 62
     3
 10
342.02607699999999
 20
757.19226300000003
 30
0.0
 11
342.02607699999999
 21
766.44856500000003
 31
0.0
  0
LINE
  5
5C
  8
0
 62
     3
 10
345.62608299999999
 20
757.19226300000003
 30
0.0
 11
345.62608299999999
 21
766.44856500000003
 31
0.0
  0
LINE
  5
5D
  8
0
 62
     3
 10
349.22607399999998
 20
757.19226300000003
 30
0.0
 11
349.22607399999998
 21
766.44856500000003
 31
0.0
  0
LINE
  5
5E
  8
0
 62
     3
 10
352.82607999999988
 20
757.19226300000003
 30
0.0
 11
352.82607999999988
 21
766.44856500000003
 31
0.0
  0
ARC
  5
5F
  8
0
 62
     3
 10
355.72605899999991
 20
765.19854900000007
 30
0.0
 40
1.2499990000000001
 50
0.000028
 51
90.000461999999985
  0
ARC
  5
60
  8
0
 62
     3
 10
253.22605899999991
 20
765.19857999999999
 30
0.0
 40
1.2499670000000001
 50
89.998233999999997
 51
180.00118399999991
  0
LINE
  5
61
  8
0
 62
     3
 10
355.72607399999998
 20
591.44856300000004
 30
0.0
 11
253.22609299999999
 21
591.44856300000004
 31
0.0
  0
LINE
  5
62
  8
0
 62
     3
 10
356.97607399999998
 20
592.69857400000001
 30
0.0
 11
356.97607399999998
 21
596.19857000000002
 31
0.0
  0
LINE
  5
63
  8
0
 62
     3
 10
251.9760859999999
 20
592.69854199999997
 30
0.0
 11
251.9760859999999
 21
596.19857000000002
 31
0.0
  0
LINE
  5
64
  8
0
 62
     3
 10
255.626091
 20
591.44856300000004
 30
0.0
 11
255.626091
 21
596.19857000000002
 31
0.0
  0
LINE
  5
65
  8
0
 62
     3
 10
259.22608899999989
 20
591.44856300000004
 30
0.0
 11
259.22608899999989
 21
596.19857000000002
 31
0.0
  0
LINE
  5
66
  8
0
 62
     3
 10
262.82608799999991
 20
591.44856300000004
 30
0.0
 11
262.82608799999991
 21
596.19857000000002
 31
0.0
  0
LINE
  5
67
  8
0
 62
     3
 10
266.426086
 20
591.44856300000004
 30
0.0
 11
266.426086
 21
596.19857000000002
 31
0.0
  0
LINE
  5
68
  8
0
 62
     3
 10
270.02607699999987
 20
591.44856300000004
 30
0.0
 11
270.02607699999987
 21
596.19857000000002
 31
0.0
  0
LINE
  5
69
  8
0
 62
     3
 10
273.62608299999988
 20
591.44856300000004
 30
0.0
 11
273.62608299999988
 21
596.19857000000002
 31
0.0
  0
LINE
  5
6A
  8
0
 62
     3
 10
277.22607399999998
 20
591.44856300000004
 30
0.0
 11
277.22607399999998
 21
596.19857000000002
 31
0.0
  0
LINE
  5
6B
  8
0
 62
     3
 10
280.82607999999988
 20
591.44856300000004
 30
0.0
 11
280.82607999999988
 21
596.19857000000002
 31
0.0
  0
LINE
  5
6C
  8
0
 62
     3
 10
284.42607099999998
 20
591.44856300000004
 30
0.0
 11
284.42607099999998
 21
596.19857000000002
 31
0.0
  0
LINE
  5
6D
  8
0
 62
     3
 10
288.02607699999987
 20
591.44856300000004
 30
0.0
 11
288.02607699999987
 21
596.19857000000002
 31
0.0
  0
LINE
  5
6E
  8
0
 62
     3
 10
291.62608299999999
 20
591.44856300000004
 30
0.0
 11
291.62608299999999
 21
596.19857000000002
 31
0.0
  0
LINE
  5
6F
  8
0
 62
     3
 10
295.22607399999998
 20
591.44856300000004
 30
0.0
 11
295.22607399999998
 21
596.19857000000002
 31
0.0
  0
LINE
  5
70
  8
0
 62
     3
 10
298.82607999999988
 20
591.44856300000004
 30
0.0
 11
298.82607999999988
 21
596.19857000000002
 31
0.0
  0
LINE
  5
71
  8
0
 62
     3
 10
302.42607099999998
 20
591.44856300000004
 30
0.0
 11
302.42607099999998
 21
596.19857000000002
 31
0.0
  0
LINE
  5
72
  8
0
 62
     3
 10
306.02607699999987
 20
591.44856300000004
 30
0.0
 11
306.02607699999987
 21
596.19857000000002
 31
0.0
  0
LINE
  5
73
  8
0
 62
     3
 10
309.62608299999988
 20
591.44856300000004
 30
0.0
 11
309.62608299999988
 21
596.19857000000002
 31
0.0
  0
LINE
  5
74
  8
0
 62
     3
 10
313.22607399999998
 20
591.44856300000004
 30
0.0
 11
313.22607399999998
 21
596.19857000000002
 31
0.0
  0
LINE
  5
75
  8
0
 62
     3
 10
316.82607999999999
 20
591.44856300000004
 30
0.0
 11
316.82607999999999
 21
596.19857000000002
 31
0.0
  0
LINE
  5
76
  8
0
 62
     3
 10
320.42607099999992
 20
591.44856300000004
 30
0.0
 11
320.42607099999992
 21
596.19857000000002
 31
0.0
  0
LINE
  5
77
  8
0
 62
     3
 10
324.02607699999987
 20
591.44856300000004
 30
0.0
 11
324.02607699999987
 21
596.19857000000002
 31
0.0
  0
LINE
  5
78
  8
0
 62
     3
 10
327.62608299999999
 20
591.44856300000004
 30
0.0
 11
327.62608299999999
 21
596.19857000000002
 31
0.0
  0
LINE
  5
79
  8
0
 62
     3
 10
331.22607399999998
 20
591.44856300000004
 30
0.0
 11
331.22607399999998
 21
596.19857000000002
 31
0.0
  0
LINE
  5
7A
  8
0
 62
     3
 10
334.82607999999988
 20
591.44856300000004
 30
0.0
 11
334.82607999999988
 21
596.19857000000002
 31
0.0
  0
LINE
  5
7B
  8
0
 62
     3
 10
338.42607099999992
 20
591.44856300000004
 30
0.0
 11
338.42607099999992
 21
596.19857000000002
 31
0.0
  0
LINE
  5
7C
  8
0
 62
     3
 10
342.02607699999999
 20
591.44856300000004
 30
0.0
 11
342.02607699999999
 21
596.19857000000002
 31
0.0
  0
LINE
  5
7D
  8
0
 62
     3
 10
345.62608299999999
 20
591.44856300000004
 30
0.0
 11
345.62608299999999
 21
596.19857000000002
 31
0.0
  0
LINE
  5
7E
  8
0
 62
     3
 10
349.22607399999998
 20
591.44856300000004
 30
0.0
 11
349.22607399999998
 21
596.19857000000002
 31
0.0
  0
LINE
  5
7F
  8
0
 62
     3
 10
352.82607999999988
 20
591.44856300000004
 30
0.0
 11
352.82607999999988
 21
596.19857000000002
 31
0.0
  0
ARC
  5
80
  8
0
 62
     3
 10
355.72605899999991
 20
592.69857400000001
 30
0.0
 40
1.2499990000000001
 50
269.99954100000002
 51
359.99997300000001
  0
ARC
  5
81
  8
0
 62
     3
 10
253.22605899999991
 20
592.69854199999997
 30
0.0
 40
1.2499670000000001
 50
179.9988139999999
 51
270.00178099999988
  0
LINE
  5
82
  8
0
 62
     4
 10
356.97622699999999
 20
626.44880899999998
 30
0.0
 11
356.97622699999999
 21
635.44877099999985
 31
0.0
  0
LINE
  5
83
  8
0
 62
     3
 10
364.97622699999999
 20
615.4487969999999
 30
0.0
 11
364.97622699999999
 21
619.948801
 31
0.0
  0
LINE
  5
84
  8
0
 62
     3
 10
356.97621199999998
 20
747.44880899999998
 30
0.0
 11
356.97621199999998
 21
751.44882399999995
 31
0.0
  0
LINE
  5
85
  8
0
  6
DASHSPACE
 62
     4
 10
387.47622699999999
 20
751.44880899999998
 30
0.0
 11
356.97607399999998
 21
751.44880899999998
 31
0.0
  0
LINE
  5
86
  8
0
 62
     4
 10
364.97613499999989
 20
643.69876299999987
 30
0.0
 11
364.97613499999989
 21
654.19876299999999
 31
0.0
  0
LINE
  5
87
  8
0
 62
     4
 10
364.97613499999989
 20
695.44877799999995
 30
0.0
 11
364.97613499999989
 21
719.44882399999995
 31
0.0
  0
LINE
  5
88
  8
0
  6
DASHSPACE
 62
     4
 10
387.47624200000001
 20
606.69879300000002
 30
0.0
 11
356.97607399999998
 21
606.69879300000002
 31
0.0
  0
LINE
  5
89
  8
0
 62
     3
 10
364.97624200000001
 20
730.94882399999995
 30
0.0
 11
364.97624200000001
 21
738.19882399999995
 31
0.0
  0
LINE
  5
8A
  8
0
  6
DASHSPACE
 62
     4
 10
387.47624200000001
 20
606.69879300000002
 30
0.0
 11
387.47622699999999
 21
751.44880899999998
 31
0.0
  0
LINE
  5
8B
  8
0
  6
DASHSPACE
 62
     4
 10
388.47622699999988
 20
664.44876299999999
 30
0.0
 11
388.47622699999988
 21
684.44876299999987
 31
0.0
  0
LINE
  5
8C
  8
0
 62
     4
 10
363.97624200000001
 20
654.19876299999999
 30
0.0
 11
363.97624200000001
 21
689.44877799999995
 31
0.0
  0
LINE
  5
8D
  8
0
 62
     3
 10
363.97624200000001
 20
630.44880899999987
 30
0.0
 11
363.97624200000001
 21
635.44877099999985
 31
0.0
  0
LINE
  5
8E
  8
0
  6
DASHSPACE
 62
     4
 10
388.47622699999988
 20
684.44876299999987
 30
0.0
 11
387.47624200000001
 21
684.44876299999987
 31
0.0
  0
LINE
  5
8F
  8
0
  6
DASHSPACE
 62
     4
 10
388.47622699999988
 20
664.44876299999999
 30
0.0
 11
387.47622699999999
 21
664.44876299999999
 31
0.0
  0
LINE
  5
90
  8
0
 62
     4
 10
356.97621199999998
 20
723.44880899999998
 30
0.0
 11
356.97621199999998
 21
726.44880899999998
 31
0.0
  0
LINE
  5
91
  8
0
 62
   150
 10
251.97615799999991
 20
624.69882800000005
 30
0.0
 11
251.97615799999991
 21
625.19885799999986
 31
0.0
  0
LINE
  5
92
  8
0
 62
   150
 10
251.9761729999999
 20
717.19879300000002
 30
0.0
 11
251.9761729999999
 21
728.69887000000006
 31
0.0
  0
LINE
  5
93
  8
0
 62
   150
 10
252.12262000000001
 20
624.34527400000002
 30
0.0
 11
251.97615799999991
 21
624.69882800000005
 31
0.0
  0
LINE
  5
94
  8
0
 62
   150
 10
252.47615799999991
 20
624.19888900000001
 30
0.0
 11
252.12262299999989
 21
624.34527400000002
 31
0.0
  0
LINE
  5
95
  8
0
 62
   150
 10
356.47622699999999
 20
624.19894199999999
 30
0.0
 11
325.97622699999988
 21
624.19894199999999
 31
0.0
  0
LINE
  5
96
  8
0
 62
   150
 10
252.97617299999999
 20
624.19888900000001
 30
0.0
 11
252.47615400000001
 21
624.19888900000001
 31
0.0
  0
LINE
  5
97
  8
0
 62
   150
 10
356.47622699999999
 20
624.19881999999996
 30
0.0
 11
356.82978800000001
 21
624.34527000000003
 31
0.0
  0
LINE
  5
98
  8
0
 62
   150
 10
356.82978800000001
 20
624.34527000000003
 30
0.0
 11
356.9762419999999
 21
624.69882399999995
 31
0.0
  0
LINE
  5
99
  8
0
 62
   150
 10
356.9762419999999
 20
624.69882399999995
 30
0.0
 11
356.97622699999999
 21
728.69887000000006
 31
0.0
  0
LINE
  5
9A
  8
0
 62
     3
 10
329.67616299999992
 20
634.12936599999989
 30
0.0
 11
329.67616299999992
 21
642.26815999999985
 31
0.0
  0
LINE
  5
9B
  8
0
 62
     3
 10
331.07402000000002
 20
632.52263099999993
 30
0.0
 11
329.67614700000001
 21
634.12936599999989
 31
0.0
  0
LINE
  5
9C
  8
0
 62
     3
 10
332.867279
 20
631.37353700000006
 30
0.0
 11
331.074051
 21
632.52263099999993
 31
0.0
  0
LINE
  5
9D
  8
0
 62
     3
 10
334.91120899999987
 20
630.77484299999992
 30
0.0
 11
332.86726399999998
 21
631.37353700000006
 31
0.0
  0
LINE
  5
9E
  8
0
 62
     3
 10
337.04101600000001
 20
630.77484299999992
 30
0.0
 11
334.91120899999987
 21
630.77484299999992
 31
0.0
  0
LINE
  5
9F
  8
0
 62
     3
 10
337.04101600000001
 20
630.77484299999992
 30
0.0
 11
339.08496099999991
 21
631.37352899999985
 31
0.0
  0
LINE
  5
A0
  8
0
 62
     3
 10
339.08497599999998
 20
631.37353700000006
 30
0.0
 11
340.87822
 21
632.52263099999993
 31
0.0
  0
LINE
  5
A1
  8
0
 62
     3
 10
340.87818900000002
 20
632.52261499999997
 30
0.0
 11
342.27610800000002
 21
634.12945000000002
 31
0.0
  0
LINE
  5
A2
  8
0
 62
     3
 10
342.27612299999993
 20
634.129457
 30
0.0
 11
342.27616899999992
 21
642.26820599999985
 31
0.0
  0
LINE
  5
A3
  8
0
 62
     3
 10
342.27616899999992
 20
642.26820599999985
 30
0.0
 11
340.87824999999998
 21
643.87500199999999
 31
0.0
  0
LINE
  5
A4
  8
0
 62
     3
 10
340.878265
 20
643.87500199999999
 30
0.0
 11
339.08502199999998
 21
645.02409599999999
 31
0.0
  0
LINE
  5
A5
  8
0
 62
     3
 10
339.08500699999991
 20
645.02409599999999
 30
0.0
 11
337.04107699999997
 21
645.62278200000003
 31
0.0
  0
LINE
  5
A6
  8
0
 62
     3
 10
337.04107699999997
 20
645.62278200000003
 30
0.0
 11
334.91125499999998
 21
645.62278200000003
 31
0.0
  0
LINE
  5
A7
  8
0
 62
     3
 10
332.86732499999999
 20
645.02409599999999
 30
0.0
 11
334.91125499999998
 21
645.62278200000003
 31
0.0
  0
LINE
  5
A8
  8
0
 62
     3
 10
331.07409699999988
 20
643.87501699999984
 30
0.0
 11
332.86734000000001
 21
645.02411099999995
 31
0.0
  0
LINE
  5
A9
  8
0
 62
     3
 10
329.67614700000001
 20
642.26815199999999
 30
0.0
 11
331.07406600000002
 21
643.87499400000002
 31
0.0
  0
LINE
  5
AA
  8
0
 62
     3
 10
325.97622699999988
 20
716.69880899999998
 30
0.0
 11
356.97622699999999
 21
716.69887000000006
 31
0.0
  0
LINE
  5
AB
  8
0
 62
     3
 10
356.97622699999999
 20
726.69887000000006
 30
0.0
 11
251.97616599999989
 21
726.69887000000006
 31
0.0
  0
LINE
  5
AC
  8
0
 62
     3
 10
345.480637
 20
709.44874800000002
 30
0.0
 11
345.36645499999992
 21
710.022783
 31
0.0
  0
LINE
  5
AD
  8
0
 62
     3
 10
345.36645499999992
 20
710.022783
 30
0.0
 11
345.04130600000002
 21
710.50941699999998
 31
0.0
  0
LINE
  5
AE
  8
0
 62
     3
 10
345.04130600000002
 20
710.50941699999998
 30
0.0
 11
344.55465699999991
 21
710.834566
 31
0.0
  0
LINE
  5
AF
  8
0
 62
     3
 10
344.55464199999989
 20
710.834566
 30
0.0
 11
343.98062099999993
 21
710.94874800000002
 31
0.0
  0
LINE
  5
B0
  8
0
 62
     3
 10
343.40660099999991
 20
710.83455100000003
 30
0.0
 11
343.98062099999993
 21
710.94873199999995
 31
0.0
  0
LINE
  5
B1
  8
0
 62
     3
 10
342.91998299999989
 20
710.50941699999998
 30
0.0
 11
343.40661599999999
 21
710.834566
 31
0.0
  0
LINE
  5
B2
  8
0
 62
     3
 10
342.59481799999998
 20
710.022783
 30
0.0
 11
342.91998299999989
 21
710.50941699999998
 31
0.0
  0
LINE
  5
B3
  8
0
 62
     3
 10
342.480637
 20
709.44873199999995
 30
0.0
 11
342.59481799999998
 21
710.02276799999993
 31
0.0
  0
LINE
  5
B4
  8
0
 62
     3
 10
342.480637
 20
706.44874800000002
 30
0.0
 11
342.480637
 21
709.44874800000002
 31
0.0
  0
LINE
  5
B5
  8
0
 62
     3
 10
342.59481799999998
 20
705.87471200000005
 30
0.0
 11
342.480637
 21
706.44873199999995
 31
0.0
  0
LINE
  5
B6
  8
0
 62
     3
 10
342.91998299999989
 20
705.38809399999991
 30
0.0
 11
342.59481799999998
 21
705.87472700000001
 31
0.0
  0
LINE
  5
B7
  8
0
 62
     3
 10
343.40661599999999
 20
705.06292900000005
 30
0.0
 11
342.91998299999989
 21
705.38809399999991
 31
0.0
  0
LINE
  5
B8
  8
0
 62
     3
 10
343.98062099999993
 20
704.94874800000002
 30
0.0
 11
343.40660099999991
 21
705.06292900000005
 31
0.0
  0
LINE
  5
B9
  8
0
 62
     3
 10
343.98062099999993
 20
704.94873199999995
 30
0.0
 11
344.55464199999989
 21
705.06291399999986
 31
0.0
  0
LINE
  5
BA
  8
0
 62
     3
 10
344.55465699999991
 20
705.06292900000005
 30
0.0
 11
345.04130600000002
 21
705.38809399999991
 31
0.0
  0
LINE
  5
BB
  8
0
 62
     3
 10
345.04130600000002
 20
705.38809399999991
 30
0.0
 11
345.36645499999992
 21
705.87472700000001
 31
0.0
  0
LINE
  5
BC
  8
0
 62
     3
 10
345.36644000000001
 20
705.87471200000005
 30
0.0
 11
345.48062099999999
 21
706.44873199999995
 31
0.0
  0
LINE
  5
BD
  8
0
 62
     3
 10
345.480637
 20
706.44874800000002
 30
0.0
 11
345.480637
 21
709.44874800000002
 31
0.0
  0
LINE
  5
BE
  8
0
 62
     3
 10
345.47622699999988
 20
684.94877099999997
 30
0.0
 11
342.47622699999988
 21
684.94877099999997
 31
0.0
  0
LINE
  5
BF
  8
0
 62
     3
 10
342.47622699999988
 20
657.94877099999985
 30
0.0
 11
342.47622699999988
 21
684.94877099999997
 31
0.0
  0
LINE
  5
C0
  8
0
 62
     3
 10
345.47622699999988
 20
657.94877099999985
 30
0.0
 11
342.47622699999988
 21
657.94877099999985
 31
0.0
  0
LINE
  5
C1
  8
0
 62
     3
 10
345.47622699999988
 20
657.94877099999985
 30
0.0
 11
345.47622699999988
 21
684.94877099999997
 31
0.0
  0
LINE
  5
C2
  8
0
 62
   150
 10
323.97622699999988
 20
627.69879700000001
 30
0.0
 11
323.97622699999988
 21
714.19879299999991
 31
0.0
  0
LINE
  5
C3
  8
0
 62
     3
 10
325.97622699999988
 20
716.69879300000002
 30
0.0
 11
255.47614300000001
 21
716.69879300000002
 31
0.0
  0
LINE
  5
C4
  8
0
 62
   150
 10
322.97622699999999
 20
715.19879300000002
 30
0.0
 11
255.47614300000001
 21
715.19879300000002
 31
0.0
  0
LINE
  5
C5
  8
0
 62
   150
 10
323.97622699999988
 20
714.19879299999991
 30
0.0
 11
322.97622699999999
 21
715.19879300000002
 31
0.0
  0
LINE
  5
C6
  8
0
 62
   150
 10
254.47614300000001
 20
714.19879299999991
 30
0.0
 11
254.76903499999989
 21
714.90590099999997
 31
0.0
  0
LINE
  5
C7
  8
0
 62
   150
 10
254.76903499999989
 20
714.90590099999997
 30
0.0
 11
255.47614300000001
 21
715.19879300000002
 31
0.0
  0
LINE
  5
C8
  8
0
 62
     3
 10
255.47614300000001
 20
716.69879300000002
 30
0.0
 11
251.97617
 21
716.69880899999998
 31
0.0
  0
LINE
  5
C9
  8
0
 62
   150
 10
251.97616599999989
 20
625.19885799999986
 30
0.0
 11
251.97617
 21
717.19880899999998
 31
0.0
  0
LINE
  5
CA
  8
0
 62
   150
 10
324.97622699999999
 20
624.198576
 30
0.0
 11
252.97616600000001
 21
624.19886599999995
 31
0.0
  0
LINE
  5
CB
  8
0
 62
   150
 10
325.97622699999988
 20
624.19856100000004
 30
0.0
 11
324.97622699999999
 21
624.198576
 31
0.0
  0
LINE
  5
CC
  8
0
 62
   150
 10
323.683334
 20
626.99169000000006
 30
0.0
 11
323.97622699999988
 21
627.69879700000001
 31
0.0
  0
LINE
  5
CD
  8
0
 62
   150
 10
322.97622699999999
 20
626.69879700000001
 30
0.0
 11
323.683334
 21
626.99169000000006
 31
0.0
  0
LINE
  5
CE
  8
0
 62
   150
 10
322.97622699999999
 20
626.69879700000001
 30
0.0
 11
255.47614300000001
 21
626.69879700000001
 31
0.0
  0
LINE
  5
CF
  8
0
 62
   150
 10
255.47614300000001
 20
626.69879700000001
 30
0.0
 11
254.76903499999989
 21
626.99169000000006
 31
0.0
  0
LINE
  5
D0
  8
0
 62
   150
 10
254.76903499999989
 20
626.99169000000006
 30
0.0
 11
254.47614300000001
 21
627.69879700000001
 31
0.0
  0
LINE
  5
D1
  8
0
 62
   150
 10
254.47614300000001
 20
627.69879700000001
 30
0.0
 11
254.47614300000001
 21
714.19879299999991
 31
0.0
  0
LINE
  5
D2
  8
0
 62
   150
 10
293.72620399999988
 20
645.37695499999995
 30
0.0
 11
293.72620399999988
 21
687.15407800000003
 31
0.0
  0
LINE
  5
D3
  8
0
 62
   150
 10
315.226204
 20
645.37695499999995
 30
0.0
 11
315.226204
 21
687.15407800000003
 31
0.0
  0
LINE
  5
D4
  8
0
 62
     3
 10
351.97624200000001
 20
650.61918800000001
 30
0.0
 11
349.97624200000001
 21
650.61918800000001
 31
0.0
  0
LINE
  5
D5
  8
0
 62
     3
 10
349.62271099999992
 20
650.47275000000002
 30
0.0
 11
349.97627299999999
 21
650.61919599999987
 31
0.0
  0
LINE
  5
D6
  8
0
 62
     3
 10
349.47624200000001
 20
650.11918800000001
 30
0.0
 11
349.622681
 21
650.47274200000004
 31
0.0
  0
LINE
  5
D7
  8
0
 62
     3
 10
349.47624200000001
 20
639.11918800000001
 30
0.0
 11
349.47624200000001
 21
650.11918800000001
 31
0.0
  0
LINE
  5
D8
  8
0
 62
     3
 10
349.622681
 20
638.76563499999997
 30
0.0
 11
349.47624200000001
 21
639.11918800000001
 31
0.0
  0
LINE
  5
D9
  8
0
 62
     3
 10
349.97625699999992
 20
638.61918800000001
 30
0.0
 11
349.62269600000002
 21
638.76563499999997
 31
0.0
  0
LINE
  5
DA
  8
0
 62
     3
 10
351.97624200000001
 20
638.61918800000001
 30
0.0
 11
349.97624200000001
 21
638.61918800000001
 31
0.0
  0
LINE
  5
DB
  8
0
 62
     3
 10
353.47624200000001
 20
638.61918800000001
 30
0.0
 11
351.97624200000001
 21
638.61918800000001
 31
0.0
  0
LINE
  5
DC
  8
0
 62
     3
 10
353.47622699999988
 20
638.61918099999991
 30
0.0
 11
353.82977299999999
 21
638.76562699999988
 31
0.0
  0
LINE
  5
DD
  8
0
 62
     3
 10
353.82978800000001
 20
638.76564199999984
 30
0.0
 11
353.97624200000001
 21
639.11919599999999
 31
0.0
  0
LINE
  5
DE
  8
0
 62
     3
 10
353.97624200000001
 20
639.11918800000001
 30
0.0
 11
353.97624200000001
 21
650.11918800000001
 31
0.0
  0
LINE
  5
DF
  8
0
 62
     3
 10
353.97624200000001
 20
650.11918800000001
 30
0.0
 11
353.82978800000001
 21
650.47274200000004
 31
0.0
  0
LINE
  5
E0
  8
0
 62
     3
 10
353.82977299999999
 20
650.47274200000004
 30
0.0
 11
353.47622699999988
 21
650.61918800000001
 31
0.0
  0
LINE
  5
E1
  8
0
 62
   150
 10
323.976181
 20
690.19881599999997
 30
0.0
 11
323.976181
 21
691.19881599999985
 31
0.0
  0
LINE
  5
E2
  8
0
 62
   150
 10
323.976181
 20
641.19881599999985
 30
0.0
 11
323.976181
 21
642.19881599999985
 31
0.0
  0
LINE
  5
E3
  8
0
 62
     3
 10
293.72617300000002
 20
676.69881599999985
 30
0.0
 11
254.47613499999991
 21
676.69881599999985
 31
0.0
  0
LINE
  5
E4
  8
0
 62
   150
 10
323.976181
 20
677.19881599999985
 30
0.0
 11
323.976181
 21
678.19881599999997
 31
0.0
  0
LINE
  5
E5
  8
0
 62
     3
 10
323.976181
 20
676.69881599999985
 30
0.0
 11
315.226204
 21
676.69881599999985
 31
0.0
  0
LINE
  5
E6
  8
0
 62
   150
 10
323.976181
 20
654.19881599999985
 30
0.0
 11
323.976181
 21
655.19881599999985
 31
0.0
  0
LINE
  5
E7
  8
0
 62
   150
 10
324.97622699999999
 20
624.198576
 30
0.0
 11
252.472622
 21
624.20033799999987
 31
0.0
  0
LINE
  5
E8
  8
0
 62
     3
 10
355.72625699999992
 20
624.69894199999999
 30
0.0
 11
355.72625699999992
 21
716.69887000000006
 31
0.0
  0
LINE
  5
E9
  8
0
 62
     3
 10
253.22616199999999
 20
624.20031500000005
 30
0.0
 11
253.22616199999999
 21
716.69879300000002
 31
0.0
  0
LINE
  5
EA
  8
0
 62
   150
 10
252.34080099999991
 20
624.25492699999995
 30
0.0
 11
252.34227799999999
 21
624.25640299999986
 31
0.0
  0
LINE
  5
EB
  8
0
 62
   150
 10
315.226204
 20
686.71325899999988
 30
0.0
 11
293.72620399999988
 21
686.71325899999988
 31
0.0
  0
LINE
  5
EC
  8
0
 62
   150
 10
315.226204
 20
687.15407800000003
 30
0.0
 11
293.72620399999988
 21
687.15407800000003
 31
0.0
  0
LINE
  5
ED
  8
0
 62
   150
 10
315.226204
 20
645.37695499999995
 30
0.0
 11
293.72620399999988
 21
645.37695499999995
 31
0.0
  0
LINE
  5
EE
  8
0
 62
   150
 10
315.226204
 20
646.046831
 30
0.0
 11
293.72620399999988
 21
646.046831
 31
0.0
  0
LINE
  5
EF
  8
0
 62
     4
 10
363.97624200000001
 20
635.44877099999985
 30
0.0
 11
363.97624200000001
 21
643.69876299999987
 31
0.0
  0
CIRCLE
  5
F0
  8
0
 62
     4
 10
373.97627299999988
 20
648.94877800000006
 30
0.0
 40
5.249981
  0
LINE
  5
F1
  8
0
  6
DASHDOT
 62
     7
 10
373.97627299999988
 20
640.69879300000002
 30
0.0
 11
373.97627299999988
 21
657.19875500000001
 31
0.0
  0
LINE
  5
F2
  8
0
  6
DASHDOT
 62
     7
 10
382.22625699999992
 20
648.94877800000006
 30
0.0
 11
365.72628800000001
 21
648.94877800000006
 31
0.0
  0
LINE
  5
F3
  8
0
  6
DASHDOT
 62
     7
 10
395.60571299999992
 20
676.69857200000001
 30
0.0
 11
236.15693999999999
 21
676.69857200000001
 31
0.0
  0
LINE
  5
F4
  8
0
  6
DASHSPACE
 62
     4
 10
356.97607399999998
 20
596.19857000000002
 30
0.0
 11
356.97607399999998
 21
624.19858699999986
 31
0.0
  0
LINE
  5
F5
  8
0
  6
DASHSPACE
 62
     4
 10
356.97607399999998
 20
729.19856500000003
 30
0.0
 11
356.97607399999998
 21
757.19226300000003
 31
0.0
  0
CIRCLE
  5
F6
  8
0
 62
     7
 10
392.00489800000003
 20
747.88800199999991
 30
0.0
 40
0.2
  0
LINE
  5
F7
  8
0
 62
     7
 10
356.97607399999998
 20
781.64268700000002
 30
0.0
 11
351.06720000000001
 21
782.684572
 31
0.0
  0
LINE
  5
F8
  8
0
 62
     7
 10
356.97607399999998
 20
781.64268700000002
 30
0.0
 11
351.06720000000001
 21
780.60080099999993
 31
0.0
  0
LINE
  5
F9
  8
0
 62
     7
 10
251.97607400000001
 20
781.64271699999995
 30
0.0
 11
257.88494900000001
 21
780.60083199999997
 31
0.0
  0
LINE
  5
FA
  8
0
 62
     7
 10
251.97607400000001
 20
781.64271699999995
 30
0.0
 11
257.88494900000001
 21
782.68460300000004
 31
0.0
  0
LINE
  5
FB
  8
0
 62
     7
 10
356.97607399999998
 20
781.64268700000002
 30
0.0
 11
251.97607400000001
 21
781.64271699999995
 31
0.0
  0
LINE
  5
FC
  8
0
 62
     7
 10
356.97607399999998
 20
785.64268700000002
 30
0.0
 11
356.976044
 21
728.69857999999999
 31
0.0
  0
LINE
  5
FD
  8
0
 62
     7
 10
251.97610499999999
 20
785.64271699999995
 30
0.0
 11
251.97607400000001
 21
728.69860999999992
 31
0.0
  0
LINE
  5
FE
  8
0
 62
     7
 10
339.476135
 20
572.82392100000004
 30
0.0
 11
333.56726099999992
 21
573.86581000000001
 31
0.0
  0
LINE
  5
FF
  8
0
 62
     7
 10
339.476135
 20
572.82392100000004
 30
0.0
 11
333.56726099999992
 21
571.78203199999996
 31
0.0
  0
LINE
  5
100
  8
0
 62
     7
 10
304.47607399999998
 20
572.82393300000001
 30
0.0
 11
310.38491800000003
 21
571.78204200000005
 31
0.0
  0
LINE
  5
101
  8
0
 62
     7
 10
304.47607399999998
 20
572.82393300000001
 30
0.0
 11
310.38491800000003
 21
573.86581999999987
 31
0.0
  0
LINE
  5
102
  8
0
 62
     7
 10
304.47607399999998
 20
572.82393300000001
 30
0.0
 11
298.56723
 21
573.86581999999987
 31
0.0
  0
LINE
  5
103
  8
0
 62
     7
 10
304.47607399999998
 20
572.82393300000001
 30
0.0
 11
298.56723
 21
571.78204299999993
 31
0.0
  0
LINE
  5
104
  8
0
 62
     7
 10
269.47607399999998
 20
572.82394199999999
 30
0.0
 11
275.38491800000003
 21
571.78205300000002
 31
0.0
  0
LINE
  5
105
  8
0
 62
     7
 10
269.47607399999998
 20
572.82394199999999
 30
0.0
 11
275.38491800000003
 21
573.86583099999984
 31
0.0
  0
LINE
  5
106
  8
0
 62
     7
 10
339.476135
 20
572.82392100000004
 30
0.0
 11
269.47607399999998
 21
572.8239440000001
 31
0.0
  0
LINE
  5
107
  8
0
 62
     7
 10
339.4761049999999
 20
568.82392100000004
 30
0.0
 11
339.476135
 21
591.44856100000004
 31
0.0
  0
LINE
  5
108
  8
0
 62
     7
 10
269.476044
 20
568.82394299999999
 30
0.0
 11
269.47607399999998
 21
591.44858399999998
 31
0.0
  0
LINE
  5
109
  8
0
 62
     7
 10
388.47622699999988
 20
555.22891800000002
 30
0.0
 11
382.56738299999989
 21
556.27080599999999
 31
0.0
  0
LINE
  5
10A
  8
0
 62
     7
 10
388.47622699999988
 20
555.22891800000002
 30
0.0
 11
382.56738299999989
 21
554.18702900000005
 31
0.0
  0
LINE
  5
10B
  8
0
 62
     7
 10
304.47607399999998
 20
555.22891399999992
 30
0.0
 11
310.38491800000003
 21
554.18702599999995
 31
0.0
  0
LINE
  5
10C
  8
0
 62
     7
 10
304.47607399999998
 20
555.22891399999992
 30
0.0
 11
310.38491800000003
 21
556.270804
 31
0.0
  0
LINE
  5
10D
  8
0
 62
     7
 10
388.47622699999988
 20
555.22891800000002
 30
0.0
 11
304.47607399999998
 21
555.22891399999992
 31
0.0
  0
LINE
  5
10E
  8
0
 62
     7
 10
388.47622699999988
 20
551.22891800000002
 30
0.0
 11
388.47622699999988
 21
664.44877099999985
 31
0.0
  0
LINE
  5
10F
  8
0
 62
     7
 10
414.07385299999999
 20
596.19856800000002
 30
0.0
 11
415.11572299999989
 21
602.10741599999994
 31
0.0
  0
LINE
  5
110
  8
0
 62
     7
 10
414.07385299999999
 20
596.19856800000002
 30
0.0
 11
413.03195199999988
 21
602.10741599999994
 31
0.0
  0
LINE
  5
111
  8
0
 62
     7
 10
414.07385299999999
 20
757.19226300000003
 30
0.0
 11
413.03195199999988
 21
751.28341900000009
 31
0.0
  0
LINE
  5
112
  8
0
 62
     7
 10
414.07385299999999
 20
757.19226300000003
 30
0.0
 11
415.11572299999989
 21
751.28341900000009
 31
0.0
  0
LINE
  5
113
  8
0
 62
     7
 10
414.07385299999999
 20
596.19856800000002
 30
0.0
 11
414.07385299999999
 21
757.19227799999999
 31
0.0
  0
LINE
  5
114
  8
0
 62
     7
 10
418.07385299999999
 20
596.19857200000001
 30
0.0
 11
399.22607399999998
 21
596.19856800000002
 31
0.0
  0
LINE
  5
115
  8
0
 62
     7
 10
418.07385299999999
 20
757.19226300000003
 30
0.0
 11
399.22607399999998
 21
757.19226300000003
 31
0.0
  0
LINE
  5
116
  8
0
 62
     7
 10
400.47607399999998
 20
799.81828499999995
 30
0.0
 11
394.56723
 21
800.86016999999993
 31
0.0
  0
LINE
  5
117
  8
0
 62
     7
 10
400.47607399999998
 20
799.81828499999995
 30
0.0
 11
394.56723
 21
798.77639999999985
 31
0.0
  0
LINE
  5
118
  8
0
 62
     7
 10
304.47607399999998
 20
799.81828499999995
 30
0.0
 11
310.38491800000003
 21
798.77639999999985
 31
0.0
  0
LINE
  5
119
  8
0
 62
     7
 10
304.47607399999998
 20
799.81828499999995
 30
0.0
 11
310.38491800000003
 21
800.860186
 31
0.0
  0
LINE
  5
11A
  8
0
 62
     7
 10
304.47607399999998
 20
799.81828499999995
 30
0.0
 11
298.56723
 21
800.86016999999993
 31
0.0
  0
LINE
  5
11B
  8
0
 62
     7
 10
304.47607399999998
 20
799.81828499999995
 30
0.0
 11
298.56723
 21
798.77639999999985
 31
0.0
  0
LINE
  5
11C
  8
0
 62
     7
 10
225.97607400000001
 20
799.81828499999995
 30
0.0
 11
231.884918
 21
798.77639999999985
 31
0.0
  0
LINE
  5
11D
  8
0
 62
     7
 10
225.97607400000001
 20
799.81828499999995
 30
0.0
 11
231.884918
 21
800.860186
 31
0.0
  0
LINE
  5
11E
  8
0
 62
     7
 10
400.47607399999998
 20
799.81828499999995
 30
0.0
 11
225.97607400000001
 21
799.81828499999995
 31
0.0
  0
LINE
  5
11F
  8
0
 62
     7
 10
400.47607399999998
 20
803.81828499999995
 30
0.0
 11
400.47607399999998
 21
755.94227799999999
 31
0.0
  0
LINE
  5
120
  8
0
 62
     7
 10
304.47607399999998
 20
803.81828499999995
 30
0.0
 11
304.47607399999998
 21
783.42564600000003
 31
0.0
  0
LINE
  5
121
  8
0
 62
     7
 10
225.97607400000001
 20
803.81828499999995
 30
0.0
 11
225.97607400000001
 21
755.94227799999999
 31
0.0
  0
LINE
  5
122
  8
0
 62
     3
 10
-34.357919000000003
 20
596.74858600000005
 30
0.0
 11
-106.357919
 21
596.74858600000005
 31
0.0
  0
LINE
  5
123
  8
0
 62
     7
 10
-34.357919000000003
 20
591.44858599999998
 30
0.0
 11
-34.357919000000003
 21
607.19854099999986
 31
0.0
  0
LINE
  5
124
  8
0
 62
     7
 10
-32.357919000000003
 20
604.44855599999994
 30
0.0
 11
-34.357919000000003
 21
604.44855599999994
 31
0.0
  0
LINE
  5
125
  8
0
 62
     7
 10
-32.357919000000003
 20
753.44854099999998
 30
0.0
 11
-34.357919000000003
 21
753.44854099999998
 31
0.0
  0
LINE
  5
126
  8
0
 62
     7
 10
-38.141595000000002
 20
659.10078499999986
 30
0.0
 11
-38.107919000000003
 21
659.12329199999999
 31
0.0
  0
LINE
  5
127
  8
0
 62
     3
 10
-34.357919000000003
 20
761.14858300000003
 30
0.0
 11
-128.55791599999989
 21
761.14858300000003
 31
0.0
  0
LINE
  5
128
  8
0
 62
     3
 10
-106.357919
 20
596.74858600000005
 30
0.0
 11
-128.55791599999989
 21
596.74858600000005
 31
0.0
  0
LINE
  5
129
  8
0
 62
     3
 10
-128.55791599999989
 20
596.74858899999981
 30
0.0
 11
-128.55791599999989
 21
607.94854099999998
 31
0.0
  0
LINE
  5
12A
  8
0
 62
     3
 10
-128.55791599999989
 20
751.94855599999994
 30
0.0
 11
-128.55791599999989
 21
761.14858300000003
 31
0.0
  0
LINE
  5
12B
  8
0
 62
     6
 10
15.14212699999999
 20
648.94854799999996
 30
0.0
 11
13.142142
 21
648.94855599999994
 31
0.0
  0
LINE
  5
12C
  8
0
 62
     6
 10
15.14212699999999
 20
641.94854799999996
 30
0.0
 11
13.142142
 21
641.94855599999994
 31
0.0
  0
LINE
  5
12D
  8
0
 62
     6
 10
15.64212699999999
 20
594.94857100000002
 30
0.0
 11
15.64212699999999
 21
619.94857100000002
 31
0.0
  0
LINE
  5
12E
  8
0
 62
     6
 10
15.64212699999999
 20
737.9485709999999
 30
0.0
 11
15.64212699999999
 21
762.9485709999999
 31
0.0
  0
LINE
  5
12F
  8
0
 62
     7
 10
4.6421269999999986
 20
596.74857399999996
 30
0.0
 11
-32.357919000000003
 21
596.74857399999996
 31
0.0
  0
LINE
  5
130
  8
0
 62
     6
 10
4.6421269999999986
 20
593.94857100000002
 30
0.0
 11
-32.357919000000003
 21
593.94857100000002
 31
0.0
  0
LINE
  5
131
  8
0
 62
     6
 10
4.6421269999999986
 20
763.94857100000002
 30
0.0
 11
-32.357919000000003
 21
763.94857100000002
 31
0.0
  0
LINE
  5
132
  8
0
 62
     3
 10
4.6421269999999986
 20
761.14858300000003
 30
0.0
 11
-32.357919000000003
 21
761.14858300000003
 31
0.0
  0
LINE
  5
133
  8
0
 62
     6
 10
-32.357919000000003
 20
593.94857100000002
 30
0.0
 11
-32.357919000000003
 21
607.19854099999986
 31
0.0
  0
LINE
  5
134
  8
0
 62
     6
 10
4.6421269999999986
 20
593.94857100000002
 30
0.0
 11
4.6421269999999986
 21
594.94857100000002
 31
0.0
  0
LINE
  5
135
  8
0
 62
     6
 10
17.142141999999989
 20
622.44856699999991
 30
0.0
 11
17.142126999999999
 21
635.44856300000004
 31
0.0
  0
LINE
  5
136
  8
0
 62
     6
 10
17.142126999999999
 20
722.44855599999994
 30
0.0
 11
17.142141999999989
 21
735.44855599999994
 31
0.0
  0
LINE
  5
137
  8
0
 62
     2
 10
16.642126999999999
 20
735.94857100000002
 30
0.0
 11
15.14212699999999
 21
735.94857100000002
 31
0.0
  0
LINE
  5
138
  8
0
 62
     2
 10
16.642126999999999
 20
621.94857100000002
 30
0.0
 11
15.14212699999999
 21
621.94857100000002
 31
0.0
  0
LINE
  5
139
  8
0
 62
     2
 10
15.14212699999999
 20
735.44857100000002
 30
0.0
 11
15.14212699999999
 21
735.94857100000002
 31
0.0
  0
LINE
  5
13A
  8
0
 62
     2
 10
15.14212699999999
 20
635.44867799999997
 30
0.0
 11
15.14212699999999
 21
722.44857100000002
 31
0.0
  0
LINE
  5
13B
  8
0
 62
     2
 10
15.14212699999999
 20
621.94857100000002
 30
0.0
 11
15.14212699999999
 21
622.44864699999994
 31
0.0
  0
LINE
  5
13C
  8
0
 62
     2
 10
16.642126999999999
 20
621.94857100000002
 30
0.0
 11
16.642126999999999
 21
622.44855599999994
 31
0.0
  0
LINE
  5
13D
  8
0
 62
     2
 10
16.642126999999999
 20
635.44855599999994
 30
0.0
 11
16.642126999999999
 21
722.44849499999987
 31
0.0
  0
LINE
  5
13E
  8
0
 62
     2
 10
16.642126999999999
 20
735.44849499999987
 30
0.0
 11
16.642126999999999
 21
735.94857100000002
 31
0.0
  0
LINE
  5
13F
  8
0
 62
     6
 10
15.64212699999999
 20
619.94857100000002
 30
0.0
 11
13.142142
 21
619.94857100000002
 31
0.0
  0
LINE
  5
140
  8
0
 62
     6
 10
15.64212699999999
 20
594.94857100000002
 30
0.0
 11
4.6421269999999986
 21
594.94857100000002
 31
0.0
  0
LINE
  5
141
  8
0
 62
     6
 10
15.64212699999999
 20
737.9485709999999
 30
0.0
 11
13.14212699999999
 21
737.9485709999999
 31
0.0
  0
LINE
  5
142
  8
0
 62
     6
 10
15.64212699999999
 20
762.9485709999999
 30
0.0
 11
8.6421109999999999
 21
762.9485709999999
 31
0.0
  0
LINE
  5
143
  8
0
 62
     6
 10
17.142141999999989
 20
622.44857100000002
 30
0.0
 11
13.142142
 21
622.44857100000002
 31
0.0
  0
LINE
  5
144
  8
0
 62
     6
 10
17.142126999999999
 20
635.44857100000002
 30
0.0
 11
13.142142
 21
635.44857100000002
 31
0.0
  0
LINE
  5
145
  8
0
 62
     6
 10
17.142141999999989
 20
735.44857100000002
 30
0.0
 11
13.14212699999999
 21
735.44857100000002
 31
0.0
  0
LINE
  5
146
  8
0
 62
     6
 10
17.142126999999999
 20
722.44857100000002
 30
0.0
 11
13.14212699999999
 21
722.44857100000002
 31
0.0
  0
LINE
  5
147
  8
0
 62
     6
 10
15.14212699999999
 20
718.94857100000002
 30
0.0
 11
13.14212699999999
 21
718.94857100000002
 31
0.0
  0
LINE
  5
148
  8
0
 62
     6
 10
15.14212699999999
 20
710.94857100000002
 30
0.0
 11
13.14212699999999
 21
710.94857100000002
 31
0.0
  0
LINE
  5
149
  8
0
  6
DASHDOT
 62
     7
 10
17.142141999999989
 20
735.44857100000002
 30
0.0
 11
17.142141999999989
 21
785.46665300000006
 31
0.0
  0
LINE
  5
14A
  8
0
  6
DASHDOT
 62
     7
 10
17.142126999999999
 20
635.44856300000004
 30
0.0
 11
17.142126999999999
 21
722.44857100000002
 31
0.0
  0
LINE
  5
14B
  8
0
  6
DASHDOT
 62
     7
 10
17.142141999999989
 20
569.89898999999991
 30
0.0
 11
17.142141999999989
 21
622.44856699999991
 31
0.0
  0
LINE
  5
14C
  8
0
  6
DASHDOT
 62
     7
 10
20.142126999999991
 20
569.80276500000002
 30
0.0
 11
20.142126999999991
 21
785.46665300000006
 31
0.0
  0
POLYLINE
  5
14D
  8
0
 62
     7
 66
     1
 10
0.0
 20
0.0
 30
0.0
  0
VERTEX
  5
A9E
  8
0
 62
     7
 10
31.243352999999999
 20
785.46665300000006
 30
0.0
  0
VERTEX
  5
A9F
  8
0
 62
     7
 10
15.24335299999999
 20
785.46665300000006
 30
0.0
  0
VERTEX
  5
AA0
  8
0
 62
     7
 10
14.243353000000001
 20
783.46665299999995
 30
0.0
  0
VERTEX
  5
AA1
  8
0
 62
     7
 10
13.24335299999999
 20
787.46665299999995
 30
0.0
  0
VERTEX
  5
AA2
  8
0
 62
     7
 10
12.24335299999999
 20
785.46665300000006
 30
0.0
  0
VERTEX
  5
AA3
  8
0
 62
     7
 10
10.963979999999999
 20
785.46665300000006
 30
0.0
  0
SEQEND
  5
AA4
  8
0
 62
     7
  0
POLYLINE
  5
155
  8
0
 62
     7
 66
     1
 10
0.0
 20
0.0
 30
0.0
  0
VERTEX
  5
AA5
  8
0
 62
     7
 10
25.567785999999991
 20
569.69771300000002
 30
0.0
  0
VERTEX
  5
AA6
  8
0
 62
     7
 10
14.444540999999999
 20
569.91308300000003
 30
0.0
  0
VERTEX
  5
AA7
  8
0
 62
     7
 10
13.406012
 20
567.93281699999989
 30
0.0
  0
VERTEX
  5
AA8
  8
0
 62
     7
 10
12.483634
 20
571.95142599999986
 30
0.0
  0
VERTEX
  5
AA9
  8
0
 62
     7
 10
11.445104999999989
 20
569.97115899999994
 30
0.0
  0
SEQEND
  5
AAA
  8
0
 62
     7
  0
LINE
  5
15C
  8
0
 62
     6
 10
8.6421109999999999
 20
594.94857100000002
 30
0.0
 11
4.6421269999999986
 21
594.94857100000002
 31
0.0
  0
LINE
  5
15D
  8
0
 62
     7
 10
4.6421269999999986
 20
594.94857100000002
 30
0.0
 11
4.6421269999999986
 21
611.94831199999987
 31
0.0
  0
LINE
  5
15E
  8
0
 62
     6
 10
4.6421269999999986
 20
762.9485709999999
 30
0.0
 11
4.6421269999999986
 21
763.94857100000002
 31
0.0
  0
LINE
  5
15F
  8
0
 62
     3
 10
4.6421269999999986
 20
737.9485709999999
 30
0.0
 11
4.6421269999999986
 21
762.9485709999999
 31
0.0
  0
LINE
  5
160
  8
0
 62
     6
 10
8.6421109999999999
 20
762.9485709999999
 30
0.0
 11
4.6421269999999986
 21
762.9485709999999
 31
0.0
  0
LINE
  5
161
  8
0
  6
DASHDOT
 62
     7
 10
35.706685999999991
 20
728.94857100000002
 30
0.0
 11
7.2009949999999989
 21
728.94857100000002
 31
0.0
  0
LINE
  5
162
  8
0
  6
DASHDOT
 62
     7
 10
35.355810999999989
 20
628.94857100000002
 30
0.0
 11
8.3729770000000006
 21
628.94857100000002
 31
0.0
  0
LINE
  5
163
  8
0
 62
     4
 10
-161.85779099999991
 20
622.94852900000001
 30
0.0
 11
-161.857843
 21
626.94855599999994
 31
0.0
  0
LINE
  5
164
  8
0
 62
     3
 10
-148.15914299999989
 20
615.94852500000002
 30
0.0
 11
-147.85784399999989
 21
615.94852900000001
 31
0.0
  0
LINE
  5
165
  8
0
 62
     4
 10
-161.857843
 20
611.94853299999988
 30
0.0
 11
-161.8577929999999
 21
615.94851799999992
 31
0.0
  0
LINE
  5
166
  8
0
 62
     4
 10
-30.357903999999991
 20
611.94841499999995
 30
0.0
 11
-32.357903999999991
 21
611.94854099999998
 31
0.0
  0
LINE
  5
167
  8
0
 62
     4
 10
-156.857843
 20
611.94853299999988
 30
0.0
 11
-37.357919000000003
 21
611.94854099999998
 31
0.0
  0
LINE
  5
168
  8
0
 62
     4
 10
13.14212699999999
 20
751.94855599999994
 30
0.0
 11
-30.357918999999988
 21
751.94855599999994
 31
0.0
  0
LINE
  5
169
  8
0
 62
     4
 10
13.14212699999999
 20
611.94828899999993
 30
0.0
 11
-30.357903999999991
 21
611.94841499999995
 31
0.0
  0
LINE
  5
16A
  8
0
 62
     4
 10
13.14212699999999
 20
611.94828899999993
 30
0.0
 11
13.142142
 21
622.94850599999995
 31
0.0
  0
LINE
  5
16B
  8
0
 62
     3
 10
-71.357857999999993
 20
719.94857100000002
 30
0.0
 11
-161.857843
 21
719.94857100000002
 31
0.0
  0
LINE
  5
16C
  8
0
 62
     3
 10
-71.357857999999993
 20
689.94852500000002
 30
0.0
 11
-105.857877
 21
689.94852500000002
 31
0.0
  0
LINE
  5
16D
  8
0
 62
     4
 10
-161.8577929999999
 20
615.94851799999992
 30
0.0
 11
-161.85779099999991
 21
622.94852900000001
 31
0.0
  0
LINE
  5
16E
  8
0
 62
     4
 10
-30.357918999999988
 20
751.94855599999994
 30
0.0
 11
-161.857843
 21
751.94855599999994
 31
0.0
  0
LINE
  5
16F
  8
0
 62
     4
 10
-161.857843
 20
719.94857100000002
 30
0.0
 11
-161.857843
 21
751.94855599999994
 31
0.0
  0
LINE
  5
170
  8
0
 62
     3
 10
-59.607919000000003
 20
615.94857899999988
 30
0.0
 11
-34.357903999999998
 21
615.94862399999988
 31
0.0
  0
LINE
  5
171
  8
0
 62
     3
 10
-100.48285799999989
 20
615.94855599999994
 30
0.0
 11
-63.607918999999988
 21
615.94857899999988
 31
0.0
  0
LINE
  5
172
  8
0
 62
     3
 10
-157.85773399999999
 20
615.94851799999992
 30
0.0
 11
-104.482856
 21
615.94855199999995
 31
0.0
  0
LINE
  5
173
  8
0
 62
     3
 10
-157.8577249999999
 20
620.44852900000001
 30
0.0
 11
-104.482854
 21
620.44856300000004
 31
0.0
  0
LINE
  5
174
  8
0
 62
     3
 10
-100.482854
 20
620.44856700000003
 30
0.0
 11
-63.607911999999999
 21
620.44858999999997
 31
0.0
  0
LINE
  5
175
  8
0
 62
     3
 10
-59.607911999999999
 20
620.44859399999996
 30
0.0
 11
-34.357903999999998
 21
620.44860900000003
 31
0.0
  0
LINE
  5
176
  8
0
 62
     3
 10
-157.85773399999999
 20
615.94851799999992
 30
0.0
 11
-157.85772700000001
 21
620.44852900000001
 31
0.0
  0
LINE
  5
177
  8
0
 62
     3
 10
-34.357903999999998
 20
615.94862399999988
 30
0.0
 11
-34.357903999999998
 21
620.44860900000003
 31
0.0
  0
LINE
  5
178
  8
0
 62
     3
 10
-59.607919000000003
 20
615.94857899999988
 30
0.0
 11
-59.607911999999999
 21
620.44861300000002
 31
0.0
  0
LINE
  5
179
  8
0
 62
     3
 10
-63.607918999999988
 20
615.94857899999988
 30
0.0
 11
-63.607911999999999
 21
620.44860900000003
 31
0.0
  0
LINE
  5
17A
  8
0
 62
     3
 10
-100.48285799999989
 20
615.94855599999994
 30
0.0
 11
-100.482854
 21
620.44858599999998
 31
0.0
  0
LINE
  5
17B
  8
0
 62
     3
 10
-104.482856
 20
615.94855199999995
 30
0.0
 11
-104.48285199999999
 21
620.44858599999998
 31
0.0
  0
LINE
  5
17C
  8
0
 62
     4
 10
-129.857844
 20
607.94854099999998
 30
0.0
 11
-129.857844
 21
611.94854099999998
 31
0.0
  0
LINE
  5
17D
  8
0
 62
     4
 10
-125.8578439999999
 20
607.94854099999998
 30
0.0
 11
-125.8578439999999
 21
611.94854099999998
 31
0.0
  0
LINE
  5
17E
  8
0
 62
     4
 10
-125.8578439999999
 20
607.94854099999998
 30
0.0
 11
-129.857844
 21
607.94854099999998
 31
0.0
  0
LINE
  5
17F
  8
0
 62
     4
 10
-46.107843000000003
 20
607.94859399999996
 30
0.0
 11
-46.107843000000003
 21
611.94852500000002
 31
0.0
  0
LINE
  5
180
  8
0
 62
     4
 10
-42.107843000000003
 20
607.94859399999996
 30
0.0
 11
-42.107843000000003
 21
611.94852500000002
 31
0.0
  0
LINE
  5
181
  8
0
 62
     4
 10
-42.107843000000003
 20
607.94859399999996
 30
0.0
 11
-46.107843000000003
 21
607.94859399999996
 31
0.0
  0
LINE
  5
182
  8
0
 62
     4
 10
-156.857843
 20
607.19854099999986
 30
0.0
 11
-156.857843
 21
609.69854099999998
 31
0.0
  0
LINE
  5
183
  8
0
 62
     4
 10
-161.857843
 20
607.19854099999986
 30
0.0
 11
-161.857843
 21
611.94853299999988
 31
0.0
  0
LINE
  5
184
  8
0
 62
     4
 10
-156.857843
 20
607.19854099999986
 30
0.0
 11
-161.857843
 21
607.19854099999986
 31
0.0
  0
LINE
  5
185
  8
0
 62
     4
 10
-156.857843
 20
609.69854099999998
 30
0.0
 11
-156.857843
 21
611.94854099999998
 31
0.0
  0
LINE
  5
186
  8
0
 62
     4
 10
-37.357934
 20
607.19854099999986
 30
0.0
 11
-37.357934
 21
609.69854099999998
 31
0.0
  0
LINE
  5
187
  8
0
 62
     4
 10
-32.357934
 20
607.19854099999986
 30
0.0
 11
-37.357934
 21
607.19854099999986
 31
0.0
  0
LINE
  5
188
  8
0
 62
     4
 10
-32.357934
 20
607.19854099999986
 30
0.0
 11
-32.357903999999991
 21
611.94854099999998
 31
0.0
  0
LINE
  5
189
  8
0
 62
     4
 10
-37.357934
 20
609.69854099999998
 30
0.0
 11
-37.357919000000003
 21
611.94852500000002
 31
0.0
  0
LINE
  5
18A
  8
0
 62
     3
 10
-154.85785100000001
 20
731.44858599999986
 30
0.0
 11
-157.85785100000001
 21
734.44858599999986
 31
0.0
  0
LINE
  5
18B
  8
0
 62
     4
 10
-161.857843
 20
626.94855599999994
 30
0.0
 11
-161.857843
 21
689.94854799999996
 31
0.0
  0
LINE
  5
18C
  8
0
 62
     3
 10
-105.85788099999991
 20
689.94854099999986
 30
0.0
 11
-161.857843
 21
689.94854799999996
 31
0.0
  0
LINE
  5
18D
  8
0
 62
     3
 10
-71.357857999999993
 20
689.94852500000002
 30
0.0
 11
-71.357857999999993
 21
719.94857100000002
 31
0.0
  0
LINE
  5
18E
  8
0
 62
     3
 10
-146.357844
 20
719.44857100000002
 30
0.0
 11
-146.357844
 21
719.94857100000002
 31
0.0
  0
LINE
  5
18F
  8
0
 62
     3
 10
-59.607919000000003
 20
738.69855599999994
 30
0.0
 11
-34.357903999999998
 21
738.69857100000002
 31
0.0
  0
LINE
  5
190
  8
0
 62
     3
 10
-59.607919000000003
 20
731.44855599999994
 30
0.0
 11
-59.607919000000003
 21
738.69855599999994
 31
0.0
  0
LINE
  5
191
  8
0
 62
     3
 10
-59.607919000000003
 20
731.44855599999994
 30
0.0
 11
-34.357903999999998
 21
731.44857100000002
 31
0.0
  0
LINE
  5
192
  8
0
 62
     3
 10
-34.357903999999998
 20
731.44857100000002
 30
0.0
 11
-34.357903999999998
 21
738.69857100000002
 31
0.0
  0
LINE
  5
193
  8
0
 62
     3
 10
-104.482856
 20
731.44857100000002
 30
0.0
 11
-104.482856
 21
738.69857100000002
 31
0.0
  0
LINE
  5
194
  8
0
 62
     3
 10
-63.607918999999988
 20
731.44857100000002
 30
0.0
 11
-104.48285799999989
 21
731.44857100000002
 31
0.0
  0
LINE
  5
195
  8
0
 62
     3
 10
-63.607918999999988
 20
731.44857100000002
 30
0.0
 11
-63.607918999999988
 21
738.69857100000002
 31
0.0
  0
LINE
  5
196
  8
0
 62
     3
 10
-63.607918999999988
 20
738.69857100000002
 30
0.0
 11
-104.48285799999989
 21
738.69857100000002
 31
0.0
  0
LINE
  5
197
  8
0
 62
     3
 10
-108.482856
 20
731.44857100000002
 30
0.0
 11
-157.85784099999989
 21
731.44857100000002
 31
0.0
  0
LINE
  5
198
  8
0
 62
     3
 10
-108.482856
 20
731.44857100000002
 30
0.0
 11
-108.482856
 21
738.69857100000002
 31
0.0
  0
LINE
  5
199
  8
0
 62
     3
 10
-108.482856
 20
738.69857100000002
 30
0.0
 11
-157.85784099999989
 21
738.69857100000002
 31
0.0
  0
LINE
  5
19A
  8
0
 62
     3
 10
-157.857843
 20
731.44857100000002
 30
0.0
 11
-157.857843
 21
738.69857100000002
 31
0.0
  0
LINE
  5
19B
  8
0
 62
     3
 10
-147.85784399999989
 20
615.94852900000001
 30
0.0
 11
-147.85784399999989
 21
620.44855199999995
 31
0.0
  0
LINE
  5
19C
  8
0
 62
     3
 10
-143.85784099999989
 20
615.94852900000001
 30
0.0
 11
-143.85784099999989
 21
620.44855599999994
 31
0.0
  0
LINE
  5
19D
  8
0
 62
     3
 10
-157.85745199999999
 20
615.94849099999988
 30
0.0
 11
-157.85745
 21
620.44852900000001
 31
0.0
  0
LINE
  5
19E
  8
0
 62
     4
 10
-161.857843
 20
611.94847900000002
 30
0.0
 11
-161.8578389999999
 21
612.94855199999995
 31
0.0
  0
LINE
  5
19F
  8
0
 62
     4
 10
-30.357911999999999
 20
611.94841499999995
 30
0.0
 11
-32.357903999999991
 21
611.94844499999988
 31
0.0
  0
LINE
  5
1A0
  8
0
 62
     4
 10
13.142142
 20
622.94850599999995
 30
0.0
 11
13.14212699999999
 21
751.94855599999994
 31
0.0
  0
LINE
  5
1A1
  8
0
 62
     3
 10
-59.555855999999999
 20
615.94855999999993
 30
0.0
 11
-59.555855999999999
 21
620.44859399999996
 31
0.0
  0
LINE
  5
1A2
  8
0
 62
     3
 10
-63.609131999999988
 20
615.94851399999993
 30
0.0
 11
-63.609131999999988
 21
620.44858999999997
 31
0.0
  0
LINE
  5
1A3
  8
0
 62
     3
 10
-85.857843000000003
 20
719.44857100000002
 30
0.0
 11
-161.857843
 21
719.44857100000002
 31
0.0
  0
LINE
  5
1A4
  8
0
 62
     3
 10
-85.857843000000003
 20
689.94852500000002
 30
0.0
 11
-85.857843000000003
 21
719.44857100000002
 31
0.0
  0
LINE
  5
1A5
  8
0
 62
     7
 10
-161.857843
 20
689.94854799999996
 30
0.0
 11
-161.857843
 21
719.44857100000002
 31
0.0
  0
LINE
  5
1A6
  8
0
 62
     3
 10
-154.8577249999999
 20
615.94854399999997
 30
0.0
 11
-154.85772700000001
 21
620.44854799999996
 31
0.0
  0
LINE
  5
1A7
  8
0
 62
     3
 10
-34.357903999999998
 20
732.94857100000002
 30
0.0
 11
-59.607903999999998
 21
732.94857100000002
 31
0.0
  0
LINE
  5
1A8
  8
0
 62
     3
 10
-63.607911999999999
 20
732.94857100000002
 30
0.0
 11
-104.48284699999989
 21
732.94857100000002
 31
0.0
  0
LINE
  5
1A9
  8
0
 62
     3
 10
-108.48284699999989
 20
732.94857100000002
 30
0.0
 11
-154.857843
 21
732.94857100000002
 31
0.0
  0
LINE
  5
1AA
  8
0
 62
     3
 10
-155.6078389999999
 20
732.19858599999986
 30
0.0
 11
-154.8578389999999
 21
732.94858599999998
 31
0.0
  0
LINE
  5
1AB
  8
0
 62
     3
 10
-154.857843
 20
732.94857100000002
 30
0.0
 11
-154.857843
 21
738.69857100000002
 31
0.0
  0
LINE
  5
1AC
  8
0
 62
     6
 10
-32.357919000000003
 20
751.94855599999994
 30
0.0
 11
-32.357919000000003
 21
763.94857100000002
 31
0.0
  0
LINE
  5
1AD
  8
0
 62
     7
 10
-34.357919000000003
 20
751.94855599999994
 30
0.0
 11
-34.357919000000003
 21
766.44857100000002
 31
0.0
  0
LINE
  5
1AE
  8
0
 62
     3
 10
-106.357919
 20
751.94855599999994
 30
0.0
 11
-106.357919
 21
763.94857100000002
 31
0.0
  0
LINE
  5
1AF
  8
0
 62
   150
 10
-178.35785100000001
 20
624.69376099999988
 30
0.0
 11
-178.35785100000001
 21
717.19861700000001
 31
0.0
  0
LINE
  5
1B0
  8
0
 62
   150
 10
-178.35785100000001
 20
727.1986169999999
 30
0.0
 11
-178.35785100000001
 21
728.70281299999999
 31
0.0
  0
LINE
  5
1B1
  8
0
 62
   150
 10
-178.3581439999999
 20
624.69801399999994
 30
0.0
 11
-178.35785799999999
 21
624.700063
 31
0.0
  0
CIRCLE
  5
1B2
  8
0
 62
     4
 10
-7.3579039999999987
 20
728.94857100000002
 30
0.0
 40
5.9999960000000003
  0
CIRCLE
  5
1B3
  8
0
 62
     4
 10
-7.3579270000000001
 20
728.94854099999998
 30
0.0
 40
3.2500040000000001
  0
CIRCLE
  5
1B4
  8
0
 62
     4
 10
-7.3579039999999987
 20
628.94854399999997
 30
0.0
 40
6.0000099999999987
  0
CIRCLE
  5
1B5
  8
0
 62
     4
 10
-7.3578960000000002
 20
628.94855599999994
 30
0.0
 40
3.2500009999999988
  0
CIRCLE
  5
1B6
  8
0
 62
     4
 10
-149.85793200000001
 20
674.94848699999989
 30
0.0
 40
10.00001799999999
  0
CIRCLE
  5
1B7
  8
0
 62
     4
 10
-149.857922
 20
674.94850999999994
 30
0.0
 40
2.749997
  0
LINE
  5
1B8
  8
0
  6
DASHDOT
 62
     7
 10
-149.85793200000001
 20
661.94847199999992
 30
0.0
 11
-149.85793200000001
 21
687.94850999999994
 31
0.0
  0
LINE
  5
1B9
  8
0
  6
DASHDOT
 62
     7
 10
-136.85791399999999
 20
674.94848699999989
 30
0.0
 11
-162.8579499999999
 21
674.94848699999989
 31
0.0
  0
LINE
  5
1BA
  8
0
  6
DASHDOT
 62
     7
 10
-7.3579039999999987
 20
719.94857100000002
 30
0.0
 11
-7.3579039999999987
 21
737.9485709999999
 31
0.0
  0
LINE
  5
1BB
  8
0
  6
DASHDOT
 62
     7
 10
1.642096
 20
728.94857100000002
 30
0.0
 11
-16.357904000000001
 21
728.94857100000002
 31
0.0
  0
LINE
  5
1BC
  8
0
  6
DASHDOT
 62
     7
 10
-7.3579039999999987
 20
619.94853299999988
 30
0.0
 11
-7.3579039999999987
 21
637.94855599999994
 31
0.0
  0
LINE
  5
1BD
  8
0
  6
DASHDOT
 62
     7
 10
1.6421110000000001
 20
628.94854399999997
 30
0.0
 11
-16.357911999999988
 21
628.94854399999997
 31
0.0
  0
LINE
  5
1BE
  8
0
 62
     3
 10
-164.857854
 20
642.94863999999995
 30
0.0
 11
-164.857854
 21
655.948441
 31
0.0
  0
LINE
  5
1BF
  8
0
 62
     1
 10
-174.857854
 20
596.19843800000001
 30
0.0
 11
-174.857854
 21
757.19843400000002
 31
0.0
  0
LINE
  5
1C0
  8
0
 62
     1
 10
-174.857854
 20
596.19843800000001
 30
0.0
 11
-178.357854
 21
596.19843800000001
 31
0.0
  0
LINE
  5
1C1
  8
0
 62
     1
 10
-178.357854
 20
596.19843800000001
 30
0.0
 11
-178.357854
 21
640.948441
 31
0.0
  0
LINE
  5
1C2
  8
0
 62
     1
 10
-178.357854
 20
657.948441
 30
0.0
 11
-178.357854
 21
757.19843400000002
 31
0.0
  0
LINE
  5
1C3
  8
0
 62
     1
 10
-174.857854
 20
757.19843400000002
 30
0.0
 11
-178.357854
 21
757.19843400000002
 31
0.0
  0
LINE
  5
1C4
  8
0
 62
     1
 10
-172.85785399999989
 20
679.698441
 30
0.0
 11
-172.85785399999989
 21
738.69843400000002
 31
0.0
  0
LINE
  5
1C5
  8
0
 62
     1
 10
-172.85785399999989
 20
655.94844899999998
 30
0.0
 11
-172.85785399999989
 21
673.69844899999998
 31
0.0
  0
LINE
  5
1C6
  8
0
 62
     1
 10
-172.85785399999989
 20
614.69843800000001
 30
0.0
 11
-172.85785399999989
 21
642.94844899999998
 31
0.0
  0
LINE
  5
1C7
  8
0
 62
     3
 10
-168.357854
 20
603.27578800000003
 30
0.0
 11
-168.357854
 21
608.12108699999987
 31
0.0
  0
LINE
  5
1C8
  8
0
 62
     3
 10
-168.357854
 20
745.27578099999994
 30
0.0
 11
-168.357854
 21
750.12108699999999
 31
0.0
  0
LINE
  5
1C9
  8
0
 62
     3
 10
-168.357854
 20
674.27578800000003
 30
0.0
 11
-168.357854
 21
679.12108699999999
 31
0.0
  0
LINE
  5
1CA
  8
0
 62
     3
 10
-177.357854
 20
640.948441
 30
0.0
 11
-178.357854
 21
640.948441
 31
0.0
  0
LINE
  5
1CB
  8
0
 62
     3
 10
-177.357854
 20
640.948441
 30
0.0
 11
-177.357854
 21
657.948441
 31
0.0
  0
LINE
  5
1CC
  8
0
 62
     3
 10
-177.357854
 20
657.948441
 30
0.0
 11
-178.357854
 21
657.948441
 31
0.0
  0
LINE
  5
1CD
  8
0
 62
     3
 10
-177.357854
 20
637.94844099999989
 30
0.0
 11
-177.357854
 21
640.948441
 31
0.0
  0
LINE
  5
1CE
  8
0
 62
     3
 10
-177.357854
 20
657.948441
 30
0.0
 11
-177.357854
 21
660.948441
 31
0.0
  0
LINE
  5
1CF
  8
0
 62
     3
 10
-176.357854
 20
637.94844099999989
 30
0.0
 11
-177.357854
 21
637.94844099999989
 31
0.0
  0
LINE
  5
1D0
  8
0
 62
     3
 10
-176.357854
 20
637.94844099999989
 30
0.0
 11
-176.357854
 21
660.948441
 31
0.0
  0
LINE
  5
1D1
  8
0
 62
     3
 10
-176.357854
 20
660.948441
 30
0.0
 11
-177.357854
 21
660.948441
 31
0.0
  0
LINE
  5
1D2
  8
0
 62
     3
 10
-164.857854
 20
642.94863999999995
 30
0.0
 11
-174.857854
 21
642.94863999999995
 31
0.0
  0
LINE
  5
1D3
  8
0
 62
     3
 10
-164.857854
 20
655.948441
 30
0.0
 11
-174.857854
 21
655.948441
 31
0.0
  0
LINE
  5
1D4
  8
0
 62
     1
 10
-178.357854
 20
640.948441
 30
0.0
 11
-178.357854
 21
657.948441
 31
0.0
  0
LINE
  5
1D5
  8
0
 62
     3
 10
-169.357854
 20
602.69843800000001
 30
0.0
 11
-174.857854
 21
602.69843800000001
 31
0.0
  0
LINE
  5
1D6
  8
0
 62
     3
 10
-169.357854
 20
608.69843800000001
 30
0.0
 11
-174.857854
 21
608.69843800000001
 31
0.0
  0
LINE
  5
1D7
  8
0
 62
     1
 10
-169.357854
 20
608.47007399999995
 30
0.0
 11
-169.357854
 21
608.69843800000001
 31
0.0
  0
LINE
  5
1D8
  8
0
 62
     3
 10
-169.357854
 20
607.81975599999987
 30
0.0
 11
-169.357854
 21
608.47007399999995
 31
0.0
  0
LINE
  5
1D9
  8
0
 62
     3
 10
-169.357854
 20
606.84649000000002
 30
0.0
 11
-169.357854
 21
607.81975599999987
 31
0.0
  0
LINE
  5
1DA
  8
0
 62
     3
 10
-169.357854
 20
605.69843800000001
 30
0.0
 11
-169.357854
 21
606.84649000000002
 31
0.0
  0
LINE
  5
1DB
  8
0
 62
     3
 10
-169.357854
 20
604.55038899999988
 30
0.0
 11
-169.357854
 21
605.69843800000001
 31
0.0
  0
LINE
  5
1DC
  8
0
 62
     3
 10
-169.357854
 20
603.57711900000004
 30
0.0
 11
-169.357854
 21
604.55038899999988
 31
0.0
  0
LINE
  5
1DD
  8
0
 62
     3
 10
-169.357854
 20
602.92680099999995
 30
0.0
 11
-169.357854
 21
603.57711900000004
 31
0.0
  0
LINE
  5
1DE
  8
0
 62
     3
 10
-169.357854
 20
602.69843800000001
 30
0.0
 11
-169.357854
 21
602.92680099999995
 31
0.0
  0
LINE
  5
1DF
  8
0
 62
     3
 10
-169.357854
 20
602.69843800000001
 30
0.0
 11
-168.357854
 21
603.27578800000003
 31
0.0
  0
LINE
  5
1E0
  8
0
 62
     3
 10
-168.35785100000001
 20
608.12108699999987
 30
0.0
 11
-169.35785100000001
 21
608.69843800000001
 31
0.0
  0
LINE
  5
1E1
  8
0
 62
     3
 10
-169.357854
 20
744.69843400000002
 30
0.0
 11
-174.857854
 21
744.69843400000002
 31
0.0
  0
LINE
  5
1E2
  8
0
 62
     3
 10
-169.357854
 20
750.69843400000002
 30
0.0
 11
-174.857854
 21
750.69843400000002
 31
0.0
  0
LINE
  5
1E3
  8
0
 62
     3
 10
-169.357854
 20
750.47007099999985
 30
0.0
 11
-169.357854
 21
750.69843400000002
 31
0.0
  0
LINE
  5
1E4
  8
0
 62
     3
 10
-169.357854
 20
749.81975599999998
 30
0.0
 11
-169.357854
 21
750.47007099999985
 31
0.0
  0
LINE
  5
1E5
  8
0
 62
     3
 10
-169.357854
 20
748.84649000000002
 30
0.0
 11
-169.357854
 21
749.81975599999998
 31
0.0
  0
LINE
  5
1E6
  8
0
 62
     3
 10
-169.357854
 20
747.69843400000002
 30
0.0
 11
-169.357854
 21
748.84649000000002
 31
0.0
  0
LINE
  5
1E7
  8
0
 62
     3
 10
-169.357854
 20
746.55039299999987
 30
0.0
 11
-169.357854
 21
747.69843400000002
 31
0.0
  0
LINE
  5
1E8
  8
0
 62
     3
 10
-169.357854
 20
745.57711099999995
 30
0.0
 11
-169.357854
 21
746.55039299999987
 31
0.0
  0
LINE
  5
1E9
  8
0
 62
     3
 10
-169.357854
 20
744.92679699999997
 30
0.0
 11
-169.357854
 21
745.57711099999995
 31
0.0
  0
LINE
  5
1EA
  8
0
 62
     3
 10
-169.357854
 20
744.69843400000002
 30
0.0
 11
-169.357854
 21
744.92679699999997
 31
0.0
  0
LINE
  5
1EB
  8
0
 62
     3
 10
-169.357854
 20
744.69843400000002
 30
0.0
 11
-168.357854
 21
745.27578099999994
 31
0.0
  0
LINE
  5
1EC
  8
0
 62
     3
 10
-168.357854
 20
750.12108699999999
 30
0.0
 11
-169.357854
 21
750.69843400000002
 31
0.0
  0
LINE
  5
1ED
  8
0
 62
     3
 10
-169.357854
 20
673.69844099999989
 30
0.0
 11
-174.857854
 21
673.69844099999989
 31
0.0
  0
LINE
  5
1EE
  8
0
 62
     3
 10
-169.357854
 20
679.698441
 30
0.0
 11
-174.857854
 21
679.698441
 31
0.0
  0
LINE
  5
1EF
  8
0
 62
     3
 10
-169.357854
 20
679.47007799999994
 30
0.0
 11
-169.357854
 21
679.698441
 31
0.0
  0
LINE
  5
1F0
  8
0
 62
     3
 10
-169.357854
 20
678.81975599999998
 30
0.0
 11
-169.357854
 21
679.47007799999994
 31
0.0
  0
LINE
  5
1F1
  8
0
 62
     3
 10
-169.357854
 20
677.84649000000002
 30
0.0
 11
-169.357854
 21
678.81975599999998
 31
0.0
  0
LINE
  5
1F2
  8
0
 62
     3
 10
-169.357854
 20
676.698441
 30
0.0
 11
-169.357854
 21
677.84649000000002
 31
0.0
  0
LINE
  5
1F3
  8
0
 62
     3
 10
-169.357854
 20
675.55038500000001
 30
0.0
 11
-169.357854
 21
676.698441
 31
0.0
  0
LINE
  5
1F4
  8
0
 62
     3
 10
-169.357854
 20
674.57711900000004
 30
0.0
 11
-169.357854
 21
675.55038500000001
 31
0.0
  0
LINE
  5
1F5
  8
0
 62
     3
 10
-169.357854
 20
673.92679699999997
 30
0.0
 11
-169.357854
 21
674.57711900000004
 31
0.0
  0
LINE
  5
1F6
  8
0
 62
     3
 10
-169.357854
 20
673.69844099999989
 30
0.0
 11
-169.357854
 21
673.92679699999997
 31
0.0
  0
LINE
  5
1F7
  8
0
 62
     3
 10
-169.357854
 20
673.69844099999989
 30
0.0
 11
-168.357854
 21
674.27578800000003
 31
0.0
  0
LINE
  5
1F8
  8
0
 62
     3
 10
-168.357854
 20
679.12108699999999
 30
0.0
 11
-169.357854
 21
679.698441
 31
0.0
  0
LINE
  5
1F9
  8
0
 62
     7
 10
-174.857854
 20
757.19843400000002
 30
0.0
 11
-174.857854
 21
811.78473700000006
 31
0.0
  0
LINE
  5
1FA
  8
0
 62
     7
 10
-172.85785399999989
 20
738.69843400000002
 30
0.0
 11
-172.85785399999989
 21
744.69843400000002
 31
0.0
  0
LINE
  5
1FB
  8
0
 62
     7
 10
-174.857854
 20
529.35137999999995
 30
0.0
 11
-174.857854
 21
596.19843800000001
 31
0.0
  0
LINE
  5
1FC
  8
0
 62
     7
 10
-172.85785399999989
 20
529.93758500000001
 30
0.0
 11
-172.85785399999989
 21
602.69843800000001
 31
0.0
  0
POLYLINE
  5
1FD
  8
0
 62
     3
 66
     1
 10
0.0
 20
0.0
 30
0.0
  0
VERTEX
  5
AAB
  8
0
 62
     3
 10
-181.70197400000001
 20
527.34534499999995
 30
0.0
  0
VERTEX
  5
AAC
  8
0
 62
     3
 10
-169.30836599999989
 20
530.97795599999995
 30
0.0
  0
VERTEX
  5
AAD
  8
0
 62
     3
 10
-168.91127900000001
 20
533.17848300000003
 30
0.0
  0
VERTEX
  5
AAE
  8
0
 62
     3
 10
-166.82657
 20
529.62123999999994
 30
0.0
  0
VERTEX
  5
AAF
  8
0
 62
     3
 10
-166.42948100000001
 20
531.82176700000002
 30
0.0
  0
SEQEND
  5
AB0
  8
0
 62
     3
  0
POLYLINE
  5
204
  8
0
 62
     3
 66
     1
 10
0.0
 20
0.0
 30
0.0
  0
VERTEX
  5
AB1
  8
0
 62
     3
 10
-181.17533599999999
 20
810.67641500000002
 30
0.0
  0
VERTEX
  5
AB2
  8
0
 62
     3
 10
-169.12103400000001
 20
812.79120699999999
 30
0.0
  0
VERTEX
  5
AB3
  8
0
 62
     3
 10
-168.48167599999991
 20
814.93392300000005
 30
0.0
  0
VERTEX
  5
AB4
  8
0
 62
     3
 10
-166.805521
 20
811.16689400000007
 30
0.0
  0
VERTEX
  5
AB5
  8
0
 62
     3
 10
-166.16616200000001
 20
813.30960900000002
 30
0.0
  0
SEQEND
  5
AB6
  8
0
 62
     3
  0
LINE
  5
20B
  8
0
 62
     7
 10
-172.85785399999989
 20
751.19843400000002
 30
0.0
 11
-174.857854
 21
751.19843400000002
 31
0.0
  0
LINE
  5
20C
  8
0
 62
     7
 10
-172.85785399999989
 20
744.19843400000002
 30
0.0
 11
-174.857854
 21
744.19843400000002
 31
0.0
  0
LINE
  5
20D
  8
0
 62
     7
 10
-172.85785399999989
 20
656.448441
 30
0.0
 11
-174.857854
 21
656.448441
 31
0.0
  0
LINE
  5
20E
  8
0
 62
     7
 10
-172.85785399999989
 20
673.19844099999989
 30
0.0
 11
-174.857854
 21
673.19844099999989
 31
0.0
  0
LINE
  5
20F
  8
0
 62
     7
 10
-172.85785399999989
 20
680.198441
 30
0.0
 11
-174.857854
 21
680.198441
 31
0.0
  0
LINE
  5
210
  8
0
 62
     7
 10
-172.85785399999989
 20
642.44864000000007
 30
0.0
 11
-174.857854
 21
642.44864000000007
 31
0.0
  0
LINE
  5
211
  8
0
 62
     7
 10
-172.85785399999989
 20
750.69843400000002
 30
0.0
 11
-172.85785399999989
 21
812.13561300000003
 31
0.0
  0
LINE
  5
212
  8
0
 62
     7
 10
-172.85785399999989
 20
608.69843800000001
 30
0.0
 11
-172.85785399999989
 21
614.69843800000001
 31
0.0
  0
LINE
  5
213
  8
0
 62
     7
 10
-172.85785399999989
 20
609.19843800000001
 30
0.0
 11
-174.857854
 21
609.19843800000001
 31
0.0
  0
LINE
  5
214
  8
0
 62
     7
 10
-172.85785399999989
 20
602.19843800000001
 30
0.0
 11
-174.857854
 21
602.19843800000001
 31
0.0
  0
CIRCLE
  5
215
  8
0
 62
     7
 10
-2.0515069999999991
 20
756.46266999999989
 30
0.0
 40
0.25
  0
CIRCLE
  5
216
  8
0
 62
     7
 10
-121.0621979999999
 20
596.36092799999994
 30
0.0
 40
0.25
  0
LINE
  5
217
  8
0
 62
     7
 10
-34.357919000000003
 20
766.44857100000002
 30
0.0
 11
-132.8579189999999
 21
766.44857100000002
 31
0.0
  0
LINE
  5
218
  8
0
 62
     7
 10
-133.8579189999999
 20
751.94855599999994
 30
0.0
 11
-133.8579189999999
 21
765.44857100000002
 31
0.0
  0
LINE
  5
219
  8
0
 62
     7
 10
-133.8579189999999
 20
592.44858599999986
 30
0.0
 11
-133.8579189999999
 21
611.94853299999988
 31
0.0
  0
LINE
  5
21A
  8
0
 62
     7
 10
-34.357919000000003
 20
591.44858599999998
 30
0.0
 11
-132.8579189999999
 21
591.44858599999998
 31
0.0
  0
ARC
  5
21B
  8
0
 62
     7
 10
-132.8579189999999
 20
592.44858599999986
 30
0.0
 40
1.0
 50
180.00000299999991
 51
270.00000499999987
  0
ARC
  5
21C
  8
0
 62
     7
 10
-132.8579189999999
 20
765.44857100000002
 30
0.0
 40
1.0
 50
90.0
 51
180.00000299999991
  0
LINE
  5
21D
  8
0
 62
     7
 10
-161.857843
 20
729.19857100000002
 30
0.0
 11
-172.85785399999989
 21
729.19857100000002
 31
0.0
  0
LINE
  5
21E
  8
0
 62
     7
 10
-161.857843
 20
624.19857100000002
 30
0.0
 11
-172.85785399999989
 21
624.19857100000002
 31
0.0
  0
LINE
  5
21F
  8
0
  6
DASHDOT
 62
     7
 10
89.210852000000003
 20
676.69857100000002
 30
0.0
 11
-212.938829
 21
676.69857100000002
 31
0.0
  0
LINE
  5
220
  8
0
 62
     9
 10
31.642126999999999
 20
596.4485709999999
 30
0.0
 11
31.642126999999999
 21
618.44857100000002
 31
0.0
  0
LINE
  5
221
  8
0
 62
     7
 10
45.442129999999999
 20
739.44857100000002
 30
0.0
 11
45.442129999999999
 21
744.88108099999999
 31
0.0
  0
LINE
  5
222
  8
0
 62
     7
 10
45.442129999999999
 20
745.162103
 30
0.0
 11
45.442129999999999
 21
755.73505499999987
 31
0.0
  0
LINE
  5
223
  8
0
 62
     7
 10
45.442129999999999
 20
756.016076
 30
0.0
 11
45.442129999999999
 21
761.44857100000002
 31
0.0
  0
LINE
  5
224
  8
0
 62
     7
 10
47.942129999999999
 20
739.44857100000002
 30
0.0
 11
47.942129999999999
 21
761.44857100000002
 31
0.0
  0
LINE
  5
225
  8
0
 62
     7
 10
53.942129999999999
 20
739.44857100000002
 30
0.0
 11
53.942129999999999
 21
761.44857100000002
 31
0.0
  0
LINE
  5
226
  8
0
 62
     7
 10
56.442129999999999
 20
756.01606100000004
 30
0.0
 11
56.442129999999999
 21
761.44857100000002
 31
0.0
  0
LINE
  5
227
  8
0
 62
     7
 10
56.442129999999999
 20
745.16208700000004
 30
0.0
 11
56.442129999999999
 21
755.73504000000003
 31
0.0
  0
LINE
  5
228
  8
0
 62
     7
 10
56.442129999999999
 20
739.44857100000002
 30
0.0
 11
56.442129999999999
 21
744.88106600000003
 31
0.0
  0
LINE
  5
229
  8
0
 62
     7
 10
32.442129999999999
 20
757.32238099999995
 30
0.0
 11
32.442129999999999
 21
760.08200899999997
 31
0.0
  0
LINE
  5
22A
  8
0
 62
     7
 10
32.442129999999999
 20
747.33767
 30
0.0
 11
32.442129999999999
 21
753.55947200000003
 31
0.0
  0
LINE
  5
22B
  8
0
 62
     7
 10
32.442129999999999
 20
740.81513299999995
 30
0.0
 11
32.442129999999999
 21
743.57476099999997
 31
0.0
  0
LINE
  5
22C
  8
0
 62
     3
 10
38.442129999999992
 20
739.4789209999999
 30
0.0
 11
38.442129999999992
 21
761.41822100000002
 31
0.0
  0
LINE
  5
22D
  8
0
 62
     3
 10
32.442129999999999
 20
739.4789209999999
 30
0.0
 11
32.442129999999999
 21
740.81513299999995
 31
0.0
  0
LINE
  5
22E
  8
0
 62
     3
 10
32.442129999999999
 20
743.57476099999997
 30
0.0
 11
32.442129999999999
 21
747.33767
 31
0.0
  0
LINE
  5
22F
  8
0
 62
     3
 10
32.442129999999999
 20
753.55947200000003
 30
0.0
 11
32.442129999999999
 21
757.32238099999995
 31
0.0
  0
LINE
  5
230
  8
0
 62
     3
 10
32.442129999999999
 20
760.08200899999997
 30
0.0
 11
32.442129999999999
 21
761.41822100000002
 31
0.0
  0
LINE
  5
231
  8
0
 62
     3
 10
45.442129999999999
 20
755.73504000000003
 30
0.0
 11
45.442129999999999
 21
756.016076
 31
0.0
  0
LINE
  5
232
  8
0
 62
     3
 10
45.442129999999999
 20
744.88108099999999
 30
0.0
 11
45.442129999999999
 21
745.16208700000004
 31
0.0
  0
LINE
  5
233
  8
0
 62
     3
 10
39.442129999999992
 20
739.4789209999999
 30
0.0
 11
39.442129999999992
 21
761.41822100000002
 31
0.0
  0
LINE
  5
234
  8
0
 62
     3
 10
56.442129999999999
 20
744.88108099999999
 30
0.0
 11
56.442129999999999
 21
745.16208700000004
 31
0.0
  0
LINE
  5
235
  8
0
 62
     3
 10
56.442129999999999
 20
755.73504000000003
 30
0.0
 11
56.442129999999999
 21
756.016076
 31
0.0
  0
LINE
  5
236
  8
0
 62
     3
 10
62.442130000000013
 20
739.4789209999999
 30
0.0
 11
62.442130000000013
 21
761.41822100000002
 31
0.0
  0
LINE
  5
237
  8
0
 62
   211
 10
65.142127000000002
 20
746.4485709999999
 30
0.0
 11
65.142127000000002
 21
754.44857100000002
 31
0.0
  0
LINE
  5
238
  8
0
 62
     9
 10
31.642171999999992
 20
618.44857100000002
 30
0.0
 11
31.642171999999992
 21
619.44857100000002
 31
0.0
  0
LINE
  5
239
  8
0
 62
     9
 10
31.642171999999992
 20
595.44857100000002
 30
0.0
 11
31.642171999999992
 21
596.4485709999999
 31
0.0
  0
LINE
  5
23A
  8
0
 62
     7
 10
105.94213000000001
 20
596.4485709999999
 30
0.0
 11
105.94213000000001
 21
618.44857100000002
 31
0.0
  0
LINE
  5
23B
  8
0
 62
     7
 10
108.44213000000001
 20
613.01606800000002
 30
0.0
 11
108.44213000000001
 21
618.44857100000002
 31
0.0
  0
LINE
  5
23C
  8
0
 62
     7
 10
108.44213000000001
 20
602.162103
 30
0.0
 11
108.44213000000001
 21
612.73504000000003
 31
0.0
  0
LINE
  5
23D
  8
0
 62
     7
 10
108.44213000000001
 20
596.4485709999999
 30
0.0
 11
108.44213000000001
 21
601.88107000000002
 31
0.0
  0
LINE
  5
23E
  8
0
 62
     7
 10
97.44213000000002
 20
596.4485709999999
 30
0.0
 11
97.44213000000002
 21
601.88107400000001
 31
0.0
  0
LINE
  5
23F
  8
0
 62
     7
 10
97.44213000000002
 20
602.162103
 30
0.0
 11
97.44213000000002
 21
612.73504000000003
 31
0.0
  0
LINE
  5
240
  8
0
 62
     7
 10
97.44213000000002
 20
613.01607200000001
 30
0.0
 11
97.44213000000002
 21
618.44857100000002
 31
0.0
  0
LINE
  5
241
  8
0
 62
     7
 10
99.94213000000002
 20
596.4485709999999
 30
0.0
 11
99.94213000000002
 21
618.44857100000002
 31
0.0
  0
LINE
  5
242
  8
0
 62
     7
 10
83.642127000000016
 20
597.44857100000002
 30
0.0
 11
83.642127000000016
 21
617.4485709999999
 31
0.0
  0
LINE
  5
243
  8
0
 62
     7
 10
84.442130000000006
 20
614.32238799999993
 30
0.0
 11
84.442130000000006
 21
617.08200499999987
 31
0.0
  0
LINE
  5
244
  8
0
 62
     7
 10
84.442130000000006
 20
604.33767799999998
 30
0.0
 11
84.442130000000006
 21
610.55946399999993
 31
0.0
  0
LINE
  5
245
  8
0
 62
     7
 10
84.442130000000006
 20
597.81513700000005
 30
0.0
 11
84.442130000000006
 21
600.57475399999987
 31
0.0
  0
LINE
  5
246
  8
0
 62
     3
 10
108.44213000000001
 20
601.88107400000001
 30
0.0
 11
108.44213000000001
 21
602.16209900000001
 31
0.0
  0
LINE
  5
247
  8
0
 62
     3
 10
108.44213000000001
 20
612.73503600000004
 30
0.0
 11
108.44213000000001
 21
613.01607200000001
 31
0.0
  0
LINE
  5
248
  8
0
 62
     3
 10
114.44213000000001
 20
596.47891700000002
 30
0.0
 11
114.44213000000001
 21
618.41822500000001
 31
0.0
  0
LINE
  5
249
  8
0
 62
     3
 10
90.442130000000006
 20
596.47891700000002
 30
0.0
 11
90.442130000000006
 21
618.41822500000001
 31
0.0
  0
LINE
  5
24A
  8
0
 62
     3
 10
84.442130000000006
 20
596.47891700000002
 30
0.0
 11
84.442130000000006
 21
597.81513700000005
 31
0.0
  0
LINE
  5
24B
  8
0
 62
     3
 10
84.442130000000006
 20
600.57475399999987
 30
0.0
 11
84.442130000000006
 21
604.33767799999998
 31
0.0
  0
LINE
  5
24C
  8
0
 62
     3
 10
84.442130000000006
 20
610.55946399999993
 30
0.0
 11
84.442130000000006
 21
614.32238799999993
 31
0.0
  0
LINE
  5
24D
  8
0
 62
     3
 10
84.442130000000006
 20
617.08200199999987
 30
0.0
 11
84.442130000000006
 21
618.41822500000001
 31
0.0
  0
LINE
  5
24E
  8
0
 62
     3
 10
97.44213000000002
 20
612.73503600000004
 30
0.0
 11
97.44213000000002
 21
613.01607200000001
 31
0.0
  0
LINE
  5
24F
  8
0
 62
     3
 10
97.44213000000002
 20
601.88107400000001
 30
0.0
 11
97.44213000000002
 21
602.16209900000001
 31
0.0
  0
LINE
  5
250
  8
0
 62
     3
 10
91.442130000000006
 20
596.47891700000002
 30
0.0
 11
91.442130000000006
 21
618.41822500000001
 31
0.0
  0
LINE
  5
251
  8
0
 62
   211
 10
117.1421269999999
 20
603.44857100000002
 30
0.0
 11
117.1421269999999
 21
611.44857100000002
 31
0.0
  0
LINE
  5
252
  8
0
 62
     9
 10
30.642126999999999
 20
619.44857100000002
 30
0.0
 11
15.64212699999999
 21
619.44857100000002
 31
0.0
  0
LINE
  5
253
  8
0
 62
     9
 10
30.642126999999999
 20
595.44857100000002
 30
0.0
 11
15.64212699999999
 21
595.44857100000002
 31
0.0
  0
LINE
  5
254
  8
0
 62
     9
 10
31.642126999999999
 20
618.44857100000002
 30
0.0
 11
30.642126999999999
 21
619.44857100000002
 31
0.0
  0
LINE
  5
255
  8
0
 62
     9
 10
30.642126999999999
 20
595.44856900000002
 30
0.0
 11
31.642126999999999
 21
596.44856900000002
 31
0.0
  0
LINE
  5
256
  8
0
 62
     7
 10
47.942129999999999
 20
761.44857100000002
 30
0.0
 11
45.442129999999999
 21
761.44857100000002
 31
0.0
  0
LINE
  5
257
  8
0
 62
     7
 10
47.942129999999999
 20
739.44857100000002
 30
0.0
 11
45.442129999999999
 21
739.44857100000002
 31
0.0
  0
LINE
  5
258
  8
0
 62
     7
 10
56.442129999999999
 20
761.44857100000002
 30
0.0
 11
53.942129999999999
 21
761.44857100000002
 31
0.0
  0
LINE
  5
259
  8
0
 62
     7
 10
56.442129999999999
 20
739.44857100000002
 30
0.0
 11
53.942129999999999
 21
739.44857100000002
 31
0.0
  0
LINE
  5
25A
  8
0
 62
     7
 10
32.442129999999999
 20
760.44857100000002
 30
0.0
 11
31.642126999999999
 21
760.44857100000002
 31
0.0
  0
LINE
  5
25B
  8
0
 62
     7
 10
32.442129999999999
 20
740.44857100000002
 30
0.0
 11
31.642126999999999
 21
740.44857100000002
 31
0.0
  0
LINE
  5
25C
  8
0
 62
     3
 10
38.442129999999992
 20
761.41822100000002
 30
0.0
 11
32.442129999999999
 21
761.41822100000002
 31
0.0
  0
LINE
  5
25D
  8
0
 62
     3
 10
38.442129999999992
 20
755.933404
 30
0.0
 11
32.442129999999999
 21
755.933404
 31
0.0
  0
LINE
  5
25E
  8
0
 62
     3
 10
38.442129999999992
 20
744.96373800000003
 30
0.0
 11
32.442129999999999
 21
744.96373800000003
 31
0.0
  0
LINE
  5
25F
  8
0
 62
     3
 10
38.442129999999992
 20
739.4789209999999
 30
0.0
 11
32.442129999999999
 21
739.4789209999999
 31
0.0
  0
LINE
  5
260
  8
0
 62
     3
 10
45.442129999999999
 20
761.41822100000002
 30
0.0
 11
39.442129999999992
 21
761.41822100000002
 31
0.0
  0
LINE
  5
261
  8
0
 62
     3
 10
45.442129999999999
 20
755.933404
 30
0.0
 11
39.442129999999992
 21
755.933404
 31
0.0
  0
LINE
  5
262
  8
0
 62
     3
 10
45.442129999999999
 20
744.96373800000003
 30
0.0
 11
39.442129999999992
 21
744.96373800000003
 31
0.0
  0
LINE
  5
263
  8
0
 62
     3
 10
45.442129999999999
 20
739.4789209999999
 30
0.0
 11
39.442129999999992
 21
739.4789209999999
 31
0.0
  0
LINE
  5
264
  8
0
 62
     3
 10
62.442130000000013
 20
761.41822100000002
 30
0.0
 11
56.442129999999999
 21
761.41822100000002
 31
0.0
  0
LINE
  5
265
  8
0
 62
     3
 10
62.442130000000013
 20
755.933404
 30
0.0
 11
56.442129999999999
 21
755.933404
 31
0.0
  0
LINE
  5
266
  8
0
 62
     3
 10
62.442130000000013
 20
744.96373800000003
 30
0.0
 11
56.442129999999999
 21
744.96373800000003
 31
0.0
  0
LINE
  5
267
  8
0
 62
     3
 10
62.442130000000013
 20
739.4789209999999
 30
0.0
 11
56.442129999999999
 21
739.4789209999999
 31
0.0
  0
LINE
  5
268
  8
0
 62
   211
 10
65.142127000000002
 20
754.44857100000002
 30
0.0
 11
63.142127000000002
 21
756.44857100000002
 31
0.0
  0
LINE
  5
269
  8
0
 62
   211
 10
63.142127000000002
 20
744.44857100000002
 30
0.0
 11
65.142127000000002
 21
746.4485709999999
 31
0.0
  0
LINE
  5
26A
  8
0
 62
   211
 10
63.142127000000002
 20
744.44857100000002
 30
0.0
 11
63.142127000000002
 21
744.74222599999985
 31
0.0
  0
LINE
  5
26B
  8
0
 62
   211
 10
63.142127000000002
 20
744.74222599999985
 30
0.0
 11
63.142127000000002
 21
745.59447599999999
 31
0.0
  0
LINE
  5
26C
  8
0
 62
   211
 10
63.142127000000002
 20
745.59447599999999
 30
0.0
 11
63.142127000000002
 21
746.92185300000006
 31
0.0
  0
LINE
  5
26D
  8
0
 62
   211
 10
63.142127000000002
 20
746.92185300000006
 30
0.0
 11
63.142127000000002
 21
748.59447599999987
 31
0.0
  0
LINE
  5
26E
  8
0
 62
   211
 10
63.142127000000002
 20
748.59447599999987
 30
0.0
 11
63.142127000000002
 21
750.4485709999999
 31
0.0
  0
LINE
  5
26F
  8
0
 62
   211
 10
63.142127000000002
 20
750.4485709999999
 30
0.0
 11
63.142127000000002
 21
752.30266700000004
 31
0.0
  0
LINE
  5
270
  8
0
 62
   211
 10
63.142127000000002
 20
752.30266700000004
 30
0.0
 11
63.142127000000002
 21
753.97528899999986
 31
0.0
  0
LINE
  5
271
  8
0
 62
   211
 10
63.142127000000002
 20
753.97528899999986
 30
0.0
 11
63.142127000000002
 21
755.30266700000004
 31
0.0
  0
LINE
  5
272
  8
0
 62
   211
 10
63.142127000000002
 20
755.30266700000004
 30
0.0
 11
63.142127000000002
 21
756.15491600000007
 31
0.0
  0
LINE
  5
273
  8
0
 62
   211
 10
63.142127000000002
 20
756.15491600000007
 30
0.0
 11
63.142127000000002
 21
756.44857100000002
 31
0.0
  0
LINE
  5
274
  8
0
 62
   211
 10
63.142127000000002
 20
756.44857100000002
 30
0.0
 11
62.442130000000013
 21
756.44857100000002
 31
0.0
  0
LINE
  5
275
  8
0
 62
   211
 10
53.942129999999999
 20
756.44857100000002
 30
0.0
 11
47.942129999999999
 21
756.44857100000002
 31
0.0
  0
LINE
  5
276
  8
0
 62
   211
 10
39.442129999999992
 20
756.44857100000002
 30
0.0
 11
38.442129999999992
 21
756.44857100000002
 31
0.0
  0
LINE
  5
277
  8
0
 62
   211
 10
63.142127000000002
 20
744.44857100000002
 30
0.0
 11
62.442130000000013
 21
744.44857100000002
 31
0.0
  0
LINE
  5
278
  8
0
 62
   211
 10
53.942129999999999
 20
744.44857100000002
 30
0.0
 11
47.942129999999999
 21
744.44857100000002
 31
0.0
  0
LINE
  5
279
  8
0
 62
   211
 10
39.442129999999992
 20
744.44857100000002
 30
0.0
 11
38.442129999999992
 21
744.44857100000002
 31
0.0
  0
LINE
  5
27A
  8
0
 62
     9
 10
31.642171999999992
 20
619.44857100000002
 30
0.0
 11
30.642126999999999
 21
619.44857100000002
 31
0.0
  0
LINE
  5
27B
  8
0
 62
     9
 10
31.642171999999992
 20
595.44857100000002
 30
0.0
 11
30.642126999999999
 21
595.44857100000002
 31
0.0
  0
LINE
  5
27C
  8
0
 62
     9
 10
39.442129999999992
 20
760.44857100000002
 30
0.0
 11
38.442129999999992
 21
760.44857100000002
 31
0.0
  0
LINE
  5
27D
  8
0
 62
     9
 10
53.942129999999999
 20
760.44857100000002
 30
0.0
 11
47.942129999999999
 21
760.44857100000002
 31
0.0
  0
LINE
  5
27E
  8
0
 62
     9
 10
82.642172000000002
 20
617.4485709999999
 30
0.0
 11
62.442130000000013
 21
617.4485709999999
 31
0.0
  0
LINE
  5
27F
  8
0
 62
     9
 10
39.442129999999992
 20
740.44857100000002
 30
0.0
 11
38.442129999999992
 21
740.44857100000002
 31
0.0
  0
LINE
  5
280
  8
0
 62
     9
 10
53.942129999999999
 20
740.44857100000002
 30
0.0
 11
47.942129999999999
 21
740.44857100000002
 31
0.0
  0
LINE
  5
281
  8
0
 62
     9
 10
82.642172000000002
 20
597.44857100000002
 30
0.0
 11
62.442130000000013
 21
597.44857100000002
 31
0.0
  0
LINE
  5
282
  8
0
 62
     9
 10
83.349264999999988
 20
617.15567899999985
 30
0.0
 11
82.642156999999983
 21
617.44857500000001
 31
0.0
  0
LINE
  5
283
  8
0
 62
     9
 10
83.642156999999997
 20
616.44857499999989
 30
0.0
 11
83.349264999999988
 21
617.15568200000007
 31
0.0
  0
LINE
  5
284
  8
0
 62
     9
 10
82.642156999999983
 20
597.44856900000002
 30
0.0
 11
83.349264999999988
 21
597.74146199999996
 31
0.0
  0
LINE
  5
285
  8
0
 62
     9
 10
83.349264999999988
 20
597.74146199999996
 30
0.0
 11
83.642156999999997
 21
598.44856700000003
 31
0.0
  0
LINE
  5
286
  8
0
 62
     7
 10
108.44213000000001
 20
618.44857100000002
 30
0.0
 11
105.94213000000001
 21
618.44857100000002
 31
0.0
  0
LINE
  5
287
  8
0
 62
     7
 10
108.44213000000001
 20
596.4485709999999
 30
0.0
 11
105.94213000000001
 21
596.4485709999999
 31
0.0
  0
LINE
  5
288
  8
0
 62
     7
 10
99.94213000000002
 20
618.44857100000002
 30
0.0
 11
97.44213000000002
 21
618.44857100000002
 31
0.0
  0
LINE
  5
289
  8
0
 62
     7
 10
99.94213000000002
 20
596.4485709999999
 30
0.0
 11
97.44213000000002
 21
596.4485709999999
 31
0.0
  0
LINE
  5
28A
  8
0
 62
     7
 10
84.442130000000006
 20
617.4485709999999
 30
0.0
 11
83.642127000000016
 21
617.4485709999999
 31
0.0
  0
LINE
  5
28B
  8
0
 62
     7
 10
84.442130000000006
 20
597.44857100000002
 30
0.0
 11
83.642127000000016
 21
597.44857100000002
 31
0.0
  0
LINE
  5
28C
  8
0
 62
     3
 10
114.44213000000001
 20
618.41822500000001
 30
0.0
 11
108.44213000000001
 21
618.41822500000001
 31
0.0
  0
LINE
  5
28D
  8
0
 62
     3
 10
114.44213000000001
 20
596.47891700000002
 30
0.0
 11
108.44213000000001
 21
596.47891700000002
 31
0.0
  0
LINE
  5
28E
  8
0
 62
     3
 10
114.44213000000001
 20
601.96374200000002
 30
0.0
 11
108.44213000000001
 21
601.96374200000002
 31
0.0
  0
LINE
  5
28F
  8
0
 62
     3
 10
114.44213000000001
 20
612.93340000000001
 30
0.0
 11
108.44213000000001
 21
612.93340000000001
 31
0.0
  0
LINE
  5
290
  8
0
 62
     3
 10
90.442130000000006
 20
618.41822500000001
 30
0.0
 11
84.442130000000006
 21
618.41822500000001
 31
0.0
  0
LINE
  5
291
  8
0
 62
     3
 10
90.442130000000006
 20
596.47891700000002
 30
0.0
 11
84.442130000000006
 21
596.47891700000002
 31
0.0
  0
LINE
  5
292
  8
0
 62
     3
 10
90.442130000000006
 20
612.93340000000001
 30
0.0
 11
84.442130000000006
 21
612.93340000000001
 31
0.0
  0
LINE
  5
293
  8
0
 62
     3
 10
90.442130000000006
 20
601.96374200000002
 30
0.0
 11
84.442130000000006
 21
601.96374200000002
 31
0.0
  0
LINE
  5
294
  8
0
 62
     3
 10
97.44213000000002
 20
618.41822500000001
 30
0.0
 11
91.442130000000006
 21
618.41822500000001
 31
0.0
  0
LINE
  5
295
  8
0
 62
     3
 10
97.44213000000002
 20
596.47891700000002
 30
0.0
 11
91.442130000000006
 21
596.47891700000002
 31
0.0
  0
LINE
  5
296
  8
0
 62
     3
 10
97.44213000000002
 20
612.93340000000001
 30
0.0
 11
91.442130000000006
 21
612.93340000000001
 31
0.0
  0
LINE
  5
297
  8
0
 62
     3
 10
97.44213000000002
 20
601.96374200000002
 30
0.0
 11
91.442130000000006
 21
601.96374200000002
 31
0.0
  0
LINE
  5
298
  8
0
 62
   211
 10
117.1421269999999
 20
611.44857500000001
 30
0.0
 11
115.1421269999999
 21
613.44857500000001
 31
0.0
  0
LINE
  5
299
  8
0
 62
   211
 10
115.1421269999999
 20
601.44856700000003
 30
0.0
 11
117.1421269999999
 21
603.44856700000003
 31
0.0
  0
LINE
  5
29A
  8
0
 62
   211
 10
115.1421269999999
 20
613.4485709999999
 30
0.0
 11
114.44213000000001
 21
613.4485709999999
 31
0.0
  0
LINE
  5
29B
  8
0
 62
   211
 10
105.94213000000001
 20
613.4485709999999
 30
0.0
 11
99.94213000000002
 21
613.4485709999999
 31
0.0
  0
LINE
  5
29C
  8
0
 62
   211
 10
91.442130000000006
 20
613.4485709999999
 30
0.0
 11
90.442130000000006
 21
613.4485709999999
 31
0.0
  0
LINE
  5
29D
  8
0
 62
   211
 10
115.1421269999999
 20
613.15490799999998
 30
0.0
 11
115.1421269999999
 21
613.4485709999999
 31
0.0
  0
LINE
  5
29E
  8
0
 62
   211
 10
115.1421269999999
 20
612.30267400000002
 30
0.0
 11
115.1421269999999
 21
613.15490799999998
 31
0.0
  0
LINE
  5
29F
  8
0
 62
   211
 10
115.1421269999999
 20
610.97528199999988
 30
0.0
 11
115.1421269999999
 21
612.30267400000002
 31
0.0
  0
LINE
  5
2A0
  8
0
 62
   211
 10
115.1421269999999
 20
609.30267399999991
 30
0.0
 11
115.1421269999999
 21
610.97528199999988
 31
0.0
  0
LINE
  5
2A1
  8
0
 62
   211
 10
115.1421269999999
 20
607.44857100000002
 30
0.0
 11
115.1421269999999
 21
609.30267399999991
 31
0.0
  0
LINE
  5
2A2
  8
0
 62
   211
 10
115.1421269999999
 20
605.59446800000001
 30
0.0
 11
115.1421269999999
 21
607.44857100000002
 31
0.0
  0
LINE
  5
2A3
  8
0
 62
   211
 10
115.1421269999999
 20
603.92186100000004
 30
0.0
 11
115.1421269999999
 21
605.59446800000001
 31
0.0
  0
LINE
  5
2A4
  8
0
 62
   211
 10
115.1421269999999
 20
602.59446800000001
 30
0.0
 11
115.1421269999999
 21
603.92186100000004
 31
0.0
  0
LINE
  5
2A5
  8
0
 62
   211
 10
115.1421269999999
 20
601.74223399999994
 30
0.0
 11
115.1421269999999
 21
602.59446800000001
 31
0.0
  0
LINE
  5
2A6
  8
0
 62
   211
 10
115.1421269999999
 20
601.44857100000002
 30
0.0
 11
114.44213000000001
 21
601.44857100000002
 31
0.0
  0
LINE
  5
2A7
  8
0
 62
   211
 10
105.94213000000001
 20
601.44857100000002
 30
0.0
 11
99.94213000000002
 21
601.44857100000002
 31
0.0
  0
LINE
  5
2A8
  8
0
 62
   211
 10
91.442130000000006
 20
601.44857100000002
 30
0.0
 11
90.442130000000006
 21
601.44857100000002
 31
0.0
  0
LINE
  5
2A9
  8
0
 62
   211
 10
115.1421269999999
 20
601.44857100000002
 30
0.0
 11
115.1421269999999
 21
601.74223399999994
 31
0.0
  0
LINE
  5
2AA
  8
0
 62
     9
 10
31.642126999999999
 20
739.44857100000002
 30
0.0
 11
31.642126999999999
 21
761.44857100000002
 31
0.0
  0
LINE
  5
2AB
  8
0
 62
     9
 10
31.642171999999992
 20
761.44857100000002
 30
0.0
 11
31.642171999999992
 21
762.44857100000002
 31
0.0
  0
LINE
  5
2AC
  8
0
 62
     9
 10
31.642171999999992
 20
738.4485709999999
 30
0.0
 11
31.642171999999992
 21
739.44857100000002
 31
0.0
  0
LINE
  5
2AD
  8
0
 62
     7
 10
105.94213000000001
 20
739.44857100000002
 30
0.0
 11
105.94213000000001
 21
761.44857100000002
 31
0.0
  0
LINE
  5
2AE
  8
0
 62
     7
 10
108.44213000000001
 20
756.016076
 30
0.0
 11
108.44213000000001
 21
761.44857100000002
 31
0.0
  0
LINE
  5
2AF
  8
0
 62
     7
 10
108.44213000000001
 20
745.162103
 30
0.0
 11
108.44213000000001
 21
755.73504000000003
 31
0.0
  0
LINE
  5
2B0
  8
0
 62
     7
 10
108.44213000000001
 20
739.44857100000002
 30
0.0
 11
108.44213000000001
 21
744.88106600000003
 31
0.0
  0
LINE
  5
2B1
  8
0
 62
     7
 10
97.44213000000002
 20
739.44857100000002
 30
0.0
 11
97.44213000000002
 21
744.88106600000003
 31
0.0
  0
LINE
  5
2B2
  8
0
 62
     7
 10
97.44213000000002
 20
745.162103
 30
0.0
 11
97.44213000000002
 21
755.73504000000003
 31
0.0
  0
LINE
  5
2B3
  8
0
 62
     7
 10
97.44213000000002
 20
756.016076
 30
0.0
 11
97.44213000000002
 21
761.44857100000002
 31
0.0
  0
LINE
  5
2B4
  8
0
 62
     7
 10
99.94213000000002
 20
739.44857100000002
 30
0.0
 11
99.94213000000002
 21
761.44857100000002
 31
0.0
  0
LINE
  5
2B5
  8
0
 62
     7
 10
83.642127000000016
 20
740.44857100000002
 30
0.0
 11
83.642127000000016
 21
760.44857100000002
 31
0.0
  0
LINE
  5
2B6
  8
0
 62
     7
 10
84.442130000000006
 20
757.32239599999991
 30
0.0
 11
84.442130000000006
 21
760.08200899999997
 31
0.0
  0
LINE
  5
2B7
  8
0
 62
     7
 10
84.442130000000006
 20
747.33767
 30
0.0
 11
84.442130000000006
 21
753.55947200000003
 31
0.0
  0
LINE
  5
2B8
  8
0
 62
     7
 10
84.442130000000006
 20
740.81513299999995
 30
0.0
 11
84.442130000000006
 21
743.57476099999997
 31
0.0
  0
LINE
  5
2B9
  8
0
 62
     3
 10
108.44213000000001
 20
744.88106600000003
 30
0.0
 11
108.44213000000001
 21
745.162103
 31
0.0
  0
LINE
  5
2BA
  8
0
 62
     3
 10
108.44213000000001
 20
755.73504000000003
 30
0.0
 11
108.44213000000001
 21
756.016076
 31
0.0
  0
LINE
  5
2BB
  8
0
 62
     3
 10
114.44213000000001
 20
739.4789209999999
 30
0.0
 11
114.44213000000001
 21
761.41822100000002
 31
0.0
  0
LINE
  5
2BC
  8
0
 62
     3
 10
90.442130000000006
 20
739.4789209999999
 30
0.0
 11
90.442130000000006
 21
761.41822100000002
 31
0.0
  0
LINE
  5
2BD
  8
0
 62
     3
 10
84.442130000000006
 20
739.4789209999999
 30
0.0
 11
84.442130000000006
 21
740.81513299999995
 31
0.0
  0
LINE
  5
2BE
  8
0
 62
     3
 10
84.442130000000006
 20
743.57474599999989
 30
0.0
 11
84.442130000000006
 21
747.33767
 31
0.0
  0
LINE
  5
2BF
  8
0
 62
     3
 10
84.442130000000006
 20
753.55947200000003
 30
0.0
 11
84.442130000000006
 21
757.32238099999995
 31
0.0
  0
LINE
  5
2C0
  8
0
 62
     3
 10
84.442130000000006
 20
760.08200899999997
 30
0.0
 11
84.442130000000006
 21
761.41822100000002
 31
0.0
  0
LINE
  5
2C1
  8
0
 62
     3
 10
97.44213000000002
 20
755.73504000000003
 30
0.0
 11
97.44213000000002
 21
756.016076
 31
0.0
  0
LINE
  5
2C2
  8
0
 62
     3
 10
97.44213000000002
 20
744.88106600000003
 30
0.0
 11
97.44213000000002
 21
745.162103
 31
0.0
  0
LINE
  5
2C3
  8
0
 62
     3
 10
91.442130000000006
 20
739.4789209999999
 30
0.0
 11
91.442130000000006
 21
761.41822100000002
 31
0.0
  0
LINE
  5
2C4
  8
0
 62
   211
 10
117.1421269999999
 20
746.4485709999999
 30
0.0
 11
117.1421269999999
 21
754.44857100000002
 31
0.0
  0
LINE
  5
2C5
  8
0
 62
     9
 10
30.642126999999999
 20
762.44857100000002
 30
0.0
 11
15.64212699999999
 21
762.44857100000002
 31
0.0
  0
LINE
  5
2C6
  8
0
 62
     9
 10
30.642126999999999
 20
738.4485709999999
 30
0.0
 11
15.64212699999999
 21
738.4485709999999
 31
0.0
  0
LINE
  5
2C7
  8
0
 62
     9
 10
31.642126999999999
 20
761.44857100000002
 30
0.0
 11
30.642126999999999
 21
762.44857100000002
 31
0.0
  0
LINE
  5
2C8
  8
0
 62
     9
 10
30.642126999999999
 20
738.4485709999999
 30
0.0
 11
31.642126999999999
 21
739.44857100000002
 31
0.0
  0
LINE
  5
2C9
  8
0
 62
     9
 10
31.642171999999992
 20
762.44857100000002
 30
0.0
 11
30.642126999999999
 21
762.44857100000002
 31
0.0
  0
LINE
  5
2CA
  8
0
 62
     9
 10
31.642171999999992
 20
738.4485709999999
 30
0.0
 11
30.642126999999999
 21
738.4485709999999
 31
0.0
  0
LINE
  5
2CB
  8
0
 62
     9
 10
82.642172000000002
 20
760.44857100000002
 30
0.0
 11
62.442130000000013
 21
760.44857100000002
 31
0.0
  0
LINE
  5
2CC
  8
0
 62
     9
 10
82.642172000000002
 20
740.44857100000002
 30
0.0
 11
62.442130000000013
 21
740.44857100000002
 31
0.0
  0
LINE
  5
2CD
  8
0
 62
     9
 10
83.349264999999988
 20
760.15567899999996
 30
0.0
 11
82.642156999999983
 21
760.44857100000002
 31
0.0
  0
LINE
  5
2CE
  8
0
 62
     9
 10
83.642156999999997
 20
759.44857100000002
 30
0.0
 11
83.349264999999988
 21
760.15567899999996
 31
0.0
  0
LINE
  5
2CF
  8
0
 62
     9
 10
82.642156999999983
 20
740.44857100000002
 30
0.0
 11
83.349264999999988
 21
740.74146399999995
 31
0.0
  0
LINE
  5
2D0
  8
0
 62
     9
 10
83.349264999999988
 20
740.74146399999995
 30
0.0
 11
83.642156999999997
 21
741.44857100000002
 31
0.0
  0
LINE
  5
2D1
  8
0
 62
     7
 10
108.44213000000001
 20
761.44857100000002
 30
0.0
 11
105.94213000000001
 21
761.44857100000002
 31
0.0
  0
LINE
  5
2D2
  8
0
 62
     7
 10
108.44213000000001
 20
739.44857100000002
 30
0.0
 11
105.94213000000001
 21
739.44857100000002
 31
0.0
  0
LINE
  5
2D3
  8
0
 62
     7
 10
99.94213000000002
 20
761.44857100000002
 30
0.0
 11
97.44213000000002
 21
761.44857100000002
 31
0.0
  0
LINE
  5
2D4
  8
0
 62
     7
 10
99.94213000000002
 20
739.44857100000002
 30
0.0
 11
97.44213000000002
 21
739.44857100000002
 31
0.0
  0
LINE
  5
2D5
  8
0
 62
     7
 10
84.442130000000006
 20
760.44857100000002
 30
0.0
 11
83.642127000000016
 21
760.44857100000002
 31
0.0
  0
LINE
  5
2D6
  8
0
 62
     7
 10
84.442130000000006
 20
740.44857100000002
 30
0.0
 11
83.642127000000016
 21
740.44857100000002
 31
0.0
  0
LINE
  5
2D7
  8
0
 62
     3
 10
114.44213000000001
 20
761.41822100000002
 30
0.0
 11
108.44213000000001
 21
761.41822100000002
 31
0.0
  0
LINE
  5
2D8
  8
0
 62
     3
 10
114.44213000000001
 20
739.4789209999999
 30
0.0
 11
108.44213000000001
 21
739.4789209999999
 31
0.0
  0
LINE
  5
2D9
  8
0
 62
     3
 10
114.44213000000001
 20
744.96373800000003
 30
0.0
 11
108.44213000000001
 21
744.96373800000003
 31
0.0
  0
LINE
  5
2DA
  8
0
 62
     3
 10
114.44213000000001
 20
755.933404
 30
0.0
 11
108.44213000000001
 21
755.933404
 31
0.0
  0
LINE
  5
2DB
  8
0
 62
     3
 10
90.442130000000006
 20
761.41822100000002
 30
0.0
 11
84.442130000000006
 21
761.41822100000002
 31
0.0
  0
LINE
  5
2DC
  8
0
 62
     3
 10
90.442130000000006
 20
739.4789209999999
 30
0.0
 11
84.442130000000006
 21
739.4789209999999
 31
0.0
  0
LINE
  5
2DD
  8
0
 62
     3
 10
90.442130000000006
 20
755.933404
 30
0.0
 11
84.442130000000006
 21
755.933404
 31
0.0
  0
LINE
  5
2DE
  8
0
 62
     3
 10
90.442130000000006
 20
744.96373800000003
 30
0.0
 11
84.442130000000006
 21
744.96373800000003
 31
0.0
  0
LINE
  5
2DF
  8
0
 62
     3
 10
97.44213000000002
 20
761.41822100000002
 30
0.0
 11
91.442130000000006
 21
761.41822100000002
 31
0.0
  0
LINE
  5
2E0
  8
0
 62
     3
 10
97.44213000000002
 20
739.4789209999999
 30
0.0
 11
91.442130000000006
 21
739.4789209999999
 31
0.0
  0
LINE
  5
2E1
  8
0
 62
     3
 10
97.44213000000002
 20
755.933404
 30
0.0
 11
91.442130000000006
 21
755.933404
 31
0.0
  0
LINE
  5
2E2
  8
0
 62
     3
 10
97.44213000000002
 20
744.96373800000003
 30
0.0
 11
91.442130000000006
 21
744.96373800000003
 31
0.0
  0
LINE
  5
2E3
  8
0
 62
   211
 10
117.1421269999999
 20
754.44857100000002
 30
0.0
 11
115.1421269999999
 21
756.44857100000002
 31
0.0
  0
LINE
  5
2E4
  8
0
 62
   211
 10
115.1421269999999
 20
744.44857100000002
 30
0.0
 11
117.1421269999999
 21
746.4485709999999
 31
0.0
  0
LINE
  5
2E5
  8
0
 62
   211
 10
115.1421269999999
 20
756.44857100000002
 30
0.0
 11
114.44213000000001
 21
756.44857100000002
 31
0.0
  0
LINE
  5
2E6
  8
0
 62
   211
 10
105.94213000000001
 20
756.44857100000002
 30
0.0
 11
99.94213000000002
 21
756.44857100000002
 31
0.0
  0
LINE
  5
2E7
  8
0
 62
   211
 10
91.442130000000006
 20
756.44857100000002
 30
0.0
 11
90.442130000000006
 21
756.44857100000002
 31
0.0
  0
LINE
  5
2E8
  8
0
 62
   211
 10
115.1421269999999
 20
756.15491600000007
 30
0.0
 11
115.1421269999999
 21
756.44857100000002
 31
0.0
  0
LINE
  5
2E9
  8
0
 62
   211
 10
115.1421269999999
 20
755.30266700000004
 30
0.0
 11
115.1421269999999
 21
756.15491600000007
 31
0.0
  0
LINE
  5
2EA
  8
0
 62
   211
 10
115.1421269999999
 20
753.97528899999986
 30
0.0
 11
115.1421269999999
 21
755.30266700000004
 31
0.0
  0
LINE
  5
2EB
  8
0
 62
   211
 10
115.1421269999999
 20
752.30266700000004
 30
0.0
 11
115.1421269999999
 21
753.97528899999986
 31
0.0
  0
LINE
  5
2EC
  8
0
 62
   211
 10
115.1421269999999
 20
750.4485709999999
 30
0.0
 11
115.1421269999999
 21
752.30266700000004
 31
0.0
  0
LINE
  5
2ED
  8
0
 62
   211
 10
115.1421269999999
 20
748.59447599999987
 30
0.0
 11
115.1421269999999
 21
750.4485709999999
 31
0.0
  0
LINE
  5
2EE
  8
0
 62
   211
 10
115.1421269999999
 20
746.92185300000006
 30
0.0
 11
115.1421269999999
 21
748.59447599999987
 31
0.0
  0
LINE
  5
2EF
  8
0
 62
   211
 10
115.1421269999999
 20
745.59447599999999
 30
0.0
 11
115.1421269999999
 21
746.92185300000006
 31
0.0
  0
LINE
  5
2F0
  8
0
 62
   211
 10
115.1421269999999
 20
744.74222599999985
 30
0.0
 11
115.1421269999999
 21
745.59447599999999
 31
0.0
  0
LINE
  5
2F1
  8
0
 62
   211
 10
115.1421269999999
 20
744.44857100000002
 30
0.0
 11
114.44213000000001
 21
744.44857100000002
 31
0.0
  0
LINE
  5
2F2
  8
0
 62
   211
 10
105.94213000000001
 20
744.44857100000002
 30
0.0
 11
99.94213000000002
 21
744.44857100000002
 31
0.0
  0
LINE
  5
2F3
  8
0
 62
   211
 10
91.442130000000006
 20
744.44857100000002
 30
0.0
 11
90.442130000000006
 21
744.44857100000002
 31
0.0
  0
LINE
  5
2F4
  8
0
 62
   211
 10
115.1421269999999
 20
744.44857100000002
 30
0.0
 11
115.1421269999999
 21
744.74222599999985
 31
0.0
  0
LINE
  5
2F5
  8
0
  6
DASHDOT
 62
     7
 10
122.566458
 20
750.4485709999999
 30
0.0
 11
10.454000999999989
 21
750.4485709999999
 31
0.0
  0
LINE
  5
2F6
  8
0
  6
DASHDOT
 62
     7
 10
121.37123699999999
 20
607.44857100000002
 30
0.0
 11
12.963979999999999
 21
607.44857100000002
 31
0.0
  0
LINE
  5
2F7
  8
0
 62
     7
 10
117.1421269999999
 20
611.44857500000001
 30
0.0
 11
114.44213000000001
 21
611.44857500000001
 31
0.0
  0
LINE
  5
2F8
  8
0
 62
     7
 10
117.1421269999999
 20
603.44856700000003
 30
0.0
 11
114.44213000000001
 21
603.44856700000003
 31
0.0
  0
LINE
  5
2F9
  8
0
 62
     7
 10
65.142127000000002
 20
754.44857100000002
 30
0.0
 11
62.442130000000013
 21
754.44857100000002
 31
0.0
  0
LINE
  5
2FA
  8
0
 62
     7
 10
65.142127000000002
 20
746.4485709999999
 30
0.0
 11
62.442130000000013
 21
746.4485709999999
 31
0.0
  0
LINE
  5
2FB
  8
0
 62
     7
 10
53.942129999999999
 20
754.44857100000002
 30
0.0
 11
47.942129999999999
 21
754.44857100000002
 31
0.0
  0
LINE
  5
2FC
  8
0
 62
     7
 10
53.942129999999999
 20
746.4485709999999
 30
0.0
 11
47.942129999999999
 21
746.4485709999999
 31
0.0
  0
LINE
  5
2FD
  8
0
 62
     7
 10
105.94213000000001
 20
603.44856700000003
 30
0.0
 11
99.94213000000002
 21
603.44856700000003
 31
0.0
  0
LINE
  5
2FE
  8
0
 62
     7
 10
105.94213000000001
 20
611.44857500000001
 30
0.0
 11
99.94213000000002
 21
611.44857500000001
 31
0.0
  0
LINE
  5
2FF
  8
0
 62
     7
 10
117.1421269999999
 20
746.4485709999999
 30
0.0
 11
114.44213000000001
 21
746.4485709999999
 31
0.0
  0
LINE
  5
300
  8
0
 62
     7
 10
117.1421269999999
 20
754.44857100000002
 30
0.0
 11
114.44213000000001
 21
754.44857100000002
 31
0.0
  0
LINE
  5
301
  8
0
 62
     7
 10
105.94213000000001
 20
754.44857100000002
 30
0.0
 11
99.94213000000002
 21
754.44857100000002
 31
0.0
  0
LINE
  5
302
  8
0
 62
     7
 10
105.94213000000001
 20
746.4485709999999
 30
0.0
 11
99.94213000000002
 21
746.4485709999999
 31
0.0
  0
CIRCLE
  5
303
  8
0
 62
     7
 10
74.072393999999989
 20
602.77322100000004
 30
0.0
 40
0.25
  0
LINE
  5
304
  8
0
 62
     7
 10
-169.357854
 20
729.19857100000002
 30
0.0
 11
-169.357854
 21
736.1985709999999
 31
0.0
  0
LINE
  5
305
  8
0
 62
     7
 10
-167.357854
 20
729.19857100000002
 30
0.0
 11
-167.357854
 21
736.1985709999999
 31
0.0
  0
LINE
  5
306
  8
0
 62
     7
 10
-167.357854
 20
736.1985709999999
 30
0.0
 11
-169.357854
 21
736.1985709999999
 31
0.0
  0
LINE
  5
307
  8
0
 62
     7
 10
-163.357856
 20
730.69857100000002
 30
0.0
 11
-165.85786200000001
 21
730.69857100000002
 31
0.0
  0
LINE
  5
308
  8
0
 62
     7
 10
-163.357856
 20
730.69857100000002
 30
0.0
 11
-163.357856
 21
741.19857100000002
 31
0.0
  0
LINE
  5
309
  8
0
 62
     7
 10
-166.85786200000001
 20
744.6985709999999
 30
0.0
 11
-169.35786200000001
 21
744.6985709999999
 31
0.0
  0
LINE
  5
30A
  8
0
 62
     7
 10
-170.35786200000001
 20
750.69843400000002
 30
0.0
 11
-170.35786200000001
 21
753.69857100000002
 31
0.0
  0
LINE
  5
30B
  8
0
 62
     7
 10
-170.35786200000001
 20
753.69857100000002
 30
0.0
 11
-172.85785399999989
 21
753.69857100000002
 31
0.0
  0
LINE
  5
30C
  8
0
 62
     7
 10
-166.85786200000001
 20
742.19857100000002
 30
0.0
 11
-169.35786200000001
 21
742.19857100000002
 31
0.0
  0
LINE
  5
30D
  8
0
 62
     7
 10
-165.85786200000001
 20
730.69857100000002
 30
0.0
 11
-165.85786200000001
 21
741.19857100000002
 31
0.0
  0
ARC
  5
30E
  8
0
 62
     7
 10
-166.857877
 20
741.19855599999994
 30
0.0
 40
3.500017999999999
 50
0.000329
 51
89.999818999999988
  0
ARC
  5
30F
  8
0
 62
     7
 10
-166.8578179999999
 20
741.19861700000001
 30
0.0
 40
0.9999499999999999
 50
359.99882599999989
 51
90.002235999999996
  0
ARC
  5
310
  8
0
 62
     7
 10
-169.35788099999991
 20
745.69854099999986
 30
0.0
 40
3.4999709999999991
 50
196.60348899999991
 51
270.00034699999998
  0
LINE
  5
311
  8
0
 62
     7
 10
-163.357856
 20
739.69857100000002
 30
0.0
 11
-165.85786200000001
 21
739.69857100000002
 31
0.0
  0
LINE
  5
312
  8
0
  6
DASHSPACE
 62
     7
 10
-205.85785799999999
 20
624.19857100000002
 30
0.0
 11
-205.85785799999999
 21
729.19857100000002
 31
0.0
  0
LINE
  5
313
  8
0
  6
DASHSPACE
 62
     7
 10
-192.78478799999999
 20
729.19857100000002
 30
0.0
 11
-205.85785799999999
 21
729.19857100000002
 31
0.0
  0
LINE
  5
314
  8
0
  6
DASHSPACE
 62
     7
 10
-190.413724
 20
624.19857100000002
 30
0.0
 11
-205.85785799999999
 21
624.19857100000002
 31
0.0
  0
LINE
  5
315
  8
0
 62
     7
 10
23.342123999999991
 20
725.04857699999991
 30
0.0
 11
23.342123999999991
 21
732.84856500000001
 31
0.0
  0
LINE
  5
316
  8
0
 62
     7
 10
26.542120000000001
 20
726.94857100000002
 30
0.0
 11
26.542120000000001
 21
730.94857100000002
 31
0.0
  0
LINE
  5
317
  8
0
 62
     7
 10
23.342123999999991
 20
732.84856500000001
 30
0.0
 11
20.142126999999991
 21
732.84856500000001
 31
0.0
  0
LINE
  5
318
  8
0
 62
     7
 10
23.342123999999991
 20
725.04857699999991
 30
0.0
 11
20.142126999999991
 21
725.04857699999991
 31
0.0
  0
LINE
  5
319
  8
0
 62
     7
 10
26.542120000000001
 20
726.94857100000002
 30
0.0
 11
20.142126999999991
 21
726.94857100000002
 31
0.0
  0
LINE
  5
31A
  8
0
 62
     7
 10
26.542120000000001
 20
730.94857100000002
 30
0.0
 11
20.142126999999991
 21
730.94857100000002
 31
0.0
  0
LINE
  5
31B
  8
0
 62
     7
 10
23.342123999999991
 20
632.8485730000001
 30
0.0
 11
20.142126999999991
 21
632.8485730000001
 31
0.0
  0
LINE
  5
31C
  8
0
 62
     7
 10
26.542120000000001
 20
630.94857100000002
 30
0.0
 11
20.142126999999991
 21
630.94857100000002
 31
0.0
  0
LINE
  5
31D
  8
0
 62
     7
 10
26.542120000000001
 20
626.94857100000002
 30
0.0
 11
20.142126999999991
 21
626.94857100000002
 31
0.0
  0
LINE
  5
31E
  8
0
 62
     7
 10
23.342123999999991
 20
625.04857000000004
 30
0.0
 11
20.142126999999991
 21
625.04857000000004
 31
0.0
  0
LINE
  5
31F
  8
0
 62
     7
 10
23.342123999999991
 20
625.04857000000004
 30
0.0
 11
23.342123999999991
 21
632.8485730000001
 31
0.0
  0
LINE
  5
320
  8
0
 62
     7
 10
26.542120000000001
 20
626.94857100000002
 30
0.0
 11
26.542120000000001
 21
630.94857100000002
 31
0.0
  0
CIRCLE
  5
321
  8
0
 62
     7
 10
23.425878999999998
 20
628.5536239999999
 30
0.0
 40
0.2
  0
LINE
  5
322
  8
0
 62
     7
 10
45.442129999999999
 20
596.4485709999999
 30
0.0
 11
45.442129999999999
 21
601.88107400000001
 31
0.0
  0
LINE
  5
323
  8
0
 62
     7
 10
45.442129999999999
 20
602.16209499999991
 30
0.0
 11
45.442129999999999
 21
612.73504700000001
 31
0.0
  0
LINE
  5
324
  8
0
 62
     7
 10
45.442129999999999
 20
613.01606800000002
 30
0.0
 11
45.442129999999999
 21
618.44857100000002
 31
0.0
  0
LINE
  5
325
  8
0
 62
     7
 10
47.942129999999999
 20
596.4485709999999
 30
0.0
 11
47.942129999999999
 21
618.44857100000002
 31
0.0
  0
LINE
  5
326
  8
0
 62
     7
 10
53.942129999999999
 20
596.4485709999999
 30
0.0
 11
53.942129999999999
 21
618.44857100000002
 31
0.0
  0
LINE
  5
327
  8
0
 62
     7
 10
56.442129999999999
 20
613.01606800000002
 30
0.0
 11
56.442129999999999
 21
618.44857100000002
 31
0.0
  0
LINE
  5
328
  8
0
 62
     7
 10
56.442129999999999
 20
602.16209499999991
 30
0.0
 11
56.442129999999999
 21
612.73504700000001
 31
0.0
  0
LINE
  5
329
  8
0
 62
     7
 10
56.442129999999999
 20
596.4485709999999
 30
0.0
 11
56.442129999999999
 21
601.88107400000001
 31
0.0
  0
LINE
  5
32A
  8
0
 62
     7
 10
32.442129999999999
 20
614.32238499999994
 30
0.0
 11
32.442129999999999
 21
617.08200499999987
 31
0.0
  0
LINE
  5
32B
  8
0
 62
     7
 10
32.442129999999999
 20
604.33767799999998
 30
0.0
 11
32.442129999999999
 21
610.55946399999993
 31
0.0
  0
LINE
  5
32C
  8
0
 62
     7
 10
32.442129999999999
 20
597.81513700000005
 30
0.0
 11
32.442129999999999
 21
600.57475699999986
 31
0.0
  0
LINE
  5
32D
  8
0
 62
     3
 10
38.442129999999992
 20
596.47891700000002
 30
0.0
 11
38.442129999999992
 21
618.41822500000001
 31
0.0
  0
LINE
  5
32E
  8
0
 62
     3
 10
32.442129999999999
 20
596.47891700000002
 30
0.0
 11
32.442129999999999
 21
597.81513700000005
 31
0.0
  0
LINE
  5
32F
  8
0
 62
     3
 10
32.442129999999999
 20
600.57475399999987
 30
0.0
 11
32.442129999999999
 21
604.33767799999998
 31
0.0
  0
LINE
  5
330
  8
0
 62
     3
 10
32.442129999999999
 20
610.55946399999993
 30
0.0
 11
32.442129999999999
 21
614.32238099999995
 31
0.0
  0
LINE
  5
331
  8
0
 62
     3
 10
32.442129999999999
 20
617.08200499999987
 30
0.0
 11
32.442129999999999
 21
618.41822500000001
 31
0.0
  0
LINE
  5
332
  8
0
 62
     3
 10
45.442129999999999
 20
612.73504299999991
 30
0.0
 11
45.442129999999999
 21
613.01606800000002
 31
0.0
  0
LINE
  5
333
  8
0
 62
     3
 10
45.442129999999999
 20
601.88107400000001
 30
0.0
 11
45.442129999999999
 21
602.16208700000004
 31
0.0
  0
LINE
  5
334
  8
0
 62
     3
 10
39.442129999999992
 20
596.47891700000002
 30
0.0
 11
39.442129999999992
 21
618.41822500000001
 31
0.0
  0
LINE
  5
335
  8
0
 62
     3
 10
56.442129999999999
 20
601.88107799999989
 30
0.0
 11
56.442129999999999
 21
602.16209100000003
 31
0.0
  0
LINE
  5
336
  8
0
 62
     3
 10
56.442129999999999
 20
612.73504299999991
 30
0.0
 11
56.442129999999999
 21
613.01606800000002
 31
0.0
  0
LINE
  5
337
  8
0
 62
     3
 10
62.442130000000013
 20
596.47891700000002
 30
0.0
 11
62.442130000000013
 21
618.41822500000001
 31
0.0
  0
LINE
  5
338
  8
0
 62
   211
 10
65.142127000000002
 20
603.44857100000002
 30
0.0
 11
65.142127000000002
 21
611.44857100000002
 31
0.0
  0
LINE
  5
339
  8
0
 62
     7
 10
47.942129999999999
 20
618.44857100000002
 30
0.0
 11
45.442129999999999
 21
618.44857100000002
 31
0.0
  0
LINE
  5
33A
  8
0
 62
     7
 10
47.942129999999999
 20
596.4485709999999
 30
0.0
 11
45.442129999999999
 21
596.4485709999999
 31
0.0
  0
LINE
  5
33B
  8
0
 62
     7
 10
56.442129999999999
 20
618.44857100000002
 30
0.0
 11
53.942129999999999
 21
618.44857100000002
 31
0.0
  0
LINE
  5
33C
  8
0
 62
     7
 10
56.442129999999999
 20
596.4485709999999
 30
0.0
 11
53.942129999999999
 21
596.4485709999999
 31
0.0
  0
LINE
  5
33D
  8
0
 62
     7
 10
32.442129999999999
 20
617.4485709999999
 30
0.0
 11
31.642126999999999
 21
617.4485709999999
 31
0.0
  0
LINE
  5
33E
  8
0
 62
     7
 10
32.442129999999999
 20
597.44857100000002
 30
0.0
 11
31.642126999999999
 21
597.44857100000002
 31
0.0
  0
LINE
  5
33F
  8
0
 62
     3
 10
38.442129999999992
 20
618.41822500000001
 30
0.0
 11
32.442129999999999
 21
618.41822500000001
 31
0.0
  0
LINE
  5
340
  8
0
 62
     3
 10
38.442129999999992
 20
612.93340000000001
 30
0.0
 11
32.442129999999999
 21
612.93340000000001
 31
0.0
  0
LINE
  5
341
  8
0
 62
     3
 10
38.442129999999992
 20
601.96374200000002
 30
0.0
 11
32.442129999999999
 21
601.96374200000002
 31
0.0
  0
LINE
  5
342
  8
0
 62
     3
 10
38.442129999999992
 20
596.47891700000002
 30
0.0
 11
32.442129999999999
 21
596.47891700000002
 31
0.0
  0
LINE
  5
343
  8
0
 62
     3
 10
45.442129999999999
 20
618.41822500000001
 30
0.0
 11
39.442129999999992
 21
618.41822500000001
 31
0.0
  0
LINE
  5
344
  8
0
 62
     3
 10
45.442129999999999
 20
612.93340000000001
 30
0.0
 11
39.442129999999992
 21
612.93340000000001
 31
0.0
  0
LINE
  5
345
  8
0
 62
     3
 10
45.442129999999999
 20
601.96374200000002
 30
0.0
 11
39.442129999999992
 21
601.96374200000002
 31
0.0
  0
LINE
  5
346
  8
0
 62
     3
 10
45.442129999999999
 20
596.47891700000002
 30
0.0
 11
39.442129999999992
 21
596.47891700000002
 31
0.0
  0
LINE
  5
347
  8
0
 62
     3
 10
62.442130000000013
 20
618.41822500000001
 30
0.0
 11
56.442129999999999
 21
618.41822500000001
 31
0.0
  0
LINE
  5
348
  8
0
 62
     3
 10
62.442130000000013
 20
612.93340000000001
 30
0.0
 11
56.442129999999999
 21
612.93340000000001
 31
0.0
  0
LINE
  5
349
  8
0
 62
     3
 10
62.442130000000013
 20
601.96374200000002
 30
0.0
 11
56.442129999999999
 21
601.96374200000002
 31
0.0
  0
LINE
  5
34A
  8
0
 62
     3
 10
62.442130000000013
 20
596.47891700000002
 30
0.0
 11
56.442129999999999
 21
596.47891700000002
 31
0.0
  0
LINE
  5
34B
  8
0
 62
   211
 10
65.142127000000002
 20
611.44857100000002
 30
0.0
 11
63.142127000000002
 21
613.4485709999999
 31
0.0
  0
LINE
  5
34C
  8
0
 62
   211
 10
63.142127000000002
 20
601.44857100000002
 30
0.0
 11
65.142127000000002
 21
603.44857100000002
 31
0.0
  0
LINE
  5
34D
  8
0
 62
   211
 10
63.142127000000002
 20
601.44857100000002
 30
0.0
 11
63.142127000000002
 21
601.74223399999994
 31
0.0
  0
LINE
  5
34E
  8
0
 62
   211
 10
63.142127000000002
 20
601.74223399999994
 30
0.0
 11
63.142127000000002
 21
602.59446800000001
 31
0.0
  0
LINE
  5
34F
  8
0
 62
   211
 10
63.142127000000002
 20
602.59446800000001
 30
0.0
 11
63.142127000000002
 21
603.92186100000004
 31
0.0
  0
LINE
  5
350
  8
0
 62
   211
 10
63.142127000000002
 20
603.92186100000004
 30
0.0
 11
63.142127000000002
 21
605.59446800000001
 31
0.0
  0
LINE
  5
351
  8
0
 62
   211
 10
63.142127000000002
 20
605.59446800000001
 30
0.0
 11
63.142127000000002
 21
607.44857100000002
 31
0.0
  0
LINE
  5
352
  8
0
 62
   211
 10
63.142127000000002
 20
607.44857100000002
 30
0.0
 11
63.142127000000002
 21
609.30267399999991
 31
0.0
  0
LINE
  5
353
  8
0
 62
   211
 10
63.142127000000002
 20
609.30267399999991
 30
0.0
 11
63.142127000000002
 21
610.97528199999988
 31
0.0
  0
LINE
  5
354
  8
0
 62
   211
 10
63.142127000000002
 20
610.97528199999988
 30
0.0
 11
63.142127000000002
 21
612.30267400000002
 31
0.0
  0
LINE
  5
355
  8
0
 62
   211
 10
63.142127000000002
 20
612.30267400000002
 30
0.0
 11
63.142127000000002
 21
613.15490799999998
 31
0.0
  0
LINE
  5
356
  8
0
 62
   211
 10
63.142127000000002
 20
613.15490799999998
 30
0.0
 11
63.142127000000002
 21
613.4485709999999
 31
0.0
  0
LINE
  5
357
  8
0
 62
   211
 10
63.142127000000002
 20
613.4485709999999
 30
0.0
 11
62.442130000000013
 21
613.4485709999999
 31
0.0
  0
LINE
  5
358
  8
0
 62
   211
 10
53.942129999999999
 20
613.4485709999999
 30
0.0
 11
47.942129999999999
 21
613.4485709999999
 31
0.0
  0
LINE
  5
359
  8
0
 62
   211
 10
39.442129999999992
 20
613.4485709999999
 30
0.0
 11
38.442129999999992
 21
613.4485709999999
 31
0.0
  0
LINE
  5
35A
  8
0
 62
   211
 10
63.142127000000002
 20
601.44857100000002
 30
0.0
 11
62.442130000000013
 21
601.44857100000002
 31
0.0
  0
LINE
  5
35B
  8
0
 62
   211
 10
53.942129999999999
 20
601.44857100000002
 30
0.0
 11
47.942129999999999
 21
601.44857100000002
 31
0.0
  0
LINE
  5
35C
  8
0
 62
   211
 10
39.442129999999992
 20
601.44857100000002
 30
0.0
 11
38.442129999999992
 21
601.44857100000002
 31
0.0
  0
LINE
  5
35D
  8
0
 62
     9
 10
39.442129999999992
 20
617.4485709999999
 30
0.0
 11
38.442129999999992
 21
617.4485709999999
 31
0.0
  0
LINE
  5
35E
  8
0
 62
     9
 10
53.942129999999999
 20
617.4485709999999
 30
0.0
 11
47.942129999999999
 21
617.4485709999999
 31
0.0
  0
LINE
  5
35F
  8
0
 62
     9
 10
39.442129999999992
 20
597.44857100000002
 30
0.0
 11
38.442129999999992
 21
597.44857100000002
 31
0.0
  0
LINE
  5
360
  8
0
 62
     9
 10
53.942129999999999
 20
597.44857100000002
 30
0.0
 11
47.942129999999999
 21
597.44857100000002
 31
0.0
  0
LINE
  5
361
  8
0
 62
     7
 10
65.142127000000002
 20
611.44857100000002
 30
0.0
 11
62.442130000000013
 21
611.44857100000002
 31
0.0
  0
LINE
  5
362
  8
0
 62
     7
 10
65.142127000000002
 20
603.44857100000002
 30
0.0
 11
62.442130000000013
 21
603.44857100000002
 31
0.0
  0
LINE
  5
363
  8
0
 62
     7
 10
53.942129999999999
 20
611.44857100000002
 30
0.0
 11
47.942129999999999
 21
611.44857100000002
 31
0.0
  0
LINE
  5
364
  8
0
 62
     7
 10
53.942129999999999
 20
603.44857100000002
 30
0.0
 11
47.942129999999999
 21
603.44857100000002
 31
0.0
  0
LINE
  5
365
  8
0
 62
     7
 10
17.142141999999989
 20
547.09425799999985
 30
0.0
 11
11.233267
 21
548.13614699999994
 31
0.0
  0
LINE
  5
366
  8
0
 62
     7
 10
17.142141999999989
 20
547.09425799999985
 30
0.0
 11
11.233267
 21
546.052369
 31
0.0
  0
LINE
  5
367
  8
0
 62
     7
 10
-149.8579189999999
 20
547.09425099999987
 30
0.0
 11
-143.94910599999989
 21
546.05236100000002
 31
0.0
  0
LINE
  5
368
  8
0
 62
     7
 10
-149.8579189999999
 20
547.09425099999987
 30
0.0
 11
-143.94910599999989
 21
548.13613999999995
 31
0.0
  0
LINE
  5
369
  8
0
 62
     7
 10
17.142141999999989
 20
547.09425799999985
 30
0.0
 11
-149.8579189999999
 21
547.09425099999987
 31
0.0
  0
LINE
  5
36A
  8
0
 62
     7
 10
17.142141999999989
 20
543.09425799999985
 30
0.0
 11
17.142141999999989
 21
569.89899100000002
 31
0.0
  0
LINE
  5
36B
  8
0
 62
     7
 10
-149.8579189999999
 20
543.09425099999999
 30
0.0
 11
-149.8579189999999
 21
661.94847199999992
 31
0.0
  0
LINE
  5
36C
  8
0
 62
     7
 10
17.142141999999989
 20
524.185517
 30
0.0
 11
11.233267
 21
525.22740599999986
 31
0.0
  0
LINE
  5
36D
  8
0
 62
     7
 10
17.142141999999989
 20
524.185517
 30
0.0
 11
11.233267
 21
523.14362800000004
 31
0.0
  0
LINE
  5
36E
  8
0
 62
     7
 10
-172.85785799999999
 20
524.18550999999991
 30
0.0
 11
-166.94898399999991
 21
523.14362000000006
 31
0.0
  0
LINE
  5
36F
  8
0
 62
     7
 10
-172.85785799999999
 20
524.18550999999991
 30
0.0
 11
-166.94898399999991
 21
525.22739899999988
 31
0.0
  0
LINE
  5
370
  8
0
 62
     7
 10
-174.85785799999999
 20
524.18550999999991
 30
0.0
 11
-180.766672
 21
525.22739899999988
 31
0.0
  0
LINE
  5
371
  8
0
 62
     7
 10
-174.85785799999999
 20
524.18550999999991
 30
0.0
 11
-180.766672
 21
523.14362000000006
 31
0.0
  0
LINE
  5
372
  8
0
 62
     7
 10
17.142141999999989
 20
524.185517
 30
0.0
 11
-174.85785799999999
 21
524.18550999999991
 31
0.0
  0
LINE
  5
373
  8
0
 62
     7
 10
17.142141999999989
 20
520.18551699999989
 30
0.0
 11
17.142141999999989
 21
569.89898800000003
 31
0.0
  0
LINE
  5
374
  8
0
 62
     7
 10
-172.85785799999999
 20
520.18550999999991
 30
0.0
 11
-172.85785799999999
 21
529.93757699999992
 31
0.0
  0
LINE
  5
375
  8
0
 62
     7
 10
-174.85785799999999
 20
520.18550999999991
 30
0.0
 11
-174.85785799999999
 21
529.35136900000009
 31
0.0
  0
LINE
  5
376
  8
0
 62
     7
 10
17.142141999999989
 20
505.48988000000003
 30
0.0
 11
11.233267
 21
506.53176999999999
 31
0.0
  0
LINE
  5
377
  8
0
 62
     7
 10
17.142141999999989
 20
505.48988000000003
 30
0.0
 11
11.233267
 21
504.44799099999989
 31
0.0
  0
LINE
  5
378
  8
0
 62
     7
 10
-178.35785799999999
 20
505.48987299999999
 30
0.0
 11
-172.44898399999991
 21
504.44798400000002
 31
0.0
  0
LINE
  5
379
  8
0
 62
     7
 10
-178.35785799999999
 20
505.48987299999999
 30
0.0
 11
-172.44898399999991
 21
506.53176200000001
 31
0.0
  0
LINE
  5
37A
  8
0
 62
     7
 10
17.142141999999989
 20
505.48988000000003
 30
0.0
 11
-178.35785799999999
 21
505.48987299999999
 31
0.0
  0
LINE
  5
37B
  8
0
 62
     7
 10
17.142141999999989
 20
501.4898839999999
 30
0.0
 11
17.142141999999989
 21
569.89899100000002
 31
0.0
  0
LINE
  5
37C
  8
0
 62
     7
 10
-178.35785799999999
 20
501.48987699999998
 30
0.0
 11
-178.35785799999999
 21
596.19843000000003
 31
0.0
  0
LINE
  5
37D
  8
0
 62
     7
 10
-94.294991999999993
 20
674.94848699999989
 30
0.0
 11
-95.336861999999996
 21
669.03964299999996
 31
0.0
  0
LINE
  5
37E
  8
0
 62
     7
 10
-94.294991999999993
 20
674.94848699999989
 30
0.0
 11
-93.253061000000002
 21
669.03964299999996
 31
0.0
  0
LINE
  5
37F
  8
0
 62
     7
 10
-94.294991999999993
 20
676.69857100000002
 30
0.0
 11
-93.253061000000002
 21
682.60742300000004
 31
0.0
  0
LINE
  5
380
  8
0
 62
     7
 10
-94.294991999999993
 20
676.69857100000002
 30
0.0
 11
-95.336861999999996
 21
682.60742300000004
 31
0.0
  0
LINE
  5
381
  8
0
 62
     7
 10
-94.294991999999993
 20
646.948487
 30
0.0
 11
-94.294991999999993
 21
676.69857100000002
 31
0.0
  0
LINE
  5
382
  8
0
 62
     7
 10
-90.294992000000008
 20
674.94848699999989
 30
0.0
 11
-136.8579189999999
 21
674.94848699999989
 31
0.0
  0
LINE
  5
383
  8
0
 62
     7
 10
-90.294992000000008
 20
676.69857100000002
 30
0.0
 11
-101.420419
 21
676.69857100000002
 31
0.0
  0
LINE
  5
384
  8
0
 62
     7
 10
-217.511606
 20
624.19856700000003
 30
0.0
 11
-216.469675
 21
630.10741900000005
 31
0.0
  0
LINE
  5
385
  8
0
 62
     7
 10
-217.511606
 20
624.19856700000003
 30
0.0
 11
-218.5534759999999
 21
630.10741900000005
 31
0.0
  0
LINE
  5
386
  8
0
 62
     7
 10
-217.511606
 20
729.19857100000002
 30
0.0
 11
-218.5534759999999
 21
723.28972699999986
 31
0.0
  0
LINE
  5
387
  8
0
 62
     7
 10
-217.511606
 20
729.19857100000002
 30
0.0
 11
-216.469675
 21
723.28972699999986
 31
0.0
  0
LINE
  5
388
  8
0
 62
     7
 10
-217.511606
 20
624.19856700000003
 30
0.0
 11
-217.511606
 21
729.19857100000002
 31
0.0
  0
LINE
  5
389
  8
0
 62
     7
 10
-221.511606
 20
624.19856700000003
 30
0.0
 11
-172.85785799999999
 21
624.19857500000001
 31
0.0
  0
LINE
  5
38A
  8
0
 62
     7
 10
-221.511606
 20
729.19857100000002
 30
0.0
 11
-172.85785799999999
 21
729.19857100000002
 31
0.0
  0
LINE
  5
38B
  8
0
 62
     7
 10
74.236136000000002
 20
676.69857100000002
 30
0.0
 11
75.278006000000005
 21
682.60742300000004
 31
0.0
  0
LINE
  5
38C
  8
0
 62
     7
 10
74.236136000000002
 20
676.69857100000002
 30
0.0
 11
73.194205000000011
 21
682.60742300000004
 31
0.0
  0
LINE
  5
38D
  8
0
 62
     7
 10
74.236136000000002
 20
750.4485709999999
 30
0.0
 11
73.194205000000011
 21
744.53972699999986
 31
0.0
  0
LINE
  5
38E
  8
0
 62
     7
 10
74.236136000000002
 20
750.4485709999999
 30
0.0
 11
75.278006000000005
 21
744.53972699999986
 31
0.0
  0
LINE
  5
38F
  8
0
 62
     7
 10
74.236136000000002
 20
676.69857100000002
 30
0.0
 11
74.236136000000002
 21
750.4485709999999
 31
0.0
  0
LINE
  5
390
  8
0
 62
     7
 10
126.776358
 20
607.44857100000002
 30
0.0
 11
127.818259
 21
613.35741500000006
 31
0.0
  0
LINE
  5
391
  8
0
 62
     7
 10
126.776358
 20
607.44857100000002
 30
0.0
 11
125.73445700000001
 21
613.35741500000006
 31
0.0
  0
LINE
  5
392
  8
0
 62
     7
 10
126.776358
 20
750.4485709999999
 30
0.0
 11
125.73445700000001
 21
744.53972699999986
 31
0.0
  0
LINE
  5
393
  8
0
 62
     7
 10
126.776358
 20
750.4485709999999
 30
0.0
 11
127.818259
 21
744.53972699999986
 31
0.0
  0
LINE
  5
394
  8
0
 62
     7
 10
126.776358
 20
607.44857100000002
 30
0.0
 11
126.776358
 21
750.4485709999999
 31
0.0
  0
LINE
  5
395
  8
0
 62
     7
 10
130.77635799999999
 20
607.44857100000002
 30
0.0
 11
121.37123699999999
 21
607.44857100000002
 31
0.0
  0
LINE
  5
396
  8
0
 62
     7
 10
130.77635799999999
 20
750.4485709999999
 30
0.0
 11
122.566489
 21
750.4485709999999
 31
0.0
  0
LINE
  5
397
  8
0
 62
     7
 10
20.142142
 20
546.87042499999995
 30
0.0
 11
26.050954999999998
 21
545.82853799999987
 31
0.0
  0
LINE
  5
398
  8
0
 62
     7
 10
20.142142
 20
546.87042499999995
 30
0.0
 11
26.050954999999998
 21
547.91231399999992
 31
0.0
  0
LINE
  5
399
  8
0
 62
     7
 10
17.142141999999989
 20
546.87042499999995
 30
0.0
 11
11.233267
 21
547.91231399999992
 31
0.0
  0
LINE
  5
39A
  8
0
 62
     7
 10
17.142141999999989
 20
546.87042499999995
 30
0.0
 11
11.233267
 21
545.82853599999987
 31
0.0
  0
LINE
  5
39B
  8
0
 62
     7
 10
43.212209999999999
 20
546.87042699999995
 30
0.0
 11
17.142141999999989
 21
546.87042499999995
 31
0.0
  0
LINE
  5
39C
  8
0
 62
     7
 10
20.142142
 20
542.87042499999995
 30
0.0
 11
20.142142
 21
569.80276600000002
 31
0.0
  0
LINE
  5
39D
  8
0
 62
     7
 10
17.142141999999989
 20
542.87042499999995
 30
0.0
 11
17.142141999999989
 21
569.89898999999991
 31
0.0
  0
LINE
  5
39E
  8
0
 62
     7
 10
47.942129999999999
 20
797.502251
 30
0.0
 11
42.033254999999997
 21
798.54413699999998
 31
0.0
  0
LINE
  5
39F
  8
0
 62
     7
 10
47.942129999999999
 20
797.502251
 30
0.0
 11
42.033254999999997
 21
796.46035099999995
 31
0.0
  0
LINE
  5
3A0
  8
0
 62
     7
 10
17.142141999999989
 20
797.502251
 30
0.0
 11
23.05101599999999
 21
796.46036600000002
 31
0.0
  0
LINE
  5
3A1
  8
0
 62
     7
 10
17.142141999999989
 20
797.502251
 30
0.0
 11
23.05101599999999
 21
798.54413699999998
 31
0.0
  0
LINE
  5
3A2
  8
0
 62
     7
 10
47.942129999999999
 20
797.502251
 30
0.0
 11
17.142141999999989
 21
797.502251
 31
0.0
  0
LINE
  5
3A3
  8
0
 62
     7
 10
47.942129999999999
 20
801.50225099999989
 30
0.0
 11
47.942129999999999
 21
761.44857100000002
 31
0.0
  0
LINE
  5
3A4
  8
0
 62
     7
 10
17.142141999999989
 20
801.50225099999989
 30
0.0
 11
17.142141999999989
 21
785.46663699999999
 31
0.0
  0
LINE
  5
3A5
  8
0
 62
     7
 10
99.94213000000002
 20
816.16774800000007
 30
0.0
 11
94.033255000000011
 21
817.2096489999999
 31
0.0
  0
LINE
  5
3A6
  8
0
 62
     7
 10
99.94213000000002
 20
816.16774800000007
 30
0.0
 11
94.033255000000011
 21
815.12587799999994
 31
0.0
  0
LINE
  5
3A7
  8
0
 62
     7
 10
17.142141999999989
 20
816.16774800000007
 30
0.0
 11
23.05101599999999
 21
815.12587799999994
 31
0.0
  0
LINE
  5
3A8
  8
0
 62
     7
 10
17.142141999999989
 20
816.16774800000007
 30
0.0
 11
23.05101599999999
 21
817.2096489999999
 31
0.0
  0
LINE
  5
3A9
  8
0
 62
     7
 10
99.94213000000002
 20
816.16774800000007
 30
0.0
 11
17.142141999999989
 21
816.16774800000007
 31
0.0
  0
LINE
  5
3AA
  8
0
 62
     7
 10
99.94213000000002
 20
820.16774799999996
 30
0.0
 11
99.94213000000002
 21
761.44855599999994
 31
0.0
  0
LINE
  5
3AB
  8
0
 62
     7
 10
17.142141999999989
 20
820.16774799999996
 30
0.0
 11
17.142141999999989
 21
785.46663699999999
 31
0.0
  0
LINE
  5
3AC
  8
0
 62
     7
 10
-148.20099799999991
 20
672.75374699999986
 30
0.0
 11
-145.47223799999989
 21
667.41014900000005
 31
0.0
  0
LINE
  5
3AD
  8
0
 62
     7
 10
-148.20099799999991
 20
672.75374699999986
 30
0.0
 11
-143.809213
 21
668.66568800000005
 31
0.0
  0
LINE
  5
3AE
  8
0
 62
     7
 10
-151.51490200000001
 20
677.14327300000002
 30
0.0
 11
-154.2435999999999
 21
682.48687800000005
 31
0.0
  0
LINE
  5
3AF
  8
0
 62
     7
 10
-151.51490200000001
 20
677.14327300000002
 30
0.0
 11
-155.90668600000001
 21
681.23133899999993
 31
0.0
  0
LINE
  5
3B0
  8
0
 62
     7
 10
-151.51490200000001
 20
677.14327300000002
 30
0.0
 11
-124.543222
 21
641.41724499999987
 31
0.0
  0
LINE
  5
3B1
  8
0
 62
     7
 10
-178.35785799999999
 20
817.64647799999989
 30
0.0
 11
-184.266672
 21
818.68834800000002
 31
0.0
  0
LINE
  5
3B2
  8
0
 62
     7
 10
-178.35785799999999
 20
817.64647799999989
 30
0.0
 11
-184.266672
 21
816.60457699999995
 31
0.0
  0
LINE
  5
3B3
  8
0
 62
     7
 10
-205.85785799999999
 20
817.64647799999989
 30
0.0
 11
-199.948984
 21
816.60457699999995
 31
0.0
  0
LINE
  5
3B4
  8
0
 62
     7
 10
-205.85785799999999
 20
817.64647799999989
 30
0.0
 11
-199.948984
 21
818.68834800000002
 31
0.0
  0
LINE
  5
3B5
  8
0
 62
     7
 10
-29.357858
 20
817.64647799999989
 30
0.0
 11
-205.85785799999999
 21
817.64647799999989
 31
0.0
  0
LINE
  5
3B6
  8
0
 62
     7
 10
-178.35785799999999
 20
821.646478
 30
0.0
 11
-178.35785799999999
 21
757.19843400000002
 31
0.0
  0
LINE
  5
3B7
  8
0
 62
     7
 10
-205.85785799999999
 20
821.646478
 30
0.0
 11
-205.85785799999999
 21
729.19857100000002
 31
0.0
  0
CIRCLE
  5
3B8
  8
0
 62
     7
 10
566.23919100000001
 20
586.61036000000001
 30
0.0
 40
0.25
  0
LINE
  5
3B9
  8
0
  6
DASHDOT
 62
     7
 10
625.71796200000006
 20
795.51954699999999
 30
0.0
 11
625.71796200000006
 21
552.63691799999992
 31
0.0
  0
POLYLINE
  5
3BA
  8
0
 62
     3
 66
     1
 10
0.0
 20
0.0
 30
0.0
  0
VERTEX
  5
AB7
  8
0
 62
     3
 10
558.21796200000006
 20
789.87931100000003
 30
0.0
  0
VERTEX
  5
AB8
  8
0
 62
     3
 10
558.21796200000006
 20
773.87931100000003
 30
0.0
  0
VERTEX
  5
AB9
  8
0
 62
     3
 10
560.21796200000006
 20
772.87931100000003
 30
0.0
  0
VERTEX
  5
ABA
  8
0
 62
     3
 10
556.21796200000006
 20
771.87931100000003
 30
0.0
  0
VERTEX
  5
ABB
  8
0
 62
     3
 10
558.21796200000006
 20
770.87931100000003
 30
0.0
  0
VERTEX
  5
ABC
  8
0
 62
     3
 10
558.21796200000006
 20
754.87931100000003
 30
0.0
  0
VERTEX
  5
ABD
  8
0
 62
     3
 10
560.21796200000006
 20
753.87931100000003
 30
0.0
  0
VERTEX
  5
ABE
  8
0
 62
     3
 10
556.21796200000006
 20
752.87931100000003
 30
0.0
  0
VERTEX
  5
ABF
  8
0
 62
     3
 10
558.21796200000006
 20
751.87931100000003
 30
0.0
  0
VERTEX
  5
AC0
  8
0
 62
     3
 10
558.21796200000006
 20
735.87931100000003
 30
0.0
  0
VERTEX
  5
AC1
  8
0
 62
     3
 10
560.21796200000006
 20
734.87931100000003
 30
0.0
  0
VERTEX
  5
AC2
  8
0
 62
     3
 10
556.21796200000006
 20
733.87931100000003
 30
0.0
  0
VERTEX
  5
AC3
  8
0
 62
     3
 10
558.21796200000006
 20
732.87931100000003
 30
0.0
  0
VERTEX
  5
AC4
  8
0
 62
     3
 10
558.21796200000006
 20
716.87931100000003
 30
0.0
  0
VERTEX
  5
AC5
  8
0
 62
     3
 10
560.21796200000006
 20
715.87931100000003
 30
0.0
  0
VERTEX
  5
AC6
  8
0
 62
     3
 10
556.21796200000006
 20
714.87931100000003
 30
0.0
  0
VERTEX
  5
AC7
  8
0
 62
     3
 10
558.21796200000006
 20
713.87931100000003
 30
0.0
  0
VERTEX
  5
AC8
  8
0
 62
     3
 10
558.21796200000006
 20
697.87931100000003
 30
0.0
  0
VERTEX
  5
AC9
  8
0
 62
     3
 10
560.21796200000006
 20
696.87931100000003
 30
0.0
  0
VERTEX
  5
ACA
  8
0
 62
     3
 10
556.21796200000006
 20
695.87931100000003
 30
0.0
  0
VERTEX
  5
ACB
  8
0
 62
     3
 10
558.21796200000006
 20
694.87931100000003
 30
0.0
  0
VERTEX
  5
ACC
  8
0
 62
     3
 10
558.21796200000006
 20
678.87931100000003
 30
0.0
  0
VERTEX
  5
ACD
  8
0
 62
     3
 10
560.21796200000006
 20
677.87931100000003
 30
0.0
  0
VERTEX
  5
ACE
  8
0
 62
     3
 10
556.21796200000006
 20
676.87931100000003
 30
0.0
  0
VERTEX
  5
ACF
  8
0
 62
     3
 10
558.21796200000006
 20
675.87931100000003
 30
0.0
  0
VERTEX
  5
AD0
  8
0
 62
     3
 10
558.21796200000006
 20
659.87931100000003
 30
0.0
  0
VERTEX
  5
AD1
  8
0
 62
     3
 10
560.21796200000006
 20
658.87931100000003
 30
0.0
  0
VERTEX
  5
AD2
  8
0
 62
     3
 10
556.21796200000006
 20
657.87931100000003
 30
0.0
  0
VERTEX
  5
AD3
  8
0
 62
     3
 10
558.21796200000006
 20
656.87931100000003
 30
0.0
  0
VERTEX
  5
AD4
  8
0
 62
     3
 10
558.21796200000006
 20
640.87931100000003
 30
0.0
  0
VERTEX
  5
AD5
  8
0
 62
     3
 10
560.21796200000006
 20
639.87931100000003
 30
0.0
  0
VERTEX
  5
AD6
  8
0
 62
     3
 10
556.21796200000006
 20
638.87931100000003
 30
0.0
  0
VERTEX
  5
AD7
  8
0
 62
     3
 10
558.21796200000006
 20
637.87931100000003
 30
0.0
  0
VERTEX
  5
AD8
  8
0
 62
     3
 10
558.21796200000006
 20
621.87931100000003
 30
0.0
  0
VERTEX
  5
AD9
  8
0
 62
     3
 10
560.21796200000006
 20
620.87931100000003
 30
0.0
  0
VERTEX
  5
ADA
  8
0
 62
     3
 10
556.21796200000006
 20
619.87931100000003
 30
0.0
  0
VERTEX
  5
ADB
  8
0
 62
     3
 10
558.21796200000006
 20
618.87931100000003
 30
0.0
  0
VERTEX
  5
ADC
  8
0
 62
     3
 10
558.21796200000006
 20
602.87931100000003
 30
0.0
  0
VERTEX
  5
ADD
  8
0
 62
     3
 10
560.21796200000006
 20
601.87931100000003
 30
0.0
  0
VERTEX
  5
ADE
  8
0
 62
     3
 10
556.21796200000006
 20
600.87931100000003
 30
0.0
  0
VERTEX
  5
ADF
  8
0
 62
     3
 10
558.21796200000006
 20
599.87931100000003
 30
0.0
  0
VERTEX
  5
AE0
  8
0
 62
     3
 10
558.21796200000006
 20
583.87931100000003
 30
0.0
  0
VERTEX
  5
AE1
  8
0
 62
     3
 10
560.21796200000006
 20
582.87931100000003
 30
0.0
  0
VERTEX
  5
AE2
  8
0
 62
     3
 10
556.21796200000006
 20
581.87931100000003
 30
0.0
  0
VERTEX
  5
AE3
  8
0
 62
     3
 10
558.21796200000006
 20
580.87931100000003
 30
0.0
  0
VERTEX
  5
AE4
  8
0
 62
     3
 10
558.21796200000006
 20
566.38498799999991
 30
0.0
  0
SEQEND
  5
AE5
  8
0
 62
     3
  0
POLYLINE
  5
3EA
  8
0
 62
     3
 66
     1
 10
0.0
 20
0.0
 30
0.0
  0
VERTEX
  5
AE6
  8
0
 62
     3
 10
698.21796200000006
 20
789.87931100000003
 30
0.0
  0
VERTEX
  5
AE7
  8
0
 62
     3
 10
698.21796200000006
 20
773.87931100000003
 30
0.0
  0
VERTEX
  5
AE8
  8
0
 62
     3
 10
700.21796200000006
 20
772.87931100000003
 30
0.0
  0
VERTEX
  5
AE9
  8
0
 62
     3
 10
696.21796200000006
 20
771.87931100000003
 30
0.0
  0
VERTEX
  5
AEA
  8
0
 62
     3
 10
698.21796200000006
 20
770.87931100000003
 30
0.0
  0
VERTEX
  5
AEB
  8
0
 62
     3
 10
698.21796200000006
 20
754.87931100000003
 30
0.0
  0
VERTEX
  5
AEC
  8
0
 62
     3
 10
700.21796200000006
 20
753.87931100000003
 30
0.0
  0
VERTEX
  5
AED
  8
0
 62
     3
 10
696.21796200000006
 20
752.87931100000003
 30
0.0
  0
VERTEX
  5
AEE
  8
0
 62
     3
 10
698.21796200000006
 20
751.87931100000003
 30
0.0
  0
VERTEX
  5
AEF
  8
0
 62
     3
 10
698.21796200000006
 20
735.87931100000003
 30
0.0
  0
VERTEX
  5
AF0
  8
0
 62
     3
 10
700.21796200000006
 20
734.87931100000003
 30
0.0
  0
VERTEX
  5
AF1
  8
0
 62
     3
 10
696.21796200000006
 20
733.87931100000003
 30
0.0
  0
VERTEX
  5
AF2
  8
0
 62
     3
 10
698.21796200000006
 20
732.87931100000003
 30
0.0
  0
VERTEX
  5
AF3
  8
0
 62
     3
 10
698.21796200000006
 20
716.87931100000003
 30
0.0
  0
VERTEX
  5
AF4
  8
0
 62
     3
 10
700.21796200000006
 20
715.87931100000003
 30
0.0
  0
VERTEX
  5
AF5
  8
0
 62
     3
 10
696.21796200000006
 20
714.87931100000003
 30
0.0
  0
VERTEX
  5
AF6
  8
0
 62
     3
 10
698.21796200000006
 20
713.87931100000003
 30
0.0
  0
VERTEX
  5
AF7
  8
0
 62
     3
 10
698.21796200000006
 20
697.87931100000003
 30
0.0
  0
VERTEX
  5
AF8
  8
0
 62
     3
 10
700.21796200000006
 20
696.87931100000003
 30
0.0
  0
VERTEX
  5
AF9
  8
0
 62
     3
 10
696.21796200000006
 20
695.87931100000003
 30
0.0
  0
VERTEX
  5
AFA
  8
0
 62
     3
 10
698.21796200000006
 20
694.87931100000003
 30
0.0
  0
VERTEX
  5
AFB
  8
0
 62
     3
 10
698.21796200000006
 20
678.87931100000003
 30
0.0
  0
VERTEX
  5
AFC
  8
0
 62
     3
 10
700.21796200000006
 20
677.87931100000003
 30
0.0
  0
VERTEX
  5
AFD
  8
0
 62
     3
 10
696.21796200000006
 20
676.87931100000003
 30
0.0
  0
VERTEX
  5
AFE
  8
0
 62
     3
 10
698.21796200000006
 20
675.87931100000003
 30
0.0
  0
VERTEX
  5
AFF
  8
0
 62
     3
 10
698.21796200000006
 20
659.87931100000003
 30
0.0
  0
VERTEX
  5
B00
  8
0
 62
     3
 10
700.21796200000006
 20
658.87931100000003
 30
0.0
  0
VERTEX
  5
B01
  8
0
 62
     3
 10
696.21796200000006
 20
657.87931100000003
 30
0.0
  0
VERTEX
  5
B02
  8
0
 62
     3
 10
698.21796200000006
 20
656.87931100000003
 30
0.0
  0
VERTEX
  5
B03
  8
0
 62
     3
 10
698.21796200000006
 20
640.87931100000003
 30
0.0
  0
VERTEX
  5
B04
  8
0
 62
     3
 10
700.21796200000006
 20
639.87931100000003
 30
0.0
  0
VERTEX
  5
B05
  8
0
 62
     3
 10
696.21796200000006
 20
638.87931100000003
 30
0.0
  0
VERTEX
  5
B06
  8
0
 62
     3
 10
698.21796200000006
 20
637.87931100000003
 30
0.0
  0
VERTEX
  5
B07
  8
0
 62
     3
 10
698.21796200000006
 20
621.87931100000003
 30
0.0
  0
VERTEX
  5
B08
  8
0
 62
     3
 10
700.21796200000006
 20
620.87931100000003
 30
0.0
  0
VERTEX
  5
B09
  8
0
 62
     3
 10
696.21796200000006
 20
619.87931100000003
 30
0.0
  0
VERTEX
  5
B0A
  8
0
 62
     3
 10
698.21796200000006
 20
618.87931100000003
 30
0.0
  0
VERTEX
  5
B0B
  8
0
 62
     3
 10
698.21796200000006
 20
602.87931100000003
 30
0.0
  0
VERTEX
  5
B0C
  8
0
 62
     3
 10
700.21796200000006
 20
601.87931100000003
 30
0.0
  0
VERTEX
  5
B0D
  8
0
 62
     3
 10
696.21796200000006
 20
600.87931100000003
 30
0.0
  0
VERTEX
  5
B0E
  8
0
 62
     3
 10
698.21796200000006
 20
599.87931100000003
 30
0.0
  0
VERTEX
  5
B0F
  8
0
 62
     3
 10
698.21796200000006
 20
583.87931100000003
 30
0.0
  0
VERTEX
  5
B10
  8
0
 62
     3
 10
700.21796200000006
 20
582.87931100000003
 30
0.0
  0
VERTEX
  5
B11
  8
0
 62
     3
 10
696.21796200000006
 20
581.87931100000003
 30
0.0
  0
VERTEX
  5
B12
  8
0
 62
     3
 10
698.21796200000006
 20
580.87931100000003
 30
0.0
  0
VERTEX
  5
B13
  8
0
 62
     3
 10
698.21796200000006
 20
567.4425359999999
 30
0.0
  0
SEQEND
  5
B14
  8
0
 62
     3
  0
POLYLINE
  5
41A
  8
0
 62
     3
 66
     1
 10
0.0
 20
0.0
 30
0.0
  0
VERTEX
  5
B15
  8
0
 62
     3
 10
707.54797199999985
 20
778.44857100000002
 30
0.0
  0
VERTEX
  5
B16
  8
0
 62
     3
 10
691.54797199999985
 20
778.44857100000002
 30
0.0
  0
VERTEX
  5
B17
  8
0
 62
     3
 10
690.54797199999985
 20
776.44857100000002
 30
0.0
  0
VERTEX
  5
B18
  8
0
 62
     3
 10
689.54797199999985
 20
780.44857100000002
 30
0.0
  0
VERTEX
  5
B19
  8
0
 62
     3
 10
688.54797199999985
 20
778.44857100000002
 30
0.0
  0
VERTEX
  5
B1A
  8
0
 62
     3
 10
672.54797199999996
 20
778.44857100000002
 30
0.0
  0
VERTEX
  5
B1B
  8
0
 62
     3
 10
671.54797199999985
 20
776.44857100000002
 30
0.0
  0
VERTEX
  5
B1C
  8
0
 62
     3
 10
670.54797199999985
 20
780.44857100000002
 30
0.0
  0
VERTEX
  5
B1D
  8
0
 62
     3
 10
669.54797199999985
 20
778.44857100000002
 30
0.0
  0
VERTEX
  5
B1E
  8
0
 62
     3
 10
653.54797199999985
 20
778.44857100000002
 30
0.0
  0
VERTEX
  5
B1F
  8
0
 62
     3
 10
652.54797199999985
 20
776.44857100000002
 30
0.0
  0
VERTEX
  5
B20
  8
0
 62
     3
 10
651.54797199999996
 20
780.44857100000002
 30
0.0
  0
VERTEX
  5
B21
  8
0
 62
     3
 10
650.54797199999985
 20
778.44857100000002
 30
0.0
  0
VERTEX
  5
B22
  8
0
 62
     3
 10
634.54797199999996
 20
778.44857100000002
 30
0.0
  0
VERTEX
  5
B23
  8
0
 62
     3
 10
633.54797199999985
 20
776.44857100000002
 30
0.0
  0
VERTEX
  5
B24
  8
0
 62
     3
 10
632.54797199999985
 20
780.44857100000002
 30
0.0
  0
VERTEX
  5
B25
  8
0
 62
     3
 10
631.54797199999985
 20
778.44857100000002
 30
0.0
  0
VERTEX
  5
B26
  8
0
 62
     3
 10
615.54797199999985
 20
778.44857100000002
 30
0.0
  0
VERTEX
  5
B27
  8
0
 62
     3
 10
614.54797199999985
 20
776.44857100000002
 30
0.0
  0
VERTEX
  5
B28
  8
0
 62
     3
 10
613.54797199999985
 20
780.44857100000002
 30
0.0
  0
VERTEX
  5
B29
  8
0
 62
     3
 10
612.54797199999985
 20
778.44857100000002
 30
0.0
  0
VERTEX
  5
B2A
  8
0
 62
     3
 10
596.54797199999985
 20
778.44857100000002
 30
0.0
  0
VERTEX
  5
B2B
  8
0
 62
     3
 10
595.54797199999985
 20
776.44857100000002
 30
0.0
  0
VERTEX
  5
B2C
  8
0
 62
     3
 10
594.54797199999985
 20
780.44857100000002
 30
0.0
  0
VERTEX
  5
B2D
  8
0
 62
     3
 10
593.54797199999996
 20
778.44857100000002
 30
0.0
  0
VERTEX
  5
B2E
  8
0
 62
     3
 10
577.54797199999985
 20
778.44857100000002
 30
0.0
  0
VERTEX
  5
B2F
  8
0
 62
     3
 10
576.54797199999996
 20
776.44857100000002
 30
0.0
  0
VERTEX
  5
B30
  8
0
 62
     3
 10
575.54797199999985
 20
780.44857100000002
 30
0.0
  0
VERTEX
  5
B31
  8
0
 62
     3
 10
574.54797199999985
 20
778.44857100000002
 30
0.0
  0
VERTEX
  5
B32
  8
0
 62
     3
 10
558.54797199999985
 20
778.44857100000002
 30
0.0
  0
VERTEX
  5
B33
  8
0
 62
     3
 10
557.54797199999985
 20
776.44857100000002
 30
0.0
  0
VERTEX
  5
B34
  8
0
 62
     3
 10
556.54797199999985
 20
780.44857100000002
 30
0.0
  0
VERTEX
  5
B35
  8
0
 62
     3
 10
555.54797199999996
 20
778.44857100000002
 30
0.0
  0
VERTEX
  5
B36
  8
0
 62
     3
 10
548.30106199999989
 20
778.44857100000002
 30
0.0
  0
SEQEND
  5
B37
  8
0
 62
     3
  0
POLYLINE
  5
43E
  8
0
 62
     3
 66
     1
 10
0.0
 20
0.0
 30
0.0
  0
VERTEX
  5
B38
  8
0
 62
     3
 10
707.54797199999985
 20
579.44857100000002
 30
0.0
  0
VERTEX
  5
B39
  8
0
 62
     3
 10
691.54797199999985
 20
579.44857100000002
 30
0.0
  0
VERTEX
  5
B3A
  8
0
 62
     3
 10
690.54797199999985
 20
577.44857100000002
 30
0.0
  0
VERTEX
  5
B3B
  8
0
 62
     3
 10
689.54797199999985
 20
581.44857100000002
 30
0.0
  0
VERTEX
  5
B3C
  8
0
 62
     3
 10
688.54797199999985
 20
579.44857100000002
 30
0.0
  0
VERTEX
  5
B3D
  8
0
 62
     3
 10
672.54797199999996
 20
579.44857100000002
 30
0.0
  0
VERTEX
  5
B3E
  8
0
 62
     3
 10
671.54797199999985
 20
577.44857100000002
 30
0.0
  0
VERTEX
  5
B3F
  8
0
 62
     3
 10
670.54797199999985
 20
581.44857100000002
 30
0.0
  0
VERTEX
  5
B40
  8
0
 62
     3
 10
669.54797199999985
 20
579.44857100000002
 30
0.0
  0
VERTEX
  5
B41
  8
0
 62
     3
 10
653.54797199999985
 20
579.44857100000002
 30
0.0
  0
VERTEX
  5
B42
  8
0
 62
     3
 10
652.54797199999985
 20
577.44857100000002
 30
0.0
  0
VERTEX
  5
B43
  8
0
 62
     3
 10
651.54797199999996
 20
581.44857100000002
 30
0.0
  0
VERTEX
  5
B44
  8
0
 62
     3
 10
650.54797199999985
 20
579.44857100000002
 30
0.0
  0
VERTEX
  5
B45
  8
0
 62
     3
 10
634.54797199999996
 20
579.44857100000002
 30
0.0
  0
VERTEX
  5
B46
  8
0
 62
     3
 10
633.54797199999985
 20
577.44857100000002
 30
0.0
  0
VERTEX
  5
B47
  8
0
 62
     3
 10
632.54797199999985
 20
581.44857100000002
 30
0.0
  0
VERTEX
  5
B48
  8
0
 62
     3
 10
631.54797199999985
 20
579.44857100000002
 30
0.0
  0
VERTEX
  5
B49
  8
0
 62
     3
 10
615.54797199999985
 20
579.44857100000002
 30
0.0
  0
VERTEX
  5
B4A
  8
0
 62
     3
 10
614.54797199999985
 20
577.44857100000002
 30
0.0
  0
VERTEX
  5
B4B
  8
0
 62
     3
 10
613.54797199999985
 20
581.44857100000002
 30
0.0
  0
VERTEX
  5
B4C
  8
0
 62
     3
 10
612.54797199999985
 20
579.44857100000002
 30
0.0
  0
VERTEX
  5
B4D
  8
0
 62
     3
 10
596.54797199999985
 20
579.44857100000002
 30
0.0
  0
VERTEX
  5
B4E
  8
0
 62
     3
 10
595.54797199999985
 20
577.44857100000002
 30
0.0
  0
VERTEX
  5
B4F
  8
0
 62
     3
 10
594.54797199999985
 20
581.44857100000002
 30
0.0
  0
VERTEX
  5
B50
  8
0
 62
     3
 10
593.54797199999996
 20
579.44857100000002
 30
0.0
  0
VERTEX
  5
B51
  8
0
 62
     3
 10
577.54797199999985
 20
579.44857100000002
 30
0.0
  0
VERTEX
  5
B52
  8
0
 62
     3
 10
576.54797199999996
 20
577.44857100000002
 30
0.0
  0
VERTEX
  5
B53
  8
0
 62
     3
 10
575.54797199999985
 20
581.44857100000002
 30
0.0
  0
VERTEX
  5
B54
  8
0
 62
     3
 10
574.54797199999985
 20
579.44857100000002
 30
0.0
  0
VERTEX
  5
B55
  8
0
 62
     3
 10
558.54797199999985
 20
579.44857100000002
 30
0.0
  0
VERTEX
  5
B56
  8
0
 62
     3
 10
557.54797199999985
 20
577.44857100000002
 30
0.0
  0
VERTEX
  5
B57
  8
0
 62
     3
 10
556.54797199999985
 20
581.44857100000002
 30
0.0
  0
VERTEX
  5
B58
  8
0
 62
     3
 10
555.54797199999996
 20
579.44857100000002
 30
0.0
  0
VERTEX
  5
B59
  8
0
 62
     3
 10
547.29605700000002
 20
579.44857100000002
 30
0.0
  0
SEQEND
  5
B5A
  8
0
 62
     3
  0
LINE
  5
462
  8
0
  6
DASHDOT
 62
     7
 10
650.71796200000006
 20
750.75403700000004
 30
0.0
 11
650.71796200000006
 21
605.53054900000006
 31
0.0
  0
LINE
  5
463
  8
0
  6
DASHDOT
 62
     7
 10
580.71796200000006
 20
754.77406399999995
 30
0.0
 11
580.71796200000006
 21
606.033051
 31
0.0
  0
LINE
  5
464
  8
0
  6
DASHDOT
 62
     7
 10
664.88186100000007
 20
728.94857100000002
 30
0.0
 11
565.38618299999985
 21
728.94857100000002
 31
0.0
  0
LINE
  5
465
  8
0
  6
DASHDOT
 62
     7
 10
663.37435000000005
 20
628.94857100000002
 30
0.0
 11
566.89368999999999
 21
628.94857100000002
 31
0.0
  0
CIRCLE
  5
466
  8
0
 62
     7
 10
580.71796200000006
 20
728.94857100000002
 30
0.0
 40
2.5
  0
CIRCLE
  5
467
  8
0
 62
     7
 10
650.71796200000006
 20
728.94857100000002
 30
0.0
 40
2.5
  0
CIRCLE
  5
468
  8
0
 62
     7
 10
650.71796200000006
 20
628.94857100000002
 30
0.0
 40
2.5
  0
CIRCLE
  5
469
  8
0
 62
     7
 10
580.71796200000006
 20
628.94857100000002
 30
0.0
 40
2.5
  0
LINE
  5
46A
  8
0
  6
DASHDOT
 62
     7
 10
682.11773899999991
 20
750.4485709999999
 30
0.0
 11
567.05955300000005
 21
750.4485709999999
 31
0.0
  0
LINE
  5
46B
  8
0
  6
DASHDOT
 62
     7
 10
682.11773899999991
 20
607.44857100000002
 30
0.0
 11
569.67451299999993
 21
607.44857100000002
 31
0.0
  0
LINE
  5
46C
  8
0
 62
     7
 10
660.71796200000006
 20
764.44857100000002
 30
0.0
 11
590.71796200000006
 21
764.44857100000002
 31
0.0
  0
LINE
  5
46D
  8
0
 62
     7
 10
660.71796200000006
 20
736.44857100000002
 30
0.0
 11
590.71796200000006
 21
736.44857100000002
 31
0.0
  0
LINE
  5
46E
  8
0
 62
     7
 10
660.71796200000006
 20
621.4485709999999
 30
0.0
 11
590.71796200000006
 21
621.4485709999999
 31
0.0
  0
LINE
  5
46F
  8
0
 62
     7
 10
660.71796200000006
 20
593.44857100000002
 30
0.0
 11
590.71796200000006
 21
593.44857100000002
 31
0.0
  0
LINE
  5
470
  8
0
  6
DASHDOT
 62
     7
 10
660.71796200000006
 20
773.19180400000005
 30
0.0
 11
660.71796200000006
 21
583.34580300000005
 31
0.0
  0
LINE
  5
471
  8
0
  6
DASHDOT
 62
     7
 10
590.71796200000006
 20
773.19180400000005
 30
0.0
 11
590.71796200000006
 21
583.34580300000005
 31
0.0
  0
ARC
  5
472
  8
0
 62
     7
 10
660.71796200000006
 20
750.4485709999999
 30
0.0
 40
14.0
 50
270.00000299999988
 51
90.000000999999983
  0
ARC
  5
473
  8
0
 62
     7
 10
590.71796200000006
 20
750.4485709999999
 30
0.0
 40
14.0
 50
90.000000999999983
 51
270.00000299999988
  0
ARC
  5
474
  8
0
 62
     7
 10
660.71796200000006
 20
607.44857100000002
 30
0.0
 40
14.0
 50
270.00000299999988
 51
90.000000999999983
  0
ARC
  5
475
  8
0
 62
     7
 10
590.71796200000006
 20
607.44857100000002
 30
0.0
 40
14.0
 50
90.000000999999983
 51
270.00000299999988
  0
LINE
  5
476
  8
0
  6
DASHDOT
 62
     7
 10
710.12479199999996
 20
676.69857100000002
 30
0.0
 11
509.6211679999999
 21
676.69857100000002
 31
0.0
  0
LINE
  5
477
  8
0
 62
     7
 10
578.60175099999992
 20
627.61754699999995
 30
0.0
 11
567.48883599999988
 21
623.08944000000008
 31
0.0
  0
LINE
  5
478
  8
0
 62
     7
 10
578.60175099999992
 20
627.61754699999995
 30
0.0
 11
569.70770800000003
 21
619.56166900000005
 31
0.0
  0
LINE
  5
479
  8
0
 62
     7
 10
582.83417299999996
 20
630.27962600000001
 30
0.0
 11
593.94708800000001
 21
634.80773199999987
 31
0.0
  0
LINE
  5
47A
  8
0
 62
     7
 10
582.83417299999996
 20
630.27962600000001
 30
0.0
 11
591.72821599999997
 21
638.33550300000002
 31
0.0
  0
LINE
  5
47B
  8
0
 62
     7
 10
583.04572099999984
 20
630.41274299999998
 30
0.0
 11
434.23077999999992
 21
536.81093699999985
 31
0.0
  0
LINE
  5
47C
  8
0
 62
     7
 10
732.98615099999995
 20
728.94857100000002
 30
0.0
 11
730.902288
 21
717.13088300000004
 31
0.0
  0
LINE
  5
47D
  8
0
 62
     7
 10
732.98615099999995
 20
728.94857100000002
 30
0.0
 11
735.06989099999998
 21
717.13088300000004
 31
0.0
  0
LINE
  5
47E
  8
0
 62
     7
 10
732.98602900000003
 20
628.94857100000002
 30
0.0
 11
735.06989099999998
 21
640.76629000000003
 31
0.0
  0
LINE
  5
47F
  8
0
 62
     7
 10
732.98602900000003
 20
628.94857100000002
 30
0.0
 11
730.902288
 21
640.76629000000003
 31
0.0
  0
LINE
  5
480
  8
0
 62
     7
 10
732.98615099999995
 20
728.94857100000002
 30
0.0
 11
732.98602900000003
 21
628.94857100000002
 31
0.0
  0
LINE
  5
481
  8
0
 62
     7
 10
740.98615099999995
 20
728.94857100000002
 30
0.0
 11
664.88190300000008
 21
728.94860199999994
 31
0.0
  0
LINE
  5
482
  8
0
 62
     7
 10
740.98602900000003
 20
628.94857100000002
 30
0.0
 11
663.37433399999986
 21
628.94860199999994
 31
0.0
  0
LINE
  5
483
  8
0
 62
     7
 10
650.71796200000006
 20
540.20510200000001
 30
0.0
 11
662.53571099999999
 21
538.12133099999994
 31
0.0
  0
LINE
  5
484
  8
0
 62
     7
 10
650.71796200000006
 20
540.20510200000001
 30
0.0
 11
662.53571099999999
 21
542.288903
 31
0.0
  0
LINE
  5
485
  8
0
 62
     7
 10
625.71796200000006
 20
540.20510200000001
 30
0.0
 11
613.90033499999993
 21
542.288903
 31
0.0
  0
LINE
  5
486
  8
0
 62
     7
 10
625.71796200000006
 20
540.20510200000001
 30
0.0
 11
613.90033499999993
 21
538.12133099999994
 31
0.0
  0
LINE
  5
487
  8
0
 62
     7
 10
684.71796200000006
 20
540.20510200000001
 30
0.0
 11
625.71796200000006
 21
540.20510200000001
 31
0.0
  0
LINE
  5
488
  8
0
 62
     7
 10
650.71796200000006
 20
532.2051019999999
 30
0.0
 11
650.71796200000006
 21
605.53054099999986
 31
0.0
  0
LINE
  5
489
  8
0
 62
     7
 10
625.71796200000006
 20
532.2051019999999
 30
0.0
 11
625.71796200000006
 21
552.63692600000002
 31
0.0
  0
LINE
  5
48A
  8
0
 62
     7
 10
625.71796200000006
 20
503.52236299999993
 30
0.0
 11
613.90021300000001
 21
505.606133
 31
0.0
  0
LINE
  5
48B
  8
0
 62
     7
 10
625.71796200000006
 20
503.52236299999993
 30
0.0
 11
613.90021300000001
 21
501.43859199999991
 31
0.0
  0
LINE
  5
48C
  8
0
 62
     7
 10
580.71796200000006
 20
503.52236299999993
 30
0.0
 11
592.53571099999999
 21
501.43859199999991
 31
0.0
  0
LINE
  5
48D
  8
0
 62
     7
 10
580.71796200000006
 20
503.52236299999993
 30
0.0
 11
592.53571099999999
 21
505.606133
 31
0.0
  0
LINE
  5
48E
  8
0
 62
     7
 10
659.71796200000006
 20
503.52236299999993
 30
0.0
 11
580.71796200000006
 21
503.52236299999993
 31
0.0
  0
LINE
  5
48F
  8
0
 62
     7
 10
625.71796200000006
 20
495.52236299999993
 30
0.0
 11
625.71796200000006
 21
552.63692600000002
 31
0.0
  0
LINE
  5
490
  8
0
 62
     7
 10
580.71796200000006
 20
495.52236299999993
 30
0.0
 11
580.71796200000006
 21
606.03304400000002
 31
0.0
  0
LINE
  5
491
  8
0
 62
     7
 10
660.71796200000006
 20
794.23157600000002
 30
0.0
 11
672.53571099999999
 21
792.14780499999995
 31
0.0
  0
LINE
  5
492
  8
0
 62
     7
 10
660.71796200000006
 20
794.23157600000002
 30
0.0
 11
672.53571099999999
 21
796.31536200000005
 31
0.0
  0
POLYLINE
  5
493
  8
0
 62
     7
 66
     1
 10
0.0
 20
0.0
 30
0.0
 70
     1
  0
VERTEX
  5
B5B
  8
0
 62
     7
 10
623.71796200000006
 20
794.23157600000002
 30
0.0
  0
VERTEX
  5
B5C
  8
0
 62
     7
 10
624.30377799999997
 20
792.81736099999989
 30
0.0
  0
VERTEX
  5
B5D
  8
0
 62
     7
 10
625.71796200000006
 20
792.23157600000002
 30
0.0
  0
VERTEX
  5
B5E
  8
0
 62
     7
 10
627.13214699999992
 20
792.81736099999989
 30
0.0
  0
VERTEX
  5
B5F
  8
0
 62
     7
 10
627.71796200000006
 20
794.23157600000002
 30
0.0
  0
VERTEX
  5
B60
  8
0
 62
     7
 10
627.13214699999992
 20
795.64579100000003
 30
0.0
  0
VERTEX
  5
B61
  8
0
 62
     7
 10
625.71796200000006
 20
796.23157600000002
 30
0.0
  0
VERTEX
  5
B62
  8
0
 62
     7
 10
624.30377799999997
 20
795.64579100000003
 30
0.0
  0
SEQEND
  5
B63
  8
0
 62
     7
  0
LINE
  5
49D
  8
0
 62
     7
 10
590.71796200000006
 20
794.23157600000002
 30
0.0
 11
578.90021300000001
 21
796.31534699999986
 31
0.0
  0
LINE
  5
49E
  8
0
 62
     7
 10
590.71796200000006
 20
794.23157600000002
 30
0.0
 11
578.90021300000001
 21
792.14778999999999
 31
0.0
  0
LINE
  5
49F
  8
0
 62
     7
 10
694.71796200000006
 20
794.23157600000002
 30
0.0
 11
556.71796200000006
 21
794.23157600000002
 31
0.0
  0
LINE
  5
4A0
  8
0
 62
     7
 10
660.71796200000006
 20
802.2315759999999
 30
0.0
 11
660.71796200000006
 21
773.19182699999999
 31
0.0
  0
LINE
  5
4A1
  8
0
 62
     7
 10
625.71796200000006
 20
786.23157600000002
 30
0.0
 11
625.71796200000006
 21
795.51955499999997
 31
0.0
  0
LINE
  5
4A2
  8
0
 62
     7
 10
590.71796200000006
 20
802.2315759999999
 30
0.0
 11
590.71796200000006
 21
773.19182699999999
 31
0.0
  0
LINE
  5
4A3
  8
0
 62
     7
 10
768.49677099999985
 20
750.4485709999999
 30
0.0
 11
766.41303099999993
 21
738.63088300000004
 31
0.0
  0
LINE
  5
4A4
  8
0
 62
     7
 10
768.49677099999985
 20
750.4485709999999
 30
0.0
 11
770.580511
 21
738.63088300000004
 31
0.0
  0
LINE
  5
4A5
  8
0
 62
     7
 10
768.49677099999985
 20
607.44857100000002
 30
0.0
 11
770.580511
 21
619.26625899999999
 31
0.0
  0
LINE
  5
4A6
  8
0
 62
     7
 10
768.49677099999985
 20
607.44857100000002
 30
0.0
 11
766.41290900000001
 21
619.26625899999999
 31
0.0
  0
LINE
  5
4A7
  8
0
 62
     7
 10
768.49677099999985
 20
750.4485709999999
 30
0.0
 11
768.49677099999985
 21
607.44857100000002
 31
0.0
  0
LINE
  5
4A8
  8
0
 62
     7
 10
776.49677099999985
 20
750.4485709999999
 30
0.0
 11
682.11774300000002
 21
750.44860199999994
 31
0.0
  0
LINE
  5
4A9
  8
0
 62
     7
 10
776.49677099999985
 20
607.44857100000002
 30
0.0
 11
682.11774300000002
 21
607.44860199999994
 31
0.0
  0
LINE
  5
4AA
  8
0
 62
     7
 10
674.14813800000002
 20
754.401971
 30
0.0
 11
686.07330899999999
 21
755.74015099999997
 31
0.0
  0
LINE
  5
4AB
  8
0
 62
     7
 10
674.14813800000002
 20
754.401971
 30
0.0
 11
684.89642900000001
 21
759.73809100000005
 31
0.0
  0
LINE
  5
4AC
  8
0
 62
     7
 10
661.55829400000005
 20
750.69593099999997
 30
0.0
 11
769.99103400000001
 21
782.61484599999994
 31
0.0
  0
LINE
  5
4AD
  8
0
 62
     7
 10
535.99921200000006
 20
728.94857100000002
 30
0.0
 11
533.91547200000002
 21
717.13088300000004
 31
0.0
  0
LINE
  5
4AE
  8
0
 62
     7
 10
535.99921200000006
 20
728.94857100000002
 30
0.0
 11
538.08295199999986
 21
717.13088300000004
 31
0.0
  0
LINE
  5
4AF
  8
0
 62
     7
 10
535.99921200000006
 20
676.69857100000002
 30
0.0
 11
538.08295199999986
 21
688.51625899999999
 31
0.0
  0
LINE
  5
4B0
  8
0
 62
     7
 10
535.99921200000006
 20
676.69857100000002
 30
0.0
 11
533.91547200000002
 21
688.51625899999999
 31
0.0
  0
LINE
  5
4B1
  8
0
 62
     7
 10
535.99921200000006
 20
737.34957199999997
 30
0.0
 11
535.99921200000006
 21
676.69857100000002
 31
0.0
  0
LINE
  5
4B2
  8
0
 62
     7
 10
527.99921200000006
 20
728.94857100000002
 30
0.0
 11
565.38617499999987
 21
728.94857100000002
 31
0.0
  0
LINE
  5
4B3
  8
0
 62
     7
 10
503.21722999999997
 20
750.4485709999999
 30
0.0
 11
501.13348999999999
 21
738.63088300000004
 31
0.0
  0
LINE
  5
4B4
  8
0
 62
     7
 10
503.21722999999997
 20
750.4485709999999
 30
0.0
 11
505.30109199999998
 21
738.63088300000004
 31
0.0
  0
LINE
  5
4B5
  8
0
 62
     7
 10
503.21722999999997
 20
676.69857100000002
 30
0.0
 11
505.30097000000001
 21
688.51625899999999
 31
0.0
  0
LINE
  5
4B6
  8
0
 62
     7
 10
503.21722999999997
 20
676.69857100000002
 30
0.0
 11
501.13348999999999
 21
688.51625899999999
 31
0.0
  0
LINE
  5
4B7
  8
0
 62
     7
 10
503.21722999999997
 20
750.4485709999999
 30
0.0
 11
503.21722999999997
 21
608.856988
 31
0.0
  0
LINE
  5
4B8
  8
0
 62
     7
 10
495.21722999999992
 20
750.4485709999999
 30
0.0
 11
567.05951500000003
 21
750.4485709999999
 31
0.0
  0
LINE
  5
4B9
  8
0
 62
     7
 10
495.21722999999992
 20
676.69857100000002
 30
0.0
 11
509.62116099999997
 21
676.69857100000002
 31
0.0
  0
LINE
  5
4BA
  8
0
 62
     6
 10
281.97608300000002
 20
382.94070099999999
 30
0.0
 11
257.47610600000002
 21
382.94070099999999
 31
0.0
  0
LINE
  5
4BB
  8
0
 62
     6
 10
316.97608300000002
 20
382.94070099999999
 30
0.0
 11
291.97608300000002
 21
382.94070099999999
 31
0.0
  0
LINE
  5
4BC
  8
0
 62
     6
 10
351.976091
 20
382.94070099999999
 30
0.0
 11
327.47610600000002
 21
382.94070099999999
 31
0.0
  0
LINE
  5
4BD
  8
0
 62
     6
 10
251.97601099999989
 20
378.44070099999988
 30
0.0
 11
251.97601099999989
 21
334.94065499999988
 31
0.0
  0
LINE
  5
4BE
  8
0
 62
     6
 10
356.97610600000002
 20
378.44070099999988
 30
0.0
 11
356.97609099999988
 21
371.94067000000001
 31
0.0
  0
LINE
  5
4BF
  8
0
 62
     6
 10
356.97607499999992
 20
371.94070099999988
 30
0.0
 11
356.97607499999992
 21
334.94065499999988
 31
0.0
  0
LINE
  5
4C0
  8
0
 62
     6
 10
354.47601400000002
 20
371.94070099999988
 30
0.0
 11
354.47601400000002
 21
334.94065499999988
 31
0.0
  0
LINE
  5
4C1
  8
0
 62
     6
 10
323.72601400000002
 20
371.94070099999988
 30
0.0
 11
323.72601400000002
 21
334.94065499999988
 31
0.0
  0
LINE
  5
4C2
  8
0
 62
     6
 10
320.22601400000002
 20
371.94070099999988
 30
0.0
 11
320.22601400000002
 21
334.94065499999988
 31
0.0
  0
LINE
  5
4C3
  8
0
 62
     6
 10
288.72601400000002
 20
371.94070099999988
 30
0.0
 11
288.72601400000002
 21
334.94065499999988
 31
0.0
  0
LINE
  5
4C4
  8
0
 62
     6
 10
285.22601400000002
 20
371.94070099999988
 30
0.0
 11
285.22601400000002
 21
334.94065499999988
 31
0.0
  0
LINE
  5
4C5
  8
0
 62
     6
 10
254.47601399999999
 20
371.94070099999988
 30
0.0
 11
254.47601399999999
 21
334.94065499999988
 31
0.0
  0
LINE
  5
4C6
  8
0
 62
     6
 10
356.97607499999992
 20
334.94065499999988
 30
0.0
 11
349.726091
 21
334.94065499999988
 31
0.0
  0
LINE
  5
4C7
  8
0
 62
     6
 10
329.22609099999988
 20
334.94065499999988
 30
0.0
 11
314.72607499999998
 21
334.94065499999988
 31
0.0
  0
LINE
  5
4C8
  8
0
 62
     6
 10
294.22607499999992
 20
334.94065499999988
 30
0.0
 11
279.72607499999992
 21
334.94065499999988
 31
0.0
  0
LINE
  5
4C9
  8
0
 62
     6
 10
259.22607499999992
 20
334.94065499999988
 30
0.0
 11
251.97601099999989
 21
334.94065499999988
 31
0.0
  0
LINE
  5
4CA
  8
0
 62
     6
 10
252.976011
 20
378.44070099999988
 30
0.0
 11
251.97601099999989
 21
378.44070099999988
 31
0.0
  0
LINE
  5
4CB
  8
0
 62
     6
 10
291.97608300000002
 20
378.44070099999988
 30
0.0
 11
281.97608300000002
 21
378.44070099999988
 31
0.0
  0
LINE
  5
4CC
  8
0
 62
     6
 10
319.47601400000002
 20
378.44070099999988
 30
0.0
 11
316.97608300000002
 21
378.44070099999988
 31
0.0
  0
LINE
  5
4CD
  8
0
 62
     6
 10
356.97610600000002
 20
378.44070099999988
 30
0.0
 11
351.97607499999992
 21
378.44070099999988
 31
0.0
  0
LINE
  5
4CE
  8
0
 62
     6
 10
356.97607499999992
 20
371.94070099999988
 30
0.0
 11
251.97601099999989
 21
371.94070099999988
 31
0.0
  0
LINE
  5
4CF
  8
0
 62
     6
 10
349.726091
 20
353.44065499999988
 30
0.0
 11
349.726091
 21
345.94067000000001
 31
0.0
  0
LINE
  5
4D0
  8
0
 62
     6
 10
329.22609099999988
 20
353.44065499999988
 30
0.0
 11
329.22609099999988
 21
345.94067000000001
 31
0.0
  0
LINE
  5
4D1
  8
0
 62
     6
 10
349.726091
 20
353.44065499999988
 30
0.0
 11
340.51551899999993
 21
353.44065499999988
 31
0.0
  0
LINE
  5
4D2
  8
0
 62
     6
 10
338.43664699999988
 20
353.44065499999988
 30
0.0
 11
329.22609099999988
 21
353.44065499999988
 31
0.0
  0
LINE
  5
4D3
  8
0
 62
     6
 10
314.72608300000002
 20
353.44065499999988
 30
0.0
 11
314.72608300000002
 21
345.94067000000001
 31
0.0
  0
LINE
  5
4D4
  8
0
 62
     6
 10
294.22608300000002
 20
353.44065499999988
 30
0.0
 11
294.22608300000002
 21
345.94067000000001
 31
0.0
  0
LINE
  5
4D5
  8
0
 62
     6
 10
314.72608300000002
 20
353.44065499999988
 30
0.0
 11
305.51552700000002
 21
353.44065499999988
 31
0.0
  0
LINE
  5
4D6
  8
0
 62
     6
 10
303.43664699999999
 20
353.44065499999988
 30
0.0
 11
294.22608300000002
 21
353.44065499999988
 31
0.0
  0
LINE
  5
4D7
  8
0
 62
     6
 10
279.72608300000002
 20
353.44065499999988
 30
0.0
 11
279.72608300000002
 21
345.94067000000001
 31
0.0
  0
LINE
  5
4D8
  8
0
 62
     6
 10
259.22608300000002
 20
353.44065499999988
 30
0.0
 11
259.22608300000002
 21
345.94067000000001
 31
0.0
  0
LINE
  5
4D9
  8
0
 62
     6
 10
279.72608300000002
 20
353.44065499999988
 30
0.0
 11
270.515535
 21
353.44065499999988
 31
0.0
  0
LINE
  5
4DA
  8
0
 62
     6
 10
268.43665399999992
 20
353.44065499999988
 30
0.0
 11
259.22608300000002
 21
353.44065499999988
 31
0.0
  0
LINE
  5
4DB
  8
0
 62
     6
 10
257.47610600000002
 20
384.44070099999988
 30
0.0
 11
252.976011
 21
384.44070099999988
 31
0.0
  0
LINE
  5
4DC
  8
0
 62
     6
 10
327.47610600000002
 20
384.44070099999988
 30
0.0
 11
322.97601400000002
 21
384.44070099999988
 31
0.0
  0
LINE
  5
4DD
  8
0
 62
     6
 10
319.47601400000002
 20
378.44070099999988
 30
0.0
 11
319.47601400000002
 21
371.94068499999997
 31
0.0
  0
LINE
  5
4DE
  8
0
 62
     6
 10
323.37384199999991
 20
382.44070099999988
 30
0.0
 11
322.97601400000002
 21
382.44070099999988
 31
0.0
  0
LINE
  5
4DF
  8
0
 62
     6
 10
257.47608300000002
 20
353.44065499999988
 30
0.0
 11
257.47608300000002
 21
345.94067000000001
 31
0.0
  0
LINE
  5
4E0
  8
0
 62
     6
 10
281.47608300000002
 20
353.44065499999988
 30
0.0
 11
281.47608300000002
 21
345.94067000000001
 31
0.0
  0
LINE
  5
4E1
  8
0
 62
     6
 10
259.22608300000002
 20
353.44065499999988
 30
0.0
 11
257.47608300000002
 21
353.44065499999988
 31
0.0
  0
LINE
  5
4E2
  8
0
 62
     6
 10
281.47608300000002
 20
353.44065499999988
 30
0.0
 11
279.72608300000002
 21
353.44065499999988
 31
0.0
  0
LINE
  5
4E3
  8
0
 62
     6
 10
257.47608300000002
 20
368.94065499999999
 30
0.0
 11
257.47608300000002
 21
353.44065499999988
 31
0.0
  0
LINE
  5
4E4
  8
0
 62
     6
 10
259.22608300000002
 20
368.94065499999999
 30
0.0
 11
259.22608300000002
 21
353.44065499999988
 31
0.0
  0
LINE
  5
4E5
  8
0
 62
     6
 10
281.47608300000002
 20
359.94065499999988
 30
0.0
 11
281.47608300000002
 21
353.44065499999988
 31
0.0
  0
LINE
  5
4E6
  8
0
 62
     6
 10
279.72608300000002
 20
359.94065499999988
 30
0.0
 11
279.72608300000002
 21
353.44065499999988
 31
0.0
  0
LINE
  5
4E7
  8
0
 62
     6
 10
292.47608300000002
 20
353.44065499999988
 30
0.0
 11
292.47608300000002
 21
345.94067000000001
 31
0.0
  0
LINE
  5
4E8
  8
0
 62
     6
 10
316.47608300000002
 20
353.44065499999988
 30
0.0
 11
316.47608300000002
 21
345.94067000000001
 31
0.0
  0
LINE
  5
4E9
  8
0
 62
     6
 10
294.22608300000002
 20
353.44065499999988
 30
0.0
 11
292.47608300000002
 21
353.44065499999988
 31
0.0
  0
LINE
  5
4EA
  8
0
 62
     6
 10
316.47608300000002
 20
353.44065499999988
 30
0.0
 11
314.72608300000002
 21
353.44065499999988
 31
0.0
  0
LINE
  5
4EB
  8
0
 62
     6
 10
292.47608300000002
 20
359.94065499999988
 30
0.0
 11
292.47608300000002
 21
353.44065499999988
 31
0.0
  0
LINE
  5
4EC
  8
0
 62
     6
 10
294.22608300000002
 20
359.94065499999988
 30
0.0
 11
294.22608300000002
 21
353.44065499999988
 31
0.0
  0
LINE
  5
4ED
  8
0
 62
     6
 10
316.47608300000002
 20
359.94065499999988
 30
0.0
 11
316.47608300000002
 21
353.44065499999988
 31
0.0
  0
LINE
  5
4EE
  8
0
 62
     6
 10
314.72608300000002
 20
359.94065499999988
 30
0.0
 11
314.72608300000002
 21
353.44065499999988
 31
0.0
  0
LINE
  5
4EF
  8
0
 62
     6
 10
327.47609099999988
 20
353.44065499999988
 30
0.0
 11
327.47609099999988
 21
345.94067000000001
 31
0.0
  0
LINE
  5
4F0
  8
0
 62
     6
 10
351.476091
 20
353.44065499999988
 30
0.0
 11
351.476091
 21
345.94067000000001
 31
0.0
  0
LINE
  5
4F1
  8
0
 62
     6
 10
329.22609099999988
 20
353.44065499999988
 30
0.0
 11
327.47609099999988
 21
353.44065499999988
 31
0.0
  0
LINE
  5
4F2
  8
0
 62
     6
 10
351.476091
 20
353.44065499999988
 30
0.0
 11
349.726091
 21
353.44065499999988
 31
0.0
  0
LINE
  5
4F3
  8
0
 62
     6
 10
327.47609099999988
 20
359.94065499999988
 30
0.0
 11
327.47609099999988
 21
353.44065499999988
 31
0.0
  0
LINE
  5
4F4
  8
0
 62
     6
 10
329.22609099999988
 20
359.94065499999988
 30
0.0
 11
329.22609099999988
 21
353.44065499999988
 31
0.0
  0
LINE
  5
4F5
  8
0
 62
     6
 10
351.476091
 20
368.94065499999999
 30
0.0
 11
351.476091
 21
353.44065499999988
 31
0.0
  0
LINE
  5
4F6
  8
0
 62
     6
 10
349.726091
 20
368.94065499999999
 30
0.0
 11
349.726091
 21
353.44065499999988
 31
0.0
  0
LINE
  5
4F7
  8
0
 62
     6
 10
271.47608300000002
 20
355.94065499999988
 30
0.0
 11
271.47608300000002
 21
353.44065499999988
 31
0.0
  0
LINE
  5
4F8
  8
0
 62
     6
 10
267.47608300000002
 20
355.94065499999988
 30
0.0
 11
267.47608300000002
 21
353.44065499999988
 31
0.0
  0
LINE
  5
4F9
  8
0
 62
     6
 10
271.47608300000002
 20
355.94065499999988
 30
0.0
 11
267.47608300000002
 21
355.94065499999988
 31
0.0
  0
LINE
  5
4FA
  8
0
 62
     6
 10
306.47608300000002
 20
355.94065499999988
 30
0.0
 11
306.47608300000002
 21
353.44065499999988
 31
0.0
  0
LINE
  5
4FB
  8
0
 62
     6
 10
302.47608300000002
 20
355.94065499999988
 30
0.0
 11
302.47608300000002
 21
353.44065499999988
 31
0.0
  0
LINE
  5
4FC
  8
0
 62
     6
 10
306.47608300000002
 20
355.94065499999988
 30
0.0
 11
302.47608300000002
 21
355.94065499999988
 31
0.0
  0
LINE
  5
4FD
  8
0
 62
     6
 10
341.476091
 20
355.94065499999988
 30
0.0
 11
341.476091
 21
353.44065499999988
 31
0.0
  0
LINE
  5
4FE
  8
0
 62
     6
 10
337.476091
 20
355.94065499999988
 30
0.0
 11
337.476091
 21
353.44065499999988
 31
0.0
  0
LINE
  5
4FF
  8
0
 62
     6
 10
341.476091
 20
355.94065499999988
 30
0.0
 11
337.476091
 21
355.94065499999988
 31
0.0
  0
LINE
  5
500
  8
0
 62
     6
 10
279.72608300000002
 20
334.94065499999988
 30
0.0
 11
275.09410999999989
 21
334.94065499999988
 31
0.0
  0
LINE
  5
501
  8
0
 62
     6
 10
263.85809399999999
 20
334.94065499999988
 30
0.0
 11
259.22608300000002
 21
334.94065499999988
 31
0.0
  0
LINE
  5
502
  8
0
 62
     6
 10
314.72608300000002
 20
334.94065499999988
 30
0.0
 11
310.09409499999998
 21
334.94065499999988
 31
0.0
  0
LINE
  5
503
  8
0
 62
     6
 10
298.85807899999998
 20
334.94065499999988
 30
0.0
 11
294.22608300000002
 21
334.94065499999988
 31
0.0
  0
LINE
  5
504
  8
0
 62
     6
 10
349.726091
 20
334.94065499999988
 30
0.0
 11
345.094087
 21
334.94065499999988
 31
0.0
  0
LINE
  5
505
  8
0
 62
     6
 10
333.8580639999999
 20
334.94065499999988
 30
0.0
 11
329.22609099999988
 21
334.94065499999988
 31
0.0
  0
LINE
  5
506
  8
0
 62
     9
 10
281.47610600000002
 20
398.94071600000001
 30
0.0
 11
257.47610600000002
 21
398.94071600000001
 31
0.0
  0
LINE
  5
507
  8
0
 62
     9
 10
351.47610600000002
 20
398.94071600000001
 30
0.0
 11
327.47610600000002
 21
398.94071600000001
 31
0.0
  0
LINE
  5
508
  8
0
 62
     9
 10
315.476091
 20
398.94067000000001
 30
0.0
 11
293.47609099999988
 21
398.94067000000001
 31
0.0
  0
LINE
  5
509
  8
0
 62
     7
 10
280.47610600000002
 20
412.74067300000002
 30
0.0
 11
278.97610600000002
 21
412.74067300000002
 31
0.0
  0
LINE
  5
50A
  8
0
 62
     7
 10
278.83291000000003
 20
412.74067300000002
 30
0.0
 11
260.11927900000001
 21
412.74067300000002
 31
0.0
  0
LINE
  5
50B
  8
0
 62
     7
 10
259.97610600000002
 20
412.74067300000002
 30
0.0
 11
258.47610600000002
 21
412.74067300000002
 31
0.0
  0
LINE
  5
50C
  8
0
 62
     7
 10
280.47610600000002
 20
415.24067300000002
 30
0.0
 11
258.47610600000002
 21
415.24067300000002
 31
0.0
  0
LINE
  5
50D
  8
0
 62
     7
 10
280.47610600000002
 20
421.24067300000002
 30
0.0
 11
258.47610600000002
 21
421.24067300000002
 31
0.0
  0
LINE
  5
50E
  8
0
 62
     7
 10
259.97610600000002
 20
423.74067300000002
 30
0.0
 11
258.47610600000002
 21
423.74067300000002
 31
0.0
  0
LINE
  5
50F
  8
0
 62
     7
 10
278.83291000000003
 20
423.74067300000002
 30
0.0
 11
260.11928699999987
 21
423.74067300000002
 31
0.0
  0
LINE
  5
510
  8
0
 62
     7
 10
280.47610600000002
 20
423.74067300000002
 30
0.0
 11
278.97610600000002
 21
423.74067300000002
 31
0.0
  0
LINE
  5
511
  8
0
 62
     3
 10
259.97610600000002
 20
405.74067300000002
 30
0.0
 11
259.97610600000002
 21
399.74067300000002
 31
0.0
  0
LINE
  5
512
  8
0
 62
     3
 10
278.97610600000002
 20
405.74067300000002
 30
0.0
 11
278.97610600000002
 21
399.74067300000002
 31
0.0
  0
LINE
  5
513
  8
0
 62
     3
 10
278.97610600000002
 20
405.74067300000002
 30
0.0
 11
259.97610600000002
 21
405.74067300000002
 31
0.0
  0
LINE
  5
514
  8
0
 62
     3
 10
278.97610600000002
 20
399.74067300000002
 30
0.0
 11
276.57029799999992
 21
399.74067300000002
 31
0.0
  0
LINE
  5
515
  8
0
 62
     3
 10
271.79051299999992
 20
399.74067300000002
 30
0.0
 11
267.16170599999992
 21
399.74067300000002
 31
0.0
  0
LINE
  5
516
  8
0
 62
     3
 10
262.381913
 20
399.74067300000002
 30
0.0
 11
259.97610600000002
 21
399.74067300000002
 31
0.0
  0
LINE
  5
517
  8
0
 62
     3
 10
259.97610600000002
 20
412.74067300000002
 30
0.0
 11
259.97610600000002
 21
406.74067300000002
 31
0.0
  0
LINE
  5
518
  8
0
 62
     3
 10
278.97610600000002
 20
412.74067300000002
 30
0.0
 11
278.97610600000002
 21
406.74067300000002
 31
0.0
  0
LINE
  5
519
  8
0
 62
     3
 10
260.11928699999987
 20
412.74067300000002
 30
0.0
 11
259.97610600000002
 21
412.74067300000002
 31
0.0
  0
LINE
  5
51A
  8
0
 62
     3
 10
278.97610600000002
 20
412.74067300000002
 30
0.0
 11
278.83291000000003
 21
412.74067300000002
 31
0.0
  0
LINE
  5
51B
  8
0
 62
     3
 10
278.97610600000002
 20
406.74067300000002
 30
0.0
 11
259.97610600000002
 21
406.74067300000002
 31
0.0
  0
LINE
  5
51C
  8
0
 62
     3
 10
259.97610600000002
 20
429.74067300000002
 30
0.0
 11
259.97610600000002
 21
423.74067300000002
 31
0.0
  0
LINE
  5
51D
  8
0
 62
     3
 10
278.97610600000002
 20
429.74067300000002
 30
0.0
 11
278.97610600000002
 21
423.74067300000002
 31
0.0
  0
LINE
  5
51E
  8
0
 62
     3
 10
278.97610600000002
 20
423.74067300000002
 30
0.0
 11
278.83291000000003
 21
423.74067300000002
 31
0.0
  0
LINE
  5
51F
  8
0
 62
     3
 10
260.11928699999987
 20
423.74067300000002
 30
0.0
 11
259.97610600000002
 21
423.74067300000002
 31
0.0
  0
LINE
  5
520
  8
0
 62
     3
 10
278.97610600000002
 20
429.74067300000002
 30
0.0
 11
259.97610600000002
 21
429.74067300000002
 31
0.0
  0
LINE
  5
521
  8
0
 62
     4
 10
340.515535
 20
353.44067000000001
 30
0.0
 11
338.43664699999988
 21
353.44067000000001
 31
0.0
  0
LINE
  5
522
  8
0
 62
     4
 10
349.476091
 20
351.44067000000001
 30
0.0
 11
329.47609099999988
 21
351.44067000000001
 31
0.0
  0
LINE
  5
523
  8
0
 62
     4
 10
270.515535
 20
353.44067000000001
 30
0.0
 11
268.43665399999992
 21
353.44067000000001
 31
0.0
  0
LINE
  5
524
  8
0
 62
     4
 10
279.47609099999988
 20
351.44067000000001
 30
0.0
 11
259.476091
 21
351.44067000000001
 31
0.0
  0
LINE
  5
525
  8
0
 62
     4
 10
305.515535
 20
353.44067000000001
 30
0.0
 11
303.43665399999992
 21
353.44067000000001
 31
0.0
  0
LINE
  5
526
  8
0
 62
     4
 10
314.476091
 20
351.44067000000001
 30
0.0
 11
294.47609099999988
 21
351.44067000000001
 31
0.0
  0
LINE
  5
527
  8
0
 62
     7
 10
259.97610600000002
 20
399.74067300000002
 30
0.0
 11
259.47610600000002
 21
399.74067300000002
 31
0.0
  0
LINE
  5
528
  8
0
 62
     7
 10
267.16170599999992
 20
399.74067300000002
 30
0.0
 11
262.38188300000002
 21
399.74067300000002
 31
0.0
  0
LINE
  5
529
  8
0
 62
     7
 10
276.57028300000002
 20
399.74067300000002
 30
0.0
 11
271.79052899999999
 21
399.74067300000002
 31
0.0
  0
LINE
  5
52A
  8
0
 62
     7
 10
279.47610600000002
 20
399.74067300000002
 30
0.0
 11
278.97610600000002
 21
399.74067300000002
 31
0.0
  0
LINE
  5
52B
  8
0
 62
   211
 10
273.47609099999988
 20
432.4406699999999
 30
0.0
 11
265.47609099999988
 21
432.4406699999999
 31
0.0
  0
LINE
  5
52C
  8
0
 62
     2
 10
321.975999
 20
383.94070099999999
 30
0.0
 11
321.975999
 21
382.44070099999988
 31
0.0
  0
LINE
  5
52D
  8
0
 62
     2
 10
321.975999
 20
382.44070099999988
 30
0.0
 11
316.97608300000002
 21
382.44070099999988
 31
0.0
  0
LINE
  5
52E
  8
0
 62
     2
 10
291.97608300000002
 20
382.44070099999988
 30
0.0
 11
281.97608300000002
 21
382.44070099999988
 31
0.0
  0
LINE
  5
52F
  8
0
 62
     2
 10
292.47609099999988
 20
383.94070099999999
 30
0.0
 11
281.47610600000002
 21
383.94070099999999
 31
0.0
  0
LINE
  5
530
  8
0
 62
     2
 10
322.97601400000002
 20
383.94070099999999
 30
0.0
 11
316.476091
 21
383.94070099999999
 31
0.0
  0
LINE
  5
531
  8
0
 62
     9
 10
293.47609099999988
 20
398.94071600000001
 30
0.0
 11
292.47609099999988
 21
398.94071600000001
 31
0.0
  0
LINE
  5
532
  8
0
 62
     9
 10
316.476091
 20
398.94071600000001
 30
0.0
 11
315.476091
 21
398.94071600000001
 31
0.0
  0
LINE
  5
533
  8
0
 62
     7
 10
315.47607499999992
 20
464.74067300000007
 30
0.0
 11
313.97607499999992
 21
464.74067300000007
 31
0.0
  0
LINE
  5
534
  8
0
 62
     7
 10
313.83288700000003
 20
464.74067300000007
 30
0.0
 11
295.11925599999989
 21
464.74067300000007
 31
0.0
  0
LINE
  5
535
  8
0
 62
     7
 10
294.97607499999992
 20
464.74067300000007
 30
0.0
 11
293.47607499999992
 21
464.74067300000007
 31
0.0
  0
LINE
  5
536
  8
0
 62
     7
 10
315.47607499999992
 20
467.24067300000002
 30
0.0
 11
293.47607499999992
 21
467.24067300000002
 31
0.0
  0
LINE
  5
537
  8
0
 62
     7
 10
315.47607499999992
 20
473.24067300000007
 30
0.0
 11
293.47607499999992
 21
473.24067300000007
 31
0.0
  0
LINE
  5
538
  8
0
 62
     7
 10
294.97607499999992
 20
475.74067300000002
 30
0.0
 11
293.47607499999992
 21
475.74067300000002
 31
0.0
  0
LINE
  5
539
  8
0
 62
     7
 10
313.83288700000003
 20
475.74067300000002
 30
0.0
 11
295.11925599999989
 21
475.74067300000002
 31
0.0
  0
LINE
  5
53A
  8
0
 62
     7
 10
315.47607499999992
 20
475.74067300000002
 30
0.0
 11
313.97607499999992
 21
475.74067300000002
 31
0.0
  0
LINE
  5
53B
  8
0
 62
     3
 10
294.97607499999992
 20
481.74067300000002
 30
0.0
 11
294.97607499999992
 21
475.74067300000002
 31
0.0
  0
LINE
  5
53C
  8
0
 62
     3
 10
313.97607499999992
 20
481.74067300000002
 30
0.0
 11
313.97607499999992
 21
475.74067300000002
 31
0.0
  0
LINE
  5
53D
  8
0
 62
     3
 10
313.97607499999992
 20
475.74067300000002
 30
0.0
 11
313.83287899999999
 21
475.74067300000002
 31
0.0
  0
LINE
  5
53E
  8
0
 62
     3
 10
295.11925599999989
 20
475.74067300000002
 30
0.0
 11
294.97607499999992
 21
475.74067300000002
 31
0.0
  0
LINE
  5
53F
  8
0
 62
     3
 10
313.97607499999992
 20
481.74067300000002
 30
0.0
 11
294.97607499999992
 21
481.74067300000002
 31
0.0
  0
LINE
  5
540
  8
0
 62
     3
 10
294.97607499999992
 20
464.74067300000007
 30
0.0
 11
294.97607499999992
 21
458.74067300000002
 31
0.0
  0
LINE
  5
541
  8
0
 62
     3
 10
313.97607499999992
 20
464.74067300000007
 30
0.0
 11
313.97607499999992
 21
458.74067300000002
 31
0.0
  0
LINE
  5
542
  8
0
 62
     3
 10
295.11925599999989
 20
464.74067300000007
 30
0.0
 11
294.97607499999992
 21
464.74067300000007
 31
0.0
  0
LINE
  5
543
  8
0
 62
     3
 10
313.97607499999992
 20
464.74067300000007
 30
0.0
 11
313.83287899999999
 21
464.74067300000007
 31
0.0
  0
LINE
  5
544
  8
0
 62
     3
 10
313.97607499999992
 20
458.74067300000002
 30
0.0
 11
294.97607499999992
 21
458.74067300000002
 31
0.0
  0
LINE
  5
545
  8
0
 62
     3
 10
294.97607499999992
 20
457.74067300000002
 30
0.0
 11
294.97607499999992
 21
451.74067300000007
 31
0.0
  0
LINE
  5
546
  8
0
 62
     3
 10
313.97607499999992
 20
457.74067300000002
 30
0.0
 11
313.97607499999992
 21
451.74067300000007
 31
0.0
  0
LINE
  5
547
  8
0
 62
     3
 10
313.97607499999992
 20
457.74067300000002
 30
0.0
 11
294.97607499999992
 21
457.74067300000002
 31
0.0
  0
LINE
  5
548
  8
0
 62
     3
 10
313.97607499999992
 20
451.74067300000007
 30
0.0
 11
311.57027599999998
 21
451.74067300000007
 31
0.0
  0
LINE
  5
549
  8
0
 62
     3
 10
306.79047500000001
 20
451.74067300000007
 30
0.0
 11
302.161676
 21
451.74067300000007
 31
0.0
  0
LINE
  5
54A
  8
0
 62
     3
 10
297.38186000000002
 20
451.74067300000007
 30
0.0
 11
294.97607499999992
 21
451.74067300000007
 31
0.0
  0
LINE
  5
54B
  8
0
 62
     7
 10
314.47607499999992
 20
450.94067000000001
 30
0.0
 11
294.47607499999998
 21
450.94067000000001
 31
0.0
  0
LINE
  5
54C
  8
0
 62
     7
 10
294.97607499999992
 20
451.74067300000007
 30
0.0
 11
294.47607499999998
 21
451.74067300000007
 31
0.0
  0
LINE
  5
54D
  8
0
 62
     7
 10
302.161676
 20
451.74067300000007
 30
0.0
 11
297.38185199999998
 21
451.74067300000007
 31
0.0
  0
LINE
  5
54E
  8
0
 62
     7
 10
311.570268
 20
451.74067300000007
 30
0.0
 11
306.79047500000001
 21
451.74067300000007
 31
0.0
  0
LINE
  5
54F
  8
0
 62
     7
 10
314.47607499999992
 20
451.74067300000007
 30
0.0
 11
313.97607499999992
 21
451.74067300000007
 31
0.0
  0
LINE
  5
550
  8
0
 62
   211
 10
308.47607499999998
 20
484.44067000000001
 30
0.0
 11
300.47607499999992
 21
484.44067000000001
 31
0.0
  0
LINE
  5
551
  8
0
 62
     6
 10
256.97608300000002
 20
382.94070099999999
 30
0.0
 11
256.97608300000002
 21
371.94070099999988
 31
0.0
  0
LINE
  5
552
  8
0
 62
     6
 10
281.97608300000002
 20
378.44070099999988
 30
0.0
 11
281.97608300000002
 21
371.94070099999988
 31
0.0
  0
LINE
  5
553
  8
0
 62
     6
 10
291.97608300000002
 20
378.44070099999988
 30
0.0
 11
291.97608300000002
 21
371.94070099999988
 31
0.0
  0
LINE
  5
554
  8
0
 62
     6
 10
316.97608300000002
 20
378.44070099999988
 30
0.0
 11
316.97608300000002
 21
371.94070099999988
 31
0.0
  0
LINE
  5
555
  8
0
 62
     6
 10
326.976091
 20
382.94070099999999
 30
0.0
 11
326.976091
 21
371.94070099999988
 31
0.0
  0
LINE
  5
556
  8
0
 62
     6
 10
351.976091
 20
378.44070099999988
 30
0.0
 11
351.976091
 21
371.94070099999988
 31
0.0
  0
LINE
  5
557
  8
0
 62
     6
 10
353.47601400000002
 20
371.94070099999988
 30
0.0
 11
353.47601400000002
 21
334.94065499999988
 31
0.0
  0
LINE
  5
558
  8
0
 62
     6
 10
255.47601399999999
 20
371.94070099999988
 30
0.0
 11
255.47601399999999
 21
334.94065499999988
 31
0.0
  0
LINE
  5
559
  8
0
 62
     6
 10
252.976011
 20
378.44070099999988
 30
0.0
 11
252.976011
 21
371.94070099999988
 31
0.0
  0
LINE
  5
55A
  8
0
 62
     6
 10
322.97601400000002
 20
384.44070099999988
 30
0.0
 11
322.97601400000002
 21
382.44070099999988
 31
0.0
  0
LINE
  5
55B
  8
0
 62
     6
 10
323.37384199999991
 20
382.44070099999988
 30
0.0
 11
323.37384199999991
 21
371.94068499999997
 31
0.0
  0
LINE
  5
55C
  8
0
 62
     6
 10
259.22608300000002
 20
368.94065499999999
 30
0.0
 11
257.47608300000002
 21
368.94065499999999
 31
0.0
  0
LINE
  5
55D
  8
0
 62
     6
 10
281.47608300000002
 20
359.94065499999988
 30
0.0
 11
279.72608300000002
 21
359.94065499999988
 31
0.0
  0
LINE
  5
55E
  8
0
 62
     6
 10
294.22608300000002
 20
359.94065499999988
 30
0.0
 11
292.47608300000002
 21
359.94065499999988
 31
0.0
  0
LINE
  5
55F
  8
0
 62
     6
 10
316.47608300000002
 20
359.94065499999988
 30
0.0
 11
314.72608300000002
 21
359.94065499999988
 31
0.0
  0
LINE
  5
560
  8
0
 62
     6
 10
329.22609099999988
 20
359.94065499999988
 30
0.0
 11
327.47609099999988
 21
359.94065499999988
 31
0.0
  0
LINE
  5
561
  8
0
 62
     6
 10
351.476091
 20
368.94065499999999
 30
0.0
 11
349.726091
 21
368.94065499999999
 31
0.0
  0
LINE
  5
562
  8
0
 62
     9
 10
281.47610600000002
 20
398.94071600000001
 30
0.0
 11
281.47610600000002
 21
382.94071600000001
 31
0.0
  0
LINE
  5
563
  8
0
 62
     9
 10
257.47610600000002
 20
398.94071600000001
 30
0.0
 11
257.47610600000002
 21
382.94071600000001
 31
0.0
  0
LINE
  5
564
  8
0
 62
     9
 10
351.47610600000002
 20
398.94071600000001
 30
0.0
 11
351.47610600000002
 21
382.94071600000001
 31
0.0
  0
LINE
  5
565
  8
0
 62
     9
 10
327.47610600000002
 20
398.94071600000001
 30
0.0
 11
327.47610600000002
 21
382.94071600000001
 31
0.0
  0
LINE
  5
566
  8
0
 62
     9
 10
316.476091
 20
397.94067000000001
 30
0.0
 11
316.476091
 21
382.94067000000001
 31
0.0
  0
LINE
  5
567
  8
0
 62
     9
 10
292.47609099999988
 20
397.94067000000001
 30
0.0
 11
292.47609099999988
 21
382.94067000000001
 31
0.0
  0
LINE
  5
568
  8
0
 62
     9
 10
316.476091
 20
397.94066600000002
 30
0.0
 11
315.476091
 21
398.94066600000002
 31
0.0
  0
LINE
  5
569
  8
0
 62
     9
 10
293.47608300000002
 20
398.94066400000003
 30
0.0
 11
292.47608300000002
 21
397.94066400000003
 31
0.0
  0
LINE
  5
56A
  8
0
 62
     7
 10
258.47610600000002
 20
415.24067300000002
 30
0.0
 11
258.47610600000002
 21
412.74067300000002
 31
0.0
  0
LINE
  5
56B
  8
0
 62
     7
 10
280.47610600000002
 20
415.24067300000002
 30
0.0
 11
280.47610600000002
 21
412.74067300000002
 31
0.0
  0
LINE
  5
56C
  8
0
 62
     7
 10
258.47610600000002
 20
423.74067300000002
 30
0.0
 11
258.47610600000002
 21
421.24067300000002
 31
0.0
  0
LINE
  5
56D
  8
0
 62
     7
 10
280.47610600000002
 20
423.74067300000002
 30
0.0
 11
280.47610600000002
 21
421.24067300000002
 31
0.0
  0
LINE
  5
56E
  8
0
 62
     3
 10
304.47610600000002
 20
405.74067300000002
 30
0.0
 11
304.47610600000002
 21
399.74067300000002
 31
0.0
  0
LINE
  5
56F
  8
0
 62
     3
 10
304.47610600000002
 20
412.74067300000002
 30
0.0
 11
304.47610600000002
 21
406.74067300000002
 31
0.0
  0
LINE
  5
570
  8
0
 62
     3
 10
304.47610600000002
 20
429.74067300000002
 30
0.0
 11
304.47610600000002
 21
423.74067300000002
 31
0.0
  0
LINE
  5
571
  8
0
 62
     4
 10
349.476091
 20
353.44067000000001
 30
0.0
 11
349.476091
 21
351.44067000000001
 31
0.0
  0
LINE
  5
572
  8
0
 62
     4
 10
329.47609099999988
 20
353.44067000000001
 30
0.0
 11
329.47609099999988
 21
351.44067000000001
 31
0.0
  0
LINE
  5
573
  8
0
 62
     4
 10
259.476091
 20
353.44067000000001
 30
0.0
 11
259.476091
 21
351.44067000000001
 31
0.0
  0
LINE
  5
574
  8
0
 62
     4
 10
279.47609099999988
 20
353.44067000000001
 30
0.0
 11
279.47609099999988
 21
351.44067000000001
 31
0.0
  0
LINE
  5
575
  8
0
 62
     4
 10
294.47609099999988
 20
353.44067000000001
 30
0.0
 11
294.47609099999988
 21
351.44067000000001
 31
0.0
  0
LINE
  5
576
  8
0
 62
     4
 10
314.476091
 20
353.44067000000001
 30
0.0
 11
314.476091
 21
351.44067000000001
 31
0.0
  0
LINE
  5
577
  8
0
 62
     7
 10
259.47610600000002
 20
399.74067300000002
 30
0.0
 11
259.47610600000002
 21
398.94067000000001
 31
0.0
  0
LINE
  5
578
  8
0
 62
     7
 10
279.47610600000002
 20
399.74067300000002
 30
0.0
 11
279.47610600000002
 21
398.94067000000001
 31
0.0
  0
LINE
  5
579
  8
0
 62
   211
 10
275.47609099999988
 20
430.44066600000002
 30
0.0
 11
273.47609099999988
 21
432.44066600000002
 31
0.0
  0
LINE
  5
57A
  8
0
 62
   211
 10
265.47608300000002
 20
432.44066399999991
 30
0.0
 11
263.47608300000002
 21
430.44066399999991
 31
0.0
  0
LINE
  5
57B
  8
0
 62
   211
 10
271.33018599999991
 20
430.44067000000001
 30
0.0
 11
269.47609099999988
 21
430.44067000000001
 31
0.0
  0
LINE
  5
57C
  8
0
 62
   211
 10
273.00280099999992
 20
430.44067000000001
 30
0.0
 11
271.33018599999991
 21
430.44067000000001
 31
0.0
  0
LINE
  5
57D
  8
0
 62
   211
 10
274.33018599999991
 20
430.44067000000001
 30
0.0
 11
273.00280099999992
 21
430.44067000000001
 31
0.0
  0
LINE
  5
57E
  8
0
 62
   211
 10
275.1824279999999
 20
430.44067000000001
 30
0.0
 11
274.33018599999991
 21
430.44067000000001
 31
0.0
  0
LINE
  5
57F
  8
0
 62
   211
 10
310.47609099999988
 20
430.44067000000001
 30
0.0
 11
310.1824279999999
 21
430.44067000000001
 31
0.0
  0
LINE
  5
580
  8
0
 62
   211
 10
275.47609099999988
 20
430.44067000000001
 30
0.0
 11
275.47609099999988
 21
429.74067300000002
 31
0.0
  0
LINE
  5
581
  8
0
 62
   211
 10
275.47609099999988
 20
421.24067300000002
 30
0.0
 11
275.47609099999988
 21
415.24067300000002
 31
0.0
  0
LINE
  5
582
  8
0
 62
   211
 10
275.47609099999988
 20
406.74067300000002
 30
0.0
 11
275.47609099999988
 21
405.74067300000002
 31
0.0
  0
LINE
  5
583
  8
0
 62
   211
 10
263.476091
 20
430.44067000000001
 30
0.0
 11
263.476091
 21
429.74067300000002
 31
0.0
  0
LINE
  5
584
  8
0
 62
   211
 10
263.476091
 20
421.24067300000002
 30
0.0
 11
263.476091
 21
415.24067300000002
 31
0.0
  0
LINE
  5
585
  8
0
 62
   211
 10
263.476091
 20
406.74067300000002
 30
0.0
 11
263.476091
 21
405.74067300000002
 31
0.0
  0
LINE
  5
586
  8
0
 62
   211
 10
263.769746
 20
430.44067000000001
 30
0.0
 11
263.476091
 21
430.44067000000001
 31
0.0
  0
LINE
  5
587
  8
0
 62
   211
 10
264.62198799999987
 20
430.44067000000001
 30
0.0
 11
263.769746
 21
430.44067000000001
 31
0.0
  0
LINE
  5
588
  8
0
 62
   211
 10
265.94937299999992
 20
430.44067000000001
 30
0.0
 11
264.62198799999987
 21
430.44067000000001
 31
0.0
  0
LINE
  5
589
  8
0
 62
   211
 10
267.62198799999999
 20
430.44067000000001
 30
0.0
 11
265.94937299999992
 21
430.44067000000001
 31
0.0
  0
LINE
  5
58A
  8
0
 62
   211
 10
269.47609099999988
 20
430.44067000000001
 30
0.0
 11
267.62198799999999
 21
430.44067000000001
 31
0.0
  0
LINE
  5
58B
  8
0
 62
     9
 10
316.476091
 20
398.94071600000001
 30
0.0
 11
316.476091
 21
397.94067000000001
 31
0.0
  0
LINE
  5
58C
  8
0
 62
     9
 10
292.47609099999988
 20
398.94071600000001
 30
0.0
 11
292.47609099999988
 21
397.94067000000001
 31
0.0
  0
LINE
  5
58D
  8
0
 62
     9
 10
314.476091
 20
449.94071600000001
 30
0.0
 11
314.476091
 21
398.94067000000001
 31
0.0
  0
LINE
  5
58E
  8
0
 62
     9
 10
294.47609099999988
 20
449.94071600000001
 30
0.0
 11
294.47609099999988
 21
398.94067000000001
 31
0.0
  0
LINE
  5
58F
  8
0
 62
     9
 10
314.476091
 20
449.94072
 30
0.0
 11
314.18319100000002
 21
450.64782699999989
 31
0.0
  0
LINE
  5
590
  8
0
 62
     9
 10
314.18319100000002
 20
450.64782000000002
 30
0.0
 11
313.476091
 21
450.94071200000002
 31
0.0
  0
LINE
  5
591
  8
0
 62
     9
 10
294.76898299999988
 20
450.647829
 30
0.0
 11
294.47609099999988
 21
449.94072199999999
 31
0.0
  0
LINE
  5
592
  8
0
 62
     9
 10
295.476091
 20
450.94072
 30
0.0
 11
294.76898299999988
 21
450.64782699999989
 31
0.0
  0
LINE
  5
593
  8
0
 62
     7
 10
293.47607499999992
 20
467.24067300000002
 30
0.0
 11
293.47607499999992
 21
464.74067300000007
 31
0.0
  0
LINE
  5
594
  8
0
 62
     7
 10
315.47607499999992
 20
467.24067300000002
 30
0.0
 11
315.47607499999992
 21
464.74067300000007
 31
0.0
  0
LINE
  5
595
  8
0
 62
     7
 10
293.47607499999992
 20
475.74067300000002
 30
0.0
 11
293.47607499999992
 21
473.24067300000007
 31
0.0
  0
LINE
  5
596
  8
0
 62
     7
 10
315.47607499999992
 20
475.74067300000002
 30
0.0
 11
315.47607499999992
 21
473.24067300000007
 31
0.0
  0
LINE
  5
597
  8
0
 62
     3
 10
304.47607499999998
 20
481.74067300000002
 30
0.0
 11
304.47607499999998
 21
475.74067300000002
 31
0.0
  0
LINE
  5
598
  8
0
 62
     3
 10
304.47607499999998
 20
464.74067300000007
 30
0.0
 11
304.47607499999998
 21
458.74067300000002
 31
0.0
  0
LINE
  5
599
  8
0
  6
DASHDOT
 62
     7
 10
304.47607499999998
 20
492.92307699999998
 30
0.0
 11
304.47607499999998
 21
324.92602900000003
 31
0.0
  0
LINE
  5
59A
  8
0
 62
     7
 10
294.47607499999998
 20
451.74067300000007
 30
0.0
 11
294.47607499999998
 21
450.94067000000001
 31
0.0
  0
LINE
  5
59B
  8
0
 62
     7
 10
314.47607499999992
 20
451.74067300000007
 30
0.0
 11
314.47607499999992
 21
450.94067000000001
 31
0.0
  0
LINE
  5
59C
  8
0
 62
   211
 10
300.47606799999988
 20
484.44066199999992
 30
0.0
 11
298.47606799999988
 21
482.44066199999997
 31
0.0
  0
LINE
  5
59D
  8
0
 62
   211
 10
310.47607499999998
 20
482.44066600000002
 30
0.0
 11
308.47607499999998
 21
484.44066600000002
 31
0.0
  0
LINE
  5
59E
  8
0
 62
   211
 10
298.76973099999992
 20
482.4406699999999
 30
0.0
 11
298.47607499999992
 21
482.4406699999999
 31
0.0
  0
LINE
  5
59F
  8
0
 62
   211
 10
298.47607499999992
 20
482.4406699999999
 30
0.0
 11
298.47607499999992
 21
481.74067300000002
 31
0.0
  0
LINE
  5
5A0
  8
0
 62
   211
 10
298.47607499999992
 20
473.24067300000007
 30
0.0
 11
298.47607499999992
 21
467.24067300000002
 31
0.0
  0
LINE
  5
5A1
  8
0
 62
   211
 10
298.47607499999992
 20
458.74067300000002
 30
0.0
 11
298.47607499999992
 21
457.74067300000002
 31
0.0
  0
LINE
  5
5A2
  8
0
 62
   211
 10
299.62197200000003
 20
482.4406699999999
 30
0.0
 11
298.76973099999992
 21
482.4406699999999
 31
0.0
  0
LINE
  5
5A3
  8
0
 62
   211
 10
300.94935699999991
 20
482.4406699999999
 30
0.0
 11
299.62197200000003
 21
482.4406699999999
 31
0.0
  0
LINE
  5
5A4
  8
0
 62
   211
 10
302.62197200000003
 20
482.4406699999999
 30
0.0
 11
300.94935699999991
 21
482.4406699999999
 31
0.0
  0
LINE
  5
5A5
  8
0
 62
   211
 10
304.47607499999998
 20
482.4406699999999
 30
0.0
 11
302.62197200000003
 21
482.4406699999999
 31
0.0
  0
LINE
  5
5A6
  8
0
 62
   211
 10
306.33017100000001
 20
482.4406699999999
 30
0.0
 11
304.47607499999998
 21
482.4406699999999
 31
0.0
  0
LINE
  5
5A7
  8
0
 62
   211
 10
308.00278600000001
 20
482.4406699999999
 30
0.0
 11
306.33017100000001
 21
482.4406699999999
 31
0.0
  0
LINE
  5
5A8
  8
0
 62
   211
 10
309.33017099999989
 20
482.4406699999999
 30
0.0
 11
308.00278600000001
 21
482.4406699999999
 31
0.0
  0
LINE
  5
5A9
  8
0
 62
   211
 10
310.18241199999989
 20
482.4406699999999
 30
0.0
 11
309.33017099999989
 21
482.4406699999999
 31
0.0
  0
LINE
  5
5AA
  8
0
 62
   211
 10
310.47607499999998
 20
482.4406699999999
 30
0.0
 11
310.18241199999989
 21
482.4406699999999
 31
0.0
  0
LINE
  5
5AB
  8
0
 62
   211
 10
310.47607499999998
 20
482.4406699999999
 30
0.0
 11
310.47607499999998
 21
481.74067300000002
 31
0.0
  0
LINE
  5
5AC
  8
0
 62
   211
 10
310.47607499999998
 20
473.24067300000007
 30
0.0
 11
310.47607499999998
 21
467.24067300000002
 31
0.0
  0
LINE
  5
5AD
  8
0
 62
   211
 10
310.47607499999998
 20
458.74067300000002
 30
0.0
 11
310.47607499999998
 21
457.74067300000002
 31
0.0
  0
POLYLINE
  5
5AE
  8
0
 62
     3
 66
     1
 10
0.0
 20
0.0
 30
0.0
  0
VERTEX
  5
B64
  8
0
 62
     3
 10
392.695604
 20
332.94065499999988
 30
0.0
  0
VERTEX
  5
B65
  8
0
 62
     3
 10
376.695604
 20
332.94065499999988
 30
0.0
  0
VERTEX
  5
B66
  8
0
 62
     3
 10
375.69560399999989
 20
330.94065499999988
 30
0.0
  0
VERTEX
  5
B67
  8
0
 62
     3
 10
374.695604
 20
334.94065499999988
 30
0.0
  0
VERTEX
  5
B68
  8
0
 62
     3
 10
373.69560399999989
 20
332.94065499999988
 30
0.0
  0
VERTEX
  5
B69
  8
0
 62
     3
 10
357.695604
 20
332.94065499999988
 30
0.0
  0
VERTEX
  5
B6A
  8
0
 62
     3
 10
356.69560399999989
 20
330.94065499999988
 30
0.0
  0
VERTEX
  5
B6B
  8
0
 62
     3
 10
355.695604
 20
334.94065499999988
 30
0.0
  0
VERTEX
  5
B6C
  8
0
 62
     3
 10
354.69560399999989
 20
332.94065499999988
 30
0.0
  0
VERTEX
  5
B6D
  8
0
 62
     3
 10
338.695604
 20
332.94065499999988
 30
0.0
  0
VERTEX
  5
B6E
  8
0
 62
     3
 10
337.695604
 20
330.94065499999988
 30
0.0
  0
VERTEX
  5
B6F
  8
0
 62
     3
 10
336.695604
 20
334.94065499999988
 30
0.0
  0
VERTEX
  5
B70
  8
0
 62
     3
 10
335.695604
 20
332.94065499999988
 30
0.0
  0
VERTEX
  5
B71
  8
0
 62
     3
 10
319.69560399999989
 20
332.94065499999988
 30
0.0
  0
VERTEX
  5
B72
  8
0
 62
     3
 10
318.695604
 20
330.94065499999988
 30
0.0
  0
VERTEX
  5
B73
  8
0
 62
     3
 10
317.695604
 20
334.94065499999988
 30
0.0
  0
VERTEX
  5
B74
  8
0
 62
     3
 10
316.695604
 20
332.94065499999988
 30
0.0
  0
VERTEX
  5
B75
  8
0
 62
     3
 10
300.69560399999989
 20
332.94065499999988
 30
0.0
  0
VERTEX
  5
B76
  8
0
 62
     3
 10
299.695604
 20
330.94065499999988
 30
0.0
  0
VERTEX
  5
B77
  8
0
 62
     3
 10
298.69560399999989
 20
334.94065499999988
 30
0.0
  0
VERTEX
  5
B78
  8
0
 62
     3
 10
297.695604
 20
332.94065499999988
 30
0.0
  0
VERTEX
  5
B79
  8
0
 62
     3
 10
281.69560399999989
 20
332.94065499999988
 30
0.0
  0
VERTEX
  5
B7A
  8
0
 62
     3
 10
280.695604
 20
330.94065499999988
 30
0.0
  0
VERTEX
  5
B7B
  8
0
 62
     3
 10
279.69560399999989
 20
334.94065499999988
 30
0.0
  0
VERTEX
  5
B7C
  8
0
 62
     3
 10
278.695604
 20
332.94065499999988
 30
0.0
  0
VERTEX
  5
B7D
  8
0
 62
     3
 10
262.695604
 20
332.94065499999988
 30
0.0
  0
VERTEX
  5
B7E
  8
0
 62
     3
 10
261.695604
 20
330.94065499999988
 30
0.0
  0
VERTEX
  5
B7F
  8
0
 62
     3
 10
260.695604
 20
334.94065499999988
 30
0.0
  0
VERTEX
  5
B80
  8
0
 62
     3
 10
259.695604
 20
332.94065499999988
 30
0.0
  0
VERTEX
  5
B81
  8
0
 62
     3
 10
245.44417699999991
 20
332.94065499999988
 30
0.0
  0
SEQEND
  5
B82
  8
0
 62
     3
  0
LINE
  5
5CE
  8
0
 62
     6
 10
291.97608300000002
 20
382.94070099999999
 30
0.0
 11
291.97608300000002
 21
378.44070099999988
 31
0.0
  0
LINE
  5
5CF
  8
0
 62
     6
 10
281.97608300000002
 20
382.94070099999999
 30
0.0
 11
281.97608300000002
 21
378.44070099999988
 31
0.0
  0
LINE
  5
5D0
  8
0
 62
     6
 10
316.97608300000002
 20
382.94070099999999
 30
0.0
 11
316.97608300000002
 21
378.44070099999988
 31
0.0
  0
LINE
  5
5D1
  8
0
 62
     6
 10
319.47601400000002
 20
382.44070099999988
 30
0.0
 11
319.47601400000002
 21
378.44070099999988
 31
0.0
  0
LINE
  5
5D2
  8
0
 62
     6
 10
322.97601400000002
 20
382.44070099999988
 30
0.0
 11
321.975999
 21
382.44070099999988
 31
0.0
  0
LINE
  5
5D3
  8
0
 62
     6
 10
327.47610600000002
 20
382.94070099999999
 30
0.0
 11
326.976091
 21
382.94070099999999
 31
0.0
  0
LINE
  5
5D4
  8
0
 62
     6
 10
351.976091
 20
382.94070099999999
 30
0.0
 11
351.976091
 21
378.44070099999988
 31
0.0
  0
LINE
  5
5D5
  8
0
 62
     6
 10
257.47610600000002
 20
382.94070099999999
 30
0.0
 11
256.97608300000002
 21
382.94070099999999
 31
0.0
  0
LINE
  5
5D6
  8
0
 62
     6
 10
252.976011
 20
384.44070099999988
 30
0.0
 11
252.976011
 21
378.44070099999988
 31
0.0
  0
LINE
  5
5D7
  8
0
  6
DASHDOT
 62
     7
 10
339.47610600000002
 20
494.32855599999988
 30
0.0
 11
339.47610600000002
 21
323.87719299999998
 31
0.0
  0
LINE
  5
5D8
  8
0
  6
DASHDOT
 62
     7
 10
269.47610600000002
 20
494.32855599999988
 30
0.0
 11
269.47610600000002
 21
323.87719299999998
 31
0.0
  0
LINE
  5
5D9
  8
0
 62
   211
 10
309.476091
 20
473.24067300000007
 30
0.0
 11
309.476091
 21
467.24067300000002
 31
0.0
  0
LINE
  5
5DA
  8
0
 62
   211
 10
299.476091
 20
473.24067300000007
 30
0.0
 11
299.476091
 21
467.24067300000002
 31
0.0
  0
LINE
  5
5DB
  8
0
 62
   211
 10
274.476091
 20
421.24067300000002
 30
0.0
 11
274.476091
 21
415.24067300000002
 31
0.0
  0
LINE
  5
5DC
  8
0
 62
   211
 10
264.476091
 20
421.24067300000002
 30
0.0
 11
264.476091
 21
415.24067300000002
 31
0.0
  0
LINE
  5
5DD
  8
0
 62
     2
 10
295.22607499999992
 20
350.9406699999999
 30
0.0
 11
295.22607499999992
 21
345.94067000000001
 31
0.0
  0
LINE
  5
5DE
  8
0
 62
     2
 10
313.72607499999992
 20
350.9406699999999
 30
0.0
 11
313.72607499999992
 21
345.94067000000001
 31
0.0
  0
LINE
  5
5DF
  8
0
 62
     2
 10
313.72607499999992
 20
350.9406699999999
 30
0.0
 11
295.22607499999992
 21
350.9406699999999
 31
0.0
  0
LINE
  5
5E0
  8
0
 62
     2
 10
295.22599899999989
 20
345.94067000000001
 30
0.0
 11
295.22599899999989
 21
335.94067000000001
 31
0.0
  0
LINE
  5
5E1
  8
0
 62
     2
 10
313.72599899999989
 20
345.94067000000001
 30
0.0
 11
313.72599899999989
 21
335.94067000000001
 31
0.0
  0
LINE
  5
5E2
  8
0
 62
     2
 10
295.22609799999992
 20
345.94067000000001
 30
0.0
 11
291.47610600000002
 21
345.94067000000001
 31
0.0
  0
LINE
  5
5E3
  8
0
 62
     2
 10
317.47610600000002
 20
345.94067000000001
 30
0.0
 11
313.72610600000002
 21
345.94067000000001
 31
0.0
  0
LINE
  5
5E4
  8
0
 62
     2
 10
317.47610600000002
 20
334.94067000000001
 30
0.0
 11
314.47610600000002
 21
334.94067000000001
 31
0.0
  0
LINE
  5
5E5
  8
0
 62
     2
 10
313.72608300000002
 20
334.94067000000001
 30
0.0
 11
295.22607499999992
 21
334.94067000000001
 31
0.0
  0
LINE
  5
5E6
  8
0
 62
     2
 10
294.47610600000002
 20
334.94067000000001
 30
0.0
 11
291.47610600000002
 21
334.94067000000001
 31
0.0
  0
LINE
  5
5E7
  8
0
 62
     2
 10
294.47610600000002
 20
335.94067000000001
 30
0.0
 11
294.47610600000002
 21
334.94067000000001
 31
0.0
  0
LINE
  5
5E8
  8
0
 62
     2
 10
314.47610600000002
 20
335.94067000000001
 30
0.0
 11
314.47610600000002
 21
334.94067000000001
 31
0.0
  0
LINE
  5
5E9
  8
0
 62
     2
 10
314.47610600000002
 20
334.94067000000001
 30
0.0
 11
313.72607499999992
 21
334.94067000000001
 31
0.0
  0
LINE
  5
5EA
  8
0
 62
     2
 10
295.22607499999992
 20
334.94067000000001
 30
0.0
 11
294.47610600000002
 21
334.94067000000001
 31
0.0
  0
LINE
  5
5EB
  8
0
 62
     2
 10
314.47610600000002
 20
335.94067000000001
 30
0.0
 11
313.72607499999992
 21
335.94067000000001
 31
0.0
  0
LINE
  5
5EC
  8
0
 62
     2
 10
295.22607499999992
 20
335.94067000000001
 30
0.0
 11
294.47610600000002
 21
335.94067000000001
 31
0.0
  0
LINE
  5
5ED
  8
0
 62
     2
 10
295.22607499999992
 20
342.20862199999999
 30
0.0
 11
294.22612099999992
 21
342.20862199999999
 31
0.0
  0
LINE
  5
5EE
  8
0
 62
     2
 10
295.22609799999992
 20
345.94067000000001
 30
0.0
 11
294.22612099999992
 21
342.20862199999999
 31
0.0
  0
LINE
  5
5EF
  8
0
 62
     2
 10
314.72612900000001
 20
342.20862199999999
 30
0.0
 11
313.72612900000001
 21
342.20862199999999
 31
0.0
  0
LINE
  5
5F0
  8
0
 62
     2
 10
314.72612099999992
 20
342.20861400000001
 30
0.0
 11
313.72609799999992
 21
345.94066199999997
 31
0.0
  0
LINE
  5
5F1
  8
0
 62
     2
 10
330.22607499999992
 20
350.9406699999999
 30
0.0
 11
330.22607499999992
 21
345.94067000000001
 31
0.0
  0
LINE
  5
5F2
  8
0
 62
     2
 10
348.72607499999992
 20
350.9406699999999
 30
0.0
 11
348.72607499999992
 21
345.94067000000001
 31
0.0
  0
LINE
  5
5F3
  8
0
 62
     2
 10
348.72607499999992
 20
350.9406699999999
 30
0.0
 11
330.22607499999992
 21
350.9406699999999
 31
0.0
  0
LINE
  5
5F4
  8
0
 62
     2
 10
330.22607499999992
 20
345.94067000000001
 30
0.0
 11
330.22607499999992
 21
335.94067000000001
 31
0.0
  0
LINE
  5
5F5
  8
0
 62
     2
 10
348.72607499999992
 20
345.94067000000001
 30
0.0
 11
348.72607499999992
 21
335.94067000000001
 31
0.0
  0
LINE
  5
5F6
  8
0
 62
     2
 10
330.22610600000002
 20
345.94067000000001
 30
0.0
 11
326.47610600000002
 21
345.94067000000001
 31
0.0
  0
LINE
  5
5F7
  8
0
 62
     2
 10
352.47610600000002
 20
345.94067000000001
 30
0.0
 11
348.72610600000002
 21
345.94067000000001
 31
0.0
  0
LINE
  5
5F8
  8
0
 62
     2
 10
352.47610600000002
 20
334.94067000000001
 30
0.0
 11
349.47610600000002
 21
334.94067000000001
 31
0.0
  0
LINE
  5
5F9
  8
0
 62
     2
 10
348.72609099999988
 20
334.94067000000001
 30
0.0
 11
330.22607499999992
 21
334.94067000000001
 31
0.0
  0
LINE
  5
5FA
  8
0
 62
     2
 10
329.47610600000002
 20
334.94067000000001
 30
0.0
 11
326.47610600000002
 21
334.94067000000001
 31
0.0
  0
LINE
  5
5FB
  8
0
 62
     2
 10
329.47610600000002
 20
335.94067000000001
 30
0.0
 11
329.47610600000002
 21
334.94067000000001
 31
0.0
  0
LINE
  5
5FC
  8
0
 62
     2
 10
349.47610600000002
 20
335.94067000000001
 30
0.0
 11
349.47610600000002
 21
334.94067000000001
 31
0.0
  0
LINE
  5
5FD
  8
0
 62
     2
 10
349.47610600000002
 20
334.94067000000001
 30
0.0
 11
348.72607499999992
 21
334.94067000000001
 31
0.0
  0
LINE
  5
5FE
  8
0
 62
     2
 10
330.22607499999992
 20
334.94067000000001
 30
0.0
 11
329.47610600000002
 21
334.94067000000001
 31
0.0
  0
LINE
  5
5FF
  8
0
 62
     2
 10
349.47610600000002
 20
335.94067000000001
 30
0.0
 11
348.72607499999992
 21
335.94067000000001
 31
0.0
  0
LINE
  5
600
  8
0
 62
     2
 10
330.22607499999992
 20
335.94067000000001
 30
0.0
 11
329.47610600000002
 21
335.94067000000001
 31
0.0
  0
LINE
  5
601
  8
0
 62
     2
 10
330.22607499999992
 20
342.20862199999999
 30
0.0
 11
329.22612099999992
 21
342.20862199999999
 31
0.0
  0
LINE
  5
602
  8
0
 62
     2
 10
330.22610600000002
 20
345.94067000000001
 30
0.0
 11
329.22612099999992
 21
342.20862199999999
 31
0.0
  0
LINE
  5
603
  8
0
 62
     2
 10
349.72612099999998
 20
342.20862199999999
 30
0.0
 11
348.72612099999992
 21
342.20862199999999
 31
0.0
  0
LINE
  5
604
  8
0
 62
     2
 10
349.72610600000002
 20
342.20861400000001
 30
0.0
 11
348.72609099999988
 21
345.94066199999997
 31
0.0
  0
LINE
  5
605
  8
0
 62
     2
 10
260.22607499999992
 20
350.9406699999999
 30
0.0
 11
260.22607499999992
 21
345.94067000000001
 31
0.0
  0
LINE
  5
606
  8
0
 62
     2
 10
278.72607499999992
 20
350.9406699999999
 30
0.0
 11
278.72607499999992
 21
345.94067000000001
 31
0.0
  0
LINE
  5
607
  8
0
 62
     2
 10
278.72607499999992
 20
350.9406699999999
 30
0.0
 11
260.22607499999992
 21
350.9406699999999
 31
0.0
  0
LINE
  5
608
  8
0
 62
     2
 10
260.22599899999989
 20
345.94067000000001
 30
0.0
 11
260.22599899999989
 21
335.94066199999997
 31
0.0
  0
LINE
  5
609
  8
0
 62
     2
 10
278.72599899999989
 20
345.94067000000001
 30
0.0
 11
278.72599899999989
 21
335.94067799999999
 31
0.0
  0
LINE
  5
60A
  8
0
 62
     2
 10
260.22609799999998
 20
345.94067000000001
 30
0.0
 11
256.47610600000002
 21
345.94067000000001
 31
0.0
  0
LINE
  5
60B
  8
0
 62
     2
 10
282.47610600000002
 20
345.94067000000001
 30
0.0
 11
278.72610600000002
 21
345.94067000000001
 31
0.0
  0
LINE
  5
60C
  8
0
 62
     2
 10
282.47610600000002
 20
334.94067000000001
 30
0.0
 11
279.47610600000002
 21
334.94067000000001
 31
0.0
  0
LINE
  5
60D
  8
0
 62
     2
 10
278.72608300000002
 20
334.94067000000001
 30
0.0
 11
260.22607499999992
 21
334.94067000000001
 31
0.0
  0
LINE
  5
60E
  8
0
 62
     2
 10
259.47610600000002
 20
334.94067000000001
 30
0.0
 11
256.47610600000002
 21
334.94067000000001
 31
0.0
  0
LINE
  5
60F
  8
0
 62
     2
 10
259.47610600000002
 20
335.94067000000001
 30
0.0
 11
259.47610600000002
 21
334.94067000000001
 31
0.0
  0
LINE
  5
610
  8
0
 62
     2
 10
279.47610600000002
 20
335.94067000000001
 30
0.0
 11
279.47610600000002
 21
334.94067000000001
 31
0.0
  0
LINE
  5
611
  8
0
 62
     2
 10
279.47610600000002
 20
334.94067000000001
 30
0.0
 11
278.72607499999992
 21
334.94067000000001
 31
0.0
  0
LINE
  5
612
  8
0
 62
     2
 10
260.22607499999992
 20
334.94067000000001
 30
0.0
 11
259.47610600000002
 21
334.94067000000001
 31
0.0
  0
LINE
  5
613
  8
0
 62
     2
 10
279.47610600000002
 20
335.94067000000001
 30
0.0
 11
278.72607499999992
 21
335.94067000000001
 31
0.0
  0
LINE
  5
614
  8
0
 62
     2
 10
260.22607499999992
 20
335.94067000000001
 30
0.0
 11
259.47610600000002
 21
335.94067000000001
 31
0.0
  0
LINE
  5
615
  8
0
 62
     2
 10
260.22607499999992
 20
342.20862199999999
 30
0.0
 11
259.22612099999992
 21
342.20862199999999
 31
0.0
  0
LINE
  5
616
  8
0
 62
     2
 10
260.22609799999998
 20
345.94067000000001
 30
0.0
 11
259.22612099999992
 21
342.20862199999999
 31
0.0
  0
LINE
  5
617
  8
0
 62
     2
 10
279.72612900000001
 20
342.20862199999999
 30
0.0
 11
278.72612900000001
 21
342.20862199999999
 31
0.0
  0
LINE
  5
618
  8
0
 62
     2
 10
279.72612900000001
 20
342.20861400000001
 30
0.0
 11
278.72610600000002
 21
345.94066199999997
 31
0.0
  0
LINE
  5
619
  8
0
 62
     2
 10
291.47610600000002
 20
345.94067000000001
 30
0.0
 11
291.47610600000002
 21
334.94067000000001
 31
0.0
  0
LINE
  5
61A
  8
0
 62
     2
 10
317.47610600000002
 20
345.94067000000001
 30
0.0
 11
317.47610600000002
 21
334.94067000000001
 31
0.0
  0
LINE
  5
61B
  8
0
 62
     2
 10
316.97610600000002
 20
334.94067000000001
 30
0.0
 11
316.90944000000002
 21
332.94065499999988
 31
0.0
  0
LINE
  5
61C
  8
0
 62
     2
 10
292.04277200000001
 20
332.94065499999988
 30
0.0
 11
291.97610600000002
 21
334.94067000000001
 31
0.0
  0
LINE
  5
61D
  8
0
 62
     2
 10
326.47610600000002
 20
345.94067000000001
 30
0.0
 11
326.47610600000002
 21
334.94067000000001
 31
0.0
  0
LINE
  5
61E
  8
0
 62
     2
 10
352.47610600000002
 20
345.94067000000001
 30
0.0
 11
352.47610600000002
 21
334.94067000000001
 31
0.0
  0
LINE
  5
61F
  8
0
 62
     2
 10
351.97610600000002
 20
334.94067000000001
 30
0.0
 11
351.90944000000002
 21
332.94065499999988
 31
0.0
  0
LINE
  5
620
  8
0
 62
     2
 10
327.04277200000001
 20
332.94065499999988
 30
0.0
 11
326.97610600000002
 21
334.94067000000001
 31
0.0
  0
LINE
  5
621
  8
0
 62
     2
 10
256.47610600000002
 20
345.94067000000001
 30
0.0
 11
256.47610600000002
 21
334.94067000000001
 31
0.0
  0
LINE
  5
622
  8
0
 62
     2
 10
282.47610600000002
 20
345.94067000000001
 30
0.0
 11
282.47610600000002
 21
334.94067000000001
 31
0.0
  0
LINE
  5
623
  8
0
 62
     2
 10
281.97610600000002
 20
334.94067000000001
 30
0.0
 11
281.90944000000002
 21
332.94065499999988
 31
0.0
  0
LINE
  5
624
  8
0
 62
     2
 10
257.04277200000001
 20
332.94065499999988
 30
0.0
 11
256.97610600000002
 21
334.94067000000001
 31
0.0
  0
LINE
  5
625
  8
0
 62
     4
 10
387.47622799999999
 20
380.44071600000001
 30
0.0
 11
387.47622799999999
 21
332.94065499999988
 31
0.0
  0
LINE
  5
626
  8
0
 62
     4
 10
387.47622799999999
 20
380.44071600000001
 30
0.0
 11
356.97607499999992
 21
380.44071600000001
 31
0.0
  0
LINE
  5
627
  8
0
 62
     7
 10
356.97610600000002
 20
380.44071600000001
 30
0.0
 11
356.97610600000002
 21
378.44070099999988
 31
0.0
  0
LINE
  5
628
  8
0
 62
     7
 10
349.47610600000002
 20
399.74067300000002
 30
0.0
 11
329.47610600000002
 21
399.74067300000002
 31
0.0
  0
LINE
  5
629
  8
0
 62
     7
 10
349.47610600000002
 20
399.74067300000002
 30
0.0
 11
349.47610600000002
 21
398.94067000000001
 31
0.0
  0
LINE
  5
62A
  8
0
 62
     7
 10
329.47610600000002
 20
399.74067300000002
 30
0.0
 11
329.47610600000002
 21
398.94067000000001
 31
0.0
  0
LINE
  5
62B
  8
0
 62
     3
 10
329.97610600000002
 20
405.74067300000002
 30
0.0
 11
329.97610600000002
 21
399.74067300000002
 31
0.0
  0
LINE
  5
62C
  8
0
 62
     3
 10
348.97610600000002
 20
405.74067300000002
 30
0.0
 11
329.97610600000002
 21
405.74067300000002
 31
0.0
  0
LINE
  5
62D
  8
0
 62
     3
 10
348.97610600000002
 20
405.74067300000002
 30
0.0
 11
348.97610600000002
 21
399.74067300000002
 31
0.0
  0
LINE
  5
62E
  8
0
 62
   211
 10
345.476091
 20
406.74067300000002
 30
0.0
 11
345.476091
 21
405.74067300000002
 31
0.0
  0
LINE
  5
62F
  8
0
 62
   211
 10
333.47609099999988
 20
406.74067300000002
 30
0.0
 11
333.47609099999988
 21
405.74067300000002
 31
0.0
  0
LINE
  5
630
  8
0
 62
     3
 10
348.97610600000002
 20
406.74067300000002
 30
0.0
 11
329.97610600000002
 21
406.74067300000002
 31
0.0
  0
LINE
  5
631
  8
0
 62
     3
 10
329.97610600000002
 20
412.74067300000002
 30
0.0
 11
329.97610600000002
 21
406.74067300000002
 31
0.0
  0
LINE
  5
632
  8
0
 62
     3
 10
348.97610600000002
 20
412.74067300000002
 30
0.0
 11
348.97610600000002
 21
406.74067300000002
 31
0.0
  0
LINE
  5
633
  8
0
 62
     7
 10
350.47610600000002
 20
412.74067300000002
 30
0.0
 11
328.47610600000002
 21
412.74067300000002
 31
0.0
  0
LINE
  5
634
  8
0
 62
     7
 10
350.47610600000002
 20
415.24067300000002
 30
0.0
 11
328.47610600000002
 21
415.24067300000002
 31
0.0
  0
LINE
  5
635
  8
0
 62
     7
 10
350.47610600000002
 20
415.24067300000002
 30
0.0
 11
350.47610600000002
 21
412.74067300000002
 31
0.0
  0
LINE
  5
636
  8
0
 62
     7
 10
328.47610600000002
 20
415.24067300000002
 30
0.0
 11
328.47610600000002
 21
412.74067300000002
 31
0.0
  0
LINE
  5
637
  8
0
 62
   211
 10
333.47609099999988
 20
421.24067300000002
 30
0.0
 11
333.47609099999988
 21
415.24067300000002
 31
0.0
  0
LINE
  5
638
  8
0
 62
   211
 10
334.476091
 20
421.24067300000002
 30
0.0
 11
334.476091
 21
415.24067300000002
 31
0.0
  0
LINE
  5
639
  8
0
 62
   211
 10
344.47609099999988
 20
421.24067300000002
 30
0.0
 11
344.47609099999988
 21
415.24067300000002
 31
0.0
  0
LINE
  5
63A
  8
0
 62
   211
 10
345.476091
 20
421.24067300000002
 30
0.0
 11
345.476091
 21
415.24067300000002
 31
0.0
  0
LINE
  5
63B
  8
0
 62
     7
 10
350.47610600000002
 20
421.24067300000002
 30
0.0
 11
328.47610600000002
 21
421.24067300000002
 31
0.0
  0
LINE
  5
63C
  8
0
 62
     7
 10
350.47610600000002
 20
423.74067300000002
 30
0.0
 11
328.47610600000002
 21
423.74067300000002
 31
0.0
  0
LINE
  5
63D
  8
0
 62
     7
 10
350.47610600000002
 20
423.74067300000002
 30
0.0
 11
350.47610600000002
 21
421.24067300000002
 31
0.0
  0
LINE
  5
63E
  8
0
 62
     7
 10
328.47610600000002
 20
423.74067300000002
 30
0.0
 11
328.47610600000002
 21
421.24067300000002
 31
0.0
  0
LINE
  5
63F
  8
0
 62
     3
 10
329.97610600000002
 20
429.74067300000002
 30
0.0
 11
329.97610600000002
 21
423.74067300000002
 31
0.0
  0
LINE
  5
640
  8
0
 62
     3
 10
348.97610600000002
 20
429.74067300000002
 30
0.0
 11
348.97610600000002
 21
423.74067300000002
 31
0.0
  0
LINE
  5
641
  8
0
 62
     3
 10
348.97610600000002
 20
429.74067300000002
 30
0.0
 11
329.97610600000002
 21
429.74067300000002
 31
0.0
  0
LINE
  5
642
  8
0
 62
   211
 10
345.476091
 20
430.44067000000001
 30
0.0
 11
333.47609099999988
 21
430.44067000000001
 31
0.0
  0
LINE
  5
643
  8
0
 62
   211
 10
343.476091
 20
432.4406699999999
 30
0.0
 11
335.47609099999988
 21
432.4406699999999
 31
0.0
  0
LINE
  5
644
  8
0
 62
   211
 10
345.476091
 20
430.44066600000002
 30
0.0
 11
343.476091
 21
432.44066600000002
 31
0.0
  0
LINE
  5
645
  8
0
 62
   211
 10
345.476091
 20
430.44067000000001
 30
0.0
 11
345.476091
 21
429.74067300000002
 31
0.0
  0
LINE
  5
646
  8
0
 62
   211
 10
333.47609099999988
 20
430.44067000000001
 30
0.0
 11
333.47609099999988
 21
429.74067300000002
 31
0.0
  0
LINE
  5
647
  8
0
 62
   211
 10
335.47609099999988
 20
432.44066399999991
 30
0.0
 11
333.47609099999988
 21
430.44066399999991
 31
0.0
  0
LINE
  5
648
  8
0
 62
     7
 10
243.3621839999999
 20
384.44070099999988
 30
0.0
 11
244.4040839999999
 21
390.34954499999998
 31
0.0
  0
LINE
  5
649
  8
0
 62
     7
 10
243.3621839999999
 20
384.44070099999988
 30
0.0
 11
242.32028299999999
 21
390.34954499999998
 31
0.0
  0
LINE
  5
64A
  8
0
 62
     7
 10
243.3621839999999
 20
432.4406699999999
 30
0.0
 11
242.32028299999999
 21
426.53182599999991
 31
0.0
  0
LINE
  5
64B
  8
0
 62
     7
 10
243.3621839999999
 20
432.4406699999999
 30
0.0
 11
244.4040839999999
 21
426.53182599999991
 31
0.0
  0
LINE
  5
64C
  8
0
 62
     7
 10
243.3621839999999
 20
384.44070099999988
 30
0.0
 11
243.3621839999999
 21
432.4406699999999
 31
0.0
  0
LINE
  5
64D
  8
0
 62
     7
 10
239.3621839999999
 20
384.44070099999988
 30
0.0
 11
252.97601399999999
 21
384.44070099999988
 31
0.0
  0
LINE
  5
64E
  8
0
 62
     7
 10
239.3621839999999
 20
432.4406699999999
 30
0.0
 11
265.47607499999992
 21
432.4406699999999
 31
0.0
  0
LINE
  5
64F
  8
0
 62
     7
 10
227.566102
 20
384.44070099999988
 30
0.0
 11
228.60800299999991
 21
390.34954499999998
 31
0.0
  0
LINE
  5
650
  8
0
 62
     7
 10
227.566102
 20
384.44070099999988
 30
0.0
 11
226.524202
 21
390.34954499999998
 31
0.0
  0
LINE
  5
651
  8
0
 62
     7
 10
227.566102
 20
484.44067000000001
 30
0.0
 11
226.524202
 21
478.53182599999991
 31
0.0
  0
LINE
  5
652
  8
0
 62
     7
 10
227.566102
 20
484.44067000000001
 30
0.0
 11
228.60800299999991
 21
478.53182599999991
 31
0.0
  0
LINE
  5
653
  8
0
 62
     7
 10
227.566102
 20
384.44070099999988
 30
0.0
 11
227.566102
 21
484.44067000000001
 31
0.0
  0
LINE
  5
654
  8
0
 62
     7
 10
223.566102
 20
384.44070099999988
 30
0.0
 11
252.97601399999999
 21
384.44070099999988
 31
0.0
  0
LINE
  5
655
  8
0
 62
     7
 10
223.566102
 20
484.44067000000001
 30
0.0
 11
300.47607499999992
 21
484.440674
 31
0.0
  0
LINE
  5
656
  8
0
 62
     7
 10
275.47607499999992
 20
444.36159099999998
 30
0.0
 11
281.38494999999989
 21
443.3196979999999
 31
0.0
  0
LINE
  5
657
  8
0
 62
     7
 10
275.47607499999992
 20
444.36159099999998
 30
0.0
 11
281.38494999999989
 21
445.4034769999999
 31
0.0
  0
LINE
  5
658
  8
0
 62
     7
 10
263.47607499999992
 20
444.36159099999998
 30
0.0
 11
257.56723099999988
 21
445.4034769999999
 31
0.0
  0
LINE
  5
659
  8
0
 62
     7
 10
263.47607499999992
 20
444.36159099999998
 30
0.0
 11
257.56723099999988
 21
443.3196979999999
 31
0.0
  0
LINE
  5
65A
  8
0
 62
     7
 10
275.47607499999992
 20
444.36159099999998
 30
0.0
 11
241.11123799999999
 21
444.36159099999998
 31
0.0
  0
LINE
  5
65B
  8
0
 62
     7
 10
275.47607499999992
 20
448.36159099999998
 30
0.0
 11
275.47610600000002
 21
430.44067000000001
 31
0.0
  0
LINE
  5
65C
  8
0
 62
     7
 10
263.47607499999992
 20
448.36159099999998
 30
0.0
 11
263.47610600000002
 21
430.44067000000001
 31
0.0
  0
POINT
  5
65D
  8
0
 62
     7
 10
1062.11834
 20
648.94857100000002
 30
0.0
  0
LINE
  5
65E
  8
0
 62
     7
 10
896.11833999999988
 20
613.69857100000002
 30
0.0
 11
1031.11834
 21
613.69857100000002
 31
0.0
  0
LINE
  5
65F
  8
0
 62
     7
 10
896.11833999999988
 20
739.69857100000002
 30
0.0
 11
1031.11834
 21
739.69857100000002
 31
0.0
  0
LINE
  5
660
  8
0
 62
     7
 10
1031.11834
 20
739.69857100000002
 30
0.0
 11
1031.11834
 21
657.44857100000002
 31
0.0
  0
LINE
  5
661
  8
0
 62
     7
 10
896.11833999999988
 20
739.69857100000002
 30
0.0
 11
896.11833999999988
 21
613.69857100000002
 31
0.0
  0
LINE
  5
662
  8
0
  6
DASHDOT
 62
     7
 10
1013.218394999999
 20
649.44857100000002
 30
0.0
 11
1069.1395649999999
 21
649.44857100000002
 31
0.0
  0
LINE
  5
663
  8
0
 62
     7
 10
1031.11834
 20
657.44857100000002
 30
0.0
 11
1054.11834
 21
657.44857100000002
 31
0.0
  0
LINE
  5
664
  8
0
 62
     7
 10
1031.11834
 20
641.44857100000002
 30
0.0
 11
1054.11834
 21
641.44857100000002
 31
0.0
  0
ARC
  5
665
  8
0
 62
     7
 10
1054.11834
 20
649.44857100000002
 30
0.0
 40
8.0
 50
270.0
 51
90.000005000000002
  0
LINE
  5
666
  8
0
 62
     7
 10
1031.11834
 20
641.44857100000002
 30
0.0
 11
1031.11834
 21
613.69857100000002
 31
0.0
  0
LINE
  5
667
  8
0
  6
DASHDOT
 62
     7
 10
968.11833999999999
 20
779.20853499999987
 30
0.0
 11
968.11833999999999
 21
584.11784399999999
 31
0.0
  0
CIRCLE
  5
668
  8
0
 62
     7
 10
924.11833999999999
 20
747.69857100000002
 30
0.0
 40
3.5
  0
CIRCLE
  5
669
  8
0
 62
     7
 10
1049.11834
 20
747.69857100000002
 30
0.0
 40
4.0
  0
CIRCLE
  5
66A
  8
0
 62
     7
 10
1049.11834
 20
676.69857100000002
 30
0.0
 40
4.0
  0
CIRCLE
  5
66B
  8
0
 62
     7
 10
1049.11834
 20
605.69857100000002
 30
0.0
 40
3.5
  0
CIRCLE
  5
66C
  8
0
 62
     7
 10
924.11833999999999
 20
605.69857100000002
 30
0.0
 40
4.0
  0
LINE
  5
66D
  8
0
  6
DASHDOT
 62
     7
 10
924.11833999999999
 20
754.19857100000002
 30
0.0
 11
924.11833999999999
 21
741.19857100000002
 31
0.0
  0
LINE
  5
66E
  8
0
  6
DASHDOT
 62
     7
 10
917.61833999999988
 20
747.69857100000002
 30
0.0
 11
930.61833999999999
 21
747.69857100000002
 31
0.0
  0
LINE
  5
66F
  8
0
  6
DASHDOT
 62
     7
 10
1049.11834
 20
754.19857100000002
 30
0.0
 11
1049.11834
 21
741.19857100000002
 31
0.0
  0
LINE
  5
670
  8
0
  6
DASHDOT
 62
     7
 10
1042.6183399999991
 20
747.69857100000002
 30
0.0
 11
1055.61834
 21
747.69857100000002
 31
0.0
  0
LINE
  5
671
  8
0
  6
DASHDOT
 62
     7
 10
1049.11834
 20
683.19857100000002
 30
0.0
 11
1049.11834
 21
670.19857100000002
 31
0.0
  0
LINE
  5
672
  8
0
  6
DASHDOT
 62
     7
 10
1042.6183399999991
 20
676.69857100000002
 30
0.0
 11
1055.61834
 21
676.69857100000002
 31
0.0
  0
LINE
  5
673
  8
0
  6
DASHDOT
 62
     7
 10
1049.11834
 20
612.19857100000002
 30
0.0
 11
1049.11834
 21
599.19857100000002
 31
0.0
  0
LINE
  5
674
  8
0
  6
DASHDOT
 62
     7
 10
1042.6183399999991
 20
605.69857100000002
 30
0.0
 11
1055.61834
 21
605.69857100000002
 31
0.0
  0
LINE
  5
675
  8
0
  6
DASHDOT
 62
     7
 10
924.11833999999999
 20
612.19857100000002
 30
0.0
 11
924.11833999999999
 21
599.19857100000002
 31
0.0
  0
LINE
  5
676
  8
0
  6
DASHDOT
 62
     7
 10
917.61833999999988
 20
605.69857100000002
 30
0.0
 11
930.61833999999999
 21
605.69857100000002
 31
0.0
  0
POLYLINE
  5
677
  8
0
 62
     7
 66
     1
 10
0.0
 20
0.0
 30
0.0
  0
VERTEX
  5
B83
  8
0
 62
     7
 10
872.42010500000015
 20
759.69857100000002
 30
0.0
  0
VERTEX
  5
B84
  8
0
 62
     7
 10
888.42010499999992
 20
759.69857100000002
 30
0.0
  0
VERTEX
  5
B85
  8
0
 62
     7
 10
889.42010500000015
 20
761.69857100000002
 30
0.0
  0
VERTEX
  5
B86
  8
0
 62
     7
 10
890.42010500000015
 20
757.69857100000002
 30
0.0
  0
VERTEX
  5
B87
  8
0
 62
     7
 10
891.42010500000004
 20
759.69857100000002
 30
0.0
  0
VERTEX
  5
B88
  8
0
 62
     7
 10
907.42010500000004
 20
759.69857100000002
 30
0.0
  0
VERTEX
  5
B89
  8
0
 62
     7
 10
908.42010500000004
 20
761.69857100000002
 30
0.0
  0
VERTEX
  5
B8A
  8
0
 62
     7
 10
909.42010500000004
 20
757.69857100000002
 30
0.0
  0
VERTEX
  5
B8B
  8
0
 62
     7
 10
910.42010500000004
 20
759.69857100000002
 30
0.0
  0
VERTEX
  5
B8C
  8
0
 62
     7
 10
926.42010500000004
 20
759.69857100000002
 30
0.0
  0
VERTEX
  5
B8D
  8
0
 62
     7
 10
927.42010500000004
 20
761.69857100000002
 30
0.0
  0
VERTEX
  5
B8E
  8
0
 62
     7
 10
928.42010500000004
 20
757.69857100000002
 30
0.0
  0
VERTEX
  5
B8F
  8
0
 62
     7
 10
929.42010499999992
 20
759.69857100000002
 30
0.0
  0
VERTEX
  5
B90
  8
0
 62
     7
 10
945.42010499999992
 20
759.69857100000002
 30
0.0
  0
VERTEX
  5
B91
  8
0
 62
     7
 10
946.42010499999992
 20
761.69857100000002
 30
0.0
  0
VERTEX
  5
B92
  8
0
 62
     7
 10
947.42010500000015
 20
757.69857100000002
 30
0.0
  0
VERTEX
  5
B93
  8
0
 62
     7
 10
948.42010500000015
 20
759.69857100000002
 30
0.0
  0
VERTEX
  5
B94
  8
0
 62
     7
 10
964.42010500000015
 20
759.69857100000002
 30
0.0
  0
VERTEX
  5
B95
  8
0
 62
     7
 10
965.42010500000015
 20
761.69857100000002
 30
0.0
  0
VERTEX
  5
B96
  8
0
 62
     7
 10
966.42010500000004
 20
757.69857100000002
 30
0.0
  0
VERTEX
  5
B97
  8
0
 62
     7
 10
967.42010500000004
 20
759.69857100000002
 30
0.0
  0
VERTEX
  5
B98
  8
0
 62
     7
 10
983.42010500000004
 20
759.69857100000002
 30
0.0
  0
VERTEX
  5
B99
  8
0
 62
     7
 10
984.42010500000004
 20
761.69857100000002
 30
0.0
  0
VERTEX
  5
B9A
  8
0
 62
     7
 10
985.42010500000004
 20
757.69857100000002
 30
0.0
  0
VERTEX
  5
B9B
  8
0
 62
     7
 10
986.42010500000004
 20
759.69857100000002
 30
0.0
  0
VERTEX
  5
B9C
  8
0
 62
     7
 10
1002.420105
 20
759.69857100000002
 30
0.0
  0
VERTEX
  5
B9D
  8
0
 62
     7
 10
1003.420105
 20
761.69857100000002
 30
0.0
  0
VERTEX
  5
B9E
  8
0
 62
     7
 10
1004.420105
 20
757.69857100000002
 30
0.0
  0
VERTEX
  5
B9F
  8
0
 62
     7
 10
1005.420105
 20
759.69857100000002
 30
0.0
  0
VERTEX
  5
BA0
  8
0
 62
     7
 10
1021.420105
 20
759.69857100000002
 30
0.0
  0
VERTEX
  5
BA1
  8
0
 62
     7
 10
1022.420105
 20
761.69857100000002
 30
0.0
  0
VERTEX
  5
BA2
  8
0
 62
     7
 10
1023.420105
 20
757.69857100000002
 30
0.0
  0
VERTEX
  5
BA3
  8
0
 62
     7
 10
1024.4201049999999
 20
759.69857100000002
 30
0.0
  0
VERTEX
  5
BA4
  8
0
 62
     7
 10
1040.4201049999999
 20
759.69857100000002
 30
0.0
  0
VERTEX
  5
BA5
  8
0
 62
     7
 10
1041.4201049999999
 20
761.69857100000002
 30
0.0
  0
VERTEX
  5
BA6
  8
0
 62
     7
 10
1042.4201049999999
 20
757.69857100000002
 30
0.0
  0
VERTEX
  5
BA7
  8
0
 62
     7
 10
1043.4201049999999
 20
759.69857100000002
 30
0.0
  0
VERTEX
  5
BA8
  8
0
 62
     7
 10
1059.4201049999999
 20
759.69857100000002
 30
0.0
  0
VERTEX
  5
BA9
  8
0
 62
     7
 10
1060.4201049999999
 20
761.69857100000002
 30
0.0
  0
VERTEX
  5
BAA
  8
0
 62
     7
 10
1061.4201049999999
 20
757.69857100000002
 30
0.0
  0
VERTEX
  5
BAB
  8
0
 62
     7
 10
1062.4201049999999
 20
759.69857100000002
 30
0.0
  0
VERTEX
  5
BAC
  8
0
 62
     7
 10
1070.7683329999991
 20
759.69857100000002
 30
0.0
  0
SEQEND
  5
BAD
  8
0
 62
     7
  0
POLYLINE
  5
6A3
  8
0
 62
     7
 66
     1
 10
0.0
 20
0.0
 30
0.0
  0
VERTEX
  5
BAE
  8
0
 62
     7
 10
869.88645899999995
 20
593.69857100000002
 30
0.0
  0
VERTEX
  5
BAF
  8
0
 62
     7
 10
885.88645899999995
 20
593.69857100000002
 30
0.0
  0
VERTEX
  5
BB0
  8
0
 62
     7
 10
886.88645899999995
 20
595.69857100000002
 30
0.0
  0
VERTEX
  5
BB1
  8
0
 62
     7
 10
887.88645899999995
 20
591.69857100000002
 30
0.0
  0
VERTEX
  5
BB2
  8
0
 62
     7
 10
888.88645899999983
 20
593.69857100000002
 30
0.0
  0
VERTEX
  5
BB3
  8
0
 62
     7
 10
904.88645899999995
 20
593.69857100000002
 30
0.0
  0
VERTEX
  5
BB4
  8
0
 62
     7
 10
905.88645899999983
 20
595.69857100000002
 30
0.0
  0
VERTEX
  5
BB5
  8
0
 62
     7
 10
906.88645899999995
 20
591.69857100000002
 30
0.0
  0
VERTEX
  5
BB6
  8
0
 62
     7
 10
907.88645899999995
 20
593.69857100000002
 30
0.0
  0
VERTEX
  5
BB7
  8
0
 62
     7
 10
923.88645899999995
 20
593.69857100000002
 30
0.0
  0
VERTEX
  5
BB8
  8
0
 62
     7
 10
924.88645899999995
 20
595.69857100000002
 30
0.0
  0
VERTEX
  5
BB9
  8
0
 62
     7
 10
925.88645899999995
 20
591.69857100000002
 30
0.0
  0
VERTEX
  5
BBA
  8
0
 62
     7
 10
926.88645899999995
 20
593.69857100000002
 30
0.0
  0
VERTEX
  5
BBB
  8
0
 62
     7
 10
942.88645899999995
 20
593.69857100000002
 30
0.0
  0
VERTEX
  5
BBC
  8
0
 62
     7
 10
943.88645899999995
 20
595.69857100000002
 30
0.0
  0
VERTEX
  5
BBD
  8
0
 62
     7
 10
944.88645899999995
 20
591.69857100000002
 30
0.0
  0
VERTEX
  5
BBE
  8
0
 62
     7
 10
945.88645899999995
 20
593.69857100000002
 30
0.0
  0
VERTEX
  5
BBF
  8
0
 62
     7
 10
961.88645899999995
 20
593.69857100000002
 30
0.0
  0
VERTEX
  5
BC0
  8
0
 62
     7
 10
962.88645899999995
 20
595.69857100000002
 30
0.0
  0
VERTEX
  5
BC1
  8
0
 62
     7
 10
963.88645899999983
 20
591.69857100000002
 30
0.0
  0
VERTEX
  5
BC2
  8
0
 62
     7
 10
964.88645899999995
 20
593.69857100000002
 30
0.0
  0
VERTEX
  5
BC3
  8
0
 62
     7
 10
980.88645899999983
 20
593.69857100000002
 30
0.0
  0
VERTEX
  5
BC4
  8
0
 62
     7
 10
981.88645899999995
 20
595.69857100000002
 30
0.0
  0
VERTEX
  5
BC5
  8
0
 62
     7
 10
982.88645899999995
 20
591.69857100000002
 30
0.0
  0
VERTEX
  5
BC6
  8
0
 62
     7
 10
983.88645899999995
 20
593.69857100000002
 30
0.0
  0
VERTEX
  5
BC7
  8
0
 62
     7
 10
999.88645899999995
 20
593.69857100000002
 30
0.0
  0
VERTEX
  5
BC8
  8
0
 62
     7
 10
1000.886458999999
 20
595.69857100000002
 30
0.0
  0
VERTEX
  5
BC9
  8
0
 62
     7
 10
1001.8864589999999
 20
591.69857100000002
 30
0.0
  0
VERTEX
  5
BCA
  8
0
 62
     7
 10
1002.886458999999
 20
593.69857100000002
 30
0.0
  0
VERTEX
  5
BCB
  8
0
 62
     7
 10
1018.886458999999
 20
593.69857100000002
 30
0.0
  0
VERTEX
  5
BCC
  8
0
 62
     7
 10
1019.8864589999999
 20
595.69857100000002
 30
0.0
  0
VERTEX
  5
BCD
  8
0
 62
     7
 10
1020.886458999999
 20
591.69857100000002
 30
0.0
  0
VERTEX
  5
BCE
  8
0
 62
     7
 10
1021.886458999999
 20
593.69857100000002
 30
0.0
  0
VERTEX
  5
BCF
  8
0
 62
     7
 10
1037.8864590000001
 20
593.69857100000002
 30
0.0
  0
VERTEX
  5
BD0
  8
0
 62
     7
 10
1038.8864590000001
 20
595.69857100000002
 30
0.0
  0
VERTEX
  5
BD1
  8
0
 62
     7
 10
1039.8864590000001
 20
591.69857100000002
 30
0.0
  0
VERTEX
  5
BD2
  8
0
 62
     7
 10
1040.8864589999989
 20
593.69857100000002
 30
0.0
  0
VERTEX
  5
BD3
  8
0
 62
     7
 10
1056.8864590000001
 20
593.69857100000002
 30
0.0
  0
VERTEX
  5
BD4
  8
0
 62
     7
 10
1057.8864590000001
 20
595.69857100000002
 30
0.0
  0
VERTEX
  5
BD5
  8
0
 62
     7
 10
1058.8864590000001
 20
591.69857100000002
 30
0.0
  0
VERTEX
  5
BD6
  8
0
 62
     7
 10
1059.8864590000001
 20
593.69857100000002
 30
0.0
  0
VERTEX
  5
BD7
  8
0
 62
     7
 10
1072.578086999999
 20
593.69857100000002
 30
0.0
  0
SEQEND
  5
BD8
  8
0
 62
     7
  0
POLYLINE
  5
6CF
  8
0
 62
     7
 66
     1
 10
0.0
 20
0.0
 30
0.0
  0
VERTEX
  5
BD9
  8
0
 62
     7
 10
1069.1183399999991
 20
763.01875399999994
 30
0.0
  0
VERTEX
  5
BDA
  8
0
 62
     7
 10
1069.1183399999991
 20
747.01875399999994
 30
0.0
  0
VERTEX
  5
BDB
  8
0
 62
     7
 10
1071.1183399999991
 20
746.01875399999994
 30
0.0
  0
VERTEX
  5
BDC
  8
0
 62
     7
 10
1067.11834
 20
745.01875399999994
 30
0.0
  0
VERTEX
  5
BDD
  8
0
 62
     7
 10
1069.1183399999991
 20
744.01875400000006
 30
0.0
  0
VERTEX
  5
BDE
  8
0
 62
     7
 10
1069.1183399999991
 20
728.01875399999994
 30
0.0
  0
VERTEX
  5
BDF
  8
0
 62
     7
 10
1071.1183399999991
 20
727.01875400000006
 30
0.0
  0
VERTEX
  5
BE0
  8
0
 62
     7
 10
1067.11834
 20
726.01875399999994
 30
0.0
  0
VERTEX
  5
BE1
  8
0
 62
     7
 10
1069.1183399999991
 20
725.01875399999994
 30
0.0
  0
VERTEX
  5
BE2
  8
0
 62
     7
 10
1069.1183399999991
 20
709.01875399999994
 30
0.0
  0
VERTEX
  5
BE3
  8
0
 62
     7
 10
1071.1183399999991
 20
708.01875399999994
 30
0.0
  0
VERTEX
  5
BE4
  8
0
 62
     7
 10
1067.11834
 20
707.01875399999994
 30
0.0
  0
VERTEX
  5
BE5
  8
0
 62
     7
 10
1069.1183399999991
 20
706.01875400000006
 30
0.0
  0
VERTEX
  5
BE6
  8
0
 62
     7
 10
1069.1183399999991
 20
690.01875400000006
 30
0.0
  0
VERTEX
  5
BE7
  8
0
 62
     7
 10
1071.1183399999991
 20
689.01875399999994
 30
0.0
  0
VERTEX
  5
BE8
  8
0
 62
     7
 10
1067.11834
 20
688.01875399999994
 30
0.0
  0
VERTEX
  5
BE9
  8
0
 62
     7
 10
1069.1183399999991
 20
687.01875399999994
 30
0.0
  0
VERTEX
  5
BEA
  8
0
 62
     7
 10
1069.1183399999991
 20
671.01875399999994
 30
0.0
  0
VERTEX
  5
BEB
  8
0
 62
     7
 10
1071.1183399999991
 20
670.01875399999994
 30
0.0
  0
VERTEX
  5
BEC
  8
0
 62
     7
 10
1067.11834
 20
669.01875400000006
 30
0.0
  0
VERTEX
  5
BED
  8
0
 62
     7
 10
1069.1183399999991
 20
668.01875399999994
 30
0.0
  0
VERTEX
  5
BEE
  8
0
 62
     7
 10
1069.1183399999991
 20
652.01875400000006
 30
0.0
  0
VERTEX
  5
BEF
  8
0
 62
     7
 10
1071.1183399999991
 20
651.01875399999994
 30
0.0
  0
VERTEX
  5
BF0
  8
0
 62
     7
 10
1067.11834
 20
650.01875399999994
 30
0.0
  0
VERTEX
  5
BF1
  8
0
 62
     7
 10
1069.1183399999991
 20
649.01875399999994
 30
0.0
  0
VERTEX
  5
BF2
  8
0
 62
     7
 10
1069.1183399999991
 20
633.01875399999994
 30
0.0
  0
VERTEX
  5
BF3
  8
0
 62
     7
 10
1071.1183399999991
 20
632.01875399999994
 30
0.0
  0
VERTEX
  5
BF4
  8
0
 62
     7
 10
1067.11834
 20
631.01875400000006
 30
0.0
  0
VERTEX
  5
BF5
  8
0
 62
     7
 10
1069.1183399999991
 20
630.01875399999994
 30
0.0
  0
VERTEX
  5
BF6
  8
0
 62
     7
 10
1069.1183399999991
 20
614.01875399999994
 30
0.0
  0
VERTEX
  5
BF7
  8
0
 62
     7
 10
1071.1183399999991
 20
613.01875399999994
 30
0.0
  0
VERTEX
  5
BF8
  8
0
 62
     7
 10
1067.11834
 20
612.01875399999994
 30
0.0
  0
VERTEX
  5
BF9
  8
0
 62
     7
 10
1069.1183399999991
 20
611.01875399999994
 30
0.0
  0
VERTEX
  5
BFA
  8
0
 62
     7
 10
1069.1183399999991
 20
595.01875399999994
 30
0.0
  0
VERTEX
  5
BFB
  8
0
 62
     7
 10
1071.1183399999991
 20
594.01875400000006
 30
0.0
  0
VERTEX
  5
BFC
  8
0
 62
     7
 10
1067.11834
 20
593.01875399999994
 30
0.0
  0
VERTEX
  5
BFD
  8
0
 62
     7
 10
1069.1183399999991
 20
592.01875399999994
 30
0.0
  0
VERTEX
  5
BFE
  8
0
 62
     7
 10
1069.1183399999991
 20
590.00697400000001
 30
0.0
  0
SEQEND
  5
BFF
  8
0
 62
     7
  0
POLYLINE
  5
6F7
  8
0
 62
     7
 66
     1
 10
0.0
 20
0.0
 30
0.0
  0
VERTEX
  5
C00
  8
0
 62
     7
 10
876.11833999999999
 20
763.01875399999994
 30
0.0
  0
VERTEX
  5
C01
  8
0
 62
     7
 10
876.11833999999999
 20
747.01875399999994
 30
0.0
  0
VERTEX
  5
C02
  8
0
 62
     7
 10
878.11833999999988
 20
746.01875399999994
 30
0.0
  0
VERTEX
  5
C03
  8
0
 62
     7
 10
874.11833999999999
 20
745.01875399999994
 30
0.0
  0
VERTEX
  5
C04
  8
0
 62
     7
 10
876.11833999999999
 20
744.01875400000006
 30
0.0
  0
VERTEX
  5
C05
  8
0
 62
     7
 10
876.11833999999999
 20
728.01875399999994
 30
0.0
  0
VERTEX
  5
C06
  8
0
 62
     7
 10
878.11833999999988
 20
727.01875400000006
 30
0.0
  0
VERTEX
  5
C07
  8
0
 62
     7
 10
874.11833999999999
 20
726.01875399999994
 30
0.0
  0
VERTEX
  5
C08
  8
0
 62
     7
 10
876.11833999999999
 20
725.01875399999994
 30
0.0
  0
VERTEX
  5
C09
  8
0
 62
     7
 10
876.11833999999999
 20
709.01875399999994
 30
0.0
  0
VERTEX
  5
C0A
  8
0
 62
     7
 10
878.11833999999988
 20
708.01875399999994
 30
0.0
  0
VERTEX
  5
C0B
  8
0
 62
     7
 10
874.11833999999999
 20
707.01875399999994
 30
0.0
  0
VERTEX
  5
C0C
  8
0
 62
     7
 10
876.11833999999999
 20
706.01875400000006
 30
0.0
  0
VERTEX
  5
C0D
  8
0
 62
     7
 10
876.11833999999999
 20
690.01875400000006
 30
0.0
  0
VERTEX
  5
C0E
  8
0
 62
     7
 10
878.11833999999988
 20
689.01875399999994
 30
0.0
  0
VERTEX
  5
C0F
  8
0
 62
     7
 10
874.11833999999999
 20
688.01875399999994
 30
0.0
  0
VERTEX
  5
C10
  8
0
 62
     7
 10
876.11833999999999
 20
687.01875399999994
 30
0.0
  0
VERTEX
  5
C11
  8
0
 62
     7
 10
876.11833999999999
 20
671.01875399999994
 30
0.0
  0
VERTEX
  5
C12
  8
0
 62
     7
 10
878.11833999999988
 20
670.01875399999994
 30
0.0
  0
VERTEX
  5
C13
  8
0
 62
     7
 10
874.11833999999999
 20
669.01875400000006
 30
0.0
  0
VERTEX
  5
C14
  8
0
 62
     7
 10
876.11833999999999
 20
668.01875399999994
 30
0.0
  0
VERTEX
  5
C15
  8
0
 62
     7
 10
876.11833999999999
 20
652.01875400000006
 30
0.0
  0
VERTEX
  5
C16
  8
0
 62
     7
 10
878.11833999999988
 20
651.01875399999994
 30
0.0
  0
VERTEX
  5
C17
  8
0
 62
     7
 10
874.11833999999999
 20
650.01875399999994
 30
0.0
  0
VERTEX
  5
C18
  8
0
 62
     7
 10
876.11833999999999
 20
649.01875399999994
 30
0.0
  0
VERTEX
  5
C19
  8
0
 62
     7
 10
876.11833999999999
 20
633.01875399999994
 30
0.0
  0
VERTEX
  5
C1A
  8
0
 62
     7
 10
878.11833999999988
 20
632.01875399999994
 30
0.0
  0
VERTEX
  5
C1B
  8
0
 62
     7
 10
874.11833999999999
 20
631.01875400000006
 30
0.0
  0
VERTEX
  5
C1C
  8
0
 62
     7
 10
876.11833999999999
 20
630.01875399999994
 30
0.0
  0
VERTEX
  5
C1D
  8
0
 62
     7
 10
876.11833999999999
 20
614.01875399999994
 30
0.0
  0
VERTEX
  5
C1E
  8
0
 62
     7
 10
878.11833999999988
 20
613.01875399999994
 30
0.0
  0
VERTEX
  5
C1F
  8
0
 62
     7
 10
874.11833999999999
 20
612.01875399999994
 30
0.0
  0
VERTEX
  5
C20
  8
0
 62
     7
 10
876.11833999999999
 20
611.01875399999994
 30
0.0
  0
VERTEX
  5
C21
  8
0
 62
     7
 10
876.11833999999999
 20
595.01875399999994
 30
0.0
  0
VERTEX
  5
C22
  8
0
 62
     7
 10
878.11833999999988
 20
594.01875400000006
 30
0.0
  0
VERTEX
  5
C23
  8
0
 62
     7
 10
874.11833999999999
 20
593.01875399999994
 30
0.0
  0
VERTEX
  5
C24
  8
0
 62
     7
 10
876.11833999999999
 20
592.01875399999994
 30
0.0
  0
VERTEX
  5
C25
  8
0
 62
     7
 10
876.11833999999999
 20
587.65429800000004
 30
0.0
  0
SEQEND
  5
C26
  8
0
 62
     7
  0
LINE
  5
71F
  8
0
  6
DASHDOT
 62
     7
 10
858.27544399999999
 20
676.69857100000002
 30
0.0
 11
1080.0892559999991
 21
676.69857100000002
 31
0.0
  0
CIRCLE
  5
720
  8
0
 62
     7
 10
990.61833999999988
 20
749.19857100000002
 30
0.0
 40
2.0
  0
CIRCLE
  5
721
  8
0
 62
     7
 10
945.61833999999999
 20
749.19857100000002
 30
0.0
 40
2.0
  0
CIRCLE
  5
722
  8
0
 62
     7
 10
990.61833999999988
 20
749.19857100000002
 30
0.0
 40
3.6800000000000002
  0
CIRCLE
  5
723
  8
0
 62
     7
 10
945.61833999999999
 20
749.19857100000002
 30
0.0
 40
3.6800000000000002
  0
LINE
  5
724
  8
0
  6
DASHDOT
 62
     7
 10
990.61833999999988
 20
755.87857099999985
 30
0.0
 11
990.61833999999988
 21
742.51857099999995
 31
0.0
  0
LINE
  5
725
  8
0
  6
DASHDOT
 62
     7
 10
983.93833900000004
 20
749.19857100000002
 30
0.0
 11
997.29834000000005
 21
749.19857100000002
 31
0.0
  0
LINE
  5
726
  8
0
  6
DASHDOT
 62
     7
 10
945.61833999999999
 20
755.87857099999985
 30
0.0
 11
945.61833999999999
 21
742.51857099999995
 31
0.0
  0
LINE
  5
727
  8
0
  6
DASHDOT
 62
     7
 10
938.93833900000004
 20
749.19857100000002
 30
0.0
 11
952.29834000000005
 21
749.19857100000002
 31
0.0
  0
LINE
  5
728
  8
0
 62
     7
 10
1075.5412669999989
 20
739.84492199999988
 30
0.0
 11
1075.5412669999989
 21
710.94855800000005
 31
0.0
  0
LINE
  5
729
  8
0
 62
     7
 10
1086.1365969999999
 20
739.84492199999988
 30
0.0
 11
1086.1365969999999
 21
710.94855800000005
 31
0.0
  0
LINE
  5
72A
  8
0
 62
     7
 10
1075.5412669999989
 20
739.84492199999988
 30
0.0
 11
1086.1365969999999
 21
739.84492199999988
 31
0.0
  0
LINE
  5
72B
  8
0
 62
     7
 10
1075.5412669999989
 20
710.94855800000005
 30
0.0
 11
1086.1365969999999
 21
710.94855800000005
 31
0.0
  0
LINE
  5
72C
  8
0
 62
     7
 10
1075.5412669999989
 20
642.44858599999986
 30
0.0
 11
1075.5412669999989
 21
613.55222400000002
 31
0.0
  0
LINE
  5
72D
  8
0
 62
     7
 10
1086.1365969999999
 20
642.44858599999986
 30
0.0
 11
1086.1365969999999
 21
613.55222400000002
 31
0.0
  0
LINE
  5
72E
  8
0
 62
     7
 10
1075.5412669999989
 20
613.55222400000002
 30
0.0
 11
1086.1365969999999
 21
613.55222400000002
 31
0.0
  0
LINE
  5
72F
  8
0
 62
     7
 10
1075.5412669999989
 20
642.44858599999986
 30
0.0
 11
1086.1365969999999
 21
642.44858599999986
 31
0.0
  0
LINE
  5
730
  8
0
  6
DASHDOT
 62
     7
 10
1080.838927999999
 20
758.62755700000002
 30
0.0
 11
1080.838927999999
 21
542.86803499999985
 31
0.0
  0
LINE
  5
731
  8
0
 62
     7
 10
968.11833999999999
 20
817.88323300000002
 30
0.0
 11
979.93602799999996
 21
815.79946199999995
 31
0.0
  0
LINE
  5
732
  8
0
 62
     7
 10
968.11833999999999
 20
817.88323300000002
 30
0.0
 11
979.93602799999996
 21
819.96700399999986
 31
0.0
  0
LINE
  5
733
  8
0
 62
     7
 10
1031.11834
 20
817.88323300000002
 30
0.0
 11
1019.300651999999
 21
819.96700399999986
 31
0.0
  0
LINE
  5
734
  8
0
 62
     7
 10
1031.11834
 20
817.88323300000002
 30
0.0
 11
1019.300651999999
 21
815.79946199999995
 31
0.0
  0
LINE
  5
735
  8
0
 62
     7
 10
968.11833999999999
 20
817.88323300000002
 30
0.0
 11
1031.11834
 21
817.88323300000002
 31
0.0
  0
LINE
  5
736
  8
0
 62
     7
 10
968.11833999999999
 20
825.88323300000002
 30
0.0
 11
968.11833999999999
 21
779.20854999999995
 31
0.0
  0
LINE
  5
737
  8
0
 62
     7
 10
1031.11834
 20
825.88323300000002
 30
0.0
 11
1031.11834
 21
739.69857100000002
 31
0.0
  0
LINE
  5
738
  8
0
 62
     7
 10
896.11833999999988
 20
850.83165799999995
 30
0.0
 11
907.93602799999985
 21
848.74785699999995
 31
0.0
  0
LINE
  5
739
  8
0
 62
     7
 10
896.11833999999988
 20
850.83165799999995
 30
0.0
 11
907.93602799999985
 21
852.91539799999998
 31
0.0
  0
LINE
  5
73A
  8
0
 62
     7
 10
1031.11834
 20
850.83165799999995
 30
0.0
 11
1019.300651999999
 21
852.91539799999998
 31
0.0
  0
LINE
  5
73B
  8
0
 62
     7
 10
1031.11834
 20
850.83165799999995
 30
0.0
 11
1019.300651999999
 21
848.74785699999995
 31
0.0
  0
LINE
  5
73C
  8
0
 62
     7
 10
896.11833999999988
 20
850.83165799999995
 30
0.0
 11
1031.11834
 21
850.83165799999995
 31
0.0
  0
LINE
  5
73D
  8
0
 62
     7
 10
896.11833999999988
 20
858.83165799999995
 30
0.0
 11
896.11833999999988
 21
739.69857100000002
 31
0.0
  0
LINE
  5
73E
  8
0
 62
     7
 10
1031.11834
 20
858.83165799999995
 30
0.0
 11
1031.11834
 21
739.69857100000002
 31
0.0
  0
LINE
  5
73F
  8
0
 62
     7
 10
968.11833999999999
 20
576.87886900000001
 30
0.0
 11
979.93602799999996
 21
574.79508299999986
 31
0.0
  0
LINE
  5
740
  8
0
 62
     7
 10
968.11833999999999
 20
576.87886900000001
 30
0.0
 11
979.93602799999996
 21
578.96264000000008
 31
0.0
  0
LINE
  5
741
  8
0
 62
     7
 10
1049.11834
 20
576.87886900000001
 30
0.0
 11
1037.300651999999
 21
578.96264000000008
 31
0.0
  0
LINE
  5
742
  8
0
 62
     7
 10
1049.11834
 20
576.87886900000001
 30
0.0
 11
1037.300651999999
 21
574.79508299999986
 31
0.0
  0
LINE
  5
743
  8
0
 62
     7
 10
968.11833999999999
 20
576.87886900000001
 30
0.0
 11
1049.11834
 21
576.87886900000001
 31
0.0
  0
LINE
  5
744
  8
0
 62
     7
 10
968.11833999999999
 20
568.8788689999999
 30
0.0
 11
968.11833999999999
 21
584.11785199999986
 31
0.0
  0
LINE
  5
745
  8
0
 62
     7
 10
1049.11834
 20
568.8788689999999
 30
0.0
 11
1049.11834
 21
599.19857100000002
 31
0.0
  0
LINE
  5
746
  8
0
 62
     7
 10
924.11833999999999
 20
548.46584399999995
 30
0.0
 11
935.93602799999996
 21
546.38207299999999
 31
0.0
  0
LINE
  5
747
  8
0
 62
     7
 10
924.11833999999999
 20
548.46584399999995
 30
0.0
 11
935.93602799999996
 21
550.54962999999987
 31
0.0
  0
LINE
  5
748
  8
0
 62
     7
 10
1049.11834
 20
548.46584399999995
 30
0.0
 11
1037.300651999999
 21
550.5496149999999
 31
0.0
  0
LINE
  5
749
  8
0
 62
     7
 10
1049.11834
 20
548.46584399999995
 30
0.0
 11
1037.300651999999
 21
546.38205800000003
 31
0.0
  0
LINE
  5
74A
  8
0
 62
     7
 10
924.11833999999999
 20
548.46584399999995
 30
0.0
 11
1049.11834
 21
548.46584399999995
 31
0.0
  0
LINE
  5
74B
  8
0
 62
     7
 10
924.11833999999999
 20
540.46584399999995
 30
0.0
 11
924.11833999999999
 21
599.19857100000002
 31
0.0
  0
LINE
  5
74C
  8
0
 62
     7
 10
1049.11834
 20
540.46584399999995
 30
0.0
 11
1049.11834
 21
599.19857100000002
 31
0.0
  0
LINE
  5
74D
  8
0
 62
     7
 10
968.11833999999999
 20
690.89290700000004
 30
0.0
 11
979.93602799999996
 21
688.80910599999993
 31
0.0
  0
LINE
  5
74E
  8
0
 62
     7
 10
968.11833999999999
 20
690.89290700000004
 30
0.0
 11
979.93602799999996
 21
692.97667799999999
 31
0.0
  0
LINE
  5
74F
  8
0
 62
     7
 10
1062.11834
 20
690.89290700000004
 30
0.0
 11
1050.3006519999999
 21
692.97667799999999
 31
0.0
  0
LINE
  5
750
  8
0
 62
     7
 10
1062.11834
 20
690.89290700000004
 30
0.0
 11
1050.3006519999999
 21
688.80913599999997
 31
0.0
  0
LINE
  5
751
  8
0
 62
     7
 10
968.11833999999999
 20
690.89290700000004
 30
0.0
 11
1062.11834
 21
690.89290700000004
 31
0.0
  0
LINE
  5
752
  8
0
 62
     7
 10
1062.11834
 20
698.89290700000004
 30
0.0
 11
1062.11834
 21
648.94857100000002
 31
0.0
  0
LINE
  5
753
  8
0
 62
     7
 10
1000.188225
 20
657.44857100000002
 30
0.0
 11
1002.2719959999999
 21
669.26625899999999
 31
0.0
  0
LINE
  5
754
  8
0
 62
     7
 10
1000.188225
 20
657.44857100000002
 30
0.0
 11
998.10442400000011
 21
669.26625899999999
 31
0.0
  0
LINE
  5
755
  8
0
 62
     7
 10
1000.188225
 20
641.44857100000002
 30
0.0
 11
998.10445399999992
 21
629.63088300000004
 31
0.0
  0
LINE
  5
756
  8
0
 62
     7
 10
1000.188225
 20
641.44857100000002
 30
0.0
 11
1002.2719959999999
 21
629.63088300000004
 31
0.0
  0
LINE
  5
757
  8
0
 62
     7
 10
1000.188225
 20
660.78963499999986
 30
0.0
 11
1000.188225
 21
638.78963499999998
 31
0.0
  0
LINE
  5
758
  8
0
 62
     7
 10
992.18822499999987
 20
657.44857100000002
 30
0.0
 11
1031.11834
 21
657.44857100000002
 31
0.0
  0
LINE
  5
759
  8
0
 62
     7
 10
992.18822499999987
 20
641.44857100000002
 30
0.0
 11
1031.11834
 21
641.44857100000002
 31
0.0
  0
LINE
  5
75A
  8
0
 62
     7
 10
1162.781334
 20
747.69857100000002
 30
0.0
 11
1160.6975629999999
 21
735.88088300000004
 31
0.0
  0
LINE
  5
75B
  8
0
 62
     7
 10
1162.781334
 20
747.69857100000002
 30
0.0
 11
1164.865119999999
 21
735.88088300000004
 31
0.0
  0
LINE
  5
75C
  8
0
 62
     7
 10
1162.781334
 20
605.69857100000002
 30
0.0
 11
1164.8651050000001
 21
617.51625899999999
 31
0.0
  0
LINE
  5
75D
  8
0
 62
     7
 10
1162.781334
 20
605.69857100000002
 30
0.0
 11
1160.6975480000001
 21
617.51625899999999
 31
0.0
  0
LINE
  5
75E
  8
0
 62
     7
 10
1162.781334
 20
747.69857100000002
 30
0.0
 11
1162.781334
 21
605.69857100000002
 31
0.0
  0
LINE
  5
75F
  8
0
 62
     7
 10
1170.7813339999991
 20
747.69857100000002
 30
0.0
 11
930.61833999999999
 21
747.69857100000002
 31
0.0
  0
LINE
  5
760
  8
0
 62
     7
 10
1170.7813339999991
 20
605.69857100000002
 30
0.0
 11
1055.61834
 21
605.69857100000002
 31
0.0
  0
LINE
  5
761
  8
0
 62
     7
 10
860.26741800000013
 20
739.69857100000002
 30
0.0
 11
858.18364699999995
 21
727.88088300000004
 31
0.0
  0
LINE
  5
762
  8
0
 62
     7
 10
860.26741800000013
 20
739.69857100000002
 30
0.0
 11
862.3512189999999
 21
727.88088300000004
 31
0.0
  0
LINE
  5
763
  8
0
 62
     7
 10
860.26741800000013
 20
613.69857100000002
 30
0.0
 11
862.3512189999999
 21
625.51625899999999
 31
0.0
  0
LINE
  5
764
  8
0
 62
     7
 10
860.26741800000013
 20
613.69857100000002
 30
0.0
 11
858.18364699999995
 21
625.51625899999999
 31
0.0
  0
LINE
  5
765
  8
0
 62
     7
 10
860.26741800000013
 20
739.69857100000002
 30
0.0
 11
860.26741800000013
 21
613.69857100000002
 31
0.0
  0
LINE
  5
766
  8
0
 62
     7
 10
852.26741800000002
 20
739.69857100000002
 30
0.0
 11
896.11833999999988
 21
739.69857100000002
 31
0.0
  0
LINE
  5
767
  8
0
 62
     7
 10
852.26741800000002
 20
613.69857100000002
 30
0.0
 11
896.11833999999988
 21
613.69857100000002
 31
0.0
  0
LINE
  5
768
  8
0
 62
     7
 10
1137.4937970000001
 20
747.69857100000002
 30
0.0
 11
1135.4100269999999
 21
735.88088300000004
 31
0.0
  0
LINE
  5
769
  8
0
 62
     7
 10
1137.4937970000001
 20
747.69857100000002
 30
0.0
 11
1139.577583
 21
735.88088300000004
 31
0.0
  0
LINE
  5
76A
  8
0
 62
     7
 10
1137.4937970000001
 20
676.69857100000002
 30
0.0
 11
1139.577567999999
 21
688.51625899999999
 31
0.0
  0
LINE
  5
76B
  8
0
 62
     7
 10
1137.4937970000001
 20
676.69857100000002
 30
0.0
 11
1135.4100109999999
 21
688.51625899999999
 31
0.0
  0
LINE
  5
76C
  8
0
 62
     7
 10
1137.4937970000001
 20
676.69857100000002
 30
0.0
 11
1135.4100269999999
 21
664.88088300000004
 31
0.0
  0
LINE
  5
76D
  8
0
 62
     7
 10
1137.4937970000001
 20
676.69857100000002
 30
0.0
 11
1139.577583
 21
664.88088300000004
 31
0.0
  0
LINE
  5
76E
  8
0
 62
     7
 10
1137.4937970000001
 20
605.69857100000002
 30
0.0
 11
1139.577567999999
 21
617.51625899999999
 31
0.0
  0
LINE
  5
76F
  8
0
 62
     7
 10
1137.4937970000001
 20
605.69857100000002
 30
0.0
 11
1135.4100109999999
 21
617.51625899999999
 31
0.0
  0
LINE
  5
770
  8
0
 62
     7
 10
1137.4937970000001
 20
747.69857100000002
 30
0.0
 11
1137.4937970000001
 21
605.69857100000002
 31
0.0
  0
LINE
  5
771
  8
0
 62
     7
 10
1145.4937970000001
 20
747.69857100000002
 30
0.0
 11
1055.61834
 21
747.69857100000002
 31
0.0
  0
LINE
  5
772
  8
0
 62
     7
 10
1145.4937970000001
 20
676.69857100000002
 30
0.0
 11
1055.61834
 21
676.69857100000002
 31
0.0
  0
LINE
  5
773
  8
0
 62
     7
 10
1145.4937970000001
 20
605.69857100000002
 30
0.0
 11
1055.61834
 21
605.69857100000002
 31
0.0
  0
LINE
  5
774
  8
0
 62
     7
 10
1116.8891369999999
 20
676.69857100000002
 30
0.0
 11
1118.9729079999991
 21
688.51625899999999
 31
0.0
  0
LINE
  5
775
  8
0
 62
     7
 10
1116.8891369999999
 20
676.69857100000002
 30
0.0
 11
1114.8053509999991
 21
688.51625899999999
 31
0.0
  0
LINE
  5
776
  8
0
 62
     7
 10
1116.8891369999999
 20
649.44857100000002
 30
0.0
 11
1114.805366999999
 21
637.63088300000004
 31
0.0
  0
LINE
  5
777
  8
0
 62
     7
 10
1116.8891369999999
 20
649.44857100000002
 30
0.0
 11
1118.972923
 21
637.63088300000004
 31
0.0
  0
LINE
  5
778
  8
0
 62
     7
 10
1116.8891369999999
 20
743.69857100000002
 30
0.0
 11
1116.8891369999999
 21
649.44857100000002
 31
0.0
  0
LINE
  5
779
  8
0
 62
     7
 10
1124.8891369999999
 20
676.69857100000002
 30
0.0
 11
1080.0892559999991
 21
676.69857100000002
 31
0.0
  0
LINE
  5
77A
  8
0
 62
     7
 10
1124.8891369999999
 20
649.44857100000002
 30
0.0
 11
1069.13958
 21
649.44857100000002
 31
0.0
  0
LINE
  5
77B
  8
0
 62
     7
 10
945.61833999999999
 20
788.12880800000005
 30
0.0
 11
933.80065199999979
 21
790.21257900000001
 31
0.0
  0
LINE
  5
77C
  8
0
 62
     7
 10
945.61833999999999
 20
788.12880800000005
 30
0.0
 11
933.80065199999979
 21
786.04500700000006
 31
0.0
  0
LINE
  5
77D
  8
0
 62
     7
 10
990.61833999999988
 20
788.12880800000005
 30
0.0
 11
1002.4360279999991
 21
786.04503699999987
 31
0.0
  0
LINE
  5
77E
  8
0
 62
     7
 10
990.61833999999988
 20
788.12880800000005
 30
0.0
 11
1002.4360279999991
 21
790.21257900000001
 31
0.0
  0
LINE
  5
77F
  8
0
 62
     7
 10
911.61833999999999
 20
788.12880800000005
 30
0.0
 11
990.61833999999988
 21
788.12880800000005
 31
0.0
  0
LINE
  5
780
  8
0
 62
     7
 10
945.61833999999999
 20
796.12880800000005
 30
0.0
 11
945.61833999999999
 21
755.87856399999987
 31
0.0
  0
LINE
  5
781
  8
0
 62
     7
 10
990.61833999999988
 20
796.12880800000005
 30
0.0
 11
990.61833999999988
 21
755.87856399999987
 31
0.0
  0
LINE
  5
782
  8
0
 62
     7
 10
834.51161999999988
 20
749.19857100000002
 30
0.0
 11
832.427818
 21
737.38088300000004
 31
0.0
  0
LINE
  5
783
  8
0
 62
     7
 10
834.51161999999988
 20
749.19857100000002
 30
0.0
 11
836.59535999999991
 21
737.38088300000004
 31
0.0
  0
LINE
  5
784
  8
0
 62
     7
 10
834.51161999999988
 20
676.69857100000002
 30
0.0
 11
836.59535999999991
 21
688.51625899999999
 31
0.0
  0
LINE
  5
785
  8
0
 62
     7
 10
834.51161999999988
 20
676.69857100000002
 30
0.0
 11
832.427818
 21
688.51625899999999
 31
0.0
  0
LINE
  5
786
  8
0
 62
     7
 10
834.51161999999988
 20
749.19857100000002
 30
0.0
 11
834.51161999999988
 21
676.69857100000002
 31
0.0
  0
LINE
  5
787
  8
0
 62
     7
 10
826.51161999999988
 20
749.19857100000002
 30
0.0
 11
938.93834700000002
 21
749.19857100000002
 31
0.0
  0
LINE
  5
788
  8
0
 62
     7
 10
826.51161999999988
 20
676.69857100000002
 30
0.0
 11
858.27544399999999
 21
676.69857100000002
 31
0.0
  0
LINE
  5
789
  8
0
 62
     7
 10
968.11833999999999
 20
516.37970800000005
 30
0.0
 11
956.30065200000001
 21
518.46347900000001
 31
0.0
  0
LINE
  5
78A
  8
0
 62
     7
 10
968.11833999999999
 20
516.37970800000005
 30
0.0
 11
956.30065200000001
 21
514.29592200000002
 31
0.0
  0
LINE
  5
78B
  8
0
 62
     7
 10
1080.8389209999989
 20
516.37970800000005
 30
0.0
 11
1092.6566089999999
 21
514.29593699999987
 31
0.0
  0
LINE
  5
78C
  8
0
 62
     7
 10
1080.8389209999989
 20
516.37970800000005
 30
0.0
 11
1092.6566089999999
 21
518.46349400000008
 31
0.0
  0
LINE
  5
78D
  8
0
 62
     7
 10
968.11833999999999
 20
516.37970800000005
 30
0.0
 11
1080.8389209999989
 21
516.37970800000005
 31
0.0
  0
LINE
  5
78E
  8
0
 62
     7
 10
968.11833999999999
 20
508.37970799999999
 30
0.0
 11
968.11833999999999
 21
584.11785199999986
 31
0.0
  0
LINE
  5
78F
  8
0
 62
     7
 10
1080.8389209999989
 20
508.37970799999999
 30
0.0
 11
1080.8389209999989
 21
542.86803499999985
 31
0.0
  0
POINT
  5
790
  8
0
 62
     7
 10
849.5625501286122
 20
821.40996227672213
 30
0.0
  0
POINT
  5
791
  8
0
 62
     7
 10
849.5625501286122
 20
817.40996227672201
 30
0.0
  0
LINE
  5
792
  8
0
 62
     7
 10
851.56255012861209
 20
831.36822327672201
 30
0.0
 11
851.56255012861209
 21
807.45170227672213
 31
0.0
  0
LINE
  5
793
  8
0
 62
     7
 10
849.5625501286122
 20
831.36822327672201
 30
0.0
 11
849.5625501286122
 21
807.45170227672213
 31
0.0
  0
LINE
  5
794
  8
0
  6
DASHDOT
 62
     7
 10
846.35994712861213
 20
819.40996227672224
 30
0.0
 11
854.78616712861219
 21
819.40996227672224
 31
0.0
  0
LINE
  5
795
  8
0
 62
     7
 10
851.56255012861209
 20
823.08816227672219
 30
0.0
 11
849.5625501286122
 21
821.40996227672213
 31
0.0
  0
LINE
  5
796
  8
0
 62
     7
 10
849.5625501286122
 20
817.40996227672201
 30
0.0
 11
851.56255012861209
 21
815.73176327672218
 31
0.0
  0
LINE
  5
797
  8
0
 62
     7
 10
849.5625501286122
 20
809.90996227672213
 30
0.0
 11
851.56255012861209
 21
809.90996227672213
 31
0.0
  0
CIRCLE
  5
798
  8
0
 62
     7
 10
850.5625501286122
 20
819.40996227672224
 30
0.0
 40
12.0
  0
LINE
  5
799
  8
0
 62
     7
 10
843.56255812861207
 20
814.90996227672201
 30
0.0
 11
846.06255812861207
 21
814.90996227672201
 31
0.0
  0
LINE
  5
79A
  8
0
 62
     7
 10
847.06255812861207
 20
823.90996227672224
 30
0.0
 11
847.06255812861207
 21
815.90996227672224
 31
0.0
  0
LINE
  5
79B
  8
0
 62
     7
 10
847.06255812861207
 20
823.90996227672224
 30
0.0
 11
849.5625501286122
 21
823.90996227672224
 31
0.0
  0
LINE
  5
79C
  8
0
 62
     7
 10
843.56255812861207
 20
812.40996227672213
 30
0.0
 11
846.06255812861207
 21
812.40996227672213
 31
0.0
  0
LINE
  5
79D
  8
0
 62
     7
 10
842.56255812861207
 20
811.40996227672224
 30
0.0
 11
842.56255812861207
 21
810.46568427672207
 31
0.0
  0
ARC
  5
79E
  8
0
 62
     7
 10
846.06256212861206
 20
815.90996227672224
 30
0.0
 40
0.9999969999999999
 50
269.99984599999988
 51
0.0002549999999957
  0
ARC
  5
79F
  8
0
 62
     7
 10
843.56257312861226
 20
811.40995027672216
 30
0.0
 40
3.500017999999999
 50
90.000182999999979
 51
153.40876399999991
  0
ARC
  5
7A0
  8
0
 62
     7
 10
843.56251412861218
 20
811.41000327672225
 30
0.0
 40
0.9999499999999999
 50
89.997765000000044
 51
180.0011749999999
  0
ARC
  5
7A1
  8
0
 62
     7
 10
846.06257812861224
 20
815.90993027672221
 30
0.0
 40
3.4999709999999991
 50
269.9996549999999
 51
0.0004190000000559
  0
LINE
  5
7A2
  8
0
 62
     7
 10
830.11687212861204
 20
821.40996227672213
 30
0.0
 11
830.6378371286122
 21
824.36438427672215
 31
0.0
  0
LINE
  5
7A3
  8
0
 62
     7
 10
830.11687212861204
 20
821.40996227672213
 30
0.0
 11
829.59593712861215
 21
824.36438427672215
 31
0.0
  0
LINE
  5
7A4
  8
0
 62
     7
 10
830.11687212861204
 20
817.40996227672201
 30
0.0
 11
829.59593712861215
 21
814.45554027672199
 31
0.0
  0
LINE
  5
7A5
  8
0
 62
     7
 10
830.11687212861204
 20
817.40996227672201
 30
0.0
 11
830.6378371286122
 21
814.45554027672199
 31
0.0
  0
LINE
  5
7A6
  8
0
 62
     7
 10
830.11687212861204
 20
830.82002727672204
 30
0.0
 11
830.11687212861204
 21
817.40996227672201
 31
0.0
  0
LINE
  5
7A7
  8
0
 62
     7
 10
828.11687212861204
 20
821.40996227672213
 30
0.0
 11
849.5625501286122
 21
821.40996227672213
 31
0.0
  0
LINE
  5
7A8
  8
0
 62
     7
 10
828.11687212861204
 20
817.40996227672201
 30
0.0
 11
849.5625501286122
 21
817.40996227672201
 31
0.0
  0
LINE
  5
7A9
  8
0
 62
     7
 10
863.47301212861214
 20
805.7376912767221
 30
0.0
 11
865.7711691286122
 21
807.6660512767221
 31
0.0
  0
LINE
  5
7AA
  8
0
 62
     7
 10
863.47301212861214
 20
805.7376912767221
 30
0.0
 11
864.97301212861225
 21
808.33576727672221
 31
0.0
  0
LINE
  5
7AB
  8
0
 62
     7
 10
863.47301212861214
 20
833.08223427672215
 30
0.0
 11
864.97301212861225
 21
830.48415827672204
 31
0.0
  0
LINE
  5
7AC
  8
0
 62
     7
 10
863.47301212861214
 20
833.08223427672215
 30
0.0
 11
865.7711691286122
 21
831.15387427672215
 31
0.0
  0
POLYLINE
  5
7AD
  8
0
 62
     7
 66
     1
 10
0.0
 20
0.0
 30
0.0
  0
VERTEX
  5
C27
  8
0
 62
     7
 10
863.47301212861214
 20
805.7376912767221
 30
0.0
  0
VERTEX
  5
C28
  8
0
 62
     7
 10
864.95009312861214
 20
807.7217532767221
 30
0.0
  0
VERTEX
  5
C29
  8
0
 62
     7
 10
866.18684912861215
 20
809.86388127672205
 30
0.0
  0
VERTEX
  5
C2A
  8
0
 62
     7
 10
867.16655412861223
 20
812.13509827672215
 30
0.0
  0
VERTEX
  5
C2B
  8
0
 62
     7
 10
867.87596612861216
 20
814.50469727672225
 30
0.0
  0
VERTEX
  5
C2C
  8
0
 62
     7
 10
868.30550112861215
 20
816.94063327672222
 30
0.0
  0
VERTEX
  5
C2D
  8
0
 62
     7
 10
868.44930012861232
 20
819.40996227672224
 30
0.0
  0
VERTEX
  5
C2E
  8
0
 62
     7
 10
868.30550112861215
 20
821.87929227672225
 30
0.0
  0
VERTEX
  5
C2F
  8
0
 62
     7
 10
867.87596612861216
 20
824.31522827672211
 30
0.0
  0
VERTEX
  5
C30
  8
0
 62
     7
 10
867.16655412861223
 20
826.6848272767221
 30
0.0
  0
VERTEX
  5
C31
  8
0
 62
     7
 10
866.18684912861215
 20
828.95604427672208
 30
0.0
  0
VERTEX
  5
C32
  8
0
 62
     7
 10
864.95009312861214
 20
831.09817227672215
 30
0.0
  0
VERTEX
  5
C33
  8
0
 62
     7
 10
863.47301212861214
 20
833.08223427672215
 30
0.0
  0
SEQEND
  5
C34
  8
0
 62
     7
  0
LINE
  5
7BC
  8
0
 62
     7
 10
865.00511612861214
 20
804.45211527672222
 30
0.0
 11
851.78313112861235
 21
815.54668127672221
 31
0.0
  0
LINE
  5
7BD
  8
0
 62
     7
 10
865.00511612861214
 20
834.36781027672214
 30
0.0
 11
851.78313112861235
 21
823.27324427672215
 31
0.0
  0
INSERT
  5
A2B
  8
0
  2
BLOCK0
 10
31.156615999999989
 20
303.068916
 30
0.0
 50
180.0
  0
INSERT
  5
A2C
  8
0
  2
BLOCK1
 10
31.156615999999989
 20
303.068916
 30
0.0
 50
180.0
  0
INSERT
  5
A2D
  8
0
  2
BLOCK2
 10
31.156615999999989
 20
303.068916
 30
0.0
 50
180.0
  0
INSERT
  5
A2E
  8
0
  2
BLOCK3
 10
31.156615999999989
 20
303.068916
 30
0.0
 50
180.0
  0
INSERT
  5
A2F
  8
0
  2
BLOCK4
 10
31.156615999999989
 20
303.068916
 30
0.0
 50
180.0
  0
INSERT
  5
A30
  8
0
  2
BLOCK5
 10
31.156615999999989
 20
303.068916
 30
0.0
 50
180.0
  0
INSERT
  5
A31
  8
0
  2
BLOCK6
 10
31.156615999999989
 20
303.068916
 30
0.0
 50
180.0
  0
INSERT
  5
A32
  8
0
  2
BLOCK7
 10
31.156615999999989
 20
303.068916
 30
0.0
 50
180.0
  0
INSERT
  5
A33
  8
0
  2
BLOCK8
 10
31.156615999999989
 20
303.068916
 30
0.0
 50
180.0
  0
INSERT
  5
A34
  8
0
  2
BLOCK9
 10
189.6379389999999
 20
566.21176300000002
 30
0.0
 50
90.0
  0
INSERT
  5
A35
  8
0
  2
BLOCK10
 10
189.6379389999999
 20
566.21176300000002
 30
0.0
 50
90.0
  0
INSERT
  5
A36
  8
0
  2
BLOCK11
 10
189.6379389999999
 20
566.21176300000002
 30
0.0
 50
90.0
  0
INSERT
  5
A37
  8
0
  2
BLOCK12
 10
189.6379389999999
 20
566.21176300000002
 30
0.0
 50
90.0
  0
INSERT
  5
A38
  8
0
  2
BLOCK13
 10
189.6379389999999
 20
566.21176300000002
 30
0.0
 50
90.0
  0
INSERT
  5
A39
  8
0
  2
BLOCK14
 10
189.6379389999999
 20
566.21176300000002
 30
0.0
 50
90.0
  0
INSERT
  5
A3A
  8
0
  2
BLOCK15
 10
189.6379389999999
 20
566.21176300000002
 30
0.0
 50
90.0
  0
INSERT
  5
A3B
  8
0
  2
BLOCK16
 10
189.6379389999999
 20
566.21176300000002
 30
0.0
 50
90.0
  0
INSERT
  5
A3C
  8
0
  2
BLOCK17
 10
189.6379389999999
 20
566.21176300000002
 30
0.0
 50
90.0
  0
INSERT
  5
A3D
  8
0
  2
BLOCK18
 10
189.6379389999999
 20
566.21176300000002
 30
0.0
 50
90.0
  0
INSERT
  5
A3E
  8
0
  2
BLOCK19
 10
189.6379389999999
 20
566.21176300000002
 30
0.0
 50
90.0
  0
INSERT
  5
A3F
  8
0
  2
BLOCK20
 10
189.6379389999999
 20
566.21176300000002
 30
0.0
 50
90.0
  0
INSERT
  5
A40
  8
0
  2
BLOCK21
 10
-135.35785799999999
 20
566.71150999999998
 30
0.0
 50
90.0
  0
INSERT
  5
A41
  8
0
  2
BLOCK22
 10
-135.35785799999999
 20
566.71150999999998
 30
0.0
 50
90.0
  0
INSERT
  5
A42
  8
0
  2
BLOCK23
 10
-135.35785799999999
 20
566.71150999999998
 30
0.0
 50
90.0
  0
INSERT
  5
A43
  8
0
  2
BLOCK24
 10
-135.35785799999999
 20
566.71150999999998
 30
0.0
 50
90.0
  0
INSERT
  5
A44
  8
0
  2
BLOCK25
 10
-135.35785799999999
 20
566.71150999999998
 30
0.0
 50
90.0
  0
INSERT
  5
A45
  8
0
  2
BLOCK26
 10
-135.35785799999999
 20
566.71150999999998
 30
0.0
 50
90.0
  0
INSERT
  5
A46
  8
0
  2
BLOCK27
 10
-135.35785799999999
 20
566.71150999999998
 30
0.0
 50
90.0
  0
INSERT
  5
A47
  8
0
  2
BLOCK28
 10
-135.35785799999999
 20
566.71150999999998
 30
0.0
 50
90.0
  0
INSERT
  5
A48
  8
0
  2
BLOCK29
 10
-135.35785799999999
 20
566.71150999999998
 30
0.0
 50
90.0
  0
INSERT
  5
A49
  8
0
  2
BLOCK30
 10
-135.35785799999999
 20
566.71150999999998
 30
0.0
 50
90.0
  0
INSERT
  5
A4A
  8
0
  2
BLOCK31
 10
-135.35785799999999
 20
566.71150999999998
 30
0.0
 50
90.0
  0
INSERT
  5
A4B
  8
0
  2
BLOCK32
 10
-135.35785799999999
 20
566.71150999999998
 30
0.0
 50
90.0
  0
INSERT
  5
A4C
  8
0
  2
BLOCK33
 10
-135.35785799999999
 20
566.71150999999998
 30
0.0
 50
90.0
  0
INSERT
  5
A4D
  8
0
  2
BLOCK34
 10
-135.35785799999999
 20
566.71150999999998
 30
0.0
 50
90.0
  0
INSERT
  5
A4E
  8
0
  2
BLOCK35
 10
-135.35785799999999
 20
566.71150999999998
 30
0.0
 50
90.0
  0
INSERT
  5
A4F
  8
0
  2
BLOCK36
 10
-135.35785799999999
 20
566.71150999999998
 30
0.0
 50
90.0
  0
INSERT
  5
A50
  8
0
  2
BLOCK37
 10
-135.35785799999999
 20
566.71150999999998
 30
0.0
 50
90.0
  0
INSERT
  5
A51
  8
0
  2
BLOCK38
 10
-135.35785799999999
 20
566.71150999999998
 30
0.0
 50
90.0
  0
INSERT
  5
A52
  8
0
  2
BLOCK39
 10
-135.35785799999999
 20
566.71150999999998
 30
0.0
 50
90.0
  0
INSERT
  5
A53
  8
0
  2
BLOCK40
 10
-135.35785799999999
 20
566.71150999999998
 30
0.0
 50
90.0
  0
INSERT
  5
A54
  8
0
  2
BLOCK41
 10
-135.35785799999999
 20
566.71150999999998
 30
0.0
 50
90.0
  0
INSERT
  5
A55
  8
0
  2
BLOCK42
 10
-135.35785799999999
 20
566.71150999999998
 30
0.0
 50
90.0
  0
INSERT
  5
A56
  8
0
  2
BLOCK43
 10
-135.35785799999999
 20
566.71150999999998
 30
0.0
 50
90.0
  0
INSERT
  5
A57
  8
0
  2
BLOCK44
 10
-135.35785799999999
 20
566.71150999999998
 30
0.0
 50
90.0
  0
INSERT
  5
A58
  8
0
  2
BLOCK45
 10
-135.35785799999999
 20
566.71150999999998
 30
0.0
 50
90.0
  0
INSERT
  5
A59
  8
0
  2
BLOCK46
 10
-135.35785799999999
 20
566.71150999999998
 30
0.0
 50
90.0
  0
INSERT
  5
A5A
  8
0
  2
BLOCK47
 10
625.71796200000006
 20
678.94857100000002
 30
0.0
 50
180.0
  0
INSERT
  5
A5B
  8
0
  2
BLOCK48
 10
625.71796200000006
 20
678.94857100000002
 30
0.0
 50
180.0
  0
INSERT
  5
A5C
  8
0
  2
BLOCK49
 10
625.71796200000006
 20
678.94857100000002
 30
0.0
 50
180.0
  0
INSERT
  5
A5D
  8
0
  2
BLOCK50
 10
625.71796200000006
 20
678.94857100000002
 30
0.0
 50
180.0
  0
INSERT
  5
A5E
  8
0
  2
BLOCK51
 10
625.71796200000006
 20
678.94857100000002
 30
0.0
 50
180.0
  0
INSERT
  5
A5F
  8
0
  2
BLOCK52
 10
625.71796200000006
 20
678.94857100000002
 30
0.0
 50
180.0
  0
INSERT
  5
A60
  8
0
  2
BLOCK53
 10
625.71796200000006
 20
678.94857100000002
 30
0.0
 50
180.0
  0
INSERT
  5
A61
  8
0
  2
BLOCK54
 10
625.71796200000006
 20
678.94857100000002
 30
0.0
 50
180.0
  0
INSERT
  5
A62
  8
0
  2
BLOCK55
 10
625.71796200000006
 20
678.94857100000002
 30
0.0
 50
180.0
  0
INSERT
  5
A63
  8
0
  2
BLOCK56
 10
625.71796200000006
 20
678.94857100000002
 30
0.0
 50
180.0
  0
INSERT
  5
A64
  8
0
  2
BLOCK57
 10
625.71796200000006
 20
678.94857100000002
 30
0.0
 50
180.0
  0
INSERT
  5
A65
  8
0
  2
BLOCK58
 10
625.71796200000006
 20
678.94857100000002
 30
0.0
 50
180.0
  0
INSERT
  5
A66
  8
0
  2
BLOCK59
 10
625.71796200000006
 20
678.94857100000002
 30
0.0
 50
180.0
  0
INSERT
  5
A67
  8
0
  2
BLOCK60
 10
625.71796200000006
 20
678.94857100000002
 30
0.0
 50
180.0
  0
INSERT
  5
A68
  8
0
  2
BLOCK61
 10
625.71796200000006
 20
678.94857100000002
 30
0.0
 50
180.0
  0
INSERT
  5
A69
  8
0
  2
BLOCK62
 10
625.71796200000006
 20
678.94857100000002
 30
0.0
 50
180.0
  0
INSERT
  5
A6A
  8
0
  2
BLOCK63
 10
625.71796200000006
 20
678.94857100000002
 30
0.0
 50
180.0
  0
INSERT
  5
A6B
  8
0
  2
BLOCK64
 10
189.6379409999999
 20
422.25582500000002
 30
0.0
 50
180.0
  0
INSERT
  5
A6C
  8
0
  2
BLOCK65
 10
189.6379409999999
 20
422.25582500000002
 30
0.0
 50
180.0
  0
INSERT
  5
A6D
  8
0
  2
BLOCK66
 10
189.6379409999999
 20
422.25582500000002
 30
0.0
 50
180.0
  0
INSERT
  5
A6E
  8
0
  2
BLOCK67
 10
189.6379409999999
 20
422.25582500000002
 30
0.0
 50
180.0
  0
INSERT
  5
A6F
  8
0
  2
BLOCK68
 10
189.6379409999999
 20
422.25582500000002
 30
0.0
 50
180.0
  0
INSERT
  5
A70
  8
0
  2
BLOCK69
 10
189.6379409999999
 20
422.25582500000002
 30
0.0
 50
180.0
  0
INSERT
  5
A71
  8
0
  2
BLOCK70
 10
968.11833999999999
 20
678.94857100000002
 30
0.0
 50
270.0
  0
INSERT
  5
A72
  8
0
  2
BLOCK71
 10
968.11833999999999
 20
678.94857100000002
 30
0.0
 50
270.0
  0
INSERT
  5
A73
  8
0
  2
BLOCK72
 10
968.11833999999999
 20
678.94857100000002
 30
0.0
 50
270.0
  0
INSERT
  5
A74
  8
0
  2
BLOCK73
 10
968.11833999999999
 20
678.94857100000002
 30
0.0
 50
270.0
  0
INSERT
  5
A75
  8
0
  2
BLOCK74
 10
968.11833999999999
 20
678.94857100000002
 30
0.0
 50
270.0
  0
INSERT
  5
A76
  8
0
  2
BLOCK75
 10
968.11833999999999
 20
678.94857100000002
 30
0.0
 50
270.0
  0
INSERT
  5
A77
  8
0
  2
BLOCK76
 10
968.11833999999999
 20
678.94857100000002
 30
0.0
 50
270.0
  0
INSERT
  5
A78
  8
0
  2
BLOCK77
 10
968.11833999999999
 20
678.94857100000002
 30
0.0
 50
270.0
  0
INSERT
  5
A79
  8
0
  2
BLOCK78
 10
968.11833999999999
 20
678.94857100000002
 30
0.0
 50
270.0
  0
INSERT
  5
A7A
  8
0
  2
BLOCK79
 10
968.11833999999999
 20
678.94857100000002
 30
0.0
 50
270.0
  0
INSERT
  5
A7B
  8
0
  2
BLOCK80
 10
968.11833999999999
 20
678.94857100000002
 30
0.0
 50
270.0
  0
INSERT
  5
A7C
  8
0
  2
BLOCK81
 10
968.11833999999999
 20
678.94857100000002
 30
0.0
 50
270.0
  0
INSERT
  5
A7D
  8
0
  2
BLOCK82
 10
968.11833999999999
 20
678.94857100000002
 30
0.0
 50
270.0
  0
INSERT
  5
A7E
  8
0
  2
BLOCK83
 10
968.11833999999999
 20
678.94857100000002
 30
0.0
 50
270.0
  0
INSERT
  5
A80
  8
0
  2
BLOCK85
 10
968.11833999999999
 20
678.94857100000002
 30
0.0
 50
270.0
  0
INSERT
  5
A81
  8
0
  2
BLOCK86
 10
968.11833999999999
 20
678.94857100000002
 30
0.0
 50
270.0
  0
INSERT
  5
A82
  8
0
  2
BLOCK87
 10
968.11833999999999
 20
678.94857100000002
 30
0.0
 50
270.0
  0
INSERT
  5
A83
  8
0
  2
BLOCK88
 10
968.11833999999999
 20
678.94857100000002
 30
0.0
 50
270.0
  0
INSERT
  5
A84
  8
0
  2
BLOCK89
 10
968.11833999999999
 20
678.94857100000002
 30
0.0
 50
270.0
  0
INSERT
  5
A85
  8
0
  2
BLOCK90
 10
968.11833999999999
 20
678.94857100000002
 30
0.0
 50
270.0
  0
INSERT
  5
A86
  8
0
  2
BLOCK91
 10
850.5625501286122
 20
819.40996227672224
 30
0.0
 50
270.0
  0
INSERT
  5
A87
  8
0
  2
BLOCK92
 10
850.5625501286122
 20
819.40996227672224
 30
0.0
 50
270.0
  0
INSERT
  5
A88
  8
0
  2
BLOCK93
 10
850.5625501286122
 20
819.40996227672224
 30
0.0
 50
270.0
  0
INSERT
  5
A89
  8
0
  2
BLOCK94
 10
850.5625501286122
 20
819.40996227672224
 30
0.0
 50
270.0
  0
INSERT
  5
A8A
  8
0
  2
BLOCK95
 10
850.5625501286122
 20
819.40996227672224
 30
0.0
 50
270.0
  0
VIEWPORT
  5
7BE
 67
     1
  8
0
 62
     0
 10
0.0
 20
0.0
 30
0.0
 40
1000.0
 41
1000.0
 68
     1
 69
     1
1001
ACAD
1000
MVIEW
1002
{
1070
    16
1010
0.0
1020
0.0
1030
0.0
1010
0.0
1020
0.0
1030
1.0
1040
0.0
1040
1000.0
1040
0.0
1040
0.0
1040
50.0
1040
0.0
1040
0.0
1070
     0
1070
   100
1070
     1
1070
     1
1070
     0
1070
     0
1070
     0
1070
     0
1040
0.0
1040
0.0
1040
0.0
1040
1.0
1040
1.0
1040
1.0
1040
1.0
1070
     0
1002
{
1002
}
1002
}
  0
ENDSEC
  0
EOF
