  0
SECTION
  2
HEADER
  9
$ACADVER
  1
AC1009
  9
$DWGCODEPAGE
  3
iso8859-1
  9
$INSBASE
 10
0.0
 20
0.0
 30
0.0
  9
$EXTMIN
 10
1.0E20
 20
1.0E20
  9
$EXTMAX
 10
-1.0E20
 20
-1.0E20
  9
$LIMMIN
 10
0.0
 20
0.0
  9
$LIMMAX
 10
12.0
 20
9.0
  9
$ORTHOMODE
 70
     0
  9
$REGENMODE
 70
     1
  9
$FILLMODE
 70
     1
  9
$QTEXTMODE
 70
     0
  9
$MIRRTEXT
 70
     1
  9
$DRAGMODE
 70
     2
  9
$LTSCALE
 40
15.0
  9
$OSMODE
 70
     0
  9
$ATTMODE
 70
     1
  9
$TEXTSIZE
 40
0.2
  9
$TRACEWID
 40
0.05
  9
$TEXTSTYLE
  7
STANDARD
  9
$CLAYER
  8
0
  9
$CELTYPE
  6
DASHED
  9
$CECOLOR
 62
   256
  9
$DIMSCALE
 40
1.0
  9
$DIMASZ
 40
0.18
  9
$DIMEXO
 40
0.0625
  9
$DIMDLI
 40
0.38
  9
$DIMRND
 40
0.0
  9
$DIMDLE
 40
0.0
  9
$DIMEXE
 40
0.18
  9
$DIMTP
 40
0.0
  9
$DIMTM
 40
0.0
  9
$DIMTXT
 40
0.18
  9
$DIMCEN
 40
0.09
  9
$DIMTSZ
 40
0.0
  9
$DIMTOL
 70
     0
  9
$DIMLIM
 70
     0
  9
$DIMTIH
 70
     1
  9
$DIMTOH
 70
     1
  9
$DIMSE1
 70
     0
  9
$DIMSE2
 70
     0
  9
$DIMTAD
 70
     0
  9
$DIMZIN
 70
     0
  9
$DIMBLK
  1

  9
$DIMASO
 70
     1
  9
$DIMSHO
 70
     1
  9
$DIMPOST
  1

  9
$DIMAPOST
  1

  9
$DIMALT
 70
     0
  9
$DIMALTD
 70
     2
  9
$DIMALTF
 40
25.4
  9
$DIMLFAC
 40
1.0
  9
$DIMTOFL
 70
     0
  9
$DIMTVP
 40
0.0
  9
$DIMTIX
 70
     0
  9
$DIMSOXD
 70
     0
  9
$DIMSAH
 70
     0
  9
$DIMBLK1
  1

  9
$DIMBLK2
  1

  9
$DIMSTYLE
  2
STANDARD
  9
$DIMCLRD
 70
     0
  9
$DIMCLRE
 70
     0
  9
$DIMCLRT
 70
     0
  9
$DIMTFAC
 40
1.0
  9
$DIMGAP
 40
0.09
  9
$LUNITS
 70
     2
  9
$LUPREC
 70
     4
  9
$AXISMODE
 70
     0
  9
$AXISUNIT
 10
0.0
 20
0.0
  9
$SKETCHINC
 40
0.1
  9
$FILLETRAD
 40
0.0
  9
$AUNITS
 70
     0
  9
$AUPREC
 70
     0
  9
$MENU
  1
acad
  9
$ELEVATION
 40
0.0
  9
$PELEVATION
 40
0.0
  9
$THICKNESS
 40
0.0
  9
$LIMCHECK
 70
     0
  9
$BLIPMODE
 70
     1
  9
$CHAMFERA
 40
0.0
  9
$CHAMFERB
 40
0.0
  9
$SKPOLY
 70
     0
  9
$TDCREATE
 40
0.000000000
  9
$TDUPDATE
 40
0.000000000
  9
$TDINDWG
 40
0.0
  9
$TDUSRTIMER
 40
0.0
  9
$USRTIMER
 70
     1
  9
$ANGBASE
 50
0.0
  9
$ANGDIR
 70
     0
  9
$PDMODE
 70
     0
  9
$PDSIZE
 40
0.0
  9
$PLINEWID
 40
0.0
  9
$COORDS
 70
     1
  9
$SPLFRAME
 70
     0
  9
$SPLINETYPE
 70
     6
  9
$SPLINESEGS
 70
     8
  9
$ATTDIA
 70
     0
  9
$ATTREQ
 70
     1
  9
$HANDLING
 70
     1
  9
$HANDSEED
  5
   71F
  9
$SURFTAB1
 70
     6
  9
$SURFTAB2
 70
     6
  9
$SURFTYPE
 70
     6
  9
$SURFU
 70
     6
  9
$SURFV
 70
     6
  9
$UCSNAME
  2

  9
$UCSORG
 10
0.0
 20
0.0
 30
0.0
  9
$UCSXDIR
 10
1.0
 20
0.0
 30
0.0
  9
$UCSYDIR
 10
0.0
 20
1.0
 30
0.0
  9
$PUCSNAME
  2

  9
$PUCSORG
 10
0.0
 20
0.0
 30
0.0
  9
$PUCSXDIR
 10
1.0
 20
0.0
 30
0.0
  9
$PUCSYDIR
 10
0.0
 20
1.0
 30
0.0
  9
$USERI1
 70
     0
  9
$USERI2
 70
     0
  9
$USERI3
 70
     0
  9
$USERI4
 70
     0
  9
$USERI5
 70
     0
  9
$USERR1
 40
0.0
  9
$USERR2
 40
0.0
  9
$USERR3
 40
0.0
  9
$USERR4
 40
0.0
  9
$USERR5
 40
0.0
  9
$WORLDVIEW
 70
     1
  9
$SHADEDGE
 70
     3
  9
$SHADEDIF
 70
    70
  9
$TILEMODE
 70
     1
  9
$MAXACTVP
 70
    16
  9
$PINSBASE
 10
0.0
 20
0.0
 30
0.0
  9
$PLIMCHECK
 70
     0
  9
$PEXTMIN
 10
1.0E20
 20
1.0E20
 30
1.0E20
  9
$PEXTMAX
 10
-1.0E20
 20
-1.0E20
 30
-1.0E20
  9
$PLIMMIN
 10
0.0
 20
0.0
  9
$PLIMMAX
 10
12.0
 20
9.0
  9
$UNITMODE
 70
     0
  9
$VISRETAIN
 70
     0
  0
ENDSEC
  0
SECTION
  2
TABLES
  0
TABLE
  2
VPORT
 70
     1
  0
VPORT
  2
*ACTIVE
 70
     0
 10
0.0
 20
0.0
 11
1.0
 21
1.0
 12
6.801242
 22
4.5
 13
0.0
 23
0.0
 14
1.0
 24
1.0
 15
0.0
 25
0.0
 16
0.0
 26
0.0
 36
1.0
 17
0.0
 27
0.0
 37
0.0
 40
9.0
 41
1.511387
 42
50.0
 43
0.0
 44
0.0
 50
0.0
 51
0.0
 71
     0
 72
   100
 73
     1
 74
     1
 75
     0
 76
     0
 77
     0
 78
     0
  0
ENDTAB
  0
TABLE
  2
LTYPE
 70
    41
  0
LTYPE
  2
BYBLOCK
 70
     0
  3

 72
    65
 73
     0
 40
0.0
  0
LTYPE
  2
BYLAYER
 70
     0
  3

 72
    65
 73
     0
 40
0.0
  0
LTYPE
  2
CONTINUOUS
 70
     0
  3
Solid line
 72
    65
 73
     0
 40
0.0
  0
LTYPE
  2
BORDER
 70
    64
  3
__ __ . __ __ . __ __ . __ __ . __ __ . __ __ .
 72
    65
 73
     6
 40
1.75
 49
0.5
 49
-0.25
 49
0.5
 49
-0.25
 49
0.0
 49
-0.25
  0
LTYPE
  2
BORDER2
 70
    64
  3
__.__.__.__.__.__.__.__.__.__.__.__.__.__.__.__
 72
    65
 73
     6
 40
0.875
 49
0.25
 49
-0.125
 49
0.25
 49
-0.125
 49
0.0
 49
-0.125
  0
LTYPE
  2
BORDERX2
 70
    64
  3
____  ____  .  ____  ____  .  ____  ____  .  __
 72
    65
 73
     6
 40
3.5
 49
1.0
 49
-0.5
 49
1.0
 49
-0.5
 49
0.0
 49
-0.5
  0
LTYPE
  2
CENTER
 70
    64
  3
____ _ ____ _ ____ _ ____ _ ____ _ ____ _ ____
 72
    65
 73
     4
 40
2.0
 49
1.25
 49
-0.25
 49
0.25
 49
-0.25
  0
LTYPE
  2
CENTER2
 70
    64
  3
___ _ ___ _ ___ _ ___ _ ___ _ ___ _ ___ _ ___ _
 72
    65
 73
     4
 40
1.125
 49
0.75
 49
-0.125
 49
0.125
 49
-0.125
  0
LTYPE
  2
CENTERX2
 70
    64
  3
________  __  ________  __  ________  __  _____
 72
    65
 73
     4
 40
4.0
 49
2.5
 49
-0.5
 49
0.5
 49
-0.5
  0
LTYPE
  2
DASHDOT
 70
    64
  3
__ . __ . __ . __ . __ . __ . __ . __ . __ . __
 72
    65
 73
     4
 40
1.0
 49
0.5
 49
-0.25
 49
0.0
 49
-0.25
  0
LTYPE
  2
DASHDOT2
 70
    64
  3
_._._._._._._._._._._._._._._._._._._._._._._._
 72
    65
 73
     4
 40
0.5
 49
0.25
 49
-0.125
 49
0.0
 49
-0.125
  0
LTYPE
  2
DASHDOTX2
 70
    64
  3
____  .  ____  .  ____  .  ____  .  ____  .  __
 72
    65
 73
     4
 40
2.0
 49
1.0
 49
-0.5
 49
0.0
 49
-0.5
  0
LTYPE
  2
DASHED
 70
    64
  3
__ __ __ __ __ __ __ __ __ __ __ __ __ __ __ __
 72
    65
 73
     2
 40
0.75
 49
0.5
 49
-0.25
  0
LTYPE
  2
DASHED2
 70
    64
  3
_ _ _ _ _ _ _ _ _ _ _ _ _ _ _ _ _ _ _ _ _ _ _ _
 72
    65
 73
     2
 40
0.375
 49
0.25
 49
-0.125
  0
LTYPE
  2
DASHEDX2
 70
    64
  3
____  ____  ____  ____  ____  ____  ____  ____
 72
    65
 73
     2
 40
1.5
 49
1.0
 49
-0.5
  0
LTYPE
  2
DIVIDE
 70
    64
  3
____ . . ____ . . ____ . . ____ . . ____ . . __
 72
    65
 73
     6
 40
1.25
 49
0.5
 49
-0.25
 49
0.0
 49
-0.25
 49
0.0
 49
-0.25
  0
LTYPE
  2
DIVIDE2
 70
    64
  3
__..__..__..__..__..__..__..__..__..__..__..__.
 72
    65
 73
     6
 40
0.625
 49
0.25
 49
-0.125
 49
0.0
 49
-0.125
 49
0.0
 49
-0.125
  0
LTYPE
  2
DIVIDEX2
 70
    64
  3
________  .  .  ________  .  .  ________  .  .
 72
    65
 73
     6
 40
2.5
 49
1.0
 49
-0.5
 49
0.0
 49
-0.5
 49
0.0
 49
-0.5
  0
LTYPE
  2
DOT
 70
    64
  3
. . . . . . . . . . . . . . . . . . . . . . . .
 72
    65
 73
     2
 40
0.25
 49
0.0
 49
-0.25
  0
LTYPE
  2
DOT2
 70
    64
  3
...............................................
 72
    65
 73
     2
 40
0.125
 49
0.0
 49
-0.125
  0
LTYPE
  2
DOTX2
 70
    64
  3
.  .  .  .  .  .  .  .  .  .  .  .  .  .  .  .
 72
    65
 73
     2
 40
0.5
 49
0.0
 49
-0.5
  0
LTYPE
  2
HIDDEN
 70
    64
  3
__ __ __ __ __ __ __ __ __ __ __ __ __ __ __ __
 72
    65
 73
     2
 40
0.375
 49
0.25
 49
-0.125
  0
LTYPE
  2
HIDDEN2
 70
    64
  3
_ _ _ _ _ _ _ _ _ _ _ _ _ _ _ _ _ _ _ _ _ _ _ _
 72
    65
 73
     2
 40
0.1875
 49
0.125
 49
-0.0625
  0
LTYPE
  2
HIDDENX2
 70
    64
  3
____ ____ ____ ____ ____ ____ ____ ____ ____ __
 72
    65
 73
     2
 40
0.75
 49
0.5
 49
-0.25
  0
LTYPE
  2
PHANTOM
 70
    64
  3
______  __  __  ______  __  __  ______  __  __
 72
    65
 73
     6
 40
2.5
 49
1.25
 49
-0.25
 49
0.25
 49
-0.25
 49
0.25
 49
-0.25
  0
LTYPE
  2
PHANTOM2
 70
    64
  3
___ _ _ ___ _ _ ___ _ _ ___ _ _ ___ _ _ ___ _ _
 72
    65
 73
     6
 40
1.25
 49
0.625
 49
-0.125
 49
0.125
 49
-0.125
 49
0.125
 49
-0.125
  0
LTYPE
  2
PHANTOMX2
 70
    64
  3
____________    ____    ____    ____________
 72
    65
 73
     6
 40
5.0
 49
2.5
 49
-0.5
 49
0.5
 49
-0.5
 49
0.5
 49
-0.5
  0
LTYPE
  2
ACAD_ISO02W100
 70
    64
  3
__ __ __ __ __ __ __ __ __ __ __ __ __ __ __ __
 72
    65
 73
     2
 40
15.0
 49
12.0
 49
-3.0
  0
LTYPE
  2
ACAD_ISO03W100
 70
    64
  3
__    __    __    __    __    __    __    __
 72
    65
 73
     2
 40
30.0
 49
12.0
 49
-18.0
  0
LTYPE
  2
ACAD_ISO04W100
 70
    64
  3
____ . ____ . ____ . ____ . ____ . ____ . ____
 72
    65
 73
     4
 40
30.5
 49
24.0
 49
-3.0
 49
0.5
 49
-3.0
  0
LTYPE
  2
ACAD_ISO05W100
 70
    64
  3
____ .. ____ .. ____ .. ____ .. ____ .. ____ ..
 72
    65
 73
     6
 40
34.0
 49
24.0
 49
-3.0
 49
0.5
 49
-3.0
 49
0.5
 49
-3.0
  0
LTYPE
  2
ACAD_ISO06W100
 70
    64
  3
____ ... ____ ... ____ ... ____ ... ____ ... __
 72
    65
 73
     8
 40
37.5
 49
24.0
 49
-3.0
 49
0.5
 49
-3.0
 49
0.5
 49
-3.0
 49
0.5
 49
-3.0
  0
LTYPE
  2
ACAD_ISO07W100
 70
    64
  3
. . . . . . . . . . . . . . . . . . . . . . . .
 72
    65
 73
     2
 40
3.5
 49
0.5
 49
-3.0
  0
LTYPE
  2
ACAD_ISO08W100
 70
    64
  3
____ __ ____ __ ____ __ ____ ____ __ __ ____ __
 72
    65
 73
     4
 40
36.0
 49
24.0
 49
-3.0
 49
6.0
 49
-3.0
  0
LTYPE
  2
ACAD_ISO09W100
 70
    64
  3
____ __ __ ____ __ __ ____ __ __ ____ __ __ ___
 72
    65
 73
     6
 40
45.0
 49
24.0
 49
-3.0
 49
6.0
 49
-3.0
 49
6.0
 49
-3.0
  0
LTYPE
  2
ACAD_ISO10W100
 70
    64
  3
__ . __ . __ . __ . __ . __ . __ . __ . __ . __
 72
    65
 73
     4
 40
18.5
 49
12.0
 49
-3.0
 49
0.5
 49
-3.0
  0
LTYPE
  2
ACAD_ISO11W100
 70
    64
  3
__ __ . __ __ . __ __ . __ __ . __ __ . __ __ .
 72
    65
 73
     6
 40
33.5
 49
12.0
 49
-3.0
 49
12.0
 49
-3.0
 49
0.5
 49
-3.0
  0
LTYPE
  2
ACAD_ISO12W100
 70
    64
  3
__ . . __ . . __ . . __ . . __ . . __ . . __ .
 72
    65
 73
     6
 40
22.0
 49
12.0
 49
-3.0
 49
0.5
 49
-3.0
 49
0.5
 49
-3.0
  0
LTYPE
  2
ACAD_ISO13W100
 70
    64
  3
__ __ . . __ __ . . __ __ . . __ __ . . __ __ .
 72
    65
 73
     8
 40
37.0
 49
12.0
 49
-3.0
 49
12.0
 49
-3.0
 49
0.5
 49
-3.0
 49
0.5
 49
-3.0
  0
LTYPE
  2
ACAD_ISO14W100
 70
    64
  3
__ . . . __ . . . __ . . . __ . . . __ . . . __
 72
    65
 73
     8
 40
25.5
 49
12.0
 49
-3.0
 49
0.5
 49
-3.0
 49
0.5
 49
-3.0
 49
0.5
 49
-3.0
  0
LTYPE
  2
ACAD_ISO15W100
 70
    64
  3
__ __ . . . __ __ . . . __ __ . . . __ __ . . .
 72
    65
 73
    10
 40
40.5
 49
12.0
 49
-3.0
 49
12.0
 49
-3.0
 49
0.5
 49
-3.0
 49
0.5
 49
-3.0
 49
0.5
 49
-3.0
  0
ENDTAB
  0
TABLE
  2
STYLE
 70
     4
  0
STYLE
  2
STANDARD
 70
    64
 40
0.0
 41
1.0
 50
0.0
 71
     0
 42
0.2
  3
txt
  4

  0
STYLE
  2
TOLERANCE
 70
    64
 40
0.0
 41
1.0
 50
0.0
 71
     0
 42
0.2
  3
../igesfont/iges1003.shx
  4

  0
STYLE
  2
ROMANS
 70
    64
 40
0.0
 41
1.0
 50
0.0
 71
     0
 42
0.2
  3
romans.shx
  4

  0
STYLE
  2
ROMANC
 70
    64
 40
0.0
 41
1.0
 50
0.0
 71
     0
 42
0.2
  3
romanc.shx
  4

  0
ENDTAB
  0
TABLE
  2
DIMSTYLE
 70
     2
  0
DIMSTYLE
  2
UNNAMED
 70
     0
  3

  4

  5

  6

  7

 40
1.0
 41
0.18
 42
0.0625
 43
0.38
 44
0.18
 45
0.0
 46
0.0
 47
0.0
 48
0.0
140
0.18
141
0.09
142
0.0
143
25.4
144
1.0
145
0.0
146
1.0
147
0.09
 71
     0
 72
     0
 73
     1
 74
     1
 75
     0
 76
     0
 77
     0
 78
     0
170
     0
171
     2
172
     0
173
     0
174
     0
175
     0
176
     0
177
     0
178
     0
  0
DIMSTYLE
  2
STANDARD
 70
     0
  3

  4

  5

  6

  7

 40
1.0
 41
0.18
 42
0.0625
 43
0.38
 44
0.18
 45
0.0
 46
0.0
 47
0.0
 48
0.0
140
0.18
141
0.09
142
0.0
143
25.4
144
1.0
145
0.0
146
1.0
147
0.09
 71
     0
 72
     0
 73
     1
 74
     1
 75
     0
 76
     0
 77
     0
 78
     0
170
     0
171
     2
172
     0
173
     0
174
     0
175
     0
176
     0
177
     0
178
     0
  0
ENDTAB
  0
TABLE
  2
LAYER
 70
     2
  0
LAYER
  2
0
 70
     0
 62
     7
  6
CONTINUOUS
  0
LAYER
  2
255
 70
     0
 62
     7
  6
CONTINUOUS
  0
ENDTAB
  0
ENDSEC
  0
SECTION
  2
BLOCKS
  0
BLOCK
  5
     B
  8
0
  6
CONTINUOUS
 62
     7
  2
MOSTRINA
 70
    64
 10
0.0
 20
0.0
 30
0.0
  3
MOSTRINA
  0
LINE
  5
     C
  8
0
  6
CONTINUOUS
 62
     1
 10
208.338256835938
 20
30.7306251525879
 30
0.0
 11
208.338256835938
 21
189.230621337891
 31
0.0
  0
LINE
  5
     D
  8
0
  6
CONTINUOUS
 62
     1
 10
57.5882568359375
 20
29.4806251525879
 30
0.0
 11
207.088256835938
 21
29.4806251525879
 31
0.0
  0
LINE
  5
     E
  8
0
  6
CONTINUOUS
 62
     1
 10
56.3382568359375
 20
30.7306251525879
 30
0.0
 11
56.3382568359375
 21
189.230621337891
 31
0.0
  0
LINE
  5
     F
  8
0
  6
CONTINUOUS
 62
     1
 10
57.5882568359375
 20
190.480621337891
 30
0.0
 11
207.088256835938
 21
190.480621337891
 31
0.0
  0
LINE
  5
    10
  8
0
  6
CONTINUOUS
 62
     1
 10
202.838256835938
 20
56.9806251525879
 30
0.0
 11
202.838256835938
 21
162.980625152588
 31
0.0
  0
LINE
  5
    11
  8
0
  6
CONTINUOUS
 62
     1
 10
61.8382568359375
 20
56.9806251525879
 30
0.0
 11
202.838256835938
 21
56.9806251525879
 31
0.0
  0
LINE
  5
    12
  8
0
  6
CONTINUOUS
 62
     1
 10
61.8382568359375
 20
56.9806251525879
 30
0.0
 11
61.8382568359375
 21
162.980625152588
 31
0.0
  0
LINE
  5
    13
  8
0
  6
CONTINUOUS
 62
     1
 10
61.8382568359375
 20
162.980621337891
 30
0.0
 11
202.838256835938
 21
162.980621337891
 31
0.0
  0
LINE
  5
    14
  8
0
  6
CONTINUOUS
 62
     1
 10
203.838256835938
 20
48.4806251525879
 30
0.0
 11
203.838256835938
 21
49.4806251525879
 31
0.0
  0
LINE
  5
    15
  8
0
  6
CONTINUOUS
 62
     1
 10
61.8382568359375
 20
50.4806251525879
 30
0.0
 11
202.838256835938
 21
50.4806251525879
 31
0.0
  0
LINE
  5
    16
  8
0
  6
CONTINUOUS
 62
     1
 10
60.8382568359375
 20
48.4806251525879
 30
0.0
 11
60.8382568359375
 21
49.4806251525879
 31
0.0
  0
LINE
  5
    17
  8
0
  6
CONTINUOUS
 62
     1
 10
61.8382568359375
 20
49.4806251525879
 30
0.0
 11
202.838256835938
 21
49.4806251525879
 31
0.0
  0
LINE
  5
    18
  8
0
  6
CONTINUOUS
 62
     1
 10
60.8382568359375
 20
29.4806251525879
 30
0.0
 11
60.8382568359375
 21
48.4806251525879
 31
0.0
  0
LINE
  5
    19
  8
0
  6
CONTINUOUS
 62
     1
 10
60.8382568359375
 20
49.4806213378906
 30
0.0
 11
60.8382568359375
 21
190.480621337891
 31
0.0
  0
LINE
  5
    1A
  8
0
  6
CONTINUOUS
 62
     1
 10
61.8382568359375
 20
29.4806251525879
 30
0.0
 11
61.8382568359375
 21
49.4806251525879
 31
0.0
  0
LINE
  5
    1B
  8
0
  6
CONTINUOUS
 62
     1
 10
61.8382568359375
 20
162.980621337891
 30
0.0
 11
61.8382568359375
 21
169.480621337891
 31
0.0
  0
LINE
  5
    1C
  8
0
  6
CONTINUOUS
 62
     1
 10
61.8382568359375
 20
50.4806251525879
 30
0.0
 11
61.8382568359375
 21
56.9806251525879
 31
0.0
  0
LINE
  5
    1D
  8
0
  6
CONTINUOUS
 62
     1
 10
203.838256835938
 20
29.4806251525879
 30
0.0
 11
203.838256835938
 21
48.4806251525879
 31
0.0
  0
LINE
  5
    1E
  8
0
  6
CONTINUOUS
 62
     1
 10
203.838256835938
 20
49.4806251525879
 30
0.0
 11
203.838256835938
 21
190.480621337891
 31
0.0
  0
LINE
  5
    1F
  8
0
  6
CONTINUOUS
 62
     1
 10
202.838256835938
 20
50.4806251525879
 30
0.0
 11
202.838256835938
 21
56.9806251525879
 31
0.0
  0
LINE
  5
    20
  8
0
  6
CONTINUOUS
 62
     1
 10
202.838256835938
 20
162.980621337891
 30
0.0
 11
202.838256835938
 21
169.480621337891
 31
0.0
  0
LINE
  5
    21
  8
0
  6
CONTINUOUS
 62
     1
 10
202.838256835938
 20
29.4806251525879
 30
0.0
 11
202.838256835938
 21
49.4806251525879
 31
0.0
  0
LINE
  5
    22
  8
0
  6
CONTINUOUS
 62
     1
 10
60.8382568359375
 20
170.480621337891
 30
0.0
 11
203.838256835938
 21
170.480621337891
 31
0.0
  0
LINE
  5
    23
  8
0
  6
CONTINUOUS
 62
     1
 10
61.8382568359375
 20
169.480621337891
 30
0.0
 11
202.838256835938
 21
169.480621337891
 31
0.0
  0
ARC
  5
    24
  8
0
  6
CONTINUOUS
 62
     1
 10
57.5882568359375
 20
30.7306251525879
 30
0.0
 40
1.25
 50
180.0
 51
270.0
  0
ARC
  5
    25
  8
0
  6
CONTINUOUS
 62
     1
 10
207.088256835938
 20
30.7306251525879
 30
0.0
 40
1.25
 50
270.0
 51
360.0
  0
ARC
  5
    26
  8
0
  6
CONTINUOUS
 62
     1
 10
207.088256835938
 20
189.230621337891
 30
0.0
 40
1.25
 50
0.0
 51
90.0
  0
ARC
  5
    27
  8
0
  6
CONTINUOUS
 62
     1
 10
57.5882568359375
 20
189.230621337891
 30
0.0
 40
1.25
 50
90.0
 51
180.0
  0
LINE
  5
    28
  8
0
  6
DOT
 62
     1
 10
60.3382577409677
 20
179.7306252571
 30
0.0
 11
60.8382568359375
 21
179.7306252571
 31
0.0
  0
LINE
  5
    29
  8
0
  6
DOT
 62
     1
 10
60.3382577409676
 20
181.2306252571
 30
0.0
 11
60.8382568359375
 21
181.2306252571
 31
0.0
  0
LINE
  5
    2A
  8
0
  6
CONTINUOUS
 62
     1
 10
203.338257745313
 20
179.730625257273
 30
0.0
 11
203.838256835938
 21
179.730625257273
 31
0.0
  0
LINE
  5
    2B
  8
0
  6
CONTINUOUS
 62
     1
 10
203.338257745314
 20
181.230625257273
 30
0.0
 11
203.838256835938
 21
181.230625257273
 31
0.0
  0
ARC
  5
    2C
  8
0
  6
DOT
 62
     1
 10
60.3382577401871
 20
180.480625257147
 30
0.0
 40
0.749999999345164
 50
90.0
 51
270.0
  0
ARC
  5
    2D
  8
0
  6
CONTINUOUS
 62
     1
 10
61.338257740822
 20
180.480625256974
 30
0.0
 40
0.750000000009701
 50
270.0
 51
450.0
  0
LINE
  5
    2E
  8
0
  6
CONTINUOUS
 62
     1
 10
60.8382568359375
 20
181.2306252571
 30
0.0
 11
61.3382577409688
 21
181.2306252571
 31
0.0
  0
LINE
  5
    2F
  8
0
  6
CONTINUOUS
 62
     1
 10
60.8382568359375
 20
179.7306252571
 30
0.0
 11
61.3382577409689
 21
179.7306252571
 31
0.0
  0
ARC
  5
    30
  8
0
  6
CONTINUOUS
 62
     1
 10
203.338257745503
 20
180.480625256952
 30
0.0
 40
0.750000000048506
 50
90.0000000038822
 51
269.999999996024
  0
LINE
  5
    31
  8
0
  6
DOT
 62
     1
 10
203.838256835938
 20
181.230625257273
 30
0.0
 11
204.338257745315
 21
181.230625257273
 31
0.0
  0
LINE
  5
    32
  8
0
  6
DOT
 62
     1
 10
203.838256835938
 20
179.730625257273
 30
0.0
 11
204.338257745315
 21
179.730625257273
 31
0.0
  0
ENDBLK
  5
    33
  8
0
  6
CONTINUOUS
 62
     7
  0
BLOCK
  5
    34
  8
0
  6
CONTINUOUS
 62
     7
  2
MOSTRA
 70
    64
 10
0.0
 20
0.0
 30
0.0
  3
MOSTRA
  0
LINE
  5
    35
  8
0
  6
CONTINUOUS
 62
     1
 10
75.9999847412109
 20
-24.000020980835
 30
0.0
 11
75.9999847412109
 21
169.499979019165
 31
0.0
  0
LINE
  5
    36
  8
0
  6
CONTINUOUS
 62
     1
 10
-71.5000076293913
 20
170.749954223637
 30
0.0
 11
71.4999923706087
 21
170.749984741215
 31
0.0
  0
LINE
  5
    37
  8
0
  6
CONTINUOUS
 62
     1
 10
71.4999923722532
 20
170.749969484304
 30
0.0
 11
74.7499847428587
 21
170.749984743093
 31
0.0
  0
LINE
  5
    38
  8
0
  6
CONTINUOUS
 62
     1
 10
-74.7500152650933
 20
170.749938972373
 30
0.0
 11
-71.5000076356988
 21
170.74996948995
 31
0.0
  0
LINE
  5
    39
  8
0
  6
CONTINUOUS
 62
     1
 10
-76.0000152587891
 20
-24.0000553131103
 30
0.0
 11
-76.0000152587891
 21
169.49994468689
 31
0.0
  0
LINE
  5
    3A
  8
0
  6
CONTINUOUS
 62
     1
 10
-74.7500152587851
 20
-25.250055313111
 30
0.0
 11
74.7499847412149
 21
-25.2500209808356
 31
0.0
  0
LINE
  5
    3B
  8
0
  6
CONTINUOUS
 62
     1
 10
-70.50000762559
 20
2.24997818470003
 30
0.0
 11
70.49999237441
 21
2.24997818470002
 31
0.0
  0
LINE
  5
    3C
  8
0
  6
CONTINUOUS
 62
     1
 10
-70.5000074412761
 20
2.24997806549074
 30
0.0
 11
-70.5000074412761
 21
93.0689001568776
 31
0.0
  0
LINE
  5
    3D
  8
0
  6
CONTINUOUS
 62
     1
 10
-70.5000152587891
 20
108.431043142038
 30
0.0
 11
-70.5000152587891
 21
143.249984741211
 31
0.0
  0
LINE
  5
    3E
  8
0
  6
CONTINUOUS
 62
     1
 10
-70.500015258789
 20
143.249984741211
 30
0.0
 11
70.4999694824219
 21
143.249984741211
 31
0.0
  0
LINE
  5
    3F
  8
0
  6
CONTINUOUS
 62
     1
 10
70.499992735838
 20
2.24997854232794
 30
0.0
 11
70.499992735838
 21
143.249978542328
 31
0.0
  0
LINE
  5
    40
  8
0
  6
CONTINUOUS
 62
     1
 10
-71.5000076293945
 20
150.749984741211
 30
0.0
 11
-71.5000076293945
 21
170.749969482422
 31
0.0
  0
LINE
  5
    41
  8
0
  6
CONTINUOUS
 62
     1
 10
71.4999923706055
 20
150.749984741211
 30
0.0
 11
71.4999923706055
 21
170.749969482422
 31
0.0
  0
LINE
  5
    42
  8
0
  6
CONTINUOUS
 62
     1
 10
-71.5000076293945
 20
150.749984741211
 30
0.0
 11
71.4999923706055
 21
150.749984741211
 31
0.0
  0
LINE
  5
    43
  8
0
  6
CONTINUOUS
 62
     1
 10
-70.5000152587891
 20
-4.25005340576171
 30
0.0
 11
70.4999847412109
 21
-4.25005340576172
 31
0.0
  0
LINE
  5
    44
  8
0
  6
CONTINUOUS
 62
     1
 10
-70.5000152587891
 20
-5.25005340576171
 30
0.0
 11
70.4999847412109
 21
-5.25005340576172
 31
0.0
  0
LINE
  5
    45
  8
0
  6
CONTINUOUS
 62
     1
 10
-70.5000305175649
 20
149.74993896486
 30
0.0
 11
70.4999694824351
 21
149.750000000014
 31
0.0
  0
LINE
  5
    46
  8
0
  6
CONTINUOUS
 62
     1
 10
71.4999858357699
 20
-25.2500247955323
 30
0.0
 11
71.4999858357699
 21
150.749990463257
 31
0.0
  0
LINE
  5
    47
  8
0
  6
CONTINUOUS
 62
     1
 10
70.4999847412109
 20
-25.2500247955322
 30
0.0
 11
70.4999847412109
 21
-5.25005340576172
 31
0.0
  0
LINE
  5
    48
  8
0
  6
CONTINUOUS
 62
     1
 10
70.4999847412595
 20
-4.25005341252316
 30
0.0
 11
70.4999923706543
 21
2.24997805388479
 31
0.0
  0
LINE
  5
    49
  8
0
  6
CONTINUOUS
 62
     1
 10
70.4999694824219
 20
143.249984741211
 30
0.0
 11
70.4999694824219
 21
149.75
 31
0.0
  0
LINE
  5
    4A
  8
0
  6
CONTINUOUS
 62
     1
 10
-71.5000141642294
 20
-25.2500457763669
 30
0.0
 11
-71.5000141642294
 21
150.749984741211
 31
0.0
  0
LINE
  5
    4B
  8
0
  6
CONTINUOUS
 62
     1
 10
-70.5000152587891
 20
-25.2500419616699
 30
0.0
 11
-70.5000152587891
 21
-5.25005340576171
 31
0.0
  0
LINE
  5
    4C
  8
0
  6
CONTINUOUS
 62
     1
 10
-70.5000152588376
 20
-4.25005339719544
 30
0.0
 11
-70.5000076294428
 21
2.24997808131977
 31
0.0
  0
LINE
  5
    4D
  8
0
  6
CONTINUOUS
 62
     1
 10
-70.5000305177719
 20
149.749938959778
 30
0.0
 11
-70.5000152589833
 21
143.249984736586
 31
0.0
  0
LINE
  5
    4E
  8
0
  6
CONTINUOUS
 62
     1
 10
-71.5000076293945
 20
159.999984741211
 30
0.0
 11
-71.0
 21
159.999984741211
 31
0.0
  0
LINE
  5
    4F
  8
0
  6
CONTINUOUS
 62
     1
 10
-71.5000076293945
 20
161.499984741211
 30
0.0
 11
-71.0
 21
161.499984741211
 31
0.0
  0
LINE
  5
    50
  8
0
  6
CONTINUOUS
 62
     1
 10
70.9999923706055
 20
159.999984741211
 30
0.0
 11
71.4999923706055
 21
159.999984741211
 31
0.0
  0
LINE
  5
    51
  8
0
  6
CONTINUOUS
 62
     1
 10
70.9999923706055
 20
161.499984741211
 30
0.0
 11
71.4999923706055
 21
161.499984741211
 31
0.0
  0
ARC
  5
    52
  8
0
  6
CONTINUOUS
 62
     1
 10
-74.7500446175772
 20
169.499966747805
 30
0.0
 40
1.2499712385188
 50
89.9986335430652
 51
180.000984426699
  0
ARC
  5
    53
  8
0
  6
CONTINUOUS
 62
     1
 10
-71.0000555065448
 20
160.749933035418
 30
0.0
 40
0.750060676953542
 50
270.004052802733
 51
449.996390805965
  0
ARC
  5
    54
  8
0
  6
CONTINUOUS
 62
     1
 10
71.0004519501049
 20
160.749941254871
 30
0.0
 40
0.750296104915764
 50
90.0
 51
270.0
  0
ARC
  5
    55
  8
0
  6
CONTINUOUS
 62
     1
 10
74.7499844400411
 20
169.499990278414
 30
0.0
 40
1.25000142315613
 50
2.89360398659739E-4
 51
89.9998353051498
  0
ARC
  5
    56
  8
0
  6
CONTINUOUS
 62
     1
 10
74.7499756668578
 20
-24.0000128113076
 30
0.0
 40
1.25000813012569
 50
270.000329889624
 51
359.999635393882
  0
ARC
  5
    57
  8
0
  6
CONTINUOUS
 62
     1
 10
-74.7500061806411
 20
-24.0000471426785
 30
0.0
 40
1.25000813391971
 50
180.000364647548
 51
269.999670038333
  0
ARC
  5
    58
  8
0
  6
CONTINUOUS
 62
     1
 10
-41.5002621522514
 20
100.749971717654
 30
0.0
 40
29.9997423066705
 50
165.164904903841
 51
194.835095365634
  0
ARC
  5
    59
  8
0
  6
DOT
 62
     1
 10
-71.9999597522443
 20
160.749933035418
 30
0.0
 40
0.750060676953542
 50
90.003609194035
 51
269.995947197267
  0
LINE
  5
    5A
  8
0
  6
DOT
 62
     1
 10
-72.0000152587891
 20
161.499984741211
 30
0.0
 11
-71.5000076293945
 21
161.499984741211
 31
0.0
  0
LINE
  5
    5B
  8
0
  6
DOT
 62
     1
 10
-72.0000152587891
 20
159.999984741211
 30
0.0
 11
-71.5000076293945
 21
159.999984741211
 31
0.0
  0
LINE
  5
    5C
  8
0
  6
DOT
 62
     1
 10
71.4999923706055
 20
161.499984741211
 30
0.0
 11
71.9999923706055
 21
161.499984741211
 31
0.0
  0
LINE
  5
    5D
  8
0
  6
DOT
 62
     1
 10
71.4999923706055
 20
159.999984741211
 30
0.0
 11
71.9999923706055
 21
159.999984741211
 31
0.0
  0
ARC
  5
    5E
  8
0
  6
DOT
 62
     1
 10
71.999532791106
 20
160.749941254871
 30
0.0
 40
0.750296104915764
 50
270.0
 51
450.0
  0
POINT
  5
    5F
  8
0
  6
CONTINUOUS
 62
     1
 10
-2.28881835892954E-5
 20
72.7499785423279
 30
0.0
  0
ENDBLK
  5
    60
  8
0
  6
CONTINUOUS
 62
     7
  0
BLOCK
  5
    61
  8
0
  6
CONTINUOUS
 62
     7
  2
*UDIM0
 70
    65
 10
0.0
 20
0.0
 30
0.0
  3
*UDIM0
  0
TEXT
  5
    62
  8
0
  6
CONTINUOUS
 62
     7
 10
120.305938526499
 20
170.917784305348
 30
0.0
 40
2.4999999335834
  1
70
 50
359.999999948034
 41
0.933333333333333
 72
     1
 11
122.389271805613
 21
172.16778427026
 31
0.0
 73
     2
  0
LINE
  5
    63
  8
0
  6
CONTINUOUS
 62
     7
 10
134.868438303471
 20
166.617435439991
 30
0.0
 11
134.868438303471
 21
171.917784303469
 31
0.0
  0
LINE
  5
    64
  8
0
  6
CONTINUOUS
 62
     7
 10
134.868438303471
 20
169.917784303469
 30
0.0
 11
110.368438720703
 21
169.917784303469
 31
0.0
  0
LINE
  5
    65
  8
0
  6
CONTINUOUS
 62
     7
 10
131.914015041789
 20
169.396839785468
 30
0.0
 11
134.868438303471
 21
169.917784303469
 31
0.0
  0
LINE
  5
    66
  8
0
  6
CONTINUOUS
 62
     7
 10
134.868438303471
 20
169.917784303469
 30
0.0
 11
131.914015041789
 21
170.438728821469
 31
0.0
  0
LINE
  5
    67
  8
0
  6
CONTINUOUS
 62
     7
 10
113.322861982385
 20
170.438728821469
 30
0.0
 11
110.368438720703
 21
169.917784303469
 31
0.0
  0
LINE
  5
    68
  8
0
  6
CONTINUOUS
 62
     7
 10
110.368438720703
 20
169.917784303469
 30
0.0
 11
113.322861982385
 21
169.396839785468
 31
0.0
  0
ENDBLK
  5
    69
  8
0
  6
CONTINUOUS
 62
     7
  0
BLOCK
  5
    6A
  8
0
  6
CONTINUOUS
 62
     7
  2
*UDIM1
 70
    65
 10
0.0
 20
0.0
 30
0.0
  3
*UDIM1
  0
TEXT
  5
    6B
  8
0
  6
CONTINUOUS
 62
     7
 10
95.8059402788758
 20
170.917784305348
 30
0.0
 40
2.4999999335834
  1
70
 50
359.999999948034
 41
0.933333333333333
 72
     1
 11
97.8892735579894
 21
172.16778427026
 31
0.0
 73
     2
  0
LINE
  5
    6C
  8
0
  6
CONTINUOUS
 62
     7
 10
85.8684391379357
 20
169.826953880002
 30
0.0
 11
85.8684391379357
 21
171.917784303469
 31
0.0
  0
LINE
  5
    6D
  8
0
  6
CONTINUOUS
 62
     7
 10
110.368438720703
 20
169.917784303469
 30
0.0
 11
85.8684391379357
 21
169.917784303469
 31
0.0
  0
LINE
  5
    6E
  8
0
  6
CONTINUOUS
 62
     7
 10
107.414015459022
 20
169.396839785468
 30
0.0
 11
110.368438720703
 21
169.917784303469
 31
0.0
  0
LINE
  5
    6F
  8
0
  6
CONTINUOUS
 62
     7
 10
110.368438720703
 20
169.917784303469
 30
0.0
 11
107.414015459022
 21
170.438728821469
 31
0.0
  0
LINE
  5
    70
  8
0
  6
CONTINUOUS
 62
     7
 10
88.8228623996173
 20
170.438728821469
 30
0.0
 11
85.8684391379357
 21
169.917784303469
 31
0.0
  0
LINE
  5
    71
  8
0
  6
CONTINUOUS
 62
     7
 10
85.8684391379357
 20
169.917784303469
 30
0.0
 11
88.8228623996173
 21
169.396839785468
 31
0.0
  0
ENDBLK
  5
    72
  8
0
  6
CONTINUOUS
 62
     7
  0
BLOCK
  5
    73
  8
0
  6
CONTINUOUS
 62
     7
  2
*UDIM2
 70
    65
 10
0.0
 20
0.0
 30
0.0
  3
*UDIM2
  0
TEXT
  5
    74
  8
0
  6
CONTINUOUS
 62
     7
 10
71.3059433663963
 20
170.917784305348
 30
0.0
 40
2.4999999335834
  1
70
 50
359.999999948034
 41
0.933333333333333
 72
     1
 11
73.3892766455099
 21
172.16778427026
 31
0.0
 73
     2
  0
LINE
  5
    75
  8
0
  6
CONTINUOUS
 62
     7
 10
61.3684395551682
 20
168.314471513044
 30
0.0
 11
61.3684395551682
 21
171.917784303469
 31
0.0
  0
LINE
  5
    76
  8
0
  6
CONTINUOUS
 62
     7
 10
85.8684391379357
 20
169.917784303469
 30
0.0
 11
61.3684395551682
 21
169.917784303469
 31
0.0
  0
LINE
  5
    77
  8
0
  6
CONTINUOUS
 62
     7
 10
82.9140158762541
 20
169.396839785468
 30
0.0
 11
85.8684391379357
 21
169.917784303469
 31
0.0
  0
LINE
  5
    78
  8
0
  6
CONTINUOUS
 62
     7
 10
85.8684391379357
 20
169.917784303469
 30
0.0
 11
82.9140158762541
 21
170.438728821469
 31
0.0
  0
LINE
  5
    79
  8
0
  6
CONTINUOUS
 62
     7
 10
64.3228628168498
 20
170.438728821469
 30
0.0
 11
61.3684395551682
 21
169.917784303469
 31
0.0
  0
LINE
  5
    7A
  8
0
  6
CONTINUOUS
 62
     7
 10
61.3684395551682
 20
169.917784303469
 30
0.0
 11
64.3228628168498
 21
169.396839785468
 31
0.0
  0
ENDBLK
  5
    7B
  8
0
  6
CONTINUOUS
 62
     7
  0
BLOCK
  5
    7C
  8
0
  6
CONTINUOUS
 62
     7
  2
*UDIM3
 70
    65
 10
0.0
 20
0.0
 30
0.0
  3
*UDIM3
  0
TEXT
  5
    7D
  8
0
  6
CONTINUOUS
 62
     7
 10
158.032184532087
 20
71.2410499122779
 30
0.0
 40
2.4999999335834
  1
196
 50
89.9999999480344
 41
0.933333333333333
 72
     1
 11
156.782184568239
 21
74.4910498270684
 31
0.0
 73
     2
  0
LINE
  5
    7E
  8
0
  6
CONTINUOUS
 62
     7
 10
137.530940945448
 20
40.4202159702797
 30
0.0
 11
161.032184535031
 21
40.4202159702797
 31
0.0
  0
LINE
  5
    7F
  8
0
  6
CONTINUOUS
 62
     7
 10
136.393443635107
 20
109.020217472315
 30
0.0
 11
161.032184535031
 21
109.020217472315
 31
0.0
  0
LINE
  5
    80
  8
0
  6
CONTINUOUS
 62
     7
 10
159.032184535031
 20
40.4202159702797
 30
0.0
 11
159.032184535031
 21
109.020217472315
 31
0.0
  0
LINE
  5
    81
  8
0
  6
CONTINUOUS
 62
     7
 10
158.511240017031
 20
43.3746392319613
 30
0.0
 11
159.032184535031
 21
40.4202159702797
 31
0.0
  0
LINE
  5
    82
  8
0
  6
CONTINUOUS
 62
     7
 10
159.032184535031
 20
40.4202159702797
 30
0.0
 11
159.553129053031
 21
43.3746392319613
 31
0.0
  0
LINE
  5
    83
  8
0
  6
CONTINUOUS
 62
     7
 10
159.553129053031
 20
106.065794210633
 30
0.0
 11
159.032184535031
 21
109.020217472315
 31
0.0
  0
LINE
  5
    84
  8
0
  6
CONTINUOUS
 62
     7
 10
159.032184535031
 20
109.020217472315
 30
0.0
 11
158.511240017031
 21
106.065794210633
 31
0.0
  0
ENDBLK
  5
    85
  8
0
  6
CONTINUOUS
 62
     7
  0
BLOCK
  5
    86
  8
0
  6
CONTINUOUS
 62
     7
  2
*UDIM4
 70
    65
 10
0.0
 20
0.0
 30
0.0
  3
*UDIM4
  0
TEXT
  5
    87
  8
0
  6
CONTINUOUS
 62
     7
 10
40.5396175611339
 20
42.9202236966344
 30
0.0
 40
2.4999999335834
  1
148,5
 50
89.9999999480344
 41
0.933333333333333
 72
     1
 11
39.2896175993991
 21
48.5035568827695
 31
0.0
 73
     2
  0
LINE
  5
    88
  8
0
  6
CONTINUOUS
 62
     7
 10
74.0184287134589
 20
22.7452274531163
 30
0.0
 11
39.5396175661908
 21
22.7452274531163
 31
0.0
  0
LINE
  5
    89
  8
0
  6
CONTINUOUS
 62
     7
 10
53.2937637009048
 20
74.7202212274078
 30
0.0
 11
39.5396175661908
 21
74.7202212274078
 31
0.0
  0
LINE
  5
    8A
  8
0
  6
CONTINUOUS
 62
     7
 10
41.5396175661908
 20
22.7452274531163
 30
0.0
 11
41.5396175661908
 21
74.7202212274078
 31
0.0
  0
LINE
  5
    8B
  8
0
  6
CONTINUOUS
 62
     7
 10
41.0186730481905
 20
25.6996507147979
 30
0.0
 11
41.5396175661908
 21
22.7452274531163
 31
0.0
  0
LINE
  5
    8C
  8
0
  6
CONTINUOUS
 62
     7
 10
41.5396175661908
 20
22.7452274531163
 30
0.0
 11
42.0605620841912
 21
25.6996507147979
 31
0.0
  0
LINE
  5
    8D
  8
0
  6
CONTINUOUS
 62
     7
 10
42.0605620841912
 20
71.7657979657262
 30
0.0
 11
41.5396175661908
 21
74.7202212274078
 31
0.0
  0
LINE
  5
    8E
  8
0
  6
CONTINUOUS
 62
     7
 10
41.5396175661908
 20
74.7202212274078
 30
0.0
 11
41.0186730481905
 21
71.7657979657262
 31
0.0
  0
ENDBLK
  5
    8F
  8
0
  6
CONTINUOUS
 62
     7
  0
BLOCK
  5
    90
  8
0
  6
CONTINUOUS
 62
     7
  2
*UDIM5
 70
    65
 10
0.0
 20
0.0
 30
0.0
  3
*UDIM5
  0
TEXT
  5
    91
  8
0
  6
CONTINUOUS
 62
     7
 10
152.370212582612
 20
71.2410525825655
 30
0.0
 40
2.4999999335834
  1
140
 50
89.9999999480344
 41
0.933333333333333
 72
     1
 11
151.120212618764
 21
74.4910524973561
 31
0.0
 73
     2
  0
LINE
  5
    92
  8
0
  6
CONTINUOUS
 62
     7
 10
135.693438306451
 20
50.2202193915848
 30
0.0
 11
155.370212585555
 21
50.2202193915848
 31
0.0
  0
LINE
  5
    93
  8
0
  6
CONTINUOUS
 62
     7
 10
135.693438306451
 20
99.2202208101753
 30
0.0
 11
155.370212585555
 21
99.2202208101753
 31
0.0
  0
LINE
  5
    94
  8
0
  6
CONTINUOUS
 62
     7
 10
153.370212585555
 20
50.2202193915848
 30
0.0
 11
153.370212585555
 21
99.2202208101753
 31
0.0
  0
LINE
  5
    95
  8
0
  6
CONTINUOUS
 62
     7
 10
152.849268067555
 20
53.1746426532664
 30
0.0
 11
153.370212585555
 21
50.2202193915848
 31
0.0
  0
LINE
  5
    96
  8
0
  6
CONTINUOUS
 62
     7
 10
153.370212585555
 20
50.2202193915848
 30
0.0
 11
153.891157103556
 21
53.1746426532664
 31
0.0
  0
LINE
  5
    97
  8
0
  6
CONTINUOUS
 62
     7
 10
153.891157103556
 20
96.2657975484937
 30
0.0
 11
153.370212585555
 21
99.2202208101753
 31
0.0
  0
LINE
  5
    98
  8
0
  6
CONTINUOUS
 62
     7
 10
153.370212585555
 20
99.2202208101753
 30
0.0
 11
152.849268067555
 21
96.2657975484937
 31
0.0
  0
ENDBLK
  5
    99
  8
0
  6
CONTINUOUS
 62
     7
  0
BLOCK
  5
    9A
  8
0
  6
CONTINUOUS
 62
     7
  2
*UDIM6
 70
    65
 10
0.0
 20
0.0
 30
0.0
  3
*UDIM6
  0
TEXT
  5
    9B
  8
0
  6
CONTINUOUS
 62
     7
 10
106.889272746154
 20
17.4878346793062
 30
0.0
 40
2.4999999335834
  1
140
 50
359.999999948034
 41
0.933333333333333
 72
     1
 11
110.139272660939
 21
18.7378346431666
 31
0.0
 73
     2
  0
LINE
  5
    9C
  8
0
  6
CONTINUOUS
 62
     7
 10
134.868438303471
 20
49.3952193886046
 30
0.0
 11
134.868438303471
 21
14.4878346763749
 31
0.0
  0
LINE
  5
    9D
  8
0
  6
CONTINUOUS
 62
     7
 10
85.8684391379356
 20
49.3952193886046
 30
0.0
 11
85.8684391379356
 21
14.4878346763749
 31
0.0
  0
LINE
  5
    9E
  8
0
  6
CONTINUOUS
 62
     7
 10
134.868438303471
 20
16.4878346763749
 30
0.0
 11
85.8684391379356
 21
16.4878346763749
 31
0.0
  0
LINE
  5
    9F
  8
0
  6
CONTINUOUS
 62
     7
 10
131.914015041789
 20
15.9668901583745
 30
0.0
 11
134.868438303471
 21
16.4878346763749
 31
0.0
  0
LINE
  5
    A0
  8
0
  6
CONTINUOUS
 62
     7
 10
134.868438303471
 20
16.4878346763749
 30
0.0
 11
131.914015041789
 21
17.0087791943752
 31
0.0
  0
LINE
  5
    A1
  8
0
  6
CONTINUOUS
 62
     7
 10
88.8228623996173
 20
17.0087791943752
 30
0.0
 11
85.8684391379356
 21
16.4878346763749
 31
0.0
  0
LINE
  5
    A2
  8
0
  6
CONTINUOUS
 62
     7
 10
85.8684391379356
 20
16.4878346763749
 30
0.0
 11
88.8228623996173
 21
15.9668901583745
 31
0.0
  0
ENDBLK
  5
    A3
  8
0
  6
CONTINUOUS
 62
     7
  0
BLOCK
  5
    A4
  8
0
  6
CONTINUOUS
 62
     7
  2
*UDIM7
 70
    65
 10
0.0
 20
0.0
 30
0.0
  3
*UDIM7
  0
TEXT
  5
    A5
  8
0
  6
CONTINUOUS
 62
     7
 10
106.889275416442
 20
11.3709391078171
 30
0.0
 40
2.4999999335834
  1
152
 50
359.999999948034
 41
0.933333333333333
 72
     1
 11
110.139275331228
 21
12.6209390716775
 31
0.0
 73
     2
  0
LINE
  5
    A6
  8
0
  6
CONTINUOUS
 62
     7
 10
136.968440937996
 20
39.8577219709757
 30
0.0
 11
136.968440937996
 21
8.37093910488579
 31
0.0
  0
LINE
  5
    A7
  8
0
  6
CONTINUOUS
 62
     7
 10
83.7684418439865
 20
39.8577099546796
 30
0.0
 11
83.7684418439865
 21
8.37093910488579
 31
0.0
  0
LINE
  5
    A8
  8
0
  6
CONTINUOUS
 62
     7
 10
136.968440937996
 20
10.3709391048858
 30
0.0
 11
83.7684418439865
 21
10.3709391048858
 31
0.0
  0
LINE
  5
    A9
  8
0
  6
CONTINUOUS
 62
     7
 10
134.014017676314
 20
9.84999458688545
 30
0.0
 11
136.968440937996
 21
10.3709391048858
 31
0.0
  0
LINE
  5
    AA
  8
0
  6
CONTINUOUS
 62
     7
 10
136.968440937996
 20
10.3709391048858
 30
0.0
 11
134.014017676314
 21
10.8918836228861
 31
0.0
  0
LINE
  5
    AB
  8
0
  6
CONTINUOUS
 62
     7
 10
86.7228651056681
 20
10.8918836228861
 30
0.0
 11
83.7684418439865
 21
10.3709391048858
 31
0.0
  0
LINE
  5
    AC
  8
0
  6
CONTINUOUS
 62
     7
 10
83.7684418439865
 20
10.3709391048858
 30
0.0
 11
86.7228651056681
 21
9.84999458688545
 31
0.0
  0
ENDBLK
  5
    AD
  8
0
  6
CONTINUOUS
 62
     7
  0
BLOCK
  5
    AE
  8
0
  6
CONTINUOUS
 62
     7
  2
*UDIM8
 70
    65
 10
0.0
 20
0.0
 30
0.0
  3
*UDIM8
  0
TEXT
  5
    AF
  8
0
  6
CONTINUOUS
 62
     7
 10
32.6304860756245
 20
90.3160656091611
 30
0.0
 40
2.4999999335834
  1
406
 50
89.9999999480344
 41
0.933333333333333
 72
     1
 11
31.3804861117764
 21
93.5660655239517
 31
0.0
 73
     2
  0
LINE
  5
    B0
  8
0
  6
CONTINUOUS
 62
     7
 10
74.0184287134589
 20
22.7452274531163
 30
0.0
 11
31.6304860785681
 21
22.7452274531163
 31
0.0
  0
LINE
  5
    B1
  8
0
  6
CONTINUOUS
 62
     7
 10
73.8434436914112
 20
164.84524105489
 30
0.0
 11
31.6304860785681
 21
164.84524105489
 31
0.0
  0
LINE
  5
    B2
  8
0
  6
CONTINUOUS
 62
     7
 10
33.6304860785681
 20
22.7452274531163
 30
0.0
 11
33.6304860785681
 21
164.84524105489
 31
0.0
  0
LINE
  5
    B3
  8
0
  6
CONTINUOUS
 62
     7
 10
33.1095415605678
 20
25.6996507147979
 30
0.0
 11
33.6304860785681
 21
22.7452274531163
 31
0.0
  0
LINE
  5
    B4
  8
0
  6
CONTINUOUS
 62
     7
 10
33.6304860785681
 20
22.7452274531163
 30
0.0
 11
34.1514305965684
 21
25.6996507147979
 31
0.0
  0
LINE
  5
    B5
  8
0
  6
CONTINUOUS
 62
     7
 10
34.1514305965684
 20
161.890817793209
 30
0.0
 11
33.6304860785681
 21
164.84524105489
 31
0.0
  0
LINE
  5
    B6
  8
0
  6
CONTINUOUS
 62
     7
 10
33.6304860785681
 20
164.84524105489
 30
0.0
 11
33.1095415605678
 21
161.890817793209
 31
0.0
  0
ENDBLK
  5
    B7
  8
0
  6
CONTINUOUS
 62
     7
  0
BLOCK
  5
    B8
  8
0
  6
CONTINUOUS
 62
     7
  2
*UDIM9
 70
    65
 10
0.0
 20
0.0
 30
0.0
  3
*UDIM9
  0
TEXT
  5
    B9
  8
0
  6
CONTINUOUS
 62
     7
 10
94.6392809537574
 20
177.041384971159
 30
0.0
 40
2.4999999335834
  1
280
 50
359.999999948034
 41
0.933333333333333
 72
     1
 11
97.8892808685433
 21
178.291384935019
 31
0.0
 73
     2
  0
LINE
  5
    BA
  8
0
  6
CONTINUOUS
 62
     7
 10
147.118445885226
 20
164.795235732198
 30
0.0
 11
147.118445885226
 21
178.041384968227
 31
0.0
  0
LINE
  5
    BB
  8
0
  6
CONTINUOUS
 62
     7
 10
49.1184475541557
 20
164.795235732198
 30
0.0
 11
49.1184475541557
 21
178.041384968227
 31
0.0
  0
LINE
  5
    BC
  8
0
  6
CONTINUOUS
 62
     7
 10
147.118445885226
 20
176.041384968227
 30
0.0
 11
49.1184475541557
 21
176.041384968227
 31
0.0
  0
LINE
  5
    BD
  8
0
  6
CONTINUOUS
 62
     7
 10
144.164022623544
 20
175.520440450227
 30
0.0
 11
147.118445885226
 21
176.041384968227
 31
0.0
  0
LINE
  5
    BE
  8
0
  6
CONTINUOUS
 62
     7
 10
147.118445885226
 20
176.041384968227
 30
0.0
 11
144.164022623544
 21
176.562329486228
 31
0.0
  0
LINE
  5
    BF
  8
0
  6
CONTINUOUS
 62
     7
 10
52.0728708158373
 20
176.562329486228
 30
0.0
 11
49.1184475541557
 21
176.041384968227
 31
0.0
  0
LINE
  5
    C0
  8
0
  6
CONTINUOUS
 62
     7
 10
49.1184475541557
 20
176.041384968227
 30
0.0
 11
52.0728708158373
 21
175.520440450227
 31
0.0
  0
ENDBLK
  5
    C1
  8
0
  6
CONTINUOUS
 62
     7
  0
BLOCK
  5
    C2
  8
0
  6
CONTINUOUS
 62
     7
  2
*HATCH0
 70
    65
 10
0.0
 20
0.0
 30
0.0
  3
*HATCH0
  0
LINE
  5
    C3
  8
0
  6
CONTINUOUS
 62
    52
 10
139.993118286133
 20
335.154571533203
 30
0.0
 11
137.963439941406
 21
333.124908447266
 31
0.0
  0
LINE
  5
    C4
  8
0
  6
CONTINUOUS
 62
    52
 10
139.992172241211
 20
330.910980224609
 30
0.0
 11
137.964385986328
 21
328.883209228516
 31
0.0
  0
LINE
  5
    C5
  8
0
  6
CONTINUOUS
 62
    52
 10
139.991226196289
 20
326.667388916016
 30
0.0
 11
137.96533203125
 21
324.641510009766
 31
0.0
  0
LINE
  5
    C6
  8
0
  6
CONTINUOUS
 62
    52
 10
139.990280151367
 20
322.423797607422
 30
0.0
 11
137.966278076172
 21
320.399810791016
 31
0.0
  0
LINE
  5
    C7
  8
0
  6
CONTINUOUS
 62
    52
 10
139.989334106445
 20
318.180206298828
 30
0.0
 11
137.967224121094
 21
316.158111572266
 31
0.0
  0
LINE
  5
    C8
  8
0
  6
CONTINUOUS
 62
    52
 10
139.988388061523
 20
313.936614990234
 30
0.0
 11
137.968170166016
 21
311.916412353516
 31
0.0
  0
LINE
  5
    C9
  8
0
  6
CONTINUOUS
 62
    52
 10
139.987442016602
 20
309.693023681641
 30
0.0
 11
137.969116210938
 21
307.674713134766
 31
0.0
  0
LINE
  5
    CA
  8
0
  6
CONTINUOUS
 62
    52
 10
139.98649597168
 20
305.449432373047
 30
0.0
 11
137.970062255859
 21
303.433013916016
 31
0.0
  0
LINE
  5
    CB
  8
0
  6
CONTINUOUS
 62
    52
 10
139.985549926758
 20
301.205841064453
 30
0.0
 11
137.971008300781
 21
299.191314697266
 31
0.0
  0
LINE
  5
    CC
  8
0
  6
CONTINUOUS
 62
    52
 10
139.984603881836
 20
296.962249755859
 30
0.0
 11
137.971954345703
 21
294.949615478516
 31
0.0
  0
LINE
  5
    CD
  8
0
  6
CONTINUOUS
 62
    52
 10
139.983657836914
 20
292.718658447266
 30
0.0
 11
137.972900390625
 21
290.707916259766
 31
0.0
  0
LINE
  5
    CE
  8
0
  6
CONTINUOUS
 62
    52
 10
139.982711791992
 20
288.475067138672
 30
0.0
 11
137.973846435547
 21
286.466217041016
 31
0.0
  0
LINE
  5
    CF
  8
0
  6
CONTINUOUS
 62
    52
 10
139.98176574707
 20
284.231475830078
 30
0.0
 11
137.974792480469
 21
282.224517822266
 31
0.0
  0
LINE
  5
    D0
  8
0
  6
CONTINUOUS
 62
    52
 10
139.980819702148
 20
279.987884521484
 30
0.0
 11
137.975738525391
 21
277.982818603516
 31
0.0
  0
LINE
  5
    D1
  8
0
  6
CONTINUOUS
 62
    52
 10
139.979873657227
 20
275.744293212891
 30
0.0
 11
137.976684570313
 21
273.741119384766
 31
0.0
  0
LINE
  5
    D2
  8
0
  6
CONTINUOUS
 62
    52
 10
139.978927612305
 20
271.500701904297
 30
0.0
 11
137.977630615234
 21
269.499420166016
 31
0.0
  0
LINE
  5
    D3
  8
0
  6
CONTINUOUS
 62
    52
 10
139.977981567383
 20
267.257110595703
 30
0.0
 11
137.978576660156
 21
265.257720947266
 31
0.0
  0
LINE
  5
    D4
  8
0
  6
CONTINUOUS
 62
    52
 10
139.977035522461
 20
263.013519287109
 30
0.0
 11
137.979522705078
 21
261.016021728516
 31
0.0
  0
LINE
  5
    D5
  8
0
  6
CONTINUOUS
 62
    52
 10
139.976089477539
 20
258.769927978516
 30
0.0
 11
137.98046875
 21
256.774322509766
 31
0.0
  0
LINE
  5
    D6
  8
0
  6
CONTINUOUS
 62
    52
 10
139.975143432617
 20
254.526336669922
 30
0.0
 11
137.981414794922
 21
252.532623291016
 31
0.0
  0
LINE
  5
    D7
  8
0
  6
CONTINUOUS
 62
    52
 10
139.974197387695
 20
250.282745361328
 30
0.0
 11
137.982360839844
 21
248.290924072266
 31
0.0
  0
LINE
  5
    D8
  8
0
  6
CONTINUOUS
 62
    52
 10
139.973251342773
 20
246.039154052734
 30
0.0
 11
137.983306884766
 21
244.049224853516
 31
0.0
  0
LINE
  5
    D9
  8
0
  6
CONTINUOUS
 62
    52
 10
139.972305297852
 20
241.795562744141
 30
0.0
 11
137.984252929688
 21
239.807525634766
 31
0.0
  0
LINE
  5
    DA
  8
0
  6
CONTINUOUS
 62
    52
 10
139.97135925293
 20
237.551971435547
 30
0.0
 11
137.985198974609
 21
235.565826416016
 31
0.0
  0
LINE
  5
    DB
  8
0
  6
CONTINUOUS
 62
    52
 10
139.970413208008
 20
233.308380126953
 30
0.0
 11
137.986145019531
 21
231.324127197266
 31
0.0
  0
LINE
  5
    DC
  8
0
  6
CONTINUOUS
 62
    52
 10
139.969467163086
 20
229.064788818359
 30
0.0
 11
137.987091064453
 21
227.082427978516
 31
0.0
  0
LINE
  5
    DD
  8
0
  6
CONTINUOUS
 62
    52
 10
139.968521118164
 20
224.821197509766
 30
0.0
 11
137.988037109375
 21
222.840728759766
 31
0.0
  0
LINE
  5
    DE
  8
0
  6
CONTINUOUS
 62
    52
 10
139.967575073242
 20
220.577606201172
 30
0.0
 11
137.988983154297
 21
218.599029541016
 31
0.0
  0
LINE
  5
    DF
  8
0
  6
CONTINUOUS
 62
    52
 10
139.96662902832
 20
216.334014892578
 30
0.0
 11
137.989929199219
 21
214.357330322266
 31
0.0
  0
LINE
  5
    E0
  8
0
  6
CONTINUOUS
 62
    52
 10
139.965682983398
 20
212.090423583984
 30
0.0
 11
137.990875244141
 21
210.115631103516
 31
0.0
  0
LINE
  5
    E1
  8
0
  6
CONTINUOUS
 62
    52
 10
139.964736938477
 20
207.846832275391
 30
0.0
 11
137.991821289063
 21
205.873931884766
 31
0.0
  0
LINE
  5
    E2
  8
0
  6
CONTINUOUS
 62
    52
 10
139.963790893555
 20
203.603240966797
 30
0.0
 11
137.992767333984
 21
201.632232666016
 31
0.0
  0
LINE
  5
    E3
  8
0
  6
CONTINUOUS
 62
    52
 10
139.962844848633
 20
199.359649658203
 30
0.0
 11
137.993713378906
 21
197.390533447266
 31
0.0
  0
LINE
  5
    E4
  8
0
  6
CONTINUOUS
 62
    52
 10
139.961898803711
 20
195.116058349609
 30
0.0
 11
137.994659423828
 21
193.148834228516
 31
0.0
  0
LINE
  5
    E5
  8
0
  6
CONTINUOUS
 62
    52
 10
139.960952758789
 20
190.872467041016
 30
0.0
 11
137.99560546875
 21
188.907135009766
 31
0.0
  0
LINE
  5
    E6
  8
0
  6
CONTINUOUS
 62
    52
 10
139.960006713867
 20
186.628875732422
 30
0.0
 11
137.996551513672
 21
184.665435791016
 31
0.0
  0
LINE
  5
    E7
  8
0
  6
CONTINUOUS
 62
    52
 10
139.959060668945
 20
182.385284423828
 30
0.0
 11
137.997497558594
 21
180.423736572266
 31
0.0
  0
LINE
  5
    E8
  8
0
  6
CONTINUOUS
 62
    52
 10
139.958114624023
 20
178.141693115234
 30
0.0
 11
137.998443603516
 21
176.182037353516
 31
0.0
  0
LINE
  5
    E9
  8
0
  6
CONTINUOUS
 62
    52
 10
139.957168579102
 20
173.898101806641
 30
0.0
 11
137.999389648438
 21
171.940338134766
 31
0.0
  0
LINE
  5
    EA
  8
0
  6
CONTINUOUS
 62
    52
 10
139.95622253418
 20
169.654510498047
 30
0.0
 11
138.000335693359
 21
167.698638916016
 31
0.0
  0
LINE
  5
    EB
  8
0
  6
CONTINUOUS
 62
    52
 10
139.955276489258
 20
165.410919189453
 30
0.0
 11
138.001281738281
 21
163.456939697266
 31
0.0
  0
LINE
  5
    EC
  8
0
  6
CONTINUOUS
 62
    52
 10
139.954330444336
 20
161.167327880859
 30
0.0
 11
138.002227783203
 21
159.215240478516
 31
0.0
  0
LINE
  5
    ED
  8
0
  6
CONTINUOUS
 62
    52
 10
139.953384399414
 20
156.923736572266
 30
0.0
 11
138.003173828125
 21
154.973541259766
 31
0.0
  0
ENDBLK
  5
    EE
  8
0
  6
CONTINUOUS
 62
     7
  0
BLOCK
  5
    EF
  8
0
  6
CONTINUOUS
 62
     7
  2
*HATCH1
 70
    65
 10
0.0
 20
0.0
 30
0.0
  3
*HATCH1
  0
LINE
  5
    F0
  8
0
  6
CONTINUOUS
 62
    52
 10
139.814422607422
 20
6.17123985290527
 30
0.0
 11
137.852127075195
 21
4.2089467048645
 31
0.0
  0
LINE
  5
    F1
  8
0
  6
CONTINUOUS
 62
    52
 10
139.825103759766
 20
1.93928360939026
 30
0.0
 11
137.841537475586
 21
-4.42690849304199E-2
 31
0.0
  0
LINE
  5
    F2
  8
0
  6
CONTINUOUS
 62
    52
 10
139.835784912109
 20
-2.29267239570618
 30
0.0
 11
137.830947875977
 21
-4.29748487472534
 31
0.0
  0
LINE
  5
    F3
  8
0
  6
CONTINUOUS
 62
    52
 10
139.846466064453
 20
-6.52462863922119
 30
0.0
 11
137.820358276367
 21
-8.55070114135742
 31
0.0
  0
LINE
  5
    F4
  8
0
  6
CONTINUOUS
 62
    52
 10
139.857147216797
 20
-10.7565851211548
 30
0.0
 11
137.809768676758
 21
-12.8039169311523
 31
0.0
  0
LINE
  5
    F5
  8
0
  6
CONTINUOUS
 62
    52
 10
139.867828369141
 20
-14.9885416030884
 30
0.0
 11
137.799179077148
 21
-17.0571327209473
 31
0.0
  0
LINE
  5
    F6
  8
0
  6
CONTINUOUS
 62
    52
 10
139.878509521484
 20
-19.2204971313477
 30
0.0
 11
137.788589477539
 21
-21.3103485107422
 31
0.0
  0
LINE
  5
    F7
  8
0
  6
CONTINUOUS
 62
    52
 10
139.889190673828
 20
-23.4524536132813
 30
0.0
 11
137.77799987793
 21
-25.5635643005371
 31
0.0
  0
LINE
  5
    F8
  8
0
  6
CONTINUOUS
 62
    52
 10
139.899871826172
 20
-27.6844100952148
 30
0.0
 11
137.76741027832
 21
-29.816780090332
 31
0.0
  0
LINE
  5
    F9
  8
0
  6
CONTINUOUS
 62
    52
 10
139.910552978516
 20
-31.9163665771484
 30
0.0
 11
137.756820678711
 21
-34.069995880127
 31
0.0
  0
LINE
  5
    FA
  8
0
  6
CONTINUOUS
 62
    52
 10
139.921234130859
 20
-36.148323059082
 30
0.0
 11
137.746231079102
 21
-38.3232116699219
 31
0.0
  0
LINE
  5
    FB
  8
0
  6
CONTINUOUS
 62
    52
 10
139.931915283203
 20
-40.3802795410156
 30
0.0
 11
137.735641479492
 21
-42.5764312744141
 31
0.0
  0
LINE
  5
    FC
  8
0
  6
CONTINUOUS
 62
    52
 10
139.942596435547
 20
-44.6122360229492
 30
0.0
 11
137.725051879883
 21
-46.8296508789062
 31
0.0
  0
LINE
  5
    FD
  8
0
  6
CONTINUOUS
 62
    52
 10
139.953277587891
 20
-48.8441925048828
 30
0.0
 11
137.714462280273
 21
-51.0828704833984
 31
0.0
  0
LINE
  5
    FE
  8
0
  6
CONTINUOUS
 62
    52
 10
139.963958740234
 20
-53.0761489868164
 30
0.0
 11
137.703872680664
 21
-55.3360900878906
 31
0.0
  0
LINE
  5
    FF
  8
0
  6
CONTINUOUS
 62
    52
 10
139.974639892578
 20
-57.30810546875
 30
0.0
 11
137.693283081055
 21
-59.5893096923828
 31
0.0
  0
LINE
  5
   100
  8
0
  6
CONTINUOUS
 62
    52
 10
139.985321044922
 20
-61.5400619506836
 30
0.0
 11
137.682693481445
 21
-63.842529296875
 31
0.0
  0
LINE
  5
   101
  8
0
  6
CONTINUOUS
 62
    52
 10
139.996002197266
 20
-65.7720184326172
 30
0.0
 11
137.672103881836
 21
-68.0957489013672
 31
0.0
  0
LINE
  5
   102
  8
0
  6
CONTINUOUS
 62
    52
 10
140.006683349609
 20
-70.0039672851563
 30
0.0
 11
137.661514282227
 21
-72.3489685058594
 31
0.0
  0
LINE
  5
   103
  8
0
  6
CONTINUOUS
 62
    52
 10
140.017364501953
 20
-74.2359161376953
 30
0.0
 11
137.650924682617
 21
-76.6021881103516
 31
0.0
  0
LINE
  5
   104
  8
0
  6
CONTINUOUS
 62
    52
 10
140.028045654297
 20
-78.4678649902344
 30
0.0
 11
137.640335083008
 21
-80.8554077148438
 31
0.0
  0
ENDBLK
  5
   105
  8
0
  6
CONTINUOUS
 62
     7
  0
BLOCK
  5
   106
  8
0
  6
CONTINUOUS
 62
     7
  2
*HATCH2
 70
    65
 10
0.0
 20
0.0
 30
0.0
  3
*HATCH2
  0
LINE
  5
   107
  8
0
  6
CONTINUOUS
 62
   210
 10
139.999374389648
 20
-14.8415689468384
 30
0.0
 11
142.157836914063
 21
-17.0000438690186
 31
0.0
  0
LINE
  5
   108
  8
0
  6
CONTINUOUS
 62
   210
 10
139.999374389648
 20
-10.5989246368408
 30
0.0
 11
143.499374389648
 21
-14.0989294052124
 31
0.0
  0
LINE
  5
   109
  8
0
  6
CONTINUOUS
 62
   210
 10
139.999374389648
 20
-6.35628128051758
 30
0.0
 11
143.499374389648
 21
-9.85628604888916
 31
0.0
  0
LINE
  5
   10A
  8
0
  6
CONTINUOUS
 62
   210
 10
139.999374389648
 20
-2.11363792419434
 30
0.0
 11
143.499374389648
 21
-5.61364269256592
 31
0.0
  0
LINE
  5
   10B
  8
0
  6
CONTINUOUS
 62
   210
 10
139.999374389648
 20
2.12900543212891
 30
0.0
 11
143.499374389648
 21
-1.37099933624268
 31
0.0
  0
LINE
  5
   10C
  8
0
  6
CONTINUOUS
 62
   210
 10
139.999374389648
 20
6.37164878845215
 30
0.0
 11
143.499374389648
 21
2.87164402008057
 31
0.0
  0
LINE
  5
   10D
  8
0
  6
CONTINUOUS
 62
   210
 10
139.999374389648
 20
8.49296951293945
 30
0.0
 11
143.499374389648
 21
4.99296569824219
 31
0.0
  0
LINE
  5
   10E
  8
0
  6
CONTINUOUS
 62
   210
 10
142.23503112793
 20
10.4999561309814
 30
0.0
 11
143.499374389648
 21
9.23560905456543
 31
0.0
  0
ENDBLK
  5
   10F
  8
0
  6
CONTINUOUS
 62
     7
  0
BLOCK
  5
   110
  8
0
  6
CONTINUOUS
 62
     7
  2
*HATCH3
 70
    65
 10
0.0
 20
0.0
 30
0.0
  3
*HATCH3
  0
LINE
  5
   111
  8
0
  6
CONTINUOUS
 62
   210
 10
139.242248535156
 20
153.499969482422
 30
0.0
 11
141.242248535156
 21
151.499954223633
 31
0.0
  0
LINE
  5
   112
  8
0
  6
CONTINUOUS
 62
   210
 10
139.999374389648
 20
156.985488891602
 30
0.0
 11
143.499374389648
 21
153.485488891602
 31
0.0
  0
LINE
  5
   113
  8
0
  6
CONTINUOUS
 62
   210
 10
139.999374389648
 20
161.228134155273
 30
0.0
 11
143.499374389648
 21
157.728134155273
 31
0.0
  0
LINE
  5
   114
  8
0
  6
CONTINUOUS
 62
   210
 10
139.999374389648
 20
165.470779418945
 30
0.0
 11
143.499374389648
 21
161.970779418945
 31
0.0
  0
LINE
  5
   115
  8
0
  6
CONTINUOUS
 62
   210
 10
139.999374389648
 20
169.713424682617
 30
0.0
 11
143.499374389648
 21
166.213424682617
 31
0.0
  0
LINE
  5
   116
  8
0
  6
CONTINUOUS
 62
   210
 10
139.999374389648
 20
173.956069946289
 30
0.0
 11
143.499374389648
 21
170.456069946289
 31
0.0
  0
LINE
  5
   117
  8
0
  6
CONTINUOUS
 62
   210
 10
139.999374389648
 20
178.198715209961
 30
0.0
 11
143.499374389648
 21
174.698715209961
 31
0.0
  0
LINE
  5
   118
  8
0
  6
CONTINUOUS
 62
   210
 10
143.440765380859
 20
178.999954223633
 30
0.0
 11
143.499374389648
 21
178.941345214844
 31
0.0
  0
ENDBLK
  5
   119
  8
0
  6
CONTINUOUS
 62
     7
  0
BLOCK
  5
   11A
  8
0
  6
CONTINUOUS
 62
     7
  2
*HATCH4
 70
    65
 10
0.0
 20
0.0
 30
0.0
  3
*HATCH4
  0
LINE
  5
   11B
  8
0
  6
CONTINUOUS
 62
   210
 10
128.499374389648
 20
155.757568359375
 30
0.0
 11
130.999374389648
 21
153.257553100586
 31
0.0
  0
LINE
  5
   11C
  8
0
  6
CONTINUOUS
 62
   210
 10
128.499374389648
 20
160.000213623047
 30
0.0
 11
130.999374389648
 21
157.500198364258
 31
0.0
  0
LINE
  5
   11D
  8
0
  6
CONTINUOUS
 62
   210
 10
128.682418823242
 20
164.059814453125
 30
0.0
 11
130.999374389648
 21
161.74284362793
 31
0.0
  0
LINE
  5
   11E
  8
0
  6
CONTINUOUS
 62
   210
 10
130.747482299805
 20
166.237380981445
 30
0.0
 11
132.984893798828
 21
163.999969482422
 31
0.0
  0
LINE
  5
   11F
  8
0
  6
CONTINUOUS
 62
   210
 10
134.696350097656
 20
166.531158447266
 30
0.0
 11
136.537536621094
 21
164.689971923828
 31
0.0
  0
LINE
  5
   120
  8
0
  6
CONTINUOUS
 62
   210
 10
135.499374389648
 20
169.970764160156
 30
0.0
 11
137.995986938477
 21
167.474166870117
 31
0.0
  0
LINE
  5
   121
  8
0
  6
CONTINUOUS
 62
   210
 10
135.499374389648
 20
174.213409423828
 30
0.0
 11
137.999374389648
 21
171.713424682617
 31
0.0
  0
ENDBLK
  5
   122
  8
0
  6
CONTINUOUS
 62
     7
  0
BLOCK
  5
   123
  8
0
  6
CONTINUOUS
 62
     7
  2
*UDIM10
 70
    65
 10
0.0
 20
0.0
 30
0.0
  3
*UDIM10
  0
TEXT
  5
   124
  8
0
  6
CONTINUOUS
 62
     7
 10
179.222140380258
 20
177.762191840718
 30
0.0
 40
2.4999999335834
  1
3
 41
0.933333333333333
 72
     1
 11
180.138807022572
 21
179.012191807509
 31
0.0
 73
     2
  0
TEXT
  5
   125
  8
0
  6
CONTINUOUS
 62
     7
 10
176.930473782165
 20
177.762191840718
 30
0.0
 40
2.4999999335834
  1
_
 41
0.933333333333333
 72
     1
 11
177.847140424479
 21
179.012191807509
 31
0.0
 73
     2
  0
LINE
  5
   126
  8
0
  6
CONTINUOUS
 62
     7
 10
184.513806948066
 20
172.962430069427
 30
0.0
 11
184.513806948066
 21
178.762191840718
 31
0.0
  0
LINE
  5
   127
  8
0
  6
CONTINUOUS
 62
     7
 10
185.563812270761
 20
173.107850750742
 30
0.0
 11
185.563812270761
 21
178.762191840718
 31
0.0
  0
LINE
  5
   128
  8
0
  6
CONTINUOUS
 62
     7
 10
176.930473782165
 20
176.762191840718
 30
0.0
 11
185.563812270761
 21
176.762191840718
 31
0.0
  0
LINE
  5
   129
  8
0
  6
CONTINUOUS
 62
     7
 10
181.559383686384
 20
176.241247322717
 30
0.0
 11
184.513806948066
 21
176.762191840718
 31
0.0
  0
LINE
  5
   12A
  8
0
  6
CONTINUOUS
 62
     7
 10
184.513806948066
 20
176.762191840718
 30
0.0
 11
181.559383686384
 21
177.283136358718
 31
0.0
  0
LINE
  5
   12B
  8
0
  6
CONTINUOUS
 62
     7
 10
188.518235532442
 20
177.283136358718
 30
0.0
 11
185.563812270761
 21
176.762191840718
 31
0.0
  0
LINE
  5
   12C
  8
0
  6
CONTINUOUS
 62
     7
 10
185.563812270761
 20
176.762191840718
 30
0.0
 11
188.518235532442
 21
176.241247322717
 31
0.0
  0
ENDBLK
  5
   12D
  8
0
  6
CONTINUOUS
 62
     7
  0
BLOCK
  5
   12E
  8
0
  6
CONTINUOUS
 62
     7
  2
*UDIM11
 70
    65
 10
0.0
 20
0.0
 30
0.0
  3
*UDIM11
  0
TEXT
  5
   12F
  8
0
  6
CONTINUOUS
 62
     7
 10
197.863800638658
 20
177.762191840718
 30
0.0
 40
2.4999999335834
  1
103,5
 41
0.933333333333333
 72
     1
 11
203.447133823661
 21
179.012191807509
 31
0.0
 73
     2
  0
LINE
  5
   130
  8
0
  6
CONTINUOUS
 62
     7
 10
221.788790291547
 20
92.0827262893322
 30
0.0
 11
221.788790291547
 21
178.762191840718
 31
0.0
  0
LINE
  5
   131
  8
0
  6
CONTINUOUS
 62
     7
 10
185.563812270761
 20
176.762191840718
 30
0.0
 11
221.788790291547
 21
176.762191840718
 31
0.0
  0
LINE
  5
   132
  8
0
  6
CONTINUOUS
 62
     7
 10
188.518235532442
 20
177.283136358718
 30
0.0
 11
185.563812270761
 21
176.762191840718
 31
0.0
  0
LINE
  5
   133
  8
0
  6
CONTINUOUS
 62
     7
 10
185.563812270761
 20
176.762191840718
 30
0.0
 11
188.518235532442
 21
176.241247322717
 31
0.0
  0
LINE
  5
   134
  8
0
  6
CONTINUOUS
 62
     7
 10
218.834367029865
 20
176.241247322717
 30
0.0
 11
221.788790291547
 21
176.762191840718
 31
0.0
  0
LINE
  5
   135
  8
0
  6
CONTINUOUS
 62
     7
 10
221.788790291547
 20
176.762191840718
 30
0.0
 11
218.834367029865
 21
177.283136358718
 31
0.0
  0
ENDBLK
  5
   136
  8
0
  6
CONTINUOUS
 62
     7
  0
BLOCK
  5
   137
  8
0
  6
CONTINUOUS
 62
     7
  2
*UDIM12
 70
    65
 10
0.0
 20
0.0
 30
0.0
  3
*UDIM12
  0
TEXT
  5
   138
  8
0
  6
CONTINUOUS
 62
     7
 10
225.9511900672
 20
177.762191840718
 30
0.0
 40
2.4999999335834
  1
37
 41
0.933333333333333
 72
     1
 11
228.034523345186
 21
179.012191807509
 31
0.0
 73
     2
  0
LINE
  5
   139
  8
0
  6
CONTINUOUS
 62
     7
 10
234.738591772767
 20
165.502082023067
 30
0.0
 11
234.738591772767
 21
178.762191840718
 31
0.0
  0
LINE
  5
   13A
  8
0
  6
CONTINUOUS
 62
     7
 10
221.788790291547
 20
176.762191840718
 30
0.0
 11
234.738591772767
 21
176.762191840718
 31
0.0
  0
LINE
  5
   13B
  8
0
  6
CONTINUOUS
 62
     7
 10
224.743213553228
 20
177.283136358718
 30
0.0
 11
221.788790291547
 21
176.762191840718
 31
0.0
  0
LINE
  5
   13C
  8
0
  6
CONTINUOUS
 62
     7
 10
221.788790291547
 20
176.762191840718
 30
0.0
 11
224.743213553228
 21
176.241247322717
 31
0.0
  0
LINE
  5
   13D
  8
0
  6
CONTINUOUS
 62
     7
 10
231.784168511085
 20
176.241247322717
 30
0.0
 11
234.738591772767
 21
176.762191840718
 31
0.0
  0
LINE
  5
   13E
  8
0
  6
CONTINUOUS
 62
     7
 10
234.738591772767
 20
176.762191840718
 30
0.0
 11
231.784168511085
 21
177.283136358718
 31
0.0
  0
ENDBLK
  5
   13F
  8
0
  6
CONTINUOUS
 62
     7
  0
BLOCK
  5
   140
  8
0
  6
CONTINUOUS
 62
     7
  2
*UDIM13
 70
    65
 10
0.0
 20
0.0
 30
0.0
  3
*UDIM13
  0
TEXT
  5
   141
  8
0
  6
CONTINUOUS
 62
     7
 10
238.438591464185
 20
177.762191840718
 30
0.0
 40
2.4999999335834
  1
2
 41
0.933333333333333
 72
     1
 11
239.355258106499
 21
179.012191807509
 31
0.0
 73
     2
  0
LINE
  5
   142
  8
0
  6
CONTINUOUS
 62
     7
 10
235.438591760846
 20
165.28614635423
 30
0.0
 11
235.438591760846
 21
178.762191840718
 31
0.0
  0
LINE
  5
   143
  8
0
  6
CONTINUOUS
 62
     7
 10
234.738591772767
 20
176.762191840718
 30
0.0
 11
240.271924748813
 21
176.762191840718
 31
0.0
  0
LINE
  5
   144
  8
0
  6
CONTINUOUS
 62
     7
 10
231.784168511085
 20
176.241247322717
 30
0.0
 11
234.738591772767
 21
176.762191840718
 31
0.0
  0
LINE
  5
   145
  8
0
  6
CONTINUOUS
 62
     7
 10
234.738591772767
 20
176.762191840718
 30
0.0
 11
231.784168511085
 21
177.283136358718
 31
0.0
  0
LINE
  5
   146
  8
0
  6
CONTINUOUS
 62
     7
 10
238.393015022528
 20
177.283136358718
 30
0.0
 11
235.438591760846
 21
176.762191840718
 31
0.0
  0
LINE
  5
   147
  8
0
  6
CONTINUOUS
 62
     7
 10
235.438591760846
 20
176.762191840718
 30
0.0
 11
238.393015022528
 21
176.241247322717
 31
0.0
  0
ENDBLK
  5
   148
  8
0
  6
CONTINUOUS
 62
     7
  0
BLOCK
  5
   149
  8
0
  6
CONTINUOUS
 62
     7
  2
*UDIM14
 70
    65
 10
0.0
 20
0.0
 30
0.0
  3
*UDIM14
  0
TEXT
  5
   14A
  8
0
  6
CONTINUOUS
 62
     7
 10
224.523168493061
 20
11.4620706951307
 30
0.0
 40
2.4999999335834
  1
42,5
 41
0.933333333333333
 72
     1
 11
228.939835042392
 21
12.7120706619224
 31
0.0
 73
     2
  0
LINE
  5
   14B
  8
0
  6
CONTINUOUS
 62
     7
 10
221.788790291547
 20
53.332732255757
 30
0.0
 11
221.788790291547
 21
8.46207069513071
 31
0.0
  0
LINE
  5
   14C
  8
0
  6
CONTINUOUS
 62
     7
 10
236.663591739984
 20
39.4202266669823
 30
0.0
 11
236.663591739984
 21
8.46207069513071
 31
0.0
  0
LINE
  5
   14D
  8
0
  6
CONTINUOUS
 62
     7
 10
221.788790291547
 20
10.4620706951307
 30
0.0
 11
236.663591739984
 21
10.4620706951307
 31
0.0
  0
LINE
  5
   14E
  8
0
  6
CONTINUOUS
 62
     7
 10
224.743213553228
 20
10.983015213131
 30
0.0
 11
221.788790291547
 21
10.4620706951307
 31
0.0
  0
LINE
  5
   14F
  8
0
  6
CONTINUOUS
 62
     7
 10
221.788790291547
 20
10.4620706951307
 30
0.0
 11
224.743213553228
 21
9.94112617713036
 31
0.0
  0
LINE
  5
   150
  8
0
  6
CONTINUOUS
 62
     7
 10
233.709168478303
 20
9.94112617713036
 30
0.0
 11
236.663591739984
 21
10.4620706951307
 31
0.0
  0
LINE
  5
   151
  8
0
  6
CONTINUOUS
 62
     7
 10
236.663591739984
 20
10.4620706951307
 30
0.0
 11
233.709168478303
 21
10.983015213131
 31
0.0
  0
ENDBLK
  5
   152
  8
0
  6
CONTINUOUS
 62
     7
  0
BLOCK
  5
   153
  8
0
  6
CONTINUOUS
 62
     7
  2
*UDIM15
 70
    65
 10
0.0
 20
0.0
 30
0.0
  3
*UDIM15
  0
TEXT
  5
   154
  8
0
  6
CONTINUOUS
 62
     7
 10
249.923263724681
 20
-37.6709512183303
 30
0.0
 40
2.50000001341104
  1
70
 50
359.999999896069
 41
0.933333333333333
 72
     1
 11
252.006597071451
 21
-36.4209512153934
 31
0.0
 73
     2
  0
LINE
  5
   155
  8
0
  6
CONTINUOUS
 62
     7
 10
259.235763758421
 20
-36.006482783705
 30
0.0
 11
259.235763758421
 21
-40.6709512220989
 31
0.0
  0
LINE
  5
   156
  8
0
  6
CONTINUOUS
 62
     7
 10
259.235763758421
 20
-38.6709512220989
 30
0.0
 11
245.235763549805
 21
-38.6709512220989
 31
0.0
  0
LINE
  5
   157
  8
0
  6
CONTINUOUS
 62
     7
 10
256.281340496739
 20
-39.1918957400992
 30
0.0
 11
259.235763758421
 21
-38.6709512220989
 31
0.0
  0
LINE
  5
   158
  8
0
  6
CONTINUOUS
 62
     7
 10
259.235763758421
 20
-38.6709512220989
 30
0.0
 11
256.281340496739
 21
-38.1500067040986
 31
0.0
  0
LINE
  5
   159
  8
0
  6
CONTINUOUS
 62
     7
 10
248.190186811486
 20
-38.1500067040986
 30
0.0
 11
245.235763549805
 21
-38.6709512220989
 31
0.0
  0
LINE
  5
   15A
  8
0
  6
CONTINUOUS
 62
     7
 10
245.235763549805
 20
-38.6709512220989
 30
0.0
 11
248.190186811486
 21
-39.1918957400992
 31
0.0
  0
ENDBLK
  5
   15B
  8
0
  6
CONTINUOUS
 62
     7
  0
BLOCK
  5
   15C
  8
0
  6
CONTINUOUS
 62
     7
  2
*UDIM16
 70
    65
 10
0.0
 20
0.0
 30
0.0
  3
*UDIM16
  0
TEXT
  5
   15D
  8
0
  6
CONTINUOUS
 62
     7
 10
235.923262753125
 20
-37.6709512183303
 30
0.0
 40
2.50000001341104
  1
70
 50
359.999999896069
 41
0.933333333333333
 72
     1
 11
238.006596099896
 21
-36.4209512153934
 31
0.0
 73
     2
  0
LINE
  5
   15E
  8
0
  6
CONTINUOUS
 62
     7
 10
231.235763341188
 20
-34.8564827665687
 30
0.0
 11
231.235763341188
 21
-40.6709512220989
 31
0.0
  0
LINE
  5
   15F
  8
0
  6
CONTINUOUS
 62
     7
 10
245.235763549805
 20
-38.6709512220989
 30
0.0
 11
231.235763341188
 21
-38.6709512220989
 31
0.0
  0
LINE
  5
   160
  8
0
  6
CONTINUOUS
 62
     7
 10
242.281340288123
 20
-39.1918957400992
 30
0.0
 11
245.235763549805
 21
-38.6709512220989
 31
0.0
  0
LINE
  5
   161
  8
0
  6
CONTINUOUS
 62
     7
 10
245.235763549805
 20
-38.6709512220989
 30
0.0
 11
242.281340288123
 21
-38.1500067040986
 31
0.0
  0
LINE
  5
   162
  8
0
  6
CONTINUOUS
 62
     7
 10
234.19018660287
 20
-38.1500067040986
 30
0.0
 11
231.235763341188
 21
-38.6709512220989
 31
0.0
  0
LINE
  5
   163
  8
0
  6
CONTINUOUS
 62
     7
 10
231.235763341188
 20
-38.6709512220989
 30
0.0
 11
234.19018660287
 21
-39.1918957400992
 31
0.0
  0
ENDBLK
  5
   164
  8
0
  6
CONTINUOUS
 62
     7
  0
BLOCK
  5
   165
  8
0
  6
CONTINUOUS
 62
     7
  2
*UDIM17
 70
    65
 10
0.0
 20
0.0
 30
0.0
  3
*UDIM17
  0
TEXT
  5
   166
  8
0
  6
CONTINUOUS
 62
     7
 10
221.92326101863
 20
-37.6709512183303
 30
0.0
 40
2.50000001341104
  1
70
 50
359.999999896069
 41
0.933333333333333
 72
     1
 11
224.006594365401
 21
-36.4209512153934
 31
0.0
 73
     2
  0
LINE
  5
   167
  8
0
  6
CONTINUOUS
 62
     7
 10
217.235763132572
 20
-34.8564827665687
 30
0.0
 11
217.235763132572
 21
-40.6709512220989
 31
0.0
  0
LINE
  5
   168
  8
0
  6
CONTINUOUS
 62
     7
 10
231.235763341188
 20
-38.6709512220989
 30
0.0
 11
217.235763132572
 21
-38.6709512220989
 31
0.0
  0
LINE
  5
   169
  8
0
  6
CONTINUOUS
 62
     7
 10
228.281340079507
 20
-39.1918957400992
 30
0.0
 11
231.235763341188
 21
-38.6709512220989
 31
0.0
  0
LINE
  5
   16A
  8
0
  6
CONTINUOUS
 62
     7
 10
231.235763341188
 20
-38.6709512220989
 30
0.0
 11
228.281340079507
 21
-38.1500067040986
 31
0.0
  0
LINE
  5
   16B
  8
0
  6
CONTINUOUS
 62
     7
 10
220.190186394254
 20
-38.1500067040986
 30
0.0
 11
217.235763132572
 21
-38.6709512220989
 31
0.0
  0
LINE
  5
   16C
  8
0
  6
CONTINUOUS
 62
     7
 10
217.235763132572
 20
-38.6709512220989
 30
0.0
 11
220.190186394254
 21
-39.1918957400992
 31
0.0
  0
ENDBLK
  5
   16D
  8
0
  6
CONTINUOUS
 62
     7
  0
BLOCK
  5
   16E
  8
0
  6
CONTINUOUS
 62
     7
  2
*UDIM18
 70
    65
 10
0.0
 20
0.0
 30
0.0
  3
*UDIM18
  0
TEXT
  5
   16F
  8
0
  6
CONTINUOUS
 62
     7
 10
255.21493038278
 20
-73.0378111813727
 30
0.0
 40
2.50000001341104
  1
35
 50
359.999999896069
 41
0.933333333333333
 72
     1
 11
257.29826372955
 21
-71.7878111784358
 31
0.0
 73
     2
  0
LINE
  5
   170
  8
0
  6
CONTINUOUS
 62
     7
 10
259.381597074059
 20
-74.0378111851413
 30
0.0
 11
245.235763549805
 21
-74.0378111851413
 31
0.0
  0
LINE
  5
   171
  8
0
  6
CONTINUOUS
 62
     7
 10
249.281340392431
 20
-74.5587557031417
 30
0.0
 11
252.235763654113
 21
-74.0378111851413
 31
0.0
  0
LINE
  5
   172
  8
0
  6
CONTINUOUS
 62
     7
 10
252.235763654113
 20
-74.0378111851413
 30
0.0
 11
249.281340392431
 21
-73.516866667141
 31
0.0
  0
LINE
  5
   173
  8
0
  6
CONTINUOUS
 62
     7
 10
248.190186811486
 20
-73.516866667141
 30
0.0
 11
245.235763549805
 21
-74.0378111851413
 31
0.0
  0
LINE
  5
   174
  8
0
  6
CONTINUOUS
 62
     7
 10
245.235763549805
 20
-74.0378111851413
 30
0.0
 11
248.190186811486
 21
-74.5587557031417
 31
0.0
  0
ENDBLK
  5
   175
  8
0
  6
CONTINUOUS
 62
     7
  0
BLOCK
  5
   176
  8
0
  6
CONTINUOUS
 62
     7
  2
*UDIM19
 70
    65
 10
0.0
 20
0.0
 30
0.0
  3
*UDIM19
  0
TEXT
  5
   177
  8
0
  6
CONTINUOUS
 62
     7
 10
231.256596433358
 20
-73.0378111792623
 30
0.0
 40
2.50000001341104
  1
105
 50
359.999999896069
 41
0.933333333333333
 72
     1
 11
234.506596453053
 21
-71.7878111784358
 31
0.0
 73
     2
  0
LINE
  5
   178
  8
0
  6
CONTINUOUS
 62
     7
 10
245.235763549805
 20
-74.0378111851413
 30
0.0
 11
224.23576323688
 21
-74.0378111851413
 31
0.0
  0
LINE
  5
   179
  8
0
  6
CONTINUOUS
 62
     7
 10
242.281340288123
 20
-74.5587557031417
 30
0.0
 11
245.235763549805
 21
-74.0378111851413
 31
0.0
  0
LINE
  5
   17A
  8
0
  6
CONTINUOUS
 62
     7
 10
245.235763549805
 20
-74.0378111851413
 30
0.0
 11
242.281340288123
 21
-73.516866667141
 31
0.0
  0
LINE
  5
   17B
  8
0
  6
CONTINUOUS
 62
     7
 10
227.190186498562
 20
-73.516866667141
 30
0.0
 11
224.23576323688
 21
-74.0378111851413
 31
0.0
  0
LINE
  5
   17C
  8
0
  6
CONTINUOUS
 62
     7
 10
224.23576323688
 20
-74.0378111851413
 30
0.0
 11
227.190186498562
 21
-74.5587557031417
 31
0.0
  0
ENDBLK
  5
   17D
  8
0
  6
CONTINUOUS
 62
     7
  0
BLOCK
  5
   17E
  8
0
  6
CONTINUOUS
 62
     7
  2
*UDIM20
 70
    65
 10
0.0
 20
0.0
 30
0.0
  3
*UDIM20
  0
TEXT
  5
   17F
  8
0
  6
CONTINUOUS
 62
     7
 10
231.761352529448
 20
-59.8322871786096
 30
0.0
 40
2.50000001341104
  1
5,5
 50
337.561676423779
 41
0.933333333333333
 72
     1
 11
235.242408969
 21
-59.9174117622521
 31
0.0
 73
     2
  0
TEXT
  5
   180
  8
0
  6
CONTINUOUS
 62
     7
 10
229.335088782938
 20
-58.830354352363
 30
0.0
 40
2.50000001341104
  1
Ø
 50
337.561676423779
 41
0.933333333333333
 72
     1
 11
230.659466352581
 21
-58.0248719772716
 31
0.0
 73
     2
  0
TEXT
  5
   181
  8
0
  6
CONTINUOUS
 62
     7
 10
238.192877000666
 20
-62.4882043389618
 30
0.0
 40
2.50000001341104
  1
-M5
 50
337.561676423779
 41
0.933333333333333
 72
     1
 11
241.673933440218
 21
-62.5733289226042
 31
0.0
 73
     2
  0
LINE
  5
   182
  8
0
  6
CONTINUOUS
 62
     7
 10
243.819079449724
 20
-65.8934718022708
 30
0.0
 11
223.727403212317
 21
-57.5965543392391
 31
0.0
  0
LINE
  5
   183
  8
0
  6
CONTINUOUS
 62
     7
 10
227.673708547218
 20
-58.6625775624114
 30
0.0
 11
224.744123261444
 21
-58.0164119076639
 31
0.0
  0
LINE
  5
   184
  8
0
  6
CONTINUOUS
 62
     7
 10
224.744123261444
 20
-58.0164119076639
 30
0.0
 11
227.27603128294
 21
-59.6255861588502
 31
0.0
  0
LINE
  5
   185
  8
0
  6
CONTINUOUS
 62
     7
 10
220.797817926543
 20
-56.9503886844916
 30
0.0
 11
223.727403212317
 21
-57.5965543392391
 31
0.0
  0
LINE
  5
   186
  8
0
  6
CONTINUOUS
 62
     7
 10
223.727403212317
 20
-57.5965543392391
 30
0.0
 11
221.19549519082
 21
-55.9873800880527
 31
0.0
  0
ENDBLK
  5
   187
  8
0
  6
CONTINUOUS
 62
     7
  0
BLOCK
  5
   188
  8
0
  6
CONTINUOUS
 62
     7
  2
*UDIM21
 70
    65
 10
0.0
 20
0.0
 30
0.0
  3
*UDIM21
  0
TEXT
  5
   189
  8
0
  6
CONTINUOUS
 62
     7
 10
268.31052028104
 20
-34.6163781759726
 30
0.0
 40
2.50000001341104
  1
35
 50
326.487613132109
 41
0.933333333333333
 72
     1
 11
270.737680355212
 21
-34.7244143525646
 31
0.0
 73
     2
  0
TEXT
  5
   18A
  8
0
  6
CONTINUOUS
 62
     7
 10
266.121883246615
 20
-33.1670703799943
 30
0.0
 40
2.50000001341104
  1
Ø
 50
326.487613132109
 41
0.933333333333333
 72
     1
 11
267.576315757403
 21
-32.6309697596647
 31
0.0
 73
     2
  0
LINE
  5
   18B
  8
0
  6
CONTINUOUS
 62
     7
 10
271.232430047057
 20
-37.750633213939
 30
0.0
 11
256.317581036944
 21
-27.8740723023054
 31
0.0
  0
LINE
  5
   18C
  8
0
  6
CONTINUOUS
 62
     7
 10
259.403024943571
 20
-30.5420511402065
 30
0.0
 11
262.153946479898
 21
-31.7388931101325
 31
0.0
  0
LINE
  5
   18D
  8
0
  6
CONTINUOUS
 62
     7
 10
262.153946479898
 20
-31.7388931101325
 30
0.0
 11
259.978269852969
 21
-29.6733589867073
 31
0.0
  0
LINE
  5
   18E
  8
0
  6
CONTINUOUS
 62
     7
 10
259.068502573271
 20
-29.0709142722314
 30
0.0
 11
256.317581036944
 21
-27.8740723023054
 31
0.0
  0
LINE
  5
   18F
  8
0
  6
CONTINUOUS
 62
     7
 10
256.317581036944
 20
-27.8740723023054
 30
0.0
 11
258.493257663873
 21
-29.9396064257306
 31
0.0
  0
ENDBLK
  5
   190
  8
0
  6
CONTINUOUS
 62
     7
  0
BLOCK
  5
   191
  8
0
  6
CONTINUOUS
 62
     7
  2
*UDIM22
 70
    65
 10
0.0
 20
0.0
 30
0.0
  3
*UDIM22
  0
TEXT
  5
   192
  8
0
  6
CONTINUOUS
 62
     7
 10
275.179770352688
 20
-95.5856505945445
 30
0.0
 40
2.50000001341104
  1
135
 50
449.999999896069
 41
0.933333333333333
 72
     1
 11
273.929770351857
 21
-92.3356505748506
 31
0.0
 73
     2
  0
LINE
  5
   193
  8
0
  6
CONTINUOUS
 62
     7
 10
264.449378834183
 20
-78.6064834333956
 30
0.0
 11
278.179770358563
 21
-78.6064834333956
 31
0.0
  0
LINE
  5
   194
  8
0
  6
CONTINUOUS
 62
     7
 10
265.435763835907
 20
-105.606483835727
 30
0.0
 11
278.179770358563
 21
-105.606483835727
 31
0.0
  0
LINE
  5
   195
  8
0
  6
CONTINUOUS
 62
     7
 10
276.179770358563
 20
-78.6064834333956
 30
0.0
 11
276.179770358563
 21
-105.606483835727
 31
0.0
  0
LINE
  5
   196
  8
0
  6
CONTINUOUS
 62
     7
 10
276.700714876563
 20
-81.5609066950772
 30
0.0
 11
276.179770358563
 21
-78.6064834333956
 31
0.0
  0
LINE
  5
   197
  8
0
  6
CONTINUOUS
 62
     7
 10
276.179770358563
 20
-78.6064834333956
 30
0.0
 11
275.658825840562
 21
-81.5609066950772
 31
0.0
  0
LINE
  5
   198
  8
0
  6
CONTINUOUS
 62
     7
 10
275.658825840562
 20
-102.652060574045
 30
0.0
 11
276.179770358563
 21
-105.606483835727
 31
0.0
  0
LINE
  5
   199
  8
0
  6
CONTINUOUS
 62
     7
 10
276.179770358563
 20
-105.606483835727
 30
0.0
 11
276.700714876563
 21
-102.652060574045
 31
0.0
  0
ENDBLK
  5
   19A
  8
0
  6
CONTINUOUS
 62
     7
  0
BLOCK
  5
   19B
  8
0
  6
CONTINUOUS
 62
     7
  2
*UDIM23
 70
    65
 10
0.0
 20
0.0
 30
0.0
  3
*UDIM23
  0
TEXT
  5
   19C
  8
0
  6
CONTINUOUS
 62
     7
 10
196.546837662411
 20
-71.1856502309561
 30
0.0
 40
2.50000001341104
  1
375
 50
449.999999896069
 41
0.933333333333333
 72
     1
 11
195.29683766158
 21
-67.9356502112622
 31
0.0
 73
     2
  0
LINE
  5
   19D
  8
0
  6
CONTINUOUS
 62
     7
 10
234.671252693255
 20
-30.2064827121794
 30
0.0
 11
195.546837668286
 21
-30.2064827121794
 31
0.0
  0
LINE
  5
   19E
  8
0
  6
CONTINUOUS
 62
     7
 10
234.533330798437
 20
-105.206483829767
 30
0.0
 11
195.546837668286
 21
-105.206483829767
 31
0.0
  0
LINE
  5
   19F
  8
0
  6
CONTINUOUS
 62
     7
 10
197.546837668286
 20
-30.2064827121794
 30
0.0
 11
197.546837668286
 21
-105.206483829767
 31
0.0
  0
LINE
  5
   1A0
  8
0
  6
CONTINUOUS
 62
     7
 10
198.067782186286
 20
-33.160905973861
 30
0.0
 11
197.546837668286
 21
-30.2064827121794
 31
0.0
  0
LINE
  5
   1A1
  8
0
  6
CONTINUOUS
 62
     7
 10
197.546837668286
 20
-30.2064827121794
 30
0.0
 11
197.025893150286
 21
-33.160905973861
 31
0.0
  0
LINE
  5
   1A2
  8
0
  6
CONTINUOUS
 62
     7
 10
197.025893150286
 20
-102.252060568085
 30
0.0
 11
197.546837668286
 21
-105.206483829767
 31
0.0
  0
LINE
  5
   1A3
  8
0
  6
CONTINUOUS
 62
     7
 10
197.546837668286
 20
-105.206483829767
 30
0.0
 11
198.067782186286
 21
-102.252060568085
 31
0.0
  0
ENDBLK
  5
   1A4
  8
0
  6
CONTINUOUS
 62
     7
  0
BLOCK
  5
   1A5
  8
0
  6
CONTINUOUS
 62
     7
  2
*UDIM24
 70
    65
 10
0.0
 20
0.0
 30
0.0
  3
*UDIM24
  0
TEXT
  5
   1A6
  8
0
  6
CONTINUOUS
 62
     7
 10
202.670436996824
 20
-71.6856502384067
 30
0.0
 40
2.50000001341104
  1
104
 50
449.999999896069
 41
0.933333333333333
 72
     1
 11
201.420436995993
 21
-68.4356502187128
 31
0.0
 73
     2
  0
LINE
  5
   1A7
  8
0
  6
CONTINUOUS
 62
     7
 10
234.671252693255
 20
-57.8064831234515
 30
0.0
 11
201.670437002699
 21
-57.8064831234515
 31
0.0
  0
LINE
  5
   1A8
  8
0
  6
CONTINUOUS
 62
     7
 10
208.984482289035
 20
-78.6064834333956
 30
0.0
 11
201.670437002699
 21
-78.6064834333956
 31
0.0
  0
LINE
  5
   1A9
  8
0
  6
CONTINUOUS
 62
     7
 10
203.670437002699
 20
-57.8064831234515
 30
0.0
 11
203.670437002699
 21
-78.6064834333956
 31
0.0
  0
LINE
  5
   1AA
  8
0
  6
CONTINUOUS
 62
     7
 10
204.191381520699
 20
-60.7609063851331
 30
0.0
 11
203.670437002699
 21
-57.8064831234515
 31
0.0
  0
LINE
  5
   1AB
  8
0
  6
CONTINUOUS
 62
     7
 10
203.670437002699
 20
-57.8064831234515
 30
0.0
 11
203.149492484698
 21
-60.7609063851331
 31
0.0
  0
LINE
  5
   1AC
  8
0
  6
CONTINUOUS
 62
     7
 10
203.149492484698
 20
-75.652060171714
 30
0.0
 11
203.670437002699
 21
-78.6064834333956
 31
0.0
  0
LINE
  5
   1AD
  8
0
  6
CONTINUOUS
 62
     7
 10
203.670437002699
 20
-78.6064834333956
 30
0.0
 11
204.191381520699
 21
-75.652060171714
 31
0.0
  0
ENDBLK
  5
   1AE
  8
0
  6
CONTINUOUS
 62
     7
  0
BLOCK
  5
   1AF
  8
0
  6
CONTINUOUS
 62
     7
  2
*UDIM25
 70
    65
 10
0.0
 20
0.0
 30
0.0
  3
*UDIM25
  0
TEXT
  5
   1B0
  8
0
  6
CONTINUOUS
 62
     7
 10
202.670436996824
 20
-95.3856505915642
 30
0.0
 40
2.50000001341104
  1
133
 50
449.999999896069
 41
0.933333333333333
 72
     1
 11
201.420436995993
 21
-92.1356505718703
 31
0.0
 73
     2
  0
LINE
  5
   1B1
  8
0
  6
CONTINUOUS
 62
     7
 10
234.533330798437
 20
-105.206483829767
 30
0.0
 11
201.670437002699
 21
-105.206483829767
 31
0.0
  0
LINE
  5
   1B2
  8
0
  6
CONTINUOUS
 62
     7
 10
203.670437002699
 20
-78.6064834333956
 30
0.0
 11
203.670437002699
 21
-105.206483829767
 31
0.0
  0
LINE
  5
   1B3
  8
0
  6
CONTINUOUS
 62
     7
 10
204.191381520699
 20
-81.5609066950772
 30
0.0
 11
203.670437002699
 21
-78.6064834333956
 31
0.0
  0
LINE
  5
   1B4
  8
0
  6
CONTINUOUS
 62
     7
 10
203.670437002699
 20
-78.6064834333956
 30
0.0
 11
203.149492484698
 21
-81.5609066950772
 31
0.0
  0
LINE
  5
   1B5
  8
0
  6
CONTINUOUS
 62
     7
 10
203.149492484698
 20
-102.252060568085
 30
0.0
 11
203.670437002699
 21
-105.206483829767
 31
0.0
  0
LINE
  5
   1B6
  8
0
  6
CONTINUOUS
 62
     7
 10
203.670437002699
 20
-105.206483829767
 30
0.0
 11
204.191381520699
 21
-102.252060568085
 31
0.0
  0
ENDBLK
  5
   1B7
  8
0
  6
CONTINUOUS
 62
     7
  0
BLOCK
  5
   1B8
  8
0
  6
CONTINUOUS
 62
     7
  2
*UDIM26
 70
    65
 10
0.0
 20
0.0
 30
0.0
  3
*UDIM26
  0
TEXT
  5
   1B9
  8
0
  6
CONTINUOUS
 62
     7
 10
269.304280462225
 20
-99.1064839867001
 30
0.0
 40
2.50000001341104
  1
8
 50
449.999999896069
 41
0.933333333333333
 72
     1
 11
268.054280457177
 21
-98.1898173128565
 31
0.0
 73
     2
  0
LINE
  5
   1BA
  8
0
  6
CONTINUOUS
 62
     7
 10
260.235763758421
 20
-102.106483783573
 30
0.0
 11
272.304280463882
 21
-102.106483783573
 31
0.0
  0
LINE
  5
   1BB
  8
0
  6
CONTINUOUS
 62
     7
 10
256.735763706267
 20
-103.706483807415
 30
0.0
 11
272.304280463882
 21
-103.706483807415
 31
0.0
  0
LINE
  5
   1BC
  8
0
  6
CONTINUOUS
 62
     7
 10
270.304280463882
 20
-97.2731506412725
 30
0.0
 11
270.304280463882
 21
-103.706483807415
 31
0.0
  0
LINE
  5
   1BD
  8
0
  6
CONTINUOUS
 62
     7
 10
269.783335945882
 20
-99.1520605218913
 30
0.0
 11
270.304280463882
 21
-102.106483783573
 31
0.0
  0
LINE
  5
   1BE
  8
0
  6
CONTINUOUS
 62
     7
 10
270.304280463882
 20
-102.106483783573
 30
0.0
 11
270.825224981882
 21
-99.1520605218913
 31
0.0
  0
LINE
  5
   1BF
  8
0
  6
CONTINUOUS
 62
     7
 10
270.825224981882
 20
-106.660907069096
 30
0.0
 11
270.304280463882
 21
-103.706483807415
 31
0.0
  0
LINE
  5
   1C0
  8
0
  6
CONTINUOUS
 62
     7
 10
270.304280463882
 20
-103.706483807415
 30
0.0
 11
269.783335945882
 21
-106.660907069096
 31
0.0
  0
ENDBLK
  5
   1C1
  8
0
  6
CONTINUOUS
 62
     7
  0
BLOCK
  5
   1C2
  8
0
  6
CONTINUOUS
 62
     7
  2
*UDIM27
 70
    65
 10
0.0
 20
0.0
 30
0.0
  3
*UDIM27
  0
TEXT
  5
   1C3
  8
0
  6
CONTINUOUS
 62
     7
 10
280.988208549592
 20
-71.1856502309561
 30
0.0
 40
2.50000001341104
  1
379
 50
449.999999896069
 41
0.933333333333333
 72
     1
 11
279.738208548761
 21
-67.9356502112622
 31
0.0
 73
     2
  0
LINE
  5
   1C4
  8
0
  6
CONTINUOUS
 62
     7
 10
265.435763835907
 20
-29.806482706219
 30
0.0
 11
283.988208555467
 21
-29.806482706219
 31
0.0
  0
LINE
  5
   1C5
  8
0
  6
CONTINUOUS
 62
     7
 10
265.435763835907
 20
-105.606483835727
 30
0.0
 11
283.988208555467
 21
-105.606483835727
 31
0.0
  0
LINE
  5
   1C6
  8
0
  6
CONTINUOUS
 62
     7
 10
281.988208555467
 20
-29.806482706219
 30
0.0
 11
281.988208555467
 21
-105.606483835727
 31
0.0
  0
LINE
  5
   1C7
  8
0
  6
CONTINUOUS
 62
     7
 10
282.509153073467
 20
-32.7609059679006
 30
0.0
 11
281.988208555467
 21
-29.806482706219
 31
0.0
  0
LINE
  5
   1C8
  8
0
  6
CONTINUOUS
 62
     7
 10
281.988208555467
 20
-29.806482706219
 30
0.0
 11
281.467264037466
 21
-32.7609059679006
 31
0.0
  0
LINE
  5
   1C9
  8
0
  6
CONTINUOUS
 62
     7
 10
281.467264037466
 20
-102.652060574045
 30
0.0
 11
281.988208555467
 21
-105.606483835727
 31
0.0
  0
LINE
  5
   1CA
  8
0
  6
CONTINUOUS
 62
     7
 10
281.988208555467
 20
-105.606483835727
 30
0.0
 11
282.509153073467
 21
-102.652060574045
 31
0.0
  0
ENDBLK
  5
   1CB
  8
0
  6
CONTINUOUS
 62
     7
  0
BLOCK
  5
   1CC
  8
0
  6
CONTINUOUS
 62
     7
  2
*UDIM28
 70
    65
 10
0.0
 20
0.0
 30
0.0
  3
*UDIM28
  0
TEXT
  5
   1CD
  8
0
  6
CONTINUOUS
 62
     7
 10
99.3638652820528
 20
-72.281884682669
 30
0.0
 40
2.50000001341104
  1
2,75
 50
359.999999844103
 41
0.933333333333333
 72
     1
 11
103.780531975807
 21
-71.0318846879587
 31
0.0
 73
     2
  0
LINE
  5
   1CE
  8
0
  6
CONTINUOUS
 62
     7
 10
109.818438712507
 20
-62.8299832178652
 30
0.0
 11
109.818438712507
 21
-75.2818846946642
 31
0.0
  0
LINE
  5
   1CF
  8
0
  6
CONTINUOUS
 62
     7
 10
99.3638652854477
 20
-73.2818846946642
 30
0.0
 11
110.368438720703
 21
-73.2818846946642
 31
0.0
  0
LINE
  5
   1D0
  8
0
  6
CONTINUOUS
 62
     7
 10
106.864015450826
 20
-73.8028292126645
 30
0.0
 11
109.818438712507
 21
-73.2818846946642
 31
0.0
  0
LINE
  5
   1D1
  8
0
  6
CONTINUOUS
 62
     7
 10
109.818438712507
 20
-73.2818846946642
 30
0.0
 11
106.864015450826
 21
-72.7609401766639
 31
0.0
  0
LINE
  5
   1D2
  8
0
  6
CONTINUOUS
 62
     7
 10
113.322861982385
 20
-72.7609401766639
 30
0.0
 11
110.368438720703
 21
-73.2818846946642
 31
0.0
  0
LINE
  5
   1D3
  8
0
  6
CONTINUOUS
 62
     7
 10
110.368438720703
 20
-73.2818846946642
 30
0.0
 11
113.322861982385
 21
-73.8028292126645
 31
0.0
  0
ENDBLK
  5
   1D4
  8
0
  6
CONTINUOUS
 62
     7
  0
BLOCK
  5
   1D5
  8
0
  6
CONTINUOUS
 62
     7
  2
*UDIM29
 70
    65
 10
0.0
 20
0.0
 30
0.0
  3
*UDIM29
  0
TEXT
  5
   1D6
  8
0
  6
CONTINUOUS
 62
     7
 10
135.217828748671
 20
-71.8064832626316
 30
0.0
 40
2.50000001341104
  1
90
 50
449.999999844103
 41
0.933333333333333
 72
     1
 11
133.967828747621
 21
-69.7231499147291
 31
0.0
 73
     2
  0
LINE
  5
   1D7
  8
0
  6
CONTINUOUS
 62
     7
 10
121.154438866526
 20
-60.4939831979573
 30
0.0
 11
138.217828754327
 21
-60.4939831979573
 31
0.0
  0
LINE
  5
   1D8
  8
0
  6
CONTINUOUS
 62
     7
 10
133.472673689579
 20
-78.4939834661782
 30
0.0
 11
138.217828754327
 21
-78.4939834661782
 31
0.0
  0
LINE
  5
   1D9
  8
0
  6
CONTINUOUS
 62
     7
 10
136.217828754327
 20
-60.4939831979573
 30
0.0
 11
136.217828754327
 21
-78.4939834661782
 31
0.0
  0
LINE
  5
   1DA
  8
0
  6
CONTINUOUS
 62
     7
 10
136.738773272327
 20
-63.4484064596389
 30
0.0
 11
136.217828754327
 21
-60.4939831979573
 31
0.0
  0
LINE
  5
   1DB
  8
0
  6
CONTINUOUS
 62
     7
 10
136.217828754327
 20
-60.4939831979573
 30
0.0
 11
135.696884236326
 21
-63.4484064596389
 31
0.0
  0
LINE
  5
   1DC
  8
0
  6
CONTINUOUS
 62
     7
 10
135.696884236326
 20
-75.5395602044966
 30
0.0
 11
136.217828754327
 21
-78.4939834661782
 31
0.0
  0
LINE
  5
   1DD
  8
0
  6
CONTINUOUS
 62
     7
 10
136.217828754327
 20
-78.4939834661782
 30
0.0
 11
136.738773272327
 21
-75.5395602044966
 31
0.0
  0
ENDBLK
  5
   1DE
  8
0
  6
CONTINUOUS
 62
     7
  0
BLOCK
  5
   1DF
  8
0
  6
CONTINUOUS
 62
     7
  2
*UDIM30
 70
    65
 10
0.0
 20
0.0
 30
0.0
  3
*UDIM30
  0
TEXT
  5
   1E0
  8
0
  6
CONTINUOUS
 62
     7
 10
112.258027392056
 20
-52.4054592219259
 30
0.0
 40
2.50000001341104
  1
45
 50
359.999999844103
 41
0.933333333333333
 72
     1
 11
114.34136073996
 21
-51.1554592208784
 31
0.0
 73
     2
  0
LINE
  5
   1E1
  8
0
  6
CONTINUOUS
 62
     7
 10
109.818438712507
 20
-58.1579831780493
 30
0.0
 11
109.818438712507
 21
-51.405459227584
 31
0.0
  0
LINE
  5
   1E2
  8
0
  6
CONTINUOUS
 62
     7
 10
118.818438846618
 20
-58.1579831780493
 30
0.0
 11
118.818438846618
 21
-51.405459227584
 31
0.0
  0
LINE
  5
   1E3
  8
0
  6
CONTINUOUS
 62
     7
 10
109.818438712507
 20
-53.4054592275839
 30
0.0
 11
118.818438846618
 21
-53.4054592275839
 31
0.0
  0
LINE
  5
   1E4
  8
0
  6
CONTINUOUS
 62
     7
 10
112.772861974189
 20
-52.8845147095836
 30
0.0
 11
109.818438712507
 21
-53.4054592275839
 31
0.0
  0
LINE
  5
   1E5
  8
0
  6
CONTINUOUS
 62
     7
 10
109.818438712507
 20
-53.4054592275839
 30
0.0
 11
112.772861974189
 21
-53.9264037455843
 31
0.0
  0
LINE
  5
   1E6
  8
0
  6
CONTINUOUS
 62
     7
 10
115.864015584936
 20
-53.9264037455843
 30
0.0
 11
118.818438846618
 21
-53.4054592275839
 31
0.0
  0
LINE
  5
   1E7
  8
0
  6
CONTINUOUS
 62
     7
 10
118.818438846618
 20
-53.4054592275839
 30
0.0
 11
115.864015584936
 21
-52.8845147095836
 31
0.0
  0
ENDBLK
  5
   1E8
  8
0
  6
CONTINUOUS
 62
     7
  0
BLOCK
  5
   1E9
  8
0
  6
CONTINUOUS
 62
     7
  2
*UDIM31
 70
    65
 10
0.0
 20
0.0
 30
0.0
  3
*UDIM31
  0
TEXT
  5
   1EA
  8
0
  6
CONTINUOUS
 62
     7
 10
86.1725950295136
 20
-104.578177369282
 30
0.0
 40
2.50000001341104
  1
7
 50
397.208926617964
 41
0.933333333333333
 72
     1
 11
86.1467570916681
 21
-103.028303114858
 31
0.0
 73
     2
  0
TEXT
  5
   1EB
  8
0
  6
CONTINUOUS
 62
     7
 10
84.081951264875
 20
-106.165575808653
 30
0.0
 40
2.50000001341104
  1
Ø
 50
397.208926617964
 41
0.933333333333333
 72
     1
 11
84.0561133270295
 21
-104.61570155423
 31
0.0
 73
     2
  0
LINE
  5
   1EC
  8
0
  6
CONTINUOUS
 62
     7
 10
99.4259435552424
 20
-95.7706774779119
 30
0.0
 11
84.6866744772393
 21
-106.962011519433
 31
0.0
  0
LINE
  5
   1ED
  8
0
  6
CONTINUOUS
 62
     7
 10
101.463924505616
 20
-93.5691703473503
 30
0.0
 11
99.4259435552424
 21
-95.7706774779119
 31
0.0
  0
LINE
  5
   1EE
  8
0
  6
CONTINUOUS
 62
     7
 10
99.4259435552424
 20
-95.7706774779119
 30
0.0
 11
102.093978986009
 21
-94.3989679823647
 31
0.0
  0
LINE
  5
   1EF
  8
0
  6
CONTINUOUS
 62
     7
 10
96.2729525930634
 20
-98.8187971125071
 30
0.0
 11
98.3109335434371
 21
-96.6172899819455
 31
0.0
  0
LINE
  5
   1F0
  8
0
  6
CONTINUOUS
 62
     7
 10
98.3109335434371
 20
-96.6172899819455
 30
0.0
 11
95.6428981126706
 21
-97.9889994774928
 31
0.0
  0
ENDBLK
  5
   1F1
  8
0
  6
CONTINUOUS
 62
     7
  0
BLOCK
  5
   1F2
  8
0
  6
CONTINUOUS
 62
     7
  2
*UDIM32
 70
    65
 10
0.0
 20
0.0
 30
0.0
  3
*UDIM32
  0
TEXT
  5
   1F3
  8
0
  6
CONTINUOUS
 62
     7
 10
106.889271759585
 20
-112.854860449113
 30
0.0
 40
2.50000001341104
  1
147
 50
359.999999844103
 41
0.933333333333333
 72
     1
 11
110.139271780414
 21
-111.604860451235
 31
0.0
 73
     2
  0
LINE
  5
   1F4
  8
0
  6
CONTINUOUS
 62
     7
 10
95.6684385016561
 20
-94.1939836852253
 30
0.0
 11
95.6684385016561
 21
-115.85486045794
 31
0.0
  0
LINE
  5
   1F5
  8
0
  6
CONTINUOUS
 62
     7
 10
125.06843893975
 20
-94.1939836852253
 30
0.0
 11
125.06843893975
 21
-115.85486045794
 31
0.0
  0
LINE
  5
   1F6
  8
0
  6
CONTINUOUS
 62
     7
 10
95.6684385016561
 20
-113.85486045794
 30
0.0
 11
125.06843893975
 21
-113.85486045794
 31
0.0
  0
LINE
  5
   1F7
  8
0
  6
CONTINUOUS
 62
     7
 10
98.6228617633377
 20
-113.33391593994
 30
0.0
 11
95.6684385016561
 21
-113.85486045794
 31
0.0
  0
LINE
  5
   1F8
  8
0
  6
CONTINUOUS
 62
     7
 10
95.6684385016561
 20
-113.85486045794
 30
0.0
 11
98.6228617633377
 21
-114.37580497594
 31
0.0
  0
LINE
  5
   1F9
  8
0
  6
CONTINUOUS
 62
     7
 10
122.114015678069
 20
-114.37580497594
 30
0.0
 11
125.06843893975
 21
-113.85486045794
 31
0.0
  0
LINE
  5
   1FA
  8
0
  6
CONTINUOUS
 62
     7
 10
125.06843893975
 20
-113.85486045794
 30
0.0
 11
122.114015678069
 21
-113.33391593994
 31
0.0
  0
ENDBLK
  5
   1FB
  8
0
  6
CONTINUOUS
 62
     7
  0
BLOCK
  5
   1FC
  8
0
  6
CONTINUOUS
 62
     7
  2
*UDIM33
 70
    65
 10
0.0
 20
0.0
 30
0.0
  3
*UDIM33
  0
TEXT
  5
   1FD
  8
0
  6
CONTINUOUS
 62
     7
 10
106.889271759585
 20
-106.262541625294
 30
0.0
 40
2.50000001341104
  1
115
 50
359.999999844103
 41
0.933333333333333
 72
     1
 11
110.139271780414
 21
-105.012541627415
 31
0.0
 73
     2
  0
LINE
  5
   1FE
  8
0
  6
CONTINUOUS
 62
     7
 10
98.8684385493398
 20
-63.0939832217991
 30
0.0
 11
98.8684385493398
 21
-109.262541634121
 31
0.0
  0
LINE
  5
   1FF
  8
0
  6
CONTINUOUS
 62
     7
 10
121.868438892067
 20
-63.0939832217991
 30
0.0
 11
121.868438892067
 21
-109.262541634121
 31
0.0
  0
LINE
  5
   200
  8
0
  6
CONTINUOUS
 62
     7
 10
98.8684385493398
 20
-107.262541634121
 30
0.0
 11
121.868438892067
 21
-107.262541634121
 31
0.0
  0
LINE
  5
   201
  8
0
  6
CONTINUOUS
 62
     7
 10
101.822861811021
 20
-106.741597116121
 30
0.0
 11
98.8684385493398
 21
-107.262541634121
 31
0.0
  0
LINE
  5
   202
  8
0
  6
CONTINUOUS
 62
     7
 10
98.8684385493398
 20
-107.262541634121
 30
0.0
 11
101.822861811021
 21
-107.783486152121
 31
0.0
  0
LINE
  5
   203
  8
0
  6
CONTINUOUS
 62
     7
 10
118.914015630385
 20
-107.783486152121
 30
0.0
 11
121.868438892067
 21
-107.262541634121
 31
0.0
  0
LINE
  5
   204
  8
0
  6
CONTINUOUS
 62
     7
 10
121.868438892067
 20
-107.262541634121
 30
0.0
 11
118.914015630385
 21
-106.741597116121
 31
0.0
  0
ENDBLK
  5
   205
  8
0
  6
CONTINUOUS
 62
     7
  0
BLOCK
  5
   206
  8
0
  6
CONTINUOUS
 62
     7
  2
*UDIM34
 70
    65
 10
0.0
 20
0.0
 30
0.0
  3
*UDIM34
  0
TEXT
  5
   207
  8
0
  6
CONTINUOUS
 62
     7
 10
77.3518458275696
 20
-81.9731504272951
 30
0.0
 40
2.50000001341104
  1
177
 50
449.999999844103
 41
0.933333333333333
 72
     1
 11
76.1018458296866
 21
-78.7231504064674
 31
0.0
 73
     2
  0
LINE
  5
   208
  8
0
  6
CONTINUOUS
 62
     7
 10
96.5684385299683
 20
-60.7939832024276
 30
0.0
 11
76.3518458363922
 21
-60.7939832024276
 31
0.0
  0
LINE
  5
   209
  8
0
  6
CONTINUOUS
 62
     7
 10
96.5684385299683
 20
-96.1939837299287
 30
0.0
 11
76.3518458363922
 21
-96.1939837299287
 31
0.0
  0
LINE
  5
   20A
  8
0
  6
CONTINUOUS
 62
     7
 10
78.3518458363922
 20
-60.7939832024276
 30
0.0
 11
78.3518458363922
 21
-96.1939837299287
 31
0.0
  0
LINE
  5
   20B
  8
0
  6
CONTINUOUS
 62
     7
 10
78.8727903543925
 20
-63.7484064641092
 30
0.0
 11
78.3518458363922
 21
-60.7939832024276
 31
0.0
  0
LINE
  5
   20C
  8
0
  6
CONTINUOUS
 62
     7
 10
78.3518458363922
 20
-60.7939832024276
 30
0.0
 11
77.8309013183918
 21
-63.7484064641092
 31
0.0
  0
LINE
  5
   20D
  8
0
  6
CONTINUOUS
 62
     7
 10
77.8309013183918
 20
-93.2395604682471
 30
0.0
 11
78.3518458363922
 21
-96.1939837299287
 31
0.0
  0
LINE
  5
   20E
  8
0
  6
CONTINUOUS
 62
     7
 10
78.3518458363922
 20
-96.1939837299287
 30
0.0
 11
78.8727903543925
 21
-93.2395604682471
 31
0.0
  0
ENDBLK
  5
   20F
  8
0
  6
CONTINUOUS
 62
     7
  0
BLOCK
  5
   210
  8
0
  6
CONTINUOUS
 62
     7
  2
*UDIM35
 70
    65
 10
0.0
 20
0.0
 30
0.0
  3
*UDIM35
  0
TEXT
  5
   211
  8
0
  6
CONTINUOUS
 62
     7
 10
84.8496929241595
 20
-81.9731504272951
 30
0.0
 40
2.50000001341104
  1
147
 50
449.999999844103
 41
0.933333333333333
 72
     1
 11
83.5996929262765
 21
-78.7231504064674
 31
0.0
 73
     2
  0
LINE
  5
   212
  8
0
  6
CONTINUOUS
 62
     7
 10
94.6684385016561
 20
-63.7939832471311
 30
0.0
 11
83.8496929329821
 21
-63.7939832471311
 31
0.0
  0
LINE
  5
   213
  8
0
  6
CONTINUOUS
 62
     7
 10
94.6684385016561
 20
-93.1939836852253
 30
0.0
 11
83.8496929329821
 21
-93.1939836852253
 31
0.0
  0
LINE
  5
   214
  8
0
  6
CONTINUOUS
 62
     7
 10
85.8496929329821
 20
-63.7939832471311
 30
0.0
 11
85.8496929329821
 21
-93.1939836852253
 31
0.0
  0
LINE
  5
   215
  8
0
  6
CONTINUOUS
 62
     7
 10
86.3706374509824
 20
-66.7484065088127
 30
0.0
 11
85.8496929329821
 21
-63.7939832471311
 31
0.0
  0
LINE
  5
   216
  8
0
  6
CONTINUOUS
 62
     7
 10
85.8496929329821
 20
-63.7939832471311
 30
0.0
 11
85.3287484149817
 21
-66.7484065088127
 31
0.0
  0
LINE
  5
   217
  8
0
  6
CONTINUOUS
 62
     7
 10
85.3287484149817
 20
-90.2395604235436
 30
0.0
 11
85.8496929329821
 21
-93.1939836852253
 31
0.0
  0
LINE
  5
   218
  8
0
  6
CONTINUOUS
 62
     7
 10
85.8496929329821
 20
-93.1939836852253
 30
0.0
 11
86.3706374509824
 21
-90.2395604235436
 31
0.0
  0
ENDBLK
  5
   219
  8
0
  6
CONTINUOUS
 62
     7
  0
BLOCK
  5
   21A
  8
0
  6
CONTINUOUS
 62
     7
  2
*HATCH5
 70
    65
 10
0.0
 20
0.0
 30
0.0
  3
*HATCH5
  0
LINE
  5
   21B
  8
0
  6
CONTINUOUS
 62
    52
 10
-11.7279224395752
 20
1.0
 30
0.0
 11
-11.9763488769531
 21
0.75157368183136
 31
0.0
  0
LINE
  5
   21C
  8
0
  6
CONTINUOUS
 62
    52
 10
-9.60660171508789
 20
1.0
 30
0.0
 11
-11.6066026687622
 21
-1.0
 31
0.0
  0
LINE
  5
   21D
  8
0
  6
CONTINUOUS
 62
    52
 10
-7.48528146743774
 20
1.0
 30
0.0
 11
-9.48528289794922
 21
-1.0
 31
0.0
  0
LINE
  5
   21E
  8
0
  6
CONTINUOUS
 62
    52
 10
-5.3639612197876
 20
1.0
 30
0.0
 11
-7.36396265029907
 21
-1.0
 31
0.0
  0
LINE
  5
   21F
  8
0
  6
CONTINUOUS
 62
    52
 10
-3.47947335243225
 20
0.763167560100555
 30
0.0
 11
-5.24264097213745
 21
-1.0
 31
0.0
  0
LINE
  5
   220
  8
0
  6
CONTINUOUS
 62
    52
 10
-2.51160907745361
 20
-0.390288293361664
 30
0.0
 11
-3.1213207244873
 21
-1.0
 31
0.0
  0
ENDBLK
  5
   221
  8
0
  6
CONTINUOUS
 62
     7
  0
BLOCK
  5
   222
  8
0
  6
CONTINUOUS
 62
     7
  2
*HATCH6
 70
    65
 10
0.0
 20
0.0
 30
0.0
  3
*HATCH6
  0
LINE
  5
   223
  8
0
  6
CONTINUOUS
 62
    52
 10
5.24264097213745
 20
1.0
 30
0.0
 11
3.24264073371887
 21
-1.0
 31
0.0
  0
LINE
  5
   224
  8
0
  6
CONTINUOUS
 62
    52
 10
7.3639612197876
 20
1.0
 30
0.0
 11
5.3639612197876
 21
-1.0
 31
0.0
  0
LINE
  5
   225
  8
0
  6
CONTINUOUS
 62
    52
 10
9.48528099060059
 20
1.0
 30
0.0
 11
7.4852819442749
 21
-1.0
 31
0.0
  0
ENDBLK
  5
   226
  8
0
  6
CONTINUOUS
 62
     7
  0
BLOCK
  5
   227
  8
0
  6
CONTINUOUS
 62
     7
  2
*UDIM36
 70
    65
 10
0.0
 20
0.0
 30
0.0
  3
*UDIM36
  0
TEXT
  5
   228
  8
0
  6
CONTINUOUS
 62
     7
 10
87.9052139969079
 20
-37.7770698603167
 30
0.0
 40
2.50000005960464
  1
80
 50
449.375116932104
 41
0.933333333333333
 72
     1
 11
86.6780092476556
 21
-35.6802278150837
 31
0.0
 73
     2
  0
TEXT
  5
   229
  8
0
  6
CONTINUOUS
 62
     7
 10
87.4506855924457
 20
-33.6051978731574
 30
0.0
 40
2.50000005960464
  1
°
 50
449.375116932104
 41
0.933333333333333
 72
     1
 11
86.2107571170045
 21
-32.6749531375415
 31
0.0
 73
     2
  0
LINE
  5
   22A
  8
0
  6
CONTINUOUS
 62
     7
 10
70.8271940402869
 20
-38.8554488471388
 30
0.0
 11
85.0291612065175
 21
-50.7723142583146
 31
0.0
  0
LINE
  5
   22B
  8
0
  6
CONTINUOUS
 62
     7
 10
70.8271940402869
 20
-30.2134751030566
 30
0.0
 11
85.0291612065175
 21
-18.2966096918807
 31
0.0
  0
ARC
  5
   22C
  8
0
  6
CONTINUOUS
 62
     7
 10
65.6776424119796
 20
-34.5344619750977
 30
0.0
 40
23.2616136940404
 50
319.999999815233
 51
399.999999769042
  0
LINE
  5
   22D
  8
0
  6
CONTINUOUS
 62
     7
 10
84.9970723334707
 20
-46.8886628352041
 30
0.0
 11
83.4970723202795
 21
-49.4867390389415
 31
0.0
  0
LINE
  5
   22E
  8
0
  6
CONTINUOUS
 62
     7
 10
83.4970723202795
 20
-49.4867390389415
 30
0.0
 11
85.7952056398456
 21
-47.5583761982136
 31
0.0
  0
LINE
  5
   22F
  8
0
  6
CONTINUOUS
 62
     7
 10
85.7952056398456
 20
-21.5105477519817
 30
0.0
 11
83.4970723202795
 21
-19.5821849112538
 31
0.0
  0
LINE
  5
   230
  8
0
  6
CONTINUOUS
 62
     7
 10
83.4970723202795
 20
-19.5821849112538
 30
0.0
 11
84.9970723334707
 21
-22.1802611149912
 31
0.0
  0
ENDBLK
  5
   231
  8
0
  6
CONTINUOUS
 62
     7
  0
BLOCK
  5
   232
  8
0
  6
CONTINUOUS
 62
     7
  2
*UDIM37
 70
    65
 10
0.0
 20
0.0
 30
0.0
  3
*UDIM37
  0
TEXT
  5
   233
  8
0
  6
CONTINUOUS
 62
     7
 10
47.6154823246668
 20
-27.7285617723225
 30
0.0
 40
2.50000005960464
  1
Ø4
 50
449.999999844103
 41
0.933333333333333
 72
     1
 11
46.3654823005199
 21
-25.6452283859253
 31
0.0
 73
     2
  0
LINE
  5
   234
  8
0
  6
CONTINUOUS
 62
     7
 10
67.061149597168
 20
-32.5344619750977
 30
0.0
 11
46.6154823303223
 21
-32.5344619750977
 31
0.0
  0
LINE
  5
   235
  8
0
  6
CONTINUOUS
 62
     7
 10
67.061149597168
 20
-36.5344619750977
 30
0.0
 11
46.6154823303223
 21
-36.5344619750977
 31
0.0
  0
LINE
  5
   236
  8
0
  6
CONTINUOUS
 62
     7
 10
48.6154823303223
 20
-23.5618950029214
 30
0.0
 11
48.6154823303223
 21
-36.5344619750977
 31
0.0
  0
LINE
  5
   237
  8
0
  6
CONTINUOUS
 62
     7
 10
48.0945378123219
 20
-29.580038713416
 30
0.0
 11
48.6154823303223
 21
-32.5344619750977
 31
0.0
  0
LINE
  5
   238
  8
0
  6
CONTINUOUS
 62
     7
 10
48.6154823303223
 20
-32.5344619750977
 30
0.0
 11
49.1364268483226
 21
-29.580038713416
 31
0.0
  0
LINE
  5
   239
  8
0
  6
CONTINUOUS
 62
     7
 10
49.1364268483226
 20
-39.4888852367793
 30
0.0
 11
48.6154823303223
 21
-36.5344619750977
 31
0.0
  0
LINE
  5
   23A
  8
0
  6
CONTINUOUS
 62
     7
 10
48.6154823303223
 20
-36.5344619750977
 30
0.0
 11
48.0945378123219
 21
-39.4888852367793
 31
0.0
  0
ENDBLK
  5
   23B
  8
0
  6
CONTINUOUS
 62
     7
  0
ENDSEC
  0
SECTION
  2
ENTITIES
  0
LINE
  5
   23C
  8
0
  6
CONTINUOUS
 62
     1
 10
83.7684391736984
 20
54.3327320860261
 30
0.0
 11
49.2934475511755
 21
54.3327320860261
 31
0.0
  0
ARC
  5
   23D
  8
0
  6
CONTINUOUS
 62
     1
 10
61.3684200912447
 20
27.4702699945967
 30
0.0
 40
2.97503256700413
 50
404.899302393594
 51
495.100813987516
  0
LINE
  5
   23E
  8
0
  6
DASHDOT
 62
     2
 10
61.3684200912447
 20
21.4711521208361
 30
0.0
 11
61.3684200912447
 21
34.8641142603295
 31
0.0
  0
LINE
  5
   23F
  8
0
  6
DASHDOT
 62
     2
 10
65.3934249943162
 20
24.3202402848412
 30
0.0
 11
65.3934249943162
 21
30.6202304432554
 31
0.0
  0
LINE
  5
   240
  8
0
  6
DASHDOT
 62
     2
 10
57.3434174893041
 20
24.3202352638195
 30
0.0
 11
57.3434174893041
 21
30.6202311984851
 31
0.0
  0
LINE
  5
   241
  8
0
  6
CONTINUOUS
 62
     1
 10
83.7684391736985
 20
91.0827314601773
 30
0.0
 11
49.2934475511755
 21
91.0827314601773
 31
0.0
  0
LINE
  5
   242
  8
0
  6
CONTINUOUS
 62
     1
 10
83.7684391736984
 20
46.7202375353806
 30
0.0
 11
49.5559475258435
 21
46.7202375353806
 31
0.0
  0
LINE
  5
   243
  8
0
  6
CONTINUOUS
 62
     1
 10
83.7684391736984
 20
46.3702375622027
 30
0.0
 11
49.5559475258435
 21
46.3702375622027
 31
0.0
  0
LINE
  5
   244
  8
0
  6
CONTINUOUS
 62
     1
 10
147.030945886716
 20
31.2152324797171
 30
0.0
 11
49.1184475541557
 21
31.2152324797171
 31
0.0
  0
LINE
  5
   245
  8
0
  6
CONTINUOUS
 62
     1
 10
73.9159472653712
 20
108.425242015717
 30
0.0
 11
73.9159472653712
 21
109.752200197477
 31
0.0
  0
LINE
  5
   246
  8
0
  6
CONTINUOUS
 62
     1
 10
72.6559474871005
 20
108.425242015717
 30
0.0
 11
72.6559474871005
 21
110.103654655584
 31
0.0
  0
LINE
  5
   247
  8
0
  6
CONTINUOUS
 62
     1
 10
71.3959477088298
 20
108.425242015717
 30
0.0
 11
71.3959477088298
 21
156.270235690617
 31
0.0
  0
LINE
  5
   248
  8
0
  6
CONTINUOUS
 62
     1
 10
70.135947930559
 20
108.425242015717
 30
0.0
 11
70.135947930559
 21
156.270235690617
 31
0.0
  0
LINE
  5
   249
  8
0
  6
CONTINUOUS
 62
     1
 10
68.8759481522883
 20
108.425242015717
 30
0.0
 11
68.8759481522883
 21
156.270235690617
 31
0.0
  0
LINE
  5
   24A
  8
0
  6
CONTINUOUS
 62
     1
 10
67.6159483740176
 20
108.425242015717
 30
0.0
 11
67.6159483740176
 21
156.270235690617
 31
0.0
  0
LINE
  5
   24B
  8
0
  6
CONTINUOUS
 62
     1
 10
66.3559485957469
 20
108.425242015717
 30
0.0
 11
66.3559485957469
 21
156.270235690617
 31
0.0
  0
LINE
  5
   24C
  8
0
  6
CONTINUOUS
 62
     1
 10
65.0959488174761
 20
108.425242015717
 30
0.0
 11
65.0959488174761
 21
156.270235690617
 31
0.0
  0
LINE
  5
   24D
  8
0
  6
CONTINUOUS
 62
     1
 10
63.8359490392054
 20
108.425242015717
 30
0.0
 11
63.8359490392054
 21
156.270235690617
 31
0.0
  0
LINE
  5
   24E
  8
0
  6
CONTINUOUS
 62
     1
 10
62.5759492609347
 20
108.425242015717
 30
0.0
 11
62.5759492609347
 21
156.270235690617
 31
0.0
  0
LINE
  5
   24F
  8
0
  6
CONTINUOUS
 62
     1
 10
61.315949482664
 20
108.425242015717
 30
0.0
 11
61.315949482664
 21
156.270235690617
 31
0.0
  0
LINE
  5
   250
  8
0
  6
CONTINUOUS
 62
     1
 10
60.0559497043932
 20
108.425242015717
 30
0.0
 11
60.0559497043932
 21
156.270235690617
 31
0.0
  0
LINE
  5
   251
  8
0
  6
CONTINUOUS
 62
     1
 10
58.7959499261225
 20
108.425242015717
 30
0.0
 11
58.7959499261225
 21
156.270235690617
 31
0.0
  0
LINE
  5
   252
  8
0
  6
CONTINUOUS
 62
     1
 10
57.5359501478518
 20
108.425242015717
 30
0.0
 11
57.5359501478518
 21
156.270235690617
 31
0.0
  0
LINE
  5
   253
  8
0
  6
CONTINUOUS
 62
     1
 10
56.2759503695811
 20
108.425242015717
 30
0.0
 11
56.2759503695811
 21
156.270235690617
 31
0.0
  0
LINE
  5
   254
  8
0
  6
CONTINUOUS
 62
     1
 10
55.0159505913103
 20
108.425242015717
 30
0.0
 11
55.0159505913103
 21
156.270235690617
 31
0.0
  0
LINE
  5
   255
  8
0
  6
CONTINUOUS
 62
     1
 10
53.7559508130396
 20
108.425242015717
 30
0.0
 11
53.7559508130396
 21
156.270235690617
 31
0.0
  0
LINE
  5
   256
  8
0
  6
CONTINUOUS
 62
     1
 10
52.4959510347689
 20
108.425242015717
 30
0.0
 11
52.4959510347689
 21
156.270235690617
 31
0.0
  0
LINE
  5
   257
  8
0
  6
CONTINUOUS
 62
     1
 10
51.2359512564982
 20
108.425242015717
 30
0.0
 11
51.2359512564982
 21
156.270235690617
 31
0.0
  0
LINE
  5
   258
  8
0
  6
CONTINUOUS
 62
     1
 10
73.9159472653712
 20
91.0827314601773
 30
0.0
 11
73.9159472653712
 21
107.970236513161
 31
0.0
  0
LINE
  5
   259
  8
0
  6
CONTINUOUS
 62
     1
 10
72.6559474871005
 20
91.0827314601773
 30
0.0
 11
72.6559474871005
 21
107.970236513161
 31
0.0
  0
LINE
  5
   25A
  8
0
  6
CONTINUOUS
 62
     1
 10
71.3959477088298
 20
91.0827314601773
 30
0.0
 11
71.3959477088298
 21
107.970236513161
 31
0.0
  0
LINE
  5
   25B
  8
0
  6
CONTINUOUS
 62
     1
 10
70.135947930559
 20
91.0827314601773
 30
0.0
 11
70.135947930559
 21
107.970236513161
 31
0.0
  0
LINE
  5
   25C
  8
0
  6
CONTINUOUS
 62
     1
 10
68.8759481522883
 20
91.0827314601773
 30
0.0
 11
68.8759481522883
 21
107.970236513161
 31
0.0
  0
LINE
  5
   25D
  8
0
  6
CONTINUOUS
 62
     1
 10
67.6159483740176
 20
91.0827314601773
 30
0.0
 11
67.6159483740176
 21
107.970236513161
 31
0.0
  0
LINE
  5
   25E
  8
0
  6
CONTINUOUS
 62
     1
 10
66.3559485957469
 20
91.0827314601773
 30
0.0
 11
66.3559485957469
 21
107.970236513161
 31
0.0
  0
LINE
  5
   25F
  8
0
  6
CONTINUOUS
 62
     1
 10
65.0959488174761
 20
91.0827314601773
 30
0.0
 11
65.0959488174761
 21
107.970236513161
 31
0.0
  0
LINE
  5
   260
  8
0
  6
CONTINUOUS
 62
     1
 10
63.8359490392054
 20
91.0827314601773
 30
0.0
 11
63.8359490392054
 21
107.970236513161
 31
0.0
  0
LINE
  5
   261
  8
0
  6
CONTINUOUS
 62
     1
 10
62.5759492609347
 20
91.0827314601773
 30
0.0
 11
62.5759492609347
 21
107.970236513161
 31
0.0
  0
LINE
  5
   262
  8
0
  6
CONTINUOUS
 62
     1
 10
61.315949482664
 20
91.0827314601773
 30
0.0
 11
61.315949482664
 21
107.970236513161
 31
0.0
  0
LINE
  5
   263
  8
0
  6
CONTINUOUS
 62
     1
 10
60.0559497043932
 20
91.0827314601773
 30
0.0
 11
60.0559497043932
 21
107.970236513161
 31
0.0
  0
LINE
  5
   264
  8
0
  6
CONTINUOUS
 62
     1
 10
58.7959499261225
 20
91.0827314601773
 30
0.0
 11
58.7959499261225
 21
107.970236513161
 31
0.0
  0
LINE
  5
   265
  8
0
  6
CONTINUOUS
 62
     1
 10
57.5359501478518
 20
91.0827314601773
 30
0.0
 11
57.5359501478518
 21
107.970236513161
 31
0.0
  0
LINE
  5
   266
  8
0
  6
CONTINUOUS
 62
     1
 10
56.2759503695811
 20
91.0827314601773
 30
0.0
 11
56.2759503695811
 21
107.970236513161
 31
0.0
  0
LINE
  5
   267
  8
0
  6
CONTINUOUS
 62
     1
 10
55.0159505913103
 20
91.0827314601773
 30
0.0
 11
55.0159505913103
 21
107.970236513161
 31
0.0
  0
LINE
  5
   268
  8
0
  6
CONTINUOUS
 62
     1
 10
53.7559508130396
 20
91.0827314601773
 30
0.0
 11
53.7559508130396
 21
107.970236513161
 31
0.0
  0
LINE
  5
   269
  8
0
  6
CONTINUOUS
 62
     1
 10
52.4959510347689
 20
91.0827314601773
 30
0.0
 11
52.4959510347689
 21
107.970236513161
 31
0.0
  0
LINE
  5
   26A
  8
0
  6
CONTINUOUS
 62
     1
 10
51.2359512564982
 20
91.0827314601773
 30
0.0
 11
51.2359512564982
 21
107.970236513161
 31
0.0
  0
LINE
  5
   26B
  8
0
  6
CONTINUOUS
 62
     1
 10
73.9159472653712
 20
54.3327320860261
 30
0.0
 11
73.9159472653712
 21
91.0827314601773
 31
0.0
  0
LINE
  5
   26C
  8
0
  6
CONTINUOUS
 62
     1
 10
72.6559474871005
 20
54.3327320860261
 30
0.0
 11
72.6559474871005
 21
91.0827314601773
 31
0.0
  0
LINE
  5
   26D
  8
0
  6
CONTINUOUS
 62
     1
 10
71.3959477088298
 20
54.3327320860261
 30
0.0
 11
71.3959477088298
 21
91.0827314601773
 31
0.0
  0
LINE
  5
   26E
  8
0
  6
CONTINUOUS
 62
     1
 10
70.135947930559
 20
54.3327320860261
 30
0.0
 11
70.135947930559
 21
91.0827314601773
 31
0.0
  0
LINE
  5
   26F
  8
0
  6
CONTINUOUS
 62
     1
 10
68.8759481522883
 20
54.3327320860261
 30
0.0
 11
68.8759481522883
 21
91.0827314601773
 31
0.0
  0
LINE
  5
   270
  8
0
  6
CONTINUOUS
 62
     1
 10
67.6159483740176
 20
54.3327320860261
 30
0.0
 11
67.6159483740176
 21
91.0827314601773
 31
0.0
  0
LINE
  5
   271
  8
0
  6
CONTINUOUS
 62
     1
 10
66.3559485957469
 20
54.3327320860261
 30
0.0
 11
66.3559485957469
 21
91.0827314601773
 31
0.0
  0
LINE
  5
   272
  8
0
  6
CONTINUOUS
 62
     1
 10
65.0959488174761
 20
54.3327320860261
 30
0.0
 11
65.0959488174761
 21
91.0827314601773
 31
0.0
  0
LINE
  5
   273
  8
0
  6
CONTINUOUS
 62
     1
 10
63.8359490392054
 20
54.3327320860261
 30
0.0
 11
63.8359490392054
 21
91.0827314601773
 31
0.0
  0
LINE
  5
   274
  8
0
  6
CONTINUOUS
 62
     1
 10
62.5759492609347
 20
54.3327320860261
 30
0.0
 11
62.5759492609347
 21
91.0827314601773
 31
0.0
  0
LINE
  5
   275
  8
0
  6
CONTINUOUS
 62
     1
 10
61.315949482664
 20
54.3327320860261
 30
0.0
 11
61.315949482664
 21
91.0827314601773
 31
0.0
  0
LINE
  5
   276
  8
0
  6
CONTINUOUS
 62
     1
 10
60.0559497043932
 20
54.3327320860261
 30
0.0
 11
60.0559497043932
 21
91.0827314601773
 31
0.0
  0
LINE
  5
   277
  8
0
  6
CONTINUOUS
 62
     1
 10
58.7959499261225
 20
54.3327320860261
 30
0.0
 11
58.7959499261225
 21
91.0827314601773
 31
0.0
  0
LINE
  5
   278
  8
0
  6
CONTINUOUS
 62
     1
 10
57.5359501478518
 20
54.3327320860261
 30
0.0
 11
57.5359501478518
 21
91.0827314601773
 31
0.0
  0
LINE
  5
   279
  8
0
  6
CONTINUOUS
 62
     1
 10
56.2759503695811
 20
54.3327320860261
 30
0.0
 11
56.2759503695811
 21
91.0827314601773
 31
0.0
  0
LINE
  5
   27A
  8
0
  6
CONTINUOUS
 62
     1
 10
55.0159505913103
 20
54.3327320860261
 30
0.0
 11
55.0159505913103
 21
91.0827314601773
 31
0.0
  0
LINE
  5
   27B
  8
0
  6
CONTINUOUS
 62
     1
 10
53.7559508130396
 20
54.3327320860261
 30
0.0
 11
53.7559508130396
 21
91.0827314601773
 31
0.0
  0
LINE
  5
   27C
  8
0
  6
CONTINUOUS
 62
     1
 10
52.4959510347689
 20
54.3327320860261
 30
0.0
 11
52.4959510347689
 21
91.0827314601773
 31
0.0
  0
LINE
  5
   27D
  8
0
  6
CONTINUOUS
 62
     1
 10
51.2359512564982
 20
54.3327320860261
 30
0.0
 11
51.2359512564982
 21
91.0827314601773
 31
0.0
  0
LINE
  5
   27E
  8
0
  6
CONTINUOUS
 62
     1
 10
73.9159472653712
 20
46.7202375353806
 30
0.0
 11
73.9159472653712
 21
54.3327320651645
 31
0.0
  0
LINE
  5
   27F
  8
0
  6
CONTINUOUS
 62
     1
 10
72.6559474871005
 20
46.7202375353806
 30
0.0
 11
72.6559474871005
 21
54.3327320651645
 31
0.0
  0
LINE
  5
   280
  8
0
  6
CONTINUOUS
 62
     1
 10
71.3959477088298
 20
46.7202375353806
 30
0.0
 11
71.3959477088298
 21
54.3327320651645
 31
0.0
  0
LINE
  5
   281
  8
0
  6
CONTINUOUS
 62
     1
 10
70.135947930559
 20
46.7202375353806
 30
0.0
 11
70.135947930559
 21
54.3327320651645
 31
0.0
  0
LINE
  5
   282
  8
0
  6
CONTINUOUS
 62
     1
 10
68.8759481522883
 20
46.7202375353806
 30
0.0
 11
68.8759481522883
 21
54.3327320651645
 31
0.0
  0
LINE
  5
   283
  8
0
  6
CONTINUOUS
 62
     1
 10
67.6159483740176
 20
46.7202375353806
 30
0.0
 11
67.6159483740176
 21
54.3327320651645
 31
0.0
  0
LINE
  5
   284
  8
0
  6
CONTINUOUS
 62
     1
 10
66.3559485957469
 20
46.7202375353806
 30
0.0
 11
66.3559485957469
 21
54.3327320651645
 31
0.0
  0
LINE
  5
   285
  8
0
  6
CONTINUOUS
 62
     1
 10
65.0959488174761
 20
46.7202375353806
 30
0.0
 11
65.0959488174761
 21
54.3327320651645
 31
0.0
  0
LINE
  5
   286
  8
0
  6
CONTINUOUS
 62
     1
 10
63.8359490392054
 20
46.7202375353806
 30
0.0
 11
63.8359490392054
 21
54.3327320651645
 31
0.0
  0
LINE
  5
   287
  8
0
  6
CONTINUOUS
 62
     1
 10
62.5759492609347
 20
46.7202375353806
 30
0.0
 11
62.5759492609347
 21
54.3327320651645
 31
0.0
  0
LINE
  5
   288
  8
0
  6
CONTINUOUS
 62
     1
 10
61.315949482664
 20
46.7202375353806
 30
0.0
 11
61.315949482664
 21
54.3327320651645
 31
0.0
  0
LINE
  5
   289
  8
0
  6
CONTINUOUS
 62
     1
 10
60.0559497043932
 20
46.7202375353806
 30
0.0
 11
60.0559497043932
 21
54.3327320651645
 31
0.0
  0
LINE
  5
   28A
  8
0
  6
CONTINUOUS
 62
     1
 10
58.7959499261225
 20
46.7202375353806
 30
0.0
 11
58.7959499261225
 21
54.3327320651645
 31
0.0
  0
LINE
  5
   28B
  8
0
  6
CONTINUOUS
 62
     1
 10
57.5359501478518
 20
46.7202375353806
 30
0.0
 11
57.5359501478518
 21
54.3327320651645
 31
0.0
  0
LINE
  5
   28C
  8
0
  6
CONTINUOUS
 62
     1
 10
56.2759503695811
 20
46.7202375353806
 30
0.0
 11
56.2759503695811
 21
54.3327320651645
 31
0.0
  0
LINE
  5
   28D
  8
0
  6
CONTINUOUS
 62
     1
 10
55.0159505913103
 20
46.7202375353806
 30
0.0
 11
55.0159505913103
 21
54.3327320651645
 31
0.0
  0
LINE
  5
   28E
  8
0
  6
CONTINUOUS
 62
     1
 10
53.7559508130396
 20
46.7202375353806
 30
0.0
 11
53.7559508130396
 21
54.3327320651645
 31
0.0
  0
LINE
  5
   28F
  8
0
  6
CONTINUOUS
 62
     1
 10
52.4959510347689
 20
46.7202375353806
 30
0.0
 11
52.4959510347689
 21
54.3327320651645
 31
0.0
  0
LINE
  5
   290
  8
0
  6
CONTINUOUS
 62
     1
 10
51.2359512564982
 20
46.7202375353806
 30
0.0
 11
51.2359512564982
 21
54.3327320651645
 31
0.0
  0
LINE
  5
   291
  8
0
  6
CONTINUOUS
 62
     1
 10
73.9159472653712
 20
31.2152324797171
 30
0.0
 11
73.9159472653712
 21
46.3002375633948
 31
0.0
  0
LINE
  5
   292
  8
0
  6
CONTINUOUS
 62
     1
 10
72.6559474871005
 20
31.2152324797171
 30
0.0
 11
72.6559474871005
 21
46.3002375633948
 31
0.0
  0
LINE
  5
   293
  8
0
  6
CONTINUOUS
 62
     1
 10
71.3959477088298
 20
31.2152324797171
 30
0.0
 11
71.3959477088298
 21
46.3002375633948
 31
0.0
  0
LINE
  5
   294
  8
0
  6
CONTINUOUS
 62
     1
 10
70.135947930559
 20
31.2152324797171
 30
0.0
 11
70.135947930559
 21
46.3002375633948
 31
0.0
  0
LINE
  5
   295
  8
0
  6
CONTINUOUS
 62
     1
 10
68.8759481522883
 20
31.2152324797171
 30
0.0
 11
68.8759481522883
 21
46.3002375633948
 31
0.0
  0
LINE
  5
   296
  8
0
  6
CONTINUOUS
 62
     1
 10
67.6159483740176
 20
31.2152324797171
 30
0.0
 11
67.6159483740176
 21
46.3002375633948
 31
0.0
  0
LINE
  5
   297
  8
0
  6
CONTINUOUS
 62
     1
 10
66.3559485957469
 20
31.2152324797171
 30
0.0
 11
66.3559485957469
 21
46.3002375633948
 31
0.0
  0
LINE
  5
   298
  8
0
  6
CONTINUOUS
 62
     1
 10
65.0959488174761
 20
31.2152324797171
 30
0.0
 11
65.0959488174761
 21
46.3002375633948
 31
0.0
  0
LINE
  5
   299
  8
0
  6
CONTINUOUS
 62
     1
 10
63.8359490392054
 20
31.2152324797171
 30
0.0
 11
63.8359490392054
 21
46.3002375633948
 31
0.0
  0
LINE
  5
   29A
  8
0
  6
CONTINUOUS
 62
     1
 10
62.5759492609347
 20
31.2152324797171
 30
0.0
 11
62.5759492609347
 21
46.3002375633948
 31
0.0
  0
LINE
  5
   29B
  8
0
  6
CONTINUOUS
 62
     1
 10
61.315949482664
 20
31.2152324797171
 30
0.0
 11
61.315949482664
 21
46.3002375633948
 31
0.0
  0
LINE
  5
   29C
  8
0
  6
CONTINUOUS
 62
     1
 10
60.0559497043932
 20
31.2152324797171
 30
0.0
 11
60.0559497043932
 21
46.3002375633948
 31
0.0
  0
LINE
  5
   29D
  8
0
  6
CONTINUOUS
 62
     1
 10
58.7959499261225
 20
31.2152324797171
 30
0.0
 11
58.7959499261225
 21
46.3002375633948
 31
0.0
  0
LINE
  5
   29E
  8
0
  6
CONTINUOUS
 62
     1
 10
57.5359501478518
 20
31.2152324797171
 30
0.0
 11
57.5359501478518
 21
46.3002375633948
 31
0.0
  0
LINE
  5
   29F
  8
0
  6
CONTINUOUS
 62
     1
 10
56.2759503695811
 20
31.2152324797171
 30
0.0
 11
56.2759503695811
 21
46.3002375633948
 31
0.0
  0
LINE
  5
   2A0
  8
0
  6
CONTINUOUS
 62
     1
 10
55.0159505913103
 20
31.2152324797171
 30
0.0
 11
55.0159505913103
 21
46.3002375633948
 31
0.0
  0
LINE
  5
   2A1
  8
0
  6
CONTINUOUS
 62
     1
 10
53.7559508130396
 20
31.2152324797171
 30
0.0
 11
53.7559508130396
 21
46.3002375633948
 31
0.0
  0
LINE
  5
   2A2
  8
0
  6
CONTINUOUS
 62
     1
 10
52.4959510347689
 20
31.2152324797171
 30
0.0
 11
52.4959510347689
 21
46.3002375633948
 31
0.0
  0
LINE
  5
   2A3
  8
0
  6
CONTINUOUS
 62
     1
 10
51.2359512564982
 20
31.2152324797171
 30
0.0
 11
51.2359512564982
 21
46.3002375633948
 31
0.0
  0
LINE
  5
   2A4
  8
0
  6
CONTINUOUS
 62
     3
 10
55.6459503803099
 20
109.720241993664
 30
0.0
 11
55.6459503803099
 21
113.920241922138
 31
0.0
  0
LINE
  5
   2A5
  8
0
  6
CONTINUOUS
 62
     3
 10
56.2759503695811
 20
113.920241922138
 30
0.0
 11
55.6459503803099
 21
113.920241922138
 31
0.0
  0
LINE
  5
   2A6
  8
0
  6
CONTINUOUS
 62
     3
 10
56.2759503695811
 20
109.720241993664
 30
0.0
 11
55.6459503803099
 21
109.720241993664
 31
0.0
  0
LINE
  5
   2A7
  8
0
  6
CONTINUOUS
 62
     3
 10
57.5359503481234
 20
109.720241993664
 30
0.0
 11
56.9059503588522
 21
109.720241993664
 31
0.0
  0
LINE
  5
   2A8
  8
0
  6
CONTINUOUS
 62
     3
 10
56.9059503588522
 20
109.720241993664
 30
0.0
 11
56.9059503588522
 21
113.920241922138
 31
0.0
  0
LINE
  5
   2A9
  8
0
  6
CONTINUOUS
 62
     3
 10
57.5359503481234
 20
113.920241922138
 30
0.0
 11
56.9059503588522
 21
113.920241922138
 31
0.0
  0
LINE
  5
   2AA
  8
0
  6
CONTINUOUS
 62
     3
 10
58.7959503266657
 20
113.920241922138
 30
0.0
 11
58.1659503373946
 21
113.920241922138
 31
0.0
  0
LINE
  5
   2AB
  8
0
  6
CONTINUOUS
 62
     3
 10
58.1659503373946
 20
109.720241993664
 30
0.0
 11
58.1659503373946
 21
113.920241922138
 31
0.0
  0
LINE
  5
   2AC
  8
0
  6
CONTINUOUS
 62
     3
 10
58.7959503266657
 20
109.720241993664
 30
0.0
 11
58.1659503373946
 21
109.720241993664
 31
0.0
  0
LINE
  5
   2AD
  8
0
  6
CONTINUOUS
 62
     3
 10
60.055950305208
 20
109.720241993664
 30
0.0
 11
59.4259503159369
 21
109.720241993664
 31
0.0
  0
LINE
  5
   2AE
  8
0
  6
CONTINUOUS
 62
     3
 10
59.4259503159369
 20
109.720241993664
 30
0.0
 11
59.4259503159369
 21
113.920241922138
 31
0.0
  0
LINE
  5
   2AF
  8
0
  6
CONTINUOUS
 62
     3
 10
60.055950305208
 20
113.920241922138
 30
0.0
 11
59.4259503159369
 21
113.920241922138
 31
0.0
  0
LINE
  5
   2B0
  8
0
  6
CONTINUOUS
 62
     3
 10
61.3159502837504
 20
112.695241943
 30
0.0
 11
60.6859502944792
 21
112.695241943
 31
0.0
  0
LINE
  5
   2B1
  8
0
  6
CONTINUOUS
 62
     3
 10
60.6859502944792
 20
109.720241993664
 30
0.0
 11
60.6859502944792
 21
112.695241943
 31
0.0
  0
LINE
  5
   2B2
  8
0
  6
CONTINUOUS
 62
     3
 10
61.3159502837504
 20
109.720241993664
 30
0.0
 11
60.6859502944792
 21
109.720241993664
 31
0.0
  0
LINE
  5
   2B3
  8
0
  6
CONTINUOUS
 62
     3
 10
62.5759502622927
 20
109.720241993664
 30
0.0
 11
61.9459502730215
 21
109.720241993664
 31
0.0
  0
LINE
  5
   2B4
  8
0
  6
CONTINUOUS
 62
     3
 10
61.9459502730215
 20
109.720241993664
 30
0.0
 11
61.9459502730215
 21
112.695241943
 31
0.0
  0
LINE
  5
   2B5
  8
0
  6
CONTINUOUS
 62
     3
 10
62.5759502622927
 20
112.695241943
 30
0.0
 11
61.9459502730215
 21
112.695241943
 31
0.0
  0
LINE
  5
   2B6
  8
0
  6
CONTINUOUS
 62
     3
 10
63.835950240835
 20
113.920241922138
 30
0.0
 11
63.2059502515639
 21
113.920241922138
 31
0.0
  0
LINE
  5
   2B7
  8
0
  6
CONTINUOUS
 62
     3
 10
63.2059502515639
 20
109.720241993664
 30
0.0
 11
63.2059502515639
 21
113.920241922138
 31
0.0
  0
LINE
  5
   2B8
  8
0
  6
CONTINUOUS
 62
     3
 10
63.835950240835
 20
109.720241993664
 30
0.0
 11
63.2059502515639
 21
109.720241993664
 31
0.0
  0
LINE
  5
   2B9
  8
0
  6
CONTINUOUS
 62
     3
 10
65.0959502193774
 20
113.920241922138
 30
0.0
 11
64.4659502301062
 21
113.920241922138
 31
0.0
  0
LINE
  5
   2BA
  8
0
  6
CONTINUOUS
 62
     3
 10
64.4659502301062
 20
109.720241993664
 30
0.0
 11
64.4659502301062
 21
113.920241922138
 31
0.0
  0
LINE
  5
   2BB
  8
0
  6
CONTINUOUS
 62
     3
 10
65.0959502193774
 20
109.720241993664
 30
0.0
 11
64.4659502301062
 21
109.720241993664
 31
0.0
  0
LINE
  5
   2BC
  8
0
  6
CONTINUOUS
 62
     3
 10
66.3559501979197
 20
113.920241922138
 30
0.0
 11
65.7259502086485
 21
113.920241922138
 31
0.0
  0
LINE
  5
   2BD
  8
0
  6
CONTINUOUS
 62
     3
 10
65.7259502086485
 20
109.720241993664
 30
0.0
 11
65.7259502086485
 21
113.920241922138
 31
0.0
  0
LINE
  5
   2BE
  8
0
  6
CONTINUOUS
 62
     3
 10
66.3559501979197
 20
109.720241993664
 30
0.0
 11
65.7259502086485
 21
109.720241993664
 31
0.0
  0
LINE
  5
   2BF
  8
0
  6
CONTINUOUS
 62
     3
 10
67.615950176462
 20
113.920241922138
 30
0.0
 11
66.9859501871908
 21
113.920241922138
 31
0.0
  0
LINE
  5
   2C0
  8
0
  6
CONTINUOUS
 62
     3
 10
66.9859501871908
 20
109.720241993664
 30
0.0
 11
66.9859501871908
 21
113.920241922138
 31
0.0
  0
LINE
  5
   2C1
  8
0
  6
CONTINUOUS
 62
     3
 10
67.615950176462
 20
109.720241993664
 30
0.0
 11
66.9859501871908
 21
109.720241993664
 31
0.0
  0
LINE
  5
   2C2
  8
0
  6
CONTINUOUS
 62
     2
 10
97.3309229929032
 20
22.7452379645379
 30
0.0
 11
75.0184287134589
 21
22.7452379645379
 31
0.0
  0
LINE
  5
   2C3
  8
0
  6
CONTINUOUS
 62
     7
 10
49.9934611111876
 20
156.270253258097
 30
0.0
 11
49.9934611111876
 21
163.795235732198
 31
0.0
  0
LINE
  5
   2C4
  8
0
  6
CONTINUOUS
 62
     1
 10
83.7684391736984
 20
54.3327320860261
 30
0.0
 11
73.793447133943
 21
54.3327320860261
 31
0.0
  0
LINE
  5
   2C5
  8
0
  6
CONTINUOUS
 62
     3
 10
49.5559475258435
 20
46.3702375622027
 30
0.0
 11
49.5559475258435
 21
46.7202375353806
 31
0.0
  0
LINE
  5
   2C6
  8
0
  6
CONTINUOUS
 62
     1
 10
75.1759470436419
 20
91.0827314601773
 30
0.0
 11
75.1759470436419
 21
107.970236513161
 31
0.0
  0
LINE
  5
   2C7
  8
0
  6
CONTINUOUS
 62
     1
 10
75.1759470436419
 20
54.3327320860261
 30
0.0
 11
75.1759470436419
 21
91.0827314601773
 31
0.0
  0
LINE
  5
   2C8
  8
0
  6
CONTINUOUS
 62
     1
 10
75.1759470436419
 20
46.7202375353806
 30
0.0
 11
75.1759470436419
 21
54.3327320651645
 31
0.0
  0
LINE
  5
   2C9
  8
0
  6
CONTINUOUS
 62
     3
 10
49.9934291396321
 20
23.7252376808183
 30
0.0
 11
49.1184475541557
 21
23.7252376808183
 31
0.0
  0
LINE
  5
   2CA
  8
0
  6
CONTINUOUS
 62
     3
 10
49.9934291396321
 20
23.2702376218097
 30
0.0
 11
49.9934291396321
 21
23.7252376808183
 31
0.0
  0
LINE
  5
   2CB
  8
0
  6
CONTINUOUS
 62
     3
 10
97.062688320008
 20
22.7452379645379
 30
0.0
 11
75.0184287134589
 21
22.7452379645379
 31
0.0
  0
LINE
  5
   2CC
  8
0
  6
CONTINUOUS
 62
     1
 10
49.9934291396321
 20
23.7252376808183
 30
0.0
 11
49.9934291396321
 21
31.2152324797171
 31
0.0
  0
LINE
  5
   2CD
  8
0
  6
CONTINUOUS
 62
     1
 10
119.293422618884
 20
31.1452378214852
 30
0.0
 11
74.4934287223996
 21
31.1452378214852
 31
0.0
  0
ARC
  5
   2CE
  8
0
  6
CONTINUOUS
 62
     3
 10
50.5184274151456
 20
23.2702369960395
 30
0.0
 40
0.524998573004765
 50
179.999941123702
 51
270.000103159103
  0
CIRCLE
  5
   2CF
  8
0
  6
CONTINUOUS
 62
     1
 10
51.3934283406564
 20
24.1452374417552
 30
0.0
 40
0.49000039187499
  0
LINE
  5
   2D0
  8
0
  6
DASHDOT
 62
     2
 10
51.3934283406564
 20
22.6052370677616
 30
0.0
 11
51.3934283406564
 21
25.6852378157488
 31
0.0
  0
LINE
  5
   2D1
  8
0
  6
DASHDOT
 62
     2
 10
52.93342871465
 20
24.1452374417552
 30
0.0
 11
49.8534279666628
 21
24.1452374417552
 31
0.0
  0
LINE
  5
   2D2
  8
0
  6
CONTINUOUS
 62
     1
 10
83.7684391736985
 20
91.0827314601773
 30
0.0
 11
73.793447133943
 21
91.0827314601773
 31
0.0
  0
LINE
  5
   2D3
  8
0
  6
CONTINUOUS
 62
     1
 10
83.7684391736984
 20
46.3702375622027
 30
0.0
 11
74.055947108611
 21
46.3702375622027
 31
0.0
  0
LINE
  5
   2D4
  8
0
  6
CONTINUOUS
 62
     3
 10
97.3309229929032
 20
164.84524105489
 30
0.0
 11
74.8434436914112
 21
164.84524105489
 31
0.0
  0
ARC
  5
   2D5
  8
0
  6
CONTINUOUS
 62
     3
 10
50.3434599771931
 20
164.495233953419
 30
0.0
 40
0.349996002028132
 50
90.0005173512766
 51
180.001122723422
  0
LINE
  5
   2D6
  8
0
  6
CONTINUOUS
 62
     3
 10
49.9934611111876
 20
163.795235732198
 30
0.0
 11
49.9934611111876
 21
164.495235720277
 31
0.0
  0
LINE
  5
   2D7
  8
0
  6
CONTINUOUS
 62
     3
 10
49.9934611111876
 20
163.795235732198
 30
0.0
 11
49.1184475541557
 21
163.795235732198
 31
0.0
  0
LINE
  5
   2D8
  8
0
  6
CONTINUOUS
 62
     7
 10
146.243435439466
 20
156.445244556243
 30
0.0
 11
74.4934606939551
 21
156.445244556243
 31
0.0
  0
LINE
  5
   2D9
  8
0
  6
CONTINUOUS
 62
     7
 10
146.243435439466
 20
156.445244556243
 30
0.0
 11
49.9934611111876
 21
156.445244556243
 31
0.0
  0
LINE
  5
   2DA
  8
0
  6
CONTINUOUS
 62
     1
 10
147.118445885226
 20
156.270235690617
 30
0.0
 11
49.1184475541557
 21
156.270235690617
 31
0.0
  0
LINE
  5
   2DB
  8
0
  6
CONTINUOUS
 62
     3
 10
49.5559475467051
 20
107.970236513161
 30
0.0
 11
49.5559475467051
 21
108.425242015717
 31
0.0
  0
LINE
  5
   2DC
  8
0
  6
CONTINUOUS
 62
     1
 10
147.118430304483
 20
31.2152324797171
 30
0.0
 11
73.6184471369232
 21
31.2152324797171
 31
0.0
  0
LINE
  5
   2DD
  8
0
  6
CONTINUOUS
 62
     1
 10
75.1759470436419
 20
31.2152324797171
 30
0.0
 11
75.1759470436419
 21
46.3002375633948
 31
0.0
  0
LINE
  5
   2DE
  8
0
  6
CONTINUOUS
 62
     1
 10
75.1759470436419
 20
108.425242015717
 30
0.0
 11
75.1759470436419
 21
156.270235690617
 31
0.0
  0
CIRCLE
  5
   2DF
  8
0
  6
CONTINUOUS
 62
     1
 10
51.3934397250414
 20
163.445241078732
 30
0.0
 40
0.769999986886978
  0
CIRCLE
  5
   2E0
  8
0
  6
CONTINUOUS
 62
     1
 10
71.1684393882752
 20
163.445241078732
 30
0.0
 40
0.769999986886978
  0
LINE
  5
   2E1
  8
0
  6
CONTINUOUS
 62
     3
 10
49.1184475541557
 20
23.7252376808183
 30
0.0
 11
49.1184475541557
 21
46.3702375622027
 31
0.0
  0
LINE
  5
   2E2
  8
0
  6
CONTINUOUS
 62
     3
 10
49.1184475541557
 20
108.425242015717
 30
0.0
 11
49.1184475541557
 21
163.795235732198
 31
0.0
  0
LINE
  5
   2E3
  8
0
  6
CONTINUOUS
 62
     3
 10
49.1184475541557
 20
46.7202375353806
 30
0.0
 11
49.1184475541557
 21
108.075242021678
 31
0.0
  0
LINE
  5
   2E4
  8
0
  6
CONTINUOUS
 62
     3
 10
49.5559475467051
 20
108.425242015717
 30
0.0
 11
49.1184475541557
 21
108.425242015717
 31
0.0
  0
LINE
  5
   2E5
  8
0
  6
CONTINUOUS
 62
     3
 10
49.5559475467051
 20
108.075242021678
 30
0.0
 11
49.1184475541557
 21
108.075242021678
 31
0.0
  0
LINE
  5
   2E6
  8
0
  6
CONTINUOUS
 62
     3
 10
49.5559475258435
 20
46.7202375353806
 30
0.0
 11
49.1184475541557
 21
46.7202375353806
 31
0.0
  0
LINE
  5
   2E7
  8
0
  6
CONTINUOUS
 62
     1
 10
49.5559475258435
 20
46.3002375633948
 30
0.0
 11
49.1184475541557
 21
46.3002375633948
 31
0.0
  0
LINE
  5
   2E8
  8
0
  6
CONTINUOUS
 62
     3
 10
147.118445885226
 20
108.425242015717
 30
0.0
 11
147.118445885226
 21
163.795235732198
 31
0.0
  0
ARC
  5
   2E9
  8
0
  6
CONTINUOUS
 62
     1
 10
73.793447133943
 20
54.5077320830459
 30
0.0
 40
0.174999997019768
 50
179.999999948034
 51
269.999999948034
  0
LINE
  5
   2EA
  8
0
  6
CONTINUOUS
 62
     3
 10
74.4059233833136
 20
163.970246580094
 30
0.0
 11
74.4059233833136
 21
164.845246565193
 31
0.0
  0
LINE
  5
   2EB
  8
0
  6
CONTINUOUS
 62
     3
 10
72.8309234101357
 20
163.9702465801
 30
0.0
 11
72.8309234101357
 21
164.845246565199
 31
0.0
  0
LINE
  5
   2EC
  8
0
  6
CONTINUOUS
 62
     3
 10
72.8309234101357
 20
163.970246580094
 30
0.0
 11
72.3934234175863
 21
163.970246580094
 31
0.0
  0
LINE
  5
   2ED
  8
0
  6
CONTINUOUS
 62
     3
 10
72.3934234175863
 20
162.395246606916
 30
0.0
 11
72.3934234175863
 21
163.970246580094
 31
0.0
  0
LINE
  5
   2EE
  8
0
  6
CONTINUOUS
 62
     3
 10
74.843423375863
 20
162.395246606916
 30
0.0
 11
72.3934234175863
 21
162.395246606916
 31
0.0
  0
LINE
  5
   2EF
  8
0
  6
CONTINUOUS
 62
     3
 10
74.843423375863
 20
162.395246606916
 30
0.0
 11
74.843423375863
 21
163.970246580094
 31
0.0
  0
LINE
  5
   2F0
  8
0
  6
CONTINUOUS
 62
     3
 10
74.843423375863
 20
163.970246580094
 30
0.0
 11
74.4059233833136
 21
163.970246580094
 31
0.0
  0
ARC
  5
   2F1
  8
0
  6
CONTINUOUS
 62
     1
 10
73.9685222396778
 20
159.420270410306
 30
0.0
 40
1.04999998211861
 50
269.999999948034
 51
449.999999948034
  0
LINE
  5
   2F2
  8
0
  6
DASHDOT
 62
     7
 10
77.2060221845435
 20
159.420270410306
 30
0.0
 11
70.031022306733
 21
159.420270410306
 31
0.0
  0
ARC
  5
   2F3
  8
0
  6
CONTINUOUS
 62
     1
 10
73.2685222515987
 20
159.420270410306
 30
0.0
 40
1.04999998211861
 50
89.9999999480344
 51
269.999999948034
  0
LINE
  5
   2F4
  8
0
  6
CONTINUOUS
 62
     1
 10
73.9685222396778
 20
160.470270392425
 30
0.0
 11
73.2685222515987
 21
160.470270392425
 31
0.0
  0
LINE
  5
   2F5
  8
0
  6
CONTINUOUS
 62
     1
 10
73.9685222396778
 20
158.370270428188
 30
0.0
 11
73.2685222515987
 21
158.370270428188
 31
0.0
  0
LINE
  5
   2F6
  8
0
  6
CONTINUOUS
 62
     3
 10
72.8309234101357
 20
164.84524105489
 30
0.0
 11
50.3434441086438
 21
164.84524105489
 31
0.0
  0
ARC
  5
   2F7
  8
0
  6
CONTINUOUS
 62
     1
 10
65.3936628223887
 20
160.120251699926
 30
0.0
 40
2.86999995112419
 50
269.679654033286
 51
449.999999948034
  0
ARC
  5
   2F8
  8
0
  6
CONTINUOUS
 62
     1
 10
65.3936628223887
 20
160.120251699926
 30
0.0
 40
2.09985599432712
 50
269.999999948034
 51
449.999945306521
  0
LINE
  5
   2F9
  8
0
  6
CONTINUOUS
 62
     1
 10
65.3936628223887
 20
162.990251651051
 30
0.0
 11
63.4917106190384
 21
162.990251651051
 31
0.0
  0
LINE
  5
   2FA
  8
0
  6
CONTINUOUS
 62
     1
 10
65.3936628223887
 20
162.22023575902
 30
0.0
 11
63.4757190583897
 21
162.22023575902
 31
0.0
  0
LINE
  5
   2FB
  8
0
  6
CONTINUOUS
 62
     1
 10
65.3936628223887
 20
158.020235830546
 30
0.0
 11
63.4757190583897
 21
158.020235830546
 31
0.0
  0
LINE
  5
   2FC
  8
0
  6
CONTINUOUS
 62
     1
 10
65.377616475216
 20
157.250296607212
 30
0.0
 11
63.4916499839207
 21
157.250296607212
 31
0.0
  0
ARC
  5
   2FD
  8
0
  6
CONTINUOUS
 62
     1
 10
61.368455633043
 20
160.120296558337
 30
0.0
 40
2.97505973521659
 50
224.901380849089
 51
315.098568474349
  0
ARC
  5
   2FE
  8
0
  6
CONTINUOUS
 62
     1
 10
61.3684448957443
 20
160.120296558337
 30
0.0
 40
3.56999993920326
 50
233.507448791235
 51
306.493766547859
  0
ARC
  5
   2FF
  8
0
  6
CONTINUOUS
 62
     1
 10
61.368455633043
 20
160.120296558337
 30
0.0
 40
2.97505973521659
 50
404.897963373026
 51
495.101923170488
  0
ARC
  5
   300
  8
0
  6
CONTINUOUS
 62
     1
 10
61.3684448957443
 20
160.120296558337
 30
0.0
 40
3.56999993920326
 50
413.505022838263
 51
486.494981956033
  0
LINE
  5
   301
  8
0
  6
CONTINUOUS
 62
     1
 10
59.2451789270971
 20
162.990251469532
 30
0.0
 11
57.3597091896664
 21
162.990251469532
 31
0.0
  0
LINE
  5
   302
  8
0
  6
CONTINUOUS
 62
     1
 10
57.3436125646877
 20
162.220229376928
 30
0.0
 11
59.2611812666953
 21
162.220235909291
 31
0.0
  0
LINE
  5
   303
  8
0
  6
CONTINUOUS
 62
     1
 10
59.2611785882738
 20
158.020235680753
 30
0.0
 11
57.3436125732211
 21
158.020242213085
 31
0.0
  0
LINE
  5
   304
  8
0
  6
CONTINUOUS
 62
     1
 10
59.2453006907397
 20
157.250251567284
 30
0.0
 11
57.3436304099598
 21
157.250251567284
 31
0.0
  0
ARC
  5
   305
  8
0
  6
CONTINUOUS
 62
     1
 10
57.3436304099598
 20
160.120296558337
 30
0.0
 40
2.86999995112419
 50
449.679006550204
 51
629.999999948034
  0
ARC
  5
   306
  8
0
  6
CONTINUOUS
 62
     1
 10
57.3436304099598
 20
160.120251518408
 30
0.0
 40
2.1001148727515
 50
90.0052836333811
 51
269.995265213079
  0
LINE
  5
   307
  8
0
  6
DASHDOT
 62
     7
 10
57.3436304099598
 20
157.600113671106
 30
0.0
 11
57.3436304099598
 21
162.64038936571
 31
0.0
  0
LINE
  5
   308
  8
0
  6
DASHDOT
 62
     7
 10
59.8637629166856
 20
160.120251518408
 30
0.0
 11
54.8234979032341
 21
160.120251518408
 31
0.0
  0
LINE
  5
   309
  8
0
  6
DASHDOT
 62
     7
 10
67.9134846750051
 20
160.120251699926
 30
0.0
 11
62.8738409697722
 21
160.120251699926
 31
0.0
  0
LINE
  5
   30A
  8
0
  6
DASHDOT
 62
     7
 10
65.3936628223887
 20
157.600424506734
 30
0.0
 11
65.3936628223887
 21
162.640078893119
 31
0.0
  0
LINE
  5
   30B
  8
0
  6
DASHDOT
 62
     7
 10
61.3684395551682
 20
4.09963084108418
 30
0.0
 11
61.3684395551682
 21
167.314471513044
 31
0.0
  0
LINE
  5
   30C
  8
0
  6
DASHDOT
 62
     7
 10
64.9385166341508
 20
160.120296558337
 30
0.0
 11
57.7983679290549
 21
160.120296558337
 31
0.0
  0
ARC
  5
   30D
  8
0
  6
CONTINUOUS
 62
     1
 10
57.3434174893041
 20
27.4702332311523
 30
0.0
 40
2.09999798521424
 50
90.0001399327154
 51
270.000100332566
  0
LINE
  5
   30E
  8
0
  6
DASHDOT
 62
     2
 10
57.3434174893041
 20
24.3202352638195
 30
0.0
 11
57.3434174893041
 21
30.6202311984851
 31
0.0
  0
LINE
  5
   30F
  8
0
  6
CONTINUOUS
 62
     1
 10
59.2611497764815
 20
25.3702379198329
 30
0.0
 11
57.3434236738863
 21
25.3702379198329
 31
0.0
  0
LINE
  5
   310
  8
0
  6
CONTINUOUS
 62
     1
 10
59.2611474211219
 20
29.5702309647164
 30
0.0
 11
57.3434213184485
 21
29.5702363052908
 31
0.0
  0
ARC
  5
   311
  8
0
  6
CONTINUOUS
 62
     1
 10
61.3684200912447
 20
27.4702699945967
 30
0.0
 40
2.97503256700413
 50
404.899302393594
 51
495.100813987516
  0
ARC
  5
   312
  8
0
  6
CONTINUOUS
 62
     1
 10
61.3684200912447
 20
27.4702699945967
 30
0.0
 40
2.97503256700413
 50
224.901119153159
 51
315.09888074291
  0
LINE
  5
   313
  8
0
  6
CONTINUOUS
 62
     1
 10
65.3934235367956
 20
25.3702379198329
 30
0.0
 11
63.4757027747764
 21
25.3702379198329
 31
0.0
  0
LINE
  5
   314
  8
0
  6
CONTINUOUS
 62
     1
 10
65.3934265220905
 20
29.5702299089837
 30
0.0
 11
63.4757004203101
 21
29.5702352495581
 31
0.0
  0
ARC
  5
   315
  8
0
  6
CONTINUOUS
 62
     1
 10
65.3934249943162
 20
27.4702353640483
 30
0.0
 40
2.09999509708851
 50
269.999747131106
 51
450.000048027357
  0
LINE
  5
   316
  8
0
  6
DASHDOT
 62
     2
 10
65.3934249943162
 20
24.3202402848412
 30
0.0
 11
65.3934249943162
 21
30.6202304432554
 31
0.0
  0
LINE
  5
   317
  8
0
  6
DASHDOT
 62
     2
 10
68.5434200735233
 20
27.4702353640483
 30
0.0
 11
62.243429915109
 21
27.4702353640483
 31
0.0
  0
LINE
  5
   318
  8
0
  6
DASHDOT
 62
     2
 10
60.4934154566369
 20
27.4702332311523
 30
0.0
 11
54.1934195219712
 21
27.4702332311523
 31
0.0
  0
LINE
  5
   319
  8
0
  6
DASHDOT
 62
     2
 10
65.3934526403675
 20
27.4702699945967
 30
0.0
 11
57.343387542122
 21
27.4702699945967
 31
0.0
  0
CIRCLE
  5
   31A
  8
0
  6
CONTINUOUS
 62
     1
 10
51.3934283406564
 20
24.1452374417552
 30
0.0
 40
0.49000039187499
  0
LINE
  5
   31B
  8
0
  6
CONTINUOUS
 62
     3
 10
72.8309234101357
 20
22.7452379645379
 30
0.0
 11
50.5184291306914
 21
22.7452379645379
 31
0.0
  0
LINE
  5
   31C
  8
0
  6
CONTINUOUS
 62
     3
 10
72.8309234101357
 20
22.7452272833784
 30
0.0
 11
72.8309234101357
 21
23.6202272684772
 31
0.0
  0
LINE
  5
   31D
  8
0
  6
CONTINUOUS
 62
     3
 10
72.8309234101357
 20
23.6202272684831
 30
0.0
 11
72.3934234175863
 21
23.6202272684831
 31
0.0
  0
LINE
  5
   31E
  8
0
  6
CONTINUOUS
 62
     3
 10
72.3934234175863
 20
23.6202272684831
 30
0.0
 11
72.3934234175863
 21
25.195227241661
 31
0.0
  0
LINE
  5
   31F
  8
0
  6
CONTINUOUS
 62
     3
 10
74.843423375863
 20
25.195227241661
 30
0.0
 11
72.3934234175863
 21
25.195227241661
 31
0.0
  0
LINE
  5
   320
  8
0
  6
CONTINUOUS
 62
     3
 10
74.843423375863
 20
23.6202272684831
 30
0.0
 11
74.843423375863
 21
25.195227241661
 31
0.0
  0
LINE
  5
   321
  8
0
  6
CONTINUOUS
 62
     3
 10
74.843423375863
 20
23.6202272684831
 30
0.0
 11
74.4059233833136
 21
23.6202272684831
 31
0.0
  0
LINE
  5
   322
  8
0
  6
CONTINUOUS
 62
     3
 10
74.4059233833136
 20
22.7452272833848
 30
0.0
 11
74.4059233833136
 21
23.6202272684837
 31
0.0
  0
CIRCLE
  5
   323
  8
0
  6
CONTINUOUS
 62
     1
 10
73.6184279665492
 20
28.1702504203284
 30
0.0
 40
1.83749026298616
  0
CIRCLE
  5
   324
  8
0
  6
CONTINUOUS
 62
     1
 10
73.6184183110435
 20
28.1702270508738
 30
0.0
 40
0.962507390421093
  0
LINE
  5
   325
  8
0
  6
DASHDOT
 62
     2
 10
76.8466990565137
 20
28.1702504203284
 30
0.0
 11
70.7309377214445
 21
28.1702504203284
 31
0.0
  0
LINE
  5
   326
  8
0
  6
CONTINUOUS
 62
     3
 10
49.5559475258435
 20
46.3702375622027
 30
0.0
 11
49.1184475541557
 21
46.3702375622027
 31
0.0
  0
LINE
  5
   327
  8
0
  6
CONTINUOUS
 62
     1
 10
49.9759512779558
 20
108.425242015717
 30
0.0
 11
49.9759512779558
 21
156.270235690617
 31
0.0
  0
LINE
  5
   328
  8
0
  6
CONTINUOUS
 62
     1
 10
49.9759512779558
 20
91.0827314601773
 30
0.0
 11
49.9759512779558
 21
107.970236513161
 31
0.0
  0
LINE
  5
   329
  8
0
  6
CONTINUOUS
 62
     1
 10
49.9759512779558
 20
54.3327320860261
 30
0.0
 11
49.9759512779558
 21
91.0827314601773
 31
0.0
  0
LINE
  5
   32A
  8
0
  6
CONTINUOUS
 62
     1
 10
49.9759512779558
 20
46.7202375353806
 30
0.0
 11
49.9759512779558
 21
54.3327320651645
 31
0.0
  0
LINE
  5
   32B
  8
0
  6
CONTINUOUS
 62
     1
 10
49.9759512779558
 20
31.2152324797171
 30
0.0
 11
49.9759512779558
 21
46.3002375633948
 31
0.0
  0
LINE
  5
   32C
  8
0
  6
CONTINUOUS
 62
     2
 10
97.3309229929032
 20
22.7452379645379
 30
0.0
 11
75.0184287134589
 21
22.7452379645379
 31
0.0
  0
LINE
  5
   32D
  8
0
  6
CONTINUOUS
 62
     1
 10
83.7684391736984
 20
54.3327320860261
 30
0.0
 11
73.793447133943
 21
54.3327320860261
 31
0.0
  0
LINE
  5
   32E
  8
0
  6
CONTINUOUS
 62
     1
 10
75.1759470436419
 20
91.0827314601773
 30
0.0
 11
75.1759470436419
 21
107.970236513161
 31
0.0
  0
LINE
  5
   32F
  8
0
  6
CONTINUOUS
 62
     1
 10
75.1759470436419
 20
54.3327320860261
 30
0.0
 11
75.1759470436419
 21
91.0827314601773
 31
0.0
  0
LINE
  5
   330
  8
0
  6
CONTINUOUS
 62
     1
 10
75.1759470436419
 20
46.7202375353806
 30
0.0
 11
75.1759470436419
 21
54.3327320651645
 31
0.0
  0
LINE
  5
   331
  8
0
  6
CONTINUOUS
 62
     3
 10
97.062688320008
 20
22.7452379645379
 30
0.0
 11
74.4059233833136
 21
22.7452379645379
 31
0.0
  0
LINE
  5
   332
  8
0
  6
CONTINUOUS
 62
     1
 10
119.293422618884
 20
31.1452378214852
 30
0.0
 11
74.4934287223996
 21
31.1452378214852
 31
0.0
  0
LINE
  5
   333
  8
0
  6
DASHDOT
 62
     2
 10
110.368438720703
 20
-4.7434146689015
 30
0.0
 11
110.368438720703
 21
48.0520003998071
 31
0.0
  0
LINE
  5
   334
  8
0
  6
DASHDOT
 62
     2
 10
77.4334282974175
 20
24.1452374417552
 30
0.0
 11
74.3534275494303
 21
24.1452374417552
 31
0.0
  0
LINE
  5
   335
  8
0
  6
CONTINUOUS
 62
     1
 10
83.7684391736985
 20
91.0827314601773
 30
0.0
 11
73.793447133943
 21
91.0827314601773
 31
0.0
  0
INSERT
  5
   336
  8
255
  6
CONTINUOUS
 62
     7
  2
MOSTRINA
 10
64.0500496169225
 20
34.2145142928039
 30
0.0
 41
0.349999994039536
 42
0.349999994039536
 50
359.999999792138
 43
0.349999994039536
  0
LINE
  5
   337
  8
0
  6
CONTINUOUS
 62
     1
 10
83.7684391736984
 20
46.7202375353806
 30
0.0
 11
73.6184471369232
 21
46.7202375353806
 31
0.0
  0
LINE
  5
   338
  8
0
  6
CONTINUOUS
 62
     1
 10
83.7684391736984
 20
46.3702375622027
 30
0.0
 11
74.055947108611
 21
46.3702375622027
 31
0.0
  0
LINE
  5
   339
  8
0
  6
CONTINUOUS
 62
     3
 10
97.3309229929032
 20
164.84524105489
 30
0.0
 11
74.8434436914112
 21
164.84524105489
 31
0.0
  0
LINE
  5
   33A
  8
0
  6
CONTINUOUS
 62
     7
 10
146.243435439466
 20
156.445244556243
 30
0.0
 11
74.4934606939551
 21
156.445244556243
 31
0.0
  0
LINE
  5
   33B
  8
0
  6
CONTINUOUS
 62
     1
 10
147.118445885226
 20
156.270235690617
 30
0.0
 11
73.7059471354331
 21
156.270235690617
 31
0.0
  0
LINE
  5
   33C
  8
0
  6
CONTINUOUS
 62
     1
 10
147.118430304483
 20
31.2152324797171
 30
0.0
 11
73.6184471369232
 21
31.2152324797171
 31
0.0
  0
LINE
  5
   33D
  8
0
  6
CONTINUOUS
 62
     1
 10
83.7684391736984
 20
46.3002375633948
 30
0.0
 11
49.5559475258435
 21
46.3002375633948
 31
0.0
  0
LINE
  5
   33E
  8
0
  6
CONTINUOUS
 62
     1
 10
75.1759470436419
 20
31.2152324797171
 30
0.0
 11
75.1759470436419
 21
46.3002375633948
 31
0.0
  0
LINE
  5
   33F
  8
0
  6
CONTINUOUS
 62
     1
 10
75.1759470436419
 20
108.425242015717
 30
0.0
 11
75.1759470436419
 21
156.270235690617
 31
0.0
  0
ARC
  5
   340
  8
0
  6
CONTINUOUS
 62
     1
 10
73.793447133943
 20
54.5077320830459
 30
0.0
 40
0.174999997019768
 50
179.999999948034
 51
269.999999948034
  0
LINE
  5
   341
  8
0
  6
DASHDOT
 62
     7
 10
134.868438303471
 20
11.6735230022392
 30
0.0
 11
134.868438303471
 21
96.8919920250745
 31
0.0
  0
LINE
  5
   342
  8
0
  6
DASHDOT
 62
     7
 10
85.8684391379357
 20
12.4130826839882
 30
0.0
 11
85.8684391379357
 21
168.826953880002
 31
0.0
  0
CIRCLE
  5
   343
  8
0
  6
CONTINUOUS
 62
     1
 10
73.6185222456383
 20
111.120241969822
 30
0.0
 40
1.39999997615814
  0
LINE
  5
   344
  8
0
  6
CONTINUOUS
 62
     1
 10
72.6559474871005
 20
112.136829284059
 30
0.0
 11
72.6559474871005
 21
156.270235690617
 31
0.0
  0
LINE
  5
   345
  8
0
  6
CONTINUOUS
 62
     1
 10
73.9159472653712
 20
112.488283742166
 30
0.0
 11
73.9159472653712
 21
156.270235690617
 31
0.0
  0
LINE
  5
   346
  8
0
  6
CONTINUOUS
 62
     1
 10
135.025921210945
 20
54.3327399328352
 30
0.0
 11
135.025921210945
 21
91.082712604106
 31
0.0
  0
LINE
  5
   347
  8
0
  6
DASHDOT
 62
     7
 10
110.368438720703
 20
12.6368232599738
 30
0.0
 11
110.368438720703
 21
120.861309565483
 31
0.0
  0
LINE
  5
   348
  8
0
  6
DASHDOT
 62
     7
 10
166.091199060654
 20
74.7202212274078
 30
0.0
 11
54.2937637009048
 21
74.7202212274078
 31
0.0
  0
LINE
  5
   349
  8
0
  6
CONTINUOUS
 62
     7
 10
122.443433174491
 20
52.0577189430599
 30
0.0
 11
122.443433174491
 21
89.3327183082704
 31
0.0
  0
LINE
  5
   34A
  8
0
  6
CONTINUOUS
 62
     7
 10
122.443433174491
 20
85.3272595446958
 30
0.0
 11
87.093436446786
 21
85.3272595446958
 31
0.0
  0
LINE
  5
   34B
  8
0
  6
CONTINUOUS
 62
     7
 10
122.443433174491
 20
85.6772595387354
 30
0.0
 11
87.093436446786
 21
85.6772595387354
 31
0.0
  0
LINE
  5
   34C
  8
0
  6
CONTINUOUS
 62
     7
 10
103.018438845873
 20
56.6707723770733
 30
0.0
 11
103.018438845873
 21
84.3696622099294
 31
0.0
  0
LINE
  5
   34D
  8
0
  6
CONTINUOUS
 62
     7
 10
117.718438595533
 20
56.6707723770733
 30
0.0
 11
117.718438595533
 21
84.3696622099294
 31
0.0
  0
LINE
  5
   34E
  8
0
  6
CONTINUOUS
 62
     7
 10
103.018438845873
 20
78.6772596579447
 30
0.0
 11
87.093436446786
 21
78.6772596579447
 31
0.0
  0
LINE
  5
   34F
  8
0
  6
CONTINUOUS
 62
     7
 10
122.443433174491
 20
78.6772596579447
 30
0.0
 11
117.718438595533
 21
78.6772596579447
 31
0.0
  0
LINE
  5
   350
  8
0
  6
CONTINUOUS
 62
     7
 10
118.680938579142
 20
79.0272596519842
 30
0.0
 11
117.718438595533
 21
79.0272596519842
 31
0.0
  0
LINE
  5
   351
  8
0
  6
CONTINUOUS
 62
     7
 10
103.018438845873
 20
79.0272596519842
 30
0.0
 11
87.093436446786
 21
79.0272596519842
 31
0.0
  0
LINE
  5
   352
  8
0
  6
CONTINUOUS
 62
     7
 10
122.443433174491
 20
62.2868567617176
 30
0.0
 11
117.718438595533
 21
62.2868567617176
 31
0.0
  0
LINE
  5
   353
  8
0
  6
CONTINUOUS
 62
     7
 10
103.018438845873
 20
62.2868567617176
 30
0.0
 11
87.093436446786
 21
62.2868567617176
 31
0.0
  0
LINE
  5
   354
  8
0
  6
CONTINUOUS
 62
     7
 10
103.018438845873
 20
61.936856767678
 30
0.0
 11
87.093436446786
 21
61.936856767678
 31
0.0
  0
LINE
  5
   355
  8
0
  6
CONTINUOUS
 62
     7
 10
122.443433174491
 20
61.936856767678
 30
0.0
 11
117.718438595533
 21
61.936856767678
 31
0.0
  0
LINE
  5
   356
  8
0
  6
CONTINUOUS
 62
     7
 10
122.443433174491
 20
55.6368568749664
 30
0.0
 11
87.093436446786
 21
55.6368568749664
 31
0.0
  0
LINE
  5
   357
  8
0
  6
CONTINUOUS
 62
     7
 10
122.443433174491
 20
55.2868568809269
 30
0.0
 11
87.093436446786
 21
55.2868568809269
 31
0.0
  0
LINE
  5
   358
  8
0
  6
CONTINUOUS
 62
     7
 10
117.718438595533
 20
83.9874932558664
 30
0.0
 11
103.018438845873
 21
83.9874932558664
 31
0.0
  0
LINE
  5
   359
  8
0
  6
CONTINUOUS
 62
     7
 10
117.718438595533
 20
84.3696622099294
 30
0.0
 11
103.018438845873
 21
84.3696622099294
 31
0.0
  0
LINE
  5
   35A
  8
0
  6
CONTINUOUS
 62
     7
 10
117.718438595533
 20
56.6707723770733
 30
0.0
 11
103.018438845873
 21
56.6707723770733
 31
0.0
  0
LINE
  5
   35B
  8
0
  6
CONTINUOUS
 62
     7
 10
117.718438595533
 20
57.0529406635642
 30
0.0
 11
103.018438845873
 21
57.0529406635642
 31
0.0
  0
LINE
  5
   35C
  8
0
  6
CONTINUOUS
 62
     7
 10
99.3434375733137
 20
83.7522595715179
 30
0.0
 11
98.8184375822544
 21
83.7522595715179
 31
0.0
  0
LINE
  5
   35D
  8
0
  6
CONTINUOUS
 62
     7
 10
99.3434375733137
 20
80.6022596251621
 30
0.0
 11
98.8184375822544
 21
80.6022596251621
 31
0.0
  0
LINE
  5
   35E
  8
0
  6
CONTINUOUS
 62
     7
 10
99.3434375733137
 20
80.6022596251621
 30
0.0
 11
99.3434375733137
 21
83.7522595715179
 31
0.0
  0
LINE
  5
   35F
  8
0
  6
CONTINUOUS
 62
     7
 10
98.8184375822544
 20
80.6022596251621
 30
0.0
 11
98.8184375822544
 21
83.7522595715179
 31
0.0
  0
CIRCLE
  5
   360
  8
0
  6
CONTINUOUS
 62
     7
 10
99.0809375777841
 20
58.7868568213222
 30
0.0
 40
1.13749998062849
  0
CIRCLE
  5
   361
  8
0
  6
CONTINUOUS
 62
     7
 10
99.0809375777841
 20
58.7868568213222
 30
0.0
 40
1.66249997168779
  0
LINE
  5
   362
  8
0
  6
CONTINUOUS
 62
     7
 10
118.680938579142
 20
79.0272596519842
 30
0.0
 11
118.680938579142
 21
85.3272595446958
 31
0.0
  0
LINE
  5
   363
  8
0
  6
CONTINUOUS
 62
     7
 10
102.055938862264
 20
79.0272596519842
 30
0.0
 11
102.055938862264
 21
85.3272595446958
 31
0.0
  0
LINE
  5
   364
  8
0
  6
CONTINUOUS
 62
     7
 10
122.443433174491
 20
79.0272596519842
 30
0.0
 11
118.680938579142
 21
79.0272596519842
 31
0.0
  0
LINE
  5
   365
  8
0
  6
CONTINUOUS
 62
     7
 10
118.680938579142
 20
55.6368568749664
 30
0.0
 11
118.680938579142
 21
61.936856767678
 31
0.0
  0
LINE
  5
   366
  8
0
  6
CONTINUOUS
 62
     7
 10
102.055938862264
 20
55.6368568749664
 30
0.0
 11
102.055938862264
 21
61.936856767678
 31
0.0
  0
LINE
  5
   367
  8
0
  6
CONTINUOUS
 62
     7
 10
134.693438306451
 20
99.2202208101753
 30
0.0
 11
86.0434391349554
 21
99.2202208101753
 31
0.0
  0
LINE
  5
   368
  8
0
  6
CONTINUOUS
 62
     7
 10
134.693438306451
 20
50.2202193915848
 30
0.0
 11
86.0434391349554
 21
50.2202193915848
 31
0.0
  0
LINE
  5
   369
  8
0
  6
CONTINUOUS
 62
     7
 10
131.718438357115
 20
91.6077182695274
 30
0.0
 11
131.718438357115
 21
92.657718251646
 31
0.0
  0
LINE
  5
   36A
  8
0
  6
CONTINUOUS
 62
     7
 10
132.768438339233
 20
91.6077182695274
 30
0.0
 11
132.768438339233
 21
92.657718251646
 31
0.0
  0
LINE
  5
   36B
  8
0
  6
DOT
 62
     7
 10
126.013428040147
 20
53.8709299717514
 30
0.0
 11
126.013428040147
 21
56.7195084716718
 31
0.0
  0
LINE
  5
   36C
  8
0
  6
DOT
 62
     7
 10
130.423427430988
 20
53.8709299717514
 30
0.0
 11
130.423427430988
 21
56.7195084716718
 31
0.0
  0
LINE
  5
   36D
  8
0
  6
CONTINUOUS
 62
     7
 10
132.768427658081
 20
61.8577668413516
 30
0.0
 11
131.718427675963
 21
61.8577668413516
 31
0.0
  0
LINE
  5
   36E
  8
0
  6
CONTINUOUS
 62
     7
 10
131.543427678943
 20
60.807766859233
 30
0.0
 11
131.543427678943
 21
61.6827668443318
 31
0.0
  0
LINE
  5
   36F
  8
0
  6
CONTINUOUS
 62
     7
 10
131.543427678943
 20
60.1077662035819
 30
0.0
 11
131.543427678943
 21
60.807766859233
 31
0.0
  0
LINE
  5
   370
  8
0
  6
CONTINUOUS
 62
     7
 10
131.543427678943
 20
59.4077662155028
 30
0.0
 11
131.543427678943
 21
60.1077662035819
 31
0.0
  0
LINE
  5
   371
  8
0
  6
CONTINUOUS
 62
     7
 10
131.543427678943
 20
58.7077662274238
 30
0.0
 11
131.543427678943
 21
59.4077662155028
 31
0.0
  0
LINE
  5
   372
  8
0
  6
CONTINUOUS
 62
     7
 10
131.543427678943
 20
57.8327662423249
 30
0.0
 11
131.543427678943
 21
58.7077662274238
 31
0.0
  0
LINE
  5
   373
  8
0
  6
CONTINUOUS
 62
     7
 10
132.768427658081
 20
57.6577662453051
 30
0.0
 11
131.718427675963
 21
57.6577662453051
 31
0.0
  0
LINE
  5
   374
  8
0
  6
CONTINUOUS
 62
     7
 10
132.943427655101
 20
57.8327662423249
 30
0.0
 11
132.943427655101
 21
58.7077662274238
 31
0.0
  0
LINE
  5
   375
  8
0
  6
CONTINUOUS
 62
     7
 10
132.943427655101
 20
58.7077662274238
 30
0.0
 11
132.943427655101
 21
59.4077662155028
 31
0.0
  0
LINE
  5
   376
  8
0
  6
CONTINUOUS
 62
     7
 10
132.943427655101
 20
59.4077662155028
 30
0.0
 11
132.943427655101
 21
60.1077662035819
 31
0.0
  0
LINE
  5
   377
  8
0
  6
CONTINUOUS
 62
     7
 10
132.943427655101
 20
60.1077662035819
 30
0.0
 11
132.943427655101
 21
60.807765524089
 31
0.0
  0
LINE
  5
   378
  8
0
  6
CONTINUOUS
 62
     7
 10
132.943427655101
 20
60.807765524089
 30
0.0
 11
132.943427655101
 21
61.6827668443318
 31
0.0
  0
ARC
  5
   379
  8
0
  6
CONTINUOUS
 62
     7
 10
132.243438152808
 20
92.6577175913421
 30
0.0
 40
0.524999347025833
 50
359.999973013555
 51
540.000043615088
  0
ARC
  5
   37A
  8
0
  6
CONTINUOUS
 62
     7
 10
132.243405458717
 20
91.6077627455516
 30
0.0
 40
0.525051792022374
 50
180.004949696118
 51
359.995034083139
  0
ARC
  5
   37B
  8
0
  6
DOT
 62
     7
 10
128.218428477722
 20
55.2952205785296
 30
0.0
 40
2.62500161529754
 50
392.859977017252
 51
507.140082588953
  0
ARC
  5
   37C
  8
0
  6
DOT
 62
     7
 10
128.218428477722
 20
55.2952205785296
 30
0.0
 40
2.62500161529754
 50
212.859917307116
 51
327.140022878817
  0
ARC
  5
   37D
  8
0
  6
CONTINUOUS
 62
     7
 10
131.718427817528
 20
61.6827672539722
 30
0.0
 40
0.174999826669375
 50
449.999889462241
 51
540.000025360212
  0
ARC
  5
   37E
  8
0
  6
CONTINUOUS
 62
     7
 10
132.76842850755
 20
61.6827675299839
 30
0.0
 40
0.174999381341623
 50
359.999829068822
 51
450.000145163477
  0
ARC
  5
   37F
  8
0
  6
CONTINUOUS
 62
     7
 10
132.768428316064
 20
57.8327660898528
 30
0.0
 40
0.174999652581377
 50
269.999943873992
 51
360.000134042801
  0
ARC
  5
   380
  8
0
  6
CONTINUOUS
 62
     7
 10
131.718427565438
 20
57.8327659222883
 30
0.0
 40
0.17499965433343
 50
179.999866090912
 51
270.000166521604
  0
ARC
  5
   381
  8
0
  6
CONTINUOUS
 62
     7
 10
134.693438306451
 20
50.3952193886046
 30
0.0
 40
0.174999997019768
 50
269.999999948034
 51
359.999999948034
  0
ARC
  5
   382
  8
0
  6
CONTINUOUS
 62
     7
 10
134.693438306451
 20
99.0452208131556
 30
0.0
 40
0.174999997019768
 50
359.999999948034
 51
449.999999948034
  0
LINE
  5
   383
  8
0
  6
DASHDOT
 62
     7
 10
132.243438152808
 20
89.7702182845494
 30
0.0
 11
132.243438152808
 21
91.5202169666801
 31
0.0
  0
LINE
  5
   384
  8
0
  6
DASHDOT
 62
     7
 10
133.118437493874
 20
92.6577175913421
 30
0.0
 11
131.368438811743
 21
92.6577175913421
 31
0.0
  0
LINE
  5
   385
  8
0
  6
DASHDOT
 62
     7
 10
132.243405458717
 20
66.3833182699451
 30
0.0
 11
132.243405458717
 21
94.4953144973408
 31
0.0
  0
LINE
  5
   386
  8
0
  6
DASHDOT
 62
     7
 10
133.118457244778
 20
91.6077627455516
 30
0.0
 11
131.368353672655
 21
91.6077627455516
 31
0.0
  0
LINE
  5
   387
  8
0
  6
DASHDOT
 62
     7
 10
128.218428477722
 20
52.3202189691925
 30
0.0
 11
128.218428477722
 21
58.2702221878667
 31
0.0
  0
LINE
  5
   388
  8
0
  6
DASHDOT
 62
     7
 10
131.19343008706
 20
55.2952205785296
 30
0.0
 11
125.243426868385
 21
55.2952205785296
 31
0.0
  0
LINE
  5
   389
  8
0
  6
DASHDOT
 62
     7
 10
132.680938678375
 20
50.5702195342494
 30
0.0
 11
132.680938678375
 21
54.2452193011444
 31
0.0
  0
LINE
  5
   38A
  8
0
  6
DASHDOT
 62
     7
 10
134.518438561822
 20
52.4077194176969
 30
0.0
 11
130.843438794927
 21
52.4077194176969
 31
0.0
  0
LINE
  5
   38B
  8
0
  6
DASHDOT
 62
     7
 10
134.281627633491
 20
59.7577665433284
 30
0.0
 11
130.712355328338
 21
59.7577665433284
 31
0.0
  0
LINE
  5
   38C
  8
0
  6
DASHDOT
 62
     7
 10
132.243427667022
 20
57.0039150769644
 30
0.0
 11
132.243427667022
 21
62.3766091784061
 31
0.0
  0
ARC
  5
   38D
  8
0
  6
CONTINUOUS
 62
     7
 10
86.0434391349554
 20
50.3952193886046
 30
0.0
 40
0.174999997019768
 50
179.999999948034
 51
269.999999948034
  0
ARC
  5
   38E
  8
0
  6
CONTINUOUS
 62
     7
 10
86.0434391349554
 20
99.0452208131556
 30
0.0
 40
0.174999997019768
 50
89.9999999480344
 51
179.999999948034
  0
LINE
  5
   38F
  8
0
  6
CONTINUOUS
 62
     7
 10
134.693438306451
 20
99.2202208101753
 30
0.0
 11
86.0434391349554
 21
99.2202208101753
 31
0.0
  0
LINE
  5
   390
  8
0
  6
CONTINUOUS
 62
     7
 10
134.693438306451
 20
50.2202193915848
 30
0.0
 11
86.0434391349554
 21
50.2202193915848
 31
0.0
  0
LINE
  5
   391
  8
0
  6
CONTINUOUS
 62
     7
 10
134.605938307941
 20
95.0202208817009
 30
0.0
 11
86.1309391334653
 21
95.0202208817009
 31
0.0
  0
LINE
  5
   392
  8
0
  6
CONTINUOUS
 62
     7
 10
134.605938307941
 20
98.5202208220962
 30
0.0
 11
86.1309391334653
 21
98.5202208220962
 31
0.0
  0
LINE
  5
   393
  8
0
  6
CONTINUOUS
 62
     7
 10
85.8684391379356
 20
50.3952193886046
 30
0.0
 11
85.8684391379356
 21
99.0452208131556
 31
0.0
  0
LINE
  5
   394
  8
0
  6
CONTINUOUS
 62
     7
 10
134.868438303471
 20
50.3952193886046
 30
0.0
 11
134.868438303471
 21
99.0452208131556
 31
0.0
  0
LINE
  5
   395
  8
0
  6
CONTINUOUS
 62
     7
 10
122.093433180452
 20
93.9702182292942
 30
0.0
 11
87.4434364408255
 21
93.9702182292942
 31
0.0
  0
LINE
  5
   396
  8
0
  6
CONTINUOUS
 62
     7
 10
122.268433177471
 20
51.4452187865977
 30
0.0
 11
87.4434364408255
 21
51.4452187865977
 31
0.0
  0
LINE
  5
   397
  8
0
  6
CONTINUOUS
 62
     7
 10
87.093436446786
 20
51.7952187806372
 30
0.0
 11
87.093436446786
 21
93.6202182352547
 31
0.0
  0
LINE
  5
   398
  8
0
  6
CONTINUOUS
 62
     7
 10
122.443433174491
 20
51.6202187836174
 30
0.0
 11
122.443433174491
 21
93.6202182352547
 31
0.0
  0
LINE
  5
   399
  8
0
  6
CONTINUOUS
 62
     7
 10
132.768441009521
 20
76.7327185228471
 30
0.0
 11
132.768441009521
 21
77.4326918080458
 31
0.0
  0
LINE
  5
   39A
  8
0
  6
CONTINUOUS
 62
     7
 10
132.76844367981
 20
74.8077185556297
 30
0.0
 11
132.76844367981
 21
75.5077185437087
 31
0.0
  0
LINE
  5
   39B
  8
0
  6
CONTINUOUS
 62
     7
 10
131.71843301716
 20
69.9952173026811
 30
0.0
 11
131.718438357736
 21
70.6952186259012
 31
0.0
  0
LINE
  5
   39C
  8
0
  6
CONTINUOUS
 62
     7
 10
131.718420777716
 20
69.9952173024569
 30
0.0
 11
131.718420777716
 21
79.4452158063804
 31
0.0
  0
LINE
  5
   39D
  8
0
  6
CONTINUOUS
 62
     7
 10
132.768451690674
 20
69.995217302442
 30
0.0
 11
131.718438357115
 21
69.995217302442
 31
0.0
  0
LINE
  5
   39E
  8
0
  6
CONTINUOUS
 62
     7
 10
132.768451690688
 20
69.9952173077329
 30
0.0
 11
132.768441009535
 21
79.4451917785041
 31
0.0
  0
LINE
  5
   39F
  8
0
  6
CONTINUOUS
 62
     7
 10
132.768441021253
 20
79.4451917816802
 30
0.0
 11
131.718446379683
 21
79.4452158142726
 31
0.0
  0
LINE
  5
   3A0
  8
0
  6
CONTINUOUS
 62
     7
 10
103.018438845873
 20
57.0529406635642
 30
0.0
 11
103.018438845873
 21
83.9874925882944
 31
0.0
  0
LINE
  5
   3A1
  8
0
  6
CONTINUOUS
 62
     7
 10
117.718438595533
 20
57.0529406635642
 30
0.0
 11
117.718438595533
 21
83.9874925882944
 31
0.0
  0
LINE
  5
   3A2
  8
0
  6
CONTINUOUS
 62
     7
 10
117.718438595533
 20
57.0529406635642
 30
0.0
 11
103.018438845873
 21
57.0529406635642
 31
0.0
  0
LINE
  5
   3A3
  8
0
  6
CONTINUOUS
 62
     7
 10
117.718438595533
 20
57.3077195212249
 30
0.0
 11
103.018438845873
 21
57.3077195212249
 31
0.0
  0
LINE
  5
   3A4
  8
0
  6
CONTINUOUS
 62
     7
 10
117.718438595533
 20
83.7327157333498
 30
0.0
 11
103.018438845873
 21
83.7327157333498
 31
0.0
  0
LINE
  5
   3A5
  8
0
  6
CONTINUOUS
 62
     7
 10
117.718438595533
 20
83.9874932558664
 30
0.0
 11
103.018438845873
 21
83.9874932558664
 31
0.0
  0
CIRCLE
  5
   3A6
  8
0
  6
CONTINUOUS
 62
     7
 10
132.680933845596
 20
52.4077192983676
 30
0.0
 40
0.91000257013118
  0
CIRCLE
  5
   3A7
  8
0
  6
CONTINUOUS
 62
     7
 10
132.680933325824
 20
52.4077185594442
 30
0.0
 40
1.48750411169073
  0
LINE
  5
   3A8
  8
0
  6
CONTINUOUS
 62
     7
 10
134.605938307941
 20
50.6577193841342
 30
0.0
 11
134.605938307941
 21
98.7827208176259
 31
0.0
  0
LINE
  5
   3A9
  8
0
  6
CONTINUOUS
 62
     7
 10
134.430938310921
 20
50.4827193871145
 30
0.0
 11
86.3059391304851
 21
50.4827193871145
 31
0.0
  0
LINE
  5
   3AA
  8
0
  6
CONTINUOUS
 62
     7
 10
86.1309391334653
 20
50.6577193841342
 30
0.0
 11
86.1309391334653
 21
98.7827208176259
 31
0.0
  0
LINE
  5
   3AB
  8
0
  6
CONTINUOUS
 62
     7
 10
134.430938310921
 20
98.9577208146457
 30
0.0
 11
86.3059391304851
 21
98.9577208146457
 31
0.0
  0
ARC
  5
   3AC
  8
0
  6
CONTINUOUS
 62
     7
 10
86.3059391304851
 20
98.7827208176259
 30
0.0
 40
0.174999997019768
 50
89.9999999480344
 51
179.999999948034
  0
ARC
  5
   3AD
  8
0
  6
CONTINUOUS
 62
     7
 10
134.430938310921
 20
98.7827208176259
 30
0.0
 40
0.174999997019768
 50
359.999999948034
 51
449.999999948034
  0
ARC
  5
   3AE
  8
0
  6
CONTINUOUS
 62
     7
 10
134.430938310921
 20
50.6577193841342
 30
0.0
 40
0.174999997019768
 50
269.999999948034
 51
359.999999948034
  0
ARC
  5
   3AF
  8
0
  6
CONTINUOUS
 62
     7
 10
86.3059391304851
 20
50.6577193841342
 30
0.0
 40
0.174999997019768
 50
179.999999948034
 51
269.999999948034
  0
ARC
  5
   3B0
  8
0
  6
CONTINUOUS
 62
     7
 10
87.4434364408255
 20
51.7952187806372
 30
0.0
 40
0.349999994039536
 50
179.999999948034
 51
269.999999948034
  0
ARC
  5
   3B1
  8
0
  6
CONTINUOUS
 62
     7
 10
87.4434364408255
 20
93.6202182352547
 30
0.0
 40
0.349999994039536
 50
89.9999999480344
 51
179.999999948034
  0
ARC
  5
   3B2
  8
0
  6
CONTINUOUS
 62
     7
 10
122.093433180452
 20
93.6202182352547
 30
0.0
 40
0.349999994039536
 50
359.999999948034
 51
449.999999948034
  0
LINE
  5
   3B3
  8
0
  6
CONTINUOUS
 62
     7
 10
122.270603177434
 20
51.2680487896149
 30
0.0
 11
87.2662664438427
 21
51.2680487896149
 31
0.0
  0
LINE
  5
   3B4
  8
0
  6
CONTINUOUS
 62
     7
 10
86.9162664498032
 20
51.6180487836544
 30
0.0
 11
86.9162664498032
 21
93.7973882322375
 31
0.0
  0
LINE
  5
   3B5
  8
0
  6
CONTINUOUS
 62
     7
 10
122.620603171474
 20
51.6180487836544
 30
0.0
 11
122.620603171474
 21
93.7973882322375
 31
0.0
  0
LINE
  5
   3B6
  8
0
  6
CONTINUOUS
 62
     7
 10
122.270603177434
 20
94.147388226277
 30
0.0
 11
87.2662664438427
 21
94.147388226277
 31
0.0
  0
ARC
  5
   3B7
  8
0
  6
CONTINUOUS
 62
     7
 10
122.270603177434
 20
93.7973882322375
 30
0.0
 40
0.349999994039536
 50
359.999999948034
 51
449.999999948034
  0
ARC
  5
   3B8
  8
0
  6
CONTINUOUS
 62
     7
 10
122.270603177434
 20
51.6180487836544
 30
0.0
 40
0.349999994039536
 50
269.999999948034
 51
359.999999948034
  0
ARC
  5
   3B9
  8
0
  6
CONTINUOUS
 62
     7
 10
87.2662664438427
 20
51.6180487836544
 30
0.0
 40
0.349999994039536
 50
179.999999948034
 51
269.999999948034
  0
ARC
  5
   3BA
  8
0
  6
CONTINUOUS
 62
     7
 10
87.2662664438427
 20
93.7973882322375
 30
0.0
 40
0.349999994039536
 50
89.9999999480344
 51
179.999999948034
  0
LINE
  5
   3BB
  8
0
  6
CONTINUOUS
 62
     7
 10
122.093433180452
 20
53.0286316546846
 30
0.0
 11
122.093433180452
 21
85.820662332897
 31
0.0
  0
LINE
  5
   3BC
  8
0
  6
DASHDOT
 62
     7
 10
130.843438794927
 20
52.4077194176969
 30
0.0
 11
123.10152757265
 21
52.4077194176969
 31
0.0
  0
LINE
  5
   3BD
  8
0
  6
CONTINUOUS
 62
     7
 10
132.663433267474
 20
60.9827668562527
 30
0.0
 11
132.663433267474
 21
61.6827668443318
 31
0.0
  0
LINE
  5
   3BE
  8
0
  6
CONTINUOUS
 62
     7
 10
132.943427655101
 20
61.6827668443318
 30
0.0
 11
132.663433267474
 21
61.6827668443318
 31
0.0
  0
LINE
  5
   3BF
  8
0
  6
CONTINUOUS
 62
     7
 10
132.943427655101
 20
60.9827668562527
 30
0.0
 11
132.663433267474
 21
60.9827668562527
 31
0.0
  0
LINE
  5
   3C0
  8
0
  6
CONTINUOUS
 62
     7
 10
131.82342874229
 20
57.8327662423249
 30
0.0
 11
131.82342874229
 21
58.532766230404
 31
0.0
  0
LINE
  5
   3C1
  8
0
  6
CONTINUOUS
 62
     7
 10
131.82342874229
 20
57.8327662423249
 30
0.0
 11
131.543429014087
 21
57.8327662423249
 31
0.0
  0
LINE
  5
   3C2
  8
0
  6
CONTINUOUS
 62
     7
 10
131.82342874229
 20
58.532766230404
 30
0.0
 11
131.543429014087
 21
58.532766230404
 31
0.0
  0
ARC
  5
   3C3
  8
0
  6
CONTINUOUS
 62
     7
 10
122.268433177471
 20
51.6202187836174
 30
0.0
 40
0.174999997019768
 50
269.999999948034
 51
359.999999948034
  0
LINE
  5
   3C4
  8
0
  6
CONTINUOUS
 62
     1
 10
147.030945886716
 20
107.970226001739
 30
0.0
 11
136.968440937996
 21
107.970226001739
 31
0.0
  0
LINE
  5
   3C5
  8
0
  6
CONTINUOUS
 62
     1
 10
147.118445885226
 20
46.3702270507812
 30
0.0
 11
136.968440937996
 21
46.3702270507812
 31
0.0
  0
LINE
  5
   3C6
  8
0
  6
CONTINUOUS
 62
     1
 10
73.7059471354331
 20
54.5077215716243
 30
0.0
 11
73.7059471354331
 21
90.907720951736
 31
0.0
  0
LINE
  5
   3C7
  8
0
  6
CONTINUOUS
 62
     1
 10
147.030945886716
 20
54.5077215716243
 30
0.0
 11
147.030945886716
 21
90.907720951736
 31
0.0
  0
LINE
  5
   3C8
  8
0
  6
CONTINUOUS
 62
     1
 10
146.855945889696
 20
54.3327215746045
 30
0.0
 11
136.968440937996
 21
54.3327215746045
 31
0.0
  0
LINE
  5
   3C9
  8
0
  6
CONTINUOUS
 62
     1
 10
146.855945889696
 20
91.0827209487558
 30
0.0
 11
136.968440937996
 21
91.0827209487558
 31
0.0
  0
LINE
  5
   3CA
  8
0
  6
CONTINUOUS
 62
     1
 10
147.118445885226
 20
46.7202270239591
 30
0.0
 11
136.968440937996
 21
46.7202270239591
 31
0.0
  0
LINE
  5
   3CB
  8
0
  6
CONTINUOUS
 62
     1
 10
145.560941639289
 20
91.0827209487558
 30
0.0
 11
145.560941639289
 21
107.970226001739
 31
0.0
  0
LINE
  5
   3CC
  8
0
  6
CONTINUOUS
 62
     1
 10
146.365942693695
 20
91.0827209487558
 30
0.0
 11
146.365942693695
 21
107.970226001739
 31
0.0
  0
LINE
  5
   3CD
  8
0
  6
CONTINUOUS
 62
     1
 10
140.52094386135
 20
91.0827209487558
 30
0.0
 11
140.52094386135
 21
107.970226001739
 31
0.0
  0
LINE
  5
   3CE
  8
0
  6
CONTINUOUS
 62
     1
 10
141.780940635547
 20
91.0827209487558
 30
0.0
 11
141.780940635547
 21
107.970226001739
 31
0.0
  0
LINE
  5
   3CF
  8
0
  6
CONTINUOUS
 62
     1
 10
143.040942750319
 20
91.0827209487558
 30
0.0
 11
143.040942750319
 21
107.970226001739
 31
0.0
  0
LINE
  5
   3D0
  8
0
  6
CONTINUOUS
 62
     1
 10
144.300944865092
 20
91.0827209487558
 30
0.0
 11
144.300944865092
 21
107.970226001739
 31
0.0
  0
LINE
  5
   3D1
  8
0
  6
CONTINUOUS
 62
     1
 10
138.000944972381
 20
91.0827209487558
 30
0.0
 11
138.000944972381
 21
107.970226001739
 31
0.0
  0
LINE
  5
   3D2
  8
0
  6
CONTINUOUS
 62
     1
 10
139.260941746577
 20
91.0827209487558
 30
0.0
 11
139.260941746577
 21
107.970226001739
 31
0.0
  0
LINE
  5
   3D3
  8
0
  6
CONTINUOUS
 62
     1
 10
141.780940635547
 20
54.3327215746045
 30
0.0
 11
141.780940635547
 21
91.0827209487558
 31
0.0
  0
LINE
  5
   3D4
  8
0
  6
CONTINUOUS
 62
     1
 10
144.300944865092
 20
54.3327215746045
 30
0.0
 11
144.300944865092
 21
91.0827209487558
 31
0.0
  0
LINE
  5
   3D5
  8
0
  6
CONTINUOUS
 62
     1
 10
143.040942750319
 20
54.3327215746045
 30
0.0
 11
143.040942750319
 21
91.0827209487558
 31
0.0
  0
LINE
  5
   3D6
  8
0
  6
CONTINUOUS
 62
     1
 10
139.260941746577
 20
54.3327215746045
 30
0.0
 11
139.260941746577
 21
91.0827209487558
 31
0.0
  0
LINE
  5
   3D7
  8
0
  6
CONTINUOUS
 62
     1
 10
138.000944972381
 20
54.3327215746045
 30
0.0
 11
138.000944972381
 21
91.0827209487558
 31
0.0
  0
LINE
  5
   3D8
  8
0
  6
CONTINUOUS
 62
     1
 10
145.560941639289
 20
54.3327215746045
 30
0.0
 11
145.560941639289
 21
91.0827209487558
 31
0.0
  0
LINE
  5
   3D9
  8
0
  6
CONTINUOUS
 62
     1
 10
146.365942693695
 20
54.3327215746045
 30
0.0
 11
146.365942693695
 21
91.0827209487558
 31
0.0
  0
LINE
  5
   3DA
  8
0
  6
CONTINUOUS
 62
     1
 10
145.560941639289
 20
46.7202270239591
 30
0.0
 11
145.560941639289
 21
54.3327215537429
 31
0.0
  0
LINE
  5
   3DB
  8
0
  6
CONTINUOUS
 62
     1
 10
146.365942693695
 20
46.7202270239591
 30
0.0
 11
146.365942693695
 21
54.3327215537429
 31
0.0
  0
LINE
  5
   3DC
  8
0
  6
CONTINUOUS
 62
     1
 10
140.52094386135
 20
46.7202270239591
 30
0.0
 11
140.52094386135
 21
91.0827209487558
 31
0.0
  0
LINE
  5
   3DD
  8
0
  6
CONTINUOUS
 62
     1
 10
141.780940635547
 20
46.7202270239591
 30
0.0
 11
141.780940635547
 21
54.3327215537429
 31
0.0
  0
LINE
  5
   3DE
  8
0
  6
CONTINUOUS
 62
     1
 10
143.040942750319
 20
46.7202270239591
 30
0.0
 11
143.040942750319
 21
54.3327215537429
 31
0.0
  0
LINE
  5
   3DF
  8
0
  6
CONTINUOUS
 62
     1
 10
144.300944865092
 20
46.7202270239591
 30
0.0
 11
144.300944865092
 21
54.3327215537429
 31
0.0
  0
LINE
  5
   3E0
  8
0
  6
CONTINUOUS
 62
     1
 10
138.000944972381
 20
46.7202270239591
 30
0.0
 11
138.000944972381
 21
54.3327215537429
 31
0.0
  0
LINE
  5
   3E1
  8
0
  6
CONTINUOUS
 62
     1
 10
139.260941746577
 20
46.7202270239591
 30
0.0
 11
139.260941746577
 21
54.3327215537429
 31
0.0
  0
LINE
  5
   3E2
  8
0
  6
CONTINUOUS
 62
     1
 10
75.1759470436419
 20
91.0827209487558
 30
0.0
 11
75.1759470436419
 21
107.970226001739
 31
0.0
  0
LINE
  5
   3E3
  8
0
  6
CONTINUOUS
 62
     1
 10
80.2159438202228
 20
91.0827209487558
 30
0.0
 11
80.2159438202228
 21
107.970226001739
 31
0.0
  0
LINE
  5
   3E4
  8
0
  6
CONTINUOUS
 62
     1
 10
78.9559470460261
 20
91.0827209487558
 30
0.0
 11
78.9559470460261
 21
107.970226001739
 31
0.0
  0
LINE
  5
   3E5
  8
0
  6
CONTINUOUS
 62
     1
 10
77.6959469339694
 20
91.0827209487558
 30
0.0
 11
77.6959469339694
 21
107.970226001739
 31
0.0
  0
LINE
  5
   3E6
  8
0
  6
CONTINUOUS
 62
     1
 10
76.4359468219127
 20
91.0827209487558
 30
0.0
 11
76.4359468219127
 21
107.970226001739
 31
0.0
  0
LINE
  5
   3E7
  8
0
  6
CONTINUOUS
 62
     1
 10
82.7359427091922
 20
91.0827209487558
 30
0.0
 11
82.7359427091922
 21
107.970226001739
 31
0.0
  0
LINE
  5
   3E8
  8
0
  6
CONTINUOUS
 62
     1
 10
81.4759459349956
 20
91.0827209487558
 30
0.0
 11
81.4759459349956
 21
107.970226001739
 31
0.0
  0
LINE
  5
   3E9
  8
0
  6
CONTINUOUS
 62
     1
 10
78.9559467122401
 20
54.3327215746045
 30
0.0
 11
78.9559467122401
 21
91.0827209487558
 31
0.0
  0
LINE
  5
   3EA
  8
0
  6
CONTINUOUS
 62
     1
 10
80.2159438202228
 20
54.3327215746045
 30
0.0
 11
80.2159438202228
 21
91.0827209487558
 31
0.0
  0
LINE
  5
   3EB
  8
0
  6
CONTINUOUS
 62
     1
 10
76.4359468219127
 20
54.3327215746045
 30
0.0
 11
76.4359468219127
 21
91.0827209487558
 31
0.0
  0
LINE
  5
   3EC
  8
0
  6
CONTINUOUS
 62
     1
 10
77.6959469339694
 20
54.3327215746045
 30
0.0
 11
77.6959469339694
 21
91.0827209487558
 31
0.0
  0
LINE
  5
   3ED
  8
0
  6
CONTINUOUS
 62
     1
 10
81.4759459349956
 20
54.3327215746045
 30
0.0
 11
81.4759459349956
 21
91.0827209487558
 31
0.0
  0
LINE
  5
   3EE
  8
0
  6
CONTINUOUS
 62
     1
 10
82.7359427091922
 20
54.3327215746045
 30
0.0
 11
82.7359427091922
 21
91.0827209487558
 31
0.0
  0
LINE
  5
   3EF
  8
0
  6
CONTINUOUS
 62
     1
 10
75.1759470436419
 20
54.3327215746045
 30
0.0
 11
75.1759470436419
 21
91.0827209487558
 31
0.0
  0
LINE
  5
   3F0
  8
0
  6
CONTINUOUS
 62
     1
 10
75.1759470436419
 20
46.7202270239591
 30
0.0
 11
75.1759470436419
 21
54.3327215537429
 31
0.0
  0
LINE
  5
   3F1
  8
0
  6
CONTINUOUS
 62
     1
 10
80.2159438202228
 20
46.7202270239591
 30
0.0
 11
80.2159438202228
 21
54.3327215537429
 31
0.0
  0
LINE
  5
   3F2
  8
0
  6
CONTINUOUS
 62
     1
 10
78.9559470460261
 20
46.7202270239591
 30
0.0
 11
78.9559470460261
 21
54.3327215537429
 31
0.0
  0
LINE
  5
   3F3
  8
0
  6
CONTINUOUS
 62
     1
 10
77.6959469339694
 20
46.7202270239591
 30
0.0
 11
77.6959469339694
 21
54.3327215537429
 31
0.0
  0
LINE
  5
   3F4
  8
0
  6
CONTINUOUS
 62
     1
 10
76.4359468219127
 20
46.7202270239591
 30
0.0
 11
76.4359468219127
 21
54.3327215537429
 31
0.0
  0
LINE
  5
   3F5
  8
0
  6
CONTINUOUS
 62
     1
 10
82.7359427091922
 20
46.7202270239591
 30
0.0
 11
82.7359427091922
 21
54.3327215537429
 31
0.0
  0
LINE
  5
   3F6
  8
0
  6
CONTINUOUS
 62
     1
 10
81.4759459349956
 20
46.7202270239591
 30
0.0
 11
81.4759459349956
 21
54.3327215537429
 31
0.0
  0
ARC
  5
   3F7
  8
0
  6
CONTINUOUS
 62
     1
 10
73.8809471324528
 20
90.907720951736
 30
0.0
 40
0.174999997019768
 50
89.9999999480344
 51
179.999999948034
  0
ARC
  5
   3F8
  8
0
  6
CONTINUOUS
 62
     1
 10
146.855945889696
 20
90.907720951736
 30
0.0
 40
0.174999997019768
 50
359.999999948034
 51
449.999999948034
  0
ARC
  5
   3F9
  8
0
  6
CONTINUOUS
 62
     1
 10
146.855945889696
 20
54.5077215716243
 30
0.0
 40
0.174999997019768
 50
269.999999948034
 51
359.999999948034
  0
ARC
  5
   3FA
  8
0
  6
CONTINUOUS
 62
     1
 10
73.8809471324528
 20
54.5077215716243
 30
0.0
 40
0.174999997019768
 50
179.999999948034
 51
269.999999948034
  0
LINE
  5
   3FB
  8
0
  6
CONTINUOUS
 62
     1
 10
74.4934287223996
 20
23.7252271693967
 30
0.0
 11
73.7059471354331
 21
23.7252271693967
 31
0.0
  0
LINE
  5
   3FC
  8
0
  6
CONTINUOUS
 62
     3
 10
74.4934287223996
 20
23.2702271103881
 30
0.0
 11
74.4934287223996
 21
23.7252271693967
 31
0.0
  0
LINE
  5
   3FD
  8
0
  6
CONTINUOUS
 62
     3
 10
97.3309229929032
 20
22.7452274531163
 30
0.0
 11
75.0184287134589
 21
22.7452274531163
 31
0.0
  0
LINE
  5
   3FE
  8
0
  6
CONTINUOUS
 62
     3
 10
121.830927916247
 20
22.7452274531155
 30
0.0
 11
98.9059283066572
 21
22.7452274531155
 31
0.0
  0
LINE
  5
   3FF
  8
0
  6
CONTINUOUS
 62
     3
 10
145.718422168869
 20
22.7452274530959
 30
0.0
 11
123.405927889425
 21
22.7452274530959
 31
0.0
  0
LINE
  5
   400
  8
0
  6
CONTINUOUS
 62
     3
 10
146.243422159928
 20
23.2702274441741
 30
0.0
 11
146.243422159928
 21
23.7252271693967
 31
0.0
  0
LINE
  5
   401
  8
0
  6
CONTINUOUS
 62
     1
 10
147.030945886716
 20
23.7252271693967
 30
0.0
 11
146.243422159928
 21
23.7252271693967
 31
0.0
  0
LINE
  5
   402
  8
0
  6
CONTINUOUS
 62
     1
 10
146.243416819333
 20
23.7252269678312
 30
0.0
 11
146.243416819333
 21
31.3202273070849
 31
0.0
  0
LINE
  5
   403
  8
0
  6
CONTINUOUS
 62
     1
 10
74.4934287223996
 20
23.7252271693967
 30
0.0
 11
74.4934287223996
 21
31.3202273070849
 31
0.0
  0
LINE
  5
   404
  8
0
  6
CONTINUOUS
 62
     1
 10
138.893425269911
 20
29.5702217950243
 30
0.0
 11
136.975699168131
 21
29.5702271355987
 31
0.0
  0
LINE
  5
   405
  8
0
  6
CONTINUOUS
 62
     1
 10
132.761146169828
 20
29.570217510181
 30
0.0
 11
130.843420067155
 21
29.5702228507554
 31
0.0
  0
LINE
  5
   406
  8
0
  6
CONTINUOUS
 62
     1
 10
132.761148524784
 20
25.3702274084114
 30
0.0
 11
130.843422422189
 21
25.3702274084114
 31
0.0
  0
LINE
  5
   407
  8
0
  6
CONTINUOUS
 62
     1
 10
138.893422285098
 20
25.3702274084114
 30
0.0
 11
136.975701523079
 21
25.3702274084114
 31
0.0
  0
LINE
  5
   408
  8
0
  6
CONTINUOUS
 62
     1
 10
89.8934261064726
 20
29.5702193975621
 30
0.0
 11
87.9757000037992
 21
29.5702247381365
 31
0.0
  0
LINE
  5
   409
  8
0
  6
CONTINUOUS
 62
     1
 10
83.761147004611
 20
29.5702204532949
 30
0.0
 11
81.8434209019376
 21
29.5702257938692
 31
0.0
  0
LINE
  5
   40A
  8
0
  6
CONTINUOUS
 62
     1
 10
83.761149359249
 20
25.3702274084114
 30
0.0
 11
81.8434232566538
 21
25.3702274084114
 31
0.0
  0
LINE
  5
   40B
  8
0
  6
CONTINUOUS
 62
     1
 10
89.8934231195631
 20
25.3702274084114
 30
0.0
 11
87.9757023575439
 21
25.3702274084114
 31
0.0
  0
LINE
  5
   40C
  8
0
  6
CONTINUOUS
 62
     1
 10
114.393425688192
 20
29.5702205962932
 30
0.0
 11
112.475699585519
 21
29.5702259368676
 31
0.0
  0
LINE
  5
   40D
  8
0
  6
CONTINUOUS
 62
     1
 10
108.261146587223
 20
29.570221652026
 30
0.0
 11
106.34342048455
 21
29.5702269926003
 31
0.0
  0
LINE
  5
   40E
  8
0
  6
CONTINUOUS
 62
     1
 10
108.261148942016
 20
25.3702274084114
 30
0.0
 11
106.343422839421
 21
25.3702274084114
 31
0.0
  0
LINE
  5
   40F
  8
0
  6
CONTINUOUS
 62
     1
 10
114.393422702331
 20
25.3702274084114
 30
0.0
 11
112.475701940311
 21
25.3702274084114
 31
0.0
  0
LINE
  5
   410
  8
0
  6
CONTINUOUS
 62
     3
 10
123.843427881974
 20
23.6202274382137
 30
0.0
 11
123.843427881974
 21
25.1952274113916
 31
0.0
  0
LINE
  5
   411
  8
0
  6
CONTINUOUS
 62
     3
 10
123.843427881974
 20
23.6202274382137
 30
0.0
 11
123.405927889425
 21
23.6202274382137
 31
0.0
  0
LINE
  5
   412
  8
0
  6
CONTINUOUS
 62
     3
 10
123.405927889425
 20
22.745227453109
 30
0.0
 11
123.405927889425
 21
23.6202274382078
 31
0.0
  0
LINE
  5
   413
  8
0
  6
CONTINUOUS
 62
     3
 10
121.830927916247
 20
22.7452274531155
 30
0.0
 11
121.830927916247
 21
23.6202274382143
 31
0.0
  0
LINE
  5
   414
  8
0
  6
CONTINUOUS
 62
     3
 10
121.830927916247
 20
23.6202274382137
 30
0.0
 11
121.393427923697
 21
23.6202274382137
 31
0.0
  0
LINE
  5
   415
  8
0
  6
CONTINUOUS
 62
     3
 10
121.393427923697
 20
23.6202274382137
 30
0.0
 11
121.393427923697
 21
25.1952274113916
 31
0.0
  0
LINE
  5
   416
  8
0
  6
CONTINUOUS
 62
     3
 10
123.843427881974
 20
25.1952274113916
 30
0.0
 11
121.393427923697
 21
25.1952274113916
 31
0.0
  0
LINE
  5
   417
  8
0
  6
CONTINUOUS
 62
     3
 10
96.8934230003538
 20
23.6202274382137
 30
0.0
 11
96.8934230003538
 21
25.1952274113916
 31
0.0
  0
LINE
  5
   418
  8
0
  6
CONTINUOUS
 62
     3
 10
97.3309229929032
 20
23.6202274382137
 30
0.0
 11
96.8934230003538
 21
23.6202274382137
 31
0.0
  0
LINE
  5
   419
  8
0
  6
CONTINUOUS
 62
     3
 10
97.3309229929032
 20
22.745227453109
 30
0.0
 11
97.3309229929032
 21
23.6202274382078
 31
0.0
  0
LINE
  5
   41A
  8
0
  6
CONTINUOUS
 62
     3
 10
98.9059229660811
 20
22.7452274531155
 30
0.0
 11
98.9059229660811
 21
23.6202274382143
 31
0.0
  0
LINE
  5
   41B
  8
0
  6
CONTINUOUS
 62
     3
 10
99.3434229586305
 20
23.6202274382137
 30
0.0
 11
98.9059229660811
 21
23.6202274382137
 31
0.0
  0
LINE
  5
   41C
  8
0
  6
CONTINUOUS
 62
     3
 10
99.3434229586305
 20
23.6202274382137
 30
0.0
 11
99.3434229586305
 21
25.1952274113916
 31
0.0
  0
LINE
  5
   41D
  8
0
  6
CONTINUOUS
 62
     3
 10
99.3434229586305
 20
25.1952274113916
 30
0.0
 11
96.8934230003538
 21
25.1952274113916
 31
0.0
  0
ARC
  5
   41E
  8
0
  6
CONTINUOUS
 62
     3
 10
75.0184269979131
 20
23.2702264846179
 30
0.0
 40
0.524998573004765
 50
179.999941123702
 51
270.000103159103
  0
CIRCLE
  5
   41F
  8
0
  6
CONTINUOUS
 62
     1
 10
75.8934279234239
 20
24.1452269303336
 30
0.0
 40
0.49000039187499
  0
ARC
  5
   420
  8
0
  6
CONTINUOUS
 62
     1
 10
81.8434170720716
 20
27.4702227197307
 30
0.0
 40
2.09999798521424
 50
90.0001399327154
 51
270.000100332566
  0
ARC
  5
   421
  8
0
  6
CONTINUOUS
 62
     1
 10
85.8684196740122
 20
27.4702594831751
 30
0.0
 40
2.97503256700413
 50
404.899302393594
 51
495.100813987516
  0
ARC
  5
   422
  8
0
  6
CONTINUOUS
 62
     1
 10
89.8934245770836
 20
27.4702248526267
 30
0.0
 40
2.09999509708851
 50
269.999747131106
 51
450.000048027357
  0
CIRCLE
  5
   423
  8
0
  6
CONTINUOUS
 62
     1
 10
98.1184275493167
 20
28.1702399089068
 30
0.0
 40
1.83749026298616
  0
CIRCLE
  5
   424
  8
0
  6
CONTINUOUS
 62
     1
 10
98.118417893811
 20
28.1702165394522
 30
0.0
 40
0.962507390421093
  0
ARC
  5
   425
  8
0
  6
CONTINUOUS
 62
     1
 10
106.343392794457
 20
27.4702066226879
 30
0.0
 40
2.09996804617799
 50
449.999680793011
 51
630.000858183329
  0
ARC
  5
   426
  8
0
  6
CONTINUOUS
 62
     1
 10
110.368438720703
 20
27.4702324755757
 30
0.0
 40
2.97499672471136
 50
404.900757179708
 51
495.099359217673
  0
ARC
  5
   427
  8
0
  6
CONTINUOUS
 62
     1
 10
114.393423412787
 20
27.4702253323861
 30
0.0
 40
2.09999630096849
 50
269.999783457987
 51
450.000092622467
  0
CIRCLE
  5
   428
  8
0
  6
CONTINUOUS
 62
     1
 10
122.618462264883
 20
28.170176199558
 30
0.0
 40
1.83755586507084
  0
CIRCLE
  5
   429
  8
0
  6
CONTINUOUS
 62
     1
 10
122.618407700975
 20
28.1702464166554
 30
0.0
 40
0.962478285897051
  0
ARC
  5
   42A
  8
0
  6
CONTINUOUS
 62
     1
 10
130.84340946461
 20
27.4702263653091
 30
0.0
 40
2.09999328114419
 50
90.0003609959681
 51
270.000490903722
  0
ARC
  5
   42B
  8
0
  6
CONTINUOUS
 62
     1
 10
138.893373216065
 20
27.4702339997734
 30
0.0
 40
2.10004126020305
 50
270.001034630644
 51
449.998799421533
  0
ARC
  5
   42C
  8
0
  6
CONTINUOUS
 62
     1
 10
134.868395381187
 20
27.4702106268705
 30
0.0
 40
2.97500388320602
 50
404.901246442185
 51
495.09901516511
  0
CIRCLE
  5
   42D
  8
0
  6
CONTINUOUS
 62
     1
 10
144.843422002451
 20
24.1452248011596
 30
0.0
 40
0.489998730940279
  0
ARC
  5
   42E
  8
0
  6
CONTINUOUS
 62
     1
 10
134.868395381187
 20
27.4702106268705
 30
0.0
 40
2.97500388320602
 50
224.900341297451
 51
315.099658598617
  0
ARC
  5
   42F
  8
0
  6
CONTINUOUS
 62
     1
 10
110.368438720703
 20
27.4702324755757
 30
0.0
 40
2.97499672471136
 50
224.901072739214
 51
315.098927156855
  0
ARC
  5
   430
  8
0
  6
CONTINUOUS
 62
     1
 10
85.8684196740122
 20
27.4702594831751
 30
0.0
 40
2.97503256700413
 50
224.901119153159
 51
315.09888074291
  0
LINE
  5
   431
  8
0
  6
DASHDOT
 62
     2
 10
89.8934522231349
 20
27.4702594831751
 30
0.0
 11
81.8433871248895
 21
27.4702594831751
 31
0.0
  0
LINE
  5
   432
  8
0
  6
DASHDOT
 62
     2
 10
89.8934245770836
 20
24.3202297734196
 30
0.0
 11
89.8934245770836
 21
30.6202199318339
 31
0.0
  0
LINE
  5
   433
  8
0
  6
DASHDOT
 62
     2
 10
93.0434196562908
 20
27.4702248526267
 30
0.0
 11
86.7434294978765
 21
27.4702248526267
 31
0.0
  0
LINE
  5
   434
  8
0
  6
DASHDOT
 62
     2
 10
81.8434170720716
 20
24.3202247523979
 30
0.0
 11
81.8434170720716
 21
30.6202206870636
 31
0.0
  0
LINE
  5
   435
  8
0
  6
DASHDOT
 62
     2
 10
84.9934150394044
 20
27.4702227197307
 30
0.0
 11
78.6934191047387
 21
27.4702227197307
 31
0.0
  0
LINE
  5
   436
  8
0
  6
DASHDOT
 62
     2
 10
106.343392794457
 20
24.3202385943913
 30
0.0
 11
106.343392794457
 21
30.6201746509845
 31
0.0
  0
LINE
  5
   437
  8
0
  6
DASHDOT
 62
     2
 10
109.493360822753
 20
27.4702066226879
 30
0.0
 11
103.19342476616
 21
27.4702066226879
 31
0.0
  0
LINE
  5
   438
  8
0
  6
DASHDOT
 62
     2
 10
110.368438720703
 20
21.0959504827841
 30
0.0
 11
110.368438720703
 21
48.0519898883855
 31
0.0
  0
LINE
  5
   439
  8
0
  6
DASHDOT
 62
     2
 10
114.393435427533
 20
27.4702324755757
 30
0.0
 11
106.343442013873
 21
27.4702324755757
 31
0.0
  0
LINE
  5
   43A
  8
0
  6
DASHDOT
 62
     2
 10
114.393423412787
 20
24.320229049299
 30
0.0
 11
114.393423412787
 21
30.6202216154732
 31
0.0
  0
LINE
  5
   43B
  8
0
  6
DASHDOT
 62
     2
 10
117.543419695875
 20
27.4702253323861
 30
0.0
 11
111.2434271297
 21
27.4702253323861
 31
0.0
  0
LINE
  5
   43C
  8
0
  6
DASHDOT
 62
     2
 10
122.618462264883
 20
25.2826203523686
 30
0.0
 11
122.618462264883
 21
31.0577320467475
 31
0.0
  0
LINE
  5
   43D
  8
0
  6
DASHDOT
 62
     2
 10
130.84340946461
 20
24.3202331020463
 30
0.0
 11
130.84340946461
 21
30.6202196285719
 31
0.0
  0
LINE
  5
   43E
  8
0
  6
DASHDOT
 62
     2
 10
133.993402727873
 20
27.4702263653091
 30
0.0
 11
127.693416201348
 21
27.4702263653091
 31
0.0
  0
LINE
  5
   43F
  8
0
  6
DASHDOT
 62
     2
 10
134.868395381187
 20
21.182533050468
 30
0.0
 11
134.868395381187
 21
31.3978068544282
 31
0.0
  0
LINE
  5
   440
  8
0
  6
DASHDOT
 62
     2
 10
138.893399246512
 20
27.4702106268705
 30
0.0
 11
130.843391515862
 21
27.4702106268705
 31
0.0
  0
LINE
  5
   441
  8
0
  6
DASHDOT
 62
     2
 10
138.893373216065
 20
24.3201927574517
 30
0.0
 11
138.893373216065
 21
30.6202752420951
 31
0.0
  0
LINE
  5
   442
  8
0
  6
DASHDOT
 62
     2
 10
142.043414458387
 20
27.4702339997734
 30
0.0
 11
135.743331973744
 21
27.4702339997734
 31
0.0
  0
LINE
  5
   443
  8
0
  6
DASHDOT
 62
     2
 10
144.843422002451
 20
22.6052260881008
 30
0.0
 11
144.843422002451
 21
25.6852235142185
 31
0.0
  0
LINE
  5
   444
  8
0
  6
DASHDOT
 62
     2
 10
75.8934279234239
 20
22.60522655634
 30
0.0
 11
75.8934279234239
 21
25.6852273043272
 31
0.0
  0
LINE
  5
   445
  8
0
  6
DASHDOT
 62
     2
 10
77.4334282974175
 20
24.1452269303336
 30
0.0
 11
74.3534275494303
 21
24.1452269303336
 31
0.0
  0
ARC
  5
   446
  8
0
  6
CONTINUOUS
 62
     3
 10
145.718407238633
 20
23.2702228740474
 30
0.0
 40
0.525005873581529
 50
270.001088208967
 51
360.000070595423
  0
LINE
  5
   447
  8
0
  6
DASHDOT
 62
     2
 10
109.34609059081
 20
28.1702399089068
 30
0.0
 11
102.991018095984
 21
28.1702399089068
 31
0.0
  0
LINE
  5
   448
  8
0
  6
DASHDOT
 62
     2
 10
125.700403025047
 20
28.1702399089068
 30
0.0
 11
111.286683823496
 21
28.1702399089068
 31
0.0
  0
LINE
  5
   449
  8
0
  6
CONTINUOUS
 62
     1
 10
85.8684391379357
 20
32.5452272862195
 30
0.0
 11
85.8684391379357
 21
46.1952270537614
 31
0.0
  0
LINE
  5
   44A
  8
0
  6
CONTINUOUS
 62
     1
 10
134.868438303471
 20
32.5452272862195
 30
0.0
 11
134.868438303471
 21
40.4202159702797
 31
0.0
  0
LINE
  5
   44B
  8
0
  6
CONTINUOUS
 62
     1
 10
83.7684418439865
 20
91.0827209487558
 30
0.0
 11
73.8809471324528
 21
91.0827209487558
 31
0.0
  0
LINE
  5
   44C
  8
0
  6
CONTINUOUS
 62
     1
 10
83.7684418439865
 20
54.3327215746045
 30
0.0
 11
73.8809471324528
 21
54.3327215746045
 31
0.0
  0
LINE
  5
   44D
  8
0
  6
CONTINUOUS
 62
     7
 10
92.6600285962224
 20
81.4518050652399
 30
0.0
 11
92.456392236054
 21
81.4518050652399
 31
0.0
  0
ARC
  5
   44E
  8
0
  6
CONTINUOUS
 62
     7
 10
91.5559377059341
 20
82.2408959608927
 30
0.0
 40
0.661818170547486
 50
359.999999948034
 51
539.999999948034
  0
ARC
  5
   44F
  8
0
  6
CONTINUOUS
 62
     7
 10
91.5559377059341
 20
82.2408959608927
 30
0.0
 40
0.458181810379029
 50
359.999999948034
 51
539.999999948034
  0
ARC
  5
   450
  8
0
  6
CONTINUOUS
 62
     7
 10
91.5559377059341
 20
82.1136232357874
 30
0.0
 40
0.661818170547485
 50
179.999999948034
 51
359.999999948034
  0
ARC
  5
   451
  8
0
  6
CONTINUOUS
 62
     7
 10
91.5559377059341
 20
82.1136232357874
 30
0.0
 40
0.458181810379028
 50
179.999999948034
 51
359.999999948034
  0
LINE
  5
   452
  8
0
  6
CONTINUOUS
 62
     7
 10
92.0141195163131
 20
82.1136232357873
 30
0.0
 11
92.0141195163131
 21
82.2408959608926
 31
0.0
  0
LINE
  5
   453
  8
0
  6
CONTINUOUS
 62
     7
 10
92.2177558764816
 20
82.1136232357873
 30
0.0
 11
92.2177558764816
 21
82.2408959608926
 31
0.0
  0
LINE
  5
   454
  8
0
  6
CONTINUOUS
 62
     7
 10
91.097755895555
 20
82.1136232357873
 30
0.0
 11
91.097755895555
 21
82.2408959608926
 31
0.0
  0
LINE
  5
   455
  8
0
  6
CONTINUOUS
 62
     7
 10
90.8941195353866
 20
82.1136232357873
 30
0.0
 11
90.8941195353866
 21
82.2408959608926
 31
0.0
  0
LINE
  5
   456
  8
0
  6
CONTINUOUS
 62
     7
 10
92.456392236054
 20
81.4518050652399
 30
0.0
 11
92.456392236054
 21
82.9027141314401
 31
0.0
  0
LINE
  5
   457
  8
0
  6
CONTINUOUS
 62
     7
 10
92.6600285962224
 20
81.4518050652399
 30
0.0
 11
92.6600285962224
 21
82.3427141409769
 31
0.0
  0
LINE
  5
   458
  8
0
  6
CONTINUOUS
 62
     7
 10
93.372755856812
 20
81.4518050652399
 30
0.0
 11
93.372755856812
 21
82.3427141409769
 31
0.0
  0
LINE
  5
   459
  8
0
  6
CONTINUOUS
 62
     7
 10
93.5763922169805
 20
81.4518050652399
 30
0.0
 11
93.5763922169805
 21
82.393623231019
 31
0.0
  0
LINE
  5
   45A
  8
0
  6
CONTINUOUS
 62
     7
 10
92.6600285962224
 20
82.9027141314402
 30
0.0
 11
92.456392236054
 21
82.9027141314402
 31
0.0
  0
ARC
  5
   45B
  8
0
  6
CONTINUOUS
 62
     7
 10
93.0163922265172
 20
82.3427141409769
 30
0.0
 40
0.356363630294799
 50
359.999999948034
 51
539.999999948034
  0
LINE
  5
   45C
  8
0
  6
CONTINUOUS
 62
     7
 10
92.6600285962224
 20
82.6990777712717
 30
0.0
 11
92.6600285962224
 21
82.9027141314401
 31
0.0
  0
ARC
  5
   45D
  8
0
  6
CONTINUOUS
 62
     7
 10
93.0673013165593
 20
82.393623231019
 30
0.0
 40
0.509090900421142
 50
359.999999948034
 51
503.13010230219
  0
LINE
  5
   45E
  8
0
  6
CONTINUOUS
 62
     7
 10
93.5763922169805
 20
81.4518050652399
 30
0.0
 11
93.372755856812
 21
81.4518050652399
 31
0.0
  0
LINE
  5
   45F
  8
0
  6
CONTINUOUS
 62
     7
 10
93.0036649540067
 20
59.7668568046329
 30
0.0
 11
92.8891195014119
 21
59.7668568046329
 31
0.0
  0
LINE
  5
   460
  8
0
  6
CONTINUOUS
 62
     7
 10
92.7618467763067
 20
57.8068568380115
 30
0.0
 11
92.5582104161382
 21
57.8068568380115
 31
0.0
  0
LINE
  5
   461
  8
0
  6
CONTINUOUS
 62
     7
 10
90.8941195353866
 20
58.468675008559
 30
0.0
 11
90.8941195353866
 21
58.5959477336643
 31
0.0
  0
LINE
  5
   462
  8
0
  6
CONTINUOUS
 62
     7
 10
92.2177558764816
 20
58.468675008559
 30
0.0
 11
92.2177558764816
 21
58.5959477336643
 31
0.0
  0
ARC
  5
   463
  8
0
  6
CONTINUOUS
 62
     7
 10
91.5559377059341
 20
58.5959477336643
 30
0.0
 40
0.661818170547486
 50
359.999999948034
 51
539.999999948034
  0
ARC
  5
   464
  8
0
  6
CONTINUOUS
 62
     7
 10
91.5559377059341
 20
58.468675008559
 30
0.0
 40
0.661818170547485
 50
179.999999948034
 51
359.999999948034
  0
ARC
  5
   465
  8
0
  6
CONTINUOUS
 62
     7
 10
91.5559377059341
 20
58.5959477336643
 30
0.0
 40
0.458181810379029
 50
359.999999948034
 51
539.999999948034
  0
ARC
  5
   466
  8
0
  6
CONTINUOUS
 62
     7
 10
91.5559377059341
 20
58.468675008559
 30
0.0
 40
0.458181810379028
 50
179.999999948034
 51
359.999999948034
  0
LINE
  5
   467
  8
0
  6
CONTINUOUS
 62
     7
 10
91.097755895555
 20
58.468675008559
 30
0.0
 11
91.097755895555
 21
58.5959477336643
 31
0.0
  0
LINE
  5
   468
  8
0
  6
CONTINUOUS
 62
     7
 10
92.0141195163131
 20
58.468675008559
 30
0.0
 11
92.0141195163131
 21
58.5959477336643
 31
0.0
  0
LINE
  5
   469
  8
0
  6
CONTINUOUS
 62
     7
 10
92.3163922384381
 20
58.9523113639591
 30
0.0
 11
92.3163922384381
 21
59.1559477241275
 31
0.0
  0
LINE
  5
   46A
  8
0
  6
CONTINUOUS
 62
     7
 10
92.5582104161382
 20
58.9523113639591
 30
0.0
 11
92.3163922384381
 21
58.9523113639591
 31
0.0
  0
LINE
  5
   46B
  8
0
  6
CONTINUOUS
 62
     7
 10
93.0036649540067
 20
58.9523113639591
 30
0.0
 11
93.0036649540067
 21
59.1559477241275
 31
0.0
  0
LINE
  5
   46C
  8
0
  6
CONTINUOUS
 62
     7
 10
92.5582104161382
 20
59.1559477241275
 30
0.0
 11
92.3163922384381
 21
59.1559477241275
 31
0.0
  0
LINE
  5
   46D
  8
0
  6
CONTINUOUS
 62
     7
 10
92.5582104161382
 20
57.8068568380115
 30
0.0
 11
92.5582104161382
 21
58.9523113639591
 31
0.0
  0
LINE
  5
   46E
  8
0
  6
CONTINUOUS
 62
     7
 10
92.7618467763067
 20
57.8068568380115
 30
0.0
 11
92.7618467763067
 21
58.9523113639591
 31
0.0
  0
LINE
  5
   46F
  8
0
  6
CONTINUOUS
 62
     7
 10
93.0036649540067
 20
58.9523113639591
 30
0.0
 11
92.7618467763067
 21
58.9523113639591
 31
0.0
  0
LINE
  5
   470
  8
0
  6
CONTINUOUS
 62
     7
 10
93.0036649540067
 20
59.1559477241275
 30
0.0
 11
92.7618467763067
 21
59.1559477241275
 31
0.0
  0
LINE
  5
   471
  8
0
  6
CONTINUOUS
 62
     7
 10
92.5582104161382
 20
59.1559477241275
 30
0.0
 11
92.5582104161382
 21
59.4359477193592
 31
0.0
  0
LINE
  5
   472
  8
0
  6
CONTINUOUS
 62
     7
 10
92.7618467763067
 20
59.1559477241275
 30
0.0
 11
92.7618467763067
 21
59.4359477193592
 31
0.0
  0
ARC
  5
   473
  8
0
  6
CONTINUOUS
 62
     7
 10
92.8891195014119
 20
59.4359477193592
 30
0.0
 40
0.330909085273743
 50
449.999999948034
 51
539.999999948034
  0
ARC
  5
   474
  8
0
  6
CONTINUOUS
 62
     7
 10
92.8891195014119
 20
59.4359477193592
 30
0.0
 40
0.127272725105286
 50
449.999999948034
 51
539.999999948034
  0
LINE
  5
   475
  8
0
  6
CONTINUOUS
 62
     7
 10
93.0036649540067
 20
59.5632204444644
 30
0.0
 11
93.0036649540067
 21
59.7668568046329
 31
0.0
  0
LINE
  5
   476
  8
0
  6
CONTINUOUS
 62
     7
 10
93.0036649540067
 20
59.5632204444644
 30
0.0
 11
92.8891195014119
 21
59.5632204444644
 31
0.0
  0
LINE
  5
   477
  8
0
  6
CONTINUOUS
 62
     7
 10
93.8532103940845
 20
59.7668568046329
 30
0.0
 11
93.7386649414897
 21
59.7668568046329
 31
0.0
  0
LINE
  5
   478
  8
0
  6
CONTINUOUS
 62
     7
 10
93.6113922163844
 20
57.8068568380115
 30
0.0
 11
93.407755856216
 21
57.8068568380115
 31
0.0
  0
LINE
  5
   479
  8
0
  6
CONTINUOUS
 62
     7
 10
93.1659376785159
 20
58.9523113639591
 30
0.0
 11
93.1659376785159
 21
59.1559477241275
 31
0.0
  0
LINE
  5
   47A
  8
0
  6
CONTINUOUS
 62
     7
 10
93.407755856216
 20
58.9523113639591
 30
0.0
 11
93.1659376785159
 21
58.9523113639591
 31
0.0
  0
LINE
  5
   47B
  8
0
  6
CONTINUOUS
 62
     7
 10
93.8532103940845
 20
58.9523113639591
 30
0.0
 11
93.8532103940845
 21
59.1559477241275
 31
0.0
  0
LINE
  5
   47C
  8
0
  6
CONTINUOUS
 62
     7
 10
93.407755856216
 20
59.1559477241275
 30
0.0
 11
93.1659376785159
 21
59.1559477241275
 31
0.0
  0
LINE
  5
   47D
  8
0
  6
CONTINUOUS
 62
     7
 10
93.407755856216
 20
57.8068568380115
 30
0.0
 11
93.407755856216
 21
58.9523113639591
 31
0.0
  0
LINE
  5
   47E
  8
0
  6
CONTINUOUS
 62
     7
 10
93.6113922163844
 20
57.8068568380115
 30
0.0
 11
93.6113922163844
 21
58.9523113639591
 31
0.0
  0
LINE
  5
   47F
  8
0
  6
CONTINUOUS
 62
     7
 10
93.8532103940845
 20
58.9523113639591
 30
0.0
 11
93.6113922163844
 21
58.9523113639591
 31
0.0
  0
LINE
  5
   480
  8
0
  6
CONTINUOUS
 62
     7
 10
93.8532103940845
 20
59.1559477241275
 30
0.0
 11
93.6113922163844
 21
59.1559477241275
 31
0.0
  0
LINE
  5
   481
  8
0
  6
CONTINUOUS
 62
     7
 10
93.407755856216
 20
59.1559477241275
 30
0.0
 11
93.407755856216
 21
59.4359477193592
 31
0.0
  0
LINE
  5
   482
  8
0
  6
CONTINUOUS
 62
     7
 10
93.6113922163844
 20
59.1559477241275
 30
0.0
 11
93.6113922163844
 21
59.4359477193592
 31
0.0
  0
ARC
  5
   483
  8
0
  6
CONTINUOUS
 62
     7
 10
93.7386649414897
 20
59.4359477193592
 30
0.0
 40
0.330909085273743
 50
449.999999948034
 51
539.999999948034
  0
ARC
  5
   484
  8
0
  6
CONTINUOUS
 62
     7
 10
93.7386649414897
 20
59.4359477193592
 30
0.0
 40
0.127272725105286
 50
449.999999948034
 51
539.999999948034
  0
LINE
  5
   485
  8
0
  6
CONTINUOUS
 62
     7
 10
93.8532103940845
 20
59.5632204444644
 30
0.0
 11
93.8532103940845
 21
59.7668568046329
 31
0.0
  0
LINE
  5
   486
  8
0
  6
CONTINUOUS
 62
     7
 10
93.8532103940845
 20
59.5632204444644
 30
0.0
 11
93.7386649414897
 21
59.5632204444644
 31
0.0
  0
INSERT
  5
   487
  8
255
  6
CONTINUOUS
 62
     7
  2
MOSTRA
 10
110.368446731567
 20
49.2577291712167
 30
0.0
 41
0.349999994039536
 42
0.349999994039536
 50
359.999999792138
 43
0.349999994039536
  0
LINE
  5
   488
  8
0
  6
DASHDOT
 62
     7
 10
85.8684196740122
 20
23.4452269340524
 30
0.0
 11
85.8684196740122
 21
31.4952920322978
 31
0.0
  0
LINE
  5
   489
  8
0
  6
CONTINUOUS
 62
     1
 10
83.7684418439865
 20
46.7202270239591
 30
0.0
 11
73.6184471369232
 21
46.7202270239591
 31
0.0
  0
LINE
  5
   48A
  8
0
  6
CONTINUOUS
 62
     1
 10
83.7684418439865
 20
107.970226001739
 30
0.0
 11
73.7059471354331
 21
107.970226001739
 31
0.0
  0
LINE
  5
   48B
  8
0
  6
CONTINUOUS
 62
     1
 10
89.8936624051561
 20
162.22023575902
 30
0.0
 11
87.9757186411572
 21
162.22023575902
 31
0.0
  0
LINE
  5
   48C
  8
0
  6
CONTINUOUS
 62
     1
 10
89.8936624051561
 20
158.020235830546
 30
0.0
 11
87.9757186411572
 21
158.020235830546
 31
0.0
  0
LINE
  5
   48D
  8
0
  6
CONTINUOUS
 62
     1
 10
83.7611781653432
 20
158.020235680753
 30
0.0
 11
81.8436121502905
 21
158.020242213085
 31
0.0
  0
LINE
  5
   48E
  8
0
  6
CONTINUOUS
 62
     1
 10
81.8436121534376
 20
162.220229376928
 30
0.0
 11
83.7611808554452
 21
162.220235909291
 31
0.0
  0
LINE
  5
   48F
  8
0
  6
CONTINUOUS
 62
     1
 10
108.261160886412
 20
162.22023575902
 30
0.0
 11
106.343572671481
 21
162.22023575902
 31
0.0
  0
LINE
  5
   490
  8
0
  6
CONTINUOUS
 62
     1
 10
108.260785425848
 20
158.020235830546
 30
0.0
 11
106.343572671481
 21
158.020235830546
 31
0.0
  0
LINE
  5
   491
  8
0
  6
CONTINUOUS
 62
     1
 10
112.47571703626
 20
158.020232328386
 30
0.0
 11
114.393486262061
 21
158.020238861432
 31
0.0
  0
LINE
  5
   492
  8
0
  6
CONTINUOUS
 62
     1
 10
114.393486266637
 20
162.220232728893
 30
0.0
 11
112.475717034996
 21
162.220239261939
 31
0.0
  0
LINE
  5
   493
  8
0
  6
CONTINUOUS
 62
     3
 10
146.243416747451
 20
163.795235732198
 30
0.0
 11
146.243416747451
 21
164.495235720277
 31
0.0
  0
LINE
  5
   494
  8
0
  6
CONTINUOUS
 62
     1
 10
132.761153793459
 20
162.22023575902
 30
0.0
 11
130.843356460647
 21
162.22023575902
 31
0.0
  0
LINE
  5
   495
  8
0
  6
CONTINUOUS
 62
     1
 10
132.761153793459
 20
158.020235830546
 30
0.0
 11
130.843356460647
 21
158.020235830546
 31
0.0
  0
LINE
  5
   496
  8
0
  6
CONTINUOUS
 62
     1
 10
136.975699603116
 20
158.020235680754
 30
0.0
 11
138.893484019562
 21
158.02024221383
 31
0.0
  0
LINE
  5
   497
  8
0
  6
CONTINUOUS
 62
     1
 10
138.893500033094
 20
162.22022937644
 30
0.0
 11
136.975696916219
 21
162.22023590958
 31
0.0
  0
LINE
  5
   498
  8
0
  6
DASHDOT
 62
     7
 10
108.8636536752
 20
160.120239268495
 30
0.0
 11
103.823492001548
 21
160.120239268495
 31
0.0
  0
LINE
  5
   499
  8
0
  6
DASHDOT
 62
     7
 10
106.343572671481
 20
157.600158598562
 30
0.0
 11
106.343572671481
 21
162.640319938428
 31
0.0
  0
ARC
  5
   49A
  8
0
  6
CONTINUOUS
 62
     1
 10
106.343572671481
 20
160.120239268495
 30
0.0
 40
2.10006689115832
 50
90.0036557603355
 51
269.996301839899
  0
LINE
  5
   49B
  8
0
  6
DASHDOT
 62
     7
 10
113.938566490896
 20
160.120093993202
 30
0.0
 11
106.798234123724
 21
160.120093993202
 31
0.0
  0
ARC
  5
   49C
  8
0
  6
CONTINUOUS
 62
     1
 10
110.36840030732
 20
160.120093993202
 30
0.0
 40
2.97513848632147
 50
224.89430374687
 51
315.105491686916
  0
LINE
  5
   49D
  8
0
  6
DASHDOT
 62
     7
 10
116.913418807601
 20
160.120293326879
 30
0.0
 11
111.873538747422
 21
160.120293326879
 31
0.0
  0
LINE
  5
   49E
  8
0
  6
DASHDOT
 62
     7
 10
114.393479111301
 20
157.600351764718
 30
0.0
 11
114.393479111301
 21
162.640231157325
 31
0.0
  0
ARC
  5
   49F
  8
0
  6
CONTINUOUS
 62
     1
 10
114.393479111298
 20
160.120293326879
 30
0.0
 40
2.09994941313343
 50
269.999007927624
 51
450.00105270767
  0
LINE
  5
   4A0
  8
0
  6
DASHDOT
 62
     7
 10
133.36325337736
 20
160.120256174804
 30
0.0
 11
128.32343818163
 21
160.120256174804
 31
0.0
  0
LINE
  5
   4A1
  8
0
  6
DASHDOT
 62
     7
 10
130.843356460647
 20
157.600343236362
 30
0.0
 11
130.843356460647
 21
162.640169113245
 31
0.0
  0
ARC
  5
   4A2
  8
0
  6
CONTINUOUS
 62
     1
 10
130.843356460647
 20
160.120256174804
 30
0.0
 40
2.09992678112893
 50
449.999999948034
 51
630.002376467854
  0
LINE
  5
   4A3
  8
0
  6
DASHDOT
 62
     7
 10
138.438465105674
 20
160.12020627718
 30
0.0
 11
131.298406511534
 21
160.12020627718
 31
0.0
  0
ARC
  5
   4A4
  8
0
  6
CONTINUOUS
 62
     1
 10
134.86844114918
 20
160.12020627718
 30
0.0
 40
2.97502441422517
 50
404.901045292561
 51
495.098630845462
  0
LINE
  5
   4A5
  8
0
  6
DASHDOT
 62
     7
 10
141.413485676342
 20
160.120225333578
 30
0.0
 11
136.373478726742
 21
160.120225333578
 31
0.0
  0
LINE
  5
   4A6
  8
0
  6
DASHDOT
 62
     7
 10
138.893482201542
 20
157.600216518202
 30
0.0
 11
138.893482201542
 21
162.640234148954
 31
0.0
  0
ARC
  5
   4A7
  8
0
  6
CONTINUOUS
 62
     1
 10
138.893482201542
 20
160.120225333578
 30
0.0
 40
2.10000667857487
 50
269.998338346111
 51
450.001473300288
  0
LINE
  5
   4A8
  8
0
  6
DASHDOT
 62
     7
 10
84.363762499453
 20
160.120251518408
 30
0.0
 11
79.3234974860016
 21
160.120251518408
 31
0.0
  0
LINE
  5
   4A9
  8
0
  6
DASHDOT
 62
     7
 10
81.8436299927273
 20
157.600113671106
 30
0.0
 11
81.8436299927273
 21
162.64038936571
 31
0.0
  0
ARC
  5
   4AA
  8
0
  6
CONTINUOUS
 62
     1
 10
81.8436299927273
 20
160.120251518408
 30
0.0
 40
2.1001148727515
 50
90.0052836333811
 51
269.995265213079
  0
LINE
  5
   4AB
  8
0
  6
DASHDOT
 62
     7
 10
89.4385162169182
 20
160.120296558337
 30
0.0
 11
82.2983675118224
 21
160.120296558337
 31
0.0
  0
ARC
  5
   4AC
  8
0
  6
CONTINUOUS
 62
     1
 10
85.8684552158105
 20
160.120296558337
 30
0.0
 40
2.97505973521659
 50
224.901380849089
 51
315.098568474349
  0
LINE
  5
   4AD
  8
0
  6
DASHDOT
 62
     7
 10
92.4134842577726
 20
160.120251699926
 30
0.0
 11
87.3738405525397
 21
160.120251699926
 31
0.0
  0
LINE
  5
   4AE
  8
0
  6
DASHDOT
 62
     7
 10
89.8936624051561
 20
157.600424506734
 30
0.0
 11
89.8936624051561
 21
162.640078893119
 31
0.0
  0
ARC
  5
   4AF
  8
0
  6
CONTINUOUS
 62
     1
 10
89.8936624051561
 20
160.120251699926
 30
0.0
 40
2.09985599432712
 50
269.999999948034
 51
449.999945306521
  0
ARC
  5
   4B0
  8
0
  6
CONTINUOUS
 62
     1
 10
85.8684552158105
 20
160.120296558337
 30
0.0
 40
2.97505973521659
 50
404.897963373026
 51
495.101923170488
  0
ARC
  5
   4B1
  8
0
  6
CONTINUOUS
 62
     1
 10
110.36840030732
 20
160.120093993202
 30
0.0
 40
2.97513848632147
 50
404.902109287098
 51
495.097767281763
  0
ARC
  5
   4B2
  8
0
  6
CONTINUOUS
 62
     1
 10
134.86844114918
 20
160.12020627718
 30
0.0
 40
2.97502441422517
 50
224.899545375473
 51
315.100341172749
  0
LINE
  5
   4B3
  8
0
  6
CONTINUOUS
 62
     1
 10
147.118445885226
 20
107.970236513161
 30
0.0
 11
136.968440937996
 21
107.970236513161
 31
0.0
  0
LINE
  5
   4B4
  8
0
  6
CONTINUOUS
 62
     1
 10
122.618355613001
 20
155.832770471401
 30
0.0
 11
122.618355613001
 21
163.007770349212
 31
0.0
  0
LINE
  5
   4B5
  8
0
  6
DASHDOT
 62
     7
 10
126.205855551906
 20
159.420270410306
 30
0.0
 11
119.030855674095
 21
159.420270410306
 31
0.0
  0
LINE
  5
   4B6
  8
0
  6
DASHDOT
 62
     7
 10
98.1185218284057
 20
155.832770471401
 30
0.0
 11
98.1185218284057
 21
163.007770349212
 31
0.0
  0
LINE
  5
   4B7
  8
0
  6
DASHDOT
 62
     7
 10
101.706021767311
 20
159.420270410306
 30
0.0
 11
94.5310218895005
 21
159.420270410306
 31
0.0
  0
LINE
  5
   4B8
  8
0
  6
CONTINUOUS
 62
     3
 10
97.3309229929032
 20
164.84524105489
 30
0.0
 11
74.8434436914112
 21
164.84524105489
 31
0.0
  0
LINE
  5
   4B9
  8
0
  6
CONTINUOUS
 62
     3
 10
97.3309229929032
 20
163.9702465801
 30
0.0
 11
97.3309229929032
 21
164.845246565199
 31
0.0
  0
LINE
  5
   4BA
  8
0
  6
CONTINUOUS
 62
     3
 10
97.3309229929032
 20
163.970246580094
 30
0.0
 11
96.8934230003538
 21
163.970246580094
 31
0.0
  0
LINE
  5
   4BB
  8
0
  6
CONTINUOUS
 62
     3
 10
96.8934230003538
 20
162.395246606916
 30
0.0
 11
96.8934230003538
 21
163.970246580094
 31
0.0
  0
LINE
  5
   4BC
  8
0
  6
CONTINUOUS
 62
     3
 10
99.3434229586305
 20
162.395246606916
 30
0.0
 11
96.8934230003538
 21
162.395246606916
 31
0.0
  0
LINE
  5
   4BD
  8
0
  6
CONTINUOUS
 62
     3
 10
99.3434229586305
 20
162.395246606916
 30
0.0
 11
99.3434229586305
 21
163.970246580094
 31
0.0
  0
LINE
  5
   4BE
  8
0
  6
CONTINUOUS
 62
     3
 10
99.3434229586305
 20
163.970246580094
 30
0.0
 11
98.9059229660811
 21
163.970246580094
 31
0.0
  0
LINE
  5
   4BF
  8
0
  6
CONTINUOUS
 62
     3
 10
98.9059229660811
 20
163.970246580094
 30
0.0
 11
98.9059229660811
 21
164.845246565193
 31
0.0
  0
LINE
  5
   4C0
  8
0
  6
CONTINUOUS
 62
     3
 10
121.830927916247
 20
164.845235714314
 30
0.0
 11
98.9059229660811
 21
164.845235714314
 31
0.0
  0
LINE
  5
   4C1
  8
0
  6
CONTINUOUS
 62
     3
 10
121.830927916247
 20
163.970246580094
 30
0.0
 11
121.830927916247
 21
164.845246565193
 31
0.0
  0
LINE
  5
   4C2
  8
0
  6
CONTINUOUS
 62
     3
 10
121.830927916247
 20
163.970246580094
 30
0.0
 11
121.393427923697
 21
163.970246580094
 31
0.0
  0
LINE
  5
   4C3
  8
0
  6
CONTINUOUS
 62
     3
 10
121.393427923697
 20
162.395246606916
 30
0.0
 11
121.393427923697
 21
163.970246580094
 31
0.0
  0
LINE
  5
   4C4
  8
0
  6
CONTINUOUS
 62
     3
 10
123.843427881974
 20
162.395246606916
 30
0.0
 11
121.393427923697
 21
162.395246606916
 31
0.0
  0
LINE
  5
   4C5
  8
0
  6
CONTINUOUS
 62
     3
 10
123.843427881974
 20
162.395246606916
 30
0.0
 11
123.843427881974
 21
163.970246580094
 31
0.0
  0
LINE
  5
   4C6
  8
0
  6
CONTINUOUS
 62
     3
 10
123.843427881974
 20
163.970246580094
 30
0.0
 11
123.405927889425
 21
163.970246580094
 31
0.0
  0
LINE
  5
   4C7
  8
0
  6
CONTINUOUS
 62
     3
 10
123.405927889425
 20
163.9702465801
 30
0.0
 11
123.405927889425
 21
164.845246565199
 31
0.0
  0
LINE
  5
   4C8
  8
0
  6
CONTINUOUS
 62
     3
 10
145.893433749995
 20
164.84524105489
 30
0.0
 11
123.405927889425
 21
164.84524105489
 31
0.0
  0
ARC
  5
   4C9
  8
0
  6
CONTINUOUS
 62
     3
 10
145.893419501177
 20
164.495227725582
 30
0.0
 40
0.349999722807106
 50
360.000054589548
 51
449.999945306521
  0
LINE
  5
   4CA
  8
0
  6
CONTINUOUS
 62
     7
 10
146.243430098891
 20
156.270235860353
 30
0.0
 11
146.243430098891
 21
164.495227725582
 31
0.0
  0
LINE
  5
   4CB
  8
0
  6
CONTINUOUS
 62
     3
 10
147.118445885226
 20
163.795235732198
 30
0.0
 11
146.243416747451
 21
163.795235732198
 31
0.0
  0
LINE
  5
   4CC
  8
0
  6
CONTINUOUS
 62
     1
 10
146.243430098891
 20
156.270235860353
 30
0.0
 11
146.243430098891
 21
164.495227725582
 31
0.0
  0
LINE
  5
   4CD
  8
0
  6
CONTINUOUS
 62
     7
 10
146.243435439466
 20
156.445244556243
 30
0.0
 11
74.4934606939551
 21
156.445244556243
 31
0.0
  0
LINE
  5
   4CE
  8
0
  6
CONTINUOUS
 62
     7
 10
146.243435439466
 20
156.445244556243
 30
0.0
 11
74.4934606939551
 21
156.445244556243
 31
0.0
  0
LINE
  5
   4CF
  8
0
  6
CONTINUOUS
 62
     1
 10
147.118445885226
 20
156.270235690617
 30
0.0
 11
73.7059471354331
 21
156.270235690617
 31
0.0
  0
LINE
  5
   4D0
  8
0
  6
CONTINUOUS
 62
     1
 10
147.118445885226
 20
108.075242021678
 30
0.0
 11
136.968440937996
 21
108.075242021678
 31
0.0
  0
LINE
  5
   4D1
  8
0
  6
CONTINUOUS
 62
     3
 10
146.680945892676
 20
108.075242021678
 30
0.0
 11
146.680945892676
 21
108.425242015717
 31
0.0
  0
LINE
  5
   4D2
  8
0
  6
CONTINUOUS
 62
     1
 10
146.365942693695
 20
108.425242015717
 30
0.0
 11
146.365942693695
 21
156.270235690617
 31
0.0
  0
LINE
  5
   4D3
  8
0
  6
CONTINUOUS
 62
     1
 10
145.560941639289
 20
108.425242015717
 30
0.0
 11
145.560941639289
 21
156.270235690617
 31
0.0
  0
LINE
  5
   4D4
  8
0
  6
CONTINUOUS
 62
     1
 10
144.300944865092
 20
108.425242015717
 30
0.0
 11
144.300944865092
 21
156.270235690617
 31
0.0
  0
LINE
  5
   4D5
  8
0
  6
CONTINUOUS
 62
     1
 10
143.040942750319
 20
108.425242015717
 30
0.0
 11
143.040942750319
 21
156.270235690617
 31
0.0
  0
LINE
  5
   4D6
  8
0
  6
CONTINUOUS
 62
     1
 10
140.52094386135
 20
108.425242015717
 30
0.0
 11
140.52094386135
 21
156.270235690617
 31
0.0
  0
LINE
  5
   4D7
  8
0
  6
CONTINUOUS
 62
     1
 10
139.260941746577
 20
108.425242015717
 30
0.0
 11
139.260941746577
 21
156.270235690617
 31
0.0
  0
LINE
  5
   4D8
  8
0
  6
CONTINUOUS
 62
     1
 10
138.000944972381
 20
108.425242015717
 30
0.0
 11
138.000944972381
 21
156.270235690617
 31
0.0
  0
LINE
  5
   4D9
  8
0
  6
CONTINUOUS
 62
     1
 10
136.740942857608
 20
108.966529177226
 30
0.0
 11
136.740942857608
 21
156.270235690617
 31
0.0
  0
LINE
  5
   4DA
  8
0
  6
CONTINUOUS
 62
     1
 10
75.1759470436419
 20
108.425242015717
 30
0.0
 11
75.1759470436419
 21
156.270235690617
 31
0.0
  0
LINE
  5
   4DB
  8
0
  6
CONTINUOUS
 62
     1
 10
76.4359468219127
 20
108.425242015717
 30
0.0
 11
76.4359468219127
 21
156.270235690617
 31
0.0
  0
LINE
  5
   4DC
  8
0
  6
CONTINUOUS
 62
     1
 10
77.6959469339694
 20
108.425242015717
 30
0.0
 11
77.6959469339694
 21
156.270235690617
 31
0.0
  0
LINE
  5
   4DD
  8
0
  6
CONTINUOUS
 62
     1
 10
78.9559470460261
 20
108.425242015717
 30
0.0
 11
78.9559470460261
 21
156.270235690617
 31
0.0
  0
LINE
  5
   4DE
  8
0
  6
CONTINUOUS
 62
     1
 10
80.2159438202228
 20
108.425242015717
 30
0.0
 11
80.2159438202228
 21
156.270235690617
 31
0.0
  0
LINE
  5
   4DF
  8
0
  6
CONTINUOUS
 62
     1
 10
81.4759459349956
 20
108.425242015717
 30
0.0
 11
81.4759459349956
 21
156.270235690617
 31
0.0
  0
LINE
  5
   4E0
  8
0
  6
CONTINUOUS
 62
     1
 10
82.7359427091922
 20
108.425242015717
 30
0.0
 11
82.7359427091922
 21
156.270235690617
 31
0.0
  0
LINE
  5
   4E1
  8
0
  6
CONTINUOUS
 62
     1
 10
83.995944823965
 20
108.966517259576
 30
0.0
 11
83.995944823965
 21
156.270235690617
 31
0.0
  0
LINE
  5
   4E2
  8
0
  6
CONTINUOUS
 62
     1
 10
85.2559469387378
 20
109.020216653348
 30
0.0
 11
85.2559469387378
 21
156.270235690617
 31
0.0
  0
ARC
  5
   4E3
  8
0
  6
CONTINUOUS
 62
     1
 10
81.8436299927273
 20
160.120296558337
 30
0.0
 40
2.86999995112419
 50
449.679006550204
 51
629.999999948034
  0
ARC
  5
   4E4
  8
0
  6
CONTINUOUS
 62
     1
 10
85.8684444785118
 20
160.120296558337
 30
0.0
 40
3.56999993920326
 50
413.505022838263
 51
486.494981956033
  0
LINE
  5
   4E5
  8
0
  6
CONTINUOUS
 62
     1
 10
83.7451785098646
 20
162.990251469532
 30
0.0
 11
81.8597087724339
 21
162.990251469532
 31
0.0
  0
LINE
  5
   4E6
  8
0
  6
CONTINUOUS
 62
     1
 10
89.8936624051561
 20
162.990251651051
 30
0.0
 11
87.9917102018059
 21
162.990251651051
 31
0.0
  0
LINE
  5
   4E7
  8
0
  6
CONTINUOUS
 62
     1
 10
89.8776160579835
 20
157.250296607212
 30
0.0
 11
87.9916495666882
 21
157.250296607212
 31
0.0
  0
LINE
  5
   4E8
  8
0
  6
CONTINUOUS
 62
     1
 10
83.7453002735072
 20
157.250251567284
 30
0.0
 11
81.8436299927273
 21
157.250251567284
 31
0.0
  0
ARC
  5
   4E9
  8
0
  6
CONTINUOUS
 62
     1
 10
85.8684444785118
 20
160.120296558337
 30
0.0
 40
3.56999993920326
 50
233.507448791235
 51
306.493766547859
  0
ARC
  5
   4EA
  8
0
  6
CONTINUOUS
 62
     1
 10
89.8936624051561
 20
160.120251699926
 30
0.0
 40
2.86999995112419
 50
269.679654033286
 51
449.999999948034
  0
ARC
  5
   4EB
  8
0
  6
CONTINUOUS
 62
     1
 10
114.393661987924
 20
160.120251699926
 30
0.0
 40
2.86999995112419
 50
269.679654033286
 51
449.999999948034
  0
LINE
  5
   4EC
  8
0
  6
CONTINUOUS
 62
     1
 10
114.393661987924
 20
162.990251651051
 30
0.0
 11
112.491709784573
 21
162.990251651051
 31
0.0
  0
LINE
  5
   4ED
  8
0
  6
CONTINUOUS
 62
     1
 10
114.377615640751
 20
157.250296607212
 30
0.0
 11
112.491649149456
 21
157.250296607212
 31
0.0
  0
ARC
  5
   4EE
  8
0
  6
CONTINUOUS
 62
     1
 10
110.368444061279
 20
160.120296558337
 30
0.0
 40
3.56999993920326
 50
233.507448791235
 51
306.493766547859
  0
ARC
  5
   4EF
  8
0
  6
CONTINUOUS
 62
     1
 10
110.368444061279
 20
160.120296558337
 30
0.0
 40
3.56999993920326
 50
413.505022838263
 51
486.494981956033
  0
LINE
  5
   4F0
  8
0
  6
CONTINUOUS
 62
     1
 10
108.245178092632
 20
162.990251469532
 30
0.0
 11
106.359708355201
 21
162.990251469532
 31
0.0
  0
ARC
  5
   4F1
  8
0
  6
CONTINUOUS
 62
     1
 10
106.343629575495
 20
160.120296558337
 30
0.0
 40
2.86999995112419
 50
449.679006550204
 51
629.999999948034
  0
LINE
  5
   4F2
  8
0
  6
CONTINUOUS
 62
     1
 10
108.245299856275
 20
157.250251567284
 30
0.0
 11
106.343629575495
 21
157.250251567284
 31
0.0
  0
ARC
  5
   4F3
  8
0
  6
CONTINUOUS
 62
     1
 10
138.893661570691
 20
160.120251699926
 30
0.0
 40
2.86999995112419
 50
269.679654033286
 51
449.999999948034
  0
LINE
  5
   4F4
  8
0
  6
CONTINUOUS
 62
     1
 10
138.893661570691
 20
162.990251651051
 30
0.0
 11
136.991709367341
 21
162.990251651051
 31
0.0
  0
LINE
  5
   4F5
  8
0
  6
CONTINUOUS
 62
     1
 10
138.877615223518
 20
157.250296607212
 30
0.0
 11
136.991648732223
 21
157.250296607212
 31
0.0
  0
ARC
  5
   4F6
  8
0
  6
CONTINUOUS
 62
     1
 10
134.868443644047
 20
160.120296558337
 30
0.0
 40
3.56999993920326
 50
233.507448791235
 51
306.493766547859
  0
ARC
  5
   4F7
  8
0
  6
CONTINUOUS
 62
     1
 10
134.868443644047
 20
160.120296558337
 30
0.0
 40
3.56999993920326
 50
413.505022838263
 51
486.494981956033
  0
LINE
  5
   4F8
  8
0
  6
CONTINUOUS
 62
     1
 10
132.7451776754
 20
162.990251469532
 30
0.0
 11
130.859707937969
 21
162.990251469532
 31
0.0
  0
LINE
  5
   4F9
  8
0
  6
CONTINUOUS
 62
     1
 10
132.745299439042
 20
157.250251567284
 30
0.0
 11
130.843629158262
 21
157.250251567284
 31
0.0
  0
ARC
  5
   4FA
  8
0
  6
CONTINUOUS
 62
     1
 10
130.843629158262
 20
160.120296558337
 30
0.0
 40
2.86999995112419
 50
449.679006550204
 51
629.999999948034
  0
ARC
  5
   4FB
  8
0
  6
CONTINUOUS
 62
     1
 10
97.7685218343662
 20
159.420270410306
 30
0.0
 40
1.04999998211861
 50
89.9999999480344
 51
269.999999948034
  0
ARC
  5
   4FC
  8
0
  6
CONTINUOUS
 62
     1
 10
98.4685218224453
 20
159.420270410306
 30
0.0
 40
1.04999998211861
 50
269.999999948034
 51
449.999999948034
  0
LINE
  5
   4FD
  8
0
  6
CONTINUOUS
 62
     1
 10
98.4685218224453
 20
160.470270392425
 30
0.0
 11
97.7685218343662
 21
160.470270392425
 31
0.0
  0
LINE
  5
   4FE
  8
0
  6
CONTINUOUS
 62
     1
 10
98.4685218224453
 20
158.370270428188
 30
0.0
 11
97.7685218343662
 21
158.370270428188
 31
0.0
  0
ARC
  5
   4FF
  8
0
  6
CONTINUOUS
 62
     1
 10
122.968521405213
 20
159.420270410306
 30
0.0
 40
1.04999998211861
 50
269.999999948034
 51
449.999999948034
  0
LINE
  5
   500
  8
0
  6
CONTINUOUS
 62
     1
 10
122.968521405213
 20
160.470270392425
 30
0.0
 11
122.268521417134
 21
160.470270392425
 31
0.0
  0
LINE
  5
   501
  8
0
  6
CONTINUOUS
 62
     1
 10
122.968521405213
 20
158.370270428188
 30
0.0
 11
122.268521417134
 21
158.370270428188
 31
0.0
  0
ARC
  5
   502
  8
0
  6
CONTINUOUS
 62
     1
 10
122.268521417134
 20
159.420270410306
 30
0.0
 40
1.04999998211861
 50
89.9999999480344
 51
269.999999948034
  0
CIRCLE
  5
   503
  8
0
  6
CONTINUOUS
 62
     1
 10
95.6684389710427
 20
163.445241078732
 30
0.0
 40
0.769999986886978
  0
CIRCLE
  5
   504
  8
0
  6
CONTINUOUS
 62
     1
 10
125.068438470364
 20
163.445241078732
 30
0.0
 40
0.769999986886978
  0
CIRCLE
  5
   505
  8
0
  6
CONTINUOUS
 62
     1
 10
144.843438133597
 20
163.445241078732
 30
0.0
 40
0.769999986886978
  0
LINE
  5
   506
  8
0
  6
CONTINUOUS
 62
     3
 10
147.118445885226
 20
108.425242015717
 30
0.0
 11
147.118445885226
 21
163.795235732198
 31
0.0
  0
LINE
  5
   507
  8
0
  6
CONTINUOUS
 62
     3
 10
147.118445885226
 20
108.425242015717
 30
0.0
 11
146.680945892676
 21
108.425242015717
 31
0.0
  0
LINE
  5
   508
  8
0
  6
CONTINUOUS
 62
     3
 10
147.118445885226
 20
108.075242021678
 30
0.0
 11
146.680945892676
 21
108.075242021678
 31
0.0
  0
LINE
  5
   509
  8
0
  6
CONTINUOUS
 62
     1
 10
134.343438312411
 20
154.520235890148
 30
0.0
 11
86.393439128995
 21
154.520235890148
 31
0.0
  0
LINE
  5
   50A
  8
0
  6
CONTINUOUS
 62
     1
 10
134.343438312411
 20
147.170236015318
 30
0.0
 11
86.393439128995
 21
147.170236015318
 31
0.0
  0
LINE
  5
   50B
  8
0
  6
CONTINUOUS
 62
     1
 10
86.393439128995
 20
147.170236015318
 30
0.0
 11
86.393439128995
 21
154.520235890148
 31
0.0
  0
LINE
  5
   50C
  8
0
  6
CONTINUOUS
 62
     1
 10
134.343438312411
 20
147.170236015318
 30
0.0
 11
134.343438312411
 21
154.520235890148
 31
0.0
  0
LINE
  5
   50D
  8
0
  6
CONTINUOUS
 62
     3
 10
110.280938722193
 20
109.720241993664
 30
0.0
 11
110.280938722193
 21
112.695241943
 31
0.0
  0
LINE
  5
   50E
  8
0
  6
CONTINUOUS
 62
     3
 10
110.910938711464
 20
109.720241993664
 30
0.0
 11
110.910938711464
 21
112.695241943
 31
0.0
  0
LINE
  5
   50F
  8
0
  6
CONTINUOUS
 62
     3
 10
111.540938700736
 20
109.720241993664
 30
0.0
 11
111.540938700736
 21
113.920241922138
 31
0.0
  0
LINE
  5
   510
  8
0
  6
CONTINUOUS
 62
     3
 10
112.170938690007
 20
109.720241993664
 30
0.0
 11
112.170938690007
 21
113.920241922138
 31
0.0
  0
LINE
  5
   511
  8
0
  6
CONTINUOUS
 62
     3
 10
112.800938679278
 20
109.720241993664
 30
0.0
 11
112.800938679278
 21
113.920241922138
 31
0.0
  0
LINE
  5
   512
  8
0
  6
CONTINUOUS
 62
     3
 10
113.430938668549
 20
109.720241993664
 30
0.0
 11
113.430938668549
 21
113.920241922138
 31
0.0
  0
LINE
  5
   513
  8
0
  6
CONTINUOUS
 62
     3
 10
114.06093865782
 20
109.720241993664
 30
0.0
 11
114.06093865782
 21
113.920241922138
 31
0.0
  0
LINE
  5
   514
  8
0
  6
CONTINUOUS
 62
     3
 10
114.690938647091
 20
109.720241993664
 30
0.0
 11
114.690938647091
 21
113.920241922138
 31
0.0
  0
LINE
  5
   515
  8
0
  6
CONTINUOUS
 62
     3
 10
115.320938636363
 20
109.720241993664
 30
0.0
 11
115.320938636363
 21
113.920241922138
 31
0.0
  0
LINE
  5
   516
  8
0
  6
CONTINUOUS
 62
     3
 10
115.950938625634
 20
109.720241993664
 30
0.0
 11
115.950938625634
 21
113.920241922138
 31
0.0
  0
LINE
  5
   517
  8
0
  6
CONTINUOUS
 62
     1
 10
147.118445885226
 20
108.425242015717
 30
0.0
 11
136.968440937996
 21
108.425242015717
 31
0.0
  0
LINE
  5
   518
  8
0
  6
CONTINUOUS
 62
     3
 10
109.650938732922
 20
109.720241993664
 30
0.0
 11
109.650938732922
 21
112.695241943
 31
0.0
  0
LINE
  5
   519
  8
0
  6
CONTINUOUS
 62
     3
 10
109.020938743651
 20
109.720241993664
 30
0.0
 11
109.020938743651
 21
112.695241943
 31
0.0
  0
LINE
  5
   51A
  8
0
  6
CONTINUOUS
 62
     3
 10
108.39093875438
 20
109.720241993664
 30
0.0
 11
108.39093875438
 21
113.920241922138
 31
0.0
  0
LINE
  5
   51B
  8
0
  6
CONTINUOUS
 62
     3
 10
107.760938765109
 20
109.720241993664
 30
0.0
 11
107.760938765109
 21
113.920241922138
 31
0.0
  0
LINE
  5
   51C
  8
0
  6
CONTINUOUS
 62
     3
 10
107.130938775837
 20
109.720241993664
 30
0.0
 11
107.130938775837
 21
113.920241922138
 31
0.0
  0
LINE
  5
   51D
  8
0
  6
CONTINUOUS
 62
     3
 10
106.500938786566
 20
109.720241993664
 30
0.0
 11
106.500938786566
 21
113.920241922138
 31
0.0
  0
LINE
  5
   51E
  8
0
  6
CONTINUOUS
 62
     3
 10
105.870938797295
 20
109.720241993664
 30
0.0
 11
105.870938797295
 21
113.920241922138
 31
0.0
  0
LINE
  5
   51F
  8
0
  6
CONTINUOUS
 62
     3
 10
105.240938808024
 20
109.720241993664
 30
0.0
 11
105.240938808024
 21
113.920241922138
 31
0.0
  0
LINE
  5
   520
  8
0
  6
CONTINUOUS
 62
     3
 10
104.610938818753
 20
109.720241993664
 30
0.0
 11
104.610938818753
 21
113.920241922138
 31
0.0
  0
LINE
  5
   521
  8
0
  6
CONTINUOUS
 62
     3
 10
110.910938711464
 20
109.720241993664
 30
0.0
 11
110.280938722193
 21
109.720241993664
 31
0.0
  0
LINE
  5
   522
  8
0
  6
CONTINUOUS
 62
     3
 10
110.910938711464
 20
112.695241943
 30
0.0
 11
110.280938722193
 21
112.695241943
 31
0.0
  0
LINE
  5
   523
  8
0
  6
CONTINUOUS
 62
     3
 10
109.650938732922
 20
112.695241943
 30
0.0
 11
109.020938743651
 21
112.695241943
 31
0.0
  0
LINE
  5
   524
  8
0
  6
CONTINUOUS
 62
     3
 10
108.39093875438
 20
113.920241922138
 30
0.0
 11
107.760938765109
 21
113.920241922138
 31
0.0
  0
LINE
  5
   525
  8
0
  6
CONTINUOUS
 62
     3
 10
107.130938775837
 20
113.920241922138
 30
0.0
 11
106.500938786566
 21
113.920241922138
 31
0.0
  0
LINE
  5
   526
  8
0
  6
CONTINUOUS
 62
     3
 10
105.870938797295
 20
113.920241922138
 30
0.0
 11
105.240938808024
 21
113.920241922138
 31
0.0
  0
LINE
  5
   527
  8
0
  6
CONTINUOUS
 62
     3
 10
112.170938690007
 20
113.920241922138
 30
0.0
 11
111.540938700736
 21
113.920241922138
 31
0.0
  0
LINE
  5
   528
  8
0
  6
CONTINUOUS
 62
     3
 10
113.430938668549
 20
113.920241922138
 30
0.0
 11
112.800938679278
 21
113.920241922138
 31
0.0
  0
LINE
  5
   529
  8
0
  6
CONTINUOUS
 62
     3
 10
114.690938647091
 20
113.920241922138
 30
0.0
 11
114.06093865782
 21
113.920241922138
 31
0.0
  0
LINE
  5
   52A
  8
0
  6
CONTINUOUS
 62
     3
 10
115.950938625634
 20
113.920241922138
 30
0.0
 11
115.320938636363
 21
113.920241922138
 31
0.0
  0
LINE
  5
   52B
  8
0
  6
CONTINUOUS
 62
     3
 10
103.980938829482
 20
109.720241993664
 30
0.0
 11
103.980938829482
 21
113.920241922138
 31
0.0
  0
LINE
  5
   52C
  8
0
  6
CONTINUOUS
 62
     3
 10
104.610938818753
 20
113.920241922138
 30
0.0
 11
103.980938829482
 21
113.920241922138
 31
0.0
  0
LINE
  5
   52D
  8
0
  6
CONTINUOUS
 62
     3
 10
104.610938818753
 20
109.720241993664
 30
0.0
 11
103.980938829482
 21
109.720241993664
 31
0.0
  0
LINE
  5
   52E
  8
0
  6
CONTINUOUS
 62
     3
 10
105.870938797295
 20
109.720241993664
 30
0.0
 11
105.240938808024
 21
109.720241993664
 31
0.0
  0
LINE
  5
   52F
  8
0
  6
CONTINUOUS
 62
     3
 10
107.130938775837
 20
109.720241993664
 30
0.0
 11
106.500938786566
 21
109.720241993664
 31
0.0
  0
LINE
  5
   530
  8
0
  6
CONTINUOUS
 62
     3
 10
108.39093875438
 20
109.720241993664
 30
0.0
 11
107.760938765109
 21
109.720241993664
 31
0.0
  0
LINE
  5
   531
  8
0
  6
CONTINUOUS
 62
     3
 10
109.650938732922
 20
109.720241993664
 30
0.0
 11
109.020938743651
 21
109.720241993664
 31
0.0
  0
LINE
  5
   532
  8
0
  6
CONTINUOUS
 62
     3
 10
112.170938690007
 20
109.720241993664
 30
0.0
 11
111.540938700736
 21
109.720241993664
 31
0.0
  0
LINE
  5
   533
  8
0
  6
CONTINUOUS
 62
     3
 10
113.430938668549
 20
109.720241993664
 30
0.0
 11
112.800938679278
 21
109.720241993664
 31
0.0
  0
LINE
  5
   534
  8
0
  6
CONTINUOUS
 62
     3
 10
114.690938647091
 20
109.720241993664
 30
0.0
 11
114.06093865782
 21
109.720241993664
 31
0.0
  0
LINE
  5
   535
  8
0
  6
CONTINUOUS
 62
     3
 10
115.950938625634
 20
109.720241993664
 30
0.0
 11
115.320938636363
 21
109.720241993664
 31
0.0
  0
LINE
  5
   536
  8
0
  6
CONTINUOUS
 62
     3
 10
140.520938207209
 20
109.720241993664
 30
0.0
 11
140.520938207209
 21
113.920241922138
 31
0.0
  0
LINE
  5
   537
  8
0
  6
CONTINUOUS
 62
     3
 10
140.520938207209
 20
109.720241993664
 30
0.0
 11
139.890938217938
 21
109.720241993664
 31
0.0
  0
LINE
  5
   538
  8
0
  6
CONTINUOUS
 62
     3
 10
139.260938228667
 20
109.720241993664
 30
0.0
 11
138.630938239396
 21
109.720241993664
 31
0.0
  0
LINE
  5
   539
  8
0
  6
CONTINUOUS
 62
     3
 10
138.000938250124
 20
109.720241993664
 30
0.0
 11
137.370938260853
 21
109.720241993664
 31
0.0
  0
LINE
  5
   53A
  8
0
  6
CONTINUOUS
 62
     3
 10
136.740938271582
 20
109.720241993664
 30
0.0
 11
136.110938282311
 21
109.720241993664
 31
0.0
  0
LINE
  5
   53B
  8
0
  6
CONTINUOUS
 62
     3
 10
134.220938314498
 20
109.720241993664
 30
0.0
 11
133.590938325226
 21
109.720241993664
 31
0.0
  0
LINE
  5
   53C
  8
0
  6
CONTINUOUS
 62
     3
 10
132.960938335955
 20
109.720241993664
 30
0.0
 11
132.330938346684
 21
109.720241993664
 31
0.0
  0
LINE
  5
   53D
  8
0
  6
CONTINUOUS
 62
     3
 10
131.700938357413
 20
109.720241993664
 30
0.0
 11
131.070938368142
 21
109.720241993664
 31
0.0
  0
LINE
  5
   53E
  8
0
  6
CONTINUOUS
 62
     3
 10
130.440938378871
 20
109.720241993664
 30
0.0
 11
129.810938389599
 21
109.720241993664
 31
0.0
  0
LINE
  5
   53F
  8
0
  6
CONTINUOUS
 62
     3
 10
129.180938400328
 20
109.720241993664
 30
0.0
 11
128.550938411057
 21
109.720241993664
 31
0.0
  0
LINE
  5
   540
  8
0
  6
CONTINUOUS
 62
     3
 10
129.180938400328
 20
113.920241922138
 30
0.0
 11
128.550938411057
 21
113.920241922138
 31
0.0
  0
LINE
  5
   541
  8
0
  6
CONTINUOUS
 62
     3
 10
128.550938411057
 20
109.720241993664
 30
0.0
 11
128.550938411057
 21
113.920241922138
 31
0.0
  0
LINE
  5
   542
  8
0
  6
CONTINUOUS
 62
     3
 10
140.520938207209
 20
113.920241922138
 30
0.0
 11
139.890938217938
 21
113.920241922138
 31
0.0
  0
LINE
  5
   543
  8
0
  6
CONTINUOUS
 62
     3
 10
139.260938228667
 20
113.920241922138
 30
0.0
 11
138.630938239396
 21
113.920241922138
 31
0.0
  0
LINE
  5
   544
  8
0
  6
CONTINUOUS
 62
     3
 10
138.000938250124
 20
113.920241922138
 30
0.0
 11
137.370938260853
 21
113.920241922138
 31
0.0
  0
LINE
  5
   545
  8
0
  6
CONTINUOUS
 62
     3
 10
136.740938271582
 20
113.920241922138
 30
0.0
 11
136.110938282311
 21
113.920241922138
 31
0.0
  0
LINE
  5
   546
  8
0
  6
CONTINUOUS
 62
     3
 10
130.440938378871
 20
113.920241922138
 30
0.0
 11
129.810938389599
 21
113.920241922138
 31
0.0
  0
LINE
  5
   547
  8
0
  6
CONTINUOUS
 62
     3
 10
131.700938357413
 20
113.920241922138
 30
0.0
 11
131.070938368142
 21
113.920241922138
 31
0.0
  0
LINE
  5
   548
  8
0
  6
CONTINUOUS
 62
     3
 10
132.960938335955
 20
113.920241922138
 30
0.0
 11
132.330938346684
 21
113.920241922138
 31
0.0
  0
LINE
  5
   549
  8
0
  6
CONTINUOUS
 62
     3
 10
134.220938314498
 20
112.695241943
 30
0.0
 11
133.590938325226
 21
112.695241943
 31
0.0
  0
LINE
  5
   54A
  8
0
  6
CONTINUOUS
 62
     3
 10
135.48093829304
 20
112.695241943
 30
0.0
 11
134.850938303769
 21
112.695241943
 31
0.0
  0
LINE
  5
   54B
  8
0
  6
CONTINUOUS
 62
     3
 10
135.48093829304
 20
109.720241993664
 30
0.0
 11
134.850938303769
 21
109.720241993664
 31
0.0
  0
LINE
  5
   54C
  8
0
  6
CONTINUOUS
 62
     3
 10
129.180938400328
 20
109.720241993664
 30
0.0
 11
129.180938400328
 21
113.920241922138
 31
0.0
  0
LINE
  5
   54D
  8
0
  6
CONTINUOUS
 62
     3
 10
129.810938389599
 20
109.720241993664
 30
0.0
 11
129.810938389599
 21
113.920241922138
 31
0.0
  0
LINE
  5
   54E
  8
0
  6
CONTINUOUS
 62
     3
 10
130.440938378871
 20
109.720241993664
 30
0.0
 11
130.440938378871
 21
113.920241922138
 31
0.0
  0
LINE
  5
   54F
  8
0
  6
CONTINUOUS
 62
     3
 10
131.070938368142
 20
109.720241993664
 30
0.0
 11
131.070938368142
 21
113.920241922138
 31
0.0
  0
LINE
  5
   550
  8
0
  6
CONTINUOUS
 62
     3
 10
131.700938357413
 20
109.720241993664
 30
0.0
 11
131.700938357413
 21
113.920241922138
 31
0.0
  0
LINE
  5
   551
  8
0
  6
CONTINUOUS
 62
     3
 10
132.330938346684
 20
109.720241993664
 30
0.0
 11
132.330938346684
 21
113.920241922138
 31
0.0
  0
LINE
  5
   552
  8
0
  6
CONTINUOUS
 62
     3
 10
132.960938335955
 20
109.720241993664
 30
0.0
 11
132.960938335955
 21
113.920241922138
 31
0.0
  0
LINE
  5
   553
  8
0
  6
CONTINUOUS
 62
     3
 10
133.590938325226
 20
109.720241993664
 30
0.0
 11
133.590938325226
 21
112.695241943
 31
0.0
  0
LINE
  5
   554
  8
0
  6
CONTINUOUS
 62
     3
 10
134.220938314498
 20
109.720241993664
 30
0.0
 11
134.220938314498
 21
112.695241943
 31
0.0
  0
LINE
  5
   555
  8
0
  6
CONTINUOUS
 62
     3
 10
140.520938207209
 20
109.720241993664
 30
0.0
 11
140.520938207209
 21
113.920241922138
 31
0.0
  0
LINE
  5
   556
  8
0
  6
CONTINUOUS
 62
     3
 10
139.890938217938
 20
109.720241993664
 30
0.0
 11
139.890938217938
 21
113.920241922138
 31
0.0
  0
LINE
  5
   557
  8
0
  6
CONTINUOUS
 62
     3
 10
139.260938228667
 20
109.720241993664
 30
0.0
 11
139.260938228667
 21
113.920241922138
 31
0.0
  0
LINE
  5
   558
  8
0
  6
CONTINUOUS
 62
     3
 10
138.630938239396
 20
109.720241993664
 30
0.0
 11
138.630938239396
 21
113.920241922138
 31
0.0
  0
LINE
  5
   559
  8
0
  6
CONTINUOUS
 62
     3
 10
138.000938250124
 20
109.720241993664
 30
0.0
 11
138.000938250124
 21
113.920241922138
 31
0.0
  0
LINE
  5
   55A
  8
0
  6
CONTINUOUS
 62
     3
 10
137.370938260853
 20
109.720241993664
 30
0.0
 11
137.370938260853
 21
113.920241922138
 31
0.0
  0
LINE
  5
   55B
  8
0
  6
CONTINUOUS
 62
     3
 10
136.740938271582
 20
109.720241993664
 30
0.0
 11
136.740938271582
 21
113.920241922138
 31
0.0
  0
LINE
  5
   55C
  8
0
  6
CONTINUOUS
 62
     3
 10
136.110938282311
 20
109.720241993664
 30
0.0
 11
136.110938282311
 21
113.920241922138
 31
0.0
  0
LINE
  5
   55D
  8
0
  6
CONTINUOUS
 62
     3
 10
135.48093829304
 20
109.020217472315
 30
0.0
 11
135.48093829304
 21
156.270235690617
 31
0.0
  0
LINE
  5
   55E
  8
0
  6
CONTINUOUS
 62
     3
 10
134.850938303769
 20
109.720241993664
 30
0.0
 11
134.850938303769
 21
112.695241943
 31
0.0
  0
LINE
  5
   55F
  8
0
  6
CONTINUOUS
 62
     3
 10
91.5559390410781
 20
109.720241993664
 30
0.0
 11
90.925939051807
 21
109.720241993664
 31
0.0
  0
LINE
  5
   560
  8
0
  6
CONTINUOUS
 62
     3
 10
90.2959390625358
 20
109.720241993664
 30
0.0
 11
89.6659390732646
 21
109.720241993664
 31
0.0
  0
LINE
  5
   561
  8
0
  6
CONTINUOUS
 62
     3
 10
89.0359390839935
 20
109.720241993664
 30
0.0
 11
88.4059390947223
 21
109.720241993664
 31
0.0
  0
LINE
  5
   562
  8
0
  6
CONTINUOUS
 62
     3
 10
87.7759391054511
 20
109.720241993664
 30
0.0
 11
87.14593911618
 21
109.720241993664
 31
0.0
  0
LINE
  5
   563
  8
0
  6
CONTINUOUS
 62
     3
 10
85.2559391483665
 20
109.720241993664
 30
0.0
 11
84.6259391590953
 21
109.720241993664
 31
0.0
  0
LINE
  5
   564
  8
0
  6
CONTINUOUS
 62
     3
 10
83.9959391698241
 20
109.720241993664
 30
0.0
 11
83.365939180553
 21
109.720241993664
 31
0.0
  0
LINE
  5
   565
  8
0
  6
CONTINUOUS
 62
     3
 10
82.7359391912818
 20
109.720241993664
 30
0.0
 11
82.1059392020107
 21
109.720241993664
 31
0.0
  0
LINE
  5
   566
  8
0
  6
CONTINUOUS
 62
     3
 10
81.4759392127395
 20
109.720241993664
 30
0.0
 11
80.8459392234683
 21
109.720241993664
 31
0.0
  0
LINE
  5
   567
  8
0
  6
CONTINUOUS
 62
     3
 10
80.2159392341972
 20
109.720241993664
 30
0.0
 11
79.585939244926
 21
109.720241993664
 31
0.0
  0
LINE
  5
   568
  8
0
  6
CONTINUOUS
 62
     3
 10
80.2159392341972
 20
113.920241922138
 30
0.0
 11
79.585939244926
 21
113.920241922138
 31
0.0
  0
LINE
  5
   569
  8
0
  6
CONTINUOUS
 62
     3
 10
79.585939244926
 20
109.720241993664
 30
0.0
 11
79.585939244926
 21
113.920241922138
 31
0.0
  0
LINE
  5
   56A
  8
0
  6
CONTINUOUS
 62
     3
 10
91.5559390410781
 20
113.920241922138
 30
0.0
 11
90.925939051807
 21
113.920241922138
 31
0.0
  0
LINE
  5
   56B
  8
0
  6
CONTINUOUS
 62
     3
 10
90.2959390625358
 20
113.920241922138
 30
0.0
 11
89.6659390732646
 21
113.920241922138
 31
0.0
  0
LINE
  5
   56C
  8
0
  6
CONTINUOUS
 62
     3
 10
89.0359390839935
 20
113.920241922138
 30
0.0
 11
88.4059390947223
 21
113.920241922138
 31
0.0
  0
LINE
  5
   56D
  8
0
  6
CONTINUOUS
 62
     3
 10
87.7759391054511
 20
113.920241922138
 30
0.0
 11
87.14593911618
 21
113.920241922138
 31
0.0
  0
LINE
  5
   56E
  8
0
  6
CONTINUOUS
 62
     3
 10
81.4759392127395
 20
113.920241922138
 30
0.0
 11
80.8459392234683
 21
113.920241922138
 31
0.0
  0
LINE
  5
   56F
  8
0
  6
CONTINUOUS
 62
     3
 10
82.7359391912818
 20
113.920241922138
 30
0.0
 11
82.1059392020107
 21
113.920241922138
 31
0.0
  0
LINE
  5
   570
  8
0
  6
CONTINUOUS
 62
     3
 10
83.9959391698241
 20
113.920241922138
 30
0.0
 11
83.365939180553
 21
113.920241922138
 31
0.0
  0
LINE
  5
   571
  8
0
  6
CONTINUOUS
 62
     3
 10
85.2559391483665
 20
112.695241943
 30
0.0
 11
84.6259391590953
 21
112.695241943
 31
0.0
  0
LINE
  5
   572
  8
0
  6
CONTINUOUS
 62
     3
 10
86.5159391269088
 20
112.695241943
 30
0.0
 11
85.8859391376376
 21
112.695241943
 31
0.0
  0
LINE
  5
   573
  8
0
  6
CONTINUOUS
 62
     3
 10
86.5159391269088
 20
109.720241993664
 30
0.0
 11
85.8859391376376
 21
109.720241993664
 31
0.0
  0
LINE
  5
   574
  8
0
  6
CONTINUOUS
 62
     3
 10
80.2159392341972
 20
109.720241993664
 30
0.0
 11
80.2159392341972
 21
113.920241922138
 31
0.0
  0
LINE
  5
   575
  8
0
  6
CONTINUOUS
 62
     3
 10
80.8459392234683
 20
109.720241993664
 30
0.0
 11
80.8459392234683
 21
113.920241922138
 31
0.0
  0
LINE
  5
   576
  8
0
  6
CONTINUOUS
 62
     3
 10
81.4759392127395
 20
109.720241993664
 30
0.0
 11
81.4759392127395
 21
113.920241922138
 31
0.0
  0
LINE
  5
   577
  8
0
  6
CONTINUOUS
 62
     3
 10
82.1059392020107
 20
109.720241993664
 30
0.0
 11
82.1059392020107
 21
113.920241922138
 31
0.0
  0
LINE
  5
   578
  8
0
  6
CONTINUOUS
 62
     3
 10
82.7359391912818
 20
109.720241993664
 30
0.0
 11
82.7359391912818
 21
113.920241922138
 31
0.0
  0
LINE
  5
   579
  8
0
  6
CONTINUOUS
 62
     3
 10
83.365939180553
 20
109.720241993664
 30
0.0
 11
83.365939180553
 21
113.920241922138
 31
0.0
  0
LINE
  5
   57A
  8
0
  6
CONTINUOUS
 62
     3
 10
83.9959391698241
 20
109.720241993664
 30
0.0
 11
83.9959391698241
 21
113.920241922138
 31
0.0
  0
LINE
  5
   57B
  8
0
  6
CONTINUOUS
 62
     3
 10
84.6259391590953
 20
109.720241993664
 30
0.0
 11
84.6259391590953
 21
112.695241943
 31
0.0
  0
LINE
  5
   57C
  8
0
  6
CONTINUOUS
 62
     3
 10
85.2559391483665
 20
109.020216653275
 30
0.0
 11
85.2559391483665
 21
112.695241943
 31
0.0
  0
LINE
  5
   57D
  8
0
  6
CONTINUOUS
 62
     3
 10
91.5559390410781
 20
109.720241993664
 30
0.0
 11
91.5559390410781
 21
113.920241922138
 31
0.0
  0
LINE
  5
   57E
  8
0
  6
CONTINUOUS
 62
     3
 10
90.925939051807
 20
109.720241993664
 30
0.0
 11
90.925939051807
 21
113.920241922138
 31
0.0
  0
LINE
  5
   57F
  8
0
  6
CONTINUOUS
 62
     3
 10
90.2959390625358
 20
109.720241993664
 30
0.0
 11
90.2959390625358
 21
113.920241922138
 31
0.0
  0
LINE
  5
   580
  8
0
  6
CONTINUOUS
 62
     3
 10
89.6659390732646
 20
109.720241993664
 30
0.0
 11
89.6659390732646
 21
113.920241922138
 31
0.0
  0
LINE
  5
   581
  8
0
  6
CONTINUOUS
 62
     3
 10
89.0359390839935
 20
109.720241993664
 30
0.0
 11
89.0359390839935
 21
113.920241922138
 31
0.0
  0
LINE
  5
   582
  8
0
  6
CONTINUOUS
 62
     3
 10
88.4059390947223
 20
109.720241993664
 30
0.0
 11
88.4059390947223
 21
113.920241922138
 31
0.0
  0
LINE
  5
   583
  8
0
  6
CONTINUOUS
 62
     3
 10
87.7759391054511
 20
109.720241993664
 30
0.0
 11
87.7759391054511
 21
113.920241922138
 31
0.0
  0
LINE
  5
   584
  8
0
  6
CONTINUOUS
 62
     3
 10
87.14593911618
 20
109.720241993664
 30
0.0
 11
87.14593911618
 21
113.920241922138
 31
0.0
  0
LINE
  5
   585
  8
0
  6
CONTINUOUS
 62
     3
 10
86.5159391269088
 20
109.720241993664
 30
0.0
 11
86.5159391269088
 21
112.695241943
 31
0.0
  0
LINE
  5
   586
  8
0
  6
CONTINUOUS
 62
     3
 10
85.8859391376376
 20
109.720241993664
 30
0.0
 11
85.8859391376376
 21
112.695241943
 31
0.0
  0
LINE
  5
   587
  8
0
  6
CONTINUOUS
 62
     3
 10
74.4934287223996
 20
23.7252271693967
 30
0.0
 11
73.6184471369232
 21
23.7252271693967
 31
0.0
  0
LINE
  5
   588
  8
0
  6
CONTINUOUS
 62
     3
 10
147.118445885226
 20
23.7252271693967
 30
0.0
 11
147.118445885226
 21
108.075242021678
 31
0.0
  0
LINE
  5
   589
  8
0
  6
CONTINUOUS
 62
     3
 10
147.118445885226
 20
23.7252271693967
 30
0.0
 11
146.243416819333
 21
23.7252271693967
 31
0.0
  0
LINE
  5
   58A
  8
0
  6
CONTINUOUS
 62
     1
 10
141.780940635547
 20
108.425242015717
 30
0.0
 11
141.780940635547
 21
156.270235690617
 31
0.0
  0
LINE
  5
   58B
  8
0
  6
DASHDOT
 62
     7
 10
110.368438720703
 20
121.293629964827
 30
0.0
 11
110.368438720703
 21
182.341027293032
 31
0.0
  0
LINE
  5
   58C
  8
0
  6
CONTINUOUS
 62
     1
 10
147.118445885226
 20
31.3202273070849
 30
0.0
 11
73.6184471369232
 21
31.3202273070849
 31
0.0
  0
LINE
  5
   58D
  8
0
  6
CONTINUOUS
 62
     7
 10
146.680945892676
 20
46.3702270507812
 30
0.0
 11
146.680945892676
 21
46.7202270239591
 31
0.0
  0
LINE
  5
   58E
  8
0
  6
CONTINUOUS
 62
     7
 10
147.118445885226
 20
46.7202270239591
 30
0.0
 11
146.680945892676
 21
46.7202270239591
 31
0.0
  0
LINE
  5
   58F
  8
0
  6
CONTINUOUS
 62
     7
 10
147.118445885226
 20
46.3702270507812
 30
0.0
 11
146.680945892676
 21
46.3702270507812
 31
0.0
  0
LINE
  5
   590
  8
0
  6
CONTINUOUS
 62
     1
 10
138.000944972381
 20
31.3202273070849
 30
0.0
 11
138.000944972381
 21
46.3702270507812
 31
0.0
  0
LINE
  5
   591
  8
0
  6
CONTINUOUS
 62
     1
 10
139.260941746577
 20
31.3202273070849
 30
0.0
 11
139.260941746577
 21
46.3702270507812
 31
0.0
  0
LINE
  5
   592
  8
0
  6
CONTINUOUS
 62
     1
 10
140.52094386135
 20
31.3202273070849
 30
0.0
 11
140.52094386135
 21
46.3702270507812
 31
0.0
  0
LINE
  5
   593
  8
0
  6
CONTINUOUS
 62
     1
 10
141.780940635547
 20
31.3202273070849
 30
0.0
 11
141.780940635547
 21
46.3702270507812
 31
0.0
  0
LINE
  5
   594
  8
0
  6
CONTINUOUS
 62
     1
 10
143.040942750319
 20
31.3202273070849
 30
0.0
 11
143.040942750319
 21
46.3702270507812
 31
0.0
  0
LINE
  5
   595
  8
0
  6
CONTINUOUS
 62
     1
 10
144.300944865092
 20
31.3202273070849
 30
0.0
 11
144.300944865092
 21
46.3702270507812
 31
0.0
  0
LINE
  5
   596
  8
0
  6
CONTINUOUS
 62
     1
 10
145.560941639289
 20
31.3202273070849
 30
0.0
 11
145.560941639289
 21
46.3702270507812
 31
0.0
  0
LINE
  5
   597
  8
0
  6
CONTINUOUS
 62
     1
 10
146.365942693695
 20
31.3202273070849
 30
0.0
 11
146.365942693695
 21
46.3702270507812
 31
0.0
  0
LINE
  5
   598
  8
0
  6
CONTINUOUS
 62
     1
 10
75.1759470436419
 20
31.3202273070849
 30
0.0
 11
75.1759470436419
 21
46.3702270507812
 31
0.0
  0
LINE
  5
   599
  8
0
  6
CONTINUOUS
 62
     1
 10
76.4359468219127
 20
31.3202273070849
 30
0.0
 11
76.4359468219127
 21
46.3702270507812
 31
0.0
  0
LINE
  5
   59A
  8
0
  6
CONTINUOUS
 62
     1
 10
77.6959469339694
 20
31.3202273070849
 30
0.0
 11
77.6959469339694
 21
46.3702270507812
 31
0.0
  0
LINE
  5
   59B
  8
0
  6
CONTINUOUS
 62
     1
 10
78.9559470460261
 20
31.3202273070849
 30
0.0
 11
78.9559470460261
 21
46.3702270507812
 31
0.0
  0
LINE
  5
   59C
  8
0
  6
CONTINUOUS
 62
     1
 10
80.2159438202228
 20
31.3202273070849
 30
0.0
 11
80.2159438202228
 21
46.3702270507812
 31
0.0
  0
LINE
  5
   59D
  8
0
  6
CONTINUOUS
 62
     1
 10
81.4759459349956
 20
31.3202273070849
 30
0.0
 11
81.4759459349956
 21
46.3702270507812
 31
0.0
  0
LINE
  5
   59E
  8
0
  6
CONTINUOUS
 62
     1
 10
82.7359427091922
 20
31.3202273070849
 30
0.0
 11
82.7359427091922
 21
46.3702270507812
 31
0.0
  0
LINE
  5
   59F
  8
0
  6
CONTINUOUS
 62
     1
 10
83.9959426877346
 20
31.3202273070849
 30
0.0
 11
83.9959426877346
 21
40.4739058869414
 31
0.0
  0
LINE
  5
   5A0
  8
0
  6
CONTINUOUS
 62
     1
 10
85.2559426662769
 20
31.3202273070849
 30
0.0
 11
85.2559426662769
 21
40.4202159702797
 31
0.0
  0
LINE
  5
   5A1
  8
0
  6
CONTINUOUS
 62
     1
 10
136.740944993838
 20
31.3202273070849
 30
0.0
 11
136.740944993838
 21
40.4739205845897
 31
0.0
  0
LINE
  5
   5A2
  8
0
  6
CONTINUOUS
 62
     1
 10
135.480945015296
 20
31.3202273070849
 30
0.0
 11
135.480945015296
 21
40.4202159702797
 31
0.0
  0
CIRCLE
  5
   5A3
  8
0
  6
CONTINUOUS
 62
     3
 10
98.1185218284057
 20
111.120236629246
 30
0.0
 40
1.39999997615814
  0
CIRCLE
  5
   5A4
  8
0
  6
CONTINUOUS
 62
     3
 10
122.618355613001
 20
111.120236629246
 30
0.0
 40
1.39999997615814
  0
LINE
  5
   5A5
  8
0
  6
DASHDOT
 62
     7
 10
98.1184275493167
 20
25.6327496578416
 30
0.0
 11
98.1184275493167
 21
30.7077301599721
 31
0.0
  0
LINE
  5
   5A6
  8
0
  6
DASHDOT
 62
     7
 10
100.655917800382
 20
28.1702399089068
 30
0.0
 11
95.5809372982515
 21
28.1702399089068
 31
0.0
  0
LINE
  5
   5A7
  8
0
  6
DASHDOT
 62
     7
 10
134.868438303471
 20
154.036662434991
 30
0.0
 11
134.868438303471
 21
165.617435439991
 31
0.0
  0
LINE
  5
   5A8
  8
0
  6
DASHDOT
 62
     7
 10
73.6185222456383
 20
155.832770471401
 30
0.0
 11
73.6185222456383
 21
163.007770349212
 31
0.0
  0
LINE
  5
   5A9
  8
0
  6
CONTINUOUS
 62
     1
 10
83.7977658898839
 20
108.425242015717
 30
0.0
 11
49.5559475467051
 21
108.425242015717
 31
0.0
  0
LINE
  5
   5AA
  8
0
  6
CONTINUOUS
 62
     1
 10
83.7684418439865
 20
108.075242021678
 30
0.0
 11
73.6184471369232
 21
108.075242021678
 31
0.0
  0
LINE
  5
   5AB
  8
0
  6
CONTINUOUS
 62
     1
 10
83.7684418439865
 20
107.970236513161
 30
0.0
 11
49.5559475467051
 21
107.970236513161
 31
0.0
  0
TEXT
  5
   5AC
  8
0
  6
CONTINUOUS
 62
     7
 10
109.152197090848
 20
182.32318605681
 30
0.0
 40
2.99999997871263
  1
Y
 50
359.999999948034
 41
0.91666663951344
 72
     1
 11
110.252197060057
 21
183.823186045174
 31
0.0
 73
     2
  0
TEXT
  5
   5AD
  8
0
  6
CONTINUOUS
 62
     7
 10
166.79500708459
 20
72.9752780433138
 30
0.0
 40
2.99999997871263
  1
X
 50
359.999999948034
 41
0.91666663951344
 72
     1
 11
167.895007053799
 21
74.4752780316779
 31
0.0
 73
     2
  0
TEXT
  5
   5AE
  8
0
  6
CONTINUOUS
 62
     7
 10
35.6642408225073
 20
72.9752780433138
 30
0.0
 40
2.99999997871263
  1
X
 50
359.999999948034
 41
0.933333333333333
 72
     1
 11
36.7642408160548
 21
74.4752780316779
 31
0.0
 73
     2
  0
TEXT
  5
   5AF
  8
0
  6
CONTINUOUS
 62
     7
 10
176.993753588507
 20
72.9752780433138
 30
0.0
 40
2.99999997871263
  1
X
 50
359.999999948034
 41
0.933333333333333
 72
     1
 11
178.093753582054
 21
74.4752780316779
 31
0.0
 73
     2
  0
INSERT
  5
   5B0
  8
0
  6
CONTINUOUS
 62
     7
  2
*UDIM0
 10
0.0
 20
0.0
 30
0.0
  0
INSERT
  5
   5B1
  8
0
  6
CONTINUOUS
 62
     7
  2
*UDIM1
 10
0.0
 20
0.0
 30
0.0
  0
INSERT
  5
   5B2
  8
0
  6
CONTINUOUS
 62
     7
  2
*UDIM2
 10
0.0
 20
0.0
 30
0.0
  0
INSERT
  5
   5B3
  8
0
  6
CONTINUOUS
 62
     7
  2
*UDIM3
 10
0.0
 20
0.0
 30
0.0
  0
INSERT
  5
   5B4
  8
0
  6
CONTINUOUS
 62
     7
  2
*UDIM4
 10
0.0
 20
0.0
 30
0.0
  0
INSERT
  5
   5B5
  8
0
  6
CONTINUOUS
 62
     7
  2
*UDIM5
 10
0.0
 20
0.0
 30
0.0
  0
INSERT
  5
   5B6
  8
0
  6
CONTINUOUS
 62
     7
  2
*UDIM6
 10
0.0
 20
0.0
 30
0.0
  0
INSERT
  5
   5B7
  8
0
  6
CONTINUOUS
 62
     7
  2
*UDIM7
 10
0.0
 20
0.0
 30
0.0
  0
INSERT
  5
   5B8
  8
0
  6
CONTINUOUS
 62
     7
  2
*UDIM8
 10
0.0
 20
0.0
 30
0.0
  0
TEXT
  5
   5B9
  8
0
  6
CONTINUOUS
 62
     7
 10
109.055038007823
 20
-9.80201618219024
 30
0.0
 40
2.99999997871263
  1
Y
 50
359.999999948034
 41
0.91666663951344
 72
     2
 11
111.255037943535
 21
-9.80201618417452
 31
0.0
  0
INSERT
  5
   5BA
  8
0
  6
CONTINUOUS
 62
     7
  2
*UDIM9
 10
0.0
 20
0.0
 30
0.0
  0
LINE
  5
   5BB
  8
0
  6
DASHDOT
 62
   130
 10
185.563812270761
 20
47.0702484011649
 30
0.0
 11
185.563812270761
 21
123.807851573286
 31
0.0
  0
LINE
  5
   5BC
  8
0
  6
CONTINUOUS
 62
     3
 10
185.913812306523
 20
75.2452479213475
 30
0.0
 11
185.913812306523
 21
79.7952478438615
 31
0.0
  0
LINE
  5
   5BD
  8
0
  6
CONTINUOUS
 62
   130
 10
185.563812604547
 20
161.170246458054
 30
0.0
 11
186.438812255859
 21
161.170246458054
 31
0.0
  0
LINE
  5
   5BE
  8
0
  6
CONTINUOUS
 62
   130
 10
185.563812604547
 20
157.670241177082
 30
0.0
 11
186.438812255859
 21
157.670241177082
 31
0.0
  0
LINE
  5
   5BF
  8
0
  6
CONTINUOUS
 62
   130
 10
185.563812604547
 20
157.670241177082
 30
0.0
 11
185.563812604547
 21
158.138075641771
 31
0.0
  0
LINE
  5
   5C0
  8
0
  6
CONTINUOUS
 62
   130
 10
185.563812604547
 20
158.138107685228
 30
0.0
 11
185.563812604547
 21
158.742949288697
 31
0.0
  0
LINE
  5
   5C1
  8
0
  6
CONTINUOUS
 62
   130
 10
185.563812604547
 20
158.742992013305
 30
0.0
 11
185.563812604547
 21
161.170246124268
 31
0.0
  0
LINE
  5
   5C2
  8
0
  6
CONTINUOUS
 62
     3
 10
186.08881226182
 20
47.0702480673789
 30
0.0
 11
186.438812234998
 21
47.0702480673789
 31
0.0
  0
LINE
  5
   5C3
  8
0
  6
CONTINUOUS
 62
     3
 10
186.08881226182
 20
75.4924418258292
 30
0.0
 11
186.08881226182
 21
79.7952478438615
 31
0.0
  0
LINE
  5
   5C4
  8
0
  6
CONTINUOUS
 62
   130
 10
186.08881226182
 20
152.595246610828
 30
0.0
 11
186.438812255859
 21
152.595241270252
 31
0.0
  0
LINE
  5
   5C5
  8
0
  6
CONTINUOUS
 62
   130
 10
186.438811621232
 20
152.805997561227
 30
0.0
 11
186.438812309665
 21
152.595231726198
 31
0.0
  0
LINE
  5
   5C6
  8
0
  6
CONTINUOUS
 62
   130
 10
186.438812255859
 20
152.595241263509
 30
0.0
 11
186.438812255859
 21
164.845241054893
 31
0.0
  0
LINE
  5
   5C7
  8
0
  6
CONTINUOUS
 62
     3
 10
186.438812234998
 20
47.0702480673789
 30
0.0
 11
202.001240253663
 21
47.0702480673789
 31
0.0
  0
LINE
  5
   5C8
  8
0
  6
CONTINUOUS
 62
     3
 10
186.08881094025
 20
70.0984197241227
 30
0.0
 11
186.438812255859
 21
70.1921990396338
 31
0.0
  0
LINE
  5
   5C9
  8
0
  6
CONTINUOUS
 62
     3
 10
186.088814839416
 20
75.4924368604958
 30
0.0
 11
188.970618365656
 21
74.7202324607835
 31
0.0
  0
LINE
  5
   5CA
  8
0
  6
CONTINUOUS
 62
     3
 10
187.313789810537
 20
74.7202324902584
 30
0.0
 11
219.233789266943
 21
74.720247647852
 31
0.0
  0
LINE
  5
   5CB
  8
0
  6
CONTINUOUS
 62
     3
 10
187.313789810537
 20
70.8702218746382
 30
0.0
 11
219.233789266943
 21
70.870237031379
 31
0.0
  0
LINE
  5
   5CC
  8
0
  6
CONTINUOUS
 62
     3
 10
186.438812255859
 20
70.1921817537386
 30
0.0
 11
186.438812255859
 21
75.2452479213475
 31
0.0
  0
LINE
  5
   5CD
  8
0
  6
DASHDOT
 62
   130
 10
185.563812270761
 20
33.2452432960272
 30
0.0
 11
185.563812270761
 21
172.107850750742
 31
0.0
  0
LINE
  5
   5CE
  8
0
  6
CONTINUOUS
 62
     3
 10
185.563812270761
 20
52.320248311758
 30
0.0
 11
186.088811928034
 21
52.320248311758
 31
0.0
  0
LINE
  5
   5CF
  8
0
  6
CONTINUOUS
 62
     3
 10
185.563812382022
 20
47.070248401165
 30
0.0
 11
186.088812373082
 21
47.070248067379
 31
0.0
  0
LINE
  5
   5D0
  8
0
  6
CONTINUOUS
 62
     3
 10
202.001231832433
 20
47.0702464743405
 30
0.0
 11
202.188792849408
 21
46.3702468509929
 31
0.0
  0
LINE
  5
   5D1
  8
0
  6
CONTINUOUS
 62
     3
 10
202.013806650043
 20
46.3702484130858
 30
0.0
 11
213.388790434599
 21
46.3702484130858
 31
0.0
  0
LINE
  5
   5D2
  8
0
  6
CONTINUOUS
 62
     3
 10
211.463790467382
 20
70.7827266350391
 30
0.0
 11
211.463790467382
 21
70.8702373147012
 31
0.0
  0
LINE
  5
   5D3
  8
0
  6
CONTINUOUS
 62
     3
 10
211.463790467382
 20
74.7202479302882
 30
0.0
 11
211.463790467382
 21
74.8077265664938
 31
0.0
  0
LINE
  5
   5D4
  8
0
  6
CONTINUOUS
 62
     3
 10
211.463790467382
 20
74.8077265664938
 30
0.0
 11
219.233789266943
 21
74.8077265664938
 31
0.0
  0
LINE
  5
   5D5
  8
0
  6
CONTINUOUS
 62
     3
 10
211.463787068712
 20
70.7827246943282
 30
0.0
 11
219.233789266943
 21
70.7826815815471
 31
0.0
  0
LINE
  5
   5D6
  8
0
  6
CONTINUOUS
 62
     3
 10
185.913812598586
 20
79.7952478438615
 30
0.0
 11
186.088812929392
 21
79.7952478438615
 31
0.0
  0
LINE
  5
   5D7
  8
0
  6
CONTINUOUS
 62
     3
 10
185.913812577724
 20
75.2452479213475
 30
0.0
 11
186.438812234998
 21
75.2452479213475
 31
0.0
  0
LINE
  5
   5D8
  8
0
  6
CONTINUOUS
 62
     3
 10
221.088790303468
 20
46.7202323853971
 30
0.0
 11
221.088790303468
 21
54.332732255757
 31
0.0
  0
LINE
  5
   5D9
  8
0
  6
CONTINUOUS
 62
     3
 10
221.088790303468
 20
108.425242015719
 30
0.0
 11
221.088790303468
 21
156.270225179196
 31
0.0
  0
LINE
  5
   5DA
  8
0
  6
CONTINUOUS
 62
     7
 10
219.33879033327
 20
107.97022600174
 30
0.0
 11
221.088790303468
 21
107.97022600174
 31
0.0
  0
LINE
  5
   5DB
  8
0
  6
CONTINUOUS
 62
     3
 10
220.213806607127
 20
46.3702323913576
 30
0.0
 11
220.738790309428
 21
46.3702323913576
 31
0.0
  0
LINE
  5
   5DC
  8
0
  6
CONTINUOUS
 62
     3
 10
221.788790291547
 20
54.332732255757
 30
0.0
 11
221.788790291547
 21
91.0827262893322
 31
0.0
  0
LINE
  5
   5DD
  8
0
  6
CONTINUOUS
 62
     3
 10
221.088790303468
 20
54.332732255757
 30
0.0
 11
221.788790291547
 21
54.332732255757
 31
0.0
  0
LINE
  5
   5DE
  8
0
  6
CONTINUOUS
 62
     3
 10
221.088790303468
 20
91.0827262893322
 30
0.0
 11
221.788790291547
 21
91.0827262893322
 31
0.0
  0
LINE
  5
   5DF
  8
0
  6
CONTINUOUS
 62
     3
 10
212.338790452479
 20
81.1952405217456
 30
0.0
 11
212.338790452479
 21
105.778378964094
 31
0.0
  0
LINE
  5
   5E0
  8
0
  6
CONTINUOUS
 62
     3
 10
212.338789610358
 20
81.1952406621034
 30
0.0
 11
213.388789893991
 21
81.0202353486283
 31
0.0
  0
LINE
  5
   5E1
  8
0
  6
CONTINUOUS
 62
     3
 10
212.338790119387
 20
81.1952380847065
 30
0.0
 11
212.338790453173
 21
81.3702327413131
 31
0.0
  0
LINE
  5
   5E2
  8
0
  6
CONTINUOUS
 62
     3
 10
186.438812255859
 20
163.795253167211
 30
0.0
 11
219.233789266943
 21
163.795225672062
 31
0.0
  0
LINE
  5
   5E3
  8
0
  6
CONTINUOUS
 62
     3
 10
213.388790434598
 20
164.845241054893
 30
0.0
 11
220.038790321349
 21
164.845241054893
 31
0.0
  0
LINE
  5
   5E4
  8
0
  6
CONTINUOUS
 62
     3
 10
213.388790434598
 20
46.3702484130858
 30
0.0
 11
219.338784992694
 21
46.3702484130858
 31
0.0
  0
LINE
  5
   5E5
  8
0
  6
CONTINUOUS
 62
     3
 10
213.388790434598
 20
47.0702430605888
 30
0.0
 11
219.233789266943
 21
47.0702430605888
 31
0.0
  0
LINE
  5
   5E6
  8
0
  6
CONTINUOUS
 62
     3
 10
213.388790434598
 20
46.3702484130858
 30
0.0
 11
213.388790434598
 21
70.7827140132181
 31
0.0
  0
LINE
  5
   5E7
  8
0
  6
CONTINUOUS
 62
     3
 10
220.038790321349
 20
164.845241054893
 30
0.0
 11
220.213790318369
 21
164.845241054893
 31
0.0
  0
LINE
  5
   5E8
  8
0
  6
CONTINUOUS
 62
     3
 10
220.213790318369
 20
156.270241200924
 30
0.0
 11
220.213790318369
 21
164.845241054893
 31
0.0
  0
LINE
  5
   5E9
  8
0
  6
CONTINUOUS
 62
     3
 10
219.233789266943
 20
74.8077265664938
 30
0.0
 11
219.233789266943
 21
163.795225672062
 31
0.0
  0
LINE
  5
   5EA
  8
0
  6
CONTINUOUS
 62
     3
 10
219.233789266943
 20
47.0702430605888
 30
0.0
 11
219.233789266943
 21
70.7826815815471
 31
0.0
  0
LINE
  5
   5EB
  8
0
  6
CONTINUOUS
 62
     3
 10
220.738790309428
 20
107.970236682892
 30
0.0
 11
221.088790303468
 21
107.970236682892
 31
0.0
  0
LINE
  5
   5EC
  8
0
  6
CONTINUOUS
 62
     3
 10
221.088790303468
 20
91.0827369704844
 30
0.0
 11
221.788790291547
 21
91.0827369704844
 31
0.0
  0
LINE
  5
   5ED
  8
0
  6
CONTINUOUS
 62
     3
 10
219.33879033327
 20
46.3702323913576
 30
0.0
 11
219.33879033327
 21
107.97022600174
 31
0.0
  0
LINE
  5
   5EE
  8
0
  6
CONTINUOUS
 62
     3
 10
219.233790902417
 20
66.8277274454695
 30
0.0
 11
219.338791965319
 21
66.8092136759159
 31
0.0
  0
LINE
  5
   5EF
  8
0
  6
CONTINUOUS
 62
     3
 10
219.233791178812
 20
47.0702484142553
 30
0.0
 11
219.338786899098
 21
47.0011520451384
 31
0.0
  0
LINE
  5
   5F0
  8
0
  6
CONTINUOUS
 62
     3
 10
219.233787542437
 20
78.7627307416329
 30
0.0
 11
219.338788605068
 21
78.781246517432
 31
0.0
  0
LINE
  5
   5F1
  8
0
  6
CONTINUOUS
 62
     3
 10
219.233787811609
 20
153.407860337838
 30
0.0
 11
219.338783531472
 21
153.363159722135
 31
0.0
  0
LINE
  5
   5F2
  8
0
  6
CONTINUOUS
 62
     3
 10
219.233793520182
 20
154.932621867277
 30
0.0
 11
219.338789245464
 21
154.977317142693
 31
0.0
  0
LINE
  5
   5F3
  8
0
  6
CONTINUOUS
 62
     2
 10
185.563812270761
 20
26.420243412256
 30
0.0
 11
186.263806918264
 21
26.420243412256
 31
0.0
  0
LINE
  5
   5F4
  8
0
  6
CONTINUOUS
 62
     2
 10
185.563812270761
 20
26.420243412256
 30
0.0
 11
185.563812270761
 21
33.2452432960272
 31
0.0
  0
LINE
  5
   5F5
  8
0
  6
CONTINUOUS
 62
     2
 10
220.213806340099
 20
22.7452434748409
 30
0.0
 11
220.213806340099
 21
31.1452379912137
 31
0.0
  0
LINE
  5
   5F6
  8
0
  6
CONTINUOUS
 62
     3
 10
185.563806930184
 20
21.6952402512365
 30
0.0
 11
185.563806930184
 21
46.8952430635688
 31
0.0
  0
LINE
  5
   5F7
  8
0
  6
CONTINUOUS
 62
     2
 10
219.233806623817
 20
31.1452379912137
 30
0.0
 11
220.213806340099
 21
31.1452379912137
 31
0.0
  0
LINE
  5
   5F8
  8
0
  6
CONTINUOUS
 62
     3
 10
219.233806623817
 20
23.7252445262668
 30
0.0
 11
219.233806623817
 21
31.1452379912137
 31
0.0
  0
LINE
  5
   5F9
  8
0
  6
CONTINUOUS
 62
     3
 10
202.013806650043
 20
46.3702377319335
 30
0.0
 11
202.013806650043
 21
46.8952430635688
 31
0.0
  0
LINE
  5
   5FA
  8
0
  6
CONTINUOUS
 62
     2
 10
219.233806623817
 20
32.5452379673718
 30
0.0
 11
219.233806623817
 21
46.3702377319335
 31
0.0
  0
LINE
  5
   5FB
  8
0
  6
CONTINUOUS
 62
     2
 10
186.263806918264
 20
22.7452434748419
 30
0.0
 11
186.263806918264
 21
26.420243412256
 31
0.0
  0
LINE
  5
   5FC
  8
0
  6
CONTINUOUS
 62
     7
 10
221.088806592226
 20
32.5452377976411
 30
0.0
 11
221.088806592226
 21
46.195237565183
 31
0.0
  0
LINE
  5
   5FD
  8
0
  6
CONTINUOUS
 62
     7
 10
219.233806623817
 20
46.195237565183
 30
0.0
 11
220.213806607127
 21
46.195237565183
 31
0.0
  0
LINE
  5
   5FE
  8
0
  6
CONTINUOUS
 62
     7
 10
219.233806623817
 20
32.5452377976411
 30
0.0
 11
221.088806592226
 21
32.5452377976411
 31
0.0
  0
LINE
  5
   5FF
  8
0
  6
CONTINUOUS
 62
     7
 10
220.213806607127
 20
32.5452377976411
 30
0.0
 11
220.213806607127
 21
46.195237565183
 31
0.0
  0
LINE
  5
   600
  8
0
  6
CONTINUOUS
 62
     3
 10
213.388790434598
 20
74.8077265664938
 30
0.0
 11
213.388790434598
 21
81.0202211201195
 31
0.0
  0
LINE
  5
   601
  8
0
  6
CONTINUOUS
 62
     3
 10
219.233789266943
 20
70.870237031379
 30
0.0
 11
219.233789266943
 21
74.720247647852
 31
0.0
  0
LINE
  5
   602
  8
0
  6
CONTINUOUS
 62
     3
 10
187.313789810537
 20
70.870237031379
 30
0.0
 11
187.313789810537
 21
74.7202324902584
 31
0.0
  0
LINE
  5
   603
  8
0
  6
DASHDOT
 62
     7
 10
184.513806948066
 20
21.6952402512365
 30
0.0
 11
184.513806948066
 21
171.962430069427
 31
0.0
  0
LINE
  5
   604
  8
0
  6
CONTINUOUS
 62
     3
 10
186.438812255859
 20
70.1921990396338
 30
0.0
 11
188.969342408244
 21
70.870229021201
 31
0.0
  0
LINE
  5
   605
  8
0
  6
CONTINUOUS
 62
     3
 10
186.438812255859
 20
75.2452479213475
 30
0.0
 11
186.438812255859
 21
75.3986559692721
 31
0.0
  0
LINE
  5
   606
  8
0
  6
CONTINUOUS
 62
     3
 10
186.08881226182
 20
115.495241895319
 30
0.0
 11
186.08881226182
 21
151.549011530694
 31
0.0
  0
LINE
  5
   607
  8
0
  6
CONTINUOUS
 62
     3
 10
186.08881226182
 20
52.320248311758
 30
0.0
 11
186.08881226182
 21
70.0984172594858
 31
0.0
  0
LINE
  5
   608
  8
0
  6
CONTINUOUS
 62
     2
 10
219.233806623817
 20
31.1452379912137
 30
0.0
 11
219.233806623817
 21
32.5452379673718
 31
0.0
  0
LINE
  5
   609
  8
0
  6
CONTINUOUS
 62
   130
 10
186.438812255859
 20
164.845241054893
 30
0.0
 11
213.388811796904
 21
164.845241054893
 31
0.0
  0
LINE
  5
   60A
  8
0
  6
DASHDOT
 62
   218
 10
179.331620329686
 20
159.420225125552
 30
0.0
 11
185.991401071039
 21
159.420225125552
 31
0.0
  0
LINE
  5
   60B
  8
0
  6
CONTINUOUS
 62
     7
 10
183.113806971908
 20
109.720225971937
 30
0.0
 11
183.113806971908
 21
112.520225924254
 31
0.0
  0
LINE
  5
   60C
  8
0
  6
CONTINUOUS
 62
     7
 10
181.71380699575
 20
110.245225962997
 30
0.0
 11
181.71380699575
 21
111.995225933194
 31
0.0
  0
LINE
  5
   60D
  8
0
  6
CONTINUOUS
 62
     7
 10
183.113806971908
 20
112.520225924254
 30
0.0
 11
184.513806948066
 21
112.520225924254
 31
0.0
  0
LINE
  5
   60E
  8
0
  6
CONTINUOUS
 62
     7
 10
183.113806971908
 20
109.720225971937
 30
0.0
 11
184.513806948066
 21
109.720225971937
 31
0.0
  0
LINE
  5
   60F
  8
0
  6
CONTINUOUS
 62
     7
 10
181.71380699575
 20
111.995225933194
 30
0.0
 11
184.513806948066
 21
111.995225933194
 31
0.0
  0
LINE
  5
   610
  8
0
  6
CONTINUOUS
 62
     7
 10
181.71380699575
 20
110.245225962997
 30
0.0
 11
184.513806948066
 21
110.245225962997
 31
0.0
  0
LINE
  5
   611
  8
0
  6
CONTINUOUS
 62
     7
 10
183.113806971908
 20
29.5702273368838
 30
0.0
 11
184.513806948066
 21
29.5702273368838
 31
0.0
  0
LINE
  5
   612
  8
0
  6
CONTINUOUS
 62
     7
 10
181.71380699575
 20
29.0452273458245
 30
0.0
 11
184.513806948066
 21
29.0452273458245
 31
0.0
  0
LINE
  5
   613
  8
0
  6
CONTINUOUS
 62
     7
 10
181.71380699575
 20
27.2952273756268
 30
0.0
 11
184.513806948066
 21
27.2952273756268
 31
0.0
  0
LINE
  5
   614
  8
0
  6
CONTINUOUS
 62
     7
 10
183.113806971908
 20
26.7702273845675
 30
0.0
 11
184.513806948066
 21
26.7702273845675
 31
0.0
  0
LINE
  5
   615
  8
0
  6
CONTINUOUS
 62
     7
 10
183.113806971908
 20
26.7702273845675
 30
0.0
 11
183.113806971908
 21
29.5702273368838
 31
0.0
  0
LINE
  5
   616
  8
0
  6
CONTINUOUS
 62
     7
 10
181.71380699575
 20
27.2952273756268
 30
0.0
 11
181.71380699575
 21
29.0452273458245
 31
0.0
  0
LINE
  5
   617
  8
0
  6
CONTINUOUS
 62
     3
 10
221.088790303468
 20
91.0827262893322
 30
0.0
 11
221.088790303468
 21
107.97022600174
 31
0.0
  0
LINE
  5
   618
  8
0
  6
CONTINUOUS
 62
     3
 10
220.213790318369
 20
156.270241200924
 30
0.0
 11
221.088790303468
 21
156.270241200924
 31
0.0
  0
LINE
  5
   619
  8
0
  6
CONTINUOUS
 62
     7
 10
219.33879033327
 20
108.07524202168
 30
0.0
 11
219.33879033327
 21
164.845241054893
 31
0.0
  0
LINE
  5
   61A
  8
0
  6
CONTINUOUS
 62
     7
 10
219.33879033327
 20
108.07524202168
 30
0.0
 11
220.738790309428
 21
108.07524202168
 31
0.0
  0
LINE
  5
   61B
  8
0
  6
CONTINUOUS
 62
     7
 10
219.33879033327
 20
108.425242015719
 30
0.0
 11
220.738790309428
 21
108.425242015719
 31
0.0
  0
LINE
  5
   61C
  8
0
  6
CONTINUOUS
 62
     3
 10
220.738790309428
 20
107.970236682892
 30
0.0
 11
220.738790309428
 21
108.425242015719
 31
0.0
  0
LINE
  5
   61D
  8
0
  6
CONTINUOUS
 62
     3
 10
186.08881226182
 20
115.495241895319
 30
0.0
 11
219.33879033327
 21
115.495241895319
 31
0.0
  0
LINE
  5
   61E
  8
0
  6
CONTINUOUS
 62
     3
 10
213.388790434598
 20
105.870242059232
 30
0.0
 11
213.388790434598
 21
117.070241868497
 31
0.0
  0
LINE
  5
   61F
  8
0
  6
CONTINUOUS
 62
     3
 10
212.338790452479
 20
117.070241868497
 30
0.0
 11
213.388790434598
 21
117.070241868497
 31
0.0
  0
LINE
  5
   620
  8
0
  6
CONTINUOUS
 62
     3
 10
212.338790452479
 20
117.070241868497
 30
0.0
 11
212.338790452479
 21
153.120241254569
 31
0.0
  0
LINE
  5
   621
  8
0
  6
CONTINUOUS
 62
     3
 10
212.338790452479
 20
153.120241254569
 30
0.0
 11
213.388790434598
 21
153.120241254569
 31
0.0
  0
LINE
  5
   622
  8
0
  6
CONTINUOUS
 62
     3
 10
213.388790434598
 20
153.120241254569
 30
0.0
 11
213.388790434598
 21
164.845241054893
 31
0.0
  0
LINE
  5
   623
  8
0
  6
CONTINUOUS
 62
     3
 10
212.338790452479
 20
105.778378964094
 30
0.0
 11
213.388790434598
 21
105.870242059232
 31
0.0
  0
LINE
  5
   624
  8
0
  6
CONTINUOUS
 62
     7
 10
183.113806971908
 20
160.82022510171
 30
0.0
 11
184.513806948066
 21
160.82022510171
 31
0.0
  0
LINE
  5
   625
  8
0
  6
CONTINUOUS
 62
     7
 10
181.71380699575
 20
160.29522511065
 30
0.0
 11
184.513806948066
 21
160.29522511065
 31
0.0
  0
LINE
  5
   626
  8
0
  6
CONTINUOUS
 62
     7
 10
181.71380699575
 20
158.545225140453
 30
0.0
 11
181.71380699575
 21
160.29522511065
 31
0.0
  0
LINE
  5
   627
  8
0
  6
CONTINUOUS
 62
     7
 10
181.71380699575
 20
158.545225140453
 30
0.0
 11
184.513806948066
 21
158.545225140453
 31
0.0
  0
LINE
  5
   628
  8
0
  6
CONTINUOUS
 62
     7
 10
183.113806971908
 20
158.020225149393
 30
0.0
 11
184.513806948066
 21
158.020225149393
 31
0.0
  0
LINE
  5
   629
  8
0
  6
CONTINUOUS
 62
     7
 10
183.113806971908
 20
158.020225149393
 30
0.0
 11
183.113806971908
 21
160.82022510171
 31
0.0
  0
LINE
  5
   62A
  8
0
  6
DASHDOT
 62
   218
 10
179.331620329686
 20
111.120225948096
 30
0.0
 11
185.991401071039
 21
111.120225948096
 31
0.0
  0
LINE
  5
   62B
  8
0
  6
CONTINUOUS
 62
     3
 10
185.563812604547
 20
112.870247280598
 30
0.0
 11
186.438812255859
 21
112.870247280598
 31
0.0
  0
LINE
  5
   62C
  8
0
  6
CONTINUOUS
 62
     3
 10
185.563812604547
 20
109.370241999626
 30
0.0
 11
186.438812255859
 21
109.370241999626
 31
0.0
  0
LINE
  5
   62D
  8
0
  6
CONTINUOUS
 62
     3
 10
186.438812255859
 20
104.295242086053
 30
0.0
 11
186.438812255859
 21
115.495241895319
 31
0.0
  0
LINE
  5
   62E
  8
0
  6
CONTINUOUS
 62
     3
 10
186.08881226182
 20
104.295247433372
 30
0.0
 11
186.438812255859
 21
104.295242092796
 31
0.0
  0
LINE
  5
   62F
  8
0
  6
CONTINUOUS
 62
     3
 10
186.08881226182
 20
79.7952478438615
 30
0.0
 11
186.08881226182
 21
104.295247426629
 31
0.0
  0
LINE
  5
   630
  8
0
  6
CONTINUOUS
 62
   130
 10
186.08881226182
 20
151.549011530694
 30
0.0
 11
186.08881226182
 21
152.595246604085
 31
0.0
  0
LINE
  5
   631
  8
0
  6
CONTINUOUS
 62
     3
 10
219.33879033327
 20
46.7202323853971
 30
0.0
 11
220.738790309428
 21
46.7202323853971
 31
0.0
  0
LINE
  5
   632
  8
0
  6
CONTINUOUS
 62
     3
 10
220.738790309428
 20
46.3702323913576
 30
0.0
 11
220.738790309428
 21
46.7202323853971
 31
0.0
  0
LINE
  5
   633
  8
0
  6
CONTINUOUS
 62
     3
 10
220.738790309428
 20
108.425242015719
 30
0.0
 11
221.088790303468
 21
108.425242015719
 31
0.0
  0
LINE
  5
   634
  8
0
  6
CONTINUOUS
 62
     3
 10
220.738790309428
 20
46.7202323853971
 30
0.0
 11
221.088790303468
 21
46.7202323853971
 31
0.0
  0
LINE
  5
   635
  8
0
  6
CONTINUOUS
 62
     3
 10
220.213806607127
 20
46.195237565183
 30
0.0
 11
220.213806607127
 21
46.3702323913576
 31
0.0
  0
LINE
  5
   636
  8
0
  6
CONTINUOUS
 62
     7
 10
220.213806607127
 20
46.195237565183
 30
0.0
 11
221.088806592226
 21
46.195237565183
 31
0.0
  0
LINE
  5
   637
  8
0
  6
CONTINUOUS
 62
     7
 10
219.233806623817
 20
46.3702375622027
 30
0.0
 11
220.213806607127
 21
46.3702375622027
 31
0.0
  0
LINE
  5
   638
  8
0
  6
CONTINUOUS
 62
     3
 10
186.08881226182
 20
115.495241895319
 30
0.0
 11
186.438812255859
 21
115.495241895319
 31
0.0
  0
LINE
  5
   639
  8
0
  6
CONTINUOUS
 62
     7
 10
219.33879033327
 20
156.270241200924
 30
0.0
 11
220.213790318369
 21
156.270241200924
 31
0.0
  0
LINE
  5
   63A
  8
0
  6
CONTINUOUS
 62
     2
 10
186.263806918264
 20
22.7452434748409
 30
0.0
 11
220.213806340099
 21
22.7452434748409
 31
0.0
  0
LINE
  5
   63B
  8
0
  6
CONTINUOUS
 62
     3
 10
186.263806918264
 20
23.7252445262668
 30
0.0
 11
219.233806623817
 21
23.7252445262668
 31
0.0
  0
LINE
  5
   63C
  8
0
  6
CONTINUOUS
 62
     1
 10
235.438591760846
 20
109.020228897548
 30
0.0
 11
236.663591739984
 21
109.020225498995
 31
0.0
  0
LINE
  5
   63D
  8
0
  6
CONTINUOUS
 62
     1
 10
235.438591760846
 20
40.4202300655353
 30
0.0
 11
236.663591739984
 21
40.4202266669823
 31
0.0
  0
LINE
  5
   63E
  8
0
  6
CONTINUOUS
 62
     1
 10
234.738591772767
 20
50.0452318436898
 30
0.0
 11
236.663591739984
 21
50.0452265031066
 31
0.0
  0
LINE
  5
   63F
  8
0
  6
CONTINUOUS
 62
     1
 10
234.738591772767
 20
99.3952310034543
 30
0.0
 11
236.663591739984
 21
99.395225662871
 31
0.0
  0
LINE
  5
   640
  8
0
  6
CONTINUOUS
 62
     1
 10
234.738591772767
 20
100.095230991536
 30
0.0
 11
235.438591760846
 21
100.095229049506
 31
0.0
  0
LINE
  5
   641
  8
0
  6
CONTINUOUS
 62
     1
 10
234.738591772767
 20
49.5202318526372
 30
0.0
 11
235.438591760846
 21
49.5202299106069
 31
0.0
  0
LINE
  5
   642
  8
0
  6
CONTINUOUS
 62
     7
 10
234.738590801752
 20
49.170231858599
 30
0.0
 11
235.438590789831
 21
49.1702299165688
 31
0.0
  0
LINE
  5
   643
  8
0
  6
CONTINUOUS
 62
     1
 10
234.738592743782
 20
100.445230985574
 30
0.0
 11
235.438592731861
 21
100.445229043544
 31
0.0
  0
LINE
  5
   644
  8
0
  6
DASHDOT
 62
     2
 10
181.37871118677
 20
74.7203794614364
 30
0.0
 11
260.209912543065
 21
74.7201607577481
 31
0.0
  0
LINE
  5
   645
  8
0
  6
CONTINUOUS
 62
   212
 10
221.088790303468
 20
99.2202688754827
 30
0.0
 11
236.31359271696
 21
99.2202266368717
 31
0.0
  0
LINE
  5
   646
  8
0
  6
CONTINUOUS
 62
   212
 10
221.088790303468
 20
50.2202697097591
 30
0.0
 11
236.31359077493
 21
50.2202274711536
 31
0.0
  0
LINE
  5
   647
  8
0
  6
CONTINUOUS
 62
   212
 10
236.663591739984
 20
47.6827275143656
 30
0.0
 11
236.663591739984
 21
72.605990288617
 31
0.0
  0
ARC
  5
   648
  8
0
  6
CONTINUOUS
 62
   212
 10
236.313591745945
 20
50.5702274651918
 30
0.0
 40
0.349999994039536
 50
269.999841042657
 51
360.0
  0
ARC
  5
   649
  8
0
  6
CONTINUOUS
 62
   212
 10
236.313591745945
 20
98.8702266428335
 30
0.0
 40
0.349999994039536
 50
0.0
 51
89.999841042657
  0
LINE
  5
   64A
  8
0
  6
CONTINUOUS
 62
     7
 10
226.163795557616
 20
50.2202556300248
 30
0.0
 11
226.163795557616
 21
99.2202547957484
 31
0.0
  0
LINE
  5
   64B
  8
0
  6
CONTINUOUS
 62
     1
 10
234.738591772767
 20
99.2202310064425
 30
0.0
 11
234.738591772767
 21
100.095230991536
 31
0.0
  0
LINE
  5
   64C
  8
0
  6
CONTINUOUS
 62
     1
 10
235.438591760846
 20
40.4202300655353
 30
0.0
 11
235.438591760846
 21
49.5202299106069
 31
0.0
  0
LINE
  5
   64D
  8
0
  6
CONTINUOUS
 62
     1
 10
236.663591739984
 20
40.4202266669823
 30
0.0
 11
236.663591739984
 21
109.020225498995
 31
0.0
  0
LINE
  5
   64E
  8
0
  6
CONTINUOUS
 62
     7
 10
235.438591760846
 20
109.020228897548
 30
0.0
 11
235.438591760846
 21
164.28614635423
 31
0.0
  0
LINE
  5
   64F
  8
0
  6
CONTINUOUS
 62
     7
 10
235.438591760846
 20
18.1211575827187
 30
0.0
 11
235.438591760846
 21
40.4202300655353
 31
0.0
  0
LINE
  5
   650
  8
0
  6
CONTINUOUS
 62
     7
 10
234.738591772767
 20
99.2202310064425
 30
0.0
 11
234.738591772767
 21
164.502082023067
 31
0.0
  0
LINE
  5
   651
  8
0
  6
CONTINUOUS
 62
     7
 10
234.738591772767
 20
17.7119885352456
 30
0.0
 11
234.738591772767
 21
50.220231840719
 31
0.0
  0
INSERT
  5
   652
  8
0
  6
CONTINUOUS
 62
     7
  2
*HATCH0
 10
186.438812255859
 20
46.3702430725098
 30
0.0
 41
0.349999994039536
 42
0.349999994039536
 43
0.349999994039536
  0
INSERT
  5
   653
  8
0
  6
CONTINUOUS
 62
     7
  2
*HATCH1
 10
186.438812255859
 20
46.3702430725098
 30
0.0
 41
0.349999994039536
 42
0.349999994039536
 43
0.349999994039536
  0
LINE
  5
   654
  8
0
  6
CONTINUOUS
 62
     7
 10
236.663591739984
 20
79.4452541694226
 30
0.0
 11
238.413591710182
 21
79.4452541694226
 31
0.0
  0
LINE
  5
   655
  8
0
  6
CONTINUOUS
 62
     7
 10
236.663591739984
 20
69.9952556575921
 30
0.0
 11
238.413591710182
 21
69.9952556575921
 31
0.0
  0
LINE
  5
   656
  8
0
  6
CONTINUOUS
 62
     7
 10
238.413591710182
 20
69.9952556575921
 30
0.0
 11
238.413591710182
 21
79.4452541694226
 31
0.0
  0
LINE
  5
   657
  8
0
  6
CONTINUOUS
 62
     7
 10
231.413592496963
 20
99.74523099752
 30
0.0
 11
232.288594484778
 21
99.74523099752
 31
0.0
  0
LINE
  5
   658
  8
0
  6
CONTINUOUS
 62
     7
 10
231.413592496963
 20
99.74523099752
 30
0.0
 11
231.413592496963
 21
103.420230934935
 31
0.0
  0
LINE
  5
   659
  8
0
  6
CONTINUOUS
 62
     7
 10
232.638594478818
 20
104.645230914074
 30
0.0
 11
233.513594463917
 21
104.645230914074
 31
0.0
  0
LINE
  5
   65A
  8
0
  6
CONTINUOUS
 62
     7
 10
233.863594457956
 20
104.995230908113
 30
0.0
 11
233.863594457956
 21
107.795230860429
 31
0.0
  0
LINE
  5
   65B
  8
0
  6
CONTINUOUS
 62
     7
 10
233.863594457956
 20
107.795230860429
 30
0.0
 11
234.738591772767
 21
107.795230860429
 31
0.0
  0
LINE
  5
   65C
  8
0
  6
CONTINUOUS
 62
     7
 10
232.638594478818
 20
103.770230928975
 30
0.0
 11
233.513594463917
 21
103.770230928975
 31
0.0
  0
LINE
  5
   65D
  8
0
  6
CONTINUOUS
 62
     7
 10
232.288594484778
 20
99.74523099752
 30
0.0
 11
232.288594484778
 21
103.420230934935
 31
0.0
  0
ARC
  5
   65E
  8
0
  6
CONTINUOUS
 62
     7
 10
233.513595915465
 20
104.995230673145
 30
0.0
 40
0.349998936269242
 50
269.99984089121
 51
360.00025299209
  0
ARC
  5
   65F
  8
0
  6
CONTINUOUS
 62
     7
 10
232.638599607545
 20
103.420226494729
 30
0.0
 40
1.2250064377287
 50
90.000186890172
 51
179.999680705376
  0
ARC
  5
   660
  8
0
  6
CONTINUOUS
 62
     7
 10
232.638578991966
 20
103.420245248109
 30
0.0
 40
0.349982431475061
 50
89.997764198722
 51
180.00116981594
  0
ARC
  5
   661
  8
0
  6
CONTINUOUS
 62
     7
 10
233.51360123725
 20
104.995219691686
 30
0.0
 40
1.22498984871903
 50
269.999653399338
 51
360.000420324806
  0
LINE
  5
   662
  8
0
  6
CONTINUOUS
 62
     7
 10
232.81359180555
 20
101.670236305312
 30
0.0
 11
233.513591793629
 21
101.670234363282
 31
0.0
  0
LINE
  5
   663
  8
0
  6
CONTINUOUS
 62
     7
 10
233.513591793629
 20
99.2202344049955
 30
0.0
 11
233.513591793629
 21
101.670234363282
 31
0.0
  0
LINE
  5
   664
  8
0
  6
CONTINUOUS
 62
     7
 10
232.81359180555
 20
99.2202344049955
 30
0.0
 11
232.81359180555
 21
101.670234363282
 31
0.0
  0
LINE
  5
   665
  8
0
  6
CONTINUOUS
 62
     1
 10
235.438591760846
 20
100.095229049506
 30
0.0
 11
235.438591760846
 21
109.020228897548
 31
0.0
  0
LINE
  5
   666
  8
0
  6
CONTINUOUS
 62
     7
 10
232.671350362472
 20
165.139783686184
 30
0.0
 11
237.53353190389
 21
163.639900198993
 31
0.0
  0
LINE
  5
   667
  8
0
  6
CONTINUOUS
 62
     7
 10
233.325327996697
 20
16.8858973882021
 30
0.0
 11
238.287027873759
 21
19.7861460269428
 31
0.0
  0
INSERT
  5
   668
  8
0
  6
CONTINUOUS
 62
     7
  2
*HATCH2
 10
186.438812255859
 20
46.3702430725098
 30
0.0
 41
0.349999994039536
 42
0.349999994039536
 43
0.349999994039536
  0
INSERT
  5
   669
  8
0
  6
CONTINUOUS
 62
     7
  2
*HATCH3
 10
186.438812255859
 20
46.3702430725098
 30
0.0
 41
0.349999994039536
 42
0.349999994039536
 43
0.349999994039536
  0
INSERT
  5
   66A
  8
0
  6
CONTINUOUS
 62
     7
  2
*HATCH4
 10
186.438812255859
 20
46.3702430725098
 30
0.0
 41
0.349999994039536
 42
0.349999994039536
 43
0.349999994039536
  0
TEXT
  5
   66B
  8
0
  6
CONTINUOUS
 62
     1
 10
233.05940246582
 20
-195.708282449416
 30
0.0
 40
2.99999997871263
  1
   S6X IV
 41
0.91666663951344
 72
     2
 11
257.259401593748
 21
-195.708282449416
 31
0.0
  0
TEXT
  5
   66C
  8
0
  6
CONTINUOUS
 62
     7
 10
262.554739130199
 20
72.9752780423216
 30
0.0
 40
2.99999997871263
  1
X
 41
0.91666663951344
 72
     1
 11
263.654739098055
 21
74.4752780316779
 31
0.0
 73
     2
  0
TEXT
  5
   66D
  8
0
  6
CONTINUOUS
 62
     1
 10
219.724979222875
 20
-177.398010271149
 30
0.0
 40
2.00000003448554
  1
4POLE LOW VOLTAGE M.C.C.B SER.ISOMAX SUPERLIMIT.
 41
0.649999976158142
 72
     1
 11
250.774978637695
 21
-176.398010253906
 31
0.0
 73
     2
  0
TEXT
  5
   66E
  8
0
  6
CONTINUOUS
 62
     1
 10
224.324978647583
 20
-180.398010271149
 30
0.0
 40
2.00000003448554
  1
FIXED VERSION EXTENDED FRONT TERMINALS
 41
0.699999987110495
 72
     1
 11
250.774978637695
 21
-179.398010253906
 31
0.0
 73
     2
  0
TEXT
  5
   66F
  8
0
  6
CONTINUOUS
 62
     1
 10
212.877375726881
 20
-185.468276994782
 30
0.0
 40
2.00000003448554
  1
INTERR.AUTOMATICO SERIE ISOMAX SUPERLIMITATORE
 41
0.749999888539317
 72
     1
 11
247.22737121582
 21
-184.468276977539
 31
0.0
 73
     2
  0
TEXT
  5
   670
  8
0
  6
CONTINUOUS
 62
     1
 10
219.627374840123
 20
-188.468276994782
 30
0.0
 40
2.00000003448554
  1
TRIPOLARE  FISSO FRONTALE PER BLOCCHI
 41
0.749999888539317
 72
     1
 11
247.22737121582
 21
-187.468276977539
 31
0.0
 73
     2
  0
TEXT
  5
   671
  8
0
  6
CONTINUOUS
 62
     1
 10
130.357192993164
 20
-178.689422641907
 30
0.0
 40
2.00000003448554
  1
96-11-14 ZANCHI.
 41
0.749999888539317
 72
     2
 11
154.05718988276
 21
-178.689422641907
 31
0.0
  0
TEXT
  5
   672
  8
0
  6
CONTINUOUS
 62
     1
 10
162.6225813142
 20
-193.442703264313
 30
0.0
 40
2.00000003448554
  1
M4371 97-07-07
 41
0.749999888539317
 72
     1
 11
172.972579956055
 21
-192.44270324707
 31
0.0
 73
     2
  0
LINE
  5
   673
  8
0
  6
DASHDOT
 62
     2
 10
179.302437668225
 20
28.1702273607257
 30
0.0
 11
188.635356078111
 21
28.1702273607257
 31
0.0
  0
INSERT
  5
   674
  8
0
  6
CONTINUOUS
 62
     7
  2
*UDIM10
 10
0.0
 20
0.0
 30
0.0
  0
INSERT
  5
   675
  8
0
  6
CONTINUOUS
 62
     7
  2
*UDIM11
 10
0.0
 20
0.0
 30
0.0
  0
INSERT
  5
   676
  8
0
  6
CONTINUOUS
 62
     7
  2
*UDIM12
 10
0.0
 20
0.0
 30
0.0
  0
INSERT
  5
   677
  8
0
  6
CONTINUOUS
 62
     7
  2
*UDIM13
 10
0.0
 20
0.0
 30
0.0
  0
INSERT
  5
   678
  8
0
  6
CONTINUOUS
 62
     7
  2
*UDIM14
 10
0.0
 20
0.0
 30
0.0
  0
TEXT
  5
   679
  8
0
  6
CONTINUOUS
 62
     1
 10
136.882583843682
 20
-193.442695395769
 30
0.0
 40
2.00000003448554
  1
M 4352 96-12-17
 41
0.749999888539317
 72
     1
 11
147.982582387009
 21
-192.442695378526
 31
0.0
 73
     2
  0
TEXT
  5
   67A
  8
0
  6
CONTINUOUS
 62
     1
 10
231.973706979957
 20
-204.689867759807
 30
0.0
 40
4.00000006897109
  1
605031/131
 41
0.937499981746078
 72
     2
 11
268.723706883472
 21
-204.689867759807
 31
0.0
  0
LINE
  5
   67B
  8
0
  6
DASHDOT
 62
     2
 10
254.15278659887
 20
-57.8064831234515
 30
0.0
 11
235.671252693255
 21
-57.8064831234515
 31
0.0
  0
LINE
  5
   67C
  8
0
  6
DASHDOT
 62
     2
 10
254.911357020369
 20
-105.206483829767
 30
0.0
 11
235.533330798437
 21
-105.206483829767
 31
0.0
  0
LINE
  5
   67D
  8
0
  6
DASHDOT
 62
     2
 10
224.23576323688
 20
-27.0167936426885
 30
0.0
 11
224.23576323688
 21
-107.318414700452
 31
0.0
  0
LINE
  5
   67E
  8
0
  6
DASHDOT
 62
     2
 10
252.235763654113
 20
-27.2392176727122
 30
0.0
 11
252.235763654113
 21
-107.180492805634
 31
0.0
  0
LINE
  5
   67F
  8
0
  6
DASHDOT
 62
     2
 10
245.235763549805
 20
-52.3788757042863
 30
0.0
 11
245.235763549805
 21
-112.236978055308
 31
0.0
  0
CIRCLE
  5
   680
  8
0
  6
CONTINUOUS
 62
     7
 10
252.235763654113
 20
-57.8064831234515
 30
0.0
 40
0.550000008195639
  0
CIRCLE
  5
   681
  8
0
  6
CONTINUOUS
 62
     7
 10
224.23576323688
 20
-57.8064831234515
 30
0.0
 40
0.550000008195639
  0
CIRCLE
  5
   682
  8
0
  6
CONTINUOUS
 62
     7
 10
224.23576323688
 20
-105.206483829767
 30
0.0
 40
0.550000008195639
  0
CIRCLE
  5
   683
  8
0
  6
CONTINUOUS
 62
     7
 10
252.235763654113
 20
-105.206483829767
 30
0.0
 40
0.550000008195639
  0
LINE
  5
   684
  8
0
  6
DASHDOT
 62
     2
 10
263.449378834183
 20
-78.6064834333956
 30
0.0
 11
209.984482289035
 21
-78.6064834333956
 31
0.0
  0
LINE
  5
   685
  8
0
  6
DASHDOT
 62
     7
 10
231.235763341188
 20
-23.4564826115966
 30
0.0
 11
231.235763341188
 21
-33.8564827665687
 31
0.0
  0
LINE
  5
   686
  8
0
  6
DASHDOT
 62
     7
 10
236.435763418674
 20
-29.806482706219
 30
0.0
 11
226.035763263702
 21
-29.806482706219
 31
0.0
  0
LINE
  5
   687
  8
0
  6
DASHDOT
 62
     3
 10
245.235763549805
 20
-18.6711427971945
 30
0.0
 11
245.235763549805
 21
-61.4564831778407
 31
0.0
  0
LINE
  5
   688
  8
0
  6
DASHDOT
 62
     7
 10
250.435763627291
 20
-29.806482706219
 30
0.0
 11
240.035763472319
 21
-29.806482706219
 31
0.0
  0
LINE
  5
   689
  8
0
  6
DASHDOT
 62
     7
 10
259.235763758421
 20
-24.6064826287329
 30
0.0
 11
259.235763758421
 21
-35.006482783705
 31
0.0
  0
LINE
  5
   68A
  8
0
  6
DASHDOT
 62
     7
 10
264.435763835907
 20
-29.806482706219
 30
0.0
 11
254.035763680935
 21
-29.806482706219
 31
0.0
  0
LINE
  5
   68B
  8
0
  6
DASHDOT
 62
     7
 10
259.235763758421
 20
-99.2564837411046
 30
0.0
 11
259.235763758421
 21
-109.656483896077
 31
0.0
  0
LINE
  5
   68C
  8
0
  6
DASHDOT
 62
     7
 10
264.435763835907
 20
-105.606483835727
 30
0.0
 11
254.035763680935
 21
-105.606483835727
 31
0.0
  0
LINE
  5
   68D
  8
0
  6
DASHDOT
 62
     7
 10
245.235763549805
 20
-99.2564837411046
 30
0.0
 11
245.235763549805
 21
-116.145108851718
 31
0.0
  0
LINE
  5
   68E
  8
0
  6
DASHDOT
 62
     7
 10
250.435763627291
 20
-105.606483835727
 30
0.0
 11
240.035763472319
 21
-105.606483835727
 31
0.0
  0
LINE
  5
   68F
  8
0
  6
DASHDOT
 62
     7
 10
231.235763341188
 20
-100.406483758241
 30
0.0
 11
231.235763341188
 21
-110.806483913213
 31
0.0
  0
LINE
  5
   690
  8
0
  6
DASHDOT
 62
     7
 10
236.435763418674
 20
-105.606483835727
 30
0.0
 11
226.035763263702
 21
-105.606483835727
 31
0.0
  0
LINE
  5
   691
  8
0
  6
CONTINUOUS
 62
     7
 10
211.415215969559
 20
-21.5667427922534
 30
0.0
 11
211.415215969559
 21
-112.376899941514
 31
0.0
  0
CIRCLE
  5
   692
  8
0
  6
CONTINUOUS
 62
     7
 10
227.144874110193
 20
-25.729040556843
 30
0.0
 40
0.175
  0
LINE
  5
   693
  8
0
  6
CONTINUOUS
 62
     7
 10
264.826608755044
 20
-21.5667427922534
 30
0.0
 11
211.415215969559
 21
-21.5667427922534
 31
0.0
  0
LINE
  5
   694
  8
0
  6
CONTINUOUS
 62
     7
 10
264.826608755044
 20
-112.376899941514
 30
0.0
 11
211.415215969559
 21
-112.376899941514
 31
0.0
  0
LINE
  5
   695
  8
0
  6
CONTINUOUS
 62
     7
 10
264.826608755044
 20
-21.5667427922534
 30
0.0
 11
264.826608755044
 21
-112.376899941514
 31
0.0
  0
ARC
  5
   696
  8
0
  6
CONTINUOUS
 62
     7
 10
217.235763132572
 20
-29.806482706219
 30
0.0
 40
3.50000005215406
 50
359.999999896069
 51
629.999999896069
  0
ARC
  5
   697
  8
0
  6
CONTINUOUS
 62
     7
 10
245.235763549805
 20
-29.806482706219
 30
0.0
 40
3.50000005215406
 50
359.999999896069
 51
539.999999896069
  0
ARC
  5
   698
  8
0
  6
CONTINUOUS
 62
     7
 10
259.235763758421
 20
-29.806482706219
 30
0.0
 40
3.50000005215406
 50
269.999999896069
 51
539.999999896069
  0
ARC
  5
   699
  8
0
  6
CONTINUOUS
 62
     7
 10
217.235763132572
 20
-105.606483835727
 30
0.0
 40
3.50000005215406
 50
449.999999896069
 51
719.999999896069
  0
ARC
  5
   69A
  8
0
  6
CONTINUOUS
 62
     7
 10
245.235763549805
 20
-105.606483835727
 30
0.0
 40
3.50000005215406
 50
179.999999896069
 51
359.999999896069
  0
ARC
  5
   69B
  8
0
  6
CONTINUOUS
 62
     7
 10
259.235763758421
 20
-105.606483835727
 30
0.0
 40
3.50000005215406
 50
179.999999896069
 51
449.999999896069
  0
LINE
  5
   69C
  8
0
  6
CONTINUOUS
 62
     7
 10
259.235763758421
 20
-33.306482758373
 30
0.0
 11
217.235763132572
 21
-33.306482758373
 31
0.0
  0
LINE
  5
   69D
  8
0
  6
CONTINUOUS
 62
     7
 10
259.235763758421
 20
-102.106483783573
 30
0.0
 11
217.235763132572
 21
-102.106483783573
 31
0.0
  0
LINE
  5
   69E
  8
0
  6
CONTINUOUS
 62
     7
 10
255.735763706267
 20
-103.706483807415
 30
0.0
 11
248.735763601959
 21
-103.706483807415
 31
0.0
  0
LINE
  5
   69F
  8
0
  6
CONTINUOUS
 62
     7
 10
255.735763706267
 20
-31.7064827345312
 30
0.0
 11
248.735763601959
 21
-31.7064827345312
 31
0.0
  0
LINE
  5
   6A0
  8
0
  6
CONTINUOUS
 62
     7
 10
234.735763393343
 20
-28.6564826890826
 30
0.0
 11
234.735763393343
 21
-30.5564827173948
 31
0.0
  0
LINE
  5
   6A1
  8
0
  6
CONTINUOUS
 62
     7
 10
241.735763497651
 20
-29.806482706219
 30
0.0
 11
241.735763497651
 21
-31.7064827345312
 31
0.0
  0
LINE
  5
   6A2
  8
0
  6
CONTINUOUS
 62
     7
 10
248.735763601959
 20
-29.806482706219
 30
0.0
 11
248.735763601959
 21
-31.7064827345312
 31
0.0
  0
LINE
  5
   6A3
  8
0
  6
CONTINUOUS
 62
     7
 10
255.735763706267
 20
-29.806482706219
 30
0.0
 11
255.735763706267
 21
-31.7064827345312
 31
0.0
  0
LINE
  5
   6A4
  8
0
  6
CONTINUOUS
 62
     7
 10
241.735763497651
 20
-31.7064827345312
 30
0.0
 11
234.735763393343
 21
-31.7064827345312
 31
0.0
  0
LINE
  5
   6A5
  8
0
  6
CONTINUOUS
 62
     7
 10
234.735763393343
 20
-103.706483807415
 30
0.0
 11
234.735763393343
 21
-105.606483835727
 31
0.0
  0
LINE
  5
   6A6
  8
0
  6
CONTINUOUS
 62
     7
 10
241.735763497651
 20
-103.706483807415
 30
0.0
 11
241.735763497651
 21
-105.606483835727
 31
0.0
  0
LINE
  5
   6A7
  8
0
  6
CONTINUOUS
 62
     7
 10
248.735763601959
 20
-103.706483807415
 30
0.0
 11
248.735763601959
 21
-105.606483835727
 31
0.0
  0
LINE
  5
   6A8
  8
0
  6
CONTINUOUS
 62
     7
 10
255.735763706267
 20
-103.706483807415
 30
0.0
 11
255.735763706267
 21
-105.606483835727
 31
0.0
  0
LINE
  5
   6A9
  8
0
  6
CONTINUOUS
 62
     7
 10
241.735763497651
 20
-103.706483807415
 30
0.0
 11
234.735763393343
 21
-103.706483807415
 31
0.0
  0
ARC
  5
   6AA
  8
0
  6
CONTINUOUS
 62
     7
 10
259.235763758421
 20
-105.606483835727
 30
0.0
 40
3.50000005215406
 50
483.928032185622
 51
547.491880120627
  0
CIRCLE
  5
   6AB
  8
0
  6
CONTINUOUS
 62
     7
 10
224.23576323688
 20
-30.2064827121794
 30
0.0
 40
0.550000008195639
  0
CIRCLE
  5
   6AC
  8
0
  6
CONTINUOUS
 62
     7
 10
252.235763654113
 20
-30.2064827121794
 30
0.0
 40
0.550000008195639
  0
LINE
  5
   6AD
  8
0
  6
DASHDOT
 62
     2
 10
254.15278659887
 20
-30.2064827121794
 30
0.0
 11
235.671252693255
 21
-30.2064827121794
 31
0.0
  0
LINE
  5
   6AE
  8
0
  6
CONTINUOUS
 62
     7
 10
292.50061728503
 20
-12.5914328996395
 30
0.0
 11
212.43388917765
 21
-12.5914328996395
 31
0.0
  0
LINE
  5
   6AF
  8
0
  6
CONTINUOUS
 62
     7
 10
259.589753584451
 20
-12.5914328996395
 30
0.0
 11
259.589753584451
 21
-24.7630342758974
 31
0.0
  0
LINE
  5
   6B0
  8
0
  6
CONTINUOUS
 62
     7
 10
259.589753584451
 20
-24.7630342758974
 30
0.0
 11
258.892072994103
 21
-22.1592548652645
 31
0.0
  0
LINE
  5
   6B1
  8
0
  6
CONTINUOUS
 62
     7
 10
260.2874341748
 20
-22.1592548652579
 30
0.0
 11
259.589753584451
 21
-24.7630342758974
 31
0.0
  0
LINE
  5
   6B2
  8
0
  6
CONTINUOUS
 62
     7
 10
227.735763289034
 20
-103.706483807415
 30
0.0
 11
220.735763184726
 21
-103.706483807415
 31
0.0
  0
LINE
  5
   6B3
  8
0
  6
CONTINUOUS
 62
     7
 10
220.735763184726
 20
-103.706483807415
 30
0.0
 11
220.735763184726
 21
-105.606483835727
 31
0.0
  0
LINE
  5
   6B4
  8
0
  6
CONTINUOUS
 62
     7
 10
227.735763289034
 20
-103.706483807415
 30
0.0
 11
227.735763289034
 21
-105.606483835727
 31
0.0
  0
ARC
  5
   6B5
  8
0
  6
CONTINUOUS
 62
     7
 10
231.235763341188
 20
-105.606483835727
 30
0.0
 40
3.50000005215406
 50
179.999999896069
 51
359.999999896069
  0
LINE
  5
   6B6
  8
0
  6
CONTINUOUS
 62
     7
 10
220.735763184726
 20
-29.806482706219
 30
0.0
 11
220.735763184726
 21
-31.7064827345312
 31
0.0
  0
LINE
  5
   6B7
  8
0
  6
CONTINUOUS
 62
     7
 10
227.735763289034
 20
-29.806482706219
 30
0.0
 11
227.735763289034
 21
-31.7064827345312
 31
0.0
  0
ARC
  5
   6B8
  8
0
  6
CONTINUOUS
 62
     7
 10
231.235763341188
 20
-29.806482706219
 30
0.0
 40
3.50000005215406
 50
359.999999896069
 51
539.999999896069
  0
LINE
  5
   6B9
  8
0
  6
CONTINUOUS
 62
     7
 10
234.735763393343
 20
-29.806482706219
 30
0.0
 11
234.735763393343
 21
-31.7064827345312
 31
0.0
  0
LINE
  5
   6BA
  8
0
  6
CONTINUOUS
 62
     7
 10
227.735763289034
 20
-31.7064827345312
 30
0.0
 11
220.735763184726
 21
-31.7064827345312
 31
0.0
  0
LINE
  5
   6BB
  8
0
  6
DASHDOT
 62
     7
 10
217.235763132572
 20
-23.4564826115966
 30
0.0
 11
217.235763132572
 21
-33.8564827665687
 31
0.0
  0
TEXT
  5
   6BC
  8
0
  6
CONTINUOUS
 62
     7
 10
244.149135840098
 20
-17.4730395297884
 30
0.0
 40
2.99999994933605
  1
Y
 50
359.999999896069
 41
0.916666607525612
 72
     1
 11
245.249135751915
 21
-15.9730395571102
 31
0.0
 73
     2
  0
TEXT
  5
   6BD
  8
0
  6
CONTINUOUS
 62
     7
 10
244.111318923314
 20
-120.155422829198
 30
0.0
 40
2.99999994933605
  1
Y
 50
359.999999896069
 41
0.916666607525612
 72
     1
 11
245.21131883513
 21
-118.655422856519
 31
0.0
 73
     2
  0
INSERT
  5
   6BE
  8
0
  6
CONTINUOUS
 62
     7
  2
*UDIM15
 10
0.0
 20
0.0
 30
0.0
  0
INSERT
  5
   6BF
  8
0
  6
CONTINUOUS
 62
     7
  2
*UDIM16
 10
0.0
 20
0.0
 30
0.0
  0
INSERT
  5
   6C0
  8
0
  6
CONTINUOUS
 62
     7
  2
*UDIM17
 10
0.0
 20
0.0
 30
0.0
  0
INSERT
  5
   6C1
  8
0
  6
CONTINUOUS
 62
     7
  2
*UDIM18
 10
0.0
 20
0.0
 30
0.0
  0
INSERT
  5
   6C2
  8
0
  6
CONTINUOUS
 62
     7
  2
*UDIM19
 10
0.0
 20
0.0
 30
0.0
  0
TEXT
  5
   6C3
  8
0
  6
CONTINUOUS
 62
     1
 10
213.221663149811
 20
-7.99804729857142
 30
0.0
 40
2.00000007748604
  1
FORATURA DA ESEGUIRE PER ESECUZIONE TERM. POSTERIORI
 50
359.999999896069
 41
0.749999997615814
 72
     1
 11
252.071664526849
 21
-6.99804733010478
 31
0.0
 73
     2
  0
TEXT
  5
   6C4
  8
0
  6
CONTINUOUS
 62
     1
 10
218.471663336523
 20
-10.9980473080682
 30
0.0
 40
2.00000007748604
  1
REAR TERMINAL EXECTION ONLY DRILLING TEMPLATE
 50
359.999999896069
 41
0.749999997615814
 72
     1
 11
252.071664526849
 21
-9.99804733010478
 31
0.0
 73
     2
  0
INSERT
  5
   6C5
  8
0
  6
CONTINUOUS
 62
     7
  2
*UDIM20
 10
0.0
 20
0.0
 30
0.0
  0
INSERT
  5
   6C6
  8
0
  6
CONTINUOUS
 62
     7
  2
*UDIM21
 10
0.0
 20
0.0
 30
0.0
  0
INSERT
  5
   6C7
  8
0
  6
CONTINUOUS
 62
     7
  2
*UDIM22
 10
0.0
 20
0.0
 30
0.0
  0
INSERT
  5
   6C8
  8
0
  6
CONTINUOUS
 62
     7
  2
*UDIM23
 10
0.0
 20
0.0
 30
0.0
  0
INSERT
  5
   6C9
  8
0
  6
CONTINUOUS
 62
     7
  2
*UDIM24
 10
0.0
 20
0.0
 30
0.0
  0
INSERT
  5
   6CA
  8
0
  6
CONTINUOUS
 62
     7
  2
*UDIM25
 10
0.0
 20
0.0
 30
0.0
  0
INSERT
  5
   6CB
  8
0
  6
CONTINUOUS
 62
     7
  2
*UDIM26
 10
0.0
 20
0.0
 30
0.0
  0
INSERT
  5
   6CC
  8
0
  6
CONTINUOUS
 62
     7
  2
*UDIM27
 10
0.0
 20
0.0
 30
0.0
  0
TEXT
  5
   6CD
  8
0
  6
CONTINUOUS
 62
     7
 10
205.539556290533
 20
-79.4922980159861
 30
0.0
 40
2.99999994933605
  1
X
 50
359.999999896069
 41
0.916666607525612
 72
     2
 11
207.739556108739
 21
-79.4922980199657
 31
0.0
  0
TEXT
  5
   6CE
  8
0
  6
CONTINUOUS
 62
     7
 10
278.011261472008
 20
-79.2648768242428
 30
0.0
 40
2.99999994933605
  1
X
 50
359.999999896069
 41
0.916666607525612
 72
     2
 11
280.211261290214
 21
-79.2648768282224
 31
0.0
  0
LINE
  5
   6CF
  8
0
  6
CONTINUOUS
 62
     7
 10
95.6684385016561
 20
-93.1939836852253
 30
0.0
 11
125.06843893975
 21
-93.1939836852253
 31
0.0
  0
LINE
  5
   6D0
  8
0
  6
CONTINUOUS
 62
     7
 10
95.6684385016561
 20
-63.7939832471311
 30
0.0
 11
125.06843893975
 21
-63.7939832471311
 31
0.0
  0
LINE
  5
   6D1
  8
0
  6
CONTINUOUS
 62
     7
 10
95.6684385016561
 20
-63.7939832471311
 30
0.0
 11
95.6684385016561
 21
-93.1939836852253
 31
0.0
  0
LINE
  5
   6D2
  8
0
  6
CONTINUOUS
 62
     7
 10
125.06843893975
 20
-63.7939832471311
 30
0.0
 11
125.06843893975
 21
-93.1939836852253
 31
0.0
  0
LINE
  5
   6D3
  8
0
  6
DASHDOT
 62
     7
 10
110.368438720703
 20
-47.3823000925702
 30
0.0
 11
110.368438720703
 21
-103.146715617336
 31
0.0
  0
CIRCLE
  5
   6D4
  8
0
  6
CONTINUOUS
 62
     7
 10
98.8684385493398
 20
-60.7939832024276
 30
0.0
 40
0.700000010430813
  0
CIRCLE
  5
   6D5
  8
0
  6
CONTINUOUS
 62
     7
 10
121.868438892067
 20
-60.7939832024276
 30
0.0
 40
0.700000010430813
  0
CIRCLE
  5
   6D6
  8
0
  6
CONTINUOUS
 62
     7
 10
121.868438892067
 20
-96.1939837299287
 30
0.0
 40
0.700000010430813
  0
CIRCLE
  5
   6D7
  8
0
  6
CONTINUOUS
 62
     7
 10
98.8684385493398
 20
-96.1939837299287
 30
0.0
 40
0.700000010430813
  0
LINE
  5
   6D8
  8
0
  6
CONTINUOUS
 62
     3
 10
92.496841918864
 20
-58.9141429365828
 30
0.0
 11
128.13953786597
 21
-58.9141429365828
 31
0.0
  0
LINE
  5
   6D9
  8
0
  6
CONTINUOUS
 62
     3
 10
92.496841918864
 20
-98.8783684319004
 30
0.0
 11
128.13953786597
 21
-98.8783684319004
 31
0.0
  0
LINE
  5
   6DA
  8
0
  6
CONTINUOUS
 62
     3
 10
128.13953786597
 20
-58.9141429365828
 30
0.0
 11
128.13953786597
 21
-98.8783684319004
 31
0.0
  0
LINE
  5
   6DB
  8
0
  6
CONTINUOUS
 62
     3
 10
92.496841918864
 20
-58.9141429365828
 30
0.0
 11
92.496841918864
 21
-98.8783684319004
 31
0.0
  0
LINE
  5
   6DC
  8
0
  6
DASHDOT
 62
     7
 10
121.868438892067
 20
-59.4939831830561
 30
0.0
 11
121.868438892067
 21
-62.0939832217991
 31
0.0
  0
LINE
  5
   6DD
  8
0
  6
DASHDOT
 62
     7
 10
120.568438872695
 20
-60.7939832024276
 30
0.0
 11
123.168438911438
 21
-60.7939832024276
 31
0.0
  0
LINE
  5
   6DE
  8
0
  6
DASHDOT
 62
     7
 10
98.8684385493398
 20
-59.4939831830561
 30
0.0
 11
98.8684385493398
 21
-62.0939832217991
 31
0.0
  0
LINE
  5
   6DF
  8
0
  6
DASHDOT
 62
     7
 10
97.5684385299683
 20
-60.7939832024276
 30
0.0
 11
100.168438568711
 21
-60.7939832024276
 31
0.0
  0
LINE
  5
   6E0
  8
0
  6
DASHDOT
 62
     7
 10
98.8684385493398
 20
-94.8939837105572
 30
0.0
 11
98.8684385493398
 21
-97.4939837493002
 31
0.0
  0
LINE
  5
   6E1
  8
0
  6
DASHDOT
 62
     7
 10
97.5684385299683
 20
-96.1939837299287
 30
0.0
 11
100.168438568711
 21
-96.1939837299287
 31
0.0
  0
LINE
  5
   6E2
  8
0
  6
DASHDOT
 62
     7
 10
121.868438892067
 20
-94.8939837105572
 30
0.0
 11
121.868438892067
 21
-97.4939837493002
 31
0.0
  0
LINE
  5
   6E3
  8
0
  6
DASHDOT
 62
     7
 10
120.568438872695
 20
-96.1939837299287
 30
0.0
 11
123.168438911438
 21
-96.1939837299287
 31
0.0
  0
LINE
  5
   6E4
  8
0
  6
DASHDOT
 62
     7
 10
90.0757523756333
 20
-78.4939834661782
 30
0.0
 11
132.472673689579
 21
-78.4939834661782
 31
0.0
  0
CIRCLE
  5
   6E5
  8
0
  6
CONTINUOUS
 62
     7
 10
118.818438846618
 20
-60.4939831979573
 30
0.0
 40
0.400000005960464
  0
CIRCLE
  5
   6E6
  8
0
  6
CONTINUOUS
 62
     7
 10
109.818438712507
 20
-60.4939831979573
 30
0.0
 40
0.400000005960464
  0
CIRCLE
  5
   6E7
  8
0
  6
CONTINUOUS
 62
     7
 10
109.818438712507
 20
-60.4939831979573
 30
0.0
 40
0.736000010967255
  0
CIRCLE
  5
   6E8
  8
0
  6
CONTINUOUS
 62
     7
 10
118.818438846618
 20
-60.4939831979573
 30
0.0
 40
0.736000010967255
  0
LINE
  5
   6E9
  8
0
  6
DASHDOT
 62
     7
 10
118.818438846618
 20
-59.1579831780493
 30
0.0
 11
118.818438846618
 21
-61.8299832178652
 31
0.0
  0
LINE
  5
   6EA
  8
0
  6
DASHDOT
 62
     7
 10
117.48243882671
 20
-60.4939831979573
 30
0.0
 11
120.154438866526
 21
-60.4939831979573
 31
0.0
  0
LINE
  5
   6EB
  8
0
  6
DASHDOT
 62
     7
 10
109.818438712507
 20
-59.1579831780493
 30
0.0
 11
109.818438712507
 21
-61.8299832178652
 31
0.0
  0
LINE
  5
   6EC
  8
0
  6
DASHDOT
 62
     7
 10
108.4824386926
 20
-60.4939831979573
 30
0.0
 11
111.154438732415
 21
-60.4939831979573
 31
0.0
  0
LINE
  5
   6ED
  8
0
  6
DASHDOT
 62
     7
 10
109.818438712507
 20
-59.3579831810296
 30
0.0
 11
109.818438712507
 21
-61.629983214885
 31
0.0
  0
LINE
  5
   6EE
  8
0
  6
DASHDOT
 62
     7
 10
108.68243869558
 20
-60.4939831979573
 30
0.0
 11
110.954438729435
 21
-60.4939831979573
 31
0.0
  0
CIRCLE
  5
   6EF
  8
0
  6
CONTINUOUS
 62
     7
 10
109.818438712507
 20
-60.4939831979573
 30
0.0
 40
1.73600002586842
  0
CIRCLE
  5
   6F0
  8
0
  6
CONTINUOUS
 62
     7
 10
118.818438846618
 20
-60.4939831979573
 30
0.0
 40
0.736000010967256
  0
CIRCLE
  5
   6F1
  8
0
  6
CONTINUOUS
 62
     7
 10
118.818438846618
 20
-60.4939831979573
 30
0.0
 40
1.73600002586842
  0
INSERT
  5
   6F2
  8
0
  6
CONTINUOUS
 62
     7
  2
*UDIM28
 10
0.0
 20
0.0
 30
0.0
  0
INSERT
  5
   6F3
  8
0
  6
CONTINUOUS
 62
     7
  2
*UDIM29
 10
0.0
 20
0.0
 30
0.0
  0
INSERT
  5
   6F4
  8
0
  6
CONTINUOUS
 62
     7
  2
*UDIM30
 10
0.0
 20
0.0
 30
0.0
  0
TEXT
  5
   6F5
  8
0
  6
CONTINUOUS
 62
     7
 10
102.240054315946
 20
-108.918910971969
 30
0.0
 40
2.99999994933605
  1
=   =
 50
359.999999844103
 41
0.916666607525612
 72
     2
 11
115.440053238691
 21
-108.918911007819
 31
0.0
  0
TEXT
  5
   6F6
  8
0
  6
CONTINUOUS
 62
     7
 10
100.196543731857
 20
-115.971361694951
 30
0.0
 40
2.99999994933605
  1
=    =
 50
359.999999844103
 41
0.916666607525612
 72
     2
 11
116.146542430737
 21
-115.971361738269
 31
0.0
  0
TEXT
  5
   6F7
  8
0
  6
CONTINUOUS
 62
     7
 10
89.1214801157706
 20
-90.5551022647934
 30
0.0
 40
2.99999994933605
  1
=     =
 50
449.999999844103
 41
0.916666607525612
 72
     2
 11
89.1214801665342
 21
-71.8551037897783
 31
0.0
  0
TEXT
  5
   6F8
  8
0
  6
CONTINUOUS
 62
     7
 10
81.3509841466346
 20
-93.3286117556834
 30
0.0
 40
2.99999994933605
  1
=       =
 50
449.999999844103
 41
0.916666607525612
 72
     2
 11
81.3509842123286
 21
-69.1286137283985
 31
0.0
  0
INSERT
  5
   6F9
  8
0
  6
CONTINUOUS
 62
     7
  2
*UDIM31
 10
0.0
 20
0.0
 30
0.0
  0
INSERT
  5
   6FA
  8
0
  6
CONTINUOUS
 62
     7
  2
*UDIM32
 10
0.0
 20
0.0
 30
0.0
  0
INSERT
  5
   6FB
  8
0
  6
CONTINUOUS
 62
     7
  2
*UDIM33
 10
0.0
 20
0.0
 30
0.0
  0
INSERT
  5
   6FC
  8
0
  6
CONTINUOUS
 62
     7
  2
*UDIM34
 10
0.0
 20
0.0
 30
0.0
  0
INSERT
  5
   6FD
  8
0
  6
CONTINUOUS
 62
     7
  2
*UDIM35
 10
0.0
 20
0.0
 30
0.0
  0
TEXT
  5
   6FE
  8
0
  6
CONTINUOUS
 62
     7
 10
109.174420921243
 20
-120.563683258882
 30
0.0
 40
2.99999994933605
  1
Y
 50
359.999999844103
 41
0.916666607525612
 72
     2
 11
111.374420739449
 21
-120.563683264857
 31
0.0
  0
TEXT
  5
   6FF
  8
0
  6
CONTINUOUS
 62
     7
 10
109.224613945673
 20
-46.4788249771968
 30
0.0
 40
2.99999994933605
  1
Y
 50
359.999999844103
 41
0.916666607525612
 72
     2
 11
111.424613763879
 21
-46.4788249831717
 31
0.0
  0
TEXT
  5
   700
  8
0
  6
CONTINUOUS
 62
     7
 10
137.834619750718
 20
-79.5560088120652
 30
0.0
 40
2.99999994933605
  1
X
 50
359.999999844103
 41
0.916666607525612
 72
     2
 11
140.034619568924
 21
-79.5560088180402
 31
0.0
  0
TEXT
  5
   701
  8
0
  6
CONTINUOUS
 62
     7
 10
70.2851894228642
 20
-79.6208991023388
 30
0.0
 40
2.99999994933605
  1
X
 50
359.999999844103
 41
0.916666607525612
 72
     2
 11
72.48518924107
 21
-79.6208991083137
 31
0.0
  0
LINE
  5
   702
  8
0
  6
CONTINUOUS
 62
     7
 10
70.061149597168
 20
-22.5762012319963
 30
0.0
 11
70.061149597168
 21
-46.4927227181991
 31
0.0
  0
LINE
  5
   703
  8
0
  6
CONTINUOUS
 62
     7
 10
68.061149597168
 20
-22.5762012319963
 30
0.0
 11
68.061149597168
 21
-46.4927227181991
 31
0.0
  0
LINE
  5
   704
  8
0
  6
DASHDOT
 62
     7
 10
64.858546494771
 20
-34.5344619750977
 30
0.0
 11
73.2847656872084
 21
-34.5344619750977
 31
0.0
  0
POINT
  5
   705
  8
0
  6
CONTINUOUS
 62
     7
 10
68.061149597168
 20
-32.5344619750977
 30
0.0
  0
POINT
  5
   706
  8
0
  6
CONTINUOUS
 62
     7
 10
68.061149597168
 20
-36.5344619750977
 30
0.0
  0
LINE
  5
   707
  8
0
  6
CONTINUOUS
 62
     7
 10
70.061149597168
 20
-30.8562627127431
 30
0.0
 11
68.061149597168
 21
-32.5344619750977
 31
0.0
  0
LINE
  5
   708
  8
0
  6
CONTINUOUS
 62
     7
 10
68.061149597168
 20
-36.5344619750977
 30
0.0
 11
70.061149597168
 21
-38.2126612374522
 31
0.0
  0
LINE
  5
   709
  8
0
  6
CONTINUOUS
 62
     7
 10
68.061149597168
 20
-44.0344619750977
 30
0.0
 11
70.061149597168
 21
-44.0344619750977
 31
0.0
  0
CIRCLE
  5
   70A
  8
0
  6
CONTINUOUS
 62
     7
 10
69.061149597168
 20
-34.5344619750977
 30
0.0
 40
12.0
  0
LINE
  5
   70B
  8
0
  6
CONTINUOUS
 62
     7
 10
62.0611572265625
 20
-39.0344619750977
 30
0.0
 11
64.5611572265625
 21
-39.0344619750977
 31
0.0
  0
LINE
  5
   70C
  8
0
  6
CONTINUOUS
 62
     7
 10
65.5611572265625
 20
-30.0344619750977
 30
0.0
 11
65.5611572265625
 21
-38.0344619750977
 31
0.0
  0
LINE
  5
   70D
  8
0
  6
CONTINUOUS
 62
     7
 10
65.5611572265625
 20
-30.0344619750977
 30
0.0
 11
68.061149597168
 21
-30.0344619750977
 31
0.0
  0
LINE
  5
   70E
  8
0
  6
CONTINUOUS
 62
     7
 10
62.0611572265625
 20
-41.5344619750977
 30
0.0
 11
64.5611572265625
 21
-41.5344619750977
 31
0.0
  0
LINE
  5
   70F
  8
0
  6
CONTINUOUS
 62
     7
 10
61.0611572265625
 20
-42.5344619750977
 30
0.0
 11
61.0611572265625
 21
-43.4787407090289
 31
0.0
  0
ARC
  5
   710
  8
0
  6
CONTINUOUS
 62
     7
 10
64.5611613738425
 20
-38.0344626464364
 30
0.0
 40
0.999996977799109
 50
629.999840735313
 51
720.000252836193
  0
ARC
  5
   711
  8
0
  6
CONTINUOUS
 62
     7
 10
62.0611718800692
 20
-42.5344746614021
 30
0.0
 40
3.50001845311552
 50
450.000186734275
 51
513.408761128067
  0
ARC
  5
   712
  8
0
  6
CONTINUOUS
 62
     7
 10
62.0611129784126
 20
-42.5344210803153
 30
0.0
 40
0.999949821243504
 50
449.997764042825
 51
540.001169660043
  0
ARC
  5
   713
  8
0
  6
CONTINUOUS
 62
     7
 10
64.5611765789442
 20
-38.0344940220319
 30
0.0
 40
3.49997105594423
 50
629.999653243441
 51
720.000420168909
  0
INSERT
  5
   714
  8
0
  6
CONTINUOUS
 62
     7
  2
*HATCH5
 10
69.061149597168
 20
-34.5344619750977
 30
0.0
 50
269.999999844103
  0
INSERT
  5
   715
  8
0
  6
CONTINUOUS
 62
     7
  2
*HATCH6
 10
69.061149597168
 20
-34.5344619750977
 30
0.0
 50
269.999999844103
  0
LINE
  5
   716
  8
0
  6
CONTINUOUS
 62
     7
 10
69.061149597168
 20
-34.5344619750977
 30
0.0
 11
80.5120962249125
 21
-51.5952900795912
 31
0.0
  0
LINE
  5
   717
  8
0
  6
CONTINUOUS
 62
     7
 10
80.5120962249125
 20
-51.5952900795912
 30
0.0
 11
117.223098326471
 21
-60.1413735647718
 31
0.0
  0
LINE
  5
   718
  8
0
  6
CONTINUOUS
 62
     7
 10
105.006320177523
 20
-60.0879463133973
 30
0.0
 11
108.002090511373
 21
-60.247194882691
 31
0.0
  0
LINE
  5
   719
  8
0
  6
CONTINUOUS
 62
     7
 10
105.487301583002
 20
-58.6113964092411
 30
0.0
 11
108.002090511373
 21
-60.247194882691
 31
0.0
  0
LINE
  5
   71A
  8
0
  6
CONTINUOUS
 62
     7
 10
117.223098326471
 20
-60.1413735647718
 30
0.0
 11
114.224739552267
 21
-60.2405938305926
 31
0.0
  0
LINE
  5
   71B
  8
0
  6
CONTINUOUS
 62
     7
 10
114.576833325439
 20
-58.7281214484405
 30
0.0
 11
117.223098326471
 21
-60.1413735647719
 31
0.0
  0
LINE
  5
   71C
  8
0
  6
CONTINUOUS
 62
     7
 10
80.5120962249125
 20
-51.5952900795912
 30
0.0
 11
108.002090511373
 21
-60.247194882691
 31
0.0
  0
INSERT
  5
   71D
  8
0
  6
CONTINUOUS
 62
     7
  2
*UDIM36
 10
0.0
 20
0.0
 30
0.0
  0
INSERT
  5
   71E
  8
0
  6
CONTINUOUS
 62
     7
  2
*UDIM37
 10
0.0
 20
0.0
 30
0.0
  0
ENDSEC
  0
EOF
