  0
SECTION
  2
HEADER
  9
$ACADVER
  1
AC1015
  9
$ACADMAINTVER
 70
    13
  9
$DWGCODEPAGE
  3
ANSI_1252
  9
$INSBASE
 10
0.0
 20
0.0
 30
0.0
  9
$EXTMIN
 10
0.2370990874900258
 20
0.2379992524221779
 30
0.0
  9
$EXTMAX
 10
392.23709908749
 20
262.7379992524221
 30
0.0
  9
$LIMMIN
 10
0.0
 20
0.0
  9
$LIMMAX
 10
12.0
 20
9.0
  9
$ORTHOMODE
 70
     1
  9
$REGENMODE
 70
     1
  9
$FILLMODE
 70
     1
  9
$QTEXTMODE
 70
     0
  9
$MIRRTEXT
 70
     1
  9
$LTSCALE
 40
5.0
  9
$ATTMODE
 70
     1
  9
$TEXTSIZE
 40
2.0
  9
$TRACEWID
 40
0.05
  9
$TEXTSTYLE
  7
ROMANS
  9
$CLAYER
  8
0
  9
$CELTYPE
  6
CONTINUOUS
  9
$CECOLOR
 62
   256
  9
$CELTSCALE
 40
1.0
  9
$DISPSILH
 70
     0
  9
$DIMSCALE
 40
1.0
  9
$DIMASZ
 40
0.18
  9
$DIMEXO
 40
0.0625
  9
$DIMDLI
 40
0.38
  9
$DIMRND
 40
0.0
  9
$DIMDLE
 40
0.0
  9
$DIMEXE
 40
0.18
  9
$DIMTP
 40
0.0
  9
$DIMTM
 40
0.0
  9
$DIMTXT
 40
0.18
  9
$DIMCEN
 40
0.09
  9
$DIMTSZ
 40
0.0
  9
$DIMTOL
 70
     0
  9
$DIMLIM
 70
     0
  9
$DIMTIH
 70
     1
  9
$DIMTOH
 70
     1
  9
$DIMSE1
 70
     0
  9
$DIMSE2
 70
     0
  9
$DIMTAD
 70
     0
  9
$DIMZIN
 70
     0
  9
$DIMBLK
  1

  9
$DIMASO
 70
     1
  9
$DIMSHO
 70
     1
  9
$DIMPOST
  1

  9
$DIMAPOST
  1

  9
$DIMALT
 70
     0
  9
$DIMALTD
 70
     2
  9
$DIMALTF
 40
25.4
  9
$DIMLFAC
 40
1.0
  9
$DIMTOFL
 70
     0
  9
$DIMTVP
 40
0.0
  9
$DIMTIX
 70
     0
  9
$DIMSOXD
 70
     0
  9
$DIMSAH
 70
     0
  9
$DIMBLK1
  1

  9
$DIMBLK2
  1

  9
$DIMSTYLE
  2
Standard
  9
$DIMCLRD
 70
     0
  9
$DIMCLRE
 70
     0
  9
$DIMCLRT
 70
     0
  9
$DIMTFAC
 40
1.0
  9
$DIMGAP
 40
0.09
  9
$DIMJUST
 70
     0
  9
$DIMSD1
 70
     0
  9
$DIMSD2
 70
     0
  9
$DIMTOLJ
 70
     1
  9
$DIMTZIN
 70
     0
  9
$DIMALTZ
 70
     0
  9
$DIMALTTZ
 70
     0
  9
$DIMUPT
 70
     0
  9
$DIMDEC
 70
     4
  9
$DIMTDEC
 70
     4
  9
$DIMALTU
 70
     2
  9
$DIMALTTD
 70
     2
  9
$DIMTXSTY
  7
STANDARD
  9
$DIMAUNIT
 70
     0
  9
$DIMADEC
 70
     0
  9
$DIMALTRND
 40
0.0
  9
$DIMAZIN
 70
     0
  9
$DIMDSEP
 70
    46
  9
$DIMATFIT
 70
     3
  9
$DIMFRAC
 70
     0
  9
$DIMLDRBLK
  1

  9
$DIMLUNIT
 70
     2
  9
$DIMLWD
 70
    -2
  9
$DIMLWE
 70
    -2
  9
$DIMTMOVE
 70
     2
  9
$LUNITS
 70
     2
  9
$LUPREC
 70
     4
  9
$SKETCHINC
 40
0.1
  9
$FILLETRAD
 40
0.0
  9
$AUNITS
 70
     0
  9
$AUPREC
 70
     0
  9
$MENU
  1
acad
  9
$ELEVATION
 40
0.0
  9
$PELEVATION
 40
0.0
  9
$THICKNESS
 40
0.0
  9
$LIMCHECK
 70
     0
  9
$CHAMFERA
 40
0.0
  9
$CHAMFERB
 40
0.0
  9
$CHAMFERC
 40
0.0
  9
$CHAMFERD
 40
0.0
  9
$SKPOLY
 70
     0
  9
$TDCREATE
 40
2448718.617501736
  9
$TDUCREATE
 40
2448718.492501736
  9
$TDUPDATE
 40
2453200.597310868
  9
$TDUUPDATE
 40
2453200.472310868
  9
$TDINDWG
 40
0.0233289699
  9
$TDUSRTIMER
 40
0.0233289699
  9
$USRTIMER
 70
     1
  9
$ANGBASE
 50
0.0
  9
$ANGDIR
 70
     0
  9
$PDMODE
 70
     0
  9
$PDSIZE
 40
0.0
  9
$PLINEWID
 40
0.0
  9
$SPLFRAME
 70
     0
  9
$SPLINETYPE
 70
     6
  9
$SPLINESEGS
 70
     8
  9
$HANDSEED
  5
6FE
  9
$SURFTAB1
 70
   250
  9
$SURFTAB2
 70
   250
  9
$SURFTYPE
 70
     6
  9
$SURFU
 70
     6
  9
$SURFV
 70
     6
  9
$UCSBASE
  2

  9
$UCSNAME
  2

  9
$UCSORG
 10
0.0
 20
0.0
 30
0.0
  9
$UCSXDIR
 10
1.0
 20
0.0
 30
0.0
  9
$UCSYDIR
 10
0.0
 20
1.0
 30
0.0
  9
$UCSORTHOREF
  2

  9
$UCSORTHOVIEW
 70
     0
  9
$UCSORGTOP
 10
0.0
 20
0.0
 30
0.0
  9
$UCSORGBOTTOM
 10
0.0
 20
0.0
 30
0.0
  9
$UCSORGLEFT
 10
0.0
 20
0.0
 30
0.0
  9
$UCSORGRIGHT
 10
0.0
 20
0.0
 30
0.0
  9
$UCSORGFRONT
 10
0.0
 20
0.0
 30
0.0
  9
$UCSORGBACK
 10
0.0
 20
0.0
 30
0.0
  9
$PUCSBASE
  2

  9
$PUCSNAME
  2

  9
$PUCSORG
 10
0.0
 20
0.0
 30
0.0
  9
$PUCSXDIR
 10
1.0
 20
0.0
 30
0.0
  9
$PUCSYDIR
 10
0.0
 20
1.0
 30
0.0
  9
$PUCSORTHOREF
  2

  9
$PUCSORTHOVIEW
 70
     0
  9
$PUCSORGTOP
 10
0.0
 20
0.0
 30
0.0
  9
$PUCSORGBOTTOM
 10
0.0
 20
0.0
 30
0.0
  9
$PUCSORGLEFT
 10
0.0
 20
0.0
 30
0.0
  9
$PUCSORGRIGHT
 10
0.0
 20
0.0
 30
0.0
  9
$PUCSORGFRONT
 10
0.0
 20
0.0
 30
0.0
  9
$PUCSORGBACK
 10
0.0
 20
0.0
 30
0.0
  9
$USERI1
 70
     0
  9
$USERI2
 70
     0
  9
$USERI3
 70
     0
  9
$USERI4
 70
     0
  9
$USERI5
 70
     0
  9
$USERR1
 40
0.0
  9
$USERR2
 40
0.0
  9
$USERR3
 40
0.0
  9
$USERR4
 40
0.0
  9
$USERR5
 40
0.0
  9
$WORLDVIEW
 70
     1
  9
$SHADEDGE
 70
     3
  9
$SHADEDIF
 70
    70
  9
$TILEMODE
 70
     1
  9
$MAXACTVP
 70
    16
  9
$PINSBASE
 10
0.0
 20
0.0
 30
0.0
  9
$PLIMCHECK
 70
     0
  9
$PEXTMIN
 10
1.000000000000000E+20
 20
1.000000000000000E+20
 30
1.000000000000000E+20
  9
$PEXTMAX
 10
-1.000000000000000E+20
 20
-1.000000000000000E+20
 30
-1.000000000000000E+20
  9
$PLIMMIN
 10
0.0
 20
0.0
  9
$PLIMMAX
 10
12.0
 20
9.0
  9
$UNITMODE
 70
     0
  9
$VISRETAIN
 70
     0
  9
$PLINEGEN
 70
     0
  9
$PSLTSCALE
 70
     0
  9
$TREEDEPTH
 70
  3020
  9
$CMLSTYLE
  2
Standard
  9
$CMLJUST
 70
     0
  9
$CMLSCALE
 40
1.0
  9
$PROXYGRAPHICS
 70
     1
  9
$MEASUREMENT
 70
     0
  9
$CELWEIGHT
370
    -1
  9
$ENDCAPS
280
     0
  9
$JOINSTYLE
280
     0
  9
$LWDISPLAY
290
     0
  9
$INSUNITS
 70
     0
  9
$HYPERLINKBASE
  1

  9
$STYLESHEET
  1

  9
$XEDIT
290
     1
  9
$CEPSNTYPE
380
     0
  9
$PSTYLEMODE
290
     1
  9
$FINGERPRINTGUID
  2
{F50B966A-4519-4500-96F8-34DBAC3A5FA0}
  9
$VERSIONGUID
  2
{FFDFEBF7-6FF3-43D8-9F51-56451B1D2E95}
  9
$EXTNAMES
290
     1
  9
$PSVPSCALE
 40
0.0
  9
$OLESTARTUP
290
     0
  0
ENDSEC
  0
SECTION
  2
CLASSES
  0
CLASS
  1
ACDBDICTIONARYWDFLT
  2
AcDbDictionaryWithDefault
  3
AutoCAD 2000
 90
        0
280
     0
281
     0
  0
CLASS
  1
ACDBPLACEHOLDER
  2
AcDbPlaceHolder
  3
AutoCAD 2000
 90
        0
280
     0
281
     0
  0
CLASS
  1
LAYOUT
  2
AcDbLayout
  3
AutoCAD 2000
 90
        0
280
     0
281
     0
  0
CLASS
  1
DICTIONARYVAR
  2
AcDbDictionaryVar
  3
AutoCAD 2000
 90
        0
280
     0
281
     0
  0
ENDSEC
  0
SECTION
  2
TABLES
  0
TABLE
  2
VPORT
  5
8
330
0
100
AcDbSymbolTable
 70
     3
  0
VPORT
  5
6FD
330
8
100
AcDbSymbolTableRecord
100
AcDbViewportTableRecord
  2
*Active
 70
     0
 10
0.0
 20
0.0
 11
1.0
 21
1.0
 12
228.8549422304158
 22
142.0404852716477
 13
0.0
 23
0.0
 14
2.5
 24
2.5
 15
0.0
 25
0.0
 16
0.0
 26
0.0
 36
1.0
 17
0.0
 27
0.0
 37
0.0
 40
284.0809705432955
 41
1.611195158850226
 42
50.0
 43
0.0
 44
0.0
 50
0.0
 51
0.0
 71
     0
 72
   100
 73
     1
 74
     1
 75
     1
 76
     0
 77
     0
 78
     0
281
     0
 65
     1
110
0.0
120
0.0
130
0.0
111
1.0
121
0.0
131
0.0
112
0.0
122
1.0
132
0.0
 79
     0
146
0.0
  0
ENDTAB
  0
TABLE
  2
LTYPE
  5
5
330
0
100
AcDbSymbolTable
 70
     4
  0
LTYPE
  5
13
330
5
100
AcDbSymbolTableRecord
100
AcDbLinetypeTableRecord
  2
ByBlock
 70
     0
  3

 72
    65
 73
     0
 40
0.0
  0
LTYPE
  5
14
330
5
100
AcDbSymbolTableRecord
100
AcDbLinetypeTableRecord
  2
ByLayer
 70
     0
  3

 72
    65
 73
     0
 40
0.0
  0
LTYPE
  5
15
330
5
100
AcDbSymbolTableRecord
100
AcDbLinetypeTableRecord
  2
CONTINUOUS
 70
     0
  3
Solid line
 72
    65
 73
     0
 40
0.0
  0
LTYPE
  5
3F
330
5
100
AcDbSymbolTableRecord
100
AcDbLinetypeTableRecord
  2
DASHED
 70
     0
  3
__ __ __ __ __ __ __ __ __ __ __ __ __ __ __ __
 72
    65
 73
     2
 40
0.75
 49
0.5
 74
     0
 49
-0.25
 74
     0
  0
LTYPE
  5
40
330
5
100
AcDbSymbolTableRecord
100
AcDbLinetypeTableRecord
  2
CENTER
 70
     0
  3
____ _ ____ _ ____ _ ____ _ ____ _ ____ _ ____ 
 72
    65
 73
     4
 40
2.0
 49
1.25
 74
     0
 49
-0.25
 74
     0
 49
0.25
 74
     0
 49
-0.25
 74
     0
  0
LTYPE
  5
41
330
5
100
AcDbSymbolTableRecord
100
AcDbLinetypeTableRecord
  2
HIDDEN
 70
     0
  3
__ __ __ __ __ __ __ __ __ __ __ __ __ __ __ __
 72
    65
 73
     2
 40
0.375
 49
0.25
 74
     0
 49
-0.125
 74
     0
  0
ENDTAB
  0
TABLE
  2
LAYER
  5
2
330
0
100
AcDbSymbolTable
 70
    14
  0
LAYER
  5
10
330
2
100
AcDbSymbolTableRecord
100
AcDbLayerTableRecord
  2
0
 70
     0
 62
     7
  6
CONTINUOUS
370
    -3
390
F
  0
LAYER
  5
45
330
2
100
AcDbSymbolTableRecord
100
AcDbLayerTableRecord
  2
RAAMI
 70
     0
 62
     4
  6
CONTINUOUS
370
    -3
390
F
  0
LAYER
  5
46
330
2
100
AcDbSymbolTableRecord
100
AcDbLayerTableRecord
  2
PAKSU
 70
     0
 62
     3
  6
CONTINUOUS
370
    -3
390
F
  0
LAYER
  5
47
330
2
100
AcDbSymbolTableRecord
100
AcDbLayerTableRecord
  2
OHUT
 70
     0
 62
     6
  6
CONTINUOUS
370
    -3
390
F
  0
LAYER
  5
48
330
2
100
AcDbSymbolTableRecord
100
AcDbLayerTableRecord
  2
SWEDEN
 70
     0
 62
     7
  6
CONTINUOUS
370
    -3
390
F
  0
LAYER
  5
49
330
2
100
AcDbSymbolTableRecord
100
AcDbLayerTableRecord
  2
SWEDEN2
 70
     0
 62
     5
  6
CONTINUOUS
370
    -3
390
F
  0
LAYER
  5
4A
330
2
100
AcDbSymbolTableRecord
100
AcDbLayerTableRecord
  2
BASE
 70
     0
 62
     7
  6
CONTINUOUS
370
    -3
390
F
  0
LAYER
  5
4B
330
2
100
AcDbSymbolTableRecord
100
AcDbLayerTableRecord
  2
21
 70
     0
 62
     2
  6
CONTINUOUS
370
    -3
390
F
  0
LAYER
  5
4C
330
2
100
AcDbSymbolTableRecord
100
AcDbLayerTableRecord
  2
HEL035
 70
     0
 62
     7
  6
CONTINUOUS
370
    -3
390
F
  0
LAYER
  5
4D
330
2
100
AcDbSymbolTableRecord
100
AcDbLayerTableRecord
  2
MUO
 70
     0
 62
     7
  6
CONTINUOUS
370
    -3
390
F
  0
LAYER
  5
4E
330
2
100
AcDbSymbolTableRecord
100
AcDbLayerTableRecord
  2
1
 70
     0
 62
     2
  6
CONTINUOUS
370
    -3
390
F
  0
LAYER
  5
4F
330
2
100
AcDbSymbolTableRecord
100
AcDbLayerTableRecord
  2
BASE1
 70
     0
 62
     1
  6
CONTINUOUS
370
    -3
390
F
  0
LAYER
  5
50
330
2
100
AcDbSymbolTableRecord
100
AcDbLayerTableRecord
  2
TEKS
 70
     0
 62
     5
  6
CONTINUOUS
370
    -3
390
F
  0
LAYER
  5
51
330
2
100
AcDbSymbolTableRecord
100
AcDbLayerTableRecord
  2
DEFPOINTS
 70
     0
 62
     7
  6
CONTINUOUS
290
     0
370
    -3
390
F
  0
ENDTAB
  0
TABLE
  2
STYLE
  5
3
330
0
100
AcDbSymbolTable
 70
     3
  0
STYLE
  5
11
330
3
100
AcDbSymbolTableRecord
100
AcDbTextStyleTableRecord
  2
STANDARD
 70
     0
 40
0.0
 41
1.0
 50
0.0
 71
     0
 42
2.0
  3
txt
  4

  0
STYLE
  5
3D
330
3
100
AcDbSymbolTableRecord
100
AcDbTextStyleTableRecord
  2
ROMANS
 70
     0
 40
0.0
 41
1.0
 50
0.0
 71
     0
 42
2.0
  3
romans
  4

  0
STYLE
  5
3E
330
3
100
AcDbSymbolTableRecord
100
AcDbTextStyleTableRecord
  2
GREEKS
 70
     0
 40
0.0
 41
1.0
 50
0.0
 71
     0
 42
2.5
  3
TXT
  4

  0
ENDTAB
  0
TABLE
  2
VIEW
  5
6
330
0
100
AcDbSymbolTable
 70
     0
  0
ENDTAB
  0
TABLE
  2
UCS
  5
7
330
0
100
AcDbSymbolTable
 70
     0
  0
ENDTAB
  0
TABLE
  2
APPID
  5
9
330
0
100
AcDbSymbolTable
 70
     1
  0
APPID
  5
12
330
9
100
AcDbSymbolTableRecord
100
AcDbRegAppTableRecord
  2
ACAD
 70
     0
  0
ENDTAB
  0
TABLE
  2
DIMSTYLE
  5
A
330
0
100
AcDbSymbolTable
 70
     1
100
AcDbDimStyleTable
 71
     0
  0
DIMSTYLE
105
6F8
330
A
100
AcDbSymbolTableRecord
100
AcDbDimStyleTableRecord
  2
Standard
 70
     0
340
11
  0
ENDTAB
  0
TABLE
  2
BLOCK_RECORD
  5
1
330
0
100
AcDbSymbolTable
 70
    27
  0
BLOCK_RECORD
  5
1E
330
1
100
AcDbSymbolTableRecord
100
AcDbBlockTableRecord
  2
*Model_Space
340
21
  0
BLOCK_RECORD
  5
1A
330
1
100
AcDbSymbolTableRecord
100
AcDbBlockTableRecord
  2
*Paper_Space
340
1D
  0
BLOCK_RECORD
  5
22
330
1
100
AcDbSymbolTableRecord
100
AcDbBlockTableRecord
  2
1
340
0
102
{BLKREFS
331
270
331
271
331
272
102
}
  0
BLOCK_RECORD
  5
23
330
1
100
AcDbSymbolTableRecord
100
AcDbBlockTableRecord
  2
BLC16
340
0
  0
BLOCK_RECORD
  5
24
330
1
100
AcDbSymbolTableRecord
100
AcDbBlockTableRecord
  2
BLC27
340
0
102
{BLKREFS
331
407
331
408
331
41A
102
}
  0
BLOCK_RECORD
  5
25
330
1
100
AcDbSymbolTableRecord
100
AcDbBlockTableRecord
  2
BLC26
340
0
102
{BLKREFS
331
81
102
}
  0
BLOCK_RECORD
  5
26
330
1
100
AcDbSymbolTableRecord
100
AcDbBlockTableRecord
  2
BLC22
340
0
  0
BLOCK_RECORD
  5
27
330
1
100
AcDbSymbolTableRecord
100
AcDbBlockTableRecord
  2
BLC18
340
0
  0
BLOCK_RECORD
  5
28
330
1
100
AcDbSymbolTableRecord
100
AcDbBlockTableRecord
  2
BLC29
340
0
102
{BLKREFS
331
2C2
331
2C3
331
2C4
331
2C5
331
2C6
331
2C9
331
345
331
346
102
}
  0
BLOCK_RECORD
  5
29
330
1
100
AcDbSymbolTableRecord
100
AcDbBlockTableRecord
  2
WKU130
340
0
102
{BLKREFS
331
229
331
3E5
102
}
  0
BLOCK_RECORD
  5
2A
330
1
100
AcDbSymbolTableRecord
100
AcDbBlockTableRecord
  2
*X8
340
0
102
{BLKREFS
331
3B4
102
}
  0
BLOCK_RECORD
  5
2B
330
1
100
AcDbSymbolTableRecord
100
AcDbBlockTableRecord
  2
*X9
340
0
102
{BLKREFS
331
3B3
102
}
  0
BLOCK_RECORD
  5
2C
330
1
100
AcDbSymbolTableRecord
100
AcDbBlockTableRecord
  2
*X10
340
0
102
{BLKREFS
331
3B2
102
}
  0
BLOCK_RECORD
  5
2D
330
1
100
AcDbSymbolTableRecord
100
AcDbBlockTableRecord
  2
*X11
340
0
102
{BLKREFS
331
3B1
102
}
  0
BLOCK_RECORD
  5
2E
330
1
100
AcDbSymbolTableRecord
100
AcDbBlockTableRecord
  2
*X12
340
0
102
{BLKREFS
331
398
331
39F
102
}
  0
BLOCK_RECORD
  5
2F
330
1
100
AcDbSymbolTableRecord
100
AcDbBlockTableRecord
  2
*X13
340
0
102
{BLKREFS
331
399
331
39E
102
}
  0
BLOCK_RECORD
  5
30
330
1
100
AcDbSymbolTableRecord
100
AcDbBlockTableRecord
  2
*X14
340
0
102
{BLKREFS
331
39A
331
39D
102
}
  0
BLOCK_RECORD
  5
31
330
1
100
AcDbSymbolTableRecord
100
AcDbBlockTableRecord
  2
*X15
340
0
102
{BLKREFS
331
39B
331
39C
102
}
  0
BLOCK_RECORD
  5
32
330
1
100
AcDbSymbolTableRecord
100
AcDbBlockTableRecord
  2
BLC15
340
0
102
{BLKREFS
331
40C
331
40D
102
}
  0
BLOCK_RECORD
  5
33
330
1
100
AcDbSymbolTableRecord
100
AcDbBlockTableRecord
  2
BLC55
340
0
102
{BLKREFS
331
27C
102
}
  0
BLOCK_RECORD
  5
34
330
1
100
AcDbSymbolTableRecord
100
AcDbBlockTableRecord
  2
BLC5
340
0
102
{BLKREFS
331
216
102
}
  0
BLOCK_RECORD
  5
35
330
1
100
AcDbSymbolTableRecord
100
AcDbBlockTableRecord
  2
BLC43
340
0
102
{BLKREFS
331
284
331
29E
331
665
331
666
331
667
331
668
102
}
  0
BLOCK_RECORD
  5
36
330
1
100
AcDbSymbolTableRecord
100
AcDbBlockTableRecord
  2
BLC42
340
0
102
{BLKREFS
331
283
331
29F
331
669
102
}
  0
BLOCK_RECORD
  5
37
330
1
100
AcDbSymbolTableRecord
100
AcDbBlockTableRecord
  2
BLC44
340
0
102
{BLKREFS
331
28A
331
2A0
102
}
  0
BLOCK_RECORD
  5
38
330
1
100
AcDbSymbolTableRecord
100
AcDbBlockTableRecord
  2
BLC25
340
0
  0
BLOCK_RECORD
  5
39
330
1
100
AcDbSymbolTableRecord
100
AcDbBlockTableRecord
  2
B67
340
0
  0
BLOCK_RECORD
  5
3A
330
1
100
AcDbSymbolTableRecord
100
AcDbBlockTableRecord
  2
B37
340
0
102
{BLKREFS
331
249
102
}
  0
BLOCK_RECORD
  5
3B
330
1
100
AcDbSymbolTableRecord
100
AcDbBlockTableRecord
  2
B204
340
0
  0
BLOCK_RECORD
  5
3C
330
1
100
AcDbSymbolTableRecord
100
AcDbBlockTableRecord
  2
B13
340
0
  0
ENDTAB
  0
ENDSEC
  0
SECTION
  2
BLOCKS
  0
BLOCK
  5
54
330
1E
100
AcDbEntity
  8
0
100
AcDbBlockBegin
  2
*Model_Space
 70
     0
 10
0.0
 20
0.0
 30
0.0
  3
*Model_Space
  1

  0
ENDBLK
  5
55
330
1E
100
AcDbEntity
  8
0
100
AcDbBlockEnd
  0
BLOCK
  5
52
330
1A
100
AcDbEntity
 67
     1
  8
0
100
AcDbBlockBegin
  2
*Paper_Space
 70
     0
 10
0.0
 20
0.0
 30
0.0
  3
*Paper_Space
  1

  0
ENDBLK
  5
53
330
1A
100
AcDbEntity
 67
     1
  8
0
100
AcDbBlockEnd
  0
BLOCK
  5
56
330
22
100
AcDbEntity
  8
0
100
AcDbBlockBegin
  2
1
 70
     0
 10
0.0
 20
0.0
 30
0.0
  3
1
  1

  0
ENDBLK
  5
57
330
22
100
AcDbEntity
  8
0
100
AcDbBlockEnd
  0
BLOCK
  5
58
330
23
100
AcDbEntity
  8
0
100
AcDbBlockBegin
  2
BLC16
 70
     0
 10
0.0
 20
0.0
 30
0.0
  3
BLC16
  1

  0
LINE
  5
59
330
23
100
AcDbEntity
  8
0
  6
Continuous
100
AcDbLine
 10
0.007688543809266
 20
38.05492790713048
 30
0.0
 11
19.98368297262045
 21
38.05492790713048
 31
0.0
  0
LINE
  5
5A
330
23
100
AcDbEntity
  8
0
  6
Continuous
100
AcDbLine
 10
19.98368297262045
 20
38.05492790713048
 30
0.0
 11
19.98368297262045
 21
-0.0037506651295445
 31
0.0
  0
LINE
  5
5B
330
23
100
AcDbEntity
  8
0
  6
Continuous
100
AcDbLine
 10
19.98368297262045
 20
-0.0037506651295445
 30
0.0
 11
0.007688543809266
 21
-0.0037506651295445
 31
0.0
  0
LINE
  5
5C
330
23
100
AcDbEntity
  8
0
  6
Continuous
100
AcDbLine
 10
0.007688543809266
 20
-0.0037506651295445
 30
0.0
 11
0.007688543809266
 21
38.05492790713048
 31
0.0
  0
LINE
  5
5D
330
23
100
AcDbEntity
  8
0
  6
Continuous
100
AcDbLine
 10
14.15264305765733
 20
36.91973811995545
 30
0.0
 11
14.15264305765733
 21
33.52846854603386
 31
0.0
  0
LINE
  5
5E
330
23
100
AcDbEntity
  8
0
  6
Continuous
100
AcDbLine
 10
14.15264305765733
 20
33.52846854603386
 30
0.0
 11
11.56043525426407
 21
33.52846854603386
 31
0.0
  0
LINE
  5
5F
330
23
100
AcDbEntity
  8
0
  6
Continuous
100
AcDbLine
 10
11.56043525426407
 20
33.52846854603386
 30
0.0
 11
11.56043525426407
 21
30.77843318004674
 31
0.0
  0
LINE
  5
60
330
23
100
AcDbEntity
  8
0
  6
Continuous
100
AcDbLine
 10
11.56043525426407
 20
30.77843318004674
 30
0.0
 11
14.15264305765733
 21
30.77843318004674
 31
0.0
  0
LINE
  5
61
330
23
100
AcDbEntity
  8
0
  6
Continuous
100
AcDbLine
 10
14.15264305765733
 20
30.77843318004674
 30
0.0
 11
14.15264305765733
 21
27.3871636061251
 31
0.0
  0
TEXT
  5
62
330
23
100
AcDbEntity
  8
0
  6
Continuous
100
AcDbText
 10
6.558569492786901
 20
30.80526575700884
 30
0.0
 40
2.5
  1
2
 11
6.558569492786901
 21
29.97193242367551
 31
0.0
100
AcDbText
 73
     1
  0
TEXT
  5
64
330
23
100
AcDbEntity
  8
0
  6
Continuous
100
AcDbText
 10
6.553289092987213
 20
23.85407765705549
 30
0.0
 40
2.5
  1
2 I
 11
6.553289092987213
 21
23.02074432372215
 31
0.0
100
AcDbText
 73
     1
  0
LINE
  5
65
330
23
100
AcDbEntity
  8
0
  6
Continuous
100
AcDbLine
 10
12.94253367881567
 20
26.35912860214402
 30
0.0
 11
15.2882991910413
 21
25.02377489077527
 31
0.0
  0
LINE
  5
66
330
23
100
AcDbEntity
  8
0
  6
Continuous
100
AcDbLine
 10
15.2882991910413
 20
25.02377489077527
 30
0.0
 11
12.94253367881567
 21
23.83385574203085
 31
0.0
  0
LINE
  5
67
330
23
100
AcDbEntity
  8
0
  6
Continuous
100
AcDbLine
 10
14.16982338783971
 20
26.35912860214402
 30
0.0
 11
16.51558890006533
 21
25.02377489077527
 31
0.0
  0
LINE
  5
68
330
23
100
AcDbEntity
  8
0
  6
Continuous
100
AcDbLine
 10
16.51558890006533
 20
25.02377489077527
 30
0.0
 11
14.16982338783971
 21
23.83385574203085
 31
0.0
  0
TEXT
  5
69
330
23
100
AcDbEntity
  8
0
  6
Continuous
100
AcDbText
 10
11.56644561204224
 20
19.2356793808035
 30
0.0
 40
2.5
  1
I
 11
11.56644561204224
 21
18.40234604747017
 31
0.0
100
AcDbText
 73
     1
  0
TEXT
  5
6A
330
23
100
AcDbEntity
  8
0
  6
Continuous
100
AcDbText
 10
13.01818129898113
 20
18.90234604747017
 30
0.0
 40
1.5
  1
2
 11
13.01818129898113
 21
18.40234604747017
 31
0.0
100
AcDbText
 73
     1
  0
LINE
  5
6B
330
23
100
AcDbEntity
  8
0
  6
Continuous
100
AcDbLine
 10
10.65732992648723
 20
12.77382488441155
 30
0.0
 11
13.00309543871283
 21
13.96374403315597
 31
0.0
  0
LINE
  5
6C
330
23
100
AcDbEntity
  8
0
  6
Continuous
100
AcDbLine
 10
13.00309543871283
 20
11.43847117304277
 30
0.0
 11
10.65732992648723
 21
12.77382488441155
 31
0.0
  0
LINE
  5
6D
330
23
100
AcDbEntity
  8
0
  6
Continuous
100
AcDbLine
 10
6.557002402835379
 20
16.71465824609843
 30
0.0
 11
15.28174286348452
 21
16.71465824609843
 31
0.0
  0
LINE
  5
6E
330
23
100
AcDbEntity
  8
0
  6
Continuous
100
AcDbLine
 10
6.557002402835379
 20
17.52398388997782
 30
0.0
 11
6.557002402835379
 21
15.90879125881686
 31
0.0
  0
LINE
  5
6F
330
23
100
AcDbEntity
  8
0
  6
Continuous
100
AcDbLine
 10
15.28651830982313
 20
17.52398388997782
 30
0.0
 11
15.28651830982313
 21
15.90879125881686
 31
0.0
  0
ARC
  5
70
330
23
100
AcDbEntity
  8
0
  6
Continuous
100
AcDbCircle
 10
12.68484626207323
 20
18.50804481635963
 30
0.0
 40
2.922744400799075
100
AcDbArc
 50
193.1055130667446
 51
283.1055130667446
  0
TEXT
  5
71
330
23
100
AcDbEntity
  8
0
  6
Continuous
100
AcDbText
 10
6.557002402835379
 20
11.5679743218787
 30
0.0
 40
2.5
  1
2I
 11
6.557002402835379
 21
10.73464098854536
 31
0.0
100
AcDbText
 73
     1
  0
LINE
  5
72
330
23
100
AcDbEntity
  8
0
  6
Continuous
100
AcDbLine
 10
6.557002402835379
 20
9.441103420977455
 30
0.0
 11
15.28174286348452
 21
9.441103420977455
 31
0.0
  0
LINE
  5
73
330
23
100
AcDbEntity
  8
0
  6
Continuous
100
AcDbLine
 10
15.28651830982313
 20
10.25042906485684
 30
0.0
 11
15.28651830982313
 21
8.63523643369588
 31
0.0
  0
LINE
  5
74
330
23
100
AcDbEntity
  8
0
  6
Continuous
100
AcDbLine
 10
6.557002402835379
 20
10.25042906485684
 30
0.0
 11
6.557002402835379
 21
8.63523643369588
 31
0.0
  0
TEXT
  5
75
330
23
100
AcDbEntity
  8
0
  6
Continuous
100
AcDbText
 10
6.557002402835379
 20
4.778631420446179
 30
0.0
 40
2.5
  1
I
 11
6.557002402835379
 21
3.945298087112846
 31
0.0
100
AcDbText
 73
     1
  0
LINE
  5
76
330
23
100
AcDbEntity
  8
0
  6
Continuous
100
AcDbLine
 10
9.509028761221046
 20
6.822461571955827
 30
0.0
 11
9.509028761221046
 21
5.477735886740859
 31
0.0
  0
LINE
  5
77
330
23
100
AcDbEntity
  8
0
  6
Continuous
100
AcDbLine
 10
8.615065206632394
 20
5.477735886740859
 30
0.0
 11
9.526220368040085
 21
5.477735886740859
 31
0.0
  0
LINE
  5
78
330
23
100
AcDbEntity
  8
0
  6
Continuous
100
AcDbLine
 10
9.509028761221046
 20
5.477735886740859
 30
0.0
 11
10.40299231580975
 21
5.477735886740859
 31
0.0
  0
LINE
  5
79
330
23
100
AcDbEntity
  8
0
  6
Continuous
100
AcDbLine
 10
8.90159198694927
 20
5.082327781630496
 30
0.0
 11
9.509028761221046
 21
5.082327781630496
 31
0.0
  0
LINE
  5
7A
330
23
100
AcDbEntity
  8
0
  6
Continuous
100
AcDbLine
 10
9.509028761221046
 20
5.082327781630525
 30
0.0
 11
10.15084874913087
 21
5.082327781630496
 31
0.0
  0
LINE
  5
7B
330
23
100
AcDbEntity
  8
0
  6
Continuous
100
AcDbLine
 10
9.981861134137275
 20
4.719969133827802
 30
0.0
 11
9.072041111215057
 21
4.719969133827802
 31
0.0
  0
LINE
  5
7C
330
23
100
AcDbEntity
  8
0
  6
Continuous
100
AcDbLine
 10
15.28651830982313
 20
2.79792376144114
 30
0.0
 11
15.28651830982313
 21
1.182731130280146
 31
0.0
  0
LINE
  5
7D
330
23
100
AcDbEntity
  8
0
  6
Continuous
100
AcDbLine
 10
6.557002402835379
 20
1.98859811756175
 30
0.0
 11
15.28174286348452
 21
1.98859811756175
 31
0.0
  0
LINE
  5
7E
330
23
100
AcDbEntity
  8
0
  6
Continuous
100
AcDbLine
 10
6.557002402835379
 20
2.79792376144114
 30
0.0
 11
6.557002402835379
 21
1.182731130280146
 31
0.0
  0
ENDBLK
  5
7F
330
23
100
AcDbEntity
  8
0
100
AcDbBlockEnd
  0
BLOCK
  5
80
330
24
100
AcDbEntity
  8
0
  6
DASHED
100
AcDbBlockBegin
  2
BLC27
 70
     0
 10
0.0
 20
0.0
 30
0.0
  3
BLC27
  1

  0
INSERT
  5
81
330
24
100
AcDbEntity
  8
SWEDEN2
  6
CENTER
100
AcDbBlockReference
  2
BLC26
 10
0.0806298676206154
 20
0.0379850207146433
 30
0.0
 41
1.006224687463202
 42
1.006224687463202
 43
1.006224687463202
  0
ENDBLK
  5
82
330
24
100
AcDbEntity
  8
0
  6
DASHED
100
AcDbBlockEnd
  0
BLOCK
  5
83
330
25
100
AcDbEntity
  8
SWEDEN
  6
Continuous
100
AcDbBlockBegin
  2
BLC26
 70
     0
 10
0.0
 20
0.0
 30
0.0
  3
BLC26
  1

  0
ARC
  5
84
330
25
100
AcDbEntity
  8
0
  6
Continuous
100
AcDbCircle
 10
-0.1805760986685527
 20
1.179220254965343
 30
0.0
 40
1.196858692389954
100
AcDbArc
 50
90.0
 51
265.7062371869478
  0
LINE
  5
85
330
25
100
AcDbEntity
  8
0
  6
Continuous
100
AcDbLine
 10
-0.1866378806934961
 20
-0.0109199663277195
 30
0.0
 11
0.4589419049629271
 21
-0.0109199663277195
 31
0.0
  0
LINE
  5
86
330
25
100
AcDbEntity
  8
0
  6
Continuous
100
AcDbLine
 10
-0.1866378806934961
 20
2.375670901630712
 30
0.0
 11
0.4528801229380406
 21
2.375670901630712
 31
0.0
  0
LINE
  5
87
330
25
100
AcDbEntity
  8
0
  6
Continuous
100
AcDbLine
 10
-0.1855088671185854
 20
-2.40462935692193
 30
0.0
 11
0.4600709185378947
 21
-2.40462935692193
 31
0.0
  0
ARC
  5
88
330
25
100
AcDbEntity
  8
0
  6
Continuous
100
AcDbCircle
 10
-0.1805760986685527
 20
-1.207778658717671
 30
0.0
 40
1.196858692389954
100
AcDbArc
 50
90.0
 51
270.0
  0
LINE
  5
89
330
25
100
AcDbEntity
  8
0
  6
Continuous
100
AcDbLine
 10
0.4515250165858618
 20
-2.404586463428898
 30
0.0
 11
1.401804627155996
 21
-2.404586463428898
 31
0.0
  0
LINE
  5
8A
330
25
100
AcDbEntity
  8
0
  6
Continuous
100
AcDbLine
 10
0.4467851751237788
 20
2.375673621606836
 30
0.0
 11
1.418543909567034
 21
2.375673621606836
 31
0.0
  0
LINE
  5
8B
330
25
100
AcDbEntity
  8
0
  6
Continuous
100
AcDbLine
 10
0.4566268661492927
 20
-0.0109105363144124
 30
0.0
 11
1.422748890188501
 21
-0.0109105363144124
 31
0.0
  0
ENDBLK
  5
8C
330
25
100
AcDbEntity
  8
SWEDEN
  6
Continuous
100
AcDbBlockEnd
  0
BLOCK
  5
8D
330
26
100
AcDbEntity
  8
BASE
  6
CENTER
100
AcDbBlockBegin
  2
BLC22
 70
     0
 10
0.0
 20
0.0
 30
0.0
  3
BLC22
  1

  0
LINE
  5
8E
330
26
100
AcDbEntity
  8
HEL035
100
AcDbLine
 10
0.0
 20
-0.0015500000000088
 30
0.0
 11
0.0
 21
9.998450000000048
 31
0.0
  0
LINE
  5
8F
330
26
100
AcDbEntity
  8
21
100
AcDbLine
 10
2.5
 20
10.0
 30
0.0
 11
5.0
 21
10.0
 31
0.0
  0
LINE
  5
90
330
26
100
AcDbEntity
  8
HEL035
100
AcDbLine
 10
0.0
 20
9.998450000000048
 30
0.0
 11
2.5
 21
9.998450000000048
 31
0.0
  0
LINE
  5
91
330
26
100
AcDbEntity
  8
HEL035
100
AcDbLine
 10
-2.5
 20
5.0
 30
0.0
 11
2.5
 21
5.0
 31
0.0
  0
LINE
  5
92
330
26
100
AcDbEntity
  8
21
100
AcDbLine
 10
2.5
 20
5.0
 30
0.0
 11
5.0
 21
5.0
 31
0.0
  0
LINE
  5
93
330
26
100
AcDbEntity
  8
21
100
AcDbLine
 10
5.0
 20
5.0
 30
0.0
 11
5.0
 21
7.900000000000005
 31
0.0
  0
LINE
  5
94
330
26
100
AcDbEntity
  8
HEL035
100
AcDbLine
 10
3.880950475618021
 20
6.944424757063899
 30
0.0
 11
4.560313229692326
 21
6.008681430563825
 31
0.0
  0
LINE
  5
95
330
26
100
AcDbEntity
  8
21
100
AcDbLine
 10
10.0
 20
10.0
 30
0.0
 11
4.199999999999988
 21
6.5
 31
0.0
  0
LINE
  5
96
330
26
100
AcDbEntity
  8
HEL035
100
AcDbLine
 10
2.5
 20
-0.0015500000000088
 30
0.0
 11
0.0
 21
-0.0015500000000088
 31
0.0
  0
LINE
  5
97
330
26
100
AcDbEntity
  8
21
100
AcDbLine
 10
2.5
 20
0.0
 30
0.0
 11
5.0
 21
0.0
 31
0.0
  0
ENDBLK
  5
98
330
26
100
AcDbEntity
  8
BASE
  6
CENTER
100
AcDbBlockEnd
  0
BLOCK
  5
99
330
27
100
AcDbEntity
  8
BASE
  6
Continuous
100
AcDbBlockBegin
  2
BLC18
 70
     0
 10
0.0
 20
0.0
 30
0.0
  3
BLC18
  1

  0
LINE
  5
9A
330
27
100
AcDbEntity
  8
MUO
100
AcDbLine
 10
-0.0562679883412756
 20
0.8495546738177921
 30
0.0
 11
8.307242059683858
 21
9.215501804109429
 31
0.0
  0
LINE
  5
9B
330
27
100
AcDbEntity
  8
MUO
100
AcDbLine
 10
0.9280248765246881
 20
-0.107047211869272
 30
0.0
 11
9.268385649226672
 21
8.230699888388677
 31
0.0
  0
LINE
  5
9C
330
27
100
AcDbEntity
  8
MUO
100
AcDbLine
 10
-0.0562679883412756
 20
-0.107047211869272
 30
0.0
 11
-0.0562679883412756
 21
9.215501804109429
 31
0.0
  0
LINE
  5
9D
330
27
100
AcDbEntity
  8
MUO
100
AcDbLine
 10
9.268385649226672
 20
-0.107047211869272
 30
0.0
 11
-0.0562679883412756
 21
-0.107047211869272
 31
0.0
  0
LINE
  5
9E
330
27
100
AcDbEntity
  8
MUO
100
AcDbLine
 10
9.268385649226672
 20
9.215501804109429
 30
0.0
 11
9.268385649226672
 21
-0.107047211869272
 31
0.0
  0
LINE
  5
9F
330
27
100
AcDbEntity
  8
MUO
100
AcDbLine
 10
-0.0562679883412756
 20
9.215501804109429
 30
0.0
 11
9.268385649226672
 21
9.215501804109429
 31
0.0
  0
ENDBLK
  5
A0
330
27
100
AcDbEntity
  8
BASE
  6
Continuous
100
AcDbBlockEnd
  0
BLOCK
  5
A1
330
28
100
AcDbEntity
  8
BASE
  6
Continuous
100
AcDbBlockBegin
  2
BLC29
 70
     0
 10
0.0
 20
0.0
 30
0.0
  3
BLC29
  1

  0
LINE
  5
A2
330
28
100
AcDbEntity
  8
0
  6
Continuous
100
AcDbLine
 10
0.0048653824876794
 20
1.206889041390212
 30
0.0
 11
2.350630894713304
 21
-0.1284646699785696
 31
0.0
  0
LINE
  5
A3
330
28
100
AcDbEntity
  8
0
  6
Continuous
100
AcDbLine
 10
2.350630894713304
 20
-0.1284646699785696
 30
0.0
 11
0.0048653824876794
 21
-1.318383818722992
 31
0.0
  0
ENDBLK
  5
A4
330
28
100
AcDbEntity
  8
BASE
  6
Continuous
100
AcDbBlockEnd
  0
BLOCK
  5
A5
330
29
100
AcDbEntity
  8
1
100
AcDbBlockBegin
  2
WKU130
 70
     0
 10
190.0
 20
250.0
 30
0.0
  3
WKU130
  1

  0
ARC
  5
A6
330
29
100
AcDbEntity
  8
21
100
AcDbCircle
 10
191.083333
 20
249.916667
 30
0.0
 40
1.086534
100
AcDbArc
 50
32.47119199999999
 51
175.6012949999999
  0
ARC
  5
A7
330
29
100
AcDbEntity
  8
21
100
AcDbCircle
 10
192.9166669999999
 20
251.083333
 30
0.0
 40
1.086534
100
AcDbArc
 50
212.471192
 51
355.6012949999999
  0
ENDBLK
  5
A8
330
29
100
AcDbEntity
  8
1
100
AcDbBlockEnd
  0
BLOCK
  5
A9
330
2A
100
AcDbEntity
  8
0
100
AcDbBlockBegin
  2
*X8
 70
     1
 10
0.0
 20
0.0
 30
0.0
  3
*X8
  1

  0
LINE
  5
AA
330
2A
100
AcDbEntity
  8
0
 62
     0
100
AcDbLine
 10
2.284498831525768
 20
6.527139518645053
 30
0.0
 11
4.8
 21
9.042640687119284
 31
0.0
  0
LINE
  5
AB
330
2A
100
AcDbEntity
  8
0
 62
     0
100
AcDbLine
 10
2.379686282839342
 20
6.799103665255263
 30
0.0
 11
4.8
 21
9.219417382415922
 31
0.0
  0
LINE
  5
AC
330
2A
100
AcDbEntity
  8
0
 62
     0
100
AcDbLine
 10
2.474873734152915
 20
7.071067811865474
 30
0.0
 11
4.8
 21
9.396194077712559
 31
0.0
  0
LINE
  5
AD
330
2A
100
AcDbEntity
  8
0
 62
     0
100
AcDbLine
 10
2.570061185466489
 20
7.343031958475685
 30
0.0
 11
4.8
 21
9.572970773009195
 31
0.0
  0
LINE
  5
AE
330
2A
100
AcDbEntity
  8
0
 62
     0
100
AcDbLine
 10
2.665248636780063
 20
7.614996105085896
 30
0.0
 11
4.8
 21
9.749747468305832
 31
0.0
  0
LINE
  5
AF
330
2A
100
AcDbEntity
  8
0
 62
     0
100
AcDbLine
 10
2.760436088093637
 20
7.886960251696106
 30
0.0
 11
4.8
 21
9.926524163602469
 31
0.0
  0
LINE
  5
B0
330
2A
100
AcDbEntity
  8
0
 62
     0
100
AcDbLine
 10
2.85562353940721
 20
8.158924398306316
 30
0.0
 11
4.696699141100895
 21
10.0
 31
0.0
  0
LINE
  5
B1
330
2A
100
AcDbEntity
  8
0
 62
     0
100
AcDbLine
 10
2.950810990720784
 20
8.430888544916527
 30
0.0
 11
4.519922445804257
 21
10.0
 31
0.0
  0
LINE
  5
B2
330
2A
100
AcDbEntity
  8
0
 62
     0
100
AcDbLine
 10
3.045998442034358
 20
8.702852691526738
 30
0.0
 11
4.343145750507621
 21
10.0
 31
0.0
  0
LINE
  5
B3
330
2A
100
AcDbEntity
  8
0
 62
     0
100
AcDbLine
 10
3.141185893347932
 20
8.974816838136948
 30
0.0
 11
4.166369055210983
 21
10.0
 31
0.0
  0
LINE
  5
B4
330
2A
100
AcDbEntity
  8
0
 62
     0
100
AcDbLine
 10
3.236373344661505
 20
9.246780984747159
 30
0.0
 11
3.989592359914347
 21
10.0
 31
0.0
  0
LINE
  5
B5
330
2A
100
AcDbEntity
  8
0
 62
     0
100
AcDbLine
 10
3.331560795975079
 20
9.51874513135737
 30
0.0
 11
3.81281566461771
 21
10.0
 31
0.0
  0
LINE
  5
B6
330
2A
100
AcDbEntity
  8
0
 62
     0
100
AcDbLine
 10
3.426748247288653
 20
9.790709277967581
 30
0.0
 11
3.636038969321073
 21
10.0
 31
0.0
  0
LINE
  5
B7
330
2A
100
AcDbEntity
  8
0
 62
     0
100
AcDbLine
 10
2.189311380212195
 20
6.255175372034843
 30
0.0
 11
4.8
 21
8.865863991822648
 31
0.0
  0
LINE
  5
B8
330
2A
100
AcDbEntity
  8
0
 62
     0
100
AcDbLine
 10
2.094123928898621
 20
5.983211225424632
 30
0.0
 11
4.8
 21
8.689087296526011
 31
0.0
  0
LINE
  5
B9
330
2A
100
AcDbEntity
  8
0
 62
     0
100
AcDbLine
 10
1.998936477585047
 20
5.711247078814421
 30
0.0
 11
4.8
 21
8.512310601229374
 31
0.0
  0
LINE
  5
BA
330
2A
100
AcDbEntity
  8
0
 62
     0
100
AcDbLine
 10
1.903749026271473
 20
5.439282932204211
 30
0.0
 11
4.8
 21
8.335533905932738
 31
0.0
  0
LINE
  5
BB
330
2A
100
AcDbEntity
  8
0
 62
     0
100
AcDbLine
 10
1.841242789363899
 20
5.2
 30
0.0
 11
4.8
 21
8.1587572106361
 31
0.0
  0
LINE
  5
BC
330
2A
100
AcDbEntity
  8
0
 62
     0
100
AcDbLine
 10
2.018019484660536
 20
5.2
 30
0.0
 11
4.8
 21
7.981980515339463
 31
0.0
  0
LINE
  5
BD
330
2A
100
AcDbEntity
  8
0
 62
     0
100
AcDbLine
 10
2.194796179957173
 20
5.2
 30
0.0
 11
4.8
 21
7.805203820042827
 31
0.0
  0
LINE
  5
BE
330
2A
100
AcDbEntity
  8
0
 62
     0
100
AcDbLine
 10
2.37157287525381
 20
5.2
 30
0.0
 11
4.8
 21
7.62842712474619
 31
0.0
  0
LINE
  5
BF
330
2A
100
AcDbEntity
  8
0
 62
     0
100
AcDbLine
 10
2.548349570550447
 20
5.2
 30
0.0
 11
4.8
 21
7.451650429449553
 31
0.0
  0
LINE
  5
C0
330
2A
100
AcDbEntity
  8
0
 62
     0
100
AcDbLine
 10
2.725126265847084
 20
5.2
 30
0.0
 11
4.8
 21
7.274873734152916
 31
0.0
  0
LINE
  5
C1
330
2A
100
AcDbEntity
  8
0
 62
     0
100
AcDbLine
 10
2.901902961143721
 20
5.2
 30
0.0
 11
4.8
 21
7.098097038856279
 31
0.0
  0
LINE
  5
C2
330
2A
100
AcDbEntity
  8
0
 62
     0
100
AcDbLine
 10
3.078679656440358
 20
5.2
 30
0.0
 11
4.8
 21
6.921320343559642
 31
0.0
  0
LINE
  5
C3
330
2A
100
AcDbEntity
  8
0
 62
     0
100
AcDbLine
 10
3.255456351736994
 20
5.2
 30
0.0
 11
4.8
 21
6.744543648263006
 31
0.0
  0
LINE
  5
C4
330
2A
100
AcDbEntity
  8
0
 62
     0
100
AcDbLine
 10
3.432233047033631
 20
5.2
 30
0.0
 11
4.8
 21
6.567766952966368
 31
0.0
  0
LINE
  5
C5
330
2A
100
AcDbEntity
  8
0
 62
     0
100
AcDbLine
 10
3.609009742330268
 20
5.2
 30
0.0
 11
4.8
 21
6.390990257669732
 31
0.0
  0
LINE
  5
C6
330
2A
100
AcDbEntity
  8
0
 62
     0
100
AcDbLine
 10
3.785786437626905
 20
5.2
 30
0.0
 11
4.8
 21
6.214213562373095
 31
0.0
  0
LINE
  5
C7
330
2A
100
AcDbEntity
  8
0
 62
     0
100
AcDbLine
 10
3.962563132923542
 20
5.2
 30
0.0
 11
4.8
 21
6.037436867076458
 31
0.0
  0
LINE
  5
C8
330
2A
100
AcDbEntity
  8
0
 62
     0
100
AcDbLine
 10
4.139339828220179
 20
5.2
 30
0.0
 11
4.8
 21
5.860660171779821
 31
0.0
  0
LINE
  5
C9
330
2A
100
AcDbEntity
  8
0
 62
     0
100
AcDbLine
 10
4.316116523516816
 20
5.2
 30
0.0
 11
4.8
 21
5.683883476483184
 31
0.0
  0
LINE
  5
CA
330
2A
100
AcDbEntity
  8
0
 62
     0
100
AcDbLine
 10
4.492893218813453
 20
5.2
 30
0.0
 11
4.8
 21
5.507106781186547
 31
0.0
  0
LINE
  5
CB
330
2A
100
AcDbEntity
  8
0
 62
     0
100
AcDbLine
 10
4.669669914110089
 20
5.2
 30
0.0
 11
4.8
 21
5.330330085889911
 31
0.0
  0
ENDBLK
  5
CC
330
2A
100
AcDbEntity
  8
0
100
AcDbBlockEnd
  0
BLOCK
  5
CD
330
2B
100
AcDbEntity
  8
0
100
AcDbBlockBegin
  2
*X9
 70
     1
 10
0.0
 20
0.0
 30
0.0
  3
*X9
  1

  0
LINE
  5
CE
330
2B
100
AcDbEntity
  8
0
 62
     0
100
AcDbLine
 10
5.2
 20
6.083883476483183
 30
0.0
 11
7.178252432022877
 21
8.062135908506061
 31
0.0
  0
LINE
  5
CF
330
2B
100
AcDbEntity
  8
0
 62
     0
100
AcDbLine
 10
5.2
 20
6.260660171779821
 30
0.0
 11
7.132421436945971
 21
8.19308160872579
 31
0.0
  0
LINE
  5
D0
330
2B
100
AcDbEntity
  8
0
 62
     0
100
AcDbLine
 10
5.2
 20
6.437436867076457
 30
0.0
 11
7.086590441869065
 21
8.324027308945522
 31
0.0
  0
LINE
  5
D1
330
2B
100
AcDbEntity
  8
0
 62
     0
100
AcDbLine
 10
5.2
 20
6.614213562373095
 30
0.0
 11
7.04075944679216
 21
8.454973009165254
 31
0.0
  0
LINE
  5
D2
330
2B
100
AcDbEntity
  8
0
 62
     0
100
AcDbLine
 10
5.2
 20
6.790990257669731
 30
0.0
 11
6.994928451715254
 21
8.585918709384984
 31
0.0
  0
LINE
  5
D3
330
2B
100
AcDbEntity
  8
0
 62
     0
100
AcDbLine
 10
5.2
 20
6.967766952966368
 30
0.0
 11
6.949097456638348
 21
8.716864409604715
 31
0.0
  0
LINE
  5
D4
330
2B
100
AcDbEntity
  8
0
 62
     0
100
AcDbLine
 10
5.2
 20
7.144543648263005
 30
0.0
 11
6.903266461561442
 21
8.847810109824447
 31
0.0
  0
LINE
  5
D5
330
2B
100
AcDbEntity
  8
0
 62
     0
100
AcDbLine
 10
5.2
 20
7.321320343559642
 30
0.0
 11
6.857435466484536
 21
8.978755810044177
 31
0.0
  0
LINE
  5
D6
330
2B
100
AcDbEntity
  8
0
 62
     0
100
AcDbLine
 10
5.2
 20
7.498097038856279
 30
0.0
 11
6.81160447140763
 21
9.109701510263908
 31
0.0
  0
LINE
  5
D7
330
2B
100
AcDbEntity
  8
0
 62
     0
100
AcDbLine
 10
5.2
 20
7.674873734152916
 30
0.0
 11
6.765773476330724
 21
9.24064721048364
 31
0.0
  0
LINE
  5
D8
330
2B
100
AcDbEntity
  8
0
 62
     0
100
AcDbLine
 10
5.2
 20
7.851650429449552
 30
0.0
 11
6.719942481253818
 21
9.37159291070337
 31
0.0
  0
LINE
  5
D9
330
2B
100
AcDbEntity
  8
0
 62
     0
100
AcDbLine
 10
5.2
 20
8.028427124746189
 30
0.0
 11
6.674111486176912
 21
9.502538610923101
 31
0.0
  0
LINE
  5
DA
330
2B
100
AcDbEntity
  8
0
 62
     0
100
AcDbLine
 10
5.2
 20
8.205203820042827
 30
0.0
 11
6.628280491100007
 21
9.633484311142833
 31
0.0
  0
LINE
  5
DB
330
2B
100
AcDbEntity
  8
0
 62
     0
100
AcDbLine
 10
5.2
 20
8.381980515339463
 30
0.0
 11
6.582449496023101
 21
9.764430011362563
 31
0.0
  0
LINE
  5
DC
330
2B
100
AcDbEntity
  8
0
 62
     0
100
AcDbLine
 10
5.2
 20
8.5587572106361
 30
0.0
 11
6.536618500946195
 21
9.895375711582294
 31
0.0
  0
LINE
  5
DD
330
2B
100
AcDbEntity
  8
0
 62
     0
100
AcDbLine
 10
5.2
 20
8.735533905932737
 30
0.0
 11
6.464466094067264
 21
10.0
 31
0.0
  0
LINE
  5
DE
330
2B
100
AcDbEntity
  8
0
 62
     0
100
AcDbLine
 10
5.2
 20
8.912310601229373
 30
0.0
 11
6.287689398770627
 21
10.0
 31
0.0
  0
LINE
  5
DF
330
2B
100
AcDbEntity
  8
0
 62
     0
100
AcDbLine
 10
5.2
 20
9.089087296526011
 30
0.0
 11
6.11091270347399
 21
10.0
 31
0.0
  0
LINE
  5
E0
330
2B
100
AcDbEntity
  8
0
 62
     0
100
AcDbLine
 10
5.2
 20
9.265863991822648
 30
0.0
 11
5.934136008177353
 21
10.0
 31
0.0
  0
LINE
  5
E1
330
2B
100
AcDbEntity
  8
0
 62
     0
100
AcDbLine
 10
5.2
 20
9.442640687119284
 30
0.0
 11
5.757359312880716
 21
10.0
 31
0.0
  0
LINE
  5
E2
330
2B
100
AcDbEntity
  8
0
 62
     0
100
AcDbLine
 10
5.2
 20
9.619417382415921
 30
0.0
 11
5.580582617584079
 21
10.0
 31
0.0
  0
LINE
  5
E3
330
2B
100
AcDbEntity
  8
0
 62
     0
100
AcDbLine
 10
5.2
 20
9.796194077712558
 30
0.0
 11
5.403805922287442
 21
10.0
 31
0.0
  0
LINE
  5
E4
330
2B
100
AcDbEntity
  8
0
 62
     0
100
AcDbLine
 10
5.2
 20
9.972970773009194
 30
0.0
 11
5.227029226990805
 21
10.0
 31
0.0
  0
LINE
  5
E5
330
2B
100
AcDbEntity
  8
0
 62
     0
100
AcDbLine
 10
5.2
 20
5.907106781186547
 30
0.0
 11
7.224083427099783
 21
7.931190208286329
 31
0.0
  0
LINE
  5
E6
330
2B
100
AcDbEntity
  8
0
 62
     0
100
AcDbLine
 10
5.2
 20
5.73033008588991
 30
0.0
 11
7.269914422176689
 21
7.800244508066598
 31
0.0
  0
LINE
  5
E7
330
2B
100
AcDbEntity
  8
0
 62
     0
100
AcDbLine
 10
5.2
 20
5.553553390593273
 30
0.0
 11
7.315745417253594
 21
7.669298807846868
 31
0.0
  0
LINE
  5
E8
330
2B
100
AcDbEntity
  8
0
 62
     0
100
AcDbLine
 10
5.2
 20
5.376776695296636
 30
0.0
 11
7.3615764123305
 21
7.538353107627136
 31
0.0
  0
LINE
  5
E9
330
2B
100
AcDbEntity
  8
0
 62
     0
100
AcDbLine
 10
5.2
 20
5.2
 30
0.0
 11
7.407407407407406
 21
7.407407407407405
 31
0.0
  0
LINE
  5
EA
330
2B
100
AcDbEntity
  8
0
 62
     0
100
AcDbLine
 10
5.376776695296637
 20
5.2
 30
0.0
 11
7.453238402484312
 21
7.276461707187674
 31
0.0
  0
LINE
  5
EB
330
2B
100
AcDbEntity
  8
0
 62
     0
100
AcDbLine
 10
5.553553390593274
 20
5.2
 30
0.0
 11
7.499069397561219
 21
7.145516006967943
 31
0.0
  0
LINE
  5
EC
330
2B
100
AcDbEntity
  8
0
 62
     0
100
AcDbLine
 10
5.730330085889911
 20
5.2
 30
0.0
 11
7.544900392638124
 21
7.014570306748212
 31
0.0
  0
LINE
  5
ED
330
2B
100
AcDbEntity
  8
0
 62
     0
100
AcDbLine
 10
5.907106781186548
 20
5.2
 30
0.0
 11
7.59073138771503
 21
6.883624606528481
 31
0.0
  0
LINE
  5
EE
330
2B
100
AcDbEntity
  8
0
 62
     0
100
AcDbLine
 10
6.083883476483184
 20
5.2
 30
0.0
 11
7.636562382791936
 21
6.752678906308751
 31
0.0
  0
LINE
  5
EF
330
2B
100
AcDbEntity
  8
0
 62
     0
100
AcDbLine
 10
6.260660171779822
 20
5.2
 30
0.0
 11
7.682393377868842
 21
6.621733206089019
 31
0.0
  0
LINE
  5
F0
330
2B
100
AcDbEntity
  8
0
 62
     0
100
AcDbLine
 10
6.437436867076458
 20
5.2
 30
0.0
 11
7.728224372945748
 21
6.490787505869288
 31
0.0
  0
LINE
  5
F1
330
2B
100
AcDbEntity
  8
0
 62
     0
100
AcDbLine
 10
6.614213562373095
 20
5.2
 30
0.0
 11
7.774055368022653
 21
6.359841805649558
 31
0.0
  0
LINE
  5
F2
330
2B
100
AcDbEntity
  8
0
 62
     0
100
AcDbLine
 10
6.790990257669732
 20
5.2
 30
0.0
 11
7.819886363099559
 21
6.228896105429826
 31
0.0
  0
LINE
  5
F3
330
2B
100
AcDbEntity
  8
0
 62
     0
100
AcDbLine
 10
6.967766952966369
 20
5.2
 30
0.0
 11
7.865717358176465
 21
6.097950405210095
 31
0.0
  0
LINE
  5
F4
330
2B
100
AcDbEntity
  8
0
 62
     0
100
AcDbLine
 10
7.144543648263006
 20
5.2
 30
0.0
 11
7.911548353253371
 21
5.967004704990364
 31
0.0
  0
LINE
  5
F5
330
2B
100
AcDbEntity
  8
0
 62
     0
100
AcDbLine
 10
7.321320343559643
 20
5.2
 30
0.0
 11
7.957379348330277
 21
5.836059004770634
 31
0.0
  0
LINE
  5
F6
330
2B
100
AcDbEntity
  8
0
 62
     0
100
AcDbLine
 10
7.49809703885628
 20
5.2
 30
0.0
 11
8.003210343407182
 21
5.705113304550902
 31
0.0
  0
LINE
  5
F7
330
2B
100
AcDbEntity
  8
0
 62
     0
100
AcDbLine
 10
7.674873734152916
 20
5.2
 30
0.0
 11
8.049041338484089
 21
5.574167604331171
 31
0.0
  0
LINE
  5
F8
330
2B
100
AcDbEntity
  8
0
 62
     0
100
AcDbLine
 10
7.851650429449553
 20
5.2
 30
0.0
 11
8.094872333560994
 21
5.443221904111441
 31
0.0
  0
LINE
  5
F9
330
2B
100
AcDbEntity
  8
0
 62
     0
100
AcDbLine
 10
8.02842712474619
 20
5.2
 30
0.0
 11
8.140703328637901
 21
5.312276203891709
 31
0.0
  0
ENDBLK
  5
FA
330
2B
100
AcDbEntity
  8
0
100
AcDbBlockEnd
  0
BLOCK
  5
FB
330
2C
100
AcDbEntity
  8
0
100
AcDbBlockBegin
  2
*X10
 70
     1
 10
0.0
 20
0.0
 30
0.0
  3
*X10
  1

  0
LINE
  5
FC
330
2C
100
AcDbEntity
  8
0
 62
     0
100
AcDbLine
 10
0.0
 20
0.0
 30
0.0
 11
4.8
 21
4.799999999999999
 31
0.0
  0
LINE
  5
FD
330
2C
100
AcDbEntity
  8
0
 62
     0
100
AcDbLine
 10
0.0951874513135737
 20
0.2719641466102105
 30
0.0
 11
4.623223304703364
 21
4.8
 31
0.0
  0
LINE
  5
FE
330
2C
100
AcDbEntity
  8
0
 62
     0
100
AcDbLine
 10
0.1903749026271474
 20
0.5439282932204211
 30
0.0
 11
4.446446609406727
 21
4.8
 31
0.0
  0
LINE
  5
FF
330
2C
100
AcDbEntity
  8
0
 62
     0
100
AcDbLine
 10
0.2855623539407211
 20
0.8158924398306318
 30
0.0
 11
4.269669914110091
 21
4.8
 31
0.0
  0
LINE
  5
100
330
2C
100
AcDbEntity
  8
0
 62
     0
100
AcDbLine
 10
0.3807498052542948
 20
1.087856586440842
 30
0.0
 11
4.092893218813453
 21
4.8
 31
0.0
  0
LINE
  5
101
330
2C
100
AcDbEntity
  8
0
 62
     0
100
AcDbLine
 10
0.4759372565678686
 20
1.359820733051052
 30
0.0
 11
3.916116523516816
 21
4.8
 31
0.0
  0
LINE
  5
102
330
2C
100
AcDbEntity
  8
0
 62
     0
100
AcDbLine
 10
0.5711247078814422
 20
1.631784879661263
 30
0.0
 11
3.73933982822018
 21
4.8
 31
0.0
  0
LINE
  5
103
330
2C
100
AcDbEntity
  8
0
 62
     0
100
AcDbLine
 10
0.6663121591950159
 20
1.903749026271474
 30
0.0
 11
3.562563132923543
 21
4.8
 31
0.0
  0
LINE
  5
104
330
2C
100
AcDbEntity
  8
0
 62
     0
100
AcDbLine
 10
0.7614996105085896
 20
2.175713172881684
 30
0.0
 11
3.385786437626906
 21
4.8
 31
0.0
  0
LINE
  5
105
330
2C
100
AcDbEntity
  8
0
 62
     0
100
AcDbLine
 10
0.8566870618221631
 20
2.447677319491895
 30
0.0
 11
3.209009742330269
 21
4.8
 31
0.0
  0
LINE
  5
106
330
2C
100
AcDbEntity
  8
0
 62
     0
100
AcDbLine
 10
0.951874513135737
 20
2.719641466102105
 30
0.0
 11
3.032233047033632
 21
4.8
 31
0.0
  0
LINE
  5
107
330
2C
100
AcDbEntity
  8
0
 62
     0
100
AcDbLine
 10
1.04706196444931
 20
2.991605612712316
 30
0.0
 11
2.855456351736995
 21
4.8
 31
0.0
  0
LINE
  5
108
330
2C
100
AcDbEntity
  8
0
 62
     0
100
AcDbLine
 10
1.142249415762884
 20
3.263569759322527
 30
0.0
 11
2.678679656440358
 21
4.8
 31
0.0
  0
LINE
  5
109
330
2C
100
AcDbEntity
  8
0
 62
     0
100
AcDbLine
 10
1.237436867076458
 20
3.535533905932737
 30
0.0
 11
2.501902961143721
 21
4.8
 31
0.0
  0
LINE
  5
10A
330
2C
100
AcDbEntity
  8
0
 62
     0
100
AcDbLine
 10
1.332624318390031
 20
3.807498052542948
 30
0.0
 11
2.325126265847084
 21
4.8
 31
0.0
  0
LINE
  5
10B
330
2C
100
AcDbEntity
  8
0
 62
     0
100
AcDbLine
 10
1.427811769703605
 20
4.079462199153158
 30
0.0
 11
2.148349570550447
 21
4.8
 31
0.0
  0
LINE
  5
10C
330
2C
100
AcDbEntity
  8
0
 62
     0
100
AcDbLine
 10
1.522999221017179
 20
4.351426345763369
 30
0.0
 11
1.971572875253811
 21
4.8
 31
0.0
  0
LINE
  5
10D
330
2C
100
AcDbEntity
  8
0
 62
     0
100
AcDbLine
 10
1.618186672330752
 20
4.623390492373579
 30
0.0
 11
1.794796179957174
 21
4.8
 31
0.0
  0
LINE
  5
10E
330
2C
100
AcDbEntity
  8
0
 62
     0
100
AcDbLine
 10
0.1767766952966369
 20
0.0
 30
0.0
 11
4.8
 21
4.623223304703363
 31
0.0
  0
LINE
  5
10F
330
2C
100
AcDbEntity
  8
0
 62
     0
100
AcDbLine
 10
0.3535533905932738
 20
0.0
 30
0.0
 11
4.8
 21
4.446446609406725
 31
0.0
  0
LINE
  5
110
330
2C
100
AcDbEntity
  8
0
 62
     0
100
AcDbLine
 10
0.5303300858899107
 20
0.0
 30
0.0
 11
4.8
 21
4.269669914110089
 31
0.0
  0
LINE
  5
111
330
2C
100
AcDbEntity
  8
0
 62
     0
100
AcDbLine
 10
0.7071067811865476
 20
0.0
 30
0.0
 11
4.8
 21
4.092893218813452
 31
0.0
  0
LINE
  5
112
330
2C
100
AcDbEntity
  8
0
 62
     0
100
AcDbLine
 10
0.8838834764831844
 20
0.0
 30
0.0
 11
4.8
 21
3.916116523516815
 31
0.0
  0
LINE
  5
113
330
2C
100
AcDbEntity
  8
0
 62
     0
100
AcDbLine
 10
1.060660171779821
 20
0.0
 30
0.0
 11
4.8
 21
3.739339828220178
 31
0.0
  0
LINE
  5
114
330
2C
100
AcDbEntity
  8
0
 62
     0
100
AcDbLine
 10
1.237436867076458
 20
0.0
 30
0.0
 11
3.17984168695883
 21
1.942404819882371
 31
0.0
  0
LINE
  5
115
330
2C
100
AcDbEntity
  8
0
 62
     0
100
AcDbLine
 10
3.237436867076458
 20
2.0
 30
0.0
 11
4.8
 21
3.562563132923541
 31
0.0
  0
LINE
  5
116
330
2C
100
AcDbEntity
  8
0
 62
     0
100
AcDbLine
 10
1.414213562373095
 20
0.0
 30
0.0
 11
3.084654235645256
 21
1.670440673272161
 31
0.0
  0
LINE
  5
117
330
2C
100
AcDbEntity
  8
0
 62
     0
100
AcDbLine
 10
3.414213562373095
 20
2.0
 30
0.0
 11
4.8
 21
3.385786437626904
 31
0.0
  0
LINE
  5
118
330
2C
100
AcDbEntity
  8
0
 62
     0
100
AcDbLine
 10
1.590990257669732
 20
0.0
 30
0.0
 11
2.989466784331682
 21
1.39847652666195
 31
0.0
  0
LINE
  5
119
330
2C
100
AcDbEntity
  8
0
 62
     0
100
AcDbLine
 10
3.590990257669732
 20
2.0
 30
0.0
 11
4.8
 21
3.209009742330267
 31
0.0
  0
LINE
  5
11A
330
2C
100
AcDbEntity
  8
0
 62
     0
100
AcDbLine
 10
1.767766952966368
 20
0.0
 30
0.0
 11
2.894279333018109
 21
1.12651238005174
 31
0.0
  0
LINE
  5
11B
330
2C
100
AcDbEntity
  8
0
 62
     0
100
AcDbLine
 10
3.767766952966369
 20
2.0
 30
0.0
 11
4.8
 21
3.032233047033631
 31
0.0
  0
LINE
  5
11C
330
2C
100
AcDbEntity
  8
0
 62
     0
100
AcDbLine
 10
1.944543648263005
 20
0.0
 30
0.0
 11
2.799091881704535
 21
0.8545482334415293
 31
0.0
  0
LINE
  5
11D
330
2C
100
AcDbEntity
  8
0
 62
     0
100
AcDbLine
 10
3.944543648263006
 20
2.0
 30
0.0
 11
4.8
 21
2.855456351736994
 31
0.0
  0
LINE
  5
11E
330
2C
100
AcDbEntity
  8
0
 62
     0
100
AcDbLine
 10
2.121320343559642
 20
0.0
 30
0.0
 11
2.703904430390961
 21
0.5825840868313189
 31
0.0
  0
LINE
  5
11F
330
2C
100
AcDbEntity
  8
0
 62
     0
100
AcDbLine
 10
4.121320343559642
 20
2.0
 30
0.0
 11
4.8
 21
2.678679656440357
 31
0.0
  0
LINE
  5
120
330
2C
100
AcDbEntity
  8
0
 62
     0
100
AcDbLine
 10
2.298097038856279
 20
0.0
 30
0.0
 11
2.608716979077388
 21
0.3106199402211083
 31
0.0
  0
LINE
  5
121
330
2C
100
AcDbEntity
  8
0
 62
     0
100
AcDbLine
 10
4.29809703885628
 20
2.0
 30
0.0
 11
4.8
 21
2.50190296114372
 31
0.0
  0
LINE
  5
122
330
2C
100
AcDbEntity
  8
0
 62
     0
100
AcDbLine
 10
2.474873734152916
 20
0.0
 30
0.0
 11
2.513529527763814
 21
0.0386557936108977
 31
0.0
  0
LINE
  5
123
330
2C
100
AcDbEntity
  8
0
 62
     0
100
AcDbLine
 10
4.474873734152916
 20
2.0
 30
0.0
 11
4.8
 21
2.325126265847083
 31
0.0
  0
LINE
  5
124
330
2C
100
AcDbEntity
  8
0
 62
     0
100
AcDbLine
 10
4.651650429449554
 20
2.0
 30
0.0
 11
4.8
 21
2.148349570550446
 31
0.0
  0
ENDBLK
  5
125
330
2C
100
AcDbEntity
  8
0
100
AcDbBlockEnd
  0
BLOCK
  5
126
330
2D
100
AcDbEntity
  8
0
100
AcDbBlockBegin
  2
*X11
 70
     1
 10
0.0
 20
0.0
 30
0.0
  3
*X11
  1

  0
LINE
  5
127
330
2D
100
AcDbEntity
  8
0
 62
     0
100
AcDbLine
 10
6.884654412785825
 20
1.758130249183355
 30
0.0
 11
8.736506264637677
 21
3.609982101035206
 31
0.0
  0
LINE
  5
128
330
2D
100
AcDbEntity
  8
0
 62
     0
100
AcDbLine
 10
6.838823417708919
 20
1.889075949403086
 30
0.0
 11
8.690675269560772
 21
3.740927801254938
 31
0.0
  0
LINE
  5
129
330
2D
100
AcDbEntity
  8
0
 62
     0
100
AcDbLine
 10
6.772970773009196
 20
2.0
 30
0.0
 11
8.644844274483865
 21
3.871873501474668
 31
0.0
  0
LINE
  5
12A
330
2D
100
AcDbEntity
  8
0
 62
     0
100
AcDbLine
 10
6.596194077712559
 20
2.0
 30
0.0
 11
8.59901327940696
 21
4.0028192016944
 31
0.0
  0
LINE
  5
12B
330
2D
100
AcDbEntity
  8
0
 62
     0
100
AcDbLine
 10
6.419417382415922
 20
2.0
 30
0.0
 11
8.553182284330054
 21
4.133764901914131
 31
0.0
  0
LINE
  5
12C
330
2D
100
AcDbEntity
  8
0
 62
     0
100
AcDbLine
 10
6.242640687119285
 20
2.0
 30
0.0
 11
8.507351289253149
 21
4.264710602133861
 31
0.0
  0
LINE
  5
12D
330
2D
100
AcDbEntity
  8
0
 62
     0
100
AcDbLine
 10
6.065863991822649
 20
2.0
 30
0.0
 11
8.461520294176242
 21
4.395656302353593
 31
0.0
  0
LINE
  5
12E
330
2D
100
AcDbEntity
  8
0
 62
     0
100
AcDbLine
 10
5.889087296526011
 20
2.0
 30
0.0
 11
8.415689299099337
 21
4.526602002573324
 31
0.0
  0
LINE
  5
12F
330
2D
100
AcDbEntity
  8
0
 62
     0
100
AcDbLine
 10
5.712310601229375
 20
2.0
 30
0.0
 11
8.369858304022431
 21
4.657547702793054
 31
0.0
  0
LINE
  5
130
330
2D
100
AcDbEntity
  8
0
 62
     0
100
AcDbLine
 10
5.535533905932737
 20
2.0
 30
0.0
 11
8.324027308945524
 21
4.788493403012786
 31
0.0
  0
LINE
  5
131
330
2D
100
AcDbEntity
  8
0
 62
     0
100
AcDbLine
 10
5.358757210636101
 20
2.0
 30
0.0
 11
8.158757210636101
 21
4.8
 31
0.0
  0
LINE
  5
132
330
2D
100
AcDbEntity
  8
0
 62
     0
100
AcDbLine
 10
5.2
 20
2.018019484660535
 30
0.0
 11
7.981980515339465
 21
4.8
 31
0.0
  0
LINE
  5
133
330
2D
100
AcDbEntity
  8
0
 62
     0
100
AcDbLine
 10
5.2
 20
2.194796179957172
 30
0.0
 11
7.805203820042828
 21
4.8
 31
0.0
  0
LINE
  5
134
330
2D
100
AcDbEntity
  8
0
 62
     0
100
AcDbLine
 10
5.2
 20
2.371572875253809
 30
0.0
 11
7.628427124746191
 21
4.8
 31
0.0
  0
LINE
  5
135
330
2D
100
AcDbEntity
  8
0
 62
     0
100
AcDbLine
 10
5.2
 20
2.548349570550446
 30
0.0
 11
7.451650429449554
 21
4.8
 31
0.0
  0
LINE
  5
136
330
2D
100
AcDbEntity
  8
0
 62
     0
100
AcDbLine
 10
5.2
 20
2.725126265847083
 30
0.0
 11
7.274873734152918
 21
4.8
 31
0.0
  0
LINE
  5
137
330
2D
100
AcDbEntity
  8
0
 62
     0
100
AcDbLine
 10
5.2
 20
2.90190296114372
 30
0.0
 11
7.09809703885628
 21
4.8
 31
0.0
  0
LINE
  5
138
330
2D
100
AcDbEntity
  8
0
 62
     0
100
AcDbLine
 10
5.2
 20
3.078679656440356
 30
0.0
 11
6.921320343559644
 21
4.8
 31
0.0
  0
LINE
  5
139
330
2D
100
AcDbEntity
  8
0
 62
     0
100
AcDbLine
 10
5.2
 20
3.255456351736993
 30
0.0
 11
6.744543648263007
 21
4.8
 31
0.0
  0
LINE
  5
13A
330
2D
100
AcDbEntity
  8
0
 62
     0
100
AcDbLine
 10
5.2
 20
3.43223304703363
 30
0.0
 11
6.56776695296637
 21
4.8
 31
0.0
  0
LINE
  5
13B
330
2D
100
AcDbEntity
  8
0
 62
     0
100
AcDbLine
 10
5.2
 20
3.609009742330267
 30
0.0
 11
6.390990257669733
 21
4.8
 31
0.0
  0
LINE
  5
13C
330
2D
100
AcDbEntity
  8
0
 62
     0
100
AcDbLine
 10
5.2
 20
3.785786437626904
 30
0.0
 11
6.214213562373096
 21
4.8
 31
0.0
  0
LINE
  5
13D
330
2D
100
AcDbEntity
  8
0
 62
     0
100
AcDbLine
 10
5.2
 20
3.962563132923541
 30
0.0
 11
6.037436867076459
 21
4.8
 31
0.0
  0
LINE
  5
13E
330
2D
100
AcDbEntity
  8
0
 62
     0
100
AcDbLine
 10
5.2
 20
4.139339828220178
 30
0.0
 11
5.860660171779822
 21
4.8
 31
0.0
  0
LINE
  5
13F
330
2D
100
AcDbEntity
  8
0
 62
     0
100
AcDbLine
 10
5.2
 20
4.316116523516814
 30
0.0
 11
5.683883476483186
 21
4.8
 31
0.0
  0
LINE
  5
140
330
2D
100
AcDbEntity
  8
0
 62
     0
100
AcDbLine
 10
5.2
 20
4.492893218813452
 30
0.0
 11
5.507106781186549
 21
4.8
 31
0.0
  0
LINE
  5
141
330
2D
100
AcDbEntity
  8
0
 62
     0
100
AcDbLine
 10
5.2
 20
4.669669914110088
 30
0.0
 11
5.330330085889912
 21
4.8
 31
0.0
  0
LINE
  5
142
330
2D
100
AcDbEntity
  8
0
 62
     0
100
AcDbLine
 10
6.930485407862731
 20
1.627184548963624
 30
0.0
 11
8.782337259714584
 21
3.479036400815475
 31
0.0
  0
LINE
  5
143
330
2D
100
AcDbEntity
  8
0
 62
     0
100
AcDbLine
 10
6.976316402939636
 20
1.496238848743893
 30
0.0
 11
8.828168254791489
 21
3.348090700595744
 31
0.0
  0
LINE
  5
144
330
2D
100
AcDbEntity
  8
0
 62
     0
100
AcDbLine
 10
7.022147398016543
 20
1.365293148524162
 30
0.0
 11
8.873999249868395
 21
3.217145000376013
 31
0.0
  0
LINE
  5
145
330
2D
100
AcDbEntity
  8
0
 62
     0
100
AcDbLine
 10
7.067978393093449
 20
1.234347448304431
 30
0.0
 11
8.9198302449453
 21
3.086199300156282
 31
0.0
  0
LINE
  5
146
330
2D
100
AcDbEntity
  8
0
 62
     0
100
AcDbLine
 10
7.113809388170355
 20
1.1034017480847
 30
0.0
 11
8.965661240022207
 21
2.955253599936551
 31
0.0
  0
LINE
  5
147
330
2D
100
AcDbEntity
  8
0
 62
     0
100
AcDbLine
 10
7.159640383247261
 20
0.9724560478649696
 30
0.0
 11
9.011492235099112
 21
2.82430789971682
 31
0.0
  0
LINE
  5
148
330
2D
100
AcDbEntity
  8
0
 62
     0
100
AcDbLine
 10
7.205471378324166
 20
0.8415103476452385
 30
0.0
 11
9.057323230176018
 21
2.693362199497089
 31
0.0
  0
LINE
  5
149
330
2D
100
AcDbEntity
  8
0
 62
     0
100
AcDbLine
 10
7.251302373401072
 20
0.7105646474255075
 30
0.0
 11
9.103154225252923
 21
2.562416499277358
 31
0.0
  0
LINE
  5
14A
330
2D
100
AcDbEntity
  8
0
 62
     0
100
AcDbLine
 10
7.297133368477978
 20
0.5796189472057765
 30
0.0
 11
9.14898522032983
 21
2.431470799057627
 31
0.0
  0
LINE
  5
14B
330
2D
100
AcDbEntity
  8
0
 62
     0
100
AcDbLine
 10
7.342964363554884
 20
0.4486732469860454
 30
0.0
 11
9.194816215406737
 21
2.300525098837896
 31
0.0
  0
LINE
  5
14C
330
2D
100
AcDbEntity
  8
0
 62
     0
100
AcDbLine
 10
7.38879535863179
 20
0.3177275467663144
 30
0.0
 11
9.240647210483642
 21
2.169579398618165
 31
0.0
  0
LINE
  5
14D
330
2D
100
AcDbEntity
  8
0
 62
     0
100
AcDbLine
 10
7.434626353708695
 20
0.1867818465465834
 30
0.0
 11
9.286478205560548
 21
2.038633698398434
 31
0.0
  0
LINE
  5
14E
330
2D
100
AcDbEntity
  8
0
 62
     0
100
AcDbLine
 10
7.480457348785601
 20
0.0558361463268524
 30
0.0
 11
9.332309200637453
 21
1.907687998178703
 31
0.0
  0
LINE
  5
14F
330
2D
100
AcDbEntity
  8
0
 62
     0
100
AcDbLine
 10
7.601397897755386
 20
0.0
 30
0.0
 11
9.37814019571436
 21
1.776742297958972
 31
0.0
  0
LINE
  5
150
330
2D
100
AcDbEntity
  8
0
 62
     0
100
AcDbLine
 10
7.778174593052023
 20
0.0
 30
0.0
 11
9.423971190791265
 21
1.645796597739241
 31
0.0
  0
LINE
  5
151
330
2D
100
AcDbEntity
  8
0
 62
     0
100
AcDbLine
 10
7.954951288348659
 20
0.0
 30
0.0
 11
9.469802185868172
 21
1.51485089751951
 31
0.0
  0
LINE
  5
152
330
2D
100
AcDbEntity
  8
0
 62
     0
100
AcDbLine
 10
8.131727983645296
 20
0.0
 30
0.0
 11
9.515633180945076
 21
1.383905197299779
 31
0.0
  0
LINE
  5
153
330
2D
100
AcDbEntity
  8
0
 62
     0
100
AcDbLine
 10
8.308504678941934
 20
0.0
 30
0.0
 11
9.561464176021983
 21
1.252959497080048
 31
0.0
  0
LINE
  5
154
330
2D
100
AcDbEntity
  8
0
 62
     0
100
AcDbLine
 10
8.485281374238571
 20
0.0
 30
0.0
 11
9.607295171098888
 21
1.122013796860317
 31
0.0
  0
LINE
  5
155
330
2D
100
AcDbEntity
  8
0
 62
     0
100
AcDbLine
 10
8.662058069535207
 20
0.0
 30
0.0
 11
9.653126166175795
 21
0.9910680966405861
 31
0.0
  0
LINE
  5
156
330
2D
100
AcDbEntity
  8
0
 62
     0
100
AcDbLine
 10
8.838834764831844
 20
0.0
 30
0.0
 11
9.6989571612527
 21
0.860122396420855
 31
0.0
  0
LINE
  5
157
330
2D
100
AcDbEntity
  8
0
 62
     0
100
AcDbLine
 10
9.01561146012848
 20
0.0
 30
0.0
 11
9.744788156329606
 21
0.7291766962011242
 31
0.0
  0
LINE
  5
158
330
2D
100
AcDbEntity
  8
0
 62
     0
100
AcDbLine
 10
9.192388155425119
 20
0.0
 30
0.0
 11
9.790619151406511
 21
0.5982309959813931
 31
0.0
  0
LINE
  5
159
330
2D
100
AcDbEntity
  8
0
 62
     0
100
AcDbLine
 10
9.369164850721755
 20
0.0
 30
0.0
 11
9.836450146483418
 21
0.467285295761662
 31
0.0
  0
LINE
  5
15A
330
2D
100
AcDbEntity
  8
0
 62
     0
100
AcDbLine
 10
9.545941546018392
 20
0.0
 30
0.0
 11
9.882281141560325
 21
0.336339595541931
 31
0.0
  0
LINE
  5
15B
330
2D
100
AcDbEntity
  8
0
 62
     0
100
AcDbLine
 10
9.722718241315028
 20
0.0
 30
0.0
 11
9.92811213663723
 21
0.2053938953222
 31
0.0
  0
LINE
  5
15C
330
2D
100
AcDbEntity
  8
0
 62
     0
100
AcDbLine
 10
9.899494936611665
 20
0.0
 30
0.0
 11
9.973943131714136
 21
0.0744481951024689
 31
0.0
  0
ENDBLK
  5
15D
330
2D
100
AcDbEntity
  8
0
100
AcDbBlockEnd
  0
BLOCK
  5
15E
330
2E
100
AcDbEntity
  8
0
100
AcDbBlockBegin
  2
*X12
 70
     1
 10
0.0
 20
0.0
 30
0.0
  3
*X12
  1

  0
LINE
  5
15F
330
2E
100
AcDbEntity
  8
0
 62
     0
100
AcDbLine
 10
10.7
 20
6.280582617584078
 30
0.0
 11
13.5
 21
9.080582617584076
 31
0.0
  0
LINE
  5
160
330
2E
100
AcDbEntity
  8
0
 62
     0
100
AcDbLine
 10
10.7
 20
6.457359312880715
 30
0.0
 11
13.5
 21
9.257359312880712
 31
0.0
  0
LINE
  5
161
330
2E
100
AcDbEntity
  8
0
 62
     0
100
AcDbLine
 10
10.7
 20
6.634136008177351
 30
0.0
 11
13.5
 21
9.43413600817735
 31
0.0
  0
LINE
  5
162
330
2E
100
AcDbEntity
  8
0
 62
     0
100
AcDbLine
 10
10.7
 20
6.810912703473989
 30
0.0
 11
13.5
 21
9.610912703473987
 31
0.0
  0
LINE
  5
163
330
2E
100
AcDbEntity
  8
0
 62
     0
100
AcDbLine
 10
10.7
 20
6.987689398770625
 30
0.0
 11
13.5
 21
9.787689398770623
 31
0.0
  0
LINE
  5
164
330
2E
100
AcDbEntity
  8
0
 62
     0
100
AcDbLine
 10
10.7
 20
7.164466094067263
 30
0.0
 11
13.5
 21
9.96446609406726
 31
0.0
  0
LINE
  5
165
330
2E
100
AcDbEntity
  8
0
 62
     0
100
AcDbLine
 10
10.7
 20
7.341242789363899
 30
0.0
 11
13.3587572106361
 21
10.0
 31
0.0
  0
LINE
  5
166
330
2E
100
AcDbEntity
  8
0
 62
     0
100
AcDbLine
 10
10.7
 20
7.518019484660536
 30
0.0
 11
13.18198051533946
 21
10.0
 31
0.0
  0
LINE
  5
167
330
2E
100
AcDbEntity
  8
0
 62
     0
100
AcDbLine
 10
10.7
 20
7.694796179957173
 30
0.0
 11
13.00520382004282
 21
10.0
 31
0.0
  0
LINE
  5
168
330
2E
100
AcDbEntity
  8
0
 62
     0
100
AcDbLine
 10
10.7
 20
7.87157287525381
 30
0.0
 11
12.82842712474619
 21
10.0
 31
0.0
  0
LINE
  5
169
330
2E
100
AcDbEntity
  8
0
 62
     0
100
AcDbLine
 10
10.7
 20
8.048349570550447
 30
0.0
 11
12.65165042944955
 21
10.0
 31
0.0
  0
LINE
  5
16A
330
2E
100
AcDbEntity
  8
0
 62
     0
100
AcDbLine
 10
10.7
 20
8.225126265847084
 30
0.0
 11
12.47487373415292
 21
10.0
 31
0.0
  0
LINE
  5
16B
330
2E
100
AcDbEntity
  8
0
 62
     0
100
AcDbLine
 10
10.7
 20
8.40190296114372
 30
0.0
 11
12.29809703885628
 21
10.0
 31
0.0
  0
LINE
  5
16C
330
2E
100
AcDbEntity
  8
0
 62
     0
100
AcDbLine
 10
10.7
 20
8.578679656440357
 30
0.0
 11
12.12132034355964
 21
10.0
 31
0.0
  0
LINE
  5
16D
330
2E
100
AcDbEntity
  8
0
 62
     0
100
AcDbLine
 10
10.7
 20
8.755456351736995
 30
0.0
 11
11.944543648263
 21
10.0
 31
0.0
  0
LINE
  5
16E
330
2E
100
AcDbEntity
  8
0
 62
     0
100
AcDbLine
 10
10.7
 20
8.932233047033632
 30
0.0
 11
11.76776695296637
 21
10.0
 31
0.0
  0
LINE
  5
16F
330
2E
100
AcDbEntity
  8
0
 62
     0
100
AcDbLine
 10
10.7
 20
9.109009742330268
 30
0.0
 11
11.59099025766973
 21
10.0
 31
0.0
  0
LINE
  5
170
330
2E
100
AcDbEntity
  8
0
 62
     0
100
AcDbLine
 10
10.7
 20
9.285786437626905
 30
0.0
 11
11.41421356237309
 21
10.0
 31
0.0
  0
LINE
  5
171
330
2E
100
AcDbEntity
  8
0
 62
     0
100
AcDbLine
 10
10.7
 20
9.462563132923541
 30
0.0
 11
11.23743686707646
 21
10.0
 31
0.0
  0
LINE
  5
172
330
2E
100
AcDbEntity
  8
0
 62
     0
100
AcDbLine
 10
10.7
 20
9.63933982822018
 30
0.0
 11
11.06066017177982
 21
10.0
 31
0.0
  0
LINE
  5
173
330
2E
100
AcDbEntity
  8
0
 62
     0
100
AcDbLine
 10
10.7
 20
9.816116523516816
 30
0.0
 11
10.88388347648318
 21
10.0
 31
0.0
  0
LINE
  5
174
330
2E
100
AcDbEntity
  8
0
 62
     0
100
AcDbLine
 10
10.7
 20
9.992893218813453
 30
0.0
 11
10.70710678118655
 21
10.0
 31
0.0
  0
LINE
  5
175
330
2E
100
AcDbEntity
  8
0
 62
     0
100
AcDbLine
 10
10.7
 20
6.103805922287441
 30
0.0
 11
13.5
 21
8.903805922287439
 31
0.0
  0
LINE
  5
176
330
2E
100
AcDbEntity
  8
0
 62
     0
100
AcDbLine
 10
10.7
 20
5.927029226990804
 30
0.0
 11
13.5
 21
8.727029226990802
 31
0.0
  0
LINE
  5
177
330
2E
100
AcDbEntity
  8
0
 62
     0
100
AcDbLine
 10
10.7
 20
5.750252531694168
 30
0.0
 11
13.5
 21
8.550252531694166
 31
0.0
  0
LINE
  5
178
330
2E
100
AcDbEntity
  8
0
 62
     0
100
AcDbLine
 10
10.7
 20
5.57347583639753
 30
0.0
 11
13.5
 21
8.373475836397528
 31
0.0
  0
LINE
  5
179
330
2E
100
AcDbEntity
  8
0
 62
     0
100
AcDbLine
 10
10.7
 20
5.396699141100894
 30
0.0
 11
13.5
 21
8.196699141100891
 31
0.0
  0
LINE
  5
17A
330
2E
100
AcDbEntity
  8
0
 62
     0
100
AcDbLine
 10
10.7
 20
5.219922445804257
 30
0.0
 11
13.5
 21
8.019922445804255
 31
0.0
  0
LINE
  5
17B
330
2E
100
AcDbEntity
  8
0
 62
     0
100
AcDbLine
 10
10.85685424949238
 20
5.2
 30
0.0
 11
13.5
 21
7.843145750507618
 31
0.0
  0
LINE
  5
17C
330
2E
100
AcDbEntity
  8
0
 62
     0
100
AcDbLine
 10
11.03363094478901
 20
5.2
 30
0.0
 11
13.5
 21
7.666369055210981
 31
0.0
  0
LINE
  5
17D
330
2E
100
AcDbEntity
  8
0
 62
     0
100
AcDbLine
 10
11.21040764008565
 20
5.2
 30
0.0
 11
13.5
 21
7.489592359914344
 31
0.0
  0
LINE
  5
17E
330
2E
100
AcDbEntity
  8
0
 62
     0
100
AcDbLine
 10
11.38718433538229
 20
5.2
 30
0.0
 11
13.5
 21
7.312815664617708
 31
0.0
  0
LINE
  5
17F
330
2E
100
AcDbEntity
  8
0
 62
     0
100
AcDbLine
 10
11.56396103067893
 20
5.2
 30
0.0
 11
13.5
 21
7.13603896932107
 31
0.0
  0
LINE
  5
180
330
2E
100
AcDbEntity
  8
0
 62
     0
100
AcDbLine
 10
11.74073772597556
 20
5.2
 30
0.0
 11
13.5
 21
6.959262274024434
 31
0.0
  0
LINE
  5
181
330
2E
100
AcDbEntity
  8
0
 62
     0
100
AcDbLine
 10
11.9175144212722
 20
5.2
 30
0.0
 11
13.5
 21
6.782485578727796
 31
0.0
  0
LINE
  5
182
330
2E
100
AcDbEntity
  8
0
 62
     0
100
AcDbLine
 10
12.09429111656884
 20
5.2
 30
0.0
 11
13.5
 21
6.60570888343116
 31
0.0
  0
LINE
  5
183
330
2E
100
AcDbEntity
  8
0
 62
     0
100
AcDbLine
 10
12.27106781186547
 20
5.2
 30
0.0
 11
13.5
 21
6.428932188134523
 31
0.0
  0
LINE
  5
184
330
2E
100
AcDbEntity
  8
0
 62
     0
100
AcDbLine
 10
12.44784450716211
 20
5.2
 30
0.0
 11
13.5
 21
6.252155492837886
 31
0.0
  0
LINE
  5
185
330
2E
100
AcDbEntity
  8
0
 62
     0
100
AcDbLine
 10
12.62462120245875
 20
5.2
 30
0.0
 11
13.5
 21
6.075378797541249
 31
0.0
  0
LINE
  5
186
330
2E
100
AcDbEntity
  8
0
 62
     0
100
AcDbLine
 10
12.80139789775538
 20
5.2
 30
0.0
 11
13.5
 21
5.898602102244612
 31
0.0
  0
LINE
  5
187
330
2E
100
AcDbEntity
  8
0
 62
     0
100
AcDbLine
 10
12.97817459305202
 20
5.2
 30
0.0
 11
13.5
 21
5.721825406947975
 31
0.0
  0
LINE
  5
188
330
2E
100
AcDbEntity
  8
0
 62
     0
100
AcDbLine
 10
13.15495128834866
 20
5.2
 30
0.0
 11
13.5
 21
5.545048711651339
 31
0.0
  0
LINE
  5
189
330
2E
100
AcDbEntity
  8
0
 62
     0
100
AcDbLine
 10
13.3317279836453
 20
5.2
 30
0.0
 11
13.5
 21
5.368272016354701
 31
0.0
  0
ENDBLK
  5
18A
330
2E
100
AcDbEntity
  8
0
100
AcDbBlockEnd
  0
BLOCK
  5
18B
330
2F
100
AcDbEntity
  8
0
100
AcDbBlockBegin
  2
*X13
 70
     1
 10
0.0
 20
0.0
 30
0.0
  3
*X13
  1

  0
LINE
  5
18C
330
2F
100
AcDbEntity
  8
0
 62
     0
100
AcDbLine
 10
10.7
 20
1.154058453981608
 30
0.0
 11
13.5
 21
3.954058453981607
 31
0.0
  0
LINE
  5
18D
330
2F
100
AcDbEntity
  8
0
 62
     0
100
AcDbLine
 10
10.7
 20
1.330835149278245
 30
0.0
 11
13.5
 21
4.130835149278244
 31
0.0
  0
LINE
  5
18E
330
2F
100
AcDbEntity
  8
0
 62
     0
100
AcDbLine
 10
10.7
 20
1.507611844574882
 30
0.0
 11
13.5
 21
4.30761184457488
 31
0.0
  0
LINE
  5
18F
330
2F
100
AcDbEntity
  8
0
 62
     0
100
AcDbLine
 10
10.7
 20
1.684388539871519
 30
0.0
 11
13.5
 21
4.484388539871518
 31
0.0
  0
LINE
  5
190
330
2F
100
AcDbEntity
  8
0
 62
     0
100
AcDbLine
 10
10.7
 20
1.861165235168155
 30
0.0
 11
13.5
 21
4.661165235168154
 31
0.0
  0
LINE
  5
191
330
2F
100
AcDbEntity
  8
0
 62
     0
100
AcDbLine
 10
10.7
 20
2.037941930464792
 30
0.0
 11
13.46205806953521
 21
4.800000000000001
 31
0.0
  0
LINE
  5
192
330
2F
100
AcDbEntity
  8
0
 62
     0
100
AcDbLine
 10
10.7
 20
2.214718625761429
 30
0.0
 11
13.28528137423857
 21
4.800000000000001
 31
0.0
  0
LINE
  5
193
330
2F
100
AcDbEntity
  8
0
 62
     0
100
AcDbLine
 10
10.7
 20
2.391495321058066
 30
0.0
 11
13.10850467894193
 21
4.800000000000001
 31
0.0
  0
LINE
  5
194
330
2F
100
AcDbEntity
  8
0
 62
     0
100
AcDbLine
 10
10.7
 20
2.568272016354703
 30
0.0
 11
12.9317279836453
 21
4.800000000000001
 31
0.0
  0
LINE
  5
195
330
2F
100
AcDbEntity
  8
0
 62
     0
100
AcDbLine
 10
10.7
 20
2.74504871165134
 30
0.0
 11
12.75495128834866
 21
4.800000000000001
 31
0.0
  0
LINE
  5
196
330
2F
100
AcDbEntity
  8
0
 62
     0
100
AcDbLine
 10
10.7
 20
2.921825406947977
 30
0.0
 11
12.57817459305202
 21
4.800000000000001
 31
0.0
  0
LINE
  5
197
330
2F
100
AcDbEntity
  8
0
 62
     0
100
AcDbLine
 10
10.7
 20
3.098602102244614
 30
0.0
 11
12.40139789775539
 21
4.800000000000001
 31
0.0
  0
LINE
  5
198
330
2F
100
AcDbEntity
  8
0
 62
     0
100
AcDbLine
 10
10.7
 20
3.275378797541251
 30
0.0
 11
12.22462120245875
 21
4.800000000000001
 31
0.0
  0
LINE
  5
199
330
2F
100
AcDbEntity
  8
0
 62
     0
100
AcDbLine
 10
10.7
 20
3.452155492837887
 30
0.0
 11
12.04784450716211
 21
4.800000000000001
 31
0.0
  0
LINE
  5
19A
330
2F
100
AcDbEntity
  8
0
 62
     0
100
AcDbLine
 10
10.7
 20
3.628932188134524
 30
0.0
 11
11.87106781186547
 21
4.800000000000001
 31
0.0
  0
LINE
  5
19B
330
2F
100
AcDbEntity
  8
0
 62
     0
100
AcDbLine
 10
10.7
 20
3.805708883431161
 30
0.0
 11
11.69429111656884
 21
4.800000000000001
 31
0.0
  0
LINE
  5
19C
330
2F
100
AcDbEntity
  8
0
 62
     0
100
AcDbLine
 10
10.7
 20
3.982485578727798
 30
0.0
 11
11.5175144212722
 21
4.800000000000001
 31
0.0
  0
LINE
  5
19D
330
2F
100
AcDbEntity
  8
0
 62
     0
100
AcDbLine
 10
10.7
 20
4.159262274024435
 30
0.0
 11
11.34073772597556
 21
4.800000000000001
 31
0.0
  0
LINE
  5
19E
330
2F
100
AcDbEntity
  8
0
 62
     0
100
AcDbLine
 10
10.7
 20
4.336038969321072
 30
0.0
 11
11.16396103067893
 21
4.800000000000001
 31
0.0
  0
LINE
  5
19F
330
2F
100
AcDbEntity
  8
0
 62
     0
100
AcDbLine
 10
10.7
 20
4.512815664617709
 30
0.0
 11
10.98718433538229
 21
4.800000000000001
 31
0.0
  0
LINE
  5
1A0
330
2F
100
AcDbEntity
  8
0
 62
     0
100
AcDbLine
 10
10.7
 20
4.689592359914345
 30
0.0
 11
10.81040764008565
 21
4.800000000000001
 31
0.0
  0
LINE
  5
1A1
330
2F
100
AcDbEntity
  8
0
 62
     0
100
AcDbLine
 10
10.7
 20
0.9772817586849718
 30
0.0
 11
13.5
 21
3.77728175868497
 31
0.0
  0
LINE
  5
1A2
330
2F
100
AcDbEntity
  8
0
 62
     0
100
AcDbLine
 10
10.7
 20
0.800505063388335
 30
0.0
 11
13.5
 21
3.600505063388333
 31
0.0
  0
LINE
  5
1A3
330
2F
100
AcDbEntity
  8
0
 62
     0
100
AcDbLine
 10
10.7
 20
0.6237283680916982
 30
0.0
 11
13.5
 21
3.423728368091696
 31
0.0
  0
LINE
  5
1A4
330
2F
100
AcDbEntity
  8
0
 62
     0
100
AcDbLine
 10
10.7
 20
0.4469516727950612
 30
0.0
 11
13.5
 21
3.246951672795059
 31
0.0
  0
LINE
  5
1A5
330
2F
100
AcDbEntity
  8
0
 62
     0
100
AcDbLine
 10
10.7
 20
0.2701749774984243
 30
0.0
 11
13.5
 21
3.070174977498422
 31
0.0
  0
LINE
  5
1A6
330
2F
100
AcDbEntity
  8
0
 62
     0
100
AcDbLine
 10
10.7
 20
0.0933982822017875
 30
0.0
 11
13.5
 21
2.893398282201785
 31
0.0
  0
LINE
  5
1A7
330
2F
100
AcDbEntity
  8
0
 62
     0
100
AcDbLine
 10
10.78337841309485
 20
0.0
 30
0.0
 11
13.5
 21
2.716621586905149
 31
0.0
  0
LINE
  5
1A8
330
2F
100
AcDbEntity
  8
0
 62
     0
100
AcDbLine
 10
10.96015510839148
 20
0.0
 30
0.0
 11
13.5
 21
2.539844891608512
 31
0.0
  0
LINE
  5
1A9
330
2F
100
AcDbEntity
  8
0
 62
     0
100
AcDbLine
 10
11.13693180368812
 20
0.0
 30
0.0
 11
13.5
 21
2.363068196311875
 31
0.0
  0
LINE
  5
1AA
330
2F
100
AcDbEntity
  8
0
 62
     0
100
AcDbLine
 10
11.31370849898476
 20
0.0
 30
0.0
 11
13.5
 21
2.186291501015238
 31
0.0
  0
LINE
  5
1AB
330
2F
100
AcDbEntity
  8
0
 62
     0
100
AcDbLine
 10
11.49048519428139
 20
0.0
 30
0.0
 11
13.5
 21
2.009514805718601
 31
0.0
  0
LINE
  5
1AC
330
2F
100
AcDbEntity
  8
0
 62
     0
100
AcDbLine
 10
11.66726188957803
 20
0.0
 30
0.0
 11
13.5
 21
1.832738110421964
 31
0.0
  0
LINE
  5
1AD
330
2F
100
AcDbEntity
  8
0
 62
     0
100
AcDbLine
 10
11.84403858487467
 20
0.0
 30
0.0
 11
13.5
 21
1.655961415125327
 31
0.0
  0
LINE
  5
1AE
330
2F
100
AcDbEntity
  8
0
 62
     0
100
AcDbLine
 10
12.02081528017131
 20
0.0
 30
0.0
 11
13.5
 21
1.479184719828691
 31
0.0
  0
LINE
  5
1AF
330
2F
100
AcDbEntity
  8
0
 62
     0
100
AcDbLine
 10
12.19759197546794
 20
0.0
 30
0.0
 11
13.5
 21
1.302408024532054
 31
0.0
  0
LINE
  5
1B0
330
2F
100
AcDbEntity
  8
0
 62
     0
100
AcDbLine
 10
12.37436867076458
 20
0.0
 30
0.0
 11
13.5
 21
1.125631329235417
 31
0.0
  0
LINE
  5
1B1
330
2F
100
AcDbEntity
  8
0
 62
     0
100
AcDbLine
 10
12.55114536606122
 20
0.0
 30
0.0
 11
13.5
 21
0.9488546339387806
 31
0.0
  0
LINE
  5
1B2
330
2F
100
AcDbEntity
  8
0
 62
     0
100
AcDbLine
 10
12.72792206135785
 20
0.0
 30
0.0
 11
13.5
 21
0.7720779386421438
 31
0.0
  0
LINE
  5
1B3
330
2F
100
AcDbEntity
  8
0
 62
     0
100
AcDbLine
 10
12.90469875665449
 20
0.0
 30
0.0
 11
13.5
 21
0.5953012433455069
 31
0.0
  0
LINE
  5
1B4
330
2F
100
AcDbEntity
  8
0
 62
     0
100
AcDbLine
 10
13.08147545195113
 20
0.0
 30
0.0
 11
13.5
 21
0.4185245480488699
 31
0.0
  0
LINE
  5
1B5
330
2F
100
AcDbEntity
  8
0
 62
     0
100
AcDbLine
 10
13.25825214724776
 20
0.0
 30
0.0
 11
13.5
 21
0.2417478527522331
 31
0.0
  0
LINE
  5
1B6
330
2F
100
AcDbEntity
  8
0
 62
     0
100
AcDbLine
 10
13.4350288425444
 20
0.0
 30
0.0
 11
13.5
 21
0.0649711574555962
 31
0.0
  0
ENDBLK
  5
1B7
330
2F
100
AcDbEntity
  8
0
100
AcDbBlockEnd
  0
BLOCK
  5
1B8
330
30
100
AcDbEntity
  8
0
100
AcDbBlockBegin
  2
*X14
 70
     1
 10
0.0
 20
0.0
 30
0.0
  3
*X14
  1

  0
LINE
  5
1B9
330
30
100
AcDbEntity
  8
0
 62
     0
100
AcDbLine
 10
13.9
 20
6.298602102244612
 30
0.0
 11
16.58299474438346
 21
8.981596846628077
 31
0.0
  0
LINE
  5
1BA
330
30
100
AcDbEntity
  8
0
 62
     0
100
AcDbLine
 10
13.9
 20
6.47537879754125
 30
0.0
 11
16.51050279500106
 21
9.085881592542312
 31
0.0
  0
LINE
  5
1BB
330
30
100
AcDbEntity
  8
0
 62
     0
100
AcDbLine
 10
13.9
 20
6.652155492837886
 30
0.0
 11
16.43292735533684
 21
9.185082848174726
 31
0.0
  0
LINE
  5
1BC
330
30
100
AcDbEntity
  8
0
 62
     0
100
AcDbLine
 10
13.9
 20
6.828932188134523
 30
0.0
 11
16.35037215123712
 21
9.279304339371643
 31
0.0
  0
LINE
  5
1BD
330
30
100
AcDbEntity
  8
0
 62
     0
100
AcDbLine
 10
13.9
 20
7.00570888343116
 30
0.0
 11
16.26289196487371
 21
9.368600848304868
 31
0.0
  0
LINE
  5
1BE
330
30
100
AcDbEntity
  8
0
 62
     0
100
AcDbLine
 10
13.9
 20
7.182485578727797
 30
0.0
 11
16.17049525263323
 21
9.452980831361033
 31
0.0
  0
LINE
  5
1BF
330
30
100
AcDbEntity
  8
0
 62
     0
100
AcDbLine
 10
13.9
 20
7.359262274024434
 30
0.0
 11
16.07314454342055
 21
9.532406817444991
 31
0.0
  0
LINE
  5
1C0
330
30
100
AcDbEntity
  8
0
 62
     0
100
AcDbLine
 10
13.9
 20
7.53603896932107
 30
0.0
 11
15.97075466195056
 21
9.606793631271633
 31
0.0
  0
LINE
  5
1C1
330
30
100
AcDbEntity
  8
0
 62
     0
100
AcDbLine
 10
13.9
 20
7.712815664617708
 30
0.0
 11
15.86318857628903
 21
9.67600424090674
 31
0.0
  0
LINE
  5
1C2
330
30
100
AcDbEntity
  8
0
 62
     0
100
AcDbLine
 10
13.9
 20
7.889592359914344
 30
0.0
 11
15.75025038159864
 21
9.739842741512989
 31
0.0
  0
LINE
  5
1C3
330
30
100
AcDbEntity
  8
0
 62
     0
100
AcDbLine
 10
13.9
 20
8.066369055210982
 30
0.0
 11
15.63167453725327
 21
9.798043592464253
 31
0.0
  0
LINE
  5
1C4
330
30
100
AcDbEntity
  8
0
 62
     0
100
AcDbLine
 10
13.9
 20
8.243145750507618
 30
0.0
 11
15.50710986763958
 21
9.850255618147199
 31
0.0
  0
LINE
  5
1C5
330
30
100
AcDbEntity
  8
0
 62
     0
100
AcDbLine
 10
13.9
 20
8.419922445804255
 30
0.0
 11
15.37609582797506
 21
9.896018273779313
 31
0.0
  0
LINE
  5
1C6
330
30
100
AcDbEntity
  8
0
 62
     0
100
AcDbLine
 10
13.9
 20
8.596699141100891
 30
0.0
 11
15.23802674945604
 21
9.934725890556936
 31
0.0
  0
LINE
  5
1C7
330
30
100
AcDbEntity
  8
0
 62
     0
100
AcDbLine
 10
13.9
 20
8.773475836397528
 30
0.0
 11
15.09209641503479
 21
9.965572251432316
 31
0.0
  0
LINE
  5
1C8
330
30
100
AcDbEntity
  8
0
 62
     0
100
AcDbLine
 10
13.9
 20
8.950252531694166
 30
0.0
 11
14.93720855236614
 21
9.987461084060305
 31
0.0
  0
LINE
  5
1C9
330
30
100
AcDbEntity
  8
0
 62
     0
100
AcDbLine
 10
13.9
 20
9.127029226990803
 30
0.0
 11
14.77182410265905
 21
9.998853329649859
 31
0.0
  0
LINE
  5
1CA
330
30
100
AcDbEntity
  8
0
 62
     0
100
AcDbLine
 10
13.9
 20
9.303805922287439
 30
0.0
 11
14.59619325557977
 21
9.999999177867216
 31
0.0
  0
LINE
  5
1CB
330
30
100
AcDbEntity
  8
0
 62
     0
100
AcDbLine
 10
13.9
 20
9.480582617584076
 30
0.0
 11
14.41941676903803
 21
9.999999386622105
 31
0.0
  0
LINE
  5
1CC
330
30
100
AcDbEntity
  8
0
 62
     0
100
AcDbLine
 10
13.9
 20
9.657359312880712
 30
0.0
 11
14.24264028249628
 21
9.999999595376992
 31
0.0
  0
LINE
  5
1CD
330
30
100
AcDbEntity
  8
0
 62
     0
100
AcDbLine
 10
13.9
 20
9.834136008177351
 30
0.0
 11
14.06586379595453
 21
9.99999980413188
 31
0.0
  0
LINE
  5
1CE
330
30
100
AcDbEntity
  8
0
 62
     0
100
AcDbLine
 10
13.9
 20
6.121825406947976
 30
0.0
 11
16.65024539739187
 21
8.872070804339848
 31
0.0
  0
LINE
  5
1CF
330
30
100
AcDbEntity
  8
0
 62
     0
100
AcDbLine
 10
13.9
 20
5.945048711651339
 30
0.0
 11
16.71203459532913
 21
8.75708330698047
 31
0.0
  0
LINE
  5
1D0
330
30
100
AcDbEntity
  8
0
 62
     0
100
AcDbLine
 10
13.9
 20
5.768272016354702
 30
0.0
 11
16.76806734382514
 21
8.636339360179849
 31
0.0
  0
LINE
  5
1D1
330
30
100
AcDbEntity
  8
0
 62
     0
100
AcDbLine
 10
13.9
 20
5.591495321058065
 30
0.0
 11
16.81795531761595
 21
8.509450638674019
 31
0.0
  0
LINE
  5
1D2
330
30
100
AcDbEntity
  8
0
 62
     0
100
AcDbLine
 10
13.9
 20
5.414718625761429
 30
0.0
 11
16.86118931399924
 21
8.375907939760674
 31
0.0
  0
LINE
  5
1D3
330
30
100
AcDbEntity
  8
0
 62
     0
100
AcDbLine
 10
13.9
 20
5.237941930464791
 30
0.0
 11
16.89709737442627
 21
8.235039304891063
 31
0.0
  0
LINE
  5
1D4
330
30
100
AcDbEntity
  8
0
 62
     0
100
AcDbLine
 10
14.03883476483184
 20
5.2
 30
0.0
 11
16.92477897501023
 21
8.085944210178388
 31
0.0
  0
LINE
  5
1D5
330
30
100
AcDbEntity
  8
0
 62
     0
100
AcDbLine
 10
14.21561146012848
 20
5.2
 30
0.0
 11
16.94299675793814
 21
7.927385297809664
 31
0.0
  0
LINE
  5
1D6
330
30
100
AcDbEntity
  8
0
 62
     0
100
AcDbLine
 10
14.39238815542512
 20
5.2
 30
0.0
 11
16.9499871677438
 21
7.757599012318679
 31
0.0
  0
LINE
  5
1D7
330
30
100
AcDbEntity
  8
0
 62
     0
100
AcDbLine
 10
14.56916485072175
 20
5.2
 30
0.0
 11
16.94310086073496
 21
7.573936010013212
 31
0.0
  0
LINE
  5
1D8
330
30
100
AcDbEntity
  8
0
 62
     0
100
AcDbLine
 10
14.74594154601839
 20
5.2
 30
0.0
 11
16.91803700563266
 21
7.372095459614269
 31
0.0
  0
LINE
  5
1D9
330
30
100
AcDbEntity
  8
0
 62
     0
100
AcDbLine
 10
14.92271824131503
 20
5.2
 30
0.0
 11
16.86690917579153
 21
7.144190934476499
 31
0.0
  0
LINE
  5
1DA
330
30
100
AcDbEntity
  8
0
 62
     0
100
AcDbLine
 10
15.09949493661166
 20
5.2
 30
0.0
 11
16.77171472429693
 21
6.872219787685267
 31
0.0
  0
LINE
  5
1DB
330
30
100
AcDbEntity
  8
0
 62
     0
100
AcDbLine
 10
15.2762716319083
 20
5.2
 30
0.0
 11
15.84795125284192
 21
5.771679620933618
 31
0.0
  0
LINE
  5
1DC
330
30
100
AcDbEntity
  8
0
 62
     0
100
AcDbLine
 10
15.96672997781769
 20
5.89045834590939
 30
0.0
 11
16.55954165409061
 21
6.483270022182311
 31
0.0
  0
LINE
  5
1DD
330
30
100
AcDbEntity
  8
0
 62
     0
100
AcDbLine
 10
15.45304832720494
 20
5.2
 30
0.0
 11
15.97066124869689
 21
5.717612921491952
 31
0.0
  0
LINE
  5
1DE
330
30
100
AcDbEntity
  8
0
 62
     0
100
AcDbLine
 10
15.62982502250157
 20
5.2
 30
0.0
 11
16.08893422102424
 21
5.659109198522661
 31
0.0
  0
LINE
  5
1DF
330
30
100
AcDbEntity
  8
0
 62
     0
100
AcDbLine
 10
15.80660171779821
 20
5.2
 30
0.0
 11
16.20296425787942
 21
5.59636254008121
 31
0.0
  0
LINE
  5
1E0
330
30
100
AcDbEntity
  8
0
 62
     0
100
AcDbLine
 10
15.98337841309485
 20
5.2
 30
0.0
 11
16.31290894781219
 21
5.529530534717341
 31
0.0
  0
LINE
  5
1E1
330
30
100
AcDbEntity
  8
0
 62
     0
100
AcDbLine
 10
16.16015510839148
 20
5.2
 30
0.0
 11
16.41889477551746
 21
5.458739667125973
 31
0.0
  0
LINE
  5
1E2
330
30
100
AcDbEntity
  8
0
 62
     0
100
AcDbLine
 10
16.33693180368812
 20
5.2
 30
0.0
 11
16.52102114525041
 21
5.384089341562286
 31
0.0
  0
LINE
  5
1E3
330
30
100
AcDbEntity
  8
0
 62
     0
100
AcDbLine
 10
16.51370849898476
 20
5.2
 30
0.0
 11
16.61936335457592
 21
5.305654855591162
 31
0.0
  0
LINE
  5
1E4
330
30
100
AcDbEntity
  8
0
 62
     0
100
AcDbLine
 10
16.69048519428139
 20
5.2
 30
0.0
 11
16.71397473843326
 21
5.223489544151862
 31
0.0
  0
ENDBLK
  5
1E5
330
30
100
AcDbEntity
  8
0
100
AcDbBlockEnd
  0
BLOCK
  5
1E6
330
31
100
AcDbEntity
  8
0
100
AcDbBlockBegin
  2
*X15
 70
     1
 10
0.0
 20
0.0
 30
0.0
  3
*X15
  1

  0
LINE
  5
1E7
330
31
100
AcDbEntity
  8
0
 62
     0
100
AcDbLine
 10
13.9
 20
0.8185245480488701
 30
0.0
 11
17.39644991717202
 21
4.314974465220889
 31
0.0
  0
LINE
  5
1E8
330
31
100
AcDbEntity
  8
0
 62
     0
100
AcDbLine
 10
13.9
 20
0.995301243345507
 30
0.0
 11
17.33635410458252
 21
4.431655347928027
 31
0.0
  0
LINE
  5
1E9
330
31
100
AcDbEntity
  8
0
 62
     0
100
AcDbLine
 10
13.9
 20
1.172077938642143
 30
0.0
 11
17.27207765977055
 21
4.544155598412691
 31
0.0
  0
LINE
  5
1EA
330
31
100
AcDbEntity
  8
0
 62
     0
100
AcDbLine
 10
13.9
 20
1.34885463393878
 30
0.0
 11
17.20376610315736
 21
4.652620737096146
 31
0.0
  0
LINE
  5
1EB
330
31
100
AcDbEntity
  8
0
 62
     0
100
AcDbLine
 10
13.9
 20
1.525631329235417
 30
0.0
 11
17.13153548167385
 21
4.757166810909273
 31
0.0
  0
LINE
  5
1EC
330
31
100
AcDbEntity
  8
0
 62
     0
100
AcDbLine
 10
13.9
 20
1.702408024532054
 30
0.0
 11
16.99759197546794
 21
4.8
 31
0.0
  0
LINE
  5
1ED
330
31
100
AcDbEntity
  8
0
 62
     0
100
AcDbLine
 10
13.9
 20
1.879184719828691
 30
0.0
 11
16.82081528017131
 21
4.8
 31
0.0
  0
LINE
  5
1EE
330
31
100
AcDbEntity
  8
0
 62
     0
100
AcDbLine
 10
13.9
 20
2.055961415125328
 30
0.0
 11
16.64403858487467
 21
4.8
 31
0.0
  0
LINE
  5
1EF
330
31
100
AcDbEntity
  8
0
 62
     0
100
AcDbLine
 10
13.9
 20
2.232738110421965
 30
0.0
 11
16.46726188957803
 21
4.8
 31
0.0
  0
LINE
  5
1F0
330
31
100
AcDbEntity
  8
0
 62
     0
100
AcDbLine
 10
13.9
 20
2.409514805718601
 30
0.0
 11
16.2904851942814
 21
4.8
 31
0.0
  0
LINE
  5
1F1
330
31
100
AcDbEntity
  8
0
 62
     0
100
AcDbLine
 10
13.9
 20
2.586291501015238
 30
0.0
 11
16.11370849898476
 21
4.8
 31
0.0
  0
LINE
  5
1F2
330
31
100
AcDbEntity
  8
0
 62
     0
100
AcDbLine
 10
13.9
 20
2.763068196311875
 30
0.0
 11
15.93693180368812
 21
4.8
 31
0.0
  0
LINE
  5
1F3
330
31
100
AcDbEntity
  8
0
 62
     0
100
AcDbLine
 10
13.9
 20
2.939844891608512
 30
0.0
 11
15.76015510839149
 21
4.8
 31
0.0
  0
LINE
  5
1F4
330
31
100
AcDbEntity
  8
0
 62
     0
100
AcDbLine
 10
13.9
 20
3.116621586905149
 30
0.0
 11
15.58337841309485
 21
4.8
 31
0.0
  0
LINE
  5
1F5
330
31
100
AcDbEntity
  8
0
 62
     0
100
AcDbLine
 10
13.9
 20
3.293398282201786
 30
0.0
 11
15.40660171779821
 21
4.8
 31
0.0
  0
LINE
  5
1F6
330
31
100
AcDbEntity
  8
0
 62
     0
100
AcDbLine
 10
13.9
 20
3.470174977498423
 30
0.0
 11
15.22982502250157
 21
4.8
 31
0.0
  0
LINE
  5
1F7
330
31
100
AcDbEntity
  8
0
 62
     0
100
AcDbLine
 10
13.9
 20
3.64695167279506
 30
0.0
 11
15.05304832720494
 21
4.8
 31
0.0
  0
LINE
  5
1F8
330
31
100
AcDbEntity
  8
0
 62
     0
100
AcDbLine
 10
13.9
 20
3.823728368091696
 30
0.0
 11
14.8762716319083
 21
4.8
 31
0.0
  0
LINE
  5
1F9
330
31
100
AcDbEntity
  8
0
 62
     0
100
AcDbLine
 10
13.9
 20
4.000505063388334
 30
0.0
 11
14.69949493661166
 21
4.8
 31
0.0
  0
LINE
  5
1FA
330
31
100
AcDbEntity
  8
0
 62
     0
100
AcDbLine
 10
13.9
 20
4.17728175868497
 30
0.0
 11
14.52271824131503
 21
4.8
 31
0.0
  0
LINE
  5
1FB
330
31
100
AcDbEntity
  8
0
 62
     0
100
AcDbLine
 10
13.9
 20
4.354058453981607
 30
0.0
 11
14.34594154601839
 21
4.8
 31
0.0
  0
LINE
  5
1FC
330
31
100
AcDbEntity
  8
0
 62
     0
100
AcDbLine
 10
13.9
 20
4.530835149278244
 30
0.0
 11
14.16916485072175
 21
4.8
 31
0.0
  0
LINE
  5
1FD
330
31
100
AcDbEntity
  8
0
 62
     0
100
AcDbLine
 10
13.9
 20
4.707611844574881
 30
0.0
 11
13.99238815542512
 21
4.8
 31
0.0
  0
LINE
  5
1FE
330
31
100
AcDbEntity
  8
0
 62
     0
100
AcDbLine
 10
13.9
 20
0.6417478527522334
 30
0.0
 11
17.45218526214292
 21
4.193933114895161
 31
0.0
  0
LINE
  5
1FF
330
31
100
AcDbEntity
  8
0
 62
     0
100
AcDbLine
 10
13.9
 20
0.4649711574555965
 30
0.0
 11
17.50333949830906
 21
4.068310655764662
 31
0.0
  0
LINE
  5
200
330
31
100
AcDbEntity
  8
0
 62
     0
100
AcDbLine
 10
13.9
 20
0.2881944621589596
 30
0.0
 11
17.54964242799989
 21
3.937836890158853
 31
0.0
  0
LINE
  5
201
330
31
100
AcDbEntity
  8
0
 62
     0
100
AcDbLine
 10
13.9
 20
0.1114177668623227
 30
0.0
 11
17.59076236298873
 21
3.802180129851055
 31
0.0
  0
LINE
  5
202
330
31
100
AcDbEntity
  8
0
 62
     0
100
AcDbLine
 10
13.96535907380306
 20
0.0000001453687495
 30
0.0
 11
17.62628957551245
 21
3.660930647078139
 31
0.0
  0
LINE
  5
203
330
31
100
AcDbEntity
  8
0
 62
     0
100
AcDbLine
 10
14.14213616227945
 20
0.0000005385484993
 30
0.0
 11
17.65571284726207
 21
3.513577223531124
 31
0.0
  0
LINE
  5
204
330
31
100
AcDbEntity
  8
0
 62
     0
100
AcDbLine
 10
14.31891325075583
 20
0.0000009317282491
 30
0.0
 11
17.67838532706747
 21
3.359473008039884
 31
0.0
  0
LINE
  5
205
330
31
100
AcDbEntity
  8
0
 62
     0
100
AcDbLine
 10
14.49569033923222
 20
0.0000013249079989
 30
0.0
 11
17.6934731399576
 21
3.197784125633374
 31
0.0
  0
LINE
  5
206
330
31
100
AcDbEntity
  8
0
 62
     0
100
AcDbLine
 10
14.67246742770861
 20
0.0000017180877487
 30
0.0
 11
17.6998747877926
 21
3.027409078171735
 31
0.0
  0
LINE
  5
207
330
31
100
AcDbEntity
  8
0
 62
     0
100
AcDbLine
 10
14.85315433025688
 20
0.0039119253393838
 30
0.0
 11
17.69608807466061
 21
2.846845669743118
 31
0.0
  0
LINE
  5
208
330
31
100
AcDbEntity
  8
0
 62
     0
100
AcDbLine
 10
15.04604362941941
 20
0.0200245292052809
 30
0.0
 11
17.67997547079472
 21
2.653956370580586
 31
0.0
  0
LINE
  5
209
330
31
100
AcDbEntity
  8
0
 62
     0
100
AcDbLine
 10
15.25448294516349
 20
0.051687149652724
 30
0.0
 11
17.64831285034728
 21
2.445517054836507
 31
0.0
  0
LINE
  5
20A
330
31
100
AcDbEntity
  8
0
 62
     0
100
AcDbLine
 10
15.48376230096711
 20
0.104189810159703
 30
0.0
 11
17.5958101898403
 21
2.216237699032893
 31
0.0
  0
LINE
  5
20B
330
31
100
AcDbEntity
  8
0
 62
     0
100
AcDbLine
 10
15.74378625147994
 20
0.1874370653758922
 30
0.0
 11
17.51256293462411
 21
1.956213748520063
 31
0.0
  0
LINE
  5
20C
330
31
100
AcDbEntity
  8
0
 62
     0
100
AcDbLine
 10
16.05817558800134
 20
0.3250497066006601
 30
0.0
 11
17.37495029339934
 21
1.641824411998659
 31
0.0
  0
LINE
  5
20D
330
31
100
AcDbEntity
  8
0
 62
     0
100
AcDbLine
 10
16.54193023656893
 20
0.6320276598716133
 30
0.0
 11
17.06797234012839
 21
1.158069763431071
 31
0.0
  0
ENDBLK
  5
20E
330
31
100
AcDbEntity
  8
0
100
AcDbBlockEnd
  0
BLOCK
  5
20F
330
32
100
AcDbEntity
  8
0
  6
DASHED
100
AcDbBlockBegin
  2
BLC15
 70
     0
 10
0.0
 20
0.0
 30
0.0
  3
BLC15
  1

  0
LINE
  5
210
330
32
100
AcDbEntity
  8
0
  6
Continuous
100
AcDbLine
 10
0.1420843676212655
 20
3.490022375113255
 30
0.0
 11
0.1420843676212655
 21
0.8443648832166417
 31
0.0
  0
LINE
  5
211
330
32
100
AcDbEntity
  8
0
  6
Continuous
100
AcDbLine
 10
-0.4616105474578376
 20
-0.9371884861638335
 30
0.0
 11
0.7457792827003687
 21
-0.9371884861638335
 31
0.0
  0
LINE
  5
212
330
32
100
AcDbEntity
  8
0
  6
Continuous
100
AcDbLine
 10
-0.8941083970667307
 20
-0.0496747197325362
 30
0.0
 11
1.169266760442411
 21
-0.0496747197325362
 31
0.0
  0
LINE
  5
213
330
32
100
AcDbEntity
  8
0
  6
Continuous
100
AcDbLine
 10
-1.389678849743603
 20
0.8443648832166417
 30
0.0
 11
1.673847584986134
 21
0.8443648832166417
 31
0.0
  0
ENDBLK
  5
214
330
32
100
AcDbEntity
  8
0
  6
DASHED
100
AcDbBlockEnd
  0
BLOCK
  5
215
330
33
100
AcDbEntity
  8
0
  6
DASHED
100
AcDbBlockBegin
  2
BLC55
 70
     0
 10
0.0
 20
0.0
 30
0.0
  3
BLC55
  1

  0
INSERT
  5
216
330
33
100
AcDbEntity
  8
SWEDEN
  6
CENTER
100
AcDbBlockReference
  2
BLC5
 10
0.0870658609543682
 20
-0.7568307888210839
 30
0.0
 41
0.6
 42
0.6
 43
0.6
  0
ENDBLK
  5
217
330
33
100
AcDbEntity
  8
0
  6
DASHED
100
AcDbBlockEnd
  0
BLOCK
  5
218
330
34
100
AcDbEntity
  8
SWEDEN
  6
CENTER
100
AcDbBlockBegin
  2
BLC5
 70
     0
 10
0.0
 20
0.0
 30
0.0
  3
BLC5
  1

  0
TEXT
  5
219
330
34
100
AcDbEntity
  8
0
100
AcDbText
 10
-3.043703616622593
 20
-6.645911909806137
 30
0.0
 40
3.2
  1
PE
100
AcDbText
  0
LINE
  5
21A
330
34
100
AcDbEntity
  8
0
100
AcDbLine
 10
-2.946391600460657
 20
1.181176409735783
 30
0.0
 11
2.135458132443943
 21
1.181176409735783
 31
0.0
  0
LINE
  5
21B
330
34
100
AcDbEntity
  8
0
100
AcDbLine
 10
-0.4865600808100226
 20
2.238361925631892
 30
0.0
 11
-0.4865600808100226
 21
6.930438381985624
 31
0.0
  0
LINE
  5
21C
330
34
100
AcDbEntity
  8
0
100
AcDbLine
 10
-1.973271438840612
 20
0.0652583651787779
 30
0.0
 11
1.225410573891878
 21
0.0652583651787779
 31
0.0
  0
LINE
  5
21D
330
34
100
AcDbEntity
  8
0
100
AcDbLine
 10
2.685090816321945
 20
2.238361925631892
 30
0.0
 11
1.68493953910135
 21
2.238361925631892
 31
0.0
  0
LINE
  5
21E
330
34
100
AcDbEntity
  8
0
100
AcDbLine
 10
-3.505034656205481
 20
2.238361925631892
 30
0.0
 11
2.649049328854516
 21
2.238361925631892
 31
0.0
  0
CIRCLE
  5
21F
330
34
100
AcDbEntity
  8
0
100
AcDbCircle
 10
-0.4775497089431724
 20
1.422632360897239
 30
0.0
 40
3.80456268992242
  0
ENDBLK
  5
220
330
34
100
AcDbEntity
  8
SWEDEN
  6
CENTER
100
AcDbBlockEnd
  0
BLOCK
  5
221
330
35
100
AcDbEntity
  8
0
  6
DASHED
100
AcDbBlockBegin
  2
BLC43
 70
     0
 10
0.0
 20
0.0
 30
0.0
  3
BLC43
  1

  0
TEXT
  5
222
330
35
100
AcDbEntity
  8
SWEDEN2
  6
Continuous
100
AcDbText
 10
-0.6466721562502756
 20
-0.9863647580152061
 30
0.0
 40
2.0
  1
+
100
AcDbText
  0
ENDBLK
  5
223
330
35
100
AcDbEntity
  8
0
  6
DASHED
100
AcDbBlockEnd
  0
BLOCK
  5
224
330
36
100
AcDbEntity
  8
0
  6
DASHED
100
AcDbBlockBegin
  2
BLC42
 70
     0
 10
0.0
 20
0.0
 30
0.0
  3
BLC42
  1

  0
TEXT
  5
225
330
36
100
AcDbEntity
  8
SWEDEN2
  6
Continuous
100
AcDbText
 10
-0.6552371134230981
 20
-0.9944195846351995
 30
0.0
 40
2.0
  1
-
100
AcDbText
  0
ENDBLK
  5
226
330
36
100
AcDbEntity
  8
0
  6
DASHED
100
AcDbBlockEnd
  0
BLOCK
  5
227
330
37
100
AcDbEntity
  8
0
  6
Continuous
100
AcDbBlockBegin
  2
BLC44
 70
     0
 10
0.0
 20
0.0
 30
0.0
  3
BLC44
  1

  0
LINE
  5
228
330
37
100
AcDbEntity
  8
HEL035
100
AcDbLine
 10
-2.520992801268107
 20
1.697877018123069
 30
0.0
 11
1.479007198731892
 21
1.697877018123069
 31
0.0
  0
INSERT
  5
229
330
37
100
AcDbEntity
  8
HEL035
100
AcDbBlockReference
  2
WKU130
 10
-2.181043214518581
 20
-0.0276753648205208
 30
0.0
 41
0.8
 42
0.8
 43
0.8
  0
ENDBLK
  5
22A
330
37
100
AcDbEntity
  8
0
  6
Continuous
100
AcDbBlockEnd
  0
BLOCK
  5
22B
330
38
100
AcDbEntity
  8
0
100
AcDbBlockBegin
  2
BLC25
 70
     0
 10
0.0
 20
0.0
 30
0.0
  3
BLC25
  1

  0
TEXT
  5
22C
330
38
100
AcDbEntity
  8
0
  6
Continuous
100
AcDbText
 10
2.0
 20
30.66666666666666
 30
0.0
 40
2.0
  1
1)
 11
2.0
 21
30.0
 31
0.0
100
AcDbText
 73
     1
  0
TEXT
  5
22D
330
38
100
AcDbEntity
  8
0
100
AcDbText
 10
6.0
 20
1.999999999999995
 30
0.0
 40
2.0
  1
7B    27     26
 11
6.0
 21
1.333333333333328
 31
0.0
100
AcDbText
 73
     1
  0
TEXT
  5
22E
330
38
100
AcDbEntity
  8
0
100
AcDbText
 10
6.0
 20
5.333333333333331
 30
0.0
 40
2.0
  1
5B     9      8
 11
6.0
 21
4.666666666666664
 31
0.0
100
AcDbText
 73
     1
  0
TEXT
  5
22F
330
38
100
AcDbEntity
  8
0
100
AcDbText
 10
6.0
 20
8.666666666666666
 30
0.0
 40
2.0
  1
3B     3      2
 11
6.0
 21
8.0
 31
0.0
100
AcDbText
 73
     1
  0
TEXT
  5
230
330
38
100
AcDbEntity
  8
0
100
AcDbText
 10
32.0
 20
12.66666666666666
 30
0.0
 40
2.0
  1
In=5A
 11
32.0
 21
12.0
 31
0.0
100
AcDbText
 73
     1
  0
TEXT
  5
231
330
38
100
AcDbEntity
  8
0
100
AcDbText
 10
16.0
 20
12.66666666666666
 30
0.0
 40
2.0
  1
In=1A 
 11
16.0
 21
12.0
 31
0.0
100
AcDbText
 73
     1
  0
TEXT
  5
232
330
38
100
AcDbEntity
  8
0
100
AcDbText
 10
26.0
 20
18.66666666666666
 30
0.0
 40
2.0
  1
108:
 11
26.0
 21
18.0
 31
0.0
100
AcDbText
 73
     1
  0
TEXT
  5
233
330
38
100
AcDbEntity
  8
0
100
AcDbText
 10
6.0
 20
18.66666666666666
 30
0.0
 40
2.0
  1
101:       
 11
6.0
 21
18.0
 31
0.0
100
AcDbText
 73
     1
  0
TEXT
  5
234
330
38
100
AcDbEntity
  8
0
100
AcDbText
 10
6.0
 20
24.66666666666666
 30
0.0
 40
2.0
  1
TERMINALS / UTTAG
 11
6.0
 21
24.0
 31
0.0
100
AcDbText
 73
     1
  0
LINE
  5
235
330
38
100
AcDbEntity
  8
0
100
AcDbLine
 10
0.0
 20
12.0
 30
0.0
 11
44.0
 21
12.0
 31
0.0
  0
LINE
  5
236
330
38
100
AcDbEntity
  8
0
100
AcDbLine
 10
28.0
 20
18.0
 30
0.0
 11
28.0
 21
0.0
 31
0.0
  0
LINE
  5
237
330
38
100
AcDbEntity
  8
0
100
AcDbLine
 10
14.0
 20
18.0
 30
0.0
 11
44.0
 21
18.0
 31
0.0
  0
LINE
  5
238
330
38
100
AcDbEntity
  8
0
100
AcDbLine
 10
14.0
 20
24.0
 30
0.0
 11
14.0
 21
0.0
 31
0.0
  0
LINE
  5
239
330
38
100
AcDbEntity
  8
0
100
AcDbLine
 10
0.0
 20
24.0
 30
0.0
 11
44.0
 21
24.0
 31
0.0
  0
LINE
  5
23A
330
38
100
AcDbEntity
  8
0
100
AcDbLine
 10
44.0
 20
0.0
 30
0.0
 11
44.0
 21
30.0
 31
0.0
  0
LINE
  5
23B
330
38
100
AcDbEntity
  8
0
100
AcDbLine
 10
0.0
 20
0.0
 30
0.0
 11
44.0
 21
0.0
 31
0.0
  0
LINE
  5
23C
330
38
100
AcDbEntity
  8
0
100
AcDbLine
 10
0.0
 20
30.0
 30
0.0
 11
0.0
 21
0.0
 31
0.0
  0
LINE
  5
23D
330
38
100
AcDbEntity
  8
0
100
AcDbLine
 10
44.0
 20
30.0
 30
0.0
 11
0.0
 21
30.0
 31
0.0
  0
ENDBLK
  5
23E
330
38
100
AcDbEntity
  8
0
100
AcDbBlockEnd
  0
BLOCK
  5
23F
330
39
100
AcDbEntity
  8
0
  6
Continuous
100
AcDbBlockBegin
  2
B67
 70
     0
 10
0.0
 20
0.0
 30
0.0
  3
B67
  1

  0
LINE
  5
240
330
39
100
AcDbEntity
  8
BASE
  6
Continuous
100
AcDbLine
 10
-1.897096883525819
 20
-3.556254285652556
 30
0.0
 11
-2.963521682092618
 21
-2.489829487085756
 31
0.0
  0
LINE
  5
241
330
39
100
AcDbEntity
  8
BASE
  6
Continuous
100
AcDbLine
 10
-2.963521682092618
 20
-2.489829487085756
 30
0.0
 11
-1.897096883525819
 21
-1.423404688518957
 31
0.0
  0
LINE
  5
242
330
39
100
AcDbEntity
  8
BASE
  6
Continuous
100
AcDbLine
 10
-1.897096883525819
 20
-1.423404688518957
 30
0.0
 11
-0.8306720849590192
 21
-2.489829487085756
 31
0.0
  0
LINE
  5
243
330
39
100
AcDbEntity
  8
BASE
  6
Continuous
100
AcDbLine
 10
-0.8306720849590192
 20
-2.489829487085756
 30
0.0
 11
-1.897096883525819
 21
-3.556254285652556
 31
0.0
  0
LINE
  5
244
330
39
100
AcDbEntity
  8
BASE
  6
DASHED
100
AcDbLine
 10
0.0
 20
0.0
 30
0.0
 11
-5.000116911294611
 21
0.0
 31
0.0
  0
TEXT
  5
245
330
39
100
AcDbEntity
  8
BASE
  6
DASHED
100
AcDbText
 10
-8.422045172020389
 20
-3.481615148970405
 30
0.0
 40
2.0
  1
14B
100
AcDbText
  0
LINE
  5
246
330
39
100
AcDbEntity
  8
BASE
  6
DASHED
100
AcDbLine
 10
-12.5
 20
0.0
 30
0.0
 11
-30.0
 21
0.0
 31
0.0
  0
TEXT
  5
247
330
39
100
AcDbEntity
  8
BASE
  6
DASHED
100
AcDbText
 10
-12.5
 20
3.402046125958037
 30
0.0
 40
2.0
  1
101
100
AcDbText
  0
TEXT
  5
248
330
39
100
AcDbEntity
  8
BASE
  6
DASHED
100
AcDbText
 10
-18.16033590220175
 20
-3.602839235966712
 30
0.0
 40
2.0
  1
14A 
100
AcDbText
  0
INSERT
  5
249
330
39
100
AcDbEntity
  8
0
  6
Continuous
100
AcDbBlockReference
  2
B37
 10
-12.5
 20
0.0
 30
0.0
 50
90.0
  0
ENDBLK
  5
24A
330
39
100
AcDbEntity
  8
0
  6
Continuous
100
AcDbBlockEnd
  0
BLOCK
  5
24B
330
3A
100
AcDbEntity
  8
0
  6
Continuous
100
AcDbBlockBegin
  2
B37
 70
     0
 10
0.0
 20
0.0
 30
0.0
  3
B37
  1

  0
LINE
  5
24C
330
3A
100
AcDbEntity
  8
BASE
  6
Continuous
100
AcDbLine
 10
-0.0065893296489321
 20
-6.0180353447804
 30
0.0
 11
2.434803690604468
 21
0.6628407621264217
 31
0.0
  0
LINE
  5
24D
330
3A
100
AcDbEntity
  8
BASE
  6
Continuous
100
AcDbLine
 10
0.0
 20
0.0
 30
0.0
 11
2.76566142954806
 21
0.0
 31
0.0
  0
LINE
  5
24E
330
3A
100
AcDbEntity
  8
BASE
  6
Continuous
100
AcDbLine
 10
2.434803690604468
 20
0.6628407621264217
 30
0.0
 11
1.54910578038249
 21
1.107734057400634
 31
0.0
  0
CIRCLE
  5
24F
330
3A
100
AcDbEntity
  8
BASE
  6
Continuous
100
AcDbCircle
 10
0.0
 20
-6.758944566362444
 30
0.0
 40
0.7409385223421197
  0
ENDBLK
  5
250
330
3A
100
AcDbEntity
  8
0
  6
Continuous
100
AcDbBlockEnd
  0
BLOCK
  5
251
330
3B
100
AcDbEntity
  8
0
  6
Continuous
100
AcDbBlockBegin
  2
B204
 70
     0
 10
0.0
 20
0.0
 30
0.0
  3
B204
  1

  0
TEXT
  5
252
330
3B
100
AcDbEntity
  8
BASE
  6
Continuous
100
AcDbText
 10
-5.818293697713727
 20
-13.16198909905779
 30
0.0
 40
2.0
  1
12A
100
AcDbText
  0
TEXT
  5
253
330
3B
100
AcDbEntity
  8
BASE
  6
Continuous
100
AcDbText
 10
-5.818293697713727
 20
-3.442733867157357
 30
0.0
 40
2.0
  1
11A
100
AcDbText
  0
LINE
  5
254
330
3B
100
AcDbEntity
  8
BASE
  6
Continuous
100
AcDbLine
 10
-5.0
 20
-9.999999999999971
 30
0.0
 11
0.0
 21
-10.0
 31
0.0
  0
LINE
  5
255
330
3B
100
AcDbEntity
  8
BASE
  6
Continuous
100
AcDbLine
 10
-20.0
 20
-10.01702752949287
 30
0.0
 11
-10.0
 21
-10.01702752949287
 31
0.0
  0
LINE
  5
256
330
3B
100
AcDbEntity
  8
BASE
  6
Continuous
100
AcDbLine
 10
-10.0
 20
-10.01702752949287
 30
0.0
 11
-10.0
 21
-7.234338570451939
 31
0.0
  0
LINE
  5
257
330
3B
100
AcDbEntity
  8
BASE
  6
Continuous
100
AcDbLine
 10
-10.89717266234387
 20
-7.565196309395531
 30
0.0
 11
-11.3420659576181
 21
-8.450894219617509
 31
0.0
  0
LINE
  5
258
330
3B
100
AcDbEntity
  8
BASE
  6
Continuous
100
AcDbLine
 10
-10.89717266234387
 20
-7.565196309395531
 30
0.0
 11
-5.0
 21
-9.999999999999971
 31
0.0
  0
LINE
  5
259
330
3B
100
AcDbEntity
  8
BASE
  6
Continuous
100
AcDbLine
 10
-10.89717266234387
 20
2.434803690604468
 30
0.0
 11
-5.0
 21
0.0000000000000284
 31
0.0
  0
LINE
  5
25A
330
3B
100
AcDbEntity
  8
BASE
  6
Continuous
100
AcDbLine
 10
-10.89717266234387
 20
2.434803690604468
 30
0.0
 11
-11.3420659576181
 21
1.54910578038249
 31
0.0
  0
LINE
  5
25B
330
3B
100
AcDbEntity
  8
BASE
  6
Continuous
100
AcDbLine
 10
-10.0
 20
-0.0170275294928786
 30
0.0
 11
-10.0
 21
2.76566142954806
 31
0.0
  0
LINE
  5
25C
330
3B
100
AcDbEntity
  8
BASE
  6
Continuous
100
AcDbLine
 10
-20.0
 20
-0.0170275294928786
 30
0.0
 11
-10.0
 21
-0.0170275294928786
 31
0.0
  0
LINE
  5
25D
330
3B
100
AcDbEntity
  8
BASE
  6
Continuous
100
AcDbLine
 10
-5.0
 20
0.0000000000000284
 30
0.0
 11
0.0
 21
0.0
 31
0.0
  0
ENDBLK
  5
25E
330
3B
100
AcDbEntity
  8
0
  6
Continuous
100
AcDbBlockEnd
  0
BLOCK
  5
25F
330
3C
100
AcDbEntity
  8
0
  6
Continuous
100
AcDbBlockBegin
  2
B13
 70
     0
 10
0.0
 20
0.0
 30
0.0
  3
B13
  1

  0
LINE
  5
260
330
3C
100
AcDbEntity
  8
BASE
  6
Continuous
100
AcDbLine
 10
0.0079302691904672
 20
5.0
 30
0.0
 11
0.0079302691904672
 21
-5.0
 31
0.0
  0
LINE
  5
261
330
3C
100
AcDbEntity
  8
BASE
  6
Continuous
100
AcDbLine
 10
0.0
 20
-11.00000363311124
 30
0.0
 11
0.0
 21
-17.5
 31
0.0
  0
LINE
  5
262
330
3C
100
AcDbEntity
  8
BASE
  6
Continuous
100
AcDbLine
 10
5.0
 20
-11.00000363311131
 30
0.0
 11
5.0
 21
-17.5
 31
0.0
  0
LINE
  5
263
330
3C
100
AcDbEntity
  8
BASE
  6
Continuous
100
AcDbLine
 10
4.982972470507121
 20
5.0
 30
0.0
 11
4.982972470507121
 21
-5.0
 31
0.0
  0
LINE
  5
264
330
3C
100
AcDbEntity
  8
BASE
  6
Continuous
100
AcDbLine
 10
10.0
 20
-5.0
 30
0.0
 11
10.0
 21
-1.412305929299066
 31
0.0
  0
LINE
  5
265
330
3C
100
AcDbEntity
  8
BASE
  6
Continuous
100
AcDbLine
 10
10.0
 20
-0.2137701957185527
 30
0.0
 11
10.0
 21
2.286229804281447
 31
0.0
  0
LINE
  5
266
330
3C
100
AcDbEntity
  8
BASE
  6
Continuous
100
AcDbLine
 10
10.0
 20
-11.00000363311129
 30
0.0
 11
10.0
 21
-17.5
 31
0.0
  0
LINE
  5
267
330
3C
100
AcDbEntity
  8
BASE
  6
Continuous
100
AcDbLine
 10
10.0
 20
-11.00000363311129
 30
0.0
 11
12.43480369060447
 21
-4.337159237873578
 31
0.0
  0
LINE
  5
268
330
3C
100
AcDbEntity
  8
BASE
  6
Continuous
100
AcDbLine
 10
10.0
 20
-5.0
 30
0.0
 11
12.76566142954806
 21
-5.0
 31
0.0
  0
LINE
  5
269
330
3C
100
AcDbEntity
  8
BASE
  6
Continuous
100
AcDbLine
 10
12.43480369060447
 20
-4.337159237873578
 30
0.0
 11
11.54910578038249
 21
-3.892265942599365
 31
0.0
  0
LINE
  5
26A
330
3C
100
AcDbEntity
  8
BASE
  6
Continuous
100
AcDbLine
 10
5.0
 20
-5.0
 30
0.0
 11
7.76566142954806
 21
-5.0
 31
0.0
  0
LINE
  5
26B
330
3C
100
AcDbEntity
  8
BASE
  6
Continuous
100
AcDbLine
 10
7.434803690604468
 20
-4.337159237873578
 30
0.0
 11
6.54910578038249
 21
-3.892265942599365
 31
0.0
  0
LINE
  5
26C
330
3C
100
AcDbEntity
  8
BASE
  6
Continuous
100
AcDbLine
 10
5.0
 20
-11.00000363311131
 30
0.0
 11
7.434803690604468
 21
-4.337159237873578
 31
0.0
  0
LINE
  5
26D
330
3C
100
AcDbEntity
  8
BASE
  6
Continuous
100
AcDbLine
 10
0.0
 20
-11.00000363311124
 30
0.0
 11
2.434803690604468
 21
-4.337159237873578
 31
0.0
  0
LINE
  5
26E
330
3C
100
AcDbEntity
  8
BASE
  6
Continuous
100
AcDbLine
 10
0.0
 20
-5.0
 30
0.0
 11
2.76566142954806
 21
-5.0
 31
0.0
  0
ENDBLK
  5
26F
330
3C
100
AcDbEntity
  8
0
  6
Continuous
100
AcDbBlockEnd
  0
ENDSEC
  0
SECTION
  2
ENTITIES
  0
INSERT
  5
270
330
1E
100
AcDbEntity
  8
0
100
AcDbBlockReference
  2
1
 10
65.40543794728922
 20
98.7130660876682
 30
0.0
  0
INSERT
  5
271
330
1E
100
AcDbEntity
  8
0
100
AcDbBlockReference
  2
1
 10
72.5416524658361
 20
49.71055967492806
 30
0.0
  0
INSERT
  5
272
330
1E
100
AcDbEntity
  8
0
100
AcDbBlockReference
  2
1
 10
85.39044274796726
 20
73.49723378259056
 30
0.0
  0
LINE
  5
273
330
1E
100
AcDbEntity
  8
BASE
  6
CENTER
100
AcDbLine
 10
230.0
 20
185.0
 30
0.0
 11
230.0
 21
77.5
 31
0.0
  0
LINE
  5
274
330
1E
100
AcDbEntity
  8
BASE
  6
CENTER
100
AcDbLine
 10
230.0
 20
77.5
 30
0.0
 11
230.0
 21
55.0
 31
0.0
  0
LINE
  5
275
330
1E
100
AcDbEntity
  8
BASE
  6
Continuous
100
AcDbLine
 10
212.5
 20
70.0
 30
0.0
 11
222.5
 21
70.0
 31
0.0
  0
LINE
  5
276
330
1E
100
AcDbEntity
  8
BASE
  6
Continuous
100
AcDbLine
 10
212.5
 20
70.0
 30
0.0
 11
215.0
 21
72.5
 31
0.0
  0
LINE
  5
277
330
1E
100
AcDbEntity
  8
BASE
  6
Continuous
100
AcDbLine
 10
217.5
 20
70.0
 30
0.0
 11
220.0
 21
72.5
 31
0.0
  0
LINE
  5
278
330
1E
100
AcDbEntity
  8
BASE
  6
Continuous
100
AcDbLine
 10
222.5
 20
70.0
 30
0.0
 11
225.0
 21
72.5
 31
0.0
  0
LINE
  5
279
330
1E
100
AcDbEntity
  8
BASE
  6
Continuous
100
AcDbLine
 10
217.5
 20
70.0
 30
0.0
 11
217.5
 21
55.0
 31
0.0
  0
LINE
  5
27A
330
1E
100
AcDbEntity
  8
BASE
  6
Continuous
100
AcDbLine
 10
205.0
 20
72.5
 30
0.0
 11
205.0
 21
55.0
 31
0.0
  0
LINE
  5
27B
330
1E
100
AcDbEntity
  8
BASE
  6
Continuous
100
AcDbLine
 10
200.0
 20
72.5
 30
0.0
 11
200.0
 21
55.0
 31
0.0
  0
INSERT
  5
27C
330
1E
100
AcDbEntity
  8
0
  6
DASHED
100
AcDbBlockReference
  2
BLC55
 10
217.7048605164344
 20
44.09883621586613
 30
0.0
  0
LINE
  5
27D
330
1E
100
AcDbEntity
  8
0
  6
DASHED
100
AcDbLine
 10
205.0
 20
55.0
 30
0.0
 11
205.0
 21
47.5
 31
0.0
  0
LINE
  5
27E
330
1E
100
AcDbEntity
  8
0
  6
DASHED
100
AcDbLine
 10
217.5
 20
55.0
 30
0.0
 11
217.5
 21
47.5
 31
0.0
  0
LINE
  5
27F
330
1E
100
AcDbEntity
  8
0
  6
DASHED
100
AcDbLine
 10
200.0
 20
55.0
 30
0.0
 11
200.0
 21
47.5
 31
0.0
  0
LINE
  5
280
330
1E
100
AcDbEntity
  8
0
  6
DASHED
100
AcDbLine
 10
172.5
 20
55.0
 30
0.0
 11
172.5
 21
47.5
 31
0.0
  0
LINE
  5
281
330
1E
100
AcDbEntity
  8
0
  6
DASHED
100
AcDbLine
 10
167.5
 20
55.0
 30
0.0
 11
167.5
 21
47.5
 31
0.0
  0
LINE
  5
282
330
1E
100
AcDbEntity
  8
0
  6
DASHED
100
AcDbLine
 10
152.5
 20
55.0
 30
0.0
 11
152.5
 21
47.5
 31
0.0
  0
INSERT
  5
283
330
1E
100
AcDbEntity
  8
0
  6
DASHED
100
AcDbBlockReference
  2
BLC42
 10
205.0
 20
42.5
 30
0.0
  0
INSERT
  5
284
330
1E
100
AcDbEntity
  8
0
  6
DASHED
100
AcDbBlockReference
  2
BLC43
 10
200.0
 20
42.5
 30
0.0
  0
LINE
  5
285
330
1E
100
AcDbEntity
  8
BASE
  6
Continuous
100
AcDbLine
 10
167.5
 20
140.2328905238334
 30
0.0
 11
197.9506146543173
 21
140.2328905238334
 31
0.0
  0
TEXT
  5
286
330
1E
100
AcDbEntity
  8
BASE
  6
Continuous
100
AcDbText
 10
179.4087664039472
 20
136.2958146562257
 30
0.0
 40
2.5
  1
IRF
 11
179.4087664039472
 21
135.4624813228923
 31
0.0
100
AcDbText
 73
     1
  0
LINE
  5
287
330
1E
100
AcDbEntity
  8
BASE
  6
Continuous
100
AcDbLine
 10
197.9506146543173
 20
135.0000000000004
 30
0.0
 11
167.5
 21
135.0000000000003
 31
0.0
  0
LINE
  5
288
330
1E
100
AcDbEntity
  8
BASE
  6
Continuous
100
AcDbLine
 10
197.9506146543173
 20
177.2098276043298
 30
0.0
 11
197.9506146543173
 21
135.0000000000004
 31
0.0
  0
LINE
  5
289
330
1E
100
AcDbEntity
  8
BASE
  6
Continuous
100
AcDbLine
 10
197.9506146522573
 20
199.9999999999999
 30
0.0
 11
197.9506146522573
 21
177.1883195992091
 31
0.0
  0
INSERT
  5
28A
330
1E
100
AcDbEntity
  8
0
  6
Continuous
100
AcDbBlockReference
  2
BLC44
 10
202.4999999999999
 20
39.08564962995558
 30
0.0
  0
LINE
  5
28B
330
1E
100
AcDbEntity
  8
BASE
  6
Continuous
100
AcDbLine
 10
167.5
 20
145.0
 30
0.0
 11
197.9506146543173
 21
145.0
 31
0.0
  0
CIRCLE
  5
28C
330
1E
100
AcDbEntity
  8
BASE
  6
Continuous
100
AcDbCircle
 10
166.5126585353903
 20
137.4983241333401
 30
0.0
 40
1.0
  0
LINE
  5
28D
330
1E
100
AcDbEntity
  8
BASE
  6
Continuous
100
AcDbLine
 10
167.5
 20
190.0
 30
0.0
 11
167.5
 21
175.0
 31
0.0
  0
LINE
  5
28E
330
1E
100
AcDbEntity
  8
BASE
  6
Continuous
100
AcDbLine
 10
167.5
 20
190.0
 30
0.0
 11
167.5
 21
195.0
 31
0.0
  0
LINE
  5
28F
330
1E
100
AcDbEntity
  8
BASE
  6
Continuous
100
AcDbLine
 10
167.5
 20
175.0
 30
0.0
 11
167.5
 21
135.0000000000003
 31
0.0
  0
LINE
  5
290
330
1E
100
AcDbEntity
  8
BASE
  6
CENTER
100
AcDbLine
 10
37.5
 20
215.0
 30
0.0
 11
37.5
 21
55.0
 31
0.0
  0
LINE
  5
291
330
1E
100
AcDbEntity
  8
BASE
  6
Continuous
100
AcDbLine
 10
64.99999999999996
 20
117.5
 30
0.0
 11
70.0
 21
117.5
 31
0.0
  0
LINE
  5
292
330
1E
100
AcDbEntity
  8
BASE
  6
Continuous
100
AcDbLine
 10
64.99999999999996
 20
117.5
 30
0.0
 11
59.25607594821684
 21
114.2852966948171
 31
0.0
  0
TEXT
  5
293
330
1E
100
AcDbEntity
  8
BASE
  6
DASHED
100
AcDbText
 10
58.19737272514714
 20
118.4034924824313
 30
0.0
 40
2.0
  1
A
  7
ROMANS
100
AcDbText
  0
TEXT
  5
295
330
1E
100
AcDbEntity
  8
BASE
  6
DASHED
100
AcDbText
 10
76.64337301197369
 20
108.7745883813304
 30
0.0
 40
2.0
  1
B
  7
ROMANS
100
AcDbText
  0
TEXT
  5
296
330
1E
100
AcDbEntity
  8
BASE
  6
DASHED
100
AcDbText
 10
93.55510948741914
 20
98.13436443750184
 30
0.0
 40
2.0
  1
C
  7
ROMANS
100
AcDbText
  0
TEXT
  5
297
330
1E
100
AcDbEntity
  8
BASE
  6
DASHED
100
AcDbText
 10
110.9840135397346
 20
88.25575173325827
 30
0.0
 40
2.0
  1
D
  7
ROMANS
100
AcDbText
  0
TEXT
  5
298
330
1E
100
AcDbEntity
  8
BASE
  6
DASHED
100
AcDbText
 10
141.0662843061373
 20
68.23633229147134
 30
0.0
 40
2.0
  1
F
  7
ROMANS
100
AcDbText
  0
LINE
  5
299
330
1E
100
AcDbEntity
  8
BASE
  6
CENTER
100
AcDbLine
 10
37.5
 20
55.0
 30
0.0
 11
230.0
 21
55.0
 31
0.0
  0
LINE
  5
29A
330
1E
100
AcDbEntity
  8
BASE
  6
CENTER
100
AcDbLine
 10
230.0
 20
207.5
 30
0.0
 11
230.0
 21
215.0
 31
0.0
  0
LINE
  5
29B
330
1E
100
AcDbEntity
  8
BASE
  6
CENTER
100
AcDbLine
 10
230.0
 20
215.0
 30
0.0
 11
37.5
 21
215.0
 31
0.0
  0
LINE
  5
29C
330
1E
100
AcDbEntity
  8
0
  6
DASHED
100
AcDbLine
 10
182.5
 20
55.0
 30
0.0
 11
182.5
 21
47.5
 31
0.0
  0
LINE
  5
29D
330
1E
100
AcDbEntity
  8
0
  6
DASHED
100
AcDbLine
 10
187.5
 20
55.0
 30
0.0
 11
187.5
 21
47.5
 31
0.0
  0
INSERT
  5
29E
330
1E
100
AcDbEntity
  8
0
  6
DASHED
100
AcDbBlockReference
  2
BLC43
 10
12.0116479632872
 20
205.0
 30
0.0
  0
INSERT
  5
29F
330
1E
100
AcDbEntity
  8
0
  6
DASHED
100
AcDbBlockReference
  2
BLC42
 10
12.0116479632872
 20
200.0
 30
0.0
  0
INSERT
  5
2A0
330
1E
100
AcDbEntity
  8
0
  6
DASHED
100
AcDbBlockReference
  2
BLC44
 10
8.523713579829575
 20
201.4380595807454
 30
0.0
  0
TEXT
  5
2A1
330
1E
100
AcDbEntity
  8
0
  6
DASHED
100
AcDbText
 10
6.869018649107431
 20
207.5
 30
0.0
 40
2.0
  1
1)
  7
ROMANS
100
AcDbText
  0
TEXT
  5
2A2
330
1E
100
AcDbEntity
  8
BASE
  6
Continuous
100
AcDbText
 10
179.4904072156893
 20
141.0664238901928
 30
0.0
 40
2.5
  1
I/O
100
AcDbText
  0
LINE
  5
2A3
330
1E
100
AcDbEntity
  8
BASE
  6
Continuous
100
AcDbLine
 10
167.5
 20
165.0
 30
0.0
 11
187.5
 21
165.0
 31
0.0
  0
LINE
  5
2A4
330
1E
100
AcDbEntity
  8
BASE
  6
Continuous
100
AcDbLine
 10
187.5
 20
165.0
 30
0.0
 11
197.9506146543173
 21
165.0
 31
0.0
  0
LINE
  5
2A5
330
1E
100
AcDbEntity
  8
BASE
  6
Continuous
100
AcDbLine
 10
187.5
 20
175.0
 30
0.0
 11
187.5
 21
165.0
 31
0.0
  0
TEXT
  5
2A6
330
1E
100
AcDbEntity
  8
BASE
  6
Continuous
100
AcDbText
 10
192.3479941953819
 20
180.1496425726346
 30
0.0
 40
2.5
  1
U2
  7
ROMANS
100
AcDbText
  0
LINE
  5
2A7
330
1E
100
AcDbEntity
  8
BASE
  6
Continuous
100
AcDbLine
 10
167.5
 20
177.5
 30
0.0
 11
187.5
 21
177.5
 31
0.0
  0
LINE
  5
2A8
330
1E
100
AcDbEntity
  8
BASE
  6
Continuous
100
AcDbLine
 10
167.5
 20
195.0
 30
0.0
 11
167.5
 21
200.0
 31
0.0
  0
LINE
  5
2A9
330
1E
100
AcDbEntity
  8
BASE
  6
Continuous
100
AcDbLine
 10
167.5
 20
200.0
 30
0.0
 11
197.9506146522573
 21
199.9999999999999
 31
0.0
  0
LINE
  5
2AA
330
1E
100
AcDbEntity
  8
BASE
  6
Continuous
100
AcDbLine
 10
187.5
 20
175.0
 30
0.0
 11
187.5
 21
185.0
 31
0.0
  0
CIRCLE
  5
2AB
330
1E
100
AcDbEntity
  8
BASE
  6
Continuous
100
AcDbCircle
 10
166.5000930288074
 20
170.7840789583337
 30
0.0
 40
1.0
  0
TEXT
  5
2AC
330
1E
100
AcDbEntity
  8
BASE
  6
Continuous
100
AcDbText
 10
168.4069092565677
 20
170.030577036643
 30
0.0
 40
1.5
  1
EN
100
AcDbText
  0
LINE
  5
2AD
330
1E
100
AcDbEntity
  8
BASE
  6
Continuous
100
AcDbLine
 10
172.5
 20
170.7885937290237
 30
0.0
 11
175.0
 21
170.7885937290237
 31
0.0
  0
LINE
  5
2AE
330
1E
100
AcDbEntity
  8
BASE
  6
Continuous
100
AcDbLine
 10
177.5
 20
170.7885937290237
 30
0.0
 11
175.2755532590327
 21
170.2279513393138
 31
0.0
  0
LINE
  5
2AF
330
1E
100
AcDbEntity
  8
BASE
  6
Continuous
100
AcDbLine
 10
177.5
 20
170.7885937290237
 30
0.0
 11
180.0
 21
170.7885937290237
 31
0.0
  0
LINE
  5
2B0
330
1E
100
AcDbEntity
  8
BASE
  6
Continuous
100
AcDbLine
 10
117.5
 20
130.0
 30
0.0
 11
117.5
 21
127.5
 31
0.0
  0
LINE
  5
2B1
330
1E
100
AcDbEntity
  8
BASE
  6
Continuous
100
AcDbLine
 10
100.0
 20
130.0
 30
0.0
 11
100.0
 21
127.5
 31
0.0
  0
LINE
  5
2B2
330
1E
100
AcDbEntity
  8
BASE
  6
Continuous
100
AcDbLine
 10
82.5
 20
130.0
 30
0.0
 11
82.5
 21
127.5
 31
0.0
  0
LINE
  5
2B3
330
1E
100
AcDbEntity
  8
BASE
  6
Continuous
100
AcDbLine
 10
125.0
 20
87.5
 30
0.0
 11
167.5079302691904
 21
87.5
 31
0.0
  0
LINE
  5
2B4
330
1E
100
AcDbEntity
  8
BASE
  6
Continuous
100
AcDbLine
 10
70.0
 20
117.5
 30
0.0
 11
182.5
 21
117.5
 31
0.0
  0
LINE
  5
2B5
330
1E
100
AcDbEntity
  8
BASE
  6
Continuous
100
AcDbLine
 10
110.0
 20
87.5
 30
0.0
 11
37.5
 21
87.5
 31
0.0
  0
LINE
  5
2B6
330
1E
100
AcDbEntity
  8
BASE
  6
Continuous
100
AcDbLine
 10
110.0
 20
82.5
 30
0.0
 11
37.5
 21
82.5
 31
0.0
  0
LINE
  5
2B7
330
1E
100
AcDbEntity
  8
BASE
  6
Continuous
100
AcDbLine
 10
137.5
 20
67.5
 30
0.0
 11
37.5
 21
67.5
 31
0.0
  0
LINE
  5
2B8
330
1E
100
AcDbEntity
  8
BASE
  6
Continuous
100
AcDbLine
 10
137.5
 20
62.5
 30
0.0
 11
37.5
 21
62.5
 31
0.0
  0
LINE
  5
2B9
330
1E
100
AcDbEntity
  8
BASE
  6
Continuous
100
AcDbLine
 10
165.5126599396553
 20
137.4952890071988
 30
0.0
 11
145.0
 21
137.4952890071988
 31
0.0
  0
LINE
  5
2BA
330
1E
100
AcDbEntity
  8
BASE
  6
Continuous
100
AcDbLine
 10
145.0
 20
137.4952890071988
 30
0.0
 11
145.0
 21
122.5
 31
0.0
  0
LINE
  5
2BB
330
1E
100
AcDbEntity
  8
BASE
  6
DASHED
100
AcDbLine
 10
145.0
 20
122.5
 30
0.0
 11
145.0
 21
66.10082442063941
 31
0.0
  0
LINE
  5
2BC
330
1E
100
AcDbEntity
  8
BASE
  6
DASHED
100
AcDbLine
 10
117.5
 20
127.5
 30
0.0
 11
117.5
 21
86.10082442063939
 31
0.0
  0
LINE
  5
2BD
330
1E
100
AcDbEntity
  8
BASE
  6
DASHED
100
AcDbLine
 10
100.0
 20
127.5
 30
0.0
 11
100.0
 21
96.10082442063939
 31
0.0
  0
LINE
  5
2BE
330
1E
100
AcDbEntity
  8
BASE
  6
DASHED
100
AcDbLine
 10
82.5
 20
127.5
 30
0.0
 11
82.5
 21
106.1008244206393
 31
0.0
  0
LINE
  5
2BF
330
1E
100
AcDbEntity
  8
BASE
  6
DASHED
100
AcDbLine
 10
62.5
 20
127.5
 30
0.0
 11
62.5
 21
116.1008244206394
 31
0.0
  0
TEXT
  5
2C0
330
1E
100
AcDbEntity
  8
BASE
  6
Continuous
100
AcDbText
 10
48.41330275971429
 20
140.010708896716
 30
0.0
 40
2.0
  1
SGR
100
AcDbText
  0
LINE
  5
2C1
330
1E
100
AcDbEntity
  8
BASE
  6
Continuous
100
AcDbLine
 10
167.5
 20
157.5
 30
0.0
 11
167.5
 21
152.5
 31
0.0
  0
INSERT
  5
2C2
330
1E
100
AcDbEntity
  8
BASE
  6
Continuous
100
AcDbBlockReference
  2
BLC29
 10
162.9333157969969
 20
174.8715250368543
 30
0.0
 50
180.0
  0
INSERT
  5
2C3
330
1E
100
AcDbEntity
  8
BASE
  6
Continuous
100
AcDbBlockReference
  2
BLC29
 10
162.9333157969969
 20
178.9644010277564
 30
0.0
 50
180.0
  0
INSERT
  5
2C4
330
1E
100
AcDbEntity
  8
BASE
  6
Continuous
100
AcDbBlockReference
  2
BLC29
 10
162.9239964243554
 20
137.3668246051238
 30
0.0
 50
180.0
  0
INSERT
  5
2C5
330
1E
100
AcDbEntity
  8
BASE
  6
Continuous
100
AcDbBlockReference
  2
BLC29
 10
213.9821446055022
 20
104.8715353263674
 30
0.0
 50
180.0
  0
INSERT
  5
2C6
330
1E
100
AcDbEntity
  8
BASE
  6
Continuous
100
AcDbBlockReference
  2
BLC29
 10
216.8493652920373
 20
105.1284646736325
 30
0.0
  0
LINE
  5
2C7
330
1E
100
AcDbEntity
  8
BASE
  6
CENTER
100
AcDbLine
 10
230.0
 20
207.5
 30
0.0
 11
230.0
 21
185.0
 31
0.0
  0
LINE
  5
2C8
330
1E
100
AcDbEntity
  8
BASE
  6
Continuous
100
AcDbLine
 10
230.0
 20
165.0
 30
0.0
 11
230.0
 21
165.0
 31
0.0
  0
INSERT
  5
2C9
330
1E
100
AcDbEntity
  8
BASE
  6
Continuous
100
AcDbBlockReference
  2
BLC29
 10
210.9705537031207
 20
174.8715239862387
 30
0.0
 50
180.0
  0
LINE
  5
2CA
330
1E
100
AcDbEntity
  8
BASE
  6
Continuous
100
AcDbLine
 10
212.5
 20
175.0
 30
0.0
 11
202.4999999999999
 21
175.0
 31
0.0
  0
LINE
  5
2CB
330
1E
100
AcDbEntity
  8
0
  6
Continuous
100
AcDbLine
 10
355.0
 20
225.0
 30
0.0
 11
375.0
 21
225.0
 31
0.0
  0
LINE
  5
2CC
330
1E
100
AcDbEntity
  8
0
  6
Continuous
100
AcDbLine
 10
375.0
 20
225.0
 30
0.0
 11
375.0
 21
205.0
 31
0.0
  0
LINE
  5
2CD
330
1E
100
AcDbEntity
  8
0
  6
Continuous
100
AcDbLine
 10
355.0
 20
205.0
 30
0.0
 11
355.0
 21
225.0
 31
0.0
  0
LINE
  5
2CE
330
1E
100
AcDbEntity
  8
0
  6
Continuous
100
AcDbLine
 10
355.0
 20
205.0
 30
0.0
 11
375.0
 21
205.0
 31
0.0
  0
LINE
  5
2CF
330
1E
100
AcDbEntity
  8
0
  6
DASHED
100
AcDbLine
 10
37.5
 20
200.0
 30
0.0
 11
15.0
 21
200.0
 31
0.0
  0
LINE
  5
2D0
330
1E
100
AcDbEntity
  8
BASE
  6
Continuous
100
AcDbLine
 10
224.2629919219343
 20
104.2571197816594
 30
0.0
 11
225.4796993726802
 21
105.6670565134138
 31
0.0
  0
TEXT
  5
2D1
330
1E
100
AcDbEntity
  8
BASE
  6
Continuous
100
AcDbText
 10
225.236357882531
 20
106.570297232194
 30
0.0
 40
2.0
  1
9
  7
ROMANS
100
AcDbText
  0
LINE
  5
2D2
330
1E
100
AcDbEntity
  8
0
  6
DASHED
100
AcDbLine
 10
37.5
 20
117.5
 30
0.0
 11
27.5
 21
117.5
 31
0.0
  0
LINE
  5
2D3
330
1E
100
AcDbEntity
  8
0
  6
DASHED
100
AcDbLine
 10
37.5
 20
107.4999999999999
 30
0.0
 11
27.5
 21
107.4999999999999
 31
0.0
  0
LINE
  5
2D4
330
1E
100
AcDbEntity
  8
0
  6
DASHED
100
AcDbLine
 10
37.5
 20
97.5
 30
0.0
 11
27.5
 21
97.5
 31
0.0
  0
LINE
  5
2D5
330
1E
100
AcDbEntity
  8
0
  6
DASHED
100
AcDbLine
 10
37.5
 20
87.5
 30
0.0
 11
27.5
 21
87.5
 31
0.0
  0
LINE
  5
2D6
330
1E
100
AcDbEntity
  8
0
  6
DASHED
100
AcDbLine
 10
37.5
 20
62.5
 30
0.0
 11
27.5
 21
62.5
 31
0.0
  0
LINE
  5
2D7
330
1E
100
AcDbEntity
  8
0
  6
Continuous
100
AcDbLine
 10
25.0
 20
118.0
 30
0.0
 11
25.0
 21
107.0
 31
0.0
  0
LINE
  5
2D8
330
1E
100
AcDbEntity
  8
0
  6
Continuous
100
AcDbLine
 10
25.0
 20
118.0
 30
0.0
 11
26.0
 21
119.0
 31
0.0
  0
LINE
  5
2D9
330
1E
100
AcDbEntity
  8
0
  6
Continuous
100
AcDbLine
 10
25.0
 20
107.0
 30
0.0
 11
26.0
 21
106.0
 31
0.0
  0
LINE
  5
2DA
330
1E
100
AcDbEntity
  8
0
  6
Continuous
100
AcDbLine
 10
25.0
 20
87.0
 30
0.0
 11
26.0
 21
86.0
 31
0.0
  0
LINE
  5
2DB
330
1E
100
AcDbEntity
  8
0
  6
Continuous
100
AcDbLine
 10
25.0
 20
98.0
 30
0.0
 11
25.0
 21
87.0
 31
0.0
  0
LINE
  5
2DC
330
1E
100
AcDbEntity
  8
0
  6
Continuous
100
AcDbLine
 10
25.0
 20
98.0
 30
0.0
 11
26.0
 21
99.0
 31
0.0
  0
TEXT
  5
2DD
330
1E
100
AcDbEntity
  8
0
  6
Continuous
100
AcDbText
 10
17.5
 20
92.08051630295432
 30
0.0
 40
2.0
  1
3)
  7
ROMANS
100
AcDbText
  0
TEXT
  5
2DE
330
1E
100
AcDbEntity
  8
0
  6
Continuous
100
AcDbText
 10
17.5
 20
61.31720084186415
 30
0.0
 40
2.0
  1
4)
  7
ROMANS
100
AcDbText
  0
LINE
  5
2DF
330
1E
100
AcDbEntity
  8
BASE
  6
Continuous
100
AcDbLine
 10
47.5
 20
205.0
 30
0.0
 11
47.1776959568742
 21
205.0
 31
0.0
  0
LINE
  5
2E0
330
1E
100
AcDbEntity
  8
BASE
  6
Continuous
100
AcDbLine
 10
60.0
 20
117.5
 30
0.0
 11
55.0
 21
117.5
 31
0.0
  0
LINE
  5
2E1
330
1E
100
AcDbEntity
  8
0
  6
Continuous
100
AcDbLine
 10
360.6313071568943
 20
216.9139921769689
 30
0.0
 11
368.4195121837266
 21
216.9139921769689
 31
0.0
  0
LINE
  5
2E2
330
1E
100
AcDbEntity
  8
0
  6
Continuous
100
AcDbLine
 10
368.4149709563058
 20
217.7592707294565
 30
0.0
 11
368.4149709563058
 21
215.971139316866
 31
0.0
  0
LINE
  5
2E3
330
1E
100
AcDbEntity
  8
0
  6
Continuous
100
AcDbLine
 10
363.0154515528634
 20
215.7463895071904
 30
0.0
 11
365.8915622527626
 21
218.574948087499
 31
0.0
  0
ARC
  5
2E4
330
1E
100
AcDbEntity
  8
0
  6
HIDDEN
100
AcDbCircle
 10
367.3261750121777
 20
220.8425363760453
 30
0.0
 40
4.998195985283786
100
AcDbArc
 50
206.402921519098
 51
282.2111496748031
  0
LINE
  5
2E5
330
1E
100
AcDbEntity
  8
0
  6
Continuous
100
AcDbLine
 10
365.46085879381
 20
219.1121549496507
 30
0.0
 11
366.3615355656205
 21
217.9884059012722
 31
0.0
  0
LINE
  5
2E6
330
1E
100
AcDbEntity
  8
0
  6
Continuous
100
AcDbLine
 10
360.6002754361849
 20
217.7592707294565
 30
0.0
 11
360.6002754361849
 21
215.971139316866
 31
0.0
  0
LINE
  5
2E7
330
1E
100
AcDbEntity
  8
BASE
  6
Continuous
100
AcDbLine
 10
186.7413011359599
 20
168.2104743501193
 30
0.0
 11
186.7413011359599
 21
166.4223429375288
 31
0.0
  0
LINE
  5
2E8
330
1E
100
AcDbEntity
  8
BASE
  6
Continuous
100
AcDbLine
 10
183.7871889734642
 20
169.5633585703135
 30
0.0
 11
184.6878657452747
 21
168.439609521935
 31
0.0
  0
LINE
  5
2E9
330
1E
100
AcDbEntity
  8
BASE
  6
Continuous
100
AcDbLine
 10
181.3417817325175
 20
166.1975931278532
 30
0.0
 11
184.2178924324167
 21
169.0261517081618
 31
0.0
  0
LINE
  5
2EA
330
1E
100
AcDbEntity
  8
BASE
  6
Continuous
100
AcDbLine
 10
178.9576373365485
 20
167.3651957976317
 30
0.0
 11
186.7458423633808
 21
167.3651957976317
 31
0.0
  0
LINE
  5
2EB
330
1E
100
AcDbEntity
  8
BASE
  6
Continuous
100
AcDbLine
 10
178.926605615839
 20
168.2104743501193
 30
0.0
 11
178.926605615839
 21
166.4223429375288
 31
0.0
  0
LINE
  5
2EC
330
1E
100
AcDbEntity
  8
BASE
  6
Continuous
100
AcDbLine
 10
167.5
 20
185.0
 30
0.0
 11
197.9506146522573
 21
185.0
 31
0.0
  0
TEXT
  5
2ED
330
1E
100
AcDbEntity
  8
BASE
  6
DASHED
100
AcDbText
 10
168.7980482582592
 20
177.9756225491767
 30
0.0
 40
2.5
  1
U
100
AcDbText
  0
TEXT
  5
2EE
330
1E
100
AcDbEntity
  8
BASE
  6
DASHED
100
AcDbText
 10
168.7980482582592
 20
181.4642073067541
 30
0.0
 40
2.5
  1
U
100
AcDbText
  0
LINE
  5
2EF
330
1E
100
AcDbEntity
  8
BASE
  6
Continuous
100
AcDbLine
 10
174.1935045557799
 20
182.6465126385262
 30
0.0
 11
171.8477390435542
 21
181.4565934897818
 31
0.0
  0
LINE
  5
2F0
330
1E
100
AcDbEntity
  8
BASE
  6
Continuous
100
AcDbLine
 10
171.8477390435542
 20
183.981866349895
 30
0.0
 11
174.1935045557799
 21
182.6465126385262
 31
0.0
  0
LINE
  5
2F1
330
1E
100
AcDbEntity
  8
BASE
  6
Continuous
100
AcDbLine
 10
174.1935045557799
 20
179.1089733725437
 30
0.0
 11
171.8477390435542
 21
177.9190542237993
 31
0.0
  0
LINE
  5
2F2
330
1E
100
AcDbEntity
  8
BASE
  6
Continuous
100
AcDbLine
 10
171.8477390435542
 20
180.4443270839124
 30
0.0
 11
174.1935045557799
 21
179.1089733725437
 31
0.0
  0
LINE
  5
2F3
330
1E
100
AcDbEntity
  8
BASE
  6
Continuous
100
AcDbLine
 10
178.926605615839
 20
179.9696559356969
 30
0.0
 11
178.926605615839
 21
178.1815245231064
 31
0.0
  0
LINE
  5
2F4
330
1E
100
AcDbEntity
  8
BASE
  6
Continuous
100
AcDbLine
 10
178.9576373365485
 20
179.1243773832093
 30
0.0
 11
186.7458423633808
 21
179.1243773832093
 31
0.0
  0
LINE
  5
2F5
330
1E
100
AcDbEntity
  8
BASE
  6
Continuous
100
AcDbLine
 10
181.3417817325175
 20
177.9567747134307
 30
0.0
 11
184.2178924324167
 21
180.7853332937394
 31
0.0
  0
LINE
  5
2F6
330
1E
100
AcDbEntity
  8
BASE
  6
Continuous
100
AcDbLine
 10
183.7871889734642
 20
181.322540155891
 30
0.0
 11
184.6878657452747
 21
180.1987911075126
 31
0.0
  0
LINE
  5
2F7
330
1E
100
AcDbEntity
  8
BASE
  6
Continuous
100
AcDbLine
 10
186.7413011359599
 20
179.9696559356969
 30
0.0
 11
186.7413011359599
 21
178.1815245231064
 31
0.0
  0
ARC
  5
2F8
330
1E
100
AcDbEntity
  8
BASE
  6
HIDDEN
100
AcDbCircle
 10
185.6525051918318
 20
183.0529215822856
 30
0.0
 40
4.998195985283786
100
AcDbArc
 50
206.402921519098
 51
282.2111496748031
  0
LINE
  5
2F9
330
1E
100
AcDbEntity
  8
BASE
  6
Continuous
100
AcDbLine
 10
167.5
 20
172.5
 30
0.0
 11
187.5
 21
172.5
 31
0.0
  0
LINE
  5
2FA
330
1E
100
AcDbEntity
  8
BASE
  6
Continuous
100
AcDbLine
 10
174.2058734990909
 20
173.6702319707881
 30
0.0
 11
171.8601079868653
 21
175.0055856821568
 31
0.0
  0
LINE
  5
2FB
330
1E
100
AcDbEntity
  8
BASE
  6
Continuous
100
AcDbLine
 10
171.8601079868653
 20
175.0055856821568
 30
0.0
 11
174.2058734990909
 21
176.1955048309013
 31
0.0
  0
TEXT
  5
2FC
330
1E
100
AcDbEntity
  8
BASE
  6
DASHED
100
AcDbText
 10
168.7980482582592
 20
173.6356610467451
 30
0.0
 40
2.5
  1
U
100
AcDbText
  0
LINE
  5
2FD
330
1E
100
AcDbEntity
  8
BASE
  6
Continuous
100
AcDbLine
 10
174.2058734990909
 20
166.0326060379422
 30
0.0
 11
171.8601079868653
 21
167.367959749311
 31
0.0
  0
LINE
  5
2FE
330
1E
100
AcDbEntity
  8
BASE
  6
Continuous
100
AcDbLine
 10
171.8601079868653
 20
167.367959749311
 30
0.0
 11
174.2058734990909
 21
168.5578788980554
 31
0.0
  0
TEXT
  5
2FF
330
1E
100
AcDbEntity
  8
BASE
  6
DASHED
100
AcDbText
 10
168.7980482582592
 20
165.9980351138992
 30
0.0
 40
2.5
  1
U
100
AcDbText
  0
TEXT
  5
300
330
1E
100
AcDbEntity
  8
BASE
  6
DASHED
100
AcDbText
 10
191.2867476891661
 20
172.8794949751334
 30
0.0
 40
2.5
  1
U
100
AcDbText
  0
LINE
  5
301
330
1E
100
AcDbEntity
  8
BASE
  6
Continuous
100
AcDbLine
 10
196.8099818032572
 20
171.8891022165646
 30
0.0
 11
194.4642162910315
 21
173.2244559279333
 31
0.0
  0
LINE
  5
302
330
1E
100
AcDbEntity
  8
BASE
  6
Continuous
100
AcDbLine
 10
194.4642162910315
 20
173.2244559279333
 30
0.0
 11
196.8099818032572
 21
174.4143750766778
 31
0.0
  0
LINE
  5
303
330
1E
100
AcDbEntity
  8
BASE
  6
Continuous
100
AcDbLine
 10
196.7976128599461
 20
175.4225924819299
 30
0.0
 11
194.4518473477204
 21
174.2326733331854
 31
0.0
  0
LINE
  5
304
330
1E
100
AcDbEntity
  8
BASE
  6
Continuous
100
AcDbLine
 10
194.4518473477204
 20
176.7579461932986
 30
0.0
 11
196.7976128599461
 21
175.4225924819299
 31
0.0
  0
LINE
  5
305
330
1E
100
AcDbEntity
  8
BASE
  6
Continuous
100
AcDbLine
 10
55.0
 20
130.0
 30
0.0
 11
70.0
 21
130.0
 31
0.0
  0
LINE
  5
306
330
1E
100
AcDbEntity
  8
BASE
  6
Continuous
100
AcDbLine
 10
55.0
 20
135.0
 30
0.0
 11
55.0
 21
130.0
 31
0.0
  0
LINE
  5
307
330
1E
100
AcDbEntity
  8
BASE
  6
Continuous
100
AcDbLine
 10
70.0
 20
135.0
 30
0.0
 11
70.0
 21
130.0
 31
0.0
  0
LINE
  5
308
330
1E
100
AcDbEntity
  8
BASE
  6
Continuous
100
AcDbLine
 10
70.0
 20
135.0
 30
0.0
 11
55.0
 21
135.0
 31
0.0
  0
LINE
  5
309
330
1E
100
AcDbEntity
  8
BASE
  6
Continuous
100
AcDbLine
 10
62.5
 20
130.0
 30
0.0
 11
62.5
 21
127.5
 31
0.0
  0
LINE
  5
30A
330
1E
100
AcDbEntity
  8
BASE
  6
Continuous
100
AcDbLine
 10
62.5
 20
130.0
 30
0.0
 11
62.5
 21
127.5
 31
0.0
  0
LINE
  5
30B
330
1E
100
AcDbEntity
  8
BASE
  6
Continuous
100
AcDbLine
 10
61.7591341895
 20
132.7891950622866
 30
0.0
 11
59.41336867727438
 21
131.5992759135421
 31
0.0
  0
LINE
  5
30C
330
1E
100
AcDbEntity
  8
BASE
  6
Continuous
100
AcDbLine
 10
59.40532693325446
 20
130.7992621767828
 30
0.0
 11
61.78878736633504
 21
131.9874540179833
 31
0.0
  0
LINE
  5
30D
330
1E
100
AcDbEntity
  8
BASE
  6
Continuous
100
AcDbLine
 10
59.41336867727438
 20
134.1245487736553
 30
0.0
 11
61.7591341895
 21
132.7891950622866
 31
0.0
  0
TEXT
  5
30E
330
1E
100
AcDbEntity
  8
BASE
  6
Continuous
100
AcDbText
 10
63.84723046763196
 20
131.4644551552293
 30
0.0
 40
2.5
  1
1
 11
63.84723046763196
 21
130.631121821896
 31
0.0
100
AcDbText
 73
     1
  0
LINE
  5
30F
330
1E
100
AcDbEntity
  8
BASE
  6
Continuous
100
AcDbLine
 10
57.5
 20
137.5
 30
0.0
 11
55.78591352215198
 21
142.5862972944675
 31
0.0
  0
LINE
  5
310
330
1E
100
AcDbEntity
  8
BASE
  6
Continuous
100
AcDbLine
 10
57.5
 20
135.0
 30
0.0
 11
57.5
 21
137.5
 31
0.0
  0
LINE
  5
311
330
1E
100
AcDbEntity
  8
BASE
  6
Continuous
100
AcDbLine
 10
67.5
 20
135.0
 30
0.0
 11
67.5
 21
137.5
 31
0.0
  0
LINE
  5
312
330
1E
100
AcDbEntity
  8
BASE
  6
Continuous
100
AcDbLine
 10
67.5
 20
137.5
 30
0.0
 11
65.78591352215198
 21
142.5862972944675
 31
0.0
  0
LINE
  5
313
330
1E
100
AcDbEntity
  8
BASE
  6
Continuous
100
AcDbLine
 10
87.5
 20
137.5
 30
0.0
 11
85.78591352215198
 21
142.5862972944675
 31
0.0
  0
LINE
  5
314
330
1E
100
AcDbEntity
  8
BASE
  6
Continuous
100
AcDbLine
 10
87.5
 20
135.0
 30
0.0
 11
87.5
 21
137.5
 31
0.0
  0
LINE
  5
315
330
1E
100
AcDbEntity
  8
BASE
  6
Continuous
100
AcDbLine
 10
77.5
 20
135.0
 30
0.0
 11
77.5
 21
137.5
 31
0.0
  0
LINE
  5
316
330
1E
100
AcDbEntity
  8
BASE
  6
Continuous
100
AcDbLine
 10
77.5
 20
137.5
 30
0.0
 11
75.78591352215198
 21
142.5862972944675
 31
0.0
  0
TEXT
  5
317
330
1E
100
AcDbEntity
  8
BASE
  6
Continuous
100
AcDbText
 10
83.97352210215023
 20
131.4644551552293
 30
0.0
 40
2.5
  1
1
 11
83.97352210215023
 21
130.631121821896
 31
0.0
100
AcDbText
 73
     1
  0
LINE
  5
318
330
1E
100
AcDbEntity
  8
BASE
  6
Continuous
100
AcDbLine
 10
79.53966031179266
 20
134.1245487736553
 30
0.0
 11
81.88542582401828
 21
132.7891950622866
 31
0.0
  0
LINE
  5
319
330
1E
100
AcDbEntity
  8
BASE
  6
Continuous
100
AcDbLine
 10
79.53161856777274
 20
130.7992621767828
 30
0.0
 11
81.91507900085332
 21
131.9874540179833
 31
0.0
  0
LINE
  5
31A
330
1E
100
AcDbEntity
  8
BASE
  6
Continuous
100
AcDbLine
 10
81.88542582401828
 20
132.7891950622866
 30
0.0
 11
79.53966031179266
 21
131.5992759135421
 31
0.0
  0
LINE
  5
31B
330
1E
100
AcDbEntity
  8
BASE
  6
Continuous
100
AcDbLine
 10
90.0
 20
135.0
 30
0.0
 11
75.0
 21
135.0
 31
0.0
  0
LINE
  5
31C
330
1E
100
AcDbEntity
  8
BASE
  6
Continuous
100
AcDbLine
 10
90.0
 20
135.0
 30
0.0
 11
90.0
 21
130.0
 31
0.0
  0
LINE
  5
31D
330
1E
100
AcDbEntity
  8
BASE
  6
Continuous
100
AcDbLine
 10
75.0
 20
135.0
 30
0.0
 11
75.0
 21
130.0
 31
0.0
  0
LINE
  5
31E
330
1E
100
AcDbEntity
  8
BASE
  6
Continuous
100
AcDbLine
 10
75.0
 20
130.0
 30
0.0
 11
90.0
 21
130.0
 31
0.0
  0
LINE
  5
31F
330
1E
100
AcDbEntity
  8
BASE
  6
Continuous
100
AcDbLine
 10
95.0
 20
130.0
 30
0.0
 11
105.0
 21
130.0
 31
0.0
  0
LINE
  5
320
330
1E
100
AcDbEntity
  8
BASE
  6
Continuous
100
AcDbLine
 10
95.0
 20
135.0
 30
0.0
 11
95.0
 21
130.0
 31
0.0
  0
LINE
  5
321
330
1E
100
AcDbEntity
  8
BASE
  6
Continuous
100
AcDbLine
 10
105.0
 20
135.0
 30
0.0
 11
105.0
 21
130.0
 31
0.0
  0
LINE
  5
322
330
1E
100
AcDbEntity
  8
BASE
  6
Continuous
100
AcDbLine
 10
105.0
 20
135.0
 30
0.0
 11
95.0
 21
135.0
 31
0.0
  0
LINE
  5
323
330
1E
100
AcDbEntity
  8
BASE
  6
Continuous
100
AcDbLine
 10
99.38542582401829
 20
132.7891950622866
 30
0.0
 11
97.03966031179266
 21
131.5992759135421
 31
0.0
  0
LINE
  5
324
330
1E
100
AcDbEntity
  8
BASE
  6
Continuous
100
AcDbLine
 10
97.03161856777274
 20
130.7992621767828
 30
0.0
 11
99.41507900085333
 21
131.9874540179833
 31
0.0
  0
LINE
  5
325
330
1E
100
AcDbEntity
  8
BASE
  6
Continuous
100
AcDbLine
 10
97.03966031179266
 20
134.1245487736553
 30
0.0
 11
99.38542582401829
 21
132.7891950622866
 31
0.0
  0
TEXT
  5
326
330
1E
100
AcDbEntity
  8
BASE
  6
Continuous
100
AcDbText
 10
101.4735221021502
 20
131.4644551552293
 30
0.0
 40
2.5
  1
1
 11
101.4735221021502
 21
130.631121821896
 31
0.0
100
AcDbText
 73
     1
  0
LINE
  5
327
330
1E
100
AcDbEntity
  8
BASE
  6
Continuous
100
AcDbLine
 10
97.5
 20
135.0
 30
0.0
 11
97.5
 21
179.0928530701663
 31
0.0
  0
LINE
  5
328
330
1E
100
AcDbEntity
  8
BASE
  6
Continuous
100
AcDbLine
 10
115.0
 20
135.0
 30
0.0
 11
115.0
 21
167.3471113574593
 31
0.0
  0
TEXT
  5
329
330
1E
100
AcDbEntity
  8
BASE
  6
Continuous
100
AcDbText
 10
118.9735221021502
 20
131.4644551552293
 30
0.0
 40
2.5
  1
1
 11
118.9735221021502
 21
130.631121821896
 31
0.0
100
AcDbText
 73
     1
  0
LINE
  5
32A
330
1E
100
AcDbEntity
  8
BASE
  6
Continuous
100
AcDbLine
 10
114.5396603117926
 20
134.1245487736553
 30
0.0
 11
116.8854258240182
 21
132.7891950622866
 31
0.0
  0
LINE
  5
32B
330
1E
100
AcDbEntity
  8
BASE
  6
Continuous
100
AcDbLine
 10
114.5316185677727
 20
130.7992621767828
 30
0.0
 11
116.9150790008533
 21
131.9874540179833
 31
0.0
  0
LINE
  5
32C
330
1E
100
AcDbEntity
  8
BASE
  6
Continuous
100
AcDbLine
 10
116.8854258240182
 20
132.7891950622866
 30
0.0
 11
114.5396603117926
 21
131.5992759135421
 31
0.0
  0
LINE
  5
32D
330
1E
100
AcDbEntity
  8
BASE
  6
Continuous
100
AcDbLine
 10
122.5
 20
135.0
 30
0.0
 11
112.5
 21
135.0
 31
0.0
  0
LINE
  5
32E
330
1E
100
AcDbEntity
  8
BASE
  6
Continuous
100
AcDbLine
 10
122.5
 20
135.0
 30
0.0
 11
122.5
 21
130.0
 31
0.0
  0
LINE
  5
32F
330
1E
100
AcDbEntity
  8
BASE
  6
Continuous
100
AcDbLine
 10
112.5
 20
135.0
 30
0.0
 11
112.5
 21
130.0
 31
0.0
  0
LINE
  5
330
330
1E
100
AcDbEntity
  8
BASE
  6
Continuous
100
AcDbLine
 10
112.5
 20
130.0
 30
0.0
 11
122.5
 21
130.0
 31
0.0
  0
LINE
  5
331
330
1E
100
AcDbEntity
  8
BASE
  6
Continuous
100
AcDbLine
 10
120.0
 20
135.0
 30
0.0
 11
120.0
 21
137.5
 31
0.0
  0
LINE
  5
332
330
1E
100
AcDbEntity
  8
BASE
  6
Continuous
100
AcDbLine
 10
120.0
 20
137.5
 30
0.0
 11
118.2859135221519
 21
142.5862972944675
 31
0.0
  0
LINE
  5
333
330
1E
100
AcDbEntity
  8
BASE
  6
Continuous
100
AcDbLine
 10
102.4999999999999
 20
137.5
 30
0.0
 11
100.7859135221519
 21
142.5862972944675
 31
0.0
  0
LINE
  5
334
330
1E
100
AcDbEntity
  8
BASE
  6
Continuous
100
AcDbLine
 10
102.4999999999999
 20
135.0
 30
0.0
 11
102.4999999999999
 21
137.5
 31
0.0
  0
LINE
  5
335
330
1E
100
AcDbEntity
  8
BASE
  6
Continuous
100
AcDbLine
 10
167.5
 20
167.3471113574594
 30
0.0
 11
67.5
 21
167.3471113574593
 31
0.0
  0
LINE
  5
336
330
1E
100
AcDbEntity
  8
BASE
  6
Continuous
100
AcDbLine
 10
167.5
 20
175.0
 30
0.0
 11
120.0
 21
175.0
 31
0.0
  0
LINE
  5
337
330
1E
100
AcDbEntity
  8
BASE
  6
Continuous
100
AcDbLine
 10
167.5
 20
179.0928530701668
 30
0.0
 11
57.5
 21
179.0928530701661
 31
0.0
  0
LINE
  5
338
330
1E
100
AcDbEntity
  8
BASE
  6
Continuous
100
AcDbLine
 10
167.5
 20
182.6303923361493
 30
0.0
 11
102.4999999999999
 21
182.6303923361489
 31
0.0
  0
LINE
  5
339
330
1E
100
AcDbEntity
  8
BASE
  6
Continuous
100
AcDbLine
 10
57.5
 20
179.0928530701661
 30
0.0
 11
57.5
 21
142.5
 31
0.0
  0
LINE
  5
33A
330
1E
100
AcDbEntity
  8
BASE
  6
Continuous
100
AcDbLine
 10
67.5
 20
167.3471113574593
 30
0.0
 11
67.5
 21
142.5
 31
0.0
  0
LINE
  5
33B
330
1E
100
AcDbEntity
  8
BASE
  6
Continuous
100
AcDbLine
 10
77.5
 20
179.0928530701662
 30
0.0
 11
77.5
 21
142.5
 31
0.0
  0
LINE
  5
33C
330
1E
100
AcDbEntity
  8
BASE
  6
Continuous
100
AcDbLine
 10
87.5
 20
167.3471113574593
 30
0.0
 11
87.5
 21
142.5
 31
0.0
  0
LINE
  5
33D
330
1E
100
AcDbEntity
  8
BASE
  6
Continuous
100
AcDbLine
 10
102.4999999999999
 20
182.6303923361489
 30
0.0
 11
102.4999999999999
 21
142.5
 31
0.0
  0
LINE
  5
33E
330
1E
100
AcDbEntity
  8
BASE
  6
Continuous
100
AcDbLine
 10
120.0
 20
175.0
 30
0.0
 11
120.0
 21
142.5
 31
0.0
  0
TEXT
  5
33F
330
1E
100
AcDbEntity
  8
BASE
  6
Continuous
100
AcDbText
 10
58.19993964623177
 20
140.0
 30
0.0
 40
2.0
  1
1
  7
ROMANS
100
AcDbText
  0
TEXT
  5
340
330
1E
100
AcDbEntity
  8
BASE
  6
Continuous
100
AcDbText
 10
68.19993964623177
 20
140.0
 30
0.0
 40
2.0
  1
2
  7
ROMANS
100
AcDbText
  0
TEXT
  5
341
330
1E
100
AcDbEntity
  8
BASE
  6
Continuous
100
AcDbText
 10
78.19993964623177
 20
140.0
 30
0.0
 40
2.0
  1
5
  7
ROMANS
100
AcDbText
  0
TEXT
  5
342
330
1E
100
AcDbEntity
  8
BASE
  6
Continuous
100
AcDbText
 10
88.19993964623177
 20
140.0
 30
0.0
 40
2.0
  1
6
  7
ROMANS
100
AcDbText
  0
TEXT
  5
343
330
1E
100
AcDbEntity
  8
BASE
  6
Continuous
100
AcDbText
 10
103.1999396462317
 20
140.0
 30
0.0
 40
2.0
  1
7
  7
ROMANS
100
AcDbText
  0
TEXT
  5
344
330
1E
100
AcDbEntity
  8
BASE
  6
Continuous
100
AcDbText
 10
120.6999396462317
 20
140.0
 30
0.0
 40
2.0
  1
8
  7
ROMANS
100
AcDbText
  0
INSERT
  5
345
330
1E
100
AcDbEntity
  8
BASE
  6
Continuous
100
AcDbBlockReference
  2
BLC29
 10
162.9333157969969
 20
167.2186413350302
 30
0.0
 50
180.0
  0
INSERT
  5
346
330
1E
100
AcDbEntity
  8
BASE
  6
Continuous
100
AcDbBlockReference
  2
BLC29
 10
162.9333157969969
 20
182.5019157965043
 30
0.0
 50
180.0
  0
LINE
  5
347
330
1E
100
AcDbEntity
  8
BASE
  6
Continuous
100
AcDbLine
 10
154.9999999999999
 20
130.0
 30
0.0
 11
155.0
 21
202.4999999999987
 31
0.0
  0
LINE
  5
348
330
1E
100
AcDbEntity
  8
BASE
  6
Continuous
100
AcDbLine
 10
165.5000930322236
 20
170.7839962995324
 30
0.0
 11
155.0
 21
170.7839962995324
 31
0.0
  0
LINE
  5
349
330
1E
100
AcDbEntity
  8
BASE
  6
Continuous
100
AcDbLine
 10
80.0
 20
102.4999999999999
 30
0.0
 11
80.0
 21
105.0
 31
0.0
  0
LINE
  5
34A
330
1E
100
AcDbEntity
  8
BASE
  6
Continuous
100
AcDbLine
 10
80.0
 20
102.4999999999999
 30
0.0
 11
37.5
 21
102.4999999999999
 31
0.0
  0
LINE
  5
34B
330
1E
100
AcDbEntity
  8
BASE
  6
Continuous
100
AcDbLine
 10
84.99999999999998
 20
107.4999999999999
 30
0.0
 11
79.25607594821684
 21
104.2852966948171
 31
0.0
  0
LINE
  5
34C
330
1E
100
AcDbEntity
  8
BASE
  6
Continuous
100
AcDbLine
 10
55.0
 20
107.4999999999999
 30
0.0
 11
80.0
 21
107.4999999999999
 31
0.0
  0
LINE
  5
34D
330
1E
100
AcDbEntity
  8
BASE
  6
Continuous
100
AcDbLine
 10
84.99999999999998
 20
107.4999999999999
 30
0.0
 11
90.0
 21
107.4999999999999
 31
0.0
  0
LINE
  5
34E
330
1E
100
AcDbEntity
  8
BASE
  6
Continuous
100
AcDbLine
 10
97.5
 20
92.5
 30
0.0
 11
97.5
 21
95.0
 31
0.0
  0
LINE
  5
34F
330
1E
100
AcDbEntity
  8
BASE
  6
Continuous
100
AcDbLine
 10
97.5
 20
92.5
 30
0.0
 11
37.5
 21
92.5
 31
0.0
  0
LINE
  5
350
330
1E
100
AcDbEntity
  8
BASE
  6
Continuous
100
AcDbLine
 10
102.4999999999999
 20
97.5
 30
0.0
 11
96.75607594821684
 21
94.28529669481719
 31
0.0
  0
LINE
  5
351
330
1E
100
AcDbEntity
  8
BASE
  6
Continuous
100
AcDbLine
 10
37.5
 20
97.5
 30
0.0
 11
97.5
 21
97.5
 31
0.0
  0
LINE
  5
352
330
1E
100
AcDbEntity
  8
BASE
  6
Continuous
100
AcDbLine
 10
102.4999999999999
 20
97.5
 30
0.0
 11
107.4999999999999
 21
97.5
 31
0.0
  0
LINE
  5
353
330
1E
100
AcDbEntity
  8
BASE
  6
Continuous
100
AcDbLine
 10
115.0
 20
82.5
 30
0.0
 11
115.0
 21
85.0
 31
0.0
  0
LINE
  5
354
330
1E
100
AcDbEntity
  8
BASE
  6
Continuous
100
AcDbLine
 10
115.0
 20
82.5
 30
0.0
 11
110.0
 21
82.5
 31
0.0
  0
LINE
  5
355
330
1E
100
AcDbEntity
  8
BASE
  6
Continuous
100
AcDbLine
 10
119.9999999999999
 20
87.5
 30
0.0
 11
114.2560759482168
 21
84.28529669481719
 31
0.0
  0
LINE
  5
356
330
1E
100
AcDbEntity
  8
BASE
  6
Continuous
100
AcDbLine
 10
110.0
 20
87.5
 30
0.0
 11
115.0
 21
87.5
 31
0.0
  0
LINE
  5
357
330
1E
100
AcDbEntity
  8
BASE
  6
Continuous
100
AcDbLine
 10
119.9999999999999
 20
87.5
 30
0.0
 11
125.0
 21
87.5
 31
0.0
  0
LINE
  5
358
330
1E
100
AcDbEntity
  8
BASE
  6
Continuous
100
AcDbLine
 10
142.5
 20
62.5
 30
0.0
 11
142.5
 21
65.0
 31
0.0
  0
LINE
  5
359
330
1E
100
AcDbEntity
  8
BASE
  6
Continuous
100
AcDbLine
 10
142.5
 20
62.5
 30
0.0
 11
137.5
 21
62.5
 31
0.0
  0
LINE
  5
35A
330
1E
100
AcDbEntity
  8
BASE
  6
Continuous
100
AcDbLine
 10
147.4999999999999
 20
67.5
 30
0.0
 11
141.7560759482168
 21
64.28529669481719
 31
0.0
  0
LINE
  5
35B
330
1E
100
AcDbEntity
  8
BASE
  6
Continuous
100
AcDbLine
 10
137.5
 20
67.5
 30
0.0
 11
142.5
 21
67.5
 31
0.0
  0
LINE
  5
35C
330
1E
100
AcDbEntity
  8
BASE
  6
Continuous
100
AcDbLine
 10
147.4999999999999
 20
67.5
 30
0.0
 11
152.5
 21
67.5
 31
0.0
  0
LINE
  5
35D
330
1E
100
AcDbEntity
  8
BASE
  6
Continuous
100
AcDbLine
 10
167.5079302691904
 20
97.5
 30
0.0
 11
107.4999999999999
 21
97.5
 31
0.0
  0
LINE
  5
35E
330
1E
100
AcDbEntity
  8
BASE
  6
Continuous
100
AcDbLine
 10
172.5
 20
107.4999999999999
 30
0.0
 11
90.0
 21
107.4999999999999
 31
0.0
  0
LINE
  5
35F
330
1E
100
AcDbEntity
  8
BASE
  6
Continuous
100
AcDbLine
 10
197.9506146543173
 20
157.5
 30
0.0
 11
202.4999999999999
 21
157.5
 31
0.0
  0
LINE
  5
360
330
1E
100
AcDbEntity
  8
BASE
  6
Continuous
100
AcDbLine
 10
202.4999999999999
 20
157.5
 30
0.0
 11
202.4999999999999
 21
175.0
 31
0.0
  0
LINE
  5
361
330
1E
100
AcDbEntity
  8
BASE
  6
Continuous
100
AcDbLine
 10
197.9506146543173
 20
175.0
 30
0.0
 11
202.4999999999999
 21
175.0
 31
0.0
  0
LINE
  5
362
330
1E
100
AcDbEntity
  8
0
  6
DASHED
100
AcDbLine
 10
245.0
 20
172.4999999999999
 30
0.0
 11
230.0
 21
172.5
 31
0.0
  0
LINE
  5
363
330
1E
100
AcDbEntity
  8
0
  6
DASHED
100
AcDbLine
 10
230.0
 20
192.5
 30
0.0
 11
245.0
 21
192.5
 31
0.0
  0
LINE
  5
364
330
1E
100
AcDbEntity
  8
0
  6
Continuous
100
AcDbLine
 10
366.9793946759868
 20
223.5731882892755
 30
0.0
 11
369.3251601882124
 21
222.2378345779068
 31
0.0
  0
LINE
  5
365
330
1E
100
AcDbEntity
  8
0
  6
Continuous
100
AcDbLine
 10
369.3251601882124
 20
222.2378345779068
 30
0.0
 11
366.9793946759868
 21
221.0479154291623
 31
0.0
  0
TEXT
  5
366
330
1E
100
AcDbEntity
  8
0
  6
DASHED
100
AcDbText
 10
363.9297038906919
 20
221.0555292461346
 30
0.0
 40
2.5
  1
U
100
AcDbText
  0
TEXT
  5
367
330
1E
100
AcDbEntity
  8
0
  6
DASHED
100
AcDbText
 10
363.9601360492236
 20
210.7799520510298
 30
0.0
 40
2.5
  1
U
100
AcDbText
  0
LINE
  5
368
330
1E
100
AcDbEntity
  8
0
  6
Continuous
100
AcDbLine
 10
367.0221957778297
 20
212.1498766864416
 30
0.0
 11
369.3679612900553
 21
213.339795835186
 31
0.0
  0
LINE
  5
369
330
1E
100
AcDbEntity
  8
0
  6
Continuous
100
AcDbLine
 10
369.3679612900553
 20
210.8145229750729
 30
0.0
 11
367.0221957778297
 21
212.1498766864416
 31
0.0
  0
LINE
  5
36A
330
1E
100
AcDbEntity
  8
0
  6
Continuous
100
AcDbLine
 10
360.6002754361849
 20
207.9180789396671
 30
0.0
 11
360.6002754361849
 21
206.1299475270766
 31
0.0
  0
LINE
  5
36B
330
1E
100
AcDbEntity
  8
0
  6
Continuous
100
AcDbLine
 10
365.46085879381
 20
209.2709631598613
 30
0.0
 11
366.3615355656205
 21
208.1472141114828
 31
0.0
  0
LINE
  5
36C
330
1E
100
AcDbEntity
  8
0
  6
Continuous
100
AcDbLine
 10
363.0154515528634
 20
205.9051977174009
 30
0.0
 11
365.8915622527626
 21
208.7337562977096
 31
0.0
  0
LINE
  5
36D
330
1E
100
AcDbEntity
  8
0
  6
Continuous
100
AcDbLine
 10
368.4149709563058
 20
207.9180789396671
 30
0.0
 11
368.4149709563058
 21
206.1299475270766
 31
0.0
  0
LINE
  5
36E
330
1E
100
AcDbEntity
  8
0
  6
Continuous
100
AcDbLine
 10
360.6313071568943
 20
207.0728003871795
 30
0.0
 11
368.4195121837266
 21
207.0728003871795
 31
0.0
  0
TEXT
  5
36F
330
1E
100
AcDbEntity
  8
0
  6
Continuous
100
AcDbText
 10
318.5410113921566
 20
77.8041692343054
 30
0.0
 40
2.0
  1
NOTE. ONLY CONTACT (A) IS CAPABLE OF
  7
ROMANS
100
AcDbText
  0
TEXT
  5
370
330
1E
100
AcDbEntity
  8
0
  6
Continuous
100
AcDbText
 10
319.2105188798565
 20
74.47083590097207
 30
0.0
 40
2.0
  1
     CONTROLLING DIRECTLY THE 
  7
ROMANS
100
AcDbText
  0
TEXT
  5
371
330
1E
100
AcDbEntity
  8
0
  6
Continuous
100
AcDbText
 10
319.2105188798565
 20
71.13750256763873
 30
0.0
 40
2.0
  1
     BREAKER TRIP COIL
  7
ROMANS
100
AcDbText
  0
TEXT
  5
372
330
1E
100
AcDbEntity
  8
0
  6
Continuous
100
AcDbText
 10
318.5410113921566
 20
60.47562215680263
 30
0.0
 40
2.0
  1
OBS.  ENDAST KONTAKT (A) ŽR DIMENSIO-
  7
ROMANS
100
AcDbText
  0
TEXT
  5
373
330
1E
100
AcDbEntity
  8
0
  6
Continuous
100
AcDbText
 10
319.2105188798565
 20
57.1422888234693
 30
0.0
 40
2.0
  1
     NERAD F™R DIREKT ANSLUTNING TILL
  7
ROMANS
100
AcDbText
  0
TEXT
  5
374
330
1E
100
AcDbEntity
  8
0
  6
Continuous
100
AcDbText
 10
319.2105188798565
 20
53.80895549013597
 30
0.0
 40
2.0
  1
     UTL™SNINGSKRETSEN
  7
ROMANS
100
AcDbText
  0
LINE
  5
375
330
1E
100
AcDbEntity
  8
PAKSU
100
AcDbLine
 10
0.2370990874900258
 20
0.2379992524221779
 30
0.0
 11
0.2370990874900258
 21
262.7379992524221
 31
0.0
  0
LINE
  5
376
330
1E
100
AcDbEntity
  8
PAKSU
100
AcDbLine
 10
392.23709908749
 20
262.7379992524221
 30
0.0
 11
392.23709908749
 21
0.2379992524221779
 31
0.0
  0
LINE
  5
377
330
1E
100
AcDbEntity
  8
PAKSU
100
AcDbLine
 10
0.2370990874900258
 20
0.2379992524221779
 30
0.0
 11
392.23709908749
 21
0.2379992524221779
 31
0.0
  0
TEXT
  5
378
330
1E
100
AcDbEntity
  8
RAAMI
100
AcDbText
 10
42.23709908749002
 20
5.598528822849904
 30
0.0
 40
2.5
  1
C
  7
ROMANS
100
AcDbText
  0
TEXT
  5
379
330
1E
100
AcDbEntity
  8
RAAMI
100
AcDbText
 10
42.23709908749002
 20
1.184271693018649
 30
0.0
 40
2.5
  1
B
  7
ROMANS
100
AcDbText
  0
TEXT
  5
37A
330
1E
100
AcDbEntity
  8
RAAMI
100
AcDbText
 10
257.4070059842234
 20
1.741782898647898
 30
0.0
 40
3.0
  1
Power
 41
0.8
  7
ROMANS
100
AcDbText
  0
TEXT
  5
37B
330
1E
100
AcDbEntity
  8
RAAMI
100
AcDbText
 10
273.23709908749
 20
7.237999252422177
 30
0.0
 40
1.399999999999999
  1
VAST.OSASTO RESP.DEPT.
  7
ROMANS
100
AcDbText
  0
TEXT
  5
37C
330
1E
100
AcDbEntity
  8
RAAMI
100
AcDbText
 10
210.23709908749
 20
32.23799925242218
 30
0.0
 40
1.399999999999999
  1
TEKI  PREPARED
  7
ROMANS
100
AcDbText
  0
LINE
  5
37D
330
1E
100
AcDbEntity
  8
OHUT
100
AcDbLine
 10
271.23709908749
 20
9.737999252422177
 30
0.0
 11
271.23709908749
 21
0.2379992524221779
 31
0.0
  0
LINE
  5
37E
330
1E
100
AcDbEntity
  8
OHUT
100
AcDbLine
 10
257.23709908749
 20
9.737999252422177
 30
0.0
 11
257.23709908749
 21
35.23799925242217
 31
0.0
  0
LINE
  5
37F
330
1E
100
AcDbEntity
  8
OHUT
100
AcDbLine
 10
40.73709908749002
 20
4.737999252422177
 30
0.0
 11
209.23709908749
 21
4.737999252422177
 31
0.0
  0
LINE
  5
380
330
1E
100
AcDbEntity
  8
OHUT
100
AcDbLine
 10
46.73709908749002
 20
0.2379992524221779
 30
0.0
 11
46.73709908749002
 21
9.237999252422177
 31
0.0
  0
LINE
  5
381
330
1E
100
AcDbEntity
  8
OHUT
100
AcDbLine
 10
46.73709908749002
 20
9.237999252422177
 30
0.0
 11
209.23709908749
 21
9.237999252422177
 31
0.0
  0
TEXT
  5
382
330
1E
100
AcDbEntity
  8
RAAMI
100
AcDbText
 10
27.73709908749002
 20
2.471332585755512
 30
0.0
 40
1.399999999999999
  1
REVISION
  7
ROMANS
100
AcDbText
  0
TEXT
  5
383
330
1E
100
AcDbEntity
  8
RAAMI
100
AcDbText
 10
27.73709908749002
 20
4.737999252422177
 30
0.0
 40
1.399999999999999
  1
MUUTOS
  7
ROMANS
100
AcDbText
  0
LINE
  5
384
330
1E
100
AcDbEntity
  8
OHUT
100
AcDbLine
 10
282.23709908749
 20
9.737999252422177
 30
0.0
 11
282.23709908749
 21
18.23799925242217
 31
0.0
  0
TEXT
  5
385
330
1E
100
AcDbEntity
  8
RAAMI
100
AcDbText
 10
237.73709908749
 20
1.737999252422177
 30
0.0
 40
3.0
  1
Str”mberg
 41
0.8
  7
ROMANS
100
AcDbText
  0
TEXT
  5
386
330
1E
100
AcDbEntity
  8
RAAMI
100
AcDbText
 10
229.73709908749
 20
1.737999252422177
 30
0.0
 40
3.0
  1
ABB 
 41
0.8
  7
ROMANS
100
AcDbText
  0
LINE
  5
387
330
1E
100
AcDbEntity
  8
RAAMI
100
AcDbLine
 10
223.13709908749
 20
1.737999252422177
 30
0.0
 11
223.13709908749
 21
5.097999252422177
 31
0.0
  0
LINE
  5
388
330
1E
100
AcDbEntity
  8
RAAMI
100
AcDbLine
 10
223.13709908749
 20
8.737999252422177
 30
0.0
 11
225.09709908749
 21
8.737999252422177
 31
0.0
  0
LINE
  5
389
330
1E
100
AcDbEntity
  8
RAAMI
100
AcDbLine
 10
225.09709908749
 20
8.737999252422177
 30
0.0
 11
225.09709908749
 21
5.377999252422178
 31
0.0
  0
LINE
  5
38A
330
1E
100
AcDbEntity
  8
RAAMI
100
AcDbLine
 10
225.09709908749
 20
5.377999252422178
 30
0.0
 11
223.13709908749
 21
5.377999252422178
 31
0.0
  0
LINE
  5
38B
330
1E
100
AcDbEntity
  8
RAAMI
100
AcDbLine
 10
223.13709908749
 20
5.097999252422177
 30
0.0
 11
225.09709908749
 21
5.097999252422177
 31
0.0
  0
LINE
  5
38C
330
1E
100
AcDbEntity
  8
RAAMI
100
AcDbLine
 10
225.09709908749
 20
5.097999252422177
 30
0.0
 11
225.09709908749
 21
1.737999252422177
 31
0.0
  0
LINE
  5
38D
330
1E
100
AcDbEntity
  8
RAAMI
100
AcDbLine
 10
225.09709908749
 20
1.737999252422177
 30
0.0
 11
223.13709908749
 21
1.737999252422177
 31
0.0
  0
LINE
  5
38E
330
1E
100
AcDbEntity
  8
RAAMI
100
AcDbLine
 10
223.13709908749
 20
5.377999252422178
 30
0.0
 11
223.13709908749
 21
8.737999252422177
 31
0.0
  0
ARC
  5
38F
330
1E
100
AcDbEntity
  8
RAAMI
100
AcDbCircle
 10
225.93709908749
 20
7.162999252422174
 30
0.0
 40
1.574999999999998
100
AcDbArc
 50
298.4558593394117
 51
90.0524369955635
  0
LINE
  5
390
330
1E
100
AcDbEntity
  8
RAAMI
100
AcDbLine
 10
225.37709908749
 20
8.737999252422177
 30
0.0
 11
225.9356576504909
 21
8.737998592821838
 31
0.0
  0
LINE
  5
391
330
1E
100
AcDbEntity
  8
RAAMI
100
AcDbLine
 10
225.37709908749
 20
8.737999252422177
 30
0.0
 11
225.37709908749
 21
5.377999252422178
 31
0.0
  0
LINE
  5
392
330
1E
100
AcDbEntity
  8
RAAMI
100
AcDbLine
 10
225.37709908749
 20
5.377999252422178
 30
0.0
 11
227.3615418540271
 21
5.377999252422178
 31
0.0
  0
LINE
  5
393
330
1E
100
AcDbEntity
  8
RAAMI
100
AcDbLine
 10
227.61709908749
 20
5.097999252422177
 30
0.0
 11
225.37709908749
 21
5.097999252422177
 31
0.0
  0
LINE
  5
394
330
1E
100
AcDbEntity
  8
RAAMI
100
AcDbLine
 10
225.37709908749
 20
5.097999252422177
 30
0.0
 11
225.37709908749
 21
1.737999252422177
 31
0.0
  0
ARC
  5
395
330
1E
100
AcDbEntity
  8
RAAMI
100
AcDbCircle
 10
225.93709908749
 20
3.837999252422179
 30
0.0
 40
2.099999999999998
100
AcDbArc
 50
269.9377244294032
 51
37.05655321680703
  0
LINE
  5
396
330
1E
100
AcDbEntity
  8
RAAMI
100
AcDbLine
 10
225.37709908749
 20
1.737999252422177
 30
0.0
 11
225.9348165690634
 21
1.738000492872633
 31
0.0
  0
ARC
  5
397
330
1E
100
AcDbEntity
  8
RAAMI
100
AcDbCircle
 10
225.93709908749
 20
3.837999252422179
 30
0.0
 40
2.099999999999998
100
AcDbArc
 50
47.28621969132301
 51
68.78799932186918
  0
INSERT
  5
398
330
1E
100
AcDbEntity
  8
RAAMI
100
AcDbBlockReference
  2
*X12
 10
215.64709908749
 20
1.737999252422177
 30
0.0
 41
0.7
 42
0.7
 43
0.7
  0
INSERT
  5
399
330
1E
100
AcDbEntity
  8
RAAMI
100
AcDbBlockReference
  2
*X13
 10
215.64709908749
 20
1.737999252422177
 30
0.0
 41
0.7
 42
0.7
 43
0.7
  0
INSERT
  5
39A
330
1E
100
AcDbEntity
  8
RAAMI
100
AcDbBlockReference
  2
*X14
 10
215.64709908749
 20
1.737999252422177
 30
0.0
 41
0.7
 42
0.7
 43
0.7
  0
INSERT
  5
39B
330
1E
100
AcDbEntity
  8
RAAMI
100
AcDbBlockReference
  2
*X15
 10
215.64709908749
 20
1.737999252422177
 30
0.0
 41
0.7
 42
0.7
 43
0.7
  0
INSERT
  5
39C
330
1E
100
AcDbEntity
  8
RAAMI
100
AcDbBlockReference
  2
*X15
 10
210.18709908749
 20
1.737999252422177
 30
0.0
 41
0.7
 42
0.7
 43
0.7
  0
INSERT
  5
39D
330
1E
100
AcDbEntity
  8
RAAMI
100
AcDbBlockReference
  2
*X14
 10
210.18709908749
 20
1.737999252422177
 30
0.0
 41
0.7
 42
0.7
 43
0.7
  0
INSERT
  5
39E
330
1E
100
AcDbEntity
  8
RAAMI
100
AcDbBlockReference
  2
*X13
 10
210.18709908749
 20
1.737999252422177
 30
0.0
 41
0.7
 42
0.7
 43
0.7
  0
INSERT
  5
39F
330
1E
100
AcDbEntity
  8
RAAMI
100
AcDbBlockReference
  2
*X12
 10
210.18709908749
 20
1.737999252422177
 30
0.0
 41
0.7
 42
0.7
 43
0.7
  0
ARC
  5
3A0
330
1E
100
AcDbEntity
  8
RAAMI
100
AcDbCircle
 10
220.47709908749
 20
3.837999252422179
 30
0.0
 40
2.099999999999998
100
AcDbArc
 50
47.28621969132301
 51
68.78799932186918
  0
LINE
  5
3A1
330
1E
100
AcDbEntity
  8
RAAMI
100
AcDbLine
 10
219.91709908749
 20
1.737999252422177
 30
0.0
 11
220.4748165690634
 21
1.738000492872633
 31
0.0
  0
ARC
  5
3A2
330
1E
100
AcDbEntity
  8
RAAMI
100
AcDbCircle
 10
220.47709908749
 20
3.837999252422179
 30
0.0
 40
2.099999999999998
100
AcDbArc
 50
269.9377244294032
 51
37.05655321680703
  0
LINE
  5
3A3
330
1E
100
AcDbEntity
  8
RAAMI
100
AcDbLine
 10
219.91709908749
 20
5.097999252422177
 30
0.0
 11
219.91709908749
 21
1.737999252422177
 31
0.0
  0
LINE
  5
3A4
330
1E
100
AcDbEntity
  8
RAAMI
100
AcDbLine
 10
222.15709908749
 20
5.097999252422177
 30
0.0
 11
219.91709908749
 21
5.097999252422177
 31
0.0
  0
LINE
  5
3A5
330
1E
100
AcDbEntity
  8
RAAMI
100
AcDbLine
 10
219.91709908749
 20
5.377999252422178
 30
0.0
 11
221.9015418540271
 21
5.377999252422178
 31
0.0
  0
LINE
  5
3A6
330
1E
100
AcDbEntity
  8
RAAMI
100
AcDbLine
 10
219.91709908749
 20
8.737999252422177
 30
0.0
 11
219.91709908749
 21
5.377999252422178
 31
0.0
  0
LINE
  5
3A7
330
1E
100
AcDbEntity
  8
RAAMI
100
AcDbLine
 10
219.91709908749
 20
8.737999252422177
 30
0.0
 11
220.4756576504909
 21
8.737998592821838
 31
0.0
  0
ARC
  5
3A8
330
1E
100
AcDbEntity
  8
RAAMI
100
AcDbCircle
 10
220.47709908749
 20
7.162999252422174
 30
0.0
 40
1.574999999999998
100
AcDbArc
 50
298.4558593394117
 51
90.0524369955635
  0
LINE
  5
3A9
330
1E
100
AcDbEntity
  8
RAAMI
100
AcDbLine
 10
217.67709908749
 20
5.377999252422178
 30
0.0
 11
217.67709908749
 21
8.737999252422177
 31
0.0
  0
LINE
  5
3AA
330
1E
100
AcDbEntity
  8
RAAMI
100
AcDbLine
 10
219.63709908749
 20
1.737999252422177
 30
0.0
 11
217.67709908749
 21
1.737999252422177
 31
0.0
  0
LINE
  5
3AB
330
1E
100
AcDbEntity
  8
RAAMI
100
AcDbLine
 10
219.63709908749
 20
5.097999252422177
 30
0.0
 11
219.63709908749
 21
1.737999252422177
 31
0.0
  0
LINE
  5
3AC
330
1E
100
AcDbEntity
  8
RAAMI
100
AcDbLine
 10
217.67709908749
 20
5.097999252422177
 30
0.0
 11
219.63709908749
 21
5.097999252422177
 31
0.0
  0
LINE
  5
3AD
330
1E
100
AcDbEntity
  8
RAAMI
100
AcDbLine
 10
219.63709908749
 20
5.377999252422178
 30
0.0
 11
217.67709908749
 21
5.377999252422178
 31
0.0
  0
LINE
  5
3AE
330
1E
100
AcDbEntity
  8
RAAMI
100
AcDbLine
 10
219.63709908749
 20
8.737999252422177
 30
0.0
 11
219.63709908749
 21
5.377999252422178
 31
0.0
  0
LINE
  5
3AF
330
1E
100
AcDbEntity
  8
RAAMI
100
AcDbLine
 10
217.67709908749
 20
8.737999252422177
 30
0.0
 11
219.63709908749
 21
8.737999252422177
 31
0.0
  0
LINE
  5
3B0
330
1E
100
AcDbEntity
  8
RAAMI
100
AcDbLine
 10
217.67709908749
 20
1.737999252422177
 30
0.0
 11
217.67709908749
 21
5.097999252422177
 31
0.0
  0
INSERT
  5
3B1
330
1E
100
AcDbEntity
  8
RAAMI
100
AcDbBlockReference
  2
*X11
 10
210.18709908749
 20
1.737999252422177
 30
0.0
 41
0.7
 42
0.7
 43
0.7
  0
INSERT
  5
3B2
330
1E
100
AcDbEntity
  8
RAAMI
100
AcDbBlockReference
  2
*X10
 10
210.18709908749
 20
1.737999252422177
 30
0.0
 41
0.7
 42
0.7
 43
0.7
  0
INSERT
  5
3B3
330
1E
100
AcDbEntity
  8
RAAMI
100
AcDbBlockReference
  2
*X9
 10
210.18709908749
 20
1.737999252422177
 30
0.0
 41
0.7
 42
0.7
 43
0.7
  0
INSERT
  5
3B4
330
1E
100
AcDbEntity
  8
RAAMI
100
AcDbBlockReference
  2
*X8
 10
210.18709908749
 20
1.737999252422177
 30
0.0
 41
0.7
 42
0.7
 43
0.7
  0
LINE
  5
3B5
330
1E
100
AcDbEntity
  8
RAAMI
100
AcDbLine
 10
211.3569877289154
 20
5.080538227923291
 30
0.0
 11
210.18709908749
 21
1.737999252422177
 31
0.0
  0
LINE
  5
3B6
330
1E
100
AcDbEntity
  8
RAAMI
100
AcDbLine
 10
213.54709908749
 20
5.097999252422177
 30
0.0
 11
213.54709908749
 21
3.137999252422176
 31
0.0
  0
LINE
  5
3B7
330
1E
100
AcDbEntity
  8
RAAMI
100
AcDbLine
 10
213.82709908749
 20
5.097999252422177
 30
0.0
 11
213.82709908749
 21
3.137999252422176
 31
0.0
  0
LINE
  5
3B8
330
1E
100
AcDbEntity
  8
RAAMI
100
AcDbLine
 10
213.82709908749
 20
5.097999252422177
 30
0.0
 11
216.0103556182099
 21
5.097999252422177
 31
0.0
  0
LINE
  5
3B9
330
1E
100
AcDbEntity
  8
RAAMI
100
AcDbLine
 10
213.82709908749
 20
5.377999252422178
 30
0.0
 11
215.9122127349171
 21
5.377999252422178
 31
0.0
  0
LINE
  5
3BA
330
1E
100
AcDbEntity
  8
RAAMI
100
AcDbLine
 10
216.0115910012183
 20
5.096593784627025
 30
0.0
 11
217.18709908749
 21
1.737999252422177
 31
0.0
  0
LINE
  5
3BB
330
1E
100
AcDbEntity
  8
RAAMI
100
AcDbLine
 10
211.3600815769602
 20
5.097999252422177
 30
0.0
 11
213.54709908749
 21
5.097999252422177
 31
0.0
  0
LINE
  5
3BC
330
1E
100
AcDbEntity
  8
RAAMI
100
AcDbLine
 10
211.4590398011296
 20
5.377999252422178
 30
0.0
 11
213.54709908749
 21
5.377999252422178
 31
0.0
  0
LINE
  5
3BD
330
1E
100
AcDbEntity
  8
RAAMI
100
AcDbLine
 10
213.54709908749
 20
8.737999252422177
 30
0.0
 11
212.63709908749
 21
8.737999252422177
 31
0.0
  0
LINE
  5
3BE
330
1E
100
AcDbEntity
  8
RAAMI
100
AcDbLine
 10
213.82709908749
 20
3.137999252422176
 30
0.0
 11
214.9469924809167
 21
3.137999252422176
 31
0.0
  0
LINE
  5
3BF
330
1E
100
AcDbEntity
  8
RAAMI
100
AcDbLine
 10
213.82709908749
 20
8.737999252422177
 30
0.0
 11
213.82709908749
 21
5.377999252422178
 31
0.0
  0
LINE
  5
3C0
330
1E
100
AcDbEntity
  8
RAAMI
100
AcDbLine
 10
213.54709908749
 20
8.737999252422177
 30
0.0
 11
213.54709908749
 21
5.377999252422178
 31
0.0
  0
LINE
  5
3C1
330
1E
100
AcDbEntity
  8
RAAMI
100
AcDbLine
 10
214.73709908749
 20
8.737999252422177
 30
0.0
 11
213.82709908749
 21
8.737999252422177
 31
0.0
  0
LINE
  5
3C2
330
1E
100
AcDbEntity
  8
RAAMI
100
AcDbLine
 10
214.9481967907755
 20
3.134862957320585
 30
0.0
 11
215.43709908749
 21
1.737999252422177
 31
0.0
  0
LINE
  5
3C3
330
1E
100
AcDbEntity
  8
RAAMI
100
AcDbLine
 10
214.73709908749
 20
8.737999252422177
 30
0.0
 11
215.9134520127146
 21
5.376990894637707
 31
0.0
  0
LINE
  5
3C4
330
1E
100
AcDbEntity
  8
RAAMI
100
AcDbLine
 10
212.4258889824527
 20
3.134541809458486
 30
0.0
 11
211.93709908749
 21
1.737999252422177
 31
0.0
  0
LINE
  5
3C5
330
1E
100
AcDbEntity
  8
RAAMI
100
AcDbLine
 10
212.4258857855872
 20
3.137999252422176
 30
0.0
 11
213.54709908749
 21
3.137999252422176
 31
0.0
  0
LINE
  5
3C6
330
1E
100
AcDbEntity
  8
RAAMI
100
AcDbLine
 10
212.63709908749
 20
8.737999252422177
 30
0.0
 11
211.4595712478463
 21
5.373633996297456
 31
0.0
  0
LINE
  5
3C7
330
1E
100
AcDbEntity
  8
RAAMI
100
AcDbLine
 10
215.43709908749
 20
1.737999252422177
 30
0.0
 11
217.18709908749
 21
1.737999252422177
 31
0.0
  0
LINE
  5
3C8
330
1E
100
AcDbEntity
  8
RAAMI
100
AcDbLine
 10
210.18709908749
 20
1.737999252422177
 30
0.0
 11
211.93709908749
 21
1.737999252422177
 31
0.0
  0
LINE
  5
3C9
330
1E
100
AcDbEntity
  8
OHUT
100
AcDbLine
 10
369.73709908749
 20
9.737999252422177
 30
0.0
 11
369.73709908749
 21
0.2379992524221779
 31
0.0
  0
TEXT
  5
3CA
330
1E
100
AcDbEntity
  8
RAAMI
100
AcDbText
 10
371.23709908749
 20
7.237999252422177
 30
0.0
 40
1.399999999999999
  1
PAINOS  REVISION
  7
ROMANS
100
AcDbText
  0
LINE
  5
3CB
330
1E
100
AcDbEntity
  8
OHUT
100
AcDbLine
 10
349.73709908749
 20
9.737999252422177
 30
0.0
 11
349.73709908749
 21
18.23799925242217
 31
0.0
  0
TEXT
  5
3CC
330
1E
100
AcDbEntity
  8
RAAMI
100
AcDbText
 10
309.23709908749
 20
7.237999252422177
 30
0.0
 40
1.399999999999999
  1
PIIRUSTUS NO  DRAWING NR
  7
ROMANS
100
AcDbText
  0
TEXT
  5
3CD
330
1E
100
AcDbEntity
  8
RAAMI
100
AcDbText
 10
309.23709908749
 20
15.73799925242217
 30
0.0
 40
1.399999999999999
  1
KOODI  CODE
  7
ROMANS
100
AcDbText
  0
TEXT
  5
3CE
330
1E
100
AcDbEntity
  8
RAAMI
100
AcDbText
 10
309.23709908749
 20
32.73799925242217
 30
0.0
 40
1.399999999999999
  1
NIMITYS  NAME
  7
ROMANS
100
AcDbText
  0
TEXT
  5
3CF
330
1E
100
AcDbEntity
  8
RAAMI
100
AcDbText
 10
259.23709908749
 20
15.73799925242217
 30
0.0
 40
1.399999999999999
  1
SUHDE  SCALE
  7
ROMANS
100
AcDbText
  0
TEXT
  5
3D0
330
1E
100
AcDbEntity
  8
RAAMI
100
AcDbText
 10
259.23709908749
 20
23.73799925242217
 30
0.0
 40
1.399999999999999
  1
TOLERANSSIT  TOLERANCES
  7
ROMANS
100
AcDbText
  0
TEXT
  5
3D1
330
1E
100
AcDbEntity
  8
RAAMI
100
AcDbText
 10
259.23709908749
 20
32.73799925242217
 30
0.0
 40
1.399999999999999
  1
LIITTYY  CONCERNING
  7
ROMANS
100
AcDbText
  0
LINE
  5
3D2
330
1E
100
AcDbEntity
  8
OHUT
100
AcDbLine
 10
307.23709908749
 20
0.2379992524221779
 30
0.0
 11
307.23709908749
 21
35.23799925242217
 31
0.0
  0
TEXT
  5
3D3
330
1E
100
AcDbEntity
  8
RAAMI
100
AcDbText
 10
209.9799338133564
 20
15.70466591908884
 30
0.0
 40
1.399999999999999
  1
HYVŽKSYI  APPROVED
  7
ROMANS
100
AcDbText
  0
TEXT
  5
3D4
330
1E
100
AcDbEntity
  8
RAAMI
100
AcDbText
 10
210.23709908749
 20
23.97133258575551
 30
0.0
 40
1.399999999999999
  1
TARKASTI  CHECKED
  7
ROMANS
100
AcDbText
  0
LINE
  5
3D5
330
1E
100
AcDbEntity
  8
PAKSU
100
AcDbLine
 10
209.23709908749
 20
35.23799925242217
 30
0.0
 11
392.23709908749
 21
35.23799925242217
 31
0.0
  0
LINE
  5
3D6
330
1E
100
AcDbEntity
  8
OHUT
100
AcDbLine
 10
209.23709908749
 20
26.73799925242217
 30
0.0
 11
307.23709908749
 21
26.73799925242217
 31
0.0
  0
LINE
  5
3D7
330
1E
100
AcDbEntity
  8
OHUT
100
AcDbLine
 10
209.23709908749
 20
9.737999252422177
 30
0.0
 11
392.23709908749
 21
9.737999252422177
 31
0.0
  0
LINE
  5
3D8
330
1E
100
AcDbEntity
  8
OHUT
100
AcDbLine
 10
209.23709908749
 20
18.23799925242217
 30
0.0
 11
392.23709908749
 21
18.23799925242217
 31
0.0
  0
LINE
  5
3D9
330
1E
100
AcDbEntity
  8
PAKSU
100
AcDbLine
 10
392.23709908749
 20
0.2379992524221779
 30
0.0
 11
392.23709908749
 21
35.23799925242217
 31
0.0
  0
LINE
  5
3DA
330
1E
100
AcDbEntity
  8
PAKSU
100
AcDbLine
 10
209.23709908749
 20
0.2379992524221779
 30
0.0
 11
209.23709908749
 21
35.23799925242217
 31
0.0
  0
LINE
  5
3DB
330
1E
100
AcDbEntity
  8
PAKSU
100
AcDbLine
 10
209.23709908749
 20
0.2379992524221779
 30
0.0
 11
392.23709908749
 21
0.2379992524221779
 31
0.0
  0
LINE
  5
3DC
330
1E
100
AcDbEntity
  8
RAAMI
100
AcDbLine
 10
18.23709908749002
 20
0.2379992524221779
 30
0.0
 11
0.2370990874900258
 21
0.2379992524221779
 31
0.0
  0
LINE
  5
3DD
330
1E
100
AcDbEntity
  8
PAKSU
100
AcDbLine
 10
0.2370990874900258
 20
262.7379992524221
 30
0.0
 11
392.23709908749
 21
262.7379992524221
 31
0.0
  0
TEXT
  5
3DE
330
1E
100
AcDbEntity
  8
RAAMI
  6
Continuous
100
AcDbText
 10
291.1520687135214
 20
12.30927577927123
 30
0.0
 40
3.0
  1
A3
100
AcDbText
  0
TEXT
  5
3DF
330
1E
100
AcDbEntity
  8
RAAMI
  6
Continuous
100
AcDbText
 10
351.8693206179115
 20
15.73791364740576
 30
0.0
 40
1.399999999999999
  1
LEHTI SHEET
100
AcDbText
  0
TEXT
  5
3E0
330
1E
100
AcDbEntity
  8
0
  6
Continuous
100
AcDbText
 10
372.2682154177562
 20
12.13453233582223
 30
0.0
 40
2.0
  1
1
  7
ROMANS
100
AcDbText
  0
LINE
  5
3E1
330
1E
100
AcDbEntity
  8
BASE
  6
Continuous
100
AcDbLine
 10
205.0
 20
75.42960512729848
 30
0.0
 11
205.0
 21
72.5
 31
0.0
  0
LINE
  5
3E2
330
1E
100
AcDbEntity
  8
BASE
  6
Continuous
100
AcDbLine
 10
200.0
 20
75.42960512729848
 30
0.0
 11
200.0
 21
72.5
 31
0.0
  0
LINE
  5
3E3
330
1E
100
AcDbEntity
  8
BASE
  6
Continuous
100
AcDbLine
 10
205.0
 20
90.0
 30
0.0
 11
205.0
 21
84.75215414327719
 31
0.0
  0
LINE
  5
3E4
330
1E
100
AcDbEntity
  8
BASE
  6
Continuous
100
AcDbLine
 10
200.0
 20
90.0
 30
0.0
 11
200.0
 21
84.75215414327719
 31
0.0
  0
INSERT
  5
3E5
330
1E
100
AcDbEntity
  8
BASE
100
AcDbBlockReference
  2
WKU130
 10
202.8062609511656
 20
76.00288783989672
 30
0.0
 41
0.8
 42
0.8
 43
0.8
  0
LINE
  5
3E6
330
1E
100
AcDbEntity
  8
BASE
100
AcDbLine
 10
202.4663113644161
 20
77.7284402228403
 30
0.0
 11
206.4663113644161
 21
77.7284402228403
 31
0.0
  0
LINE
  5
3E7
330
1E
100
AcDbEntity
  8
BASE
100
AcDbLine
 10
198.7099012562215
 20
82.6744635824005
 30
0.0
 11
202.7099012562215
 21
82.6744635824005
 31
0.0
  0
LINE
  5
3E8
330
1E
100
AcDbEntity
  8
BASE
100
AcDbLine
 10
197.7951025876481
 20
76.38620701298555
 30
0.0
 11
206.1586126356733
 21
84.75215414327719
 31
0.0
  0
LINE
  5
3E9
330
1E
100
AcDbEntity
  8
BASE
100
AcDbLine
 10
198.7793954525141
 20
75.42960512729848
 30
0.0
 11
207.1197562252161
 21
83.76735222755645
 31
0.0
  0
LINE
  5
3EA
330
1E
100
AcDbEntity
  8
BASE
100
AcDbLine
 10
197.7951025876481
 20
75.42960512729848
 30
0.0
 11
197.7951025876481
 21
84.75215414327719
 31
0.0
  0
LINE
  5
3EB
330
1E
100
AcDbEntity
  8
BASE
100
AcDbLine
 10
207.1197562252161
 20
75.42960512729848
 30
0.0
 11
197.7951025876481
 21
75.42960512729848
 31
0.0
  0
LINE
  5
3EC
330
1E
100
AcDbEntity
  8
BASE
100
AcDbLine
 10
207.1197562252161
 20
84.75215414327719
 30
0.0
 11
207.1197562252161
 21
75.42960512729848
 31
0.0
  0
LINE
  5
3ED
330
1E
100
AcDbEntity
  8
BASE
100
AcDbLine
 10
197.7951025876481
 20
84.75215414327719
 30
0.0
 11
207.1197562252161
 21
84.75215414327719
 31
0.0
  0
TEXT
  5
3EE
330
1E
100
AcDbEntity
  8
BASE
  6
Continuous
100
AcDbText
 10
199.3667344653197
 20
90.55314994185362
 30
0.0
 40
2.0
  1
+
100
AcDbText
  0
TEXT
  5
3EF
330
1E
100
AcDbEntity
  8
BASE
  6
Continuous
100
AcDbText
 10
204.297086416316
 20
90.57771885292426
 30
0.0
 40
2.0
  1
-
100
AcDbText
  0
LINE
  5
3F0
330
1E
100
AcDbEntity
  8
0
  6
Continuous
100
AcDbLine
 10
25.0
 20
204.9999999999999
 30
0.0
 11
15.0
 21
205.0
 31
0.0
  0
LINE
  5
3F1
330
1E
100
AcDbEntity
  8
0
  6
Continuous
100
AcDbLine
 10
37.5
 20
205.0
 30
0.0
 11
31.00000363311138
 21
205.0
 31
0.0
  0
TEXT
  5
3F2
330
1E
100
AcDbEntity
  8
0
  6
Continuous
100
AcDbText
 10
38.18016056657484
 20
50.0
 30
0.0
 40
2.0
  1
DIM. 160 X 196
  7
ROMANS
100
AcDbText
  0
LINE
  5
3F3
330
1E
100
AcDbEntity
  8
0
  6
Continuous
100
AcDbLine
 10
296.5060309415213
 20
220.0985560313284
 30
0.0
 11
297.4781667732114
 21
220.0985560313284
 31
0.0
  0
LINE
  5
3F4
330
1E
100
AcDbEntity
  8
0
  6
Continuous
100
AcDbLine
 10
296.496127989045
 20
222.4999959297373
 30
0.0
 11
297.4739356178998
 21
222.4999959297373
 31
0.0
  0
LINE
  5
3F5
330
1E
100
AcDbEntity
  8
0
  6
Continuous
100
AcDbLine
 10
296.5008973345388
 20
217.6899802196795
 30
0.0
 11
297.5
 21
217.6899802196795
 31
0.0
  0
ARC
  5
3F6
330
1E
100
AcDbEntity
  8
0
  6
Continuous
100
AcDbCircle
 10
295.8648615873968
 20
218.8942377789286
 30
0.0
 40
1.204308763687699
100
AcDbArc
 50
90.0
 51
270.0
  0
LINE
  5
3F7
330
1E
100
AcDbEntity
  8
0
  6
Continuous
100
AcDbLine
 10
295.8598981140048
 20
217.6899370591879
 30
0.0
 11
296.5094964320596
 21
217.6899370591879
 31
0.0
  0
LINE
  5
3F8
330
1E
100
AcDbEntity
  8
0
  6
Continuous
100
AcDbLine
 10
295.8587620726733
 20
222.4999931928302
 30
0.0
 11
296.5022608760045
 21
222.4999931928302
 31
0.0
  0
LINE
  5
3F9
330
1E
100
AcDbEntity
  8
0
  6
Continuous
100
AcDbLine
 10
295.8587620726733
 20
220.0985465426162
 30
0.0
 11
296.508360390728
 21
220.0985465426162
 31
0.0
  0
ARC
  5
3FA
330
1E
100
AcDbEntity
  8
0
  6
Continuous
100
AcDbCircle
 10
295.8648615873968
 20
221.2960950148242
 30
0.0
 40
1.204308763687699
100
AcDbArc
 50
90.0
 51
265.7062371869478
  0
LINE
  5
3FB
330
1E
100
AcDbEntity
  8
0
  6
Continuous
100
AcDbLine
 10
304.0060309415213
 20
220.0985560313284
 30
0.0
 11
304.9781667732114
 21
220.0985560313284
 31
0.0
  0
LINE
  5
3FC
330
1E
100
AcDbEntity
  8
0
  6
Continuous
100
AcDbLine
 10
303.996127989045
 20
222.4999959297373
 30
0.0
 11
304.9739356178998
 21
222.4999959297373
 31
0.0
  0
LINE
  5
3FD
330
1E
100
AcDbEntity
  8
0
  6
Continuous
100
AcDbLine
 10
304.0008973345388
 20
217.6899802196795
 30
0.0
 11
305.0
 21
217.6899802196795
 31
0.0
  0
ARC
  5
3FE
330
1E
100
AcDbEntity
  8
0
  6
Continuous
100
AcDbCircle
 10
303.3648615873968
 20
218.8942377789286
 30
0.0
 40
1.204308763687699
100
AcDbArc
 50
90.0
 51
270.0
  0
LINE
  5
3FF
330
1E
100
AcDbEntity
  8
0
  6
Continuous
100
AcDbLine
 10
303.3598981140048
 20
217.6899370591879
 30
0.0
 11
304.0094964320596
 21
217.6899370591879
 31
0.0
  0
LINE
  5
400
330
1E
100
AcDbEntity
  8
0
  6
Continuous
100
AcDbLine
 10
303.3587620726732
 20
222.4999931928302
 30
0.0
 11
304.0022608760045
 21
222.4999931928302
 31
0.0
  0
LINE
  5
401
330
1E
100
AcDbEntity
  8
0
  6
Continuous
100
AcDbLine
 10
303.3587620726732
 20
220.0985465426162
 30
0.0
 11
304.008360390728
 21
220.0985465426162
 31
0.0
  0
ARC
  5
402
330
1E
100
AcDbEntity
  8
0
  6
Continuous
100
AcDbCircle
 10
303.3648615873968
 20
221.2960950148242
 30
0.0
 40
1.204308763687699
100
AcDbArc
 50
90.0
 51
265.7062371869478
  0
LINE
  5
403
330
1E
100
AcDbEntity
  8
0
  6
Continuous
100
AcDbLine
 10
305.0
 20
217.6899802196795
 30
0.0
 11
305.0
 21
215.0
 31
0.0
  0
LINE
  5
404
330
1E
100
AcDbEntity
  8
0
  6
Continuous
100
AcDbLine
 10
297.5
 20
217.6899802196795
 30
0.0
 11
297.5
 21
215.0
 31
0.0
  0
LINE
  5
405
330
1E
100
AcDbEntity
  8
0
  6
DASHED
100
AcDbLine
 10
305.0
 20
232.5
 30
0.0
 11
305.0
 21
250.0
 31
0.0
  0
LINE
  5
406
330
1E
100
AcDbEntity
  8
0
  6
DASHED
100
AcDbLine
 10
297.5
 20
232.5
 30
0.0
 11
297.5
 21
255.0
 31
0.0
  0
INSERT
  5
407
330
1E
100
AcDbEntity
  8
0
  6
Continuous
100
AcDbBlockReference
  2
BLC27
 10
303.4659318482223
 20
230.0715494616068
 30
0.0
  0
INSERT
  5
408
330
1E
100
AcDbEntity
  8
0
  6
Continuous
100
AcDbBlockReference
  2
BLC27
 10
295.9659318482223
 20
230.0715494616068
 30
0.0
  0
TEXT
  5
409
330
1E
100
AcDbEntity
  8
0
  6
Continuous
100
AcDbText
 10
270.7439045857218
 20
253.9850537789356
 30
0.0
 40
2.0
  1
L1(R)
  7
ROMANS
 11
270.7439045857218
 21
253.318387112269
 31
0.0
100
AcDbText
 73
     1
  0
TEXT
  5
40A
330
1E
100
AcDbEntity
  8
0
  6
Continuous
100
AcDbText
 10
270.7439045857218
 20
248.9283593425077
 30
0.0
 40
2.0
  1
L2(S)
  7
ROMANS
 11
270.7439045857218
 21
248.2616926758411
 31
0.0
100
AcDbText
 73
     1
  0
TEXT
  5
40B
330
1E
100
AcDbEntity
  8
0
  6
Continuous
100
AcDbText
 10
270.7439045857218
 20
244.0069670924491
 30
0.0
 40
2.0
  1
L3(T)
  7
ROMANS
 11
270.7439045857218
 21
243.3403004257824
 31
0.0
100
AcDbText
 73
     1
  0
INSERT
  5
40C
330
1E
100
AcDbEntity
  8
0
  6
Continuous
100
AcDbBlockReference
  2
BLC15
 10
322.5
 20
227.5478958520575
 30
0.0
 50
90.0
  0
INSERT
  5
40D
330
1E
100
AcDbEntity
  8
0
  6
Continuous
100
AcDbBlockReference
  2
BLC15
 10
322.5
 20
222.3579156323779
 30
0.0
 50
90.0
  0
LINE
  5
40E
330
1E
100
AcDbEntity
  8
0
  6
Continuous
100
AcDbLine
 10
297.5
 20
222.5
 30
0.0
 11
317.5
 21
222.5
 31
0.0
  0
LINE
  5
40F
330
1E
100
AcDbEntity
  8
0
  6
Continuous
100
AcDbLine
 10
311.5060309415213
 20
220.0985560313284
 30
0.0
 11
312.4781667732114
 21
220.0985560313284
 31
0.0
  0
LINE
  5
410
330
1E
100
AcDbEntity
  8
0
  6
Continuous
100
AcDbLine
 10
311.496127989045
 20
222.4999959297373
 30
0.0
 11
312.4739356178998
 21
222.4999959297373
 31
0.0
  0
LINE
  5
411
330
1E
100
AcDbEntity
  8
0
  6
Continuous
100
AcDbLine
 10
311.5008973345388
 20
217.6899802196795
 30
0.0
 11
312.5
 21
217.6899802196795
 31
0.0
  0
ARC
  5
412
330
1E
100
AcDbEntity
  8
0
  6
Continuous
100
AcDbCircle
 10
310.8648615873968
 20
218.8942377789286
 30
0.0
 40
1.204308763687699
100
AcDbArc
 50
90.0
 51
270.0
  0
LINE
  5
413
330
1E
100
AcDbEntity
  8
0
  6
Continuous
100
AcDbLine
 10
310.8598981140048
 20
217.6899370591879
 30
0.0
 11
311.5094964320596
 21
217.6899370591879
 31
0.0
  0
LINE
  5
414
330
1E
100
AcDbEntity
  8
0
  6
Continuous
100
AcDbLine
 10
310.8587620726733
 20
222.4999931928302
 30
0.0
 11
311.5022608760045
 21
222.4999931928302
 31
0.0
  0
LINE
  5
415
330
1E
100
AcDbEntity
  8
0
  6
Continuous
100
AcDbLine
 10
310.8587620726733
 20
220.0985465426162
 30
0.0
 11
311.508360390728
 21
220.0985465426162
 31
0.0
  0
ARC
  5
416
330
1E
100
AcDbEntity
  8
0
  6
Continuous
100
AcDbCircle
 10
310.8648615873968
 20
221.2960950148242
 30
0.0
 40
1.204308763687699
100
AcDbArc
 50
90.0
 51
265.7062371869478
  0
LINE
  5
417
330
1E
100
AcDbEntity
  8
0
  6
Continuous
100
AcDbLine
 10
312.5
 20
217.6899802196795
 30
0.0
 11
312.5
 21
215.0
 31
0.0
  0
LINE
  5
418
330
1E
100
AcDbEntity
  8
0
  6
Continuous
100
AcDbLine
 10
297.5
 20
227.6899802196787
 30
0.0
 11
317.5
 21
227.6899802196787
 31
0.0
  0
LINE
  5
419
330
1E
100
AcDbEntity
  8
0
  6
DASHED
100
AcDbLine
 10
312.5
 20
232.5
 30
0.0
 11
312.5
 21
245.0
 31
0.0
  0
INSERT
  5
41A
330
1E
100
AcDbEntity
  8
0
  6
Continuous
100
AcDbBlockReference
  2
BLC27
 10
310.9659318482223
 20
230.0715494616068
 30
0.0
  0
LINE
  5
41B
330
1E
100
AcDbEntity
  8
0
  6
DASHED
100
AcDbLine
 10
348.5954654399987
 20
244.9999999999999
 30
0.0
 11
280.0
 21
244.9999999999999
 31
0.0
  0
LINE
  5
41C
330
1E
100
AcDbEntity
  8
0
  6
DASHED
100
AcDbLine
 10
348.5954654399987
 20
249.9999999999999
 30
0.0
 11
280.0
 21
250.0
 31
0.0
  0
LINE
  5
41D
330
1E
100
AcDbEntity
  8
0
  6
DASHED
100
AcDbLine
 10
348.5954654399987
 20
254.9999999999999
 30
0.0
 11
280.0
 21
255.0
 31
0.0
  0
LINE
  5
41E
330
1E
100
AcDbEntity
  8
0
  6
Continuous
100
AcDbLine
 10
245.0
 20
192.5
 30
0.0
 11
250.0
 21
192.5
 31
0.0
  0
LINE
  5
41F
330
1E
100
AcDbEntity
  8
0
  6
Continuous
100
AcDbLine
 10
255.0
 20
192.5
 30
0.0
 11
260.0
 21
192.5
 31
0.0
  0
LINE
  5
420
330
1E
100
AcDbEntity
  8
0
  6
Continuous
100
AcDbLine
 10
255.0
 20
192.5
 30
0.0
 11
249.2560759482168
 21
189.2852966948171
 31
0.0
  0
LINE
  5
421
330
1E
100
AcDbEntity
  8
0
  6
DASHED
100
AcDbLine
 10
260.0
 20
192.5
 30
0.0
 11
297.5
 21
192.5
 31
0.0
  0
LINE
  5
422
330
1E
100
AcDbEntity
  8
0
  6
DASHED
100
AcDbLine
 10
297.5
 20
192.5
 30
0.0
 11
297.5
 21
215.0
 31
0.0
  0
LINE
  5
423
330
1E
100
AcDbEntity
  8
0
  6
DASHED
100
AcDbLine
 10
305.0
 20
172.5
 30
0.0
 11
305.0
 21
215.0
 31
0.0
  0
LINE
  5
424
330
1E
100
AcDbEntity
  8
0
  6
Continuous
100
AcDbLine
 10
255.0
 20
172.5
 30
0.0
 11
249.2560759482168
 21
169.2852966948171
 31
0.0
  0
LINE
  5
425
330
1E
100
AcDbEntity
  8
0
  6
Continuous
100
AcDbLine
 10
245.0
 20
172.5
 30
0.0
 11
250.0
 21
172.5
 31
0.0
  0
LINE
  5
426
330
1E
100
AcDbEntity
  8
0
  6
Continuous
100
AcDbLine
 10
255.0
 20
172.5
 30
0.0
 11
260.0
 21
172.5
 31
0.0
  0
LINE
  5
427
330
1E
100
AcDbEntity
  8
0
  6
DASHED
100
AcDbLine
 10
260.0
 20
172.5
 30
0.0
 11
305.0
 21
172.5
 31
0.0
  0
LINE
  5
428
330
1E
100
AcDbEntity
  8
0
  6
HIDDEN
100
AcDbLine
 10
27.5
 20
206.25
 30
0.0
 11
27.5
 21
225.0
 31
0.0
  0
LINE
  5
429
330
1E
100
AcDbEntity
  8
0
  6
HIDDEN
100
AcDbLine
 10
252.4999999999999
 20
151.1008244206393
 30
0.0
 11
252.4999999999999
 21
225.0
 31
0.0
  0
LINE
  5
42A
330
1E
100
AcDbEntity
  8
0
  6
HIDDEN
100
AcDbLine
 10
252.4999999999999
 20
225.0
 30
0.0
 11
27.5
 21
225.0
 31
0.0
  0
LINE
  5
42B
330
1E
100
AcDbEntity
  8
BASE
100
AcDbLine
 10
215.0
 20
182.5
 30
0.0
 11
220.0
 21
182.5
 31
0.0
  0
LINE
  5
42C
330
1E
100
AcDbEntity
  8
BASE
100
AcDbLine
 10
215.0
 20
192.5
 30
0.0
 11
220.0
 21
192.5
 31
0.0
  0
LINE
  5
42D
330
1E
100
AcDbEntity
  8
BASE
  6
Continuous
100
AcDbLine
 10
225.0
 20
182.5
 30
0.0
 11
230.0
 21
182.5
 31
0.0
  0
LINE
  5
42E
330
1E
100
AcDbEntity
  8
BASE
  6
Continuous
100
AcDbLine
 10
225.0
 20
192.5
 30
0.0
 11
230.0
 21
192.5
 31
0.0
  0
LINE
  5
42F
330
1E
100
AcDbEntity
  8
BASE
  6
Continuous
100
AcDbLine
 10
212.5
 20
142.0
 30
0.0
 11
213.5
 21
141.0
 31
0.0
  0
LINE
  5
430
330
1E
100
AcDbEntity
  8
BASE
  6
Continuous
100
AcDbLine
 10
212.5
 20
193.0
 30
0.0
 11
213.5
 21
194.0
 31
0.0
  0
LINE
  5
431
330
1E
100
AcDbEntity
  8
BASE
  6
Continuous
100
AcDbLine
 10
212.5
 20
193.0
 30
0.0
 11
212.5
 21
142.0
 31
0.0
  0
LINE
  5
432
330
1E
100
AcDbEntity
  8
BASE
100
AcDbLine
 10
215.0
 20
172.5
 30
0.0
 11
220.0
 21
172.5
 31
0.0
  0
LINE
  5
433
330
1E
100
AcDbEntity
  8
BASE
100
AcDbLine
 10
215.0
 20
162.5
 30
0.0
 11
220.0
 21
162.5
 31
0.0
  0
LINE
  5
434
330
1E
100
AcDbEntity
  8
BASE
  6
Continuous
100
AcDbLine
 10
225.0
 20
162.5
 30
0.0
 11
230.0
 21
162.5
 31
0.0
  0
LINE
  5
435
330
1E
100
AcDbEntity
  8
BASE
  6
Continuous
100
AcDbLine
 10
225.0
 20
172.5
 30
0.0
 11
230.0
 21
172.5
 31
0.0
  0
TEXT
  5
436
330
1E
100
AcDbEntity
  8
BASE
  6
HIDDEN
100
AcDbText
 10
225.0
 20
189.4159203081087
 30
0.0
 40
2.0
  1
3A
  7
ROMANS
100
AcDbText
  0
TEXT
  5
437
330
1E
100
AcDbEntity
  8
BASE
  6
HIDDEN
100
AcDbText
 10
225.0
 20
179.6466899924271
 30
0.0
 40
2.0
  1
4A
  7
ROMANS
100
AcDbText
  0
TEXT
  5
438
330
1E
100
AcDbEntity
  8
BASE
  6
HIDDEN
100
AcDbText
 10
225.0
 20
169.3325884488101
 30
0.0
 40
2.0
  1
5A
  7
ROMANS
100
AcDbText
  0
TEXT
  5
439
330
1E
100
AcDbEntity
  8
BASE
  6
HIDDEN
100
AcDbText
 10
225.0
 20
159.4311136745871
 30
0.0
 40
2.0
  1
6A
  7
ROMANS
100
AcDbText
  0
LINE
  5
43A
330
1E
100
AcDbEntity
  8
BASE
  6
Continuous
100
AcDbLine
 10
47.5
 20
200.0
 30
0.0
 11
37.5
 21
199.9999999999999
 31
0.0
  0
LINE
  5
43B
330
1E
100
AcDbEntity
  8
BASE
  6
Continuous
100
AcDbLine
 10
50.2988115360942
 20
200.0
 30
0.0
 11
45.59881153609419
 21
200.0
 31
0.0
  0
LINE
  5
43C
330
1E
100
AcDbEntity
  8
BASE
  6
Continuous
100
AcDbLine
 10
40.0
 20
205.0
 30
0.0
 11
37.5
 21
205.0
 31
0.0
  0
LINE
  5
43D
330
1E
100
AcDbEntity
  8
BASE
  6
Continuous
100
AcDbLine
 10
47.5
 20
205.0
 30
0.0
 11
47.1776959568742
 21
205.0
 31
0.0
  0
LINE
  5
43E
330
1E
100
AcDbEntity
  8
BASE
  6
Continuous
100
AcDbLine
 10
50.2988115360942
 20
205.0
 30
0.0
 11
46.00000363311131
 21
205.0
 31
0.0
  0
TEXT
  5
43F
330
1E
100
AcDbEntity
  8
BASE
  6
Continuous
100
AcDbText
 10
38.74760253162781
 20
197.0455018351548
 30
0.0
 40
2.0
  1
108:11
  7
ROMANS
100
AcDbText
  0
TEXT
  5
440
330
1E
100
AcDbEntity
  8
BASE
  6
Continuous
100
AcDbText
 10
38.74760253162781
 20
202.1479543834336
 30
0.0
 40
2.0
  1
14A
  7
ROMANS
100
AcDbText
  0
TEXT
  5
441
330
1E
100
AcDbEntity
  8
BASE
  6
Continuous
100
AcDbText
 10
40.26387184294589
 20
209.2358429951266
 30
0.0
 40
2.0
  1
101
  7
ROMANS
100
AcDbText
  0
LINE
  5
442
330
1E
100
AcDbEntity
  8
BASE
100
AcDbLine
 10
50.2988115360942
 20
206.5899248299359
 30
0.0
 11
50.2988115360942
 21
198.4
 31
0.0
  0
LINE
  5
443
330
1E
100
AcDbEntity
  8
BASE
100
AcDbLine
 10
54.50485312354079
 20
206.5938403318466
 30
0.0
 11
52.59105013902138
 21
204.3150182198039
 31
0.0
  0
LINE
  5
444
330
1E
100
AcDbEntity
  8
BASE
100
AcDbLine
 10
55.99697070469147
 20
206.5938403318466
 30
0.0
 11
54.1426361744933
 21
204.3150182198039
 31
0.0
  0
LINE
  5
445
330
1E
100
AcDbEntity
  8
BASE
100
AcDbLine
 10
57.721555880007
 20
206.5899248299359
 30
0.0
 11
50.2988115360942
 21
206.5899248299359
 31
0.0
  0
LINE
  5
446
330
1E
100
AcDbEntity
  8
BASE
100
AcDbLine
 10
50.2988115360942
 20
198.4
 30
0.0
 11
57.72155588000697
 21
198.4
 31
0.0
  0
LINE
  5
447
330
1E
100
AcDbEntity
  8
BASE
100
AcDbLine
 10
57.72155588000697
 20
198.4
 30
0.0
 11
57.721555880007
 21
206.5899248299359
 31
0.0
  0
LINE
  5
448
330
1E
100
AcDbEntity
  8
BASE
  6
Continuous
100
AcDbLine
 10
57.72155588000697
 20
202.4999999999999
 30
0.0
 11
155.0
 21
202.4999999999987
 31
0.0
  0
LINE
  5
449
330
1E
100
AcDbEntity
  8
BASE
  6
Continuous
100
AcDbLine
 10
45.0
 20
117.5
 30
0.0
 11
37.5
 21
117.5
 31
0.0
  0
LINE
  5
44A
330
1E
100
AcDbEntity
  8
BASE
  6
Continuous
100
AcDbLine
 10
55.0
 20
117.5
 30
0.0
 11
51.00000363311135
 21
117.4999999999999
 31
0.0
  0
LINE
  5
44B
330
1E
100
AcDbEntity
  8
BASE
  6
Continuous
100
AcDbLine
 10
45.0
 20
107.4999999999999
 30
0.0
 11
37.5
 21
107.4999999999999
 31
0.0
  0
LINE
  5
44C
330
1E
100
AcDbEntity
  8
BASE
  6
Continuous
100
AcDbLine
 10
55.0
 20
107.4999999999999
 30
0.0
 11
51.00000363311134
 21
107.4999999999999
 31
0.0
  0
LINE
  5
44D
330
1E
100
AcDbEntity
  8
BASE
  6
Continuous
100
AcDbLine
 10
167.5079302691904
 20
97.5
 30
0.0
 11
167.5079302691904
 21
65.0
 31
0.0
  0
LINE
  5
44E
330
1E
100
AcDbEntity
  8
BASE
  6
Continuous
100
AcDbLine
 10
167.5
 20
58.99999636688876
 30
0.0
 11
167.5
 21
55.0
 31
0.0
  0
LINE
  5
44F
330
1E
100
AcDbEntity
  8
BASE
  6
Continuous
100
AcDbLine
 10
152.5
 20
55.0
 30
0.0
 11
152.5
 21
67.5
 31
0.0
  0
LINE
  5
450
330
1E
100
AcDbEntity
  8
BASE
  6
Continuous
100
AcDbLine
 10
187.5
 20
58.99999636688868
 30
0.0
 11
187.5
 21
55.0
 31
0.0
  0
LINE
  5
451
330
1E
100
AcDbEntity
  8
BASE
  6
Continuous
100
AcDbLine
 10
187.5
 20
71.19853573358051
 30
0.0
 11
187.5
 21
73.69853573358051
 31
0.0
  0
LINE
  5
452
330
1E
100
AcDbEntity
  8
BASE
  6
Continuous
100
AcDbLine
 10
187.5
 20
65.0
 30
0.0
 11
187.5
 21
70.0
 31
0.0
  0
LINE
  5
453
330
1E
100
AcDbEntity
  8
BASE
  6
Continuous
100
AcDbLine
 10
172.5
 20
55.0
 30
0.0
 11
172.5
 21
107.4999999999999
 31
0.0
  0
LINE
  5
454
330
1E
100
AcDbEntity
  8
BASE
  6
Continuous
100
AcDbLine
 10
182.5
 20
58.99999636688868
 30
0.0
 11
182.5
 21
55.0
 31
0.0
  0
LINE
  5
455
330
1E
100
AcDbEntity
  8
BASE
  6
Continuous
100
AcDbLine
 10
182.5
 20
65.0
 30
0.0
 11
182.5
 21
117.5
 31
0.0
  0
TEXT
  5
456
330
1E
100
AcDbEntity
  8
BASE
  6
HIDDEN
100
AcDbText
 10
155.5477788535727
 20
55.50892286372596
 30
0.0
 40
2.0
  1
108:72
 50
90.0
  7
ROMANS
100
AcDbText
  0
TEXT
  5
457
330
1E
100
AcDbEntity
  8
BASE
  6
HIDDEN
100
AcDbText
 10
165.6370513809693
 20
55.50892286372596
 30
0.0
 40
2.0
  1
101
 50
90.0
  7
ROMANS
100
AcDbText
  0
TEXT
  5
458
330
1E
100
AcDbEntity
  8
BASE
  6
HIDDEN
100
AcDbText
 10
171.4364015294792
 20
55.50892286372596
 30
0.0
 40
2.0
  1
2A
 50
90.0
  7
ROMANS
100
AcDbText
  0
TEXT
  5
459
330
1E
100
AcDbEntity
  8
BASE
  6
HIDDEN
100
AcDbText
 10
175.4544584297784
 20
55.50892286372596
 30
0.0
 40
2.0
  1
108:69
 50
90.0
  7
ROMANS
100
AcDbText
  0
TEXT
  5
45A
330
1E
100
AcDbEntity
  8
BASE
  6
HIDDEN
100
AcDbText
 10
180.8876107018072
 20
55.50892286372596
 30
0.0
 40
2.0
  1
101
 50
90.0
  7
ROMANS
100
AcDbText
  0
TEXT
  5
45B
330
1E
100
AcDbEntity
  8
BASE
  6
HIDDEN
100
AcDbText
 10
185.3317178215518
 20
55.50892286372596
 30
0.0
 40
2.0
  1
1A
 50
90.0
  7
ROMANS
100
AcDbText
  0
TEXT
  5
45C
330
1E
100
AcDbEntity
  8
BASE
  6
HIDDEN
100
AcDbText
 10
190.7968293302051
 20
55.50892286372596
 30
0.0
 40
2.0
  1
18A
 50
90.0
  7
ROMANS
100
AcDbText
  0
TEXT
  5
45D
330
1E
100
AcDbEntity
  8
BASE
  6
HIDDEN
100
AcDbText
 10
202.877881163343
 20
55.50892286372596
 30
0.0
 40
2.0
  1
108:61
 50
90.0
  7
ROMANS
100
AcDbText
  0
TEXT
  5
45E
330
1E
100
AcDbEntity
  8
BASE
  6
HIDDEN
100
AcDbText
 10
207.9001992951922
 20
55.50892286372596
 30
0.0
 40
2.0
  1
108:62
 50
90.0
  7
ROMANS
100
AcDbText
  0
TEXT
  5
45F
330
1E
100
AcDbEntity
  8
BASE
  6
HIDDEN
100
AcDbText
 10
220.7283660904523
 20
55.50892286372596
 30
0.0
 40
2.0
  1
108:63
 50
90.0
  7
ROMANS
100
AcDbText
  0
TEXT
  5
460
330
1E
100
AcDbEntity
  8
BASE
  6
HIDDEN
100
AcDbText
 10
38.95009053065232
 20
121.4467848007664
 30
0.0
 40
2.0
  1
101
  7
ROMANS
100
AcDbText
  0
TEXT
  5
461
330
1E
100
AcDbEntity
  8
BASE
  6
HIDDEN
100
AcDbText
 10
38.95009053065232
 20
114.3964701283725
 30
0.0
 40
2.0
  1
17A
  7
ROMANS
100
AcDbText
  0
TEXT
  5
462
330
1E
100
AcDbEntity
  8
BASE
  6
HIDDEN
100
AcDbText
 10
38.95009053065232
 20
104.5941786980556
 30
0.0
 40
2.0
  1
16A
  7
ROMANS
100
AcDbText
  0
TEXT
  5
463
330
1E
100
AcDbEntity
  8
BASE
  6
HIDDEN
100
AcDbText
 10
38.95009053065232
 20
99.50860628904869
 30
0.0
 40
2.0
  1
108:67
  7
ROMANS
100
AcDbText
  0
TEXT
  5
464
330
1E
100
AcDbEntity
  8
BASE
  6
HIDDEN
100
AcDbText
 10
38.95009053065232
 20
94.61038019630874
 30
0.0
 40
2.0
  1
108:74
  7
ROMANS
100
AcDbText
  0
TEXT
  5
465
330
1E
100
AcDbEntity
  8
BASE
  6
HIDDEN
100
AcDbText
 10
38.95009053065232
 20
89.70113373202371
 30
0.0
 40
2.0
  1
108:73
  7
ROMANS
100
AcDbText
  0
TEXT
  5
466
330
1E
100
AcDbEntity
  8
BASE
  6
HIDDEN
100
AcDbText
 10
38.95009053065232
 20
84.6265816945619
 30
0.0
 40
2.0
  1
108:77
  7
ROMANS
100
AcDbText
  0
TEXT
  5
467
330
1E
100
AcDbEntity
  8
BASE
  6
HIDDEN
100
AcDbText
 10
38.95009053065232
 20
79.54100928555497
 30
0.0
 40
2.0
  1
108:76
  7
ROMANS
100
AcDbText
  0
TEXT
  5
468
330
1E
100
AcDbEntity
  8
BASE
  6
HIDDEN
100
AcDbText
 10
38.95009053065232
 20
64.4716383748012
 30
0.0
 40
2.0
  1
108:70
  7
ROMANS
100
AcDbText
  0
TEXT
  5
469
330
1E
100
AcDbEntity
  8
BASE
  6
HIDDEN
100
AcDbText
 10
38.95009053065232
 20
59.74973822678315
 30
0.0
 40
2.0
  1
108:71
  7
ROMANS
100
AcDbText
  0
ARC
  5
46A
330
1E
100
AcDbEntity
  8
0
  6
Continuous
100
AcDbCircle
 10
232.5
 20
105.0
 30
0.0
 40
2.5
100
AcDbArc
 50
90.0
 51
270.0
  0
POLYLINE
  5
46B
330
1E
100
AcDbEntity
  8
0
  6
Continuous
100
AcDbPolygonMesh
 66
     1
 10
0.0
 20
0.0
 30
0.0
 70
    16
 71
     2
 72
   251
  0
VERTEX
  5
46C
330
46B
100
AcDbEntity
  8
0
  6
Continuous
100
AcDbVertex
100
AcDbPolygonMeshVertex
 10
231.6340237729537
 20
104.4399999999999
 30
0.0
 70
    64
  0
VERTEX
  5
46D
330
46B
100
AcDbEntity
  8
0
  6
Continuous
100
AcDbVertex
100
AcDbPolygonMeshVertex
 10
231.6497037729536
 20
104.4399999999999
 30
0.0
 70
    64
  0
VERTEX
  5
46E
330
46B
100
AcDbEntity
  8
0
  6
Continuous
100
AcDbVertex
100
AcDbPolygonMeshVertex
 10
231.6653837729536
 20
104.4399999999999
 30
0.0
 70
    64
  0
VERTEX
  5
46F
330
46B
100
AcDbEntity
  8
0
  6
Continuous
100
AcDbVertex
100
AcDbPolygonMeshVertex
 10
231.6810637729536
 20
104.4399999999999
 30
0.0
 70
    64
  0
VERTEX
  5
470
330
46B
100
AcDbEntity
  8
0
  6
Continuous
100
AcDbVertex
100
AcDbPolygonMeshVertex
 10
231.6967437729536
 20
104.4399999999999
 30
0.0
 70
    64
  0
VERTEX
  5
471
330
46B
100
AcDbEntity
  8
0
  6
Continuous
100
AcDbVertex
100
AcDbPolygonMeshVertex
 10
231.7124237729536
 20
104.4399999999999
 30
0.0
 70
    64
  0
VERTEX
  5
472
330
46B
100
AcDbEntity
  8
0
  6
Continuous
100
AcDbVertex
100
AcDbPolygonMeshVertex
 10
231.7281037729536
 20
104.4399999999999
 30
0.0
 70
    64
  0
VERTEX
  5
473
330
46B
100
AcDbEntity
  8
0
  6
Continuous
100
AcDbVertex
100
AcDbPolygonMeshVertex
 10
231.7437837729536
 20
104.4399999999999
 30
0.0
 70
    64
  0
VERTEX
  5
474
330
46B
100
AcDbEntity
  8
0
  6
Continuous
100
AcDbVertex
100
AcDbPolygonMeshVertex
 10
231.7594637729536
 20
104.4399999999999
 30
0.0
 70
    64
  0
VERTEX
  5
475
330
46B
100
AcDbEntity
  8
0
  6
Continuous
100
AcDbVertex
100
AcDbPolygonMeshVertex
 10
231.7751437729536
 20
104.4399999999999
 30
0.0
 70
    64
  0
VERTEX
  5
476
330
46B
100
AcDbEntity
  8
0
  6
Continuous
100
AcDbVertex
100
AcDbPolygonMeshVertex
 10
231.7908237729536
 20
104.4399999999999
 30
0.0
 70
    64
  0
VERTEX
  5
477
330
46B
100
AcDbEntity
  8
0
  6
Continuous
100
AcDbVertex
100
AcDbPolygonMeshVertex
 10
231.8065037729536
 20
104.4399999999999
 30
0.0
 70
    64
  0
VERTEX
  5
478
330
46B
100
AcDbEntity
  8
0
  6
Continuous
100
AcDbVertex
100
AcDbPolygonMeshVertex
 10
231.8221837729536
 20
104.4399999999999
 30
0.0
 70
    64
  0
VERTEX
  5
479
330
46B
100
AcDbEntity
  8
0
  6
Continuous
100
AcDbVertex
100
AcDbPolygonMeshVertex
 10
231.8378637729536
 20
104.4399999999999
 30
0.0
 70
    64
  0
VERTEX
  5
47A
330
46B
100
AcDbEntity
  8
0
  6
Continuous
100
AcDbVertex
100
AcDbPolygonMeshVertex
 10
231.8535437729536
 20
104.4399999999999
 30
0.0
 70
    64
  0
VERTEX
  5
47B
330
46B
100
AcDbEntity
  8
0
  6
Continuous
100
AcDbVertex
100
AcDbPolygonMeshVertex
 10
231.8692237729536
 20
104.4399999999999
 30
0.0
 70
    64
  0
VERTEX
  5
47C
330
46B
100
AcDbEntity
  8
0
  6
Continuous
100
AcDbVertex
100
AcDbPolygonMeshVertex
 10
231.8849037729536
 20
104.4399999999999
 30
0.0
 70
    64
  0
VERTEX
  5
47D
330
46B
100
AcDbEntity
  8
0
  6
Continuous
100
AcDbVertex
100
AcDbPolygonMeshVertex
 10
231.9005837729536
 20
104.4399999999999
 30
0.0
 70
    64
  0
VERTEX
  5
47E
330
46B
100
AcDbEntity
  8
0
  6
Continuous
100
AcDbVertex
100
AcDbPolygonMeshVertex
 10
231.9162637729536
 20
104.4399999999999
 30
0.0
 70
    64
  0
VERTEX
  5
47F
330
46B
100
AcDbEntity
  8
0
  6
Continuous
100
AcDbVertex
100
AcDbPolygonMeshVertex
 10
231.9319437729536
 20
104.4399999999999
 30
0.0
 70
    64
  0
VERTEX
  5
480
330
46B
100
AcDbEntity
  8
0
  6
Continuous
100
AcDbVertex
100
AcDbPolygonMeshVertex
 10
231.9476237729536
 20
104.4399999999999
 30
0.0
 70
    64
  0
VERTEX
  5
481
330
46B
100
AcDbEntity
  8
0
  6
Continuous
100
AcDbVertex
100
AcDbPolygonMeshVertex
 10
231.9633037729536
 20
104.4399999999999
 30
0.0
 70
    64
  0
VERTEX
  5
482
330
46B
100
AcDbEntity
  8
0
  6
Continuous
100
AcDbVertex
100
AcDbPolygonMeshVertex
 10
231.9789837729536
 20
104.4399999999999
 30
0.0
 70
    64
  0
VERTEX
  5
483
330
46B
100
AcDbEntity
  8
0
  6
Continuous
100
AcDbVertex
100
AcDbPolygonMeshVertex
 10
231.9946637729537
 20
104.4399999999999
 30
0.0
 70
    64
  0
VERTEX
  5
484
330
46B
100
AcDbEntity
  8
0
  6
Continuous
100
AcDbVertex
100
AcDbPolygonMeshVertex
 10
232.0103437729536
 20
104.4399999999999
 30
0.0
 70
    64
  0
VERTEX
  5
485
330
46B
100
AcDbEntity
  8
0
  6
Continuous
100
AcDbVertex
100
AcDbPolygonMeshVertex
 10
232.0260237729536
 20
104.4399999999999
 30
0.0
 70
    64
  0
VERTEX
  5
486
330
46B
100
AcDbEntity
  8
0
  6
Continuous
100
AcDbVertex
100
AcDbPolygonMeshVertex
 10
232.0417037729536
 20
104.4399999999999
 30
0.0
 70
    64
  0
VERTEX
  5
487
330
46B
100
AcDbEntity
  8
0
  6
Continuous
100
AcDbVertex
100
AcDbPolygonMeshVertex
 10
232.0573837729536
 20
104.4399999999999
 30
0.0
 70
    64
  0
VERTEX
  5
488
330
46B
100
AcDbEntity
  8
0
  6
Continuous
100
AcDbVertex
100
AcDbPolygonMeshVertex
 10
232.0730637729536
 20
104.4399999999999
 30
0.0
 70
    64
  0
VERTEX
  5
489
330
46B
100
AcDbEntity
  8
0
  6
Continuous
100
AcDbVertex
100
AcDbPolygonMeshVertex
 10
232.0887437729536
 20
104.4399999999999
 30
0.0
 70
    64
  0
VERTEX
  5
48A
330
46B
100
AcDbEntity
  8
0
  6
Continuous
100
AcDbVertex
100
AcDbPolygonMeshVertex
 10
232.1044237729537
 20
104.4399999999999
 30
0.0
 70
    64
  0
VERTEX
  5
48B
330
46B
100
AcDbEntity
  8
0
  6
Continuous
100
AcDbVertex
100
AcDbPolygonMeshVertex
 10
232.1201037729536
 20
104.4399999999999
 30
0.0
 70
    64
  0
VERTEX
  5
48C
330
46B
100
AcDbEntity
  8
0
  6
Continuous
100
AcDbVertex
100
AcDbPolygonMeshVertex
 10
232.1357837729536
 20
104.4399999999999
 30
0.0
 70
    64
  0
VERTEX
  5
48D
330
46B
100
AcDbEntity
  8
0
  6
Continuous
100
AcDbVertex
100
AcDbPolygonMeshVertex
 10
232.1514637729536
 20
104.4399999999999
 30
0.0
 70
    64
  0
VERTEX
  5
48E
330
46B
100
AcDbEntity
  8
0
  6
Continuous
100
AcDbVertex
100
AcDbPolygonMeshVertex
 10
232.1671437729536
 20
104.4399999999999
 30
0.0
 70
    64
  0
VERTEX
  5
48F
330
46B
100
AcDbEntity
  8
0
  6
Continuous
100
AcDbVertex
100
AcDbPolygonMeshVertex
 10
232.1828237729536
 20
104.4399999999999
 30
0.0
 70
    64
  0
VERTEX
  5
490
330
46B
100
AcDbEntity
  8
0
  6
Continuous
100
AcDbVertex
100
AcDbPolygonMeshVertex
 10
232.1985037729537
 20
104.4399999999999
 30
0.0
 70
    64
  0
VERTEX
  5
491
330
46B
100
AcDbEntity
  8
0
  6
Continuous
100
AcDbVertex
100
AcDbPolygonMeshVertex
 10
232.2141837729536
 20
104.4399999999999
 30
0.0
 70
    64
  0
VERTEX
  5
492
330
46B
100
AcDbEntity
  8
0
  6
Continuous
100
AcDbVertex
100
AcDbPolygonMeshVertex
 10
232.2298637729536
 20
104.4399999999999
 30
0.0
 70
    64
  0
VERTEX
  5
493
330
46B
100
AcDbEntity
  8
0
  6
Continuous
100
AcDbVertex
100
AcDbPolygonMeshVertex
 10
232.2455437729536
 20
104.4399999999999
 30
0.0
 70
    64
  0
VERTEX
  5
494
330
46B
100
AcDbEntity
  8
0
  6
Continuous
100
AcDbVertex
100
AcDbPolygonMeshVertex
 10
232.2612237729536
 20
104.4399999999999
 30
0.0
 70
    64
  0
VERTEX
  5
495
330
46B
100
AcDbEntity
  8
0
  6
Continuous
100
AcDbVertex
100
AcDbPolygonMeshVertex
 10
232.2769037729536
 20
104.4399999999999
 30
0.0
 70
    64
  0
VERTEX
  5
496
330
46B
100
AcDbEntity
  8
0
  6
Continuous
100
AcDbVertex
100
AcDbPolygonMeshVertex
 10
232.2925837729536
 20
104.4399999999999
 30
0.0
 70
    64
  0
VERTEX
  5
497
330
46B
100
AcDbEntity
  8
0
  6
Continuous
100
AcDbVertex
100
AcDbPolygonMeshVertex
 10
232.3082637729537
 20
104.4399999999999
 30
0.0
 70
    64
  0
VERTEX
  5
498
330
46B
100
AcDbEntity
  8
0
  6
Continuous
100
AcDbVertex
100
AcDbPolygonMeshVertex
 10
232.3239437729536
 20
104.4399999999999
 30
0.0
 70
    64
  0
VERTEX
  5
499
330
46B
100
AcDbEntity
  8
0
  6
Continuous
100
AcDbVertex
100
AcDbPolygonMeshVertex
 10
232.3396237729536
 20
104.4399999999999
 30
0.0
 70
    64
  0
VERTEX
  5
49A
330
46B
100
AcDbEntity
  8
0
  6
Continuous
100
AcDbVertex
100
AcDbPolygonMeshVertex
 10
232.3553037729536
 20
104.4399999999999
 30
0.0
 70
    64
  0
VERTEX
  5
49B
330
46B
100
AcDbEntity
  8
0
  6
Continuous
100
AcDbVertex
100
AcDbPolygonMeshVertex
 10
232.3709837729536
 20
104.4399999999999
 30
0.0
 70
    64
  0
VERTEX
  5
49C
330
46B
100
AcDbEntity
  8
0
  6
Continuous
100
AcDbVertex
100
AcDbPolygonMeshVertex
 10
232.3866637729536
 20
104.4399999999999
 30
0.0
 70
    64
  0
VERTEX
  5
49D
330
46B
100
AcDbEntity
  8
0
  6
Continuous
100
AcDbVertex
100
AcDbPolygonMeshVertex
 10
232.4023437729536
 20
104.4399999999999
 30
0.0
 70
    64
  0
VERTEX
  5
49E
330
46B
100
AcDbEntity
  8
0
  6
Continuous
100
AcDbVertex
100
AcDbPolygonMeshVertex
 10
232.4180237729537
 20
104.4399999999999
 30
0.0
 70
    64
  0
VERTEX
  5
49F
330
46B
100
AcDbEntity
  8
0
  6
Continuous
100
AcDbVertex
100
AcDbPolygonMeshVertex
 10
232.4337037729536
 20
104.4399999999999
 30
0.0
 70
    64
  0
VERTEX
  5
4A0
330
46B
100
AcDbEntity
  8
0
  6
Continuous
100
AcDbVertex
100
AcDbPolygonMeshVertex
 10
232.4493837729536
 20
104.4399999999999
 30
0.0
 70
    64
  0
VERTEX
  5
4A1
330
46B
100
AcDbEntity
  8
0
  6
Continuous
100
AcDbVertex
100
AcDbPolygonMeshVertex
 10
232.4650637729536
 20
104.4399999999999
 30
0.0
 70
    64
  0
VERTEX
  5
4A2
330
46B
100
AcDbEntity
  8
0
  6
Continuous
100
AcDbVertex
100
AcDbPolygonMeshVertex
 10
232.4807437729536
 20
104.4399999999999
 30
0.0
 70
    64
  0
VERTEX
  5
4A3
330
46B
100
AcDbEntity
  8
0
  6
Continuous
100
AcDbVertex
100
AcDbPolygonMeshVertex
 10
232.4964237729536
 20
104.4399999999999
 30
0.0
 70
    64
  0
VERTEX
  5
4A4
330
46B
100
AcDbEntity
  8
0
  6
Continuous
100
AcDbVertex
100
AcDbPolygonMeshVertex
 10
232.5121037729536
 20
104.4399999999999
 30
0.0
 70
    64
  0
VERTEX
  5
4A5
330
46B
100
AcDbEntity
  8
0
  6
Continuous
100
AcDbVertex
100
AcDbPolygonMeshVertex
 10
232.5277837729536
 20
104.4399999999999
 30
0.0
 70
    64
  0
VERTEX
  5
4A6
330
46B
100
AcDbEntity
  8
0
  6
Continuous
100
AcDbVertex
100
AcDbPolygonMeshVertex
 10
232.5434637729536
 20
104.4399999999999
 30
0.0
 70
    64
  0
VERTEX
  5
4A7
330
46B
100
AcDbEntity
  8
0
  6
Continuous
100
AcDbVertex
100
AcDbPolygonMeshVertex
 10
232.5591437729536
 20
104.4399999999999
 30
0.0
 70
    64
  0
VERTEX
  5
4A8
330
46B
100
AcDbEntity
  8
0
  6
Continuous
100
AcDbVertex
100
AcDbPolygonMeshVertex
 10
232.5748237729536
 20
104.4399999999999
 30
0.0
 70
    64
  0
VERTEX
  5
4A9
330
46B
100
AcDbEntity
  8
0
  6
Continuous
100
AcDbVertex
100
AcDbPolygonMeshVertex
 10
232.5905037729536
 20
104.4399999999999
 30
0.0
 70
    64
  0
VERTEX
  5
4AA
330
46B
100
AcDbEntity
  8
0
  6
Continuous
100
AcDbVertex
100
AcDbPolygonMeshVertex
 10
232.6061837729536
 20
104.4399999999999
 30
0.0
 70
    64
  0
VERTEX
  5
4AB
330
46B
100
AcDbEntity
  8
0
  6
Continuous
100
AcDbVertex
100
AcDbPolygonMeshVertex
 10
232.6218637729537
 20
104.4399999999999
 30
0.0
 70
    64
  0
VERTEX
  5
4AC
330
46B
100
AcDbEntity
  8
0
  6
Continuous
100
AcDbVertex
100
AcDbPolygonMeshVertex
 10
232.6375437729536
 20
104.4399999999999
 30
0.0
 70
    64
  0
VERTEX
  5
4AD
330
46B
100
AcDbEntity
  8
0
  6
Continuous
100
AcDbVertex
100
AcDbPolygonMeshVertex
 10
232.6532237729536
 20
104.4399999999999
 30
0.0
 70
    64
  0
VERTEX
  5
4AE
330
46B
100
AcDbEntity
  8
0
  6
Continuous
100
AcDbVertex
100
AcDbPolygonMeshVertex
 10
232.6689037729536
 20
104.4399999999999
 30
0.0
 70
    64
  0
VERTEX
  5
4AF
330
46B
100
AcDbEntity
  8
0
  6
Continuous
100
AcDbVertex
100
AcDbPolygonMeshVertex
 10
232.6845837729536
 20
104.4399999999999
 30
0.0
 70
    64
  0
VERTEX
  5
4B0
330
46B
100
AcDbEntity
  8
0
  6
Continuous
100
AcDbVertex
100
AcDbPolygonMeshVertex
 10
232.7002637729536
 20
104.4399999999999
 30
0.0
 70
    64
  0
VERTEX
  5
4B1
330
46B
100
AcDbEntity
  8
0
  6
Continuous
100
AcDbVertex
100
AcDbPolygonMeshVertex
 10
232.7159437729536
 20
104.4399999999999
 30
0.0
 70
    64
  0
VERTEX
  5
4B2
330
46B
100
AcDbEntity
  8
0
  6
Continuous
100
AcDbVertex
100
AcDbPolygonMeshVertex
 10
232.7316237729536
 20
104.4399999999999
 30
0.0
 70
    64
  0
VERTEX
  5
4B3
330
46B
100
AcDbEntity
  8
0
  6
Continuous
100
AcDbVertex
100
AcDbPolygonMeshVertex
 10
232.7473037729536
 20
104.4399999999999
 30
0.0
 70
    64
  0
VERTEX
  5
4B4
330
46B
100
AcDbEntity
  8
0
  6
Continuous
100
AcDbVertex
100
AcDbPolygonMeshVertex
 10
232.7629837729536
 20
104.4399999999999
 30
0.0
 70
    64
  0
VERTEX
  5
4B5
330
46B
100
AcDbEntity
  8
0
  6
Continuous
100
AcDbVertex
100
AcDbPolygonMeshVertex
 10
232.7786637729536
 20
104.4399999999999
 30
0.0
 70
    64
  0
VERTEX
  5
4B6
330
46B
100
AcDbEntity
  8
0
  6
Continuous
100
AcDbVertex
100
AcDbPolygonMeshVertex
 10
232.7943437729536
 20
104.4399999999999
 30
0.0
 70
    64
  0
VERTEX
  5
4B7
330
46B
100
AcDbEntity
  8
0
  6
Continuous
100
AcDbVertex
100
AcDbPolygonMeshVertex
 10
232.8100237729537
 20
104.4399999999999
 30
0.0
 70
    64
  0
VERTEX
  5
4B8
330
46B
100
AcDbEntity
  8
0
  6
Continuous
100
AcDbVertex
100
AcDbPolygonMeshVertex
 10
232.8257037729536
 20
104.4399999999999
 30
0.0
 70
    64
  0
VERTEX
  5
4B9
330
46B
100
AcDbEntity
  8
0
  6
Continuous
100
AcDbVertex
100
AcDbPolygonMeshVertex
 10
232.8413837729537
 20
104.4399999999999
 30
0.0
 70
    64
  0
VERTEX
  5
4BA
330
46B
100
AcDbEntity
  8
0
  6
Continuous
100
AcDbVertex
100
AcDbPolygonMeshVertex
 10
232.8570637729536
 20
104.4399999999999
 30
0.0
 70
    64
  0
VERTEX
  5
4BB
330
46B
100
AcDbEntity
  8
0
  6
Continuous
100
AcDbVertex
100
AcDbPolygonMeshVertex
 10
232.8727437729536
 20
104.4399999999999
 30
0.0
 70
    64
  0
VERTEX
  5
4BC
330
46B
100
AcDbEntity
  8
0
  6
Continuous
100
AcDbVertex
100
AcDbPolygonMeshVertex
 10
232.8884237729536
 20
104.4399999999999
 30
0.0
 70
    64
  0
VERTEX
  5
4BD
330
46B
100
AcDbEntity
  8
0
  6
Continuous
100
AcDbVertex
100
AcDbPolygonMeshVertex
 10
232.9041037729536
 20
104.4399999999999
 30
0.0
 70
    64
  0
VERTEX
  5
4BE
330
46B
100
AcDbEntity
  8
0
  6
Continuous
100
AcDbVertex
100
AcDbPolygonMeshVertex
 10
232.9197837729537
 20
104.4399999999999
 30
0.0
 70
    64
  0
VERTEX
  5
4BF
330
46B
100
AcDbEntity
  8
0
  6
Continuous
100
AcDbVertex
100
AcDbPolygonMeshVertex
 10
232.9354637729536
 20
104.4399999999999
 30
0.0
 70
    64
  0
VERTEX
  5
4C0
330
46B
100
AcDbEntity
  8
0
  6
Continuous
100
AcDbVertex
100
AcDbPolygonMeshVertex
 10
232.9511437729536
 20
104.4399999999999
 30
0.0
 70
    64
  0
VERTEX
  5
4C1
330
46B
100
AcDbEntity
  8
0
  6
Continuous
100
AcDbVertex
100
AcDbPolygonMeshVertex
 10
232.9668237729536
 20
104.4399999999999
 30
0.0
 70
    64
  0
VERTEX
  5
4C2
330
46B
100
AcDbEntity
  8
0
  6
Continuous
100
AcDbVertex
100
AcDbPolygonMeshVertex
 10
232.9825037729536
 20
104.4399999999999
 30
0.0
 70
    64
  0
VERTEX
  5
4C3
330
46B
100
AcDbEntity
  8
0
  6
Continuous
100
AcDbVertex
100
AcDbPolygonMeshVertex
 10
232.9981837729536
 20
104.4399999999999
 30
0.0
 70
    64
  0
VERTEX
  5
4C4
330
46B
100
AcDbEntity
  8
0
  6
Continuous
100
AcDbVertex
100
AcDbPolygonMeshVertex
 10
233.0138637729536
 20
104.4399999999999
 30
0.0
 70
    64
  0
VERTEX
  5
4C5
330
46B
100
AcDbEntity
  8
0
  6
Continuous
100
AcDbVertex
100
AcDbPolygonMeshVertex
 10
233.0295437729536
 20
104.4399999999999
 30
0.0
 70
    64
  0
VERTEX
  5
4C6
330
46B
100
AcDbEntity
  8
0
  6
Continuous
100
AcDbVertex
100
AcDbPolygonMeshVertex
 10
233.0452237729537
 20
104.4399999999999
 30
0.0
 70
    64
  0
VERTEX
  5
4C7
330
46B
100
AcDbEntity
  8
0
  6
Continuous
100
AcDbVertex
100
AcDbPolygonMeshVertex
 10
233.0609037729536
 20
104.4399999999999
 30
0.0
 70
    64
  0
VERTEX
  5
4C8
330
46B
100
AcDbEntity
  8
0
  6
Continuous
100
AcDbVertex
100
AcDbPolygonMeshVertex
 10
233.0765837729536
 20
104.4399999999999
 30
0.0
 70
    64
  0
VERTEX
  5
4C9
330
46B
100
AcDbEntity
  8
0
  6
Continuous
100
AcDbVertex
100
AcDbPolygonMeshVertex
 10
233.0922637729536
 20
104.4399999999999
 30
0.0
 70
    64
  0
VERTEX
  5
4CA
330
46B
100
AcDbEntity
  8
0
  6
Continuous
100
AcDbVertex
100
AcDbPolygonMeshVertex
 10
233.1079437729536
 20
104.4399999999999
 30
0.0
 70
    64
  0
VERTEX
  5
4CB
330
46B
100
AcDbEntity
  8
0
  6
Continuous
100
AcDbVertex
100
AcDbPolygonMeshVertex
 10
233.1236237729537
 20
104.4399999999999
 30
0.0
 70
    64
  0
VERTEX
  5
4CC
330
46B
100
AcDbEntity
  8
0
  6
Continuous
100
AcDbVertex
100
AcDbPolygonMeshVertex
 10
233.1393037729536
 20
104.4399999999999
 30
0.0
 70
    64
  0
VERTEX
  5
4CD
330
46B
100
AcDbEntity
  8
0
  6
Continuous
100
AcDbVertex
100
AcDbPolygonMeshVertex
 10
233.1549837729536
 20
104.4399999999999
 30
0.0
 70
    64
  0
VERTEX
  5
4CE
330
46B
100
AcDbEntity
  8
0
  6
Continuous
100
AcDbVertex
100
AcDbPolygonMeshVertex
 10
233.1706637729536
 20
104.4399999999999
 30
0.0
 70
    64
  0
VERTEX
  5
4CF
330
46B
100
AcDbEntity
  8
0
  6
Continuous
100
AcDbVertex
100
AcDbPolygonMeshVertex
 10
233.1863437729536
 20
104.4399999999999
 30
0.0
 70
    64
  0
VERTEX
  5
4D0
330
46B
100
AcDbEntity
  8
0
  6
Continuous
100
AcDbVertex
100
AcDbPolygonMeshVertex
 10
233.2020237729536
 20
104.4399999999999
 30
0.0
 70
    64
  0
VERTEX
  5
4D1
330
46B
100
AcDbEntity
  8
0
  6
Continuous
100
AcDbVertex
100
AcDbPolygonMeshVertex
 10
233.2177037729536
 20
104.4399999999999
 30
0.0
 70
    64
  0
VERTEX
  5
4D2
330
46B
100
AcDbEntity
  8
0
  6
Continuous
100
AcDbVertex
100
AcDbPolygonMeshVertex
 10
233.2333837729537
 20
104.4399999999999
 30
0.0
 70
    64
  0
VERTEX
  5
4D3
330
46B
100
AcDbEntity
  8
0
  6
Continuous
100
AcDbVertex
100
AcDbPolygonMeshVertex
 10
233.2490637729536
 20
104.4399999999999
 30
0.0
 70
    64
  0
VERTEX
  5
4D4
330
46B
100
AcDbEntity
  8
0
  6
Continuous
100
AcDbVertex
100
AcDbPolygonMeshVertex
 10
233.2647437729537
 20
104.4399999999999
 30
0.0
 70
    64
  0
VERTEX
  5
4D5
330
46B
100
AcDbEntity
  8
0
  6
Continuous
100
AcDbVertex
100
AcDbPolygonMeshVertex
 10
233.2804237729536
 20
104.4399999999999
 30
0.0
 70
    64
  0
VERTEX
  5
4D6
330
46B
100
AcDbEntity
  8
0
  6
Continuous
100
AcDbVertex
100
AcDbPolygonMeshVertex
 10
233.2961037729536
 20
104.4399999999999
 30
0.0
 70
    64
  0
VERTEX
  5
4D7
330
46B
100
AcDbEntity
  8
0
  6
Continuous
100
AcDbVertex
100
AcDbPolygonMeshVertex
 10
233.3117837729536
 20
104.4399999999999
 30
0.0
 70
    64
  0
VERTEX
  5
4D8
330
46B
100
AcDbEntity
  8
0
  6
Continuous
100
AcDbVertex
100
AcDbPolygonMeshVertex
 10
233.3274637729536
 20
104.4399999999999
 30
0.0
 70
    64
  0
VERTEX
  5
4D9
330
46B
100
AcDbEntity
  8
0
  6
Continuous
100
AcDbVertex
100
AcDbPolygonMeshVertex
 10
233.3431437729536
 20
104.4399999999999
 30
0.0
 70
    64
  0
VERTEX
  5
4DA
330
46B
100
AcDbEntity
  8
0
  6
Continuous
100
AcDbVertex
100
AcDbPolygonMeshVertex
 10
233.3588237729536
 20
104.4399999999999
 30
0.0
 70
    64
  0
VERTEX
  5
4DB
330
46B
100
AcDbEntity
  8
0
  6
Continuous
100
AcDbVertex
100
AcDbPolygonMeshVertex
 10
233.3745037729536
 20
104.4399999999999
 30
0.0
 70
    64
  0
VERTEX
  5
4DC
330
46B
100
AcDbEntity
  8
0
  6
Continuous
100
AcDbVertex
100
AcDbPolygonMeshVertex
 10
233.3901837729536
 20
104.4399999999999
 30
0.0
 70
    64
  0
VERTEX
  5
4DD
330
46B
100
AcDbEntity
  8
0
  6
Continuous
100
AcDbVertex
100
AcDbPolygonMeshVertex
 10
233.4058637729536
 20
104.4399999999999
 30
0.0
 70
    64
  0
VERTEX
  5
4DE
330
46B
100
AcDbEntity
  8
0
  6
Continuous
100
AcDbVertex
100
AcDbPolygonMeshVertex
 10
233.4215437729536
 20
104.4399999999999
 30
0.0
 70
    64
  0
VERTEX
  5
4DF
330
46B
100
AcDbEntity
  8
0
  6
Continuous
100
AcDbVertex
100
AcDbPolygonMeshVertex
 10
233.4372237729536
 20
104.4399999999999
 30
0.0
 70
    64
  0
VERTEX
  5
4E0
330
46B
100
AcDbEntity
  8
0
  6
Continuous
100
AcDbVertex
100
AcDbPolygonMeshVertex
 10
233.4529037729536
 20
104.4399999999999
 30
0.0
 70
    64
  0
VERTEX
  5
4E1
330
46B
100
AcDbEntity
  8
0
  6
Continuous
100
AcDbVertex
100
AcDbPolygonMeshVertex
 10
233.4685837729537
 20
104.4399999999999
 30
0.0
 70
    64
  0
VERTEX
  5
4E2
330
46B
100
AcDbEntity
  8
0
  6
Continuous
100
AcDbVertex
100
AcDbPolygonMeshVertex
 10
233.4842637729536
 20
104.4399999999999
 30
0.0
 70
    64
  0
VERTEX
  5
4E3
330
46B
100
AcDbEntity
  8
0
  6
Continuous
100
AcDbVertex
100
AcDbPolygonMeshVertex
 10
233.4999437729536
 20
104.4399999999999
 30
0.0
 70
    64
  0
VERTEX
  5
4E4
330
46B
100
AcDbEntity
  8
0
  6
Continuous
100
AcDbVertex
100
AcDbPolygonMeshVertex
 10
233.5156237729536
 20
104.4399999999999
 30
0.0
 70
    64
  0
VERTEX
  5
4E5
330
46B
100
AcDbEntity
  8
0
  6
Continuous
100
AcDbVertex
100
AcDbPolygonMeshVertex
 10
233.5313037729536
 20
104.4399999999999
 30
0.0
 70
    64
  0
VERTEX
  5
4E6
330
46B
100
AcDbEntity
  8
0
  6
Continuous
100
AcDbVertex
100
AcDbPolygonMeshVertex
 10
233.5469837729537
 20
104.4399999999999
 30
0.0
 70
    64
  0
VERTEX
  5
4E7
330
46B
100
AcDbEntity
  8
0
  6
Continuous
100
AcDbVertex
100
AcDbPolygonMeshVertex
 10
233.5626637729536
 20
104.4399999999999
 30
0.0
 70
    64
  0
VERTEX
  5
4E8
330
46B
100
AcDbEntity
  8
0
  6
Continuous
100
AcDbVertex
100
AcDbPolygonMeshVertex
 10
233.5783437729536
 20
104.4399999999999
 30
0.0
 70
    64
  0
VERTEX
  5
4E9
330
46B
100
AcDbEntity
  8
0
  6
Continuous
100
AcDbVertex
100
AcDbPolygonMeshVertex
 10
233.5940237729536
 20
104.4399999999999
 30
0.0
 70
    64
  0
VERTEX
  5
4EA
330
46B
100
AcDbEntity
  8
0
  6
Continuous
100
AcDbVertex
100
AcDbPolygonMeshVertex
 10
233.6097037729536
 20
104.4399999999999
 30
0.0
 70
    64
  0
VERTEX
  5
4EB
330
46B
100
AcDbEntity
  8
0
  6
Continuous
100
AcDbVertex
100
AcDbPolygonMeshVertex
 10
233.6253837729536
 20
104.4399999999999
 30
0.0
 70
    64
  0
VERTEX
  5
4EC
330
46B
100
AcDbEntity
  8
0
  6
Continuous
100
AcDbVertex
100
AcDbPolygonMeshVertex
 10
233.6410637729536
 20
104.4399999999999
 30
0.0
 70
    64
  0
VERTEX
  5
4ED
330
46B
100
AcDbEntity
  8
0
  6
Continuous
100
AcDbVertex
100
AcDbPolygonMeshVertex
 10
233.6567437729537
 20
104.4399999999999
 30
0.0
 70
    64
  0
VERTEX
  5
4EE
330
46B
100
AcDbEntity
  8
0
  6
Continuous
100
AcDbVertex
100
AcDbPolygonMeshVertex
 10
233.6724237729536
 20
104.4399999999999
 30
0.0
 70
    64
  0
VERTEX
  5
4EF
330
46B
100
AcDbEntity
  8
0
  6
Continuous
100
AcDbVertex
100
AcDbPolygonMeshVertex
 10
233.6881037729536
 20
104.4399999999999
 30
0.0
 70
    64
  0
VERTEX
  5
4F0
330
46B
100
AcDbEntity
  8
0
  6
Continuous
100
AcDbVertex
100
AcDbPolygonMeshVertex
 10
233.7037837729536
 20
104.4399999999999
 30
0.0
 70
    64
  0
VERTEX
  5
4F1
330
46B
100
AcDbEntity
  8
0
  6
Continuous
100
AcDbVertex
100
AcDbPolygonMeshVertex
 10
233.7194637729536
 20
104.4399999999999
 30
0.0
 70
    64
  0
VERTEX
  5
4F2
330
46B
100
AcDbEntity
  8
0
  6
Continuous
100
AcDbVertex
100
AcDbPolygonMeshVertex
 10
233.7351437729537
 20
104.4399999999999
 30
0.0
 70
    64
  0
VERTEX
  5
4F3
330
46B
100
AcDbEntity
  8
0
  6
Continuous
100
AcDbVertex
100
AcDbPolygonMeshVertex
 10
233.7508237729536
 20
104.4399999999999
 30
0.0
 70
    64
  0
VERTEX
  5
4F4
330
46B
100
AcDbEntity
  8
0
  6
Continuous
100
AcDbVertex
100
AcDbPolygonMeshVertex
 10
233.7665037729536
 20
104.4399999999999
 30
0.0
 70
    64
  0
VERTEX
  5
4F5
330
46B
100
AcDbEntity
  8
0
  6
Continuous
100
AcDbVertex
100
AcDbPolygonMeshVertex
 10
233.7821837729536
 20
104.4399999999999
 30
0.0
 70
    64
  0
VERTEX
  5
4F6
330
46B
100
AcDbEntity
  8
0
  6
Continuous
100
AcDbVertex
100
AcDbPolygonMeshVertex
 10
233.7978637729536
 20
104.4399999999999
 30
0.0
 70
    64
  0
VERTEX
  5
4F7
330
46B
100
AcDbEntity
  8
0
  6
Continuous
100
AcDbVertex
100
AcDbPolygonMeshVertex
 10
233.8135437729536
 20
104.4399999999999
 30
0.0
 70
    64
  0
VERTEX
  5
4F8
330
46B
100
AcDbEntity
  8
0
  6
Continuous
100
AcDbVertex
100
AcDbPolygonMeshVertex
 10
233.8292237729536
 20
104.4399999999999
 30
0.0
 70
    64
  0
VERTEX
  5
4F9
330
46B
100
AcDbEntity
  8
0
  6
Continuous
100
AcDbVertex
100
AcDbPolygonMeshVertex
 10
233.8449037729536
 20
104.4399999999999
 30
0.0
 70
    64
  0
VERTEX
  5
4FA
330
46B
100
AcDbEntity
  8
0
  6
Continuous
100
AcDbVertex
100
AcDbPolygonMeshVertex
 10
233.8605837729536
 20
104.4399999999999
 30
0.0
 70
    64
  0
VERTEX
  5
4FB
330
46B
100
AcDbEntity
  8
0
  6
Continuous
100
AcDbVertex
100
AcDbPolygonMeshVertex
 10
233.8762637729536
 20
104.4399999999999
 30
0.0
 70
    64
  0
VERTEX
  5
4FC
330
46B
100
AcDbEntity
  8
0
  6
Continuous
100
AcDbVertex
100
AcDbPolygonMeshVertex
 10
233.8919437729536
 20
104.4399999999999
 30
0.0
 70
    64
  0
VERTEX
  5
4FD
330
46B
100
AcDbEntity
  8
0
  6
Continuous
100
AcDbVertex
100
AcDbPolygonMeshVertex
 10
233.9076237729536
 20
104.4399999999999
 30
0.0
 70
    64
  0
VERTEX
  5
4FE
330
46B
100
AcDbEntity
  8
0
  6
Continuous
100
AcDbVertex
100
AcDbPolygonMeshVertex
 10
233.9233037729536
 20
104.4399999999999
 30
0.0
 70
    64
  0
VERTEX
  5
4FF
330
46B
100
AcDbEntity
  8
0
  6
Continuous
100
AcDbVertex
100
AcDbPolygonMeshVertex
 10
233.9389837729536
 20
104.4399999999999
 30
0.0
 70
    64
  0
VERTEX
  5
500
330
46B
100
AcDbEntity
  8
0
  6
Continuous
100
AcDbVertex
100
AcDbPolygonMeshVertex
 10
233.9546637729536
 20
104.4399999999999
 30
0.0
 70
    64
  0
VERTEX
  5
501
330
46B
100
AcDbEntity
  8
0
  6
Continuous
100
AcDbVertex
100
AcDbPolygonMeshVertex
 10
233.9703437729537
 20
104.4399999999999
 30
0.0
 70
    64
  0
VERTEX
  5
502
330
46B
100
AcDbEntity
  8
0
  6
Continuous
100
AcDbVertex
100
AcDbPolygonMeshVertex
 10
233.9860237729536
 20
104.4399999999999
 30
0.0
 70
    64
  0
VERTEX
  5
503
330
46B
100
AcDbEntity
  8
0
  6
Continuous
100
AcDbVertex
100
AcDbPolygonMeshVertex
 10
234.0017037729536
 20
104.4399999999999
 30
0.0
 70
    64
  0
VERTEX
  5
504
330
46B
100
AcDbEntity
  8
0
  6
Continuous
100
AcDbVertex
100
AcDbPolygonMeshVertex
 10
234.0173837729536
 20
104.4399999999999
 30
0.0
 70
    64
  0
VERTEX
  5
505
330
46B
100
AcDbEntity
  8
0
  6
Continuous
100
AcDbVertex
100
AcDbPolygonMeshVertex
 10
234.0330637729536
 20
104.4399999999999
 30
0.0
 70
    64
  0
VERTEX
  5
506
330
46B
100
AcDbEntity
  8
0
  6
Continuous
100
AcDbVertex
100
AcDbPolygonMeshVertex
 10
234.0487437729537
 20
104.4399999999999
 30
0.0
 70
    64
  0
VERTEX
  5
507
330
46B
100
AcDbEntity
  8
0
  6
Continuous
100
AcDbVertex
100
AcDbPolygonMeshVertex
 10
234.0644237729536
 20
104.4399999999999
 30
0.0
 70
    64
  0
VERTEX
  5
508
330
46B
100
AcDbEntity
  8
0
  6
Continuous
100
AcDbVertex
100
AcDbPolygonMeshVertex
 10
234.0801037729536
 20
104.4399999999999
 30
0.0
 70
    64
  0
VERTEX
  5
509
330
46B
100
AcDbEntity
  8
0
  6
Continuous
100
AcDbVertex
100
AcDbPolygonMeshVertex
 10
234.0957837729536
 20
104.4399999999999
 30
0.0
 70
    64
  0
VERTEX
  5
50A
330
46B
100
AcDbEntity
  8
0
  6
Continuous
100
AcDbVertex
100
AcDbPolygonMeshVertex
 10
234.1114637729536
 20
104.4399999999999
 30
0.0
 70
    64
  0
VERTEX
  5
50B
330
46B
100
AcDbEntity
  8
0
  6
Continuous
100
AcDbVertex
100
AcDbPolygonMeshVertex
 10
234.1271437729536
 20
104.4399999999999
 30
0.0
 70
    64
  0
VERTEX
  5
50C
330
46B
100
AcDbEntity
  8
0
  6
Continuous
100
AcDbVertex
100
AcDbPolygonMeshVertex
 10
234.1428237729536
 20
104.4399999999999
 30
0.0
 70
    64
  0
VERTEX
  5
50D
330
46B
100
AcDbEntity
  8
0
  6
Continuous
100
AcDbVertex
100
AcDbPolygonMeshVertex
 10
234.1585037729536
 20
104.4399999999999
 30
0.0
 70
    64
  0
VERTEX
  5
50E
330
46B
100
AcDbEntity
  8
0
  6
Continuous
100
AcDbVertex
100
AcDbPolygonMeshVertex
 10
234.1741837729536
 20
104.4399999999999
 30
0.0
 70
    64
  0
VERTEX
  5
50F
330
46B
100
AcDbEntity
  8
0
  6
Continuous
100
AcDbVertex
100
AcDbPolygonMeshVertex
 10
234.1898637729536
 20
104.4399999999999
 30
0.0
 70
    64
  0
VERTEX
  5
510
330
46B
100
AcDbEntity
  8
0
  6
Continuous
100
AcDbVertex
100
AcDbPolygonMeshVertex
 10
234.2055437729536
 20
104.4399999999999
 30
0.0
 70
    64
  0
VERTEX
  5
511
330
46B
100
AcDbEntity
  8
0
  6
Continuous
100
AcDbVertex
100
AcDbPolygonMeshVertex
 10
234.2212237729536
 20
104.4399999999999
 30
0.0
 70
    64
  0
VERTEX
  5
512
330
46B
100
AcDbEntity
  8
0
  6
Continuous
100
AcDbVertex
100
AcDbPolygonMeshVertex
 10
234.2369037729536
 20
104.4399999999999
 30
0.0
 70
    64
  0
VERTEX
  5
513
330
46B
100
AcDbEntity
  8
0
  6
Continuous
100
AcDbVertex
100
AcDbPolygonMeshVertex
 10
234.2525837729537
 20
104.4399999999999
 30
0.0
 70
    64
  0
VERTEX
  5
514
330
46B
100
AcDbEntity
  8
0
  6
Continuous
100
AcDbVertex
100
AcDbPolygonMeshVertex
 10
234.2682637729536
 20
104.4399999999999
 30
0.0
 70
    64
  0
VERTEX
  5
515
330
46B
100
AcDbEntity
  8
0
  6
Continuous
100
AcDbVertex
100
AcDbPolygonMeshVertex
 10
234.2839437729536
 20
104.4399999999999
 30
0.0
 70
    64
  0
VERTEX
  5
516
330
46B
100
AcDbEntity
  8
0
  6
Continuous
100
AcDbVertex
100
AcDbPolygonMeshVertex
 10
234.2996237729536
 20
104.4399999999999
 30
0.0
 70
    64
  0
VERTEX
  5
517
330
46B
100
AcDbEntity
  8
0
  6
Continuous
100
AcDbVertex
100
AcDbPolygonMeshVertex
 10
234.3153037729536
 20
104.4399999999999
 30
0.0
 70
    64
  0
VERTEX
  5
518
330
46B
100
AcDbEntity
  8
0
  6
Continuous
100
AcDbVertex
100
AcDbPolygonMeshVertex
 10
234.3309837729536
 20
104.4399999999999
 30
0.0
 70
    64
  0
VERTEX
  5
519
330
46B
100
AcDbEntity
  8
0
  6
Continuous
100
AcDbVertex
100
AcDbPolygonMeshVertex
 10
234.3466637729536
 20
104.4399999999999
 30
0.0
 70
    64
  0
VERTEX
  5
51A
330
46B
100
AcDbEntity
  8
0
  6
Continuous
100
AcDbVertex
100
AcDbPolygonMeshVertex
 10
234.3623437729537
 20
104.4399999999999
 30
0.0
 70
    64
  0
VERTEX
  5
51B
330
46B
100
AcDbEntity
  8
0
  6
Continuous
100
AcDbVertex
100
AcDbPolygonMeshVertex
 10
234.3780237729536
 20
104.4399999999999
 30
0.0
 70
    64
  0
VERTEX
  5
51C
330
46B
100
AcDbEntity
  8
0
  6
Continuous
100
AcDbVertex
100
AcDbPolygonMeshVertex
 10
234.3937037729537
 20
104.4399999999999
 30
0.0
 70
    64
  0
VERTEX
  5
51D
330
46B
100
AcDbEntity
  8
0
  6
Continuous
100
AcDbVertex
100
AcDbPolygonMeshVertex
 10
234.4093837729536
 20
104.4399999999999
 30
0.0
 70
    64
  0
VERTEX
  5
51E
330
46B
100
AcDbEntity
  8
0
  6
Continuous
100
AcDbVertex
100
AcDbPolygonMeshVertex
 10
234.4250637729536
 20
104.4399999999999
 30
0.0
 70
    64
  0
VERTEX
  5
51F
330
46B
100
AcDbEntity
  8
0
  6
Continuous
100
AcDbVertex
100
AcDbPolygonMeshVertex
 10
234.4407437729536
 20
104.4399999999999
 30
0.0
 70
    64
  0
VERTEX
  5
520
330
46B
100
AcDbEntity
  8
0
  6
Continuous
100
AcDbVertex
100
AcDbPolygonMeshVertex
 10
234.4564237729536
 20
104.4399999999999
 30
0.0
 70
    64
  0
VERTEX
  5
521
330
46B
100
AcDbEntity
  8
0
  6
Continuous
100
AcDbVertex
100
AcDbPolygonMeshVertex
 10
234.4721037729536
 20
104.4399999999999
 30
0.0
 70
    64
  0
VERTEX
  5
522
330
46B
100
AcDbEntity
  8
0
  6
Continuous
100
AcDbVertex
100
AcDbPolygonMeshVertex
 10
234.4877837729536
 20
104.4399999999999
 30
0.0
 70
    64
  0
VERTEX
  5
523
330
46B
100
AcDbEntity
  8
0
  6
Continuous
100
AcDbVertex
100
AcDbPolygonMeshVertex
 10
234.5034637729536
 20
104.4399999999999
 30
0.0
 70
    64
  0
VERTEX
  5
524
330
46B
100
AcDbEntity
  8
0
  6
Continuous
100
AcDbVertex
100
AcDbPolygonMeshVertex
 10
234.5191437729536
 20
104.4399999999999
 30
0.0
 70
    64
  0
VERTEX
  5
525
330
46B
100
AcDbEntity
  8
0
  6
Continuous
100
AcDbVertex
100
AcDbPolygonMeshVertex
 10
234.5348237729536
 20
104.4399999999999
 30
0.0
 70
    64
  0
VERTEX
  5
526
330
46B
100
AcDbEntity
  8
0
  6
Continuous
100
AcDbVertex
100
AcDbPolygonMeshVertex
 10
234.5505037729537
 20
104.4399999999999
 30
0.0
 70
    64
  0
VERTEX
  5
527
330
46B
100
AcDbEntity
  8
0
  6
Continuous
100
AcDbVertex
100
AcDbPolygonMeshVertex
 10
234.5661837729536
 20
104.4399999999999
 30
0.0
 70
    64
  0
VERTEX
  5
528
330
46B
100
AcDbEntity
  8
0
  6
Continuous
100
AcDbVertex
100
AcDbPolygonMeshVertex
 10
234.5818637729536
 20
104.4399999999999
 30
0.0
 70
    64
  0
VERTEX
  5
529
330
46B
100
AcDbEntity
  8
0
  6
Continuous
100
AcDbVertex
100
AcDbPolygonMeshVertex
 10
234.5975437729536
 20
104.4399999999999
 30
0.0
 70
    64
  0
VERTEX
  5
52A
330
46B
100
AcDbEntity
  8
0
  6
Continuous
100
AcDbVertex
100
AcDbPolygonMeshVertex
 10
234.6132237729536
 20
104.4399999999999
 30
0.0
 70
    64
  0
VERTEX
  5
52B
330
46B
100
AcDbEntity
  8
0
  6
Continuous
100
AcDbVertex
100
AcDbPolygonMeshVertex
 10
234.6289037729536
 20
104.4399999999999
 30
0.0
 70
    64
  0
VERTEX
  5
52C
330
46B
100
AcDbEntity
  8
0
  6
Continuous
100
AcDbVertex
100
AcDbPolygonMeshVertex
 10
234.6445837729536
 20
104.4399999999999
 30
0.0
 70
    64
  0
VERTEX
  5
52D
330
46B
100
AcDbEntity
  8
0
  6
Continuous
100
AcDbVertex
100
AcDbPolygonMeshVertex
 10
234.6602637729536
 20
104.4399999999999
 30
0.0
 70
    64
  0
VERTEX
  5
52E
330
46B
100
AcDbEntity
  8
0
  6
Continuous
100
AcDbVertex
100
AcDbPolygonMeshVertex
 10
234.6759437729536
 20
104.4399999999999
 30
0.0
 70
    64
  0
VERTEX
  5
52F
330
46B
100
AcDbEntity
  8
0
  6
Continuous
100
AcDbVertex
100
AcDbPolygonMeshVertex
 10
234.6916237729536
 20
104.4399999999999
 30
0.0
 70
    64
  0
VERTEX
  5
530
330
46B
100
AcDbEntity
  8
0
  6
Continuous
100
AcDbVertex
100
AcDbPolygonMeshVertex
 10
234.7073037729536
 20
104.4399999999999
 30
0.0
 70
    64
  0
VERTEX
  5
531
330
46B
100
AcDbEntity
  8
0
  6
Continuous
100
AcDbVertex
100
AcDbPolygonMeshVertex
 10
234.7229837729536
 20
104.4399999999999
 30
0.0
 70
    64
  0
VERTEX
  5
532
330
46B
100
AcDbEntity
  8
0
  6
Continuous
100
AcDbVertex
100
AcDbPolygonMeshVertex
 10
234.7386637729536
 20
104.4399999999999
 30
0.0
 70
    64
  0
VERTEX
  5
533
330
46B
100
AcDbEntity
  8
0
  6
Continuous
100
AcDbVertex
100
AcDbPolygonMeshVertex
 10
234.7543437729536
 20
104.4399999999999
 30
0.0
 70
    64
  0
VERTEX
  5
534
330
46B
100
AcDbEntity
  8
0
  6
Continuous
100
AcDbVertex
100
AcDbPolygonMeshVertex
 10
234.7700237729536
 20
104.4399999999999
 30
0.0
 70
    64
  0
VERTEX
  5
535
330
46B
100
AcDbEntity
  8
0
  6
Continuous
100
AcDbVertex
100
AcDbPolygonMeshVertex
 10
234.7857037729536
 20
104.4399999999999
 30
0.0
 70
    64
  0
VERTEX
  5
536
330
46B
100
AcDbEntity
  8
0
  6
Continuous
100
AcDbVertex
100
AcDbPolygonMeshVertex
 10
234.8013837729536
 20
104.4399999999999
 30
0.0
 70
    64
  0
VERTEX
  5
537
330
46B
100
AcDbEntity
  8
0
  6
Continuous
100
AcDbVertex
100
AcDbPolygonMeshVertex
 10
234.8170637729536
 20
104.4399999999999
 30
0.0
 70
    64
  0
VERTEX
  5
538
330
46B
100
AcDbEntity
  8
0
  6
Continuous
100
AcDbVertex
100
AcDbPolygonMeshVertex
 10
234.8327437729536
 20
104.4399999999999
 30
0.0
 70
    64
  0
VERTEX
  5
539
330
46B
100
AcDbEntity
  8
0
  6
Continuous
100
AcDbVertex
100
AcDbPolygonMeshVertex
 10
234.8484237729536
 20
104.4399999999999
 30
0.0
 70
    64
  0
VERTEX
  5
53A
330
46B
100
AcDbEntity
  8
0
  6
Continuous
100
AcDbVertex
100
AcDbPolygonMeshVertex
 10
234.8641037729536
 20
104.4399999999999
 30
0.0
 70
    64
  0
VERTEX
  5
53B
330
46B
100
AcDbEntity
  8
0
  6
Continuous
100
AcDbVertex
100
AcDbPolygonMeshVertex
 10
234.8797837729536
 20
104.4399999999999
 30
0.0
 70
    64
  0
VERTEX
  5
53C
330
46B
100
AcDbEntity
  8
0
  6
Continuous
100
AcDbVertex
100
AcDbPolygonMeshVertex
 10
234.8954637729536
 20
104.4399999999999
 30
0.0
 70
    64
  0
VERTEX
  5
53D
330
46B
100
AcDbEntity
  8
0
  6
Continuous
100
AcDbVertex
100
AcDbPolygonMeshVertex
 10
234.9111437729536
 20
104.4399999999999
 30
0.0
 70
    64
  0
VERTEX
  5
53E
330
46B
100
AcDbEntity
  8
0
  6
Continuous
100
AcDbVertex
100
AcDbPolygonMeshVertex
 10
234.9268237729536
 20
104.4399999999999
 30
0.0
 70
    64
  0
VERTEX
  5
53F
330
46B
100
AcDbEntity
  8
0
  6
Continuous
100
AcDbVertex
100
AcDbPolygonMeshVertex
 10
234.9425037729536
 20
104.4399999999999
 30
0.0
 70
    64
  0
VERTEX
  5
540
330
46B
100
AcDbEntity
  8
0
  6
Continuous
100
AcDbVertex
100
AcDbPolygonMeshVertex
 10
234.9581837729536
 20
104.4399999999999
 30
0.0
 70
    64
  0
VERTEX
  5
541
330
46B
100
AcDbEntity
  8
0
  6
Continuous
100
AcDbVertex
100
AcDbPolygonMeshVertex
 10
234.9738637729536
 20
104.4399999999999
 30
0.0
 70
    64
  0
VERTEX
  5
542
330
46B
100
AcDbEntity
  8
0
  6
Continuous
100
AcDbVertex
100
AcDbPolygonMeshVertex
 10
234.9895437729536
 20
104.4399999999999
 30
0.0
 70
    64
  0
VERTEX
  5
543
330
46B
100
AcDbEntity
  8
0
  6
Continuous
100
AcDbVertex
100
AcDbPolygonMeshVertex
 10
235.0052237729536
 20
104.4399999999999
 30
0.0
 70
    64
  0
VERTEX
  5
544
330
46B
100
AcDbEntity
  8
0
  6
Continuous
100
AcDbVertex
100
AcDbPolygonMeshVertex
 10
235.0209037729535
 20
104.4399999999999
 30
0.0
 70
    64
  0
VERTEX
  5
545
330
46B
100
AcDbEntity
  8
0
  6
Continuous
100
AcDbVertex
100
AcDbPolygonMeshVertex
 10
235.0365837729536
 20
104.4399999999999
 30
0.0
 70
    64
  0
VERTEX
  5
546
330
46B
100
AcDbEntity
  8
0
  6
Continuous
100
AcDbVertex
100
AcDbPolygonMeshVertex
 10
235.0522637729536
 20
104.4399999999999
 30
0.0
 70
    64
  0
VERTEX
  5
547
330
46B
100
AcDbEntity
  8
0
  6
Continuous
100
AcDbVertex
100
AcDbPolygonMeshVertex
 10
235.0679437729536
 20
104.4399999999999
 30
0.0
 70
    64
  0
VERTEX
  5
548
330
46B
100
AcDbEntity
  8
0
  6
Continuous
100
AcDbVertex
100
AcDbPolygonMeshVertex
 10
235.0836237729536
 20
104.4399999999999
 30
0.0
 70
    64
  0
VERTEX
  5
549
330
46B
100
AcDbEntity
  8
0
  6
Continuous
100
AcDbVertex
100
AcDbPolygonMeshVertex
 10
235.0993037729537
 20
104.4399999999999
 30
0.0
 70
    64
  0
VERTEX
  5
54A
330
46B
100
AcDbEntity
  8
0
  6
Continuous
100
AcDbVertex
100
AcDbPolygonMeshVertex
 10
235.1149837729536
 20
104.4399999999999
 30
0.0
 70
    64
  0
VERTEX
  5
54B
330
46B
100
AcDbEntity
  8
0
  6
Continuous
100
AcDbVertex
100
AcDbPolygonMeshVertex
 10
235.1306637729536
 20
104.4399999999999
 30
0.0
 70
    64
  0
VERTEX
  5
54C
330
46B
100
AcDbEntity
  8
0
  6
Continuous
100
AcDbVertex
100
AcDbPolygonMeshVertex
 10
235.1463437729536
 20
104.4399999999999
 30
0.0
 70
    64
  0
VERTEX
  5
54D
330
46B
100
AcDbEntity
  8
0
  6
Continuous
100
AcDbVertex
100
AcDbPolygonMeshVertex
 10
235.1620237729536
 20
104.4399999999999
 30
0.0
 70
    64
  0
VERTEX
  5
54E
330
46B
100
AcDbEntity
  8
0
  6
Continuous
100
AcDbVertex
100
AcDbPolygonMeshVertex
 10
235.1777037729536
 20
104.4399999999999
 30
0.0
 70
    64
  0
VERTEX
  5
54F
330
46B
100
AcDbEntity
  8
0
  6
Continuous
100
AcDbVertex
100
AcDbPolygonMeshVertex
 10
235.1933837729536
 20
104.4399999999999
 30
0.0
 70
    64
  0
VERTEX
  5
550
330
46B
100
AcDbEntity
  8
0
  6
Continuous
100
AcDbVertex
100
AcDbPolygonMeshVertex
 10
235.2090637729536
 20
104.4399999999999
 30
0.0
 70
    64
  0
VERTEX
  5
551
330
46B
100
AcDbEntity
  8
0
  6
Continuous
100
AcDbVertex
100
AcDbPolygonMeshVertex
 10
235.2247437729536
 20
104.4399999999999
 30
0.0
 70
    64
  0
VERTEX
  5
552
330
46B
100
AcDbEntity
  8
0
  6
Continuous
100
AcDbVertex
100
AcDbPolygonMeshVertex
 10
235.2404237729536
 20
104.4399999999999
 30
0.0
 70
    64
  0
VERTEX
  5
553
330
46B
100
AcDbEntity
  8
0
  6
Continuous
100
AcDbVertex
100
AcDbPolygonMeshVertex
 10
235.2561037729536
 20
104.4399999999999
 30
0.0
 70
    64
  0
VERTEX
  5
554
330
46B
100
AcDbEntity
  8
0
  6
Continuous
100
AcDbVertex
100
AcDbPolygonMeshVertex
 10
235.2717837729536
 20
104.4399999999999
 30
0.0
 70
    64
  0
VERTEX
  5
555
330
46B
100
AcDbEntity
  8
0
  6
Continuous
100
AcDbVertex
100
AcDbPolygonMeshVertex
 10
235.2874637729536
 20
104.4399999999999
 30
0.0
 70
    64
  0
VERTEX
  5
556
330
46B
100
AcDbEntity
  8
0
  6
Continuous
100
AcDbVertex
100
AcDbPolygonMeshVertex
 10
235.3031437729536
 20
104.4399999999999
 30
0.0
 70
    64
  0
VERTEX
  5
557
330
46B
100
AcDbEntity
  8
0
  6
Continuous
100
AcDbVertex
100
AcDbPolygonMeshVertex
 10
235.3188237729536
 20
104.4399999999999
 30
0.0
 70
    64
  0
VERTEX
  5
558
330
46B
100
AcDbEntity
  8
0
  6
Continuous
100
AcDbVertex
100
AcDbPolygonMeshVertex
 10
235.3345037729535
 20
104.4399999999999
 30
0.0
 70
    64
  0
VERTEX
  5
559
330
46B
100
AcDbEntity
  8
0
  6
Continuous
100
AcDbVertex
100
AcDbPolygonMeshVertex
 10
235.3501837729536
 20
104.4399999999999
 30
0.0
 70
    64
  0
VERTEX
  5
55A
330
46B
100
AcDbEntity
  8
0
  6
Continuous
100
AcDbVertex
100
AcDbPolygonMeshVertex
 10
235.3658637729536
 20
104.4399999999999
 30
0.0
 70
    64
  0
VERTEX
  5
55B
330
46B
100
AcDbEntity
  8
0
  6
Continuous
100
AcDbVertex
100
AcDbPolygonMeshVertex
 10
235.3815437729536
 20
104.4399999999999
 30
0.0
 70
    64
  0
VERTEX
  5
55C
330
46B
100
AcDbEntity
  8
0
  6
Continuous
100
AcDbVertex
100
AcDbPolygonMeshVertex
 10
235.3972237729536
 20
104.4399999999999
 30
0.0
 70
    64
  0
VERTEX
  5
55D
330
46B
100
AcDbEntity
  8
0
  6
Continuous
100
AcDbVertex
100
AcDbPolygonMeshVertex
 10
235.4129037729536
 20
104.4399999999999
 30
0.0
 70
    64
  0
VERTEX
  5
55E
330
46B
100
AcDbEntity
  8
0
  6
Continuous
100
AcDbVertex
100
AcDbPolygonMeshVertex
 10
235.4285837729536
 20
104.4399999999999
 30
0.0
 70
    64
  0
VERTEX
  5
55F
330
46B
100
AcDbEntity
  8
0
  6
Continuous
100
AcDbVertex
100
AcDbPolygonMeshVertex
 10
235.4442637729536
 20
104.4399999999999
 30
0.0
 70
    64
  0
VERTEX
  5
560
330
46B
100
AcDbEntity
  8
0
  6
Continuous
100
AcDbVertex
100
AcDbPolygonMeshVertex
 10
235.4599437729536
 20
104.4399999999999
 30
0.0
 70
    64
  0
VERTEX
  5
561
330
46B
100
AcDbEntity
  8
0
  6
Continuous
100
AcDbVertex
100
AcDbPolygonMeshVertex
 10
235.4756237729536
 20
104.4399999999999
 30
0.0
 70
    64
  0
VERTEX
  5
562
330
46B
100
AcDbEntity
  8
0
  6
Continuous
100
AcDbVertex
100
AcDbPolygonMeshVertex
 10
235.4913037729536
 20
104.4399999999999
 30
0.0
 70
    64
  0
VERTEX
  5
563
330
46B
100
AcDbEntity
  8
0
  6
Continuous
100
AcDbVertex
100
AcDbPolygonMeshVertex
 10
235.5069837729536
 20
104.4399999999999
 30
0.0
 70
    64
  0
VERTEX
  5
564
330
46B
100
AcDbEntity
  8
0
  6
Continuous
100
AcDbVertex
100
AcDbPolygonMeshVertex
 10
235.5226637729536
 20
104.4399999999999
 30
0.0
 70
    64
  0
VERTEX
  5
565
330
46B
100
AcDbEntity
  8
0
  6
Continuous
100
AcDbVertex
100
AcDbPolygonMeshVertex
 10
235.5383437729536
 20
104.4399999999999
 30
0.0
 70
    64
  0
VERTEX
  5
566
330
46B
100
AcDbEntity
  8
0
  6
Continuous
100
AcDbVertex
100
AcDbPolygonMeshVertex
 10
235.5540237729536
 20
104.4399999999999
 30
0.0
 70
    64
  0
VERTEX
  5
567
330
46B
100
AcDbEntity
  8
0
  6
Continuous
100
AcDbVertex
100
AcDbPolygonMeshVertex
 10
231.6340237729537
 20
105.56
 30
0.0
 70
    64
  0
VERTEX
  5
568
330
46B
100
AcDbEntity
  8
0
  6
Continuous
100
AcDbVertex
100
AcDbPolygonMeshVertex
 10
231.6497037729536
 20
105.56
 30
0.0
 70
    64
  0
VERTEX
  5
569
330
46B
100
AcDbEntity
  8
0
  6
Continuous
100
AcDbVertex
100
AcDbPolygonMeshVertex
 10
231.6653837729536
 20
105.56
 30
0.0
 70
    64
  0
VERTEX
  5
56A
330
46B
100
AcDbEntity
  8
0
  6
Continuous
100
AcDbVertex
100
AcDbPolygonMeshVertex
 10
231.6810637729536
 20
105.56
 30
0.0
 70
    64
  0
VERTEX
  5
56B
330
46B
100
AcDbEntity
  8
0
  6
Continuous
100
AcDbVertex
100
AcDbPolygonMeshVertex
 10
231.6967437729537
 20
105.56
 30
0.0
 70
    64
  0
VERTEX
  5
56C
330
46B
100
AcDbEntity
  8
0
  6
Continuous
100
AcDbVertex
100
AcDbPolygonMeshVertex
 10
231.7124237729536
 20
105.56
 30
0.0
 70
    64
  0
VERTEX
  5
56D
330
46B
100
AcDbEntity
  8
0
  6
Continuous
100
AcDbVertex
100
AcDbPolygonMeshVertex
 10
231.7281037729536
 20
105.56
 30
0.0
 70
    64
  0
VERTEX
  5
56E
330
46B
100
AcDbEntity
  8
0
  6
Continuous
100
AcDbVertex
100
AcDbPolygonMeshVertex
 10
231.7437837729536
 20
105.56
 30
0.0
 70
    64
  0
VERTEX
  5
56F
330
46B
100
AcDbEntity
  8
0
  6
Continuous
100
AcDbVertex
100
AcDbPolygonMeshVertex
 10
231.7594637729537
 20
105.56
 30
0.0
 70
    64
  0
VERTEX
  5
570
330
46B
100
AcDbEntity
  8
0
  6
Continuous
100
AcDbVertex
100
AcDbPolygonMeshVertex
 10
231.7751437729536
 20
105.56
 30
0.0
 70
    64
  0
VERTEX
  5
571
330
46B
100
AcDbEntity
  8
0
  6
Continuous
100
AcDbVertex
100
AcDbPolygonMeshVertex
 10
231.7908237729536
 20
105.56
 30
0.0
 70
    64
  0
VERTEX
  5
572
330
46B
100
AcDbEntity
  8
0
  6
Continuous
100
AcDbVertex
100
AcDbPolygonMeshVertex
 10
231.8065037729537
 20
105.56
 30
0.0
 70
    64
  0
VERTEX
  5
573
330
46B
100
AcDbEntity
  8
0
  6
Continuous
100
AcDbVertex
100
AcDbPolygonMeshVertex
 10
231.8221837729536
 20
105.56
 30
0.0
 70
    64
  0
VERTEX
  5
574
330
46B
100
AcDbEntity
  8
0
  6
Continuous
100
AcDbVertex
100
AcDbPolygonMeshVertex
 10
231.8378637729537
 20
105.56
 30
0.0
 70
    64
  0
VERTEX
  5
575
330
46B
100
AcDbEntity
  8
0
  6
Continuous
100
AcDbVertex
100
AcDbPolygonMeshVertex
 10
231.8535437729536
 20
105.56
 30
0.0
 70
    64
  0
VERTEX
  5
576
330
46B
100
AcDbEntity
  8
0
  6
Continuous
100
AcDbVertex
100
AcDbPolygonMeshVertex
 10
231.8692237729537
 20
105.56
 30
0.0
 70
    64
  0
VERTEX
  5
577
330
46B
100
AcDbEntity
  8
0
  6
Continuous
100
AcDbVertex
100
AcDbPolygonMeshVertex
 10
231.8849037729536
 20
105.56
 30
0.0
 70
    64
  0
VERTEX
  5
578
330
46B
100
AcDbEntity
  8
0
  6
Continuous
100
AcDbVertex
100
AcDbPolygonMeshVertex
 10
231.9005837729536
 20
105.56
 30
0.0
 70
    64
  0
VERTEX
  5
579
330
46B
100
AcDbEntity
  8
0
  6
Continuous
100
AcDbVertex
100
AcDbPolygonMeshVertex
 10
231.9162637729537
 20
105.56
 30
0.0
 70
    64
  0
VERTEX
  5
57A
330
46B
100
AcDbEntity
  8
0
  6
Continuous
100
AcDbVertex
100
AcDbPolygonMeshVertex
 10
231.9319437729536
 20
105.56
 30
0.0
 70
    64
  0
VERTEX
  5
57B
330
46B
100
AcDbEntity
  8
0
  6
Continuous
100
AcDbVertex
100
AcDbPolygonMeshVertex
 10
231.9476237729537
 20
105.56
 30
0.0
 70
    64
  0
VERTEX
  5
57C
330
46B
100
AcDbEntity
  8
0
  6
Continuous
100
AcDbVertex
100
AcDbPolygonMeshVertex
 10
231.9633037729536
 20
105.56
 30
0.0
 70
    64
  0
VERTEX
  5
57D
330
46B
100
AcDbEntity
  8
0
  6
Continuous
100
AcDbVertex
100
AcDbPolygonMeshVertex
 10
231.9789837729536
 20
105.56
 30
0.0
 70
    64
  0
VERTEX
  5
57E
330
46B
100
AcDbEntity
  8
0
  6
Continuous
100
AcDbVertex
100
AcDbPolygonMeshVertex
 10
231.9946637729537
 20
105.56
 30
0.0
 70
    64
  0
VERTEX
  5
57F
330
46B
100
AcDbEntity
  8
0
  6
Continuous
100
AcDbVertex
100
AcDbPolygonMeshVertex
 10
232.0103437729536
 20
105.56
 30
0.0
 70
    64
  0
VERTEX
  5
580
330
46B
100
AcDbEntity
  8
0
  6
Continuous
100
AcDbVertex
100
AcDbPolygonMeshVertex
 10
232.0260237729537
 20
105.56
 30
0.0
 70
    64
  0
VERTEX
  5
581
330
46B
100
AcDbEntity
  8
0
  6
Continuous
100
AcDbVertex
100
AcDbPolygonMeshVertex
 10
232.0417037729536
 20
105.56
 30
0.0
 70
    64
  0
VERTEX
  5
582
330
46B
100
AcDbEntity
  8
0
  6
Continuous
100
AcDbVertex
100
AcDbPolygonMeshVertex
 10
232.0573837729536
 20
105.56
 30
0.0
 70
    64
  0
VERTEX
  5
583
330
46B
100
AcDbEntity
  8
0
  6
Continuous
100
AcDbVertex
100
AcDbPolygonMeshVertex
 10
232.0730637729536
 20
105.56
 30
0.0
 70
    64
  0
VERTEX
  5
584
330
46B
100
AcDbEntity
  8
0
  6
Continuous
100
AcDbVertex
100
AcDbPolygonMeshVertex
 10
232.0887437729536
 20
105.56
 30
0.0
 70
    64
  0
VERTEX
  5
585
330
46B
100
AcDbEntity
  8
0
  6
Continuous
100
AcDbVertex
100
AcDbPolygonMeshVertex
 10
232.1044237729537
 20
105.56
 30
0.0
 70
    64
  0
VERTEX
  5
586
330
46B
100
AcDbEntity
  8
0
  6
Continuous
100
AcDbVertex
100
AcDbPolygonMeshVertex
 10
232.1201037729537
 20
105.56
 30
0.0
 70
    64
  0
VERTEX
  5
587
330
46B
100
AcDbEntity
  8
0
  6
Continuous
100
AcDbVertex
100
AcDbPolygonMeshVertex
 10
232.1357837729536
 20
105.56
 30
0.0
 70
    64
  0
VERTEX
  5
588
330
46B
100
AcDbEntity
  8
0
  6
Continuous
100
AcDbVertex
100
AcDbPolygonMeshVertex
 10
232.1514637729536
 20
105.56
 30
0.0
 70
    64
  0
VERTEX
  5
589
330
46B
100
AcDbEntity
  8
0
  6
Continuous
100
AcDbVertex
100
AcDbPolygonMeshVertex
 10
232.1671437729536
 20
105.56
 30
0.0
 70
    64
  0
VERTEX
  5
58A
330
46B
100
AcDbEntity
  8
0
  6
Continuous
100
AcDbVertex
100
AcDbPolygonMeshVertex
 10
232.1828237729536
 20
105.56
 30
0.0
 70
    64
  0
VERTEX
  5
58B
330
46B
100
AcDbEntity
  8
0
  6
Continuous
100
AcDbVertex
100
AcDbPolygonMeshVertex
 10
232.1985037729537
 20
105.56
 30
0.0
 70
    64
  0
VERTEX
  5
58C
330
46B
100
AcDbEntity
  8
0
  6
Continuous
100
AcDbVertex
100
AcDbPolygonMeshVertex
 10
232.2141837729536
 20
105.56
 30
0.0
 70
    64
  0
VERTEX
  5
58D
330
46B
100
AcDbEntity
  8
0
  6
Continuous
100
AcDbVertex
100
AcDbPolygonMeshVertex
 10
232.2298637729536
 20
105.56
 30
0.0
 70
    64
  0
VERTEX
  5
58E
330
46B
100
AcDbEntity
  8
0
  6
Continuous
100
AcDbVertex
100
AcDbPolygonMeshVertex
 10
232.2455437729536
 20
105.56
 30
0.0
 70
    64
  0
VERTEX
  5
58F
330
46B
100
AcDbEntity
  8
0
  6
Continuous
100
AcDbVertex
100
AcDbPolygonMeshVertex
 10
232.2612237729537
 20
105.56
 30
0.0
 70
    64
  0
VERTEX
  5
590
330
46B
100
AcDbEntity
  8
0
  6
Continuous
100
AcDbVertex
100
AcDbPolygonMeshVertex
 10
232.2769037729536
 20
105.56
 30
0.0
 70
    64
  0
VERTEX
  5
591
330
46B
100
AcDbEntity
  8
0
  6
Continuous
100
AcDbVertex
100
AcDbPolygonMeshVertex
 10
232.2925837729536
 20
105.56
 30
0.0
 70
    64
  0
VERTEX
  5
592
330
46B
100
AcDbEntity
  8
0
  6
Continuous
100
AcDbVertex
100
AcDbPolygonMeshVertex
 10
232.3082637729537
 20
105.56
 30
0.0
 70
    64
  0
VERTEX
  5
593
330
46B
100
AcDbEntity
  8
0
  6
Continuous
100
AcDbVertex
100
AcDbPolygonMeshVertex
 10
232.3239437729536
 20
105.56
 30
0.0
 70
    64
  0
VERTEX
  5
594
330
46B
100
AcDbEntity
  8
0
  6
Continuous
100
AcDbVertex
100
AcDbPolygonMeshVertex
 10
232.3396237729537
 20
105.56
 30
0.0
 70
    64
  0
VERTEX
  5
595
330
46B
100
AcDbEntity
  8
0
  6
Continuous
100
AcDbVertex
100
AcDbPolygonMeshVertex
 10
232.3553037729536
 20
105.56
 30
0.0
 70
    64
  0
VERTEX
  5
596
330
46B
100
AcDbEntity
  8
0
  6
Continuous
100
AcDbVertex
100
AcDbPolygonMeshVertex
 10
232.3709837729537
 20
105.56
 30
0.0
 70
    64
  0
VERTEX
  5
597
330
46B
100
AcDbEntity
  8
0
  6
Continuous
100
AcDbVertex
100
AcDbPolygonMeshVertex
 10
232.3866637729536
 20
105.56
 30
0.0
 70
    64
  0
VERTEX
  5
598
330
46B
100
AcDbEntity
  8
0
  6
Continuous
100
AcDbVertex
100
AcDbPolygonMeshVertex
 10
232.4023437729536
 20
105.56
 30
0.0
 70
    64
  0
VERTEX
  5
599
330
46B
100
AcDbEntity
  8
0
  6
Continuous
100
AcDbVertex
100
AcDbPolygonMeshVertex
 10
232.4180237729537
 20
105.56
 30
0.0
 70
    64
  0
VERTEX
  5
59A
330
46B
100
AcDbEntity
  8
0
  6
Continuous
100
AcDbVertex
100
AcDbPolygonMeshVertex
 10
232.4337037729536
 20
105.56
 30
0.0
 70
    64
  0
VERTEX
  5
59B
330
46B
100
AcDbEntity
  8
0
  6
Continuous
100
AcDbVertex
100
AcDbPolygonMeshVertex
 10
232.4493837729537
 20
105.56
 30
0.0
 70
    64
  0
VERTEX
  5
59C
330
46B
100
AcDbEntity
  8
0
  6
Continuous
100
AcDbVertex
100
AcDbPolygonMeshVertex
 10
232.4650637729536
 20
105.56
 30
0.0
 70
    64
  0
VERTEX
  5
59D
330
46B
100
AcDbEntity
  8
0
  6
Continuous
100
AcDbVertex
100
AcDbPolygonMeshVertex
 10
232.4807437729536
 20
105.56
 30
0.0
 70
    64
  0
VERTEX
  5
59E
330
46B
100
AcDbEntity
  8
0
  6
Continuous
100
AcDbVertex
100
AcDbPolygonMeshVertex
 10
232.4964237729536
 20
105.56
 30
0.0
 70
    64
  0
VERTEX
  5
59F
330
46B
100
AcDbEntity
  8
0
  6
Continuous
100
AcDbVertex
100
AcDbPolygonMeshVertex
 10
232.5121037729536
 20
105.56
 30
0.0
 70
    64
  0
VERTEX
  5
5A0
330
46B
100
AcDbEntity
  8
0
  6
Continuous
100
AcDbVertex
100
AcDbPolygonMeshVertex
 10
232.5277837729536
 20
105.56
 30
0.0
 70
    64
  0
VERTEX
  5
5A1
330
46B
100
AcDbEntity
  8
0
  6
Continuous
100
AcDbVertex
100
AcDbPolygonMeshVertex
 10
232.5434637729537
 20
105.56
 30
0.0
 70
    64
  0
VERTEX
  5
5A2
330
46B
100
AcDbEntity
  8
0
  6
Continuous
100
AcDbVertex
100
AcDbPolygonMeshVertex
 10
232.5591437729536
 20
105.56
 30
0.0
 70
    64
  0
VERTEX
  5
5A3
330
46B
100
AcDbEntity
  8
0
  6
Continuous
100
AcDbVertex
100
AcDbPolygonMeshVertex
 10
232.5748237729536
 20
105.56
 30
0.0
 70
    64
  0
VERTEX
  5
5A4
330
46B
100
AcDbEntity
  8
0
  6
Continuous
100
AcDbVertex
100
AcDbPolygonMeshVertex
 10
232.5905037729536
 20
105.56
 30
0.0
 70
    64
  0
VERTEX
  5
5A5
330
46B
100
AcDbEntity
  8
0
  6
Continuous
100
AcDbVertex
100
AcDbPolygonMeshVertex
 10
232.6061837729536
 20
105.56
 30
0.0
 70
    64
  0
VERTEX
  5
5A6
330
46B
100
AcDbEntity
  8
0
  6
Continuous
100
AcDbVertex
100
AcDbPolygonMeshVertex
 10
232.6218637729537
 20
105.56
 30
0.0
 70
    64
  0
VERTEX
  5
5A7
330
46B
100
AcDbEntity
  8
0
  6
Continuous
100
AcDbVertex
100
AcDbPolygonMeshVertex
 10
232.6375437729536
 20
105.56
 30
0.0
 70
    64
  0
VERTEX
  5
5A8
330
46B
100
AcDbEntity
  8
0
  6
Continuous
100
AcDbVertex
100
AcDbPolygonMeshVertex
 10
232.6532237729536
 20
105.56
 30
0.0
 70
    64
  0
VERTEX
  5
5A9
330
46B
100
AcDbEntity
  8
0
  6
Continuous
100
AcDbVertex
100
AcDbPolygonMeshVertex
 10
232.6689037729536
 20
105.56
 30
0.0
 70
    64
  0
VERTEX
  5
5AA
330
46B
100
AcDbEntity
  8
0
  6
Continuous
100
AcDbVertex
100
AcDbPolygonMeshVertex
 10
232.6845837729536
 20
105.56
 30
0.0
 70
    64
  0
VERTEX
  5
5AB
330
46B
100
AcDbEntity
  8
0
  6
Continuous
100
AcDbVertex
100
AcDbPolygonMeshVertex
 10
232.7002637729536
 20
105.56
 30
0.0
 70
    64
  0
VERTEX
  5
5AC
330
46B
100
AcDbEntity
  8
0
  6
Continuous
100
AcDbVertex
100
AcDbPolygonMeshVertex
 10
232.7159437729536
 20
105.56
 30
0.0
 70
    64
  0
VERTEX
  5
5AD
330
46B
100
AcDbEntity
  8
0
  6
Continuous
100
AcDbVertex
100
AcDbPolygonMeshVertex
 10
232.7316237729536
 20
105.56
 30
0.0
 70
    64
  0
VERTEX
  5
5AE
330
46B
100
AcDbEntity
  8
0
  6
Continuous
100
AcDbVertex
100
AcDbPolygonMeshVertex
 10
232.7473037729536
 20
105.56
 30
0.0
 70
    64
  0
VERTEX
  5
5AF
330
46B
100
AcDbEntity
  8
0
  6
Continuous
100
AcDbVertex
100
AcDbPolygonMeshVertex
 10
232.7629837729537
 20
105.56
 30
0.0
 70
    64
  0
VERTEX
  5
5B0
330
46B
100
AcDbEntity
  8
0
  6
Continuous
100
AcDbVertex
100
AcDbPolygonMeshVertex
 10
232.7786637729536
 20
105.56
 30
0.0
 70
    64
  0
VERTEX
  5
5B1
330
46B
100
AcDbEntity
  8
0
  6
Continuous
100
AcDbVertex
100
AcDbPolygonMeshVertex
 10
232.7943437729536
 20
105.56
 30
0.0
 70
    64
  0
VERTEX
  5
5B2
330
46B
100
AcDbEntity
  8
0
  6
Continuous
100
AcDbVertex
100
AcDbPolygonMeshVertex
 10
232.8100237729537
 20
105.56
 30
0.0
 70
    64
  0
VERTEX
  5
5B3
330
46B
100
AcDbEntity
  8
0
  6
Continuous
100
AcDbVertex
100
AcDbPolygonMeshVertex
 10
232.8257037729536
 20
105.56
 30
0.0
 70
    64
  0
VERTEX
  5
5B4
330
46B
100
AcDbEntity
  8
0
  6
Continuous
100
AcDbVertex
100
AcDbPolygonMeshVertex
 10
232.8413837729537
 20
105.56
 30
0.0
 70
    64
  0
VERTEX
  5
5B5
330
46B
100
AcDbEntity
  8
0
  6
Continuous
100
AcDbVertex
100
AcDbPolygonMeshVertex
 10
232.8570637729536
 20
105.56
 30
0.0
 70
    64
  0
VERTEX
  5
5B6
330
46B
100
AcDbEntity
  8
0
  6
Continuous
100
AcDbVertex
100
AcDbPolygonMeshVertex
 10
232.8727437729536
 20
105.56
 30
0.0
 70
    64
  0
VERTEX
  5
5B7
330
46B
100
AcDbEntity
  8
0
  6
Continuous
100
AcDbVertex
100
AcDbPolygonMeshVertex
 10
232.8884237729536
 20
105.56
 30
0.0
 70
    64
  0
VERTEX
  5
5B8
330
46B
100
AcDbEntity
  8
0
  6
Continuous
100
AcDbVertex
100
AcDbPolygonMeshVertex
 10
232.9041037729536
 20
105.56
 30
0.0
 70
    64
  0
VERTEX
  5
5B9
330
46B
100
AcDbEntity
  8
0
  6
Continuous
100
AcDbVertex
100
AcDbPolygonMeshVertex
 10
232.9197837729537
 20
105.56
 30
0.0
 70
    64
  0
VERTEX
  5
5BA
330
46B
100
AcDbEntity
  8
0
  6
Continuous
100
AcDbVertex
100
AcDbPolygonMeshVertex
 10
232.9354637729536
 20
105.56
 30
0.0
 70
    64
  0
VERTEX
  5
5BB
330
46B
100
AcDbEntity
  8
0
  6
Continuous
100
AcDbVertex
100
AcDbPolygonMeshVertex
 10
232.9511437729536
 20
105.56
 30
0.0
 70
    64
  0
VERTEX
  5
5BC
330
46B
100
AcDbEntity
  8
0
  6
Continuous
100
AcDbVertex
100
AcDbPolygonMeshVertex
 10
232.9668237729536
 20
105.56
 30
0.0
 70
    64
  0
VERTEX
  5
5BD
330
46B
100
AcDbEntity
  8
0
  6
Continuous
100
AcDbVertex
100
AcDbPolygonMeshVertex
 10
232.9825037729536
 20
105.56
 30
0.0
 70
    64
  0
VERTEX
  5
5BE
330
46B
100
AcDbEntity
  8
0
  6
Continuous
100
AcDbVertex
100
AcDbPolygonMeshVertex
 10
232.9981837729536
 20
105.56
 30
0.0
 70
    64
  0
VERTEX
  5
5BF
330
46B
100
AcDbEntity
  8
0
  6
Continuous
100
AcDbVertex
100
AcDbPolygonMeshVertex
 10
233.0138637729536
 20
105.56
 30
0.0
 70
    64
  0
VERTEX
  5
5C0
330
46B
100
AcDbEntity
  8
0
  6
Continuous
100
AcDbVertex
100
AcDbPolygonMeshVertex
 10
233.0295437729536
 20
105.56
 30
0.0
 70
    64
  0
VERTEX
  5
5C1
330
46B
100
AcDbEntity
  8
0
  6
Continuous
100
AcDbVertex
100
AcDbPolygonMeshVertex
 10
233.0452237729537
 20
105.56
 30
0.0
 70
    64
  0
VERTEX
  5
5C2
330
46B
100
AcDbEntity
  8
0
  6
Continuous
100
AcDbVertex
100
AcDbPolygonMeshVertex
 10
233.0609037729536
 20
105.56
 30
0.0
 70
    64
  0
VERTEX
  5
5C3
330
46B
100
AcDbEntity
  8
0
  6
Continuous
100
AcDbVertex
100
AcDbPolygonMeshVertex
 10
233.0765837729536
 20
105.56
 30
0.0
 70
    64
  0
VERTEX
  5
5C4
330
46B
100
AcDbEntity
  8
0
  6
Continuous
100
AcDbVertex
100
AcDbPolygonMeshVertex
 10
233.0922637729536
 20
105.56
 30
0.0
 70
    64
  0
VERTEX
  5
5C5
330
46B
100
AcDbEntity
  8
0
  6
Continuous
100
AcDbVertex
100
AcDbPolygonMeshVertex
 10
233.1079437729536
 20
105.56
 30
0.0
 70
    64
  0
VERTEX
  5
5C6
330
46B
100
AcDbEntity
  8
0
  6
Continuous
100
AcDbVertex
100
AcDbPolygonMeshVertex
 10
233.1236237729537
 20
105.56
 30
0.0
 70
    64
  0
VERTEX
  5
5C7
330
46B
100
AcDbEntity
  8
0
  6
Continuous
100
AcDbVertex
100
AcDbPolygonMeshVertex
 10
233.1393037729536
 20
105.56
 30
0.0
 70
    64
  0
VERTEX
  5
5C8
330
46B
100
AcDbEntity
  8
0
  6
Continuous
100
AcDbVertex
100
AcDbPolygonMeshVertex
 10
233.1549837729536
 20
105.56
 30
0.0
 70
    64
  0
VERTEX
  5
5C9
330
46B
100
AcDbEntity
  8
0
  6
Continuous
100
AcDbVertex
100
AcDbPolygonMeshVertex
 10
233.1706637729536
 20
105.56
 30
0.0
 70
    64
  0
VERTEX
  5
5CA
330
46B
100
AcDbEntity
  8
0
  6
Continuous
100
AcDbVertex
100
AcDbPolygonMeshVertex
 10
233.1863437729536
 20
105.56
 30
0.0
 70
    64
  0
VERTEX
  5
5CB
330
46B
100
AcDbEntity
  8
0
  6
Continuous
100
AcDbVertex
100
AcDbPolygonMeshVertex
 10
233.2020237729536
 20
105.56
 30
0.0
 70
    64
  0
VERTEX
  5
5CC
330
46B
100
AcDbEntity
  8
0
  6
Continuous
100
AcDbVertex
100
AcDbPolygonMeshVertex
 10
233.2177037729536
 20
105.56
 30
0.0
 70
    64
  0
VERTEX
  5
5CD
330
46B
100
AcDbEntity
  8
0
  6
Continuous
100
AcDbVertex
100
AcDbPolygonMeshVertex
 10
233.2333837729537
 20
105.56
 30
0.0
 70
    64
  0
VERTEX
  5
5CE
330
46B
100
AcDbEntity
  8
0
  6
Continuous
100
AcDbVertex
100
AcDbPolygonMeshVertex
 10
233.2490637729536
 20
105.56
 30
0.0
 70
    64
  0
VERTEX
  5
5CF
330
46B
100
AcDbEntity
  8
0
  6
Continuous
100
AcDbVertex
100
AcDbPolygonMeshVertex
 10
233.2647437729537
 20
105.56
 30
0.0
 70
    64
  0
VERTEX
  5
5D0
330
46B
100
AcDbEntity
  8
0
  6
Continuous
100
AcDbVertex
100
AcDbPolygonMeshVertex
 10
233.2804237729536
 20
105.56
 30
0.0
 70
    64
  0
VERTEX
  5
5D1
330
46B
100
AcDbEntity
  8
0
  6
Continuous
100
AcDbVertex
100
AcDbPolygonMeshVertex
 10
233.2961037729536
 20
105.56
 30
0.0
 70
    64
  0
VERTEX
  5
5D2
330
46B
100
AcDbEntity
  8
0
  6
Continuous
100
AcDbVertex
100
AcDbPolygonMeshVertex
 10
233.3117837729536
 20
105.56
 30
0.0
 70
    64
  0
VERTEX
  5
5D3
330
46B
100
AcDbEntity
  8
0
  6
Continuous
100
AcDbVertex
100
AcDbPolygonMeshVertex
 10
233.3274637729536
 20
105.56
 30
0.0
 70
    64
  0
VERTEX
  5
5D4
330
46B
100
AcDbEntity
  8
0
  6
Continuous
100
AcDbVertex
100
AcDbPolygonMeshVertex
 10
233.3431437729536
 20
105.56
 30
0.0
 70
    64
  0
VERTEX
  5
5D5
330
46B
100
AcDbEntity
  8
0
  6
Continuous
100
AcDbVertex
100
AcDbPolygonMeshVertex
 10
233.3588237729536
 20
105.56
 30
0.0
 70
    64
  0
VERTEX
  5
5D6
330
46B
100
AcDbEntity
  8
0
  6
Continuous
100
AcDbVertex
100
AcDbPolygonMeshVertex
 10
233.3745037729536
 20
105.56
 30
0.0
 70
    64
  0
VERTEX
  5
5D7
330
46B
100
AcDbEntity
  8
0
  6
Continuous
100
AcDbVertex
100
AcDbPolygonMeshVertex
 10
233.3901837729536
 20
105.56
 30
0.0
 70
    64
  0
VERTEX
  5
5D8
330
46B
100
AcDbEntity
  8
0
  6
Continuous
100
AcDbVertex
100
AcDbPolygonMeshVertex
 10
233.4058637729536
 20
105.56
 30
0.0
 70
    64
  0
VERTEX
  5
5D9
330
46B
100
AcDbEntity
  8
0
  6
Continuous
100
AcDbVertex
100
AcDbPolygonMeshVertex
 10
233.4215437729536
 20
105.56
 30
0.0
 70
    64
  0
VERTEX
  5
5DA
330
46B
100
AcDbEntity
  8
0
  6
Continuous
100
AcDbVertex
100
AcDbPolygonMeshVertex
 10
233.4372237729536
 20
105.56
 30
0.0
 70
    64
  0
VERTEX
  5
5DB
330
46B
100
AcDbEntity
  8
0
  6
Continuous
100
AcDbVertex
100
AcDbPolygonMeshVertex
 10
233.4529037729536
 20
105.56
 30
0.0
 70
    64
  0
VERTEX
  5
5DC
330
46B
100
AcDbEntity
  8
0
  6
Continuous
100
AcDbVertex
100
AcDbPolygonMeshVertex
 10
233.4685837729537
 20
105.56
 30
0.0
 70
    64
  0
VERTEX
  5
5DD
330
46B
100
AcDbEntity
  8
0
  6
Continuous
100
AcDbVertex
100
AcDbPolygonMeshVertex
 10
233.4842637729536
 20
105.56
 30
0.0
 70
    64
  0
VERTEX
  5
5DE
330
46B
100
AcDbEntity
  8
0
  6
Continuous
100
AcDbVertex
100
AcDbPolygonMeshVertex
 10
233.4999437729536
 20
105.56
 30
0.0
 70
    64
  0
VERTEX
  5
5DF
330
46B
100
AcDbEntity
  8
0
  6
Continuous
100
AcDbVertex
100
AcDbPolygonMeshVertex
 10
233.5156237729536
 20
105.56
 30
0.0
 70
    64
  0
VERTEX
  5
5E0
330
46B
100
AcDbEntity
  8
0
  6
Continuous
100
AcDbVertex
100
AcDbPolygonMeshVertex
 10
233.5313037729536
 20
105.56
 30
0.0
 70
    64
  0
VERTEX
  5
5E1
330
46B
100
AcDbEntity
  8
0
  6
Continuous
100
AcDbVertex
100
AcDbPolygonMeshVertex
 10
233.5469837729537
 20
105.56
 30
0.0
 70
    64
  0
VERTEX
  5
5E2
330
46B
100
AcDbEntity
  8
0
  6
Continuous
100
AcDbVertex
100
AcDbPolygonMeshVertex
 10
233.5626637729536
 20
105.56
 30
0.0
 70
    64
  0
VERTEX
  5
5E3
330
46B
100
AcDbEntity
  8
0
  6
Continuous
100
AcDbVertex
100
AcDbPolygonMeshVertex
 10
233.5783437729536
 20
105.56
 30
0.0
 70
    64
  0
VERTEX
  5
5E4
330
46B
100
AcDbEntity
  8
0
  6
Continuous
100
AcDbVertex
100
AcDbPolygonMeshVertex
 10
233.5940237729536
 20
105.56
 30
0.0
 70
    64
  0
VERTEX
  5
5E5
330
46B
100
AcDbEntity
  8
0
  6
Continuous
100
AcDbVertex
100
AcDbPolygonMeshVertex
 10
233.6097037729536
 20
105.56
 30
0.0
 70
    64
  0
VERTEX
  5
5E6
330
46B
100
AcDbEntity
  8
0
  6
Continuous
100
AcDbVertex
100
AcDbPolygonMeshVertex
 10
233.6253837729536
 20
105.56
 30
0.0
 70
    64
  0
VERTEX
  5
5E7
330
46B
100
AcDbEntity
  8
0
  6
Continuous
100
AcDbVertex
100
AcDbPolygonMeshVertex
 10
233.6410637729536
 20
105.56
 30
0.0
 70
    64
  0
VERTEX
  5
5E8
330
46B
100
AcDbEntity
  8
0
  6
Continuous
100
AcDbVertex
100
AcDbPolygonMeshVertex
 10
233.6567437729537
 20
105.56
 30
0.0
 70
    64
  0
VERTEX
  5
5E9
330
46B
100
AcDbEntity
  8
0
  6
Continuous
100
AcDbVertex
100
AcDbPolygonMeshVertex
 10
233.6724237729536
 20
105.56
 30
0.0
 70
    64
  0
VERTEX
  5
5EA
330
46B
100
AcDbEntity
  8
0
  6
Continuous
100
AcDbVertex
100
AcDbPolygonMeshVertex
 10
233.6881037729536
 20
105.56
 30
0.0
 70
    64
  0
VERTEX
  5
5EB
330
46B
100
AcDbEntity
  8
0
  6
Continuous
100
AcDbVertex
100
AcDbPolygonMeshVertex
 10
233.7037837729536
 20
105.56
 30
0.0
 70
    64
  0
VERTEX
  5
5EC
330
46B
100
AcDbEntity
  8
0
  6
Continuous
100
AcDbVertex
100
AcDbPolygonMeshVertex
 10
233.7194637729536
 20
105.56
 30
0.0
 70
    64
  0
VERTEX
  5
5ED
330
46B
100
AcDbEntity
  8
0
  6
Continuous
100
AcDbVertex
100
AcDbPolygonMeshVertex
 10
233.7351437729537
 20
105.56
 30
0.0
 70
    64
  0
VERTEX
  5
5EE
330
46B
100
AcDbEntity
  8
0
  6
Continuous
100
AcDbVertex
100
AcDbPolygonMeshVertex
 10
233.7508237729536
 20
105.56
 30
0.0
 70
    64
  0
VERTEX
  5
5EF
330
46B
100
AcDbEntity
  8
0
  6
Continuous
100
AcDbVertex
100
AcDbPolygonMeshVertex
 10
233.7665037729536
 20
105.56
 30
0.0
 70
    64
  0
VERTEX
  5
5F0
330
46B
100
AcDbEntity
  8
0
  6
Continuous
100
AcDbVertex
100
AcDbPolygonMeshVertex
 10
233.7821837729536
 20
105.56
 30
0.0
 70
    64
  0
VERTEX
  5
5F1
330
46B
100
AcDbEntity
  8
0
  6
Continuous
100
AcDbVertex
100
AcDbPolygonMeshVertex
 10
233.7978637729536
 20
105.56
 30
0.0
 70
    64
  0
VERTEX
  5
5F2
330
46B
100
AcDbEntity
  8
0
  6
Continuous
100
AcDbVertex
100
AcDbPolygonMeshVertex
 10
233.8135437729536
 20
105.56
 30
0.0
 70
    64
  0
VERTEX
  5
5F3
330
46B
100
AcDbEntity
  8
0
  6
Continuous
100
AcDbVertex
100
AcDbPolygonMeshVertex
 10
233.8292237729536
 20
105.56
 30
0.0
 70
    64
  0
VERTEX
  5
5F4
330
46B
100
AcDbEntity
  8
0
  6
Continuous
100
AcDbVertex
100
AcDbPolygonMeshVertex
 10
233.8449037729536
 20
105.56
 30
0.0
 70
    64
  0
VERTEX
  5
5F5
330
46B
100
AcDbEntity
  8
0
  6
Continuous
100
AcDbVertex
100
AcDbPolygonMeshVertex
 10
233.8605837729536
 20
105.56
 30
0.0
 70
    64
  0
VERTEX
  5
5F6
330
46B
100
AcDbEntity
  8
0
  6
Continuous
100
AcDbVertex
100
AcDbPolygonMeshVertex
 10
233.8762637729536
 20
105.56
 30
0.0
 70
    64
  0
VERTEX
  5
5F7
330
46B
100
AcDbEntity
  8
0
  6
Continuous
100
AcDbVertex
100
AcDbPolygonMeshVertex
 10
233.8919437729536
 20
105.56
 30
0.0
 70
    64
  0
VERTEX
  5
5F8
330
46B
100
AcDbEntity
  8
0
  6
Continuous
100
AcDbVertex
100
AcDbPolygonMeshVertex
 10
233.9076237729536
 20
105.56
 30
0.0
 70
    64
  0
VERTEX
  5
5F9
330
46B
100
AcDbEntity
  8
0
  6
Continuous
100
AcDbVertex
100
AcDbPolygonMeshVertex
 10
233.9233037729536
 20
105.56
 30
0.0
 70
    64
  0
VERTEX
  5
5FA
330
46B
100
AcDbEntity
  8
0
  6
Continuous
100
AcDbVertex
100
AcDbPolygonMeshVertex
 10
233.9389837729536
 20
105.56
 30
0.0
 70
    64
  0
VERTEX
  5
5FB
330
46B
100
AcDbEntity
  8
0
  6
Continuous
100
AcDbVertex
100
AcDbPolygonMeshVertex
 10
233.9546637729536
 20
105.56
 30
0.0
 70
    64
  0
VERTEX
  5
5FC
330
46B
100
AcDbEntity
  8
0
  6
Continuous
100
AcDbVertex
100
AcDbPolygonMeshVertex
 10
233.9703437729537
 20
105.56
 30
0.0
 70
    64
  0
VERTEX
  5
5FD
330
46B
100
AcDbEntity
  8
0
  6
Continuous
100
AcDbVertex
100
AcDbPolygonMeshVertex
 10
233.9860237729536
 20
105.56
 30
0.0
 70
    64
  0
VERTEX
  5
5FE
330
46B
100
AcDbEntity
  8
0
  6
Continuous
100
AcDbVertex
100
AcDbPolygonMeshVertex
 10
234.0017037729536
 20
105.56
 30
0.0
 70
    64
  0
VERTEX
  5
5FF
330
46B
100
AcDbEntity
  8
0
  6
Continuous
100
AcDbVertex
100
AcDbPolygonMeshVertex
 10
234.0173837729536
 20
105.56
 30
0.0
 70
    64
  0
VERTEX
  5
600
330
46B
100
AcDbEntity
  8
0
  6
Continuous
100
AcDbVertex
100
AcDbPolygonMeshVertex
 10
234.0330637729536
 20
105.56
 30
0.0
 70
    64
  0
VERTEX
  5
601
330
46B
100
AcDbEntity
  8
0
  6
Continuous
100
AcDbVertex
100
AcDbPolygonMeshVertex
 10
234.0487437729537
 20
105.56
 30
0.0
 70
    64
  0
VERTEX
  5
602
330
46B
100
AcDbEntity
  8
0
  6
Continuous
100
AcDbVertex
100
AcDbPolygonMeshVertex
 10
234.0644237729536
 20
105.56
 30
0.0
 70
    64
  0
VERTEX
  5
603
330
46B
100
AcDbEntity
  8
0
  6
Continuous
100
AcDbVertex
100
AcDbPolygonMeshVertex
 10
234.0801037729536
 20
105.56
 30
0.0
 70
    64
  0
VERTEX
  5
604
330
46B
100
AcDbEntity
  8
0
  6
Continuous
100
AcDbVertex
100
AcDbPolygonMeshVertex
 10
234.0957837729536
 20
105.56
 30
0.0
 70
    64
  0
VERTEX
  5
605
330
46B
100
AcDbEntity
  8
0
  6
Continuous
100
AcDbVertex
100
AcDbPolygonMeshVertex
 10
234.1114637729536
 20
105.56
 30
0.0
 70
    64
  0
VERTEX
  5
606
330
46B
100
AcDbEntity
  8
0
  6
Continuous
100
AcDbVertex
100
AcDbPolygonMeshVertex
 10
234.1271437729536
 20
105.56
 30
0.0
 70
    64
  0
VERTEX
  5
607
330
46B
100
AcDbEntity
  8
0
  6
Continuous
100
AcDbVertex
100
AcDbPolygonMeshVertex
 10
234.1428237729536
 20
105.56
 30
0.0
 70
    64
  0
VERTEX
  5
608
330
46B
100
AcDbEntity
  8
0
  6
Continuous
100
AcDbVertex
100
AcDbPolygonMeshVertex
 10
234.1585037729536
 20
105.56
 30
0.0
 70
    64
  0
VERTEX
  5
609
330
46B
100
AcDbEntity
  8
0
  6
Continuous
100
AcDbVertex
100
AcDbPolygonMeshVertex
 10
234.1741837729536
 20
105.56
 30
0.0
 70
    64
  0
VERTEX
  5
60A
330
46B
100
AcDbEntity
  8
0
  6
Continuous
100
AcDbVertex
100
AcDbPolygonMeshVertex
 10
234.1898637729536
 20
105.56
 30
0.0
 70
    64
  0
VERTEX
  5
60B
330
46B
100
AcDbEntity
  8
0
  6
Continuous
100
AcDbVertex
100
AcDbPolygonMeshVertex
 10
234.2055437729536
 20
105.56
 30
0.0
 70
    64
  0
VERTEX
  5
60C
330
46B
100
AcDbEntity
  8
0
  6
Continuous
100
AcDbVertex
100
AcDbPolygonMeshVertex
 10
234.2212237729536
 20
105.56
 30
0.0
 70
    64
  0
VERTEX
  5
60D
330
46B
100
AcDbEntity
  8
0
  6
Continuous
100
AcDbVertex
100
AcDbPolygonMeshVertex
 10
234.2369037729537
 20
105.56
 30
0.0
 70
    64
  0
VERTEX
  5
60E
330
46B
100
AcDbEntity
  8
0
  6
Continuous
100
AcDbVertex
100
AcDbPolygonMeshVertex
 10
234.2525837729537
 20
105.56
 30
0.0
 70
    64
  0
VERTEX
  5
60F
330
46B
100
AcDbEntity
  8
0
  6
Continuous
100
AcDbVertex
100
AcDbPolygonMeshVertex
 10
234.2682637729536
 20
105.56
 30
0.0
 70
    64
  0
VERTEX
  5
610
330
46B
100
AcDbEntity
  8
0
  6
Continuous
100
AcDbVertex
100
AcDbPolygonMeshVertex
 10
234.2839437729536
 20
105.56
 30
0.0
 70
    64
  0
VERTEX
  5
611
330
46B
100
AcDbEntity
  8
0
  6
Continuous
100
AcDbVertex
100
AcDbPolygonMeshVertex
 10
234.2996237729536
 20
105.56
 30
0.0
 70
    64
  0
VERTEX
  5
612
330
46B
100
AcDbEntity
  8
0
  6
Continuous
100
AcDbVertex
100
AcDbPolygonMeshVertex
 10
234.3153037729536
 20
105.56
 30
0.0
 70
    64
  0
VERTEX
  5
613
330
46B
100
AcDbEntity
  8
0
  6
Continuous
100
AcDbVertex
100
AcDbPolygonMeshVertex
 10
234.3309837729536
 20
105.56
 30
0.0
 70
    64
  0
VERTEX
  5
614
330
46B
100
AcDbEntity
  8
0
  6
Continuous
100
AcDbVertex
100
AcDbPolygonMeshVertex
 10
234.3466637729536
 20
105.56
 30
0.0
 70
    64
  0
VERTEX
  5
615
330
46B
100
AcDbEntity
  8
0
  6
Continuous
100
AcDbVertex
100
AcDbPolygonMeshVertex
 10
234.3623437729537
 20
105.56
 30
0.0
 70
    64
  0
VERTEX
  5
616
330
46B
100
AcDbEntity
  8
0
  6
Continuous
100
AcDbVertex
100
AcDbPolygonMeshVertex
 10
234.3780237729536
 20
105.56
 30
0.0
 70
    64
  0
VERTEX
  5
617
330
46B
100
AcDbEntity
  8
0
  6
Continuous
100
AcDbVertex
100
AcDbPolygonMeshVertex
 10
234.3937037729537
 20
105.56
 30
0.0
 70
    64
  0
VERTEX
  5
618
330
46B
100
AcDbEntity
  8
0
  6
Continuous
100
AcDbVertex
100
AcDbPolygonMeshVertex
 10
234.4093837729536
 20
105.56
 30
0.0
 70
    64
  0
VERTEX
  5
619
330
46B
100
AcDbEntity
  8
0
  6
Continuous
100
AcDbVertex
100
AcDbPolygonMeshVertex
 10
234.4250637729536
 20
105.56
 30
0.0
 70
    64
  0
VERTEX
  5
61A
330
46B
100
AcDbEntity
  8
0
  6
Continuous
100
AcDbVertex
100
AcDbPolygonMeshVertex
 10
234.4407437729536
 20
105.56
 30
0.0
 70
    64
  0
VERTEX
  5
61B
330
46B
100
AcDbEntity
  8
0
  6
Continuous
100
AcDbVertex
100
AcDbPolygonMeshVertex
 10
234.4564237729536
 20
105.56
 30
0.0
 70
    64
  0
VERTEX
  5
61C
330
46B
100
AcDbEntity
  8
0
  6
Continuous
100
AcDbVertex
100
AcDbPolygonMeshVertex
 10
234.4721037729536
 20
105.56
 30
0.0
 70
    64
  0
VERTEX
  5
61D
330
46B
100
AcDbEntity
  8
0
  6
Continuous
100
AcDbVertex
100
AcDbPolygonMeshVertex
 10
234.4877837729536
 20
105.56
 30
0.0
 70
    64
  0
VERTEX
  5
61E
330
46B
100
AcDbEntity
  8
0
  6
Continuous
100
AcDbVertex
100
AcDbPolygonMeshVertex
 10
234.5034637729536
 20
105.56
 30
0.0
 70
    64
  0
VERTEX
  5
61F
330
46B
100
AcDbEntity
  8
0
  6
Continuous
100
AcDbVertex
100
AcDbPolygonMeshVertex
 10
234.5191437729536
 20
105.56
 30
0.0
 70
    64
  0
VERTEX
  5
620
330
46B
100
AcDbEntity
  8
0
  6
Continuous
100
AcDbVertex
100
AcDbPolygonMeshVertex
 10
234.5348237729536
 20
105.56
 30
0.0
 70
    64
  0
VERTEX
  5
621
330
46B
100
AcDbEntity
  8
0
  6
Continuous
100
AcDbVertex
100
AcDbPolygonMeshVertex
 10
234.5505037729537
 20
105.56
 30
0.0
 70
    64
  0
VERTEX
  5
622
330
46B
100
AcDbEntity
  8
0
  6
Continuous
100
AcDbVertex
100
AcDbPolygonMeshVertex
 10
234.5661837729536
 20
105.56
 30
0.0
 70
    64
  0
VERTEX
  5
623
330
46B
100
AcDbEntity
  8
0
  6
Continuous
100
AcDbVertex
100
AcDbPolygonMeshVertex
 10
234.5818637729536
 20
105.56
 30
0.0
 70
    64
  0
VERTEX
  5
624
330
46B
100
AcDbEntity
  8
0
  6
Continuous
100
AcDbVertex
100
AcDbPolygonMeshVertex
 10
234.5975437729536
 20
105.56
 30
0.0
 70
    64
  0
VERTEX
  5
625
330
46B
100
AcDbEntity
  8
0
  6
Continuous
100
AcDbVertex
100
AcDbPolygonMeshVertex
 10
234.6132237729536
 20
105.56
 30
0.0
 70
    64
  0
VERTEX
  5
626
330
46B
100
AcDbEntity
  8
0
  6
Continuous
100
AcDbVertex
100
AcDbPolygonMeshVertex
 10
234.6289037729536
 20
105.56
 30
0.0
 70
    64
  0
VERTEX
  5
627
330
46B
100
AcDbEntity
  8
0
  6
Continuous
100
AcDbVertex
100
AcDbPolygonMeshVertex
 10
234.6445837729536
 20
105.56
 30
0.0
 70
    64
  0
VERTEX
  5
628
330
46B
100
AcDbEntity
  8
0
  6
Continuous
100
AcDbVertex
100
AcDbPolygonMeshVertex
 10
234.6602637729536
 20
105.56
 30
0.0
 70
    64
  0
VERTEX
  5
629
330
46B
100
AcDbEntity
  8
0
  6
Continuous
100
AcDbVertex
100
AcDbPolygonMeshVertex
 10
234.6759437729537
 20
105.56
 30
0.0
 70
    64
  0
VERTEX
  5
62A
330
46B
100
AcDbEntity
  8
0
  6
Continuous
100
AcDbVertex
100
AcDbPolygonMeshVertex
 10
234.6916237729536
 20
105.56
 30
0.0
 70
    64
  0
VERTEX
  5
62B
330
46B
100
AcDbEntity
  8
0
  6
Continuous
100
AcDbVertex
100
AcDbPolygonMeshVertex
 10
234.7073037729536
 20
105.56
 30
0.0
 70
    64
  0
VERTEX
  5
62C
330
46B
100
AcDbEntity
  8
0
  6
Continuous
100
AcDbVertex
100
AcDbPolygonMeshVertex
 10
234.7229837729536
 20
105.56
 30
0.0
 70
    64
  0
VERTEX
  5
62D
330
46B
100
AcDbEntity
  8
0
  6
Continuous
100
AcDbVertex
100
AcDbPolygonMeshVertex
 10
234.7386637729536
 20
105.56
 30
0.0
 70
    64
  0
VERTEX
  5
62E
330
46B
100
AcDbEntity
  8
0
  6
Continuous
100
AcDbVertex
100
AcDbPolygonMeshVertex
 10
234.7543437729536
 20
105.56
 30
0.0
 70
    64
  0
VERTEX
  5
62F
330
46B
100
AcDbEntity
  8
0
  6
Continuous
100
AcDbVertex
100
AcDbPolygonMeshVertex
 10
234.7700237729536
 20
105.56
 30
0.0
 70
    64
  0
VERTEX
  5
630
330
46B
100
AcDbEntity
  8
0
  6
Continuous
100
AcDbVertex
100
AcDbPolygonMeshVertex
 10
234.7857037729536
 20
105.56
 30
0.0
 70
    64
  0
VERTEX
  5
631
330
46B
100
AcDbEntity
  8
0
  6
Continuous
100
AcDbVertex
100
AcDbPolygonMeshVertex
 10
234.8013837729536
 20
105.56
 30
0.0
 70
    64
  0
VERTEX
  5
632
330
46B
100
AcDbEntity
  8
0
  6
Continuous
100
AcDbVertex
100
AcDbPolygonMeshVertex
 10
234.8170637729537
 20
105.56
 30
0.0
 70
    64
  0
VERTEX
  5
633
330
46B
100
AcDbEntity
  8
0
  6
Continuous
100
AcDbVertex
100
AcDbPolygonMeshVertex
 10
234.8327437729536
 20
105.56
 30
0.0
 70
    64
  0
VERTEX
  5
634
330
46B
100
AcDbEntity
  8
0
  6
Continuous
100
AcDbVertex
100
AcDbPolygonMeshVertex
 10
234.8484237729536
 20
105.56
 30
0.0
 70
    64
  0
VERTEX
  5
635
330
46B
100
AcDbEntity
  8
0
  6
Continuous
100
AcDbVertex
100
AcDbPolygonMeshVertex
 10
234.8641037729536
 20
105.56
 30
0.0
 70
    64
  0
VERTEX
  5
636
330
46B
100
AcDbEntity
  8
0
  6
Continuous
100
AcDbVertex
100
AcDbPolygonMeshVertex
 10
234.8797837729536
 20
105.56
 30
0.0
 70
    64
  0
VERTEX
  5
637
330
46B
100
AcDbEntity
  8
0
  6
Continuous
100
AcDbVertex
100
AcDbPolygonMeshVertex
 10
234.8954637729537
 20
105.56
 30
0.0
 70
    64
  0
VERTEX
  5
638
330
46B
100
AcDbEntity
  8
0
  6
Continuous
100
AcDbVertex
100
AcDbPolygonMeshVertex
 10
234.9111437729536
 20
105.56
 30
0.0
 70
    64
  0
VERTEX
  5
639
330
46B
100
AcDbEntity
  8
0
  6
Continuous
100
AcDbVertex
100
AcDbPolygonMeshVertex
 10
234.9268237729536
 20
105.56
 30
0.0
 70
    64
  0
VERTEX
  5
63A
330
46B
100
AcDbEntity
  8
0
  6
Continuous
100
AcDbVertex
100
AcDbPolygonMeshVertex
 10
234.9425037729536
 20
105.56
 30
0.0
 70
    64
  0
VERTEX
  5
63B
330
46B
100
AcDbEntity
  8
0
  6
Continuous
100
AcDbVertex
100
AcDbPolygonMeshVertex
 10
234.9581837729536
 20
105.56
 30
0.0
 70
    64
  0
VERTEX
  5
63C
330
46B
100
AcDbEntity
  8
0
  6
Continuous
100
AcDbVertex
100
AcDbPolygonMeshVertex
 10
234.9738637729536
 20
105.56
 30
0.0
 70
    64
  0
VERTEX
  5
63D
330
46B
100
AcDbEntity
  8
0
  6
Continuous
100
AcDbVertex
100
AcDbPolygonMeshVertex
 10
234.9895437729536
 20
105.56
 30
0.0
 70
    64
  0
VERTEX
  5
63E
330
46B
100
AcDbEntity
  8
0
  6
Continuous
100
AcDbVertex
100
AcDbPolygonMeshVertex
 10
235.0052237729536
 20
105.56
 30
0.0
 70
    64
  0
VERTEX
  5
63F
330
46B
100
AcDbEntity
  8
0
  6
Continuous
100
AcDbVertex
100
AcDbPolygonMeshVertex
 10
235.0209037729536
 20
105.56
 30
0.0
 70
    64
  0
VERTEX
  5
640
330
46B
100
AcDbEntity
  8
0
  6
Continuous
100
AcDbVertex
100
AcDbPolygonMeshVertex
 10
235.0365837729536
 20
105.56
 30
0.0
 70
    64
  0
VERTEX
  5
641
330
46B
100
AcDbEntity
  8
0
  6
Continuous
100
AcDbVertex
100
AcDbPolygonMeshVertex
 10
235.0522637729536
 20
105.56
 30
0.0
 70
    64
  0
VERTEX
  5
642
330
46B
100
AcDbEntity
  8
0
  6
Continuous
100
AcDbVertex
100
AcDbPolygonMeshVertex
 10
235.0679437729537
 20
105.56
 30
0.0
 70
    64
  0
VERTEX
  5
643
330
46B
100
AcDbEntity
  8
0
  6
Continuous
100
AcDbVertex
100
AcDbPolygonMeshVertex
 10
235.0836237729536
 20
105.56
 30
0.0
 70
    64
  0
VERTEX
  5
644
330
46B
100
AcDbEntity
  8
0
  6
Continuous
100
AcDbVertex
100
AcDbPolygonMeshVertex
 10
235.0993037729537
 20
105.56
 30
0.0
 70
    64
  0
VERTEX
  5
645
330
46B
100
AcDbEntity
  8
0
  6
Continuous
100
AcDbVertex
100
AcDbPolygonMeshVertex
 10
235.1149837729536
 20
105.56
 30
0.0
 70
    64
  0
VERTEX
  5
646
330
46B
100
AcDbEntity
  8
0
  6
Continuous
100
AcDbVertex
100
AcDbPolygonMeshVertex
 10
235.1306637729536
 20
105.56
 30
0.0
 70
    64
  0
VERTEX
  5
647
330
46B
100
AcDbEntity
  8
0
  6
Continuous
100
AcDbVertex
100
AcDbPolygonMeshVertex
 10
235.1463437729536
 20
105.56
 30
0.0
 70
    64
  0
VERTEX
  5
648
330
46B
100
AcDbEntity
  8
0
  6
Continuous
100
AcDbVertex
100
AcDbPolygonMeshVertex
 10
235.1620237729536
 20
105.56
 30
0.0
 70
    64
  0
VERTEX
  5
649
330
46B
100
AcDbEntity
  8
0
  6
Continuous
100
AcDbVertex
100
AcDbPolygonMeshVertex
 10
235.1777037729536
 20
105.56
 30
0.0
 70
    64
  0
VERTEX
  5
64A
330
46B
100
AcDbEntity
  8
0
  6
Continuous
100
AcDbVertex
100
AcDbPolygonMeshVertex
 10
235.1933837729536
 20
105.56
 30
0.0
 70
    64
  0
VERTEX
  5
64B
330
46B
100
AcDbEntity
  8
0
  6
Continuous
100
AcDbVertex
100
AcDbPolygonMeshVertex
 10
235.2090637729537
 20
105.56
 30
0.0
 70
    64
  0
VERTEX
  5
64C
330
46B
100
AcDbEntity
  8
0
  6
Continuous
100
AcDbVertex
100
AcDbPolygonMeshVertex
 10
235.2247437729536
 20
105.56
 30
0.0
 70
    64
  0
VERTEX
  5
64D
330
46B
100
AcDbEntity
  8
0
  6
Continuous
100
AcDbVertex
100
AcDbPolygonMeshVertex
 10
235.2404237729536
 20
105.56
 30
0.0
 70
    64
  0
VERTEX
  5
64E
330
46B
100
AcDbEntity
  8
0
  6
Continuous
100
AcDbVertex
100
AcDbPolygonMeshVertex
 10
235.2561037729536
 20
105.56
 30
0.0
 70
    64
  0
VERTEX
  5
64F
330
46B
100
AcDbEntity
  8
0
  6
Continuous
100
AcDbVertex
100
AcDbPolygonMeshVertex
 10
235.2717837729536
 20
105.56
 30
0.0
 70
    64
  0
VERTEX
  5
650
330
46B
100
AcDbEntity
  8
0
  6
Continuous
100
AcDbVertex
100
AcDbPolygonMeshVertex
 10
235.2874637729536
 20
105.56
 30
0.0
 70
    64
  0
VERTEX
  5
651
330
46B
100
AcDbEntity
  8
0
  6
Continuous
100
AcDbVertex
100
AcDbPolygonMeshVertex
 10
235.3031437729536
 20
105.56
 30
0.0
 70
    64
  0
VERTEX
  5
652
330
46B
100
AcDbEntity
  8
0
  6
Continuous
100
AcDbVertex
100
AcDbPolygonMeshVertex
 10
235.3188237729536
 20
105.56
 30
0.0
 70
    64
  0
VERTEX
  5
653
330
46B
100
AcDbEntity
  8
0
  6
Continuous
100
AcDbVertex
100
AcDbPolygonMeshVertex
 10
235.3345037729536
 20
105.56
 30
0.0
 70
    64
  0
VERTEX
  5
654
330
46B
100
AcDbEntity
  8
0
  6
Continuous
100
AcDbVertex
100
AcDbPolygonMeshVertex
 10
235.3501837729536
 20
105.56
 30
0.0
 70
    64
  0
VERTEX
  5
655
330
46B
100
AcDbEntity
  8
0
  6
Continuous
100
AcDbVertex
100
AcDbPolygonMeshVertex
 10
235.3658637729536
 20
105.56
 30
0.0
 70
    64
  0
VERTEX
  5
656
330
46B
100
AcDbEntity
  8
0
  6
Continuous
100
AcDbVertex
100
AcDbPolygonMeshVertex
 10
235.3815437729537
 20
105.56
 30
0.0
 70
    64
  0
VERTEX
  5
657
330
46B
100
AcDbEntity
  8
0
  6
Continuous
100
AcDbVertex
100
AcDbPolygonMeshVertex
 10
235.3972237729536
 20
105.56
 30
0.0
 70
    64
  0
VERTEX
  5
658
330
46B
100
AcDbEntity
  8
0
  6
Continuous
100
AcDbVertex
100
AcDbPolygonMeshVertex
 10
235.4129037729536
 20
105.56
 30
0.0
 70
    64
  0
VERTEX
  5
659
330
46B
100
AcDbEntity
  8
0
  6
Continuous
100
AcDbVertex
100
AcDbPolygonMeshVertex
 10
235.4285837729536
 20
105.56
 30
0.0
 70
    64
  0
VERTEX
  5
65A
330
46B
100
AcDbEntity
  8
0
  6
Continuous
100
AcDbVertex
100
AcDbPolygonMeshVertex
 10
235.4442637729536
 20
105.56
 30
0.0
 70
    64
  0
VERTEX
  5
65B
330
46B
100
AcDbEntity
  8
0
  6
Continuous
100
AcDbVertex
100
AcDbPolygonMeshVertex
 10
235.4599437729536
 20
105.56
 30
0.0
 70
    64
  0
VERTEX
  5
65C
330
46B
100
AcDbEntity
  8
0
  6
Continuous
100
AcDbVertex
100
AcDbPolygonMeshVertex
 10
235.4756237729536
 20
105.56
 30
0.0
 70
    64
  0
VERTEX
  5
65D
330
46B
100
AcDbEntity
  8
0
  6
Continuous
100
AcDbVertex
100
AcDbPolygonMeshVertex
 10
235.4913037729536
 20
105.56
 30
0.0
 70
    64
  0
VERTEX
  5
65E
330
46B
100
AcDbEntity
  8
0
  6
Continuous
100
AcDbVertex
100
AcDbPolygonMeshVertex
 10
235.5069837729536
 20
105.56
 30
0.0
 70
    64
  0
VERTEX
  5
65F
330
46B
100
AcDbEntity
  8
0
  6
Continuous
100
AcDbVertex
100
AcDbPolygonMeshVertex
 10
235.5226637729537
 20
105.56
 30
0.0
 70
    64
  0
VERTEX
  5
660
330
46B
100
AcDbEntity
  8
0
  6
Continuous
100
AcDbVertex
100
AcDbPolygonMeshVertex
 10
235.5383437729536
 20
105.56
 30
0.0
 70
    64
  0
VERTEX
  5
661
330
46B
100
AcDbEntity
  8
0
  6
Continuous
100
AcDbVertex
100
AcDbPolygonMeshVertex
 10
235.5540237729536
 20
105.56
 30
0.0
 70
    64
  0
SEQEND
  5
662
330
46B
100
AcDbEntity
  8
0
  6
Continuous
  0
LINE
  5
663
330
1E
100
AcDbEntity
  8
0
  6
DASHED
100
AcDbLine
 10
235.0
 20
105.0
 30
0.0
 11
242.5
 21
105.0
 31
0.0
  0
TEXT
  5
664
330
1E
100
AcDbEntity
  8
BASE
  6
HIDDEN
100
AcDbText
 10
208.8786101403697
 20
97.24857638698255
 30
0.0
 40
2.0
  1
SERIAL PORT
  7
ROMANS
100
AcDbText
  0
INSERT
  5
665
330
1E
100
AcDbEntity
  8
0
  6
DASHED
100
AcDbBlockReference
  2
BLC43
 10
152.5
 20
42.5
 30
0.0
  0
INSERT
  5
666
330
1E
100
AcDbEntity
  8
0
  6
DASHED
100
AcDbBlockReference
  2
BLC43
 10
167.5
 20
42.5
 30
0.0
  0
INSERT
  5
667
330
1E
100
AcDbEntity
  8
0
  6
DASHED
100
AcDbBlockReference
  2
BLC43
 10
172.5
 20
42.5
 30
0.0
  0
INSERT
  5
668
330
1E
100
AcDbEntity
  8
0
  6
DASHED
100
AcDbBlockReference
  2
BLC43
 10
182.5
 20
42.5
 30
0.0
  0
INSERT
  5
669
330
1E
100
AcDbEntity
  8
0
  6
DASHED
100
AcDbBlockReference
  2
BLC42
 10
187.5
 20
42.5
 30
0.0
  0
TEXT
  5
66A
330
1E
100
AcDbEntity
  8
BASE
  6
HIDDEN
100
AcDbText
 10
217.5
 20
198.9106075577749
 30
0.0
 40
2.0
  1
101
  7
ROMANS
100
AcDbText
  0
TEXT
  5
66B
330
1E
100
AcDbEntity
  8
BASE
  6
HIDDEN
100
AcDbText
 10
188.6974787864652
 20
172.8651529441544
 30
0.0
 40
2.5
  1
3
100
AcDbText
  0
LINE
  5
66C
330
1E
100
AcDbEntity
  8
BASE
  6
Continuous
100
AcDbLine
 10
225.0
 20
142.5
 30
0.0
 11
230.0
 21
142.5
 31
0.0
  0
LINE
  5
66D
330
1E
100
AcDbEntity
  8
BASE
  6
Continuous
100
AcDbLine
 10
225.0
 20
152.5
 30
0.0
 11
230.0
 21
152.5
 31
0.0
  0
LINE
  5
66E
330
1E
100
AcDbEntity
  8
BASE
100
AcDbLine
 10
215.0
 20
152.5
 30
0.0
 11
220.0
 21
152.5
 31
0.0
  0
LINE
  5
66F
330
1E
100
AcDbEntity
  8
BASE
100
AcDbLine
 10
215.0
 20
142.5
 30
0.0
 11
220.0
 21
142.5
 31
0.0
  0
TEXT
  5
670
330
1E
100
AcDbEntity
  8
BASE
  6
Continuous
100
AcDbText
 10
225.0
 20
149.5585254258852
 30
0.0
 40
2.0
  1
7A
  7
ROMANS
100
AcDbText
  0
TEXT
  5
671
330
1E
100
AcDbEntity
  8
BASE
  6
Continuous
100
AcDbText
 10
225.0
 20
139.6050985317361
 30
0.0
 40
2.0
  1
8A
  7
ROMANS
100
AcDbText
  0
LINE
  5
672
330
1E
100
AcDbEntity
  8
BASE
  6
Continuous
100
AcDbLine
 10
197.9506146543173
 20
152.5
 30
0.0
 11
202.4999999999999
 21
152.5
 31
0.0
  0
LINE
  5
673
330
1E
100
AcDbEntity
  8
BASE
  6
Continuous
100
AcDbLine
 10
202.4999999999999
 20
152.5
 30
0.0
 11
202.4999999999999
 21
130.0
 31
0.0
  0
LINE
  5
674
330
1E
100
AcDbEntity
  8
BASE
  6
Continuous
100
AcDbLine
 10
202.4999999999999
 20
130.0
 30
0.0
 11
154.9999999999999
 21
130.0
 31
0.0
  0
LINE
  5
675
330
1E
100
AcDbEntity
  8
BASE
  6
Continuous
100
AcDbLine
 10
197.9506146543173
 20
142.5
 30
0.0
 11
205.0
 21
142.5
 31
0.0
  0
LINE
  5
676
330
1E
100
AcDbEntity
  8
BASE
  6
Continuous
100
AcDbLine
 10
205.0
 20
142.5
 30
0.0
 11
205.0
 21
105.0
 31
0.0
  0
LINE
  5
677
330
1E
100
AcDbEntity
  8
BASE
  6
Continuous
100
AcDbLine
 10
205.0
 20
105.0
 30
0.0
 11
230.0
 21
105.0
 31
0.0
  0
TEXT
  5
678
330
1E
100
AcDbEntity
  8
0
  6
HIDDEN
100
AcDbText
 10
17.52131527469096
 20
111.4913453582278
 30
0.0
 40
2.0
  1
2)
  7
ROMANS
100
AcDbText
  0
LINE
  5
679
330
1E
100
AcDbEntity
  8
0
  6
DASHED
100
AcDbLine
 10
260.0
 20
152.5
 30
0.0
 11
312.5
 21
152.5
 31
0.0
  0
LINE
  5
67A
330
1E
100
AcDbEntity
  8
0
  6
Continuous
100
AcDbLine
 10
255.0
 20
152.5
 30
0.0
 11
260.0
 21
152.5
 31
0.0
  0
LINE
  5
67B
330
1E
100
AcDbEntity
  8
0
  6
Continuous
100
AcDbLine
 10
255.0
 20
152.5
 30
0.0
 11
249.2560759482168
 21
149.2852966948172
 31
0.0
  0
LINE
  5
67C
330
1E
100
AcDbEntity
  8
0
  6
Continuous
100
AcDbLine
 10
245.0
 20
152.5
 30
0.0
 11
250.0
 21
152.5
 31
0.0
  0
LINE
  5
67D
330
1E
100
AcDbEntity
  8
0
  6
DASHED
100
AcDbLine
 10
245.0
 20
152.4999999999999
 30
0.0
 11
230.0
 21
152.5
 31
0.0
  0
LINE
  5
67E
330
1E
100
AcDbEntity
  8
0
  6
DASHED
100
AcDbLine
 10
312.5
 20
215.0
 30
0.0
 11
312.5
 21
152.5
 31
0.0
  0
LINE
  5
67F
330
1E
100
AcDbEntity
  8
0
  6
DASHED
100
AcDbLine
 10
230.0
 20
182.5
 30
0.0
 11
240.0
 21
182.5
 31
0.0
  0
LINE
  5
680
330
1E
100
AcDbEntity
  8
0
  6
DASHED
100
AcDbLine
 10
240.0
 20
182.5
 30
0.0
 11
240.0
 21
172.5
 31
0.0
  0
LINE
  5
681
330
1E
100
AcDbEntity
  8
0
  6
DASHED
100
AcDbLine
 10
230.0
 20
162.5
 30
0.0
 11
240.0
 21
162.5
 31
0.0
  0
LINE
  5
682
330
1E
100
AcDbEntity
  8
0
  6
DASHED
100
AcDbLine
 10
240.0
 20
162.5
 30
0.0
 11
240.0
 21
152.5
 31
0.0
  0
LINE
  5
683
330
1E
100
AcDbEntity
  8
0
  6
DASHED
100
AcDbLine
 10
230.0
 20
142.5
 30
0.0
 11
245.0
 21
142.5
 31
0.0
  0
LINE
  5
684
330
1E
100
AcDbEntity
  8
0
  6
DASHED
100
AcDbLine
 10
245.0
 20
142.5
 30
0.0
 11
245.0
 21
192.5
 31
0.0
  0
TEXT
  5
685
330
1E
100
AcDbEntity
  8
0
  6
Continuous
100
AcDbText
 10
361.1110381777772
 20
221.0550238510827
 30
0.0
 40
2.5
  1
3
100
AcDbText
  0
TEXT
  5
686
330
1E
100
AcDbEntity
  8
0
  6
Continuous
100
AcDbText
 10
361.156771620899
 20
210.7832098156154
 30
0.0
 40
2.5
  1
3
100
AcDbText
  0
TEXT
  5
687
330
1E
100
AcDbEntity
  8
0
  6
Continuous
100
AcDbText
 10
212.0436726100638
 20
27.46228665380702
 30
0.0
 40
2.0
  1
1992-04-05 J RANTALA
  7
ROMANS
100
AcDbText
  0
TEXT
  5
688
330
1E
100
AcDbEntity
  8
0
  6
Continuous
100
AcDbText
 10
349.4144362226847
 20
199.5674290738982
 30
0.0
 40
2.0
  1
OVER- AND UNDER-
  7
ROMANS
100
AcDbText
  0
TEXT
  5
689
330
1E
100
AcDbEntity
  8
0
  6
Continuous
100
AcDbText
 10
349.4144362226847
 20
196.2340957405649
 30
0.0
 40
2.0
  1
VOLTAGE RELAY
  7
ROMANS
100
AcDbText
  0
TEXT
  5
68A
330
1E
100
AcDbEntity
  8
0
  6
Continuous
100
AcDbText
 10
349.4144362226847
 20
192.9007624072315
 30
0.0
 40
2.0
  1
™VER- OCH UNDER-
  7
ROMANS
100
AcDbText
  0
TEXT
  5
68B
330
1E
100
AcDbEntity
  8
0
  6
Continuous
100
AcDbText
 10
349.4144362226847
 20
189.5674290738982
 30
0.0
 40
2.0
  1
SPŽNNINGSSKYDD
  7
ROMANS
100
AcDbText
  0
TEXT
  5
68C
330
1E
100
AcDbEntity
  8
BASE
  6
Continuous
100
AcDbText
 10
75.0
 20
207.5
 30
0.0
 40
2.0
  1
RS 10071-AA SPAU 330 C5
  7
ROMANS
100
AcDbText
  0
TEXT
  5
68D
330
1E
100
AcDbEntity
  8
0
  6
Continuous
100
AcDbText
 10
38.17416734766902
 20
46.70679440781319
 30
0.0
 40
2.0
  1
RS 10071-AAF
  7
ROMANS
100
AcDbText
  0
TEXT
  5
68E
330
1E
100
AcDbEntity
  8
0
  6
Continuous
100
AcDbText
 10
245.0
 20
103.9530647032139
 30
0.0
 40
2.0
  1
5)
  7
ROMANS
100
AcDbText
  0
TEXT
  5
68F
330
1E
100
AcDbEntity
  8
0
  6
Continuous
100
AcDbText
 10
334.4722463835626
 20
128.4304817854767
 30
0.0
 40
2.0
  1
1) EXTERNAL BLOCKING
  7
ROMANS
100
AcDbText
  0
TEXT
  5
690
330
1E
100
AcDbEntity
  8
0
  6
Continuous
100
AcDbText
 10
335.1265377919967
 20
125.0971484521434
 30
0.0
 40
2.0
  1
  EXTERN BLOCKERING
  7
ROMANS
100
AcDbText
  0
TEXT
  5
691
330
1E
100
AcDbEntity
  8
0
  6
Continuous
100
AcDbText
 10
333.7875228165967
 20
119.2638151188101
 30
0.0
 40
2.0
  1
2) TRIP ETC.    NOTE
  7
ROMANS
100
AcDbText
  0
TEXT
  5
692
330
1E
100
AcDbEntity
  8
0
  6
Continuous
100
AcDbText
 10
335.1251847647909
 20
115.9304817854767
 30
0.0
 40
2.0
  1
  UTL™SNING MM.   OBS.
  7
ROMANS
100
AcDbText
  0
TEXT
  5
693
330
1E
100
AcDbEntity
  8
0
  6
Continuous
100
AcDbText
 10
333.7875228165967
 20
110.0971484521434
 30
0.0
 40
2.0
  1
3) START, ALARM ETC.
  7
ROMANS
100
AcDbText
  0
TEXT
  5
694
330
1E
100
AcDbEntity
  8
0
  6
Continuous
100
AcDbText
 10
335.1259010124173
 20
106.7638151188101
 30
0.0
 40
2.0
  1
  START, SIGNAL MM.
  7
ROMANS
100
AcDbText
  0
TEXT
  5
695
330
1E
100
AcDbEntity
  8
0
  6
Continuous
100
AcDbText
 10
333.7875228165967
 20
100.9304817854768
 30
0.0
 40
2.0
  1
4) INTERNAL RELAY FAULT
  7
ROMANS
100
AcDbText
  0
TEXT
  5
696
330
1E
100
AcDbEntity
  8
0
  6
Continuous
100
AcDbText
 10
335.1106921692829
 20
97.59714845214347
 30
0.0
 40
2.0
  1
  INTERNT RELŽFEL
  7
ROMANS
100
AcDbText
  0
TEXT
  5
697
330
1E
100
AcDbEntity
  8
0
  6
Continuous
100
AcDbText
 10
333.7875228165967
 20
91.76381511881015
 30
0.0
 40
2.0
  1
5) BUS CONNECTION MODULE
  7
ROMANS
100
AcDbText
  0
TEXT
  5
698
330
1E
100
AcDbEntity
  8
0
  6
Continuous
100
AcDbText
 10
335.1259010124173
 20
88.43048178547681
 30
0.0
 40
2.0
  1
  BUSSANSLUTNINGSMODUL
  7
ROMANS
100
AcDbText
  0
TEXT
  5
699
330
1E
100
AcDbEntity
  8
0
  6
Continuous
100
AcDbText
 10
315.0
 20
27.5
 30
0.0
 40
2.0
  1
TERMINAL DIAGRAM / UTTAGSSCHEMA
  7
ROMANS
100
AcDbText
  0
TEXT
  5
69A
330
1E
100
AcDbEntity
  8
0
  6
Continuous
100
AcDbText
 10
315.0
 20
24.16666666666666
 30
0.0
 40
2.0
  1
SPAU 330 C5 WITH TEST SWITCH
  7
ROMANS
100
AcDbText
  0
TEXT
  5
69B
330
1E
100
AcDbEntity
  8
0
  6
Continuous
100
AcDbText
 10
315.0
 20
20.83333333333333
 30
0.0
 40
2.0
  1
SPAU 330 C5 MED PROVDON
  7
ROMANS
100
AcDbText
  0
TEXT
  5
69C
330
1E
100
AcDbEntity
  8
0
  6
Continuous
100
AcDbText
 10
320.0
 20
2.5
 30
0.0
 40
2.5
  1
RS 10071-AAF
  7
ROMANS
100
AcDbText
  0
TEXT
  5
69D
330
1E
100
AcDbEntity
  8
0
  6
Continuous
100
AcDbText
 10
380.0
 20
2.5
 30
0.0
 40
2.5
  1
C
  7
ROMANS
100
AcDbText
  0
TEXT
  5
69E
330
1E
100
AcDbEntity
  8
0
  6
Continuous
100
AcDbText
 10
52.41178503141889
 20
1.145639404067777
 30
0.0
 40
2.0
  1
REDRAWN WITH AUTOCAD 1992-04-05  JR / RITU Power
  7
ROMANS
100
AcDbText
  0
LWPOLYLINE
  5
69F
330
1E
100
AcDbEntity
  8
0
  6
Continuous
100
AcDbPolyline
 90
        2
 70
     1
 43
0.5
 10
312.0
 20
245.0
 42
1.0
 10
313.0
 20
245.0
 42
1.0
  0
LWPOLYLINE
  5
6A3
330
1E
100
AcDbEntity
  8
0
  6
Continuous
100
AcDbPolyline
 90
        2
 70
     1
 43
0.5
 10
304.4999999999999
 20
250.0
 42
1.0
 10
305.5
 20
250.0
 42
1.0
  0
LWPOLYLINE
  5
6A7
330
1E
100
AcDbEntity
  8
0
  6
Continuous
100
AcDbPolyline
 90
        2
 70
     1
 43
0.5
 10
297.0
 20
255.0
 42
1.0
 10
298.0
 20
255.0
 42
1.0
  0
LWPOLYLINE
  5
6AB
330
1E
100
AcDbEntity
  8
0
  6
Continuous
100
AcDbPolyline
 90
        2
 70
     1
 43
0.5
 10
244.4999999999999
 20
192.5
 42
1.0
 10
245.5
 20
192.5
 42
1.0
  0
LWPOLYLINE
  5
6AF
330
1E
100
AcDbEntity
  8
0
  6
Continuous
100
AcDbPolyline
 90
        2
 70
     1
 43
0.5
 10
239.5
 20
172.5
 42
1.0
 10
240.5
 20
172.5
 42
1.0
  0
LWPOLYLINE
  5
6B3
330
1E
100
AcDbEntity
  8
0
  6
Continuous
100
AcDbPolyline
 90
        2
 70
     1
 43
0.5
 10
239.5
 20
152.5
 42
1.0
 10
240.5
 20
152.5
 42
1.0
  0
LWPOLYLINE
  5
6B7
330
1E
100
AcDbEntity
  8
BASE
  6
Continuous
100
AcDbPolyline
 90
        2
 70
     1
 43
0.5
 10
77.0
 20
179.0928530701662
 42
1.0
 10
78.0
 20
179.0928530701662
 42
1.0
  0
LWPOLYLINE
  5
6BB
330
1E
100
AcDbEntity
  8
BASE
  6
Continuous
100
AcDbPolyline
 90
        2
 70
     1
 43
0.5
 10
87.0
 20
167.3471113574593
 42
1.0
 10
88.0
 20
167.3471113574593
 42
1.0
  0
LWPOLYLINE
  5
6BF
330
1E
100
AcDbEntity
  8
BASE
  6
Continuous
100
AcDbPolyline
 90
        2
 70
     1
 43
0.5
 10
97.0
 20
179.0928530701664
 42
1.0
 10
98.0
 20
179.0928530701664
 42
1.0
  0
LWPOLYLINE
  5
6C3
330
1E
100
AcDbEntity
  8
BASE
  6
Continuous
100
AcDbPolyline
 90
        2
 70
     1
 43
0.5
 10
114.5
 20
167.3471113574593
 42
1.0
 10
115.5
 20
167.3471113574593
 42
1.0
  0
LWPOLYLINE
  5
6C7
330
1E
100
AcDbEntity
  8
BASE
  6
Continuous
100
AcDbPolyline
 90
        2
 70
     1
 43
0.5
 10
202.0
 20
175.0
 42
1.0
 10
203.0
 20
175.0
 42
1.0
  0
LWPOLYLINE
  5
6CB
330
1E
100
AcDbEntity
  8
BASE
  6
Continuous
100
AcDbPolyline
 90
        2
 70
     1
 43
0.5
 10
154.4999999999999
 20
170.7839962995324
 42
1.0
 10
155.4999999999999
 20
170.7839962995324
 42
1.0
  0
LWPOLYLINE
  5
6CF
330
1E
100
AcDbEntity
  8
BASE
  6
Continuous
100
AcDbPolyline
 90
        2
 70
     1
 43
0.5
 10
167.0
 20
87.5
 42
1.0
 10
168.0
 20
87.5
 42
1.0
  0
LINE
  5
6D3
330
1E
100
AcDbEntity
  8
BASE
  6
Continuous
100
AcDbLine
 10
39.33715923787358
 20
207.4348036906044
 30
0.0
 11
38.89226594259936
 21
206.5491057803825
 31
0.0
  0
LINE
  5
6D4
330
1E
100
AcDbEntity
  8
BASE
  6
Continuous
100
AcDbLine
 10
40.0
 20
205.0
 30
0.0
 11
40.0
 21
207.765661429548
 31
0.0
  0
LINE
  5
6D5
330
1E
100
AcDbEntity
  8
BASE
  6
Continuous
100
AcDbLine
 10
46.00000363311131
 20
205.0
 30
0.0
 11
39.33715923787358
 21
207.4348036906044
 31
0.0
  0
LINE
  5
6D6
330
1E
100
AcDbEntity
  8
0
  6
Continuous
100
AcDbLine
 10
25.0
 20
204.9999999999999
 30
0.0
 11
25.0
 21
207.765661429548
 31
0.0
  0
LINE
  5
6D7
330
1E
100
AcDbEntity
  8
0
  6
Continuous
100
AcDbLine
 10
31.00000363311138
 20
205.0
 30
0.0
 11
24.33715923787358
 21
207.4348036906044
 31
0.0
  0
LINE
  5
6D8
330
1E
100
AcDbEntity
  8
BASE
  6
Continuous
100
AcDbLine
 10
45.0
 20
117.5
 30
0.0
 11
45.0
 21
120.265661429548
 31
0.0
  0
LINE
  5
6D9
330
1E
100
AcDbEntity
  8
BASE
  6
Continuous
100
AcDbLine
 10
51.00000363311135
 20
117.4999999999999
 30
0.0
 11
44.33715923787358
 21
119.9348036906044
 31
0.0
  0
LINE
  5
6DA
330
1E
100
AcDbEntity
  8
BASE
  6
Continuous
100
AcDbLine
 10
45.0
 20
107.4999999999999
 30
0.0
 11
45.0
 21
110.265661429548
 31
0.0
  0
LINE
  5
6DB
330
1E
100
AcDbEntity
  8
BASE
  6
Continuous
100
AcDbLine
 10
51.00000363311134
 20
107.4999999999999
 30
0.0
 11
44.33715923787358
 21
109.9348036906044
 31
0.0
  0
LINE
  5
6DC
330
1E
100
AcDbEntity
  8
BASE
  6
Continuous
100
AcDbLine
 10
219.1028273376561
 20
194.9348036906044
 30
0.0
 11
218.6579340423818
 21
194.0491057803825
 31
0.0
  0
LINE
  5
6DD
330
1E
100
AcDbEntity
  8
BASE
  6
Continuous
100
AcDbLine
 10
219.1028273376561
 20
194.9348036906044
 30
0.0
 11
225.0
 21
192.5
 31
0.0
  0
LINE
  5
6DE
330
1E
100
AcDbEntity
  8
BASE
  6
Continuous
100
AcDbLine
 10
220.0
 20
192.5
 30
0.0
 11
220.0
 21
195.265661429548
 31
0.0
  0
LINE
  5
6DF
330
1E
100
AcDbEntity
  8
BASE
  6
Continuous
100
AcDbLine
 10
219.1028273376561
 20
184.9348036906044
 30
0.0
 11
218.6579340423818
 21
184.0491057803824
 31
0.0
  0
LINE
  5
6E0
330
1E
100
AcDbEntity
  8
BASE
  6
Continuous
100
AcDbLine
 10
219.1028273376561
 20
184.9348036906044
 30
0.0
 11
225.0
 21
182.5
 31
0.0
  0
LINE
  5
6E1
330
1E
100
AcDbEntity
  8
BASE
  6
Continuous
100
AcDbLine
 10
220.0
 20
182.5
 30
0.0
 11
220.0
 21
185.265661429548
 31
0.0
  0
LINE
  5
6E2
330
1E
100
AcDbEntity
  8
BASE
  6
Continuous
100
AcDbLine
 10
219.1028273376561
 20
174.9348036906044
 30
0.0
 11
218.6579340423818
 21
174.0491057803824
 31
0.0
  0
LINE
  5
6E3
330
1E
100
AcDbEntity
  8
BASE
  6
Continuous
100
AcDbLine
 10
219.1028273376561
 20
174.9348036906044
 30
0.0
 11
225.0
 21
172.5
 31
0.0
  0
LINE
  5
6E4
330
1E
100
AcDbEntity
  8
BASE
  6
Continuous
100
AcDbLine
 10
220.0
 20
172.5
 30
0.0
 11
220.0
 21
175.265661429548
 31
0.0
  0
LINE
  5
6E5
330
1E
100
AcDbEntity
  8
BASE
  6
Continuous
100
AcDbLine
 10
219.1028273376561
 20
164.9348036906044
 30
0.0
 11
218.6579340423818
 21
164.0491057803824
 31
0.0
  0
LINE
  5
6E6
330
1E
100
AcDbEntity
  8
BASE
  6
Continuous
100
AcDbLine
 10
219.1028273376561
 20
164.9348036906044
 30
0.0
 11
225.0
 21
162.5
 31
0.0
  0
LINE
  5
6E7
330
1E
100
AcDbEntity
  8
BASE
  6
Continuous
100
AcDbLine
 10
220.0
 20
162.5
 30
0.0
 11
220.0
 21
165.265661429548
 31
0.0
  0
LINE
  5
6E8
330
1E
100
AcDbEntity
  8
BASE
  6
Continuous
100
AcDbLine
 10
219.1028273376561
 20
154.9348036906044
 30
0.0
 11
218.6579340423818
 21
154.0491057803824
 31
0.0
  0
LINE
  5
6E9
330
1E
100
AcDbEntity
  8
BASE
  6
Continuous
100
AcDbLine
 10
219.1028273376561
 20
154.9348036906044
 30
0.0
 11
225.0
 21
152.5
 31
0.0
  0
LINE
  5
6EA
330
1E
100
AcDbEntity
  8
BASE
  6
Continuous
100
AcDbLine
 10
220.0
 20
152.5
 30
0.0
 11
220.0
 21
155.265661429548
 31
0.0
  0
LINE
  5
6EB
330
1E
100
AcDbEntity
  8
BASE
  6
Continuous
100
AcDbLine
 10
219.1028273376561
 20
144.9348036906044
 30
0.0
 11
218.6579340423818
 21
144.0491057803825
 31
0.0
  0
LINE
  5
6EC
330
1E
100
AcDbEntity
  8
BASE
  6
Continuous
100
AcDbLine
 10
219.1028273376561
 20
144.9348036906044
 30
0.0
 11
225.0
 21
142.5
 31
0.0
  0
LINE
  5
6ED
330
1E
100
AcDbEntity
  8
BASE
  6
Continuous
100
AcDbLine
 10
220.0
 20
142.5
 30
0.0
 11
220.0
 21
145.265661429548
 31
0.0
  0
LINE
  5
6EE
330
1E
100
AcDbEntity
  8
BASE
  6
Continuous
100
AcDbLine
 10
182.5
 20
65.0
 30
0.0
 11
185.265661429548
 21
65.0
 31
0.0
  0
LINE
  5
6EF
330
1E
100
AcDbEntity
  8
BASE
  6
Continuous
100
AcDbLine
 10
184.9348036906044
 20
65.66284076212642
 30
0.0
 11
184.0491057803824
 21
66.10773405740063
 31
0.0
  0
LINE
  5
6F0
330
1E
100
AcDbEntity
  8
BASE
  6
Continuous
100
AcDbLine
 10
182.5
 20
58.99999636688868
 30
0.0
 11
184.9348036906044
 21
65.66284076212642
 31
0.0
  0
LINE
  5
6F1
330
1E
100
AcDbEntity
  8
BASE
  6
Continuous
100
AcDbLine
 10
167.5
 20
58.99999636688876
 30
0.0
 11
169.9348036906044
 21
65.66284076212642
 31
0.0
  0
LINE
  5
6F2
330
1E
100
AcDbEntity
  8
BASE
  6
Continuous
100
AcDbLine
 10
167.5079302691904
 20
65.0
 30
0.0
 11
170.265661429548
 21
65.0
 31
0.0
  0
LINE
  5
6F3
330
1E
100
AcDbEntity
  8
BASE
  6
Continuous
100
AcDbLine
 10
187.5
 20
65.0
 30
0.0
 11
190.265661429548
 21
65.0
 31
0.0
  0
LINE
  5
6F4
330
1E
100
AcDbEntity
  8
BASE
  6
Continuous
100
AcDbLine
 10
189.9348036906044
 20
65.66284076212642
 30
0.0
 11
189.0491057803824
 21
66.10773405740063
 31
0.0
  0
LINE
  5
6F5
330
1E
100
AcDbEntity
  8
BASE
  6
Continuous
100
AcDbLine
 10
187.5
 20
58.99999636688868
 30
0.0
 11
189.9348036906044
 21
65.66284076212642
 31
0.0
  0
TEXT
  5
6F6
330
1E
100
AcDbEntity
  8
0
  6
Continuous
100
AcDbText
 10
52.4503097616974
 20
5.475100192211789
 30
0.0
 40
2.0
  1
A CHANGE OF TERM FOR THE SERIAL PORT 1993-04-27  KM / RITU Power
  7
ROMANS
100
AcDbText
  0
TEXT
  5
6F7
330
1E
100
AcDbEntity
  8
BASE
  6
Continuous
100
AcDbText
 10
208.6686918525886
 20
100.6573624244503
 30
0.0
 40
2.0
  1
108:
  7
ROMANS
100
AcDbText
  0
ENDSEC
  0
SECTION
  2
OBJECTS
  0
DICTIONARY
  5
C
330
0
100
AcDbDictionary
281
     1
  3
ACAD_GROUP
350
D
  3
ACAD_LAYOUT
350
19
  3
ACAD_MLINESTYLE
350
16
  3
ACAD_PLOTSETTINGS
350
18
  3
ACAD_PLOTSTYLENAME
350
E
  3
AcDbVariableDictionary
350
6FA
  0
DICTIONARY
  5
D
102
{ACAD_REACTORS
330
C
102
}
330
C
100
AcDbDictionary
281
     1
  0
DICTIONARY
  5
19
102
{ACAD_REACTORS
330
C
102
}
330
C
100
AcDbDictionary
281
     1
  3
Layout1
350
1D
  3
Model
350
21
  0
DICTIONARY
  5
16
102
{ACAD_REACTORS
330
C
102
}
330
C
100
AcDbDictionary
281
     1
  3
Standard
350
17
  0
DICTIONARY
  5
18
102
{ACAD_REACTORS
330
C
102
}
330
C
100
AcDbDictionary
281
     1
  0
ACDBDICTIONARYWDFLT
  5
E
102
{ACAD_REACTORS
330
C
102
}
330
C
100
AcDbDictionary
281
     1
  3
Normal
350
F
100
AcDbDictionaryWithDefault
340
F
  0
DICTIONARY
  5
6FA
102
{ACAD_REACTORS
330
C
102
}
330
C
100
AcDbDictionary
281
     1
  3
DIMASSOC
350
6FC
  3
HIDETEXT
350
6FB
  0
LAYOUT
  5
1D
102
{ACAD_REACTORS
330
19
102
}
330
19
100
AcDbPlotSettings
  1

  2
\\FIVAA-S-IGS2002\FIVAA-P-234
  4

  6

 40
0.0
 41
0.0
 42
0.0
 43
0.0
 44
0.0
 45
0.0
 46
0.0
 47
0.0
 48
0.0
 49
0.0
140
0.0
141
0.0
142
1.0
143
1.0
 70
   688
 72
     0
 73
     0
 74
     5
  7

 75
    16
147
1.0
148
0.0
149
0.0
100
AcDbLayout
  1
Layout1
 70
     0
 71
     1
 10
0.0
 20
0.0
 11
12.0
 21
9.0
 12
0.0
 22
0.0
 32
0.0
 14
1.000000000000000E+20
 24
1.000000000000000E+20
 34
1.000000000000000E+20
 15
-1.000000000000000E+20
 25
-1.000000000000000E+20
 35
-1.000000000000000E+20
146
0.0
 13
0.0
 23
0.0
 33
0.0
 16
1.0
 26
0.0
 36
0.0
 17
0.0
 27
1.0
 37
0.0
 76
     0
330
1A
  0
LAYOUT
  5
21
102
{ACAD_REACTORS
330
19
102
}
330
19
100
AcDbPlotSettings
  1

  2
\\FIVAA-S-IGS2002\FIVAA-P-234
  4

  6

 40
0.0
 41
0.0
 42
0.0
 43
0.0
 44
0.0
 45
0.0
 46
0.0
 47
0.0
 48
0.0
 49
0.0
140
0.0
141
0.0
142
1.0
143
1.0
 70
  1712
 72
     0
 73
     0
 74
     0
  7

 75
     0
147
1.0
148
0.0
149
0.0
100
AcDbLayout
  1
Model
 70
     1
 71
     0
 10
0.0
 20
0.0
 11
12.0
 21
9.0
 12
0.0
 22
0.0
 32
0.0
 14
0.0
 24
0.0
 34
0.0
 15
0.0
 25
0.0
 35
0.0
146
0.0
 13
0.0
 23
0.0
 33
0.0
 16
1.0
 26
0.0
 36
0.0
 17
0.0
 27
1.0
 37
0.0
 76
     0
330
1E
  0
MLINESTYLE
  5
17
102
{ACAD_REACTORS
330
16
102
}
330
16
100
AcDbMlineStyle
  2
STANDARD
 70
     0
  3

 62
   256
 51
90.0
 52
90.0
 71
     2
 49
0.5
 62
   256
  6
BYLAYER
 49
-0.5
 62
   256
  6
BYLAYER
  0
ACDBPLACEHOLDER
  5
F
102
{ACAD_REACTORS
330
E
102
}
330
E
  0
DICTIONARYVAR
  5
6FC
102
{ACAD_REACTORS
330
6FA
102
}
330
6FA
100
DictionaryVariables
280
     0
  1
2
  0
DICTIONARYVAR
  5
6FB
102
{ACAD_REACTORS
330
6FA
102
}
330
6FA
100
DictionaryVariables
280
     0
  1
1
  0
ENDSEC
  0
EOF
