  0
SECTION
  2
HEADER
  9
$ACADVER
  1
AC1009
  9
$DWGCODEPAGE
  3
iso8859-1
  9
$INSBASE
 10
0.0
 20
0.0
 30
0.0
  9
$EXTMIN
 10
1.0E20
 20
1.0E20
  9
$EXTMAX
 10
-1.0E20
 20
-1.0E20
  9
$LIMMIN
 10
0.0
 20
0.0
  9
$LIMMAX
 10
12.0
 20
9.0
  9
$ORTHOMODE
 70
     0
  9
$REGENMODE
 70
     1
  9
$FILLMODE
 70
     1
  9
$QTEXTMODE
 70
     0
  9
$MIRRTEXT
 70
     1
  9
$DRAGMODE
 70
     2
  9
$LTSCALE
 40
15.0
  9
$OSMODE
 70
     0
  9
$ATTMODE
 70
     1
  9
$TEXTSIZE
 40
0.2
  9
$TRACEWID
 40
0.05
  9
$TEXTSTYLE
  7
STANDARD
  9
$CLAYER
  8
0
  9
$CELTYPE
  6
DASHED
  9
$CECOLOR
 62
   256
  9
$DIMSCALE
 40
1.0
  9
$DIMASZ
 40
0.18
  9
$DIMEXO
 40
0.0625
  9
$DIMDLI
 40
0.38
  9
$DIMRND
 40
0.0
  9
$DIMDLE
 40
0.0
  9
$DIMEXE
 40
0.18
  9
$DIMTP
 40
0.0
  9
$DIMTM
 40
0.0
  9
$DIMTXT
 40
0.18
  9
$DIMCEN
 40
0.09
  9
$DIMTSZ
 40
0.0
  9
$DIMTOL
 70
     0
  9
$DIMLIM
 70
     0
  9
$DIMTIH
 70
     1
  9
$DIMTOH
 70
     1
  9
$DIMSE1
 70
     0
  9
$DIMSE2
 70
     0
  9
$DIMTAD
 70
     0
  9
$DIMZIN
 70
     0
  9
$DIMBLK
  1

  9
$DIMASO
 70
     1
  9
$DIMSHO
 70
     1
  9
$DIMPOST
  1

  9
$DIMAPOST
  1

  9
$DIMALT
 70
     0
  9
$DIMALTD
 70
     2
  9
$DIMALTF
 40
25.4
  9
$DIMLFAC
 40
1.0
  9
$DIMTOFL
 70
     0
  9
$DIMTVP
 40
0.0
  9
$DIMTIX
 70
     0
  9
$DIMSOXD
 70
     0
  9
$DIMSAH
 70
     0
  9
$DIMBLK1
  1

  9
$DIMBLK2
  1

  9
$DIMSTYLE
  2
STANDARD
  9
$DIMCLRD
 70
     0
  9
$DIMCLRE
 70
     0
  9
$DIMCLRT
 70
     0
  9
$DIMTFAC
 40
1.0
  9
$DIMGAP
 40
0.09
  9
$LUNITS
 70
     2
  9
$LUPREC
 70
     4
  9
$AXISMODE
 70
     0
  9
$AXISUNIT
 10
0.0
 20
0.0
  9
$SKETCHINC
 40
0.1
  9
$FILLETRAD
 40
0.0
  9
$AUNITS
 70
     0
  9
$AUPREC
 70
     0
  9
$MENU
  1
acad
  9
$ELEVATION
 40
0.0
  9
$PELEVATION
 40
0.0
  9
$THICKNESS
 40
0.0
  9
$LIMCHECK
 70
     0
  9
$BLIPMODE
 70
     1
  9
$CHAMFERA
 40
0.0
  9
$CHAMFERB
 40
0.0
  9
$SKPOLY
 70
     0
  9
$TDCREATE
 40
0.000000000
  9
$TDUPDATE
 40
0.000000000
  9
$TDINDWG
 40
0.0
  9
$TDUSRTIMER
 40
0.0
  9
$USRTIMER
 70
     1
  9
$ANGBASE
 50
0.0
  9
$ANGDIR
 70
     0
  9
$PDMODE
 70
     0
  9
$PDSIZE
 40
0.0
  9
$PLINEWID
 40
0.0
  9
$COORDS
 70
     1
  9
$SPLFRAME
 70
     0
  9
$SPLINETYPE
 70
     6
  9
$SPLINESEGS
 70
     8
  9
$ATTDIA
 70
     0
  9
$ATTREQ
 70
     1
  9
$HANDLING
 70
     1
  9
$HANDSEED
  5
   68A
  9
$SURFTAB1
 70
     6
  9
$SURFTAB2
 70
     6
  9
$SURFTYPE
 70
     6
  9
$SURFU
 70
     6
  9
$SURFV
 70
     6
  9
$UCSNAME
  2

  9
$UCSORG
 10
0.0
 20
0.0
 30
0.0
  9
$UCSXDIR
 10
1.0
 20
0.0
 30
0.0
  9
$UCSYDIR
 10
0.0
 20
1.0
 30
0.0
  9
$PUCSNAME
  2

  9
$PUCSORG
 10
0.0
 20
0.0
 30
0.0
  9
$PUCSXDIR
 10
1.0
 20
0.0
 30
0.0
  9
$PUCSYDIR
 10
0.0
 20
1.0
 30
0.0
  9
$USERI1
 70
     0
  9
$USERI2
 70
     0
  9
$USERI3
 70
     0
  9
$USERI4
 70
     0
  9
$USERI5
 70
     0
  9
$USERR1
 40
0.0
  9
$USERR2
 40
0.0
  9
$USERR3
 40
0.0
  9
$USERR4
 40
0.0
  9
$USERR5
 40
0.0
  9
$WORLDVIEW
 70
     1
  9
$SHADEDGE
 70
     3
  9
$SHADEDIF
 70
    70
  9
$TILEMODE
 70
     1
  9
$MAXACTVP
 70
    16
  9
$PINSBASE
 10
0.0
 20
0.0
 30
0.0
  9
$PLIMCHECK
 70
     0
  9
$PEXTMIN
 10
1.0E20
 20
1.0E20
 30
1.0E20
  9
$PEXTMAX
 10
-1.0E20
 20
-1.0E20
 30
-1.0E20
  9
$PLIMMIN
 10
0.0
 20
0.0
  9
$PLIMMAX
 10
12.0
 20
9.0
  9
$UNITMODE
 70
     0
  9
$VISRETAIN
 70
     0
  0
ENDSEC
  0
SECTION
  2
TABLES
  0
TABLE
  2
VPORT
 70
     1
  0
VPORT
  2
*ACTIVE
 70
     0
 10
0.0
 20
0.0
 11
1.0
 21
1.0
 12
6.801242
 22
4.5
 13
0.0
 23
0.0
 14
1.0
 24
1.0
 15
0.0
 25
0.0
 16
0.0
 26
0.0
 36
1.0
 17
0.0
 27
0.0
 37
0.0
 40
9.0
 41
1.511387
 42
50.0
 43
0.0
 44
0.0
 50
0.0
 51
0.0
 71
     0
 72
   100
 73
     1
 74
     1
 75
     0
 76
     0
 77
     0
 78
     0
  0
ENDTAB
  0
TABLE
  2
LTYPE
 70
    41
  0
LTYPE
  2
BYBLOCK
 70
     0
  3

 72
    65
 73
     0
 40
0.0
  0
LTYPE
  2
BYLAYER
 70
     0
  3

 72
    65
 73
     0
 40
0.0
  0
LTYPE
  2
CONTINUOUS
 70
     0
  3
Solid line
 72
    65
 73
     0
 40
0.0
  0
LTYPE
  2
BORDER
 70
    64
  3
__ __ . __ __ . __ __ . __ __ . __ __ . __ __ .
 72
    65
 73
     6
 40
1.75
 49
0.5
 49
-0.25
 49
0.5
 49
-0.25
 49
0.0
 49
-0.25
  0
LTYPE
  2
BORDER2
 70
    64
  3
__.__.__.__.__.__.__.__.__.__.__.__.__.__.__.__
 72
    65
 73
     6
 40
0.875
 49
0.25
 49
-0.125
 49
0.25
 49
-0.125
 49
0.0
 49
-0.125
  0
LTYPE
  2
BORDERX2
 70
    64
  3
____  ____  .  ____  ____  .  ____  ____  .  __
 72
    65
 73
     6
 40
3.5
 49
1.0
 49
-0.5
 49
1.0
 49
-0.5
 49
0.0
 49
-0.5
  0
LTYPE
  2
CENTER
 70
    64
  3
____ _ ____ _ ____ _ ____ _ ____ _ ____ _ ____
 72
    65
 73
     4
 40
2.0
 49
1.25
 49
-0.25
 49
0.25
 49
-0.25
  0
LTYPE
  2
CENTER2
 70
    64
  3
___ _ ___ _ ___ _ ___ _ ___ _ ___ _ ___ _ ___ _
 72
    65
 73
     4
 40
1.125
 49
0.75
 49
-0.125
 49
0.125
 49
-0.125
  0
LTYPE
  2
CENTERX2
 70
    64
  3
________  __  ________  __  ________  __  _____
 72
    65
 73
     4
 40
4.0
 49
2.5
 49
-0.5
 49
0.5
 49
-0.5
  0
LTYPE
  2
DASHDOT
 70
    64
  3
__ . __ . __ . __ . __ . __ . __ . __ . __ . __
 72
    65
 73
     4
 40
1.0
 49
0.5
 49
-0.25
 49
0.0
 49
-0.25
  0
LTYPE
  2
DASHDOT2
 70
    64
  3
_._._._._._._._._._._._._._._._._._._._._._._._
 72
    65
 73
     4
 40
0.5
 49
0.25
 49
-0.125
 49
0.0
 49
-0.125
  0
LTYPE
  2
DASHDOTX2
 70
    64
  3
____  .  ____  .  ____  .  ____  .  ____  .  __
 72
    65
 73
     4
 40
2.0
 49
1.0
 49
-0.5
 49
0.0
 49
-0.5
  0
LTYPE
  2
DASHED
 70
    64
  3
__ __ __ __ __ __ __ __ __ __ __ __ __ __ __ __
 72
    65
 73
     2
 40
0.75
 49
0.5
 49
-0.25
  0
LTYPE
  2
DASHED2
 70
    64
  3
_ _ _ _ _ _ _ _ _ _ _ _ _ _ _ _ _ _ _ _ _ _ _ _
 72
    65
 73
     2
 40
0.375
 49
0.25
 49
-0.125
  0
LTYPE
  2
DASHEDX2
 70
    64
  3
____  ____  ____  ____  ____  ____  ____  ____
 72
    65
 73
     2
 40
1.5
 49
1.0
 49
-0.5
  0
LTYPE
  2
DIVIDE
 70
    64
  3
____ . . ____ . . ____ . . ____ . . ____ . . __
 72
    65
 73
     6
 40
1.25
 49
0.5
 49
-0.25
 49
0.0
 49
-0.25
 49
0.0
 49
-0.25
  0
LTYPE
  2
DIVIDE2
 70
    64
  3
__..__..__..__..__..__..__..__..__..__..__..__.
 72
    65
 73
     6
 40
0.625
 49
0.25
 49
-0.125
 49
0.0
 49
-0.125
 49
0.0
 49
-0.125
  0
LTYPE
  2
DIVIDEX2
 70
    64
  3
________  .  .  ________  .  .  ________  .  .
 72
    65
 73
     6
 40
2.5
 49
1.0
 49
-0.5
 49
0.0
 49
-0.5
 49
0.0
 49
-0.5
  0
LTYPE
  2
DOT
 70
    64
  3
. . . . . . . . . . . . . . . . . . . . . . . .
 72
    65
 73
     2
 40
0.25
 49
0.0
 49
-0.25
  0
LTYPE
  2
DOT2
 70
    64
  3
...............................................
 72
    65
 73
     2
 40
0.125
 49
0.0
 49
-0.125
  0
LTYPE
  2
DOTX2
 70
    64
  3
.  .  .  .  .  .  .  .  .  .  .  .  .  .  .  .
 72
    65
 73
     2
 40
0.5
 49
0.0
 49
-0.5
  0
LTYPE
  2
HIDDEN
 70
    64
  3
__ __ __ __ __ __ __ __ __ __ __ __ __ __ __ __
 72
    65
 73
     2
 40
0.375
 49
0.25
 49
-0.125
  0
LTYPE
  2
HIDDEN2
 70
    64
  3
_ _ _ _ _ _ _ _ _ _ _ _ _ _ _ _ _ _ _ _ _ _ _ _
 72
    65
 73
     2
 40
0.1875
 49
0.125
 49
-0.0625
  0
LTYPE
  2
HIDDENX2
 70
    64
  3
____ ____ ____ ____ ____ ____ ____ ____ ____ __
 72
    65
 73
     2
 40
0.75
 49
0.5
 49
-0.25
  0
LTYPE
  2
PHANTOM
 70
    64
  3
______  __  __  ______  __  __  ______  __  __
 72
    65
 73
     6
 40
2.5
 49
1.25
 49
-0.25
 49
0.25
 49
-0.25
 49
0.25
 49
-0.25
  0
LTYPE
  2
PHANTOM2
 70
    64
  3
___ _ _ ___ _ _ ___ _ _ ___ _ _ ___ _ _ ___ _ _
 72
    65
 73
     6
 40
1.25
 49
0.625
 49
-0.125
 49
0.125
 49
-0.125
 49
0.125
 49
-0.125
  0
LTYPE
  2
PHANTOMX2
 70
    64
  3
____________    ____    ____    ____________
 72
    65
 73
     6
 40
5.0
 49
2.5
 49
-0.5
 49
0.5
 49
-0.5
 49
0.5
 49
-0.5
  0
LTYPE
  2
ACAD_ISO02W100
 70
    64
  3
__ __ __ __ __ __ __ __ __ __ __ __ __ __ __ __
 72
    65
 73
     2
 40
15.0
 49
12.0
 49
-3.0
  0
LTYPE
  2
ACAD_ISO03W100
 70
    64
  3
__    __    __    __    __    __    __    __
 72
    65
 73
     2
 40
30.0
 49
12.0
 49
-18.0
  0
LTYPE
  2
ACAD_ISO04W100
 70
    64
  3
____ . ____ . ____ . ____ . ____ . ____ . ____
 72
    65
 73
     4
 40
30.5
 49
24.0
 49
-3.0
 49
0.5
 49
-3.0
  0
LTYPE
  2
ACAD_ISO05W100
 70
    64
  3
____ .. ____ .. ____ .. ____ .. ____ .. ____ ..
 72
    65
 73
     6
 40
34.0
 49
24.0
 49
-3.0
 49
0.5
 49
-3.0
 49
0.5
 49
-3.0
  0
LTYPE
  2
ACAD_ISO06W100
 70
    64
  3
____ ... ____ ... ____ ... ____ ... ____ ... __
 72
    65
 73
     8
 40
37.5
 49
24.0
 49
-3.0
 49
0.5
 49
-3.0
 49
0.5
 49
-3.0
 49
0.5
 49
-3.0
  0
LTYPE
  2
ACAD_ISO07W100
 70
    64
  3
. . . . . . . . . . . . . . . . . . . . . . . .
 72
    65
 73
     2
 40
3.5
 49
0.5
 49
-3.0
  0
LTYPE
  2
ACAD_ISO08W100
 70
    64
  3
____ __ ____ __ ____ __ ____ ____ __ __ ____ __
 72
    65
 73
     4
 40
36.0
 49
24.0
 49
-3.0
 49
6.0
 49
-3.0
  0
LTYPE
  2
ACAD_ISO09W100
 70
    64
  3
____ __ __ ____ __ __ ____ __ __ ____ __ __ ___
 72
    65
 73
     6
 40
45.0
 49
24.0
 49
-3.0
 49
6.0
 49
-3.0
 49
6.0
 49
-3.0
  0
LTYPE
  2
ACAD_ISO10W100
 70
    64
  3
__ . __ . __ . __ . __ . __ . __ . __ . __ . __
 72
    65
 73
     4
 40
18.5
 49
12.0
 49
-3.0
 49
0.5
 49
-3.0
  0
LTYPE
  2
ACAD_ISO11W100
 70
    64
  3
__ __ . __ __ . __ __ . __ __ . __ __ . __ __ .
 72
    65
 73
     6
 40
33.5
 49
12.0
 49
-3.0
 49
12.0
 49
-3.0
 49
0.5
 49
-3.0
  0
LTYPE
  2
ACAD_ISO12W100
 70
    64
  3
__ . . __ . . __ . . __ . . __ . . __ . . __ .
 72
    65
 73
     6
 40
22.0
 49
12.0
 49
-3.0
 49
0.5
 49
-3.0
 49
0.5
 49
-3.0
  0
LTYPE
  2
ACAD_ISO13W100
 70
    64
  3
__ __ . . __ __ . . __ __ . . __ __ . . __ __ .
 72
    65
 73
     8
 40
37.0
 49
12.0
 49
-3.0
 49
12.0
 49
-3.0
 49
0.5
 49
-3.0
 49
0.5
 49
-3.0
  0
LTYPE
  2
ACAD_ISO14W100
 70
    64
  3
__ . . . __ . . . __ . . . __ . . . __ . . . __
 72
    65
 73
     8
 40
25.5
 49
12.0
 49
-3.0
 49
0.5
 49
-3.0
 49
0.5
 49
-3.0
 49
0.5
 49
-3.0
  0
LTYPE
  2
ACAD_ISO15W100
 70
    64
  3
__ __ . . . __ __ . . . __ __ . . . __ __ . . .
 72
    65
 73
    10
 40
40.5
 49
12.0
 49
-3.0
 49
12.0
 49
-3.0
 49
0.5
 49
-3.0
 49
0.5
 49
-3.0
 49
0.5
 49
-3.0
  0
ENDTAB
  0
TABLE
  2
STYLE
 70
     4
  0
STYLE
  2
STANDARD
 70
    64
 40
0.0
 41
1.0
 50
0.0
 71
     0
 42
0.2
  3
txt
  4

  0
STYLE
  2
TOLERANCE
 70
    64
 40
0.0
 41
1.0
 50
0.0
 71
     0
 42
0.2
  3
../igesfont/iges1003.shx
  4

  0
STYLE
  2
ROMANS
 70
    64
 40
0.0
 41
1.0
 50
0.0
 71
     0
 42
0.2
  3
romans.shx
  4

  0
STYLE
  2
ROMANC
 70
    64
 40
0.0
 41
1.0
 50
0.0
 71
     0
 42
0.2
  3
romanc.shx
  4

  0
ENDTAB
  0
TABLE
  2
DIMSTYLE
 70
     2
  0
DIMSTYLE
  2
UNNAMED
 70
     0
  3

  4

  5

  6

  7

 40
1.0
 41
0.18
 42
0.0625
 43
0.38
 44
0.18
 45
0.0
 46
0.0
 47
0.0
 48
0.0
140
0.18
141
0.09
142
0.0
143
25.4
144
1.0
145
0.0
146
1.0
147
0.09
 71
     0
 72
     0
 73
     1
 74
     1
 75
     0
 76
     0
 77
     0
 78
     0
170
     0
171
     2
172
     0
173
     0
174
     0
175
     0
176
     0
177
     0
178
     0
  0
DIMSTYLE
  2
STANDARD
 70
     0
  3

  4

  5

  6

  7

 40
1.0
 41
0.18
 42
0.0625
 43
0.38
 44
0.18
 45
0.0
 46
0.0
 47
0.0
 48
0.0
140
0.18
141
0.09
142
0.0
143
25.4
144
1.0
145
0.0
146
1.0
147
0.09
 71
     0
 72
     0
 73
     1
 74
     1
 75
     0
 76
     0
 77
     0
 78
     0
170
     0
171
     2
172
     0
173
     0
174
     0
175
     0
176
     0
177
     0
178
     0
  0
ENDTAB
  0
TABLE
  2
LAYER
 70
     1
  0
LAYER
  2
0
 70
     0
 62
     7
  6
CONTINUOUS
  0
ENDTAB
  0
ENDSEC
  0
SECTION
  2
BLOCKS
  0
BLOCK
  5
     B
  8
0
  6
CONTINUOUS
 62
     7
  2
*HATCH124
 70
    65
 10
0.0
 20
0.0
 30
0.0
  3
*HATCH124
  0
LINE
  5
     C
  8
0
  6
CONTINUOUS
 62
     7
 10
33.3043479919434
 20
-89.7322311401367
 30
0.0
 11
30.5
 21
-92.5365753173828
 31
0.0
  0
ENDBLK
  5
     D
  8
0
  6
CONTINUOUS
 62
     7
  0
BLOCK
  5
     E
  8
0
  6
CONTINUOUS
 62
     7
  2
*HATCH125
 70
    65
 10
0.0
 20
0.0
 30
0.0
  3
*HATCH125
  0
LINE
  5
     F
  8
0
  6
CONTINUOUS
 62
     7
 10
41.7896270751953
 20
-89.7322311401367
 30
0.0
 11
39.4999885559082
 21
-92.0218734741211
 31
0.0
  0
LINE
  5
    10
  8
0
  6
CONTINUOUS
 62
     7
 10
42.5
 20
-93.2645034790039
 30
0.0
 11
42.0322685241699
 21
-93.7322311401367
 31
0.0
  0
ENDBLK
  5
    11
  8
0
  6
CONTINUOUS
 62
     7
  0
BLOCK
  5
    12
  8
0
  6
CONTINUOUS
 62
     7
  2
*HATCH126
 70
    65
 10
0.0
 20
0.0
 30
0.0
  3
*HATCH126
  0
LINE
  5
    13
  8
0
  6
CONTINUOUS
 62
     7
 10
31.8646125793457
 20
-108.232231140137
 30
0.0
 11
33.8646087646484
 21
-110.232231140137
 31
0.0
  0
LINE
  5
    14
  8
0
  6
CONTINUOUS
 62
     7
 10
36.107250213623
 20
-108.232231140137
 30
0.0
 11
38.1072463989258
 21
-110.232231140137
 31
0.0
  0
LINE
  5
    15
  8
0
  6
CONTINUOUS
 62
     7
 10
40.3498878479004
 20
-108.232231140137
 30
0.0
 11
42.3498840332031
 21
-110.232231140137
 31
0.0
  0
ENDBLK
  5
    16
  8
0
  6
CONTINUOUS
 62
     7
  0
BLOCK
  5
    17
  8
0
  6
CONTINUOUS
 62
     7
  2
*HATCH127
 70
    65
 10
0.0
 20
0.0
 30
0.0
  3
*HATCH127
  0
LINE
  5
    18
  8
0
  6
CONTINUOUS
 62
    52
 10
21.7561721801758
 20
-48.2473983764648
 30
0.0
 11
20.9999847412109
 21
-49.0035858154297
 31
0.0
  0
LINE
  5
    19
  8
0
  6
CONTINUOUS
 62
    52
 10
23.8774929046631
 20
-48.2473983764648
 30
0.0
 11
20.9999847412109
 21
-51.1249046325684
 31
0.0
  0
LINE
  5
    1A
  8
0
  6
CONTINUOUS
 62
    52
 10
25.9988136291504
 20
-48.2473983764648
 30
0.0
 11
22.9988117218018
 21
-51.2473983764648
 31
0.0
  0
LINE
  5
    1B
  8
0
  6
CONTINUOUS
 62
    52
 10
22.4999847412109
 20
-51.7462272644043
 30
0.0
 11
21.4988117218018
 21
-52.7473983764648
 31
0.0
  0
LINE
  5
    1C
  8
0
  6
CONTINUOUS
 62
    52
 10
28.1201324462891
 20
-48.2473983764648
 30
0.0
 11
25.1201324462891
 21
-51.2473983764648
 31
0.0
  0
LINE
  5
    1D
  8
0
  6
CONTINUOUS
 62
    52
 10
30.2414531707764
 20
-48.2473983764648
 30
0.0
 11
27.2414531707764
 21
-51.2473983764648
 31
0.0
  0
LINE
  5
    1E
  8
0
  6
CONTINUOUS
 62
    52
 10
32.3627738952637
 20
-48.2473983764648
 30
0.0
 11
29.3627738952637
 21
-51.2473983764648
 31
0.0
  0
LINE
  5
    1F
  8
0
  6
CONTINUOUS
 62
    52
 10
34.4840927124023
 20
-48.2473983764648
 30
0.0
 11
31.484094619751
 21
-51.2473983764648
 31
0.0
  0
LINE
  5
    20
  8
0
  6
CONTINUOUS
 62
    52
 10
36.605411529541
 20
-48.2473983764648
 30
0.0
 11
33.6054153442383
 21
-51.2473983764648
 31
0.0
  0
LINE
  5
    21
  8
0
  6
CONTINUOUS
 62
    52
 10
38.7267303466797
 20
-48.2473983764648
 30
0.0
 11
35.726734161377
 21
-51.2473983764648
 31
0.0
  0
LINE
  5
    22
  8
0
  6
CONTINUOUS
 62
    52
 10
40.8480491638184
 20
-48.2473983764648
 30
0.0
 11
37.8480529785156
 21
-51.2473983764648
 31
0.0
  0
LINE
  5
    23
  8
0
  6
CONTINUOUS
 62
    52
 10
42.969367980957
 20
-48.2473983764648
 30
0.0
 11
39.9693717956543
 21
-51.2473983764648
 31
0.0
  0
LINE
  5
    24
  8
0
  6
CONTINUOUS
 62
    52
 10
45.0906867980957
 20
-48.2473983764648
 30
0.0
 11
42.090690612793
 21
-51.2473983764648
 31
0.0
  0
LINE
  5
    25
  8
0
  6
CONTINUOUS
 62
    52
 10
45.4999847412109
 20
-49.9594306945801
 30
0.0
 11
44.2120170593262
 21
-51.2473983764648
 31
0.0
  0
ENDBLK
  5
    26
  8
0
  6
CONTINUOUS
 62
     7
  0
BLOCK
  5
    27
  8
0
  6
CONTINUOUS
 62
     7
  2
*HATCH128
 70
    65
 10
0.0
 20
0.0
 30
0.0
  3
*HATCH128
  0
LINE
  5
    28
  8
0
  6
CONTINUOUS
 62
    52
 10
-50.3687210083008
 20
-48.2473983764648
 30
0.0
 11
-50.5000152587891
 21
-48.3786926269531
 31
0.0
  0
LINE
  5
    29
  8
0
  6
CONTINUOUS
 62
    52
 10
-48.2474021911621
 20
-48.2473983764648
 30
0.0
 11
-50.5000152587891
 21
-50.5000114440918
 31
0.0
  0
LINE
  5
    2A
  8
0
  6
CONTINUOUS
 62
    52
 10
-46.1260833740234
 20
-48.2473983764648
 30
0.0
 11
-49.1260833740234
 21
-51.2473983764648
 31
0.0
  0
LINE
  5
    2B
  8
0
  6
CONTINUOUS
 62
    52
 10
-44.0047645568848
 20
-48.2473983764648
 30
0.0
 11
-47.0047645568848
 21
-51.2473983764648
 31
0.0
  0
LINE
  5
    2C
  8
0
  6
CONTINUOUS
 62
    52
 10
-41.8834457397461
 20
-48.2473983764648
 30
0.0
 11
-44.8834457397461
 21
-51.2473983764648
 31
0.0
  0
LINE
  5
    2D
  8
0
  6
CONTINUOUS
 62
    52
 10
-39.7621269226074
 20
-48.2473983764648
 30
0.0
 11
-42.7621269226074
 21
-51.2473983764648
 31
0.0
  0
LINE
  5
    2E
  8
0
  6
CONTINUOUS
 62
    52
 10
-37.6408081054688
 20
-48.2473983764648
 30
0.0
 11
-40.6408081054688
 21
-51.2473983764648
 31
0.0
  0
LINE
  5
    2F
  8
0
  6
CONTINUOUS
 62
    52
 10
-35.5194892883301
 20
-48.2473983764648
 30
0.0
 11
-38.5194892883301
 21
-51.2473983764648
 31
0.0
  0
LINE
  5
    30
  8
0
  6
CONTINUOUS
 62
    52
 10
-33.3981704711914
 20
-48.2473983764648
 30
0.0
 11
-36.3981704711914
 21
-51.2473983764648
 31
0.0
  0
LINE
  5
    31
  8
0
  6
CONTINUOUS
 62
    52
 10
-31.2768497467041
 20
-48.2473983764648
 30
0.0
 11
-34.2768516540527
 21
-51.2473983764648
 31
0.0
  0
LINE
  5
    32
  8
0
  6
CONTINUOUS
 62
    52
 10
-29.1555290222168
 20
-48.2473983764648
 30
0.0
 11
-32.1555328369141
 21
-51.2473983764648
 31
0.0
  0
LINE
  5
    33
  8
0
  6
CONTINUOUS
 62
    52
 10
-27.0342082977295
 20
-48.2473983764648
 30
0.0
 11
-30.0342121124268
 21
-51.2473983764648
 31
0.0
  0
LINE
  5
    34
  8
0
  6
CONTINUOUS
 62
    52
 10
-26.0000152587891
 20
-49.3345375061035
 30
0.0
 11
-27.912878036499
 21
-51.2473983764648
 31
0.0
  0
LINE
  5
    35
  8
0
  6
CONTINUOUS
 62
    52
 10
-26.0000152587891
 20
-51.4558563232422
 30
0.0
 11
-27.2915573120117
 21
-52.7473983764648
 31
0.0
  0
ENDBLK
  5
    36
  8
0
  6
CONTINUOUS
 62
     7
  0
BLOCK
  5
    37
  8
0
  6
CONTINUOUS
 62
     7
  2
*HATCH129
 70
    65
 10
0.0
 20
0.0
 30
0.0
  3
*HATCH129
  0
LINE
  5
    38
  8
0
  6
CONTINUOUS
 62
     7
 10
-154.08740234375
 20
-90.8720474243164
 30
0.0
 11
-154.266754150391
 21
-91.0514144897461
 31
0.0
  0
LINE
  5
    39
  8
0
  6
CONTINUOUS
 62
     7
 10
-153.233383178711
 20
-90.4423065185547
 30
0.0
 11
-154.470962524414
 21
-91.6798782348633
 31
0.0
  0
LINE
  5
    3A
  8
0
  6
CONTINUOUS
 62
     7
 10
-152.809127807617
 20
-90.4423065185547
 30
0.0
 11
-154.459625244141
 21
-92.0928039550781
 31
0.0
  0
LINE
  5
    3B
  8
0
  6
CONTINUOUS
 62
     7
 10
-152.462280273438
 20
-90.5197296142578
 30
0.0
 11
-154.355575561523
 21
-92.4130172729492
 31
0.0
  0
LINE
  5
    3C
  8
0
  6
CONTINUOUS
 62
     7
 10
-152.216552734375
 20
-90.6982650756836
 30
0.0
 11
-154.251525878906
 21
-92.7332382202149
 31
0.0
  0
LINE
  5
    3D
  8
0
  6
CONTINUOUS
 62
     7
 10
-151.970825195313
 20
-90.8767929077148
 30
0.0
 11
-154.013458251953
 21
-92.9194412231445
 31
0.0
  0
LINE
  5
    3E
  8
0
  6
CONTINUOUS
 62
     7
 10
-151.779144287109
 20
-91.1093902587891
 30
0.0
 11
-153.767730712891
 21
-93.0979766845703
 31
0.0
  0
LINE
  5
    3F
  8
0
  6
CONTINUOUS
 62
     7
 10
-151.675094604492
 20
-91.4296112060547
 30
0.0
 11
-153.522003173828
 21
-93.2765121459961
 31
0.0
  0
LINE
  5
    40
  8
0
  6
CONTINUOUS
 62
     7
 10
-151.571060180664
 20
-91.7498245239258
 30
0.0
 11
-153.11669921875
 21
-93.2954711914063
 31
0.0
  0
LINE
  5
    41
  8
0
  6
CONTINUOUS
 62
     7
 10
-151.66064453125
 20
-92.2636795043945
 30
0.0
 11
-152.692443847656
 21
-93.2954711914063
 31
0.0
  0
ENDBLK
  5
    42
  8
0
  6
CONTINUOUS
 62
     7
  0
BLOCK
  5
    43
  8
0
  6
CONTINUOUS
 62
     7
  2
*HATCH130
 70
    65
 10
0.0
 20
0.0
 30
0.0
  3
*HATCH130
  0
LINE
  5
    44
  8
0
  6
CONTINUOUS
 62
     7
 10
-151.894271850586
 20
-16.1297779083252
 30
0.0
 11
-152.891174316406
 21
-17.1266822814941
 31
0.0
  0
LINE
  5
    45
  8
0
  6
CONTINUOUS
 62
     7
 10
-151.470001220703
 20
-16.1297779083252
 30
0.0
 11
-152.997863769531
 21
-17.6576480865479
 31
0.0
  0
LINE
  5
    46
  8
0
  6
CONTINUOUS
 62
     7
 10
-151.054794311523
 20
-16.1388320922852
 30
0.0
 11
-152.893829345703
 21
-17.9778671264648
 31
0.0
  0
LINE
  5
    47
  8
0
  6
CONTINUOUS
 62
     7
 10
-150.809066772461
 20
-16.3173656463623
 30
0.0
 11
-152.789779663086
 21
-18.2980861663818
 31
0.0
  0
LINE
  5
    48
  8
0
  6
CONTINUOUS
 62
     7
 10
-150.563323974609
 20
-16.4958992004395
 30
0.0
 11
-152.605972290039
 21
-18.5385437011719
 31
0.0
  0
LINE
  5
    49
  8
0
  6
CONTINUOUS
 62
     7
 10
-150.317596435547
 20
-16.6744327545166
 30
0.0
 11
-152.360244750977
 21
-18.717077255249
 31
0.0
  0
LINE
  5
    4A
  8
0
  6
CONTINUOUS
 62
     7
 10
-150.213348388672
 20
-16.9944534301758
 30
0.0
 11
-152.114517211914
 21
-18.8956108093262
 31
0.0
  0
LINE
  5
    4B
  8
0
  6
CONTINUOUS
 62
     7
 10
-150.109313964844
 20
-17.3146705627441
 30
0.0
 11
-151.777587890625
 21
-18.982946395874
 31
0.0
  0
LINE
  5
    4C
  8
0
  6
CONTINUOUS
 62
     7
 10
-150.080856323242
 20
-17.7104816436768
 30
0.0
 11
-151.353317260742
 21
-18.982946395874
 31
0.0
  0
LINE
  5
    4D
  8
0
  6
CONTINUOUS
 62
     7
 10
-150.285049438477
 20
-18.3389453887939
 30
0.0
 11
-150.561889648438
 21
-18.6157760620117
 31
0.0
  0
ENDBLK
  5
    4E
  8
0
  6
CONTINUOUS
 62
     7
  0
BLOCK
  5
    4F
  8
0
  6
CONTINUOUS
 62
     3
  2
*UDIM780
 70
    65
 10
0.0
 20
0.0
 30
0.0
  3
*UDIM780
  0
TEXT
  5
    50
  8
0
  6
CONTINUOUS
 62
     3
 10
-217.207132989734
 20
-119.263807147876
 30
0.0
 40
2.99999994933605
  1
75
 50
359.999999844103
 41
0.933333333333333
 72
     1
 11
-214.70713302788
 21
-117.763807179998
 31
0.0
 73
     2
  0
LINE
  5
    51
  8
0
  6
CONTINUOUS
 62
     3
 10
-244.432128849595
 20
-82.6447262465954
 30
0.0
 11
-244.432128849595
 21
-122.263807154666
 31
0.0
  0
LINE
  5
    52
  8
0
  6
CONTINUOUS
 62
     3
 10
-184.432138445943
 20
-30.2447132587431
 30
0.0
 11
-184.432138445943
 21
-122.263807154666
 31
0.0
  0
LINE
  5
    53
  8
0
  6
CONTINUOUS
 62
     3
 10
-244.432128849595
 20
-120.263807154666
 30
0.0
 11
-184.432138445943
 21
-120.263807154666
 31
0.0
  0
LINE
  5
    54
  8
0
  6
CONTINUOUS
 62
     3
 10
-241.477705572388
 20
-119.742862724714
 30
0.0
 11
-244.432128849595
 21
-120.263807154666
 31
0.0
  0
LINE
  5
    55
  8
0
  6
CONTINUOUS
 62
     3
 10
-244.432128849595
 20
-120.263807154666
 30
0.0
 11
-241.477705572388
 21
-120.784751584617
 31
0.0
  0
LINE
  5
    56
  8
0
  6
CONTINUOUS
 62
     3
 10
-187.386561723149
 20
-120.784751584617
 30
0.0
 11
-184.432138445943
 21
-120.263807154666
 31
0.0
  0
LINE
  5
    57
  8
0
  6
CONTINUOUS
 62
     3
 10
-184.432138445943
 20
-120.263807154666
 30
0.0
 11
-187.386561723149
 21
-119.742862724714
 31
0.0
  0
ENDBLK
  5
    58
  8
0
  6
CONTINUOUS
 62
     3
  0
BLOCK
  5
    59
  8
0
  6
CONTINUOUS
 62
     3
  2
*UDIM781
 70
    65
 10
0.0
 20
0.0
 30
0.0
  3
*UDIM781
  0
TEXT
  5
    5A
  8
0
  6
CONTINUOUS
 62
     3
 10
-239.001060275116
 20
-112.178846482957
 30
0.0
 40
2.99999994933605
  1
27,5
 50
359.999999844103
 41
0.933333333333333
 72
     1
 11
-233.701060360549
 21
-110.678846522683
 31
0.0
 73
     2
  0
LINE
  5
    5B
  8
0
  6
CONTINUOUS
 62
     3
 10
-244.432128849595
 20
-82.6447262465954
 30
0.0
 11
-244.432128849595
 21
-115.178846497351
 31
0.0
  0
LINE
  5
    5C
  8
0
  6
CONTINUOUS
 62
     3
 10
-222.419999310162
 20
-47.4240207558647
 30
0.0
 11
-222.419999310162
 21
-115.178846497351
 31
0.0
  0
LINE
  5
    5D
  8
0
  6
CONTINUOUS
 62
     3
 10
-244.432128849595
 20
-113.178846497351
 30
0.0
 11
-222.419999310162
 21
-113.178846497351
 31
0.0
  0
LINE
  5
    5E
  8
0
  6
CONTINUOUS
 62
     3
 10
-241.477705572388
 20
-112.657902067399
 30
0.0
 11
-244.432128849595
 21
-113.178846497351
 31
0.0
  0
LINE
  5
    5F
  8
0
  6
CONTINUOUS
 62
     3
 10
-244.432128849595
 20
-113.178846497351
 30
0.0
 11
-241.477705572388
 21
-113.699790927303
 31
0.0
  0
LINE
  5
    60
  8
0
  6
CONTINUOUS
 62
     3
 10
-225.374422587369
 20
-113.699790927303
 30
0.0
 11
-222.419999310162
 21
-113.178846497351
 31
0.0
  0
LINE
  5
    61
  8
0
  6
CONTINUOUS
 62
     3
 10
-222.419999310162
 20
-113.178846497351
 30
0.0
 11
-225.374422587369
 21
-112.657902067399
 31
0.0
  0
ENDBLK
  5
    62
  8
0
  6
CONTINUOUS
 62
     3
  0
BLOCK
  5
    63
  8
0
  6
CONTINUOUS
 62
     7
  2
*UDIM782
 70
    65
 10
0.0
 20
0.0
 30
0.0
  3
*UDIM782
  0
TEXT
  5
    64
  8
0
  6
CONTINUOUS
 62
     7
 10
-216.900374506284
 20
106.92257381544
 30
0.0
 40
2.99999994933605
  1
71
 50
359.999999844103
 41
0.933333333333333
 72
     1
 11
-214.40037454443
 21
108.422573783318
 31
0.0
 73
     2
  0
LINE
  5
    65
  8
0
  6
CONTINUOUS
 62
     7
 10
-244.432128493556
 20
90.6645219163406
 30
0.0
 11
-244.432128493556
 21
107.92257380865
 31
0.0
  0
LINE
  5
    66
  8
0
  6
CONTINUOUS
 62
     7
 10
-188.032132586806
 20
55.6683588512133
 30
0.0
 11
-188.032132586806
 21
107.92257380865
 31
0.0
  0
LINE
  5
    67
  8
0
  6
CONTINUOUS
 62
     7
 10
-244.432128493556
 20
105.92257380865
 30
0.0
 11
-188.032132586806
 21
105.92257380865
 31
0.0
  0
LINE
  5
    68
  8
0
  6
CONTINUOUS
 62
     3
 10
-241.534351020346
 20
106.699030965069
 30
0.0
 11
-244.432128493556
 21
105.92257380865
 31
0.0
  0
LINE
  5
    69
  8
0
  6
CONTINUOUS
 62
     3
 10
-244.432128493556
 20
105.92257380865
 30
0.0
 11
-241.534351020346
 21
105.146116652232
 31
0.0
  0
LINE
  5
    6A
  8
0
  6
CONTINUOUS
 62
     3
 10
-190.929910060016
 20
105.146116652232
 30
0.0
 11
-188.032132586806
 21
105.92257380865
 31
0.0
  0
LINE
  5
    6B
  8
0
  6
CONTINUOUS
 62
     3
 10
-188.032132586806
 20
105.92257380865
 30
0.0
 11
-190.929910060016
 21
106.699030965069
 31
0.0
  0
ENDBLK
  5
    6C
  8
0
  6
CONTINUOUS
 62
     7
  0
BLOCK
  5
    6D
  8
0
  6
CONTINUOUS
 62
     7
  2
*UDIM783
 70
    65
 10
0.0
 20
0.0
 30
0.0
  3
*UDIM783
  0
TEXT
  5
    6E
  8
0
  6
CONTINUOUS
 62
     7
 10
-183.335226235558
 20
106.922573819242
 30
0.0
 40
2.99999994933605
  1
1.5
 50
359.999999844103
 41
0.933333333333333
 72
     1
 11
-179.435226297348
 21
108.422573783318
 31
0.0
 73
     2
  0
TEXT
  5
    6F
  8
0
  6
CONTINUOUS
 62
     7
 10
-174.535226367284
 20
106.92257381544
 30
0.0
 40
2.99999994933605
  1
-2
 50
359.999999844103
 41
0.933333333333333
 72
     1
 11
-172.035226405431
 21
108.422573783318
 31
0.0
 73
     2
  0
LINE
  5
    70
  8
0
  6
CONTINUOUS
 62
     7
 10
-186.832132568924
 20
55.6683588512133
 30
0.0
 11
-186.832132568924
 21
107.92257380865
 31
0.0
  0
LINE
  5
    71
  8
0
  6
CONTINUOUS
 62
     7
 10
-188.032132586806
 20
105.92257380865
 30
0.0
 11
-169.535226447651
 21
105.92257380865
 31
0.0
  0
LINE
  5
    72
  8
0
  6
CONTINUOUS
 62
     3
 10
-190.929910060016
 20
105.146116652232
 30
0.0
 11
-188.032132586806
 21
105.92257380865
 31
0.0
  0
LINE
  5
    73
  8
0
  6
CONTINUOUS
 62
     3
 10
-188.032132586806
 20
105.92257380865
 30
0.0
 11
-190.929910060016
 21
106.699030965069
 31
0.0
  0
LINE
  5
    74
  8
0
  6
CONTINUOUS
 62
     3
 10
-183.934355095714
 20
106.699030965069
 30
0.0
 11
-186.832132568924
 21
105.92257380865
 31
0.0
  0
LINE
  5
    75
  8
0
  6
CONTINUOUS
 62
     3
 10
-186.832132568924
 20
105.92257380865
 30
0.0
 11
-183.934355095714
 21
105.146116652232
 31
0.0
  0
ENDBLK
  5
    76
  8
0
  6
CONTINUOUS
 62
     7
  0
BLOCK
  5
    77
  8
0
  6
CONTINUOUS
 62
     3
  2
*UDIM784
 70
    65
 10
0.0
 20
0.0
 30
0.0
  3
*UDIM784
  0
TEXT
  5
    78
  8
0
  6
CONTINUOUS
 62
     3
 10
-240.607127171724
 20
97.8012307909992
 30
0.0
 40
2.99999994933605
  1
23,5
 50
359.999999844103
 41
0.933333333333333
 72
     1
 11
-235.307127257156
 21
99.3012307512731
 31
0.0
 73
     2
  0
LINE
  5
    79
  8
0
  6
CONTINUOUS
 62
     3
 10
-244.432128493556
 20
89.6645219163406
 30
0.0
 11
-244.432128493556
 21
98.801230776605
 31
0.0
  0
LINE
  5
    7A
  8
0
  6
CONTINUOUS
 62
     3
 10
-225.632129465905
 20
64.5552637398184
 30
0.0
 11
-225.632129465905
 21
98.801230776605
 31
0.0
  0
LINE
  5
    7B
  8
0
  6
CONTINUOUS
 62
     3
 10
-244.432128493556
 20
96.801230776605
 30
0.0
 11
-225.632129465905
 21
96.801230776605
 31
0.0
  0
LINE
  5
    7C
  8
0
  6
CONTINUOUS
 62
     3
 10
-241.477705216349
 20
97.3221752065567
 30
0.0
 11
-244.432128493556
 21
96.801230776605
 31
0.0
  0
LINE
  5
    7D
  8
0
  6
CONTINUOUS
 62
     3
 10
-244.432128493556
 20
96.801230776605
 30
0.0
 11
-241.477705216349
 21
96.2802863466534
 31
0.0
  0
LINE
  5
    7E
  8
0
  6
CONTINUOUS
 62
     3
 10
-228.586552743112
 20
96.2802863466534
 30
0.0
 11
-225.632129465905
 21
96.801230776605
 31
0.0
  0
LINE
  5
    7F
  8
0
  6
CONTINUOUS
 62
     3
 10
-225.632129465905
 20
96.801230776605
 30
0.0
 11
-228.586552743112
 21
97.3221752065567
 31
0.0
  0
ENDBLK
  5
    80
  8
0
  6
CONTINUOUS
 62
     3
  0
BLOCK
  5
    81
  8
0
  6
CONTINUOUS
 62
     3
  2
*UDIM785
 70
    65
 10
0.0
 20
0.0
 30
0.0
  3
*UDIM785
  0
TEXT
  5
    82
  8
0
  6
CONTINUOUS
 62
     3
 10
-237.596232798465
 20
89.6154101098084
 30
0.0
 40
2.99999994933605
  1
5
 50
359.999999844103
 41
0.933333333333333
 72
     1
 11
-236.496232812968
 21
91.115410081489
 31
0.0
 73
     2
  0
LINE
  5
    83
  8
0
  6
CONTINUOUS
 62
     3
 10
-229.63212952551
 20
64.5552637398184
 30
0.0
 11
-229.63212952551
 21
90.615410106821
 31
0.0
  0
LINE
  5
    84
  8
0
  6
CONTINUOUS
 62
     3
 10
-225.632129465905
 20
64.5552637398184
 30
0.0
 11
-225.632129465905
 21
90.615410106821
 31
0.0
  0
LINE
  5
    85
  8
0
  6
CONTINUOUS
 62
     3
 10
-237.596232794392
 20
88.6154101068209
 30
0.0
 11
-225.632129465905
 21
88.6154101068209
 31
0.0
  0
LINE
  5
    86
  8
0
  6
CONTINUOUS
 62
     3
 10
-232.586552802717
 20
88.0944656768693
 30
0.0
 11
-229.63212952551
 21
88.6154101068209
 31
0.0
  0
LINE
  5
    87
  8
0
  6
CONTINUOUS
 62
     3
 10
-229.63212952551
 20
88.6154101068209
 30
0.0
 11
-232.586552802717
 21
89.1363545367726
 31
0.0
  0
LINE
  5
    88
  8
0
  6
CONTINUOUS
 62
     3
 10
-222.677706188698
 20
89.1363545367726
 30
0.0
 11
-225.632129465905
 21
88.6154101068209
 31
0.0
  0
LINE
  5
    89
  8
0
  6
CONTINUOUS
 62
     3
 10
-225.632129465905
 20
88.6154101068209
 30
0.0
 11
-222.677706188698
 21
88.0944656768693
 31
0.0
  0
ENDBLK
  5
    8A
  8
0
  6
CONTINUOUS
 62
     3
  0
BLOCK
  5
    8B
  8
0
  6
CONTINUOUS
 62
     3
  2
*UDIM786
 70
    65
 10
0.0
 20
0.0
 30
0.0
  3
*UDIM786
  0
TEXT
  5
    8C
  8
0
  6
CONTINUOUS
 62
     3
 10
-257.677635329275
 20
-6.81972505827641
 30
0.0
 40
2.99999994933605
  1
150
 50
449.999999844103
 41
0.933333333333333
 72
     1
 11
-259.177635293356
 21
-2.9197251200676
 31
0.0
 73
     2
  0
LINE
  5
    8D
  8
0
  6
CONTINUOUS
 62
     3
 10
-231.399046568592
 20
57.3552636325301
 30
0.0
 11
-258.677635318688
 21
57.3552636325301
 31
0.0
  0
LINE
  5
    8E
  8
0
  6
CONTINUOUS
 62
     3
 10
-230.999046562632
 20
-62.644713741535
 30
0.0
 11
-258.677635318688
 21
-62.644713741535
 31
0.0
  0
LINE
  5
    8F
  8
0
  6
CONTINUOUS
 62
     3
 10
-256.677635318688
 20
57.3552636325301
 30
0.0
 11
-256.677635318688
 21
-62.644713741535
 31
0.0
  0
LINE
  5
    90
  8
0
  6
CONTINUOUS
 62
     3
 10
-256.156690888736
 20
54.4008403553231
 30
0.0
 11
-256.677635318688
 21
57.3552636325301
 31
0.0
  0
LINE
  5
    91
  8
0
  6
CONTINUOUS
 62
     3
 10
-256.677635318688
 20
57.3552636325301
 30
0.0
 11
-257.19857974864
 21
54.4008403553231
 31
0.0
  0
LINE
  5
    92
  8
0
  6
CONTINUOUS
 62
     3
 10
-257.19857974864
 20
-59.6902904643281
 30
0.0
 11
-256.677635318688
 21
-62.644713741535
 31
0.0
  0
LINE
  5
    93
  8
0
  6
CONTINUOUS
 62
     3
 10
-256.677635318688
 20
-62.644713741535
 30
0.0
 11
-256.156690888736
 21
-59.6902904643281
 31
0.0
  0
ENDBLK
  5
    94
  8
0
  6
CONTINUOUS
 62
     3
  0
BLOCK
  5
    95
  8
0
  6
CONTINUOUS
 62
     3
  2
*UDIM787
 70
    65
 10
0.0
 20
0.0
 30
0.0
  3
*UDIM787
  0
TEXT
  5
    96
  8
0
  6
CONTINUOUS
 62
     3
 10
-162.288254021249
 20
-15.0197129881369
 30
0.0
 40
2.99999994933605
  1
45
 50
449.999999844103
 41
0.933333333333333
 72
     1
 11
-163.788253989131
 21
-12.5197130262849
 31
0.0
 73
     2
  0
LINE
  5
    97
  8
0
  6
CONTINUOUS
 62
     3
 10
-184.432138445943
 20
5.75528727769874
 30
0.0
 11
-159.288254014463
 21
5.75528727769874
 31
0.0
  0
LINE
  5
    98
  8
0
  6
CONTINUOUS
 62
     3
 10
-184.432138445943
 20
-30.2447132587431
 30
0.0
 11
-159.288254014463
 21
-30.2447132587431
 31
0.0
  0
LINE
  5
    99
  8
0
  6
CONTINUOUS
 62
     3
 10
-161.288254014463
 20
5.75528727769874
 30
0.0
 11
-161.288254014463
 21
-30.2447132587431
 31
0.0
  0
LINE
  5
    9A
  8
0
  6
CONTINUOUS
 62
     3
 10
-160.767309584511
 20
2.80086400049177
 30
0.0
 11
-161.288254014463
 21
5.75528727769874
 31
0.0
  0
LINE
  5
    9B
  8
0
  6
CONTINUOUS
 62
     3
 10
-161.288254014463
 20
5.75528727769874
 30
0.0
 11
-161.809198444415
 21
2.80086400049177
 31
0.0
  0
LINE
  5
    9C
  8
0
  6
CONTINUOUS
 62
     3
 10
-161.809198444415
 20
-27.2902899815361
 30
0.0
 11
-161.288254014463
 21
-30.2447132587431
 31
0.0
  0
LINE
  5
    9D
  8
0
  6
CONTINUOUS
 62
     3
 10
-161.288254014463
 20
-30.2447132587431
 30
0.0
 11
-160.767309584511
 21
-27.2902899815361
 31
0.0
  0
ENDBLK
  5
    9E
  8
0
  6
CONTINUOUS
 62
     3
  0
BLOCK
  5
    9F
  8
0
  6
CONTINUOUS
 62
     7
  2
*UDIM788
 70
    65
 10
0.0
 20
0.0
 30
0.0
  3
*UDIM788
  0
TEXT
  5
    A0
  8
0
  6
CONTINUOUS
 62
     7
 10
-221.103658347406
 20
-102.09151460539
 30
0.0
 40
2.99999994933605
  1
12.5
 50
359.999999844103
 41
0.933333333333333
 72
     1
 11
-215.803658432838
 21
-100.591514645116
 31
0.0
 73
     2
  0
TEXT
  5
    A1
  8
0
  6
CONTINUOUS
 62
     7
 10
-209.503658526419
 20
-102.091514601588
 30
0.0
 40
2.99999994933605
  1
x12.5
 50
359.999999844103
 41
0.933333333333333
 72
     1
 11
-202.803658635494
 21
-100.591514645116
 31
0.0
 73
     2
  0
LINE
  5
    A2
  8
0
  6
CONTINUOUS
 62
     7
 10
-232.419999459174
 20
-49.2447257339954
 30
0.0
 11
-232.419999459174
 21
-105.091514619784
 31
0.0
  0
LINE
  5
    A3
  8
0
  6
CONTINUOUS
 62
     7
 10
-222.432129418222
 20
-50.3165103126538
 30
0.0
 11
-222.432129418222
 21
-105.091514619784
 31
0.0
  0
LINE
  5
    A4
  8
0
  6
CONTINUOUS
 62
     7
 10
-232.419999459174
 20
-103.091514619784
 30
0.0
 11
-196.103658748644
 21
-103.091514619784
 31
0.0
  0
LINE
  5
    A5
  8
0
  6
CONTINUOUS
 62
     3
 10
-229.522221985964
 20
-102.315057463366
 30
0.0
 11
-232.419999459174
 21
-103.091514619784
 31
0.0
  0
LINE
  5
    A6
  8
0
  6
CONTINUOUS
 62
     3
 10
-232.419999459174
 20
-103.091514619784
 30
0.0
 11
-229.522221985964
 21
-103.867971776203
 31
0.0
  0
LINE
  5
    A7
  8
0
  6
CONTINUOUS
 62
     3
 10
-225.329906891432
 20
-103.867971776203
 30
0.0
 11
-222.432129418222
 21
-103.091514619784
 31
0.0
  0
LINE
  5
    A8
  8
0
  6
CONTINUOUS
 62
     3
 10
-222.432129418222
 20
-103.091514619784
 30
0.0
 11
-225.329906891432
 21
-102.315057463366
 31
0.0
  0
ENDBLK
  5
    A9
  8
0
  6
CONTINUOUS
 62
     7
  0
BLOCK
  5
    AA
  8
0
  6
CONTINUOUS
 62
     7
  2
*UDIM789
 70
    65
 10
0.0
 20
0.0
 30
0.0
  3
*UDIM789
  0
TEXT
  5
    AB
  8
0
  6
CONTINUOUS
 62
     7
 10
-209.761065986326
 20
-126.364653367203
 30
0.0
 40
2.99999994933605
  1
93
 50
359.999999844103
 41
0.933333333333333
 72
     1
 11
-207.261066024472
 21
-124.864653399324
 31
0.0
 73
     2
  0
LINE
  5
    AC
  8
0
  6
CONTINUOUS
 62
     7
 10
-244.432128493556
 20
-94.1640003081846
 30
0.0
 11
-244.432128493556
 21
-129.364653373992
 31
0.0
  0
LINE
  5
    AD
  8
0
  6
CONTINUOUS
 62
     7
 10
-170.090003555388
 20
-27.8343276808795
 30
0.0
 11
-170.090003555388
 21
-129.364653373992
 31
0.0
  0
LINE
  5
    AE
  8
0
  6
CONTINUOUS
 62
     7
 10
-244.432128493556
 20
-127.364653373992
 30
0.0
 11
-170.090003555388
 21
-127.364653373992
 31
0.0
  0
LINE
  5
    AF
  8
0
  6
CONTINUOUS
 62
     3
 10
-241.534351020346
 20
-126.588196217574
 30
0.0
 11
-244.432128493556
 21
-127.364653373992
 31
0.0
  0
LINE
  5
    B0
  8
0
  6
CONTINUOUS
 62
     3
 10
-244.432128493556
 20
-127.364653373992
 30
0.0
 11
-241.534351020346
 21
-128.141110530411
 31
0.0
  0
LINE
  5
    B1
  8
0
  6
CONTINUOUS
 62
     3
 10
-172.987781028599
 20
-128.141110530411
 30
0.0
 11
-170.090003555388
 21
-127.364653373992
 31
0.0
  0
LINE
  5
    B2
  8
0
  6
CONTINUOUS
 62
     3
 10
-170.090003555388
 20
-127.364653373992
 30
0.0
 11
-172.987781028599
 21
-126.588196217574
 31
0.0
  0
ENDBLK
  5
    B3
  8
0
  6
CONTINUOUS
 62
     7
  0
BLOCK
  5
    B4
  8
0
  6
CONTINUOUS
 62
     7
  2
*HATCH131
 70
    65
 10
0.0
 20
0.0
 30
0.0
  3
*HATCH131
  0
LINE
  5
    B5
  8
0
  6
CONTINUOUS
 62
     7
 10
-113.0
 20
-129.970550537109
 30
0.0
 11
-114.5
 21
-131.470550537109
 31
0.0
  0
LINE
  5
    B6
  8
0
  6
CONTINUOUS
 62
     7
 10
-109.699630737305
 20
-130.912826538086
 30
0.0
 11
-111.69962310791
 21
-132.912811279297
 31
0.0
  0
LINE
  5
    B7
  8
0
  6
CONTINUOUS
 62
     7
 10
-105.456993103027
 20
-130.912826538086
 30
0.0
 11
-107.456985473633
 21
-132.912811279297
 31
0.0
  0
LINE
  5
    B8
  8
0
  6
CONTINUOUS
 62
     7
 10
-101.21435546875
 20
-130.912826538086
 30
0.0
 11
-103.214347839355
 21
-132.912811279297
 31
0.0
  0
LINE
  5
    B9
  8
0
  6
CONTINUOUS
 62
     7
 10
-96.9717178344727
 20
-130.912826538086
 30
0.0
 11
-98.9717102050781
 21
-132.912811279297
 31
0.0
  0
LINE
  5
    BA
  8
0
  6
CONTINUOUS
 62
     7
 10
-92.7290802001953
 20
-130.912826538086
 30
0.0
 11
-94.7290725708008
 21
-132.912811279297
 31
0.0
  0
LINE
  5
    BB
  8
0
  6
CONTINUOUS
 62
     7
 10
-88.486442565918
 20
-130.912826538086
 30
0.0
 11
-90.4864349365234
 21
-132.912811279297
 31
0.0
  0
LINE
  5
    BC
  8
0
  6
CONTINUOUS
 62
     7
 10
-84.2438049316406
 20
-130.912826538086
 30
0.0
 11
-86.2437973022461
 21
-132.912811279297
 31
0.0
  0
LINE
  5
    BD
  8
0
  6
CONTINUOUS
 62
     7
 10
-80.0011672973633
 20
-130.912826538086
 30
0.0
 11
-82.0011596679688
 21
-132.912811279297
 31
0.0
  0
LINE
  5
    BE
  8
0
  6
CONTINUOUS
 62
     7
 10
-77.7559432983398
 20
-132.910263061523
 30
0.0
 11
-77.7584991455078
 21
-132.912826538086
 31
0.0
  0
ENDBLK
  5
    BF
  8
0
  6
CONTINUOUS
 62
     7
  0
BLOCK
  5
    C0
  8
0
  6
CONTINUOUS
 62
     7
  2
*UDIM790
 70
    65
 10
0.0
 20
0.0
 30
0.0
  3
*UDIM790
  0
TEXT
  5
    C1
  8
0
  6
CONTINUOUS
 62
     7
 10
-280.141699091136
 20
-4.34477120677893
 30
0.0
 40
2.99999994933605
  1
=
 50
449.999999844103
 41
0.933333333333333
 72
     1
 11
-281.641699062818
 21
-3.24477122128377
 31
0.0
 73
     2
  0
LINE
  5
    C2
  8
0
  6
CONTINUOUS
 62
     3
 10
-296.014901887331
 20
5.75522891282668
 30
0.0
 11
-277.14169908815
 21
5.75522891282668
 31
0.0
  0
LINE
  5
    C3
  8
0
  6
CONTINUOUS
 62
     3
 10
-289.617024788382
 20
-12.2447713553942
 30
0.0
 11
-277.14169908815
 21
-12.2447713553942
 31
0.0
  0
LINE
  5
    C4
  8
0
  6
CONTINUOUS
 62
     3
 10
-279.14169908815
 20
5.75522891282668
 30
0.0
 11
-279.14169908815
 21
-12.2447713553942
 31
0.0
  0
LINE
  5
    C5
  8
0
  6
CONTINUOUS
 62
     3
 10
-278.620754658198
 20
2.80080563561972
 30
0.0
 11
-279.14169908815
 21
5.75522891282668
 31
0.0
  0
LINE
  5
    C6
  8
0
  6
CONTINUOUS
 62
     3
 10
-279.14169908815
 20
5.75522891282668
 30
0.0
 11
-279.662643518101
 21
2.80080563561972
 31
0.0
  0
LINE
  5
    C7
  8
0
  6
CONTINUOUS
 62
     3
 10
-279.662643518101
 20
-9.29034807818726
 30
0.0
 11
-279.14169908815
 21
-12.2447713553942
 31
0.0
  0
LINE
  5
    C8
  8
0
  6
CONTINUOUS
 62
     3
 10
-279.14169908815
 20
-12.2447713553942
 30
0.0
 11
-278.620754658198
 21
-9.29034807818726
 31
0.0
  0
ENDBLK
  5
    C9
  8
0
  6
CONTINUOUS
 62
     7
  0
BLOCK
  5
    CA
  8
0
  6
CONTINUOUS
 62
     7
  2
*UDIM791
 70
    65
 10
0.0
 20
0.0
 30
0.0
  3
*UDIM791
  0
TEXT
  5
    CB
  8
0
  6
CONTINUOUS
 62
     7
 10
-280.141699091136
 20
-22.3447714749951
 30
0.0
 40
2.99999994933605
  1
=
 50
449.999999844103
 41
0.933333333333333
 72
     1
 11
-281.641699062818
 21
-21.2447714894999
 31
0.0
 73
     2
  0
LINE
  5
    CC
  8
0
  6
CONTINUOUS
 62
     3
 10
-296.014907380494
 20
-30.2447716236056
 30
0.0
 11
-277.14169908815
 21
-30.2447716236056
 31
0.0
  0
LINE
  5
    CD
  8
0
  6
CONTINUOUS
 62
     3
 10
-279.14169908815
 20
-12.2447713553942
 30
0.0
 11
-279.14169908815
 21
-30.2447716236056
 31
0.0
  0
LINE
  5
    CE
  8
0
  6
CONTINUOUS
 62
     3
 10
-278.620754658198
 20
-15.1991946326012
 30
0.0
 11
-279.14169908815
 21
-12.2447713553942
 31
0.0
  0
LINE
  5
    CF
  8
0
  6
CONTINUOUS
 62
     3
 10
-279.14169908815
 20
-12.2447713553942
 30
0.0
 11
-279.662643518101
 21
-15.1991946326012
 31
0.0
  0
LINE
  5
    D0
  8
0
  6
CONTINUOUS
 62
     3
 10
-279.662643518101
 20
-27.2903483463987
 30
0.0
 11
-279.14169908815
 21
-30.2447716236056
 31
0.0
  0
LINE
  5
    D1
  8
0
  6
CONTINUOUS
 62
     3
 10
-279.14169908815
 20
-30.2447716236056
 30
0.0
 11
-278.620754658198
 21
-27.2903483463987
 31
0.0
  0
ENDBLK
  5
    D2
  8
0
  6
CONTINUOUS
 62
     7
  0
BLOCK
  5
    D3
  8
0
  6
CONTINUOUS
 62
     3
  2
*UDIM792
 70
    65
 10
0.0
 20
0.0
 30
0.0
  3
*UDIM792
  0
TEXT
  5
    D4
  8
0
  6
CONTINUOUS
 62
     3
 10
-273.033740072542
 20
-50.2197779810427
 30
0.0
 40
2.99999994933605
  1
88
 50
449.999999844103
 41
0.933333333333333
 72
     1
 11
-274.533740040424
 21
-47.7197780191907
 31
0.0
 73
     2
  0
LINE
  5
    D5
  8
0
  6
CONTINUOUS
 62
     3
 10
-290.617024788382
 20
-12.2447713553942
 30
0.0
 11
-270.033740065756
 21
-12.2447713553942
 31
0.0
  0
LINE
  5
    D6
  8
0
  6
CONTINUOUS
 62
     3
 10
-297.814939680014
 20
-82.6447846114615
 30
0.0
 11
-270.033740065756
 21
-82.6447846114615
 31
0.0
  0
LINE
  5
    D7
  8
0
  6
CONTINUOUS
 62
     3
 10
-272.033740065756
 20
-12.2447713553942
 30
0.0
 11
-272.033740065756
 21
-82.6447846114615
 31
0.0
  0
LINE
  5
    D8
  8
0
  6
CONTINUOUS
 62
     3
 10
-271.512795635804
 20
-15.1991946326012
 30
0.0
 11
-272.033740065756
 21
-12.2447713553942
 31
0.0
  0
LINE
  5
    D9
  8
0
  6
CONTINUOUS
 62
     3
 10
-272.033740065756
 20
-12.2447713553942
 30
0.0
 11
-272.554684495708
 21
-15.1991946326012
 31
0.0
  0
LINE
  5
    DA
  8
0
  6
CONTINUOUS
 62
     3
 10
-272.554684495708
 20
-79.6903613342546
 30
0.0
 11
-272.033740065756
 21
-82.6447846114615
 31
0.0
  0
LINE
  5
    DB
  8
0
  6
CONTINUOUS
 62
     3
 10
-272.033740065756
 20
-82.6447846114615
 30
0.0
 11
-271.512795635804
 21
-79.6903613342546
 31
0.0
  0
ENDBLK
  5
    DC
  8
0
  6
CONTINUOUS
 62
     3
  0
BLOCK
  5
    DD
  8
0
  6
CONTINUOUS
 62
     3
  2
*UDIM793
 70
    65
 10
0.0
 20
0.0
 30
0.0
  3
*UDIM793
  0
TEXT
  5
    DE
  8
0
  6
CONTINUOUS
 62
     3
 10
-371.789881606689
 20
98.0545344793048
 30
0.0
 40
2.99999994933605
  1
30
 50
359.999999844103
 41
0.933333333333333
 72
     1
 11
-369.289881644836
 21
99.5545344471832
 31
0.0
 73
     2
  0
LINE
  5
    DF
  8
0
  6
CONTINUOUS
 62
     3
 10
-381.014882354131
 20
68.5552132546843
 30
0.0
 11
-381.014882354131
 21
99.0545344725151
 31
0.0
  0
LINE
  5
    E0
  8
0
  6
CONTINUOUS
 62
     3
 10
-357.014881996503
 20
68.5552132546843
 30
0.0
 11
-357.014881996503
 21
99.0545344725151
 31
0.0
  0
LINE
  5
    E1
  8
0
  6
CONTINUOUS
 62
     3
 10
-381.014882354131
 20
97.0545344725151
 30
0.0
 11
-357.014881996503
 21
97.0545344725151
 31
0.0
  0
LINE
  5
    E2
  8
0
  6
CONTINUOUS
 62
     3
 10
-378.060459076924
 20
97.5754789024668
 30
0.0
 11
-381.014882354131
 21
97.0545344725151
 31
0.0
  0
LINE
  5
    E3
  8
0
  6
CONTINUOUS
 62
     3
 10
-381.014882354131
 20
97.0545344725151
 30
0.0
 11
-378.060459076924
 21
96.5335900425634
 31
0.0
  0
LINE
  5
    E4
  8
0
  6
CONTINUOUS
 62
     3
 10
-359.96930527371
 20
96.5335900425634
 30
0.0
 11
-357.014881996503
 21
97.0545344725151
 31
0.0
  0
LINE
  5
    E5
  8
0
  6
CONTINUOUS
 62
     3
 10
-357.014881996503
 20
97.0545344725151
 30
0.0
 11
-359.96930527371
 21
97.5754789024668
 31
0.0
  0
ENDBLK
  5
    E6
  8
0
  6
CONTINUOUS
 62
     3
  0
BLOCK
  5
    E7
  8
0
  6
CONTINUOUS
 62
     7
  2
*UDIM794
 70
    65
 10
0.0
 20
0.0
 30
0.0
  3
*UDIM794
  0
TEXT
  5
    E8
  8
0
  6
CONTINUOUS
 62
     7
 10
-347.789881249062
 20
98.0545344793048
 30
0.0
 40
2.99999994933605
  1
30
 50
359.999999844103
 41
0.933333333333333
 72
     1
 11
-345.289881287208
 21
99.5545344471832
 31
0.0
 73
     2
  0
LINE
  5
    E9
  8
0
  6
CONTINUOUS
 62
     3
 10
-357.014881996503
 20
84.0872746006
 30
0.0
 11
-357.014881996503
 21
99.0545344725151
 31
0.0
  0
LINE
  5
    EA
  8
0
  6
CONTINUOUS
 62
     3
 10
-333.014881638875
 20
83.3686386245186
 30
0.0
 11
-333.014881638875
 21
99.0545344725151
 31
0.0
  0
LINE
  5
    EB
  8
0
  6
CONTINUOUS
 62
     3
 10
-357.014881996503
 20
97.0545344725151
 30
0.0
 11
-333.014881638875
 21
97.0545344725151
 31
0.0
  0
LINE
  5
    EC
  8
0
  6
CONTINUOUS
 62
     3
 10
-354.060458719296
 20
97.5754789024668
 30
0.0
 11
-357.014881996503
 21
97.0545344725151
 31
0.0
  0
LINE
  5
    ED
  8
0
  6
CONTINUOUS
 62
     3
 10
-357.014881996503
 20
97.0545344725151
 30
0.0
 11
-354.060458719296
 21
96.5335900425634
 31
0.0
  0
LINE
  5
    EE
  8
0
  6
CONTINUOUS
 62
     3
 10
-335.969304916082
 20
96.5335900425634
 30
0.0
 11
-333.014881638875
 21
97.0545344725151
 31
0.0
  0
LINE
  5
    EF
  8
0
  6
CONTINUOUS
 62
     3
 10
-333.014881638875
 20
97.0545344725151
 30
0.0
 11
-335.969304916082
 21
97.5754789024668
 31
0.0
  0
ENDBLK
  5
    F0
  8
0
  6
CONTINUOUS
 62
     7
  0
BLOCK
  5
    F1
  8
0
  6
CONTINUOUS
 62
     7
  2
*UDIM795
 70
    65
 10
0.0
 20
0.0
 30
0.0
  3
*UDIM795
  0
TEXT
  5
    F2
  8
0
  6
CONTINUOUS
 62
     7
 10
-323.789880891434
 20
98.0545344793048
 30
0.0
 40
2.99999994933605
  1
30
 50
359.999999844103
 41
0.933333333333333
 72
     1
 11
-321.28988092958
 21
99.5545344471832
 31
0.0
 73
     2
  0
LINE
  5
    F3
  8
0
  6
CONTINUOUS
 62
     3
 10
-309.014881281247
 20
83.1572751021417
 30
0.0
 11
-309.014881281247
 21
99.0545344725151
 31
0.0
  0
LINE
  5
    F4
  8
0
  6
CONTINUOUS
 62
     3
 10
-333.014881638875
 20
97.0545344725151
 30
0.0
 11
-309.014881281247
 21
97.0545344725151
 31
0.0
  0
LINE
  5
    F5
  8
0
  6
CONTINUOUS
 62
     3
 10
-330.060458361668
 20
97.5754789024668
 30
0.0
 11
-333.014881638875
 21
97.0545344725151
 31
0.0
  0
LINE
  5
    F6
  8
0
  6
CONTINUOUS
 62
     3
 10
-333.014881638875
 20
97.0545344725151
 30
0.0
 11
-330.060458361668
 21
96.5335900425634
 31
0.0
  0
LINE
  5
    F7
  8
0
  6
CONTINUOUS
 62
     3
 10
-311.969304558454
 20
96.5335900425634
 30
0.0
 11
-309.014881281247
 21
97.0545344725151
 31
0.0
  0
LINE
  5
    F8
  8
0
  6
CONTINUOUS
 62
     3
 10
-309.014881281247
 20
97.0545344725151
 30
0.0
 11
-311.969304558454
 21
97.5754789024668
 31
0.0
  0
ENDBLK
  5
    F9
  8
0
  6
CONTINUOUS
 62
     7
  0
BLOCK
  5
    FA
  8
0
  6
CONTINUOUS
 62
     3
  2
*UDIM796
 70
    65
 10
0.0
 20
0.0
 30
0.0
  3
*UDIM796
  0
TEXT
  5
    FB
  8
0
  6
CONTINUOUS
 62
     3
 10
-325.618384589942
 20
89.126128592147
 30
0.0
 40
2.99999994933605
  1
17,5
 50
359.999999844103
 41
0.933333333333333
 72
     1
 11
-320.318384675374
 21
90.6261285524208
 31
0.0
 73
     2
  0
LINE
  5
    FC
  8
0
  6
CONTINUOUS
 62
     3
 10
-340.014881743183
 20
64.5552131950797
 30
0.0
 11
-340.014881743183
 21
90.1261285777528
 31
0.0
  0
LINE
  5
    FD
  8
0
  6
CONTINUOUS
 62
     3
 10
-326.014881534567
 20
64.5552131950797
 30
0.0
 11
-326.014881534567
 21
90.1261285777528
 31
0.0
  0
LINE
  5
    FE
  8
0
  6
CONTINUOUS
 62
     3
 10
-340.014881743183
 20
88.1261285777528
 30
0.0
 11
-315.01838476488
 21
88.1261285777528
 31
0.0
  0
LINE
  5
    FF
  8
0
  6
CONTINUOUS
 62
     3
 10
-337.060458465976
 20
88.6470730077044
 30
0.0
 11
-340.014881743183
 21
88.1261285777528
 31
0.0
  0
LINE
  5
   100
  8
0
  6
CONTINUOUS
 62
     3
 10
-340.014881743183
 20
88.1261285777528
 30
0.0
 11
-337.060458465976
 21
87.6051841478011
 31
0.0
  0
LINE
  5
   101
  8
0
  6
CONTINUOUS
 62
     3
 10
-328.969304811774
 20
87.6051841478011
 30
0.0
 11
-326.014881534567
 21
88.1261285777528
 31
0.0
  0
LINE
  5
   102
  8
0
  6
CONTINUOUS
 62
     3
 10
-326.014881534567
 20
88.1261285777528
 30
0.0
 11
-328.969304811774
 21
88.6470730077044
 31
0.0
  0
ENDBLK
  5
   103
  8
0
  6
CONTINUOUS
 62
     3
  0
BLOCK
  5
   104
  8
0
  6
CONTINUOUS
 62
     3
  2
*UDIM797
 70
    65
 10
0.0
 20
0.0
 30
0.0
  3
*UDIM797
  0
TEXT
  5
   105
  8
0
  6
CONTINUOUS
 62
     3
 10
-402.597152489128
 20
94.3846496974447
 30
0.0
 40
2.99999994933605
  1
8,5
 50
301.432853640682
 41
0.933333333333333
 72
     1
 11
-399.283428677768
 21
91.8392157634562
 31
0.0
 73
     2
  0
TEXT
  5
   106
  8
0
  6
CONTINUOUS
 62
     3
 10
-404.031274672225
 20
96.7310924146593
 30
0.0
 40
2.99999994933605
  1
Ø
 50
301.432853640682
 41
0.933333333333333
 72
     1
 11
-402.177747968385
 21
96.5747637823241
 31
0.0
 73
     2
  0
LINE
  5
   107
  8
0
  6
CONTINUOUS
 62
     3
 10
-404.88452657909
 20
96.2095934315274
 30
0.0
 11
-379.241785802182
 21
54.2541565596841
 31
0.0
  0
LINE
  5
   108
  8
0
  6
CONTINUOUS
 62
     3
 10
-384.773204454014
 20
62.3054649157823
 30
0.0
 11
-382.78797890608
 21
60.056269609938
 31
0.0
  0
LINE
  5
   109
  8
0
  6
CONTINUOUS
 62
     3
 10
-382.78797890608
 20
60.056269609938
 30
0.0
 11
-383.884210798002
 21
62.8488088915119
 31
0.0
  0
LINE
  5
   10A
  8
0
  6
CONTINUOUS
 62
     3
 10
-377.256560254248
 20
52.0049612538399
 30
0.0
 11
-379.241785802182
 21
54.2541565596841
 31
0.0
  0
LINE
  5
   10B
  8
0
  6
CONTINUOUS
 62
     3
 10
-379.241785802182
 20
54.2541565596841
 30
0.0
 11
-378.14555391026
 21
51.4616172781102
 31
0.0
  0
ENDBLK
  5
   10C
  8
0
  6
CONTINUOUS
 62
     3
  0
BLOCK
  5
   10D
  8
0
  6
CONTINUOUS
 62
     3
  2
*UDIM798
 70
    65
 10
0.0
 20
0.0
 30
0.0
  3
*UDIM798
  0
TEXT
  5
   10E
  8
0
  6
CONTINUOUS
 62
     3
 10
-414.971193313555
 20
-6.81978952665818
 30
0.0
 40
2.99999994933605
  1
200
 50
449.999999844103
 41
0.933333333333333
 72
     1
 11
-416.471193277636
 21
-2.91978958844937
 31
0.0
 73
     2
  0
LINE
  5
   10F
  8
0
  6
CONTINUOUS
 62
     3
 10
-392.214886521251
 20
77.355205565693
 30
0.0
 11
-415.971193302968
 21
77.355205565693
 31
0.0
  0
LINE
  5
   110
  8
0
  6
CONTINUOUS
 62
     3
 10
-392.21488090602
 20
-82.6447846114615
 30
0.0
 11
-415.971193302968
 21
-82.6447846114615
 31
0.0
  0
LINE
  5
   111
  8
0
  6
CONTINUOUS
 62
     3
 10
-413.971193302968
 20
77.355205565693
 30
0.0
 11
-413.971193302968
 21
-82.6447846114615
 31
0.0
  0
LINE
  5
   112
  8
0
  6
CONTINUOUS
 62
     3
 10
-413.450248873016
 20
74.4007822884861
 30
0.0
 11
-413.971193302968
 21
77.355205565693
 31
0.0
  0
LINE
  5
   113
  8
0
  6
CONTINUOUS
 62
     3
 10
-413.971193302968
 20
77.355205565693
 30
0.0
 11
-414.492137732919
 21
74.4007822884861
 31
0.0
  0
LINE
  5
   114
  8
0
  6
CONTINUOUS
 62
     3
 10
-414.492137732919
 20
-79.6903613342546
 30
0.0
 11
-413.971193302968
 21
-82.6447846114615
 31
0.0
  0
LINE
  5
   115
  8
0
  6
CONTINUOUS
 62
     3
 10
-413.971193302968
 20
-82.6447846114615
 30
0.0
 11
-413.450248873016
 21
-79.6903613342546
 31
0.0
  0
ENDBLK
  5
   116
  8
0
  6
CONTINUOUS
 62
     3
  0
BLOCK
  5
   117
  8
0
  6
CONTINUOUS
 62
     3
  2
*UDIM799
 70
    65
 10
0.0
 20
0.0
 30
0.0
  3
*UDIM799
  0
TEXT
  5
   118
  8
0
  6
CONTINUOUS
 62
     3
 10
-404.885389944409
 20
16.8802200203103
 30
0.0
 40
2.99999994933605
  1
86,8
 50
449.999999844103
 41
0.933333333333333
 72
     1
 11
-406.385389904689
 21
22.180219934876
 31
0.0
 73
     2
  0
LINE
  5
   119
  8
0
  6
CONTINUOUS
 62
     3
 10
-392.414882524004
 20
57.1552130848111
 30
0.0
 11
-405.885389930021
 21
57.1552130848111
 31
0.0
  0
LINE
  5
   11A
  8
0
  6
CONTINUOUS
 62
     3
 10
-403.450103243215
 20
-12.2447713553942
 30
0.0
 11
-405.885389930021
 21
-12.2447713553942
 31
0.0
  0
LINE
  5
   11B
  8
0
  6
CONTINUOUS
 62
     3
 10
-403.885389930021
 20
57.1552130848111
 30
0.0
 11
-403.885389930021
 21
-12.2447713553942
 31
0.0
  0
LINE
  5
   11C
  8
0
  6
CONTINUOUS
 62
     3
 10
-403.364445500069
 20
54.2007898076041
 30
0.0
 11
-403.885389930021
 21
57.1552130848111
 31
0.0
  0
LINE
  5
   11D
  8
0
  6
CONTINUOUS
 62
     3
 10
-403.885389930021
 20
57.1552130848111
 30
0.0
 11
-404.406334359973
 21
54.2007898076041
 31
0.0
  0
LINE
  5
   11E
  8
0
  6
CONTINUOUS
 62
     3
 10
-404.406334359973
 20
-9.29034807818726
 30
0.0
 11
-403.885389930021
 21
-12.2447713553942
 31
0.0
  0
LINE
  5
   11F
  8
0
  6
CONTINUOUS
 62
     3
 10
-403.885389930021
 20
-12.2447713553942
 30
0.0
 11
-403.364445500069
 21
-9.29034807818726
 31
0.0
  0
ENDBLK
  5
   120
  8
0
  6
CONTINUOUS
 62
     3
  0
BLOCK
  5
   121
  8
0
  6
CONTINUOUS
 62
     7
  2
*UDIM800
 70
    65
 10
0.0
 20
0.0
 30
0.0
  3
*UDIM800
  0
TEXT
  5
   122
  8
0
  6
CONTINUOUS
 62
     7
 10
-348.914978834744
 20
-95.7243195660941
 30
0.0
 40
2.99999994933605
  1
133
 50
359.999999844103
 41
0.933333333333333
 72
     1
 11
-345.014978896534
 21
-94.224319602018
 31
0.0
 73
     2
  0
LINE
  5
   123
  8
0
  6
CONTINUOUS
 62
     7
 10
-398.214979689275
 20
-50.6444232493583
 30
0.0
 11
-398.214979689275
 21
-98.724319576686
 31
0.0
  0
LINE
  5
   124
  8
0
  6
CONTINUOUS
 62
     7
 10
-291.814978103792
 20
-29.0439813965515
 30
0.0
 11
-291.814978103792
 21
-98.724319576686
 31
0.0
  0
LINE
  5
   125
  8
0
  6
CONTINUOUS
 62
     7
 10
-398.214979689275
 20
-96.724319576686
 30
0.0
 11
-291.814978103792
 21
-96.724319576686
 31
0.0
  0
LINE
  5
   126
  8
0
  6
CONTINUOUS
 62
     3
 10
-395.317202216065
 20
-95.9478624202675
 30
0.0
 11
-398.214979689275
 21
-96.724319576686
 31
0.0
  0
LINE
  5
   127
  8
0
  6
CONTINUOUS
 62
     3
 10
-398.214979689275
 20
-96.724319576686
 30
0.0
 11
-395.317202216065
 21
-97.5007767331046
 31
0.0
  0
LINE
  5
   128
  8
0
  6
CONTINUOUS
 62
     3
 10
-294.712755577002
 20
-97.5007767331046
 30
0.0
 11
-291.814978103792
 21
-96.724319576686
 31
0.0
  0
LINE
  5
   129
  8
0
  6
CONTINUOUS
 62
     3
 10
-291.814978103792
 20
-96.724319576686
 30
0.0
 11
-294.712755577002
 21
-95.9478624202675
 31
0.0
  0
ENDBLK
  5
   12A
  8
0
  6
CONTINUOUS
 62
     7
  0
BLOCK
  5
   12B
  8
0
  6
CONTINUOUS
 62
     7
  2
*UDIM801
 70
    65
 10
0.0
 20
0.0
 30
0.0
  3
*UDIM801
  0
TEXT
  5
   12C
  8
0
  6
CONTINUOUS
 62
     7
 10
-348.914900984431
 20
106.579129532808
 30
0.0
 40
2.99999994933605
  1
120
 50
359.999999844103
 41
0.933333333333333
 72
     1
 11
-345.014901046221
 21
108.079129496884
 31
0.0
 73
     2
  0
LINE
  5
   12D
  8
0
  6
CONTINUOUS
 62
     7
 10
-393.014895519261
 20
77.5552054317003
 30
0.0
 11
-393.014886774695
 21
107.579129522216
 31
0.0
  0
LINE
  5
   12E
  8
0
  6
CONTINUOUS
 62
     7
 10
-297.014915471891
 20
77.5552054317018
 30
0.0
 11
-297.014914682667
 21
107.579129522216
 31
0.0
  0
LINE
  5
   12F
  8
0
  6
CONTINUOUS
 62
     7
 10
-393.014887357202
 20
105.579129522216
 30
0.0
 11
-297.01491473524
 21
105.579129522216
 31
0.0
  0
LINE
  5
   130
  8
0
  6
CONTINUOUS
 62
     3
 10
-390.117109883991
 20
106.355586678635
 30
0.0
 11
-393.014887357202
 21
105.579129522216
 31
0.0
  0
LINE
  5
   131
  8
0
  6
CONTINUOUS
 62
     3
 10
-393.014887357202
 20
105.579129522216
 30
0.0
 11
-390.117109883991
 21
104.802672365798
 31
0.0
  0
LINE
  5
   132
  8
0
  6
CONTINUOUS
 62
     3
 10
-299.912692208451
 20
104.802672365798
 30
0.0
 11
-297.01491473524
 21
105.579129522216
 31
0.0
  0
LINE
  5
   133
  8
0
  6
CONTINUOUS
 62
     3
 10
-297.01491473524
 20
105.579129522216
 30
0.0
 11
-299.912692208451
 21
106.355586678635
 31
0.0
  0
ENDBLK
  5
   134
  8
0
  6
CONTINUOUS
 62
     7
  0
BLOCK
  5
   135
  8
0
  6
CONTINUOUS
 62
     3
  2
*UDIM802
 70
    65
 10
0.0
 20
0.0
 30
0.0
  3
*UDIM802
  0
TEXT
  5
   136
  8
0
  6
CONTINUOUS
 62
     3
 10
-75.2305704391552
 20
27.8956729356033
 30
0.0
 40
2.99999997871263
  1
100
 50
449.999999844103
 41
0.933333333333333
 72
     1
 11
-76.7305704179244
 21
31.7956729120016
 31
0.0
 73
     2
  0
LINE
  5
   137
  8
0
  6
CONTINUOUS
 62
     3
 10
-106.36820228795
 20
49.5706689411403
 30
0.0
 11
-72.2305704285681
 21
49.5706689411403
 31
0.0
  0
LINE
  5
   138
  8
0
  6
CONTINUOUS
 62
     3
 10
-98.0557025338194
 20
14.5706774312257
 30
0.0
 11
-72.2305704285681
 21
14.5706774312257
 31
0.0
  0
LINE
  5
   139
  8
0
  6
CONTINUOUS
 62
     3
 10
-74.2305704285681
 20
49.5706689411403
 30
0.0
 11
-74.2305704285681
 21
14.5706774312257
 31
0.0
  0
LINE
  5
   13A
  8
0
  6
CONTINUOUS
 62
     3
 10
-73.7096259986165
 20
46.6162456639333
 30
0.0
 11
-74.2305704285681
 21
49.5706689411403
 31
0.0
  0
LINE
  5
   13B
  8
0
  6
CONTINUOUS
 62
     3
 10
-74.2305704285681
 20
49.5706689411403
 30
0.0
 11
-74.7515148585198
 21
46.6162456639333
 31
0.0
  0
LINE
  5
   13C
  8
0
  6
CONTINUOUS
 62
     3
 10
-74.7515148585198
 20
17.5251007084326
 30
0.0
 11
-74.2305704285681
 21
14.5706774312257
 31
0.0
  0
LINE
  5
   13D
  8
0
  6
CONTINUOUS
 62
     3
 10
-74.2305704285681
 20
14.5706774312257
 30
0.0
 11
-73.7096259986165
 21
17.5251007084326
 31
0.0
  0
ENDBLK
  5
   13E
  8
0
  6
CONTINUOUS
 62
     3
  0
BLOCK
  5
   13F
  8
0
  6
CONTINUOUS
 62
     3
  2
*UDIM803
 70
    65
 10
0.0
 20
0.0
 30
0.0
  3
*UDIM803
  0
TEXT
  5
   140
  8
0
  6
CONTINUOUS
 62
     3
 10
-133.133443968789
 20
35.945669521052
 30
0.0
 40
2.99999997871263
  1
62
 50
449.999999844103
 41
0.933333333333333
 72
     1
 11
-134.633443951359
 21
38.4456695073844
 31
0.0
 73
     2
  0
LINE
  5
   141
  8
0
  6
CONTINUOUS
 62
     3
 10
-112.248202087679
 20
49.5706689411403
 30
0.0
 11
-134.133443962003
 21
49.5706689411403
 31
0.0
  0
LINE
  5
   142
  8
0
  6
CONTINUOUS
 62
     3
 10
-132.133443962003
 20
49.5706689411403
 30
0.0
 11
-132.133443962003
 21
27.8706693106891
 31
0.0
  0
LINE
  5
   143
  8
0
  6
CONTINUOUS
 62
     3
 10
-131.612499532051
 20
46.6162456639333
 30
0.0
 11
-132.133443962003
 21
49.5706689411403
 31
0.0
  0
LINE
  5
   144
  8
0
  6
CONTINUOUS
 62
     3
 10
-132.133443962003
 20
49.5706689411403
 30
0.0
 11
-132.654388391954
 21
46.6162456639333
 31
0.0
  0
LINE
  5
   145
  8
0
  6
CONTINUOUS
 62
     3
 10
-132.654388391954
 20
30.8250925878961
 30
0.0
 11
-132.133443962003
 21
27.8706693106891
 31
0.0
  0
LINE
  5
   146
  8
0
  6
CONTINUOUS
 62
     3
 10
-132.133443962003
 20
27.8706693106891
 30
0.0
 11
-131.612499532051
 21
30.8250925878961
 31
0.0
  0
ENDBLK
  5
   147
  8
0
  6
CONTINUOUS
 62
     3
  0
BLOCK
  5
   148
  8
0
  6
CONTINUOUS
 62
     3
  2
*UDIM804
 70
    65
 10
0.0
 20
0.0
 30
0.0
  3
*UDIM804
  0
TEXT
  5
   149
  8
0
  6
CONTINUOUS
 62
     3
 10
-105.683202330611
 20
92.5579646510088
 30
0.0
 40
2.99999997871263
  1
30
 50
359.999999844103
 41
0.933333333333333
 72
     1
 11
-103.183202344277
 21
94.0579646335754
 31
0.0
 73
     2
  0
TEXT
  5
   14A
  8
0
  6
CONTINUOUS
 62
     3
 10
-107.083202320677
 20
88.5579646760984
 30
0.0
 40
2.99999997871263
  1
= =
 50
359.999999844103
 41
0.933333333333333
 72
     1
 11
-103.183202344277
 21
90.0579646548628
 31
0.0
 73
     2
  0
LINE
  5
   14B
  8
0
  6
CONTINUOUS
 62
     3
 10
-108.433202202716
 20
52.5106688410045
 30
0.0
 11
-108.433202202716
 21
93.5579646442191
 31
0.0
  0
LINE
  5
   14C
  8
0
  6
CONTINUOUS
 62
     3
 10
-97.9332024858377
 20
17.5106773310898
 30
0.0
 11
-97.9332024858377
 21
93.5579646442191
 31
0.0
  0
LINE
  5
   14D
  8
0
  6
CONTINUOUS
 62
     3
 10
-108.433202202716
 20
91.5579646442191
 30
0.0
 11
-97.9332024858377
 21
91.5579646442191
 31
0.0
  0
LINE
  5
   14E
  8
0
  6
CONTINUOUS
 62
     3
 10
-105.478778925509
 20
92.0789090741707
 30
0.0
 11
-108.433202202716
 21
91.5579646442191
 31
0.0
  0
LINE
  5
   14F
  8
0
  6
CONTINUOUS
 62
     3
 10
-108.433202202716
 20
91.5579646442191
 30
0.0
 11
-105.478778925509
 21
91.0370202142674
 31
0.0
  0
LINE
  5
   150
  8
0
  6
CONTINUOUS
 62
     3
 10
-100.887625763045
 20
91.0370202142674
 30
0.0
 11
-97.9332024858377
 21
91.5579646442191
 31
0.0
  0
LINE
  5
   151
  8
0
  6
CONTINUOUS
 62
     3
 10
-97.9332024858377
 20
91.5579646442191
 30
0.0
 11
-100.887625763045
 21
92.0789090741707
 31
0.0
  0
ENDBLK
  5
   152
  8
0
  6
CONTINUOUS
 62
     3
  0
BLOCK
  5
   153
  8
0
  6
CONTINUOUS
 62
     7
  2
*UDIM805
 70
    65
 10
0.0
 20
0.0
 30
0.0
  3
*UDIM805
  0
TEXT
  5
   154
  8
0
  6
CONTINUOUS
 62
     7
 10
-114.065115702069
 20
37.164956351807
 30
0.0
 40
2.99999997871263
  1
4.5
 50
429.792235414623
 41
0.933333333333333
 72
     1
 11
-114.125626057203
 21
41.3430346480021
 31
0.0
 73
     2
  0
TEXT
  5
   155
  8
0
  6
CONTINUOUS
 62
     7
 10
-115.446817190909
 20
33.411171485111
 30
0.0
 40
2.99999997871263
  1
Ø
 50
429.792235414623
 41
1.2
 72
     1
 11
-116.336348447662
 21
35.336978868885
 31
0.0
 73
     2
  0
TEXT
  5
   156
  8
0
  6
CONTINUOUS
 62
     7
 10
-119.453751531305
 20
22.5251953944354
 30
0.0
 40
2.99999997871263
  1
M4 o
 50
429.792235414623
 41
0.933333333333333
 72
     1
 11
-119.030666360497
 21
28.0170983895428
 31
0.0
 73
     2
  0
LINE
  5
   157
  8
0
  6
CONTINUOUS
 62
     7
 10
-108.359799305773
 20
49.7700887757108
 30
0.0
 11
-118.51530529529
 21
22.1797700177096
 31
0.0
  0
LINE
  5
   158
  8
0
  6
CONTINUOUS
 62
     3
 10
-108.977527269082
 20
45.8440262303904
 30
0.0
 11
-108.70522468135
 21
48.8316425546052
 31
0.0
  0
LINE
  5
   159
  8
0
  6
CONTINUOUS
 62
     3
 10
-108.70522468135
 20
48.8316425546052
 30
0.0
 11
-110.434853837664
 21
46.3804422401414
 31
0.0
  0
ENDBLK
  5
   15A
  8
0
  6
CONTINUOUS
 62
     7
  0
BLOCK
  5
   15B
  8
0
  6
CONTINUOUS
 62
     3
  2
*UDIM806
 70
    65
 10
0.0
 20
0.0
 30
0.0
  3
*UDIM806
  0
TEXT
  5
   15C
  8
0
  6
CONTINUOUS
 62
     3
 10
-392.592230252227
 20
-130.932953019279
 30
0.0
 40
2.99999994933605
  1
128
 50
359.999999844103
 41
0.933333333333333
 72
     1
 11
-388.692230314016
 21
-129.432953055203
 31
0.0
 73
     2
  0
LINE
  5
   15D
  8
0
  6
CONTINUOUS
 62
     3
 10
-414.292230695486
 20
-131.932953029871
 30
0.0
 11
-363.092229932547
 21
-131.932953029871
 31
0.0
  0
LINE
  5
   15E
  8
0
  6
CONTINUOUS
 62
     3
 10
-411.394453222276
 20
-131.156495873452
 30
0.0
 11
-414.292230695486
 21
-131.932953029871
 31
0.0
  0
LINE
  5
   15F
  8
0
  6
CONTINUOUS
 62
     3
 10
-414.292230695486
 20
-131.932953029871
 30
0.0
 11
-411.394453222276
 21
-132.70941018629
 31
0.0
  0
LINE
  5
   160
  8
0
  6
CONTINUOUS
 62
     3
 10
-365.990007405757
 20
-132.70941018629
 30
0.0
 11
-363.092229932547
 21
-131.932953029871
 31
0.0
  0
LINE
  5
   161
  8
0
  6
CONTINUOUS
 62
     3
 10
-363.092229932547
 20
-131.932953029871
 30
0.0
 11
-365.990007405757
 21
-131.156495873452
 31
0.0
  0
ENDBLK
  5
   162
  8
0
  6
CONTINUOUS
 62
     3
  0
BLOCK
  5
   163
  8
0
  6
CONTINUOUS
 62
     3
  2
*UDIM807
 70
    65
 10
0.0
 20
0.0
 30
0.0
  3
*UDIM807
  0
TEXT
  5
   164
  8
0
  6
CONTINUOUS
 62
     3
 10
-395.312230203749
 20
-159.926367812006
 30
0.0
 40
2.99999994933605
  1
125.5
 50
359.999999844103
 41
0.933333333333333
 72
     1
 11
-388.612230312824
 21
-158.426367855535
 31
0.0
 73
     2
  0
LINE
  5
   165
  8
0
  6
CONTINUOUS
 62
     3
 10
-413.712230686843
 20
-144.332953125238
 30
0.0
 11
-413.712230686843
 21
-162.926367830203
 31
0.0
  0
LINE
  5
   166
  8
0
  6
CONTINUOUS
 62
     3
 10
-363.512229938805
 20
-144.332953125238
 30
0.0
 11
-363.512229938805
 21
-162.926367830203
 31
0.0
  0
LINE
  5
   167
  8
0
  6
CONTINUOUS
 62
     3
 10
-413.712230686843
 20
-160.926367830203
 30
0.0
 11
-363.512229938805
 21
-160.926367830203
 31
0.0
  0
LINE
  5
   168
  8
0
  6
CONTINUOUS
 62
     3
 10
-410.814453213633
 20
-160.149910673784
 30
0.0
 11
-413.712230686843
 21
-160.926367830203
 31
0.0
  0
LINE
  5
   169
  8
0
  6
CONTINUOUS
 62
     3
 10
-413.712230686843
 20
-160.926367830203
 30
0.0
 11
-410.814453213633
 21
-161.702824986621
 31
0.0
  0
LINE
  5
   16A
  8
0
  6
CONTINUOUS
 62
     3
 10
-366.410007412016
 20
-161.702824986621
 30
0.0
 11
-363.512229938805
 21
-160.926367830203
 31
0.0
  0
LINE
  5
   16B
  8
0
  6
CONTINUOUS
 62
     3
 10
-363.512229938805
 20
-160.926367830203
 30
0.0
 11
-366.410007412016
 21
-160.149910673784
 31
0.0
  0
ENDBLK
  5
   16C
  8
0
  6
CONTINUOUS
 62
     3
  0
BLOCK
  5
   16D
  8
0
  6
CONTINUOUS
 62
     3
  2
*UDIM808
 70
    65
 10
0.0
 20
0.0
 30
0.0
  3
*UDIM808
  0
TEXT
  5
   16E
  8
0
  6
CONTINUOUS
 62
     3
 10
-375.602230043561
 20
-148.432846296776
 30
0.0
 40
2.99999994933605
  1
48
 50
359.999999844103
 41
0.933333333333333
 72
     1
 11
-373.102230081707
 21
-146.932846328897
 31
0.0
 73
     2
  0
LINE
  5
   16F
  8
0
  6
CONTINUOUS
 62
     3
 10
-382.692230224609
 20
-146.527995419933
 30
0.0
 11
-382.692230224609
 21
-151.432846303565
 31
0.0
  0
LINE
  5
   170
  8
0
  6
CONTINUOUS
 62
     3
 10
-363.512229938805
 20
-144.332953125238
 30
0.0
 11
-363.512229938805
 21
-151.432846303565
 31
0.0
  0
LINE
  5
   171
  8
0
  6
CONTINUOUS
 62
     3
 10
-382.692230224609
 20
-149.432846303565
 30
0.0
 11
-363.512229938805
 21
-149.432846303565
 31
0.0
  0
LINE
  5
   172
  8
0
  6
CONTINUOUS
 62
     3
 10
-379.794452751399
 20
-148.656389147147
 30
0.0
 11
-382.692230224609
 21
-149.432846303565
 31
0.0
  0
LINE
  5
   173
  8
0
  6
CONTINUOUS
 62
     3
 10
-382.692230224609
 20
-149.432846303565
 30
0.0
 11
-379.794452751399
 21
-150.209303459984
 31
0.0
  0
LINE
  5
   174
  8
0
  6
CONTINUOUS
 62
     3
 10
-366.410007412016
 20
-150.209303459984
 30
0.0
 11
-363.512229938805
 21
-149.432846303565
 31
0.0
  0
LINE
  5
   175
  8
0
  6
CONTINUOUS
 62
     3
 10
-363.512229938805
 20
-149.432846303565
 30
0.0
 11
-366.410007412016
 21
-148.656389147147
 31
0.0
  0
ENDBLK
  5
   176
  8
0
  6
CONTINUOUS
 62
     3
  0
BLOCK
  5
   177
  8
0
  6
CONTINUOUS
 62
     3
  2
*UDIM809
 70
    65
 10
0.0
 20
0.0
 30
0.0
  3
*UDIM809
  0
TEXT
  5
   178
  8
0
  6
CONTINUOUS
 62
     3
 10
-348.066411211503
 20
-129.432952842711
 30
0.0
 40
2.99999994933605
  1
53
 50
449.999999844103
 41
0.933333333333333
 72
     1
 11
-349.566411179384
 21
-126.932952880859
 31
0.0
 73
     2
  0
LINE
  5
   179
  8
0
  6
CONTINUOUS
 62
     3
 10
-362.692229941487
 20
-116.332952722907
 30
0.0
 11
-345.066411204716
 21
-116.332952722907
 31
0.0
  0
LINE
  5
   17A
  8
0
  6
CONTINUOUS
 62
     3
 10
-362.692229941487
 20
-137.532953038812
 30
0.0
 11
-345.066411204716
 21
-137.532953038812
 31
0.0
  0
LINE
  5
   17B
  8
0
  6
CONTINUOUS
 62
     3
 10
-347.066411204716
 20
-116.332952722907
 30
0.0
 11
-347.066411204716
 21
-137.532953038812
 31
0.0
  0
LINE
  5
   17C
  8
0
  6
CONTINUOUS
 62
     3
 10
-346.289954048298
 20
-119.230730196118
 30
0.0
 11
-347.066411204716
 21
-116.332952722907
 31
0.0
  0
LINE
  5
   17D
  8
0
  6
CONTINUOUS
 62
     3
 10
-347.066411204716
 20
-116.332952722907
 30
0.0
 11
-347.842868361135
 21
-119.230730196118
 31
0.0
  0
LINE
  5
   17E
  8
0
  6
CONTINUOUS
 62
     3
 10
-347.842868361135
 20
-134.635175565601
 30
0.0
 11
-347.066411204716
 21
-137.532953038812
 31
0.0
  0
LINE
  5
   17F
  8
0
  6
CONTINUOUS
 62
     3
 10
-347.066411204716
 20
-137.532953038812
 30
0.0
 11
-346.289954048298
 21
-134.635175565601
 31
0.0
  0
ENDBLK
  5
   180
  8
0
  6
CONTINUOUS
 62
     3
  0
BLOCK
  5
   181
  8
0
  6
CONTINUOUS
 62
     3
  2
*UDIM810
 70
    65
 10
0.0
 20
0.0
 30
0.0
  3
*UDIM810
  0
TEXT
  5
   182
  8
0
  6
CONTINUOUS
 62
     3
 10
-425.288508968597
 20
-129.432952842711
 30
0.0
 40
2.99999994933605
  1
64
 50
449.999999844103
 41
0.933333333333333
 72
     1
 11
-426.788508936478
 21
-126.932952880859
 31
0.0
 73
     2
  0
LINE
  5
   183
  8
0
  6
CONTINUOUS
 62
     3
 10
-418.312230740488
 20
-114.132952690125
 30
0.0
 11
-426.28850896181
 21
-114.132952690125
 31
0.0
  0
LINE
  5
   184
  8
0
  6
CONTINUOUS
 62
     3
 10
-418.312230740488
 20
-139.732953071594
 30
0.0
 11
-426.28850896181
 21
-139.732953071594
 31
0.0
  0
LINE
  5
   185
  8
0
  6
CONTINUOUS
 62
     3
 10
-424.28850896181
 20
-114.132952690125
 30
0.0
 11
-424.28850896181
 21
-139.732953071594
 31
0.0
  0
LINE
  5
   186
  8
0
  6
CONTINUOUS
 62
     3
 10
-423.512051805391
 20
-117.030730163335
 30
0.0
 11
-424.28850896181
 21
-114.132952690125
 31
0.0
  0
LINE
  5
   187
  8
0
  6
CONTINUOUS
 62
     3
 10
-424.28850896181
 20
-114.132952690125
 30
0.0
 11
-425.064966118229
 21
-117.030730163335
 31
0.0
  0
LINE
  5
   188
  8
0
  6
CONTINUOUS
 62
     3
 10
-425.064966118229
 20
-136.835175598384
 30
0.0
 11
-424.28850896181
 21
-139.732953071594
 31
0.0
  0
LINE
  5
   189
  8
0
  6
CONTINUOUS
 62
     3
 10
-424.28850896181
 20
-139.732953071594
 30
0.0
 11
-423.512051805391
 21
-136.835175598384
 31
0.0
  0
ENDBLK
  5
   18A
  8
0
  6
CONTINUOUS
 62
     3
  0
BLOCK
  5
   18B
  8
0
  6
CONTINUOUS
 62
     3
  2
*UDIM811
 70
    65
 10
0.0
 20
0.0
 30
0.0
  3
*UDIM811
  0
TEXT
  5
   18C
  8
0
  6
CONTINUOUS
 62
     3
 10
-375.392230040432
 20
-105.858819356828
 30
0.0
 40
2.99999994933605
  1
49
 50
359.999999844103
 41
0.933333333333333
 72
     1
 11
-372.892230078578
 21
-104.358819388949
 31
0.0
 73
     2
  0
LINE
  5
   18D
  8
0
  6
CONTINUOUS
 62
     3
 10
-382.692230224609
 20
-110.858819363617
 30
0.0
 11
-382.692230224609
 21
-104.858819363617
 31
0.0
  0
LINE
  5
   18E
  8
0
  6
CONTINUOUS
 62
     3
 10
-363.092229932547
 20
-115.932952731848
 30
0.0
 11
-363.092229932547
 21
-104.858819363617
 31
0.0
  0
LINE
  5
   18F
  8
0
  6
CONTINUOUS
 62
     3
 10
-382.692230224609
 20
-106.858819363617
 30
0.0
 11
-363.092229932547
 21
-106.858819363617
 31
0.0
  0
LINE
  5
   190
  8
0
  6
CONTINUOUS
 62
     3
 10
-379.794452751399
 20
-106.082362207199
 30
0.0
 11
-382.692230224609
 21
-106.858819363617
 31
0.0
  0
LINE
  5
   191
  8
0
  6
CONTINUOUS
 62
     3
 10
-382.692230224609
 20
-106.858819363617
 30
0.0
 11
-379.794452751399
 21
-107.635276520036
 31
0.0
  0
LINE
  5
   192
  8
0
  6
CONTINUOUS
 62
     3
 10
-365.990007405757
 20
-107.635276520036
 30
0.0
 11
-363.092229932547
 21
-106.858819363617
 31
0.0
  0
LINE
  5
   193
  8
0
  6
CONTINUOUS
 62
     3
 10
-363.092229932547
 20
-106.858819363617
 30
0.0
 11
-365.990007405757
 21
-106.082362207199
 31
0.0
  0
ENDBLK
  5
   194
  8
0
  6
CONTINUOUS
 62
     3
  0
BLOCK
  5
   195
  8
0
  6
CONTINUOUS
 62
     3
  2
*UDIM812
 70
    65
 10
0.0
 20
0.0
 30
0.0
  3
*UDIM812
  0
TEXT
  5
   196
  8
0
  6
CONTINUOUS
 62
     3
 10
-408.227636382312
 20
-107.273298984193
 30
0.0
 40
2.99999994933605
  1
4
 50
404.818233515836
 41
0.933333333333333
 72
     1
 11
-408.504645246742
 21
-105.433933340238
 31
0.0
 73
     2
  0
TEXT
  5
   197
  8
0
  6
CONTINUOUS
 62
     3
 10
-410.178339128052
 20
-109.21166392893
 30
0.0
 40
2.99999994933605
  1
Ø
 50
404.818233515836
 41
0.933333333333333
 72
     1
 11
-410.455347992482
 21
-107.372298284974
 31
0.0
 73
     2
  0
LINE
  5
   198
  8
0
  6
CONTINUOUS
 62
     3
 10
-405.96221420639
 20
-106.431953499116
 30
0.0
 11
-414.279707862903
 21
-114.696840687624
 31
0.0
  0
LINE
  5
   199
  8
0
  6
CONTINUOUS
 62
     3
 10
-411.416236703014
 20
-111.117079854732
 30
0.0
 11
-413.144753510783
 21
-113.569064692625
 31
0.0
  0
LINE
  5
   19A
  8
0
  6
CONTINUOUS
 62
     3
 10
-413.144753510783
 20
-113.569064692625
 30
0.0
 11
-410.681850935422
 21
-111.856140028702
 31
0.0
  0
LINE
  5
   19B
  8
0
  6
CONTINUOUS
 62
     3
 10
-416.008224670673
 20
-117.148825525518
 30
0.0
 11
-414.279707862903
 21
-114.696840687624
 31
0.0
  0
LINE
  5
   19C
  8
0
  6
CONTINUOUS
 62
     3
 10
-414.279707862903
 20
-114.696840687624
 30
0.0
 11
-416.742610438265
 21
-116.409765351547
 31
0.0
  0
ENDBLK
  5
   19D
  8
0
  6
CONTINUOUS
 62
     3
  0
BLOCK
  5
   19E
  8
0
  6
CONTINUOUS
 62
     7
  2
*UDIM813
 70
    65
 10
0.0
 20
0.0
 30
0.0
  3
*UDIM813
  0
TEXT
  5
   19F
  8
0
  6
CONTINUOUS
 62
     7
 10
-375.504006561173
 20
-123.418810141232
 30
0.0
 40
2.99999994933605
  1
1.5
 50
393.027044221051
 41
0.933333333333333
 72
     1
 11
-373.051746599923
 21
-120.035554240074
 31
0.0
 73
     2
  0
TEXT
  5
   1A0
  8
0
  6
CONTINUOUS
 62
     7
 10
-378.857660105519
 20
-125.598949471455
 30
0.0
 40
2.99999994933605
  1
R
 50
393.027044221051
 41
1.2
 72
     1
 11
-378.417592268064
 21
-123.523777154165
 31
0.0
 73
     2
  0
LINE
  5
   1A1
  8
0
  6
CONTINUOUS
 62
     7
 10
-363.189181895435
 20
-116.605931824119
 30
0.0
 11
-378.312625261791
 21
-126.437362870244
 31
0.0
  0
LINE
  5
   1A2
  8
0
  6
CONTINUOUS
 62
     3
 10
-365.195521151686
 20
-118.836313582659
 30
0.0
 11
-363.189181895435
 21
-116.605931824119
 31
0.0
  0
LINE
  5
   1A3
  8
0
  6
CONTINUOUS
 62
     3
 10
-363.189181895435
 20
-116.605931824119
 30
0.0
 11
-366.041913552755
 21
-117.534329417461
 31
0.0
  0
ENDBLK
  5
   1A4
  8
0
  6
CONTINUOUS
 62
     7
  0
ENDSEC
  0
SECTION
  2
ENTITIES
  0
LINE
  5
   1A5
  8
0
  6
DOT
 62
   130
 10
-220.032139624922
 20
40.5552660335796
 30
0.0
 11
-220.432139630883
 21
40.1552660276192
 31
0.0
  0
LINE
  5
   1A6
  8
0
  6
DOT
 62
   130
 10
-220.432139630883
 20
36.1552659680145
 30
0.0
 11
-220.032139624922
 21
35.7552659620541
 31
0.0
  0
LINE
  5
   1A7
  8
0
  6
DOT
 62
   130
 10
-220.032139624922
 20
40.5552660335796
 30
0.0
 11
-220.032139624922
 21
35.7552659620541
 31
0.0
  0
LINE
  5
   1A8
  8
0
  6
DOT
 62
   130
 10
-208.832139458029
 20
40.5552660335796
 30
0.0
 11
-208.832139458029
 21
35.7552659620541
 31
0.0
  0
LINE
  5
   1A9
  8
0
  6
DOT
 62
   130
 10
-204.432139392464
 20
42.5886829183483
 30
0.0
 11
-204.432139392464
 21
33.7218490772854
 31
0.0
  0
LINE
  5
   1AA
  8
0
  6
DOT
 62
   130
 10
-220.032139624922
 20
35.7552659620541
 30
0.0
 11
-206.832139428227
 21
35.7552659620541
 31
0.0
  0
LINE
  5
   1AB
  8
0
  6
DOT
 62
   130
 10
-220.032139624922
 20
40.5552660335796
 30
0.0
 11
-206.832139428227
 21
40.5552660335796
 31
0.0
  0
ARC
  5
   1AC
  8
0
  6
DOT
 62
   130
 10
-212.752139516442
 20
38.1552659978169
 30
0.0
 40
9.60000014305115
 50
332.615940118948
 51
358.089786672393
  0
LINE
  5
   1AD
  8
0
  6
DOT
 62
   130
 10
-204.227882911789
 20
33.7397193629597
 30
0.0
 11
-206.832139428228
 21
33.5118744115351
 31
0.0
  0
LINE
  5
   1AE
  8
0
  6
DOT
 62
   130
 10
-206.832139428227
 20
42.7986575840987
 30
0.0
 11
-204.227882911788
 21
42.570812632674
 31
0.0
  0
LINE
  5
   1AF
  8
0
  6
DOT
 62
   130
 10
-206.832139428227
 20
42.7986575840986
 30
0.0
 11
-206.832139428227
 21
33.5118744115351
 31
0.0
  0
LINE
  5
   1B0
  8
0
  6
DOT
 62
   130
 10
-220.432129865256
 20
36.2460099693667
 30
0.0
 11
-208.832139458029
 21
36.2460099693667
 31
0.0
  0
LINE
  5
   1B1
  8
0
  6
DOT
 62
   130
 10
-220.432129865256
 20
40.064522026267
 30
0.0
 11
-208.832139458029
 21
40.064522026267
 31
0.0
  0
LINE
  5
   1B2
  8
0
  6
DOT
 62
   130
 10
-203.792139382928
 20
38.4752660025852
 30
0.0
 11
-203.792139382928
 21
37.8352659930485
 31
0.0
  0
LINE
  5
   1B3
  8
0
  6
DOT
 62
   130
 10
-203.792139382928
 20
37.8352659930485
 30
0.0
 11
-203.157474189109
 21
37.8352659930485
 31
0.0
  0
LINE
  5
   1B4
  8
0
  6
DOT
 62
   130
 10
-203.792139382928
 20
38.4752660025852
 30
0.0
 11
-203.157474189109
 21
38.4752660025852
 31
0.0
  0
ARC
  5
   1B5
  8
0
  6
DOT
 62
   130
 10
-212.752139516442
 20
38.1552659978169
 30
0.0
 40
9.60000014305115
 50
361.910213015813
 51
387.384059569259
  0
TEXT
  5
   1B6
  8
0
  6
CONTINUOUS
 62
     2
 10
-208.34817886692
 20
-150.185488243321
 30
0.0
 40
2.50000001341104
  1
M3727 95-01-18
 50
359.999999844103
 41
0.649999610972401
 11
-208.348178863525
 21
-148.935488236615
 31
0.0
 73
     2
  0
LINE
  5
   1B7
  8
0
  6
DOT
 62
   130
 10
-226.832129483787
 20
33.3552632749022
 30
0.0
 11
-222.832139189808
 21
33.3552632749022
 31
0.0
  0
LINE
  5
   1B8
  8
0
  6
CONTINUOUS
 62
   130
 10
-244.432128493556
 20
28.1552754044533
 30
0.0
 11
-242.432128463754
 21
26.155275374651
 31
0.0
  0
LINE
  5
   1B9
  8
0
  6
CONTINUOUS
 62
   130
 10
-244.432128493556
 20
77.3552761375904
 30
0.0
 11
-244.432128493556
 21
28.1552754044533
 31
0.0
  0
LINE
  5
   1BA
  8
0
  6
CONTINUOUS
 62
   130
 10
-222.419999310162
 20
-38.2447133779524
 30
0.0
 11
-222.419999310162
 21
-47.4240207558647
 31
0.0
  0
LINE
  5
   1BB
  8
0
  6
CONTINUOUS
 62
   130
 10
-220.819999286321
 20
-38.2447133779524
 30
0.0
 11
-220.819999286321
 21
-48.2447257339954
 31
0.0
  0
LINE
  5
   1BC
  8
0
  6
CONTINUOUS
 62
   130
 10
-222.419999310162
 20
-47.4240207558647
 30
0.0
 11
-220.819999286321
 21
-47.4240207558647
 31
0.0
  0
LINE
  5
   1BD
  8
0
  6
DASHDOT
 62
   130
 10
-225.656336943156
 20
38.1552659978169
 30
0.0
 11
-205.631527463056
 21
38.1552659978169
 31
0.0
  0
LINE
  5
   1BE
  8
0
  6
DASHDOT
 62
   130
 10
-223.747997683288
 20
-43.444713455429
 30
0.0
 11
-205.158595041139
 21
-43.444713455429
 31
0.0
  0
LINE
  5
   1BF
  8
0
  6
CONTINUOUS
 62
   130
 10
-184.432138445943
 20
-16.8204376542524
 30
0.0
 11
-170.675630724383
 21
-20.9774200665174
 31
0.0
  0
LINE
  5
   1C0
  8
0
  6
CONTINUOUS
 62
   130
 10
-170.675587420023
 20
-20.9774330585632
 30
0.0
 11
-170.504248870254
 21
-21.0817561394575
 31
0.0
  0
LINE
  5
   1C1
  8
0
  6
CONTINUOUS
 62
   130
 10
-170.504279361716
 20
-21.081744905678
 30
0.0
 11
-170.40512886293
 21
-21.2561335154693
 31
0.0
  0
LINE
  5
   1C2
  8
0
  6
CONTINUOUS
 62
   130
 10
-170.405112358765
 20
-21.2561436153885
 30
0.0
 11
-170.40309188159
 21
-21.4567359226053
 31
0.0
  0
LINE
  5
   1C3
  8
0
  6
CONTINUOUS
 62
   130
 10
-170.403099290417
 20
-21.4567292238441
 30
0.0
 11
-170.986237812912
 21
-23.8049427901405
 31
0.0
  0
LINE
  5
   1C4
  8
0
  6
CONTINUOUS
 62
   130
 10
-170.986232882365
 20
-23.804938920693
 30
0.0
 11
-171.086443647588
 21
-23.9861282620276
 31
0.0
  0
LINE
  5
   1C5
  8
0
  6
CONTINUOUS
 62
   130
 10
-171.086438519395
 20
-23.9861345709458
 30
0.0
 11
-171.263819907827
 21
-24.0929428315151
 31
0.0
  0
LINE
  5
   1C6
  8
0
  6
CONTINUOUS
 62
   130
 10
-171.263801374955
 20
-24.0929428437456
 30
0.0
 11
-171.470821616979
 21
-24.0967514867834
 31
0.0
  0
LINE
  5
   1C7
  8
0
  6
CONTINUOUS
 62
   130
 10
-184.432138445943
 20
-20.8781046292342
 30
0.0
 11
-171.470842115419
 21
-24.0967506143835
 31
0.0
  0
LINE
  5
   1C8
  8
0
  6
DOT
 62
   130
 10
-217.232139583199
 20
42.9552660693424
 30
0.0
 11
-217.232139583199
 21
40.5552660335796
 31
0.0
  0
LINE
  5
   1C9
  8
0
  6
DOT
 62
   130
 10
-232.032139803736
 20
42.9552660693424
 30
0.0
 11
-232.032139803736
 21
33.3552659262913
 31
0.0
  0
LINE
  5
   1CA
  8
0
  6
DOT
 62
   130
 10
-233.632139827578
 20
42.9552660693424
 30
0.0
 11
-233.632139827578
 21
33.3552659262913
 31
0.0
  0
LINE
  5
   1CB
  8
0
  6
DOT
 62
   130
 10
-233.632139827578
 20
42.9552660693424
 30
0.0
 11
-217.232139583199
 21
42.9552660693424
 31
0.0
  0
LINE
  5
   1CC
  8
0
  6
DOT
 62
   130
 10
-233.632139827578
 20
33.3552659262913
 30
0.0
 11
-217.232139583199
 21
33.3552659262913
 31
0.0
  0
LINE
  5
   1CD
  8
0
  6
DOT
 62
   130
 10
-217.232139583199
 20
35.7552659620541
 30
0.0
 11
-217.232139583199
 21
33.3552659262913
 31
0.0
  0
LINE
  5
   1CE
  8
0
  6
CONTINUOUS
 62
   130
 10
-217.619999238637
 20
-38.6447255909443
 30
0.0
 11
-217.619999238637
 21
-41.0447160710591
 31
0.0
  0
LINE
  5
   1CF
  8
0
  6
CONTINUOUS
 62
   130
 10
-232.419999459174
 20
-38.6447255909443
 30
0.0
 11
-232.419999459174
 21
-48.2447257339954
 31
0.0
  0
LINE
  5
   1D0
  8
0
  6
CONTINUOUS
 62
   130
 10
-234.019999483016
 20
-38.6447255909443
 30
0.0
 11
-234.019999483016
 21
-48.2447257339954
 31
0.0
  0
LINE
  5
   1D1
  8
0
  6
CONTINUOUS
 62
   130
 10
-234.019999483016
 20
-38.6447255909443
 30
0.0
 11
-222.419999310162
 21
-38.6447255909443
 31
0.0
  0
LINE
  5
   1D2
  8
0
  6
CONTINUOUS
 62
   130
 10
-234.019999483016
 20
-48.2447257339954
 30
0.0
 11
-217.619999238637
 21
-48.2447257339954
 31
0.0
  0
LINE
  5
   1D3
  8
0
  6
CONTINUOUS
 62
   130
 10
-208.032143806923
 20
43.7552756369114
 30
0.0
 11
-208.032143806923
 21
-49.0447257459164
 31
0.0
  0
LINE
  5
   1D4
  8
0
  6
CONTINUOUS
 62
   130
 10
-220.819999286321
 20
-38.6447255909443
 30
0.0
 11
-217.619999238637
 21
-38.6447255909443
 31
0.0
  0
LINE
  5
   1D5
  8
0
  6
CONTINUOUS
 62
   130
 10
-242.432128463754
 20
26.1552753746509
 30
0.0
 11
-242.432128463754
 21
-16.004725253582
 31
0.0
  0
LINE
  5
   1D6
  8
0
  6
CONTINUOUS
 62
   130
 10
-242.432128463754
 20
-16.004725253582
 30
0.0
 11
-244.432128493556
 21
-18.0047252833843
 31
0.0
  0
LINE
  5
   1D7
  8
0
  6
CONTINUOUS
 62
   130
 10
-244.432128493556
 20
-18.0047252833843
 30
0.0
 11
-244.432128493556
 21
-52.2447257936001
 31
0.0
  0
LINE
  5
   1D8
  8
0
  6
DOT
 62
   130
 10
-222.832129424182
 20
42.3552623006471
 30
0.0
 11
-222.832129424182
 21
32.9952693730592
 31
0.0
  0
LINE
  5
   1D9
  8
0
  6
DOT
 62
   130
 10
-220.432129865256
 20
42.3552573055026
 30
0.0
 11
-220.432129865256
 21
33.3552659262913
 31
0.0
  0
LINE
  5
   1DA
  8
0
  6
DOT
 62
   130
 10
-222.832129423574
 20
42.3552678493005
 30
0.0
 11
-220.432129864797
 21
42.3552512033437
 31
0.0
  0
LINE
  5
   1DB
  8
0
  6
DOT
 62
   130
 10
-244.646488231603
 20
6.55526602277519
 30
0.0
 11
-244.432128849595
 21
6.55526602277519
 31
0.0
  0
LINE
  5
   1DC
  8
0
  6
CONTINUOUS
 62
   130
 10
-244.432128849595
 20
41.3552634895777
 30
0.0
 11
-244.432128849595
 21
-82.6447262465954
 31
0.0
  0
LINE
  5
   1DD
  8
0
  6
DASHDOT
 62
   130
 10
-247.401320090076
 20
-43.4447255670093
 30
0.0
 11
-243.430427099594
 21
-43.4447255670093
 31
0.0
  0
LINE
  5
   1DE
  8
0
  6
DASHDOT
 62
   130
 10
-252.523405475925
 20
36.5552634180522
 30
0.0
 11
-243.430427099594
 21
36.5552634180522
 31
0.0
  0
LINE
  5
   1DF
  8
0
  6
CONTINUOUS
 62
   130
 10
-188.432150712579
 20
-30.2447132587431
 30
0.0
 11
-188.432150712579
 21
-37.0447255671024
 31
0.0
  0
LINE
  5
   1E0
  8
0
  6
CONTINUOUS
 62
   130
 10
-188.432150972303
 20
-30.2447132587431
 30
0.0
 11
-184.432138445943
 21
-30.2447132587431
 31
0.0
  0
LINE
  5
   1E1
  8
0
  6
DASHDOT
 62
   130
 10
-209.792272936505
 20
38.1552800394207
 30
0.0
 11
-188.297759337032
 21
38.1552800394207
 31
0.0
  0
LINE
  5
   1E2
  8
0
  6
CONTINUOUS
 62
   130
 10
-188.432138765271
 20
5.75528727769874
 30
0.0
 11
-184.432138445943
 21
5.75528727769874
 31
0.0
  0
LINE
  5
   1E3
  8
0
  6
CONTINUOUS
 62
   130
 10
-188.432138505547
 20
31.7552754580975
 30
0.0
 11
-188.432138505547
 21
5.75528727769874
 31
0.0
  0
LINE
  5
   1E4
  8
0
  6
CONTINUOUS
 62
   130
 10
-184.432138445943
 20
5.75528727769874
 30
0.0
 11
-184.432138445943
 21
-30.2447132587431
 31
0.0
  0
LINE
  5
   1E5
  8
0
  6
CONTINUOUS
 62
   130
 10
-189.2321507245
 20
-37.8447255790234
 30
0.0
 11
-189.2321507245
 21
-39.0447255969048
 31
0.0
  0
LINE
  5
   1E6
  8
0
  6
CONTINUOUS
 62
   130
 10
-193.632150790065
 20
-39.0447255969048
 30
0.0
 11
-190.432150742381
 21
-39.0447255969048
 31
0.0
  0
LINE
  5
   1E7
  8
0
  6
CONTINUOUS
 62
   130
 10
-193.632150790065
 20
-37.8447255790234
 30
0.0
 11
-189.2321507245
 21
-37.8447255790234
 31
0.0
  0
LINE
  5
   1E8
  8
0
  6
CONTINUOUS
 62
   130
 10
-193.632150790065
 20
32.5552754700184
 30
0.0
 11
-189.232138517468
 21
32.5552754700184
 31
0.0
  0
LINE
  5
   1E9
  8
0
  6
CONTINUOUS
 62
   130
 10
-189.2321507245
 20
33.7552754878998
 30
0.0
 11
-189.2321507245
 21
32.5552754700184
 31
0.0
  0
LINE
  5
   1EA
  8
0
  6
CONTINUOUS
 62
   130
 10
-193.632150790065
 20
33.7552754878998
 30
0.0
 11
-190.432150742381
 21
33.7552754878998
 31
0.0
  0
LINE
  5
   1EB
  8
0
  6
CONTINUOUS
 62
   130
 10
-220.819999286321
 20
-45.8447161425846
 30
0.0
 11
-209.219999113467
 21
-45.8447161425846
 31
0.0
  0
LINE
  5
   1EC
  8
0
  6
CONTINUOUS
 62
   130
 10
-220.819999286321
 20
-45.4447161366241
 30
0.0
 11
-208.819999107507
 21
-45.4447161366241
 31
0.0
  0
LINE
  5
   1ED
  8
0
  6
CONTINUOUS
 62
   130
 10
-220.819999286321
 20
-41.4447160770195
 30
0.0
 11
-208.819999107507
 21
-41.4447160770195
 31
0.0
  0
LINE
  5
   1EE
  8
0
  6
CONTINUOUS
 62
   130
 10
-220.819999286321
 20
-41.0447160710591
 30
0.0
 11
-209.219999113467
 21
-41.0447160710591
 31
0.0
  0
LINE
  5
   1EF
  8
0
  6
CONTINUOUS
 62
   130
 10
-220.41999928036
 20
-41.0447160710591
 30
0.0
 11
-220.41999928036
 21
-45.8447161425846
 31
0.0
  0
LINE
  5
   1F0
  8
0
  6
CONTINUOUS
 62
   130
 10
-220.819999286321
 20
-45.4447161366242
 30
0.0
 11
-220.41999928036
 21
-45.8447161425846
 31
0.0
  0
LINE
  5
   1F1
  8
0
  6
CONTINUOUS
 62
   130
 10
-220.41999928036
 20
-41.0447160710591
 30
0.0
 11
-220.819999286321
 21
-41.4447160770195
 31
0.0
  0
LINE
  5
   1F2
  8
0
  6
DOT
 62
   130
 10
-220.819999286321
 20
-41.4447160770195
 30
0.0
 11
-220.819999286321
 21
-45.4447161366241
 31
0.0
  0
LINE
  5
   1F3
  8
0
  6
CONTINUOUS
 62
   130
 10
-217.619999238637
 20
-45.8447161425846
 30
0.0
 11
-217.619999238637
 21
-48.2447257339954
 31
0.0
  0
LINE
  5
   1F4
  8
0
  6
CONTINUOUS
 62
   130
 10
-243.232132613929
 20
-16.804729403757
 30
0.0
 11
-208.032143806923
 21
-16.804729403757
 31
0.0
  0
LINE
  5
   1F5
  8
0
  6
CONTINUOUS
 62
   130
 10
-193.632150790065
 20
41.3552742575142
 30
0.0
 11
-193.632150790065
 21
32.5552754700184
 31
0.0
  0
LINE
  5
   1F6
  8
0
  6
CONTINUOUS
 62
   130
 10
-244.432128493556
 20
42.1552742694352
 30
0.0
 11
-194.432150801986
 21
42.1552742694352
 31
0.0
  0
ARC
  5
   1F7
  8
0
  6
CONTINUOUS
 62
   130
 10
-194.432150801986
 20
41.3552742575142
 30
0.0
 40
0.800000011920929
 50
359.999999844103
 51
449.999999844103
  0
ARC
  5
   1F8
  8
0
  6
CONTINUOUS
 62
   130
 10
-189.232138517468
 20
31.7552754580975
 30
0.0
 40
0.800000011920929
 50
359.999999844103
 51
449.999999844103
  0
ARC
  5
   1F9
  8
0
  6
CONTINUOUS
 62
   130
 10
-194.432150801986
 20
-46.6447243665192
 30
0.0
 40
0.800000011920929
 50
269.999999844103
 51
359.999999844103
  0
LINE
  5
   1FA
  8
0
  6
CONTINUOUS
 62
   130
 10
-193.632150790065
 20
-37.8447255790234
 30
0.0
 11
-193.632150790065
 21
-46.6447243665192
 31
0.0
  0
ARC
  5
   1FB
  8
0
  6
CONTINUOUS
 62
   130
 10
-189.2321507245
 20
-37.0447255671024
 30
0.0
 40
0.800000011920929
 50
269.999999844103
 51
359.999999844103
  0
ARC
  5
   1FC
  8
0
  6
CONTINUOUS
 62
   130
 10
-212.032138857215
 20
-14.2447130203128
 30
0.0
 40
41.9421353018263
 50
340.405499850824
 51
359.999999844103
  0
LINE
  5
   1FD
  8
0
  6
CONTINUOUS
 62
   130
 10
-170.090003555388
 20
-14.2447130203128
 30
0.0
 11
-170.090003555388
 21
-26.8343276808795
 31
0.0
  0
LINE
  5
   1FE
  8
0
  6
DASHDOT
 62
   130
 10
-251.368773827011
 20
-12.2447129905222
 30
0.0
 11
-177.042009002005
 21
-12.2447129905222
 31
0.0
  0
LINE
  5
   1FF
  8
0
  6
CONTINUOUS
 62
   130
 10
-222.419999310162
 20
-38.6447255909443
 30
0.0
 11
-222.419999310162
 21
-47.4447243784401
 31
0.0
  0
LINE
  5
   200
  8
0
  6
CONTINUOUS
 62
   130
 10
-234.019999483016
 20
-48.6454143375019
 30
0.0
 11
-220.819999286321
 21
-48.6454143375019
 31
0.0
  0
LINE
  5
   201
  8
0
  6
CONTINUOUS
 62
   130
 10
-222.419999310162
 20
-38.6447255909443
 30
0.0
 11
-222.419999310162
 21
-48.6454143375019
 31
0.0
  0
LINE
  5
   202
  8
0
  6
CONTINUOUS
 62
   130
 10
-230.38068443988
 20
-38.6447255909443
 30
0.0
 11
-232.419999459174
 21
-43.344016722361
 31
0.0
  0
LINE
  5
   203
  8
0
  6
CONTINUOUS
 62
   130
 10
-228.636520570792
 20
-38.6447255909443
 30
0.0
 11
-232.419999459174
 21
-47.3631769424332
 31
0.0
  0
LINE
  5
   204
  8
0
  6
CONTINUOUS
 62
   130
 10
-226.892356701704
 20
-38.6447255909443
 30
0.0
 11
-231.232278233229
 21
-48.6454143375019
 31
0.0
  0
LINE
  5
   205
  8
0
  6
CONTINUOUS
 62
   130
 10
-225.148192832616
 20
-38.6447255909443
 30
0.0
 11
-229.488114364141
 21
-48.6454143375019
 31
0.0
  0
LINE
  5
   206
  8
0
  6
CONTINUOUS
 62
   130
 10
-223.404028963528
 20
-38.6447255909443
 30
0.0
 11
-227.743950495053
 21
-48.6454143375019
 31
0.0
  0
LINE
  5
   207
  8
0
  6
CONTINUOUS
 62
   130
 10
-222.419999310162
 20
-40.3963392184779
 30
0.0
 11
-225.999786625965
 21
-48.6454143375019
 31
0.0
  0
LINE
  5
   208
  8
0
  6
CONTINUOUS
 62
   130
 10
-222.419999310162
 20
-44.4154994385501
 30
0.0
 11
-224.255622756877
 21
-48.6454143375019
 31
0.0
  0
LINE
  5
   209
  8
0
  6
CONTINUOUS
 62
   130
 10
-231.619999447253
 20
-48.2447257339954
 30
0.0
 11
-231.619999447253
 21
-48.6454143375019
 31
0.0
  0
LINE
  5
   20A
  8
0
  6
CONTINUOUS
 62
   130
 10
-235.026237287914
 20
-37.8642316906698
 30
0.0
 11
-208.547420426265
 21
-37.8642316906698
 31
0.0
  0
LINE
  5
   20B
  8
0
  6
CONTINUOUS
 62
   130
 10
-208.547420426265
 20
-37.8642316906698
 30
0.0
 11
-208.547420426265
 21
-49.0447257459164
 31
0.0
  0
LINE
  5
   20C
  8
0
  6
CONTINUOUS
 62
   130
 10
-235.026237287914
 20
-37.8642316906698
 30
0.0
 11
-235.026237287914
 21
-50.6447257697582
 31
0.0
  0
LINE
  5
   20D
  8
0
  6
CONTINUOUS
 62
   130
 10
-208.547420426265
 20
-47.4447243784401
 30
0.0
 11
-194.432150801986
 21
-47.4447243784401
 31
0.0
  0
LINE
  5
   20E
  8
0
  6
CONTINUOUS
 62
   130
 10
-244.432128849595
 20
-47.4447243784401
 30
0.0
 11
-234.226237275993
 21
-47.4447243784401
 31
0.0
  0
LINE
  5
   20F
  8
0
  6
CONTINUOUS
 62
   130
 10
-232.032139803736
 20
37.1608030595212
 30
0.0
 11
-230.38068443988
 21
33.3552754819393
 31
0.0
  0
LINE
  5
   210
  8
0
  6
CONTINUOUS
 62
   130
 10
-232.032139803736
 20
41.1799632795934
 30
0.0
 11
-228.636520570792
 21
33.3552754819393
 31
0.0
  0
LINE
  5
   211
  8
0
  6
CONTINUOUS
 62
   130
 10
-231.232278233229
 20
43.3559642284969
 30
0.0
 11
-226.892356701704
 21
33.3552754819393
 31
0.0
  0
LINE
  5
   212
  8
0
  6
CONTINUOUS
 62
   130
 10
-229.488114364141
 20
43.3559642284969
 30
0.0
 11
-225.148192832616
 21
33.3552754819393
 31
0.0
  0
LINE
  5
   213
  8
0
  6
CONTINUOUS
 62
   130
 10
-227.743950495053
 20
43.3559642284969
 30
0.0
 11
-223.404028963528
 21
33.3552754819393
 31
0.0
  0
LINE
  5
   214
  8
0
  6
CONTINUOUS
 62
   130
 10
-225.999786625965
 20
43.3559642284969
 30
0.0
 11
-222.832129424182
 21
36.0565802417789
 31
0.0
  0
LINE
  5
   215
  8
0
  6
CONTINUOUS
 62
   130
 10
-224.255622756877
 20
43.3559642284969
 30
0.0
 11
-222.832129424182
 21
40.0757404618511
 31
0.0
  0
LINE
  5
   216
  8
0
  6
CONTINUOUS
 62
   130
 10
-234.019999483016
 20
43.3559642284969
 30
0.0
 11
-220.819999286321
 21
43.3559642284969
 31
0.0
  0
LINE
  5
   217
  8
0
  6
CONTINUOUS
 62
   130
 10
-234.019999483016
 20
82.5045876734383
 30
0.0
 11
-234.019999483016
 21
43.3559642284969
 31
0.0
  0
LINE
  5
   218
  8
0
  6
CONTINUOUS
 62
   130
 10
-220.819999286321
 20
82.5045876734383
 30
0.0
 11
-220.819999286321
 21
43.3559642284969
 31
0.0
  0
LINE
  5
   219
  8
0
  6
CONTINUOUS
 62
   130
 10
-242.432128463754
 20
-8.80472928454771
 30
0.0
 11
-208.032143806923
 21
-8.80472928454771
 31
0.0
  0
LINE
  5
   21A
  8
0
  6
CONTINUOUS
 62
   130
 10
-190.432150742381
 20
33.7552754878998
 30
0.0
 11
-189.2321507245
 21
33.7552754878998
 31
0.0
  0
LINE
  5
   21B
  8
0
  6
CONTINUOUS
 62
   130
 10
-190.432150742381
 20
-39.0447255969048
 30
0.0
 11
-189.2321507245
 21
-39.0447255969048
 31
0.0
  0
INSERT
  5
   21C
  8
0
  6
CONTINUOUS
 62
     7
  2
*HATCH124
 10
-145.834213256836
 20
-14.244725227356
 30
0.0
 41
0.800000011920929
 42
0.800000011920929
 50
269.999999844103
 43
0.800000011920929
  0
INSERT
  5
   21D
  8
0
  6
CONTINUOUS
 62
     7
  2
*HATCH125
 10
-145.834213256836
 20
-14.244725227356
 30
0.0
 41
0.800000011920929
 42
0.800000011920929
 50
269.999999844103
 43
0.800000011920929
  0
INSERT
  5
   21E
  8
0
  6
CONTINUOUS
 62
     7
  2
*HATCH126
 10
-145.834213256836
 20
-14.244725227356
 30
0.0
 41
0.800000011920929
 42
0.800000011920929
 50
269.999999844103
 43
0.800000011920929
  0
LINE
  5
   21F
  8
0
  6
CONTINUOUS
 62
   130
 10
-186.832132568924
 20
6.55528728961967
 30
0.0
 11
-186.832132568924
 21
5.75528727769874
 31
0.0
  0
LINE
  5
   220
  8
0
  6
CONTINUOUS
 62
   130
 10
-186.832132568924
 20
-30.2447132587431
 30
0.0
 11
-186.832132568924
 21
-31.044713270664
 31
0.0
  0
LINE
  5
   221
  8
0
  6
CONTINUOUS
 62
   130
 10
-186.832132568924
 20
26.1552875816824
 30
0.0
 11
-186.832132568924
 21
7.75528730750106
 31
0.0
  0
LINE
  5
   222
  8
0
  6
DASHDOT
 62
   130
 10
-186.832132568924
 20
54.6683588512133
 30
0.0
 11
-186.832132568924
 21
-67.0470308266581
 31
0.0
  0
LINE
  5
   223
  8
0
  6
CONTINUOUS
 62
   130
 10
-184.432132533162
 20
-30.2447132587431
 30
0.0
 11
-184.432132533162
 21
-50.6447135627268
 31
0.0
  0
LINE
  5
   224
  8
0
  6
CONTINUOUS
 62
   130
 10
-188.032132586806
 20
6.55528728961967
 30
0.0
 11
-186.832132568924
 21
6.55528728961967
 31
0.0
  0
LINE
  5
   225
  8
0
  6
CONTINUOUS
 62
   130
 10
-188.032132586806
 20
7.75528730750106
 30
0.0
 11
-186.832132568924
 21
7.75528730750106
 31
0.0
  0
LINE
  5
   226
  8
0
  6
CONTINUOUS
 62
   130
 10
-188.032132586806
 20
7.75528730750106
 30
0.0
 11
-188.032132586806
 21
6.55528728961967
 31
0.0
  0
LINE
  5
   227
  8
0
  6
CONTINUOUS
 62
   130
 10
-186.832132568924
 20
26.1552875816824
 30
0.0
 11
-184.432132533162
 21
26.1552875816824
 31
0.0
  0
LINE
  5
   228
  8
0
  6
CONTINUOUS
 62
   130
 10
-186.832132568924
 20
-50.6447135627268
 30
0.0
 11
-184.432132533162
 21
-50.6447135627268
 31
0.0
  0
LINE
  5
   229
  8
0
  6
CONTINUOUS
 62
   130
 10
-186.832132568924
 20
-32.2447132885454
 30
0.0
 11
-186.832132568924
 21
-50.6447135627268
 31
0.0
  0
LINE
  5
   22A
  8
0
  6
CONTINUOUS
 62
   130
 10
-188.032132586806
 20
-32.2447132885454
 30
0.0
 11
-186.832132568924
 21
-32.2447132885454
 31
0.0
  0
LINE
  5
   22B
  8
0
  6
CONTINUOUS
 62
   130
 10
-188.032132586806
 20
-31.044713270664
 30
0.0
 11
-188.032132586806
 21
-32.2447132885454
 31
0.0
  0
LINE
  5
   22C
  8
0
  6
DOT
 62
   130
 10
-186.832132568924
 20
5.75528727769874
 30
0.0
 11
-186.832132568924
 21
-30.2447132587431
 31
0.0
  0
LINE
  5
   22D
  8
0
  6
CONTINUOUS
 62
   130
 10
-184.432132533162
 20
26.1552875816824
 30
0.0
 11
-184.432132533162
 21
5.75528727769874
 31
0.0
  0
LINE
  5
   22E
  8
0
  6
CONTINUOUS
 62
   130
 10
-188.432132592766
 20
14.555287408829
 30
0.0
 11
-186.832132568924
 21
14.555287408829
 31
0.0
  0
LINE
  5
   22F
  8
0
  6
CONTINUOUS
 62
   130
 10
-188.432132592766
 20
12.1552873730662
 30
0.0
 11
-186.832132568924
 21
12.1552873730662
 31
0.0
  0
LINE
  5
   230
  8
0
  6
CONTINUOUS
 62
   130
 10
-188.432132592766
 20
15.1552874177696
 30
0.0
 11
-188.432132592766
 21
11.5552873641255
 31
0.0
  0
LINE
  5
   231
  8
0
  6
DOT
 62
   130
 10
-188.432132592766
 20
15.1552874177697
 30
0.0
 11
-190.032132616608
 21
14.0760737747403
 31
0.0
  0
LINE
  5
   232
  8
0
  6
DOT
 62
   130
 10
-190.032132616608
 20
12.6345010071549
 30
0.0
 11
-188.432132592766
 21
11.5552873641255
 31
0.0
  0
LINE
  5
   233
  8
0
  6
DOT
 62
   130
 10
-190.032132616608
 20
14.0760737747402
 30
0.0
 11
-190.032132616608
 21
12.6345010071549
 31
0.0
  0
LINE
  5
   234
  8
0
  6
DOT
 62
   130
 10
-190.032132616608
 20
-38.5654997557846
 30
0.0
 11
-188.432132592766
 21
-39.644713398814
 31
0.0
  0
LINE
  5
   235
  8
0
  6
DOT
 62
   130
 10
-190.032132616608
 20
-37.1239269881992
 30
0.0
 11
-190.032132616608
 21
-38.5654997557846
 31
0.0
  0
LINE
  5
   236
  8
0
  6
DOT
 62
   130
 10
-188.432132592766
 20
-36.0447133451698
 30
0.0
 11
-190.032132616608
 21
-37.1239269881992
 31
0.0
  0
LINE
  5
   237
  8
0
  6
CONTINUOUS
 62
   130
 10
-188.432132592766
 20
-36.0447133451698
 30
0.0
 11
-188.432132592766
 21
-39.644713398814
 31
0.0
  0
LINE
  5
   238
  8
0
  6
CONTINUOUS
 62
   130
 10
-188.432132592766
 20
-39.0447133898733
 30
0.0
 11
-186.832132568924
 21
-39.0447133898733
 31
0.0
  0
LINE
  5
   239
  8
0
  6
CONTINUOUS
 62
   130
 10
-188.432132592766
 20
-36.6447133541105
 30
0.0
 11
-186.832132568924
 21
-36.6447133541105
 31
0.0
  0
LINE
  5
   23A
  8
0
  6
CONTINUOUS
 62
   130
 10
-186.832132568924
 20
6.55528728961967
 30
0.0
 11
-184.432132533162
 21
6.55528728961967
 31
0.0
  0
LINE
  5
   23B
  8
0
  6
CONTINUOUS
 62
   130
 10
-188.032132586806
 20
-31.044713270664
 30
0.0
 11
-184.432132533162
 21
-31.044713270664
 31
0.0
  0
LINE
  5
   23C
  8
0
  6
DASHDOT
 62
   130
 10
-188.032132586806
 20
54.6683588512133
 30
0.0
 11
-188.032132586806
 21
-67.4728482946812
 31
0.0
  0
INSERT
  5
   23D
  8
0
  6
CONTINUOUS
 62
     7
  2
*HATCH127
 10
-145.834213256836
 20
-14.244725227356
 30
0.0
 41
0.800000011920929
 42
0.800000011920929
 50
269.999999844103
 43
0.800000011920929
  0
INSERT
  5
   23E
  8
0
  6
CONTINUOUS
 62
     7
  2
*HATCH128
 10
-145.834213256836
 20
-14.244725227356
 30
0.0
 41
0.800000011920929
 42
0.800000011920929
 50
269.999999844103
 43
0.800000011920929
  0
LINE
  5
   23F
  8
0
  6
CONTINUOUS
 62
   130
 10
-191.632138553231
 20
33.7552754878998
 30
0.0
 11
-188.432138505547
 21
33.7552754878998
 31
0.0
  0
LINE
  5
   240
  8
0
  6
CONTINUOUS
 62
   130
 10
-188.432138505547
 20
76.5552761256695
 30
0.0
 11
-188.432138505547
 21
33.7552754878998
 31
0.0
  0
LINE
  5
   241
  8
0
  6
CONTINUOUS
 62
   130
 10
-244.432128493556
 20
77.3552761375904
 30
0.0
 11
-189.232138517468
 21
77.3552761375904
 31
0.0
  0
ARC
  5
   242
  8
0
  6
CONTINUOUS
 62
   130
 10
-189.232138517468
 20
76.5552761256695
 30
0.0
 40
0.800000011920929
 50
359.999999844103
 51
449.999999844103
  0
LINE
  5
   243
  8
0
  6
CONTINUOUS
 62
   130
 10
-244.432128493556
 20
43.7552756369114
 30
0.0
 11
-191.632138553231
 21
43.7552756369114
 31
0.0
  0
LINE
  5
   244
  8
0
  6
CONTINUOUS
 62
   130
 10
-191.632138553231
 20
43.7552756369114
 30
0.0
 11
-191.632138553231
 21
33.7552754878998
 31
0.0
  0
LINE
  5
   245
  8
0
  6
CONTINUOUS
 62
   130
 10
-188.432138505547
 20
46.5552756786346
 30
0.0
 11
-185.632138463824
 21
46.5552756786346
 31
0.0
  0
LINE
  5
   246
  8
0
  6
CONTINUOUS
 62
   130
 10
-188.432138505547
 20
42.55527561903
 30
0.0
 11
-185.632138463824
 21
42.55527561903
 31
0.0
  0
LINE
  5
   247
  8
0
  6
CONTINUOUS
 62
   130
 10
-185.232138457863
 20
46.1552756726742
 30
0.0
 11
-185.232138457863
 21
42.9552756249905
 31
0.0
  0
CIRCLE
  5
   248
  8
0
  6
CONTINUOUS
 62
   130
 10
-186.832138481705
 20
44.5552756488323
 30
0.0
 40
0.600000008940697
  0
LINE
  5
   249
  8
0
  6
CONTINUOUS
 62
   130
 10
-185.632138463824
 20
46.5552756786346
 30
0.0
 11
-185.232138457863
 21
46.1552756726742
 31
0.0
  0
LINE
  5
   24A
  8
0
  6
CONTINUOUS
 62
   130
 10
-185.232138457863
 20
42.9552756249905
 30
0.0
 11
-185.632138463824
 21
42.55527561903
 31
0.0
  0
LINE
  5
   24B
  8
0
  6
CONTINUOUS
 62
   130
 10
-185.632138463824
 20
46.5552756786346
 30
0.0
 11
-185.632138463824
 21
42.55527561903
 31
0.0
  0
LINE
  5
   24C
  8
0
  6
DASHDOT
 62
   130
 10
-186.832132568924
 20
54.6683588512133
 30
0.0
 11
-186.832132568924
 21
-67.0470308266581
 31
0.0
  0
LINE
  5
   24D
  8
0
  6
DASHDOT
 62
   130
 10
-188.032132586806
 20
54.6683588512133
 30
0.0
 11
-188.032132586806
 21
-67.4728482946812
 31
0.0
  0
LINE
  5
   24E
  8
0
  6
CONTINUOUS
 62
   130
 10
-244.432128493556
 20
-82.6447262465954
 30
0.0
 11
-189.232138517468
 21
-82.6447262465954
 31
0.0
  0
LINE
  5
   24F
  8
0
  6
CONTINUOUS
 62
   130
 10
-244.432128493556
 20
-49.0447257459164
 30
0.0
 11
-191.632138553231
 21
-49.0447257459164
 31
0.0
  0
LINE
  5
   250
  8
0
  6
CONTINUOUS
 62
   130
 10
-191.632138553231
 20
-39.0447255969048
 30
0.0
 11
-191.632138553231
 21
-49.0447257459164
 31
0.0
  0
LINE
  5
   251
  8
0
  6
CONTINUOUS
 62
   130
 10
-188.432138505547
 20
-39.0447255969048
 30
0.0
 11
-188.432138505547
 21
-81.8447262346745
 31
0.0
  0
LINE
  5
   252
  8
0
  6
CONTINUOUS
 62
   130
 10
-188.432138505547
 20
-51.8447257876396
 30
0.0
 11
-185.632138463824
 21
-51.8447257876396
 31
0.0
  0
LINE
  5
   253
  8
0
  6
CONTINUOUS
 62
   130
 10
-185.632138463824
 20
-47.844725728035
 30
0.0
 11
-185.632138463824
 21
-51.8447257876396
 31
0.0
  0
LINE
  5
   254
  8
0
  6
CONTINUOUS
 62
   130
 10
-191.632138553231
 20
-39.0447255969048
 30
0.0
 11
-188.432138505547
 21
-39.0447255969048
 31
0.0
  0
LINE
  5
   255
  8
0
  6
CONTINUOUS
 62
   130
 10
-188.432138505547
 20
-47.844725728035
 30
0.0
 11
-185.632138463824
 21
-47.844725728035
 31
0.0
  0
LINE
  5
   256
  8
0
  6
CONTINUOUS
 62
   130
 10
-185.632138463824
 20
-47.844725728035
 30
0.0
 11
-185.232138457863
 21
-48.2447257339954
 31
0.0
  0
LINE
  5
   257
  8
0
  6
CONTINUOUS
 62
   130
 10
-185.632138463824
 20
-47.844725728035
 30
0.0
 11
-185.632138463824
 21
-51.8447257876396
 31
0.0
  0
LINE
  5
   258
  8
0
  6
CONTINUOUS
 62
   130
 10
-185.232138457863
 20
-48.2447257339954
 30
0.0
 11
-185.232138457863
 21
-51.4447257816792
 31
0.0
  0
LINE
  5
   259
  8
0
  6
CONTINUOUS
 62
   130
 10
-185.232138457863
 20
-51.4447257816791
 30
0.0
 11
-185.632138463824
 21
-51.8447257876396
 31
0.0
  0
ARC
  5
   25A
  8
0
  6
CONTINUOUS
 62
   130
 10
-189.232138517468
 20
-81.8447262346745
 30
0.0
 40
0.800000011920929
 50
269.999999844103
 51
359.999999844103
  0
POINT
  5
   25B
  8
0
  6
CONTINUOUS
 62
   130
 10
-219.329324748809
 20
108.181175803975
 30
0.0
  0
CIRCLE
  5
   25C
  8
0
  6
CONTINUOUS
 62
   130
 10
-219.329324748809
 20
108.181175803975
 30
0.0
 40
1.20000001788139
  0
INSERT
  5
   25D
  8
0
  6
CONTINUOUS
 62
     7
  2
*HATCH129
 10
-145.834213256836
 20
-14.244725227356
 30
0.0
 41
0.800000011920929
 42
0.800000011920929
 50
269.999999844103
 43
0.800000011920929
  0
LINE
  5
   25E
  8
0
  6
DASHDOT
 62
   130
 10
-246.032128517398
 20
88.7298157699984
 30
0.0
 11
-246.032128517398
 21
-91.1076467862318
 31
0.0
  0
LINE
  5
   25F
  8
0
  6
DASHDOT
 62
   130
 10
-244.432128493556
 20
89.6645219163406
 30
0.0
 11
-244.432128493556
 21
-93.1640003081846
 31
0.0
  0
LINE
  5
   260
  8
0
  6
CONTINUOUS
 62
   130
 10
-249.232128565082
 20
39.7552634657359
 30
0.0
 11
-249.232128565082
 21
33.3552633703684
 31
0.0
  0
LINE
  5
   261
  8
0
  6
CONTINUOUS
 62
   130
 10
-249.232128565082
 20
39.7552634657359
 30
0.0
 11
-246.432128523358
 21
39.7552634657359
 31
0.0
  0
LINE
  5
   262
  8
0
  6
CONTINUOUS
 62
   130
 10
-249.232128565082
 20
33.3552633703684
 30
0.0
 11
-246.432128523358
 21
33.3552633703684
 31
0.0
  0
LINE
  5
   263
  8
0
  6
CONTINUOUS
 62
   130
 10
-249.632128571042
 20
38.155263441894
 30
0.0
 11
-246.432128523358
 21
38.155263441894
 31
0.0
  0
LINE
  5
   264
  8
0
  6
CONTINUOUS
 62
   130
 10
-249.632128571042
 20
34.9552633942103
 30
0.0
 11
-246.432128523358
 21
34.9552633942103
 31
0.0
  0
LINE
  5
   265
  8
0
  6
CONTINUOUS
 62
   130
 10
-250.032128577002
 20
37.7552634359336
 30
0.0
 11
-250.032128577002
 21
35.3552634001708
 31
0.0
  0
LINE
  5
   266
  8
0
  6
CONTINUOUS
 62
   130
 10
-246.432128523358
 20
40.1552634716963
 30
0.0
 11
-246.432128523358
 21
32.955263364408
 31
0.0
  0
LINE
  5
   267
  8
0
  6
CONTINUOUS
 62
   130
 10
-246.432128523358
 20
40.1552634716963
 30
0.0
 11
-246.032128517398
 21
40.1552634716963
 31
0.0
  0
LINE
  5
   268
  8
0
  6
CONTINUOUS
 62
   130
 10
-246.432128523358
 20
32.955263364408
 30
0.0
 11
-246.032128517398
 21
32.955263364408
 31
0.0
  0
LINE
  5
   269
  8
0
  6
CONTINUOUS
 62
   130
 10
-249.632128571042
 20
38.155263441894
 30
0.0
 11
-250.032128577002
 21
37.7552634359336
 31
0.0
  0
LINE
  5
   26A
  8
0
  6
CONTINUOUS
 62
   130
 10
-250.032128577002
 20
35.3552634001708
 30
0.0
 11
-249.632128571042
 21
34.9552633942103
 31
0.0
  0
LINE
  5
   26B
  8
0
  6
CONTINUOUS
 62
   130
 10
-249.632128571042
 20
38.155263441894
 30
0.0
 11
-249.632128571042
 21
34.9552633942103
 31
0.0
  0
LINE
  5
   26C
  8
0
  6
DASHDOT
 62
   130
 10
-250.032128577002
 20
35.3552634001708
 30
0.0
 11
-249.232128565082
 21
35.3552634001708
 31
0.0
  0
LINE
  5
   26D
  8
0
  6
DASHDOT
 62
   130
 10
-250.032128577002
 20
37.7552634359336
 30
0.0
 11
-249.232128565082
 21
37.7552634359336
 31
0.0
  0
LINE
  5
   26E
  8
0
  6
CONTINUOUS
 62
   130
 10
-246.032128517398
 20
40.1552634716963
 30
0.0
 11
-246.032128517398
 21
32.955263364408
 31
0.0
  0
LINE
  5
   26F
  8
0
  6
CONTINUOUS
 62
   130
 10
-249.232128565082
 20
-40.2447255193256
 30
0.0
 11
-246.432128523358
 21
-40.2447255193256
 31
0.0
  0
LINE
  5
   270
  8
0
  6
CONTINUOUS
 62
   130
 10
-249.632128571042
 20
-41.8447255431674
 30
0.0
 11
-246.432128523358
 21
-41.8447255431674
 31
0.0
  0
LINE
  5
   271
  8
0
  6
CONTINUOUS
 62
   130
 10
-249.632128571042
 20
-45.0447255908512
 30
0.0
 11
-246.432128523358
 21
-45.0447255908512
 31
0.0
  0
LINE
  5
   272
  8
0
  6
CONTINUOUS
 62
   130
 10
-249.232128565082
 20
-46.644725614693
 30
0.0
 11
-246.432128523358
 21
-46.644725614693
 31
0.0
  0
LINE
  5
   273
  8
0
  6
CONTINUOUS
 62
   130
 10
-249.632128571042
 20
-41.8447255431674
 30
0.0
 11
-249.632128571042
 21
-45.0447255908512
 31
0.0
  0
LINE
  5
   274
  8
0
  6
CONTINUOUS
 62
   130
 10
-250.032128577002
 20
-42.2447255491279
 30
0.0
 11
-250.032128577002
 21
-44.6447255848907
 31
0.0
  0
LINE
  5
   275
  8
0
  6
CONTINUOUS
 62
   130
 10
-249.632128571042
 20
-41.8447255431674
 30
0.0
 11
-250.032128577002
 21
-42.2447255491279
 31
0.0
  0
LINE
  5
   276
  8
0
  6
CONTINUOUS
 62
   130
 10
-250.032128577002
 20
-44.6447255848907
 30
0.0
 11
-249.632128571042
 21
-45.0447255908512
 31
0.0
  0
LINE
  5
   277
  8
0
  6
CONTINUOUS
 62
   130
 10
-246.432128523358
 20
-39.8447255133651
 30
0.0
 11
-246.432128523358
 21
-47.0447256206535
 31
0.0
  0
LINE
  5
   278
  8
0
  6
CONTINUOUS
 62
   130
 10
-246.432128523358
 20
-39.8447255133651
 30
0.0
 11
-246.032128517398
 21
-39.8447255133651
 31
0.0
  0
LINE
  5
   279
  8
0
  6
CONTINUOUS
 62
   130
 10
-246.032128517398
 20
-39.8447255133651
 30
0.0
 11
-246.032128517398
 21
-47.0447256206535
 31
0.0
  0
LINE
  5
   27A
  8
0
  6
CONTINUOUS
 62
   130
 10
-246.432128523358
 20
-47.0447256206535
 30
0.0
 11
-246.032128517398
 21
-47.0447256206535
 31
0.0
  0
LINE
  5
   27B
  8
0
  6
CONTINUOUS
 62
   130
 10
-250.032128577002
 20
-42.2447255491279
 30
0.0
 11
-249.232128565082
 21
-42.2447255491279
 31
0.0
  0
LINE
  5
   27C
  8
0
  6
CONTINUOUS
 62
   130
 10
-250.032128577002
 20
-44.6447255848907
 30
0.0
 11
-249.232128565082
 21
-44.6447255848907
 31
0.0
  0
LINE
  5
   27D
  8
0
  6
CONTINUOUS
 62
   130
 10
-249.232128565082
 20
-40.2447255193256
 30
0.0
 11
-249.232128565082
 21
-46.644725614693
 31
0.0
  0
LINE
  5
   27E
  8
0
  6
DOT
 62
   130
 10
-229.63212952551
 20
64.5552637398184
 30
0.0
 11
-225.632129465905
 21
64.5552637398184
 31
0.0
  0
LINE
  5
   27F
  8
0
  6
DOT
 62
   130
 10
-226.832129483787
 20
42.9552634179533
 30
0.0
 11
-226.832129483787
 21
33.3552632749022
 31
0.0
  0
POINT
  5
   280
  8
0
  6
CONTINUOUS
 62
   130
 10
-226.832129483787
 20
42.9552634179533
 30
0.0
  0
LINE
  5
   281
  8
0
  6
DOT
 62
   130
 10
-229.63212952551
 20
47.805005751413
 30
0.0
 11
-227.294016753757
 21
43.7552756369114
 31
0.0
  0
LINE
  5
   282
  8
0
  6
DOT
 62
   130
 10
-225.632129465905
 20
48.8768025371085
 30
0.0
 11
-222.832129424182
 21
44.0270602036488
 31
0.0
  0
LINE
  5
   283
  8
0
  6
DOT
 62
   130
 10
-229.63212952551
 20
64.5552637398184
 30
0.0
 11
-229.63212952551
 21
47.805005751413
 31
0.0
  0
LINE
  5
   284
  8
0
  6
DOT
 62
   130
 10
-225.632129465905
 20
64.5552637398184
 30
0.0
 11
-225.632129465905
 21
48.8768025371085
 31
0.0
  0
LINE
  5
   285
  8
0
  6
DOT
 62
   130
 10
-222.832129424182
 20
44.0270602036488
 30
0.0
 11
-222.832129424182
 21
33.3552632749022
 31
0.0
  0
LINE
  5
   286
  8
0
  6
DASHDOT
 62
   130
 10
-228.501457514932
 20
37.7552633404673
 30
0.0
 11
-219.715219739316
 21
37.7552633404673
 31
0.0
  0
LINE
  5
   287
  8
0
  6
DASHDOT
 62
   130
 10
-231.399046568592
 20
57.3552636325301
 30
0.0
 11
-224.295279856392
 21
57.3552636325301
 31
0.0
  0
LINE
  5
   288
  8
0
  6
CONTINUOUS
 62
   130
 10
-227.294016753757
 20
43.7552756369114
 30
0.0
 11
-226.832129483787
 21
42.9552634179533
 31
0.0
  0
LINE
  5
   289
  8
0
  6
DOT
 62
   130
 10
-229.63212952551
 20
52.5552635610045
 30
0.0
 11
-225.632129465905
 21
52.5552635610045
 31
0.0
  0
LINE
  5
   28A
  8
0
  6
CONTINUOUS
 62
   130
 10
-220.819999286321
 20
-48.6454143375019
 30
0.0
 11
-220.819999286321
 21
-87.6632640838768
 31
0.0
  0
LINE
  5
   28B
  8
0
  6
CONTINUOUS
 62
   130
 10
-244.432128493556
 20
-49.0447257459164
 30
0.0
 11
-191.632138553231
 21
-49.0447257459164
 31
0.0
  0
LINE
  5
   28C
  8
0
  6
DOT
 62
   130
 10
-229.232129519549
 20
-69.8447138488234
 30
0.0
 11
-225.232129459945
 21
-69.8447138488234
 31
0.0
  0
LINE
  5
   28D
  8
0
  6
DOT
 62
   130
 10
-226.894016747797
 20
-49.0447257459164
 30
0.0
 11
-229.232129519549
 21
-53.094455860418
 31
0.0
  0
LINE
  5
   28E
  8
0
  6
DOT
 62
   130
 10
-222.432129418222
 20
-49.3165103126538
 30
0.0
 11
-225.232129459945
 21
-54.1662526461135
 31
0.0
  0
LINE
  5
   28F
  8
0
  6
DOT
 62
   130
 10
-229.232129519549
 20
-53.094455860418
 30
0.0
 11
-229.232129519549
 21
-69.8447138488234
 31
0.0
  0
LINE
  5
   290
  8
0
  6
DOT
 62
   130
 10
-225.232129459945
 20
-54.1662526461135
 30
0.0
 11
-225.232129459945
 21
-69.8447138488234
 31
0.0
  0
LINE
  5
   291
  8
0
  6
DOT
 62
   130
 10
-222.432129418222
 20
-38.6447133839072
 30
0.0
 11
-222.432129418222
 21
-49.3165103126538
 31
0.0
  0
LINE
  5
   292
  8
0
  6
DASHDOT
 62
   130
 10
-230.999046562632
 20
-62.644713741535
 30
0.0
 11
-223.895279850432
 21
-62.644713741535
 31
0.0
  0
LINE
  5
   293
  8
0
  6
CONTINUOUS
 62
   130
 10
-226.432129477826
 20
-48.2447135269583
 30
0.0
 11
-226.894016747797
 21
-49.0447257459164
 31
0.0
  0
LINE
  5
   294
  8
0
  6
DOT
 62
   130
 10
-229.232129519549
 20
-57.8447136700095
 30
0.0
 11
-225.232129459945
 21
-57.8447136700095
 31
0.0
  0
LINE
  5
   295
  8
0
  6
DOT
 62
   130
 10
-226.432129477826
 20
-38.6447255909443
 30
0.0
 11
-226.432129477826
 21
-48.2447257339954
 31
0.0
  0
LINE
  5
   296
  8
0
  6
CONTINUOUS
 62
   130
 10
-234.818079497607
 20
82.5045876734383
 30
0.0
 11
-219.859599275439
 21
82.5045876734383
 31
0.0
  0
LINE
  5
   297
  8
0
  6
CONTINUOUS
 62
   130
 10
-234.019999483016
 20
-48.6454143375019
 30
0.0
 11
-234.019999483016
 21
-87.7940377824433
 31
0.0
  0
LINE
  5
   298
  8
0
  6
CONTINUOUS
 62
   130
 10
-220.819999286321
 20
-48.6454143375019
 30
0.0
 11
-220.819999286321
 21
-87.7940377824433
 31
0.0
  0
LINE
  5
   299
  8
0
  6
CONTINUOUS
 62
   130
 10
-234.838773155935
 20
-87.7940377824433
 30
0.0
 11
-219.604519186508
 21
-87.7940377824433
 31
0.0
  0
POINT
  5
   29A
  8
0
  6
CONTINUOUS
 62
   130
 10
-159.879303433526
 20
106.979900614508
 30
0.0
  0
CIRCLE
  5
   29B
  8
0
  6
CONTINUOUS
 62
   130
 10
-159.879303433526
 20
106.979900614508
 30
0.0
 40
1.20000001788139
  0
INSERT
  5
   29C
  8
0
  6
CONTINUOUS
 62
     7
  2
*HATCH130
 10
-145.834213256836
 20
-14.244725227356
 30
0.0
 41
0.800000011920929
 42
0.800000011920929
 50
269.999999844103
 43
0.800000011920929
  0
LINE
  5
   29D
  8
0
  6
CONTINUOUS
 62
   130
 10
-229.63212952551
 20
60.755263683194
 30
0.0
 11
-225.632129465905
 21
60.755263683194
 31
0.0
  0
LINE
  5
   29E
  8
0
  6
CONTINUOUS
 62
   130
 10
-229.63212952551
 20
53.9552635818661
 30
0.0
 11
-225.632129465905
 21
53.9552635818661
 31
0.0
  0
LINE
  5
   29F
  8
0
  6
DOT
 62
   130
 10
-229.232129519549
 20
-59.2447136908711
 30
0.0
 11
-225.232129459945
 21
-59.2447136908711
 31
0.0
  0
LINE
  5
   2A0
  8
0
  6
DOT
 62
   130
 10
-229.232129519549
 20
-66.044713792199
 30
0.0
 11
-225.232129459945
 21
-66.044713792199
 31
0.0
  0
INSERT
  5
   2A1
  8
0
  6
CONTINUOUS
 62
     3
  2
*UDIM780
 10
0.0
 20
0.0
 30
0.0
  0
INSERT
  5
   2A2
  8
0
  6
CONTINUOUS
 62
     3
  2
*UDIM781
 10
0.0
 20
0.0
 30
0.0
  0
TEXT
  5
   2A3
  8
0
  6
CONTINUOUS
 62
     2
 10
-118.816987091786
 20
-133.858355551353
 30
0.0
 40
2.00000007748604
  1
4POLE LOW VOLTAGE M.C.C.B SERIES ISOMAX
 50
359.999999844103
 41
0.625
 72
     1
 11
-94.5669861495515
 21
-132.85835557847
 31
0.0
 73
     2
  0
TEXT
  5
   2A4
  8
0
  6
CONTINUOUS
 62
     2
 10
-112.566986718508
 20
-136.858355568327
 30
0.0
 40
2.00000007748604
  1
FIXED VERSION FRONT TERMINALS
 50
359.999999844103
 41
0.625
 72
     1
 11
-94.5669860184173
 21
-135.85835557847
 31
0.0
 73
     2
  0
TEXT
  5
   2A5
  8
0
  6
CONTINUOUS
 62
     2
 10
-115.934708431473
 20
-142.399966284403
 30
0.0
 40
2.00000007748604
  1
INTERR.AUTOMATICO SERIE ISOMAX
 50
359.999999844103
 41
0.625
 72
     1
 11
-97.3097077071686
 21
-141.399966296243
 31
0.0
 73
     2
  0
TEXT
  5
   2A6
  8
0
  6
CONTINUOUS
 62
     2
 10
-127.184708736198
 20
-145.399966253849
 30
0.0
 40
2.00000007748604
  1
TETRAP.ESECUZIONE FISSA TERM.ANTER.E COPRIT.ALTI
 50
359.999999844103
 41
0.625
 72
     1
 11
-97.3097075760345
 21
-144.399966296243
 31
0.0
 73
     2
  0
TEXT
  5
   2A7
  8
0
  6
CONTINUOUS
 62
     2
 10
-219.814914706085
 20
-133.250094311499
 30
0.0
 40
2.00000007748604
  1
3/11/92
 50
359.999999844103
 41
0.625
 11
-219.814914703369
 21
-132.250094272756
 31
0.0
 73
     2
  0
TEXT
  5
   2A8
  8
0
  6
CONTINUOUS
 62
     2
 10
-219.814914706085
 20
-137.250094311499
 30
0.0
 40
2.00000007748604
  1
MOSTOSI
 50
359.999999844103
 41
0.625
 11
-219.814914703369
 21
-136.250094272756
 31
0.0
 73
     2
  0
TEXT
  5
   2A9
  8
0
  6
CONTINUOUS
 62
     2
 10
-96.9636167446036
 20
-152.628130937041
 30
0.0
 40
2.99999994933605
  1
S2
 50
359.999999844103
 41
0.916666607525612
 72
     1
 11
-94.4886169433594
 21
-151.128130969095
 31
0.0
 73
     2
  0
TEXT
  5
   2AA
  8
0
  6
CONTINUOUS
 62
     2
 10
-116.876512248426
 20
-162.018923768191
 30
0.0
 40
5.00000002682209
  1
601855/241
 50
359.999999844103
 41
0.916666520675022
 72
     1
 11
-94.4181823730469
 21
-159.518923815775
 31
0.0
 73
     2
  0
TEXT
  5
   2AB
  8
0
  6
CONTINUOUS
 62
     2
 10
-58.5060281882394
 20
-163.074267441332
 30
0.0
 40
2.50000001341104
  1
1/1
 50
359.999999844103
 41
0.954999921455383
 72
     1
 11
-55.1635284423828
 21
-161.824267443704
 31
0.0
 73
     2
  0
TEXT
  5
   2AC
  8
0
  6
CONTINUOUS
 62
     2
 10
-157.450450786465
 20
107.358096851791
 30
0.0
 40
2.00000007748604
  1
75mm.CON VITI SIGILLABILI
 50
359.999999844103
 41
0.625
 11
-157.450450783749
 21
108.358096890534
 31
0.0
 73
     2
  0
TEXT
  5
   2AD
  8
0
  6
CONTINUOUS
 62
     2
 10
-157.450450655331
 20
104.358096822774
 30
0.0
 40
2.00000007748604
  1
75mm.WITH SCREWS TO SEAL
 50
359.999999844103
 41
0.625
 11
-157.450450652615
 21
105.358096861517
 31
0.0
 73
     2
  0
INSERT
  5
   2AE
  8
0
  6
CONTINUOUS
 62
     7
  2
*UDIM782
 10
0.0
 20
0.0
 30
0.0
  0
INSERT
  5
   2AF
  8
0
  6
CONTINUOUS
 62
     7
  2
*UDIM783
 10
0.0
 20
0.0
 30
0.0
  0
INSERT
  5
   2B0
  8
0
  6
CONTINUOUS
 62
     3
  2
*UDIM784
 10
0.0
 20
0.0
 30
0.0
  0
INSERT
  5
   2B1
  8
0
  6
CONTINUOUS
 62
     3
  2
*UDIM785
 10
0.0
 20
0.0
 30
0.0
  0
TEXT
  5
   2B2
  8
0
  6
CONTINUOUS
 62
     2
 10
-174.571271157399
 20
106.995260333188
 30
0.0
 40
2.99999994933605
  1
:
 50
359.999999844103
 41
0.933333333333333
 72
     1
 11
-173.471271171902
 21
108.495260304868
 31
0.0
 73
     2
  0
TEXT
  5
   2B3
  8
0
  6
CONTINUOUS
 62
     2
 10
-178.472690369366
 20
-13.9011008658393
 30
0.0
 40
2.99999994933605
  1
X
 50
359.999999844103
 41
0.916666718787619
 72
     1
 11
-177.372690289296
 21
-12.4011008941587
 31
0.0
 73
     2
  0
TEXT
  5
   2B4
  8
0
  6
CONTINUOUS
 62
     2
 10
-254.611607519549
 20
-13.9678132462889
 30
0.0
 40
2.99999994933605
  1
X
 50
359.999999844103
 41
0.916666718787619
 72
     1
 11
-253.511607439479
 21
-12.4678132746084
 31
0.0
 73
     2
  0
INSERT
  5
   2B5
  8
0
  6
CONTINUOUS
 62
     3
  2
*UDIM786
 10
0.0
 20
0.0
 30
0.0
  0
INSERT
  5
   2B6
  8
0
  6
CONTINUOUS
 62
     3
  2
*UDIM787
 10
0.0
 20
0.0
 30
0.0
  0
INSERT
  5
   2B7
  8
0
  6
CONTINUOUS
 62
     7
  2
*UDIM788
 10
0.0
 20
0.0
 30
0.0
  0
INSERT
  5
   2B8
  8
0
  6
CONTINUOUS
 62
     7
  2
*UDIM789
 10
0.0
 20
0.0
 30
0.0
  0
LINE
  5
   2B9
  8
0
  6
CONTINUOUS
 62
     7
 10
-291.814978103792
 20
25.1555778652485
 30
0.0
 11
-291.814978103792
 21
-28.0439813965515
 31
0.0
  0
LINE
  5
   2BA
  8
0
  6
CONTINUOUS
 62
     7
 10
-397.214979674374
 20
-50.6444232642595
 30
0.0
 11
-337.686496297054
 21
-50.6444232642595
 31
0.0
  0
LINE
  5
   2BB
  8
0
  6
CONTINUOUS
 62
     7
 10
-398.214979689275
 20
25.1555778652485
 30
0.0
 11
-398.214979689275
 21
-49.6444232493583
 31
0.0
  0
LINE
  5
   2BC
  8
0
  6
CONTINUOUS
 62
     7
 10
-397.214979674374
 20
26.1555778801497
 30
0.0
 11
-292.814978118693
 21
26.1555778801497
 31
0.0
  0
LINE
  5
   2BD
  8
0
  6
CONTINUOUS
 62
     7
 10
-394.214979629671
 20
-31.4444229781572
 30
0.0
 11
-337.686496297054
 21
-31.4444229781572
 31
0.0
  0
LINE
  5
   2BE
  8
0
  6
CONTINUOUS
 62
     7
 10
-394.214979629671
 20
6.95557759404738
 30
0.0
 11
-295.814978163397
 21
6.95557759404738
 31
0.0
  0
LINE
  5
   2BF
  8
0
  6
CONTINUOUS
 62
     7
 10
-394.614979635631
 20
26.1555778801497
 30
0.0
 11
-394.614979635631
 21
-50.6444232642595
 31
0.0
  0
LINE
  5
   2C0
  8
0
  6
CONTINUOUS
 62
     7
 10
-393.81497962371
 20
15.3555777192171
 30
0.0
 11
-393.81497962371
 21
6.95557759404738
 31
0.0
  0
LINE
  5
   2C1
  8
0
  6
CONTINUOUS
 62
     7
 10
-393.81497962371
 20
-31.4444229781572
 30
0.0
 11
-393.81497962371
 21
-39.844423103327
 31
0.0
  0
LINE
  5
   2C2
  8
0
  6
CONTINUOUS
 62
     7
 10
-393.81497962371
 20
-40.6444231152479
 30
0.0
 11
-393.81497962371
 21
-50.6444232642595
 31
0.0
  0
LINE
  5
   2C3
  8
0
  6
CONTINUOUS
 62
     7
 10
-295.414978157436
 20
26.1555778801497
 30
0.0
 11
-295.414978157436
 21
-28.0439813965515
 31
0.0
  0
LINE
  5
   2C4
  8
0
  6
CONTINUOUS
 62
     7
 10
-296.214978169357
 20
15.3555777192171
 30
0.0
 11
-296.214978169357
 21
6.95557759404738
 31
0.0
  0
LINE
  5
   2C5
  8
0
  6
CONTINUOUS
 62
     7
 10
-394.614979635631
 20
16.1555777311381
 30
0.0
 11
-295.414978157436
 21
16.1555777311381
 31
0.0
  0
LINE
  5
   2C6
  8
0
  6
CONTINUOUS
 62
     7
 10
-393.81497962371
 20
15.3555777192171
 30
0.0
 11
-296.214978169357
 21
15.3555777192171
 31
0.0
  0
LINE
  5
   2C7
  8
0
  6
CONTINUOUS
 62
     7
 10
-393.81497962371
 20
-40.6444231152479
 30
0.0
 11
-337.686496297054
 21
-40.6444231152479
 31
0.0
  0
LINE
  5
   2C8
  8
0
  6
CONTINUOUS
 62
     7
 10
-393.81497962371
 20
-39.844423103327
 30
0.0
 11
-337.686496297054
 21
-39.844423103327
 31
0.0
  0
LINE
  5
   2C9
  8
0
  6
CONTINUOUS
 62
     7
 10
-394.614979635631
 20
21.7555778145846
 30
0.0
 11
-394.374977190649
 21
21.7555778145846
 31
0.0
  0
LINE
  5
   2CA
  8
0
  6
CONTINUOUS
 62
     7
 10
-394.614979635631
 20
20.5555777967032
 30
0.0
 11
-394.374977190649
 21
20.5555777967032
 31
0.0
  0
LINE
  5
   2CB
  8
0
  6
CONTINUOUS
 62
     7
 10
-295.6549783136
 20
21.7555778145846
 30
0.0
 11
-295.414978157436
 21
21.7555778145846
 31
0.0
  0
LINE
  5
   2CC
  8
0
  6
CONTINUOUS
 62
     7
 10
-295.6549783136
 20
20.5555777967032
 30
0.0
 11
-295.414978157436
 21
20.5555777967032
 31
0.0
  0
ARC
  5
   2CD
  8
0
  6
CONTINUOUS
 62
     7
 10
-394.37500914479
 20
21.15555787128
 30
0.0
 40
0.600034768493958
 50
270.002994716444
 51
449.997011754257
  0
ARC
  5
   2CE
  8
0
  6
CONTINUOUS
 62
     7
 10
-295.654966423106
 20
21.1555733975395
 30
0.0
 40
0.600011961091972
 50
450.001135501493
 51
629.998857587167
  0
ARC
  5
   2CF
  8
0
  6
CONTINUOUS
 62
     7
 10
-292.814978118693
 20
25.1555778652485
 30
0.0
 40
1.00000001490116
 50
359.999999844103
 51
449.999999844103
  0
ARC
  5
   2D0
  8
0
  6
CONTINUOUS
 62
     7
 10
-397.214979674374
 20
25.1555778652485
 30
0.0
 40
1.00000001490116
 50
449.999999844103
 51
539.999999844103
  0
ARC
  5
   2D1
  8
0
  6
CONTINUOUS
 62
     7
 10
-397.214979674374
 20
-49.6444232493583
 30
0.0
 40
1.00000001490116
 50
539.999999844103
 51
629.999999844103
  0
LINE
  5
   2D2
  8
0
  6
CONTINUOUS
 62
     7
 10
-295.814978163397
 20
6.95557759404738
 30
0.0
 11
-295.814978163397
 21
-28.0439813965515
 31
0.0
  0
LINE
  5
   2D3
  8
0
  6
CONTINUOUS
 62
     7
 10
-394.214979629671
 20
6.95557759404738
 30
0.0
 11
-394.214979629671
 21
-31.4444229781572
 31
0.0
  0
LINE
  5
   2D4
  8
0
  6
CONTINUOUS
 62
   130
 10
-296.519722889796
 20
-28.0439813965515
 30
0.0
 11
-291.458234356117
 21
-28.0439813965515
 31
0.0
  0
LINE
  5
   2D5
  8
0
  6
CONTINUOUS
 62
   130
 10
-337.686496297054
 20
-30.9121582323031
 30
0.0
 11
-337.686496297054
 21
-51.4111867937039
 31
0.0
  0
LINE
  5
   2D6
  8
0
  6
DOT
 62
   130
 10
-299.814904980813
 20
-2.88479562997818
 30
0.0
 11
-299.814904980813
 21
-16.8047958374023
 31
0.0
  0
LINE
  5
   2D7
  8
0
  6
DOT
 62
   130
 10
-298.553492316911
 20
-2.48479562401772
 30
0.0
 11
-297.454501332753
 21
-2.88479562997818
 31
0.0
  0
LINE
  5
   2D8
  8
0
  6
DOT
 62
   130
 10
-297.454501332753
 20
-16.8047958374023
 30
0.0
 11
-298.553492316911
 21
-17.2047958433628
 31
0.0
  0
LINE
  5
   2D9
  8
0
  6
DOT
 62
   130
 10
-297.454501332753
 20
-2.88479562997818
 30
0.0
 11
-297.014904939089
 21
-2.88479562997818
 31
0.0
  0
LINE
  5
   2DA
  8
0
  6
DOT
 62
   130
 10
-297.454501332753
 20
-16.8047958374023
 30
0.0
 11
-297.014904939089
 21
-16.8047958374023
 31
0.0
  0
LINE
  5
   2DB
  8
0
  6
DOT
 62
   130
 10
-299.414904974852
 20
-2.48479562401772
 30
0.0
 11
-298.553492316911
 21
-2.48479562401772
 31
0.0
  0
LINE
  5
   2DC
  8
0
  6
DOT
 62
   130
 10
-299.414904974852
 20
-17.2047958433628
 30
0.0
 11
-298.553492316911
 21
-17.2047958433628
 31
0.0
  0
LINE
  5
   2DD
  8
0
  6
CONTINUOUS
 62
   130
 10
-286.684631347656
 20
-14.2447957992554
 30
0.0
 11
-286.684631347656
 21
-14.2447957992554
 31
0.0
  0
LINE
  5
   2DE
  8
0
  6
CONTINUOUS
 62
   130
 10
-286.684631347656
 20
-14.2447957992554
 30
0.0
 11
-286.684631347656
 21
-14.2447957992554
 31
0.0
  0
LINE
  5
   2DF
  8
0
  6
CONTINUOUS
 62
   130
 10
-286.684631347656
 20
-14.2447957992554
 30
0.0
 11
-286.684631347656
 21
-14.2447957992554
 31
0.0
  0
LINE
  5
   2E0
  8
0
  6
CONTINUOUS
 62
   130
 10
-286.684631347656
 20
-14.2447957992554
 30
0.0
 11
-286.684631347656
 21
-14.2447957992554
 31
0.0
  0
LINE
  5
   2E1
  8
0
  6
CONTINUOUS
 62
   130
 10
-286.684631347656
 20
-14.2447957992554
 30
0.0
 11
-286.684631347656
 21
-14.2447957992554
 31
0.0
  0
LINE
  5
   2E2
  8
0
  6
CONTINUOUS
 62
   130
 10
-286.684631347656
 20
-14.2447957992554
 30
0.0
 11
-286.684631347656
 21
-14.2447957992554
 31
0.0
  0
LINE
  5
   2E3
  8
0
  6
CONTINUOUS
 62
   130
 10
-286.684631347656
 20
-14.2447957992554
 30
0.0
 11
-286.684631347656
 21
-14.2447957992554
 31
0.0
  0
LINE
  5
   2E4
  8
0
  6
CONTINUOUS
 62
   130
 10
-286.684631347656
 20
-14.2447957992554
 30
0.0
 11
-286.684631347656
 21
-14.2447957992554
 31
0.0
  0
LINE
  5
   2E5
  8
0
  6
CONTINUOUS
 62
   130
 10
-393.014895810514
 20
76.5552054317004
 30
0.0
 11
-393.014888120143
 21
26.1555778801497
 31
0.0
  0
LINE
  5
   2E6
  8
0
  6
CONTINUOUS
 62
   130
 10
-393.014879514134
 20
-30.2447716236056
 30
0.0
 11
-333.014903034127
 21
-30.2447716236056
 31
0.0
  0
LINE
  5
   2E7
  8
0
  6
CONTINUOUS
 62
   130
 10
-393.014885007297
 20
5.75522891282668
 30
0.0
 11
-333.01490852729
 21
5.75522891282668
 31
0.0
  0
LINE
  5
   2E8
  8
0
  6
CONTINUOUS
 62
   130
 10
-339.014917516721
 20
-0.935968433907703
 30
0.0
 11
-327.699360911795
 21
-0.935968433907703
 31
0.0
  0
LINE
  5
   2E9
  8
0
  6
CONTINUOUS
 62
   130
 10
-339.014917573606
 20
0.555228835340639
 30
0.0
 11
-339.014916752321
 21
-20.9742521211769
 31
0.0
  0
LINE
  5
   2EA
  8
0
  6
DASHDOT
 62
   130
 10
-349.494903890048
 20
-22.0447837084515
 30
0.0
 11
-349.494903890048
 21
-30.4447838336213
 31
0.0
  0
LINE
  5
   2EB
  8
0
  6
CONTINUOUS
 62
   130
 10
-339.014916752321
 20
-20.9742521211769
 30
0.0
 11
-338.2149167404
 21
-20.9742521211769
 31
0.0
  0
LINE
  5
   2EC
  8
0
  6
CONTINUOUS
 62
   130
 10
-339.014916763802
 20
-20.6732893285371
 30
0.0
 11
-338.214916751881
 21
-20.6732893285371
 31
0.0
  0
LINE
  5
   2ED
  8
0
  6
CONTINUOUS
 62
   130
 10
-369.014908270276
 20
0.555228835340642
 30
0.0
 11
-324.86176638029
 21
0.555228835340642
 31
0.0
  0
LINE
  5
   2EE
  8
0
  6
CONTINUOUS
 62
   130
 10
-369.01490808717
 20
-0.644771182540751
 30
0.0
 11
-339.01491752783
 21
-0.644771182540751
 31
0.0
  0
LINE
  5
   2EF
  8
0
  6
CONTINUOUS
 62
   130
 10
-369.014904364026
 20
-25.0447715461196
 30
0.0
 11
-353.494903949653
 21
-25.0447715461196
 31
0.0
  0
LINE
  5
   2F0
  8
0
  6
CONTINUOUS
 62
   130
 10
-369.014904547132
 20
-23.8447715282382
 30
0.0
 11
-338.214916630899
 21
-23.8447715282382
 31
0.0
  0
LINE
  5
   2F1
  8
0
  6
CONTINUOUS
 62
   130
 10
-345.494903830443
 20
-25.0447715461196
 30
0.0
 11
-306.471384068934
 21
-25.0447715461196
 31
0.0
  0
ARC
  5
   2F2
  8
0
  6
DOT
 62
   130
 10
-299.414904974852
 20
-2.88479562997818
 30
0.0
 40
0.400000005960464
 50
449.999999844103
 51
539.999999844103
  0
ARC
  5
   2F3
  8
0
  6
DOT
 62
   130
 10
-299.414904974852
 20
-16.8047958374023
 30
0.0
 40
0.400000005960464
 50
539.999999844103
 51
629.999999844103
  0
LINE
  5
   2F4
  8
0
  6
CONTINUOUS
 62
   130
 10
-338.214916898854
 20
-16.8204960191204
 30
0.0
 11
-338.214916642109
 21
-23.5509050764283
 31
0.0
  0
LINE
  5
   2F5
  8
0
  6
CONTINUOUS
 62
   130
 10
-286.684631347656
 20
-14.2447957992554
 30
0.0
 11
-286.684631347656
 21
-14.2447957992554
 31
0.0
  0
LINE
  5
   2F6
  8
0
  6
CONTINUOUS
 62
   130
 10
-286.684631347656
 20
-14.2447957992554
 30
0.0
 11
-286.684631347656
 21
-14.2447957992554
 31
0.0
  0
LINE
  5
   2F7
  8
0
  6
CONTINUOUS
 62
   130
 10
-286.684631347656
 20
-14.2447957992554
 30
0.0
 11
-286.684631347656
 21
-14.2447957992554
 31
0.0
  0
LINE
  5
   2F8
  8
0
  6
CONTINUOUS
 62
   130
 10
-286.684631347656
 20
-14.2447957992554
 30
0.0
 11
-286.684631347656
 21
-14.2447957992554
 31
0.0
  0
LINE
  5
   2F9
  8
0
  6
CONTINUOUS
 62
   130
 10
-286.684631347656
 20
-14.2447957992554
 30
0.0
 11
-286.684631347656
 21
-14.2447957992554
 31
0.0
  0
LINE
  5
   2FA
  8
0
  6
CONTINUOUS
 62
   130
 10
-286.684631347656
 20
-14.2447957992554
 30
0.0
 11
-286.684631347656
 21
-14.2447957992554
 31
0.0
  0
LINE
  5
   2FB
  8
0
  6
CONTINUOUS
 62
   130
 10
-286.684631347656
 20
-14.2447957992554
 30
0.0
 11
-286.684631347656
 21
-14.2447957992554
 31
0.0
  0
LINE
  5
   2FC
  8
0
  6
CONTINUOUS
 62
   130
 10
-368.214913324266
 20
33.7551955035886
 30
0.0
 11
-368.214913141161
 21
32.5551954857072
 31
0.0
  0
LINE
  5
   2FD
  8
0
  6
CONTINUOUS
 62
   130
 10
-368.214913324266
 20
33.7551955035886
 30
0.0
 11
-333.014929312189
 21
33.7551955035886
 31
0.0
  0
LINE
  5
   2FE
  8
0
  6
CONTINUOUS
 62
   130
 10
-393.014889096647
 20
32.5551954857072
 30
0.0
 11
-333.014905475531
 21
32.5551954857072
 31
0.0
  0
LINE
  5
   2FF
  8
0
  6
DOT
 62
   130
 10
-390.214906327879
 20
-8.80479571819306
 30
0.0
 11
-390.214906327879
 21
-16.8047958374023
 31
0.0
  0
LINE
  5
   300
  8
0
  6
DOT
 62
   130
 10
-391.476318088461
 20
-8.4047957122326
 30
0.0
 11
-392.575309072619
 21
-8.80479571819306
 31
0.0
  0
LINE
  5
   301
  8
0
  6
DOT
 62
   130
 10
-392.575309975939
 20
-16.8047958374023
 30
0.0
 11
-391.476318991781
 21
-17.2047958433628
 31
0.0
  0
LINE
  5
   302
  8
0
  6
DOT
 62
   130
 10
-393.014905466282
 20
-8.80479571819306
 30
0.0
 11
-392.575309072619
 21
-8.80479571819306
 31
0.0
  0
LINE
  5
   303
  8
0
  6
DOT
 62
   130
 10
-393.014906369602
 20
-16.8047958374023
 30
0.0
 11
-392.575309975939
 21
-16.8047958374023
 31
0.0
  0
LINE
  5
   304
  8
0
  6
DOT
 62
   130
 10
-391.476318088461
 20
-8.40479571223259
 30
0.0
 11
-390.614905430519
 21
-8.40479571223259
 31
0.0
  0
LINE
  5
   305
  8
0
  6
DOT
 62
   130
 10
-391.476318991781
 20
-17.2047958433628
 30
0.0
 11
-390.614906333839
 21
-17.2047958433628
 31
0.0
  0
LINE
  5
   306
  8
0
  6
CONTINUOUS
 62
   130
 10
-286.684631347656
 20
-14.2447957992554
 30
0.0
 11
-286.684631347656
 21
-14.2447957992554
 31
0.0
  0
LINE
  5
   307
  8
0
  6
CONTINUOUS
 62
   130
 10
-286.684631347656
 20
-14.2447957992554
 30
0.0
 11
-286.684631347656
 21
-14.2447957992554
 31
0.0
  0
LINE
  5
   308
  8
0
  6
CONTINUOUS
 62
   130
 10
-286.684631347656
 20
-14.2447957992554
 30
0.0
 11
-286.684631347656
 21
-14.2447957992554
 31
0.0
  0
LINE
  5
   309
  8
0
  6
CONTINUOUS
 62
   130
 10
-286.684631347656
 20
-14.2447957992554
 30
0.0
 11
-286.684631347656
 21
-14.2447957992554
 31
0.0
  0
LINE
  5
   30A
  8
0
  6
CONTINUOUS
 62
   130
 10
-286.684631347656
 20
-14.2447957992554
 30
0.0
 11
-286.684631347656
 21
-14.2447957992554
 31
0.0
  0
LINE
  5
   30B
  8
0
  6
CONTINUOUS
 62
   130
 10
-286.684631347656
 20
-14.2447957992554
 30
0.0
 11
-286.684631347656
 21
-14.2447957992554
 31
0.0
  0
LINE
  5
   30C
  8
0
  6
CONTINUOUS
 62
   130
 10
-286.684631347656
 20
-14.2447957992554
 30
0.0
 11
-286.684631347656
 21
-14.2447957992554
 31
0.0
  0
LINE
  5
   30D
  8
0
  6
CONTINUOUS
 62
   130
 10
-286.684631347656
 20
-14.2447957992554
 30
0.0
 11
-286.684631347656
 21
-14.2447957992554
 31
0.0
  0
LINE
  5
   30E
  8
0
  6
CONTINUOUS
 62
   130
 10
-392.21488090602
 20
-82.6447846114615
 30
0.0
 11
-297.814939680014
 21
-82.6447846114615
 31
0.0
  0
LINE
  5
   30F
  8
0
  6
CONTINUOUS
 62
   130
 10
-392.214886521251
 20
77.355205565693
 30
0.0
 11
-297.814915510098
 21
77.355205565693
 31
0.0
  0
LINE
  5
   310
  8
0
  6
CONTINUOUS
 62
   130
 10
-297.014915498177
 20
76.5552054317018
 30
0.0
 11
-297.014923188549
 21
26.1555778801497
 31
0.0
  0
LINE
  5
   311
  8
0
  6
CONTINUOUS
 62
   130
 10
-333.014907916936
 20
-30.2447716236056
 30
0.0
 11
-297.014907380494
 21
-30.2447716236056
 31
0.0
  0
LINE
  5
   312
  8
0
  6
CONTINUOUS
 62
   130
 10
-333.014902423773
 20
5.75522891282668
 30
0.0
 11
-297.014901887331
 21
5.75522891282668
 31
0.0
  0
LINE
  5
   313
  8
0
  6
CONTINUOUS
 62
   130
 10
-327.814893446263
 20
-0.935968433907703
 30
0.0
 11
-327.014893434342
 21
-0.935968433907703
 31
0.0
  0
LINE
  5
   314
  8
0
  6
CONTINUOUS
 62
   130
 10
-327.014893377458
 20
0.555228835340639
 30
0.0
 11
-327.014894198743
 21
-20.9742521211769
 31
0.0
  0
LINE
  5
   315
  8
0
  6
CONTINUOUS
 62
   130
 10
-327.814894210663
 20
-20.9742521211769
 30
0.0
 11
-327.014894198743
 21
-20.9742521211769
 31
0.0
  0
LINE
  5
   316
  8
0
  6
CONTINUOUS
 62
   130
 10
-327.814894199183
 20
-20.6732893285371
 30
0.0
 11
-327.014894187262
 21
-20.6732893285371
 31
0.0
  0
LINE
  5
   317
  8
0
  6
CONTINUOUS
 62
   130
 10
-327.814893389379
 20
0.555228835340642
 30
0.0
 11
-297.014902680788
 21
0.555228835340642
 31
0.0
  0
LINE
  5
   318
  8
0
  6
CONTINUOUS
 62
   130
 10
-327.014893423234
 20
-0.644771182540751
 30
0.0
 11
-297.014902863894
 21
-0.644771182540751
 31
0.0
  0
ARC
  5
   319
  8
0
  6
DOT
 62
   130
 10
-390.614905430519
 20
-8.80479571819306
 30
0.0
 40
0.400000005960464
 50
359.999999844103
 51
449.999999844103
  0
ARC
  5
   31A
  8
0
  6
DOT
 62
   130
 10
-390.614906333839
 20
-16.8047958374023
 30
0.0
 40
0.400000005960464
 50
269.999999844103
 51
359.999999844103
  0
LINE
  5
   31B
  8
0
  6
CONTINUOUS
 62
   130
 10
-327.81489405221
 20
-16.8204960191204
 30
0.0
 11
-327.814894308955
 21
-23.5509050764283
 31
0.0
  0
LINE
  5
   31C
  8
0
  6
CONTINUOUS
 62
   130
 10
-286.684631347656
 20
-14.2447957992554
 30
0.0
 11
-286.684631347656
 21
-14.2447957992554
 31
0.0
  0
LINE
  5
   31D
  8
0
  6
CONTINUOUS
 62
   130
 10
-286.684631347656
 20
-14.2447957992554
 30
0.0
 11
-286.684631347656
 21
-14.2447957992554
 31
0.0
  0
LINE
  5
   31E
  8
0
  6
CONTINUOUS
 62
   130
 10
-286.684631347656
 20
-14.2447957992554
 30
0.0
 11
-286.684631347656
 21
-14.2447957992554
 31
0.0
  0
LINE
  5
   31F
  8
0
  6
CONTINUOUS
 62
   130
 10
-286.684631347656
 20
-14.2447957992554
 30
0.0
 11
-286.684631347656
 21
-14.2447957992554
 31
0.0
  0
LINE
  5
   320
  8
0
  6
CONTINUOUS
 62
   130
 10
-286.684631347656
 20
-14.2447957992554
 30
0.0
 11
-286.684631347656
 21
-14.2447957992554
 31
0.0
  0
LINE
  5
   321
  8
0
  6
CONTINUOUS
 62
   130
 10
-286.684631347656
 20
-14.2447957992554
 30
0.0
 11
-286.684631347656
 21
-14.2447957992554
 31
0.0
  0
LINE
  5
   322
  8
0
  6
CONTINUOUS
 62
   130
 10
-286.684631347656
 20
-14.2447957992554
 30
0.0
 11
-286.684631347656
 21
-14.2447957992554
 31
0.0
  0
LINE
  5
   323
  8
0
  6
CONTINUOUS
 62
   130
 10
-333.014910816109
 20
-39.0447811671531
 30
0.0
 11
-297.814897626798
 21
-39.0447811671531
 31
0.0
  0
LINE
  5
   324
  8
0
  6
CONTINUOUS
 62
   130
 10
-333.014894090045
 20
-37.8447811492717
 30
0.0
 11
-297.014908540164
 21
-37.8447811492717
 31
0.0
  0
LINE
  5
   325
  8
0
  6
CONTINUOUS
 62
   130
 10
-297.814897809903
 20
-37.8447811492717
 30
0.0
 11
-297.814897626798
 21
-39.0447811671531
 31
0.0
  0
LINE
  5
   326
  8
0
  6
CONTINUOUS
 62
   130
 10
-297.814897626798
 20
33.7551955035886
 30
0.0
 11
-297.814897809903
 21
32.5551954857072
 31
0.0
  0
LINE
  5
   327
  8
0
  6
CONTINUOUS
 62
   130
 10
-393.014889279752
 20
33.7551955035886
 30
0.0
 11
-297.014922028939
 21
33.7551955035886
 31
0.0
  0
LINE
  5
   328
  8
0
  6
CONTINUOUS
 62
   130
 10
-333.014905475533
 20
32.5551954857072
 30
0.0
 11
-297.014908540164
 21
32.5551954857072
 31
0.0
  0
LINE
  5
   329
  8
0
  6
DASHDOT
 62
   130
 10
-349.494903890048
 20
-16.0047836184485
 30
0.0
 11
-349.494903890048
 21
-36.4847839236243
 31
0.0
  0
LINE
  5
   32A
  8
0
  6
DASHDOT
 62
   130
 10
-359.734904042636
 20
-26.2447837710364
 30
0.0
 11
-339.25490373746
 21
-26.2447837710364
 31
0.0
  0
LINE
  5
   32B
  8
0
  6
DASHDOT
 62
   130
 10
-302.774902583514
 20
-23.3835726850002
 30
0.0
 11
-302.774902583514
 21
-28.6794013297824
 31
0.0
  0
LINE
  5
   32C
  8
0
  6
DASHDOT
 62
   130
 10
-305.001028983816
 20
-26.0847835976848
 30
0.0
 11
-300.624100502481
 21
-26.0847835976848
 31
0.0
  0
LINE
  5
   32D
  8
0
  6
CONTINUOUS
 62
   130
 10
-303.174902589474
 20
-26.4847836036453
 30
0.0
 11
-303.174902589474
 21
-27.2847836155662
 31
0.0
  0
LINE
  5
   32E
  8
0
  6
CONTINUOUS
 62
   130
 10
-302.374902577553
 20
-26.4847836036453
 30
0.0
 11
-302.374902577553
 21
-27.2847836155662
 31
0.0
  0
LINE
  5
   32F
  8
0
  6
CONTINUOUS
 62
   130
 10
-302.774902583514
 20
-22.2447835404644
 30
0.0
 11
-303.247974810748
 21
-22.7178557676988
 31
0.0
  0
LINE
  5
   330
  8
0
  6
CONTINUOUS
 62
   130
 10
-302.774902583514
 20
-22.2447835404644
 30
0.0
 11
-302.301830356279
 21
-22.7178557676988
 31
0.0
  0
ARC
  5
   331
  8
0
  6
CONTINUOUS
 62
   130
 10
-302.774902583514
 20
-26.0847835976848
 30
0.0
 40
3.40000005066395
 50
457.998020342877
 51
802.00197934533
  0
LINE
  5
   332
  8
0
  6
CONTINUOUS
 62
   130
 10
-302.374902577553
 20
-26.4847836036453
 30
0.0
 11
-301.574902565632
 21
-26.4847836036453
 31
0.0
  0
LINE
  5
   333
  8
0
  6
CONTINUOUS
 62
   130
 10
-302.374902577553
 20
-25.6847835917244
 30
0.0
 11
-301.574902565632
 21
-25.6847835917244
 31
0.0
  0
LINE
  5
   334
  8
0
  6
CONTINUOUS
 62
   130
 10
-303.974902601395
 20
-25.6847835917244
 30
0.0
 11
-303.174902589474
 21
-25.6847835917244
 31
0.0
  0
LINE
  5
   335
  8
0
  6
CONTINUOUS
 62
   130
 10
-303.974902601395
 20
-26.4847836036453
 30
0.0
 11
-303.174902589474
 21
-26.4847836036453
 31
0.0
  0
LINE
  5
   336
  8
0
  6
CONTINUOUS
 62
   130
 10
-303.174902589474
 20
-24.8847835798034
 30
0.0
 11
-303.174902589474
 21
-25.6847835917244
 31
0.0
  0
LINE
  5
   337
  8
0
  6
CONTINUOUS
 62
   130
 10
-302.374902577553
 20
-24.8847835798034
 30
0.0
 11
-302.374902577553
 21
-25.6847835917244
 31
0.0
  0
ARC
  5
   338
  8
0
  6
CONTINUOUS
 62
   130
 10
-302.774902583514
 20
-26.0847835976848
 30
0.0
 40
3.84000005722046
 50
359.999999844103
 51
539.999999844103
  0
LINE
  5
   339
  8
0
  6
CONTINUOUS
 62
   130
 10
-306.614902640734
 20
-26.0847835976848
 30
0.0
 11
-306.174902634178
 21
-26.0847835976848
 31
0.0
  0
LINE
  5
   33A
  8
0
  6
CONTINUOUS
 62
   130
 10
-299.37490253285
 20
-26.0847835976848
 30
0.0
 11
-298.934902526293
 21
-26.0847835976848
 31
0.0
  0
ARC
  5
   33B
  8
0
  6
CONTINUOUS
 62
   130
 10
-302.774902583514
 20
-24.8847835798034
 30
0.0
 40
0.400000005960466
 50
359.999999844103
 51
539.999999844103
  0
ARC
  5
   33C
  8
0
  6
CONTINUOUS
 62
   130
 10
-303.974902601395
 20
-26.0847835976848
 30
0.0
 40
0.400000005960464
 50
449.999999844103
 51
629.999999844103
  0
ARC
  5
   33D
  8
0
  6
CONTINUOUS
 62
   130
 10
-301.574902565632
 20
-26.0847835976848
 30
0.0
 40
0.400000005960464
 50
269.999999844103
 51
449.999999844103
  0
ARC
  5
   33E
  8
0
  6
CONTINUOUS
 62
   130
 10
-302.774902583514
 20
-27.2847836155662
 30
0.0
 40
0.400000005960464
 50
539.999999844103
 51
719.999999844103
  0
LINE
  5
   33F
  8
0
  6
CONTINUOUS
 62
   130
 10
-299.655936990855
 20
-23.8447715282382
 30
0.0
 11
-297.014930817995
 21
-23.8447715282382
 31
0.0
  0
LINE
  5
   340
  8
0
  6
CONTINUOUS
 62
   130
 10
-299.078421098094
 20
-25.0447715461196
 30
0.0
 11
-297.0149310011
 21
-25.0447715461196
 31
0.0
  0
LINE
  5
   341
  8
0
  6
CONTINUOUS
 62
   130
 10
-302.774902583514
 20
-20.8445953302028
 30
0.0
 11
-302.774902583514
 21
-22.2447835404644
 31
0.0
  0
LINE
  5
   342
  8
0
  6
CONTINUOUS
 62
   130
 10
-308.116238200083
 20
-26.0847835976848
 30
0.0
 11
-306.614902640734
 21
-26.0847835976848
 31
0.0
  0
LINE
  5
   343
  8
0
  6
CONTINUOUS
 62
   130
 10
-298.934902526293
 20
-26.0847835976848
 30
0.0
 11
-297.552838588148
 21
-26.0847835976848
 31
0.0
  0
LINE
  5
   344
  8
0
  6
CONTINUOUS
 62
   130
 10
-338.214916898854
 20
-16.8204960191204
 30
0.0
 11
-327.81489405221
 21
-16.8204960191204
 31
0.0
  0
LINE
  5
   345
  8
0
  6
CONTINUOUS
 62
   130
 10
-337.814916709916
 20
-21.2171330100487
 30
0.0
 11
-328.214894241148
 21
-21.2171330100487
 31
0.0
  0
LINE
  5
   346
  8
0
  6
CONTINUOUS
 62
   130
 10
-337.814916636148
 20
-23.95090506713
 30
0.0
 11
-328.214894314916
 21
-23.95090506713
 31
0.0
  0
LINE
  5
   347
  8
0
  6
CONTINUOUS
 62
   130
 10
-327.814894320165
 20
-23.8447715282382
 30
0.0
 11
-305.893868176172
 21
-23.8447715282382
 31
0.0
  0
ARC
  5
   348
  8
0
  6
CONTINUOUS
 62
   130
 10
-337.814916636148
 20
-23.5509050611695
 30
0.0
 40
0.400000005960464
 50
540.000002029765
 51
629.999999844103
  0
ARC
  5
   349
  8
0
  6
CONTINUOUS
 62
   130
 10
-328.214894314916
 20
-23.5509050611695
 30
0.0
 40
0.400000005960464
 50
269.999999844103
 51
359.999997658442
  0
ARC
  5
   34A
  8
0
  6
CONTINUOUS
 62
   130
 10
-328.214894241148
 20
-21.6171330160092
 30
0.0
 40
0.400000005960464
 50
359.999997658442
 51
449.999999844103
  0
ARC
  5
   34B
  8
0
  6
CONTINUOUS
 62
   130
 10
-337.814916709916
 20
-21.6171330160092
 30
0.0
 40
0.400000005960464
 50
449.999999844103
 51
540.000002029765
  0
LINE
  5
   34C
  8
0
  6
CONTINUOUS
 62
   130
 10
-333.014907916936
 20
-30.2447716236056
 30
0.0
 11
-297.014907380494
 21
-30.2447716236056
 31
0.0
  0
LINE
  5
   34D
  8
0
  6
CONTINUOUS
 62
   130
 10
-333.014902423773
 20
5.75522891282668
 30
0.0
 11
-297.014901887331
 21
5.75522891282668
 31
0.0
  0
LINE
  5
   34E
  8
0
  6
DASHDOT
 62
   130
 10
-403.450103243215
 20
-12.2447713553942
 30
0.0
 11
-290.617024788382
 21
-12.2447713553942
 31
0.0
  0
LINE
  5
   34F
  8
0
  6
CONTINUOUS
 62
   130
 10
-344.029871459979
 20
-2.35985373515521
 30
0.0
 11
-343.429871451039
 21
-2.35985373515521
 31
0.0
  0
LINE
  5
   350
  8
0
  6
CONTINUOUS
 62
   130
 10
-344.029871459979
 20
-5.95985378879939
 30
0.0
 11
-343.429871451039
 21
-5.95985378879939
 31
0.0
  0
CIRCLE
  5
   351
  8
0
  6
CONTINUOUS
 62
   130
 10
-343.729871455509
 20
-17.5598539616528
 30
0.0
 40
1.80000002682209
  0
CIRCLE
  5
   352
  8
0
  6
CONTINUOUS
 62
   130
 10
-343.729871455509
 20
-17.5598539616528
 30
0.0
 40
1.20000001788139
  0
LINE
  5
   353
  8
0
  6
CONTINUOUS
 62
   130
 10
-344.029871459979
 20
-2.35985373515521
 30
0.0
 11
-344.029871459979
 21
-5.95985378879939
 31
0.0
  0
LINE
  5
   354
  8
0
  6
CONTINUOUS
 62
   130
 10
-343.429871451039
 20
-2.35985373515521
 30
0.0
 11
-343.429871451039
 21
-5.95985378879939
 31
0.0
  0
LINE
  5
   355
  8
0
  6
CONTINUOUS
 62
   130
 10
-321.189875025887
 20
-16.0198539387051
 30
0.0
 11
-321.009875023205
 21
-16.0198539387051
 31
0.0
  0
LINE
  5
   356
  8
0
  6
CONTINUOUS
 62
   130
 10
-321.709875033636
 20
-19.0998539846006
 30
0.0
 11
-321.389875028867
 21
-19.0998539846006
 31
0.0
  0
LINE
  5
   357
  8
0
  6
CONTINUOUS
 62
   130
 10
-322.189875040788
 20
-17.8598539661232
 30
0.0
 11
-322.189875040788
 21
-18.0598539691034
 31
0.0
  0
ARC
  5
   358
  8
0
  6
CONTINUOUS
 62
   130
 10
-323.229875056285
 20
-17.8598539661232
 30
0.0
 40
1.04000001549721
 50
359.999999844103
 51
539.999999844103
  0
ARC
  5
   359
  8
0
  6
CONTINUOUS
 62
   130
 10
-323.229875056285
 20
-18.0598539691034
 30
0.0
 40
1.04000001549721
 50
539.999999844103
 51
719.999999844103
  0
ARC
  5
   35A
  8
0
  6
CONTINUOUS
 62
   130
 10
-323.229875056285
 20
-17.8598539661232
 30
0.0
 40
0.720000010728837
 50
359.999999844103
 51
539.999999844103
  0
ARC
  5
   35B
  8
0
  6
CONTINUOUS
 62
   130
 10
-323.229875056285
 20
-18.0598539691034
 30
0.0
 40
0.720000010728835
 50
539.999999844103
 51
719.999999844103
  0
LINE
  5
   35C
  8
0
  6
CONTINUOUS
 62
   130
 10
-322.509875045557
 20
-17.8598539661232
 30
0.0
 11
-322.509875045557
 21
-18.0598539691034
 31
0.0
  0
LINE
  5
   35D
  8
0
  6
CONTINUOUS
 62
   130
 10
-322.089875039298
 20
-16.9798539530102
 30
0.0
 11
-322.089875039298
 21
-17.2998539577785
 31
0.0
  0
LINE
  5
   35E
  8
0
  6
CONTINUOUS
 62
   130
 10
-322.089875039298
 20
-17.2998539577786
 30
0.0
 11
-321.709875033636
 21
-17.2998539577786
 31
0.0
  0
LINE
  5
   35F
  8
0
  6
CONTINUOUS
 62
   130
 10
-321.009875023205
 20
-16.9798539530102
 30
0.0
 11
-321.009875023205
 21
-17.2998539577785
 31
0.0
  0
LINE
  5
   360
  8
0
  6
CONTINUOUS
 62
   130
 10
-322.089875039298
 20
-16.9798539530102
 30
0.0
 11
-321.709875033636
 21
-16.9798539530102
 31
0.0
  0
LINE
  5
   361
  8
0
  6
CONTINUOUS
 62
   130
 10
-321.709875033636
 20
-17.2998539577785
 30
0.0
 11
-321.709875033636
 21
-19.0998539846006
 31
0.0
  0
LINE
  5
   362
  8
0
  6
CONTINUOUS
 62
   130
 10
-321.389875028867
 20
-17.2998539577785
 30
0.0
 11
-321.389875028867
 21
-19.0998539846006
 31
0.0
  0
LINE
  5
   363
  8
0
  6
CONTINUOUS
 62
   130
 10
-321.389875028867
 20
-17.2998539577786
 30
0.0
 11
-321.009875023205
 21
-17.2998539577786
 31
0.0
  0
LINE
  5
   364
  8
0
  6
CONTINUOUS
 62
   130
 10
-321.389875028867
 20
-16.9798539530102
 30
0.0
 11
-321.009875023205
 21
-16.9798539530102
 31
0.0
  0
LINE
  5
   365
  8
0
  6
CONTINUOUS
 62
   130
 10
-321.709875033636
 20
-16.5398539464536
 30
0.0
 11
-321.709875033636
 21
-16.9798539530102
 31
0.0
  0
LINE
  5
   366
  8
0
  6
CONTINUOUS
 62
   130
 10
-321.389875028867
 20
-16.5398539464536
 30
0.0
 11
-321.389875028867
 21
-16.9798539530102
 31
0.0
  0
ARC
  5
   367
  8
0
  6
CONTINUOUS
 62
   130
 10
-321.189875025887
 20
-16.5398539464537
 30
0.0
 40
0.520000007748604
 50
449.999999844103
 51
539.999999844103
  0
ARC
  5
   368
  8
0
  6
CONTINUOUS
 62
   130
 10
-321.189875025887
 20
-16.5398539464537
 30
0.0
 40
0.200000002980232
 50
449.999999844103
 51
539.999999844103
  0
LINE
  5
   369
  8
0
  6
CONTINUOUS
 62
   130
 10
-321.009875023205
 20
-16.019853938705
 30
0.0
 11
-321.009875023205
 21
-16.3398539434734
 31
0.0
  0
LINE
  5
   36A
  8
0
  6
CONTINUOUS
 62
   130
 10
-321.189875025887
 20
-16.3398539434734
 30
0.0
 11
-321.009875023205
 21
-16.3398539434734
 31
0.0
  0
LINE
  5
   36B
  8
0
  6
CONTINUOUS
 62
   130
 10
-320.429875014562
 20
-19.0998539846006
 30
0.0
 11
-320.109875009794
 21
-19.0998539846006
 31
0.0
  0
LINE
  5
   36C
  8
0
  6
CONTINUOUS
 62
   130
 10
-320.809875020225
 20
-16.9798539530102
 30
0.0
 11
-320.809875020225
 21
-17.2998539577785
 31
0.0
  0
LINE
  5
   36D
  8
0
  6
CONTINUOUS
 62
   130
 10
-320.809875020225
 20
-17.2998539577786
 30
0.0
 11
-320.429875014562
 21
-17.2998539577786
 31
0.0
  0
LINE
  5
   36E
  8
0
  6
CONTINUOUS
 62
   130
 10
-319.729875004131
 20
-16.9798539530102
 30
0.0
 11
-319.729875004131
 21
-17.2998539577785
 31
0.0
  0
LINE
  5
   36F
  8
0
  6
CONTINUOUS
 62
   130
 10
-320.809875020225
 20
-16.9798539530102
 30
0.0
 11
-320.429875014562
 21
-16.9798539530102
 31
0.0
  0
LINE
  5
   370
  8
0
  6
CONTINUOUS
 62
   130
 10
-320.429875014562
 20
-17.2998539577785
 30
0.0
 11
-320.429875014562
 21
-19.0998539846006
 31
0.0
  0
LINE
  5
   371
  8
0
  6
CONTINUOUS
 62
   130
 10
-320.109875009794
 20
-17.2998539577785
 30
0.0
 11
-320.109875009794
 21
-19.0998539846006
 31
0.0
  0
LINE
  5
   372
  8
0
  6
CONTINUOUS
 62
   130
 10
-320.109875009794
 20
-17.2998539577786
 30
0.0
 11
-319.729875004131
 21
-17.2998539577786
 31
0.0
  0
LINE
  5
   373
  8
0
  6
CONTINUOUS
 62
   130
 10
-320.109875009794
 20
-16.9798539530102
 30
0.0
 11
-319.729875004131
 21
-16.9798539530102
 31
0.0
  0
LINE
  5
   374
  8
0
  6
CONTINUOUS
 62
   130
 10
-320.429875014562
 20
-16.5398539464536
 30
0.0
 11
-320.429875014562
 21
-16.9798539530102
 31
0.0
  0
LINE
  5
   375
  8
0
  6
CONTINUOUS
 62
   130
 10
-320.109875009794
 20
-16.5398539464536
 30
0.0
 11
-320.109875009794
 21
-16.9798539530102
 31
0.0
  0
ARC
  5
   376
  8
0
  6
CONTINUOUS
 62
   130
 10
-319.909875006813
 20
-16.5398539464537
 30
0.0
 40
0.520000007748604
 50
449.999999844103
 51
539.999999844103
  0
ARC
  5
   377
  8
0
  6
CONTINUOUS
 62
   130
 10
-319.909875006813
 20
-16.5398539464537
 30
0.0
 40
0.200000002980232
 50
449.999999844103
 51
539.999999844103
  0
LINE
  5
   378
  8
0
  6
CONTINUOUS
 62
   130
 10
-319.729875004131
 20
-16.019853938705
 30
0.0
 11
-319.729875004131
 21
-16.3398539434734
 31
0.0
  0
LINE
  5
   379
  8
0
  6
CONTINUOUS
 62
   130
 10
-321.86987503602
 20
-5.29985377896462
 30
0.0
 11
-321.549875031251
 21
-5.29985377896462
 31
0.0
  0
ARC
  5
   37A
  8
0
  6
CONTINUOUS
 62
   130
 10
-323.229875056285
 20
-4.05985376048718
 30
0.0
 40
1.04000001549721
 50
359.999999844103
 51
539.999999844103
  0
ARC
  5
   37B
  8
0
  6
CONTINUOUS
 62
   130
 10
-323.229875056285
 20
-4.05985376048718
 30
0.0
 40
0.720000010728837
 50
359.999999844103
 51
539.999999844103
  0
ARC
  5
   37C
  8
0
  6
CONTINUOUS
 62
   130
 10
-323.229875056285
 20
-4.25985376346742
 30
0.0
 40
1.04000001549721
 50
539.999999844103
 51
719.999999844103
  0
ARC
  5
   37D
  8
0
  6
CONTINUOUS
 62
   130
 10
-323.229875056285
 20
-4.25985376346742
 30
0.0
 40
0.720000010728835
 50
539.999999844103
 51
719.999999844103
  0
LINE
  5
   37E
  8
0
  6
CONTINUOUS
 62
   130
 10
-321.86987503602
 20
-3.01985374498996
 30
0.0
 11
-321.86987503602
 21
-5.2998537789646
 31
0.0
  0
LINE
  5
   37F
  8
0
  6
CONTINUOUS
 62
   130
 10
-321.549875031251
 20
-3.89985375810298
 30
0.0
 11
-321.549875031251
 21
-5.2998537789646
 31
0.0
  0
LINE
  5
   380
  8
0
  6
CONTINUOUS
 62
   130
 10
-320.429875014562
 20
-3.89985375810298
 30
0.0
 11
-320.429875014562
 21
-5.2998537789646
 31
0.0
  0
LINE
  5
   381
  8
0
  6
CONTINUOUS
 62
   130
 10
-320.109875009794
 20
-3.81985375691089
 30
0.0
 11
-320.109875009794
 21
-5.2998537789646
 31
0.0
  0
LINE
  5
   382
  8
0
  6
CONTINUOUS
 62
   130
 10
-321.86987503602
 20
-3.01985374498997
 30
0.0
 11
-321.549875031251
 21
-3.01985374498997
 31
0.0
  0
ARC
  5
   383
  8
0
  6
CONTINUOUS
 62
   130
 10
-320.989875022907
 20
-3.899853758103
 30
0.0
 40
0.56000000834465
 50
359.999999844103
 51
539.999999844103
  0
LINE
  5
   384
  8
0
  6
CONTINUOUS
 62
   130
 10
-321.549875031251
 20
-3.01985374498996
 30
0.0
 11
-321.549875031251
 21
-3.33985374975832
 31
0.0
  0
ARC
  5
   385
  8
0
  6
CONTINUOUS
 62
   130
 10
-320.909875021715
 20
-3.81985375691091
 30
0.0
 40
0.800000011920929
 50
359.999999844103
 51
503.130102198259
  0
LINE
  5
   386
  8
0
  6
CONTINUOUS
 62
   130
 10
-320.429875014562
 20
-5.29985377896462
 30
0.0
 11
-320.109875009794
 21
-5.29985377896462
 31
0.0
  0
LINE
  5
   387
  8
0
  6
CONTINUOUS
 62
   130
 10
-321.495215195158
 20
4.68251631515638
 30
0.0
 11
-321.682440553185
 21
4.64950392801951
 31
0.0
  0
LINE
  5
   388
  8
0
  6
CONTINUOUS
 62
   130
 10
-321.682428989274
 20
4.64951021249795
 30
0.0
 11
-321.847071311979
 21
4.55445521654309
 31
0.0
  0
LINE
  5
   389
  8
0
  6
CONTINUOUS
 62
   130
 10
-321.847078084542
 20
4.55444827578994
 30
0.0
 11
-321.969276586357
 21
4.40881570465826
 31
0.0
  0
LINE
  5
   38A
  8
0
  6
CONTINUOUS
 62
   130
 10
-321.969274305738
 20
4.40881659622715
 30
0.0
 11
-322.034295055094
 21
4.23017165417147
 31
0.0
  0
LINE
  5
   38B
  8
0
  6
CONTINUOUS
 62
   130
 10
-322.034300867956
 20
4.23017197918356
 30
0.0
 11
-322.034300867956
 21
4.04006196048156
 31
0.0
  0
LINE
  5
   38C
  8
0
  6
CONTINUOUS
 62
   130
 10
-322.034295584918
 20
4.04006389753779
 30
0.0
 11
-321.969274835562
 21
3.8614189554821
 31
0.0
  0
LINE
  5
   38D
  8
0
  6
CONTINUOUS
 62
   130
 10
-321.969277683495
 20
3.86141819295938
 30
0.0
 11
-321.84707918168
 21
3.71578562182769
 31
0.0
  0
LINE
  5
   38E
  8
0
  6
CONTINUOUS
 62
   130
 10
-321.8470686436
 20
3.71578194151803
 30
0.0
 11
-321.682426320895
 21
3.62072694556317
 31
0.0
  0
LINE
  5
   38F
  8
0
  6
CONTINUOUS
 62
   130
 10
-321.682439251851
 20
3.62072928765486
 30
0.0
 11
-321.495213893824
 21
3.58771690051798
 31
0.0
  0
LINE
  5
   390
  8
0
  6
CONTINUOUS
 62
   130
 10
-321.495213945861
 20
3.58771705933192
 30
0.0
 11
-321.311675124766
 21
3.58771705933192
 31
0.0
  0
LINE
  5
   391
  8
0
  6
CONTINUOUS
 62
   130
 10
-321.31166535929
 20
3.58772095239312
 30
0.0
 11
-321.241639735457
 21
3.56496704996395
 31
0.0
  0
LINE
  5
   392
  8
0
  6
CONTINUOUS
 62
   130
 10
-321.241640507653
 20
3.56496686648624
 30
0.0
 11
-321.198360485095
 21
3.50539694212368
 31
0.0
  0
LINE
  5
   393
  8
0
  6
CONTINUOUS
 62
   130
 10
-321.198369459015
 20
3.50539322082492
 30
0.0
 11
-321.198369459015
 21
3.43176078869744
 31
0.0
  0
LINE
  5
   394
  8
0
  6
CONTINUOUS
 62
   130
 10
-321.198363683945
 20
3.43176341383263
 30
0.0
 11
-321.241643706502
 21
3.37219348947007
 31
0.0
  0
LINE
  5
   395
  8
0
  6
CONTINUOUS
 62
   130
 10
-321.24164170546
 20
3.37219349115252
 30
0.0
 11
-321.311667329292
 21
3.34943958872334
 31
0.0
  0
LINE
  5
   396
  8
0
  6
CONTINUOUS
 62
   130
 10
-321.978215662042
 20
3.34943695019045
 30
0.0
 11
-321.311675124766
 21
3.34943695019045
 31
0.0
  0
LINE
  5
   397
  8
0
  6
CONTINUOUS
 62
   130
 10
-321.978215662042
 20
3.34943695019045
 30
0.0
 11
-321.978215662042
 21
2.91151732696572
 31
0.0
  0
LINE
  5
   398
  8
0
  6
CONTINUOUS
 62
   130
 10
-321.978215662042
 20
2.91151732696572
 30
0.0
 11
-321.311675124766
 21
2.91151732696572
 31
0.0
  0
LINE
  5
   399
  8
0
  6
CONTINUOUS
 62
   130
 10
-321.12114970334
 20
2.94511281663837
 30
0.0
 11
-321.311670935569
 21
2.91151830654962
 31
0.0
  0
LINE
  5
   39A
  8
0
  6
CONTINUOUS
 62
   130
 10
-320.953603734569
 20
3.04184637080285
 30
0.0
 11
-321.121151368195
 21
2.94511364257577
 31
0.0
  0
LINE
  5
   39B
  8
0
  6
CONTINUOUS
 62
   130
 10
-320.829237743381
 20
3.1900499615424
 30
0.0
 11
-320.953596875464
 21
3.04184745467703
 31
0.0
  0
LINE
  5
   39C
  8
0
  6
CONTINUOUS
 62
   130
 10
-320.763075587231
 20
3.37184250954685
 30
0.0
 11
-320.82924380371
 21
3.19004507248848
 31
0.0
  0
LINE
  5
   39D
  8
0
  6
CONTINUOUS
 62
   130
 10
-320.763078925185
 20
3.56530952725974
 30
0.0
 11
-320.763078925185
 21
3.37184448226263
 31
0.0
  0
LINE
  5
   39E
  8
0
  6
CONTINUOUS
 62
   130
 10
-320.829243955539
 20
3.74710809362728
 30
0.0
 11
-320.76307573906
 21
3.56531065656891
 31
0.0
  0
LINE
  5
   39F
  8
0
  6
CONTINUOUS
 62
   130
 10
-320.953600980652
 20
3.89531454625038
 30
0.0
 11
-320.82924184023
 21
3.74711163659507
 31
0.0
  0
LINE
  5
   3A0
  8
0
  6
CONTINUOUS
 62
   130
 10
-321.121154841829
 20
3.99204294053144
 30
0.0
 11
-320.953607215694
 21
3.8953105981239
 31
0.0
  0
LINE
  5
   3A1
  8
0
  6
CONTINUOUS
 62
   130
 10
-321.311665297688
 20
4.02563594042993
 30
0.0
 11
-321.121144068204
 21
3.99204104962896
 31
0.0
  0
LINE
  5
   3A2
  8
0
  6
CONTINUOUS
 62
   130
 10
-321.495213945861
 20
4.02563706402638
 30
0.0
 11
-321.311675124766
 21
4.02563706402638
 31
0.0
  0
LINE
  5
   3A3
  8
0
  6
CONTINUOUS
 62
   130
 10
-321.559562669992
 20
4.04654768972991
 30
0.0
 11
-321.495207201214
 21
4.02563895307308
 31
0.0
  0
LINE
  5
   3A4
  8
0
  6
CONTINUOUS
 62
   130
 10
-321.599337572288
 20
4.10128483801805
 30
0.0
 11
-321.559567063862
 21
4.04654469243308
 31
0.0
  0
LINE
  5
   3A5
  8
0
  6
CONTINUOUS
 62
   130
 10
-321.599339923975
 20
4.16894799450661
 30
0.0
 11
-321.599339923975
 21
4.10128594515852
 31
0.0
  0
LINE
  5
   3A6
  8
0
  6
CONTINUOUS
 62
   130
 10
-321.559561156713
 20
4.22368629332736
 30
0.0
 11
-321.599331665139
 21
4.16894614774239
 31
0.0
  0
LINE
  5
   3A7
  8
0
  6
CONTINUOUS
 62
   130
 10
-321.49520471698
 20
4.24459986691059
 30
0.0
 11
-321.559560185757
 21
4.22369113025376
 31
0.0
  0
LINE
  5
   3A8
  8
0
  6
CONTINUOUS
 62
   130
 10
-321.495213945861
 20
4.24459687563875
 30
0.0
 11
-320.819017646722
 21
4.24459687563875
 31
0.0
  0
LINE
  5
   3A9
  8
0
  6
CONTINUOUS
 62
   130
 10
-320.819017646722
 20
4.68251688033321
 30
0.0
 11
-320.819017646722
 21
4.24459687563875
 31
0.0
  0
LINE
  5
   3AA
  8
0
  6
CONTINUOUS
 62
   130
 10
-321.495213945861
 20
4.68251688033321
 30
0.0
 11
-320.819017646722
 21
4.68251688033321
 31
0.0
  0
LINE
  5
   3AB
  8
0
  6
CONTINUOUS
 62
   130
 10
-320.754619452403
 20
2.91151732696572
 30
0.0
 11
-320.298540344044
 21
2.91151732696572
 31
0.0
  0
LINE
  5
   3AC
  8
0
  6
CONTINUOUS
 62
   130
 10
-320.195496038599
 20
3.26571819610552
 30
0.0
 11
-320.298535587774
 21
2.91151859424256
 31
0.0
  0
LINE
  5
   3AD
  8
0
  6
CONTINUOUS
 62
   130
 10
-320.195500791728
 20
3.26571693246343
 30
0.0
 11
-319.703728323462
 21
3.26571693246343
 31
0.0
  0
LINE
  5
   3AE
  8
0
  6
CONTINUOUS
 62
   130
 10
-319.703724551954
 20
3.26571787677124
 30
0.0
 11
-319.60068500278
 21
2.91151827490826
 31
0.0
  0
LINE
  5
   3AF
  8
0
  6
CONTINUOUS
 62
   130
 10
-319.600688771146
 20
2.91151732696572
 30
0.0
 11
-319.144615766303
 21
2.91151732696572
 31
0.0
  0
LINE
  5
   3B0
  8
0
  6
CONTINUOUS
 62
   130
 10
-319.659815281133
 20
4.68251715099388
 30
0.0
 11
-319.14461128088
 21
2.91151714897314
 31
0.0
  0
LINE
  5
   3B1
  8
0
  6
CONTINUOUS
 62
   130
 10
-320.239415587304
 20
4.68251688033321
 30
0.0
 11
-319.659819631402
 21
4.68251688033321
 31
0.0
  0
LINE
  5
   3B2
  8
0
  6
CONTINUOUS
 62
   130
 10
-320.239413133986
 20
4.68251013392743
 30
0.0
 11
-320.754617134239
 21
2.9115101319067
 31
0.0
  0
LINE
  5
   3B3
  8
0
  6
CONTINUOUS
 62
   130
 10
-319.949611052037
 20
4.11095073335368
 30
0.0
 11
-319.831123441084
 21
3.70363699025743
 31
0.0
  0
LINE
  5
   3B4
  8
0
  6
CONTINUOUS
 62
   130
 10
-320.068108211705
 20
3.70363693715789
 30
0.0
 11
-319.831127007001
 21
3.70363693715789
 31
0.0
  0
LINE
  5
   3B5
  8
0
  6
CONTINUOUS
 62
   130
 10
-319.949607419465
 20
4.11095113213107
 30
0.0
 11
-320.068101064684
 21
3.70363761316285
 31
0.0
  0
LINE
  5
   3B6
  8
0
  6
CONTINUOUS
 62
   130
 10
-317.65071943505
 20
4.4404242610698
 30
0.0
 11
-317.494091020266
 21
4.24295759170946
 31
0.0
  0
LINE
  5
   3B7
  8
0
  6
CONTINUOUS
 62
   130
 10
-317.856625163137
 20
4.58576305419132
 30
0.0
 11
-317.650716969645
 21
4.44042080851333
 31
0.0
  0
LINE
  5
   3B8
  8
0
  6
CONTINUOUS
 62
   130
 10
-318.095147396656
 20
4.66720249229594
 30
0.0
 11
-317.856628108032
 21
4.58575985715532
 31
0.0
  0
LINE
  5
   3B9
  8
0
  6
CONTINUOUS
 62
   130
 10
-318.346947421169
 20
4.67814911322141
 30
0.0
 11
-318.095146873588
 21
4.66720360188027
 31
0.0
  0
LINE
  5
   3BA
  8
0
  6
CONTINUOUS
 62
   130
 10
-318.346951893562
 20
4.67814957285661
 30
0.0
 11
-318.591641838419
 21
4.61771103760011
 31
0.0
  0
LINE
  5
   3BB
  8
0
  6
CONTINUOUS
 62
   130
 10
-318.59163800041
 20
4.61771386771579
 30
0.0
 11
-318.809380910754
 21
4.49078744542674
 31
0.0
  0
LINE
  5
   3BC
  8
0
  6
CONTINUOUS
 62
   130
 10
-318.809384307356
 20
4.49078359436481
 30
0.0
 11
-318.982553253417
 21
4.30765218467368
 31
0.0
  0
LINE
  5
   3BD
  8
0
  6
CONTINUOUS
 62
   130
 10
-318.982549045967
 20
4.30765578105925
 30
0.0
 11
-319.097105919345
 21
4.08315588809981
 31
0.0
  0
LINE
  5
   3BE
  8
0
  6
CONTINUOUS
 62
   130
 10
-319.097107914016
 20
4.08315217639574
 30
0.0
 11
-319.143775395163
 21
3.83547112076801
 31
0.0
  0
LINE
  5
   3BF
  8
0
  6
CONTINUOUS
 62
   130
 10
-319.143774897689
 20
3.83547263113731
 30
0.0
 11
-319.118774909279
 21
3.58467612211328
 31
0.0
  0
LINE
  5
   3C0
  8
0
  6
CONTINUOUS
 62
   130
 10
-319.118776851808
 20
3.5846767107753
 30
0.0
 11
-319.024129645228
 21
3.35108296937757
 31
0.0
  0
LINE
  5
   3C1
  8
0
  6
CONTINUOUS
 62
   130
 10
-319.024129178814
 20
3.35108500319647
 30
0.0
 11
-318.883302756279
 21
3.16892747648926
 31
0.0
  0
LINE
  5
   3C2
  8
0
  6
CONTINUOUS
 62
   130
 10
-318.883300340591
 20
3.16892330152586
 30
0.0
 11
-318.700268112638
 21
3.02923175147113
 31
0.0
  0
LINE
  5
   3C3
  8
0
  6
CONTINUOUS
 62
   130
 10
-318.700271845898
 20
3.02923377417693
 30
0.0
 11
-318.487411739224
 21
2.9414530128621
 31
0.0
  0
LINE
  5
   3C4
  8
0
  6
CONTINUOUS
 62
   130
 10
-318.487409465626
 20
2.94145194837641
 30
0.0
 11
-318.259113568485
 21
2.91151725679472
 31
0.0
  0
LINE
  5
   3C5
  8
0
  6
CONTINUOUS
 62
   130
 10
-318.030814380905
 20
2.9414528038669
 30
0.0
 11
-318.259110278046
 21
2.91151811228521
 31
0.0
  0
LINE
  5
   3C6
  8
0
  6
CONTINUOUS
 62
   130
 10
-317.817961535087
 20
3.0292328411944
 30
0.0
 11
-318.030821641762
 21
2.94145207987956
 31
0.0
  0
LINE
  5
   3C7
  8
0
  6
CONTINUOUS
 62
   130
 10
-317.634923172233
 20
3.16892900260569
 30
0.0
 11
-317.817955400185
 21
3.02923745255096
 31
0.0
  0
LINE
  5
   3C8
  8
0
  6
CONTINUOUS
 62
   130
 10
-317.494092162429
 20
3.35108237194433
 30
0.0
 11
-317.634924682554
 21
3.16892485745435
 31
0.0
  0
LINE
  5
   3C9
  8
0
  6
CONTINUOUS
 62
   130
 10
-317.872429518342
 20
3.57161896500495
 30
0.0
 11
-317.494090931139
 21
3.3510837136102
 31
0.0
  0
LINE
  5
   3CA
  8
0
  6
CONTINUOUS
 62
   130
 10
-317.872436332661
 20
3.57161460367714
 30
0.0
 11
-317.972369202061
 21
3.45335211051481
 31
0.0
  0
LINE
  5
   3CB
  8
0
  6
CONTINUOUS
 62
   130
 10
-317.972367321839
 20
3.45335534068384
 30
0.0
 11
-318.106620279547
 21
3.37621833179287
 31
0.0
  0
LINE
  5
   3CC
  8
0
  6
CONTINUOUS
 62
   130
 10
-318.106616608907
 20
3.37621774718822
 30
0.0
 11
-318.259112967997
 21
3.34943704667134
 31
0.0
  0
LINE
  5
   3CD
  8
0
  6
CONTINUOUS
 62
   130
 10
-318.411616920221
 20
3.37621791853788
 30
0.0
 11
-318.259120561131
 21
3.349437218021
 31
0.0
  0
LINE
  5
   3CE
  8
0
  6
CONTINUOUS
 62
   130
 10
-318.545867011669
 20
3.45335639415665
 30
0.0
 11
-318.411614053961
 21
3.37621938526568
 31
0.0
  0
LINE
  5
   3CF
  8
0
  6
CONTINUOUS
 62
   130
 10
-318.645799370343
 20
3.5716196389479
 30
0.0
 11
-318.545866500943
 21
3.45335714578557
 31
0.0
  0
LINE
  5
   3D0
  8
0
  6
CONTINUOUS
 62
   130
 10
-318.702618018222
 20
3.73675271213833
 30
0.0
 11
-318.645794286991
 21
3.57161865605438
 31
0.0
  0
LINE
  5
   3D1
  8
0
  6
CONTINUOUS
 62
   130
 10
-318.691916703334
 20
3.91105848957135
 30
0.0
 11
-318.702616167635
 21
3.73674931066089
 31
0.0
  0
LINE
  5
   3D2
  8
0
  6
CONTINUOUS
 62
   130
 10
-318.615330035339
 20
4.06800899469035
 30
0.0
 11
-318.691916954309
 21
3.91106203944199
 31
0.0
  0
LINE
  5
   3D3
  8
0
  6
CONTINUOUS
 62
   130
 10
-318.484513178443
 20
4.18370048619759
 30
0.0
 11
-318.615335944575
 21
4.06800909133903
 31
0.0
  0
LINE
  5
   3D4
  8
0
  6
CONTINUOUS
 62
   130
 10
-318.319381315182
 20
4.24052174496327
 30
0.0
 11
-318.484511932868
 21
4.18369954499491
 31
0.0
  0
LINE
  5
   3D5
  8
0
  6
CONTINUOUS
 62
   130
 10
-318.319384203711
 20
4.24052011098484
 30
0.0
 11
-318.14507384498
 21
4.22982331557903
 31
0.0
  0
LINE
  5
   3D6
  8
0
  6
CONTINUOUS
 62
   130
 10
-318.145069049472
 20
4.22982183745679
 30
0.0
 11
-317.988123226824
 21
4.15323376675641
 31
0.0
  0
LINE
  5
   3D7
  8
0
  6
CONTINUOUS
 62
   130
 10
-317.988121126224
 20
4.15324309139767
 30
0.0
 11
-317.872428976999
 21
4.02242414633878
 31
0.0
  0
LINE
  5
   3D8
  8
0
  6
CONTINUOUS
 62
   130
 10
-317.494088100739
 20
4.24295769959779
 30
0.0
 11
-317.872426687942
 21
4.02242244820304
 31
0.0
  0
LINE
  5
   3D9
  8
0
  6
CONTINUOUS
 62
   130
 10
-317.333098405325
 20
4.68251649886347
 30
0.0
 11
-317.333098405325
 21
2.91151732696572
 31
0.0
  0
LINE
  5
   3DA
  8
0
  6
CONTINUOUS
 62
   130
 10
-317.333098405325
 20
2.91151732696572
 30
0.0
 11
-316.173900390004
 21
2.91151732696572
 31
0.0
  0
LINE
  5
   3DB
  8
0
  6
CONTINUOUS
 62
   130
 10
-316.173900390004
 20
3.34943695019045
 30
0.0
 11
-316.173900390004
 21
2.91151732696572
 31
0.0
  0
LINE
  5
   3DC
  8
0
  6
CONTINUOUS
 62
   130
 10
-316.895177256221
 20
3.34943695019045
 30
0.0
 11
-316.173900390004
 21
3.34943695019045
 31
0.0
  0
LINE
  5
   3DD
  8
0
  6
CONTINUOUS
 62
   130
 10
-316.895177256221
 20
3.57805710130223
 30
0.0
 11
-316.895177256221
 21
3.34943695019045
 31
0.0
  0
LINE
  5
   3DE
  8
0
  6
CONTINUOUS
 62
   130
 10
-316.895177256221
 20
3.57805710130223
 30
0.0
 11
-316.270500733241
 21
3.57805710130223
 31
0.0
  0
LINE
  5
   3DF
  8
0
  6
CONTINUOUS
 62
   130
 10
-316.270500733241
 20
4.01597710599669
 30
0.0
 11
-316.270500733241
 21
3.57805710130223
 31
0.0
  0
LINE
  5
   3E0
  8
0
  6
CONTINUOUS
 62
   130
 10
-316.895177256221
 20
4.01597710599669
 30
0.0
 11
-316.270500733241
 21
4.01597710599669
 31
0.0
  0
LINE
  5
   3E1
  8
0
  6
CONTINUOUS
 62
   130
 10
-316.895177256221
 20
4.24459685179689
 30
0.0
 11
-316.895177256221
 21
4.01597710599669
 31
0.0
  0
LINE
  5
   3E2
  8
0
  6
CONTINUOUS
 62
   130
 10
-316.895177256221
 20
4.24459687563875
 30
0.0
 11
-316.173900390004
 21
4.24459687563875
 31
0.0
  0
LINE
  5
   3E3
  8
0
  6
CONTINUOUS
 62
   130
 10
-316.173900390004
 20
4.68251688033321
 30
0.0
 11
-316.173900390004
 21
4.24459687563875
 31
0.0
  0
LINE
  5
   3E4
  8
0
  6
CONTINUOUS
 62
   130
 10
-317.333098405325
 20
4.68251688033321
 30
0.0
 11
-316.173900390004
 21
4.68251688033321
 31
0.0
  0
LINE
  5
   3E5
  8
0
  6
CONTINUOUS
 62
   130
 10
-365.260059778463
 20
4.84633774831162
 30
0.0
 11
-365.623145634048
 21
3.80893562611556
 31
0.0
  0
LINE
  5
   3E6
  8
0
  6
CONTINUOUS
 62
   130
 10
-365.623151811041
 20
3.80893868884048
 30
0.0
 11
-364.967463324708
 21
3.80893868884048
 31
0.0
  0
LINE
  5
   3E7
  8
0
  6
CONTINUOUS
 62
   130
 10
-364.967463324708
 20
4.84634104804898
 30
0.0
 11
-364.967463324708
 21
3.80893868884048
 31
0.0
  0
LINE
  5
   3E8
  8
0
  6
CONTINUOUS
 62
   130
 10
-365.260065868131
 20
4.84634104804898
 30
0.0
 11
-364.967463324708
 21
4.84634104804898
 31
0.0
  0
LINE
  5
   3E9
  8
0
  6
CONTINUOUS
 62
   130
 10
-366.004865683917
 20
2.71834380869775
 30
0.0
 11
-365.472864943567
 21
2.71834380869775
 31
0.0
  0
LINE
  5
   3EA
  8
0
  6
CONTINUOUS
 62
   130
 10
-365.323898053263
 20
3.14394230353536
 30
0.0
 11
-365.47286045201
 21
2.71834260684206
 31
0.0
  0
LINE
  5
   3EB
  8
0
  6
CONTINUOUS
 62
   130
 10
-365.323902539004
 20
3.14394348544984
 30
0.0
 11
-364.967463324708
 21
3.14394348544984
 31
0.0
  0
LINE
  5
   3EC
  8
0
  6
CONTINUOUS
 62
   130
 10
-364.967463324708
 20
3.75574044586027
 30
0.0
 11
-364.967463324708
 21
3.14394348544984
 31
0.0
  0
LINE
  5
   3ED
  8
0
  6
CONTINUOUS
 62
   130
 10
-365.641773637491
 20
3.75574044586027
 30
0.0
 11
-364.967463324708
 21
3.75574044586027
 31
0.0
  0
LINE
  5
   3EE
  8
0
  6
CONTINUOUS
 62
   130
 10
-365.641769392129
 20
3.75573828778563
 30
0.0
 11
-366.004861330052
 21
2.71834186634033
 31
0.0
  0
LINE
  5
   3EF
  8
0
  6
CONTINUOUS
 62
   130
 10
-364.239943396051
 20
3.75573814480821
 30
0.0
 11
-363.876851458128
 21
2.71834172336291
 31
0.0
  0
LINE
  5
   3F0
  8
0
  6
CONTINUOUS
 62
   130
 10
-364.914265081728
 20
3.75574044586027
 30
0.0
 11
-364.239954768946
 21
3.75574044586027
 31
0.0
  0
LINE
  5
   3F1
  8
0
  6
CONTINUOUS
 62
   130
 10
-364.914265081728
 20
3.75574044586027
 30
0.0
 11
-364.914265081728
 21
3.14394348544984
 31
0.0
  0
LINE
  5
   3F2
  8
0
  6
CONTINUOUS
 62
   130
 10
-364.914265081728
 20
3.14394348544984
 30
0.0
 11
-364.557825867432
 21
3.14394348544984
 31
0.0
  0
LINE
  5
   3F3
  8
0
  6
CONTINUOUS
 62
   130
 10
-364.557816601052
 20
3.14394415734421
 30
0.0
 11
-364.408854202304
 21
2.71834446065091
 31
0.0
  0
LINE
  5
   3F4
  8
0
  6
CONTINUOUS
 62
   130
 10
-364.408863462869
 20
2.71834380869775
 30
0.0
 11
-363.87686272252
 21
2.71834380869775
 31
0.0
  0
LINE
  5
   3F5
  8
0
  6
CONTINUOUS
 62
   130
 10
-364.914265081728
 20
4.84634104804898
 30
0.0
 11
-364.621662538305
 21
4.84634104804898
 31
0.0
  0
LINE
  5
   3F6
  8
0
  6
CONTINUOUS
 62
   130
 10
-364.914265081728
 20
4.84634104804898
 30
0.0
 11
-364.914265081728
 21
3.80893868884048
 31
0.0
  0
LINE
  5
   3F7
  8
0
  6
CONTINUOUS
 62
   130
 10
-364.914265081728
 20
3.80893868884048
 30
0.0
 11
-364.258570491879
 21
3.80893868884048
 31
0.0
  0
LINE
  5
   3F8
  8
0
  6
CONTINUOUS
 62
   130
 10
-364.621656428746
 20
4.84633894334978
 30
0.0
 11
-364.25856446371
 21
3.80893667007312
 31
0.0
  0
LINE
  5
   3F9
  8
0
  6
CONTINUOUS
 62
   130
 10
-363.743861011553
 20
3.80893868884048
 30
0.0
 11
-363.132062906734
 21
3.80893868884048
 31
0.0
  0
LINE
  5
   3FA
  8
0
  6
CONTINUOUS
 62
   130
 10
-363.132062906734
 20
4.84634104804898
 30
0.0
 11
-363.132062906734
 21
3.80893868884048
 31
0.0
  0
LINE
  5
   3FB
  8
0
  6
CONTINUOUS
 62
   130
 10
-363.743861011553
 20
4.84634104804898
 30
0.0
 11
-363.132062906734
 21
4.84634104804898
 31
0.0
  0
LINE
  5
   3FC
  8
0
  6
CONTINUOUS
 62
   130
 10
-363.743861011553
 20
2.71834380869775
 30
0.0
 11
-363.132062906734
 21
2.71834380869775
 31
0.0
  0
LINE
  5
   3FD
  8
0
  6
CONTINUOUS
 62
   130
 10
-363.132062906734
 20
3.75574044586027
 30
0.0
 11
-363.132062906734
 21
2.71834380869775
 31
0.0
  0
LINE
  5
   3FE
  8
0
  6
CONTINUOUS
 62
   130
 10
-363.743861011553
 20
3.75574044586027
 30
0.0
 11
-363.132062906734
 21
3.75574044586027
 31
0.0
  0
LINE
  5
   3FF
  8
0
  6
CONTINUOUS
 62
   130
 10
-362.094666651041
 20
4.84634104804898
 30
0.0
 11
-362.094666651041
 21
3.80893868884048
 31
0.0
  0
LINE
  5
   400
  8
0
  6
CONTINUOUS
 62
   130
 10
-362.094666651041
 20
3.80893868884048
 30
0.0
 11
-361.482862442706
 21
3.80893868884048
 31
0.0
  0
LINE
  5
   401
  8
0
  6
CONTINUOUS
 62
   130
 10
-361.482862442706
 20
4.84634104804898
 30
0.0
 11
-361.482862442706
 21
3.80893868884048
 31
0.0
  0
LINE
  5
   402
  8
0
  6
CONTINUOUS
 62
   130
 10
-362.094666651041
 20
4.84634104804898
 30
0.0
 11
-361.482862442706
 21
4.84634104804898
 31
0.0
  0
LINE
  5
   403
  8
0
  6
CONTINUOUS
 62
   130
 10
-362.094666651041
 20
2.71834380869775
 30
0.0
 11
-361.482862442706
 21
2.71834380869775
 31
0.0
  0
LINE
  5
   404
  8
0
  6
CONTINUOUS
 62
   130
 10
-361.482862442706
 20
3.75574044586027
 30
0.0
 11
-361.482862442706
 21
2.71834380869775
 31
0.0
  0
LINE
  5
   405
  8
0
  6
CONTINUOUS
 62
   130
 10
-362.094666651041
 20
3.75574044586027
 30
0.0
 11
-361.482862442706
 21
3.75574044586027
 31
0.0
  0
LINE
  5
   406
  8
0
  6
CONTINUOUS
 62
   130
 10
-362.094666651041
 20
3.75574044586027
 30
0.0
 11
-362.094666651041
 21
2.71834380869775
 31
0.0
  0
LINE
  5
   407
  8
0
  6
CONTINUOUS
 62
   130
 10
-361.429664199725
 20
4.84634104804898
 30
0.0
 11
-361.258674206943
 21
4.84634104804898
 31
0.0
  0
LINE
  5
   408
  8
0
  6
CONTINUOUS
 62
   130
 10
-361.429664199725
 20
4.84634104804898
 30
0.0
 11
-361.429664199725
 21
3.80893868884048
 31
0.0
  0
LINE
  5
   409
  8
0
  6
CONTINUOUS
 62
   130
 10
-361.429664199725
 20
3.80893868884048
 30
0.0
 11
-360.810322149481
 21
3.80893868884048
 31
0.0
  0
LINE
  5
   40A
  8
0
  6
CONTINUOUS
 62
   130
 10
-360.901694232932
 20
3.87784926739859
 30
0.0
 11
-360.810324590167
 21
3.80894056461512
 31
0.0
  0
LINE
  5
   40B
  8
0
  6
CONTINUOUS
 62
   130
 10
-361.00406422155
 20
3.92898881590433
 30
0.0
 11
-360.901689937471
 21
3.87784745302587
 31
0.0
  0
LINE
  5
   40C
  8
0
  6
CONTINUOUS
 62
   130
 10
-360.882206293628
 20
4.03245252807711
 30
0.0
 11
-361.004062973503
 21
3.92898574449123
 31
0.0
  0
LINE
  5
   40D
  8
0
  6
CONTINUOUS
 62
   130
 10
-360.799768582699
 20
4.16941425438572
 30
0.0
 11
-360.88220265681
 21
4.03245136629091
 31
0.0
  0
LINE
  5
   40E
  8
0
  6
CONTINUOUS
 62
   130
 10
-360.765389367289
 20
4.32552434800186
 30
0.0
 11
-360.79977046721
 21
4.169414745178
 31
0.0
  0
LINE
  5
   40F
  8
0
  6
CONTINUOUS
 62
   130
 10
-360.782657469193
 20
4.4844497335813
 30
0.0
 11
-360.765390628349
 21
4.32552635783411
 31
0.0
  0
LINE
  5
   410
  8
0
  6
CONTINUOUS
 62
   130
 10
-360.849769991836
 20
4.62953382881539
 30
0.0
 11
-360.782661826048
 21
4.48445324264583
 31
0.0
  0
LINE
  5
   411
  8
0
  6
CONTINUOUS
 62
   130
 10
-360.959696679597
 20
4.74559958875888
 30
0.0
 11
-360.849772351119
 21
4.62953512662149
 31
0.0
  0
LINE
  5
   412
  8
0
  6
CONTINUOUS
 62
   130
 10
-361.100919964809
 20
4.82046720770963
 30
0.0
 11
-360.959690708656
 21
4.7455892707704
 31
0.0
  0
LINE
  5
   413
  8
0
  6
CONTINUOUS
 62
   130
 10
-361.429664199725
 20
3.75574044586027
 30
0.0
 11
-360.758338506128
 21
3.75574044586027
 31
0.0
  0
LINE
  5
   414
  8
0
  6
CONTINUOUS
 62
   130
 10
-361.429664199725
 20
3.75574044586027
 30
0.0
 11
-361.429664199725
 21
2.71834380869775
 31
0.0
  0
LINE
  5
   415
  8
0
  6
CONTINUOUS
 62
   130
 10
-361.429664199725
 20
2.71834380869775
 30
0.0
 11
-361.231812634277
 21
2.71834380869775
 31
0.0
  0
LINE
  5
   416
  8
0
  6
CONTINUOUS
 62
   130
 10
-361.055198709056
 20
2.74374051258125
 30
0.0
 11
-361.23181005887
 21
2.718342641451
 31
0.0
  0
LINE
  5
   417
  8
0
  6
CONTINUOUS
 62
   130
 10
-360.892901084945
 20
2.81787611985708
 30
0.0
 11
-361.055199681446
 21
2.74374090941977
 31
0.0
  0
LINE
  5
   418
  8
0
  6
CONTINUOUS
 62
   130
 10
-360.75807592273
 20
2.93474002033807
 30
0.0
 11
-360.892902597371
 21
2.81787561966371
 31
0.0
  0
LINE
  5
   419
  8
0
  6
CONTINUOUS
 62
   130
 10
-360.661639317558
 20
3.08486257457658
 30
0.0
 11
-360.758074865411
 21
2.93474050381848
 31
0.0
  0
LINE
  5
   41A
  8
0
  6
CONTINUOUS
 62
   130
 10
-360.611412835833
 20
3.25607291423741
 30
0.0
 11
-360.661632561769
 21
3.0848605330873
 31
0.0
  0
LINE
  5
   41B
  8
0
  6
CONTINUOUS
 62
   130
 10
-360.611473036655
 20
3.4345031647419
 30
0.0
 11
-360.611418105016
 21
3.25607641107362
 31
0.0
  0
LINE
  5
   41C
  8
0
  6
CONTINUOUS
 62
   130
 10
-360.661801458321
 20
3.60568511412506
 30
0.0
 11
-360.611471871486
 21
3.43450437779102
 31
0.0
  0
LINE
  5
   41D
  8
0
  6
CONTINUOUS
 62
   130
 10
-360.758337037629
 20
3.75573820632255
 30
0.0
 11
-360.661803834101
 21
3.6056809859992
 31
0.0
  0
LINE
  5
   41E
  8
0
  6
CONTINUOUS
 62
   130
 10
-363.078864663753
 20
4.84634104804898
 30
0.0
 11
-362.907868567455
 21
4.84634104804898
 31
0.0
  0
LINE
  5
   41F
  8
0
  6
CONTINUOUS
 62
   130
 10
-363.078864663753
 20
4.84634104804898
 30
0.0
 11
-363.078864663753
 21
3.80893868884048
 31
0.0
  0
LINE
  5
   420
  8
0
  6
CONTINUOUS
 62
   130
 10
-363.078864663753
 20
3.80893868884048
 30
0.0
 11
-362.459522613509
 21
3.80893868884048
 31
0.0
  0
LINE
  5
   421
  8
0
  6
CONTINUOUS
 62
   130
 10
-362.550890728942
 20
3.8778461619949
 30
0.0
 11
-362.459521086176
 21
3.80893745921142
 31
0.0
  0
LINE
  5
   422
  8
0
  6
CONTINUOUS
 62
   130
 10
-362.653265868265
 20
3.9289889349239
 30
0.0
 11
-362.550891584186
 21
3.87784757204544
 31
0.0
  0
LINE
  5
   423
  8
0
  6
CONTINUOUS
 62
   130
 10
-362.531407661553
 20
4.03245571895111
 30
0.0
 11
-362.653264341428
 21
3.92898893536521
 31
0.0
  0
LINE
  5
   424
  8
0
  6
CONTINUOUS
 62
   130
 10
-362.448971520981
 20
4.16941607662999
 30
0.0
 11
-362.531405595092
 21
4.03245318853518
 31
0.0
  0
LINE
  5
   425
  8
0
  6
CONTINUOUS
 62
   130
 10
-362.414584730631
 20
4.32552501905039
 30
0.0
 11
-362.448971935308
 21
4.16941540711602
 31
0.0
  0
LINE
  5
   426
  8
0
  6
CONTINUOUS
 62
   130
 10
-362.431851128056
 20
4.48445237355774
 30
0.0
 11
-362.414584287212
 21
4.32552899781055
 31
0.0
  0
LINE
  5
   427
  8
0
  6
CONTINUOUS
 62
   130
 10
-362.498968028872
 20
4.62952897651861
 30
0.0
 11
-362.431853765293
 21
4.48444839725682
 31
0.0
  0
LINE
  5
   428
  8
0
  6
CONTINUOUS
 62
   130
 10
-362.608894672471
 20
4.74560237073063
 30
0.0
 11
-362.498970343993
 21
4.62953790859326
 31
0.0
  0
LINE
  5
   429
  8
0
  6
CONTINUOUS
 62
   130
 10
-362.750124415442
 20
4.82046913838422
 30
0.0
 11
-362.608895159289
 21
4.74559120144499
 31
0.0
  0
LINE
  5
   42A
  8
0
  6
CONTINUOUS
 62
   130
 10
-362.907869067619
 20
4.84634144858379
 30
0.0
 11
-362.750123670571
 21
4.82047474979997
 31
0.0
  0
LINE
  5
   42B
  8
0
  6
CONTINUOUS
 62
   130
 10
-363.078864663753
 20
3.75574044586027
 30
0.0
 11
-362.407538970156
 21
3.75574044586027
 31
0.0
  0
LINE
  5
   42C
  8
0
  6
CONTINUOUS
 62
   130
 10
-363.078864663753
 20
3.75574044586027
 30
0.0
 11
-363.078864663753
 21
2.71834380869775
 31
0.0
  0
LINE
  5
   42D
  8
0
  6
CONTINUOUS
 62
   130
 10
-363.078864663753
 20
2.71834380869775
 30
0.0
 11
-362.881013098305
 21
2.71834380869775
 31
0.0
  0
LINE
  5
   42E
  8
0
  6
CONTINUOUS
 62
   130
 10
-362.704401241245
 20
2.74373658771091
 30
0.0
 11
-362.881012591059
 21
2.71833871658066
 31
0.0
  0
LINE
  5
   42F
  8
0
  6
CONTINUOUS
 62
   130
 10
-362.542101377411
 20
2.81787507398043
 30
0.0
 11
-362.704399973912
 21
2.74373986354312
 31
0.0
  0
LINE
  5
   430
  8
0
  6
CONTINUOUS
 62
   130
 10
-362.40727592617
 20
2.93473924084237
 30
0.0
 11
-362.542102600811
 21
2.81787484016801
 31
0.0
  0
LINE
  5
   431
  8
0
  6
CONTINUOUS
 62
   130
 10
-362.310840608481
 20
3.08486277967794
 30
0.0
 11
-362.407276156334
 21
2.93474070891983
 31
0.0
  0
LINE
  5
   432
  8
0
  6
CONTINUOUS
 62
   130
 10
-362.260610590291
 20
3.25607517784858
 30
0.0
 11
-362.310836424889
 21
3.08486277823356
 31
0.0
  0
LINE
  5
   433
  8
0
  6
CONTINUOUS
 62
   130
 10
-362.260675376957
 20
3.43450335013839
 30
0.0
 11
-362.26061434183
 21
3.25607659448665
 31
0.0
  0
LINE
  5
   434
  8
0
  6
CONTINUOUS
 62
   130
 10
-362.31100043201
 20
3.60568503248217
 30
0.0
 11
-362.260670845174
 21
3.43450429614813
 31
0.0
  0
LINE
  5
   435
  8
0
  6
CONTINUOUS
 62
   130
 10
-362.40753590381
 20
3.7557386143468
 30
0.0
 11
-362.311002700282
 21
3.60568139402346
 31
0.0
  0
LINE
  5
   436
  8
0
  6
CONTINUOUS
 62
   130
 10
-363.743861011553
 20
4.84634104804898
 30
0.0
 11
-363.743861011553
 21
2.71834380869775
 31
0.0
  0
LINE
  5
   437
  8
0
  6
CONTINUOUS
 62
   130
 10
-369.014883978283
 20
1.35522884726157
 30
0.0
 11
-341.814917645847
 21
1.35522884726157
 31
0.0
  0
LINE
  5
   438
  8
0
  6
CONTINUOUS
 62
   130
 10
-341.414917700922
 20
2.95522887110343
 30
0.0
 11
-341.414917609369
 21
0.555228835340646
 31
0.0
  0
LINE
  5
   439
  8
0
  6
CONTINUOUS
 62
   130
 10
-324.614893250142
 20
2.95522887110343
 30
0.0
 11
-324.614893341695
 21
0.555228835340646
 31
0.0
  0
LINE
  5
   43A
  8
0
  6
CONTINUOUS
 62
   130
 10
-341.414917700922
 20
2.95522887110343
 30
0.0
 11
-324.614893250142
 21
2.95522887110343
 31
0.0
  0
LINE
  5
   43B
  8
0
  6
CONTINUOUS
 62
   130
 10
-324.214893305217
 20
1.35522884726157
 30
0.0
 11
-297.014926972781
 21
1.35522884726157
 31
0.0
  0
LINE
  5
   43C
  8
0
  6
CONTINUOUS
 62
   130
 10
-341.814917722141
 20
3.35522887706389
 30
0.0
 11
-324.214893228923
 21
3.35522887706389
 31
0.0
  0
LINE
  5
   43D
  8
0
  6
CONTINUOUS
 62
   130
 10
-324.214893228923
 20
3.3552288770639
 30
0.0
 11
-324.214893335734
 21
0.555228835340646
 31
0.0
  0
LINE
  5
   43E
  8
0
  6
CONTINUOUS
 62
   130
 10
-341.814917722141
 20
3.3552288770639
 30
0.0
 11
-341.814917615329
 21
0.555228835340646
 31
0.0
  0
LINE
  5
   43F
  8
0
  6
CONTINUOUS
 62
   130
 10
-345.494903830443
 20
-24.4447837442143
 30
0.0
 11
-345.494903830443
 21
-28.0447837978585
 31
0.0
  0
LINE
  5
   440
  8
0
  6
CONTINUOUS
 62
   130
 10
-353.494903949653
 20
-24.4447837442143
 30
0.0
 11
-353.494903949653
 21
-28.0447837978585
 31
0.0
  0
LINE
  5
   441
  8
0
  6
CONTINUOUS
 62
   130
 10
-353.494903949653
 20
-24.4447837442143
 30
0.0
 11
-345.494903830443
 21
-24.4447837442143
 31
0.0
  0
LINE
  5
   442
  8
0
  6
CONTINUOUS
 62
   130
 10
-353.494903949653
 20
-28.0447837978585
 30
0.0
 11
-345.494903830443
 21
-28.0447837978585
 31
0.0
  0
LINE
  5
   443
  8
0
  6
CONTINUOUS
 62
   130
 10
-324.614894132462
 20
-20.174252109256
 30
0.0
 11
-324.614894224015
 21
-22.5742521450188
 31
0.0
  0
LINE
  5
   444
  8
0
  6
CONTINUOUS
 62
   130
 10
-341.414916818601
 20
-20.174252109256
 30
0.0
 11
-341.414916727049
 21
-22.5742521450188
 31
0.0
  0
LINE
  5
   445
  8
0
  6
CONTINUOUS
 62
   130
 10
-341.414916818601
 20
-20.174252109256
 30
0.0
 11
-339.014916782839
 21
-20.174252109256
 31
0.0
  0
LINE
  5
   446
  8
0
  6
CONTINUOUS
 62
   130
 10
-327.014894168225
 20
-20.174252109256
 30
0.0
 11
-324.614894132462
 21
-20.174252109256
 31
0.0
  0
LINE
  5
   447
  8
0
  6
CONTINUOUS
 62
   130
 10
-341.414916727049
 20
-22.5742521450188
 30
0.0
 11
-338.214916679365
 21
-22.5742521450188
 31
0.0
  0
LINE
  5
   448
  8
0
  6
CONTINUOUS
 62
   130
 10
-327.814894271699
 20
-22.5742521450188
 30
0.0
 11
-324.614894224015
 21
-22.5742521450188
 31
0.0
  0
ARC
  5
   449
  8
0
  6
CONTINUOUS
 62
   130
 10
-297.814915510098
 20
76.5552055537721
 30
0.0
 40
0.800000011920929
 50
359.999991101463
 51
449.999999844103
  0
ARC
  5
   44A
  8
0
  6
CONTINUOUS
 62
   130
 10
-392.214886521251
 20
76.5552055537721
 30
0.0
 40
0.800000011920929
 50
449.999999844103
 51
540.000008586744
  0
ARC
  5
   44B
  8
0
  6
CONTINUOUS
 62
   130
 10
-297.814939680014
 20
-81.8447845995406
 30
0.0
 40
0.800000011920929
 50
269.999999844103
 51
359.999991101463
  0
ARC
  5
   44C
  8
0
  6
CONTINUOUS
 62
   130
 10
-392.21488090602
 20
-81.8447845995406
 30
0.0
 40
0.800000011920929
 50
540.000008586744
 51
629.999999844103
  0
LINE
  5
   44D
  8
0
  6
DASHDOT
 62
   130
 10
-333.014881638875
 20
82.3686386245186
 30
0.0
 11
-333.014881638875
 21
-82.6447846114615
 31
0.0
  0
LINE
  5
   44E
  8
0
  6
CONTINUOUS
 62
   130
 10
-336.54432222351
 20
-39.0447867563877
 30
0.0
 11
-336.54432887634
 21
-82.6447846114616
 31
0.0
  0
LINE
  5
   44F
  8
0
  6
CONTINUOUS
 62
   130
 10
-335.132558454005
 20
-39.0447867563877
 30
0.0
 11
-335.132565106835
 21
-82.6447846114616
 31
0.0
  0
LINE
  5
   450
  8
0
  6
CONTINUOUS
 62
   130
 10
-333.7207946845
 20
-39.0447867563877
 30
0.0
 11
-333.72080133733
 21
-82.6447846114616
 31
0.0
  0
LINE
  5
   451
  8
0
  6
CONTINUOUS
 62
   130
 10
-332.309030914995
 20
-39.0447867563877
 30
0.0
 11
-332.309037567825
 21
-82.6447846114616
 31
0.0
  0
LINE
  5
   452
  8
0
  6
CONTINUOUS
 62
   130
 10
-329.485503375985
 20
-39.0447867563877
 30
0.0
 11
-329.485510028815
 21
-82.6447846114616
 31
0.0
  0
LINE
  5
   453
  8
0
  6
CONTINUOUS
 62
   130
 10
-326.661975836975
 20
-39.0447867563877
 30
0.0
 11
-326.661982489805
 21
-82.6447846114616
 31
0.0
  0
LINE
  5
   454
  8
0
  6
CONTINUOUS
 62
   130
 10
-323.838448297965
 20
-39.0447867563877
 30
0.0
 11
-323.838454950795
 21
-82.6447846114616
 31
0.0
  0
LINE
  5
   455
  8
0
  6
CONTINUOUS
 62
   130
 10
-321.014920758955
 20
-39.0447867563877
 30
0.0
 11
-321.014927411785
 21
-82.6447846114616
 31
0.0
  0
LINE
  5
   456
  8
0
  6
CONTINUOUS
 62
   130
 10
-318.191393219946
 20
-39.0447867563877
 30
0.0
 11
-318.191399872775
 21
-82.6447846114616
 31
0.0
  0
LINE
  5
   457
  8
0
  6
CONTINUOUS
 62
   130
 10
-315.367865680936
 20
-39.0447867563877
 30
0.0
 11
-315.367872333766
 21
-82.6447846114616
 31
0.0
  0
LINE
  5
   458
  8
0
  6
CONTINUOUS
 62
   130
 10
-312.544338141926
 20
-39.0447867563877
 30
0.0
 11
-312.544344794756
 21
-82.6447846114616
 31
0.0
  0
LINE
  5
   459
  8
0
  6
CONTINUOUS
 62
   130
 10
-309.720810602916
 20
-39.0447867563877
 30
0.0
 11
-309.720817255746
 21
-82.6447846114616
 31
0.0
  0
LINE
  5
   45A
  8
0
  6
CONTINUOUS
 62
   130
 10
-308.309046833411
 20
-39.0447867563877
 30
0.0
 11
-308.309053486241
 21
-82.6447846114616
 31
0.0
  0
LINE
  5
   45B
  8
0
  6
CONTINUOUS
 62
   130
 10
-306.897283063906
 20
-39.0447867563877
 30
0.0
 11
-306.897289716736
 21
-82.6447846114616
 31
0.0
  0
LINE
  5
   45C
  8
0
  6
CONTINUOUS
 62
   130
 10
-305.485519294401
 20
-39.0447867563877
 30
0.0
 11
-305.485525947231
 21
-82.6447846114616
 31
0.0
  0
LINE
  5
   45D
  8
0
  6
CONTINUOUS
 62
   130
 10
-304.073755524896
 20
-39.0447867563877
 30
0.0
 11
-304.073762177726
 21
-82.6447846114616
 31
0.0
  0
LINE
  5
   45E
  8
0
  6
CONTINUOUS
 62
   130
 10
-302.661991755391
 20
-39.0447867563877
 30
0.0
 11
-302.661998408221
 21
-82.6447846114616
 31
0.0
  0
LINE
  5
   45F
  8
0
  6
CONTINUOUS
 62
   130
 10
-301.250227985886
 20
-39.0447867563877
 30
0.0
 11
-301.250234638716
 21
-82.6447846114616
 31
0.0
  0
LINE
  5
   460
  8
0
  6
CONTINUOUS
 62
   130
 10
-299.838464216381
 20
-39.0447867563877
 30
0.0
 11
-299.838470869211
 21
-82.6447846114616
 31
0.0
  0
LINE
  5
   461
  8
0
  6
CONTINUOUS
 62
   130
 10
-298.426700446876
 20
-39.0447867563877
 30
0.0
 11
-298.426707099706
 21
-82.6447846114616
 31
0.0
  0
POINT
  5
   462
  8
0
  6
CONTINUOUS
 62
   130
 10
-309.014881281247
 20
-49.8447963297343
 30
0.0
  0
CIRCLE
  5
   463
  8
0
  6
CONTINUOUS
 62
   130
 10
-309.014881281247
 20
-49.8447963297343
 30
0.0
 40
2.00000002980232
  0
LINE
  5
   464
  8
0
  6
CONTINUOUS
 62
   130
 10
-310.974473104674
 20
-50.2447963356948
 30
0.0
 11
-307.055289457821
 21
-50.2447963356948
 31
0.0
  0
LINE
  5
   465
  8
0
  6
CONTINUOUS
 62
   130
 10
-310.974473104674
 20
-49.4447963237739
 30
0.0
 11
-307.055289457821
 21
-49.4447963237739
 31
0.0
  0
LINE
  5
   466
  8
0
  6
DOT
 62
   130
 10
-309.414881287208
 20
-47.8852045063075
 30
0.0
 11
-309.414881287208
 21
-51.8043881531611
 31
0.0
  0
LINE
  5
   467
  8
0
  6
DOT
 62
   130
 10
-308.614881275287
 20
-47.8852045063075
 30
0.0
 11
-308.614881275287
 21
-51.8043881531611
 31
0.0
  0
LINE
  5
   468
  8
0
  6
CONTINUOUS
 62
   130
 10
-330.89726714549
 20
-39.0447867563877
 30
0.0
 11
-330.89727379832
 21
-82.6447846114616
 31
0.0
  0
LINE
  5
   469
  8
0
  6
CONTINUOUS
 62
   130
 10
-328.07373960648
 20
-39.0447867563877
 30
0.0
 11
-328.07374625931
 21
-82.6447846114616
 31
0.0
  0
LINE
  5
   46A
  8
0
  6
CONTINUOUS
 62
   130
 10
-325.25021206747
 20
-39.0447867563877
 30
0.0
 11
-325.2502187203
 21
-82.6447846114616
 31
0.0
  0
LINE
  5
   46B
  8
0
  6
CONTINUOUS
 62
   130
 10
-322.426684528461
 20
-39.0447867563877
 30
0.0
 11
-322.42669118129
 21
-82.6447846114616
 31
0.0
  0
LINE
  5
   46C
  8
0
  6
CONTINUOUS
 62
   130
 10
-319.603156989451
 20
-39.0447867563877
 30
0.0
 11
-319.60316364228
 21
-82.6447846114616
 31
0.0
  0
LINE
  5
   46D
  8
0
  6
CONTINUOUS
 62
   130
 10
-316.779629450441
 20
-39.0447867563877
 30
0.0
 11
-316.779636103271
 21
-82.6447846114616
 31
0.0
  0
LINE
  5
   46E
  8
0
  6
CONTINUOUS
 62
   130
 10
-313.956101911431
 20
-39.0447867563877
 30
0.0
 11
-313.956108564261
 21
-82.6447846114616
 31
0.0
  0
LINE
  5
   46F
  8
0
  6
CONTINUOUS
 62
   130
 10
-311.132574372421
 20
-39.0447867563877
 30
0.0
 11
-311.132581025251
 21
-82.6447846114616
 31
0.0
  0
LINE
  5
   470
  8
0
  6
DASHDOT
 62
   130
 10
-309.014881281247
 20
82.1572751021417
 30
0.0
 11
-309.014881281247
 21
69.1372821237257
 31
0.0
  0
LINE
  5
   471
  8
0
  6
DASHDOT
 62
   130
 10
-357.014881996503
 20
83.0872746006
 30
0.0
 11
-357.014881996503
 21
69.8136453953317
 31
0.0
  0
LINE
  5
   472
  8
0
  6
DASHDOT
 62
   130
 10
-333.014881638875
 20
77.3551933586618
 30
0.0
 11
-333.014881638875
 21
-94.1304792259537
 31
0.0
  0
LINE
  5
   473
  8
0
  6
CONTINUOUS
 62
   130
 10
-367.60313180545
 20
77.3551933586618
 30
0.0
 11
-367.60312515262
 21
33.7551955035879
 31
0.0
  0
LINE
  5
   474
  8
0
  6
CONTINUOUS
 62
   130
 10
-366.191368035945
 20
77.3551933586618
 30
0.0
 11
-366.191361383115
 21
33.7551955035879
 31
0.0
  0
LINE
  5
   475
  8
0
  6
CONTINUOUS
 62
   130
 10
-364.77960426644
 20
77.3551933586618
 30
0.0
 11
-364.77959761361
 21
33.7551955035879
 31
0.0
  0
LINE
  5
   476
  8
0
  6
CONTINUOUS
 62
   130
 10
-363.367840496935
 20
77.3551933586618
 30
0.0
 11
-363.367833844105
 21
33.7551955035879
 31
0.0
  0
LINE
  5
   477
  8
0
  6
CONTINUOUS
 62
   130
 10
-361.95607672743
 20
77.3551933586618
 30
0.0
 11
-361.9560700746
 21
33.7551955035879
 31
0.0
  0
LINE
  5
   478
  8
0
  6
CONTINUOUS
 62
   130
 10
-360.544312957925
 20
77.3551933586618
 30
0.0
 11
-360.544306305095
 21
33.7551955035879
 31
0.0
  0
LINE
  5
   479
  8
0
  6
CONTINUOUS
 62
   130
 10
-359.13254918842
 20
77.3551933586618
 30
0.0
 11
-359.13254253559
 21
33.7551955035879
 31
0.0
  0
LINE
  5
   47A
  8
0
  6
CONTINUOUS
 62
   130
 10
-357.720785418915
 20
77.3551933586618
 30
0.0
 11
-357.720778766085
 21
33.7551955035879
 31
0.0
  0
LINE
  5
   47B
  8
0
  6
CONTINUOUS
 62
   130
 10
-356.30902164941
 20
77.3551933586618
 30
0.0
 11
-356.30901499658
 21
33.7551955035879
 31
0.0
  0
LINE
  5
   47C
  8
0
  6
CONTINUOUS
 62
   130
 10
-354.897257879905
 20
77.3551933586618
 30
0.0
 11
-354.897251227075
 21
33.7551955035879
 31
0.0
  0
LINE
  5
   47D
  8
0
  6
CONTINUOUS
 62
   130
 10
-353.4854941104
 20
77.3551933586618
 30
0.0
 11
-353.48548745757
 21
33.7551955035879
 31
0.0
  0
LINE
  5
   47E
  8
0
  6
CONTINUOUS
 62
   130
 10
-352.073730340895
 20
77.3551933586618
 30
0.0
 11
-352.073723688065
 21
33.7551955035879
 31
0.0
  0
LINE
  5
   47F
  8
0
  6
CONTINUOUS
 62
   130
 10
-350.66196657139
 20
77.3551933586618
 30
0.0
 11
-350.66195991856
 21
33.7551955035879
 31
0.0
  0
LINE
  5
   480
  8
0
  6
CONTINUOUS
 62
   130
 10
-349.250202801885
 20
77.3551933586618
 30
0.0
 11
-349.250196149055
 21
33.755195503588
 31
0.0
  0
LINE
  5
   481
  8
0
  6
CONTINUOUS
 62
   130
 10
-347.83843903238
 20
77.3551933586618
 30
0.0
 11
-347.83843237955
 21
33.7551955035879
 31
0.0
  0
LINE
  5
   482
  8
0
  6
CONTINUOUS
 62
   130
 10
-346.426675262875
 20
77.3551933586618
 30
0.0
 11
-346.426668610045
 21
33.7551955035879
 31
0.0
  0
LINE
  5
   483
  8
0
  6
CONTINUOUS
 62
   130
 10
-345.01491149337
 20
77.3551933586618
 30
0.0
 11
-345.01490484054
 21
33.7551955035879
 31
0.0
  0
LINE
  5
   484
  8
0
  6
CONTINUOUS
 62
   130
 10
-343.603147723865
 20
77.3551933586618
 30
0.0
 11
-343.603141071035
 21
33.7551955035879
 31
0.0
  0
LINE
  5
   485
  8
0
  6
CONTINUOUS
 62
   130
 10
-342.19138395436
 20
77.3551933586618
 30
0.0
 11
-342.19137730153
 21
33.7551955035879
 31
0.0
  0
LINE
  5
   486
  8
0
  6
CONTINUOUS
 62
   130
 10
-340.779620184855
 20
77.3551933586618
 30
0.0
 11
-340.779613532025
 21
33.7551955035879
 31
0.0
  0
LINE
  5
   487
  8
0
  6
CONTINUOUS
 62
   130
 10
-339.36785641535
 20
77.3551933586618
 30
0.0
 11
-339.36784976252
 21
33.7551955035879
 31
0.0
  0
LINE
  5
   488
  8
0
  6
CONTINUOUS
 62
   130
 10
-337.956092645845
 20
77.3551933586618
 30
0.0
 11
-337.956085993015
 21
33.7551955035879
 31
0.0
  0
LINE
  5
   489
  8
0
  6
CONTINUOUS
 62
   130
 10
-336.54432887634
 20
77.3551933586618
 30
0.0
 11
-336.54432222351
 21
33.7551955035879
 31
0.0
  0
LINE
  5
   48A
  8
0
  6
CONTINUOUS
 62
   130
 10
-335.132565106835
 20
77.3551933586618
 30
0.0
 11
-335.132558454005
 21
33.7551955035879
 31
0.0
  0
LINE
  5
   48B
  8
0
  6
CONTINUOUS
 62
   130
 10
-333.72080133733
 20
77.3551933586618
 30
0.0
 11
-333.7207946845
 21
33.7551955035879
 31
0.0
  0
LINE
  5
   48C
  8
0
  6
CONTINUOUS
 62
   130
 10
-330.89727379832
 20
77.3551933586618
 30
0.0
 11
-330.89726714549
 21
33.7551955035879
 31
0.0
  0
LINE
  5
   48D
  8
0
  6
CONTINUOUS
 62
   130
 10
-328.07374625931
 20
77.3551933586618
 30
0.0
 11
-328.07373960648
 21
33.7551955035879
 31
0.0
  0
LINE
  5
   48E
  8
0
  6
CONTINUOUS
 62
   130
 10
-325.2502187203
 20
77.3551933586618
 30
0.0
 11
-325.25021206747
 21
33.7551955035879
 31
0.0
  0
LINE
  5
   48F
  8
0
  6
CONTINUOUS
 62
   130
 10
-322.42669118129
 20
77.3551933586618
 30
0.0
 11
-322.426684528461
 21
33.7551955035879
 31
0.0
  0
LINE
  5
   490
  8
0
  6
CONTINUOUS
 62
   130
 10
-319.60316364228
 20
77.3551933586618
 30
0.0
 11
-319.603156989451
 21
33.7551955035879
 31
0.0
  0
LINE
  5
   491
  8
0
  6
CONTINUOUS
 62
   130
 10
-316.779636103271
 20
77.3551933586618
 30
0.0
 11
-316.779629450441
 21
33.7551955035879
 31
0.0
  0
LINE
  5
   492
  8
0
  6
CONTINUOUS
 62
   130
 10
-313.956108564261
 20
77.3551933586618
 30
0.0
 11
-313.956101911431
 21
33.7551955035879
 31
0.0
  0
LINE
  5
   493
  8
0
  6
CONTINUOUS
 62
   130
 10
-311.132581025251
 20
77.3551933586618
 30
0.0
 11
-311.132574372421
 21
33.7551955035879
 31
0.0
  0
LINE
  5
   494
  8
0
  6
CONTINUOUS
 62
   130
 10
-308.309053486241
 20
77.3551933586618
 30
0.0
 11
-308.309046833411
 21
33.7551955035879
 31
0.0
  0
LINE
  5
   495
  8
0
  6
CONTINUOUS
 62
   130
 10
-306.897289716736
 20
77.3551933586618
 30
0.0
 11
-306.897283063906
 21
33.7551955035879
 31
0.0
  0
LINE
  5
   496
  8
0
  6
CONTINUOUS
 62
   130
 10
-305.485525947231
 20
77.3551933586618
 30
0.0
 11
-305.485519294401
 21
33.7551955035879
 31
0.0
  0
LINE
  5
   497
  8
0
  6
CONTINUOUS
 62
   130
 10
-304.073762177726
 20
77.3551933586618
 30
0.0
 11
-304.073755524896
 21
33.7551955035879
 31
0.0
  0
LINE
  5
   498
  8
0
  6
CONTINUOUS
 62
   130
 10
-302.661998408221
 20
77.3551933586618
 30
0.0
 11
-302.661991755391
 21
33.7551955035879
 31
0.0
  0
LINE
  5
   499
  8
0
  6
CONTINUOUS
 62
   130
 10
-301.250234638716
 20
77.3551933586618
 30
0.0
 11
-301.250227985886
 21
33.7551955035879
 31
0.0
  0
LINE
  5
   49A
  8
0
  6
CONTINUOUS
 62
   130
 10
-299.838470869211
 20
77.3551933586618
 30
0.0
 11
-299.838464216381
 21
33.7551955035879
 31
0.0
  0
CIRCLE
  5
   49B
  8
0
  6
CONTINUOUS
 62
   130
 10
-309.014881281247
 20
44.5552050769346
 30
0.0
 40
2.00000002980232
  0
LINE
  5
   49C
  8
0
  6
CONTINUOUS
 62
   130
 10
-310.974473104674
 20
44.9552050828951
 30
0.0
 11
-307.055289457821
 21
44.9552050828951
 31
0.0
  0
LINE
  5
   49D
  8
0
  6
CONTINUOUS
 62
   130
 10
-310.974473104674
 20
44.1552050709741
 30
0.0
 11
-307.055289457821
 21
44.1552050709741
 31
0.0
  0
LINE
  5
   49E
  8
0
  6
DOT
 62
   130
 10
-309.414881287208
 20
46.5147969003614
 30
0.0
 11
-309.414881287208
 21
42.5956132535078
 31
0.0
  0
LINE
  5
   49F
  8
0
  6
DOT
 62
   130
 10
-308.614881275287
 20
46.5147969003614
 30
0.0
 11
-308.614881275287
 21
42.5956132535078
 31
0.0
  0
LINE
  5
   4A0
  8
0
  6
CONTINUOUS
 62
   130
 10
-332.309037567825
 20
77.3551933586618
 30
0.0
 11
-332.309030914995
 21
33.7551955035879
 31
0.0
  0
LINE
  5
   4A1
  8
0
  6
CONTINUOUS
 62
   130
 10
-329.485510028815
 20
77.3551933586618
 30
0.0
 11
-329.485503375985
 21
33.7551955035879
 31
0.0
  0
LINE
  5
   4A2
  8
0
  6
CONTINUOUS
 62
   130
 10
-326.661982489805
 20
77.3551933586618
 30
0.0
 11
-326.661975836975
 21
33.7551955035879
 31
0.0
  0
LINE
  5
   4A3
  8
0
  6
CONTINUOUS
 62
   130
 10
-323.838454950795
 20
77.3551933586618
 30
0.0
 11
-323.838448297965
 21
33.7551955035879
 31
0.0
  0
LINE
  5
   4A4
  8
0
  6
CONTINUOUS
 62
   130
 10
-321.014927411785
 20
77.3551933586618
 30
0.0
 11
-321.014920758956
 21
33.7551955035879
 31
0.0
  0
LINE
  5
   4A5
  8
0
  6
CONTINUOUS
 62
   130
 10
-318.191399872776
 20
77.3551933586618
 30
0.0
 11
-318.191393219946
 21
33.7551955035879
 31
0.0
  0
LINE
  5
   4A6
  8
0
  6
CONTINUOUS
 62
   130
 10
-315.367872333766
 20
77.3551933586618
 30
0.0
 11
-315.367865680936
 21
33.7551955035879
 31
0.0
  0
LINE
  5
   4A7
  8
0
  6
CONTINUOUS
 62
   130
 10
-312.544344794756
 20
77.3551933586618
 30
0.0
 11
-312.544338141926
 21
33.7551955035879
 31
0.0
  0
LINE
  5
   4A8
  8
0
  6
CONTINUOUS
 62
   130
 10
-309.720817255746
 20
77.3551933586618
 30
0.0
 11
-309.720810602916
 21
33.7551955035879
 31
0.0
  0
LINE
  5
   4A9
  8
0
  6
DOT
 62
   130
 10
-340.014881743183
 20
64.5552131950797
 30
0.0
 11
-326.014881534567
 21
64.5552131950797
 31
0.0
  0
LINE
  5
   4AA
  8
0
  6
CONTINUOUS
 62
   130
 10
-298.426707099708
 20
77.3552055656931
 30
0.0
 11
-298.426700446876
 21
33.7551955035886
 31
0.0
  0
LINE
  5
   4AB
  8
0
  6
DOT
 62
   130
 10
-326.014881534567
 20
64.5552131950797
 30
0.0
 11
-326.014881534567
 21
52.5552130162657
 31
0.0
  0
LINE
  5
   4AC
  8
0
  6
DOT
 62
   130
 10
-340.014881743183
 20
64.5552131950797
 30
0.0
 11
-340.014881743183
 21
52.5552130162657
 31
0.0
  0
LINE
  5
   4AD
  8
0
  6
DOT
 62
   130
 10
-340.014881743183
 20
52.5552130162657
 30
0.0
 11
-337.814881710401
 21
52.5552130162657
 31
0.0
  0
LINE
  5
   4AE
  8
0
  6
DOT
 62
   130
 10
-337.814881710401
 20
52.5552130162657
 30
0.0
 11
-337.814881710401
 21
48.9403301888766
 31
0.0
  0
LINE
  5
   4AF
  8
0
  6
DOT
 62
   130
 10
-328.21488156735
 20
52.5552130162657
 30
0.0
 11
-328.21488156735
 21
48.609648347105
 31
0.0
  0
LINE
  5
   4B0
  8
0
  6
DOT
 62
   130
 10
-328.21488156735
 20
52.5552130162657
 30
0.0
 11
-326.014881534567
 21
52.5552130162657
 31
0.0
  0
CIRCLE
  5
   4B1
  8
0
  6
DOT
 62
   130
 10
-333.014881638875
 20
57.1552130848111
 30
0.0
 40
3.40000005066395
  0
LINE
  5
   4B2
  8
0
  6
DOT
 62
   130
 10
-316.014881385555
 20
64.5552131950797
 30
0.0
 11
-302.014881176939
 21
64.5552131950797
 31
0.0
  0
LINE
  5
   4B3
  8
0
  6
DOT
 62
   130
 10
-302.014881176939
 20
64.5552131950797
 30
0.0
 11
-302.014881176939
 21
52.5552130162657
 31
0.0
  0
LINE
  5
   4B4
  8
0
  6
DOT
 62
   130
 10
-304.214881209722
 20
52.5552130162657
 30
0.0
 11
-302.014881176939
 21
52.5552130162657
 31
0.0
  0
LINE
  5
   4B5
  8
0
  6
DOT
 62
   130
 10
-304.214881209722
 20
52.5552130162657
 30
0.0
 11
-304.214881209722
 21
48.609648347105
 31
0.0
  0
CIRCLE
  5
   4B6
  8
0
  6
DOT
 62
   130
 10
-309.014881281247
 20
57.1552130848111
 30
0.0
 40
3.40000005066395
  0
LINE
  5
   4B7
  8
0
  6
DOT
 62
   130
 10
-316.014881385555
 20
64.5552131950797
 30
0.0
 11
-316.014881385555
 21
52.5552130162657
 31
0.0
  0
LINE
  5
   4B8
  8
0
  6
DOT
 62
   130
 10
-316.014881385555
 20
52.5552130162657
 30
0.0
 11
-313.814881352773
 21
52.5552130162657
 31
0.0
  0
LINE
  5
   4B9
  8
0
  6
DOT
 62
   130
 10
-313.814881352773
 20
52.5552130162657
 30
0.0
 11
-313.814881352773
 21
48.9403301888766
 31
0.0
  0
LINE
  5
   4BA
  8
0
  6
DOT
 62
   130
 10
-364.014882100811
 20
64.5552131950797
 30
0.0
 11
-350.014881892195
 21
64.5552131950797
 31
0.0
  0
LINE
  5
   4BB
  8
0
  6
DOT
 62
   130
 10
-364.014882100811
 20
64.5552131950797
 30
0.0
 11
-364.014882100811
 21
52.5552130162657
 31
0.0
  0
LINE
  5
   4BC
  8
0
  6
DOT
 62
   130
 10
-364.014882100811
 20
52.5552130162657
 30
0.0
 11
-361.814882068029
 21
52.5552130162657
 31
0.0
  0
CIRCLE
  5
   4BD
  8
0
  6
DOT
 62
   130
 10
-357.014881996503
 20
57.1552130848111
 30
0.0
 40
3.40000005066395
  0
LINE
  5
   4BE
  8
0
  6
DOT
 62
   130
 10
-352.214881924977
 20
52.5552130162657
 30
0.0
 11
-352.214881924977
 21
48.609648347105
 31
0.0
  0
LINE
  5
   4BF
  8
0
  6
DOT
 62
   130
 10
-352.214881924977
 20
52.5552130162657
 30
0.0
 11
-350.014881892195
 21
52.5552130162657
 31
0.0
  0
LINE
  5
   4C0
  8
0
  6
DOT
 62
   130
 10
-350.014881892195
 20
64.5552131950797
 30
0.0
 11
-350.014881892195
 21
52.5552130162657
 31
0.0
  0
LINE
  5
   4C1
  8
0
  6
DOT
 62
   130
 10
-361.814882068029
 20
52.5552130162657
 30
0.0
 11
-361.814882068029
 21
48.9403301888766
 31
0.0
  0
LINE
  5
   4C2
  8
0
  6
DASHDOT
 62
   130
 10
-357.014881996503
 20
68.5552132546843
 30
0.0
 11
-357.014881996503
 21
45.7552129149378
 31
0.0
  0
LINE
  5
   4C3
  8
0
  6
DASHDOT
 62
   130
 10
-368.414882166376
 20
57.1552130848111
 30
0.0
 11
-345.61488182663
 21
57.1552130848111
 31
0.0
  0
LINE
  5
   4C4
  8
0
  6
DASHDOT
 62
   130
 10
-333.014881638875
 20
68.5552132546843
 30
0.0
 11
-333.014881638875
 21
45.7552129149378
 31
0.0
  0
LINE
  5
   4C5
  8
0
  6
DASHDOT
 62
   130
 10
-344.414881808748
 20
57.1552130848111
 30
0.0
 11
-321.614881469002
 21
57.1552130848111
 31
0.0
  0
LINE
  5
   4C6
  8
0
  6
DASHDOT
 62
   130
 10
-309.014881281247
 20
68.5552132546843
 30
0.0
 11
-309.014881281247
 21
45.7552129149378
 31
0.0
  0
LINE
  5
   4C7
  8
0
  6
DASHDOT
 62
   130
 10
-320.414881451121
 20
57.1552130848111
 30
0.0
 11
-297.614881111374
 21
57.1552130848111
 31
0.0
  0
LINE
  5
   4C8
  8
0
  6
CONTINUOUS
 62
   130
 10
-369.014895574955
 20
77.3551933586618
 30
0.0
 11
-369.014888922125
 21
33.755195503588
 31
0.0
  0
LINE
  5
   4C9
  8
0
  6
CONTINUOUS
 62
   130
 10
-370.42665934446
 20
77.3551933586619
 30
0.0
 11
-370.42665269163
 21
33.755195503588
 31
0.0
  0
LINE
  5
   4CA
  8
0
  6
CONTINUOUS
 62
   130
 10
-371.838423113965
 20
77.3551933586619
 30
0.0
 11
-371.838416461135
 21
33.755195503588
 31
0.0
  0
LINE
  5
   4CB
  8
0
  6
CONTINUOUS
 62
   130
 10
-373.250182827864
 20
50.776370842242
 30
0.0
 11
-373.25018023064
 21
33.755195503588
 31
0.0
  0
LINE
  5
   4CC
  8
0
  6
CONTINUOUS
 62
   130
 10
-374.661946423395
 20
49.6362150362052
 30
0.0
 11
-374.661944000145
 21
33.755195503588
 31
0.0
  0
LINE
  5
   4CD
  8
0
  6
CONTINUOUS
 62
   130
 10
-376.07371014255
 20
49.3062358056899
 30
0.0
 11
-376.07370776965
 21
33.755195503588
 31
0.0
  0
LINE
  5
   4CE
  8
0
  6
CONTINUOUS
 62
   130
 10
-377.485473916733
 20
49.336896492074
 30
0.0
 11
-377.485471539155
 21
33.755195503588
 31
0.0
  0
LINE
  5
   4CF
  8
0
  6
CONTINUOUS
 62
   130
 10
-378.89723769536
 20
49.3966769998883
 30
0.0
 11
-378.89723530866
 21
33.755195503588
 31
0.0
  0
LINE
  5
   4D0
  8
0
  6
CONTINUOUS
 62
   130
 10
-380.309001463594
 20
49.3883448325151
 30
0.0
 11
-380.308999078165
 21
33.755195503588
 31
0.0
  0
LINE
  5
   4D1
  8
0
  6
CONTINUOUS
 62
   130
 10
-381.720765237556
 20
49.417558352717
 30
0.0
 11
-381.72076284767
 21
33.755195503588
 31
0.0
  0
LINE
  5
   4D2
  8
0
  6
CONTINUOUS
 62
   130
 10
-383.132529032211
 20
49.5823771809979
 30
0.0
 11
-383.132526617175
 21
33.7551955035881
 31
0.0
  0
LINE
  5
   4D3
  8
0
  6
CONTINUOUS
 62
   130
 10
-384.544292833999
 20
49.793952249018
 30
0.0
 11
-384.54429038668
 21
33.7551955035881
 31
0.0
  0
LINE
  5
   4D4
  8
0
  6
CONTINUOUS
 62
   130
 10
-385.956056602763
 20
49.7890922065412
 30
0.0
 11
-385.956054156185
 21
33.7551955035881
 31
0.0
  0
LINE
  5
   4D5
  8
0
  6
CONTINUOUS
 62
   130
 10
-387.367820308661
 20
49.3722352124969
 30
0.0
 11
-387.36781792569
 21
33.7551955035881
 31
0.0
  0
LINE
  5
   4D6
  8
0
  6
CONTINUOUS
 62
   130
 10
-388.779583967351
 20
48.6459989486822
 30
0.0
 11
-388.779581695195
 21
33.7551955035881
 31
0.0
  0
LINE
  5
   4D7
  8
0
  6
CONTINUOUS
 62
   130
 10
-390.191347627894
 20
47.931907055501
 30
0.0
 11
-390.1913454647
 21
33.7551955035881
 31
0.0
  0
LINE
  5
   4D8
  8
0
  6
CONTINUOUS
 62
   130
 10
-391.603111326754
 20
47.4689297805224
 30
0.0
 11
-391.603109234205
 21
33.7551955035881
 31
0.0
  0
LINE
  5
   4D9
  8
0
  6
CONTINUOUS
 62
   130
 10
-369.014888922125
 20
32.5551954857072
 30
0.0
 11
-369.014888922125
 21
26.1555778801497
 31
0.0
  0
LINE
  5
   4DA
  8
0
  6
CONTINUOUS
 62
   130
 10
-370.42665269163
 20
32.5551954857072
 30
0.0
 11
-370.42665269163
 21
26.1555778801497
 31
0.0
  0
LINE
  5
   4DB
  8
0
  6
CONTINUOUS
 62
   130
 10
-371.838416461135
 20
32.5551954857073
 30
0.0
 11
-371.838416461135
 21
26.1555778801497
 31
0.0
  0
LINE
  5
   4DC
  8
0
  6
CONTINUOUS
 62
   130
 10
-373.25018023064
 20
32.5551954857073
 30
0.0
 11
-373.25018023064
 21
26.1555778801497
 31
0.0
  0
LINE
  5
   4DD
  8
0
  6
CONTINUOUS
 62
   130
 10
-374.661944000145
 20
32.5551954857073
 30
0.0
 11
-374.661944000145
 21
26.1555778801497
 31
0.0
  0
LINE
  5
   4DE
  8
0
  6
CONTINUOUS
 62
   130
 10
-376.07370776965
 20
32.5551954857073
 30
0.0
 11
-376.07370776965
 21
26.1555778801497
 31
0.0
  0
LINE
  5
   4DF
  8
0
  6
CONTINUOUS
 62
   130
 10
-377.485471539155
 20
32.5551954857073
 30
0.0
 11
-377.485471539155
 21
26.1555778801497
 31
0.0
  0
LINE
  5
   4E0
  8
0
  6
CONTINUOUS
 62
   130
 10
-378.89723530866
 20
32.5551954857073
 30
0.0
 11
-378.89723530866
 21
26.1555778801497
 31
0.0
  0
LINE
  5
   4E1
  8
0
  6
CONTINUOUS
 62
   130
 10
-380.308999078165
 20
32.5551954857073
 30
0.0
 11
-380.308999078165
 21
26.1555778801497
 31
0.0
  0
LINE
  5
   4E2
  8
0
  6
CONTINUOUS
 62
   130
 10
-381.72076284767
 20
32.5551954857073
 30
0.0
 11
-381.72076284767
 21
26.1555778801497
 31
0.0
  0
LINE
  5
   4E3
  8
0
  6
CONTINUOUS
 62
   130
 10
-383.132526617175
 20
32.5551954857073
 30
0.0
 11
-383.132526617175
 21
26.1555778801497
 31
0.0
  0
LINE
  5
   4E4
  8
0
  6
CONTINUOUS
 62
   130
 10
-384.54429038668
 20
32.5551954857074
 30
0.0
 11
-384.54429038668
 21
26.1555778801497
 31
0.0
  0
LINE
  5
   4E5
  8
0
  6
CONTINUOUS
 62
   130
 10
-385.956054156185
 20
32.5551954857074
 30
0.0
 11
-385.956054156185
 21
26.1555778801497
 31
0.0
  0
LINE
  5
   4E6
  8
0
  6
CONTINUOUS
 62
   130
 10
-387.36781792569
 20
32.5551954857074
 30
0.0
 11
-387.36781792569
 21
26.1555778801497
 31
0.0
  0
LINE
  5
   4E7
  8
0
  6
CONTINUOUS
 62
   130
 10
-388.779581695195
 20
32.5551954857074
 30
0.0
 11
-388.779581695195
 21
26.1555778801497
 31
0.0
  0
LINE
  5
   4E8
  8
0
  6
CONTINUOUS
 62
   130
 10
-390.1913454647
 20
32.5551954857074
 30
0.0
 11
-390.1913454647
 21
26.1555778801497
 31
0.0
  0
LINE
  5
   4E9
  8
0
  6
CONTINUOUS
 62
   130
 10
-391.603109234205
 20
32.5551954857074
 30
0.0
 11
-391.603109234205
 21
26.1555778801497
 31
0.0
  0
LINE
  5
   4EA
  8
0
  6
CONTINUOUS
 62
   130
 10
-385.814882425656
 20
52.5552130162657
 30
0.0
 11
-385.814882425656
 21
49.8068699459239
 31
0.0
  0
LINE
  5
   4EB
  8
0
  6
CONTINUOUS
 62
   130
 10
-388.014882458439
 20
52.5552130162657
 30
0.0
 11
-385.814882425656
 21
52.5552130162657
 31
0.0
  0
LINE
  5
   4EC
  8
0
  6
CONTINUOUS
 62
   130
 10
-388.014882458439
 20
64.5552131950797
 30
0.0
 11
-388.014882458439
 21
52.5552130162657
 31
0.0
  0
LINE
  5
   4ED
  8
0
  6
CONTINUOUS
 62
   130
 10
-388.014882458439
 20
64.5552131950797
 30
0.0
 11
-374.014882249823
 21
64.5552131950797
 31
0.0
  0
CIRCLE
  5
   4EE
  8
0
  6
CONTINUOUS
 62
   130
 10
-381.014882354131
 20
57.1552130848111
 30
0.0
 40
3.40000005066395
  0
LINE
  5
   4EF
  8
0
  6
CONTINUOUS
 62
   130
 10
-374.014882249823
 20
64.5552131950797
 30
0.0
 11
-374.014882249823
 21
52.5552130162657
 31
0.0
  0
LINE
  5
   4F0
  8
0
  6
CONTINUOUS
 62
   130
 10
-376.214882282605
 20
52.5552130162657
 30
0.0
 11
-374.014882249823
 21
52.5552130162657
 31
0.0
  0
LINE
  5
   4F1
  8
0
  6
CONTINUOUS
 62
   130
 10
-376.214882282605
 20
52.5552130162657
 30
0.0
 11
-376.214882282605
 21
49.2991431362643
 31
0.0
  0
LINE
  5
   4F2
  8
0
  6
DASHDOT
 62
   130
 10
-381.014882354131
 20
68.5552132546843
 30
0.0
 11
-381.014882354131
 21
45.7552129149378
 31
0.0
  0
LINE
  5
   4F3
  8
0
  6
DASHDOT
 62
   130
 10
-392.414882524004
 20
57.1552130848111
 30
0.0
 11
-369.614882184258
 21
57.1552130848111
 31
0.0
  0
POLYLINE
  5
   4F4
  8
0
  6
CONTINUOUS
 62
   130
 66
     1
 10
0.0
 20
0.0
 30
0.0
  0
VERTEX
  5
   4F5
  8
0
  6
CONTINUOUS
 10
-373.793335595759
 20
77.1108264908678
 30
0.0
 40
0.0
 41
0.0
  0
VERTEX
  5
   4F6
  8
0
  6
CONTINUOUS
 10
-373.821585513764
 20
76.9101678533769
 30
0.0
 40
0.0
 41
0.0
  0
VERTEX
  5
   4F7
  8
0
  6
CONTINUOUS
 10
-373.847724414466
 20
76.7097513975363
 30
0.0
 40
0.0
 41
0.0
  0
VERTEX
  5
   4F8
  8
0
  6
CONTINUOUS
 10
-373.871752365292
 20
76.5095770751873
 30
0.0
 40
0.0
 41
0.0
  0
VERTEX
  5
   4F9
  8
0
  6
CONTINUOUS
 10
-373.893669541559
 20
76.3096447611171
 30
0.0
 40
0.0
 41
0.0
  0
VERTEX
  5
   4FA
  8
0
  6
CONTINUOUS
 10
-373.913476280414
 20
76.1099542145318
 30
0.0
 40
0.0
 41
0.0
  0
VERTEX
  5
   4FB
  8
0
  6
CONTINUOUS
 10
-373.931173134776
 20
75.9105050405295
 30
0.0
 40
0.0
 41
0.0
  0
VERTEX
  5
   4FC
  8
0
  6
CONTINUOUS
 10
-373.946760927281
 20
75.7112966515731
 30
0.0
 40
0.0
 41
0.0
  0
VERTEX
  5
   4FD
  8
0
  6
CONTINUOUS
 10
-373.960240804226
 20
75.5123282289635
 30
0.0
 40
0.0
 41
0.0
  0
VERTEX
  5
   4FE
  8
0
  6
CONTINUOUS
 10
-373.971614289512
 20
75.3135986843123
 30
0.0
 40
0.0
 41
0.0
  0
VERTEX
  5
   4FF
  8
0
  6
CONTINUOUS
 10
-373.980883338586
 20
75.1151066210152
 30
0.0
 40
0.0
 41
0.0
  0
VERTEX
  5
   500
  8
0
  6
CONTINUOUS
 10
-373.988050392386
 20
74.9168502957246
 30
0.0
 40
0.0
 41
0.0
  0
VERTEX
  5
   501
  8
0
  6
CONTINUOUS
 10
-373.993118431284
 20
74.7188275798225
 30
0.0
 40
0.0
 41
0.0
  0
VERTEX
  5
   502
  8
0
  6
CONTINUOUS
 10
-373.996091029028
 20
74.5210359208941
 30
0.0
 40
0.0
 41
0.0
  0
VERTEX
  5
   503
  8
0
  6
CONTINUOUS
 10
-373.996972406688
 20
74.3234723042001
 30
0.0
 40
0.0
 41
0.0
  0
VERTEX
  5
   504
  8
0
  6
CONTINUOUS
 10
-373.995767486596
 20
74.12613321415
 30
0.0
 40
0.0
 41
0.0
  0
VERTEX
  5
   505
  8
0
  6
CONTINUOUS
 10
-373.992481946295
 20
73.9290145957751
 30
0.0
 40
0.0
 41
0.0
  0
VERTEX
  5
   506
  8
0
  6
CONTINUOUS
 10
-373.987122272475
 20
73.7321118162012
 30
0.0
 40
0.0
 41
0.0
  0
VERTEX
  5
   507
  8
0
  6
CONTINUOUS
 10
-373.979695814921
 20
73.5354196261222
 30
0.0
 40
0.0
 41
0.0
  0
VERTEX
  5
   508
  8
0
  6
CONTINUOUS
 10
-373.970210840455
 20
73.3389321212722
 30
0.0
 40
0.0
 41
0.0
  0
VERTEX
  5
   509
  8
0
  6
CONTINUOUS
 10
-373.958676586883
 20
73.1426427038993
 30
0.0
 40
0.0
 41
0.0
  0
VERTEX
  5
   50A
  8
0
  6
CONTINUOUS
 10
-373.937136821712
 20
72.8433144346613
 30
0.0
 40
0.0
 41
0.0
  0
VERTEX
  5
   50B
  8
0
  6
CONTINUOUS
 10
-373.91088632329
 20
72.5444012563122
 30
0.0
 40
0.0
 41
0.0
  0
VERTEX
  5
   50C
  8
0
  6
CONTINUOUS
 10
-373.87997633355
 20
72.245870127431
 30
0.0
 40
0.0
 41
0.0
  0
VERTEX
  5
   50D
  8
0
  6
CONTINUOUS
 10
-373.844470436946
 20
71.9476848813252
 30
0.0
 40
0.0
 41
0.0
  0
VERTEX
  5
   50E
  8
0
  6
CONTINUOUS
 10
-373.804447800412
 20
71.6498067569649
 30
0.0
 40
0.0
 41
0.0
  0
VERTEX
  5
   50F
  8
0
  6
CONTINUOUS
 10
-373.760006413328
 20
71.3521949299162
 30
0.0
 40
0.0
 41
0.0
  0
VERTEX
  5
   510
  8
0
  6
CONTINUOUS
 10
-373.711266327482
 20
71.0548070432749
 30
0.0
 40
0.0
 41
0.0
  0
VERTEX
  5
   511
  8
0
  6
CONTINUOUS
 10
-373.658372897025
 20
70.7575997386
 30
0.0
 40
0.0
 41
0.0
  0
VERTEX
  5
   512
  8
0
  6
CONTINUOUS
 10
-373.601500018441
 20
70.4605291868469
 30
0.0
 40
0.0
 41
0.0
  0
VERTEX
  5
   513
  8
0
  6
CONTINUOUS
 10
-373.540853370505
 20
70.1635516193019
 30
0.0
 40
0.0
 41
0.0
  0
VERTEX
  5
   514
  8
0
  6
CONTINUOUS
 10
-373.476673654245
 20
69.8666238585149
 30
0.0
 40
0.0
 41
0.0
  0
VERTEX
  5
   515
  8
0
  6
CONTINUOUS
 10
-373.409239832902
 20
69.5697038492333
 30
0.0
 40
0.0
 41
0.0
  0
VERTEX
  5
   516
  8
0
  6
CONTINUOUS
 10
-373.338872371897
 20
69.2727511893357
 30
0.0
 40
0.0
 41
0.0
  0
VERTEX
  5
   517
  8
0
  6
CONTINUOUS
 10
-373.265936478787
 20
68.9757276607653
 30
0.0
 40
0.0
 41
0.0
  0
VERTEX
  5
   518
  8
0
  6
CONTINUOUS
 10
-373.190845343232
 20
68.6785977604636
 30
0.0
 40
0.0
 41
0.0
  0
VERTEX
  5
   519
  8
0
  6
CONTINUOUS
 10
-373.11406337695
 20
68.381329231304
 30
0.0
 40
0.0
 41
0.0
  0
VERTEX
  5
   51A
  8
0
  6
CONTINUOUS
 10
-372.801289649017
 20
67.1903670234465
 30
0.0
 40
0.0
 41
0.0
  0
VERTEX
  5
   51B
  8
0
  6
CONTINUOUS
 10
-372.723376081905
 20
66.885472529973
 30
0.0
 40
0.0
 41
0.0
  0
VERTEX
  5
   51C
  8
0
  6
CONTINUOUS
 10
-372.647934854783
 20
66.5803330828898
 30
0.0
 40
0.0
 41
0.0
  0
VERTEX
  5
   51D
  8
0
  6
CONTINUOUS
 10
-372.575913475371
 20
66.2749532765509
 30
0.0
 40
0.0
 41
0.0
  0
VERTEX
  5
   51E
  8
0
  6
CONTINUOUS
 10
-372.50829445073
 20
65.9693437379461
 30
0.0
 40
0.0
 41
0.0
  0
VERTEX
  5
   51F
  8
0
  6
CONTINUOUS
 10
-372.44607422529
 20
65.663520633196
 30
0.0
 40
0.0
 41
0.0
  0
VERTEX
  5
   520
  8
0
  6
CONTINUOUS
 10
-372.417298678933
 20
65.5105354385869
 30
0.0
 40
0.0
 41
0.0
  0
VERTEX
  5
   521
  8
0
  6
CONTINUOUS
 10
-372.390242118873
 20
65.3575051740473
 30
0.0
 40
0.0
 41
0.0
  0
VERTEX
  5
   522
  8
0
  6
CONTINUOUS
 10
-372.365023641386
 20
65.2044331984592
 30
0.0
 40
0.0
 41
0.0
  0
VERTEX
  5
   523
  8
0
  6
CONTINUOUS
 10
-372.341759264717
 20
65.0513231243677
 30
0.0
 40
0.0
 41
0.0
  0
VERTEX
  5
   524
  8
0
  6
CONTINUOUS
 10
-372.320561270885
 20
64.8981788025596
 30
0.0
 40
0.0
 41
0.0
  0
VERTEX
  5
   525
  8
0
  6
CONTINUOUS
 10
-372.301537547503
 20
64.745004306641
 30
0.0
 40
0.0
 41
0.0
  0
VERTEX
  5
   526
  8
0
  6
CONTINUOUS
 10
-372.284790929591
 20
64.5918039176154
 30
0.0
 40
0.0
 41
0.0
  0
VERTEX
  5
   527
  8
0
  6
CONTINUOUS
 10
-372.270418541382
 20
64.438582108462
 30
0.0
 40
0.0
 41
0.0
  0
VERTEX
  5
   528
  8
0
  6
CONTINUOUS
 10
-372.258511138145
 20
64.2853435287131
 30
0.0
 40
0.0
 41
0.0
  0
VERTEX
  5
   529
  8
0
  6
CONTINUOUS
 10
-372.249152447992
 20
64.1320929890323
 30
0.0
 40
0.0
 41
0.0
  0
VERTEX
  5
   52A
  8
0
  6
CONTINUOUS
 10
-372.242418513694
 20
63.9788354457926
 30
0.0
 40
0.0
 41
0.0
  0
VERTEX
  5
   52B
  8
0
  6
CONTINUOUS
 10
-372.238377034492
 20
63.8255759856543
 30
0.0
 40
0.0
 41
0.0
  0
VERTEX
  5
   52C
  8
0
  6
CONTINUOUS
 10
-372.237086707912
 20
63.672319810143
 30
0.0
 40
0.0
 41
0.0
  0
VERTEX
  5
   52D
  8
0
  6
CONTINUOUS
 10
-372.23859657158
 20
63.5190722202273
 30
0.0
 40
0.0
 41
0.0
  0
VERTEX
  5
   52E
  8
0
  6
CONTINUOUS
 10
-372.24294534503
 20
63.3658386008972
 30
0.0
 40
0.0
 41
0.0
  0
VERTEX
  5
   52F
  8
0
  6
CONTINUOUS
 10
-372.250160771523
 20
63.2126244057419
 30
0.0
 40
0.0
 41
0.0
  0
VERTEX
  5
   530
  8
0
  6
CONTINUOUS
 10
-372.260258959856
 20
63.0594351415274
 30
0.0
 40
0.0
 41
0.0
  0
VERTEX
  5
   531
  8
0
  6
CONTINUOUS
 10
-372.273243726178
 20
62.9062763527752
 30
0.0
 40
0.0
 41
0.0
  0
VERTEX
  5
   532
  8
0
  6
CONTINUOUS
 10
-372.289105935802
 20
62.7531536063397
 30
0.0
 40
0.0
 41
0.0
  0
VERTEX
  5
   533
  8
0
  6
CONTINUOUS
 10
-372.307822845019
 20
62.6000724759864
 30
0.0
 40
0.0
 41
0.0
  0
VERTEX
  5
   534
  8
0
  6
CONTINUOUS
 10
-372.329357442911
 20
62.4470385269696
 30
0.0
 40
0.0
 41
0.0
  0
VERTEX
  5
   535
  8
0
  6
CONTINUOUS
 10
-372.353657793162
 20
62.294057300611
 30
0.0
 40
0.0
 41
0.0
  0
VERTEX
  5
   536
  8
0
  6
CONTINUOUS
 10
-372.380656375876
 20
62.1411342988769
 30
0.0
 40
0.0
 41
0.0
  0
VERTEX
  5
   537
  8
0
  6
CONTINUOUS
 10
-372.410269429387
 20
61.9882749689566
 30
0.0
 40
0.0
 41
0.0
  0
VERTEX
  5
   538
  8
0
  6
CONTINUOUS
 10
-372.442396292073
 20
61.8354846878406
 30
0.0
 40
0.0
 41
0.0
  0
VERTEX
  5
   539
  8
0
  6
CONTINUOUS
 10
-372.476918744168
 20
61.6827687468978
 30
0.0
 40
0.0
 41
0.0
  0
VERTEX
  5
   53A
  8
0
  6
CONTINUOUS
 10
-372.513700349579
 20
61.5301323364544
 30
0.0
 40
0.0
 41
0.0
  0
VERTEX
  5
   53B
  8
0
  6
CONTINUOUS
 10
-372.552585797694
 20
61.3775805303711
 30
0.0
 40
0.0
 41
0.0
  0
VERTEX
  5
   53C
  8
0
  6
CONTINUOUS
 10
-372.5934002452
 20
61.2251182706215
 30
0.0
 40
0.0
 41
0.0
  0
VERTEX
  5
   53D
  8
0
  6
CONTINUOUS
 10
-372.635948657893
 20
61.07275035187
 30
0.0
 40
0.0
 41
0.0
  0
VERTEX
  5
   53E
  8
0
  6
CONTINUOUS
 10
-372.691672663258
 20
60.8809748720013
 30
0.0
 40
0.0
 41
0.0
  0
VERTEX
  5
   53F
  8
0
  6
CONTINUOUS
 10
-372.749325841633
 20
60.6893652012778
 30
0.0
 40
0.0
 41
0.0
  0
VERTEX
  5
   540
  8
0
  6
CONTINUOUS
 10
-372.988239130379
 20
59.9247318100799
 30
0.0
 40
0.0
 41
0.0
  0
VERTEX
  5
   541
  8
0
  6
CONTINUOUS
 10
-373.104240660061
 20
59.5435664029495
 30
0.0
 40
0.0
 41
0.0
  0
VERTEX
  5
   542
  8
0
  6
CONTINUOUS
 10
-373.1591858199
 20
59.3532768572728
 30
0.0
 40
0.0
 41
0.0
  0
VERTEX
  5
   543
  8
0
  6
CONTINUOUS
 10
-373.211266353088
 20
59.1631792005769
 30
0.0
 40
0.0
 41
0.0
  0
VERTEX
  5
   544
  8
0
  6
CONTINUOUS
 10
-373.259883367425
 20
58.9732676252221
 30
0.0
 40
0.0
 41
0.0
  0
VERTEX
  5
   545
  8
0
  6
CONTINUOUS
 10
-373.304465148229
 20
58.7835335252326
 30
0.0
 40
0.0
 41
0.0
  0
VERTEX
  5
   546
  8
0
  6
CONTINUOUS
 10
-373.344475289402
 20
58.5939652613035
 30
0.0
 40
0.0
 41
0.0
  0
VERTEX
  5
   547
  8
0
  6
CONTINUOUS
 10
-373.379420824502
 20
58.4045479258077
 30
0.0
 40
0.0
 41
0.0
  0
VERTEX
  5
   548
  8
0
  6
CONTINUOUS
 10
-373.408860357817
 20
58.2152631078032
 30
0.0
 40
0.0
 41
0.0
  0
VERTEX
  5
   549
  8
0
  6
CONTINUOUS
 10
-373.432412195433
 20
58.0260886580402
 30
0.0
 40
0.0
 41
0.0
  0
VERTEX
  5
   54A
  8
0
  6
CONTINUOUS
 10
-373.449762476303
 20
57.836998453968
 30
0.0
 40
0.0
 41
0.0
  0
VERTEX
  5
   54B
  8
0
  6
CONTINUOUS
 10
-373.456034500438
 20
57.7424756364892
 30
0.0
 40
0.0
 41
0.0
  0
VERTEX
  5
   54C
  8
0
  6
CONTINUOUS
 10
-373.460673303323
 20
57.6479621647422
 30
0.0
 40
0.0
 41
0.0
  0
VERTEX
  5
   54D
  8
0
  6
CONTINUOUS
 10
-373.463662351189
 20
57.5534535512721
 30
0.0
 40
0.0
 41
0.0
  0
VERTEX
  5
   54E
  8
0
  6
CONTINUOUS
 10
-373.464990874397
 20
57.4589450162315
 30
0.0
 40
0.0
 41
0.0
  0
VERTEX
  5
   54F
  8
0
  6
CONTINUOUS
 10
-373.464654121535
 20
57.3644314800368
 30
0.0
 40
0.0
 41
0.0
  0
VERTEX
  5
   550
  8
0
  6
CONTINUOUS
 10
-373.462653613512
 20
57.2699075560252
 30
0.0
 40
0.0
 41
0.0
  0
VERTEX
  5
   551
  8
0
  6
CONTINUOUS
 10
-373.456743428232
 20
57.1315123244805
 30
0.0
 40
0.0
 41
0.0
  0
VERTEX
  5
   552
  8
0
  6
CONTINUOUS
 10
-373.447337744575
 20
56.993063520367
 30
0.0
 40
0.0
 41
0.0
  0
VERTEX
  5
   553
  8
0
  6
CONTINUOUS
 10
-373.434516945526
 20
56.854540978737
 30
0.0
 40
0.0
 41
0.0
  0
VERTEX
  5
   554
  8
0
  6
CONTINUOUS
 10
-373.418389363135
 20
56.7159237477354
 30
0.0
 40
0.0
 41
0.0
  0
VERTEX
  5
   555
  8
0
  6
CONTINUOUS
 10
-373.399089687473
 20
56.5771904338048
 30
0.0
 40
0.0
 41
0.0
  0
VERTEX
  5
   556
  8
0
  6
CONTINUOUS
 10
-373.376777375597
 20
56.4383195468896
 30
0.0
 40
0.0
 41
0.0
  0
VERTEX
  5
   557
  8
0
  6
CONTINUOUS
 10
-373.35163506051
 20
56.2992898456403
 30
0.0
 40
0.0
 41
0.0
  0
VERTEX
  5
   558
  8
0
  6
CONTINUOUS
 10
-373.32386696012
 20
56.1600806826182
 30
0.0
 40
0.0
 41
0.0
  0
VERTEX
  5
   559
  8
0
  6
CONTINUOUS
 10
-373.293697286201
 20
56.0206723495
 30
0.0
 40
0.0
 41
0.0
  0
VERTEX
  5
   55A
  8
0
  6
CONTINUOUS
 10
-373.261368653356
 20
55.8810464222818
 30
0.0
 40
0.0
 41
0.0
  0
VERTEX
  5
   55B
  8
0
  6
CONTINUOUS
 10
-373.191287437195
 20
55.6010765823548
 30
0.0
 40
0.0
 41
0.0
  0
VERTEX
  5
   55C
  8
0
  6
CONTINUOUS
 10
-373.115871825506
 20
55.3200625749678
 30
0.0
 40
0.0
 41
0.0
  0
VERTEX
  5
   55D
  8
0
  6
CONTINUOUS
 10
-372.958943651358
 20
54.7546919638723
 30
0.0
 40
0.0
 41
0.0
  0
VERTEX
  5
   55E
  8
0
  6
CONTINUOUS
 10
-372.882687557203
 20
54.4703755815876
 30
0.0
 40
0.0
 41
0.0
  0
VERTEX
  5
   55F
  8
0
  6
CONTINUOUS
 10
-372.846293518151
 20
54.3278530000796
 30
0.0
 40
0.0
 41
0.0
  0
VERTEX
  5
   560
  8
0
  6
CONTINUOUS
 10
-372.811508177612
 20
54.185117567775
 30
0.0
 40
0.0
 41
0.0
  0
VERTEX
  5
   561
  8
0
  6
CONTINUOUS
 10
-372.778668602367
 20
54.0421989704296
 30
0.0
 40
0.0
 41
0.0
  0
VERTEX
  5
   562
  8
0
  6
CONTINUOUS
 10
-372.748107987471
 20
53.8991330109814
 30
0.0
 40
0.0
 41
0.0
  0
VERTEX
  5
   563
  8
0
  6
CONTINUOUS
 10
-372.720154065216
 20
53.7559619547544
 30
0.0
 40
0.0
 41
0.0
  0
VERTEX
  5
   564
  8
0
  6
CONTINUOUS
 10
-372.695127514093
 20
53.6127348746637
 30
0.0
 40
0.0
 41
0.0
  0
VERTEX
  5
   565
  8
0
  6
CONTINUOUS
 10
-372.673340367754
 20
53.4695079964194
 30
0.0
 40
0.0
 41
0.0
  0
VERTEX
  5
   566
  8
0
  6
CONTINUOUS
 10
-372.655094423966
 20
53.3263450437314
 30
0.0
 40
0.0
 41
0.0
  0
VERTEX
  5
   567
  8
0
  6
CONTINUOUS
 10
-372.64067965358
 20
53.1833175835135
 30
0.0
 40
0.0
 41
0.0
  0
VERTEX
  5
   568
  8
0
  6
CONTINUOUS
 10
-372.630372609486
 20
53.0405053710884
 30
0.0
 40
0.0
 41
0.0
  0
VERTEX
  5
   569
  8
0
  6
CONTINUOUS
 10
-372.624434835576
 20
52.8979966953916
 30
0.0
 40
0.0
 41
0.0
  0
VERTEX
  5
   56A
  8
0
  6
CONTINUOUS
 10
-372.623111275704
 20
52.755888724176
 30
0.0
 40
0.0
 41
0.0
  0
VERTEX
  5
   56B
  8
0
  6
CONTINUOUS
 10
-372.626628682648
 20
52.6142878492166
 30
0.0
 40
0.0
 41
0.0
  0
VERTEX
  5
   56C
  8
0
  6
CONTINUOUS
 10
-372.635194027069
 20
52.4733100315147
 30
0.0
 40
0.0
 41
0.0
  0
VERTEX
  5
   56D
  8
0
  6
CONTINUOUS
 10
-372.64899290647
 20
52.3330811465022
 30
0.0
 40
0.0
 41
0.0
  0
VERTEX
  5
   56E
  8
0
  6
CONTINUOUS
 10
-372.668187954163
 20
52.1937373292464
 30
0.0
 40
0.0
 41
0.0
  0
VERTEX
  5
   56F
  8
0
  6
CONTINUOUS
 10
-372.692917248223
 20
52.0554253196544
 30
0.0
 40
0.0
 41
0.0
  0
VERTEX
  5
   570
  8
0
  6
CONTINUOUS
 10
-372.723292720451
 20
51.9183028076774
 30
0.0
 40
0.0
 41
0.0
  0
VERTEX
  5
   571
  8
0
  6
CONTINUOUS
 10
-372.759398565337
 20
51.7825387785149
 30
0.0
 40
0.0
 41
0.0
  0
VERTEX
  5
   572
  8
0
  6
CONTINUOUS
 10
-372.801289649017
 20
51.6483138578198
 30
0.0
 40
0.0
 41
0.0
  0
VERTEX
  5
   573
  8
0
  6
CONTINUOUS
 10
-372.833770564181
 20
51.556184176883
 30
0.0
 40
0.0
 41
0.0
  0
VERTEX
  5
   574
  8
0
  6
CONTINUOUS
 10
-372.869048073692
 20
51.4649557185461
 30
0.0
 40
0.0
 41
0.0
  0
VERTEX
  5
   575
  8
0
  6
CONTINUOUS
 10
-372.907113970331
 20
51.3746987200789
 30
0.0
 40
0.0
 41
0.0
  0
VERTEX
  5
   576
  8
0
  6
CONTINUOUS
 10
-372.947953142004
 20
51.285485592736
 30
0.0
 40
0.0
 41
0.0
  0
VERTEX
  5
   577
  8
0
  6
CONTINUOUS
 10
-372.991543887365
 20
51.1973905795655
 30
0.0
 40
0.0
 41
0.0
  0
VERTEX
  5
   578
  8
0
  6
CONTINUOUS
 10
-373.037858231439
 20
51.1104894132168
 30
0.0
 40
0.0
 41
0.0
  0
VERTEX
  5
   579
  8
0
  6
CONTINUOUS
 10
-373.08686224124
 20
51.0248589737489
 30
0.0
 40
0.0
 41
0.0
  0
VERTEX
  5
   57A
  8
0
  6
CONTINUOUS
 10
-373.138516341395
 20
50.9405769464383
 30
0.0
 40
0.0
 41
0.0
  0
VERTEX
  5
   57B
  8
0
  6
CONTINUOUS
 10
-373.192775629763
 20
50.8577214795874
 30
0.0
 40
0.0
 41
0.0
  0
VERTEX
  5
   57C
  8
0
  6
CONTINUOUS
 10
-373.249590193058
 20
50.7763708423324
 30
0.0
 40
0.0
 41
0.0
  0
VERTEX
  5
   57D
  8
0
  6
CONTINUOUS
 10
-373.308905422472
 20
50.6966030824517
 30
0.0
 40
0.0
 41
0.0
  0
VERTEX
  5
   57E
  8
0
  6
CONTINUOUS
 10
-373.370662329291
 20
50.6184956841734
 30
0.0
 40
0.0
 41
0.0
  0
VERTEX
  5
   57F
  8
0
  6
CONTINUOUS
 10
-373.434797860522
 20
50.5421252259843
 30
0.0
 40
0.0
 41
0.0
  0
VERTEX
  5
   580
  8
0
  6
CONTINUOUS
 10
-373.501245214509
 20
50.4675670384373
 30
0.0
 40
0.0
 41
0.0
  0
VERTEX
  5
   581
  8
0
  6
CONTINUOUS
 10
-373.56993415656
 20
50.39489486196
 30
0.0
 40
0.0
 41
0.0
  0
VERTEX
  5
   582
  8
0
  6
CONTINUOUS
 10
-373.640791334565
 20
50.3241805046624
 30
0.0
 40
0.0
 41
0.0
  0
VERTEX
  5
   583
  8
0
  6
CONTINUOUS
 10
-373.713740594616
 20
50.2554935001455
 30
0.0
 40
0.0
 41
0.0
  0
VERTEX
  5
   584
  8
0
  6
CONTINUOUS
 10
-373.788703296631
 20
50.188900765309
 30
0.0
 40
0.0
 41
0.0
  0
VERTEX
  5
   585
  8
0
  6
CONTINUOUS
 10
-373.865598629976
 20
50.1244662581594
 30
0.0
 40
0.0
 41
0.0
  0
VERTEX
  5
   586
  8
0
  6
CONTINUOUS
 10
-373.944343929081
 20
50.0622506356189
 30
0.0
 40
0.0
 41
0.0
  0
VERTEX
  5
   587
  8
0
  6
CONTINUOUS
 10
-374.024854989069
 20
50.0023109113323
 30
0.0
 40
0.0
 41
0.0
  0
VERTEX
  5
   588
  8
0
  6
CONTINUOUS
 10
-374.107046381371
 20
49.9447001134761
 30
0.0
 40
0.0
 41
0.0
  0
VERTEX
  5
   589
  8
0
  6
CONTINUOUS
 10
-374.190831769349
 20
49.8894669425663
 30
0.0
 40
0.0
 41
0.0
  0
VERTEX
  5
   58A
  8
0
  6
CONTINUOUS
 10
-374.276124223921
 20
49.8366554292663
 30
0.0
 40
0.0
 41
0.0
  0
VERTEX
  5
   58B
  8
0
  6
CONTINUOUS
 10
-374.362836539176
 20
49.7863045921954
 30
0.0
 40
0.0
 41
0.0
  0
VERTEX
  5
   58C
  8
0
  6
CONTINUOUS
 10
-374.450881548001
 20
49.7384480957367
 30
0.0
 40
0.0
 41
0.0
  0
VERTEX
  5
   58D
  8
0
  6
CONTINUOUS
 10
-374.540172437698
 20
49.6931139078452
 30
0.0
 40
0.0
 41
0.0
  0
VERTEX
  5
   58E
  8
0
  6
CONTINUOUS
 10
-374.630623065607
 20
49.6503239578562
 30
0.0
 40
0.0
 41
0.0
  0
VERTEX
  5
   58F
  8
0
  6
CONTINUOUS
 10
-374.72214827473
 20
49.6100937942929
 30
0.0
 40
0.0
 41
0.0
  0
VERTEX
  5
   590
  8
0
  6
CONTINUOUS
 10
-374.814664209348
 20
49.5724322426752
 30
0.0
 40
0.0
 41
0.0
  0
VERTEX
  5
   591
  8
0
  6
CONTINUOUS
 10
-374.908088630643
 20
49.5373410633272
 30
0.0
 40
0.0
 41
0.0
  0
VERTEX
  5
   592
  8
0
  6
CONTINUOUS
 10
-375.002341232324
 20
49.5048146091857
 30
0.0
 40
0.0
 41
0.0
  0
VERTEX
  5
   593
  8
0
  6
CONTINUOUS
 10
-375.09734395624
 20
49.4748394836082
 30
0.0
 40
0.0
 41
0.0
  0
VERTEX
  5
   594
  8
0
  6
CONTINUOUS
 10
-375.193021308011
 20
49.447394198181
 30
0.0
 40
0.0
 41
0.0
  0
VERTEX
  5
   595
  8
0
  6
CONTINUOUS
 10
-375.28930067264
 20
49.4224488305274
 30
0.0
 40
0.0
 41
0.0
  0
VERTEX
  5
   596
  8
0
  6
CONTINUOUS
 10
-375.386112630142
 20
49.3999646821157
 30
0.0
 40
0.0
 41
0.0
  0
VERTEX
  5
   597
  8
0
  6
CONTINUOUS
 10
-375.48339127116
 20
49.3798939360675
 30
0.0
 40
0.0
 41
0.0
  0
VERTEX
  5
   598
  8
0
  6
CONTINUOUS
 10
-375.581074512589
 20
49.3621793149657
 30
0.0
 40
0.0
 41
0.0
  0
VERTEX
  5
   599
  8
0
  6
CONTINUOUS
 10
-375.679104413196
 20
49.3467537386626
 30
0.0
 40
0.0
 41
0.0
  0
VERTEX
  5
   59A
  8
0
  6
CONTINUOUS
 10
-375.777427489244
 20
49.3335399820881
 30
0.0
 40
0.0
 41
0.0
  0
VERTEX
  5
   59B
  8
0
  6
CONTINUOUS
 10
-375.941915801465
 20
49.3161808576469
 30
0.0
 40
0.0
 41
0.0
  0
VERTEX
  5
   59C
  8
0
  6
CONTINUOUS
 10
-376.106890373753
 20
49.3042551242922
 30
0.0
 40
0.0
 41
0.0
  0
VERTEX
  5
   59D
  8
0
  6
CONTINUOUS
 10
-376.272191258206
 20
49.297226236619
 30
0.0
 40
0.0
 41
0.0
  0
VERTEX
  5
   59E
  8
0
  6
CONTINUOUS
 10
-376.437690642796
 20
49.2945068196439
 30
0.0
 40
0.0
 41
0.0
  0
VERTEX
  5
   59F
  8
0
  6
CONTINUOUS
 10
-376.603289241456
 20
49.2954751303357
 30
0.0
 40
0.0
 41
0.0
  0
VERTEX
  5
   5A0
  8
0
  6
CONTINUOUS
 10
-376.768912684154
 20
49.2994915191444
 30
0.0
 40
0.0
 41
0.0
  0
VERTEX
  5
   5A1
  8
0
  6
CONTINUOUS
 10
-376.934507906975
 20
49.305914891532
 30
0.0
 40
0.0
 41
0.0
  0
VERTEX
  5
   5A2
  8
0
  6
CONTINUOUS
 10
-377.100039542203
 20
49.3141191695019
 30
0.0
 40
0.0
 41
0.0
  0
VERTEX
  5
   5A3
  8
0
  6
CONTINUOUS
 10
-377.942640340441
 20
49.3639088100567
 30
0.0
 40
0.0
 41
0.0
  0
VERTEX
  5
   5A4
  8
0
  6
CONTINUOUS
 10
-378.19820945771
 20
49.3765270188265
 30
0.0
 40
0.0
 41
0.0
  0
VERTEX
  5
   5A5
  8
0
  6
CONTINUOUS
 10
-378.453597073698
 20
49.3864670253575
 30
0.0
 40
0.0
 41
0.0
  0
VERTEX
  5
   5A6
  8
0
  6
CONTINUOUS
 10
-378.708847857591
 20
49.3934392241142
 30
0.0
 40
0.0
 41
0.0
  0
VERTEX
  5
   5A7
  8
0
  6
CONTINUOUS
 10
-378.964015139929
 20
49.3974524445554
 30
0.0
 40
0.0
 41
0.0
  0
VERTEX
  5
   5A8
  8
0
  6
CONTINUOUS
 10
-379.219158384545
 20
49.3987720179391
 30
0.0
 40
0.0
 41
0.0
  0
VERTEX
  5
   5A9
  8
0
  6
CONTINUOUS
 10
-379.474340660508
 20
49.397877844127
 30
0.0
 40
0.0
 41
0.0
  0
VERTEX
  5
   5AA
  8
0
  6
CONTINUOUS
 10
-380.49670607084
 20
49.3869233163382
 30
0.0
 40
0.0
 41
0.0
  0
VERTEX
  5
   5AB
  8
0
  6
CONTINUOUS
 10
-380.752978758346
 20
49.3867334819213
 30
0.0
 40
0.0
 41
0.0
  0
VERTEX
  5
   5AC
  8
0
  6
CONTINUOUS
 10
-381.009603030015
 20
49.3893669812126
 30
0.0
 40
0.0
 41
0.0
  0
VERTEX
  5
   5AD
  8
0
  6
CONTINUOUS
 10
-381.266596405807
 20
49.3956315648281
 30
0.0
 40
0.0
 41
0.0
  0
VERTEX
  5
   5AE
  8
0
  6
CONTINUOUS
 10
-381.523959786419
 20
49.4062140864241
 30
0.0
 40
0.0
 41
0.0
  0
VERTEX
  5
   5AF
  8
0
  6
CONTINUOUS
 10
-381.781674925222
 20
49.421638569502
 30
0.0
 40
0.0
 41
0.0
  0
VERTEX
  5
   5B0
  8
0
  6
CONTINUOUS
 10
-382.0397019002
 20
49.4422242742126
 30
0.0
 40
0.0
 41
0.0
  0
VERTEX
  5
   5B1
  8
0
  6
CONTINUOUS
 10
-382.29797658589
 20
49.4680437641613
 30
0.0
 40
0.0
 41
0.0
  0
VERTEX
  5
   5B2
  8
0
  6
CONTINUOUS
 10
-382.556408125315
 20
49.4988809732118
 30
0.0
 40
0.0
 41
0.0
  0
VERTEX
  5
   5B3
  8
0
  6
CONTINUOUS
 10
-382.858557788927
 20
49.5405412416812
 30
0.0
 40
0.0
 41
0.0
  0
VERTEX
  5
   5B4
  8
0
  6
CONTINUOUS
 10
-383.160514149848
 20
49.5868294619955
 30
0.0
 40
0.0
 41
0.0
  0
VERTEX
  5
   5B5
  8
0
  6
CONTINUOUS
 10
-383.762672253536
 20
49.6847881877405
 30
0.0
 40
0.0
 41
0.0
  0
VERTEX
  5
   5B6
  8
0
  6
CONTINUOUS
 10
-384.06222907751
 20
49.7313127260775
 30
0.0
 40
0.0
 41
0.0
  0
VERTEX
  5
   5B7
  8
0
  6
CONTINUOUS
 10
-384.211482722128
 20
49.7527355327207
 30
0.0
 40
0.0
 41
0.0
  0
VERTEX
  5
   5B8
  8
0
  6
CONTINUOUS
 10
-384.360333046961
 20
49.7724546339916
 30
0.0
 40
0.0
 41
0.0
  0
VERTEX
  5
   5B9
  8
0
  6
CONTINUOUS
 10
-384.5087416961
 20
49.7901169786178
 30
0.0
 40
0.0
 41
0.0
  0
VERTEX
  5
   5BA
  8
0
  6
CONTINUOUS
 10
-384.656672281686
 20
49.8053787878706
 30
0.0
 40
0.0
 41
0.0
  0
VERTEX
  5
   5BB
  8
0
  6
CONTINUOUS
 10
-384.804090857133
 20
49.8179099516893
 30
0.0
 40
0.0
 41
0.0
  0
VERTEX
  5
   5BC
  8
0
  6
CONTINUOUS
 10
-384.950966390336
 20
49.8273984248041
 30
0.0
 40
0.0
 41
0.0
  0
VERTEX
  5
   5BD
  8
0
  6
CONTINUOUS
 10
-385.097271236886
 20
49.8335546228605
 30
0.0
 40
0.0
 41
0.0
  0
VERTEX
  5
   5BE
  8
0
  6
CONTINUOUS
 10
-385.242981613291
 20
49.8361158185428
 30
0.0
 40
0.0
 41
0.0
  0
VERTEX
  5
   5BF
  8
0
  6
CONTINUOUS
 10
-385.388078070184
 20
49.834850537698
 30
0.0
 40
0.0
 41
0.0
  0
VERTEX
  5
   5C0
  8
0
  6
CONTINUOUS
 10
-385.532545965541
 20
49.8295629554592
 30
0.0
 40
0.0
 41
0.0
  0
VERTEX
  5
   5C1
  8
0
  6
CONTINUOUS
 10
-385.64029352237
 20
49.8228758313133
 30
0.0
 40
0.0
 41
0.0
  0
VERTEX
  5
   5C2
  8
0
  6
CONTINUOUS
 10
-385.74768147569
 20
49.8137960244059
 30
0.0
 40
0.0
 41
0.0
  0
VERTEX
  5
   5C3
  8
0
  6
CONTINUOUS
 10
-385.85470967762
 20
49.8022873147535
 30
0.0
 40
0.0
 41
0.0
  0
VERTEX
  5
   5C4
  8
0
  6
CONTINUOUS
 10
-385.961379646408
 20
49.7883264055884
 30
0.0
 40
0.0
 41
0.0
  0
VERTEX
  5
   5C5
  8
0
  6
CONTINUOUS
 10
-386.067694495478
 20
49.7719024023445
 30
0.0
 40
0.0
 41
0.0
  0
VERTEX
  5
   5C6
  8
0
  6
CONTINUOUS
 10
-386.173658862459
 20
49.753016291643
 30
0.0
 40
0.0
 41
0.0
  0
VERTEX
  5
   5C7
  8
0
  6
CONTINUOUS
 10
-386.27927883823
 20
49.7316804202773
 30
0.0
 40
0.0
 41
0.0
  0
VERTEX
  5
   5C8
  8
0
  6
CONTINUOUS
 10
-386.384561895952
 20
49.7079179741997
 30
0.0
 40
0.0
 41
0.0
  0
VERTEX
  5
   5C9
  8
0
  6
CONTINUOUS
 10
-386.489516820113
 20
49.6817624575057
 30
0.0
 40
0.0
 41
0.0
  0
VERTEX
  5
   5CA
  8
0
  6
CONTINUOUS
 10
-386.594153635559
 20
49.6532571714206
 30
0.0
 40
0.0
 41
0.0
  0
VERTEX
  5
   5CB
  8
0
  6
CONTINUOUS
 10
-386.698483536535
 20
49.6224546932845
 30
0.0
 40
0.0
 41
0.0
  0
VERTEX
  5
   5CC
  8
0
  6
CONTINUOUS
 10
-386.802518815725
 20
49.5894163555381
 30
0.0
 40
0.0
 41
0.0
  0
VERTEX
  5
   5CD
  8
0
  6
CONTINUOUS
 10
-386.906272793285
 20
49.5542117247083
 30
0.0
 40
0.0
 41
0.0
  0
VERTEX
  5
   5CE
  8
0
  6
CONTINUOUS
 10
-387.009759745887
 20
49.5169180803936
 30
0.0
 40
0.0
 41
0.0
  0
VERTEX
  5
   5CF
  8
0
  6
CONTINUOUS
 10
-387.112994835751
 20
49.4776198942498
 30
0.0
 40
0.0
 41
0.0
  0
VERTEX
  5
   5D0
  8
0
  6
CONTINUOUS
 10
-387.215994039687
 20
49.4364083089756
 30
0.0
 40
0.0
 41
0.0
  0
VERTEX
  5
   5D1
  8
0
  6
CONTINUOUS
 10
-387.318774078132
 20
49.393380617298
 30
0.0
 40
0.0
 41
0.0
  0
VERTEX
  5
   5D2
  8
0
  6
CONTINUOUS
 10
-387.421352344187
 20
49.3486397409582
 30
0.0
 40
0.0
 41
0.0
  0
VERTEX
  5
   5D3
  8
0
  6
CONTINUOUS
 10
-387.62597606908
 20
49.2544551402399
 30
0.0
 40
0.0
 41
0.0
  0
VERTEX
  5
   5D4
  8
0
  6
CONTINUOUS
 10
-387.830015115912
 20
49.1547706624812
 30
0.0
 40
0.0
 41
0.0
  0
VERTEX
  5
   5D5
  8
0
  6
CONTINUOUS
 10
-388.033625607289
 20
49.0505591826438
 30
0.0
 40
0.0
 41
0.0
  0
VERTEX
  5
   5D6
  8
0
  6
CONTINUOUS
 10
-388.236967616096
 20
48.9428336225287
 30
0.0
 40
0.0
 41
0.0
  0
VERTEX
  5
   5D7
  8
0
  6
CONTINUOUS
 10
-388.440202894711
 20
48.8326302783145
 30
0.0
 40
0.0
 41
0.0
  0
VERTEX
  5
   5D8
  8
0
  6
CONTINUOUS
 10
-389.050863379071
 20
48.4975169968358
 30
0.0
 40
0.0
 41
0.0
  0
VERTEX
  5
   5D9
  8
0
  6
CONTINUOUS
 10
-389.255243373052
 20
48.3876494294101
 30
0.0
 40
0.0
 41
0.0
  0
VERTEX
  5
   5DA
  8
0
  6
CONTINUOUS
 10
-389.460271113626
 20
48.2802526382884
 30
0.0
 40
0.0
 41
0.0
  0
VERTEX
  5
   5DB
  8
0
  6
CONTINUOUS
 10
-389.666070743633
 20
48.1761530442223
 30
0.0
 40
0.0
 41
0.0
  0
VERTEX
  5
   5DC
  8
0
  6
CONTINUOUS
 10
-389.794144465059
 20
48.113573134284
 30
0.0
 40
0.0
 41
0.0
  0
VERTEX
  5
   5DD
  8
0
  6
CONTINUOUS
 10
-389.922580904753
 20
48.0527004604599
 30
0.0
 40
0.0
 41
0.0
  0
VERTEX
  5
   5DE
  8
0
  6
CONTINUOUS
 10
-390.051400949171
 20
47.9936743840858
 30
0.0
 40
0.0
 41
0.0
  0
VERTEX
  5
   5DF
  8
0
  6
CONTINUOUS
 10
-390.180623289403
 20
47.9366196182986
 30
0.0
 40
0.0
 41
0.0
  0
VERTEX
  5
   5E0
  8
0
  6
CONTINUOUS
 10
-390.310264543142
 20
47.8816470418252
 30
0.0
 40
0.0
 41
0.0
  0
VERTEX
  5
   5E1
  8
0
  6
CONTINUOUS
 10
-390.440339376643
 20
47.8288545127713
 30
0.0
 40
0.0
 41
0.0
  0
VERTEX
  5
   5E2
  8
0
  6
CONTINUOUS
 10
-390.570860626691
 20
47.7783276824104
 30
0.0
 40
0.0
 41
0.0
  0
VERTEX
  5
   5E3
  8
0
  6
CONTINUOUS
 10
-390.701839422567
 20
47.7301408089724
 30
0.0
 40
0.0
 41
0.0
  0
VERTEX
  5
   5E4
  8
0
  6
CONTINUOUS
 10
-390.833285308008
 20
47.6843575714326
 30
0.0
 40
0.0
 41
0.0
  0
VERTEX
  5
   5E5
  8
0
  6
CONTINUOUS
 10
-390.965206363176
 20
47.6410318833005
 30
0.0
 40
0.0
 41
0.0
  0
VERTEX
  5
   5E6
  8
0
  6
CONTINUOUS
 10
-391.097609326621
 20
47.6002087064084
 30
0.0
 40
0.0
 41
0.0
  0
VERTEX
  5
   5E7
  8
0
  6
CONTINUOUS
 10
-391.230499717247
 20
47.5619248647005
 30
0.0
 40
0.0
 41
0.0
  0
VERTEX
  5
   5E8
  8
0
  6
CONTINUOUS
 10
-391.363881956273
 20
47.5262098580215
 30
0.0
 40
0.0
 41
0.0
  0
VERTEX
  5
   5E9
  8
0
  6
CONTINUOUS
 10
-391.497759489204
 20
47.4930866759057
 30
0.0
 40
0.0
 41
0.0
  0
VERTEX
  5
   5EA
  8
0
  6
CONTINUOUS
 10
-391.632134907788
 20
47.4625726113655
 30
0.0
 40
0.0
 41
0.0
  0
VERTEX
  5
   5EB
  8
0
  6
CONTINUOUS
 10
-391.767010071987
 20
47.4346800746805
 30
0.0
 40
0.0
 41
0.0
  0
VERTEX
  5
   5EC
  8
0
  6
CONTINUOUS
 10
-391.902386231941
 20
47.409417407186
 30
0.0
 40
0.0
 41
0.0
  0
VERTEX
  5
   5ED
  8
0
  6
CONTINUOUS
 10
-392.038264149928
 20
47.3867896950623
 30
0.0
 40
0.0
 41
0.0
  0
VERTEX
  5
   5EE
  8
0
  6
CONTINUOUS
 10
-392.174644222333
 20
47.3667995831229
 30
0.0
 40
0.0
 41
0.0
  0
VERTEX
  5
   5EF
  8
0
  6
CONTINUOUS
 10
-392.311526601612
 20
47.3494480886039
 30
0.0
 40
0.0
 41
0.0
  0
SEQEND
  5
   5F0
  8
0
  6
CONTINUOUS
 62
   130
  0
LINE
  5
   5F1
  8
0
  6
CONTINUOUS
 62
   130
 10
-391.414895725637
 20
76.1552055478116
 30
0.0
 11
-389.814895701795
 21
76.1552055478116
 31
0.0
  0
LINE
  5
   5F2
  8
0
  6
CONTINUOUS
 62
   130
 10
-391.414895542532
 20
74.9552055299302
 30
0.0
 11
-389.814895701795
 21
74.9552055299302
 31
0.0
  0
LINE
  5
   5F3
  8
0
  6
CONTINUOUS
 62
   130
 10
-391.414895725637
 20
73.7552055120489
 30
0.0
 11
-389.814895701795
 21
73.7552055120489
 31
0.0
  0
LINE
  5
   5F4
  8
0
  6
CONTINUOUS
 62
   130
 10
-391.414895725637
 20
76.1552055478117
 30
0.0
 11
-391.414895542532
 21
74.9552055299303
 31
0.0
  0
LINE
  5
   5F5
  8
0
  6
CONTINUOUS
 62
   130
 10
-389.814895884901
 20
77.355205565693
 30
0.0
 11
-389.814895701795
 21
76.1552055478117
 31
0.0
  0
LINE
  5
   5F6
  8
0
  6
CONTINUOUS
 62
   130
 10
-389.814895701795
 20
74.9552055299302
 30
0.0
 11
-389.814895701795
 21
73.7552055120489
 31
0.0
  0
LINE
  5
   5F7
  8
0
  6
CONTINUOUS
 62
   130
 10
-391.414895725637
 20
73.7552055120489
 30
0.0
 11
-391.414895725637
 21
47.5131047828069
 31
0.0
  0
INSERT
  5
   5F8
  8
0
  6
CONTINUOUS
 62
     7
  2
*HATCH131
 10
-286.684631347656
 20
-14.2447957992554
 30
0.0
 41
0.800000011920929
 42
0.800000011920929
 50
269.999999844103
 43
0.800000011920929
  0
INSERT
  5
   5F9
  8
0
  6
CONTINUOUS
 62
     7
  2
*UDIM790
 10
0.0
 20
0.0
 30
0.0
  0
INSERT
  5
   5FA
  8
0
  6
CONTINUOUS
 62
     7
  2
*UDIM791
 10
0.0
 20
0.0
 30
0.0
  0
INSERT
  5
   5FB
  8
0
  6
CONTINUOUS
 62
     3
  2
*UDIM792
 10
0.0
 20
0.0
 30
0.0
  0
TEXT
  5
   5FC
  8
0
  6
CONTINUOUS
 62
     2
 10
-269.356083602455
 20
-13.8235194083332
 30
0.0
 40
2.99999994933605
  1
X
 50
359.999999844103
 41
0.916666718787619
 72
     1
 11
-268.256083522386
 21
-12.3235194366527
 31
0.0
 73
     2
  0
TEXT
  5
   5FD
  8
0
  6
CONTINUOUS
 62
     2
 10
-408.925811489213
 20
-13.8373131705847
 30
0.0
 40
2.99999994933605
  1
X
 50
359.999999844103
 41
0.916666718787619
 72
     2
 11
-406.725811333148
 21
-12.3373132018916
 31
0.0
 73
     2
  0
TEXT
  5
   5FE
  8
0
  6
CONTINUOUS
 62
     2
 10
-334.164876565778
 20
100.446589492245
 30
0.0
 40
2.99999994933605
  1
Y
 50
359.999999844103
 41
0.916666718787619
 72
     1
 11
-333.064876485708
 21
101.946589463926
 31
0.0
 73
     2
  0
TEXT
  5
   5FF
  8
0
  6
CONTINUOUS
 62
     2
 10
-333.925205235391
 20
-94.6384309797458
 30
0.0
 40
2.99999994933605
  1
Y
 50
359.999999844103
 41
0.916666718787619
 72
     1
 11
-332.825205155322
 21
-93.1384310080653
 31
0.0
 73
     2
  0
INSERT
  5
   600
  8
0
  6
CONTINUOUS
 62
     3
  2
*UDIM793
 10
0.0
 20
0.0
 30
0.0
  0
INSERT
  5
   601
  8
0
  6
CONTINUOUS
 62
     7
  2
*UDIM794
 10
0.0
 20
0.0
 30
0.0
  0
INSERT
  5
   602
  8
0
  6
CONTINUOUS
 62
     7
  2
*UDIM795
 10
0.0
 20
0.0
 30
0.0
  0
INSERT
  5
   603
  8
0
  6
CONTINUOUS
 62
     3
  2
*UDIM796
 10
0.0
 20
0.0
 30
0.0
  0
INSERT
  5
   604
  8
0
  6
CONTINUOUS
 62
     3
  2
*UDIM797
 10
0.0
 20
0.0
 30
0.0
  0
INSERT
  5
   605
  8
0
  6
CONTINUOUS
 62
     3
  2
*UDIM798
 10
0.0
 20
0.0
 30
0.0
  0
INSERT
  5
   606
  8
0
  6
CONTINUOUS
 62
     3
  2
*UDIM799
 10
0.0
 20
0.0
 30
0.0
  0
CIRCLE
  5
   607
  8
0
  6
CONTINUOUS
 62
   130
 10
-381.014882354131
 20
44.5552050769346
 30
0.0
 40
2.00000002980232
  0
LINE
  5
   608
  8
0
  6
CONTINUOUS
 62
   130
 10
-382.974474177558
 20
44.9552050828951
 30
0.0
 11
-379.055290530704
 21
44.9552050828951
 31
0.0
  0
LINE
  5
   609
  8
0
  6
CONTINUOUS
 62
   130
 10
-382.974474177558
 20
44.1552050709741
 30
0.0
 11
-379.055290530704
 21
44.1552050709741
 31
0.0
  0
LINE
  5
   60A
  8
0
  6
DOT
 62
   130
 10
-381.414882360091
 20
46.5147969003614
 30
0.0
 11
-381.414882360091
 21
42.5956132535078
 31
0.0
  0
LINE
  5
   60B
  8
0
  6
DOT
 62
   130
 10
-380.61488234817
 20
46.5147969003614
 30
0.0
 11
-380.61488234817
 21
42.5956132535078
 31
0.0
  0
ARC
  5
   60C
  8
0
  6
CONTINUOUS
 62
   130
 10
-381.014882354131
 20
-49.8447963297343
 30
0.0
 40
2.00000002980232
 50
563.566517407047
 51
696.43348228116
  0
LINE
  5
   60D
  8
0
  6
DOT
 62
   130
 10
-381.414882360091
 20
-50.6444232642595
 30
0.0
 11
-381.414882360091
 21
-51.8043881531611
 31
0.0
  0
LINE
  5
   60E
  8
0
  6
DOT
 62
   130
 10
-380.61488234817
 20
-50.6444232642595
 30
0.0
 11
-380.61488234817
 21
-51.8043881531611
 31
0.0
  0
LINE
  5
   60F
  8
0
  6
CONTINUOUS
 62
   130
 10
-297.014926118236
 20
6.95557759404739
 30
0.0
 11
-297.014939668093
 21
-81.8447847216109
 31
0.0
  0
LINE
  5
   610
  8
0
  6
CONTINUOUS
 62
   130
 10
-337.686496297054
 20
-37.8447811492717
 30
0.0
 11
-333.014916861019
 21
-37.8447811492717
 31
0.0
  0
LINE
  5
   611
  8
0
  6
CONTINUOUS
 62
   130
 10
-337.686496297054
 20
-39.0447811671531
 30
0.0
 11
-297.014933137332
 21
-39.0447811671531
 31
0.0
  0
LINE
  5
   612
  8
0
  6
CONTINUOUS
 62
   130
 10
-393.014876401395
 20
-50.6444232642595
 30
0.0
 11
-393.014871640599
 21
-81.8447847216095
 31
0.0
  0
LINE
  5
   613
  8
0
  6
CONTINUOUS
 62
   130
 10
-393.014885190456
 20
6.95557759404738
 30
0.0
 11
-393.014879331082
 21
-31.4444229781572
 31
0.0
  0
LINE
  5
   614
  8
0
  6
CONTINUOUS
 62
   130
 10
-369.014888922125
 20
6.95557759404738
 30
0.0
 11
-369.014888922125
 21
-31.4444229781572
 31
0.0
  0
LINE
  5
   615
  8
0
  6
CONTINUOUS
 62
   130
 10
-370.42665269163
 20
6.95557759404738
 30
0.0
 11
-370.42665269163
 21
-31.4444229781572
 31
0.0
  0
LINE
  5
   616
  8
0
  6
CONTINUOUS
 62
   130
 10
-371.838416461135
 20
6.95557759404738
 30
0.0
 11
-371.838416461135
 21
-31.4444229781572
 31
0.0
  0
LINE
  5
   617
  8
0
  6
CONTINUOUS
 62
   130
 10
-373.25018023064
 20
6.95557759404738
 30
0.0
 11
-373.25018023064
 21
-31.4444229781572
 31
0.0
  0
LINE
  5
   618
  8
0
  6
CONTINUOUS
 62
   130
 10
-374.661944000145
 20
6.95557759404738
 30
0.0
 11
-374.661944000145
 21
-31.4444229781572
 31
0.0
  0
LINE
  5
   619
  8
0
  6
CONTINUOUS
 62
   130
 10
-376.07370776965
 20
6.95557759404738
 30
0.0
 11
-376.07370776965
 21
-31.4444229781572
 31
0.0
  0
LINE
  5
   61A
  8
0
  6
CONTINUOUS
 62
   130
 10
-377.485471539155
 20
6.95557759404738
 30
0.0
 11
-377.485471539155
 21
-31.4444229781572
 31
0.0
  0
LINE
  5
   61B
  8
0
  6
CONTINUOUS
 62
   130
 10
-378.89723530866
 20
6.95557759404738
 30
0.0
 11
-378.89723530866
 21
-31.4444229781572
 31
0.0
  0
LINE
  5
   61C
  8
0
  6
CONTINUOUS
 62
   130
 10
-380.308999078165
 20
6.95557759404738
 30
0.0
 11
-380.308999078165
 21
-31.4444229781572
 31
0.0
  0
LINE
  5
   61D
  8
0
  6
CONTINUOUS
 62
   130
 10
-381.72076284767
 20
6.95557759404738
 30
0.0
 11
-381.72076284767
 21
-31.4444229781572
 31
0.0
  0
LINE
  5
   61E
  8
0
  6
CONTINUOUS
 62
   130
 10
-383.132526617175
 20
6.95557759404738
 30
0.0
 11
-383.132526617175
 21
-31.4444229781572
 31
0.0
  0
LINE
  5
   61F
  8
0
  6
CONTINUOUS
 62
   130
 10
-384.54429038668
 20
6.95557759404738
 30
0.0
 11
-384.54429038668
 21
-31.4444229781572
 31
0.0
  0
LINE
  5
   620
  8
0
  6
CONTINUOUS
 62
   130
 10
-385.956054156185
 20
6.95557759404738
 30
0.0
 11
-385.956054156185
 21
-31.4444229781572
 31
0.0
  0
LINE
  5
   621
  8
0
  6
CONTINUOUS
 62
   130
 10
-387.36781792569
 20
6.95557759404738
 30
0.0
 11
-387.36781792569
 21
-31.4444229781572
 31
0.0
  0
LINE
  5
   622
  8
0
  6
CONTINUOUS
 62
   130
 10
-388.779581695195
 20
6.95557759404738
 30
0.0
 11
-388.779581695195
 21
-31.4444229781572
 31
0.0
  0
LINE
  5
   623
  8
0
  6
CONTINUOUS
 62
   130
 10
-390.1913454647
 20
6.95557759404738
 30
0.0
 11
-390.1913454647
 21
-31.4444229781572
 31
0.0
  0
LINE
  5
   624
  8
0
  6
CONTINUOUS
 62
   130
 10
-391.603109234205
 20
6.95557759404738
 30
0.0
 11
-391.603109234205
 21
-31.4444229781572
 31
0.0
  0
LINE
  5
   625
  8
0
  6
CONTINUOUS
 62
   130
 10
-367.603126922583
 20
-50.6444232642595
 30
0.0
 11
-367.60313180545
 21
-82.6447846114616
 31
0.0
  0
LINE
  5
   626
  8
0
  6
CONTINUOUS
 62
   130
 10
-366.191363153078
 20
-50.6444232642595
 30
0.0
 11
-366.191368035945
 21
-82.6447846114616
 31
0.0
  0
LINE
  5
   627
  8
0
  6
CONTINUOUS
 62
   130
 10
-364.779599383573
 20
-50.6444232642595
 30
0.0
 11
-364.77960426644
 21
-82.6447846114616
 31
0.0
  0
LINE
  5
   628
  8
0
  6
CONTINUOUS
 62
   130
 10
-363.367835614068
 20
-50.6444232642595
 30
0.0
 11
-363.367840496935
 21
-82.6447846114616
 31
0.0
  0
LINE
  5
   629
  8
0
  6
CONTINUOUS
 62
   130
 10
-361.956071844563
 20
-50.6444232642595
 30
0.0
 11
-361.95607672743
 21
-82.6447846114616
 31
0.0
  0
LINE
  5
   62A
  8
0
  6
CONTINUOUS
 62
   130
 10
-360.544308075058
 20
-50.6444232642595
 30
0.0
 11
-360.544312957925
 21
-82.6447846114616
 31
0.0
  0
LINE
  5
   62B
  8
0
  6
CONTINUOUS
 62
   130
 10
-359.132544305553
 20
-50.6444232642595
 30
0.0
 11
-359.13254918842
 21
-82.6447846114616
 31
0.0
  0
LINE
  5
   62C
  8
0
  6
CONTINUOUS
 62
   130
 10
-357.720780536048
 20
-50.6444232642595
 30
0.0
 11
-357.720785418915
 21
-82.6447846114616
 31
0.0
  0
LINE
  5
   62D
  8
0
  6
CONTINUOUS
 62
   130
 10
-356.309016766543
 20
-50.6444232642595
 30
0.0
 11
-356.30902164941
 21
-82.6447846114616
 31
0.0
  0
LINE
  5
   62E
  8
0
  6
CONTINUOUS
 62
   130
 10
-354.897252997038
 20
-50.6444232642595
 30
0.0
 11
-354.897257879905
 21
-82.6447846114616
 31
0.0
  0
LINE
  5
   62F
  8
0
  6
CONTINUOUS
 62
   130
 10
-353.485489227533
 20
-50.6444232642595
 30
0.0
 11
-353.4854941104
 21
-82.6447846114616
 31
0.0
  0
LINE
  5
   630
  8
0
  6
CONTINUOUS
 62
   130
 10
-352.073725458028
 20
-50.6444232642595
 30
0.0
 11
-352.073730340895
 21
-82.6447846114616
 31
0.0
  0
LINE
  5
   631
  8
0
  6
CONTINUOUS
 62
   130
 10
-350.661961688524
 20
-50.6444232642595
 30
0.0
 11
-350.66196657139
 21
-82.6447846114616
 31
0.0
  0
LINE
  5
   632
  8
0
  6
CONTINUOUS
 62
   130
 10
-349.250197919019
 20
-50.6444232642595
 30
0.0
 11
-349.250202801885
 21
-82.6447846114616
 31
0.0
  0
LINE
  5
   633
  8
0
  6
CONTINUOUS
 62
   130
 10
-347.838434149514
 20
-50.6444232642595
 30
0.0
 11
-347.83843903238
 21
-82.6447846114616
 31
0.0
  0
LINE
  5
   634
  8
0
  6
CONTINUOUS
 62
   130
 10
-346.426670380009
 20
-50.6444232642595
 30
0.0
 11
-346.426675262875
 21
-82.6447846114616
 31
0.0
  0
LINE
  5
   635
  8
0
  6
CONTINUOUS
 62
   130
 10
-345.014906610504
 20
-50.6444232642595
 30
0.0
 11
-345.01491149337
 21
-82.6447846114616
 31
0.0
  0
LINE
  5
   636
  8
0
  6
CONTINUOUS
 62
   130
 10
-343.603142840999
 20
-50.6444232642595
 30
0.0
 11
-343.603147723865
 21
-82.6447846114616
 31
0.0
  0
LINE
  5
   637
  8
0
  6
CONTINUOUS
 62
   130
 10
-342.191379071494
 20
-50.6444232642595
 30
0.0
 11
-342.19138395436
 21
-82.6447846114616
 31
0.0
  0
LINE
  5
   638
  8
0
  6
CONTINUOUS
 62
   130
 10
-340.779615301989
 20
-50.6444232642595
 30
0.0
 11
-340.779620184855
 21
-82.6447846114616
 31
0.0
  0
LINE
  5
   639
  8
0
  6
CONTINUOUS
 62
   130
 10
-339.367851532484
 20
-50.6444232642595
 30
0.0
 11
-339.36785641535
 21
-82.6447846114616
 31
0.0
  0
LINE
  5
   63A
  8
0
  6
CONTINUOUS
 62
   130
 10
-337.956087762979
 20
-50.6444232642595
 30
0.0
 11
-337.956092645845
 21
-82.6447846114616
 31
0.0
  0
LINE
  5
   63B
  8
0
  6
CONTINUOUS
 62
   130
 10
-369.014890692088
 20
-50.6444232642595
 30
0.0
 11
-369.014895574955
 21
-82.6447846114615
 31
0.0
  0
LINE
  5
   63C
  8
0
  6
CONTINUOUS
 62
   130
 10
-370.426654461593
 20
-50.6444232642595
 30
0.0
 11
-370.42665934446
 21
-82.6447846114615
 31
0.0
  0
LINE
  5
   63D
  8
0
  6
CONTINUOUS
 62
   130
 10
-371.838418231098
 20
-50.6444232642595
 30
0.0
 11
-371.838423113965
 21
-82.6447846114615
 31
0.0
  0
LINE
  5
   63E
  8
0
  6
CONTINUOUS
 62
   130
 10
-373.250182000603
 20
-50.6444232642595
 30
0.0
 11
-373.25018688347
 21
-82.6447846114615
 31
0.0
  0
LINE
  5
   63F
  8
0
  6
CONTINUOUS
 62
   130
 10
-374.661945770108
 20
-50.6444232642595
 30
0.0
 11
-374.661950652975
 21
-82.6447846114615
 31
0.0
  0
LINE
  5
   640
  8
0
  6
CONTINUOUS
 62
   130
 10
-376.073709539613
 20
-50.6444232642595
 30
0.0
 11
-376.07371442248
 21
-82.6447846114615
 31
0.0
  0
LINE
  5
   641
  8
0
  6
CONTINUOUS
 62
   130
 10
-377.485473309118
 20
-50.6444232642595
 30
0.0
 11
-377.485478191985
 21
-82.6447846114615
 31
0.0
  0
LINE
  5
   642
  8
0
  6
CONTINUOUS
 62
   130
 10
-378.897237078623
 20
-50.6444232642595
 30
0.0
 11
-378.89724196149
 21
-82.6447846114615
 31
0.0
  0
LINE
  5
   643
  8
0
  6
CONTINUOUS
 62
   130
 10
-380.309000848128
 20
-50.6444232642595
 30
0.0
 11
-380.309005730995
 21
-82.6447846114615
 31
0.0
  0
LINE
  5
   644
  8
0
  6
CONTINUOUS
 62
   130
 10
-381.720764617633
 20
-50.6444232642595
 30
0.0
 11
-381.7207695005
 21
-82.6447846114615
 31
0.0
  0
LINE
  5
   645
  8
0
  6
CONTINUOUS
 62
   130
 10
-383.132528387138
 20
-50.6444232642595
 30
0.0
 11
-383.132533270005
 21
-82.6447846114614
 31
0.0
  0
LINE
  5
   646
  8
0
  6
CONTINUOUS
 62
   130
 10
-384.544292156643
 20
-50.6444232642595
 30
0.0
 11
-384.54429703951
 21
-82.6447846114614
 31
0.0
  0
LINE
  5
   647
  8
0
  6
CONTINUOUS
 62
   130
 10
-385.956055926148
 20
-50.6444232642595
 30
0.0
 11
-385.956060809015
 21
-82.6447846114614
 31
0.0
  0
LINE
  5
   648
  8
0
  6
CONTINUOUS
 62
   130
 10
-387.367819695654
 20
-50.6444232642595
 30
0.0
 11
-387.36782457852
 21
-82.6447846114614
 31
0.0
  0
LINE
  5
   649
  8
0
  6
CONTINUOUS
 62
   130
 10
-388.779583465159
 20
-50.6444232642595
 30
0.0
 11
-388.779588348025
 21
-82.6447846114614
 31
0.0
  0
LINE
  5
   64A
  8
0
  6
CONTINUOUS
 62
   130
 10
-390.191347234664
 20
-50.6444232642595
 30
0.0
 11
-390.19135211753
 21
-82.6447846114614
 31
0.0
  0
LINE
  5
   64B
  8
0
  6
CONTINUOUS
 62
   130
 10
-391.603111004169
 20
-50.6444232642595
 30
0.0
 11
-391.603115887035
 21
-82.6447846114614
 31
0.0
  0
INSERT
  5
   64C
  8
0
  6
CONTINUOUS
 62
     7
  2
*UDIM800
 10
0.0
 20
0.0
 30
0.0
  0
INSERT
  5
   64D
  8
0
  6
CONTINUOUS
 62
     7
  2
*UDIM801
 10
0.0
 20
0.0
 30
0.0
  0
CIRCLE
  5
   64E
  8
0
  6
CONTINUOUS
 62
   130
 10
-108.433202202716
 20
49.5706689411403
 30
0.0
 40
0.787499986588955
  0
CIRCLE
  5
   64F
  8
0
  6
CONTINUOUS
 62
   130
 10
-97.9332024858377
 20
14.5706774312256
 30
0.0
 40
0.787499986588955
  0
LINE
  5
   650
  8
0
  6
DASHDOT
 62
   130
 10
-108.433202202716
 20
52.5106688410045
 30
0.0
 11
-108.433202202716
 21
46.6306690412761
 31
0.0
  0
LINE
  5
   651
  8
0
  6
DASHDOT
 62
   130
 10
-112.248202087679
 20
49.5706689411403
 30
0.0
 11
-106.36820228795
 21
49.5706689411403
 31
0.0
  0
LINE
  5
   652
  8
0
  6
CONTINUOUS
 62
   130
 10
-97.9332024858377
 20
17.5106773310898
 30
0.0
 11
-97.9332024858377
 21
11.6306775313614
 31
0.0
  0
LINE
  5
   653
  8
0
  6
DASHDOT
 62
   130
 10
-103.935702333548
 20
14.5706774312257
 30
0.0
 11
-98.0557025338194
 21
14.5706774312257
 31
0.0
  0
LINE
  5
   654
  8
0
  6
DASHDOT
 62
   130
 10
-103.18320608268
 20
79.1991465916221
 30
0.0
 11
-103.18320608268
 21
-1.66662711193161
 31
0.0
  0
LINE
  5
   655
  8
0
  6
CONTINUOUS
 62
   130
 10
-128.795478542745
 20
77.4691302476326
 30
0.0
 11
-88.0709290410276
 21
77.4691302476326
 31
0.0
  0
LINE
  5
   656
  8
0
  6
DASHDOT
 62
   130
 10
-140.194901658532
 20
27.8706693106891
 30
0.0
 11
-85.6434345225951
 21
27.8706693106891
 31
0.0
  0
LINE
  5
   657
  8
0
  6
DASHDOT
 62
   130
 10
-103.18320608268
 20
68.2956686222554
 30
0.0
 11
-103.18320608268
 21
54.9956688487531
 31
0.0
  0
LINE
  5
   658
  8
0
  6
CONTINUOUS
 62
   130
 10
-128.795478542745
 20
77.4691302476326
 30
0.0
 11
-128.795478542745
 21
-6.32779188851481
 31
0.0
  0
LINE
  5
   659
  8
0
  6
CONTINUOUS
 62
   130
 10
-88.0709290410276
 20
77.4691302476326
 30
0.0
 11
-88.0709290410276
 21
-6.32779188851481
 31
0.0
  0
LINE
  5
   65A
  8
0
  6
CONTINUOUS
 62
   130
 10
-128.795478542745
 20
-6.32779188851481
 30
0.0
 11
-88.0709290410276
 21
-6.32779188851481
 31
0.0
  0
LINE
  5
   65B
  8
0
  6
DASHDOT
 62
   130
 10
-103.18320608268
 20
9.14566962957396
 30
0.0
 11
-103.18320608268
 21
-20.2446207956473
 31
0.0
  0
INSERT
  5
   65C
  8
0
  6
CONTINUOUS
 62
     3
  2
*UDIM802
 10
0.0
 20
0.0
 30
0.0
  0
INSERT
  5
   65D
  8
0
  6
CONTINUOUS
 62
     3
  2
*UDIM803
 10
0.0
 20
0.0
 30
0.0
  0
INSERT
  5
   65E
  8
0
  6
CONTINUOUS
 62
     3
  2
*UDIM804
 10
0.0
 20
0.0
 30
0.0
  0
TEXT
  5
   65F
  8
0
  6
CONTINUOUS
 62
     2
 10
-84.5561857403875
 20
26.1980050246389
 30
0.0
 40
2.99999997871263
  1
X
 50
359.999999844103
 41
0.916666688190566
 11
-84.5561857363137
 21
27.6980050139952
 31
0.0
 73
     2
  0
TEXT
  5
   660
  8
0
  6
CONTINUOUS
 62
     2
 10
-143.324672146565
 20
26.3250902113505
 30
0.0
 40
2.99999997871263
  1
X
 50
359.999999844103
 41
0.916666688190566
 72
     2
 11
-141.124672060747
 21
27.8250901947318
 31
0.0
 73
     2
  0
TEXT
  5
   661
  8
0
  6
CONTINUOUS
 62
     2
 10
-104.226408244064
 20
-23.3717052674678
 30
0.0
 40
2.99999997871263
  1
Y
 50
359.999999844103
 41
0.916666688190566
 72
     1
 11
-103.126408195045
 21
-20.3717052917426
 31
0.0
 73
     3
  0
TEXT
  5
   662
  8
0
  6
CONTINUOUS
 62
     2
 10
-104.226407838756
 20
80.9940659092823
 30
0.0
 40
2.99999997871263
  1
Y
 50
359.999999844103
 41
0.916666688190566
 72
     1
 11
-103.126407797885
 21
80.9940659062948
 31
0.0
  0
INSERT
  5
   663
  8
0
  6
CONTINUOUS
 62
     7
  2
*UDIM805
 10
0.0
 20
0.0
 30
0.0
  0
LINE
  5
   664
  8
0
  6
DASHDOT
 62
   130
 10
-419.534754653918
 20
-126.932952880859
 30
0.0
 11
-356.629674499493
 21
-126.932952880859
 31
0.0
  0
LINE
  5
   665
  8
0
  6
DASHDOT
 62
   130
 10
-382.692230224609
 20
-111.858819363617
 30
0.0
 11
-382.692230224609
 21
-145.527995419933
 31
0.0
  0
CIRCLE
  5
   666
  8
0
  6
CONTINUOUS
 62
   130
 10
-363.512229938805
 20
-114.132952690125
 30
0.0
 40
0.800000011920929
  0
CIRCLE
  5
   667
  8
0
  6
CONTINUOUS
 62
   130
 10
-413.712230686843
 20
-114.132952690125
 30
0.0
 40
0.800000011920929
  0
CIRCLE
  5
   668
  8
0
  6
CONTINUOUS
 62
   130
 10
-413.712230686843
 20
-139.732953071594
 30
0.0
 40
0.800000011920929
  0
CIRCLE
  5
   669
  8
0
  6
CONTINUOUS
 62
   130
 10
-363.512229938805
 20
-139.732953071594
 30
0.0
 40
0.800000011920929
  0
LINE
  5
   66A
  8
0
  6
CONTINUOUS
 62
   130
 10
-363.092229932547
 20
-116.932952731848
 30
0.0
 11
-363.092229932547
 21
-136.932953029871
 31
0.0
  0
LINE
  5
   66B
  8
0
  6
CONTINUOUS
 62
   130
 10
-414.292230695486
 20
-116.932952731848
 30
0.0
 11
-414.292230695486
 21
-136.932953029871
 31
0.0
  0
LINE
  5
   66C
  8
0
  6
CONTINUOUS
 62
   130
 10
-413.692230686545
 20
-116.332952722907
 30
0.0
 11
-363.692229941487
 21
-116.332952722907
 31
0.0
  0
LINE
  5
   66D
  8
0
  6
CONTINUOUS
 62
   130
 10
-413.692230686545
 20
-137.532953038812
 30
0.0
 11
-363.692229941487
 21
-137.532953038812
 31
0.0
  0
ARC
  5
   66E
  8
0
  6
CONTINUOUS
 62
   130
 10
-363.692229941487
 20
-116.932952731848
 30
0.0
 40
0.600000008940697
 50
359.999999844103
 51
449.999999844103
  0
ARC
  5
   66F
  8
0
  6
CONTINUOUS
 62
   130
 10
-363.692229941487
 20
-136.932953029871
 30
0.0
 40
0.600000008940697
 50
269.999999844103
 51
359.999999844103
  0
ARC
  5
   670
  8
0
  6
CONTINUOUS
 62
   130
 10
-413.692230686545
 20
-136.932953029871
 30
0.0
 40
0.600000008940697
 50
539.999999844103
 51
629.999999844103
  0
ARC
  5
   671
  8
0
  6
CONTINUOUS
 62
   130
 10
-413.692230686545
 20
-116.932952731848
 30
0.0
 40
0.600000008940697
 50
449.999999844103
 51
539.999999844103
  0
LINE
  5
   672
  8
0
  6
DASHDOT
 62
     7
 10
-363.512229938805
 20
-110.53295263648
 30
0.0
 11
-363.512229938805
 21
-117.732952743769
 31
0.0
  0
LINE
  5
   673
  8
0
  6
DASHDOT
 62
     7
 10
-367.112229992449
 20
-114.132952690125
 30
0.0
 11
-359.912229885161
 21
-114.132952690125
 31
0.0
  0
LINE
  5
   674
  8
0
  6
DASHDOT
 62
     7
 10
-413.712230686843
 20
-136.13295301795
 30
0.0
 11
-413.712230686843
 21
-143.332953125238
 31
0.0
  0
LINE
  5
   675
  8
0
  6
DASHDOT
 62
     7
 10
-417.312230740488
 20
-139.732953071594
 30
0.0
 11
-410.112230633199
 21
-139.732953071594
 31
0.0
  0
LINE
  5
   676
  8
0
  6
DASHDOT
 62
     7
 10
-413.712230686843
 20
-110.53295263648
 30
0.0
 11
-413.712230686843
 21
-117.732952743769
 31
0.0
  0
LINE
  5
   677
  8
0
  6
DASHDOT
 62
     7
 10
-417.312230740488
 20
-114.132952690125
 30
0.0
 11
-410.112230633199
 21
-114.132952690125
 31
0.0
  0
LINE
  5
   678
  8
0
  6
CONTINUOUS
 62
   130
 10
-416.342109302518
 20
-111.64836364985
 30
0.0
 11
-360.198370603015
 21
-111.64836364985
 31
0.0
  0
LINE
  5
   679
  8
0
  6
CONTINUOUS
 62
   130
 10
-416.342109302518
 20
-142.783129655381
 30
0.0
 11
-360.198370603015
 21
-142.783129655381
 31
0.0
  0
LINE
  5
   67A
  8
0
  6
CONTINUOUS
 62
   130
 10
-416.342109302518
 20
-111.64836364985
 30
0.0
 11
-416.342109302518
 21
-142.783129655381
 31
0.0
  0
LINE
  5
   67B
  8
0
  6
CONTINUOUS
 62
   130
 10
-360.198370603015
 20
-111.64836364985
 30
0.0
 11
-360.198370603015
 21
-142.783129655381
 31
0.0
  0
LINE
  5
   67C
  8
0
  6
DASHDOT
 62
     7
 10
-363.512229938805
 20
-136.13295301795
 30
0.0
 11
-363.512229938805
 21
-143.332953125238
 31
0.0
  0
LINE
  5
   67D
  8
0
  6
DASHDOT
 62
     7
 10
-367.112229992449
 20
-139.732953071594
 30
0.0
 11
-359.912229885161
 21
-139.732953071594
 31
0.0
  0
INSERT
  5
   67E
  8
0
  6
CONTINUOUS
 62
     3
  2
*UDIM806
 10
0.0
 20
0.0
 30
0.0
  0
INSERT
  5
   67F
  8
0
  6
CONTINUOUS
 62
     3
  2
*UDIM807
 10
0.0
 20
0.0
 30
0.0
  0
INSERT
  5
   680
  8
0
  6
CONTINUOUS
 62
     3
  2
*UDIM808
 10
0.0
 20
0.0
 30
0.0
  0
INSERT
  5
   681
  8
0
  6
CONTINUOUS
 62
     3
  2
*UDIM809
 10
0.0
 20
0.0
 30
0.0
  0
INSERT
  5
   682
  8
0
  6
CONTINUOUS
 62
     3
  2
*UDIM810
 10
0.0
 20
0.0
 30
0.0
  0
INSERT
  5
   683
  8
0
  6
CONTINUOUS
 62
     3
  2
*UDIM811
 10
0.0
 20
0.0
 30
0.0
  0
TEXT
  5
   684
  8
0
  6
CONTINUOUS
 62
     2
 10
-383.851260354931
 20
-103.712293757117
 30
0.0
 40
2.99999994933605
  1
Y
 50
359.999999844103
 41
0.916666718787619
 72
     1
 11
-382.751260278935
 21
-103.712293760104
 31
0.0
  0
TEXT
  5
   685
  8
0
  6
CONTINUOUS
 62
     2
 10
-383.766749036101
 20
-154.439986957691
 30
0.0
 40
2.99999994933605
  1
Y
 50
359.999999844103
 41
0.916666718787619
 72
     1
 11
-382.666748951957
 21
-151.439987011342
 31
0.0
 73
     3
  0
TEXT
  5
   686
  8
0
  6
CONTINUOUS
 62
     2
 10
-356.278130667639
 20
-128.473998096988
 30
0.0
 40
2.99999994933605
  1
X
 50
359.999999844103
 41
0.916666718787619
 11
-356.278130663565
 21
-126.97399812232
 31
0.0
 73
     2
  0
TEXT
  5
   687
  8
0
  6
CONTINUOUS
 62
     2
 10
-422.368588717702
 20
-128.473998193153
 30
0.0
 40
2.99999994933605
  1
X
 50
359.999999844103
 41
0.916666718787619
 72
     2
 11
-420.168588561637
 21
-126.97399822446
 31
0.0
 73
     2
  0
INSERT
  5
   688
  8
0
  6
CONTINUOUS
 62
     3
  2
*UDIM812
 10
0.0
 20
0.0
 30
0.0
  0
INSERT
  5
   689
  8
0
  6
CONTINUOUS
 62
     7
  2
*UDIM813
 10
0.0
 20
0.0
 30
0.0
  0
ENDSEC
  0
EOF
