  0
SECTION
  2
HEADER
  9
$ACADVER
  1
AC1009
  9
$DWGCODEPAGE
  3
iso8859-1
  9
$INSBASE
 10
0.0
 20
0.0
 30
0.0
  9
$EXTMIN
 10
1.0E20
 20
1.0E20
  9
$EXTMAX
 10
-1.0E20
 20
-1.0E20
  9
$LIMMIN
 10
0.0
 20
0.0
  9
$LIMMAX
 10
12.0
 20
9.0
  9
$ORTHOMODE
 70
     0
  9
$REGENMODE
 70
     1
  9
$FILLMODE
 70
     1
  9
$QTEXTMODE
 70
     0
  9
$MIRRTEXT
 70
     1
  9
$DRAGMODE
 70
     2
  9
$LTSCALE
 40
15.0
  9
$OSMODE
 70
     0
  9
$ATTMODE
 70
     1
  9
$TEXTSIZE
 40
0.2
  9
$TRACEWID
 40
0.05
  9
$TEXTSTYLE
  7
STANDARD
  9
$CLAYER
  8
0
  9
$CELTYPE
  6
DASHED
  9
$CECOLOR
 62
   256
  9
$DIMSCALE
 40
1.0
  9
$DIMASZ
 40
0.18
  9
$DIMEXO
 40
0.0625
  9
$DIMDLI
 40
0.38
  9
$DIMRND
 40
0.0
  9
$DIMDLE
 40
0.0
  9
$DIMEXE
 40
0.18
  9
$DIMTP
 40
0.0
  9
$DIMTM
 40
0.0
  9
$DIMTXT
 40
0.18
  9
$DIMCEN
 40
0.09
  9
$DIMTSZ
 40
0.0
  9
$DIMTOL
 70
     0
  9
$DIMLIM
 70
     0
  9
$DIMTIH
 70
     1
  9
$DIMTOH
 70
     1
  9
$DIMSE1
 70
     0
  9
$DIMSE2
 70
     0
  9
$DIMTAD
 70
     0
  9
$DIMZIN
 70
     0
  9
$DIMBLK
  1

  9
$DIMASO
 70
     1
  9
$DIMSHO
 70
     1
  9
$DIMPOST
  1

  9
$DIMAPOST
  1

  9
$DIMALT
 70
     0
  9
$DIMALTD
 70
     2
  9
$DIMALTF
 40
25.4
  9
$DIMLFAC
 40
1.0
  9
$DIMTOFL
 70
     0
  9
$DIMTVP
 40
0.0
  9
$DIMTIX
 70
     0
  9
$DIMSOXD
 70
     0
  9
$DIMSAH
 70
     0
  9
$DIMBLK1
  1

  9
$DIMBLK2
  1

  9
$DIMSTYLE
  2
STANDARD
  9
$DIMCLRD
 70
     0
  9
$DIMCLRE
 70
     0
  9
$DIMCLRT
 70
     0
  9
$DIMTFAC
 40
1.0
  9
$DIMGAP
 40
0.09
  9
$LUNITS
 70
     2
  9
$LUPREC
 70
     4
  9
$AXISMODE
 70
     0
  9
$AXISUNIT
 10
0.0
 20
0.0
  9
$SKETCHINC
 40
0.1
  9
$FILLETRAD
 40
0.0
  9
$AUNITS
 70
     0
  9
$AUPREC
 70
     0
  9
$MENU
  1
acad
  9
$ELEVATION
 40
0.0
  9
$PELEVATION
 40
0.0
  9
$THICKNESS
 40
0.0
  9
$LIMCHECK
 70
     0
  9
$BLIPMODE
 70
     1
  9
$CHAMFERA
 40
0.0
  9
$CHAMFERB
 40
0.0
  9
$SKPOLY
 70
     0
  9
$TDCREATE
 40
0.000000000
  9
$TDUPDATE
 40
0.000000000
  9
$TDINDWG
 40
0.0
  9
$TDUSRTIMER
 40
0.0
  9
$USRTIMER
 70
     1
  9
$ANGBASE
 50
0.0
  9
$ANGDIR
 70
     0
  9
$PDMODE
 70
     0
  9
$PDSIZE
 40
0.0
  9
$PLINEWID
 40
0.0
  9
$COORDS
 70
     1
  9
$SPLFRAME
 70
     0
  9
$SPLINETYPE
 70
     6
  9
$SPLINESEGS
 70
     8
  9
$ATTDIA
 70
     0
  9
$ATTREQ
 70
     1
  9
$HANDLING
 70
     1
  9
$HANDSEED
  5
   577
  9
$SURFTAB1
 70
     6
  9
$SURFTAB2
 70
     6
  9
$SURFTYPE
 70
     6
  9
$SURFU
 70
     6
  9
$SURFV
 70
     6
  9
$UCSNAME
  2

  9
$UCSORG
 10
0.0
 20
0.0
 30
0.0
  9
$UCSXDIR
 10
1.0
 20
0.0
 30
0.0
  9
$UCSYDIR
 10
0.0
 20
1.0
 30
0.0
  9
$PUCSNAME
  2

  9
$PUCSORG
 10
0.0
 20
0.0
 30
0.0
  9
$PUCSXDIR
 10
1.0
 20
0.0
 30
0.0
  9
$PUCSYDIR
 10
0.0
 20
1.0
 30
0.0
  9
$USERI1
 70
     0
  9
$USERI2
 70
     0
  9
$USERI3
 70
     0
  9
$USERI4
 70
     0
  9
$USERI5
 70
     0
  9
$USERR1
 40
0.0
  9
$USERR2
 40
0.0
  9
$USERR3
 40
0.0
  9
$USERR4
 40
0.0
  9
$USERR5
 40
0.0
  9
$WORLDVIEW
 70
     1
  9
$SHADEDGE
 70
     3
  9
$SHADEDIF
 70
    70
  9
$TILEMODE
 70
     1
  9
$MAXACTVP
 70
    16
  9
$PINSBASE
 10
0.0
 20
0.0
 30
0.0
  9
$PLIMCHECK
 70
     0
  9
$PEXTMIN
 10
1.0E20
 20
1.0E20
 30
1.0E20
  9
$PEXTMAX
 10
-1.0E20
 20
-1.0E20
 30
-1.0E20
  9
$PLIMMIN
 10
0.0
 20
0.0
  9
$PLIMMAX
 10
12.0
 20
9.0
  9
$UNITMODE
 70
     0
  9
$VISRETAIN
 70
     0
  0
ENDSEC
  0
SECTION
  2
TABLES
  0
TABLE
  2
VPORT
 70
     1
  0
VPORT
  2
*ACTIVE
 70
     0
 10
0.0
 20
0.0
 11
1.0
 21
1.0
 12
6.801242
 22
4.5
 13
0.0
 23
0.0
 14
1.0
 24
1.0
 15
0.0
 25
0.0
 16
0.0
 26
0.0
 36
1.0
 17
0.0
 27
0.0
 37
0.0
 40
9.0
 41
1.511387
 42
50.0
 43
0.0
 44
0.0
 50
0.0
 51
0.0
 71
     0
 72
   100
 73
     1
 74
     1
 75
     0
 76
     0
 77
     0
 78
     0
  0
ENDTAB
  0
TABLE
  2
LTYPE
 70
    41
  0
LTYPE
  2
BYBLOCK
 70
     0
  3

 72
    65
 73
     0
 40
0.0
  0
LTYPE
  2
BYLAYER
 70
     0
  3

 72
    65
 73
     0
 40
0.0
  0
LTYPE
  2
CONTINUOUS
 70
     0
  3
Solid line
 72
    65
 73
     0
 40
0.0
  0
LTYPE
  2
BORDER
 70
    64
  3
__ __ . __ __ . __ __ . __ __ . __ __ . __ __ .
 72
    65
 73
     6
 40
1.75
 49
0.5
 49
-0.25
 49
0.5
 49
-0.25
 49
0.0
 49
-0.25
  0
LTYPE
  2
BORDER2
 70
    64
  3
__.__.__.__.__.__.__.__.__.__.__.__.__.__.__.__
 72
    65
 73
     6
 40
0.875
 49
0.25
 49
-0.125
 49
0.25
 49
-0.125
 49
0.0
 49
-0.125
  0
LTYPE
  2
BORDERX2
 70
    64
  3
____  ____  .  ____  ____  .  ____  ____  .  __
 72
    65
 73
     6
 40
3.5
 49
1.0
 49
-0.5
 49
1.0
 49
-0.5
 49
0.0
 49
-0.5
  0
LTYPE
  2
CENTER
 70
    64
  3
____ _ ____ _ ____ _ ____ _ ____ _ ____ _ ____
 72
    65
 73
     4
 40
2.0
 49
1.25
 49
-0.25
 49
0.25
 49
-0.25
  0
LTYPE
  2
CENTER2
 70
    64
  3
___ _ ___ _ ___ _ ___ _ ___ _ ___ _ ___ _ ___ _
 72
    65
 73
     4
 40
1.125
 49
0.75
 49
-0.125
 49
0.125
 49
-0.125
  0
LTYPE
  2
CENTERX2
 70
    64
  3
________  __  ________  __  ________  __  _____
 72
    65
 73
     4
 40
4.0
 49
2.5
 49
-0.5
 49
0.5
 49
-0.5
  0
LTYPE
  2
DASHDOT
 70
    64
  3
__ . __ . __ . __ . __ . __ . __ . __ . __ . __
 72
    65
 73
     4
 40
1.0
 49
0.5
 49
-0.25
 49
0.0
 49
-0.25
  0
LTYPE
  2
DASHDOT2
 70
    64
  3
_._._._._._._._._._._._._._._._._._._._._._._._
 72
    65
 73
     4
 40
0.5
 49
0.25
 49
-0.125
 49
0.0
 49
-0.125
  0
LTYPE
  2
DASHDOTX2
 70
    64
  3
____  .  ____  .  ____  .  ____  .  ____  .  __
 72
    65
 73
     4
 40
2.0
 49
1.0
 49
-0.5
 49
0.0
 49
-0.5
  0
LTYPE
  2
DASHED
 70
    64
  3
__ __ __ __ __ __ __ __ __ __ __ __ __ __ __ __
 72
    65
 73
     2
 40
0.75
 49
0.5
 49
-0.25
  0
LTYPE
  2
DASHED2
 70
    64
  3
_ _ _ _ _ _ _ _ _ _ _ _ _ _ _ _ _ _ _ _ _ _ _ _
 72
    65
 73
     2
 40
0.375
 49
0.25
 49
-0.125
  0
LTYPE
  2
DASHEDX2
 70
    64
  3
____  ____  ____  ____  ____  ____  ____  ____
 72
    65
 73
     2
 40
1.5
 49
1.0
 49
-0.5
  0
LTYPE
  2
DIVIDE
 70
    64
  3
____ . . ____ . . ____ . . ____ . . ____ . . __
 72
    65
 73
     6
 40
1.25
 49
0.5
 49
-0.25
 49
0.0
 49
-0.25
 49
0.0
 49
-0.25
  0
LTYPE
  2
DIVIDE2
 70
    64
  3
__..__..__..__..__..__..__..__..__..__..__..__.
 72
    65
 73
     6
 40
0.625
 49
0.25
 49
-0.125
 49
0.0
 49
-0.125
 49
0.0
 49
-0.125
  0
LTYPE
  2
DIVIDEX2
 70
    64
  3
________  .  .  ________  .  .  ________  .  .
 72
    65
 73
     6
 40
2.5
 49
1.0
 49
-0.5
 49
0.0
 49
-0.5
 49
0.0
 49
-0.5
  0
LTYPE
  2
DOT
 70
    64
  3
. . . . . . . . . . . . . . . . . . . . . . . .
 72
    65
 73
     2
 40
0.25
 49
0.0
 49
-0.25
  0
LTYPE
  2
DOT2
 70
    64
  3
...............................................
 72
    65
 73
     2
 40
0.125
 49
0.0
 49
-0.125
  0
LTYPE
  2
DOTX2
 70
    64
  3
.  .  .  .  .  .  .  .  .  .  .  .  .  .  .  .
 72
    65
 73
     2
 40
0.5
 49
0.0
 49
-0.5
  0
LTYPE
  2
HIDDEN
 70
    64
  3
__ __ __ __ __ __ __ __ __ __ __ __ __ __ __ __
 72
    65
 73
     2
 40
0.375
 49
0.25
 49
-0.125
  0
LTYPE
  2
HIDDEN2
 70
    64
  3
_ _ _ _ _ _ _ _ _ _ _ _ _ _ _ _ _ _ _ _ _ _ _ _
 72
    65
 73
     2
 40
0.1875
 49
0.125
 49
-0.0625
  0
LTYPE
  2
HIDDENX2
 70
    64
  3
____ ____ ____ ____ ____ ____ ____ ____ ____ __
 72
    65
 73
     2
 40
0.75
 49
0.5
 49
-0.25
  0
LTYPE
  2
PHANTOM
 70
    64
  3
______  __  __  ______  __  __  ______  __  __
 72
    65
 73
     6
 40
2.5
 49
1.25
 49
-0.25
 49
0.25
 49
-0.25
 49
0.25
 49
-0.25
  0
LTYPE
  2
PHANTOM2
 70
    64
  3
___ _ _ ___ _ _ ___ _ _ ___ _ _ ___ _ _ ___ _ _
 72
    65
 73
     6
 40
1.25
 49
0.625
 49
-0.125
 49
0.125
 49
-0.125
 49
0.125
 49
-0.125
  0
LTYPE
  2
PHANTOMX2
 70
    64
  3
____________    ____    ____    ____________
 72
    65
 73
     6
 40
5.0
 49
2.5
 49
-0.5
 49
0.5
 49
-0.5
 49
0.5
 49
-0.5
  0
LTYPE
  2
ACAD_ISO02W100
 70
    64
  3
__ __ __ __ __ __ __ __ __ __ __ __ __ __ __ __
 72
    65
 73
     2
 40
15.0
 49
12.0
 49
-3.0
  0
LTYPE
  2
ACAD_ISO03W100
 70
    64
  3
__    __    __    __    __    __    __    __
 72
    65
 73
     2
 40
30.0
 49
12.0
 49
-18.0
  0
LTYPE
  2
ACAD_ISO04W100
 70
    64
  3
____ . ____ . ____ . ____ . ____ . ____ . ____
 72
    65
 73
     4
 40
30.5
 49
24.0
 49
-3.0
 49
0.5
 49
-3.0
  0
LTYPE
  2
ACAD_ISO05W100
 70
    64
  3
____ .. ____ .. ____ .. ____ .. ____ .. ____ ..
 72
    65
 73
     6
 40
34.0
 49
24.0
 49
-3.0
 49
0.5
 49
-3.0
 49
0.5
 49
-3.0
  0
LTYPE
  2
ACAD_ISO06W100
 70
    64
  3
____ ... ____ ... ____ ... ____ ... ____ ... __
 72
    65
 73
     8
 40
37.5
 49
24.0
 49
-3.0
 49
0.5
 49
-3.0
 49
0.5
 49
-3.0
 49
0.5
 49
-3.0
  0
LTYPE
  2
ACAD_ISO07W100
 70
    64
  3
. . . . . . . . . . . . . . . . . . . . . . . .
 72
    65
 73
     2
 40
3.5
 49
0.5
 49
-3.0
  0
LTYPE
  2
ACAD_ISO08W100
 70
    64
  3
____ __ ____ __ ____ __ ____ ____ __ __ ____ __
 72
    65
 73
     4
 40
36.0
 49
24.0
 49
-3.0
 49
6.0
 49
-3.0
  0
LTYPE
  2
ACAD_ISO09W100
 70
    64
  3
____ __ __ ____ __ __ ____ __ __ ____ __ __ ___
 72
    65
 73
     6
 40
45.0
 49
24.0
 49
-3.0
 49
6.0
 49
-3.0
 49
6.0
 49
-3.0
  0
LTYPE
  2
ACAD_ISO10W100
 70
    64
  3
__ . __ . __ . __ . __ . __ . __ . __ . __ . __
 72
    65
 73
     4
 40
18.5
 49
12.0
 49
-3.0
 49
0.5
 49
-3.0
  0
LTYPE
  2
ACAD_ISO11W100
 70
    64
  3
__ __ . __ __ . __ __ . __ __ . __ __ . __ __ .
 72
    65
 73
     6
 40
33.5
 49
12.0
 49
-3.0
 49
12.0
 49
-3.0
 49
0.5
 49
-3.0
  0
LTYPE
  2
ACAD_ISO12W100
 70
    64
  3
__ . . __ . . __ . . __ . . __ . . __ . . __ .
 72
    65
 73
     6
 40
22.0
 49
12.0
 49
-3.0
 49
0.5
 49
-3.0
 49
0.5
 49
-3.0
  0
LTYPE
  2
ACAD_ISO13W100
 70
    64
  3
__ __ . . __ __ . . __ __ . . __ __ . . __ __ .
 72
    65
 73
     8
 40
37.0
 49
12.0
 49
-3.0
 49
12.0
 49
-3.0
 49
0.5
 49
-3.0
 49
0.5
 49
-3.0
  0
LTYPE
  2
ACAD_ISO14W100
 70
    64
  3
__ . . . __ . . . __ . . . __ . . . __ . . . __
 72
    65
 73
     8
 40
25.5
 49
12.0
 49
-3.0
 49
0.5
 49
-3.0
 49
0.5
 49
-3.0
 49
0.5
 49
-3.0
  0
LTYPE
  2
ACAD_ISO15W100
 70
    64
  3
__ __ . . . __ __ . . . __ __ . . . __ __ . . .
 72
    65
 73
    10
 40
40.5
 49
12.0
 49
-3.0
 49
12.0
 49
-3.0
 49
0.5
 49
-3.0
 49
0.5
 49
-3.0
 49
0.5
 49
-3.0
  0
ENDTAB
  0
TABLE
  2
STYLE
 70
     4
  0
STYLE
  2
STANDARD
 70
    64
 40
0.0
 41
1.0
 50
0.0
 71
     0
 42
0.2
  3
txt
  4

  0
STYLE
  2
TOLERANCE
 70
    64
 40
0.0
 41
1.0
 50
0.0
 71
     0
 42
0.2
  3
../igesfont/iges1003.shx
  4

  0
STYLE
  2
ROMANS
 70
    64
 40
0.0
 41
1.0
 50
0.0
 71
     0
 42
0.2
  3
romans.shx
  4

  0
STYLE
  2
ROMANC
 70
    64
 40
0.0
 41
1.0
 50
0.0
 71
     0
 42
0.2
  3
romanc.shx
  4

  0
ENDTAB
  0
TABLE
  2
DIMSTYLE
 70
     2
  0
DIMSTYLE
  2
UNNAMED
 70
     0
  3

  4

  5

  6

  7

 40
1.0
 41
0.18
 42
0.0625
 43
0.38
 44
0.18
 45
0.0
 46
0.0
 47
0.0
 48
0.0
140
0.18
141
0.09
142
0.0
143
25.4
144
1.0
145
0.0
146
1.0
147
0.09
 71
     0
 72
     0
 73
     1
 74
     1
 75
     0
 76
     0
 77
     0
 78
     0
170
     0
171
     2
172
     0
173
     0
174
     0
175
     0
176
     0
177
     0
178
     0
  0
DIMSTYLE
  2
STANDARD
 70
     0
  3

  4

  5

  6

  7

 40
1.0
 41
0.18
 42
0.0625
 43
0.38
 44
0.18
 45
0.0
 46
0.0
 47
0.0
 48
0.0
140
0.18
141
0.09
142
0.0
143
25.4
144
1.0
145
0.0
146
1.0
147
0.09
 71
     0
 72
     0
 73
     1
 74
     1
 75
     0
 76
     0
 77
     0
 78
     0
170
     0
171
     2
172
     0
173
     0
174
     0
175
     0
176
     0
177
     0
178
     0
  0
ENDTAB
  0
TABLE
  2
LAYER
 70
     2
  0
LAYER
  2
0
 70
     0
 62
     7
  6
CONTINUOUS
  0
LAYER
  2
255
 70
     0
 62
     7
  6
CONTINUOUS
  0
ENDTAB
  0
ENDSEC
  0
SECTION
  2
BLOCKS
  0
BLOCK
  5
     B
  8
0
  6
CONTINUOUS
 62
     7
  2
*UDIM425
 70
    65
 10
0.0
 20
0.0
 30
0.0
  3
*UDIM425
  0
TEXT
  5
     C
  8
0
  6
CONTINUOUS
 62
     7
 10
-517.572559368801
 20
-115.744157097468
 30
0.0
 40
3.00000002980232
  1
52,25
 50
449.999999896069
 41
0.933333333333333
 72
     1
 11
-519.072559371591
 21
-109.044157028198
 31
0.0
 73
     2
  0
LINE
  5
     D
  8
0
  6
CONTINUOUS
 62
     7
 10
-529.038961168616
 20
-82.9311981201172
 30
0.0
 11
-514.572559356689
 21
-82.9311981201172
 31
0.0
  0
LINE
  5
     E
  8
0
  6
CONTINUOUS
 62
     7
 10
-516.939418805524
 20
-95.9936981201172
 30
0.0
 11
-514.572559356689
 21
-95.9936981201172
 31
0.0
  0
LINE
  5
     F
  8
0
  6
CONTINUOUS
 62
     7
 10
-516.57255935669
 20
-82.9311981201172
 30
0.0
 11
-516.57255935669
 21
-115.744157094757
 31
0.0
  0
LINE
  5
    10
  8
0
  6
CONTINUOUS
 62
     7
 10
-516.051614926738
 20
-85.8856213973242
 30
0.0
 11
-516.57255935669
 21
-82.9311981201172
 31
0.0
  0
LINE
  5
    11
  8
0
  6
CONTINUOUS
 62
     7
 10
-516.57255935669
 20
-82.9311981201172
 30
0.0
 11
-517.093503786641
 21
-85.8856213973242
 31
0.0
  0
LINE
  5
    12
  8
0
  6
CONTINUOUS
 62
     7
 10
-517.093503786641
 20
-93.0392748429102
 30
0.0
 11
-516.57255935669
 21
-95.9936981201172
 31
0.0
  0
LINE
  5
    13
  8
0
  6
CONTINUOUS
 62
     7
 10
-516.57255935669
 20
-95.9936981201172
 30
0.0
 11
-516.051614926738
 21
-93.0392748429102
 31
0.0
  0
ENDBLK
  5
    14
  8
0
  6
CONTINUOUS
 62
     7
  0
BLOCK
  5
    15
  8
0
  6
CONTINUOUS
 62
     7
  2
*UDIM426
 70
    65
 10
0.0
 20
0.0
 30
0.0
  3
*UDIM426
  0
TEXT
  5
    16
  8
0
  6
CONTINUOUS
 62
     7
 10
-596.268750900649
 20
-127.660485198509
 30
0.0
 40
3.00000002980232
  1
5
 50
392.704034205866
 41
0.933333333333334
 72
     1
 11
-596.153580239016
 21
-125.803946540834
 31
0.0
 73
     2
  0
TEXT
  5
    17
  8
0
  6
CONTINUOUS
 62
     7
 10
-598.919390041469
 20
-129.362428854373
 30
0.0
 40
3.00000002980232
  1
Ø
 50
392.704034205866
 41
0.933333333333334
 72
     1
 11
-598.804219379837
 21
-127.505890196698
 31
0.0
 73
     2
  0
TEXT
  5
    18
  8
0
  6
CONTINUOUS
 62
     7
 10
-593.954700841423
 20
-126.174661349876
 30
0.0
 40
3.00000002980232
  1
 (M4)
 50
392.704034205866
 41
0.933333333333333
 72
     1
 11
-589.12728278091
 21
-121.292445069781
 31
0.0
 73
     2
  0
LINE
  5
    19
  8
0
  6
CONTINUOUS
 62
     7
 10
-563.165241646585
 20
-107.593510887876
 30
0.0
 11
-598.379090466525
 21
-130.203901595045
 31
0.0
  0
LINE
  5
    1A
  8
0
  6
CONTINUOUS
 62
     7
 10
-560.960641047347
 20
-105.558876719815
 30
0.0
 11
-563.165241646585
 21
-107.593510887876
 31
0.0
  0
LINE
  5
    1B
  8
0
  6
CONTINUOUS
 62
     7
 10
-563.165241646585
 20
-107.593510887876
 30
0.0
 11
-560.397708942701
 21
-106.435597794017
 31
0.0
  0
LINE
  5
    1C
  8
0
  6
CONTINUOUS
 62
     7
 10
-566.421683171403
 20
-110.303519520419
 30
0.0
 11
-564.217082572165
 21
-108.268885352359
 31
0.0
  0
LINE
  5
    1D
  8
0
  6
CONTINUOUS
 62
     7
 10
-564.217082572165
 20
-108.268885352359
 30
0.0
 11
-566.984615276049
 21
-109.426798446217
 31
0.0
  0
ENDBLK
  5
    1E
  8
0
  6
CONTINUOUS
 62
     7
  0
BLOCK
  5
    1F
  8
0
  6
CONTINUOUS
 62
     7
  2
*UDIM427
 70
    65
 10
0.0
 20
0.0
 30
0.0
  3
*UDIM427
  0
TEXT
  5
    20
  8
0
  6
CONTINUOUS
 62
     7
 10
-534.466161755454
 20
-129.965270991571
 30
0.0
 40
3.00000002980232
  1
25
 50
359.999999896069
 41
0.933333333333333
 72
     1
 11
-531.966161727905
 21
-128.465270981193
 31
0.0
 73
     2
  0
LINE
  5
    21
  8
0
  6
CONTINUOUS
 62
     7
 10
-537.441162109375
 20
-113.7209037243
 30
0.0
 11
-537.441162109375
 21
-132.965270996094
 31
0.0
  0
LINE
  5
    22
  8
0
  6
CONTINUOUS
 62
     7
 10
-543.691162109375
 20
-128.009111771886
 30
0.0
 11
-543.691162109375
 21
-132.965270996094
 31
0.0
  0
LINE
  5
    23
  8
0
  6
CONTINUOUS
 62
     7
 10
-529.46616170307
 20
-130.965270996094
 30
0.0
 11
-543.691162109375
 21
-130.965270996094
 31
0.0
  0
LINE
  5
    24
  8
0
  6
CONTINUOUS
 62
     7
 10
-540.395585386582
 20
-131.486215426045
 30
0.0
 11
-537.441162109375
 21
-130.965270996094
 31
0.0
  0
LINE
  5
    25
  8
0
  6
CONTINUOUS
 62
     7
 10
-537.441162109375
 20
-130.965270996094
 30
0.0
 11
-540.395585386582
 21
-130.444326566142
 31
0.0
  0
LINE
  5
    26
  8
0
  6
CONTINUOUS
 62
     7
 10
-540.736738832168
 20
-130.444326566142
 30
0.0
 11
-543.691162109375
 21
-130.965270996094
 31
0.0
  0
LINE
  5
    27
  8
0
  6
CONTINUOUS
 62
     7
 10
-543.691162109375
 20
-130.965270996094
 30
0.0
 11
-540.736738832168
 21
-131.486215426045
 31
0.0
  0
ENDBLK
  5
    28
  8
0
  6
CONTINUOUS
 62
     7
  0
BLOCK
  5
    29
  8
0
  6
CONTINUOUS
 62
     7
  2
*UDIM428
 70
    65
 10
0.0
 20
0.0
 30
0.0
  3
*UDIM428
  0
TEXT
  5
    2A
  8
0
  6
CONTINUOUS
 62
     7
 10
-556.466162142884
 20
-129.965270991571
 30
0.0
 40
3.00000002980232
  1
80
 50
359.999999896069
 41
0.933333333333333
 72
     1
 11
-553.966162115336
 21
-128.465270981193
 31
0.0
 73
     2
  0
LINE
  5
    2B
  8
0
  6
CONTINUOUS
 62
     7
 10
-563.691162109375
 20
-113.869231927827
 30
0.0
 11
-563.691162109375
 21
-132.965270996094
 31
0.0
  0
LINE
  5
    2C
  8
0
  6
CONTINUOUS
 62
     7
 10
-543.691162109375
 20
-130.965270996094
 30
0.0
 11
-563.691162109375
 21
-130.965270996094
 31
0.0
  0
LINE
  5
    2D
  8
0
  6
CONTINUOUS
 62
     7
 10
-546.645585386582
 20
-131.486215426045
 30
0.0
 11
-543.691162109375
 21
-130.965270996094
 31
0.0
  0
LINE
  5
    2E
  8
0
  6
CONTINUOUS
 62
     7
 10
-543.691162109375
 20
-130.965270996094
 30
0.0
 11
-546.645585386582
 21
-130.444326566142
 31
0.0
  0
LINE
  5
    2F
  8
0
  6
CONTINUOUS
 62
     7
 10
-560.736738832168
 20
-130.444326566142
 30
0.0
 11
-563.691162109375
 21
-130.965270996094
 31
0.0
  0
LINE
  5
    30
  8
0
  6
CONTINUOUS
 62
     7
 10
-563.691162109375
 20
-130.965270996094
 30
0.0
 11
-560.736738832168
 21
-131.486215426045
 31
0.0
  0
ENDBLK
  5
    31
  8
0
  6
CONTINUOUS
 62
     7
  0
BLOCK
  5
    32
  8
0
  6
CONTINUOUS
 62
     7
  2
*UDIM429
 70
    65
 10
0.0
 20
0.0
 30
0.0
  3
*UDIM429
  0
TEXT
  5
    33
  8
0
  6
CONTINUOUS
 62
     7
 10
-575.240760810273
 20
-99.6062034147104
 30
0.0
 40
3.00000002980232
  1
100
 50
449.999999896069
 41
0.933333333333333
 72
     1
 11
-576.740760818124
 21
-95.7062033732559
 31
0.0
 73
     2
  0
LINE
  5
    34
  8
0
  6
CONTINUOUS
 62
     7
 10
-563.522837741016
 20
-82.9311969359762
 30
0.0
 11
-576.240760803221
 21
-82.9311818761618
 31
0.0
  0
LINE
  5
    35
  8
0
  6
CONTINUOUS
 62
     7
 10
-563.967822351597
 20
-107.931196876842
 30
0.0
 11
-576.240760803221
 21
-107.931181618206
 31
0.0
  0
LINE
  5
    36
  8
0
  6
CONTINUOUS
 62
     7
 10
-574.240760803223
 20
-82.9311842444438
 30
0.0
 11
-574.240760803223
 21
-107.931184104756
 31
0.0
  0
LINE
  5
    37
  8
0
  6
CONTINUOUS
 62
     7
 10
-573.719816373271
 20
-85.8856075216508
 30
0.0
 11
-574.240760803223
 21
-82.9311842444438
 31
0.0
  0
LINE
  5
    38
  8
0
  6
CONTINUOUS
 62
     7
 10
-574.240760803223
 20
-82.9311842444438
 30
0.0
 11
-574.761705233174
 21
-85.8856075216508
 31
0.0
  0
LINE
  5
    39
  8
0
  6
CONTINUOUS
 62
     7
 10
-574.761705233174
 20
-104.976760827549
 30
0.0
 11
-574.240760803223
 21
-107.931184104756
 31
0.0
  0
LINE
  5
    3A
  8
0
  6
CONTINUOUS
 62
     7
 10
-574.240760803223
 20
-107.931184104756
 30
0.0
 11
-573.719816373271
 21
-104.976760827549
 31
0.0
  0
ENDBLK
  5
    3B
  8
0
  6
CONTINUOUS
 62
     7
  0
BLOCK
  5
    3C
  8
0
  6
CONTINUOUS
 62
     7
  2
*UDIM430
 70
    65
 10
0.0
 20
0.0
 30
0.0
  3
*UDIM430
  0
TEXT
  5
    3D
  8
0
  6
CONTINUOUS
 62
     7
 10
-446.683959487633
 20
22.6404944912955
 30
0.0
 40
3.00000002980232
  1
161
 50
89.9999999480344
 41
0.933333333333333
 72
     1
 11
-448.183959499002
 21
26.5404945313971
 31
0.0
 73
     2
  0
LINE
  5
    3E
  8
0
  6
CONTINUOUS
 62
     7
 10
-433.973026585416
 20
-13.4329299926717
 30
0.0
 11
-447.6839594841
 21
-13.4329299926717
 31
0.0
  0
LINE
  5
    3F
  8
0
  6
CONTINUOUS
 62
     7
 10
-430.098026585416
 20
67.0639190673869
 30
0.0
 11
-447.6839594841
 21
67.0639190673869
 31
0.0
  0
LINE
  5
    40
  8
0
  6
CONTINUOUS
 62
     7
 10
-445.6839594841
 20
-13.4329299926717
 30
0.0
 11
-445.6839594841
 21
67.0639190673869
 31
0.0
  0
LINE
  5
    41
  8
0
  6
CONTINUOUS
 62
     7
 10
-446.204903914052
 20
-10.4785067154647
 30
0.0
 11
-445.6839594841
 21
-13.4329299926717
 31
0.0
  0
LINE
  5
    42
  8
0
  6
CONTINUOUS
 62
     7
 10
-445.6839594841
 20
-13.4329299926717
 30
0.0
 11
-445.163015054149
 21
-10.4785067154647
 31
0.0
  0
LINE
  5
    43
  8
0
  6
CONTINUOUS
 62
     7
 10
-445.163015054149
 20
64.1094957901799
 30
0.0
 11
-445.6839594841
 21
67.0639190673869
 31
0.0
  0
LINE
  5
    44
  8
0
  6
CONTINUOUS
 62
     7
 10
-445.6839594841
 20
67.0639190673869
 30
0.0
 11
-446.204903914052
 21
64.1094957901799
 31
0.0
  0
ENDBLK
  5
    45
  8
0
  6
CONTINUOUS
 62
     7
  0
BLOCK
  5
    46
  8
0
  6
CONTINUOUS
 62
     7
  2
*UDIM431
 70
    65
 10
0.0
 20
0.0
 30
0.0
  3
*UDIM431
  0
TEXT
  5
    47
  8
0
  6
CONTINUOUS
 62
     7
 10
-373.123022475042
 20
114.059295656552
 30
0.0
 40
3.00000002980232
  1
96
 50
359.999999948034
 41
0.933333333333333
 72
     1
 11
-370.623022448854
 21
115.559295669198
 31
0.0
 73
     2
  0
LINE
  5
    48
  8
0
  6
CONTINUOUS
 62
     7
 10
-346.348024678068
 20
67.4389190673869
 30
0.0
 11
-346.348024678068
 21
115.059295654297
 31
0.0
  0
LINE
  5
    49
  8
0
  6
CONTINUOUS
 62
     7
 10
-394.348025631742
 20
98.2945366265047
 30
0.0
 11
-394.348025631742
 21
115.059295654297
 31
0.0
  0
LINE
  5
    4A
  8
0
  6
CONTINUOUS
 62
     7
 10
-346.348024678068
 20
113.059295654297
 30
0.0
 11
-394.348025631742
 21
113.059295654297
 31
0.0
  0
LINE
  5
    4B
  8
0
  6
CONTINUOUS
 62
     7
 10
-349.302447955274
 20
112.538351224345
 30
0.0
 11
-346.348024678068
 21
113.059295654297
 31
0.0
  0
LINE
  5
    4C
  8
0
  6
CONTINUOUS
 62
     7
 10
-346.348024678068
 20
113.059295654297
 30
0.0
 11
-349.302447955274
 21
113.580240084249
 31
0.0
  0
LINE
  5
    4D
  8
0
  6
CONTINUOUS
 62
     7
 10
-391.393602354535
 20
113.580240084249
 30
0.0
 11
-394.348025631742
 21
113.059295654297
 31
0.0
  0
LINE
  5
    4E
  8
0
  6
CONTINUOUS
 62
     7
 10
-394.348025631742
 20
113.059295654297
 30
0.0
 11
-391.393602354535
 21
112.538351224345
 31
0.0
  0
ENDBLK
  5
    4F
  8
0
  6
CONTINUOUS
 62
     7
  0
BLOCK
  5
    50
  8
0
  6
CONTINUOUS
 62
     7
  2
*UDIM432
 70
    65
 10
0.0
 20
0.0
 30
0.0
  3
*UDIM432
  0
TEXT
  5
    51
  8
0
  6
CONTINUOUS
 62
     7
 10
-419.548022502858
 20
114.059295659077
 30
0.0
 40
3.00000002980232
  1
78,5
 50
359.999999948034
 41
0.933333333333333
 72
     1
 11
-414.248022448854
 21
115.559295669198
 31
0.0
 73
     2
  0
LINE
  5
    52
  8
0
  6
CONTINUOUS
 62
     7
 10
-433.598026585416
 20
67.4389190673869
 30
0.0
 11
-433.598026585416
 21
115.059295654297
 31
0.0
  0
LINE
  5
    53
  8
0
  6
CONTINUOUS
 62
     7
 10
-394.348025631742
 20
113.059295654297
 30
0.0
 11
-433.598026585416
 21
113.059295654297
 31
0.0
  0
LINE
  5
    54
  8
0
  6
CONTINUOUS
 62
     7
 10
-397.302448908949
 20
112.538351224345
 30
0.0
 11
-394.348025631742
 21
113.059295654297
 31
0.0
  0
LINE
  5
    55
  8
0
  6
CONTINUOUS
 62
     7
 10
-394.348025631742
 20
113.059295654297
 30
0.0
 11
-397.302448908949
 21
113.580240084249
 31
0.0
  0
LINE
  5
    56
  8
0
  6
CONTINUOUS
 62
     7
 10
-430.643603308209
 20
113.580240084249
 30
0.0
 11
-433.598026585416
 21
113.059295654297
 31
0.0
  0
LINE
  5
    57
  8
0
  6
CONTINUOUS
 62
     7
 10
-433.598026585416
 20
113.059295654297
 30
0.0
 11
-430.643603308209
 21
112.538351224345
 31
0.0
  0
ENDBLK
  5
    58
  8
0
  6
CONTINUOUS
 62
     7
  0
BLOCK
  5
    59
  8
0
  6
CONTINUOUS
 62
     7
  2
*UDIM433
 70
    65
 10
0.0
 20
0.0
 30
0.0
  3
*UDIM433
  0
TEXT
  5
    5A
  8
0
  6
CONTINUOUS
 62
     7
 10
-469.656221397107
 20
45.2545470452449
 30
0.0
 40
3.00000002980232
  1
107,25
 50
89.9999999480344
 41
0.933333333333333
 72
     1
 11
-471.156221404672
 21
53.3545471270697
 31
0.0
 73
     2
  0
LINE
  5
    5B
  8
0
  6
CONTINUOUS
 62
     7
 10
-447.117170450087
 20
26.8170700073283
 30
0.0
 11
-470.656221389771
 21
26.8170700073283
 31
0.0
  0
LINE
  5
    5C
  8
0
  6
CONTINUOUS
 62
     7
 10
-433.398000271058
 20
80.4420333782427
 30
0.0
 11
-470.656221389771
 21
80.4420333782427
 31
0.0
  0
LINE
  5
    5D
  8
0
  6
CONTINUOUS
 62
     7
 10
-468.656221389771
 20
26.8170700073283
 30
0.0
 11
-468.656221389771
 21
80.4420333782427
 31
0.0
  0
LINE
  5
    5E
  8
0
  6
CONTINUOUS
 62
     7
 10
-469.177165819722
 20
29.7714932845352
 30
0.0
 11
-468.656221389771
 21
26.8170700073283
 31
0.0
  0
LINE
  5
    5F
  8
0
  6
CONTINUOUS
 62
     7
 10
-468.656221389771
 20
26.8170700073283
 30
0.0
 11
-468.135276959819
 21
29.7714932845352
 31
0.0
  0
LINE
  5
    60
  8
0
  6
CONTINUOUS
 62
     7
 10
-468.135276959819
 20
77.4876101010358
 30
0.0
 11
-468.656221389771
 21
80.4420333782427
 31
0.0
  0
LINE
  5
    61
  8
0
  6
CONTINUOUS
 62
     7
 10
-468.656221389771
 20
80.4420333782427
 30
0.0
 11
-469.177165819722
 21
77.4876101010358
 31
0.0
  0
ENDBLK
  5
    62
  8
0
  6
CONTINUOUS
 62
     7
  0
BLOCK
  5
    63
  8
0
  6
CONTINUOUS
 62
     7
  2
*UDIM434
 70
    65
 10
0.0
 20
0.0
 30
0.0
  3
*UDIM434
  0
TEXT
  5
    64
  8
0
  6
CONTINUOUS
 62
     7
 10
-454.172339326251
 20
42.2795546746621
 30
0.0
 40
3.00000002980232
  1
89,75
 50
89.9999999480344
 41
0.933333333333333
 72
     1
 11
-455.672339335084
 21
48.9795547425792
 31
0.0
 73
     2
  0
LINE
  5
    65
  8
0
  6
CONTINUOUS
 62
     7
 10
-447.117170450087
 20
26.8170700073283
 30
0.0
 11
-455.172339320183
 21
26.8170700073283
 31
0.0
  0
LINE
  5
    66
  8
0
  6
CONTINUOUS
 62
     7
 10
-438.47303425942
 20
71.692039489751
 30
0.0
 11
-455.172339320183
 21
71.692039489751
 31
0.0
  0
LINE
  5
    67
  8
0
  6
CONTINUOUS
 62
     7
 10
-453.172339320183
 20
26.8170700073283
 30
0.0
 11
-453.172339320183
 21
71.692039489751
 31
0.0
  0
LINE
  5
    68
  8
0
  6
CONTINUOUS
 62
     7
 10
-453.693283750135
 20
29.7714932845352
 30
0.0
 11
-453.172339320183
 21
26.8170700073283
 31
0.0
  0
LINE
  5
    69
  8
0
  6
CONTINUOUS
 62
     7
 10
-453.172339320183
 20
26.8170700073283
 30
0.0
 11
-452.651394890231
 21
29.7714932845352
 31
0.0
  0
LINE
  5
    6A
  8
0
  6
CONTINUOUS
 62
     7
 10
-452.651394890231
 20
68.737616212544
 30
0.0
 11
-453.172339320183
 21
71.692039489751
 31
0.0
  0
LINE
  5
    6B
  8
0
  6
CONTINUOUS
 62
     7
 10
-453.172339320183
 20
71.692039489751
 30
0.0
 11
-453.693283750135
 21
68.737616212544
 31
0.0
  0
ENDBLK
  5
    6C
  8
0
  6
CONTINUOUS
 62
     7
  0
BLOCK
  5
    6D
  8
0
  6
CONTINUOUS
 62
     7
  2
*UDIM435
 70
    65
 10
0.0
 20
0.0
 30
0.0
  3
*UDIM435
  0
TEXT
  5
    6E
  8
0
  6
CONTINUOUS
 62
     7
 10
-398.523037764165
 20
98.5178985630879
 30
0.0
 40
3.00000002980232
  1
105
 50
359.999999948034
 41
0.933333333333333
 72
     1
 11
-394.623037724069
 21
100.017898574471
 31
0.0
 73
     2
  0
LINE
  5
    6F
  8
0
  6
CONTINUOUS
 62
     7
 10
-368.09803425942
 20
54.0670699339688
 30
0.0
 11
-368.09803425942
 21
99.5178985595703
 31
0.0
  0
LINE
  5
    70
  8
0
  6
CONTINUOUS
 62
     7
 10
-420.598035812378
 20
48.0670413970948
 30
0.0
 11
-420.598035812378
 21
99.5178985595703
 31
0.0
  0
LINE
  5
    71
  8
0
  6
CONTINUOUS
 62
     7
 10
-368.09803425942
 20
97.5178985595703
 30
0.0
 11
-420.598035812378
 21
97.5178985595703
 31
0.0
  0
LINE
  5
    72
  8
0
  6
CONTINUOUS
 62
     7
 10
-371.052457536627
 20
96.9969541296187
 30
0.0
 11
-368.09803425942
 21
97.5178985595703
 31
0.0
  0
LINE
  5
    73
  8
0
  6
CONTINUOUS
 62
     7
 10
-368.09803425942
 20
97.5178985595703
 30
0.0
 11
-371.052457536627
 21
98.038842989522
 31
0.0
  0
LINE
  5
    74
  8
0
  6
CONTINUOUS
 62
     7
 10
-417.643612535171
 20
98.038842989522
 30
0.0
 11
-420.598035812378
 21
97.5178985595703
 31
0.0
  0
LINE
  5
    75
  8
0
  6
CONTINUOUS
 62
     7
 10
-420.598035812378
 20
97.5178985595703
 30
0.0
 11
-417.643612535171
 21
96.9969541296187
 31
0.0
  0
ENDBLK
  5
    76
  8
0
  6
CONTINUOUS
 62
     7
  0
BLOCK
  5
    77
  8
0
  6
CONTINUOUS
 62
     7
  2
*UDIM436
 70
    65
 10
0.0
 20
0.0
 30
0.0
  3
*UDIM436
  0
TEXT
  5
    78
  8
0
  6
CONTINUOUS
 62
     7
 10
-376.123014869571
 20
-61.4113883949619
 30
0.0
 40
3.00000002980232
  1
84
 50
359.999999948034
 41
0.933333333333333
 72
     1
 11
-373.623014843383
 21
-59.9113883823156
 31
0.0
 73
     2
  0
LINE
  5
    79
  8
0
  6
CONTINUOUS
 62
     7
 10
-352.348007202148
 20
19.9420166015625
 30
0.0
 11
-352.348007202148
 21
-64.4113883972168
 31
0.0
  0
LINE
  5
    7A
  8
0
  6
CONTINUOUS
 62
     7
 10
-394.348025631742
 20
-53.8275050005679
 30
0.0
 11
-394.348025631742
 21
-64.4113883972168
 31
0.0
  0
LINE
  5
    7B
  8
0
  6
CONTINUOUS
 62
     7
 10
-352.348007202148
 20
-62.4113883972168
 30
0.0
 11
-394.348025631742
 21
-62.4113883972168
 31
0.0
  0
LINE
  5
    7C
  8
0
  6
CONTINUOUS
 62
     7
 10
-355.302430479355
 20
-62.9323328271685
 30
0.0
 11
-352.348007202148
 21
-62.4113883972168
 31
0.0
  0
LINE
  5
    7D
  8
0
  6
CONTINUOUS
 62
     7
 10
-352.348007202148
 20
-62.4113883972168
 30
0.0
 11
-355.302430479355
 21
-61.8904439672651
 31
0.0
  0
LINE
  5
    7E
  8
0
  6
CONTINUOUS
 62
     7
 10
-391.393602354535
 20
-61.8904439672651
 30
0.0
 11
-394.348025631742
 21
-62.4113883972168
 31
0.0
  0
LINE
  5
    7F
  8
0
  6
CONTINUOUS
 62
     7
 10
-394.348025631742
 20
-62.4113883972168
 30
0.0
 11
-391.393602354535
 21
-62.9323328271685
 31
0.0
  0
ENDBLK
  5
    80
  8
0
  6
CONTINUOUS
 62
     7
  0
BLOCK
  5
    81
  8
0
  6
CONTINUOUS
 62
     7
  2
*UDIM437
 70
    65
 10
0.0
 20
0.0
 30
0.0
  3
*UDIM437
  0
TEXT
  5
    82
  8
0
  6
CONTINUOUS
 62
     7
 10
-364.834223885373
 20
-42.5553864540634
 30
0.0
 40
3.00000002980232
  1
8,2
 50
301.075426696817
 41
0.933333333333333
 72
     1
 11
-361.536443482943
 21
-45.1214427208365
 31
0.0
 73
     2
  0
TEXT
  5
    83
  8
0
  6
CONTINUOUS
 62
     7
 10
-366.46014692496
 20
-39.8574475496543
 30
0.0
 40
3.00000002980232
  1
Ø
 50
301.075426696817
 41
0.933333333333334
 72
     1
 11
-364.607631452318
 21
-40.025335882672
 31
0.0
 73
     2
  0
LINE
  5
    84
  8
0
  6
CONTINUOUS
 62
     7
 10
-361.664617258903
 20
-49.7521631680086
 30
0.0
 11
-377.906141499797
 21
-22.8021543858752
 31
0.0
  0
LINE
  5
    85
  8
0
  6
CONTINUOUS
 62
     7
 10
-373.818706622521
 20
-28.5752902627947
 30
0.0
 11
-375.789862525507
 21
-26.313754411626
 31
0.0
  0
LINE
  5
    86
  8
0
  6
CONTINUOUS
 62
     7
 10
-375.789862525507
 20
-26.313754411626
 30
0.0
 11
-374.711072489727
 21
-29.1130779118132
 31
0.0
  0
LINE
  5
    87
  8
0
  6
CONTINUOUS
 62
     7
 10
-379.877297402784
 20
-20.5406185347064
 30
0.0
 11
-377.906141499797
 21
-22.8021543858752
 31
0.0
  0
LINE
  5
    88
  8
0
  6
CONTINUOUS
 62
     7
 10
-377.906141499797
 20
-22.8021543858752
 30
0.0
 11
-378.984931535578
 21
-20.002830885688
 31
0.0
  0
ENDBLK
  5
    89
  8
0
  6
CONTINUOUS
 62
     7
  0
BLOCK
  5
    8A
  8
0
  6
CONTINUOUS
 62
     7
  2
*UDIM438
 70
    65
 10
0.0
 20
0.0
 30
0.0
  3
*UDIM438
  0
TEXT
  5
    8B
  8
0
  6
CONTINUOUS
 62
     7
 10
-403.873030352331
 20
-38.0402564979893
 30
0.0
 40
3.00000002980232
  1
20
 50
359.999999948034
 41
0.933333333333333
 72
     1
 11
-401.373030326143
 21
-36.540256485343
 31
0.0
 73
     2
  0
LINE
  5
    8C
  8
0
  6
CONTINUOUS
 62
     7
 10
-406.848030464672
 20
-20.5579681396484
 30
0.0
 11
-406.848038132013
 21
-41.040256500244
 31
0.0
  0
LINE
  5
    8D
  8
0
  6
CONTINUOUS
 62
     7
 10
-416.848030464672
 20
-20.5579681396484
 30
0.0
 11
-416.848038132013
 21
-41.040256500244
 31
0.0
  0
LINE
  5
    8E
  8
0
  6
CONTINUOUS
 62
     7
 10
-398.873030301307
 20
-39.0402565002441
 30
0.0
 11
-416.848037383332
 21
-39.0402565002441
 31
0.0
  0
LINE
  5
    8F
  8
0
  6
CONTINUOUS
 62
     7
 10
-409.802460660539
 20
-39.5612009301958
 30
0.0
 11
-406.848037383332
 21
-39.0402565002441
 31
0.0
  0
LINE
  5
    90
  8
0
  6
CONTINUOUS
 62
     7
 10
-406.848037383332
 20
-39.0402565002441
 30
0.0
 11
-409.802460660539
 21
-38.5193120702925
 31
0.0
  0
LINE
  5
    91
  8
0
  6
CONTINUOUS
 62
     7
 10
-413.893614106126
 20
-38.5193120702925
 30
0.0
 11
-416.848037383332
 21
-39.0402565002441
 31
0.0
  0
LINE
  5
    92
  8
0
  6
CONTINUOUS
 62
     7
 10
-416.848037383332
 20
-39.0402565002441
 30
0.0
 11
-413.893614106126
 21
-39.5612009301958
 31
0.0
  0
ENDBLK
  5
    93
  8
0
  6
CONTINUOUS
 62
     7
  0
BLOCK
  5
    94
  8
0
  6
CONTINUOUS
 62
     7
  2
*UDIM439
 70
    65
 10
0.0
 20
0.0
 30
0.0
  3
*UDIM439
  0
TEXT
  5
    95
  8
0
  6
CONTINUOUS
 62
     7
 10
-386.798030131751
 20
-53.2065315198779
 30
0.0
 40
3.00000002980232
  1
52,5
 50
359.999999948034
 41
0.933333333333333
 72
     1
 11
-381.498030077747
 21
-51.706531509757
 31
0.0
 73
     2
  0
LINE
  5
    96
  8
0
  6
CONTINUOUS
 62
     7
 10
-368.098034643077
 20
32.567035675047
 30
0.0
 11
-368.098068701685
 21
-56.2065315246581
 31
0.0
  0
LINE
  5
    97
  8
0
  6
CONTINUOUS
 62
     7
 10
-394.348025945658
 20
-53.8275050005678
 30
0.0
 11
-394.348026692474
 21
-56.2065315246581
 31
0.0
  0
LINE
  5
    98
  8
0
  6
CONTINUOUS
 62
     7
 10
-368.098067934371
 20
-54.2065315246582
 30
0.0
 11
-394.348026064641
 21
-54.2065315246582
 31
0.0
  0
LINE
  5
    99
  8
0
  6
CONTINUOUS
 62
     7
 10
-371.052491211578
 20
-54.7274759546099
 30
0.0
 11
-368.098067934371
 21
-54.2065315246582
 31
0.0
  0
LINE
  5
    9A
  8
0
  6
CONTINUOUS
 62
     7
 10
-368.098067934371
 20
-54.2065315246582
 30
0.0
 11
-371.052491211578
 21
-53.6855870947065
 31
0.0
  0
LINE
  5
    9B
  8
0
  6
CONTINUOUS
 62
     7
 10
-391.393602787434
 20
-53.6855870947065
 30
0.0
 11
-394.348026064641
 21
-54.2065315246582
 31
0.0
  0
LINE
  5
    9C
  8
0
  6
CONTINUOUS
 62
     7
 10
-394.348026064641
 20
-54.2065315246582
 30
0.0
 11
-391.393602787434
 21
-54.7274759546099
 31
0.0
  0
ENDBLK
  5
    9D
  8
0
  6
CONTINUOUS
 62
     7
  0
BLOCK
  5
    9E
  8
0
  6
CONTINUOUS
 62
     7
  2
*UDIM440
 70
    65
 10
0.0
 20
0.0
 30
0.0
  3
*UDIM440
  0
TEXT
  5
    9F
  8
0
  6
CONTINUOUS
 62
     7
 10
-407.273037756903
 20
105.555938724221
 30
0.0
 40
3.00000002980232
  1
140
 50
359.999999948034
 41
0.933333333333333
 72
     1
 11
-403.373037716807
 21
107.055938735604
 31
0.0
 73
     2
  0
LINE
  5
    A0
  8
0
  6
CONTINUOUS
 62
     7
 10
-368.098033945518
 20
72.0670394897509
 30
0.0
 11
-368.098023118884
 21
106.555938720703
 31
0.0
  0
LINE
  5
    A1
  8
0
  6
CONTINUOUS
 62
     7
 10
-438.09803382013
 20
72.0670394897509
 30
0.0
 11
-438.098018669492
 21
106.555938720703
 31
0.0
  0
LINE
  5
    A2
  8
0
  6
CONTINUOUS
 62
     7
 10
-368.098023746717
 20
104.555938720703
 30
0.0
 11
-438.098019548072
 21
104.555938720703
 31
0.0
  0
LINE
  5
    A3
  8
0
  6
CONTINUOUS
 62
     7
 10
-371.052447023924
 20
104.034994290751
 30
0.0
 11
-368.098023746717
 21
104.555938720703
 31
0.0
  0
LINE
  5
    A4
  8
0
  6
CONTINUOUS
 62
     7
 10
-368.098023746717
 20
104.555938720703
 30
0.0
 11
-371.052447023924
 21
105.076883150655
 31
0.0
  0
LINE
  5
    A5
  8
0
  6
CONTINUOUS
 62
     7
 10
-435.143596270865
 20
105.076883150655
 30
0.0
 11
-438.098019548072
 21
104.555938720703
 31
0.0
  0
LINE
  5
    A6
  8
0
  6
CONTINUOUS
 62
     7
 10
-438.098019548072
 20
104.555938720703
 30
0.0
 11
-435.143596270865
 21
104.034994290751
 31
0.0
  0
ENDBLK
  5
    A7
  8
0
  6
CONTINUOUS
 62
     7
  0
BLOCK
  5
    A8
  8
0
  6
CONTINUOUS
 62
     7
  2
*UDIM441
 70
    65
 10
0.0
 20
0.0
 30
0.0
  3
*UDIM441
  0
TEXT
  5
    A9
  8
0
  6
CONTINUOUS
 62
     7
 10
-388.373007216939
 20
-45.6233940101963
 30
0.0
 40
3.00000002980232
  1
35
 50
359.999999948034
 41
0.933333333333333
 72
     1
 11
-385.873007190751
 21
-44.12339399755
 31
0.0
 73
     2
  0
LINE
  5
    AA
  8
0
  6
CONTINUOUS
 62
     7
 10
-376.848002427271
 20
-28.6079526571567
 30
0.0
 11
-376.848010726038
 21
-48.623394012451
 31
0.0
  0
LINE
  5
    AB
  8
0
  6
CONTINUOUS
 62
     7
 10
-394.348002427271
 20
-28.6079526571567
 30
0.0
 11
-394.348010726038
 21
-48.623394012451
 31
0.0
  0
LINE
  5
    AC
  8
0
  6
CONTINUOUS
 62
     7
 10
-376.848009896802
 20
-46.6233940124512
 30
0.0
 11
-394.348009896802
 21
-46.6233940124512
 31
0.0
  0
LINE
  5
    AD
  8
0
  6
CONTINUOUS
 62
     7
 10
-379.802433174009
 20
-47.1443384424028
 30
0.0
 11
-376.848009896802
 21
-46.6233940124512
 31
0.0
  0
LINE
  5
    AE
  8
0
  6
CONTINUOUS
 62
     7
 10
-376.848009896802
 20
-46.6233940124512
 30
0.0
 11
-379.802433174009
 21
-46.1024495824995
 31
0.0
  0
LINE
  5
    AF
  8
0
  6
CONTINUOUS
 62
     7
 10
-391.393586619595
 20
-46.1024495824995
 30
0.0
 11
-394.348009896802
 21
-46.6233940124512
 31
0.0
  0
LINE
  5
    B0
  8
0
  6
CONTINUOUS
 62
     7
 10
-394.348009896802
 20
-46.6233940124512
 30
0.0
 11
-391.393586619595
 21
-47.1443384424028
 31
0.0
  0
ENDBLK
  5
    B1
  8
0
  6
CONTINUOUS
 62
     7
  0
BLOCK
  5
    B2
  8
0
  6
CONTINUOUS
 62
     7
  2
*UDIM442
 70
    65
 10
0.0
 20
0.0
 30
0.0
  3
*UDIM442
  0
TEXT
  5
    B3
  8
0
  6
CONTINUOUS
 62
     7
 10
-405.873003415129
 20
-45.6233940101963
 30
0.0
 40
3.00000002980232
  1
35
 50
359.999999948034
 41
0.933333333333333
 72
     1
 11
-403.373003388941
 21
-44.12339399755
 31
0.0
 73
     2
  0
LINE
  5
    B4
  8
0
  6
CONTINUOUS
 62
     7
 10
-411.848002560277
 20
-28.6079526571566
 30
0.0
 11
-411.848013521221
 21
-48.6233940124509
 31
0.0
  0
LINE
  5
    B5
  8
0
  6
CONTINUOUS
 62
     7
 10
-394.348009896802
 20
-46.6233940124512
 30
0.0
 11
-411.848012425972
 21
-46.6233940124512
 31
0.0
  0
LINE
  5
    B6
  8
0
  6
CONTINUOUS
 62
     7
 10
-397.302433174009
 20
-47.1443384424028
 30
0.0
 11
-394.348009896802
 21
-46.6233940124512
 31
0.0
  0
LINE
  5
    B7
  8
0
  6
CONTINUOUS
 62
     7
 10
-394.348009896802
 20
-46.6233940124512
 30
0.0
 11
-397.302433174009
 21
-46.1024495824995
 31
0.0
  0
LINE
  5
    B8
  8
0
  6
CONTINUOUS
 62
     7
 10
-408.893589148765
 20
-46.1024495824995
 30
0.0
 11
-411.848012425972
 21
-46.6233940124512
 31
0.0
  0
LINE
  5
    B9
  8
0
  6
CONTINUOUS
 62
     7
 10
-411.848012425972
 20
-46.6233940124512
 30
0.0
 11
-408.893589148765
 21
-47.1443384424028
 31
0.0
  0
ENDBLK
  5
    BA
  8
0
  6
CONTINUOUS
 62
     7
  0
BLOCK
  5
    BB
  8
0
  6
CONTINUOUS
 62
     7
  2
*UDIM443
 70
    65
 10
0.0
 20
0.0
 30
0.0
  3
*UDIM443
  0
TEXT
  5
    BC
  8
0
  6
CONTINUOUS
 62
     7
 10
-423.372995798622
 20
-45.6233940101963
 30
0.0
 40
3.00000002980232
  1
35
 50
359.999999948034
 41
0.933333333333333
 72
     1
 11
-420.872995772434
 21
-44.12339399755
 31
0.0
 73
     2
  0
LINE
  5
    BD
  8
0
  6
CONTINUOUS
 62
     7
 10
-429.348002560277
 20
-28.6079526571566
 30
0.0
 11
-429.348013521221
 21
-48.6233940124509
 31
0.0
  0
LINE
  5
    BE
  8
0
  6
CONTINUOUS
 62
     7
 10
-411.848012425972
 20
-46.6233940124512
 30
0.0
 11
-429.348012425972
 21
-46.6233940124512
 31
0.0
  0
LINE
  5
    BF
  8
0
  6
CONTINUOUS
 62
     7
 10
-414.802435703179
 20
-47.1443384424028
 30
0.0
 11
-411.848012425972
 21
-46.6233940124512
 31
0.0
  0
LINE
  5
    C0
  8
0
  6
CONTINUOUS
 62
     7
 10
-411.848012425972
 20
-46.6233940124512
 30
0.0
 11
-414.802435703179
 21
-46.1024495824995
 31
0.0
  0
LINE
  5
    C1
  8
0
  6
CONTINUOUS
 62
     7
 10
-426.393589148765
 20
-46.1024495824995
 30
0.0
 11
-429.348012425972
 21
-46.6233940124512
 31
0.0
  0
LINE
  5
    C2
  8
0
  6
CONTINUOUS
 62
     7
 10
-429.348012425972
 20
-46.6233940124512
 30
0.0
 11
-426.393589148765
 21
-47.1443384424028
 31
0.0
  0
ENDBLK
  5
    C3
  8
0
  6
CONTINUOUS
 62
     7
  0
BLOCK
  5
    C4
  8
0
  6
CONTINUOUS
 62
     7
  2
*UDIM444
 70
    65
 10
0.0
 20
0.0
 30
0.0
  3
*UDIM444
  0
TEXT
  5
    C5
  8
0
  6
CONTINUOUS
 62
     7
 10
-477.067310335516
 20
-30.162252853659
 30
0.0
 40
3.00000002980232
  1
10
 50
89.9999999480344
 41
0.933333333333333
 72
     1
 11
-478.567310348153
 21
-27.6622528274652
 31
0.0
 73
     2
  0
LINE
  5
    C6
  8
0
  6
CONTINUOUS
 62
     7
 10
-382.223030090332
 20
-29.5579676628113
 30
0.0
 11
-478.067310333252
 21
-29.5579676628113
 31
0.0
  0
LINE
  5
    C7
  8
0
  6
CONTINUOUS
 62
     7
 10
-380.898000271058
 20
-24.5579543987506
 30
0.0
 11
-478.067310333252
 21
-24.5579543987506
 31
0.0
  0
LINE
  5
    C8
  8
0
  6
CONTINUOUS
 62
     7
 10
-476.067310333252
 20
-30.1622528523005
 30
0.0
 11
-476.067310333252
 21
-24.5579543987506
 31
0.0
  0
LINE
  5
    C9
  8
0
  6
CONTINUOUS
 62
     7
 10
-475.5463659033
 20
-32.5123909400182
 30
0.0
 11
-476.067310333252
 21
-29.5579676628113
 31
0.0
  0
LINE
  5
    CA
  8
0
  6
CONTINUOUS
 62
     7
 10
-476.067310333252
 20
-29.5579676628113
 30
0.0
 11
-476.588254763204
 21
-32.5123909400182
 31
0.0
  0
LINE
  5
    CB
  8
0
  6
CONTINUOUS
 62
     7
 10
-476.588254763204
 20
-21.6035311215436
 30
0.0
 11
-476.067310333252
 21
-24.5579543987506
 31
0.0
  0
LINE
  5
    CC
  8
0
  6
CONTINUOUS
 62
     7
 10
-476.067310333252
 20
-24.5579543987506
 30
0.0
 11
-475.5463659033
 21
-21.6035311215436
 31
0.0
  0
ENDBLK
  5
    CD
  8
0
  6
CONTINUOUS
 62
     7
  0
BLOCK
  5
    CE
  8
0
  6
CONTINUOUS
 62
     7
  2
*UDIM445
 70
    65
 10
0.0
 20
0.0
 30
0.0
  3
*UDIM445
  0
TEXT
  5
    CF
  8
0
  6
CONTINUOUS
 62
     7
 10
-477.067310336784
 20
23.7670356289868
 30
0.0
 40
3.00000002980232
  1
210
 50
89.9999999480344
 41
0.933333333333333
 72
     1
 11
-478.567310348153
 21
27.6670356690884
 31
0.0
 73
     2
  0
LINE
  5
    D0
  8
0
  6
CONTINUOUS
 62
     7
 10
-380.898000271058
 20
80.4420333782427
 30
0.0
 11
-478.067310333252
 21
80.4420333782427
 31
0.0
  0
LINE
  5
    D1
  8
0
  6
CONTINUOUS
 62
     7
 10
-476.067310333252
 20
-24.5579543987506
 30
0.0
 11
-476.067310333252
 21
80.4420333782427
 31
0.0
  0
LINE
  5
    D2
  8
0
  6
CONTINUOUS
 62
     7
 10
-476.588254763204
 20
-21.6035311215436
 30
0.0
 11
-476.067310333252
 21
-24.5579543987506
 31
0.0
  0
LINE
  5
    D3
  8
0
  6
CONTINUOUS
 62
     7
 10
-476.067310333252
 20
-24.5579543987506
 30
0.0
 11
-475.5463659033
 21
-21.6035311215436
 31
0.0
  0
LINE
  5
    D4
  8
0
  6
CONTINUOUS
 62
     7
 10
-475.5463659033
 20
77.4876101010358
 30
0.0
 11
-476.067310333252
 21
80.4420333782427
 31
0.0
  0
LINE
  5
    D5
  8
0
  6
CONTINUOUS
 62
     7
 10
-476.067310333252
 20
80.4420333782427
 30
0.0
 11
-476.588254763204
 21
77.4876101010358
 31
0.0
  0
ENDBLK
  5
    D6
  8
0
  6
CONTINUOUS
 62
     7
  0
BLOCK
  5
    D7
  8
0
  6
CONTINUOUS
 62
     7
  2
*UDIM446
 70
    65
 10
0.0
 20
0.0
 30
0.0
  3
*UDIM446
  0
TEXT
  5
    D8
  8
0
  6
CONTINUOUS
 62
     7
 10
-477.067310335516
 20
80.0412689026317
 30
0.0
 40
3.00000002980232
  1
10
 50
89.9999999480344
 41
0.933333333333333
 72
     1
 11
-478.567310348153
 21
82.5412689288255
 31
0.0
 73
     2
  0
LINE
  5
    D9
  8
0
  6
CONTINUOUS
 62
     7
 10
-382.223030090332
 20
85.4420466423035
 30
0.0
 11
-478.067310333252
 21
85.4420466423035
 31
0.0
  0
LINE
  5
    DA
  8
0
  6
CONTINUOUS
 62
     7
 10
-476.067310333252
 20
80.0412689039902
 30
0.0
 11
-476.067310333252
 21
85.4420466423035
 31
0.0
  0
LINE
  5
    DB
  8
0
  6
CONTINUOUS
 62
     7
 10
-475.5463659033
 20
77.4876101010358
 30
0.0
 11
-476.067310333252
 21
80.4420333782427
 31
0.0
  0
LINE
  5
    DC
  8
0
  6
CONTINUOUS
 62
     7
 10
-476.067310333252
 20
80.4420333782427
 30
0.0
 11
-476.588254763204
 21
77.4876101010358
 31
0.0
  0
LINE
  5
    DD
  8
0
  6
CONTINUOUS
 62
     7
 10
-476.588254763204
 20
88.3964699195104
 30
0.0
 11
-476.067310333252
 21
85.4420466423035
 31
0.0
  0
LINE
  5
    DE
  8
0
  6
CONTINUOUS
 62
     7
 10
-476.067310333252
 20
85.4420466423035
 30
0.0
 11
-475.5463659033
 21
88.3964699195104
 31
0.0
  0
ENDBLK
  5
    DF
  8
0
  6
CONTINUOUS
 62
     7
  0
BLOCK
  5
    E0
  8
0
  6
CONTINUOUS
 62
     7
  2
*UDIM447
 70
    65
 10
0.0
 20
0.0
 30
0.0
  3
*UDIM447
  0
TEXT
  5
    E1
  8
0
  6
CONTINUOUS
 62
     7
 10
-462.774496082024
 20
16.1027937488083
 30
0.0
 40
3.00000002980232
  1
175
 50
89.9999999480344
 41
0.933333333333333
 72
     1
 11
-464.274496093392
 21
20.0027937889099
 31
0.0
 73
     2
  0
LINE
  5
    E2
  8
0
  6
CONTINUOUS
 62
     7
 10
-438.47303425942
 20
-15.8079605102588
 30
0.0
 11
-463.774496078491
 21
-15.8079605102588
 31
0.0
  0
LINE
  5
    E3
  8
0
  6
CONTINUOUS
 62
     7
 10
-438.47303425942
 20
71.692039489751
 30
0.0
 11
-463.774496078491
 21
71.692039489751
 31
0.0
  0
LINE
  5
    E4
  8
0
  6
CONTINUOUS
 62
     7
 10
-461.774496078491
 20
-15.8079605102588
 30
0.0
 11
-461.774496078491
 21
71.692039489751
 31
0.0
  0
LINE
  5
    E5
  8
0
  6
CONTINUOUS
 62
     7
 10
-462.295440508443
 20
-12.8535372330519
 30
0.0
 11
-461.774496078491
 21
-15.8079605102588
 31
0.0
  0
LINE
  5
    E6
  8
0
  6
CONTINUOUS
 62
     7
 10
-461.774496078491
 20
-15.8079605102588
 30
0.0
 11
-461.25355164854
 21
-12.8535372330519
 31
0.0
  0
LINE
  5
    E7
  8
0
  6
CONTINUOUS
 62
     7
 10
-461.25355164854
 20
68.737616212544
 30
0.0
 11
-461.774496078491
 21
71.692039489751
 31
0.0
  0
LINE
  5
    E8
  8
0
  6
CONTINUOUS
 62
     7
 10
-461.774496078491
 20
71.692039489751
 30
0.0
 11
-462.295440508443
 21
68.737616212544
 31
0.0
  0
ENDBLK
  5
    E9
  8
0
  6
CONTINUOUS
 62
     7
  0
BLOCK
  5
    EA
  8
0
  6
CONTINUOUS
 62
     7
  2
MOSTRA
 70
    64
 10
0.0
 20
0.0
 30
0.0
  3
MOSTRA
  0
LINE
  5
    EB
  8
0
  6
CONTINUOUS
 62
     2
 10
175.338317871094
 20
34.312744140625
 30
0.0
 11
210.838317871094
 21
34.312744140625
 31
0.0
  0
LINE
  5
    EC
  8
0
  6
CONTINUOUS
 62
     2
 10
175.338317871094
 20
49.312744140625
 30
0.0
 11
210.838317871094
 21
49.312744140625
 31
0.0
  0
LINE
  5
    ED
  8
0
  6
CONTINUOUS
 62
     2
 10
210.838317871094
 20
33.312744140625
 30
0.0
 11
210.838317871094
 21
50.312744140625
 31
0.0
  0
LINE
  5
    EE
  8
0
  6
CONTINUOUS
 62
     2
 10
175.338317871094
 20
34.312744140625
 30
0.0
 11
175.338317871094
 21
49.312744140625
 31
0.0
  0
LINE
  5
    EF
  8
0
  6
CONTINUOUS
 62
     2
 10
210.838317871094
 20
50.312744140625
 30
0.0
 11
210.838317871094
 21
148.306442260742
 31
0.0
  0
LINE
  5
    F0
  8
0
  6
CONTINUOUS
 62
     2
 10
210.838317871094
 20
-10.187255859375
 30
0.0
 11
210.838317871094
 21
33.3127403259278
 31
0.0
  0
LINE
  5
    F1
  8
0
  6
CONTINUOUS
 62
     2
 10
37.5883140563965
 20
-11.437255859375
 30
0.0
 11
209.588317871094
 21
-11.437255859375
 31
0.0
  0
LINE
  5
    F2
  8
0
  6
CONTINUOUS
 62
     2
 10
36.3383140563965
 20
-10.187255859375
 30
0.0
 11
36.3383140563965
 21
148.306442260742
 31
0.0
  0
LINE
  5
    F3
  8
0
  6
CONTINUOUS
 62
     2
 10
175.338317871094
 20
128.562744140625
 30
0.0
 11
175.338317871094
 21
129.562744140625
 31
0.0
  0
LINE
  5
    F4
  8
0
  6
CONTINUOUS
 62
     2
 10
45.3383140563965
 20
128.562744140625
 30
0.0
 11
45.3383140563965
 21
129.562744140625
 31
0.0
  0
LINE
  5
    F5
  8
0
  6
CONTINUOUS
 62
     2
 10
175.338317871094
 20
8.56274414062501
 30
0.0
 11
175.338317871094
 21
9.56274414062501
 31
0.0
  0
LINE
  5
    F6
  8
0
  6
CONTINUOUS
 62
     2
 10
46.3383140563965
 20
8.562744140625
 30
0.0
 11
174.338314056396
 21
8.56274414062501
 31
0.0
  0
LINE
  5
    F7
  8
0
  6
CONTINUOUS
 62
     2
 10
45.3383140563965
 20
8.562744140625
 30
0.0
 11
45.3383140563965
 21
9.562744140625
 31
0.0
  0
LINE
  5
    F8
  8
0
  6
CONTINUOUS
 62
     2
 10
174.338317871094
 20
-11.437255859375
 30
0.0
 11
174.338317871094
 21
8.56274414062501
 31
0.0
  0
LINE
  5
    F9
  8
0
  6
CONTINUOUS
 62
     2
 10
175.338317871094
 20
129.562744140625
 30
0.0
 11
175.338317871094
 21
149.562744140625
 31
0.0
  0
LINE
  5
    FA
  8
0
  6
CONTINUOUS
 62
     2
 10
175.338317871094
 20
9.56274414062501
 30
0.0
 11
175.338317871094
 21
33.312744140625
 31
0.0
  0
LINE
  5
    FB
  8
0
  6
CONTINUOUS
 62
     2
 10
175.338317871094
 20
50.312744140625
 30
0.0
 11
175.338317871094
 21
128.562744140625
 31
0.0
  0
LINE
  5
    FC
  8
0
  6
CONTINUOUS
 62
     2
 10
175.338317871094
 20
-11.437255859375
 30
0.0
 11
175.338317871094
 21
8.56274414062501
 31
0.0
  0
LINE
  5
    FD
  8
0
  6
CONTINUOUS
 62
     2
 10
45.3383140563965
 20
129.562744140625
 30
0.0
 11
45.3383140563965
 21
149.562744140625
 31
0.0
  0
LINE
  5
    FE
  8
0
  6
CONTINUOUS
 62
     2
 10
45.3383140563965
 20
9.562744140625
 30
0.0
 11
45.3383140563965
 21
128.562744140625
 31
0.0
  0
LINE
  5
    FF
  8
0
  6
CONTINUOUS
 62
     2
 10
45.3383140563965
 20
-11.437255859375
 30
0.0
 11
45.3383140563965
 21
8.562744140625
 31
0.0
  0
LINE
  5
   100
  8
0
  6
CONTINUOUS
 62
     2
 10
46.3383140563965
 20
-11.437255859375
 30
0.0
 11
46.3383140563965
 21
8.562744140625
 31
0.0
  0
LINE
  5
   101
  8
0
  6
CONTINUOUS
 62
     2
 10
175.338317871094
 20
33.312744140625
 30
0.0
 11
210.838317871094
 21
33.312744140625
 31
0.0
  0
LINE
  5
   102
  8
0
  6
CONTINUOUS
 62
     2
 10
175.338317871094
 20
50.312744140625
 30
0.0
 11
210.838317871094
 21
50.312744140625
 31
0.0
  0
LINE
  5
   103
  8
0
  6
CONTINUOUS
 62
     2
 10
175.388320922852
 20
49.312744140625
 30
0.0
 11
175.388320922852
 21
50.312744140625
 31
0.0
  0
LINE
  5
   104
  8
0
  6
CONTINUOUS
 62
     2
 10
175.388320922852
 20
33.312744140625
 30
0.0
 11
175.388320922852
 21
34.312744140625
 31
0.0
  0
LINE
  5
   105
  8
0
  6
CONTINUOUS
 62
     2
 10
46.3383140563965
 20
128.562744140625
 30
0.0
 11
174.338314056396
 21
128.562744140625
 31
0.0
  0
LINE
  5
   106
  8
0
  6
CONTINUOUS
 62
     2
 10
46.3383140563965
 20
9.562744140625
 30
0.0
 11
174.338314056396
 21
9.56274414062501
 31
0.0
  0
LINE
  5
   107
  8
0
  6
CONTINUOUS
 62
     2
 10
174.338317871094
 20
9.56274414062501
 30
0.0
 11
174.338317871094
 21
128.562744140625
 31
0.0
  0
LINE
  5
   108
  8
0
  6
CONTINUOUS
 62
     2
 10
46.3383140563965
 20
9.562744140625
 30
0.0
 11
46.3383140563965
 21
128.562744140625
 31
0.0
  0
LINE
  5
   109
  8
0
  6
CONTINUOUS
 62
     2
 10
167.338315963745
 20
121.562743016692
 30
0.0
 11
174.338312295455
 21
128.562739348402
 31
0.0
  0
LINE
  5
   10A
  8
0
  6
CONTINUOUS
 62
     2
 10
46.3383156391412
 20
128.562746004959
 30
0.0
 11
62.3383159637451
 21
121.033336629486
 31
0.0
  0
LINE
  5
   10B
  8
0
  6
CONTINUOUS
 62
     2
 10
167.338315963745
 20
16.5627619426901
 30
0.0
 11
174.338335117812
 21
9.56273924827786
 31
0.0
  0
LINE
  5
   10C
  8
0
  6
CONTINUOUS
 62
     2
 10
46.3383186567184
 20
9.56274576222224
 30
0.0
 11
62.3383159637451
 21
17.092157375641
 31
0.0
  0
LINE
  5
   10D
  8
0
  6
CONTINUOUS
 62
     2
 10
174.338256835938
 20
129.556442260742
 30
0.0
 11
174.338256835938
 21
149.556442260742
 31
0.0
  0
LINE
  5
   10E
  8
0
  6
CONTINUOUS
 62
     2
 10
45.3383140563965
 20
129.556442260742
 30
0.0
 11
175.338317871094
 21
129.556442260742
 31
0.0
  0
LINE
  5
   10F
  8
0
  6
CONTINUOUS
 62
     2
 10
37.5883140563965
 20
149.556442260742
 30
0.0
 11
45.3383140563965
 21
149.556442260742
 31
0.0
  0
LINE
  5
   110
  8
0
  6
CONTINUOUS
 62
     2
 10
115.343585020102
 20
149.556442260742
 30
0.0
 11
175.338317871094
 21
149.556442260742
 31
0.0
  0
ARC
  5
   111
  8
0
  6
CONTINUOUS
 62
     2
 10
110.338285446167
 20
153.703627621259
 30
0.0
 40
6.50016693934245
 50
219.643748317915
 51
320.356251682085
  0
LINE
  5
   112
  8
0
  6
CONTINUOUS
 62
     2
 10
105.332985872232
 20
149.556442260742
 30
0.0
 11
115.343585020102
 21
149.556442260742
 31
0.0
  0
LINE
  5
   113
  8
0
  6
CONTINUOUS
 62
     2
 10
46.3383140563965
 20
129.562744140625
 30
0.0
 11
46.3383140563965
 21
149.562744140625
 31
0.0
  0
LINE
  5
   114
  8
0
  6
CONTINUOUS
 62
     2
 10
45.3383140563965
 20
149.556442260742
 30
0.0
 11
105.332985872232
 21
149.556442260742
 31
0.0
  0
LINE
  5
   115
  8
0
  6
CONTINUOUS
 62
     2
 10
175.338317871094
 20
149.556442260742
 30
0.0
 11
209.588317871094
 21
149.556442260742
 31
0.0
  0
POINT
  5
   116
  8
0
  6
CONTINUOUS
 62
     2
 10
114.838315963745
 20
69.062744140625
 30
0.0
  0
ARC
  5
   117
  8
0
  6
CONTINUOUS
 62
     2
 10
37.5883140563965
 20
148.306442260742
 30
0.0
 40
1.25
 50
90.0
 51
180.0
  0
ARC
  5
   118
  8
0
  6
CONTINUOUS
 62
     2
 10
37.5883140563965
 20
-10.187255859375
 30
0.0
 40
1.25
 50
180.0
 51
270.0
  0
ARC
  5
   119
  8
0
  6
CONTINUOUS
 62
     2
 10
209.588317871094
 20
-10.187255859375
 30
0.0
 40
1.25
 50
270.0
 51
360.0
  0
ARC
  5
   11A
  8
0
  6
CONTINUOUS
 62
     2
 10
209.588317871094
 20
148.306442260742
 30
0.0
 40
1.25
 50
0.0
 51
90.0
  0
ENDBLK
  5
   11B
  8
0
  6
CONTINUOUS
 62
     7
  0
BLOCK
  5
   11C
  8
0
  6
CONTINUOUS
 62
     7
  2
*HATCH75
 70
    65
 10
0.0
 20
0.0
 30
0.0
  3
*HATCH75
  0
LINE
  5
   11D
  8
0
  6
CONTINUOUS
 62
    52
 10
175.264511108398
 20
39.4999961853027
 30
0.0
 11
173.264511108398
 21
37.4999961853027
 31
0.0
  0
ENDBLK
  5
   11E
  8
0
  6
CONTINUOUS
 62
     7
  0
BLOCK
  5
   11F
  8
0
  6
CONTINUOUS
 62
     7
  2
*HATCH76
 70
    65
 10
0.0
 20
0.0
 30
0.0
  3
*HATCH76
  0
LINE
  5
   120
  8
0
  6
CONTINUOUS
 62
    52
 10
187.992431640625
 20
39.4999961853027
 30
0.0
 11
185.992431640625
 21
37.4999961853027
 31
0.0
  0
LINE
  5
   121
  8
0
  6
CONTINUOUS
 62
    52
 10
192.235076904297
 20
39.4999961853027
 30
0.0
 11
190.235076904297
 21
37.4999961853027
 31
0.0
  0
LINE
  5
   122
  8
0
  6
CONTINUOUS
 62
    52
 10
196.477722167969
 20
39.4999961853027
 30
0.0
 11
194.477722167969
 21
37.4999961853027
 31
0.0
  0
LINE
  5
   123
  8
0
  6
CONTINUOUS
 62
    52
 10
200.720367431641
 20
39.4999961853027
 30
0.0
 11
198.720367431641
 21
37.4999961853027
 31
0.0
  0
LINE
  5
   124
  8
0
  6
CONTINUOUS
 62
    52
 10
204.963012695313
 20
39.4999961853027
 30
0.0
 11
202.963012695313
 21
37.4999961853027
 31
0.0
  0
LINE
  5
   125
  8
0
  6
CONTINUOUS
 62
    52
 10
209.205657958984
 20
39.4999961853027
 30
0.0
 11
207.205657958984
 21
37.4999961853027
 31
0.0
  0
LINE
  5
   126
  8
0
  6
CONTINUOUS
 62
    52
 10
213.448303222656
 20
39.4999961853027
 30
0.0
 11
211.448303222656
 21
37.4999961853027
 31
0.0
  0
LINE
  5
   127
  8
0
  6
CONTINUOUS
 62
    52
 10
217.690948486328
 20
39.4999961853027
 30
0.0
 11
215.690948486328
 21
37.4999961853027
 31
0.0
  0
LINE
  5
   128
  8
0
  6
CONTINUOUS
 62
    52
 10
221.93359375
 20
39.4999961853027
 30
0.0
 11
219.93359375
 21
37.4999961853027
 31
0.0
  0
LINE
  5
   129
  8
0
  6
CONTINUOUS
 62
    52
 10
226.176239013672
 20
39.4999961853027
 30
0.0
 11
224.176239013672
 21
37.4999961853027
 31
0.0
  0
LINE
  5
   12A
  8
0
  6
CONTINUOUS
 62
    52
 10
230.418884277344
 20
39.4999961853027
 30
0.0
 11
228.418884277344
 21
37.4999961853027
 31
0.0
  0
LINE
  5
   12B
  8
0
  6
CONTINUOUS
 62
    52
 10
234.661529541016
 20
39.4999961853027
 30
0.0
 11
232.661529541016
 21
37.4999961853027
 31
0.0
  0
LINE
  5
   12C
  8
0
  6
CONTINUOUS
 62
    52
 10
238.904174804688
 20
39.4999961853027
 30
0.0
 11
236.904174804688
 21
37.4999961853027
 31
0.0
  0
LINE
  5
   12D
  8
0
  6
CONTINUOUS
 62
    52
 10
243.146820068359
 20
39.4999961853027
 30
0.0
 11
241.146820068359
 21
37.4999961853027
 31
0.0
  0
ENDBLK
  5
   12E
  8
0
  6
CONTINUOUS
 62
     7
  0
BLOCK
  5
   12F
  8
0
  6
CONTINUOUS
 62
     7
  2
*HATCH77
 70
    65
 10
0.0
 20
0.0
 30
0.0
  3
*HATCH77
  0
LINE
  5
   130
  8
0
  6
CONTINUOUS
 62
    52
 10
45.8639602661133
 20
39.4999961853027
 30
0.0
 11
43.8639602661133
 21
37.4999961853027
 31
0.0
  0
ENDBLK
  5
   131
  8
0
  6
CONTINUOUS
 62
     7
  0
BLOCK
  5
   132
  8
0
  6
CONTINUOUS
 62
     7
  2
*HATCH78
 70
    65
 10
0.0
 20
0.0
 30
0.0
  3
*HATCH78
  0
LINE
  5
   133
  8
0
  6
CONTINUOUS
 62
    52
 10
-17.7756519317627
 20
39.4999961853027
 30
0.0
 11
-19.7756519317627
 21
37.4999961853027
 31
0.0
  0
LINE
  5
   134
  8
0
  6
CONTINUOUS
 62
    52
 10
-13.5330104827881
 20
39.4999961853027
 30
0.0
 11
-15.5330104827881
 21
37.4999961853027
 31
0.0
  0
LINE
  5
   135
  8
0
  6
CONTINUOUS
 62
    52
 10
-9.29036903381348
 20
39.4999961853027
 30
0.0
 11
-11.2903690338135
 21
37.4999961853027
 31
0.0
  0
LINE
  5
   136
  8
0
  6
CONTINUOUS
 62
    52
 10
-5.04772853851318
 20
39.4999961853027
 30
0.0
 11
-7.04772758483887
 21
37.4999961853027
 31
0.0
  0
LINE
  5
   137
  8
0
  6
CONTINUOUS
 62
    52
 10
-0.805088043212891
 20
39.4999961853027
 30
0.0
 11
-2.80508637428284
 21
37.4999961853027
 31
0.0
  0
LINE
  5
   138
  8
0
  6
CONTINUOUS
 62
    52
 10
3.4375524520874
 20
39.4999961853027
 30
0.0
 11
1.43755459785461
 21
37.4999961853027
 31
0.0
  0
LINE
  5
   139
  8
0
  6
CONTINUOUS
 62
    52
 10
7.6801929473877
 20
39.4999961853027
 30
0.0
 11
5.68019580841064
 21
37.4999961853027
 31
0.0
  0
LINE
  5
   13A
  8
0
  6
CONTINUOUS
 62
    52
 10
11.9228343963623
 20
39.4999961853027
 30
0.0
 11
9.92283725738525
 21
37.4999961853027
 31
0.0
  0
LINE
  5
   13B
  8
0
  6
CONTINUOUS
 62
    52
 10
16.1654758453369
 20
39.4999961853027
 30
0.0
 11
14.1654787063599
 21
37.4999961853027
 31
0.0
  0
LINE
  5
   13C
  8
0
  6
CONTINUOUS
 62
    52
 10
20.4081172943115
 20
39.4999961853027
 30
0.0
 11
18.4081192016602
 21
37.4999961853027
 31
0.0
  0
LINE
  5
   13D
  8
0
  6
CONTINUOUS
 62
    52
 10
24.6507587432861
 20
39.4999961853027
 30
0.0
 11
22.6507606506348
 21
37.4999961853027
 31
0.0
  0
LINE
  5
   13E
  8
0
  6
CONTINUOUS
 62
    52
 10
28.8934001922607
 20
39.4999961853027
 30
0.0
 11
26.8934020996094
 21
37.4999961853027
 31
0.0
  0
LINE
  5
   13F
  8
0
  6
CONTINUOUS
 62
    52
 10
33.1360397338867
 20
39.4999961853027
 30
0.0
 11
31.136043548584
 21
37.4999961853027
 31
0.0
  0
LINE
  5
   140
  8
0
  6
CONTINUOUS
 62
    52
 10
35.4869270324707
 20
37.6082458496094
 30
0.0
 11
35.3786773681641
 21
37.4999961853027
 31
0.0
  0
ENDBLK
  5
   141
  8
0
  6
CONTINUOUS
 62
     7
  0
BLOCK
  5
   142
  8
0
  6
CONTINUOUS
 62
     7
  2
*HATCH79
 70
    65
 10
0.0
 20
0.0
 30
0.0
  3
*HATCH79
  0
LINE
  5
   143
  8
0
  6
CONTINUOUS
 62
    52
 10
166.264511108398
 20
30.5000038146973
 30
0.0
 11
163.987106323242
 21
28.2225971221924
 31
0.0
  0
LINE
  5
   144
  8
0
  6
CONTINUOUS
 62
    52
 10
170.50715637207
 20
30.5000038146973
 30
0.0
 11
168.00715637207
 21
27.9999980926514
 31
0.0
  0
LINE
  5
   145
  8
0
  6
CONTINUOUS
 62
    52
 10
172.987106323242
 20
28.7373161315918
 30
0.0
 11
172.249786376953
 21
27.9999980926514
 31
0.0
  0
ENDBLK
  5
   146
  8
0
  6
CONTINUOUS
 62
     7
  0
BLOCK
  5
   147
  8
0
  6
CONTINUOUS
 62
     7
  2
*UDIM448
 70
    65
 10
0.0
 20
0.0
 30
0.0
  3
*UDIM448
  0
TEXT
  5
   148
  8
0
  6
CONTINUOUS
 62
     7
 10
-575.586980900205
 20
19.0723285574405
 30
0.0
 40
3.00000002980232
  1
5,5
 50
314.281072395896
 41
0.933333333333333
 72
     1
 11
-571.790198345447
 21
17.3274954482913
 31
0.0
 73
     2
  0
TEXT
  5
   149
  8
0
  6
CONTINUOUS
 62
     7
 10
-577.786244190654
 20
21.3274873194499
 30
0.0
 40
3.00000002980232
  1
Ø
 50
314.281072395896
 41
0.933333333333334
 72
     1
 11
-575.944362348355
 21
21.5872397934561
 31
0.0
 73
     2
  0
LINE
  5
   14A
  8
0
  6
CONTINUOUS
 62
     7
 10
-570.857109469703
 20
12.7899470434074
 30
0.0
 11
-584.643193684184
 21
26.9264121019578
 31
0.0
  0
LINE
  5
   14B
  8
0
  6
CONTINUOUS
 62
     7
 10
-580.28752902707
 20
23.2061934240536
 30
0.0
 11
-582.723201098534
 21
24.9576218583006
 31
0.0
  0
LINE
  5
   14C
  8
0
  6
CONTINUOUS
 62
     7
 10
-582.723201098534
 20
24.9576218583006
 30
0.0
 11
-581.033441657508
 21
22.4787686897038
 31
0.0
  0
LINE
  5
   14D
  8
0
  6
CONTINUOUS
 62
     7
 10
-587.078865755648
 20
28.6778405362048
 30
0.0
 11
-584.643193684184
 21
26.9264121019578
 31
0.0
  0
LINE
  5
   14E
  8
0
  6
CONTINUOUS
 62
     7
 10
-584.643193684184
 20
26.9264121019578
 30
0.0
 11
-586.33295312521
 21
29.4052652705546
 31
0.0
  0
ENDBLK
  5
   14F
  8
0
  6
CONTINUOUS
 62
     7
  0
BLOCK
  5
   150
  8
0
  6
CONTINUOUS
 62
     7
  2
*UDIM449
 70
    65
 10
0.0
 20
0.0
 30
0.0
  3
*UDIM449
  0
TEXT
  5
   151
  8
0
  6
CONTINUOUS
 62
     7
 10
-625.255579811694
 20
107.962936406147
 30
0.0
 40
3.00000002980232
  1
27,5
 50
359.999999948034
 41
0.933333333333333
 72
     1
 11
-619.955579757691
 21
109.462936416268
 31
0.0
 73
     2
  0
TEXT
  5
   152
  8
0
  6
CONTINUOUS
 62
     7
 10
-614.105579694472
 20
107.962936436453
 30
0.0
 40
3.00000002980232
  1
       CORSA DI SEZIONAMENTO
 50
359.999999948034
 41
0.933333333333333
 72
     1
 11
-575.205579306682
 21
109.462936416268
 31
0.0
 73
     2
  0
LINE
  5
   153
  8
0
  6
CONTINUOUS
 62
     7
 10
-597.933164596558
 20
68.0669784545898
 30
0.0
 11
-597.933164596558
 21
108.962936401367
 31
0.0
  0
LINE
  5
   154
  8
0
  6
CONTINUOUS
 62
     7
 10
-611.683164596558
 20
54.0670700073242
 30
0.0
 11
-611.683164596558
 21
108.962936401367
 31
0.0
  0
LINE
  5
   155
  8
0
  6
CONTINUOUS
 62
     7
 10
-536.305578920245
 20
106.962936401367
 30
0.0
 11
-625.255579810341
 21
106.962936401367
 31
0.0
  0
LINE
  5
   156
  8
0
  6
CONTINUOUS
 62
     7
 10
-594.978741319351
 20
107.483880831319
 30
0.0
 11
-597.933164596558
 21
106.962936401367
 31
0.0
  0
LINE
  5
   157
  8
0
  6
CONTINUOUS
 62
     7
 10
-597.933164596558
 20
106.962936401367
 30
0.0
 11
-594.978741319351
 21
106.441991971416
 31
0.0
  0
LINE
  5
   158
  8
0
  6
CONTINUOUS
 62
     7
 10
-614.637587873765
 20
106.441991971416
 30
0.0
 11
-611.683164596558
 21
106.962936401367
 31
0.0
  0
LINE
  5
   159
  8
0
  6
CONTINUOUS
 62
     7
 10
-611.683164596558
 20
106.962936401367
 30
0.0
 11
-614.637587873765
 21
107.483880831319
 31
0.0
  0
ENDBLK
  5
   15A
  8
0
  6
CONTINUOUS
 62
     7
  0
BLOCK
  5
   15B
  8
0
  6
CONTINUOUS
 62
     7
  2
*UDIM450
 70
    65
 10
0.0
 20
0.0
 30
0.0
  3
*UDIM450
  0
TEXT
  5
   15C
  8
0
  6
CONTINUOUS
 62
     7
 10
-552.491592412027
 20
11.8670162209914
 30
0.0
 40
3.00000002980232
  1
1,75
 50
89.9999999480344
 41
0.933333333333333
 72
     1
 11
-553.991592422128
 21
17.1670162750007
 31
0.0
 73
     2
  0
LINE
  5
   15D
  8
0
  6
CONTINUOUS
 62
     7
 10
-576.183199425723
 20
25.9420151854995
 30
0.0
 11
-549.491592407227
 21
25.9420151854995
 31
0.0
  0
LINE
  5
   15E
  8
0
  6
CONTINUOUS
 62
     7
 10
-551.491592407227
 20
11.8670162223499
 30
0.0
 11
-551.491592407227
 21
26.8170700073242
 31
0.0
  0
LINE
  5
   15F
  8
0
  6
CONTINUOUS
 62
     7
 10
-550.970647977275
 20
22.9875919082925
 30
0.0
 11
-551.491592407227
 21
25.9420151854995
 31
0.0
  0
LINE
  5
   160
  8
0
  6
CONTINUOUS
 62
     7
 10
-551.491592407227
 20
25.9420151854995
 30
0.0
 11
-552.012536837178
 21
22.9875919082925
 31
0.0
  0
LINE
  5
   161
  8
0
  6
CONTINUOUS
 62
     7
 10
-552.012536837178
 20
29.7714932845312
 30
0.0
 11
-551.491592407227
 21
26.8170700073242
 31
0.0
  0
LINE
  5
   162
  8
0
  6
CONTINUOUS
 62
     7
 10
-551.491592407227
 20
26.8170700073242
 30
0.0
 11
-550.970647977275
 21
29.7714932845312
 31
0.0
  0
ENDBLK
  5
   163
  8
0
  6
CONTINUOUS
 62
     7
  0
BLOCK
  5
   164
  8
0
  6
CONTINUOUS
 62
     7
  2
*UDIM451
 70
    65
 10
0.0
 20
0.0
 30
0.0
  3
*UDIM451
  0
TEXT
  5
   165
  8
0
  6
CONTINUOUS
 62
     7
 10
-621.264404300407
 20
16.85386567874
 30
0.0
 40
3.00000002980232
  1
105
 50
89.9999999480344
 41
0.933333333333333
 72
     1
 11
-622.764404311776
 21
20.7538657188416
 31
0.0
 73
     2
  0
LINE
  5
   166
  8
0
  6
CONTINUOUS
 62
     7
 10
-596.183164596558
 20
0.567043304443359
 30
0.0
 11
-622.264404296875
 21
0.567043304443359
 31
0.0
  0
LINE
  5
   167
  8
0
  6
CONTINUOUS
 62
     7
 10
-596.183164596558
 20
53.0670700073242
 30
0.0
 11
-622.264404296875
 21
53.0670700073242
 31
0.0
  0
LINE
  5
   168
  8
0
  6
CONTINUOUS
 62
     7
 10
-620.264404296875
 20
0.567043304443359
 30
0.0
 11
-620.264404296875
 21
53.0670700073242
 31
0.0
  0
LINE
  5
   169
  8
0
  6
CONTINUOUS
 62
     7
 10
-620.785348726827
 20
3.52146658165032
 30
0.0
 11
-620.264404296875
 21
0.567043304443359
 31
0.0
  0
LINE
  5
   16A
  8
0
  6
CONTINUOUS
 62
     7
 10
-620.264404296875
 20
0.567043304443359
 30
0.0
 11
-619.743459866923
 21
3.52146658165032
 31
0.0
  0
LINE
  5
   16B
  8
0
  6
CONTINUOUS
 62
     7
 10
-619.743459866923
 20
50.1126467301173
 30
0.0
 11
-620.264404296875
 21
53.0670700073242
 31
0.0
  0
LINE
  5
   16C
  8
0
  6
CONTINUOUS
 62
     7
 10
-620.264404296875
 20
53.0670700073242
 30
0.0
 11
-620.785348726827
 21
50.1126467301173
 31
0.0
  0
ENDBLK
  5
   16D
  8
0
  6
CONTINUOUS
 62
     7
  0
BLOCK
  5
   16E
  8
0
  6
CONTINUOUS
 62
     7
  2
*UDIM452
 70
    65
 10
0.0
 20
0.0
 30
0.0
  3
*UDIM452
  0
TEXT
  5
   16F
  8
0
  6
CONTINUOUS
 62
     7
 10
-556.033170392475
 20
-53.8896503388056
 30
0.0
 40
3.00000002980232
  1
195,5
 50
359.999999948034
 41
0.933333333333333
 72
     1
 11
-549.333170324564
 21
-52.3896503299475
 31
0.0
 73
     2
  0
LINE
  5
   170
  8
0
  6
CONTINUOUS
 62
     7
 10
-500.183174133301
 20
-33.0244423736252
 30
0.0
 11
-500.183174133301
 21
-56.8896503448486
 31
0.0
  0
LINE
  5
   171
  8
0
  6
CONTINUOUS
 62
     7
 10
-597.933164596558
 20
-14.4330196380615
 30
0.0
 11
-597.933164596558
 21
-56.8896503448486
 31
0.0
  0
LINE
  5
   172
  8
0
  6
CONTINUOUS
 62
     7
 10
-500.183174133301
 20
-54.8896503448486
 30
0.0
 11
-597.933164596558
 21
-54.8896503448486
 31
0.0
  0
LINE
  5
   173
  8
0
  6
CONTINUOUS
 62
     7
 10
-503.137597410508
 20
-55.4105947748003
 30
0.0
 11
-500.183174133301
 21
-54.8896503448486
 31
0.0
  0
LINE
  5
   174
  8
0
  6
CONTINUOUS
 62
     7
 10
-500.183174133301
 20
-54.8896503448486
 30
0.0
 11
-503.137597410508
 21
-54.368705914897
 31
0.0
  0
LINE
  5
   175
  8
0
  6
CONTINUOUS
 62
     7
 10
-594.978741319351
 20
-54.368705914897
 30
0.0
 11
-597.933164596558
 21
-54.8896503448486
 31
0.0
  0
LINE
  5
   176
  8
0
  6
CONTINUOUS
 62
     7
 10
-597.933164596558
 20
-54.8896503448486
 30
0.0
 11
-594.978741319351
 21
-55.4105947748003
 31
0.0
  0
ENDBLK
  5
   177
  8
0
  6
CONTINUOUS
 62
     7
  0
BLOCK
  5
   178
  8
0
  6
CONTINUOUS
 62
     7
  2
*UDIM453
 70
    65
 10
0.0
 20
0.0
 30
0.0
  3
*UDIM453
  0
TEXT
  5
   179
  8
0
  6
CONTINUOUS
 62
     7
 10
-551.85817036466
 20
-45.3960895503154
 30
0.0
 40
3.00000002980232
  1
190
 50
359.999999948034
 41
0.933333333333333
 72
     1
 11
-547.958170324564
 21
-43.8960895389318
 31
0.0
 73
     2
  0
LINE
  5
   17A
  8
0
  6
CONTINUOUS
 62
     7
 10
-500.183174133301
 20
-33.0244423736252
 30
0.0
 11
-500.183174133301
 21
-48.396089553833
 31
0.0
  0
LINE
  5
   17B
  8
0
  6
CONTINUOUS
 62
     7
 10
-595.183164596558
 20
-39.5395138639713
 30
0.0
 11
-595.183164596558
 21
-48.396089553833
 31
0.0
  0
LINE
  5
   17C
  8
0
  6
CONTINUOUS
 62
     7
 10
-500.183174133301
 20
-46.396089553833
 30
0.0
 11
-595.183164596558
 21
-46.396089553833
 31
0.0
  0
LINE
  5
   17D
  8
0
  6
CONTINUOUS
 62
     7
 10
-503.137597410508
 20
-46.9170339837847
 30
0.0
 11
-500.183174133301
 21
-46.396089553833
 31
0.0
  0
LINE
  5
   17E
  8
0
  6
CONTINUOUS
 62
     7
 10
-500.183174133301
 20
-46.396089553833
 30
0.0
 11
-503.137597410508
 21
-45.8751451238814
 31
0.0
  0
LINE
  5
   17F
  8
0
  6
CONTINUOUS
 62
     7
 10
-592.228741319351
 20
-45.8751451238814
 30
0.0
 11
-595.183164596558
 21
-46.396089553833
 31
0.0
  0
LINE
  5
   180
  8
0
  6
CONTINUOUS
 62
     7
 10
-595.183164596558
 20
-46.396089553833
 30
0.0
 11
-592.228741319351
 21
-46.9170339837847
 31
0.0
  0
ENDBLK
  5
   181
  8
0
  6
CONTINUOUS
 62
     7
  0
BLOCK
  5
   182
  8
0
  6
CONTINUOUS
 62
     7
  2
*UDIM454
 70
    65
 10
0.0
 20
0.0
 30
0.0
  3
*UDIM454
  0
TEXT
  5
   183
  8
0
  6
CONTINUOUS
 62
     7
 10
-592.044838059308
 20
-45.3960895528409
 30
0.0
 40
3.00000002980232
  1
2
 50
359.999999948034
 41
0.933333333333334
 72
     1
 11
-590.944838047028
 21
-43.8960895389318
 31
0.0
 73
     2
  0
LINE
  5
   184
  8
0
  6
CONTINUOUS
 62
     7
 10
-596.183164596558
 20
-39.8427925524959
 30
0.0
 11
-596.183164596558
 21
-48.396089553833
 31
0.0
  0
LINE
  5
   185
  8
0
  6
CONTINUOUS
 62
     7
 10
-589.8448380361
 20
-46.396089553833
 30
0.0
 11
-596.183164596558
 21
-46.396089553833
 31
0.0
  0
LINE
  5
   186
  8
0
  6
CONTINUOUS
 62
     7
 10
-592.228741319351
 20
-45.8751451238814
 30
0.0
 11
-595.183164596558
 21
-46.396089553833
 31
0.0
  0
LINE
  5
   187
  8
0
  6
CONTINUOUS
 62
     7
 10
-595.183164596558
 20
-46.396089553833
 30
0.0
 11
-592.228741319351
 21
-46.9170339837847
 31
0.0
  0
LINE
  5
   188
  8
0
  6
CONTINUOUS
 62
     7
 10
-599.137587873765
 20
-46.9170339837847
 30
0.0
 11
-596.183164596558
 21
-46.396089553833
 31
0.0
  0
LINE
  5
   189
  8
0
  6
CONTINUOUS
 62
     7
 10
-596.183164596558
 20
-46.396089553833
 30
0.0
 11
-599.137587873765
 21
-45.8751451238813
 31
0.0
  0
ENDBLK
  5
   18A
  8
0
  6
CONTINUOUS
 62
     7
  0
BLOCK
  5
   18B
  8
0
  6
CONTINUOUS
 62
     7
  2
*UDIM455
 70
    65
 10
0.0
 20
0.0
 30
0.0
  3
*UDIM455
  0
TEXT
  5
   18C
  8
0
  6
CONTINUOUS
 62
     7
 10
-546.108185625116
 20
-38.2681617701641
 30
0.0
 40
3.00000002980232
  1
167
 50
359.999999948034
 41
0.933333333333333
 72
     1
 11
-542.20818558502
 21
-36.7681617587805
 31
0.0
 73
     2
  0
LINE
  5
   18D
  8
0
  6
CONTINUOUS
 62
     7
 10
-500.183174133301
 20
-33.0244423736252
 30
0.0
 11
-500.183174133301
 21
-41.2681617736816
 31
0.0
  0
LINE
  5
   18E
  8
0
  6
CONTINUOUS
 62
     7
 10
-583.683199289794
 20
18.4420153214284
 30
0.0
 11
-583.683199289794
 21
-41.2681617736816
 31
0.0
  0
LINE
  5
   18F
  8
0
  6
CONTINUOUS
 62
     7
 10
-500.183174133301
 20
-39.2681617736816
 30
0.0
 11
-583.683199289794
 21
-39.2681617736816
 31
0.0
  0
LINE
  5
   190
  8
0
  6
CONTINUOUS
 62
     7
 10
-503.137597410508
 20
-39.7891062036333
 30
0.0
 11
-500.183174133301
 21
-39.2681617736816
 31
0.0
  0
LINE
  5
   191
  8
0
  6
CONTINUOUS
 62
     7
 10
-500.183174133301
 20
-39.2681617736816
 30
0.0
 11
-503.137597410508
 21
-38.74721734373
 31
0.0
  0
LINE
  5
   192
  8
0
  6
CONTINUOUS
 62
     7
 10
-580.728776012587
 20
-38.74721734373
 30
0.0
 11
-583.683199289794
 21
-39.2681617736816
 31
0.0
  0
LINE
  5
   193
  8
0
  6
CONTINUOUS
 62
     7
 10
-583.683199289794
 20
-39.2681617736816
 30
0.0
 11
-580.728776012587
 21
-39.7891062036333
 31
0.0
  0
ENDBLK
  5
   194
  8
0
  6
CONTINUOUS
 62
     7
  0
BLOCK
  5
   195
  8
0
  6
CONTINUOUS
 62
     7
  2
*UDIM456
 70
    65
 10
0.0
 20
0.0
 30
0.0
  3
*UDIM456
  0
TEXT
  5
   196
  8
0
  6
CONTINUOUS
 62
     7
 10
-523.933197129132
 20
101.342559821408
 30
0.0
 40
3.00000002980232
  1
5
 50
359.999999948034
 41
0.933333333333334
 72
     1
 11
-522.833197116852
 21
102.842559835317
 31
0.0
 73
     2
  0
LINE
  5
   197
  8
0
  6
CONTINUOUS
 62
     7
 10
-515.683197021484
 20
86.4420695529264
 30
0.0
 11
-515.683197021484
 21
102.342559820416
 31
0.0
  0
LINE
  5
   198
  8
0
  6
CONTINUOUS
 62
     7
 10
-518.183197021484
 20
86.4420624003691
 30
0.0
 11
-518.183197021484
 21
102.342559820416
 31
0.0
  0
LINE
  5
   199
  8
0
  6
CONTINUOUS
 62
     7
 10
-515.683197021484
 20
100.342559820416
 30
0.0
 11
-523.933197127779
 21
100.342559820416
 31
0.0
  0
LINE
  5
   19A
  8
0
  6
CONTINUOUS
 62
     7
 10
-512.728773744277
 20
100.863504250367
 30
0.0
 11
-515.683197021484
 21
100.342559820416
 31
0.0
  0
LINE
  5
   19B
  8
0
  6
CONTINUOUS
 62
     7
 10
-515.683197021484
 20
100.342559820416
 30
0.0
 11
-512.728773744277
 21
99.8216153904639
 31
0.0
  0
LINE
  5
   19C
  8
0
  6
CONTINUOUS
 62
     7
 10
-521.137620298691
 20
99.8216153904639
 30
0.0
 11
-518.183197021484
 21
100.342559820416
 31
0.0
  0
LINE
  5
   19D
  8
0
  6
CONTINUOUS
 62
     7
 10
-518.183197021484
 20
100.342559820416
 30
0.0
 11
-521.137620298691
 21
100.863504250367
 31
0.0
  0
ENDBLK
  5
   19E
  8
0
  6
CONTINUOUS
 62
     7
  0
BLOCK
  5
   19F
  8
0
  6
CONTINUOUS
 62
     7
  2
*UDIM457
 70
    65
 10
0.0
 20
0.0
 30
0.0
  3
*UDIM457
  0
TEXT
  5
   1A0
  8
0
  6
CONTINUOUS
 62
     7
 10
-510.708189424239
 20
101.34255982267
 30
0.0
 40
3.00000002980232
  1
31
 50
359.999999948034
 41
0.933333333333333
 72
     1
 11
-508.20818939805
 21
102.842559835317
 31
0.0
 73
     2
  0
LINE
  5
   1A1
  8
0
  6
CONTINUOUS
 62
     7
 10
-500.183174133301
 20
87.7811902811487
 30
0.0
 11
-500.183174133301
 21
102.342559820416
 31
0.0
  0
LINE
  5
   1A2
  8
0
  6
CONTINUOUS
 62
     7
 10
-500.183174133301
 20
100.342559820416
 30
0.0
 11
-515.683197021484
 21
100.342559820416
 31
0.0
  0
LINE
  5
   1A3
  8
0
  6
CONTINUOUS
 62
     7
 10
-503.137597410508
 20
99.8216153904639
 30
0.0
 11
-500.183174133301
 21
100.342559820416
 31
0.0
  0
LINE
  5
   1A4
  8
0
  6
CONTINUOUS
 62
     7
 10
-500.183174133301
 20
100.342559820416
 30
0.0
 11
-503.137597410508
 21
100.863504250367
 31
0.0
  0
LINE
  5
   1A5
  8
0
  6
CONTINUOUS
 62
     7
 10
-512.728773744277
 20
100.863504250367
 30
0.0
 11
-515.683197021484
 21
100.342559820416
 31
0.0
  0
LINE
  5
   1A6
  8
0
  6
CONTINUOUS
 62
     7
 10
-515.683197021484
 20
100.342559820416
 30
0.0
 11
-512.728773744277
 21
99.8216153904639
 31
0.0
  0
ENDBLK
  5
   1A7
  8
0
  6
CONTINUOUS
 62
     7
  0
BLOCK
  5
   1A8
  8
0
  6
CONTINUOUS
 62
     7
  2
*UDIM458
 70
    65
 10
0.0
 20
0.0
 30
0.0
  3
*UDIM458
  0
TEXT
  5
   1A9
  8
0
  6
CONTINUOUS
 62
     7
 10
-495.683174240949
 20
101.342559821408
 30
0.0
 40
3.00000002980232
  1
3
 50
359.999999948034
 41
0.933333333333334
 72
     1
 11
-494.583174228668
 21
102.842559835317
 31
0.0
 73
     2
  0
TEXT
  5
   1AA
  8
0
  6
CONTINUOUS
 62
     7
 10
-498.433174274725
 20
101.342559821408
 30
0.0
 40
3.00000002980232
  1
_
 50
359.999999948034
 41
0.933333333333334
 72
     1
 11
-497.333174262444
 21
102.842559835317
 31
0.0
 73
     2
  0
LINE
  5
   1AB
  8
0
  6
CONTINUOUS
 62
     7
 10
-498.683174133301
 20
88.3078499013398
 30
0.0
 11
-498.683174133301
 21
102.342559820416
 31
0.0
  0
LINE
  5
   1AC
  8
0
  6
CONTINUOUS
 62
     7
 10
-493.483174217741
 20
100.342559820416
 30
0.0
 11
-500.183174133301
 21
100.342559820416
 31
0.0
  0
LINE
  5
   1AD
  8
0
  6
CONTINUOUS
 62
     7
 10
-495.728750856094
 20
100.863504250367
 30
0.0
 11
-498.683174133301
 21
100.342559820416
 31
0.0
  0
LINE
  5
   1AE
  8
0
  6
CONTINUOUS
 62
     7
 10
-498.683174133301
 20
100.342559820416
 30
0.0
 11
-495.728750856094
 21
99.8216153904639
 31
0.0
  0
LINE
  5
   1AF
  8
0
  6
CONTINUOUS
 62
     7
 10
-503.137597410508
 20
99.8216153904639
 30
0.0
 11
-500.183174133301
 21
100.342559820416
 31
0.0
  0
LINE
  5
   1B0
  8
0
  6
CONTINUOUS
 62
     7
 10
-500.183174133301
 20
100.342559820416
 30
0.0
 11
-503.137597410508
 21
100.863504250367
 31
0.0
  0
ENDBLK
  5
   1B1
  8
0
  6
CONTINUOUS
 62
     7
  0
BLOCK
  5
   1B2
  8
0
  6
CONTINUOUS
 62
     7
  2
*UDIM459
 70
    65
 10
0.0
 20
0.0
 30
0.0
  3
*UDIM459
  0
TEXT
  5
   1B3
  8
0
  6
CONTINUOUS
 62
     7
 10
-257.455717084075
 20
56.7055806300637
 30
0.0
 40
3.00000002980232
  1
8
 50
406.249477420785
 41
0.933333333333334
 72
     1
 11
-257.778581961021
 21
58.5374535350379
 31
0.0
 73
     2
  0
TEXT
  5
   1B4
  8
0
  6
CONTINUOUS
 62
     7
 10
-259.634003964105
 20
54.4301540039399
 30
0.0
 40
3.00000002980232
  1
Ø
 50
406.249477420785
 41
0.933333333333334
 72
     1
 11
-259.956868841051
 21
56.262026908914
 31
0.0
 73
     2
  0
TEXT
  5
   1B5
  8
0
  6
CONTINUOUS
 62
     7
 10
-271.216958105442
 20
42.330663140673
 30
0.0
 40
3.00000002980232
  1
3 fori
 50
406.249477420785
 41
0.933333333333333
 72
     1
 11
-266.699185424659
 21
49.2190396803976
 31
0.0
 73
     2
  0
LINE
  5
   1B6
  8
0
  6
CONTINUOUS
 62
     7
 10
-255.212016194178
 20
57.6032478494338
 30
0.0
 11
-279.678976917664
 21
32.0451937653103
 31
0.0
  0
LINE
  5
   1B7
  8
0
  6
CONTINUOUS
 62
     7
 10
-276.629204103087
 20
35.9843026605171
 30
0.0
 11
-278.295937633117
 21
33.489909078928
 31
0.0
  0
LINE
  5
   1B8
  8
0
  6
CONTINUOUS
 62
     7
 10
-278.295937633117
 20
33.489909078928
 30
0.0
 11
-275.876587707592
 21
35.2638160488284
 31
0.0
  0
LINE
  5
   1B9
  8
0
  6
CONTINUOUS
 62
     7
 10
-281.345710447694
 20
29.5508001837211
 30
0.0
 11
-279.678976917664
 21
32.0451937653103
 31
0.0
  0
LINE
  5
   1BA
  8
0
  6
CONTINUOUS
 62
     7
 10
-279.678976917664
 20
32.0451937653103
 30
0.0
 11
-282.098326843189
 21
30.2712867954099
 31
0.0
  0
ENDBLK
  5
   1BB
  8
0
  6
CONTINUOUS
 62
     7
  0
BLOCK
  5
   1BC
  8
0
  6
CONTINUOUS
 62
     7
  2
*UDIM460
 70
    65
 10
0.0
 20
0.0
 30
0.0
  3
*UDIM460
  0
TEXT
  5
   1BD
  8
0
  6
CONTINUOUS
 62
     7
 10
-265.72627056563
 20
-11.2145420226494
 30
0.0
 40
3.00000002980232
  1
7
 50
323.754117978745
 41
0.933333333333334
 72
     1
 11
-263.952257208225
 21
-10.6551882200419
 31
0.0
 73
     2
  0
TEXT
  5
   1BE
  8
0
  6
CONTINUOUS
 62
     7
 10
-268.952218999305
 20
-8.84953526965863
 30
0.0
 40
3.00000002980232
  1
Ø
 50
323.754117978745
 41
1.2
 72
     1
 11
-266.855610798309
 21
-8.52668214372615
 31
0.0
 73
     2
  0
LINE
  5
   1BF
  8
0
  6
CONTINUOUS
 62
     7
 10
-283.725569002992
 20
0.741155063406934
 30
0.0
 11
-264.543250604454
 21
-13.3217828469322
 31
0.0
  0
LINE
  5
   1C0
  8
0
  6
CONTINUOUS
 62
     7
 10
-282.489235249397
 20
-1.12799022725856
 30
0.0
 11
-279.69313349014
 21
-2.21510335471038
 31
0.0
  0
LINE
  5
   1C1
  8
0
  6
CONTINUOUS
 62
     7
 10
-279.69313349014
 20
-2.21510335471038
 30
0.0
 11
-281.571072047409
 21
0.124415137441545
 31
0.0
  0
LINE
  5
   1C2
  8
0
  6
CONTINUOUS
 62
     7
 10
-275.485679301384
 20
-4.33690692850316
 30
0.0
 11
-278.281781060642
 21
-3.24979380105134
 31
0.0
  0
LINE
  5
   1C3
  8
0
  6
CONTINUOUS
 62
     7
 10
-278.281781060642
 20
-3.24979380105134
 30
0.0
 11
-276.403842503372
 21
-5.58931229320326
 31
0.0
  0
ENDBLK
  5
   1C4
  8
0
  6
CONTINUOUS
 62
     7
  0
BLOCK
  5
   1C5
  8
0
  6
CONTINUOUS
 62
     7
  2
*UDIM461
 70
    65
 10
0.0
 20
0.0
 30
0.0
  3
*UDIM461
  0
TEXT
  5
   1C6
  8
0
  6
CONTINUOUS
 62
     7
 10
-323.42789195954
 20
41.1204259040787
 30
0.0
 40
3.00000002980232
  1
7
 50
331.328185870647
 41
0.933333333333334
 72
     1
 11
-321.743083507166
 21
41.908728223976
 31
0.0
 73
     2
  0
TEXT
  5
   1C7
  8
0
  6
CONTINUOUS
 62
     7
 10
-326.937421178009
 20
43.0395936672333
 30
0.0
 40
3.00000002980232
  1
Ø
 50
331.328185870647
 41
1.2
 72
     1
 11
-324.901659803386
 21
43.6359792094805
 31
0.0
 73
     2
  0
LINE
  5
   1C8
  8
0
  6
CONTINUOUS
 62
     7
 10
-327.417213113364
 20
42.162211363493
 30
0.0
 11
-305.082836273404
 21
29.9487737923876
 31
0.0
  0
LINE
  5
   1C9
  8
0
  6
CONTINUOUS
 62
     7
 10
-313.92016332853
 20
33.8964498694082
 30
0.0
 11
-311.005166786325
 21
33.1873693669728
 31
0.0
  0
LINE
  5
   1CA
  8
0
  6
CONTINUOUS
 62
     7
 10
-311.005166786325
 20
33.1873693669728
 30
0.0
 11
-313.175087562416
 21
35.2589493981292
 31
0.0
  0
LINE
  5
   1CB
  8
0
  6
CONTINUOUS
 62
     7
 10
-306.554751222252
 20
31.6386529748301
 30
0.0
 11
-309.469747764456
 21
32.3477334772655
 31
0.0
  0
LINE
  5
   1CC
  8
0
  6
CONTINUOUS
 62
     7
 10
-309.469747764456
 20
32.3477334772655
 30
0.0
 11
-307.299826988365
 21
30.2761534461091
 31
0.0
  0
ENDBLK
  5
   1CD
  8
0
  6
CONTINUOUS
 62
     7
  0
BLOCK
  5
   1CE
  8
0
  6
CONTINUOUS
 62
     7
  2
*UDIM462
 70
    65
 10
0.0
 20
0.0
 30
0.0
  3
*UDIM462
  0
TEXT
  5
   1CF
  8
0
  6
CONTINUOUS
 62
     7
 10
-297.65096278943
 20
-24.6012267732352
 30
0.0
 40
3.00000002980232
  1
R min.200
 50
359.999999844103
 41
0.933333333333333
 72
     1
 11
-285.350962663166
 21
-23.1012267917395
 31
0.0
 73
     2
  0
LINE
  5
   1D0
  8
0
  6
CONTINUOUS
 62
     7
 10
-299.237457275391
 20
-9.12762989543228
 30
0.0
 11
-299.237457275391
 21
-27.6012268066406
 31
0.0
  0
LINE
  5
   1D1
  8
0
  6
CONTINUOUS
 62
     7
 10
-271.505232591376
 20
-23.3088044514741
 30
0.0
 11
-271.505232591376
 21
-27.6012268066406
 31
0.0
  0
LINE
  5
   1D2
  8
0
  6
CONTINUOUS
 62
     7
 10
-299.237457275391
 20
-25.6012268066406
 30
0.0
 11
-271.505232591376
 21
-25.6012268066406
 31
0.0
  0
LINE
  5
   1D3
  8
0
  6
CONTINUOUS
 62
     7
 10
-302.191880552598
 20
-26.1221712365923
 30
0.0
 11
-299.237457275391
 21
-25.6012268066406
 31
0.0
  0
LINE
  5
   1D4
  8
0
  6
CONTINUOUS
 62
     7
 10
-299.237457275391
 20
-25.6012268066406
 30
0.0
 11
-302.191880552598
 21
-25.080282376689
 31
0.0
  0
LINE
  5
   1D5
  8
0
  6
CONTINUOUS
 62
     7
 10
-268.550809314169
 20
-25.080282376689
 30
0.0
 11
-271.505232591376
 21
-25.6012268066406
 31
0.0
  0
LINE
  5
   1D6
  8
0
  6
CONTINUOUS
 62
     7
 10
-271.505232591376
 20
-25.6012268066406
 30
0.0
 11
-268.550809314169
 21
-26.1221712365923
 31
0.0
  0
ENDBLK
  5
   1D7
  8
0
  6
CONTINUOUS
 62
     7
  0
BLOCK
  5
   1D8
  8
0
  6
CONTINUOUS
 62
     7
  2
*UDIM463
 70
    65
 10
0.0
 20
0.0
 30
0.0
  3
*UDIM463
  0
TEXT
  5
   1D9
  8
0
  6
CONTINUOUS
 62
     7
 10
-336.777378096663
 20
18.505051359436
 30
0.0
 40
3.00000002980232
  1
72,5
 50
449.999999844103
 41
0.933333333333333
 72
     1
 11
-338.277378097177
 21
23.8050514161587
 31
0.0
 73
     2
  0
LINE
  5
   1DA
  8
0
  6
CONTINUOUS
 62
     7
 10
-307.532457275391
 20
33.1425514221191
 30
0.0
 11
-337.777378082275
 21
33.1425514221191
 31
0.0
  0
LINE
  5
   1DB
  8
0
  6
CONTINUOUS
 62
     7
 10
-327.698182038534
 20
15.0175514221191
 30
0.0
 11
-337.777378082275
 21
15.0175514221191
 31
0.0
  0
LINE
  5
   1DC
  8
0
  6
CONTINUOUS
 62
     7
 10
-335.777378082275
 20
33.1425514221191
 30
0.0
 11
-335.777378082275
 21
15.0175514221191
 31
0.0
  0
LINE
  5
   1DD
  8
0
  6
CONTINUOUS
 62
     7
 10
-335.256433652324
 20
30.1881281449122
 30
0.0
 11
-335.777378082275
 21
33.1425514221191
 31
0.0
  0
LINE
  5
   1DE
  8
0
  6
CONTINUOUS
 62
     7
 10
-335.777378082275
 20
33.1425514221191
 30
0.0
 11
-336.298322512227
 21
30.1881281449122
 31
0.0
  0
LINE
  5
   1DF
  8
0
  6
CONTINUOUS
 62
     7
 10
-336.298322512227
 20
17.9719746993261
 30
0.0
 11
-335.777378082275
 21
15.0175514221191
 31
0.0
  0
LINE
  5
   1E0
  8
0
  6
CONTINUOUS
 62
     7
 10
-335.777378082275
 20
15.0175514221191
 30
0.0
 11
-335.256433652324
 21
17.9719746993261
 31
0.0
  0
ENDBLK
  5
   1E1
  8
0
  6
CONTINUOUS
 62
     7
  0
BLOCK
  5
   1E2
  8
0
  6
CONTINUOUS
 62
     7
  2
*UDIM464
 70
    65
 10
0.0
 20
0.0
 30
0.0
  3
*UDIM464
  0
TEXT
  5
   1E3
  8
0
  6
CONTINUOUS
 62
     7
 10
-313.38745692283
 20
43.8751087256618
 30
0.0
 40
3.00000002980232
  1
45
 50
359.999999844103
 41
0.933333333333333
 72
     1
 11
-310.887456893921
 21
45.3751087337732
 31
0.0
 73
     2
  0
LINE
  5
   1E4
  8
0
  6
CONTINUOUS
 62
     7
 10
-304.862457275391
 20
35.8125514221191
 30
0.0
 11
-304.862457275391
 21
44.8751087188721
 31
0.0
  0
LINE
  5
   1E5
  8
0
  6
CONTINUOUS
 62
     7
 10
-293.612457275391
 20
35.8125514221191
 30
0.0
 11
-293.612457275391
 21
44.8751087188721
 31
0.0
  0
LINE
  5
   1E6
  8
0
  6
CONTINUOUS
 62
     7
 10
-313.387456918756
 20
42.8751087188721
 30
0.0
 11
-293.612457275391
 21
42.8751087188721
 31
0.0
  0
LINE
  5
   1E7
  8
0
  6
CONTINUOUS
 62
     7
 10
-307.816880552598
 20
42.3541642889204
 30
0.0
 11
-304.862457275391
 21
42.8751087188721
 31
0.0
  0
LINE
  5
   1E8
  8
0
  6
CONTINUOUS
 62
     7
 10
-304.862457275391
 20
42.8751087188721
 30
0.0
 11
-307.816880552598
 21
43.3960531488237
 31
0.0
  0
LINE
  5
   1E9
  8
0
  6
CONTINUOUS
 62
     7
 10
-290.658033998184
 20
43.3960531488237
 30
0.0
 11
-293.612457275391
 21
42.8751087188721
 31
0.0
  0
LINE
  5
   1EA
  8
0
  6
CONTINUOUS
 62
     7
 10
-293.612457275391
 20
42.8751087188721
 30
0.0
 11
-290.658033998184
 21
42.3541642889204
 31
0.0
  0
ENDBLK
  5
   1EB
  8
0
  6
CONTINUOUS
 62
     7
  0
BLOCK
  5
   1EC
  8
0
  6
CONTINUOUS
 62
     7
  2
*UDIM465
 70
    65
 10
0.0
 20
0.0
 30
0.0
  3
*UDIM465
  0
TEXT
  5
   1ED
  8
0
  6
CONTINUOUS
 62
     7
 10
-261.44698335559
 20
17.9175517329584
 30
0.0
 40
3.00000002980232
  1
27,25
 50
449.999999844103
 41
0.933333333333333
 72
     1
 11
-262.946983352304
 21
24.6175518035889
 31
0.0
 73
     2
  0
LINE
  5
   1EE
  8
0
  6
CONTINUOUS
 62
     7
 10
-270.244728975254
 20
15.0175514221191
 30
0.0
 11
-258.446983337402
 21
15.0175514221191
 31
0.0
  0
LINE
  5
   1EF
  8
0
  6
CONTINUOUS
 62
     7
 10
-272.982150875949
 20
8.20505142211914
 30
0.0
 11
-258.446983337402
 21
8.20505142211914
 31
0.0
  0
LINE
  5
   1F0
  8
0
  6
CONTINUOUS
 62
     7
 10
-260.446983337402
 20
31.3175518701474
 30
0.0
 11
-260.446983337402
 21
8.20505142211914
 31
0.0
  0
LINE
  5
   1F1
  8
0
  6
CONTINUOUS
 62
     7
 10
-260.967927767354
 20
17.9719746993261
 30
0.0
 11
-260.446983337402
 21
15.0175514221191
 31
0.0
  0
LINE
  5
   1F2
  8
0
  6
CONTINUOUS
 62
     7
 10
-260.446983337402
 20
15.0175514221191
 30
0.0
 11
-259.926038907451
 21
17.9719746993261
 31
0.0
  0
LINE
  5
   1F3
  8
0
  6
CONTINUOUS
 62
     7
 10
-259.926038907451
 20
5.25062814491218
 30
0.0
 11
-260.446983337402
 21
8.20505142211914
 31
0.0
  0
LINE
  5
   1F4
  8
0
  6
CONTINUOUS
 62
     7
 10
-260.446983337402
 20
8.20505142211914
 30
0.0
 11
-260.967927767354
 21
5.25062814491218
 31
0.0
  0
ENDBLK
  5
   1F5
  8
0
  6
CONTINUOUS
 62
     7
  0
BLOCK
  5
   1F6
  8
0
  6
CONTINUOUS
 62
     7
  2
*UDIM466
 70
    65
 10
0.0
 20
0.0
 30
0.0
  3
*UDIM466
  0
TEXT
  5
   1F7
  8
0
  6
CONTINUOUS
 62
     7
 10
-255.528324130183
 20
23.4508171169967
 30
0.0
 40
3.00000002980232
  1
=
 50
449.999999844103
 41
0.933333333333334
 72
     1
 11
-257.028324142098
 21
24.5508171319962
 31
0.0
 73
     2
  0
LINE
  5
   1F8
  8
0
  6
CONTINUOUS
 62
     7
 10
-276.362457275391
 20
32.7675514221191
 30
0.0
 11
-252.528324127197
 21
32.7675514221191
 31
0.0
  0
LINE
  5
   1F9
  8
0
  6
CONTINUOUS
 62
     7
 10
-276.362457275391
 20
15.0175514221191
 30
0.0
 11
-252.528324127197
 21
15.0175514221191
 31
0.0
  0
LINE
  5
   1FA
  8
0
  6
CONTINUOUS
 62
     7
 10
-254.528324127197
 20
32.7675514221191
 30
0.0
 11
-254.528324127197
 21
15.0175514221191
 31
0.0
  0
LINE
  5
   1FB
  8
0
  6
CONTINUOUS
 62
     7
 10
-254.007379697246
 20
29.8131281449122
 30
0.0
 11
-254.528324127197
 21
32.7675514221191
 31
0.0
  0
LINE
  5
   1FC
  8
0
  6
CONTINUOUS
 62
     7
 10
-254.528324127197
 20
32.7675514221191
 30
0.0
 11
-255.049268557149
 21
29.8131281449122
 31
0.0
  0
LINE
  5
   1FD
  8
0
  6
CONTINUOUS
 62
     7
 10
-255.049268557149
 20
17.9719746993261
 30
0.0
 11
-254.528324127197
 21
15.0175514221191
 31
0.0
  0
LINE
  5
   1FE
  8
0
  6
CONTINUOUS
 62
     7
 10
-254.528324127197
 20
15.0175514221191
 30
0.0
 11
-254.007379697246
 21
17.9719746993261
 31
0.0
  0
ENDBLK
  5
   1FF
  8
0
  6
CONTINUOUS
 62
     7
  0
BLOCK
  5
   200
  8
0
  6
CONTINUOUS
 62
     7
  2
*UDIM467
 70
    65
 10
0.0
 20
0.0
 30
0.0
  3
*UDIM467
  0
TEXT
  5
   201
  8
0
  6
CONTINUOUS
 62
     7
 10
-255.528324130183
 20
5.70081711699669
 30
0.0
 40
3.00000002980232
  1
=
 50
449.999999844103
 41
0.933333333333334
 72
     1
 11
-257.028324142098
 21
6.80081713199615
 31
0.0
 73
     2
  0
LINE
  5
   202
  8
0
  6
CONTINUOUS
 62
     7
 10
-276.362457275391
 20
-2.73244857788086
 30
0.0
 11
-252.528324127197
 21
-2.73244857788086
 31
0.0
  0
LINE
  5
   203
  8
0
  6
CONTINUOUS
 62
     7
 10
-254.528324127197
 20
15.0175514221191
 30
0.0
 11
-254.528324127197
 21
-2.73244857788086
 31
0.0
  0
LINE
  5
   204
  8
0
  6
CONTINUOUS
 62
     7
 10
-254.007379697246
 20
12.0631281449122
 30
0.0
 11
-254.528324127197
 21
15.0175514221191
 31
0.0
  0
LINE
  5
   205
  8
0
  6
CONTINUOUS
 62
     7
 10
-254.528324127197
 20
15.0175514221191
 30
0.0
 11
-255.049268557149
 21
12.0631281449122
 31
0.0
  0
LINE
  5
   206
  8
0
  6
CONTINUOUS
 62
     7
 10
-255.049268557149
 20
0.221974699326104
 30
0.0
 11
-254.528324127197
 21
-2.73244857788086
 31
0.0
  0
LINE
  5
   207
  8
0
  6
CONTINUOUS
 62
     7
 10
-254.528324127197
 20
-2.73244857788086
 30
0.0
 11
-254.007379697246
 21
0.221974699326104
 31
0.0
  0
ENDBLK
  5
   208
  8
0
  6
CONTINUOUS
 62
     7
  0
BLOCK
  5
   209
  8
0
  6
CONTINUOUS
 62
     7
  2
*UDIM468
 70
    65
 10
0.0
 20
0.0
 30
0.0
  3
*UDIM468
  0
TEXT
  5
   20A
  8
0
  6
CONTINUOUS
 62
     7
 10
-329.380796443082
 20
10.8425513733437
 30
0.0
 40
3.00000002980232
  1
126
 50
449.999999844103
 41
0.933333333333333
 72
     1
 11
-330.880796447396
 21
14.7425514161587
 31
0.0
 73
     2
  0
LINE
  5
   20B
  8
0
  6
CONTINUOUS
 62
     7
 10
-318.237457275391
 20
30.7675514221191
 30
0.0
 11
-330.380796432495
 21
30.7675514221191
 31
0.0
  0
LINE
  5
   20C
  8
0
  6
CONTINUOUS
 62
     7
 10
-318.237457275391
 20
-0.732448577880859
 30
0.0
 11
-330.380796432495
 21
-0.732448577880859
 31
0.0
  0
LINE
  5
   20D
  8
0
  6
CONTINUOUS
 62
     7
 10
-328.380796432495
 20
30.7675514221191
 30
0.0
 11
-328.380796432495
 21
-0.732448577880859
 31
0.0
  0
LINE
  5
   20E
  8
0
  6
CONTINUOUS
 62
     7
 10
-327.859852002543
 20
27.8131281449122
 30
0.0
 11
-328.380796432495
 21
30.7675514221191
 31
0.0
  0
LINE
  5
   20F
  8
0
  6
CONTINUOUS
 62
     7
 10
-328.380796432495
 20
30.7675514221191
 30
0.0
 11
-328.901740862447
 21
27.8131281449122
 31
0.0
  0
LINE
  5
   210
  8
0
  6
CONTINUOUS
 62
     7
 10
-328.901740862447
 20
2.2219746993261
 30
0.0
 11
-328.380796432495
 21
-0.732448577880859
 31
0.0
  0
LINE
  5
   211
  8
0
  6
CONTINUOUS
 62
     7
 10
-328.380796432495
 20
-0.732448577880859
 30
0.0
 11
-327.859852002543
 21
2.2219746993261
 31
0.0
  0
ENDBLK
  5
   212
  8
0
  6
CONTINUOUS
 62
     7
  0
BLOCK
  5
   213
  8
0
  6
CONTINUOUS
 62
     7
  2
*UDIM469
 70
    65
 10
0.0
 20
0.0
 30
0.0
  3
*UDIM469
  0
TEXT
  5
   214
  8
0
  6
CONTINUOUS
 62
     7
 10
-248.831310282804
 20
10.8425513733437
 30
0.0
 40
3.00000002980232
  1
142
 50
449.999999844103
 41
0.933333333333333
 72
     1
 11
-250.331310287118
 21
14.7425514161587
 31
0.0
 73
     2
  0
LINE
  5
   215
  8
0
  6
CONTINUOUS
 62
     7
 10
-307.612457275391
 20
32.7675514221191
 30
0.0
 11
-245.831310272217
 21
32.7675514221191
 31
0.0
  0
LINE
  5
   216
  8
0
  6
CONTINUOUS
 62
     7
 10
-276.362457275391
 20
-2.73244857788086
 30
0.0
 11
-245.831310272217
 21
-2.73244857788086
 31
0.0
  0
LINE
  5
   217
  8
0
  6
CONTINUOUS
 62
     7
 10
-247.831310272217
 20
32.7675514221191
 30
0.0
 11
-247.831310272217
 21
-2.73244857788086
 31
0.0
  0
LINE
  5
   218
  8
0
  6
CONTINUOUS
 62
     7
 10
-247.310365842265
 20
29.8131281449122
 30
0.0
 11
-247.831310272217
 21
32.7675514221191
 31
0.0
  0
LINE
  5
   219
  8
0
  6
CONTINUOUS
 62
     7
 10
-247.831310272217
 20
32.7675514221191
 30
0.0
 11
-248.352254702169
 21
29.8131281449122
 31
0.0
  0
LINE
  5
   21A
  8
0
  6
CONTINUOUS
 62
     7
 10
-248.352254702169
 20
0.221974699326104
 30
0.0
 11
-247.831310272217
 21
-2.73244857788086
 31
0.0
  0
LINE
  5
   21B
  8
0
  6
CONTINUOUS
 62
     7
 10
-247.831310272217
 20
-2.73244857788086
 30
0.0
 11
-247.310365842265
 21
0.221974699326104
 31
0.0
  0
ENDBLK
  5
   21C
  8
0
  6
CONTINUOUS
 62
     7
  0
BLOCK
  5
   21D
  8
0
  6
CONTINUOUS
 62
     7
  2
*UDIM470
 70
    65
 10
0.0
 20
0.0
 30
0.0
  3
*UDIM470
  0
TEXT
  5
   21E
  8
0
  6
CONTINUOUS
 62
     7
 10
-292.219987876049
 20
5.51531368583545
 30
0.0
 40
3.00000002980232
  1
16
 50
449.999999844103
 41
0.933333333333333
 72
     1
 11
-293.719987884164
 21
8.01531371474266
 31
0.0
 73
     2
  0
LINE
  5
   21F
  8
0
  6
CONTINUOUS
 62
     7
 10
-284.487457275391
 20
10.2050514221191
 30
0.0
 11
-293.219987869263
 21
10.2050514221191
 31
0.0
  0
LINE
  5
   220
  8
0
  6
CONTINUOUS
 62
     7
 10
-284.487457275391
 20
6.20505142211914
 30
0.0
 11
-293.219987869263
 21
6.20505142211914
 31
0.0
  0
LINE
  5
   221
  8
0
  6
CONTINUOUS
 62
     7
 10
-291.219987869263
 20
10.5153137395779
 30
0.0
 11
-291.219987869263
 21
5.51531368990739
 31
0.0
  0
LINE
  5
   222
  8
0
  6
CONTINUOUS
 62
     7
 10
-291.740932299214
 20
13.1594746993261
 30
0.0
 11
-291.219987869263
 21
10.2050514221191
 31
0.0
  0
LINE
  5
   223
  8
0
  6
CONTINUOUS
 62
     7
 10
-291.219987869263
 20
10.2050514221191
 30
0.0
 11
-290.699043439311
 21
13.1594746993261
 31
0.0
  0
LINE
  5
   224
  8
0
  6
CONTINUOUS
 62
     7
 10
-290.699043439311
 20
3.25062814491218
 30
0.0
 11
-291.219987869263
 21
6.20505142211914
 31
0.0
  0
LINE
  5
   225
  8
0
  6
CONTINUOUS
 62
     7
 10
-291.219987869263
 20
6.20505142211914
 30
0.0
 11
-291.740932299214
 21
3.25062814491218
 31
0.0
  0
ENDBLK
  5
   226
  8
0
  6
CONTINUOUS
 62
     7
  0
BLOCK
  5
   227
  8
0
  6
CONTINUOUS
 62
     7
  2
*UDIM471
 70
    65
 10
0.0
 20
0.0
 30
0.0
  3
*UDIM471
  0
TEXT
  5
   228
  8
0
  6
CONTINUOUS
 62
     7
 10
-290.26245731026
 20
19.5661327906795
 30
0.0
 40
3.00000002980232
  1
94
 50
359.999999844103
 41
0.933333333333333
 72
     1
 11
-287.762457281351
 21
21.0661327987909
 31
0.0
 73
     2
  0
LINE
  5
   229
  8
0
  6
CONTINUOUS
 62
     7
 10
-275.737457275391
 20
9.08005142211914
 30
0.0
 11
-275.737457275391
 21
20.5661327838898
 31
0.0
  0
LINE
  5
   22A
  8
0
  6
CONTINUOUS
 62
     7
 10
-299.237457275391
 20
18.5661327838898
 30
0.0
 11
-275.737457275391
 21
18.5661327838898
 31
0.0
  0
LINE
  5
   22B
  8
0
  6
CONTINUOUS
 62
     7
 10
-296.283033998184
 20
19.0870772138414
 30
0.0
 11
-299.237457275391
 21
18.5661327838898
 31
0.0
  0
LINE
  5
   22C
  8
0
  6
CONTINUOUS
 62
     7
 10
-299.237457275391
 20
18.5661327838898
 30
0.0
 11
-296.283033998184
 21
18.0451883539381
 31
0.0
  0
LINE
  5
   22D
  8
0
  6
CONTINUOUS
 62
     7
 10
-278.691880552598
 20
18.0451883539381
 30
0.0
 11
-275.737457275391
 21
18.5661327838898
 31
0.0
  0
LINE
  5
   22E
  8
0
  6
CONTINUOUS
 62
     7
 10
-275.737457275391
 20
18.5661327838898
 30
0.0
 11
-278.691880552598
 21
19.0870772138414
 31
0.0
  0
ENDBLK
  5
   22F
  8
0
  6
CONTINUOUS
 62
     7
  0
BLOCK
  5
   230
  8
0
  6
CONTINUOUS
 62
     7
  2
*UDIM472
 70
    65
 10
0.0
 20
0.0
 30
0.0
  3
*UDIM472
  0
TEXT
  5
   231
  8
0
  6
CONTINUOUS
 62
     7
 10
-298.78745735397
 20
-16.0406303299842
 30
0.0
 40
3.00000002980232
  1
125
 50
359.999999844103
 41
0.933333333333333
 72
     1
 11
-294.887457311153
 21
-14.540630325675
 31
0.0
 73
     2
  0
LINE
  5
   232
  8
0
  6
CONTINUOUS
 62
     7
 10
-310.237457275391
 20
-5.35744857788086
 30
0.0
 11
-310.237457275391
 21
-19.0406303405762
 31
0.0
  0
LINE
  5
   233
  8
0
  6
CONTINUOUS
 62
     7
 10
-278.987457275391
 20
-5.35744857788086
 30
0.0
 11
-278.987457275391
 21
-19.0406303405762
 31
0.0
  0
LINE
  5
   234
  8
0
  6
CONTINUOUS
 62
     7
 10
-310.237457275391
 20
-17.0406303405762
 30
0.0
 11
-278.987457275391
 21
-17.0406303405762
 31
0.0
  0
LINE
  5
   235
  8
0
  6
CONTINUOUS
 62
     7
 10
-307.283033998184
 20
-16.5196859106245
 30
0.0
 11
-310.237457275391
 21
-17.0406303405762
 31
0.0
  0
LINE
  5
   236
  8
0
  6
CONTINUOUS
 62
     7
 10
-310.237457275391
 20
-17.0406303405762
 30
0.0
 11
-307.283033998184
 21
-17.5615747705278
 31
0.0
  0
LINE
  5
   237
  8
0
  6
CONTINUOUS
 62
     7
 10
-281.941880552598
 20
-17.5615747705278
 30
0.0
 11
-278.987457275391
 21
-17.0406303405762
 31
0.0
  0
LINE
  5
   238
  8
0
  6
CONTINUOUS
 62
     7
 10
-278.987457275391
 20
-17.0406303405762
 30
0.0
 11
-281.941880552598
 21
-16.5196859106245
 31
0.0
  0
ENDBLK
  5
   239
  8
0
  6
CONTINUOUS
 62
     7
  0
BLOCK
  5
   23A
  8
0
  6
CONTINUOUS
 62
     7
  2
*UDIM473
 70
    65
 10
0.0
 20
0.0
 30
0.0
  3
*UDIM473
  0
TEXT
  5
   23B
  8
0
  6
CONTINUOUS
 62
     7
 10
-291.88745731026
 20
-8.93737601554915
 30
0.0
 40
3.00000002980232
  1
81
 50
359.999999844103
 41
0.933333333333333
 72
     1
 11
-289.387457281351
 21
-7.43737600743771
 31
0.0
 73
     2
  0
LINE
  5
   23C
  8
0
  6
CONTINUOUS
 62
     7
 10
-299.237457275391
 20
-9.12762989543228
 30
0.0
 11
-299.237457275391
 21
-11.9373760223389
 31
0.0
  0
LINE
  5
   23D
  8
0
  6
CONTINUOUS
 62
     7
 10
-278.987457275391
 20
-5.35744857788086
 30
0.0
 11
-278.987457275391
 21
-11.9373760223389
 31
0.0
  0
LINE
  5
   23E
  8
0
  6
CONTINUOUS
 62
     7
 10
-299.237457275391
 20
-9.93737602233887
 30
0.0
 11
-278.987457275391
 21
-9.93737602233887
 31
0.0
  0
LINE
  5
   23F
  8
0
  6
CONTINUOUS
 62
     7
 10
-296.283033998184
 20
-9.41643159238721
 30
0.0
 11
-299.237457275391
 21
-9.93737602233887
 31
0.0
  0
LINE
  5
   240
  8
0
  6
CONTINUOUS
 62
     7
 10
-299.237457275391
 20
-9.93737602233887
 30
0.0
 11
-296.283033998184
 21
-10.4583204522905
 31
0.0
  0
LINE
  5
   241
  8
0
  6
CONTINUOUS
 62
     7
 10
-281.941880552598
 20
-10.4583204522905
 30
0.0
 11
-278.987457275391
 21
-9.93737602233887
 31
0.0
  0
LINE
  5
   242
  8
0
  6
CONTINUOUS
 62
     7
 10
-278.987457275391
 20
-9.93737602233887
 30
0.0
 11
-281.941880552598
 21
-9.4164315923872
 31
0.0
  0
ENDBLK
  5
   243
  8
0
  6
CONTINUOUS
 62
     7
  0
BLOCK
  5
   244
  8
0
  6
CONTINUOUS
 62
     7
  2
*UDIM474
 70
    65
 10
0.0
 20
0.0
 30
0.0
  3
*UDIM474
  0
TEXT
  5
   245
  8
0
  6
CONTINUOUS
 62
     7
 10
-304.537457324168
 20
59.5508155928673
 30
0.0
 40
3.00000002980232
  1
135
 50
359.999999844103
 41
0.933333333333333
 72
     1
 11
-300.637457281351
 21
61.0508155971766
 31
0.0
 73
     2
  0
LINE
  5
   246
  8
0
  6
CONTINUOUS
 62
     7
 10
-317.237457275391
 20
31.7675514221191
 30
0.0
 11
-317.237457275391
 21
60.5508155822754
 31
0.0
  0
LINE
  5
   247
  8
0
  6
CONTINUOUS
 62
     7
 10
-283.487457275391
 20
31.7675514221191
 30
0.0
 11
-283.487457275391
 21
60.5508155822754
 31
0.0
  0
LINE
  5
   248
  8
0
  6
CONTINUOUS
 62
     7
 10
-317.237457275391
 20
58.5508155822754
 30
0.0
 11
-283.487457275391
 21
58.5508155822754
 31
0.0
  0
LINE
  5
   249
  8
0
  6
CONTINUOUS
 62
     7
 10
-314.283033998184
 20
59.0717600122271
 30
0.0
 11
-317.237457275391
 21
58.5508155822754
 31
0.0
  0
LINE
  5
   24A
  8
0
  6
CONTINUOUS
 62
     7
 10
-317.237457275391
 20
58.5508155822754
 30
0.0
 11
-314.283033998184
 21
58.0298711523237
 31
0.0
  0
LINE
  5
   24B
  8
0
  6
CONTINUOUS
 62
     7
 10
-286.441880552598
 20
58.0298711523237
 30
0.0
 11
-283.487457275391
 21
58.5508155822754
 31
0.0
  0
LINE
  5
   24C
  8
0
  6
CONTINUOUS
 62
     7
 10
-283.487457275391
 20
58.5508155822754
 30
0.0
 11
-286.441880552598
 21
59.0717600122271
 31
0.0
  0
ENDBLK
  5
   24D
  8
0
  6
CONTINUOUS
 62
     7
  0
BLOCK
  5
   24E
  8
0
  6
CONTINUOUS
 62
     7
  2
*UDIM475
 70
    65
 10
0.0
 20
0.0
 30
0.0
  3
*UDIM475
  0
TEXT
  5
   24F
  8
0
  6
CONTINUOUS
 62
     7
 10
-294.137457787097
 20
51.3137168952175
 30
0.0
 40
3.00000002980232
  1
63
 50
359.999999844103
 41
0.933333333333333
 72
     1
 11
-291.637457758188
 21
52.8137169033289
 31
0.0
 73
     2
  0
LINE
  5
   250
  8
0
  6
CONTINUOUS
 62
     7
 10
-299.237457275391
 20
41.6450425829742
 30
0.0
 11
-299.237457275391
 21
52.3137168884277
 31
0.0
  0
LINE
  5
   251
  8
0
  6
CONTINUOUS
 62
     7
 10
-283.487457275391
 20
31.7675514221191
 30
0.0
 11
-283.487457275391
 21
52.3137168884277
 31
0.0
  0
LINE
  5
   252
  8
0
  6
CONTINUOUS
 62
     7
 10
-299.237457275391
 20
50.3137168884277
 30
0.0
 11
-283.487457275391
 21
50.3137168884277
 31
0.0
  0
LINE
  5
   253
  8
0
  6
CONTINUOUS
 62
     7
 10
-296.283033998184
 20
50.8346613183794
 30
0.0
 11
-299.237457275391
 21
50.3137168884277
 31
0.0
  0
LINE
  5
   254
  8
0
  6
CONTINUOUS
 62
     7
 10
-299.237457275391
 20
50.3137168884277
 30
0.0
 11
-296.283033998184
 21
49.7927724584761
 31
0.0
  0
LINE
  5
   255
  8
0
  6
CONTINUOUS
 62
     7
 10
-286.441880552598
 20
49.7927724584761
 30
0.0
 11
-283.487457275391
 21
50.3137168884277
 31
0.0
  0
LINE
  5
   256
  8
0
  6
CONTINUOUS
 62
     7
 10
-283.487457275391
 20
50.3137168884277
 30
0.0
 11
-286.441880552598
 21
50.8346613183794
 31
0.0
  0
ENDBLK
  5
   257
  8
0
  6
CONTINUOUS
 62
     7
  0
BLOCK
  5
   258
  8
0
  6
CONTINUOUS
 62
     7
  2
*HATCH80
 70
    65
 10
0.0
 20
0.0
 30
0.0
  3
*HATCH80
  0
LINE
  5
   259
  8
0
  6
CONTINUOUS
 62
    52
 10
-11.7279224395752
 20
1.0
 30
0.0
 11
-11.9763488769531
 21
0.75157368183136
 31
0.0
  0
LINE
  5
   25A
  8
0
  6
CONTINUOUS
 62
    52
 10
-9.60660171508789
 20
1.0
 30
0.0
 11
-11.6066026687622
 21
-1.0
 31
0.0
  0
LINE
  5
   25B
  8
0
  6
CONTINUOUS
 62
    52
 10
-7.48528146743774
 20
1.0
 30
0.0
 11
-9.48528289794922
 21
-1.0
 31
0.0
  0
LINE
  5
   25C
  8
0
  6
CONTINUOUS
 62
    52
 10
-5.3639612197876
 20
1.0
 30
0.0
 11
-7.36396265029907
 21
-1.0
 31
0.0
  0
LINE
  5
   25D
  8
0
  6
CONTINUOUS
 62
    52
 10
-3.47947335243225
 20
0.763167560100555
 30
0.0
 11
-5.24264097213745
 21
-1.0
 31
0.0
  0
LINE
  5
   25E
  8
0
  6
CONTINUOUS
 62
    52
 10
-2.51160907745361
 20
-0.390288293361664
 30
0.0
 11
-3.1213207244873
 21
-1.0
 31
0.0
  0
ENDBLK
  5
   25F
  8
0
  6
CONTINUOUS
 62
     7
  0
BLOCK
  5
   260
  8
0
  6
CONTINUOUS
 62
     7
  2
*HATCH81
 70
    65
 10
0.0
 20
0.0
 30
0.0
  3
*HATCH81
  0
LINE
  5
   261
  8
0
  6
CONTINUOUS
 62
    52
 10
5.24264097213745
 20
1.0
 30
0.0
 11
3.24264073371887
 21
-1.0
 31
0.0
  0
LINE
  5
   262
  8
0
  6
CONTINUOUS
 62
    52
 10
7.3639612197876
 20
1.0
 30
0.0
 11
5.3639612197876
 21
-1.0
 31
0.0
  0
LINE
  5
   263
  8
0
  6
CONTINUOUS
 62
    52
 10
9.48528099060059
 20
1.0
 30
0.0
 11
7.4852819442749
 21
-1.0
 31
0.0
  0
ENDBLK
  5
   264
  8
0
  6
CONTINUOUS
 62
     7
  0
BLOCK
  5
   265
  8
0
  6
CONTINUOUS
 62
     7
  2
*UDIM476
 70
    65
 10
0.0
 20
0.0
 30
0.0
  3
*UDIM476
  0
TEXT
  5
   266
  8
0
  6
CONTINUOUS
 62
     7
 10
-281.27873444183
 20
94.4680060612456
 30
0.0
 40
3.00000002980232
  1
80
 50
449.241125536518
 41
0.933333333333333
 72
     1
 11
-282.745491711765
 21
96.98765351277
 31
0.0
 73
     2
  0
TEXT
  5
   267
  8
0
  6
CONTINUOUS
 62
     7
 10
-281.812459476092
 20
99.4755142326918
 30
0.0
 40
3.00000002980232
  1
°
 50
449.241125536518
 41
0.933333333333334
 72
     1
 11
-283.297759005254
 21
100.595284466899
 31
0.0
 73
     2
  0
LINE
  5
   268
  8
0
  6
CONTINUOUS
 62
     7
 10
-298.341163808834
 20
94.0415466972948
 30
0.0
 11
-284.139196642604
 21
82.124681286119
 31
0.0
  0
LINE
  5
   269
  8
0
  6
CONTINUOUS
 62
     7
 10
-298.341163808834
 20
102.683520441377
 30
0.0
 11
-284.139196642604
 21
114.600385852553
 31
0.0
  0
ARC
  5
   26A
  8
0
  6
CONTINUOUS
 62
     7
 10
-303.490715437142
 20
98.3625335693359
 30
0.0
 40
23.2616136940404
 50
319.999999815233
 51
399.999999769042
  0
LINE
  5
   26B
  8
0
  6
CONTINUOUS
 62
     7
 10
-284.171285438222
 20
86.008332664526
 30
0.0
 11
-285.671285528842
 21
83.4102565054921
 31
0.0
  0
LINE
  5
   26C
  8
0
  6
CONTINUOUS
 62
     7
 10
-285.671285528842
 20
83.4102565054921
 30
0.0
 11
-283.373152266745
 21
85.3386194147097
 31
0.0
  0
LINE
  5
   26D
  8
0
  6
CONTINUOUS
 62
     7
 10
-283.373152266745
 20
111.386447723962
 30
0.0
 11
-285.671285528842
 21
113.31481063318
 31
0.0
  0
LINE
  5
   26E
  8
0
  6
CONTINUOUS
 62
     7
 10
-285.671285528842
 20
113.31481063318
 30
0.0
 11
-284.171285438222
 21
110.716734474146
 31
0.0
  0
ENDBLK
  5
   26F
  8
0
  6
CONTINUOUS
 62
     7
  0
BLOCK
  5
   270
  8
0
  6
CONTINUOUS
 62
     7
  2
*UDIM477
 70
    65
 10
0.0
 20
0.0
 30
0.0
  3
*UDIM477
  0
TEXT
  5
   271
  8
0
  6
CONTINUOUS
 62
     7
 10
-321.552875525585
 20
104.247600526513
 30
0.0
 40
3.00000002980232
  1
Ø4
 50
449.999999844103
 41
0.933333333333333
 72
     1
 11
-323.0528755337
 21
106.74760055542
 31
0.0
 73
     2
  0
LINE
  5
   272
  8
0
  6
CONTINUOUS
 62
     7
 10
-302.107208251953
 20
100.362533569336
 30
0.0
 11
-322.552875518799
 21
100.362533569336
 31
0.0
  0
LINE
  5
   273
  8
0
  6
CONTINUOUS
 62
     7
 10
-302.107208251953
 20
96.3625335693359
 30
0.0
 11
-322.552875518799
 21
96.3625335693359
 31
0.0
  0
LINE
  5
   274
  8
0
  6
CONTINUOUS
 62
     7
 10
-320.552875518799
 20
109.247600580255
 30
0.0
 11
-320.552875518799
 21
96.3625335693359
 31
0.0
  0
LINE
  5
   275
  8
0
  6
CONTINUOUS
 62
     7
 10
-321.07381994875
 20
103.316956846543
 30
0.0
 11
-320.552875518799
 21
100.362533569336
 31
0.0
  0
LINE
  5
   276
  8
0
  6
CONTINUOUS
 62
     7
 10
-320.552875518799
 20
100.362533569336
 30
0.0
 11
-320.031931088847
 21
103.316956846543
 31
0.0
  0
LINE
  5
   277
  8
0
  6
CONTINUOUS
 62
     7
 10
-320.031931088847
 20
93.408110292129
 30
0.0
 11
-320.552875518799
 21
96.3625335693359
 31
0.0
  0
LINE
  5
   278
  8
0
  6
CONTINUOUS
 62
     7
 10
-320.552875518799
 20
96.3625335693359
 30
0.0
 11
-321.07381994875
 21
93.408110292129
 31
0.0
  0
ENDBLK
  5
   279
  8
0
  6
CONTINUOUS
 62
     7
  0
ENDSEC
  0
SECTION
  2
ENTITIES
  0
LINE
  5
   27A
  8
0
  6
DASHDOT
 62
     7
 10
-543.691162109375
 20
-66.2884545966279
 30
0.0
 11
-543.691162109375
 21
-127.009111771886
 31
0.0
  0
LINE
  5
   27B
  8
0
  6
CONTINUOUS
 62
     3
 10
-526.816162109375
 20
-69.0385348212888
 30
0.0
 11
-526.816162109375
 21
-120.306198120117
 31
0.0
  0
LINE
  5
   27C
  8
0
  6
CONTINUOUS
 62
     3
 10
-526.816162109375
 20
-120.306198120117
 30
0.0
 11
-568.691162109375
 21
-120.306198120117
 31
0.0
  0
LINE
  5
   27D
  8
0
  6
CONTINUOUS
 62
     3
 10
-568.691162109375
 20
-69.0385348212888
 30
0.0
 11
-568.691162109375
 21
-120.306198120117
 31
0.0
  0
LINE
  5
   27E
  8
0
  6
CONTINUOUS
 62
     3
 10
-526.816162109375
 20
-69.0385348212888
 30
0.0
 11
-568.691162109375
 21
-69.0385348212888
 31
0.0
  0
LINE
  5
   27F
  8
0
  6
DASHDOT
 62
     7
 10
-537.441162109375
 20
-78.9020733201572
 30
0.0
 11
-537.441162109375
 21
-112.7209037243
 31
0.0
  0
LINE
  5
   280
  8
0
  6
DASHDOT
 62
     7
 10
-563.691162109375
 20
-78.6054169131033
 30
0.0
 11
-563.691162109375
 21
-112.869231927827
 31
0.0
  0
LINE
  5
   281
  8
0
  6
DASHDOT
 62
     7
 10
-530.038961168616
 20
-82.9311981201172
 30
0.0
 11
-562.522837741017
 21
-82.9311981201172
 31
0.0
  0
LINE
  5
   282
  8
0
  6
DASHDOT
 62
     7
 10
-529.593976558035
 20
-107.931198120117
 30
0.0
 11
-562.967822351597
 21
-107.931198120117
 31
0.0
  0
CIRCLE
  5
   283
  8
0
  6
CONTINUOUS
 62
     7
 10
-563.691162109375
 20
-82.9311981201172
 30
0.0
 40
0.625
  0
CIRCLE
  5
   284
  8
0
  6
CONTINUOUS
 62
     7
 10
-537.441162109375
 20
-82.9311981201172
 30
0.0
 40
0.625
  0
CIRCLE
  5
   285
  8
0
  6
CONTINUOUS
 62
     7
 10
-563.691162109375
 20
-107.931198120117
 30
0.0
 40
0.625
  0
CIRCLE
  5
   286
  8
0
  6
CONTINUOUS
 62
     7
 10
-537.441162109375
 20
-107.931198120117
 30
0.0
 40
0.625
  0
LINE
  5
   287
  8
0
  6
DASHDOT
 62
     7
 10
-517.939418805524
 20
-95.9936981201172
 30
0.0
 11
-570.687765489253
 21
-95.9936981201172
 31
0.0
  0
INSERT
  5
   288
  8
0
  6
CONTINUOUS
 62
     7
  2
*UDIM425
 10
0.0
 20
0.0
 30
0.0
  0
INSERT
  5
   289
  8
0
  6
CONTINUOUS
 62
     7
  2
*UDIM426
 10
0.0
 20
0.0
 30
0.0
  0
INSERT
  5
   28A
  8
0
  6
CONTINUOUS
 62
     7
  2
*UDIM427
 10
0.0
 20
0.0
 30
0.0
  0
INSERT
  5
   28B
  8
0
  6
CONTINUOUS
 62
     7
  2
*UDIM428
 10
0.0
 20
0.0
 30
0.0
  0
INSERT
  5
   28C
  8
0
  6
CONTINUOUS
 62
     7
  2
*UDIM429
 10
0.0
 20
0.0
 30
0.0
  0
TEXT
  5
   28D
  8
0
  6
CONTINUOUS
 62
     7
 10
-544.575124981733
 20
-148.140041379131
 30
0.0
 40
3.00000002980232
  1
Y
 50
359.999999896069
 41
0.916666604744064
 72
     2
 11
-542.375125112863
 21
-148.14004138311
 31
0.0
  0
TEXT
  5
   28E
  8
0
  6
CONTINUOUS
 62
     7
 10
-545.069795134397
 20
-66.9956608096729
 30
0.0
 40
3.00000002980232
  1
Y
 50
359.999999896069
 41
0.916666604744064
 72
     2
 11
-542.869795265527
 21
-66.9956608136525
 31
0.0
  0
TEXT
  5
   28F
  8
0
  6
CONTINUOUS
 62
     7
 10
-588.551311495633
 20
-98.7234320918689
 30
0.0
 40
3.00000002980232
  1
X
 50
359.999999896069
 41
0.916666604744064
 72
     2
 11
-586.351311626764
 21
-98.7234320958485
 31
0.0
  0
TEXT
  5
   290
  8
0
  6
CONTINUOUS
 62
     7
 10
-509.940536501737
 20
-97.8421454707752
 30
0.0
 40
3.00000002980232
  1
X
 50
359.999999896069
 41
0.916666604744064
 72
     2
 11
-507.740536632867
 21
-97.8421454747548
 31
0.0
  0
LINE
  5
   291
  8
0
  6
CONTINUOUS
 62
     7
 10
-438.098045923409
 20
-13.1579605340957
 30
0.0
 11
-438.098045923409
 21
69.0420379638673
 31
0.0
  0
LINE
  5
   292
  8
0
  6
DASHDOT
 62
     7
 10
-394.348025631742
 20
-52.8275050005679
 30
0.0
 11
-394.348025631742
 21
97.2945366265047
 31
0.0
  0
LINE
  5
   293
  8
0
  6
CONTINUOUS
 62
     7
 10
-388.973025631742
 20
11.6920356750469
 30
0.0
 11
-388.973025631742
 21
31.6920280456524
 31
0.0
  0
LINE
  5
   294
  8
0
  6
CONTINUOUS
 62
     7
 10
-399.723025631742
 20
11.6920356750469
 30
0.0
 11
-399.723025631742
 21
31.6920280456524
 31
0.0
  0
LINE
  5
   295
  8
0
  6
CONTINUOUS
 62
     7
 10
-388.973025631742
 20
31.5597953796367
 30
0.0
 11
-399.723025631742
 21
31.5597953796367
 31
0.0
  0
LINE
  5
   296
  8
0
  6
CONTINUOUS
 62
     7
 10
-388.973025631742
 20
31.6920280456524
 30
0.0
 11
-399.723025631742
 21
31.6920280456524
 31
0.0
  0
LINE
  5
   297
  8
0
  6
CONTINUOUS
 62
     7
 10
-388.973025631742
 20
11.6920356750469
 30
0.0
 11
-399.723025631742
 21
11.6920356750469
 31
0.0
  0
LINE
  5
   298
  8
0
  6
CONTINUOUS
 62
     7
 10
-388.973025631742
 20
11.8242835998516
 30
0.0
 11
-399.723025631742
 21
11.8242835998516
 31
0.0
  0
LINE
  5
   299
  8
0
  6
CONTINUOUS
 62
     7
 10
-388.973025631742
 20
18.7546960297566
 30
0.0
 11
-399.723025631742
 21
18.7546960297566
 31
0.0
  0
LINE
  5
   29A
  8
0
  6
CONTINUOUS
 62
     7
 10
-388.973025631742
 20
15.6964632769481
 30
0.0
 11
-399.723025631742
 21
15.6964632769481
 31
0.0
  0
LINE
  5
   29B
  8
0
  6
CONTINUOUS
 62
     7
 10
-388.973025631742
 20
12.7225539638423
 30
0.0
 11
-399.723025631742
 21
12.7225539638423
 31
0.0
  0
LINE
  5
   29C
  8
0
  6
CONTINUOUS
 62
     7
 10
-388.973025631742
 20
12.3211803999831
 30
0.0
 11
-399.723025631742
 21
12.3211803999831
 31
0.0
  0
LINE
  5
   29D
  8
0
  6
CONTINUOUS
 62
     7
 10
-433.598026585416
 20
53.0670433044414
 30
0.0
 11
-438.098045923409
 21
53.0670433044414
 31
0.0
  0
LINE
  5
   29E
  8
0
  6
CONTINUOUS
 62
     7
 10
-433.598026585416
 20
0.567043304441423
 30
0.0
 11
-438.098045923409
 21
0.567043304441423
 31
0.0
  0
LINE
  5
   29F
  8
0
  6
CONTINUOUS
 62
     3
 10
-381.848030090332
 20
-19.5579681396484
 30
0.0
 11
-381.848030090332
 21
-15.8079605102588
 31
0.0
  0
LINE
  5
   2A0
  8
0
  6
CONTINUOUS
 62
     3
 10
-381.223030090332
 20
-19.5579681396484
 30
0.0
 11
-381.848030090332
 21
-19.5579681396484
 31
0.0
  0
LINE
  5
   2A1
  8
0
  6
CONTINUOUS
 62
     3
 10
-381.223030090332
 20
-29.5579676628113
 30
0.0
 11
-381.223030090332
 21
-19.5579752922058
 31
0.0
  0
LINE
  5
   2A2
  8
0
  6
CONTINUOUS
 62
     3
 10
-372.473030090332
 20
-29.5579676628113
 30
0.0
 11
-381.223030090332
 21
-29.5579676628113
 31
0.0
  0
LINE
  5
   2A3
  8
0
  6
CONTINUOUS
 62
     3
 10
-372.473030090332
 20
-29.5579676628113
 30
0.0
 11
-372.473030090332
 21
-19.5579752922058
 31
0.0
  0
LINE
  5
   2A4
  8
0
  6
CONTINUOUS
 62
     3
 10
-371.848030090332
 20
-19.5579681396484
 30
0.0
 11
-372.473030090332
 21
-19.5579681396484
 31
0.0
  0
LINE
  5
   2A5
  8
0
  6
CONTINUOUS
 62
     3
 10
-371.848030090332
 20
-19.5579681396484
 30
0.0
 11
-371.848030090332
 21
-15.8079605102588
 31
0.0
  0
LINE
  5
   2A6
  8
0
  6
CONTINUOUS
 62
     7
 10
-399.348030090332
 20
-19.5579681396484
 30
0.0
 11
-399.348030090332
 21
-15.8079605102588
 31
0.0
  0
LINE
  5
   2A7
  8
0
  6
CONTINUOUS
 62
     7
 10
-389.348030090332
 20
-19.5579681396484
 30
0.0
 11
-389.348030090332
 21
-15.8079605102588
 31
0.0
  0
LINE
  5
   2A8
  8
0
  6
CONTINUOUS
 62
     7
 10
-389.973030090332
 20
-29.5579676628113
 30
0.0
 11
-389.973030090332
 21
-19.5579752922058
 31
0.0
  0
LINE
  5
   2A9
  8
0
  6
CONTINUOUS
 62
     7
 10
-398.723030090332
 20
-29.5579676628113
 30
0.0
 11
-398.723030090332
 21
-19.5579752922058
 31
0.0
  0
LINE
  5
   2AA
  8
0
  6
CONTINUOUS
 62
     7
 10
-389.973030090332
 20
-29.5579676628113
 30
0.0
 11
-398.723030090332
 21
-29.5579676628113
 31
0.0
  0
CIRCLE
  5
   2AB
  8
0
  6
CONTINUOUS
 62
     3
 10
-376.848002012652
 20
-24.5579543987506
 30
0.0
 40
2.04999825840616
  0
CIRCLE
  5
   2AC
  8
0
  6
CONTINUOUS
 62
     3
 10
-394.348002012652
 20
-24.5579543987506
 30
0.0
 40
2.04999825840616
  0
LINE
  5
   2AD
  8
0
  6
CONTINUOUS
 62
     3
 10
-398.723030090332
 20
-19.5579681396484
 30
0.0
 11
-399.348030090332
 21
-19.5579681396484
 31
0.0
  0
LINE
  5
   2AE
  8
0
  6
CONTINUOUS
 62
     3
 10
-389.348030090332
 20
-19.5579681396484
 30
0.0
 11
-389.973030090332
 21
-19.5579681396484
 31
0.0
  0
CIRCLE
  5
   2AF
  8
0
  6
CONTINUOUS
 62
     3
 10
-411.848002012652
 20
-24.5579543987506
 30
0.0
 40
2.04999825840616
  0
LINE
  5
   2B0
  8
0
  6
CONTINUOUS
 62
     3
 10
-416.223030090332
 20
-29.5579676628113
 30
0.0
 11
-416.223030090332
 21
-19.5579752922058
 31
0.0
  0
LINE
  5
   2B1
  8
0
  6
CONTINUOUS
 62
     3
 10
-407.473030090332
 20
-29.5579676628113
 30
0.0
 11
-407.473030090332
 21
-19.5579752922058
 31
0.0
  0
LINE
  5
   2B2
  8
0
  6
CONTINUOUS
 62
     3
 10
-416.848030090332
 20
-19.5579681396484
 30
0.0
 11
-416.848030090332
 21
-15.8079605102588
 31
0.0
  0
LINE
  5
   2B3
  8
0
  6
CONTINUOUS
 62
     3
 10
-406.848030090332
 20
-19.5579681396484
 30
0.0
 11
-406.848030090332
 21
-15.8079605102588
 31
0.0
  0
LINE
  5
   2B4
  8
0
  6
CONTINUOUS
 62
     3
 10
-407.473030090332
 20
-29.5579676628113
 30
0.0
 11
-416.223030090332
 21
-29.5579676628113
 31
0.0
  0
LINE
  5
   2B5
  8
0
  6
CONTINUOUS
 62
     3
 10
-416.223030090332
 20
-19.5579681396484
 30
0.0
 11
-416.848030090332
 21
-19.5579681396484
 31
0.0
  0
LINE
  5
   2B6
  8
0
  6
CONTINUOUS
 62
     3
 10
-406.848030090332
 20
-19.5579681396484
 30
0.0
 11
-407.473030090332
 21
-19.5579681396484
 31
0.0
  0
LINE
  5
   2B7
  8
0
  6
CONTINUOUS
 62
     3
 10
-434.348030090332
 20
-19.5579681396484
 30
0.0
 11
-434.348030090332
 21
-15.8079605102588
 31
0.0
  0
LINE
  5
   2B8
  8
0
  6
CONTINUOUS
 62
     3
 10
-424.348030090332
 20
-19.5579681396484
 30
0.0
 11
-424.348030090332
 21
-15.8079605102588
 31
0.0
  0
LINE
  5
   2B9
  8
0
  6
CONTINUOUS
 62
     3
 10
-424.973030090332
 20
-29.5579676628113
 30
0.0
 11
-424.973030090332
 21
-19.5579752922058
 31
0.0
  0
LINE
  5
   2BA
  8
0
  6
CONTINUOUS
 62
     3
 10
-433.723030090332
 20
-29.5579676628113
 30
0.0
 11
-433.723030090332
 21
-19.5579752922058
 31
0.0
  0
CIRCLE
  5
   2BB
  8
0
  6
CONTINUOUS
 62
     3
 10
-429.348002012652
 20
-24.5579543987506
 30
0.0
 40
2.04999825840616
  0
LINE
  5
   2BC
  8
0
  6
CONTINUOUS
 62
     3
 10
-424.973030090332
 20
-29.5579676628113
 30
0.0
 11
-433.723030090332
 21
-29.5579676628113
 31
0.0
  0
LINE
  5
   2BD
  8
0
  6
CONTINUOUS
 62
     3
 10
-433.723030090332
 20
-19.5579681396484
 30
0.0
 11
-434.348030090332
 21
-19.5579681396484
 31
0.0
  0
LINE
  5
   2BE
  8
0
  6
CONTINUOUS
 62
     3
 10
-424.348030090332
 20
-19.5579681396484
 30
0.0
 11
-424.973030090332
 21
-19.5579681396484
 31
0.0
  0
CIRCLE
  5
   2BF
  8
0
  6
CONTINUOUS
 62
     3
 10
-429.348002012652
 20
80.4420333782427
 30
0.0
 40
2.04999825840616
  0
CIRCLE
  5
   2C0
  8
0
  6
CONTINUOUS
 62
     3
 10
-411.848002012652
 20
80.4420333782427
 30
0.0
 40
2.04999825840616
  0
CIRCLE
  5
   2C1
  8
0
  6
CONTINUOUS
 62
     3
 10
-394.348002012652
 20
80.4420333782427
 30
0.0
 40
2.04999825840616
  0
CIRCLE
  5
   2C2
  8
0
  6
CONTINUOUS
 62
     3
 10
-376.848002012652
 20
80.4420333782427
 30
0.0
 40
2.04999825840616
  0
LINE
  5
   2C3
  8
0
  6
CONTINUOUS
 62
     3
 10
-372.473030090332
 20
85.4420466423035
 30
0.0
 11
-381.223030090332
 21
85.4420466423035
 31
0.0
  0
LINE
  5
   2C4
  8
0
  6
CONTINUOUS
 62
     3
 10
-389.973030090332
 20
85.4420466423035
 30
0.0
 11
-398.723030090332
 21
85.4420466423035
 31
0.0
  0
LINE
  5
   2C5
  8
0
  6
CONTINUOUS
 62
     3
 10
-407.473030090332
 20
85.4420466423035
 30
0.0
 11
-416.223030090332
 21
85.4420466423035
 31
0.0
  0
LINE
  5
   2C6
  8
0
  6
CONTINUOUS
 62
     3
 10
-424.973030090332
 20
85.4420466423035
 30
0.0
 11
-433.723030090332
 21
85.4420466423035
 31
0.0
  0
LINE
  5
   2C7
  8
0
  6
CONTINUOUS
 62
     3
 10
-433.723030090332
 20
75.442054271698
 30
0.0
 11
-433.723030090332
 21
85.4420466423035
 31
0.0
  0
LINE
  5
   2C8
  8
0
  6
CONTINUOUS
 62
     3
 10
-424.973030090332
 20
75.442054271698
 30
0.0
 11
-424.973030090332
 21
85.4420466423035
 31
0.0
  0
LINE
  5
   2C9
  8
0
  6
CONTINUOUS
 62
     3
 10
-416.223030090332
 20
75.442054271698
 30
0.0
 11
-416.223030090332
 21
85.4420466423035
 31
0.0
  0
LINE
  5
   2CA
  8
0
  6
CONTINUOUS
 62
     3
 10
-407.473030090332
 20
75.442054271698
 30
0.0
 11
-407.473030090332
 21
85.4420466423035
 31
0.0
  0
LINE
  5
   2CB
  8
0
  6
CONTINUOUS
 62
     3
 10
-398.723030090332
 20
75.442054271698
 30
0.0
 11
-398.723030090332
 21
85.4420466423035
 31
0.0
  0
LINE
  5
   2CC
  8
0
  6
CONTINUOUS
 62
     3
 10
-389.973030090332
 20
75.442054271698
 30
0.0
 11
-389.973030090332
 21
85.4420466423035
 31
0.0
  0
LINE
  5
   2CD
  8
0
  6
CONTINUOUS
 62
     3
 10
-381.223030090332
 20
75.442054271698
 30
0.0
 11
-381.223030090332
 21
85.4420466423035
 31
0.0
  0
LINE
  5
   2CE
  8
0
  6
CONTINUOUS
 62
     3
 10
-372.473030090332
 20
75.442054271698
 30
0.0
 11
-372.473030090332
 21
85.4420466423035
 31
0.0
  0
LINE
  5
   2CF
  8
0
  6
CONTINUOUS
 62
     3
 10
-371.848030090332
 20
71.692039489751
 30
0.0
 11
-371.848030090332
 21
75.4420471191406
 31
0.0
  0
LINE
  5
   2D0
  8
0
  6
CONTINUOUS
 62
     3
 10
-381.848030090332
 20
71.692039489751
 30
0.0
 11
-381.848030090332
 21
75.4420471191406
 31
0.0
  0
LINE
  5
   2D1
  8
0
  6
CONTINUOUS
 62
     3
 10
-389.348030090332
 20
71.692039489751
 30
0.0
 11
-389.348030090332
 21
75.4420471191406
 31
0.0
  0
LINE
  5
   2D2
  8
0
  6
CONTINUOUS
 62
     3
 10
-399.348030090332
 20
71.692039489751
 30
0.0
 11
-399.348030090332
 21
75.4420471191406
 31
0.0
  0
LINE
  5
   2D3
  8
0
  6
CONTINUOUS
 62
     3
 10
-406.848030090332
 20
71.692039489751
 30
0.0
 11
-406.848030090332
 21
75.4420471191406
 31
0.0
  0
LINE
  5
   2D4
  8
0
  6
CONTINUOUS
 62
     3
 10
-416.848030090332
 20
71.692039489751
 30
0.0
 11
-416.848030090332
 21
75.4420471191406
 31
0.0
  0
LINE
  5
   2D5
  8
0
  6
CONTINUOUS
 62
     3
 10
-424.348030090332
 20
71.692039489751
 30
0.0
 11
-424.348030090332
 21
75.4420471191406
 31
0.0
  0
LINE
  5
   2D6
  8
0
  6
CONTINUOUS
 62
     3
 10
-434.348030090332
 20
71.692039489751
 30
0.0
 11
-434.348030090332
 21
75.4420471191406
 31
0.0
  0
LINE
  5
   2D7
  8
0
  6
CONTINUOUS
 62
     3
 10
-433.723030090332
 20
75.4420471191406
 30
0.0
 11
-434.348030090332
 21
75.4420471191406
 31
0.0
  0
LINE
  5
   2D8
  8
0
  6
CONTINUOUS
 62
     3
 10
-424.348030090332
 20
75.4420471191406
 30
0.0
 11
-424.973030090332
 21
75.4420471191406
 31
0.0
  0
LINE
  5
   2D9
  8
0
  6
CONTINUOUS
 62
     3
 10
-416.223030090332
 20
75.4420471191406
 30
0.0
 11
-416.848030090332
 21
75.4420471191406
 31
0.0
  0
LINE
  5
   2DA
  8
0
  6
CONTINUOUS
 62
     3
 10
-406.848030090332
 20
75.4420471191406
 30
0.0
 11
-407.473030090332
 21
75.4420471191406
 31
0.0
  0
LINE
  5
   2DB
  8
0
  6
CONTINUOUS
 62
     3
 10
-398.723030090332
 20
75.4420471191406
 30
0.0
 11
-399.348030090332
 21
75.4420471191406
 31
0.0
  0
LINE
  5
   2DC
  8
0
  6
CONTINUOUS
 62
     3
 10
-389.348030090332
 20
75.4420471191406
 30
0.0
 11
-389.973030090332
 21
75.4420471191406
 31
0.0
  0
LINE
  5
   2DD
  8
0
  6
CONTINUOUS
 62
     3
 10
-381.223030090332
 20
75.4420471191406
 30
0.0
 11
-381.848030090332
 21
75.4420471191406
 31
0.0
  0
LINE
  5
   2DE
  8
0
  6
CONTINUOUS
 62
     3
 10
-371.848030090332
 20
75.4420471191406
 30
0.0
 11
-372.473030090332
 21
75.4420471191406
 31
0.0
  0
LINE
  5
   2DF
  8
0
  6
CONTINUOUS
 62
     3
 10
-368.09803425942
 20
33.5670356750469
 30
0.0
 11
-368.09803425942
 21
53.0670699339688
 31
0.0
  0
LINE
  5
   2E0
  8
0
  6
CONTINUOUS
 62
     7
 10
-368.723042203415
 20
71.692039489751
 30
0.0
 11
-437.47303425942
 21
71.692039489751
 31
0.0
  0
LINE
  5
   2E1
  8
0
  6
CONTINUOUS
 62
     7
 10
-433.598026585416
 20
57.1920471191505
 30
0.0
 11
-437.59803425942
 21
57.1920471191505
 31
0.0
  0
LINE
  5
   2E2
  8
0
  6
CONTINUOUS
 62
     7
 10
-368.098034259434
 20
67.0639190673869
 30
0.0
 11
-368.098034259434
 21
71.067039489751
 31
0.0
  0
LINE
  5
   2E3
  8
0
  6
CONTINUOUS
 62
     7
 10
-438.09803425942
 20
57.6920471191456
 30
0.0
 11
-438.09803425942
 21
71.067039489751
 31
0.0
  0
LINE
  5
   2E4
  8
0
  6
CONTINUOUS
 62
     7
 10
-433.598026585416
 20
57.6920471191455
 30
0.0
 11
-437.97303425942
 21
57.6920471191455
 31
0.0
  0
LINE
  5
   2E5
  8
0
  6
CONTINUOUS
 62
     7
 10
-437.59803425942
 20
57.1920471191506
 30
0.0
 11
-437.59803425942
 21
57.6920471191506
 31
0.0
  0
LINE
  5
   2E6
  8
0
  6
CONTINUOUS
 62
     7
 10
-437.973034289223
 20
57.6920471191455
 30
0.0
 11
-438.09803425942
 21
57.6920471191455
 31
0.0
  0
LINE
  5
   2E7
  8
0
  6
CONTINUOUS
 62
     7
 10
-436.073034164053
 20
-15.8079605102588
 30
0.0
 11
-436.073034164053
 21
71.692039489751
 31
0.0
  0
LINE
  5
   2E8
  8
0
  6
CONTINUOUS
 62
     7
 10
-432.47303425942
 20
-15.8079605102588
 30
0.0
 11
-432.47303425942
 21
-13.4329299926717
 31
0.0
  0
LINE
  5
   2E9
  8
0
  6
CONTINUOUS
 62
     7
 10
-428.873035785299
 20
-15.8079605102588
 30
0.0
 11
-428.873035785299
 21
-13.4329299926717
 31
0.0
  0
LINE
  5
   2EA
  8
0
  6
CONTINUOUS
 62
     7
 10
-423.47303425942
 20
-15.8079605102588
 30
0.0
 11
-423.47303425942
 21
-13.4329299926717
 31
0.0
  0
LINE
  5
   2EB
  8
0
  6
CONTINUOUS
 62
     7
 10
-421.673038837057
 20
-15.8079605102588
 30
0.0
 11
-421.673038837057
 21
-13.4329299926717
 31
0.0
  0
LINE
  5
   2EC
  8
0
  6
CONTINUOUS
 62
     7
 10
-419.873035785299
 20
67.0639190673869
 30
0.0
 11
-419.873035785299
 21
71.692039489751
 31
0.0
  0
LINE
  5
   2ED
  8
0
  6
CONTINUOUS
 62
     7
 10
-418.073040362936
 20
67.0639190673869
 30
0.0
 11
-418.073040362936
 21
71.692039489751
 31
0.0
  0
LINE
  5
   2EE
  8
0
  6
CONTINUOUS
 62
     7
 10
-416.273037311178
 20
67.0639190673869
 30
0.0
 11
-416.273037311178
 21
71.692039489751
 31
0.0
  0
LINE
  5
   2EF
  8
0
  6
CONTINUOUS
 62
     7
 10
-414.47303425942
 20
67.0639190673869
 30
0.0
 11
-414.47303425942
 21
71.692039489751
 31
0.0
  0
LINE
  5
   2F0
  8
0
  6
CONTINUOUS
 62
     7
 10
-412.673038837057
 20
67.0639190673869
 30
0.0
 11
-412.673038837057
 21
71.692039489751
 31
0.0
  0
LINE
  5
   2F1
  8
0
  6
CONTINUOUS
 62
     7
 10
-410.873035785299
 20
67.0639190673869
 30
0.0
 11
-410.873035785299
 21
71.692039489751
 31
0.0
  0
LINE
  5
   2F2
  8
0
  6
CONTINUOUS
 62
     7
 10
-409.073040362936
 20
67.0639190673869
 30
0.0
 11
-409.073040362936
 21
71.692039489751
 31
0.0
  0
LINE
  5
   2F3
  8
0
  6
CONTINUOUS
 62
     7
 10
-407.273037311178
 20
67.0639190673869
 30
0.0
 11
-407.273037311178
 21
71.692039489751
 31
0.0
  0
LINE
  5
   2F4
  8
0
  6
CONTINUOUS
 62
     7
 10
-405.47303425942
 20
67.0639190673869
 30
0.0
 11
-405.47303425942
 21
71.692039489751
 31
0.0
  0
LINE
  5
   2F5
  8
0
  6
CONTINUOUS
 62
     7
 10
-403.673038837057
 20
67.0639190673869
 30
0.0
 11
-403.673038837057
 21
71.692039489751
 31
0.0
  0
LINE
  5
   2F6
  8
0
  6
CONTINUOUS
 62
     7
 10
-401.873035785299
 20
67.0639190673869
 30
0.0
 11
-401.873035785299
 21
71.692039489751
 31
0.0
  0
LINE
  5
   2F7
  8
0
  6
CONTINUOUS
 62
     7
 10
-400.073040362936
 20
67.0639190673869
 30
0.0
 11
-400.073040362936
 21
71.692039489751
 31
0.0
  0
LINE
  5
   2F8
  8
0
  6
CONTINUOUS
 62
     7
 10
-398.273037311178
 20
67.0639190673869
 30
0.0
 11
-398.273037311178
 21
71.692039489751
 31
0.0
  0
LINE
  5
   2F9
  8
0
  6
CONTINUOUS
 62
     7
 10
-396.47303425942
 20
67.0639190673869
 30
0.0
 11
-396.47303425942
 21
71.692039489751
 31
0.0
  0
LINE
  5
   2FA
  8
0
  6
CONTINUOUS
 62
     7
 10
-394.673038837057
 20
67.0639190673869
 30
0.0
 11
-394.673038837057
 21
71.692039489751
 31
0.0
  0
LINE
  5
   2FB
  8
0
  6
CONTINUOUS
 62
     7
 10
-392.873035785299
 20
67.0639190673869
 30
0.0
 11
-392.873035785299
 21
71.692039489751
 31
0.0
  0
LINE
  5
   2FC
  8
0
  6
CONTINUOUS
 62
     7
 10
-391.073040362936
 20
67.0639190673869
 30
0.0
 11
-391.073040362936
 21
71.692039489751
 31
0.0
  0
LINE
  5
   2FD
  8
0
  6
CONTINUOUS
 62
     7
 10
-389.273037311178
 20
67.0639190673869
 30
0.0
 11
-389.273037311178
 21
71.692039489751
 31
0.0
  0
LINE
  5
   2FE
  8
0
  6
CONTINUOUS
 62
     7
 10
-387.47303425942
 20
67.0639190673869
 30
0.0
 11
-387.47303425942
 21
71.692039489751
 31
0.0
  0
LINE
  5
   2FF
  8
0
  6
CONTINUOUS
 62
     7
 10
-385.673038837057
 20
67.0639190673869
 30
0.0
 11
-385.673038837057
 21
71.692039489751
 31
0.0
  0
LINE
  5
   300
  8
0
  6
CONTINUOUS
 62
     7
 10
-383.873035785299
 20
67.0639190673869
 30
0.0
 11
-383.873035785299
 21
71.692039489751
 31
0.0
  0
LINE
  5
   301
  8
0
  6
CONTINUOUS
 62
     7
 10
-382.073040362936
 20
67.0639190673869
 30
0.0
 11
-382.073040362936
 21
71.692039489751
 31
0.0
  0
LINE
  5
   302
  8
0
  6
CONTINUOUS
 62
     7
 10
-380.273037311178
 20
67.0639190673869
 30
0.0
 11
-380.273037311178
 21
71.692039489751
 31
0.0
  0
LINE
  5
   303
  8
0
  6
CONTINUOUS
 62
     7
 10
-378.47303425942
 20
67.0639190673869
 30
0.0
 11
-378.47303425942
 21
71.692039489751
 31
0.0
  0
LINE
  5
   304
  8
0
  6
CONTINUOUS
 62
     7
 10
-376.673038837057
 20
67.0639190673869
 30
0.0
 11
-376.673038837057
 21
71.692039489751
 31
0.0
  0
LINE
  5
   305
  8
0
  6
CONTINUOUS
 62
     7
 10
-374.873035785299
 20
67.0639190673869
 30
0.0
 11
-374.873035785299
 21
71.692039489751
 31
0.0
  0
LINE
  5
   306
  8
0
  6
CONTINUOUS
 62
     7
 10
-373.073040362936
 20
67.0639190673869
 30
0.0
 11
-373.073040362936
 21
71.692039489751
 31
0.0
  0
LINE
  5
   307
  8
0
  6
CONTINUOUS
 62
     7
 10
-371.273037311178
 20
67.0639190673869
 30
0.0
 11
-371.273037311178
 21
71.692039489751
 31
0.0
  0
LINE
  5
   308
  8
0
  6
CONTINUOUS
 62
     7
 10
-369.47303425942
 20
67.0639190673869
 30
0.0
 11
-369.47303425942
 21
71.692039489751
 31
0.0
  0
ARC
  5
   309
  8
0
  6
CONTINUOUS
 62
     7
 10
-437.47303425942
 20
71.067039489751
 30
0.0
 40
0.625
 50
449.999999948034
 51
539.999999948034
  0
ARC
  5
   30A
  8
0
  6
CONTINUOUS
 62
     7
 10
-368.723042203415
 20
71.067039489751
 30
0.0
 40
0.625
 50
360.000036000188
 51
449.999999948034
  0
LINE
  5
   30B
  8
0
  6
CONTINUOUS
 62
     7
 10
-368.723042203415
 20
-15.8079605102588
 30
0.0
 11
-437.47303425942
 21
-15.8079605102588
 31
0.0
  0
LINE
  5
   30C
  8
0
  6
CONTINUOUS
 62
     7
 10
-368.098034259434
 20
-15.1829605102588
 30
0.0
 11
-368.098034259434
 21
-13.4329299926717
 31
0.0
  0
LINE
  5
   30D
  8
0
  6
CONTINUOUS
 62
     7
 10
-438.09803425942
 20
-15.1829605102588
 30
0.0
 11
-438.09803425942
 21
-1.80796813965338
 31
0.0
  0
LINE
  5
   30E
  8
0
  6
CONTINUOUS
 62
     7
 10
-433.598026585416
 20
-1.80796813965337
 30
0.0
 11
-437.97303425942
 21
-1.80796813965337
 31
0.0
  0
LINE
  5
   30F
  8
0
  6
CONTINUOUS
 62
     7
 10
-437.59803425942
 20
-1.80796813965838
 30
0.0
 11
-437.59803425942
 21
-1.30796813965838
 31
0.0
  0
LINE
  5
   310
  8
0
  6
CONTINUOUS
 62
     7
 10
-437.973034289222
 20
-1.80796813965337
 30
0.0
 11
-438.09803425942
 21
-1.80796813965337
 31
0.0
  0
LINE
  5
   311
  8
0
  6
CONTINUOUS
 62
     7
 10
-434.273033973318
 20
-15.8079605102588
 30
0.0
 11
-434.273033973318
 21
71.692039489751
 31
0.0
  0
LINE
  5
   312
  8
0
  6
CONTINUOUS
 62
     7
 10
-430.673034068685
 20
-15.8079605102588
 30
0.0
 11
-430.673034068685
 21
-13.4329299926717
 31
0.0
  0
LINE
  5
   313
  8
0
  6
CONTINUOUS
 62
     7
 10
-427.073040362936
 20
-15.8079605102588
 30
0.0
 11
-427.073040362936
 21
-13.4329299926717
 31
0.0
  0
LINE
  5
   314
  8
0
  6
CONTINUOUS
 62
     7
 10
-425.273037311178
 20
-15.8079605102588
 30
0.0
 11
-425.273037311178
 21
-13.4329299926717
 31
0.0
  0
LINE
  5
   315
  8
0
  6
CONTINUOUS
 62
     7
 10
-419.873035785299
 20
-15.8079605102588
 30
0.0
 11
-419.873035785299
 21
-13.4329299926717
 31
0.0
  0
LINE
  5
   316
  8
0
  6
CONTINUOUS
 62
     7
 10
-418.073040362936
 20
-15.8079605102588
 30
0.0
 11
-418.073040362936
 21
-13.4329299926717
 31
0.0
  0
LINE
  5
   317
  8
0
  6
CONTINUOUS
 62
     7
 10
-416.273037311178
 20
-15.8079605102588
 30
0.0
 11
-416.273037311178
 21
-13.4329299926717
 31
0.0
  0
LINE
  5
   318
  8
0
  6
CONTINUOUS
 62
     7
 10
-414.47303425942
 20
-15.8079605102588
 30
0.0
 11
-414.47303425942
 21
-13.4329299926717
 31
0.0
  0
LINE
  5
   319
  8
0
  6
CONTINUOUS
 62
     7
 10
-412.673038837057
 20
-15.8079605102588
 30
0.0
 11
-412.673038837057
 21
-13.4329299926717
 31
0.0
  0
LINE
  5
   31A
  8
0
  6
CONTINUOUS
 62
     7
 10
-410.873035785299
 20
-15.8079605102588
 30
0.0
 11
-410.873035785299
 21
-13.4329299926717
 31
0.0
  0
LINE
  5
   31B
  8
0
  6
CONTINUOUS
 62
     7
 10
-409.073040362936
 20
-15.8079605102588
 30
0.0
 11
-409.073040362936
 21
-13.4329299926717
 31
0.0
  0
LINE
  5
   31C
  8
0
  6
CONTINUOUS
 62
     7
 10
-407.273037311178
 20
-15.8079605102588
 30
0.0
 11
-407.273037311178
 21
-13.4329299926717
 31
0.0
  0
LINE
  5
   31D
  8
0
  6
CONTINUOUS
 62
     7
 10
-405.47303425942
 20
-15.8079605102588
 30
0.0
 11
-405.47303425942
 21
-13.4329299926717
 31
0.0
  0
LINE
  5
   31E
  8
0
  6
CONTINUOUS
 62
     7
 10
-403.673038837057
 20
-15.8079605102588
 30
0.0
 11
-403.673038837057
 21
-13.4329299926717
 31
0.0
  0
LINE
  5
   31F
  8
0
  6
CONTINUOUS
 62
     7
 10
-401.873035785299
 20
-15.8079605102588
 30
0.0
 11
-401.873035785299
 21
-13.4329299926717
 31
0.0
  0
LINE
  5
   320
  8
0
  6
CONTINUOUS
 62
     7
 10
-400.073040362936
 20
-15.8079605102588
 30
0.0
 11
-400.073040362936
 21
-13.4329299926717
 31
0.0
  0
LINE
  5
   321
  8
0
  6
CONTINUOUS
 62
     7
 10
-398.273037311178
 20
-15.8079605102588
 30
0.0
 11
-398.273037311178
 21
-13.4329299926717
 31
0.0
  0
LINE
  5
   322
  8
0
  6
CONTINUOUS
 62
     7
 10
-396.47303425942
 20
-15.8079605102588
 30
0.0
 11
-396.47303425942
 21
-13.4329299926717
 31
0.0
  0
LINE
  5
   323
  8
0
  6
CONTINUOUS
 62
     7
 10
-394.673038837057
 20
-15.8079605102588
 30
0.0
 11
-394.673038837057
 21
-13.4329299926717
 31
0.0
  0
LINE
  5
   324
  8
0
  6
CONTINUOUS
 62
     7
 10
-392.873035785299
 20
-15.8079605102588
 30
0.0
 11
-392.873035785299
 21
-13.4329299926717
 31
0.0
  0
LINE
  5
   325
  8
0
  6
CONTINUOUS
 62
     7
 10
-391.073040362936
 20
-15.8079605102588
 30
0.0
 11
-391.073040362936
 21
-13.4329299926717
 31
0.0
  0
LINE
  5
   326
  8
0
  6
CONTINUOUS
 62
     7
 10
-389.273037311178
 20
-15.8079605102588
 30
0.0
 11
-389.273037311178
 21
-13.4329299926717
 31
0.0
  0
LINE
  5
   327
  8
0
  6
CONTINUOUS
 62
     7
 10
-387.47303425942
 20
-15.8079605102588
 30
0.0
 11
-387.47303425942
 21
-13.4329299926717
 31
0.0
  0
LINE
  5
   328
  8
0
  6
CONTINUOUS
 62
     7
 10
-385.673038837057
 20
-15.8079605102588
 30
0.0
 11
-385.673038837057
 21
-13.4329299926717
 31
0.0
  0
LINE
  5
   329
  8
0
  6
CONTINUOUS
 62
     7
 10
-383.873035785299
 20
-15.8079605102588
 30
0.0
 11
-383.873035785299
 21
-13.4329299926717
 31
0.0
  0
LINE
  5
   32A
  8
0
  6
CONTINUOUS
 62
     7
 10
-382.073040362936
 20
-15.8079605102588
 30
0.0
 11
-382.073040362936
 21
-13.4329299926717
 31
0.0
  0
LINE
  5
   32B
  8
0
  6
CONTINUOUS
 62
     7
 10
-380.273037311178
 20
-15.8079605102588
 30
0.0
 11
-380.273037311178
 21
-13.4329299926717
 31
0.0
  0
LINE
  5
   32C
  8
0
  6
CONTINUOUS
 62
     7
 10
-378.47303425942
 20
-15.8079605102588
 30
0.0
 11
-378.47303425942
 21
-13.4329299926717
 31
0.0
  0
LINE
  5
   32D
  8
0
  6
CONTINUOUS
 62
     7
 10
-376.673038837057
 20
-15.8079605102588
 30
0.0
 11
-376.673038837057
 21
-13.4329299926717
 31
0.0
  0
LINE
  5
   32E
  8
0
  6
CONTINUOUS
 62
     7
 10
-374.873035785299
 20
-15.8079605102588
 30
0.0
 11
-374.873035785299
 21
-13.4329299926717
 31
0.0
  0
LINE
  5
   32F
  8
0
  6
CONTINUOUS
 62
     7
 10
-373.073040362936
 20
-15.8079605102588
 30
0.0
 11
-373.073040362936
 21
-13.4329299926717
 31
0.0
  0
LINE
  5
   330
  8
0
  6
CONTINUOUS
 62
     7
 10
-371.273037311178
 20
-15.8079605102588
 30
0.0
 11
-371.273037311178
 21
-13.4329299926717
 31
0.0
  0
LINE
  5
   331
  8
0
  6
CONTINUOUS
 62
     7
 10
-369.47303425942
 20
-15.8079605102588
 30
0.0
 11
-369.47303425942
 21
-13.4329299926717
 31
0.0
  0
ARC
  5
   332
  8
0
  6
CONTINUOUS
 62
     7
 10
-437.47303425942
 20
-15.1829605102588
 30
0.0
 40
0.625
 50
179.999999948034
 51
269.999999948034
  0
ARC
  5
   333
  8
0
  6
CONTINUOUS
 62
     7
 10
-368.723042203415
 20
-15.1829605102588
 30
0.0
 40
0.625
 50
269.999999948034
 51
359.99996389588
  0
LINE
  5
   334
  8
0
  6
DASHDOT
 62
     7
 10
-429.348002012652
 20
-27.6079526571567
 30
0.0
 11
-429.348002012652
 21
-21.5079561403444
 31
0.0
  0
LINE
  5
   335
  8
0
  6
DASHDOT
 62
     7
 10
-426.298003754246
 20
-24.5579543987506
 30
0.0
 11
-432.398000271058
 21
-24.5579543987506
 31
0.0
  0
LINE
  5
   336
  8
0
  6
DASHDOT
 62
     7
 10
-411.848002012652
 20
-27.6079526571567
 30
0.0
 11
-411.848002012652
 21
-21.5079561403444
 31
0.0
  0
LINE
  5
   337
  8
0
  6
DASHDOT
 62
     7
 10
-408.798003754246
 20
-24.5579543987506
 30
0.0
 11
-414.898000271058
 21
-24.5579543987506
 31
0.0
  0
LINE
  5
   338
  8
0
  6
DASHDOT
 62
     7
 10
-394.348002012652
 20
-27.6079526571567
 30
0.0
 11
-394.348002012652
 21
-21.5079561403444
 31
0.0
  0
LINE
  5
   339
  8
0
  6
DASHDOT
 62
     7
 10
-391.298003754246
 20
-24.5579543987506
 30
0.0
 11
-397.398000271058
 21
-24.5579543987506
 31
0.0
  0
LINE
  5
   33A
  8
0
  6
DASHDOT
 62
     7
 10
-376.848002012652
 20
-27.6079526571567
 30
0.0
 11
-376.848002012652
 21
-21.5079561403444
 31
0.0
  0
LINE
  5
   33B
  8
0
  6
DASHDOT
 62
     7
 10
-373.798003754246
 20
-24.5579543987506
 30
0.0
 11
-379.898000271058
 21
-24.5579543987506
 31
0.0
  0
LINE
  5
   33C
  8
0
  6
DASHDOT
 62
     7
 10
-376.848002012652
 20
77.3920351198366
 30
0.0
 11
-376.848002012652
 21
83.4920316366489
 31
0.0
  0
LINE
  5
   33D
  8
0
  6
DASHDOT
 62
     7
 10
-373.798003754246
 20
80.4420333782427
 30
0.0
 11
-379.898000271058
 21
80.4420333782427
 31
0.0
  0
LINE
  5
   33E
  8
0
  6
DASHDOT
 62
     7
 10
-394.348002012652
 20
77.3920351198366
 30
0.0
 11
-394.348002012652
 21
83.4920316366489
 31
0.0
  0
LINE
  5
   33F
  8
0
  6
DASHDOT
 62
     7
 10
-391.298003754246
 20
80.4420333782427
 30
0.0
 11
-397.398000271058
 21
80.4420333782427
 31
0.0
  0
LINE
  5
   340
  8
0
  6
DASHDOT
 62
     7
 10
-411.848002012652
 20
77.3920351198366
 30
0.0
 11
-411.848002012652
 21
83.4920316366489
 31
0.0
  0
LINE
  5
   341
  8
0
  6
DASHDOT
 62
     7
 10
-408.798003754246
 20
80.4420333782427
 30
0.0
 11
-414.898000271058
 21
80.4420333782427
 31
0.0
  0
LINE
  5
   342
  8
0
  6
DASHDOT
 62
     7
 10
-429.348002012652
 20
77.3920351198366
 30
0.0
 11
-429.348002012652
 21
83.4920316366489
 31
0.0
  0
LINE
  5
   343
  8
0
  6
DASHDOT
 62
     7
 10
-426.298003754246
 20
80.4420333782427
 30
0.0
 11
-432.398000271058
 21
80.4420333782427
 31
0.0
  0
LINE
  5
   344
  8
0
  6
CONTINUOUS
 62
     5
 10
-420.524805479117
 20
52.9938570930888
 30
0.0
 11
-420.348024775277
 21
53.067091652345
 31
0.0
  0
LINE
  5
   345
  8
0
  6
CONTINUOUS
 62
     5
 10
-420.598029222289
 20
52.8170817305225
 30
0.0
 11
-420.524806108178
 21
52.9938624357783
 31
0.0
  0
LINE
  5
   346
  8
0
  6
CONTINUOUS
 62
     5
 10
-420.598041534424
 20
0.817049026489258
 30
0.0
 11
-420.598041534424
 21
1.06706428527832
 31
0.0
  0
LINE
  5
   347
  8
0
  6
CONTINUOUS
 62
     5
 10
-420.598033905029
 20
47.0670318603516
 30
0.0
 11
-420.598033905029
 21
52.8170700073242
 31
0.0
  0
LINE
  5
   348
  8
0
  6
CONTINUOUS
 62
     5
 10
-420.524811179169
 20
0.640271498877183
 30
0.0
 11
-420.598041923258
 21
0.817048380210707
 31
0.0
  0
LINE
  5
   349
  8
0
  6
CONTINUOUS
 62
     5
 10
-420.348041624444
 20
0.567080369758301
 30
0.0
 11
-420.524808977593
 21
0.640272966948821
 31
0.0
  0
LINE
  5
   34A
  8
0
  6
CONTINUOUS
 62
     5
 10
-368.098034259434
 20
0.56704311686369
 30
0.0
 11
-383.598007202102
 21
0.567054748543477
 31
0.0
  0
LINE
  5
   34B
  8
0
  6
CONTINUOUS
 62
     5
 10
-420.098033905029
 20
0.567079544067383
 30
0.0
 11
-420.348043441772
 21
0.567079544067383
 31
0.0
  0
LINE
  5
   34C
  8
0
  6
CONTINUOUS
 62
     5
 10
-368.34800405245
 20
0.567044498934756
 30
0.0
 11
-368.171223356922
 21
0.640269517688367
 31
0.0
  0
LINE
  5
   34D
  8
0
  6
CONTINUOUS
 62
     5
 10
-368.171223826233
 20
0.6402704192469
 30
0.0
 11
-368.097996897142
 21
0.817047308635107
 31
0.0
  0
LINE
  5
   34E
  8
0
  6
CONTINUOUS
 62
     5
 10
-368.097999572753
 20
0.817047119142369
 30
0.0
 11
-368.098007202148
 21
52.817070007326
 31
0.0
  0
LINE
  5
   34F
  8
0
  6
CONTINUOUS
 62
     5
 10
-368.098004708359
 20
52.8170744745904
 30
0.0
 11
-368.17124689796
 21
52.9938551735823
 31
0.0
  0
LINE
  5
   350
  8
0
  6
CONTINUOUS
 62
     5
 10
-368.171250342318
 20
52.9938502247451
 30
0.0
 11
-368.348031046565
 21
53.0670695239078
 31
0.0
  0
LINE
  5
   351
  8
0
  6
CONTINUOUS
 62
     5
 10
-368.09803425942
 20
53.0670699339688
 30
0.0
 11
-420.348030090329
 21
53.0670852661168
 31
0.0
  0
LINE
  5
   352
  8
0
  6
CONTINUOUS
 62
     7
 10
-381.748039245605
 20
5.78231811523438
 30
0.0
 11
-381.748039245605
 21
9.85171508789063
 31
0.0
  0
LINE
  5
   353
  8
0
  6
CONTINUOUS
 62
     7
 10
-381.049108544696
 20
4.97894934447977
 30
0.0
 11
-381.748044981557
 21
5.78231695305475
 31
0.0
  0
LINE
  5
   354
  8
0
  6
CONTINUOUS
 62
     7
 10
-380.15248307824
 20
4.40440418541735
 30
0.0
 11
-381.049097169126
 21
4.97895098036979
 31
0.0
  0
LINE
  5
   355
  8
0
  6
CONTINUOUS
 62
     7
 10
-379.130516034703
 20
4.10505676473856
 30
0.0
 11
-380.152488711131
 21
4.40440367572756
 31
0.0
  0
LINE
  5
   356
  8
0
  6
CONTINUOUS
 62
     7
 10
-378.065612792969
 20
4.10505676269531
 30
0.0
 11
-379.130516052246
 21
4.10505676269531
 31
0.0
  0
LINE
  5
   357
  8
0
  6
CONTINUOUS
 62
     7
 10
-378.065613737135
 20
4.10505641286611
 30
0.0
 11
-377.043641074753
 21
4.40439953121849
 31
0.0
  0
LINE
  5
   358
  8
0
  6
CONTINUOUS
 62
     7
 10
-377.043629737889
 20
4.40440542118958
 30
0.0
 11
-376.147008005431
 21
4.97895226167873
 31
0.0
  0
LINE
  5
   359
  8
0
  6
CONTINUOUS
 62
     7
 10
-376.147023928224
 20
4.97894273997618
 30
0.0
 11
-375.448064552108
 21
5.78235994928407
 31
0.0
  0
LINE
  5
   35A
  8
0
  6
CONTINUOUS
 62
     7
 10
-375.448059080824
 20
5.78236389267586
 30
0.0
 11
-375.448036192641
 21
9.85173797714852
 31
0.0
  0
LINE
  5
   35B
  8
0
  6
CONTINUOUS
 62
     7
 10
-375.448037622962
 20
9.85173763004277
 30
0.0
 11
-376.146996988948
 21
10.6551357689826
 31
0.0
  0
LINE
  5
   35C
  8
0
  6
CONTINUOUS
 62
     7
 10
-376.146987480416
 20
10.6551372490066
 30
0.0
 11
-377.043609212874
 21
11.2296840894957
 31
0.0
  0
LINE
  5
   35D
  8
0
  6
CONTINUOUS
 62
     7
 10
-377.043614117213
 20
11.2296834491999
 30
0.0
 11
-378.06557911537
 21
11.5290265528495
 31
0.0
  0
LINE
  5
   35E
  8
0
  6
CONTINUOUS
 62
     7
 10
-378.065582275391
 20
11.5290260314941
 30
0.0
 11
-379.130493164063
 21
11.5290260314941
 31
0.0
  0
LINE
  5
   35F
  8
0
  6
CONTINUOUS
 62
     7
 10
-380.152454622551
 20
11.229684398834
 30
0.0
 11
-379.130489624395
 21
11.5290275024836
 31
0.0
  0
LINE
  5
   360
  8
0
  6
CONTINUOUS
 62
     7
 10
-381.049069785647
 20
10.6551421094751
 30
0.0
 11
-380.152448053189
 21
11.2296889499643
 31
0.0
  0
LINE
  5
   361
  8
0
  6
CONTINUOUS
 62
     7
 10
-381.74804502634
 20
9.85171050533746
 30
0.0
 11
-381.049085676573
 21
10.6551315234528
 31
0.0
  0
LINE
  5
   362
  8
0
  6
CONTINUOUS
 62
     7
 10
-383.598007201884
 20
47.067039489892
 30
0.0
 11
-368.098007201884
 21
47.0670700074692
 31
0.0
  0
LINE
  5
   363
  8
0
  6
CONTINUOUS
 62
     7
 10
-368.098007202148
 20
52.0670700073242
 30
0.0
 11
-420.598037719727
 21
52.0670700073242
 31
0.0
  0
LINE
  5
   364
  8
0
  6
CONTINUOUS
 62
     7
 10
-373.845804290491
 20
43.4420052642079
 30
0.0
 11
-373.902895047611
 21
43.7290230841442
 31
0.0
  0
LINE
  5
   365
  8
0
  6
CONTINUOUS
 62
     7
 10
-373.902892166052
 20
43.7290279172271
 30
0.0
 11
-374.065466942277
 21
43.9723445670211
 31
0.0
  0
LINE
  5
   366
  8
0
  6
CONTINUOUS
 62
     7
 10
-374.065469633764
 20
43.9723423713558
 30
0.0
 11
-374.308793916434
 21
44.1349171333693
 31
0.0
  0
LINE
  5
   367
  8
0
  6
CONTINUOUS
 62
     7
 10
-374.30879894618
 20
44.1349152333405
 30
0.0
 11
-374.595809132945
 21
44.1920059919183
 31
0.0
  0
LINE
  5
   368
  8
0
  6
CONTINUOUS
 62
     7
 10
-374.882820667182
 20
44.1349137677296
 30
0.0
 11
-374.595810480417
 21
44.1920045263074
 31
0.0
  0
LINE
  5
   369
  8
0
  6
CONTINUOUS
 62
     7
 10
-375.126127007205
 20
43.97234514277
 30
0.0
 11
-374.882810357411
 21
44.1349199189953
 31
0.0
  0
LINE
  5
   36A
  8
0
  6
CONTINUOUS
 62
     7
 10
-375.288711191336
 20
43.729027214185
 30
0.0
 11
-375.126128796388
 21
43.9723438593462
 31
0.0
  0
LINE
  5
   36B
  8
0
  6
CONTINUOUS
 62
     7
 10
-375.345805053619
 20
43.4420043923805
 30
0.0
 11
-375.288714296499
 21
43.7290222123168
 31
0.0
  0
LINE
  5
   36C
  8
0
  6
CONTINUOUS
 62
     7
 10
-375.345802307129
 20
41.942008972168
 30
0.0
 11
-375.345802307129
 21
43.442008972168
 31
0.0
  0
LINE
  5
   36D
  8
0
  6
CONTINUOUS
 62
     7
 10
-375.288714813524
 20
41.6549927268934
 30
0.0
 11
-375.345805572102
 21
41.9420029136582
 31
0.0
  0
LINE
  5
   36E
  8
0
  6
CONTINUOUS
 62
     7
 10
-375.126128968118
 20
41.4116823489999
 30
0.0
 11
-375.288711363065
 21
41.6549989941611
 31
0.0
  0
LINE
  5
   36F
  8
0
  6
CONTINUOUS
 62
     7
 10
-374.882812237988
 20
41.2490998794497
 30
0.0
 11
-375.126128883149
 21
41.4116822743975
 31
0.0
  0
LINE
  5
   370
  8
0
  6
CONTINUOUS
 62
     7
 10
-374.595809139052
 20
41.1920061409959
 30
0.0
 11
-374.882819325817
 21
41.2490968995737
 31
0.0
  0
LINE
  5
   371
  8
0
  6
CONTINUOUS
 62
     7
 10
-374.59581047431
 20
41.192004675385
 30
0.0
 11
-374.308800287545
 21
41.2490954339629
 31
0.0
  0
LINE
  5
   372
  8
0
  6
CONTINUOUS
 62
     7
 10
-374.308791454523
 20
41.2491002413622
 30
0.0
 11
-374.065467176528
 21
41.4116826396042
 31
0.0
  0
LINE
  5
   373
  8
0
  6
CONTINUOUS
 62
     7
 10
-374.065466080079
 20
41.4116841423635
 30
0.0
 11
-373.902891303853
 21
41.6550007921575
 31
0.0
  0
LINE
  5
   374
  8
0
  6
CONTINUOUS
 62
     7
 10
-373.902897724967
 20
41.6549912662303
 30
0.0
 11
-373.845806966389
 21
41.9420014529952
 31
0.0
  0
LINE
  5
   375
  8
0
  6
CONTINUOUS
 62
     7
 10
-373.845802307129
 20
41.942008972168
 30
0.0
 11
-373.845802307129
 21
43.442008972168
 31
0.0
  0
LINE
  5
   376
  8
0
  6
CONTINUOUS
 62
     7
 10
-373.848007202148
 20
31.1920204162598
 30
0.0
 11
-375.348007202148
 21
31.1920204162598
 31
0.0
  0
LINE
  5
   377
  8
0
  6
CONTINUOUS
 62
     7
 10
-375.348007202148
 20
17.6920204162598
 30
0.0
 11
-375.348007202148
 21
31.1920204162598
 31
0.0
  0
LINE
  5
   378
  8
0
  6
CONTINUOUS
 62
     7
 10
-373.848007202148
 20
17.6920204162598
 30
0.0
 11
-375.348007202148
 21
17.6920204162598
 31
0.0
  0
LINE
  5
   379
  8
0
  6
CONTINUOUS
 62
     7
 10
-373.848007202148
 20
17.6920204162598
 30
0.0
 11
-373.848007202148
 21
31.1920204162598
 31
0.0
  0
LINE
  5
   37A
  8
0
  6
CONTINUOUS
 62
     5
 10
-384.598007202148
 20
2.3170337677002
 30
0.0
 11
-384.598007202148
 21
45.5670337677002
 31
0.0
  0
LINE
  5
   37B
  8
0
  6
CONTINUOUS
 62
     7
 10
-383.598007202148
 20
47.0670318603516
 30
0.0
 11
-418.848049163818
 21
47.0670318603516
 31
0.0
  0
LINE
  5
   37C
  8
0
  6
CONTINUOUS
 62
     5
 10
-385.098007202149
 20
46.0670318603516
 30
0.0
 11
-418.848049163818
 21
46.0670318603516
 31
0.0
  0
LINE
  5
   37D
  8
0
  6
CONTINUOUS
 62
     5
 10
-384.598008295442
 20
45.5670305420273
 30
0.0
 11
-385.098008278327
 21
46.067030524913
 31
0.0
  0
LINE
  5
   37E
  8
0
  6
CONTINUOUS
 62
     5
 10
-419.348048475781
 20
45.5670334722124
 30
0.0
 11
-419.201602247498
 21
45.920587244247
 31
0.0
  0
LINE
  5
   37F
  8
0
  6
CONTINUOUS
 62
     5
 10
-419.201601986399
 20
45.920586684757
 30
0.0
 11
-418.848048214364
 21
46.0670329130402
 31
0.0
  0
LINE
  5
   380
  8
0
  6
CONTINUOUS
 62
     7
 10
-418.848049163226
 20
47.0670318610664
 30
0.0
 11
-420.598035811786
 21
47.0670394904612
 31
0.0
  0
LINE
  5
   381
  8
0
  6
CONTINUOUS
 62
     5
 10
-420.598037719727
 20
1.06706428527837
 30
0.0
 11
-420.598035812378
 21
47.0670413970948
 31
0.0
  0
LINE
  5
   382
  8
0
  6
CONTINUOUS
 62
     5
 10
-384.098007201051
 20
0.566923141712511
 30
0.0
 11
-420.098037718629
 21
0.567068100204157
 31
0.0
  0
LINE
  5
   383
  8
0
  6
CONTINUOUS
 62
     5
 10
-383.598007186277
 20
0.56691551543101
 30
0.0
 11
-384.098007186277
 21
0.566923144825541
 31
0.0
  0
LINE
  5
   384
  8
0
  6
CONTINUOUS
 62
     5
 10
-384.744452478245
 20
1.96348086136031
 30
0.0
 11
-384.598006249962
 21
2.31703463339494
 31
0.0
  0
LINE
  5
   385
  8
0
  6
CONTINUOUS
 62
     5
 10
-385.098005734653
 20
1.81703440120092
 30
0.0
 11
-384.744451962618
 21
1.96348062948404
 31
0.0
  0
LINE
  5
   386
  8
0
  6
CONTINUOUS
 62
     5
 10
-385.098007202149
 20
1.8170337677002
 30
0.0
 11
-418.848049163818
 21
1.8170337677002
 31
0.0
  0
LINE
  5
   387
  8
0
  6
CONTINUOUS
 62
     5
 10
-418.848048615326
 20
1.81703401519009
 30
0.0
 11
-419.201602387361
 21
1.96348024347321
 31
0.0
  0
LINE
  5
   388
  8
0
  6
CONTINUOUS
 62
     5
 10
-419.201602645529
 20
1.96348047828037
 30
0.0
 11
-419.348048873812
 21
2.31703425031499
 31
0.0
  0
LINE
  5
   389
  8
0
  6
CONTINUOUS
 62
     5
 10
-419.348049163818
 20
2.3170337677002
 30
0.0
 11
-419.348049163818
 21
45.5670337677002
 31
0.0
  0
LINE
  5
   38A
  8
0
  6
CONTINUOUS
 62
     5
 10
-399.72301864624
 20
11.1561126708984
 30
0.0
 11
-399.72301864624
 21
32.0446739196777
 31
0.0
  0
LINE
  5
   38B
  8
0
  6
CONTINUOUS
 62
     5
 10
-388.97301864624
 20
11.1561126708984
 30
0.0
 11
-388.97301864624
 21
32.0446739196777
 31
0.0
  0
LINE
  5
   38C
  8
0
  6
CONTINUOUS
 62
     7
 10
-370.597999572754
 20
14.027229309082
 30
0.0
 11
-371.597999572754
 21
14.027229309082
 31
0.0
  0
LINE
  5
   38D
  8
0
  6
CONTINUOUS
 62
     7
 10
-371.774768382166
 20
13.9540117768162
 30
0.0
 11
-371.59798767691
 21
14.0272348909281
 31
0.0
  0
LINE
  5
   38E
  8
0
  6
CONTINUOUS
 62
     7
 10
-371.847999906214
 20
13.7772289769868
 30
0.0
 11
-371.774780606971
 21
13.9540058596127
 31
0.0
  0
LINE
  5
   38F
  8
0
  6
CONTINUOUS
 62
     7
 10
-371.847999572754
 20
8.27722930908203
 30
0.0
 11
-371.847999572754
 21
13.777229309082
 31
0.0
  0
LINE
  5
   390
  8
0
  6
CONTINUOUS
 62
     7
 10
-371.774780520525
 20
8.10045230105244
 30
0.0
 11
-371.847999819767
 21
8.27722918367832
 31
0.0
  0
LINE
  5
   391
  8
0
  6
CONTINUOUS
 62
     7
 10
-371.597989693561
 20
8.02723026658976
 30
0.0
 11
-371.774770398817
 21
8.10045338070167
 31
0.0
  0
LINE
  5
   392
  8
0
  6
CONTINUOUS
 62
     7
 10
-370.597999572754
 20
8.02722930908203
 30
0.0
 11
-371.597999572754
 21
8.02722930908203
 31
0.0
  0
LINE
  5
   393
  8
0
  6
CONTINUOUS
 62
     7
 10
-369.847999572754
 20
8.02722930908203
 30
0.0
 11
-370.597999572754
 21
8.02722930908203
 31
0.0
  0
LINE
  5
   394
  8
0
  6
CONTINUOUS
 62
     7
 10
-369.848007971547
 20
8.02722571249065
 30
0.0
 11
-369.671234904747
 21
8.10044882661241
 31
0.0
  0
LINE
  5
   395
  8
0
  6
CONTINUOUS
 62
     7
 10
-369.671223803071
 20
8.10045485204927
 30
0.0
 11
-369.59799687398
 21
8.27723174143748
 31
0.0
  0
LINE
  5
   396
  8
0
  6
CONTINUOUS
 62
     7
 10
-369.597999572754
 20
8.27722930908203
 30
0.0
 11
-369.597999572754
 21
13.777229309082
 31
0.0
  0
LINE
  5
   397
  8
0
  6
CONTINUOUS
 62
     7
 10
-369.597997570134
 20
13.7772305381229
 30
0.0
 11
-369.671224499224
 21
13.9540074275111
 31
0.0
  0
LINE
  5
   398
  8
0
  6
CONTINUOUS
 62
     7
 10
-369.671233492872
 20
13.9540052133871
 30
0.0
 11
-369.848006559671
 21
14.0272283275089
 31
0.0
  0
LINE
  5
   399
  8
0
  6
CONTINUOUS
 62
     7
 10
-369.847999572754
 20
14.027229309082
 30
0.0
 11
-370.597999572754
 21
14.027229309082
 31
0.0
  0
LINE
  5
   39A
  8
0
  6
CONTINUOUS
 62
     5
 10
-384.598030090332
 20
33.5670433044434
 30
0.0
 11
-384.598030090332
 21
34.0670433044434
 31
0.0
  0
LINE
  5
   39B
  8
0
  6
CONTINUOUS
 62
     7
 10
-384.598030090332
 20
34.0670433044434
 30
0.0
 11
-419.348052978516
 21
34.0670433044434
 31
0.0
  0
LINE
  5
   39C
  8
0
  6
CONTINUOUS
 62
     7
 10
-384.598030090332
 20
33.5670433044434
 30
0.0
 11
-419.348052978516
 21
33.5670433044434
 31
0.0
  0
LINE
  5
   39D
  8
0
  6
CONTINUOUS
 62
     5
 10
-384.598030090332
 20
9.06704330444336
 30
0.0
 11
-384.598030090332
 21
9.56704330444336
 31
0.0
  0
LINE
  5
   39E
  8
0
  6
CONTINUOUS
 62
     7
 10
-384.598030090332
 20
9.56704330444336
 30
0.0
 11
-419.348052978516
 21
9.56704330444336
 31
0.0
  0
LINE
  5
   39F
  8
0
  6
CONTINUOUS
 62
     7
 10
-384.598030090332
 20
9.06704330444336
 30
0.0
 11
-419.348052978516
 21
9.06704330444336
 31
0.0
  0
LINE
  5
   3A0
  8
0
  6
CONTINUOUS
 62
     7
 10
-399.723033905029
 20
27.5670433044434
 30
0.0
 11
-419.348052978516
 21
27.5670433044434
 31
0.0
  0
LINE
  5
   3A1
  8
0
  6
CONTINUOUS
 62
     7
 10
-399.723033905029
 20
27.0670433044434
 30
0.0
 11
-419.348052978516
 21
27.0670433044434
 31
0.0
  0
LINE
  5
   3A2
  8
0
  6
CONTINUOUS
 62
     7
 10
-399.723037719727
 20
16.0670433044434
 30
0.0
 11
-419.348052978516
 21
16.0670433044434
 31
0.0
  0
LINE
  5
   3A3
  8
0
  6
CONTINUOUS
 62
     7
 10
-399.723037719727
 20
15.5670433044434
 30
0.0
 11
-419.348052978516
 21
15.5670433044434
 31
0.0
  0
LINE
  5
   3A4
  8
0
  6
CONTINUOUS
 62
     5
 10
-384.598030090332
 20
27.0670433044434
 30
0.0
 11
-384.598030090332
 21
27.5670433044434
 31
0.0
  0
LINE
  5
   3A5
  8
0
  6
CONTINUOUS
 62
     7
 10
-384.598030090332
 20
27.5670433044434
 30
0.0
 11
-388.97301864624
 21
27.5670433044434
 31
0.0
  0
LINE
  5
   3A6
  8
0
  6
CONTINUOUS
 62
     7
 10
-384.598030090332
 20
27.0670433044434
 30
0.0
 11
-388.97301864624
 21
27.0670433044434
 31
0.0
  0
LINE
  5
   3A7
  8
0
  6
CONTINUOUS
 62
     5
 10
-384.598030090332
 20
15.5670433044434
 30
0.0
 11
-384.598030090332
 21
16.0670433044434
 31
0.0
  0
LINE
  5
   3A8
  8
0
  6
CONTINUOUS
 62
     7
 10
-384.598030090332
 20
16.0670433044434
 30
0.0
 11
-388.973022460938
 21
16.0670433044434
 31
0.0
  0
LINE
  5
   3A9
  8
0
  6
CONTINUOUS
 62
     7
 10
-384.598030090332
 20
15.5670433044434
 30
0.0
 11
-388.973022460938
 21
15.5670433044434
 31
0.0
  0
LINE
  5
   3AA
  8
0
  6
CONTINUOUS
 62
     7
 10
-364.098007202148
 20
-3.5579662322998
 30
0.0
 11
-364.098007202148
 21
-1.30796432495117
 31
0.0
  0
LINE
  5
   3AB
  8
0
  6
CONTINUOUS
 62
   130
 10
-367.597999572754
 20
64.4420471191406
 30
0.0
 11
-368.098014831543
 21
64.4420471191406
 31
0.0
  0
LINE
  5
   3AC
  8
0
  6
CONTINUOUS
 62
   130
 10
-364.098052978516
 20
10.5670166015625
 30
0.0
 11
-364.098052978516
 21
15.8170166015625
 31
0.0
  0
LINE
  5
   3AD
  8
0
  6
CONTINUOUS
 62
   130
 10
-364.098052978516
 20
36.442024230957
 30
0.0
 11
-364.098052978516
 21
48.4420471191406
 31
0.0
  0
LINE
  5
   3AE
  8
0
  6
DOT
 62
   130
 10
-352.847999572754
 20
-7.93296813964844
 30
0.0
 11
-363.108009338379
 21
-7.93296813964844
 31
0.0
  0
LINE
  5
   3AF
  8
0
  6
DOT
 62
   130
 10
-352.847999572754
 20
-7.93296813964844
 30
0.0
 11
-352.847999572754
 21
-5.5579719543457
 31
0.0
  0
LINE
  5
   3B0
  8
0
  6
DOT
 62
   130
 10
-363.108009338379
 20
-7.93296813964844
 30
0.0
 11
-367.598052978516
 21
-7.93296813964844
 31
0.0
  0
LINE
  5
   3B1
  8
0
  6
CONTINUOUS
 62
     7
 10
-364.097999572754
 20
54.1920471191406
 30
0.0
 11
-364.097999572754
 21
57.8170471191406
 31
0.0
  0
LINE
  5
   3B2
  8
0
  6
DOT
 62
   130
 10
-352.848007202148
 20
64.4420394897461
 30
0.0
 11
-367.597999572754
 21
64.4420394897461
 31
0.0
  0
LINE
  5
   3B3
  8
0
  6
DOT
 62
   130
 10
-352.847999572753
 20
-5.55797576904187
 30
0.0
 11
-352.848007202148
 21
64.4420394897472
 31
0.0
  0
LINE
  5
   3B4
  8
0
  6
DOT
 62
   130
 10
-352.348007202148
 20
20.9420166015625
 30
0.0
 11
-352.348007202148
 21
30.9420166015625
 31
0.0
  0
LINE
  5
   3B5
  8
0
  6
CONTINUOUS
 62
   130
 10
-364.597999572754
 20
15.8170166015625
 30
0.0
 11
-364.597999572754
 21
33.442024230957
 31
0.0
  0
LINE
  5
   3B6
  8
0
  6
CONTINUOUS
 62
     7
 10
-364.597999572754
 20
3.94203948974609
 30
0.0
 11
-364.597999572754
 21
6.44202041625977
 31
0.0
  0
LINE
  5
   3B7
  8
0
  6
CONTINUOUS
 62
     5
 10
-420.415719129651
 20
0.595099395946566
 30
0.0
 11
-420.414980985729
 21
0.595837539869045
 31
0.0
  0
LINE
  5
   3B8
  8
0
  6
CONTINUOUS
 62
     5
 10
-420.41498013721
 20
53.0384640302746
 30
0.0
 11
-420.415603840194
 21
53.0390896406212
 31
0.0
  0
LINE
  5
   3B9
  8
0
  6
CONTINUOUS
 62
     5
 10
-388.97301864624
 20
31.8242645263672
 30
0.0
 11
-399.72301864624
 21
31.8242645263672
 31
0.0
  0
LINE
  5
   3BA
  8
0
  6
CONTINUOUS
 62
     5
 10
-388.97301864624
 20
32.0446739196777
 30
0.0
 11
-399.72301864624
 21
32.0446739196777
 31
0.0
  0
LINE
  5
   3BB
  8
0
  6
CONTINUOUS
 62
     5
 10
-388.97301864624
 20
11.1561126708984
 30
0.0
 11
-399.72301864624
 21
11.1561126708984
 31
0.0
  0
LINE
  5
   3BC
  8
0
  6
CONTINUOUS
 62
     5
 10
-388.97301864624
 20
11.4910507202148
 30
0.0
 11
-399.72301864624
 21
11.4910507202148
 31
0.0
  0
LINE
  5
   3BD
  8
0
  6
DOT
 62
   130
 10
-352.348007202148
 20
30.9420166015625
 30
0.0
 11
-352.847999572754
 21
30.9420166015625
 31
0.0
  0
LINE
  5
   3BE
  8
0
  6
DOT
 62
   130
 10
-352.348007202148
 20
20.9420166015625
 30
0.0
 11
-352.848007202148
 21
20.9420166015625
 31
0.0
  0
LINE
  5
   3BF
  8
0
  6
CONTINUOUS
 62
   130
 10
-364.597999572754
 20
6.44202041625977
 30
0.0
 11
-364.597999572754
 21
10.5670166015625
 31
0.0
  0
CIRCLE
  5
   3C0
  8
0
  6
CONTINUOUS
 62
   130
 10
-359.597993593458
 20
13.1919718095825
 30
0.0
 40
2.62504375496636
  0
LINE
  5
   3C1
  8
0
  6
DASHDOT
 62
     7
 10
-359.597993593458
 20
9.06692805461616
 30
0.0
 11
-359.597993593458
 21
17.3170155645489
 31
0.0
  0
LINE
  5
   3C2
  8
0
  6
DASHDOT
 62
     7
 10
-355.472949838492
 20
13.1919718095825
 30
0.0
 11
-363.723037348424
 21
13.1919718095825
 31
0.0
  0
LINE
  5
   3C3
  8
0
  6
DASHDOT
 62
     7
 10
-343.975495702532
 20
26.8170700073283
 30
0.0
 11
-446.117170450087
 21
26.8170700073283
 31
0.0
  0
LINE
  5
   3C4
  8
0
  6
CONTINUOUS
 62
     7
 10
-430.673034068685
 20
67.0639190673869
 30
0.0
 11
-430.673034068685
 21
71.692039489751
 31
0.0
  0
LINE
  5
   3C5
  8
0
  6
CONTINUOUS
 62
     7
 10
-428.873035785299
 20
67.0639190673869
 30
0.0
 11
-428.873035785299
 21
71.692039489751
 31
0.0
  0
LINE
  5
   3C6
  8
0
  6
CONTINUOUS
 62
     7
 10
-427.073040362936
 20
67.0639190673869
 30
0.0
 11
-427.073040362936
 21
71.692039489751
 31
0.0
  0
LINE
  5
   3C7
  8
0
  6
CONTINUOUS
 62
     7
 10
-425.273037311178
 20
67.0639190673869
 30
0.0
 11
-425.273037311178
 21
71.692039489751
 31
0.0
  0
LINE
  5
   3C8
  8
0
  6
CONTINUOUS
 62
     7
 10
-423.47303425942
 20
67.0639190673869
 30
0.0
 11
-423.47303425942
 21
71.692039489751
 31
0.0
  0
LINE
  5
   3C9
  8
0
  6
CONTINUOUS
 62
     7
 10
-421.673038837057
 20
67.0639190673869
 30
0.0
 11
-421.673038837057
 21
71.692039489751
 31
0.0
  0
LINE
  5
   3CA
  8
0
  6
DOT
 62
   130
 10
-368.098034259434
 20
-13.4329299926717
 30
0.0
 11
-368.098034259434
 21
0.56704311686369
 31
0.0
  0
LINE
  5
   3CB
  8
0
  6
DOT
 62
   130
 10
-368.098034259434
 20
53.0670699339688
 30
0.0
 11
-368.098034259434
 21
67.0639190673869
 31
0.0
  0
LINE
  5
   3CC
  8
0
  6
CONTINUOUS
 62
     7
 10
-432.47303425942
 20
67.0639190673869
 30
0.0
 11
-432.47303425942
 21
71.692039489751
 31
0.0
  0
TEXT
  5
   3CD
  8
0
  6
CONTINUOUS
 62
     7
 10
-441.895520203833
 20
16.9421354205732
 30
0.0
 40
3.00000002980232
  1
=     =
 50
89.9999999480344
 41
0.916666604744064
 72
     1
 11
-443.395520210266
 21
26.2921348810196
 31
0.0
 73
     2
  0
INSERT
  5
   3CE
  8
0
  6
CONTINUOUS
 62
     7
  2
*UDIM430
 10
0.0
 20
0.0
 30
0.0
  0
INSERT
  5
   3CF
  8
0
  6
CONTINUOUS
 62
     7
  2
*UDIM431
 10
0.0
 20
0.0
 30
0.0
  0
INSERT
  5
   3D0
  8
0
  6
CONTINUOUS
 62
     7
  2
*UDIM432
 10
0.0
 20
0.0
 30
0.0
  0
INSERT
  5
   3D1
  8
0
  6
CONTINUOUS
 62
     7
  2
*UDIM433
 10
0.0
 20
0.0
 30
0.0
  0
INSERT
  5
   3D2
  8
0
  6
CONTINUOUS
 62
     7
  2
*UDIM434
 10
0.0
 20
0.0
 30
0.0
  0
INSERT
  5
   3D3
  8
0
  6
CONTINUOUS
 62
     7
  2
*UDIM435
 10
0.0
 20
0.0
 30
0.0
  0
INSERT
  5
   3D4
  8
0
  6
CONTINUOUS
 62
     7
  2
*UDIM436
 10
0.0
 20
0.0
 30
0.0
  0
TEXT
  5
   3D5
  8
0
  6
CONTINUOUS
 62
     7
 10
-410.802823941767
 20
93.3198936311934
 30
0.0
 40
3.00000002980232
  1
=          =
 50
359.999999948034
 41
0.916666604744064
 72
     2
 11
-378.352825815836
 21
93.3198936019252
 31
0.0
  0
INSERT
  5
   3D6
  8
0
  6
CONTINUOUS
 62
     7
  2
*UDIM437
 10
0.0
 20
0.0
 30
0.0
  0
INSERT
  5
   3D7
  8
0
  6
CONTINUOUS
 62
     7
  2
*UDIM438
 10
0.0
 20
0.0
 30
0.0
  0
INSERT
  5
   3D8
  8
0
  6
CONTINUOUS
 62
     7
  2
*UDIM439
 10
0.0
 20
0.0
 30
0.0
  0
INSERT
  5
   3D9
  8
0
  6
CONTINUOUS
 62
     7
  2
*UDIM440
 10
0.0
 20
0.0
 30
0.0
  0
INSERT
  5
   3DA
  8
0
  6
CONTINUOUS
 62
     7
  2
*UDIM441
 10
0.0
 20
0.0
 30
0.0
  0
INSERT
  5
   3DB
  8
0
  6
CONTINUOUS
 62
     7
  2
*UDIM442
 10
0.0
 20
0.0
 30
0.0
  0
INSERT
  5
   3DC
  8
0
  6
CONTINUOUS
 62
     7
  2
*UDIM443
 10
0.0
 20
0.0
 30
0.0
  0
INSERT
  5
   3DD
  8
0
  6
CONTINUOUS
 62
     7
  2
*UDIM444
 10
0.0
 20
0.0
 30
0.0
  0
INSERT
  5
   3DE
  8
0
  6
CONTINUOUS
 62
     7
  2
*UDIM445
 10
0.0
 20
0.0
 30
0.0
  0
INSERT
  5
   3DF
  8
0
  6
CONTINUOUS
 62
     7
  2
*UDIM446
 10
0.0
 20
0.0
 30
0.0
  0
INSERT
  5
   3E0
  8
0
  6
CONTINUOUS
 62
     7
  2
*UDIM447
 10
0.0
 20
0.0
 30
0.0
  0
TEXT
  5
   3E1
  8
0
  6
CONTINUOUS
 62
     7
 10
-395.540788967775
 20
117.802461271675
 30
0.0
 40
3.00000002980232
  1
Y
 50
359.999999948034
 41
0.916666604744064
 72
     2
 11
-393.340789098906
 21
117.802461269691
 31
0.0
  0
INSERT
  5
   3E2
  8
255
  6
CONTINUOUS
 62
     7
  2
MOSTRA
 10
-451.767183613614
 20
-7.71430206298421
 30
0.0
 41
0.5
 42
0.5
 50
359.999999792138
 43
0.5
  0
LINE
  5
   3E3
  8
0
  6
CONTINUOUS
 62
     7
 10
-525.933197021484
 20
-13.1579379923203
 30
0.0
 11
-561.933197021484
 21
-13.1579379923203
 31
0.0
  0
LINE
  5
   3E4
  8
0
  6
CONTINUOUS
 62
     7
 10
-525.933197021484
 20
-15.8079376108506
 30
0.0
 11
-525.933197021484
 21
-7.93296813964844
 31
0.0
  0
LINE
  5
   3E5
  8
0
  6
CONTINUOUS
 62
     7
 10
-525.933197021484
 20
64.4420394897461
 30
0.0
 11
-525.933197021484
 21
71.6920547597548
 31
0.0
  0
LINE
  5
   3E6
  8
0
  6
CONTINUOUS
 62
     7
 10
-524.933197021484
 20
65.1068573110244
 30
0.0
 11
-524.933197021484
 21
65.1920395009658
 31
0.0
  0
LINE
  5
   3E7
  8
0
  6
CONTINUOUS
 62
     7
 10
-524.933197021484
 20
-9.30795239280253
 30
0.0
 11
-525.933197021484
 21
-9.30795239280253
 31
0.0
  0
LINE
  5
   3E8
  8
0
  6
CONTINUOUS
 62
     7
 10
-524.933197021484
 20
65.1920395009658
 30
0.0
 11
-525.933197021484
 21
65.1920395009658
 31
0.0
  0
LINE
  5
   3E9
  8
0
  6
CONTINUOUS
 62
     7
 10
-525.933197021484
 20
69.0420608632705
 30
0.0
 11
-573.033195496202
 21
69.0420608632705
 31
0.0
  0
LINE
  5
   3EA
  8
0
  6
CONTINUOUS
 62
     7
 10
-561.933197022081
 20
-13.1579379923204
 30
0.0
 11
-573.033195496202
 21
-13.1579379923204
 31
0.0
  0
LINE
  5
   3EB
  8
0
  6
CONTINUOUS
 62
     3
 10
-561.933197021484
 20
64.4420394897461
 30
0.0
 11
-561.933197021484
 21
69.0420608632705
 31
0.0
  0
LINE
  5
   3EC
  8
0
  6
CONTINUOUS
 62
     7
 10
-573.033195496202
 20
-13.1579360849717
 30
0.0
 11
-573.033195496202
 21
-7.55796813964844
 31
0.0
  0
LINE
  5
   3ED
  8
0
  6
CONTINUOUS
 62
     7
 10
-573.033195496202
 20
64.4420394897461
 30
0.0
 11
-573.033195496202
 21
69.0420608632705
 31
0.0
  0
LINE
  5
   3EE
  8
0
  6
CONTINUOUS
 62
   210
 10
-501.183185123547
 20
12.9420347217447
 30
0.0
 11
-502.183168041616
 21
12.9420385363768
 31
0.0
  0
LINE
  5
   3EF
  8
0
  6
CONTINUOUS
 62
   210
 10
-501.183183216199
 20
9.44203472171198
 30
0.0
 11
-502.183167627618
 21
9.44203853634978
 31
0.0
  0
LINE
  5
   3F0
  8
0
  6
CONTINUOUS
 62
     3
 10
-500.933181762695
 20
-14.0579528808594
 30
0.0
 11
-500.933181762695
 21
-1.55795288085938
 31
0.0
  0
LINE
  5
   3F1
  8
0
  6
CONTINUOUS
 62
     3
 10
-500.933174133301
 20
57.4420471191406
 30
0.0
 11
-500.933174133301
 21
69.9420471191406
 31
0.0
  0
LINE
  5
   3F2
  8
0
  6
CONTINUOUS
 62
     3
 10
-506.433174133301
 20
-13.1579513549805
 30
0.0
 11
-524.933197021484
 21
-13.1579513549805
 31
0.0
  0
LINE
  5
   3F3
  8
0
  6
CONTINUOUS
 62
   210
 10
-506.433174133301
 20
-14.5579528808594
 30
0.0
 11
-524.933197021484
 21
-14.5579528808594
 31
0.0
  0
LINE
  5
   3F4
  8
0
  6
CONTINUOUS
 62
   210
 10
-506.433174133301
 20
70.4420471191406
 30
0.0
 11
-524.933197021484
 21
70.4420471191406
 31
0.0
  0
LINE
  5
   3F5
  8
0
  6
CONTINUOUS
 62
     3
 10
-506.433174133301
 20
69.0420532226563
 30
0.0
 11
-524.933197021484
 21
69.0420532226563
 31
0.0
  0
LINE
  5
   3F6
  8
0
  6
CONTINUOUS
 62
   210
 10
-524.933197021484
 20
64.4420394897461
 30
0.0
 11
-524.933197021484
 21
70.4420471191406
 31
0.0
  0
LINE
  5
   3F7
  8
0
  6
CONTINUOUS
 62
   210
 10
-506.433179601789
 20
-14.5579552900572
 30
0.0
 11
-506.433179802564
 21
-14.0579528808594
 31
0.0
  0
LINE
  5
   3F8
  8
0
  6
CONTINUOUS
 62
     3
 10
-524.933205866067
 20
6.19204019298867
 30
0.0
 11
-524.433221140252
 21
6.69204780436591
 31
0.0
  0
LINE
  5
   3F9
  8
0
  6
CONTINUOUS
 62
   210
 10
-500.183176326428
 20
-0.307954934905606
 30
0.0
 11
-500.183183955822
 21
6.19204506509439
 31
0.0
  0
LINE
  5
   3FA
  8
0
  6
CONTINUOUS
 62
   210
 10
-500.183181916977
 20
49.6920415439446
 30
0.0
 11
-500.183174287583
 21
56.1920415439446
 31
0.0
  0
LINE
  5
   3FB
  8
0
  6
CONTINUOUS
 62
     2
 10
-500.433181762695
 20
56.4420471191406
 30
0.0
 11
-501.183181762695
 21
56.4420471191406
 31
0.0
  0
LINE
  5
   3FC
  8
0
  6
CONTINUOUS
 62
     2
 10
-500.433181762695
 20
-0.557952880859375
 30
0.0
 11
-501.183181762695
 21
-0.557952880859375
 31
0.0
  0
LINE
  5
   3FD
  8
0
  6
CONTINUOUS
 62
     2
 10
-501.183181762695
 20
56.1920471191406
 30
0.0
 11
-501.183181762695
 21
56.4420471191406
 31
0.0
  0
LINE
  5
   3FE
  8
0
  6
CONTINUOUS
 62
     2
 10
-501.183181762695
 20
6.19210052490234
 30
0.0
 11
-501.183181762695
 21
49.6920471191406
 31
0.0
  0
LINE
  5
   3FF
  8
0
  6
CONTINUOUS
 62
     2
 10
-501.183181762695
 20
-0.557952880859375
 30
0.0
 11
-501.183181762695
 21
-0.307914733886719
 31
0.0
  0
LINE
  5
   400
  8
0
  6
CONTINUOUS
 62
     2
 10
-500.433181762695
 20
-0.557952880859375
 30
0.0
 11
-500.433181762695
 21
-0.307960510253906
 31
0.0
  0
LINE
  5
   401
  8
0
  6
CONTINUOUS
 62
     2
 10
-500.433181762695
 20
6.19203948974609
 30
0.0
 11
-500.433181762695
 21
49.692008972168
 31
0.0
  0
LINE
  5
   402
  8
0
  6
CONTINUOUS
 62
     2
 10
-500.433181762695
 20
56.192008972168
 30
0.0
 11
-500.433181762695
 21
56.4420471191406
 31
0.0
  0
LINE
  5
   403
  8
0
  6
CONTINUOUS
 62
   130
 10
-500.433301793999
 20
-14.3079787030208
 30
0.0
 11
-500.433271276423
 21
-1.30797870302083
 31
0.0
  0
LINE
  5
   404
  8
0
  6
CONTINUOUS
 62
   130
 10
-504.433296203613
 20
-14.8079605102539
 30
0.0
 11
-504.433296203613
 21
-14.0579376220703
 31
0.0
  0
LINE
  5
   405
  8
0
  6
CONTINUOUS
 62
     3
 10
-500.433181762695
 20
57.1920471191406
 30
0.0
 11
-500.433181762695
 21
70.1920471191406
 31
0.0
  0
LINE
  5
   406
  8
0
  6
CONTINUOUS
 62
     3
 10
-504.43318939209
 20
69.9420471191406
 30
0.0
 11
-504.43318939209
 21
70.6920471191406
 31
0.0
  0
LINE
  5
   407
  8
0
  6
CONTINUOUS
 62
     3
 10
-515.683197021484
 20
-19.5579605102539
 30
0.0
 11
-518.183197021484
 21
-19.5579605102539
 31
0.0
  0
LINE
  5
   408
  8
0
  6
CONTINUOUS
 62
     3
 10
-515.683197021484
 20
-29.5579600334167
 30
0.0
 11
-518.183197021484
 21
-29.5579600334167
 31
0.0
  0
LINE
  5
   409
  8
0
  6
CONTINUOUS
 62
     3
 10
-518.183197021484
 20
-29.5579528808594
 30
0.0
 11
-518.183197021484
 21
-14.5579376220703
 31
0.0
  0
LINE
  5
   40A
  8
0
  6
CONTINUOUS
 62
     3
 10
-515.683197021484
 20
-29.5579600334167
 30
0.0
 11
-515.683197021484
 21
-14.5579752922058
 31
0.0
  0
LINE
  5
   40B
  8
0
  6
CONTINUOUS
 62
   210
 10
-504.433296203613
 20
-14.0579528808594
 30
0.0
 11
-506.433181762695
 21
-14.0579528808594
 31
0.0
  0
LINE
  5
   40C
  8
0
  6
CONTINUOUS
 62
   210
 10
-504.43318939209
 20
69.9420471191406
 30
0.0
 11
-506.433174133301
 21
69.9420471191406
 31
0.0
  0
LINE
  5
   40D
  8
0
  6
CONTINUOUS
 62
   210
 10
-500.183174133301
 20
-0.307952880859375
 30
0.0
 11
-502.183166474338
 21
-0.307952880859375
 31
0.0
  0
LINE
  5
   40E
  8
0
  6
CONTINUOUS
 62
   210
 10
-500.183181762695
 20
6.19204711914063
 30
0.0
 11
-502.183167243192
 21
6.19204711914063
 31
0.0
  0
LINE
  5
   40F
  8
0
  6
CONTINUOUS
 62
   210
 10
-500.183174133301
 20
56.1920471191406
 30
0.0
 11
-502.183173157449
 21
56.1920471191406
 31
0.0
  0
LINE
  5
   410
  8
0
  6
CONTINUOUS
 62
   210
 10
-500.183181762695
 20
49.6920471191406
 30
0.0
 11
-502.183172388596
 21
49.6920471191406
 31
0.0
  0
LINE
  5
   411
  8
0
  6
CONTINUOUS
 62
   210
 10
-501.183181762695
 20
47.9420471191406
 30
0.0
 11
-502.183172181596
 21
47.9420471191406
 31
0.0
  0
LINE
  5
   412
  8
0
  6
CONTINUOUS
 62
   210
 10
-501.183181762695
 20
43.9420471191406
 30
0.0
 11
-502.183171708456
 21
43.9420471191406
 31
0.0
  0
LINE
  5
   413
  8
0
  6
CONTINUOUS
 62
   130
 10
-500.933295872983
 20
-14.8079685304024
 30
0.0
 11
-500.433295890127
 21
-14.307976176067
 31
0.0
  0
LINE
  5
   414
  8
0
  6
CONTINUOUS
 62
   130
 10
-500.433246025496
 20
-1.30797699390053
 30
0.0
 11
-500.933238379804
 21
-0.807969382437314
 31
0.0
  0
LINE
  5
   415
  8
0
  6
CONTINUOUS
 62
   130
 10
-500.933297577169
 20
-14.8079724989752
 30
0.0
 11
-504.433297577169
 21
-14.8079648695811
 31
0.0
  0
LINE
  5
   416
  8
0
  6
CONTINUOUS
 62
   130
 10
-500.933259430249
 20
-0.807972498613054
 30
0.0
 11
-502.183167544165
 21
-0.807969774036572
 31
0.0
  0
LINE
  5
   417
  8
0
  6
CONTINUOUS
 62
     3
 10
-500.433173476044
 20
70.1920650645911
 30
0.0
 11
-500.93317345893
 21
70.6920650474768
 31
0.0
  0
LINE
  5
   418
  8
0
  6
CONTINUOUS
 62
     3
 10
-500.933151799377
 20
56.6920782339419
 30
0.0
 11
-500.433151816491
 21
57.1920782168276
 31
0.0
  0
LINE
  5
   419
  8
0
  6
CONTINUOUS
 62
     3
 10
-500.933181762695
 20
70.6920471191406
 30
0.0
 11
-504.43318939209
 21
70.6920471191406
 31
0.0
  0
LINE
  5
   41A
  8
0
  6
CONTINUOUS
 62
     3
 10
-500.933181762695
 20
56.6920471191406
 30
0.0
 11
-502.183173216592
 21
56.6920471191406
 31
0.0
  0
LINE
  5
   41B
  8
0
  6
CONTINUOUS
 62
     7
 10
-518.183197021484
 20
70.44204714158
 30
0.0
 11
-518.183197021484
 21
85.442062400369
 31
0.0
  0
LINE
  5
   41C
  8
0
  6
CONTINUOUS
 62
     7
 10
-515.683197021484
 20
70.4420848117155
 30
0.0
 11
-515.683197021484
 21
85.4420695529264
 31
0.0
  0
LINE
  5
   41D
  8
0
  6
CONTINUOUS
 62
     7
 10
-515.683197021484
 20
85.4420695529264
 30
0.0
 11
-518.183197021484
 21
85.4420695529264
 31
0.0
  0
LINE
  5
   41E
  8
0
  6
CONTINUOUS
 62
     7
 10
-515.683197021484
 20
75.4420700297636
 30
0.0
 11
-518.183197021484
 21
75.4420700297636
 31
0.0
  0
LINE
  5
   41F
  8
0
  6
DASHDOT
 62
     7
 10
-511.7799694056
 20
80.4420695529264
 30
0.0
 11
-522.93502913056
 21
80.4420695529264
 31
0.0
  0
LINE
  5
   420
  8
0
  6
DASHDOT
 62
     7
 10
-493.57286042923
 20
52.9420547597548
 30
0.0
 11
-512.805722023987
 21
52.9420547597548
 31
0.0
  0
LINE
  5
   421
  8
0
  6
DASHDOT
 62
     7
 10
-511.7799694056
 20
-24.5579600334167
 30
0.0
 11
-522.93502913056
 21
-24.5579600334167
 31
0.0
  0
LINE
  5
   422
  8
0
  6
DASHDOT
 62
     7
 10
-493.57286042923
 20
2.94205475975484
 30
0.0
 11
-512.805722023987
 21
2.94205475975484
 31
0.0
  0
LINE
  5
   423
  8
0
  6
CONTINUOUS
 62
     3
 10
-500.933174133301
 20
69.9420471191406
 30
0.0
 11
-504.43318939209
 21
69.9420471191406
 31
0.0
  0
LINE
  5
   424
  8
0
  6
CONTINUOUS
 62
     3
 10
-500.933174133301
 20
57.4420471191406
 30
0.0
 11
-502.183173305305
 21
57.4420471191406
 31
0.0
  0
LINE
  5
   425
  8
0
  6
CONTINUOUS
 62
   210
 10
-506.433174133301
 20
69.9420471191406
 30
0.0
 11
-506.433174133301
 21
70.4420471191406
 31
0.0
  0
LINE
  5
   426
  8
0
  6
CONTINUOUS
 62
     3
 10
-506.433174133301
 20
64.4420394897461
 30
0.0
 11
-506.433174133301
 21
69.9420471191406
 31
0.0
  0
LINE
  5
   427
  8
0
  6
CONTINUOUS
 62
     3
 10
-506.433179802564
 20
-14.0579528808594
 30
0.0
 11
-506.433183215674
 21
-5.55808172543592
 31
0.0
  0
LINE
  5
   428
  8
0
  6
CONTINUOUS
 62
     3
 10
-500.933181762695
 20
-14.0579528808594
 30
0.0
 11
-504.433296203613
 21
-14.0579528808594
 31
0.0
  0
LINE
  5
   429
  8
0
  6
CONTINUOUS
 62
     3
 10
-500.933181762695
 20
-1.55795288085938
 30
0.0
 11
-502.183168584493
 21
-1.55795288085938
 31
0.0
  0
LINE
  5
   42A
  8
0
  6
DASHDOT
 62
     7
 10
-500.183174133301
 20
56.1920471191406
 30
0.0
 11
-500.183174133301
 21
86.7811902811487
 31
0.0
  0
LINE
  5
   42B
  8
0
  6
CONTINUOUS
 62
     7
 10
-500.183181762695
 20
6.19204711914062
 30
0.0
 11
-500.183181762695
 21
49.6920471191406
 31
0.0
  0
LINE
  5
   42C
  8
0
  6
DASHDOT
 62
     7
 10
-500.183174133301
 20
-32.0244423736252
 30
0.0
 11
-500.183174133301
 21
-0.307952880859382
 31
0.0
  0
LINE
  5
   42D
  8
0
  6
DASHDOT
 62
     7
 10
-498.683174133301
 20
-32.5511019938163
 30
0.0
 11
-498.683174133301
 21
87.3078499013398
 31
0.0
  0
LINE
  5
   42E
  8
0
  6
CONTINUOUS
 62
     3
 10
-495.831473947269
 20
-33.6044212341985
 30
0.0
 11
-503.292485233309
 21
-30.8833465298778
 31
0.0
  0
LINE
  5
   42F
  8
0
  6
CONTINUOUS
 62
     3
 10
-502.678049009753
 20
83.4017910515892
 30
0.0
 11
-495.612032438856
 21
88.9317170635956
 31
0.0
  0
LINE
  5
   430
  8
0
  6
CONTINUOUS
 62
     1
 10
-591.183164596558
 20
9.94208145141602
 30
0.0
 11
-591.183164596558
 21
16.4419822692871
 31
0.0
  0
LINE
  5
   431
  8
0
  6
CONTINUOUS
 62
     1
 10
-596.183164596558
 20
-13.4330196380615
 30
0.0
 11
-596.183164596558
 21
67.0669803619385
 31
0.0
  0
LINE
  5
   432
  8
0
  6
CONTINUOUS
 62
     1
 10
-596.183164596558
 20
-13.4330196380615
 30
0.0
 11
-597.933164596558
 21
-13.4330196380615
 31
0.0
  0
LINE
  5
   433
  8
0
  6
CONTINUOUS
 62
     1
 10
-597.933164596558
 20
-13.4330196380615
 30
0.0
 11
-597.933164596558
 21
8.94198226928711
 31
0.0
  0
LINE
  5
   434
  8
0
  6
CONTINUOUS
 62
     1
 10
-597.933164596558
 20
17.4419822692871
 30
0.0
 11
-597.933164596558
 21
67.0669784545898
 31
0.0
  0
LINE
  5
   435
  8
0
  6
CONTINUOUS
 62
     1
 10
-596.183164596558
 20
67.0669784545898
 30
0.0
 11
-597.933164596558
 21
67.0669784545898
 31
0.0
  0
LINE
  5
   436
  8
0
  6
CONTINUOUS
 62
     1
 10
-595.183164596558
 20
28.3169822692871
 30
0.0
 11
-595.183164596558
 21
57.8169784545898
 31
0.0
  0
LINE
  5
   437
  8
0
  6
CONTINUOUS
 62
     1
 10
-595.183164596558
 20
16.4419860839844
 30
0.0
 11
-595.183164596558
 21
25.3169860839844
 31
0.0
  0
LINE
  5
   438
  8
0
  6
CONTINUOUS
 62
     1
 10
-595.183164596558
 20
-4.18301963806152
 30
0.0
 11
-595.183164596558
 21
9.94198608398438
 31
0.0
  0
LINE
  5
   439
  8
0
  6
CONTINUOUS
 62
     1
 10
-595.183164596558
 20
-4.18301963806152
 30
0.0
 11
-596.183164596558
 21
-4.18301963806152
 31
0.0
  0
LINE
  5
   43A
  8
0
  6
CONTINUOUS
 62
     1
 10
-595.183164596558
 20
57.8169784545898
 30
0.0
 11
-596.183164596558
 21
57.8169784545898
 31
0.0
  0
LINE
  5
   43B
  8
0
  6
CONTINUOUS
 62
     1
 10
-592.933164596558
 20
-9.89434432983398
 30
0.0
 11
-592.933164596558
 21
-7.47169494628906
 31
0.0
  0
LINE
  5
   43C
  8
0
  6
CONTINUOUS
 62
     1
 10
-592.933164596558
 20
61.1056518554688
 30
0.0
 11
-592.933164596558
 21
63.5283050537109
 31
0.0
  0
LINE
  5
   43D
  8
0
  6
CONTINUOUS
 62
     1
 10
-592.933164596558
 20
25.605655670166
 30
0.0
 11
-592.933164596558
 21
28.0283050537109
 31
0.0
  0
LINE
  5
   43E
  8
0
  6
CONTINUOUS
 62
     3
 10
-597.433164596558
 20
8.94198226928711
 30
0.0
 11
-597.933164596558
 21
8.94198226928711
 31
0.0
  0
LINE
  5
   43F
  8
0
  6
CONTINUOUS
 62
     3
 10
-597.433164596558
 20
8.94198226928711
 30
0.0
 11
-597.433164596558
 21
17.4419822692871
 31
0.0
  0
LINE
  5
   440
  8
0
  6
CONTINUOUS
 62
     3
 10
-597.433164596558
 20
17.4419822692871
 30
0.0
 11
-597.933164596558
 21
17.4419822692871
 31
0.0
  0
LINE
  5
   441
  8
0
  6
CONTINUOUS
 62
     3
 10
-597.433164596558
 20
7.44198226928711
 30
0.0
 11
-597.433164596558
 21
8.94198226928711
 31
0.0
  0
LINE
  5
   442
  8
0
  6
CONTINUOUS
 62
     3
 10
-597.433164596558
 20
17.4419822692871
 30
0.0
 11
-597.433164596558
 21
18.9419822692871
 31
0.0
  0
LINE
  5
   443
  8
0
  6
CONTINUOUS
 62
     3
 10
-596.933164596558
 20
7.44198226928711
 30
0.0
 11
-597.433164596558
 21
7.44198226928711
 31
0.0
  0
LINE
  5
   444
  8
0
  6
CONTINUOUS
 62
     3
 10
-596.933164596558
 20
7.44198226928711
 30
0.0
 11
-596.933164596558
 21
18.9419822692871
 31
0.0
  0
LINE
  5
   445
  8
0
  6
CONTINUOUS
 62
     3
 10
-596.933164596558
 20
18.9419822692871
 30
0.0
 11
-597.433164596558
 21
18.9419822692871
 31
0.0
  0
LINE
  5
   446
  8
0
  6
CONTINUOUS
 62
   130
 10
-589.683133126403
 20
-5.79738570335877E-2
 30
0.0
 11
-589.683158875611
 21
1.94203949440684
 31
0.0
  0
LINE
  5
   447
  8
0
  6
CONTINUOUS
 62
     3
 10
-582.833808899952
 20
-3.55797576706984
 30
0.0
 11
-582.683159352375
 21
-3.55797385972123
 31
0.0
  0
LINE
  5
   448
  8
0
  6
CONTINUOUS
 62
   130
 10
-589.68315887553
 20
-5.55797195086912
 30
0.0
 11
-589.683134079998
 21
-3.55797958026365
 31
0.0
  0
LINE
  5
   449
  8
0
  6
CONTINUOUS
 62
   130
 10
-523.9331891841
 20
-5.55803103735544
 30
0.0
 11
-524.933189184101
 21
-5.55796809485056
 31
0.0
  0
LINE
  5
   44A
  8
0
  6
CONTINUOUS
 62
   130
 10
-587.183158874512
 20
-5.55797195434567
 30
0.0
 11
-527.433197021484
 21
-5.55796813964839
 31
0.0
  0
LINE
  5
   44B
  8
0
  6
CONTINUOUS
 62
   130
 10
-502.183174133301
 20
64.4420394897461
 30
0.0
 11
-523.933197021484
 21
64.4420394897461
 31
0.0
  0
LINE
  5
   44C
  8
0
  6
CONTINUOUS
 62
   130
 10
-502.183174132679
 20
-5.55809402456349
 30
0.0
 11
-523.933189391468
 21
-5.55803108205982
 31
0.0
  0
LINE
  5
   44D
  8
0
  6
CONTINUOUS
 62
   130
 10
-502.183174133229
 20
-5.55809402461468
 30
0.0
 11
-502.183166503835
 21
-5.79853057426121E-2
 31
0.0
  0
LINE
  5
   44E
  8
0
  6
CONTINUOUS
 62
     3
 10
-544.433166503906
 20
48.4420471191406
 30
0.0
 11
-589.683158874512
 21
48.4420471191406
 31
0.0
  0
LINE
  5
   44F
  8
0
  6
CONTINUOUS
 62
     3
 10
-544.433166503906
 20
33.442024230957
 30
0.0
 11
-561.683176040649
 21
33.442024230957
 31
0.0
  0
LINE
  5
   450
  8
0
  6
CONTINUOUS
 62
   130
 10
-589.68313407898
 20
-3.5579795837384
 30
0.0
 11
-589.683133125306
 21
-5.79738616925063E-2
 31
0.0
  0
LINE
  5
   451
  8
0
  6
CONTINUOUS
 62
   130
 10
-523.933197021484
 20
64.4420394897461
 30
0.0
 11
-589.683158874512
 21
64.4420394897461
 31
0.0
  0
LINE
  5
   452
  8
0
  6
CONTINUOUS
 62
   130
 10
-589.683158874512
 20
48.4420471191406
 30
0.0
 11
-589.683158874512
 21
64.4420394897461
 31
0.0
  0
LINE
  5
   453
  8
0
  6
CONTINUOUS
 62
     3
 10
-538.558197021318
 20
-3.55794906612149
 30
0.0
 11
-525.933189391924
 21
-3.55792617793806
 31
0.0
  0
LINE
  5
   454
  8
0
  6
CONTINUOUS
 62
     3
 10
-558.995666503892
 20
-3.55796051024868
 30
0.0
 11
-540.558197021471
 21
-3.55794906615736
 31
0.0
  0
LINE
  5
   455
  8
0
  6
CONTINUOUS
 62
     3
 10
-587.683104515069
 20
-3.5579795837348
 30
0.0
 11
-560.995665550226
 21
-3.55796241759744
 31
0.0
  0
LINE
  5
   456
  8
0
  6
CONTINUOUS
 62
     3
 10
-587.683099746698
 20
-1.30797386168901
 30
0.0
 11
-560.995664596551
 21
-1.30795669555108
 31
0.0
  0
LINE
  5
   457
  8
0
  6
CONTINUOUS
 62
     3
 10
-558.995664596544
 20
-1.30795478820249
 30
0.0
 11
-540.558193206773
 21
-1.30794334411103
 31
0.0
  0
LINE
  5
   458
  8
0
  6
CONTINUOUS
 62
     3
 10
-538.558193206769
 20
-1.3079414367627
 30
0.0
 11
-525.933189392071
 21
-1.30793380736814
 31
0.0
  0
LINE
  5
   459
  8
0
  6
CONTINUOUS
 62
     3
 10
-587.683104515092
 20
-3.55797958366947
 30
0.0
 11
-587.683100700395
 21
-1.30797386162357
 31
0.0
  0
LINE
  5
   45A
  8
0
  6
CONTINUOUS
 62
     3
 10
-525.93318939209
 20
-3.55792617797852
 30
0.0
 11
-525.93318939209
 21
-1.30793380737305
 31
0.0
  0
LINE
  5
   45B
  8
0
  6
CONTINUOUS
 62
     3
 10
-538.55819702143
 20
-3.55794906608488
 30
0.0
 11
-538.558193206733
 21
-1.30793189994718
 31
0.0
  0
LINE
  5
   45C
  8
0
  6
CONTINUOUS
 62
     3
 10
-540.558197021433
 20
-3.55794906609134
 30
0.0
 11
-540.558193206736
 21
-1.30793380730228
 31
0.0
  0
LINE
  5
   45D
  8
0
  6
CONTINUOUS
 62
     3
 10
-558.9956665039
 20
-3.5579605102346
 30
0.0
 11
-558.995664596551
 21
-1.30794525144553
 31
0.0
  0
LINE
  5
   45E
  8
0
  6
CONTINUOUS
 62
     3
 10
-560.995665550226
 20
-3.55796241758485
 30
0.0
 11
-560.995663642878
 21
-1.30794525144715
 31
0.0
  0
LINE
  5
   45F
  8
0
  6
CONTINUOUS
 62
   130
 10
-573.683159589768
 20
-7.55796813964844
 30
0.0
 11
-573.683159589768
 21
-5.55796813964844
 31
0.0
  0
LINE
  5
   460
  8
0
  6
CONTINUOUS
 62
   130
 10
-571.683159351349
 20
-7.55796813964844
 30
0.0
 11
-571.683159351349
 21
-5.55796813964844
 31
0.0
  0
LINE
  5
   461
  8
0
  6
CONTINUOUS
 62
   130
 10
-571.683159351349
 20
-7.55796813964844
 30
0.0
 11
-573.683159589768
 21
-7.55796813964844
 31
0.0
  0
LINE
  5
   462
  8
0
  6
CONTINUOUS
 62
   130
 10
-531.808158874512
 20
-7.55794143676758
 30
0.0
 11
-531.808158874512
 21
-5.55797576904297
 31
0.0
  0
LINE
  5
   463
  8
0
  6
CONTINUOUS
 62
   130
 10
-529.808158874512
 20
-7.55794143676758
 30
0.0
 11
-529.808158874512
 21
-5.55797576904297
 31
0.0
  0
LINE
  5
   464
  8
0
  6
CONTINUOUS
 62
   130
 10
-529.808158874512
 20
-7.55794143676758
 30
0.0
 11
-531.808158874512
 21
-7.55794143676758
 31
0.0
  0
LINE
  5
   465
  8
0
  6
CONTINUOUS
 62
   130
 10
-587.183158874512
 20
-7.93296813964844
 30
0.0
 11
-587.183158874512
 21
-6.68296813964844
 31
0.0
  0
LINE
  5
   466
  8
0
  6
CONTINUOUS
 62
   130
 10
-589.683158874512
 20
-7.93296813964844
 30
0.0
 11
-589.683158874512
 21
-5.5579719543457
 31
0.0
  0
LINE
  5
   467
  8
0
  6
CONTINUOUS
 62
   130
 10
-587.183158874512
 20
-7.93296813964844
 30
0.0
 11
-589.683158874512
 21
-7.93296813964844
 31
0.0
  0
LINE
  5
   468
  8
0
  6
CONTINUOUS
 62
   130
 10
-587.183158874512
 20
-6.68296813964844
 30
0.0
 11
-587.183158874512
 21
-5.55796813964844
 31
0.0
  0
LINE
  5
   469
  8
0
  6
CONTINUOUS
 62
   130
 10
-527.433204650879
 20
-7.93296813964844
 30
0.0
 11
-527.433204650879
 21
-6.68296813964844
 31
0.0
  0
LINE
  5
   46A
  8
0
  6
CONTINUOUS
 62
   130
 10
-524.933204650879
 20
-7.93296813964844
 30
0.0
 11
-527.433204650879
 21
-7.93296813964844
 31
0.0
  0
LINE
  5
   46B
  8
0
  6
CONTINUOUS
 62
   130
 10
-524.933204649816
 20
-7.93296813881283
 30
0.0
 11
-524.933189391027
 21
-5.55796813881283
 31
0.0
  0
LINE
  5
   46C
  8
0
  6
CONTINUOUS
 62
   130
 10
-527.433204649752
 20
-6.6829681386599
 30
0.0
 11
-527.433197020358
 21
-5.55797576805443
 31
0.0
  0
LINE
  5
   46D
  8
0
  6
CONTINUOUS
 62
     3
 10
-586.183162623746
 20
54.1920557468462
 30
0.0
 11
-587.683162656697
 21
55.6920557797971
 31
0.0
  0
LINE
  5
   46E
  8
0
  6
CONTINUOUS
 62
   130
 10
-589.683158874512
 20
1.94203948974609
 30
0.0
 11
-589.683158874512
 21
33.4420356750488
 31
0.0
  0
LINE
  5
   46F
  8
0
  6
CONTINUOUS
 62
     3
 10
-561.683177947998
 20
33.4420318603522
 30
0.0
 11
-589.683158874512
 21
33.4420356750494
 31
0.0
  0
LINE
  5
   470
  8
0
  6
CONTINUOUS
 62
     3
 10
-544.433166503906
 20
33.442024230957
 30
0.0
 11
-544.433166503906
 21
48.4420471191406
 31
0.0
  0
LINE
  5
   471
  8
0
  6
CONTINUOUS
 62
     3
 10
-581.933159351349
 20
48.1920471191406
 30
0.0
 11
-581.933159351349
 21
48.4420471191406
 31
0.0
  0
LINE
  5
   472
  8
0
  6
CONTINUOUS
 62
     3
 10
-538.558197021466
 20
57.8170394897616
 30
0.0
 11
-525.933189392071
 21
57.8170471191563
 31
0.0
  0
LINE
  5
   473
  8
0
  6
CONTINUOUS
 62
     3
 10
-538.558197021484
 20
54.1920394897461
 30
0.0
 11
-538.558197021484
 21
57.8170394897461
 31
0.0
  0
LINE
  5
   474
  8
0
  6
CONTINUOUS
 62
     3
 10
-538.558197021466
 20
54.1920394897609
 30
0.0
 11
-525.933189392071
 21
54.1920471191557
 31
0.0
  0
LINE
  5
   475
  8
0
  6
CONTINUOUS
 62
     3
 10
-525.93318939209
 20
54.1920471191406
 30
0.0
 11
-525.93318939209
 21
57.8170471191406
 31
0.0
  0
LINE
  5
   476
  8
0
  6
CONTINUOUS
 62
     3
 10
-560.995665550232
 20
54.1920471191406
 30
0.0
 11
-560.995665550232
 21
57.8170471191406
 31
0.0
  0
LINE
  5
   477
  8
0
  6
CONTINUOUS
 62
     3
 10
-540.558197021484
 20
54.1920471191406
 30
0.0
 11
-560.995666503906
 21
54.1920471191406
 31
0.0
  0
LINE
  5
   478
  8
0
  6
CONTINUOUS
 62
     3
 10
-540.558197021484
 20
54.1920471191406
 30
0.0
 11
-540.558197021484
 21
57.8170471191406
 31
0.0
  0
LINE
  5
   479
  8
0
  6
CONTINUOUS
 62
     3
 10
-540.558197021484
 20
57.8170471191406
 30
0.0
 11
-560.995666503906
 21
57.8170471191406
 31
0.0
  0
LINE
  5
   47A
  8
0
  6
CONTINUOUS
 62
     3
 10
-562.995665550232
 20
54.1920471191406
 30
0.0
 11
-587.683157920837
 21
54.1920471191406
 31
0.0
  0
LINE
  5
   47B
  8
0
  6
CONTINUOUS
 62
     3
 10
-562.995665550232
 20
54.1920471191406
 30
0.0
 11
-562.995665550232
 21
57.8170471191406
 31
0.0
  0
LINE
  5
   47C
  8
0
  6
CONTINUOUS
 62
     3
 10
-562.995665550232
 20
57.8170471191406
 30
0.0
 11
-587.683157920837
 21
57.8170471191406
 31
0.0
  0
LINE
  5
   47D
  8
0
  6
CONTINUOUS
 62
     3
 10
-587.683158874512
 20
54.1920471191406
 30
0.0
 11
-587.683158874512
 21
57.8170471191406
 31
0.0
  0
LINE
  5
   47E
  8
0
  6
CONTINUOUS
 62
     3
 10
-582.683159351349
 20
-3.55797386169434
 30
0.0
 11
-582.683159351349
 21
-1.30796241760254
 31
0.0
  0
LINE
  5
   47F
  8
0
  6
CONTINUOUS
 62
     3
 10
-580.683157920837
 20
-3.55797386169434
 30
0.0
 11
-580.683157920837
 21
-1.30796051025391
 31
0.0
  0
LINE
  5
   480
  8
0
  6
CONTINUOUS
 62
     3
 10
-587.682963371278
 20
-3.55799293517624
 30
0.0
 11
-587.682962417604
 21
-1.30797386168992
 31
0.0
  0
LINE
  5
   481
  8
0
  6
CONTINUOUS
 62
   130
 10
-589.683158874608
 20
-5.55799865689747
 30
0.0
 11
-589.68315696726
 21
-5.05796241727345
 31
0.0
  0
LINE
  5
   482
  8
0
  6
CONTINUOUS
 62
   130
 10
-523.933193194564
 20
-5.55803107952025
 30
0.0
 11
-524.933189379866
 21
-5.55801582073119
 31
0.0
  0
LINE
  5
   483
  8
0
  6
CONTINUOUS
 62
   130
 10
-502.183166503906
 20
-5.79853057857385E-2
 30
0.0
 11
-502.1831741333
 21
64.4420375823979
 31
0.0
  0
LINE
  5
   484
  8
0
  6
CONTINUOUS
 62
     3
 10
-538.532165527344
 20
-3.55795860290527
 30
0.0
 11
-538.532165527344
 21
-1.30794143676758
 31
0.0
  0
LINE
  5
   485
  8
0
  6
CONTINUOUS
 62
     3
 10
-540.55880355835
 20
-3.55798149108887
 30
0.0
 11
-540.55880355835
 21
-1.30794334411621
 31
0.0
  0
LINE
  5
   486
  8
0
  6
CONTINUOUS
 62
     3
 10
-551.683158874512
 20
48.1920471191406
 30
0.0
 11
-589.683158874512
 21
48.1920471191406
 31
0.0
  0
LINE
  5
   487
  8
0
  6
CONTINUOUS
 62
     3
 10
-551.683158874512
 20
33.442024230957
 30
0.0
 11
-551.683158874512
 21
48.1920471191406
 31
0.0
  0
LINE
  5
   488
  8
0
  6
CONTINUOUS
 62
     7
 10
-589.683158874512
 20
33.4420356750488
 30
0.0
 11
-589.683158874512
 21
48.1920471191406
 31
0.0
  0
LINE
  5
   489
  8
0
  6
CONTINUOUS
 62
     5
 10
-589.6831407547
 20
0.567043304443359
 30
0.0
 11
-595.183164596558
 21
0.567043304443359
 31
0.0
  0
LINE
  5
   48A
  8
0
  6
CONTINUOUS
 62
     5
 10
-589.683158874512
 20
53.0670700073242
 30
0.0
 11
-595.183164596558
 21
53.0670700073242
 31
0.0
  0
LINE
  5
   48B
  8
0
  6
CONTINUOUS
 62
     5
 10
-597.933309259424
 20
0.816767748350991
 30
0.0
 11
-597.933166208282
 21
0.81779199459389
 31
0.0
  0
LINE
  5
   48C
  8
0
  6
CONTINUOUS
 62
     1
 10
-591.183164596558
 20
9.94208145141602
 30
0.0
 11
-596.183164596558
 21
9.94208145141602
 31
0.0
  0
LINE
  5
   48D
  8
0
  6
CONTINUOUS
 62
     1
 10
-591.183164596558
 20
16.4419822692871
 30
0.0
 11
-596.183164596558
 21
16.4419822692871
 31
0.0
  0
LINE
  5
   48E
  8
0
  6
CONTINUOUS
 62
     1
 10
-597.933164596558
 20
8.94198226928711
 30
0.0
 11
-597.933164596558
 21
17.4419822692871
 31
0.0
  0
LINE
  5
   48F
  8
0
  6
CONTINUOUS
 62
     1
 10
-593.433164596558
 20
-10.1830196380615
 30
0.0
 11
-596.183164596558
 21
-10.1830196380615
 31
0.0
  0
LINE
  5
   490
  8
0
  6
CONTINUOUS
 62
     1
 10
-593.433164596558
 20
-7.18301963806152
 30
0.0
 11
-596.183164596558
 21
-7.18301963806152
 31
0.0
  0
LINE
  5
   491
  8
0
  6
CONTINUOUS
 62
     1
 10
-593.433164596558
 20
-7.29720115661621
 30
0.0
 11
-593.433164596558
 21
-7.18301963806152
 31
0.0
  0
LINE
  5
   492
  8
0
  6
CONTINUOUS
 62
     1
 10
-593.433164596558
 20
-7.62236022949219
 30
0.0
 11
-593.433164596558
 21
-7.29720115661621
 31
0.0
  0
LINE
  5
   493
  8
0
  6
CONTINUOUS
 62
     1
 10
-593.433164596558
 20
-8.10899353027344
 30
0.0
 11
-593.433164596558
 21
-7.62236022949219
 31
0.0
  0
LINE
  5
   494
  8
0
  6
CONTINUOUS
 62
     1
 10
-593.433164596558
 20
-8.68301963806152
 30
0.0
 11
-593.433164596558
 21
-8.10899353027344
 31
0.0
  0
LINE
  5
   495
  8
0
  6
CONTINUOUS
 62
     1
 10
-593.433164596558
 20
-9.25704383850098
 30
0.0
 11
-593.433164596558
 21
-8.68301963806152
 31
0.0
  0
LINE
  5
   496
  8
0
  6
CONTINUOUS
 62
     1
 10
-593.433164596558
 20
-9.74367904663086
 30
0.0
 11
-593.433164596558
 21
-9.25704383850098
 31
0.0
  0
LINE
  5
   497
  8
0
  6
CONTINUOUS
 62
     1
 10
-593.433164596558
 20
-10.0688381195068
 30
0.0
 11
-593.433164596558
 21
-9.74367904663086
 31
0.0
  0
LINE
  5
   498
  8
0
  6
CONTINUOUS
 62
     1
 10
-593.433164596558
 20
-10.1830196380615
 30
0.0
 11
-593.433164596558
 21
-10.0688381195068
 31
0.0
  0
LINE
  5
   499
  8
0
  6
CONTINUOUS
 62
     1
 10
-593.433163997254
 20
-10.1830200510132
 30
0.0
 11
-592.933163980789
 21
-9.89434475875663
 31
0.0
  0
LINE
  5
   49A
  8
0
  6
CONTINUOUS
 62
     1
 10
-592.933163520042
 20
-7.4716958474278
 30
0.0
 11
-593.433163536507
 21
-7.18302055517125
 31
0.0
  0
LINE
  5
   49B
  8
0
  6
CONTINUOUS
 62
     1
 10
-593.433164596558
 20
60.8169784545898
 30
0.0
 11
-596.183164596558
 21
60.8169784545898
 31
0.0
  0
LINE
  5
   49C
  8
0
  6
CONTINUOUS
 62
     1
 10
-593.433164596558
 20
63.8169784545898
 30
0.0
 11
-596.183164596558
 21
63.8169784545898
 31
0.0
  0
LINE
  5
   49D
  8
0
  6
CONTINUOUS
 62
     1
 10
-593.433164596558
 20
63.7027969360352
 30
0.0
 11
-593.433164596558
 21
63.8169784545898
 31
0.0
  0
LINE
  5
   49E
  8
0
  6
CONTINUOUS
 62
     1
 10
-593.433164596558
 20
63.3776397705078
 30
0.0
 11
-593.433164596558
 21
63.7027969360352
 31
0.0
  0
LINE
  5
   49F
  8
0
  6
CONTINUOUS
 62
     1
 10
-593.433164596558
 20
62.8910064697266
 30
0.0
 11
-593.433164596558
 21
63.3776397705078
 31
0.0
  0
LINE
  5
   4A0
  8
0
  6
CONTINUOUS
 62
     1
 10
-593.433164596558
 20
62.3169784545899
 30
0.0
 11
-593.433164596558
 21
62.8910064697266
 31
0.0
  0
LINE
  5
   4A1
  8
0
  6
CONTINUOUS
 62
     1
 10
-593.433164596558
 20
61.7429580688477
 30
0.0
 11
-593.433164596558
 21
62.3169784545899
 31
0.0
  0
LINE
  5
   4A2
  8
0
  6
CONTINUOUS
 62
     1
 10
-593.433164596558
 20
61.2563171386719
 30
0.0
 11
-593.433164596558
 21
61.7429580688477
 31
0.0
  0
LINE
  5
   4A3
  8
0
  6
CONTINUOUS
 62
     1
 10
-593.433164596558
 20
60.9311599731445
 30
0.0
 11
-593.433164596558
 21
61.2563171386719
 31
0.0
  0
LINE
  5
   4A4
  8
0
  6
CONTINUOUS
 62
     1
 10
-593.433164596558
 20
60.8169784545898
 30
0.0
 11
-593.433164596558
 21
60.9311599731445
 31
0.0
  0
LINE
  5
   4A5
  8
0
  6
CONTINUOUS
 62
     1
 10
-593.433164687264
 20
60.8169773820228
 30
0.0
 11
-592.933164670801
 21
61.105650786521
 31
0.0
  0
LINE
  5
   4A6
  8
0
  6
CONTINUOUS
 62
     1
 10
-592.933163861636
 20
63.5283037867969
 30
0.0
 11
-593.433163878099
 21
63.8169771912952
 31
0.0
  0
LINE
  5
   4A7
  8
0
  6
CONTINUOUS
 62
     1
 10
-593.433164596558
 20
25.3169822692871
 30
0.0
 11
-596.183164596558
 21
25.3169822692871
 31
0.0
  0
LINE
  5
   4A8
  8
0
  6
CONTINUOUS
 62
     1
 10
-593.433164596558
 20
28.3169822692871
 30
0.0
 11
-596.183164596558
 21
28.3169822692871
 31
0.0
  0
LINE
  5
   4A9
  8
0
  6
CONTINUOUS
 62
     1
 10
-593.433164596558
 20
28.2028007507324
 30
0.0
 11
-593.433164596558
 21
28.3169822692871
 31
0.0
  0
LINE
  5
   4AA
  8
0
  6
CONTINUOUS
 62
     1
 10
-593.433164596558
 20
27.8776397705078
 30
0.0
 11
-593.433164596558
 21
28.2028007507324
 31
0.0
  0
LINE
  5
   4AB
  8
0
  6
CONTINUOUS
 62
     1
 10
-593.433164596558
 20
27.3910064697266
 30
0.0
 11
-593.433164596558
 21
27.8776397705078
 31
0.0
  0
LINE
  5
   4AC
  8
0
  6
CONTINUOUS
 62
     1
 10
-593.433164596558
 20
26.8169822692871
 30
0.0
 11
-593.433164596558
 21
27.3910064697266
 31
0.0
  0
LINE
  5
   4AD
  8
0
  6
CONTINUOUS
 62
     1
 10
-593.433164596558
 20
26.2429542541504
 30
0.0
 11
-593.433164596558
 21
26.8169822692871
 31
0.0
  0
LINE
  5
   4AE
  8
0
  6
CONTINUOUS
 62
     1
 10
-593.433164596558
 20
25.7563209533691
 30
0.0
 11
-593.433164596558
 21
26.2429542541504
 31
0.0
  0
LINE
  5
   4AF
  8
0
  6
CONTINUOUS
 62
     1
 10
-593.433164596558
 20
25.4311599731445
 30
0.0
 11
-593.433164596558
 21
25.7563209533691
 31
0.0
  0
LINE
  5
   4B0
  8
0
  6
CONTINUOUS
 62
     1
 10
-593.433164596558
 20
25.3169822692871
 30
0.0
 11
-593.433164596558
 21
25.4311599731445
 31
0.0
  0
LINE
  5
   4B1
  8
0
  6
CONTINUOUS
 62
     1
 10
-593.433164528549
 20
25.3169816548917
 30
0.0
 11
-592.933164512086
 21
25.6056550593899
 31
0.0
  0
LINE
  5
   4B2
  8
0
  6
CONTINUOUS
 62
     1
 10
-592.933163796758
 20
28.0283039281166
 30
0.0
 11
-593.433163813221
 21
28.316981142549
 31
0.0
  0
LINE
  5
   4B3
  8
0
  6
CONTINUOUS
 62
     3
 10
-586.183099746705
 20
-3.55796623229498
 30
0.0
 11
-586.183100700379
 21
-1.30796432494635
 31
0.0
  0
LINE
  5
   4B4
  8
0
  6
CONTINUOUS
 62
     3
 10
-525.93318939209
 20
54.9420471191406
 30
0.0
 11
-538.55818939209
 21
54.9420471191406
 31
0.0
  0
LINE
  5
   4B5
  8
0
  6
CONTINUOUS
 62
     3
 10
-540.558193206787
 20
54.9420471191406
 30
0.0
 11
-560.99566078186
 21
54.9420471191406
 31
0.0
  0
LINE
  5
   4B6
  8
0
  6
CONTINUOUS
 62
     3
 10
-562.99566078186
 20
54.9420471191406
 30
0.0
 11
-586.183158874512
 21
54.9420471191406
 31
0.0
  0
LINE
  5
   4B7
  8
0
  6
CONTINUOUS
 62
     3
 10
-586.55815707332
 20
54.5670551591864
 30
0.0
 11
-586.183157065082
 21
54.9420551674241
 31
0.0
  0
LINE
  5
   4B8
  8
0
  6
CONTINUOUS
 62
     3
 10
-586.183158874512
 20
54.9420471191406
 30
0.0
 11
-586.183158874512
 21
57.8170471191406
 31
0.0
  0
CIRCLE
  5
   4B9
  8
0
  6
CONTINUOUS
 62
   130
 10
-583.683197391359
 20
25.9420169801292
 30
0.0
 40
1.37500059567855
  0
CIRCLE
  5
   4BA
  8
0
  6
CONTINUOUS
 62
   130
 10
-583.683199289794
 20
25.9420151854995
 30
0.0
 40
4.99999986407101
  0
CIRCLE
  5
   4BB
  8
0
  6
CONTINUOUS
 62
   130
 10
-512.43318242911
 20
52.9420067438919
 30
0.0
 40
3.0000302339575
  0
CIRCLE
  5
   4BC
  8
0
  6
CONTINUOUS
 62
   130
 10
-512.433174454009
 20
52.9420556506179
 30
0.0
 40
1.6250002059247
  0
CIRCLE
  5
   4BD
  8
0
  6
CONTINUOUS
 62
   130
 10
-512.433179660914
 20
2.94202715177288
 30
0.0
 40
3.00000374068708
  0
CIRCLE
  5
   4BE
  8
0
  6
CONTINUOUS
 62
   130
 10
-512.433193356401
 20
2.94203701125049
 30
0.0
 40
1.62499836700228
  0
LINE
  5
   4BF
  8
0
  6
DASHDOT
 62
     7
 10
-512.433179660914
 20
-1.55797658891419
 30
0.0
 11
-512.433179660914
 21
7.44203089245996
 31
0.0
  0
LINE
  5
   4C0
  8
0
  6
DASHDOT
 62
     7
 10
-507.933175920227
 20
2.94202715177288
 30
0.0
 11
-516.933183401601
 21
2.94202715177288
 31
0.0
  0
LINE
  5
   4C1
  8
0
  6
DASHDOT
 62
     7
 10
-512.43318242911
 20
48.4419765099344
 30
0.0
 11
-512.43318242911
 21
57.4420369778494
 31
0.0
  0
LINE
  5
   4C2
  8
0
  6
DASHDOT
 62
     7
 10
-507.933152195153
 20
52.9420067438919
 30
0.0
 11
-516.933212663068
 21
52.9420067438919
 31
0.0
  0
LINE
  5
   4C3
  8
0
  6
CONTINUOUS
 62
     7
 10
-524.933197021484
 20
-14.5579528808594
 30
0.0
 11
-524.933197021484
 21
-7.93296813964844
 31
0.0
  0
LINE
  5
   4C4
  8
0
  6
CONTINUOUS
 62
     7
 10
-596.183164596558
 20
67.0669784545898
 30
0.0
 11
-596.183164596558
 21
93.576491767828
 31
0.0
  0
LINE
  5
   4C5
  8
0
  6
CONTINUOUS
 62
     7
 10
-595.183164596558
 20
57.8169784545898
 30
0.0
 11
-595.183164596558
 21
60.8169784545898
 31
0.0
  0
LINE
  5
   4C6
  8
0
  6
CONTINUOUS
 62
     7
 10
-596.183164596558
 20
-38.8427925524959
 30
0.0
 11
-596.183164596558
 21
-13.4330196380615
 31
0.0
  0
LINE
  5
   4C7
  8
0
  6
CONTINUOUS
 62
     7
 10
-595.183164596558
 20
-38.5395138639713
 30
0.0
 11
-595.183164596558
 21
-10.1830196380615
 31
0.0
  0
LINE
  5
   4C8
  8
0
  6
CONTINUOUS
 62
     3
 10
-599.897727228665
 20
-39.9693402360039
 30
0.0
 11
-590.162493035322
 21
-37.016851177367
 31
0.0
  0
LINE
  5
   4C9
  8
0
  6
CONTINUOUS
 62
     3
 10
-600.775494246098
 20
93.4512464137496
 30
0.0
 11
-591.997824071772
 21
93.690637418504
 31
0.0
  0
LINE
  5
   4CA
  8
0
  6
CONTINUOUS
 62
     7
 10
-595.183164596558
 20
-6.93301963806152
 30
0.0
 11
-596.183164596558
 21
-6.93301963806152
 31
0.0
  0
LINE
  5
   4CB
  8
0
  6
CONTINUOUS
 62
     7
 10
-595.183164596558
 20
-10.4330196380615
 30
0.0
 11
-596.183164596558
 21
-10.4330196380615
 31
0.0
  0
LINE
  5
   4CC
  8
0
  6
CONTINUOUS
 62
     7
 10
-595.183164596558
 20
60.5669784545898
 30
0.0
 11
-596.183164596558
 21
60.5669784545898
 31
0.0
  0
LINE
  5
   4CD
  8
0
  6
CONTINUOUS
 62
     7
 10
-595.183164596558
 20
64.0669784545898
 30
0.0
 11
-596.183164596558
 21
64.0669784545898
 31
0.0
  0
LINE
  5
   4CE
  8
0
  6
CONTINUOUS
 62
     7
 10
-595.183164596558
 20
63.8169784545898
 30
0.0
 11
-595.183164596558
 21
93.6037644951007
 31
0.0
  0
LINE
  5
   4CF
  8
0
  6
CONTINUOUS
 62
     7
 10
-595.183164596558
 20
-7.18301963806152
 30
0.0
 11
-595.183164596558
 21
-4.18301963806152
 31
0.0
  0
LINE
  5
   4D0
  8
0
  6
CONTINUOUS
 62
     7
 10
-595.183164596558
 20
-4.68301963806152
 30
0.0
 11
-596.183164596558
 21
-4.68301963806152
 31
0.0
  0
LINE
  5
   4D1
  8
0
  6
CONTINUOUS
 62
     7
 10
-595.183164596558
 20
58.3169784545898
 30
0.0
 11
-596.183164596558
 21
58.3169784545898
 31
0.0
  0
INSERT
  5
   4D2
  8
0
  6
CONTINUOUS
 62
     7
  2
*HATCH75
 10
-576.433166503906
 20
-28.1764831542969
 30
0.0
 41
0.5
 42
0.5
 50
89.9999999480344
 43
0.5
  0
INSERT
  5
   4D3
  8
0
  6
CONTINUOUS
 62
     7
  2
*HATCH76
 10
-576.433166503906
 20
-28.1764831542969
 30
0.0
 41
0.5
 42
0.5
 50
89.9999999480344
 43
0.5
  0
INSERT
  5
   4D4
  8
0
  6
CONTINUOUS
 62
     7
  2
*HATCH77
 10
-576.433166503906
 20
-28.1764831542969
 30
0.0
 41
0.5
 42
0.5
 50
89.9999999480344
 43
0.5
  0
INSERT
  5
   4D5
  8
0
  6
CONTINUOUS
 62
     7
  2
*HATCH78
 10
-576.433166503906
 20
-28.1764831542969
 30
0.0
 41
0.5
 42
0.5
 50
89.9999999480344
 43
0.5
  0
LINE
  5
   4D6
  8
0
  6
DASHDOT
 62
     7
 10
-583.683199289794
 20
19.4420153214284
 30
0.0
 11
-583.683199289794
 21
32.4420150495705
 31
0.0
  0
LINE
  5
   4D7
  8
0
  6
DASHDOT
 62
     7
 10
-577.183199425723
 20
25.9420151854995
 30
0.0
 11
-590.183199153865
 21
25.9420151854995
 31
0.0
  0
LINE
  5
   4D8
  8
0
  6
DASHDOT
 62
     7
 10
-493.550240568131
 20
26.8170700073242
 30
0.0
 11
-625.417762758862
 21
26.8170700073242
 31
0.0
  0
LINE
  5
   4D9
  8
0
  6
CONTINUOUS
 62
     7
 10
-525.933197021484
 20
71.6920547597548
 30
0.0
 11
-575.183197022081
 21
71.6920547597548
 31
0.0
  0
LINE
  5
   4DA
  8
0
  6
CONTINUOUS
 62
     7
 10
-575.683197022081
 20
64.4420394897461
 30
0.0
 11
-575.683197022081
 21
71.1920547597548
 31
0.0
  0
LINE
  5
   4DB
  8
0
  6
CONTINUOUS
 62
     7
 10
-525.933197021484
 20
-15.8079376108506
 30
0.0
 11
-575.183197022081
 21
-15.8079376108506
 31
0.0
  0
LINE
  5
   4DC
  8
0
  6
CONTINUOUS
 62
     7
 10
-575.683197022081
 20
-15.3079376108506
 30
0.0
 11
-575.683197022081
 21
-5.55797122013812
 31
0.0
  0
ARC
  5
   4DD
  8
0
  6
CONTINUOUS
 62
     7
 10
-575.183197022081
 20
-15.3079376108506
 30
0.0
 40
0.5
 50
179.999999948034
 51
269.999999948034
  0
ARC
  5
   4DE
  8
0
  6
CONTINUOUS
 62
     7
 10
-575.183197022081
 20
71.1920547597548
 30
0.0
 40
0.5
 50
89.9999999480344
 51
179.999999948034
  0
LINE
  5
   4DF
  8
0
  6
CONTINUOUS
 62
     7
 10
-590.433165550232
 20
53.8170700073242
 30
0.0
 11
-591.683168411255
 21
53.8170700073242
 31
0.0
  0
LINE
  5
   4E0
  8
0
  6
CONTINUOUS
 62
     7
 10
-590.433165550232
 20
53.8170700073242
 30
0.0
 11
-590.433165550232
 21
59.0670700073242
 31
0.0
  0
LINE
  5
   4E1
  8
0
  6
CONTINUOUS
 62
     7
 10
-592.183168411255
 20
60.8170700073242
 30
0.0
 11
-593.433168411255
 21
60.8170700073242
 31
0.0
  0
LINE
  5
   4E2
  8
0
  6
CONTINUOUS
 62
     7
 10
-593.933168411255
 20
63.8169784545898
 30
0.0
 11
-593.933168411255
 21
65.3170700073242
 31
0.0
  0
LINE
  5
   4E3
  8
0
  6
CONTINUOUS
 62
     7
 10
-593.933168411255
 20
65.3170700073242
 30
0.0
 11
-595.183164596558
 21
65.3170700073242
 31
0.0
  0
LINE
  5
   4E4
  8
0
  6
CONTINUOUS
 62
     7
 10
-592.183168411255
 20
59.5670700073242
 30
0.0
 11
-593.433168411255
 21
59.5670700073242
 31
0.0
  0
LINE
  5
   4E5
  8
0
  6
CONTINUOUS
 62
     7
 10
-591.683168411255
 20
53.8170700073242
 30
0.0
 11
-591.683168411255
 21
59.0670700073242
 31
0.0
  0
ARC
  5
   4E6
  8
0
  6
CONTINUOUS
 62
     7
 10
-592.183175738008
 20
59.067063664172
 30
0.0
 40
1.75000922655776
 50
360.000319242658
 51
449.999813057862
  0
ARC
  5
   4E7
  8
0
  6
CONTINUOUS
 62
     7
 10
-592.18314628718
 20
59.0670904547154
 30
0.0
 40
0.499974910621752
 50
359.998830132094
 51
450.002235749312
  0
ARC
  5
   4E8
  8
0
  6
CONTINUOUS
 62
     7
 10
-593.433178087446
 20
61.3170539838571
 30
0.0
 40
1.74998552797211
 50
196.604271282219
 51
270.000346548696
  0
LINE
  5
   4E9
  8
0
  6
CONTINUOUS
 62
     7
 10
-590.433165550232
 20
58.3170700073242
 30
0.0
 11
-591.683168411255
 21
58.3170700073242
 31
0.0
  0
INSERT
  5
   4EA
  8
0
  6
CONTINUOUS
 62
     7
  2
*HATCH79
 10
-576.433166503906
 20
-28.1764831542969
 30
0.0
 41
0.5
 42
0.5
 50
89.9999999480344
 43
0.5
  0
LINE
  5
   4EB
  8
0
  6
CONTINUOUS
 62
     7
 10
-593.433164596558
 20
53.0670700073242
 30
0.0
 11
-593.433164596558
 21
56.5670700073242
 31
0.0
  0
LINE
  5
   4EC
  8
0
  6
CONTINUOUS
 62
     7
 10
-592.433164596558
 20
53.0670700073242
 30
0.0
 11
-592.433164596558
 21
56.5670700073242
 31
0.0
  0
LINE
  5
   4ED
  8
0
  6
CONTINUOUS
 62
     7
 10
-592.433164596558
 20
56.5670700073242
 30
0.0
 11
-593.433164596558
 21
56.5670700073242
 31
0.0
  0
LINE
  5
   4EE
  8
0
  6
DOT
 62
     7
 10
-611.683164596558
 20
0.567043304443359
 30
0.0
 11
-611.683164596558
 21
53.0670700073242
 31
0.0
  0
LINE
  5
   4EF
  8
0
  6
DOT
 62
     7
 10
-605.877943909341
 20
53.0670700073242
 30
0.0
 11
-611.683164596558
 21
53.0670700073242
 31
0.0
  0
LINE
  5
   4F0
  8
0
  6
DOT
 62
     7
 10
-605.3769229132
 20
0.567043304443359
 30
0.0
 11
-611.683164596558
 21
0.567043304443359
 31
0.0
  0
LINE
  5
   4F1
  8
0
  6
CONTINUOUS
 62
     7
 10
-497.083174133301
 20
50.9920547597548
 30
0.0
 11
-497.083174133301
 21
54.8920547597548
 31
0.0
  0
LINE
  5
   4F2
  8
0
  6
CONTINUOUS
 62
     7
 10
-495.483174133301
 20
51.9420547597548
 30
0.0
 11
-495.483174133301
 21
53.9420547597548
 31
0.0
  0
LINE
  5
   4F3
  8
0
  6
CONTINUOUS
 62
     7
 10
-497.083174133301
 20
54.8920547597548
 30
0.0
 11
-498.683174133301
 21
54.8920547597548
 31
0.0
  0
LINE
  5
   4F4
  8
0
  6
CONTINUOUS
 62
     7
 10
-497.083174133301
 20
50.9920547597548
 30
0.0
 11
-498.683174133301
 21
50.9920547597548
 31
0.0
  0
LINE
  5
   4F5
  8
0
  6
CONTINUOUS
 62
     7
 10
-495.483174133301
 20
53.9420547597548
 30
0.0
 11
-498.683174133301
 21
53.9420547597548
 31
0.0
  0
LINE
  5
   4F6
  8
0
  6
CONTINUOUS
 62
     7
 10
-495.483174133301
 20
51.9420547597548
 30
0.0
 11
-498.683174133301
 21
51.9420547597548
 31
0.0
  0
LINE
  5
   4F7
  8
0
  6
CONTINUOUS
 62
     7
 10
-497.083174133301
 20
4.89205475975484
 30
0.0
 11
-498.683174133301
 21
4.89205475975484
 31
0.0
  0
LINE
  5
   4F8
  8
0
  6
CONTINUOUS
 62
     7
 10
-495.483174133301
 20
3.94205475975484
 30
0.0
 11
-498.683174133301
 21
3.94205475975484
 31
0.0
  0
LINE
  5
   4F9
  8
0
  6
CONTINUOUS
 62
     7
 10
-495.483174133301
 20
1.94205475975484
 30
0.0
 11
-498.683174133301
 21
1.94205475975484
 31
0.0
  0
LINE
  5
   4FA
  8
0
  6
CONTINUOUS
 62
     7
 10
-497.083174133301
 20
0.992054759754836
 30
0.0
 11
-498.683174133301
 21
0.992054759754836
 31
0.0
  0
LINE
  5
   4FB
  8
0
  6
CONTINUOUS
 62
     7
 10
-497.083174133301
 20
0.992054759754836
 30
0.0
 11
-497.083174133301
 21
4.89205475975484
 31
0.0
  0
LINE
  5
   4FC
  8
0
  6
CONTINUOUS
 62
     7
 10
-495.483174133301
 20
1.94205475975484
 30
0.0
 11
-495.483174133301
 21
3.94205475975484
 31
0.0
  0
TEXT
  5
   4FD
  8
0
  6
CONTINUOUS
 62
     7
 10
-596.212876218669
 20
115.770690937163
 30
0.0
 40
3.00000002980232
  1
ISOLATING DISTANCE
 50
359.999999948034
 41
0.916666689183977
 72
     1
 11
-571.737875372171
 21
117.270690929989
 31
0.0
 73
     2
  0
INSERT
  5
   4FE
  8
0
  6
CONTINUOUS
 62
     7
  2
*UDIM448
 10
0.0
 20
0.0
 30
0.0
  0
INSERT
  5
   4FF
  8
0
  6
CONTINUOUS
 62
     7
  2
*UDIM449
 10
0.0
 20
0.0
 30
0.0
  0
INSERT
  5
   500
  8
0
  6
CONTINUOUS
 62
     7
  2
*UDIM450
 10
0.0
 20
0.0
 30
0.0
  0
TEXT
  5
   501
  8
0
  6
CONTINUOUS
 62
     7
 10
-616.327812209519
 20
10.969118131332
 30
0.0
 40
3.00000002980232
  1
=          =
 50
89.9999999480344
 41
0.916666604744064
 72
     2
 11
-616.327812180129
 21
43.4191162572626
 31
0.0
  0
INSERT
  5
   502
  8
0
  6
CONTINUOUS
 62
     7
  2
*UDIM451
 10
0.0
 20
0.0
 30
0.0
  0
INSERT
  5
   503
  8
0
  6
CONTINUOUS
 62
     7
  2
*UDIM452
 10
0.0
 20
0.0
 30
0.0
  0
INSERT
  5
   504
  8
0
  6
CONTINUOUS
 62
     7
  2
*UDIM453
 10
0.0
 20
0.0
 30
0.0
  0
INSERT
  5
   505
  8
0
  6
CONTINUOUS
 62
     7
  2
*UDIM454
 10
0.0
 20
0.0
 30
0.0
  0
INSERT
  5
   506
  8
0
  6
CONTINUOUS
 62
     7
  2
*UDIM455
 10
0.0
 20
0.0
 30
0.0
  0
INSERT
  5
   507
  8
0
  6
CONTINUOUS
 62
     7
  2
*UDIM456
 10
0.0
 20
0.0
 30
0.0
  0
INSERT
  5
   508
  8
0
  6
CONTINUOUS
 62
     7
  2
*UDIM457
 10
0.0
 20
0.0
 30
0.0
  0
INSERT
  5
   509
  8
0
  6
CONTINUOUS
 62
     7
  2
*UDIM458
 10
0.0
 20
0.0
 30
0.0
  0
TEXT
  5
   50A
  8
0
  6
CONTINUOUS
 62
     7
 10
-629.855375702541
 20
25.9384852602093
 30
0.0
 40
3.00000002980232
  1
X
 50
359.999999948034
 41
0.916666604744064
 72
     2
 11
-627.655375833671
 21
25.938485258225
 31
0.0
  0
TEXT
  5
   50B
  8
0
  6
CONTINUOUS
 62
     7
 10
-487.851713593166
 20
26.1532107545941
 30
0.0
 40
3.00000002980232
  1
X
 50
359.999999948034
 41
0.916666604744064
 72
     2
 11
-485.651713724296
 21
26.1532107526098
 31
0.0
  0
LINE
  5
   50C
  8
0
  6
CONTINUOUS
 62
     7
 10
-317.237457275391
 20
-0.732448577880859
 30
0.0
 11
-283.487457275391
 21
-0.732448577880859
 31
0.0
  0
LINE
  5
   50D
  8
0
  6
CONTINUOUS
 62
     7
 10
-317.237457275391
 20
30.7675514221191
 30
0.0
 11
-283.487457275391
 21
30.7675514221191
 31
0.0
  0
LINE
  5
   50E
  8
0
  6
CONTINUOUS
 62
     7
 10
-283.487457275391
 20
30.7675514221191
 30
0.0
 11
-283.487457275391
 21
10.2050514221191
 31
0.0
  0
LINE
  5
   50F
  8
0
  6
CONTINUOUS
 62
     7
 10
-317.237457275391
 20
30.7675514221191
 30
0.0
 11
-317.237457275391
 21
-0.732448577880859
 31
0.0
  0
LINE
  5
   510
  8
0
  6
DASHDOT
 62
     7
 10
-287.962443821986
 20
8.20505142211914
 30
0.0
 11
-273.982150875949
 21
8.20505142211914
 31
0.0
  0
LINE
  5
   511
  8
0
  6
CONTINUOUS
 62
     7
 10
-283.487457275391
 20
10.2050514221191
 30
0.0
 11
-277.737457275391
 21
10.2050514221191
 31
0.0
  0
LINE
  5
   512
  8
0
  6
CONTINUOUS
 62
     7
 10
-283.487457275391
 20
6.20505142211914
 30
0.0
 11
-277.737457275391
 21
6.20505142211914
 31
0.0
  0
ARC
  5
   513
  8
0
  6
CONTINUOUS
 62
     7
 10
-277.737457275391
 20
8.20505142211914
 30
0.0
 40
2.0
 50
269.999999844103
 51
449.999999844103
  0
LINE
  5
   514
  8
0
  6
CONTINUOUS
 62
     7
 10
-283.487457275391
 20
6.20505142211914
 30
0.0
 11
-283.487457275391
 21
-0.732448577880859
 31
0.0
  0
LINE
  5
   515
  8
0
  6
DASHDOT
 62
     7
 10
-299.237457275391
 20
40.6450425829742
 30
0.0
 11
-299.237457275391
 21
-8.12762989543228
 31
0.0
  0
CIRCLE
  5
   516
  8
0
  6
CONTINUOUS
 62
     7
 10
-310.237457275391
 20
32.7675514221191
 30
0.0
 40
0.875
  0
CIRCLE
  5
   517
  8
0
  6
CONTINUOUS
 62
     7
 10
-278.987457275391
 20
32.7675514221191
 30
0.0
 40
1.0
  0
CIRCLE
  5
   518
  8
0
  6
CONTINUOUS
 62
     7
 10
-278.987457275391
 20
15.0175514221191
 30
0.0
 40
0.875
  0
CIRCLE
  5
   519
  8
0
  6
CONTINUOUS
 62
     7
 10
-278.987457275391
 20
-2.73244857788086
 30
0.0
 40
0.875
  0
CIRCLE
  5
   51A
  8
0
  6
CONTINUOUS
 62
     7
 10
-310.237457275391
 20
-2.73244857788086
 30
0.0
 40
1.0
  0
LINE
  5
   51B
  8
0
  6
DASHDOT
 62
     7
 10
-310.237457275391
 20
34.3925514221191
 30
0.0
 11
-310.237457275391
 21
31.1425514221191
 31
0.0
  0
LINE
  5
   51C
  8
0
  6
DASHDOT
 62
     7
 10
-311.862457275391
 20
32.7675514221191
 30
0.0
 11
-308.612457275391
 21
32.7675514221191
 31
0.0
  0
LINE
  5
   51D
  8
0
  6
DASHDOT
 62
     7
 10
-278.987457275391
 20
34.3925514221191
 30
0.0
 11
-278.987457275391
 21
31.1425514221191
 31
0.0
  0
LINE
  5
   51E
  8
0
  6
DASHDOT
 62
     7
 10
-280.612457275391
 20
32.7675514221191
 30
0.0
 11
-277.362457275391
 21
32.7675514221191
 31
0.0
  0
LINE
  5
   51F
  8
0
  6
DASHDOT
 62
     7
 10
-278.987457275391
 20
16.6425514221191
 30
0.0
 11
-278.987457275391
 21
13.3925514221191
 31
0.0
  0
LINE
  5
   520
  8
0
  6
DASHDOT
 62
     7
 10
-280.612457275391
 20
15.0175514221191
 30
0.0
 11
-277.362457275391
 21
15.0175514221191
 31
0.0
  0
LINE
  5
   521
  8
0
  6
DASHDOT
 62
     7
 10
-278.987457275391
 20
-1.10744857788086
 30
0.0
 11
-278.987457275391
 21
-4.35744857788086
 31
0.0
  0
LINE
  5
   522
  8
0
  6
DASHDOT
 62
     7
 10
-280.612457275391
 20
-2.73244857788086
 30
0.0
 11
-277.362457275391
 21
-2.73244857788086
 31
0.0
  0
LINE
  5
   523
  8
0
  6
DASHDOT
 62
     7
 10
-310.237457275391
 20
-1.10744857788086
 30
0.0
 11
-310.237457275391
 21
-4.35744857788086
 31
0.0
  0
LINE
  5
   524
  8
0
  6
DASHDOT
 62
     7
 10
-311.862457275391
 20
-2.73244857788086
 30
0.0
 11
-308.612457275391
 21
-2.73244857788086
 31
0.0
  0
LINE
  5
   525
  8
0
  6
CONTINUOUS
 62
     7
 10
-323.162016352784
 20
35.7675514221191
 30
0.0
 11
-273.574957877521
 21
35.7675514221191
 31
0.0
  0
LINE
  5
   526
  8
0
  6
CONTINUOUS
 62
     7
 10
-323.795427683672
 20
-5.73244857788086
 30
0.0
 11
-273.1225212126
 21
-5.73244857788086
 31
0.0
  0
LINE
  5
   527
  8
0
  6
CONTINUOUS
 62
     7
 10
-273.987457275391
 20
36.5975964697159
 30
0.0
 11
-273.987457275391
 21
-6.65534869666314
 31
0.0
  0
LINE
  5
   528
  8
0
  6
CONTINUOUS
 62
     7
 10
-322.237457275391
 20
36.5975964697159
 30
0.0
 11
-322.237457275391
 21
-7.24351636105951
 31
0.0
  0
POINT
  5
   529
  8
0
  6
CONTINUOUS
 62
     7
 10
-275.737457275391
 20
8.08005142211914
 30
0.0
  0
LINE
  5
   52A
  8
0
  6
DASHDOT
 62
     7
 10
-326.698182038534
 20
15.0175514221191
 30
0.0
 11
-271.244728975254
 21
15.0175514221191
 31
0.0
  0
CIRCLE
  5
   52B
  8
0
  6
CONTINUOUS
 62
     7
 10
-293.612457275391
 20
33.1425514221191
 30
0.0
 40
0.5
  0
CIRCLE
  5
   52C
  8
0
  6
CONTINUOUS
 62
     7
 10
-304.862457275391
 20
33.1425514221191
 30
0.0
 40
0.5
  0
CIRCLE
  5
   52D
  8
0
  6
CONTINUOUS
 62
     7
 10
-293.612457275391
 20
33.1425514221191
 30
0.0
 40
0.92
  0
CIRCLE
  5
   52E
  8
0
  6
CONTINUOUS
 62
     7
 10
-304.862457275391
 20
33.1425514221191
 30
0.0
 40
0.92
  0
LINE
  5
   52F
  8
0
  6
DASHDOT
 62
     7
 10
-293.612457275391
 20
34.8125514221191
 30
0.0
 11
-293.612457275391
 21
31.4725514221191
 31
0.0
  0
LINE
  5
   530
  8
0
  6
DASHDOT
 62
     7
 10
-295.282457275391
 20
33.1425514221191
 30
0.0
 11
-291.942457275391
 21
33.1425514221191
 31
0.0
  0
LINE
  5
   531
  8
0
  6
DASHDOT
 62
     7
 10
-304.862457275391
 20
34.8125514221191
 30
0.0
 11
-304.862457275391
 21
31.4725514221191
 31
0.0
  0
LINE
  5
   532
  8
0
  6
DASHDOT
 62
     7
 10
-306.532457275391
 20
33.1425514221191
 30
0.0
 11
-303.192457275391
 21
33.1425514221191
 31
0.0
  0
LINE
  5
   533
  8
0
  6
CONTINUOUS
 62
     7
 10
-272.82935950975
 20
31.3004421356715
 30
0.0
 11
-272.82935950975
 21
24.7155947578112
 31
0.0
  0
LINE
  5
   534
  8
0
  6
CONTINUOUS
 62
     7
 10
-270.181105673002
 20
31.3004421356715
 30
0.0
 11
-270.181105673002
 21
24.7155947578112
 31
0.0
  0
LINE
  5
   535
  8
0
  6
CONTINUOUS
 62
     7
 10
-272.82935950975
 20
31.3004421356715
 30
0.0
 11
-270.181105673002
 21
31.3004421356715
 31
0.0
  0
LINE
  5
   536
  8
0
  6
CONTINUOUS
 62
     7
 10
-272.82935950975
 20
24.7155947578112
 30
0.0
 11
-270.181105673002
 21
24.7155947578112
 31
0.0
  0
LINE
  5
   537
  8
0
  6
CONTINUOUS
 62
     7
 10
-270.181105673002
 20
5.31950808642708
 30
0.0
 11
-270.181105673002
 21
-1.26533929143324
 31
0.0
  0
LINE
  5
   538
  8
0
  6
CONTINUOUS
 62
     7
 10
-272.82935950975
 20
-1.26533929143324
 30
0.0
 11
-270.181105673002
 21
-1.26533929143324
 31
0.0
  0
LINE
  5
   539
  8
0
  6
CONTINUOUS
 62
     7
 10
-272.82935950975
 20
5.31950808642708
 30
0.0
 11
-272.82935950975
 21
-1.26533929143324
 31
0.0
  0
LINE
  5
   53A
  8
0
  6
CONTINUOUS
 62
     7
 10
-272.82935950975
 20
5.31950808642708
 30
0.0
 11
-270.181105673002
 21
5.31950808642708
 31
0.0
  0
LINE
  5
   53B
  8
0
  6
DASHDOT
 62
     7
 10
-271.505232591376
 20
34.9507379647028
 30
0.0
 11
-271.505232591376
 21
-22.3088044514741
 31
0.0
  0
INSERT
  5
   53C
  8
0
  6
CONTINUOUS
 62
     7
  2
*UDIM459
 10
0.0
 20
0.0
 30
0.0
  0
INSERT
  5
   53D
  8
0
  6
CONTINUOUS
 62
     7
  2
*UDIM460
 10
0.0
 20
0.0
 30
0.0
  0
INSERT
  5
   53E
  8
0
  6
CONTINUOUS
 62
     7
  2
*UDIM461
 10
0.0
 20
0.0
 30
0.0
  0
TEXT
  5
   53F
  8
0
  6
CONTINUOUS
 62
     1
 10
-375.308714345578
 20
-138.263469712639
 30
0.0
 40
2.00000008940697
  1
M4504 98-11-17
 50
359.999999844103
 41
0.749999861419206
 72
     1
 11
-364.958715796471
 21
-137.263469696045
 31
0.0
 73
     2
  0
TEXT
  5
   540
  8
0
  6
CONTINUOUS
 62
     1
 10
-413.284622195099
 20
-131.49277121609
 30
0.0
 40
2.00000008940697
  1
SCARPELLINI
 50
359.999999844103
 41
0.749999861419206
 72
     2
 11
-397.084624471996
 21
-131.492771260087
 31
0.0
  0
TEXT
  5
   541
  8
0
  6
CONTINUOUS
 62
     1
 10
-400.898710578416
 20
-138.263469712391
 30
0.0
 40
2.00000008940697
  1
M 3076 95-01-16
 50
359.999999844103
 41
0.749999861419206
 72
     1
 11
-389.798712134361
 21
-137.263469697834
 31
0.0
 73
     2
  0
INSERT
  5
   542
  8
0
  6
CONTINUOUS
 62
     7
  2
*UDIM462
 10
0.0
 20
0.0
 30
0.0
  0
INSERT
  5
   543
  8
0
  6
CONTINUOUS
 62
     7
  2
*UDIM463
 10
0.0
 20
0.0
 30
0.0
  0
INSERT
  5
   544
  8
0
  6
CONTINUOUS
 62
     7
  2
*UDIM464
 10
0.0
 20
0.0
 30
0.0
  0
TEXT
  5
   545
  8
0
  6
CONTINUOUS
 62
     7
 10
-324.758585867064
 20
5.82708579789109
 30
0.0
 40
3.00000002980232
  1
=     =
 50
449.999999844103
 41
0.916666604744064
 72
     2
 11
-324.7585858163
 21
24.5270847160668
 31
0.0
  0
INSERT
  5
   546
  8
0
  6
CONTINUOUS
 62
     7
  2
*UDIM465
 10
0.0
 20
0.0
 30
0.0
  0
INSERT
  5
   547
  8
0
  6
CONTINUOUS
 62
     7
  2
*UDIM466
 10
0.0
 20
0.0
 30
0.0
  0
INSERT
  5
   548
  8
0
  6
CONTINUOUS
 62
     7
  2
*UDIM467
 10
0.0
 20
0.0
 30
0.0
  0
INSERT
  5
   549
  8
0
  6
CONTINUOUS
 62
     7
  2
*UDIM468
 10
0.0
 20
0.0
 30
0.0
  0
INSERT
  5
   54A
  8
0
  6
CONTINUOUS
 62
     7
  2
*UDIM469
 10
0.0
 20
0.0
 30
0.0
  0
INSERT
  5
   54B
  8
0
  6
CONTINUOUS
 62
     7
  2
*UDIM470
 10
0.0
 20
0.0
 30
0.0
  0
INSERT
  5
   54C
  8
0
  6
CONTINUOUS
 62
     7
  2
*UDIM471
 10
0.0
 20
0.0
 30
0.0
  0
INSERT
  5
   54D
  8
0
  6
CONTINUOUS
 62
     7
  2
*UDIM472
 10
0.0
 20
0.0
 30
0.0
  0
INSERT
  5
   54E
  8
0
  6
CONTINUOUS
 62
     7
  2
*UDIM473
 10
0.0
 20
0.0
 30
0.0
  0
INSERT
  5
   54F
  8
0
  6
CONTINUOUS
 62
     7
  2
*UDIM474
 10
0.0
 20
0.0
 30
0.0
  0
INSERT
  5
   550
  8
0
  6
CONTINUOUS
 62
     7
  2
*UDIM475
 10
0.0
 20
0.0
 30
0.0
  0
TEXT
  5
   551
  8
0
  6
CONTINUOUS
 62
     7
 10
-299.914664874576
 20
-32.7586708760211
 30
0.0
 40
3.00000002980232
  1
Y
 50
359.999999844103
 41
0.916666604744064
 72
     2
 11
-297.714665005707
 21
-32.758670881996
 31
0.0
  0
TEXT
  5
   552
  8
0
  6
CONTINUOUS
 62
     7
 10
-300.535846362614
 20
66.1575278544477
 30
0.0
 40
3.00000002980232
  1
Y
 50
359.999999844103
 41
0.916666604744064
 72
     2
 11
-298.335846493744
 21
66.1575278484727
 31
0.0
  0
TEXT
  5
   553
  8
0
  6
CONTINUOUS
 62
     7
 10
-246.735599408649
 20
14.3132286572507
 30
0.0
 40
3.00000002980232
  1
X
 50
359.999999844103
 41
0.916666604744064
 72
     2
 11
-244.53559953978
 21
14.3132286512758
 31
0.0
  0
TEXT
  5
   554
  8
0
  6
CONTINUOUS
 62
     7
 10
-342.842136273884
 20
14.0662892365506
 30
0.0
 40
3.00000002980232
  1
X
 50
359.999999844103
 41
0.916666604744064
 72
     2
 11
-340.642136405014
 21
14.0662892305757
 31
0.0
  0
TEXT
  5
   555
  8
0
  6
CONTINUOUS
 62
     1
 10
-413.284622183174
 20
-123.026027562416
 30
0.0
 40
2.00000008940697
  1
93-04-05 FERRARI M.
 50
359.999999844103
 41
0.749999861419206
 72
     2
 11
-385.084626140922
 21
-123.026027639004
 31
0.0
  0
TEXT
  5
   556
  8
0
  6
CONTINUOUS
 62
     1
 10
-305.695556622207
 20
-149.360408692749
 30
0.0
 40
4.00000017881393
  1
601812/311
 50
359.999999844103
 41
0.937499973922969
 72
     2
 11
-268.945556022435
 21
-149.360408792558
 31
0.0
  0
TEXT
  5
   557
  8
0
  6
CONTINUOUS
 62
     1
 10
-294.609863267437
 20
-140.378826134924
 30
0.0
 40
3.00000002980232
  1
S3
 50
359.999999844103
 41
0.916666604744064
 72
     2
 11
-289.659863557016
 21
-140.378826148368
 31
0.0
  0
TEXT
  5
   558
  8
0
  6
CONTINUOUS
 62
     1
 10
-316.144283026198
 20
-122.068553892021
 30
0.0
 40
2.00000008940697
  1
4POLE LOW VOLTAGE M.C.C.B SERIES ISOMAX
 50
359.999999844103
 41
0.749999861419206
 72
     1
 11
-287.04428710342
 21
-121.068553926349
 31
0.0
 73
     2
  0
TEXT
  5
   559
  8
0
  6
CONTINUOUS
 62
     1
 10
-313.894283305583
 20
-125.068553898131
 30
0.0
 40
2.00000008940697
  1
WITHDRAWABLE VERSION FRONT TERMINALS
 50
359.999999844103
 41
0.749999861419206
 72
     1
 11
-287.044287067646
 21
-124.068553926349
 31
0.0
 73
     2
  0
TEXT
  5
   55A
  8
0
  6
CONTINUOUS
 62
     1
 10
-312.941891393552
 20
-130.138820633986
 30
0.0
 40
2.00000008940697
  1
INTERR.AUTOMATICO SERIE ISOMAX
 50
359.999999844103
 41
0.749999861419206
 72
     1
 11
-290.591894525295
 21
-129.138820649982
 31
0.0
 73
     2
  0
TEXT
  5
   55B
  8
0
  6
CONTINUOUS
 62
     1
 10
-324.19188978198
 20
-133.138820603432
 30
0.0
 40
2.00000008940697
  1
TETRAP.ESECUZIONE ESTRAIBILE TERMIN.ANTERIORI
 50
359.999999844103
 41
0.749999861419206
 72
     1
 11
-290.591894489521
 21
-132.138820649982
 31
0.0
 73
     2
  0
LINE
  5
   55C
  8
0
  6
CONTINUOUS
 62
     7
 10
-299.107208251953
 20
110.320794312437
 30
0.0
 11
-299.107208251953
 21
86.4042728262345
 31
0.0
  0
LINE
  5
   55D
  8
0
  6
CONTINUOUS
 62
     7
 10
-301.107208251953
 20
110.320794312437
 30
0.0
 11
-301.107208251953
 21
86.4042728262345
 31
0.0
  0
LINE
  5
   55E
  8
0
  6
DASHDOT
 62
     7
 10
-304.30981135435
 20
98.3625335693359
 30
0.0
 11
-295.883592161913
 21
98.3625335693359
 31
0.0
  0
POINT
  5
   55F
  8
0
  6
CONTINUOUS
 62
     7
 10
-301.107208251953
 20
100.362533569336
 30
0.0
  0
POINT
  5
   560
  8
0
  6
CONTINUOUS
 62
     7
 10
-301.107208251953
 20
96.3625335693359
 30
0.0
  0
LINE
  5
   561
  8
0
  6
CONTINUOUS
 62
     7
 10
-299.107208251953
 20
102.040732831691
 30
0.0
 11
-301.107208251953
 21
100.362533569336
 31
0.0
  0
LINE
  5
   562
  8
0
  6
CONTINUOUS
 62
     7
 10
-301.107208251953
 20
96.3625335693359
 30
0.0
 11
-299.107208251953
 21
94.6843343069814
 31
0.0
  0
LINE
  5
   563
  8
0
  6
CONTINUOUS
 62
     7
 10
-301.107208251953
 20
88.8625335693359
 30
0.0
 11
-299.107208251953
 21
88.8625335693359
 31
0.0
  0
CIRCLE
  5
   564
  8
0
  6
CONTINUOUS
 62
     7
 10
-300.107208251953
 20
98.3625335693359
 30
0.0
 40
12.0
  0
LINE
  5
   565
  8
0
  6
CONTINUOUS
 62
     7
 10
-307.107200622559
 20
93.8625335693359
 30
0.0
 11
-304.607200622559
 21
93.8625335693359
 31
0.0
  0
LINE
  5
   566
  8
0
  6
CONTINUOUS
 62
     7
 10
-303.607200622559
 20
102.862533569336
 30
0.0
 11
-303.607200622559
 21
94.8625335693359
 31
0.0
  0
LINE
  5
   567
  8
0
  6
CONTINUOUS
 62
     7
 10
-303.607200622559
 20
102.862533569336
 30
0.0
 11
-301.107208251953
 21
102.862533569336
 31
0.0
  0
LINE
  5
   568
  8
0
  6
CONTINUOUS
 62
     7
 10
-307.107200622559
 20
91.3625335693359
 30
0.0
 11
-304.607200622559
 21
91.3625335693359
 31
0.0
  0
LINE
  5
   569
  8
0
  6
CONTINUOUS
 62
     7
 10
-308.107200622559
 20
90.3625335693359
 30
0.0
 11
-308.107200622559
 21
89.4182548354047
 31
0.0
  0
ARC
  5
   56A
  8
0
  6
CONTINUOUS
 62
     7
 10
-304.607196475279
 20
94.8625328979972
 30
0.0
 40
0.999996977799109
 50
629.999840735313
 51
720.000252836193
  0
ARC
  5
   56B
  8
0
  6
CONTINUOUS
 62
     7
 10
-307.107185969052
 20
90.3625208830315
 30
0.0
 40
3.50001845311552
 50
450.000186734275
 51
513.408761128067
  0
ARC
  5
   56C
  8
0
  6
CONTINUOUS
 62
     7
 10
-307.107244870709
 20
90.3625744641183
 30
0.0
 40
0.999949821243504
 50
449.997764042825
 51
540.001169660043
  0
ARC
  5
   56D
  8
0
  6
CONTINUOUS
 62
     7
 10
-304.607181270177
 20
94.8625015224017
 30
0.0
 40
3.49997105594423
 50
629.999653243441
 51
720.000420168909
  0
INSERT
  5
   56E
  8
0
  6
CONTINUOUS
 62
     7
  2
*HATCH80
 10
-300.107208251953
 20
98.3625335693359
 30
0.0
 50
269.999999844103
  0
INSERT
  5
   56F
  8
0
  6
CONTINUOUS
 62
     7
  2
*HATCH81
 10
-300.107208251953
 20
98.3625335693359
 30
0.0
 50
269.999999844103
  0
LINE
  5
   570
  8
0
  6
CONTINUOUS
 62
     7
 10
-308.682824010674
 20
89.968558685005
 30
0.0
 11
-325.301817106822
 21
73.7015739486523
 31
0.0
  0
LINE
  5
   571
  8
0
  6
CONTINUOUS
 62
     7
 10
-325.301817106822
 20
49.1193861620687
 30
0.0
 11
-306.768337486549
 21
34.0206798637589
 31
0.0
  0
LINE
  5
   572
  8
0
  6
CONTINUOUS
 62
     7
 10
-312.252850944289
 20
36.4819220169304
 30
0.0
 11
-306.768337486549
 21
34.0206798637588
 31
0.0
  0
LINE
  5
   573
  8
0
  6
CONTINUOUS
 62
     7
 10
-310.015369885955
 20
38.5176277209504
 30
0.0
 11
-306.768337486549
 21
34.0206798637588
 31
0.0
  0
LINE
  5
   574
  8
0
  6
CONTINUOUS
 62
     7
 10
-325.301817106822
 20
73.7015739486524
 30
0.0
 11
-325.301817106822
 21
49.1193861620687
 31
0.0
  0
INSERT
  5
   575
  8
0
  6
CONTINUOUS
 62
     7
  2
*UDIM476
 10
0.0
 20
0.0
 30
0.0
  0
INSERT
  5
   576
  8
0
  6
CONTINUOUS
 62
     7
  2
*UDIM477
 10
0.0
 20
0.0
 30
0.0
  0
ENDSEC
  0
EOF
