  0
SECTION
  2
HEADER
  9
$ACADVER
  1
AC1009
  9
$INSBASE
 10
0.0
 20
0.0
 30
0.0
  9
$EXTMIN
 10
0.579461
 20
0.579152
 30
0.0
  9
$EXTMAX
 10
392.579461
 20
263.079152
 30
0.0
  9
$LIMMIN
 10
0.0
 20
0.0
  9
$LIMMAX
 10
12.0
 20
9.0
  9
$ORTHOMODE
 70
     1
  9
$REGENMODE
 70
     1
  9
$FILLMODE
 70
     1
  9
$QTEXTMODE
 70
     0
  9
$MIRRTEXT
 70
     1
  9
$DRAGMODE
 70
     2
  9
$LTSCALE
 40
5.0
  9
$OSMODE
 70
     0
  9
$ATTMODE
 70
     1
  9
$TEXTSIZE
 40
2.5
  9
$TRACEWID
 40
0.05
  9
$TEXTSTYLE
  7
ROMANS
  9
$CLAYER
  8
0
  9
$CELTYPE
  6
CONTINUOUS
  9
$CECOLOR
 62
   256
  9
$DIMSCALE
 40
1.0
  9
$DIMASZ
 40
0.18
  9
$DIMEXO
 40
0.0625
  9
$DIMDLI
 40
0.38
  9
$DIMRND
 40
0.0
  9
$DIMDLE
 40
0.0
  9
$DIMEXE
 40
0.18
  9
$DIMTP
 40
0.0
  9
$DIMTM
 40
0.0
  9
$DIMTXT
 40
0.18
  9
$DIMCEN
 40
0.09
  9
$DIMTSZ
 40
0.0
  9
$DIMTOL
 70
     0
  9
$DIMLIM
 70
     0
  9
$DIMTIH
 70
     1
  9
$DIMTOH
 70
     1
  9
$DIMSE1
 70
     0
  9
$DIMSE2
 70
     0
  9
$DIMTAD
 70
     0
  9
$DIMZIN
 70
     0
  9
$DIMBLK
  1

  9
$DIMASO
 70
     1
  9
$DIMSHO
 70
     1
  9
$DIMPOST
  1

  9
$DIMAPOST
  1

  9
$DIMALT
 70
     0
  9
$DIMALTD
 70
     2
  9
$DIMALTF
 40
25.4
  9
$DIMLFAC
 40
1.0
  9
$DIMTOFL
 70
     0
  9
$DIMTVP
 40
0.0
  9
$DIMTIX
 70
     0
  9
$DIMSOXD
 70
     0
  9
$DIMSAH
 70
     0
  9
$DIMBLK1
  1

  9
$DIMBLK2
  1

  9
$DIMSTYLE
  2
*UNNAMED
  9
$DIMCLRD
 70
     0
  9
$DIMCLRE
 70
     0
  9
$DIMCLRT
 70
     0
  9
$DIMTFAC
 40
1.0
  9
$DIMGAP
 40
0.09
  9
$LUNITS
 70
     2
  9
$LUPREC
 70
     4
  9
$SKETCHINC
 40
0.1
  9
$FILLETRAD
 40
1.5
  9
$AUNITS
 70
     0
  9
$AUPREC
 70
     0
  9
$MENU
  1
acad
  9
$ELEVATION
 40
0.0
  9
$PELEVATION
 40
0.0
  9
$THICKNESS
 40
0.0
  9
$LIMCHECK
 70
     0
  9
$BLIPMODE
 70
     1
  9
$CHAMFERA
 40
0.0
  9
$CHAMFERB
 40
0.0
  9
$SKPOLY
 70
     0
  9
$TDCREATE
 40
2449125.323830208
  9
$TDUPDATE
 40
2449132.343477546
  9
$TDINDWG
 40
0.0016383102
  9
$TDUSRTIMER
 40
0.0016383102
  9
$USRTIMER
 70
     1
  9
$ANGBASE
 50
0.0
  9
$ANGDIR
 70
     0
  9
$PDMODE
 70
     0
  9
$PDSIZE
 40
0.0
  9
$PLINEWID
 40
0.0
  9
$COORDS
 70
     2
  9
$SPLFRAME
 70
     0
  9
$SPLINETYPE
 70
     6
  9
$SPLINESEGS
 70
     8
  9
$ATTDIA
 70
     0
  9
$ATTREQ
 70
     1
  9
$HANDLING
 70
     0
  9
$HANDSEED
  5
0
  9
$SURFTAB1
 70
   100
  9
$SURFTAB2
 70
   100
  9
$SURFTYPE
 70
     6
  9
$SURFU
 70
     6
  9
$SURFV
 70
     6
  9
$UCSNAME
  2

  9
$UCSORG
 10
0.0
 20
0.0
 30
0.0
  9
$UCSXDIR
 10
1.0
 20
0.0
 30
0.0
  9
$UCSYDIR
 10
0.0
 20
1.0
 30
0.0
  9
$PUCSNAME
  2

  9
$PUCSORG
 10
0.0
 20
0.0
 30
0.0
  9
$PUCSXDIR
 10
1.0
 20
0.0
 30
0.0
  9
$PUCSYDIR
 10
0.0
 20
1.0
 30
0.0
  9
$USERI1
 70
     0
  9
$USERI2
 70
     0
  9
$USERI3
 70
     0
  9
$USERI4
 70
     0
  9
$USERI5
 70
     0
  9
$USERR1
 40
0.0
  9
$USERR2
 40
0.0
  9
$USERR3
 40
0.0
  9
$USERR4
 40
0.0
  9
$USERR5
 40
0.0
  9
$WORLDVIEW
 70
     1
  9
$SHADEDGE
 70
     3
  9
$SHADEDIF
 70
    70
  9
$TILEMODE
 70
     1
  9
$MAXACTVP
 70
    16
  9
$PINSBASE
 10
0.0
 20
0.0
 30
0.0
  9
$PLIMCHECK
 70
     0
  9
$PEXTMIN
 10
1.000000E+20
 20
1.000000E+20
 30
1.000000E+20
  9
$PEXTMAX
 10
-1.000000E+20
 20
-1.000000E+20
 30
-1.000000E+20
  9
$PLIMMIN
 10
0.0
 20
0.0
  9
$PLIMMAX
 10
12.0
 20
9.0
  9
$UNITMODE
 70
     0
  9
$VISRETAIN
 70
     0
  9
$PLINEGEN
 70
     0
  9
$PSLTSCALE
 70
     0
  9
$TREEDEPTH
 70
  3020
  9
$DWGCODEPAGE
  3
undefined
  0
ENDSEC
  0
SECTION
  2
TABLES
  0
TABLE
  2
VPORT
 70
     2
  0
VPORT
  2
*ACTIVE
 70
     0
 10
0.0
 20
0.0
 11
1.0
 21
1.0
 12
222.717071
 22
142.164464
 13
0.0
 23
0.0
 14
2.5
 24
2.5
 15
0.0
 25
0.0
 16
0.0
 26
0.0
 36
1.0
 17
0.0
 27
0.0
 37
0.0
 40
284.328929
 41
1.566616
 42
50.0
 43
0.0
 44
0.0
 50
0.0
 51
0.0
 71
     0
 72
   100
 73
     1
 74
     1
 75
     1
 76
     0
 77
     0
 78
     0
  0
ENDTAB
  0
TABLE
  2
LTYPE
 70
     4
  0
LTYPE
  2
CONTINUOUS
 70
    64
  3
Solid line
 72
    65
 73
     0
 40
0.0
  0
LTYPE
  2
DASHED
 70
    64
  3
__ __ __ __ __ __ __ __ __ __ __ __ __ __ __ __
 72
    65
 73
     2
 40
0.75
 49
0.5
 49
-0.25
  0
LTYPE
  2
CENTER
 70
    64
  3
____ _ ____ _ ____ _ ____ _ ____ _ ____ _ ____ 
 72
    65
 73
     4
 40
2.0
 49
1.25
 49
-0.25
 49
0.25
 49
-0.25
  0
LTYPE
  2
HIDDEN
 70
    64
  3
__ __ __ __ __ __ __ __ __ __ __ __ __ __ __ __
 72
    65
 73
     2
 40
0.375
 49
0.25
 49
-0.125
  0
ENDTAB
  0
TABLE
  2
LAYER
 70
    13
  0
LAYER
  2
0
 70
    64
 62
     7
  6
CONTINUOUS
  0
LAYER
  2
RAAMI
 70
    64
 62
    -4
  6
CONTINUOUS
  0
LAYER
  2
PAKSU
 70
    64
 62
    -3
  6
CONTINUOUS
  0
LAYER
  2
OHUT
 70
    64
 62
    -6
  6
CONTINUOUS
  0
LAYER
  2
SWEDEN
 70
    64
 62
    -7
  6
CONTINUOUS
  0
LAYER
  2
SWEDEN2
 70
    64
 62
    -5
  6
CONTINUOUS
  0
LAYER
  2
BASE
 70
    64
 62
    -7
  6
CONTINUOUS
  0
LAYER
  2
21
 70
    64
 62
    -2
  6
CONTINUOUS
  0
LAYER
  2
HEL035
 70
    64
 62
    -7
  6
CONTINUOUS
  0
LAYER
  2
MUO
 70
    64
 62
    -7
  6
CONTINUOUS
  0
LAYER
  2
1
 70
    64
 62
    -2
  6
CONTINUOUS
  0
LAYER
  2
BASE1
 70
    64
 62
    -5
  6
CONTINUOUS
  0
LAYER
  2
TEKS
 70
    64
 62
    -5
  6
CONTINUOUS
  0
ENDTAB
  0
TABLE
  2
STYLE
 70
     3
  0
STYLE
  2
STANDARD
 70
    64
 40
0.0
 41
1.0
 50
0.0
 71
     0
 42
2.0
  3
txt
  4

  0
STYLE
  2
ROMANS
 70
    64
 40
0.0
 41
1.0
 50
0.0
 71
     0
 42
2.5
  3
romans
  4

  0
STYLE
  2
GREEKS
 70
    64
 40
0.0
 41
1.0
 50
0.0
 71
     0
 42
3.0
  3
TXT
  4

  0
ENDTAB
  0
TABLE
  2
VIEW
 70
     0
  0
ENDTAB
  0
TABLE
  2
UCS
 70
     0
  0
ENDTAB
  0
TABLE
  2
APPID
 70
     1
  0
APPID
  2
ACAD
 70
    64
  0
ENDTAB
  0
TABLE
  2
DIMSTYLE
 70
     0
  0
ENDTAB
  0
ENDSEC
  0
SECTION
  2
BLOCKS
  0
BLOCK
  8
0
  2
1
 70
    64
 10
0.0
 20
0.0
 30
0.0
  3
1
  0
ENDBLK
  8
0
  0
BLOCK
  8
0
  2
BLC16
 70
     0
 10
0.0
 20
0.0
 30
0.0
  3
BLC16
  0
LINE
  8
0
  6
CONTINUOUS
 10
0.007689
 20
38.054928
 30
0.0
 11
19.983683
 21
38.054928
 31
0.0
  0
LINE
  8
0
  6
CONTINUOUS
 10
19.983683
 20
38.054928
 30
0.0
 11
19.983683
 21
-0.003751
 31
0.0
  0
LINE
  8
0
  6
CONTINUOUS
 10
19.983683
 20
-0.003751
 30
0.0
 11
0.007689
 21
-0.003751
 31
0.0
  0
LINE
  8
0
  6
CONTINUOUS
 10
0.007689
 20
-0.003751
 30
0.0
 11
0.007689
 21
38.054928
 31
0.0
  0
LINE
  8
0
  6
CONTINUOUS
 10
14.152643
 20
36.919738
 30
0.0
 11
14.152643
 21
33.528469
 31
0.0
  0
LINE
  8
0
  6
CONTINUOUS
 10
14.152643
 20
33.528469
 30
0.0
 11
11.560435
 21
33.528469
 31
0.0
  0
LINE
  8
0
  6
CONTINUOUS
 10
11.560435
 20
33.528469
 30
0.0
 11
11.560435
 21
30.778433
 31
0.0
  0
LINE
  8
0
  6
CONTINUOUS
 10
11.560435
 20
30.778433
 30
0.0
 11
14.152643
 21
30.778433
 31
0.0
  0
LINE
  8
0
  6
CONTINUOUS
 10
14.152643
 20
30.778433
 30
0.0
 11
14.152643
 21
27.387164
 31
0.0
  0
TEXT
  8
0
  6
CONTINUOUS
 10
6.558569
 20
30.805266
 30
0.0
 40
2.5
  1
2
 11
6.558569
 21
29.971932
 31
0.0
 73
     1
  0
TEXT
  8
0
  6
CONTINUOUS
 10
6.553289
 20
23.854078
 30
0.0
 40
2.5
  1
2 I
 11
6.553289
 21
23.020744
 31
0.0
 73
     1
  0
LINE
  8
0
  6
CONTINUOUS
 10
12.942534
 20
26.359129
 30
0.0
 11
15.288299
 21
25.023775
 31
0.0
  0
LINE
  8
0
  6
CONTINUOUS
 10
15.288299
 20
25.023775
 30
0.0
 11
12.942534
 21
23.833856
 31
0.0
  0
LINE
  8
0
  6
CONTINUOUS
 10
14.169823
 20
26.359129
 30
0.0
 11
16.515589
 21
25.023775
 31
0.0
  0
LINE
  8
0
  6
CONTINUOUS
 10
16.515589
 20
25.023775
 30
0.0
 11
14.169823
 21
23.833856
 31
0.0
  0
TEXT
  8
0
  6
CONTINUOUS
 10
11.566446
 20
19.235679
 30
0.0
 40
2.5
  1
I
 11
11.566446
 21
18.402346
 31
0.0
 73
     1
  0
TEXT
  8
0
  6
CONTINUOUS
 10
13.018181
 20
18.902346
 30
0.0
 40
1.5
  1
2
 11
13.018181
 21
18.402346
 31
0.0
 73
     1
  0
LINE
  8
0
  6
CONTINUOUS
 10
10.65733
 20
12.773825
 30
0.0
 11
13.003095
 21
13.963744
 31
0.0
  0
LINE
  8
0
  6
CONTINUOUS
 10
13.003095
 20
11.438471
 30
0.0
 11
10.65733
 21
12.773825
 31
0.0
  0
LINE
  8
0
  6
CONTINUOUS
 10
6.557002
 20
16.714658
 30
0.0
 11
15.281743
 21
16.714658
 31
0.0
  0
LINE
  8
0
  6
CONTINUOUS
 10
6.557002
 20
17.523984
 30
0.0
 11
6.557002
 21
15.908791
 31
0.0
  0
LINE
  8
0
  6
CONTINUOUS
 10
15.286518
 20
17.523984
 30
0.0
 11
15.286518
 21
15.908791
 31
0.0
  0
ARC
  8
0
  6
CONTINUOUS
 10
12.684846
 20
18.508045
 30
0.0
 40
2.922744
 50
193.105513
 51
283.105513
  0
TEXT
  8
0
  6
CONTINUOUS
 10
6.557002
 20
11.567974
 30
0.0
 40
2.5
  1
2I
 11
6.557002
 21
10.734641
 31
0.0
 73
     1
  0
LINE
  8
0
  6
CONTINUOUS
 10
6.557002
 20
9.441103
 30
0.0
 11
15.281743
 21
9.441103
 31
0.0
  0
LINE
  8
0
  6
CONTINUOUS
 10
15.286518
 20
10.250429
 30
0.0
 11
15.286518
 21
8.635236
 31
0.0
  0
LINE
  8
0
  6
CONTINUOUS
 10
6.557002
 20
10.250429
 30
0.0
 11
6.557002
 21
8.635236
 31
0.0
  0
TEXT
  8
0
  6
CONTINUOUS
 10
6.557002
 20
4.778631
 30
0.0
 40
2.5
  1
I
 11
6.557002
 21
3.945298
 31
0.0
 73
     1
  0
LINE
  8
0
  6
CONTINUOUS
 10
9.509029
 20
6.822462
 30
0.0
 11
9.509029
 21
5.477736
 31
0.0
  0
LINE
  8
0
  6
CONTINUOUS
 10
8.615065
 20
5.477736
 30
0.0
 11
9.52622
 21
5.477736
 31
0.0
  0
LINE
  8
0
  6
CONTINUOUS
 10
9.509029
 20
5.477736
 30
0.0
 11
10.402992
 21
5.477736
 31
0.0
  0
LINE
  8
0
  6
CONTINUOUS
 10
8.901592
 20
5.082328
 30
0.0
 11
9.509029
 21
5.082328
 31
0.0
  0
LINE
  8
0
  6
CONTINUOUS
 10
9.509029
 20
5.082328
 30
0.0
 11
10.150849
 21
5.082328
 31
0.0
  0
LINE
  8
0
  6
CONTINUOUS
 10
9.981861
 20
4.719969
 30
0.0
 11
9.072041
 21
4.719969
 31
0.0
  0
LINE
  8
0
  6
CONTINUOUS
 10
15.286518
 20
2.797924
 30
0.0
 11
15.286518
 21
1.182731
 31
0.0
  0
LINE
  8
0
  6
CONTINUOUS
 10
6.557002
 20
1.988598
 30
0.0
 11
15.281743
 21
1.988598
 31
0.0
  0
LINE
  8
0
  6
CONTINUOUS
 10
6.557002
 20
2.797924
 30
0.0
 11
6.557002
 21
1.182731
 31
0.0
  0
ENDBLK
  8
0
  0
BLOCK
  8
0
  2
BLC27
 70
     0
 10
0.0
 20
0.0
 30
0.0
  3
BLC27
  0
INSERT
  8
SWEDEN2
  6
CENTER
  2
BLC26
 10
0.08063
 20
0.037985
 30
0.0
 41
1.006225
 42
1.006225
 43
1.006225
  0
ENDBLK
  8
0
  0
BLOCK
  8
0
  2
BLC26
 70
    64
 10
0.0
 20
0.0
 30
0.0
  3
BLC26
  0
ARC
  8
0
  6
CONTINUOUS
 10
-0.180576
 20
1.17922
 30
0.0
 40
1.196859
 50
90.0
 51
265.706237
  0
LINE
  8
0
  6
CONTINUOUS
 10
-0.186638
 20
-0.01092
 30
0.0
 11
0.458942
 21
-0.01092
 31
0.0
  0
LINE
  8
0
  6
CONTINUOUS
 10
-0.186638
 20
2.375671
 30
0.0
 11
0.45288
 21
2.375671
 31
0.0
  0
LINE
  8
0
  6
CONTINUOUS
 10
-0.185509
 20
-2.404629
 30
0.0
 11
0.460071
 21
-2.404629
 31
0.0
  0
ARC
  8
0
  6
CONTINUOUS
 10
-0.180576
 20
-1.207779
 30
0.0
 40
1.196859
 50
90.0
 51
270.0
  0
LINE
  8
0
  6
CONTINUOUS
 10
0.451525
 20
-2.404586
 30
0.0
 11
1.401805
 21
-2.404586
 31
0.0
  0
LINE
  8
0
  6
CONTINUOUS
 10
0.446785
 20
2.375674
 30
0.0
 11
1.418544
 21
2.375674
 31
0.0
  0
LINE
  8
0
  6
CONTINUOUS
 10
0.456627
 20
-0.010911
 30
0.0
 11
1.422749
 21
-0.010911
 31
0.0
  0
ENDBLK
  8
0
  0
BLOCK
  8
0
  2
BLC28
 70
     0
 10
0.0
 20
0.0
 30
0.0
  3
BLC28
  0
LINE
  8
0
  6
CONTINUOUS
 10
0.484576
 20
2.400948
 30
0.0
 11
1.456712
 21
2.400948
 31
0.0
  0
LINE
  8
0
  6
CONTINUOUS
 10
0.474673
 20
4.802388
 30
0.0
 11
1.452481
 21
4.802388
 31
0.0
  0
LINE
  8
0
  6
CONTINUOUS
 10
0.479442
 20
-0.007627
 30
0.0
 11
1.435637
 21
-0.007627
 31
0.0
  0
ARC
  8
0
  6
CONTINUOUS
 10
-0.156593
 20
1.19663
 30
0.0
 40
1.204309
 50
90.0
 51
270.0
  0
LINE
  8
0
  6
CONTINUOUS
 10
-0.161557
 20
-0.007671
 30
0.0
 11
0.488041
 21
-0.007671
 31
0.0
  0
LINE
  8
0
  6
CONTINUOUS
 10
-0.162693
 20
4.802386
 30
0.0
 11
0.480806
 21
4.802386
 31
0.0
  0
LINE
  8
0
  6
CONTINUOUS
 10
-0.162693
 20
2.400939
 30
0.0
 11
0.486905
 21
2.400939
 31
0.0
  0
ARC
  8
0
  6
CONTINUOUS
 10
-0.156593
 20
3.598487
 30
0.0
 40
1.204309
 50
90.0
 51
265.706237
  0
LINE
  8
0
  6
CONTINUOUS
 10
0.484576
 20
-2.362961
 30
0.0
 11
1.456712
 21
-2.362961
 31
0.0
  0
LINE
  8
0
  6
CONTINUOUS
 10
0.479442
 20
-4.771537
 30
0.0
 11
1.435637
 21
-4.771537
 31
0.0
  0
ARC
  8
0
  6
CONTINUOUS
 10
-0.156593
 20
-3.567279
 30
0.0
 40
1.204309
 50
90.0
 51
270.0
  0
LINE
  8
0
  6
CONTINUOUS
 10
-0.161557
 20
-4.77158
 30
0.0
 11
0.488041
 21
-4.77158
 31
0.0
  0
LINE
  8
0
  6
CONTINUOUS
 10
-0.162693
 20
-2.36297
 30
0.0
 11
0.486905
 21
-2.36297
 31
0.0
  0
ARC
  8
0
  6
CONTINUOUS
 10
-0.156593
 20
-1.165422
 30
0.0
 40
1.204309
 50
101.28465
 51
265.706237
  0
ENDBLK
  8
0
  0
BLOCK
  8
0
  2
BLC22
 70
     0
 10
0.0
 20
0.0
 30
0.0
  3
BLC22
  0
LINE
  8
HEL035
 10
0.0
 20
-0.00155
 30
0.0
 11
0.0
 21
9.99845
 31
0.0
  0
LINE
  8
21
 10
2.5
 20
10.0
 30
0.0
 11
5.0
 21
10.0
 31
0.0
  0
LINE
  8
HEL035
 10
0.0
 20
9.99845
 30
0.0
 11
2.5
 21
9.99845
 31
0.0
  0
LINE
  8
HEL035
 10
-2.5
 20
5.0
 30
0.0
 11
2.5
 21
5.0
 31
0.0
  0
LINE
  8
21
 10
2.5
 20
5.0
 30
0.0
 11
5.0
 21
5.0
 31
0.0
  0
LINE
  8
21
 10
5.0
 20
5.0
 30
0.0
 11
5.0
 21
7.9
 31
0.0
  0
LINE
  8
HEL035
 10
3.88095
 20
6.944425
 30
0.0
 11
4.560313
 21
6.008681
 31
0.0
  0
LINE
  8
21
 10
10.0
 20
10.0
 30
0.0
 11
4.2
 21
6.5
 31
0.0
  0
LINE
  8
HEL035
 10
2.5
 20
-0.00155
 30
0.0
 11
0.0
 21
-0.00155
 31
0.0
  0
LINE
  8
21
 10
2.5
 20
0.0
 30
0.0
 11
5.0
 21
0.0
 31
0.0
  0
ENDBLK
  8
0
  0
BLOCK
  8
0
  2
BLC18
 70
     0
 10
0.0
 20
0.0
 30
0.0
  3
BLC18
  0
LINE
  8
MUO
 10
-0.056268
 20
0.849555
 30
0.0
 11
8.307242
 21
9.215502
 31
0.0
  0
LINE
  8
MUO
 10
0.928025
 20
-0.107047
 30
0.0
 11
9.268386
 21
8.2307
 31
0.0
  0
LINE
  8
MUO
 10
-0.056268
 20
-0.107047
 30
0.0
 11
-0.056268
 21
9.215502
 31
0.0
  0
LINE
  8
MUO
 10
9.268386
 20
-0.107047
 30
0.0
 11
-0.056268
 21
-0.107047
 31
0.0
  0
LINE
  8
MUO
 10
9.268386
 20
9.215502
 30
0.0
 11
9.268386
 21
-0.107047
 31
0.0
  0
LINE
  8
MUO
 10
-0.056268
 20
9.215502
 30
0.0
 11
9.268386
 21
9.215502
 31
0.0
  0
ENDBLK
  8
0
  0
BLOCK
  8
0
  2
BLC29
 70
     0
 10
0.0
 20
0.0
 30
0.0
  3
BLC29
  0
LINE
  8
0
  6
CONTINUOUS
 10
0.004865
 20
1.206889
 30
0.0
 11
2.350631
 21
-0.128465
 31
0.0
  0
LINE
  8
0
  6
CONTINUOUS
 10
2.350631
 20
-0.128465
 30
0.0
 11
0.004865
 21
-1.318384
 31
0.0
  0
ENDBLK
  8
0
  0
BLOCK
  8
0
  2
WKU130
 70
     0
 10
190.0
 20
250.0
 30
0.0
  3
WKU130
  0
ARC
  8
21
 10
191.083333
 20
249.916667
 30
0.0
 40
1.086534
 50
32.471192
 51
175.601295
  0
ARC
  8
21
 10
192.916667
 20
251.083333
 30
0.0
 40
1.086534
 50
212.471192
 51
355.601295
  0
ENDBLK
  8
0
  0
BLOCK
  8
0
  2
BLC15
 70
     0
 10
0.0
 20
0.0
 30
0.0
  3
BLC15
  0
LINE
  8
0
  6
CONTINUOUS
 10
0.142084
 20
3.490022
 30
0.0
 11
0.142084
 21
0.844365
 31
0.0
  0
LINE
  8
0
  6
CONTINUOUS
 10
-0.461611
 20
-0.937188
 30
0.0
 11
0.745779
 21
-0.937188
 31
0.0
  0
LINE
  8
0
  6
CONTINUOUS
 10
-0.894108
 20
-0.049675
 30
0.0
 11
1.169267
 21
-0.049675
 31
0.0
  0
LINE
  8
0
  6
CONTINUOUS
 10
-1.389679
 20
0.844365
 30
0.0
 11
1.673848
 21
0.844365
 31
0.0
  0
ENDBLK
  8
0
  0
BLOCK
  8
0
  2
BLC5
 70
     0
 10
0.0
 20
0.0
 30
0.0
  3
BLC5
  0
TEXT
  8
0
 10
-3.043704
 20
-6.645912
 30
0.0
 40
3.2
  1
PE
  0
LINE
  8
0
 10
-2.946392
 20
1.181176
 30
0.0
 11
2.135458
 21
1.181176
 31
0.0
  0
LINE
  8
0
 10
-0.48656
 20
2.238362
 30
0.0
 11
-0.48656
 21
6.930438
 31
0.0
  0
LINE
  8
0
 10
-1.973271
 20
0.065258
 30
0.0
 11
1.225411
 21
0.065258
 31
0.0
  0
LINE
  8
0
 10
2.685091
 20
2.238362
 30
0.0
 11
1.68494
 21
2.238362
 31
0.0
  0
LINE
  8
0
 10
-3.505035
 20
2.238362
 30
0.0
 11
2.649049
 21
2.238362
 31
0.0
  0
CIRCLE
  8
0
 10
-0.47755
 20
1.422632
 30
0.0
 40
3.804563
  0
ENDBLK
  8
0
  0
BLOCK
  8
0
  2
BLC57
 70
     0
 10
0.0
 20
0.0
 30
0.0
  3
BLC57
  0
TEXT
  8
0
  6
CONTINUOUS
 10
5.743694
 20
1.362373
 30
0.0
 40
2.5
  1
1
 11
5.743694
 21
0.52904
 31
0.0
 73
     1
  0
LINE
  8
0
  6
CONTINUOUS
 10
1.301791
 20
0.69718
 30
0.0
 11
3.685251
 21
1.885372
 31
0.0
  0
LINE
  8
0
  6
CONTINUOUS
 10
3.655598
 20
2.687113
 30
0.0
 11
1.309833
 21
1.497194
 31
0.0
  0
LINE
  8
0
  6
CONTINUOUS
 10
1.309833
 20
4.022467
 30
0.0
 11
3.655598
 21
2.687113
 31
0.0
  0
LINE
  8
BASE
  6
CONTINUOUS
 10
7.5
 20
0.0
 30
0.0
 11
7.5
 21
5.0
 31
0.0
  0
LINE
  8
BASE
  6
CONTINUOUS
 10
0.0
 20
0.0
 30
0.0
 11
7.5
 21
0.0
 31
0.0
  0
LINE
  8
BASE
  6
CONTINUOUS
 10
0.0
 20
5.0
 30
0.0
 11
0.0
 21
0.0
 31
0.0
  0
LINE
  8
BASE
  6
CONTINUOUS
 10
7.5
 20
5.0
 30
0.0
 11
0.0
 21
5.0
 31
0.0
  0
ENDBLK
  8
0
  0
BLOCK
  8
0
  2
BLC25
 70
     0
 10
0.0
 20
0.0
 30
0.0
  3
BLC25
  0
TEXT
  8
0
  6
CONTINUOUS
 10
2.0
 20
30.666667
 30
0.0
 40
2.0
  1
1)
 11
2.0
 21
30.0
 31
0.0
 73
     1
  0
TEXT
  8
0
 10
6.0
 20
2.0
 30
0.0
 40
2.0
  1
7B    27     26
 11
6.0
 21
1.333333
 31
0.0
 73
     1
  0
TEXT
  8
0
 10
6.0
 20
5.333333
 30
0.0
 40
2.0
  1
5B     9      8
 11
6.0
 21
4.666667
 31
0.0
 73
     1
  0
TEXT
  8
0
 10
6.0
 20
8.666667
 30
0.0
 40
2.0
  1
3B     3      2
 11
6.0
 21
8.0
 31
0.0
 73
     1
  0
TEXT
  8
0
 10
32.0
 20
12.666667
 30
0.0
 40
2.0
  1
In=5A
 11
32.0
 21
12.0
 31
0.0
 73
     1
  0
TEXT
  8
0
 10
16.0
 20
12.666667
 30
0.0
 40
2.0
  1
In=1A 
 11
16.0
 21
12.0
 31
0.0
 73
     1
  0
TEXT
  8
0
 10
26.0
 20
18.666667
 30
0.0
 40
2.0
  1
108:
 11
26.0
 21
18.0
 31
0.0
 73
     1
  0
TEXT
  8
0
 10
6.0
 20
18.666667
 30
0.0
 40
2.0
  1
101:       
 11
6.0
 21
18.0
 31
0.0
 73
     1
  0
TEXT
  8
0
 10
6.0
 20
24.666667
 30
0.0
 40
2.0
  1
TERMINALS / UTTAG
 11
6.0
 21
24.0
 31
0.0
 73
     1
  0
LINE
  8
0
 10
0.0
 20
12.0
 30
0.0
 11
44.0
 21
12.0
 31
0.0
  0
LINE
  8
0
 10
28.0
 20
18.0
 30
0.0
 11
28.0
 21
0.0
 31
0.0
  0
LINE
  8
0
 10
14.0
 20
18.0
 30
0.0
 11
44.0
 21
18.0
 31
0.0
  0
LINE
  8
0
 10
14.0
 20
24.0
 30
0.0
 11
14.0
 21
0.0
 31
0.0
  0
LINE
  8
0
 10
0.0
 20
24.0
 30
0.0
 11
44.0
 21
24.0
 31
0.0
  0
LINE
  8
0
 10
44.0
 20
0.0
 30
0.0
 11
44.0
 21
30.0
 31
0.0
  0
LINE
  8
0
 10
0.0
 20
0.0
 30
0.0
 11
44.0
 21
0.0
 31
0.0
  0
LINE
  8
0
 10
0.0
 20
30.0
 30
0.0
 11
0.0
 21
0.0
 31
0.0
  0
LINE
  8
0
 10
44.0
 20
30.0
 30
0.0
 11
0.0
 21
30.0
 31
0.0
  0
ENDBLK
  8
0
  0
BLOCK
  8
0
  2
*X13
 70
    65
 10
0.0
 20
0.0
 30
0.0
  3
*X
  0
LINE
  8
0
  6
CONTINUOUS
 62
     0
 10
78.706597
 20
140.0
 30
0.0
 11
80.0
 21
140.0
 31
0.0
  0
ENDBLK
  8
0
  0
BLOCK
  8
0
  2
ABBA3V
 70
    64
 10
0.0
 20
0.0
 30
0.0
  3
ABBA3V
  0
TEXT
  8
RAAMI
  6
DASHED
 10
292.217194
 20
11.813359
 30
0.0
 40
3.0
  1
A3
  7
GREEKS
  0
TEXT
  8
RAAMI
  6
DASHED
 10
351.818577
 20
15.69253
 30
0.0
 40
1.4
  1
LEHTI SHEET
  7
GREEKS
  0
LINE
  8
PAKSU
 10
0.237099
 20
262.737999
 30
0.0
 11
392.237099
 21
262.737999
 31
0.0
  0
LINE
  8
RAAMI
 10
18.237099
 20
0.237999
 30
0.0
 11
0.237099
 21
0.237999
 31
0.0
  0
LINE
  8
PAKSU
 10
209.237099
 20
0.237999
 30
0.0
 11
392.237099
 21
0.237999
 31
0.0
  0
LINE
  8
PAKSU
 10
209.237099
 20
0.237999
 30
0.0
 11
209.237099
 21
35.237999
 31
0.0
  0
LINE
  8
PAKSU
 10
392.237099
 20
0.237999
 30
0.0
 11
392.237099
 21
35.237999
 31
0.0
  0
LINE
  8
OHUT
 10
209.237099
 20
18.237999
 30
0.0
 11
392.237099
 21
18.237999
 31
0.0
  0
LINE
  8
OHUT
 10
209.237099
 20
9.737999
 30
0.0
 11
392.237099
 21
9.737999
 31
0.0
  0
LINE
  8
OHUT
 10
209.237099
 20
26.737999
 30
0.0
 11
307.237099
 21
26.737999
 31
0.0
  0
LINE
  8
PAKSU
 10
209.237099
 20
35.237999
 30
0.0
 11
392.237099
 21
35.237999
 31
0.0
  0
TEXT
  8
RAAMI
 10
210.237099
 20
23.971333
 30
0.0
 40
1.4
  1
TARKASTI  CHECKED
  7
ROMANS
  0
TEXT
  8
RAAMI
 10
209.979934
 20
15.704666
 30
0.0
 40
1.4
  1
HYVÄKSYI  APPROVED
  7
ROMANS
  0
LINE
  8
OHUT
 10
307.237099
 20
0.237999
 30
0.0
 11
307.237099
 21
35.237999
 31
0.0
  0
TEXT
  8
RAAMI
 10
259.237099
 20
32.737999
 30
0.0
 40
1.4
  1
LIITTYY  CONCERNING
  7
ROMANS
  0
TEXT
  8
RAAMI
 10
259.237099
 20
23.737999
 30
0.0
 40
1.4
  1
TOLERANSSIT  TOLERANCES
  7
ROMANS
  0
TEXT
  8
RAAMI
 10
259.237099
 20
15.737999
 30
0.0
 40
1.4
  1
SUHDE  SCALE
  7
ROMANS
  0
TEXT
  8
RAAMI
 10
309.237099
 20
32.737999
 30
0.0
 40
1.4
  1
NIMITYS  NAME
  7
ROMANS
  0
TEXT
  8
RAAMI
 10
309.237099
 20
15.737999
 30
0.0
 40
1.4
  1
KOODI  CODE
  7
ROMANS
  0
TEXT
  8
RAAMI
 10
309.237099
 20
7.237999
 30
0.0
 40
1.4
  1
PIIRUSTUS NO  DRAWING NR
  7
ROMANS
  0
LINE
  8
OHUT
 10
349.737099
 20
9.737999
 30
0.0
 11
349.737099
 21
18.237999
 31
0.0
  0
TEXT
  8
RAAMI
 10
371.237099
 20
7.237999
 30
0.0
 40
1.4
  1
PAINOS  REVISION
  7
ROMANS
  0
LINE
  8
OHUT
 10
369.737099
 20
9.737999
 30
0.0
 11
369.737099
 21
0.237999
 31
0.0
  0
LINE
  8
RAAMI
 10
210.187099
 20
1.737999
 30
0.0
 11
211.937099
 21
1.737999
 31
0.0
  0
LINE
  8
RAAMI
 10
215.437099
 20
1.737999
 30
0.0
 11
217.187099
 21
1.737999
 31
0.0
  0
LINE
  8
RAAMI
 10
212.637099
 20
8.737999
 30
0.0
 11
211.459571
 21
5.373634
 31
0.0
  0
LINE
  8
RAAMI
 10
212.425886
 20
3.137999
 30
0.0
 11
213.547099
 21
3.137999
 31
0.0
  0
LINE
  8
RAAMI
 10
212.425889
 20
3.134542
 30
0.0
 11
211.937099
 21
1.737999
 31
0.0
  0
LINE
  8
RAAMI
 10
214.737099
 20
8.737999
 30
0.0
 11
215.913452
 21
5.376991
 31
0.0
  0
LINE
  8
RAAMI
 10
214.948197
 20
3.134863
 30
0.0
 11
215.437099
 21
1.737999
 31
0.0
  0
LINE
  8
RAAMI
 10
214.737099
 20
8.737999
 30
0.0
 11
213.827099
 21
8.737999
 31
0.0
  0
LINE
  8
RAAMI
 10
213.547099
 20
8.737999
 30
0.0
 11
213.547099
 21
5.377999
 31
0.0
  0
LINE
  8
RAAMI
 10
213.827099
 20
8.737999
 30
0.0
 11
213.827099
 21
5.377999
 31
0.0
  0
LINE
  8
RAAMI
 10
213.827099
 20
3.137999
 30
0.0
 11
214.946992
 21
3.137999
 31
0.0
  0
LINE
  8
RAAMI
 10
213.547099
 20
8.737999
 30
0.0
 11
212.637099
 21
8.737999
 31
0.0
  0
LINE
  8
RAAMI
 10
211.45904
 20
5.377999
 30
0.0
 11
213.547099
 21
5.377999
 31
0.0
  0
LINE
  8
RAAMI
 10
211.360082
 20
5.097999
 30
0.0
 11
213.547099
 21
5.097999
 31
0.0
  0
LINE
  8
RAAMI
 10
216.011591
 20
5.096594
 30
0.0
 11
217.187099
 21
1.737999
 31
0.0
  0
LINE
  8
RAAMI
 10
213.827099
 20
5.377999
 30
0.0
 11
215.912213
 21
5.377999
 31
0.0
  0
LINE
  8
RAAMI
 10
213.827099
 20
5.097999
 30
0.0
 11
216.010356
 21
5.097999
 31
0.0
  0
LINE
  8
RAAMI
 10
213.827099
 20
5.097999
 30
0.0
 11
213.827099
 21
3.137999
 31
0.0
  0
LINE
  8
RAAMI
 10
213.547099
 20
5.097999
 30
0.0
 11
213.547099
 21
3.137999
 31
0.0
  0
LINE
  8
RAAMI
 10
211.356988
 20
5.080538
 30
0.0
 11
210.187099
 21
1.737999
 31
0.0
  0
INSERT
  8
RAAMI
  2
*X15
 10
210.187099
 20
1.737999
 30
0.0
 41
0.7
 42
0.7
 43
0.7
  0
INSERT
  8
RAAMI
  2
*X16
 10
210.187099
 20
1.737999
 30
0.0
 41
0.7
 42
0.7
 43
0.7
  0
INSERT
  8
RAAMI
  2
*X17
 10
210.187099
 20
1.737999
 30
0.0
 41
0.7
 42
0.7
 43
0.7
  0
INSERT
  8
RAAMI
  2
*X18
 10
210.187099
 20
1.737999
 30
0.0
 41
0.7
 42
0.7
 43
0.7
  0
LINE
  8
RAAMI
 10
217.677099
 20
1.737999
 30
0.0
 11
217.677099
 21
5.097999
 31
0.0
  0
LINE
  8
RAAMI
 10
217.677099
 20
8.737999
 30
0.0
 11
219.637099
 21
8.737999
 31
0.0
  0
LINE
  8
RAAMI
 10
219.637099
 20
8.737999
 30
0.0
 11
219.637099
 21
5.377999
 31
0.0
  0
LINE
  8
RAAMI
 10
219.637099
 20
5.377999
 30
0.0
 11
217.677099
 21
5.377999
 31
0.0
  0
LINE
  8
RAAMI
 10
217.677099
 20
5.097999
 30
0.0
 11
219.637099
 21
5.097999
 31
0.0
  0
LINE
  8
RAAMI
 10
219.637099
 20
5.097999
 30
0.0
 11
219.637099
 21
1.737999
 31
0.0
  0
LINE
  8
RAAMI
 10
219.637099
 20
1.737999
 30
0.0
 11
217.677099
 21
1.737999
 31
0.0
  0
LINE
  8
RAAMI
 10
217.677099
 20
5.377999
 30
0.0
 11
217.677099
 21
8.737999
 31
0.0
  0
ARC
  8
RAAMI
 10
220.477099
 20
7.162999
 30
0.0
 40
1.575
 50
298.455859
 51
90.052437
  0
LINE
  8
RAAMI
 10
219.917099
 20
8.737999
 30
0.0
 11
220.475658
 21
8.737999
 31
0.0
  0
LINE
  8
RAAMI
 10
219.917099
 20
8.737999
 30
0.0
 11
219.917099
 21
5.377999
 31
0.0
  0
LINE
  8
RAAMI
 10
219.917099
 20
5.377999
 30
0.0
 11
221.901542
 21
5.377999
 31
0.0
  0
LINE
  8
RAAMI
 10
222.157099
 20
5.097999
 30
0.0
 11
219.917099
 21
5.097999
 31
0.0
  0
LINE
  8
RAAMI
 10
219.917099
 20
5.097999
 30
0.0
 11
219.917099
 21
1.737999
 31
0.0
  0
ARC
  8
RAAMI
 10
220.477099
 20
3.837999
 30
0.0
 40
2.1
 50
269.937724
 51
37.056553
  0
LINE
  8
RAAMI
 10
219.917099
 20
1.737999
 30
0.0
 11
220.474817
 21
1.738
 31
0.0
  0
ARC
  8
RAAMI
 10
220.477099
 20
3.837999
 30
0.0
 40
2.1
 50
47.28622
 51
68.787999
  0
INSERT
  8
RAAMI
  2
*X19
 10
210.187099
 20
1.737999
 30
0.0
 41
0.7
 42
0.7
 43
0.7
  0
INSERT
  8
RAAMI
  2
*X20
 10
210.187099
 20
1.737999
 30
0.0
 41
0.7
 42
0.7
 43
0.7
  0
INSERT
  8
RAAMI
  2
*X21
 10
210.187099
 20
1.737999
 30
0.0
 41
0.7
 42
0.7
 43
0.7
  0
INSERT
  8
RAAMI
  2
*X22
 10
210.187099
 20
1.737999
 30
0.0
 41
0.7
 42
0.7
 43
0.7
  0
INSERT
  8
RAAMI
  2
*X22
 10
215.647099
 20
1.737999
 30
0.0
 41
0.7
 42
0.7
 43
0.7
  0
INSERT
  8
RAAMI
  2
*X21
 10
215.647099
 20
1.737999
 30
0.0
 41
0.7
 42
0.7
 43
0.7
  0
INSERT
  8
RAAMI
  2
*X20
 10
215.647099
 20
1.737999
 30
0.0
 41
0.7
 42
0.7
 43
0.7
  0
INSERT
  8
RAAMI
  2
*X19
 10
215.647099
 20
1.737999
 30
0.0
 41
0.7
 42
0.7
 43
0.7
  0
ARC
  8
RAAMI
 10
225.937099
 20
3.837999
 30
0.0
 40
2.1
 50
47.28622
 51
68.787999
  0
LINE
  8
RAAMI
 10
225.377099
 20
1.737999
 30
0.0
 11
225.934817
 21
1.738
 31
0.0
  0
ARC
  8
RAAMI
 10
225.937099
 20
3.837999
 30
0.0
 40
2.1
 50
269.937724
 51
37.056553
  0
LINE
  8
RAAMI
 10
225.377099
 20
5.097999
 30
0.0
 11
225.377099
 21
1.737999
 31
0.0
  0
LINE
  8
RAAMI
 10
227.617099
 20
5.097999
 30
0.0
 11
225.377099
 21
5.097999
 31
0.0
  0
LINE
  8
RAAMI
 10
225.377099
 20
5.377999
 30
0.0
 11
227.361542
 21
5.377999
 31
0.0
  0
LINE
  8
RAAMI
 10
225.377099
 20
8.737999
 30
0.0
 11
225.377099
 21
5.377999
 31
0.0
  0
LINE
  8
RAAMI
 10
225.377099
 20
8.737999
 30
0.0
 11
225.935658
 21
8.737999
 31
0.0
  0
ARC
  8
RAAMI
 10
225.937099
 20
7.162999
 30
0.0
 40
1.575
 50
298.455859
 51
90.052437
  0
LINE
  8
RAAMI
 10
223.137099
 20
5.377999
 30
0.0
 11
223.137099
 21
8.737999
 31
0.0
  0
LINE
  8
RAAMI
 10
225.097099
 20
1.737999
 30
0.0
 11
223.137099
 21
1.737999
 31
0.0
  0
LINE
  8
RAAMI
 10
225.097099
 20
5.097999
 30
0.0
 11
225.097099
 21
1.737999
 31
0.0
  0
LINE
  8
RAAMI
 10
223.137099
 20
5.097999
 30
0.0
 11
225.097099
 21
5.097999
 31
0.0
  0
LINE
  8
RAAMI
 10
225.097099
 20
5.377999
 30
0.0
 11
223.137099
 21
5.377999
 31
0.0
  0
LINE
  8
RAAMI
 10
225.097099
 20
8.737999
 30
0.0
 11
225.097099
 21
5.377999
 31
0.0
  0
LINE
  8
RAAMI
 10
223.137099
 20
8.737999
 30
0.0
 11
225.097099
 21
8.737999
 31
0.0
  0
LINE
  8
RAAMI
 10
223.137099
 20
1.737999
 30
0.0
 11
223.137099
 21
5.097999
 31
0.0
  0
TEXT
  8
RAAMI
 10
229.737099
 20
1.737999
 30
0.0
 40
3.0
  1
ABB 
 41
0.8
  7
ROMANS
  0
TEXT
  8
RAAMI
 10
237.737099
 20
1.737999
 30
0.0
 40
3.0
  1
Strömberg
 41
0.8
  7
ROMANS
  0
LINE
  8
OHUT
 10
282.237099
 20
9.737999
 30
0.0
 11
282.237099
 21
18.237999
 31
0.0
  0
TEXT
  8
RAAMI
 10
27.737099
 20
4.737999
 30
0.0
 40
1.4
  1
MUUTOS
  7
ROMANS
  0
TEXT
  8
RAAMI
 10
27.737099
 20
2.471333
 30
0.0
 40
1.4
  1
REVISION
  7
ROMANS
  0
LINE
  8
OHUT
 10
46.737099
 20
9.237999
 30
0.0
 11
209.237099
 21
9.237999
 31
0.0
  0
LINE
  8
OHUT
 10
46.737099
 20
0.237999
 30
0.0
 11
46.737099
 21
9.237999
 31
0.0
  0
LINE
  8
OHUT
 10
40.737099
 20
4.737999
 30
0.0
 11
209.237099
 21
4.737999
 31
0.0
  0
LINE
  8
OHUT
 10
257.237099
 20
9.737999
 30
0.0
 11
257.237099
 21
35.237999
 31
0.0
  0
LINE
  8
OHUT
 10
271.237099
 20
9.737999
 30
0.0
 11
271.237099
 21
0.237999
 31
0.0
  0
TEXT
  8
RAAMI
 10
210.237099
 20
32.237999
 30
0.0
 40
1.4
  1
TEKI  PREPARED
  7
ROMANS
  0
TEXT
  8
RAAMI
 10
273.237099
 20
7.237999
 30
0.0
 40
1.4
  1
VAST.OSASTO RESP.DEPT.
  7
ROMANS
  0
TEXT
  8
RAAMI
 10
257.407006
 20
1.741783
 30
0.0
 40
3.0
  1
Power
 41
0.8
  7
ROMANS
  0
TEXT
  8
RAAMI
 10
42.237099
 20
1.195292
 30
0.0
 40
2.5
  1
B
  7
ROMANS
  0
TEXT
  8
RAAMI
 10
42.237099
 20
5.587508
 30
0.0
 40
2.5
  1
C
  7
ROMANS
  0
LINE
  8
PAKSU
 10
0.237099
 20
0.237999
 30
0.0
 11
392.237099
 21
0.237999
 31
0.0
  0
LINE
  8
PAKSU
 10
392.237099
 20
262.737999
 30
0.0
 11
392.237099
 21
0.237999
 31
0.0
  0
LINE
  8
PAKSU
 10
0.237099
 20
0.237999
 30
0.0
 11
0.237099
 21
262.737999
 31
0.0
  0
ENDBLK
  8
0
  0
BLOCK
  8
0
  2
*X15
 70
    65
 10
0.0
 20
0.0
 30
0.0
  3
*X
  0
LINE
  8
0
 62
     0
 10
2.284499
 20
6.52714
 30
0.0
 11
4.8
 21
9.042641
 31
0.0
  0
LINE
  8
0
 62
     0
 10
2.379686
 20
6.799104
 30
0.0
 11
4.8
 21
9.219417
 31
0.0
  0
LINE
  8
0
 62
     0
 10
2.474874
 20
7.071068
 30
0.0
 11
4.8
 21
9.396194
 31
0.0
  0
LINE
  8
0
 62
     0
 10
2.570061
 20
7.343032
 30
0.0
 11
4.8
 21
9.572971
 31
0.0
  0
LINE
  8
0
 62
     0
 10
2.665249
 20
7.614996
 30
0.0
 11
4.8
 21
9.749747
 31
0.0
  0
LINE
  8
0
 62
     0
 10
2.760436
 20
7.88696
 30
0.0
 11
4.8
 21
9.926524
 31
0.0
  0
LINE
  8
0
 62
     0
 10
2.855624
 20
8.158924
 30
0.0
 11
4.696699
 21
10.0
 31
0.0
  0
LINE
  8
0
 62
     0
 10
2.950811
 20
8.430889
 30
0.0
 11
4.519922
 21
10.0
 31
0.0
  0
LINE
  8
0
 62
     0
 10
3.045998
 20
8.702853
 30
0.0
 11
4.343146
 21
10.0
 31
0.0
  0
LINE
  8
0
 62
     0
 10
3.141186
 20
8.974817
 30
0.0
 11
4.166369
 21
10.0
 31
0.0
  0
LINE
  8
0
 62
     0
 10
3.236373
 20
9.246781
 30
0.0
 11
3.989592
 21
10.0
 31
0.0
  0
LINE
  8
0
 62
     0
 10
3.331561
 20
9.518745
 30
0.0
 11
3.812816
 21
10.0
 31
0.0
  0
LINE
  8
0
 62
     0
 10
3.426748
 20
9.790709
 30
0.0
 11
3.636039
 21
10.0
 31
0.0
  0
LINE
  8
0
 62
     0
 10
2.189311
 20
6.255175
 30
0.0
 11
4.8
 21
8.865864
 31
0.0
  0
LINE
  8
0
 62
     0
 10
2.094124
 20
5.983211
 30
0.0
 11
4.8
 21
8.689087
 31
0.0
  0
LINE
  8
0
 62
     0
 10
1.998936
 20
5.711247
 30
0.0
 11
4.8
 21
8.512311
 31
0.0
  0
LINE
  8
0
 62
     0
 10
1.903749
 20
5.439283
 30
0.0
 11
4.8
 21
8.335534
 31
0.0
  0
LINE
  8
0
 62
     0
 10
1.841243
 20
5.2
 30
0.0
 11
4.8
 21
8.158757
 31
0.0
  0
LINE
  8
0
 62
     0
 10
2.018019
 20
5.2
 30
0.0
 11
4.8
 21
7.981981
 31
0.0
  0
LINE
  8
0
 62
     0
 10
2.194796
 20
5.2
 30
0.0
 11
4.8
 21
7.805204
 31
0.0
  0
LINE
  8
0
 62
     0
 10
2.371573
 20
5.2
 30
0.0
 11
4.8
 21
7.628427
 31
0.0
  0
LINE
  8
0
 62
     0
 10
2.54835
 20
5.2
 30
0.0
 11
4.8
 21
7.45165
 31
0.0
  0
LINE
  8
0
 62
     0
 10
2.725126
 20
5.2
 30
0.0
 11
4.8
 21
7.274874
 31
0.0
  0
LINE
  8
0
 62
     0
 10
2.901903
 20
5.2
 30
0.0
 11
4.8
 21
7.098097
 31
0.0
  0
LINE
  8
0
 62
     0
 10
3.07868
 20
5.2
 30
0.0
 11
4.8
 21
6.92132
 31
0.0
  0
LINE
  8
0
 62
     0
 10
3.255456
 20
5.2
 30
0.0
 11
4.8
 21
6.744544
 31
0.0
  0
LINE
  8
0
 62
     0
 10
3.432233
 20
5.2
 30
0.0
 11
4.8
 21
6.567767
 31
0.0
  0
LINE
  8
0
 62
     0
 10
3.60901
 20
5.2
 30
0.0
 11
4.8
 21
6.39099
 31
0.0
  0
LINE
  8
0
 62
     0
 10
3.785786
 20
5.2
 30
0.0
 11
4.8
 21
6.214214
 31
0.0
  0
LINE
  8
0
 62
     0
 10
3.962563
 20
5.2
 30
0.0
 11
4.8
 21
6.037437
 31
0.0
  0
LINE
  8
0
 62
     0
 10
4.13934
 20
5.2
 30
0.0
 11
4.8
 21
5.86066
 31
0.0
  0
LINE
  8
0
 62
     0
 10
4.316117
 20
5.2
 30
0.0
 11
4.8
 21
5.683883
 31
0.0
  0
LINE
  8
0
 62
     0
 10
4.492893
 20
5.2
 30
0.0
 11
4.8
 21
5.507107
 31
0.0
  0
LINE
  8
0
 62
     0
 10
4.66967
 20
5.2
 30
0.0
 11
4.8
 21
5.33033
 31
0.0
  0
ENDBLK
  8
0
  0
BLOCK
  8
0
  2
*X16
 70
    65
 10
0.0
 20
0.0
 30
0.0
  3
*X
  0
LINE
  8
0
 62
     0
 10
5.2
 20
6.083883
 30
0.0
 11
7.178252
 21
8.062136
 31
0.0
  0
LINE
  8
0
 62
     0
 10
5.2
 20
6.26066
 30
0.0
 11
7.132421
 21
8.193082
 31
0.0
  0
LINE
  8
0
 62
     0
 10
5.2
 20
6.437437
 30
0.0
 11
7.08659
 21
8.324027
 31
0.0
  0
LINE
  8
0
 62
     0
 10
5.2
 20
6.614214
 30
0.0
 11
7.040759
 21
8.454973
 31
0.0
  0
LINE
  8
0
 62
     0
 10
5.2
 20
6.79099
 30
0.0
 11
6.994928
 21
8.585919
 31
0.0
  0
LINE
  8
0
 62
     0
 10
5.2
 20
6.967767
 30
0.0
 11
6.949097
 21
8.716864
 31
0.0
  0
LINE
  8
0
 62
     0
 10
5.2
 20
7.144544
 30
0.0
 11
6.903266
 21
8.84781
 31
0.0
  0
LINE
  8
0
 62
     0
 10
5.2
 20
7.32132
 30
0.0
 11
6.857435
 21
8.978756
 31
0.0
  0
LINE
  8
0
 62
     0
 10
5.2
 20
7.498097
 30
0.0
 11
6.811604
 21
9.109702
 31
0.0
  0
LINE
  8
0
 62
     0
 10
5.2
 20
7.674874
 30
0.0
 11
6.765773
 21
9.240647
 31
0.0
  0
LINE
  8
0
 62
     0
 10
5.2
 20
7.85165
 30
0.0
 11
6.719942
 21
9.371593
 31
0.0
  0
LINE
  8
0
 62
     0
 10
5.2
 20
8.028427
 30
0.0
 11
6.674111
 21
9.502539
 31
0.0
  0
LINE
  8
0
 62
     0
 10
5.2
 20
8.205204
 30
0.0
 11
6.62828
 21
9.633484
 31
0.0
  0
LINE
  8
0
 62
     0
 10
5.2
 20
8.381981
 30
0.0
 11
6.582449
 21
9.76443
 31
0.0
  0
LINE
  8
0
 62
     0
 10
5.2
 20
8.558757
 30
0.0
 11
6.536619
 21
9.895376
 31
0.0
  0
LINE
  8
0
 62
     0
 10
5.2
 20
8.735534
 30
0.0
 11
6.464466
 21
10.0
 31
0.0
  0
LINE
  8
0
 62
     0
 10
5.2
 20
8.912311
 30
0.0
 11
6.287689
 21
10.0
 31
0.0
  0
LINE
  8
0
 62
     0
 10
5.2
 20
9.089087
 30
0.0
 11
6.110913
 21
10.0
 31
0.0
  0
LINE
  8
0
 62
     0
 10
5.2
 20
9.265864
 30
0.0
 11
5.934136
 21
10.0
 31
0.0
  0
LINE
  8
0
 62
     0
 10
5.2
 20
9.442641
 30
0.0
 11
5.757359
 21
10.0
 31
0.0
  0
LINE
  8
0
 62
     0
 10
5.2
 20
9.619417
 30
0.0
 11
5.580583
 21
10.0
 31
0.0
  0
LINE
  8
0
 62
     0
 10
5.2
 20
9.796194
 30
0.0
 11
5.403806
 21
10.0
 31
0.0
  0
LINE
  8
0
 62
     0
 10
5.2
 20
9.972971
 30
0.0
 11
5.227029
 21
10.0
 31
0.0
  0
LINE
  8
0
 62
     0
 10
5.2
 20
5.907107
 30
0.0
 11
7.224083
 21
7.93119
 31
0.0
  0
LINE
  8
0
 62
     0
 10
5.2
 20
5.73033
 30
0.0
 11
7.269914
 21
7.800245
 31
0.0
  0
LINE
  8
0
 62
     0
 10
5.2
 20
5.553553
 30
0.0
 11
7.315745
 21
7.669299
 31
0.0
  0
LINE
  8
0
 62
     0
 10
5.2
 20
5.376777
 30
0.0
 11
7.361576
 21
7.538353
 31
0.0
  0
LINE
  8
0
 62
     0
 10
5.2
 20
5.2
 30
0.0
 11
7.407407
 21
7.407407
 31
0.0
  0
LINE
  8
0
 62
     0
 10
5.376777
 20
5.2
 30
0.0
 11
7.453238
 21
7.276462
 31
0.0
  0
LINE
  8
0
 62
     0
 10
5.553553
 20
5.2
 30
0.0
 11
7.499069
 21
7.145516
 31
0.0
  0
LINE
  8
0
 62
     0
 10
5.73033
 20
5.2
 30
0.0
 11
7.5449
 21
7.01457
 31
0.0
  0
LINE
  8
0
 62
     0
 10
5.907107
 20
5.2
 30
0.0
 11
7.590731
 21
6.883625
 31
0.0
  0
LINE
  8
0
 62
     0
 10
6.083883
 20
5.2
 30
0.0
 11
7.636562
 21
6.752679
 31
0.0
  0
LINE
  8
0
 62
     0
 10
6.26066
 20
5.2
 30
0.0
 11
7.682393
 21
6.621733
 31
0.0
  0
LINE
  8
0
 62
     0
 10
6.437437
 20
5.2
 30
0.0
 11
7.728224
 21
6.490788
 31
0.0
  0
LINE
  8
0
 62
     0
 10
6.614214
 20
5.2
 30
0.0
 11
7.774055
 21
6.359842
 31
0.0
  0
LINE
  8
0
 62
     0
 10
6.79099
 20
5.2
 30
0.0
 11
7.819886
 21
6.228896
 31
0.0
  0
LINE
  8
0
 62
     0
 10
6.967767
 20
5.2
 30
0.0
 11
7.865717
 21
6.09795
 31
0.0
  0
LINE
  8
0
 62
     0
 10
7.144544
 20
5.2
 30
0.0
 11
7.911548
 21
5.967005
 31
0.0
  0
LINE
  8
0
 62
     0
 10
7.32132
 20
5.2
 30
0.0
 11
7.957379
 21
5.836059
 31
0.0
  0
LINE
  8
0
 62
     0
 10
7.498097
 20
5.2
 30
0.0
 11
8.00321
 21
5.705113
 31
0.0
  0
LINE
  8
0
 62
     0
 10
7.674874
 20
5.2
 30
0.0
 11
8.049041
 21
5.574168
 31
0.0
  0
LINE
  8
0
 62
     0
 10
7.85165
 20
5.2
 30
0.0
 11
8.094872
 21
5.443222
 31
0.0
  0
LINE
  8
0
 62
     0
 10
8.028427
 20
5.2
 30
0.0
 11
8.140703
 21
5.312276
 31
0.0
  0
ENDBLK
  8
0
  0
BLOCK
  8
0
  2
*X17
 70
    65
 10
0.0
 20
0.0
 30
0.0
  3
*X
  0
LINE
  8
0
 62
     0
 10
0.0
 20
0.0
 30
0.0
 11
4.8
 21
4.8
 31
0.0
  0
LINE
  8
0
 62
     0
 10
0.095187
 20
0.271964
 30
0.0
 11
4.623223
 21
4.8
 31
0.0
  0
LINE
  8
0
 62
     0
 10
0.190375
 20
0.543928
 30
0.0
 11
4.446447
 21
4.8
 31
0.0
  0
LINE
  8
0
 62
     0
 10
0.285562
 20
0.815892
 30
0.0
 11
4.26967
 21
4.8
 31
0.0
  0
LINE
  8
0
 62
     0
 10
0.38075
 20
1.087857
 30
0.0
 11
4.092893
 21
4.8
 31
0.0
  0
LINE
  8
0
 62
     0
 10
0.475937
 20
1.359821
 30
0.0
 11
3.916117
 21
4.8
 31
0.0
  0
LINE
  8
0
 62
     0
 10
0.571125
 20
1.631785
 30
0.0
 11
3.73934
 21
4.8
 31
0.0
  0
LINE
  8
0
 62
     0
 10
0.666312
 20
1.903749
 30
0.0
 11
3.562563
 21
4.8
 31
0.0
  0
LINE
  8
0
 62
     0
 10
0.7615
 20
2.175713
 30
0.0
 11
3.385786
 21
4.8
 31
0.0
  0
LINE
  8
0
 62
     0
 10
0.856687
 20
2.447677
 30
0.0
 11
3.20901
 21
4.8
 31
0.0
  0
LINE
  8
0
 62
     0
 10
0.951875
 20
2.719641
 30
0.0
 11
3.032233
 21
4.8
 31
0.0
  0
LINE
  8
0
 62
     0
 10
1.047062
 20
2.991606
 30
0.0
 11
2.855456
 21
4.8
 31
0.0
  0
LINE
  8
0
 62
     0
 10
1.142249
 20
3.26357
 30
0.0
 11
2.67868
 21
4.8
 31
0.0
  0
LINE
  8
0
 62
     0
 10
1.237437
 20
3.535534
 30
0.0
 11
2.501903
 21
4.8
 31
0.0
  0
LINE
  8
0
 62
     0
 10
1.332624
 20
3.807498
 30
0.0
 11
2.325126
 21
4.8
 31
0.0
  0
LINE
  8
0
 62
     0
 10
1.427812
 20
4.079462
 30
0.0
 11
2.14835
 21
4.8
 31
0.0
  0
LINE
  8
0
 62
     0
 10
1.522999
 20
4.351426
 30
0.0
 11
1.971573
 21
4.8
 31
0.0
  0
LINE
  8
0
 62
     0
 10
1.618187
 20
4.62339
 30
0.0
 11
1.794796
 21
4.8
 31
0.0
  0
LINE
  8
0
 62
     0
 10
0.176777
 20
0.0
 30
0.0
 11
4.8
 21
4.623223
 31
0.0
  0
LINE
  8
0
 62
     0
 10
0.353553
 20
0.0
 30
0.0
 11
4.8
 21
4.446447
 31
0.0
  0
LINE
  8
0
 62
     0
 10
0.53033
 20
0.0
 30
0.0
 11
4.8
 21
4.26967
 31
0.0
  0
LINE
  8
0
 62
     0
 10
0.707107
 20
0.0
 30
0.0
 11
4.8
 21
4.092893
 31
0.0
  0
LINE
  8
0
 62
     0
 10
0.883883
 20
0.0
 30
0.0
 11
4.8
 21
3.916117
 31
0.0
  0
LINE
  8
0
 62
     0
 10
1.06066
 20
0.0
 30
0.0
 11
4.8
 21
3.73934
 31
0.0
  0
LINE
  8
0
 62
     0
 10
1.237437
 20
0.0
 30
0.0
 11
3.179842
 21
1.942405
 31
0.0
  0
LINE
  8
0
 62
     0
 10
3.237437
 20
2.0
 30
0.0
 11
4.8
 21
3.562563
 31
0.0
  0
LINE
  8
0
 62
     0
 10
1.414214
 20
0.0
 30
0.0
 11
3.084654
 21
1.670441
 31
0.0
  0
LINE
  8
0
 62
     0
 10
3.414214
 20
2.0
 30
0.0
 11
4.8
 21
3.385786
 31
0.0
  0
LINE
  8
0
 62
     0
 10
1.59099
 20
0.0
 30
0.0
 11
2.989467
 21
1.398477
 31
0.0
  0
LINE
  8
0
 62
     0
 10
3.59099
 20
2.0
 30
0.0
 11
4.8
 21
3.20901
 31
0.0
  0
LINE
  8
0
 62
     0
 10
1.767767
 20
0.0
 30
0.0
 11
2.894279
 21
1.126512
 31
0.0
  0
LINE
  8
0
 62
     0
 10
3.767767
 20
2.0
 30
0.0
 11
4.8
 21
3.032233
 31
0.0
  0
LINE
  8
0
 62
     0
 10
1.944544
 20
0.0
 30
0.0
 11
2.799092
 21
0.854548
 31
0.0
  0
LINE
  8
0
 62
     0
 10
3.944544
 20
2.0
 30
0.0
 11
4.8
 21
2.855456
 31
0.0
  0
LINE
  8
0
 62
     0
 10
2.12132
 20
0.0
 30
0.0
 11
2.703904
 21
0.582584
 31
0.0
  0
LINE
  8
0
 62
     0
 10
4.12132
 20
2.0
 30
0.0
 11
4.8
 21
2.67868
 31
0.0
  0
LINE
  8
0
 62
     0
 10
2.298097
 20
0.0
 30
0.0
 11
2.608717
 21
0.31062
 31
0.0
  0
LINE
  8
0
 62
     0
 10
4.298097
 20
2.0
 30
0.0
 11
4.8
 21
2.501903
 31
0.0
  0
LINE
  8
0
 62
     0
 10
2.474874
 20
0.0
 30
0.0
 11
2.51353
 21
0.038656
 31
0.0
  0
LINE
  8
0
 62
     0
 10
4.474874
 20
2.0
 30
0.0
 11
4.8
 21
2.325126
 31
0.0
  0
LINE
  8
0
 62
     0
 10
4.65165
 20
2.0
 30
0.0
 11
4.8
 21
2.14835
 31
0.0
  0
ENDBLK
  8
0
  0
BLOCK
  8
0
  2
*X18
 70
    65
 10
0.0
 20
0.0
 30
0.0
  3
*X
  0
LINE
  8
0
 62
     0
 10
6.884654
 20
1.75813
 30
0.0
 11
8.736506
 21
3.609982
 31
0.0
  0
LINE
  8
0
 62
     0
 10
6.838823
 20
1.889076
 30
0.0
 11
8.690675
 21
3.740928
 31
0.0
  0
LINE
  8
0
 62
     0
 10
6.772971
 20
2.0
 30
0.0
 11
8.644844
 21
3.871874
 31
0.0
  0
LINE
  8
0
 62
     0
 10
6.596194
 20
2.0
 30
0.0
 11
8.599013
 21
4.002819
 31
0.0
  0
LINE
  8
0
 62
     0
 10
6.419417
 20
2.0
 30
0.0
 11
8.553182
 21
4.133765
 31
0.0
  0
LINE
  8
0
 62
     0
 10
6.242641
 20
2.0
 30
0.0
 11
8.507351
 21
4.264711
 31
0.0
  0
LINE
  8
0
 62
     0
 10
6.065864
 20
2.0
 30
0.0
 11
8.46152
 21
4.395656
 31
0.0
  0
LINE
  8
0
 62
     0
 10
5.889087
 20
2.0
 30
0.0
 11
8.415689
 21
4.526602
 31
0.0
  0
LINE
  8
0
 62
     0
 10
5.712311
 20
2.0
 30
0.0
 11
8.369858
 21
4.657548
 31
0.0
  0
LINE
  8
0
 62
     0
 10
5.535534
 20
2.0
 30
0.0
 11
8.324027
 21
4.788493
 31
0.0
  0
LINE
  8
0
 62
     0
 10
5.358757
 20
2.0
 30
0.0
 11
8.158757
 21
4.8
 31
0.0
  0
LINE
  8
0
 62
     0
 10
5.2
 20
2.018019
 30
0.0
 11
7.981981
 21
4.8
 31
0.0
  0
LINE
  8
0
 62
     0
 10
5.2
 20
2.194796
 30
0.0
 11
7.805204
 21
4.8
 31
0.0
  0
LINE
  8
0
 62
     0
 10
5.2
 20
2.371573
 30
0.0
 11
7.628427
 21
4.8
 31
0.0
  0
LINE
  8
0
 62
     0
 10
5.2
 20
2.54835
 30
0.0
 11
7.45165
 21
4.8
 31
0.0
  0
LINE
  8
0
 62
     0
 10
5.2
 20
2.725126
 30
0.0
 11
7.274874
 21
4.8
 31
0.0
  0
LINE
  8
0
 62
     0
 10
5.2
 20
2.901903
 30
0.0
 11
7.098097
 21
4.8
 31
0.0
  0
LINE
  8
0
 62
     0
 10
5.2
 20
3.07868
 30
0.0
 11
6.92132
 21
4.8
 31
0.0
  0
LINE
  8
0
 62
     0
 10
5.2
 20
3.255456
 30
0.0
 11
6.744544
 21
4.8
 31
0.0
  0
LINE
  8
0
 62
     0
 10
5.2
 20
3.432233
 30
0.0
 11
6.567767
 21
4.8
 31
0.0
  0
LINE
  8
0
 62
     0
 10
5.2
 20
3.60901
 30
0.0
 11
6.39099
 21
4.8
 31
0.0
  0
LINE
  8
0
 62
     0
 10
5.2
 20
3.785786
 30
0.0
 11
6.214214
 21
4.8
 31
0.0
  0
LINE
  8
0
 62
     0
 10
5.2
 20
3.962563
 30
0.0
 11
6.037437
 21
4.8
 31
0.0
  0
LINE
  8
0
 62
     0
 10
5.2
 20
4.13934
 30
0.0
 11
5.86066
 21
4.8
 31
0.0
  0
LINE
  8
0
 62
     0
 10
5.2
 20
4.316117
 30
0.0
 11
5.683883
 21
4.8
 31
0.0
  0
LINE
  8
0
 62
     0
 10
5.2
 20
4.492893
 30
0.0
 11
5.507107
 21
4.8
 31
0.0
  0
LINE
  8
0
 62
     0
 10
5.2
 20
4.66967
 30
0.0
 11
5.33033
 21
4.8
 31
0.0
  0
LINE
  8
0
 62
     0
 10
6.930485
 20
1.627185
 30
0.0
 11
8.782337
 21
3.479036
 31
0.0
  0
LINE
  8
0
 62
     0
 10
6.976316
 20
1.496239
 30
0.0
 11
8.828168
 21
3.348091
 31
0.0
  0
LINE
  8
0
 62
     0
 10
7.022147
 20
1.365293
 30
0.0
 11
8.873999
 21
3.217145
 31
0.0
  0
LINE
  8
0
 62
     0
 10
7.067978
 20
1.234347
 30
0.0
 11
8.91983
 21
3.086199
 31
0.0
  0
LINE
  8
0
 62
     0
 10
7.113809
 20
1.103402
 30
0.0
 11
8.965661
 21
2.955254
 31
0.0
  0
LINE
  8
0
 62
     0
 10
7.15964
 20
0.972456
 30
0.0
 11
9.011492
 21
2.824308
 31
0.0
  0
LINE
  8
0
 62
     0
 10
7.205471
 20
0.84151
 30
0.0
 11
9.057323
 21
2.693362
 31
0.0
  0
LINE
  8
0
 62
     0
 10
7.251302
 20
0.710565
 30
0.0
 11
9.103154
 21
2.562416
 31
0.0
  0
LINE
  8
0
 62
     0
 10
7.297133
 20
0.579619
 30
0.0
 11
9.148985
 21
2.431471
 31
0.0
  0
LINE
  8
0
 62
     0
 10
7.342964
 20
0.448673
 30
0.0
 11
9.194816
 21
2.300525
 31
0.0
  0
LINE
  8
0
 62
     0
 10
7.388795
 20
0.317728
 30
0.0
 11
9.240647
 21
2.169579
 31
0.0
  0
LINE
  8
0
 62
     0
 10
7.434626
 20
0.186782
 30
0.0
 11
9.286478
 21
2.038634
 31
0.0
  0
LINE
  8
0
 62
     0
 10
7.480457
 20
0.055836
 30
0.0
 11
9.332309
 21
1.907688
 31
0.0
  0
LINE
  8
0
 62
     0
 10
7.601398
 20
0.0
 30
0.0
 11
9.37814
 21
1.776742
 31
0.0
  0
LINE
  8
0
 62
     0
 10
7.778175
 20
0.0
 30
0.0
 11
9.423971
 21
1.645797
 31
0.0
  0
LINE
  8
0
 62
     0
 10
7.954951
 20
0.0
 30
0.0
 11
9.469802
 21
1.514851
 31
0.0
  0
LINE
  8
0
 62
     0
 10
8.131728
 20
0.0
 30
0.0
 11
9.515633
 21
1.383905
 31
0.0
  0
LINE
  8
0
 62
     0
 10
8.308505
 20
0.0
 30
0.0
 11
9.561464
 21
1.252959
 31
0.0
  0
LINE
  8
0
 62
     0
 10
8.485281
 20
0.0
 30
0.0
 11
9.607295
 21
1.122014
 31
0.0
  0
LINE
  8
0
 62
     0
 10
8.662058
 20
0.0
 30
0.0
 11
9.653126
 21
0.991068
 31
0.0
  0
LINE
  8
0
 62
     0
 10
8.838835
 20
0.0
 30
0.0
 11
9.698957
 21
0.860122
 31
0.0
  0
LINE
  8
0
 62
     0
 10
9.015611
 20
0.0
 30
0.0
 11
9.744788
 21
0.729177
 31
0.0
  0
LINE
  8
0
 62
     0
 10
9.192388
 20
0.0
 30
0.0
 11
9.790619
 21
0.598231
 31
0.0
  0
LINE
  8
0
 62
     0
 10
9.369165
 20
0.0
 30
0.0
 11
9.83645
 21
0.467285
 31
0.0
  0
LINE
  8
0
 62
     0
 10
9.545942
 20
0.0
 30
0.0
 11
9.882281
 21
0.33634
 31
0.0
  0
LINE
  8
0
 62
     0
 10
9.722718
 20
0.0
 30
0.0
 11
9.928112
 21
0.205394
 31
0.0
  0
LINE
  8
0
 62
     0
 10
9.899495
 20
0.0
 30
0.0
 11
9.973943
 21
0.074448
 31
0.0
  0
ENDBLK
  8
0
  0
BLOCK
  8
0
  2
*X19
 70
    65
 10
0.0
 20
0.0
 30
0.0
  3
*X
  0
LINE
  8
0
 62
     0
 10
10.7
 20
6.280583
 30
0.0
 11
13.5
 21
9.080583
 31
0.0
  0
LINE
  8
0
 62
     0
 10
10.7
 20
6.457359
 30
0.0
 11
13.5
 21
9.257359
 31
0.0
  0
LINE
  8
0
 62
     0
 10
10.7
 20
6.634136
 30
0.0
 11
13.5
 21
9.434136
 31
0.0
  0
LINE
  8
0
 62
     0
 10
10.7
 20
6.810913
 30
0.0
 11
13.5
 21
9.610913
 31
0.0
  0
LINE
  8
0
 62
     0
 10
10.7
 20
6.987689
 30
0.0
 11
13.5
 21
9.787689
 31
0.0
  0
LINE
  8
0
 62
     0
 10
10.7
 20
7.164466
 30
0.0
 11
13.5
 21
9.964466
 31
0.0
  0
LINE
  8
0
 62
     0
 10
10.7
 20
7.341243
 30
0.0
 11
13.358757
 21
10.0
 31
0.0
  0
LINE
  8
0
 62
     0
 10
10.7
 20
7.518019
 30
0.0
 11
13.181981
 21
10.0
 31
0.0
  0
LINE
  8
0
 62
     0
 10
10.7
 20
7.694796
 30
0.0
 11
13.005204
 21
10.0
 31
0.0
  0
LINE
  8
0
 62
     0
 10
10.7
 20
7.871573
 30
0.0
 11
12.828427
 21
10.0
 31
0.0
  0
LINE
  8
0
 62
     0
 10
10.7
 20
8.04835
 30
0.0
 11
12.65165
 21
10.0
 31
0.0
  0
LINE
  8
0
 62
     0
 10
10.7
 20
8.225126
 30
0.0
 11
12.474874
 21
10.0
 31
0.0
  0
LINE
  8
0
 62
     0
 10
10.7
 20
8.401903
 30
0.0
 11
12.298097
 21
10.0
 31
0.0
  0
LINE
  8
0
 62
     0
 10
10.7
 20
8.57868
 30
0.0
 11
12.12132
 21
10.0
 31
0.0
  0
LINE
  8
0
 62
     0
 10
10.7
 20
8.755456
 30
0.0
 11
11.944544
 21
10.0
 31
0.0
  0
LINE
  8
0
 62
     0
 10
10.7
 20
8.932233
 30
0.0
 11
11.767767
 21
10.0
 31
0.0
  0
LINE
  8
0
 62
     0
 10
10.7
 20
9.10901
 30
0.0
 11
11.59099
 21
10.0
 31
0.0
  0
LINE
  8
0
 62
     0
 10
10.7
 20
9.285786
 30
0.0
 11
11.414214
 21
10.0
 31
0.0
  0
LINE
  8
0
 62
     0
 10
10.7
 20
9.462563
 30
0.0
 11
11.237437
 21
10.0
 31
0.0
  0
LINE
  8
0
 62
     0
 10
10.7
 20
9.63934
 30
0.0
 11
11.06066
 21
10.0
 31
0.0
  0
LINE
  8
0
 62
     0
 10
10.7
 20
9.816117
 30
0.0
 11
10.883883
 21
10.0
 31
0.0
  0
LINE
  8
0
 62
     0
 10
10.7
 20
9.992893
 30
0.0
 11
10.707107
 21
10.0
 31
0.0
  0
LINE
  8
0
 62
     0
 10
10.7
 20
6.103806
 30
0.0
 11
13.5
 21
8.903806
 31
0.0
  0
LINE
  8
0
 62
     0
 10
10.7
 20
5.927029
 30
0.0
 11
13.5
 21
8.727029
 31
0.0
  0
LINE
  8
0
 62
     0
 10
10.7
 20
5.750253
 30
0.0
 11
13.5
 21
8.550253
 31
0.0
  0
LINE
  8
0
 62
     0
 10
10.7
 20
5.573476
 30
0.0
 11
13.5
 21
8.373476
 31
0.0
  0
LINE
  8
0
 62
     0
 10
10.7
 20
5.396699
 30
0.0
 11
13.5
 21
8.196699
 31
0.0
  0
LINE
  8
0
 62
     0
 10
10.7
 20
5.219922
 30
0.0
 11
13.5
 21
8.019922
 31
0.0
  0
LINE
  8
0
 62
     0
 10
10.856854
 20
5.2
 30
0.0
 11
13.5
 21
7.843146
 31
0.0
  0
LINE
  8
0
 62
     0
 10
11.033631
 20
5.2
 30
0.0
 11
13.5
 21
7.666369
 31
0.0
  0
LINE
  8
0
 62
     0
 10
11.210408
 20
5.2
 30
0.0
 11
13.5
 21
7.489592
 31
0.0
  0
LINE
  8
0
 62
     0
 10
11.387184
 20
5.2
 30
0.0
 11
13.5
 21
7.312816
 31
0.0
  0
LINE
  8
0
 62
     0
 10
11.563961
 20
5.2
 30
0.0
 11
13.5
 21
7.136039
 31
0.0
  0
LINE
  8
0
 62
     0
 10
11.740738
 20
5.2
 30
0.0
 11
13.5
 21
6.959262
 31
0.0
  0
LINE
  8
0
 62
     0
 10
11.917514
 20
5.2
 30
0.0
 11
13.5
 21
6.782486
 31
0.0
  0
LINE
  8
0
 62
     0
 10
12.094291
 20
5.2
 30
0.0
 11
13.5
 21
6.605709
 31
0.0
  0
LINE
  8
0
 62
     0
 10
12.271068
 20
5.2
 30
0.0
 11
13.5
 21
6.428932
 31
0.0
  0
LINE
  8
0
 62
     0
 10
12.447845
 20
5.2
 30
0.0
 11
13.5
 21
6.252155
 31
0.0
  0
LINE
  8
0
 62
     0
 10
12.624621
 20
5.2
 30
0.0
 11
13.5
 21
6.075379
 31
0.0
  0
LINE
  8
0
 62
     0
 10
12.801398
 20
5.2
 30
0.0
 11
13.5
 21
5.898602
 31
0.0
  0
LINE
  8
0
 62
     0
 10
12.978175
 20
5.2
 30
0.0
 11
13.5
 21
5.721825
 31
0.0
  0
LINE
  8
0
 62
     0
 10
13.154951
 20
5.2
 30
0.0
 11
13.5
 21
5.545049
 31
0.0
  0
LINE
  8
0
 62
     0
 10
13.331728
 20
5.2
 30
0.0
 11
13.5
 21
5.368272
 31
0.0
  0
ENDBLK
  8
0
  0
BLOCK
  8
0
  2
*X20
 70
    65
 10
0.0
 20
0.0
 30
0.0
  3
*X
  0
LINE
  8
0
 62
     0
 10
10.7
 20
1.154058
 30
0.0
 11
13.5
 21
3.954058
 31
0.0
  0
LINE
  8
0
 62
     0
 10
10.7
 20
1.330835
 30
0.0
 11
13.5
 21
4.130835
 31
0.0
  0
LINE
  8
0
 62
     0
 10
10.7
 20
1.507612
 30
0.0
 11
13.5
 21
4.307612
 31
0.0
  0
LINE
  8
0
 62
     0
 10
10.7
 20
1.684389
 30
0.0
 11
13.5
 21
4.484389
 31
0.0
  0
LINE
  8
0
 62
     0
 10
10.7
 20
1.861165
 30
0.0
 11
13.5
 21
4.661165
 31
0.0
  0
LINE
  8
0
 62
     0
 10
10.7
 20
2.037942
 30
0.0
 11
13.462058
 21
4.8
 31
0.0
  0
LINE
  8
0
 62
     0
 10
10.7
 20
2.214719
 30
0.0
 11
13.285281
 21
4.8
 31
0.0
  0
LINE
  8
0
 62
     0
 10
10.7
 20
2.391495
 30
0.0
 11
13.108505
 21
4.8
 31
0.0
  0
LINE
  8
0
 62
     0
 10
10.7
 20
2.568272
 30
0.0
 11
12.931728
 21
4.8
 31
0.0
  0
LINE
  8
0
 62
     0
 10
10.7
 20
2.745049
 30
0.0
 11
12.754951
 21
4.8
 31
0.0
  0
LINE
  8
0
 62
     0
 10
10.7
 20
2.921825
 30
0.0
 11
12.578175
 21
4.8
 31
0.0
  0
LINE
  8
0
 62
     0
 10
10.7
 20
3.098602
 30
0.0
 11
12.401398
 21
4.8
 31
0.0
  0
LINE
  8
0
 62
     0
 10
10.7
 20
3.275379
 30
0.0
 11
12.224621
 21
4.8
 31
0.0
  0
LINE
  8
0
 62
     0
 10
10.7
 20
3.452155
 30
0.0
 11
12.047845
 21
4.8
 31
0.0
  0
LINE
  8
0
 62
     0
 10
10.7
 20
3.628932
 30
0.0
 11
11.871068
 21
4.8
 31
0.0
  0
LINE
  8
0
 62
     0
 10
10.7
 20
3.805709
 30
0.0
 11
11.694291
 21
4.8
 31
0.0
  0
LINE
  8
0
 62
     0
 10
10.7
 20
3.982486
 30
0.0
 11
11.517514
 21
4.8
 31
0.0
  0
LINE
  8
0
 62
     0
 10
10.7
 20
4.159262
 30
0.0
 11
11.340738
 21
4.8
 31
0.0
  0
LINE
  8
0
 62
     0
 10
10.7
 20
4.336039
 30
0.0
 11
11.163961
 21
4.8
 31
0.0
  0
LINE
  8
0
 62
     0
 10
10.7
 20
4.512816
 30
0.0
 11
10.987184
 21
4.8
 31
0.0
  0
LINE
  8
0
 62
     0
 10
10.7
 20
4.689592
 30
0.0
 11
10.810408
 21
4.8
 31
0.0
  0
LINE
  8
0
 62
     0
 10
10.7
 20
0.977282
 30
0.0
 11
13.5
 21
3.777282
 31
0.0
  0
LINE
  8
0
 62
     0
 10
10.7
 20
0.800505
 30
0.0
 11
13.5
 21
3.600505
 31
0.0
  0
LINE
  8
0
 62
     0
 10
10.7
 20
0.623728
 30
0.0
 11
13.5
 21
3.423728
 31
0.0
  0
LINE
  8
0
 62
     0
 10
10.7
 20
0.446952
 30
0.0
 11
13.5
 21
3.246952
 31
0.0
  0
LINE
  8
0
 62
     0
 10
10.7
 20
0.270175
 30
0.0
 11
13.5
 21
3.070175
 31
0.0
  0
LINE
  8
0
 62
     0
 10
10.7
 20
0.093398
 30
0.0
 11
13.5
 21
2.893398
 31
0.0
  0
LINE
  8
0
 62
     0
 10
10.783378
 20
0.0
 30
0.0
 11
13.5
 21
2.716622
 31
0.0
  0
LINE
  8
0
 62
     0
 10
10.960155
 20
0.0
 30
0.0
 11
13.5
 21
2.539845
 31
0.0
  0
LINE
  8
0
 62
     0
 10
11.136932
 20
0.0
 30
0.0
 11
13.5
 21
2.363068
 31
0.0
  0
LINE
  8
0
 62
     0
 10
11.313708
 20
0.0
 30
0.0
 11
13.5
 21
2.186292
 31
0.0
  0
LINE
  8
0
 62
     0
 10
11.490485
 20
0.0
 30
0.0
 11
13.5
 21
2.009515
 31
0.0
  0
LINE
  8
0
 62
     0
 10
11.667262
 20
0.0
 30
0.0
 11
13.5
 21
1.832738
 31
0.0
  0
LINE
  8
0
 62
     0
 10
11.844039
 20
0.0
 30
0.0
 11
13.5
 21
1.655961
 31
0.0
  0
LINE
  8
0
 62
     0
 10
12.020815
 20
0.0
 30
0.0
 11
13.5
 21
1.479185
 31
0.0
  0
LINE
  8
0
 62
     0
 10
12.197592
 20
0.0
 30
0.0
 11
13.5
 21
1.302408
 31
0.0
  0
LINE
  8
0
 62
     0
 10
12.374369
 20
0.0
 30
0.0
 11
13.5
 21
1.125631
 31
0.0
  0
LINE
  8
0
 62
     0
 10
12.551145
 20
0.0
 30
0.0
 11
13.5
 21
0.948855
 31
0.0
  0
LINE
  8
0
 62
     0
 10
12.727922
 20
0.0
 30
0.0
 11
13.5
 21
0.772078
 31
0.0
  0
LINE
  8
0
 62
     0
 10
12.904699
 20
0.0
 30
0.0
 11
13.5
 21
0.595301
 31
0.0
  0
LINE
  8
0
 62
     0
 10
13.081475
 20
0.0
 30
0.0
 11
13.5
 21
0.418525
 31
0.0
  0
LINE
  8
0
 62
     0
 10
13.258252
 20
0.0
 30
0.0
 11
13.5
 21
0.241748
 31
0.0
  0
LINE
  8
0
 62
     0
 10
13.435029
 20
0.0
 30
0.0
 11
13.5
 21
0.064971
 31
0.0
  0
ENDBLK
  8
0
  0
BLOCK
  8
0
  2
*X21
 70
    65
 10
0.0
 20
0.0
 30
0.0
  3
*X
  0
LINE
  8
0
 62
     0
 10
13.9
 20
6.298602
 30
0.0
 11
16.582995
 21
8.981597
 31
0.0
  0
LINE
  8
0
 62
     0
 10
13.9
 20
6.475379
 30
0.0
 11
16.510503
 21
9.085882
 31
0.0
  0
LINE
  8
0
 62
     0
 10
13.9
 20
6.652155
 30
0.0
 11
16.432927
 21
9.185083
 31
0.0
  0
LINE
  8
0
 62
     0
 10
13.9
 20
6.828932
 30
0.0
 11
16.350372
 21
9.279304
 31
0.0
  0
LINE
  8
0
 62
     0
 10
13.9
 20
7.005709
 30
0.0
 11
16.262892
 21
9.368601
 31
0.0
  0
LINE
  8
0
 62
     0
 10
13.9
 20
7.182486
 30
0.0
 11
16.170495
 21
9.452981
 31
0.0
  0
LINE
  8
0
 62
     0
 10
13.9
 20
7.359262
 30
0.0
 11
16.073145
 21
9.532407
 31
0.0
  0
LINE
  8
0
 62
     0
 10
13.9
 20
7.536039
 30
0.0
 11
15.970755
 21
9.606794
 31
0.0
  0
LINE
  8
0
 62
     0
 10
13.9
 20
7.712816
 30
0.0
 11
15.863189
 21
9.676004
 31
0.0
  0
LINE
  8
0
 62
     0
 10
13.9
 20
7.889592
 30
0.0
 11
15.75025
 21
9.739843
 31
0.0
  0
LINE
  8
0
 62
     0
 10
13.9
 20
8.066369
 30
0.0
 11
15.631675
 21
9.798044
 31
0.0
  0
LINE
  8
0
 62
     0
 10
13.9
 20
8.243146
 30
0.0
 11
15.50711
 21
9.850256
 31
0.0
  0
LINE
  8
0
 62
     0
 10
13.9
 20
8.419922
 30
0.0
 11
15.376096
 21
9.896018
 31
0.0
  0
LINE
  8
0
 62
     0
 10
13.9
 20
8.596699
 30
0.0
 11
15.238027
 21
9.934726
 31
0.0
  0
LINE
  8
0
 62
     0
 10
13.9
 20
8.773476
 30
0.0
 11
15.092096
 21
9.965572
 31
0.0
  0
LINE
  8
0
 62
     0
 10
13.9
 20
8.950253
 30
0.0
 11
14.937209
 21
9.987461
 31
0.0
  0
LINE
  8
0
 62
     0
 10
13.9
 20
9.127029
 30
0.0
 11
14.771824
 21
9.998853
 31
0.0
  0
LINE
  8
0
 62
     0
 10
13.9
 20
9.303806
 30
0.0
 11
14.596193
 21
9.999999
 31
0.0
  0
LINE
  8
0
 62
     0
 10
13.9
 20
9.480583
 30
0.0
 11
14.419417
 21
9.999999
 31
0.0
  0
LINE
  8
0
 62
     0
 10
13.9
 20
9.657359
 30
0.0
 11
14.24264
 21
10.0
 31
0.0
  0
LINE
  8
0
 62
     0
 10
13.9
 20
9.834136
 30
0.0
 11
14.065864
 21
10.0
 31
0.0
  0
LINE
  8
0
 62
     0
 10
13.9
 20
6.121825
 30
0.0
 11
16.650245
 21
8.872071
 31
0.0
  0
LINE
  8
0
 62
     0
 10
13.9
 20
5.945049
 30
0.0
 11
16.712035
 21
8.757083
 31
0.0
  0
LINE
  8
0
 62
     0
 10
13.9
 20
5.768272
 30
0.0
 11
16.768067
 21
8.636339
 31
0.0
  0
LINE
  8
0
 62
     0
 10
13.9
 20
5.591495
 30
0.0
 11
16.817955
 21
8.509451
 31
0.0
  0
LINE
  8
0
 62
     0
 10
13.9
 20
5.414719
 30
0.0
 11
16.861189
 21
8.375908
 31
0.0
  0
LINE
  8
0
 62
     0
 10
13.9
 20
5.237942
 30
0.0
 11
16.897097
 21
8.235039
 31
0.0
  0
LINE
  8
0
 62
     0
 10
14.038835
 20
5.2
 30
0.0
 11
16.924779
 21
8.085944
 31
0.0
  0
LINE
  8
0
 62
     0
 10
14.215611
 20
5.2
 30
0.0
 11
16.942997
 21
7.927385
 31
0.0
  0
LINE
  8
0
 62
     0
 10
14.392388
 20
5.2
 30
0.0
 11
16.949987
 21
7.757599
 31
0.0
  0
LINE
  8
0
 62
     0
 10
14.569165
 20
5.2
 30
0.0
 11
16.943101
 21
7.573936
 31
0.0
  0
LINE
  8
0
 62
     0
 10
14.745942
 20
5.2
 30
0.0
 11
16.918037
 21
7.372095
 31
0.0
  0
LINE
  8
0
 62
     0
 10
14.922718
 20
5.2
 30
0.0
 11
16.866909
 21
7.144191
 31
0.0
  0
LINE
  8
0
 62
     0
 10
15.099495
 20
5.2
 30
0.0
 11
16.771715
 21
6.87222
 31
0.0
  0
LINE
  8
0
 62
     0
 10
15.276272
 20
5.2
 30
0.0
 11
15.847951
 21
5.77168
 31
0.0
  0
LINE
  8
0
 62
     0
 10
15.96673
 20
5.890458
 30
0.0
 11
16.559542
 21
6.48327
 31
0.0
  0
LINE
  8
0
 62
     0
 10
15.453048
 20
5.2
 30
0.0
 11
15.970661
 21
5.717613
 31
0.0
  0
LINE
  8
0
 62
     0
 10
15.629825
 20
5.2
 30
0.0
 11
16.088934
 21
5.659109
 31
0.0
  0
LINE
  8
0
 62
     0
 10
15.806602
 20
5.2
 30
0.0
 11
16.202964
 21
5.596363
 31
0.0
  0
LINE
  8
0
 62
     0
 10
15.983378
 20
5.2
 30
0.0
 11
16.312909
 21
5.529531
 31
0.0
  0
LINE
  8
0
 62
     0
 10
16.160155
 20
5.2
 30
0.0
 11
16.418895
 21
5.45874
 31
0.0
  0
LINE
  8
0
 62
     0
 10
16.336932
 20
5.2
 30
0.0
 11
16.521021
 21
5.384089
 31
0.0
  0
LINE
  8
0
 62
     0
 10
16.513708
 20
5.2
 30
0.0
 11
16.619363
 21
5.305655
 31
0.0
  0
LINE
  8
0
 62
     0
 10
16.690485
 20
5.2
 30
0.0
 11
16.713975
 21
5.22349
 31
0.0
  0
ENDBLK
  8
0
  0
BLOCK
  8
0
  2
*X22
 70
    65
 10
0.0
 20
0.0
 30
0.0
  3
*X
  0
LINE
  8
0
 62
     0
 10
13.9
 20
0.818525
 30
0.0
 11
17.39645
 21
4.314974
 31
0.0
  0
LINE
  8
0
 62
     0
 10
13.9
 20
0.995301
 30
0.0
 11
17.336354
 21
4.431655
 31
0.0
  0
LINE
  8
0
 62
     0
 10
13.9
 20
1.172078
 30
0.0
 11
17.272078
 21
4.544156
 31
0.0
  0
LINE
  8
0
 62
     0
 10
13.9
 20
1.348855
 30
0.0
 11
17.203766
 21
4.652621
 31
0.0
  0
LINE
  8
0
 62
     0
 10
13.9
 20
1.525631
 30
0.0
 11
17.131535
 21
4.757167
 31
0.0
  0
LINE
  8
0
 62
     0
 10
13.9
 20
1.702408
 30
0.0
 11
16.997592
 21
4.8
 31
0.0
  0
LINE
  8
0
 62
     0
 10
13.9
 20
1.879185
 30
0.0
 11
16.820815
 21
4.8
 31
0.0
  0
LINE
  8
0
 62
     0
 10
13.9
 20
2.055961
 30
0.0
 11
16.644039
 21
4.8
 31
0.0
  0
LINE
  8
0
 62
     0
 10
13.9
 20
2.232738
 30
0.0
 11
16.467262
 21
4.8
 31
0.0
  0
LINE
  8
0
 62
     0
 10
13.9
 20
2.409515
 30
0.0
 11
16.290485
 21
4.8
 31
0.0
  0
LINE
  8
0
 62
     0
 10
13.9
 20
2.586292
 30
0.0
 11
16.113708
 21
4.8
 31
0.0
  0
LINE
  8
0
 62
     0
 10
13.9
 20
2.763068
 30
0.0
 11
15.936932
 21
4.8
 31
0.0
  0
LINE
  8
0
 62
     0
 10
13.9
 20
2.939845
 30
0.0
 11
15.760155
 21
4.8
 31
0.0
  0
LINE
  8
0
 62
     0
 10
13.9
 20
3.116622
 30
0.0
 11
15.583378
 21
4.8
 31
0.0
  0
LINE
  8
0
 62
     0
 10
13.9
 20
3.293398
 30
0.0
 11
15.406602
 21
4.8
 31
0.0
  0
LINE
  8
0
 62
     0
 10
13.9
 20
3.470175
 30
0.0
 11
15.229825
 21
4.8
 31
0.0
  0
LINE
  8
0
 62
     0
 10
13.9
 20
3.646952
 30
0.0
 11
15.053048
 21
4.8
 31
0.0
  0
LINE
  8
0
 62
     0
 10
13.9
 20
3.823728
 30
0.0
 11
14.876272
 21
4.8
 31
0.0
  0
LINE
  8
0
 62
     0
 10
13.9
 20
4.000505
 30
0.0
 11
14.699495
 21
4.8
 31
0.0
  0
LINE
  8
0
 62
     0
 10
13.9
 20
4.177282
 30
0.0
 11
14.522718
 21
4.8
 31
0.0
  0
LINE
  8
0
 62
     0
 10
13.9
 20
4.354058
 30
0.0
 11
14.345942
 21
4.8
 31
0.0
  0
LINE
  8
0
 62
     0
 10
13.9
 20
4.530835
 30
0.0
 11
14.169165
 21
4.8
 31
0.0
  0
LINE
  8
0
 62
     0
 10
13.9
 20
4.707612
 30
0.0
 11
13.992388
 21
4.8
 31
0.0
  0
LINE
  8
0
 62
     0
 10
13.9
 20
0.641748
 30
0.0
 11
17.452185
 21
4.193933
 31
0.0
  0
LINE
  8
0
 62
     0
 10
13.9
 20
0.464971
 30
0.0
 11
17.503339
 21
4.068311
 31
0.0
  0
LINE
  8
0
 62
     0
 10
13.9
 20
0.288194
 30
0.0
 11
17.549642
 21
3.937837
 31
0.0
  0
LINE
  8
0
 62
     0
 10
13.9
 20
0.111418
 30
0.0
 11
17.590762
 21
3.80218
 31
0.0
  0
LINE
  8
0
 62
     0
 10
13.965359
 20
0.0
 30
0.0
 11
17.62629
 21
3.660931
 31
0.0
  0
LINE
  8
0
 62
     0
 10
14.142136
 20
0.000001
 30
0.0
 11
17.655713
 21
3.513577
 31
0.0
  0
LINE
  8
0
 62
     0
 10
14.318913
 20
0.000001
 30
0.0
 11
17.678385
 21
3.359473
 31
0.0
  0
LINE
  8
0
 62
     0
 10
14.49569
 20
0.000001
 30
0.0
 11
17.693473
 21
3.197784
 31
0.0
  0
LINE
  8
0
 62
     0
 10
14.672467
 20
0.000002
 30
0.0
 11
17.699875
 21
3.027409
 31
0.0
  0
LINE
  8
0
 62
     0
 10
14.853154
 20
0.003912
 30
0.0
 11
17.696088
 21
2.846846
 31
0.0
  0
LINE
  8
0
 62
     0
 10
15.046044
 20
0.020025
 30
0.0
 11
17.679975
 21
2.653956
 31
0.0
  0
LINE
  8
0
 62
     0
 10
15.254483
 20
0.051687
 30
0.0
 11
17.648313
 21
2.445517
 31
0.0
  0
LINE
  8
0
 62
     0
 10
15.483762
 20
0.10419
 30
0.0
 11
17.59581
 21
2.216238
 31
0.0
  0
LINE
  8
0
 62
     0
 10
15.743786
 20
0.187437
 30
0.0
 11
17.512563
 21
1.956214
 31
0.0
  0
LINE
  8
0
 62
     0
 10
16.058176
 20
0.32505
 30
0.0
 11
17.37495
 21
1.641824
 31
0.0
  0
LINE
  8
0
 62
     0
 10
16.54193
 20
0.632028
 30
0.0
 11
17.067972
 21
1.15807
 31
0.0
  0
ENDBLK
  8
0
  0
BLOCK
  8
0
  2
MAA
 70
    64
 10
0.0
 20
0.0
 30
0.0
  3
MAA
  0
LINE
  8
0
  6
CONTINUOUS
 10
-0.500718
 20
-2.587966
 30
0.0
 11
0.386169
 21
-2.587966
 31
0.0
  0
LINE
  8
0
  6
CONTINUOUS
 10
-0.831823
 20
-1.976333
 30
0.0
 11
0.752749
 21
-1.976333
 31
0.0
  0
LINE
  8
0
  6
CONTINUOUS
 10
-0.015887
 20
-1.35427
 30
0.0
 11
1.178454
 21
-1.35427
 31
0.0
  0
LINE
  8
0
  6
CONTINUOUS
 10
-1.210228
 20
-1.35427
 30
0.0
 11
-0.015887
 21
-1.35427
 31
0.0
  0
LINE
  8
0
  6
CONTINUOUS
 10
0.0
 20
0.0
 30
0.0
 11
0.0
 21
-1.35427
 31
0.0
  0
ENDBLK
  8
0
  0
ENDSEC
  0
SECTION
  2
ENTITIES
  0
INSERT
  8
0
  2
1
 10
65.405438
 20
98.713066
 30
0.0
  0
INSERT
  8
0
  2
1
 10
72.541652
 20
49.71056
 30
0.0
  0
INSERT
  8
0
  2
1
 10
85.390443
 20
73.497234
 30
0.0
  0
TEXT
  8
0
  6
CONTINUOUS
 62
     7
 10
249.807323
 20
166.42439
 30
0.0
 40
3.75
  1
I
 11
249.807323
 21
165.17439
 31
0.0
 73
     1
  0
LINE
  8
0
  6
CONTINUOUS
 62
     7
 10
258.522403
 20
189.999294
 30
0.0
 11
255.003754
 21
188.214415
 31
0.0
  0
LINE
  8
0
  6
CONTINUOUS
 62
     7
 10
255.003754
 20
192.002325
 30
0.0
 11
258.522403
 21
189.999294
 31
0.0
  0
LINE
  8
0
  6
CONTINUOUS
 62
     7
 10
255.986552
 20
189.999294
 30
0.0
 11
252.467904
 21
188.214415
 31
0.0
  0
LINE
  8
0
  6
CONTINUOUS
 62
     7
 10
252.467904
 20
192.002325
 30
0.0
 11
255.986552
 21
189.999294
 31
0.0
  0
TEXT
  8
0
  6
CONTINUOUS
 62
     7
 10
249.754112
 20
188.228341
 30
0.0
 40
3.75
  1
I
 11
249.754112
 21
186.978341
 31
0.0
 73
     1
  0
LINE
  8
0
  6
CONTINUOUS
 62
     7
 10
261.835683
 20
167.502703
 30
0.0
 11
258.317035
 21
165.717825
 31
0.0
  0
LINE
  8
0
  6
CONTINUOUS
 62
     7
 10
258.317035
 20
169.505734
 30
0.0
 11
261.835683
 21
167.502703
 31
0.0
  0
LINE
  8
0
  6
CONTINUOUS
 62
     7
 10
255.781185
 20
169.505734
 30
0.0
 11
259.299833
 21
167.502703
 31
0.0
  0
LINE
  8
0
  6
CONTINUOUS
 62
     7
 10
259.299833
 20
167.502703
 30
0.0
 11
255.781185
 21
165.717825
 31
0.0
  0
LINE
  8
0
  6
CONTINUOUS
 62
     7
 10
260.497964
 20
182.491017
 30
0.0
 11
256.979315
 21
180.706139
 31
0.0
  0
LINE
  8
0
  6
CONTINUOUS
 62
     7
 10
256.979315
 20
184.494048
 30
0.0
 11
260.497964
 21
182.491017
 31
0.0
  0
TEXT
  8
0
  6
CONTINUOUS
 62
     7
 10
249.807323
 20
181.412704
 30
0.0
 40
3.75
  1
I
 11
249.807323
 21
180.162704
 31
0.0
 73
     1
  0
TEXT
  8
0
  6
CONTINUOUS
 62
     7
 10
249.807323
 20
173.788492
 30
0.0
 40
3.75
  1
I
 11
249.807323
 21
172.538492
 31
0.0
 73
     1
  0
LINE
  8
0
  6
CONTINUOUS
 62
     7
 10
260.497964
 20
175.027171
 30
0.0
 11
256.979315
 21
173.242292
 31
0.0
  0
LINE
  8
0
  6
CONTINUOUS
 62
     7
 10
256.979315
 20
177.030202
 30
0.0
 11
260.497964
 21
175.027171
 31
0.0
  0
LINE
  8
0
  6
CONTINUOUS
 62
     7
 10
264.193334
 20
206.354041
 30
0.0
 11
264.193334
 21
203.671843
 31
0.0
  0
LINE
  8
0
  6
CONTINUOUS
 62
     7
 10
264.239881
 20
205.086123
 30
0.0
 11
275.922189
 21
205.086123
 31
0.0
  0
LINE
  8
0
  6
CONTINUOUS
 62
     7
 10
267.816098
 20
203.334719
 30
0.0
 11
272.130264
 21
207.577557
 31
0.0
  0
LINE
  8
0
  6
CONTINUOUS
 62
     7
 10
271.484209
 20
208.383367
 30
0.0
 11
272.835224
 21
206.697743
 31
0.0
  0
LINE
  8
0
  6
CONTINUOUS
 62
     7
 10
275.915377
 20
206.354041
 30
0.0
 11
275.915377
 21
203.671843
 31
0.0
  0
ARC
  8
0
  6
HIDDEN
 62
     7
 10
274.282183
 20
210.978939
 30
0.0
 40
7.497294
 50
206.402922
 51
282.21115
  0
TEXT
  8
0
  6
CONTINUOUS
 62
     7
 10
249.754112
 20
195.755402
 30
0.0
 40
3.75
  1
I
 11
249.754112
 21
194.505402
 31
0.0
 73
     1
  0
LINE
  8
0
  6
CONTINUOUS
 62
     7
 10
255.986552
 20
197.526355
 30
0.0
 11
252.467904
 21
195.741476
 31
0.0
  0
LINE
  8
0
  6
CONTINUOUS
 62
     7
 10
258.522403
 20
197.526355
 30
0.0
 11
255.003754
 21
195.741476
 31
0.0
  0
LINE
  8
0
  6
CONTINUOUS
 62
     7
 10
252.467904
 20
199.529386
 30
0.0
 11
255.986552
 21
197.526355
 31
0.0
  0
LINE
  8
0
  6
CONTINUOUS
 62
     7
 10
255.003754
 20
199.529386
 30
0.0
 11
258.522403
 21
197.526355
 31
0.0
  0
TEXT
  8
0
  6
CONTINUOUS
 62
     7
 10
249.754112
 20
203.243664
 30
0.0
 40
3.75
  1
I
 11
249.754112
 21
201.993664
 31
0.0
 73
     1
  0
LINE
  8
0
  6
CONTINUOUS
 62
     7
 10
255.986552
 20
205.014618
 30
0.0
 11
252.467904
 21
203.229739
 31
0.0
  0
LINE
  8
0
  6
CONTINUOUS
 62
     7
 10
252.467904
 20
207.017648
 30
0.0
 11
255.986552
 21
205.014618
 31
0.0
  0
LINE
  8
0
  6
CONTINUOUS
 62
     7
 10
255.986552
 20
212.546727
 30
0.0
 11
252.467904
 21
210.761848
 31
0.0
  0
LINE
  8
0
  6
CONTINUOUS
 62
     7
 10
252.467904
 20
214.549757
 30
0.0
 11
255.986552
 21
212.546727
 31
0.0
  0
TEXT
  8
0
  6
CONTINUOUS
 62
     7
 10
249.754112
 20
210.775773
 30
0.0
 40
3.75
  1
I
 11
249.754112
 21
209.525773
 31
0.0
 73
     1
  0
LINE
  8
0
  6
CONTINUOUS
 62
     7
 10
92.5
 20
96.25
 30
0.0
 11
92.5
 21
88.75
 31
0.0
  0
LINE
  8
0
  6
CONTINUOUS
 62
     7
 10
92.5
 20
88.75
 30
0.0
 11
115.0
 21
88.75
 31
0.0
  0
LINE
  8
0
  6
CONTINUOUS
 62
     7
 10
115.0
 20
88.75
 30
0.0
 11
115.0
 21
96.25
 31
0.0
  0
LINE
  8
0
  6
CONTINUOUS
 62
     7
 10
115.0
 20
96.25
 30
0.0
 11
92.5
 21
96.25
 31
0.0
  0
LINE
  8
0
  6
CONTINUOUS
 62
     7
 10
96.25
 20
96.25
 30
0.0
 11
96.25
 21
100.0
 31
0.0
  0
LINE
  8
0
  6
CONTINUOUS
 62
     7
 10
100.0
 20
96.25
 30
0.0
 11
100.0
 21
100.0
 31
0.0
  0
LINE
  8
0
  6
CONTINUOUS
 62
     7
 10
103.75
 20
96.25
 30
0.0
 11
103.75
 21
100.0
 31
0.0
  0
LINE
  8
0
  6
CONTINUOUS
 62
     7
 10
107.5
 20
96.25
 30
0.0
 11
107.5
 21
100.0
 31
0.0
  0
LINE
  8
0
  6
CONTINUOUS
 62
     7
 10
107.5
 20
107.5
 30
0.0
 11
107.5
 21
111.25
 31
0.0
  0
LINE
  8
0
  6
CONTINUOUS
 62
     7
 10
103.75
 20
107.5
 30
0.0
 11
103.75
 21
111.25
 31
0.0
  0
LINE
  8
0
  6
CONTINUOUS
 62
     7
 10
100.0
 20
107.5
 30
0.0
 11
100.0
 21
111.25
 31
0.0
  0
LINE
  8
0
  6
CONTINUOUS
 62
     7
 10
96.25
 20
107.5
 30
0.0
 11
96.25
 21
111.25
 31
0.0
  0
LINE
  8
0
  6
CONTINUOUS
 62
     7
 10
107.5
 20
100.0
 30
0.0
 11
104.923316
 21
107.522448
 31
0.0
  0
LINE
  8
0
  6
CONTINUOUS
 62
     7
 10
103.75
 20
100.0
 30
0.0
 11
101.173316
 21
107.522448
 31
0.0
  0
LINE
  8
0
  6
CONTINUOUS
 62
     7
 10
100.0
 20
100.0
 30
0.0
 11
97.423316
 21
107.522448
 31
0.0
  0
LINE
  8
0
  6
CONTINUOUS
 62
     7
 10
96.25
 20
100.0
 30
0.0
 11
93.673316
 21
107.522448
 31
0.0
  0
LINE
  8
0
  6
CONTINUOUS
 62
     7
 10
102.942259
 20
92.933793
 30
0.0
 11
99.423611
 21
91.148914
 31
0.0
  0
LINE
  8
0
  6
CONTINUOUS
 62
     7
 10
99.411548
 20
89.948893
 30
0.0
 11
102.986739
 21
91.731181
 31
0.0
  0
LINE
  8
0
  6
CONTINUOUS
 62
     7
 10
99.423611
 20
94.936823
 30
0.0
 11
102.942259
 21
92.933793
 31
0.0
  0
TEXT
  8
0
  6
CONTINUOUS
 62
     7
 10
106.074404
 20
90.946683
 30
0.0
 40
3.75
  1
1
 11
106.074404
 21
89.696683
 31
0.0
 73
     1
  0
TEXT
  8
0
  6
CONTINUOUS
 62
     7
 10
131.25167
 20
90.946683
 30
0.0
 40
3.75
  1
1
 11
131.25167
 21
89.696683
 31
0.0
 73
     1
  0
LINE
  8
0
  6
CONTINUOUS
 62
     7
 10
124.600877
 20
94.936823
 30
0.0
 11
128.119526
 21
92.933793
 31
0.0
  0
LINE
  8
0
  6
CONTINUOUS
 62
     7
 10
124.588815
 20
89.948893
 30
0.0
 11
128.164006
 21
91.731181
 31
0.0
  0
LINE
  8
0
  6
CONTINUOUS
 62
     7
 10
128.119526
 20
92.933793
 30
0.0
 11
124.600877
 21
91.148914
 31
0.0
  0
LINE
  8
0
  6
CONTINUOUS
 62
     7
 10
122.5
 20
100.0
 30
0.0
 11
119.923316
 21
107.522448
 31
0.0
  0
LINE
  8
0
  6
CONTINUOUS
 62
     7
 10
126.25
 20
100.0
 30
0.0
 11
123.673316
 21
107.522448
 31
0.0
  0
LINE
  8
0
  6
CONTINUOUS
 62
     7
 10
130.0
 20
100.0
 30
0.0
 11
127.423316
 21
107.522448
 31
0.0
  0
LINE
  8
0
  6
CONTINUOUS
 62
     7
 10
133.75
 20
100.0
 30
0.0
 11
131.173316
 21
107.522448
 31
0.0
  0
LINE
  8
0
  6
CONTINUOUS
 62
     7
 10
122.5
 20
107.5
 30
0.0
 11
122.5
 21
111.25
 31
0.0
  0
LINE
  8
0
  6
CONTINUOUS
 62
     7
 10
126.25
 20
107.5
 30
0.0
 11
126.25
 21
111.25
 31
0.0
  0
LINE
  8
0
  6
CONTINUOUS
 62
     7
 10
130.0
 20
107.5
 30
0.0
 11
130.0
 21
111.25
 31
0.0
  0
LINE
  8
0
  6
CONTINUOUS
 62
     7
 10
133.75
 20
107.5
 30
0.0
 11
133.75
 21
111.25
 31
0.0
  0
LINE
  8
0
  6
CONTINUOUS
 62
     7
 10
133.75
 20
96.25
 30
0.0
 11
133.75
 21
100.0
 31
0.0
  0
LINE
  8
0
  6
CONTINUOUS
 62
     7
 10
130.0
 20
96.25
 30
0.0
 11
130.0
 21
100.0
 31
0.0
  0
LINE
  8
0
  6
CONTINUOUS
 62
     7
 10
126.25
 20
96.25
 30
0.0
 11
126.25
 21
100.0
 31
0.0
  0
LINE
  8
0
  6
CONTINUOUS
 62
     7
 10
122.5
 20
96.25
 30
0.0
 11
122.5
 21
100.0
 31
0.0
  0
LINE
  8
0
  6
CONTINUOUS
 62
     7
 10
137.5
 20
96.25
 30
0.0
 11
118.75
 21
96.25
 31
0.0
  0
LINE
  8
0
  6
CONTINUOUS
 62
     7
 10
137.5
 20
88.75
 30
0.0
 11
137.5
 21
96.25
 31
0.0
  0
LINE
  8
0
  6
CONTINUOUS
 62
     7
 10
118.75
 20
88.75
 30
0.0
 11
137.5
 21
88.75
 31
0.0
  0
LINE
  8
0
  6
CONTINUOUS
 62
     7
 10
118.75
 20
96.25
 30
0.0
 11
118.75
 21
88.75
 31
0.0
  0
LINE
  8
0
  6
CONTINUOUS
 62
     7
 10
141.25
 20
96.25
 30
0.0
 11
141.25
 21
88.75
 31
0.0
  0
LINE
  8
0
  6
CONTINUOUS
 62
     7
 10
141.25
 20
88.75
 30
0.0
 11
160.0
 21
88.75
 31
0.0
  0
LINE
  8
0
  6
CONTINUOUS
 62
     7
 10
160.0
 20
88.75
 30
0.0
 11
160.0
 21
96.25
 31
0.0
  0
LINE
  8
0
  6
CONTINUOUS
 62
     7
 10
160.0
 20
96.25
 30
0.0
 11
141.25
 21
96.25
 31
0.0
  0
LINE
  8
0
  6
CONTINUOUS
 62
     7
 10
145.0
 20
96.25
 30
0.0
 11
145.0
 21
100.0
 31
0.0
  0
LINE
  8
0
  6
CONTINUOUS
 62
     7
 10
148.75
 20
96.25
 30
0.0
 11
148.75
 21
100.0
 31
0.0
  0
LINE
  8
0
  6
CONTINUOUS
 62
     7
 10
152.5
 20
96.25
 30
0.0
 11
152.5
 21
100.0
 31
0.0
  0
LINE
  8
0
  6
CONTINUOUS
 62
     7
 10
156.25
 20
96.25
 30
0.0
 11
156.25
 21
100.0
 31
0.0
  0
LINE
  8
0
  6
CONTINUOUS
 62
     7
 10
156.25
 20
107.5
 30
0.0
 11
156.25
 21
111.25
 31
0.0
  0
LINE
  8
0
  6
CONTINUOUS
 62
     7
 10
152.5
 20
107.5
 30
0.0
 11
152.5
 21
111.25
 31
0.0
  0
LINE
  8
0
  6
CONTINUOUS
 62
     7
 10
148.75
 20
107.5
 30
0.0
 11
148.75
 21
111.25
 31
0.0
  0
LINE
  8
0
  6
CONTINUOUS
 62
     7
 10
145.0
 20
107.5
 30
0.0
 11
145.0
 21
111.25
 31
0.0
  0
LINE
  8
0
  6
CONTINUOUS
 62
     7
 10
156.25
 20
100.0
 30
0.0
 11
153.673316
 21
107.522448
 31
0.0
  0
LINE
  8
0
  6
CONTINUOUS
 62
     7
 10
152.5
 20
100.0
 30
0.0
 11
149.923316
 21
107.522448
 31
0.0
  0
LINE
  8
0
  6
CONTINUOUS
 62
     7
 10
148.75
 20
100.0
 30
0.0
 11
146.173316
 21
107.522448
 31
0.0
  0
LINE
  8
0
  6
CONTINUOUS
 62
     7
 10
145.0
 20
100.0
 30
0.0
 11
142.423316
 21
107.522448
 31
0.0
  0
LINE
  8
0
  6
CONTINUOUS
 62
     7
 10
150.619526
 20
92.933793
 30
0.0
 11
147.100877
 21
91.148914
 31
0.0
  0
LINE
  8
0
  6
CONTINUOUS
 62
     7
 10
147.088815
 20
89.948893
 30
0.0
 11
150.664006
 21
91.731181
 31
0.0
  0
LINE
  8
0
  6
CONTINUOUS
 62
     7
 10
147.100877
 20
94.936823
 30
0.0
 11
150.619526
 21
92.933793
 31
0.0
  0
TEXT
  8
0
  6
CONTINUOUS
 62
     7
 10
153.75167
 20
90.946683
 30
0.0
 40
3.75
  1
1
 11
153.75167
 21
89.696683
 31
0.0
 73
     1
  0
TEXT
  8
0
  6
CONTINUOUS
 62
     7
 10
82.50167
 20
90.946683
 30
0.0
 40
3.75
  1
1
 11
82.50167
 21
89.696683
 31
0.0
 73
     1
  0
LINE
  8
0
  6
CONTINUOUS
 62
     7
 10
75.850877
 20
94.936823
 30
0.0
 11
79.369526
 21
92.933793
 31
0.0
  0
LINE
  8
0
  6
CONTINUOUS
 62
     7
 10
75.838815
 20
89.948893
 30
0.0
 11
79.414006
 21
91.731181
 31
0.0
  0
LINE
  8
0
  6
CONTINUOUS
 62
     7
 10
79.369526
 20
92.933793
 30
0.0
 11
75.850877
 21
91.148914
 31
0.0
  0
LINE
  8
0
  6
CONTINUOUS
 62
     7
 10
77.5
 20
88.75
 30
0.0
 11
77.5
 21
85.0
 31
0.0
  0
LINE
  8
0
  6
CONTINUOUS
 62
     7
 10
85.0
 20
96.25
 30
0.0
 11
85.0
 21
100.0
 31
0.0
  0
LINE
  8
0
  6
CONTINUOUS
 62
     7
 10
81.25
 20
96.25
 30
0.0
 11
81.25
 21
100.0
 31
0.0
  0
LINE
  8
0
  6
CONTINUOUS
 62
     7
 10
77.5
 20
96.25
 30
0.0
 11
77.5
 21
109.228727
 31
0.0
  0
LINE
  8
0
  6
CONTINUOUS
 62
     7
 10
88.75
 20
96.25
 30
0.0
 11
70.0
 21
96.25
 31
0.0
  0
LINE
  8
0
  6
CONTINUOUS
 62
     7
 10
88.75
 20
88.75
 30
0.0
 11
88.75
 21
96.25
 31
0.0
  0
LINE
  8
0
  6
CONTINUOUS
 62
     7
 10
70.0
 20
88.75
 30
0.0
 11
88.75
 21
88.75
 31
0.0
  0
LINE
  8
0
  6
CONTINUOUS
 62
     7
 10
70.0
 20
96.25
 30
0.0
 11
70.0
 21
88.75
 31
0.0
  0
LINE
  8
0
  6
CONTINUOUS
 62
     7
 10
73.75
 20
96.25
 30
0.0
 11
73.75
 21
109.228727
 31
0.0
  0
LINE
  8
0
  6
CONTINUOUS
 62
     7
 10
163.75
 20
96.25
 30
0.0
 11
163.75
 21
88.75
 31
0.0
  0
LINE
  8
0
  6
CONTINUOUS
 62
     7
 10
163.75
 20
88.75
 30
0.0
 11
201.25
 21
88.75
 31
0.0
  0
LINE
  8
0
  6
CONTINUOUS
 62
     7
 10
201.25
 20
88.75
 30
0.0
 11
201.25
 21
96.25
 31
0.0
  0
LINE
  8
0
  6
CONTINUOUS
 62
     7
 10
201.25
 20
96.25
 30
0.0
 11
163.75
 21
96.25
 31
0.0
  0
LINE
  8
0
  6
CONTINUOUS
 62
     7
 10
176.166742
 20
89.948893
 30
0.0
 11
179.741933
 21
91.731181
 31
0.0
  0
LINE
  8
0
  6
CONTINUOUS
 62
     7
 10
179.697453
 20
92.933793
 30
0.0
 11
176.178805
 21
91.148914
 31
0.0
  0
LINE
  8
0
  6
CONTINUOUS
 62
     7
 10
176.178805
 20
94.936823
 30
0.0
 11
179.697453
 21
92.933793
 31
0.0
  0
TEXT
  8
0
  6
CONTINUOUS
 62
     7
 10
182.829598
 20
90.946683
 30
0.0
 40
3.75
  1
1
 11
182.829598
 21
89.696683
 31
0.0
 73
     1
  0
LINE
  8
0
  6
CONTINUOUS
 62
     7
 10
167.5
 20
96.25
 30
0.0
 11
167.5
 21
100.0
 31
0.0
  0
LINE
  8
0
  6
CONTINUOUS
 62
     7
 10
171.25
 20
96.25
 30
0.0
 11
171.25
 21
100.0
 31
0.0
  0
LINE
  8
0
  6
CONTINUOUS
 62
     7
 10
175.0
 20
96.25
 30
0.0
 11
175.0
 21
100.0
 31
0.0
  0
LINE
  8
0
  6
CONTINUOUS
 62
     7
 10
178.75
 20
96.25
 30
0.0
 11
178.75
 21
100.0
 31
0.0
  0
LINE
  8
0
  6
CONTINUOUS
 62
     7
 10
182.5
 20
96.25
 30
0.0
 11
182.5
 21
100.0
 31
0.0
  0
LINE
  8
0
  6
CONTINUOUS
 62
     7
 10
186.25
 20
96.25
 30
0.0
 11
186.25
 21
100.0
 31
0.0
  0
LINE
  8
0
  6
CONTINUOUS
 62
     7
 10
190.0
 20
96.25
 30
0.0
 11
190.0
 21
100.0
 31
0.0
  0
LINE
  8
0
  6
CONTINUOUS
 62
     7
 10
193.75
 20
96.25
 30
0.0
 11
193.75
 21
100.0
 31
0.0
  0
LINE
  8
0
  6
CONTINUOUS
 62
     7
 10
197.5
 20
96.25
 30
0.0
 11
197.5
 21
100.0
 31
0.0
  0
LINE
  8
0
  6
CONTINUOUS
 62
     7
 10
171.25
 20
100.0
 30
0.0
 11
168.673316
 21
107.522448
 31
0.0
  0
LINE
  8
0
  6
CONTINUOUS
 62
     7
 10
175.0
 20
100.0
 30
0.0
 11
172.423316
 21
107.522448
 31
0.0
  0
LINE
  8
0
  6
CONTINUOUS
 62
     7
 10
178.75
 20
100.0
 30
0.0
 11
176.173316
 21
107.522448
 31
0.0
  0
LINE
  8
0
  6
CONTINUOUS
 62
     7
 10
182.5
 20
100.0
 30
0.0
 11
179.923316
 21
107.522448
 31
0.0
  0
LINE
  8
0
  6
CONTINUOUS
 62
     7
 10
186.25
 20
100.0
 30
0.0
 11
183.673316
 21
107.522448
 31
0.0
  0
LINE
  8
0
  6
CONTINUOUS
 62
     7
 10
190.0
 20
100.0
 30
0.0
 11
187.423316
 21
107.522448
 31
0.0
  0
LINE
  8
0
  6
CONTINUOUS
 62
     7
 10
193.75
 20
100.0
 30
0.0
 11
191.173316
 21
107.522448
 31
0.0
  0
LINE
  8
0
  6
CONTINUOUS
 62
     7
 10
197.5
 20
100.0
 30
0.0
 11
194.923316
 21
107.522448
 31
0.0
  0
LINE
  8
0
  6
CONTINUOUS
 62
     7
 10
167.5
 20
100.0
 30
0.0
 11
167.5
 21
111.25
 31
0.0
  0
LINE
  8
0
  6
CONTINUOUS
 62
     7
 10
171.25
 20
107.5
 30
0.0
 11
171.25
 21
111.25
 31
0.0
  0
LINE
  8
0
  6
CONTINUOUS
 62
     7
 10
175.0
 20
107.5
 30
0.0
 11
175.0
 21
111.25
 31
0.0
  0
LINE
  8
0
  6
CONTINUOUS
 62
     7
 10
178.75
 20
107.5
 30
0.0
 11
178.75
 21
111.25
 31
0.0
  0
LINE
  8
0
  6
CONTINUOUS
 62
     7
 10
182.5
 20
107.5
 30
0.0
 11
182.5
 21
111.25
 31
0.0
  0
LINE
  8
0
  6
CONTINUOUS
 62
     7
 10
186.25
 20
107.5
 30
0.0
 11
186.25
 21
111.25
 31
0.0
  0
LINE
  8
0
  6
CONTINUOUS
 62
     7
 10
190.0
 20
107.5
 30
0.0
 11
190.0
 21
111.25
 31
0.0
  0
LINE
  8
0
  6
CONTINUOUS
 62
     7
 10
193.75
 20
107.5
 30
0.0
 11
193.75
 21
111.25
 31
0.0
  0
LINE
  8
0
  6
CONTINUOUS
 62
     7
 10
197.5
 20
107.5
 30
0.0
 11
197.5
 21
111.25
 31
0.0
  0
LINE
  8
0
  6
CONTINUOUS
 62
     7
 10
197.5
 20
111.25
 30
0.0
 11
197.5
 21
111.25
 31
0.0
  0
LINE
  8
0
  6
CONTINUOUS
 62
     7
 10
85.0
 20
160.0
 30
0.0
 11
85.0
 21
130.0
 31
0.0
  0
LINE
  8
0
  6
CONTINUOUS
 62
     7
 10
156.25
 20
167.5
 30
0.0
 11
156.25
 21
111.25
 31
0.0
  0
LINE
  8
0
  6
CONTINUOUS
 62
     7
 10
81.25
 20
175.0
 30
0.0
 11
81.25
 21
130.0
 31
0.0
  0
LINE
  8
0
  6
CONTINUOUS
 62
     7
 10
152.5
 20
182.5
 30
0.0
 11
152.5
 21
111.25
 31
0.0
  0
LINE
  8
0
  6
CONTINUOUS
 62
     7
 10
77.5
 20
190.0
 30
0.0
 11
77.5
 21
130.0
 31
0.0
  0
LINE
  8
0
  6
CONTINUOUS
 62
     7
 10
148.75
 20
197.5
 30
0.0
 11
148.75
 21
111.25
 31
0.0
  0
LINE
  8
0
  6
CONTINUOUS
 62
     7
 10
73.75
 20
205.0
 30
0.0
 11
73.75
 21
130.0
 31
0.0
  0
LINE
  8
0
  6
CONTINUOUS
 62
     7
 10
235.0
 20
212.5
 30
0.0
 11
145.0
 21
212.5
 31
0.0
  0
LINE
  8
0
  6
CONTINUOUS
 62
     7
 10
145.0
 20
212.5
 30
0.0
 11
145.0
 21
111.25
 31
0.0
  0
LINE
  8
0
  6
CONTINUOUS
 62
     7
 10
197.5
 20
111.25
 30
0.0
 11
197.5
 21
160.0
 31
0.0
  0
LINE
  8
0
  6
CONTINUOUS
 62
     7
 10
193.75
 20
111.25
 30
0.0
 11
193.75
 21
167.5
 31
0.0
  0
LINE
  8
0
  6
CONTINUOUS
 62
     7
 10
190.0
 20
111.25
 30
0.0
 11
190.0
 21
175.0
 31
0.0
  0
LINE
  8
0
  6
CONTINUOUS
 62
     7
 10
186.25
 20
111.25
 30
0.0
 11
186.25
 21
182.5
 31
0.0
  0
LINE
  8
0
  6
CONTINUOUS
 62
     7
 10
182.5
 20
111.25
 30
0.0
 11
182.5
 21
190.0
 31
0.0
  0
LINE
  8
0
  6
CONTINUOUS
 62
     7
 10
178.75
 20
111.25
 30
0.0
 11
178.75
 21
197.5
 31
0.0
  0
LINE
  8
0
  6
CONTINUOUS
 62
     7
 10
175.0
 20
111.25
 30
0.0
 11
175.0
 21
205.0
 31
0.0
  0
LINE
  8
0
  6
CONTINUOUS
 62
     7
 10
171.25
 20
111.25
 30
0.0
 11
171.25
 21
212.5
 31
0.0
  0
LINE
  8
0
  6
CONTINUOUS
 62
     7
 10
96.25
 20
111.25
 30
0.0
 11
96.25
 21
197.5
 31
0.0
  0
LINE
  8
0
  6
CONTINUOUS
 62
     7
 10
100.0
 20
111.25
 30
0.0
 11
100.0
 21
205.0
 31
0.0
  0
LINE
  8
0
  6
CONTINUOUS
 62
     7
 10
103.75
 20
111.25
 30
0.0
 11
103.75
 21
190.0
 31
0.0
  0
LINE
  8
0
  6
CONTINUOUS
 62
     7
 10
107.5
 20
111.25
 30
0.0
 11
107.5
 21
175.0
 31
0.0
  0
LINE
  8
0
  6
CONTINUOUS
 62
     7
 10
122.5
 20
111.25
 30
0.0
 11
122.5
 21
205.0
 31
0.0
  0
LINE
  8
0
  6
CONTINUOUS
 62
     7
 10
126.25
 20
111.25
 30
0.0
 11
126.25
 21
190.0
 31
0.0
  0
LINE
  8
0
  6
CONTINUOUS
 62
     7
 10
130.0
 20
111.25
 30
0.0
 11
130.0
 21
175.0
 31
0.0
  0
LINE
  8
0
  6
CONTINUOUS
 62
     7
 10
133.75
 20
111.25
 30
0.0
 11
133.75
 21
160.0
 31
0.0
  0
TEXT
  8
0
  6
CONTINUOUS
 62
     7
 10
121.922189
 20
111.390878
 30
0.0
 40
2.25
  1
SGR2/1
 50
90.0
  7
ROMANS
  0
TEXT
  8
0
  6
CONTINUOUS
 62
     7
 10
125.95974
 20
111.390878
 30
0.0
 40
2.25
  1
SGR2/3
 50
90.0
  7
ROMANS
  0
TEXT
  8
0
  6
CONTINUOUS
 62
     7
 10
129.70974
 20
111.390878
 30
0.0
 40
2.25
  1
SGR2/5
 50
90.0
  7
ROMANS
  0
TEXT
  8
0
  6
CONTINUOUS
 62
     7
 10
133.016432
 20
111.390878
 30
0.0
 40
2.25
  1
SGR2/7
 50
90.0
  7
ROMANS
  0
TEXT
  8
0
  6
CONTINUOUS
 62
     7
 10
144.755994
 20
111.390878
 30
0.0
 40
2.25
  1
SGR1/1
 50
90.0
  7
ROMANS
  0
TEXT
  8
0
  6
CONTINUOUS
 62
     7
 10
148.48015
 20
111.390878
 30
0.0
 40
2.25
  1
SGR1/3
 50
90.0
  7
ROMANS
  0
TEXT
  8
0
  6
CONTINUOUS
 62
     7
 10
152.255994
 20
111.390878
 30
0.0
 40
2.25
  1
SGR1/5
 50
90.0
  7
ROMANS
  0
TEXT
  8
0
  6
CONTINUOUS
 62
     7
 10
155.706461
 20
111.390878
 30
0.0
 40
2.25
  1
SGR1/7
 50
90.0
  7
ROMANS
  0
TEXT
  8
0
  6
CONTINUOUS
 62
     7
 10
170.96337
 20
111.452198
 30
0.0
 40
2.25
  1
SGR3/1
 50
90.0
  7
ROMANS
  0
TEXT
  8
0
  6
CONTINUOUS
 62
     7
 10
174.765087
 20
111.452198
 30
0.0
 40
2.25
  1
SGR3/2
 50
90.0
  7
ROMANS
  0
TEXT
  8
0
  6
CONTINUOUS
 62
     7
 10
178.46337
 20
111.452198
 30
0.0
 40
2.25
  1
SGR3/3
 50
90.0
  7
ROMANS
  0
TEXT
  8
0
  6
CONTINUOUS
 62
     7
 10
182.21337
 20
111.452198
 30
0.0
 40
2.25
  1
SGR3/4
 50
90.0
  7
ROMANS
  0
TEXT
  8
0
  6
CONTINUOUS
 62
     7
 10
185.96337
 20
111.452198
 30
0.0
 40
2.25
  1
SGR3/5
 50
90.0
  7
ROMANS
  0
TEXT
  8
0
  6
CONTINUOUS
 62
     7
 10
189.661653
 20
111.452198
 30
0.0
 40
2.25
  1
SGR3/6
 50
90.0
  7
ROMANS
  0
TEXT
  8
0
  6
CONTINUOUS
 62
     7
 10
193.163837
 20
111.452198
 30
0.0
 40
2.25
  1
SGR3/7
 50
90.0
  7
ROMANS
  0
TEXT
  8
0
  6
CONTINUOUS
 62
     7
 10
196.939696
 20
111.452198
 30
0.0
 40
2.25
  1
SGR3/8
 50
90.0
  7
ROMANS
  0
CIRCLE
  8
0
  6
CONTINUOUS
 62
     7
 10
85.007863
 20
104.799971
 30
0.0
 40
1.05
  0
LINE
  8
0
  6
CONTINUOUS
 62
     7
 10
85.0
 20
100.0
 30
0.0
 11
85.0
 21
103.75
 31
0.0
  0
LINE
  8
0
  6
CONTINUOUS
 62
     7
 10
81.25
 20
100.0
 30
0.0
 11
81.25
 21
103.75
 31
0.0
  0
CIRCLE
  8
0
  6
CONTINUOUS
 62
     7
 10
81.257863
 20
104.799971
 30
0.0
 40
1.05
  0
LINE
  8
0
  6
CONTINUOUS
 62
     7
 10
85.0
 20
122.5
 30
0.0
 11
85.0
 21
105.849941
 31
0.0
  0
LINE
  8
0
  6
CONTINUOUS
 62
     7
 10
81.25
 20
122.5
 30
0.0
 11
81.25
 21
105.849941
 31
0.0
  0
CIRCLE
  8
0
  6
CONTINUOUS
 62
     7
 10
77.507863
 20
110.278698
 30
0.0
 40
1.05
  0
CIRCLE
  8
0
  6
CONTINUOUS
 62
     7
 10
73.757863
 20
110.278698
 30
0.0
 40
1.05
  0
LINE
  8
0
  6
CONTINUOUS
 62
     7
 10
77.5
 20
122.5
 30
0.0
 11
77.5
 21
111.328668
 31
0.0
  0
LINE
  8
0
  6
CONTINUOUS
 62
     7
 10
73.75
 20
122.5
 30
0.0
 11
73.75
 21
111.328668
 31
0.0
  0
LINE
  8
0
  6
CONTINUOUS
 62
     7
 10
82.307776
 20
104.786465
 30
0.0
 11
83.95795
 21
104.786465
 31
0.0
  0
LINE
  8
0
  6
CONTINUOUS
 62
     7
 10
74.807862
 20
110.277286
 30
0.0
 11
76.457864
 21
110.277286
 31
0.0
  0
LINE
  8
0
  6
CONTINUOUS
 62
     7
 10
70.0
 20
118.75
 30
0.0
 11
85.0
 21
118.75
 31
0.0
  0
LINE
  8
0
  6
CONTINUOUS
 62
     7
 10
85.0
 20
117.402869
 30
0.0
 11
83.059896
 21
118.75
 31
0.0
  0
LINE
  8
0
  6
CONTINUOUS
 62
     7
 10
83.059896
 20
118.75
 30
0.0
 11
85.0
 21
120.110153
 31
0.0
  0
LINE
  8
0
  6
CONTINUOUS
 62
     7
 10
81.25
 20
117.402869
 30
0.0
 11
79.309896
 21
118.75
 31
0.0
  0
LINE
  8
0
  6
CONTINUOUS
 62
     7
 10
79.309896
 20
118.75
 30
0.0
 11
81.25
 21
120.110153
 31
0.0
  0
LINE
  8
0
  6
CONTINUOUS
 62
     7
 10
77.5
 20
117.402869
 30
0.0
 11
75.559896
 21
118.75
 31
0.0
  0
LINE
  8
0
  6
CONTINUOUS
 62
     7
 10
75.559896
 20
118.75
 30
0.0
 11
77.5
 21
120.110153
 31
0.0
  0
LINE
  8
0
  6
CONTINUOUS
 62
     7
 10
73.75
 20
117.402869
 30
0.0
 11
71.809896
 21
118.75
 31
0.0
  0
LINE
  8
0
  6
CONTINUOUS
 62
     7
 10
71.809896
 20
118.75
 30
0.0
 11
73.75
 21
120.110153
 31
0.0
  0
LINE
  8
0
  6
CONTINUOUS
 62
     7
 10
85.0
 20
122.5
 30
0.0
 11
82.423316
 21
130.022448
 31
0.0
  0
LINE
  8
0
  6
CONTINUOUS
 62
     7
 10
81.25
 20
122.5
 30
0.0
 11
78.673316
 21
130.022448
 31
0.0
  0
LINE
  8
0
  6
CONTINUOUS
 62
     7
 10
77.5
 20
122.5
 30
0.0
 11
74.923316
 21
130.022448
 31
0.0
  0
LINE
  8
0
  6
CONTINUOUS
 62
     7
 10
73.75
 20
122.5
 30
0.0
 11
71.173316
 21
130.022448
 31
0.0
  0
LINE
  8
0
  6
CONTINUOUS
 62
     7
 10
72.708778
 20
110.234868
 30
0.0
 11
70.218238
 21
110.234868
 31
0.0
  0
LINE
  8
0
  6
CONTINUOUS
 62
     7
 10
80.208405
 20
104.76625
 30
0.0
 11
70.509624
 21
104.76625
 31
0.0
  0
LINE
  8
0
  6
CONTINUOUS
 62
     7
 10
64.43615
 20
104.695829
 30
0.0
 11
54.926337
 21
104.695829
 31
0.0
  0
LINE
  8
0
  6
CONTINUOUS
 62
     7
 10
64.43615
 20
110.281264
 30
0.0
 11
54.926337
 21
110.281264
 31
0.0
  0
LINE
  8
0
  6
CONTINUOUS
 62
     7
 10
70.509624
 20
104.76625
 30
0.0
 11
64.43615
 21
102.429958
 31
0.0
  0
LINE
  8
0
  6
CONTINUOUS
 62
     7
 10
70.218238
 20
110.234868
 30
0.0
 11
64.43615
 21
108.010665
 31
0.0
  0
TEXT
  8
0
  6
CONTINUOUS
 62
     7
 10
43.908117
 20
111.642702
 30
0.0
 40
2.25
  1
SEAL. IN
  7
ROMANS
  0
TEXT
  8
0
  6
CONTINUOUS
 62
     7
 10
73.321596
 20
134.000885
 30
0.0
 40
2.25
  1
SGR1/2
 50
90.0
  7
ROMANS
  0
TEXT
  8
0
  6
CONTINUOUS
 62
     7
 10
77.071596
 20
134.000885
 30
0.0
 40
2.25
  1
SGR1/4
 50
90.0
  7
ROMANS
  0
TEXT
  8
0
  6
CONTINUOUS
 62
     7
 10
80.821596
 20
134.000885
 30
0.0
 40
2.25
  1
SGR1/6
 50
90.0
  7
ROMANS
  0
TEXT
  8
0
  6
CONTINUOUS
 62
     7
 10
84.571596
 20
134.000885
 30
0.0
 40
2.25
  1
SGR1/8
 50
90.0
  7
ROMANS
  0
LINE
  8
0
  6
CONTINUOUS
 62
     7
 10
77.5
 20
85.0
 30
0.0
 11
77.5
 21
77.5
 31
0.0
  0
LINE
  8
0
  6
CONTINUOUS
 62
     7
 10
182.5
 20
88.75
 30
0.0
 11
182.5
 21
77.5
 31
0.0
  0
LINE
  8
0
  6
CONTINUOUS
 62
     7
 10
70.0
 20
118.75
 30
0.0
 11
55.0
 21
118.75
 31
0.0
  0
LINE
  8
0
  6
CONTINUOUS
 62
     7
 10
167.5
 20
111.25
 30
0.0
 11
167.5
 21
186.25
 31
0.0
  0
LINE
  8
0
  6
CONTINUOUS
 62
     7
 10
167.5
 20
186.25
 30
0.0
 11
55.0
 21
186.25
 31
0.0
  0
LINE
  8
0
  6
CONTINUOUS
 62
     7
 10
55.0
 20
186.25
 30
0.0
 11
55.0
 21
175.0
 31
0.0
  0
LINE
  8
0
  6
CONTINUOUS
 62
     7
 10
55.0
 20
167.5
 30
0.0
 11
55.0
 21
160.0
 31
0.0
  0
LINE
  8
0
  6
CONTINUOUS
 62
     7
 10
55.0
 20
167.5
 30
0.0
 11
51.444873
 21
174.884426
 31
0.0
  0
LINE
  8
0
  6
CONTINUOUS
 62
     7
 10
55.0
 20
118.75
 30
0.0
 11
55.0
 21
137.5
 31
0.0
  0
LINE
  8
0
  6
CONTINUOUS
 62
     7
 10
72.5
 20
215.0
 30
0.0
 11
50.0
 21
215.0
 31
0.0
  0
LINE
  8
0
  6
CONTINUOUS
 62
     7
 10
55.0
 20
142.972712
 30
0.0
 11
55.0
 21
137.5
 31
0.0
  0
LINE
  8
0
  6
CONTINUOUS
 62
     7
 10
55.0
 20
155.257599
 30
0.0
 11
55.0
 21
160.0
 31
0.0
  0
LINE
  8
0
 62
     7
 10
64.953606
 20
142.972712
 30
0.0
 11
64.953606
 21
155.257599
 31
0.0
  0
LINE
  8
0
 62
     7
 10
45.336871
 20
142.972712
 30
0.0
 11
64.953606
 21
142.972712
 31
0.0
  0
LINE
  8
0
 62
     7
 10
64.953606
 20
155.257599
 30
0.0
 11
45.336871
 21
155.257599
 31
0.0
  0
LINE
  8
0
 62
     7
 10
45.336871
 20
155.257599
 30
0.0
 11
45.336871
 21
142.972712
 31
0.0
  0
LINE
  8
0
  6
CONTINUOUS
 62
     7
 10
263.783273
 20
191.25125
 30
0.0
 11
263.783273
 21
188.569053
 31
0.0
  0
LINE
  8
0
  6
CONTINUOUS
 62
     7
 10
275.505316
 20
191.25125
 30
0.0
 11
275.505316
 21
188.569053
 31
0.0
  0
LINE
  8
0
  6
CONTINUOUS
 62
     7
 10
263.829821
 20
189.983332
 30
0.0
 11
275.512128
 21
189.983332
 31
0.0
  0
LINE
  8
0
  6
CONTINUOUS
 62
     7
 10
267.406037
 20
188.231928
 30
0.0
 11
271.720203
 21
192.474766
 31
0.0
  0
LINE
  8
0
  6
CONTINUOUS
 62
     7
 10
271.039019
 20
193.280576
 30
0.0
 11
272.390034
 21
191.594953
 31
0.0
  0
TEXT
  8
0
  6
DASHED
 62
     7
 10
49.184088
 20
144.802849
 30
0.0
 40
2.25
  1
0,1...1s
  7
ROMANS
  0
LINE
  8
0
  6
CONTINUOUS
 62
     7
 10
247.5
 20
205.0
 30
0.0
 11
73.75
 21
205.0
 31
0.0
  0
LINE
  8
0
  6
CONTINUOUS
 62
     7
 10
247.5
 20
197.5
 30
0.0
 11
96.25
 21
197.5
 31
0.0
  0
LINE
  8
0
  6
CONTINUOUS
 62
     7
 10
247.5
 20
190.0
 30
0.0
 11
77.5
 21
190.0
 31
0.0
  0
LINE
  8
0
  6
CONTINUOUS
 62
     7
 10
247.5
 20
182.5
 30
0.0
 11
152.5
 21
182.5
 31
0.0
  0
LINE
  8
0
  6
CONTINUOUS
 62
     7
 10
247.5
 20
175.0
 30
0.0
 11
81.25
 21
175.0
 31
0.0
  0
LINE
  8
0
  6
CONTINUOUS
 62
     7
 10
235.0
 20
167.5
 30
0.0
 11
156.25
 21
167.5
 31
0.0
  0
LINE
  8
0
  6
CONTINUOUS
 62
     7
 10
235.0
 20
160.0
 30
0.0
 11
85.0
 21
160.0
 31
0.0
  0
LINE
  8
0
  6
CONTINUOUS
 62
     7
 10
111.25
 20
96.25
 30
0.0
 11
111.25
 21
100.0
 31
0.0
  0
LINE
  8
0
  6
CONTINUOUS
 62
     7
 10
111.25
 20
100.0
 30
0.0
 11
108.673316
 21
107.522448
 31
0.0
  0
LINE
  8
0
  6
CONTINUOUS
 62
     7
 10
111.25
 20
107.5
 30
0.0
 11
111.25
 21
160.0
 31
0.0
  0
LINE
  8
0
  6
CONTINUOUS
 62
     7
 10
259.299833
 20
159.829152
 30
0.0
 11
255.781185
 21
158.044274
 31
0.0
  0
LINE
  8
0
  6
CONTINUOUS
 62
     7
 10
255.781185
 20
161.832183
 30
0.0
 11
259.299833
 21
159.829152
 31
0.0
  0
LINE
  8
0
  6
CONTINUOUS
 62
     7
 10
258.317035
 20
161.832183
 30
0.0
 11
261.835683
 21
159.829152
 31
0.0
  0
LINE
  8
0
  6
CONTINUOUS
 62
     7
 10
261.835683
 20
159.829152
 30
0.0
 11
258.317035
 21
158.044274
 31
0.0
  0
TEXT
  8
0
  6
CONTINUOUS
 62
     7
 10
249.807323
 20
158.750838
 30
0.0
 40
3.75
  1
I
 11
249.807323
 21
157.500838
 31
0.0
 73
     1
  0
LINE
  8
0
  6
CONTINUOUS
 62
     7
 10
275.505316
 20
161.091169
 30
0.0
 11
275.505316
 21
158.408972
 31
0.0
  0
LINE
  8
0
  6
CONTINUOUS
 62
     7
 10
271.039019
 20
163.294047
 30
0.0
 11
272.390034
 21
161.608423
 31
0.0
  0
LINE
  8
0
  6
CONTINUOUS
 62
     7
 10
267.406037
 20
158.071848
 30
0.0
 11
271.720203
 21
162.314685
 31
0.0
  0
LINE
  8
0
  6
CONTINUOUS
 62
     7
 10
263.829821
 20
159.823252
 30
0.0
 11
275.512128
 21
159.823252
 31
0.0
  0
LINE
  8
0
  6
CONTINUOUS
 62
     7
 10
263.783273
 20
161.091169
 30
0.0
 11
263.783273
 21
158.408972
 31
0.0
  0
LINE
  8
0
  6
CONTINUOUS
 62
     7
 10
60.878865
 20
152.113576
 30
0.0
 11
60.878865
 21
149.431379
 31
0.0
  0
LINE
  8
0
  6
CONTINUOUS
 62
     7
 10
56.412567
 20
154.142903
 30
0.0
 11
57.763583
 21
152.457279
 31
0.0
  0
LINE
  8
0
  6
CONTINUOUS
 62
     7
 10
52.779585
 20
149.094254
 30
0.0
 11
57.093752
 21
153.337092
 31
0.0
  0
LINE
  8
0
  6
CONTINUOUS
 62
     7
 10
49.203369
 20
150.845659
 30
0.0
 11
60.885676
 21
150.845659
 31
0.0
  0
LINE
  8
0
  6
CONTINUOUS
 62
     7
 10
49.156821
 20
152.113576
 30
0.0
 11
49.156821
 21
149.431379
 31
0.0
  0
TEXT
  8
0
  6
CONTINUOUS
 62
     7
 10
53.715128
 20
177.370838
 30
0.0
 40
2.25
  1
SGF1/4
 50
90.0
  7
ROMANS
  0
TEXT
  8
0
  6
CONTINUOUS
 62
     7
 10
43.877499
 20
106.653113
 30
0.0
 40
2.25
  1
SGB/6
  7
ROMANS
  0
TEXT
  8
0
  6
CONTINUOUS
 62
     7
 10
43.877499
 20
101.398833
 30
0.0
 40
2.25
  1
SGB/7
  7
ROMANS
  0
TEXT
  8
0
  6
CONTINUOUS
 62
     7
 10
95.884814
 20
111.25
 30
0.0
 40
2.25
  1
SGF2/7
 50
90.0
  7
ROMANS
  0
TEXT
  8
0
  6
CONTINUOUS
 62
     7
 10
99.634814
 20
111.25
 30
0.0
 40
2.25
  1
SGR2/2
 50
90.0
  7
ROMANS
  0
TEXT
  8
0
  6
CONTINUOUS
 62
     7
 10
103.384814
 20
111.25
 30
0.0
 40
2.25
  1
SGR2/4
 50
90.0
  7
ROMANS
  0
TEXT
  8
0
  6
CONTINUOUS
 62
     7
 10
107.134814
 20
111.25
 30
0.0
 40
2.25
  1
SGR2/6
 50
90.0
  7
ROMANS
  0
TEXT
  8
0
  6
CONTINUOUS
 62
     7
 10
110.884814
 20
111.25
 30
0.0
 40
2.25
  1
SGR2/8
 50
90.0
  7
ROMANS
  0
LINE
  8
0
  6
CONTINUOUS
 62
     7
 10
32.5
 20
242.5
 30
0.0
 11
32.5
 21
77.5
 31
0.0
  0
LINE
  8
0
  6
CONTINUOUS
 62
     7
 10
32.5
 20
77.5
 30
0.0
 11
290.0
 21
77.5
 31
0.0
  0
LINE
  8
0
  6
CONTINUOUS
 62
     7
 10
290.0
 20
77.5
 30
0.0
 11
290.0
 21
242.5
 31
0.0
  0
LINE
  8
0
  6
CONTINUOUS
 62
     7
 10
290.0
 20
242.5
 30
0.0
 11
32.5
 21
242.5
 31
0.0
  0
LINE
  8
0
  6
CONTINUOUS
 62
     7
 10
80.0
 20
212.5
 30
0.0
 11
71.384114
 21
207.677945
 31
0.0
  0
LINE
  8
0
  6
CONTINUOUS
 62
     7
 10
80.0
 20
212.5
 30
0.0
 11
87.5
 21
212.5
 31
0.0
  0
LINE
  8
0
  6
CONTINUOUS
 62
     7
 10
220.0
 20
111.25
 30
0.0
 11
220.0
 21
167.5
 31
0.0
  0
LINE
  8
0
  6
CONTINUOUS
 62
     7
 10
216.25
 20
111.25
 30
0.0
 11
216.25
 21
182.5
 31
0.0
  0
LINE
  8
0
  6
CONTINUOUS
 62
     7
 10
220.0
 20
107.5
 30
0.0
 11
220.0
 21
111.25
 31
0.0
  0
LINE
  8
0
  6
CONTINUOUS
 62
     7
 10
216.25
 20
107.5
 30
0.0
 11
216.25
 21
111.25
 31
0.0
  0
TEXT
  8
0
  6
CONTINUOUS
 62
     7
 10
219.360925
 20
111.25
 30
0.0
 40
2.25
  1
SGF2/8
 50
90.0
  7
ROMANS
  0
LINE
  8
0
  6
CONTINUOUS
 62
     7
 10
77.5
 20
77.5
 30
0.0
 11
77.5
 21
66.25
 31
0.0
  0
LINE
  8
0
  6
CONTINUOUS
 62
     7
 10
127.5
 20
77.560896
 30
0.0
 11
127.5
 21
66.310896
 31
0.0
  0
LINE
  8
0
  6
CONTINUOUS
 62
     7
 10
150.0
 20
77.5
 30
0.0
 11
150.0
 21
66.25
 31
0.0
  0
LINE
  8
0
  6
CONTINUOUS
 62
     7
 10
182.5
 20
77.5
 30
0.0
 11
182.5
 21
66.25
 31
0.0
  0
LINE
  8
0
  6
CONTINUOUS
 62
     7
 10
235.0
 20
212.5
 30
0.0
 11
247.5
 21
212.5
 31
0.0
  0
LINE
  8
0
  6
CONTINUOUS
 62
     7
 10
235.0
 20
205.0
 30
0.0
 11
242.5
 21
205.0
 31
0.0
  0
LINE
  8
0
  6
CONTINUOUS
 62
     7
 10
235.0
 20
197.5
 30
0.0
 11
242.5
 21
197.5
 31
0.0
  0
LINE
  8
0
  6
CONTINUOUS
 62
     7
 10
235.0
 20
190.0
 30
0.0
 11
242.5
 21
190.0
 31
0.0
  0
LINE
  8
0
  6
CONTINUOUS
 62
     7
 10
235.0
 20
182.5
 30
0.0
 11
242.5
 21
182.5
 31
0.0
  0
LINE
  8
0
  6
CONTINUOUS
 62
     7
 10
235.0
 20
175.0
 30
0.0
 11
242.5
 21
175.0
 31
0.0
  0
LINE
  8
0
  6
CONTINUOUS
 62
     7
 10
235.0
 20
167.5
 30
0.0
 11
247.5
 21
167.5
 31
0.0
  0
LINE
  8
0
  6
CONTINUOUS
 62
     7
 10
235.0
 20
160.0
 30
0.0
 11
247.5
 21
160.0
 31
0.0
  0
LINE
  8
0
  6
CONTINUOUS
 62
     7
 10
50.0
 20
242.5
 30
0.0
 11
50.0
 21
210.0
 31
0.0
  0
LINE
  8
0
  6
CONTINUOUS
 62
     7
 10
102.5
 20
88.75
 30
0.0
 11
102.5
 21
77.5
 31
0.0
  0
LINE
  8
0
  6
CONTINUOUS
 62
     7
 10
127.5
 20
88.75
 30
0.0
 11
127.5
 21
77.5
 31
0.0
  0
LINE
  8
0
  6
CONTINUOUS
 62
     7
 10
150.0
 20
88.75
 30
0.0
 11
150.0
 21
77.5
 31
0.0
  0
LINE
  8
0
  6
CONTINUOUS
 62
     7
 10
220.0
 20
100.0
 30
0.0
 11
215.81726
 21
108.924873
 31
0.0
  0
ARC
  8
0
  6
HIDDEN
 62
     7
 10
274.282183
 20
180.978939
 30
0.0
 40
7.497294
 50
206.402922
 51
282.21115
  0
LINE
  8
0
  6
CONTINUOUS
 62
     7
 10
275.915377
 20
176.354041
 30
0.0
 11
275.915377
 21
173.671843
 31
0.0
  0
LINE
  8
0
  6
CONTINUOUS
 62
     7
 10
271.484209
 20
178.383367
 30
0.0
 11
272.835224
 21
176.697743
 31
0.0
  0
LINE
  8
0
  6
CONTINUOUS
 62
     7
 10
267.816098
 20
173.334719
 30
0.0
 11
272.130264
 21
177.577557
 31
0.0
  0
LINE
  8
0
  6
CONTINUOUS
 62
     7
 10
264.239881
 20
175.086123
 30
0.0
 11
275.922189
 21
175.086123
 31
0.0
  0
LINE
  8
0
  6
CONTINUOUS
 62
     7
 10
264.193334
 20
176.354041
 30
0.0
 11
264.193334
 21
173.671843
 31
0.0
  0
LINE
  8
0
  6
CONTINUOUS
 62
     7
 10
247.5
 20
217.5
 30
0.0
 11
277.5
 21
217.5
 31
0.0
  0
LINE
  8
0
  6
CONTINUOUS
 62
     7
 10
277.5
 20
217.5
 30
0.0
 11
277.5
 21
157.5
 31
0.0
  0
LINE
  8
0
  6
CONTINUOUS
 62
     7
 10
277.5
 20
157.5
 30
0.0
 11
247.5
 21
157.5
 31
0.0
  0
LINE
  8
0
  6
CONTINUOUS
 62
     7
 10
247.5
 20
157.5
 30
0.0
 11
247.5
 21
217.5
 31
0.0
  0
CIRCLE
  8
0
  6
CONTINUOUS
 62
     7
 10
246.701981
 20
207.5
 30
0.0
 40
0.798019
  0
LINE
  8
0
  6
HIDDEN
 62
     7
 10
247.5
 20
210.0
 30
0.0
 11
277.5
 21
210.0
 31
0.0
  0
LINE
  8
0
  6
HIDDEN
 62
     7
 10
247.5
 20
202.5
 30
0.0
 11
277.5
 21
202.5
 31
0.0
  0
TEXT
  8
0
  6
HIDDEN
 62
     7
 10
248.07101
 20
207.85578
 30
0.0
 40
1.5
  1
EN
  0
LINE
  8
0
  6
HIDDEN
 62
     7
 10
247.5
 20
195.0
 30
0.0
 11
277.5
 21
195.0
 31
0.0
  0
LINE
  8
0
  6
HIDDEN
 62
     7
 10
247.5
 20
187.5
 30
0.0
 11
277.5
 21
187.5
 31
0.0
  0
LINE
  8
0
  6
HIDDEN
 62
     7
 10
247.5
 20
180.0
 30
0.0
 11
277.5
 21
180.0
 31
0.0
  0
LINE
  8
0
  6
HIDDEN
 62
     7
 10
247.5
 20
172.5
 30
0.0
 11
277.5
 21
172.5
 31
0.0
  0
LINE
  8
0
  6
HIDDEN
 62
     7
 10
247.5
 20
165.0
 30
0.0
 11
277.5
 21
165.0
 31
0.0
  0
LINE
  8
0
  6
HIDDEN
 62
     7
 10
247.5
 20
165.0
 30
0.0
 11
277.5
 21
165.0
 31
0.0
  0
TEXT
  8
0
  6
HIDDEN
 62
     7
 10
248.07101
 20
192.85578
 30
0.0
 40
1.5
  1
EN
  0
TEXT
  8
0
  6
HIDDEN
 62
     7
 10
248.07101
 20
178.053632
 30
0.0
 40
1.5
  1
EN
  0
TEXT
  8
0
  6
HIDDEN
 62
     7
 10
248.07101
 20
163.050378
 30
0.0
 40
1.5
  1
EN
  0
CIRCLE
  8
0
  6
CONTINUOUS
 62
     7
 10
246.701981
 20
177.5
 30
0.0
 40
0.798019
  0
CIRCLE
  8
0
  6
CONTINUOUS
 62
     7
 10
246.701981
 20
192.5
 30
0.0
 40
0.798019
  0
CIRCLE
  8
0
  6
CONTINUOUS
 62
     7
 10
246.701981
 20
162.5
 30
0.0
 40
0.798019
  0
LINE
  8
0
  6
CONTINUOUS
 62
     7
 10
80.0
 20
237.5
 30
0.0
 11
240.0
 21
237.5
 31
0.0
  0
LINE
  8
0
  6
CONTINUOUS
 62
     7
 10
80.0
 20
237.5
 30
0.0
 11
71.384114
 21
232.677945
 31
0.0
  0
LINE
  8
0
  6
CONTINUOUS
 62
     7
 10
80.0
 20
232.5
 30
0.0
 11
71.384114
 21
227.677945
 31
0.0
  0
LINE
  8
0
  6
CONTINUOUS
 62
     7
 10
80.0
 20
232.5
 30
0.0
 11
237.5
 21
232.5
 31
0.0
  0
LINE
  8
0
  6
CONTINUOUS
 62
     7
 10
80.0
 20
227.5
 30
0.0
 11
71.384114
 21
222.677945
 31
0.0
  0
LINE
  8
0
  6
CONTINUOUS
 62
     7
 10
80.0
 20
227.5
 30
0.0
 11
235.0
 21
227.5
 31
0.0
  0
LINE
  8
0
  6
CONTINUOUS
 62
     7
 10
80.0
 20
222.5
 30
0.0
 11
232.5
 21
222.5
 31
0.0
  0
LINE
  8
0
  6
CONTINUOUS
 62
     7
 10
80.0
 20
222.5
 30
0.0
 11
71.384114
 21
217.677945
 31
0.0
  0
LINE
  8
0
  6
CONTINUOUS
 62
     7
 10
72.5
 20
230.0
 30
0.0
 11
50.0
 21
230.0
 31
0.0
  0
LINE
  8
0
  6
CONTINUOUS
 62
     7
 10
80.0
 20
217.5
 30
0.0
 11
71.384114
 21
212.677945
 31
0.0
  0
LINE
  8
0
  6
CONTINUOUS
 62
     7
 10
80.0
 20
217.5
 30
0.0
 11
87.5
 21
217.5
 31
0.0
  0
LINE
  8
0
  6
CONTINUOUS
 62
     7
 10
72.5
 20
220.0
 30
0.0
 11
50.0
 21
220.0
 31
0.0
  0
LINE
  8
0
  6
CONTINUOUS
 62
     7
 10
72.5
 20
225.0
 30
0.0
 11
50.0
 21
225.0
 31
0.0
  0
LINE
  8
0
  6
CONTINUOUS
 62
     7
 10
72.5
 20
235.0
 30
0.0
 11
50.0
 21
235.0
 31
0.0
  0
LINE
  8
0
  6
CONTINUOUS
 62
     7
 10
50.0
 20
210.0
 30
0.0
 11
72.5
 21
210.0
 31
0.0
  0
LINE
  8
0
  6
CONTINUOUS
 62
     7
 10
240.0
 20
207.5
 30
0.0
 11
240.0
 21
237.5
 31
0.0
  0
LINE
  8
0
  6
CONTINUOUS
 62
     7
 10
237.5
 20
232.5
 30
0.0
 11
237.5
 21
192.5
 31
0.0
  0
LINE
  8
0
  6
CONTINUOUS
 62
     7
 10
235.0
 20
227.5
 30
0.0
 11
235.0
 21
177.5
 31
0.0
  0
LINE
  8
0
  6
CONTINUOUS
 62
     7
 10
232.5
 20
222.5
 30
0.0
 11
232.5
 21
162.5
 31
0.0
  0
LINE
  8
0
  6
CONTINUOUS
 62
     7
 10
232.5
 20
162.5
 30
0.0
 11
245.903961
 21
162.5
 31
0.0
  0
LINE
  8
0
  6
CONTINUOUS
 62
     7
 10
235.0
 20
177.5
 30
0.0
 11
245.903961
 21
177.5
 31
0.0
  0
LINE
  8
0
  6
CONTINUOUS
 62
     7
 10
237.5
 20
192.5
 30
0.0
 11
245.903961
 21
192.5
 31
0.0
  0
LINE
  8
0
  6
CONTINUOUS
 62
     7
 10
240.0
 20
207.5
 30
0.0
 11
245.903961
 21
207.5
 31
0.0
  0
LINE
  8
0
  6
CONTINUOUS
 62
     7
 10
102.5
 20
82.5
 30
0.0
 11
110.0
 21
82.5
 31
0.0
  0
LINE
  8
0
  6
CONTINUOUS
 62
     7
 10
110.0
 20
82.5
 30
0.0
 11
110.0
 21
77.5
 31
0.0
  0
LINE
  8
0
  6
CONTINUOUS
 62
     7
 10
150.0
 20
82.5
 30
0.0
 11
157.5
 21
82.5
 31
0.0
  0
LINE
  8
0
  6
CONTINUOUS
 62
     7
 10
157.5
 20
82.5
 30
0.0
 11
157.5
 21
77.5
 31
0.0
  0
LINE
  8
0
  6
CONTINUOUS
 62
     7
 10
110.0
 20
77.5
 30
0.0
 11
110.0
 21
75.0
 31
0.0
  0
LINE
  8
0
  6
CONTINUOUS
 62
     7
 10
157.5
 20
77.5
 30
0.0
 11
157.5
 21
75.0
 31
0.0
  0
TEXT
  8
0
  6
CONTINUOUS
 62
     7
 10
102.5
 20
55.0
 30
0.0
 40
2.0
  1
SS3
 50
90.0
  7
ROMANS
  0
TEXT
  8
0
  6
CONTINUOUS
 62
     7
 10
127.5
 20
55.0
 30
0.0
 40
2.0
  1
SS2
 50
90.0
  7
ROMANS
  0
TEXT
  8
0
  6
CONTINUOUS
 62
     7
 10
150.0
 20
55.0
 30
0.0
 40
2.0
  1
SS1
 50
90.0
  7
ROMANS
  0
TEXT
  8
0
  6
CONTINUOUS
 62
     7
 10
182.5
 20
55.0
 30
0.0
 40
2.0
  1
TS1
 50
90.0
  7
ROMANS
  0
TEXT
  8
0
  6
CONTINUOUS
 62
     7
 10
110.0
 20
55.0
 30
0.0
 40
2.0
  1
AR1
 50
90.0
  7
ROMANS
  0
TEXT
  8
0
  6
CONTINUOUS
 62
     7
 10
220.0
 20
55.0
 30
0.0
 40
2.0
  1
AR3
 50
90.0
  7
ROMANS
  0
TEXT
  8
0
  6
CONTINUOUS
 62
     7
 10
213.306607
 20
28.096437
 30
0.0
 40
2.0
  1
1993-05-17  KM / RITU
  7
ROMANS
  0
TEXT
  8
0
  6
CONTINUOUS
 62
     7
 10
317.5
 20
27.5
 30
0.0
 40
2.0
  1
CIRCUIT DIAGRAM;PROGRAMMING OF U1/
  7
ROMANS
  0
TEXT
  8
0
  6
CONTINUOUS
 62
     7
 10
317.5
 20
24.166667
 30
0.0
 40
2.0
  1
KRETSSCHEMA;PROGRAMMERING AV U1
  7
ROMANS
  0
TEXT
  8
0
  6
CONTINUOUS
 62
     7
 10
317.5
 20
20.833333
 30
0.0
 40
2.0
  1
SPAC 539 C
  7
ROMANS
  0
TEXT
  8
0
  6
CONTINUOUS
 62
     7
 10
367.5
 20
12.5
 30
0.0
 40
2.0
  1
3/3
  7
ROMANS
  0
TEXT
  8
0
  6
CONTINUOUS
 62
     7
 10
322.5
 20
2.5
 30
0.0
 40
2.5
  1
RS 10193-AA
  7
ROMANS
  0
LINE
  8
0
  6
CONTINUOUS
 62
     7
 10
50.0
 20
242.5
 30
0.0
 11
50.0
 21
250.0
 31
0.0
  0
TEXT
  8
0
  6
CONTINUOUS
 62
     7
 10
42.5
 20
247.5
 30
0.0
 40
1.5
  1
BS1
  7
ROMANS
  0
TEXT
  8
0
  6
CONTINUOUS
 62
     7
 10
282.5
 20
237.5
 30
0.0
 40
2.0
  1
U1
  7
ROMANS
  0
TEXT
  8
0
  6
CONTINUOUS
 62
     7
 10
52.5
 20
231.710342
 30
0.0
 40
2.0
  1
SGB/1
  7
ROMANS
  0
TEXT
  8
0
  6
CONTINUOUS
 62
     7
 10
52.5
 20
226.693562
 30
0.0
 40
2.0
  1
SGB/2
  7
ROMANS
  0
TEXT
  8
0
  6
CONTINUOUS
 62
     7
 10
52.5
 20
221.668105
 30
0.0
 40
2.0
  1
SGB/3
  7
ROMANS
  0
TEXT
  8
0
  6
CONTINUOUS
 62
     7
 10
52.5
 20
216.746778
 30
0.0
 40
2.0
  1
SGB/4
  7
ROMANS
  0
TEXT
  8
0
  6
CONTINUOUS
 62
     7
 10
52.5
 20
211.530414
 30
0.0
 40
2.0
  1
SGB/5
  7
ROMANS
  0
TEXT
  8
0
  6
CONTINUOUS
 62
     7
 10
52.5
 20
206.721895
 30
0.0
 40
2.0
  1
SGB/8
  7
ROMANS
  0
TEXT
  8
0
  6
CONTINUOUS
 62
     7
 10
90.0
 20
216.510758
 30
0.0
 40
2.0
  1
REMOTE SETTINGS
  7
ROMANS
  0
TEXT
  8
0
  6
CONTINUOUS
 62
     7
 10
90.0
 20
211.528688
 30
0.0
 40
2.0
  1
RELAY RESET
  7
ROMANS
  0
TEXT
  8
0
  6
CONTINUOUS
 62
     7
 10
77.5
 20
55.0
 30
0.0
 40
2.0
  1
TS 2
 50
90.0
  7
ROMANS
  0
TEXT
  8
0
  6
CONTINUOUS
 62
     7
 10
157.5
 20
55.0
 30
0.0
 40
2.0
  1
AR2
 50
90.0
  7
ROMANS
  0
TEXT
  8
0
  6
CONTINUOUS
 62
     7
 10
380.0
 20
2.5
 30
0.0
 40
2.5
  1
A
  7
ROMANS
  0
TEXT
  8
0
  6
CONTINUOUS
 62
     7
 10
223.722758
 20
55.0
 30
0.0
 40
1.5
  1
(NOT USED)
 50
90.0
  7
ROMANS
  0
LINE
  8
0
  6
CONTINUOUS
 62
     7
 10
102.5
 20
77.560896
 30
0.0
 11
102.5
 21
66.310896
 31
0.0
  0
LINE
  8
0
  6
CONTINUOUS
 62
     7
 10
220.0
 20
82.5
 30
0.0
 11
220.0
 21
100.0
 31
0.0
  0
TEXT
  8
0
  6
DASHED
 62
     7
 10
292.559556
 20
12.154511
 30
0.0
 40
3.0
  1
A3
  7
GREEKS
  0
TEXT
  8
0
  6
DASHED
 62
     7
 10
352.160939
 20
16.033682
 30
0.0
 40
1.4
  1
LEHTI SHEET
  7
GREEKS
  0
LINE
  8
0
 62
     7
 10
0.579461
 20
263.079152
 30
0.0
 11
392.579461
 21
263.079152
 31
0.0
  0
LINE
  8
0
 62
     7
 10
18.579461
 20
0.579152
 30
0.0
 11
0.579461
 21
0.579152
 31
0.0
  0
LINE
  8
0
 62
     7
 10
209.579461
 20
0.579152
 30
0.0
 11
392.579461
 21
0.579152
 31
0.0
  0
LINE
  8
0
 62
     7
 10
209.579461
 20
0.579152
 30
0.0
 11
209.579461
 21
35.579152
 31
0.0
  0
LINE
  8
0
 62
     7
 10
392.579461
 20
0.579152
 30
0.0
 11
392.579461
 21
35.579152
 31
0.0
  0
LINE
  8
0
 62
     7
 10
209.579461
 20
18.579152
 30
0.0
 11
392.579461
 21
18.579152
 31
0.0
  0
LINE
  8
0
 62
     7
 10
209.579461
 20
10.079152
 30
0.0
 11
392.579461
 21
10.079152
 31
0.0
  0
LINE
  8
0
 62
     7
 10
209.579461
 20
27.079152
 30
0.0
 11
307.579461
 21
27.079152
 31
0.0
  0
LINE
  8
0
 62
     7
 10
209.579461
 20
35.579152
 30
0.0
 11
392.579461
 21
35.579152
 31
0.0
  0
TEXT
  8
0
 62
     7
 10
210.579461
 20
24.312485
 30
0.0
 40
1.4
  1
TARKASTI  CHECKED
  7
ROMANS
  0
TEXT
  8
0
 62
     7
 10
210.322296
 20
16.045818
 30
0.0
 40
1.4
  1
HYVÄKSYI  APPROVED
  7
ROMANS
  0
LINE
  8
0
 62
     7
 10
307.579461
 20
0.579152
 30
0.0
 11
307.579461
 21
35.579152
 31
0.0
  0
TEXT
  8
0
 62
     7
 10
259.579461
 20
33.079152
 30
0.0
 40
1.4
  1
LIITTYY  CONCERNING
  7
ROMANS
  0
TEXT
  8
0
 62
     7
 10
259.579461
 20
24.079152
 30
0.0
 40
1.4
  1
TOLERANSSIT  TOLERANCES
  7
ROMANS
  0
TEXT
  8
0
 62
     7
 10
259.579461
 20
16.079152
 30
0.0
 40
1.4
  1
SUHDE  SCALE
  7
ROMANS
  0
TEXT
  8
0
 62
     7
 10
309.579461
 20
33.079152
 30
0.0
 40
1.4
  1
NIMITYS  NAME
  7
ROMANS
  0
TEXT
  8
0
 62
     7
 10
309.579461
 20
16.079152
 30
0.0
 40
1.4
  1
KOODI  CODE
  7
ROMANS
  0
TEXT
  8
0
 62
     7
 10
309.579461
 20
7.579152
 30
0.0
 40
1.4
  1
PIIRUSTUS NO  DRAWING NR
  7
ROMANS
  0
LINE
  8
0
 62
     7
 10
350.079461
 20
10.079152
 30
0.0
 11
350.079461
 21
18.579152
 31
0.0
  0
TEXT
  8
0
 62
     7
 10
371.579461
 20
7.579152
 30
0.0
 40
1.4
  1
PAINOS  REVISION
  7
ROMANS
  0
LINE
  8
0
 62
     7
 10
370.079461
 20
10.079152
 30
0.0
 11
370.079461
 21
0.579152
 31
0.0
  0
LINE
  8
0
 62
     7
 10
210.529461
 20
2.079152
 30
0.0
 11
212.279461
 21
2.079152
 31
0.0
  0
LINE
  8
0
 62
     7
 10
215.779461
 20
2.079152
 30
0.0
 11
217.529461
 21
2.079152
 31
0.0
  0
LINE
  8
0
 62
     7
 10
212.979461
 20
9.079152
 30
0.0
 11
211.801933
 21
5.714786
 31
0.0
  0
LINE
  8
0
 62
     7
 10
212.768248
 20
3.479152
 30
0.0
 11
213.889461
 21
3.479152
 31
0.0
  0
LINE
  8
0
 62
     7
 10
212.768251
 20
3.475694
 30
0.0
 11
212.279461
 21
2.079152
 31
0.0
  0
LINE
  8
0
 62
     7
 10
215.079461
 20
9.079152
 30
0.0
 11
216.255814
 21
5.718143
 31
0.0
  0
LINE
  8
0
 62
     7
 10
215.290559
 20
3.476015
 30
0.0
 11
215.779461
 21
2.079152
 31
0.0
  0
LINE
  8
0
 62
     7
 10
215.079461
 20
9.079152
 30
0.0
 11
214.169461
 21
9.079152
 31
0.0
  0
LINE
  8
0
 62
     7
 10
213.889461
 20
9.079152
 30
0.0
 11
213.889461
 21
5.719152
 31
0.0
  0
LINE
  8
0
 62
     7
 10
214.169461
 20
9.079152
 30
0.0
 11
214.169461
 21
5.719152
 31
0.0
  0
LINE
  8
0
 62
     7
 10
214.169461
 20
3.479152
 30
0.0
 11
215.289354
 21
3.479152
 31
0.0
  0
LINE
  8
0
 62
     7
 10
213.889461
 20
9.079152
 30
0.0
 11
212.979461
 21
9.079152
 31
0.0
  0
LINE
  8
0
 62
     7
 10
211.801402
 20
5.719152
 30
0.0
 11
213.889461
 21
5.719152
 31
0.0
  0
LINE
  8
0
 62
     7
 10
211.702443
 20
5.439152
 30
0.0
 11
213.889461
 21
5.439152
 31
0.0
  0
LINE
  8
0
 62
     7
 10
216.353953
 20
5.437746
 30
0.0
 11
217.529461
 21
2.079152
 31
0.0
  0
LINE
  8
0
 62
     7
 10
214.169461
 20
5.719152
 30
0.0
 11
216.254575
 21
5.719152
 31
0.0
  0
LINE
  8
0
 62
     7
 10
214.169461
 20
5.439152
 30
0.0
 11
216.352717
 21
5.439152
 31
0.0
  0
LINE
  8
0
 62
     7
 10
214.169461
 20
5.439152
 30
0.0
 11
214.169461
 21
3.479152
 31
0.0
  0
LINE
  8
0
 62
     7
 10
213.889461
 20
5.439152
 30
0.0
 11
213.889461
 21
3.479152
 31
0.0
  0
LINE
  8
0
 62
     7
 10
211.69935
 20
5.421691
 30
0.0
 11
210.529461
 21
2.079152
 31
0.0
  0
INSERT
  8
0
 62
     7
  2
*X15
 10
210.529461
 20
2.079152
 30
0.0
 41
0.7
 42
0.7
 43
0.7
  0
INSERT
  8
0
 62
     7
  2
*X16
 10
210.529461
 20
2.079152
 30
0.0
 41
0.7
 42
0.7
 43
0.7
  0
INSERT
  8
0
 62
     7
  2
*X17
 10
210.529461
 20
2.079152
 30
0.0
 41
0.7
 42
0.7
 43
0.7
  0
INSERT
  8
0
 62
     7
  2
*X18
 10
210.529461
 20
2.079152
 30
0.0
 41
0.7
 42
0.7
 43
0.7
  0
LINE
  8
0
 62
     7
 10
218.019461
 20
2.079152
 30
0.0
 11
218.019461
 21
5.439152
 31
0.0
  0
LINE
  8
0
 62
     7
 10
218.019461
 20
9.079152
 30
0.0
 11
219.979461
 21
9.079152
 31
0.0
  0
LINE
  8
0
 62
     7
 10
219.979461
 20
9.079152
 30
0.0
 11
219.979461
 21
5.719152
 31
0.0
  0
LINE
  8
0
 62
     7
 10
219.979461
 20
5.719152
 30
0.0
 11
218.019461
 21
5.719152
 31
0.0
  0
LINE
  8
0
 62
     7
 10
218.019461
 20
5.439152
 30
0.0
 11
219.979461
 21
5.439152
 31
0.0
  0
LINE
  8
0
 62
     7
 10
219.979461
 20
5.439152
 30
0.0
 11
219.979461
 21
2.079152
 31
0.0
  0
LINE
  8
0
 62
     7
 10
219.979461
 20
2.079152
 30
0.0
 11
218.019461
 21
2.079152
 31
0.0
  0
LINE
  8
0
 62
     7
 10
218.019461
 20
5.719152
 30
0.0
 11
218.019461
 21
9.079152
 31
0.0
  0
ARC
  8
0
 62
     7
 10
220.819461
 20
7.504152
 30
0.0
 40
1.575
 50
298.455859
 51
90.052437
  0
LINE
  8
0
 62
     7
 10
220.259461
 20
9.079152
 30
0.0
 11
220.818019
 21
9.079151
 31
0.0
  0
LINE
  8
0
 62
     7
 10
220.259461
 20
9.079152
 30
0.0
 11
220.259461
 21
5.719152
 31
0.0
  0
LINE
  8
0
 62
     7
 10
220.259461
 20
5.719152
 30
0.0
 11
222.243904
 21
5.719152
 31
0.0
  0
LINE
  8
0
 62
     7
 10
222.499461
 20
5.439152
 30
0.0
 11
220.259461
 21
5.439152
 31
0.0
  0
LINE
  8
0
 62
     7
 10
220.259461
 20
5.439152
 30
0.0
 11
220.259461
 21
2.079152
 31
0.0
  0
ARC
  8
0
 62
     7
 10
220.819461
 20
4.179152
 30
0.0
 40
2.1
 50
269.937724
 51
37.056553
  0
LINE
  8
0
 62
     7
 10
220.259461
 20
2.079152
 30
0.0
 11
220.817178
 21
2.079153
 31
0.0
  0
ARC
  8
0
 62
     7
 10
220.819461
 20
4.179152
 30
0.0
 40
2.1
 50
47.28622
 51
68.787999
  0
INSERT
  8
0
 62
     7
  2
*X19
 10
210.529461
 20
2.079152
 30
0.0
 41
0.7
 42
0.7
 43
0.7
  0
INSERT
  8
0
 62
     7
  2
*X20
 10
210.529461
 20
2.079152
 30
0.0
 41
0.7
 42
0.7
 43
0.7
  0
INSERT
  8
0
 62
     7
  2
*X21
 10
210.529461
 20
2.079152
 30
0.0
 41
0.7
 42
0.7
 43
0.7
  0
INSERT
  8
0
 62
     7
  2
*X22
 10
210.529461
 20
2.079152
 30
0.0
 41
0.7
 42
0.7
 43
0.7
  0
INSERT
  8
0
 62
     7
  2
*X22
 10
215.989461
 20
2.079152
 30
0.0
 41
0.7
 42
0.7
 43
0.7
  0
INSERT
  8
0
 62
     7
  2
*X21
 10
215.989461
 20
2.079152
 30
0.0
 41
0.7
 42
0.7
 43
0.7
  0
INSERT
  8
0
 62
     7
  2
*X20
 10
215.989461
 20
2.079152
 30
0.0
 41
0.7
 42
0.7
 43
0.7
  0
INSERT
  8
0
 62
     7
  2
*X19
 10
215.989461
 20
2.079152
 30
0.0
 41
0.7
 42
0.7
 43
0.7
  0
ARC
  8
0
 62
     7
 10
226.279461
 20
4.179152
 30
0.0
 40
2.1
 50
47.28622
 51
68.787999
  0
LINE
  8
0
 62
     7
 10
225.719461
 20
2.079152
 30
0.0
 11
226.277178
 21
2.079153
 31
0.0
  0
ARC
  8
0
 62
     7
 10
226.279461
 20
4.179152
 30
0.0
 40
2.1
 50
269.937724
 51
37.056553
  0
LINE
  8
0
 62
     7
 10
225.719461
 20
5.439152
 30
0.0
 11
225.719461
 21
2.079152
 31
0.0
  0
LINE
  8
0
 62
     7
 10
227.959461
 20
5.439152
 30
0.0
 11
225.719461
 21
5.439152
 31
0.0
  0
LINE
  8
0
 62
     7
 10
225.719461
 20
5.719152
 30
0.0
 11
227.703904
 21
5.719152
 31
0.0
  0
LINE
  8
0
 62
     7
 10
225.719461
 20
9.079152
 30
0.0
 11
225.719461
 21
5.719152
 31
0.0
  0
LINE
  8
0
 62
     7
 10
225.719461
 20
9.079152
 30
0.0
 11
226.278019
 21
9.079151
 31
0.0
  0
ARC
  8
0
 62
     7
 10
226.279461
 20
7.504152
 30
0.0
 40
1.575
 50
298.455859
 51
90.052437
  0
LINE
  8
0
 62
     7
 10
223.479461
 20
5.719152
 30
0.0
 11
223.479461
 21
9.079152
 31
0.0
  0
LINE
  8
0
 62
     7
 10
225.439461
 20
2.079152
 30
0.0
 11
223.479461
 21
2.079152
 31
0.0
  0
LINE
  8
0
 62
     7
 10
225.439461
 20
5.439152
 30
0.0
 11
225.439461
 21
2.079152
 31
0.0
  0
LINE
  8
0
 62
     7
 10
223.479461
 20
5.439152
 30
0.0
 11
225.439461
 21
5.439152
 31
0.0
  0
LINE
  8
0
 62
     7
 10
225.439461
 20
5.719152
 30
0.0
 11
223.479461
 21
5.719152
 31
0.0
  0
LINE
  8
0
 62
     7
 10
225.439461
 20
9.079152
 30
0.0
 11
225.439461
 21
5.719152
 31
0.0
  0
LINE
  8
0
 62
     7
 10
223.479461
 20
9.079152
 30
0.0
 11
225.439461
 21
9.079152
 31
0.0
  0
LINE
  8
0
 62
     7
 10
223.479461
 20
2.079152
 30
0.0
 11
223.479461
 21
5.439152
 31
0.0
  0
TEXT
  8
0
 62
     7
 10
230.079461
 20
2.079152
 30
0.0
 40
3.0
  1
ABB 
 41
0.8
  7
ROMANS
  0
TEXT
  8
0
 62
     7
 10
238.079461
 20
2.079152
 30
0.0
 40
3.0
  1
Strömberg
 41
0.8
  7
ROMANS
  0
LINE
  8
0
 62
     7
 10
282.579461
 20
10.079152
 30
0.0
 11
282.579461
 21
18.579152
 31
0.0
  0
TEXT
  8
0
 62
     7
 10
28.079461
 20
5.079152
 30
0.0
 40
1.4
  1
MUUTOS
  7
ROMANS
  0
TEXT
  8
0
 62
     7
 10
28.079461
 20
2.812485
 30
0.0
 40
1.4
  1
REVISION
  7
ROMANS
  0
LINE
  8
0
 62
     7
 10
47.079461
 20
9.579152
 30
0.0
 11
209.579461
 21
9.579152
 31
0.0
  0
LINE
  8
0
 62
     7
 10
47.079461
 20
0.579152
 30
0.0
 11
47.079461
 21
9.579152
 31
0.0
  0
LINE
  8
0
 62
     7
 10
41.079461
 20
5.079152
 30
0.0
 11
209.579461
 21
5.079152
 31
0.0
  0
LINE
  8
0
 62
     7
 10
257.579461
 20
10.079152
 30
0.0
 11
257.579461
 21
35.579152
 31
0.0
  0
LINE
  8
0
 62
     7
 10
271.579461
 20
10.079152
 30
0.0
 11
271.579461
 21
0.579152
 31
0.0
  0
TEXT
  8
0
 62
     7
 10
210.579461
 20
32.579152
 30
0.0
 40
1.4
  1
TEKI  PREPARED
  7
ROMANS
  0
TEXT
  8
0
 62
     7
 10
273.579461
 20
7.579152
 30
0.0
 40
1.4
  1
VAST.OSASTO RESP.DEPT.
  7
ROMANS
  0
TEXT
  8
0
 62
     7
 10
257.749368
 20
2.082935
 30
0.0
 40
3.0
  1
Power
 41
0.8
  7
ROMANS
  0
TEXT
  8
0
 62
     7
 10
42.579461
 20
1.536444
 30
0.0
 40
2.5
  1
B
  7
ROMANS
  0
TEXT
  8
0
 62
     7
 10
42.579461
 20
5.928661
 30
0.0
 40
2.5
  1
C
  7
ROMANS
  0
LINE
  8
0
 62
     7
 10
0.579461
 20
0.579152
 30
0.0
 11
392.579461
 21
0.579152
 31
0.0
  0
LINE
  8
0
 62
     7
 10
392.579461
 20
263.079152
 30
0.0
 11
392.579461
 21
0.579152
 31
0.0
  0
LINE
  8
0
 62
     7
 10
0.579461
 20
0.579152
 30
0.0
 11
0.579461
 21
263.079152
 31
0.0
  0
3DFACE
  8
0
  6
CONTINUOUS
 62
     7
 10
71.809896
 20
118.75
 30
0.0
 11
71.829297
 21
118.736529
 31
0.0
 12
71.829297
 22
118.763602
 32
0.0
 13
71.809896
 23
118.75
 33
0.0
  0
3DFACE
  8
0
  6
CONTINUOUS
 62
     7
 10
71.829297
 20
118.736529
 30
0.0
 11
71.848698
 21
118.723058
 31
0.0
 12
71.848698
 22
118.777203
 32
0.0
 13
71.829297
 23
118.763602
 33
0.0
  0
3DFACE
  8
0
  6
CONTINUOUS
 62
     7
 10
71.848698
 20
118.723058
 30
0.0
 11
71.868099
 21
118.709586
 31
0.0
 12
71.868099
 22
118.790805
 32
0.0
 13
71.848698
 23
118.777203
 33
0.0
  0
3DFACE
  8
0
  6
CONTINUOUS
 62
     7
 10
71.868099
 20
118.709586
 30
0.0
 11
71.8875
 21
118.696115
 31
0.0
 12
71.8875
 22
118.804406
 32
0.0
 13
71.868099
 23
118.790805
 33
0.0
  0
3DFACE
  8
0
  6
CONTINUOUS
 62
     7
 10
71.8875
 20
118.696115
 30
0.0
 11
71.906901
 21
118.682644
 31
0.0
 12
71.906901
 22
118.818008
 32
0.0
 13
71.8875
 23
118.804406
 33
0.0
  0
3DFACE
  8
0
  6
CONTINUOUS
 62
     7
 10
71.906901
 20
118.682644
 30
0.0
 11
71.926302
 21
118.669172
 31
0.0
 12
71.926302
 22
118.831609
 32
0.0
 13
71.906901
 23
118.818008
 33
0.0
  0
3DFACE
  8
0
  6
CONTINUOUS
 62
     7
 10
71.926302
 20
118.669172
 30
0.0
 11
71.945703
 21
118.655701
 31
0.0
 12
71.945703
 22
118.845211
 32
0.0
 13
71.926302
 23
118.831609
 33
0.0
  0
3DFACE
  8
0
  6
CONTINUOUS
 62
     7
 10
71.945703
 20
118.655701
 30
0.0
 11
71.965104
 21
118.64223
 31
0.0
 12
71.965104
 22
118.858812
 32
0.0
 13
71.945703
 23
118.845211
 33
0.0
  0
3DFACE
  8
0
  6
CONTINUOUS
 62
     7
 10
71.965104
 20
118.64223
 30
0.0
 11
71.984505
 21
118.628758
 31
0.0
 12
71.984505
 22
118.872414
 32
0.0
 13
71.965104
 23
118.858812
 33
0.0
  0
3DFACE
  8
0
  6
CONTINUOUS
 62
     7
 10
71.984505
 20
118.628758
 30
0.0
 11
72.003906
 21
118.615287
 31
0.0
 12
72.003906
 22
118.886016
 32
0.0
 13
71.984505
 23
118.872414
 33
0.0
  0
3DFACE
  8
0
  6
CONTINUOUS
 62
     7
 10
72.003906
 20
118.615287
 30
0.0
 11
72.023307
 21
118.601816
 31
0.0
 12
72.023307
 22
118.899617
 32
0.0
 13
72.003906
 23
118.886016
 33
0.0
  0
3DFACE
  8
0
  6
CONTINUOUS
 62
     7
 10
72.023307
 20
118.601816
 30
0.0
 11
72.042708
 21
118.588344
 31
0.0
 12
72.042708
 22
118.913219
 32
0.0
 13
72.023307
 23
118.899617
 33
0.0
  0
3DFACE
  8
0
  6
CONTINUOUS
 62
     7
 10
72.042708
 20
118.588344
 30
0.0
 11
72.06211
 21
118.574873
 31
0.0
 12
72.06211
 22
118.92682
 32
0.0
 13
72.042708
 23
118.913219
 33
0.0
  0
3DFACE
  8
0
  6
CONTINUOUS
 62
     7
 10
72.06211
 20
118.574873
 30
0.0
 11
72.081511
 21
118.561402
 31
0.0
 12
72.081511
 22
118.940422
 32
0.0
 13
72.06211
 23
118.92682
 33
0.0
  0
3DFACE
  8
0
  6
CONTINUOUS
 62
     7
 10
72.081511
 20
118.561402
 30
0.0
 11
72.100912
 21
118.54793
 31
0.0
 12
72.100912
 22
118.954023
 32
0.0
 13
72.081511
 23
118.940422
 33
0.0
  0
3DFACE
  8
0
  6
CONTINUOUS
 62
     7
 10
72.100912
 20
118.54793
 30
0.0
 11
72.120313
 21
118.534459
 31
0.0
 12
72.120313
 22
118.967625
 32
0.0
 13
72.100912
 23
118.954023
 33
0.0
  0
3DFACE
  8
0
  6
CONTINUOUS
 62
     7
 10
72.120313
 20
118.534459
 30
0.0
 11
72.139714
 21
118.520988
 31
0.0
 12
72.139714
 22
118.981226
 32
0.0
 13
72.120313
 23
118.967625
 33
0.0
  0
3DFACE
  8
0
  6
CONTINUOUS
 62
     7
 10
72.139714
 20
118.520988
 30
0.0
 11
72.159115
 21
118.507517
 31
0.0
 12
72.159115
 22
118.994828
 32
0.0
 13
72.139714
 23
118.981226
 33
0.0
  0
3DFACE
  8
0
  6
CONTINUOUS
 62
     7
 10
72.159115
 20
118.507517
 30
0.0
 11
72.178516
 21
118.494045
 31
0.0
 12
72.178516
 22
119.008429
 32
0.0
 13
72.159115
 23
118.994828
 33
0.0
  0
3DFACE
  8
0
  6
CONTINUOUS
 62
     7
 10
72.178516
 20
118.494045
 30
0.0
 11
72.197917
 21
118.480574
 31
0.0
 12
72.197917
 22
119.022031
 32
0.0
 13
72.178516
 23
119.008429
 33
0.0
  0
3DFACE
  8
0
  6
CONTINUOUS
 62
     7
 10
72.197917
 20
118.480574
 30
0.0
 11
72.217318
 21
118.467103
 31
0.0
 12
72.217318
 22
119.035632
 32
0.0
 13
72.197917
 23
119.022031
 33
0.0
  0
3DFACE
  8
0
  6
CONTINUOUS
 62
     7
 10
72.217318
 20
118.467103
 30
0.0
 11
72.236719
 21
118.453631
 31
0.0
 12
72.236719
 22
119.049234
 32
0.0
 13
72.217318
 23
119.035632
 33
0.0
  0
3DFACE
  8
0
  6
CONTINUOUS
 62
     7
 10
72.236719
 20
118.453631
 30
0.0
 11
72.25612
 21
118.44016
 31
0.0
 12
72.25612
 22
119.062835
 32
0.0
 13
72.236719
 23
119.049234
 33
0.0
  0
3DFACE
  8
0
  6
CONTINUOUS
 62
     7
 10
72.25612
 20
118.44016
 30
0.0
 11
72.275521
 21
118.426689
 31
0.0
 12
72.275521
 22
119.076437
 32
0.0
 13
72.25612
 23
119.062835
 33
0.0
  0
3DFACE
  8
0
  6
CONTINUOUS
 62
     7
 10
72.275521
 20
118.426689
 30
0.0
 11
72.294922
 21
118.413217
 31
0.0
 12
72.294922
 22
119.090038
 32
0.0
 13
72.275521
 23
119.076437
 33
0.0
  0
3DFACE
  8
0
  6
CONTINUOUS
 62
     7
 10
72.294922
 20
118.413217
 30
0.0
 11
72.314323
 21
118.399746
 31
0.0
 12
72.314323
 22
119.10364
 32
0.0
 13
72.294922
 23
119.090038
 33
0.0
  0
3DFACE
  8
0
  6
CONTINUOUS
 62
     7
 10
72.314323
 20
118.399746
 30
0.0
 11
72.333724
 21
118.386275
 31
0.0
 12
72.333724
 22
119.117242
 32
0.0
 13
72.314323
 23
119.10364
 33
0.0
  0
3DFACE
  8
0
  6
CONTINUOUS
 62
     7
 10
72.333724
 20
118.386275
 30
0.0
 11
72.353125
 21
118.372803
 31
0.0
 12
72.353125
 22
119.130843
 32
0.0
 13
72.333724
 23
119.117242
 33
0.0
  0
3DFACE
  8
0
  6
CONTINUOUS
 62
     7
 10
72.353125
 20
118.372803
 30
0.0
 11
72.372526
 21
118.359332
 31
0.0
 12
72.372526
 22
119.144445
 32
0.0
 13
72.353125
 23
119.130843
 33
0.0
  0
3DFACE
  8
0
  6
CONTINUOUS
 62
     7
 10
72.372526
 20
118.359332
 30
0.0
 11
72.391927
 21
118.345861
 31
0.0
 12
72.391927
 22
119.158046
 32
0.0
 13
72.372526
 23
119.144445
 33
0.0
  0
3DFACE
  8
0
  6
CONTINUOUS
 62
     7
 10
72.391927
 20
118.345861
 30
0.0
 11
72.411328
 21
118.332389
 31
0.0
 12
72.411328
 22
119.171648
 32
0.0
 13
72.391927
 23
119.158046
 33
0.0
  0
3DFACE
  8
0
  6
CONTINUOUS
 62
     7
 10
72.411328
 20
118.332389
 30
0.0
 11
72.430729
 21
118.318918
 31
0.0
 12
72.430729
 22
119.185249
 32
0.0
 13
72.411328
 23
119.171648
 33
0.0
  0
3DFACE
  8
0
  6
CONTINUOUS
 62
     7
 10
72.430729
 20
118.318918
 30
0.0
 11
72.45013
 21
118.305447
 31
0.0
 12
72.45013
 22
119.198851
 32
0.0
 13
72.430729
 23
119.185249
 33
0.0
  0
3DFACE
  8
0
  6
CONTINUOUS
 62
     7
 10
72.45013
 20
118.305447
 30
0.0
 11
72.469531
 21
118.291975
 31
0.0
 12
72.469531
 22
119.212452
 32
0.0
 13
72.45013
 23
119.198851
 33
0.0
  0
3DFACE
  8
0
  6
CONTINUOUS
 62
     7
 10
72.469531
 20
118.291975
 30
0.0
 11
72.488932
 21
118.278504
 31
0.0
 12
72.488932
 22
119.226054
 32
0.0
 13
72.469531
 23
119.212452
 33
0.0
  0
3DFACE
  8
0
  6
CONTINUOUS
 62
     7
 10
72.488932
 20
118.278504
 30
0.0
 11
72.508333
 21
118.265033
 31
0.0
 12
72.508333
 22
119.239655
 32
0.0
 13
72.488932
 23
119.226054
 33
0.0
  0
3DFACE
  8
0
  6
CONTINUOUS
 62
     7
 10
72.508333
 20
118.265033
 30
0.0
 11
72.527734
 21
118.251562
 31
0.0
 12
72.527734
 22
119.253257
 32
0.0
 13
72.508333
 23
119.239655
 33
0.0
  0
3DFACE
  8
0
  6
CONTINUOUS
 62
     7
 10
72.527734
 20
118.251562
 30
0.0
 11
72.547136
 21
118.23809
 31
0.0
 12
72.547136
 22
119.266858
 32
0.0
 13
72.527734
 23
119.253257
 33
0.0
  0
3DFACE
  8
0
  6
CONTINUOUS
 62
     7
 10
72.547136
 20
118.23809
 30
0.0
 11
72.566537
 21
118.224619
 31
0.0
 12
72.566537
 22
119.28046
 32
0.0
 13
72.547136
 23
119.266858
 33
0.0
  0
3DFACE
  8
0
  6
CONTINUOUS
 62
     7
 10
72.566537
 20
118.224619
 30
0.0
 11
72.585938
 21
118.211148
 31
0.0
 12
72.585938
 22
119.294061
 32
0.0
 13
72.566537
 23
119.28046
 33
0.0
  0
3DFACE
  8
0
  6
CONTINUOUS
 62
     7
 10
72.585938
 20
118.211148
 30
0.0
 11
72.605339
 21
118.197676
 31
0.0
 12
72.605339
 22
119.307663
 32
0.0
 13
72.585938
 23
119.294061
 33
0.0
  0
3DFACE
  8
0
  6
CONTINUOUS
 62
     7
 10
72.605339
 20
118.197676
 30
0.0
 11
72.62474
 21
118.184205
 31
0.0
 12
72.62474
 22
119.321264
 32
0.0
 13
72.605339
 23
119.307663
 33
0.0
  0
3DFACE
  8
0
  6
CONTINUOUS
 62
     7
 10
72.62474
 20
118.184205
 30
0.0
 11
72.644141
 21
118.170734
 31
0.0
 12
72.644141
 22
119.334866
 32
0.0
 13
72.62474
 23
119.321264
 33
0.0
  0
3DFACE
  8
0
  6
CONTINUOUS
 62
     7
 10
72.644141
 20
118.170734
 30
0.0
 11
72.663542
 21
118.157262
 31
0.0
 12
72.663542
 22
119.348468
 32
0.0
 13
72.644141
 23
119.334866
 33
0.0
  0
3DFACE
  8
0
  6
CONTINUOUS
 62
     7
 10
72.663542
 20
118.157262
 30
0.0
 11
72.682943
 21
118.143791
 31
0.0
 12
72.682943
 22
119.362069
 32
0.0
 13
72.663542
 23
119.348468
 33
0.0
  0
3DFACE
  8
0
  6
CONTINUOUS
 62
     7
 10
72.682943
 20
118.143791
 30
0.0
 11
72.702344
 21
118.13032
 31
0.0
 12
72.702344
 22
119.375671
 32
0.0
 13
72.682943
 23
119.362069
 33
0.0
  0
3DFACE
  8
0
  6
CONTINUOUS
 62
     7
 10
72.702344
 20
118.13032
 30
0.0
 11
72.721745
 21
118.116848
 31
0.0
 12
72.721745
 22
119.389272
 32
0.0
 13
72.702344
 23
119.375671
 33
0.0
  0
3DFACE
  8
0
  6
CONTINUOUS
 62
     7
 10
72.721745
 20
118.116848
 30
0.0
 11
72.741146
 21
118.103377
 31
0.0
 12
72.741146
 22
119.402874
 32
0.0
 13
72.721745
 23
119.389272
 33
0.0
  0
3DFACE
  8
0
  6
CONTINUOUS
 62
     7
 10
72.741146
 20
118.103377
 30
0.0
 11
72.760547
 21
118.089906
 31
0.0
 12
72.760547
 22
119.416475
 32
0.0
 13
72.741146
 23
119.402874
 33
0.0
  0
3DFACE
  8
0
  6
CONTINUOUS
 62
     7
 10
72.760547
 20
118.089906
 30
0.0
 11
72.779948
 21
118.076434
 31
0.0
 12
72.779948
 22
119.430077
 32
0.0
 13
72.760547
 23
119.416475
 33
0.0
  0
3DFACE
  8
0
  6
CONTINUOUS
 62
     7
 10
72.779948
 20
118.076434
 30
0.0
 11
72.799349
 21
118.062963
 31
0.0
 12
72.799349
 22
119.443678
 32
0.0
 13
72.779948
 23
119.430077
 33
0.0
  0
3DFACE
  8
0
  6
CONTINUOUS
 62
     7
 10
72.799349
 20
118.062963
 30
0.0
 11
72.81875
 21
118.049492
 31
0.0
 12
72.81875
 22
119.45728
 32
0.0
 13
72.799349
 23
119.443678
 33
0.0
  0
3DFACE
  8
0
  6
CONTINUOUS
 62
     7
 10
72.81875
 20
118.049492
 30
0.0
 11
72.838151
 21
118.03602
 31
0.0
 12
72.838151
 22
119.470881
 32
0.0
 13
72.81875
 23
119.45728
 33
0.0
  0
3DFACE
  8
0
  6
CONTINUOUS
 62
     7
 10
72.838151
 20
118.03602
 30
0.0
 11
72.857552
 21
118.022549
 31
0.0
 12
72.857552
 22
119.484483
 32
0.0
 13
72.838151
 23
119.470881
 33
0.0
  0
3DFACE
  8
0
  6
CONTINUOUS
 62
     7
 10
72.857552
 20
118.022549
 30
0.0
 11
72.876953
 21
118.009078
 31
0.0
 12
72.876953
 22
119.498084
 32
0.0
 13
72.857552
 23
119.484483
 33
0.0
  0
3DFACE
  8
0
  6
CONTINUOUS
 62
     7
 10
72.876953
 20
118.009078
 30
0.0
 11
72.896354
 21
117.995606
 31
0.0
 12
72.896354
 22
119.511686
 32
0.0
 13
72.876953
 23
119.498084
 33
0.0
  0
3DFACE
  8
0
  6
CONTINUOUS
 62
     7
 10
72.896354
 20
117.995606
 30
0.0
 11
72.915755
 21
117.982135
 31
0.0
 12
72.915755
 22
119.525287
 32
0.0
 13
72.896354
 23
119.511686
 33
0.0
  0
3DFACE
  8
0
  6
CONTINUOUS
 62
     7
 10
72.915755
 20
117.982135
 30
0.0
 11
72.935156
 21
117.968664
 31
0.0
 12
72.935156
 22
119.538889
 32
0.0
 13
72.915755
 23
119.525287
 33
0.0
  0
3DFACE
  8
0
  6
CONTINUOUS
 62
     7
 10
72.935156
 20
117.968664
 30
0.0
 11
72.954557
 21
117.955193
 31
0.0
 12
72.954557
 22
119.552491
 32
0.0
 13
72.935156
 23
119.538889
 33
0.0
  0
3DFACE
  8
0
  6
CONTINUOUS
 62
     7
 10
72.954557
 20
117.955193
 30
0.0
 11
72.973958
 21
117.941721
 31
0.0
 12
72.973958
 22
119.566092
 32
0.0
 13
72.954557
 23
119.552491
 33
0.0
  0
3DFACE
  8
0
  6
CONTINUOUS
 62
     7
 10
72.973958
 20
117.941721
 30
0.0
 11
72.993359
 21
117.92825
 31
0.0
 12
72.993359
 22
119.579694
 32
0.0
 13
72.973958
 23
119.566092
 33
0.0
  0
3DFACE
  8
0
  6
CONTINUOUS
 62
     7
 10
72.993359
 20
117.92825
 30
0.0
 11
73.01276
 21
117.914779
 31
0.0
 12
73.01276
 22
119.593295
 32
0.0
 13
72.993359
 23
119.579694
 33
0.0
  0
3DFACE
  8
0
  6
CONTINUOUS
 62
     7
 10
73.01276
 20
117.914779
 30
0.0
 11
73.032162
 21
117.901307
 31
0.0
 12
73.032162
 22
119.606897
 32
0.0
 13
73.01276
 23
119.593295
 33
0.0
  0
3DFACE
  8
0
  6
CONTINUOUS
 62
     7
 10
73.032162
 20
117.901307
 30
0.0
 11
73.051563
 21
117.887836
 31
0.0
 12
73.051563
 22
119.620498
 32
0.0
 13
73.032162
 23
119.606897
 33
0.0
  0
3DFACE
  8
0
  6
CONTINUOUS
 62
     7
 10
73.051563
 20
117.887836
 30
0.0
 11
73.070964
 21
117.874365
 31
0.0
 12
73.070964
 22
119.6341
 32
0.0
 13
73.051563
 23
119.620498
 33
0.0
  0
3DFACE
  8
0
  6
CONTINUOUS
 62
     7
 10
73.070964
 20
117.874365
 30
0.0
 11
73.090365
 21
117.860893
 31
0.0
 12
73.090365
 22
119.647701
 32
0.0
 13
73.070964
 23
119.6341
 33
0.0
  0
3DFACE
  8
0
  6
CONTINUOUS
 62
     7
 10
73.090365
 20
117.860893
 30
0.0
 11
73.109766
 21
117.847422
 31
0.0
 12
73.109766
 22
119.661303
 32
0.0
 13
73.090365
 23
119.647701
 33
0.0
  0
3DFACE
  8
0
  6
CONTINUOUS
 62
     7
 10
73.109766
 20
117.847422
 30
0.0
 11
73.129167
 21
117.833951
 31
0.0
 12
73.129167
 22
119.674904
 32
0.0
 13
73.109766
 23
119.661303
 33
0.0
  0
3DFACE
  8
0
  6
CONTINUOUS
 62
     7
 10
73.129167
 20
117.833951
 30
0.0
 11
73.148568
 21
117.820479
 31
0.0
 12
73.148568
 22
119.688506
 32
0.0
 13
73.129167
 23
119.674904
 33
0.0
  0
3DFACE
  8
0
  6
CONTINUOUS
 62
     7
 10
73.148568
 20
117.820479
 30
0.0
 11
73.167969
 21
117.807008
 31
0.0
 12
73.167969
 22
119.702107
 32
0.0
 13
73.148568
 23
119.688506
 33
0.0
  0
3DFACE
  8
0
  6
CONTINUOUS
 62
     7
 10
73.167969
 20
117.807008
 30
0.0
 11
73.18737
 21
117.793537
 31
0.0
 12
73.18737
 22
119.715709
 32
0.0
 13
73.167969
 23
119.702107
 33
0.0
  0
3DFACE
  8
0
  6
CONTINUOUS
 62
     7
 10
73.18737
 20
117.793537
 30
0.0
 11
73.206771
 21
117.780065
 31
0.0
 12
73.206771
 22
119.72931
 32
0.0
 13
73.18737
 23
119.715709
 33
0.0
  0
3DFACE
  8
0
  6
CONTINUOUS
 62
     7
 10
73.206771
 20
117.780065
 30
0.0
 11
73.226172
 21
117.766594
 31
0.0
 12
73.226172
 22
119.742912
 32
0.0
 13
73.206771
 23
119.72931
 33
0.0
  0
3DFACE
  8
0
  6
CONTINUOUS
 62
     7
 10
73.226172
 20
117.766594
 30
0.0
 11
73.245573
 21
117.753123
 31
0.0
 12
73.245573
 22
119.756513
 32
0.0
 13
73.226172
 23
119.742912
 33
0.0
  0
3DFACE
  8
0
  6
CONTINUOUS
 62
     7
 10
73.245573
 20
117.753123
 30
0.0
 11
73.264974
 21
117.739651
 31
0.0
 12
73.264974
 22
119.770115
 32
0.0
 13
73.245573
 23
119.756513
 33
0.0
  0
3DFACE
  8
0
  6
CONTINUOUS
 62
     7
 10
73.264974
 20
117.739651
 30
0.0
 11
73.284375
 21
117.72618
 31
0.0
 12
73.284375
 22
119.783717
 32
0.0
 13
73.264974
 23
119.770115
 33
0.0
  0
3DFACE
  8
0
  6
CONTINUOUS
 62
     7
 10
73.284375
 20
117.72618
 30
0.0
 11
73.303776
 21
117.712709
 31
0.0
 12
73.303776
 22
119.797318
 32
0.0
 13
73.284375
 23
119.783717
 33
0.0
  0
3DFACE
  8
0
  6
CONTINUOUS
 62
     7
 10
73.303776
 20
117.712709
 30
0.0
 11
73.323177
 21
117.699238
 31
0.0
 12
73.323177
 22
119.81092
 32
0.0
 13
73.303776
 23
119.797318
 33
0.0
  0
3DFACE
  8
0
  6
CONTINUOUS
 62
     7
 10
73.323177
 20
117.699238
 30
0.0
 11
73.342578
 21
117.685766
 31
0.0
 12
73.342578
 22
119.824521
 32
0.0
 13
73.323177
 23
119.81092
 33
0.0
  0
3DFACE
  8
0
  6
CONTINUOUS
 62
     7
 10
73.342578
 20
117.685766
 30
0.0
 11
73.361979
 21
117.672295
 31
0.0
 12
73.361979
 22
119.838123
 32
0.0
 13
73.342578
 23
119.824521
 33
0.0
  0
3DFACE
  8
0
  6
CONTINUOUS
 62
     7
 10
73.361979
 20
117.672295
 30
0.0
 11
73.38138
 21
117.658824
 31
0.0
 12
73.38138
 22
119.851724
 32
0.0
 13
73.361979
 23
119.838123
 33
0.0
  0
3DFACE
  8
0
  6
CONTINUOUS
 62
     7
 10
73.38138
 20
117.658824
 30
0.0
 11
73.400781
 21
117.645352
 31
0.0
 12
73.400781
 22
119.865326
 32
0.0
 13
73.38138
 23
119.851724
 33
0.0
  0
3DFACE
  8
0
  6
CONTINUOUS
 62
     7
 10
73.400781
 20
117.645352
 30
0.0
 11
73.420182
 21
117.631881
 31
0.0
 12
73.420182
 22
119.878927
 32
0.0
 13
73.400781
 23
119.865326
 33
0.0
  0
3DFACE
  8
0
  6
CONTINUOUS
 62
     7
 10
73.420182
 20
117.631881
 30
0.0
 11
73.439583
 21
117.61841
 31
0.0
 12
73.439583
 22
119.892529
 32
0.0
 13
73.420182
 23
119.878927
 33
0.0
  0
3DFACE
  8
0
  6
CONTINUOUS
 62
     7
 10
73.439583
 20
117.61841
 30
0.0
 11
73.458984
 21
117.604938
 31
0.0
 12
73.458984
 22
119.90613
 32
0.0
 13
73.439583
 23
119.892529
 33
0.0
  0
3DFACE
  8
0
  6
CONTINUOUS
 62
     7
 10
73.458984
 20
117.604938
 30
0.0
 11
73.478385
 21
117.591467
 31
0.0
 12
73.478385
 22
119.919732
 32
0.0
 13
73.458984
 23
119.90613
 33
0.0
  0
3DFACE
  8
0
  6
CONTINUOUS
 62
     7
 10
73.478385
 20
117.591467
 30
0.0
 11
73.497786
 21
117.577996
 31
0.0
 12
73.497786
 22
119.933333
 32
0.0
 13
73.478385
 23
119.919732
 33
0.0
  0
3DFACE
  8
0
  6
CONTINUOUS
 62
     7
 10
73.497786
 20
117.577996
 30
0.0
 11
73.517188
 21
117.564524
 31
0.0
 12
73.517188
 22
119.946935
 32
0.0
 13
73.497786
 23
119.933333
 33
0.0
  0
3DFACE
  8
0
  6
CONTINUOUS
 62
     7
 10
73.517188
 20
117.564524
 30
0.0
 11
73.536589
 21
117.551053
 31
0.0
 12
73.536589
 22
119.960536
 32
0.0
 13
73.517188
 23
119.946935
 33
0.0
  0
3DFACE
  8
0
  6
CONTINUOUS
 62
     7
 10
73.536589
 20
117.551053
 30
0.0
 11
73.55599
 21
117.537582
 31
0.0
 12
73.55599
 22
119.974138
 32
0.0
 13
73.536589
 23
119.960536
 33
0.0
  0
3DFACE
  8
0
  6
CONTINUOUS
 62
     7
 10
73.55599
 20
117.537582
 30
0.0
 11
73.575391
 21
117.52411
 31
0.0
 12
73.575391
 22
119.98774
 32
0.0
 13
73.55599
 23
119.974138
 33
0.0
  0
3DFACE
  8
0
  6
CONTINUOUS
 62
     7
 10
73.575391
 20
117.52411
 30
0.0
 11
73.594792
 21
117.510639
 31
0.0
 12
73.594792
 22
120.001341
 32
0.0
 13
73.575391
 23
119.98774
 33
0.0
  0
3DFACE
  8
0
  6
CONTINUOUS
 62
     7
 10
73.594792
 20
117.510639
 30
0.0
 11
73.614193
 21
117.497168
 31
0.0
 12
73.614193
 22
120.014943
 32
0.0
 13
73.594792
 23
120.001341
 33
0.0
  0
3DFACE
  8
0
  6
CONTINUOUS
 62
     7
 10
73.614193
 20
117.497168
 30
0.0
 11
73.633594
 21
117.483696
 31
0.0
 12
73.633594
 22
120.028544
 32
0.0
 13
73.614193
 23
120.014943
 33
0.0
  0
3DFACE
  8
0
  6
CONTINUOUS
 62
     7
 10
73.633594
 20
117.483696
 30
0.0
 11
73.652995
 21
117.470225
 31
0.0
 12
73.652995
 22
120.042146
 32
0.0
 13
73.633594
 23
120.028544
 33
0.0
  0
3DFACE
  8
0
  6
CONTINUOUS
 62
     7
 10
73.652995
 20
117.470225
 30
0.0
 11
73.672396
 21
117.456754
 31
0.0
 12
73.672396
 22
120.055747
 32
0.0
 13
73.652995
 23
120.042146
 33
0.0
  0
3DFACE
  8
0
  6
CONTINUOUS
 62
     7
 10
73.672396
 20
117.456754
 30
0.0
 11
73.691797
 21
117.443283
 31
0.0
 12
73.691797
 22
120.069349
 32
0.0
 13
73.672396
 23
120.055747
 33
0.0
  0
3DFACE
  8
0
  6
CONTINUOUS
 62
     7
 10
73.691797
 20
117.443283
 30
0.0
 11
73.711198
 21
117.429811
 31
0.0
 12
73.711198
 22
120.08295
 32
0.0
 13
73.691797
 23
120.069349
 33
0.0
  0
3DFACE
  8
0
  6
CONTINUOUS
 62
     7
 10
73.711198
 20
117.429811
 30
0.0
 11
73.730599
 21
117.41634
 31
0.0
 12
73.730599
 22
120.096552
 32
0.0
 13
73.711198
 23
120.08295
 33
0.0
  0
3DFACE
  8
0
  6
CONTINUOUS
 62
     7
 10
73.730599
 20
117.41634
 30
0.0
 11
73.75
 21
117.402869
 31
0.0
 12
73.75
 22
120.110153
 32
0.0
 13
73.730599
 23
120.096552
 33
0.0
  0
LINE
  8
0
  6
CONTINUOUS
 62
     7
 10
71.809896
 20
118.75
 30
0.0
 11
73.75
 21
118.75
 31
0.0
  0
ARC
  8
0
  6
CONTINUOUS
 62
     7
 10
102.5
 20
82.5
 30
0.0
 40
0.5
 50
180.0
 51
0.0
  0
ARC
  8
0
  6
CONTINUOUS
 62
     7
 10
102.5
 20
82.5
 30
0.0
 40
0.5
 50
0.0
 51
180.0
  0
3DFACE
  8
0
  6
CONTINUOUS
 62
     7
 10
75.559896
 20
118.75
 30
0.0
 11
75.579297
 21
118.736529
 31
0.0
 12
75.579297
 22
118.763602
 32
0.0
 13
75.559896
 23
118.75
 33
0.0
  0
3DFACE
  8
0
  6
CONTINUOUS
 62
     7
 10
75.579297
 20
118.736529
 30
0.0
 11
75.598698
 21
118.723058
 31
0.0
 12
75.598698
 22
118.777203
 32
0.0
 13
75.579297
 23
118.763602
 33
0.0
  0
3DFACE
  8
0
  6
CONTINUOUS
 62
     7
 10
75.598698
 20
118.723058
 30
0.0
 11
75.618099
 21
118.709586
 31
0.0
 12
75.618099
 22
118.790805
 32
0.0
 13
75.598698
 23
118.777203
 33
0.0
  0
3DFACE
  8
0
  6
CONTINUOUS
 62
     7
 10
75.618099
 20
118.709586
 30
0.0
 11
75.6375
 21
118.696115
 31
0.0
 12
75.6375
 22
118.804406
 32
0.0
 13
75.618099
 23
118.790805
 33
0.0
  0
3DFACE
  8
0
  6
CONTINUOUS
 62
     7
 10
75.6375
 20
118.696115
 30
0.0
 11
75.656901
 21
118.682644
 31
0.0
 12
75.656901
 22
118.818008
 32
0.0
 13
75.6375
 23
118.804406
 33
0.0
  0
3DFACE
  8
0
  6
CONTINUOUS
 62
     7
 10
75.656901
 20
118.682644
 30
0.0
 11
75.676302
 21
118.669172
 31
0.0
 12
75.676302
 22
118.831609
 32
0.0
 13
75.656901
 23
118.818008
 33
0.0
  0
3DFACE
  8
0
  6
CONTINUOUS
 62
     7
 10
75.676302
 20
118.669172
 30
0.0
 11
75.695703
 21
118.655701
 31
0.0
 12
75.695703
 22
118.845211
 32
0.0
 13
75.676302
 23
118.831609
 33
0.0
  0
3DFACE
  8
0
  6
CONTINUOUS
 62
     7
 10
75.695703
 20
118.655701
 30
0.0
 11
75.715104
 21
118.64223
 31
0.0
 12
75.715104
 22
118.858812
 32
0.0
 13
75.695703
 23
118.845211
 33
0.0
  0
3DFACE
  8
0
  6
CONTINUOUS
 62
     7
 10
75.715104
 20
118.64223
 30
0.0
 11
75.734505
 21
118.628758
 31
0.0
 12
75.734505
 22
118.872414
 32
0.0
 13
75.715104
 23
118.858812
 33
0.0
  0
3DFACE
  8
0
  6
CONTINUOUS
 62
     7
 10
75.734505
 20
118.628758
 30
0.0
 11
75.753906
 21
118.615287
 31
0.0
 12
75.753906
 22
118.886016
 32
0.0
 13
75.734505
 23
118.872414
 33
0.0
  0
3DFACE
  8
0
  6
CONTINUOUS
 62
     7
 10
75.753906
 20
118.615287
 30
0.0
 11
75.773307
 21
118.601816
 31
0.0
 12
75.773307
 22
118.899617
 32
0.0
 13
75.753906
 23
118.886016
 33
0.0
  0
3DFACE
  8
0
  6
CONTINUOUS
 62
     7
 10
75.773307
 20
118.601816
 30
0.0
 11
75.792708
 21
118.588344
 31
0.0
 12
75.792708
 22
118.913219
 32
0.0
 13
75.773307
 23
118.899617
 33
0.0
  0
3DFACE
  8
0
  6
CONTINUOUS
 62
     7
 10
75.792708
 20
118.588344
 30
0.0
 11
75.81211
 21
118.574873
 31
0.0
 12
75.81211
 22
118.92682
 32
0.0
 13
75.792708
 23
118.913219
 33
0.0
  0
3DFACE
  8
0
  6
CONTINUOUS
 62
     7
 10
75.81211
 20
118.574873
 30
0.0
 11
75.831511
 21
118.561402
 31
0.0
 12
75.831511
 22
118.940422
 32
0.0
 13
75.81211
 23
118.92682
 33
0.0
  0
3DFACE
  8
0
  6
CONTINUOUS
 62
     7
 10
75.831511
 20
118.561402
 30
0.0
 11
75.850912
 21
118.54793
 31
0.0
 12
75.850912
 22
118.954023
 32
0.0
 13
75.831511
 23
118.940422
 33
0.0
  0
3DFACE
  8
0
  6
CONTINUOUS
 62
     7
 10
75.850912
 20
118.54793
 30
0.0
 11
75.870313
 21
118.534459
 31
0.0
 12
75.870313
 22
118.967625
 32
0.0
 13
75.850912
 23
118.954023
 33
0.0
  0
3DFACE
  8
0
  6
CONTINUOUS
 62
     7
 10
75.870313
 20
118.534459
 30
0.0
 11
75.889714
 21
118.520988
 31
0.0
 12
75.889714
 22
118.981226
 32
0.0
 13
75.870313
 23
118.967625
 33
0.0
  0
3DFACE
  8
0
  6
CONTINUOUS
 62
     7
 10
75.889714
 20
118.520988
 30
0.0
 11
75.909115
 21
118.507517
 31
0.0
 12
75.909115
 22
118.994828
 32
0.0
 13
75.889714
 23
118.981226
 33
0.0
  0
3DFACE
  8
0
  6
CONTINUOUS
 62
     7
 10
75.909115
 20
118.507517
 30
0.0
 11
75.928516
 21
118.494045
 31
0.0
 12
75.928516
 22
119.008429
 32
0.0
 13
75.909115
 23
118.994828
 33
0.0
  0
3DFACE
  8
0
  6
CONTINUOUS
 62
     7
 10
75.928516
 20
118.494045
 30
0.0
 11
75.947917
 21
118.480574
 31
0.0
 12
75.947917
 22
119.022031
 32
0.0
 13
75.928516
 23
119.008429
 33
0.0
  0
3DFACE
  8
0
  6
CONTINUOUS
 62
     7
 10
75.947917
 20
118.480574
 30
0.0
 11
75.967318
 21
118.467103
 31
0.0
 12
75.967318
 22
119.035632
 32
0.0
 13
75.947917
 23
119.022031
 33
0.0
  0
3DFACE
  8
0
  6
CONTINUOUS
 62
     7
 10
75.967318
 20
118.467103
 30
0.0
 11
75.986719
 21
118.453631
 31
0.0
 12
75.986719
 22
119.049234
 32
0.0
 13
75.967318
 23
119.035632
 33
0.0
  0
3DFACE
  8
0
  6
CONTINUOUS
 62
     7
 10
75.986719
 20
118.453631
 30
0.0
 11
76.00612
 21
118.44016
 31
0.0
 12
76.00612
 22
119.062835
 32
0.0
 13
75.986719
 23
119.049234
 33
0.0
  0
3DFACE
  8
0
  6
CONTINUOUS
 62
     7
 10
76.00612
 20
118.44016
 30
0.0
 11
76.025521
 21
118.426689
 31
0.0
 12
76.025521
 22
119.076437
 32
0.0
 13
76.00612
 23
119.062835
 33
0.0
  0
3DFACE
  8
0
  6
CONTINUOUS
 62
     7
 10
76.025521
 20
118.426689
 30
0.0
 11
76.044922
 21
118.413217
 31
0.0
 12
76.044922
 22
119.090038
 32
0.0
 13
76.025521
 23
119.076437
 33
0.0
  0
3DFACE
  8
0
  6
CONTINUOUS
 62
     7
 10
76.044922
 20
118.413217
 30
0.0
 11
76.064323
 21
118.399746
 31
0.0
 12
76.064323
 22
119.10364
 32
0.0
 13
76.044922
 23
119.090038
 33
0.0
  0
3DFACE
  8
0
  6
CONTINUOUS
 62
     7
 10
76.064323
 20
118.399746
 30
0.0
 11
76.083724
 21
118.386275
 31
0.0
 12
76.083724
 22
119.117242
 32
0.0
 13
76.064323
 23
119.10364
 33
0.0
  0
3DFACE
  8
0
  6
CONTINUOUS
 62
     7
 10
76.083724
 20
118.386275
 30
0.0
 11
76.103125
 21
118.372803
 31
0.0
 12
76.103125
 22
119.130843
 32
0.0
 13
76.083724
 23
119.117242
 33
0.0
  0
3DFACE
  8
0
  6
CONTINUOUS
 62
     7
 10
76.103125
 20
118.372803
 30
0.0
 11
76.122526
 21
118.359332
 31
0.0
 12
76.122526
 22
119.144445
 32
0.0
 13
76.103125
 23
119.130843
 33
0.0
  0
3DFACE
  8
0
  6
CONTINUOUS
 62
     7
 10
76.122526
 20
118.359332
 30
0.0
 11
76.141927
 21
118.345861
 31
0.0
 12
76.141927
 22
119.158046
 32
0.0
 13
76.122526
 23
119.144445
 33
0.0
  0
3DFACE
  8
0
  6
CONTINUOUS
 62
     7
 10
76.141927
 20
118.345861
 30
0.0
 11
76.161328
 21
118.332389
 31
0.0
 12
76.161328
 22
119.171648
 32
0.0
 13
76.141927
 23
119.158046
 33
0.0
  0
3DFACE
  8
0
  6
CONTINUOUS
 62
     7
 10
76.161328
 20
118.332389
 30
0.0
 11
76.180729
 21
118.318918
 31
0.0
 12
76.180729
 22
119.185249
 32
0.0
 13
76.161328
 23
119.171648
 33
0.0
  0
3DFACE
  8
0
  6
CONTINUOUS
 62
     7
 10
76.180729
 20
118.318918
 30
0.0
 11
76.20013
 21
118.305447
 31
0.0
 12
76.20013
 22
119.198851
 32
0.0
 13
76.180729
 23
119.185249
 33
0.0
  0
3DFACE
  8
0
  6
CONTINUOUS
 62
     7
 10
76.20013
 20
118.305447
 30
0.0
 11
76.219531
 21
118.291975
 31
0.0
 12
76.219531
 22
119.212452
 32
0.0
 13
76.20013
 23
119.198851
 33
0.0
  0
3DFACE
  8
0
  6
CONTINUOUS
 62
     7
 10
76.219531
 20
118.291975
 30
0.0
 11
76.238932
 21
118.278504
 31
0.0
 12
76.238932
 22
119.226054
 32
0.0
 13
76.219531
 23
119.212452
 33
0.0
  0
3DFACE
  8
0
  6
CONTINUOUS
 62
     7
 10
76.238932
 20
118.278504
 30
0.0
 11
76.258333
 21
118.265033
 31
0.0
 12
76.258333
 22
119.239655
 32
0.0
 13
76.238932
 23
119.226054
 33
0.0
  0
3DFACE
  8
0
  6
CONTINUOUS
 62
     7
 10
76.258333
 20
118.265033
 30
0.0
 11
76.277734
 21
118.251562
 31
0.0
 12
76.277734
 22
119.253257
 32
0.0
 13
76.258333
 23
119.239655
 33
0.0
  0
3DFACE
  8
0
  6
CONTINUOUS
 62
     7
 10
76.277734
 20
118.251562
 30
0.0
 11
76.297136
 21
118.23809
 31
0.0
 12
76.297136
 22
119.266858
 32
0.0
 13
76.277734
 23
119.253257
 33
0.0
  0
3DFACE
  8
0
  6
CONTINUOUS
 62
     7
 10
76.297136
 20
118.23809
 30
0.0
 11
76.316537
 21
118.224619
 31
0.0
 12
76.316537
 22
119.28046
 32
0.0
 13
76.297136
 23
119.266858
 33
0.0
  0
3DFACE
  8
0
  6
CONTINUOUS
 62
     7
 10
76.316537
 20
118.224619
 30
0.0
 11
76.335938
 21
118.211148
 31
0.0
 12
76.335938
 22
119.294061
 32
0.0
 13
76.316537
 23
119.28046
 33
0.0
  0
3DFACE
  8
0
  6
CONTINUOUS
 62
     7
 10
76.335938
 20
118.211148
 30
0.0
 11
76.355339
 21
118.197676
 31
0.0
 12
76.355339
 22
119.307663
 32
0.0
 13
76.335938
 23
119.294061
 33
0.0
  0
3DFACE
  8
0
  6
CONTINUOUS
 62
     7
 10
76.355339
 20
118.197676
 30
0.0
 11
76.37474
 21
118.184205
 31
0.0
 12
76.37474
 22
119.321264
 32
0.0
 13
76.355339
 23
119.307663
 33
0.0
  0
3DFACE
  8
0
  6
CONTINUOUS
 62
     7
 10
76.37474
 20
118.184205
 30
0.0
 11
76.394141
 21
118.170734
 31
0.0
 12
76.394141
 22
119.334866
 32
0.0
 13
76.37474
 23
119.321264
 33
0.0
  0
3DFACE
  8
0
  6
CONTINUOUS
 62
     7
 10
76.394141
 20
118.170734
 30
0.0
 11
76.413542
 21
118.157262
 31
0.0
 12
76.413542
 22
119.348468
 32
0.0
 13
76.394141
 23
119.334866
 33
0.0
  0
3DFACE
  8
0
  6
CONTINUOUS
 62
     7
 10
76.413542
 20
118.157262
 30
0.0
 11
76.432943
 21
118.143791
 31
0.0
 12
76.432943
 22
119.362069
 32
0.0
 13
76.413542
 23
119.348468
 33
0.0
  0
3DFACE
  8
0
  6
CONTINUOUS
 62
     7
 10
76.432943
 20
118.143791
 30
0.0
 11
76.452344
 21
118.13032
 31
0.0
 12
76.452344
 22
119.375671
 32
0.0
 13
76.432943
 23
119.362069
 33
0.0
  0
3DFACE
  8
0
  6
CONTINUOUS
 62
     7
 10
76.452344
 20
118.13032
 30
0.0
 11
76.471745
 21
118.116848
 31
0.0
 12
76.471745
 22
119.389272
 32
0.0
 13
76.452344
 23
119.375671
 33
0.0
  0
3DFACE
  8
0
  6
CONTINUOUS
 62
     7
 10
76.471745
 20
118.116848
 30
0.0
 11
76.491146
 21
118.103377
 31
0.0
 12
76.491146
 22
119.402874
 32
0.0
 13
76.471745
 23
119.389272
 33
0.0
  0
3DFACE
  8
0
  6
CONTINUOUS
 62
     7
 10
76.491146
 20
118.103377
 30
0.0
 11
76.510547
 21
118.089906
 31
0.0
 12
76.510547
 22
119.416475
 32
0.0
 13
76.491146
 23
119.402874
 33
0.0
  0
3DFACE
  8
0
  6
CONTINUOUS
 62
     7
 10
76.510547
 20
118.089906
 30
0.0
 11
76.529948
 21
118.076434
 31
0.0
 12
76.529948
 22
119.430077
 32
0.0
 13
76.510547
 23
119.416475
 33
0.0
  0
3DFACE
  8
0
  6
CONTINUOUS
 62
     7
 10
76.529948
 20
118.076434
 30
0.0
 11
76.549349
 21
118.062963
 31
0.0
 12
76.549349
 22
119.443678
 32
0.0
 13
76.529948
 23
119.430077
 33
0.0
  0
3DFACE
  8
0
  6
CONTINUOUS
 62
     7
 10
76.549349
 20
118.062963
 30
0.0
 11
76.56875
 21
118.049492
 31
0.0
 12
76.56875
 22
119.45728
 32
0.0
 13
76.549349
 23
119.443678
 33
0.0
  0
3DFACE
  8
0
  6
CONTINUOUS
 62
     7
 10
76.56875
 20
118.049492
 30
0.0
 11
76.588151
 21
118.03602
 31
0.0
 12
76.588151
 22
119.470881
 32
0.0
 13
76.56875
 23
119.45728
 33
0.0
  0
3DFACE
  8
0
  6
CONTINUOUS
 62
     7
 10
76.588151
 20
118.03602
 30
0.0
 11
76.607552
 21
118.022549
 31
0.0
 12
76.607552
 22
119.484483
 32
0.0
 13
76.588151
 23
119.470881
 33
0.0
  0
3DFACE
  8
0
  6
CONTINUOUS
 62
     7
 10
76.607552
 20
118.022549
 30
0.0
 11
76.626953
 21
118.009078
 31
0.0
 12
76.626953
 22
119.498084
 32
0.0
 13
76.607552
 23
119.484483
 33
0.0
  0
3DFACE
  8
0
  6
CONTINUOUS
 62
     7
 10
76.626953
 20
118.009078
 30
0.0
 11
76.646354
 21
117.995606
 31
0.0
 12
76.646354
 22
119.511686
 32
0.0
 13
76.626953
 23
119.498084
 33
0.0
  0
3DFACE
  8
0
  6
CONTINUOUS
 62
     7
 10
76.646354
 20
117.995606
 30
0.0
 11
76.665755
 21
117.982135
 31
0.0
 12
76.665755
 22
119.525287
 32
0.0
 13
76.646354
 23
119.511686
 33
0.0
  0
3DFACE
  8
0
  6
CONTINUOUS
 62
     7
 10
76.665755
 20
117.982135
 30
0.0
 11
76.685156
 21
117.968664
 31
0.0
 12
76.685156
 22
119.538889
 32
0.0
 13
76.665755
 23
119.525287
 33
0.0
  0
3DFACE
  8
0
  6
CONTINUOUS
 62
     7
 10
76.685156
 20
117.968664
 30
0.0
 11
76.704557
 21
117.955193
 31
0.0
 12
76.704557
 22
119.552491
 32
0.0
 13
76.685156
 23
119.538889
 33
0.0
  0
3DFACE
  8
0
  6
CONTINUOUS
 62
     7
 10
76.704557
 20
117.955193
 30
0.0
 11
76.723958
 21
117.941721
 31
0.0
 12
76.723958
 22
119.566092
 32
0.0
 13
76.704557
 23
119.552491
 33
0.0
  0
3DFACE
  8
0
  6
CONTINUOUS
 62
     7
 10
76.723958
 20
117.941721
 30
0.0
 11
76.743359
 21
117.92825
 31
0.0
 12
76.743359
 22
119.579694
 32
0.0
 13
76.723958
 23
119.566092
 33
0.0
  0
3DFACE
  8
0
  6
CONTINUOUS
 62
     7
 10
76.743359
 20
117.92825
 30
0.0
 11
76.76276
 21
117.914779
 31
0.0
 12
76.76276
 22
119.593295
 32
0.0
 13
76.743359
 23
119.579694
 33
0.0
  0
3DFACE
  8
0
  6
CONTINUOUS
 62
     7
 10
76.76276
 20
117.914779
 30
0.0
 11
76.782162
 21
117.901307
 31
0.0
 12
76.782162
 22
119.606897
 32
0.0
 13
76.76276
 23
119.593295
 33
0.0
  0
3DFACE
  8
0
  6
CONTINUOUS
 62
     7
 10
76.782162
 20
117.901307
 30
0.0
 11
76.801563
 21
117.887836
 31
0.0
 12
76.801563
 22
119.620498
 32
0.0
 13
76.782162
 23
119.606897
 33
0.0
  0
3DFACE
  8
0
  6
CONTINUOUS
 62
     7
 10
76.801563
 20
117.887836
 30
0.0
 11
76.820964
 21
117.874365
 31
0.0
 12
76.820964
 22
119.6341
 32
0.0
 13
76.801563
 23
119.620498
 33
0.0
  0
3DFACE
  8
0
  6
CONTINUOUS
 62
     7
 10
76.820964
 20
117.874365
 30
0.0
 11
76.840365
 21
117.860893
 31
0.0
 12
76.840365
 22
119.647701
 32
0.0
 13
76.820964
 23
119.6341
 33
0.0
  0
3DFACE
  8
0
  6
CONTINUOUS
 62
     7
 10
76.840365
 20
117.860893
 30
0.0
 11
76.859766
 21
117.847422
 31
0.0
 12
76.859766
 22
119.661303
 32
0.0
 13
76.840365
 23
119.647701
 33
0.0
  0
3DFACE
  8
0
  6
CONTINUOUS
 62
     7
 10
76.859766
 20
117.847422
 30
0.0
 11
76.879167
 21
117.833951
 31
0.0
 12
76.879167
 22
119.674904
 32
0.0
 13
76.859766
 23
119.661303
 33
0.0
  0
3DFACE
  8
0
  6
CONTINUOUS
 62
     7
 10
76.879167
 20
117.833951
 30
0.0
 11
76.898568
 21
117.820479
 31
0.0
 12
76.898568
 22
119.688506
 32
0.0
 13
76.879167
 23
119.674904
 33
0.0
  0
3DFACE
  8
0
  6
CONTINUOUS
 62
     7
 10
76.898568
 20
117.820479
 30
0.0
 11
76.917969
 21
117.807008
 31
0.0
 12
76.917969
 22
119.702107
 32
0.0
 13
76.898568
 23
119.688506
 33
0.0
  0
3DFACE
  8
0
  6
CONTINUOUS
 62
     7
 10
76.917969
 20
117.807008
 30
0.0
 11
76.93737
 21
117.793537
 31
0.0
 12
76.93737
 22
119.715709
 32
0.0
 13
76.917969
 23
119.702107
 33
0.0
  0
3DFACE
  8
0
  6
CONTINUOUS
 62
     7
 10
76.93737
 20
117.793537
 30
0.0
 11
76.956771
 21
117.780065
 31
0.0
 12
76.956771
 22
119.72931
 32
0.0
 13
76.93737
 23
119.715709
 33
0.0
  0
3DFACE
  8
0
  6
CONTINUOUS
 62
     7
 10
76.956771
 20
117.780065
 30
0.0
 11
76.976172
 21
117.766594
 31
0.0
 12
76.976172
 22
119.742912
 32
0.0
 13
76.956771
 23
119.72931
 33
0.0
  0
3DFACE
  8
0
  6
CONTINUOUS
 62
     7
 10
76.976172
 20
117.766594
 30
0.0
 11
76.995573
 21
117.753123
 31
0.0
 12
76.995573
 22
119.756513
 32
0.0
 13
76.976172
 23
119.742912
 33
0.0
  0
3DFACE
  8
0
  6
CONTINUOUS
 62
     7
 10
76.995573
 20
117.753123
 30
0.0
 11
77.014974
 21
117.739651
 31
0.0
 12
77.014974
 22
119.770115
 32
0.0
 13
76.995573
 23
119.756513
 33
0.0
  0
3DFACE
  8
0
  6
CONTINUOUS
 62
     7
 10
77.014974
 20
117.739651
 30
0.0
 11
77.034375
 21
117.72618
 31
0.0
 12
77.034375
 22
119.783717
 32
0.0
 13
77.014974
 23
119.770115
 33
0.0
  0
3DFACE
  8
0
  6
CONTINUOUS
 62
     7
 10
77.034375
 20
117.72618
 30
0.0
 11
77.053776
 21
117.712709
 31
0.0
 12
77.053776
 22
119.797318
 32
0.0
 13
77.034375
 23
119.783717
 33
0.0
  0
3DFACE
  8
0
  6
CONTINUOUS
 62
     7
 10
77.053776
 20
117.712709
 30
0.0
 11
77.073177
 21
117.699238
 31
0.0
 12
77.073177
 22
119.81092
 32
0.0
 13
77.053776
 23
119.797318
 33
0.0
  0
3DFACE
  8
0
  6
CONTINUOUS
 62
     7
 10
77.073177
 20
117.699238
 30
0.0
 11
77.092578
 21
117.685766
 31
0.0
 12
77.092578
 22
119.824521
 32
0.0
 13
77.073177
 23
119.81092
 33
0.0
  0
3DFACE
  8
0
  6
CONTINUOUS
 62
     7
 10
77.092578
 20
117.685766
 30
0.0
 11
77.111979
 21
117.672295
 31
0.0
 12
77.111979
 22
119.838123
 32
0.0
 13
77.092578
 23
119.824521
 33
0.0
  0
3DFACE
  8
0
  6
CONTINUOUS
 62
     7
 10
77.111979
 20
117.672295
 30
0.0
 11
77.13138
 21
117.658824
 31
0.0
 12
77.13138
 22
119.851724
 32
0.0
 13
77.111979
 23
119.838123
 33
0.0
  0
3DFACE
  8
0
  6
CONTINUOUS
 62
     7
 10
77.13138
 20
117.658824
 30
0.0
 11
77.150781
 21
117.645352
 31
0.0
 12
77.150781
 22
119.865326
 32
0.0
 13
77.13138
 23
119.851724
 33
0.0
  0
3DFACE
  8
0
  6
CONTINUOUS
 62
     7
 10
77.150781
 20
117.645352
 30
0.0
 11
77.170182
 21
117.631881
 31
0.0
 12
77.170182
 22
119.878927
 32
0.0
 13
77.150781
 23
119.865326
 33
0.0
  0
3DFACE
  8
0
  6
CONTINUOUS
 62
     7
 10
77.170182
 20
117.631881
 30
0.0
 11
77.189583
 21
117.61841
 31
0.0
 12
77.189583
 22
119.892529
 32
0.0
 13
77.170182
 23
119.878927
 33
0.0
  0
3DFACE
  8
0
  6
CONTINUOUS
 62
     7
 10
77.189583
 20
117.61841
 30
0.0
 11
77.208984
 21
117.604938
 31
0.0
 12
77.208984
 22
119.90613
 32
0.0
 13
77.189583
 23
119.892529
 33
0.0
  0
3DFACE
  8
0
  6
CONTINUOUS
 62
     7
 10
77.208984
 20
117.604938
 30
0.0
 11
77.228385
 21
117.591467
 31
0.0
 12
77.228385
 22
119.919732
 32
0.0
 13
77.208984
 23
119.90613
 33
0.0
  0
3DFACE
  8
0
  6
CONTINUOUS
 62
     7
 10
77.228385
 20
117.591467
 30
0.0
 11
77.247786
 21
117.577996
 31
0.0
 12
77.247786
 22
119.933333
 32
0.0
 13
77.228385
 23
119.919732
 33
0.0
  0
3DFACE
  8
0
  6
CONTINUOUS
 62
     7
 10
77.247786
 20
117.577996
 30
0.0
 11
77.267188
 21
117.564524
 31
0.0
 12
77.267188
 22
119.946935
 32
0.0
 13
77.247786
 23
119.933333
 33
0.0
  0
3DFACE
  8
0
  6
CONTINUOUS
 62
     7
 10
77.267188
 20
117.564524
 30
0.0
 11
77.286589
 21
117.551053
 31
0.0
 12
77.286589
 22
119.960536
 32
0.0
 13
77.267188
 23
119.946935
 33
0.0
  0
3DFACE
  8
0
  6
CONTINUOUS
 62
     7
 10
77.286589
 20
117.551053
 30
0.0
 11
77.30599
 21
117.537582
 31
0.0
 12
77.30599
 22
119.974138
 32
0.0
 13
77.286589
 23
119.960536
 33
0.0
  0
3DFACE
  8
0
  6
CONTINUOUS
 62
     7
 10
77.30599
 20
117.537582
 30
0.0
 11
77.325391
 21
117.52411
 31
0.0
 12
77.325391
 22
119.98774
 32
0.0
 13
77.30599
 23
119.974138
 33
0.0
  0
3DFACE
  8
0
  6
CONTINUOUS
 62
     7
 10
77.325391
 20
117.52411
 30
0.0
 11
77.344792
 21
117.510639
 31
0.0
 12
77.344792
 22
120.001341
 32
0.0
 13
77.325391
 23
119.98774
 33
0.0
  0
3DFACE
  8
0
  6
CONTINUOUS
 62
     7
 10
77.344792
 20
117.510639
 30
0.0
 11
77.364193
 21
117.497168
 31
0.0
 12
77.364193
 22
120.014943
 32
0.0
 13
77.344792
 23
120.001341
 33
0.0
  0
3DFACE
  8
0
  6
CONTINUOUS
 62
     7
 10
77.364193
 20
117.497168
 30
0.0
 11
77.383594
 21
117.483696
 31
0.0
 12
77.383594
 22
120.028544
 32
0.0
 13
77.364193
 23
120.014943
 33
0.0
  0
3DFACE
  8
0
  6
CONTINUOUS
 62
     7
 10
77.383594
 20
117.483696
 30
0.0
 11
77.402995
 21
117.470225
 31
0.0
 12
77.402995
 22
120.042146
 32
0.0
 13
77.383594
 23
120.028544
 33
0.0
  0
3DFACE
  8
0
  6
CONTINUOUS
 62
     7
 10
77.402995
 20
117.470225
 30
0.0
 11
77.422396
 21
117.456754
 31
0.0
 12
77.422396
 22
120.055747
 32
0.0
 13
77.402995
 23
120.042146
 33
0.0
  0
3DFACE
  8
0
  6
CONTINUOUS
 62
     7
 10
77.422396
 20
117.456754
 30
0.0
 11
77.441797
 21
117.443283
 31
0.0
 12
77.441797
 22
120.069349
 32
0.0
 13
77.422396
 23
120.055747
 33
0.0
  0
3DFACE
  8
0
  6
CONTINUOUS
 62
     7
 10
77.441797
 20
117.443283
 30
0.0
 11
77.461198
 21
117.429811
 31
0.0
 12
77.461198
 22
120.08295
 32
0.0
 13
77.441797
 23
120.069349
 33
0.0
  0
3DFACE
  8
0
  6
CONTINUOUS
 62
     7
 10
77.461198
 20
117.429811
 30
0.0
 11
77.480599
 21
117.41634
 31
0.0
 12
77.480599
 22
120.096552
 32
0.0
 13
77.461198
 23
120.08295
 33
0.0
  0
3DFACE
  8
0
  6
CONTINUOUS
 62
     7
 10
77.480599
 20
117.41634
 30
0.0
 11
77.5
 21
117.402869
 31
0.0
 12
77.5
 22
120.110153
 32
0.0
 13
77.480599
 23
120.096552
 33
0.0
  0
3DFACE
  8
0
  6
CONTINUOUS
 62
     7
 10
79.309896
 20
118.75
 30
0.0
 11
79.329297
 21
118.736529
 31
0.0
 12
79.329297
 22
118.763602
 32
0.0
 13
79.309896
 23
118.75
 33
0.0
  0
3DFACE
  8
0
  6
CONTINUOUS
 62
     7
 10
79.329297
 20
118.736529
 30
0.0
 11
79.348698
 21
118.723058
 31
0.0
 12
79.348698
 22
118.777203
 32
0.0
 13
79.329297
 23
118.763602
 33
0.0
  0
3DFACE
  8
0
  6
CONTINUOUS
 62
     7
 10
79.348698
 20
118.723058
 30
0.0
 11
79.368099
 21
118.709586
 31
0.0
 12
79.368099
 22
118.790805
 32
0.0
 13
79.348698
 23
118.777203
 33
0.0
  0
3DFACE
  8
0
  6
CONTINUOUS
 62
     7
 10
79.368099
 20
118.709586
 30
0.0
 11
79.3875
 21
118.696115
 31
0.0
 12
79.3875
 22
118.804406
 32
0.0
 13
79.368099
 23
118.790805
 33
0.0
  0
3DFACE
  8
0
  6
CONTINUOUS
 62
     7
 10
79.3875
 20
118.696115
 30
0.0
 11
79.406901
 21
118.682644
 31
0.0
 12
79.406901
 22
118.818008
 32
0.0
 13
79.3875
 23
118.804406
 33
0.0
  0
3DFACE
  8
0
  6
CONTINUOUS
 62
     7
 10
79.406901
 20
118.682644
 30
0.0
 11
79.426302
 21
118.669172
 31
0.0
 12
79.426302
 22
118.831609
 32
0.0
 13
79.406901
 23
118.818008
 33
0.0
  0
3DFACE
  8
0
  6
CONTINUOUS
 62
     7
 10
79.426302
 20
118.669172
 30
0.0
 11
79.445703
 21
118.655701
 31
0.0
 12
79.445703
 22
118.845211
 32
0.0
 13
79.426302
 23
118.831609
 33
0.0
  0
3DFACE
  8
0
  6
CONTINUOUS
 62
     7
 10
79.445703
 20
118.655701
 30
0.0
 11
79.465104
 21
118.64223
 31
0.0
 12
79.465104
 22
118.858812
 32
0.0
 13
79.445703
 23
118.845211
 33
0.0
  0
3DFACE
  8
0
  6
CONTINUOUS
 62
     7
 10
79.465104
 20
118.64223
 30
0.0
 11
79.484505
 21
118.628758
 31
0.0
 12
79.484505
 22
118.872414
 32
0.0
 13
79.465104
 23
118.858812
 33
0.0
  0
3DFACE
  8
0
  6
CONTINUOUS
 62
     7
 10
79.484505
 20
118.628758
 30
0.0
 11
79.503906
 21
118.615287
 31
0.0
 12
79.503906
 22
118.886016
 32
0.0
 13
79.484505
 23
118.872414
 33
0.0
  0
3DFACE
  8
0
  6
CONTINUOUS
 62
     7
 10
79.503906
 20
118.615287
 30
0.0
 11
79.523307
 21
118.601816
 31
0.0
 12
79.523307
 22
118.899617
 32
0.0
 13
79.503906
 23
118.886016
 33
0.0
  0
3DFACE
  8
0
  6
CONTINUOUS
 62
     7
 10
79.523307
 20
118.601816
 30
0.0
 11
79.542708
 21
118.588344
 31
0.0
 12
79.542708
 22
118.913219
 32
0.0
 13
79.523307
 23
118.899617
 33
0.0
  0
3DFACE
  8
0
  6
CONTINUOUS
 62
     7
 10
79.542708
 20
118.588344
 30
0.0
 11
79.56211
 21
118.574873
 31
0.0
 12
79.56211
 22
118.92682
 32
0.0
 13
79.542708
 23
118.913219
 33
0.0
  0
3DFACE
  8
0
  6
CONTINUOUS
 62
     7
 10
79.56211
 20
118.574873
 30
0.0
 11
79.581511
 21
118.561402
 31
0.0
 12
79.581511
 22
118.940422
 32
0.0
 13
79.56211
 23
118.92682
 33
0.0
  0
3DFACE
  8
0
  6
CONTINUOUS
 62
     7
 10
79.581511
 20
118.561402
 30
0.0
 11
79.600912
 21
118.54793
 31
0.0
 12
79.600912
 22
118.954023
 32
0.0
 13
79.581511
 23
118.940422
 33
0.0
  0
3DFACE
  8
0
  6
CONTINUOUS
 62
     7
 10
79.600912
 20
118.54793
 30
0.0
 11
79.620313
 21
118.534459
 31
0.0
 12
79.620313
 22
118.967625
 32
0.0
 13
79.600912
 23
118.954023
 33
0.0
  0
3DFACE
  8
0
  6
CONTINUOUS
 62
     7
 10
79.620313
 20
118.534459
 30
0.0
 11
79.639714
 21
118.520988
 31
0.0
 12
79.639714
 22
118.981226
 32
0.0
 13
79.620313
 23
118.967625
 33
0.0
  0
3DFACE
  8
0
  6
CONTINUOUS
 62
     7
 10
79.639714
 20
118.520988
 30
0.0
 11
79.659115
 21
118.507517
 31
0.0
 12
79.659115
 22
118.994828
 32
0.0
 13
79.639714
 23
118.981226
 33
0.0
  0
3DFACE
  8
0
  6
CONTINUOUS
 62
     7
 10
79.659115
 20
118.507517
 30
0.0
 11
79.678516
 21
118.494045
 31
0.0
 12
79.678516
 22
119.008429
 32
0.0
 13
79.659115
 23
118.994828
 33
0.0
  0
3DFACE
  8
0
  6
CONTINUOUS
 62
     7
 10
79.678516
 20
118.494045
 30
0.0
 11
79.697917
 21
118.480574
 31
0.0
 12
79.697917
 22
119.022031
 32
0.0
 13
79.678516
 23
119.008429
 33
0.0
  0
3DFACE
  8
0
  6
CONTINUOUS
 62
     7
 10
79.697917
 20
118.480574
 30
0.0
 11
79.717318
 21
118.467103
 31
0.0
 12
79.717318
 22
119.035632
 32
0.0
 13
79.697917
 23
119.022031
 33
0.0
  0
3DFACE
  8
0
  6
CONTINUOUS
 62
     7
 10
79.717318
 20
118.467103
 30
0.0
 11
79.736719
 21
118.453631
 31
0.0
 12
79.736719
 22
119.049234
 32
0.0
 13
79.717318
 23
119.035632
 33
0.0
  0
3DFACE
  8
0
  6
CONTINUOUS
 62
     7
 10
79.736719
 20
118.453631
 30
0.0
 11
79.75612
 21
118.44016
 31
0.0
 12
79.75612
 22
119.062835
 32
0.0
 13
79.736719
 23
119.049234
 33
0.0
  0
3DFACE
  8
0
  6
CONTINUOUS
 62
     7
 10
79.75612
 20
118.44016
 30
0.0
 11
79.775521
 21
118.426689
 31
0.0
 12
79.775521
 22
119.076437
 32
0.0
 13
79.75612
 23
119.062835
 33
0.0
  0
3DFACE
  8
0
  6
CONTINUOUS
 62
     7
 10
79.775521
 20
118.426689
 30
0.0
 11
79.794922
 21
118.413217
 31
0.0
 12
79.794922
 22
119.090038
 32
0.0
 13
79.775521
 23
119.076437
 33
0.0
  0
3DFACE
  8
0
  6
CONTINUOUS
 62
     7
 10
79.794922
 20
118.413217
 30
0.0
 11
79.814323
 21
118.399746
 31
0.0
 12
79.814323
 22
119.10364
 32
0.0
 13
79.794922
 23
119.090038
 33
0.0
  0
3DFACE
  8
0
  6
CONTINUOUS
 62
     7
 10
79.814323
 20
118.399746
 30
0.0
 11
79.833724
 21
118.386275
 31
0.0
 12
79.833724
 22
119.117242
 32
0.0
 13
79.814323
 23
119.10364
 33
0.0
  0
3DFACE
  8
0
  6
CONTINUOUS
 62
     7
 10
79.833724
 20
118.386275
 30
0.0
 11
79.853125
 21
118.372803
 31
0.0
 12
79.853125
 22
119.130843
 32
0.0
 13
79.833724
 23
119.117242
 33
0.0
  0
3DFACE
  8
0
  6
CONTINUOUS
 62
     7
 10
79.853125
 20
118.372803
 30
0.0
 11
79.872526
 21
118.359332
 31
0.0
 12
79.872526
 22
119.144445
 32
0.0
 13
79.853125
 23
119.130843
 33
0.0
  0
3DFACE
  8
0
  6
CONTINUOUS
 62
     7
 10
79.872526
 20
118.359332
 30
0.0
 11
79.891927
 21
118.345861
 31
0.0
 12
79.891927
 22
119.158046
 32
0.0
 13
79.872526
 23
119.144445
 33
0.0
  0
3DFACE
  8
0
  6
CONTINUOUS
 62
     7
 10
79.891927
 20
118.345861
 30
0.0
 11
79.911328
 21
118.332389
 31
0.0
 12
79.911328
 22
119.171648
 32
0.0
 13
79.891927
 23
119.158046
 33
0.0
  0
3DFACE
  8
0
  6
CONTINUOUS
 62
     7
 10
79.911328
 20
118.332389
 30
0.0
 11
79.930729
 21
118.318918
 31
0.0
 12
79.930729
 22
119.185249
 32
0.0
 13
79.911328
 23
119.171648
 33
0.0
  0
3DFACE
  8
0
  6
CONTINUOUS
 62
     7
 10
79.930729
 20
118.318918
 30
0.0
 11
79.95013
 21
118.305447
 31
0.0
 12
79.95013
 22
119.198851
 32
0.0
 13
79.930729
 23
119.185249
 33
0.0
  0
3DFACE
  8
0
  6
CONTINUOUS
 62
     7
 10
79.95013
 20
118.305447
 30
0.0
 11
79.969531
 21
118.291975
 31
0.0
 12
79.969531
 22
119.212452
 32
0.0
 13
79.95013
 23
119.198851
 33
0.0
  0
3DFACE
  8
0
  6
CONTINUOUS
 62
     7
 10
79.969531
 20
118.291975
 30
0.0
 11
79.988932
 21
118.278504
 31
0.0
 12
79.988932
 22
119.226054
 32
0.0
 13
79.969531
 23
119.212452
 33
0.0
  0
3DFACE
  8
0
  6
CONTINUOUS
 62
     7
 10
79.988932
 20
118.278504
 30
0.0
 11
80.008333
 21
118.265033
 31
0.0
 12
80.008333
 22
119.239655
 32
0.0
 13
79.988932
 23
119.226054
 33
0.0
  0
3DFACE
  8
0
  6
CONTINUOUS
 62
     7
 10
80.008333
 20
118.265033
 30
0.0
 11
80.027734
 21
118.251562
 31
0.0
 12
80.027734
 22
119.253257
 32
0.0
 13
80.008333
 23
119.239655
 33
0.0
  0
3DFACE
  8
0
  6
CONTINUOUS
 62
     7
 10
80.027734
 20
118.251562
 30
0.0
 11
80.047136
 21
118.23809
 31
0.0
 12
80.047136
 22
119.266858
 32
0.0
 13
80.027734
 23
119.253257
 33
0.0
  0
3DFACE
  8
0
  6
CONTINUOUS
 62
     7
 10
80.047136
 20
118.23809
 30
0.0
 11
80.066537
 21
118.224619
 31
0.0
 12
80.066537
 22
119.28046
 32
0.0
 13
80.047136
 23
119.266858
 33
0.0
  0
3DFACE
  8
0
  6
CONTINUOUS
 62
     7
 10
80.066537
 20
118.224619
 30
0.0
 11
80.085938
 21
118.211148
 31
0.0
 12
80.085938
 22
119.294061
 32
0.0
 13
80.066537
 23
119.28046
 33
0.0
  0
3DFACE
  8
0
  6
CONTINUOUS
 62
     7
 10
80.085938
 20
118.211148
 30
0.0
 11
80.105339
 21
118.197676
 31
0.0
 12
80.105339
 22
119.307663
 32
0.0
 13
80.085938
 23
119.294061
 33
0.0
  0
3DFACE
  8
0
  6
CONTINUOUS
 62
     7
 10
80.105339
 20
118.197676
 30
0.0
 11
80.12474
 21
118.184205
 31
0.0
 12
80.12474
 22
119.321264
 32
0.0
 13
80.105339
 23
119.307663
 33
0.0
  0
3DFACE
  8
0
  6
CONTINUOUS
 62
     7
 10
80.12474
 20
118.184205
 30
0.0
 11
80.144141
 21
118.170734
 31
0.0
 12
80.144141
 22
119.334866
 32
0.0
 13
80.12474
 23
119.321264
 33
0.0
  0
3DFACE
  8
0
  6
CONTINUOUS
 62
     7
 10
80.144141
 20
118.170734
 30
0.0
 11
80.163542
 21
118.157262
 31
0.0
 12
80.163542
 22
119.348468
 32
0.0
 13
80.144141
 23
119.334866
 33
0.0
  0
3DFACE
  8
0
  6
CONTINUOUS
 62
     7
 10
80.163542
 20
118.157262
 30
0.0
 11
80.182943
 21
118.143791
 31
0.0
 12
80.182943
 22
119.362069
 32
0.0
 13
80.163542
 23
119.348468
 33
0.0
  0
3DFACE
  8
0
  6
CONTINUOUS
 62
     7
 10
80.182943
 20
118.143791
 30
0.0
 11
80.202344
 21
118.13032
 31
0.0
 12
80.202344
 22
119.375671
 32
0.0
 13
80.182943
 23
119.362069
 33
0.0
  0
3DFACE
  8
0
  6
CONTINUOUS
 62
     7
 10
80.202344
 20
118.13032
 30
0.0
 11
80.221745
 21
118.116848
 31
0.0
 12
80.221745
 22
119.389272
 32
0.0
 13
80.202344
 23
119.375671
 33
0.0
  0
3DFACE
  8
0
  6
CONTINUOUS
 62
     7
 10
80.221745
 20
118.116848
 30
0.0
 11
80.241146
 21
118.103377
 31
0.0
 12
80.241146
 22
119.402874
 32
0.0
 13
80.221745
 23
119.389272
 33
0.0
  0
3DFACE
  8
0
  6
CONTINUOUS
 62
     7
 10
80.241146
 20
118.103377
 30
0.0
 11
80.260547
 21
118.089906
 31
0.0
 12
80.260547
 22
119.416475
 32
0.0
 13
80.241146
 23
119.402874
 33
0.0
  0
3DFACE
  8
0
  6
CONTINUOUS
 62
     7
 10
80.260547
 20
118.089906
 30
0.0
 11
80.279948
 21
118.076434
 31
0.0
 12
80.279948
 22
119.430077
 32
0.0
 13
80.260547
 23
119.416475
 33
0.0
  0
3DFACE
  8
0
  6
CONTINUOUS
 62
     7
 10
80.279948
 20
118.076434
 30
0.0
 11
80.299349
 21
118.062963
 31
0.0
 12
80.299349
 22
119.443678
 32
0.0
 13
80.279948
 23
119.430077
 33
0.0
  0
3DFACE
  8
0
  6
CONTINUOUS
 62
     7
 10
80.299349
 20
118.062963
 30
0.0
 11
80.31875
 21
118.049492
 31
0.0
 12
80.31875
 22
119.45728
 32
0.0
 13
80.299349
 23
119.443678
 33
0.0
  0
3DFACE
  8
0
  6
CONTINUOUS
 62
     7
 10
80.31875
 20
118.049492
 30
0.0
 11
80.338151
 21
118.03602
 31
0.0
 12
80.338151
 22
119.470881
 32
0.0
 13
80.31875
 23
119.45728
 33
0.0
  0
3DFACE
  8
0
  6
CONTINUOUS
 62
     7
 10
80.338151
 20
118.03602
 30
0.0
 11
80.357552
 21
118.022549
 31
0.0
 12
80.357552
 22
119.484483
 32
0.0
 13
80.338151
 23
119.470881
 33
0.0
  0
3DFACE
  8
0
  6
CONTINUOUS
 62
     7
 10
80.357552
 20
118.022549
 30
0.0
 11
80.376953
 21
118.009078
 31
0.0
 12
80.376953
 22
119.498084
 32
0.0
 13
80.357552
 23
119.484483
 33
0.0
  0
3DFACE
  8
0
  6
CONTINUOUS
 62
     7
 10
80.376953
 20
118.009078
 30
0.0
 11
80.396354
 21
117.995606
 31
0.0
 12
80.396354
 22
119.511686
 32
0.0
 13
80.376953
 23
119.498084
 33
0.0
  0
3DFACE
  8
0
  6
CONTINUOUS
 62
     7
 10
80.396354
 20
117.995606
 30
0.0
 11
80.415755
 21
117.982135
 31
0.0
 12
80.415755
 22
119.525287
 32
0.0
 13
80.396354
 23
119.511686
 33
0.0
  0
3DFACE
  8
0
  6
CONTINUOUS
 62
     7
 10
80.415755
 20
117.982135
 30
0.0
 11
80.435156
 21
117.968664
 31
0.0
 12
80.435156
 22
119.538889
 32
0.0
 13
80.415755
 23
119.525287
 33
0.0
  0
3DFACE
  8
0
  6
CONTINUOUS
 62
     7
 10
80.435156
 20
117.968664
 30
0.0
 11
80.454557
 21
117.955193
 31
0.0
 12
80.454557
 22
119.552491
 32
0.0
 13
80.435156
 23
119.538889
 33
0.0
  0
3DFACE
  8
0
  6
CONTINUOUS
 62
     7
 10
80.454557
 20
117.955193
 30
0.0
 11
80.473958
 21
117.941721
 31
0.0
 12
80.473958
 22
119.566092
 32
0.0
 13
80.454557
 23
119.552491
 33
0.0
  0
3DFACE
  8
0
  6
CONTINUOUS
 62
     7
 10
80.473958
 20
117.941721
 30
0.0
 11
80.493359
 21
117.92825
 31
0.0
 12
80.493359
 22
119.579694
 32
0.0
 13
80.473958
 23
119.566092
 33
0.0
  0
3DFACE
  8
0
  6
CONTINUOUS
 62
     7
 10
80.493359
 20
117.92825
 30
0.0
 11
80.51276
 21
117.914779
 31
0.0
 12
80.51276
 22
119.593295
 32
0.0
 13
80.493359
 23
119.579694
 33
0.0
  0
3DFACE
  8
0
  6
CONTINUOUS
 62
     7
 10
80.51276
 20
117.914779
 30
0.0
 11
80.532162
 21
117.901307
 31
0.0
 12
80.532162
 22
119.606897
 32
0.0
 13
80.51276
 23
119.593295
 33
0.0
  0
3DFACE
  8
0
  6
CONTINUOUS
 62
     7
 10
80.532162
 20
117.901307
 30
0.0
 11
80.551563
 21
117.887836
 31
0.0
 12
80.551563
 22
119.620498
 32
0.0
 13
80.532162
 23
119.606897
 33
0.0
  0
3DFACE
  8
0
  6
CONTINUOUS
 62
     7
 10
80.551563
 20
117.887836
 30
0.0
 11
80.570964
 21
117.874365
 31
0.0
 12
80.570964
 22
119.6341
 32
0.0
 13
80.551563
 23
119.620498
 33
0.0
  0
3DFACE
  8
0
  6
CONTINUOUS
 62
     7
 10
80.570964
 20
117.874365
 30
0.0
 11
80.590365
 21
117.860893
 31
0.0
 12
80.590365
 22
119.647701
 32
0.0
 13
80.570964
 23
119.6341
 33
0.0
  0
3DFACE
  8
0
  6
CONTINUOUS
 62
     7
 10
80.590365
 20
117.860893
 30
0.0
 11
80.609766
 21
117.847422
 31
0.0
 12
80.609766
 22
119.661303
 32
0.0
 13
80.590365
 23
119.647701
 33
0.0
  0
3DFACE
  8
0
  6
CONTINUOUS
 62
     7
 10
80.609766
 20
117.847422
 30
0.0
 11
80.629167
 21
117.833951
 31
0.0
 12
80.629167
 22
119.674904
 32
0.0
 13
80.609766
 23
119.661303
 33
0.0
  0
3DFACE
  8
0
  6
CONTINUOUS
 62
     7
 10
80.629167
 20
117.833951
 30
0.0
 11
80.648568
 21
117.820479
 31
0.0
 12
80.648568
 22
119.688506
 32
0.0
 13
80.629167
 23
119.674904
 33
0.0
  0
3DFACE
  8
0
  6
CONTINUOUS
 62
     7
 10
80.648568
 20
117.820479
 30
0.0
 11
80.667969
 21
117.807008
 31
0.0
 12
80.667969
 22
119.702107
 32
0.0
 13
80.648568
 23
119.688506
 33
0.0
  0
3DFACE
  8
0
  6
CONTINUOUS
 62
     7
 10
80.667969
 20
117.807008
 30
0.0
 11
80.68737
 21
117.793537
 31
0.0
 12
80.68737
 22
119.715709
 32
0.0
 13
80.667969
 23
119.702107
 33
0.0
  0
3DFACE
  8
0
  6
CONTINUOUS
 62
     7
 10
80.68737
 20
117.793537
 30
0.0
 11
80.706771
 21
117.780065
 31
0.0
 12
80.706771
 22
119.72931
 32
0.0
 13
80.68737
 23
119.715709
 33
0.0
  0
3DFACE
  8
0
  6
CONTINUOUS
 62
     7
 10
80.706771
 20
117.780065
 30
0.0
 11
80.726172
 21
117.766594
 31
0.0
 12
80.726172
 22
119.742912
 32
0.0
 13
80.706771
 23
119.72931
 33
0.0
  0
3DFACE
  8
0
  6
CONTINUOUS
 62
     7
 10
80.726172
 20
117.766594
 30
0.0
 11
80.745573
 21
117.753123
 31
0.0
 12
80.745573
 22
119.756513
 32
0.0
 13
80.726172
 23
119.742912
 33
0.0
  0
3DFACE
  8
0
  6
CONTINUOUS
 62
     7
 10
80.745573
 20
117.753123
 30
0.0
 11
80.764974
 21
117.739651
 31
0.0
 12
80.764974
 22
119.770115
 32
0.0
 13
80.745573
 23
119.756513
 33
0.0
  0
3DFACE
  8
0
  6
CONTINUOUS
 62
     7
 10
80.764974
 20
117.739651
 30
0.0
 11
80.784375
 21
117.72618
 31
0.0
 12
80.784375
 22
119.783717
 32
0.0
 13
80.764974
 23
119.770115
 33
0.0
  0
3DFACE
  8
0
  6
CONTINUOUS
 62
     7
 10
80.784375
 20
117.72618
 30
0.0
 11
80.803776
 21
117.712709
 31
0.0
 12
80.803776
 22
119.797318
 32
0.0
 13
80.784375
 23
119.783717
 33
0.0
  0
3DFACE
  8
0
  6
CONTINUOUS
 62
     7
 10
80.803776
 20
117.712709
 30
0.0
 11
80.823177
 21
117.699238
 31
0.0
 12
80.823177
 22
119.81092
 32
0.0
 13
80.803776
 23
119.797318
 33
0.0
  0
3DFACE
  8
0
  6
CONTINUOUS
 62
     7
 10
80.823177
 20
117.699238
 30
0.0
 11
80.842578
 21
117.685766
 31
0.0
 12
80.842578
 22
119.824521
 32
0.0
 13
80.823177
 23
119.81092
 33
0.0
  0
3DFACE
  8
0
  6
CONTINUOUS
 62
     7
 10
80.842578
 20
117.685766
 30
0.0
 11
80.861979
 21
117.672295
 31
0.0
 12
80.861979
 22
119.838123
 32
0.0
 13
80.842578
 23
119.824521
 33
0.0
  0
3DFACE
  8
0
  6
CONTINUOUS
 62
     7
 10
80.861979
 20
117.672295
 30
0.0
 11
80.88138
 21
117.658824
 31
0.0
 12
80.88138
 22
119.851724
 32
0.0
 13
80.861979
 23
119.838123
 33
0.0
  0
3DFACE
  8
0
  6
CONTINUOUS
 62
     7
 10
80.88138
 20
117.658824
 30
0.0
 11
80.900781
 21
117.645352
 31
0.0
 12
80.900781
 22
119.865326
 32
0.0
 13
80.88138
 23
119.851724
 33
0.0
  0
3DFACE
  8
0
  6
CONTINUOUS
 62
     7
 10
80.900781
 20
117.645352
 30
0.0
 11
80.920182
 21
117.631881
 31
0.0
 12
80.920182
 22
119.878927
 32
0.0
 13
80.900781
 23
119.865326
 33
0.0
  0
3DFACE
  8
0
  6
CONTINUOUS
 62
     7
 10
80.920182
 20
117.631881
 30
0.0
 11
80.939583
 21
117.61841
 31
0.0
 12
80.939583
 22
119.892529
 32
0.0
 13
80.920182
 23
119.878927
 33
0.0
  0
3DFACE
  8
0
  6
CONTINUOUS
 62
     7
 10
80.939583
 20
117.61841
 30
0.0
 11
80.958984
 21
117.604938
 31
0.0
 12
80.958984
 22
119.90613
 32
0.0
 13
80.939583
 23
119.892529
 33
0.0
  0
3DFACE
  8
0
  6
CONTINUOUS
 62
     7
 10
80.958984
 20
117.604938
 30
0.0
 11
80.978385
 21
117.591467
 31
0.0
 12
80.978385
 22
119.919732
 32
0.0
 13
80.958984
 23
119.90613
 33
0.0
  0
3DFACE
  8
0
  6
CONTINUOUS
 62
     7
 10
80.978385
 20
117.591467
 30
0.0
 11
80.997786
 21
117.577996
 31
0.0
 12
80.997786
 22
119.933333
 32
0.0
 13
80.978385
 23
119.919732
 33
0.0
  0
3DFACE
  8
0
  6
CONTINUOUS
 62
     7
 10
80.997786
 20
117.577996
 30
0.0
 11
81.017188
 21
117.564524
 31
0.0
 12
81.017188
 22
119.946935
 32
0.0
 13
80.997786
 23
119.933333
 33
0.0
  0
3DFACE
  8
0
  6
CONTINUOUS
 62
     7
 10
81.017188
 20
117.564524
 30
0.0
 11
81.036589
 21
117.551053
 31
0.0
 12
81.036589
 22
119.960536
 32
0.0
 13
81.017188
 23
119.946935
 33
0.0
  0
3DFACE
  8
0
  6
CONTINUOUS
 62
     7
 10
81.036589
 20
117.551053
 30
0.0
 11
81.05599
 21
117.537582
 31
0.0
 12
81.05599
 22
119.974138
 32
0.0
 13
81.036589
 23
119.960536
 33
0.0
  0
3DFACE
  8
0
  6
CONTINUOUS
 62
     7
 10
81.05599
 20
117.537582
 30
0.0
 11
81.075391
 21
117.52411
 31
0.0
 12
81.075391
 22
119.98774
 32
0.0
 13
81.05599
 23
119.974138
 33
0.0
  0
3DFACE
  8
0
  6
CONTINUOUS
 62
     7
 10
81.075391
 20
117.52411
 30
0.0
 11
81.094792
 21
117.510639
 31
0.0
 12
81.094792
 22
120.001341
 32
0.0
 13
81.075391
 23
119.98774
 33
0.0
  0
3DFACE
  8
0
  6
CONTINUOUS
 62
     7
 10
81.094792
 20
117.510639
 30
0.0
 11
81.114193
 21
117.497168
 31
0.0
 12
81.114193
 22
120.014943
 32
0.0
 13
81.094792
 23
120.001341
 33
0.0
  0
3DFACE
  8
0
  6
CONTINUOUS
 62
     7
 10
81.114193
 20
117.497168
 30
0.0
 11
81.133594
 21
117.483696
 31
0.0
 12
81.133594
 22
120.028544
 32
0.0
 13
81.114193
 23
120.014943
 33
0.0
  0
3DFACE
  8
0
  6
CONTINUOUS
 62
     7
 10
81.133594
 20
117.483696
 30
0.0
 11
81.152995
 21
117.470225
 31
0.0
 12
81.152995
 22
120.042146
 32
0.0
 13
81.133594
 23
120.028544
 33
0.0
  0
3DFACE
  8
0
  6
CONTINUOUS
 62
     7
 10
81.152995
 20
117.470225
 30
0.0
 11
81.172396
 21
117.456754
 31
0.0
 12
81.172396
 22
120.055747
 32
0.0
 13
81.152995
 23
120.042146
 33
0.0
  0
3DFACE
  8
0
  6
CONTINUOUS
 62
     7
 10
81.172396
 20
117.456754
 30
0.0
 11
81.191797
 21
117.443283
 31
0.0
 12
81.191797
 22
120.069349
 32
0.0
 13
81.172396
 23
120.055747
 33
0.0
  0
3DFACE
  8
0
  6
CONTINUOUS
 62
     7
 10
81.191797
 20
117.443283
 30
0.0
 11
81.211198
 21
117.429811
 31
0.0
 12
81.211198
 22
120.08295
 32
0.0
 13
81.191797
 23
120.069349
 33
0.0
  0
3DFACE
  8
0
  6
CONTINUOUS
 62
     7
 10
81.211198
 20
117.429811
 30
0.0
 11
81.230599
 21
117.41634
 31
0.0
 12
81.230599
 22
120.096552
 32
0.0
 13
81.211198
 23
120.08295
 33
0.0
  0
3DFACE
  8
0
  6
CONTINUOUS
 62
     7
 10
81.230599
 20
117.41634
 30
0.0
 11
81.25
 21
117.402869
 31
0.0
 12
81.25
 22
120.110153
 32
0.0
 13
81.230599
 23
120.096552
 33
0.0
  0
3DFACE
  8
0
  6
CONTINUOUS
 62
     7
 10
83.059896
 20
118.75
 30
0.0
 11
83.079297
 21
118.736529
 31
0.0
 12
83.079297
 22
118.763602
 32
0.0
 13
83.059896
 23
118.75
 33
0.0
  0
3DFACE
  8
0
  6
CONTINUOUS
 62
     7
 10
83.079297
 20
118.736529
 30
0.0
 11
83.098698
 21
118.723058
 31
0.0
 12
83.098698
 22
118.777203
 32
0.0
 13
83.079297
 23
118.763602
 33
0.0
  0
3DFACE
  8
0
  6
CONTINUOUS
 62
     7
 10
83.098698
 20
118.723058
 30
0.0
 11
83.118099
 21
118.709586
 31
0.0
 12
83.118099
 22
118.790805
 32
0.0
 13
83.098698
 23
118.777203
 33
0.0
  0
3DFACE
  8
0
  6
CONTINUOUS
 62
     7
 10
83.118099
 20
118.709586
 30
0.0
 11
83.1375
 21
118.696115
 31
0.0
 12
83.1375
 22
118.804406
 32
0.0
 13
83.118099
 23
118.790805
 33
0.0
  0
3DFACE
  8
0
  6
CONTINUOUS
 62
     7
 10
83.1375
 20
118.696115
 30
0.0
 11
83.156901
 21
118.682644
 31
0.0
 12
83.156901
 22
118.818008
 32
0.0
 13
83.1375
 23
118.804406
 33
0.0
  0
3DFACE
  8
0
  6
CONTINUOUS
 62
     7
 10
83.156901
 20
118.682644
 30
0.0
 11
83.176302
 21
118.669172
 31
0.0
 12
83.176302
 22
118.831609
 32
0.0
 13
83.156901
 23
118.818008
 33
0.0
  0
3DFACE
  8
0
  6
CONTINUOUS
 62
     7
 10
83.176302
 20
118.669172
 30
0.0
 11
83.195703
 21
118.655701
 31
0.0
 12
83.195703
 22
118.845211
 32
0.0
 13
83.176302
 23
118.831609
 33
0.0
  0
3DFACE
  8
0
  6
CONTINUOUS
 62
     7
 10
83.195703
 20
118.655701
 30
0.0
 11
83.215104
 21
118.64223
 31
0.0
 12
83.215104
 22
118.858812
 32
0.0
 13
83.195703
 23
118.845211
 33
0.0
  0
3DFACE
  8
0
  6
CONTINUOUS
 62
     7
 10
83.215104
 20
118.64223
 30
0.0
 11
83.234505
 21
118.628758
 31
0.0
 12
83.234505
 22
118.872414
 32
0.0
 13
83.215104
 23
118.858812
 33
0.0
  0
3DFACE
  8
0
  6
CONTINUOUS
 62
     7
 10
83.234505
 20
118.628758
 30
0.0
 11
83.253906
 21
118.615287
 31
0.0
 12
83.253906
 22
118.886016
 32
0.0
 13
83.234505
 23
118.872414
 33
0.0
  0
3DFACE
  8
0
  6
CONTINUOUS
 62
     7
 10
83.253906
 20
118.615287
 30
0.0
 11
83.273307
 21
118.601816
 31
0.0
 12
83.273307
 22
118.899617
 32
0.0
 13
83.253906
 23
118.886016
 33
0.0
  0
3DFACE
  8
0
  6
CONTINUOUS
 62
     7
 10
83.273307
 20
118.601816
 30
0.0
 11
83.292708
 21
118.588344
 31
0.0
 12
83.292708
 22
118.913219
 32
0.0
 13
83.273307
 23
118.899617
 33
0.0
  0
3DFACE
  8
0
  6
CONTINUOUS
 62
     7
 10
83.292708
 20
118.588344
 30
0.0
 11
83.31211
 21
118.574873
 31
0.0
 12
83.31211
 22
118.92682
 32
0.0
 13
83.292708
 23
118.913219
 33
0.0
  0
3DFACE
  8
0
  6
CONTINUOUS
 62
     7
 10
83.31211
 20
118.574873
 30
0.0
 11
83.331511
 21
118.561402
 31
0.0
 12
83.331511
 22
118.940422
 32
0.0
 13
83.31211
 23
118.92682
 33
0.0
  0
3DFACE
  8
0
  6
CONTINUOUS
 62
     7
 10
83.331511
 20
118.561402
 30
0.0
 11
83.350912
 21
118.54793
 31
0.0
 12
83.350912
 22
118.954023
 32
0.0
 13
83.331511
 23
118.940422
 33
0.0
  0
3DFACE
  8
0
  6
CONTINUOUS
 62
     7
 10
83.350912
 20
118.54793
 30
0.0
 11
83.370313
 21
118.534459
 31
0.0
 12
83.370313
 22
118.967625
 32
0.0
 13
83.350912
 23
118.954023
 33
0.0
  0
3DFACE
  8
0
  6
CONTINUOUS
 62
     7
 10
83.370313
 20
118.534459
 30
0.0
 11
83.389714
 21
118.520988
 31
0.0
 12
83.389714
 22
118.981226
 32
0.0
 13
83.370313
 23
118.967625
 33
0.0
  0
3DFACE
  8
0
  6
CONTINUOUS
 62
     7
 10
83.389714
 20
118.520988
 30
0.0
 11
83.409115
 21
118.507517
 31
0.0
 12
83.409115
 22
118.994828
 32
0.0
 13
83.389714
 23
118.981226
 33
0.0
  0
3DFACE
  8
0
  6
CONTINUOUS
 62
     7
 10
83.409115
 20
118.507517
 30
0.0
 11
83.428516
 21
118.494045
 31
0.0
 12
83.428516
 22
119.008429
 32
0.0
 13
83.409115
 23
118.994828
 33
0.0
  0
3DFACE
  8
0
  6
CONTINUOUS
 62
     7
 10
83.428516
 20
118.494045
 30
0.0
 11
83.447917
 21
118.480574
 31
0.0
 12
83.447917
 22
119.022031
 32
0.0
 13
83.428516
 23
119.008429
 33
0.0
  0
3DFACE
  8
0
  6
CONTINUOUS
 62
     7
 10
83.447917
 20
118.480574
 30
0.0
 11
83.467318
 21
118.467103
 31
0.0
 12
83.467318
 22
119.035632
 32
0.0
 13
83.447917
 23
119.022031
 33
0.0
  0
3DFACE
  8
0
  6
CONTINUOUS
 62
     7
 10
83.467318
 20
118.467103
 30
0.0
 11
83.486719
 21
118.453631
 31
0.0
 12
83.486719
 22
119.049234
 32
0.0
 13
83.467318
 23
119.035632
 33
0.0
  0
3DFACE
  8
0
  6
CONTINUOUS
 62
     7
 10
83.486719
 20
118.453631
 30
0.0
 11
83.50612
 21
118.44016
 31
0.0
 12
83.50612
 22
119.062835
 32
0.0
 13
83.486719
 23
119.049234
 33
0.0
  0
3DFACE
  8
0
  6
CONTINUOUS
 62
     7
 10
83.50612
 20
118.44016
 30
0.0
 11
83.525521
 21
118.426689
 31
0.0
 12
83.525521
 22
119.076437
 32
0.0
 13
83.50612
 23
119.062835
 33
0.0
  0
3DFACE
  8
0
  6
CONTINUOUS
 62
     7
 10
83.525521
 20
118.426689
 30
0.0
 11
83.544922
 21
118.413217
 31
0.0
 12
83.544922
 22
119.090038
 32
0.0
 13
83.525521
 23
119.076437
 33
0.0
  0
3DFACE
  8
0
  6
CONTINUOUS
 62
     7
 10
83.544922
 20
118.413217
 30
0.0
 11
83.564323
 21
118.399746
 31
0.0
 12
83.564323
 22
119.10364
 32
0.0
 13
83.544922
 23
119.090038
 33
0.0
  0
3DFACE
  8
0
  6
CONTINUOUS
 62
     7
 10
83.564323
 20
118.399746
 30
0.0
 11
83.583724
 21
118.386275
 31
0.0
 12
83.583724
 22
119.117242
 32
0.0
 13
83.564323
 23
119.10364
 33
0.0
  0
3DFACE
  8
0
  6
CONTINUOUS
 62
     7
 10
83.583724
 20
118.386275
 30
0.0
 11
83.603125
 21
118.372803
 31
0.0
 12
83.603125
 22
119.130843
 32
0.0
 13
83.583724
 23
119.117242
 33
0.0
  0
3DFACE
  8
0
  6
CONTINUOUS
 62
     7
 10
83.603125
 20
118.372803
 30
0.0
 11
83.622526
 21
118.359332
 31
0.0
 12
83.622526
 22
119.144445
 32
0.0
 13
83.603125
 23
119.130843
 33
0.0
  0
3DFACE
  8
0
  6
CONTINUOUS
 62
     7
 10
83.622526
 20
118.359332
 30
0.0
 11
83.641927
 21
118.345861
 31
0.0
 12
83.641927
 22
119.158046
 32
0.0
 13
83.622526
 23
119.144445
 33
0.0
  0
3DFACE
  8
0
  6
CONTINUOUS
 62
     7
 10
83.641927
 20
118.345861
 30
0.0
 11
83.661328
 21
118.332389
 31
0.0
 12
83.661328
 22
119.171648
 32
0.0
 13
83.641927
 23
119.158046
 33
0.0
  0
3DFACE
  8
0
  6
CONTINUOUS
 62
     7
 10
83.661328
 20
118.332389
 30
0.0
 11
83.680729
 21
118.318918
 31
0.0
 12
83.680729
 22
119.185249
 32
0.0
 13
83.661328
 23
119.171648
 33
0.0
  0
3DFACE
  8
0
  6
CONTINUOUS
 62
     7
 10
83.680729
 20
118.318918
 30
0.0
 11
83.70013
 21
118.305447
 31
0.0
 12
83.70013
 22
119.198851
 32
0.0
 13
83.680729
 23
119.185249
 33
0.0
  0
3DFACE
  8
0
  6
CONTINUOUS
 62
     7
 10
83.70013
 20
118.305447
 30
0.0
 11
83.719531
 21
118.291975
 31
0.0
 12
83.719531
 22
119.212452
 32
0.0
 13
83.70013
 23
119.198851
 33
0.0
  0
3DFACE
  8
0
  6
CONTINUOUS
 62
     7
 10
83.719531
 20
118.291975
 30
0.0
 11
83.738932
 21
118.278504
 31
0.0
 12
83.738932
 22
119.226054
 32
0.0
 13
83.719531
 23
119.212452
 33
0.0
  0
3DFACE
  8
0
  6
CONTINUOUS
 62
     7
 10
83.738932
 20
118.278504
 30
0.0
 11
83.758333
 21
118.265033
 31
0.0
 12
83.758333
 22
119.239655
 32
0.0
 13
83.738932
 23
119.226054
 33
0.0
  0
3DFACE
  8
0
  6
CONTINUOUS
 62
     7
 10
83.758333
 20
118.265033
 30
0.0
 11
83.777734
 21
118.251562
 31
0.0
 12
83.777734
 22
119.253257
 32
0.0
 13
83.758333
 23
119.239655
 33
0.0
  0
3DFACE
  8
0
  6
CONTINUOUS
 62
     7
 10
83.777734
 20
118.251562
 30
0.0
 11
83.797136
 21
118.23809
 31
0.0
 12
83.797136
 22
119.266858
 32
0.0
 13
83.777734
 23
119.253257
 33
0.0
  0
3DFACE
  8
0
  6
CONTINUOUS
 62
     7
 10
83.797136
 20
118.23809
 30
0.0
 11
83.816537
 21
118.224619
 31
0.0
 12
83.816537
 22
119.28046
 32
0.0
 13
83.797136
 23
119.266858
 33
0.0
  0
3DFACE
  8
0
  6
CONTINUOUS
 62
     7
 10
83.816537
 20
118.224619
 30
0.0
 11
83.835938
 21
118.211148
 31
0.0
 12
83.835938
 22
119.294061
 32
0.0
 13
83.816537
 23
119.28046
 33
0.0
  0
3DFACE
  8
0
  6
CONTINUOUS
 62
     7
 10
83.835938
 20
118.211148
 30
0.0
 11
83.855339
 21
118.197676
 31
0.0
 12
83.855339
 22
119.307663
 32
0.0
 13
83.835938
 23
119.294061
 33
0.0
  0
3DFACE
  8
0
  6
CONTINUOUS
 62
     7
 10
83.855339
 20
118.197676
 30
0.0
 11
83.87474
 21
118.184205
 31
0.0
 12
83.87474
 22
119.321264
 32
0.0
 13
83.855339
 23
119.307663
 33
0.0
  0
3DFACE
  8
0
  6
CONTINUOUS
 62
     7
 10
83.87474
 20
118.184205
 30
0.0
 11
83.894141
 21
118.170734
 31
0.0
 12
83.894141
 22
119.334866
 32
0.0
 13
83.87474
 23
119.321264
 33
0.0
  0
3DFACE
  8
0
  6
CONTINUOUS
 62
     7
 10
83.894141
 20
118.170734
 30
0.0
 11
83.913542
 21
118.157262
 31
0.0
 12
83.913542
 22
119.348468
 32
0.0
 13
83.894141
 23
119.334866
 33
0.0
  0
3DFACE
  8
0
  6
CONTINUOUS
 62
     7
 10
83.913542
 20
118.157262
 30
0.0
 11
83.932943
 21
118.143791
 31
0.0
 12
83.932943
 22
119.362069
 32
0.0
 13
83.913542
 23
119.348468
 33
0.0
  0
3DFACE
  8
0
  6
CONTINUOUS
 62
     7
 10
83.932943
 20
118.143791
 30
0.0
 11
83.952344
 21
118.13032
 31
0.0
 12
83.952344
 22
119.375671
 32
0.0
 13
83.932943
 23
119.362069
 33
0.0
  0
3DFACE
  8
0
  6
CONTINUOUS
 62
     7
 10
83.952344
 20
118.13032
 30
0.0
 11
83.971745
 21
118.116848
 31
0.0
 12
83.971745
 22
119.389272
 32
0.0
 13
83.952344
 23
119.375671
 33
0.0
  0
3DFACE
  8
0
  6
CONTINUOUS
 62
     7
 10
83.971745
 20
118.116848
 30
0.0
 11
83.991146
 21
118.103377
 31
0.0
 12
83.991146
 22
119.402874
 32
0.0
 13
83.971745
 23
119.389272
 33
0.0
  0
3DFACE
  8
0
  6
CONTINUOUS
 62
     7
 10
83.991146
 20
118.103377
 30
0.0
 11
84.010547
 21
118.089906
 31
0.0
 12
84.010547
 22
119.416475
 32
0.0
 13
83.991146
 23
119.402874
 33
0.0
  0
3DFACE
  8
0
  6
CONTINUOUS
 62
     7
 10
84.010547
 20
118.089906
 30
0.0
 11
84.029948
 21
118.076434
 31
0.0
 12
84.029948
 22
119.430077
 32
0.0
 13
84.010547
 23
119.416475
 33
0.0
  0
3DFACE
  8
0
  6
CONTINUOUS
 62
     7
 10
84.029948
 20
118.076434
 30
0.0
 11
84.049349
 21
118.062963
 31
0.0
 12
84.049349
 22
119.443678
 32
0.0
 13
84.029948
 23
119.430077
 33
0.0
  0
3DFACE
  8
0
  6
CONTINUOUS
 62
     7
 10
84.049349
 20
118.062963
 30
0.0
 11
84.06875
 21
118.049492
 31
0.0
 12
84.06875
 22
119.45728
 32
0.0
 13
84.049349
 23
119.443678
 33
0.0
  0
3DFACE
  8
0
  6
CONTINUOUS
 62
     7
 10
84.06875
 20
118.049492
 30
0.0
 11
84.088151
 21
118.03602
 31
0.0
 12
84.088151
 22
119.470881
 32
0.0
 13
84.06875
 23
119.45728
 33
0.0
  0
3DFACE
  8
0
  6
CONTINUOUS
 62
     7
 10
84.088151
 20
118.03602
 30
0.0
 11
84.107552
 21
118.022549
 31
0.0
 12
84.107552
 22
119.484483
 32
0.0
 13
84.088151
 23
119.470881
 33
0.0
  0
3DFACE
  8
0
  6
CONTINUOUS
 62
     7
 10
84.107552
 20
118.022549
 30
0.0
 11
84.126953
 21
118.009078
 31
0.0
 12
84.126953
 22
119.498084
 32
0.0
 13
84.107552
 23
119.484483
 33
0.0
  0
3DFACE
  8
0
  6
CONTINUOUS
 62
     7
 10
84.126953
 20
118.009078
 30
0.0
 11
84.146354
 21
117.995606
 31
0.0
 12
84.146354
 22
119.511686
 32
0.0
 13
84.126953
 23
119.498084
 33
0.0
  0
3DFACE
  8
0
  6
CONTINUOUS
 62
     7
 10
84.146354
 20
117.995606
 30
0.0
 11
84.165755
 21
117.982135
 31
0.0
 12
84.165755
 22
119.525287
 32
0.0
 13
84.146354
 23
119.511686
 33
0.0
  0
3DFACE
  8
0
  6
CONTINUOUS
 62
     7
 10
84.165755
 20
117.982135
 30
0.0
 11
84.185156
 21
117.968664
 31
0.0
 12
84.185156
 22
119.538889
 32
0.0
 13
84.165755
 23
119.525287
 33
0.0
  0
3DFACE
  8
0
  6
CONTINUOUS
 62
     7
 10
84.185156
 20
117.968664
 30
0.0
 11
84.204557
 21
117.955193
 31
0.0
 12
84.204557
 22
119.552491
 32
0.0
 13
84.185156
 23
119.538889
 33
0.0
  0
3DFACE
  8
0
  6
CONTINUOUS
 62
     7
 10
84.204557
 20
117.955193
 30
0.0
 11
84.223958
 21
117.941721
 31
0.0
 12
84.223958
 22
119.566092
 32
0.0
 13
84.204557
 23
119.552491
 33
0.0
  0
3DFACE
  8
0
  6
CONTINUOUS
 62
     7
 10
84.223958
 20
117.941721
 30
0.0
 11
84.243359
 21
117.92825
 31
0.0
 12
84.243359
 22
119.579694
 32
0.0
 13
84.223958
 23
119.566092
 33
0.0
  0
3DFACE
  8
0
  6
CONTINUOUS
 62
     7
 10
84.243359
 20
117.92825
 30
0.0
 11
84.26276
 21
117.914779
 31
0.0
 12
84.26276
 22
119.593295
 32
0.0
 13
84.243359
 23
119.579694
 33
0.0
  0
3DFACE
  8
0
  6
CONTINUOUS
 62
     7
 10
84.26276
 20
117.914779
 30
0.0
 11
84.282162
 21
117.901307
 31
0.0
 12
84.282162
 22
119.606897
 32
0.0
 13
84.26276
 23
119.593295
 33
0.0
  0
3DFACE
  8
0
  6
CONTINUOUS
 62
     7
 10
84.282162
 20
117.901307
 30
0.0
 11
84.301563
 21
117.887836
 31
0.0
 12
84.301563
 22
119.620498
 32
0.0
 13
84.282162
 23
119.606897
 33
0.0
  0
3DFACE
  8
0
  6
CONTINUOUS
 62
     7
 10
84.301563
 20
117.887836
 30
0.0
 11
84.320964
 21
117.874365
 31
0.0
 12
84.320964
 22
119.6341
 32
0.0
 13
84.301563
 23
119.620498
 33
0.0
  0
3DFACE
  8
0
  6
CONTINUOUS
 62
     7
 10
84.320964
 20
117.874365
 30
0.0
 11
84.340365
 21
117.860893
 31
0.0
 12
84.340365
 22
119.647701
 32
0.0
 13
84.320964
 23
119.6341
 33
0.0
  0
3DFACE
  8
0
  6
CONTINUOUS
 62
     7
 10
84.340365
 20
117.860893
 30
0.0
 11
84.359766
 21
117.847422
 31
0.0
 12
84.359766
 22
119.661303
 32
0.0
 13
84.340365
 23
119.647701
 33
0.0
  0
3DFACE
  8
0
  6
CONTINUOUS
 62
     7
 10
84.359766
 20
117.847422
 30
0.0
 11
84.379167
 21
117.833951
 31
0.0
 12
84.379167
 22
119.674904
 32
0.0
 13
84.359766
 23
119.661303
 33
0.0
  0
3DFACE
  8
0
  6
CONTINUOUS
 62
     7
 10
84.379167
 20
117.833951
 30
0.0
 11
84.398568
 21
117.820479
 31
0.0
 12
84.398568
 22
119.688506
 32
0.0
 13
84.379167
 23
119.674904
 33
0.0
  0
3DFACE
  8
0
  6
CONTINUOUS
 62
     7
 10
84.398568
 20
117.820479
 30
0.0
 11
84.417969
 21
117.807008
 31
0.0
 12
84.417969
 22
119.702107
 32
0.0
 13
84.398568
 23
119.688506
 33
0.0
  0
3DFACE
  8
0
  6
CONTINUOUS
 62
     7
 10
84.417969
 20
117.807008
 30
0.0
 11
84.43737
 21
117.793537
 31
0.0
 12
84.43737
 22
119.715709
 32
0.0
 13
84.417969
 23
119.702107
 33
0.0
  0
3DFACE
  8
0
  6
CONTINUOUS
 62
     7
 10
84.43737
 20
117.793537
 30
0.0
 11
84.456771
 21
117.780065
 31
0.0
 12
84.456771
 22
119.72931
 32
0.0
 13
84.43737
 23
119.715709
 33
0.0
  0
3DFACE
  8
0
  6
CONTINUOUS
 62
     7
 10
84.456771
 20
117.780065
 30
0.0
 11
84.476172
 21
117.766594
 31
0.0
 12
84.476172
 22
119.742912
 32
0.0
 13
84.456771
 23
119.72931
 33
0.0
  0
3DFACE
  8
0
  6
CONTINUOUS
 62
     7
 10
84.476172
 20
117.766594
 30
0.0
 11
84.495573
 21
117.753123
 31
0.0
 12
84.495573
 22
119.756513
 32
0.0
 13
84.476172
 23
119.742912
 33
0.0
  0
3DFACE
  8
0
  6
CONTINUOUS
 62
     7
 10
84.495573
 20
117.753123
 30
0.0
 11
84.514974
 21
117.739651
 31
0.0
 12
84.514974
 22
119.770115
 32
0.0
 13
84.495573
 23
119.756513
 33
0.0
  0
3DFACE
  8
0
  6
CONTINUOUS
 62
     7
 10
84.514974
 20
117.739651
 30
0.0
 11
84.534375
 21
117.72618
 31
0.0
 12
84.534375
 22
119.783717
 32
0.0
 13
84.514974
 23
119.770115
 33
0.0
  0
3DFACE
  8
0
  6
CONTINUOUS
 62
     7
 10
84.534375
 20
117.72618
 30
0.0
 11
84.553776
 21
117.712709
 31
0.0
 12
84.553776
 22
119.797318
 32
0.0
 13
84.534375
 23
119.783717
 33
0.0
  0
3DFACE
  8
0
  6
CONTINUOUS
 62
     7
 10
84.553776
 20
117.712709
 30
0.0
 11
84.573177
 21
117.699238
 31
0.0
 12
84.573177
 22
119.81092
 32
0.0
 13
84.553776
 23
119.797318
 33
0.0
  0
3DFACE
  8
0
  6
CONTINUOUS
 62
     7
 10
84.573177
 20
117.699238
 30
0.0
 11
84.592578
 21
117.685766
 31
0.0
 12
84.592578
 22
119.824521
 32
0.0
 13
84.573177
 23
119.81092
 33
0.0
  0
3DFACE
  8
0
  6
CONTINUOUS
 62
     7
 10
84.592578
 20
117.685766
 30
0.0
 11
84.611979
 21
117.672295
 31
0.0
 12
84.611979
 22
119.838123
 32
0.0
 13
84.592578
 23
119.824521
 33
0.0
  0
3DFACE
  8
0
  6
CONTINUOUS
 62
     7
 10
84.611979
 20
117.672295
 30
0.0
 11
84.63138
 21
117.658824
 31
0.0
 12
84.63138
 22
119.851724
 32
0.0
 13
84.611979
 23
119.838123
 33
0.0
  0
3DFACE
  8
0
  6
CONTINUOUS
 62
     7
 10
84.63138
 20
117.658824
 30
0.0
 11
84.650781
 21
117.645352
 31
0.0
 12
84.650781
 22
119.865326
 32
0.0
 13
84.63138
 23
119.851724
 33
0.0
  0
3DFACE
  8
0
  6
CONTINUOUS
 62
     7
 10
84.650781
 20
117.645352
 30
0.0
 11
84.670182
 21
117.631881
 31
0.0
 12
84.670182
 22
119.878927
 32
0.0
 13
84.650781
 23
119.865326
 33
0.0
  0
3DFACE
  8
0
  6
CONTINUOUS
 62
     7
 10
84.670182
 20
117.631881
 30
0.0
 11
84.689583
 21
117.61841
 31
0.0
 12
84.689583
 22
119.892529
 32
0.0
 13
84.670182
 23
119.878927
 33
0.0
  0
3DFACE
  8
0
  6
CONTINUOUS
 62
     7
 10
84.689583
 20
117.61841
 30
0.0
 11
84.708984
 21
117.604938
 31
0.0
 12
84.708984
 22
119.90613
 32
0.0
 13
84.689583
 23
119.892529
 33
0.0
  0
3DFACE
  8
0
  6
CONTINUOUS
 62
     7
 10
84.708984
 20
117.604938
 30
0.0
 11
84.728385
 21
117.591467
 31
0.0
 12
84.728385
 22
119.919732
 32
0.0
 13
84.708984
 23
119.90613
 33
0.0
  0
3DFACE
  8
0
  6
CONTINUOUS
 62
     7
 10
84.728385
 20
117.591467
 30
0.0
 11
84.747786
 21
117.577996
 31
0.0
 12
84.747786
 22
119.933333
 32
0.0
 13
84.728385
 23
119.919732
 33
0.0
  0
3DFACE
  8
0
  6
CONTINUOUS
 62
     7
 10
84.747786
 20
117.577996
 30
0.0
 11
84.767188
 21
117.564524
 31
0.0
 12
84.767188
 22
119.946935
 32
0.0
 13
84.747786
 23
119.933333
 33
0.0
  0
3DFACE
  8
0
  6
CONTINUOUS
 62
     7
 10
84.767188
 20
117.564524
 30
0.0
 11
84.786589
 21
117.551053
 31
0.0
 12
84.786589
 22
119.960536
 32
0.0
 13
84.767188
 23
119.946935
 33
0.0
  0
3DFACE
  8
0
  6
CONTINUOUS
 62
     7
 10
84.786589
 20
117.551053
 30
0.0
 11
84.80599
 21
117.537582
 31
0.0
 12
84.80599
 22
119.974138
 32
0.0
 13
84.786589
 23
119.960536
 33
0.0
  0
3DFACE
  8
0
  6
CONTINUOUS
 62
     7
 10
84.80599
 20
117.537582
 30
0.0
 11
84.825391
 21
117.52411
 31
0.0
 12
84.825391
 22
119.98774
 32
0.0
 13
84.80599
 23
119.974138
 33
0.0
  0
3DFACE
  8
0
  6
CONTINUOUS
 62
     7
 10
84.825391
 20
117.52411
 30
0.0
 11
84.844792
 21
117.510639
 31
0.0
 12
84.844792
 22
120.001341
 32
0.0
 13
84.825391
 23
119.98774
 33
0.0
  0
3DFACE
  8
0
  6
CONTINUOUS
 62
     7
 10
84.844792
 20
117.510639
 30
0.0
 11
84.864193
 21
117.497168
 31
0.0
 12
84.864193
 22
120.014943
 32
0.0
 13
84.844792
 23
120.001341
 33
0.0
  0
3DFACE
  8
0
  6
CONTINUOUS
 62
     7
 10
84.864193
 20
117.497168
 30
0.0
 11
84.883594
 21
117.483696
 31
0.0
 12
84.883594
 22
120.028544
 32
0.0
 13
84.864193
 23
120.014943
 33
0.0
  0
3DFACE
  8
0
  6
CONTINUOUS
 62
     7
 10
84.883594
 20
117.483696
 30
0.0
 11
84.902995
 21
117.470225
 31
0.0
 12
84.902995
 22
120.042146
 32
0.0
 13
84.883594
 23
120.028544
 33
0.0
  0
3DFACE
  8
0
  6
CONTINUOUS
 62
     7
 10
84.902995
 20
117.470225
 30
0.0
 11
84.922396
 21
117.456754
 31
0.0
 12
84.922396
 22
120.055747
 32
0.0
 13
84.902995
 23
120.042146
 33
0.0
  0
3DFACE
  8
0
  6
CONTINUOUS
 62
     7
 10
84.922396
 20
117.456754
 30
0.0
 11
84.941797
 21
117.443283
 31
0.0
 12
84.941797
 22
120.069349
 32
0.0
 13
84.922396
 23
120.055747
 33
0.0
  0
3DFACE
  8
0
  6
CONTINUOUS
 62
     7
 10
84.941797
 20
117.443283
 30
0.0
 11
84.961198
 21
117.429811
 31
0.0
 12
84.961198
 22
120.08295
 32
0.0
 13
84.941797
 23
120.069349
 33
0.0
  0
3DFACE
  8
0
  6
CONTINUOUS
 62
     7
 10
84.961198
 20
117.429811
 30
0.0
 11
84.980599
 21
117.41634
 31
0.0
 12
84.980599
 22
120.096552
 32
0.0
 13
84.961198
 23
120.08295
 33
0.0
  0
3DFACE
  8
0
  6
CONTINUOUS
 62
     7
 10
84.980599
 20
117.41634
 30
0.0
 11
85.0
 21
117.402869
 31
0.0
 12
85.0
 22
120.110153
 32
0.0
 13
84.980599
 23
120.096552
 33
0.0
  0
ARC
  8
0
  6
CONTINUOUS
 62
     7
 10
150.0
 20
82.5
 30
0.0
 40
0.5
 50
180.0
 51
0.0
  0
ARC
  8
0
  6
CONTINUOUS
 62
     7
 10
150.0
 20
82.5
 30
0.0
 40
0.5
 50
0.0
 51
180.0
  0
ARC
  8
0
  6
CONTINUOUS
 62
     7
 10
50.0
 20
235.0
 30
0.0
 40
0.5
 50
180.0
 51
0.0
  0
ARC
  8
0
  6
CONTINUOUS
 62
     7
 10
50.0
 20
235.0
 30
0.0
 40
0.5
 50
0.0
 51
180.0
  0
ARC
  8
0
  6
CONTINUOUS
 62
     7
 10
50.0
 20
215.0
 30
0.0
 40
0.5
 50
180.0
 51
0.0
  0
ARC
  8
0
  6
CONTINUOUS
 62
     7
 10
50.0
 20
215.0
 30
0.0
 40
0.5
 50
0.0
 51
180.0
  0
ARC
  8
0
  6
CONTINUOUS
 62
     7
 10
50.0
 20
220.0
 30
0.0
 40
0.5
 50
180.0
 51
0.0
  0
ARC
  8
0
  6
CONTINUOUS
 62
     7
 10
50.0
 20
220.0
 30
0.0
 40
0.5
 50
0.0
 51
180.0
  0
ARC
  8
0
  6
CONTINUOUS
 62
     7
 10
50.0
 20
225.0
 30
0.0
 40
0.5
 50
180.0
 51
0.0
  0
ARC
  8
0
  6
CONTINUOUS
 62
     7
 10
50.0
 20
225.0
 30
0.0
 40
0.5
 50
0.0
 51
180.0
  0
ARC
  8
0
  6
CONTINUOUS
 62
     7
 10
50.0
 20
230.0
 30
0.0
 40
0.5
 50
180.0
 51
0.0
  0
ARC
  8
0
  6
CONTINUOUS
 62
     7
 10
50.0
 20
230.0
 30
0.0
 40
0.5
 50
0.0
 51
180.0
  0
ARC
  8
0
  6
CONTINUOUS
 62
     7
 10
111.25
 20
160.0
 30
0.0
 40
0.5
 50
180.0
 51
0.0
  0
ARC
  8
0
  6
CONTINUOUS
 62
     7
 10
111.25
 20
160.0
 30
0.0
 40
0.5
 50
0.0
 51
180.0
  0
ARC
  8
0
  6
CONTINUOUS
 62
     7
 10
133.75
 20
160.0
 30
0.0
 40
0.5
 50
180.0
 51
0.0
  0
ARC
  8
0
  6
CONTINUOUS
 62
     7
 10
133.75
 20
160.0
 30
0.0
 40
0.5
 50
0.0
 51
180.0
  0
ARC
  8
0
  6
CONTINUOUS
 62
     7
 10
103.75
 20
190.0
 30
0.0
 40
0.5
 50
180.0
 51
0.0
  0
ARC
  8
0
  6
CONTINUOUS
 62
     7
 10
103.75
 20
190.0
 30
0.0
 40
0.5
 50
0.0
 51
180.0
  0
ARC
  8
0
  6
CONTINUOUS
 62
     7
 10
100.0
 20
205.0
 30
0.0
 40
0.5
 50
180.0
 51
0.0
  0
ARC
  8
0
  6
CONTINUOUS
 62
     7
 10
100.0
 20
205.0
 30
0.0
 40
0.5
 50
0.0
 51
180.0
  0
ARC
  8
0
  6
CONTINUOUS
 62
     7
 10
107.5
 20
175.0
 30
0.0
 40
0.5
 50
180.0
 51
0.0
  0
ARC
  8
0
  6
CONTINUOUS
 62
     7
 10
107.5
 20
175.0
 30
0.0
 40
0.5
 50
0.0
 51
180.0
  0
ARC
  8
0
  6
CONTINUOUS
 62
     7
 10
130.0
 20
175.0
 30
0.0
 40
0.5
 50
180.0
 51
0.0
  0
ARC
  8
0
  6
CONTINUOUS
 62
     7
 10
130.0
 20
175.0
 30
0.0
 40
0.5
 50
0.0
 51
180.0
  0
ARC
  8
0
  6
CONTINUOUS
 62
     7
 10
126.25
 20
190.0
 30
0.0
 40
0.5
 50
180.0
 51
0.0
  0
ARC
  8
0
  6
CONTINUOUS
 62
     7
 10
126.25
 20
190.0
 30
0.0
 40
0.5
 50
0.0
 51
180.0
  0
ARC
  8
0
  6
CONTINUOUS
 62
     7
 10
122.5
 20
205.0
 30
0.0
 40
0.5
 50
180.0
 51
0.0
  0
ARC
  8
0
  6
CONTINUOUS
 62
     7
 10
122.5
 20
205.0
 30
0.0
 40
0.5
 50
0.0
 51
180.0
  0
ARC
  8
0
  6
CONTINUOUS
 62
     7
 10
193.75
 20
167.5
 30
0.0
 40
0.5
 50
180.0
 51
0.0
  0
ARC
  8
0
  6
CONTINUOUS
 62
     7
 10
193.75
 20
167.5
 30
0.0
 40
0.5
 50
0.0
 51
180.0
  0
ARC
  8
0
  6
CONTINUOUS
 62
     7
 10
148.75
 20
197.5
 30
0.0
 40
0.5
 50
180.0
 51
0.0
  0
ARC
  8
0
  6
CONTINUOUS
 62
     7
 10
148.75
 20
197.5
 30
0.0
 40
0.5
 50
0.0
 51
180.0
  0
ARC
  8
0
  6
CONTINUOUS
 62
     7
 10
186.25
 20
182.5
 30
0.0
 40
0.5
 50
180.0
 51
0.0
  0
ARC
  8
0
  6
CONTINUOUS
 62
     7
 10
186.25
 20
182.5
 30
0.0
 40
0.5
 50
0.0
 51
180.0
  0
ARC
  8
0
  6
CONTINUOUS
 62
     7
 10
190.0
 20
175.0
 30
0.0
 40
0.5
 50
180.0
 51
0.0
  0
ARC
  8
0
  6
CONTINUOUS
 62
     7
 10
190.0
 20
175.0
 30
0.0
 40
0.5
 50
0.0
 51
180.0
  0
ARC
  8
0
  6
CONTINUOUS
 62
     7
 10
182.5
 20
190.0
 30
0.0
 40
0.5
 50
180.0
 51
0.0
  0
ARC
  8
0
  6
CONTINUOUS
 62
     7
 10
182.5
 20
190.0
 30
0.0
 40
0.5
 50
0.0
 51
180.0
  0
ARC
  8
0
  6
CONTINUOUS
 62
     7
 10
178.75
 20
197.5
 30
0.0
 40
0.5
 50
180.0
 51
0.0
  0
ARC
  8
0
  6
CONTINUOUS
 62
     7
 10
178.75
 20
197.5
 30
0.0
 40
0.5
 50
0.0
 51
180.0
  0
ARC
  8
0
  6
CONTINUOUS
 62
     7
 10
171.25
 20
212.5
 30
0.0
 40
0.5
 50
180.0
 51
0.0
  0
ARC
  8
0
  6
CONTINUOUS
 62
     7
 10
171.25
 20
212.5
 30
0.0
 40
0.5
 50
0.0
 51
180.0
  0
ARC
  8
0
  6
CONTINUOUS
 62
     7
 10
175.0
 20
205.0
 30
0.0
 40
0.5
 50
180.0
 51
0.0
  0
ARC
  8
0
  6
CONTINUOUS
 62
     7
 10
175.0
 20
205.0
 30
0.0
 40
0.5
 50
0.0
 51
180.0
  0
ARC
  8
0
  6
CONTINUOUS
 62
     7
 10
197.5
 20
160.0
 30
0.0
 40
0.5
 50
180.0
 51
0.0
  0
ARC
  8
0
  6
CONTINUOUS
 62
     7
 10
197.5
 20
160.0
 30
0.0
 40
0.5
 50
0.0
 51
180.0
  0
ARC
  8
0
  6
CONTINUOUS
 62
     7
 10
220.0
 20
167.5
 30
0.0
 40
0.5
 50
180.0
 51
0.0
  0
ARC
  8
0
  6
CONTINUOUS
 62
     7
 10
220.0
 20
167.5
 30
0.0
 40
0.5
 50
0.0
 51
180.0
  0
LINE
  8
0
  6
CONTINUOUS
 62
     7
 10
253.101588
 20
158.680147
 30
0.0
 11
253.988475
 21
158.680147
 31
0.0
  0
LINE
  8
0
  6
CONTINUOUS
 62
     7
 10
252.770483
 20
159.29178
 30
0.0
 11
254.355055
 21
159.29178
 31
0.0
  0
LINE
  8
0
  6
CONTINUOUS
 62
     7
 10
253.586419
 20
159.913842
 30
0.0
 11
254.78076
 21
159.913842
 31
0.0
  0
LINE
  8
0
  6
CONTINUOUS
 62
     7
 10
252.392078
 20
159.913842
 30
0.0
 11
253.586419
 21
159.913842
 31
0.0
  0
LINE
  8
0
  6
CONTINUOUS
 62
     7
 10
253.602306
 20
161.268113
 30
0.0
 11
253.602306
 21
159.913842
 31
0.0
  0
LINE
  8
0
  6
CONTINUOUS
 62
     7
 10
253.269326
 20
166.238302
 30
0.0
 11
254.156213
 21
166.238302
 31
0.0
  0
LINE
  8
0
  6
CONTINUOUS
 62
     7
 10
252.938222
 20
166.849935
 30
0.0
 11
254.522793
 21
166.849935
 31
0.0
  0
LINE
  8
0
  6
CONTINUOUS
 62
     7
 10
253.754158
 20
167.471997
 30
0.0
 11
254.948499
 21
167.471997
 31
0.0
  0
LINE
  8
0
  6
CONTINUOUS
 62
     7
 10
252.559817
 20
167.471997
 30
0.0
 11
253.754158
 21
167.471997
 31
0.0
  0
LINE
  8
0
  6
CONTINUOUS
 62
     7
 10
253.770044
 20
168.826267
 30
0.0
 11
253.770044
 21
167.471997
 31
0.0
  0
ARC
  8
0
  6
CONTINUOUS
 62
     7
 10
216.25
 20
182.5
 30
0.0
 40
0.5
 50
180.0
 51
0.0
  0
ARC
  8
0
  6
CONTINUOUS
 62
     7
 10
216.25
 20
182.5
 30
0.0
 40
0.5
 50
0.0
 51
180.0
  0
LINE
  8
0
  6
CONTINUOUS
 62
     7
 10
253.101588
 20
180.833957
 30
0.0
 11
253.988475
 21
180.833957
 31
0.0
  0
LINE
  8
0
  6
CONTINUOUS
 62
     7
 10
252.770483
 20
181.445591
 30
0.0
 11
254.355055
 21
181.445591
 31
0.0
  0
LINE
  8
0
  6
CONTINUOUS
 62
     7
 10
253.586419
 20
182.067653
 30
0.0
 11
254.78076
 21
182.067653
 31
0.0
  0
LINE
  8
0
  6
CONTINUOUS
 62
     7
 10
252.392078
 20
182.067653
 30
0.0
 11
253.586419
 21
182.067653
 31
0.0
  0
LINE
  8
0
  6
CONTINUOUS
 62
     7
 10
253.602306
 20
183.421923
 30
0.0
 11
253.602306
 21
182.067653
 31
0.0
  0
LINE
  8
0
  6
CONTINUOUS
 62
     7
 10
253.269326
 20
173.622905
 30
0.0
 11
254.156213
 21
173.622905
 31
0.0
  0
LINE
  8
0
  6
CONTINUOUS
 62
     7
 10
252.938222
 20
174.234538
 30
0.0
 11
254.522793
 21
174.234538
 31
0.0
  0
LINE
  8
0
  6
CONTINUOUS
 62
     7
 10
253.754158
 20
174.8566
 30
0.0
 11
254.948499
 21
174.8566
 31
0.0
  0
LINE
  8
0
  6
CONTINUOUS
 62
     7
 10
252.559817
 20
174.8566
 30
0.0
 11
253.754158
 21
174.8566
 31
0.0
  0
LINE
  8
0
  6
CONTINUOUS
 62
     7
 10
253.770044
 20
176.210871
 30
0.0
 11
253.770044
 21
174.8566
 31
0.0
  0
ENDSEC
  0
EOF
