  0
SECTION
  2
HEADER
  9
$ACADVER
  1
AC1009
  9
$DWGCODEPAGE
  3
iso8859-1
  9
$INSBASE
 10
0.0
 20
0.0
 30
0.0
  9
$EXTMIN
 10
1.0E20
 20
1.0E20
  9
$EXTMAX
 10
-1.0E20
 20
-1.0E20
  9
$LIMMIN
 10
0.0
 20
0.0
  9
$LIMMAX
 10
12.0
 20
9.0
  9
$ORTHOMODE
 70
     0
  9
$REGENMODE
 70
     1
  9
$FILLMODE
 70
     1
  9
$QTEXTMODE
 70
     0
  9
$MIRRTEXT
 70
     1
  9
$DRAGMODE
 70
     2
  9
$LTSCALE
 40
15.0
  9
$OSMODE
 70
     0
  9
$ATTMODE
 70
     1
  9
$TEXTSIZE
 40
0.2
  9
$TRACEWID
 40
0.05
  9
$TEXTSTYLE
  7
STANDARD
  9
$CLAYER
  8
0
  9
$CELTYPE
  6
DASHED
  9
$CECOLOR
 62
   256
  9
$DIMSCALE
 40
1.0
  9
$DIMASZ
 40
0.18
  9
$DIMEXO
 40
0.0625
  9
$DIMDLI
 40
0.38
  9
$DIMRND
 40
0.0
  9
$DIMDLE
 40
0.0
  9
$DIMEXE
 40
0.18
  9
$DIMTP
 40
0.0
  9
$DIMTM
 40
0.0
  9
$DIMTXT
 40
0.18
  9
$DIMCEN
 40
0.09
  9
$DIMTSZ
 40
0.0
  9
$DIMTOL
 70
     0
  9
$DIMLIM
 70
     0
  9
$DIMTIH
 70
     1
  9
$DIMTOH
 70
     1
  9
$DIMSE1
 70
     0
  9
$DIMSE2
 70
     0
  9
$DIMTAD
 70
     0
  9
$DIMZIN
 70
     0
  9
$DIMBLK
  1

  9
$DIMASO
 70
     1
  9
$DIMSHO
 70
     1
  9
$DIMPOST
  1

  9
$DIMAPOST
  1

  9
$DIMALT
 70
     0
  9
$DIMALTD
 70
     2
  9
$DIMALTF
 40
25.4
  9
$DIMLFAC
 40
1.0
  9
$DIMTOFL
 70
     0
  9
$DIMTVP
 40
0.0
  9
$DIMTIX
 70
     0
  9
$DIMSOXD
 70
     0
  9
$DIMSAH
 70
     0
  9
$DIMBLK1
  1

  9
$DIMBLK2
  1

  9
$DIMSTYLE
  2
STANDARD
  9
$DIMCLRD
 70
     0
  9
$DIMCLRE
 70
     0
  9
$DIMCLRT
 70
     0
  9
$DIMTFAC
 40
1.0
  9
$DIMGAP
 40
0.09
  9
$LUNITS
 70
     2
  9
$LUPREC
 70
     4
  9
$AXISMODE
 70
     0
  9
$AXISUNIT
 10
0.0
 20
0.0
  9
$SKETCHINC
 40
0.1
  9
$FILLETRAD
 40
0.0
  9
$AUNITS
 70
     0
  9
$AUPREC
 70
     0
  9
$MENU
  1
acad
  9
$ELEVATION
 40
0.0
  9
$PELEVATION
 40
0.0
  9
$THICKNESS
 40
0.0
  9
$LIMCHECK
 70
     0
  9
$BLIPMODE
 70
     1
  9
$CHAMFERA
 40
0.0
  9
$CHAMFERB
 40
0.0
  9
$SKPOLY
 70
     0
  9
$TDCREATE
 40
0.000000000
  9
$TDUPDATE
 40
0.000000000
  9
$TDINDWG
 40
0.0
  9
$TDUSRTIMER
 40
0.0
  9
$USRTIMER
 70
     1
  9
$ANGBASE
 50
0.0
  9
$ANGDIR
 70
     0
  9
$PDMODE
 70
     0
  9
$PDSIZE
 40
0.0
  9
$PLINEWID
 40
0.0
  9
$COORDS
 70
     1
  9
$SPLFRAME
 70
     0
  9
$SPLINETYPE
 70
     6
  9
$SPLINESEGS
 70
     8
  9
$ATTDIA
 70
     0
  9
$ATTREQ
 70
     1
  9
$HANDLING
 70
     1
  9
$HANDSEED
  5
   6BB
  9
$SURFTAB1
 70
     6
  9
$SURFTAB2
 70
     6
  9
$SURFTYPE
 70
     6
  9
$SURFU
 70
     6
  9
$SURFV
 70
     6
  9
$UCSNAME
  2

  9
$UCSORG
 10
0.0
 20
0.0
 30
0.0
  9
$UCSXDIR
 10
1.0
 20
0.0
 30
0.0
  9
$UCSYDIR
 10
0.0
 20
1.0
 30
0.0
  9
$PUCSNAME
  2

  9
$PUCSORG
 10
0.0
 20
0.0
 30
0.0
  9
$PUCSXDIR
 10
1.0
 20
0.0
 30
0.0
  9
$PUCSYDIR
 10
0.0
 20
1.0
 30
0.0
  9
$USERI1
 70
     0
  9
$USERI2
 70
     0
  9
$USERI3
 70
     0
  9
$USERI4
 70
     0
  9
$USERI5
 70
     0
  9
$USERR1
 40
0.0
  9
$USERR2
 40
0.0
  9
$USERR3
 40
0.0
  9
$USERR4
 40
0.0
  9
$USERR5
 40
0.0
  9
$WORLDVIEW
 70
     1
  9
$SHADEDGE
 70
     3
  9
$SHADEDIF
 70
    70
  9
$TILEMODE
 70
     1
  9
$MAXACTVP
 70
    16
  9
$PINSBASE
 10
0.0
 20
0.0
 30
0.0
  9
$PLIMCHECK
 70
     0
  9
$PEXTMIN
 10
1.0E20
 20
1.0E20
 30
1.0E20
  9
$PEXTMAX
 10
-1.0E20
 20
-1.0E20
 30
-1.0E20
  9
$PLIMMIN
 10
0.0
 20
0.0
  9
$PLIMMAX
 10
12.0
 20
9.0
  9
$UNITMODE
 70
     0
  9
$VISRETAIN
 70
     0
  0
ENDSEC
  0
SECTION
  2
TABLES
  0
TABLE
  2
VPORT
 70
     1
  0
VPORT
  2
*ACTIVE
 70
     0
 10
0.0
 20
0.0
 11
1.0
 21
1.0
 12
6.801242
 22
4.5
 13
0.0
 23
0.0
 14
1.0
 24
1.0
 15
0.0
 25
0.0
 16
0.0
 26
0.0
 36
1.0
 17
0.0
 27
0.0
 37
0.0
 40
9.0
 41
1.511387
 42
50.0
 43
0.0
 44
0.0
 50
0.0
 51
0.0
 71
     0
 72
   100
 73
     1
 74
     1
 75
     0
 76
     0
 77
     0
 78
     0
  0
ENDTAB
  0
TABLE
  2
LTYPE
 70
    41
  0
LTYPE
  2
BYBLOCK
 70
     0
  3

 72
    65
 73
     0
 40
0.0
  0
LTYPE
  2
BYLAYER
 70
     0
  3

 72
    65
 73
     0
 40
0.0
  0
LTYPE
  2
CONTINUOUS
 70
     0
  3
Solid line
 72
    65
 73
     0
 40
0.0
  0
LTYPE
  2
BORDER
 70
    64
  3
__ __ . __ __ . __ __ . __ __ . __ __ . __ __ .
 72
    65
 73
     6
 40
1.75
 49
0.5
 49
-0.25
 49
0.5
 49
-0.25
 49
0.0
 49
-0.25
  0
LTYPE
  2
BORDER2
 70
    64
  3
__.__.__.__.__.__.__.__.__.__.__.__.__.__.__.__
 72
    65
 73
     6
 40
0.875
 49
0.25
 49
-0.125
 49
0.25
 49
-0.125
 49
0.0
 49
-0.125
  0
LTYPE
  2
BORDERX2
 70
    64
  3
____  ____  .  ____  ____  .  ____  ____  .  __
 72
    65
 73
     6
 40
3.5
 49
1.0
 49
-0.5
 49
1.0
 49
-0.5
 49
0.0
 49
-0.5
  0
LTYPE
  2
CENTER
 70
    64
  3
____ _ ____ _ ____ _ ____ _ ____ _ ____ _ ____
 72
    65
 73
     4
 40
2.0
 49
1.25
 49
-0.25
 49
0.25
 49
-0.25
  0
LTYPE
  2
CENTER2
 70
    64
  3
___ _ ___ _ ___ _ ___ _ ___ _ ___ _ ___ _ ___ _
 72
    65
 73
     4
 40
1.125
 49
0.75
 49
-0.125
 49
0.125
 49
-0.125
  0
LTYPE
  2
CENTERX2
 70
    64
  3
________  __  ________  __  ________  __  _____
 72
    65
 73
     4
 40
4.0
 49
2.5
 49
-0.5
 49
0.5
 49
-0.5
  0
LTYPE
  2
DASHDOT
 70
    64
  3
__ . __ . __ . __ . __ . __ . __ . __ . __ . __
 72
    65
 73
     4
 40
1.0
 49
0.5
 49
-0.25
 49
0.0
 49
-0.25
  0
LTYPE
  2
DASHDOT2
 70
    64
  3
_._._._._._._._._._._._._._._._._._._._._._._._
 72
    65
 73
     4
 40
0.5
 49
0.25
 49
-0.125
 49
0.0
 49
-0.125
  0
LTYPE
  2
DASHDOTX2
 70
    64
  3
____  .  ____  .  ____  .  ____  .  ____  .  __
 72
    65
 73
     4
 40
2.0
 49
1.0
 49
-0.5
 49
0.0
 49
-0.5
  0
LTYPE
  2
DASHED
 70
    64
  3
__ __ __ __ __ __ __ __ __ __ __ __ __ __ __ __
 72
    65
 73
     2
 40
0.75
 49
0.5
 49
-0.25
  0
LTYPE
  2
DASHED2
 70
    64
  3
_ _ _ _ _ _ _ _ _ _ _ _ _ _ _ _ _ _ _ _ _ _ _ _
 72
    65
 73
     2
 40
0.375
 49
0.25
 49
-0.125
  0
LTYPE
  2
DASHEDX2
 70
    64
  3
____  ____  ____  ____  ____  ____  ____  ____
 72
    65
 73
     2
 40
1.5
 49
1.0
 49
-0.5
  0
LTYPE
  2
DIVIDE
 70
    64
  3
____ . . ____ . . ____ . . ____ . . ____ . . __
 72
    65
 73
     6
 40
1.25
 49
0.5
 49
-0.25
 49
0.0
 49
-0.25
 49
0.0
 49
-0.25
  0
LTYPE
  2
DIVIDE2
 70
    64
  3
__..__..__..__..__..__..__..__..__..__..__..__.
 72
    65
 73
     6
 40
0.625
 49
0.25
 49
-0.125
 49
0.0
 49
-0.125
 49
0.0
 49
-0.125
  0
LTYPE
  2
DIVIDEX2
 70
    64
  3
________  .  .  ________  .  .  ________  .  .
 72
    65
 73
     6
 40
2.5
 49
1.0
 49
-0.5
 49
0.0
 49
-0.5
 49
0.0
 49
-0.5
  0
LTYPE
  2
DOT
 70
    64
  3
. . . . . . . . . . . . . . . . . . . . . . . .
 72
    65
 73
     2
 40
0.25
 49
0.0
 49
-0.25
  0
LTYPE
  2
DOT2
 70
    64
  3
...............................................
 72
    65
 73
     2
 40
0.125
 49
0.0
 49
-0.125
  0
LTYPE
  2
DOTX2
 70
    64
  3
.  .  .  .  .  .  .  .  .  .  .  .  .  .  .  .
 72
    65
 73
     2
 40
0.5
 49
0.0
 49
-0.5
  0
LTYPE
  2
HIDDEN
 70
    64
  3
__ __ __ __ __ __ __ __ __ __ __ __ __ __ __ __
 72
    65
 73
     2
 40
0.375
 49
0.25
 49
-0.125
  0
LTYPE
  2
HIDDEN2
 70
    64
  3
_ _ _ _ _ _ _ _ _ _ _ _ _ _ _ _ _ _ _ _ _ _ _ _
 72
    65
 73
     2
 40
0.1875
 49
0.125
 49
-0.0625
  0
LTYPE
  2
HIDDENX2
 70
    64
  3
____ ____ ____ ____ ____ ____ ____ ____ ____ __
 72
    65
 73
     2
 40
0.75
 49
0.5
 49
-0.25
  0
LTYPE
  2
PHANTOM
 70
    64
  3
______  __  __  ______  __  __  ______  __  __
 72
    65
 73
     6
 40
2.5
 49
1.25
 49
-0.25
 49
0.25
 49
-0.25
 49
0.25
 49
-0.25
  0
LTYPE
  2
PHANTOM2
 70
    64
  3
___ _ _ ___ _ _ ___ _ _ ___ _ _ ___ _ _ ___ _ _
 72
    65
 73
     6
 40
1.25
 49
0.625
 49
-0.125
 49
0.125
 49
-0.125
 49
0.125
 49
-0.125
  0
LTYPE
  2
PHANTOMX2
 70
    64
  3
____________    ____    ____    ____________
 72
    65
 73
     6
 40
5.0
 49
2.5
 49
-0.5
 49
0.5
 49
-0.5
 49
0.5
 49
-0.5
  0
LTYPE
  2
ACAD_ISO02W100
 70
    64
  3
__ __ __ __ __ __ __ __ __ __ __ __ __ __ __ __
 72
    65
 73
     2
 40
15.0
 49
12.0
 49
-3.0
  0
LTYPE
  2
ACAD_ISO03W100
 70
    64
  3
__    __    __    __    __    __    __    __
 72
    65
 73
     2
 40
30.0
 49
12.0
 49
-18.0
  0
LTYPE
  2
ACAD_ISO04W100
 70
    64
  3
____ . ____ . ____ . ____ . ____ . ____ . ____
 72
    65
 73
     4
 40
30.5
 49
24.0
 49
-3.0
 49
0.5
 49
-3.0
  0
LTYPE
  2
ACAD_ISO05W100
 70
    64
  3
____ .. ____ .. ____ .. ____ .. ____ .. ____ ..
 72
    65
 73
     6
 40
34.0
 49
24.0
 49
-3.0
 49
0.5
 49
-3.0
 49
0.5
 49
-3.0
  0
LTYPE
  2
ACAD_ISO06W100
 70
    64
  3
____ ... ____ ... ____ ... ____ ... ____ ... __
 72
    65
 73
     8
 40
37.5
 49
24.0
 49
-3.0
 49
0.5
 49
-3.0
 49
0.5
 49
-3.0
 49
0.5
 49
-3.0
  0
LTYPE
  2
ACAD_ISO07W100
 70
    64
  3
. . . . . . . . . . . . . . . . . . . . . . . .
 72
    65
 73
     2
 40
3.5
 49
0.5
 49
-3.0
  0
LTYPE
  2
ACAD_ISO08W100
 70
    64
  3
____ __ ____ __ ____ __ ____ ____ __ __ ____ __
 72
    65
 73
     4
 40
36.0
 49
24.0
 49
-3.0
 49
6.0
 49
-3.0
  0
LTYPE
  2
ACAD_ISO09W100
 70
    64
  3
____ __ __ ____ __ __ ____ __ __ ____ __ __ ___
 72
    65
 73
     6
 40
45.0
 49
24.0
 49
-3.0
 49
6.0
 49
-3.0
 49
6.0
 49
-3.0
  0
LTYPE
  2
ACAD_ISO10W100
 70
    64
  3
__ . __ . __ . __ . __ . __ . __ . __ . __ . __
 72
    65
 73
     4
 40
18.5
 49
12.0
 49
-3.0
 49
0.5
 49
-3.0
  0
LTYPE
  2
ACAD_ISO11W100
 70
    64
  3
__ __ . __ __ . __ __ . __ __ . __ __ . __ __ .
 72
    65
 73
     6
 40
33.5
 49
12.0
 49
-3.0
 49
12.0
 49
-3.0
 49
0.5
 49
-3.0
  0
LTYPE
  2
ACAD_ISO12W100
 70
    64
  3
__ . . __ . . __ . . __ . . __ . . __ . . __ .
 72
    65
 73
     6
 40
22.0
 49
12.0
 49
-3.0
 49
0.5
 49
-3.0
 49
0.5
 49
-3.0
  0
LTYPE
  2
ACAD_ISO13W100
 70
    64
  3
__ __ . . __ __ . . __ __ . . __ __ . . __ __ .
 72
    65
 73
     8
 40
37.0
 49
12.0
 49
-3.0
 49
12.0
 49
-3.0
 49
0.5
 49
-3.0
 49
0.5
 49
-3.0
  0
LTYPE
  2
ACAD_ISO14W100
 70
    64
  3
__ . . . __ . . . __ . . . __ . . . __ . . . __
 72
    65
 73
     8
 40
25.5
 49
12.0
 49
-3.0
 49
0.5
 49
-3.0
 49
0.5
 49
-3.0
 49
0.5
 49
-3.0
  0
LTYPE
  2
ACAD_ISO15W100
 70
    64
  3
__ __ . . . __ __ . . . __ __ . . . __ __ . . .
 72
    65
 73
    10
 40
40.5
 49
12.0
 49
-3.0
 49
12.0
 49
-3.0
 49
0.5
 49
-3.0
 49
0.5
 49
-3.0
 49
0.5
 49
-3.0
  0
ENDTAB
  0
TABLE
  2
STYLE
 70
     4
  0
STYLE
  2
STANDARD
 70
    64
 40
0.0
 41
1.0
 50
0.0
 71
     0
 42
0.2
  3
txt
  4

  0
STYLE
  2
TOLERANCE
 70
    64
 40
0.0
 41
1.0
 50
0.0
 71
     0
 42
0.2
  3
../igesfont/iges1003.shx
  4

  0
STYLE
  2
ROMANS
 70
    64
 40
0.0
 41
1.0
 50
0.0
 71
     0
 42
0.2
  3
romans.shx
  4

  0
STYLE
  2
ROMANC
 70
    64
 40
0.0
 41
1.0
 50
0.0
 71
     0
 42
0.2
  3
romanc.shx
  4

  0
ENDTAB
  0
TABLE
  2
DIMSTYLE
 70
     2
  0
DIMSTYLE
  2
UNNAMED
 70
     0
  3

  4

  5

  6

  7

 40
1.0
 41
0.18
 42
0.0625
 43
0.38
 44
0.18
 45
0.0
 46
0.0
 47
0.0
 48
0.0
140
0.18
141
0.09
142
0.0
143
25.4
144
1.0
145
0.0
146
1.0
147
0.09
 71
     0
 72
     0
 73
     1
 74
     1
 75
     0
 76
     0
 77
     0
 78
     0
170
     0
171
     2
172
     0
173
     0
174
     0
175
     0
176
     0
177
     0
178
     0
  0
DIMSTYLE
  2
STANDARD
 70
     0
  3

  4

  5

  6

  7

 40
1.0
 41
0.18
 42
0.0625
 43
0.38
 44
0.18
 45
0.0
 46
0.0
 47
0.0
 48
0.0
140
0.18
141
0.09
142
0.0
143
25.4
144
1.0
145
0.0
146
1.0
147
0.09
 71
     0
 72
     0
 73
     1
 74
     1
 75
     0
 76
     0
 77
     0
 78
     0
170
     0
171
     2
172
     0
173
     0
174
     0
175
     0
176
     0
177
     0
178
     0
  0
ENDTAB
  0
TABLE
  2
LAYER
 70
     2
  0
LAYER
  2
0
 70
     0
 62
     7
  6
CONTINUOUS
  0
LAYER
  2
255
 70
     0
 62
     7
  6
CONTINUOUS
  0
ENDTAB
  0
ENDSEC
  0
SECTION
  2
BLOCKS
  0
BLOCK
  5
     B
  8
0
  6
CONTINUOUS
 62
     7
  2
*UDIM497
 70
    65
 10
0.0
 20
0.0
 30
0.0
  3
*UDIM497
  0
TEXT
  5
     C
  8
0
  6
CONTINUOUS
 62
     7
 10
-550.476443210457
 20
-98.2833293330934
 30
0.0
 40
3.00000002980232
  1
214
 50
449.999999896069
 41
0.933333333333333
 72
     1
 11
-551.976443218308
 21
-94.3833292916389
 31
0.0
 73
     2
  0
LINE
  5
     D
  8
0
  6
CONTINUOUS
 62
     7
 10
-537.045386306927
 20
-67.3583288076688
 30
0.0
 11
-551.476443203406
 21
-67.358314877652
 31
0.0
  0
LINE
  5
     E
  8
0
  6
CONTINUOUS
 62
     7
 10
-540.169605890812
 20
-120.858328565235
 30
0.0
 11
-551.476443203405
 21
-120.858314909812
 31
0.0
  0
LINE
  5
     F
  8
0
  6
CONTINUOUS
 62
     7
 10
-549.476443203407
 20
-67.3583168082128
 30
0.0
 11
-549.476443203407
 21
-120.85831732524
 31
0.0
  0
LINE
  5
    10
  8
0
  6
CONTINUOUS
 62
     7
 10
-548.955498773455
 20
-70.3127400854198
 30
0.0
 11
-549.476443203407
 21
-67.3583168082128
 31
0.0
  0
LINE
  5
    11
  8
0
  6
CONTINUOUS
 62
     7
 10
-549.476443203407
 20
-67.3583168082128
 30
0.0
 11
-549.997387633358
 21
-70.3127400854198
 31
0.0
  0
LINE
  5
    12
  8
0
  6
CONTINUOUS
 62
     7
 10
-549.997387633358
 20
-117.903894048033
 30
0.0
 11
-549.476443203407
 21
-120.85831732524
 31
0.0
  0
LINE
  5
    13
  8
0
  6
CONTINUOUS
 62
     7
 10
-549.476443203407
 20
-120.85831732524
 30
0.0
 11
-548.955498773455
 21
-117.903894048033
 31
0.0
  0
ENDBLK
  5
    14
  8
0
  6
CONTINUOUS
 62
     7
  0
BLOCK
  5
    15
  8
0
  6
CONTINUOUS
 62
     7
  2
*UDIM498
 70
    65
 10
0.0
 20
0.0
 30
0.0
  3
*UDIM498
  0
TEXT
  5
    16
  8
0
  6
CONTINUOUS
 62
     7
 10
-543.087257353672
 20
-88.8895798620874
 30
0.0
 40
3.00000002980232
  1
105,25
 50
449.999999896069
 41
0.933333333333333
 72
     1
 11
-544.587257353931
 21
-80.7895797789097
 31
0.0
 73
     2
  0
LINE
  5
    17
  8
0
  6
CONTINUOUS
 62
     7
 10
-537.045386306928
 20
-67.3583297729492
 30
0.0
 11
-544.08725733903
 21
-67.3583297729492
 31
0.0
  0
LINE
  5
    18
  8
0
  6
CONTINUOUS
 62
     7
 10
-542.08725733903
 20
-67.3583297729492
 30
0.0
 11
-542.08725733903
 21
-93.6708297729492
 31
0.0
  0
LINE
  5
    19
  8
0
  6
CONTINUOUS
 62
     7
 10
-541.566312909078
 20
-70.3127530501562
 30
0.0
 11
-542.08725733903
 21
-67.3583297729492
 31
0.0
  0
LINE
  5
    1A
  8
0
  6
CONTINUOUS
 62
     7
 10
-542.08725733903
 20
-67.3583297729492
 30
0.0
 11
-542.608201768982
 21
-70.3127530501562
 31
0.0
  0
LINE
  5
    1B
  8
0
  6
CONTINUOUS
 62
     7
 10
-542.608201768982
 20
-90.7164064957423
 30
0.0
 11
-542.08725733903
 21
-93.6708297729492
 31
0.0
  0
LINE
  5
    1C
  8
0
  6
CONTINUOUS
 62
     7
 10
-542.08725733903
 20
-93.6708297729492
 30
0.0
 11
-541.566312909078
 21
-90.7164064957423
 31
0.0
  0
ENDBLK
  5
    1D
  8
0
  6
CONTINUOUS
 62
     7
  0
BLOCK
  5
    1E
  8
0
  6
CONTINUOUS
 62
     7
  2
*UDIM499
 70
    65
 10
0.0
 20
0.0
 30
0.0
  3
*UDIM499
  0
TEXT
  5
    1F
  8
0
  6
CONTINUOUS
 62
     7
 10
-544.087257341019
 20
-119.377139811446
 30
0.0
 40
3.00000002980232
  1
8
 50
449.999999896069
 41
0.933333333333334
 72
     1
 11
-545.587257353931
 21
-118.277139797807
 31
0.0
 73
     2
  0
LINE
  5
    20
  8
0
  6
CONTINUOUS
 62
     7
 10
-531.790100097656
 20
-117.358329772949
 30
0.0
 11
-544.08725733903
 21
-117.358329772949
 31
0.0
  0
LINE
  5
    21
  8
0
  6
CONTINUOUS
 62
     7
 10
-528.325998482519
 20
-119.358329772949
 30
0.0
 11
-544.08725733903
 21
-119.358329772949
 31
0.0
  0
LINE
  5
    22
  8
0
  6
CONTINUOUS
 62
     7
 10
-542.08725733903
 20
-112.358329772949
 30
0.0
 11
-542.08725733903
 21
-124.358329772949
 31
0.0
  0
LINE
  5
    23
  8
0
  6
CONTINUOUS
 62
     7
 10
-542.863714495449
 20
-114.460552299739
 30
0.0
 11
-542.08725733903
 21
-117.358329772949
 31
0.0
  0
LINE
  5
    24
  8
0
  6
CONTINUOUS
 62
     7
 10
-542.08725733903
 20
-117.358329772949
 30
0.0
 11
-541.310800182612
 21
-114.460552299739
 31
0.0
  0
LINE
  5
    25
  8
0
  6
CONTINUOUS
 62
     7
 10
-541.310800182612
 20
-122.25610724616
 30
0.0
 11
-542.08725733903
 21
-119.358329772949
 31
0.0
  0
LINE
  5
    26
  8
0
  6
CONTINUOUS
 62
     7
 10
-542.08725733903
 20
-119.358329772949
 30
0.0
 11
-542.863714495449
 21
-122.25610724616
 31
0.0
  0
ENDBLK
  5
    27
  8
0
  6
CONTINUOUS
 62
     7
  0
BLOCK
  5
    28
  8
0
  6
CONTINUOUS
 62
     7
  2
*UDIM500
 70
    65
 10
0.0
 20
0.0
 30
0.0
  3
*UDIM500
  0
TEXT
  5
    29
  8
0
  6
CONTINUOUS
 62
     7
 10
-544.971921561471
 20
-60.4808462662996
 30
0.0
 40
3.00000002980232
  1
32
 50
339.474031981741
 41
0.933333333333333
 72
     1
 11
-542.10469030314
 21
-59.9526558838309
 31
0.0
 73
     2
  0
TEXT
  5
    2A
  8
0
  6
CONTINUOUS
 62
     7
 10
-547.547333361763
 20
-59.5166086168152
 30
0.0
 40
3.00000002980232
  1
Ø
 50
339.474031981741
 41
0.933333333333334
 72
     1
 11
-545.991220833708
 21
-58.4975336103637
 31
0.0
 73
     2
  0
LINE
  5
    2B
  8
0
  6
CONTINUOUS
 62
     7
 10
-527.04404661726
 20
-68.2608572493326
 30
0.0
 11
-547.897965229015
 21
-60.4531219897296
 31
0.0
  0
LINE
  5
    2C
  8
0
  6
CONTINUOUS
 62
     7
 10
-529.993563236465
 20
-67.7128137172737
 30
0.0
 11
-527.04404661726
 21
-68.2608572493326
 31
0.0
  0
LINE
  5
    2D
  8
0
  6
CONTINUOUS
 62
     7
 10
-527.04404661726
 20
-68.2608572493326
 30
0.0
 11
-529.628243798127
 21
-66.7370708698169
 31
0.0
  0
LINE
  5
    2E
  8
0
  6
CONTINUOUS
 62
     7
 10
-531.586636958847
 20
-66.0038458286248
 30
0.0
 11
-534.536153578053
 21
-65.4558022965659
 31
0.0
  0
LINE
  5
    2F
  8
0
  6
CONTINUOUS
 62
     7
 10
-534.536153578053
 20
-65.4558022965659
 30
0.0
 11
-531.951956397186
 21
-66.9795886760816
 31
0.0
  0
ENDBLK
  5
    30
  8
0
  6
CONTINUOUS
 62
     7
  0
BLOCK
  5
    31
  8
0
  6
CONTINUOUS
 62
     7
  2
*UDIM501
 70
    65
 10
0.0
 20
0.0
 30
0.0
  3
*UDIM501
  0
TEXT
  5
    32
  8
0
  6
CONTINUOUS
 62
     7
 10
-492.877735144989
 20
-98.2833298203642
 30
0.0
 40
3.00000002980232
  1
218
 50
449.999999896069
 41
0.933333333333333
 72
     1
 11
-494.377735152841
 21
-94.3833297789097
 31
0.0
 73
     2
  0
LINE
  5
    33
  8
0
  6
CONTINUOUS
 62
     7
 10
-498.2893259935
 20
-66.8583297729492
 30
0.0
 11
-489.877735137939
 21
-66.8583297729492
 31
0.0
  0
LINE
  5
    34
  8
0
  6
CONTINUOUS
 62
     7
 10
-495.138504500495
 20
-121.358329772949
 30
0.0
 11
-489.877735137939
 21
-121.358329772949
 31
0.0
  0
LINE
  5
    35
  8
0
  6
CONTINUOUS
 62
     7
 10
-491.87773513794
 20
-66.8583297729492
 30
0.0
 11
-491.87773513794
 21
-121.358329772949
 31
0.0
  0
LINE
  5
    36
  8
0
  6
CONTINUOUS
 62
     7
 10
-491.356790707988
 20
-69.8127530501562
 30
0.0
 11
-491.87773513794
 21
-66.8583297729492
 31
0.0
  0
LINE
  5
    37
  8
0
  6
CONTINUOUS
 62
     7
 10
-491.87773513794
 20
-66.8583297729492
 30
0.0
 11
-492.398679567891
 21
-69.8127530501562
 31
0.0
  0
LINE
  5
    38
  8
0
  6
CONTINUOUS
 62
     7
 10
-492.398679567891
 20
-118.403906495742
 30
0.0
 11
-491.87773513794
 21
-121.358329772949
 31
0.0
  0
LINE
  5
    39
  8
0
  6
CONTINUOUS
 62
     7
 10
-491.87773513794
 20
-121.358329772949
 30
0.0
 11
-491.356790707988
 21
-118.403906495742
 31
0.0
  0
ENDBLK
  5
    3A
  8
0
  6
CONTINUOUS
 62
     7
  0
BLOCK
  5
    3B
  8
0
  6
CONTINUOUS
 62
     7
  2
*UDIM502
 70
    65
 10
0.0
 20
0.0
 30
0.0
  3
*UDIM502
  0
TEXT
  5
    3C
  8
0
  6
CONTINUOUS
 62
     7
 10
-498.713914885858
 20
-88.6395798620874
 30
0.0
 40
3.00000002980232
  1
107,25
 50
449.999999896069
 41
0.933333333333333
 72
     1
 11
-500.213914886117
 21
-80.5395797789097
 31
0.0
 73
     2
  0
LINE
  5
    3D
  8
0
  6
CONTINUOUS
 62
     7
 10
-498.2893259935
 20
-66.8583297729492
 30
0.0
 11
-495.713914871216
 21
-66.8583297729492
 31
0.0
  0
LINE
  5
    3E
  8
0
  6
CONTINUOUS
 62
     7
 10
-497.713914871216
 20
-66.8583297729492
 30
0.0
 11
-497.713914871216
 21
-93.6708297729492
 31
0.0
  0
LINE
  5
    3F
  8
0
  6
CONTINUOUS
 62
     7
 10
-497.192970441264
 20
-69.8127530501562
 30
0.0
 11
-497.713914871216
 21
-66.8583297729492
 31
0.0
  0
LINE
  5
    40
  8
0
  6
CONTINUOUS
 62
     7
 10
-497.713914871216
 20
-66.8583297729492
 30
0.0
 11
-498.234859301168
 21
-69.8127530501562
 31
0.0
  0
LINE
  5
    41
  8
0
  6
CONTINUOUS
 62
     7
 10
-498.234859301168
 20
-90.7164064957423
 30
0.0
 11
-497.713914871216
 21
-93.6708297729492
 31
0.0
  0
LINE
  5
    42
  8
0
  6
CONTINUOUS
 62
     7
 10
-497.713914871216
 20
-93.6708297729492
 30
0.0
 11
-497.192970441264
 21
-90.7164064957423
 31
0.0
  0
ENDBLK
  5
    43
  8
0
  6
CONTINUOUS
 62
     7
  0
BLOCK
  5
    44
  8
0
  6
CONTINUOUS
 62
     7
  2
*UDIM503
 70
    65
 10
0.0
 20
0.0
 30
0.0
  3
*UDIM503
  0
TEXT
  5
    45
  8
0
  6
CONTINUOUS
 62
     7
 10
-564.692583307361
 20
-134.237998258536
 30
0.0
 40
3.00000002980232
  1
5,5
 50
380.147500139551
 41
0.933333333333333
 72
     1
 11
-561.547885258896
 21
-131.486476037859
 31
0.0
 73
     2
  0
TEXT
  5
    46
  8
0
  6
CONTINUOUS
 62
     7
 10
-567.649831738247
 20
-135.322978341581
 30
0.0
 40
3.00000002980232
  1
Ø
 50
380.147500139551
 41
0.933333333333334
 72
     1
 11
-567.133798982799
 21
-133.535882858947
 31
0.0
 73
     2
  0
TEXT
  5
    47
  8
0
  6
CONTINUOUS
 62
     7
 10
-556.853527880854
 20
-131.361939929285
 30
0.0
 40
3.00000002980232
  1
 - M5
 50
380.147500139551
 41
0.933333333333333
 72
     1
 11
-551.080164539371
 21
-127.645990970565
 31
0.0
 73
     2
  0
LINE
  5
    48
  8
0
  6
CONTINUOUS
 62
     7
 10
-524.675918894157
 20
-120.621528566133
 30
0.0
 11
-567.305393616009
 21
-136.261787365785
 31
0.0
  0
LINE
  5
    49
  8
0
  6
CONTINUOUS
 62
     7
 10
-522.081712782512
 20
-119.114845238322
 30
0.0
 11
-524.675918894157
 21
-120.621528566133
 31
0.0
  0
LINE
  5
    4A
  8
0
  6
CONTINUOUS
 62
     7
 10
-524.675918894157
 20
-120.621528566133
 30
0.0
 11
-521.722846543393
 21
-120.092979901245
 31
0.0
  0
LINE
  5
    4B
  8
0
  6
CONTINUOUS
 62
     7
 10
-528.560987412801
 20
-122.601814307576
 30
0.0
 11
-525.966781301155
 21
-121.095130979766
 31
0.0
  0
LINE
  5
    4C
  8
0
  6
CONTINUOUS
 62
     7
 10
-525.966781301155
 20
-121.095130979766
 30
0.0
 11
-528.919853651919
 21
-121.623679644653
 31
0.0
  0
ENDBLK
  5
    4D
  8
0
  6
CONTINUOUS
 62
     7
  0
BLOCK
  5
    4E
  8
0
  6
CONTINUOUS
 62
     7
  2
*UDIM504
 70
    65
 10
0.0
 20
0.0
 30
0.0
  3
*UDIM504
  0
TEXT
  5
    4F
  8
0
  6
CONTINUOUS
 62
     7
 10
-516.2116973616
 20
-54.2575187561908
 30
0.0
 40
3.00000002980232
  1
43,75
 50
359.999999896069
 41
0.933333333333333
 72
     1
 11
-509.511697292328
 21
-52.7575187534094
 31
0.0
 73
     2
  0
LINE
  5
    50
  8
0
  6
CONTINUOUS
 62
     7
 10
-508.915100097656
 20
-61.2333297729492
 30
0.0
 11
-508.915100097656
 21
-53.2575187683106
 31
0.0
  0
LINE
  5
    51
  8
0
  6
CONTINUOUS
 62
     7
 10
-519.852600097656
 20
-59.5745861380495
 30
0.0
 11
-519.852600097656
 21
-53.2575187683106
 31
0.0
  0
LINE
  5
    52
  8
0
  6
CONTINUOUS
 62
     7
 10
-502.811697225769
 20
-55.2575187683106
 30
0.0
 11
-519.852600097656
 21
-55.2575187683106
 31
0.0
  0
LINE
  5
    53
  8
0
  6
CONTINUOUS
 62
     7
 10
-511.869523374863
 20
-55.7784631982622
 30
0.0
 11
-508.915100097656
 21
-55.2575187683106
 31
0.0
  0
LINE
  5
    54
  8
0
  6
CONTINUOUS
 62
     7
 10
-508.915100097656
 20
-55.2575187683106
 30
0.0
 11
-511.869523374863
 21
-54.7365743383589
 31
0.0
  0
LINE
  5
    55
  8
0
  6
CONTINUOUS
 62
     7
 10
-516.898176820449
 20
-54.7365743383589
 30
0.0
 11
-519.852600097656
 21
-55.2575187683106
 31
0.0
  0
LINE
  5
    56
  8
0
  6
CONTINUOUS
 62
     7
 10
-519.852600097656
 20
-55.2575187683106
 30
0.0
 11
-516.898176820449
 21
-55.7784631982622
 31
0.0
  0
ENDBLK
  5
    57
  8
0
  6
CONTINUOUS
 62
     7
  0
BLOCK
  5
    58
  8
0
  6
CONTINUOUS
 62
     7
  2
*UDIM505
 70
    65
 10
0.0
 20
0.0
 30
0.0
  3
*UDIM505
  0
TEXT
  5
    59
  8
0
  6
CONTINUOUS
 62
     7
 10
-536.341769955289
 20
-54.2575187561908
 30
0.0
 40
3.00000002980232
  1
43,75
 50
359.999999896069
 41
0.933333333333333
 72
     1
 11
-529.641769886017
 21
-52.7575187534094
 31
0.0
 73
     2
  0
LINE
  5
    5A
  8
0
  6
CONTINUOUS
 62
     7
 10
-530.790100097656
 20
-61.2333297729492
 30
0.0
 11
-530.790100097656
 21
-53.2575187683106
 31
0.0
  0
LINE
  5
    5B
  8
0
  6
CONTINUOUS
 62
     7
 10
-519.852600097656
 20
-55.2575187683106
 30
0.0
 11
-536.341769952575
 21
-55.2575187683106
 31
0.0
  0
LINE
  5
    5C
  8
0
  6
CONTINUOUS
 62
     7
 10
-522.807023374863
 20
-55.7784631982622
 30
0.0
 11
-519.852600097656
 21
-55.2575187683106
 31
0.0
  0
LINE
  5
    5D
  8
0
  6
CONTINUOUS
 62
     7
 10
-519.852600097656
 20
-55.2575187683106
 30
0.0
 11
-522.807023374863
 21
-54.7365743383589
 31
0.0
  0
LINE
  5
    5E
  8
0
  6
CONTINUOUS
 62
     7
 10
-527.835676820449
 20
-54.7365743383589
 30
0.0
 11
-530.790100097656
 21
-55.2575187683106
 31
0.0
  0
LINE
  5
    5F
  8
0
  6
CONTINUOUS
 62
     7
 10
-530.790100097656
 20
-55.2575187683106
 30
0.0
 11
-527.835676820449
 21
-55.7784631982622
 31
0.0
  0
ENDBLK
  5
    60
  8
0
  6
CONTINUOUS
 62
     7
  0
BLOCK
  5
    61
  8
0
  6
CONTINUOUS
 62
     7
  2
*UDIM506
 70
    65
 10
0.0
 20
0.0
 30
0.0
  3
*UDIM506
  0
TEXT
  5
    62
  8
0
  6
CONTINUOUS
 62
     7
 10
-519.834821484219
 20
-103.847555148403
 30
0.0
 40
3.00000002980232
  1
43,75
 50
359.999999896069
 41
0.933333333333333
 72
     1
 11
-513.134821414948
 21
-102.347555145621
 31
0.0
 73
     2
  0
LINE
  5
    63
  8
0
  6
CONTINUOUS
 62
     7
 10
-506.434821348389
 20
-104.847555160522
 30
0.0
 11
-525.321350097656
 21
-104.847555160522
 31
0.0
  0
LINE
  5
    64
  8
0
  6
CONTINUOUS
 62
     7
 10
-511.429426820449
 20
-104.326610730571
 30
0.0
 11
-514.383850097656
 21
-104.847555160522
 31
0.0
  0
LINE
  5
    65
  8
0
  6
CONTINUOUS
 62
     7
 10
-514.383850097656
 20
-104.847555160522
 30
0.0
 11
-511.429426820449
 21
-105.368499590474
 31
0.0
  0
LINE
  5
    66
  8
0
  6
CONTINUOUS
 62
     7
 10
-528.275773374863
 20
-105.368499590474
 30
0.0
 11
-525.321350097656
 21
-104.847555160522
 31
0.0
  0
LINE
  5
    67
  8
0
  6
CONTINUOUS
 62
     7
 10
-525.321350097656
 20
-104.847555160522
 30
0.0
 11
-528.275773374863
 21
-104.326610730571
 31
0.0
  0
ENDBLK
  5
    68
  8
0
  6
CONTINUOUS
 62
     7
  0
BLOCK
  5
    69
  8
0
  6
CONTINUOUS
 62
     7
  2
*HATCH326
 70
    65
 10
0.0
 20
0.0
 30
0.0
  3
*HATCH326
  0
LINE
  5
    6A
  8
0
  6
CONTINUOUS
 62
   210
 10
222.237121582031
 20
-22.8331680297852
 30
0.0
 11
224.403930664063
 21
-24.9999752044678
 31
0.0
  0
LINE
  5
    6B
  8
0
  6
CONTINUOUS
 62
   210
 10
223.646575927734
 20
-19.9999771118164
 30
0.0
 11
227.237075805664
 21
-23.5904788970947
 31
0.0
  0
ENDBLK
  5
    6C
  8
0
  6
CONTINUOUS
 62
     7
  0
BLOCK
  5
    6D
  8
0
  6
CONTINUOUS
 62
     7
  2
*HATCH327
 70
    65
 10
0.0
 20
0.0
 30
0.0
  3
*HATCH327
  0
LINE
  5
    6E
  8
0
  6
CONTINUOUS
 62
   210
 10
204.102630615234
 20
-24.9999752044678
 30
0.0
 11
201.237121582031
 21
-27.8654766082764
 31
0.0
  0
LINE
  5
    6F
  8
0
  6
CONTINUOUS
 62
   210
 10
205.237121582031
 20
-28.108118057251
 30
0.0
 11
201.237121582031
 21
-32.1081161499023
 31
0.0
  0
LINE
  5
    70
  8
0
  6
CONTINUOUS
 62
   210
 10
205.237121582031
 20
-32.350757598877
 30
0.0
 11
201.237121582031
 21
-36.3507537841797
 31
0.0
  0
LINE
  5
    71
  8
0
  6
CONTINUOUS
 62
   210
 10
205.237121582031
 20
-36.5933952331543
 30
0.0
 11
203.887817382813
 21
-37.9427146911621
 31
0.0
  0
ENDBLK
  5
    72
  8
0
  6
CONTINUOUS
 62
     7
  0
BLOCK
  5
    73
  8
0
  6
CONTINUOUS
 62
     7
  2
*HATCH328
 70
    65
 10
0.0
 20
0.0
 30
0.0
  3
*HATCH328
  0
LINE
  5
    74
  8
0
  6
CONTINUOUS
 62
   210
 10
196.745849609375
 20
-22.797721862793
 30
0.0
 11
198.948104858398
 21
-24.9999752044678
 31
0.0
  0
LINE
  5
    75
  8
0
  6
CONTINUOUS
 62
   210
 10
198.19075012207
 20
-19.9999771118164
 30
0.0
 11
203.190734863281
 21
-24.9999752044678
 31
0.0
  0
LINE
  5
    76
  8
0
  6
CONTINUOUS
 62
   210
 10
202.433395385742
 20
-19.9999771118164
 30
0.0
 11
207.433380126953
 21
-24.9999752044678
 31
0.0
  0
LINE
  5
    77
  8
0
  6
CONTINUOUS
 62
   210
 10
206.676040649414
 20
-19.9999771118164
 30
0.0
 11
211.676025390625
 21
-24.9999752044678
 31
0.0
  0
LINE
  5
    78
  8
0
  6
CONTINUOUS
 62
   210
 10
210.918670654297
 20
-19.9999771118164
 30
0.0
 11
212.237121582031
 21
-21.3184394836426
 31
0.0
  0
ENDBLK
  5
    79
  8
0
  6
CONTINUOUS
 62
     7
  0
BLOCK
  5
    7A
  8
0
  6
CONTINUOUS
 62
     7
  2
*HATCH329
 70
    65
 10
0.0
 20
0.0
 30
0.0
  3
*HATCH329
  0
LINE
  5
    7B
  8
0
  6
CONTINUOUS
 62
   210
 10
198.4345703125
 20
-13.6974716186523
 30
0.0
 11
196.745849609375
 21
-15.3861865997314
 31
0.0
  0
LINE
  5
    7C
  8
0
  6
CONTINUOUS
 62
   210
 10
199.737075805664
 20
-16.6376056671143
 30
0.0
 11
196.745849609375
 21
-19.6288280487061
 31
0.0
  0
ENDBLK
  5
    7D
  8
0
  6
CONTINUOUS
 62
     7
  0
BLOCK
  5
    7E
  8
0
  6
CONTINUOUS
 62
     7
  2
*HATCH330
 70
    65
 10
0.0
 20
0.0
 30
0.0
  3
*HATCH330
  0
LINE
  5
    7F
  8
0
  6
CONTINUOUS
 62
   210
 10
-10.7629241943359
 20
-21.0568885803223
 30
0.0
 11
-6.81984090805054
 21
-24.9999752044678
 31
0.0
  0
LINE
  5
    80
  8
0
  6
CONTINUOUS
 62
   210
 10
-7.57719612121582
 20
-19.9999771118164
 30
0.0
 11
-5.86297512054443
 21
-21.7141990661621
 31
0.0
  0
ENDBLK
  5
    81
  8
0
  6
CONTINUOUS
 62
     7
  0
BLOCK
  5
    82
  8
0
  6
CONTINUOUS
 62
     7
  2
*HATCH331
 70
    65
 10
0.0
 20
0.0
 30
0.0
  3
*HATCH331
  0
LINE
  5
    83
  8
0
  6
CONTINUOUS
 62
   210
 10
4.3370246887207
 20
-21.3076019287109
 30
0.0
 11
8.02939128875732
 21
-24.9999752044678
 31
0.0
  0
LINE
  5
    84
  8
0
  6
CONTINUOUS
 62
   210
 10
7.27203750610352
 20
-19.9999771118164
 30
0.0
 11
12.2720289230347
 21
-24.9999752044678
 31
0.0
  0
LINE
  5
    85
  8
0
  6
CONTINUOUS
 62
   210
 10
11.5146751403809
 20
-19.9999771118164
 30
0.0
 11
16.5146675109863
 21
-24.9999752044678
 31
0.0
  0
LINE
  5
    86
  8
0
  6
CONTINUOUS
 62
   210
 10
15.7573137283325
 20
-19.9999771118164
 30
0.0
 11
19.7282981872559
 21
-23.9709663391113
 31
0.0
  0
ENDBLK
  5
    87
  8
0
  6
CONTINUOUS
 62
     7
  0
BLOCK
  5
    88
  8
0
  6
CONTINUOUS
 62
     7
  2
*HATCH332
 70
    65
 10
0.0
 20
0.0
 30
0.0
  3
*HATCH332
  0
LINE
  5
    89
  8
0
  6
CONTINUOUS
 62
   210
 10
14.9705638885498
 20
-1.99999904632568
 30
0.0
 11
14.237024307251
 21
-2.73353862762451
 31
0.0
  0
LINE
  5
    8A
  8
0
  6
CONTINUOUS
 62
   210
 10
18.237024307251
 20
-2.97617936134338
 30
0.0
 11
14.237024307251
 21
-6.9761791229248
 31
0.0
  0
LINE
  5
    8B
  8
0
  6
CONTINUOUS
 62
   210
 10
18.237024307251
 20
-7.21882009506226
 30
0.0
 11
14.237024307251
 21
-11.2188205718994
 31
0.0
  0
LINE
  5
    8C
  8
0
  6
CONTINUOUS
 62
   210
 10
18.237024307251
 20
-11.4614601135254
 30
0.0
 11
14.237024307251
 21
-15.461462020874
 31
0.0
  0
LINE
  5
    8D
  8
0
  6
CONTINUOUS
 62
   210
 10
18.237024307251
 20
-15.7041015625
 30
0.0
 11
14.237024307251
 21
-19.7041034698486
 31
0.0
  0
LINE
  5
    8E
  8
0
  6
CONTINUOUS
 62
   210
 10
18.237024307251
 20
-19.946741104126
 30
0.0
 11
18.1837902069092
 21
-19.9999771118164
 31
0.0
  0
ENDBLK
  5
    8F
  8
0
  6
CONTINUOUS
 62
     7
  0
BLOCK
  5
    90
  8
0
  6
CONTINUOUS
 62
     7
  2
*HATCH333
 70
    65
 10
0.0
 20
0.0
 30
0.0
  3
*HATCH333
  0
LINE
  5
    91
  8
0
  6
CONTINUOUS
 62
   210
 10
15.237024307251
 20
-25.0680618286133
 30
0.0
 11
11.237024307251
 21
-29.0680618286133
 31
0.0
  0
LINE
  5
    92
  8
0
  6
CONTINUOUS
 62
   210
 10
15.237024307251
 20
-29.3107032775879
 30
0.0
 11
11.237024307251
 21
-33.3107032775879
 31
0.0
  0
LINE
  5
    93
  8
0
  6
CONTINUOUS
 62
   210
 10
15.237024307251
 20
-33.5533447265625
 30
0.0
 11
11.237024307251
 21
-37.5533409118652
 31
0.0
  0
LINE
  5
    94
  8
0
  6
CONTINUOUS
 62
   210
 10
15.237024307251
 20
-37.7959823608398
 30
0.0
 11
11.7791585922241
 21
-41.253849029541
 31
0.0
  0
ENDBLK
  5
    95
  8
0
  6
CONTINUOUS
 62
     7
  0
BLOCK
  5
    96
  8
0
  6
CONTINUOUS
 62
     7
  2
*HATCH334
 70
    65
 10
0.0
 20
0.0
 30
0.0
  3
*HATCH334
  0
LINE
  5
    97
  8
0
  6
CONTINUOUS
 62
    52
 10
187.863540649414
 20
-106.999984741211
 30
0.0
 11
185.863540649414
 21
-108.999984741211
 31
0.0
  0
LINE
  5
    98
  8
0
  6
CONTINUOUS
 62
    52
 10
192.106185913086
 20
-106.999984741211
 30
0.0
 11
190.106185913086
 21
-108.999984741211
 31
0.0
  0
LINE
  5
    99
  8
0
  6
CONTINUOUS
 62
    52
 10
196.348831176758
 20
-106.999984741211
 30
0.0
 11
194.348831176758
 21
-108.999984741211
 31
0.0
  0
LINE
  5
    9A
  8
0
  6
CONTINUOUS
 62
    52
 10
200.59147644043
 20
-106.999984741211
 30
0.0
 11
198.59147644043
 21
-108.999984741211
 31
0.0
  0
LINE
  5
    9B
  8
0
  6
CONTINUOUS
 62
    52
 10
204.834121704102
 20
-106.999984741211
 30
0.0
 11
202.834121704102
 21
-108.999984741211
 31
0.0
  0
LINE
  5
    9C
  8
0
  6
CONTINUOUS
 62
    52
 10
209.076766967773
 20
-106.999984741211
 30
0.0
 11
207.076766967773
 21
-108.999984741211
 31
0.0
  0
LINE
  5
    9D
  8
0
  6
CONTINUOUS
 62
    52
 10
213.319412231445
 20
-106.999984741211
 30
0.0
 11
211.319412231445
 21
-108.999984741211
 31
0.0
  0
LINE
  5
    9E
  8
0
  6
CONTINUOUS
 62
    52
 10
217.562057495117
 20
-106.999984741211
 30
0.0
 11
215.562057495117
 21
-108.999984741211
 31
0.0
  0
LINE
  5
    9F
  8
0
  6
CONTINUOUS
 62
    52
 10
221.804702758789
 20
-106.999984741211
 30
0.0
 11
219.804702758789
 21
-108.999984741211
 31
0.0
  0
LINE
  5
    A0
  8
0
  6
CONTINUOUS
 62
    52
 10
226.047348022461
 20
-106.999984741211
 30
0.0
 11
224.047348022461
 21
-108.999984741211
 31
0.0
  0
LINE
  5
    A1
  8
0
  6
CONTINUOUS
 62
    52
 10
230.289993286133
 20
-106.999984741211
 30
0.0
 11
228.289993286133
 21
-108.999984741211
 31
0.0
  0
LINE
  5
    A2
  8
0
  6
CONTINUOUS
 62
    52
 10
234.532638549805
 20
-106.999984741211
 30
0.0
 11
232.532638549805
 21
-108.999984741211
 31
0.0
  0
LINE
  5
    A3
  8
0
  6
CONTINUOUS
 62
    52
 10
238.775283813477
 20
-106.999984741211
 30
0.0
 11
236.775283813477
 21
-108.999984741211
 31
0.0
  0
LINE
  5
    A4
  8
0
  6
CONTINUOUS
 62
    52
 10
243.017929077148
 20
-106.999984741211
 30
0.0
 11
241.017929077148
 21
-108.999984741211
 31
0.0
  0
LINE
  5
    A5
  8
0
  6
CONTINUOUS
 62
    52
 10
247.26057434082
 20
-106.999984741211
 30
0.0
 11
245.26057434082
 21
-108.999984741211
 31
0.0
  0
LINE
  5
    A6
  8
0
  6
CONTINUOUS
 62
    52
 10
251.503219604492
 20
-106.999984741211
 30
0.0
 11
249.503219604492
 21
-108.999984741211
 31
0.0
  0
LINE
  5
    A7
  8
0
  6
CONTINUOUS
 62
    52
 10
255.745864868164
 20
-106.999984741211
 30
0.0
 11
253.745864868164
 21
-108.999984741211
 31
0.0
  0
LINE
  5
    A8
  8
0
  6
CONTINUOUS
 62
    52
 10
259.281341552734
 20
-107.707077026367
 30
0.0
 11
257.988433837891
 21
-108.999984741211
 31
0.0
  0
ENDBLK
  5
    A9
  8
0
  6
CONTINUOUS
 62
     7
  0
BLOCK
  5
    AA
  8
0
  6
CONTINUOUS
 62
     7
  2
*HATCH335
 70
    65
 10
0.0
 20
0.0
 30
0.0
  3
*HATCH335
  0
LINE
  5
    AB
  8
0
  6
CONTINUOUS
 62
    52
 10
168.771667480469
 20
-106.999984741211
 30
0.0
 11
166.771667480469
 21
-108.999984741211
 31
0.0
  0
LINE
  5
    AC
  8
0
  6
CONTINUOUS
 62
    52
 10
173.014312744141
 20
-106.999984741211
 30
0.0
 11
171.014312744141
 21
-108.999984741211
 31
0.0
  0
LINE
  5
    AD
  8
0
  6
CONTINUOUS
 62
    52
 10
177.256958007812
 20
-106.999984741211
 30
0.0
 11
175.256958007813
 21
-108.999984741211
 31
0.0
  0
ENDBLK
  5
    AE
  8
0
  6
CONTINUOUS
 62
     7
  0
BLOCK
  5
    AF
  8
0
  6
CONTINUOUS
 62
     7
  2
*HATCH336
 70
    65
 10
0.0
 20
0.0
 30
0.0
  3
*HATCH336
  0
LINE
  5
    B0
  8
0
  6
CONTINUOUS
 62
    52
 10
45.7350769042969
 20
-106.999984741211
 30
0.0
 11
43.7350769042969
 21
-108.999984741211
 31
0.0
  0
LINE
  5
    B1
  8
0
  6
CONTINUOUS
 62
    52
 10
49.9777145385742
 20
-106.999984741211
 30
0.0
 11
47.9777145385742
 21
-108.999984741211
 31
0.0
  0
LINE
  5
    B2
  8
0
  6
CONTINUOUS
 62
    52
 10
53.9806251525879
 20
-107.239715576172
 30
0.0
 11
52.2203598022461
 21
-108.999984741211
 31
0.0
  0
ENDBLK
  5
    B3
  8
0
  6
CONTINUOUS
 62
     7
  0
BLOCK
  5
    B4
  8
0
  6
CONTINUOUS
 62
     7
  2
*HATCH337
 70
    65
 10
0.0
 20
0.0
 30
0.0
  3
*HATCH337
  0
LINE
  5
    B5
  8
0
  6
CONTINUOUS
 62
    52
 10
-41.2390594482422
 20
-106.999984741211
 30
0.0
 11
-43.2390594482422
 21
-108.999984741211
 31
0.0
  0
LINE
  5
    B6
  8
0
  6
CONTINUOUS
 62
    52
 10
-36.9964218139648
 20
-106.999984741211
 30
0.0
 11
-38.9964218139648
 21
-108.999984741211
 31
0.0
  0
LINE
  5
    B7
  8
0
  6
CONTINUOUS
 62
    52
 10
-32.7537841796875
 20
-106.999984741211
 30
0.0
 11
-34.7537841796875
 21
-108.999984741211
 31
0.0
  0
LINE
  5
    B8
  8
0
  6
CONTINUOUS
 62
    52
 10
-28.5111427307129
 20
-106.999984741211
 30
0.0
 11
-30.5111446380615
 21
-108.999984741211
 31
0.0
  0
LINE
  5
    B9
  8
0
  6
CONTINUOUS
 62
    52
 10
-24.2685012817383
 20
-106.999984741211
 30
0.0
 11
-26.2685031890869
 21
-108.999984741211
 31
0.0
  0
LINE
  5
    BA
  8
0
  6
CONTINUOUS
 62
    52
 10
-20.0258598327637
 20
-106.999984741211
 30
0.0
 11
-22.0258617401123
 21
-108.999984741211
 31
0.0
  0
LINE
  5
    BB
  8
0
  6
CONTINUOUS
 62
    52
 10
-15.7832183837891
 20
-106.999984741211
 30
0.0
 11
-17.7832202911377
 21
-108.999984741211
 31
0.0
  0
LINE
  5
    BC
  8
0
  6
CONTINUOUS
 62
    52
 10
-11.5405769348145
 20
-106.999984741211
 30
0.0
 11
-13.5405788421631
 21
-108.999984741211
 31
0.0
  0
LINE
  5
    BD
  8
0
  6
CONTINUOUS
 62
    52
 10
-7.297935962677
 20
-106.999984741211
 30
0.0
 11
-9.29793739318848
 21
-108.999984741211
 31
0.0
  0
LINE
  5
    BE
  8
0
  6
CONTINUOUS
 62
    52
 10
-3.05529546737671
 20
-106.999984741211
 30
0.0
 11
-5.05529689788818
 21
-108.999984741211
 31
0.0
  0
LINE
  5
    BF
  8
0
  6
CONTINUOUS
 62
    52
 10
1.18734502792358
 20
-106.999984741211
 30
0.0
 11
-0.812656402587891
 21
-108.999984741211
 31
0.0
  0
LINE
  5
    C0
  8
0
  6
CONTINUOUS
 62
    52
 10
5.42998552322388
 20
-106.999984741211
 30
0.0
 11
3.4299840927124
 21
-108.999984741211
 31
0.0
  0
LINE
  5
    C1
  8
0
  6
CONTINUOUS
 62
    52
 10
9.67262649536133
 20
-106.999984741211
 30
0.0
 11
7.6726245880127
 21
-108.999984741211
 31
0.0
  0
LINE
  5
    C2
  8
0
  6
CONTINUOUS
 62
    52
 10
13.9152679443359
 20
-106.999984741211
 30
0.0
 11
11.9152660369873
 21
-108.999984741211
 31
0.0
  0
LINE
  5
    C3
  8
0
  6
CONTINUOUS
 62
    52
 10
18.1579093933105
 20
-106.999984741211
 30
0.0
 11
16.1579074859619
 21
-108.999984741211
 31
0.0
  0
LINE
  5
    C4
  8
0
  6
CONTINUOUS
 62
    52
 10
22.4005508422852
 20
-106.999984741211
 30
0.0
 11
20.4005489349365
 21
-108.999984741211
 31
0.0
  0
LINE
  5
    C5
  8
0
  6
CONTINUOUS
 62
    52
 10
26.6431922912598
 20
-106.999984741211
 30
0.0
 11
24.6431903839111
 21
-108.999984741211
 31
0.0
  0
LINE
  5
    C6
  8
0
  6
CONTINUOUS
 62
    52
 10
30.8858337402344
 20
-106.999984741211
 30
0.0
 11
28.8858318328857
 21
-108.999984741211
 31
0.0
  0
LINE
  5
    C7
  8
0
  6
CONTINUOUS
 62
    52
 10
35.1284713745117
 20
-106.999984741211
 30
0.0
 11
33.1284713745117
 21
-108.999984741211
 31
0.0
  0
ENDBLK
  5
    C8
  8
0
  6
CONTINUOUS
 62
     7
  0
BLOCK
  5
    C9
  8
0
  6
CONTINUOUS
 62
     7
  2
LT__S6-630_POST
 70
    64
 10
0.0
 20
0.0
 30
0.0
  3
LT__S6-630_POST
  0
LINE
  5
    CA
  8
0
  6
CONTINUOUS
 62
     2
 10
-69.999999999997
 20
206.73709611333
 30
0.0
 11
-69.999999999997
 21
227.737096113329
 31
0.0
  0
LINE
  5
    CB
  8
0
  6
CONTINUOUS
 62
     2
 10
-68.5000032735379
 20
229.237096522522
 30
0.0
 11
-66.9999999999978
 21
229.237096931716
 31
0.0
  0
LINE
  5
    CC
  8
0
  6
CONTINUOUS
 62
     2
 10
-68.499999999997
 20
205.237096522523
 30
0.0
 11
-68.499999999997
 21
229.237096522522
 31
0.0
  0
LINE
  5
    CD
  8
0
  6
CONTINUOUS
 62
     2
 10
-70.0000028643453
 20
227.73709611333
 30
0.0
 11
-68.5000032735379
 21
229.237096522522
 31
0.0
  0
LINE
  5
    CE
  8
0
  6
CONTINUOUS
 62
     2
 10
-70.0000028643453
 20
227.73709611333
 30
0.0
 11
-66.9999999999978
 21
227.737096931716
 31
0.0
  0
LINE
  5
    CF
  8
0
  6
CONTINUOUS
 62
     7
 10
-24.9999999999985
 20
200.472100205256
 30
0.0
 11
-24.9999999999985
 21
234.002100205256
 31
0.0
  0
LINE
  5
    D0
  8
0
  6
CONTINUOUS
 62
     3
 10
-25.0000039555271
 20
231.737108389108
 30
0.0
 11
20.0
 21
231.737120664887
 31
0.0
  0
LINE
  5
    D1
  8
0
  6
CONTINUOUS
 62
     1
 10
-36.9999999999981
 20
195.237105115568
 30
0.0
 11
-36.9999999999981
 21
239.237105115566
 31
0.0
  0
LINE
  5
    D2
  8
0
  6
CONTINUOUS
 62
     1
 10
-40.9999999999979
 20
195.237104024388
 30
0.0
 11
-40.9999999999979
 21
239.237104024386
 31
0.0
  0
LINE
  5
    D3
  8
0
  6
CONTINUOUS
 62
     1
 10
-41.0000060014896
 20
239.237104024386
 30
0.0
 11
-37.0000060014898
 21
239.237105115567
 31
0.0
  0
LINE
  5
    D4
  8
0
  6
CONTINUOUS
 62
     1
 10
-54.9999999999978
 20
239.237100205257
 30
0.0
 11
-51.0000060014896
 21
239.237101296436
 31
0.0
  0
LINE
  5
    D5
  8
0
  6
CONTINUOUS
 62
     1
 10
-54.9999999999978
 20
195.237100205257
 30
0.0
 11
-54.9999999999978
 21
239.237100205255
 31
0.0
  0
LINE
  5
    D6
  8
0
  6
CONTINUOUS
 62
     1
 10
-50.999999999998
 20
195.237101296437
 30
0.0
 11
-50.999999999998
 21
239.237101296435
 31
0.0
  0
LINE
  5
    D7
  8
0
  6
CONTINUOUS
 62
     2
 10
-50.999999999998
 20
229.237101296437
 30
0.0
 11
-40.999999999998
 21
229.237104024388
 31
0.0
  0
LINE
  5
    D8
  8
0
  6
CONTINUOUS
 62
     2
 10
-50.999999999998
 20
227.737101296437
 30
0.0
 11
-40.999999999998
 21
227.737104024388
 31
0.0
  0
LINE
  5
    D9
  8
0
  6
CONTINUOUS
 62
     7
 10
-66.9999999999978
 20
200.472100205256
 30
0.0
 11
-66.9999999999978
 21
234.002100205256
 31
0.0
  0
LINE
  5
    DA
  8
0
  6
CONTINUOUS
 62
     7
 10
-66.9999999999978
 20
234.002100205256
 30
0.0
 11
-54.9999999999978
 21
234.002100205256
 31
0.0
  0
LINE
  5
    DB
  8
0
  6
CONTINUOUS
 62
     7
 10
-66.9999999999978
 20
225.619600205256
 30
0.0
 11
-54.9999999999978
 21
225.619600205256
 31
0.0
  0
LINE
  5
    DC
  8
0
  6
CONTINUOUS
 62
     7
 10
-36.9999999999981
 20
225.619600205256
 30
0.0
 11
-24.9999999999985
 21
225.619600205256
 31
0.0
  0
LINE
  5
    DD
  8
0
  6
CONTINUOUS
 62
     7
 10
-36.9999999999981
 20
234.002100205256
 30
0.0
 11
-24.9999999999985
 21
234.002100205256
 31
0.0
  0
LINE
  5
    DE
  8
0
  6
CONTINUOUS
 62
     3
 10
-24.9999960444698
 20
202.737108389109
 30
0.0
 11
20.0
 21
202.737120664886
 31
0.0
  0
LINE
  5
    DF
  8
0
  6
CONTINUOUS
 62
     1
 10
-40.9999939985063
 20
195.237104024388
 30
0.0
 11
-36.9999939985064
 21
195.237105115568
 31
0.0
  0
LINE
  5
    E0
  8
0
  6
CONTINUOUS
 62
     7
 10
-36.9999999999981
 20
208.854600205256
 30
0.0
 11
-24.9999999999985
 21
208.854600205256
 31
0.0
  0
LINE
  5
    E1
  8
0
  6
CONTINUOUS
 62
     7
 10
-36.9999999999981
 20
200.472100205256
 30
0.0
 11
-24.9999999999985
 21
200.472100205256
 31
0.0
  0
LINE
  5
    E2
  8
0
  6
CONTINUOUS
 62
     2
 10
-50.999999999998
 20
206.737101296436
 30
0.0
 11
-40.999999999998
 21
206.737104024387
 31
0.0
  0
LINE
  5
    E3
  8
0
  6
CONTINUOUS
 62
     2
 10
-50.999999999998
 20
205.237101296436
 30
0.0
 11
-40.999999999998
 21
205.237104024387
 31
0.0
  0
LINE
  5
    E4
  8
0
  6
CONTINUOUS
 62
     1
 10
-54.9999939985061
 20
195.237100205257
 30
0.0
 11
-50.9999939985063
 21
195.237101296437
 31
0.0
  0
LINE
  5
    E5
  8
0
  6
CONTINUOUS
 62
     7
 10
-66.9999999999978
 20
200.472100205256
 30
0.0
 11
-54.9999999999978
 21
200.472100205256
 31
0.0
  0
LINE
  5
    E6
  8
0
  6
CONTINUOUS
 62
     7
 10
-66.9999999999978
 20
208.854600205256
 30
0.0
 11
-54.9999999999978
 21
208.854600205256
 31
0.0
  0
LINE
  5
    E7
  8
0
  6
CONTINUOUS
 62
     2
 10
-68.4999967264561
 20
205.237096522523
 30
0.0
 11
-66.9999999999978
 21
205.237096931715
 31
0.0
  0
LINE
  5
    E8
  8
0
  6
CONTINUOUS
 62
     2
 10
-69.9999971356487
 20
206.73709611333
 30
0.0
 11
-68.4999967264561
 21
205.237096522523
 31
0.0
  0
LINE
  5
    E9
  8
0
  6
CONTINUOUS
 62
     2
 10
-69.9999971356487
 20
206.73709611333
 30
0.0
 11
-66.9999999999978
 21
206.737096931715
 31
0.0
  0
LINE
  5
    EA
  8
0
  6
CONTINUOUS
 62
     3
 10
20.0
 20
202.737119846502
 30
0.0
 11
20.0
 21
231.737119846501
 31
0.0
  0
LINE
  5
    EB
  8
0
  6
DASHDOT
 62
     7
 10
-76.6119412629304
 20
217.237126966153
 30
0.0
 11
23.0172743099786
 21
217.237126966153
 31
0.0
  0
LINE
  5
    EC
  8
0
  6
CONTINUOUS
 62
     7
 10
-3.0
 20
190.615602190394
 30
0.0
 11
-3.0
 21
202.737116695705
 31
0.0
  0
LINE
  5
    ED
  8
0
  6
CONTINUOUS
 62
     7
 10
0.0
 20
190.341572804176
 30
0.0
 11
0.0
 21
202.737116695705
 31
0.0
  0
LINE
  5
    EE
  8
0
  6
CONTINUOUS
 62
     2
 10
-135.0
 20
206.73709611333
 30
0.0
 11
-135.0
 21
227.737096113329
 31
0.0
  0
LINE
  5
    EF
  8
0
  6
CONTINUOUS
 62
     2
 10
-135.000002864348
 20
227.73709611333
 30
0.0
 11
-133.500003273541
 21
229.237096522522
 31
0.0
  0
LINE
  5
    F0
  8
0
  6
CONTINUOUS
 62
     2
 10
-133.5
 20
205.237096522523
 30
0.0
 11
-133.5
 21
229.237096522522
 31
0.0
  0
LINE
  5
    F1
  8
0
  6
CONTINUOUS
 62
     2
 10
-134.999997135652
 20
206.73709611333
 30
0.0
 11
-133.499996726459
 21
205.237096522523
 31
0.0
  0
LINE
  5
    F2
  8
0
  6
CONTINUOUS
 62
     2
 10
-134.999997135652
 20
206.73709611333
 30
0.0
 11
-132.000000000001
 21
206.737096931715
 31
0.0
  0
LINE
  5
    F3
  8
0
  6
CONTINUOUS
 62
     2
 10
-135.000002864348
 20
227.73709611333
 30
0.0
 11
-132.000000000001
 21
227.737096931716
 31
0.0
  0
LINE
  5
    F4
  8
0
  6
CONTINUOUS
 62
     7
 10
-132.000000000001
 20
200.472100205256
 30
0.0
 11
-132.000000000001
 21
234.002100205256
 31
0.0
  0
LINE
  5
    F5
  8
0
  6
CONTINUOUS
 62
     7
 10
-132.000000000001
 20
234.002100205256
 30
0.0
 11
-120.000000000001
 21
234.002100205256
 31
0.0
  0
LINE
  5
    F6
  8
0
  6
CONTINUOUS
 62
     7
 10
-132.000000000001
 20
225.619600205256
 30
0.0
 11
-120.000000000001
 21
225.619600205256
 31
0.0
  0
LINE
  5
    F7
  8
0
  6
CONTINUOUS
 62
     7
 10
-132.000000000001
 20
208.854600205256
 30
0.0
 11
-120.000000000001
 21
208.854600205256
 31
0.0
  0
LINE
  5
    F8
  8
0
  6
CONTINUOUS
 62
     7
 10
-132.000000000001
 20
200.472100205256
 30
0.0
 11
-120.000000000001
 21
200.472100205256
 31
0.0
  0
LINE
  5
    F9
  8
0
  6
CONTINUOUS
 62
     1
 10
-120.000000000001
 20
195.237100205257
 30
0.0
 11
-120.000000000001
 21
239.237100205255
 31
0.0
  0
LINE
  5
    FA
  8
0
  6
CONTINUOUS
 62
     1
 10
-120.000000000001
 20
239.237100205257
 30
0.0
 11
-116.000006001493
 21
239.237101296436
 31
0.0
  0
LINE
  5
    FB
  8
0
  6
CONTINUOUS
 62
     1
 10
-116.000000000001
 20
195.237101296437
 30
0.0
 11
-116.000000000001
 21
239.237101296435
 31
0.0
  0
LINE
  5
    FC
  8
0
  6
CONTINUOUS
 62
     1
 10
-119.999993998509
 20
195.237100205257
 30
0.0
 11
-115.999993998509
 21
195.237101296437
 31
0.0
  0
LINE
  5
    FD
  8
0
  6
CONTINUOUS
 62
     2
 10
-116.000000000001
 20
205.237101296436
 30
0.0
 11
-106.000000000001
 21
205.237104024387
 31
0.0
  0
LINE
  5
    FE
  8
0
  6
CONTINUOUS
 62
     2
 10
-116.000000000001
 20
206.737101296436
 30
0.0
 11
-106.000000000001
 21
206.737104024387
 31
0.0
  0
LINE
  5
    FF
  8
0
  6
CONTINUOUS
 62
     2
 10
-116.000000000001
 20
227.737101296437
 30
0.0
 11
-106.000000000001
 21
227.737104024388
 31
0.0
  0
LINE
  5
   100
  8
0
  6
CONTINUOUS
 62
     2
 10
-116.000000000001
 20
229.237101296437
 30
0.0
 11
-106.000000000001
 21
229.237104024388
 31
0.0
  0
LINE
  5
   101
  8
0
  6
CONTINUOUS
 62
     1
 10
-106.000000000001
 20
195.237104024388
 30
0.0
 11
-106.000000000001
 21
239.237104024386
 31
0.0
  0
LINE
  5
   102
  8
0
  6
CONTINUOUS
 62
     1
 10
-106.000006001493
 20
239.237104024386
 30
0.0
 11
-102.000006001493
 21
239.237105115567
 31
0.0
  0
LINE
  5
   103
  8
0
  6
CONTINUOUS
 62
     1
 10
-102.000000000001
 20
195.237105115568
 30
0.0
 11
-102.000000000001
 21
239.237105115566
 31
0.0
  0
LINE
  5
   104
  8
0
  6
CONTINUOUS
 62
     1
 10
-105.999993998509
 20
195.237104024388
 30
0.0
 11
-101.999993998509
 21
195.237105115568
 31
0.0
  0
LINE
  5
   105
  8
0
  6
CONTINUOUS
 62
     7
 10
-102.000000000001
 20
200.472100205256
 30
0.0
 11
-90.0000000000015
 21
200.472100205256
 31
0.0
  0
LINE
  5
   106
  8
0
  6
CONTINUOUS
 62
     7
 10
-102.000000000001
 20
208.854600205256
 30
0.0
 11
-90.0000000000015
 21
208.854600205256
 31
0.0
  0
LINE
  5
   107
  8
0
  6
CONTINUOUS
 62
     7
 10
-102.000000000001
 20
225.619600205256
 30
0.0
 11
-90.0000000000015
 21
225.619600205256
 31
0.0
  0
LINE
  5
   108
  8
0
  6
CONTINUOUS
 62
     7
 10
-102.000000000001
 20
234.002100205256
 30
0.0
 11
-90.0000000000015
 21
234.002100205256
 31
0.0
  0
LINE
  5
   109
  8
0
  6
CONTINUOUS
 62
     7
 10
-90.0000000000015
 20
200.472100205256
 30
0.0
 11
-90.0000000000015
 21
234.002100205256
 31
0.0
  0
LINE
  5
   10A
  8
0
  6
CONTINUOUS
 62
     3
 10
-90.0000039555301
 20
231.737108389108
 30
0.0
 11
-66.9999999999978
 21
231.737114663396
 31
0.0
  0
LINE
  5
   10B
  8
0
  6
CONTINUOUS
 62
     3
 10
-89.9999960444729
 20
202.737108389109
 30
0.0
 11
-66.9999999999978
 21
202.737114663395
 31
0.0
  0
LINE
  5
   10C
  8
0
  6
CONTINUOUS
 62
     3
 10
2.49999999999998
 20
202.737119846502
 30
0.0
 11
2.49999999999998
 21
231.737119846501
 31
0.0
  0
LINE
  5
   10D
  8
0
  6
CONTINUOUS
 62
     3
 10
6.49999999999998
 20
202.737119846502
 30
0.0
 11
6.49999999999998
 21
231.737119846501
 31
0.0
  0
LINE
  5
   10E
  8
0
  6
CONTINUOUS
 62
     3
 10
2.49999999999998
 20
229.737115890973
 30
0.0
 11
6.49999999999998
 21
229.737116982154
 31
0.0
  0
LINE
  5
   10F
  8
0
  6
CONTINUOUS
 62
     3
 10
2.49999999999998
 20
204.737115890972
 30
0.0
 11
6.49999999999998
 21
204.737116982153
 31
0.0
  0
ENDBLK
  5
   110
  8
0
  6
CONTINUOUS
 62
     7
  0
BLOCK
  5
   111
  8
0
  6
CONTINUOUS
 62
     7
  2
*UDIM507
 70
    65
 10
0.0
 20
0.0
 30
0.0
  3
*UDIM507
  0
TEXT
  5
   112
  8
0
  6
CONTINUOUS
 62
     7
 10
-445.203747612545
 20
-83.5363082850566
 30
0.0
 40
3.00000002980232
  1
135
 50
359.999999948034
 41
0.933333333333333
 72
     1
 11
-441.303747572449
 21
-82.0363082736731
 31
0.0
 73
     2
  0
LINE
  5
   113
  8
0
  6
CONTINUOUS
 62
     7
 10
-407.26773072868
 20
16.2821749877753
 30
0.0
 11
-407.26773072868
 21
-86.5363082885742
 31
0.0
  0
LINE
  5
   114
  8
0
  6
CONTINUOUS
 62
     7
 10
-474.789764404297
 20
-26.717888819677
 30
0.0
 11
-474.789764404297
 21
-86.5363082885742
 31
0.0
  0
LINE
  5
   115
  8
0
  6
CONTINUOUS
 62
     7
 10
-407.26773072868
 20
-84.5363082885742
 30
0.0
 11
-474.789764404297
 21
-84.5363082885742
 31
0.0
  0
LINE
  5
   116
  8
0
  6
CONTINUOUS
 62
     7
 10
-410.222154005887
 20
-85.0572527185259
 30
0.0
 11
-407.26773072868
 21
-84.5363082885742
 31
0.0
  0
LINE
  5
   117
  8
0
  6
CONTINUOUS
 62
     7
 10
-407.26773072868
 20
-84.5363082885742
 30
0.0
 11
-410.222154005887
 21
-84.0153638586226
 31
0.0
  0
LINE
  5
   118
  8
0
  6
CONTINUOUS
 62
     7
 10
-471.83534112709
 20
-84.0153638586226
 30
0.0
 11
-474.789764404297
 21
-84.5363082885742
 31
0.0
  0
LINE
  5
   119
  8
0
  6
CONTINUOUS
 62
     7
 10
-474.789764404297
 20
-84.5363082885742
 30
0.0
 11
-471.83534112709
 21
-85.0572527185259
 31
0.0
  0
ENDBLK
  5
   11A
  8
0
  6
CONTINUOUS
 62
     7
  0
BLOCK
  5
   11B
  8
0
  6
CONTINUOUS
 62
     7
  2
*UDIM508
 70
    65
 10
0.0
 20
0.0
 30
0.0
  3
*UDIM508
  0
TEXT
  5
   11C
  8
0
  6
CONTINUOUS
 62
     7
 10
-417.289772141339
 20
-76.5590286244961
 30
0.0
 40
3.00000002980232
  1
2
 50
359.999999948034
 41
0.933333333333334
 72
     1
 11
-416.189772129059
 21
-75.0590286105871
 31
0.0
 73
     2
  0
LINE
  5
   11D
  8
0
  6
CONTINUOUS
 62
     7
 10
-420.289772033691
 20
-55.6591192636521
 30
0.0
 11
-420.289772033691
 21
-79.5590286254883
 31
0.0
  0
LINE
  5
   11E
  8
0
  6
CONTINUOUS
 62
     7
 10
-421.289772033691
 20
-56.0950166995495
 30
0.0
 11
-421.289772033691
 21
-79.5590286254883
 31
0.0
  0
LINE
  5
   11F
  8
0
  6
CONTINUOUS
 62
     7
 10
-415.089772118131
 20
-77.5590286254883
 30
0.0
 11
-421.289772033691
 21
-77.5590286254883
 31
0.0
  0
LINE
  5
   120
  8
0
  6
CONTINUOUS
 62
     7
 10
-417.335348756485
 20
-77.0380841955366
 30
0.0
 11
-420.289772033691
 21
-77.5590286254883
 31
0.0
  0
LINE
  5
   121
  8
0
  6
CONTINUOUS
 62
     7
 10
-420.289772033691
 20
-77.5590286254883
 30
0.0
 11
-417.335348756485
 21
-78.07997305544
 31
0.0
  0
LINE
  5
   122
  8
0
  6
CONTINUOUS
 62
     7
 10
-424.244195310898
 20
-78.07997305544
 30
0.0
 11
-421.289772033691
 21
-77.5590286254883
 31
0.0
  0
LINE
  5
   123
  8
0
  6
CONTINUOUS
 62
     7
 10
-421.289772033691
 20
-77.5590286254883
 30
0.0
 11
-424.244195310898
 21
-77.0380841955366
 31
0.0
  0
ENDBLK
  5
   124
  8
0
  6
CONTINUOUS
 62
     7
  0
BLOCK
  5
   125
  8
0
  6
CONTINUOUS
 62
     7
  2
*UDIM509
 70
    65
 10
0.0
 20
0.0
 30
0.0
  3
*UDIM509
  0
TEXT
  5
   126
  8
0
  6
CONTINUOUS
 62
     7
 10
-452.214768265051
 20
-76.5590286219707
 30
0.0
 40
3.00000002980232
  1
107
 50
359.999999948034
 41
0.933333333333333
 72
     1
 11
-448.314768224955
 21
-75.0590286105871
 31
0.0
 73
     2
  0
LINE
  5
   127
  8
0
  6
CONTINUOUS
 62
     7
 10
-474.789764404297
 20
-26.717888819677
 30
0.0
 11
-474.789764404297
 21
-79.5590286254883
 31
0.0
  0
LINE
  5
   128
  8
0
  6
CONTINUOUS
 62
     7
 10
-421.289772033691
 20
-77.5590286254883
 30
0.0
 11
-474.789764404297
 21
-77.5590286254883
 31
0.0
  0
LINE
  5
   129
  8
0
  6
CONTINUOUS
 62
     7
 10
-424.244195310898
 20
-78.07997305544
 30
0.0
 11
-421.289772033691
 21
-77.5590286254883
 31
0.0
  0
LINE
  5
   12A
  8
0
  6
CONTINUOUS
 62
     7
 10
-421.289772033691
 20
-77.5590286254883
 30
0.0
 11
-424.244195310898
 21
-77.0380841955366
 31
0.0
  0
LINE
  5
   12B
  8
0
  6
CONTINUOUS
 62
     7
 10
-471.83534112709
 20
-77.0380841955366
 30
0.0
 11
-474.789764404297
 21
-77.5590286254883
 31
0.0
  0
LINE
  5
   12C
  8
0
  6
CONTINUOUS
 62
     7
 10
-474.789764404297
 20
-77.5590286254883
 30
0.0
 11
-471.83534112709
 21
-78.07997305544
 31
0.0
  0
ENDBLK
  5
   12D
  8
0
  6
CONTINUOUS
 62
     7
  0
BLOCK
  5
   12E
  8
0
  6
CONTINUOUS
 62
     7
  2
*UDIM510
 70
    65
 10
0.0
 20
0.0
 30
0.0
  3
*UDIM510
  0
TEXT
  5
   12F
  8
0
  6
CONTINUOUS
 62
     7
 10
-455.889768292866
 20
-70.1147384583124
 30
0.0
 40
3.00000002980232
  1
103,5
 50
359.999999948034
 41
0.933333333333333
 72
     1
 11
-449.189768224955
 21
-68.6147384494543
 31
0.0
 73
     2
  0
LINE
  5
   130
  8
0
  6
CONTINUOUS
 62
     7
 10
-423.039772033691
 20
-4.84282501222468
 30
0.0
 11
-423.039772033691
 21
-73.1147384643555
 31
0.0
  0
LINE
  5
   131
  8
0
  6
CONTINUOUS
 62
     7
 10
-474.789764404297
 20
-26.717888819677
 30
0.0
 11
-474.789764404297
 21
-73.1147384643555
 31
0.0
  0
LINE
  5
   132
  8
0
  6
CONTINUOUS
 62
     7
 10
-423.039772033691
 20
-71.1147384643555
 30
0.0
 11
-474.789764404297
 21
-71.1147384643555
 31
0.0
  0
LINE
  5
   133
  8
0
  6
CONTINUOUS
 62
     7
 10
-425.994195310898
 20
-71.6356828943071
 30
0.0
 11
-423.039772033691
 21
-71.1147384643555
 31
0.0
  0
LINE
  5
   134
  8
0
  6
CONTINUOUS
 62
     7
 10
-423.039772033691
 20
-71.1147384643555
 30
0.0
 11
-425.994195310898
 21
-70.5937940344038
 31
0.0
  0
LINE
  5
   135
  8
0
  6
CONTINUOUS
 62
     7
 10
-471.83534112709
 20
-70.5937940344038
 30
0.0
 11
-474.789764404297
 21
-71.1147384643555
 31
0.0
  0
LINE
  5
   136
  8
0
  6
CONTINUOUS
 62
     7
 10
-474.789764404297
 20
-71.1147384643555
 30
0.0
 11
-471.83534112709
 21
-71.6356828943071
 31
0.0
  0
ENDBLK
  5
   137
  8
0
  6
CONTINUOUS
 62
     7
  0
BLOCK
  5
   138
  8
0
  6
CONTINUOUS
 62
     7
  2
*UDIM511
 70
    65
 10
0.0
 20
0.0
 30
0.0
  3
*UDIM511
  0
TEXT
  5
   139
  8
0
  6
CONTINUOUS
 62
     7
 10
-482.039764511945
 20
-70.1147384633633
 30
0.0
 40
3.00000002980232
  1
3
 50
359.999999948034
 41
0.933333333333334
 72
     1
 11
-480.939764499664
 21
-68.6147384494543
 31
0.0
 73
     2
  0
TEXT
  5
   13A
  8
0
  6
CONTINUOUS
 62
     7
 10
-484.789764545721
 20
-70.1147384633633
 30
0.0
 40
3.00000002980232
  1
_
 50
359.999999948034
 41
0.933333333333334
 72
     1
 11
-483.68976453344
 21
-68.6147384494543
 31
0.0
 73
     2
  0
LINE
  5
   13B
  8
0
  6
CONTINUOUS
 62
     7
 10
-476.289764404297
 20
-26.717888819677
 30
0.0
 11
-476.289764404297
 21
-73.1147384643555
 31
0.0
  0
LINE
  5
   13C
  8
0
  6
CONTINUOUS
 62
     7
 10
-474.789764404297
 20
-71.1147384643555
 30
0.0
 11
-484.789764544368
 21
-71.1147384643555
 31
0.0
  0
LINE
  5
   13D
  8
0
  6
CONTINUOUS
 62
     7
 10
-471.83534112709
 20
-70.5937940344038
 30
0.0
 11
-474.789764404297
 21
-71.1147384643555
 31
0.0
  0
LINE
  5
   13E
  8
0
  6
CONTINUOUS
 62
     7
 10
-474.789764404297
 20
-71.1147384643555
 30
0.0
 11
-471.83534112709
 21
-71.6356828943071
 31
0.0
  0
LINE
  5
   13F
  8
0
  6
CONTINUOUS
 62
     7
 10
-479.244187681504
 20
-71.6356828943071
 30
0.0
 11
-476.289764404297
 21
-71.1147384643555
 31
0.0
  0
LINE
  5
   140
  8
0
  6
CONTINUOUS
 62
     7
 10
-476.289764404297
 20
-71.1147384643555
 30
0.0
 11
-479.244187681504
 21
-70.5937940344038
 31
0.0
  0
ENDBLK
  5
   141
  8
0
  6
CONTINUOUS
 62
     7
  0
BLOCK
  5
   142
  8
0
  6
CONTINUOUS
 62
     7
  2
*UDIM512
 70
    65
 10
0.0
 20
0.0
 30
0.0
  3
*UDIM512
  0
TEXT
  5
   143
  8
0
  6
CONTINUOUS
 62
     7
 10
-459.289776657335
 20
-62.5560207357022
 30
0.0
 40
3.00000002980232
  1
5
 50
359.999999948034
 41
0.933333333333334
 72
     1
 11
-458.189776645054
 21
-61.0560207217932
 31
0.0
 73
     2
  0
LINE
  5
   144
  8
0
  6
CONTINUOUS
 62
     7
 10
-462.289777026524
 20
-38.9678573608398
 30
0.0
 11
-462.289777026524
 21
-65.5560207366943
 31
0.0
  0
LINE
  5
   145
  8
0
  6
CONTINUOUS
 62
     7
 10
-464.78977607285
 20
-38.9678573608398
 30
0.0
 11
-464.78977607285
 21
-65.5560207366943
 31
0.0
  0
LINE
  5
   146
  8
0
  6
CONTINUOUS
 62
     7
 10
-457.089776634127
 20
-63.5560207366943
 30
0.0
 11
-464.78977607285
 21
-63.5560207366943
 31
0.0
  0
LINE
  5
   147
  8
0
  6
CONTINUOUS
 62
     7
 10
-459.335353749317
 20
-63.0350763067427
 30
0.0
 11
-462.289777026524
 21
-63.5560207366943
 31
0.0
  0
LINE
  5
   148
  8
0
  6
CONTINUOUS
 62
     7
 10
-462.289777026524
 20
-63.5560207366943
 30
0.0
 11
-459.335353749317
 21
-64.076965166646
 31
0.0
  0
LINE
  5
   149
  8
0
  6
CONTINUOUS
 62
     7
 10
-467.744199350057
 20
-64.076965166646
 30
0.0
 11
-464.78977607285
 21
-63.5560207366943
 31
0.0
  0
LINE
  5
   14A
  8
0
  6
CONTINUOUS
 62
     7
 10
-464.78977607285
 20
-63.5560207366943
 30
0.0
 11
-467.744199350057
 21
-63.0350763067427
 31
0.0
  0
ENDBLK
  5
   14B
  8
0
  6
CONTINUOUS
 62
     7
  0
BLOCK
  5
   14C
  8
0
  6
CONTINUOUS
 62
     7
  2
*UDIM513
 70
    65
 10
0.0
 20
0.0
 30
0.0
  3
*UDIM513
  0
TEXT
  5
   14D
  8
0
  6
CONTINUOUS
 62
     7
 10
-483.31476511492
 20
-62.5560207344395
 30
0.0
 40
3.00000002980232
  1
20
 50
359.999999948034
 41
0.933333333333333
 72
     1
 11
-480.814765088732
 21
-61.0560207217932
 31
0.0
 73
     2
  0
LINE
  5
   14E
  8
0
  6
CONTINUOUS
 62
     7
 10
-474.789764404297
 20
-26.717888819677
 30
0.0
 11
-474.789764404297
 21
-65.5560207366943
 31
0.0
  0
LINE
  5
   14F
  8
0
  6
CONTINUOUS
 62
     7
 10
-464.78977607285
 20
-63.5560207366943
 30
0.0
 11
-483.314765113567
 21
-63.5560207366943
 31
0.0
  0
LINE
  5
   150
  8
0
  6
CONTINUOUS
 62
     7
 10
-467.744199350057
 20
-64.076965166646
 30
0.0
 11
-464.78977607285
 21
-63.5560207366943
 31
0.0
  0
LINE
  5
   151
  8
0
  6
CONTINUOUS
 62
     7
 10
-464.78977607285
 20
-63.5560207366943
 30
0.0
 11
-467.744199350057
 21
-63.0350763067427
 31
0.0
  0
LINE
  5
   152
  8
0
  6
CONTINUOUS
 62
     7
 10
-471.83534112709
 20
-63.0350763067427
 30
0.0
 11
-474.789764404297
 21
-63.5560207366943
 31
0.0
  0
LINE
  5
   153
  8
0
  6
CONTINUOUS
 62
     7
 10
-474.789764404297
 20
-63.5560207366943
 30
0.0
 11
-471.83534112709
 21
-64.076965166646
 31
0.0
  0
ENDBLK
  5
   154
  8
0
  6
CONTINUOUS
 62
     7
  0
BLOCK
  5
   155
  8
0
  6
CONTINUOUS
 62
     7
  2
*UDIM514
 70
    65
 10
0.0
 20
0.0
 30
0.0
  3
*UDIM514
  0
TEXT
  5
   156
  8
0
  6
CONTINUOUS
 62
     7
 10
-456.389768292866
 20
106.006225591981
 30
0.0
 40
3.00000002980232
  1
101,5
 50
359.999999948034
 41
0.933333333333333
 72
     1
 11
-449.689768224955
 21
107.506225600839
 31
0.0
 73
     2
  0
LINE
  5
   157
  8
0
  6
CONTINUOUS
 62
     7
 10
-424.039772033691
 20
73.7821597289862
 30
0.0
 11
-424.039772033691
 21
107.006225585938
 31
0.0
  0
LINE
  5
   158
  8
0
  6
CONTINUOUS
 62
     7
 10
-474.789764404297
 20
94.588247790617
 30
0.0
 11
-474.789764404297
 21
107.006225585938
 31
0.0
  0
LINE
  5
   159
  8
0
  6
CONTINUOUS
 62
     7
 10
-424.039772033691
 20
105.006225585938
 30
0.0
 11
-474.789764404297
 21
105.006225585938
 31
0.0
  0
LINE
  5
   15A
  8
0
  6
CONTINUOUS
 62
     7
 10
-426.994195310898
 20
104.485281155986
 30
0.0
 11
-424.039772033691
 21
105.006225585938
 31
0.0
  0
LINE
  5
   15B
  8
0
  6
CONTINUOUS
 62
     7
 10
-424.039772033691
 20
105.006225585938
 30
0.0
 11
-426.994195310898
 21
105.527170015889
 31
0.0
  0
LINE
  5
   15C
  8
0
  6
CONTINUOUS
 62
     7
 10
-471.83534112709
 20
105.527170015889
 30
0.0
 11
-474.789764404297
 21
105.006225585938
 31
0.0
  0
LINE
  5
   15D
  8
0
  6
CONTINUOUS
 62
     7
 10
-474.789764404297
 20
105.006225585938
 30
0.0
 11
-471.83534112709
 21
104.485281155986
 31
0.0
  0
ENDBLK
  5
   15E
  8
0
  6
CONTINUOUS
 62
     7
  0
BLOCK
  5
   15F
  8
0
  6
CONTINUOUS
 62
     7
  2
*UDIM515
 70
    65
 10
0.0
 20
0.0
 30
0.0
  3
*UDIM515
  0
TEXT
  5
   160
  8
0
  6
CONTINUOUS
 62
     7
 10
-471.314771105187
 20
98.5516662620205
 30
0.0
 40
3.00000002980232
  1
25
 50
359.999999948034
 41
0.933333333333333
 72
     1
 11
-468.814771078999
 21
100.051666274667
 31
0.0
 73
     2
  0
LINE
  5
   161
  8
0
  6
CONTINUOUS
 62
     7
 10
-462.289777026524
 20
81.5321682194048
 30
0.0
 11
-462.289777026524
 21
99.5516662597656
 31
0.0
  0
LINE
  5
   162
  8
0
  6
CONTINUOUS
 62
     7
 10
-474.789764404297
 20
94.588247790617
 30
0.0
 11
-474.789764404297
 21
99.5516662597656
 31
0.0
  0
LINE
  5
   163
  8
0
  6
CONTINUOUS
 62
     7
 10
-462.289777026524
 20
97.5516662597656
 30
0.0
 11
-474.789764404297
 21
97.5516662597656
 31
0.0
  0
LINE
  5
   164
  8
0
  6
CONTINUOUS
 62
     7
 10
-465.244200303731
 20
97.030721829814
 30
0.0
 11
-462.289777026524
 21
97.5516662597656
 31
0.0
  0
LINE
  5
   165
  8
0
  6
CONTINUOUS
 62
     7
 10
-462.289777026524
 20
97.5516662597656
 30
0.0
 11
-465.244200303731
 21
98.0726106897173
 31
0.0
  0
LINE
  5
   166
  8
0
  6
CONTINUOUS
 62
     7
 10
-471.83534112709
 20
98.0726106897173
 30
0.0
 11
-474.789764404297
 21
97.5516662597656
 31
0.0
  0
LINE
  5
   167
  8
0
  6
CONTINUOUS
 62
     7
 10
-474.789764404297
 20
97.5516662597656
 30
0.0
 11
-471.83534112709
 21
97.030721829814
 31
0.0
  0
ENDBLK
  5
   168
  8
0
  6
CONTINUOUS
 62
     7
  0
BLOCK
  5
   169
  8
0
  6
CONTINUOUS
 62
     7
  2
*UDIM516
 70
    65
 10
0.0
 20
0.0
 30
0.0
  3
*UDIM516
  0
TEXT
  5
   16A
  8
0
  6
CONTINUOUS
 62
     7
 10
-515.505493171399
 20
40.844665436131
 30
0.0
 40
3.00000002980232
  1
107,25
 50
89.9999999480344
 41
0.933333333333333
 72
     1
 11
-517.005493178964
 21
48.9446655179558
 31
0.0
 73
     2
  0
LINE
  5
   16B
  8
0
  6
CONTINUOUS
 62
     7
 10
-509.730836658731
 20
22.4071597289862
 30
0.0
 11
-516.505493164063
 21
22.4071597289862
 31
0.0
  0
LINE
  5
   16C
  8
0
  6
CONTINUOUS
 62
     7
 10
-469.504447603812
 20
76.0321682194048
 30
0.0
 11
-516.505493164063
 21
76.0321682194048
 31
0.0
  0
LINE
  5
   16D
  8
0
  6
CONTINUOUS
 62
     7
 10
-514.505493164063
 20
22.4071597289862
 30
0.0
 11
-514.505493164063
 21
76.0321682194048
 31
0.0
  0
LINE
  5
   16E
  8
0
  6
CONTINUOUS
 62
     7
 10
-515.026437594014
 20
25.3615830061932
 30
0.0
 11
-514.505493164063
 21
22.4071597289862
 31
0.0
  0
LINE
  5
   16F
  8
0
  6
CONTINUOUS
 62
     7
 10
-514.505493164063
 20
22.4071597289862
 30
0.0
 11
-513.984548734111
 21
25.3615830061932
 31
0.0
  0
LINE
  5
   170
  8
0
  6
CONTINUOUS
 62
     7
 10
-513.984548734111
 20
73.0777449421979
 30
0.0
 11
-514.505493164063
 21
76.0321682194048
 31
0.0
  0
LINE
  5
   171
  8
0
  6
CONTINUOUS
 62
     7
 10
-514.505493164063
 20
76.0321682194048
 30
0.0
 11
-515.026437594014
 21
73.0777449421979
 31
0.0
  0
ENDBLK
  5
   172
  8
0
  6
CONTINUOUS
 62
     7
  0
BLOCK
  5
   173
  8
0
  6
CONTINUOUS
 62
     7
  2
*UDIM517
 70
    65
 10
0.0
 20
0.0
 30
0.0
  3
*UDIM517
  0
TEXT
  5
   174
  8
0
  6
CONTINUOUS
 62
     7
 10
-547.840995792107
 20
17.3571387784008
 30
0.0
 40
3.00000002980232
  1
218
 50
89.9999999480344
 41
0.933333333333333
 72
     1
 11
-549.340995803475
 21
21.2571388185024
 31
0.0
 73
     2
  0
LINE
  5
   175
  8
0
  6
CONTINUOUS
 62
     7
 10
-469.504447603812
 20
-32.9678829410845
 30
0.0
 11
-548.840995788574
 21
-32.9678829410845
 31
0.0
  0
LINE
  5
   176
  8
0
  6
CONTINUOUS
 62
     7
 10
-469.504447603812
 20
76.0321682194048
 30
0.0
 11
-548.840995788574
 21
76.0321682194048
 31
0.0
  0
LINE
  5
   177
  8
0
  6
CONTINUOUS
 62
     7
 10
-546.840995788574
 20
-32.9678829410845
 30
0.0
 11
-546.840995788574
 21
76.0321682194048
 31
0.0
  0
LINE
  5
   178
  8
0
  6
CONTINUOUS
 62
     7
 10
-547.361940218526
 20
-30.0134596638776
 30
0.0
 11
-546.840995788574
 21
-32.9678829410845
 31
0.0
  0
LINE
  5
   179
  8
0
  6
CONTINUOUS
 62
     7
 10
-546.840995788574
 20
-32.9678829410845
 30
0.0
 11
-546.320051358623
 21
-30.0134596638776
 31
0.0
  0
LINE
  5
   17A
  8
0
  6
CONTINUOUS
 62
     7
 10
-546.320051358623
 20
73.0777449421979
 30
0.0
 11
-546.840995788574
 21
76.0321682194048
 31
0.0
  0
LINE
  5
   17B
  8
0
  6
CONTINUOUS
 62
     7
 10
-546.840995788574
 20
76.0321682194048
 30
0.0
 11
-547.361940218526
 21
73.0777449421979
 31
0.0
  0
ENDBLK
  5
   17C
  8
0
  6
CONTINUOUS
 62
     7
  0
BLOCK
  5
   17D
  8
0
  6
CONTINUOUS
 62
     7
  2
*UDIM518
 70
    65
 10
0.0
 20
0.0
 30
0.0
  3
*UDIM518
  0
TEXT
  5
   17E
  8
0
  6
CONTINUOUS
 62
     7
 10
-385.873558047966
 20
18.2321654943771
 30
0.0
 40
3.00000002980232
  1
105
 50
89.9999999480344
 41
0.933333333333333
 72
     1
 11
-387.373558059335
 21
22.1321655344787
 31
0.0
 73
     2
  0
LINE
  5
   17F
  8
0
  6
CONTINUOUS
 62
     7
 10
-420.289772033691
 20
-3.84282501222468
 30
0.0
 11
-382.873558044434
 21
-3.84282501222468
 31
0.0
  0
LINE
  5
   180
  8
0
  6
CONTINUOUS
 62
     7
 10
-420.289772033691
 20
48.6571597289862
 30
0.0
 11
-382.873558044434
 21
48.6571597289862
 31
0.0
  0
LINE
  5
   181
  8
0
  6
CONTINUOUS
 62
     7
 10
-384.873558044434
 20
-3.84282501222468
 30
0.0
 11
-384.873558044434
 21
48.6571597289862
 31
0.0
  0
LINE
  5
   182
  8
0
  6
CONTINUOUS
 62
     7
 10
-385.394502474385
 20
-0.88840173501772
 30
0.0
 11
-384.873558044434
 21
-3.84282501222468
 31
0.0
  0
LINE
  5
   183
  8
0
  6
CONTINUOUS
 62
     7
 10
-384.873558044434
 20
-3.84282501222468
 30
0.0
 11
-384.352613614482
 21
-0.88840173501772
 31
0.0
  0
LINE
  5
   184
  8
0
  6
CONTINUOUS
 62
     7
 10
-384.352613614482
 20
45.7027364517793
 30
0.0
 11
-384.873558044434
 21
48.6571597289862
 31
0.0
  0
LINE
  5
   185
  8
0
  6
CONTINUOUS
 62
     7
 10
-384.873558044434
 20
48.6571597289862
 30
0.0
 11
-385.394502474385
 21
45.7027364517793
 31
0.0
  0
ENDBLK
  5
   186
  8
0
  6
CONTINUOUS
 62
     7
  0
BLOCK
  5
   187
  8
0
  6
CONTINUOUS
 62
     0
  2
$1ON-OFF
 70
    64
 10
0.0
 20
0.0
 30
0.0
  3
$1ON-OFF
  0
LINE
  5
   188
  8
0
  6
CONTINUOUS
 62
     0
 10
5.09999999999999
 20
-29.65
 30
0.0
 11
5.54999999999999
 21
-29.65
 31
0.0
  0
LINE
  5
   189
  8
0
  6
CONTINUOUS
 62
     0
 10
3.79999999999999
 20
-37.35
 30
0.0
 11
4.59999999999999
 21
-37.35
 31
0.0
  0
LINE
  5
   18A
  8
0
  6
CONTINUOUS
 62
     0
 10
-2.6
 20
-34.75
 30
0.0
 11
-2.6
 21
-34.25
 31
0.0
  0
LINE
  5
   18B
  8
0
  6
CONTINUOUS
 62
     0
 10
2.6
 20
-34.75
 30
0.0
 11
2.6
 21
-34.25
 31
0.0
  0
ARC
  5
   18C
  8
0
  6
CONTINUOUS
 62
     0
 10
-3.5527136788005E-15
 20
-34.25
 30
0.0
 40
2.6
 50
0.0
 51
180.0
  0
ARC
  5
   18D
  8
0
  6
CONTINUOUS
 62
     0
 10
-3.5527136788005E-15
 20
-34.75
 30
0.0
 40
2.6
 50
180.0
 51
360.0
  0
ARC
  5
   18E
  8
0
  6
CONTINUOUS
 62
     0
 10
-3.5527136788005E-15
 20
-34.25
 30
0.0
 40
1.8
 50
0.0
 51
180.0
  0
ARC
  5
   18F
  8
0
  6
CONTINUOUS
 62
     0
 10
-3.5527136788005E-15
 20
-34.75
 30
0.0
 40
1.8
 50
180.0
 51
360.0
  0
LINE
  5
   190
  8
0
  6
CONTINUOUS
 62
     0
 10
-1.8
 20
-34.75
 30
0.0
 11
-1.8
 21
-34.25
 31
0.0
  0
LINE
  5
   191
  8
0
  6
CONTINUOUS
 62
     0
 10
1.8
 20
-34.75
 30
0.0
 11
1.8
 21
-34.25
 31
0.0
  0
LINE
  5
   192
  8
0
  6
CONTINUOUS
 62
     0
 10
2.84999999999999
 20
-32.85
 30
0.0
 11
2.84999999999999
 21
-32.05
 31
0.0
  0
LINE
  5
   193
  8
0
  6
CONTINUOUS
 62
     0
 10
2.84999999999999
 20
-32.85
 30
0.0
 11
3.79999999999999
 21
-32.85
 31
0.0
  0
LINE
  5
   194
  8
0
  6
CONTINUOUS
 62
     0
 10
5.54999999999999
 20
-32.85
 30
0.0
 11
5.54999999999999
 21
-32.05
 31
0.0
  0
LINE
  5
   195
  8
0
  6
CONTINUOUS
 62
     0
 10
2.84999999999999
 20
-32.05
 30
0.0
 11
3.79999999999999
 21
-32.05
 31
0.0
  0
LINE
  5
   196
  8
0
  6
CONTINUOUS
 62
     0
 10
3.79999999999999
 20
-37.35
 30
0.0
 11
3.79999999999999
 21
-32.85
 31
0.0
  0
LINE
  5
   197
  8
0
  6
CONTINUOUS
 62
     0
 10
4.59999999999999
 20
-37.35
 30
0.0
 11
4.59999999999999
 21
-32.85
 31
0.0
  0
LINE
  5
   198
  8
0
  6
CONTINUOUS
 62
     0
 10
4.59999999999999
 20
-32.85
 30
0.0
 11
5.54999999999999
 21
-32.85
 31
0.0
  0
LINE
  5
   199
  8
0
  6
CONTINUOUS
 62
     0
 10
4.59999999999999
 20
-32.05
 30
0.0
 11
5.54999999999999
 21
-32.05
 31
0.0
  0
LINE
  5
   19A
  8
0
  6
CONTINUOUS
 62
     0
 10
3.79999999999999
 20
-32.05
 30
0.0
 11
3.79999999999999
 21
-30.95
 31
0.0
  0
LINE
  5
   19B
  8
0
  6
CONTINUOUS
 62
     0
 10
4.59999999999999
 20
-32.05
 30
0.0
 11
4.59999999999999
 21
-30.95
 31
0.0
  0
ARC
  5
   19C
  8
0
  6
CONTINUOUS
 62
     0
 10
5.09999999999999
 20
-30.95
 30
0.0
 40
1.3
 50
89.9999999999999
 51
180.0
  0
ARC
  5
   19D
  8
0
  6
CONTINUOUS
 62
     0
 10
5.09999999999999
 20
-30.95
 30
0.0
 40
0.5
 50
89.9999999999999
 51
180.0
  0
LINE
  5
   19E
  8
0
  6
CONTINUOUS
 62
     0
 10
5.54999999999999
 20
-30.45
 30
0.0
 11
5.54999999999999
 21
-29.65
 31
0.0
  0
LINE
  5
   19F
  8
0
  6
CONTINUOUS
 62
     0
 10
5.09999999999999
 20
-30.45
 30
0.0
 11
5.54999999999999
 21
-30.45
 31
0.0
  0
LINE
  5
   1A0
  8
0
  6
CONTINUOUS
 62
     0
 10
8.29999999999998
 20
-29.65
 30
0.0
 11
8.74999999999999
 21
-29.65
 31
0.0
  0
LINE
  5
   1A1
  8
0
  6
CONTINUOUS
 62
     0
 10
6.99999999999999
 20
-37.35
 30
0.0
 11
7.79999999999999
 21
-37.35
 31
0.0
  0
LINE
  5
   1A2
  8
0
  6
CONTINUOUS
 62
     0
 10
6.04999999999999
 20
-32.85
 30
0.0
 11
6.04999999999999
 21
-32.05
 31
0.0
  0
LINE
  5
   1A3
  8
0
  6
CONTINUOUS
 62
     0
 10
6.04999999999999
 20
-32.85
 30
0.0
 11
6.99999999999999
 21
-32.85
 31
0.0
  0
LINE
  5
   1A4
  8
0
  6
CONTINUOUS
 62
     0
 10
8.74999999999999
 20
-32.85
 30
0.0
 11
8.74999999999999
 21
-32.05
 31
0.0
  0
LINE
  5
   1A5
  8
0
  6
CONTINUOUS
 62
     0
 10
6.04999999999999
 20
-32.05
 30
0.0
 11
6.99999999999999
 21
-32.05
 31
0.0
  0
LINE
  5
   1A6
  8
0
  6
CONTINUOUS
 62
     0
 10
6.99999999999999
 20
-37.35
 30
0.0
 11
6.99999999999999
 21
-32.85
 31
0.0
  0
LINE
  5
   1A7
  8
0
  6
CONTINUOUS
 62
     0
 10
7.79999999999999
 20
-37.35
 30
0.0
 11
7.79999999999999
 21
-32.85
 31
0.0
  0
LINE
  5
   1A8
  8
0
  6
CONTINUOUS
 62
     0
 10
7.79999999999999
 20
-32.85
 30
0.0
 11
8.74999999999999
 21
-32.85
 31
0.0
  0
LINE
  5
   1A9
  8
0
  6
CONTINUOUS
 62
     0
 10
7.79999999999999
 20
-32.05
 30
0.0
 11
8.74999999999999
 21
-32.05
 31
0.0
  0
LINE
  5
   1AA
  8
0
  6
CONTINUOUS
 62
     0
 10
6.99999999999999
 20
-32.05
 30
0.0
 11
6.99999999999999
 21
-30.95
 31
0.0
  0
LINE
  5
   1AB
  8
0
  6
CONTINUOUS
 62
     0
 10
7.79999999999999
 20
-32.05
 30
0.0
 11
7.79999999999999
 21
-30.95
 31
0.0
  0
ARC
  5
   1AC
  8
0
  6
CONTINUOUS
 62
     0
 10
8.29999999999998
 20
-30.95
 30
0.0
 40
1.3
 50
89.9999999999999
 51
180.0
  0
ARC
  5
   1AD
  8
0
  6
CONTINUOUS
 62
     0
 10
8.29999999999998
 20
-30.95
 30
0.0
 40
0.5
 50
89.9999999999999
 51
180.0
  0
LINE
  5
   1AE
  8
0
  6
CONTINUOUS
 62
     0
 10
8.74999999999999
 20
-30.45
 30
0.0
 11
8.74999999999999
 21
-29.65
 31
0.0
  0
LINE
  5
   1AF
  8
0
  6
CONTINUOUS
 62
     0
 10
8.29999999999998
 20
-30.45
 30
0.0
 11
8.74999999999999
 21
-30.45
 31
0.0
  0
LINE
  5
   1B0
  8
0
  6
CONTINUOUS
 62
     0
 10
3.4
 20
-2.85000000000002
 30
0.0
 11
4.19999999999999
 21
-2.85000000000002
 31
0.0
  0
ARC
  5
   1B1
  8
0
  6
CONTINUOUS
 62
     0
 10
-3.5527136788005E-15
 20
0.249999999999979
 30
0.0
 40
2.6
 50
0.0
 51
180.0
  0
ARC
  5
   1B2
  8
0
  6
CONTINUOUS
 62
     0
 10
-3.5527136788005E-15
 20
0.249999999999979
 30
0.0
 40
1.8
 50
0.0
 51
180.0
  0
ARC
  5
   1B3
  8
0
  6
CONTINUOUS
 62
     0
 10
-3.5527136788005E-15
 20
-0.250000000000018
 30
0.0
 40
2.6
 50
180.0
 51
360.0
  0
ARC
  5
   1B4
  8
0
  6
CONTINUOUS
 62
     0
 10
-3.5527136788005E-15
 20
-0.250000000000018
 30
0.0
 40
1.8
 50
180.0
 51
360.0
  0
LINE
  5
   1B5
  8
0
  6
CONTINUOUS
 62
     0
 10
1.8
 20
-0.250000000000018
 30
0.0
 11
1.8
 21
0.249999999999979
 31
0.0
  0
LINE
  5
   1B6
  8
0
  6
CONTINUOUS
 62
     0
 10
2.6
 20
-0.250000000000018
 30
0.0
 11
2.6
 21
0.249999999999979
 31
0.0
  0
LINE
  5
   1B7
  8
0
  6
CONTINUOUS
 62
     0
 10
-1.8
 20
-0.250000000000032
 30
0.0
 11
-1.8
 21
0.249999999999964
 31
0.0
  0
LINE
  5
   1B8
  8
0
  6
CONTINUOUS
 62
     0
 10
-2.6
 20
-0.250000000000018
 30
0.0
 11
-2.6
 21
0.249999999999979
 31
0.0
  0
LINE
  5
   1B9
  8
0
  6
CONTINUOUS
 62
     0
 10
3.4
 20
-2.85000000000002
 30
0.0
 11
3.4
 21
2.84999999999998
 31
0.0
  0
LINE
  5
   1BA
  8
0
  6
CONTINUOUS
 62
     0
 10
4.19999999999999
 20
-2.85000000000002
 30
0.0
 11
4.19999999999999
 21
0.649999999999981
 31
0.0
  0
LINE
  5
   1BB
  8
0
  6
CONTINUOUS
 62
     0
 10
6.99999999999999
 20
-2.85000000000002
 30
0.0
 11
6.99999999999999
 21
0.649999999999981
 31
0.0
  0
LINE
  5
   1BC
  8
0
  6
CONTINUOUS
 62
     0
 10
7.79999999999999
 20
-2.85000000000002
 30
0.0
 11
7.79999999999999
 21
0.84999999999998
 31
0.0
  0
LINE
  5
   1BD
  8
0
  6
CONTINUOUS
 62
     0
 10
3.4
 20
2.84999999999998
 30
0.0
 11
4.19999999999999
 21
2.84999999999998
 31
0.0
  0
ARC
  5
   1BE
  8
0
  6
CONTINUOUS
 62
     0
 10
5.59999999999999
 20
0.649999999999981
 30
0.0
 40
1.4
 50
0.0
 51
180.0
  0
LINE
  5
   1BF
  8
0
  6
CONTINUOUS
 62
     0
 10
4.19999999999999
 20
2.05
 30
0.0
 11
4.19999999999999
 21
2.84999999999998
 31
0.0
  0
ARC
  5
   1C0
  8
0
  6
CONTINUOUS
 62
     0
 10
5.79999999999999
 20
0.84999999999998
 30
0.0
 40
2.0
 50
0.0
 51
143.130102354155
  0
LINE
  5
   1C1
  8
0
  6
CONTINUOUS
 62
     0
 10
6.99999999999999
 20
-2.85000000000002
 30
0.0
 11
7.79999999999999
 21
-2.85000000000002
 31
0.0
  0
ENDBLK
  5
   1C2
  8
0
  6
CONTINUOUS
 62
     0
  0
BLOCK
  5
   1C3
  8
0
  6
CONTINUOUS
 62
     7
  2
COPRITERMINALI
 70
    64
 10
0.0
 20
0.0
 30
0.0
  3
COPRITERMINALI
  0
LINE
  5
   1C4
  8
0
  6
CONTINUOUS
 62
     2
 10
70.0
 20
-25.5
 30
0.0
 11
70.0
 21
-1.25
 31
0.0
  0
LINE
  5
   1C5
  8
0
  6
CONTINUOUS
 62
     2
 10
68.7500079259097
 20
6.86639207359008E-6
 30
0.0
 11
69.6338885468344
 21
-0.366112524937034
 31
0.0
  0
LINE
  5
   1C6
  8
0
  6
CONTINUOUS
 62
     2
 10
69.633884498095
 20
-0.366107105298454
 30
0.0
 11
70.0000038894241
 21
-1.24998772622308
 31
0.0
  0
LINE
  5
   1C7
  8
0
  6
CONTINUOUS
 62
     2
 10
-50.3122698373484
 20
-26.5
 30
0.0
 11
69.0
 21
-26.5
 31
0.0
  0
LINE
  5
   1C8
  8
0
  6
CONTINUOUS
 62
     2
 10
67.6000061035156
 20
-25.5
 30
0.0
 11
67.6000061035156
 21
-0.310653686523438
 31
0.0
  0
LINE
  5
   1C9
  8
0
  6
CONTINUOUS
 62
     2
 10
64.0
 20
-25.5
 30
0.0
 11
64.0
 21
-0.310653686523438
 31
0.0
  0
LINE
  5
   1CA
  8
0
  6
CONTINUOUS
 62
     2
 10
60.3999938964844
 20
-25.5
 30
0.0
 11
60.3999938964844
 21
-0.310653686523438
 31
0.0
  0
LINE
  5
   1CB
  8
0
  6
CONTINUOUS
 62
     2
 10
56.8000030517578
 20
-25.5
 30
0.0
 11
56.8000030517578
 21
-0.310653686523438
 31
0.0
  0
LINE
  5
   1CC
  8
0
  6
CONTINUOUS
 62
     2
 10
53.1999969482422
 20
-25.5
 30
0.0
 11
53.1999969482422
 21
-0.310653686523438
 31
0.0
  0
LINE
  5
   1CD
  8
0
  6
CONTINUOUS
 62
     2
 10
49.5999984741211
 20
-25.5
 30
0.0
 11
49.5999984741211
 21
-0.310653686523438
 31
0.0
  0
LINE
  5
   1CE
  8
0
  6
CONTINUOUS
 62
     2
 10
46.0
 20
-25.5
 30
0.0
 11
46.0
 21
-0.310653686523438
 31
0.0
  0
LINE
  5
   1CF
  8
0
  6
CONTINUOUS
 62
     2
 10
42.4000015258789
 20
-25.5
 30
0.0
 11
42.4000015258789
 21
-0.310653686523438
 31
0.0
  0
LINE
  5
   1D0
  8
0
  6
CONTINUOUS
 62
     2
 10
38.8000030517578
 20
-25.5
 30
0.0
 11
38.8000030517578
 21
-0.310653686523438
 31
0.0
  0
LINE
  5
   1D1
  8
0
  6
CONTINUOUS
 62
     2
 10
35.1999969482422
 20
-25.5
 30
0.0
 11
35.1999969482422
 21
-0.310653686523438
 31
0.0
  0
LINE
  5
   1D2
  8
0
  6
CONTINUOUS
 62
     2
 10
31.5999984741211
 20
-25.5
 30
0.0
 11
31.5999984741211
 21
-0.310653686523438
 31
0.0
  0
LINE
  5
   1D3
  8
0
  6
CONTINUOUS
 62
     2
 10
28.0
 20
-25.5
 30
0.0
 11
28.0
 21
-0.310653686523438
 31
0.0
  0
LINE
  5
   1D4
  8
0
  6
CONTINUOUS
 62
     2
 10
24.4000015258789
 20
-25.5
 30
0.0
 11
24.4000015258789
 21
-0.310653686523438
 31
0.0
  0
LINE
  5
   1D5
  8
0
  6
CONTINUOUS
 62
     2
 10
20.8000030517578
 20
-25.5
 30
0.0
 11
20.8000030517578
 21
-0.310653686523438
 31
0.0
  0
LINE
  5
   1D6
  8
0
  6
CONTINUOUS
 62
     2
 10
17.1999969482422
 20
-25.5
 30
0.0
 11
17.1999969482422
 21
-0.310653686523438
 31
0.0
  0
LINE
  5
   1D7
  8
0
  6
CONTINUOUS
 62
     2
 10
13.5999984741211
 20
-25.5
 30
0.0
 11
13.5999984741211
 21
-0.310653686523438
 31
0.0
  0
LINE
  5
   1D8
  8
0
  6
CONTINUOUS
 62
     2
 10
10.0
 20
-25.5
 30
0.0
 11
10.0
 21
-0.310653686523438
 31
0.0
  0
LINE
  5
   1D9
  8
0
  6
CONTINUOUS
 62
     2
 10
6.40000152587891
 20
-25.5
 30
0.0
 11
6.40000152587891
 21
-0.310653686523438
 31
0.0
  0
LINE
  5
   1DA
  8
0
  6
CONTINUOUS
 62
     2
 10
2.80000305175781
 20
-25.5
 30
0.0
 11
2.80000305175781
 21
-0.310653686523438
 31
0.0
  0
LINE
  5
   1DB
  8
0
  6
CONTINUOUS
 62
     2
 10
-0.800003051757813
 20
-25.5
 30
0.0
 11
-0.800003051757813
 21
-0.310653686523438
 31
0.0
  0
LINE
  5
   1DC
  8
0
  6
CONTINUOUS
 62
     2
 10
-4.40000152587891
 20
-25.5
 30
0.0
 11
-4.40000152587891
 21
-0.310653686523438
 31
0.0
  0
LINE
  5
   1DD
  8
0
  6
CONTINUOUS
 62
     2
 10
-8.0
 20
-25.5
 30
0.0
 11
-8.0
 21
-0.310653686523438
 31
0.0
  0
LINE
  5
   1DE
  8
0
  6
CONTINUOUS
 62
     2
 10
-11.5999984741211
 20
-25.5
 30
0.0
 11
-11.5999984741211
 21
-0.310653686523438
 31
0.0
  0
LINE
  5
   1DF
  8
0
  6
CONTINUOUS
 62
     2
 10
-15.2000007629395
 20
-25.5
 30
0.0
 11
-15.2000007629395
 21
-0.310653686523438
 31
0.0
  0
LINE
  5
   1E0
  8
0
  6
CONTINUOUS
 62
     2
 10
-18.7999992370605
 20
-25.5
 30
0.0
 11
-18.7999992370605
 21
-0.310653686523438
 31
0.0
  0
LINE
  5
   1E1
  8
0
  6
CONTINUOUS
 62
     2
 10
-22.4000015258789
 20
-25.5
 30
0.0
 11
-22.4000015258789
 21
-0.310653686523438
 31
0.0
  0
LINE
  5
   1E2
  8
0
  6
CONTINUOUS
 62
     2
 10
-26.0
 20
-25.5
 30
0.0
 11
-26.0
 21
-0.310653686523438
 31
0.0
  0
LINE
  5
   1E3
  8
0
  6
CONTINUOUS
 62
     2
 10
-29.5999984741211
 20
-25.5
 30
0.0
 11
-29.5999984741211
 21
-0.310653686523438
 31
0.0
  0
LINE
  5
   1E4
  8
0
  6
CONTINUOUS
 62
     2
 10
-33.2000007629395
 20
-25.5
 30
0.0
 11
-33.2000007629395
 21
-0.310653686523438
 31
0.0
  0
LINE
  5
   1E5
  8
0
  6
CONTINUOUS
 62
     2
 10
-36.7999992370605
 20
-25.5
 30
0.0
 11
-36.7999992370605
 21
-1.57802866758733
 31
0.0
  0
LINE
  5
   1E6
  8
0
  6
CONTINUOUS
 62
     2
 10
-40.3999996185303
 20
-25.5
 30
0.0
 11
-40.3999996185303
 21
-9.73654360470745
 31
0.0
  0
LINE
  5
   1E7
  8
0
  6
CONTINUOUS
 62
     2
 10
-44.0
 20
-25.5
 30
0.0
 11
-44.0
 21
-13.1224262368184
 31
0.0
  0
LINE
  5
   1E8
  8
0
  6
CONTINUOUS
 62
     2
 10
-47.6000003814697
 20
-25.5
 30
0.0
 11
-47.6000003814697
 21
-19.6719599536075
 31
0.0
  0
LINE
  5
   1E9
  8
0
  6
CONTINUOUS
 62
     2
 10
69.0
 20
-25.5
 30
0.0
 11
70.0
 21
-25.5
 31
0.0
  0
LINE
  5
   1EA
  8
0
  6
CONTINUOUS
 62
     2
 10
69.0
 20
-26.5
 30
0.0
 11
69.0
 21
-25.5
 31
0.0
  0
LINE
  5
   1EB
  8
0
  6
CONTINUOUS
 62
     2
 10
-50.0113882406146
 20
-25.5
 30
0.0
 11
69.0
 21
-25.5
 31
0.0
  0
POLYLINE
  5
   1EC
  8
0
  6
CONTINUOUS
 62
     7
 66
     1
 10
0.0
 20
0.0
 30
0.0
  0
VERTEX
  5
   1ED
  8
0
  6
CONTINUOUS
 10
-32.7985341005249
 20
1.46534476677357
 30
0.0
 40
0.0
 41
0.0
  0
VERTEX
  5
   1EE
  8
0
  6
CONTINUOUS
 10
-32.987325734826
 20
1.38611824466164
 30
0.0
 40
0.0
 41
0.0
  0
VERTEX
  5
   1EF
  8
0
  6
CONTINUOUS
 10
-33.1761383659282
 20
1.30452772384226
 30
0.0
 40
0.0
 41
0.0
  0
VERTEX
  5
   1F0
  8
0
  6
CONTINUOUS
 10
-33.3649571819992
 20
1.2205639026575
 30
0.0
 40
0.0
 41
0.0
  0
VERTEX
  5
   1F1
  8
0
  6
CONTINUOUS
 10
-33.5537436722753
 20
1.13420259679675
 30
0.0
 40
0.0
 41
0.0
  0
VERTEX
  5
   1F2
  8
0
  6
CONTINUOUS
 10
-33.7424237775954
 20
1.04539729797038
 30
0.0
 40
0.0
 41
0.0
  0
VERTEX
  5
   1F3
  8
0
  6
CONTINUOUS
 10
-33.9308760409356
 20
0.954071732583381
 30
0.0
 40
0.0
 41
0.0
  0
VERTEX
  5
   1F4
  8
0
  6
CONTINUOUS
 10
-34.1189197579429
 20
0.860112420409048
 30
0.0
 40
0.0
 41
0.0
  0
VERTEX
  5
   1F5
  8
0
  6
CONTINUOUS
 10
-34.3063031274698
 20
0.763361233262619
 30
0.0
 40
0.0
 41
0.0
  0
VERTEX
  5
   1F6
  8
0
  6
CONTINUOUS
 10
-34.4926914021084
 20
0.663607953674938
 30
0.0
 40
0.0
 41
0.0
  0
VERTEX
  5
   1F7
  8
0
  6
CONTINUOUS
 10
-34.677655038725
 20
0.560582833566116
 30
0.0
 40
0.0
 41
0.0
  0
VERTEX
  5
   1F8
  8
0
  6
CONTINUOUS
 10
-34.8784103981661
 20
0.443322466790008
 30
0.0
 40
0.0
 41
0.0
  0
VERTEX
  5
   1F9
  8
0
  6
CONTINUOUS
 10
-35.0759426418482
 20
0.321176016961332
 30
0.0
 40
0.0
 41
0.0
  0
VERTEX
  5
   1FA
  8
0
  6
CONTINUOUS
 10
-35.2692686635283
 20
0.193538151426688
 30
0.0
 40
0.0
 41
0.0
  0
VERTEX
  5
   1FB
  8
0
  6
CONTINUOUS
 10
-35.3640244418552
 20
0.127461536313317
 30
0.0
 40
0.0
 41
0.0
  0
VERTEX
  5
   1FC
  8
0
  6
CONTINUOUS
 10
-35.4573271080756
 20
5.97736727108731E-2
 30
0.0
 40
0.0
 41
0.0
  0
VERTEX
  5
   1FD
  8
0
  6
CONTINUOUS
 10
-35.5490394606962
 20
-9.60309240398241E-3
 30
0.0
 40
0.0
 41
0.0
  0
VERTEX
  5
   1FE
  8
0
  6
CONTINUOUS
 10
-35.6390252699828
 20
-8.07433924806405E-2
 30
0.0
 40
0.0
 41
0.0
  0
VERTEX
  5
   1FF
  8
0
  6
CONTINUOUS
 10
-35.7271507435377
 20
-0.153717619863218
 30
0.0
 40
0.0
 41
0.0
  0
VERTEX
  5
   200
  8
0
  6
CONTINUOUS
 10
-35.8132859918789
 20
-0.228590704259229
 30
0.0
 40
0.0
 41
0.0
  0
VERTEX
  5
   201
  8
0
  6
CONTINUOUS
 10
-35.8973064940184
 20
-0.305420891208261
 30
0.0
 40
0.0
 41
0.0
  0
VERTEX
  5
   202
  8
0
  6
CONTINUOUS
 10
-35.9790945630406
 20
-0.384258520550641
 30
0.0
 40
0.0
 41
0.0
  0
VERTEX
  5
   203
  8
0
  6
CONTINUOUS
 10
-36.0585408116809
 20
-0.465144804896116
 30
0.0
 40
0.0
 41
0.0
  0
VERTEX
  5
   204
  8
0
  6
CONTINUOUS
 10
-36.1355456179043
 20
-0.548110608092519
 30
0.0
 40
0.0
 41
0.0
  0
VERTEX
  5
   205
  8
0
  6
CONTINUOUS
 10
-36.2100205904837
 20
-0.633175223694445
 30
0.0
 40
0.0
 41
0.0
  0
VERTEX
  5
   206
  8
0
  6
CONTINUOUS
 10
-36.2818900345783
 20
-0.720345153431922
 30
0.0
 40
0.0
 41
0.0
  0
VERTEX
  5
   207
  8
0
  6
CONTINUOUS
 10
-36.3510924173127
 20
-0.809612885679086
 30
0.0
 40
0.0
 41
0.0
  0
VERTEX
  5
   208
  8
0
  6
CONTINUOUS
 10
-36.4175818333547
 20
-0.900955673922852
 30
0.0
 40
0.0
 41
0.0
  0
VERTEX
  5
   209
  8
0
  6
CONTINUOUS
 10
-36.4842089214757
 20
-0.998698060580724
 30
0.0
 40
0.0
 41
0.0
  0
VERTEX
  5
   20A
  8
0
  6
CONTINUOUS
 10
-36.5478230303524
 20
-1.09860399437586
 30
0.0
 40
0.0
 41
0.0
  0
VERTEX
  5
   20B
  8
0
  6
CONTINUOUS
 10
-36.6084326261379
 20
-1.20058996805088
 30
0.0
 40
0.0
 41
0.0
  0
VERTEX
  5
   20C
  8
0
  6
CONTINUOUS
 10
-36.6660650525139
 20
-1.30455597838066
 30
0.0
 40
0.0
 41
0.0
  0
VERTEX
  5
   20D
  8
0
  6
CONTINUOUS
 10
-36.720764852164
 20
-1.41038786788055
 30
0.0
 40
0.0
 41
0.0
  0
VERTEX
  5
   20E
  8
0
  6
CONTINUOUS
 10
-36.772592088246
 20
-1.5179596665147
 30
0.0
 40
0.0
 41
0.0
  0
VERTEX
  5
   20F
  8
0
  6
CONTINUOUS
 10
-36.8216206658649
 20
-1.62713593340431
 30
0.0
 40
0.0
 41
0.0
  0
VERTEX
  5
   210
  8
0
  6
CONTINUOUS
 10
-36.8679366535456
 20
-1.73777409853593
 30
0.0
 40
0.0
 41
0.0
  0
VERTEX
  5
   211
  8
0
  6
CONTINUOUS
 10
-36.9116366047058
 20
-1.84972680446973
 30
0.0
 40
0.0
 41
0.0
  0
VERTEX
  5
   212
  8
0
  6
CONTINUOUS
 10
-36.9528258791284
 20
-1.96284424804777
 30
0.0
 40
0.0
 41
0.0
  0
VERTEX
  5
   213
  8
0
  6
CONTINUOUS
 10
-36.9916169644346
 20
-2.07697652210229
 30
0.0
 40
0.0
 41
0.0
  0
VERTEX
  5
   214
  8
0
  6
CONTINUOUS
 10
-37.0281277975565
 20
-2.19197595716401
 30
0.0
 40
0.0
 41
0.0
  0
VERTEX
  5
   215
  8
0
  6
CONTINUOUS
 10
-37.0624800862098
 20
-2.30769946317035
 30
0.0
 40
0.0
 41
0.0
  0
VERTEX
  5
   216
  8
0
  6
CONTINUOUS
 10
-37.0947976303668
 20
-2.42401087117378
 30
0.0
 40
0.0
 41
0.0
  0
VERTEX
  5
   217
  8
0
  6
CONTINUOUS
 10
-37.1538240751995
 20
-2.65790137320645
 30
0.0
 40
0.0
 41
0.0
  0
VERTEX
  5
   218
  8
0
  6
CONTINUOUS
 10
-37.2061755929259
 20
-2.89278551889659
 30
0.0
 40
0.0
 41
0.0
  0
VERTEX
  5
   219
  8
0
  6
CONTINUOUS
 10
-37.2527466947769
 20
-3.12806197104888
 30
0.0
 40
0.0
 41
0.0
  0
VERTEX
  5
   21A
  8
0
  6
CONTINUOUS
 10
-37.3055099122189
 20
-3.43174144190569
 30
0.0
 40
0.0
 41
0.0
  0
VERTEX
  5
   21B
  8
0
  6
CONTINUOUS
 10
-37.3512539865609
 20
-3.73592540029735
 30
0.0
 40
0.0
 41
0.0
  0
VERTEX
  5
   21C
  8
0
  6
CONTINUOUS
 10
-37.3912594330599
 20
-4.04143909690471
 30
0.0
 40
0.0
 41
0.0
  0
VERTEX
  5
   21D
  8
0
  6
CONTINUOUS
 10
-37.484081826403
 20
-4.85625124244804
 30
0.0
 40
0.0
 41
0.0
  0
VERTEX
  5
   21E
  8
0
  6
CONTINUOUS
 10
-37.5087165182104
 20
-5.05343858415647
 30
0.0
 40
0.0
 41
0.0
  0
VERTEX
  5
   21F
  8
0
  6
CONTINUOUS
 10
-37.5368776838213
 20
-5.25003759879164
 30
0.0
 40
0.0
 41
0.0
  0
VERTEX
  5
   220
  8
0
  6
CONTINUOUS
 10
-37.5700900337405
 20
-5.44519211565509
 30
0.0
 40
0.0
 41
0.0
  0
VERTEX
  5
   221
  8
0
  6
CONTINUOUS
 10
-37.6098747473722
 20
-5.63798076894811
 30
0.0
 40
0.0
 41
0.0
  0
VERTEX
  5
   222
  8
0
  6
CONTINUOUS
 10
-37.6326833692714
 20
-5.73319912336667
 30
0.0
 40
0.0
 41
0.0
  0
VERTEX
  5
   223
  8
0
  6
CONTINUOUS
 10
-37.6576569296812
 20
-5.82748599671333
 30
0.0
 40
0.0
 41
0.0
  0
VERTEX
  5
   224
  8
0
  6
CONTINUOUS
 10
-37.6849433721994
 20
-5.92073860823248
 30
0.0
 40
0.0
 41
0.0
  0
VERTEX
  5
   225
  8
0
  6
CONTINUOUS
 10
-37.714673067854
 20
-6.01286303977628
 30
0.0
 40
0.0
 41
0.0
  0
VERTEX
  5
   226
  8
0
  6
CONTINUOUS
 10
-37.7469559231241
 20
-6.10377639202161
 30
0.0
 40
0.0
 41
0.0
  0
VERTEX
  5
   227
  8
0
  6
CONTINUOUS
 10
-37.78187848796
 20
-6.19340894068695
 30
0.0
 40
0.0
 41
0.0
  0
VERTEX
  5
   228
  8
0
  6
CONTINUOUS
 10
-37.8195010638042
 20
-6.28170629274936
 30
0.0
 40
0.0
 41
0.0
  0
VERTEX
  5
   229
  8
0
  6
CONTINUOUS
 10
-37.8598548116121
 20
-6.36863154266136
 30
0.0
 40
0.0
 41
0.0
  0
VERTEX
  5
   22A
  8
0
  6
CONTINUOUS
 10
-37.9029388598727
 20
-6.45416742856786
 30
0.0
 40
0.0
 41
0.0
  0
VERTEX
  5
   22B
  8
0
  6
CONTINUOUS
 10
-37.9487174126288
 20
-6.53831848852312
 30
0.0
 40
0.0
 41
0.0
  0
VERTEX
  5
   22C
  8
0
  6
CONTINUOUS
 10
-38.0286864729316
 20
-6.67225301423163
 30
0.0
 40
0.0
 41
0.0
  0
VERTEX
  5
   22D
  8
0
  6
CONTINUOUS
 10
-38.1150390798986
 20
-6.8028706245178
 30
0.0
 40
0.0
 41
0.0
  0
VERTEX
  5
   22E
  8
0
  6
CONTINUOUS
 10
-38.2070185807485
 20
-6.93057610050436
 30
0.0
 40
0.0
 41
0.0
  0
VERTEX
  5
   22F
  8
0
  6
CONTINUOUS
 10
-38.3036968261118
 20
-7.05588455839049
 30
0.0
 40
0.0
 41
0.0
  0
VERTEX
  5
   230
  8
0
  6
CONTINUOUS
 10
-38.4040306042343
 20
-7.17938541424661
 30
0.0
 40
0.0
 41
0.0
  0
VERTEX
  5
   231
  8
0
  6
CONTINUOUS
 10
-38.5069180751816
 20
-7.30170634880901
 30
0.0
 40
0.0
 41
0.0
  0
VERTEX
  5
   232
  8
0
  6
CONTINUOUS
 10
-38.7159922001321
 20
-7.54529428909543
 30
0.0
 40
0.0
 41
0.0
  0
VERTEX
  5
   233
  8
0
  6
CONTINUOUS
 10
-38.9230764176215
 20
-7.79106578065651
 30
0.0
 40
0.0
 41
0.0
  0
VERTEX
  5
   234
  8
0
  6
CONTINUOUS
 10
-39.0492905438886
 20
-7.94743016342612
 30
0.0
 40
0.0
 41
0.0
  0
VERTEX
  5
   235
  8
0
  6
CONTINUOUS
 10
-39.1720926895887
 20
-8.10596637232394
 30
0.0
 40
0.0
 41
0.0
  0
VERTEX
  5
   236
  8
0
  6
CONTINUOUS
 10
-39.2915423579209
 20
-8.26650382153249
 30
0.0
 40
0.0
 41
0.0
  0
VERTEX
  5
   237
  8
0
  6
CONTINUOUS
 10
-39.4081581658554
 20
-8.42858806907501
 30
0.0
 40
0.0
 41
0.0
  0
VERTEX
  5
   238
  8
0
  6
CONTINUOUS
 10
-39.7506581208203
 20
-8.91693906781153
 30
0.0
 40
0.0
 41
0.0
  0
VERTEX
  5
   239
  8
0
  6
CONTINUOUS
 10
-39.8662782944218
 20
-9.07768851283964
 30
0.0
 40
0.0
 41
0.0
  0
VERTEX
  5
   23A
  8
0
  6
CONTINUOUS
 10
-39.9845157611785
 20
-9.2361542510314
 30
0.0
 40
0.0
 41
0.0
  0
VERTEX
  5
   23B
  8
0
  6
CONTINUOUS
 10
-40.1062266379697
 20
-9.39179843171584
 30
0.0
 40
0.0
 41
0.0
  0
VERTEX
  5
   23C
  8
0
  6
CONTINUOUS
 10
-40.2148341924907
 20
-9.52407326647005
 30
0.0
 40
0.0
 41
0.0
  0
VERTEX
  5
   23D
  8
0
  6
CONTINUOUS
 10
-40.3265164185618
 20
-9.65401373135785
 30
0.0
 40
0.0
 41
0.0
  0
VERTEX
  5
   23E
  8
0
  6
CONTINUOUS
 10
-40.4411382640661
 20
-9.78177164218492
 30
0.0
 40
0.0
 41
0.0
  0
VERTEX
  5
   23F
  8
0
  6
CONTINUOUS
 10
-40.5583926747722
 20
-9.90761915475169
 30
0.0
 40
0.0
 41
0.0
  0
VERTEX
  5
   240
  8
0
  6
CONTINUOUS
 10
-40.7989738488973
 20
-10.1550722676369
 30
0.0
 40
0.0
 41
0.0
  0
VERTEX
  5
   241
  8
0
  6
CONTINUOUS
 10
-41.2893768583179
 20
-10.6445457238492
 30
0.0
 40
0.0
 41
0.0
  0
VERTEX
  5
   242
  8
0
  6
CONTINUOUS
 10
-41.5940241015684
 20
-10.955109459031
 30
0.0
 40
0.0
 41
0.0
  0
VERTEX
  5
   243
  8
0
  6
CONTINUOUS
 10
-42.1954700483199
 20
-11.5793773921751
 30
0.0
 40
0.0
 41
0.0
  0
VERTEX
  5
   244
  8
0
  6
CONTINUOUS
 10
-42.347775221839
 20
-11.7326209485733
 30
0.0
 40
0.0
 41
0.0
  0
VERTEX
  5
   245
  8
0
  6
CONTINUOUS
 10
-42.502350507148
 20
-11.8833923677083
 30
0.0
 40
0.0
 41
0.0
  0
VERTEX
  5
   246
  8
0
  6
CONTINUOUS
 10
-42.6597994445063
 20
-12.0311806438999
 30
0.0
 40
0.0
 41
0.0
  0
VERTEX
  5
   247
  8
0
  6
CONTINUOUS
 10
-42.820512437592
 20
-12.1756813031234
 30
0.0
 40
0.0
 41
0.0
  0
VERTEX
  5
   248
  8
0
  6
CONTINUOUS
 10
-43.0155331612107
 20
-12.3428420590265
 30
0.0
 40
0.0
 41
0.0
  0
VERTEX
  5
   249
  8
0
  6
CONTINUOUS
 10
-43.2148025653934
 20
-12.5058862845384
 30
0.0
 40
0.0
 41
0.0
  0
VERTEX
  5
   24A
  8
0
  6
CONTINUOUS
 10
-43.4172492048293
 20
-12.6659017911538
 30
0.0
 40
0.0
 41
0.0
  0
VERTEX
  5
   24B
  8
0
  6
CONTINUOUS
 10
-43.8251700648084
 20
-12.9831565215351
 30
0.0
 40
0.0
 41
0.0
  0
VERTEX
  5
   24C
  8
0
  6
CONTINUOUS
 10
-44.0266982514479
 20
-13.144118085893
 30
0.0
 40
0.0
 41
0.0
  0
VERTEX
  5
   24D
  8
0
  6
CONTINUOUS
 10
-44.223788405618
 20
-13.3092210056989
 30
0.0
 40
0.0
 41
0.0
  0
VERTEX
  5
   24E
  8
0
  6
CONTINUOUS
 10
-44.3200234143467
 20
-13.3939001539125
 30
0.0
 40
0.0
 41
0.0
  0
VERTEX
  5
   24F
  8
0
  6
CONTINUOUS
 10
-44.4143963389803
 20
-13.4802759895322
 30
0.0
 40
0.0
 41
0.0
  0
VERTEX
  5
   250
  8
0
  6
CONTINUOUS
 10
-44.5066872140269
 20
-13.5685320080033
 30
0.0
 40
0.0
 41
0.0
  0
VERTEX
  5
   251
  8
0
  6
CONTINUOUS
 10
-44.5966985147177
 20
-13.65882641513
 30
0.0
 40
0.0
 41
0.0
  0
VERTEX
  5
   252
  8
0
  6
CONTINUOUS
 10
-44.6842594820077
 20
-13.751287836343
 30
0.0
 40
0.0
 41
0.0
  0
VERTEX
  5
   253
  8
0
  6
CONTINUOUS
 10
-44.7692304475773
 20
-13.8460110259679
 30
0.0
 40
0.0
 41
0.0
  0
VERTEX
  5
   254
  8
0
  6
CONTINUOUS
 10
-44.8316754293085
 20
-13.919148479824
 30
0.0
 40
0.0
 41
0.0
  0
VERTEX
  5
   255
  8
0
  6
CONTINUOUS
 10
-44.8925495771136
 20
-13.9936205060287
 30
0.0
 40
0.0
 41
0.0
  0
VERTEX
  5
   256
  8
0
  6
CONTINUOUS
 10
-44.9518345462706
 20
-14.0694233174704
 30
0.0
 40
0.0
 41
0.0
  0
VERTEX
  5
   257
  8
0
  6
CONTINUOUS
 10
-45.0095235348834
 20
-14.1465412902514
 30
0.0
 40
0.0
 41
0.0
  0
VERTEX
  5
   258
  8
0
  6
CONTINUOUS
 10
-45.0656205683129
 20
-14.2249479749392
 30
0.0
 40
0.0
 41
0.0
  0
VERTEX
  5
   259
  8
0
  6
CONTINUOUS
 10
-45.1201397836063
 20
-14.3046071078174
 30
0.0
 40
0.0
 41
0.0
  0
VERTEX
  5
   25A
  8
0
  6
CONTINUOUS
 10
-45.22454757299
 20
-14.467494659365
 30
0.0
 40
0.0
 41
0.0
  0
VERTEX
  5
   25B
  8
0
  6
CONTINUOUS
 10
-45.3230350414971
 20
-14.6347559770176
 30
0.0
 40
0.0
 41
0.0
  0
VERTEX
  5
   25C
  8
0
  6
CONTINUOUS
 10
-45.4160063181122
 20
-14.8058507844132
 30
0.0
 40
0.0
 41
0.0
  0
VERTEX
  5
   25D
  8
0
  6
CONTINUOUS
 10
-45.5039586241091
 20
-14.9801788567333
 30
0.0
 40
0.0
 41
0.0
  0
VERTEX
  5
   25E
  8
0
  6
CONTINUOUS
 10
-45.5874593748174
 20
-15.1571123807314
 30
0.0
 40
0.0
 41
0.0
  0
VERTEX
  5
   25F
  8
0
  6
CONTINUOUS
 10
-45.66712328139
 20
-15.3360283147627
 30
0.0
 40
0.0
 41
0.0
  0
VERTEX
  5
   260
  8
0
  6
CONTINUOUS
 10
-45.7435894525699
 20
-15.5163407488124
 30
0.0
 40
0.0
 41
0.0
  0
VERTEX
  5
   261
  8
0
  6
CONTINUOUS
 10
-45.8289676167773
 20
-15.7261721688122
 30
0.0
 40
0.0
 41
0.0
  0
VERTEX
  5
   262
  8
0
  6
CONTINUOUS
 10
-45.9118811358644
 20
-15.9365383326597
 30
0.0
 40
0.0
 41
0.0
  0
VERTEX
  5
   263
  8
0
  6
CONTINUOUS
 10
-46.2360650001272
 20
-16.7755771288026
 30
0.0
 40
0.0
 41
0.0
  0
VERTEX
  5
   264
  8
0
  6
CONTINUOUS
 10
-46.4033373787501
 20
-17.1912807391923
 30
0.0
 40
0.0
 41
0.0
  0
VERTEX
  5
   265
  8
0
  6
CONTINUOUS
 10
-46.4899241565071
 20
-17.3980883677176
 30
0.0
 40
0.0
 41
0.0
  0
VERTEX
  5
   266
  8
0
  6
CONTINUOUS
 10
-46.5787543139922
 20
-17.6042529023681
 30
0.0
 40
0.0
 41
0.0
  0
VERTEX
  5
   267
  8
0
  6
CONTINUOUS
 10
-46.7234874846221
 20
-17.9283926707999
 30
0.0
 40
0.0
 41
0.0
  0
VERTEX
  5
   268
  8
0
  6
CONTINUOUS
 10
-46.8731405849947
 20
-18.2509757795179
 30
0.0
 40
0.0
 41
0.0
  0
VERTEX
  5
   269
  8
0
  6
CONTINUOUS
 10
-47.026722933389
 20
-18.5717231529382
 30
0.0
 40
0.0
 41
0.0
  0
VERTEX
  5
   26A
  8
0
  6
CONTINUOUS
 10
-47.1836205216845
 20
-18.8900453691345
 30
0.0
 40
0.0
 41
0.0
  0
VERTEX
  5
   26B
  8
0
  6
CONTINUOUS
 10
-47.3443221036293
 20
-19.2049855534274
 30
0.0
 40
0.0
 41
0.0
  0
VERTEX
  5
   26C
  8
0
  6
CONTINUOUS
 10
-47.4261133418592
 20
-19.3596223585118
 30
0.0
 40
0.0
 41
0.0
  0
VERTEX
  5
   26D
  8
0
  6
CONTINUOUS
 10
-47.5098548534003
 20
-19.5128858329721
 30
0.0
 40
0.0
 41
0.0
  0
VERTEX
  5
   26E
  8
0
  6
CONTINUOUS
 10
-47.5961327741862
 20
-19.6645537675075
 30
0.0
 40
0.0
 41
0.0
  0
VERTEX
  5
   26F
  8
0
  6
CONTINUOUS
 10
-47.6855864464957
 20
-19.8144038150727
 30
0.0
 40
0.0
 41
0.0
  0
VERTEX
  5
   270
  8
0
  6
CONTINUOUS
 10
-47.7788575248224
 20
-19.9622280320566
 30
0.0
 40
0.0
 41
0.0
  0
VERTEX
  5
   271
  8
0
  6
CONTINUOUS
 10
-47.8765390817446
 20
-20.1078474194623
 30
0.0
 40
0.0
 41
0.0
  0
VERTEX
  5
   272
  8
0
  6
CONTINUOUS
 10
-47.9791247137951
 20
-20.2511264640867
 30
0.0
 40
0.0
 41
0.0
  0
VERTEX
  5
   273
  8
0
  6
CONTINUOUS
 10
-48.0869576473305
 20
-20.3919876796999
 30
0.0
 40
0.0
 41
0.0
  0
VERTEX
  5
   274
  8
0
  6
CONTINUOUS
 10
-48.2001798444015
 20
-20.5304261482248
 30
0.0
 40
0.0
 41
0.0
  0
VERTEX
  5
   275
  8
0
  6
CONTINUOUS
 10
-48.3186811086219
 20
-20.6665240609164
 30
0.0
 40
0.0
 41
0.0
  0
VERTEX
  5
   276
  8
0
  6
CONTINUOUS
 10
-48.4150782534868
 20
-20.7717635306882
 30
0.0
 40
0.0
 41
0.0
  0
VERTEX
  5
   277
  8
0
  6
CONTINUOUS
 10
-48.5141349147584
 20
-20.8758092619276
 30
0.0
 40
0.0
 41
0.0
  0
VERTEX
  5
   278
  8
0
  6
CONTINUOUS
 10
-48.7182874692573
 20
-21.0810508153296
 30
0.0
 40
0.0
 41
0.0
  0
VERTEX
  5
   279
  8
0
  6
CONTINUOUS
 10
-49.1324042007541
 20
-21.4868336513077
 30
0.0
 40
0.0
 41
0.0
  0
VERTEX
  5
   27A
  8
0
  6
CONTINUOUS
 10
-49.2326703830543
 20
-21.5889145873466
 30
0.0
 40
0.0
 41
0.0
  0
VERTEX
  5
   27B
  8
0
  6
CONTINUOUS
 10
-49.3299912665073
 20
-21.6918402664255
 30
0.0
 40
0.0
 41
0.0
  0
VERTEX
  5
   27C
  8
0
  6
CONTINUOUS
 10
-49.4235516145899
 20
-21.7959056879614
 30
0.0
 40
0.0
 41
0.0
  0
VERTEX
  5
   27D
  8
0
  6
CONTINUOUS
 10
-49.5125649943476
 20
-21.9013972484245
 30
0.0
 40
0.0
 41
0.0
  0
VERTEX
  5
   27E
  8
0
  6
CONTINUOUS
 10
-49.5962900597728
 20
-22.0085874811719
 30
0.0
 40
0.0
 41
0.0
  0
VERTEX
  5
   27F
  8
0
  6
CONTINUOUS
 10
-49.6740468351834
 20
-22.1177297962829
 30
0.0
 40
0.0
 41
0.0
  0
VERTEX
  5
   280
  8
0
  6
CONTINUOUS
 10
-49.7452329986007
 20
-22.2290532203928
 30
0.0
 40
0.0
 41
0.0
  0
VERTEX
  5
   281
  8
0
  6
CONTINUOUS
 10
-49.8093401651283
 20
-22.3427571365279
 30
0.0
 40
0.0
 41
0.0
  0
VERTEX
  5
   282
  8
0
  6
CONTINUOUS
 10
-49.8386099474367
 20
-22.4005546861325
 30
0.0
 40
0.0
 41
0.0
  0
VERTEX
  5
   283
  8
0
  6
CONTINUOUS
 10
-49.8659701703298
 20
-22.45900602394
 30
0.0
 40
0.0
 41
0.0
  0
VERTEX
  5
   284
  8
0
  6
CONTINUOUS
 10
-49.8913909566918
 20
-22.5181253931462
 30
0.0
 40
0.0
 41
0.0
  0
VERTEX
  5
   285
  8
0
  6
CONTINUOUS
 10
-49.9148513536078
 20
-22.5779241979403
 30
0.0
 40
0.0
 41
0.0
  0
VERTEX
  5
   286
  8
0
  6
CONTINUOUS
 10
-49.9363398412198
 20
-22.6384108391246
 30
0.0
 40
0.0
 41
0.0
  0
VERTEX
  5
   287
  8
0
  6
CONTINUOUS
 10
-49.9558548415817
 20
-22.6995905497346
 30
0.0
 40
0.0
 41
0.0
  0
VERTEX
  5
   288
  8
0
  6
CONTINUOUS
 10
-49.9734052275155
 20
-22.7614652306584
 30
0.0
 40
0.0
 41
0.0
  0
VERTEX
  5
   289
  8
0
  6
CONTINUOUS
 10
-49.9890108314664
 20
-22.8240332862572
 30
0.0
 40
0.0
 41
0.0
  0
VERTEX
  5
   28A
  8
0
  6
CONTINUOUS
 10
-50.0047554413711
 20
-22.8976612019038
 30
0.0
 40
0.0
 41
0.0
  0
VERTEX
  5
   28B
  8
0
  6
CONTINUOUS
 10
-50.0179816338646
 20
-22.9722050111457
 30
0.0
 40
0.0
 41
0.0
  0
VERTEX
  5
   28C
  8
0
  6
CONTINUOUS
 10
-50.0287785296796
 20
-23.0476436087821
 30
0.0
 40
0.0
 41
0.0
  0
VERTEX
  5
   28D
  8
0
  6
CONTINUOUS
 10
-50.0372536536442
 20
-23.1239498544954
 30
0.0
 40
0.0
 41
0.0
  0
VERTEX
  5
   28E
  8
0
  6
CONTINUOUS
 10
-50.0435311829812
 20
-23.2010910536714
 30
0.0
 40
0.0
 41
0.0
  0
VERTEX
  5
   28F
  8
0
  6
CONTINUOUS
 10
-50.0477501956075
 20
-23.2790294382178
 30
0.0
 40
0.0
 41
0.0
  0
VERTEX
  5
   290
  8
0
  6
CONTINUOUS
 10
-50.0506329756619
 20
-23.4371242085802
 30
0.0
 40
0.0
 41
0.0
  0
VERTEX
  5
   291
  8
0
  6
CONTINUOUS
 10
-50.0472460663974
 20
-23.5978488224255
 30
0.0
 40
0.0
 41
0.0
  0
VERTEX
  5
   292
  8
0
  6
CONTINUOUS
 10
-50.0390598426638
 20
-23.7607675333913
 30
0.0
 40
0.0
 41
0.0
  0
VERTEX
  5
   293
  8
0
  6
CONTINUOUS
 10
-49.9890108314664
 20
-24.4247659373166
 30
0.0
 40
0.0
 41
0.0
  0
VERTEX
  5
   294
  8
0
  6
CONTINUOUS
 10
-49.9782754597228
 20
-24.6151470722734
 30
0.0
 40
0.0
 41
0.0
  0
VERTEX
  5
   295
  8
0
  6
CONTINUOUS
 10
-49.9723525063678
 20
-24.8046442609763
 30
0.0
 40
0.0
 41
0.0
  0
VERTEX
  5
   296
  8
0
  6
CONTINUOUS
 10
-49.9724954976356
 20
-24.9927030661309
 30
0.0
 40
0.0
 41
0.0
  0
VERTEX
  5
   297
  8
0
  6
CONTINUOUS
 10
-49.9796724480558
 20
-25.1788316161205
 30
0.0
 40
0.0
 41
0.0
  0
VERTEX
  5
   298
  8
0
  6
CONTINUOUS
 10
-49.9861319995373
 20
-25.2710343532933
 30
0.0
 40
0.0
 41
0.0
  0
VERTEX
  5
   299
  8
0
  6
CONTINUOUS
 10
-49.9946020525772
 20
-25.3625961755665
 30
0.0
 40
0.0
 41
0.0
  0
VERTEX
  5
   29A
  8
0
  6
CONTINUOUS
 10
-50.0051394256299
 20
-25.4534712231002
 30
0.0
 40
0.0
 41
0.0
  0
VERTEX
  5
   29B
  8
0
  6
CONTINUOUS
 10
-50.0177898786914
 20
-25.5436167158895
 30
0.0
 40
0.0
 41
0.0
  0
VERTEX
  5
   29C
  8
0
  6
CONTINUOUS
 10
-50.0325892443032
 20
-25.6329928153444
 30
0.0
 40
0.0
 41
0.0
  0
VERTEX
  5
   29D
  8
0
  6
CONTINUOUS
 10
-50.0495645585561
 20
-25.7215624858699
 30
0.0
 40
0.0
 41
0.0
  0
VERTEX
  5
   29E
  8
0
  6
CONTINUOUS
 10
-50.0687351920944
 20
-25.8092913564462
 30
0.0
 40
0.0
 41
0.0
  0
VERTEX
  5
   29F
  8
0
  6
CONTINUOUS
 10
-50.0901139811192
 20
-25.8961475822085
 30
0.0
 40
0.0
 41
0.0
  0
VERTEX
  5
   2A0
  8
0
  6
CONTINUOUS
 10
-50.1137083583927
 20
-25.9821017060272
 30
0.0
 40
0.0
 41
0.0
  0
VERTEX
  5
   2A1
  8
0
  6
CONTINUOUS
 10
-50.1395214842418
 20
-26.0671265200876
 30
0.0
 40
0.0
 41
0.0
  0
VERTEX
  5
   2A2
  8
0
  6
CONTINUOUS
 10
-50.1675533775622
 20
-26.1511969274705
 30
0.0
 40
0.0
 41
0.0
  0
VERTEX
  5
   2A3
  8
0
  6
CONTINUOUS
 10
-50.197802046822
 20
-26.2342898037315
 30
0.0
 40
0.0
 41
0.0
  0
VERTEX
  5
   2A4
  8
0
  6
CONTINUOUS
 10
-50.2371435833903
 20
-26.3329706799233
 30
0.0
 40
0.0
 41
0.0
  0
VERTEX
  5
   2A5
  8
0
  6
CONTINUOUS
 10
-50.279687072296
 20
-26.4301709561747
 30
0.0
 40
0.0
 41
0.0
  0
VERTEX
  5
   2A6
  8
0
  6
CONTINUOUS
 10
-50.3254279934567
 20
-26.5258601674124
 30
0.0
 40
0.0
 41
0.0
  0
VERTEX
  5
   2A7
  8
0
  6
CONTINUOUS
 10
-50.3743623018934
 20
-26.6200110507319
 30
0.0
 40
0.0
 41
0.0
  0
VERTEX
  5
   2A8
  8
0
  6
CONTINUOUS
 10
-50.4264864013363
 20
-26.7125993674983
 30
0.0
 40
0.0
 41
0.0
  0
VERTEX
  5
   2A9
  8
0
  6
CONTINUOUS
 10
-50.4817971178297
 20
-26.8036037254486
 30
0.0
 40
0.0
 41
0.0
  0
VERTEX
  5
   2AA
  8
0
  6
CONTINUOUS
 10
-50.5402916733374
 20
-26.8930054007936
 30
0.0
 40
0.0
 41
0.0
  0
VERTEX
  5
   2AB
  8
0
  6
CONTINUOUS
 10
-50.6019676593486
 20
-26.980788160319
 30
0.0
 40
0.0
 41
0.0
  0
VERTEX
  5
   2AC
  8
0
  6
CONTINUOUS
 10
-50.6668230104823
 20
-27.0669380834879
 30
0.0
 40
0.0
 41
0.0
  0
VERTEX
  5
   2AD
  8
0
  6
CONTINUOUS
 10
-50.7348559780937
 20
-27.151443384542
 30
0.0
 40
0.0
 41
0.0
  0
VERTEX
  5
   2AE
  8
0
  6
CONTINUOUS
 10
-50.8060651038788
 20
-27.2342942346039
 30
0.0
 40
0.0
 41
0.0
  0
VERTEX
  5
   2AF
  8
0
  6
CONTINUOUS
 10
-50.8804491934799
 20
-27.3154825837783
 30
0.0
 40
0.0
 41
0.0
  0
VERTEX
  5
   2B0
  8
0
  6
CONTINUOUS
 10
-50.9580072900914
 20
-27.3950019832541
 30
0.0
 40
0.0
 41
0.0
  0
VERTEX
  5
   2B1
  8
0
  6
CONTINUOUS
 10
-51.0387386480646
 20
-27.4728474074061
 30
0.0
 40
0.0
 41
0.0
  0
VERTEX
  5
   2B2
  8
0
  6
CONTINUOUS
 10
-51.1226427065134
 20
-27.5490150758969
 30
0.0
 40
0.0
 41
0.0
  0
VERTEX
  5
   2B3
  8
0
  6
CONTINUOUS
 10
-51.2097190629195
 20
-27.6235022757782
 30
0.0
 40
0.0
 41
0.0
  0
VERTEX
  5
   2B4
  8
0
  6
CONTINUOUS
 10
-51.2999674467378
 20
-27.6963071835933
 30
0.0
 40
0.0
 41
0.0
  0
VERTEX
  5
   2B5
  8
0
  6
CONTINUOUS
 10
-51.3933876930018
 20
-27.767428687478
 30
0.0
 40
0.0
 41
0.0
  0
VERTEX
  5
   2B6
  8
0
  6
CONTINUOUS
 10
-51.4899797159288
 20
-27.8368662092632
 30
0.0
 40
0.0
 41
0.0
  0
VERTEX
  5
   2B7
  8
0
  6
CONTINUOUS
 10
-51.5897434825258
 20
-27.904619526576
 30
0.0
 40
0.0
 41
0.0
  0
SEQEND
  5
   2B8
  8
0
  6
CONTINUOUS
 62
     7
  0
LINE
  5
   2B9
  8
0
  6
CONTINUOUS
 62
     7
 10
-35.5368898912662
 20
6.8663920274048E-6
 30
0.0
 11
68.7500079259097
 21
6.8663920274048E-6
 31
0.0
  0
ENDBLK
  5
   2BA
  8
0
  6
CONTINUOUS
 62
     7
  0
BLOCK
  5
   2BB
  8
0
  6
CONTINUOUS
 62
     7
  2
MOSTRINA
 70
    64
 10
0.0
 20
0.0
 30
0.0
  3
MOSTRINA
  0
LINE
  5
   2BC
  8
0
  6
CONTINUOUS
 62
     3
 10
173.338256835938
 20
30.7306251525879
 30
0.0
 11
173.338256835938
 21
189.230621337891
 31
0.0
  0
LINE
  5
   2BD
  8
0
  6
CONTINUOUS
 62
     3
 10
57.5882568359375
 20
29.4806251525879
 30
0.0
 11
172.088256835938
 21
29.4806251525879
 31
0.0
  0
LINE
  5
   2BE
  8
0
  6
CONTINUOUS
 62
     3
 10
56.3382568359375
 20
30.7306251525879
 30
0.0
 11
56.3382568359375
 21
189.230621337891
 31
0.0
  0
LINE
  5
   2BF
  8
0
  6
CONTINUOUS
 62
     3
 10
57.5882568359375
 20
190.480621337891
 30
0.0
 11
172.088256835938
 21
190.480621337891
 31
0.0
  0
LINE
  5
   2C0
  8
0
  6
CONTINUOUS
 62
     3
 10
167.838256835938
 20
56.9806251525879
 30
0.0
 11
167.838256835938
 21
162.980625152588
 31
0.0
  0
LINE
  5
   2C1
  8
0
  6
CONTINUOUS
 62
     3
 10
61.8382568359375
 20
56.9806251525879
 30
0.0
 11
167.838256835938
 21
56.9806251525879
 31
0.0
  0
LINE
  5
   2C2
  8
0
  6
CONTINUOUS
 62
     3
 10
61.8382568359375
 20
56.9806251525879
 30
0.0
 11
61.8382568359375
 21
162.980625152588
 31
0.0
  0
LINE
  5
   2C3
  8
0
  6
CONTINUOUS
 62
     3
 10
61.8382568359375
 20
162.980621337891
 30
0.0
 11
167.838256835938
 21
162.980621337891
 31
0.0
  0
LINE
  5
   2C4
  8
0
  6
CONTINUOUS
 62
     3
 10
168.838256835938
 20
48.4806251525879
 30
0.0
 11
168.838256835938
 21
49.4806251525879
 31
0.0
  0
LINE
  5
   2C5
  8
0
  6
CONTINUOUS
 62
     3
 10
61.8382568359375
 20
50.4806251525879
 30
0.0
 11
167.838256835938
 21
50.4806251525879
 31
0.0
  0
LINE
  5
   2C6
  8
0
  6
CONTINUOUS
 62
     3
 10
60.8382568359375
 20
48.4806251525879
 30
0.0
 11
60.8382568359375
 21
49.4806251525879
 31
0.0
  0
LINE
  5
   2C7
  8
0
  6
CONTINUOUS
 62
     3
 10
61.8382568359375
 20
49.4806251525879
 30
0.0
 11
167.838256835938
 21
49.4806251525879
 31
0.0
  0
LINE
  5
   2C8
  8
0
  6
CONTINUOUS
 62
     3
 10
60.8382568359375
 20
29.4806251525879
 30
0.0
 11
60.8382568359375
 21
48.4806251525879
 31
0.0
  0
LINE
  5
   2C9
  8
0
  6
CONTINUOUS
 62
     3
 10
60.8382568359375
 20
49.4806213378906
 30
0.0
 11
60.8382568359375
 21
190.480621337891
 31
0.0
  0
LINE
  5
   2CA
  8
0
  6
CONTINUOUS
 62
     3
 10
61.8382568359375
 20
29.4806251525879
 30
0.0
 11
61.8382568359375
 21
49.4806251525879
 31
0.0
  0
LINE
  5
   2CB
  8
0
  6
CONTINUOUS
 62
     3
 10
61.8382568359375
 20
162.980621337891
 30
0.0
 11
61.8382568359375
 21
169.480621337891
 31
0.0
  0
LINE
  5
   2CC
  8
0
  6
CONTINUOUS
 62
     3
 10
61.8382568359375
 20
50.4806251525879
 30
0.0
 11
61.8382568359375
 21
56.9806251525879
 31
0.0
  0
LINE
  5
   2CD
  8
0
  6
CONTINUOUS
 62
     3
 10
168.838256835938
 20
29.4806251525879
 30
0.0
 11
168.838256835938
 21
48.4806251525879
 31
0.0
  0
LINE
  5
   2CE
  8
0
  6
CONTINUOUS
 62
     3
 10
168.838256835938
 20
49.4806251525879
 30
0.0
 11
168.838256835938
 21
190.480621337891
 31
0.0
  0
LINE
  5
   2CF
  8
0
  6
CONTINUOUS
 62
     3
 10
167.838256835938
 20
50.4806251525879
 30
0.0
 11
167.838256835938
 21
56.9806251525879
 31
0.0
  0
LINE
  5
   2D0
  8
0
  6
CONTINUOUS
 62
     3
 10
167.838256835938
 20
162.980621337891
 30
0.0
 11
167.838256835938
 21
169.480621337891
 31
0.0
  0
LINE
  5
   2D1
  8
0
  6
CONTINUOUS
 62
     3
 10
167.838256835938
 20
29.4806251525879
 30
0.0
 11
167.838256835938
 21
49.4806251525879
 31
0.0
  0
LINE
  5
   2D2
  8
0
  6
CONTINUOUS
 62
     3
 10
60.8382568359375
 20
170.480621337891
 30
0.0
 11
168.838256835938
 21
170.480621337891
 31
0.0
  0
LINE
  5
   2D3
  8
0
  6
CONTINUOUS
 62
     3
 10
61.8382568359375
 20
169.480621337891
 30
0.0
 11
167.838256835938
 21
169.480621337891
 31
0.0
  0
ARC
  5
   2D4
  8
0
  6
CONTINUOUS
 62
     3
 10
57.5882568359375
 20
30.7306251525879
 30
0.0
 40
1.25
 50
180.0
 51
270.0
  0
ARC
  5
   2D5
  8
0
  6
CONTINUOUS
 62
     3
 10
172.088256835938
 20
30.7306251525879
 30
0.0
 40
1.25
 50
270.0
 51
360.0
  0
ARC
  5
   2D6
  8
0
  6
CONTINUOUS
 62
     3
 10
172.088256835938
 20
189.230621337891
 30
0.0
 40
1.25
 50
0.0
 51
90.0
  0
ARC
  5
   2D7
  8
0
  6
CONTINUOUS
 62
     3
 10
57.5882568359375
 20
189.230621337891
 30
0.0
 40
1.25
 50
90.0
 51
180.0
  0
LINE
  5
   2D8
  8
0
  6
DOT
 62
     3
 10
60.3382577409677
 20
179.7306252571
 30
0.0
 11
60.8382568359375
 21
179.7306252571
 31
0.0
  0
LINE
  5
   2D9
  8
0
  6
DOT
 62
     3
 10
60.3382577409676
 20
181.2306252571
 30
0.0
 11
60.8382568359375
 21
181.2306252571
 31
0.0
  0
LINE
  5
   2DA
  8
0
  6
CONTINUOUS
 62
     3
 10
168.338257745313
 20
179.730625257273
 30
0.0
 11
168.838256835938
 21
179.730625257273
 31
0.0
  0
LINE
  5
   2DB
  8
0
  6
CONTINUOUS
 62
     3
 10
168.338257745314
 20
181.230625257273
 30
0.0
 11
168.838256835938
 21
181.230625257273
 31
0.0
  0
ARC
  5
   2DC
  8
0
  6
DOT
 62
     3
 10
60.3382577401871
 20
180.480625257147
 30
0.0
 40
0.749999999345164
 50
90.0
 51
270.0
  0
ARC
  5
   2DD
  8
0
  6
CONTINUOUS
 62
     3
 10
61.338257740822
 20
180.480625256974
 30
0.0
 40
0.750000000009701
 50
270.0
 51
450.0
  0
LINE
  5
   2DE
  8
0
  6
CONTINUOUS
 62
     3
 10
60.8382568359375
 20
181.2306252571
 30
0.0
 11
61.3382577409688
 21
181.2306252571
 31
0.0
  0
LINE
  5
   2DF
  8
0
  6
CONTINUOUS
 62
     3
 10
60.8382568359375
 20
179.7306252571
 30
0.0
 11
61.3382577409689
 21
179.7306252571
 31
0.0
  0
ARC
  5
   2E0
  8
0
  6
CONTINUOUS
 62
     3
 10
168.338257745503
 20
180.480625256952
 30
0.0
 40
0.750000000048506
 50
90.0000000038822
 51
269.999999996024
  0
ARC
  5
   2E1
  8
0
  6
DOT
 62
     3
 10
169.338257745421
 20
180.480625256965
 30
0.0
 40
0.750000000029104
 50
270.000000002449
 51
449.999999997486
  0
LINE
  5
   2E2
  8
0
  6
DOT
 62
     3
 10
168.838256835938
 20
181.230625257273
 30
0.0
 11
169.338257745315
 21
181.230625257273
 31
0.0
  0
LINE
  5
   2E3
  8
0
  6
DOT
 62
     3
 10
168.838256835938
 20
179.730625257273
 30
0.0
 11
169.338257745315
 21
179.730625257273
 31
0.0
  0
POINT
  5
   2E4
  8
0
  6
CONTINUOUS
 62
     3
 10
114.838256835938
 20
109.980621337891
 30
0.0
  0
ENDBLK
  5
   2E5
  8
0
  6
CONTINUOUS
 62
     7
  0
BLOCK
  5
   2E6
  8
0
  6
CONTINUOUS
 62
     7
  2
*UDIM519
 70
    65
 10
0.0
 20
0.0
 30
0.0
  3
*UDIM519
  0
TEXT
  5
   2E7
  8
0
  6
CONTINUOUS
 62
     7
 10
-630.828060959984
 20
-49.8776435816875
 30
0.0
 40
3.00000002980232
  1
117
 50
359.999999948034
 41
0.933333333333333
 72
     1
 11
-626.928060919888
 21
-48.3776435703039
 31
0.0
 73
     2
  0
LINE
  5
   2E8
  8
0
  6
CONTINUOUS
 62
     7
 10
-597.403061599381
 20
-18.2178478240967
 30
0.0
 11
-597.403061599381
 21
-52.8776435852051
 31
0.0
  0
LINE
  5
   2E9
  8
0
  6
CONTINUOUS
 62
     7
 10
-655.903061599381
 20
-18.2178478240967
 30
0.0
 11
-655.903061599381
 21
-52.8776435852051
 31
0.0
  0
LINE
  5
   2EA
  8
0
  6
CONTINUOUS
 62
     7
 10
-597.403061599381
 20
-50.8776435852051
 30
0.0
 11
-655.903061599381
 21
-50.8776435852051
 31
0.0
  0
LINE
  5
   2EB
  8
0
  6
CONTINUOUS
 62
     7
 10
-600.357484876588
 20
-51.3985880151567
 30
0.0
 11
-597.403061599381
 21
-50.8776435852051
 31
0.0
  0
LINE
  5
   2EC
  8
0
  6
CONTINUOUS
 62
     7
 10
-597.403061599381
 20
-50.8776435852051
 30
0.0
 11
-600.357484876588
 21
-50.3566991552534
 31
0.0
  0
LINE
  5
   2ED
  8
0
  6
CONTINUOUS
 62
     7
 10
-652.948638322174
 20
-50.3566991552534
 30
0.0
 11
-655.903061599381
 21
-50.8776435852051
 31
0.0
  0
LINE
  5
   2EE
  8
0
  6
CONTINUOUS
 62
     7
 10
-655.903061599381
 20
-50.8776435852051
 30
0.0
 11
-652.948638322174
 21
-51.3985880151568
 31
0.0
  0
ENDBLK
  5
   2EF
  8
0
  6
CONTINUOUS
 62
     7
  0
BLOCK
  5
   2F0
  8
0
  6
CONTINUOUS
 62
     7
  2
*UDIM520
 70
    65
 10
0.0
 20
0.0
 30
0.0
  3
*UDIM520
  0
TEXT
  5
   2F1
  8
0
  6
CONTINUOUS
 62
     7
 10
-570.758879665092
 20
18.2321502224926
 30
0.0
 40
3.00000002980232
  1
161
 50
89.9999999480344
 41
0.933333333333333
 72
     1
 11
-572.258879676461
 21
22.1321502625942
 31
0.0
 73
     2
  0
LINE
  5
   2F2
  8
0
  6
CONTINUOUS
 62
     7
 10
-597.028061599381
 20
-17.8428478240967
 30
0.0
 11
-567.75887966156
 21
-17.8428478240967
 31
0.0
  0
LINE
  5
   2F3
  8
0
  6
CONTINUOUS
 62
     7
 10
-597.028061599381
 20
62.6571502685547
 30
0.0
 11
-567.75887966156
 21
62.6571502685547
 31
0.0
  0
LINE
  5
   2F4
  8
0
  6
CONTINUOUS
 62
     7
 10
-569.75887966156
 20
-17.8428478240967
 30
0.0
 11
-569.75887966156
 21
62.6571502685547
 31
0.0
  0
LINE
  5
   2F5
  8
0
  6
CONTINUOUS
 62
     7
 10
-570.279824091512
 20
-14.8884245468897
 30
0.0
 11
-569.75887966156
 21
-17.8428478240967
 31
0.0
  0
LINE
  5
   2F6
  8
0
  6
CONTINUOUS
 62
     7
 10
-569.75887966156
 20
-17.8428478240967
 30
0.0
 11
-569.237935231608
 21
-14.8884245468897
 31
0.0
  0
LINE
  5
   2F7
  8
0
  6
CONTINUOUS
 62
     7
 10
-569.237935231608
 20
59.7027269913477
 30
0.0
 11
-569.75887966156
 21
62.6571502685547
 31
0.0
  0
LINE
  5
   2F8
  8
0
  6
CONTINUOUS
 62
     7
 10
-569.75887966156
 20
62.6571502685547
 30
0.0
 11
-570.279824091512
 21
59.7027269913477
 31
0.0
  0
ENDBLK
  5
   2F9
  8
0
  6
CONTINUOUS
 62
     7
  0
BLOCK
  5
   2FA
  8
0
  6
CONTINUOUS
 62
     7
  2
*UDIM521
 70
    65
 10
0.0
 20
0.0
 30
0.0
  3
*UDIM521
  0
TEXT
  5
   2FB
  8
0
  6
CONTINUOUS
 62
     7
 10
-560.85019874926
 20
17.3571387784008
 30
0.0
 40
3.00000002980232
  1
259
 50
89.9999999480344
 41
0.933333333333333
 72
     1
 11
-562.350198760629
 21
21.2571388185024
 31
0.0
 73
     2
  0
LINE
  5
   2FC
  8
0
  6
CONTINUOUS
 62
     7
 10
-591.278058929757
 20
-43.2178607940359
 30
0.0
 11
-557.850198745728
 21
-43.2178607940359
 31
0.0
  0
LINE
  5
   2FD
  8
0
  6
CONTINUOUS
 62
     7
 10
-591.278058929757
 20
86.2821460723562
 30
0.0
 11
-557.850198745728
 21
86.2821460723562
 31
0.0
  0
LINE
  5
   2FE
  8
0
  6
CONTINUOUS
 62
     7
 10
-559.850198745728
 20
-43.2178607940359
 30
0.0
 11
-559.850198745728
 21
86.2821460723562
 31
0.0
  0
LINE
  5
   2FF
  8
0
  6
CONTINUOUS
 62
     7
 10
-560.371143175679
 20
-40.2634375168289
 30
0.0
 11
-559.850198745728
 21
-43.2178607940359
 31
0.0
  0
LINE
  5
   300
  8
0
  6
CONTINUOUS
 62
     7
 10
-559.850198745728
 20
-43.2178607940359
 30
0.0
 11
-559.329254315776
 21
-40.2634375168289
 31
0.0
  0
LINE
  5
   301
  8
0
  6
CONTINUOUS
 62
     7
 10
-559.329254315776
 20
83.3277227951492
 30
0.0
 11
-559.850198745728
 21
86.2821460723562
 31
0.0
  0
LINE
  5
   302
  8
0
  6
CONTINUOUS
 62
     7
 10
-559.850198745728
 20
86.2821460723562
 30
0.0
 11
-560.371143175679
 21
83.3277227951492
 31
0.0
  0
ENDBLK
  5
   303
  8
0
  6
CONTINUOUS
 62
     7
  0
BLOCK
  5
   304
  8
0
  6
CONTINUOUS
 62
     7
  2
*UDIM522
 70
    65
 10
0.0
 20
0.0
 30
0.0
  3
*UDIM522
  0
TEXT
  5
   305
  8
0
  6
CONTINUOUS
 62
     7
 10
-580.110997922604
 20
45.969650198635
 30
0.0
 40
3.00000002980232
  1
127,75
 50
89.9999999480344
 41
0.933333333333333
 72
     1
 11
-581.610997930169
 21
54.0696502804599
 31
0.0
 73
     2
  0
LINE
  5
   306
  8
0
  6
CONTINUOUS
 62
     7
 10
-581.184329589207
 20
22.4071502685547
 30
0.0
 11
-577.110997915268
 21
22.4071502685547
 31
0.0
  0
LINE
  5
   307
  8
0
  6
CONTINUOUS
 62
     7
 10
-591.278058929757
 20
86.2821460723562
 30
0.0
 11
-577.110997915268
 21
86.2821460723562
 31
0.0
  0
LINE
  5
   308
  8
0
  6
CONTINUOUS
 62
     7
 10
-579.110997915268
 20
22.4071502685547
 30
0.0
 11
-579.110997915268
 21
86.2821460723562
 31
0.0
  0
LINE
  5
   309
  8
0
  6
CONTINUOUS
 62
     7
 10
-579.63194234522
 20
25.3615735457617
 30
0.0
 11
-579.110997915268
 21
22.4071502685547
 31
0.0
  0
LINE
  5
   30A
  8
0
  6
CONTINUOUS
 62
     7
 10
-579.110997915268
 20
22.4071502685547
 30
0.0
 11
-578.590053485316
 21
25.3615735457617
 31
0.0
  0
LINE
  5
   30B
  8
0
  6
CONTINUOUS
 62
     7
 10
-578.590053485316
 20
83.3277227951492
 30
0.0
 11
-579.110997915268
 21
86.2821460723562
 31
0.0
  0
LINE
  5
   30C
  8
0
  6
CONTINUOUS
 62
     7
 10
-579.110997915268
 20
86.2821460723562
 30
0.0
 11
-579.63194234522
 21
83.3277227951492
 31
0.0
  0
ENDBLK
  5
   30D
  8
0
  6
CONTINUOUS
 62
     7
  0
BLOCK
  5
   30E
  8
0
  6
CONTINUOUS
 62
     7
  2
*UDIM523
 70
    65
 10
0.0
 20
0.0
 30
0.0
  3
*UDIM523
  0
TEXT
  5
   30F
  8
0
  6
CONTINUOUS
 62
     7
 10
-669.749633796399
 20
45.3446501807694
 30
0.0
 40
3.00000002980232
  1
125,25
 50
89.9999999480344
 41
0.933333333333333
 72
     1
 11
-671.249633803964
 21
53.4446502625942
 31
0.0
 73
     2
  0
LINE
  5
   310
  8
0
  6
CONTINUOUS
 62
     7
 10
-660.903038024902
 20
85.0321426391602
 30
0.0
 11
-670.749633789062
 21
85.0321426391602
 31
0.0
  0
LINE
  5
   311
  8
0
  6
CONTINUOUS
 62
     7
 10
-668.749633789063
 20
22.4071502685547
 30
0.0
 11
-668.749633789063
 21
85.0321426391602
 31
0.0
  0
LINE
  5
   312
  8
0
  6
CONTINUOUS
 62
     7
 10
-669.270578219014
 20
25.3615735457617
 30
0.0
 11
-668.749633789063
 21
22.4071502685547
 31
0.0
  0
LINE
  5
   313
  8
0
  6
CONTINUOUS
 62
     7
 10
-668.749633789063
 20
22.4071502685547
 30
0.0
 11
-668.228689359111
 21
25.3615735457617
 31
0.0
  0
LINE
  5
   314
  8
0
  6
CONTINUOUS
 62
     7
 10
-668.228689359111
 20
82.0777193619532
 30
0.0
 11
-668.749633789063
 21
85.0321426391602
 31
0.0
  0
LINE
  5
   315
  8
0
  6
CONTINUOUS
 62
     7
 10
-668.749633789063
 20
85.0321426391602
 30
0.0
 11
-669.270578219014
 21
82.0777193619532
 31
0.0
  0
ENDBLK
  5
   316
  8
0
  6
CONTINUOUS
 62
     7
  0
BLOCK
  5
   317
  8
0
  6
CONTINUOUS
 62
     7
  2
*UDIM524
 70
    65
 10
0.0
 20
0.0
 30
0.0
  3
*UDIM524
  0
TEXT
  5
   318
  8
0
  6
CONTINUOUS
 62
     7
 10
-630.828064774674
 20
95.0698699986348
 30
0.0
 40
3.00000002980232
  1
105
 50
359.999999948034
 41
0.933333333333333
 72
     1
 11
-626.928064734578
 21
96.5698700100184
 31
0.0
 73
     2
  0
LINE
  5
   319
  8
0
  6
CONTINUOUS
 62
     7
 10
-600.403069228775
 20
49.4071502685547
 30
0.0
 11
-600.403069228775
 21
96.0698699951172
 31
0.0
  0
LINE
  5
   31A
  8
0
  6
CONTINUOUS
 62
     7
 10
-652.903061599367
 20
49.4071502685547
 30
0.0
 11
-652.903061599367
 21
96.0698699951172
 31
0.0
  0
LINE
  5
   31B
  8
0
  6
CONTINUOUS
 62
     7
 10
-600.403069228775
 20
94.0698699951172
 30
0.0
 11
-652.903061599367
 21
94.0698699951172
 31
0.0
  0
LINE
  5
   31C
  8
0
  6
CONTINUOUS
 62
     7
 10
-603.357492505982
 20
93.5489255651655
 30
0.0
 11
-600.403069228775
 21
94.0698699951172
 31
0.0
  0
LINE
  5
   31D
  8
0
  6
CONTINUOUS
 62
     7
 10
-600.403069228775
 20
94.0698699951172
 30
0.0
 11
-603.357492505982
 21
94.5908144250689
 31
0.0
  0
LINE
  5
   31E
  8
0
  6
CONTINUOUS
 62
     7
 10
-649.94863832216
 20
94.5908144250689
 30
0.0
 11
-652.903061599367
 21
94.0698699951172
 31
0.0
  0
LINE
  5
   31F
  8
0
  6
CONTINUOUS
 62
     7
 10
-652.903061599367
 20
94.0698699951172
 30
0.0
 11
-649.94863832216
 21
93.5489255651655
 31
0.0
  0
ENDBLK
  5
   320
  8
0
  6
CONTINUOUS
 62
     7
  0
BLOCK
  5
   321
  8
0
  6
CONTINUOUS
 62
     7
  2
*UDIM525
 70
    65
 10
0.0
 20
0.0
 30
0.0
  3
*UDIM525
  0
TEXT
  5
   322
  8
0
  6
CONTINUOUS
 62
     7
 10
-676.80220795031
 20
17.3571578435336
 30
0.0
 40
3.00000002980232
  1
254
 50
89.9999999480344
 41
0.933333333333333
 72
     1
 11
-678.302207961679
 21
21.2571578836352
 31
0.0
 73
     2
  0
LINE
  5
   323
  8
0
  6
CONTINUOUS
 62
     7
 10
-660.903061403754
 20
-41.9678326416193
 30
0.0
 11
-677.802207946777
 21
-41.9678326416193
 31
0.0
  0
LINE
  5
   324
  8
0
  6
CONTINUOUS
 62
     7
 10
-660.903038024902
 20
85.0321426391602
 30
0.0
 11
-677.802207946777
 21
85.0321426391602
 31
0.0
  0
LINE
  5
   325
  8
0
  6
CONTINUOUS
 62
     7
 10
-675.802207946778
 20
-41.9678326416193
 30
0.0
 11
-675.802207946778
 21
85.0321426391602
 31
0.0
  0
LINE
  5
   326
  8
0
  6
CONTINUOUS
 62
     7
 10
-676.323152376729
 20
-39.0134093644123
 30
0.0
 11
-675.802207946778
 21
-41.9678326416193
 31
0.0
  0
LINE
  5
   327
  8
0
  6
CONTINUOUS
 62
     7
 10
-675.802207946778
 20
-41.9678326416193
 30
0.0
 11
-675.281263516826
 21
-39.0134093644123
 31
0.0
  0
LINE
  5
   328
  8
0
  6
CONTINUOUS
 62
     7
 10
-675.281263516826
 20
82.0777193619532
 30
0.0
 11
-675.802207946778
 21
85.0321426391602
 31
0.0
  0
LINE
  5
   329
  8
0
  6
CONTINUOUS
 62
     7
 10
-675.802207946778
 20
85.0321426391602
 30
0.0
 11
-676.323152376729
 21
82.0777193619532
 31
0.0
  0
ENDBLK
  5
   32A
  8
0
  6
CONTINUOUS
 62
     7
  0
BLOCK
  5
   32B
  8
0
  6
CONTINUOUS
 62
     7
  2
*UDIM526
 70
    65
 10
0.0
 20
0.0
 30
0.0
  3
*UDIM526
  0
TEXT
  5
   32C
  8
0
  6
CONTINUOUS
 62
     7
 10
-630.828041872919
 20
101.686294559182
 30
0.0
 40
3.00000002980232
  1
140
 50
359.999999948034
 41
0.933333333333333
 72
     1
 11
-626.928041832823
 21
103.186294570565
 31
0.0
 73
     2
  0
LINE
  5
   32D
  8
0
  6
CONTINUOUS
 62
     7
 10
-591.653045145266
 20
84.63214263916
 30
0.0
 11
-591.653035955143
 21
102.686294555664
 31
0.0
  0
LINE
  5
   32E
  8
0
  6
CONTINUOUS
 62
     7
 10
-661.65303771309
 20
84.6321426391601
 30
0.0
 11
-661.653032045595
 21
102.686294555664
 31
0.0
  0
LINE
  5
   32F
  8
0
  6
CONTINUOUS
 62
     7
 10
-591.653036973205
 20
100.686294555664
 30
0.0
 11
-661.653032673428
 21
100.686294555664
 31
0.0
  0
LINE
  5
   330
  8
0
  6
CONTINUOUS
 62
     7
 10
-594.607460250412
 20
100.165350125712
 30
0.0
 11
-591.653036973205
 21
100.686294555664
 31
0.0
  0
LINE
  5
   331
  8
0
  6
CONTINUOUS
 62
     7
 10
-591.653036973205
 20
100.686294555664
 30
0.0
 11
-594.607460250412
 21
101.207238985616
 31
0.0
  0
LINE
  5
   332
  8
0
  6
CONTINUOUS
 62
     7
 10
-658.698609396221
 20
101.207238985616
 30
0.0
 11
-661.653032673428
 21
100.686294555664
 31
0.0
  0
LINE
  5
   333
  8
0
  6
CONTINUOUS
 62
     7
 10
-661.653032673428
 20
100.686294555664
 30
0.0
 11
-658.698609396221
 21
100.165350125712
 31
0.0
  0
ENDBLK
  5
   334
  8
0
  6
CONTINUOUS
 62
     7
  0
BLOCK
  5
   335
  8
0
  6
CONTINUOUS
 62
     7
  2
*UDIM527
 70
    65
 10
0.0
 20
0.0
 30
0.0
  3
*UDIM527
  0
TEXT
  5
   336
  8
0
  6
CONTINUOUS
 62
     7
 10
-349.505712851379
 20
17.1830446477149
 30
0.0
 40
3.00000002980232
  1
7
 50
398.442908631415
 41
0.933333333333334
 72
     1
 11
-349.576763751396
 21
19.0417947219183
 31
0.0
 73
     2
  0
TEXT
  5
   337
  8
0
  6
CONTINUOUS
 62
     7
 10
-351.659590043569
 20
15.4732747138542
 30
0.0
 40
3.00000002980232
  1
Ø
 50
398.442908631415
 41
0.933333333333334
 72
     1
 11
-351.730640943585
 21
17.3320247880576
 31
0.0
 73
     2
  0
LINE
  5
   338
  8
0
  6
CONTINUOUS
 62
     7
 10
-338.648720857422
 20
24.5246695550155
 30
0.0
 11
-351.037855524754
 21
14.6900466537798
 31
0.0
  0
LINE
  5
   339
  8
0
  6
CONTINUOUS
 62
     7
 10
-336.658622776663
 20
26.7695547701117
 30
0.0
 11
-338.648720857422
 21
24.5246695550155
 31
0.0
  0
LINE
  5
   33A
  8
0
  6
CONTINUOUS
 62
     7
 10
-338.648720857422
 20
24.5246695550155
 30
0.0
 11
-336.010844512951
 21
25.9535181793555
 31
0.0
  0
LINE
  5
   33B
  8
0
  6
CONTINUOUS
 62
     7
 10
-342.00946804365
 20
21.1917489408258
 30
0.0
 11
-340.01936996289
 21
23.436634155922
 31
0.0
  0
LINE
  5
   33C
  8
0
  6
CONTINUOUS
 62
     7
 10
-340.01936996289
 20
23.436634155922
 30
0.0
 11
-342.657246307362
 21
22.007785531582
 31
0.0
  0
ENDBLK
  5
   33D
  8
0
  6
CONTINUOUS
 62
     7
  0
BLOCK
  5
   33E
  8
0
  6
CONTINUOUS
 62
     7
  2
*UDIM528
 70
    65
 10
0.0
 20
0.0
 30
0.0
  3
*UDIM528
  0
TEXT
  5
   33F
  8
0
  6
CONTINUOUS
 62
     7
 10
-332.109045445026
 20
72.2668304511257
 30
0.0
 40
3.00000002980232
  1
80
 50
359.999999844103
 41
0.933333333333333
 72
     1
 11
-329.609045416117
 21
73.7668304592371
 31
0.0
 73
     2
  0
LINE
  5
   340
  8
0
  6
CONTINUOUS
 62
     7
 10
-339.334045410156
 20
62.1056518554688
 30
0.0
 11
-339.334045410156
 21
73.2668304443359
 31
0.0
  0
LINE
  5
   341
  8
0
  6
CONTINUOUS
 62
     7
 10
-319.334045410156
 20
62.1056518554688
 30
0.0
 11
-319.334045410156
 21
73.2668304443359
 31
0.0
  0
LINE
  5
   342
  8
0
  6
CONTINUOUS
 62
     7
 10
-339.334045410156
 20
71.2668304443359
 30
0.0
 11
-319.334045410156
 21
71.2668304443359
 31
0.0
  0
LINE
  5
   343
  8
0
  6
CONTINUOUS
 62
     7
 10
-336.379622132949
 20
71.7877748742876
 30
0.0
 11
-339.334045410156
 21
71.2668304443359
 31
0.0
  0
LINE
  5
   344
  8
0
  6
CONTINUOUS
 62
     7
 10
-339.334045410156
 20
71.2668304443359
 30
0.0
 11
-336.379622132949
 21
70.7458860143843
 31
0.0
  0
LINE
  5
   345
  8
0
  6
CONTINUOUS
 62
     7
 10
-322.288468687363
 20
70.7458860143843
 30
0.0
 11
-319.334045410156
 21
71.2668304443359
 31
0.0
  0
LINE
  5
   346
  8
0
  6
CONTINUOUS
 62
     7
 10
-319.334045410156
 20
71.2668304443359
 30
0.0
 11
-322.288468687363
 21
71.7877748742876
 31
0.0
  0
ENDBLK
  5
   347
  8
0
  6
CONTINUOUS
 62
     7
  0
BLOCK
  5
   348
  8
0
  6
CONTINUOUS
 62
     7
  2
*UDIM529
 70
    65
 10
0.0
 20
0.0
 30
0.0
  3
*UDIM529
  0
TEXT
  5
   349
  8
0
  6
CONTINUOUS
 62
     7
 10
-333.509045458934
 20
78.7064895735802
 30
0.0
 40
3.00000002980232
  1
112
 50
359.999999844103
 41
0.933333333333333
 72
     1
 11
-329.609045416117
 21
80.2064895778894
 31
0.0
 73
     2
  0
LINE
  5
   34A
  8
0
  6
CONTINUOUS
 62
     7
 10
-343.334045410156
 20
56.7306518554688
 30
0.0
 11
-343.334045410156
 21
79.7064895629883
 31
0.0
  0
LINE
  5
   34B
  8
0
  6
CONTINUOUS
 62
     7
 10
-315.334045410156
 20
56.7306518554688
 30
0.0
 11
-315.334045410156
 21
79.7064895629883
 31
0.0
  0
LINE
  5
   34C
  8
0
  6
CONTINUOUS
 62
     7
 10
-343.334045410156
 20
77.7064895629883
 30
0.0
 11
-315.334045410156
 21
77.7064895629883
 31
0.0
  0
LINE
  5
   34D
  8
0
  6
CONTINUOUS
 62
     7
 10
-340.379622132949
 20
78.22743399294
 30
0.0
 11
-343.334045410156
 21
77.7064895629883
 31
0.0
  0
LINE
  5
   34E
  8
0
  6
CONTINUOUS
 62
     7
 10
-343.334045410156
 20
77.7064895629883
 30
0.0
 11
-340.379622132949
 21
77.1855451330366
 31
0.0
  0
LINE
  5
   34F
  8
0
  6
CONTINUOUS
 62
     7
 10
-318.288468687363
 20
77.1855451330366
 30
0.0
 11
-315.334045410156
 21
77.7064895629883
 31
0.0
  0
LINE
  5
   350
  8
0
  6
CONTINUOUS
 62
     7
 10
-315.334045410156
 20
77.7064895629883
 30
0.0
 11
-318.288468687363
 21
78.22743399294
 31
0.0
  0
ENDBLK
  5
   351
  8
0
  6
CONTINUOUS
 62
     7
  0
BLOCK
  5
   352
  8
0
  6
CONTINUOUS
 62
     7
  2
*UDIM530
 70
    65
 10
0.0
 20
0.0
 30
0.0
  3
*UDIM530
  0
TEXT
  5
   353
  8
0
  6
CONTINUOUS
 62
     7
 10
-355.741420756437
 20
37.5556518066933
 30
0.0
 40
3.00000002980232
  1
112
 50
449.999999844103
 41
0.933333333333333
 72
     1
 11
-357.241420760751
 21
41.4556518495083
 31
0.0
 73
     2
  0
LINE
  5
   354
  8
0
  6
CONTINUOUS
 62
     7
 10
-344.334045410156
 20
55.7306518554688
 30
0.0
 11
-356.74142074585
 21
55.7306518554688
 31
0.0
  0
LINE
  5
   355
  8
0
  6
CONTINUOUS
 62
     7
 10
-344.334045410156
 20
27.7306518554688
 30
0.0
 11
-356.74142074585
 21
27.7306518554688
 31
0.0
  0
LINE
  5
   356
  8
0
  6
CONTINUOUS
 62
     7
 10
-354.74142074585
 20
55.7306518554688
 30
0.0
 11
-354.74142074585
 21
27.7306518554688
 31
0.0
  0
LINE
  5
   357
  8
0
  6
CONTINUOUS
 62
     7
 10
-354.220476315898
 20
52.7762285782618
 30
0.0
 11
-354.74142074585
 21
55.7306518554688
 31
0.0
  0
LINE
  5
   358
  8
0
  6
CONTINUOUS
 62
     7
 10
-354.74142074585
 20
55.7306518554688
 30
0.0
 11
-355.262365175801
 21
52.7762285782618
 31
0.0
  0
LINE
  5
   359
  8
0
  6
CONTINUOUS
 62
     7
 10
-355.262365175801
 20
30.6850751326757
 30
0.0
 11
-354.74142074585
 21
27.7306518554688
 31
0.0
  0
LINE
  5
   35A
  8
0
  6
CONTINUOUS
 62
     7
 10
-354.74142074585
 20
27.7306518554688
 30
0.0
 11
-354.220476315898
 21
30.6850751326757
 31
0.0
  0
ENDBLK
  5
   35B
  8
0
  6
CONTINUOUS
 62
     7
  0
BLOCK
  5
   35C
  8
0
  6
CONTINUOUS
 62
     7
  2
*UDIM531
 70
    65
 10
0.0
 20
0.0
 30
0.0
  3
*UDIM531
  0
TEXT
  5
   35D
  8
0
  6
CONTINUOUS
 62
     7
 10
-365.469676982023
 20
37.5556518066933
 30
0.0
 40
3.00000002980232
  1
142
 50
449.999999844103
 41
0.933333333333333
 72
     1
 11
-366.969676986337
 21
41.4556518495083
 31
0.0
 73
     2
  0
LINE
  5
   35E
  8
0
  6
CONTINUOUS
 62
     7
 10
-341.959045410156
 20
59.4806518554688
 30
0.0
 11
-366.469676971436
 21
59.4806518554688
 31
0.0
  0
LINE
  5
   35F
  8
0
  6
CONTINUOUS
 62
     7
 10
-341.959045410156
 20
23.9806518554688
 30
0.0
 11
-366.469676971436
 21
23.9806518554688
 31
0.0
  0
LINE
  5
   360
  8
0
  6
CONTINUOUS
 62
     7
 10
-364.469676971436
 20
59.4806518554688
 30
0.0
 11
-364.469676971436
 21
23.9806518554688
 31
0.0
  0
LINE
  5
   361
  8
0
  6
CONTINUOUS
 62
     7
 10
-363.948732541484
 20
56.5262285782618
 30
0.0
 11
-364.469676971436
 21
59.4806518554688
 31
0.0
  0
LINE
  5
   362
  8
0
  6
CONTINUOUS
 62
     7
 10
-364.469676971436
 20
59.4806518554688
 30
0.0
 11
-364.990621401387
 21
56.5262285782618
 31
0.0
  0
LINE
  5
   363
  8
0
  6
CONTINUOUS
 62
     7
 10
-364.990621401387
 20
26.9350751326757
 30
0.0
 11
-364.469676971436
 21
23.9806518554688
 31
0.0
  0
LINE
  5
   364
  8
0
  6
CONTINUOUS
 62
     7
 10
-364.469676971436
 20
23.9806518554688
 30
0.0
 11
-363.948732541484
 21
26.9350751326757
 31
0.0
  0
ENDBLK
  5
   365
  8
0
  6
CONTINUOUS
 62
     7
  0
BLOCK
  5
   366
  8
0
  6
CONTINUOUS
 62
     7
  2
PNT_S5-630_POST
 70
    64
 10
0.0
 20
0.0
 30
0.0
  3
PNT_S5-630_POST
  0
LINE
  5
   367
  8
0
  6
CONTINUOUS
 62
     3
 10
55.5000152587891
 20
-2.00000143051148
 30
0.0
 11
55.5000152587891
 21
89.9999985694886
 31
0.0
  0
LINE
  5
   368
  8
0
  6
CONTINUOUS
 62
     3
 10
55.0000152587891
 20
89.9999985694886
 30
0.0
 11
85.0000152587891
 21
89.9999985694886
 31
0.0
  0
LINE
  5
   369
  8
0
  6
CONTINUOUS
 62
     3
 10
84.5000152587891
 20
-2.00000143051148
 30
0.0
 11
84.5000152587891
 21
89.9999985694886
 31
0.0
  0
LINE
  5
   36A
  8
0
  6
CONTINUOUS
 62
     7
 10
85.0000152587891
 20
89.9999985694885
 30
0.0
 11
85.0000152587891
 21
101.999998569489
 31
0.0
  0
LINE
  5
   36B
  8
0
  6
CONTINUOUS
 62
     7
 10
70.0000152587891
 20
89.9999985694886
 30
0.0
 11
70.0000152587891
 21
101.999998569489
 31
0.0
  0
LINE
  5
   36C
  8
0
  6
CONTINUOUS
 62
     7
 10
55.0000152587891
 20
89.9999985694886
 30
0.0
 11
55.0000152587891
 21
101.999998569489
 31
0.0
  0
LINE
  5
   36D
  8
0
  6
CONTINUOUS
 62
     1
 10
48.0000152587891
 20
101.999998569489
 30
0.0
 11
92.0000152587891
 21
101.999998569489
 31
0.0
  0
LINE
  5
   36E
  8
0
  6
CONTINUOUS
 62
     1
 10
48.0000152587891
 20
101.999998569489
 30
0.0
 11
48.0000152587891
 21
105.999998569489
 31
0.0
  0
LINE
  5
   36F
  8
0
  6
CONTINUOUS
 62
     1
 10
48.0000152587891
 20
105.999998569489
 30
0.0
 11
92.0000152587891
 21
105.999998569489
 31
0.0
  0
LINE
  5
   370
  8
0
  6
CONTINUOUS
 62
     1
 10
92.0000152587891
 20
101.999998569489
 30
0.0
 11
92.0000152587891
 21
105.999998569489
 31
0.0
  0
LINE
  5
   371
  8
0
  6
CONTINUOUS
 62
     2
 10
59.5000152587891
 20
134.999998569489
 30
0.0
 11
80.5000152587891
 21
134.999998569489
 31
0.0
  0
LINE
  5
   372
  8
0
  6
CONTINUOUS
 62
     2
 10
82.0000152587891
 20
131.999998569489
 30
0.0
 11
82.0000152587891
 21
133.499998569488
 31
0.0
  0
LINE
  5
   373
  8
0
  6
CONTINUOUS
 62
     2
 10
58.0000152587891
 20
133.499998569489
 30
0.0
 11
82.0000152587891
 21
133.499998569489
 31
0.0
  0
LINE
  5
   374
  8
0
  6
CONTINUOUS
 62
     2
 10
80.5000152587891
 20
134.999998569489
 30
0.0
 11
82.0000152587891
 21
133.499998569489
 31
0.0
  0
LINE
  5
   375
  8
0
  6
CONTINUOUS
 62
     2
 10
80.5000152587891
 20
131.999998569489
 30
0.0
 11
80.5000152587891
 21
134.999998569489
 31
0.0
  0
LINE
  5
   376
  8
0
  6
CONTINUOUS
 62
     1
 10
92.0000152587891
 20
115.999998569489
 30
0.0
 11
92.0000152587891
 21
119.999998569489
 31
0.0
  0
LINE
  5
   377
  8
0
  6
CONTINUOUS
 62
     1
 10
48.0000152587891
 20
115.999998569489
 30
0.0
 11
92.0000152587891
 21
115.999998569489
 31
0.0
  0
LINE
  5
   378
  8
0
  6
CONTINUOUS
 62
     1
 10
48.0000152587891
 20
119.999998569489
 30
0.0
 11
92.0000152587891
 21
119.999998569489
 31
0.0
  0
LINE
  5
   379
  8
0
  6
CONTINUOUS
 62
     2
 10
82.0000152587891
 20
105.999998569489
 30
0.0
 11
82.0000152587891
 21
115.999998569489
 31
0.0
  0
LINE
  5
   37A
  8
0
  6
CONTINUOUS
 62
     2
 10
80.5000152587891
 20
105.999998569489
 30
0.0
 11
80.5000152587891
 21
115.999998569489
 31
0.0
  0
LINE
  5
   37B
  8
0
  6
CONTINUOUS
 62
     7
 10
55.0000152587891
 20
131.999998569489
 30
0.0
 11
85.0000152587891
 21
131.999998569489
 31
0.0
  0
LINE
  5
   37C
  8
0
  6
CONTINUOUS
 62
     7
 10
85.0000152587891
 20
119.999998569489
 30
0.0
 11
85.0000152587891
 21
131.999998569489
 31
0.0
  0
LINE
  5
   37D
  8
0
  6
CONTINUOUS
 62
     7
 10
70.0000152587891
 20
119.999998569489
 30
0.0
 11
70.0000152587891
 21
131.999998569489
 31
0.0
  0
LINE
  5
   37E
  8
0
  6
CONTINUOUS
 62
     2
 10
58.0000152587891
 20
133.499998569489
 30
0.0
 11
59.5000152587891
 21
134.999998569489
 31
0.0
  0
LINE
  5
   37F
  8
0
  6
CONTINUOUS
 62
     2
 10
58.0000152587891
 20
131.999998569489
 30
0.0
 11
58.0000152587891
 21
133.499998569489
 31
0.0
  0
LINE
  5
   380
  8
0
  6
CONTINUOUS
 62
     2
 10
59.5000152587891
 20
131.999998569489
 30
0.0
 11
59.5000152587891
 21
134.999998569489
 31
0.0
  0
LINE
  5
   381
  8
0
  6
CONTINUOUS
 62
     1
 10
48.0000152587891
 20
115.999998569489
 30
0.0
 11
48.0000152587891
 21
119.999998569489
 31
0.0
  0
LINE
  5
   382
  8
0
  6
CONTINUOUS
 62
     2
 10
59.5000152587891
 20
105.999998569489
 30
0.0
 11
59.5000152587891
 21
115.999998569489
 31
0.0
  0
LINE
  5
   383
  8
0
  6
CONTINUOUS
 62
     2
 10
58.0000152587891
 20
105.999998569489
 30
0.0
 11
58.0000152587891
 21
115.999998569489
 31
0.0
  0
LINE
  5
   384
  8
0
  6
CONTINUOUS
 62
     7
 10
55.0000152587891
 20
119.999998569489
 30
0.0
 11
55.0000152587891
 21
131.999998569489
 31
0.0
  0
LINE
  5
   385
  8
0
  6
DASHDOT
 62
     7
 10
70.0000152587891
 20
2.72710540109134
 30
0.0
 11
70.0000152587891
 21
139.137366100061
 31
0.0
  0
LINE
  5
   386
  8
0
  6
CONTINUOUS
 62
     2
 10
36.7500152587891
 20
66.9999985694886
 30
0.0
 11
36.7500152587891
 21
69.9999985694886
 31
0.0
  0
LINE
  5
   387
  8
0
  6
CONTINUOUS
 62
     3
 10
11.250015258789
 20
24.9999985694886
 30
0.0
 11
41.250015258789
 21
24.9999985694886
 31
0.0
  0
LINE
  5
   388
  8
0
  6
CONTINUOUS
 62
     3
 10
40.7500152587891
 20
-2.00000143051146
 30
0.0
 11
40.7500152587891
 21
24.9999985694886
 31
0.0
  0
LINE
  5
   389
  8
0
  6
CONTINUOUS
 62
     2
 10
15.750015258789
 20
69.9999985694886
 30
0.0
 11
36.750015258789
 21
69.9999985694886
 31
0.0
  0
LINE
  5
   38A
  8
0
  6
CONTINUOUS
 62
     2
 10
38.2500152587891
 20
66.9999985694886
 30
0.0
 11
38.2500152587891
 21
68.4999985694885
 31
0.0
  0
LINE
  5
   38B
  8
0
  6
CONTINUOUS
 62
     2
 10
14.250015258789
 20
68.4999985694886
 30
0.0
 11
38.250015258789
 21
68.4999985694886
 31
0.0
  0
LINE
  5
   38C
  8
0
  6
CONTINUOUS
 62
     2
 10
36.750015258789
 20
69.9999985694886
 30
0.0
 11
38.2500152587891
 21
68.4999985694886
 31
0.0
  0
LINE
  5
   38D
  8
0
  6
CONTINUOUS
 62
     1
 10
4.25001525878903
 20
36.9999985694886
 30
0.0
 11
48.250015258789
 21
36.9999985694886
 31
0.0
  0
LINE
  5
   38E
  8
0
  6
CONTINUOUS
 62
     1
 10
4.25001525878903
 20
40.9999985694886
 30
0.0
 11
48.250015258789
 21
40.9999985694886
 31
0.0
  0
LINE
  5
   38F
  8
0
  6
CONTINUOUS
 62
     1
 10
48.2500152587891
 20
36.9999985694886
 30
0.0
 11
48.2500152587891
 21
40.9999985694886
 31
0.0
  0
LINE
  5
   390
  8
0
  6
CONTINUOUS
 62
     1
 10
4.25001525878903
 20
50.9999985694886
 30
0.0
 11
48.250015258789
 21
50.9999985694886
 31
0.0
  0
LINE
  5
   391
  8
0
  6
CONTINUOUS
 62
     1
 10
4.25001525878903
 20
54.9999985694886
 30
0.0
 11
48.250015258789
 21
54.9999985694886
 31
0.0
  0
LINE
  5
   392
  8
0
  6
CONTINUOUS
 62
     1
 10
48.2500152587891
 20
50.9999985694886
 30
0.0
 11
48.2500152587891
 21
54.9999985694886
 31
0.0
  0
LINE
  5
   393
  8
0
  6
CONTINUOUS
 62
     2
 10
36.7500152587891
 20
40.9999985694886
 30
0.0
 11
36.7500152587891
 21
50.9999985694886
 31
0.0
  0
LINE
  5
   394
  8
0
  6
CONTINUOUS
 62
     2
 10
38.2500152587891
 20
40.9999985694886
 30
0.0
 11
38.2500152587891
 21
50.9999985694886
 31
0.0
  0
LINE
  5
   395
  8
0
  6
CONTINUOUS
 62
     7
 10
11.250015258789
 20
66.9999985694886
 30
0.0
 11
41.250015258789
 21
66.9999985694886
 31
0.0
  0
LINE
  5
   396
  8
0
  6
CONTINUOUS
 62
     7
 10
41.2500152587891
 20
54.9999985694886
 30
0.0
 11
41.2500152587891
 21
66.9999985694886
 31
0.0
  0
LINE
  5
   397
  8
0
  6
CONTINUOUS
 62
     7
 10
41.2500152587891
 20
24.9999985694886
 30
0.0
 11
41.2500152587891
 21
36.9999985694886
 31
0.0
  0
LINE
  5
   398
  8
0
  6
CONTINUOUS
 62
     3
 10
11.7500152587891
 20
-2.00000143051146
 30
0.0
 11
11.7500152587891
 21
24.9999985694886
 31
0.0
  0
LINE
  5
   399
  8
0
  6
CONTINUOUS
 62
     2
 10
14.2500152587891
 20
66.9999985694886
 30
0.0
 11
14.2500152587891
 21
68.4999985694885
 31
0.0
  0
LINE
  5
   39A
  8
0
  6
CONTINUOUS
 62
     2
 10
14.250015258789
 20
68.4999985694887
 30
0.0
 11
15.750015258789
 21
69.9999985694887
 31
0.0
  0
LINE
  5
   39B
  8
0
  6
CONTINUOUS
 62
     2
 10
15.7500152587891
 20
66.9999985694886
 30
0.0
 11
15.7500152587891
 21
69.9999985694885
 31
0.0
  0
LINE
  5
   39C
  8
0
  6
CONTINUOUS
 62
     1
 10
4.25001525878906
 20
36.9999985694885
 30
0.0
 11
4.25001525878906
 21
40.9999985694885
 31
0.0
  0
LINE
  5
   39D
  8
0
  6
CONTINUOUS
 62
     1
 10
4.25001525878906
 20
50.9999985694885
 30
0.0
 11
4.25001525878906
 21
54.9999985694886
 31
0.0
  0
LINE
  5
   39E
  8
0
  6
CONTINUOUS
 62
     2
 10
14.2500152587891
 20
40.9999985694886
 30
0.0
 11
14.2500152587891
 21
50.9999985694886
 31
0.0
  0
LINE
  5
   39F
  8
0
  6
CONTINUOUS
 62
     2
 10
15.7500152587891
 20
40.9999985694886
 30
0.0
 11
15.7500152587891
 21
50.9999985694886
 31
0.0
  0
LINE
  5
   3A0
  8
0
  6
CONTINUOUS
 62
     7
 10
11.2500152587891
 20
54.9999985694886
 30
0.0
 11
11.2500152587891
 21
66.9999985694886
 31
0.0
  0
LINE
  5
   3A1
  8
0
  6
CONTINUOUS
 62
     7
 10
11.2500152587891
 20
24.9999985694886
 30
0.0
 11
11.2500152587891
 21
36.9999985694886
 31
0.0
  0
LINE
  5
   3A2
  8
0
  6
CONTINUOUS
 62
     7
 10
26.2500152587891
 20
54.9999985694886
 30
0.0
 11
26.2500152587891
 21
66.9999985694886
 31
0.0
  0
LINE
  5
   3A3
  8
0
  6
CONTINUOUS
 62
     7
 10
26.2500152587891
 20
24.9999985694886
 30
0.0
 11
26.2500152587891
 21
36.9999985694886
 31
0.0
  0
LINE
  5
   3A4
  8
0
  6
DASHDOT
 62
     7
 10
26.2500152587891
 20
-33.5750925520867
 30
0.0
 11
26.2500152587891
 21
80.007328601341
 31
0.0
  0
LINE
  5
   3A5
  8
0
  6
CONTINUOUS
 62
     7
 10
40.7500152587891
 20
2.99999856948852
 30
0.0
 11
55.5000152587891
 21
2.99999856948851
 31
0.0
  0
LINE
  5
   3A6
  8
0
  6
CONTINUOUS
 62
     7
 10
40.7500152587891
 20
-1.43051148416162E-6
 30
0.0
 11
55.5000152587891
 21
-1.43051148596798E-6
 31
0.0
  0
LINE
  5
   3A7
  8
0
  6
CONTINUOUS
 62
     7
 10
84.5000152587891
 20
2.99999856948852
 30
0.0
 11
99.2500152587891
 21
2.99999856948852
 31
0.0
  0
LINE
  5
   3A8
  8
0
  6
CONTINUOUS
 62
     7
 10
84.5000152587891
 20
-1.43051147917119E-6
 30
0.0
 11
99.2500152587891
 21
-1.43051147917119E-6
 31
0.0
  0
LINE
  5
   3A9
  8
0
  6
CONTINUOUS
 62
     2
 10
103.250015258789
 20
66.9999985694886
 30
0.0
 11
103.250015258789
 21
69.9999985694886
 31
0.0
  0
LINE
  5
   3AA
  8
0
  6
CONTINUOUS
 62
     3
 10
98.7500152587891
 20
24.9999985694886
 30
0.0
 11
128.750015258789
 21
24.9999985694886
 31
0.0
  0
LINE
  5
   3AB
  8
0
  6
CONTINUOUS
 62
     3
 10
99.2500152587891
 20
-2.00000143051146
 30
0.0
 11
99.2500152587891
 21
24.9999985694886
 31
0.0
  0
LINE
  5
   3AC
  8
0
  6
CONTINUOUS
 62
     2
 10
103.250015258789
 20
69.9999985694886
 30
0.0
 11
124.250015258789
 21
69.9999985694886
 31
0.0
  0
LINE
  5
   3AD
  8
0
  6
CONTINUOUS
 62
     2
 10
101.750015258789
 20
66.9999985694886
 30
0.0
 11
101.750015258789
 21
68.4999985694885
 31
0.0
  0
LINE
  5
   3AE
  8
0
  6
CONTINUOUS
 62
     2
 10
101.750015258789
 20
68.4999985694886
 30
0.0
 11
125.750015258789
 21
68.4999985694886
 31
0.0
  0
LINE
  5
   3AF
  8
0
  6
CONTINUOUS
 62
     2
 10
101.750015258789
 20
68.4999985694886
 30
0.0
 11
103.250015258789
 21
69.9999985694886
 31
0.0
  0
LINE
  5
   3B0
  8
0
  6
CONTINUOUS
 62
     1
 10
91.7500152587891
 20
36.9999985694886
 30
0.0
 11
135.750015258789
 21
36.9999985694886
 31
0.0
  0
LINE
  5
   3B1
  8
0
  6
CONTINUOUS
 62
     1
 10
91.7500152587891
 20
40.9999985694886
 30
0.0
 11
135.750015258789
 21
40.9999985694886
 31
0.0
  0
LINE
  5
   3B2
  8
0
  6
CONTINUOUS
 62
     1
 10
91.7500152587891
 20
36.9999985694886
 30
0.0
 11
91.7500152587891
 21
40.9999985694886
 31
0.0
  0
LINE
  5
   3B3
  8
0
  6
CONTINUOUS
 62
     1
 10
91.7500152587891
 20
50.9999985694886
 30
0.0
 11
135.750015258789
 21
50.9999985694886
 31
0.0
  0
LINE
  5
   3B4
  8
0
  6
CONTINUOUS
 62
     1
 10
91.7500152587891
 20
54.9999985694886
 30
0.0
 11
135.750015258789
 21
54.9999985694886
 31
0.0
  0
LINE
  5
   3B5
  8
0
  6
CONTINUOUS
 62
     1
 10
91.7500152587891
 20
50.9999985694886
 30
0.0
 11
91.7500152587891
 21
54.9999985694886
 31
0.0
  0
LINE
  5
   3B6
  8
0
  6
CONTINUOUS
 62
     2
 10
103.250015258789
 20
40.9999985694886
 30
0.0
 11
103.250015258789
 21
50.9999985694886
 31
0.0
  0
LINE
  5
   3B7
  8
0
  6
CONTINUOUS
 62
     2
 10
101.750015258789
 20
40.9999985694886
 30
0.0
 11
101.750015258789
 21
50.9999985694886
 31
0.0
  0
LINE
  5
   3B8
  8
0
  6
CONTINUOUS
 62
     7
 10
98.7500152587891
 20
66.9999985694886
 30
0.0
 11
128.750015258789
 21
66.9999985694886
 31
0.0
  0
LINE
  5
   3B9
  8
0
  6
CONTINUOUS
 62
     7
 10
98.7500152587891
 20
54.9999985694886
 30
0.0
 11
98.7500152587891
 21
66.9999985694886
 31
0.0
  0
LINE
  5
   3BA
  8
0
  6
CONTINUOUS
 62
     7
 10
98.7500152587891
 20
24.9999985694886
 30
0.0
 11
98.7500152587891
 21
36.9999985694886
 31
0.0
  0
LINE
  5
   3BB
  8
0
  6
CONTINUOUS
 62
     3
 10
128.250015258789
 20
-2.00000143051146
 30
0.0
 11
128.250015258789
 21
24.9999985694886
 31
0.0
  0
LINE
  5
   3BC
  8
0
  6
CONTINUOUS
 62
     2
 10
125.750015258789
 20
66.9999985694886
 30
0.0
 11
125.750015258789
 21
68.4999985694885
 31
0.0
  0
LINE
  5
   3BD
  8
0
  6
CONTINUOUS
 62
     2
 10
124.250015258789
 20
69.9999985694888
 30
0.0
 11
125.750015258789
 21
68.4999985694888
 31
0.0
  0
LINE
  5
   3BE
  8
0
  6
CONTINUOUS
 62
     2
 10
124.250015258789
 20
66.9999985694886
 30
0.0
 11
124.250015258789
 21
69.9999985694885
 31
0.0
  0
LINE
  5
   3BF
  8
0
  6
CONTINUOUS
 62
     1
 10
135.750015258789
 20
36.9999985694885
 30
0.0
 11
135.750015258789
 21
40.9999985694885
 31
0.0
  0
LINE
  5
   3C0
  8
0
  6
CONTINUOUS
 62
     1
 10
135.750015258789
 20
50.9999985694885
 30
0.0
 11
135.750015258789
 21
54.9999985694886
 31
0.0
  0
LINE
  5
   3C1
  8
0
  6
CONTINUOUS
 62
     2
 10
125.750015258789
 20
40.9999985694886
 30
0.0
 11
125.750015258789
 21
50.9999985694886
 31
0.0
  0
LINE
  5
   3C2
  8
0
  6
CONTINUOUS
 62
     2
 10
124.250015258789
 20
40.9999985694886
 30
0.0
 11
124.250015258789
 21
50.9999985694886
 31
0.0
  0
LINE
  5
   3C3
  8
0
  6
CONTINUOUS
 62
     7
 10
128.750015258789
 20
54.9999985694886
 30
0.0
 11
128.750015258789
 21
66.9999985694886
 31
0.0
  0
LINE
  5
   3C4
  8
0
  6
CONTINUOUS
 62
     7
 10
128.750015258789
 20
24.9999985694886
 30
0.0
 11
128.750015258789
 21
36.9999985694886
 31
0.0
  0
LINE
  5
   3C5
  8
0
  6
CONTINUOUS
 62
     7
 10
113.750015258789
 20
54.9999985694886
 30
0.0
 11
113.750015258789
 21
66.9999985694886
 31
0.0
  0
LINE
  5
   3C6
  8
0
  6
CONTINUOUS
 62
     7
 10
113.750015258789
 20
24.9999985694886
 30
0.0
 11
113.750015258789
 21
36.9999985694886
 31
0.0
  0
LINE
  5
   3C7
  8
0
  6
DASHDOT
 62
     7
 10
113.750015258789
 20
-33.5750925520867
 30
0.0
 11
113.750015258789
 21
80.007328601341
 31
0.0
  0
ENDBLK
  5
   3C8
  8
0
  6
CONTINUOUS
 62
     7
  0
BLOCK
  5
   3C9
  8
0
  6
CONTINUOUS
 62
     0
  2
DE_M5_NORM_____L
 70
    64
 10
0.0
 20
0.0
 30
0.0
  3
DE_M5_NORM_____L
  0
LINE
  5
   3CA
  8
0
  6
CONTINUOUS
 62
     0
 10
4.0
 20
-3.46410161513775
 30
0.0
 11
4.0
 21
3.46410161513775
 31
0.0
  0
LINE
  5
   3CB
  8
0
  6
CONTINUOUS
 62
     0
 10
0.0
 20
-3.46410161513775
 30
0.0
 11
0.0
 21
3.46410161513775
 31
0.0
  0
LINE
  5
   3CC
  8
0
  6
CONTINUOUS
 62
     0
 10
0.357265589908164
 20
2.3094010767585
 30
0.0
 11
3.64273441009184
 21
2.3094010767585
 31
0.0
  0
LINE
  5
   3CD
  8
0
  6
CONTINUOUS
 62
     0
 10
0.357265589908165
 20
4.618802153517
 30
0.0
 11
3.64273441009183
 21
4.618802153517
 31
0.0
  0
LINE
  5
   3CE
  8
0
  6
CONTINUOUS
 62
     0
 10
0.357265589908166
 20
-2.3094010767585
 30
0.0
 11
3.64273441009184
 21
-2.3094010767585
 31
0.0
  0
ARC
  5
   3CF
  8
0
  6
CONTINUOUS
 62
     0
 10
2.0446581987385
 20
3.46410161513775
 30
0.0
 40
2.0446581987385
 50
145.615752531958
 51
214.384247468042
  0
ARC
  5
   3D0
  8
0
  6
CONTINUOUS
 62
     0
 10
7.6427344100918
 20
0.0
 30
0.0
 40
7.6427344100918
 50
162.412046226006
 51
197.587953773994
  0
LINE
  5
   3D1
  8
0
  6
DASHDOT
 62
     0
 10
-2.0
 20
0.0
 30
0.0
 11
6.0
 21
0.0
 31
0.0
  0
ARC
  5
   3D2
  8
0
  6
CONTINUOUS
 62
     0
 10
2.0446581987385
 20
-3.46410161513775
 30
0.0
 40
2.0446581987385
 50
145.615752531958
 51
214.384247468042
  0
ARC
  5
   3D3
  8
0
  6
CONTINUOUS
 62
     0
 10
1.9553418012615
 20
3.46410161513775
 30
0.0
 40
2.0446581987385
 50
325.615752531958
 51
394.384247468042
  0
ARC
  5
   3D4
  8
0
  6
CONTINUOUS
 62
     0
 10
-3.64273441009179
 20
0.0
 30
0.0
 40
7.6427344100918
 50
342.412046226006
 51
377.587953773994
  0
ARC
  5
   3D5
  8
0
  6
CONTINUOUS
 62
     0
 10
1.9553418012615
 20
-3.46410161513775
 30
0.0
 40
2.0446581987385
 50
325.615752531958
 51
394.384247468042
  0
LINE
  5
   3D6
  8
0
  6
CONTINUOUS
 62
     0
 10
0.357265589908165
 20
-4.618802153517
 30
0.0
 11
3.64273441009183
 21
-4.618802153517
 31
0.0
  0
ENDBLK
  5
   3D7
  8
0
  6
CONTINUOUS
 62
     0
  0
BLOCK
  5
   3D8
  8
0
  6
CONTINUOUS
 62
     7
  2
*UDIM532
 70
    65
 10
0.0
 20
0.0
 30
0.0
  3
*UDIM532
  0
TEXT
  5
   3D9
  8
0
  6
CONTINUOUS
 62
     7
 10
-582.920274770614
 20
-128.755295542607
 30
0.0
 40
3.00000002980232
  1
41
 50
449.999999896069
 41
0.933333333333333
 72
     1
 11
-584.420274780996
 21
-126.25529551506
 31
0.0
 73
     2
  0
LINE
  5
   3DA
  8
0
  6
CONTINUOUS
 62
     7
 10
-592.778068542481
 20
-116.00529551506
 30
0.0
 11
-578.920274766094
 21
-116.00529551506
 31
0.0
  0
LINE
  5
   3DB
  8
0
  6
CONTINUOUS
 62
     7
 10
-584.920274766094
 20
-136.50529551506
 30
0.0
 11
-578.920274766094
 21
-136.50529551506
 31
0.0
  0
LINE
  5
   3DC
  8
0
  6
CONTINUOUS
 62
     7
 10
-580.920274766094
 20
-116.00529551506
 30
0.0
 11
-580.920274766094
 21
-136.50529551506
 31
0.0
  0
LINE
  5
   3DD
  8
0
  6
CONTINUOUS
 62
     7
 10
-580.143817609676
 20
-118.903072988271
 30
0.0
 11
-580.920274766094
 21
-116.00529551506
 31
0.0
  0
LINE
  5
   3DE
  8
0
  6
CONTINUOUS
 62
     7
 10
-580.920274766094
 20
-116.00529551506
 30
0.0
 11
-581.696731922513
 21
-118.903072988271
 31
0.0
  0
LINE
  5
   3DF
  8
0
  6
CONTINUOUS
 62
     7
 10
-581.696731922513
 20
-133.60751804185
 30
0.0
 11
-580.920274766094
 21
-136.50529551506
 31
0.0
  0
LINE
  5
   3E0
  8
0
  6
CONTINUOUS
 62
     7
 10
-580.920274766094
 20
-136.50529551506
 30
0.0
 11
-580.143817609676
 21
-133.60751804185
 31
0.0
  0
ENDBLK
  5
   3E1
  8
0
  6
CONTINUOUS
 62
     7
  0
BLOCK
  5
   3E2
  8
0
  6
CONTINUOUS
 62
     7
  2
*UDIM533
 70
    65
 10
0.0
 20
0.0
 30
0.0
  3
*UDIM533
  0
TEXT
  5
   3E3
  8
0
  6
CONTINUOUS
 62
     7
 10
-575.674370577904
 20
-113.905295556515
 30
0.0
 40
3.00000002980232
  1
106
 50
449.999999896069
 41
0.933333333333333
 72
     1
 11
-577.174370585755
 21
-110.00529551506
 31
0.0
 73
     2
  0
LINE
  5
   3E4
  8
0
  6
CONTINUOUS
 62
     7
 10
-614.653068542481
 20
-83.5052955150604
 30
0.0
 11
-571.674370570854
 21
-83.5052955150604
 31
0.0
  0
LINE
  5
   3E5
  8
0
  6
CONTINUOUS
 62
     7
 10
-584.920274766094
 20
-136.50529551506
 30
0.0
 11
-571.674370570854
 21
-136.50529551506
 31
0.0
  0
LINE
  5
   3E6
  8
0
  6
CONTINUOUS
 62
     7
 10
-573.674370570854
 20
-83.5052955150604
 30
0.0
 11
-573.674370570854
 21
-136.50529551506
 31
0.0
  0
LINE
  5
   3E7
  8
0
  6
CONTINUOUS
 62
     7
 10
-572.897913414436
 20
-86.4030729882709
 30
0.0
 11
-573.674370570854
 21
-83.5052955150604
 31
0.0
  0
LINE
  5
   3E8
  8
0
  6
CONTINUOUS
 62
     7
 10
-573.674370570854
 20
-83.5052955150604
 30
0.0
 11
-574.450827727273
 21
-86.4030729882709
 31
0.0
  0
LINE
  5
   3E9
  8
0
  6
CONTINUOUS
 62
     7
 10
-574.450827727273
 20
-133.60751804185
 30
0.0
 11
-573.674370570854
 21
-136.50529551506
 31
0.0
  0
LINE
  5
   3EA
  8
0
  6
CONTINUOUS
 62
     7
 10
-573.674370570854
 20
-136.50529551506
 30
0.0
 11
-572.897913414436
 21
-133.60751804185
 31
0.0
  0
ENDBLK
  5
   3EB
  8
0
  6
CONTINUOUS
 62
     7
  0
BLOCK
  5
   3EC
  8
0
  6
CONTINUOUS
 62
     7
  2
*UDIM534
 70
    65
 10
0.0
 20
0.0
 30
0.0
  3
*UDIM534
  0
TEXT
  5
   3ED
  8
0
  6
CONTINUOUS
 62
     7
 10
-594.051071194541
 20
-94.3011535293256
 30
0.0
 40
3.00000002980232
  1
24
 50
359.999999896069
 41
0.933333333333333
 72
     1
 11
-591.551071166992
 21
-92.8011535189468
 31
0.0
 73
     2
  0
TEXT
  5
   3EE
  8
0
  6
CONTINUOUS
 62
     7
 10
-588.05107114487
 20
-94.3011535293256
 30
0.0
 40
3.00000002980232
  1
x2
 50
359.999999896069
 41
0.933333333333333
 72
     1
 11
-585.551071117322
 21
-92.8011535189468
 31
0.0
 73
     2
  0
TEXT
  5
   3EF
  8
0
  6
CONTINUOUS
 62
     7
 10
-597.251071216396
 20
-94.3011535318581
 30
0.0
 40
3.00000002980232
  1
M
 50
359.999999896069
 41
0.933333333333334
 72
     1
 11
-596.151071202755
 21
-92.8011535189468
 31
0.0
 73
     2
  0
LINE
  5
   3F0
  8
0
  6
CONTINUOUS
 62
     7
 10
-598.778068542481
 20
-101.25529551506
 30
0.0
 11
-598.778068542481
 21
-94.3011535338479
 31
0.0
  0
LINE
  5
   3F1
  8
0
  6
CONTINUOUS
 62
     7
 10
-610.778068542481
 20
-101.25529551506
 30
0.0
 11
-610.778068542481
 21
-94.3011535338479
 31
0.0
  0
LINE
  5
   3F2
  8
0
  6
CONTINUOUS
 62
     7
 10
-583.051071092486
 20
-96.3011535338479
 30
0.0
 11
-615.778068542481
 21
-96.3011535338479
 31
0.0
  0
LINE
  5
   3F3
  8
0
  6
CONTINUOUS
 62
     7
 10
-595.88029106927
 20
-95.5246963774294
 30
0.0
 11
-598.778068542481
 21
-96.3011535338479
 31
0.0
  0
LINE
  5
   3F4
  8
0
  6
CONTINUOUS
 62
     7
 10
-598.778068542481
 20
-96.3011535338479
 30
0.0
 11
-595.88029106927
 21
-97.0776106902665
 31
0.0
  0
LINE
  5
   3F5
  8
0
  6
CONTINUOUS
 62
     7
 10
-613.675846015691
 20
-97.0776106902665
 30
0.0
 11
-610.778068542481
 21
-96.3011535338479
 31
0.0
  0
LINE
  5
   3F6
  8
0
  6
CONTINUOUS
 62
     7
 10
-610.778068542481
 20
-96.3011535338479
 30
0.0
 11
-613.675846015691
 21
-95.5246963774294
 31
0.0
  0
ENDBLK
  5
   3F7
  8
0
  6
CONTINUOUS
 62
     7
  0
BLOCK
  5
   3F8
  8
0
  6
CONTINUOUS
 62
     7
  2
*UDIM535
 70
    65
 10
0.0
 20
0.0
 30
0.0
  3
*UDIM535
  0
TEXT
  5
   3F9
  8
0
  6
CONTINUOUS
 62
     7
 10
-622.64809594227
 20
-61.1821905333127
 30
0.0
 40
3.00000002980232
  1
43,75
 50
359.999999896069
 41
0.933333333333333
 72
     1
 11
-615.948095872998
 21
-59.6821905305313
 31
0.0
 73
     2
  0
LINE
  5
   3FA
  8
0
  6
CONTINUOUS
 62
     7
 10
-604.778068542481
 20
-95.5016304991342
 30
0.0
 11
-604.778068542481
 21
-60.1821905454325
 31
0.0
  0
LINE
  5
   3FB
  8
0
  6
CONTINUOUS
 62
     7
 10
-626.653068542481
 20
-78.1322396486525
 30
0.0
 11
-626.653068542481
 21
-60.1821905454325
 31
0.0
  0
LINE
  5
   3FC
  8
0
  6
CONTINUOUS
 62
     7
 10
-604.778068542481
 20
-62.1821905454325
 30
0.0
 11
-626.653068542481
 21
-62.1821905454325
 31
0.0
  0
LINE
  5
   3FD
  8
0
  6
CONTINUOUS
 62
     7
 10
-607.732491819687
 20
-62.7031349753841
 30
0.0
 11
-604.778068542481
 21
-62.1821905454325
 31
0.0
  0
LINE
  5
   3FE
  8
0
  6
CONTINUOUS
 62
     7
 10
-604.778068542481
 20
-62.1821905454325
 30
0.0
 11
-607.732491819687
 21
-61.6612461154808
 31
0.0
  0
LINE
  5
   3FF
  8
0
  6
CONTINUOUS
 62
     7
 10
-623.698645265274
 20
-61.6612461154808
 30
0.0
 11
-626.653068542481
 21
-62.1821905454325
 31
0.0
  0
LINE
  5
   400
  8
0
  6
CONTINUOUS
 62
     7
 10
-626.653068542481
 20
-62.1821905454325
 30
0.0
 11
-623.698645265274
 21
-62.7031349753841
 31
0.0
  0
ENDBLK
  5
   401
  8
0
  6
CONTINUOUS
 62
     7
  0
BLOCK
  5
   402
  8
0
  6
CONTINUOUS
 62
     7
  2
*UDIM536
 70
    65
 10
0.0
 20
0.0
 30
0.0
  3
*UDIM536
  0
TEXT
  5
   403
  8
0
  6
CONTINUOUS
 62
     7
 10
-644.17899753822
 20
-61.1821905333127
 30
0.0
 40
3.00000002980232
  1
43,75
 50
359.999999896069
 41
0.933333333333333
 72
     1
 11
-637.478997468948
 21
-59.6821905305313
 31
0.0
 73
     2
  0
LINE
  5
   404
  8
0
  6
CONTINUOUS
 62
     7
 10
-648.52806854248
 20
-98.0052952766419
 30
0.0
 11
-648.52806854248
 21
-60.1821905454325
 31
0.0
  0
LINE
  5
   405
  8
0
  6
CONTINUOUS
 62
     7
 10
-626.653068542481
 20
-62.1821905454325
 30
0.0
 11
-648.52806854248
 21
-62.1821905454325
 31
0.0
  0
LINE
  5
   406
  8
0
  6
CONTINUOUS
 62
     7
 10
-629.607491819687
 20
-62.7031349753841
 30
0.0
 11
-626.653068542481
 21
-62.1821905454325
 31
0.0
  0
LINE
  5
   407
  8
0
  6
CONTINUOUS
 62
     7
 10
-626.653068542481
 20
-62.1821905454325
 30
0.0
 11
-629.607491819687
 21
-61.6612461154808
 31
0.0
  0
LINE
  5
   408
  8
0
  6
CONTINUOUS
 62
     7
 10
-645.573645265274
 20
-61.6612461154808
 30
0.0
 11
-648.52806854248
 21
-62.1821905454325
 31
0.0
  0
LINE
  5
   409
  8
0
  6
CONTINUOUS
 62
     7
 10
-648.52806854248
 20
-62.1821905454325
 30
0.0
 11
-645.573645265274
 21
-62.7031349753841
 31
0.0
  0
ENDBLK
  5
   40A
  8
0
  6
CONTINUOUS
 62
     7
  0
BLOCK
  5
   40B
  8
0
  6
CONTINUOUS
 62
     7
  2
*UDIM537
 70
    65
 10
0.0
 20
0.0
 30
0.0
  3
*UDIM537
  0
TEXT
  5
   40C
  8
0
  6
CONTINUOUS
 62
     7
 10
-671.024666790713
 20
-121.780294833312
 30
0.0
 40
3.00000002980232
  1
70
 50
449.999999896069
 41
0.933333333333333
 72
     1
 11
-672.524666801095
 21
-119.280294805765
 31
0.0
 73
     2
  0
LINE
  5
   40D
  8
0
  6
CONTINUOUS
 62
     7
 10
-654.77806854248
 20
-101.50529551506
 30
0.0
 11
-672.024666786194
 21
-101.50529551506
 31
0.0
  0
LINE
  5
   40E
  8
0
  6
CONTINUOUS
 62
     7
 10
-642.27806854248
 20
-136.50529551506
 30
0.0
 11
-672.024666786194
 21
-136.50529551506
 31
0.0
  0
LINE
  5
   40F
  8
0
  6
CONTINUOUS
 62
     7
 10
-670.024666786194
 20
-101.50529551506
 30
0.0
 11
-670.024666786194
 21
-136.50529551506
 31
0.0
  0
LINE
  5
   410
  8
0
  6
CONTINUOUS
 62
     7
 10
-669.503722356242
 20
-104.459718792267
 30
0.0
 11
-670.024666786194
 21
-101.50529551506
 31
0.0
  0
LINE
  5
   411
  8
0
  6
CONTINUOUS
 62
     7
 10
-670.024666786194
 20
-101.50529551506
 30
0.0
 11
-670.545611216146
 21
-104.459718792267
 31
0.0
  0
LINE
  5
   412
  8
0
  6
CONTINUOUS
 62
     7
 10
-670.545611216146
 20
-133.550872237853
 30
0.0
 11
-670.024666786194
 21
-136.50529551506
 31
0.0
  0
LINE
  5
   413
  8
0
  6
CONTINUOUS
 62
     7
 10
-670.024666786194
 20
-136.50529551506
 30
0.0
 11
-669.503722356242
 21
-133.550872237853
 31
0.0
  0
ENDBLK
  5
   414
  8
0
  6
CONTINUOUS
 62
     7
  0
BLOCK
  5
   415
  8
0
  6
CONTINUOUS
 62
     7
  2
*UDIM538
 70
    65
 10
0.0
 20
0.0
 30
0.0
  3
*UDIM538
  0
TEXT
  5
   416
  8
0
  6
CONTINUOUS
 62
     7
 10
-677.958643920319
 20
-106.93029484722
 30
0.0
 40
3.00000002980232
  1
135
 50
449.999999896069
 41
0.933333333333333
 72
     1
 11
-679.45864392817
 21
-103.030294805765
 31
0.0
 73
     2
  0
LINE
  5
   417
  8
0
  6
CONTINUOUS
 62
     7
 10
-632.903068542481
 20
-69.0052955150604
 30
0.0
 11
-678.958643913269
 21
-69.0052955150604
 31
0.0
  0
LINE
  5
   418
  8
0
  6
CONTINUOUS
 62
     7
 10
-642.27806854248
 20
-136.50529551506
 30
0.0
 11
-678.958643913269
 21
-136.50529551506
 31
0.0
  0
LINE
  5
   419
  8
0
  6
CONTINUOUS
 62
     7
 10
-676.958643913269
 20
-69.0052955150604
 30
0.0
 11
-676.958643913269
 21
-136.50529551506
 31
0.0
  0
LINE
  5
   41A
  8
0
  6
CONTINUOUS
 62
     7
 10
-676.437699483317
 20
-71.9597187922674
 30
0.0
 11
-676.958643913269
 21
-69.0052955150604
 31
0.0
  0
LINE
  5
   41B
  8
0
  6
CONTINUOUS
 62
     7
 10
-676.958643913269
 20
-69.0052955150604
 30
0.0
 11
-677.479588343221
 21
-71.9597187922674
 31
0.0
  0
LINE
  5
   41C
  8
0
  6
CONTINUOUS
 62
     7
 10
-677.479588343221
 20
-133.550872237853
 30
0.0
 11
-676.958643913269
 21
-136.50529551506
 31
0.0
  0
LINE
  5
   41D
  8
0
  6
CONTINUOUS
 62
     7
 10
-676.958643913269
 20
-136.50529551506
 30
0.0
 11
-676.437699483317
 21
-133.550872237853
 31
0.0
  0
ENDBLK
  5
   41E
  8
0
  6
CONTINUOUS
 62
     7
  0
ENDSEC
  0
SECTION
  2
ENTITIES
  0
LINE
  5
   41F
  8
0
  6
DASHDOT
 62
     7
 10
-510.567834746872
 20
-67.3583297729492
 30
0.0
 11
-536.045386306928
 21
-67.3583297729492
 31
0.0
  0
LINE
  5
   420
  8
0
  6
DASHDOT
 62
     7
 10
-512.214855072761
 20
-120.858329772949
 30
0.0
 11
-539.169605890813
 21
-120.858329772949
 31
0.0
  0
LINE
  5
   421
  8
0
  6
DASHDOT
 62
     7
 10
-519.852600097656
 20
-60.5745861380495
 30
0.0
 11
-519.852600097656
 21
-127.064387538689
 31
0.0
  0
LINE
  5
   422
  8
0
  6
CONTINUOUS
 62
     7
 10
-535.790100097656
 20
-61.1353434992597
 30
0.0
 11
-535.790100097656
 21
-126.583738371938
 31
0.0
  0
LINE
  5
   423
  8
0
  6
CONTINUOUS
 62
     7
 10
-503.915100097656
 20
-61.1353434992597
 30
0.0
 11
-503.915100097656
 21
-128.18590226111
 31
0.0
  0
LINE
  5
   424
  8
0
  6
CONTINUOUS
 62
     7
 10
-499.190151391654
 20
-62.3583297729492
 30
0.0
 11
-539.169605890813
 21
-62.3583297729492
 31
0.0
  0
LINE
  5
   425
  8
0
  6
CONTINUOUS
 62
     7
 10
-495.98582361331
 20
-125.858329772949
 30
0.0
 11
-541.973392696864
 21
-125.858329772949
 31
0.0
  0
CIRCLE
  5
   426
  8
0
  6
CONTINUOUS
 62
     7
 10
-525.321350097656
 20
-67.3583297729492
 30
0.0
 40
0.6875
  0
CIRCLE
  5
   427
  8
0
  6
CONTINUOUS
 62
     7
 10
-514.383850097656
 20
-67.3583297729492
 30
0.0
 40
0.6875
  0
LINE
  5
   428
  8
0
  6
DASHDOT
 62
     7
 10
-525.321350097656
 20
-60.5745861380495
 30
0.0
 11
-525.321350097656
 21
-127.064387538689
 31
0.0
  0
LINE
  5
   429
  8
0
  6
DASHDOT
 62
     7
 10
-514.383850097656
 20
-60.5745861380495
 30
0.0
 11
-514.383850097656
 21
-124.450446196645
 31
0.0
  0
CIRCLE
  5
   42A
  8
0
  6
CONTINUOUS
 62
     7
 10
-525.321350097656
 20
-120.858329772949
 30
0.0
 40
0.6875
  0
CIRCLE
  5
   42B
  8
0
  6
CONTINUOUS
 62
     7
 10
-514.383850097656
 20
-120.858329772949
 30
0.0
 40
0.6875
  0
LINE
  5
   42C
  8
0
  6
DASHDOT
 62
     7
 10
-492.060898460601
 20
-93.6708297729492
 30
0.0
 11
-541.947900509988
 21
-93.6708297729492
 31
0.0
  0
ARC
  5
   42D
  8
0
  6
CONTINUOUS
 62
     7
 10
-508.915100097656
 20
-66.8583297729492
 30
0.0
 40
4.0
 50
269.999999896069
 51
569.999999896069
  0
ARC
  5
   42E
  8
0
  6
CONTINUOUS
 62
     7
 10
-519.852600097656
 20
-66.8583297729492
 30
0.0
 40
4.0
 50
329.999999896069
 51
569.999999896069
  0
ARC
  5
   42F
  8
0
  6
CONTINUOUS
 62
     7
 10
-530.790100097656
 20
-66.8583297729492
 30
0.0
 40
4.0
 50
329.999999896069
 51
629.999999896069
  0
ARC
  5
   430
  8
0
  6
CONTINUOUS
 62
     7
 10
-530.790100097656
 20
-121.358329772949
 30
0.0
 40
4.0
 50
449.999999896069
 51
749.999999896069
  0
ARC
  5
   431
  8
0
  6
CONTINUOUS
 62
     7
 10
-519.852600097656
 20
-121.358329772949
 30
0.0
 40
4.0
 50
509.999999896069
 51
749.999999896069
  0
ARC
  5
   432
  8
0
  6
CONTINUOUS
 62
     7
 10
-508.915100097656
 20
-121.358329772949
 30
0.0
 40
4.0
 50
509.999999896069
 51
809.999999896069
  0
LINE
  5
   433
  8
0
  6
DASHDOT
 62
     7
 10
-530.790100097656
 20
-62.2333297729492
 30
0.0
 11
-530.790100097656
 21
-71.4833297729492
 31
0.0
  0
LINE
  5
   434
  8
0
  6
DASHDOT
 62
     7
 10
-526.165100097656
 20
-66.8583297729492
 30
0.0
 11
-535.415100097656
 21
-66.8583297729492
 31
0.0
  0
LINE
  5
   435
  8
0
  6
DASHDOT
 62
     7
 10
-519.852600097656
 20
-62.2333297729492
 30
0.0
 11
-519.852600097656
 21
-71.4833297729492
 31
0.0
  0
LINE
  5
   436
  8
0
  6
DASHDOT
 62
     7
 10
-515.227600097656
 20
-66.8583297729492
 30
0.0
 11
-524.477600097656
 21
-66.8583297729492
 31
0.0
  0
LINE
  5
   437
  8
0
  6
DASHDOT
 62
     7
 10
-508.915100097656
 20
-62.2333297729492
 30
0.0
 11
-508.915100097656
 21
-71.4833297729492
 31
0.0
  0
LINE
  5
   438
  8
0
  6
DASHDOT
 62
     7
 10
-499.2893259935
 20
-66.8583297729492
 30
0.0
 11
-513.540100097656
 21
-66.8583297729492
 31
0.0
  0
LINE
  5
   439
  8
0
  6
DASHDOT
 62
     7
 10
-508.915100097656
 20
-116.733329772949
 30
0.0
 11
-508.915100097656
 21
-125.983329772949
 31
0.0
  0
LINE
  5
   43A
  8
0
  6
DASHDOT
 62
     7
 10
-496.138504500495
 20
-121.358329772949
 30
0.0
 11
-513.540100097656
 21
-121.358329772949
 31
0.0
  0
LINE
  5
   43B
  8
0
  6
DASHDOT
 62
     7
 10
-519.852600097656
 20
-116.733329772949
 30
0.0
 11
-519.852600097656
 21
-125.983329772949
 31
0.0
  0
LINE
  5
   43C
  8
0
  6
DASHDOT
 62
     7
 10
-515.227600097656
 20
-121.358329772949
 30
0.0
 11
-524.477600097656
 21
-121.358329772949
 31
0.0
  0
LINE
  5
   43D
  8
0
  6
DASHDOT
 62
     7
 10
-530.790100097656
 20
-116.733329772949
 30
0.0
 11
-530.790100097656
 21
-125.983329772949
 31
0.0
  0
LINE
  5
   43E
  8
0
  6
DASHDOT
 62
     7
 10
-526.165100097656
 20
-121.358329772949
 30
0.0
 11
-535.415100097656
 21
-121.358329772949
 31
0.0
  0
CIRCLE
  5
   43F
  8
0
  6
CONTINUOUS
 62
     7
 10
-508.724521116153
 20
-113.270168314314
 30
0.0
 40
0.0625
  0
LINE
  5
   440
  8
0
  6
CONTINUOUS
 62
     7
 10
-508.915100097656
 20
-70.8583297729492
 30
0.0
 11
-530.790100097656
 21
-70.8583297729492
 31
0.0
  0
LINE
  5
   441
  8
0
  6
CONTINUOUS
 62
     7
 10
-512.379201712794
 20
-68.8583297729492
 30
0.0
 11
-516.388498482519
 21
-68.8583297729492
 31
0.0
  0
LINE
  5
   442
  8
0
  6
CONTINUOUS
 62
     7
 10
-523.316701712794
 20
-68.8583297729492
 30
0.0
 11
-527.325998482519
 21
-68.8583297729492
 31
0.0
  0
INSERT
  5
   443
  8
0
  6
CONTINUOUS
 62
     7
  2
*UDIM497
 10
0.0
 20
0.0
 30
0.0
  0
INSERT
  5
   444
  8
0
  6
CONTINUOUS
 62
     7
  2
*UDIM498
 10
0.0
 20
0.0
 30
0.0
  0
LINE
  5
   445
  8
0
  6
CONTINUOUS
 62
     7
 10
-508.915100097656
 20
-117.358329772949
 30
0.0
 11
-530.790100097656
 21
-117.358329772949
 31
0.0
  0
LINE
  5
   446
  8
0
  6
CONTINUOUS
 62
     7
 10
-512.379201712794
 20
-119.358329772949
 30
0.0
 11
-516.388498482519
 21
-119.358329772949
 31
0.0
  0
LINE
  5
   447
  8
0
  6
CONTINUOUS
 62
     7
 10
-523.316701712794
 20
-119.358329772949
 30
0.0
 11
-527.325998482519
 21
-119.358329772949
 31
0.0
  0
INSERT
  5
   448
  8
0
  6
CONTINUOUS
 62
     7
  2
*UDIM499
 10
0.0
 20
0.0
 30
0.0
  0
TEXT
  5
   449
  8
0
  6
CONTINUOUS
 62
     7
 10
-558.131283072455
 20
-95.2567825509077
 30
0.0
 40
3.00000002980232
  1
X
 50
359.999999896069
 41
0.916666604744064
 72
     2
 11
-555.931283203586
 21
-95.2567825548873
 31
0.0
  0
INSERT
  5
   44A
  8
0
  6
CONTINUOUS
 62
     7
  2
*UDIM500
 10
0.0
 20
0.0
 30
0.0
  0
INSERT
  5
   44B
  8
0
  6
CONTINUOUS
 62
     7
  2
*UDIM501
 10
0.0
 20
0.0
 30
0.0
  0
INSERT
  5
   44C
  8
0
  6
CONTINUOUS
 62
     7
  2
*UDIM502
 10
0.0
 20
0.0
 30
0.0
  0
INSERT
  5
   44D
  8
0
  6
CONTINUOUS
 62
     7
  2
*UDIM503
 10
0.0
 20
0.0
 30
0.0
  0
INSERT
  5
   44E
  8
0
  6
CONTINUOUS
 62
     7
  2
*UDIM504
 10
0.0
 20
0.0
 30
0.0
  0
INSERT
  5
   44F
  8
0
  6
CONTINUOUS
 62
     7
  2
*UDIM505
 10
0.0
 20
0.0
 30
0.0
  0
INSERT
  5
   450
  8
0
  6
CONTINUOUS
 62
     7
  2
*UDIM506
 10
0.0
 20
0.0
 30
0.0
  0
TEXT
  5
   451
  8
0
  6
CONTINUOUS
 62
     7
 10
-489.422420504422
 20
-95.5591235438953
 30
0.0
 40
3.00000002980232
  1
X
 50
359.999999896069
 41
0.916666604744064
 72
     2
 11
-487.222420635553
 21
-95.5591235478749
 31
0.0
  0
TEXT
  5
   452
  8
0
  6
CONTINUOUS
 62
     7
 10
-520.985045674176
 20
-135.372894314922
 30
0.0
 40
3.00000002980232
  1
Y
 50
359.999999896069
 41
0.916666604744064
 72
     2
 11
-518.785045805307
 21
-135.372894318902
 31
0.0
  0
LINE
  5
   453
  8
0
  6
CONTINUOUS
 62
     7
 10
-473.789779663086
 20
36.2821502685547
 30
0.0
 11
-473.789779663086
 21
36.5321350097656
 31
0.0
  0
LINE
  5
   454
  8
0
  6
CONTINUOUS
 62
     7
 10
-473.789779663086
 20
44.0321350097656
 30
0.0
 11
-473.789779663086
 21
54.0321197509766
 31
0.0
  0
LINE
  5
   455
  8
0
  6
CONTINUOUS
 62
     7
 10
-472.539764404297
 20
36.5321350097656
 30
0.0
 11
-472.539764404297
 21
44.0321350097656
 31
0.0
  0
LINE
  5
   456
  8
0
  6
CONTINUOUS
 62
     7
 10
-472.539764404297
 20
36.5321350097656
 30
0.0
 11
-473.789779663086
 21
36.5321350097656
 31
0.0
  0
LINE
  5
   457
  8
0
  6
CONTINUOUS
 62
     7
 10
-472.539764404297
 20
44.0321350097656
 30
0.0
 11
-473.789779663086
 21
44.0321350097656
 31
0.0
  0
LINE
  5
   458
  8
0
  6
CONTINUOUS
 62
     7
 10
-472.539764404297
 20
54.0321197509766
 30
0.0
 11
-472.539764404297
 21
61.5321197509766
 31
0.0
  0
LINE
  5
   459
  8
0
  6
CONTINUOUS
 62
     7
 10
-472.539764404297
 20
54.0321197509766
 30
0.0
 11
-473.789779663086
 21
54.0321197509766
 31
0.0
  0
LINE
  5
   45A
  8
0
  6
CONTINUOUS
 62
     7
 10
-472.539764404297
 20
61.5321197509766
 30
0.0
 11
-473.789779663086
 21
61.5321197509766
 31
0.0
  0
LINE
  5
   45B
  8
0
  6
CONTINUOUS
 62
     7
 10
-439.539787292481
 20
36.2821350097656
 30
0.0
 11
-439.539787292481
 21
63.7821197509766
 31
0.0
  0
LINE
  5
   45C
  8
0
  6
CONTINUOUS
 62
     2
 10
-473.789776252362
 20
63.5321197509765
 30
0.0
 11
-473.789772482517
 21
68.7821630841795
 31
0.0
  0
LINE
  5
   45D
  8
0
  6
CONTINUOUS
 62
     7
 10
-437.789779663086
 20
72.5321197509766
 30
0.0
 11
-439.539779663086
 21
72.5321197509766
 31
0.0
  0
LINE
  5
   45E
  8
0
  6
CONTINUOUS
 62
     7
 10
-439.539791652162
 20
63.7821153913698
 30
0.0
 11
-439.539784022768
 21
72.5321153913698
 31
0.0
  0
LINE
  5
   45F
  8
0
  6
CONTINUOUS
 62
     7
 10
-471.789779663086
 20
64.7821197509766
 30
0.0
 11
-473.789779663086
 21
64.7821197509766
 31
0.0
  0
LINE
  5
   460
  8
0
  6
CONTINUOUS
 62
     7
 10
-471.789778391703
 20
64.782113393447
 30
0.0
 11
-471.789775837336
 21
65.7865316897753
 31
0.0
  0
LINE
  5
   461
  8
0
  6
CONTINUOUS
 62
     7
 10
-439.539787292481
 20
31.5321426391602
 30
0.0
 11
-439.539787292481
 21
36.2821502685547
 31
0.0
  0
LINE
  5
   462
  8
0
  6
CONTINUOUS
 62
     7
 10
-473.789774563425
 20
1.03215535822574
 30
0.0
 11
-473.789759304636
 21
1.17927291336719
 31
0.0
  0
LINE
  5
   463
  8
0
  6
CONTINUOUS
 62
     7
 10
-473.789760284486
 20
8.88503601831848
 30
0.0
 11
-473.789775543274
 21
36.28214600367
 31
0.0
  0
LINE
  5
   464
  8
0
  6
CONTINUOUS
 62
     7
 10
-438.289779663086
 20
7.78215026855469
 30
0.0
 11
-472.289796447755
 21
7.78215026855469
 31
0.0
  0
LINE
  5
   465
  8
0
  6
CONTINUOUS
 62
     7
 10
-438.289779663086
 20
2.28215026855469
 30
0.0
 11
-472.289796447755
 21
2.28215026855469
 31
0.0
  0
LINE
  5
   466
  8
0
  6
CONTINUOUS
 62
     7
 10
-469.673750164961
 20
7.78215535316605
 30
0.0
 11
-473.789762561966
 21
8.88504106623447
 31
0.0
  0
LINE
  5
   467
  8
0
  6
CONTINUOUS
 62
     7
 10
-473.789760254975
 20
1.17926863851832
 30
0.0
 11
-469.673747763197
 21
2.28215080291451
 31
0.0
  0
LINE
  5
   468
  8
0
  6
CONTINUOUS
 62
     7
 10
-437.789787292481
 20
9.28215026855469
 30
0.0
 11
-441.789787292481
 21
9.28215026855469
 31
0.0
  0
LINE
  5
   469
  8
0
  6
CONTINUOUS
 62
     7
 10
-441.789787292481
 20
9.28215026855469
 30
0.0
 11
-441.789787292481
 21
30.5321426391602
 31
0.0
  0
LINE
  5
   46A
  8
0
  6
CONTINUOUS
 62
     7
 10
-473.289764404297
 20
5.28215026855469
 30
0.0
 11
-473.289764404297
 21
8.75106048583984
 31
0.0
  0
LINE
  5
   46B
  8
0
  6
CONTINUOUS
 62
     7
 10
-473.289771446797
 20
1.31324502194902
 30
0.0
 11
-473.289763817409
 21
1.78215523923418
 31
0.0
  0
LINE
  5
   46C
  8
0
  6
CONTINUOUS
 62
     2
 10
-473.789764404297
 20
9.28215026855469
 30
0.0
 11
-474.789764404297
 21
9.28215026855469
 31
0.0
  0
LINE
  5
   46D
  8
0
  6
CONTINUOUS
 62
     2
 10
-473.789764404297
 20
12.0321502685547
 30
0.0
 11
-474.789764404297
 21
12.0321502685547
 31
0.0
  0
LINE
  5
   46E
  8
0
  6
CONTINUOUS
 62
     7
 10
-437.789798097479
 20
1.78216978165139
 30
0.0
 11
-438.289790451787
 21
2.28216213595894
 31
0.0
  0
LINE
  5
   46F
  8
0
  6
CONTINUOUS
 62
     7
 10
-438.289785981348
 20
7.78215096953303
 30
0.0
 11
-437.789785998463
 21
8.28215095241872
 31
0.0
  0
LINE
  5
   470
  8
0
  6
CONTINUOUS
 62
     7
 10
-439.539787292481
 20
30.5321426391602
 30
0.0
 11
-439.539787292481
 21
31.5321426391602
 31
0.0
  0
LINE
  5
   471
  8
0
  6
CONTINUOUS
 62
     2
 10
-472.789764404297
 20
-7.96783447265566
 30
0.0
 11
-474.789764404297
 21
-7.96783447265566
 31
0.0
  0
LINE
  5
   472
  8
0
  6
CONTINUOUS
 62
     7
 10
-473.789779663086
 20
-0.967849731445313
 30
0.0
 11
-473.789779663086
 21
1.03215026855469
 31
0.0
  0
LINE
  5
   473
  8
0
  6
CONTINUOUS
 62
     7
 10
-437.789787292481
 20
-5.46783447265625
 30
0.0
 11
-442.789779663086
 21
-5.46783447265625
 31
0.0
  0
LINE
  5
   474
  8
0
  6
CONTINUOUS
 62
     7
 10
-442.789779663086
 20
-7.96783447265625
 30
0.0
 11
-442.789779663086
 21
-5.46783447265625
 31
0.0
  0
LINE
  5
   475
  8
0
  6
CONTINUOUS
 62
     7
 10
-473.789779663086
 20
-6.71782501222492
 30
0.0
 11
-473.789779663086
 21
-0.967849731445313
 31
0.0
  0
LINE
  5
   476
  8
0
  6
CONTINUOUS
 62
     2
 10
-473.789779663086
 20
63.5321197509766
 30
0.0
 11
-474.039764404297
 21
63.5321197509766
 31
0.0
  0
LINE
  5
   477
  8
0
  6
CONTINUOUS
 62
     7
 10
-473.789772033691
 20
28.2821502685547
 30
0.0
 11
-474.039764404297
 21
28.2821502685547
 31
0.0
  0
LINE
  5
   478
  8
0
  6
CONTINUOUS
 62
     7
 10
-473.789764404297
 20
12.2821521759033
 30
0.0
 11
-474.039764404297
 21
12.2821521759033
 31
0.0
  0
LINE
  5
   479
  8
0
  6
CONTINUOUS
 62
     7
 10
-473.289764404297
 20
8.53215074539185
 30
0.0
 11
-474.039764404297
 21
8.53215074539185
 31
0.0
  0
LINE
  5
   47A
  8
0
  6
CONTINUOUS
 62
     7
 10
-473.789779663086
 20
0.532157897949219
 30
0.0
 11
-474.039764404297
 21
0.532157897949219
 31
0.0
  0
LINE
  5
   47B
  8
0
  6
CONTINUOUS
 62
     2
 10
-474.039764404297
 20
-6.26782969720003
 30
0.0
 11
-474.039764404297
 21
9.28214263916016
 31
0.0
  0
LINE
  5
   47C
  8
0
  6
CONTINUOUS
 62
     2
 10
-474.039764404297
 20
12.0321426391602
 30
0.0
 11
-474.039764404297
 21
63.532112121582
 31
0.0
  0
LINE
  5
   47D
  8
0
  6
CONTINUOUS
 62
     7
 10
-473.289764404297
 20
54.0321426391602
 30
0.0
 11
-473.289764404297
 21
61.5321197509766
 31
0.0
  0
LINE
  5
   47E
  8
0
  6
CONTINUOUS
 62
     7
 10
-473.289764404297
 20
36.5321655273438
 30
0.0
 11
-473.289764404297
 21
44.0321578979492
 31
0.0
  0
LINE
  5
   47F
  8
0
  6
CONTINUOUS
 62
     7
 10
-473.289764404297
 20
1.78218841552734
 30
0.0
 11
-473.289764404297
 21
5.28218841552734
 31
0.0
  0
LINE
  5
   480
  8
0
  6
CONTINUOUS
 62
     2
 10
-473.839768308813
 20
-6.46782579268396
 30
0.0
 11
-474.03976525475
 21
-6.26782884674703
 31
0.0
  0
LINE
  5
   481
  8
0
  6
CONTINUOUS
 62
     7
 10
-439.289794921876
 20
37.7821176623344
 30
0.0
 11
-439.289794921876
 21
65.032140550518
 31
0.0
  0
LINE
  5
   482
  8
0
  6
CONTINUOUS
 62
     7
 10
-425.289817810064
 20
73.0321342977013
 30
0.0
 11
-425.289817810064
 21
85.0321342977013
 31
0.0
  0
LINE
  5
   483
  8
0
  6
CONTINUOUS
 62
     7
 10
-425.289779663086
 20
73.0321368408027
 30
0.0
 11
-425.539779663086
 21
73.0321368408027
 31
0.0
  0
LINE
  5
   484
  8
0
  6
CONTINUOUS
 62
     7
 10
-425.539779663086
 20
72.7821368408027
 30
0.0
 11
-425.539779663086
 21
73.0321368408027
 31
0.0
  0
LINE
  5
   485
  8
0
  6
CONTINUOUS
 62
     7
 10
-437.789779663086
 20
72.2821292114081
 30
0.0
 11
-437.789779663086
 21
72.7821368408027
 31
0.0
  0
LINE
  5
   486
  8
0
  6
CONTINUOUS
 62
     7
 10
-437.789786479394
 20
83.6321271449813
 30
0.0
 11
-437.78977885
 21
85.0321439290776
 31
0.0
  0
LINE
  5
   487
  8
0
  6
CONTINUOUS
 62
     7
 10
-425.289775848394
 20
85.0321520995836
 30
0.0
 11
-437.789775848394
 21
85.0321520995836
 31
0.0
  0
LINE
  5
   488
  8
0
  6
CONTINUOUS
 62
     7
 10
-426.539779663086
 20
72.7821368408027
 30
0.0
 11
-426.689781188965
 21
72.7821368408027
 31
0.0
  0
LINE
  5
   489
  8
0
  6
CONTINUOUS
 62
     7
 10
-437.789779663086
 20
72.2821444701972
 30
0.0
 11
-439.289779663086
 21
72.2821444701972
 31
0.0
  0
LINE
  5
   48A
  8
0
  6
CONTINUOUS
 62
     7
 10
-439.289779663086
 20
65.0321444701972
 30
0.0
 11
-439.289779663086
 21
72.2821444701972
 31
0.0
  0
LINE
  5
   48B
  8
0
  6
CONTINUOUS
 62
     7
 10
-437.78980255127
 20
-4.96784790040828
 30
0.0
 11
-437.78980255127
 21
-1.32954223634578
 31
0.0
  0
LINE
  5
   48C
  8
0
  6
CONTINUOUS
 62
     7
 10
-439.28978729248
 20
31.7821368408027
 30
0.0
 11
-439.28978729248
 21
37.7821215820136
 31
0.0
  0
LINE
  5
   48D
  8
0
  6
CONTINUOUS
 62
     7
 10
-439.28978729248
 20
30.5321215820136
 30
0.0
 11
-439.78978729248
 21
30.5321215820136
 31
0.0
  0
LINE
  5
   48E
  8
0
  6
CONTINUOUS
 62
     7
 10
-426.689796825772
 20
-6.46783264160858
 30
0.0
 11
-437.789802929288
 21
-6.46783264160858
 31
0.0
  0
LINE
  5
   48F
  8
0
  6
CONTINUOUS
 62
     7
 10
-437.78980255127
 20
-6.46784790040828
 30
0.0
 11
-437.78980255127
 21
-4.96784790040828
 31
0.0
  0
LINE
  5
   490
  8
0
  6
CONTINUOUS
 62
     7
 10
-437.789794921875
 20
-1.32954223634578
 30
0.0
 11
-437.789794921875
 21
2.15715670473347
 31
0.0
  0
LINE
  5
   491
  8
0
  6
CONTINUOUS
 62
     7
 10
-426.53980255127
 20
-7.96785552980281
 30
0.0
 11
-426.53980255127
 21
-6.46785552980281
 31
0.0
  0
LINE
  5
   492
  8
0
  6
CONTINUOUS
 62
     7
 10
-426.53980255127
 20
-6.46785552980281
 30
0.0
 11
-426.689796417952
 21
-6.46785552980281
 31
0.0
  0
LINE
  5
   493
  8
0
  6
CONTINUOUS
 62
     7
 10
-439.78978729248
 20
30.5321215820136
 30
0.0
 11
-441.789787292481
 21
30.5321215820136
 31
0.0
  0
LINE
  5
   494
  8
0
  6
CONTINUOUS
 62
     7
 10
-439.28978729248
 20
30.5321215820136
 30
0.0
 11
-439.28978729248
 21
31.7821368408027
 31
0.0
  0
LINE
  5
   495
  8
0
  6
CONTINUOUS
 62
     7
 10
-426.689798526931
 20
2.15716735838938
 30
0.0
 11
-437.789797001052
 21
2.15716735838938
 31
0.0
  0
LINE
  5
   496
  8
0
  6
CONTINUOUS
 62
     7
 10
-426.689802204162
 20
7.90716735838802
 30
0.0
 11
-437.789800678283
 21
7.90716735838802
 31
0.0
  0
LINE
  5
   497
  8
0
  6
CONTINUOUS
 62
     7
 10
-437.140282198214
 20
-4.59283934207869
 30
0.0
 11
-437.039803087979
 21
-4.21783934725585
 31
0.0
  0
LINE
  5
   498
  8
0
  6
CONTINUOUS
 62
     7
 10
-437.414797880329
 20
-4.8673638748083
 30
0.0
 11
-437.140284653829
 21
-4.59284301208917
 31
0.0
  0
LINE
  5
   499
  8
0
  6
CONTINUOUS
 62
     7
 10
-437.789811193968
 20
-4.9678361825683
 30
0.0
 11
-437.414803579695
 21
-4.86735706468692
 31
0.0
  0
LINE
  5
   49A
  8
0
  6
CONTINUOUS
 62
     7
 10
-437.414799401811
 20
0.931674061838706
 30
0.0
 11
-437.789799399061
 21
1.03216080836597
 31
0.0
  0
LINE
  5
   49B
  8
0
  6
CONTINUOUS
 62
     7
 10
-437.14028681147
 20
0.657156633129716
 30
0.0
 11
-437.41480004179
 21
0.931669863449713
 31
0.0
  0
LINE
  5
   49C
  8
0
  6
CONTINUOUS
 62
     7
 10
-437.039808277901
 20
0.282157328295831
 30
0.0
 11
-437.140295024428
 21
0.65715732554618
 31
0.0
  0
LINE
  5
   49D
  8
0
  6
CONTINUOUS
 62
     7
 10
-437.039806789805
 20
-4.21784493104301
 30
0.0
 11
-437.039799160411
 21
0.282155068956989
 31
0.0
  0
LINE
  5
   49E
  8
0
  6
CONTINUOUS
 62
     7
 10
-426.689796447755
 20
-6.46785552980281
 30
0.0
 11
-426.689796447755
 21
72.78213058441
 31
0.0
  0
LINE
  5
   49F
  8
0
  6
CONTINUOUS
 62
     7
 10
-426.68977355957
 20
83.6321429443183
 30
0.0
 11
-473.789761819342
 21
83.6321429443183
 31
0.0
  0
LINE
  5
   4A0
  8
0
  6
CONTINUOUS
 62
     7
 10
-426.689826965339
 20
72.7821333953196
 30
0.0
 11
-426.689826965339
 21
83.6321394988352
 31
0.0
  0
LINE
  5
   4A1
  8
0
  6
CONTINUOUS
 62
     7
 10
-437.789779663086
 20
72.7821444701972
 30
0.0
 11
-437.789779663086
 21
83.6321429443183
 31
0.0
  0
LINE
  5
   4A2
  8
0
  6
CONTINUOUS
 62
     7
 10
-418.539772033691
 20
-3.84282501222468
 30
0.0
 11
-418.539772033691
 21
5.65715026855469
 31
0.0
  0
LINE
  5
   4A3
  8
0
  6
CONTINUOUS
 62
     7
 10
-418.539772033691
 20
47.5321597289862
 30
0.0
 11
-418.539772033691
 21
47.6571597289862
 31
0.0
  0
LINE
  5
   4A4
  8
0
  6
CONTINUOUS
 62
     7
 10
-421.289772033691
 20
48.6571597289862
 30
0.0
 11
-423.039772033691
 21
48.6571597289862
 31
0.0
  0
LINE
  5
   4A5
  8
0
  6
CONTINUOUS
 62
     7
 10
-421.289772033691
 20
-3.84282501222468
 30
0.0
 11
-423.039772033691
 21
-3.84282501222468
 31
0.0
  0
LINE
  5
   4A6
  8
0
  6
CONTINUOUS
 62
     7
 10
-426.539772033691
 20
-11.9678250122247
 30
0.0
 11
-426.539772033691
 21
-6.46785552980281
 31
0.0
  0
LINE
  5
   4A7
  8
0
  6
CONTINUOUS
 62
     7
 10
-424.039772033691
 20
-11.9678250122247
 30
0.0
 11
-424.039772033691
 21
-3.84282501222468
 31
0.0
  0
LINE
  5
   4A8
  8
0
  6
CONTINUOUS
 62
     7
 10
-424.039772033691
 20
48.6571597289862
 30
0.0
 11
-424.039772033691
 21
72.7821597289863
 31
0.0
  0
LINE
  5
   4A9
  8
0
  6
CONTINUOUS
 62
     7
 10
-424.039772033691
 20
72.7821597289863
 30
0.0
 11
-426.539772033691
 21
72.7821597289863
 31
0.0
  0
LINE
  5
   4AA
  8
0
  6
CONTINUOUS
 62
     7
 10
-424.039772033691
 20
-11.9678250122247
 30
0.0
 11
-426.539772033691
 21
-11.9678250122247
 31
0.0
  0
LINE
  5
   4AB
  8
0
  6
CONTINUOUS
 62
     7
 10
-423.039772033691
 20
-3.84282501222468
 30
0.0
 11
-423.039772033691
 21
48.6571597289862
 31
0.0
  0
LINE
  5
   4AC
  8
0
  6
CONTINUOUS
 62
     7
 10
-423.039772033691
 20
-3.84282501222468
 30
0.0
 11
-424.039772033691
 21
-3.84282501222468
 31
0.0
  0
LINE
  5
   4AD
  8
0
  6
CONTINUOUS
 62
     7
 10
-423.039772033691
 20
48.6571597289862
 30
0.0
 11
-424.039772033691
 21
48.6571597289862
 31
0.0
  0
LINE
  5
   4AE
  8
0
  6
CONTINUOUS
 62
     7
 10
-426.689808027869
 20
8.18213679240584
 30
0.0
 11
-426.539806508946
 21
8.19525934939323
 31
0.0
  0
LINE
  5
   4AF
  8
0
  6
CONTINUOUS
 62
     7
 10
-426.53978072291
 20
1.86902407685044
 30
0.0
 11
-426.689782246028
 21
1.88215426325681
 31
0.0
  0
LINE
  5
   4B0
  8
0
  6
CONTINUOUS
 62
     7
 10
-437.789794921875
 20
7.90715670473482
 30
0.0
 11
-437.789794921875
 21
9.28213684080266
 31
0.0
  0
LINE
  5
   4B1
  8
0
  6
CONTINUOUS
 62
   218
 10
-426.689774036408
 20
-40.5678253936946
 30
0.0
 11
-450.490013180543
 21
-40.5678253936946
 31
0.0
  0
LINE
  5
   4B2
  8
0
  6
CONTINUOUS
 62
   218
 10
-462.289764404297
 20
-41.9678250122247
 30
0.0
 11
-473.789764881134
 21
-41.9678250122247
 31
0.0
  0
LINE
  5
   4B3
  8
0
  6
CONTINUOUS
 62
     2
 10
-472.789764404297
 20
-6.71782501222492
 30
0.0
 11
-474.789764404297
 21
-6.71782501222492
 31
0.0
  0
LINE
  5
   4B4
  8
0
  6
CONTINUOUS
 62
     7
 10
-426.689765930176
 20
-6.71782501222492
 30
0.0
 11
-435.289772033692
 21
-6.71782501222492
 31
0.0
  0
LINE
  5
   4B5
  8
0
  6
CONTINUOUS
 62
   218
 10
-425.289764404297
 20
-41.9678250122249
 30
0.0
 11
-425.289764404297
 21
-29.9678326416195
 31
0.0
  0
LINE
  5
   4B6
  8
0
  6
CONTINUOUS
 62
     2
 10
-472.789764404297
 20
-7.96782501222493
 30
0.0
 11
-472.789764404297
 21
-6.71782501222493
 31
0.0
  0
LINE
  5
   4B7
  8
0
  6
CONTINUOUS
 62
   218
 10
-426.689770031192
 20
-27.9678326420672
 30
0.0
 11
-426.539772033729
 21
-27.9678308814654
 31
0.0
  0
LINE
  5
   4B8
  8
0
  6
CONTINUOUS
 62
   218
 10
-424.539764404297
 20
-29.9678326416195
 30
0.0
 11
-426.689765930176
 21
-29.9678326416195
 31
0.0
  0
LINE
  5
   4B9
  8
0
  6
CONTINUOUS
 62
   218
 10
-426.689765930176
 20
-40.567823486346
 30
0.0
 11
-426.689765930176
 21
-27.9678250122249
 31
0.0
  0
LINE
  5
   4BA
  8
0
  6
CONTINUOUS
 62
   218
 10
-426.689765930176
 20
-27.9678250122249
 30
0.0
 11
-426.689765930176
 21
-6.71782501222492
 31
0.0
  0
LINE
  5
   4BB
  8
0
  6
CONTINUOUS
 62
     7
 10
-426.539772033691
 20
-12.4678250122249
 30
0.0
 11
-426.689765930176
 21
-12.4678250122249
 31
0.0
  0
LINE
  5
   4BC
  8
0
  6
CONTINUOUS
 62
   218
 10
-474.789764404133
 20
-24.9678326411247
 30
0.0
 11
-473.789764880993
 21
-24.9678250117302
 31
0.0
  0
LINE
  5
   4BD
  8
0
  6
CONTINUOUS
 62
   218
 10
-473.789764881134
 20
-41.9678250122247
 30
0.0
 11
-473.789764881134
 21
-40.2178888196765
 31
0.0
  0
LINE
  5
   4BE
  8
0
  6
CONTINUOUS
 62
     7
 10
-437.789777754661
 20
-6.71782500996964
 30
0.0
 11
-437.789770125266
 21
-5.71782500994678
 31
0.0
  0
LINE
  5
   4BF
  8
0
  6
CONTINUOUS
 62
     7
 10
-437.789764404297
 20
-5.71782501222492
 30
0.0
 11
-442.789764404297
 21
-5.71782501222492
 31
0.0
  0
LINE
  5
   4C0
  8
0
  6
CONTINUOUS
 62
     7
 10
-435.289772033692
 20
-6.71782501222492
 30
0.0
 11
-437.789772033691
 21
-6.71782501222492
 31
0.0
  0
LINE
  5
   4C1
  8
0
  6
CONTINUOUS
 62
     7
 10
-424.039772033691
 20
-12.2178250122247
 30
0.0
 11
-426.539772033691
 21
-12.2178250122247
 31
0.0
  0
LINE
  5
   4C2
  8
0
  6
CONTINUOUS
 62
     7
 10
-424.039772033691
 20
-29.7178250122247
 30
0.0
 11
-426.539772033691
 21
-29.7178250122247
 31
0.0
  0
LINE
  5
   4C3
  8
0
  6
CONTINUOUS
 62
     7
 10
-424.039772033691
 20
-29.7178250122247
 30
0.0
 11
-424.039772033691
 21
-12.2178250122247
 31
0.0
  0
LINE
  5
   4C4
  8
0
  6
CONTINUOUS
 62
     7
 10
-425.039772033691
 20
-29.7178250122247
 30
0.0
 11
-425.039772033691
 21
-12.2178250122247
 31
0.0
  0
LINE
  5
   4C5
  8
0
  6
CONTINUOUS
 62
     7
 10
-426.539772033691
 20
-29.7178250122247
 30
0.0
 11
-426.539772033691
 21
-12.2178250122247
 31
0.0
  0
ARC
  5
   4C6
  8
0
  6
CONTINUOUS
 62
     7
 10
-408.202245648435
 20
11.3852342552438
 30
0.0
 40
0.499999897877905
 50
348.623573369035
 51
436.688788706936
  0
ARC
  5
   4C7
  8
0
  6
CONTINUOUS
 62
     7
 10
-408.800617848353
 20
8.41132527124499
 30
0.0
 40
0.50000037262337
 50
260.593992196011
 51
348.623573369035
  0
LINE
  5
   4C8
  8
0
  6
DASHDOT
 62
     7
 10
-400.801953322661
 20
8.33090361734659
 30
0.0
 11
-425.860296557115
 21
13.3728237852448
 31
0.0
  0
LINE
  5
   4C9
  8
0
  6
CONTINUOUS
 62
     7
 10
-408.087125676088
 20
11.8718007249425
 30
0.0
 11
-418.539772033692
 21
14.3448613129144
 31
0.0
  0
LINE
  5
   4CA
  8
0
  6
CONTINUOUS
 62
     7
 10
-408.310441403473
 20
8.31269821996122
 30
0.0
 11
-407.712069367848
 21
11.2866072370171
 31
0.0
  0
LINE
  5
   4CB
  8
0
  6
CONTINUOUS
 62
     7
 10
-408.882332586947
 20
7.91804754837359
 30
0.0
 11
-418.539772033691
 21
9.51786668327488
 31
0.0
  0
LINE
  5
   4CC
  8
0
  6
CONTINUOUS
 62
     7
 10
-472.289796447755
 20
2.28215026855469
 30
0.0
 11
-472.289796447755
 21
7.78215026855469
 31
0.0
  0
LINE
  5
   4CD
  8
0
  6
CONTINUOUS
 62
     7
 10
-462.28977607285
 20
81.0321426391601
 30
0.0
 11
-464.78977607285
 21
81.0321426391601
 31
0.0
  0
LINE
  5
   4CE
  8
0
  6
DASHDOT
 62
     7
 10
-454.437805586374
 20
76.0321682194048
 30
0.0
 11
-468.504447603812
 21
76.0321682194048
 31
0.0
  0
LINE
  5
   4CF
  8
0
  6
CONTINUOUS
 62
     7
 10
-457.209846039177
 20
65.7865316897753
 30
0.0
 11
-455.69459755035
 21
69.1298541618966
 31
0.0
  0
LINE
  5
   4D0
  8
0
  6
CONTINUOUS
 62
     7
 10
-462.289777026524
 20
65.7865316897753
 30
0.0
 11
-462.289777026524
 21
81.0321426391601
 31
0.0
  0
LINE
  5
   4D1
  8
0
  6
CONTINUOUS
 62
     2
 10
-473.789762070648
 20
83.282163084179
 30
0.0
 11
-473.789759916483
 21
86.2821426391602
 31
0.0
  0
LINE
  5
   4D2
  8
0
  6
CONTINUOUS
 62
     7
 10
-455.512640611165
 20
70.0321682194048
 30
0.0
 11
-462.289777026524
 21
70.0321682194048
 31
0.0
  0
INSERT
  5
   4D3
  8
0
  6
CONTINUOUS
 62
     7
  2
*HATCH326
 10
-474.789764404297
 20
-32.5863952636719
 30
0.0
 41
0.5
 42
0.5
 50
89.9999999480344
 43
0.5
  0
LINE
  5
   4D4
  8
0
  6
CONTINUOUS
 62
     7
 10
-456.419073359702
 20
68.0321682194048
 30
0.0
 11
-462.289777026524
 21
68.0321682194048
 31
0.0
  0
INSERT
  5
   4D5
  8
0
  6
CONTINUOUS
 62
     7
  2
*HATCH327
 10
-474.789764404297
 20
-32.5863952636719
 30
0.0
 41
0.5
 42
0.5
 50
89.9999999480344
 43
0.5
  0
LINE
  5
   4D6
  8
0
  6
CONTINUOUS
 62
     2
 10
-437.789794921875
 20
85.0321426391602
 30
0.0
 11
-473.789764404297
 21
85.0321426391602
 31
0.0
  0
LINE
  5
   4D7
  8
0
  6
DASHDOT
 62
     7
 10
-474.789764404297
 20
-25.717888819677
 30
0.0
 11
-474.789764404297
 21
68.7821630841795
 31
0.0
  0
LINE
  5
   4D8
  8
0
  6
DASHDOT
 62
     7
 10
-476.289764404297
 20
-25.717888819677
 30
0.0
 11
-476.289764404297
 21
68.7821630841795
 31
0.0
  0
LINE
  5
   4D9
  8
0
  6
CONTINUOUS
 62
     7
 10
-473.22490377873
 20
93.588247790617
 30
0.0
 11
-478.293799650758
 21
93.588247790617
 31
0.0
  0
LINE
  5
   4DA
  8
0
  6
CONTINUOUS
 62
     7
 10
-471.414583824435
 20
-51.5591832115724
 30
0.0
 11
-480.707559589819
 21
-51.5591832115724
 31
0.0
  0
ARC
  5
   4DB
  8
0
  6
CONTINUOUS
 62
     7
 10
-445.289772033691
 20
17.2821749877753
 30
0.0
 40
38.0220413050115
 50
333.082565820193
 51
379.93594827737
  0
LINE
  5
   4DC
  8
0
  6
CONTINUOUS
 62
     7
 10
-407.26773072868
 20
17.2821749877753
 30
0.0
 11
-407.26773072868
 21
38.9568145032076
 31
0.0
  0
LINE
  5
   4DD
  8
0
  6
CONTINUOUS
 62
     7
 10
-457.209846039177
 20
65.7865316897753
 30
0.0
 11
-475.993849285411
 21
65.7865316897753
 31
0.0
  0
INSERT
  5
   4DE
  8
0
  6
CONTINUOUS
 62
     7
  2
*HATCH328
 10
-474.789764404297
 20
-32.5863952636719
 30
0.0
 41
0.5
 42
0.5
 50
89.9999999480344
 43
0.5
  0
LINE
  5
   4DF
  8
0
  6
CONTINUOUS
 62
     7
 10
-464.78977607285
 20
67.2821426391601
 30
0.0
 11
-467.28977607285
 21
67.2821426391601
 31
0.0
  0
LINE
  5
   4E0
  8
0
  6
CONTINUOUS
 62
     7
 10
-468.785387022235
 20
65.7865316897752
 30
0.0
 11
-467.28977607285
 21
67.2821426391601
 31
0.0
  0
INSERT
  5
   4E1
  8
0
  6
CONTINUOUS
 62
     7
  2
*HATCH329
 10
-474.789764404297
 20
-32.5863952636719
 30
0.0
 41
0.5
 42
0.5
 50
89.9999999480344
 43
0.5
  0
LINE
  5
   4E2
  8
0
  6
DASHDOT
 62
     7
 10
-454.437805586374
 20
-32.9678829410845
 30
0.0
 11
-468.504447603812
 21
-32.9678829410845
 31
0.0
  0
LINE
  5
   4E3
  8
0
  6
CONTINUOUS
 62
     7
 10
-462.28977607285
 20
-37.9678573608398
 30
0.0
 11
-464.78977607285
 21
-37.9678573608398
 31
0.0
  0
LINE
  5
   4E4
  8
0
  6
CONTINUOUS
 62
     7
 10
-464.78977607285
 20
-37.9678573608398
 30
0.0
 11
-464.78977607285
 21
-22.722246411455
 31
0.0
  0
LINE
  5
   4E5
  8
0
  6
CONTINUOUS
 62
     7
 10
-462.289777026524
 20
-37.9678573608398
 30
0.0
 11
-462.289777026524
 21
-22.722246411455
 31
0.0
  0
LINE
  5
   4E6
  8
0
  6
CONTINUOUS
 62
     7
 10
-454.358148714419
 20
-22.722246411455
 30
0.0
 11
-479.344048821621
 21
-22.722246411455
 31
0.0
  0
LINE
  5
   4E7
  8
0
  6
CONTINUOUS
 62
     7
 10
-449.678127177312
 20
-43.5235149610138
 30
0.0
 11
-455.595840360596
 21
-21.9799447447421
 31
0.0
  0
LINE
  5
   4E8
  8
0
  6
CONTINUOUS
 62
   218
 10
-425.289764881134
 20
-41.9678250122247
 30
0.0
 11
-459.289764404297
 21
-41.9678250122247
 31
0.0
  0
INSERT
  5
   4E9
  8
0
  6
CONTINUOUS
 62
     7
  2
*HATCH330
 10
-474.789764404297
 20
-32.5863952636719
 30
0.0
 41
0.5
 42
0.5
 50
89.9999999480344
 43
0.5
  0
INSERT
  5
   4EA
  8
0
  6
CONTINUOUS
 62
     7
  2
*HATCH331
 10
-474.789764404297
 20
-32.5863952636719
 30
0.0
 41
0.5
 42
0.5
 50
89.9999999480344
 43
0.5
  0
LINE
  5
   4EB
  8
0
  6
CONTINUOUS
 62
     7
 10
-464.78977607285
 20
-25.4678829410845
 30
0.0
 11
-473.789764881134
 21
-25.4678829410845
 31
0.0
  0
LINE
  5
   4EC
  8
0
  6
CONTINUOUS
 62
     7
 10
-464.78977607285
 20
-23.4678829410845
 30
0.0
 11
-474.789764404297
 21
-23.4678829410845
 31
0.0
  0
LINE
  5
   4ED
  8
0
  6
CONTINUOUS
 62
     7
 10
-454.088381574168
 20
-26.9678829410845
 30
0.0
 11
-462.289777026524
 21
-26.9678829410845
 31
0.0
  0
INSERT
  5
   4EE
  8
0
  6
CONTINUOUS
 62
     7
  2
*HATCH332
 10
-474.789764404297
 20
-32.5863952636719
 30
0.0
 41
0.5
 42
0.5
 50
89.9999999480344
 43
0.5
  0
LINE
  5
   4EF
  8
0
  6
CONTINUOUS
 62
     7
 10
-454.637753207921
 20
-24.9678829410845
 30
0.0
 11
-462.289777026524
 21
-24.9678829410845
 31
0.0
  0
INSERT
  5
   4F0
  8
0
  6
CONTINUOUS
 62
     7
  2
*HATCH333
 10
-474.789764404297
 20
-32.5863952636719
 30
0.0
 41
0.5
 42
0.5
 50
89.9999999480344
 43
0.5
  0
LINE
  5
   4F1
  8
0
  6
CONTINUOUS
 62
     7
 10
-442.789779663086
 20
-7.96783447265566
 30
0.0
 11
-472.789764404297
 21
-7.96783447265566
 31
0.0
  0
LINE
  5
   4F2
  8
0
  6
CONTINUOUS
 62
     7
 10
-418.539772033691
 20
29.4071502685547
 30
0.0
 11
-418.539772033691
 21
48.6571597289862
 31
0.0
  0
LINE
  5
   4F3
  8
0
  6
CONTINUOUS
 62
     7
 10
-418.539772033691
 20
22.9071502685547
 30
0.0
 11
-418.539772033691
 21
28.9071502685547
 31
0.0
  0
LINE
  5
   4F4
  8
0
  6
CONTINUOUS
 62
     7
 10
-418.539772033691
 20
12.6571559096436
 30
0.0
 11
-418.539772033691
 21
22.4071502685547
 31
0.0
  0
LINE
  5
   4F5
  8
0
  6
CONTINUOUS
 62
     7
 10
-418.539772033691
 20
6.15715026855469
 30
0.0
 11
-418.539772033691
 21
12.1571559096437
 31
0.0
  0
LINE
  5
   4F6
  8
0
  6
CONTINUOUS
 62
     1
 10
-421.289772033691
 20
-5.09608268737793
 30
0.0
 11
-421.289772033691
 21
-4.09608268737793
 31
0.0
  0
LINE
  5
   4F7
  8
0
  6
CONTINUOUS
 62
     1
 10
-420.289772033691
 20
-5.09608268737793
 30
0.0
 11
-421.289772033691
 21
-5.09608268737793
 31
0.0
  0
LINE
  5
   4F8
  8
0
  6
CONTINUOUS
 62
     1
 10
-421.289772033691
 20
-4.09608268737793
 30
0.0
 11
-421.289772033691
 21
49.9039154052734
 31
0.0
  0
LINE
  5
   4F9
  8
0
  6
CONTINUOUS
 62
     1
 10
-420.289772033691
 20
49.9039154052734
 30
0.0
 11
-421.289772033691
 21
49.9039154052734
 31
0.0
  0
LINE
  5
   4FA
  8
0
  6
CONTINUOUS
 62
     1
 10
-423.539771944284
 20
56.6925888061524
 30
0.0
 11
-423.539771944284
 21
59.1152420043945
 31
0.0
  0
LINE
  5
   4FB
  8
0
  6
CONTINUOUS
 62
     1
 10
-423.539771944284
 20
-14.3074073791504
 30
0.0
 11
-423.539771944284
 21
-11.8847579956055
 31
0.0
  0
LINE
  5
   4FC
  8
0
  6
CONTINUOUS
 62
     1
 10
-420.289772033691
 20
-18.3460826873779
 30
0.0
 11
-420.289772033691
 21
63.1539173126221
 31
0.0
  0
LINE
  5
   4FD
  8
0
  6
CONTINUOUS
 62
     1
 10
-418.539772033691
 20
-18.3460826873779
 30
0.0
 11
-420.289772033691
 21
-18.3460826873779
 31
0.0
  0
LINE
  5
   4FE
  8
0
  6
CONTINUOUS
 62
     1
 10
-418.539772033691
 20
-18.3460845947266
 30
0.0
 11
-418.539772033691
 21
63.1539154052734
 31
0.0
  0
LINE
  5
   4FF
  8
0
  6
CONTINUOUS
 62
     1
 10
-418.539772033691
 20
63.1539154052734
 30
0.0
 11
-419.039772033691
 21
63.1539154052734
 31
0.0
  0
LINE
  5
   500
  8
0
  6
CONTINUOUS
 62
     1
 10
-419.539772033691
 20
63.1539154052734
 30
0.0
 11
-420.289772033691
 21
63.1539154052734
 31
0.0
  0
LINE
  5
   501
  8
0
  6
CONTINUOUS
 62
     1
 10
-420.289772033691
 20
56.4039154052734
 30
0.0
 11
-423.039771951135
 21
56.4039154052734
 31
0.0
  0
LINE
  5
   502
  8
0
  6
CONTINUOUS
 62
     1
 10
-420.289772033691
 20
59.4039154052734
 30
0.0
 11
-423.039771951135
 21
59.4039154052734
 31
0.0
  0
LINE
  5
   503
  8
0
  6
CONTINUOUS
 62
     1
 10
-423.039771951135
 20
56.4039154052734
 30
0.0
 11
-423.039771951135
 21
56.5180969238281
 31
0.0
  0
LINE
  5
   504
  8
0
  6
CONTINUOUS
 62
     1
 10
-423.039771553273
 20
56.4039142567427
 30
0.0
 11
-423.539771569736
 21
56.6925876612409
 31
0.0
  0
LINE
  5
   505
  8
0
  6
CONTINUOUS
 62
     1
 10
-423.039771951135
 20
56.4039154052734
 30
0.0
 11
-423.039771951135
 21
56.8432540893555
 31
0.0
  0
LINE
  5
   506
  8
0
  6
CONTINUOUS
 62
     1
 10
-423.039771951135
 20
56.8432540893555
 30
0.0
 11
-423.039771951135
 21
57.3298950195313
 31
0.0
  0
LINE
  5
   507
  8
0
  6
CONTINUOUS
 62
     1
 10
-423.039771951135
 20
57.3298950195313
 30
0.0
 11
-423.039771951135
 21
57.9039154052734
 31
0.0
  0
LINE
  5
   508
  8
0
  6
CONTINUOUS
 62
     1
 10
-423.039771951135
 20
57.9039154052734
 30
0.0
 11
-423.039771951135
 21
58.4779434204102
 31
0.0
  0
LINE
  5
   509
  8
0
  6
CONTINUOUS
 62
     1
 10
-423.039771951135
 20
58.4779434204102
 30
0.0
 11
-423.039771951135
 21
58.9645767211914
 31
0.0
  0
LINE
  5
   50A
  8
0
  6
CONTINUOUS
 62
     1
 10
-423.039771951135
 20
58.9645767211914
 30
0.0
 11
-423.039771951135
 21
59.4039154052734
 31
0.0
  0
LINE
  5
   50B
  8
0
  6
CONTINUOUS
 62
     1
 10
-423.039771951135
 20
59.2897338867188
 30
0.0
 11
-423.039771951135
 21
59.4039154052734
 31
0.0
  0
LINE
  5
   50C
  8
0
  6
CONTINUOUS
 62
     1
 10
-423.539772378873
 20
59.1152408135255
 30
0.0
 11
-423.03977236241
 21
59.4039142180237
 31
0.0
  0
LINE
  5
   50D
  8
0
  6
CONTINUOUS
 62
     1
 10
-420.289772033691
 20
-11.5960826873779
 30
0.0
 11
-423.039770948579
 21
-11.5960826873779
 31
0.0
  0
LINE
  5
   50E
  8
0
  6
CONTINUOUS
 62
     1
 10
-420.289772033691
 20
-14.5960826873779
 30
0.0
 11
-423.039772790359
 21
-14.5960826873779
 31
0.0
  0
LINE
  5
   50F
  8
0
  6
CONTINUOUS
 62
     1
 10
-423.539772205359
 20
-11.8847586957313
 30
0.0
 11
-423.039772188895
 21
-11.5960834034748
 31
0.0
  0
LINE
  5
   510
  8
0
  6
CONTINUOUS
 62
     1
 10
-423.039771934477
 20
-14.5960831815222
 30
0.0
 11
-423.039771934477
 21
-11.5960826873779
 31
0.0
  0
LINE
  5
   511
  8
0
  6
CONTINUOUS
 62
     1
 10
-423.039771727315
 20
-14.5960833011274
 30
0.0
 11
-423.539771743779
 21
-14.3074080088709
 31
0.0
  0
LINE
  5
   512
  8
0
  6
CONTINUOUS
 62
     1
 10
-474.789738555876
 20
-14.5960826873779
 30
0.0
 11
-474.789738555876
 21
-14.4819011688233
 31
0.0
  0
LINE
  5
   513
  8
0
  6
CONTINUOUS
 62
     1
 10
-419.039772033691
 20
63.1539154052734
 30
0.0
 11
-419.539772033691
 21
63.1539154052734
 31
0.0
  0
LINE
  5
   514
  8
0
  6
CONTINUOUS
 62
     7
 10
-421.289772033691
 20
49.9039154052734
 30
0.0
 11
-421.289772033691
 21
56.4039154052734
 31
0.0
  0
LINE
  5
   515
  8
0
  6
CONTINUOUS
 62
     7
 10
-420.289772033691
 20
63.1539154052734
 30
0.0
 11
-420.289772033691
 21
97.4694348436057
 31
0.0
  0
LINE
  5
   516
  8
0
  6
CONTINUOUS
 62
     7
 10
-421.289772033691
 20
-55.0950166995495
 30
0.0
 11
-421.289772033691
 21
-14.5960826873779
 31
0.0
  0
LINE
  5
   517
  8
0
  6
CONTINUOUS
 62
     7
 10
-420.289772033691
 20
-54.6591192636521
 30
0.0
 11
-420.289772033691
 21
-18.3460826873779
 31
0.0
  0
LINE
  5
   518
  8
0
  6
CONTINUOUS
 62
     7
 10
-423.864386592953
 20
-56.2172845843557
 30
0.0
 11
-417.237618570861
 21
-53.3286933952386
 31
0.0
  0
LINE
  5
   519
  8
0
  6
CONTINUOUS
 62
     7
 10
-423.434680339957
 20
95.4497689588483
 30
0.0
 11
-417.704890674982
 21
99.1294503950703
 31
0.0
  0
LINE
  5
   51A
  8
0
  6
CONTINUOUS
 62
     7
 10
-420.289772033691
 20
50.4039154052734
 30
0.0
 11
-421.289772033691
 21
50.4039154052734
 31
0.0
  0
LINE
  5
   51B
  8
0
  6
CONTINUOUS
 62
     7
 10
-420.289772033691
 20
-5.59608268737793
 30
0.0
 11
-421.289772033691
 21
-5.59608268737793
 31
0.0
  0
LINE
  5
   51C
  8
0
  6
CONTINUOUS
 62
     7
 10
-420.289772033691
 20
-11.3460826873779
 30
0.0
 11
-421.289772033691
 21
-11.3460826873779
 31
0.0
  0
LINE
  5
   51D
  8
0
  6
CONTINUOUS
 62
     7
 10
-420.289772033691
 20
-14.8460826873779
 30
0.0
 11
-421.289772033691
 21
-14.8460826873779
 31
0.0
  0
LINE
  5
   51E
  8
0
  6
CONTINUOUS
 62
     7
 10
-420.289772033691
 20
59.6539154052734
 30
0.0
 11
-421.289772033691
 21
59.6539154052734
 31
0.0
  0
LINE
  5
   51F
  8
0
  6
CONTINUOUS
 62
     7
 10
-420.289772033691
 20
56.1539154052734
 30
0.0
 11
-421.289772033691
 21
56.1539154052734
 31
0.0
  0
LINE
  5
   520
  8
0
  6
CONTINUOUS
 62
     7
 10
-421.289772033691
 20
59.4039154052734
 30
0.0
 11
-421.289772033691
 21
96.8272330087433
 31
0.0
  0
LINE
  5
   521
  8
0
  6
CONTINUOUS
 62
     7
 10
-421.289772033691
 20
-11.5960826873779
 30
0.0
 11
-421.289772033691
 21
-5.09608268737793
 31
0.0
  0
INSERT
  5
   522
  8
0
  6
CONTINUOUS
 62
     7
  2
*HATCH334
 10
-474.789764404297
 20
-32.5863952636719
 30
0.0
 41
0.5
 42
0.5
 50
89.9999999480344
 43
0.5
  0
INSERT
  5
   523
  8
0
  6
CONTINUOUS
 62
     7
  2
*HATCH335
 10
-474.789764404297
 20
-32.5863952636719
 30
0.0
 41
0.5
 42
0.5
 50
89.9999999480344
 43
0.5
  0
INSERT
  5
   524
  8
0
  6
CONTINUOUS
 62
     7
  2
*HATCH336
 10
-474.789764404297
 20
-32.5863952636719
 30
0.0
 41
0.5
 42
0.5
 50
89.9999999480344
 43
0.5
  0
INSERT
  5
   525
  8
0
  6
CONTINUOUS
 62
     7
  2
*HATCH337
 10
-474.789764404297
 20
-32.5863952636719
 30
0.0
 41
0.5
 42
0.5
 50
89.9999999480344
 43
0.5
  0
LINE
  5
   526
  8
0
  6
DASHDOT
 62
     3
 10
-379.484684375159
 20
22.4071597289862
 30
0.0
 11
-384.37274797654
 21
22.4071597289862
 31
0.0
  0
LINE
  5
   527
  8
0
  6
DASHDOT
 62
     3
 10
-391.992376531634
 20
22.4071597289862
 30
0.0
 11
-508.730836658731
 21
22.4071597289862
 31
0.0
  0
LINE
  5
   528
  8
0
  6
DASHDOT
 62
     3
 10
-515.919165484291
 20
22.4071597289862
 30
0.0
 11
-523.970093768919
 21
22.4071597289862
 31
0.0
  0
LINE
  5
   529
  8
0
  6
CONTINUOUS
 62
     7
 10
-462.289777026524
 20
78.5321682194048
 30
0.0
 11
-464.78977607285
 21
78.5321682194048
 31
0.0
  0
LINE
  5
   52A
  8
0
  6
CONTINUOUS
 62
     7
 10
-462.289777026524
 20
73.5321682194048
 30
0.0
 11
-464.78977607285
 21
73.5321682194048
 31
0.0
  0
LINE
  5
   52B
  8
0
  6
CONTINUOUS
 62
     7
 10
-464.78977607285
 20
65.7865316897753
 30
0.0
 11
-464.78977607285
 21
81.0321426391601
 31
0.0
  0
LINE
  5
   52C
  8
0
  6
CONTINUOUS
 62
     7
 10
-435.607311217664
 20
69.1298541618966
 30
0.0
 11
-455.69459755035
 21
69.1298541618966
 31
0.0
  0
LINE
  5
   52D
  8
0
  6
CONTINUOUS
 62
     7
 10
-435.607311217664
 20
69.1298541618966
 30
0.0
 11
-429.925799046762
 21
88.42256874003
 31
0.0
  0
LINE
  5
   52E
  8
0
  6
CONTINUOUS
 62
     7
 10
-462.289777026524
 20
-30.4178829410845
 30
0.0
 11
-464.78977607285
 21
-30.4178829410845
 31
0.0
  0
LINE
  5
   52F
  8
0
  6
CONTINUOUS
 62
     7
 10
-462.289777026524
 20
-35.5178829410845
 30
0.0
 11
-464.78977607285
 21
-35.5178829410845
 31
0.0
  0
LINE
  5
   530
  8
0
  6
DASHDOT
 62
     7
 10
-476.289764404297
 20
83.282163084179
 30
0.0
 11
-476.289764404297
 21
93.588247790617
 31
0.0
  0
LINE
  5
   531
  8
0
  6
DASHDOT
 62
     7
 10
-474.789764404297
 20
83.282163084179
 30
0.0
 11
-474.789764404297
 21
93.588247790617
 31
0.0
  0
LINE
  5
   532
  8
0
  6
CONTINUOUS
 62
     7
 10
-424.664817810064
 20
86.2821426391602
 30
0.0
 11
-473.789759916483
 21
86.2821426391602
 31
0.0
  0
LINE
  5
   533
  8
0
  6
CONTINUOUS
 62
     7
 10
-424.039817810064
 20
73.2821597289862
 30
0.0
 11
-424.039817810064
 21
85.6571426391602
 31
0.0
  0
ARC
  5
   534
  8
0
  6
CONTINUOUS
 62
     7
 10
-424.664817810064
 20
85.6571426391602
 30
0.0
 40
0.625
 50
359.999999948034
 51
449.999999948034
  0
LINE
  5
   535
  8
0
  6
CONTINUOUS
 62
     7
 10
-424.539817810064
 20
72.7821597289863
 30
0.0
 11
-424.539817810064
 21
73.2821597289862
 31
0.0
  0
LINE
  5
   536
  8
0
  6
CONTINUOUS
 62
     7
 10
-424.039772033691
 20
73.2821597289862
 30
0.0
 11
-424.539817810064
 21
73.2821597289862
 31
0.0
  0
LINE
  5
   537
  8
0
  6
CONTINUOUS
 62
     7
 10
-424.664764404297
 20
-43.2178250122247
 30
0.0
 11
-449.762095870606
 21
-43.2178250122247
 31
0.0
  0
LINE
  5
   538
  8
0
  6
CONTINUOUS
 62
     7
 10
-424.039764404297
 20
-42.5928250122247
 30
0.0
 11
-424.039764404297
 21
-30.4678326416195
 31
0.0
  0
LINE
  5
   539
  8
0
  6
CONTINUOUS
 62
     7
 10
-424.039764404297
 20
-30.4678326416195
 30
0.0
 11
-424.539764404297
 21
-30.4678326416195
 31
0.0
  0
LINE
  5
   53A
  8
0
  6
CONTINUOUS
 62
     7
 10
-424.539764404297
 20
-30.4678326416195
 30
0.0
 11
-424.539764404297
 21
-29.9678326416195
 31
0.0
  0
ARC
  5
   53B
  8
0
  6
CONTINUOUS
 62
     7
 10
-424.664764404297
 20
-42.5928250122247
 30
0.0
 40
0.625
 50
269.999999948034
 51
359.999999948034
  0
CIRCLE
  5
   53C
  8
0
  6
CONTINUOUS
 62
     7
 10
-509.924626677689
 20
79.331238805046
 30
0.0
 40
0.125
  0
LINE
  5
   53D
  8
0
  6
CONTINUOUS
 62
     5
 10
-461.789777026524
 20
-37.4678829410845
 30
0.0
 11
-461.789777026524
 21
-28.4678829410845
 31
0.0
  0
LINE
  5
   53E
  8
0
  6
CONTINUOUS
 62
     5
 10
-462.289777026524
 20
-37.4678829410845
 30
0.0
 11
-462.289777026524
 21
-28.4678829410845
 31
0.0
  0
LINE
  5
   53F
  8
0
  6
CONTINUOUS
 62
    98
 10
-462.789777026524
 20
-35.2178829410845
 30
0.0
 11
-462.789777026524
 21
-30.7178829410845
 31
0.0
  0
LINE
  5
   540
  8
0
  6
CONTINUOUS
 62
     7
 10
-457.789777980198
 20
-36.2178829410845
 30
0.0
 11
-457.789777980198
 21
-29.7178829410845
 31
0.0
  0
LINE
  5
   541
  8
0
  6
CONTINUOUS
 62
     5
 10
-461.789777026524
 20
-28.4678829410845
 30
0.0
 11
-462.289777026524
 21
-28.4678829410845
 31
0.0
  0
LINE
  5
   542
  8
0
  6
CONTINUOUS
 62
     5
 10
-461.789777026524
 20
-37.4678829410845
 30
0.0
 11
-462.289777026524
 21
-37.4678829410845
 31
0.0
  0
LINE
  5
   543
  8
0
  6
CONTINUOUS
 62
    98
 10
-463.039777026524
 20
-35.4678829410845
 30
0.0
 11
-464.789777026524
 21
-35.4678829410845
 31
0.0
  0
LINE
  5
   544
  8
0
  6
CONTINUOUS
 62
    98
 10
-463.039777026524
 20
-30.4678829410845
 30
0.0
 11
-464.789777026524
 21
-30.4678829410845
 31
0.0
  0
LINE
  5
   545
  8
0
  6
CONTINUOUS
 62
    98
 10
-463.03977802557
 20
-35.4678851338505
 30
0.0
 11
-462.789778034127
 21
-35.2178851424076
 31
0.0
  0
LINE
  5
   546
  8
0
  6
CONTINUOUS
 62
    98
 10
-463.039777026524
 20
-35.4678829410845
 30
0.0
 11
-463.039777026524
 21
-35.4198482731158
 31
0.0
  0
LINE
  5
   547
  8
0
  6
CONTINUOUS
 62
    98
 10
-463.039777026524
 20
-35.4198482731158
 30
0.0
 11
-463.039777026524
 21
-35.2775829532916
 31
0.0
  0
LINE
  5
   548
  8
0
  6
CONTINUOUS
 62
    98
 10
-463.039777026524
 20
-35.2775829532916
 30
0.0
 11
-463.039777026524
 21
-35.0465572574908
 31
0.0
  0
LINE
  5
   549
  8
0
  6
CONTINUOUS
 62
    98
 10
-463.039777026524
 20
-35.0465572574908
 30
0.0
 11
-463.039777026524
 21
-34.7356518009478
 31
0.0
  0
LINE
  5
   54A
  8
0
  6
CONTINUOUS
 62
    98
 10
-463.039777026524
 20
-34.7356518009478
 30
0.0
 11
-463.039777026524
 21
-34.3568065861041
 31
0.0
  0
LINE
  5
   54B
  8
0
  6
CONTINUOUS
 62
    98
 10
-463.039777026524
 20
-34.3568065861041
 30
0.0
 11
-463.039777026524
 21
-33.9245937565142
 31
0.0
  0
LINE
  5
   54C
  8
0
  6
CONTINUOUS
 62
    98
 10
-463.039777026524
 20
-33.9245937565142
 30
0.0
 11
-463.039777026524
 21
-33.4556072452838
 31
0.0
  0
LINE
  5
   54D
  8
0
  6
CONTINUOUS
 62
    98
 10
-463.039777026524
 20
-33.4556072452838
 30
0.0
 11
-463.039777026524
 21
-32.9678829410845
 31
0.0
  0
LINE
  5
   54E
  8
0
  6
CONTINUOUS
 62
    98
 10
-463.039777026524
 20
-32.9678829410845
 30
0.0
 11
-463.039777026524
 21
-32.4801586368853
 31
0.0
  0
LINE
  5
   54F
  8
0
  6
CONTINUOUS
 62
    98
 10
-463.039777026524
 20
-32.4801586368853
 30
0.0
 11
-463.039777026524
 21
-32.0111721256548
 31
0.0
  0
LINE
  5
   550
  8
0
  6
CONTINUOUS
 62
    98
 10
-463.039777026524
 20
-32.0111721256548
 30
0.0
 11
-463.039777026524
 21
-31.578959296065
 31
0.0
  0
LINE
  5
   551
  8
0
  6
CONTINUOUS
 62
    98
 10
-463.039777026524
 20
-31.578959296065
 30
0.0
 11
-463.039777026524
 21
-31.2001140812213
 31
0.0
  0
LINE
  5
   552
  8
0
  6
CONTINUOUS
 62
    98
 10
-463.039777026524
 20
-31.2001140812213
 30
0.0
 11
-463.039777026524
 21
-30.8892086246783
 31
0.0
  0
LINE
  5
   553
  8
0
  6
CONTINUOUS
 62
    98
 10
-463.039777026524
 20
-30.8892086246783
 30
0.0
 11
-463.039777026524
 21
-30.6581829288775
 31
0.0
  0
LINE
  5
   554
  8
0
  6
CONTINUOUS
 62
    98
 10
-463.039777026524
 20
-30.6581829288775
 30
0.0
 11
-463.039777026524
 21
-30.5159176090533
 31
0.0
  0
LINE
  5
   555
  8
0
  6
CONTINUOUS
 62
    98
 10
-462.789776596528
 20
-30.7178850525577
 30
0.0
 11
-463.039776587971
 21
-30.4678850611148
 31
0.0
  0
LINE
  5
   556
  8
0
  6
CONTINUOUS
 62
    98
 10
-463.039777026524
 20
-30.5159176090533
 30
0.0
 11
-463.039777026524
 21
-30.4678829410845
 31
0.0
  0
LINE
  5
   557
  8
0
  6
CONTINUOUS
 62
     7
 10
-457.789777980198
 20
-36.2178829410845
 30
0.0
 11
-461.789777026524
 21
-36.2178829410845
 31
0.0
  0
LINE
  5
   558
  8
0
  6
CONTINUOUS
 62
     7
 10
-457.789777980198
 20
-29.7178829410845
 30
0.0
 11
-461.789777026524
 21
-29.7178829410845
 31
0.0
  0
LINE
  5
   559
  8
0
  6
CONTINUOUS
 62
     7
 10
-462.289777026524
 20
-34.9678829410845
 30
0.0
 11
-462.789777026524
 21
-34.9678829410845
 31
0.0
  0
LINE
  5
   55A
  8
0
  6
CONTINUOUS
 62
     7
 10
-462.289777026524
 20
-30.9678829410845
 30
0.0
 11
-462.789777026524
 21
-30.9678829410845
 31
0.0
  0
LINE
  5
   55B
  8
0
  6
DASHDOT
 62
     7
 10
-474.789764404297
 20
-51.5591832115724
 30
0.0
 11
-474.789764404297
 21
-40.2178888196765
 31
0.0
  0
LINE
  5
   55C
  8
0
  6
DASHDOT
 62
     7
 10
-476.289764404297
 20
-51.5591832115724
 30
0.0
 11
-476.289764404297
 21
-40.2178888196765
 31
0.0
  0
LINE
  5
   55D
  8
0
  6
CONTINUOUS
 62
     7
 10
-473.789764880993
 20
-25.717888819677
 30
0.0
 11
-473.789764880993
 21
-24.9678250117302
 31
0.0
  0
LINE
  5
   55E
  8
0
  6
CONTINUOUS
 62
     5
 10
-461.789777026524
 20
71.5321682194048
 30
0.0
 11
-461.789777026524
 21
80.5321682194048
 31
0.0
  0
LINE
  5
   55F
  8
0
  6
CONTINUOUS
 62
     5
 10
-462.289777026524
 20
71.5321682194048
 30
0.0
 11
-462.289777026524
 21
80.5321682194048
 31
0.0
  0
LINE
  5
   560
  8
0
  6
CONTINUOUS
 62
    98
 10
-462.789777026524
 20
73.7821682194048
 30
0.0
 11
-462.789777026524
 21
78.2821682194048
 31
0.0
  0
LINE
  5
   561
  8
0
  6
CONTINUOUS
 62
     7
 10
-457.789777980198
 20
72.7821682194048
 30
0.0
 11
-457.789777980198
 21
79.2821682194048
 31
0.0
  0
LINE
  5
   562
  8
0
  6
CONTINUOUS
 62
     5
 10
-461.789777026524
 20
80.5321682194048
 30
0.0
 11
-462.289777026524
 21
80.5321682194048
 31
0.0
  0
LINE
  5
   563
  8
0
  6
CONTINUOUS
 62
     5
 10
-461.789777026524
 20
71.5321682194048
 30
0.0
 11
-462.289777026524
 21
71.5321682194048
 31
0.0
  0
LINE
  5
   564
  8
0
  6
CONTINUOUS
 62
    98
 10
-463.039777026524
 20
73.5321682194048
 30
0.0
 11
-464.789777026524
 21
73.5321682194048
 31
0.0
  0
LINE
  5
   565
  8
0
  6
CONTINUOUS
 62
    98
 10
-463.039777026524
 20
78.5321682194048
 30
0.0
 11
-464.789777026524
 21
78.5321682194048
 31
0.0
  0
LINE
  5
   566
  8
0
  6
CONTINUOUS
 62
    98
 10
-463.03977802557
 20
73.5321660266389
 30
0.0
 11
-462.789778034127
 21
73.7821660180818
 31
0.0
  0
LINE
  5
   567
  8
0
  6
CONTINUOUS
 62
    98
 10
-463.039777026524
 20
73.5321682194048
 30
0.0
 11
-463.039777026524
 21
73.5802028873736
 31
0.0
  0
LINE
  5
   568
  8
0
  6
CONTINUOUS
 62
    98
 10
-463.039777026524
 20
73.5802028873736
 30
0.0
 11
-463.039777026524
 21
73.7224682071978
 31
0.0
  0
LINE
  5
   569
  8
0
  6
CONTINUOUS
 62
    98
 10
-463.039777026524
 20
73.7224682071978
 30
0.0
 11
-463.039777026524
 21
73.9534939029986
 31
0.0
  0
LINE
  5
   56A
  8
0
  6
CONTINUOUS
 62
    98
 10
-463.039777026524
 20
73.9534939029986
 30
0.0
 11
-463.039777026524
 21
74.2643993595416
 31
0.0
  0
LINE
  5
   56B
  8
0
  6
CONTINUOUS
 62
    98
 10
-463.039777026524
 20
74.2643993595416
 30
0.0
 11
-463.039777026524
 21
74.6432445743853
 31
0.0
  0
LINE
  5
   56C
  8
0
  6
CONTINUOUS
 62
    98
 10
-463.039777026524
 20
74.6432445743853
 30
0.0
 11
-463.039777026524
 21
75.0754574039752
 31
0.0
  0
LINE
  5
   56D
  8
0
  6
CONTINUOUS
 62
    98
 10
-463.039777026524
 20
75.0754574039752
 30
0.0
 11
-463.039777026524
 21
75.5444439152056
 31
0.0
  0
LINE
  5
   56E
  8
0
  6
CONTINUOUS
 62
    98
 10
-463.039777026524
 20
75.5444439152056
 30
0.0
 11
-463.039777026524
 21
76.0321682194048
 31
0.0
  0
LINE
  5
   56F
  8
0
  6
CONTINUOUS
 62
    98
 10
-463.039777026524
 20
76.0321682194048
 30
0.0
 11
-463.039777026524
 21
76.5198925236041
 31
0.0
  0
LINE
  5
   570
  8
0
  6
CONTINUOUS
 62
    98
 10
-463.039777026524
 20
76.5198925236041
 30
0.0
 11
-463.039777026524
 21
76.9888790348345
 31
0.0
  0
LINE
  5
   571
  8
0
  6
CONTINUOUS
 62
    98
 10
-463.039777026524
 20
76.9888790348345
 30
0.0
 11
-463.039777026524
 21
77.4210918644244
 31
0.0
  0
LINE
  5
   572
  8
0
  6
CONTINUOUS
 62
    98
 10
-463.039777026524
 20
77.4210918644244
 30
0.0
 11
-463.039777026524
 21
77.7999370792681
 31
0.0
  0
LINE
  5
   573
  8
0
  6
CONTINUOUS
 62
    98
 10
-463.039777026524
 20
77.7999370792681
 30
0.0
 11
-463.039777026524
 21
78.1108425358111
 31
0.0
  0
LINE
  5
   574
  8
0
  6
CONTINUOUS
 62
    98
 10
-463.039777026524
 20
78.1108425358111
 30
0.0
 11
-463.039777026524
 21
78.3418682316119
 31
0.0
  0
LINE
  5
   575
  8
0
  6
CONTINUOUS
 62
    98
 10
-463.039777026524
 20
78.3418682316119
 30
0.0
 11
-463.039777026524
 21
78.4841335514361
 31
0.0
  0
LINE
  5
   576
  8
0
  6
CONTINUOUS
 62
    98
 10
-462.789776596528
 20
78.2821661079317
 30
0.0
 11
-463.039776587971
 21
78.5321660993745
 31
0.0
  0
LINE
  5
   577
  8
0
  6
CONTINUOUS
 62
    98
 10
-463.039777026524
 20
78.4841335514361
 30
0.0
 11
-463.039777026524
 21
78.5321682194048
 31
0.0
  0
LINE
  5
   578
  8
0
  6
CONTINUOUS
 62
     7
 10
-457.789777980198
 20
72.7821682194048
 30
0.0
 11
-461.789777026524
 21
72.7821682194048
 31
0.0
  0
LINE
  5
   579
  8
0
  6
CONTINUOUS
 62
     7
 10
-457.789777980198
 20
79.2821682194048
 30
0.0
 11
-461.789777026524
 21
79.2821682194048
 31
0.0
  0
LINE
  5
   57A
  8
0
  6
CONTINUOUS
 62
     7
 10
-462.289777026524
 20
74.0321682194048
 30
0.0
 11
-462.789777026524
 21
74.0321682194048
 31
0.0
  0
LINE
  5
   57B
  8
0
  6
CONTINUOUS
 62
     7
 10
-462.289777026524
 20
78.0321682194048
 30
0.0
 11
-462.789777026524
 21
78.0321682194048
 31
0.0
  0
INSERT
  5
   57C
  8
255
  6
CONTINUOUS
 62
     7
  2
LT__S6-630_POST
 10
-474.789764404297
 20
-32.5863952636719
 30
0.0
 41
0.5
 42
0.5
 50
3.50835464724173E-15
 43
0.5
  0
INSERT
  5
   57D
  8
255
  6
CONTINUOUS
 62
     7
  2
LT__S6-630_POST
 10
-474.789764404297
 20
-141.586446424161
 30
0.0
 41
0.5
 42
0.5
 50
359.999999792138
 43
0.5
  0
INSERT
  5
   57E
  8
0
  6
CONTINUOUS
 62
     7
  2
*UDIM507
 10
0.0
 20
0.0
 30
0.0
  0
INSERT
  5
   57F
  8
0
  6
CONTINUOUS
 62
     7
  2
*UDIM508
 10
0.0
 20
0.0
 30
0.0
  0
INSERT
  5
   580
  8
0
  6
CONTINUOUS
 62
     7
  2
*UDIM509
 10
0.0
 20
0.0
 30
0.0
  0
INSERT
  5
   581
  8
0
  6
CONTINUOUS
 62
     7
  2
*UDIM510
 10
0.0
 20
0.0
 30
0.0
  0
INSERT
  5
   582
  8
0
  6
CONTINUOUS
 62
     7
  2
*UDIM511
 10
0.0
 20
0.0
 30
0.0
  0
INSERT
  5
   583
  8
0
  6
CONTINUOUS
 62
     7
  2
*UDIM512
 10
0.0
 20
0.0
 30
0.0
  0
INSERT
  5
   584
  8
0
  6
CONTINUOUS
 62
     7
  2
*UDIM513
 10
0.0
 20
0.0
 30
0.0
  0
INSERT
  5
   585
  8
0
  6
CONTINUOUS
 62
     7
  2
*UDIM514
 10
0.0
 20
0.0
 30
0.0
  0
INSERT
  5
   586
  8
0
  6
CONTINUOUS
 62
     7
  2
*UDIM515
 10
0.0
 20
0.0
 30
0.0
  0
INSERT
  5
   587
  8
0
  6
CONTINUOUS
 62
     7
  2
*UDIM516
 10
0.0
 20
0.0
 30
0.0
  0
TEXT
  5
   588
  8
0
  6
CONTINUOUS
 62
     5
 10
-382.216247573289
 20
4.91363717430077
 30
0.0
 40
3.00000002980232
  1
=          =
 50
89.9999999480344
 41
0.916666604744064
 72
     2
 11
-382.216247543899
 21
37.3636353002314
 31
0.0
  0
INSERT
  5
   589
  8
0
  6
CONTINUOUS
 62
     7
  2
*UDIM517
 10
0.0
 20
0.0
 30
0.0
  0
INSERT
  5
   58A
  8
0
  6
CONTINUOUS
 62
     7
  2
*UDIM518
 10
0.0
 20
0.0
 30
0.0
  0
TEXT
  5
   58B
  8
0
  6
CONTINUOUS
 62
     7
 10
-376.40292349593
 20
21.174381763436
 30
0.0
 40
3.00000002980232
  1
X
 50
359.999999948034
 41
0.916666604744064
 72
     1
 11
-375.302923560142
 21
22.674381777345
 31
0.0
 73
     2
  0
LINE
  5
   58C
  8
0
  6
CONTINUOUS
 62
     7
 10
-645.210468600164
 20
85.0321426391602
 30
0.0
 11
-659.903038024902
 21
85.0321426391602
 31
0.0
  0
LINE
  5
   58D
  8
0
  6
CONTINUOUS
 62
     7
 10
-591.653045654297
 20
73.0321502685547
 30
0.0
 11
-591.653045654297
 21
83.6321426391602
 31
0.0
  0
LINE
  5
   58E
  8
0
  6
CONTINUOUS
 62
     7
 10
-661.653038027007
 20
73.0321502685547
 30
0.0
 11
-661.653038027007
 21
83.6321426391601
 31
0.0
  0
ARC
  5
   58F
  8
0
  6
CONTINUOUS
 62
     7
 10
-648.528033488294
 20
76.0321696971898
 30
0.0
 40
2.75000604975671
 50
110.451265672946
 51
190.591003768719
  0
ARC
  5
   590
  8
0
  6
CONTINUOUS
 62
     7
 10
-659.903051327737
 20
84.5321340896633
 30
0.0
 40
0.499990919521533
 50
449.999429635018
 51
540.000998310938
  0
LINE
  5
   591
  8
0
  6
CONTINUOUS
 62
     7
 10
-660.403038024903
 20
83.6321426391602
 30
0.0
 11
-661.653038027007
 21
83.6321426391602
 31
0.0
  0
LINE
  5
   592
  8
0
  6
CONTINUOUS
 62
     7
 10
-640.215547762293
 20
73.0321502685547
 30
0.0
 11
-660.403038024903
 21
73.0321502685547
 31
0.0
  0
LINE
  5
   593
  8
0
  6
CONTINUOUS
 62
     7
 10
-618.340568178239
 20
73.0321502685547
 30
0.0
 11
-634.965547762292
 21
73.0321502685547
 31
0.0
  0
LINE
  5
   594
  8
0
  6
CONTINUOUS
 62
     7
 10
-592.903038024902
 20
73.0321502685547
 30
0.0
 11
-613.090568178239
 21
73.0321502685547
 31
0.0
  0
CIRCLE
  5
   595
  8
0
  6
CONTINUOUS
 62
     7
 10
-648.528038167295
 20
83.0321478012155
 30
0.0
 40
0.699999510271856
  0
LINE
  5
   596
  8
0
  6
CONTINUOUS
 62
     7
 10
-660.403038024903
 20
73.0321502685547
 30
0.0
 11
-660.403038024903
 21
83.6321426391602
 31
0.0
  0
LINE
  5
   597
  8
0
  6
CONTINUOUS
 62
     7
 10
-591.653061403754
 20
-6.71783264161939
 30
0.0
 11
-591.653061403754
 21
-5.71783264161939
 31
0.0
  0
LINE
  5
   598
  8
0
  6
CONTINUOUS
 62
     7
 10
-661.653061403754
 20
-6.71783264161939
 30
0.0
 11
-661.653061403754
 21
-5.71783264161939
 31
0.0
  0
LINE
  5
   599
  8
0
  6
CONTINUOUS
 62
     7
 10
-591.653061403754
 20
-40.5678311157405
 30
0.0
 11
-591.653061403754
 21
-6.71783264161939
 31
0.0
  0
LINE
  5
   59A
  8
0
  6
CONTINUOUS
 62
     7
 10
-661.653061403754
 20
-40.5678326654612
 30
0.0
 11
-661.653061403754
 21
-6.71783419134016
 31
0.0
  0
LINE
  5
   59B
  8
0
  6
CONTINUOUS
 62
     7
 10
-660.403061403754
 20
-40.5678326654613
 30
0.0
 11
-661.653061403754
 21
-40.5678326654613
 31
0.0
  0
LINE
  5
   59C
  8
0
  6
CONTINUOUS
 62
     7
 10
-660.403061403754
 20
-41.4678326416194
 30
0.0
 11
-660.403061403754
 21
-40.5678326654612
 31
0.0
  0
LINE
  5
   59D
  8
0
  6
CONTINUOUS
 62
     7
 10
-645.210474966443
 20
-41.9678326416193
 30
0.0
 11
-659.903061403754
 21
-41.9678326416193
 31
0.0
  0
LINE
  5
   59E
  8
0
  6
CONTINUOUS
 62
     1
 10
-660.403061403754
 20
-40.5678326654612
 30
0.0
 11
-660.403061403754
 21
-29.9678322839915
 31
0.0
  0
LINE
  5
   59F
  8
0
  6
CONTINUOUS
 62
     1
 10
-640.215561403754
 20
-29.9678326416194
 30
0.0
 11
-660.403061403754
 21
-29.9678326416194
 31
0.0
  0
LINE
  5
   5A0
  8
0
  6
CONTINUOUS
 62
     1
 10
-618.340561403754
 20
-29.9678326416194
 30
0.0
 11
-634.965561403754
 21
-29.9678326416194
 31
0.0
  0
LINE
  5
   5A1
  8
0
  6
CONTINUOUS
 62
     1
 10
-592.903061403754
 20
-29.9678326416194
 30
0.0
 11
-613.090561403754
 21
-29.9678326416194
 31
0.0
  0
LINE
  5
   5A2
  8
0
  6
CONTINUOUS
 62
     1
 10
-592.903061403754
 20
-40.5678326654612
 30
0.0
 11
-592.903061403754
 21
-29.9678322839915
 31
0.0
  0
CIRCLE
  5
   5A3
  8
0
  6
CONTINUOUS
 62
     1
 10
-648.5280617866
 20
-39.9678332384224
 30
0.0
 40
0.700000042083871
  0
ARC
  5
   5A4
  8
0
  6
CONTINUOUS
 62
     1
 10
-648.528061284214
 20
-32.9678327578768
 30
0.0
 40
2.75000015959725
 50
169.409502054316
 51
249.548763414446
  0
LINE
  5
   5A5
  8
0
  6
DASHDOT
 62
     7
 10
-612.34057691735
 20
-3.71779038263653
 30
0.0
 11
-619.090447176503
 21
-3.71779038263653
 31
0.0
  0
LINE
  5
   5A6
  8
0
  6
DASHDOT
 62
     7
 10
-626.653061599381
 20
-43.8273697840528
 30
0.0
 11
-626.653061599381
 21
-4.31238809258049
 31
0.0
  0
ARC
  5
   5A7
  8
0
  6
CONTINUOUS
 62
     7
 10
-659.903061580991
 20
-41.4678327049573
 30
0.0
 40
0.499999889965255
 50
179.99999084272
 51
269.999993044176
  0
LINE
  5
   5A8
  8
0
  6
CONTINUOUS
 62
     1
 10
-591.653061599381
 20
48.9071578979492
 30
0.0
 11
-591.653061599381
 21
73.0321502685547
 31
0.0
  0
LINE
  5
   5A9
  8
0
  6
CONTINUOUS
 62
     1
 10
-591.653061599381
 20
-11.2178497612476
 30
0.0
 11
-591.653061599381
 21
-3.59284210205078
 31
0.0
  0
LINE
  5
   5AA
  8
0
  6
CONTINUOUS
 62
     1
 10
-661.653061599381
 20
-11.2178497612476
 30
0.0
 11
-661.653061599381
 21
-3.59285736083982
 31
0.0
  0
LINE
  5
   5AB
  8
0
  6
CONTINUOUS
 62
     1
 10
-661.653061599381
 20
48.9071426391602
 30
0.0
 11
-661.653061599381
 21
73.0321502685547
 31
0.0
  0
LINE
  5
   5AC
  8
0
  6
CONTINUOUS
 62
     1
 10
-591.653061599381
 20
73.0321502685547
 30
0.0
 11
-661.653061599381
 21
73.0321502685547
 31
0.0
  0
LINE
  5
   5AD
  8
0
  6
CONTINUOUS
 62
     1
 10
-592.153069228775
 20
-11.7178497314453
 30
0.0
 11
-597.403061599381
 21
-11.7178497314453
 31
0.0
  0
LINE
  5
   5AE
  8
0
  6
CONTINUOUS
 62
     1
 10
-661.653061599381
 20
-3.5928497314453
 30
0.0
 11
-661.653061599381
 21
48.9071502685547
 31
0.0
  0
LINE
  5
   5AF
  8
0
  6
CONTINUOUS
 62
     1
 10
-591.653061599381
 20
-3.59284973144532
 30
0.0
 11
-591.653061599381
 21
48.9071502685547
 31
0.0
  0
LINE
  5
   5B0
  8
0
  6
DASHDOT
 62
     1
 10
-626.653061599381
 20
-15.0464242954722
 30
0.0
 11
-626.653061599381
 21
75.963551055456
 31
0.0
  0
ARC
  5
   5B1
  8
0
  6
CONTINUOUS
 62
     1
 10
-591.903061599381
 20
-3.34284973144531
 30
0.0
 40
0.25
 50
269.999999948034
 51
359.999999948034
  0
ARC
  5
   5B2
  8
0
  6
CONTINUOUS
 62
     1
 10
-661.403061599381
 20
-3.34284973144531
 30
0.0
 40
0.25
 50
179.999999948034
 51
269.999999948034
  0
LINE
  5
   5B3
  8
0
  6
CONTINUOUS
 62
     1
 10
-591.653061599381
 20
-11.2178497612476
 30
0.0
 11
-597.403061599381
 21
-11.2178497612476
 31
0.0
  0
LINE
  5
   5B4
  8
0
  6
CONTINUOUS
 62
     1
 10
-655.903061599381
 20
-11.2178497612476
 30
0.0
 11
-661.653061599381
 21
-11.2178497612476
 31
0.0
  0
LINE
  5
   5B5
  8
0
  6
CONTINUOUS
 62
     1
 10
-592.153069228775
 20
-11.7178497314455
 30
0.0
 11
-592.153069228775
 21
-11.2178497612478
 31
0.0
  0
LINE
  5
   5B6
  8
0
  6
CONTINUOUS
 62
     1
 10
-661.153053969986
 20
-11.7178497314455
 30
0.0
 11
-661.153053969986
 21
-11.2178497612478
 31
0.0
  0
LINE
  5
   5B7
  8
0
  6
CONTINUOUS
 62
     1
 10
-656.028053969986
 20
-3.59285736083984
 30
0.0
 11
-656.028053969986
 21
48.9071426391602
 31
0.0
  0
LINE
  5
   5B8
  8
0
  6
CONTINUOUS
 62
     1
 10
-660.528053969986
 20
-3.59284973144531
 30
0.0
 11
-660.528053969986
 21
48.9071426391602
 31
0.0
  0
LINE
  5
   5B9
  8
0
  6
CONTINUOUS
 62
     1
 10
-659.378060073502
 20
-3.59285736083984
 30
0.0
 11
-659.378060073502
 21
48.9071426391602
 31
0.0
  0
LINE
  5
   5BA
  8
0
  6
CONTINUOUS
 62
     1
 10
-657.828057021744
 20
-3.59285736083984
 30
0.0
 11
-657.828057021744
 21
48.9071426391602
 31
0.0
  0
LINE
  5
   5BB
  8
0
  6
CONTINUOUS
 62
     1
 10
-653.078057021744
 20
-3.59285736083984
 30
0.0
 11
-653.078057021744
 21
48.9071426391602
 31
0.0
  0
LINE
  5
   5BC
  8
0
  6
CONTINUOUS
 62
     1
 10
-656.028053969986
 20
48.9071426391602
 30
0.0
 11
-656.028053969986
 21
73.0321426391602
 31
0.0
  0
LINE
  5
   5BD
  8
0
  6
CONTINUOUS
 62
     1
 10
-654.228058547623
 20
62.6571502685547
 30
0.0
 11
-654.228058547623
 21
73.0321426391602
 31
0.0
  0
LINE
  5
   5BE
  8
0
  6
CONTINUOUS
 62
     1
 10
-660.528053969986
 20
48.9071426391602
 30
0.0
 11
-660.528053969986
 21
73.0321426391602
 31
0.0
  0
LINE
  5
   5BF
  8
0
  6
CONTINUOUS
 62
     1
 10
-659.378060073502
 20
48.9071426391602
 30
0.0
 11
-659.378060073502
 21
73.0321426391602
 31
0.0
  0
LINE
  5
   5C0
  8
0
  6
CONTINUOUS
 62
     1
 10
-657.828057021744
 20
48.9071426391602
 30
0.0
 11
-657.828057021744
 21
73.0321426391602
 31
0.0
  0
LINE
  5
   5C1
  8
0
  6
CONTINUOUS
 62
     1
 10
-653.078057021744
 20
62.6571502685547
 30
0.0
 11
-653.078057021744
 21
73.0321426391602
 31
0.0
  0
LINE
  5
   5C2
  8
0
  6
CONTINUOUS
 62
     1
 10
-656.028053969986
 20
-11.2178497612476
 30
0.0
 11
-656.028053969986
 21
-3.59284928441047
 31
0.0
  0
LINE
  5
   5C3
  8
0
  6
CONTINUOUS
 62
     1
 10
-660.528053969986
 20
-11.2178497612476
 30
0.0
 11
-660.528053969986
 21
-3.59284928441047
 31
0.0
  0
LINE
  5
   5C4
  8
0
  6
CONTINUOUS
 62
     1
 10
-659.378060073502
 20
-11.2178497612476
 30
0.0
 11
-659.378060073502
 21
-3.59284928441047
 31
0.0
  0
LINE
  5
   5C5
  8
0
  6
CONTINUOUS
 62
     1
 10
-657.828057021744
 20
-11.2178497612476
 30
0.0
 11
-657.828057021744
 21
-3.59284928441047
 31
0.0
  0
LINE
  5
   5C6
  8
0
  6
CONTINUOUS
 62
     1
 10
-592.778069228775
 20
-3.59284973144532
 30
0.0
 11
-592.778069228775
 21
48.9071426391601
 31
0.0
  0
LINE
  5
   5C7
  8
0
  6
CONTINUOUS
 62
     1
 10
-593.92806312526
 20
-3.59285736083985
 30
0.0
 11
-593.92806312526
 21
48.9071426391601
 31
0.0
  0
LINE
  5
   5C8
  8
0
  6
CONTINUOUS
 62
     1
 10
-595.728066177018
 20
-3.59285736083985
 30
0.0
 11
-595.728066177018
 21
48.9071426391601
 31
0.0
  0
LINE
  5
   5C9
  8
0
  6
CONTINUOUS
 62
     1
 10
-600.228066177018
 20
-3.59285736083984
 30
0.0
 11
-600.228066177018
 21
48.9071426391601
 31
0.0
  0
LINE
  5
   5CA
  8
0
  6
CONTINUOUS
 62
     1
 10
-597.528069228775
 20
62.407160440864
 30
0.0
 11
-597.528069228775
 21
73.0321426391601
 31
0.0
  0
LINE
  5
   5CB
  8
0
  6
CONTINUOUS
 62
     1
 10
-599.328064651139
 20
62.6571502685547
 30
0.0
 11
-599.328064651139
 21
73.0321426391601
 31
0.0
  0
LINE
  5
   5CC
  8
0
  6
CONTINUOUS
 62
     1
 10
-592.778069228775
 20
48.9071426391601
 30
0.0
 11
-592.778069228775
 21
73.0321426391601
 31
0.0
  0
LINE
  5
   5CD
  8
0
  6
CONTINUOUS
 62
     1
 10
-593.92806312526
 20
48.9071426391601
 30
0.0
 11
-593.92806312526
 21
73.0321426391601
 31
0.0
  0
LINE
  5
   5CE
  8
0
  6
CONTINUOUS
 62
     1
 10
-595.728066177018
 20
48.9071426391601
 30
0.0
 11
-595.728066177018
 21
73.0321426391601
 31
0.0
  0
LINE
  5
   5CF
  8
0
  6
CONTINUOUS
 62
     1
 10
-600.228066177018
 20
62.6571502685547
 30
0.0
 11
-600.228066177018
 21
73.0321426391601
 31
0.0
  0
LINE
  5
   5D0
  8
0
  6
CONTINUOUS
 62
     1
 10
-592.778069228775
 20
-11.2178497612476
 30
0.0
 11
-592.778069228775
 21
-3.59284928441048
 31
0.0
  0
LINE
  5
   5D1
  8
0
  6
CONTINUOUS
 62
     1
 10
-593.92806312526
 20
-11.2178497612476
 30
0.0
 11
-593.92806312526
 21
-3.59284928441048
 31
0.0
  0
LINE
  5
   5D2
  8
0
  6
CONTINUOUS
 62
     1
 10
-595.728066177018
 20
-11.2178497612476
 30
0.0
 11
-595.728066177018
 21
-3.59284928441048
 31
0.0
  0
LINE
  5
   5D3
  8
0
  6
CONTINUOUS
 62
     1
 10
-652.153061599381
 20
62.6571502685547
 30
0.0
 11
-652.153061599381
 21
70.5321502685547
 31
0.0
  0
LINE
  5
   5D4
  8
0
  6
CONTINUOUS
 62
     1
 10
-601.153061599381
 20
62.6571502685547
 30
0.0
 11
-601.153061599381
 21
70.5321502685547
 31
0.0
  0
LINE
  5
   5D5
  8
0
  6
CONTINUOUS
 62
     1
 10
-601.153061599381
 20
70.5321502685547
 30
0.0
 11
-652.153061599381
 21
70.5321502685547
 31
0.0
  0
LINE
  5
   5D6
  8
0
  6
CONTINUOUS
 62
     3
 10
-640.403069228775
 20
-3.84284973144531
 30
0.0
 11
-645.403061599381
 21
-3.84284973144531
 31
0.0
  0
LINE
  5
   5D7
  8
0
  6
CONTINUOUS
 62
     3
 10
-607.90307685817
 20
-3.84284973144531
 30
0.0
 11
-612.90307685817
 21
-3.84284973144531
 31
0.0
  0
LINE
  5
   5D8
  8
0
  6
CONTINUOUS
 62
     3
 10
-600.403061599381
 20
-3.59284973144531
 30
0.0
 11
-600.403061599381
 21
5.40714263916016
 31
0.0
  0
LINE
  5
   5D9
  8
0
  6
CONTINUOUS
 62
     3
 10
-652.903061599381
 20
-3.59284973144531
 30
0.0
 11
-652.903061599381
 21
5.40714263916016
 31
0.0
  0
LINE
  5
   5DA
  8
0
  6
CONTINUOUS
 62
     3
 10
-600.653061599381
 20
48.6571502685547
 30
0.0
 11
-652.653061599367
 21
48.6571502685547
 31
0.0
  0
LINE
  5
   5DB
  8
0
  6
CONTINUOUS
 62
     3
 10
-645.403061599381
 20
-3.84284973144531
 30
0.0
 11
-652.653061599381
 21
-3.84284973144531
 31
0.0
  0
LINE
  5
   5DC
  8
0
  6
CONTINUOUS
 62
     3
 10
-612.90307685817
 20
-3.84284973144531
 30
0.0
 11
-640.403069228775
 21
-3.84284973144531
 31
0.0
  0
LINE
  5
   5DD
  8
0
  6
CONTINUOUS
 62
     3
 10
-600.653061599381
 20
-3.84284973144531
 30
0.0
 11
-607.90307685817
 21
-3.84284973144531
 31
0.0
  0
LINE
  5
   5DE
  8
0
  6
CONTINUOUS
 62
     3
 10
-621.278061599381
 20
7.28214263916016
 30
0.0
 11
-621.278061599381
 21
27.2821350097656
 31
0.0
  0
LINE
  5
   5DF
  8
0
  6
CONTINUOUS
 62
     3
 10
-632.028061599381
 20
7.28214263916016
 30
0.0
 11
-632.028061599381
 21
27.2821350097656
 31
0.0
  0
LINE
  5
   5E0
  8
0
  6
CONTINUOUS
 62
     1
 10
-600.403061599381
 20
42.9071350097656
 30
0.0
 11
-652.903061599381
 21
42.9071350097656
 31
0.0
  0
LINE
  5
   5E1
  8
0
  6
CONTINUOUS
 62
     1
 10
-600.403061599381
 20
47.9071350097656
 30
0.0
 11
-652.903061599381
 21
47.9071350097656
 31
0.0
  0
LINE
  5
   5E2
  8
0
  6
CONTINUOUS
 62
     3
 10
-621.278061599381
 20
27.14990234375
 30
0.0
 11
-632.028061599381
 21
27.14990234375
 31
0.0
  0
LINE
  5
   5E3
  8
0
  6
CONTINUOUS
 62
     3
 10
-621.278061599381
 20
27.2821350097656
 30
0.0
 11
-632.028061599381
 21
27.2821350097656
 31
0.0
  0
LINE
  5
   5E4
  8
0
  6
CONTINUOUS
 62
     3
 10
-621.278061599381
 20
7.28214263916016
 30
0.0
 11
-632.028061599381
 21
7.28214263916016
 31
0.0
  0
LINE
  5
   5E5
  8
0
  6
CONTINUOUS
 62
     3
 10
-621.278061599381
 20
7.41439056396484
 30
0.0
 11
-632.028061599381
 21
7.41439056396484
 31
0.0
  0
LINE
  5
   5E6
  8
0
  6
DASHDOT
 62
     3
 10
-626.653061599381
 20
-5.46949067112473
 30
0.0
 11
-626.653061599381
 21
37.7583524123997
 31
0.0
  0
LINE
  5
   5E7
  8
0
  6
DASHDOT
 62
     3
 10
-626.653061599381
 20
37.3719860561401
 30
0.0
 11
-626.653061599381
 21
54.1250622605168
 31
0.0
  0
LINE
  5
   5E8
  8
0
  6
CONTINUOUS
 62
     3
 10
-600.403069228775
 20
5.90714263916016
 30
0.0
 11
-600.403069228775
 21
11.9071386625409
 31
0.0
  0
LINE
  5
   5E9
  8
0
  6
CONTINUOUS
 62
     3
 10
-600.403069228775
 20
29.1571426391602
 30
0.0
 11
-600.403069228775
 21
48.4071502685547
 31
0.0
  0
LINE
  5
   5EA
  8
0
  6
CONTINUOUS
 62
     3
 10
-600.403069228775
 20
12.4071386625409
 30
0.0
 11
-600.403069228775
 21
22.1571426391602
 31
0.0
  0
LINE
  5
   5EB
  8
0
  6
CONTINUOUS
 62
     3
 10
-600.403069228775
 20
22.6571426391602
 30
0.0
 11
-600.403069228775
 21
28.6571426391602
 31
0.0
  0
LINE
  5
   5EC
  8
0
  6
CONTINUOUS
 62
     3
 10
-652.903061599384
 20
5.90714263916016
 30
0.0
 11
-652.903061599384
 21
11.9071426391612
 31
0.0
  0
LINE
  5
   5ED
  8
0
  6
CONTINUOUS
 62
     3
 10
-652.903061599392
 20
12.4071426391613
 30
0.0
 11
-652.903061599392
 21
22.1571426391602
 31
0.0
  0
LINE
  5
   5EE
  8
0
  6
CONTINUOUS
 62
     3
 10
-652.903061599378
 20
22.6571426391602
 30
0.0
 11
-652.903061599378
 21
28.6571426391602
 31
0.0
  0
LINE
  5
   5EF
  8
0
  6
CONTINUOUS
 62
     3
 10
-652.903061599367
 20
29.1571426391602
 30
0.0
 11
-652.903061599367
 21
48.4071502685547
 31
0.0
  0
LINE
  5
   5F0
  8
0
  6
CONTINUOUS
 62
     1
 10
-632.028065586243
 20
12.1571522568723
 30
0.0
 11
-652.403061629183
 21
12.1571522568723
 31
0.0
  0
LINE
  5
   5F1
  8
0
  6
CONTINUOUS
 62
     3
 10
-600.403069228775
 20
11.9071482802491
 30
0.0
 11
-600.903069228776
 21
11.9071482802491
 31
0.0
  0
LINE
  5
   5F2
  8
0
  6
CONTINUOUS
 62
     1
 10
-632.028075365787
 20
12.6571522568752
 30
0.0
 11
-652.403061629183
 21
12.6571522568752
 31
0.0
  0
LINE
  5
   5F3
  8
0
  6
CONTINUOUS
 62
     3
 10
-600.403069228776
 20
12.4071482802491
 30
0.0
 11
-600.903069228776
 21
12.4071482802491
 31
0.0
  0
LINE
  5
   5F4
  8
0
  6
CONTINUOUS
 62
     3
 10
-652.403061629183
 20
11.9071426391602
 30
0.0
 11
-652.403061629183
 21
12.4071426391602
 31
0.0
  0
LINE
  5
   5F5
  8
0
  6
CONTINUOUS
 62
     3
 10
-600.903069228776
 20
11.9071426391602
 30
0.0
 11
-600.903069228776
 21
12.4071426391602
 31
0.0
  0
LINE
  5
   5F6
  8
0
  6
CONTINUOUS
 62
     3
 10
-600.403061599381
 20
5.40714263916016
 30
0.0
 11
-600.903069228776
 21
5.40714263916016
 31
0.0
  0
LINE
  5
   5F7
  8
0
  6
CONTINUOUS
 62
     3
 10
-600.403069228775
 20
5.90714263916016
 30
0.0
 11
-600.903069228776
 21
5.90714263916016
 31
0.0
  0
LINE
  5
   5F8
  8
0
  6
CONTINUOUS
 62
     3
 10
-652.403061629183
 20
5.40714263916016
 30
0.0
 11
-652.403061629183
 21
5.90714263916016
 31
0.0
  0
LINE
  5
   5F9
  8
0
  6
CONTINUOUS
 62
     3
 10
-600.903069228776
 20
5.40714263916016
 30
0.0
 11
-600.903069228776
 21
5.90714263916016
 31
0.0
  0
LINE
  5
   5FA
  8
0
  6
CONTINUOUS
 62
     3
 10
-600.403069228775
 20
28.6571426391602
 30
0.0
 11
-600.903069228776
 21
28.6571426391602
 31
0.0
  0
LINE
  5
   5FB
  8
0
  6
CONTINUOUS
 62
     3
 10
-600.403069228775
 20
29.1571426391602
 30
0.0
 11
-600.903069228776
 21
29.1571426391602
 31
0.0
  0
LINE
  5
   5FC
  8
0
  6
CONTINUOUS
 62
     3
 10
-652.403061629183
 20
28.6571426391602
 30
0.0
 11
-652.403061629183
 21
29.1571426391602
 31
0.0
  0
LINE
  5
   5FD
  8
0
  6
CONTINUOUS
 62
     3
 10
-600.903069228776
 20
28.6571426391602
 30
0.0
 11
-600.903069228776
 21
29.1571426391602
 31
0.0
  0
LINE
  5
   5FE
  8
0
  6
CONTINUOUS
 62
     1
 10
-632.02806556309
 20
22.4071426391602
 30
0.0
 11
-652.403061629183
 21
22.4071426391602
 31
0.0
  0
LINE
  5
   5FF
  8
0
  6
CONTINUOUS
 62
     3
 10
-600.403069228775
 20
22.1571426391602
 30
0.0
 11
-600.903069228776
 21
22.1571426391602
 31
0.0
  0
LINE
  5
   600
  8
0
  6
CONTINUOUS
 62
     1
 10
-632.028061599381
 20
22.9071426391602
 30
0.0
 11
-652.403061629183
 21
22.9071426391602
 31
0.0
  0
LINE
  5
   601
  8
0
  6
CONTINUOUS
 62
     3
 10
-600.403069228775
 20
22.6571426391602
 30
0.0
 11
-600.903069228776
 21
22.6571426391602
 31
0.0
  0
LINE
  5
   602
  8
0
  6
CONTINUOUS
 62
     3
 10
-652.403061629183
 20
22.1571426391602
 30
0.0
 11
-652.403061629183
 21
22.6571426391602
 31
0.0
  0
LINE
  5
   603
  8
0
  6
CONTINUOUS
 62
     3
 10
-600.903069228776
 20
22.1571426391602
 30
0.0
 11
-600.903069228776
 21
22.6571426391602
 31
0.0
  0
ARC
  5
   604
  8
0
  6
CONTINUOUS
 62
     3
 10
-652.653061599381
 20
-3.59284973144531
 30
0.0
 40
0.25
 50
179.999999948034
 51
269.999999948034
  0
ARC
  5
   605
  8
0
  6
CONTINUOUS
 62
     3
 10
-600.653061599381
 20
-3.59284973144531
 30
0.0
 40
0.25
 50
269.999999948034
 51
359.999999948034
  0
ARC
  5
   606
  8
0
  6
CONTINUOUS
 62
     3
 10
-600.653061599381
 20
48.4071502685547
 30
0.0
 40
0.25
 50
359.999999948034
 51
449.999999948034
  0
ARC
  5
   607
  8
0
  6
CONTINUOUS
 62
     3
 10
-652.653061599367
 20
48.4071502685547
 30
0.0
 40
0.25
 50
449.999999948034
 51
539.999999948034
  0
INSERT
  5
   608
  8
255
  6
CONTINUOUS
 62
     3
  2
$1ON-OFF
 10
-616.653066482194
 20
25.6571426391602
 30
0.0
 41
0.5
 42
0.5
 50
359.999999792137
 43
0.5
  0
LINE
  5
   609
  8
0
  6
CONTINUOUS
 62
     1
 10
-637.903061599381
 20
28.1571426391602
 30
0.0
 11
-638.653061599381
 21
28.1571426391602
 31
0.0
  0
LINE
  5
   60A
  8
0
  6
CONTINUOUS
 62
     1
 10
-637.903061599381
 20
23.6571426391602
 30
0.0
 11
-638.653061599381
 21
23.6571426391602
 31
0.0
  0
CIRCLE
  5
   60B
  8
0
  6
CONTINUOUS
 62
     1
 10
-638.278061599381
 20
9.15714263916017
 30
0.0
 40
2.25
  0
CIRCLE
  5
   60C
  8
0
  6
CONTINUOUS
 62
     1
 10
-638.278061599381
 20
9.15714263916017
 30
0.0
 40
1.5
  0
LINE
  5
   60D
  8
0
  6
CONTINUOUS
 62
     1
 10
-638.653061599381
 20
23.6571426391602
 30
0.0
 11
-638.653061599381
 21
28.1571426391602
 31
0.0
  0
LINE
  5
   60E
  8
0
  6
CONTINUOUS
 62
     1
 10
-637.903061599381
 20
23.6571426391602
 30
0.0
 11
-637.903061599381
 21
28.1571426391602
 31
0.0
  0
LINE
  5
   60F
  8
0
  6
CONTINUOUS
 62
     1
 10
-633.403061599381
 20
6.15714263916016
 30
0.0
 11
-633.403061599381
 21
12.1571497837429
 31
0.0
  0
LINE
  5
   610
  8
0
  6
CONTINUOUS
 62
     1
 10
-619.903061599381
 20
6.15714263916016
 30
0.0
 11
-619.903061599381
 21
12.1571458071198
 31
0.0
  0
LINE
  5
   611
  8
0
  6
CONTINUOUS
 62
     1
 10
-619.903061599381
 20
22.9071426391602
 30
0.0
 11
-619.903061599381
 21
28.9071426391602
 31
0.0
  0
LINE
  5
   612
  8
0
  6
CONTINUOUS
 62
     1
 10
-633.403061599381
 20
22.9071426391602
 30
0.0
 11
-633.403061599381
 21
28.9071426391602
 31
0.0
  0
LINE
  5
   613
  8
0
  6
CONTINUOUS
 62
     7
 10
-591.653061403754
 20
-12.2178326416192
 30
0.0
 11
-597.403061599381
 21
-12.2178326416192
 31
0.0
  0
LINE
  5
   614
  8
0
  6
CONTINUOUS
 62
     1
 10
-591.653061403754
 20
-29.7178326416192
 30
0.0
 11
-661.653061403754
 21
-29.7178326416192
 31
0.0
  0
LINE
  5
   615
  8
0
  6
DASHDOT
 62
     7
 10
-626.653062892711
 20
77.3321457589729
 30
0.0
 11
-626.653062892711
 21
96.5909539663191
 31
0.0
  0
LINE
  5
   616
  8
0
  6
DASHDOT
 62
     7
 10
-626.653034384362
 20
68.2822430980967
 30
0.0
 11
-626.653034384362
 21
83.782167495895
 31
0.0
  0
LINE
  5
   617
  8
0
  6
DASHDOT
 62
     7
 10
-648.528038167295
 20
77.3321482909436
 30
0.0
 11
-648.528038167295
 21
88.7321473114874
 31
0.0
  0
LINE
  5
   618
  8
0
  6
DASHDOT
 62
     7
 10
-642.828038657023
 20
83.0321478012155
 30
0.0
 11
-654.228037677567
 21
83.0321478012155
 31
0.0
  0
LINE
  5
   619
  8
0
  6
DASHDOT
 62
     7
 10
-648.528033488294
 20
68.2821636474331
 30
0.0
 11
-648.528033488294
 21
83.7821757469465
 31
0.0
  0
LINE
  5
   61A
  8
0
  6
DASHDOT
 62
     7
 10
-648.528061284214
 20
-40.7178329174741
 30
0.0
 11
-648.528061284214
 21
-25.2178325982796
 31
0.0
  0
LINE
  5
   61B
  8
0
  6
DASHDOT
 62
     7
 10
-648.5280617866
 20
-45.6678332805062
 30
0.0
 11
-648.5280617866
 21
-34.2678331963385
 31
0.0
  0
LINE
  5
   61C
  8
0
  6
DASHDOT
 62
     7
 10
-642.828061744516
 20
-39.9678332384224
 30
0.0
 11
-654.228061828684
 21
-39.9678332384224
 31
0.0
  0
LINE
  5
   61D
  8
0
  6
DASHDOT
 62
     7
 10
-626.653060434302
 20
-45.6678323050247
 30
0.0
 11
-626.653060434302
 21
-34.267830263632
 31
0.0
  0
LINE
  5
   61E
  8
0
  6
DASHDOT
 62
     7
 10
-604.778060291801
 20
-40.717832661915
 30
0.0
 11
-604.778060291801
 21
-25.2178309787331
 31
0.0
  0
LINE
  5
   61F
  8
0
  6
DASHDOT
 62
     7
 10
-604.778061678514
 20
-45.6678286354246
 30
0.0
 11
-604.778061678514
 21
-34.2678316917689
 31
0.0
  0
LINE
  5
   620
  8
0
  6
CONTINUOUS
 62
     7
 10
-621.278061599381
 20
11.871793095548
 30
0.0
 11
-632.028061599381
 21
11.871793095548
 31
0.0
  0
LINE
  5
   621
  8
0
  6
CONTINUOUS
 62
     7
 10
-621.278061599381
 20
14.3448536835198
 30
0.0
 11
-632.028061599381
 21
14.3448536835198
 31
0.0
  0
LINE
  5
   622
  8
0
  6
CONTINUOUS
 62
     7
 10
-621.278061599381
 20
7.91131726922709
 30
0.0
 11
-632.028061599381
 21
7.91131726922709
 31
0.0
  0
LINE
  5
   623
  8
0
  6
CONTINUOUS
 62
     7
 10
-660.403038024903
 20
83.6321426391602
 30
0.0
 11
-660.403038024903
 21
84.5321502685547
 31
0.0
  0
LINE
  5
   624
  8
0
  6
CONTINUOUS
 62
     1
 10
-652.403061629183
 20
29.4071426391602
 30
0.0
 11
-652.903061599367
 21
29.4071426391602
 31
0.0
  0
LINE
  5
   625
  8
0
  6
CONTINUOUS
 62
     1
 10
-652.403061629183
 20
28.9071426391602
 30
0.0
 11
-652.903061599378
 21
28.9071426391602
 31
0.0
  0
LINE
  5
   626
  8
0
  6
CONTINUOUS
 62
     3
 10
-652.403061629183
 20
22.6571426391602
 30
0.0
 11
-652.903061599378
 21
22.6571426391602
 31
0.0
  0
LINE
  5
   627
  8
0
  6
CONTINUOUS
 62
     3
 10
-652.403061629183
 20
22.1571426391602
 30
0.0
 11
-652.903061599392
 21
22.1571426391602
 31
0.0
  0
LINE
  5
   628
  8
0
  6
CONTINUOUS
 62
     3
 10
-652.403061629183
 20
12.4071522568752
 30
0.0
 11
-652.903061599392
 21
12.4071522568752
 31
0.0
  0
LINE
  5
   629
  8
0
  6
CONTINUOUS
 62
     3
 10
-652.403061629183
 20
11.9071522568723
 30
0.0
 11
-652.903061599384
 21
11.9071522568723
 31
0.0
  0
LINE
  5
   62A
  8
0
  6
CONTINUOUS
 62
     3
 10
-652.403061629183
 20
5.90714263916016
 30
0.0
 11
-652.903061599384
 21
5.90714263916016
 31
0.0
  0
LINE
  5
   62B
  8
0
  6
CONTINUOUS
 62
     3
 10
-652.403061629183
 20
5.40714263916016
 30
0.0
 11
-652.903061599381
 21
5.40714263916016
 31
0.0
  0
LINE
  5
   62C
  8
0
  6
CONTINUOUS
 62
     1
 10
-600.903069228776
 20
5.65714263916016
 30
0.0
 11
-652.403061629183
 21
5.65714263916016
 31
0.0
  0
LINE
  5
   62D
  8
0
  6
CONTINUOUS
 62
     1
 10
-600.903069228776
 20
6.15714263916016
 30
0.0
 11
-652.403061629183
 21
6.15714263916016
 31
0.0
  0
LINE
  5
   62E
  8
0
  6
CONTINUOUS
 62
     1
 10
-600.903069228776
 20
12.1571482802491
 30
0.0
 11
-621.278063274955
 21
12.1571482802491
 31
0.0
  0
LINE
  5
   62F
  8
0
  6
CONTINUOUS
 62
     1
 10
-600.903069228776
 20
12.6571482802491
 30
0.0
 11
-621.27806309176
 21
12.6571482802491
 31
0.0
  0
LINE
  5
   630
  8
0
  6
CONTINUOUS
 62
     1
 10
-600.903069228776
 20
22.4071426391602
 30
0.0
 11
-621.278061599381
 21
22.4071426391602
 31
0.0
  0
LINE
  5
   631
  8
0
  6
CONTINUOUS
 62
     1
 10
-600.903069228776
 20
22.9071426391602
 30
0.0
 11
-621.278061599381
 21
22.9071426391602
 31
0.0
  0
LINE
  5
   632
  8
0
  6
CONTINUOUS
 62
     1
 10
-600.903069228776
 20
28.9071426391602
 30
0.0
 11
-652.403061629183
 21
28.9071426391602
 31
0.0
  0
LINE
  5
   633
  8
0
  6
CONTINUOUS
 62
     1
 10
-600.903069228776
 20
29.4071426391602
 30
0.0
 11
-652.403061629183
 21
29.4071426391602
 31
0.0
  0
LINE
  5
   634
  8
0
  6
DASHDOT
 62
     3
 10
-582.184329589207
 20
22.4071502685547
 30
0.0
 11
-671.319607026154
 21
22.4071502685547
 31
0.0
  0
LINE
  5
   635
  8
0
  6
CONTINUOUS
 62
     1
 10
-655.903061599381
 20
-3.84284973144531
 30
0.0
 11
-661.653061599381
 21
-3.84284973144531
 31
0.0
  0
LINE
  5
   636
  8
0
  6
CONTINUOUS
 62
     1
 10
-591.653061599381
 20
-3.84284973144531
 30
0.0
 11
-597.403061599381
 21
-3.84284973144531
 31
0.0
  0
LINE
  5
   637
  8
0
  6
CONTINUOUS
 62
     1
 10
-591.653061599381
 20
48.4071502685547
 30
0.0
 11
-597.403061599381
 21
48.4071502685547
 31
0.0
  0
LINE
  5
   638
  8
0
  6
CONTINUOUS
 62
     1
 10
-655.903061599381
 20
48.6571502685547
 30
0.0
 11
-661.653061599381
 21
48.6571502685547
 31
0.0
  0
INSERT
  5
   639
  8
255
  6
CONTINUOUS
 62
     7
  2
COPRITERMINALI
 10
-626.653062892711
 20
86.2821426391602
 30
0.0
 41
0.5
 42
0.5
 50
3.50835464724173E-15
 43
0.5
  0
INSERT
  5
   63A
  8
0
  6
CONTINUOUS
 62
     7
  2
COPRITERMINALI
 10
-626.653062892711
 20
-43.2178573608398
 30
0.0
 41
0.5
 42
-0.5
 50
1.03931142803049E-7
 43
0.5
  0
LINE
  5
   63B
  8
0
  6
CONTINUOUS
 62
     1
 10
-653.078057021744
 20
-29.7178326416192
 30
0.0
 11
-653.078057021744
 21
-17.8428478240967
 31
0.0
  0
LINE
  5
   63C
  8
0
  6
CONTINUOUS
 62
     1
 10
-654.228058547623
 20
-29.7178326416192
 30
0.0
 11
-654.228058547623
 21
-17.8428478240967
 31
0.0
  0
LINE
  5
   63D
  8
0
  6
CONTINUOUS
 62
     1
 10
-656.028053969986
 20
-29.7178326416192
 30
0.0
 11
-656.028053969986
 21
-12.2178326416192
 31
0.0
  0
LINE
  5
   63E
  8
0
  6
CONTINUOUS
 62
     1
 10
-657.828057021744
 20
-29.7178326416192
 30
0.0
 11
-657.828057021744
 21
-12.2178326416192
 31
0.0
  0
LINE
  5
   63F
  8
0
  6
CONTINUOUS
 62
     1
 10
-659.378060073502
 20
-29.7178326416192
 30
0.0
 11
-659.378060073502
 21
-12.2178326416192
 31
0.0
  0
LINE
  5
   640
  8
0
  6
CONTINUOUS
 62
     1
 10
-660.528053969986
 20
-29.7178326416192
 30
0.0
 11
-660.528053969986
 21
-12.2178326416192
 31
0.0
  0
LINE
  5
   641
  8
0
  6
CONTINUOUS
 62
     1
 10
-595.478066177018
 20
-29.7178326416192
 30
0.0
 11
-595.478066177018
 21
-12.2178326416192
 31
0.0
  0
LINE
  5
   642
  8
0
  6
CONTINUOUS
 62
     1
 10
-593.92806312526
 20
-29.7178326416192
 30
0.0
 11
-593.92806312526
 21
-12.2178326416192
 31
0.0
  0
LINE
  5
   643
  8
0
  6
CONTINUOUS
 62
     1
 10
-592.778069228776
 20
-29.7178326416192
 30
0.0
 11
-592.778069228776
 21
-12.2178326416192
 31
0.0
  0
LINE
  5
   644
  8
0
  6
CONTINUOUS
 62
     1
 10
-599.078064651139
 20
-29.7178326416192
 30
0.0
 11
-599.078064651139
 21
-17.8428478240967
 31
0.0
  0
LINE
  5
   645
  8
0
  6
CONTINUOUS
 62
     1
 10
-597.278069228776
 20
-29.7178326416192
 30
0.0
 11
-597.278069228776
 21
-12.2178326416192
 31
0.0
  0
INSERT
  5
   646
  8
255
  6
CONTINUOUS
 62
     7
  2
MOSTRINA
 10
-684.07219001735
 20
-32.5831604003906
 30
0.0
 41
0.5
 42
0.5
 50
359.999999792138
 43
0.5
  0
LINE
  5
   647
  8
0
  6
CONTINUOUS
 62
     1
 10
-655.903061599381
 20
-11.7178497314453
 30
0.0
 11
-661.153053969986
 21
-11.7178497314453
 31
0.0
  0
LINE
  5
   648
  8
0
  6
CONTINUOUS
 62
     7
 10
-655.903061599381
 20
-12.2178326416192
 30
0.0
 11
-661.653061403754
 21
-12.2178326416192
 31
0.0
  0
CIRCLE
  5
   649
  8
0
  6
CONTINUOUS
 62
     7
 10
-599.024051718531
 20
59.6156622357174
 30
0.0
 40
0.1
  0
TEXT
  5
   64A
  8
0
  6
CONTINUOUS
 62
     7
 10
-643.022559160105
 20
-53.068948733974
 30
0.0
 40
3.00000002980232
  1
=          =
 50
359.999999948034
 41
0.916666604744064
 72
     1
 11
-626.797560095787
 21
-51.5689487337069
 31
0.0
 73
     2
  0
INSERT
  5
   64B
  8
0
  6
CONTINUOUS
 62
     7
  2
*UDIM519
 10
0.0
 20
0.0
 30
0.0
  0
TEXT
  5
   64C
  8
0
  6
CONTINUOUS
 62
     7
 10
-566.415404319557
 20
6.5918054639125
 30
0.0
 40
3.00000002980232
  1
=          =
 50
89.9999999480344
 41
0.916666604744064
 72
     1
 11
-567.915404319763
 21
22.8168045282364
 31
0.0
 73
     2
  0
INSERT
  5
   64D
  8
0
  6
CONTINUOUS
 62
     7
  2
*UDIM520
 10
0.0
 20
0.0
 30
0.0
  0
INSERT
  5
   64E
  8
0
  6
CONTINUOUS
 62
     7
  2
*UDIM521
 10
0.0
 20
0.0
 30
0.0
  0
INSERT
  5
   64F
  8
0
  6
CONTINUOUS
 62
     7
  2
*UDIM522
 10
0.0
 20
0.0
 30
0.0
  0
INSERT
  5
   650
  8
0
  6
CONTINUOUS
 62
     7
  2
*UDIM523
 10
0.0
 20
0.0
 30
0.0
  0
TEXT
  5
   651
  8
0
  6
CONTINUOUS
 62
     7
 10
-642.969717189042
 20
91.672553845864
 30
0.0
 40
3.00000002980232
  1
=         =
 50
359.999999948034
 41
0.916666604744064
 72
     2
 11
-613.269718904662
 21
91.6725538190763
 31
0.0
  0
INSERT
  5
   652
  8
0
  6
CONTINUOUS
 62
     7
  2
*UDIM524
 10
0.0
 20
0.0
 30
0.0
  0
TEXT
  5
   653
  8
0
  6
CONTINUOUS
 62
     7
 10
-627.363960559527
 20
-57.1637864514183
 30
0.0
 40
3.00000002980232
  1
Y
 50
359.999999948034
 41
0.916666604744064
 72
     2
 11
-625.163960690657
 21
-57.1637864534026
 31
0.0
  0
INSERT
  5
   654
  8
0
  6
CONTINUOUS
 62
     7
  2
*UDIM525
 10
0.0
 20
0.0
 30
0.0
  0
INSERT
  5
   655
  8
0
  6
CONTINUOUS
 62
     7
  2
*UDIM526
 10
0.0
 20
0.0
 30
0.0
  0
TEXT
  5
   656
  8
0
  6
CONTINUOUS
 62
     7
 10
-556.002019794148
 20
20.2860109872596
 30
0.0
 40
3.00000002980232
  1
X
 50
359.999999948034
 41
0.916666604744064
 72
     1
 11
-554.90201985836
 21
21.7860110011686
 31
0.0
 73
     2
  0
TEXT
  5
   657
  8
0
  6
CONTINUOUS
 62
     7
 10
-686.352813632649
 20
21.268368012406
 30
0.0
 40
3.00000002980232
  1
X
 50
359.999999948034
 41
0.916666604744064
 72
     1
 11
-685.252813696861
 21
22.7683680263151
 31
0.0
 73
     2
  0
TEXT
  5
   658
  8
0
  6
CONTINUOUS
 62
     7
 10
-627.960338504475
 20
107.633835083939
 30
0.0
 40
3.00000002980232
  1
Y
 50
359.999999948034
 41
0.916666604744064
 72
     1
 11
-626.860338568687
 21
109.133835097848
 31
0.0
 73
     2
  0
LINE
  5
   659
  8
0
  6
CONTINUOUS
 62
     7
 10
-343.334045410156
 20
27.7306518554688
 30
0.0
 11
-315.334045410156
 21
27.7306518554688
 31
0.0
  0
LINE
  5
   65A
  8
0
  6
CONTINUOUS
 62
     7
 10
-343.334045410156
 20
55.7306518554688
 30
0.0
 11
-315.334045410156
 21
55.7306518554688
 31
0.0
  0
LINE
  5
   65B
  8
0
  6
CONTINUOUS
 62
     7
 10
-343.334045410156
 20
55.7306518554688
 30
0.0
 11
-343.334045410156
 21
27.7306518554688
 31
0.0
  0
LINE
  5
   65C
  8
0
  6
CONTINUOUS
 62
     7
 10
-315.334045410156
 20
55.7306518554688
 30
0.0
 11
-315.334045410156
 21
27.7306518554688
 31
0.0
  0
CIRCLE
  5
   65D
  8
0
  6
CONTINUOUS
 62
     7
 10
-339.334045410156
 20
59.4806518554688
 30
0.0
 40
0.875
  0
CIRCLE
  5
   65E
  8
0
  6
CONTINUOUS
 62
     7
 10
-319.334045410156
 20
59.4806518554688
 30
0.0
 40
0.875
  0
CIRCLE
  5
   65F
  8
0
  6
CONTINUOUS
 62
     7
 10
-339.334045410156
 20
23.9806518554688
 30
0.0
 40
0.875
  0
CIRCLE
  5
   660
  8
0
  6
CONTINUOUS
 62
     7
 10
-319.334045410156
 20
23.9806518554688
 30
0.0
 40
0.875
  0
LINE
  5
   661
  8
0
  6
DASHDOT
 62
     7
 10
-339.334045410156
 20
61.1056518554688
 30
0.0
 11
-339.334045410156
 21
57.8556518554688
 31
0.0
  0
LINE
  5
   662
  8
0
  6
DASHDOT
 62
     7
 10
-340.959045410156
 20
59.4806518554688
 30
0.0
 11
-337.709045410156
 21
59.4806518554688
 31
0.0
  0
LINE
  5
   663
  8
0
  6
DASHDOT
 62
     7
 10
-319.334045410156
 20
61.1056518554688
 30
0.0
 11
-319.334045410156
 21
57.8556518554688
 31
0.0
  0
LINE
  5
   664
  8
0
  6
DASHDOT
 62
     7
 10
-320.959045410156
 20
59.4806518554688
 30
0.0
 11
-317.709045410156
 21
59.4806518554688
 31
0.0
  0
LINE
  5
   665
  8
0
  6
DASHDOT
 62
     7
 10
-319.334045410156
 20
25.6056518554688
 30
0.0
 11
-319.334045410156
 21
22.3556518554688
 31
0.0
  0
LINE
  5
   666
  8
0
  6
DASHDOT
 62
     7
 10
-320.959045410156
 20
23.9806518554688
 30
0.0
 11
-317.709045410156
 21
23.9806518554688
 31
0.0
  0
LINE
  5
   667
  8
0
  6
DASHDOT
 62
     7
 10
-339.334045410156
 20
25.6056518554688
 30
0.0
 11
-339.334045410156
 21
22.3556518554688
 31
0.0
  0
LINE
  5
   668
  8
0
  6
DASHDOT
 62
     7
 10
-340.959045410156
 20
23.9806518554688
 30
0.0
 11
-337.709045410156
 21
23.9806518554688
 31
0.0
  0
LINE
  5
   669
  8
0
  6
DASHDOT
 62
     7
 10
-329.334045410156
 20
69.1007641408058
 30
0.0
 11
-329.334045410156
 21
12.6074010106477
 31
0.0
  0
LINE
  5
   66A
  8
0
  6
CONTINUOUS
 62
     7
 10
-346.154621953822
 20
62.1318375106748
 30
0.0
 11
-312.200061730515
 21
62.1318375106748
 31
0.0
  0
LINE
  5
   66B
  8
0
  6
CONTINUOUS
 62
     7
 10
-346.154621953822
 20
20.5667724097295
 30
0.0
 11
-312.200061730515
 21
20.5667724097295
 31
0.0
  0
LINE
  5
   66C
  8
0
  6
CONTINUOUS
 62
     7
 10
-312.200061730515
 20
62.1318375106748
 30
0.0
 11
-312.200061730515
 21
20.5667724097295
 31
0.0
  0
LINE
  5
   66D
  8
0
  6
CONTINUOUS
 62
     7
 10
-346.154621953822
 20
62.1318375106748
 30
0.0
 11
-346.154621953822
 21
20.5667724097295
 31
0.0
  0
CIRCLE
  5
   66E
  8
0
  6
CONTINUOUS
 62
     7
 10
-344.281266907019
 20
60.3170248090842
 30
0.0
 40
0.0625
  0
LINE
  5
   66F
  8
0
  6
DASHDOT
 62
     7
 10
-352.968350556465
 20
41.7306518554688
 30
0.0
 11
-305.094080578234
 21
41.7306518554688
 31
0.0
  0
INSERT
  5
   670
  8
0
  6
CONTINUOUS
 62
     7
  2
*UDIM527
 10
0.0
 20
0.0
 30
0.0
  0
TEXT
  5
   671
  8
0
  6
CONTINUOUS
 62
     1
 10
-455.7293685374
 20
-149.973144547596
 30
0.0
 40
2.00000008940697
  1
M 4329 96-09-24
 50
359.999999844103
 41
0.749999861419206
 72
     1
 11
-444.629370093346
 21
-148.973144533039
 31
0.0
 73
     2
  0
TEXT
  5
   672
  8
0
  6
CONTINUOUS
 62
     1
 10
-462.257568350166
 20
-134.968383661054
 30
0.0
 40
2.00000008940697
  1
96-09-24 COLLEONI M.
 50
359.999999844103
 41
0.749999861419206
 72
     2
 11
-432.557572518021
 21
-134.968383741716
 31
0.0
  0
TEXT
  5
   673
  8
0
  6
CONTINUOUS
 62
     5
 10
-351.099385198729
 20
31.4906933952422
 30
0.0
 40
3.00000002980232
  1
=     =
 50
449.999999844103
 41
0.916666604744064
 72
     2
 11
-351.099385147965
 21
50.1906923134179
 31
0.0
  0
TEXT
  5
   674
  8
0
  6
CONTINUOUS
 62
     5
 10
-360.012914012928
 20
27.5536916885824
 30
0.0
 40
3.00000002980232
  1
=        =
 50
449.999999844103
 41
0.916666604744064
 72
     2
 11
-360.012913939769
 21
54.503690131411
 31
0.0
  0
TEXT
  5
   675
  8
0
  6
CONTINUOUS
 62
     7
 10
-336.234587403241
 20
74.9549977217458
 30
0.0
 40
3.00000002980232
  1
=   =
 50
359.999999844103
 41
0.916666604744064
 72
     2
 11
-323.034588168167
 21
74.9549976858961
 31
0.0
  0
TEXT
  5
   676
  8
0
  6
CONTINUOUS
 62
     7
 10
-336.293129654828
 20
68.3982560072683
 30
0.0
 40
3.00000002980232
  1
=   =
 50
359.999999844103
 41
0.916666604744064
 72
     2
 11
-323.093130419754
 21
68.3982559714186
 31
0.0
  0
INSERT
  5
   677
  8
0
  6
CONTINUOUS
 62
     7
  2
*UDIM528
 10
0.0
 20
0.0
 30
0.0
  0
INSERT
  5
   678
  8
0
  6
CONTINUOUS
 62
     7
  2
*UDIM529
 10
0.0
 20
0.0
 30
0.0
  0
INSERT
  5
   679
  8
0
  6
CONTINUOUS
 62
     7
  2
*UDIM530
 10
0.0
 20
0.0
 30
0.0
  0
INSERT
  5
   67A
  8
0
  6
CONTINUOUS
 62
     7
  2
*UDIM531
 10
0.0
 20
0.0
 30
0.0
  0
TEXT
  5
   67B
  8
0
  6
CONTINUOUS
 62
     7
 10
-330.522325406574
 20
5.7555579447797
 30
0.0
 40
3.00000002980232
  1
Y
 50
359.999999844103
 41
0.916666604744064
 72
     2
 11
-328.322325537704
 21
5.75555793880475
 31
0.0
  0
TEXT
  5
   67C
  8
0
  6
CONTINUOUS
 62
     7
 10
-329.585647950672
 20
84.4950141215375
 30
0.0
 40
3.00000002980232
  1
Y
 50
359.999999844103
 41
0.916666604744064
 72
     2
 11
-327.385648081802
 21
84.4950141155626
 31
0.0
  0
TEXT
  5
   67D
  8
0
  6
CONTINUOUS
 62
     7
 10
-304.106149564289
 20
40.6770320439389
 30
0.0
 40
3.00000002980232
  1
X
 50
359.999999844103
 41
0.916666604744064
 72
     2
 11
-301.906149695419
 21
40.677032037964
 31
0.0
  0
TEXT
  5
   67E
  8
0
  6
CONTINUOUS
 62
     7
 10
-375.126838574909
 20
40.6770320439389
 30
0.0
 40
3.00000002980232
  1
X
 50
359.999999844103
 41
0.916666604744064
 72
     2
 11
-372.926838706039
 21
40.677032037964
 31
0.0
  0
TEXT
  5
   67F
  8
0
  6
CONTINUOUS
 62
     1
 10
-360.440429669082
 20
-160.981750398071
 30
0.0
 40
4.00000017881393
  1
601812/871
 50
359.999999844103
 41
0.937499973922969
 72
     2
 11
-323.69042906931
 21
-160.98175049788
 31
0.0
  0
TEXT
  5
   680
  8
0
  6
CONTINUOUS
 62
     1
 10
-349.26556395103
 20
-152.299804600542
 30
0.0
 40
3.00000002980232
  1
S5 630
 50
359.999999844103
 41
0.916666604744064
 72
     2
 11
-333.315564874406
 21
-152.299804643861
 31
0.0
  0
TEXT
  5
   681
  8
0
  6
CONTINUOUS
 62
     1
 10
-370.889156073073
 20
-133.689895597343
 30
0.0
 40
2.00000008940697
  1
3POLE LOW VOLTAGE M.C.C.B SERIES ISOMAX
 50
359.999999844103
 41
0.749999861419206
 72
     1
 11
-341.789160150296
 21
-132.689895631672
 31
0.0
 73
     2
  0
TEXT
  5
   682
  8
0
  6
CONTINUOUS
 62
     1
 10
-362.639157192884
 20
-136.689895619749
 30
0.0
 40
2.00000008940697
  1
FIXED VERSION REAR TERMINALS
 50
359.999999844103
 41
0.749999861419206
 72
     1
 11
-341.789160114521
 21
-135.689895631672
 31
0.0
 73
     2
  0
TEXT
  5
   683
  8
0
  6
CONTINUOUS
 62
     1
 10
-367.686764440427
 20
-141.760162339308
 30
0.0
 40
2.00000008940697
  1
INTERR.AUTOMATICO SERIE ISOMAX
 50
359.999999844103
 41
0.749999861419206
 72
     1
 11
-345.33676757217
 21
-140.760162355304
 31
0.0
 73
     2
  0
TEXT
  5
   684
  8
0
  6
CONTINUOUS
 62
     1
 10
-374.436763459174
 20
-144.760162320976
 30
0.0
 40
2.00000008940697
  1
TRIPOL.ESECUZIONE FISSA TERMINALI POST.
 50
359.999999844103
 41
0.749999861419206
 72
     1
 11
-345.336767536396
 21
-143.760162355304
 31
0.0
 73
     2
  0
LINE
  5
   685
  8
0
  6
CONTINUOUS
 62
     2
 10
-591.653076171874
 20
-137.505294680595
 30
0.0
 11
-598.02805328369
 21
-137.50529551506
 31
0.0
  0
LINE
  5
   686
  8
0
  6
CONTINUOUS
 62
     2
 10
-598.528076171875
 20
-137.50529551506
 30
0.0
 11
-654.778060913139
 21
-137.50529551506
 31
0.0
  0
LINE
  5
   687
  8
0
  6
CONTINUOUS
 62
     2
 10
-591.653076171875
 20
-137.505294680595
 30
0.0
 11
-591.653076171875
 21
-159.946900408911
 31
0.0
  0
LINE
  5
   688
  8
0
  6
CONTINUOUS
 62
     2
 10
-598.528057098336
 20
-152.255293607713
 30
0.0
 11
-598.528076171822
 21
-137.505295515062
 31
0.0
  0
LINE
  5
   689
  8
0
  6
CONTINUOUS
 62
     2
 10
-598.028053283616
 20
-137.505295753517
 30
0.0
 11
-598.028076171798
 21
-152.255295753517
 31
0.0
  0
LINE
  5
   68A
  8
0
  6
CONTINUOUS
 62
     2
 10
-598.028076171875
 20
-152.255295753479
 30
0.0
 11
-598.528076171875
 21
-152.255295753479
 31
0.0
  0
LINE
  5
   68B
  8
0
  6
CONTINUOUS
 62
     2
 10
-598.028072357178
 20
-142.755294322968
 30
0.0
 11
-598.528057098389
 21
-142.755294322968
 31
0.0
  0
LINE
  5
   68C
  8
0
  6
CONTINUOUS
 62
     2
 10
-598.528076171875
 20
-152.255295753479
 30
0.0
 11
-655.278060913163
 21
-152.255295753479
 31
0.0
  0
LINE
  5
   68D
  8
0
  6
CONTINUOUS
 62
     2
 10
-598.528076171875
 20
-142.755295753479
 30
0.0
 11
-655.278075654704
 21
-142.755295753479
 31
0.0
  0
LINE
  5
   68E
  8
0
  6
CONTINUOUS
 62
     2
 10
-592.278076171875
 20
-137.505294799805
 30
0.0
 11
-592.278076171875
 21
-159.946900408911
 31
0.0
  0
LINE
  5
   68F
  8
0
  6
CONTINUOUS
 62
     2
 10
-598.528076164594
 20
-151.678793908041
 30
0.0
 11
-654.778079240362
 21
-151.678189813032
 31
0.0
  0
LINE
  5
   690
  8
0
  6
CONTINUOUS
 62
     2
 10
-598.528076164594
 20
-142.178793907493
 30
0.0
 11
-654.778066955742
 21
-142.178189812616
 31
0.0
  0
LINE
  5
   691
  8
0
  6
CONTINUOUS
 62
     7
 10
-661.028060913086
 20
-137.505294799805
 30
0.0
 11
-661.028060913086
 21
-159.946900408911
 31
0.0
  0
LINE
  5
   692
  8
0
  6
CONTINUOUS
 62
     7
 10
-661.653060913086
 20
-137.505294680595
 30
0.0
 11
-661.653060913086
 21
-159.946900408911
 31
0.0
  0
LINE
  5
   693
  8
0
  6
CONTINUOUS
 62
     7
 10
-654.778060913139
 20
-137.505295517791
 30
0.0
 11
-654.778079986625
 21
-152.255293611095
 31
0.0
  0
LINE
  5
   694
  8
0
  6
CONTINUOUS
 62
     7
 10
-655.278060913163
 20
-152.255295751292
 30
0.0
 11
-655.278083801345
 21
-137.505295751292
 31
0.0
  0
LINE
  5
   695
  8
0
  6
CONTINUOUS
 62
     7
 10
-655.278083801345
 20
-137.505295751292
 30
0.0
 11
-661.653060913086
 21
-137.505294680595
 31
0.0
  0
LINE
  5
   696
  8
0
  6
CONTINUOUS
 62
     7
 10
-587.433331151989
 20
-159.946900408911
 30
0.0
 11
-665.576053658798
 21
-159.946900408911
 31
0.0
  0
LINE
  5
   697
  8
0
  6
CONTINUOUS
 62
     7
 10
-585.689781562587
 20
-135.00529551506
 30
0.0
 11
-597.528068542481
 21
-135.00529551506
 31
0.0
  0
LINE
  5
   698
  8
0
  6
CONTINUOUS
 62
     7
 10
-612.028068542481
 20
-135.00529551506
 30
0.0
 11
-619.403068542481
 21
-135.00529551506
 31
0.0
  0
LINE
  5
   699
  8
0
  6
CONTINUOUS
 62
     7
 10
-612.028068542481
 20
-136.50529551506
 30
0.0
 11
-619.403068542481
 21
-136.50529551506
 31
0.0
  0
LINE
  5
   69A
  8
0
  6
CONTINUOUS
 62
     7
 10
-633.903068542481
 20
-135.00529551506
 30
0.0
 11
-641.278068542481
 21
-135.00529551506
 31
0.0
  0
LINE
  5
   69B
  8
0
  6
CONTINUOUS
 62
     7
 10
-633.903068542481
 20
-136.50529551506
 30
0.0
 11
-641.278068542481
 21
-136.50529551506
 31
0.0
  0
LINE
  5
   69C
  8
0
  6
CONTINUOUS
 62
     7
 10
-655.778068542481
 20
-135.00529551506
 30
0.0
 11
-664.602383108872
 21
-135.00529551506
 31
0.0
  0
LINE
  5
   69D
  8
0
  6
DASHDOT
 62
     7
 10
-637.590568542481
 20
-125.443257594088
 30
0.0
 11
-637.590568542481
 21
-141.60565935201
 31
0.0
  0
LINE
  5
   69E
  8
0
  6
DASHDOT
 62
     7
 10
-615.715568542481
 20
-126.288183819791
 30
0.0
 11
-615.715568542481
 21
-141.333937338077
 31
0.0
  0
LINE
  5
   69F
  8
0
  6
CONTINUOUS
 62
     7
 10
-664.421235099584
 20
-133.974799460733
 30
0.0
 11
-665.915706176213
 21
-137.733620653469
 31
0.0
  0
LINE
  5
   6A0
  8
0
  6
CONTINUOUS
 62
     7
 10
-585.372772546332
 20
-139.137517725454
 30
0.0
 11
-586.550234606707
 21
-133.47664243519
 31
0.0
  0
LINE
  5
   6A1
  8
0
  6
CONTINUOUS
 62
     7
 10
-640.09056854248
 20
-136.50529551506
 30
0.0
 11
-640.09056854248
 21
-137.50529551506
 31
0.0
  0
LINE
  5
   6A2
  8
0
  6
CONTINUOUS
 62
     7
 10
-635.090568542481
 20
-136.50529551506
 30
0.0
 11
-635.090568542481
 21
-137.50529551506
 31
0.0
  0
LINE
  5
   6A3
  8
0
  6
CONTINUOUS
 62
     7
 10
-618.215568542481
 20
-136.50529551506
 30
0.0
 11
-618.215568542481
 21
-137.50529551506
 31
0.0
  0
LINE
  5
   6A4
  8
0
  6
CONTINUOUS
 62
     7
 10
-613.215568542481
 20
-136.50529551506
 30
0.0
 11
-613.215568542481
 21
-137.50529551506
 31
0.0
  0
LINE
  5
   6A5
  8
0
  6
CONTINUOUS
 62
     7
 10
-636.340568542481
 20
-131.00529551506
 30
0.0
 11
-638.840568542481
 21
-131.00529551506
 31
0.0
  0
LINE
  5
   6A6
  8
0
  6
CONTINUOUS
 62
     7
 10
-638.840568542481
 20
-131.00529551506
 30
0.0
 11
-638.840568542481
 21
-133.00529551506
 31
0.0
  0
LINE
  5
   6A7
  8
0
  6
CONTINUOUS
 62
     7
 10
-636.340568542481
 20
-131.00529551506
 30
0.0
 11
-636.340568542481
 21
-133.00529551506
 31
0.0
  0
LINE
  5
   6A8
  8
0
  6
CONTINUOUS
 62
     7
 10
-614.465568542481
 20
-131.00529551506
 30
0.0
 11
-616.965568542481
 21
-131.00529551506
 31
0.0
  0
LINE
  5
   6A9
  8
0
  6
CONTINUOUS
 62
     7
 10
-616.965568542481
 20
-131.00529551506
 30
0.0
 11
-616.965568542481
 21
-133.00529551506
 31
0.0
  0
LINE
  5
   6AA
  8
0
  6
CONTINUOUS
 62
     7
 10
-614.465568542481
 20
-131.00529551506
 30
0.0
 11
-614.465568542481
 21
-133.00529551506
 31
0.0
  0
LINE
  5
   6AB
  8
0
  6
DASHDOT
 62
     7
 10
-648.52806854248
 20
-99.0052952766418
 30
0.0
 11
-648.52806854248
 21
-144.571958004108
 31
0.0
  0
LINE
  5
   6AC
  8
0
  6
DASHDOT
 62
     7
 10
-626.653068542481
 20
-79.1322396486525
 30
0.0
 11
-626.653068542481
 21
-145.205976036618
 31
0.0
  0
LINE
  5
   6AD
  8
0
  6
DASHDOT
 62
     7
 10
-604.778068542481
 20
-99.0052952766418
 30
0.0
 11
-604.778068542481
 21
-144.571958004108
 31
0.0
  0
LINE
  5
   6AE
  8
0
  6
DASHDOT
 62
     2
 10
-604.778068542481
 20
-95.3140636484684
 30
0.0
 11
-604.778068542481
 21
-161.329746474783
 31
0.0
  0
INSERT
  5
   6AF
  8
255
  6
CONTINUOUS
 62
     7
  2
PNT_S5-630_POST
 10
-661.653076171875
 20
-136.505294799805
 30
0.0
 41
0.5
 42
0.5
 50
7.01670929448346E-15
 43
0.5
  0
INSERT
  5
   6B0
  8
255
  6
CONTINUOUS
 62
   134
  2
DE_M5_NORM_____L
 10
-615.715568542481
 20
-135.00529551506
 30
0.0
 41
0.5
 42
0.5
 50
89.9999999480344
 43
0.5
  0
INSERT
  5
   6B1
  8
255
  6
CONTINUOUS
 62
   134
  2
DE_M5_NORM_____L
 10
-637.590568542481
 20
-135.00529551506
 30
0.0
 41
0.5
 42
0.5
 50
89.9999999480344
 43
0.5
  0
LINE
  5
   6B2
  8
0
  6
CONTINUOUS
 62
     7
 10
-585.920274766094
 20
-136.50529551506
 30
0.0
 11
-597.528068542481
 21
-136.50529551506
 31
0.0
  0
LINE
  5
   6B3
  8
0
  6
CONTINUOUS
 62
     7
 10
-655.778068542481
 20
-136.50529551506
 30
0.0
 11
-665.427335940461
 21
-136.50529551506
 31
0.0
  0
INSERT
  5
   6B4
  8
0
  6
CONTINUOUS
 62
     7
  2
*UDIM532
 10
0.0
 20
0.0
 30
0.0
  0
INSERT
  5
   6B5
  8
0
  6
CONTINUOUS
 62
     7
  2
*UDIM533
 10
0.0
 20
0.0
 30
0.0
  0
INSERT
  5
   6B6
  8
0
  6
CONTINUOUS
 62
     7
  2
*UDIM534
 10
0.0
 20
0.0
 30
0.0
  0
INSERT
  5
   6B7
  8
0
  6
CONTINUOUS
 62
     7
  2
*UDIM535
 10
0.0
 20
0.0
 30
0.0
  0
INSERT
  5
   6B8
  8
0
  6
CONTINUOUS
 62
     7
  2
*UDIM536
 10
0.0
 20
0.0
 30
0.0
  0
INSERT
  5
   6B9
  8
0
  6
CONTINUOUS
 62
     7
  2
*UDIM537
 10
0.0
 20
0.0
 30
0.0
  0
INSERT
  5
   6BA
  8
0
  6
CONTINUOUS
 62
     7
  2
*UDIM538
 10
0.0
 20
0.0
 30
0.0
  0
ENDSEC
  0
EOF
