  0
SECTION
  2
HEADER
  9
$ACADVER
  1
AC1009
  9
$INSBASE
 10
0.0
 20
0.0
 30
0.0
  9
$EXTMIN
 10
0.577972
 20
0.580166
 30
0.0
  9
$EXTMAX
 10
392.577972
 20
263.080166
 30
0.0
  9
$LIMMIN
 10
0.0
 20
0.0
  9
$LIMMAX
 10
12.0
 20
9.0
  9
$ORTHOMODE
 70
     1
  9
$REGENMODE
 70
     1
  9
$FILLMODE
 70
     1
  9
$QTEXTMODE
 70
     0
  9
$MIRRTEXT
 70
     1
  9
$DRAGMODE
 70
     2
  9
$LTSCALE
 40
5.0
  9
$OSMODE
 70
     0
  9
$ATTMODE
 70
     1
  9
$TEXTSIZE
 40
2.5
  9
$TRACEWID
 40
0.05
  9
$TEXTSTYLE
  7
ROMANS
  9
$CLAYER
  8
0
  9
$CELTYPE
  6
CONTINUOUS
  9
$CECOLOR
 62
   256
  9
$DIMSCALE
 40
1.0
  9
$DIMASZ
 40
0.18
  9
$DIMEXO
 40
0.0625
  9
$DIMDLI
 40
0.38
  9
$DIMRND
 40
0.0
  9
$DIMDLE
 40
0.0
  9
$DIMEXE
 40
0.18
  9
$DIMTP
 40
0.0
  9
$DIMTM
 40
0.0
  9
$DIMTXT
 40
0.18
  9
$DIMCEN
 40
0.09
  9
$DIMTSZ
 40
0.0
  9
$DIMTOL
 70
     0
  9
$DIMLIM
 70
     0
  9
$DIMTIH
 70
     1
  9
$DIMTOH
 70
     1
  9
$DIMSE1
 70
     0
  9
$DIMSE2
 70
     0
  9
$DIMTAD
 70
     0
  9
$DIMZIN
 70
     0
  9
$DIMBLK
  1

  9
$DIMASO
 70
     1
  9
$DIMSHO
 70
     1
  9
$DIMPOST
  1

  9
$DIMAPOST
  1

  9
$DIMALT
 70
     0
  9
$DIMALTD
 70
     2
  9
$DIMALTF
 40
25.4
  9
$DIMLFAC
 40
1.0
  9
$DIMTOFL
 70
     0
  9
$DIMTVP
 40
0.0
  9
$DIMTIX
 70
     0
  9
$DIMSOXD
 70
     0
  9
$DIMSAH
 70
     0
  9
$DIMBLK1
  1

  9
$DIMBLK2
  1

  9
$DIMSTYLE
  2
*UNNAMED
  9
$DIMCLRD
 70
     0
  9
$DIMCLRE
 70
     0
  9
$DIMCLRT
 70
     0
  9
$DIMTFAC
 40
1.0
  9
$DIMGAP
 40
0.09
  9
$LUNITS
 70
     2
  9
$LUPREC
 70
     4
  9
$SKETCHINC
 40
0.1
  9
$FILLETRAD
 40
0.0
  9
$AUNITS
 70
     0
  9
$AUPREC
 70
     0
  9
$MENU
  1
acad
  9
$ELEVATION
 40
0.0
  9
$PELEVATION
 40
0.0
  9
$THICKNESS
 40
0.0
  9
$LIMCHECK
 70
     0
  9
$BLIPMODE
 70
     1
  9
$CHAMFERA
 40
0.0
  9
$CHAMFERB
 40
0.0
  9
$SKPOLY
 70
     0
  9
$TDCREATE
 40
2449132.335782291
  9
$TDUPDATE
 40
2449132.481910069
  9
$TDINDWG
 40
0.0144248843
  9
$TDUSRTIMER
 40
0.0144248843
  9
$USRTIMER
 70
     1
  9
$ANGBASE
 50
0.0
  9
$ANGDIR
 70
     0
  9
$PDMODE
 70
     0
  9
$PDSIZE
 40
0.0
  9
$PLINEWID
 40
0.0
  9
$COORDS
 70
     2
  9
$SPLFRAME
 70
     0
  9
$SPLINETYPE
 70
     6
  9
$SPLINESEGS
 70
     8
  9
$ATTDIA
 70
     0
  9
$ATTREQ
 70
     1
  9
$HANDLING
 70
     0
  9
$HANDSEED
  5
0
  9
$SURFTAB1
 70
   250
  9
$SURFTAB2
 70
   250
  9
$SURFTYPE
 70
     6
  9
$SURFU
 70
     6
  9
$SURFV
 70
     6
  9
$UCSNAME
  2

  9
$UCSORG
 10
0.0
 20
0.0
 30
0.0
  9
$UCSXDIR
 10
1.0
 20
0.0
 30
0.0
  9
$UCSYDIR
 10
0.0
 20
1.0
 30
0.0
  9
$PUCSNAME
  2

  9
$PUCSORG
 10
0.0
 20
0.0
 30
0.0
  9
$PUCSXDIR
 10
1.0
 20
0.0
 30
0.0
  9
$PUCSYDIR
 10
0.0
 20
1.0
 30
0.0
  9
$USERI1
 70
     0
  9
$USERI2
 70
     0
  9
$USERI3
 70
     0
  9
$USERI4
 70
     0
  9
$USERI5
 70
     0
  9
$USERR1
 40
0.0
  9
$USERR2
 40
0.0
  9
$USERR3
 40
0.0
  9
$USERR4
 40
0.0
  9
$USERR5
 40
0.0
  9
$WORLDVIEW
 70
     1
  9
$SHADEDGE
 70
     3
  9
$SHADEDIF
 70
    70
  9
$TILEMODE
 70
     1
  9
$MAXACTVP
 70
    16
  9
$PINSBASE
 10
0.0
 20
0.0
 30
0.0
  9
$PLIMCHECK
 70
     0
  9
$PEXTMIN
 10
1.000000E+20
 20
1.000000E+20
 30
1.000000E+20
  9
$PEXTMAX
 10
-1.000000E+20
 20
-1.000000E+20
 30
-1.000000E+20
  9
$PLIMMIN
 10
0.0
 20
0.0
  9
$PLIMMAX
 10
12.0
 20
9.0
  9
$UNITMODE
 70
     0
  9
$VISRETAIN
 70
     0
  9
$PLINEGEN
 70
     0
  9
$PSLTSCALE
 70
     0
  9
$TREEDEPTH
 70
  3020
  9
$DWGCODEPAGE
  3
undefined
  0
ENDSEC
  0
SECTION
  2
TABLES
  0
TABLE
  2
VPORT
 70
     2
  0
VPORT
  2
*ACTIVE
 70
     0
 10
0.0
 20
0.0
 11
1.0
 21
1.0
 12
222.716226
 22
142.163925
 13
0.0
 23
0.0
 14
2.5
 24
2.5
 15
0.0
 25
0.0
 16
0.0
 26
0.0
 36
1.0
 17
0.0
 27
0.0
 37
0.0
 40
284.32785
 41
1.566616
 42
50.0
 43
0.0
 44
0.0
 50
0.0
 51
0.0
 71
     0
 72
   100
 73
     1
 74
     1
 75
     1
 76
     0
 77
     0
 78
     0
  0
ENDTAB
  0
TABLE
  2
LTYPE
 70
     4
  0
LTYPE
  2
CONTINUOUS
 70
    64
  3
Solid line
 72
    65
 73
     0
 40
0.0
  0
LTYPE
  2
DASHED
 70
    64
  3
__ __ __ __ __ __ __ __ __ __ __ __ __ __ __ __
 72
    65
 73
     2
 40
0.75
 49
0.5
 49
-0.25
  0
LTYPE
  2
CENTER
 70
    64
  3
____ _ ____ _ ____ _ ____ _ ____ _ ____ _ ____ 
 72
    65
 73
     4
 40
2.0
 49
1.25
 49
-0.25
 49
0.25
 49
-0.25
  0
LTYPE
  2
HIDDEN
 70
    64
  3
__ __ __ __ __ __ __ __ __ __ __ __ __ __ __ __
 72
    65
 73
     2
 40
0.375
 49
0.25
 49
-0.125
  0
ENDTAB
  0
TABLE
  2
LAYER
 70
    14
  0
LAYER
  2
0
 70
    64
 62
     7
  6
CONTINUOUS
  0
LAYER
  2
RAAMI
 70
    64
 62
    -4
  6
CONTINUOUS
  0
LAYER
  2
PAKSU
 70
    64
 62
    -3
  6
CONTINUOUS
  0
LAYER
  2
OHUT
 70
    64
 62
    -6
  6
CONTINUOUS
  0
LAYER
  2
SWEDEN
 70
    64
 62
    -7
  6
CONTINUOUS
  0
LAYER
  2
SWEDEN2
 70
    64
 62
    -5
  6
CONTINUOUS
  0
LAYER
  2
BASE
 70
    64
 62
    -7
  6
CONTINUOUS
  0
LAYER
  2
21
 70
    64
 62
    -2
  6
CONTINUOUS
  0
LAYER
  2
HEL035
 70
    64
 62
    -7
  6
CONTINUOUS
  0
LAYER
  2
MUO
 70
    64
 62
    -7
  6
CONTINUOUS
  0
LAYER
  2
1
 70
    64
 62
    -2
  6
CONTINUOUS
  0
LAYER
  2
BASE1
 70
    64
 62
    -2
  6
CONTINUOUS
  0
LAYER
  2
TEKS
 70
    64
 62
    -5
  6
CONTINUOUS
  0
LAYER
  2
DEFPOINTS
 70
    64
 62
    -7
  6
CONTINUOUS
  0
ENDTAB
  0
TABLE
  2
STYLE
 70
     4
  0
STYLE
  2
STANDARD
 70
    64
 40
0.0
 41
1.0
 50
0.0
 71
     0
 42
2.0
  3
txt
  4

  0
STYLE
  2
ROMANS
 70
    64
 40
0.0
 41
1.0
 50
0.0
 71
     0
 42
2.5
  3
romans
  4

  0
STYLE
  2
GREEKS
 70
    64
 40
0.0
 41
1.0
 50
0.0
 71
     0
 42
2.5
  3
TXT
  4

  0
STYLE
  2
STAND
 70
    64
 40
0.0
 41
1.0
 50
0.0
 71
     0
 42
2.0
  3
TXT
  4

  0
ENDTAB
  0
TABLE
  2
VIEW
 70
     0
  0
ENDTAB
  0
TABLE
  2
UCS
 70
     0
  0
ENDTAB
  0
TABLE
  2
APPID
 70
     1
  0
APPID
  2
ACAD
 70
    64
  0
ENDTAB
  0
TABLE
  2
DIMSTYLE
 70
     0
  0
ENDTAB
  0
ENDSEC
  0
SECTION
  2
BLOCKS
  0
BLOCK
  8
0
  2
1
 70
    64
 10
0.0
 20
0.0
 30
0.0
  3
1
  0
ENDBLK
  8
0
  0
BLOCK
  8
0
  2
BLC26
 70
     0
 10
0.0
 20
0.0
 30
0.0
  3
BLC26
  0
ARC
  8
0
  6
CONTINUOUS
 10
-0.180576
 20
1.17922
 30
0.0
 40
1.196859
 50
90.0
 51
265.706237
  0
LINE
  8
0
  6
CONTINUOUS
 10
-0.186638
 20
-0.01092
 30
0.0
 11
0.458942
 21
-0.01092
 31
0.0
  0
LINE
  8
0
  6
CONTINUOUS
 10
-0.186638
 20
2.375671
 30
0.0
 11
0.45288
 21
2.375671
 31
0.0
  0
LINE
  8
0
  6
CONTINUOUS
 10
-0.185509
 20
-2.404629
 30
0.0
 11
0.460071
 21
-2.404629
 31
0.0
  0
ARC
  8
0
  6
CONTINUOUS
 10
-0.180576
 20
-1.207779
 30
0.0
 40
1.196859
 50
90.0
 51
270.0
  0
LINE
  8
0
  6
CONTINUOUS
 10
0.451525
 20
-2.404586
 30
0.0
 11
1.401805
 21
-2.404586
 31
0.0
  0
LINE
  8
0
  6
CONTINUOUS
 10
0.446785
 20
2.375674
 30
0.0
 11
1.418544
 21
2.375674
 31
0.0
  0
LINE
  8
0
  6
CONTINUOUS
 10
0.456627
 20
-0.010911
 30
0.0
 11
1.422749
 21
-0.010911
 31
0.0
  0
ENDBLK
  8
0
  0
BLOCK
  8
0
  2
BLC29
 70
    64
 10
0.0
 20
0.0
 30
0.0
  3
BLC29
  0
LINE
  8
0
  6
CONTINUOUS
 10
0.004865
 20
1.206889
 30
0.0
 11
2.350631
 21
-0.128465
 31
0.0
  0
LINE
  8
0
  6
CONTINUOUS
 10
2.350631
 20
-0.128465
 30
0.0
 11
0.004865
 21
-1.318384
 31
0.0
  0
ENDBLK
  8
0
  0
BLOCK
  8
0
  2
WKU130
 70
    64
 10
190.0
 20
250.0
 30
0.0
  3
WKU130
  0
ARC
  8
21
 10
191.083333
 20
249.916667
 30
0.0
 40
1.086534
 50
32.471192
 51
175.601295
  0
ARC
  8
21
 10
192.916667
 20
251.083333
 30
0.0
 40
1.086534
 50
212.471192
 51
355.601295
  0
ENDBLK
  8
0
  0
BLOCK
  8
0
  2
BLC55
 70
    64
 10
0.0
 20
0.0
 30
0.0
  3
BLC55
  0
INSERT
  8
SWEDEN
  6
CENTER
  2
BLC5
 10
0.087066
 20
-0.756831
 30
0.0
 41
0.6
 42
0.6
 43
0.6
  0
ENDBLK
  8
0
  0
BLOCK
  8
0
  2
BLC5
 70
    64
 10
0.0
 20
0.0
 30
0.0
  3
BLC5
  0
TEXT
  8
0
 10
-3.043704
 20
-6.645912
 30
0.0
 40
3.2
  1
PE
  0
LINE
  8
0
 10
-2.946392
 20
1.181176
 30
0.0
 11
2.135458
 21
1.181176
 31
0.0
  0
LINE
  8
0
 10
-0.48656
 20
2.238362
 30
0.0
 11
-0.48656
 21
6.930438
 31
0.0
  0
LINE
  8
0
 10
-1.973271
 20
0.065258
 30
0.0
 11
1.225411
 21
0.065258
 31
0.0
  0
LINE
  8
0
 10
2.685091
 20
2.238362
 30
0.0
 11
1.68494
 21
2.238362
 31
0.0
  0
LINE
  8
0
 10
-3.505035
 20
2.238362
 30
0.0
 11
2.649049
 21
2.238362
 31
0.0
  0
CIRCLE
  8
0
 10
-0.47755
 20
1.422632
 30
0.0
 40
3.804563
  0
ENDBLK
  8
0
  0
BLOCK
  8
0
  2
BLC43
 70
    64
 10
0.0
 20
0.0
 30
0.0
  3
BLC43
  0
TEXT
  8
SWEDEN2
  6
CONTINUOUS
 10
-0.646672
 20
-0.986365
 30
0.0
 40
2.0
  1
+
  0
ENDBLK
  8
0
  0
BLOCK
  8
0
  2
BLC42
 70
    64
 10
0.0
 20
0.0
 30
0.0
  3
BLC42
  0
TEXT
  8
SWEDEN2
  6
CONTINUOUS
 10
-0.655237
 20
-0.99442
 30
0.0
 40
2.0
  1
-
  0
ENDBLK
  8
0
  0
BLOCK
  8
0
  2
BLC44
 70
    64
 10
0.0
 20
0.0
 30
0.0
  3
BLC44
  0
LINE
  8
HEL035
 10
-2.520993
 20
1.697877
 30
0.0
 11
1.479007
 21
1.697877
 31
0.0
  0
INSERT
  8
HEL035
  2
WKU130
 10
-2.181043
 20
-0.027675
 30
0.0
 41
0.8
 42
0.8
 43
0.8
  0
ENDBLK
  8
0
  0
BLOCK
  8
0
  2
B60
 70
    64
 10
0.0
 20
0.0
 30
0.0
  3
B60
  0
LINE
  8
BASE
  6
CONTINUOUS
 10
-1.897097
 20
1.443746
 30
0.0
 11
-2.963522
 21
2.510171
 31
0.0
  0
LINE
  8
BASE
  6
CONTINUOUS
 10
-0.830672
 20
2.510171
 30
0.0
 11
-1.897097
 21
1.443746
 31
0.0
  0
LINE
  8
BASE
  6
CONTINUOUS
 10
-1.897097
 20
3.576595
 30
0.0
 11
-0.830672
 21
2.510171
 31
0.0
  0
LINE
  8
BASE
  6
CONTINUOUS
 10
-2.963522
 20
2.510171
 30
0.0
 11
-1.897097
 21
3.576595
 31
0.0
  0
ENDBLK
  8
0
  0
BLOCK
  8
0
  2
B155
 70
    64
 10
0.0
 20
0.0
 30
0.0
  3
B155
  0
LINE
  8
0
  6
CONTINUOUS
 10
0.0
 20
0.0
 30
0.0
 11
0.0
 21
-1.35427
 31
0.0
  0
LINE
  8
0
  6
CONTINUOUS
 10
-1.210228
 20
-1.35427
 30
0.0
 11
-0.015887
 21
-1.35427
 31
0.0
  0
LINE
  8
0
  6
CONTINUOUS
 10
-0.015887
 20
-1.35427
 30
0.0
 11
1.178454
 21
-1.35427
 31
0.0
  0
LINE
  8
0
  6
CONTINUOUS
 10
-0.831823
 20
-1.833881
 30
0.0
 11
0.752749
 21
-1.833881
 31
0.0
  0
LINE
  8
0
  6
CONTINUOUS
 10
-0.500718
 20
-2.322055
 30
0.0
 11
0.386169
 21
-2.322055
 31
0.0
  0
ENDBLK
  8
0
  0
BLOCK
  8
0
  2
B207
 70
    64
 10
0.0
 20
0.0
 30
0.0
  3
B207
  0
CIRCLE
  8
BASE
  6
CONTINUOUS
 10
0.0
 20
0.0
 30
0.0
 40
0.617044
  0
CIRCLE
  8
BASE
  6
CONTINUOUS
 10
0.0
 20
0.0
 30
0.0
 40
1.252595
  0
ENDBLK
  8
0
  0
BLOCK
  8
0
  2
ABBA3SX
 70
    64
 10
0.0
 20
0.0
 30
0.0
  3
ABBA3SX
  0
TEXT
  8
RAAMI
  6
DASHED
 10
354.190282
 20
15.793111
 30
0.0
 40
1.4
  1
LEHTI SHEET
  7
STAND
  0
LINE
  8
PAKSU
 10
0.236802
 20
0.237701
 30
0.0
 11
0.236802
 21
262.737701
 31
0.0
  0
LINE
  8
PAKSU
 10
392.236802
 20
262.737701
 30
0.0
 11
392.236802
 21
0.237701
 31
0.0
  0
LINE
  8
PAKSU
 10
0.236802
 20
0.237701
 30
0.0
 11
392.236802
 21
0.237701
 31
0.0
  0
TEXT
  8
RAAMI
 10
42.236802
 20
5.587211
 30
0.0
 40
2.5
  1
C
  7
ROMANS
  0
TEXT
  8
RAAMI
 10
42.236802
 20
1.194994
 30
0.0
 40
2.5
  1
B
  7
ROMANS
  0
TEXT
  8
RAAMI
 10
257.406709
 20
1.741485
 30
0.0
 40
3.0
  1
Power
 41
0.8
  7
ROMANS
  0
TEXT
  8
RAAMI
 10
273.236802
 20
7.237701
 30
0.0
 40
1.4
  1
VAST.OSASTO RESP.DEPT.
  7
ROMANS
  0
TEXT
  8
RAAMI
 10
210.236802
 20
32.237701
 30
0.0
 40
1.4
  1
TEKI  PREPARED
  7
ROMANS
  0
LINE
  8
OHUT
 10
271.236802
 20
9.737701
 30
0.0
 11
271.236802
 21
0.237701
 31
0.0
  0
LINE
  8
OHUT
 10
257.236802
 20
9.737701
 30
0.0
 11
257.236802
 21
35.237701
 31
0.0
  0
LINE
  8
OHUT
 10
40.736802
 20
4.737701
 30
0.0
 11
209.236802
 21
4.737701
 31
0.0
  0
LINE
  8
OHUT
 10
46.736802
 20
0.237701
 30
0.0
 11
46.736802
 21
9.237701
 31
0.0
  0
LINE
  8
OHUT
 10
46.736802
 20
9.237701
 30
0.0
 11
209.236802
 21
9.237701
 31
0.0
  0
TEXT
  8
RAAMI
 10
27.736802
 20
2.471035
 30
0.0
 40
1.4
  1
REVISION
  7
ROMANS
  0
TEXT
  8
RAAMI
 10
27.736802
 20
4.737701
 30
0.0
 40
1.4
  1
MUUTOS
  7
ROMANS
  0
LINE
  8
OHUT
 10
282.236802
 20
9.737701
 30
0.0
 11
282.236802
 21
18.237701
 31
0.0
  0
TEXT
  8
RAAMI
 10
237.736802
 20
1.737701
 30
0.0
 40
3.0
  1
Strömberg
 41
0.8
  7
ROMANS
  0
TEXT
  8
RAAMI
 10
229.736802
 20
1.737701
 30
0.0
 40
3.0
  1
ABB 
 41
0.8
  7
ROMANS
  0
LINE
  8
RAAMI
 10
223.136802
 20
1.737701
 30
0.0
 11
223.136802
 21
5.097701
 31
0.0
  0
LINE
  8
RAAMI
 10
223.136802
 20
8.737701
 30
0.0
 11
225.096802
 21
8.737701
 31
0.0
  0
LINE
  8
RAAMI
 10
225.096802
 20
8.737701
 30
0.0
 11
225.096802
 21
5.377701
 31
0.0
  0
LINE
  8
RAAMI
 10
225.096802
 20
5.377701
 30
0.0
 11
223.136802
 21
5.377701
 31
0.0
  0
LINE
  8
RAAMI
 10
223.136802
 20
5.097701
 30
0.0
 11
225.096802
 21
5.097701
 31
0.0
  0
LINE
  8
RAAMI
 10
225.096802
 20
5.097701
 30
0.0
 11
225.096802
 21
1.737701
 31
0.0
  0
LINE
  8
RAAMI
 10
225.096802
 20
1.737701
 30
0.0
 11
223.136802
 21
1.737701
 31
0.0
  0
LINE
  8
RAAMI
 10
223.136802
 20
5.377701
 30
0.0
 11
223.136802
 21
8.737701
 31
0.0
  0
ARC
  8
RAAMI
 10
225.936802
 20
7.162701
 30
0.0
 40
1.575
 50
298.455859
 51
90.052437
  0
LINE
  8
RAAMI
 10
225.376802
 20
8.737701
 30
0.0
 11
225.935361
 21
8.737701
 31
0.0
  0
LINE
  8
RAAMI
 10
225.376802
 20
8.737701
 30
0.0
 11
225.376802
 21
5.377701
 31
0.0
  0
LINE
  8
RAAMI
 10
225.376802
 20
5.377701
 30
0.0
 11
227.361245
 21
5.377701
 31
0.0
  0
LINE
  8
RAAMI
 10
227.616802
 20
5.097701
 30
0.0
 11
225.376802
 21
5.097701
 31
0.0
  0
LINE
  8
RAAMI
 10
225.376802
 20
5.097701
 30
0.0
 11
225.376802
 21
1.737701
 31
0.0
  0
ARC
  8
RAAMI
 10
225.936802
 20
3.837701
 30
0.0
 40
2.1
 50
269.937724
 51
37.056553
  0
LINE
  8
RAAMI
 10
225.376802
 20
1.737701
 30
0.0
 11
225.93452
 21
1.737703
 31
0.0
  0
ARC
  8
RAAMI
 10
225.936802
 20
3.837701
 30
0.0
 40
2.1
 50
47.28622
 51
68.787999
  0
INSERT
  8
RAAMI
  2
*X17
 10
215.646802
 20
1.737701
 30
0.0
 41
0.7
 42
0.7
 43
0.7
  0
INSERT
  8
RAAMI
  2
*X18
 10
215.646802
 20
1.737701
 30
0.0
 41
0.7
 42
0.7
 43
0.7
  0
INSERT
  8
RAAMI
  2
*X19
 10
215.646802
 20
1.737701
 30
0.0
 41
0.7
 42
0.7
 43
0.7
  0
INSERT
  8
RAAMI
  2
*X20
 10
215.646802
 20
1.737701
 30
0.0
 41
0.7
 42
0.7
 43
0.7
  0
INSERT
  8
RAAMI
  2
*X20
 10
210.186802
 20
1.737701
 30
0.0
 41
0.7
 42
0.7
 43
0.7
  0
INSERT
  8
RAAMI
  2
*X19
 10
210.186802
 20
1.737701
 30
0.0
 41
0.7
 42
0.7
 43
0.7
  0
INSERT
  8
RAAMI
  2
*X18
 10
210.186802
 20
1.737701
 30
0.0
 41
0.7
 42
0.7
 43
0.7
  0
INSERT
  8
RAAMI
  2
*X17
 10
210.186802
 20
1.737701
 30
0.0
 41
0.7
 42
0.7
 43
0.7
  0
ARC
  8
RAAMI
 10
220.476802
 20
3.837701
 30
0.0
 40
2.1
 50
47.28622
 51
68.787999
  0
LINE
  8
RAAMI
 10
219.916802
 20
1.737701
 30
0.0
 11
220.47452
 21
1.737703
 31
0.0
  0
ARC
  8
RAAMI
 10
220.476802
 20
3.837701
 30
0.0
 40
2.1
 50
269.937724
 51
37.056553
  0
LINE
  8
RAAMI
 10
219.916802
 20
5.097701
 30
0.0
 11
219.916802
 21
1.737701
 31
0.0
  0
LINE
  8
RAAMI
 10
222.156802
 20
5.097701
 30
0.0
 11
219.916802
 21
5.097701
 31
0.0
  0
LINE
  8
RAAMI
 10
219.916802
 20
5.377701
 30
0.0
 11
221.901245
 21
5.377701
 31
0.0
  0
LINE
  8
RAAMI
 10
219.916802
 20
8.737701
 30
0.0
 11
219.916802
 21
5.377701
 31
0.0
  0
LINE
  8
RAAMI
 10
219.916802
 20
8.737701
 30
0.0
 11
220.475361
 21
8.737701
 31
0.0
  0
ARC
  8
RAAMI
 10
220.476802
 20
7.162701
 30
0.0
 40
1.575
 50
298.455859
 51
90.052437
  0
LINE
  8
RAAMI
 10
217.676802
 20
5.377701
 30
0.0
 11
217.676802
 21
8.737701
 31
0.0
  0
LINE
  8
RAAMI
 10
219.636802
 20
1.737701
 30
0.0
 11
217.676802
 21
1.737701
 31
0.0
  0
LINE
  8
RAAMI
 10
219.636802
 20
5.097701
 30
0.0
 11
219.636802
 21
1.737701
 31
0.0
  0
LINE
  8
RAAMI
 10
217.676802
 20
5.097701
 30
0.0
 11
219.636802
 21
5.097701
 31
0.0
  0
LINE
  8
RAAMI
 10
219.636802
 20
5.377701
 30
0.0
 11
217.676802
 21
5.377701
 31
0.0
  0
LINE
  8
RAAMI
 10
219.636802
 20
8.737701
 30
0.0
 11
219.636802
 21
5.377701
 31
0.0
  0
LINE
  8
RAAMI
 10
217.676802
 20
8.737701
 30
0.0
 11
219.636802
 21
8.737701
 31
0.0
  0
LINE
  8
RAAMI
 10
217.676802
 20
1.737701
 30
0.0
 11
217.676802
 21
5.097701
 31
0.0
  0
INSERT
  8
RAAMI
  2
*X16
 10
210.186802
 20
1.737701
 30
0.0
 41
0.7
 42
0.7
 43
0.7
  0
INSERT
  8
RAAMI
  2
*X15
 10
210.186802
 20
1.737701
 30
0.0
 41
0.7
 42
0.7
 43
0.7
  0
INSERT
  8
RAAMI
  2
*X14
 10
210.186802
 20
1.737701
 30
0.0
 41
0.7
 42
0.7
 43
0.7
  0
INSERT
  8
RAAMI
  2
*X13
 10
210.186802
 20
1.737701
 30
0.0
 41
0.7
 42
0.7
 43
0.7
  0
LINE
  8
RAAMI
 10
211.356691
 20
5.08024
 30
0.0
 11
210.186802
 21
1.737701
 31
0.0
  0
LINE
  8
RAAMI
 10
213.546802
 20
5.097701
 30
0.0
 11
213.546802
 21
3.137701
 31
0.0
  0
LINE
  8
RAAMI
 10
213.826802
 20
5.097701
 30
0.0
 11
213.826802
 21
3.137701
 31
0.0
  0
LINE
  8
RAAMI
 10
213.826802
 20
5.097701
 30
0.0
 11
216.010059
 21
5.097701
 31
0.0
  0
LINE
  8
RAAMI
 10
213.826802
 20
5.377701
 30
0.0
 11
215.911916
 21
5.377701
 31
0.0
  0
LINE
  8
RAAMI
 10
216.011294
 20
5.096296
 30
0.0
 11
217.186802
 21
1.737701
 31
0.0
  0
LINE
  8
RAAMI
 10
211.359785
 20
5.097701
 30
0.0
 11
213.546802
 21
5.097701
 31
0.0
  0
LINE
  8
RAAMI
 10
211.458743
 20
5.377701
 30
0.0
 11
213.546802
 21
5.377701
 31
0.0
  0
LINE
  8
RAAMI
 10
213.546802
 20
8.737701
 30
0.0
 11
212.636802
 21
8.737701
 31
0.0
  0
LINE
  8
RAAMI
 10
213.826802
 20
3.137701
 30
0.0
 11
214.946696
 21
3.137701
 31
0.0
  0
LINE
  8
RAAMI
 10
213.826802
 20
8.737701
 30
0.0
 11
213.826802
 21
5.377701
 31
0.0
  0
LINE
  8
RAAMI
 10
213.546802
 20
8.737701
 30
0.0
 11
213.546802
 21
5.377701
 31
0.0
  0
LINE
  8
RAAMI
 10
214.736802
 20
8.737701
 30
0.0
 11
213.826802
 21
8.737701
 31
0.0
  0
LINE
  8
RAAMI
 10
214.9479
 20
3.134565
 30
0.0
 11
215.436802
 21
1.737701
 31
0.0
  0
LINE
  8
RAAMI
 10
214.736802
 20
8.737701
 30
0.0
 11
215.913155
 21
5.376693
 31
0.0
  0
LINE
  8
RAAMI
 10
212.425592
 20
3.134244
 30
0.0
 11
211.936802
 21
1.737701
 31
0.0
  0
LINE
  8
RAAMI
 10
212.425589
 20
3.137701
 30
0.0
 11
213.546802
 21
3.137701
 31
0.0
  0
LINE
  8
RAAMI
 10
212.636802
 20
8.737701
 30
0.0
 11
211.459274
 21
5.373336
 31
0.0
  0
LINE
  8
RAAMI
 10
215.436802
 20
1.737701
 30
0.0
 11
217.186802
 21
1.737701
 31
0.0
  0
LINE
  8
RAAMI
 10
210.186802
 20
1.737701
 30
0.0
 11
211.936802
 21
1.737701
 31
0.0
  0
LINE
  8
OHUT
 10
369.736802
 20
9.737701
 30
0.0
 11
369.736802
 21
0.237701
 31
0.0
  0
TEXT
  8
RAAMI
 10
371.236802
 20
7.237701
 30
0.0
 40
1.4
  1
PAINOS  REVISION
  7
ROMANS
  0
LINE
  8
OHUT
 10
349.736802
 20
9.737701
 30
0.0
 11
349.736802
 21
18.237701
 31
0.0
  0
TEXT
  8
RAAMI
 10
309.236802
 20
7.237701
 30
0.0
 40
1.4
  1
PIIRUSTUS NO  DRAWING NR
  7
ROMANS
  0
TEXT
  8
RAAMI
 10
309.236802
 20
15.737701
 30
0.0
 40
1.4
  1
KOODI  CODE
  7
ROMANS
  0
TEXT
  8
RAAMI
 10
309.236802
 20
32.737701
 30
0.0
 40
1.4
  1
NIMITYS  NAME
  7
ROMANS
  0
TEXT
  8
RAAMI
 10
259.236802
 20
15.737701
 30
0.0
 40
1.4
  1
SUHDE  SCALE
  7
ROMANS
  0
TEXT
  8
RAAMI
 10
259.236802
 20
23.737701
 30
0.0
 40
1.4
  1
TOLERANSSIT  TOLERANCES
  7
ROMANS
  0
TEXT
  8
RAAMI
 10
259.236802
 20
32.737701
 30
0.0
 40
1.4
  1
LIITTYY  CONCERNING
  7
ROMANS
  0
LINE
  8
OHUT
 10
307.236802
 20
0.237701
 30
0.0
 11
307.236802
 21
35.237701
 31
0.0
  0
TEXT
  8
RAAMI
 10
209.979637
 20
15.704368
 30
0.0
 40
1.4
  1
HYVÄKSYI  APPROVED
  7
ROMANS
  0
TEXT
  8
RAAMI
 10
210.236802
 20
23.971035
 30
0.0
 40
1.4
  1
TARKASTI  CHECKED
  7
ROMANS
  0
LINE
  8
PAKSU
 10
209.236802
 20
35.237701
 30
0.0
 11
392.236802
 21
35.237701
 31
0.0
  0
LINE
  8
OHUT
 10
209.236802
 20
26.737701
 30
0.0
 11
307.236802
 21
26.737701
 31
0.0
  0
LINE
  8
OHUT
 10
209.236802
 20
9.737701
 30
0.0
 11
392.236802
 21
9.737701
 31
0.0
  0
LINE
  8
OHUT
 10
209.236802
 20
18.237701
 30
0.0
 11
392.236802
 21
18.237701
 31
0.0
  0
LINE
  8
PAKSU
 10
392.236802
 20
0.237701
 30
0.0
 11
392.236802
 21
35.237701
 31
0.0
  0
LINE
  8
PAKSU
 10
209.236802
 20
0.237701
 30
0.0
 11
209.236802
 21
35.237701
 31
0.0
  0
LINE
  8
PAKSU
 10
209.236802
 20
0.237701
 30
0.0
 11
392.236802
 21
0.237701
 31
0.0
  0
LINE
  8
RAAMI
 10
18.236802
 20
0.237701
 30
0.0
 11
0.236802
 21
0.237701
 31
0.0
  0
LINE
  8
PAKSU
 10
0.236802
 20
262.737701
 30
0.0
 11
392.236802
 21
262.737701
 31
0.0
  0
TEXT
  8
RAAMI
  6
DASHED
 10
292.216898
 20
11.813061
 30
0.0
 40
3.0
  1
A3
  7
GREEKS
  0
ENDBLK
  8
0
  0
BLOCK
  8
0
  2
*X13
 70
    65
 10
0.0
 20
0.0
 30
0.0
  3
*X
  0
LINE
  8
0
 62
     0
 10
2.284499
 20
6.52714
 30
0.0
 11
4.8
 21
9.042641
 31
0.0
  0
LINE
  8
0
 62
     0
 10
2.379686
 20
6.799104
 30
0.0
 11
4.8
 21
9.219417
 31
0.0
  0
LINE
  8
0
 62
     0
 10
2.474874
 20
7.071068
 30
0.0
 11
4.8
 21
9.396194
 31
0.0
  0
LINE
  8
0
 62
     0
 10
2.570061
 20
7.343032
 30
0.0
 11
4.8
 21
9.572971
 31
0.0
  0
LINE
  8
0
 62
     0
 10
2.665249
 20
7.614996
 30
0.0
 11
4.8
 21
9.749747
 31
0.0
  0
LINE
  8
0
 62
     0
 10
2.760436
 20
7.88696
 30
0.0
 11
4.8
 21
9.926524
 31
0.0
  0
LINE
  8
0
 62
     0
 10
2.855624
 20
8.158924
 30
0.0
 11
4.696699
 21
10.0
 31
0.0
  0
LINE
  8
0
 62
     0
 10
2.950811
 20
8.430889
 30
0.0
 11
4.519922
 21
10.0
 31
0.0
  0
LINE
  8
0
 62
     0
 10
3.045998
 20
8.702853
 30
0.0
 11
4.343146
 21
10.0
 31
0.0
  0
LINE
  8
0
 62
     0
 10
3.141186
 20
8.974817
 30
0.0
 11
4.166369
 21
10.0
 31
0.0
  0
LINE
  8
0
 62
     0
 10
3.236373
 20
9.246781
 30
0.0
 11
3.989592
 21
10.0
 31
0.0
  0
LINE
  8
0
 62
     0
 10
3.331561
 20
9.518745
 30
0.0
 11
3.812816
 21
10.0
 31
0.0
  0
LINE
  8
0
 62
     0
 10
3.426748
 20
9.790709
 30
0.0
 11
3.636039
 21
10.0
 31
0.0
  0
LINE
  8
0
 62
     0
 10
2.189311
 20
6.255175
 30
0.0
 11
4.8
 21
8.865864
 31
0.0
  0
LINE
  8
0
 62
     0
 10
2.094124
 20
5.983211
 30
0.0
 11
4.8
 21
8.689087
 31
0.0
  0
LINE
  8
0
 62
     0
 10
1.998936
 20
5.711247
 30
0.0
 11
4.8
 21
8.512311
 31
0.0
  0
LINE
  8
0
 62
     0
 10
1.903749
 20
5.439283
 30
0.0
 11
4.8
 21
8.335534
 31
0.0
  0
LINE
  8
0
 62
     0
 10
1.841243
 20
5.2
 30
0.0
 11
4.8
 21
8.158757
 31
0.0
  0
LINE
  8
0
 62
     0
 10
2.018019
 20
5.2
 30
0.0
 11
4.8
 21
7.981981
 31
0.0
  0
LINE
  8
0
 62
     0
 10
2.194796
 20
5.2
 30
0.0
 11
4.8
 21
7.805204
 31
0.0
  0
LINE
  8
0
 62
     0
 10
2.371573
 20
5.2
 30
0.0
 11
4.8
 21
7.628427
 31
0.0
  0
LINE
  8
0
 62
     0
 10
2.54835
 20
5.2
 30
0.0
 11
4.8
 21
7.45165
 31
0.0
  0
LINE
  8
0
 62
     0
 10
2.725126
 20
5.2
 30
0.0
 11
4.8
 21
7.274874
 31
0.0
  0
LINE
  8
0
 62
     0
 10
2.901903
 20
5.2
 30
0.0
 11
4.8
 21
7.098097
 31
0.0
  0
LINE
  8
0
 62
     0
 10
3.07868
 20
5.2
 30
0.0
 11
4.8
 21
6.92132
 31
0.0
  0
LINE
  8
0
 62
     0
 10
3.255456
 20
5.2
 30
0.0
 11
4.8
 21
6.744544
 31
0.0
  0
LINE
  8
0
 62
     0
 10
3.432233
 20
5.2
 30
0.0
 11
4.8
 21
6.567767
 31
0.0
  0
LINE
  8
0
 62
     0
 10
3.60901
 20
5.2
 30
0.0
 11
4.8
 21
6.39099
 31
0.0
  0
LINE
  8
0
 62
     0
 10
3.785786
 20
5.2
 30
0.0
 11
4.8
 21
6.214214
 31
0.0
  0
LINE
  8
0
 62
     0
 10
3.962563
 20
5.2
 30
0.0
 11
4.8
 21
6.037437
 31
0.0
  0
LINE
  8
0
 62
     0
 10
4.13934
 20
5.2
 30
0.0
 11
4.8
 21
5.86066
 31
0.0
  0
LINE
  8
0
 62
     0
 10
4.316117
 20
5.2
 30
0.0
 11
4.8
 21
5.683883
 31
0.0
  0
LINE
  8
0
 62
     0
 10
4.492893
 20
5.2
 30
0.0
 11
4.8
 21
5.507107
 31
0.0
  0
LINE
  8
0
 62
     0
 10
4.66967
 20
5.2
 30
0.0
 11
4.8
 21
5.33033
 31
0.0
  0
ENDBLK
  8
0
  0
BLOCK
  8
0
  2
*X14
 70
    65
 10
0.0
 20
0.0
 30
0.0
  3
*X
  0
LINE
  8
0
 62
     0
 10
5.2
 20
6.083883
 30
0.0
 11
7.178252
 21
8.062136
 31
0.0
  0
LINE
  8
0
 62
     0
 10
5.2
 20
6.26066
 30
0.0
 11
7.132421
 21
8.193082
 31
0.0
  0
LINE
  8
0
 62
     0
 10
5.2
 20
6.437437
 30
0.0
 11
7.08659
 21
8.324027
 31
0.0
  0
LINE
  8
0
 62
     0
 10
5.2
 20
6.614214
 30
0.0
 11
7.040759
 21
8.454973
 31
0.0
  0
LINE
  8
0
 62
     0
 10
5.2
 20
6.79099
 30
0.0
 11
6.994928
 21
8.585919
 31
0.0
  0
LINE
  8
0
 62
     0
 10
5.2
 20
6.967767
 30
0.0
 11
6.949097
 21
8.716864
 31
0.0
  0
LINE
  8
0
 62
     0
 10
5.2
 20
7.144544
 30
0.0
 11
6.903266
 21
8.84781
 31
0.0
  0
LINE
  8
0
 62
     0
 10
5.2
 20
7.32132
 30
0.0
 11
6.857435
 21
8.978756
 31
0.0
  0
LINE
  8
0
 62
     0
 10
5.2
 20
7.498097
 30
0.0
 11
6.811604
 21
9.109702
 31
0.0
  0
LINE
  8
0
 62
     0
 10
5.2
 20
7.674874
 30
0.0
 11
6.765773
 21
9.240647
 31
0.0
  0
LINE
  8
0
 62
     0
 10
5.2
 20
7.85165
 30
0.0
 11
6.719942
 21
9.371593
 31
0.0
  0
LINE
  8
0
 62
     0
 10
5.2
 20
8.028427
 30
0.0
 11
6.674111
 21
9.502539
 31
0.0
  0
LINE
  8
0
 62
     0
 10
5.2
 20
8.205204
 30
0.0
 11
6.62828
 21
9.633484
 31
0.0
  0
LINE
  8
0
 62
     0
 10
5.2
 20
8.381981
 30
0.0
 11
6.582449
 21
9.76443
 31
0.0
  0
LINE
  8
0
 62
     0
 10
5.2
 20
8.558757
 30
0.0
 11
6.536619
 21
9.895376
 31
0.0
  0
LINE
  8
0
 62
     0
 10
5.2
 20
8.735534
 30
0.0
 11
6.464466
 21
10.0
 31
0.0
  0
LINE
  8
0
 62
     0
 10
5.2
 20
8.912311
 30
0.0
 11
6.287689
 21
10.0
 31
0.0
  0
LINE
  8
0
 62
     0
 10
5.2
 20
9.089087
 30
0.0
 11
6.110913
 21
10.0
 31
0.0
  0
LINE
  8
0
 62
     0
 10
5.2
 20
9.265864
 30
0.0
 11
5.934136
 21
10.0
 31
0.0
  0
LINE
  8
0
 62
     0
 10
5.2
 20
9.442641
 30
0.0
 11
5.757359
 21
10.0
 31
0.0
  0
LINE
  8
0
 62
     0
 10
5.2
 20
9.619417
 30
0.0
 11
5.580583
 21
10.0
 31
0.0
  0
LINE
  8
0
 62
     0
 10
5.2
 20
9.796194
 30
0.0
 11
5.403806
 21
10.0
 31
0.0
  0
LINE
  8
0
 62
     0
 10
5.2
 20
9.972971
 30
0.0
 11
5.227029
 21
10.0
 31
0.0
  0
LINE
  8
0
 62
     0
 10
5.2
 20
5.907107
 30
0.0
 11
7.224083
 21
7.93119
 31
0.0
  0
LINE
  8
0
 62
     0
 10
5.2
 20
5.73033
 30
0.0
 11
7.269914
 21
7.800245
 31
0.0
  0
LINE
  8
0
 62
     0
 10
5.2
 20
5.553553
 30
0.0
 11
7.315745
 21
7.669299
 31
0.0
  0
LINE
  8
0
 62
     0
 10
5.2
 20
5.376777
 30
0.0
 11
7.361576
 21
7.538353
 31
0.0
  0
LINE
  8
0
 62
     0
 10
5.2
 20
5.2
 30
0.0
 11
7.407407
 21
7.407407
 31
0.0
  0
LINE
  8
0
 62
     0
 10
5.376777
 20
5.2
 30
0.0
 11
7.453238
 21
7.276462
 31
0.0
  0
LINE
  8
0
 62
     0
 10
5.553553
 20
5.2
 30
0.0
 11
7.499069
 21
7.145516
 31
0.0
  0
LINE
  8
0
 62
     0
 10
5.73033
 20
5.2
 30
0.0
 11
7.5449
 21
7.01457
 31
0.0
  0
LINE
  8
0
 62
     0
 10
5.907107
 20
5.2
 30
0.0
 11
7.590731
 21
6.883625
 31
0.0
  0
LINE
  8
0
 62
     0
 10
6.083883
 20
5.2
 30
0.0
 11
7.636562
 21
6.752679
 31
0.0
  0
LINE
  8
0
 62
     0
 10
6.26066
 20
5.2
 30
0.0
 11
7.682393
 21
6.621733
 31
0.0
  0
LINE
  8
0
 62
     0
 10
6.437437
 20
5.2
 30
0.0
 11
7.728224
 21
6.490788
 31
0.0
  0
LINE
  8
0
 62
     0
 10
6.614214
 20
5.2
 30
0.0
 11
7.774055
 21
6.359842
 31
0.0
  0
LINE
  8
0
 62
     0
 10
6.79099
 20
5.2
 30
0.0
 11
7.819886
 21
6.228896
 31
0.0
  0
LINE
  8
0
 62
     0
 10
6.967767
 20
5.2
 30
0.0
 11
7.865717
 21
6.09795
 31
0.0
  0
LINE
  8
0
 62
     0
 10
7.144544
 20
5.2
 30
0.0
 11
7.911548
 21
5.967005
 31
0.0
  0
LINE
  8
0
 62
     0
 10
7.32132
 20
5.2
 30
0.0
 11
7.957379
 21
5.836059
 31
0.0
  0
LINE
  8
0
 62
     0
 10
7.498097
 20
5.2
 30
0.0
 11
8.00321
 21
5.705113
 31
0.0
  0
LINE
  8
0
 62
     0
 10
7.674874
 20
5.2
 30
0.0
 11
8.049041
 21
5.574168
 31
0.0
  0
LINE
  8
0
 62
     0
 10
7.85165
 20
5.2
 30
0.0
 11
8.094872
 21
5.443222
 31
0.0
  0
LINE
  8
0
 62
     0
 10
8.028427
 20
5.2
 30
0.0
 11
8.140703
 21
5.312276
 31
0.0
  0
ENDBLK
  8
0
  0
BLOCK
  8
0
  2
*X15
 70
    65
 10
0.0
 20
0.0
 30
0.0
  3
*X
  0
LINE
  8
0
 62
     0
 10
0.0
 20
0.0
 30
0.0
 11
4.8
 21
4.8
 31
0.0
  0
LINE
  8
0
 62
     0
 10
0.095187
 20
0.271964
 30
0.0
 11
4.623223
 21
4.8
 31
0.0
  0
LINE
  8
0
 62
     0
 10
0.190375
 20
0.543928
 30
0.0
 11
4.446447
 21
4.8
 31
0.0
  0
LINE
  8
0
 62
     0
 10
0.285562
 20
0.815892
 30
0.0
 11
4.26967
 21
4.8
 31
0.0
  0
LINE
  8
0
 62
     0
 10
0.38075
 20
1.087857
 30
0.0
 11
4.092893
 21
4.8
 31
0.0
  0
LINE
  8
0
 62
     0
 10
0.475937
 20
1.359821
 30
0.0
 11
3.916117
 21
4.8
 31
0.0
  0
LINE
  8
0
 62
     0
 10
0.571125
 20
1.631785
 30
0.0
 11
3.73934
 21
4.8
 31
0.0
  0
LINE
  8
0
 62
     0
 10
0.666312
 20
1.903749
 30
0.0
 11
3.562563
 21
4.8
 31
0.0
  0
LINE
  8
0
 62
     0
 10
0.7615
 20
2.175713
 30
0.0
 11
3.385786
 21
4.8
 31
0.0
  0
LINE
  8
0
 62
     0
 10
0.856687
 20
2.447677
 30
0.0
 11
3.20901
 21
4.8
 31
0.0
  0
LINE
  8
0
 62
     0
 10
0.951875
 20
2.719641
 30
0.0
 11
3.032233
 21
4.8
 31
0.0
  0
LINE
  8
0
 62
     0
 10
1.047062
 20
2.991606
 30
0.0
 11
2.855456
 21
4.8
 31
0.0
  0
LINE
  8
0
 62
     0
 10
1.142249
 20
3.26357
 30
0.0
 11
2.67868
 21
4.8
 31
0.0
  0
LINE
  8
0
 62
     0
 10
1.237437
 20
3.535534
 30
0.0
 11
2.501903
 21
4.8
 31
0.0
  0
LINE
  8
0
 62
     0
 10
1.332624
 20
3.807498
 30
0.0
 11
2.325126
 21
4.8
 31
0.0
  0
LINE
  8
0
 62
     0
 10
1.427812
 20
4.079462
 30
0.0
 11
2.14835
 21
4.8
 31
0.0
  0
LINE
  8
0
 62
     0
 10
1.522999
 20
4.351426
 30
0.0
 11
1.971573
 21
4.8
 31
0.0
  0
LINE
  8
0
 62
     0
 10
1.618187
 20
4.62339
 30
0.0
 11
1.794796
 21
4.8
 31
0.0
  0
LINE
  8
0
 62
     0
 10
0.176777
 20
0.0
 30
0.0
 11
4.8
 21
4.623223
 31
0.0
  0
LINE
  8
0
 62
     0
 10
0.353553
 20
0.0
 30
0.0
 11
4.8
 21
4.446447
 31
0.0
  0
LINE
  8
0
 62
     0
 10
0.53033
 20
0.0
 30
0.0
 11
4.8
 21
4.26967
 31
0.0
  0
LINE
  8
0
 62
     0
 10
0.707107
 20
0.0
 30
0.0
 11
4.8
 21
4.092893
 31
0.0
  0
LINE
  8
0
 62
     0
 10
0.883883
 20
0.0
 30
0.0
 11
4.8
 21
3.916117
 31
0.0
  0
LINE
  8
0
 62
     0
 10
1.06066
 20
0.0
 30
0.0
 11
4.8
 21
3.73934
 31
0.0
  0
LINE
  8
0
 62
     0
 10
1.237437
 20
0.0
 30
0.0
 11
3.179842
 21
1.942405
 31
0.0
  0
LINE
  8
0
 62
     0
 10
3.237437
 20
2.0
 30
0.0
 11
4.8
 21
3.562563
 31
0.0
  0
LINE
  8
0
 62
     0
 10
1.414214
 20
0.0
 30
0.0
 11
3.084654
 21
1.670441
 31
0.0
  0
LINE
  8
0
 62
     0
 10
3.414214
 20
2.0
 30
0.0
 11
4.8
 21
3.385786
 31
0.0
  0
LINE
  8
0
 62
     0
 10
1.59099
 20
0.0
 30
0.0
 11
2.989467
 21
1.398477
 31
0.0
  0
LINE
  8
0
 62
     0
 10
3.59099
 20
2.0
 30
0.0
 11
4.8
 21
3.20901
 31
0.0
  0
LINE
  8
0
 62
     0
 10
1.767767
 20
0.0
 30
0.0
 11
2.894279
 21
1.126512
 31
0.0
  0
LINE
  8
0
 62
     0
 10
3.767767
 20
2.0
 30
0.0
 11
4.8
 21
3.032233
 31
0.0
  0
LINE
  8
0
 62
     0
 10
1.944544
 20
0.0
 30
0.0
 11
2.799092
 21
0.854548
 31
0.0
  0
LINE
  8
0
 62
     0
 10
3.944544
 20
2.0
 30
0.0
 11
4.8
 21
2.855456
 31
0.0
  0
LINE
  8
0
 62
     0
 10
2.12132
 20
0.0
 30
0.0
 11
2.703904
 21
0.582584
 31
0.0
  0
LINE
  8
0
 62
     0
 10
4.12132
 20
2.0
 30
0.0
 11
4.8
 21
2.67868
 31
0.0
  0
LINE
  8
0
 62
     0
 10
2.298097
 20
0.0
 30
0.0
 11
2.608717
 21
0.31062
 31
0.0
  0
LINE
  8
0
 62
     0
 10
4.298097
 20
2.0
 30
0.0
 11
4.8
 21
2.501903
 31
0.0
  0
LINE
  8
0
 62
     0
 10
2.474874
 20
0.0
 30
0.0
 11
2.51353
 21
0.038656
 31
0.0
  0
LINE
  8
0
 62
     0
 10
4.474874
 20
2.0
 30
0.0
 11
4.8
 21
2.325126
 31
0.0
  0
LINE
  8
0
 62
     0
 10
4.65165
 20
2.0
 30
0.0
 11
4.8
 21
2.14835
 31
0.0
  0
ENDBLK
  8
0
  0
BLOCK
  8
0
  2
*X16
 70
    65
 10
0.0
 20
0.0
 30
0.0
  3
*X
  0
LINE
  8
0
 62
     0
 10
6.884654
 20
1.75813
 30
0.0
 11
8.736506
 21
3.609982
 31
0.0
  0
LINE
  8
0
 62
     0
 10
6.838823
 20
1.889076
 30
0.0
 11
8.690675
 21
3.740928
 31
0.0
  0
LINE
  8
0
 62
     0
 10
6.772971
 20
2.0
 30
0.0
 11
8.644844
 21
3.871874
 31
0.0
  0
LINE
  8
0
 62
     0
 10
6.596194
 20
2.0
 30
0.0
 11
8.599013
 21
4.002819
 31
0.0
  0
LINE
  8
0
 62
     0
 10
6.419417
 20
2.0
 30
0.0
 11
8.553182
 21
4.133765
 31
0.0
  0
LINE
  8
0
 62
     0
 10
6.242641
 20
2.0
 30
0.0
 11
8.507351
 21
4.264711
 31
0.0
  0
LINE
  8
0
 62
     0
 10
6.065864
 20
2.0
 30
0.0
 11
8.46152
 21
4.395656
 31
0.0
  0
LINE
  8
0
 62
     0
 10
5.889087
 20
2.0
 30
0.0
 11
8.415689
 21
4.526602
 31
0.0
  0
LINE
  8
0
 62
     0
 10
5.712311
 20
2.0
 30
0.0
 11
8.369858
 21
4.657548
 31
0.0
  0
LINE
  8
0
 62
     0
 10
5.535534
 20
2.0
 30
0.0
 11
8.324027
 21
4.788493
 31
0.0
  0
LINE
  8
0
 62
     0
 10
5.358757
 20
2.0
 30
0.0
 11
8.158757
 21
4.8
 31
0.0
  0
LINE
  8
0
 62
     0
 10
5.2
 20
2.018019
 30
0.0
 11
7.981981
 21
4.8
 31
0.0
  0
LINE
  8
0
 62
     0
 10
5.2
 20
2.194796
 30
0.0
 11
7.805204
 21
4.8
 31
0.0
  0
LINE
  8
0
 62
     0
 10
5.2
 20
2.371573
 30
0.0
 11
7.628427
 21
4.8
 31
0.0
  0
LINE
  8
0
 62
     0
 10
5.2
 20
2.54835
 30
0.0
 11
7.45165
 21
4.8
 31
0.0
  0
LINE
  8
0
 62
     0
 10
5.2
 20
2.725126
 30
0.0
 11
7.274874
 21
4.8
 31
0.0
  0
LINE
  8
0
 62
     0
 10
5.2
 20
2.901903
 30
0.0
 11
7.098097
 21
4.8
 31
0.0
  0
LINE
  8
0
 62
     0
 10
5.2
 20
3.07868
 30
0.0
 11
6.92132
 21
4.8
 31
0.0
  0
LINE
  8
0
 62
     0
 10
5.2
 20
3.255456
 30
0.0
 11
6.744544
 21
4.8
 31
0.0
  0
LINE
  8
0
 62
     0
 10
5.2
 20
3.432233
 30
0.0
 11
6.567767
 21
4.8
 31
0.0
  0
LINE
  8
0
 62
     0
 10
5.2
 20
3.60901
 30
0.0
 11
6.39099
 21
4.8
 31
0.0
  0
LINE
  8
0
 62
     0
 10
5.2
 20
3.785786
 30
0.0
 11
6.214214
 21
4.8
 31
0.0
  0
LINE
  8
0
 62
     0
 10
5.2
 20
3.962563
 30
0.0
 11
6.037437
 21
4.8
 31
0.0
  0
LINE
  8
0
 62
     0
 10
5.2
 20
4.13934
 30
0.0
 11
5.86066
 21
4.8
 31
0.0
  0
LINE
  8
0
 62
     0
 10
5.2
 20
4.316117
 30
0.0
 11
5.683883
 21
4.8
 31
0.0
  0
LINE
  8
0
 62
     0
 10
5.2
 20
4.492893
 30
0.0
 11
5.507107
 21
4.8
 31
0.0
  0
LINE
  8
0
 62
     0
 10
5.2
 20
4.66967
 30
0.0
 11
5.33033
 21
4.8
 31
0.0
  0
LINE
  8
0
 62
     0
 10
6.930485
 20
1.627185
 30
0.0
 11
8.782337
 21
3.479036
 31
0.0
  0
LINE
  8
0
 62
     0
 10
6.976316
 20
1.496239
 30
0.0
 11
8.828168
 21
3.348091
 31
0.0
  0
LINE
  8
0
 62
     0
 10
7.022147
 20
1.365293
 30
0.0
 11
8.873999
 21
3.217145
 31
0.0
  0
LINE
  8
0
 62
     0
 10
7.067978
 20
1.234347
 30
0.0
 11
8.91983
 21
3.086199
 31
0.0
  0
LINE
  8
0
 62
     0
 10
7.113809
 20
1.103402
 30
0.0
 11
8.965661
 21
2.955254
 31
0.0
  0
LINE
  8
0
 62
     0
 10
7.15964
 20
0.972456
 30
0.0
 11
9.011492
 21
2.824308
 31
0.0
  0
LINE
  8
0
 62
     0
 10
7.205471
 20
0.84151
 30
0.0
 11
9.057323
 21
2.693362
 31
0.0
  0
LINE
  8
0
 62
     0
 10
7.251302
 20
0.710565
 30
0.0
 11
9.103154
 21
2.562416
 31
0.0
  0
LINE
  8
0
 62
     0
 10
7.297133
 20
0.579619
 30
0.0
 11
9.148985
 21
2.431471
 31
0.0
  0
LINE
  8
0
 62
     0
 10
7.342964
 20
0.448673
 30
0.0
 11
9.194816
 21
2.300525
 31
0.0
  0
LINE
  8
0
 62
     0
 10
7.388795
 20
0.317728
 30
0.0
 11
9.240647
 21
2.169579
 31
0.0
  0
LINE
  8
0
 62
     0
 10
7.434626
 20
0.186782
 30
0.0
 11
9.286478
 21
2.038634
 31
0.0
  0
LINE
  8
0
 62
     0
 10
7.480457
 20
0.055836
 30
0.0
 11
9.332309
 21
1.907688
 31
0.0
  0
LINE
  8
0
 62
     0
 10
7.601398
 20
0.0
 30
0.0
 11
9.37814
 21
1.776742
 31
0.0
  0
LINE
  8
0
 62
     0
 10
7.778175
 20
0.0
 30
0.0
 11
9.423971
 21
1.645797
 31
0.0
  0
LINE
  8
0
 62
     0
 10
7.954951
 20
0.0
 30
0.0
 11
9.469802
 21
1.514851
 31
0.0
  0
LINE
  8
0
 62
     0
 10
8.131728
 20
0.0
 30
0.0
 11
9.515633
 21
1.383905
 31
0.0
  0
LINE
  8
0
 62
     0
 10
8.308505
 20
0.0
 30
0.0
 11
9.561464
 21
1.252959
 31
0.0
  0
LINE
  8
0
 62
     0
 10
8.485281
 20
0.0
 30
0.0
 11
9.607295
 21
1.122014
 31
0.0
  0
LINE
  8
0
 62
     0
 10
8.662058
 20
0.0
 30
0.0
 11
9.653126
 21
0.991068
 31
0.0
  0
LINE
  8
0
 62
     0
 10
8.838835
 20
0.0
 30
0.0
 11
9.698957
 21
0.860122
 31
0.0
  0
LINE
  8
0
 62
     0
 10
9.015611
 20
0.0
 30
0.0
 11
9.744788
 21
0.729177
 31
0.0
  0
LINE
  8
0
 62
     0
 10
9.192388
 20
0.0
 30
0.0
 11
9.790619
 21
0.598231
 31
0.0
  0
LINE
  8
0
 62
     0
 10
9.369165
 20
0.0
 30
0.0
 11
9.83645
 21
0.467285
 31
0.0
  0
LINE
  8
0
 62
     0
 10
9.545942
 20
0.0
 30
0.0
 11
9.882281
 21
0.33634
 31
0.0
  0
LINE
  8
0
 62
     0
 10
9.722718
 20
0.0
 30
0.0
 11
9.928112
 21
0.205394
 31
0.0
  0
LINE
  8
0
 62
     0
 10
9.899495
 20
0.0
 30
0.0
 11
9.973943
 21
0.074448
 31
0.0
  0
ENDBLK
  8
0
  0
BLOCK
  8
0
  2
*X17
 70
    65
 10
0.0
 20
0.0
 30
0.0
  3
*X
  0
LINE
  8
0
 62
     0
 10
10.7
 20
6.280583
 30
0.0
 11
13.5
 21
9.080583
 31
0.0
  0
LINE
  8
0
 62
     0
 10
10.7
 20
6.457359
 30
0.0
 11
13.5
 21
9.257359
 31
0.0
  0
LINE
  8
0
 62
     0
 10
10.7
 20
6.634136
 30
0.0
 11
13.5
 21
9.434136
 31
0.0
  0
LINE
  8
0
 62
     0
 10
10.7
 20
6.810913
 30
0.0
 11
13.5
 21
9.610913
 31
0.0
  0
LINE
  8
0
 62
     0
 10
10.7
 20
6.987689
 30
0.0
 11
13.5
 21
9.787689
 31
0.0
  0
LINE
  8
0
 62
     0
 10
10.7
 20
7.164466
 30
0.0
 11
13.5
 21
9.964466
 31
0.0
  0
LINE
  8
0
 62
     0
 10
10.7
 20
7.341243
 30
0.0
 11
13.358757
 21
10.0
 31
0.0
  0
LINE
  8
0
 62
     0
 10
10.7
 20
7.518019
 30
0.0
 11
13.181981
 21
10.0
 31
0.0
  0
LINE
  8
0
 62
     0
 10
10.7
 20
7.694796
 30
0.0
 11
13.005204
 21
10.0
 31
0.0
  0
LINE
  8
0
 62
     0
 10
10.7
 20
7.871573
 30
0.0
 11
12.828427
 21
10.0
 31
0.0
  0
LINE
  8
0
 62
     0
 10
10.7
 20
8.04835
 30
0.0
 11
12.65165
 21
10.0
 31
0.0
  0
LINE
  8
0
 62
     0
 10
10.7
 20
8.225126
 30
0.0
 11
12.474874
 21
10.0
 31
0.0
  0
LINE
  8
0
 62
     0
 10
10.7
 20
8.401903
 30
0.0
 11
12.298097
 21
10.0
 31
0.0
  0
LINE
  8
0
 62
     0
 10
10.7
 20
8.57868
 30
0.0
 11
12.12132
 21
10.0
 31
0.0
  0
LINE
  8
0
 62
     0
 10
10.7
 20
8.755456
 30
0.0
 11
11.944544
 21
10.0
 31
0.0
  0
LINE
  8
0
 62
     0
 10
10.7
 20
8.932233
 30
0.0
 11
11.767767
 21
10.0
 31
0.0
  0
LINE
  8
0
 62
     0
 10
10.7
 20
9.10901
 30
0.0
 11
11.59099
 21
10.0
 31
0.0
  0
LINE
  8
0
 62
     0
 10
10.7
 20
9.285786
 30
0.0
 11
11.414214
 21
10.0
 31
0.0
  0
LINE
  8
0
 62
     0
 10
10.7
 20
9.462563
 30
0.0
 11
11.237437
 21
10.0
 31
0.0
  0
LINE
  8
0
 62
     0
 10
10.7
 20
9.63934
 30
0.0
 11
11.06066
 21
10.0
 31
0.0
  0
LINE
  8
0
 62
     0
 10
10.7
 20
9.816117
 30
0.0
 11
10.883883
 21
10.0
 31
0.0
  0
LINE
  8
0
 62
     0
 10
10.7
 20
9.992893
 30
0.0
 11
10.707107
 21
10.0
 31
0.0
  0
LINE
  8
0
 62
     0
 10
10.7
 20
6.103806
 30
0.0
 11
13.5
 21
8.903806
 31
0.0
  0
LINE
  8
0
 62
     0
 10
10.7
 20
5.927029
 30
0.0
 11
13.5
 21
8.727029
 31
0.0
  0
LINE
  8
0
 62
     0
 10
10.7
 20
5.750253
 30
0.0
 11
13.5
 21
8.550253
 31
0.0
  0
LINE
  8
0
 62
     0
 10
10.7
 20
5.573476
 30
0.0
 11
13.5
 21
8.373476
 31
0.0
  0
LINE
  8
0
 62
     0
 10
10.7
 20
5.396699
 30
0.0
 11
13.5
 21
8.196699
 31
0.0
  0
LINE
  8
0
 62
     0
 10
10.7
 20
5.219922
 30
0.0
 11
13.5
 21
8.019922
 31
0.0
  0
LINE
  8
0
 62
     0
 10
10.856854
 20
5.2
 30
0.0
 11
13.5
 21
7.843146
 31
0.0
  0
LINE
  8
0
 62
     0
 10
11.033631
 20
5.2
 30
0.0
 11
13.5
 21
7.666369
 31
0.0
  0
LINE
  8
0
 62
     0
 10
11.210408
 20
5.2
 30
0.0
 11
13.5
 21
7.489592
 31
0.0
  0
LINE
  8
0
 62
     0
 10
11.387184
 20
5.2
 30
0.0
 11
13.5
 21
7.312816
 31
0.0
  0
LINE
  8
0
 62
     0
 10
11.563961
 20
5.2
 30
0.0
 11
13.5
 21
7.136039
 31
0.0
  0
LINE
  8
0
 62
     0
 10
11.740738
 20
5.2
 30
0.0
 11
13.5
 21
6.959262
 31
0.0
  0
LINE
  8
0
 62
     0
 10
11.917514
 20
5.2
 30
0.0
 11
13.5
 21
6.782486
 31
0.0
  0
LINE
  8
0
 62
     0
 10
12.094291
 20
5.2
 30
0.0
 11
13.5
 21
6.605709
 31
0.0
  0
LINE
  8
0
 62
     0
 10
12.271068
 20
5.2
 30
0.0
 11
13.5
 21
6.428932
 31
0.0
  0
LINE
  8
0
 62
     0
 10
12.447845
 20
5.2
 30
0.0
 11
13.5
 21
6.252155
 31
0.0
  0
LINE
  8
0
 62
     0
 10
12.624621
 20
5.2
 30
0.0
 11
13.5
 21
6.075379
 31
0.0
  0
LINE
  8
0
 62
     0
 10
12.801398
 20
5.2
 30
0.0
 11
13.5
 21
5.898602
 31
0.0
  0
LINE
  8
0
 62
     0
 10
12.978175
 20
5.2
 30
0.0
 11
13.5
 21
5.721825
 31
0.0
  0
LINE
  8
0
 62
     0
 10
13.154951
 20
5.2
 30
0.0
 11
13.5
 21
5.545049
 31
0.0
  0
LINE
  8
0
 62
     0
 10
13.331728
 20
5.2
 30
0.0
 11
13.5
 21
5.368272
 31
0.0
  0
ENDBLK
  8
0
  0
BLOCK
  8
0
  2
*X18
 70
    65
 10
0.0
 20
0.0
 30
0.0
  3
*X
  0
LINE
  8
0
 62
     0
 10
10.7
 20
1.154058
 30
0.0
 11
13.5
 21
3.954058
 31
0.0
  0
LINE
  8
0
 62
     0
 10
10.7
 20
1.330835
 30
0.0
 11
13.5
 21
4.130835
 31
0.0
  0
LINE
  8
0
 62
     0
 10
10.7
 20
1.507612
 30
0.0
 11
13.5
 21
4.307612
 31
0.0
  0
LINE
  8
0
 62
     0
 10
10.7
 20
1.684389
 30
0.0
 11
13.5
 21
4.484389
 31
0.0
  0
LINE
  8
0
 62
     0
 10
10.7
 20
1.861165
 30
0.0
 11
13.5
 21
4.661165
 31
0.0
  0
LINE
  8
0
 62
     0
 10
10.7
 20
2.037942
 30
0.0
 11
13.462058
 21
4.8
 31
0.0
  0
LINE
  8
0
 62
     0
 10
10.7
 20
2.214719
 30
0.0
 11
13.285281
 21
4.8
 31
0.0
  0
LINE
  8
0
 62
     0
 10
10.7
 20
2.391495
 30
0.0
 11
13.108505
 21
4.8
 31
0.0
  0
LINE
  8
0
 62
     0
 10
10.7
 20
2.568272
 30
0.0
 11
12.931728
 21
4.8
 31
0.0
  0
LINE
  8
0
 62
     0
 10
10.7
 20
2.745049
 30
0.0
 11
12.754951
 21
4.8
 31
0.0
  0
LINE
  8
0
 62
     0
 10
10.7
 20
2.921825
 30
0.0
 11
12.578175
 21
4.8
 31
0.0
  0
LINE
  8
0
 62
     0
 10
10.7
 20
3.098602
 30
0.0
 11
12.401398
 21
4.8
 31
0.0
  0
LINE
  8
0
 62
     0
 10
10.7
 20
3.275379
 30
0.0
 11
12.224621
 21
4.8
 31
0.0
  0
LINE
  8
0
 62
     0
 10
10.7
 20
3.452155
 30
0.0
 11
12.047845
 21
4.8
 31
0.0
  0
LINE
  8
0
 62
     0
 10
10.7
 20
3.628932
 30
0.0
 11
11.871068
 21
4.8
 31
0.0
  0
LINE
  8
0
 62
     0
 10
10.7
 20
3.805709
 30
0.0
 11
11.694291
 21
4.8
 31
0.0
  0
LINE
  8
0
 62
     0
 10
10.7
 20
3.982486
 30
0.0
 11
11.517514
 21
4.8
 31
0.0
  0
LINE
  8
0
 62
     0
 10
10.7
 20
4.159262
 30
0.0
 11
11.340738
 21
4.8
 31
0.0
  0
LINE
  8
0
 62
     0
 10
10.7
 20
4.336039
 30
0.0
 11
11.163961
 21
4.8
 31
0.0
  0
LINE
  8
0
 62
     0
 10
10.7
 20
4.512816
 30
0.0
 11
10.987184
 21
4.8
 31
0.0
  0
LINE
  8
0
 62
     0
 10
10.7
 20
4.689592
 30
0.0
 11
10.810408
 21
4.8
 31
0.0
  0
LINE
  8
0
 62
     0
 10
10.7
 20
0.977282
 30
0.0
 11
13.5
 21
3.777282
 31
0.0
  0
LINE
  8
0
 62
     0
 10
10.7
 20
0.800505
 30
0.0
 11
13.5
 21
3.600505
 31
0.0
  0
LINE
  8
0
 62
     0
 10
10.7
 20
0.623728
 30
0.0
 11
13.5
 21
3.423728
 31
0.0
  0
LINE
  8
0
 62
     0
 10
10.7
 20
0.446952
 30
0.0
 11
13.5
 21
3.246952
 31
0.0
  0
LINE
  8
0
 62
     0
 10
10.7
 20
0.270175
 30
0.0
 11
13.5
 21
3.070175
 31
0.0
  0
LINE
  8
0
 62
     0
 10
10.7
 20
0.093398
 30
0.0
 11
13.5
 21
2.893398
 31
0.0
  0
LINE
  8
0
 62
     0
 10
10.783378
 20
0.0
 30
0.0
 11
13.5
 21
2.716622
 31
0.0
  0
LINE
  8
0
 62
     0
 10
10.960155
 20
0.0
 30
0.0
 11
13.5
 21
2.539845
 31
0.0
  0
LINE
  8
0
 62
     0
 10
11.136932
 20
0.0
 30
0.0
 11
13.5
 21
2.363068
 31
0.0
  0
LINE
  8
0
 62
     0
 10
11.313708
 20
0.0
 30
0.0
 11
13.5
 21
2.186292
 31
0.0
  0
LINE
  8
0
 62
     0
 10
11.490485
 20
0.0
 30
0.0
 11
13.5
 21
2.009515
 31
0.0
  0
LINE
  8
0
 62
     0
 10
11.667262
 20
0.0
 30
0.0
 11
13.5
 21
1.832738
 31
0.0
  0
LINE
  8
0
 62
     0
 10
11.844039
 20
0.0
 30
0.0
 11
13.5
 21
1.655961
 31
0.0
  0
LINE
  8
0
 62
     0
 10
12.020815
 20
0.0
 30
0.0
 11
13.5
 21
1.479185
 31
0.0
  0
LINE
  8
0
 62
     0
 10
12.197592
 20
0.0
 30
0.0
 11
13.5
 21
1.302408
 31
0.0
  0
LINE
  8
0
 62
     0
 10
12.374369
 20
0.0
 30
0.0
 11
13.5
 21
1.125631
 31
0.0
  0
LINE
  8
0
 62
     0
 10
12.551145
 20
0.0
 30
0.0
 11
13.5
 21
0.948855
 31
0.0
  0
LINE
  8
0
 62
     0
 10
12.727922
 20
0.0
 30
0.0
 11
13.5
 21
0.772078
 31
0.0
  0
LINE
  8
0
 62
     0
 10
12.904699
 20
0.0
 30
0.0
 11
13.5
 21
0.595301
 31
0.0
  0
LINE
  8
0
 62
     0
 10
13.081475
 20
0.0
 30
0.0
 11
13.5
 21
0.418525
 31
0.0
  0
LINE
  8
0
 62
     0
 10
13.258252
 20
0.0
 30
0.0
 11
13.5
 21
0.241748
 31
0.0
  0
LINE
  8
0
 62
     0
 10
13.435029
 20
0.0
 30
0.0
 11
13.5
 21
0.064971
 31
0.0
  0
ENDBLK
  8
0
  0
BLOCK
  8
0
  2
*X19
 70
    65
 10
0.0
 20
0.0
 30
0.0
  3
*X
  0
LINE
  8
0
 62
     0
 10
13.9
 20
6.298602
 30
0.0
 11
16.582995
 21
8.981597
 31
0.0
  0
LINE
  8
0
 62
     0
 10
13.9
 20
6.475379
 30
0.0
 11
16.510503
 21
9.085882
 31
0.0
  0
LINE
  8
0
 62
     0
 10
13.9
 20
6.652155
 30
0.0
 11
16.432927
 21
9.185083
 31
0.0
  0
LINE
  8
0
 62
     0
 10
13.9
 20
6.828932
 30
0.0
 11
16.350372
 21
9.279304
 31
0.0
  0
LINE
  8
0
 62
     0
 10
13.9
 20
7.005709
 30
0.0
 11
16.262892
 21
9.368601
 31
0.0
  0
LINE
  8
0
 62
     0
 10
13.9
 20
7.182486
 30
0.0
 11
16.170495
 21
9.452981
 31
0.0
  0
LINE
  8
0
 62
     0
 10
13.9
 20
7.359262
 30
0.0
 11
16.073145
 21
9.532407
 31
0.0
  0
LINE
  8
0
 62
     0
 10
13.9
 20
7.536039
 30
0.0
 11
15.970755
 21
9.606794
 31
0.0
  0
LINE
  8
0
 62
     0
 10
13.9
 20
7.712816
 30
0.0
 11
15.863189
 21
9.676004
 31
0.0
  0
LINE
  8
0
 62
     0
 10
13.9
 20
7.889592
 30
0.0
 11
15.75025
 21
9.739843
 31
0.0
  0
LINE
  8
0
 62
     0
 10
13.9
 20
8.066369
 30
0.0
 11
15.631675
 21
9.798044
 31
0.0
  0
LINE
  8
0
 62
     0
 10
13.9
 20
8.243146
 30
0.0
 11
15.50711
 21
9.850256
 31
0.0
  0
LINE
  8
0
 62
     0
 10
13.9
 20
8.419922
 30
0.0
 11
15.376096
 21
9.896018
 31
0.0
  0
LINE
  8
0
 62
     0
 10
13.9
 20
8.596699
 30
0.0
 11
15.238027
 21
9.934726
 31
0.0
  0
LINE
  8
0
 62
     0
 10
13.9
 20
8.773476
 30
0.0
 11
15.092096
 21
9.965572
 31
0.0
  0
LINE
  8
0
 62
     0
 10
13.9
 20
8.950253
 30
0.0
 11
14.937209
 21
9.987461
 31
0.0
  0
LINE
  8
0
 62
     0
 10
13.9
 20
9.127029
 30
0.0
 11
14.771824
 21
9.998853
 31
0.0
  0
LINE
  8
0
 62
     0
 10
13.9
 20
9.303806
 30
0.0
 11
14.596193
 21
9.999999
 31
0.0
  0
LINE
  8
0
 62
     0
 10
13.9
 20
9.480583
 30
0.0
 11
14.419417
 21
9.999999
 31
0.0
  0
LINE
  8
0
 62
     0
 10
13.9
 20
9.657359
 30
0.0
 11
14.24264
 21
10.0
 31
0.0
  0
LINE
  8
0
 62
     0
 10
13.9
 20
9.834136
 30
0.0
 11
14.065864
 21
10.0
 31
0.0
  0
LINE
  8
0
 62
     0
 10
13.9
 20
6.121825
 30
0.0
 11
16.650245
 21
8.872071
 31
0.0
  0
LINE
  8
0
 62
     0
 10
13.9
 20
5.945049
 30
0.0
 11
16.712035
 21
8.757083
 31
0.0
  0
LINE
  8
0
 62
     0
 10
13.9
 20
5.768272
 30
0.0
 11
16.768067
 21
8.636339
 31
0.0
  0
LINE
  8
0
 62
     0
 10
13.9
 20
5.591495
 30
0.0
 11
16.817955
 21
8.509451
 31
0.0
  0
LINE
  8
0
 62
     0
 10
13.9
 20
5.414719
 30
0.0
 11
16.861189
 21
8.375908
 31
0.0
  0
LINE
  8
0
 62
     0
 10
13.9
 20
5.237942
 30
0.0
 11
16.897097
 21
8.235039
 31
0.0
  0
LINE
  8
0
 62
     0
 10
14.038835
 20
5.2
 30
0.0
 11
16.924779
 21
8.085944
 31
0.0
  0
LINE
  8
0
 62
     0
 10
14.215611
 20
5.2
 30
0.0
 11
16.942997
 21
7.927385
 31
0.0
  0
LINE
  8
0
 62
     0
 10
14.392388
 20
5.2
 30
0.0
 11
16.949987
 21
7.757599
 31
0.0
  0
LINE
  8
0
 62
     0
 10
14.569165
 20
5.2
 30
0.0
 11
16.943101
 21
7.573936
 31
0.0
  0
LINE
  8
0
 62
     0
 10
14.745942
 20
5.2
 30
0.0
 11
16.918037
 21
7.372095
 31
0.0
  0
LINE
  8
0
 62
     0
 10
14.922718
 20
5.2
 30
0.0
 11
16.866909
 21
7.144191
 31
0.0
  0
LINE
  8
0
 62
     0
 10
15.099495
 20
5.2
 30
0.0
 11
16.771715
 21
6.87222
 31
0.0
  0
LINE
  8
0
 62
     0
 10
15.276272
 20
5.2
 30
0.0
 11
15.847951
 21
5.77168
 31
0.0
  0
LINE
  8
0
 62
     0
 10
15.96673
 20
5.890458
 30
0.0
 11
16.559542
 21
6.48327
 31
0.0
  0
LINE
  8
0
 62
     0
 10
15.453048
 20
5.2
 30
0.0
 11
15.970661
 21
5.717613
 31
0.0
  0
LINE
  8
0
 62
     0
 10
15.629825
 20
5.2
 30
0.0
 11
16.088934
 21
5.659109
 31
0.0
  0
LINE
  8
0
 62
     0
 10
15.806602
 20
5.2
 30
0.0
 11
16.202964
 21
5.596363
 31
0.0
  0
LINE
  8
0
 62
     0
 10
15.983378
 20
5.2
 30
0.0
 11
16.312909
 21
5.529531
 31
0.0
  0
LINE
  8
0
 62
     0
 10
16.160155
 20
5.2
 30
0.0
 11
16.418895
 21
5.45874
 31
0.0
  0
LINE
  8
0
 62
     0
 10
16.336932
 20
5.2
 30
0.0
 11
16.521021
 21
5.384089
 31
0.0
  0
LINE
  8
0
 62
     0
 10
16.513708
 20
5.2
 30
0.0
 11
16.619363
 21
5.305655
 31
0.0
  0
LINE
  8
0
 62
     0
 10
16.690485
 20
5.2
 30
0.0
 11
16.713975
 21
5.22349
 31
0.0
  0
ENDBLK
  8
0
  0
BLOCK
  8
0
  2
*X20
 70
    65
 10
0.0
 20
0.0
 30
0.0
  3
*X
  0
LINE
  8
0
 62
     0
 10
13.9
 20
0.818525
 30
0.0
 11
17.39645
 21
4.314974
 31
0.0
  0
LINE
  8
0
 62
     0
 10
13.9
 20
0.995301
 30
0.0
 11
17.336354
 21
4.431655
 31
0.0
  0
LINE
  8
0
 62
     0
 10
13.9
 20
1.172078
 30
0.0
 11
17.272078
 21
4.544156
 31
0.0
  0
LINE
  8
0
 62
     0
 10
13.9
 20
1.348855
 30
0.0
 11
17.203766
 21
4.652621
 31
0.0
  0
LINE
  8
0
 62
     0
 10
13.9
 20
1.525631
 30
0.0
 11
17.131535
 21
4.757167
 31
0.0
  0
LINE
  8
0
 62
     0
 10
13.9
 20
1.702408
 30
0.0
 11
16.997592
 21
4.8
 31
0.0
  0
LINE
  8
0
 62
     0
 10
13.9
 20
1.879185
 30
0.0
 11
16.820815
 21
4.8
 31
0.0
  0
LINE
  8
0
 62
     0
 10
13.9
 20
2.055961
 30
0.0
 11
16.644039
 21
4.8
 31
0.0
  0
LINE
  8
0
 62
     0
 10
13.9
 20
2.232738
 30
0.0
 11
16.467262
 21
4.8
 31
0.0
  0
LINE
  8
0
 62
     0
 10
13.9
 20
2.409515
 30
0.0
 11
16.290485
 21
4.8
 31
0.0
  0
LINE
  8
0
 62
     0
 10
13.9
 20
2.586292
 30
0.0
 11
16.113708
 21
4.8
 31
0.0
  0
LINE
  8
0
 62
     0
 10
13.9
 20
2.763068
 30
0.0
 11
15.936932
 21
4.8
 31
0.0
  0
LINE
  8
0
 62
     0
 10
13.9
 20
2.939845
 30
0.0
 11
15.760155
 21
4.8
 31
0.0
  0
LINE
  8
0
 62
     0
 10
13.9
 20
3.116622
 30
0.0
 11
15.583378
 21
4.8
 31
0.0
  0
LINE
  8
0
 62
     0
 10
13.9
 20
3.293398
 30
0.0
 11
15.406602
 21
4.8
 31
0.0
  0
LINE
  8
0
 62
     0
 10
13.9
 20
3.470175
 30
0.0
 11
15.229825
 21
4.8
 31
0.0
  0
LINE
  8
0
 62
     0
 10
13.9
 20
3.646952
 30
0.0
 11
15.053048
 21
4.8
 31
0.0
  0
LINE
  8
0
 62
     0
 10
13.9
 20
3.823728
 30
0.0
 11
14.876272
 21
4.8
 31
0.0
  0
LINE
  8
0
 62
     0
 10
13.9
 20
4.000505
 30
0.0
 11
14.699495
 21
4.8
 31
0.0
  0
LINE
  8
0
 62
     0
 10
13.9
 20
4.177282
 30
0.0
 11
14.522718
 21
4.8
 31
0.0
  0
LINE
  8
0
 62
     0
 10
13.9
 20
4.354058
 30
0.0
 11
14.345942
 21
4.8
 31
0.0
  0
LINE
  8
0
 62
     0
 10
13.9
 20
4.530835
 30
0.0
 11
14.169165
 21
4.8
 31
0.0
  0
LINE
  8
0
 62
     0
 10
13.9
 20
4.707612
 30
0.0
 11
13.992388
 21
4.8
 31
0.0
  0
LINE
  8
0
 62
     0
 10
13.9
 20
0.641748
 30
0.0
 11
17.452185
 21
4.193933
 31
0.0
  0
LINE
  8
0
 62
     0
 10
13.9
 20
0.464971
 30
0.0
 11
17.503339
 21
4.068311
 31
0.0
  0
LINE
  8
0
 62
     0
 10
13.9
 20
0.288194
 30
0.0
 11
17.549642
 21
3.937837
 31
0.0
  0
LINE
  8
0
 62
     0
 10
13.9
 20
0.111418
 30
0.0
 11
17.590762
 21
3.80218
 31
0.0
  0
LINE
  8
0
 62
     0
 10
13.965359
 20
0.0
 30
0.0
 11
17.62629
 21
3.660931
 31
0.0
  0
LINE
  8
0
 62
     0
 10
14.142136
 20
0.000001
 30
0.0
 11
17.655713
 21
3.513577
 31
0.0
  0
LINE
  8
0
 62
     0
 10
14.318913
 20
0.000001
 30
0.0
 11
17.678385
 21
3.359473
 31
0.0
  0
LINE
  8
0
 62
     0
 10
14.49569
 20
0.000001
 30
0.0
 11
17.693473
 21
3.197784
 31
0.0
  0
LINE
  8
0
 62
     0
 10
14.672467
 20
0.000002
 30
0.0
 11
17.699875
 21
3.027409
 31
0.0
  0
LINE
  8
0
 62
     0
 10
14.853154
 20
0.003912
 30
0.0
 11
17.696088
 21
2.846846
 31
0.0
  0
LINE
  8
0
 62
     0
 10
15.046044
 20
0.020025
 30
0.0
 11
17.679975
 21
2.653956
 31
0.0
  0
LINE
  8
0
 62
     0
 10
15.254483
 20
0.051687
 30
0.0
 11
17.648313
 21
2.445517
 31
0.0
  0
LINE
  8
0
 62
     0
 10
15.483762
 20
0.10419
 30
0.0
 11
17.59581
 21
2.216238
 31
0.0
  0
LINE
  8
0
 62
     0
 10
15.743786
 20
0.187437
 30
0.0
 11
17.512563
 21
1.956214
 31
0.0
  0
LINE
  8
0
 62
     0
 10
16.058176
 20
0.32505
 30
0.0
 11
17.37495
 21
1.641824
 31
0.0
  0
LINE
  8
0
 62
     0
 10
16.54193
 20
0.632028
 30
0.0
 11
17.067972
 21
1.15807
 31
0.0
  0
ENDBLK
  8
0
  0
BLOCK
  8
0
  2
MAA
 70
    64
 10
0.0
 20
0.0
 30
0.0
  3
MAA
  0
LINE
  8
0
  6
CONTINUOUS
 10
-0.500718
 20
-2.587966
 30
0.0
 11
0.386169
 21
-2.587966
 31
0.0
  0
LINE
  8
0
  6
CONTINUOUS
 10
-0.831823
 20
-1.976333
 30
0.0
 11
0.752749
 21
-1.976333
 31
0.0
  0
LINE
  8
0
  6
CONTINUOUS
 10
-0.015887
 20
-1.35427
 30
0.0
 11
1.178454
 21
-1.35427
 31
0.0
  0
LINE
  8
0
  6
CONTINUOUS
 10
-1.210228
 20
-1.35427
 30
0.0
 11
-0.015887
 21
-1.35427
 31
0.0
  0
LINE
  8
0
  6
CONTINUOUS
 10
0.0
 20
0.0
 30
0.0
 11
0.0
 21
-1.35427
 31
0.0
  0
ENDBLK
  8
0
  0
BLOCK
  8
0
  2
B67
 70
     0
 10
0.0
 20
0.0
 30
0.0
  3
B67
  0
LINE
  8
BASE
  6
CONTINUOUS
 10
-1.897097
 20
-3.556254
 30
0.0
 11
-2.963522
 21
-2.489829
 31
0.0
  0
LINE
  8
BASE
  6
CONTINUOUS
 10
-2.963522
 20
-2.489829
 30
0.0
 11
-1.897097
 21
-1.423405
 31
0.0
  0
LINE
  8
BASE
  6
CONTINUOUS
 10
-1.897097
 20
-1.423405
 30
0.0
 11
-0.830672
 21
-2.489829
 31
0.0
  0
LINE
  8
BASE
  6
CONTINUOUS
 10
-0.830672
 20
-2.489829
 30
0.0
 11
-1.897097
 21
-3.556254
 31
0.0
  0
LINE
  8
BASE
  6
DASHED
 10
0.0
 20
0.0
 30
0.0
 11
-5.000117
 21
0.0
 31
0.0
  0
TEXT
  8
BASE
  6
DASHED
 10
-8.422045
 20
-3.481615
 30
0.0
 40
2.0
  1
14B
  0
LINE
  8
BASE
  6
DASHED
 10
-12.5
 20
0.0
 30
0.0
 11
-30.0
 21
0.0
 31
0.0
  0
TEXT
  8
BASE
  6
DASHED
 10
-12.5
 20
3.402046
 30
0.0
 40
2.0
  1
101
  0
TEXT
  8
BASE
  6
DASHED
 10
-18.160336
 20
-3.602839
 30
0.0
 40
2.0
  1
14A 
  0
INSERT
  8
0
  6
CONTINUOUS
  2
B37
 10
-12.5
 20
0.0
 30
0.0
 50
90.0
  0
ENDBLK
  8
0
  0
BLOCK
  8
0
  2
B37
 70
    64
 10
0.0
 20
0.0
 30
0.0
  3
B37
  0
LINE
  8
BASE
  6
CONTINUOUS
 10
-0.006589
 20
-6.018035
 30
0.0
 11
2.434804
 21
0.662841
 31
0.0
  0
LINE
  8
BASE
  6
CONTINUOUS
 10
0.0
 20
0.0
 30
0.0
 11
2.765661
 21
0.0
 31
0.0
  0
LINE
  8
BASE
  6
CONTINUOUS
 10
2.434804
 20
0.662841
 30
0.0
 11
1.549106
 21
1.107734
 31
0.0
  0
CIRCLE
  8
BASE
  6
CONTINUOUS
 10
0.0
 20
-6.758945
 30
0.0
 40
0.740939
  0
ENDBLK
  8
0
  0
ENDSEC
  0
SECTION
  2
ENTITIES
  0
INSERT
  8
0
  2
1
 10
65.405438
 20
98.713066
 30
0.0
  0
INSERT
  8
0
  2
1
 10
72.541652
 20
49.71056
 30
0.0
  0
INSERT
  8
0
  2
1
 10
85.390443
 20
73.497234
 30
0.0
  0
LINE
  8
0
  6
CENTER
 62
   249
 10
237.5
 20
220.0
 30
0.0
 11
237.5
 21
112.5
 31
0.0
  0
LINE
  8
0
  6
CENTER
 62
   249
 10
237.5
 20
112.5
 30
0.0
 11
237.5
 21
90.0
 31
0.0
  0
LINE
  8
0
  6
CONTINUOUS
 62
   249
 10
220.0
 20
105.0
 30
0.0
 11
230.0
 21
105.0
 31
0.0
  0
LINE
  8
0
  6
CONTINUOUS
 62
   249
 10
220.0
 20
105.0
 30
0.0
 11
222.5
 21
107.5
 31
0.0
  0
LINE
  8
0
  6
CONTINUOUS
 62
   249
 10
225.0
 20
105.0
 30
0.0
 11
227.5
 21
107.5
 31
0.0
  0
LINE
  8
0
  6
CONTINUOUS
 62
   249
 10
230.0
 20
105.0
 30
0.0
 11
232.5
 21
107.5
 31
0.0
  0
LINE
  8
0
  6
CONTINUOUS
 62
   249
 10
225.0
 20
105.0
 30
0.0
 11
225.0
 21
90.0
 31
0.0
  0
LINE
  8
0
  6
CONTINUOUS
 62
   249
 10
212.5
 20
107.5
 30
0.0
 11
212.5
 21
90.0
 31
0.0
  0
LINE
  8
0
  6
CONTINUOUS
 62
   249
 10
207.5
 20
107.5
 30
0.0
 11
207.5
 21
90.0
 31
0.0
  0
LINE
  8
0
  6
DASHED
 62
   249
 10
212.5
 20
65.0
 30
0.0
 11
212.5
 21
57.5
 31
0.0
  0
LINE
  8
0
  6
DASHED
 62
   249
 10
225.0
 20
65.0
 30
0.0
 11
225.0
 21
57.5
 31
0.0
  0
LINE
  8
0
  6
DASHED
 62
   249
 10
207.5
 20
65.0
 30
0.0
 11
207.5
 21
57.5
 31
0.0
  0
LINE
  8
0
  6
DASHED
 62
   249
 10
182.5
 20
65.0
 30
0.0
 11
182.5
 21
57.5
 31
0.0
  0
LINE
  8
0
  6
DASHED
 62
   249
 10
177.5
 20
65.0
 30
0.0
 11
177.5
 21
57.5
 31
0.0
  0
LINE
  8
0
  6
DASHED
 62
   249
 10
162.5
 20
65.0
 30
0.0
 11
162.5
 21
57.5
 31
0.0
  0
LINE
  8
0
  6
CONTINUOUS
 62
   249
 10
175.0
 20
175.232891
 30
0.0
 11
205.450615
 21
175.232891
 31
0.0
  0
TEXT
  8
0
  6
CONTINUOUS
 62
   249
 10
186.908766
 20
171.295815
 30
0.0
 40
2.5
  1
IRF
 11
186.908766
 21
170.462481
 31
0.0
 73
     1
  0
LINE
  8
0
  6
CONTINUOUS
 62
   249
 10
205.450615
 20
170.0
 30
0.0
 11
175.0
 21
170.0
 31
0.0
  0
LINE
  8
0
  6
CONTINUOUS
 62
   249
 10
205.450615
 20
212.209828
 30
0.0
 11
205.450615
 21
170.0
 31
0.0
  0
LINE
  8
0
  6
CONTINUOUS
 62
   249
 10
205.450615
 20
235.0
 30
0.0
 11
205.450615
 21
212.18832
 31
0.0
  0
LINE
  8
0
  6
CONTINUOUS
 62
   249
 10
175.0
 20
180.0
 30
0.0
 11
205.450615
 21
180.0
 31
0.0
  0
CIRCLE
  8
0
  6
CONTINUOUS
 62
   249
 10
174.012659
 20
172.498324
 30
0.0
 40
1.0
  0
LINE
  8
0
  6
CONTINUOUS
 62
   249
 10
184.257307
 20
229.779942
 30
0.0
 11
181.911542
 21
228.590023
 31
0.0
  0
LINE
  8
0
  6
CONTINUOUS
 62
   249
 10
181.911542
 20
231.115295
 30
0.0
 11
184.257307
 21
229.779942
 31
0.0
  0
LINE
  8
0
  6
CONTINUOUS
 62
   249
 10
175.0
 20
225.0
 30
0.0
 11
175.0
 21
210.0
 31
0.0
  0
LINE
  8
0
  6
CONTINUOUS
 62
   249
 10
175.0
 20
225.0
 30
0.0
 11
175.0
 21
230.0
 31
0.0
  0
LINE
  8
0
  6
CONTINUOUS
 62
   249
 10
175.0
 20
210.0
 30
0.0
 11
175.0
 21
170.0
 31
0.0
  0
LINE
  8
0
  6
CENTER
 62
   249
 10
45.0
 20
245.0
 30
0.0
 11
45.0
 21
90.0
 31
0.0
  0
LINE
  8
0
  6
CONTINUOUS
 62
   249
 10
72.5
 20
152.5
 30
0.0
 11
77.5
 21
152.5
 31
0.0
  0
LINE
  8
0
  6
CONTINUOUS
 62
   249
 10
72.5
 20
152.5
 30
0.0
 11
66.756076
 21
149.285297
 31
0.0
  0
TEXT
  8
0
  6
DASHED
 62
   249
 10
65.697373
 20
153.403492
 30
0.0
 40
2.0
  1
A
  7
ROMANS
  0
TEXT
  8
0
  6
DASHED
 62
   249
 10
84.143373
 20
143.774588
 30
0.0
 40
2.0
  1
B
  7
ROMANS
  0
TEXT
  8
0
  6
DASHED
 62
   249
 10
101.055109
 20
133.134364
 30
0.0
 40
2.0
  1
C
  7
ROMANS
  0
TEXT
  8
0
  6
DASHED
 62
   249
 10
118.484014
 20
123.255752
 30
0.0
 40
2.0
  1
D
  7
ROMANS
  0
TEXT
  8
0
  6
DASHED
 62
   249
 10
133.171573
 20
113.364654
 30
0.0
 40
2.0
  1
E
  7
ROMANS
  0
TEXT
  8
0
  6
DASHED
 62
   249
 10
148.566284
 20
103.236332
 30
0.0
 40
2.0
  1
F
  7
ROMANS
  0
LINE
  8
0
  6
CENTER
 62
   249
 10
45.0
 20
90.0
 30
0.0
 11
237.5
 21
90.0
 31
0.0
  0
LINE
  8
0
  6
CONTINUOUS
 62
   249
 10
160.0
 20
102.5
 30
0.0
 11
162.5
 21
102.5
 31
0.0
  0
LINE
  8
0
  6
CONTINUOUS
 62
   249
 10
162.5
 20
102.5
 30
0.0
 11
162.5
 21
90.0
 31
0.0
  0
LINE
  8
0
  6
CENTER
 62
   249
 10
237.5
 20
245.0
 30
0.0
 11
45.0
 21
245.0
 31
0.0
  0
LINE
  8
0
  6
DASHED
 62
   249
 10
187.5
 20
65.0
 30
0.0
 11
187.5
 21
57.5
 31
0.0
  0
LINE
  8
0
  6
DASHED
 62
   249
 10
195.0
 20
65.0
 30
0.0
 11
195.0
 21
57.5
 31
0.0
  0
ARC
  8
0
  6
CONTINUOUS
 62
   249
 10
240.0
 20
177.5
 30
0.0
 40
2.5
 50
90.0
 51
270.0
  0
TEXT
  8
0
  6
DASHED
 62
   249
 10
3.774039
 20
242.5
 30
0.0
 40
2.0
  1
1)
  7
ROMANS
  0
TEXT
  8
0
  6
CONTINUOUS
 62
   249
 10
186.990407
 20
176.066424
 30
0.0
 40
2.5
  1
I/O
  0
TEXT
  8
0
  6
CONTINUOUS
 62
   249
 10
199.847994
 20
230.823751
 30
0.0
 40
2.5
  1
U1
  7
ROMANS
  0
LINE
  8
0
  6
CONTINUOUS
 62
   249
 10
175.0
 20
200.0
 30
0.0
 11
195.0
 21
200.0
 31
0.0
  0
LINE
  8
0
  6
CONTINUOUS
 62
   249
 10
195.0
 20
200.0
 30
0.0
 11
205.450615
 21
200.0
 31
0.0
  0
LINE
  8
0
  6
CONTINUOUS
 62
   249
 10
195.0
 20
210.0
 30
0.0
 11
195.0
 21
200.0
 31
0.0
  0
TEXT
  8
0
  6
CONTINUOUS
 62
   249
 10
199.847994
 20
215.149643
 30
0.0
 40
2.5
  1
U2
  7
ROMANS
  0
LINE
  8
0
  6
CONTINUOUS
 62
   249
 10
175.0
 20
212.5
 30
0.0
 11
195.0
 21
212.5
 31
0.0
  0
LINE
  8
0
  6
CONTINUOUS
 62
   249
 10
185.0
 20
233.021206
 30
0.0
 11
187.5
 21
233.021206
 31
0.0
  0
LINE
  8
0
  6
CONTINUOUS
 62
   249
 10
185.0
 20
233.021206
 30
0.0
 11
182.775553
 21
232.460564
 31
0.0
  0
LINE
  8
0
  6
CONTINUOUS
 62
   249
 10
180.0
 20
233.021206
 30
0.0
 11
182.5
 21
233.021206
 31
0.0
  0
TEXT
  8
0
  6
CONTINUOUS
 62
   249
 10
175.906909
 20
232.263189
 30
0.0
 40
1.5
  1
EN
  0
CIRCLE
  8
0
  6
CONTINUOUS
 62
   249
 10
173.999833
 20
233.016691
 30
0.0
 40
1.0
  0
LINE
  8
0
  6
CONTINUOUS
 62
   249
 10
175.0
 20
227.5
 30
0.0
 11
195.0
 21
227.5
 31
0.0
  0
LINE
  8
0
  6
CONTINUOUS
 62
   249
 10
175.0
 20
230.0
 30
0.0
 11
175.0
 21
235.0
 31
0.0
  0
LINE
  8
0
  6
CONTINUOUS
 62
   249
 10
175.0
 20
235.0
 30
0.0
 11
205.450615
 21
235.0
 31
0.0
  0
LINE
  8
0
  6
CONTINUOUS
 62
   249
 10
195.0
 20
210.0
 30
0.0
 11
195.0
 21
235.0
 31
0.0
  0
CIRCLE
  8
0
  6
CONTINUOUS
 62
   249
 10
174.000093
 20
205.784079
 30
0.0
 40
1.0
  0
TEXT
  8
0
  6
CONTINUOUS
 62
   249
 10
175.906909
 20
205.030577
 30
0.0
 40
1.5
  1
EN
  0
LINE
  8
0
  6
CONTINUOUS
 62
   249
 10
180.0
 20
205.788594
 30
0.0
 11
182.5
 21
205.788594
 31
0.0
  0
LINE
  8
0
  6
CONTINUOUS
 62
   249
 10
185.0
 20
205.788594
 30
0.0
 11
182.775553
 21
205.227951
 31
0.0
  0
LINE
  8
0
  6
CONTINUOUS
 62
   249
 10
185.0
 20
205.788594
 30
0.0
 11
187.5
 21
205.788594
 31
0.0
  0
LINE
  8
0
  6
CONTINUOUS
 62
   249
 10
140.0
 20
229.753087
 30
0.0
 11
140.0
 21
162.5
 31
0.0
  0
LINE
  8
0
  6
CONTINUOUS
 62
   249
 10
125.0
 20
165.0
 30
0.0
 11
125.0
 21
162.5
 31
0.0
  0
LINE
  8
0
  6
CONTINUOUS
 62
   249
 10
107.5
 20
165.0
 30
0.0
 11
107.5
 21
162.5
 31
0.0
  0
LINE
  8
0
  6
CONTINUOUS
 62
   249
 10
90.0
 20
165.0
 30
0.0
 11
90.0
 21
162.5
 31
0.0
  0
LINE
  8
0
  6
CONTINUOUS
 62
   249
 10
132.5
 20
122.5
 30
0.0
 11
172.5
 21
122.5
 31
0.0
  0
LINE
  8
0
  6
CONTINUOUS
 62
   249
 10
77.5
 20
152.5
 30
0.0
 11
187.5
 21
152.5
 31
0.0
  0
LINE
  8
0
  6
CONTINUOUS
 62
   249
 10
187.5
 20
152.5
 30
0.0
 11
187.5
 21
90.0
 31
0.0
  0
LINE
  8
0
  6
CONTINUOUS
 62
   249
 10
147.5
 20
112.5
 30
0.0
 11
167.5
 21
112.5
 31
0.0
  0
LINE
  8
0
  6
CONTINUOUS
 62
   249
 10
117.5
 20
122.5
 30
0.0
 11
45.0
 21
122.5
 31
0.0
  0
LINE
  8
0
  6
CONTINUOUS
 62
   249
 10
117.5
 20
117.5
 30
0.0
 11
45.0
 21
117.5
 31
0.0
  0
LINE
  8
0
  6
CONTINUOUS
 62
   249
 10
132.5
 20
112.5
 30
0.0
 11
45.0
 21
112.5
 31
0.0
  0
LINE
  8
0
  6
CONTINUOUS
 62
   249
 10
132.5
 20
107.5
 30
0.0
 11
45.0
 21
107.5
 31
0.0
  0
LINE
  8
0
  6
CONTINUOUS
 62
   249
 10
145.0
 20
102.5
 30
0.0
 11
45.0
 21
102.5
 31
0.0
  0
LINE
  8
0
  6
CONTINUOUS
 62
   249
 10
145.0
 20
97.5
 30
0.0
 11
45.0
 21
97.5
 31
0.0
  0
LINE
  8
0
  6
CONTINUOUS
 62
   249
 10
173.01266
 20
172.495289
 30
0.0
 11
152.5
 21
172.495289
 31
0.0
  0
LINE
  8
0
  6
CONTINUOUS
 62
   249
 10
152.5
 20
172.495289
 30
0.0
 11
152.5
 21
157.5
 31
0.0
  0
LINE
  8
0
  6
DASHED
 62
   249
 10
152.5
 20
157.5
 30
0.0
 11
152.5
 21
101.100824
 31
0.0
  0
LINE
  8
0
  6
DASHED
 62
   249
 10
140.0
 20
162.5
 30
0.0
 11
140.0
 21
111.100824
 31
0.0
  0
LINE
  8
0
  6
DASHED
 62
   249
 10
125.0
 20
162.5
 30
0.0
 11
125.0
 21
121.100824
 31
0.0
  0
LINE
  8
0
  6
DASHED
 62
   249
 10
107.5
 20
162.5
 30
0.0
 11
107.5
 21
131.100824
 31
0.0
  0
LINE
  8
0
  6
DASHED
 62
   249
 10
90.0
 20
162.5
 30
0.0
 11
90.0
 21
141.100824
 31
0.0
  0
LINE
  8
0
  6
DASHED
 62
   249
 10
70.0
 20
162.5
 30
0.0
 11
70.0
 21
151.100824
 31
0.0
  0
TEXT
  8
0
  6
CONTINUOUS
 62
   249
 10
53.413303
 20
175.010709
 30
0.0
 40
2.0
  1
SGR
  7
ROMANS
  0
LINE
  8
0
  6
CONTINUOUS
 62
   249
 10
175.0
 20
192.5
 30
0.0
 11
175.0
 21
187.5
 31
0.0
  0
LINE
  8
0
  6
CENTER
 62
   249
 10
237.5
 20
245.0
 30
0.0
 11
237.5
 21
220.0
 31
0.0
  0
LINE
  8
0
  6
CONTINUOUS
 62
   249
 10
237.5
 20
227.5
 30
0.0
 11
237.5
 21
227.5
 31
0.0
  0
LINE
  8
0
  6
CONTINUOUS
 62
   249
 10
220.0
 20
195.0
 30
0.0
 11
215.0
 21
195.0
 31
0.0
  0
LINE
  8
0
  6
CONTINUOUS
 62
   249
 10
339.970886
 20
235.0
 30
0.0
 11
359.970886
 21
235.0
 31
0.0
  0
LINE
  8
0
  6
CONTINUOUS
 62
   249
 10
339.970886
 20
255.0
 30
0.0
 11
359.970886
 21
255.0
 31
0.0
  0
LINE
  8
0
  6
CONTINUOUS
 62
   249
 10
359.970886
 20
255.0
 30
0.0
 11
359.970886
 21
235.0
 31
0.0
  0
LINE
  8
0
  6
CONTINUOUS
 62
   249
 10
339.970886
 20
235.0
 30
0.0
 11
339.970886
 21
255.0
 31
0.0
  0
LINE
  8
0
  6
DASHED
 62
   249
 10
242.5
 20
177.5
 30
0.0
 11
270.0
 21
177.5
 31
0.0
  0
LINE
  8
0
  6
CONTINUOUS
 62
   249
 10
246.285541
 20
176.75712
 30
0.0
 11
247.502248
 21
178.167057
 31
0.0
  0
TEXT
  8
0
  6
CONTINUOUS
 62
   249
 10
247.258907
 20
179.070297
 30
0.0
 40
2.0
  1
9
  7
ROMANS
  0
LINE
  8
0
  6
DASHED
 62
   249
 10
20.0
 20
152.5
 30
0.0
 11
12.5
 21
152.5
 31
0.0
  0
LINE
  8
0
  6
DASHED
 62
   249
 10
20.0
 20
142.5
 30
0.0
 11
12.5
 21
142.5
 31
0.0
  0
LINE
  8
0
  6
DASHED
 62
   249
 10
20.0
 20
132.5
 30
0.0
 11
12.5
 21
132.5
 31
0.0
  0
LINE
  8
0
  6
DASHED
 62
   249
 10
20.0
 20
122.5
 30
0.0
 11
12.5
 21
122.5
 31
0.0
  0
LINE
  8
0
  6
DASHED
 62
   249
 10
20.0
 20
112.5
 30
0.0
 11
12.5
 21
112.5
 31
0.0
  0
LINE
  8
0
  6
DASHED
 62
   249
 10
20.0
 20
97.5
 30
0.0
 11
12.5
 21
97.5
 31
0.0
  0
LINE
  8
0
  6
CONTINUOUS
 62
   249
 10
10.0
 20
153.0
 30
0.0
 11
10.0
 21
142.0
 31
0.0
  0
LINE
  8
0
  6
CONTINUOUS
 62
   249
 10
10.0
 20
153.0
 30
0.0
 11
11.0
 21
154.0
 31
0.0
  0
LINE
  8
0
  6
CONTINUOUS
 62
   249
 10
10.0
 20
142.0
 30
0.0
 11
11.0
 21
141.0
 31
0.0
  0
LINE
  8
0
  6
CONTINUOUS
 62
   249
 10
10.0
 20
112.0
 30
0.0
 11
11.0
 21
111.0
 31
0.0
  0
LINE
  8
0
  6
CONTINUOUS
 62
   249
 10
10.0
 20
133.0
 30
0.0
 11
10.0
 21
112.0
 31
0.0
  0
LINE
  8
0
  6
CONTINUOUS
 62
   249
 10
10.0
 20
133.0
 30
0.0
 11
11.0
 21
134.0
 31
0.0
  0
TEXT
  8
0
  6
CONTINUOUS
 62
   249
 10
2.5
 20
147.080516
 30
0.0
 40
2.0
  1
3)
  7
ROMANS
  0
TEXT
  8
0
  6
CONTINUOUS
 62
   249
 10
2.5
 20
121.490278
 30
0.0
 40
2.0
  1
4)
  7
ROMANS
  0
TEXT
  8
0
  6
CONTINUOUS
 62
   249
 10
2.5
 20
96.480208
 30
0.0
 40
2.0
  1
5)
  7
ROMANS
  0
LINE
  8
0
  6
CONTINUOUS
 62
   249
 10
55.0
 20
235.0
 30
0.0
 11
45.0
 21
235.0
 31
0.0
  0
LINE
  8
0
  6
CONTINUOUS
 62
   249
 10
57.798812
 20
235.0
 30
0.0
 11
53.098812
 21
235.0
 31
0.0
  0
LINE
  8
0
  6
CONTINUOUS
 62
   249
 10
55.0
 20
240.0
 30
0.0
 11
52.5
 21
240.0
 31
0.0
  0
LINE
  8
0
  6
CONTINUOUS
 62
   249
 10
57.798812
 20
240.0
 30
0.0
 11
45.0
 21
240.0
 31
0.0
  0
LINE
  8
0
 62
   249
 10
57.798812
 20
241.589925
 30
0.0
 11
57.798812
 21
233.4
 31
0.0
  0
LINE
  8
0
 62
   249
 10
62.004853
 20
241.59384
 30
0.0
 11
60.09105
 21
239.315018
 31
0.0
  0
LINE
  8
0
 62
   249
 10
63.496971
 20
241.59384
 30
0.0
 11
61.642636
 21
239.315018
 31
0.0
  0
LINE
  8
0
 62
   249
 10
65.221556
 20
241.589925
 30
0.0
 11
57.798812
 21
241.589925
 31
0.0
  0
LINE
  8
0
 62
   249
 10
57.798812
 20
233.4
 30
0.0
 11
65.221556
 21
233.4
 31
0.0
  0
LINE
  8
0
 62
   249
 10
65.221556
 20
233.4
 30
0.0
 11
65.221556
 21
241.589925
 31
0.0
  0
LINE
  8
0
  6
CONTINUOUS
 62
   249
 10
65.221556
 20
237.5
 30
0.0
 11
162.5
 21
237.5
 31
0.0
  0
LINE
  8
0
  6
CONTINUOUS
 62
   249
 10
67.5
 20
152.5
 30
0.0
 11
45.0
 21
152.5
 31
0.0
  0
TEXT
  8
0
  6
DASHED
 62
   249
 10
197.387534
 20
224.310712
 30
0.0
 40
2.5
  1
U
  0
TEXT
  8
0
  6
DASHED
 62
   249
 10
176.298048
 20
228.476412
 30
0.0
 40
2.5
  1
U
  0
TEXT
  8
0
  6
DASHED
 62
   249
 10
176.298048
 20
220.976412
 30
0.0
 40
2.5
  1
U
  0
TEXT
  8
0
  6
CONTINUOUS
 62
   249
 10
175.906909
 20
224.763189
 30
0.0
 40
1.5
  1
EN
  0
LINE
  8
0
  6
CONTINUOUS
 62
   249
 10
180.0
 20
225.521206
 30
0.0
 11
182.5
 21
225.521206
 31
0.0
  0
LINE
  8
0
  6
CONTINUOUS
 62
   249
 10
185.0
 20
225.521206
 30
0.0
 11
182.775553
 21
224.960564
 31
0.0
  0
LINE
  8
0
  6
CONTINUOUS
 62
   249
 10
185.0
 20
225.521206
 30
0.0
 11
187.5
 21
225.521206
 31
0.0
  0
ARC
  8
0
  6
HIDDEN
 62
   249
 10
193.152505
 20
206.29374
 30
0.0
 40
4.998196
 50
206.402922
 51
282.21115
  0
LINE
  8
0
  6
CONTINUOUS
 62
   249
 10
194.241301
 20
203.210474
 30
0.0
 11
194.241301
 21
201.422343
 31
0.0
  0
LINE
  8
0
  6
CONTINUOUS
 62
   249
 10
191.287189
 20
204.563359
 30
0.0
 11
192.187866
 21
203.43961
 31
0.0
  0
LINE
  8
0
  6
CONTINUOUS
 62
   249
 10
188.841782
 20
201.197593
 30
0.0
 11
191.717892
 21
204.026152
 31
0.0
  0
LINE
  8
0
  6
CONTINUOUS
 62
   249
 10
186.457637
 20
202.365196
 30
0.0
 11
194.245842
 21
202.365196
 31
0.0
  0
LINE
  8
0
  6
CONTINUOUS
 62
   249
 10
186.426606
 20
203.210474
 30
0.0
 11
186.426606
 21
201.422343
 31
0.0
  0
LINE
  8
0
  6
CONTINUOUS
 62
   249
 10
175.0
 20
220.0
 30
0.0
 11
205.450615
 21
220.0
 31
0.0
  0
CIRCLE
  8
0
  6
CONTINUOUS
 62
   249
 10
173.999701
 20
225.516691
 30
0.0
 40
1.0
  0
LINE
  8
0
  6
CONTINUOUS
 62
   249
 10
193.967927
 20
230.133771
 30
0.0
 11
193.967927
 21
228.345639
 31
0.0
  0
LINE
  8
0
  6
CONTINUOUS
 62
   249
 10
190.990396
 20
231.486655
 30
0.0
 11
191.891073
 21
230.362906
 31
0.0
  0
LINE
  8
0
  6
CONTINUOUS
 62
   249
 10
188.568408
 20
228.12089
 30
0.0
 11
191.444519
 21
230.949448
 31
0.0
  0
LINE
  8
0
  6
CONTINUOUS
 62
   249
 10
186.184263
 20
229.288492
 30
0.0
 11
193.972468
 21
229.288492
 31
0.0
  0
LINE
  8
0
  6
CONTINUOUS
 62
   249
 10
186.153232
 20
230.133771
 30
0.0
 11
186.153232
 21
228.345639
 31
0.0
  0
LINE
  8
0
  6
CONTINUOUS
 62
   249
 10
186.153232
 20
222.639918
 30
0.0
 11
186.153232
 21
220.851787
 31
0.0
  0
LINE
  8
0
  6
CONTINUOUS
 62
   249
 10
186.184263
 20
221.79464
 30
0.0
 11
193.972468
 21
221.79464
 31
0.0
  0
LINE
  8
0
  6
CONTINUOUS
 62
   249
 10
188.568408
 20
220.627037
 30
0.0
 11
191.444519
 21
223.455596
 31
0.0
  0
LINE
  8
0
  6
CONTINUOUS
 62
   249
 10
190.990396
 20
223.992802
 30
0.0
 11
191.891073
 21
222.869053
 31
0.0
  0
LINE
  8
0
  6
CONTINUOUS
 62
   249
 10
193.967927
 20
222.639918
 30
0.0
 11
193.967927
 21
220.851787
 31
0.0
  0
LINE
  8
0
  6
CONTINUOUS
 62
   249
 10
185.601149
 20
222.181231
 30
0.0
 11
183.255384
 21
220.991312
 31
0.0
  0
LINE
  8
0
  6
CONTINUOUS
 62
   249
 10
181.602044
 20
223.516585
 30
0.0
 11
183.947809
 21
222.181231
 31
0.0
  0
LINE
  8
0
  6
CONTINUOUS
 62
   249
 10
183.947809
 20
222.181231
 30
0.0
 11
181.602044
 21
220.991312
 31
0.0
  0
LINE
  8
0
  6
CONTINUOUS
 62
   249
 10
183.255384
 20
223.516585
 30
0.0
 11
185.601149
 21
222.181231
 31
0.0
  0
TEXT
  8
0
  6
DASHED
 62
   249
 10
176.298048
 20
212.975623
 30
0.0
 40
2.5
  1
U
  0
TEXT
  8
0
  6
DASHED
 62
   249
 10
176.298048
 20
216.464207
 30
0.0
 40
2.5
  1
U
  0
LINE
  8
0
  6
CONTINUOUS
 62
   249
 10
186.426606
 20
214.969656
 30
0.0
 11
186.426606
 21
213.181525
 31
0.0
  0
LINE
  8
0
  6
CONTINUOUS
 62
   249
 10
186.457637
 20
214.124377
 30
0.0
 11
194.245842
 21
214.124377
 31
0.0
  0
LINE
  8
0
  6
CONTINUOUS
 62
   249
 10
188.841782
 20
212.956775
 30
0.0
 11
191.717892
 21
215.785333
 31
0.0
  0
LINE
  8
0
  6
CONTINUOUS
 62
   249
 10
191.287189
 20
216.32254
 30
0.0
 11
192.187866
 21
215.198791
 31
0.0
  0
LINE
  8
0
  6
CONTINUOUS
 62
   249
 10
194.241301
 20
214.969656
 30
0.0
 11
194.241301
 21
213.181525
 31
0.0
  0
ARC
  8
0
  6
HIDDEN
 62
   249
 10
193.152505
 20
218.052922
 30
0.0
 40
4.998196
 50
206.402922
 51
282.21115
  0
LINE
  8
0
  6
CONTINUOUS
 62
   249
 10
175.0
 20
207.5
 30
0.0
 11
195.0
 21
207.5
 31
0.0
  0
TEXT
  8
0
  6
DASHED
 62
   249
 10
176.298048
 20
208.635661
 30
0.0
 40
2.5
  1
U
  0
TEXT
  8
0
  6
DASHED
 62
   249
 10
176.298048
 20
200.998035
 30
0.0
 40
2.5
  1
U
  0
TEXT
  8
0
  6
DASHED
 62
   249
 10
197.387534
 20
207.879495
 30
0.0
 40
2.5
  1
U
  0
LINE
  8
0
  6
CONTINUOUS
 62
   249
 10
60.0
 20
165.0
 30
0.0
 11
80.0
 21
165.0
 31
0.0
  0
LINE
  8
0
  6
CONTINUOUS
 62
   249
 10
60.0
 20
170.0
 30
0.0
 11
60.0
 21
165.0
 31
0.0
  0
LINE
  8
0
  6
CONTINUOUS
 62
   249
 10
80.0
 20
170.0
 30
0.0
 11
80.0
 21
165.0
 31
0.0
  0
LINE
  8
0
  6
CONTINUOUS
 62
   249
 10
80.0
 20
170.0
 30
0.0
 11
60.0
 21
170.0
 31
0.0
  0
LINE
  8
0
  6
CONTINUOUS
 62
   249
 10
70.0
 20
165.0
 30
0.0
 11
70.0
 21
162.5
 31
0.0
  0
LINE
  8
0
  6
CONTINUOUS
 62
   249
 10
70.0
 20
165.0
 30
0.0
 11
70.0
 21
162.5
 31
0.0
  0
LINE
  8
0
  6
CONTINUOUS
 62
   249
 10
69.259134
 20
167.789195
 30
0.0
 11
66.913369
 21
166.599276
 31
0.0
  0
LINE
  8
0
  6
CONTINUOUS
 62
   249
 10
66.905327
 20
165.799262
 30
0.0
 11
69.288787
 21
166.987454
 31
0.0
  0
LINE
  8
0
  6
CONTINUOUS
 62
   249
 10
66.913369
 20
169.124549
 30
0.0
 11
69.259134
 21
167.789195
 31
0.0
  0
TEXT
  8
0
  6
CONTINUOUS
 62
   249
 10
71.34723
 20
166.464455
 30
0.0
 40
2.5
  1
1
 11
71.34723
 21
165.631122
 31
0.0
 73
     1
  0
LINE
  8
0
  6
CONTINUOUS
 62
   249
 10
62.5
 20
172.5
 30
0.0
 11
60.785914
 21
177.586297
 31
0.0
  0
LINE
  8
0
  6
CONTINUOUS
 62
   249
 10
62.5
 20
170.0
 30
0.0
 11
62.5
 21
172.5
 31
0.0
  0
LINE
  8
0
  6
CONTINUOUS
 62
   249
 10
67.5
 20
172.5
 30
0.0
 11
65.785914
 21
177.586297
 31
0.0
  0
LINE
  8
0
  6
CONTINUOUS
 62
   249
 10
67.5
 20
170.0
 30
0.0
 11
67.5
 21
172.5
 31
0.0
  0
LINE
  8
0
  6
CONTINUOUS
 62
   249
 10
77.5
 20
170.0
 30
0.0
 11
77.5
 21
172.5
 31
0.0
  0
LINE
  8
0
  6
CONTINUOUS
 62
   249
 10
77.5
 20
172.5
 30
0.0
 11
75.785914
 21
177.586297
 31
0.0
  0
LINE
  8
0
  6
CONTINUOUS
 62
   249
 10
72.5
 20
170.0
 30
0.0
 11
72.5
 21
172.5
 31
0.0
  0
LINE
  8
0
  6
CONTINUOUS
 62
   249
 10
72.5
 20
172.5
 30
0.0
 11
70.785914
 21
177.586297
 31
0.0
  0
LINE
  8
0
  6
CONTINUOUS
 62
   249
 10
95.0
 20
172.5
 30
0.0
 11
93.285914
 21
177.586297
 31
0.0
  0
LINE
  8
0
  6
CONTINUOUS
 62
   249
 10
95.0
 20
170.0
 30
0.0
 11
95.0
 21
172.5
 31
0.0
  0
LINE
  8
0
  6
CONTINUOUS
 62
   249
 10
90.0
 20
170.0
 30
0.0
 11
90.0
 21
222.141632
 31
0.0
  0
LINE
  8
0
  6
CONTINUOUS
 62
   249
 10
85.0
 20
170.0
 30
0.0
 11
85.0
 21
172.5
 31
0.0
  0
LINE
  8
0
  6
CONTINUOUS
 62
   249
 10
85.0
 20
172.5
 30
0.0
 11
83.285914
 21
177.586297
 31
0.0
  0
TEXT
  8
0
  6
CONTINUOUS
 62
   249
 10
91.473522
 20
166.464455
 30
0.0
 40
2.5
  1
1
 11
91.473522
 21
165.631122
 31
0.0
 73
     1
  0
LINE
  8
0
  6
CONTINUOUS
 62
   249
 10
87.03966
 20
169.124549
 30
0.0
 11
89.385426
 21
167.789195
 31
0.0
  0
LINE
  8
0
  6
CONTINUOUS
 62
   249
 10
87.031619
 20
165.799262
 30
0.0
 11
89.415079
 21
166.987454
 31
0.0
  0
LINE
  8
0
  6
CONTINUOUS
 62
   249
 10
89.385426
 20
167.789195
 30
0.0
 11
87.03966
 21
166.599276
 31
0.0
  0
LINE
  8
0
  6
CONTINUOUS
 62
   249
 10
97.5
 20
170.0
 30
0.0
 11
82.5
 21
170.0
 31
0.0
  0
LINE
  8
0
  6
CONTINUOUS
 62
   249
 10
97.5
 20
170.0
 30
0.0
 11
97.5
 21
165.0
 31
0.0
  0
LINE
  8
0
  6
CONTINUOUS
 62
   249
 10
82.5
 20
170.0
 30
0.0
 11
82.5
 21
165.0
 31
0.0
  0
LINE
  8
0
  6
CONTINUOUS
 62
   249
 10
82.5
 20
165.0
 30
0.0
 11
97.5
 21
165.0
 31
0.0
  0
LINE
  8
0
  6
CONTINUOUS
 62
   249
 10
100.0
 20
165.0
 30
0.0
 11
115.0
 21
165.0
 31
0.0
  0
LINE
  8
0
  6
CONTINUOUS
 62
   249
 10
100.0
 20
170.0
 30
0.0
 11
100.0
 21
165.0
 31
0.0
  0
LINE
  8
0
  6
CONTINUOUS
 62
   249
 10
115.0
 20
170.0
 30
0.0
 11
115.0
 21
165.0
 31
0.0
  0
LINE
  8
0
  6
CONTINUOUS
 62
   249
 10
115.0
 20
170.0
 30
0.0
 11
100.0
 21
170.0
 31
0.0
  0
LINE
  8
0
  6
CONTINUOUS
 62
   249
 10
106.885426
 20
167.789195
 30
0.0
 11
104.53966
 21
166.599276
 31
0.0
  0
LINE
  8
0
  6
CONTINUOUS
 62
   249
 10
104.531619
 20
165.799262
 30
0.0
 11
106.915079
 21
166.987454
 31
0.0
  0
LINE
  8
0
  6
CONTINUOUS
 62
   249
 10
104.53966
 20
169.124549
 30
0.0
 11
106.885426
 21
167.789195
 31
0.0
  0
TEXT
  8
0
  6
CONTINUOUS
 62
   249
 10
108.973522
 20
166.464455
 30
0.0
 40
2.5
  1
1
 11
108.973522
 21
165.631122
 31
0.0
 73
     1
  0
LINE
  8
0
  6
CONTINUOUS
 62
   249
 10
102.5
 20
170.0
 30
0.0
 11
102.5
 21
214.092853
 31
0.0
  0
LINE
  8
0
  6
CONTINUOUS
 62
   249
 10
120.0
 20
170.0
 30
0.0
 11
120.0
 21
202.347111
 31
0.0
  0
TEXT
  8
0
  6
CONTINUOUS
 62
   249
 10
126.473522
 20
166.464455
 30
0.0
 40
2.5
  1
1
 11
126.473522
 21
165.631122
 31
0.0
 73
     1
  0
LINE
  8
0
  6
CONTINUOUS
 62
   249
 10
122.03966
 20
169.124549
 30
0.0
 11
124.385426
 21
167.789195
 31
0.0
  0
LINE
  8
0
  6
CONTINUOUS
 62
   249
 10
122.031619
 20
165.799262
 30
0.0
 11
124.415079
 21
166.987454
 31
0.0
  0
LINE
  8
0
  6
CONTINUOUS
 62
   249
 10
124.385426
 20
167.789195
 30
0.0
 11
122.03966
 21
166.599276
 31
0.0
  0
LINE
  8
0
  6
CONTINUOUS
 62
   249
 10
132.5
 20
170.0
 30
0.0
 11
117.5
 21
170.0
 31
0.0
  0
LINE
  8
0
  6
CONTINUOUS
 62
   249
 10
132.5
 20
170.0
 30
0.0
 11
132.5
 21
165.0
 31
0.0
  0
LINE
  8
0
  6
CONTINUOUS
 62
   249
 10
117.5
 20
170.0
 30
0.0
 11
117.5
 21
165.0
 31
0.0
  0
LINE
  8
0
  6
CONTINUOUS
 62
   249
 10
117.5
 20
165.0
 30
0.0
 11
132.5
 21
165.0
 31
0.0
  0
LINE
  8
0
  6
CONTINUOUS
 62
   249
 10
125.0
 20
170.0
 30
0.0
 11
125.0
 21
172.5
 31
0.0
  0
LINE
  8
0
  6
CONTINUOUS
 62
   249
 10
125.0
 20
172.5
 30
0.0
 11
123.285914
 21
177.586297
 31
0.0
  0
LINE
  8
0
  6
CONTINUOUS
 62
   249
 10
107.5
 20
172.5
 30
0.0
 11
105.785914
 21
177.586297
 31
0.0
  0
LINE
  8
0
  6
CONTINUOUS
 62
   249
 10
107.5
 20
170.0
 30
0.0
 11
107.5
 21
172.5
 31
0.0
  0
LINE
  8
0
  6
CONTINUOUS
 62
   249
 10
124.968713
 20
177.5
 30
0.0
 11
124.968713
 21
210.0
 31
0.0
  0
LINE
  8
0
  6
CONTINUOUS
 62
   249
 10
107.468713
 20
177.5
 30
0.0
 11
107.468713
 21
217.630392
 31
0.0
  0
LINE
  8
0
  6
CONTINUOUS
 62
   249
 10
94.968713
 20
177.5
 30
0.0
 11
94.968713
 21
202.347111
 31
0.0
  0
LINE
  8
0
  6
CONTINUOUS
 62
   249
 10
84.968713
 20
177.5
 30
0.0
 11
84.968713
 21
214.092853
 31
0.0
  0
LINE
  8
0
  6
CONTINUOUS
 62
   249
 10
72.468713
 20
177.5
 30
0.0
 11
72.468713
 21
202.347111
 31
0.0
  0
LINE
  8
0
  6
CONTINUOUS
 62
   249
 10
62.273174
 20
177.5
 30
0.0
 11
62.273174
 21
214.092853
 31
0.0
  0
LINE
  8
0
  6
CONTINUOUS
 62
   249
 10
175.0
 20
202.347111
 30
0.0
 11
72.468713
 21
202.347111
 31
0.0
  0
LINE
  8
0
  6
CONTINUOUS
 62
   249
 10
175.0
 20
210.0
 30
0.0
 11
124.968713
 21
210.0
 31
0.0
  0
LINE
  8
0
  6
CONTINUOUS
 62
   249
 10
175.0
 20
214.092853
 30
0.0
 11
62.273174
 21
214.092853
 31
0.0
  0
LINE
  8
0
  6
CONTINUOUS
 62
   249
 10
175.0
 20
217.630392
 30
0.0
 11
107.468713
 21
217.630392
 31
0.0
  0
LINE
  8
0
  6
CONTINUOUS
 62
   249
 10
72.5
 20
182.5
 30
0.0
 11
72.5
 21
177.5
 31
0.0
  0
LINE
  8
0
  6
CONTINUOUS
 62
   249
 10
85.0
 20
182.5
 30
0.0
 11
85.0
 21
177.5
 31
0.0
  0
LINE
  8
0
  6
CONTINUOUS
 62
   249
 10
95.0
 20
182.5
 30
0.0
 11
95.0
 21
177.5
 31
0.0
  0
LINE
  8
0
  6
CONTINUOUS
 62
   249
 10
125.0
 20
182.5
 30
0.0
 11
125.0
 21
177.5
 31
0.0
  0
LINE
  8
0
  6
CONTINUOUS
 62
   249
 10
175.0
 20
229.753087
 30
0.0
 11
67.5
 21
229.753087
 31
0.0
  0
LINE
  8
0
  6
CONTINUOUS
 62
   249
 10
67.5
 20
177.5
 30
0.0
 11
67.5
 21
229.753087
 31
0.0
  0
LINE
  8
0
  6
CONTINUOUS
 62
   249
 10
175.0
 20
222.141632
 30
0.0
 11
77.5
 21
222.141632
 31
0.0
  0
LINE
  8
0
  6
CONTINUOUS
 62
   249
 10
77.5
 20
177.5
 30
0.0
 11
77.5
 21
222.141632
 31
0.0
  0
TEXT
  8
0
  6
CONTINUOUS
 62
   249
 10
63.19994
 20
175.0
 30
0.0
 40
2.0
  1
1
  7
ROMANS
  0
TEXT
  8
0
  6
CONTINUOUS
 62
   249
 10
68.19994
 20
175.0
 30
0.0
 40
2.0
  1
3
  7
ROMANS
  0
TEXT
  8
0
  6
CONTINUOUS
 62
   249
 10
73.19994
 20
175.0
 30
0.0
 40
2.0
  1
2
  7
ROMANS
  0
TEXT
  8
0
  6
CONTINUOUS
 62
   249
 10
78.19994
 20
175.0
 30
0.0
 40
2.0
  1
4
  7
ROMANS
  0
TEXT
  8
0
  6
CONTINUOUS
 62
   249
 10
85.69994
 20
175.0
 30
0.0
 40
2.0
  1
5
  7
ROMANS
  0
TEXT
  8
0
  6
CONTINUOUS
 62
   249
 10
95.69994
 20
175.0
 30
0.0
 40
2.0
  1
6
  7
ROMANS
  0
TEXT
  8
0
  6
CONTINUOUS
 62
   249
 10
108.19994
 20
175.0
 30
0.0
 40
2.0
  1
7
  7
ROMANS
  0
TEXT
  8
0
  6
CONTINUOUS
 62
   249
 10
125.69994
 20
175.0
 30
0.0
 40
2.0
  1
8
  7
ROMANS
  0
LINE
  8
0
  6
CONTINUOUS
 62
   249
 10
172.999836
 20
233.014298
 30
0.0
 11
162.5
 21
233.014298
 31
0.0
  0
LINE
  8
0
  6
CONTINUOUS
 62
   249
 10
162.5
 20
205.783996
 30
0.0
 11
162.5
 21
237.5
 31
0.0
  0
LINE
  8
0
  6
CONTINUOUS
 62
   249
 10
173.000093
 20
205.783996
 30
0.0
 11
162.5
 21
205.783996
 31
0.0
  0
LINE
  8
0
  6
CONTINUOUS
 62
   249
 10
172.999707
 20
225.51836
 30
0.0
 11
162.5
 21
225.51836
 31
0.0
  0
LINE
  8
0
  6
CONTINUOUS
 62
   249
 10
87.5
 20
137.5
 30
0.0
 11
87.5
 21
140.0
 31
0.0
  0
LINE
  8
0
  6
CONTINUOUS
 62
   249
 10
87.5
 20
137.5
 30
0.0
 11
45.0
 21
137.5
 31
0.0
  0
LINE
  8
0
  6
CONTINUOUS
 62
   249
 10
92.5
 20
142.5
 30
0.0
 11
86.756076
 21
139.285297
 31
0.0
  0
LINE
  8
0
  6
CONTINUOUS
 62
   249
 10
45.0
 20
142.5
 30
0.0
 11
87.5
 21
142.5
 31
0.0
  0
LINE
  8
0
  6
CONTINUOUS
 62
   249
 10
92.5
 20
142.5
 30
0.0
 11
97.5
 21
142.5
 31
0.0
  0
LINE
  8
0
  6
CONTINUOUS
 62
   249
 10
105.0
 20
127.5
 30
0.0
 11
105.0
 21
130.0
 31
0.0
  0
LINE
  8
0
  6
CONTINUOUS
 62
   249
 10
105.0
 20
127.5
 30
0.0
 11
45.0
 21
127.5
 31
0.0
  0
LINE
  8
0
  6
CONTINUOUS
 62
   249
 10
110.0
 20
132.5
 30
0.0
 11
104.256076
 21
129.285297
 31
0.0
  0
LINE
  8
0
  6
CONTINUOUS
 62
   249
 10
45.0
 20
132.5
 30
0.0
 11
105.0
 21
132.5
 31
0.0
  0
LINE
  8
0
  6
CONTINUOUS
 62
   249
 10
110.0
 20
132.5
 30
0.0
 11
115.0
 21
132.5
 31
0.0
  0
LINE
  8
0
  6
CONTINUOUS
 62
   249
 10
122.5
 20
117.5
 30
0.0
 11
122.5
 21
120.0
 31
0.0
  0
LINE
  8
0
  6
CONTINUOUS
 62
   249
 10
122.5
 20
117.5
 30
0.0
 11
117.5
 21
117.5
 31
0.0
  0
LINE
  8
0
  6
CONTINUOUS
 62
   249
 10
127.5
 20
122.5
 30
0.0
 11
121.756076
 21
119.285297
 31
0.0
  0
LINE
  8
0
  6
CONTINUOUS
 62
   249
 10
117.5
 20
122.5
 30
0.0
 11
122.5
 21
122.5
 31
0.0
  0
LINE
  8
0
  6
CONTINUOUS
 62
   249
 10
127.5
 20
122.5
 30
0.0
 11
132.5
 21
122.5
 31
0.0
  0
LINE
  8
0
  6
CONTINUOUS
 62
   249
 10
137.5
 20
107.5
 30
0.0
 11
137.5
 21
110.0
 31
0.0
  0
LINE
  8
0
  6
CONTINUOUS
 62
   249
 10
137.5
 20
107.5
 30
0.0
 11
132.5
 21
107.5
 31
0.0
  0
LINE
  8
0
  6
CONTINUOUS
 62
   249
 10
142.5
 20
112.5
 30
0.0
 11
136.756076
 21
109.285297
 31
0.0
  0
LINE
  8
0
  6
CONTINUOUS
 62
   249
 10
132.5
 20
112.5
 30
0.0
 11
137.5
 21
112.5
 31
0.0
  0
LINE
  8
0
  6
CONTINUOUS
 62
   249
 10
142.5
 20
112.5
 30
0.0
 11
147.5
 21
112.5
 31
0.0
  0
LINE
  8
0
  6
CONTINUOUS
 62
   249
 10
150.0
 20
97.5
 30
0.0
 11
150.0
 21
100.0
 31
0.0
  0
LINE
  8
0
  6
CONTINUOUS
 62
   249
 10
150.0
 20
97.5
 30
0.0
 11
145.0
 21
97.5
 31
0.0
  0
LINE
  8
0
  6
CONTINUOUS
 62
   249
 10
155.0
 20
102.5
 30
0.0
 11
149.256076
 21
99.285297
 31
0.0
  0
LINE
  8
0
  6
CONTINUOUS
 62
   249
 10
145.0
 20
102.5
 30
0.0
 11
150.0
 21
102.5
 31
0.0
  0
LINE
  8
0
  6
CONTINUOUS
 62
   249
 10
155.0
 20
102.5
 30
0.0
 11
160.0
 21
102.5
 31
0.0
  0
LINE
  8
0
  6
CONTINUOUS
 62
   249
 10
167.5
 20
90.0
 30
0.0
 11
167.5
 21
112.5
 31
0.0
  0
LINE
  8
0
  6
CONTINUOUS
 62
   249
 10
172.5
 20
90.0
 30
0.0
 11
172.5
 21
122.5
 31
0.0
  0
LINE
  8
0
  6
CONTINUOUS
 62
   249
 10
177.5
 20
90.0
 30
0.0
 11
177.5
 21
132.5
 31
0.0
  0
LINE
  8
0
  6
CONTINUOUS
 62
   249
 10
177.5
 20
132.5
 30
0.0
 11
115.0
 21
132.5
 31
0.0
  0
LINE
  8
0
  6
CONTINUOUS
 62
   249
 10
182.5
 20
90.0
 30
0.0
 11
182.5
 21
142.5
 31
0.0
  0
LINE
  8
0
  6
CONTINUOUS
 62
   249
 10
182.5
 20
142.5
 30
0.0
 11
97.5
 21
142.5
 31
0.0
  0
TEXT
  8
0
  6
CONTINUOUS
 62
   249
 10
165.281607
 20
90.964216
 30
0.0
 40
2.0
  1
72
 50
90.0
  7
ROMANS
  0
TEXT
  8
0
  6
CONTINUOUS
 62
   249
 10
170.288709
 20
90.964216
 30
0.0
 40
2.0
  1
81
 50
90.0
  7
ROMANS
  0
TEXT
  8
0
  6
CONTINUOUS
 62
   249
 10
175.280595
 20
90.964216
 30
0.0
 40
2.0
  1
78
 50
90.0
  7
ROMANS
  0
TEXT
  8
0
  6
CONTINUOUS
 62
   249
 10
180.439858
 20
90.964216
 30
0.0
 40
2.0
  1
75
 50
90.0
  7
ROMANS
  0
TEXT
  8
0
  6
CONTINUOUS
 62
   249
 10
185.583905
 20
90.964216
 30
0.0
 40
2.0
  1
69
 50
90.0
  7
ROMANS
  0
TEXT
  8
0
  6
CONTINUOUS
 62
   249
 10
190.57579
 20
90.964216
 30
0.0
 40
2.0
  1
66
 50
90.0
  7
ROMANS
  0
TEXT
  8
0
  6
CONTINUOUS
 62
   249
 10
210.327273
 20
90.964216
 30
0.0
 40
2.0
  1
61
 50
90.0
  7
ROMANS
  0
TEXT
  8
0
  6
CONTINUOUS
 62
   249
 10
215.486536
 20
90.964216
 30
0.0
 40
2.0
  1
62
 50
90.0
  7
ROMANS
  0
TEXT
  8
0
  6
CONTINUOUS
 62
   249
 10
227.934301
 20
90.964216
 30
0.0
 40
2.0
  1
63
 50
90.0
  7
ROMANS
  0
TEXT
  8
0
  6
CONTINUOUS
 62
   249
 10
46.307083
 20
237.171485
 30
0.0
 40
2.0
  1
10
  7
ROMANS
  0
TEXT
  8
0
  6
CONTINUOUS
 62
   249
 10
46.307083
 20
232.251219
 30
0.0
 40
2.0
  1
11
  7
ROMANS
  0
TEXT
  8
0
  6
CONTINUOUS
 62
   249
 10
46.307083
 20
149.659373
 30
0.0
 40
2.0
  1
65
  7
ROMANS
  0
TEXT
  8
0
  6
CONTINUOUS
 62
   249
 10
46.307083
 20
139.824021
 30
0.0
 40
2.0
  1
68
  7
ROMANS
  0
TEXT
  8
0
  6
CONTINUOUS
 62
   249
 10
46.307083
 20
134.837632
 30
0.0
 40
2.0
  1
67
  7
ROMANS
  0
TEXT
  8
0
  6
CONTINUOUS
 62
   249
 10
46.307083
 20
129.685937
 30
0.0
 40
2.0
  1
74
  7
ROMANS
  0
TEXT
  8
0
  6
CONTINUOUS
 62
   249
 10
46.307083
 20
124.688527
 30
0.0
 40
2.0
  1
73
  7
ROMANS
  0
TEXT
  8
0
  6
CONTINUOUS
 62
   249
 10
46.307083
 20
119.691118
 30
0.0
 40
2.0
  1
77
  7
ROMANS
  0
TEXT
  8
0
  6
CONTINUOUS
 62
   249
 10
46.307083
 20
114.539423
 30
0.0
 40
2.0
  1
76
  7
ROMANS
  0
TEXT
  8
0
  6
CONTINUOUS
 62
   249
 10
46.307083
 20
109.696299
 30
0.0
 40
2.0
  1
80
  7
ROMANS
  0
TEXT
  8
0
  6
CONTINUOUS
 62
   249
 10
46.307083
 20
104.69889
 30
0.0
 40
2.0
  1
79
  7
ROMANS
  0
TEXT
  8
0
  6
CONTINUOUS
 62
   249
 10
46.307083
 20
99.40393
 30
0.0
 40
2.0
  1
70
  7
ROMANS
  0
TEXT
  8
0
  6
CONTINUOUS
 62
   249
 10
46.307083
 20
94.704071
 30
0.0
 40
2.0
  1
71
  7
ROMANS
  0
LINE
  8
0
  6
CONTINUOUS
 62
   249
 10
205.450615
 20
227.5
 30
0.0
 11
215.0
 21
227.5
 31
0.0
  0
LINE
  8
0
  6
CONTINUOUS
 62
   249
 10
215.0
 20
227.5
 30
0.0
 11
215.0
 21
195.0
 31
0.0
  0
LINE
  8
0
  6
CONTINUOUS
 62
   249
 10
205.450615
 20
210.0
 30
0.0
 11
215.0
 21
210.0
 31
0.0
  0
TEXT
  8
0
  6
CONTINUOUS
 62
   249
 10
232.810567
 20
224.630303
 30
0.0
 40
2.0
  1
13
  7
ROMANS
  0
TEXT
  8
0
  6
CONTINUOUS
 62
   249
 10
232.810567
 20
219.632893
 30
0.0
 40
2.0
  1
14
  7
ROMANS
  0
TEXT
  8
0
  6
CONTINUOUS
 62
   249
 10
232.810567
 20
214.723647
 30
0.0
 40
2.0
  1
15
  7
ROMANS
  0
TEXT
  8
0
  6
CONTINUOUS
 62
   249
 10
232.141059
 20
196.991561
 30
0.0
 40
2.0
  1
28
  7
ROMANS
  0
TEXT
  8
0
  6
CONTINUOUS
 62
   249
 10
232.141059
 20
192.027212
 30
0.0
 40
2.0
  1
29
  7
ROMANS
  0
TEXT
  8
0
  6
CONTINUOUS
 62
   249
 10
232.141059
 20
186.897559
 30
0.0
 40
2.0
  1
30
  7
ROMANS
  0
LINE
  8
0
 62
   249
 10
222.5
 20
220.0
 30
0.0
 11
220.980133
 21
220.0
 31
0.0
  0
ARC
  8
0
 62
   249
 10
222.565849
 20
221.25
 30
0.0
 40
1.251733
 50
266.984476
 51
93.015524
  0
LINE
  8
0
 62
   249
 10
222.5
 20
222.5
 30
0.0
 11
220.980133
 21
222.5
 31
0.0
  0
LINE
  8
0
 62
   249
 10
222.5
 20
225.0
 30
0.0
 11
220.980133
 21
225.0
 31
0.0
  0
ARC
  8
0
 62
   249
 10
222.565849
 20
223.75
 30
0.0
 40
1.251733
 50
266.984476
 51
93.015524
  0
LINE
  8
0
 62
   249
 10
227.5
 20
217.5
 30
0.0
 11
230.0
 21
217.5
 31
0.0
  0
ARC
  8
0
 62
   249
 10
227.434151
 20
218.75
 30
0.0
 40
1.251733
 50
86.984476
 51
273.015524
  0
ARC
  8
0
 62
   249
 10
227.434151
 20
221.25
 30
0.0
 40
1.251733
 50
86.984476
 51
273.015524
  0
LINE
  8
0
 62
   249
 10
227.5
 20
220.0
 30
0.0
 11
230.0
 21
220.0
 31
0.0
  0
LINE
  8
0
 62
   249
 10
227.5
 20
222.5
 30
0.0
 11
230.0
 21
222.5
 31
0.0
  0
LINE
  8
0
 62
   249
 10
230.0
 20
222.5
 30
0.0
 11
232.5
 21
222.5
 31
0.0
  0
LINE
  8
0
 62
   249
 10
230.0
 20
217.5
 30
0.0
 11
237.5
 21
217.5
 31
0.0
  0
LINE
  8
0
 62
   249
 10
230.0
 20
222.5
 30
0.0
 11
237.5
 21
222.5
 31
0.0
  0
LINE
  8
0
 62
   249
 10
230.0
 20
227.5
 30
0.0
 11
237.5
 21
227.5
 31
0.0
  0
LINE
  8
0
 62
   249
 10
227.5
 20
227.5
 30
0.0
 11
230.0
 21
227.5
 31
0.0
  0
LINE
  8
0
 62
   249
 10
227.5
 20
225.0
 30
0.0
 11
230.0
 21
225.0
 31
0.0
  0
ARC
  8
0
 62
   249
 10
227.434151
 20
226.25
 30
0.0
 40
1.251733
 50
86.984476
 51
273.015524
  0
ARC
  8
0
 62
   249
 10
227.434151
 20
223.75
 30
0.0
 40
1.251733
 50
86.984476
 51
273.015524
  0
LINE
  8
0
 62
   249
 10
227.5
 20
222.5
 30
0.0
 11
230.0
 21
222.5
 31
0.0
  0
LINE
  8
0
 62
   249
 10
222.5
 20
192.5
 30
0.0
 11
220.980133
 21
192.5
 31
0.0
  0
ARC
  8
0
 62
   249
 10
222.565849
 20
193.75
 30
0.0
 40
1.251733
 50
266.984476
 51
93.015524
  0
LINE
  8
0
 62
   249
 10
222.5
 20
195.0
 30
0.0
 11
220.980133
 21
195.0
 31
0.0
  0
LINE
  8
0
 62
   249
 10
222.5
 20
197.5
 30
0.0
 11
220.980133
 21
197.5
 31
0.0
  0
ARC
  8
0
 62
   249
 10
222.565849
 20
196.25
 30
0.0
 40
1.251733
 50
266.984476
 51
93.015524
  0
LINE
  8
0
 62
   249
 10
227.5
 20
190.0
 30
0.0
 11
230.0
 21
190.0
 31
0.0
  0
ARC
  8
0
 62
   249
 10
227.434151
 20
191.25
 30
0.0
 40
1.251733
 50
86.984476
 51
273.015524
  0
ARC
  8
0
 62
   249
 10
227.434151
 20
193.75
 30
0.0
 40
1.251733
 50
86.984476
 51
273.015524
  0
LINE
  8
0
 62
   249
 10
227.5
 20
192.5
 30
0.0
 11
230.0
 21
192.5
 31
0.0
  0
LINE
  8
0
 62
   249
 10
227.5
 20
195.0
 30
0.0
 11
230.0
 21
195.0
 31
0.0
  0
LINE
  8
0
 62
   249
 10
230.0
 20
195.0
 30
0.0
 11
232.5
 21
195.0
 31
0.0
  0
LINE
  8
0
 62
   249
 10
230.0
 20
190.0
 30
0.0
 11
237.5
 21
190.0
 31
0.0
  0
LINE
  8
0
 62
   249
 10
230.0
 20
195.0
 30
0.0
 11
237.5
 21
195.0
 31
0.0
  0
LINE
  8
0
 62
   249
 10
230.0
 20
200.0
 30
0.0
 11
237.5
 21
200.0
 31
0.0
  0
LINE
  8
0
 62
   249
 10
227.5
 20
200.0
 30
0.0
 11
230.0
 21
200.0
 31
0.0
  0
LINE
  8
0
 62
   249
 10
227.5
 20
197.5
 30
0.0
 11
230.0
 21
197.5
 31
0.0
  0
ARC
  8
0
 62
   249
 10
227.434151
 20
198.75
 30
0.0
 40
1.251733
 50
86.984476
 51
273.015524
  0
ARC
  8
0
 62
   249
 10
227.434151
 20
196.25
 30
0.0
 40
1.251733
 50
86.984476
 51
273.015524
  0
LINE
  8
0
 62
   249
 10
227.5
 20
195.0
 30
0.0
 11
230.0
 21
195.0
 31
0.0
  0
LINE
  8
0
  6
CONTINUOUS
 62
   249
 10
243.5
 20
223.007073
 30
0.0
 11
242.5
 21
224.007073
 31
0.0
  0
LINE
  8
0
  6
CONTINUOUS
 62
   249
 10
243.5
 20
217.0
 30
0.0
 11
242.5
 21
216.0
 31
0.0
  0
LINE
  8
0
  6
CONTINUOUS
 62
   249
 10
243.5
 20
222.5
 30
0.0
 11
243.5
 21
217.0
 31
0.0
  0
LINE
  8
0
  6
CONTINUOUS
 62
   249
 10
237.5
 20
217.5
 30
0.0
 11
241.766471
 21
217.5
 31
0.0
  0
LINE
  8
0
  6
CONTINUOUS
 62
   249
 10
237.5
 20
222.5
 30
0.0
 11
241.766471
 21
222.5
 31
0.0
  0
TEXT
  8
0
  6
CONTINUOUS
 62
   249
 10
244.656135
 20
218.612094
 30
0.0
 40
2.0
  1
6)
  7
ROMANS
  0
TEXT
  8
0
  6
CONTINUOUS
 62
   249
 10
244.656135
 20
191.112094
 30
0.0
 40
2.0
  1
6)
  7
ROMANS
  0
LINE
  8
0
  6
CONTINUOUS
 62
   249
 10
237.5
 20
190.0
 30
0.0
 11
241.766471
 21
190.0
 31
0.0
  0
LINE
  8
0
  6
CONTINUOUS
 62
   249
 10
237.5
 20
195.0
 30
0.0
 11
241.766471
 21
195.0
 31
0.0
  0
TEXT
  8
0
  6
DASHED
 62
   249
 10
346.043856
 20
250.969341
 30
0.0
 40
2.5
  1
U
  0
LINE
  8
0
  6
CONTINUOUS
 62
   249
 10
351.65735
 20
253.608224
 30
0.0
 11
354.003115
 21
252.27287
 31
0.0
  0
LINE
  8
0
  6
CONTINUOUS
 62
   249
 10
354.003115
 20
252.27287
 30
0.0
 11
351.65735
 21
251.082951
 31
0.0
  0
LINE
  8
0
  6
CONTINUOUS
 62
   249
 10
353.123045
 20
243.52993
 30
0.0
 11
355.46881
 21
242.194576
 31
0.0
  0
LINE
  8
0
  6
CONTINUOUS
 62
   249
 10
353.678401
 20
242.194576
 30
0.0
 11
351.332636
 21
241.004657
 31
0.0
  0
LINE
  8
0
  6
CONTINUOUS
 62
   249
 10
351.332636
 20
243.52993
 30
0.0
 11
353.678401
 21
242.194576
 31
0.0
  0
LINE
  8
0
  6
CONTINUOUS
 62
   249
 10
355.46881
 20
242.194576
 30
0.0
 11
353.123045
 21
241.004657
 31
0.0
  0
TEXT
  8
0
  6
DASHED
 62
   249
 10
346.02864
 20
240.989757
 30
0.0
 40
2.5
  1
U
  0
LINE
  8
0
  6
CONTINUOUS
 62
   249
 10
345.571161
 20
247.650916
 30
0.0
 11
345.571161
 21
245.862785
 31
0.0
  0
LINE
  8
0
  6
CONTINUOUS
 62
   249
 10
345.602193
 20
246.805638
 30
0.0
 11
353.390398
 21
246.805638
 31
0.0
  0
LINE
  8
0
  6
CONTINUOUS
 62
   249
 10
347.986337
 20
245.638035
 30
0.0
 11
350.862448
 21
248.466594
 31
0.0
  0
LINE
  8
0
  6
CONTINUOUS
 62
   249
 10
350.431744
 20
249.003801
 30
0.0
 11
351.332421
 21
247.880051
 31
0.0
  0
LINE
  8
0
  6
CONTINUOUS
 62
   249
 10
353.385857
 20
247.650916
 30
0.0
 11
353.385857
 21
245.862785
 31
0.0
  0
TEXT
  8
0
  6
DASHED
 62
   249
 10
331.416379
 20
226.025916
 30
0.0
 40
2.0
  1
NEUTRAL VOLTAGE RELAY /
  7
ROMANS
  0
TEXT
  8
0
  6
DASHED
 62
   249
 10
331.416379
 20
222.692583
 30
0.0
 40
2.0
  1
NOLLPUNKTSSPÄNNINGSSKYDD
  7
ROMANS
  0
TEXT
  8
0
  6
DASHED
 62
   249
 10
334.497058
 20
91.413503
 30
0.0
 40
2.0
  1
TERMINALS / UTTAG
  7
ROMANS
  0
LINE
  8
0
  6
CONTINUOUS
 62
   249
 10
337.223544
 20
90.0
 30
0.0
 11
337.223544
 21
74.389956
 31
0.0
  0
LINE
  8
0
  6
CONTINUOUS
 62
   249
 10
329.723544
 20
90.0
 30
0.0
 11
374.723544
 21
90.0
 31
0.0
  0
LINE
  8
0
  6
CONTINUOUS
 62
   249
 10
329.723544
 20
80.0
 30
0.0
 11
374.723544
 21
80.0
 31
0.0
  0
LINE
  8
0
  6
CONTINUOUS
 62
   249
 10
355.838881
 20
74.389956
 30
0.0
 11
355.838881
 21
85.0
 31
0.0
  0
TEXT
  8
0
  6
CONTINUOUS
 62
   249
 10
339.853118
 20
80.99148
 30
0.0
 40
2.0
  1
Un=100V
  7
ROMANS
  0
TEXT
  8
0
  6
CONTINUOUS
 62
   249
 10
359.968775
 20
80.99148
 30
0.0
 40
2.0
  1
Un=110V
  7
ROMANS
  0
LINE
  8
0
  6
CONTINUOUS
 62
   249
 10
329.723544
 20
74.389956
 30
0.0
 11
329.723544
 21
95.0
 31
0.0
  0
LINE
  8
0
  6
CONTINUOUS
 62
   249
 10
329.723544
 20
95.0
 30
0.0
 11
374.723544
 21
95.0
 31
0.0
  0
LINE
  8
0
  6
CONTINUOUS
 62
   249
 10
374.723544
 20
95.0
 30
0.0
 11
374.723544
 21
74.389956
 31
0.0
  0
LINE
  8
0
  6
CONTINUOUS
 62
   249
 10
374.723544
 20
74.389956
 30
0.0
 11
329.723544
 21
74.389956
 31
0.0
  0
LINE
  8
0
  6
DASHED
 62
   249
 10
167.5
 20
65.0
 30
0.0
 11
167.5
 21
57.5
 31
0.0
  0
TEXT
  8
0
  6
CONTINUOUS
 62
   249
 10
323.181625
 20
139.835741
 30
0.0
 40
2.0
  1
1) EXTERNAL BLOCKING
  7
ROMANS
  0
TEXT
  8
0
  6
CONTINUOUS
 62
   249
 10
324.369239
 20
136.502408
 30
0.0
 40
2.0
  1
  EXTERN BLOCKERING
  7
ROMANS
  0
TEXT
  8
0
  6
CONTINUOUS
 62
   249
 10
323.015008
 20
121.502408
 30
0.0
 40
2.0
  1
3) TRIP ETC.    NOTE
  7
ROMANS
  0
TEXT
  8
0
  6
CONTINUOUS
 62
   249
 10
324.354023
 20
118.169074
 30
0.0
 40
2.0
  1
  UTLÖSNING MM.  OBS.
  7
ROMANS
  0
TEXT
  8
0
  6
CONTINUOUS
 62
   249
 10
323.015008
 20
112.335741
 30
0.0
 40
2.0
  1
4) START, ALARM ETC.
  7
ROMANS
  0
TEXT
  8
0
  6
CONTINUOUS
 62
   249
 10
324.354023
 20
109.002408
 30
0.0
 40
2.0
  1
  START, SIGNAL MM.
  7
ROMANS
  0
TEXT
  8
0
  6
CONTINUOUS
 62
   249
 10
323.015008
 20
103.169074
 30
0.0
 40
2.0
  1
5) INTERNAL RELAY FAULT
  7
ROMANS
  0
TEXT
  8
0
  6
CONTINUOUS
 62
   249
 10
324.346774
 20
99.835741
 30
0.0
 40
2.0
  1
  INTERNT RELÄFEL
  7
ROMANS
  0
TEXT
  8
0
  6
CONTINUOUS
 62
   249
 10
322.984576
 20
93.209823
 30
0.0
 40
2.0
  1
6)
  7
ROMANS
  0
TEXT
  8
0
  6
CONTINUOUS
 62
   249
 10
318.541011
 20
61.911968
 30
0.0
 40
2.0
  1
NOTE. ONLY CONTACT (A) IS CAPABLE OF
  7
ROMANS
  0
TEXT
  8
0
  6
CONTINUOUS
 62
   249
 10
319.210519
 20
58.578635
 30
0.0
 40
2.0
  1
     CONTROLLING DIRECTLY THE 
  7
ROMANS
  0
TEXT
  8
0
  6
CONTINUOUS
 62
   249
 10
319.210519
 20
55.245301
 30
0.0
 40
2.0
  1
     BREAKER TRIP COIL
  7
ROMANS
  0
TEXT
  8
0
  6
CONTINUOUS
 62
   249
 10
318.025817
 20
44.583421
 30
0.0
 40
2.0
  1
OBS.  ENDAST KONTAKT (A) ÄR DIMENSIO-
  7
ROMANS
  0
TEXT
  8
0
  6
CONTINUOUS
 62
   249
 10
319.210519
 20
41.250088
 30
0.0
 40
2.0
  1
     NERAD FÖR DIREKT ANSLUTNING TILL
  7
ROMANS
  0
TEXT
  8
0
  6
CONTINUOUS
 62
   249
 10
319.210519
 20
37.916754
 30
0.0
 40
2.0
  1
     UTLÖSNINGSKRETSEN
  7
ROMANS
  0
TEXT
  8
0
  6
CONTINUOUS
 62
   249
 10
216.044229
 20
172.002459
 30
0.0
 40
2.0
  1
SERIAL PORT
  7
ROMANS
  0
TEXT
  8
0
  6
CONTINUOUS
 62
   249
 10
372.268215
 20
12.134532
 30
0.0
 40
2.0
  1
1
  7
ROMANS
  0
LINE
  8
0
  6
CONTINUOUS
 62
   249
 10
212.5
 20
110.429605
 30
0.0
 11
212.5
 21
107.5
 31
0.0
  0
LINE
  8
0
  6
CONTINUOUS
 62
   249
 10
207.5
 20
110.429605
 30
0.0
 11
207.5
 21
107.5
 31
0.0
  0
LINE
  8
0
  6
CONTINUOUS
 62
   249
 10
212.5
 20
125.0
 30
0.0
 11
212.5
 21
119.752154
 31
0.0
  0
LINE
  8
0
  6
CONTINUOUS
 62
   249
 10
207.5
 20
125.0
 30
0.0
 11
207.5
 21
119.752154
 31
0.0
  0
LINE
  8
0
 62
   249
 10
209.966311
 20
112.72844
 30
0.0
 11
213.966311
 21
112.72844
 31
0.0
  0
LINE
  8
0
 62
   249
 10
206.209901
 20
117.674464
 30
0.0
 11
210.209901
 21
117.674464
 31
0.0
  0
LINE
  8
0
 62
   249
 10
205.295103
 20
111.386207
 30
0.0
 11
213.658613
 21
119.752154
 31
0.0
  0
LINE
  8
0
 62
   249
 10
206.279395
 20
110.429605
 30
0.0
 11
214.619756
 21
118.767352
 31
0.0
  0
LINE
  8
0
 62
   249
 10
205.295103
 20
110.429605
 30
0.0
 11
205.295103
 21
119.752154
 31
0.0
  0
LINE
  8
0
 62
   249
 10
214.619756
 20
110.429605
 30
0.0
 11
205.295103
 21
110.429605
 31
0.0
  0
LINE
  8
0
 62
   249
 10
214.619756
 20
119.752154
 30
0.0
 11
214.619756
 21
110.429605
 31
0.0
  0
LINE
  8
0
 62
   249
 10
205.295103
 20
119.752154
 30
0.0
 11
214.619756
 21
119.752154
 31
0.0
  0
TEXT
  8
0
  6
CONTINUOUS
 62
   249
 10
206.866734
 20
125.55315
 30
0.0
 40
2.0
  1
+
  0
TEXT
  8
0
  6
CONTINUOUS
 62
   249
 10
211.797086
 20
125.577719
 30
0.0
 40
2.0
  1
-
  0
LINE
  8
0
  6
CONTINUOUS
 62
   249
 10
265.7405
 20
227.5
 30
0.0
 11
270.0
 21
227.5
 31
0.0
  0
LINE
  8
0
  6
CONTINUOUS
 62
   249
 10
265.7405
 20
217.5
 30
0.0
 11
270.0
 21
217.5
 31
0.0
  0
LINE
  8
0
  6
CONTINUOUS
 62
   249
 10
265.7405
 20
190.0
 30
0.0
 11
270.0
 21
190.0
 31
0.0
  0
LINE
  8
0
  6
CONTINUOUS
 62
   249
 10
265.7405
 20
200.0
 30
0.0
 11
270.0
 21
200.0
 31
0.0
  0
LINE
  8
0
  6
DASHED
 62
   249
 10
162.5
 20
90.0
 30
0.0
 11
162.5
 21
65.0
 31
0.0
  0
LINE
  8
0
  6
CONTINUOUS
 62
   249
 10
34.80333
 20
152.500025
 30
0.0
 11
45.011081
 21
152.500025
 31
0.0
  0
CIRCLE
  8
0
  6
CONTINUOUS
 62
   249
 10
34.062416
 20
152.506164
 30
0.0
 40
0.740939
  0
LINE
  8
0
  6
CONTINUOUS
 62
   249
 10
20.0
 20
152.491507
 30
0.0
 11
27.5
 21
152.491507
 31
0.0
  0
LINE
  8
0
  6
CONTINUOUS
 62
   249
 10
20.0
 20
142.491507
 30
0.0
 11
27.5
 21
142.491507
 31
0.0
  0
CIRCLE
  8
0
  6
CONTINUOUS
 62
   249
 10
34.062416
 20
142.506164
 30
0.0
 40
0.740939
  0
LINE
  8
0
  6
CONTINUOUS
 62
   249
 10
34.80333
 20
142.500025
 30
0.0
 11
45.011081
 21
142.500025
 31
0.0
  0
TEXT
  8
0
  6
CONTINUOUS
 62
   249
 10
22.5
 20
149.041228
 30
0.0
 40
2.0
  1
17A    
  7
ROMANS
  0
TEXT
  8
0
  6
CONTINUOUS
 62
   249
 10
22.5
 20
139.166667
 30
0.0
 40
2.0
  1
16A
  7
ROMANS
  0
TEXT
  8
0
  6
CONTINUOUS
 62
   249
 10
34.245181
 20
149.041228
 30
0.0
 40
2.0
  1
17B
  7
ROMANS
  0
TEXT
  8
0
  6
CONTINUOUS
 62
   249
 10
34.245181
 20
139.166667
 30
0.0
 40
2.0
  1
16B
  7
ROMANS
  0
LINE
  8
0
  6
CONTINUOUS
 62
   249
 10
34.80333
 20
240.000025
 30
0.0
 11
35.674098
 21
240.000025
 31
0.0
  0
CIRCLE
  8
0
  6
CONTINUOUS
 62
   249
 10
34.062416
 20
240.006164
 30
0.0
 40
0.740939
  0
LINE
  8
0
  6
CONTINUOUS
 62
   249
 10
25.0
 20
239.991507
 30
0.0
 11
27.5
 21
239.991507
 31
0.0
  0
TEXT
  8
0
  6
CONTINUOUS
 62
   249
 10
22.5
 20
236.497146
 30
0.0
 40
2.0
  1
14A
  7
ROMANS
  0
TEXT
  8
0
  6
CONTINUOUS
 62
   249
 10
35.0
 20
236.497146
 30
0.0
 40
2.0
  1
14B
  7
ROMANS
  0
LINE
  8
0
  6
DASHED
 62
   249
 10
45.0
 20
240.0
 30
0.0
 11
35.674098
 21
240.0
 31
0.0
  0
LINE
  8
0
  6
DASHED
 62
   249
 10
20.0
 20
240.0
 30
0.0
 11
25.0
 21
240.0
 31
0.0
  0
CIRCLE
  8
0
  6
CONTINUOUS
 62
   249
 10
265.0
 20
227.5
 30
0.0
 40
0.7405
  0
CIRCLE
  8
0
  6
CONTINUOUS
 62
   249
 10
265.0
 20
217.5
 30
0.0
 40
0.7405
  0
CIRCLE
  8
0
  6
CONTINUOUS
 62
   249
 10
265.0
 20
200.0
 30
0.0
 40
0.7405
  0
CIRCLE
  8
0
  6
CONTINUOUS
 62
   249
 10
265.0
 20
190.0
 30
0.0
 40
0.7405
  0
LINE
  8
0
  6
CENTER
 62
   249
 10
20.0
 20
252.5
 30
0.0
 11
270.0
 21
252.5
 31
0.0
  0
LINE
  8
0
  6
CENTER
 62
   249
 10
270.0
 20
252.5
 30
0.0
 11
270.0
 21
65.0
 31
0.0
  0
LINE
  8
0
  6
CENTER
 62
   249
 10
270.0
 20
65.0
 30
0.0
 11
20.0
 21
65.0
 31
0.0
  0
LINE
  8
0
  6
CENTER
 62
   249
 10
20.0
 20
65.0
 30
0.0
 11
20.0
 21
252.5
 31
0.0
  0
TEXT
  8
0
  6
CENTER
 62
   249
 10
27.59436
 20
243.880343
 30
0.0
 40
2.0
  1
101
  7
ROMANS
  0
TEXT
  8
0
  6
CENTER
 62
   249
 10
48.805574
 20
246.062377
 30
0.0
 40
2.0
  1
108
  7
ROMANS
  0
TEXT
  8
0
  6
CENTER
 62
   249
 10
22.618702
 20
253.655413
 30
0.0
 40
2.0
  1
101
  7
ROMANS
  0
LINE
  8
0
  6
DASHED
 62
   249
 10
45.0
 20
235.0
 30
0.0
 11
20.0
 21
235.0
 31
0.0
  0
LINE
  8
0
  6
DASHED
 62
   249
 10
45.0
 20
132.5
 30
0.0
 11
20.0
 21
132.5
 31
0.0
  0
LINE
  8
0
  6
DASHED
 62
   249
 10
45.0
 20
122.5
 30
0.0
 11
20.0
 21
122.5
 31
0.0
  0
LINE
  8
0
  6
DASHED
 62
   249
 10
45.0
 20
112.5
 30
0.0
 11
20.0
 21
112.5
 31
0.0
  0
LINE
  8
0
  6
DASHED
 62
   249
 10
45.0
 20
97.5
 30
0.0
 11
20.0
 21
97.5
 31
0.0
  0
LINE
  8
0
  6
DASHED
 62
   249
 10
207.5
 20
90.0
 30
0.0
 11
207.5
 21
65.0
 31
0.0
  0
LINE
  8
0
  6
DASHED
 62
   249
 10
212.5
 20
90.0
 30
0.0
 11
212.5
 21
65.0
 31
0.0
  0
LINE
  8
0
  6
DASHED
 62
   249
 10
225.0
 20
90.0
 30
0.0
 11
225.0
 21
65.0
 31
0.0
  0
TEXT
  8
0
  6
DASHED
 62
   249
 10
260.0
 20
235.0
 30
0.0
 40
2.0
  1
101
  7
ROMANS
  0
TEXT
  8
0
  6
DASHED
 62
   249
 10
255.0
 20
224.184493
 30
0.0
 40
2.0
  1
3B
  7
ROMANS
  0
TEXT
  8
0
  6
DASHED
 62
   249
 10
255.0
 20
214.018529
 30
0.0
 40
2.0
  1
4B
  7
ROMANS
  0
TEXT
  8
0
  6
DASHED
 62
   249
 10
255.0
 20
196.535038
 30
0.0
 40
2.0
  1
5B
  7
ROMANS
  0
TEXT
  8
0
  6
DASHED
 62
   249
 10
255.0
 20
186.688666
 30
0.0
 40
2.0
  1
6B
  7
ROMANS
  0
TEXT
  8
0
  6
DASHED
 62
   249
 10
265.494579
 20
224.184493
 30
0.0
 40
2.0
  1
3A
  7
ROMANS
  0
TEXT
  8
0
  6
DASHED
 62
   249
 10
265.494579
 20
214.018529
 30
0.0
 40
2.0
  1
4A
  7
ROMANS
  0
TEXT
  8
0
  6
DASHED
 62
   249
 10
265.494579
 20
196.535038
 30
0.0
 40
2.0
  1
5A
  7
ROMANS
  0
TEXT
  8
0
  6
DASHED
 62
   249
 10
265.494579
 20
186.688666
 30
0.0
 40
2.0
  1
6A
  7
ROMANS
  0
TEXT
  8
0
  6
DASHED
 62
   249
 10
249.383931
 20
224.197959
 30
0.0
 40
2.0
  1
U
  7
ROMANS
  0
TEXT
  8
0
  6
DASHED
 62
   249
 10
249.383931
 20
213.998935
 30
0.0
 40
2.0
  1
U
  7
ROMANS
  0
TEXT
  8
0
  6
DASHED
 62
   249
 10
248.410102
 20
196.526465
 30
0.0
 40
2.0
  1
NU
  7
ROMANS
  0
TEXT
  8
0
  6
DASHED
 62
   249
 10
248.410102
 20
186.680092
 30
0.0
 40
2.0
  1
NU
  7
ROMANS
  0
LINE
  8
0
  6
DASHED
 62
   249
 10
277.5
 20
177.5
 30
0.0
 11
270.0
 21
177.5
 31
0.0
  0
TEXT
  8
0
  6
DASHED
 62
   249
 10
282.5
 20
176.486126
 30
0.0
 40
2.0
  1
2)
  7
ROMANS
  0
LINE
  8
0
  6
DASHED
 62
   249
 10
20.0
 20
240.0
 30
0.0
 11
12.5
 21
240.0
 31
0.0
  0
LINE
  8
0
  6
DASHED
 62
   249
 10
20.0
 20
235.0
 30
0.0
 11
12.5
 21
235.0
 31
0.0
  0
LINE
  8
0
  6
CONTINUOUS
 62
   249
 10
243.5
 20
217.000357
 30
0.0
 11
243.5
 21
217.0
 31
0.0
  0
LINE
  8
0
  6
DASHED
 62
   249
 10
243.5
 20
222.5
 30
0.0
 11
243.5
 21
223.007073
 31
0.0
  0
LINE
  8
0
  6
CONTINUOUS
 62
   249
 10
243.5
 20
189.5
 30
0.0
 11
242.5
 21
188.5
 31
0.0
  0
LINE
  8
0
  6
CONTINUOUS
 62
   249
 10
243.5
 20
195.0
 30
0.0
 11
243.5
 21
189.5
 31
0.0
  0
LINE
  8
0
  6
DASHED
 62
   249
 10
243.5
 20
195.0
 30
0.0
 11
243.5
 21
195.507073
 31
0.0
  0
LINE
  8
0
  6
CONTINUOUS
 62
   249
 10
243.5
 20
195.507073
 30
0.0
 11
242.5
 21
196.507073
 31
0.0
  0
LINE
  8
0
  6
CONTINUOUS
 62
   249
 10
287.5
 20
189.5
 30
0.0
 11
286.5
 21
188.5
 31
0.0
  0
LINE
  8
0
  6
CONTINUOUS
 62
   249
 10
287.5
 20
200.5
 30
0.0
 11
286.5
 21
201.5
 31
0.0
  0
LINE
  8
0
  6
CONTINUOUS
 62
   249
 10
287.5
 20
200.5
 30
0.0
 11
287.5
 21
189.5
 31
0.0
  0
LINE
  8
0
  6
CONTINUOUS
 62
   249
 10
270.0
 20
200.0
 30
0.0
 11
285.0
 21
200.0
 31
0.0
  0
LINE
  8
0
  6
CONTINUOUS
 62
   249
 10
270.0
 20
190.0
 30
0.0
 11
285.0
 21
190.0
 31
0.0
  0
TEXT
  8
0
  6
CONTINUOUS
 62
   249
 10
361.078259
 20
171.374636
 30
0.0
 40
2.0
  1
4S
  7
ROMANS
  0
TEXT
  8
0
  6
CONTINUOUS
 62
   249
 10
347.337199
 20
181.348324
 30
0.0
 40
2.0
  1
42C
  7
ROMANS
  0
TEXT
  8
0
  6
CONTINUOUS
 62
   249
 10
331.577443
 20
177.043215
 30
0.0
 40
2.0
  1
101  108
  7
ROMANS
  0
LINE
  8
0
  6
CONTINUOUS
 62
   249
 10
340.0
 20
180.0
 30
0.0
 11
340.0
 21
162.5
 31
0.0
  0
LINE
  8
0
  6
CONTINUOUS
 62
   249
 10
337.5
 20
180.0
 30
0.0
 11
337.5
 21
162.5
 31
0.0
  0
LINE
  8
0
  6
CONTINUOUS
 62
   249
 10
330.0
 20
162.5
 30
0.0
 11
330.0
 21
180.0
 31
0.0
  0
LINE
  8
0
  6
CONTINUOUS
 62
   249
 10
360.0
 20
162.5
 30
0.0
 11
330.0
 21
162.5
 31
0.0
  0
LINE
  8
0
  6
CONTINUOUS
 62
   249
 10
360.0
 20
180.0
 30
0.0
 11
360.0
 21
162.5
 31
0.0
  0
LINE
  8
0
  6
CONTINUOUS
 62
   249
 10
330.0
 20
180.0
 30
0.0
 11
360.0
 21
180.0
 31
0.0
  0
TEXT
  8
0
  6
CONTINUOUS
 62
   249
 10
323.214126
 20
130.646025
 30
0.0
 40
2.0
  1
2) I/O-MODULE SERIAL PORT
  7
ROMANS
  0
TEXT
  8
0
  6
CONTINUOUS
 62
   249
 10
322.375933
 20
127.312692
 30
0.0
 40
2.0
  1
   IN/UTGÅNGSMODUL
  7
ROMANS
  0
LINE
  8
0
  6
CONTINUOUS
 62
   249
 10
374.723544
 20
85.0
 30
0.0
 11
337.223544
 21
85.0
 31
0.0
  0
TEXT
  8
0
  6
CONTINUOUS
 62
   249
 10
352.777659
 20
86.465356
 30
0.0
 40
2.0
  1
108:
  7
ROMANS
  0
TEXT
  8
0
  6
CONTINUOUS
 62
   249
 10
329.953292
 20
86.454336
 30
0.0
 40
2.0
  1
101:
  7
ROMANS
  0
TEXT
  8
0
  6
CONTINUOUS
 62
   249
 10
332.223544
 20
76.056623
 30
0.0
 40
2.0
  1
6B
  7
ROMANS
  0
TEXT
  8
0
  6
CONTINUOUS
 62
   249
 10
344.723544
 20
76.056623
 30
0.0
 40
2.0
  1
29
  7
ROMANS
  0
TEXT
  8
0
  6
CONTINUOUS
 62
   249
 10
364.723544
 20
76.056623
 30
0.0
 40
2.0
  1
30
  7
ROMANS
  0
TEXT
  8
0
  6
CONTINUOUS
 62
   249
 10
212.211049
 20
28.192916
 30
0.0
 40
2.0
  1
1993-05-24  KM / RITU
  7
ROMANS
  0
TEXT
  8
0
  6
CONTINUOUS
 62
   249
 10
315.0
 20
27.5
 30
0.0
 40
2.0
  1
CIRCUIT DIAGRAM / KRETSSCHEMA
  7
ROMANS
  0
TEXT
  8
0
  6
CONTINUOUS
 62
   249
 10
315.0
 20
24.166667
 30
0.0
 40
2.0
  1
SPAU 320 C1 WITH TEST SWITCH
  7
ROMANS
  0
TEXT
  8
0
  6
CONTINUOUS
 62
   249
 10
315.0
 20
20.833333
 30
0.0
 40
2.0
  1
SPAU 320 C1 MED PROVDON
  7
ROMANS
  0
TEXT
  8
0
  6
CONTINUOUS
 62
   249
 10
320.0
 20
2.5
 30
0.0
 40
2.5
  1
RS 10176-AB/E194
  7
ROMANS
  0
LINE
  8
0
  6
CONTINUOUS
 62
   249
 10
205.450615
 20
177.5
 30
0.0
 11
237.5
 21
177.5
 31
0.0
  0
TEXT
  8
0
  6
CONTINUOUS
 62
   249
 10
186.019596
 20
74.287845
 30
0.0
 40
2.0
  1
101
 50
90.0
  7
ROMANS
  0
TEXT
  8
0
  6
CONTINUOUS
 62
   249
 10
166.019596
 20
74.287845
 30
0.0
 40
2.0
  1
101
 50
90.0
  7
ROMANS
  0
TEXT
  8
0
  6
CONTINUOUS
 62
   249
 10
198.210796
 20
65.600518
 30
0.0
 40
2.0
  1
18A
 50
90.0
  7
ROMANS
  0
TEXT
  8
0
  6
CONTINUOUS
 62
   249
 10
190.542942
 20
65.600518
 30
0.0
 40
2.0
  1
1A
 50
90.0
  7
ROMANS
  0
TEXT
  8
0
  6
CONTINUOUS
 62
   249
 10
180.578553
 20
65.930264
 30
0.0
 40
2.0
  1
2A
 50
90.0
  7
ROMANS
  0
TEXT
  8
0
  6
CONTINUOUS
 62
   249
 10
170.27957
 20
65.435645
 30
0.0
 40
2.0
  1
13A
 50
90.0
  7
ROMANS
  0
LINE
  8
0
  6
CONTINUOUS
 62
   249
 10
195.0
 20
72.5
 30
0.0
 11
195.0
 21
65.0
 31
0.0
  0
LINE
  8
0
  6
CONTINUOUS
 62
   249
 10
195.0
 20
85.0
 30
0.0
 11
195.0
 21
80.0
 31
0.0
  0
LINE
  8
0
  6
CONTINUOUS
 62
   249
 10
178.865905
 20
85.813541
 30
0.0
 11
178.865905
 21
87.500506
 31
0.0
  0
LINE
  8
0
  6
CONTINUOUS
 62
   249
 10
178.865905
 20
87.500506
 30
0.0
 11
180.533279
 21
87.500506
 31
0.0
  0
LINE
  8
0
  6
CONTINUOUS
 62
   249
 10
180.533279
 20
87.500506
 30
0.0
 11
180.533279
 21
85.813541
 31
0.0
  0
LINE
  8
0
  6
CONTINUOUS
 62
   249
 10
180.533279
 20
85.813541
 30
0.0
 11
178.865905
 21
85.813541
 31
0.0
  0
LINE
  8
0
  6
CONTINUOUS
 62
   249
 10
170.115221
 20
87.344644
 30
0.0
 11
168.447848
 21
87.344644
 31
0.0
  0
LINE
  8
0
  6
CONTINUOUS
 62
   249
 10
170.115221
 20
89.031609
 30
0.0
 11
170.115221
 21
87.344644
 31
0.0
  0
LINE
  8
0
  6
CONTINUOUS
 62
   249
 10
168.447848
 20
89.031609
 30
0.0
 11
170.115221
 21
89.031609
 31
0.0
  0
LINE
  8
0
  6
CONTINUOUS
 62
   249
 10
168.447848
 20
87.344644
 30
0.0
 11
168.447848
 21
89.031609
 31
0.0
  0
TEXT
  8
0
  6
DASHED
 62
   249
 10
198.218527
 20
81.361879
 30
0.0
 40
2.0
  1
18B-
 50
90.0
  7
ROMANS
  0
TEXT
  8
0
  6
DASHED
 62
   249
 10
190.545377
 20
81.361879
 30
0.0
 40
2.0
  1
1B+
 50
90.0
  7
ROMANS
  0
TEXT
  8
0
  6
DASHED
 62
   249
 10
180.714777
 20
81.179651
 30
0.0
 40
2.0
  1
2B
 50
90.0
  7
ROMANS
  0
TEXT
  8
0
  6
DASHED
 62
   249
 10
170.275535
 20
80.93668
 30
0.0
 40
2.0
  1
13B
 50
90.0
  7
ROMANS
  0
LINE
  8
0
  6
DASHED
 62
   249
 10
182.5
 20
90.0
 30
0.0
 11
182.5
 21
65.0
 31
0.0
  0
LINE
  8
0
  6
CONTINUOUS
 62
   249
 10
172.5
 20
85.0
 30
0.0
 11
177.5
 21
85.0
 31
0.0
  0
LINE
  8
0
  6
CONTINUOUS
 62
   249
 10
172.5
 20
90.0
 30
0.0
 11
172.5
 21
85.0
 31
0.0
  0
LINE
  8
0
  6
CONTINUOUS
 62
   249
 10
187.5
 20
90.0
 30
0.0
 11
187.5
 21
80.0
 31
0.0
  0
CIRCLE
  8
0
  6
CONTINUOUS
 62
   249
 10
187.5
 20
73.241055
 30
0.0
 40
0.740939
  0
LINE
  8
0
  6
CONTINUOUS
 62
   249
 10
187.5
 20
72.5
 30
0.0
 11
187.5
 21
65.0
 31
0.0
  0
LINE
  8
0
  6
CONTINUOUS
 62
   249
 10
167.5
 20
72.5
 30
0.0
 11
167.5
 21
65.0
 31
0.0
  0
CIRCLE
  8
0
  6
CONTINUOUS
 62
   249
 10
167.5
 20
73.241055
 30
0.0
 40
0.740939
  0
LINE
  8
0
  6
CONTINUOUS
 62
   249
 10
167.493411
 20
73.981965
 30
0.0
 11
169.934804
 21
80.662841
 31
0.0
  0
LINE
  8
0
  6
CONTINUOUS
 62
   249
 10
167.5
 20
80.0
 30
0.0
 11
170.265661
 21
80.0
 31
0.0
  0
LINE
  8
0
  6
CONTINUOUS
 62
   249
 10
169.934804
 20
80.662841
 30
0.0
 11
169.049106
 21
81.107734
 31
0.0
  0
LINE
  8
0
  6
CONTINUOUS
 62
   249
 10
167.5
 20
90.0
 30
0.0
 11
167.5
 21
80.0
 31
0.0
  0
LINE
  8
0
  6
CONTINUOUS
 62
   249
 10
177.5
 20
72.5
 30
0.0
 11
177.5
 21
65.0
 31
0.0
  0
CIRCLE
  8
0
  6
CONTINUOUS
 62
   249
 10
177.5
 20
73.241055
 30
0.0
 40
0.740939
  0
LINE
  8
0
  6
CONTINUOUS
 62
   249
 10
177.5
 20
90.0
 30
0.0
 11
177.5
 21
80.0
 31
0.0
  0
LINE
  8
0
  6
CONTINUOUS
 62
   249
 10
177.493411
 20
73.981965
 30
0.0
 11
179.934804
 21
80.662841
 31
0.0
  0
LINE
  8
0
  6
CONTINUOUS
 62
   249
 10
177.5
 20
80.0
 30
0.0
 11
180.265661
 21
80.0
 31
0.0
  0
LINE
  8
0
  6
CONTINUOUS
 62
   249
 10
189.934804
 20
80.662841
 30
0.0
 11
189.049106
 21
81.107734
 31
0.0
  0
LINE
  8
0
  6
CONTINUOUS
 62
   249
 10
187.5
 20
80.0
 30
0.0
 11
190.265661
 21
80.0
 31
0.0
  0
LINE
  8
0
  6
CONTINUOUS
 62
   249
 10
187.493411
 20
73.981965
 30
0.0
 11
189.934804
 21
80.662841
 31
0.0
  0
LINE
  8
0
  6
CONTINUOUS
 62
   249
 10
194.993411
 20
73.981965
 30
0.0
 11
197.434804
 21
80.662841
 31
0.0
  0
LINE
  8
0
  6
CONTINUOUS
 62
   249
 10
195.0
 20
80.0
 30
0.0
 11
197.765661
 21
80.0
 31
0.0
  0
LINE
  8
0
  6
CONTINUOUS
 62
   249
 10
197.434804
 20
80.662841
 30
0.0
 11
196.549106
 21
81.107734
 31
0.0
  0
CIRCLE
  8
0
  6
CONTINUOUS
 62
   249
 10
195.0
 20
73.241055
 30
0.0
 40
0.740939
  0
LINE
  8
0
  6
CONTINUOUS
 62
   249
 10
27.5
 20
152.491507
 30
0.0
 11
27.5
 21
155.265661
 31
0.0
  0
LINE
  8
0
  6
CONTINUOUS
 62
   249
 10
33.32377
 20
152.564401
 30
0.0
 11
26.837159
 21
154.934804
 31
0.0
  0
LINE
  8
0
  6
CONTINUOUS
 62
   249
 10
33.32377
 20
142.564401
 30
0.0
 11
26.837159
 21
144.934804
 31
0.0
  0
LINE
  8
0
  6
CONTINUOUS
 62
   249
 10
27.5
 20
142.491507
 30
0.0
 11
27.5
 21
145.265661
 31
0.0
  0
LINE
  8
0
  6
CONTINUOUS
 62
   249
 10
243.5
 20
217.482972
 30
0.0
 11
260.0
 21
217.482972
 31
0.0
  0
LINE
  8
0
  6
CONTINUOUS
 62
   249
 10
260.0
 20
217.482972
 30
0.0
 11
260.0
 21
220.265661
 31
0.0
  0
LINE
  8
0
  6
CONTINUOUS
 62
   249
 10
259.102827
 20
219.934804
 30
0.0
 11
258.657934
 21
219.049106
 31
0.0
  0
LINE
  8
0
  6
CONTINUOUS
 62
   249
 10
259.102827
 20
219.934804
 30
0.0
 11
264.315544
 21
217.782596
 31
0.0
  0
LINE
  8
0
  6
CONTINUOUS
 62
   249
 10
259.102827
 20
229.934804
 30
0.0
 11
264.315544
 21
227.782596
 31
0.0
  0
LINE
  8
0
  6
CONTINUOUS
 62
   249
 10
259.102827
 20
229.934804
 30
0.0
 11
258.657934
 21
229.049106
 31
0.0
  0
LINE
  8
0
  6
CONTINUOUS
 62
   249
 10
260.0
 20
227.5
 30
0.0
 11
260.0
 21
230.265661
 31
0.0
  0
LINE
  8
0
  6
CONTINUOUS
 62
   249
 10
237.5
 20
227.5
 30
0.0
 11
260.0
 21
227.5
 31
0.0
  0
LINE
  8
0
  6
CONTINUOUS
 62
   249
 10
260.0
 20
200.0
 30
0.0
 11
260.0
 21
202.765661
 31
0.0
  0
LINE
  8
0
  6
CONTINUOUS
 62
   249
 10
259.102827
 20
202.434804
 30
0.0
 11
258.657934
 21
201.549106
 31
0.0
  0
LINE
  8
0
  6
CONTINUOUS
 62
   249
 10
259.102827
 20
202.434804
 30
0.0
 11
264.315544
 21
200.282596
 31
0.0
  0
LINE
  8
0
  6
CONTINUOUS
 62
   249
 10
259.102827
 20
192.434804
 30
0.0
 11
264.315544
 21
190.282596
 31
0.0
  0
LINE
  8
0
  6
CONTINUOUS
 62
   249
 10
259.102827
 20
192.434804
 30
0.0
 11
258.657934
 21
191.549106
 31
0.0
  0
LINE
  8
0
  6
CONTINUOUS
 62
   249
 10
260.0
 20
189.982972
 30
0.0
 11
260.0
 21
192.765661
 31
0.0
  0
LINE
  8
0
  6
CONTINUOUS
 62
   249
 10
243.5
 20
189.982972
 30
0.0
 11
260.0
 21
189.982972
 31
0.0
  0
LINE
  8
0
  6
CONTINUOUS
 62
   249
 10
237.5
 20
200.0
 30
0.0
 11
260.0
 21
200.0
 31
0.0
  0
LINE
  8
0
  6
DASHED
 62
   249
 10
287.5
 20
195.0
 30
0.0
 11
292.574255
 21
195.0
 31
0.0
  0
LINE
  8
0
  6
DASHED
 62
   249
 10
310.158704
 20
195.069263
 30
0.0
 11
320.0
 21
195.069263
 31
0.0
  0
LINE
  8
0
  6
DASHED
 62
   249
 10
320.0
 20
216.262223
 30
0.0
 11
320.0
 21
173.762223
 31
0.0
  0
LINE
  8
0
  6
CONTINUOUS
 62
   249
 10
305.695989
 20
194.819109
 30
0.0
 11
308.029391
 21
197.152511
 31
0.0
  0
LINE
  8
0
  6
CONTINUOUS
 62
   249
 10
303.722943
 20
196.792156
 30
0.0
 11
305.695989
 21
194.819109
 31
0.0
  0
LINE
  8
0
  6
CONTINUOUS
 62
   249
 10
305.695989
 20
194.819109
 30
0.0
 11
305.695989
 21
192.485708
 31
0.0
  0
LINE
  8
0
  6
CONTINUOUS
 62
   249
 10
299.426166
 20
193.174197
 30
0.0
 11
297.092765
 21
197.841
 31
0.0
  0
LINE
  8
0
  6
CONTINUOUS
 62
   249
 10
294.759363
 20
193.174197
 30
0.0
 11
299.426166
 21
193.174197
 31
0.0
  0
LINE
  8
0
  6
CONTINUOUS
 62
   249
 10
297.092765
 20
197.841
 30
0.0
 11
294.759363
 21
193.174197
 31
0.0
  0
CIRCLE
  8
0
  6
CONTINUOUS
 62
   249
 10
305.800265
 20
195.001145
 30
0.0
 40
4.398585
  0
CIRCLE
  8
0
  6
CONTINUOUS
 62
   249
 10
296.972825
 20
194.988333
 30
0.0
 40
4.398585
  0
TEXT
  8
0
  6
CONTINUOUS
 62
   249
 10
331.505366
 20
158.949314
 30
0.0
 40
2.0
  1
101 RTXP 18
  7
ROMANS
  0
TEXT
  8
0
  6
CONTINUOUS
 62
   249
 10
331.888766
 20
155.615981
 30
0.0
 40
2.0
  1
RK 926 115-AR
  7
ROMANS
  0
TEXT
  8
0
  6
CONTINUOUS
 62
   249
 10
331.505366
 20
152.282648
 30
0.0
 40
2.0
  1
108 SPAU 320 C/E194
  7
ROMANS
  0
TEXT
  8
0
  6
CONTINUOUS
 62
   249
 10
380.0
 20
2.5
 30
0.0
 40
2.5
  1
A
  7
ROMANS
  0
LINE
  8
0
  6
CONTINUOUS
 62
   249
 10
33.32377
 20
240.064401
 30
0.0
 11
26.837159
 21
242.434804
 31
0.0
  0
LINE
  8
0
  6
CONTINUOUS
 62
   249
 10
27.5
 20
239.991507
 30
0.0
 11
27.5
 21
242.765661
 31
0.0
  0
LINE
  8
0
  6
CONTINUOUS
 62
   249
 10
26.837159
 20
242.434804
 30
0.0
 11
26.392266
 21
241.549106
 31
0.0
  0
LINE
  8
0
  6
CONTINUOUS
 62
   249
 10
181.602044
 20
210.916816
 30
0.0
 11
183.947809
 21
209.581462
 31
0.0
  0
LINE
  8
0
  6
CONTINUOUS
 62
   249
 10
183.947809
 20
209.581462
 30
0.0
 11
181.602044
 21
208.391543
 31
0.0
  0
LINE
  8
0
  6
CONTINUOUS
 62
   249
 10
186.17625
 20
209.581462
 30
0.0
 11
183.830484
 21
208.391543
 31
0.0
  0
LINE
  8
0
  6
CONTINUOUS
 62
   249
 10
183.830484
 20
210.916816
 30
0.0
 11
186.17625
 21
209.581462
 31
0.0
  0
LINE
  8
0
  6
CONTINUOUS
 62
   249
 10
353.385857
 20
238.349091
 30
0.0
 11
353.385857
 21
236.56096
 31
0.0
  0
LINE
  8
0
  6
CONTINUOUS
 62
   249
 10
350.431744
 20
239.701976
 30
0.0
 11
351.332421
 21
238.578227
 31
0.0
  0
LINE
  8
0
  6
CONTINUOUS
 62
   249
 10
347.986337
 20
236.33621
 30
0.0
 11
350.862448
 21
239.164769
 31
0.0
  0
LINE
  8
0
  6
CONTINUOUS
 62
   249
 10
345.602193
 20
237.503813
 30
0.0
 11
353.390398
 21
237.503813
 31
0.0
  0
LINE
  8
0
  6
CONTINUOUS
 62
   249
 10
345.571161
 20
238.349091
 30
0.0
 11
345.571161
 21
236.56096
 31
0.0
  0
LINE
  8
0
  6
CONTINUOUS
 62
   249
 10
182.594473
 20
218.879982
 30
0.0
 11
184.940239
 21
217.544629
 31
0.0
  0
LINE
  8
0
  6
CONTINUOUS
 62
   249
 10
184.940239
 20
217.544629
 30
0.0
 11
182.594473
 21
216.354709
 31
0.0
  0
LINE
  8
0
  6
CONTINUOUS
 62
   249
 10
182.594473
 20
215.62591
 30
0.0
 11
184.940239
 21
214.290556
 31
0.0
  0
LINE
  8
0
  6
CONTINUOUS
 62
   249
 10
184.940239
 20
214.290556
 30
0.0
 11
182.594473
 21
213.100637
 31
0.0
  0
LINE
  8
0
  6
CONTINUOUS
 62
   249
 10
181.422325
 20
203.297947
 30
0.0
 11
183.768091
 21
201.962594
 31
0.0
  0
LINE
  8
0
  6
CONTINUOUS
 62
   249
 10
183.768091
 20
201.962594
 30
0.0
 11
181.422325
 21
200.772674
 31
0.0
  0
LINE
  8
0
  6
CONTINUOUS
 62
   249
 10
183.554915
 20
203.297947
 30
0.0
 11
185.900681
 21
201.962594
 31
0.0
  0
LINE
  8
0
  6
CONTINUOUS
 62
   249
 10
185.900681
 20
201.962594
 30
0.0
 11
183.554915
 21
200.772674
 31
0.0
  0
TEXT
  8
0
  6
DASHED
 62
   249
 10
354.531451
 20
16.135576
 30
0.0
 40
1.4
  1
LEHTI SHEET
  7
STAND
  0
LINE
  8
0
 62
   249
 10
0.577972
 20
0.580166
 30
0.0
 11
0.577972
 21
263.080166
 31
0.0
  0
LINE
  8
0
 62
   249
 10
392.577972
 20
263.080166
 30
0.0
 11
392.577972
 21
0.580166
 31
0.0
  0
LINE
  8
0
 62
   249
 10
0.577972
 20
0.580166
 30
0.0
 11
392.577972
 21
0.580166
 31
0.0
  0
TEXT
  8
0
 62
   249
 10
42.577972
 20
5.929675
 30
0.0
 40
2.5
  1
C
  7
ROMANS
  0
TEXT
  8
0
 62
   249
 10
42.577972
 20
1.537459
 30
0.0
 40
2.5
  1
B
  7
ROMANS
  0
TEXT
  8
0
 62
   249
 10
257.747879
 20
2.08395
 30
0.0
 40
3.0
  1
Power
 41
0.8
  7
ROMANS
  0
TEXT
  8
0
 62
   249
 10
273.577972
 20
7.580166
 30
0.0
 40
1.4
  1
VAST.OSASTO RESP.DEPT.
  7
ROMANS
  0
TEXT
  8
0
 62
   249
 10
210.577972
 20
32.580166
 30
0.0
 40
1.4
  1
TEKI  PREPARED
  7
ROMANS
  0
LINE
  8
0
 62
   249
 10
271.577972
 20
10.080166
 30
0.0
 11
271.577972
 21
0.580166
 31
0.0
  0
LINE
  8
0
 62
   249
 10
257.577972
 20
10.080166
 30
0.0
 11
257.577972
 21
35.580166
 31
0.0
  0
LINE
  8
0
 62
   249
 10
41.077972
 20
5.080166
 30
0.0
 11
209.577972
 21
5.080166
 31
0.0
  0
LINE
  8
0
 62
   249
 10
47.077972
 20
0.580166
 30
0.0
 11
47.077972
 21
9.580166
 31
0.0
  0
LINE
  8
0
 62
   249
 10
47.077972
 20
9.580166
 30
0.0
 11
209.577972
 21
9.580166
 31
0.0
  0
TEXT
  8
0
 62
   249
 10
28.077972
 20
2.813499
 30
0.0
 40
1.4
  1
REVISION
  7
ROMANS
  0
TEXT
  8
0
 62
   249
 10
28.077972
 20
5.080166
 30
0.0
 40
1.4
  1
MUUTOS
  7
ROMANS
  0
LINE
  8
0
 62
   249
 10
282.577972
 20
10.080166
 30
0.0
 11
282.577972
 21
18.580166
 31
0.0
  0
TEXT
  8
0
 62
   249
 10
238.077972
 20
2.080166
 30
0.0
 40
3.0
  1
Strömberg
 41
0.8
  7
ROMANS
  0
TEXT
  8
0
 62
   249
 10
230.077972
 20
2.080166
 30
0.0
 40
3.0
  1
ABB 
 41
0.8
  7
ROMANS
  0
LINE
  8
0
 62
   249
 10
223.477972
 20
2.080166
 30
0.0
 11
223.477972
 21
5.440166
 31
0.0
  0
LINE
  8
0
 62
   249
 10
223.477972
 20
9.080166
 30
0.0
 11
225.437972
 21
9.080166
 31
0.0
  0
LINE
  8
0
 62
   249
 10
225.437972
 20
9.080166
 30
0.0
 11
225.437972
 21
5.720166
 31
0.0
  0
LINE
  8
0
 62
   249
 10
225.437972
 20
5.720166
 30
0.0
 11
223.477972
 21
5.720166
 31
0.0
  0
LINE
  8
0
 62
   249
 10
223.477972
 20
5.440166
 30
0.0
 11
225.437972
 21
5.440166
 31
0.0
  0
LINE
  8
0
 62
   249
 10
225.437972
 20
5.440166
 30
0.0
 11
225.437972
 21
2.080166
 31
0.0
  0
LINE
  8
0
 62
   249
 10
225.437972
 20
2.080166
 30
0.0
 11
223.477972
 21
2.080166
 31
0.0
  0
LINE
  8
0
 62
   249
 10
223.477972
 20
5.720166
 30
0.0
 11
223.477972
 21
9.080166
 31
0.0
  0
ARC
  8
0
 62
   249
 10
226.277972
 20
7.505166
 30
0.0
 40
1.575
 50
298.455859
 51
90.052437
  0
LINE
  8
0
 62
   249
 10
225.717972
 20
9.080166
 30
0.0
 11
226.27653
 21
9.080165
 31
0.0
  0
LINE
  8
0
 62
   249
 10
225.717972
 20
9.080166
 30
0.0
 11
225.717972
 21
5.720166
 31
0.0
  0
LINE
  8
0
 62
   249
 10
225.717972
 20
5.720166
 30
0.0
 11
227.702415
 21
5.720166
 31
0.0
  0
LINE
  8
0
 62
   249
 10
227.957972
 20
5.440166
 30
0.0
 11
225.717972
 21
5.440166
 31
0.0
  0
LINE
  8
0
 62
   249
 10
225.717972
 20
5.440166
 30
0.0
 11
225.717972
 21
2.080166
 31
0.0
  0
ARC
  8
0
 62
   249
 10
226.277972
 20
4.180166
 30
0.0
 40
2.1
 50
269.937724
 51
37.056553
  0
LINE
  8
0
 62
   249
 10
225.717972
 20
2.080166
 30
0.0
 11
226.275689
 21
2.080167
 31
0.0
  0
ARC
  8
0
 62
   249
 10
226.277972
 20
4.180166
 30
0.0
 40
2.1
 50
47.28622
 51
68.787999
  0
INSERT
  8
0
 62
   249
  2
*X17
 10
215.987972
 20
2.080166
 30
0.0
 41
0.7
 42
0.7
 43
0.7
  0
INSERT
  8
0
 62
   249
  2
*X18
 10
215.987972
 20
2.080166
 30
0.0
 41
0.7
 42
0.7
 43
0.7
  0
INSERT
  8
0
 62
   249
  2
*X19
 10
215.987972
 20
2.080166
 30
0.0
 41
0.7
 42
0.7
 43
0.7
  0
INSERT
  8
0
 62
   249
  2
*X20
 10
215.987972
 20
2.080166
 30
0.0
 41
0.7
 42
0.7
 43
0.7
  0
INSERT
  8
0
 62
   249
  2
*X20
 10
210.527972
 20
2.080166
 30
0.0
 41
0.7
 42
0.7
 43
0.7
  0
INSERT
  8
0
 62
   249
  2
*X19
 10
210.527972
 20
2.080166
 30
0.0
 41
0.7
 42
0.7
 43
0.7
  0
INSERT
  8
0
 62
   249
  2
*X18
 10
210.527972
 20
2.080166
 30
0.0
 41
0.7
 42
0.7
 43
0.7
  0
INSERT
  8
0
 62
   249
  2
*X17
 10
210.527972
 20
2.080166
 30
0.0
 41
0.7
 42
0.7
 43
0.7
  0
ARC
  8
0
 62
   249
 10
220.817972
 20
4.180166
 30
0.0
 40
2.1
 50
47.28622
 51
68.787999
  0
LINE
  8
0
 62
   249
 10
220.257972
 20
2.080166
 30
0.0
 11
220.815689
 21
2.080167
 31
0.0
  0
ARC
  8
0
 62
   249
 10
220.817972
 20
4.180166
 30
0.0
 40
2.1
 50
269.937724
 51
37.056553
  0
LINE
  8
0
 62
   249
 10
220.257972
 20
5.440166
 30
0.0
 11
220.257972
 21
2.080166
 31
0.0
  0
LINE
  8
0
 62
   249
 10
222.497972
 20
5.440166
 30
0.0
 11
220.257972
 21
5.440166
 31
0.0
  0
LINE
  8
0
 62
   249
 10
220.257972
 20
5.720166
 30
0.0
 11
222.242415
 21
5.720166
 31
0.0
  0
LINE
  8
0
 62
   249
 10
220.257972
 20
9.080166
 30
0.0
 11
220.257972
 21
5.720166
 31
0.0
  0
LINE
  8
0
 62
   249
 10
220.257972
 20
9.080166
 30
0.0
 11
220.81653
 21
9.080165
 31
0.0
  0
ARC
  8
0
 62
   249
 10
220.817972
 20
7.505166
 30
0.0
 40
1.575
 50
298.455859
 51
90.052437
  0
LINE
  8
0
 62
   249
 10
218.017972
 20
5.720166
 30
0.0
 11
218.017972
 21
9.080166
 31
0.0
  0
LINE
  8
0
 62
   249
 10
219.977972
 20
2.080166
 30
0.0
 11
218.017972
 21
2.080166
 31
0.0
  0
LINE
  8
0
 62
   249
 10
219.977972
 20
5.440166
 30
0.0
 11
219.977972
 21
2.080166
 31
0.0
  0
LINE
  8
0
 62
   249
 10
218.017972
 20
5.440166
 30
0.0
 11
219.977972
 21
5.440166
 31
0.0
  0
LINE
  8
0
 62
   249
 10
219.977972
 20
5.720166
 30
0.0
 11
218.017972
 21
5.720166
 31
0.0
  0
LINE
  8
0
 62
   249
 10
219.977972
 20
9.080166
 30
0.0
 11
219.977972
 21
5.720166
 31
0.0
  0
LINE
  8
0
 62
   249
 10
218.017972
 20
9.080166
 30
0.0
 11
219.977972
 21
9.080166
 31
0.0
  0
LINE
  8
0
 62
   249
 10
218.017972
 20
2.080166
 30
0.0
 11
218.017972
 21
5.440166
 31
0.0
  0
INSERT
  8
0
 62
   249
  2
*X16
 10
210.527972
 20
2.080166
 30
0.0
 41
0.7
 42
0.7
 43
0.7
  0
INSERT
  8
0
 62
   249
  2
*X15
 10
210.527972
 20
2.080166
 30
0.0
 41
0.7
 42
0.7
 43
0.7
  0
INSERT
  8
0
 62
   249
  2
*X14
 10
210.527972
 20
2.080166
 30
0.0
 41
0.7
 42
0.7
 43
0.7
  0
INSERT
  8
0
 62
   249
  2
*X13
 10
210.527972
 20
2.080166
 30
0.0
 41
0.7
 42
0.7
 43
0.7
  0
LINE
  8
0
 62
   249
 10
211.69786
 20
5.422705
 30
0.0
 11
210.527972
 21
2.080166
 31
0.0
  0
LINE
  8
0
 62
   249
 10
213.887972
 20
5.440166
 30
0.0
 11
213.887972
 21
3.480166
 31
0.0
  0
LINE
  8
0
 62
   249
 10
214.167972
 20
5.440166
 30
0.0
 11
214.167972
 21
3.480166
 31
0.0
  0
LINE
  8
0
 62
   249
 10
214.167972
 20
5.440166
 30
0.0
 11
216.351228
 21
5.440166
 31
0.0
  0
LINE
  8
0
 62
   249
 10
214.167972
 20
5.720166
 30
0.0
 11
216.253085
 21
5.720166
 31
0.0
  0
LINE
  8
0
 62
   249
 10
216.352464
 20
5.438761
 30
0.0
 11
217.527972
 21
2.080166
 31
0.0
  0
LINE
  8
0
 62
   249
 10
211.700954
 20
5.440166
 30
0.0
 11
213.887972
 21
5.440166
 31
0.0
  0
LINE
  8
0
 62
   249
 10
211.799912
 20
5.720166
 30
0.0
 11
213.887972
 21
5.720166
 31
0.0
  0
LINE
  8
0
 62
   249
 10
213.887972
 20
9.080166
 30
0.0
 11
212.977972
 21
9.080166
 31
0.0
  0
LINE
  8
0
 62
   249
 10
214.167972
 20
3.480166
 30
0.0
 11
215.287865
 21
3.480166
 31
0.0
  0
LINE
  8
0
 62
   249
 10
214.167972
 20
9.080166
 30
0.0
 11
214.167972
 21
5.720166
 31
0.0
  0
LINE
  8
0
 62
   249
 10
213.887972
 20
9.080166
 30
0.0
 11
213.887972
 21
5.720166
 31
0.0
  0
LINE
  8
0
 62
   249
 10
215.077972
 20
9.080166
 30
0.0
 11
214.167972
 21
9.080166
 31
0.0
  0
LINE
  8
0
 62
   249
 10
215.289069
 20
3.47703
 30
0.0
 11
215.777972
 21
2.080166
 31
0.0
  0
LINE
  8
0
 62
   249
 10
215.077972
 20
9.080166
 30
0.0
 11
216.254325
 21
5.719158
 31
0.0
  0
LINE
  8
0
 62
   249
 10
212.766762
 20
3.476709
 30
0.0
 11
212.277972
 21
2.080166
 31
0.0
  0
LINE
  8
0
 62
   249
 10
212.766758
 20
3.480166
 30
0.0
 11
213.887972
 21
3.480166
 31
0.0
  0
LINE
  8
0
 62
   249
 10
212.977972
 20
9.080166
 30
0.0
 11
211.800444
 21
5.715801
 31
0.0
  0
LINE
  8
0
 62
   249
 10
215.777972
 20
2.080166
 30
0.0
 11
217.527972
 21
2.080166
 31
0.0
  0
LINE
  8
0
 62
   249
 10
210.527972
 20
2.080166
 30
0.0
 11
212.277972
 21
2.080166
 31
0.0
  0
LINE
  8
0
 62
   249
 10
370.077972
 20
10.080166
 30
0.0
 11
370.077972
 21
0.580166
 31
0.0
  0
TEXT
  8
0
 62
   249
 10
371.577972
 20
7.580166
 30
0.0
 40
1.4
  1
PAINOS  REVISION
  7
ROMANS
  0
LINE
  8
0
 62
   249
 10
350.077972
 20
10.080166
 30
0.0
 11
350.077972
 21
18.580166
 31
0.0
  0
TEXT
  8
0
 62
   249
 10
309.577972
 20
7.580166
 30
0.0
 40
1.4
  1
PIIRUSTUS NO  DRAWING NR
  7
ROMANS
  0
TEXT
  8
0
 62
   249
 10
309.577972
 20
16.080166
 30
0.0
 40
1.4
  1
KOODI  CODE
  7
ROMANS
  0
TEXT
  8
0
 62
   249
 10
309.577972
 20
33.080166
 30
0.0
 40
1.4
  1
NIMITYS  NAME
  7
ROMANS
  0
TEXT
  8
0
 62
   249
 10
259.577972
 20
16.080166
 30
0.0
 40
1.4
  1
SUHDE  SCALE
  7
ROMANS
  0
TEXT
  8
0
 62
   249
 10
259.577972
 20
24.080166
 30
0.0
 40
1.4
  1
TOLERANSSIT  TOLERANCES
  7
ROMANS
  0
TEXT
  8
0
 62
   249
 10
259.577972
 20
33.080166
 30
0.0
 40
1.4
  1
LIITTYY  CONCERNING
  7
ROMANS
  0
LINE
  8
0
 62
   249
 10
307.577972
 20
0.580166
 30
0.0
 11
307.577972
 21
35.580166
 31
0.0
  0
TEXT
  8
0
 62
   249
 10
210.320806
 20
16.046833
 30
0.0
 40
1.4
  1
HYVÄKSYI  APPROVED
  7
ROMANS
  0
TEXT
  8
0
 62
   249
 10
210.577972
 20
24.313499
 30
0.0
 40
1.4
  1
TARKASTI  CHECKED
  7
ROMANS
  0
LINE
  8
0
 62
   249
 10
209.577972
 20
35.580166
 30
0.0
 11
392.577972
 21
35.580166
 31
0.0
  0
LINE
  8
0
 62
   249
 10
209.577972
 20
27.080166
 30
0.0
 11
307.577972
 21
27.080166
 31
0.0
  0
LINE
  8
0
 62
   249
 10
209.577972
 20
10.080166
 30
0.0
 11
392.577972
 21
10.080166
 31
0.0
  0
LINE
  8
0
 62
   249
 10
209.577972
 20
18.580166
 30
0.0
 11
392.577972
 21
18.580166
 31
0.0
  0
LINE
  8
0
 62
   249
 10
392.577972
 20
0.580166
 30
0.0
 11
392.577972
 21
35.580166
 31
0.0
  0
LINE
  8
0
 62
   249
 10
209.577972
 20
0.580166
 30
0.0
 11
209.577972
 21
35.580166
 31
0.0
  0
LINE
  8
0
 62
   249
 10
209.577972
 20
0.580166
 30
0.0
 11
392.577972
 21
0.580166
 31
0.0
  0
LINE
  8
0
 62
   249
 10
18.577972
 20
0.580166
 30
0.0
 11
0.577972
 21
0.580166
 31
0.0
  0
LINE
  8
0
 62
   249
 10
0.577972
 20
263.080166
 30
0.0
 11
392.577972
 21
263.080166
 31
0.0
  0
TEXT
  8
0
  6
DASHED
 62
   249
 10
292.558067
 20
12.155526
 30
0.0
 40
3.0
  1
A3
  7
GREEKS
  0
TEXT
  8
0
  6
CONTINUOUS
 62
   249
 10
161.853328
 20
51.513635
 30
0.0
 40
2.0
  1
+
  0
TEXT
  8
0
  6
CONTINUOUS
 62
   249
 10
166.853328
 20
51.513635
 30
0.0
 40
2.0
  1
+
  0
TEXT
  8
0
  6
CONTINUOUS
 62
   249
 10
176.853328
 20
51.513635
 30
0.0
 40
2.0
  1
+
  0
TEXT
  8
0
  6
CONTINUOUS
 62
   249
 10
181.853328
 20
51.513635
 30
0.0
 40
2.0
  1
+
  0
TEXT
  8
0
  6
CONTINUOUS
 62
   249
 10
186.853328
 20
51.513635
 30
0.0
 40
2.0
  1
+
  0
TEXT
  8
0
  6
CONTINUOUS
 62
   249
 10
194.344763
 20
51.50558
 30
0.0
 40
2.0
  1
-
  0
ARC
  8
0
  6
CONTINUOUS
 62
   249
 10
177.5
 20
85.0
 30
0.0
 40
0.5
 50
180.0
 51
0.0
  0
ARC
  8
0
  6
CONTINUOUS
 62
   249
 10
177.5
 20
85.0
 30
0.0
 40
0.5
 50
0.0
 51
180.0
  0
CIRCLE
  8
0
  6
CONTINUOUS
 62
   249
 10
42.232228
 20
140.195657
 30
0.0
 40
0.617044
  0
CIRCLE
  8
0
  6
CONTINUOUS
 62
   249
 10
42.232228
 20
140.195657
 30
0.0
 40
1.252595
  0
CIRCLE
  8
0
  6
CONTINUOUS
 62
   249
 10
42.232228
 20
150.047869
 30
0.0
 40
0.617044
  0
CIRCLE
  8
0
  6
CONTINUOUS
 62
   249
 10
42.232228
 20
150.047869
 30
0.0
 40
1.252595
  0
LINE
  8
0
 62
   249
 10
2.907741
 20
238.135937
 30
0.0
 11
6.907741
 21
238.135937
 31
0.0
  0
INSERT
  8
0
 62
   249
  2
WKU130
 10
3.247691
 20
236.410384
 30
0.0
 41
0.8
 42
0.8
 43
0.8
  0
TEXT
  8
0
  6
CONTINUOUS
 62
   249
 10
8.269996
 20
239.013635
 30
0.0
 40
2.0
  1
+
  0
TEXT
  8
0
  6
CONTINUOUS
 62
   249
 10
8.261431
 20
234.00558
 30
0.0
 40
2.0
  1
-
  0
LINE
  8
0
  6
CONTINUOUS
 62
   249
 10
42.759542
 20
236.434327
 30
0.0
 11
41.693117
 21
237.500752
 31
0.0
  0
LINE
  8
0
  6
CONTINUOUS
 62
   249
 10
43.825967
 20
237.500752
 30
0.0
 11
42.759542
 21
236.434327
 31
0.0
  0
LINE
  8
0
  6
CONTINUOUS
 62
   249
 10
42.759542
 20
238.567177
 30
0.0
 11
43.825967
 21
237.500752
 31
0.0
  0
LINE
  8
0
  6
CONTINUOUS
 62
   249
 10
41.693117
 20
237.500752
 30
0.0
 11
42.759542
 21
238.567177
 31
0.0
  0
LINE
  8
0
  6
CONTINUOUS
 62
   249
 10
179.475782
 20
212.966144
 30
0.0
 11
180.362669
 21
212.966144
 31
0.0
  0
LINE
  8
0
  6
CONTINUOUS
 62
   249
 10
179.144678
 20
213.577777
 30
0.0
 11
180.729249
 21
213.577777
 31
0.0
  0
LINE
  8
0
  6
CONTINUOUS
 62
   249
 10
179.960613
 20
214.19984
 30
0.0
 11
181.154954
 21
214.19984
 31
0.0
  0
LINE
  8
0
  6
CONTINUOUS
 62
   249
 10
178.766272
 20
214.19984
 30
0.0
 11
179.960613
 21
214.19984
 31
0.0
  0
LINE
  8
0
  6
CONTINUOUS
 62
   249
 10
179.9765
 20
215.55411
 30
0.0
 11
179.9765
 21
214.19984
 31
0.0
  0
ARC
  8
0
  6
CONTINUOUS
 62
   249
 10
84.968713
 20
214.092853
 30
0.0
 40
0.5
 50
180.0
 51
0.0
  0
ARC
  8
0
  6
CONTINUOUS
 62
   249
 10
84.968713
 20
214.092853
 30
0.0
 40
0.5
 50
0.0
 51
180.0
  0
ARC
  8
0
  6
CONTINUOUS
 62
   249
 10
102.5
 20
214.092853
 30
0.0
 40
0.5
 50
180.0
 51
0.0
  0
ARC
  8
0
  6
CONTINUOUS
 62
   249
 10
102.5
 20
214.092853
 30
0.0
 40
0.5
 50
0.0
 51
180.0
  0
LINE
  8
0
  6
CONTINUOUS
 62
   249
 10
170.42845
 20
212.757512
 30
0.0
 11
168.082685
 21
214.092866
 31
0.0
  0
LINE
  8
0
  6
CONTINUOUS
 62
   249
 10
168.082685
 20
214.092866
 30
0.0
 11
170.42845
 21
215.282785
 31
0.0
  0
ARC
  8
0
  6
CONTINUOUS
 62
   249
 10
94.968713
 20
202.347111
 30
0.0
 40
0.5
 50
180.0
 51
0.0
  0
ARC
  8
0
  6
CONTINUOUS
 62
   249
 10
94.968713
 20
202.347111
 30
0.0
 40
0.5
 50
0.0
 51
180.0
  0
ARC
  8
0
  6
CONTINUOUS
 62
   249
 10
120.0
 20
202.347111
 30
0.0
 40
0.5
 50
180.0
 51
0.0
  0
ARC
  8
0
  6
CONTINUOUS
 62
   249
 10
120.0
 20
202.347111
 30
0.0
 40
0.5
 50
0.0
 51
180.0
  0
LINE
  8
0
  6
CONTINUOUS
 62
   249
 10
170.419131
 20
171.159936
 30
0.0
 11
168.073366
 21
172.495289
 31
0.0
  0
LINE
  8
0
  6
CONTINUOUS
 62
   249
 10
168.073366
 20
172.495289
 30
0.0
 11
170.419131
 21
173.685208
 31
0.0
  0
LINE
  8
0
  6
CONTINUOUS
 62
   249
 10
179.475782
 20
200.600668
 30
0.0
 11
180.362669
 21
200.600668
 31
0.0
  0
LINE
  8
0
  6
CONTINUOUS
 62
   249
 10
179.144678
 20
201.212301
 30
0.0
 11
180.729249
 21
201.212301
 31
0.0
  0
LINE
  8
0
  6
CONTINUOUS
 62
   249
 10
179.960613
 20
201.834364
 30
0.0
 11
181.154954
 21
201.834364
 31
0.0
  0
LINE
  8
0
  6
CONTINUOUS
 62
   249
 10
178.766272
 20
201.834364
 30
0.0
 11
179.960613
 21
201.834364
 31
0.0
  0
LINE
  8
0
  6
CONTINUOUS
 62
   249
 10
179.9765
 20
203.188634
 30
0.0
 11
179.9765
 21
201.834364
 31
0.0
  0
LINE
  8
0
  6
CONTINUOUS
 62
   249
 10
179.475782
 20
208.115407
 30
0.0
 11
180.362669
 21
208.115407
 31
0.0
  0
LINE
  8
0
  6
CONTINUOUS
 62
   249
 10
179.144678
 20
208.72704
 30
0.0
 11
180.729249
 21
208.72704
 31
0.0
  0
LINE
  8
0
  6
CONTINUOUS
 62
   249
 10
179.960613
 20
209.349102
 30
0.0
 11
181.154954
 21
209.349102
 31
0.0
  0
LINE
  8
0
  6
CONTINUOUS
 62
   249
 10
178.766272
 20
209.349102
 30
0.0
 11
179.960613
 21
209.349102
 31
0.0
  0
LINE
  8
0
  6
CONTINUOUS
 62
   249
 10
179.9765
 20
210.703372
 30
0.0
 11
179.9765
 21
209.349102
 31
0.0
  0
LINE
  8
0
  6
CONTINUOUS
 62
   249
 10
170.42845
 20
201.011752
 30
0.0
 11
168.082685
 21
202.347106
 31
0.0
  0
LINE
  8
0
  6
CONTINUOUS
 62
   249
 10
168.082685
 20
202.347106
 30
0.0
 11
170.42845
 21
203.537025
 31
0.0
  0
LINE
  8
0
  6
CONTINUOUS
 62
   249
 10
170.42845
 20
208.664636
 30
0.0
 11
168.082685
 21
209.99999
 31
0.0
  0
LINE
  8
0
  6
CONTINUOUS
 62
   249
 10
168.082685
 20
209.99999
 30
0.0
 11
170.42845
 21
211.189909
 31
0.0
  0
ARC
  8
0
  6
CONTINUOUS
 62
   249
 10
90.0
 20
222.141632
 30
0.0
 40
0.5
 50
180.0
 51
0.0
  0
ARC
  8
0
  6
CONTINUOUS
 62
   249
 10
90.0
 20
222.141632
 30
0.0
 40
0.5
 50
0.0
 51
180.0
  0
ARC
  8
0
  6
CONTINUOUS
 62
   249
 10
140.0
 20
229.753087
 30
0.0
 40
0.5
 50
180.0
 51
0.0
  0
ARC
  8
0
  6
CONTINUOUS
 62
   249
 10
140.0
 20
229.753087
 30
0.0
 40
0.5
 50
0.0
 51
180.0
  0
ARC
  8
0
  6
CONTINUOUS
 62
   249
 10
162.5
 20
225.51836
 30
0.0
 40
0.5
 50
180.0
 51
0.0
  0
ARC
  8
0
  6
CONTINUOUS
 62
   249
 10
162.5
 20
225.51836
 30
0.0
 40
0.5
 50
0.0
 51
180.0
  0
ARC
  8
0
  6
CONTINUOUS
 62
   249
 10
162.5
 20
233.014298
 30
0.0
 40
0.5
 50
180.0
 51
0.0
  0
ARC
  8
0
  6
CONTINUOUS
 62
   249
 10
162.5
 20
233.014298
 30
0.0
 40
0.5
 50
0.0
 51
180.0
  0
LINE
  8
0
  6
CONTINUOUS
 62
   249
 10
179.475782
 20
216.237572
 30
0.0
 11
180.362669
 21
216.237572
 31
0.0
  0
LINE
  8
0
  6
CONTINUOUS
 62
   249
 10
179.144678
 20
216.849205
 30
0.0
 11
180.729249
 21
216.849205
 31
0.0
  0
LINE
  8
0
  6
CONTINUOUS
 62
   249
 10
179.960613
 20
217.471267
 30
0.0
 11
181.154954
 21
217.471267
 31
0.0
  0
LINE
  8
0
  6
CONTINUOUS
 62
   249
 10
178.766272
 20
217.471267
 30
0.0
 11
179.960613
 21
217.471267
 31
0.0
  0
LINE
  8
0
  6
CONTINUOUS
 62
   249
 10
179.9765
 20
218.825538
 30
0.0
 11
179.9765
 21
217.471267
 31
0.0
  0
LINE
  8
0
  6
CONTINUOUS
 62
   249
 10
179.968178
 20
222.826402
 30
0.0
 11
179.968178
 21
221.472132
 31
0.0
  0
LINE
  8
0
  6
CONTINUOUS
 62
   249
 10
178.75795
 20
221.472132
 30
0.0
 11
179.952291
 21
221.472132
 31
0.0
  0
LINE
  8
0
  6
CONTINUOUS
 62
   249
 10
179.952291
 20
221.472132
 30
0.0
 11
181.146632
 21
221.472132
 31
0.0
  0
LINE
  8
0
  6
CONTINUOUS
 62
   249
 10
179.136355
 20
220.992522
 30
0.0
 11
180.720926
 21
220.992522
 31
0.0
  0
LINE
  8
0
  6
CONTINUOUS
 62
   249
 10
179.467459
 20
220.504347
 30
0.0
 11
180.354346
 21
220.504347
 31
0.0
  0
LINE
  8
0
  6
CONTINUOUS
 62
   249
 10
179.968178
 20
230.364337
 30
0.0
 11
179.968178
 21
229.010066
 31
0.0
  0
LINE
  8
0
  6
CONTINUOUS
 62
   249
 10
178.75795
 20
229.010066
 30
0.0
 11
179.952291
 21
229.010066
 31
0.0
  0
LINE
  8
0
  6
CONTINUOUS
 62
   249
 10
179.952291
 20
229.010066
 30
0.0
 11
181.146632
 21
229.010066
 31
0.0
  0
LINE
  8
0
  6
CONTINUOUS
 62
   249
 10
179.136355
 20
228.530456
 30
0.0
 11
180.720926
 21
228.530456
 31
0.0
  0
LINE
  8
0
  6
CONTINUOUS
 62
   249
 10
179.467459
 20
228.042281
 30
0.0
 11
180.354346
 21
228.042281
 31
0.0
  0
LINE
  8
0
  6
CONTINUOUS
 62
   249
 10
170.42845
 20
216.295027
 30
0.0
 11
168.082685
 21
217.63038
 31
0.0
  0
LINE
  8
0
  6
CONTINUOUS
 62
   249
 10
168.082685
 20
217.63038
 30
0.0
 11
170.42845
 21
218.8203
 31
0.0
  0
LINE
  8
0
  6
CONTINUOUS
 62
   249
 10
170.42845
 20
220.806275
 30
0.0
 11
168.082685
 21
222.141629
 31
0.0
  0
LINE
  8
0
  6
CONTINUOUS
 62
   249
 10
168.082685
 20
222.141629
 30
0.0
 11
170.42845
 21
223.331548
 31
0.0
  0
LINE
  8
0
  6
CONTINUOUS
 62
   249
 10
170.42845
 20
228.417749
 30
0.0
 11
168.082685
 21
229.753103
 31
0.0
  0
LINE
  8
0
  6
CONTINUOUS
 62
   249
 10
168.082685
 20
229.753103
 30
0.0
 11
170.42845
 21
230.943022
 31
0.0
  0
LINE
  8
0
 62
   249
 10
207.479007
 20
50.783527
 30
0.0
 11
211.479007
 21
50.783527
 31
0.0
  0
INSERT
  8
0
 62
   249
  2
WKU130
 10
207.818957
 20
49.057974
 30
0.0
 41
0.8
 42
0.8
 43
0.8
  0
INSERT
  8
0
  6
CENTER
 62
   249
  2
BLC5
 10
225.291926
 20
53.342005
 30
0.0
 41
0.6
 42
0.6
 43
0.6
  0
TEXT
  8
0
  6
CONTINUOUS
 62
   249
 10
206.853328
 20
51.513635
 30
0.0
 40
2.0
  1
+
  0
TEXT
  8
0
  6
CONTINUOUS
 62
   249
 10
211.844763
 20
51.50558
 30
0.0
 40
2.0
  1
-
  0
ARC
  8
0
 62
   249
 10
211.172927
 20
110.936221
 30
0.0
 40
0.869227
 50
32.471192
 51
175.601295
  0
ARC
  8
0
 62
   249
 10
212.639595
 20
111.869554
 30
0.0
 40
0.869227
 50
212.471192
 51
355.601295
  0
LINE
  8
0
  6
CONTINUOUS
 62
   249
 10
216.954518
 20
176.164646
 30
0.0
 11
214.608752
 21
177.5
 31
0.0
  0
LINE
  8
0
  6
CONTINUOUS
 62
   249
 10
214.608752
 20
177.5
 30
0.0
 11
216.954518
 21
178.689919
 31
0.0
  0
LINE
  8
0
  6
CONTINUOUS
 62
   249
 10
220.515252
 20
178.835354
 30
0.0
 11
222.861018
 21
177.5
 31
0.0
  0
LINE
  8
0
  6
CONTINUOUS
 62
   249
 10
222.861018
 20
177.5
 30
0.0
 11
220.515252
 21
176.310081
 31
0.0
  0
LINE
  8
0
  6
CONTINUOUS
 62
   249
 10
200.742519
 20
207.074103
 30
0.0
 11
201.629406
 21
207.074103
 31
0.0
  0
LINE
  8
0
  6
CONTINUOUS
 62
   249
 10
200.411414
 20
207.685737
 30
0.0
 11
201.995986
 21
207.685737
 31
0.0
  0
LINE
  8
0
  6
CONTINUOUS
 62
   249
 10
201.22735
 20
208.307799
 30
0.0
 11
202.421691
 21
208.307799
 31
0.0
  0
LINE
  8
0
  6
CONTINUOUS
 62
   249
 10
200.033009
 20
208.307799
 30
0.0
 11
201.22735
 21
208.307799
 31
0.0
  0
LINE
  8
0
  6
CONTINUOUS
 62
   249
 10
201.243237
 20
209.662069
 30
0.0
 11
201.243237
 21
208.307799
 31
0.0
  0
LINE
  8
0
  6
CONTINUOUS
 62
   249
 10
218.465688
 20
193.664644
 30
0.0
 11
216.119923
 21
194.999998
 31
0.0
  0
LINE
  8
0
  6
CONTINUOUS
 62
   249
 10
216.119923
 20
194.999998
 30
0.0
 11
218.465688
 21
196.189917
 31
0.0
  0
ARC
  8
0
  6
CONTINUOUS
 62
   249
 10
215.0
 20
210.0
 30
0.0
 40
0.5
 50
180.0
 51
0.0
  0
ARC
  8
0
  6
CONTINUOUS
 62
   249
 10
215.0
 20
210.0
 30
0.0
 40
0.5
 50
0.0
 51
180.0
  0
3DFACE
  8
0
  6
CONTINUOUS
 62
   249
 10
239.134024
 20
176.94
 30
0.0
 11
239.149704
 21
176.94
 31
0.0
 12
239.149704
 22
178.06
 32
0.0
 13
239.134024
 23
178.06
 33
0.0
  0
3DFACE
  8
0
  6
CONTINUOUS
 62
   249
 10
239.149704
 20
176.94
 30
0.0
 11
239.165384
 21
176.94
 31
0.0
 12
239.165384
 22
178.06
 32
0.0
 13
239.149704
 23
178.06
 33
0.0
  0
3DFACE
  8
0
  6
CONTINUOUS
 62
   249
 10
239.165384
 20
176.94
 30
0.0
 11
239.181064
 21
176.94
 31
0.0
 12
239.181064
 22
178.06
 32
0.0
 13
239.165384
 23
178.06
 33
0.0
  0
3DFACE
  8
0
  6
CONTINUOUS
 62
   249
 10
239.181064
 20
176.94
 30
0.0
 11
239.196744
 21
176.94
 31
0.0
 12
239.196744
 22
178.06
 32
0.0
 13
239.181064
 23
178.06
 33
0.0
  0
3DFACE
  8
0
  6
CONTINUOUS
 62
   249
 10
239.196744
 20
176.94
 30
0.0
 11
239.212424
 21
176.94
 31
0.0
 12
239.212424
 22
178.06
 32
0.0
 13
239.196744
 23
178.06
 33
0.0
  0
3DFACE
  8
0
  6
CONTINUOUS
 62
   249
 10
239.212424
 20
176.94
 30
0.0
 11
239.228104
 21
176.94
 31
0.0
 12
239.228104
 22
178.06
 32
0.0
 13
239.212424
 23
178.06
 33
0.0
  0
3DFACE
  8
0
  6
CONTINUOUS
 62
   249
 10
239.228104
 20
176.94
 30
0.0
 11
239.243784
 21
176.94
 31
0.0
 12
239.243784
 22
178.06
 32
0.0
 13
239.228104
 23
178.06
 33
0.0
  0
3DFACE
  8
0
  6
CONTINUOUS
 62
   249
 10
239.243784
 20
176.94
 30
0.0
 11
239.259464
 21
176.94
 31
0.0
 12
239.259464
 22
178.06
 32
0.0
 13
239.243784
 23
178.06
 33
0.0
  0
3DFACE
  8
0
  6
CONTINUOUS
 62
   249
 10
239.259464
 20
176.94
 30
0.0
 11
239.275144
 21
176.94
 31
0.0
 12
239.275144
 22
178.06
 32
0.0
 13
239.259464
 23
178.06
 33
0.0
  0
3DFACE
  8
0
  6
CONTINUOUS
 62
   249
 10
239.275144
 20
176.94
 30
0.0
 11
239.290824
 21
176.94
 31
0.0
 12
239.290824
 22
178.06
 32
0.0
 13
239.275144
 23
178.06
 33
0.0
  0
3DFACE
  8
0
  6
CONTINUOUS
 62
   249
 10
239.290824
 20
176.94
 30
0.0
 11
239.306504
 21
176.94
 31
0.0
 12
239.306504
 22
178.06
 32
0.0
 13
239.290824
 23
178.06
 33
0.0
  0
3DFACE
  8
0
  6
CONTINUOUS
 62
   249
 10
239.306504
 20
176.94
 30
0.0
 11
239.322184
 21
176.94
 31
0.0
 12
239.322184
 22
178.06
 32
0.0
 13
239.306504
 23
178.06
 33
0.0
  0
3DFACE
  8
0
  6
CONTINUOUS
 62
   249
 10
239.322184
 20
176.94
 30
0.0
 11
239.337864
 21
176.94
 31
0.0
 12
239.337864
 22
178.06
 32
0.0
 13
239.322184
 23
178.06
 33
0.0
  0
3DFACE
  8
0
  6
CONTINUOUS
 62
   249
 10
239.337864
 20
176.94
 30
0.0
 11
239.353544
 21
176.94
 31
0.0
 12
239.353544
 22
178.06
 32
0.0
 13
239.337864
 23
178.06
 33
0.0
  0
3DFACE
  8
0
  6
CONTINUOUS
 62
   249
 10
239.353544
 20
176.94
 30
0.0
 11
239.369224
 21
176.94
 31
0.0
 12
239.369224
 22
178.06
 32
0.0
 13
239.353544
 23
178.06
 33
0.0
  0
3DFACE
  8
0
  6
CONTINUOUS
 62
   249
 10
239.369224
 20
176.94
 30
0.0
 11
239.384904
 21
176.94
 31
0.0
 12
239.384904
 22
178.06
 32
0.0
 13
239.369224
 23
178.06
 33
0.0
  0
3DFACE
  8
0
  6
CONTINUOUS
 62
   249
 10
239.384904
 20
176.94
 30
0.0
 11
239.400584
 21
176.94
 31
0.0
 12
239.400584
 22
178.06
 32
0.0
 13
239.384904
 23
178.06
 33
0.0
  0
3DFACE
  8
0
  6
CONTINUOUS
 62
   249
 10
239.400584
 20
176.94
 30
0.0
 11
239.416264
 21
176.94
 31
0.0
 12
239.416264
 22
178.06
 32
0.0
 13
239.400584
 23
178.06
 33
0.0
  0
3DFACE
  8
0
  6
CONTINUOUS
 62
   249
 10
239.416264
 20
176.94
 30
0.0
 11
239.431944
 21
176.94
 31
0.0
 12
239.431944
 22
178.06
 32
0.0
 13
239.416264
 23
178.06
 33
0.0
  0
3DFACE
  8
0
  6
CONTINUOUS
 62
   249
 10
239.431944
 20
176.94
 30
0.0
 11
239.447624
 21
176.94
 31
0.0
 12
239.447624
 22
178.06
 32
0.0
 13
239.431944
 23
178.06
 33
0.0
  0
3DFACE
  8
0
  6
CONTINUOUS
 62
   249
 10
239.447624
 20
176.94
 30
0.0
 11
239.463304
 21
176.94
 31
0.0
 12
239.463304
 22
178.06
 32
0.0
 13
239.447624
 23
178.06
 33
0.0
  0
3DFACE
  8
0
  6
CONTINUOUS
 62
   249
 10
239.463304
 20
176.94
 30
0.0
 11
239.478984
 21
176.94
 31
0.0
 12
239.478984
 22
178.06
 32
0.0
 13
239.463304
 23
178.06
 33
0.0
  0
3DFACE
  8
0
  6
CONTINUOUS
 62
   249
 10
239.478984
 20
176.94
 30
0.0
 11
239.494664
 21
176.94
 31
0.0
 12
239.494664
 22
178.06
 32
0.0
 13
239.478984
 23
178.06
 33
0.0
  0
3DFACE
  8
0
  6
CONTINUOUS
 62
   249
 10
239.494664
 20
176.94
 30
0.0
 11
239.510344
 21
176.94
 31
0.0
 12
239.510344
 22
178.06
 32
0.0
 13
239.494664
 23
178.06
 33
0.0
  0
3DFACE
  8
0
  6
CONTINUOUS
 62
   249
 10
239.510344
 20
176.94
 30
0.0
 11
239.526024
 21
176.94
 31
0.0
 12
239.526024
 22
178.06
 32
0.0
 13
239.510344
 23
178.06
 33
0.0
  0
3DFACE
  8
0
  6
CONTINUOUS
 62
   249
 10
239.526024
 20
176.94
 30
0.0
 11
239.541704
 21
176.94
 31
0.0
 12
239.541704
 22
178.06
 32
0.0
 13
239.526024
 23
178.06
 33
0.0
  0
3DFACE
  8
0
  6
CONTINUOUS
 62
   249
 10
239.541704
 20
176.94
 30
0.0
 11
239.557384
 21
176.94
 31
0.0
 12
239.557384
 22
178.06
 32
0.0
 13
239.541704
 23
178.06
 33
0.0
  0
3DFACE
  8
0
  6
CONTINUOUS
 62
   249
 10
239.557384
 20
176.94
 30
0.0
 11
239.573064
 21
176.94
 31
0.0
 12
239.573064
 22
178.06
 32
0.0
 13
239.557384
 23
178.06
 33
0.0
  0
3DFACE
  8
0
  6
CONTINUOUS
 62
   249
 10
239.573064
 20
176.94
 30
0.0
 11
239.588744
 21
176.94
 31
0.0
 12
239.588744
 22
178.06
 32
0.0
 13
239.573064
 23
178.06
 33
0.0
  0
3DFACE
  8
0
  6
CONTINUOUS
 62
   249
 10
239.588744
 20
176.94
 30
0.0
 11
239.604424
 21
176.94
 31
0.0
 12
239.604424
 22
178.06
 32
0.0
 13
239.588744
 23
178.06
 33
0.0
  0
3DFACE
  8
0
  6
CONTINUOUS
 62
   249
 10
239.604424
 20
176.94
 30
0.0
 11
239.620104
 21
176.94
 31
0.0
 12
239.620104
 22
178.06
 32
0.0
 13
239.604424
 23
178.06
 33
0.0
  0
3DFACE
  8
0
  6
CONTINUOUS
 62
   249
 10
239.620104
 20
176.94
 30
0.0
 11
239.635784
 21
176.94
 31
0.0
 12
239.635784
 22
178.06
 32
0.0
 13
239.620104
 23
178.06
 33
0.0
  0
3DFACE
  8
0
  6
CONTINUOUS
 62
   249
 10
239.635784
 20
176.94
 30
0.0
 11
239.651464
 21
176.94
 31
0.0
 12
239.651464
 22
178.06
 32
0.0
 13
239.635784
 23
178.06
 33
0.0
  0
3DFACE
  8
0
  6
CONTINUOUS
 62
   249
 10
239.651464
 20
176.94
 30
0.0
 11
239.667144
 21
176.94
 31
0.0
 12
239.667144
 22
178.06
 32
0.0
 13
239.651464
 23
178.06
 33
0.0
  0
3DFACE
  8
0
  6
CONTINUOUS
 62
   249
 10
239.667144
 20
176.94
 30
0.0
 11
239.682824
 21
176.94
 31
0.0
 12
239.682824
 22
178.06
 32
0.0
 13
239.667144
 23
178.06
 33
0.0
  0
3DFACE
  8
0
  6
CONTINUOUS
 62
   249
 10
239.682824
 20
176.94
 30
0.0
 11
239.698504
 21
176.94
 31
0.0
 12
239.698504
 22
178.06
 32
0.0
 13
239.682824
 23
178.06
 33
0.0
  0
3DFACE
  8
0
  6
CONTINUOUS
 62
   249
 10
239.698504
 20
176.94
 30
0.0
 11
239.714184
 21
176.94
 31
0.0
 12
239.714184
 22
178.06
 32
0.0
 13
239.698504
 23
178.06
 33
0.0
  0
3DFACE
  8
0
  6
CONTINUOUS
 62
   249
 10
239.714184
 20
176.94
 30
0.0
 11
239.729864
 21
176.94
 31
0.0
 12
239.729864
 22
178.06
 32
0.0
 13
239.714184
 23
178.06
 33
0.0
  0
3DFACE
  8
0
  6
CONTINUOUS
 62
   249
 10
239.729864
 20
176.94
 30
0.0
 11
239.745544
 21
176.94
 31
0.0
 12
239.745544
 22
178.06
 32
0.0
 13
239.729864
 23
178.06
 33
0.0
  0
3DFACE
  8
0
  6
CONTINUOUS
 62
   249
 10
239.745544
 20
176.94
 30
0.0
 11
239.761224
 21
176.94
 31
0.0
 12
239.761224
 22
178.06
 32
0.0
 13
239.745544
 23
178.06
 33
0.0
  0
3DFACE
  8
0
  6
CONTINUOUS
 62
   249
 10
239.761224
 20
176.94
 30
0.0
 11
239.776904
 21
176.94
 31
0.0
 12
239.776904
 22
178.06
 32
0.0
 13
239.761224
 23
178.06
 33
0.0
  0
3DFACE
  8
0
  6
CONTINUOUS
 62
   249
 10
239.776904
 20
176.94
 30
0.0
 11
239.792584
 21
176.94
 31
0.0
 12
239.792584
 22
178.06
 32
0.0
 13
239.776904
 23
178.06
 33
0.0
  0
3DFACE
  8
0
  6
CONTINUOUS
 62
   249
 10
239.792584
 20
176.94
 30
0.0
 11
239.808264
 21
176.94
 31
0.0
 12
239.808264
 22
178.06
 32
0.0
 13
239.792584
 23
178.06
 33
0.0
  0
3DFACE
  8
0
  6
CONTINUOUS
 62
   249
 10
239.808264
 20
176.94
 30
0.0
 11
239.823944
 21
176.94
 31
0.0
 12
239.823944
 22
178.06
 32
0.0
 13
239.808264
 23
178.06
 33
0.0
  0
3DFACE
  8
0
  6
CONTINUOUS
 62
   249
 10
239.823944
 20
176.94
 30
0.0
 11
239.839624
 21
176.94
 31
0.0
 12
239.839624
 22
178.06
 32
0.0
 13
239.823944
 23
178.06
 33
0.0
  0
3DFACE
  8
0
  6
CONTINUOUS
 62
   249
 10
239.839624
 20
176.94
 30
0.0
 11
239.855304
 21
176.94
 31
0.0
 12
239.855304
 22
178.06
 32
0.0
 13
239.839624
 23
178.06
 33
0.0
  0
3DFACE
  8
0
  6
CONTINUOUS
 62
   249
 10
239.855304
 20
176.94
 30
0.0
 11
239.870984
 21
176.94
 31
0.0
 12
239.870984
 22
178.06
 32
0.0
 13
239.855304
 23
178.06
 33
0.0
  0
3DFACE
  8
0
  6
CONTINUOUS
 62
   249
 10
239.870984
 20
176.94
 30
0.0
 11
239.886664
 21
176.94
 31
0.0
 12
239.886664
 22
178.06
 32
0.0
 13
239.870984
 23
178.06
 33
0.0
  0
3DFACE
  8
0
  6
CONTINUOUS
 62
   249
 10
239.886664
 20
176.94
 30
0.0
 11
239.902344
 21
176.94
 31
0.0
 12
239.902344
 22
178.06
 32
0.0
 13
239.886664
 23
178.06
 33
0.0
  0
3DFACE
  8
0
  6
CONTINUOUS
 62
   249
 10
239.902344
 20
176.94
 30
0.0
 11
239.918024
 21
176.94
 31
0.0
 12
239.918024
 22
178.06
 32
0.0
 13
239.902344
 23
178.06
 33
0.0
  0
3DFACE
  8
0
  6
CONTINUOUS
 62
   249
 10
239.918024
 20
176.94
 30
0.0
 11
239.933704
 21
176.94
 31
0.0
 12
239.933704
 22
178.06
 32
0.0
 13
239.918024
 23
178.06
 33
0.0
  0
3DFACE
  8
0
  6
CONTINUOUS
 62
   249
 10
239.933704
 20
176.94
 30
0.0
 11
239.949384
 21
176.94
 31
0.0
 12
239.949384
 22
178.06
 32
0.0
 13
239.933704
 23
178.06
 33
0.0
  0
3DFACE
  8
0
  6
CONTINUOUS
 62
   249
 10
239.949384
 20
176.94
 30
0.0
 11
239.965064
 21
176.94
 31
0.0
 12
239.965064
 22
178.06
 32
0.0
 13
239.949384
 23
178.06
 33
0.0
  0
3DFACE
  8
0
  6
CONTINUOUS
 62
   249
 10
239.965064
 20
176.94
 30
0.0
 11
239.980744
 21
176.94
 31
0.0
 12
239.980744
 22
178.06
 32
0.0
 13
239.965064
 23
178.06
 33
0.0
  0
3DFACE
  8
0
  6
CONTINUOUS
 62
   249
 10
239.980744
 20
176.94
 30
0.0
 11
239.996424
 21
176.94
 31
0.0
 12
239.996424
 22
178.06
 32
0.0
 13
239.980744
 23
178.06
 33
0.0
  0
3DFACE
  8
0
  6
CONTINUOUS
 62
   249
 10
239.996424
 20
176.94
 30
0.0
 11
240.012104
 21
176.94
 31
0.0
 12
240.012104
 22
178.06
 32
0.0
 13
239.996424
 23
178.06
 33
0.0
  0
3DFACE
  8
0
  6
CONTINUOUS
 62
   249
 10
240.012104
 20
176.94
 30
0.0
 11
240.027784
 21
176.94
 31
0.0
 12
240.027784
 22
178.06
 32
0.0
 13
240.012104
 23
178.06
 33
0.0
  0
3DFACE
  8
0
  6
CONTINUOUS
 62
   249
 10
240.027784
 20
176.94
 30
0.0
 11
240.043464
 21
176.94
 31
0.0
 12
240.043464
 22
178.06
 32
0.0
 13
240.027784
 23
178.06
 33
0.0
  0
3DFACE
  8
0
  6
CONTINUOUS
 62
   249
 10
240.043464
 20
176.94
 30
0.0
 11
240.059144
 21
176.94
 31
0.0
 12
240.059144
 22
178.06
 32
0.0
 13
240.043464
 23
178.06
 33
0.0
  0
3DFACE
  8
0
  6
CONTINUOUS
 62
   249
 10
240.059144
 20
176.94
 30
0.0
 11
240.074824
 21
176.94
 31
0.0
 12
240.074824
 22
178.06
 32
0.0
 13
240.059144
 23
178.06
 33
0.0
  0
3DFACE
  8
0
  6
CONTINUOUS
 62
   249
 10
240.074824
 20
176.94
 30
0.0
 11
240.090504
 21
176.94
 31
0.0
 12
240.090504
 22
178.06
 32
0.0
 13
240.074824
 23
178.06
 33
0.0
  0
3DFACE
  8
0
  6
CONTINUOUS
 62
   249
 10
240.090504
 20
176.94
 30
0.0
 11
240.106184
 21
176.94
 31
0.0
 12
240.106184
 22
178.06
 32
0.0
 13
240.090504
 23
178.06
 33
0.0
  0
3DFACE
  8
0
  6
CONTINUOUS
 62
   249
 10
240.106184
 20
176.94
 30
0.0
 11
240.121864
 21
176.94
 31
0.0
 12
240.121864
 22
178.06
 32
0.0
 13
240.106184
 23
178.06
 33
0.0
  0
3DFACE
  8
0
  6
CONTINUOUS
 62
   249
 10
240.121864
 20
176.94
 30
0.0
 11
240.137544
 21
176.94
 31
0.0
 12
240.137544
 22
178.06
 32
0.0
 13
240.121864
 23
178.06
 33
0.0
  0
3DFACE
  8
0
  6
CONTINUOUS
 62
   249
 10
240.137544
 20
176.94
 30
0.0
 11
240.153224
 21
176.94
 31
0.0
 12
240.153224
 22
178.06
 32
0.0
 13
240.137544
 23
178.06
 33
0.0
  0
3DFACE
  8
0
  6
CONTINUOUS
 62
   249
 10
240.153224
 20
176.94
 30
0.0
 11
240.168904
 21
176.94
 31
0.0
 12
240.168904
 22
178.06
 32
0.0
 13
240.153224
 23
178.06
 33
0.0
  0
3DFACE
  8
0
  6
CONTINUOUS
 62
   249
 10
240.168904
 20
176.94
 30
0.0
 11
240.184584
 21
176.94
 31
0.0
 12
240.184584
 22
178.06
 32
0.0
 13
240.168904
 23
178.06
 33
0.0
  0
3DFACE
  8
0
  6
CONTINUOUS
 62
   249
 10
240.184584
 20
176.94
 30
0.0
 11
240.200264
 21
176.94
 31
0.0
 12
240.200264
 22
178.06
 32
0.0
 13
240.184584
 23
178.06
 33
0.0
  0
3DFACE
  8
0
  6
CONTINUOUS
 62
   249
 10
240.200264
 20
176.94
 30
0.0
 11
240.215944
 21
176.94
 31
0.0
 12
240.215944
 22
178.06
 32
0.0
 13
240.200264
 23
178.06
 33
0.0
  0
3DFACE
  8
0
  6
CONTINUOUS
 62
   249
 10
240.215944
 20
176.94
 30
0.0
 11
240.231624
 21
176.94
 31
0.0
 12
240.231624
 22
178.06
 32
0.0
 13
240.215944
 23
178.06
 33
0.0
  0
3DFACE
  8
0
  6
CONTINUOUS
 62
   249
 10
240.231624
 20
176.94
 30
0.0
 11
240.247304
 21
176.94
 31
0.0
 12
240.247304
 22
178.06
 32
0.0
 13
240.231624
 23
178.06
 33
0.0
  0
3DFACE
  8
0
  6
CONTINUOUS
 62
   249
 10
240.247304
 20
176.94
 30
0.0
 11
240.262984
 21
176.94
 31
0.0
 12
240.262984
 22
178.06
 32
0.0
 13
240.247304
 23
178.06
 33
0.0
  0
3DFACE
  8
0
  6
CONTINUOUS
 62
   249
 10
240.262984
 20
176.94
 30
0.0
 11
240.278664
 21
176.94
 31
0.0
 12
240.278664
 22
178.06
 32
0.0
 13
240.262984
 23
178.06
 33
0.0
  0
3DFACE
  8
0
  6
CONTINUOUS
 62
   249
 10
240.278664
 20
176.94
 30
0.0
 11
240.294344
 21
176.94
 31
0.0
 12
240.294344
 22
178.06
 32
0.0
 13
240.278664
 23
178.06
 33
0.0
  0
3DFACE
  8
0
  6
CONTINUOUS
 62
   249
 10
240.294344
 20
176.94
 30
0.0
 11
240.310024
 21
176.94
 31
0.0
 12
240.310024
 22
178.06
 32
0.0
 13
240.294344
 23
178.06
 33
0.0
  0
3DFACE
  8
0
  6
CONTINUOUS
 62
   249
 10
240.310024
 20
176.94
 30
0.0
 11
240.325704
 21
176.94
 31
0.0
 12
240.325704
 22
178.06
 32
0.0
 13
240.310024
 23
178.06
 33
0.0
  0
3DFACE
  8
0
  6
CONTINUOUS
 62
   249
 10
240.325704
 20
176.94
 30
0.0
 11
240.341384
 21
176.94
 31
0.0
 12
240.341384
 22
178.06
 32
0.0
 13
240.325704
 23
178.06
 33
0.0
  0
3DFACE
  8
0
  6
CONTINUOUS
 62
   249
 10
240.341384
 20
176.94
 30
0.0
 11
240.357064
 21
176.94
 31
0.0
 12
240.357064
 22
178.06
 32
0.0
 13
240.341384
 23
178.06
 33
0.0
  0
3DFACE
  8
0
  6
CONTINUOUS
 62
   249
 10
240.357064
 20
176.94
 30
0.0
 11
240.372744
 21
176.94
 31
0.0
 12
240.372744
 22
178.06
 32
0.0
 13
240.357064
 23
178.06
 33
0.0
  0
3DFACE
  8
0
  6
CONTINUOUS
 62
   249
 10
240.372744
 20
176.94
 30
0.0
 11
240.388424
 21
176.94
 31
0.0
 12
240.388424
 22
178.06
 32
0.0
 13
240.372744
 23
178.06
 33
0.0
  0
3DFACE
  8
0
  6
CONTINUOUS
 62
   249
 10
240.388424
 20
176.94
 30
0.0
 11
240.404104
 21
176.94
 31
0.0
 12
240.404104
 22
178.06
 32
0.0
 13
240.388424
 23
178.06
 33
0.0
  0
3DFACE
  8
0
  6
CONTINUOUS
 62
   249
 10
240.404104
 20
176.94
 30
0.0
 11
240.419784
 21
176.94
 31
0.0
 12
240.419784
 22
178.06
 32
0.0
 13
240.404104
 23
178.06
 33
0.0
  0
3DFACE
  8
0
  6
CONTINUOUS
 62
   249
 10
240.419784
 20
176.94
 30
0.0
 11
240.435464
 21
176.94
 31
0.0
 12
240.435464
 22
178.06
 32
0.0
 13
240.419784
 23
178.06
 33
0.0
  0
3DFACE
  8
0
  6
CONTINUOUS
 62
   249
 10
240.435464
 20
176.94
 30
0.0
 11
240.451144
 21
176.94
 31
0.0
 12
240.451144
 22
178.06
 32
0.0
 13
240.435464
 23
178.06
 33
0.0
  0
3DFACE
  8
0
  6
CONTINUOUS
 62
   249
 10
240.451144
 20
176.94
 30
0.0
 11
240.466824
 21
176.94
 31
0.0
 12
240.466824
 22
178.06
 32
0.0
 13
240.451144
 23
178.06
 33
0.0
  0
3DFACE
  8
0
  6
CONTINUOUS
 62
   249
 10
240.466824
 20
176.94
 30
0.0
 11
240.482504
 21
176.94
 31
0.0
 12
240.482504
 22
178.06
 32
0.0
 13
240.466824
 23
178.06
 33
0.0
  0
3DFACE
  8
0
  6
CONTINUOUS
 62
   249
 10
240.482504
 20
176.94
 30
0.0
 11
240.498184
 21
176.94
 31
0.0
 12
240.498184
 22
178.06
 32
0.0
 13
240.482504
 23
178.06
 33
0.0
  0
3DFACE
  8
0
  6
CONTINUOUS
 62
   249
 10
240.498184
 20
176.94
 30
0.0
 11
240.513864
 21
176.94
 31
0.0
 12
240.513864
 22
178.06
 32
0.0
 13
240.498184
 23
178.06
 33
0.0
  0
3DFACE
  8
0
  6
CONTINUOUS
 62
   249
 10
240.513864
 20
176.94
 30
0.0
 11
240.529544
 21
176.94
 31
0.0
 12
240.529544
 22
178.06
 32
0.0
 13
240.513864
 23
178.06
 33
0.0
  0
3DFACE
  8
0
  6
CONTINUOUS
 62
   249
 10
240.529544
 20
176.94
 30
0.0
 11
240.545224
 21
176.94
 31
0.0
 12
240.545224
 22
178.06
 32
0.0
 13
240.529544
 23
178.06
 33
0.0
  0
3DFACE
  8
0
  6
CONTINUOUS
 62
   249
 10
240.545224
 20
176.94
 30
0.0
 11
240.560904
 21
176.94
 31
0.0
 12
240.560904
 22
178.06
 32
0.0
 13
240.545224
 23
178.06
 33
0.0
  0
3DFACE
  8
0
  6
CONTINUOUS
 62
   249
 10
240.560904
 20
176.94
 30
0.0
 11
240.576584
 21
176.94
 31
0.0
 12
240.576584
 22
178.06
 32
0.0
 13
240.560904
 23
178.06
 33
0.0
  0
3DFACE
  8
0
  6
CONTINUOUS
 62
   249
 10
240.576584
 20
176.94
 30
0.0
 11
240.592264
 21
176.94
 31
0.0
 12
240.592264
 22
178.06
 32
0.0
 13
240.576584
 23
178.06
 33
0.0
  0
3DFACE
  8
0
  6
CONTINUOUS
 62
   249
 10
240.592264
 20
176.94
 30
0.0
 11
240.607944
 21
176.94
 31
0.0
 12
240.607944
 22
178.06
 32
0.0
 13
240.592264
 23
178.06
 33
0.0
  0
3DFACE
  8
0
  6
CONTINUOUS
 62
   249
 10
240.607944
 20
176.94
 30
0.0
 11
240.623624
 21
176.94
 31
0.0
 12
240.623624
 22
178.06
 32
0.0
 13
240.607944
 23
178.06
 33
0.0
  0
3DFACE
  8
0
  6
CONTINUOUS
 62
   249
 10
240.623624
 20
176.94
 30
0.0
 11
240.639304
 21
176.94
 31
0.0
 12
240.639304
 22
178.06
 32
0.0
 13
240.623624
 23
178.06
 33
0.0
  0
3DFACE
  8
0
  6
CONTINUOUS
 62
   249
 10
240.639304
 20
176.94
 30
0.0
 11
240.654984
 21
176.94
 31
0.0
 12
240.654984
 22
178.06
 32
0.0
 13
240.639304
 23
178.06
 33
0.0
  0
3DFACE
  8
0
  6
CONTINUOUS
 62
   249
 10
240.654984
 20
176.94
 30
0.0
 11
240.670664
 21
176.94
 31
0.0
 12
240.670664
 22
178.06
 32
0.0
 13
240.654984
 23
178.06
 33
0.0
  0
3DFACE
  8
0
  6
CONTINUOUS
 62
   249
 10
240.670664
 20
176.94
 30
0.0
 11
240.686344
 21
176.94
 31
0.0
 12
240.686344
 22
178.06
 32
0.0
 13
240.670664
 23
178.06
 33
0.0
  0
3DFACE
  8
0
  6
CONTINUOUS
 62
   249
 10
240.686344
 20
176.94
 30
0.0
 11
240.702024
 21
176.94
 31
0.0
 12
240.702024
 22
178.06
 32
0.0
 13
240.686344
 23
178.06
 33
0.0
  0
3DFACE
  8
0
  6
CONTINUOUS
 62
   249
 10
240.702024
 20
176.94
 30
0.0
 11
240.717704
 21
176.94
 31
0.0
 12
240.717704
 22
178.06
 32
0.0
 13
240.702024
 23
178.06
 33
0.0
  0
3DFACE
  8
0
  6
CONTINUOUS
 62
   249
 10
240.717704
 20
176.94
 30
0.0
 11
240.733384
 21
176.94
 31
0.0
 12
240.733384
 22
178.06
 32
0.0
 13
240.717704
 23
178.06
 33
0.0
  0
3DFACE
  8
0
  6
CONTINUOUS
 62
   249
 10
240.733384
 20
176.94
 30
0.0
 11
240.749064
 21
176.94
 31
0.0
 12
240.749064
 22
178.06
 32
0.0
 13
240.733384
 23
178.06
 33
0.0
  0
3DFACE
  8
0
  6
CONTINUOUS
 62
   249
 10
240.749064
 20
176.94
 30
0.0
 11
240.764744
 21
176.94
 31
0.0
 12
240.764744
 22
178.06
 32
0.0
 13
240.749064
 23
178.06
 33
0.0
  0
3DFACE
  8
0
  6
CONTINUOUS
 62
   249
 10
240.764744
 20
176.94
 30
0.0
 11
240.780424
 21
176.94
 31
0.0
 12
240.780424
 22
178.06
 32
0.0
 13
240.764744
 23
178.06
 33
0.0
  0
3DFACE
  8
0
  6
CONTINUOUS
 62
   249
 10
240.780424
 20
176.94
 30
0.0
 11
240.796104
 21
176.94
 31
0.0
 12
240.796104
 22
178.06
 32
0.0
 13
240.780424
 23
178.06
 33
0.0
  0
3DFACE
  8
0
  6
CONTINUOUS
 62
   249
 10
240.796104
 20
176.94
 30
0.0
 11
240.811784
 21
176.94
 31
0.0
 12
240.811784
 22
178.06
 32
0.0
 13
240.796104
 23
178.06
 33
0.0
  0
3DFACE
  8
0
  6
CONTINUOUS
 62
   249
 10
240.811784
 20
176.94
 30
0.0
 11
240.827464
 21
176.94
 31
0.0
 12
240.827464
 22
178.06
 32
0.0
 13
240.811784
 23
178.06
 33
0.0
  0
3DFACE
  8
0
  6
CONTINUOUS
 62
   249
 10
240.827464
 20
176.94
 30
0.0
 11
240.843144
 21
176.94
 31
0.0
 12
240.843144
 22
178.06
 32
0.0
 13
240.827464
 23
178.06
 33
0.0
  0
3DFACE
  8
0
  6
CONTINUOUS
 62
   249
 10
240.843144
 20
176.94
 30
0.0
 11
240.858824
 21
176.94
 31
0.0
 12
240.858824
 22
178.06
 32
0.0
 13
240.843144
 23
178.06
 33
0.0
  0
3DFACE
  8
0
  6
CONTINUOUS
 62
   249
 10
240.858824
 20
176.94
 30
0.0
 11
240.874504
 21
176.94
 31
0.0
 12
240.874504
 22
178.06
 32
0.0
 13
240.858824
 23
178.06
 33
0.0
  0
3DFACE
  8
0
  6
CONTINUOUS
 62
   249
 10
240.874504
 20
176.94
 30
0.0
 11
240.890184
 21
176.94
 31
0.0
 12
240.890184
 22
178.06
 32
0.0
 13
240.874504
 23
178.06
 33
0.0
  0
3DFACE
  8
0
  6
CONTINUOUS
 62
   249
 10
240.890184
 20
176.94
 30
0.0
 11
240.905864
 21
176.94
 31
0.0
 12
240.905864
 22
178.06
 32
0.0
 13
240.890184
 23
178.06
 33
0.0
  0
3DFACE
  8
0
  6
CONTINUOUS
 62
   249
 10
240.905864
 20
176.94
 30
0.0
 11
240.921544
 21
176.94
 31
0.0
 12
240.921544
 22
178.06
 32
0.0
 13
240.905864
 23
178.06
 33
0.0
  0
3DFACE
  8
0
  6
CONTINUOUS
 62
   249
 10
240.921544
 20
176.94
 30
0.0
 11
240.937224
 21
176.94
 31
0.0
 12
240.937224
 22
178.06
 32
0.0
 13
240.921544
 23
178.06
 33
0.0
  0
3DFACE
  8
0
  6
CONTINUOUS
 62
   249
 10
240.937224
 20
176.94
 30
0.0
 11
240.952904
 21
176.94
 31
0.0
 12
240.952904
 22
178.06
 32
0.0
 13
240.937224
 23
178.06
 33
0.0
  0
3DFACE
  8
0
  6
CONTINUOUS
 62
   249
 10
240.952904
 20
176.94
 30
0.0
 11
240.968584
 21
176.94
 31
0.0
 12
240.968584
 22
178.06
 32
0.0
 13
240.952904
 23
178.06
 33
0.0
  0
3DFACE
  8
0
  6
CONTINUOUS
 62
   249
 10
240.968584
 20
176.94
 30
0.0
 11
240.984264
 21
176.94
 31
0.0
 12
240.984264
 22
178.06
 32
0.0
 13
240.968584
 23
178.06
 33
0.0
  0
3DFACE
  8
0
  6
CONTINUOUS
 62
   249
 10
240.984264
 20
176.94
 30
0.0
 11
240.999944
 21
176.94
 31
0.0
 12
240.999944
 22
178.06
 32
0.0
 13
240.984264
 23
178.06
 33
0.0
  0
3DFACE
  8
0
  6
CONTINUOUS
 62
   249
 10
240.999944
 20
176.94
 30
0.0
 11
241.015624
 21
176.94
 31
0.0
 12
241.015624
 22
178.06
 32
0.0
 13
240.999944
 23
178.06
 33
0.0
  0
3DFACE
  8
0
  6
CONTINUOUS
 62
   249
 10
241.015624
 20
176.94
 30
0.0
 11
241.031304
 21
176.94
 31
0.0
 12
241.031304
 22
178.06
 32
0.0
 13
241.015624
 23
178.06
 33
0.0
  0
3DFACE
  8
0
  6
CONTINUOUS
 62
   249
 10
241.031304
 20
176.94
 30
0.0
 11
241.046984
 21
176.94
 31
0.0
 12
241.046984
 22
178.06
 32
0.0
 13
241.031304
 23
178.06
 33
0.0
  0
3DFACE
  8
0
  6
CONTINUOUS
 62
   249
 10
241.046984
 20
176.94
 30
0.0
 11
241.062664
 21
176.94
 31
0.0
 12
241.062664
 22
178.06
 32
0.0
 13
241.046984
 23
178.06
 33
0.0
  0
3DFACE
  8
0
  6
CONTINUOUS
 62
   249
 10
241.062664
 20
176.94
 30
0.0
 11
241.078344
 21
176.94
 31
0.0
 12
241.078344
 22
178.06
 32
0.0
 13
241.062664
 23
178.06
 33
0.0
  0
3DFACE
  8
0
  6
CONTINUOUS
 62
   249
 10
241.078344
 20
176.94
 30
0.0
 11
241.094024
 21
176.94
 31
0.0
 12
241.094024
 22
178.06
 32
0.0
 13
241.078344
 23
178.06
 33
0.0
  0
3DFACE
  8
0
  6
CONTINUOUS
 62
   249
 10
241.094024
 20
176.94
 30
0.0
 11
241.109704
 21
176.94
 31
0.0
 12
241.109704
 22
178.06
 32
0.0
 13
241.094024
 23
178.06
 33
0.0
  0
3DFACE
  8
0
  6
CONTINUOUS
 62
   249
 10
241.109704
 20
176.94
 30
0.0
 11
241.125384
 21
176.94
 31
0.0
 12
241.125384
 22
178.06
 32
0.0
 13
241.109704
 23
178.06
 33
0.0
  0
3DFACE
  8
0
  6
CONTINUOUS
 62
   249
 10
241.125384
 20
176.94
 30
0.0
 11
241.141064
 21
176.94
 31
0.0
 12
241.141064
 22
178.06
 32
0.0
 13
241.125384
 23
178.06
 33
0.0
  0
3DFACE
  8
0
  6
CONTINUOUS
 62
   249
 10
241.141064
 20
176.94
 30
0.0
 11
241.156744
 21
176.94
 31
0.0
 12
241.156744
 22
178.06
 32
0.0
 13
241.141064
 23
178.06
 33
0.0
  0
3DFACE
  8
0
  6
CONTINUOUS
 62
   249
 10
241.156744
 20
176.94
 30
0.0
 11
241.172424
 21
176.94
 31
0.0
 12
241.172424
 22
178.06
 32
0.0
 13
241.156744
 23
178.06
 33
0.0
  0
3DFACE
  8
0
  6
CONTINUOUS
 62
   249
 10
241.172424
 20
176.94
 30
0.0
 11
241.188104
 21
176.94
 31
0.0
 12
241.188104
 22
178.06
 32
0.0
 13
241.172424
 23
178.06
 33
0.0
  0
3DFACE
  8
0
  6
CONTINUOUS
 62
   249
 10
241.188104
 20
176.94
 30
0.0
 11
241.203784
 21
176.94
 31
0.0
 12
241.203784
 22
178.06
 32
0.0
 13
241.188104
 23
178.06
 33
0.0
  0
3DFACE
  8
0
  6
CONTINUOUS
 62
   249
 10
241.203784
 20
176.94
 30
0.0
 11
241.219464
 21
176.94
 31
0.0
 12
241.219464
 22
178.06
 32
0.0
 13
241.203784
 23
178.06
 33
0.0
  0
3DFACE
  8
0
  6
CONTINUOUS
 62
   249
 10
241.219464
 20
176.94
 30
0.0
 11
241.235144
 21
176.94
 31
0.0
 12
241.235144
 22
178.06
 32
0.0
 13
241.219464
 23
178.06
 33
0.0
  0
3DFACE
  8
0
  6
CONTINUOUS
 62
   249
 10
241.235144
 20
176.94
 30
0.0
 11
241.250824
 21
176.94
 31
0.0
 12
241.250824
 22
178.06
 32
0.0
 13
241.235144
 23
178.06
 33
0.0
  0
3DFACE
  8
0
  6
CONTINUOUS
 62
   249
 10
241.250824
 20
176.94
 30
0.0
 11
241.266504
 21
176.94
 31
0.0
 12
241.266504
 22
178.06
 32
0.0
 13
241.250824
 23
178.06
 33
0.0
  0
3DFACE
  8
0
  6
CONTINUOUS
 62
   249
 10
241.266504
 20
176.94
 30
0.0
 11
241.282184
 21
176.94
 31
0.0
 12
241.282184
 22
178.06
 32
0.0
 13
241.266504
 23
178.06
 33
0.0
  0
3DFACE
  8
0
  6
CONTINUOUS
 62
   249
 10
241.282184
 20
176.94
 30
0.0
 11
241.297864
 21
176.94
 31
0.0
 12
241.297864
 22
178.06
 32
0.0
 13
241.282184
 23
178.06
 33
0.0
  0
3DFACE
  8
0
  6
CONTINUOUS
 62
   249
 10
241.297864
 20
176.94
 30
0.0
 11
241.313544
 21
176.94
 31
0.0
 12
241.313544
 22
178.06
 32
0.0
 13
241.297864
 23
178.06
 33
0.0
  0
3DFACE
  8
0
  6
CONTINUOUS
 62
   249
 10
241.313544
 20
176.94
 30
0.0
 11
241.329224
 21
176.94
 31
0.0
 12
241.329224
 22
178.06
 32
0.0
 13
241.313544
 23
178.06
 33
0.0
  0
3DFACE
  8
0
  6
CONTINUOUS
 62
   249
 10
241.329224
 20
176.94
 30
0.0
 11
241.344904
 21
176.94
 31
0.0
 12
241.344904
 22
178.06
 32
0.0
 13
241.329224
 23
178.06
 33
0.0
  0
3DFACE
  8
0
  6
CONTINUOUS
 62
   249
 10
241.344904
 20
176.94
 30
0.0
 11
241.360584
 21
176.94
 31
0.0
 12
241.360584
 22
178.06
 32
0.0
 13
241.344904
 23
178.06
 33
0.0
  0
3DFACE
  8
0
  6
CONTINUOUS
 62
   249
 10
241.360584
 20
176.94
 30
0.0
 11
241.376264
 21
176.94
 31
0.0
 12
241.376264
 22
178.06
 32
0.0
 13
241.360584
 23
178.06
 33
0.0
  0
3DFACE
  8
0
  6
CONTINUOUS
 62
   249
 10
241.376264
 20
176.94
 30
0.0
 11
241.391944
 21
176.94
 31
0.0
 12
241.391944
 22
178.06
 32
0.0
 13
241.376264
 23
178.06
 33
0.0
  0
3DFACE
  8
0
  6
CONTINUOUS
 62
   249
 10
241.391944
 20
176.94
 30
0.0
 11
241.407624
 21
176.94
 31
0.0
 12
241.407624
 22
178.06
 32
0.0
 13
241.391944
 23
178.06
 33
0.0
  0
3DFACE
  8
0
  6
CONTINUOUS
 62
   249
 10
241.407624
 20
176.94
 30
0.0
 11
241.423304
 21
176.94
 31
0.0
 12
241.423304
 22
178.06
 32
0.0
 13
241.407624
 23
178.06
 33
0.0
  0
3DFACE
  8
0
  6
CONTINUOUS
 62
   249
 10
241.423304
 20
176.94
 30
0.0
 11
241.438984
 21
176.94
 31
0.0
 12
241.438984
 22
178.06
 32
0.0
 13
241.423304
 23
178.06
 33
0.0
  0
3DFACE
  8
0
  6
CONTINUOUS
 62
   249
 10
241.438984
 20
176.94
 30
0.0
 11
241.454664
 21
176.94
 31
0.0
 12
241.454664
 22
178.06
 32
0.0
 13
241.438984
 23
178.06
 33
0.0
  0
3DFACE
  8
0
  6
CONTINUOUS
 62
   249
 10
241.454664
 20
176.94
 30
0.0
 11
241.470344
 21
176.94
 31
0.0
 12
241.470344
 22
178.06
 32
0.0
 13
241.454664
 23
178.06
 33
0.0
  0
3DFACE
  8
0
  6
CONTINUOUS
 62
   249
 10
241.470344
 20
176.94
 30
0.0
 11
241.486024
 21
176.94
 31
0.0
 12
241.486024
 22
178.06
 32
0.0
 13
241.470344
 23
178.06
 33
0.0
  0
3DFACE
  8
0
  6
CONTINUOUS
 62
   249
 10
241.486024
 20
176.94
 30
0.0
 11
241.501704
 21
176.94
 31
0.0
 12
241.501704
 22
178.06
 32
0.0
 13
241.486024
 23
178.06
 33
0.0
  0
3DFACE
  8
0
  6
CONTINUOUS
 62
   249
 10
241.501704
 20
176.94
 30
0.0
 11
241.517384
 21
176.94
 31
0.0
 12
241.517384
 22
178.06
 32
0.0
 13
241.501704
 23
178.06
 33
0.0
  0
3DFACE
  8
0
  6
CONTINUOUS
 62
   249
 10
241.517384
 20
176.94
 30
0.0
 11
241.533064
 21
176.94
 31
0.0
 12
241.533064
 22
178.06
 32
0.0
 13
241.517384
 23
178.06
 33
0.0
  0
3DFACE
  8
0
  6
CONTINUOUS
 62
   249
 10
241.533064
 20
176.94
 30
0.0
 11
241.548744
 21
176.94
 31
0.0
 12
241.548744
 22
178.06
 32
0.0
 13
241.533064
 23
178.06
 33
0.0
  0
3DFACE
  8
0
  6
CONTINUOUS
 62
   249
 10
241.548744
 20
176.94
 30
0.0
 11
241.564424
 21
176.94
 31
0.0
 12
241.564424
 22
178.06
 32
0.0
 13
241.548744
 23
178.06
 33
0.0
  0
3DFACE
  8
0
  6
CONTINUOUS
 62
   249
 10
241.564424
 20
176.94
 30
0.0
 11
241.580104
 21
176.94
 31
0.0
 12
241.580104
 22
178.06
 32
0.0
 13
241.564424
 23
178.06
 33
0.0
  0
3DFACE
  8
0
  6
CONTINUOUS
 62
   249
 10
241.580104
 20
176.94
 30
0.0
 11
241.595784
 21
176.94
 31
0.0
 12
241.595784
 22
178.06
 32
0.0
 13
241.580104
 23
178.06
 33
0.0
  0
3DFACE
  8
0
  6
CONTINUOUS
 62
   249
 10
241.595784
 20
176.94
 30
0.0
 11
241.611464
 21
176.94
 31
0.0
 12
241.611464
 22
178.06
 32
0.0
 13
241.595784
 23
178.06
 33
0.0
  0
3DFACE
  8
0
  6
CONTINUOUS
 62
   249
 10
241.611464
 20
176.94
 30
0.0
 11
241.627144
 21
176.94
 31
0.0
 12
241.627144
 22
178.06
 32
0.0
 13
241.611464
 23
178.06
 33
0.0
  0
3DFACE
  8
0
  6
CONTINUOUS
 62
   249
 10
241.627144
 20
176.94
 30
0.0
 11
241.642824
 21
176.94
 31
0.0
 12
241.642824
 22
178.06
 32
0.0
 13
241.627144
 23
178.06
 33
0.0
  0
3DFACE
  8
0
  6
CONTINUOUS
 62
   249
 10
241.642824
 20
176.94
 30
0.0
 11
241.658504
 21
176.94
 31
0.0
 12
241.658504
 22
178.06
 32
0.0
 13
241.642824
 23
178.06
 33
0.0
  0
3DFACE
  8
0
  6
CONTINUOUS
 62
   249
 10
241.658504
 20
176.94
 30
0.0
 11
241.674184
 21
176.94
 31
0.0
 12
241.674184
 22
178.06
 32
0.0
 13
241.658504
 23
178.06
 33
0.0
  0
3DFACE
  8
0
  6
CONTINUOUS
 62
   249
 10
241.674184
 20
176.94
 30
0.0
 11
241.689864
 21
176.94
 31
0.0
 12
241.689864
 22
178.06
 32
0.0
 13
241.674184
 23
178.06
 33
0.0
  0
3DFACE
  8
0
  6
CONTINUOUS
 62
   249
 10
241.689864
 20
176.94
 30
0.0
 11
241.705544
 21
176.94
 31
0.0
 12
241.705544
 22
178.06
 32
0.0
 13
241.689864
 23
178.06
 33
0.0
  0
3DFACE
  8
0
  6
CONTINUOUS
 62
   249
 10
241.705544
 20
176.94
 30
0.0
 11
241.721224
 21
176.94
 31
0.0
 12
241.721224
 22
178.06
 32
0.0
 13
241.705544
 23
178.06
 33
0.0
  0
3DFACE
  8
0
  6
CONTINUOUS
 62
   249
 10
241.721224
 20
176.94
 30
0.0
 11
241.736904
 21
176.94
 31
0.0
 12
241.736904
 22
178.06
 32
0.0
 13
241.721224
 23
178.06
 33
0.0
  0
3DFACE
  8
0
  6
CONTINUOUS
 62
   249
 10
241.736904
 20
176.94
 30
0.0
 11
241.752584
 21
176.94
 31
0.0
 12
241.752584
 22
178.06
 32
0.0
 13
241.736904
 23
178.06
 33
0.0
  0
3DFACE
  8
0
  6
CONTINUOUS
 62
   249
 10
241.752584
 20
176.94
 30
0.0
 11
241.768264
 21
176.94
 31
0.0
 12
241.768264
 22
178.06
 32
0.0
 13
241.752584
 23
178.06
 33
0.0
  0
3DFACE
  8
0
  6
CONTINUOUS
 62
   249
 10
241.768264
 20
176.94
 30
0.0
 11
241.783944
 21
176.94
 31
0.0
 12
241.783944
 22
178.06
 32
0.0
 13
241.768264
 23
178.06
 33
0.0
  0
3DFACE
  8
0
  6
CONTINUOUS
 62
   249
 10
241.783944
 20
176.94
 30
0.0
 11
241.799624
 21
176.94
 31
0.0
 12
241.799624
 22
178.06
 32
0.0
 13
241.783944
 23
178.06
 33
0.0
  0
3DFACE
  8
0
  6
CONTINUOUS
 62
   249
 10
241.799624
 20
176.94
 30
0.0
 11
241.815304
 21
176.94
 31
0.0
 12
241.815304
 22
178.06
 32
0.0
 13
241.799624
 23
178.06
 33
0.0
  0
3DFACE
  8
0
  6
CONTINUOUS
 62
   249
 10
241.815304
 20
176.94
 30
0.0
 11
241.830984
 21
176.94
 31
0.0
 12
241.830984
 22
178.06
 32
0.0
 13
241.815304
 23
178.06
 33
0.0
  0
3DFACE
  8
0
  6
CONTINUOUS
 62
   249
 10
241.830984
 20
176.94
 30
0.0
 11
241.846664
 21
176.94
 31
0.0
 12
241.846664
 22
178.06
 32
0.0
 13
241.830984
 23
178.06
 33
0.0
  0
3DFACE
  8
0
  6
CONTINUOUS
 62
   249
 10
241.846664
 20
176.94
 30
0.0
 11
241.862344
 21
176.94
 31
0.0
 12
241.862344
 22
178.06
 32
0.0
 13
241.846664
 23
178.06
 33
0.0
  0
3DFACE
  8
0
  6
CONTINUOUS
 62
   249
 10
241.862344
 20
176.94
 30
0.0
 11
241.878024
 21
176.94
 31
0.0
 12
241.878024
 22
178.06
 32
0.0
 13
241.862344
 23
178.06
 33
0.0
  0
3DFACE
  8
0
  6
CONTINUOUS
 62
   249
 10
241.878024
 20
176.94
 30
0.0
 11
241.893704
 21
176.94
 31
0.0
 12
241.893704
 22
178.06
 32
0.0
 13
241.878024
 23
178.06
 33
0.0
  0
3DFACE
  8
0
  6
CONTINUOUS
 62
   249
 10
241.893704
 20
176.94
 30
0.0
 11
241.909384
 21
176.94
 31
0.0
 12
241.909384
 22
178.06
 32
0.0
 13
241.893704
 23
178.06
 33
0.0
  0
3DFACE
  8
0
  6
CONTINUOUS
 62
   249
 10
241.909384
 20
176.94
 30
0.0
 11
241.925064
 21
176.94
 31
0.0
 12
241.925064
 22
178.06
 32
0.0
 13
241.909384
 23
178.06
 33
0.0
  0
3DFACE
  8
0
  6
CONTINUOUS
 62
   249
 10
241.925064
 20
176.94
 30
0.0
 11
241.940744
 21
176.94
 31
0.0
 12
241.940744
 22
178.06
 32
0.0
 13
241.925064
 23
178.06
 33
0.0
  0
3DFACE
  8
0
  6
CONTINUOUS
 62
   249
 10
241.940744
 20
176.94
 30
0.0
 11
241.956424
 21
176.94
 31
0.0
 12
241.956424
 22
178.06
 32
0.0
 13
241.940744
 23
178.06
 33
0.0
  0
3DFACE
  8
0
  6
CONTINUOUS
 62
   249
 10
241.956424
 20
176.94
 30
0.0
 11
241.972104
 21
176.94
 31
0.0
 12
241.972104
 22
178.06
 32
0.0
 13
241.956424
 23
178.06
 33
0.0
  0
3DFACE
  8
0
  6
CONTINUOUS
 62
   249
 10
241.972104
 20
176.94
 30
0.0
 11
241.987784
 21
176.94
 31
0.0
 12
241.987784
 22
178.06
 32
0.0
 13
241.972104
 23
178.06
 33
0.0
  0
3DFACE
  8
0
  6
CONTINUOUS
 62
   249
 10
241.987784
 20
176.94
 30
0.0
 11
242.003464
 21
176.94
 31
0.0
 12
242.003464
 22
178.06
 32
0.0
 13
241.987784
 23
178.06
 33
0.0
  0
3DFACE
  8
0
  6
CONTINUOUS
 62
   249
 10
242.003464
 20
176.94
 30
0.0
 11
242.019144
 21
176.94
 31
0.0
 12
242.019144
 22
178.06
 32
0.0
 13
242.003464
 23
178.06
 33
0.0
  0
3DFACE
  8
0
  6
CONTINUOUS
 62
   249
 10
242.019144
 20
176.94
 30
0.0
 11
242.034824
 21
176.94
 31
0.0
 12
242.034824
 22
178.06
 32
0.0
 13
242.019144
 23
178.06
 33
0.0
  0
3DFACE
  8
0
  6
CONTINUOUS
 62
   249
 10
242.034824
 20
176.94
 30
0.0
 11
242.050504
 21
176.94
 31
0.0
 12
242.050504
 22
178.06
 32
0.0
 13
242.034824
 23
178.06
 33
0.0
  0
3DFACE
  8
0
  6
CONTINUOUS
 62
   249
 10
242.050504
 20
176.94
 30
0.0
 11
242.066184
 21
176.94
 31
0.0
 12
242.066184
 22
178.06
 32
0.0
 13
242.050504
 23
178.06
 33
0.0
  0
3DFACE
  8
0
  6
CONTINUOUS
 62
   249
 10
242.066184
 20
176.94
 30
0.0
 11
242.081864
 21
176.94
 31
0.0
 12
242.081864
 22
178.06
 32
0.0
 13
242.066184
 23
178.06
 33
0.0
  0
3DFACE
  8
0
  6
CONTINUOUS
 62
   249
 10
242.081864
 20
176.94
 30
0.0
 11
242.097544
 21
176.94
 31
0.0
 12
242.097544
 22
178.06
 32
0.0
 13
242.081864
 23
178.06
 33
0.0
  0
3DFACE
  8
0
  6
CONTINUOUS
 62
   249
 10
242.097544
 20
176.94
 30
0.0
 11
242.113224
 21
176.94
 31
0.0
 12
242.113224
 22
178.06
 32
0.0
 13
242.097544
 23
178.06
 33
0.0
  0
3DFACE
  8
0
  6
CONTINUOUS
 62
   249
 10
242.113224
 20
176.94
 30
0.0
 11
242.128904
 21
176.94
 31
0.0
 12
242.128904
 22
178.06
 32
0.0
 13
242.113224
 23
178.06
 33
0.0
  0
3DFACE
  8
0
  6
CONTINUOUS
 62
   249
 10
242.128904
 20
176.94
 30
0.0
 11
242.144584
 21
176.94
 31
0.0
 12
242.144584
 22
178.06
 32
0.0
 13
242.128904
 23
178.06
 33
0.0
  0
3DFACE
  8
0
  6
CONTINUOUS
 62
   249
 10
242.144584
 20
176.94
 30
0.0
 11
242.160264
 21
176.94
 31
0.0
 12
242.160264
 22
178.06
 32
0.0
 13
242.144584
 23
178.06
 33
0.0
  0
3DFACE
  8
0
  6
CONTINUOUS
 62
   249
 10
242.160264
 20
176.94
 30
0.0
 11
242.175944
 21
176.94
 31
0.0
 12
242.175944
 22
178.06
 32
0.0
 13
242.160264
 23
178.06
 33
0.0
  0
3DFACE
  8
0
  6
CONTINUOUS
 62
   249
 10
242.175944
 20
176.94
 30
0.0
 11
242.191624
 21
176.94
 31
0.0
 12
242.191624
 22
178.06
 32
0.0
 13
242.175944
 23
178.06
 33
0.0
  0
3DFACE
  8
0
  6
CONTINUOUS
 62
   249
 10
242.191624
 20
176.94
 30
0.0
 11
242.207304
 21
176.94
 31
0.0
 12
242.207304
 22
178.06
 32
0.0
 13
242.191624
 23
178.06
 33
0.0
  0
3DFACE
  8
0
  6
CONTINUOUS
 62
   249
 10
242.207304
 20
176.94
 30
0.0
 11
242.222984
 21
176.94
 31
0.0
 12
242.222984
 22
178.06
 32
0.0
 13
242.207304
 23
178.06
 33
0.0
  0
3DFACE
  8
0
  6
CONTINUOUS
 62
   249
 10
242.222984
 20
176.94
 30
0.0
 11
242.238664
 21
176.94
 31
0.0
 12
242.238664
 22
178.06
 32
0.0
 13
242.222984
 23
178.06
 33
0.0
  0
3DFACE
  8
0
  6
CONTINUOUS
 62
   249
 10
242.238664
 20
176.94
 30
0.0
 11
242.254344
 21
176.94
 31
0.0
 12
242.254344
 22
178.06
 32
0.0
 13
242.238664
 23
178.06
 33
0.0
  0
3DFACE
  8
0
  6
CONTINUOUS
 62
   249
 10
242.254344
 20
176.94
 30
0.0
 11
242.270024
 21
176.94
 31
0.0
 12
242.270024
 22
178.06
 32
0.0
 13
242.254344
 23
178.06
 33
0.0
  0
3DFACE
  8
0
  6
CONTINUOUS
 62
   249
 10
242.270024
 20
176.94
 30
0.0
 11
242.285704
 21
176.94
 31
0.0
 12
242.285704
 22
178.06
 32
0.0
 13
242.270024
 23
178.06
 33
0.0
  0
3DFACE
  8
0
  6
CONTINUOUS
 62
   249
 10
242.285704
 20
176.94
 30
0.0
 11
242.301384
 21
176.94
 31
0.0
 12
242.301384
 22
178.06
 32
0.0
 13
242.285704
 23
178.06
 33
0.0
  0
3DFACE
  8
0
  6
CONTINUOUS
 62
   249
 10
242.301384
 20
176.94
 30
0.0
 11
242.317064
 21
176.94
 31
0.0
 12
242.317064
 22
178.06
 32
0.0
 13
242.301384
 23
178.06
 33
0.0
  0
3DFACE
  8
0
  6
CONTINUOUS
 62
   249
 10
242.317064
 20
176.94
 30
0.0
 11
242.332744
 21
176.94
 31
0.0
 12
242.332744
 22
178.06
 32
0.0
 13
242.317064
 23
178.06
 33
0.0
  0
3DFACE
  8
0
  6
CONTINUOUS
 62
   249
 10
242.332744
 20
176.94
 30
0.0
 11
242.348424
 21
176.94
 31
0.0
 12
242.348424
 22
178.06
 32
0.0
 13
242.332744
 23
178.06
 33
0.0
  0
3DFACE
  8
0
  6
CONTINUOUS
 62
   249
 10
242.348424
 20
176.94
 30
0.0
 11
242.364104
 21
176.94
 31
0.0
 12
242.364104
 22
178.06
 32
0.0
 13
242.348424
 23
178.06
 33
0.0
  0
3DFACE
  8
0
  6
CONTINUOUS
 62
   249
 10
242.364104
 20
176.94
 30
0.0
 11
242.379784
 21
176.94
 31
0.0
 12
242.379784
 22
178.06
 32
0.0
 13
242.364104
 23
178.06
 33
0.0
  0
3DFACE
  8
0
  6
CONTINUOUS
 62
   249
 10
242.379784
 20
176.94
 30
0.0
 11
242.395464
 21
176.94
 31
0.0
 12
242.395464
 22
178.06
 32
0.0
 13
242.379784
 23
178.06
 33
0.0
  0
3DFACE
  8
0
  6
CONTINUOUS
 62
   249
 10
242.395464
 20
176.94
 30
0.0
 11
242.411144
 21
176.94
 31
0.0
 12
242.411144
 22
178.06
 32
0.0
 13
242.395464
 23
178.06
 33
0.0
  0
3DFACE
  8
0
  6
CONTINUOUS
 62
   249
 10
242.411144
 20
176.94
 30
0.0
 11
242.426824
 21
176.94
 31
0.0
 12
242.426824
 22
178.06
 32
0.0
 13
242.411144
 23
178.06
 33
0.0
  0
3DFACE
  8
0
  6
CONTINUOUS
 62
   249
 10
242.426824
 20
176.94
 30
0.0
 11
242.442504
 21
176.94
 31
0.0
 12
242.442504
 22
178.06
 32
0.0
 13
242.426824
 23
178.06
 33
0.0
  0
3DFACE
  8
0
  6
CONTINUOUS
 62
   249
 10
242.442504
 20
176.94
 30
0.0
 11
242.458184
 21
176.94
 31
0.0
 12
242.458184
 22
178.06
 32
0.0
 13
242.442504
 23
178.06
 33
0.0
  0
3DFACE
  8
0
  6
CONTINUOUS
 62
   249
 10
242.458184
 20
176.94
 30
0.0
 11
242.473864
 21
176.94
 31
0.0
 12
242.473864
 22
178.06
 32
0.0
 13
242.458184
 23
178.06
 33
0.0
  0
3DFACE
  8
0
  6
CONTINUOUS
 62
   249
 10
242.473864
 20
176.94
 30
0.0
 11
242.489544
 21
176.94
 31
0.0
 12
242.489544
 22
178.06
 32
0.0
 13
242.473864
 23
178.06
 33
0.0
  0
3DFACE
  8
0
  6
CONTINUOUS
 62
   249
 10
242.489544
 20
176.94
 30
0.0
 11
242.505224
 21
176.94
 31
0.0
 12
242.505224
 22
178.06
 32
0.0
 13
242.489544
 23
178.06
 33
0.0
  0
3DFACE
  8
0
  6
CONTINUOUS
 62
   249
 10
242.505224
 20
176.94
 30
0.0
 11
242.520904
 21
176.94
 31
0.0
 12
242.520904
 22
178.06
 32
0.0
 13
242.505224
 23
178.06
 33
0.0
  0
3DFACE
  8
0
  6
CONTINUOUS
 62
   249
 10
242.520904
 20
176.94
 30
0.0
 11
242.536584
 21
176.94
 31
0.0
 12
242.536584
 22
178.06
 32
0.0
 13
242.520904
 23
178.06
 33
0.0
  0
3DFACE
  8
0
  6
CONTINUOUS
 62
   249
 10
242.536584
 20
176.94
 30
0.0
 11
242.552264
 21
176.94
 31
0.0
 12
242.552264
 22
178.06
 32
0.0
 13
242.536584
 23
178.06
 33
0.0
  0
3DFACE
  8
0
  6
CONTINUOUS
 62
   249
 10
242.552264
 20
176.94
 30
0.0
 11
242.567944
 21
176.94
 31
0.0
 12
242.567944
 22
178.06
 32
0.0
 13
242.552264
 23
178.06
 33
0.0
  0
3DFACE
  8
0
  6
CONTINUOUS
 62
   249
 10
242.567944
 20
176.94
 30
0.0
 11
242.583624
 21
176.94
 31
0.0
 12
242.583624
 22
178.06
 32
0.0
 13
242.567944
 23
178.06
 33
0.0
  0
3DFACE
  8
0
  6
CONTINUOUS
 62
   249
 10
242.583624
 20
176.94
 30
0.0
 11
242.599304
 21
176.94
 31
0.0
 12
242.599304
 22
178.06
 32
0.0
 13
242.583624
 23
178.06
 33
0.0
  0
3DFACE
  8
0
  6
CONTINUOUS
 62
   249
 10
242.599304
 20
176.94
 30
0.0
 11
242.614984
 21
176.94
 31
0.0
 12
242.614984
 22
178.06
 32
0.0
 13
242.599304
 23
178.06
 33
0.0
  0
3DFACE
  8
0
  6
CONTINUOUS
 62
   249
 10
242.614984
 20
176.94
 30
0.0
 11
242.630664
 21
176.94
 31
0.0
 12
242.630664
 22
178.06
 32
0.0
 13
242.614984
 23
178.06
 33
0.0
  0
3DFACE
  8
0
  6
CONTINUOUS
 62
   249
 10
242.630664
 20
176.94
 30
0.0
 11
242.646344
 21
176.94
 31
0.0
 12
242.646344
 22
178.06
 32
0.0
 13
242.630664
 23
178.06
 33
0.0
  0
3DFACE
  8
0
  6
CONTINUOUS
 62
   249
 10
242.646344
 20
176.94
 30
0.0
 11
242.662024
 21
176.94
 31
0.0
 12
242.662024
 22
178.06
 32
0.0
 13
242.646344
 23
178.06
 33
0.0
  0
3DFACE
  8
0
  6
CONTINUOUS
 62
   249
 10
242.662024
 20
176.94
 30
0.0
 11
242.677704
 21
176.94
 31
0.0
 12
242.677704
 22
178.06
 32
0.0
 13
242.662024
 23
178.06
 33
0.0
  0
3DFACE
  8
0
  6
CONTINUOUS
 62
   249
 10
242.677704
 20
176.94
 30
0.0
 11
242.693384
 21
176.94
 31
0.0
 12
242.693384
 22
178.06
 32
0.0
 13
242.677704
 23
178.06
 33
0.0
  0
3DFACE
  8
0
  6
CONTINUOUS
 62
   249
 10
242.693384
 20
176.94
 30
0.0
 11
242.709064
 21
176.94
 31
0.0
 12
242.709064
 22
178.06
 32
0.0
 13
242.693384
 23
178.06
 33
0.0
  0
3DFACE
  8
0
  6
CONTINUOUS
 62
   249
 10
242.709064
 20
176.94
 30
0.0
 11
242.724744
 21
176.94
 31
0.0
 12
242.724744
 22
178.06
 32
0.0
 13
242.709064
 23
178.06
 33
0.0
  0
3DFACE
  8
0
  6
CONTINUOUS
 62
   249
 10
242.724744
 20
176.94
 30
0.0
 11
242.740424
 21
176.94
 31
0.0
 12
242.740424
 22
178.06
 32
0.0
 13
242.724744
 23
178.06
 33
0.0
  0
3DFACE
  8
0
  6
CONTINUOUS
 62
   249
 10
242.740424
 20
176.94
 30
0.0
 11
242.756104
 21
176.94
 31
0.0
 12
242.756104
 22
178.06
 32
0.0
 13
242.740424
 23
178.06
 33
0.0
  0
3DFACE
  8
0
  6
CONTINUOUS
 62
   249
 10
242.756104
 20
176.94
 30
0.0
 11
242.771784
 21
176.94
 31
0.0
 12
242.771784
 22
178.06
 32
0.0
 13
242.756104
 23
178.06
 33
0.0
  0
3DFACE
  8
0
  6
CONTINUOUS
 62
   249
 10
242.771784
 20
176.94
 30
0.0
 11
242.787464
 21
176.94
 31
0.0
 12
242.787464
 22
178.06
 32
0.0
 13
242.771784
 23
178.06
 33
0.0
  0
3DFACE
  8
0
  6
CONTINUOUS
 62
   249
 10
242.787464
 20
176.94
 30
0.0
 11
242.803144
 21
176.94
 31
0.0
 12
242.803144
 22
178.06
 32
0.0
 13
242.787464
 23
178.06
 33
0.0
  0
3DFACE
  8
0
  6
CONTINUOUS
 62
   249
 10
242.803144
 20
176.94
 30
0.0
 11
242.818824
 21
176.94
 31
0.0
 12
242.818824
 22
178.06
 32
0.0
 13
242.803144
 23
178.06
 33
0.0
  0
3DFACE
  8
0
  6
CONTINUOUS
 62
   249
 10
242.818824
 20
176.94
 30
0.0
 11
242.834504
 21
176.94
 31
0.0
 12
242.834504
 22
178.06
 32
0.0
 13
242.818824
 23
178.06
 33
0.0
  0
3DFACE
  8
0
  6
CONTINUOUS
 62
   249
 10
242.834504
 20
176.94
 30
0.0
 11
242.850184
 21
176.94
 31
0.0
 12
242.850184
 22
178.06
 32
0.0
 13
242.834504
 23
178.06
 33
0.0
  0
3DFACE
  8
0
  6
CONTINUOUS
 62
   249
 10
242.850184
 20
176.94
 30
0.0
 11
242.865864
 21
176.94
 31
0.0
 12
242.865864
 22
178.06
 32
0.0
 13
242.850184
 23
178.06
 33
0.0
  0
3DFACE
  8
0
  6
CONTINUOUS
 62
   249
 10
242.865864
 20
176.94
 30
0.0
 11
242.881544
 21
176.94
 31
0.0
 12
242.881544
 22
178.06
 32
0.0
 13
242.865864
 23
178.06
 33
0.0
  0
3DFACE
  8
0
  6
CONTINUOUS
 62
   249
 10
242.881544
 20
176.94
 30
0.0
 11
242.897224
 21
176.94
 31
0.0
 12
242.897224
 22
178.06
 32
0.0
 13
242.881544
 23
178.06
 33
0.0
  0
3DFACE
  8
0
  6
CONTINUOUS
 62
   249
 10
242.897224
 20
176.94
 30
0.0
 11
242.912904
 21
176.94
 31
0.0
 12
242.912904
 22
178.06
 32
0.0
 13
242.897224
 23
178.06
 33
0.0
  0
3DFACE
  8
0
  6
CONTINUOUS
 62
   249
 10
242.912904
 20
176.94
 30
0.0
 11
242.928584
 21
176.94
 31
0.0
 12
242.928584
 22
178.06
 32
0.0
 13
242.912904
 23
178.06
 33
0.0
  0
3DFACE
  8
0
  6
CONTINUOUS
 62
   249
 10
242.928584
 20
176.94
 30
0.0
 11
242.944264
 21
176.94
 31
0.0
 12
242.944264
 22
178.06
 32
0.0
 13
242.928584
 23
178.06
 33
0.0
  0
3DFACE
  8
0
  6
CONTINUOUS
 62
   249
 10
242.944264
 20
176.94
 30
0.0
 11
242.959944
 21
176.94
 31
0.0
 12
242.959944
 22
178.06
 32
0.0
 13
242.944264
 23
178.06
 33
0.0
  0
3DFACE
  8
0
  6
CONTINUOUS
 62
   249
 10
242.959944
 20
176.94
 30
0.0
 11
242.975624
 21
176.94
 31
0.0
 12
242.975624
 22
178.06
 32
0.0
 13
242.959944
 23
178.06
 33
0.0
  0
3DFACE
  8
0
  6
CONTINUOUS
 62
   249
 10
242.975624
 20
176.94
 30
0.0
 11
242.991304
 21
176.94
 31
0.0
 12
242.991304
 22
178.06
 32
0.0
 13
242.975624
 23
178.06
 33
0.0
  0
3DFACE
  8
0
  6
CONTINUOUS
 62
   249
 10
242.991304
 20
176.94
 30
0.0
 11
243.006984
 21
176.94
 31
0.0
 12
243.006984
 22
178.06
 32
0.0
 13
242.991304
 23
178.06
 33
0.0
  0
3DFACE
  8
0
  6
CONTINUOUS
 62
   249
 10
243.006984
 20
176.94
 30
0.0
 11
243.022664
 21
176.94
 31
0.0
 12
243.022664
 22
178.06
 32
0.0
 13
243.006984
 23
178.06
 33
0.0
  0
3DFACE
  8
0
  6
CONTINUOUS
 62
   249
 10
243.022664
 20
176.94
 30
0.0
 11
243.038344
 21
176.94
 31
0.0
 12
243.038344
 22
178.06
 32
0.0
 13
243.022664
 23
178.06
 33
0.0
  0
3DFACE
  8
0
  6
CONTINUOUS
 62
   249
 10
243.038344
 20
176.94
 30
0.0
 11
243.054024
 21
176.94
 31
0.0
 12
243.054024
 22
178.06
 32
0.0
 13
243.038344
 23
178.06
 33
0.0
  0
LINE
  8
0
  6
CONTINUOUS
 62
   249
 10
201.054032
 20
223.596115
 30
0.0
 11
201.940918
 21
223.596115
 31
0.0
  0
LINE
  8
0
  6
CONTINUOUS
 62
   249
 10
200.722927
 20
224.207748
 30
0.0
 11
202.307498
 21
224.207748
 31
0.0
  0
LINE
  8
0
  6
CONTINUOUS
 62
   249
 10
201.538863
 20
224.82981
 30
0.0
 11
202.733204
 21
224.82981
 31
0.0
  0
LINE
  8
0
  6
CONTINUOUS
 62
   249
 10
200.344522
 20
224.82981
 30
0.0
 11
201.538863
 21
224.82981
 31
0.0
  0
LINE
  8
0
  6
CONTINUOUS
 62
   249
 10
201.55475
 20
226.184081
 30
0.0
 11
201.55475
 21
224.82981
 31
0.0
  0
ARC
  8
0
  6
CONTINUOUS
 62
   249
 10
320.0
 20
195.069263
 30
0.0
 40
0.5
 50
180.0
 51
0.0
  0
ARC
  8
0
  6
CONTINUOUS
 62
   249
 10
320.0
 20
195.069263
 30
0.0
 40
0.5
 50
0.0
 51
180.0
  0
LINE
  8
0
  6
CONTINUOUS
 62
   249
 10
349.149551
 20
240.156142
 30
0.0
 11
350.036438
 21
240.156142
 31
0.0
  0
LINE
  8
0
  6
CONTINUOUS
 62
   249
 10
348.818446
 20
240.767775
 30
0.0
 11
350.403017
 21
240.767775
 31
0.0
  0
LINE
  8
0
  6
CONTINUOUS
 62
   249
 10
349.634382
 20
241.389837
 30
0.0
 11
350.828723
 21
241.389837
 31
0.0
  0
LINE
  8
0
  6
CONTINUOUS
 62
   249
 10
348.440041
 20
241.389837
 30
0.0
 11
349.634382
 21
241.389837
 31
0.0
  0
LINE
  8
0
  6
CONTINUOUS
 62
   249
 10
349.650269
 20
242.744107
 30
0.0
 11
349.650269
 21
241.389837
 31
0.0
  0
LINE
  8
0
  6
CONTINUOUS
 62
   249
 10
349.149551
 20
250.337378
 30
0.0
 11
350.036438
 21
250.337378
 31
0.0
  0
LINE
  8
0
  6
CONTINUOUS
 62
   249
 10
348.818446
 20
250.949011
 30
0.0
 11
350.403017
 21
250.949011
 31
0.0
  0
LINE
  8
0
  6
CONTINUOUS
 62
   249
 10
349.634382
 20
251.571073
 30
0.0
 11
350.828723
 21
251.571073
 31
0.0
  0
LINE
  8
0
  6
CONTINUOUS
 62
   249
 10
348.440041
 20
251.571073
 30
0.0
 11
349.634382
 21
251.571073
 31
0.0
  0
LINE
  8
0
  6
CONTINUOUS
 62
   249
 10
349.650269
 20
252.925343
 30
0.0
 11
349.650269
 21
251.571073
 31
0.0
  0
ENDSEC
  0
EOF
