  0
SECTION
  2
HEADER
  9
$ACADVER
  1
AC1009
  9
$INSBASE
 10
0.0
 20
0.0
 30
0.0
  9
$EXTMIN
 10
108.8777
 20
166.7361
 30
0.0
  9
$EXTMAX
 10
2179.654
 20
1546.909
 30
0.0
  9
$LIMMIN
 10
0.0
 20
0.0
  9
$LIMMAX
 10
12.0
 20
9.0
  9
$ORTHOMODE
 70
     0
  9
$REGENMODE
 70
     1
  9
$FILLMODE
 70
     1
  9
$QTEXTMODE
 70
     0
  9
$MIRRTEXT
 70
     1
  9
$DRAGMODE
 70
     2
  9
$LTSCALE
 40
20.0
  9
$OSMODE
 70
  1023
  9
$ATTMODE
 70
     1
  9
$TEXTSIZE
 40
0.2
  9
$TRACEWID
 40
0.05
  9
$TEXTSTYLE
  7
STANDARD
  9
$CLAYER
  8
0
  9
$CELTYPE
  6
CONTINUOUS
  9
$CECOLOR
 62
   256
  9
$DIMSCALE
 40
1.0
  9
$DIMASZ
 40
10.0
  9
$DIMEXO
 40
0.0625
  9
$DIMDLI
 40
0.38
  9
$DIMRND
 40
0.0
  9
$DIMDLE
 40
0.0
  9
$DIMEXE
 40
0.18
  9
$DIMTP
 40
0.0
  9
$DIMTM
 40
0.0
  9
$DIMTXT
 40
10.0
  9
$DIMCEN
 40
0.09
  9
$DIMTSZ
 40
0.0
  9
$DIMTOL
 70
     0
  9
$DIMLIM
 70
     0
  9
$DIMTIH
 70
     1
  9
$DIMTOH
 70
     1
  9
$DIMSE1
 70
     0
  9
$DIMSE2
 70
     0
  9
$DIMTAD
 70
     0
  9
$DIMZIN
 70
     0
  9
$DIMBLK
  1

  9
$DIMASO
 70
     1
  9
$DIMSHO
 70
     1
  9
$DIMPOST
  1

  9
$DIMAPOST
  1

  9
$DIMALT
 70
     0
  9
$DIMALTD
 70
     2
  9
$DIMALTF
 40
25.4
  9
$DIMLFAC
 40
1.0
  9
$DIMTOFL
 70
     0
  9
$DIMTVP
 40
0.0
  9
$DIMTIX
 70
     0
  9
$DIMSOXD
 70
     0
  9
$DIMSAH
 70
     0
  9
$DIMBLK1
  1

  9
$DIMBLK2
  1

  9
$DIMSTYLE
  2
STANDARD
  9
$DIMCLRD
 70
     1
  9
$DIMCLRE
 70
     1
  9
$DIMCLRT
 70
     0
  9
$DIMTFAC
 40
1.0
  9
$DIMGAP
 40
10.0
  9
$LUNITS
 70
     2
  9
$LUPREC
 70
     4
  9
$SKETCHINC
 40
0.1
  9
$FILLETRAD
 40
0.0
  9
$AUNITS
 70
     0
  9
$AUPREC
 70
     0
  9
$MENU
  1
acad
  9
$ELEVATION
 40
0.0
  9
$PELEVATION
 40
0.0
  9
$THICKNESS
 40
0.0
  9
$LIMCHECK
 70
     0
  9
$BLIPMODE
 70
     0
  9
$CHAMFERA
 40
0.0
  9
$CHAMFERB
 40
0.0
  9
$SKPOLY
 70
     0
  9
$TDCREATE
 40
2452041.386972
  9
$TDUPDATE
 40
2452041.386972
  9
$TDINDWG
 40
0.014058
  9
$TDUSRTIMER
 40
0.014058
  9
$USRTIMER
 70
     1
  9
$ANGBASE
 50
0.0
  9
$ANGDIR
 70
     0
  9
$PDMODE
 70
     0
  9
$PDSIZE
 40
0.0
  9
$PLINEWID
 40
0.0
  9
$COORDS
 70
     1
  9
$SPLFRAME
 70
     0
  9
$SPLINETYPE
 70
     6
  9
$SPLINESEGS
 70
     8
  9
$ATTDIA
 70
     0
  9
$ATTREQ
 70
     1
  9
$HANDLING
 70
     1
  9
$HANDSEED
  5
6CE
  9
$SURFTAB1
 70
     6
  9
$SURFTAB2
 70
     6
  9
$SURFTYPE
 70
     6
  9
$SURFU
 70
     6
  9
$SURFV
 70
     6
  9
$UCSNAME
  2

  9
$UCSORG
 10
0.0
 20
0.0
 30
0.0
  9
$UCSXDIR
 10
1.0
 20
0.0
 30
0.0
  9
$UCSYDIR
 10
0.0
 20
1.0
 30
0.0
  9
$PUCSNAME
  2

  9
$PUCSORG
 10
0.0
 20
0.0
 30
0.0
  9
$PUCSXDIR
 10
1.0
 20
0.0
 30
0.0
  9
$PUCSYDIR
 10
0.0
 20
1.0
 30
0.0
  9
$USERI1
 70
     0
  9
$USERI2
 70
     0
  9
$USERI3
 70
     0
  9
$USERI4
 70
     0
  9
$USERI5
 70
     0
  9
$USERR1
 40
0.0
  9
$USERR2
 40
0.0
  9
$USERR3
 40
0.0
  9
$USERR4
 40
0.0
  9
$USERR5
 40
0.0
  9
$WORLDVIEW
 70
     1
  9
$SHADEDGE
 70
     3
  9
$SHADEDIF
 70
    70
  9
$TILEMODE
 70
     1
  9
$MAXACTVP
 70
    48
  9
$PLIMCHECK
 70
     0
  9
$PEXTMIN
 10
1.000000E+020
 20
1.000000E+020
 30
1.000000E+020
  9
$PEXTMAX
 10
-1.000000E+020
 20
-1.000000E+020
 30
-1.000000E+020
  9
$PLIMMIN
 10
0.0
 20
0.0
  9
$PLIMMAX
 10
12.0
 20
9.0
  9
$UNITMODE
 70
     0
  9
$VISRETAIN
 70
     1
  9
$PLINEGEN
 70
     0
  9
$PSLTSCALE
 70
     1
  0
ENDSEC
  0
SECTION
  2
TABLES
  0
TABLE
  2
VPORT
 70
     2
  0
VPORT
  2
*ACTIVE
 70
     0
 10
0.0
 20
0.0
 11
1.0
 21
1.0
 12
1144.288422
 22
890.068261
 13
0.0
 23
0.0
 14
1.0
 24
1.0
 15
0.0
 25
0.0
 16
0.0
 26
0.0
 36
1.0
 17
0.0
 27
0.0
 37
0.0
 40
1456.022466
 41
1.679787
 42
50.0
 43
0.0
 44
0.0
 50
0.0
 51
0.0
 71
     0
 72
   100
 73
     1
 74
     1
 75
     0
 76
     0
 77
     0
 78
     0
  0
ENDTAB
  0
TABLE
  2
LTYPE
 70
     3
  0
LTYPE
  2
CONTINUOUS
 70
     0
  3
Solid line
 72
    65
 73
     0
 40
0.0
  0
LTYPE
  2
CENTER
 70
     0
  3
____ _ ____ _ ____ _ ____ _ ____ _ ____
 72
    65
 73
     4
 40
2.0
 49
1.25
 49
-0.25
 49
0.25
 49
-0.25
  0
LTYPE
  2
DASHED
 70
     0
  3
_ _ _ _ _ _ _ _ _ _ _ _ _ _ _ _ _ _ _ _ _
 72
    65
 73
     2
 40
0.75
 49
0.5
 49
-0.25
  0
ENDTAB
  0
TABLE
  2
LAYER
 70
     6
  0
LAYER
  2
0
 70
     0
 62
     7
  6
CONTINUOUS
  0
LAYER
  2
5
 70
     0
 62
     7
  6
CONTINUOUS
  0
LAYER
  2
6
 70
     0
 62
     5
  6
CENTER
  0
LAYER
  2
7
 70
     0
 62
     3
  6
DASHED
  0
LAYER
  2
BYLAYER
 70
     0
 62
     7
  6
CONTINUOUS
  0
LAYER
  2
DEFPOINTS
 70
     0
 62
     7
  6
CONTINUOUS
  0
ENDTAB
  0
TABLE
  2
STYLE
 70
     1
  0
STYLE
  2
STANDARD
 70
     0
 40
0.0
 41
1.0
 50
0.0
 71
     0
 42
0.2
  3
txt
  4

  0
ENDTAB
  0
TABLE
  2
VIEW
 70
     0
  0
ENDTAB
  0
TABLE
  2
UCS
 70
     0
  0
ENDTAB
  0
TABLE
  2
APPID
 70
     1
  0
APPID
  2
ACAD
 70
     0
  0
ENDTAB
  0
TABLE
  2
DIMSTYLE
 70
     1
  0
DIMSTYLE
  2
STANDARD
 70
     0
  3

  4

  5

  6

  7

 40
1.0
 41
0.18
 42
0.0625
 43
0.38
 44
0.18
 45
0.0
 46
0.0
 47
0.0
 48
0.0
140
0.18
141
0.09
142
0.0
143
25.4
144
1.0
145
0.0
146
1.0
147
0.09
 71
     0
 72
     0
 73
     1
 74
     1
 75
     0
 76
     0
 77
     0
 78
     0
170
     0
171
     2
172
     0
173
     0
174
     0
175
     0
176
     0
177
     0
178
     0
  0
ENDTAB
  0
ENDSEC
  0
SECTION
  2
BLOCKS
  0
BLOCK
  8
0
  2
$MODEL_SPACE
 70
     0
 10
0.0
 20
0.0
 30
0.0
  3
$MODEL_SPACE
  1

  0
ENDBLK
  5
1A
  8
0
  0
BLOCK
 67
     1
  8
0
  2
$PAPER_SPACE
 70
     0
 10
0.0
 20
0.0
 30
0.0
  3
$PAPER_SPACE
  1

  0
ENDBLK
  5
17
 67
     1
  8
0
  0
ENDSEC
  0
SECTION
  2
ENTITIES
  0
LINE
  5
25
  8
5
  6
CONTINUOUS
 10
1949.654
 20
991.91
 30
0.0
 11
1933.154
 21
991.9091
 31
0.0
  0
LINE
  5
26
  8
5
  6
CONTINUOUS
 10
1958.654
 20
1185.909
 30
0.0
 11
1958.654
 21
1180.527
 31
0.0
  0
LINE
  5
27
  8
5
  6
CONTINUOUS
 10
1940.654
 20
1185.909
 30
0.0
 11
1940.654
 21
1180.527
 31
0.0
  0
LINE
  5
28
  8
5
  6
CONTINUOUS
 10
1940.654
 20
1185.909
 30
0.0
 11
1958.654
 21
1185.909
 31
0.0
  0
LINE
  5
29
  8
5
  6
CONTINUOUS
 10
2151.546
 20
973.3226
 30
0.0
 11
2127.249
 21
1013.76
 31
0.0
  0
LINE
  5
2A
  8
5
  6
CONTINUOUS
 10
2151.546
 20
973.3226
 30
0.0
 11
2160.019
 21
959.2224
 31
0.0
  0
LINE
  5
2B
  8
5
  6
CONTINUOUS
 10
2146.454
 20
1019.009
 30
0.0
 11
2131.21
 21
1019.009
 31
0.0
  0
ARC
  5
2C
  8
5
  6
CONTINUOUS
 10
1949.654
 20
1151.909
 30
0.0
 40
35.0
 50
104.9005
 51
0.0
  0
ARC
  5
2D
  8
5
  6
CONTINUOUS
 10
1949.654
 20
1151.909
 30
0.0
 40
35.0
 50
76.27088
 51
103.7292
  0
LINE
  5
2E
  8
5
  6
CONTINUOUS
 10
2082.254
 20
970.1338
 30
0.0
 11
2082.254
 21
955.909
 31
0.0
  0
LINE
  5
2F
  8
5
  6
CONTINUOUS
 10
1817.054
 20
955.909
 30
0.0
 11
1817.054
 21
970.1338
 31
0.0
  0
ARC
  5
30
  8
5
  6
CONTINUOUS
 10
1949.654
 20
1151.909
 30
0.0
 40
34.99999
 50
0.000002
 51
75.09935
  0
CIRCLE
  5
31
  8
5
  6
CONTINUOUS
 10
1949.654
 20
1151.909
 30
0.0
 40
30.0
  0
LINE
  5
32
  8
5
  6
CONTINUOUS
 10
657.5116
 20
1185.909
 30
0.0
 11
666.5116
 21
1185.909
 31
0.0
  0
LINE
  5
33
  8
5
  6
CONTINUOUS
 10
666.5116
 20
1185.909
 30
0.0
 11
774.5116
 21
1185.909
 31
0.0
  0
LINE
  5
34
  8
5
  6
CONTINUOUS
 10
783.5116
 20
1185.909
 30
0.0
 11
774.5116
 21
1185.909
 31
0.0
  0
LINE
  5
35
  8
5
  6
CONTINUOUS
 10
650.5116
 20
1181.909
 30
0.0
 11
650.5116
 21
1121.909
 31
0.0
  0
LINE
  5
36
  8
5
  6
CONTINUOUS
 10
1007.127
 20
1546.909
 30
0.0
 11
1007.127
 21
1546.909
 31
0.0
  0
LINE
  5
37
  8
5
  6
CONTINUOUS
 10
774.5116
 20
1180.527
 30
0.0
 11
666.5116
 21
1180.527
 31
0.0
  0
LINE
  5
38
  8
5
  6
CONTINUOUS
 10
774.5116
 20
1185.909
 30
0.0
 11
774.5116
 21
1180.527
 31
0.0
  0
LINE
  5
39
  8
5
  6
CONTINUOUS
 10
666.5116
 20
1185.909
 30
0.0
 11
666.5116
 21
1180.527
 31
0.0
  0
LINE
  5
3A
  8
5
  6
CONTINUOUS
 10
657.5116
 20
1185.909
 30
0.0
 11
657.5117
 21
1181.91
 31
0.0
  0
LINE
  5
3B
  8
5
  6
CONTINUOUS
 10
783.5118
 20
1181.909
 30
0.0
 11
783.5118
 21
1185.909
 31
0.0
  0
LINE
  5
3C
  8
5
  6
CONTINUOUS
 10
657.5114
 20
1181.909
 30
0.0
 11
650.5116
 21
1181.909
 31
0.0
  0
LINE
  5
3D
  8
5
  6
CONTINUOUS
 10
785.5116
 20
1181.909
 30
0.0
 11
783.5118
 21
1181.909
 31
0.0
  0
LINE
  5
3E
  8
5
  6
CONTINUOUS
 10
650.5116
 20
1121.909
 30
0.0
 11
785.5116
 21
1121.909
 31
0.0
  0
LINE
  5
3F
  8
5
  6
CONTINUOUS
 10
666.5116
 20
383.7361
 30
0.0
 11
774.5116
 21
383.7361
 31
0.0
  0
ARC
  5
40
  8
5
  6
CONTINUOUS
 10
666.5116
 20
392.7361
 30
0.0
 40
9.0
 50
90.0
 51
270.0
  0
LINE
  5
41
  8
5
  6
CONTINUOUS
 10
774.5116
 20
401.7361
 30
0.0
 11
666.5116
 21
401.7361
 31
0.0
  0
LINE
  5
42
  8
5
  6
CONTINUOUS
 10
650.5116
 20
422.7361
 30
0.0
 11
650.5116
 21
362.7361
 31
0.0
  0
ARC
  5
43
  8
5
  6
CONTINUOUS
 10
774.5116
 20
392.7361
 30
0.0
 40
9.0
 50
270.0
 51
90.0
  0
LINE
  5
44
  8
5
  6
CONTINUOUS
 10
888.1802
 20
195.9361
 30
0.0
 11
888.1802
 21
195.9361
 31
0.0
  0
LINE
  5
45
  8
5
  6
CONTINUOUS
 10
1322.843
 20
589.5361
 30
0.0
 11
1322.843
 21
589.5361
 31
0.0
  0
LINE
  5
46
  8
5
  6
CONTINUOUS
 10
650.5117
 20
362.7361
 30
0.0
 11
785.5116
 21
362.7361
 31
0.0
  0
LINE
  5
47
  8
5
  6
CONTINUOUS
 10
785.5116
 20
422.7361
 30
0.0
 11
650.5117
 21
422.7361
 31
0.0
  0
CIRCLE
  5
48
  8
5
  6
CONTINUOUS
 10
2026.191
 20
967.1331
 30
0.0
 40
9.25
  0
CIRCLE
  5
49
  8
5
  6
CONTINUOUS
 10
2134.43
 20
1075.372
 30
0.0
 40
9.25
  0
CIRCLE
  5
4A
  8
5
  6
CONTINUOUS
 10
2134.43
 20
1228.446
 30
0.0
 40
9.25
  0
CIRCLE
  5
4B
  8
5
  6
CONTINUOUS
 10
2026.191
 20
1336.685
 30
0.0
 40
9.25
  0
LINE
  5
4C
  8
5
  6
CONTINUOUS
 10
2144.094
 20
985.7247
 30
0.0
 11
2144.094
 21
985.7247
 31
0.0
  0
LINE
  5
51
  8
5
  6
CONTINUOUS
 10
2164.654
 20
1051.809
 30
0.0
 11
2164.654
 21
1038.009
 31
0.0
  0
LINE
  5
56
  8
5
  6
CONTINUOUS
 10
2093.154
 20
1325.209
 30
0.0
 11
2129.469
 21
1352.573
 31
0.0
  0
LINE
  5
57
  8
5
  6
CONTINUOUS
 10
2129.469
 20
1352.573
 30
0.0
 11
2142.341
 21
1362.273
 31
0.0
  0
LINE
  5
58
  8
5
  6
CONTINUOUS
 10
2160.019
 20
1344.596
 30
0.0
 11
2151.546
 21
1330.496
 31
0.0
  0
LINE
  5
59
  8
5
  6
CONTINUOUS
 10
2151.546
 20
1330.496
 30
0.0
 11
2127.249
 21
1290.058
 31
0.0
  0
LINE
  5
5A
  8
5
  6
CONTINUOUS
 10
2082.554
 20
1366.909
 30
0.0
 11
2082.554
 21
1342.909
 31
0.0
  0
LINE
  5
5B
  8
5
  6
CONTINUOUS
 10
2082.554
 20
1342.909
 30
0.0
 11
2082.554
 21
1333.465
 31
0.0
  0
LINE
  5
5C
  8
5
  6
CONTINUOUS
 10
1755.214
 20
1318.093
 30
0.0
 11
1755.214
 21
1318.093
 31
0.0
  0
LINE
  5
5D
  8
5
  6
CONTINUOUS
 10
2071.154
 20
1398.209
 30
0.0
 11
2071.154
 21
1363.909
 31
0.0
  0
LINE
  5
5E
  8
5
  6
CONTINUOUS
 10
2142.341
 20
1362.273
 30
0.0
 11
2160.019
 21
1344.596
 31
0.0
  0
LINE
  5
5F
  8
5
  6
CONTINUOUS
 10
1828.154
 20
1363.909
 30
0.0
 11
1828.154
 21
1398.209
 31
0.0
  0
LINE
  5
60
  8
5
  6
CONTINUOUS
 10
1753.654
 20
1284.809
 30
0.0
 11
1768.098
 21
1284.809
 31
0.0
  0
LINE
  5
61
  8
5
  6
CONTINUOUS
 10
1816.754
 20
1342.909
 30
0.0
 11
1816.754
 21
1333.465
 31
0.0
  0
LINE
  5
62
  8
5
  6
CONTINUOUS
 10
1816.754
 20
1342.909
 30
0.0
 11
1816.754
 21
1366.909
 31
0.0
  0
LINE
  5
63
  8
5
  6
CONTINUOUS
 10
2073.654
 20
1398.209
 30
0.0
 11
1825.654
 21
1398.209
 31
0.0
  0
LINE
  5
64
  8
5
  6
CONTINUOUS
 10
2164.654
 20
1085.577
 30
0.0
 11
2164.654
 21
1072.409
 31
0.0
  0
LINE
  5
65
  8
5
  6
CONTINUOUS
 10
2097.654
 20
1423.709
 30
0.0
 11
2142.154
 21
1423.709
 31
0.0
  0
LINE
  5
66
  8
5
  6
CONTINUOUS
 10
2164.654
 20
1248.409
 30
0.0
 11
2164.654
 21
1231.409
 31
0.0
  0
LINE
  5
67
  8
5
  6
CONTINUOUS
 10
2097.654
 20
1422.209
 30
0.0
 11
2097.654
 21
1446.709
 31
0.0
  0
LINE
  5
68
  8
5
  6
CONTINUOUS
 10
2107.154
 20
1446.709
 30
0.0
 11
1794.654
 21
1446.709
 31
0.0
  0
LINE
  5
69
  8
5
  6
CONTINUOUS
 10
2142.154
 20
1471.709
 30
0.0
 11
2142.154
 21
1423.709
 31
0.0
  0
LINE
  5
6A
  8
5
  6
CONTINUOUS
 10
2164.654
 20
1072.409
 30
0.0
 11
2164.654
 21
1055.409
 31
0.0
  0
LINE
  5
6B
  8
5
  6
CONTINUOUS
 10
2097.654
 20
1422.209
 30
0.0
 11
2073.654
 21
1398.209
 31
0.0
  0
LINE
  5
6C
  8
5
  6
CONTINUOUS
 10
1825.654
 20
1398.209
 30
0.0
 11
1801.654
 21
1422.209
 31
0.0
  0
LINE
  5
6D
  8
5
  6
CONTINUOUS
 10
2164.654
 20
1266.609
 30
0.0
 11
2164.654
 21
1248.409
 31
0.0
  0
LINE
  5
6E
  8
5
  6
CONTINUOUS
 10
2164.654
 20
1231.409
 30
0.0
 11
2164.654
 21
1218.242
 31
0.0
  0
LINE
  5
6F
  8
5
  6
CONTINUOUS
 10
1801.654
 20
1422.209
 30
0.0
 11
1801.654
 21
1446.709
 31
0.0
  0
LINE
  5
70
  8
5
  6
CONTINUOUS
 10
1839.654
 20
1542.709
 30
0.0
 11
2062.662
 21
1542.709
 31
0.0
  0
LINE
  5
71
  8
5
  6
CONTINUOUS
 10
1949.495
 20
1542.709
 30
0.0
 11
1949.495
 21
1546.909
 31
0.0
  0
LINE
  5
72
  8
5
  6
CONTINUOUS
 10
1924.598
 20
1546.909
 30
0.0
 11
1924.598
 21
1542.709
 31
0.0
  0
LINE
  5
73
  8
5
  6
CONTINUOUS
 10
1951.595
 20
1542.709
 30
0.0
 11
1951.595
 21
1546.909
 31
0.0
  0
LINE
  5
74
  8
5
  6
CONTINUOUS
 10
1734.654
 20
1231.409
 30
0.0
 11
1734.654
 21
1248.409
 31
0.0
  0
LINE
  5
75
  8
5
  6
CONTINUOUS
 10
1977.662
 20
1542.709
 30
0.0
 11
1977.662
 21
1546.909
 31
0.0
  0
LINE
  5
76
  8
5
  6
CONTINUOUS
 10
1734.654
 20
1072.409
 30
0.0
 11
1734.654
 21
1085.577
 31
0.0
  0
LINE
  5
77
  8
5
  6
CONTINUOUS
 10
1734.654
 20
1037.209
 30
0.0
 11
1734.654
 21
1055.409
 31
0.0
  0
LINE
  5
78
  8
5
  6
CONTINUOUS
 10
1951.595
 20
1546.909
 30
0.0
 11
1951.595
 21
1546.909
 31
0.0
  0
LINE
  5
79
  8
5
  6
CONTINUOUS
 10
1924.598
 20
1546.909
 30
0.0
 11
1949.495
 21
1546.909
 31
0.0
  0
LINE
  5
7A
  8
5
  6
CONTINUOUS
 10
1951.595
 20
1546.909
 30
0.0
 11
1977.662
 21
1546.909
 31
0.0
  0
LINE
  5
7B
  8
5
  6
CONTINUOUS
 10
1734.654
 20
1218.242
 30
0.0
 11
1734.654
 21
1231.409
 31
0.0
  0
LINE
  5
7C
  8
5
  6
CONTINUOUS
 10
1734.654
 20
1248.409
 30
0.0
 11
1734.654
 21
1266.609
 31
0.0
  0
LINE
  5
7D
  8
5
  6
CONTINUOUS
 10
1734.654
 20
1055.409
 30
0.0
 11
1734.654
 21
1072.409
 31
0.0
  0
LINE
  5
7E
  8
5
  6
CONTINUOUS
 10
2155.359
 20
1275.513
 30
0.0
 11
2145.654
 21
1284.809
 31
0.0
  0
LINE
  5
7F
  8
5
  6
CONTINUOUS
 10
2164.654
 20
1266.609
 30
0.0
 11
2155.359
 21
1275.513
 31
0.0
  0
LINE
  5
80
  8
5
  6
CONTINUOUS
 10
2163.888
 20
1037.209
 30
0.0
 11
2164.654
 21
1038.009
 31
0.0
  0
LINE
  5
81
  8
5
  6
CONTINUOUS
 10
2155.359
 20
1028.305
 30
0.0
 11
2163.888
 21
1037.209
 31
0.0
  0
LINE
  5
82
  8
5
  6
CONTINUOUS
 10
2146.454
 20
1019.009
 30
0.0
 11
2155.359
 21
1028.305
 31
0.0
  0
LINE
  5
83
  8
5
  6
CONTINUOUS
 10
1743.95
 20
1275.513
 30
0.0
 11
1734.654
 21
1266.609
 31
0.0
  0
LINE
  5
84
  8
5
  6
CONTINUOUS
 10
1753.654
 20
1284.809
 30
0.0
 11
1743.95
 21
1275.513
 31
0.0
  0
LINE
  5
85
  8
5
  6
CONTINUOUS
 10
1743.95
 20
1028.305
 30
0.0
 11
1753.654
 21
1019.009
 31
0.0
  0
LINE
  5
86
  8
5
  6
CONTINUOUS
 10
1734.654
 20
1037.209
 30
0.0
 11
1743.95
 21
1028.305
 31
0.0
  0
LINE
  5
87
  8
5
  6
CONTINUOUS
 10
2071.154
 20
1366.909
 30
0.0
 11
2082.554
 21
1366.909
 31
0.0
  0
LINE
  5
88
  8
5
  6
CONTINUOUS
 10
1816.754
 20
1366.909
 30
0.0
 11
1828.154
 21
1366.909
 31
0.0
  0
LINE
  5
89
  8
5
  6
CONTINUOUS
 10
1739.29
 20
1344.596
 30
0.0
 11
1756.968
 21
1362.273
 31
0.0
  0
LINE
  5
8A
  8
5
  6
CONTINUOUS
 10
1747.762
 20
1330.496
 30
0.0
 11
1772.06
 21
1290.058
 31
0.0
  0
LINE
  5
8B
  8
5
  6
CONTINUOUS
 10
1747.762
 20
1330.496
 30
0.0
 11
1739.29
 21
1344.596
 31
0.0
  0
LINE
  5
8C
  8
5
  6
CONTINUOUS
 10
1756.968
 20
1362.273
 30
0.0
 11
1769.84
 21
1352.573
 31
0.0
  0
LINE
  5
8D
  8
5
  6
CONTINUOUS
 10
1924.598
 20
1546.909
 30
0.0
 11
1924.598
 21
1546.909
 31
0.0
  0
LINE
  5
8E
  8
5
  6
CONTINUOUS
 10
2143.438
 20
1284.809
 30
0.0
 11
2131.355
 21
1296.892
 31
0.0
  0
LINE
  5
8F
  8
5
  6
CONTINUOUS
 10
2098.791
 20
1329.456
 30
0.0
 11
2082.554
 21
1345.692
 31
0.0
  0
LINE
  5
90
  8
5
  6
CONTINUOUS
 10
1816.754
 20
1345.692
 30
0.0
 11
1800.518
 21
1329.456
 31
0.0
  0
LINE
  5
91
  8
5
  6
CONTINUOUS
 10
1767.953
 20
1296.892
 30
0.0
 11
1755.871
 21
1284.809
 31
0.0
  0
LINE
  5
92
  8
5
  6
CONTINUOUS
 10
1755.871
 20
1019.009
 30
0.0
 11
1767.953
 21
1006.927
 31
0.0
  0
LINE
  5
93
  8
5
  6
CONTINUOUS
 10
1951.595
 20
1546.909
 30
0.0
 11
1951.595
 21
1546.909
 31
0.0
  0
LINE
  5
94
  8
5
  6
CONTINUOUS
 10
1790.154
 20
1491.709
 30
0.0
 11
1790.154
 21
1468.709
 31
0.0
  0
LINE
  5
95
  8
5
  6
CONTINUOUS
 10
1839.654
 20
1491.709
 30
0.0
 11
1790.154
 21
1491.709
 31
0.0
  0
LINE
  5
96
  8
5
  6
CONTINUOUS
 10
2131.355
 20
1006.927
 30
0.0
 11
2143.438
 21
1019.009
 31
0.0
  0
LINE
  5
97
  8
5
  6
CONTINUOUS
 10
1739.29
 20
959.2224
 30
0.0
 11
1747.762
 21
973.3226
 31
0.0
  0
LINE
  5
98
  8
5
  6
CONTINUOUS
 10
1790.154
 20
1491.709
 30
0.0
 11
1839.654
 21
1542.709
 31
0.0
  0
LINE
  5
99
  8
5
  6
CONTINUOUS
 10
2112.154
 20
1491.709
 30
0.0
 11
2062.654
 21
1491.709
 31
0.0
  0
LINE
  5
9A
  8
5
  6
CONTINUOUS
 10
2062.662
 20
1542.709
 30
0.0
 11
2081.583
 21
1523.209
 31
0.0
  0
LINE
  5
9B
  8
5
  6
CONTINUOUS
 10
2078.085
 20
1523.209
 30
0.0
 11
2141.154
 21
1523.209
 31
0.0
  0
LINE
  5
9C
  8
5
  6
CONTINUOUS
 10
1747.762
 20
973.3226
 30
0.0
 11
1772.06
 21
1013.76
 31
0.0
  0
LINE
  5
9D
  8
5
  6
CONTINUOUS
 10
1768.098
 20
1019.009
 30
0.0
 11
1753.654
 21
1019.009
 31
0.0
  0
CIRCLE
  5
9E
  8
5
  6
CONTINUOUS
 10
1873.118
 20
1336.685
 30
0.0
 40
9.25
  0
CIRCLE
  5
9F
  8
5
  6
CONTINUOUS
 10
1764.878
 20
1228.446
 30
0.0
 40
9.25
  0
CIRCLE
  5
A0
  8
5
  6
CONTINUOUS
 10
1764.878
 20
1075.372
 30
0.0
 40
9.25
  0
CIRCLE
  5
A1
  8
5
  6
CONTINUOUS
 10
1873.118
 20
967.1331
 30
0.0
 40
9.25
  0
LINE
  5
A2
  8
5
  6
CONTINUOUS
 10
1966.154
 20
1004.617
 30
0.0
 11
1966.154
 21
991.9091
 31
0.0
  0
LINE
  5
A3
  8
5
  6
CONTINUOUS
 10
1966.154
 20
1035.609
 30
0.0
 11
1966.154
 21
1004.617
 31
0.0
  0
LINE
  5
A4
  8
5
  6
CONTINUOUS
 10
1966.154
 20
991.9091
 30
0.0
 11
1949.654
 21
991.91
 31
0.0
  0
LINE
  5
A5
  8
5
  6
CONTINUOUS
 10
1933.154
 20
991.909
 30
0.0
 11
1933.154
 21
1004.617
 31
0.0
  0
LINE
  5
A6
  8
5
  6
CONTINUOUS
 10
1933.154
 20
1004.617
 30
0.0
 11
1933.154
 21
1035.609
 31
0.0
  0
LINE
  5
A7
  8
5
  6
CONTINUOUS
 10
1933.154
 20
1035.609
 30
0.0
 11
1966.154
 21
1035.609
 31
0.0
  0
LINE
  5
A8
  8
5
  6
CONTINUOUS
 10
1966.154
 20
1035.609
 30
0.0
 11
2041.531
 21
1035.609
 31
0.0
  0
LINE
  5
A9
  8
5
  6
CONTINUOUS
 10
1857.777
 20
1035.609
 30
0.0
 11
1933.154
 21
1035.609
 31
0.0
  0
LINE
  5
AA
  8
5
  6
CONTINUOUS
 10
1975.654
 20
1055.909
 30
0.0
 11
1923.654
 21
1055.909
 31
0.0
  0
LINE
  5
AB
  8
5
  6
CONTINUOUS
 10
1836.734
 20
1055.909
 30
0.0
 11
1923.654
 21
1055.909
 31
0.0
  0
LINE
  5
AC
  8
5
  6
CONTINUOUS
 10
1975.654
 20
1055.909
 30
0.0
 11
2062.575
 21
1055.909
 31
0.0
  0
LINE
  5
AD
  8
5
  6
CONTINUOUS
 10
1975.654
 20
1098.154
 30
0.0
 11
1975.654
 21
1055.909
 31
0.0
  0
LINE
  5
AE
  8
5
  6
CONTINUOUS
 10
2112.154
 20
1471.709
 30
0.0
 11
2142.154
 21
1471.709
 31
0.0
  0
LINE
  5
AF
  8
5
  6
CONTINUOUS
 10
2107.154
 20
1446.709
 30
0.0
 11
2107.154
 21
1468.709
 31
0.0
  0
LINE
  5
B0
  8
5
  6
CONTINUOUS
 10
1794.654
 20
1446.709
 30
0.0
 11
1794.654
 21
1468.709
 31
0.0
  0
LINE
  5
B1
  8
5
  6
CONTINUOUS
 10
2069.759
 20
1363.909
 30
0.0
 11
2070.535
 21
1341.679
 31
0.0
  0
LINE
  5
B2
  8
5
  6
CONTINUOUS
 10
1923.654
 20
1098.154
 30
0.0
 11
1923.654
 21
1055.909
 31
0.0
  0
LINE
  5
B3
  8
5
  6
CONTINUOUS
 10
2141.154
 20
1523.209
 30
0.0
 11
2141.154
 21
1471.709
 31
0.0
  0
CIRCLE
  5
B6
  8
5
  6
CONTINUOUS
 10
1949.654
 20
1151.909
 30
0.0
 40
225.0
  0
CIRCLE
  5
B7
  8
5
  6
CONTINUOUS
 10
1949.654
 20
1151.909
 30
0.0
 40
175.0
  0
LINE
  5
BB
  8
5
  6
CONTINUOUS
 10
1990.954
 20
1054.809
 30
0.0
 11
1990.954
 21
1051.809
 31
0.0
  0
LINE
  5
BD
  8
5
  6
CONTINUOUS
 10
2112.154
 20
1491.709
 30
0.0
 11
2112.154
 21
1468.709
 31
0.0
  0
LINE
  5
BE
  8
5
  6
CONTINUOUS
 10
2175.654
 20
1051.809
 30
0.0
 11
2175.654
 21
1054.809
 31
0.0
  0
LINE
  5
BF
  8
5
  6
CONTINUOUS
 10
2112.154
 20
1468.709
 30
0.0
 11
1790.154
 21
1468.709
 31
0.0
  0
LINE
  5
C0
  8
5
  6
CONTINUOUS
 10
2071.154
 20
1363.909
 30
0.0
 11
2056.154
 21
1363.909
 31
0.0
  0
LINE
  5
C1
  8
5
  6
CONTINUOUS
 10
2056.154
 20
1363.909
 30
0.0
 11
2024.607
 21
1363.909
 31
0.0
  0
LINE
  5
C2
  8
5
  6
CONTINUOUS
 10
1874.701
 20
1363.909
 30
0.0
 11
1843.154
 21
1363.909
 31
0.0
  0
LINE
  5
C3
  8
5
  6
CONTINUOUS
 10
1843.154
 20
1363.909
 30
0.0
 11
1828.154
 21
1363.909
 31
0.0
  0
LINE
  5
C4
  8
5
  6
CONTINUOUS
 10
2142.341
 20
941.5448
 30
0.0
 11
2129.469
 21
951.2448
 31
0.0
  0
LINE
  5
C5
  8
5
  6
CONTINUOUS
 10
2093.154
 20
978.6095
 30
0.0
 11
2129.469
 21
951.2448
 31
0.0
  0
LINE
  5
C6
  8
5
  6
CONTINUOUS
 10
2160.019
 20
959.2224
 30
0.0
 11
2142.341
 21
941.5448
 31
0.0
  0
LINE
  5
C7
  8
5
  6
CONTINUOUS
 10
1843.154
 20
1398.209
 30
0.0
 11
1843.154
 21
1363.909
 31
0.0
  0
LINE
  5
C8
  8
5
  6
CONTINUOUS
 10
2064.354
 20
936.909
 30
0.0
 11
2046.154
 21
936.909
 31
0.0
  0
LINE
  5
C9
  8
5
  6
CONTINUOUS
 10
1870.154
 20
936.909
 30
0.0
 11
1853.154
 21
936.909
 31
0.0
  0
LINE
  5
CA
  8
5
  6
CONTINUOUS
 10
2029.154
 20
936.909
 30
0.0
 11
2015.987
 21
936.909
 31
0.0
  0
LINE
  5
CB
  8
5
  6
CONTINUOUS
 10
2046.154
 20
936.909
 30
0.0
 11
2029.154
 21
936.909
 31
0.0
  0
LINE
  5
CC
  8
5
  6
CONTINUOUS
 10
1853.154
 20
936.909
 30
0.0
 11
1834.954
 21
936.909
 31
0.0
  0
LINE
  5
CD
  8
5
  6
CONTINUOUS
 10
1883.322
 20
936.909
 30
0.0
 11
1870.154
 21
936.909
 31
0.0
  0
LINE
  5
CE
  8
5
  6
CONTINUOUS
 10
2073.037
 20
946.1258
 30
0.0
 11
2082.254
 21
955.909
 31
0.0
  0
LINE
  5
CF
  8
5
  6
CONTINUOUS
 10
2064.354
 20
936.909
 30
0.0
 11
2073.037
 21
946.1258
 31
0.0
  0
LINE
  5
D0
  8
5
  6
CONTINUOUS
 10
1826.271
 20
946.1258
 30
0.0
 11
1834.954
 21
936.909
 31
0.0
  0
LINE
  5
D1
  8
5
  6
CONTINUOUS
 10
1817.054
 20
955.909
 30
0.0
 11
1826.271
 21
946.1258
 31
0.0
  0
LINE
  5
D2
  8
5
  6
CONTINUOUS
 10
2056.154
 20
1363.909
 30
0.0
 11
2056.154
 21
1398.209
 31
0.0
  0
LINE
  5
D3
  8
5
  6
CONTINUOUS
 10
1801.654
 20
1422.209
 30
0.0
 11
2097.654
 21
1422.209
 31
0.0
  0
LINE
  5
D4
  8
5
  6
CONTINUOUS
 10
2062.654
 20
1491.709
 30
0.0
 11
1839.654
 21
1491.709
 31
0.0
  0
LINE
  5
D5
  8
5
  6
CONTINUOUS
 10
1839.654
 20
1542.709
 30
0.0
 11
1839.654
 21
1491.709
 31
0.0
  0
LINE
  5
D6
  8
5
  6
CONTINUOUS
 10
2062.654
 20
1491.709
 30
0.0
 11
2062.662
 21
1542.709
 31
0.0
  0
LINE
  5
D7
  8
5
  6
CONTINUOUS
 10
1756.968
 20
941.5448
 30
0.0
 11
1739.29
 21
959.2224
 31
0.0
  0
LINE
  5
D8
  8
5
  6
CONTINUOUS
 10
1806.154
 20
978.6095
 30
0.0
 11
1769.84
 21
951.2448
 31
0.0
  0
LINE
  5
D9
  8
5
  6
CONTINUOUS
 10
1769.84
 20
951.2448
 30
0.0
 11
1756.968
 21
941.5448
 31
0.0
  0
LINE
  5
DA
  8
5
  6
CONTINUOUS
 10
2131.21
 20
1284.809
 30
0.0
 11
2145.654
 21
1284.809
 31
0.0
  0
LINE
  5
DB
  8
5
  6
CONTINUOUS
 10
1806.154
 20
1325.209
 30
0.0
 11
1769.84
 21
1352.573
 31
0.0
  0
LINE
  5
DC
  8
5
  6
CONTINUOUS
 10
2108.654
 20
1491.709
 30
0.0
 11
2078.085
 21
1523.209
 31
0.0
  0
LINE
  5
DD
  8
5
  6
CONTINUOUS
 10
140.4375
 20
985.7246
 30
0.0
 11
140.4375
 21
985.7246
 31
0.0
  0
LINE
  5
DE
  8
5
  6
CONTINUOUS
 10
529.3178
 20
1318.093
 30
0.0
 11
529.3178
 21
1318.093
 31
0.0
  0
LINE
  5
DF
  8
5
  6
CONTINUOUS
 10
213.3777
 20
1366.909
 30
0.0
 11
213.3777
 21
1398.209
 31
0.0
  0
LINE
  5
E0
  8
5
  6
CONTINUOUS
 10
456.3777
 20
1398.209
 30
0.0
 11
456.3777
 21
1366.909
 31
0.0
  0
LINE
  5
E1
  8
5
  6
CONTINUOUS
 10
458.8776
 20
1398.209
 30
0.0
 11
210.8776
 21
1398.209
 31
0.0
  0
LINE
  5
E2
  8
5
  6
CONTINUOUS
 10
186.8776
 20
1423.709
 30
0.0
 11
142.3776
 21
1423.709
 31
0.0
  0
LINE
  5
E3
  8
5
  6
CONTINUOUS
 10
1800.518
 20
974.3622
 30
0.0
 11
1817.054
 21
957.8257
 31
0.0
  0
LINE
  5
E4
  8
5
  6
CONTINUOUS
 10
2082.254
 20
957.8257
 30
0.0
 11
2098.791
 21
974.3622
 31
0.0
  0
LINE
  5
E5
  8
5
  6
CONTINUOUS
 10
2164.654
 20
1055.409
 30
0.0
 11
2164.654
 21
1054.809
 31
0.0
  0
LINE
  5
E6
  8
5
  6
CONTINUOUS
 10
186.8776
 20
1422.209
 30
0.0
 11
186.8776
 21
1446.709
 31
0.0
  0
LINE
  5
E7
  8
5
  6
CONTINUOUS
 10
489.8776
 20
1446.709
 30
0.0
 11
177.3776
 21
1446.709
 31
0.0
  0
LINE
  5
E8
  8
5
  6
CONTINUOUS
 10
142.3776
 20
1423.709
 30
0.0
 11
142.3776
 21
1471.709
 31
0.0
  0
LINE
  5
E9
  8
5
  6
CONTINUOUS
 10
186.8776
 20
1422.209
 30
0.0
 11
210.8776
 21
1398.209
 31
0.0
  0
LINE
  5
EA
  8
5
  6
CONTINUOUS
 10
482.8776
 20
1422.209
 30
0.0
 11
458.8776
 21
1398.209
 31
0.0
  0
LINE
  5
EB
  8
5
  6
CONTINUOUS
 10
482.8776
 20
1446.709
 30
0.0
 11
482.8776
 21
1422.209
 31
0.0
  0
LINE
  5
EC
  8
5
  6
CONTINUOUS
 10
221.8776
 20
1542.709
 30
0.0
 11
444.8811
 21
1542.705
 31
0.0
  0
LINE
  5
ED
  8
5
  6
CONTINUOUS
 10
335.041
 20
1542.709
 30
0.0
 11
335.041
 21
1546.909
 31
0.0
  0
LINE
  5
EE
  8
5
  6
CONTINUOUS
 10
359.9381
 20
1542.709
 30
0.0
 11
359.9381
 21
1546.909
 31
0.0
  0
LINE
  5
EF
  8
5
  6
CONTINUOUS
 10
306.8745
 20
1542.709
 30
0.0
 11
306.8745
 21
1546.909
 31
0.0
  0
LINE
  5
F0
  8
5
  6
CONTINUOUS
 10
332.9411
 20
1542.709
 30
0.0
 11
332.9411
 21
1546.909
 31
0.0
  0
LINE
  5
F1
  8
5
  6
CONTINUOUS
 10
306.8745
 20
1546.909
 30
0.0
 11
306.8745
 21
1546.909
 31
0.0
  0
LINE
  5
F2
  8
5
  6
CONTINUOUS
 10
335.041
 20
1546.909
 30
0.0
 11
335.041
 21
1546.909
 31
0.0
  0
LINE
  5
F3
  8
5
  6
CONTINUOUS
 10
306.8745
 20
1546.909
 30
0.0
 11
306.8745
 21
1546.909
 31
0.0
  0
LINE
  5
F4
  8
5
  6
CONTINUOUS
 10
335.041
 20
1546.909
 30
0.0
 11
335.041
 21
1546.909
 31
0.0
  0
LINE
  5
F5
  8
5
  6
CONTINUOUS
 10
2151.546
 20
1330.496
 30
0.0
 11
2129.469
 21
1352.573
 31
0.0
  0
LINE
  5
F7
  8
5
  6
CONTINUOUS
 10
1752.854
 20
1037.209
 30
0.0
 11
1756.085
 21
1037.209
 31
0.0
  0
LINE
  5
FB
  8
5
  6
CONTINUOUS
 10
335.041
 20
1546.909
 30
0.0
 11
337.5957
 21
1546.909
 31
0.0
  0
LINE
  5
FC
  8
5
  6
CONTINUOUS
 10
337.5957
 20
1546.909
 30
0.0
 11
349.4989
 21
1546.909
 31
0.0
  0
LINE
  5
FD
  8
5
  6
CONTINUOUS
 10
349.4989
 20
1546.909
 30
0.0
 11
359.9381
 21
1546.909
 31
0.0
  0
LINE
  5
100
  8
5
  6
CONTINUOUS
 10
1752.854
 20
1266.609
 30
0.0
 11
1756.085
 21
1266.609
 31
0.0
  0
LINE
  5
103
  8
5
  6
CONTINUOUS
 10
2082.554
 20
1342.909
 30
0.0
 11
2070.492
 21
1342.909
 31
0.0
  0
LINE
  5
104
  8
5
  6
CONTINUOUS
 10
1828.816
 20
1342.909
 30
0.0
 11
1816.754
 21
1342.909
 31
0.0
  0
LINE
  5
105
  8
5
  6
CONTINUOUS
 10
2146.454
 20
1037.209
 30
0.0
 11
2163.888
 21
1037.209
 31
0.0
  0
LINE
  5
106
  8
5
  6
CONTINUOUS
 10
2146.454
 20
1266.609
 30
0.0
 11
2164.654
 21
1266.609
 31
0.0
  0
LINE
  5
107
  8
5
  6
CONTINUOUS
 10
2152.91
 20
1248.409
 30
0.0
 11
2164.654
 21
1248.409
 31
0.0
  0
LINE
  5
108
  8
5
  6
CONTINUOUS
 10
306.8745
 20
1546.909
 30
0.0
 11
321.7035
 21
1546.909
 31
0.0
  0
LINE
  5
109
  8
5
  6
CONTINUOUS
 10
321.7035
 20
1546.909
 30
0.0
 11
332.9411
 21
1546.909
 31
0.0
  0
LINE
  5
10A
  8
5
  6
CONTINUOUS
 10
494.3776
 20
1491.709
 30
0.0
 11
494.3776
 21
1468.709
 31
0.0
  0
LINE
  5
10B
  8
5
  6
CONTINUOUS
 10
1734.654
 20
1037.209
 30
0.0
 11
1752.854
 21
1037.209
 31
0.0
  0
LINE
  5
10C
  8
5
  6
CONTINUOUS
 10
1746.399
 20
1055.409
 30
0.0
 11
1734.654
 21
1055.409
 31
0.0
  0
LINE
  5
10D
  8
5
  6
CONTINUOUS
 10
1734.654
 20
1266.609
 30
0.0
 11
1752.854
 21
1266.609
 31
0.0
  0
LINE
  5
10E
  8
5
  6
CONTINUOUS
 10
1734.654
 20
1248.409
 30
0.0
 11
1746.399
 21
1248.409
 31
0.0
  0
LINE
  5
10F
  8
5
  6
CONTINUOUS
 10
494.3776
 20
1491.709
 30
0.0
 11
444.8777
 21
1491.709
 31
0.0
  0
LINE
  5
110
  8
5
  6
CONTINUOUS
 10
444.8811
 20
1542.705
 30
0.0
 11
494.3776
 21
1491.709
 31
0.0
  0
LINE
  5
111
  8
5
  6
CONTINUOUS
 10
221.8776
 20
1491.709
 30
0.0
 11
172.3776
 21
1491.709
 31
0.0
  0
LINE
  5
112
  8
5
  6
CONTINUOUS
 10
202.9489
 20
1523.209
 30
0.0
 11
221.8776
 21
1542.709
 31
0.0
  0
LINE
  5
113
  8
5
  6
CONTINUOUS
 10
1734.654
 20
1231.409
 30
0.0
 11
1739.167
 21
1231.409
 31
0.0
  0
LINE
  5
114
  8
5
  6
CONTINUOUS
 10
143.3776
 20
1523.209
 30
0.0
 11
206.4466
 21
1523.209
 31
0.0
  0
LINE
  5
115
  8
5
  6
CONTINUOUS
 10
142.3776
 20
1471.709
 30
0.0
 11
172.3776
 21
1471.709
 31
0.0
  0
LINE
  5
116
  8
5
  6
CONTINUOUS
 10
1734.654
 20
1072.409
 30
0.0
 11
1739.167
 21
1072.409
 31
0.0
  0
LINE
  5
117
  8
5
  6
CONTINUOUS
 10
1769.84
 20
1352.573
 30
0.0
 11
1747.762
 21
1330.496
 31
0.0
  0
LINE
  5
118
  8
5
  6
CONTINUOUS
 10
1843.558
 20
1363.909
 30
0.0
 11
1843.075
 21
1350.065
 31
0.0
  0
LINE
  5
119
  8
5
  6
CONTINUOUS
 10
2056.234
 20
1350.065
 30
0.0
 11
2055.75
 21
1363.909
 31
0.0
  0
LINE
  5
11A
  8
5
  6
CONTINUOUS
 10
177.3776
 20
1446.709
 30
0.0
 11
177.3776
 21
1468.709
 31
0.0
  0
LINE
  5
11B
  8
5
  6
CONTINUOUS
 10
489.8776
 20
1468.709
 30
0.0
 11
489.8776
 21
1446.709
 31
0.0
  0
LINE
  5
11C
  8
5
  6
CONTINUOUS
 10
143.3776
 20
1471.709
 30
0.0
 11
143.3776
 21
1523.209
 31
0.0
  0
LINE
  5
11D
  8
5
  6
CONTINUOUS
 10
172.3776
 20
1468.709
 30
0.0
 11
172.3776
 21
1491.709
 31
0.0
  0
LINE
  5
11E
  8
5
  6
CONTINUOUS
 10
141.0944
 20
1019.009
 30
0.0
 11
138.0777
 21
1019.009
 31
0.0
  0
LINE
  5
11F
  8
5
  6
CONTINUOUS
 10
530.8777
 20
1019.009
 30
0.0
 11
528.661
 21
1019.009
 31
0.0
  0
LINE
  5
120
  8
5
  6
CONTINUOUS
 10
494.3776
 20
1468.709
 30
0.0
 11
172.3776
 21
1468.709
 31
0.0
  0
LINE
  5
121
  8
5
  6
CONTINUOUS
 10
1828.773
 20
1341.679
 30
0.0
 11
1829.549
 21
1363.909
 31
0.0
  0
LINE
  5
122
  8
5
  6
CONTINUOUS
 10
2129.469
 20
951.2448
 30
0.0
 11
2151.546
 21
973.3226
 31
0.0
  0
LINE
  5
124
  8
5
  6
CONTINUOUS
 10
1834.954
 20
954.809
 30
0.0
 11
1834.954
 21
958.3401
 31
0.0
  0
LINE
  5
127
  8
5
  6
CONTINUOUS
 10
2064.354
 20
954.809
 30
0.0
 11
2064.354
 21
958.3401
 31
0.0
  0
LINE
  5
128
  8
5
  6
CONTINUOUS
 10
142.1911
 20
1362.273
 30
0.0
 11
155.0634
 21
1352.573
 31
0.0
  0
LINE
  5
129
  8
5
  6
CONTINUOUS
 10
185.7412
 20
1329.456
 30
0.0
 11
155.0634
 21
1352.573
 31
0.0
  0
LINE
  5
12A
  8
5
  6
CONTINUOUS
 10
132.9856
 20
1330.495
 30
0.0
 11
153.1769
 21
1296.892
 31
0.0
  0
LINE
  5
12B
  8
5
  6
CONTINUOUS
 10
132.9856
 20
1330.495
 30
0.0
 11
124.5134
 21
1344.596
 31
0.0
  0
LINE
  5
12C
  8
5
  6
CONTINUOUS
 10
201.9777
 20
1345.692
 30
0.0
 11
201.9777
 21
1366.909
 31
0.0
  0
LINE
  5
12D
  8
5
  6
CONTINUOUS
 10
124.5134
 20
1344.596
 30
0.0
 11
142.1911
 21
1362.273
 31
0.0
  0
LINE
  5
12E
  8
5
  6
CONTINUOUS
 10
138.8777
 20
1284.809
 30
0.0
 11
141.0943
 21
1284.809
 31
0.0
  0
LINE
  5
12F
  8
5
  6
CONTINUOUS
 10
528.661
 20
1284.809
 30
0.0
 11
530.8777
 21
1284.809
 31
0.0
  0
LINE
  5
130
  8
5
  6
CONTINUOUS
 10
467.7777
 20
1366.909
 30
0.0
 11
467.7777
 21
1345.692
 31
0.0
  0
LINE
  5
131
  8
5
  6
CONTINUOUS
 10
119.8777
 20
1038.009
 30
0.0
 11
119.8777
 21
1055.409
 31
0.0
  0
LINE
  5
132
  8
5
  6
CONTINUOUS
 10
119.8777
 20
1072.409
 30
0.0
 11
119.8777
 21
1087.409
 31
0.0
  0
LINE
  5
133
  8
5
  6
CONTINUOUS
 10
119.8777
 20
1102.409
 30
0.0
 11
119.8777
 21
1117.409
 31
0.0
  0
LINE
  5
134
  8
5
  6
CONTINUOUS
 10
119.8777
 20
1231.409
 30
0.0
 11
119.8777
 21
1248.409
 31
0.0
  0
LINE
  5
135
  8
5
  6
CONTINUOUS
 10
119.8777
 20
1201.409
 30
0.0
 11
119.8777
 21
1216.409
 31
0.0
  0
LINE
  5
136
  8
5
  6
CONTINUOUS
 10
119.8777
 20
1169.159
 30
0.0
 11
119.8777
 21
1186.409
 31
0.0
  0
LINE
  5
137
  8
5
  6
CONTINUOUS
 10
119.8777
 20
1134.659
 30
0.0
 11
119.8777
 21
1151.909
 31
0.0
  0
LINE
  5
138
  8
5
  6
CONTINUOUS
 10
119.8777
 20
1055.409
 30
0.0
 11
119.8777
 21
1072.409
 31
0.0
  0
LINE
  5
139
  8
5
  6
CONTINUOUS
 10
119.8777
 20
1087.409
 30
0.0
 11
119.8777
 21
1102.409
 31
0.0
  0
LINE
  5
13A
  8
5
  6
CONTINUOUS
 10
119.8777
 20
1117.409
 30
0.0
 11
119.8777
 21
1134.659
 31
0.0
  0
LINE
  5
13B
  8
5
  6
CONTINUOUS
 10
119.8777
 20
1248.409
 30
0.0
 11
119.8777
 21
1266.609
 31
0.0
  0
LINE
  5
13C
  8
5
  6
CONTINUOUS
 10
119.8777
 20
1216.409
 30
0.0
 11
119.8777
 21
1231.409
 31
0.0
  0
LINE
  5
13D
  8
5
  6
CONTINUOUS
 10
119.8777
 20
1186.409
 30
0.0
 11
119.8777
 21
1201.409
 31
0.0
  0
LINE
  5
13E
  8
5
  6
CONTINUOUS
 10
119.8777
 20
1151.909
 30
0.0
 11
119.8777
 21
1169.159
 31
0.0
  0
LINE
  5
13F
  8
5
  6
CONTINUOUS
 10
549.8777
 20
1151.909
 30
0.0
 11
549.8777
 21
1134.659
 31
0.0
  0
LINE
  5
140
  8
5
  6
CONTINUOUS
 10
549.8777
 20
1186.409
 30
0.0
 11
549.8777
 21
1169.159
 31
0.0
  0
LINE
  5
141
  8
5
  6
CONTINUOUS
 10
549.8777
 20
1216.409
 30
0.0
 11
549.8777
 21
1201.409
 31
0.0
  0
LINE
  5
142
  8
5
  6
CONTINUOUS
 10
549.8777
 20
1248.409
 30
0.0
 11
549.8777
 21
1231.409
 31
0.0
  0
LINE
  5
143
  8
5
  6
CONTINUOUS
 10
549.8777
 20
1117.409
 30
0.0
 11
549.8777
 21
1102.409
 31
0.0
  0
LINE
  5
144
  8
5
  6
CONTINUOUS
 10
549.8777
 20
1087.409
 30
0.0
 11
549.8777
 21
1072.409
 31
0.0
  0
LINE
  5
145
  8
5
  6
CONTINUOUS
 10
549.8777
 20
1055.409
 30
0.0
 11
549.8777
 21
1037.209
 31
0.0
  0
LINE
  5
146
  8
5
  6
CONTINUOUS
 10
549.8777
 20
1134.659
 30
0.0
 11
549.8777
 21
1117.409
 31
0.0
  0
LINE
  5
147
  8
5
  6
CONTINUOUS
 10
549.8777
 20
1169.159
 30
0.0
 11
549.8777
 21
1151.909
 31
0.0
  0
LINE
  5
148
  8
5
  6
CONTINUOUS
 10
549.8777
 20
1201.409
 30
0.0
 11
549.8777
 21
1186.409
 31
0.0
  0
LINE
  5
149
  8
5
  6
CONTINUOUS
 10
549.8777
 20
1231.409
 30
0.0
 11
549.8777
 21
1216.409
 31
0.0
  0
LINE
  5
14A
  8
5
  6
CONTINUOUS
 10
549.8777
 20
1266.609
 30
0.0
 11
549.8777
 21
1248.409
 31
0.0
  0
LINE
  5
14B
  8
5
  6
CONTINUOUS
 10
549.8777
 20
1102.409
 30
0.0
 11
549.8777
 21
1087.409
 31
0.0
  0
LINE
  5
14C
  8
5
  6
CONTINUOUS
 10
549.8777
 20
1072.409
 30
0.0
 11
549.8777
 21
1055.409
 31
0.0
  0
LINE
  5
14D
  8
5
  6
CONTINUOUS
 10
129.1734
 20
1275.513
 30
0.0
 11
119.8777
 21
1266.609
 31
0.0
  0
LINE
  5
14E
  8
5
  6
CONTINUOUS
 10
138.8777
 20
1284.809
 30
0.0
 11
129.1734
 21
1275.513
 31
0.0
  0
LINE
  5
14F
  8
5
  6
CONTINUOUS
 10
129.1734
 20
1028.305
 30
0.0
 11
138.0777
 21
1019.009
 31
0.0
  0
LINE
  5
150
  8
5
  6
CONTINUOUS
 10
120.644
 20
1037.209
 30
0.0
 11
129.1734
 21
1028.305
 31
0.0
  0
LINE
  5
151
  8
5
  6
CONTINUOUS
 10
119.8777
 20
1038.009
 30
0.0
 11
120.644
 21
1037.209
 31
0.0
  0
LINE
  5
152
  8
5
  6
CONTINUOUS
 10
540.582
 20
1275.513
 30
0.0
 11
530.8777
 21
1284.809
 31
0.0
  0
LINE
  5
153
  8
5
  6
CONTINUOUS
 10
549.8777
 20
1266.609
 30
0.0
 11
540.582
 21
1275.513
 31
0.0
  0
LINE
  5
154
  8
5
  6
CONTINUOUS
 10
540.582
 20
1028.305
 30
0.0
 11
549.8777
 21
1037.209
 31
0.0
  0
LINE
  5
155
  8
5
  6
CONTINUOUS
 10
530.8777
 20
1019.009
 30
0.0
 11
540.582
 21
1028.305
 31
0.0
  0
LINE
  5
156
  8
5
  6
CONTINUOUS
 10
201.9777
 20
1366.909
 30
0.0
 11
220.1777
 21
1366.909
 31
0.0
  0
LINE
  5
157
  8
5
  6
CONTINUOUS
 10
431.3777
 20
1366.909
 30
0.0
 11
449.5777
 21
1366.909
 31
0.0
  0
LINE
  5
158
  8
5
  6
CONTINUOUS
 10
399.3777
 20
1366.909
 30
0.0
 11
414.3777
 21
1366.909
 31
0.0
  0
LINE
  5
159
  8
5
  6
CONTINUOUS
 10
369.3777
 20
1366.909
 30
0.0
 11
384.3777
 21
1366.909
 31
0.0
  0
LINE
  5
15A
  8
5
  6
CONTINUOUS
 10
334.8777
 20
1366.909
 30
0.0
 11
352.1277
 21
1366.909
 31
0.0
  0
LINE
  5
15B
  8
5
  6
CONTINUOUS
 10
300.3777
 20
1366.909
 30
0.0
 11
317.6277
 21
1366.909
 31
0.0
  0
LINE
  5
15C
  8
5
  6
CONTINUOUS
 10
270.3777
 20
1366.909
 30
0.0
 11
285.3777
 21
1366.909
 31
0.0
  0
LINE
  5
15D
  8
5
  6
CONTINUOUS
 10
238.3777
 20
1366.909
 30
0.0
 11
255.3777
 21
1366.909
 31
0.0
  0
LINE
  5
15E
  8
5
  6
CONTINUOUS
 10
220.1777
 20
1366.909
 30
0.0
 11
238.3777
 21
1366.909
 31
0.0
  0
LINE
  5
15F
  8
5
  6
CONTINUOUS
 10
449.5777
 20
1366.909
 30
0.0
 11
467.7777
 21
1366.909
 31
0.0
  0
LINE
  5
160
  8
5
  6
CONTINUOUS
 10
414.3777
 20
1366.909
 30
0.0
 11
431.3777
 21
1366.909
 31
0.0
  0
LINE
  5
161
  8
5
  6
CONTINUOUS
 10
384.3777
 20
1366.909
 30
0.0
 11
399.3777
 21
1366.909
 31
0.0
  0
LINE
  5
162
  8
5
  6
CONTINUOUS
 10
352.1277
 20
1366.909
 30
0.0
 11
369.3777
 21
1366.909
 31
0.0
  0
LINE
  5
163
  8
5
  6
CONTINUOUS
 10
317.6277
 20
1366.909
 30
0.0
 11
334.8777
 21
1366.909
 31
0.0
  0
LINE
  5
164
  8
5
  6
CONTINUOUS
 10
285.3777
 20
1366.909
 30
0.0
 11
300.3777
 21
1366.909
 31
0.0
  0
LINE
  5
165
  8
5
  6
CONTINUOUS
 10
255.3777
 20
1366.909
 30
0.0
 11
270.3777
 21
1366.909
 31
0.0
  0
LINE
  5
166
  8
5
  6
CONTINUOUS
 10
527.5643
 20
1362.273
 30
0.0
 11
545.2419
 21
1344.596
 31
0.0
  0
LINE
  5
167
  8
5
  6
CONTINUOUS
 10
545.2419
 20
1344.596
 30
0.0
 11
536.7697
 21
1330.495
 31
0.0
  0
LINE
  5
168
  8
5
  6
CONTINUOUS
 10
536.7697
 20
1330.495
 30
0.0
 11
516.5785
 21
1296.892
 31
0.0
  0
LINE
  5
169
  8
5
  6
CONTINUOUS
 10
484.0141
 20
1329.456
 30
0.0
 11
514.6919
 21
1352.573
 31
0.0
  0
LINE
  5
16A
  8
5
  6
CONTINUOUS
 10
514.6919
 20
1352.573
 30
0.0
 11
527.5643
 21
1362.273
 31
0.0
  0
LINE
  5
16B
  8
5
  6
CONTINUOUS
 10
125.3777
 20
1038.968
 30
0.0
 11
125.3777
 21
1264.85
 31
0.0
  0
LINE
  5
16C
  8
5
  6
CONTINUOUS
 10
125.3777
 20
1038.968
 30
0.0
 11
221.937
 21
942.4089
 31
0.0
  0
LINE
  5
16D
  8
5
  6
CONTINUOUS
 10
221.937
 20
942.4089
 30
0.0
 11
447.8184
 21
942.4089
 31
0.0
  0
LINE
  5
16E
  8
5
  6
CONTINUOUS
 10
447.8184
 20
942.4089
 30
0.0
 11
544.3777
 21
1038.968
 31
0.0
  0
LINE
  5
16F
  8
5
  6
CONTINUOUS
 10
544.3777
 20
1038.968
 30
0.0
 11
544.3777
 21
1264.85
 31
0.0
  0
LINE
  5
170
  8
5
  6
CONTINUOUS
 10
544.3777
 20
1264.85
 30
0.0
 11
447.8184
 21
1361.409
 31
0.0
  0
LINE
  5
171
  8
5
  6
CONTINUOUS
 10
447.8184
 20
1361.409
 30
0.0
 11
221.937
 21
1361.409
 31
0.0
  0
LINE
  5
172
  8
5
  6
CONTINUOUS
 10
221.937
 20
1361.409
 30
0.0
 11
125.3777
 21
1264.85
 31
0.0
  0
LINE
  5
173
  8
5
  6
CONTINUOUS
 10
122.3777
 20
1037.726
 30
0.0
 11
122.3777
 21
1266.092
 31
0.0
  0
LINE
  5
174
  8
5
  6
CONTINUOUS
 10
220.6943
 20
1364.409
 30
0.0
 11
122.3777
 21
1266.092
 31
0.0
  0
LINE
  5
175
  8
5
  6
CONTINUOUS
 10
449.061
 20
1364.409
 30
0.0
 11
220.6943
 21
1364.409
 31
0.0
  0
LINE
  5
176
  8
5
  6
CONTINUOUS
 10
547.3777
 20
1266.092
 30
0.0
 11
449.061
 21
1364.409
 31
0.0
  0
LINE
  5
177
  8
5
  6
CONTINUOUS
 10
547.3777
 20
1037.726
 30
0.0
 11
547.3777
 21
1266.092
 31
0.0
  0
LINE
  5
178
  8
5
  6
CONTINUOUS
 10
449.061
 20
939.409
 30
0.0
 11
547.3777
 21
1037.726
 31
0.0
  0
LINE
  5
179
  8
5
  6
CONTINUOUS
 10
220.6943
 20
939.409
 30
0.0
 11
449.061
 21
939.409
 31
0.0
  0
LINE
  5
17A
  8
5
  6
CONTINUOUS
 10
122.3777
 20
1037.726
 30
0.0
 11
220.6943
 21
939.409
 31
0.0
  0
CIRCLE
  5
17B
  8
5
  6
CONTINUOUS
 10
334.8777
 20
1151.909
 30
0.0
 40
140.0
  0
LINE
  5
17C
  8
5
  6
CONTINUOUS
 10
228.3777
 20
1398.209
 30
0.0
 11
228.3777
 21
1366.909
 31
0.0
  0
LINE
  5
17D
  8
5
  6
CONTINUOUS
 10
441.3777
 20
1366.909
 30
0.0
 11
441.3777
 21
1398.209
 31
0.0
  0
LINE
  5
17E
  8
5
  6
CONTINUOUS
 10
186.8776
 20
1422.209
 30
0.0
 11
482.8776
 21
1422.209
 31
0.0
  0
LINE
  5
180
  8
5
  6
CONTINUOUS
 10
1747.762
 20
973.3226
 30
0.0
 11
1769.84
 21
951.2448
 31
0.0
  0
ARC
  5
181
  8
5
  6
CONTINUOUS
 10
1949.654
 20
1151.909
 30
0.0
 40
148.2129
 50
231.6913
 51
263.6082
  0
ARC
  5
182
  8
5
  6
CONTINUOUS
 10
1949.654
 20
1151.909
 30
0.0
 40
148.213
 50
276.3918
 51
308.3087
  0
ARC
  5
183
  8
5
  6
CONTINUOUS
 10
1949.654
 20
1151.909
 30
0.0
 40
144.0162
 50
221.8046
 51
233.8571
  0
ARC
  5
184
  8
5
  6
CONTINUOUS
 10
1949.654
 20
1151.909
 30
0.0
 40
148.2129
 50
203.6688
 51
220.3697
  0
LINE
  5
185
  8
5
  6
CONTINUOUS
 10
337.5957
 20
1542.709
 30
0.0
 11
337.5957
 21
1546.909
 31
0.0
  0
LINE
  5
186
  8
5
  6
CONTINUOUS
 10
349.4989
 20
1542.709
 30
0.0
 11
349.4989
 21
1546.909
 31
0.0
  0
LINE
  5
187
  8
5
  6
CONTINUOUS
 10
359.9381
 20
1542.709
 30
0.0
 11
359.9381
 21
1542.709
 31
0.0
  0
LINE
  5
188
  8
5
  6
CONTINUOUS
 10
321.7035
 20
1542.709
 30
0.0
 11
321.7035
 21
1546.909
 31
0.0
  0
LINE
  5
189
  8
5
  6
CONTINUOUS
 10
444.8777
 20
1491.709
 30
0.0
 11
221.8776
 21
1491.709
 31
0.0
  0
LINE
  5
18A
  8
5
  6
CONTINUOUS
 10
444.8777
 20
1491.709
 30
0.0
 11
444.8811
 21
1542.705
 31
0.0
  0
LINE
  5
18B
  8
5
  6
CONTINUOUS
 10
221.8776
 20
1542.709
 30
0.0
 11
221.8776
 21
1491.709
 31
0.0
  0
LINE
  5
18C
  8
5
  6
CONTINUOUS
 10
206.4466
 20
1523.209
 30
0.0
 11
175.8777
 21
1491.709
 31
0.0
  0
ARC
  5
18D
  8
5
  6
CONTINUOUS
 10
1949.654
 20
1151.909
 30
0.0
 40
148.2129
 50
156.3312
 51
163.3365
  0
LINE
  5
18E
  8
5
  6
CONTINUOUS
 10
889.5116
 20
1363.909
 30
0.0
 11
889.5116
 21
1398.209
 31
0.0
  0
LINE
  5
18F
  8
5
  6
CONTINUOUS
 10
1132.512
 20
1398.209
 30
0.0
 11
1132.512
 21
1363.909
 31
0.0
  0
LINE
  5
190
  8
5
  6
CONTINUOUS
 10
1135.012
 20
1398.209
 30
0.0
 11
887.0116
 21
1398.209
 31
0.0
  0
LINE
  5
191
  8
5
  6
CONTINUOUS
 10
897.0116
 20
1423.709
 30
0.0
 11
1125.012
 21
1423.709
 31
0.0
  0
LINE
  5
192
  8
5
  6
CONTINUOUS
 10
897.0116
 20
1446.709
 30
0.0
 11
856.0116
 21
1446.709
 31
0.0
  0
LINE
  5
193
  8
5
  6
CONTINUOUS
 10
1166.012
 20
1446.709
 30
0.0
 11
1125.012
 21
1446.709
 31
0.0
  0
LINE
  5
194
  8
5
  6
CONTINUOUS
 10
863.0116
 20
1422.209
 30
0.0
 11
887.0116
 21
1398.209
 31
0.0
  0
LINE
  5
195
  8
5
  6
CONTINUOUS
 10
1159.012
 20
1422.209
 30
0.0
 11
1135.012
 21
1398.209
 31
0.0
  0
ARC
  5
196
  8
5
  6
CONTINUOUS
 10
1949.654
 20
1151.909
 30
0.0
 40
148.2129
 50
16.66346
 51
23.66882
  0
LINE
  5
197
  8
5
  6
CONTINUOUS
 10
1159.012
 20
1422.209
 30
0.0
 11
1159.012
 21
1446.709
 31
0.0
  0
LINE
  5
198
  8
5
  6
CONTINUOUS
 10
863.0116
 20
1422.209
 30
0.0
 11
863.0116
 21
1446.709
 31
0.0
  0
LINE
  5
199
  8
5
  6
CONTINUOUS
 10
901.0116
 20
1542.709
 30
0.0
 11
1121.012
 21
1542.709
 31
0.0
  0
LINE
  5
19A
  8
5
  6
CONTINUOUS
 10
970.006
 20
1546.909
 30
0.0
 11
970.006
 21
1542.709
 31
0.0
  0
LINE
  5
19B
  8
5
  6
CONTINUOUS
 10
972.106
 20
1542.709
 30
0.0
 11
972.106
 21
1546.909
 31
0.0
  0
LINE
  5
19C
  8
5
  6
CONTINUOUS
 10
1007.128
 20
1542.709
 30
0.0
 11
1007.128
 21
1546.909
 31
0.0
  0
LINE
  5
19D
  8
5
  6
CONTINUOUS
 10
1020.906
 20
1542.709
 30
0.0
 11
1020.906
 21
1546.909
 31
0.0
  0
ARC
  5
19E
  8
5
  6
CONTINUOUS
 10
1949.654
 20
1151.909
 30
0.0
 40
148.2129
 50
170.093
 51
176.7123
  0
ARC
  5
19F
  8
5
  6
CONTINUOUS
 10
1949.654
 20
1151.909
 30
0.0
 40
148.2129
 50
3.287713
 51
9.907019
  0
CIRCLE
  5
1A0
  8
5
  6
CONTINUOUS
 10
1949.654
 20
1151.909
 30
0.0
 40
165.0
  0
ARC
  5
1A1
  8
5
  6
CONTINUOUS
 10
1949.654
 20
1151.909
 30
0.0
 40
148.2129
 50
183.2877
 51
189.907
  0
ARC
  5
1A2
  8
5
  6
CONTINUOUS
 10
1949.654
 20
1151.909
 30
0.0
 40
148.2129
 50
350.093
 51
356.7123
  0
ARC
  5
1A3
  8
5
  6
CONTINUOUS
 10
1949.654
 20
1151.909
 30
0.0
 40
148.2129
 50
196.6635
 51
203.6688
  0
ARC
  5
1A4
  8
5
  6
CONTINUOUS
 10
1949.654
 20
1151.909
 30
0.0
 40
148.2129
 50
336.3312
 51
343.3365
  0
ARC
  5
1A5
  8
5
  6
CONTINUOUS
 10
1949.654
 20
1151.909
 30
0.0
 40
148.2129
 50
163.3365
 51
170.093
  0
ARC
  5
1A6
  8
5
  6
CONTINUOUS
 10
1949.654
 20
1151.909
 30
0.0
 40
148.2129
 50
9.907019
 51
16.66346
  0
ARC
  5
1A7
  8
5
  6
CONTINUOUS
 10
1949.654
 20
1151.909
 30
0.0
 40
148.2129
 50
176.7123
 51
183.2877
  0
ARC
  5
1A8
  8
5
  6
CONTINUOUS
 10
1949.654
 20
1151.909
 30
0.0
 40
148.2129
 50
356.7123
 51
3.2877
  0
ARC
  5
1A9
  8
5
  6
CONTINUOUS
 10
1949.654
 20
1151.909
 30
0.0
 40
148.2129
 50
189.907
 51
196.6635
  0
ARC
  5
1AA
  8
5
  6
CONTINUOUS
 10
1949.654
 20
1151.909
 30
0.0
 40
148.2129
 50
93.48134
 51
100.8896
  0
ARC
  5
1AB
  8
5
  6
CONTINUOUS
 10
1949.654
 20
1151.909
 30
0.0
 40
148.2129
 50
108.4883
 51
116.4429
  0
ARC
  5
1AC
  8
5
  6
CONTINUOUS
 10
1949.654
 20
1151.909
 30
0.0
 40
148.2129
 50
139.6303
 51
156.3312
  0
LINE
  5
1AD
  8
5
  6
CONTINUOUS
 10
155.0634
 20
1352.573
 30
0.0
 11
132.9856
 21
1330.495
 31
0.0
  0
LINE
  5
1AE
  8
5
  6
CONTINUOUS
 10
129.1734
 20
1028.305
 30
0.0
 11
130.486
 21
1029.617
 31
0.0
  0
LINE
  5
1AF
  8
5
  6
CONTINUOUS
 10
539.2693
 20
1029.617
 30
0.0
 11
540.582
 21
1028.305
 31
0.0
  0
LINE
  5
1B0
  8
5
  6
CONTINUOUS
 10
129.1734
 20
1275.513
 30
0.0
 11
130.486
 21
1274.201
 31
0.0
  0
LINE
  5
1B1
  8
5
  6
CONTINUOUS
 10
540.582
 20
1275.513
 30
0.0
 11
539.2693
 21
1274.201
 31
0.0
  0
LINE
  5
1B2
  8
5
  6
CONTINUOUS
 10
212.586
 20
1356.301
 30
0.0
 11
201.9777
 21
1366.909
 31
0.0
  0
LINE
  5
1B3
  8
5
  6
CONTINUOUS
 10
457.1693
 20
1356.301
 30
0.0
 11
467.7777
 21
1366.909
 31
0.0
  0
LINE
  5
1B4
  8
5
  6
CONTINUOUS
 10
120.644
 20
1037.209
 30
0.0
 11
122.8944
 21
1037.209
 31
0.0
  0
LINE
  5
1B5
  8
5
  6
CONTINUOUS
 10
122.3777
 20
1055.409
 30
0.0
 11
119.8777
 21
1055.409
 31
0.0
  0
LINE
  5
1B6
  8
5
  6
CONTINUOUS
 10
119.8777
 20
1266.609
 30
0.0
 11
122.8943
 21
1266.609
 31
0.0
  0
LINE
  5
1B7
  8
5
  6
CONTINUOUS
 10
119.8777
 20
1248.409
 30
0.0
 11
122.3777
 21
1248.409
 31
0.0
  0
LINE
  5
1B8
  8
5
  6
CONTINUOUS
 10
122.3777
 20
1151.909
 30
0.0
 11
119.8777
 21
1151.909
 31
0.0
  0
LINE
  5
1B9
  8
5
  6
CONTINUOUS
 10
119.8777
 20
1134.659
 30
0.0
 11
122.3777
 21
1134.659
 31
0.0
  0
LINE
  5
1BA
  8
5
  6
CONTINUOUS
 10
122.3777
 20
1186.409
 30
0.0
 11
119.8777
 21
1186.409
 31
0.0
  0
LINE
  5
1BB
  8
5
  6
CONTINUOUS
 10
119.8777
 20
1169.159
 30
0.0
 11
122.3777
 21
1169.159
 31
0.0
  0
LINE
  5
1BC
  8
5
  6
CONTINUOUS
 10
122.3777
 20
1216.409
 30
0.0
 11
119.8777
 21
1216.409
 31
0.0
  0
LINE
  5
1BD
  8
5
  6
CONTINUOUS
 10
119.8777
 20
1201.409
 30
0.0
 11
122.3777
 21
1201.409
 31
0.0
  0
LINE
  5
1BE
  8
5
  6
CONTINUOUS
 10
119.8777
 20
1231.409
 30
0.0
 11
122.3777
 21
1231.409
 31
0.0
  0
LINE
  5
1BF
  8
5
  6
CONTINUOUS
 10
122.3777
 20
1117.409
 30
0.0
 11
119.8777
 21
1117.409
 31
0.0
  0
LINE
  5
1C0
  8
5
  6
CONTINUOUS
 10
119.8777
 20
1102.409
 30
0.0
 11
122.3777
 21
1102.409
 31
0.0
  0
LINE
  5
1C1
  8
5
  6
CONTINUOUS
 10
122.3777
 20
1087.409
 30
0.0
 11
119.8777
 21
1087.409
 31
0.0
  0
LINE
  5
1C2
  8
5
  6
CONTINUOUS
 10
119.8777
 20
1072.409
 30
0.0
 11
122.3777
 21
1072.409
 31
0.0
  0
LINE
  5
1C3
  8
5
  6
CONTINUOUS
 10
546.861
 20
1037.209
 30
0.0
 11
549.8776
 21
1037.209
 31
0.0
  0
LINE
  5
1C4
  8
5
  6
CONTINUOUS
 10
549.8776
 20
1055.409
 30
0.0
 11
547.3777
 21
1055.409
 31
0.0
  0
LINE
  5
1C5
  8
5
  6
CONTINUOUS
 10
546.861
 20
1266.609
 30
0.0
 11
549.8777
 21
1266.609
 31
0.0
  0
LINE
  5
1C6
  8
5
  6
CONTINUOUS
 10
547.3777
 20
1248.409
 30
0.0
 11
549.8777
 21
1248.409
 31
0.0
  0
LINE
  5
1C7
  8
5
  6
CONTINUOUS
 10
547.3777
 20
1134.659
 30
0.0
 11
549.8776
 21
1134.659
 31
0.0
  0
LINE
  5
1C8
  8
5
  6
CONTINUOUS
 10
549.8777
 20
1151.909
 30
0.0
 11
547.3777
 21
1151.909
 31
0.0
  0
LINE
  5
1C9
  8
5
  6
CONTINUOUS
 10
547.3777
 20
1169.159
 30
0.0
 11
549.8777
 21
1169.159
 31
0.0
  0
LINE
  5
1CA
  8
5
  6
CONTINUOUS
 10
549.8777
 20
1186.409
 30
0.0
 11
547.3777
 21
1186.409
 31
0.0
  0
LINE
  5
1CB
  8
5
  6
CONTINUOUS
 10
547.3777
 20
1201.409
 30
0.0
 11
549.8777
 21
1201.409
 31
0.0
  0
LINE
  5
1CC
  8
5
  6
CONTINUOUS
 10
549.8777
 20
1216.409
 30
0.0
 11
547.3777
 21
1216.409
 31
0.0
  0
LINE
  5
1CD
  8
5
  6
CONTINUOUS
 10
547.3777
 20
1231.409
 30
0.0
 11
549.8777
 21
1231.409
 31
0.0
  0
LINE
  5
1CE
  8
5
  6
CONTINUOUS
 10
547.3777
 20
1102.409
 30
0.0
 11
549.8776
 21
1102.409
 31
0.0
  0
LINE
  5
1CF
  8
5
  6
CONTINUOUS
 10
549.8776
 20
1117.409
 30
0.0
 11
547.3777
 21
1117.409
 31
0.0
  0
LINE
  5
1D0
  8
5
  6
CONTINUOUS
 10
547.3777
 20
1072.409
 30
0.0
 11
549.8776
 21
1072.409
 31
0.0
  0
LINE
  5
1D1
  8
5
  6
CONTINUOUS
 10
549.8776
 20
1087.409
 30
0.0
 11
547.3777
 21
1087.409
 31
0.0
  0
LINE
  5
1D2
  8
5
  6
CONTINUOUS
 10
449.5777
 20
1363.892
 30
0.0
 11
449.5777
 21
1366.909
 31
0.0
  0
LINE
  5
1D3
  8
5
  6
CONTINUOUS
 10
431.3777
 20
1366.909
 30
0.0
 11
431.3777
 21
1364.409
 31
0.0
  0
LINE
  5
1D4
  8
5
  6
CONTINUOUS
 10
220.1777
 20
1363.892
 30
0.0
 11
220.1777
 21
1366.909
 31
0.0
  0
LINE
  5
1D5
  8
5
  6
CONTINUOUS
 10
238.3777
 20
1364.409
 30
0.0
 11
238.3776
 21
1366.909
 31
0.0
  0
LINE
  5
1D6
  8
5
  6
CONTINUOUS
 10
255.3777
 20
1364.409
 30
0.0
 11
255.3776
 21
1366.909
 31
0.0
  0
LINE
  5
1D7
  8
5
  6
CONTINUOUS
 10
285.3777
 20
1364.409
 30
0.0
 11
285.3776
 21
1366.909
 31
0.0
  0
LINE
  5
1D8
  8
5
  6
CONTINUOUS
 10
270.3776
 20
1366.909
 30
0.0
 11
270.3777
 21
1364.409
 31
0.0
  0
LINE
  5
1D9
  8
5
  6
CONTINUOUS
 10
317.6277
 20
1364.409
 30
0.0
 11
317.6276
 21
1366.909
 31
0.0
  0
LINE
  5
1DA
  8
5
  6
CONTINUOUS
 10
300.3776
 20
1366.909
 30
0.0
 11
300.3777
 21
1364.409
 31
0.0
  0
LINE
  5
1DB
  8
5
  6
CONTINUOUS
 10
352.1277
 20
1364.409
 30
0.0
 11
352.1277
 21
1366.909
 31
0.0
  0
LINE
  5
1DC
  8
5
  6
CONTINUOUS
 10
334.8777
 20
1366.909
 30
0.0
 11
334.8777
 21
1364.409
 31
0.0
  0
LINE
  5
1DD
  8
5
  6
CONTINUOUS
 10
384.3777
 20
1364.409
 30
0.0
 11
384.3777
 21
1366.909
 31
0.0
  0
LINE
  5
1DE
  8
5
  6
CONTINUOUS
 10
369.3777
 20
1366.909
 30
0.0
 11
369.3777
 21
1364.409
 31
0.0
  0
LINE
  5
1DF
  8
5
  6
CONTINUOUS
 10
414.3777
 20
1364.409
 30
0.0
 11
414.3777
 21
1366.909
 31
0.0
  0
LINE
  5
1E0
  8
5
  6
CONTINUOUS
 10
399.3777
 20
1366.909
 30
0.0
 11
399.3777
 21
1364.409
 31
0.0
  0
LINE
  5
1E1
  8
5
  6
CONTINUOUS
 10
536.7697
 20
1330.495
 30
0.0
 11
514.6919
 21
1352.573
 31
0.0
  0
CIRCLE
  5
1E2
  8
5
  6
CONTINUOUS
 10
334.8777
 20
1151.909
 30
0.0
 40
200.5
  0
ARC
  5
1E3
  8
5
  6
CONTINUOUS
 10
1949.654
 20
1151.909
 30
0.0
 40
148.2129
 50
23.66882
 51
40.36968
  0
ARC
  5
1E4
  8
5
  6
CONTINUOUS
 10
1949.654
 20
1151.909
 30
0.0
 40
148.2129
 50
319.6303
 51
336.3312
  0
ARC
  5
1E5
  8
5
  6
CONTINUOUS
 10
1949.654
 20
1151.909
 30
0.0
 40
144.0162
 50
317.6056
 51
318.1954
  0
LINE
  5
1E6
  8
5
  6
CONTINUOUS
 10
1320.512
 20
1019.009
 30
0.0
 11
890.5116
 21
1019.009
 31
0.0
  0
ARC
  5
1E7
  8
5
  6
CONTINUOUS
 10
1949.654
 20
1151.909
 30
0.0
 40
144.0162
 50
306.1429
 51
315.9679
  0
LINE
  5
1E8
  8
5
  6
CONTINUOUS
 10
1023.006
 20
1542.709
 30
0.0
 11
1023.006
 21
1546.909
 31
0.0
  0
LINE
  5
1E9
  8
5
  6
CONTINUOUS
 10
1068.652
 20
1542.709
 30
0.0
 11
1068.652
 21
1546.909
 31
0.0
  0
LINE
  5
1EA
  8
5
  6
CONTINUOUS
 10
1052.773
 20
1542.709
 30
0.0
 11
1052.773
 21
1546.909
 31
0.0
  0
LINE
  5
1EB
  8
5
  6
CONTINUOUS
 10
1066.552
 20
1542.709
 30
0.0
 11
1066.552
 21
1546.909
 31
0.0
  0
LINE
  5
1EC
  8
5
  6
CONTINUOUS
 10
946.0088
 20
1546.909
 30
0.0
 11
954.8717
 21
1546.909
 31
0.0
  0
LINE
  5
1ED
  8
5
  6
CONTINUOUS
 10
954.8717
 20
1546.909
 30
0.0
 11
958.5619
 21
1546.909
 31
0.0
  0
LINE
  5
1EE
  8
5
  6
CONTINUOUS
 10
958.5619
 20
1546.909
 30
0.0
 11
970.006
 21
1546.909
 31
0.0
  0
LINE
  5
1EF
  8
5
  6
CONTINUOUS
 10
972.106
 20
1546.909
 30
0.0
 11
983.4994
 21
1546.909
 31
0.0
  0
ARC
  5
1F0
  8
5
  6
CONTINUOUS
 10
1949.654
 20
1151.909
 30
0.0
 40
148.2129
 50
343.3365
 51
350.093
  0
ARC
  5
1F1
  8
5
  6
CONTINUOUS
 10
1949.654
 20
1151.909
 30
0.0
 40
148.2129
 50
40.36968
 51
63.55713
  0
ARC
  5
1F2
  8
5
  6
CONTINUOUS
 10
1949.654
 20
1151.909
 30
0.0
 40
148.2129
 50
71.51168
 51
79.11039
  0
ARC
  5
1F3
  8
5
  6
CONTINUOUS
 10
1949.654
 20
1151.909
 30
0.0
 40
148.2129
 50
86.51866
 51
93.48134
  0
ARC
  5
1F4
  8
5
  6
CONTINUOUS
 10
1949.654
 20
1151.909
 30
0.0
 40
148.2129
 50
100.8896
 51
108.4883
  0
ARC
  5
1F5
  8
5
  6
CONTINUOUS
 10
1949.654
 20
1151.909
 30
0.0
 40
148.2129
 50
116.4429
 51
139.6303
  0
ARC
  5
1F6
  8
5
  6
CONTINUOUS
 10
1949.654
 20
1151.909
 30
0.0
 40
148.2129
 50
63.55713
 51
71.51168
  0
ARC
  5
1F7
  8
5
  6
CONTINUOUS
 10
1949.654
 20
1151.909
 30
0.0
 40
148.2129
 50
79.11039
 51
86.51866
  0
ARC
  5
1F8
  8
5
  6
CONTINUOUS
 10
1949.654
 20
1151.909
 30
0.0
 40
59.71258
 50
244.188
 51
295.812
  0
CIRCLE
  5
1F9
  8
5
  6
CONTINUOUS
 10
1949.654
 20
1151.909
 30
0.0
 40
54.0
  0
ARC
  5
1FA
  8
5
  6
CONTINUOUS
 10
1949.654
 20
1151.909
 30
0.0
 40
69.0
 50
292.1363
 51
247.8637
  0
ARC
  5
1FB
  8
5
  6
CONTINUOUS
 10
1949.654
 20
1151.909
 30
0.0
 40
69.40148
 50
120.9818
 51
142.2383
  0
ARC
  5
1FC
  8
5
  6
CONTINUOUS
 10
1949.654
 20
1151.909
 30
0.0
 40
69.40148
 50
37.76171
 51
59.01815
  0
ARC
  5
1FD
  8
5
  6
CONTINUOUS
 10
1949.654
 20
1151.909
 30
0.0
 40
69.40148
 50
158.443
 51
172.965
  0
ARC
  5
1FE
  8
5
  6
CONTINUOUS
 10
1949.654
 20
1151.909
 30
0.0
 40
69.40148
 50
7.035008
 51
21.55704
  0
LINE
  5
1FF
  8
5
  6
CONTINUOUS
 10
888.1802
 20
1037.209
 30
0.0
 11
885.8487
 21
1055.409
 31
0.0
  0
LINE
  5
200
  8
5
  6
CONTINUOUS
 10
885.8487
 20
1055.409
 30
0.0
 11
884.8059
 21
1063.549
 31
0.0
  0
LINE
  5
201
  8
5
  6
CONTINUOUS
 10
890.5116
 20
1019.009
 30
0.0
 11
889.3208
 21
1028.305
 31
0.0
  0
LINE
  5
202
  8
5
  6
CONTINUOUS
 10
889.3208
 20
1028.305
 30
0.0
 11
888.1802
 21
1037.209
 31
0.0
  0
LINE
  5
203
  8
5
  6
CONTINUOUS
 10
885.8487
 20
1248.409
 30
0.0
 11
884.8059
 21
1240.269
 31
0.0
  0
LINE
  5
204
  8
5
  6
CONTINUOUS
 10
889.3208
 20
1275.513
 30
0.0
 11
888.1802
 21
1266.609
 31
0.0
  0
LINE
  5
205
  8
5
  6
CONTINUOUS
 10
889.3208
 20
1275.513
 30
0.0
 11
890.5116
 21
1284.809
 31
0.0
  0
LINE
  5
206
  8
5
  6
CONTINUOUS
 10
888.1802
 20
1266.609
 30
0.0
 11
885.8487
 21
1248.409
 31
0.0
  0
LINE
  5
207
  8
5
  6
CONTINUOUS
 10
1322.843
 20
1037.209
 30
0.0
 11
1325.175
 21
1055.409
 31
0.0
  0
LINE
  5
208
  8
5
  6
CONTINUOUS
 10
1325.175
 20
1055.409
 30
0.0
 11
1326.217
 21
1063.549
 31
0.0
  0
LINE
  5
209
  8
5
  6
CONTINUOUS
 10
1321.702
 20
1028.305
 30
0.0
 11
1322.843
 21
1037.209
 31
0.0
  0
LINE
  5
20A
  8
5
  6
CONTINUOUS
 10
1321.702
 20
1028.305
 30
0.0
 11
1320.512
 21
1019.009
 31
0.0
  0
LINE
  5
20B
  8
5
  6
CONTINUOUS
 10
890.5116
 20
1284.809
 30
0.0
 11
1320.512
 21
1284.809
 31
0.0
  0
LINE
  5
20C
  8
5
  6
CONTINUOUS
 10
1325.175
 20
1248.409
 30
0.0
 11
1326.217
 21
1240.269
 31
0.0
  0
LINE
  5
20D
  8
5
  6
CONTINUOUS
 10
1320.512
 20
1284.809
 30
0.0
 11
1321.702
 21
1275.513
 31
0.0
  0
LINE
  5
20E
  8
5
  6
CONTINUOUS
 10
1321.702
 20
1275.513
 30
0.0
 11
1322.843
 21
1266.609
 31
0.0
  0
LINE
  5
20F
  8
5
  6
CONTINUOUS
 10
1322.843
 20
1266.609
 30
0.0
 11
1325.175
 21
1248.409
 31
0.0
  0
LINE
  5
210
  8
5
  6
CONTINUOUS
 10
1170.512
 20
1342.909
 30
0.0
 11
1170.512
 21
1290.479
 31
0.0
  0
LINE
  5
211
  8
5
  6
CONTINUOUS
 10
1332.012
 20
1151.909
 30
0.0
 11
1332.012
 21
1343.909
 31
0.0
  0
LINE
  5
212
  8
5
  6
CONTINUOUS
 10
1332.012
 20
959.909
 30
0.0
 11
1332.012
 21
1151.909
 31
0.0
  0
LINE
  5
213
  8
5
  6
CONTINUOUS
 10
1320.512
 20
1366.909
 30
0.0
 11
1195.512
 21
1366.909
 31
0.0
  0
LINE
  5
214
  8
5
  6
CONTINUOUS
 10
1195.512
 20
1366.909
 30
0.0
 11
1170.512
 21
1342.909
 31
0.0
  0
LINE
  5
215
  8
5
  6
CONTINUOUS
 10
1322.843
 20
1348.709
 30
0.0
 11
1320.512
 21
1366.909
 31
0.0
  0
LINE
  5
216
  8
5
  6
CONTINUOUS
 10
1325.175
 20
1330.509
 30
0.0
 11
1322.843
 21
1348.709
 31
0.0
  0
LINE
  5
217
  8
5
  6
CONTINUOUS
 10
1326.217
 20
1322.369
 30
0.0
 11
1325.175
 21
1330.509
 31
0.0
  0
LINE
  5
218
  8
5
  6
CONTINUOUS
 10
983.4994
 20
1546.909
 30
0.0
 11
987.3395
 21
1546.909
 31
0.0
  0
LINE
  5
219
  8
5
  6
CONTINUOUS
 10
1383.012
 20
1037.726
 30
0.0
 11
1383.012
 21
939.409
 31
0.0
  0
LINE
  5
21A
  8
5
  6
CONTINUOUS
 10
1383.012
 20
1364.409
 30
0.0
 11
1383.012
 21
1266.092
 31
0.0
  0
LINE
  5
21B
  8
5
  6
CONTINUOUS
 10
1383.012
 20
1037.726
 30
0.0
 11
1383.012
 21
1266.092
 31
0.0
  0
LINE
  5
21C
  8
5
  6
CONTINUOUS
 10
1383.012
 20
942.409
 30
0.0
 11
1454.512
 21
942.409
 31
0.0
  0
LINE
  5
21D
  8
5
  6
CONTINUOUS
 10
1383.012
 20
1361.409
 30
0.0
 11
1454.512
 21
1361.409
 31
0.0
  0
LINE
  5
21E
  8
5
  6
CONTINUOUS
 10
1333.512
 20
1266.092
 30
0.0
 11
1333.512
 21
1037.726
 31
0.0
  0
LINE
  5
21F
  8
5
  6
CONTINUOUS
 10
1333.512
 20
1266.092
 30
0.0
 11
1333.512
 21
1364.409
 31
0.0
  0
LINE
  5
220
  8
5
  6
CONTINUOUS
 10
1333.512
 20
939.409
 30
0.0
 11
1333.512
 21
1037.726
 31
0.0
  0
LINE
  5
221
  8
5
  6
CONTINUOUS
 10
1383.012
 20
1364.409
 30
0.0
 11
1333.512
 21
1364.409
 31
0.0
  0
LINE
  5
222
  8
5
  6
CONTINUOUS
 10
1383.012
 20
939.409
 30
0.0
 11
1333.512
 21
939.409
 31
0.0
  0
LINE
  5
223
  8
5
  6
CONTINUOUS
 10
1521.512
 20
1291.909
 30
0.0
 11
1521.512
 21
1011.909
 31
0.0
  0
LINE
  5
224
  8
5
  6
CONTINUOUS
 10
1454.512
 20
1038.968
 30
0.0
 11
1454.512
 21
1264.85
 31
0.0
  0
LINE
  5
225
  8
5
  6
CONTINUOUS
 10
1454.512
 20
1038.968
 30
0.0
 11
1454.512
 21
942.409
 31
0.0
  0
LINE
  5
226
  8
5
  6
CONTINUOUS
 10
1454.512
 20
1361.409
 30
0.0
 11
1454.512
 21
1264.85
 31
0.0
  0
LINE
  5
227
  8
5
  6
CONTINUOUS
 10
987.3395
 20
1546.909
 30
0.0
 11
996.8399
 21
1546.909
 31
0.0
  0
LINE
  5
228
  8
5
  6
CONTINUOUS
 10
1007.128
 20
1546.909
 30
0.0
 11
1020.906
 21
1546.909
 31
0.0
  0
LINE
  5
229
  8
5
  6
CONTINUOUS
 10
1023.006
 20
1546.909
 30
0.0
 11
1027.808
 21
1546.909
 31
0.0
  0
LINE
  5
22A
  8
5
  6
CONTINUOUS
 10
1027.808
 20
1546.909
 30
0.0
 11
1042.636
 21
1546.909
 31
0.0
  0
LINE
  5
22B
  8
5
  6
CONTINUOUS
 10
2164.654
 20
1055.409
 30
0.0
 11
2152.91
 21
1055.409
 31
0.0
  0
LINE
  5
22C
  8
5
  6
CONTINUOUS
 10
2160.141
 20
1231.409
 30
0.0
 11
2164.654
 21
1231.409
 31
0.0
  0
LINE
  5
22D
  8
5
  6
CONTINUOUS
 10
2160.141
 20
1072.409
 30
0.0
 11
2164.654
 21
1072.409
 31
0.0
  0
ARC
  5
22E
  8
5
  6
CONTINUOUS
 10
1949.654
 20
1151.909
 30
0.0
 40
69.40148
 50
187.035
 51
201.557
  0
ARC
  5
22F
  8
5
  6
CONTINUOUS
 10
1949.654
 20
1151.909
 30
0.0
 40
69.40148
 50
338.443
 51
352.965
  0
ARC
  5
230
  8
5
  6
CONTINUOUS
 10
1949.654
 20
1151.909
 30
0.0
 40
69.40148
 50
217.7617
 51
239.0182
  0
ARC
  5
231
  8
5
  6
CONTINUOUS
 10
1949.654
 20
1151.909
 30
0.0
 40
69.40148
 50
300.9818
 51
322.2383
  0
ARC
  5
232
  8
5
  6
CONTINUOUS
 10
1949.654
 20
1151.909
 30
0.0
 40
69.40148
 50
239.0182
 51
247.9984
  0
ARC
  5
233
  8
5
  6
CONTINUOUS
 10
1949.654
 20
1151.909
 30
0.0
 40
69.40148
 50
292.0016
 51
300.9818
  0
ARC
  5
234
  8
5
  6
CONTINUOUS
 10
1949.654
 20
1151.909
 30
0.0
 40
69.40148
 50
142.2383
 51
158.443
  0
ARC
  5
235
  8
5
  6
CONTINUOUS
 10
1949.654
 20
1151.909
 30
0.0
 40
69.40148
 50
21.55704
 51
37.76171
  0
ARC
  5
236
  8
5
  6
CONTINUOUS
 10
1949.654
 20
1151.909
 30
0.0
 40
69.40148
 50
172.965
 51
187.035
  0
ARC
  5
237
  8
5
  6
CONTINUOUS
 10
1949.654
 20
1151.909
 30
0.0
 40
69.40148
 50
352.965
 51
7.035
  0
ARC
  5
238
  8
5
  6
CONTINUOUS
 10
1949.654
 20
1151.909
 30
0.0
 40
69.40148
 50
201.557
 51
217.7617
  0
ARC
  5
239
  8
5
  6
CONTINUOUS
 10
1949.654
 20
1151.909
 30
0.0
 40
69.40148
 50
322.2383
 51
338.443
  0
ARC
  5
23A
  8
5
  6
CONTINUOUS
 10
1949.654
 20
1151.909
 30
0.0
 40
69.40148
 50
59.01815
 51
120.9818
  0
LINE
  5
23B
  8
5
  6
CONTINUOUS
 10
1807.665
 20
1194.409
 30
0.0
 11
1894.788
 21
1194.409
 31
0.0
  0
LINE
  5
23C
  8
5
  6
CONTINUOUS
 10
1913.929
 20
1211.409
 30
0.0
 11
1813.909
 21
1211.409
 31
0.0
  0
LINE
  5
23D
  8
5
  6
CONTINUOUS
 10
1068.652
 20
1546.909
 30
0.0
 11
1073.454
 21
1546.909
 31
0.0
  0
LINE
  5
23E
  8
5
  6
CONTINUOUS
 10
2085.4
 20
1211.409
 30
0.0
 11
1985.38
 21
1211.409
 31
0.0
  0
LINE
  5
23F
  8
5
  6
CONTINUOUS
 10
2004.521
 20
1194.409
 30
0.0
 11
2091.643
 21
1194.409
 31
0.0
  0
LINE
  5
240
  8
5
  6
CONTINUOUS
 10
1801.685
 20
1160.409
 30
0.0
 11
1880.775
 21
1160.409
 31
0.0
  0
LINE
  5
241
  8
5
  6
CONTINUOUS
 10
1073.454
 20
1546.909
 30
0.0
 11
1088.282
 21
1546.909
 31
0.0
  0
LINE
  5
242
  8
5
  6
CONTINUOUS
 10
889.0483
 20
1310.685
 30
0.0
 11
890.9069
 21
1363.909
 31
0.0
  0
LINE
  5
243
  8
5
  6
CONTINUOUS
 10
1131.116
 20
1363.909
 30
0.0
 11
1132.975
 21
1310.685
 31
0.0
  0
LINE
  5
244
  8
5
  6
CONTINUOUS
 10
1885.107
 20
1177.409
 30
0.0
 11
1803.651
 21
1177.409
 31
0.0
  0
LINE
  5
245
  8
5
  6
CONTINUOUS
 10
2095.657
 20
1177.409
 30
0.0
 11
2014.201
 21
1177.409
 31
0.0
  0
LINE
  5
246
  8
5
  6
CONTINUOUS
 10
1052.773
 20
1546.909
 30
0.0
 11
1066.552
 21
1546.909
 31
0.0
  0
LINE
  5
247
  8
5
  6
CONTINUOUS
 10
2018.533
 20
1160.409
 30
0.0
 11
2097.623
 21
1160.409
 31
0.0
  0
LINE
  5
248
  8
5
  6
CONTINUOUS
 10
1803.651
 20
1126.409
 30
0.0
 11
1885.107
 21
1126.409
 31
0.0
  0
LINE
  5
249
  8
5
  6
CONTINUOUS
 10
1880.775
 20
1143.409
 30
0.0
 11
1801.685
 21
1143.409
 31
0.0
  0
LINE
  5
24A
  8
5
  6
CONTINUOUS
 10
2097.623
 20
1143.409
 30
0.0
 11
2018.533
 21
1143.409
 31
0.0
  0
LINE
  5
24B
  8
5
  6
CONTINUOUS
 10
2014.201
 20
1126.409
 30
0.0
 11
2095.657
 21
1126.409
 31
0.0
  0
LINE
  5
24C
  8
5
  6
CONTINUOUS
 10
1813.909
 20
1092.409
 30
0.0
 11
1913.929
 21
1092.409
 31
0.0
  0
LINE
  5
24D
  8
5
  6
CONTINUOUS
 10
1894.788
 20
1109.409
 30
0.0
 11
1807.665
 21
1109.409
 31
0.0
  0
LINE
  5
24E
  8
5
  6
CONTINUOUS
 10
2091.643
 20
1109.409
 30
0.0
 11
2004.521
 21
1109.409
 31
0.0
  0
LINE
  5
24F
  8
5
  6
CONTINUOUS
 10
1985.38
 20
1092.409
 30
0.0
 11
2085.4
 21
1092.409
 31
0.0
  0
LINE
  5
250
  8
5
  6
CONTINUOUS
 10
2015.654
 20
1284.616
 30
0.0
 11
2015.654
 21
1247.909
 31
0.0
  0
LINE
  5
251
  8
5
  6
CONTINUOUS
 10
2015.654
 20
1247.909
 30
0.0
 11
2062.575
 21
1247.909
 31
0.0
  0
LINE
  5
252
  8
5
  6
CONTINUOUS
 10
1977.654
 20
1297.453
 30
0.0
 11
1977.654
 21
1247.909
 31
0.0
  0
LINE
  5
253
  8
5
  6
CONTINUOUS
 10
1977.654
 20
1247.909
 30
0.0
 11
1996.654
 21
1247.909
 31
0.0
  0
LINE
  5
254
  8
5
  6
CONTINUOUS
 10
1996.654
 20
1247.909
 30
0.0
 11
1996.654
 21
1292.472
 31
0.0
  0
LINE
  5
255
  8
5
  6
CONTINUOUS
 10
1940.654
 20
1299.848
 30
0.0
 11
1940.654
 21
1247.909
 31
0.0
  0
LINE
  5
256
  8
5
  6
CONTINUOUS
 10
1940.654
 20
1247.909
 30
0.0
 11
1958.654
 21
1247.909
 31
0.0
  0
LINE
  5
257
  8
5
  6
CONTINUOUS
 10
1958.654
 20
1247.909
 30
0.0
 11
1958.654
 21
1299.848
 31
0.0
  0
LINE
  5
258
  8
5
  6
CONTINUOUS
 10
1902.654
 20
1292.472
 30
0.0
 11
1902.654
 21
1247.909
 31
0.0
  0
LINE
  5
259
  8
5
  6
CONTINUOUS
 10
1902.654
 20
1247.909
 30
0.0
 11
1921.654
 21
1247.909
 31
0.0
  0
LINE
  5
25A
  8
5
  6
CONTINUOUS
 10
1170.512
 20
1468.709
 30
0.0
 11
1170.512
 21
1491.709
 31
0.0
  0
LINE
  5
25B
  8
5
  6
CONTINUOUS
 10
1921.654
 20
1247.909
 30
0.0
 11
1921.654
 21
1297.453
 31
0.0
  0
LINE
  5
25C
  8
5
  6
CONTINUOUS
 10
851.5116
 20
1491.709
 30
0.0
 11
851.5116
 21
1468.709
 31
0.0
  0
LINE
  5
25D
  8
5
  6
CONTINUOUS
 10
1121.012
 20
1542.709
 30
0.0
 11
1170.512
 21
1491.709
 31
0.0
  0
LINE
  5
25E
  8
5
  6
CONTINUOUS
 10
851.5116
 20
1491.709
 30
0.0
 11
901.0116
 21
1542.709
 31
0.0
  0
LINE
  5
25F
  8
5
  6
CONTINUOUS
 10
1170.512
 20
1491.709
 30
0.0
 11
1124.512
 21
1491.709
 31
0.0
  0
LINE
  5
260
  8
5
  6
CONTINUOUS
 10
897.5116
 20
1491.709
 30
0.0
 11
851.5116
 21
1491.709
 31
0.0
  0
LINE
  5
261
  8
5
  6
CONTINUOUS
 10
897.5116
 20
1523.209
 30
0.0
 11
1124.512
 21
1523.209
 31
0.0
  0
LINE
  5
263
  8
5
  6
CONTINUOUS
 10
897.0116
 20
1471.709
 30
0.0
 11
897.0116
 21
1423.709
 31
0.0
  0
LINE
  5
264
  8
5
  6
CONTINUOUS
 10
1125.012
 20
1423.709
 30
0.0
 11
1125.012
 21
1471.709
 31
0.0
  0
LINE
  5
265
  8
5
  6
CONTINUOUS
 10
1601.512
 20
1329.884
 30
0.0
 11
1618.332
 21
1339.596
 31
0.0
  0
LINE
  5
266
  8
5
  6
CONTINUOUS
 10
1601.512
 20
1314.884
 30
0.0
 11
1618.332
 21
1324.596
 31
0.0
  0
LINE
  5
267
  8
5
  6
CONTINUOUS
 10
1601.512
 20
1299.884
 30
0.0
 11
1618.332
 21
1309.596
 31
0.0
  0
LINE
  5
268
  8
5
  6
CONTINUOUS
 10
1601.512
 20
1284.884
 30
0.0
 11
1618.332
 21
1294.596
 31
0.0
  0
LINE
  5
269
  8
5
  6
CONTINUOUS
 10
1601.512
 20
1269.884
 30
0.0
 11
1618.332
 21
1279.596
 31
0.0
  0
LINE
  5
26A
  8
5
  6
CONTINUOUS
 10
1166.012
 20
1446.709
 30
0.0
 11
1166.012
 21
1468.709
 31
0.0
  0
LINE
  5
26B
  8
5
  6
CONTINUOUS
 10
856.0116
 20
1446.709
 30
0.0
 11
856.0116
 21
1468.709
 31
0.0
  0
LINE
  5
26C
  8
5
  6
CONTINUOUS
 10
897.5116
 20
1523.209
 30
0.0
 11
897.5116
 21
1471.709
 31
0.0
  0
LINE
  5
26D
  8
5
  6
CONTINUOUS
 10
1203.828
 20
1317.221
 30
0.0
 11
1207.896
 21
1352.573
 31
0.0
  0
LINE
  5
26E
  8
5
  6
CONTINUOUS
 10
1207.896
 20
1352.573
 30
0.0
 11
1225.012
 21
1362.273
 31
0.0
  0
LINE
  5
26F
  8
5
  6
CONTINUOUS
 10
1225.012
 20
1362.273
 30
0.0
 11
1284.012
 21
1362.273
 31
0.0
  0
LINE
  5
270
  8
5
  6
CONTINUOUS
 10
1284.012
 20
1362.273
 30
0.0
 11
1301.128
 21
1352.573
 31
0.0
  0
LINE
  5
271
  8
5
  6
CONTINUOUS
 10
1305.196
 20
1317.221
 30
0.0
 11
1301.128
 21
1352.573
 31
0.0
  0
LINE
  5
272
  8
5
  6
CONTINUOUS
 10
1301.128
 20
1330.496
 30
0.0
 11
1304.744
 21
1284.809
 31
0.0
  0
LINE
  5
273
  8
5
  6
CONTINUOUS
 10
1301.128
 20
1330.496
 30
0.0
 11
1284.012
 21
1344.596
 31
0.0
  0
LINE
  5
274
  8
5
  6
CONTINUOUS
 10
1284.012
 20
1344.596
 30
0.0
 11
1225.012
 21
1344.596
 31
0.0
  0
LINE
  5
275
  8
5
  6
CONTINUOUS
 10
1225.012
 20
1344.596
 30
0.0
 11
1207.896
 21
1330.496
 31
0.0
  0
LINE
  5
276
  8
5
  6
CONTINUOUS
 10
1207.896
 20
1330.496
 30
0.0
 11
1204.279
 21
1284.809
 31
0.0
  0
LINE
  5
277
  8
5
  6
CONTINUOUS
 10
1236.512
 20
1284.809
 30
0.0
 11
1236.512
 21
1311.026
 31
0.0
  0
LINE
  5
278
  8
5
  6
CONTINUOUS
 10
1236.512
 20
1311.026
 30
0.0
 11
1244.512
 21
1318.093
 31
0.0
  0
LINE
  5
279
  8
5
  6
CONTINUOUS
 10
1244.512
 20
1318.093
 30
0.0
 11
1264.512
 21
1318.093
 31
0.0
  0
LINE
  5
27A
  8
5
  6
CONTINUOUS
 10
1264.512
 20
1318.093
 30
0.0
 11
1272.512
 21
1311.026
 31
0.0
  0
LINE
  5
27B
  8
5
  6
CONTINUOUS
 10
1272.512
 20
1311.026
 30
0.0
 11
1272.512
 21
1284.809
 31
0.0
  0
LINE
  5
27C
  8
5
  6
CONTINUOUS
 10
1305.196
 20
1317.221
 30
0.0
 11
1306.518
 21
1290.479
 31
0.0
  0
LINE
  5
27D
  8
5
  6
CONTINUOUS
 10
1301.128
 20
1352.573
 30
0.0
 11
1301.128
 21
1330.496
 31
0.0
  0
LINE
  5
27E
  8
5
  6
CONTINUOUS
 10
1207.896
 20
1330.496
 30
0.0
 11
1207.896
 21
1352.573
 31
0.0
  0
LINE
  5
27F
  8
5
  6
CONTINUOUS
 10
1202.505
 20
1290.479
 30
0.0
 11
1203.828
 21
1317.221
 31
0.0
  0
LINE
  5
280
  8
5
  6
CONTINUOUS
 10
1236.512
 20
1290.479
 30
0.0
 11
1272.512
 21
1290.479
 31
0.0
  0
LINE
  5
281
  8
5
  6
CONTINUOUS
 10
1306.518
 20
1290.479
 30
0.0
 11
1320.512
 21
1290.479
 31
0.0
  0
LINE
  5
282
  8
5
  6
CONTINUOUS
 10
1320.512
 20
1290.479
 30
0.0
 11
1320.512
 21
1366.909
 31
0.0
  0
LINE
  5
283
  8
5
  6
CONTINUOUS
 10
1170.512
 20
1290.479
 30
0.0
 11
1202.505
 21
1290.479
 31
0.0
  0
LINE
  5
284
  8
5
  6
CONTINUOUS
 10
1119.344
 20
1299.885
 30
0.0
 11
902.6796
 21
1299.885
 31
0.0
  0
LINE
  5
285
  8
5
  6
CONTINUOUS
 10
1225.012
 20
1362.273
 30
0.0
 11
1225.012
 21
1344.596
 31
0.0
  0
LINE
  5
286
  8
5
  6
CONTINUOUS
 10
1284.012
 20
1344.596
 30
0.0
 11
1284.012
 21
1362.273
 31
0.0
  0
LINE
  5
287
  8
5
  6
CONTINUOUS
 10
1325.175
 20
1330.509
 30
0.0
 11
1325.175
 21
1317.896
 31
0.0
  0
LINE
  5
288
  8
5
  6
CONTINUOUS
 10
1322.843
 20
1305.883
 30
0.0
 11
1322.843
 21
1348.709
 31
0.0
  0
LINE
  5
289
  8
5
  6
CONTINUOUS
 10
1320.512
 20
1055.409
 30
0.0
 11
890.5117
 21
1055.409
 31
0.0
  0
LINE
  5
28A
  8
5
  6
CONTINUOUS
 10
890.5117
 20
1055.409
 30
0.0
 11
890.5117
 21
1038.009
 31
0.0
  0
LINE
  5
28B
  8
5
  6
CONTINUOUS
 10
890.5117
 20
1038.009
 30
0.0
 11
1320.512
 21
1038.009
 31
0.0
  0
LINE
  5
28C
  8
5
  6
CONTINUOUS
 10
1320.512
 20
1038.009
 30
0.0
 11
1320.512
 21
1055.409
 31
0.0
  0
LINE
  5
28D
  8
5
  6
CONTINUOUS
 10
1320.512
 20
1087.409
 30
0.0
 11
890.5117
 21
1087.409
 31
0.0
  0
LINE
  5
28E
  8
5
  6
CONTINUOUS
 10
890.5117
 20
1087.409
 30
0.0
 11
890.5117
 21
1072.409
 31
0.0
  0
LINE
  5
28F
  8
5
  6
CONTINUOUS
 10
890.5117
 20
1072.409
 30
0.0
 11
1320.512
 21
1072.409
 31
0.0
  0
LINE
  5
290
  8
5
  6
CONTINUOUS
 10
1320.512
 20
1072.409
 30
0.0
 11
1320.512
 21
1087.409
 31
0.0
  0
LINE
  5
291
  8
5
  6
CONTINUOUS
 10
1320.512
 20
1117.409
 30
0.0
 11
890.5117
 21
1117.409
 31
0.0
  0
LINE
  5
292
  8
5
  6
CONTINUOUS
 10
890.5117
 20
1117.409
 30
0.0
 11
890.5117
 21
1102.409
 31
0.0
  0
LINE
  5
293
  8
5
  6
CONTINUOUS
 10
890.5117
 20
1102.409
 30
0.0
 11
1320.512
 21
1102.409
 31
0.0
  0
LINE
  5
294
  8
5
  6
CONTINUOUS
 10
1320.512
 20
1102.409
 30
0.0
 11
1320.512
 21
1117.409
 31
0.0
  0
LINE
  5
295
  8
5
  6
CONTINUOUS
 10
1320.512
 20
1248.409
 30
0.0
 11
890.5117
 21
1248.409
 31
0.0
  0
LINE
  5
296
  8
5
  6
CONTINUOUS
 10
890.5117
 20
1248.409
 30
0.0
 11
890.5117
 21
1231.409
 31
0.0
  0
LINE
  5
297
  8
5
  6
CONTINUOUS
 10
890.5117
 20
1231.409
 30
0.0
 11
1320.512
 21
1231.409
 31
0.0
  0
LINE
  5
298
  8
5
  6
CONTINUOUS
 10
1320.512
 20
1231.409
 30
0.0
 11
1320.512
 21
1248.409
 31
0.0
  0
LINE
  5
299
  8
5
  6
CONTINUOUS
 10
1320.512
 20
1216.409
 30
0.0
 11
890.5117
 21
1216.409
 31
0.0
  0
LINE
  5
29A
  8
5
  6
CONTINUOUS
 10
890.5117
 20
1216.409
 30
0.0
 11
890.5117
 21
1201.409
 31
0.0
  0
LINE
  5
29B
  8
5
  6
CONTINUOUS
 10
890.5117
 20
1201.409
 30
0.0
 11
1320.512
 21
1201.409
 31
0.0
  0
LINE
  5
29C
  8
5
  6
CONTINUOUS
 10
1320.512
 20
1201.409
 30
0.0
 11
1320.512
 21
1216.409
 31
0.0
  0
LINE
  5
29D
  8
5
  6
CONTINUOUS
 10
1320.512
 20
1186.409
 30
0.0
 11
890.5117
 21
1186.409
 31
0.0
  0
LINE
  5
29E
  8
5
  6
CONTINUOUS
 10
890.5117
 20
1186.409
 30
0.0
 11
890.5117
 21
1169.159
 31
0.0
  0
LINE
  5
29F
  8
5
  6
CONTINUOUS
 10
890.5117
 20
1169.159
 30
0.0
 11
1320.512
 21
1169.159
 31
0.0
  0
LINE
  5
2A0
  8
5
  6
CONTINUOUS
 10
1320.512
 20
1169.159
 30
0.0
 11
1320.512
 21
1186.409
 31
0.0
  0
LINE
  5
2A1
  8
5
  6
CONTINUOUS
 10
1320.512
 20
1151.909
 30
0.0
 11
890.5117
 21
1151.909
 31
0.0
  0
LINE
  5
2A2
  8
5
  6
CONTINUOUS
 10
890.5117
 20
1151.909
 30
0.0
 11
890.5117
 21
1134.659
 31
0.0
  0
LINE
  5
2A3
  8
5
  6
CONTINUOUS
 10
890.5117
 20
1134.659
 30
0.0
 11
1320.512
 21
1134.659
 31
0.0
  0
LINE
  5
2A4
  8
5
  6
CONTINUOUS
 10
1320.512
 20
1134.659
 30
0.0
 11
1320.512
 21
1151.909
 31
0.0
  0
LINE
  5
2A5
  8
5
  6
CONTINUOUS
 10
1320.512
 20
1055.409
 30
0.0
 11
1320.512
 21
1072.409
 31
0.0
  0
LINE
  5
2A6
  8
5
  6
CONTINUOUS
 10
890.5117
 20
1072.409
 30
0.0
 11
890.5117
 21
1055.409
 31
0.0
  0
LINE
  5
2A7
  8
5
  6
CONTINUOUS
 10
1320.512
 20
1087.409
 30
0.0
 11
1320.512
 21
1102.409
 31
0.0
  0
LINE
  5
2A8
  8
5
  6
CONTINUOUS
 10
890.5117
 20
1102.409
 30
0.0
 11
890.5117
 21
1087.409
 31
0.0
  0
LINE
  5
2A9
  8
5
  6
CONTINUOUS
 10
1320.512
 20
1117.409
 30
0.0
 11
1320.512
 21
1134.659
 31
0.0
  0
LINE
  5
2AA
  8
5
  6
CONTINUOUS
 10
890.5117
 20
1134.659
 30
0.0
 11
890.5117
 21
1117.409
 31
0.0
  0
LINE
  5
2AB
  8
5
  6
CONTINUOUS
 10
1320.512
 20
1248.409
 30
0.0
 11
1320.512
 21
1266.609
 31
0.0
  0
LINE
  5
2AC
  8
5
  6
CONTINUOUS
 10
1320.512
 20
1266.609
 30
0.0
 11
890.5117
 21
1266.609
 31
0.0
  0
LINE
  5
2AD
  8
5
  6
CONTINUOUS
 10
890.5117
 20
1266.609
 30
0.0
 11
890.5117
 21
1248.409
 31
0.0
  0
LINE
  5
2AE
  8
5
  6
CONTINUOUS
 10
890.5117
 20
1231.409
 30
0.0
 11
890.5117
 21
1216.409
 31
0.0
  0
LINE
  5
2AF
  8
5
  6
CONTINUOUS
 10
1320.512
 20
1216.409
 30
0.0
 11
1320.512
 21
1231.409
 31
0.0
  0
LINE
  5
2B0
  8
5
  6
CONTINUOUS
 10
890.5117
 20
1201.409
 30
0.0
 11
890.5117
 21
1186.409
 31
0.0
  0
LINE
  5
2B1
  8
5
  6
CONTINUOUS
 10
1320.512
 20
1186.409
 30
0.0
 11
1320.512
 21
1201.409
 31
0.0
  0
LINE
  5
2B2
  8
5
  6
CONTINUOUS
 10
890.5117
 20
1169.159
 30
0.0
 11
890.5117
 21
1151.909
 31
0.0
  0
LINE
  5
2B3
  8
5
  6
CONTINUOUS
 10
1320.512
 20
1151.909
 30
0.0
 11
1320.512
 21
1169.159
 31
0.0
  0
LINE
  5
2B5
  8
5
  6
CONTINUOUS
 10
890.4135
 20
1037.209
 30
0.0
 11
890.5117
 21
1038.009
 31
0.0
  0
LINE
  5
2B6
  8
5
  6
CONTINUOUS
 10
890.5117
 20
1055.409
 30
0.0
 11
885.8488
 21
1055.409
 31
0.0
  0
LINE
  5
2B7
  8
5
  6
CONTINUOUS
 10
888.1802
 20
1266.609
 30
0.0
 11
890.5117
 21
1266.609
 31
0.0
  0
LINE
  5
2B8
  8
5
  6
CONTINUOUS
 10
890.5117
 20
1266.609
 30
0.0
 11
889.3208
 21
1275.513
 31
0.0
  0
LINE
  5
2B9
  8
5
  6
CONTINUOUS
 10
885.8487
 20
1248.409
 30
0.0
 11
890.5117
 21
1248.409
 31
0.0
  0
LINE
  5
2BB
  8
5
  6
CONTINUOUS
 10
887.4658
 20
1134.659
 30
0.0
 11
890.5117
 21
1134.659
 31
0.0
  0
LINE
  5
2BC
  8
5
  6
CONTINUOUS
 10
890.5117
 20
1151.909
 30
0.0
 11
887.5653
 21
1151.909
 31
0.0
  0
LINE
  5
2BD
  8
5
  6
CONTINUOUS
 10
887.4658
 20
1169.159
 30
0.0
 11
890.5117
 21
1169.159
 31
0.0
  0
LINE
  5
2BE
  8
5
  6
CONTINUOUS
 10
890.5117
 20
1186.409
 30
0.0
 11
887.1648
 21
1186.409
 31
0.0
  0
LINE
  5
2BF
  8
5
  6
CONTINUOUS
 10
886.7338
 20
1201.409
 30
0.0
 11
890.5117
 21
1201.409
 31
0.0
  0
LINE
  5
2C0
  8
5
  6
CONTINUOUS
 10
890.5117
 20
1216.409
 30
0.0
 11
886.1359
 21
1216.409
 31
0.0
  0
LINE
  5
2C1
  8
5
  6
CONTINUOUS
 10
885.3578
 20
1231.409
 30
0.0
 11
890.5117
 21
1231.409
 31
0.0
  0
LINE
  5
2C2
  8
5
  6
CONTINUOUS
 10
886.7338
 20
1102.409
 30
0.0
 11
890.5117
 21
1102.409
 31
0.0
  0
LINE
  5
2C3
  8
5
  6
CONTINUOUS
 10
890.5117
 20
1117.409
 30
0.0
 11
887.1648
 21
1117.409
 31
0.0
  0
LINE
  5
2C4
  8
5
  6
CONTINUOUS
 10
885.3578
 20
1072.409
 30
0.0
 11
890.5117
 21
1072.409
 31
0.0
  0
LINE
  5
2C5
  8
5
  6
CONTINUOUS
 10
890.5117
 20
1087.409
 30
0.0
 11
886.1359
 21
1087.409
 31
0.0
  0
LINE
  5
2C7
  8
5
  6
CONTINUOUS
 10
1325.175
 20
1055.409
 30
0.0
 11
1320.512
 21
1055.409
 31
0.0
  0
LINE
  5
2C9
  8
5
  6
CONTINUOUS
 10
1320.512
 20
1266.609
 30
0.0
 11
1322.843
 21
1266.609
 31
0.0
  0
LINE
  5
2CB
  8
5
  6
CONTINUOUS
 10
1320.512
 20
1248.409
 30
0.0
 11
1325.175
 21
1248.409
 31
0.0
  0
LINE
  5
2CD
  8
5
  6
CONTINUOUS
 10
1323.458
 20
1151.909
 30
0.0
 11
1320.512
 21
1151.909
 31
0.0
  0
LINE
  5
2CE
  8
5
  6
CONTINUOUS
 10
1320.512
 20
1134.659
 30
0.0
 11
1323.557
 21
1134.659
 31
0.0
  0
LINE
  5
2CF
  8
5
  6
CONTINUOUS
 10
1323.858
 20
1186.409
 30
0.0
 11
1320.512
 21
1186.409
 31
0.0
  0
LINE
  5
2D0
  8
5
  6
CONTINUOUS
 10
1320.512
 20
1169.159
 30
0.0
 11
1323.557
 21
1169.159
 31
0.0
  0
LINE
  5
2D1
  8
5
  6
CONTINUOUS
 10
1324.887
 20
1216.409
 30
0.0
 11
1320.512
 21
1216.409
 31
0.0
  0
LINE
  5
2D2
  8
5
  6
CONTINUOUS
 10
1320.512
 20
1201.409
 30
0.0
 11
1324.289
 21
1201.409
 31
0.0
  0
LINE
  5
2D3
  8
5
  6
CONTINUOUS
 10
1320.512
 20
1231.409
 30
0.0
 11
1325.666
 21
1231.409
 31
0.0
  0
LINE
  5
2D4
  8
5
  6
CONTINUOUS
 10
1323.858
 20
1117.409
 30
0.0
 11
1320.512
 21
1117.409
 31
0.0
  0
LINE
  5
2D5
  8
5
  6
CONTINUOUS
 10
1320.512
 20
1102.409
 30
0.0
 11
1324.289
 21
1102.409
 31
0.0
  0
LINE
  5
2D6
  8
5
  6
CONTINUOUS
 10
1324.887
 20
1087.409
 30
0.0
 11
1320.512
 21
1087.409
 31
0.0
  0
LINE
  5
2D7
  8
5
  6
CONTINUOUS
 10
1320.512
 20
1072.409
 30
0.0
 11
1325.666
 21
1072.409
 31
0.0
  0
LINE
  5
2D8
  8
5
  6
CONTINUOUS
 10
1454.512
 20
1264.85
 30
0.0
 11
1383.012
 21
1264.85
 31
0.0
  0
LINE
  5
2D9
  8
5
  6
CONTINUOUS
 10
1383.012
 20
1038.968
 30
0.0
 11
1454.512
 21
1038.968
 31
0.0
  0
LINE
  5
2DA
  8
5
  6
CONTINUOUS
 10
1333.512
 20
1037.726
 30
0.0
 11
1383.012
 21
1037.726
 31
0.0
  0
LINE
  5
2DB
  8
5
  6
CONTINUOUS
 10
1383.012
 20
1266.092
 30
0.0
 11
1333.512
 21
1266.092
 31
0.0
  0
LINE
  5
2DC
  8
5
  6
CONTINUOUS
 10
1521.512
 20
1011.909
 30
0.0
 11
1512.512
 21
1011.909
 31
0.0
  0
LINE
  5
2DD
  8
5
  6
CONTINUOUS
 10
1512.512
 20
1291.909
 30
0.0
 11
1512.512
 21
1011.909
 31
0.0
  0
LINE
  5
2DE
  8
5
  6
CONTINUOUS
 10
1521.512
 20
1291.909
 30
0.0
 11
1512.512
 21
1291.909
 31
0.0
  0
LINE
  5
2DF
  8
5
  6
CONTINUOUS
 10
1512.512
 20
1011.909
 30
0.0
 11
1454.512
 21
951.4091
 31
0.0
  0
LINE
  5
2E0
  8
5
  6
CONTINUOUS
 10
1512.512
 20
1291.909
 30
0.0
 11
1454.512
 21
1352.409
 31
0.0
  0
LINE
  5
2E1
  8
5
  6
CONTINUOUS
 10
1124.512
 20
1471.709
 30
0.0
 11
1124.512
 21
1523.209
 31
0.0
  0
LINE
  5
2E2
  8
5
  6
CONTINUOUS
 10
851.5116
 20
1468.709
 30
0.0
 11
897.0116
 21
1468.709
 31
0.0
  0
LINE
  5
2E3
  8
5
  6
CONTINUOUS
 10
1125.012
 20
1468.709
 30
0.0
 11
1170.512
 21
1468.709
 31
0.0
  0
LINE
  5
2E4
  8
5
  6
CONTINUOUS
 10
1132.512
 20
1363.909
 30
0.0
 11
1117.512
 21
1363.909
 31
0.0
  0
LINE
  5
2E5
  8
5
  6
CONTINUOUS
 10
904.5116
 20
1363.909
 30
0.0
 11
1117.512
 21
1363.909
 31
0.0
  0
LINE
  5
2E6
  8
5
  6
CONTINUOUS
 10
1836.734
 20
1247.909
 30
0.0
 11
1883.654
 21
1247.909
 31
0.0
  0
LINE
  5
2E7
  8
5
  6
CONTINUOUS
 10
904.5116
 20
1363.909
 30
0.0
 11
889.5116
 21
1363.909
 31
0.0
  0
LINE
  5
2E8
  8
5
  6
CONTINUOUS
 10
904.5116
 20
1398.209
 30
0.0
 11
904.5116
 21
1363.909
 31
0.0
  0
LINE
  5
2E9
  8
5
  6
CONTINUOUS
 10
1883.654
 20
1247.909
 30
0.0
 11
1883.654
 21
1284.616
 31
0.0
  0
LINE
  5
2EA
  8
5
  6
CONTINUOUS
 10
1117.512
 20
1363.909
 30
0.0
 11
1117.512
 21
1398.209
 31
0.0
  0
LINE
  5
2EB
  8
5
  6
CONTINUOUS
 10
863.0116
 20
1422.209
 30
0.0
 11
1159.012
 21
1422.209
 31
0.0
  0
LINE
  5
2EC
  8
5
  6
CONTINUOUS
 10
946.0089
 20
1542.709
 30
0.0
 11
946.0088
 21
1546.909
 31
0.0
  0
LINE
  5
2ED
  8
5
  6
CONTINUOUS
 10
954.8716
 20
1542.709
 30
0.0
 11
954.8717
 21
1546.909
 31
0.0
  0
LINE
  5
2EE
  8
5
  6
CONTINUOUS
 10
904.9153
 20
1363.909
 30
0.0
 11
902.6796
 21
1299.885
 31
0.0
  0
LINE
  5
2EF
  8
5
  6
CONTINUOUS
 10
1119.344
 20
1299.885
 30
0.0
 11
1117.108
 21
1363.909
 31
0.0
  0
LINE
  5
2F0
  8
5
  6
CONTINUOUS
 10
958.5619
 20
1542.709
 30
0.0
 11
958.5619
 21
1546.909
 31
0.0
  0
LINE
  5
2F1
  8
5
  6
CONTINUOUS
 10
983.4994
 20
1542.709
 30
0.0
 11
983.4994
 21
1546.909
 31
0.0
  0
LINE
  5
2F2
  8
5
  6
CONTINUOUS
 10
987.3396
 20
1542.709
 30
0.0
 11
987.3395
 21
1546.909
 31
0.0
  0
LINE
  5
2F3
  8
5
  6
CONTINUOUS
 10
996.8399
 20
1542.709
 30
0.0
 11
996.8399
 21
1546.909
 31
0.0
  0
LINE
  5
2F4
  8
5
  6
CONTINUOUS
 10
1027.808
 20
1542.709
 30
0.0
 11
1027.808
 21
1546.909
 31
0.0
  0
LINE
  5
2F5
  8
5
  6
CONTINUOUS
 10
1042.636
 20
1542.709
 30
0.0
 11
1042.636
 21
1546.909
 31
0.0
  0
LINE
  5
2F6
  8
5
  6
CONTINUOUS
 10
1996.654
 20
1247.909
 30
0.0
 11
2015.654
 21
1247.909
 31
0.0
  0
LINE
  5
2F7
  8
5
  6
CONTINUOUS
 10
1073.454
 20
1542.709
 30
0.0
 11
1073.454
 21
1546.909
 31
0.0
  0
LINE
  5
2F8
  8
5
  6
CONTINUOUS
 10
1088.282
 20
1542.709
 30
0.0
 11
1088.282
 21
1546.909
 31
0.0
  0
LINE
  5
2F9
  8
5
  6
CONTINUOUS
 10
1958.654
 20
1247.909
 30
0.0
 11
1977.654
 21
1247.909
 31
0.0
  0
LINE
  5
2FA
  8
5
  6
CONTINUOUS
 10
1121.012
 20
1523.209
 30
0.0
 11
1121.012
 21
1542.709
 31
0.0
  0
LINE
  5
2FB
  8
5
  6
CONTINUOUS
 10
901.0116
 20
1542.709
 30
0.0
 11
901.0116
 21
1523.209
 31
0.0
  0
LINE
  5
2FC
  8
5
  6
CONTINUOUS
 10
888.1802
 20
195.9361
 30
0.0
 11
885.8487
 21
214.1361
 31
0.0
  0
LINE
  5
2FD
  8
5
  6
CONTINUOUS
 10
885.8487
 20
214.1361
 30
0.0
 11
884.8059
 21
222.2763
 31
0.0
  0
LINE
  5
2FE
  8
5
  6
CONTINUOUS
 10
897.0116
 20
200.2361
 30
0.0
 11
1125.012
 21
200.2361
 31
0.0
  0
LINE
  5
2FF
  8
5
  6
CONTINUOUS
 10
964.2117
 20
417.7927
 30
0.0
 11
955.6709
 21
392.8953
 31
0.0
  0
LINE
  5
300
  8
5
  6
CONTINUOUS
 10
955.6709
 20
392.8953
 30
0.0
 11
970.0054
 21
392.8957
 31
0.0
  0
LINE
  5
301
  8
5
  6
CONTINUOUS
 10
970.0054
 20
392.8957
 30
0.0
 11
970.0046
 21
417.7929
 31
0.0
  0
LINE
  5
302
  8
5
  6
CONTINUOUS
 10
970.0046
 20
417.7929
 30
0.0
 11
964.2117
 21
417.7927
 31
0.0
  0
LINE
  5
303
  8
5
  6
CONTINUOUS
 10
970.0059
 20
375.4869
 30
0.0
 11
970.0054
 21
390.7957
 31
0.0
  0
LINE
  5
304
  8
5
  6
CONTINUOUS
 10
970.0054
 20
390.7957
 30
0.0
 11
954.9506
 21
390.7952
 31
0.0
  0
LINE
  5
305
  8
5
  6
CONTINUOUS
 10
954.9506
 20
390.7952
 30
0.0
 11
946.0087
 21
364.7287
 31
0.0
  0
LINE
  5
306
  8
5
  6
CONTINUOUS
 10
946.0087
 20
364.7287
 30
0.0
 11
954.8717
 21
364.7289
 31
0.0
  0
LINE
  5
307
  8
5
  6
CONTINUOUS
 10
954.8717
 20
364.7289
 30
0.0
 11
958.5619
 21
375.4864
 31
0.0
  0
LINE
  5
308
  8
5
  6
CONTINUOUS
 10
958.5619
 20
375.4864
 30
0.0
 11
970.0059
 21
375.4869
 31
0.0
  0
LINE
  5
309
  8
5
  6
CONTINUOUS
 10
972.1053
 20
392.8957
 30
0.0
 11
986.7851
 21
392.8964
 31
0.0
  0
LINE
  5
30A
  8
5
  6
CONTINUOUS
 10
1320.512
 20
259.8361
 30
0.0
 11
1195.512
 21
259.8361
 31
0.0
  0
LINE
  5
30B
  8
5
  6
CONTINUOUS
 10
1195.512
 20
259.8361
 30
0.0
 11
1170.512
 21
259.8361
 31
0.0
  0
LINE
  5
30C
  8
5
  6
CONTINUOUS
 10
1326.217
 20
304.3763
 30
0.0
 11
1325.175
 21
296.2361
 31
0.0
  0
LINE
  5
30D
  8
5
  6
CONTINUOUS
 10
1322.843
 20
278.0361
 30
0.0
 11
1320.512
 21
259.8361
 31
0.0
  0
LINE
  5
30E
  8
5
  6
CONTINUOUS
 10
1325.175
 20
296.2361
 30
0.0
 11
1322.843
 21
278.0361
 31
0.0
  0
LINE
  5
30F
  8
5
  6
CONTINUOUS
 10
1325.175
 20
489.2361
 30
0.0
 11
1322.843
 21
507.4361
 31
0.0
  0
LINE
  5
310
  8
5
  6
CONTINUOUS
 10
1326.217
 20
481.0959
 30
0.0
 11
1325.175
 21
489.2361
 31
0.0
  0
LINE
  5
311
  8
5
  6
CONTINUOUS
 10
1322.843
 20
507.4361
 30
0.0
 11
1320.512
 21
525.6361
 31
0.0
  0
LINE
  5
312
  8
5
  6
CONTINUOUS
 10
1170.512
 20
525.6361
 30
0.0
 11
1195.512
 21
525.6361
 31
0.0
  0
LINE
  5
313
  8
5
  6
CONTINUOUS
 10
1195.512
 20
525.6361
 30
0.0
 11
1320.512
 21
525.6361
 31
0.0
  0
LINE
  5
314
  8
5
  6
CONTINUOUS
 10
1332.012
 20
200.7361
 30
0.0
 11
1332.012
 21
584.7361
 31
0.0
  0
LINE
  5
315
  8
5
  6
CONTINUOUS
 10
1320.512
 20
177.7361
 30
0.0
 11
890.5116
 21
177.7361
 31
0.0
  0
LINE
  5
316
  8
5
  6
CONTINUOUS
 10
890.5116
 20
607.7361
 30
0.0
 11
1320.512
 21
607.7361
 31
0.0
  0
LINE
  5
317
  8
5
  6
CONTINUOUS
 10
986.7851
 20
392.8964
 30
0.0
 11
977.8974
 21
417.7933
 31
0.0
  0
LINE
  5
318
  8
5
  6
CONTINUOUS
 10
890.5116
 20
177.7361
 30
0.0
 11
889.3208
 21
187.0318
 31
0.0
  0
LINE
  5
319
  8
5
  6
CONTINUOUS
 10
889.3208
 20
187.0318
 30
0.0
 11
888.1802
 21
195.9361
 31
0.0
  0
LINE
  5
31A
  8
5
  6
CONTINUOUS
 10
977.8974
 20
417.7933
 30
0.0
 11
972.1045
 21
417.7931
 31
0.0
  0
LINE
  5
31B
  8
5
  6
CONTINUOUS
 10
972.1045
 20
417.7931
 30
0.0
 11
972.1053
 21
392.8957
 31
0.0
  0
LINE
  5
31C
  8
5
  6
CONTINUOUS
 10
889.3208
 20
598.4404
 30
0.0
 11
888.1802
 21
589.5361
 31
0.0
  0
LINE
  5
31D
  8
5
  6
CONTINUOUS
 10
889.3208
 20
598.4404
 30
0.0
 11
890.5116
 21
607.7361
 31
0.0
  0
LINE
  5
31E
  8
5
  6
CONTINUOUS
 10
888.1802
 20
589.5361
 30
0.0
 11
885.8487
 21
571.3361
 31
0.0
  0
LINE
  5
31F
  8
5
  6
CONTINUOUS
 10
885.8487
 20
571.3361
 30
0.0
 11
884.8059
 21
563.1959
 31
0.0
  0
LINE
  5
320
  8
5
  6
CONTINUOUS
 10
1321.702
 20
187.0318
 30
0.0
 11
1322.843
 21
195.9361
 31
0.0
  0
LINE
  5
321
  8
5
  6
CONTINUOUS
 10
1321.702
 20
187.0318
 30
0.0
 11
1320.512
 21
177.7361
 31
0.0
  0
LINE
  5
322
  8
5
  6
CONTINUOUS
 10
1322.843
 20
195.9361
 30
0.0
 11
1325.175
 21
214.1361
 31
0.0
  0
LINE
  5
323
  8
5
  6
CONTINUOUS
 10
1325.175
 20
214.1361
 30
0.0
 11
1326.217
 21
222.2763
 31
0.0
  0
LINE
  5
324
  8
5
  6
CONTINUOUS
 10
987.5347
 20
390.7963
 30
0.0
 11
972.1055
 21
390.7957
 31
0.0
  0
LINE
  5
325
  8
5
  6
CONTINUOUS
 10
1320.512
 20
607.7361
 30
0.0
 11
1321.702
 21
598.4404
 31
0.0
  0
LINE
  5
326
  8
5
  6
CONTINUOUS
 10
1321.702
 20
598.4404
 30
0.0
 11
1322.843
 21
589.5361
 31
0.0
  0
LINE
  5
327
  8
5
  6
CONTINUOUS
 10
1322.843
 20
589.5361
 30
0.0
 11
1325.175
 21
571.3361
 31
0.0
  0
LINE
  5
328
  8
5
  6
CONTINUOUS
 10
1325.175
 20
571.3361
 30
0.0
 11
1326.217
 21
563.1959
 31
0.0
  0
LINE
  5
329
  8
5
  6
CONTINUOUS
 10
1383.012
 20
605.2361
 30
0.0
 11
1383.012
 21
506.9194
 31
0.0
  0
LINE
  5
32A
  8
5
  6
CONTINUOUS
 10
1383.012
 20
506.9194
 30
0.0
 11
1383.012
 21
278.5528
 31
0.0
  0
LINE
  5
32B
  8
5
  6
CONTINUOUS
 10
1383.012
 20
278.5528
 30
0.0
 11
1383.012
 21
180.2361
 31
0.0
  0
LINE
  5
32C
  8
5
  6
CONTINUOUS
 10
1454.512
 20
183.2361
 30
0.0
 11
1383.012
 21
183.2361
 31
0.0
  0
LINE
  5
32D
  8
5
  6
CONTINUOUS
 10
1383.012
 20
602.2361
 30
0.0
 11
1454.512
 21
602.2361
 31
0.0
  0
LINE
  5
32E
  8
5
  6
CONTINUOUS
 10
1333.512
 20
180.2361
 30
0.0
 11
1333.512
 21
278.5528
 31
0.0
  0
LINE
  5
32F
  8
5
  6
CONTINUOUS
 10
1333.512
 20
278.5528
 30
0.0
 11
1333.512
 21
506.9194
 31
0.0
  0
LINE
  5
330
  8
5
  6
CONTINUOUS
 10
1333.512
 20
506.9194
 30
0.0
 11
1333.512
 21
605.2361
 31
0.0
  0
LINE
  5
331
  8
5
  6
CONTINUOUS
 10
1383.012
 20
180.2361
 30
0.0
 11
1333.512
 21
180.2361
 31
0.0
  0
LINE
  5
332
  8
5
  6
CONTINUOUS
 10
1383.012
 20
605.2361
 30
0.0
 11
1333.512
 21
605.2361
 31
0.0
  0
LINE
  5
333
  8
5
  6
CONTINUOUS
 10
1521.512
 20
532.7361
 30
0.0
 11
1521.512
 21
252.7361
 31
0.0
  0
LINE
  5
334
  8
5
  6
CONTINUOUS
 10
1454.512
 20
602.2361
 30
0.0
 11
1454.512
 21
505.6768
 31
0.0
  0
LINE
  5
335
  8
5
  6
CONTINUOUS
 10
1454.512
 20
505.6768
 30
0.0
 11
1454.512
 21
279.7955
 31
0.0
  0
LINE
  5
336
  8
5
  6
CONTINUOUS
 10
1454.512
 20
279.7955
 30
0.0
 11
1454.512
 21
183.2361
 31
0.0
  0
LINE
  5
337
  8
5
  6
CONTINUOUS
 10
972.1055
 20
390.7957
 30
0.0
 11
972.1059
 21
375.4869
 31
0.0
  0
LINE
  5
338
  8
5
  6
CONTINUOUS
 10
972.1059
 20
375.4869
 30
0.0
 11
983.4995
 21
375.4873
 31
0.0
  0
LINE
  5
339
  8
5
  6
CONTINUOUS
 10
983.4995
 20
375.4873
 30
0.0
 11
987.3395
 21
364.73
 31
0.0
  0
LINE
  5
33A
  8
5
  6
CONTINUOUS
 10
987.3395
 20
364.73
 30
0.0
 11
996.8399
 21
364.7303
 31
0.0
  0
LINE
  5
33B
  8
5
  6
CONTINUOUS
 10
996.8399
 20
364.7303
 30
0.0
 11
987.5347
 21
390.7963
 31
0.0
  0
LINE
  5
33C
  8
5
  6
CONTINUOUS
 10
1020.904
 20
417.7947
 30
0.0
 11
1007.126
 21
417.7943
 31
0.0
  0
LINE
  5
33D
  8
5
  6
CONTINUOUS
 10
1007.126
 20
417.7943
 30
0.0
 11
1007.127
 21
392.897
 31
0.0
  0
LINE
  5
33E
  8
5
  6
CONTINUOUS
 10
1007.127
 20
392.897
 30
0.0
 11
1020.905
 21
392.8975
 31
0.0
  0
LINE
  5
33F
  8
5
  6
CONTINUOUS
 10
1020.905
 20
392.8975
 30
0.0
 11
1020.904
 21
417.7947
 31
0.0
  0
LINE
  5
340
  8
5
  6
CONTINUOUS
 10
1020.905
 20
390.7974
 30
0.0
 11
1007.127
 21
390.797
 31
0.0
  0
LINE
  5
341
  8
5
  6
CONTINUOUS
 10
1007.127
 20
390.797
 30
0.0
 11
1007.128
 21
364.7307
 31
0.0
  0
LINE
  5
342
  8
5
  6
CONTINUOUS
 10
1007.128
 20
364.7307
 30
0.0
 11
1020.906
 21
364.7311
 31
0.0
  0
LINE
  5
343
  8
5
  6
CONTINUOUS
 10
1020.906
 20
364.7311
 30
0.0
 11
1020.905
 21
390.7974
 31
0.0
  0
LINE
  5
344
  8
5
  6
CONTINUOUS
 10
1037.582
 20
390.7981
 30
0.0
 11
1023.005
 21
390.7974
 31
0.0
  0
LINE
  5
345
  8
5
  6
CONTINUOUS
 10
1023.005
 20
390.7974
 30
0.0
 11
1023.006
 21
364.7313
 31
0.0
  0
LINE
  5
346
  8
5
  6
CONTINUOUS
 10
1023.006
 20
364.7313
 30
0.0
 11
1027.808
 21
364.7313
 31
0.0
  0
ARC
  5
347
  8
5
  6
CONTINUOUS
 10
1027.808
 20
379.5599
 30
0.0
 40
14.82857
 50
270.0015
 51
0.0019
  0
ARC
  5
348
  8
5
  6
CONTINUOUS
 10
1025.822
 20
378.754
 30
0.0
 40
16.83332
 50
2.745839
 51
45.68338
  0
LINE
  5
349
  8
5
  6
CONTINUOUS
 10
1023.005
 20
392.8975
 30
0.0
 11
1034.949
 21
392.8979
 31
0.0
  0
ARC
  5
34A
  8
5
  6
CONTINUOUS
 10
1025.822
 20
378.754
 30
0.0
 40
16.83334
 50
57.16482
 51
82.74766
  0
ARC
  5
34B
  8
5
  6
CONTINUOUS
 10
1024.776
 20
408.6037
 30
0.0
 40
13.5281
 50
283.5581
 51
354.7072
  0
ARC
  5
34C
  8
5
  6
CONTINUOUS
 10
1027.807
 20
407.3555
 30
0.0
 40
10.43949
 50
0.001947
 51
90.00195
  0
LINE
  5
34D
  8
5
  6
CONTINUOUS
 10
1027.806
 20
417.795
 30
0.0
 11
1023.004
 21
417.7948
 31
0.0
  0
LINE
  5
34E
  8
5
  6
CONTINUOUS
 10
1023.004
 20
417.7948
 30
0.0
 11
1023.005
 21
392.8975
 31
0.0
  0
LINE
  5
34F
  8
5
  6
CONTINUOUS
 10
1052.772
 20
392.8986
 30
0.0
 11
1066.551
 21
392.899
 31
0.0
  0
LINE
  5
350
  8
5
  6
CONTINUOUS
 10
1066.551
 20
392.899
 30
0.0
 11
1066.55
 21
417.7962
 31
0.0
  0
LINE
  5
351
  8
5
  6
CONTINUOUS
 10
1066.55
 20
417.7962
 30
0.0
 11
1052.771
 21
417.7958
 31
0.0
  0
LINE
  5
352
  8
5
  6
CONTINUOUS
 10
1052.771
 20
417.7958
 30
0.0
 11
1052.772
 21
392.8986
 31
0.0
  0
LINE
  5
353
  8
5
  6
CONTINUOUS
 10
1068.651
 20
392.899
 30
0.0
 11
1080.595
 21
392.8994
 31
0.0
  0
ARC
  5
354
  8
5
  6
CONTINUOUS
 10
1071.468
 20
378.7555
 30
0.0
 40
16.83329
 50
57.16499
 51
82.74766
  0
ARC
  5
355
  8
5
  6
CONTINUOUS
 10
1070.421
 20
408.6053
 30
0.0
 40
13.5281
 50
283.5581
 51
354.7072
  0
ARC
  5
356
  8
5
  6
CONTINUOUS
 10
1073.452
 20
407.357
 30
0.0
 40
10.43949
 50
0.001947
 51
90.00195
  0
LINE
  5
357
  8
5
  6
CONTINUOUS
 10
1073.452
 20
417.7965
 30
0.0
 11
1068.65
 21
417.7963
 31
0.0
  0
LINE
  5
358
  8
5
  6
CONTINUOUS
 10
1068.65
 20
417.7963
 30
0.0
 11
1068.651
 21
392.899
 31
0.0
  0
LINE
  5
359
  8
5
  6
CONTINUOUS
 10
1068.651
 20
390.799
 30
0.0
 11
1068.652
 21
364.7328
 31
0.0
  0
LINE
  5
35A
  8
5
  6
CONTINUOUS
 10
1068.652
 20
364.7328
 30
0.0
 11
1073.454
 21
364.7328
 31
0.0
  0
ARC
  5
35B
  8
5
  6
CONTINUOUS
 10
1073.453
 20
379.5614
 30
0.0
 40
14.82859
 50
270.0021
 51
0.0019
  0
ARC
  5
35C
  8
5
  6
CONTINUOUS
 10
1071.468
 20
378.7555
 30
0.0
 40
16.83332
 50
2.745839
 51
45.68319
  0
LINE
  5
35D
  8
5
  6
CONTINUOUS
 10
1083.228
 20
390.7996
 30
0.0
 11
1068.651
 21
390.799
 31
0.0
  0
LINE
  5
35E
  8
5
  6
CONTINUOUS
 10
1052.772
 20
390.7985
 30
0.0
 11
1066.551
 21
390.799
 31
0.0
  0
LINE
  5
35F
  8
5
  6
CONTINUOUS
 10
1052.772
 20
390.7985
 30
0.0
 11
1052.773
 21
364.7322
 31
0.0
  0
LINE
  5
360
  8
5
  6
CONTINUOUS
 10
1052.773
 20
364.7322
 30
0.0
 11
1066.552
 21
364.7326
 31
0.0
  0
LINE
  5
361
  8
5
  6
CONTINUOUS
 10
1066.552
 20
364.7326
 30
0.0
 11
1066.551
 21
390.799
 31
0.0
  0
LINE
  5
362
  8
5
  6
CONTINUOUS
 10
1170.512
 20
279.7361
 30
0.0
 11
1170.512
 21
230.2361
 31
0.0
  0
LINE
  5
363
  8
5
  6
CONTINUOUS
 10
1170.512
 20
552.2361
 30
0.0
 11
1170.512
 21
502.7361
 31
0.0
  0
LINE
  5
364
  8
5
  6
CONTINUOUS
 10
1170.512
 20
502.7361
 30
0.0
 11
1170.512
 21
279.7361
 31
0.0
  0
LINE
  5
365
  8
5
  6
CONTINUOUS
 10
851.5116
 20
552.2361
 30
0.0
 11
901.0116
 21
552.2361
 31
0.0
  0
LINE
  5
366
  8
5
  6
CONTINUOUS
 10
901.0116
 20
552.2361
 30
0.0
 11
1121.012
 21
552.2361
 31
0.0
  0
LINE
  5
367
  8
5
  6
CONTINUOUS
 10
1121.012
 20
552.2361
 30
0.0
 11
1170.512
 21
552.2361
 31
0.0
  0
LINE
  5
368
  8
5
  6
CONTINUOUS
 10
851.5116
 20
502.7361
 30
0.0
 11
851.5116
 21
552.2361
 31
0.0
  0
LINE
  5
369
  8
5
  6
CONTINUOUS
 10
851.5116
 20
230.2361
 30
0.0
 11
851.5116
 21
279.7361
 31
0.0
  0
LINE
  5
36A
  8
5
  6
CONTINUOUS
 10
851.5116
 20
279.7361
 30
0.0
 11
851.5116
 21
502.7361
 31
0.0
  0
LINE
  5
36B
  8
5
  6
CONTINUOUS
 10
897.0116
 20
230.2361
 30
0.0
 11
897.0116
 21
200.2361
 31
0.0
  0
LINE
  5
36C
  8
5
  6
CONTINUOUS
 10
1125.012
 20
200.2361
 30
0.0
 11
1125.012
 21
230.2361
 31
0.0
  0
LINE
  5
36D
  8
6
  6
CENTER
 10
2020.451
 20
980.9913
 30
0.0
 11
2031.644
 21
953.9678
 31
0.0
  0
CIRCLE
  5
36E
  8
6
  6
CENTER
 10
1949.654
 20
1151.909
 30
0.0
 40
200.0
  0
LINE
  5
36F
  8
5
  6
CONTINUOUS
 10
1921.654
 20
1247.909
 30
0.0
 11
1940.654
 21
1247.909
 31
0.0
  0
LINE
  5
370
  8
6
  6
CENTER
 10
2120.572
 20
1081.113
 30
0.0
 11
2147.595
 21
1069.919
 31
0.0
  0
LINE
  5
371
  8
6
  6
CENTER
 10
2120.572
 20
1222.705
 30
0.0
 11
2147.595
 21
1233.899
 31
0.0
  0
LINE
  5
372
  8
5
  6
CONTINUOUS
 10
1883.654
 20
1247.909
 30
0.0
 11
1902.654
 21
1247.909
 31
0.0
  0
LINE
  5
373
  8
5
  6
CONTINUOUS
 10
2151.161
 20
1051.809
 30
0.0
 11
2175.654
 21
1051.809
 31
0.0
  0
LINE
  5
374
  8
5
  6
CONTINUOUS
 10
2152.624
 20
1054.809
 30
0.0
 11
2175.654
 21
1054.809
 31
0.0
  0
LINE
  5
375
  8
5
  6
CONTINUOUS
 10
1990.954
 20
1051.809
 30
0.0
 11
2064.892
 21
1051.809
 31
0.0
  0
LINE
  5
376
  8
5
  6
CONTINUOUS
 10
1990.954
 20
1054.809
 30
0.0
 11
2067.431
 21
1054.809
 31
0.0
  0
LINE
  5
377
  8
5
  6
CONTINUOUS
 10
2064.354
 20
936.909
 30
0.0
 11
2064.354
 21
954.809
 31
0.0
  0
LINE
  5
378
  8
5
  6
CONTINUOUS
 10
2046.154
 20
948.6536
 30
0.0
 11
2046.154
 21
936.909
 31
0.0
  0
LINE
  5
379
  8
5
  6
CONTINUOUS
 10
1272.512
 20
259.8361
 30
0.0
 11
1272.512
 21
230.6959
 31
0.0
  0
LINE
  5
37A
  8
5
  6
CONTINUOUS
 10
1272.512
 20
230.6959
 30
0.0
 11
1264.512
 21
224.244
 31
0.0
  0
LINE
  5
37B
  8
5
  6
CONTINUOUS
 10
1264.512
 20
224.244
 30
0.0
 11
1244.512
 21
224.244
 31
0.0
  0
LINE
  5
37C
  8
5
  6
CONTINUOUS
 10
1244.512
 20
224.244
 30
0.0
 11
1236.512
 21
230.6959
 31
0.0
  0
LINE
  5
37D
  8
5
  6
CONTINUOUS
 10
1236.512
 20
230.6959
 30
0.0
 11
1236.512
 21
259.8361
 31
0.0
  0
LINE
  5
37E
  8
5
  6
CONTINUOUS
 10
1203.828
 20
259.8361
 30
0.0
 11
1207.895
 21
212.9218
 31
0.0
  0
LINE
  5
37F
  8
5
  6
CONTINUOUS
 10
1207.895
 20
212.9218
 30
0.0
 11
1225.012
 21
200.0496
 31
0.0
  0
LINE
  5
380
  8
5
  6
CONTINUOUS
 10
1225.012
 20
200.0496
 30
0.0
 11
1284.012
 21
200.0496
 31
0.0
  0
LINE
  5
381
  8
5
  6
CONTINUOUS
 10
1284.012
 20
200.0496
 30
0.0
 11
1301.128
 21
212.9218
 31
0.0
  0
LINE
  5
382
  8
5
  6
CONTINUOUS
 10
1305.196
 20
259.8361
 30
0.0
 11
1301.128
 21
212.9218
 31
0.0
  0
LINE
  5
383
  8
5
  6
CONTINUOUS
 10
1301.128
 20
190.8441
 30
0.0
 11
1304.744
 21
218.2952
 31
0.0
  0
LINE
  5
384
  8
5
  6
CONTINUOUS
 10
1301.128
 20
190.8441
 30
0.0
 11
1284.012
 21
182.3718
 31
0.0
  0
LINE
  5
385
  8
5
  6
CONTINUOUS
 10
1284.012
 20
182.3718
 30
0.0
 11
1225.012
 21
182.3718
 31
0.0
  0
LINE
  5
386
  8
5
  6
CONTINUOUS
 10
1225.012
 20
182.3718
 30
0.0
 11
1207.895
 21
190.8441
 31
0.0
  0
LINE
  5
387
  8
5
  6
CONTINUOUS
 10
1207.895
 20
190.8441
 30
0.0
 11
1204.279
 21
218.2952
 31
0.0
  0
LINE
  5
388
  8
5
  6
CONTINUOUS
 10
1301.128
 20
212.9218
 30
0.0
 11
1301.128
 21
190.8441
 31
0.0
  0
LINE
  5
389
  8
5
  6
CONTINUOUS
 10
1306.518
 20
254.1663
 30
0.0
 11
1304.744
 21
218.2952
 31
0.0
  0
LINE
  5
38A
  8
5
  6
CONTINUOUS
 10
1204.279
 20
218.2952
 30
0.0
 11
1202.505
 21
254.1663
 31
0.0
  0
LINE
  5
38B
  8
5
  6
CONTINUOUS
 10
1207.895
 20
190.8441
 30
0.0
 11
1207.895
 21
212.9218
 31
0.0
  0
LINE
  5
38C
  8
5
  6
CONTINUOUS
 10
1272.512
 20
254.1663
 30
0.0
 11
1236.512
 21
254.1663
 31
0.0
  0
LINE
  5
38D
  8
5
  6
CONTINUOUS
 10
1834.954
 20
936.909
 30
0.0
 11
1834.954
 21
954.809
 31
0.0
  0
LINE
  5
38E
  8
5
  6
CONTINUOUS
 10
1853.154
 20
936.909
 30
0.0
 11
1853.154
 21
948.6536
 31
0.0
  0
LINE
  5
38F
  8
5
  6
CONTINUOUS
 10
2029.154
 20
936.909
 30
0.0
 11
2029.154
 21
941.4221
 31
0.0
  0
LINE
  5
390
  8
5
  6
CONTINUOUS
 10
1870.154
 20
936.909
 30
0.0
 11
1870.154
 21
941.4221
 31
0.0
  0
LINE
  5
391
  8
5
  6
CONTINUOUS
 10
1202.505
 20
254.1663
 30
0.0
 11
1170.512
 21
254.1663
 31
0.0
  0
LINE
  5
392
  8
5
  6
CONTINUOUS
 10
1320.512
 20
254.1663
 30
0.0
 11
1306.518
 21
254.1663
 31
0.0
  0
LINE
  5
393
  8
5
  6
CONTINUOUS
 10
2143.223
 20
1037.209
 30
0.0
 11
2146.454
 21
1037.209
 31
0.0
  0
LINE
  5
394
  8
5
  6
CONTINUOUS
 10
1170.512
 20
531.3059
 30
0.0
 11
1320.512
 21
531.306
 31
0.0
  0
LINE
  5
395
  8
5
  6
CONTINUOUS
 10
2143.223
 20
1266.609
 30
0.0
 11
2146.454
 21
1266.609
 31
0.0
  0
LINE
  5
396
  8
5
  6
CONTINUOUS
 10
1225.012
 20
200.0496
 30
0.0
 11
1225.012
 21
182.3718
 31
0.0
  0
LINE
  5
397
  8
5
  6
CONTINUOUS
 10
1284.012
 20
182.3718
 30
0.0
 11
1284.012
 21
200.0496
 31
0.0
  0
LINE
  5
398
  8
5
  6
CONTINUOUS
 10
885.8487
 20
558.7234
 30
0.0
 11
885.8487
 21
571.3361
 31
0.0
  0
LINE
  5
399
  8
5
  6
CONTINUOUS
 10
888.1802
 20
230.2361
 30
0.0
 11
888.1802
 21
195.9362
 31
0.0
  0
LINE
  5
39B
  8
5
  6
CONTINUOUS
 10
890.5117
 20
588.7361
 30
0.0
 11
890.5116
 21
552.2361
 31
0.0
  0
LINE
  5
39D
  8
5
  6
CONTINUOUS
 10
888.1802
 20
589.5361
 30
0.0
 11
888.1802
 21
552.2361
 31
0.0
  0
LINE
  5
39E
  8
5
  6
CONTINUOUS
 10
1301.904
 20
196.7361
 30
0.0
 11
1320.512
 21
196.7362
 31
0.0
  0
LINE
  5
39F
  8
5
  6
CONTINUOUS
 10
1320.512
 20
196.7362
 30
0.0
 11
1320.512
 21
254.1663
 31
0.0
  0
LINE
  5
3A0
  8
5
  6
CONTINUOUS
 10
1007.744
 20
567.177
 30
0.0
 11
1008.483
 21
552.2361
 31
0.0
  0
LINE
  5
3A1
  8
5
  6
CONTINUOUS
 10
1320.512
 20
531.306
 30
0.0
 11
1320.512
 21
588.7361
 31
0.0
  0
LINE
  5
3A2
  8
5
  6
CONTINUOUS
 10
1320.512
 20
588.7361
 30
0.0
 11
1004.904
 21
588.7361
 31
0.0
  0
LINE
  5
3A3
  8
5
  6
CONTINUOUS
 10
910.1193
 20
588.7361
 30
0.0
 11
890.5117
 21
588.7361
 31
0.0
  0
LINE
  5
3A4
  8
5
  6
CONTINUOUS
 10
906.5404
 20
552.2361
 30
0.0
 11
907.2792
 21
567.177
 31
0.0
  0
LINE
  5
3A5
  8
5
  6
CONTINUOUS
 10
1325.175
 20
226.7489
 30
0.0
 11
1325.175
 21
214.136
 31
0.0
  0
LINE
  5
3A6
  8
5
  6
CONTINUOUS
 10
1325.175
 20
571.3361
 30
0.0
 11
1325.175
 21
558.7234
 31
0.0
  0
LINE
  5
3A8
  8
5
  6
CONTINUOUS
 10
1322.843
 20
195.9362
 30
0.0
 11
1322.843
 21
238.7624
 31
0.0
  0
LINE
  5
3A9
  8
5
  6
CONTINUOUS
 10
1322.843
 20
546.7098
 30
0.0
 11
1322.843
 21
589.5361
 31
0.0
  0
LINE
  5
3AB
  8
5
  6
CONTINUOUS
 10
1320.512
 20
278.0362
 30
0.0
 11
1195.512
 21
278.0362
 31
0.0
  0
LINE
  5
3AC
  8
5
  6
CONTINUOUS
 10
1195.512
 20
278.0362
 30
0.0
 11
1195.512
 21
259.8361
 31
0.0
  0
LINE
  5
3AD
  8
5
  6
CONTINUOUS
 10
1320.512
 20
259.8361
 30
0.0
 11
1320.512
 21
278.0362
 31
0.0
  0
LINE
  5
3AE
  8
5
  6
CONTINUOUS
 10
1320.512
 20
507.436
 30
0.0
 11
1195.512
 21
507.436
 31
0.0
  0
LINE
  5
3AF
  8
5
  6
CONTINUOUS
 10
1195.512
 20
507.436
 30
0.0
 11
1195.512
 21
489.2362
 31
0.0
  0
LINE
  5
3B0
  8
5
  6
CONTINUOUS
 10
1195.512
 20
489.2362
 30
0.0
 11
1320.512
 21
489.2362
 31
0.0
  0
LINE
  5
3B1
  8
5
  6
CONTINUOUS
 10
1320.512
 20
489.2362
 30
0.0
 11
1320.512
 21
507.436
 31
0.0
  0
LINE
  5
3B2
  8
5
  6
CONTINUOUS
 10
1195.512
 20
457.2362
 30
0.0
 11
1320.512
 21
457.2362
 31
0.0
  0
LINE
  5
3B3
  8
5
  6
CONTINUOUS
 10
1320.512
 20
457.2362
 30
0.0
 11
1320.512
 21
472.2361
 31
0.0
  0
LINE
  5
3B4
  8
5
  6
CONTINUOUS
 10
1320.512
 20
472.2361
 30
0.0
 11
1195.512
 21
472.2361
 31
0.0
  0
LINE
  5
3B5
  8
5
  6
CONTINUOUS
 10
1195.512
 20
472.2361
 30
0.0
 11
1195.512
 21
457.2362
 31
0.0
  0
LINE
  5
3B6
  8
5
  6
CONTINUOUS
 10
1195.512
 20
427.2362
 30
0.0
 11
1320.512
 21
427.2362
 31
0.0
  0
LINE
  5
3B7
  8
5
  6
CONTINUOUS
 10
1320.512
 20
427.2362
 30
0.0
 11
1320.512
 21
442.2361
 31
0.0
  0
LINE
  5
3B8
  8
5
  6
CONTINUOUS
 10
1320.512
 20
442.2361
 30
0.0
 11
1195.512
 21
442.2361
 31
0.0
  0
LINE
  5
3B9
  8
5
  6
CONTINUOUS
 10
1195.512
 20
442.2361
 30
0.0
 11
1195.512
 21
427.2362
 31
0.0
  0
LINE
  5
3BA
  8
5
  6
CONTINUOUS
 10
1195.512
 20
392.7361
 30
0.0
 11
1320.512
 21
392.7361
 31
0.0
  0
LINE
  5
3BB
  8
5
  6
CONTINUOUS
 10
1320.512
 20
392.7361
 30
0.0
 11
1320.512
 21
409.986
 31
0.0
  0
LINE
  5
3BC
  8
5
  6
CONTINUOUS
 10
1320.512
 20
409.986
 30
0.0
 11
1195.512
 21
409.986
 31
0.0
  0
LINE
  5
3BD
  8
5
  6
CONTINUOUS
 10
1195.512
 20
409.986
 30
0.0
 11
1195.512
 21
392.7361
 31
0.0
  0
LINE
  5
3BE
  8
5
  6
CONTINUOUS
 10
1320.512
 20
375.4862
 30
0.0
 11
1195.512
 21
375.4862
 31
0.0
  0
LINE
  5
3BF
  8
5
  6
CONTINUOUS
 10
1195.512
 20
375.4862
 30
0.0
 11
1195.512
 21
358.2361
 31
0.0
  0
LINE
  5
3C0
  8
5
  6
CONTINUOUS
 10
1195.512
 20
358.2361
 30
0.0
 11
1320.512
 21
358.2361
 31
0.0
  0
LINE
  5
3C1
  8
5
  6
CONTINUOUS
 10
1320.512
 20
358.2361
 30
0.0
 11
1320.512
 21
375.4862
 31
0.0
  0
LINE
  5
3C2
  8
5
  6
CONTINUOUS
 10
1320.512
 20
343.2362
 30
0.0
 11
1195.512
 21
343.2362
 31
0.0
  0
LINE
  5
3C3
  8
5
  6
CONTINUOUS
 10
1195.512
 20
343.2362
 30
0.0
 11
1195.512
 21
328.2361
 31
0.0
  0
LINE
  5
3C4
  8
5
  6
CONTINUOUS
 10
1195.512
 20
328.2361
 30
0.0
 11
1320.512
 21
328.2361
 31
0.0
  0
LINE
  5
3C5
  8
5
  6
CONTINUOUS
 10
1320.512
 20
328.2361
 30
0.0
 11
1320.512
 21
343.2362
 31
0.0
  0
LINE
  5
3C6
  8
5
  6
CONTINUOUS
 10
1320.512
 20
313.2362
 30
0.0
 11
1195.512
 21
313.2362
 31
0.0
  0
LINE
  5
3C7
  8
5
  6
CONTINUOUS
 10
1195.512
 20
313.2362
 30
0.0
 11
1195.512
 21
296.2361
 31
0.0
  0
LINE
  5
3C8
  8
5
  6
CONTINUOUS
 10
1195.512
 20
296.2361
 30
0.0
 11
1320.512
 21
296.2361
 31
0.0
  0
LINE
  5
3C9
  8
5
  6
CONTINUOUS
 10
1320.512
 20
296.2361
 30
0.0
 11
1320.512
 21
313.2362
 31
0.0
  0
LINE
  5
3CA
  8
5
  6
CONTINUOUS
 10
1320.512
 20
278.0362
 30
0.0
 11
1320.512
 21
296.2361
 31
0.0
  0
LINE
  5
3CB
  8
5
  6
CONTINUOUS
 10
1195.512
 20
296.2361
 30
0.0
 11
1195.512
 21
278.0362
 31
0.0
  0
LINE
  5
3CC
  8
5
  6
CONTINUOUS
 10
1320.512
 20
507.436
 30
0.0
 11
1320.512
 21
525.6361
 31
0.0
  0
LINE
  5
3CD
  8
5
  6
CONTINUOUS
 10
1195.512
 20
525.6361
 30
0.0
 11
1195.512
 21
507.436
 31
0.0
  0
LINE
  5
3CE
  8
5
  6
CONTINUOUS
 10
1195.512
 20
489.2362
 30
0.0
 11
1195.512
 21
472.2361
 31
0.0
  0
LINE
  5
3CF
  8
5
  6
CONTINUOUS
 10
1320.512
 20
472.2361
 30
0.0
 11
1320.512
 21
489.2362
 31
0.0
  0
LINE
  5
3D0
  8
5
  6
CONTINUOUS
 10
1195.512
 20
457.2362
 30
0.0
 11
1195.512
 21
442.2361
 31
0.0
  0
LINE
  5
3D1
  8
5
  6
CONTINUOUS
 10
1320.512
 20
442.2361
 30
0.0
 11
1320.512
 21
457.2362
 31
0.0
  0
LINE
  5
3D2
  8
5
  6
CONTINUOUS
 10
1195.512
 20
427.2362
 30
0.0
 11
1195.512
 21
409.986
 31
0.0
  0
LINE
  5
3D3
  8
5
  6
CONTINUOUS
 10
1320.512
 20
409.986
 30
0.0
 11
1320.512
 21
427.2362
 31
0.0
  0
LINE
  5
3D4
  8
5
  6
CONTINUOUS
 10
1195.512
 20
392.7361
 30
0.0
 11
1195.512
 21
375.4862
 31
0.0
  0
LINE
  5
3D5
  8
5
  6
CONTINUOUS
 10
1320.512
 20
375.4862
 30
0.0
 11
1320.512
 21
392.7361
 31
0.0
  0
LINE
  5
3D6
  8
5
  6
CONTINUOUS
 10
1195.512
 20
358.2361
 30
0.0
 11
1195.512
 21
343.2362
 31
0.0
  0
LINE
  5
3D7
  8
5
  6
CONTINUOUS
 10
1320.512
 20
343.2362
 30
0.0
 11
1320.512
 21
358.2361
 31
0.0
  0
LINE
  5
3D8
  8
5
  6
CONTINUOUS
 10
1195.512
 20
328.2361
 30
0.0
 11
1195.512
 21
313.2362
 31
0.0
  0
LINE
  5
3D9
  8
5
  6
CONTINUOUS
 10
1320.512
 20
313.2362
 30
0.0
 11
1320.512
 21
328.2361
 31
0.0
  0
LINE
  5
3DA
  8
5
  6
CONTINUOUS
 10
1170.512
 20
296.2361
 30
0.0
 11
1195.512
 21
296.2361
 31
0.0
  0
LINE
  5
3DB
  8
5
  6
CONTINUOUS
 10
1195.512
 20
313.2362
 30
0.0
 11
1170.512
 21
313.2362
 31
0.0
  0
LINE
  5
3DC
  8
5
  6
CONTINUOUS
 10
1170.512
 20
328.2361
 30
0.0
 11
1195.512
 21
328.2361
 31
0.0
  0
LINE
  5
3DD
  8
5
  6
CONTINUOUS
 10
1195.512
 20
343.2362
 30
0.0
 11
1170.512
 21
343.2362
 31
0.0
  0
LINE
  5
3DE
  8
5
  6
CONTINUOUS
 10
1195.512
 20
442.2361
 30
0.0
 11
1170.512
 21
442.2361
 31
0.0
  0
LINE
  5
3DF
  8
5
  6
CONTINUOUS
 10
1170.512
 20
427.2362
 30
0.0
 11
1195.512
 21
427.2362
 31
0.0
  0
LINE
  5
3E0
  8
5
  6
CONTINUOUS
 10
1195.512
 20
472.2361
 30
0.0
 11
1170.512
 21
472.2361
 31
0.0
  0
LINE
  5
3E1
  8
5
  6
CONTINUOUS
 10
1170.512
 20
457.2362
 30
0.0
 11
1195.512
 21
457.2362
 31
0.0
  0
LINE
  5
3E2
  8
5
  6
CONTINUOUS
 10
1195.512
 20
507.436
 30
0.0
 11
1170.512
 21
507.436
 31
0.0
  0
LINE
  5
3E3
  8
5
  6
CONTINUOUS
 10
1170.512
 20
489.2362
 30
0.0
 11
1195.512
 21
489.2362
 31
0.0
  0
LINE
  5
3E4
  8
5
  6
CONTINUOUS
 10
1195.512
 20
278.0362
 30
0.0
 11
1170.512
 21
278.0362
 31
0.0
  0
LINE
  5
3E5
  8
5
  6
CONTINUOUS
 10
1195.512
 20
358.2361
 30
0.0
 11
1170.512
 21
358.2361
 31
0.0
  0
LINE
  5
3E6
  8
5
  6
CONTINUOUS
 10
1195.512
 20
375.4862
 30
0.0
 11
1170.745
 21
375.4862
 31
0.0
  0
LINE
  5
3E7
  8
5
  6
CONTINUOUS
 10
1171.553
 20
392.7361
 30
0.0
 11
1195.512
 21
392.7361
 31
0.0
  0
LINE
  5
3E8
  8
5
  6
CONTINUOUS
 10
1195.512
 20
409.986
 30
0.0
 11
1170.745
 21
409.986
 31
0.0
  0
LINE
  5
3E9
  8
5
  6
CONTINUOUS
 10
1322.843
 20
507.4361
 30
0.0
 11
1320.512
 21
507.436
 31
0.0
  0
LINE
  5
3EA
  8
5
  6
CONTINUOUS
 10
1320.512
 20
489.2362
 30
0.0
 11
1325.175
 21
489.2361
 31
0.0
  0
LINE
  5
3EB
  8
5
  6
CONTINUOUS
 10
1322.843
 20
278.0362
 30
0.0
 11
1320.512
 21
278.0362
 31
0.0
  0
LINE
  5
3EC
  8
5
  6
CONTINUOUS
 10
1325.175
 20
296.2361
 30
0.0
 11
1320.512
 21
296.2361
 31
0.0
  0
LINE
  5
3ED
  8
5
  6
CONTINUOUS
 10
1325.666
 20
313.2362
 30
0.0
 11
1320.512
 21
313.2362
 31
0.0
  0
LINE
  5
3EE
  8
5
  6
CONTINUOUS
 10
1324.29
 20
343.2362
 30
0.0
 11
1320.512
 21
343.2362
 31
0.0
  0
LINE
  5
3EF
  8
5
  6
CONTINUOUS
 10
1320.512
 20
328.2361
 30
0.0
 11
1324.887
 21
328.2361
 31
0.0
  0
LINE
  5
3F0
  8
5
  6
CONTINUOUS
 10
1323.557
 20
375.4862
 30
0.0
 11
1320.512
 21
375.4862
 31
0.0
  0
LINE
  5
3F1
  8
5
  6
CONTINUOUS
 10
1320.512
 20
358.2361
 30
0.0
 11
1323.858
 21
358.2361
 31
0.0
  0
LINE
  5
3F2
  8
5
  6
CONTINUOUS
 10
1323.557
 20
409.986
 30
0.0
 11
1320.512
 21
409.986
 31
0.0
  0
LINE
  5
3F3
  8
5
  6
CONTINUOUS
 10
1320.512
 20
392.7361
 30
0.0
 11
1323.458
 21
392.7361
 31
0.0
  0
LINE
  5
3F4
  8
5
  6
CONTINUOUS
 10
1324.29
 20
442.2361
 30
0.0
 11
1320.512
 21
442.2361
 31
0.0
  0
LINE
  5
3F5
  8
5
  6
CONTINUOUS
 10
1320.512
 20
427.2362
 30
0.0
 11
1323.858
 21
427.2362
 31
0.0
  0
LINE
  5
3F6
  8
5
  6
CONTINUOUS
 10
1325.666
 20
472.2361
 30
0.0
 11
1320.512
 21
472.2361
 31
0.0
  0
LINE
  5
3F7
  8
5
  6
CONTINUOUS
 10
1320.512
 20
457.2362
 30
0.0
 11
1324.887
 21
457.2362
 31
0.0
  0
LINE
  5
3F8
  8
5
  6
CONTINUOUS
 10
987.0117
 20
603.1004
 30
0.0
 11
1004.128
 21
594.6281
 31
0.0
  0
LINE
  5
3F9
  8
5
  6
CONTINUOUS
 10
987.0117
 20
585.4227
 30
0.0
 11
987.0117
 21
603.1004
 31
0.0
  0
LINE
  5
3FA
  8
5
  6
CONTINUOUS
 10
1004.128
 20
572.5504
 30
0.0
 11
987.0117
 21
585.4227
 31
0.0
  0
LINE
  5
3FB
  8
5
  6
CONTINUOUS
 10
1004.128
 20
594.6281
 30
0.0
 11
1004.128
 21
572.5504
 31
0.0
  0
LINE
  5
3FC
  8
5
  6
CONTINUOUS
 10
928.0116
 20
585.4227
 30
0.0
 11
910.8954
 21
572.5504
 31
0.0
  0
LINE
  5
3FD
  8
5
  6
CONTINUOUS
 10
928.0116
 20
603.1004
 30
0.0
 11
928.0116
 21
585.4227
 31
0.0
  0
LINE
  5
3FE
  8
5
  6
CONTINUOUS
 10
910.8954
 20
594.6281
 30
0.0
 11
928.0116
 21
603.1004
 31
0.0
  0
LINE
  5
3FF
  8
5
  6
CONTINUOUS
 10
910.8954
 20
572.5504
 30
0.0
 11
910.8954
 21
594.6281
 31
0.0
  0
LINE
  5
400
  8
5
  6
CONTINUOUS
 10
967.5117
 20
561.2283
 30
0.0
 11
975.5117
 21
554.7764
 31
0.0
  0
LINE
  5
401
  8
5
  6
CONTINUOUS
 10
939.5118
 20
554.7764
 30
0.0
 11
947.5117
 21
561.2283
 31
0.0
  0
LINE
  5
402
  8
5
  6
CONTINUOUS
 10
947.5117
 20
561.2283
 30
0.0
 11
967.5117
 21
561.2283
 31
0.0
  0
LINE
  5
403
  8
5
  6
CONTINUOUS
 10
928.0116
 20
603.1004
 30
0.0
 11
987.0117
 21
603.1004
 31
0.0
  0
LINE
  5
404
  8
5
  6
CONTINUOUS
 10
987.0117
 20
585.4227
 30
0.0
 11
928.0116
 21
585.4227
 31
0.0
  0
LINE
  5
405
  8
5
  6
CONTINUOUS
 10
1004.128
 20
594.6281
 30
0.0
 11
1007.744
 21
567.177
 31
0.0
  0
LINE
  5
406
  8
5
  6
CONTINUOUS
 10
1005.889
 20
552.2361
 30
0.0
 11
1004.128
 21
572.5504
 31
0.0
  0
LINE
  5
407
  8
5
  6
CONTINUOUS
 10
909.1342
 20
552.2361
 30
0.0
 11
910.8954
 21
572.5504
 31
0.0
  0
LINE
  5
408
  8
5
  6
CONTINUOUS
 10
910.8954
 20
594.6281
 30
0.0
 11
907.2792
 21
567.177
 31
0.0
  0
LINE
  5
409
  8
5
  6
CONTINUOUS
 10
939.5118
 20
552.236
 30
0.0
 11
939.5118
 21
554.7764
 31
0.0
  0
LINE
  5
40A
  8
5
  6
CONTINUOUS
 10
975.5117
 20
554.7764
 30
0.0
 11
975.5117
 21
552.236
 31
0.0
  0
LINE
  5
40B
  8
5
  6
CONTINUOUS
 10
1383.012
 20
505.6769
 30
0.0
 11
1454.512
 21
505.6768
 31
0.0
  0
LINE
  5
40C
  8
5
  6
CONTINUOUS
 10
1383.012
 20
279.7954
 30
0.0
 11
1454.512
 21
279.7955
 31
0.0
  0
LINE
  5
40D
  8
5
  6
CONTINUOUS
 10
1383.012
 20
278.5528
 30
0.0
 11
1333.512
 21
278.5528
 31
0.0
  0
LINE
  5
40E
  8
5
  6
CONTINUOUS
 10
1383.012
 20
506.9194
 30
0.0
 11
1333.512
 21
506.9194
 31
0.0
  0
LINE
  5
40F
  8
5
  6
CONTINUOUS
 10
1512.512
 20
532.7361
 30
0.0
 11
1512.512
 21
252.7361
 31
0.0
  0
LINE
  5
410
  8
5
  6
CONTINUOUS
 10
1521.512
 20
532.7361
 30
0.0
 11
1512.512
 21
532.7361
 31
0.0
  0
LINE
  5
411
  8
5
  6
CONTINUOUS
 10
1512.512
 20
252.7361
 30
0.0
 11
1521.512
 21
252.7361
 31
0.0
  0
LINE
  5
412
  8
5
  6
CONTINUOUS
 10
1512.512
 20
532.7361
 30
0.0
 11
1454.512
 21
593.2361
 31
0.0
  0
LINE
  5
413
  8
5
  6
CONTINUOUS
 10
1454.512
 20
192.2361
 30
0.0
 11
1512.512
 21
252.7361
 31
0.0
  0
LINE
  5
414
  8
5
  6
CONTINUOUS
 10
124.5134
 20
959.2224
 30
0.0
 11
132.9856
 21
973.3225
 31
0.0
  0
LINE
  5
415
  8
5
  6
CONTINUOUS
 10
132.9856
 20
973.3225
 30
0.0
 11
153.1769
 21
1006.926
 31
0.0
  0
LINE
  5
416
  8
5
  6
CONTINUOUS
 10
202.2777
 20
955.9089
 30
0.0
 11
202.2777
 21
957.8256
 31
0.0
  0
LINE
  5
417
  8
5
  6
CONTINUOUS
 10
467.4777
 20
957.8256
 30
0.0
 11
467.4777
 21
955.9089
 31
0.0
  0
LINE
  5
418
  8
5
  6
CONTINUOUS
 10
536.7697
 20
973.3225
 30
0.0
 11
516.5784
 21
1006.926
 31
0.0
  0
LINE
  5
419
  8
5
  6
CONTINUOUS
 10
536.7697
 20
973.3225
 30
0.0
 11
545.2419
 21
959.2224
 31
0.0
  0
ARC
  5
41A
  8
5
  6
CONTINUOUS
 10
334.8777
 20
1151.909
 30
0.0
 40
225.0
 50
162.8538
 51
197.1462
  0
ARC
  5
41B
  8
5
  6
CONTINUOUS
 10
334.8777
 20
1151.909
 30
0.0
 40
225.0
 50
252.8538
 51
287.1462
  0
ARC
  5
41C
  8
5
  6
CONTINUOUS
 10
334.8777
 20
1151.909
 30
0.0
 40
225.0
 50
342.8538
 51
17.1462
  0
LINE
  5
41D
  8
5
  6
CONTINUOUS
 10
108.8777
 20
1054.809
 30
0.0
 11
108.8777
 21
1051.809
 31
0.0
  0
LINE
  5
41E
  8
5
  6
CONTINUOUS
 10
185.7412
 20
974.3621
 30
0.0
 11
155.0634
 21
951.2447
 31
0.0
  0
LINE
  5
41F
  8
5
  6
CONTINUOUS
 10
155.0634
 20
951.2447
 30
0.0
 11
142.1911
 21
941.5447
 31
0.0
  0
LINE
  5
420
  8
5
  6
CONTINUOUS
 10
142.1911
 20
941.5447
 30
0.0
 11
124.5134
 21
959.2224
 31
0.0
  0
LINE
  5
421
  8
5
  6
CONTINUOUS
 10
238.3777
 20
936.9089
 30
0.0
 11
220.1777
 21
936.9089
 31
0.0
  0
LINE
  5
422
  8
5
  6
CONTINUOUS
 10
431.3777
 20
936.9089
 30
0.0
 11
414.3777
 21
936.9089
 31
0.0
  0
LINE
  5
423
  8
5
  6
CONTINUOUS
 10
399.3777
 20
936.9089
 30
0.0
 11
384.3777
 21
936.9089
 31
0.0
  0
LINE
  5
424
  8
5
  6
CONTINUOUS
 10
369.3777
 20
936.9089
 30
0.0
 11
352.1277
 21
936.9089
 31
0.0
  0
LINE
  5
425
  8
5
  6
CONTINUOUS
 10
270.3777
 20
936.9089
 30
0.0
 11
255.3777
 21
936.9089
 31
0.0
  0
LINE
  5
426
  8
5
  6
CONTINUOUS
 10
300.3777
 20
936.9089
 30
0.0
 11
285.3777
 21
936.9089
 31
0.0
  0
LINE
  5
427
  8
5
  6
CONTINUOUS
 10
334.8777
 20
936.9089
 30
0.0
 11
317.6277
 21
936.9089
 31
0.0
  0
LINE
  5
428
  8
5
  6
CONTINUOUS
 10
255.3777
 20
936.9089
 30
0.0
 11
238.3777
 21
936.9089
 31
0.0
  0
LINE
  5
429
  8
5
  6
CONTINUOUS
 10
449.5777
 20
936.9089
 30
0.0
 11
431.3777
 21
936.9089
 31
0.0
  0
LINE
  5
42A
  8
5
  6
CONTINUOUS
 10
414.3777
 20
936.9089
 30
0.0
 11
399.3777
 21
936.9089
 31
0.0
  0
LINE
  5
42B
  8
5
  6
CONTINUOUS
 10
384.3777
 20
936.9089
 30
0.0
 11
369.3777
 21
936.9089
 31
0.0
  0
LINE
  5
42C
  8
5
  6
CONTINUOUS
 10
352.1277
 20
936.9089
 30
0.0
 11
334.8777
 21
936.9089
 31
0.0
  0
LINE
  5
42D
  8
6
  6
CENTER
 10
337.8777
 20
1151.909
 30
0.0
 11
331.8777
 21
1151.909
 31
0.0
  0
LINE
  5
42E
  8
6
  6
CENTER
 10
334.8777
 20
1154.909
 30
0.0
 11
334.8777
 21
1148.909
 31
0.0
  0
LINE
  5
42F
  8
5
  6
CONTINUOUS
 10
285.3777
 20
936.9089
 30
0.0
 11
270.3777
 21
936.9089
 31
0.0
  0
LINE
  5
430
  8
5
  6
CONTINUOUS
 10
317.6277
 20
936.9089
 30
0.0
 11
300.3777
 21
936.9089
 31
0.0
  0
LINE
  5
431
  8
5
  6
CONTINUOUS
 10
211.4945
 20
946.1257
 30
0.0
 11
220.1777
 21
936.9089
 31
0.0
  0
LINE
  5
432
  8
5
  6
CONTINUOUS
 10
202.2777
 20
955.9089
 30
0.0
 11
211.4945
 21
946.1257
 31
0.0
  0
LINE
  5
433
  8
6
  6
CENTER
 10
337.8777
 20
1151.909
 30
0.0
 11
331.8777
 21
1151.909
 31
0.0
  0
LINE
  5
434
  8
6
  6
CENTER
 10
334.8777
 20
1154.909
 30
0.0
 11
334.8777
 21
1148.909
 31
0.0
  0
LINE
  5
435
  8
6
  6
CENTER
 10
339.3777
 20
1151.909
 30
0.0
 11
538.3777
 21
1151.909
 31
0.0
  0
LINE
  5
436
  8
6
  6
CENTER
 10
334.8777
 20
1156.409
 30
0.0
 11
334.8777
 21
1355.409
 31
0.0
  0
LINE
  5
437
  8
6
  6
CENTER
 10
330.3777
 20
1151.909
 30
0.0
 11
131.3777
 21
1151.909
 31
0.0
  0
LINE
  5
438
  8
6
  6
CENTER
 10
334.8777
 20
1147.409
 30
0.0
 11
334.8777
 21
948.4089
 31
0.0
  0
LINE
  5
439
  8
5
  6
CONTINUOUS
 10
458.2609
 20
946.1257
 30
0.0
 11
467.4777
 21
955.9089
 31
0.0
  0
LINE
  5
43A
  8
5
  6
CONTINUOUS
 10
449.5777
 20
936.9089
 30
0.0
 11
458.2609
 21
946.1257
 31
0.0
  0
LINE
  5
43B
  8
5
  6
CONTINUOUS
 10
545.2419
 20
959.2224
 30
0.0
 11
527.5643
 21
941.5447
 31
0.0
  0
LINE
  5
43C
  8
5
  6
CONTINUOUS
 10
527.5643
 20
941.5447
 30
0.0
 11
514.6919
 21
951.2447
 31
0.0
  0
LINE
  5
43D
  8
5
  6
CONTINUOUS
 10
484.0141
 20
974.3621
 30
0.0
 11
514.6919
 21
951.2447
 31
0.0
  0
LINE
  5
43E
  8
6
  6
CENTER
 10
2020.451
 20
1322.827
 30
0.0
 11
2031.644
 21
1349.85
 31
0.0
  0
LINE
  5
43F
  8
6
  6
CENTER
 10
1878.858
 20
1322.827
 30
0.0
 11
1867.664
 21
1349.85
 31
0.0
  0
LINE
  5
440
  8
6
  6
CENTER
 10
1778.737
 20
1222.705
 30
0.0
 11
1751.713
 21
1233.899
 31
0.0
  0
LINE
  5
441
  8
5
  6
CONTINUOUS
 10
132.9856
 20
973.3225
 30
0.0
 11
155.0634
 21
951.2447
 31
0.0
  0
LINE
  5
442
  8
5
  6
CONTINUOUS
 10
211.4945
 20
946.1257
 30
0.0
 11
212.736
 21
947.3673
 31
0.0
  0
LINE
  5
443
  8
5
  6
CONTINUOUS
 10
458.2609
 20
946.1257
 30
0.0
 11
457.0193
 21
947.3673
 31
0.0
  0
LINE
  5
444
  8
5
  6
CONTINUOUS
 10
514.6919
 20
951.2447
 30
0.0
 11
536.7697
 21
973.3225
 31
0.0
  0
LINE
  5
445
  8
5
  6
CONTINUOUS
 10
108.8777
 20
1051.809
 30
0.0
 11
119.8777
 21
1051.809
 31
0.0
  0
LINE
  5
446
  8
5
  6
CONTINUOUS
 10
119.8777
 20
1054.809
 30
0.0
 11
108.8777
 21
1054.809
 31
0.0
  0
LINE
  5
447
  8
5
  6
CONTINUOUS
 10
220.1777
 20
939.9256
 30
0.0
 11
220.1777
 21
936.9089
 31
0.0
  0
LINE
  5
448
  8
5
  6
CONTINUOUS
 10
1042.178
 20
1450.586
 30
0.0
 11
1042.177
 21
1470.135
 31
0.0
  0
LINE
  5
449
  8
5
  6
CONTINUOUS
 10
1031.844
 20
1450.585
 30
0.0
 11
1042.178
 21
1450.586
 31
0.0
  0
LINE
  5
44A
  8
5
  6
CONTINUOUS
 10
1031.843
 20
1470.135
 30
0.0
 11
1031.844
 21
1450.585
 31
0.0
  0
LINE
  5
44B
  8
5
  6
CONTINUOUS
 10
1031.843
 20
1470.135
 30
0.0
 11
1042.177
 21
1470.135
 31
0.0
  0
LINE
  5
44C
  8
5
  6
CONTINUOUS
 10
1054.685
 20
1470.136
 30
0.0
 11
1043.752
 21
1470.135
 31
0.0
  0
ARC
  5
44D
  8
5
  6
CONTINUOUS
 10
1045.865
 20
1461.103
 30
0.0
 40
12.62499
 50
2.745839
 51
45.68309
  0
ARC
  5
44E
  8
5
  6
CONTINUOUS
 10
1047.354
 20
1461.707
 30
0.0
 40
11.12137
 50
270.0019
 51
0.0019
  0
LINE
  5
44F
  8
5
  6
CONTINUOUS
 10
1043.753
 20
1450.586
 30
0.0
 11
1047.354
 21
1450.586
 31
0.0
  0
LINE
  5
450
  8
5
  6
CONTINUOUS
 10
1043.752
 20
1470.135
 30
0.0
 11
1043.753
 21
1450.586
 31
0.0
  0
LINE
  5
451
  8
5
  6
CONTINUOUS
 10
1043.752
 20
1490.383
 30
0.0
 11
1043.752
 21
1471.71
 31
0.0
  0
LINE
  5
452
  8
5
  6
CONTINUOUS
 10
1047.353
 20
1490.383
 30
0.0
 11
1043.752
 21
1490.383
 31
0.0
  0
ARC
  5
453
  8
5
  6
CONTINUOUS
 10
1047.353
 20
1482.554
 30
0.0
 40
7.829616
 50
0.001947
 51
90.00195
  0
ARC
  5
454
  8
5
  6
CONTINUOUS
 10
1045.08
 20
1483.49
 30
0.0
 40
10.14607
 50
283.5581
 51
354.7072
  0
ARC
  5
455
  8
5
  6
CONTINUOUS
 10
1045.865
 20
1461.103
 30
0.0
 40
12.62499
 50
57.16491
 51
82.74766
  0
LINE
  5
456
  8
5
  6
CONTINUOUS
 10
1043.752
 20
1471.71
 30
0.0
 11
1052.711
 21
1471.711
 31
0.0
  0
LINE
  5
457
  8
5
  6
CONTINUOUS
 10
1031.843
 20
1490.383
 30
0.0
 11
1031.843
 21
1471.71
 31
0.0
  0
LINE
  5
458
  8
5
  6
CONTINUOUS
 10
1042.177
 20
1490.383
 30
0.0
 11
1031.843
 21
1490.383
 31
0.0
  0
LINE
  5
459
  8
5
  6
CONTINUOUS
 10
1042.177
 20
1471.71
 30
0.0
 11
1042.177
 21
1490.383
 31
0.0
  0
LINE
  5
45A
  8
5
  6
CONTINUOUS
 10
1031.843
 20
1471.71
 30
0.0
 11
1042.177
 21
1471.71
 31
0.0
  0
LINE
  5
45B
  8
5
  6
CONTINUOUS
 10
1009.517
 20
1490.382
 30
0.0
 11
1009.518
 21
1471.709
 31
0.0
  0
LINE
  5
45C
  8
5
  6
CONTINUOUS
 10
1013.119
 20
1490.382
 30
0.0
 11
1009.517
 21
1490.382
 31
0.0
  0
ARC
  5
45D
  8
5
  6
CONTINUOUS
 10
1013.119
 20
1482.553
 30
0.0
 40
7.829616
 50
0.001947
 51
90.00195
  0
ARC
  5
45E
  8
5
  6
CONTINUOUS
 10
1010.846
 20
1483.489
 30
0.0
 40
10.14607
 50
283.5581
 51
354.7072
  0
ARC
  5
45F
  8
5
  6
CONTINUOUS
 10
1011.631
 20
1461.101
 30
0.0
 40
12.62499
 50
57.16493
 51
82.74766
  0
LINE
  5
460
  8
5
  6
CONTINUOUS
 10
1009.518
 20
1471.709
 30
0.0
 11
1018.476
 21
1471.709
 31
0.0
  0
ARC
  5
461
  8
5
  6
CONTINUOUS
 10
1011.631
 20
1461.101
 30
0.0
 40
12.62499
 50
2.745839
 51
45.68318
  0
ARC
  5
462
  8
5
  6
CONTINUOUS
 10
1013.12
 20
1461.706
 30
0.0
 40
11.12137
 50
270.0019
 51
0.0019
  0
LINE
  5
463
  8
5
  6
CONTINUOUS
 10
1009.519
 20
1450.584
 30
0.0
 11
1013.12
 21
1450.584
 31
0.0
  0
LINE
  5
464
  8
5
  6
CONTINUOUS
 10
1009.518
 20
1470.134
 30
0.0
 11
1009.519
 21
1450.584
 31
0.0
  0
LINE
  5
465
  8
5
  6
CONTINUOUS
 10
1020.451
 20
1470.134
 30
0.0
 11
1009.518
 21
1470.134
 31
0.0
  0
LINE
  5
466
  8
5
  6
CONTINUOUS
 10
1007.944
 20
1450.584
 30
0.0
 11
1007.943
 21
1470.134
 31
0.0
  0
LINE
  5
467
  8
5
  6
CONTINUOUS
 10
997.6099
 20
1450.584
 30
0.0
 11
1007.944
 21
1450.584
 31
0.0
  0
LINE
  5
468
  8
5
  6
CONTINUOUS
 10
997.6092
 20
1470.134
 30
0.0
 11
997.6099
 21
1450.584
 31
0.0
  0
LINE
  5
469
  8
5
  6
CONTINUOUS
 10
1007.943
 20
1470.134
 30
0.0
 11
997.6092
 21
1470.134
 31
0.0
  0
LINE
  5
46A
  8
5
  6
CONTINUOUS
 10
1007.943
 20
1471.709
 30
0.0
 11
1007.942
 21
1490.382
 31
0.0
  0
LINE
  5
46B
  8
5
  6
CONTINUOUS
 10
997.6092
 20
1471.709
 30
0.0
 11
1007.943
 21
1471.709
 31
0.0
  0
LINE
  5
46C
  8
5
  6
CONTINUOUS
 10
997.6085
 20
1490.382
 30
0.0
 11
997.6092
 21
1471.709
 31
0.0
  0
LINE
  5
46D
  8
5
  6
CONTINUOUS
 10
1007.942
 20
1490.382
 30
0.0
 11
997.6085
 21
1490.382
 31
0.0
  0
LINE
  5
46E
  8
5
  6
CONTINUOUS
 10
989.8941
 20
1450.584
 30
0.0
 11
982.9153
 21
1470.133
 31
0.0
  0
LINE
  5
46F
  8
5
  6
CONTINUOUS
 10
982.7689
 20
1450.583
 30
0.0
 11
989.8941
 21
1450.584
 31
0.0
  0
LINE
  5
470
  8
5
  6
CONTINUOUS
 10
979.8888
 20
1458.651
 30
0.0
 11
982.7689
 21
1450.583
 31
0.0
  0
LINE
  5
471
  8
5
  6
CONTINUOUS
 10
971.3436
 20
1458.651
 30
0.0
 11
979.8888
 21
1458.651
 31
0.0
  0
LINE
  5
472
  8
5
  6
CONTINUOUS
 10
971.3433
 20
1470.133
 30
0.0
 11
971.3436
 21
1458.651
 31
0.0
  0
LINE
  5
473
  8
5
  6
CONTINUOUS
 10
982.9153
 20
1470.133
 30
0.0
 11
971.3433
 21
1470.133
 31
0.0
  0
LINE
  5
474
  8
5
  6
CONTINUOUS
 10
971.3425
 20
1490.381
 30
0.0
 11
971.3432
 21
1471.708
 31
0.0
  0
LINE
  5
475
  8
5
  6
CONTINUOUS
 10
975.6872
 20
1490.381
 30
0.0
 11
971.3425
 21
1490.381
 31
0.0
  0
LINE
  5
476
  8
5
  6
CONTINUOUS
 10
982.3531
 20
1471.708
 30
0.0
 11
975.6872
 21
1490.381
 31
0.0
  0
LINE
  5
477
  8
5
  6
CONTINUOUS
 10
971.3432
 20
1471.708
 30
0.0
 11
982.3531
 21
1471.708
 31
0.0
  0
LINE
  5
478
  8
5
  6
CONTINUOUS
 10
961.1856
 20
1458.651
 30
0.0
 11
969.7686
 21
1458.651
 31
0.0
  0
LINE
  5
479
  8
5
  6
CONTINUOUS
 10
958.418
 20
1450.583
 30
0.0
 11
961.1856
 21
1458.651
 31
0.0
  0
LINE
  5
47A
  8
5
  6
CONTINUOUS
 10
951.7708
 20
1450.582
 30
0.0
 11
958.418
 21
1450.583
 31
0.0
  0
LINE
  5
47B
  8
5
  6
CONTINUOUS
 10
958.4772
 20
1470.132
 30
0.0
 11
951.7708
 21
1450.582
 31
0.0
  0
LINE
  5
47C
  8
5
  6
CONTINUOUS
 10
969.7683
 20
1470.133
 30
0.0
 11
958.4772
 21
1470.132
 31
0.0
  0
LINE
  5
47D
  8
5
  6
CONTINUOUS
 10
969.7686
 20
1458.651
 30
0.0
 11
969.7683
 21
1470.133
 31
0.0
  0
LINE
  5
47E
  8
5
  6
CONTINUOUS
 10
969.7676
 20
1490.381
 30
0.0
 11
965.423
 21
1490.381
 31
0.0
  0
LINE
  5
47F
  8
5
  6
CONTINUOUS
 10
969.7683
 20
1471.708
 30
0.0
 11
969.7676
 21
1490.381
 31
0.0
  0
LINE
  5
480
  8
5
  6
CONTINUOUS
 10
959.0175
 20
1471.707
 30
0.0
 11
969.7683
 21
1471.708
 31
0.0
  0
LINE
  5
481
  8
5
  6
CONTINUOUS
 10
965.423
 20
1490.381
 30
0.0
 11
959.0175
 21
1471.707
 31
0.0
  0
LINE
  5
482
  8
5
  6
CONTINUOUS
 10
238.3776
 20
936.9089
 30
0.0
 11
238.3777
 21
939.409
 31
0.0
  0
LINE
  5
483
  8
5
  6
CONTINUOUS
 10
449.5777
 20
939.9256
 30
0.0
 11
449.5777
 21
936.9089
 31
0.0
  0
LINE
  5
484
  8
5
  6
CONTINUOUS
 10
431.3777
 20
939.409
 30
0.0
 11
431.3777
 21
936.9089
 31
0.0
  0
LINE
  5
485
  8
5
  6
CONTINUOUS
 10
317.6277
 20
939.409
 30
0.0
 11
317.6276
 21
936.9089
 31
0.0
  0
LINE
  5
486
  8
5
  6
CONTINUOUS
 10
334.8777
 20
936.9089
 30
0.0
 11
334.8777
 21
939.409
 31
0.0
  0
LINE
  5
487
  8
5
  6
CONTINUOUS
 10
285.3777
 20
939.409
 30
0.0
 11
285.3776
 21
936.9089
 31
0.0
  0
LINE
  5
488
  8
6
  6
CENTER
 10
1778.737
 20
1081.113
 30
0.0
 11
1751.713
 21
1069.919
 31
0.0
  0
LINE
  5
489
  8
6
  6
CENTER
 10
1878.858
 20
980.9913
 30
0.0
 11
1867.664
 21
953.9678
 31
0.0
  0
LINE
  5
48B
  8
5
  6
CONTINUOUS
 10
1601.512
 20
1344.596
 30
0.0
 11
1601.512
 21
1254.596
 31
0.0
  0
LINE
  5
48C
  8
5
  6
CONTINUOUS
 10
440.2848
 20
1169.162
 30
0.0
 11
440.284
 21
1188.712
 31
0.0
  0
LINE
  5
48D
  8
5
  6
CONTINUOUS
 10
429.9509
 20
1169.162
 30
0.0
 11
440.2848
 21
1169.162
 31
0.0
  0
LINE
  5
48E
  8
5
  6
CONTINUOUS
 10
429.9502
 20
1188.711
 30
0.0
 11
429.9509
 21
1169.162
 31
0.0
  0
LINE
  5
48F
  8
5
  6
CONTINUOUS
 10
429.9502
 20
1188.711
 30
0.0
 11
440.284
 21
1188.712
 31
0.0
  0
LINE
  5
490
  8
5
  6
CONTINUOUS
 10
452.7919
 20
1188.712
 30
0.0
 11
441.8591
 21
1188.712
 31
0.0
  0
ARC
  5
491
  8
5
  6
CONTINUOUS
 10
443.9718
 20
1179.679
 30
0.0
 40
12.62499
 50
2.745839
 51
45.68309
  0
ARC
  5
492
  8
5
  6
CONTINUOUS
 10
445.4609
 20
1180.284
 30
0.0
 40
11.12137
 50
270.0019
 51
0.0019
  0
LINE
  5
493
  8
5
  6
CONTINUOUS
 10
441.8599
 20
1169.162
 30
0.0
 11
445.4613
 21
1169.162
 31
0.0
  0
LINE
  5
494
  8
5
  6
CONTINUOUS
 10
441.8591
 20
1188.712
 30
0.0
 11
441.8599
 21
1169.162
 31
0.0
  0
LINE
  5
495
  8
5
  6
CONTINUOUS
 10
441.8584
 20
1208.96
 30
0.0
 11
441.8591
 21
1190.287
 31
0.0
  0
LINE
  5
496
  8
5
  6
CONTINUOUS
 10
445.4599
 20
1208.96
 30
0.0
 11
441.8584
 21
1208.96
 31
0.0
  0
ARC
  5
497
  8
5
  6
CONTINUOUS
 10
445.4602
 20
1201.13
 30
0.0
 40
7.829616
 50
0.001947
 51
90.00195
  0
ARC
  5
498
  8
5
  6
CONTINUOUS
 10
443.187
 20
1202.066
 30
0.0
 40
10.14607
 50
283.5581
 51
354.7072
  0
ARC
  5
499
  8
5
  6
CONTINUOUS
 10
443.9718
 20
1179.679
 30
0.0
 40
12.62499
 50
57.16491
 51
82.74766
  0
LINE
  5
49A
  8
5
  6
CONTINUOUS
 10
441.8591
 20
1190.287
 30
0.0
 11
450.8173
 21
1190.287
 31
0.0
  0
LINE
  5
49B
  8
5
  6
CONTINUOUS
 10
429.9496
 20
1208.959
 30
0.0
 11
429.9502
 21
1190.286
 31
0.0
  0
LINE
  5
49C
  8
5
  6
CONTINUOUS
 10
440.2834
 20
1208.96
 30
0.0
 11
429.9496
 21
1208.959
 31
0.0
  0
LINE
  5
49D
  8
5
  6
CONTINUOUS
 10
440.284
 20
1190.287
 30
0.0
 11
440.2834
 21
1208.96
 31
0.0
  0
LINE
  5
49E
  8
5
  6
CONTINUOUS
 10
429.9502
 20
1190.286
 30
0.0
 11
440.284
 21
1190.287
 31
0.0
  0
LINE
  5
49F
  8
5
  6
CONTINUOUS
 10
407.6243
 20
1208.959
 30
0.0
 11
407.6249
 21
1190.286
 31
0.0
  0
LINE
  5
4A0
  8
5
  6
CONTINUOUS
 10
411.2257
 20
1208.959
 30
0.0
 11
407.6243
 21
1208.959
 31
0.0
  0
ARC
  5
4A1
  8
5
  6
CONTINUOUS
 10
411.226
 20
1201.129
 30
0.0
 40
7.829616
 50
0.001947
 51
90.00195
  0
ARC
  5
4A2
  8
5
  6
CONTINUOUS
 10
408.9528
 20
1202.065
 30
0.0
 40
10.14607
 50
283.5581
 51
354.7072
  0
ARC
  5
4A3
  8
5
  6
CONTINUOUS
 10
409.7376
 20
1179.678
 30
0.0
 40
12.62499
 50
57.16493
 51
82.74766
  0
LINE
  5
4A4
  8
5
  6
CONTINUOUS
 10
407.6249
 20
1190.286
 30
0.0
 11
416.5831
 21
1190.286
 31
0.0
  0
ARC
  5
4A5
  8
5
  6
CONTINUOUS
 10
409.7376
 20
1179.678
 30
0.0
 40
12.62499
 50
2.745839
 51
45.68318
  0
ARC
  5
4A6
  8
5
  6
CONTINUOUS
 10
411.2267
 20
1180.282
 30
0.0
 40
11.12137
 50
270.0019
 51
0.0019
  0
LINE
  5
4A7
  8
5
  6
CONTINUOUS
 10
407.6255
 20
1169.161
 30
0.0
 11
411.2271
 21
1169.161
 31
0.0
  0
LINE
  5
4A8
  8
5
  6
CONTINUOUS
 10
407.6249
 20
1188.711
 30
0.0
 11
407.6255
 21
1169.161
 31
0.0
  0
LINE
  5
4A9
  8
5
  6
CONTINUOUS
 10
418.5577
 20
1188.711
 30
0.0
 11
407.6249
 21
1188.711
 31
0.0
  0
LINE
  5
4AA
  8
5
  6
CONTINUOUS
 10
406.0507
 20
1169.161
 30
0.0
 11
406.0499
 21
1188.711
 31
0.0
  0
LINE
  5
4AB
  8
5
  6
CONTINUOUS
 10
395.7167
 20
1169.161
 30
0.0
 11
406.0507
 21
1169.161
 31
0.0
  0
LINE
  5
4AC
  8
5
  6
CONTINUOUS
 10
395.716
 20
1188.71
 30
0.0
 11
395.7167
 21
1169.161
 31
0.0
  0
LINE
  5
4AD
  8
5
  6
CONTINUOUS
 10
406.0499
 20
1188.711
 30
0.0
 11
395.716
 21
1188.71
 31
0.0
  0
LINE
  5
4AE
  8
5
  6
CONTINUOUS
 10
406.0499
 20
1190.286
 30
0.0
 11
406.0492
 21
1208.959
 31
0.0
  0
LINE
  5
4AF
  8
5
  6
CONTINUOUS
 10
395.716
 20
1190.285
 30
0.0
 11
406.0499
 21
1190.286
 31
0.0
  0
LINE
  5
4B0
  8
5
  6
CONTINUOUS
 10
395.7154
 20
1208.958
 30
0.0
 11
395.716
 21
1190.285
 31
0.0
  0
LINE
  5
4B1
  8
5
  6
CONTINUOUS
 10
406.0492
 20
1208.959
 30
0.0
 11
395.7154
 21
1208.958
 31
0.0
  0
LINE
  5
4B2
  8
5
  6
CONTINUOUS
 10
388.0009
 20
1169.16
 30
0.0
 11
381.0221
 21
1188.71
 31
0.0
  0
LINE
  5
4B3
  8
5
  6
CONTINUOUS
 10
380.8757
 20
1169.16
 30
0.0
 11
388.0009
 21
1169.16
 31
0.0
  0
LINE
  5
4B4
  8
5
  6
CONTINUOUS
 10
377.9956
 20
1177.228
 30
0.0
 11
380.8757
 21
1169.16
 31
0.0
  0
LINE
  5
4B5
  8
5
  6
CONTINUOUS
 10
369.4505
 20
1177.228
 30
0.0
 11
377.9956
 21
1177.228
 31
0.0
  0
LINE
  5
4B6
  8
5
  6
CONTINUOUS
 10
369.4501
 20
1188.709
 30
0.0
 11
369.4505
 21
1177.228
 31
0.0
  0
LINE
  5
4B7
  8
5
  6
CONTINUOUS
 10
381.0221
 20
1188.71
 30
0.0
 11
369.4501
 21
1188.709
 31
0.0
  0
LINE
  5
4B8
  8
5
  6
CONTINUOUS
 10
369.4494
 20
1208.957
 30
0.0
 11
369.45
 21
1190.284
 31
0.0
  0
LINE
  5
4B9
  8
5
  6
CONTINUOUS
 10
373.7941
 20
1208.957
 30
0.0
 11
369.4494
 21
1208.957
 31
0.0
  0
LINE
  5
4BA
  8
5
  6
CONTINUOUS
 10
380.4599
 20
1190.285
 30
0.0
 11
373.7941
 21
1208.957
 31
0.0
  0
LINE
  5
4BB
  8
5
  6
CONTINUOUS
 10
369.45
 20
1190.284
 30
0.0
 11
380.4599
 21
1190.285
 31
0.0
  0
LINE
  5
4BC
  8
5
  6
CONTINUOUS
 10
359.2925
 20
1177.227
 30
0.0
 11
367.8754
 21
1177.228
 31
0.0
  0
LINE
  5
4BD
  8
5
  6
CONTINUOUS
 10
356.5248
 20
1169.159
 30
0.0
 11
359.2925
 21
1177.227
 31
0.0
  0
LINE
  5
4BE
  8
5
  6
CONTINUOUS
 10
349.8776
 20
1169.159
 30
0.0
 11
356.5248
 21
1169.159
 31
0.0
  0
LINE
  5
4BF
  8
5
  6
CONTINUOUS
 10
356.584
 20
1188.709
 30
0.0
 11
349.8776
 21
1169.159
 31
0.0
  0
LINE
  5
4C0
  8
5
  6
CONTINUOUS
 10
367.8751
 20
1188.709
 30
0.0
 11
356.584
 21
1188.709
 31
0.0
  0
LINE
  5
4C1
  8
5
  6
CONTINUOUS
 10
367.8754
 20
1177.228
 30
0.0
 11
367.8751
 21
1188.709
 31
0.0
  0
LINE
  5
4C2
  8
5
  6
CONTINUOUS
 10
367.8744
 20
1208.957
 30
0.0
 11
363.5298
 21
1208.957
 31
0.0
  0
LINE
  5
4C3
  8
5
  6
CONTINUOUS
 10
367.8751
 20
1190.284
 30
0.0
 11
367.8744
 21
1208.957
 31
0.0
  0
LINE
  5
4C4
  8
5
  6
CONTINUOUS
 10
357.1243
 20
1190.284
 30
0.0
 11
367.8751
 21
1190.284
 31
0.0
  0
LINE
  5
4C5
  8
5
  6
CONTINUOUS
 10
363.5298
 20
1208.957
 30
0.0
 11
357.1243
 21
1190.284
 31
0.0
  0
LINE
  5
4C6
  8
5
  6
CONTINUOUS
 10
1975.171
 20
1502.548
 30
0.0
 11
1975.171
 21
1517.21
 31
0.0
  0
LINE
  5
4C7
  8
5
  6
CONTINUOUS
 10
1967.421
 20
1502.547
 30
0.0
 11
1975.171
 21
1502.548
 31
0.0
  0
LINE
  5
4C8
  8
5
  6
CONTINUOUS
 10
1967.42
 20
1517.21
 30
0.0
 11
1967.421
 21
1502.547
 31
0.0
  0
LINE
  5
4C9
  8
5
  6
CONTINUOUS
 10
1967.42
 20
1517.21
 30
0.0
 11
1975.171
 21
1517.21
 31
0.0
  0
LINE
  5
4CA
  8
5
  6
CONTINUOUS
 10
1984.552
 20
1517.21
 30
0.0
 11
1976.352
 21
1517.21
 31
0.0
  0
ARC
  5
4CB
  8
5
  6
CONTINUOUS
 10
1977.937
 20
1510.435
 30
0.0
 40
9.468742
 50
2.745839
 51
45.68309
  0
ARC
  5
4CC
  8
5
  6
CONTINUOUS
 10
1979.053
 20
1510.889
 30
0.0
 40
8.341025
 50
270.0019
 51
0.0019
  0
LINE
  5
4CD
  8
5
  6
CONTINUOUS
 10
1976.353
 20
1502.548
 30
0.0
 11
1979.054
 21
1502.548
 31
0.0
  0
LINE
  5
4CE
  8
5
  6
CONTINUOUS
 10
1976.352
 20
1517.21
 30
0.0
 11
1976.353
 21
1502.548
 31
0.0
  0
LINE
  5
4CF
  8
5
  6
CONTINUOUS
 10
1976.351
 20
1532.396
 30
0.0
 11
1976.352
 21
1518.391
 31
0.0
  0
LINE
  5
4D0
  8
5
  6
CONTINUOUS
 10
1979.053
 20
1532.396
 30
0.0
 11
1976.351
 21
1532.396
 31
0.0
  0
ARC
  5
4D1
  8
5
  6
CONTINUOUS
 10
1979.053
 20
1526.524
 30
0.0
 40
5.872212
 50
0.001947
 51
90.00195
  0
ARC
  5
4D2
  8
5
  6
CONTINUOUS
 10
1977.348
 20
1527.226
 30
0.0
 40
7.609554
 50
283.5581
 51
354.7072
  0
ARC
  5
4D3
  8
5
  6
CONTINUOUS
 10
1977.937
 20
1510.435
 30
0.0
 40
9.468742
 50
57.16491
 51
82.74766
  0
LINE
  5
4D4
  8
5
  6
CONTINUOUS
 10
1976.352
 20
1518.391
 30
0.0
 11
1983.071
 21
1518.391
 31
0.0
  0
LINE
  5
4D5
  8
5
  6
CONTINUOUS
 10
1967.42
 20
1532.396
 30
0.0
 11
1967.42
 21
1518.391
 31
0.0
  0
LINE
  5
4D6
  8
5
  6
CONTINUOUS
 10
1975.17
 20
1532.396
 30
0.0
 11
1967.42
 21
1532.396
 31
0.0
  0
LINE
  5
4D7
  8
5
  6
CONTINUOUS
 10
1975.171
 20
1518.391
 30
0.0
 11
1975.17
 21
1532.396
 31
0.0
  0
LINE
  5
4D8
  8
5
  6
CONTINUOUS
 10
1967.42
 20
1518.391
 30
0.0
 11
1975.171
 21
1518.391
 31
0.0
  0
LINE
  5
4D9
  8
5
  6
CONTINUOUS
 10
1950.676
 20
1532.395
 30
0.0
 11
1950.676
 21
1518.39
 31
0.0
  0
LINE
  5
4DA
  8
5
  6
CONTINUOUS
 10
1953.377
 20
1532.395
 30
0.0
 11
1950.676
 21
1532.395
 31
0.0
  0
ARC
  5
4DB
  8
5
  6
CONTINUOUS
 10
1953.377
 20
1526.523
 30
0.0
 40
5.872212
 50
0.001947
 51
90.00195
  0
ARC
  5
4DC
  8
5
  6
CONTINUOUS
 10
1951.672
 20
1527.225
 30
0.0
 40
7.609554
 50
283.5581
 51
354.7072
  0
ARC
  5
4DD
  8
5
  6
CONTINUOUS
 10
1952.261
 20
1510.435
 30
0.0
 40
9.468742
 50
57.16493
 51
82.74766
  0
LINE
  5
4DE
  8
5
  6
CONTINUOUS
 10
1950.676
 20
1518.39
 30
0.0
 11
1957.395
 21
1518.391
 31
0.0
  0
ARC
  5
4DF
  8
5
  6
CONTINUOUS
 10
1952.261
 20
1510.435
 30
0.0
 40
9.468742
 50
2.745839
 51
45.68318
  0
ARC
  5
4E0
  8
5
  6
CONTINUOUS
 10
1953.378
 20
1510.888
 30
0.0
 40
8.341025
 50
270.0019
 51
0.0019
  0
LINE
  5
4E1
  8
5
  6
CONTINUOUS
 10
1950.677
 20
1502.547
 30
0.0
 11
1953.378
 21
1502.547
 31
0.0
  0
LINE
  5
4E2
  8
5
  6
CONTINUOUS
 10
1950.676
 20
1517.209
 30
0.0
 11
1950.677
 21
1502.547
 31
0.0
  0
LINE
  5
4E3
  8
5
  6
CONTINUOUS
 10
1958.876
 20
1517.209
 30
0.0
 11
1950.676
 21
1517.209
 31
0.0
  0
LINE
  5
4E4
  8
5
  6
CONTINUOUS
 10
1949.496
 20
1502.547
 30
0.0
 11
1949.495
 21
1517.209
 31
0.0
  0
LINE
  5
4E5
  8
5
  6
CONTINUOUS
 10
1941.745
 20
1502.547
 30
0.0
 11
1949.496
 21
1502.547
 31
0.0
  0
LINE
  5
4E6
  8
5
  6
CONTINUOUS
 10
1941.745
 20
1517.209
 30
0.0
 11
1941.745
 21
1502.547
 31
0.0
  0
LINE
  5
4E7
  8
5
  6
CONTINUOUS
 10
1949.495
 20
1517.209
 30
0.0
 11
1941.745
 21
1517.209
 31
0.0
  0
LINE
  5
4E8
  8
5
  6
CONTINUOUS
 10
1949.495
 20
1518.39
 30
0.0
 11
1949.495
 21
1532.395
 31
0.0
  0
LINE
  5
4E9
  8
5
  6
CONTINUOUS
 10
1941.745
 20
1518.39
 30
0.0
 11
1949.495
 21
1518.39
 31
0.0
  0
LINE
  5
4EA
  8
5
  6
CONTINUOUS
 10
1941.744
 20
1532.395
 30
0.0
 11
1941.745
 21
1518.39
 31
0.0
  0
LINE
  5
4EB
  8
5
  6
CONTINUOUS
 10
1949.495
 20
1532.395
 30
0.0
 11
1941.744
 21
1532.395
 31
0.0
  0
LINE
  5
4EC
  8
5
  6
CONTINUOUS
 10
1935.958
 20
1502.546
 30
0.0
 11
1930.724
 21
1517.208
 31
0.0
  0
LINE
  5
4ED
  8
5
  6
CONTINUOUS
 10
1930.614
 20
1502.546
 30
0.0
 11
1935.958
 21
1502.546
 31
0.0
  0
LINE
  5
4EE
  8
5
  6
CONTINUOUS
 10
1928.454
 20
1508.597
 30
0.0
 11
1930.614
 21
1502.546
 31
0.0
  0
LINE
  5
4EF
  8
5
  6
CONTINUOUS
 10
1922.046
 20
1508.597
 30
0.0
 11
1928.454
 21
1508.597
 31
0.0
  0
LINE
  5
4F0
  8
5
  6
CONTINUOUS
 10
1922.045
 20
1517.208
 30
0.0
 11
1922.046
 21
1508.597
 31
0.0
  0
LINE
  5
4F1
  8
5
  6
CONTINUOUS
 10
1930.724
 20
1517.208
 30
0.0
 11
1922.045
 21
1517.208
 31
0.0
  0
LINE
  5
4F2
  8
5
  6
CONTINUOUS
 10
1922.045
 20
1532.394
 30
0.0
 11
1922.045
 21
1518.389
 31
0.0
  0
LINE
  5
4F3
  8
5
  6
CONTINUOUS
 10
1925.303
 20
1532.394
 30
0.0
 11
1922.045
 21
1532.394
 31
0.0
  0
LINE
  5
4F4
  8
5
  6
CONTINUOUS
 10
1930.303
 20
1518.39
 30
0.0
 11
1925.303
 21
1532.394
 31
0.0
  0
LINE
  5
4F5
  8
5
  6
CONTINUOUS
 10
1922.045
 20
1518.389
 30
0.0
 11
1930.303
 21
1518.39
 31
0.0
  0
LINE
  5
4F6
  8
5
  6
CONTINUOUS
 10
1914.427
 20
1508.597
 30
0.0
 11
1920.864
 21
1508.597
 31
0.0
  0
LINE
  5
4F7
  8
5
  6
CONTINUOUS
 10
1912.351
 20
1502.546
 30
0.0
 11
1914.427
 21
1508.597
 31
0.0
  0
LINE
  5
4F8
  8
5
  6
CONTINUOUS
 10
1907.366
 20
1502.545
 30
0.0
 11
1912.351
 21
1502.546
 31
0.0
  0
LINE
  5
4F9
  8
5
  6
CONTINUOUS
 10
1912.396
 20
1517.208
 30
0.0
 11
1907.366
 21
1502.545
 31
0.0
  0
LINE
  5
4FA
  8
5
  6
CONTINUOUS
 10
1920.864
 20
1517.208
 30
0.0
 11
1912.396
 21
1517.208
 31
0.0
  0
LINE
  5
4FB
  8
5
  6
CONTINUOUS
 10
1920.864
 20
1508.597
 30
0.0
 11
1920.864
 21
1517.208
 31
0.0
  0
LINE
  5
4FC
  8
5
  6
CONTINUOUS
 10
1920.863
 20
1532.394
 30
0.0
 11
1917.605
 21
1532.394
 31
0.0
  0
LINE
  5
4FD
  8
5
  6
CONTINUOUS
 10
1920.864
 20
1518.389
 30
0.0
 11
1920.863
 21
1532.394
 31
0.0
  0
LINE
  5
4FE
  8
5
  6
CONTINUOUS
 10
1912.801
 20
1518.389
 30
0.0
 11
1920.864
 21
1518.389
 31
0.0
  0
LINE
  5
4FF
  8
5
  6
CONTINUOUS
 10
1917.605
 20
1532.394
 30
0.0
 11
1912.801
 21
1518.389
 31
0.0
  0
LINE
  5
501
  8
5
  6
CONTINUOUS
 10
300.3776
 20
936.9089
 30
0.0
 11
300.3777
 21
939.409
 31
0.0
  0
LINE
  5
504
  8
5
  6
CONTINUOUS
 10
255.3777
 20
939.409
 30
0.0
 11
255.3776
 21
936.9089
 31
0.0
  0
LINE
  5
505
  8
5
  6
CONTINUOUS
 10
270.3776
 20
936.9089
 30
0.0
 11
270.3777
 21
939.409
 31
0.0
  0
LINE
  5
506
  8
5
  6
CONTINUOUS
 10
352.1277
 20
939.409
 30
0.0
 11
352.1277
 21
936.9089
 31
0.0
  0
LINE
  5
50A
  8
5
  6
CONTINUOUS
 10
369.3776
 20
936.9089
 30
0.0
 11
369.3777
 21
939.409
 31
0.0
  0
LINE
  5
511
  8
5
  6
CONTINUOUS
 10
384.3777
 20
939.409
 30
0.0
 11
384.3776
 21
936.9089
 31
0.0
  0
LINE
  5
513
  8
5
  6
CONTINUOUS
 10
399.3776
 20
936.9089
 30
0.0
 11
399.3777
 21
939.409
 31
0.0
  0
LINE
  5
51C
  8
6
  6
CENTER
 10
625.5116
 20
1151.909
 30
0.0
 11
1546.012
 21
1151.909
 31
0.0
  0
LINE
  5
51D
  8
6
  6
CENTER
 10
625.5116
 20
392.7361
 30
0.0
 11
901.0079
 21
392.7361
 31
0.0
  0
LINE
  5
51E
  8
5
  6
CENTER
 10
264.2889
 20
1134.659
 30
0.0
 11
264.2889
 21
1099.156
 31
0.0
  0
LINE
  5
51F
  8
5
  6
CONTINUOUS
 10
414.3777
 20
939.409
 30
0.0
 11
414.3777
 21
936.9089
 31
0.0
  0
LINE
  5
520
  8
5
  6
CONTINUOUS
 10
897.5116
 20
201.2361
 30
0.0
 11
1124.512
 21
201.2361
 31
0.0
  0
LINE
  5
521
  8
5
  6
CONTINUOUS
 10
897.5116
 20
230.2361
 30
0.0
 11
851.5116
 21
230.2361
 31
0.0
  0
LINE
  5
522
  8
5
  6
CONTINUOUS
 10
785.5116
 20
1326.909
 30
0.0
 11
785.5116
 21
976.909
 31
0.0
  0
CIRCLE
  5
523
  8
5
  6
CONTINUOUS
 10
812.0116
 20
1053.309
 30
0.0
 40
1.5
  0
LINE
  5
524
  8
5
  6
CONTINUOUS
 10
264.2889
 20
1134.659
 30
0.0
 11
264.2889
 21
1099.156
 31
0.0
  0
LINE
  5
525
  8
5
  6
CENTER
 10
274.2889
 20
1134.659
 30
0.0
 11
274.2889
 21
1076.727
 31
0.0
  0
LINE
  5
526
  8
5
  6
CONTINUOUS
 10
274.2889
 20
1134.659
 30
0.0
 11
274.2889
 21
1077.096
 31
0.0
  0
LINE
  5
527
  8
5
  6
CENTER
 10
284.2889
 20
1134.659
 30
0.0
 11
284.2889
 21
1063.909
 31
0.0
  0
LINE
  5
528
  8
5
  6
CONTINUOUS
 10
284.2889
 20
1134.659
 30
0.0
 11
284.2889
 21
1063.909
 31
0.0
  0
LINE
  5
529
  8
5
  6
CENTER
 10
294.2889
 20
1134.659
 30
0.0
 11
294.2889
 21
1063.909
 31
0.0
  0
LINE
  5
52A
  8
5
  6
CONTINUOUS
 10
294.2889
 20
1134.659
 30
0.0
 11
294.2889
 21
1063.909
 31
0.0
  0
LINE
  5
52B
  8
5
  6
CENTER
 10
304.2889
 20
1134.659
 30
0.0
 11
304.2889
 21
1063.909
 31
0.0
  0
LINE
  5
52C
  8
5
  6
CONTINUOUS
 10
304.2889
 20
1134.659
 30
0.0
 11
304.2889
 21
1063.909
 31
0.0
  0
LINE
  5
52D
  8
5
  6
CENTER
 10
314.2889
 20
1134.659
 30
0.0
 11
314.2889
 21
1063.909
 31
0.0
  0
LINE
  5
52E
  8
5
  6
CONTINUOUS
 10
314.2889
 20
1134.659
 30
0.0
 11
314.2889
 21
1063.909
 31
0.0
  0
LINE
  5
52F
  8
5
  6
CONTINUOUS
 10
276.7923
 20
1074.684
 30
0.0
 11
324.4335
 21
1074.684
 31
0.0
  0
LINE
  5
530
  8
5
  6
CONTINUOUS
 10
277.2836
 20
1074.684
 30
0.0
 11
324.4335
 21
1074.684
 31
0.0
  0
LINE
  5
531
  8
5
  6
CONTINUOUS
 10
264.2889
 20
1084.684
 30
0.0
 11
324.4335
 21
1084.684
 31
0.0
  0
LINE
  5
532
  8
5
  6
CONTINUOUS
 10
264.2889
 20
1084.684
 30
0.0
 11
324.4335
 21
1084.684
 31
0.0
  0
LINE
  5
533
  8
5
  6
CONTINUOUS
 10
260.6659
 20
1094.684
 30
0.0
 11
324.4335
 21
1094.684
 31
0.0
  0
LINE
  5
534
  8
5
  6
CONTINUOUS
 10
264.6559
 20
1094.684
 30
0.0
 11
324.4335
 21
1094.684
 31
0.0
  0
LINE
  5
535
  8
5
  6
CONTINUOUS
 10
253.7971
 20
1104.684
 30
0.0
 11
324.4335
 21
1104.684
 31
0.0
  0
LINE
  5
536
  8
5
  6
CONTINUOUS
 10
254.5507
 20
1104.684
 30
0.0
 11
324.4335
 21
1104.684
 31
0.0
  0
LINE
  5
537
  8
5
  6
CONTINUOUS
 10
254.0483
 20
1114.684
 30
0.0
 11
324.4335
 21
1114.684
 31
0.0
  0
LINE
  5
538
  8
5
  6
CONTINUOUS
 10
254.0483
 20
1114.684
 30
0.0
 11
324.4335
 21
1114.684
 31
0.0
  0
LINE
  5
539
  8
5
  6
CONTINUOUS
 10
255.0532
 20
1124.684
 30
0.0
 11
324.4335
 21
1124.684
 31
0.0
  0
LINE
  5
53A
  8
5
  6
CONTINUOUS
 10
255.0532
 20
1124.684
 30
0.0
 11
324.4335
 21
1124.684
 31
0.0
  0
LINE
  5
53B
  8
5
  6
CONTINUOUS
 10
1320.512
 20
1038.009
 30
0.0
 11
1320.512
 21
1019.009
 31
0.0
  0
LINE
  5
53C
  8
5
  6
CONTINUOUS
 10
1320.512
 20
1266.609
 30
0.0
 11
1320.512
 21
1284.809
 31
0.0
  0
LINE
  5
53D
  8
5
  6
CONTINUOUS
 10
1320.512
 20
1038.009
 30
0.0
 11
1322.946
 21
1038.009
 31
0.0
  0
LINE
  5
53E
  8
5
  6
CONTINUOUS
 10
890.5117
 20
1038.009
 30
0.0
 11
888.0777
 21
1038.009
 31
0.0
  0
LINE
  5
53F
  8
5
  6
CONTINUOUS
 10
890.5116
 20
1038.009
 30
0.0
 11
890.5116
 21
1019.009
 31
0.0
  0
LINE
  5
540
  8
5
  6
CONTINUOUS
 10
890.5117
 20
1266.609
 30
0.0
 11
890.5116
 21
1284.809
 31
0.0
  0
LINE
  5
541
  8
5
  6
CONTINUOUS
 10
1320.512
 20
588.7361
 30
0.0
 11
1320.512
 21
607.7361
 31
0.0
  0
LINE
  5
542
  8
5
  6
CONTINUOUS
 10
1320.512
 20
588.7361
 30
0.0
 11
1322.946
 21
588.7361
 31
0.0
  0
LINE
  5
543
  8
5
  6
CONTINUOUS
 10
1320.512
 20
196.7361
 30
0.0
 11
1320.512
 21
177.7361
 31
0.0
  0
LINE
  5
544
  8
5
  6
CONTINUOUS
 10
1320.512
 20
196.7361
 30
0.0
 11
1322.946
 21
196.7361
 31
0.0
  0
LINE
  5
545
  8
5
  6
CONTINUOUS
 10
890.5116
 20
588.7361
 30
0.0
 11
890.5116
 21
607.7361
 31
0.0
  0
LINE
  5
546
  8
5
  6
CONTINUOUS
 10
890.5116
 20
588.7361
 30
0.0
 11
888.0777
 21
588.7361
 31
0.0
  0
LINE
  5
547
  8
5
  6
CONTINUOUS
 10
890.5116
 20
196.7361
 30
0.0
 11
890.5116
 21
177.7361
 31
0.0
  0
LINE
  5
548
  8
5
  6
CONTINUOUS
 10
890.5116
 20
196.7361
 30
0.0
 11
888.0777
 21
196.7361
 31
0.0
  0
LINE
  5
549
  8
5
  6
CONTINUOUS
 10
1170.512
 20
230.2361
 30
0.0
 11
1124.512
 21
230.2361
 31
0.0
  0
LINE
  5
54A
  8
5
  6
CONTINUOUS
 10
897.5116
 20
264.305
 30
0.0
 11
897.5116
 21
201.2361
 31
0.0
  0
LINE
  5
54B
  8
5
  6
CONTINUOUS
 10
1124.512
 20
201.2361
 30
0.0
 11
1124.512
 21
264.305
 31
0.0
  0
LINE
  5
54C
  8
5
  6
CONTINUOUS
 10
880.0116
 20
230.2361
 30
0.0
 11
880.0116
 21
200.7362
 31
0.0
  0
LINE
  5
54D
  8
5
  6
CONTINUOUS
 10
887.5653
 20
584.7361
 30
0.0
 11
880.0116
 21
584.7361
 31
0.0
  0
LINE
  5
54E
  8
5
  6
CONTINUOUS
 10
885.8487
 20
214.136
 30
0.0
 11
885.8487
 21
226.7489
 31
0.0
  0
LINE
  5
54F
  8
5
  6
CONTINUOUS
 10
890.5116
 20
230.2361
 30
0.0
 11
890.5117
 21
196.7362
 31
0.0
  0
LINE
  5
550
  8
5
  6
CONTINUOUS
 10
890.5117
 20
196.7362
 30
0.0
 11
1207.119
 21
196.7361
 31
0.0
  0
LINE
  5
551
  8
5
  6
CONTINUOUS
 10
901.0117
 20
279.7286
 30
0.0
 11
1121.012
 21
279.7286
 31
0.0
  0
LINE
  5
552
  8
5
  6
CONTINUOUS
 10
1121.012
 20
279.7286
 30
0.0
 11
1121.012
 21
502.7435
 31
0.0
  0
LINE
  5
553
  8
5
  6
CONTINUOUS
 10
1121.012
 20
502.7435
 30
0.0
 11
901.0043
 21
502.7361
 31
0.0
  0
LINE
  5
554
  8
5
  6
CONTINUOUS
 10
901.0043
 20
502.7361
 30
0.0
 11
901.0117
 21
279.7286
 31
0.0
  0
LINE
  5
555
  8
5
  6
CONTINUOUS
 10
1170.512
 20
502.7361
 30
0.0
 11
1121.012
 21
552.2361
 31
0.0
  0
LINE
  5
556
  8
5
  6
CONTINUOUS
 10
901.0116
 20
552.2361
 30
0.0
 11
851.5116
 21
502.7361
 31
0.0
  0
LINE
  5
557
  8
5
  6
CONTINUOUS
 10
1121.012
 20
502.7435
 30
0.0
 11
1121.012
 21
552.2361
 31
0.0
  0
LINE
  5
558
  8
5
  6
CONTINUOUS
 10
1170.512
 20
502.7361
 30
0.0
 11
1121.012
 21
502.7435
 31
0.0
  0
LINE
  5
559
  8
5
  6
CONTINUOUS
 10
1121.012
 20
279.7286
 30
0.0
 11
1170.512
 21
279.7361
 31
0.0
  0
LINE
  5
55A
  8
5
  6
CONTINUOUS
 10
901.0043
 20
502.7361
 30
0.0
 11
851.5116
 21
502.7361
 31
0.0
  0
LINE
  5
55B
  8
5
  6
CONTINUOUS
 10
901.0116
 20
552.2361
 30
0.0
 11
901.0043
 21
502.7361
 31
0.0
  0
LINE
  5
55C
  8
5
  6
CONTINUOUS
 10
851.5116
 20
279.7361
 30
0.0
 11
901.0117
 21
279.7286
 31
0.0
  0
LINE
  5
55D
  8
5
  6
CONTINUOUS
 10
1124.512
 20
233.736
 30
0.0
 11
1170.512
 21
279.7361
 31
0.0
  0
LINE
  5
55E
  8
5
  6
CONTINUOUS
 10
851.5116
 20
279.7361
 30
0.0
 11
897.5115
 21
233.736
 31
0.0
  0
LINE
  5
55F
  8
5
  6
CONTINUOUS
 10
1121.012
 20
260.8073
 30
0.0
 11
1121.012
 21
279.7286
 31
0.0
  0
LINE
  5
560
  8
5
  6
CONTINUOUS
 10
1121.012
 20
260.8073
 30
0.0
 11
1124.512
 21
264.305
 31
0.0
  0
LINE
  5
561
  8
5
  6
CONTINUOUS
 10
897.5116
 20
264.305
 30
0.0
 11
901.0117
 21
260.8073
 31
0.0
  0
LINE
  5
562
  8
5
  6
CONTINUOUS
 10
901.0117
 20
279.7286
 30
0.0
 11
901.0117
 21
260.8073
 31
0.0
  0
LINE
  5
563
  8
5
  6
CONTINUOUS
 10
901.0117
 20
260.8073
 30
0.0
 11
1121.012
 21
260.8073
 31
0.0
  0
LINE
  5
564
  8
5
  6
CONTINUOUS
 10
880.0116
 20
200.7362
 30
0.0
 11
887.5652
 21
200.7362
 31
0.0
  0
LINE
  5
565
  8
5
  6
CONTINUOUS
 10
1320.512
 20
936.909
 30
0.0
 11
890.5116
 21
936.909
 31
0.0
  0
LINE
  5
566
  8
5
  6
CONTINUOUS
 10
888.2186
 20
954.809
 30
0.0
 11
885.8871
 21
973.009
 31
0.0
  0
LINE
  5
567
  8
5
  6
CONTINUOUS
 10
890.5116
 20
936.909
 30
0.0
 11
889.3309
 21
946.1258
 31
0.0
  0
LINE
  5
568
  8
5
  6
CONTINUOUS
 10
889.3309
 20
946.1258
 30
0.0
 11
888.2186
 21
954.809
 31
0.0
  0
LINE
  5
569
  8
5
  6
CONTINUOUS
 10
885.8871
 20
973.009
 30
0.0
 11
884.819
 21
981.3469
 31
0.0
  0
LINE
  5
56A
  8
5
  6
CONTINUOUS
 10
1322.805
 20
954.809
 30
0.0
 11
1325.136
 21
973.009
 31
0.0
  0
LINE
  5
56B
  8
5
  6
CONTINUOUS
 10
1321.692
 20
946.1258
 30
0.0
 11
1322.805
 21
954.809
 31
0.0
  0
LINE
  5
56C
  8
5
  6
CONTINUOUS
 10
1321.692
 20
946.1258
 30
0.0
 11
1320.512
 21
936.909
 31
0.0
  0
LINE
  5
56D
  8
5
  6
CONTINUOUS
 10
1325.136
 20
973.009
 30
0.0
 11
1326.204
 21
981.3469
 31
0.0
  0
LINE
  5
56E
  8
5
  6
CONTINUOUS
 10
806.5116
 20
1376.909
 30
0.0
 11
806.5116
 21
926.909
 31
0.0
  0
LINE
  5
56F
  8
5
  6
CONTINUOUS
 10
790.5116
 20
926.909
 30
0.0
 11
790.5116
 21
1376.909
 31
0.0
  0
LINE
  5
570
  8
5
  6
CONTINUOUS
 10
880.0116
 20
1343.909
 30
0.0
 11
806.5116
 21
1341.342
 31
0.0
  0
LINE
  5
571
  8
5
  6
CONTINUOUS
 10
806.5116
 20
962.4757
 30
0.0
 11
880.0116
 21
959.9091
 31
0.0
  0
LINE
  5
572
  8
5
  6
CONTINUOUS
 10
880.0116
 20
1151.909
 30
0.0
 11
880.0116
 21
959.9091
 31
0.0
  0
LINE
  5
573
  8
5
  6
CONTINUOUS
 10
880.0116
 20
1343.909
 30
0.0
 11
880.0116
 21
1151.909
 31
0.0
  0
LINE
  5
574
  8
5
  6
CONTINUOUS
 10
975.5116
 20
1019.009
 30
0.0
 11
975.5116
 21
992.792
 31
0.0
  0
LINE
  5
575
  8
5
  6
CONTINUOUS
 10
975.5116
 20
992.792
 30
0.0
 11
967.5117
 21
985.7248
 31
0.0
  0
LINE
  5
576
  8
5
  6
CONTINUOUS
 10
967.5117
 20
985.7248
 30
0.0
 11
947.5117
 21
985.7248
 31
0.0
  0
LINE
  5
577
  8
5
  6
CONTINUOUS
 10
947.5117
 20
985.7248
 30
0.0
 11
939.5116
 21
992.7919
 31
0.0
  0
LINE
  5
578
  8
5
  6
CONTINUOUS
 10
939.5116
 20
992.7919
 30
0.0
 11
939.5116
 21
1019.009
 31
0.0
  0
LINE
  5
579
  8
5
  6
CONTINUOUS
 10
910.8956
 20
973.3226
 30
0.0
 11
907.2792
 21
1019.009
 31
0.0
  0
LINE
  5
57A
  8
5
  6
CONTINUOUS
 10
910.8956
 20
973.3226
 30
0.0
 11
928.0116
 21
959.2225
 31
0.0
  0
LINE
  5
57B
  8
5
  6
CONTINUOUS
 10
928.0116
 20
959.2225
 30
0.0
 11
987.0117
 21
959.2225
 31
0.0
  0
LINE
  5
57C
  8
5
  6
CONTINUOUS
 10
987.0117
 20
959.2225
 30
0.0
 11
1004.128
 21
973.3226
 31
0.0
  0
LINE
  5
57D
  8
5
  6
CONTINUOUS
 10
1004.128
 20
973.3226
 30
0.0
 11
1007.744
 21
1019.009
 31
0.0
  0
LINE
  5
57E
  8
5
  6
CONTINUOUS
 10
906.8019
 20
986.8233
 30
0.0
 11
905.5049
 21
1013.052
 31
0.0
  0
LINE
  5
57F
  8
5
  6
CONTINUOUS
 10
906.8019
 20
986.8233
 30
0.0
 11
910.8956
 21
951.2447
 31
0.0
  0
LINE
  5
580
  8
5
  6
CONTINUOUS
 10
910.8956
 20
951.2447
 30
0.0
 11
910.8956
 21
973.3226
 31
0.0
  0
LINE
  5
581
  8
5
  6
CONTINUOUS
 10
1004.128
 20
973.3226
 30
0.0
 11
1004.128
 21
951.2447
 31
0.0
  0
LINE
  5
582
  8
5
  6
CONTINUOUS
 10
1008.221
 20
986.8233
 30
0.0
 11
1004.128
 21
951.2447
 31
0.0
  0
LINE
  5
583
  8
5
  6
CONTINUOUS
 10
1009.519
 20
1013.052
 30
0.0
 11
1008.221
 21
986.8233
 31
0.0
  0
LINE
  5
584
  8
5
  6
CONTINUOUS
 10
890.5117
 20
1013.052
 30
0.0
 11
905.5049
 21
1013.052
 31
0.0
  0
LINE
  5
585
  8
5
  6
CONTINUOUS
 10
890.5117
 20
1013.052
 30
0.0
 11
890.5117
 21
955.9089
 31
0.0
  0
LINE
  5
586
  8
5
  6
CONTINUOUS
 10
890.5117
 20
955.9089
 30
0.0
 11
910.3589
 21
955.909
 31
0.0
  0
LINE
  5
587
  8
5
  6
CONTINUOUS
 10
1004.664
 20
955.909
 30
0.0
 11
1320.512
 21
955.9089
 31
0.0
  0
LINE
  5
588
  8
5
  6
CONTINUOUS
 10
1320.512
 20
955.9089
 30
0.0
 11
1320.512
 21
1013.052
 31
0.0
  0
LINE
  5
589
  8
5
  6
CONTINUOUS
 10
1009.519
 20
1013.052
 30
0.0
 11
1320.512
 21
1013.052
 31
0.0
  0
LINE
  5
58A
  8
5
  6
CONTINUOUS
 10
939.5116
 20
1013.052
 30
0.0
 11
975.5116
 21
1013.052
 31
0.0
  0
LINE
  5
58B
  8
5
  6
CONTINUOUS
 10
885.8871
 20
985.9218
 30
0.0
 11
885.8871
 21
973.0089
 31
0.0
  0
LINE
  5
58C
  8
5
  6
CONTINUOUS
 10
888.2186
 20
954.809
 30
0.0
 11
888.2186
 21
997.9353
 31
0.0
  0
LINE
  5
58D
  8
5
  6
CONTINUOUS
 10
889.3309
 20
946.1258
 30
0.0
 11
890.5117
 21
955.9089
 31
0.0
  0
LINE
  5
58E
  8
5
  6
CONTINUOUS
 10
1322.805
 20
997.9353
 30
0.0
 11
1322.805
 21
954.809
 31
0.0
  0
LINE
  5
58F
  8
5
  6
CONTINUOUS
 10
1325.136
 20
973.0089
 30
0.0
 11
1325.136
 21
985.9218
 31
0.0
  0
LINE
  5
590
  8
5
  6
CONTINUOUS
 10
1320.512
 20
955.9089
 30
0.0
 11
1321.692
 21
946.1258
 31
0.0
  0
LINE
  5
591
  8
5
  6
CONTINUOUS
 10
806.5116
 20
1376.909
 30
0.0
 11
790.5116
 21
1376.909
 31
0.0
  0
LINE
  5
592
  8
5
  6
CONTINUOUS
 10
790.5116
 20
926.909
 30
0.0
 11
806.5116
 21
926.909
 31
0.0
  0
LINE
  5
593
  8
5
  6
CONTINUOUS
 10
790.5116
 20
1326.909
 30
0.0
 11
785.5116
 21
1326.909
 31
0.0
  0
LINE
  5
594
  8
5
  6
CONTINUOUS
 10
785.5116
 20
976.909
 30
0.0
 11
790.5116
 21
976.909
 31
0.0
  0
LINE
  5
595
  8
5
  6
CONTINUOUS
 10
1004.128
 20
951.2447
 30
0.0
 11
987.0117
 21
941.5448
 31
0.0
  0
LINE
  5
596
  8
5
  6
CONTINUOUS
 10
987.0117
 20
941.5448
 30
0.0
 11
928.0116
 21
941.5448
 31
0.0
  0
LINE
  5
597
  8
5
  6
CONTINUOUS
 10
928.0116
 20
941.5448
 30
0.0
 11
910.8956
 21
951.2447
 31
0.0
  0
LINE
  5
598
  8
5
  6
CONTINUOUS
 10
987.0117
 20
941.5448
 30
0.0
 11
987.0117
 21
959.2225
 31
0.0
  0
LINE
  5
599
  8
5
  6
CONTINUOUS
 10
928.0116
 20
959.2225
 30
0.0
 11
928.0116
 21
941.5448
 31
0.0
  0
LINE
  5
59A
  8
5
  6
CONTINUOUS
 10
1171.551
 20
1343.909
 30
0.0
 11
1131.817
 21
1343.909
 31
0.0
  0
LINE
  5
59B
  8
5
  6
CONTINUOUS
 10
1332.012
 20
1343.909
 30
0.0
 11
1323.458
 21
1343.909
 31
0.0
  0
LINE
  5
59C
  8
5
  6
CONTINUOUS
 10
1323.458
 20
959.909
 30
0.0
 11
1332.012
 21
959.9091
 31
0.0
  0
LINE
  5
59D
  8
5
  6
CONTINUOUS
 10
890.2085
 20
1343.909
 30
0.0
 11
880.0116
 21
1343.909
 31
0.0
  0
LINE
  5
59E
  8
5
  6
CONTINUOUS
 10
880.0116
 20
959.9091
 30
0.0
 11
887.5653
 21
959.909
 31
0.0
  0
LINE
  5
59F
  8
5
  6
CONTINUOUS
 10
785.5116
 20
392.7361
 30
0.0
 11
785.5116
 21
217.7361
 31
0.0
  0
LINE
  5
5A0
  8
5
  6
CONTINUOUS
 10
785.5116
 20
567.7361
 30
0.0
 11
785.5116
 21
392.7361
 31
0.0
  0
LINE
  5
5A1
  8
5
  6
CONTINUOUS
 10
812.0116
 20
166.7361
 30
0.0
 11
813.5116
 21
166.7361
 31
0.0
  0
LINE
  5
5A2
  8
5
  6
CONTINUOUS
 10
810.5116
 20
166.7361
 30
0.0
 11
812.0116
 21
166.7361
 31
0.0
  0
LINE
  5
5A3
  8
5
  6
CONTINUOUS
 10
806.5116
 20
392.7361
 30
0.0
 11
806.5116
 21
167.7361
 31
0.0
  0
LINE
  5
5A4
  8
5
  6
CONTINUOUS
 10
806.5116
 20
617.7361
 30
0.0
 11
806.5116
 21
392.7361
 31
0.0
  0
LINE
  5
5A5
  8
5
  6
CONTINUOUS
 10
790.5116
 20
392.7361
 30
0.0
 11
790.5116
 21
617.7361
 31
0.0
  0
LINE
  5
5A6
  8
5
  6
CONTINUOUS
 10
790.5116
 20
167.7361
 30
0.0
 11
790.5116
 21
392.7361
 31
0.0
  0
LINE
  5
5A7
  8
5
  6
CONTINUOUS
 10
806.5117
 20
203.3028
 30
0.0
 11
880.0116
 21
200.7362
 31
0.0
  0
LINE
  5
5A8
  8
5
  6
CONTINUOUS
 10
880.0116
 20
584.7361
 30
0.0
 11
880.0116
 21
552.2361
 31
0.0
  0
LINE
  5
5A9
  8
5
  6
CONTINUOUS
 10
880.0116
 20
584.7361
 30
0.0
 11
806.5117
 21
582.1695
 31
0.0
  0
LINE
  5
5AA
  8
5
  6
CONTINUOUS
 10
790.5117
 20
167.7361
 30
0.0
 11
806.5117
 21
167.7361
 31
0.0
  0
LINE
  5
5AB
  8
5
  6
CONTINUOUS
 10
806.5116
 20
617.7361
 30
0.0
 11
790.5116
 21
617.7361
 31
0.0
  0
LINE
  5
5AC
  8
5
  6
CONTINUOUS
 10
785.5116
 20
217.736
 30
0.0
 11
790.5117
 21
217.736
 31
0.0
  0
LINE
  5
5AD
  8
5
  6
CONTINUOUS
 10
790.5117
 20
567.7362
 30
0.0
 11
785.5116
 21
567.7362
 31
0.0
  0
LINE
  5
5AE
  8
5
  6
CONTINUOUS
 10
810.5116
 20
203.1631
 30
0.0
 11
810.5116
 21
166.7361
 31
0.0
  0
LINE
  5
5AF
  8
5
  6
CONTINUOUS
 10
813.5116
 20
166.7362
 30
0.0
 11
813.5116
 21
203.0583
 31
0.0
  0
LINE
  5
5B0
  8
5
  6
CONTINUOUS
 10
1332.012
 20
584.7361
 30
0.0
 11
1323.458
 21
584.7361
 31
0.0
  0
LINE
  5
5B1
  8
5
  6
CONTINUOUS
 10
1323.458
 20
200.7362
 30
0.0
 11
1332.012
 21
200.7362
 31
0.0
  0
LINE
  5
5B2
  8
7
  6
DASHED
 10
806.5116
 20
976.3831
 30
0.0
 11
790.5116
 21
976.3831
 31
0.0
  0
LINE
  5
5B3
  8
7
  6
DASHED
 10
806.5116
 20
957.8832
 30
0.0
 11
790.5116
 21
957.8832
 31
0.0
  0
LINE
  5
5B4
  8
7
  6
DASHED
 10
806.5116
 20
1084.622
 30
0.0
 11
790.5116
 21
1084.622
 31
0.0
  0
LINE
  5
5B5
  8
7
  6
DASHED
 10
806.5116
 20
1066.122
 30
0.0
 11
790.5116
 21
1066.122
 31
0.0
  0
LINE
  5
5B6
  8
7
  6
DASHED
 10
806.5116
 20
1219.196
 30
0.0
 11
790.5116
 21
1219.196
 31
0.0
  0
LINE
  5
5B7
  8
7
  6
DASHED
 10
806.5116
 20
1237.696
 30
0.0
 11
790.5116
 21
1237.696
 31
0.0
  0
LINE
  5
5B8
  8
7
  6
DASHED
 10
806.5116
 20
1327.435
 30
0.0
 11
790.5116
 21
1327.435
 31
0.0
  0
LINE
  5
5B9
  8
7
  6
DASHED
 10
806.5116
 20
1345.935
 30
0.0
 11
790.5116
 21
1345.935
 31
0.0
  0
LINE
  5
5BA
  8
7
  6
DASHED
 10
806.5116
 20
586.7619
 30
0.0
 11
790.5116
 21
586.7619
 31
0.0
  0
LINE
  5
5BB
  8
7
  6
DASHED
 10
806.5116
 20
568.2619
 30
0.0
 11
790.5116
 21
568.2619
 31
0.0
  0
LINE
  5
5BC
  8
7
  6
DASHED
 10
806.5116
 20
478.5227
 30
0.0
 11
790.5116
 21
478.5227
 31
0.0
  0
LINE
  5
5BD
  8
7
  6
DASHED
 10
806.5116
 20
460.0227
 30
0.0
 11
790.5116
 21
460.0227
 31
0.0
  0
LINE
  5
5BE
  8
7
  6
DASHED
 10
806.5116
 20
325.4493
 30
0.0
 11
790.5116
 21
325.4493
 31
0.0
  0
LINE
  5
5BF
  8
7
  6
DASHED
 10
806.5116
 20
306.9493
 30
0.0
 11
790.5116
 21
306.9493
 31
0.0
  0
LINE
  5
5C0
  8
7
  6
DASHED
 10
806.5116
 20
217.2101
 30
0.0
 11
790.5116
 21
217.2101
 31
0.0
  0
LINE
  5
5C1
  8
7
  6
DASHED
 10
806.5116
 20
198.7102
 30
0.0
 11
790.5116
 21
198.7102
 31
0.0
  0
LINE
  5
5C2
  8
6
  6
CENTER
 10
814.0116
 20
1336.685
 30
0.0
 11
778.0116
 21
1336.685
 31
0.0
  0
LINE
  5
5C3
  8
5
  6
CENTER
 10
1009.518
 20
1490.914
 30
0.0
 11
1009.518
 21
1467.914
 31
0.0
  0
LINE
  5
5C4
  8
6
  6
CENTER
 10
814.0116
 20
1228.446
 30
0.0
 11
778.0116
 21
1228.446
 31
0.0
  0
LINE
  5
5C5
  8
6
  6
CENTER
 10
814.0116
 20
1075.372
 30
0.0
 11
778.0116
 21
1075.372
 31
0.0
  0
LINE
  5
5C6
  8
6
  6
CENTER
 10
814.0116
 20
967.1331
 30
0.0
 11
778.0116
 21
967.1331
 31
0.0
  0
LINE
  5
5C7
  8
6
  6
CENTER
 10
814.0116
 20
577.5119
 30
0.0
 11
778.0116
 21
577.5119
 31
0.0
  0
LINE
  5
5C8
  8
6
  6
CENTER
 10
814.0116
 20
469.2727
 30
0.0
 11
778.0116
 21
469.2727
 31
0.0
  0
LINE
  5
5C9
  8
6
  6
CENTER
 10
814.0116
 20
316.1993
 30
0.0
 11
778.0116
 21
316.1993
 31
0.0
  0
LINE
  5
5CA
  8
6
  6
CENTER
 10
1121.012
 20
392.7361
 30
0.0
 11
1546.012
 21
392.7361
 31
0.0
  0
LINE
  5
5CB
  8
6
  6
CENTER
 10
1949.654
 20
921.909
 30
0.0
 11
1949.654
 21
1381.909
 31
0.0
  0
LINE
  5
5CC
  8
6
  6
CENTER
 10
1719.654
 20
1151.909
 30
0.0
 11
2179.654
 21
1151.909
 31
0.0
  0
LINE
  5
5CD
  8
6
  6
CENTER
 10
814.0116
 20
207.9601
 30
0.0
 11
778.0116
 21
207.9601
 31
0.0
  0
LINE
  5
5D3
  8
0
  6
CONTINUOUS
 10
657.5114
 20
1181.909
 30
0.0
 11
666.5116
 21
1180.527
 31
0.0
  0
LINE
  5
5D4
  8
0
  6
CONTINUOUS
 10
783.5118
 20
1181.909
 30
0.0
 11
774.5116
 21
1180.527
 31
0.0
  0
ENDSEC
  0
EOF
