  0
SECTION
  2
HEADER
  9
$ACADVER
  1
AC1009
999
I-DEAS Drafting Master Series 7m3 Not Encoded
  9
$EXTMIN
 10
0.0
 20
0.0
  9
$EXTMAX
 10
2.3426E+002
 20
1.9605E+002
  9
$TEXTSIZE
 40
1.25E-001
  9
$LTSCALE
 40
1.0
  9
$CLAYER
  8
V1L0
  9
$CECOLOR
 62
2
  9
$DIMASZ
 40
1.25E-001
  9
$DIMEXO
 40
6.25E-002
  9
$DIMDLI
 40
2.5E-001
  9
$DIMEXE
 40
1.25E-001
  9
$DIMTP
 40
5.0E-003
  9
$DIMTM
 40
-5.0E-003
  9
$DIMTXT
 40
3.0
  9
$DIMLIM
 70
0
  9
$DIMTIH
 70
1
  9
$DIMTOH
 70
1
  9
$DIMSE1
 70
0
  9
$DIMSE2
 70
0
  9
$DIMTAD
 70
0
  9
$DIMASO
 70
1
  9
$DIMALT
 70
0
  9
$DIMALTD
 70
0
  9
$DIMTOFL
 70
1
  9
$DIMTIX
 70
0
  9
$DIMSAH
 70
0
  9
$DIMTFAC
 40
1.0
  9
$DIMGAP
 40
6.25E-002
  9
$LUNITS
 70
2
  9
$LUPREC
 70
3
  9
$FILLETRAD
 40
1.0E+001
  9
$AUNITS
 70
0
  9
$AUPREC
 70
1
  9
$CHAMFERA
 40
6.0
  9
$CHAMFERB
 40
6.0
  9
$ANGBASE
 50
0.0
  9
$ANGDIR
 70
0
  9
$PDMODE
 70
2
  9
$PDSIZE
 40
-1.0E-002
  9
$SPLINETYPE
 70
6
  0
ENDSEC
  0
SECTION
  2
TABLES
  0
TABLE
  2
LTYPE
 70
9
  0
LTYPE
  2
HIDDENNEW00
  3
_ 
 70
64
 72
65
 73
2
 40
4.5
 49
3.0
 49
-1.5
  0
LTYPE
  2
HIDDENNEW01
  3
_ 
 70
64
 72
65
 73
2
 40
4.5
 49
3.0
 49
-1.5
  0
LTYPE
  2
HIDDEN
  3
_ 
 70
64
 72
65
 73
2
 40
4.5
 49
3.0
 49
-1.5
  0
LTYPE
  2
CENTERLINE
  3
_ 
 70
64
 72
65
 73
4
 40
3.0E+001
 49
2.4E+001
 49
-1.5
 49
3.0
 49
-1.5
  0
LTYPE
  2
PHANTOM
  3
_ 
 70
64
 72
65
 73
6
 40
2.95E+001
 49
1.9E+001
 49
-1.5
 49
3.0
 49
-1.5
 49
3.0
 49
-1.5
  0
LTYPE
  2
SHORT_DASH
  3
_ 
 70
64
 72
65
 73
2
 40
3.0
 49
1.5
 49
-1.5
  0
LTYPE
  2
LONG_DASH
  3
_ 
 70
64
 72
65
 73
2
 40
9.0
 49
4.5
 49
-4.5
  0
LTYPE
  2
DASHED
  3
_ 
 70
64
 72
65
 73
2
 40
1.375
 49
1.125
 49
-2.5E-001
  0
LTYPE
  2
CENTER
  3
_ 
 70
64
 72
65
 73
4
 40
3.5625
 49
2.8125
 49
-2.5E-001
 49
2.5E-001
 49
-2.5E-001
  0
ENDTAB
  0
TABLE
  2
LAYER
 70
258
  0
LAYER
  2
V1L0
 70
0
 62
7
  6
HIDDENNEW00
  0
LAYER
  2
Drafting_Hidden_Entities
 70
1
 62
7
  6
CONTINUOUS
  0
ENDTAB
  0
TABLE
  2
STYLE
 70
1
  0
STYLE
  2
STANDARD
 70
64
 40
0.0
 41
1.0
 50
0.0
 71
0
 42
1.0
  3
monotxt.shx
  4

  0
ENDTAB
  0
TABLE
  2
VIEW
 70
0
  0
ENDTAB
  0
TABLE
  2
DIMSTYLE
 70
0
  0
ENDTAB
  0
ENDSEC
  0
SECTION
  2
BLOCKS
  0
ENDSEC
  0
SECTION
  2
ENTITIES
  0
LINE
  8
V1L0
  6
CONTINUOUS
 62
40
 10
1.0613E+002
 20
2.25E+001
 11
1.0613E+002
 21
7.35E+001
  0
LINE
  8
V1L0
  6
CONTINUOUS
 62
40
 10
1.0613E+002
 20
2.45E+001
 11
1.1713E+002
 21
2.45E+001
  0
LINE
  8
V1L0
  6
CONTINUOUS
 62
40
 10
1.0613E+002
 20
7.15E+001
 11
1.1713E+002
 21
7.15E+001
  0
LINE
  8
V1L0
  6
CONTINUOUS
 62
40
 10
1.1713E+002
 20
2.45E+001
 11
1.1713E+002
 21
7.15E+001
  0
LINE
  8
V1L0
  6
CONTINUOUS
 62
40
 10
1.0613E+002
 20
7.35E+001
 11
1.0763E+002
 21
7.35E+001
  0
LINE
  8
V1L0
  6
CONTINUOUS
 62
40
 10
1.0613E+002
 20
2.25E+001
 11
1.0763E+002
 21
2.25E+001
  0
LINE
  8
V1L0
  6
CONTINUOUS
 62
40
 10
1.0763E+002
 20
2.25E+001
 11
1.0763E+002
 21
2.45E+001
  0
LINE
  8
V1L0
  6
CONTINUOUS
 62
40
 10
1.0763E+002
 20
7.15E+001
 11
1.0763E+002
 21
7.35E+001
  0
LINE
  8
V1L0
  6
CONTINUOUS
 62
40
 10
1.0763E+002
 20
9.5E+001
 11
1.0813E+002
 21
9.5E+001
  0
LINE
  8
V1L0
  6
CONTINUOUS
 62
40
 10
1.0763E+002
 20
1.0
 11
1.0813E+002
 21
1.0
  0
LINE
  8
V1L0
  6
CONTINUOUS
 62
40
 10
1.0813E+002
 20
7.15E+001
 11
1.0813E+002
 21
9.5E+001
  0
LINE
  8
V1L0
  6
CONTINUOUS
 62
40
 10
1.0763E+002
 20
7.35E+001
 11
1.0763E+002
 21
9.5E+001
  0
LINE
  8
V1L0
  6
CONTINUOUS
 62
40
 10
1.0813E+002
 20
1.0
 11
1.0813E+002
 21
2.45E+001
  0
LINE
  8
V1L0
  6
CONTINUOUS
 62
40
 10
1.0763E+002
 20
1.0
 11
1.0763E+002
 21
2.25E+001
  0
CIRCLE
  8
V1L0
  6
CONTINUOUS
 62
40
 10
1.1213237E+002
 20
6.54984E+001
 40
1.25
  0
CIRCLE
  8
V1L0
  6
CONTINUOUS
 62
40
 10
1.1213237E+002
 20
3.04984E+001
 40
1.25
  0
LINE
  8
V1L0
  6
CONTINUOUS
 62
40
 10
1.0163E+002
 20
2.45E+001
 11
1.0163E+002
 21
2.9E+001
  0
LINE
  8
V1L0
  6
CONTINUOUS
 62
40
 10
9.963E+001
 20
2.45E+001
 11
9.963E+001
 21
2.95E+001
  0
LINE
  8
V1L0
  6
CONTINUOUS
 62
40
 10
9.963E+001
 20
6.65E+001
 11
9.963E+001
 21
7.15E+001
  0
LINE
  8
V1L0
  6
CONTINUOUS
 62
40
 10
9.963E+001
 20
2.45E+001
 11
1.0613E+002
 21
2.45E+001
  0
LINE
  8
V1L0
  6
CONTINUOUS
 62
40
 10
9.963E+001
 20
7.15E+001
 11
1.0613E+002
 21
7.15E+001
  0
LINE
  8
V1L0
  6
CONTINUOUS
 62
40
 10
9.963E+001
 20
6.65E+001
 11
1.0063E+002
 21
6.65E+001
  0
LINE
  8
V1L0
  6
CONTINUOUS
 62
40
 10
9.963E+001
 20
2.95E+001
 11
1.0063E+002
 21
2.95E+001
  0
LINE
  8
V1L0
  6
CONTINUOUS
 62
40
 10
1.0813E+002
 20
2.25E+001
 11
1.2813E+002
 21
2.25E+001
  0
LINE
  8
V1L0
  6
CONTINUOUS
 62
40
 10
1.0813E+002
 20
7.35E+001
 11
1.2813E+002
 21
7.35E+001
  0
LINE
  8
V1L0
  6
CONTINUOUS
 62
40
 10
1.2813E+002
 20
2.25E+001
 11
1.2813E+002
 21
7.35E+001
  0
LINE
  8
V1L0
  6
CONTINUOUS
 62
40
 10
1.2813E+002
 20
2.8E+001
 11
1.3263E+002
 21
2.8E+001
  0
LINE
  8
V1L0
  6
CONTINUOUS
 62
40
 10
1.2813E+002
 20
3.3E+001
 11
1.3263E+002
 21
3.3E+001
  0
LINE
  8
V1L0
  6
CONTINUOUS
 62
40
 10
1.2813E+002
 20
6.3E+001
 11
1.3263E+002
 21
6.3E+001
  0
LINE
  8
V1L0
  6
CONTINUOUS
 62
40
 10
1.2813E+002
 20
6.8E+001
 11
1.3263E+002
 21
6.8E+001
  0
LINE
  8
V1L0
  6
CONTINUOUS
 62
40
 10
1.3263E+002
 20
6.3E+001
 11
1.3263E+002
 21
6.8E+001
  0
LINE
  8
V1L0
  6
CONTINUOUS
 62
40
 10
1.3263E+002
 20
2.8E+001
 11
1.3263E+002
 21
3.3E+001
  0
LINE
  8
V1L0
  6
CONTINUOUS
 62
40
 10
1.0063E+002
 20
6.4E+001
 11
1.0063E+002
 21
6.7E+001
  0
LINE
  8
V1L0
  6
CONTINUOUS
 62
40
 10
1.0063E+002
 20
6.4E+001
 11
1.0613E+002
 21
6.4E+001
  0
LINE
  8
V1L0
  6
CONTINUOUS
 62
40
 10
1.0063E+002
 20
6.7E+001
 11
1.0613E+002
 21
6.7E+001
  0
LINE
  8
V1L0
  6
CONTINUOUS
 62
40
 10
1.0063E+002
 20
3.2E+001
 11
1.0613E+002
 21
3.2E+001
  0
LINE
  8
V1L0
  6
CONTINUOUS
 62
40
 10
1.0063E+002
 20
2.9E+001
 11
1.0063E+002
 21
3.2E+001
  0
LINE
  8
V1L0
  6
CONTINUOUS
 62
40
 10
1.0063E+002
 20
2.9E+001
 11
1.0613E+002
 21
2.9E+001
  0
LINE
  8
V1L0
  6
CONTINUOUS
 62
40
 10
1.0163E+002
 20
6.7E+001
 11
1.0163E+002
 21
7.15E+001
  0
LINE
  8
V1L0
  6
CONTINUOUS
 62
40
 10
1.0163E+002
 20
3.2E+001
 11
1.0163E+002
 21
6.4E+001
  0
LINE
  8
V1L0
  6
CONTINUOUS
 62
40
 10
1.1863E+002
 20
7.6E+001
 11
1.1863E+002
 21
7.775E+001
  0
LINE
  8
V1L0
  6
CONTINUOUS
 62
40
 10
1.1863E+002
 20
7.6E+001
 11
1.2613E+002
 21
7.6E+001
  0
LINE
  8
V1L0
  6
CONTINUOUS
 62
40
 10
1.1813E+002
 20
7.564E+001
 11
1.1863E+002
 21
7.6E+001
  0
LINE
  8
V1L0
  6
CONTINUOUS
 62
40
 10
1.2213E+002
 20
7.35E+001
 11
1.2213E+002
 21
7.6E+001
  0
LINE
  8
V1L0
  6
CONTINUOUS
 62
40
 10
1.1863E+002
 20
8.45E+001
 11
1.2613E+002
 21
8.45E+001
  0
LINE
  8
V1L0
  6
CONTINUOUS
 62
40
 10
1.2613E+002
 20
7.6E+001
 11
1.2613E+002
 21
8.45E+001
  0
ARC
  8
V1L0
  6
CONTINUOUS
 62
40
 10
1.2238237E+002
 20
8.02484E+001
 40
3.5
 50
2.0179E+002
 51
5.1821E+002
  0
LINE
  8
V1L0
  6
CONTINUOUS
 62
40
 10
1.2005E+002
 20
7.764E+001
 11
1.2232E+002
 21
7.955E+001
  0
LINE
  8
V1L0
  6
CONTINUOUS
 62
40
 10
1.194E+002
 20
7.841E+001
 11
1.2168E+002
 21
8.031E+001
  0
LINE
  8
V1L0
  6
CONTINUOUS
 62
40
 10
1.2039E+002
 20
8.184E+001
 11
1.2168E+002
 21
8.031E+001
  0
LINE
  8
V1L0
  6
CONTINUOUS
 62
40
 10
1.2116E+002
 20
8.249E+001
 11
1.2244E+002
 21
8.095E+001
  0
LINE
  8
V1L0
  6
CONTINUOUS
 62
40
 10
1.236E+002
 20
7.801E+001
 11
1.2437E+002
 21
7.866E+001
  0
LINE
  8
V1L0
  6
CONTINUOUS
 62
40
 10
1.2039E+002
 20
8.184E+001
 11
1.2116E+002
 21
8.249E+001
  0
LINE
  8
V1L0
  6
CONTINUOUS
 62
40
 10
1.2244E+002
 20
8.095E+001
 11
1.2471E+002
 21
8.286E+001
  0
LINE
  8
V1L0
  6
CONTINUOUS
 62
40
 10
1.2308E+002
 20
8.019E+001
 11
1.2536E+002
 21
8.209E+001
  0
LINE
  8
V1L0
  6
CONTINUOUS
 62
40
 10
1.2232E+002
 20
7.955E+001
 11
1.236E+002
 21
7.801E+001
  0
LINE
  8
V1L0
  6
CONTINUOUS
 62
40
 10
1.2308E+002
 20
8.019E+001
 11
1.2437E+002
 21
7.866E+001
  0
LINE
  8
V1L0
  6
CONTINUOUS
 62
40
 10
1.1763E+002
 20
7.6E+001
 11
1.1763E+002
 21
8.45E+001
  0
LINE
  8
V1L0
  6
CONTINUOUS
 62
40
 10
1.1013E+002
 20
7.6E+001
 11
1.1763E+002
 21
7.6E+001
  0
LINE
  8
V1L0
  6
CONTINUOUS
 62
40
 10
1.1763E+002
 20
7.6E+001
 11
1.2113E+002
 21
7.35E+001
  0
LINE
  8
V1L0
  6
CONTINUOUS
 62
40
 10
1.1413E+002
 20
7.35E+001
 11
1.1413E+002
 21
7.6E+001
  0
LINE
  8
V1L0
  6
CONTINUOUS
 62
40
 10
1.1013E+002
 20
8.45E+001
 11
1.1763E+002
 21
8.45E+001
  0
LINE
  8
V1L0
  6
CONTINUOUS
 62
40
 10
1.1013E+002
 20
7.6E+001
 11
1.1013E+002
 21
8.45E+001
  0
LINE
  8
V1L0
  6
CONTINUOUS
 62
40
 10
1.1913E+002
 20
7.775E+001
 11
1.1913E+002
 21
8.275E+001
  0
LINE
  8
V1L0
  6
CONTINUOUS
 62
40
 10
1.1763E+002
 20
7.775E+001
 11
1.1913E+002
 21
7.775E+001
  0
LINE
  8
V1L0
  6
CONTINUOUS
 62
40
 10
1.1763E+002
 20
8.275E+001
 11
1.1913E+002
 21
8.275E+001
  0
CIRCLE
  8
V1L0
  6
CONTINUOUS
 62
40
 10
1.1388237E+002
 20
8.02484E+001
 40
3.5
  0
LINE
  8
V1L0
  6
CONTINUOUS
 62
40
 10
1.1394E+002
 20
7.955E+001
 11
1.1621E+002
 21
7.764E+001
  0
LINE
  8
V1L0
  6
CONTINUOUS
 62
40
 10
1.1458E+002
 20
8.031E+001
 11
1.1686E+002
 21
7.841E+001
  0
LINE
  8
V1L0
  6
CONTINUOUS
 62
40
 10
1.1458E+002
 20
8.031E+001
 11
1.1587E+002
 21
8.184E+001
  0
LINE
  8
V1L0
  6
CONTINUOUS
 62
40
 10
1.1382E+002
 20
8.095E+001
 11
1.151E+002
 21
8.249E+001
  0
LINE
  8
V1L0
  6
CONTINUOUS
 62
40
 10
1.1189E+002
 20
7.866E+001
 11
1.1266E+002
 21
7.801E+001
  0
LINE
  8
V1L0
  6
CONTINUOUS
 62
40
 10
1.151E+002
 20
8.249E+001
 11
1.1587E+002
 21
8.184E+001
  0
LINE
  8
V1L0
  6
CONTINUOUS
 62
40
 10
1.1155E+002
 20
8.286E+001
 11
1.1382E+002
 21
8.095E+001
  0
LINE
  8
V1L0
  6
CONTINUOUS
 62
40
 10
1.109E+002
 20
8.209E+001
 11
1.1318E+002
 21
8.019E+001
  0
LINE
  8
V1L0
  6
CONTINUOUS
 62
40
 10
1.1266E+002
 20
7.801E+001
 11
1.1394E+002
 21
7.955E+001
  0
LINE
  8
V1L0
  6
CONTINUOUS
 62
40
 10
1.1189E+002
 20
7.866E+001
 11
1.1318E+002
 21
8.019E+001
  0
LINE
  8
V1L0
  6
CONTINUOUS
 62
40
 10
1.1863E+002
 20
8.275E+001
 11
1.1863E+002
 21
8.45E+001
  0
LINE
  8
V1L0
  6
CONTINUOUS
 62
40
 10
1.1763E+002
 20
1.825E+001
 11
1.1763E+002
 21
2.0E+001
  0
LINE
  8
V1L0
  6
CONTINUOUS
 62
40
 10
1.1013E+002
 20
2.0E+001
 11
1.1763E+002
 21
2.0E+001
  0
LINE
  8
V1L0
  6
CONTINUOUS
 62
40
 10
1.1763E+002
 20
2.0E+001
 11
1.1813E+002
 21
2.036E+001
  0
LINE
  8
V1L0
  6
CONTINUOUS
 62
40
 10
1.1413E+002
 20
2.0E+001
 11
1.1413E+002
 21
2.25E+001
  0
LINE
  8
V1L0
  6
CONTINUOUS
 62
40
 10
1.1013E+002
 20
1.15E+001
 11
1.1763E+002
 21
1.15E+001
  0
LINE
  8
V1L0
  6
CONTINUOUS
 62
40
 10
1.1013E+002
 20
1.15E+001
 11
1.1013E+002
 21
2.0E+001
  0
ARC
  8
V1L0
  6
CONTINUOUS
 62
40
 10
1.1388237E+002
 20
1.57484E+001
 40
3.5
 50
2.179E+001
 51
3.3821E+002
  0
LINE
  8
V1L0
  6
CONTINUOUS
 62
40
 10
1.1394E+002
 20
1.645E+001
 11
1.1621E+002
 21
1.836E+001
  0
LINE
  8
V1L0
  6
CONTINUOUS
 62
40
 10
1.1458E+002
 20
1.569E+001
 11
1.1686E+002
 21
1.759E+001
  0
LINE
  8
V1L0
  6
CONTINUOUS
 62
40
 10
1.1458E+002
 20
1.569E+001
 11
1.1587E+002
 21
1.416E+001
  0
LINE
  8
V1L0
  6
CONTINUOUS
 62
40
 10
1.1382E+002
 20
1.505E+001
 11
1.151E+002
 21
1.351E+001
  0
LINE
  8
V1L0
  6
CONTINUOUS
 62
40
 10
1.1189E+002
 20
1.734E+001
 11
1.1266E+002
 21
1.799E+001
  0
LINE
  8
V1L0
  6
CONTINUOUS
 62
40
 10
1.151E+002
 20
1.351E+001
 11
1.1587E+002
 21
1.416E+001
  0
LINE
  8
V1L0
  6
CONTINUOUS
 62
40
 10
1.1155E+002
 20
1.314E+001
 11
1.1382E+002
 21
1.505E+001
  0
LINE
  8
V1L0
  6
CONTINUOUS
 62
40
 10
1.109E+002
 20
1.391E+001
 11
1.1318E+002
 21
1.581E+001
  0
LINE
  8
V1L0
  6
CONTINUOUS
 62
40
 10
1.1266E+002
 20
1.799E+001
 11
1.1394E+002
 21
1.645E+001
  0
LINE
  8
V1L0
  6
CONTINUOUS
 62
40
 10
1.1189E+002
 20
1.734E+001
 11
1.1318E+002
 21
1.581E+001
  0
LINE
  8
V1L0
  6
CONTINUOUS
 62
40
 10
1.1863E+002
 20
1.15E+001
 11
1.1863E+002
 21
2.0E+001
  0
LINE
  8
V1L0
  6
CONTINUOUS
 62
40
 10
1.1863E+002
 20
2.0E+001
 11
1.2613E+002
 21
2.0E+001
  0
LINE
  8
V1L0
  6
CONTINUOUS
 62
40
 10
1.1513E+002
 20
2.25E+001
 11
1.1863E+002
 21
2.0E+001
  0
LINE
  8
V1L0
  6
CONTINUOUS
 62
40
 10
1.2213E+002
 20
2.0E+001
 11
1.2213E+002
 21
2.25E+001
  0
LINE
  8
V1L0
  6
CONTINUOUS
 62
40
 10
1.1863E+002
 20
1.15E+001
 11
1.2613E+002
 21
1.15E+001
  0
LINE
  8
V1L0
  6
CONTINUOUS
 62
40
 10
1.2613E+002
 20
1.15E+001
 11
1.2613E+002
 21
2.0E+001
  0
LINE
  8
V1L0
  6
CONTINUOUS
 62
40
 10
1.1713E+002
 20
1.325E+001
 11
1.1713E+002
 21
1.825E+001
  0
LINE
  8
V1L0
  6
CONTINUOUS
 62
40
 10
1.1713E+002
 20
1.825E+001
 11
1.1863E+002
 21
1.825E+001
  0
LINE
  8
V1L0
  6
CONTINUOUS
 62
40
 10
1.1713E+002
 20
1.325E+001
 11
1.1863E+002
 21
1.325E+001
  0
CIRCLE
  8
V1L0
  6
CONTINUOUS
 62
40
 10
1.2238237E+002
 20
1.57484E+001
 40
3.5
  0
LINE
  8
V1L0
  6
CONTINUOUS
 62
40
 10
1.2005E+002
 20
1.836E+001
 11
1.2232E+002
 21
1.645E+001
  0
LINE
  8
V1L0
  6
CONTINUOUS
 62
40
 10
1.194E+002
 20
1.759E+001
 11
1.2168E+002
 21
1.569E+001
  0
LINE
  8
V1L0
  6
CONTINUOUS
 62
40
 10
1.2039E+002
 20
1.416E+001
 11
1.2168E+002
 21
1.569E+001
  0
LINE
  8
V1L0
  6
CONTINUOUS
 62
40
 10
1.2116E+002
 20
1.351E+001
 11
1.2244E+002
 21
1.505E+001
  0
LINE
  8
V1L0
  6
CONTINUOUS
 62
40
 10
1.236E+002
 20
1.799E+001
 11
1.2437E+002
 21
1.734E+001
  0
LINE
  8
V1L0
  6
CONTINUOUS
 62
40
 10
1.2039E+002
 20
1.416E+001
 11
1.2116E+002
 21
1.351E+001
  0
LINE
  8
V1L0
  6
CONTINUOUS
 62
40
 10
1.2244E+002
 20
1.505E+001
 11
1.2471E+002
 21
1.314E+001
  0
LINE
  8
V1L0
  6
CONTINUOUS
 62
40
 10
1.2308E+002
 20
1.581E+001
 11
1.2536E+002
 21
1.391E+001
  0
LINE
  8
V1L0
  6
CONTINUOUS
 62
40
 10
1.2232E+002
 20
1.645E+001
 11
1.236E+002
 21
1.799E+001
  0
LINE
  8
V1L0
  6
CONTINUOUS
 62
40
 10
1.2308E+002
 20
1.581E+001
 11
1.2437E+002
 21
1.734E+001
  0
LINE
  8
V1L0
  6
CONTINUOUS
 62
40
 10
1.1763E+002
 20
1.15E+001
 11
1.1763E+002
 21
1.325E+001
  0
LINE
  8
V1L0
  6
CONTINUOUS
 62
40
 10
3.55E+001
 20
2.25E+001
 11
3.55E+001
 21
7.35E+001
  0
LINE
  8
V1L0
  6
CONTINUOUS
 62
40
 10
6.05E+001
 20
4.8E+001
 11
6.05E+001
 21
7.35E+001
  0
LINE
  8
V1L0
  6
CONTINUOUS
 62
40
 10
7.35E+001
 20
3.05E+001
 11
7.35E+001
 21
3.313E+001
  0
LINE
  8
V1L0
  6
CONTINUOUS
 62
40
 10
8.1E+001
 20
6.65E+001
 11
8.1E+001
 21
7.15E+001
  0
LINE
  8
V1L0
  6
CONTINUOUS
 62
40
 10
1.0
 20
2.45E+001
 11
1.0
 21
7.15E+001
  0
LINE
  8
V1L0
  6
CONTINUOUS
 62
40
 10
2.5
 20
1.0
 11
2.5
 21
9.5E+001
  0
LINE
  8
V1L0
  6
CONTINUOUS
 62
40
 10
5.9E+001
 20
7.35E+001
 11
5.9E+001
 21
7.783E+001
  0
LINE
  8
V1L0
  6
CONTINUOUS
 62
40
 10
3.55E+001
 20
7.35E+001
 11
6.05E+001
 21
7.35E+001
  0
LINE
  8
V1L0
  6
CONTINUOUS
 62
40
 10
3.55E+001
 20
2.25E+001
 11
6.05E+001
 21
2.25E+001
  0
CIRCLE
  8
V1L0
  6
CONTINUOUS
 62
40
 10
2.0502371E+001
 20
6.54984E+001
 40
1.25
  0
CIRCLE
  8
V1L0
  6
CONTINUOUS
 62
40
 10
2.0502371E+001
 20
3.04984E+001
 40
1.25
  0
LINE
  8
V1L0
  6
CONTINUOUS
 62
40
 10
7.45E+001
 20
6.65E+001
 11
8.1E+001
 21
6.65E+001
  0
LINE
  8
V1L0
  6
CONTINUOUS
 62
40
 10
7.45E+001
 20
2.95E+001
 11
8.1E+001
 21
2.95E+001
  0
LINE
  8
V1L0
  6
CONTINUOUS
 62
40
 10
2.5
 20
9.5E+001
 11
5.9E+001
 21
9.5E+001
  0
LINE
  8
V1L0
  6
CONTINUOUS
 62
40
 10
2.5
 20
1.0
 11
5.9E+001
 21
1.0
  0
LINE
  8
V1L0
  6
CONTINUOUS
 62
40
 10
1.0
 20
7.15E+001
 11
2.5
 21
7.15E+001
  0
LINE
  8
V1L0
  6
CONTINUOUS
 62
40
 10
1.0
 20
2.45E+001
 11
2.5
 21
2.45E+001
  0
LINE
  8
V1L0
  6
CONTINUOUS
 62
40
 10
6.05E+001
 20
7.15E+001
 11
8.1E+001
 21
7.15E+001
  0
LINE
  8
V1L0
  6
CONTINUOUS
 62
40
 10
6.05E+001
 20
2.45E+001
 11
8.1E+001
 21
2.45E+001
  0
LINE
  8
V1L0
  6
CONTINUOUS
 62
40
 10
5.9E+001
 20
1.0
 11
5.9E+001
 21
1.506E+001
  0
LINE
  8
V1L0
  6
CONTINUOUS
 62
40
 10
8.1E+001
 20
2.45E+001
 11
8.1E+001
 21
2.95E+001
  0
LINE
  8
V1L0
  6
CONTINUOUS
 62
40
 10
6.05E+001
 20
2.25E+001
 11
6.05E+001
 21
4.8E+001
  0
CIRCLE
  8
V1L0
  6
CONTINUOUS
 62
40
 10
4.8002371E+001
 20
3.04984E+001
 40
2.75
  0
LINE
  8
V1L0
  6
CONTINUOUS
 62
40
 10
4.588E+001
 20
3.225E+001
 11
4.936E+001
 21
2.811E+001
  0
LINE
  8
V1L0
  6
CONTINUOUS
 62
40
 10
4.665E+001
 20
3.289E+001
 11
5.012E+001
 21
2.875E+001
  0
CIRCLE
  8
V1L0
  6
CONTINUOUS
 62
40
 10
4.8002371E+001
 20
6.54984E+001
 40
2.75
  0
LINE
  8
V1L0
  6
CONTINUOUS
 62
40
 10
4.665E+001
 20
6.789E+001
 11
5.012E+001
 21
6.375E+001
  0
LINE
  8
V1L0
  6
CONTINUOUS
 62
40
 10
4.588E+001
 20
6.725E+001
 11
4.936E+001
 21
6.311E+001
  0
LINE
  8
V1L0
  6
CONTINUOUS
 62
40
 10
7.35E+001
 20
6.287E+001
 11
7.35E+001
 21
6.55E+001
  0
ARC
  8
V1L0
  6
CONTINUOUS
 62
40
 10
7.4502371E+001
 20
6.54984E+001
 40
1.0
 50
9.0E+001
 51
1.8E+002
  0
ARC
  8
V1L0
  6
CONTINUOUS
 62
40
 10
7.4502371E+001
 20
3.04984E+001
 40
1.0
 50
1.8E+002
 51
2.7E+002
  0
LINE
  8
V1L0
  6
CONTINUOUS
 62
40
 10
5.4E+001
 20
7.35E+001
 11
5.495E+001
 21
7.696E+001
  0
LINE
  8
V1L0
  6
CONTINUOUS
 62
40
 10
5.7E+001
 20
8.45E+001
 11
5.845E+001
 21
8.411E+001
  0
LINE
  8
V1L0
  6
CONTINUOUS
 62
40
 10
5.556E+001
 20
7.35E+001
 11
5.845E+001
 21
8.411E+001
  0
LINE
  8
V1L0
  6
CONTINUOUS
 62
40
 10
5.179E+001
 20
7.679E+001
 11
5.411E+001
 21
8.529E+001
  0
LINE
  8
V1L0
  6
CONTINUOUS
 62
40
 10
4.972E+001
 20
7.868E+001
 11
5.136E+001
 21
8.471E+001
  0
LINE
  8
V1L0
  6
CONTINUOUS
 62
40
 10
5.179E+001
 20
7.679E+001
 11
5.44E+001
 21
7.608E+001
  0
LINE
  8
V1L0
  6
CONTINUOUS
 62
40
 10
5.198E+001
 20
8.507E+001
 11
5.39E+001
 21
8.454E+001
  0
LINE
  8
V1L0
  6
CONTINUOUS
 62
40
 10
5.007E+001
 20
7.807E+001
 11
5.2E+001
 21
7.754E+001
  0
ARC
  8
V1L0
  6
CONTINUOUS
 62
40
 10
5.1842371E+001
 20
8.45784E+001
 40
5.0E-001
 50
7.474E+001
 51
1.6474E+002
  0
ARC
  8
V1L0
  6
CONTINUOUS
 62
40
 10
5.0202371E+001
 20
7.85484E+001
 40
5.0E-001
 50
1.6474E+002
 51
2.5474E+002
  0
LINE
  8
V1L0
  6
CONTINUOUS
 62
40
 10
5.671E+001
 20
8.458E+001
 11
5.674E+001
 21
8.354E+001
  0
LINE
  8
V1L0
  6
CONTINUOUS
 62
40
 10
5.411E+001
 20
8.529E+001
 11
5.671E+001
 21
8.458E+001
  0
LINE
  8
V1L0
  6
CONTINUOUS
 62
40
 10
5.44E+001
 20
7.608E+001
 11
5.495E+001
 21
7.696E+001
  0
LINE
  8
V1L0
  6
CONTINUOUS
 62
40
 10
5.495E+001
 20
7.696E+001
 11
5.7E+001
 21
8.45E+001
  0
LINE
  8
V1L0
  6
CONTINUOUS
 62
40
 10
5.69E+001
 20
7.841E+001
 11
5.979E+001
 21
7.762E+001
  0
LINE
  8
V1L0
  6
CONTINUOUS
 62
40
 10
5.769E+001
 20
8.13E+001
 11
6.058E+001
 21
8.051E+001
  0
LINE
  8
V1L0
  6
CONTINUOUS
 62
40
 10
5.979E+001
 20
7.762E+001
 11
6.058E+001
 21
8.051E+001
  0
LINE
  8
V1L0
  6
CONTINUOUS
 62
40
 10
4.044E+001
 20
7.35E+001
 11
4.139E+001
 21
7.696E+001
  0
LINE
  8
V1L0
  6
CONTINUOUS
 62
40
 10
4.344E+001
 20
8.45E+001
 11
4.489E+001
 21
8.411E+001
  0
LINE
  8
V1L0
  6
CONTINUOUS
 62
40
 10
4.2E+001
 20
7.35E+001
 11
4.489E+001
 21
8.411E+001
  0
LINE
  8
V1L0
  6
CONTINUOUS
 62
40
 10
3.823E+001
 20
7.679E+001
 11
4.055E+001
 21
8.529E+001
  0
LINE
  8
V1L0
  6
CONTINUOUS
 62
40
 10
3.616E+001
 20
7.868E+001
 11
3.78E+001
 21
8.471E+001
  0
LINE
  8
V1L0
  6
CONTINUOUS
 62
40
 10
3.823E+001
 20
7.679E+001
 11
4.084E+001
 21
7.608E+001
  0
LINE
  8
V1L0
  6
CONTINUOUS
 62
40
 10
3.842E+001
 20
8.507E+001
 11
4.034E+001
 21
8.454E+001
  0
LINE
  8
V1L0
  6
CONTINUOUS
 62
40
 10
3.651E+001
 20
7.807E+001
 11
3.844E+001
 21
7.754E+001
  0
ARC
  8
V1L0
  6
CONTINUOUS
 62
40
 10
3.8282371E+001
 20
8.45784E+001
 40
5.0E-001
 50
7.474E+001
 51
1.6474E+002
  0
ARC
  8
V1L0
  6
CONTINUOUS
 62
40
 10
3.6642371E+001
 20
7.85484E+001
 40
5.0E-001
 50
1.6474E+002
 51
2.5474E+002
  0
LINE
  8
V1L0
  6
CONTINUOUS
 62
40
 10
4.315E+001
 20
8.458E+001
 11
4.318E+001
 21
8.354E+001
  0
LINE
  8
V1L0
  6
CONTINUOUS
 62
40
 10
4.055E+001
 20
8.529E+001
 11
4.315E+001
 21
8.458E+001
  0
LINE
  8
V1L0
  6
CONTINUOUS
 62
40
 10
4.084E+001
 20
7.608E+001
 11
4.139E+001
 21
7.696E+001
  0
LINE
  8
V1L0
  6
CONTINUOUS
 62
40
 10
4.139E+001
 20
7.696E+001
 11
4.163E+001
 21
7.784E+001
  0
LINE
  8
V1L0
  6
CONTINUOUS
 62
40
 10
3.921E+001
 20
7.85E+001
 11
4.053E+001
 21
8.332E+001
  0
LINE
  8
V1L0
  6
CONTINUOUS
 62
40
 10
3.921E+001
 20
7.85E+001
 11
4.307E+001
 21
7.744E+001
  0
LINE
  8
V1L0
  6
CONTINUOUS
 62
40
 10
4.053E+001
 20
8.332E+001
 11
4.439E+001
 21
8.227E+001
  0
LINE
  8
V1L0
  6
CONTINUOUS
 62
40
 10
4.334E+001
 20
7.841E+001
 11
4.623E+001
 21
7.762E+001
  0
LINE
  8
V1L0
  6
CONTINUOUS
 62
40
 10
4.413E+001
 20
8.13E+001
 11
4.702E+001
 21
8.051E+001
  0
LINE
  8
V1L0
  6
CONTINUOUS
 62
40
 10
4.623E+001
 20
7.762E+001
 11
4.702E+001
 21
8.051E+001
  0
LINE
  8
V1L0
  6
CONTINUOUS
 62
40
 10
4.294E+001
 20
8.266E+001
 11
4.344E+001
 21
8.45E+001
  0
LINE
  8
V1L0
  6
CONTINUOUS
 62
40
 10
5.9E+001
 20
8.094E+001
 11
5.9E+001
 21
9.5E+001
  0
LINE
  8
V1L0
  6
CONTINUOUS
 62
40
 10
5.4E+001
 20
2.25E+001
 11
5.495E+001
 21
1.904E+001
  0
LINE
  8
V1L0
  6
CONTINUOUS
 62
40
 10
5.7E+001
 20
1.15E+001
 11
5.845E+001
 21
1.189E+001
  0
LINE
  8
V1L0
  6
CONTINUOUS
 62
40
 10
5.556E+001
 20
2.25E+001
 11
5.845E+001
 21
1.189E+001
  0
LINE
  8
V1L0
  6
CONTINUOUS
 62
40
 10
5.179E+001
 20
1.921E+001
 11
5.411E+001
 21
1.071E+001
  0
LINE
  8
V1L0
  6
CONTINUOUS
 62
40
 10
4.972E+001
 20
1.732E+001
 11
5.136E+001
 21
1.129E+001
  0
LINE
  8
V1L0
  6
CONTINUOUS
 62
40
 10
5.179E+001
 20
1.921E+001
 11
5.44E+001
 21
1.992E+001
  0
LINE
  8
V1L0
  6
CONTINUOUS
 62
40
 10
5.198E+001
 20
1.093E+001
 11
5.39E+001
 21
1.146E+001
  0
LINE
  8
V1L0
  6
CONTINUOUS
 62
40
 10
5.007E+001
 20
1.793E+001
 11
5.2E+001
 21
1.846E+001
  0
ARC
  8
V1L0
  6
CONTINUOUS
 62
40
 10
5.1842371E+001
 20
1.14184E+001
 40
5.0E-001
 50
1.9526E+002
 51
2.8526E+002
  0
ARC
  8
V1L0
  6
CONTINUOUS
 62
40
 10
5.0202371E+001
 20
1.74484E+001
 40
5.0E-001
 50
1.0526E+002
 51
1.9526E+002
  0
LINE
  8
V1L0
  6
CONTINUOUS
 62
40
 10
5.671E+001
 20
1.142E+001
 11
5.674E+001
 21
1.246E+001
  0
LINE
  8
V1L0
  6
CONTINUOUS
 62
40
 10
5.411E+001
 20
1.071E+001
 11
5.671E+001
 21
1.142E+001
  0
LINE
  8
V1L0
  6
CONTINUOUS
 62
40
 10
5.44E+001
 20
1.992E+001
 11
5.495E+001
 21
1.904E+001
  0
LINE
  8
V1L0
  6
CONTINUOUS
 62
40
 10
5.65E+001
 20
1.334E+001
 11
5.7E+001
 21
1.15E+001
  0
LINE
  8
V1L0
  6
CONTINUOUS
 62
40
 10
5.69E+001
 20
1.759E+001
 11
5.979E+001
 21
1.838E+001
  0
LINE
  8
V1L0
  6
CONTINUOUS
 62
40
 10
5.769E+001
 20
1.47E+001
 11
6.058E+001
 21
1.549E+001
  0
LINE
  8
V1L0
  6
CONTINUOUS
 62
40
 10
4.044E+001
 20
2.25E+001
 11
4.139E+001
 21
1.904E+001
  0
LINE
  8
V1L0
  6
CONTINUOUS
 62
40
 10
4.344E+001
 20
1.15E+001
 11
4.489E+001
 21
1.189E+001
  0
LINE
  8
V1L0
  6
CONTINUOUS
 62
40
 10
4.2E+001
 20
2.25E+001
 11
4.489E+001
 21
1.189E+001
  0
LINE
  8
V1L0
  6
CONTINUOUS
 62
40
 10
3.823E+001
 20
1.921E+001
 11
4.055E+001
 21
1.071E+001
  0
LINE
  8
V1L0
  6
CONTINUOUS
 62
40
 10
3.616E+001
 20
1.732E+001
 11
3.78E+001
 21
1.129E+001
  0
LINE
  8
V1L0
  6
CONTINUOUS
 62
40
 10
3.823E+001
 20
1.921E+001
 11
4.084E+001
 21
1.992E+001
  0
LINE
  8
V1L0
  6
CONTINUOUS
 62
40
 10
3.842E+001
 20
1.093E+001
 11
4.034E+001
 21
1.146E+001
  0
LINE
  8
V1L0
  6
CONTINUOUS
 62
40
 10
3.651E+001
 20
1.793E+001
 11
3.844E+001
 21
1.846E+001
  0
ARC
  8
V1L0
  6
CONTINUOUS
 62
40
 10
3.8282371E+001
 20
1.14184E+001
 40
5.0E-001
 50
1.9526E+002
 51
2.8526E+002
  0
ARC
  8
V1L0
  6
CONTINUOUS
 62
40
 10
3.6642371E+001
 20
1.74484E+001
 40
5.0E-001
 50
1.0526E+002
 51
1.9526E+002
  0
LINE
  8
V1L0
  6
CONTINUOUS
 62
40
 10
4.315E+001
 20
1.142E+001
 11
4.318E+001
 21
1.246E+001
  0
LINE
  8
V1L0
  6
CONTINUOUS
 62
40
 10
4.055E+001
 20
1.071E+001
 11
4.315E+001
 21
1.142E+001
  0
LINE
  8
V1L0
  6
CONTINUOUS
 62
40
 10
4.084E+001
 20
1.992E+001
 11
4.139E+001
 21
1.904E+001
  0
LINE
  8
V1L0
  6
CONTINUOUS
 62
40
 10
4.139E+001
 20
1.904E+001
 11
4.344E+001
 21
1.15E+001
  0
LINE
  8
V1L0
  6
CONTINUOUS
 62
40
 10
5.277E+001
 20
1.75E+001
 11
5.409E+001
 21
1.268E+001
  0
LINE
  8
V1L0
  6
CONTINUOUS
 62
40
 10
5.277E+001
 20
1.75E+001
 11
5.663E+001
 21
1.856E+001
  0
LINE
  8
V1L0
  6
CONTINUOUS
 62
40
 10
5.409E+001
 20
1.268E+001
 11
5.795E+001
 21
1.373E+001
  0
LINE
  8
V1L0
  6
CONTINUOUS
 62
40
 10
4.334E+001
 20
1.759E+001
 11
4.623E+001
 21
1.838E+001
  0
LINE
  8
V1L0
  6
CONTINUOUS
 62
40
 10
4.413E+001
 20
1.47E+001
 11
4.702E+001
 21
1.549E+001
  0
LINE
  8
V1L0
  6
CONTINUOUS
 62
40
 10
4.623E+001
 20
1.838E+001
 11
4.702E+001
 21
1.549E+001
  0
LINE
  8
V1L0
  6
CONTINUOUS
 62
40
 10
5.979E+001
 20
1.838E+001
 11
6.058E+001
 21
1.549E+001
  0
LINE
  8
V1L0
  6
CONTINUOUS
 62
40
 10
5.9E+001
 20
1.817E+001
 11
5.9E+001
 21
2.25E+001
  0
LINE
  8
V1L0
  6
CONTINUOUS
 62
40
 10
5.495E+001
 20
1.904E+001
 11
5.519E+001
 21
1.816E+001
  0
LINE
  8
V1L0
  6
CONTINUOUS
 62
40
 10
1.2813E+002
 20
1.3555E+002
 11
1.2813E+002
 21
1.6055E+002
  0
LINE
  8
V1L0
  6
CONTINUOUS
 62
40
 10
1.0813E+002
 20
1.3555E+002
 11
1.0813E+002
 21
1.6055E+002
  0
LINE
  8
V1L0
  6
CONTINUOUS
 62
40
 10
1.0813E+002
 20
1.6055E+002
 11
1.2813E+002
 21
1.6055E+002
  0
LINE
  8
V1L0
  6
CONTINUOUS
 62
40
 10
1.0813E+002
 20
1.3555E+002
 11
1.1295E+002
 21
1.3555E+002
  0
LINE
  8
V1L0
  6
CONTINUOUS
 62
40
 10
1.0813E+002
 20
1.3705E+002
 11
1.0813E+002
 21
1.9317E+002
  0
LINE
  8
V1L0
  6
CONTINUOUS
 62
40
 10
1.0763E+002
 20
1.3705E+002
 11
1.0813E+002
 21
1.3705E+002
  0
LINE
  8
V1L0
  6
CONTINUOUS
 62
40
 10
1.3263E+002
 20
1.453E+002
 11
1.3263E+002
 21
1.508E+002
  0
LINE
  8
V1L0
  6
CONTINUOUS
 62
40
 10
1.2813E+002
 20
1.453E+002
 11
1.3263E+002
 21
1.453E+002
  0
LINE
  8
V1L0
  6
CONTINUOUS
 62
40
 10
1.2813E+002
 20
1.508E+002
 11
1.3263E+002
 21
1.508E+002
  0
LINE
  8
V1L0
  6
CONTINUOUS
 62
40
 10
1.1863E+002
 20
1.5261E+002
 11
1.1863E+002
 21
1.5684E+002
  0
LINE
  8
V1L0
  6
CONTINUOUS
 62
40
 10
1.2613E+002
 20
1.5117E+002
 11
1.2613E+002
 21
1.5663E+002
  0
LINE
  8
V1L0
  6
CONTINUOUS
 62
40
 10
1.1713E+002
 20
1.5117E+002
 11
1.1713E+002
 21
1.5684E+002
  0
LINE
  8
V1L0
  6
CONTINUOUS
 62
40
 10
1.1713E+002
 20
1.5117E+002
 11
1.2613E+002
 21
1.5117E+002
  0
LINE
  8
V1L0
  6
CONTINUOUS
 62
40
 10
1.1863E+002
 20
1.5261E+002
 11
1.2613E+002
 21
1.5261E+002
  0
LINE
  8
V1L0
  6
CONTINUOUS
 62
40
 10
1.1713E+002
 20
1.5553E+002
 11
1.1863E+002
 21
1.5553E+002
  0
LINE
  8
V1L0
  6
CONTINUOUS
 62
40
 10
1.1713E+002
 20
1.5684E+002
 11
1.1863E+002
 21
1.5684E+002
  0
LINE
  8
V1L0
  6
CONTINUOUS
 62
40
 10
1.2343E+002
 20
1.5362E+002
 11
1.2564E+002
 21
1.528E+002
  0
LINE
  8
V1L0
  6
CONTINUOUS
 62
40
 10
1.1912E+002
 20
1.528E+002
 11
1.2133E+002
 21
1.5362E+002
  0
ARC
  8
V1L0
  6
CONTINUOUS
 62
40
 10
1.2238237E+002
 20
1.508084E+002
 40
3.0
 50
6.96E+001
 51
1.104E+002
  0
ARC
  8
V1L0
  6
CONTINUOUS
 62
40
 10
1.2238237E+002
 20
1.523084E+002
 40
3.0
 50
6.96E+001
 51
1.104E+002
  0
LINE
  8
V1L0
  6
CONTINUOUS
 62
40
 10
1.2343E+002
 20
1.5512E+002
 11
1.2613E+002
 21
1.5411E+002
  0
LINE
  8
V1L0
  6
CONTINUOUS
 62
40
 10
1.1863E+002
 20
1.5411E+002
 11
1.2133E+002
 21
1.5512E+002
  0
LINE
  8
V1L0
  6
CONTINUOUS
 62
40
 10
1.2579E+002
 20
1.5676E+002
 11
1.2613E+002
 21
1.5663E+002
  0
LINE
  8
V1L0
  6
CONTINUOUS
 62
40
 10
1.1863E+002
 20
1.5663E+002
 11
1.1897E+002
 21
1.5676E+002
  0
LINE
  8
V1L0
  6
CONTINUOUS
 62
40
 10
1.2564E+002
 20
1.528E+002
 11
1.2613E+002
 21
1.5411E+002
  0
LINE
  8
V1L0
  6
CONTINUOUS
 62
40
 10
1.1863E+002
 20
1.5411E+002
 11
1.1912E+002
 21
1.528E+002
  0
LINE
  8
V1L0
  6
CONTINUOUS
 62
40
 10
1.2554E+002
 20
1.5908E+002
 11
1.2579E+002
 21
1.5676E+002
  0
LINE
  8
V1L0
  6
CONTINUOUS
 62
40
 10
1.1897E+002
 20
1.5676E+002
 11
1.1922E+002
 21
1.5908E+002
  0
LINE
  8
V1L0
  6
CONTINUOUS
 62
40
 10
1.2254E+002
 20
1.5853E+002
 11
1.2295E+002
 21
1.5894E+002
  0
LINE
  8
V1L0
  6
CONTINUOUS
 62
40
 10
1.2117E+002
 20
1.5857E+002
 11
1.2153E+002
 21
1.5894E+002
  0
LINE
  8
V1L0
  6
CONTINUOUS
 62
40
 10
1.2117E+002
 20
1.5811E+002
 11
1.2117E+002
 21
1.5857E+002
  0
LINE
  8
V1L0
  6
CONTINUOUS
 62
40
 10
1.2254E+002
 20
1.5806E+002
 11
1.2254E+002
 21
1.5853E+002
  0
LINE
  8
V1L0
  6
CONTINUOUS
 62
40
 10
1.2222E+002
 20
1.5916E+002
 11
1.2222E+002
 21
1.5963E+002
  0
LINE
  8
V1L0
  6
CONTINUOUS
 62
40
 10
1.2117E+002
 20
1.5811E+002
 11
1.2222E+002
 21
1.5916E+002
  0
LINE
  8
V1L0
  6
CONTINUOUS
 62
40
 10
1.2038E+002
 20
1.592E+002
 11
1.2179E+002
 21
1.592E+002
  0
LINE
  8
V1L0
  6
CONTINUOUS
 62
40
 10
1.2436E+002
 20
1.5894E+002
 11
1.2462E+002
 21
1.592E+002
  0
LINE
  8
V1L0
  6
CONTINUOUS
 62
40
 10
1.2012E+002
 20
1.5894E+002
 11
1.2038E+002
 21
1.592E+002
  0
LINE
  8
V1L0
  6
CONTINUOUS
 62
40
 10
1.2012E+002
 20
1.5894E+002
 11
1.2153E+002
 21
1.5894E+002
  0
LINE
  8
V1L0
  6
CONTINUOUS
 62
40
 10
1.2153E+002
 20
1.5847E+002
 11
1.2153E+002
 21
1.5894E+002
  0
LINE
  8
V1L0
  6
CONTINUOUS
 62
40
 10
1.2179E+002
 20
1.5873E+002
 11
1.2179E+002
 21
1.592E+002
  0
LINE
  8
V1L0
  6
CONTINUOUS
 62
40
 10
1.2295E+002
 20
1.5894E+002
 11
1.2436E+002
 21
1.5894E+002
  0
LINE
  8
V1L0
  6
CONTINUOUS
 62
40
 10
1.2321E+002
 20
1.592E+002
 11
1.2462E+002
 21
1.592E+002
  0
LINE
  8
V1L0
  6
CONTINUOUS
 62
40
 10
1.2179E+002
 20
1.592E+002
 11
1.2222E+002
 21
1.5963E+002
  0
LINE
  8
V1L0
  6
CONTINUOUS
 62
40
 10
1.2321E+002
 20
1.592E+002
 11
1.2359E+002
 21
1.5959E+002
  0
LINE
  8
V1L0
  6
CONTINUOUS
 62
40
 10
1.2153E+002
 20
1.5873E+002
 11
1.2179E+002
 21
1.5873E+002
  0
LINE
  8
V1L0
  6
CONTINUOUS
 62
40
 10
1.2321E+002
 20
1.5894E+002
 11
1.2321E+002
 21
1.592E+002
  0
LINE
  8
V1L0
  6
CONTINUOUS
 62
40
 10
1.1038E+002
 20
1.3761E+002
 11
1.1738E+002
 21
1.3761E+002
  0
LINE
  8
V1L0
  6
CONTINUOUS
 62
40
 10
1.1763E+002
 20
1.3905E+002
 11
1.1763E+002
 21
1.4328E+002
  0
LINE
  8
V1L0
  6
CONTINUOUS
 62
40
 10
1.1013E+002
 20
1.3761E+002
 11
1.1013E+002
 21
1.4307E+002
  0
LINE
  8
V1L0
  6
CONTINUOUS
 62
40
 10
1.1913E+002
 20
1.3761E+002
 11
1.1913E+002
 21
1.4328E+002
  0
LINE
  8
V1L0
  6
CONTINUOUS
 62
40
 10
1.1013E+002
 20
1.3761E+002
 11
1.1913E+002
 21
1.3761E+002
  0
LINE
  8
V1L0
  6
CONTINUOUS
 62
40
 10
1.1013E+002
 20
1.3905E+002
 11
1.1763E+002
 21
1.3905E+002
  0
LINE
  8
V1L0
  6
CONTINUOUS
 62
40
 10
1.1763E+002
 20
1.4197E+002
 11
1.1913E+002
 21
1.4197E+002
  0
LINE
  8
V1L0
  6
CONTINUOUS
 62
40
 10
1.1763E+002
 20
1.4328E+002
 11
1.1913E+002
 21
1.4328E+002
  0
LINE
  8
V1L0
  6
CONTINUOUS
 62
40
 10
1.1062E+002
 20
1.3924E+002
 11
1.1283E+002
 21
1.4006E+002
  0
LINE
  8
V1L0
  6
CONTINUOUS
 62
40
 10
1.1493E+002
 20
1.4006E+002
 11
1.1714E+002
 21
1.3924E+002
  0
ARC
  8
V1L0
  6
CONTINUOUS
 62
40
 10
1.1388237E+002
 20
1.372484E+002
 40
3.0
 50
6.96E+001
 51
1.104E+002
  0
ARC
  8
V1L0
  6
CONTINUOUS
 62
40
 10
1.1388237E+002
 20
1.387484E+002
 40
3.0
 50
6.96E+001
 51
1.104E+002
  0
LINE
  8
V1L0
  6
CONTINUOUS
 62
40
 10
1.1013E+002
 20
1.4055E+002
 11
1.1283E+002
 21
1.4156E+002
  0
LINE
  8
V1L0
  6
CONTINUOUS
 62
40
 10
1.1493E+002
 20
1.4156E+002
 11
1.1763E+002
 21
1.4055E+002
  0
LINE
  8
V1L0
  6
CONTINUOUS
 62
40
 10
1.1013E+002
 20
1.4307E+002
 11
1.1047E+002
 21
1.432E+002
  0
LINE
  8
V1L0
  6
CONTINUOUS
 62
40
 10
1.1729E+002
 20
1.432E+002
 11
1.1763E+002
 21
1.4307E+002
  0
LINE
  8
V1L0
  6
CONTINUOUS
 62
40
 10
1.1013E+002
 20
1.4055E+002
 11
1.1062E+002
 21
1.3924E+002
  0
LINE
  8
V1L0
  6
CONTINUOUS
 62
40
 10
1.1714E+002
 20
1.3924E+002
 11
1.1763E+002
 21
1.4055E+002
  0
LINE
  8
V1L0
  6
CONTINUOUS
 62
40
 10
1.1047E+002
 20
1.432E+002
 11
1.1072E+002
 21
1.4552E+002
  0
LINE
  8
V1L0
  6
CONTINUOUS
 62
40
 10
1.1704E+002
 20
1.4552E+002
 11
1.1729E+002
 21
1.432E+002
  0
LINE
  8
V1L0
  6
CONTINUOUS
 62
40
 10
1.1331E+002
 20
1.4538E+002
 11
1.1372E+002
 21
1.4497E+002
  0
LINE
  8
V1L0
  6
CONTINUOUS
 62
40
 10
1.1473E+002
 20
1.4538E+002
 11
1.1509E+002
 21
1.4501E+002
  0
LINE
  8
V1L0
  6
CONTINUOUS
 62
40
 10
1.1509E+002
 20
1.4455E+002
 11
1.1509E+002
 21
1.4501E+002
  0
LINE
  8
V1L0
  6
CONTINUOUS
 62
40
 10
1.1372E+002
 20
1.445E+002
 11
1.1372E+002
 21
1.4497E+002
  0
LINE
  8
V1L0
  6
CONTINUOUS
 62
40
 10
1.1404E+002
 20
1.456E+002
 11
1.1404E+002
 21
1.4607E+002
  0
LINE
  8
V1L0
  6
CONTINUOUS
 62
40
 10
1.1404E+002
 20
1.456E+002
 11
1.1509E+002
 21
1.4455E+002
  0
LINE
  8
V1L0
  6
CONTINUOUS
 62
40
 10
1.1447E+002
 20
1.4564E+002
 11
1.1588E+002
 21
1.4564E+002
  0
LINE
  8
V1L0
  6
CONTINUOUS
 62
40
 10
1.1164E+002
 20
1.4564E+002
 11
1.119E+002
 21
1.4538E+002
  0
LINE
  8
V1L0
  6
CONTINUOUS
 62
40
 10
1.1588E+002
 20
1.4564E+002
 11
1.1614E+002
 21
1.4538E+002
  0
LINE
  8
V1L0
  6
CONTINUOUS
 62
40
 10
1.1473E+002
 20
1.4538E+002
 11
1.1614E+002
 21
1.4538E+002
  0
LINE
  8
V1L0
  6
CONTINUOUS
 62
40
 10
1.1473E+002
 20
1.4491E+002
 11
1.1473E+002
 21
1.4538E+002
  0
LINE
  8
V1L0
  6
CONTINUOUS
 62
40
 10
1.1447E+002
 20
1.4517E+002
 11
1.1447E+002
 21
1.4564E+002
  0
LINE
  8
V1L0
  6
CONTINUOUS
 62
40
 10
1.119E+002
 20
1.4538E+002
 11
1.1331E+002
 21
1.4538E+002
  0
LINE
  8
V1L0
  6
CONTINUOUS
 62
40
 10
1.1164E+002
 20
1.4564E+002
 11
1.1305E+002
 21
1.4564E+002
  0
LINE
  8
V1L0
  6
CONTINUOUS
 62
40
 10
1.1404E+002
 20
1.4607E+002
 11
1.1447E+002
 21
1.4564E+002
  0
LINE
  8
V1L0
  6
CONTINUOUS
 62
40
 10
1.1267E+002
 20
1.4603E+002
 11
1.1305E+002
 21
1.4564E+002
  0
LINE
  8
V1L0
  6
CONTINUOUS
 62
40
 10
1.1447E+002
 20
1.4517E+002
 11
1.1473E+002
 21
1.4517E+002
  0
LINE
  8
V1L0
  6
CONTINUOUS
 62
40
 10
1.1305E+002
 20
1.4538E+002
 11
1.1305E+002
 21
1.4564E+002
  0
LINE
  8
V1L0
  6
CONTINUOUS
 62
40
 10
1.1238E+002
 20
1.3568E+002
 11
1.1238E+002
 21
1.3761E+002
  0
LINE
  8
V1L0
  6
CONTINUOUS
 62
40
 10
1.1538E+002
 20
1.3568E+002
 11
1.1538E+002
 21
1.3761E+002
  0
LINE
  8
V1L0
  6
CONTINUOUS
 62
40
 10
1.1481E+002
 20
1.3555E+002
 11
1.2813E+002
 21
1.3555E+002
  0
LINE
  8
V1L0
  6
CONTINUOUS
 62
40
 10
1.2088E+002
 20
1.4924E+002
 11
1.2088E+002
 21
1.5117E+002
  0
LINE
  8
V1L0
  6
CONTINUOUS
 62
40
 10
1.2388E+002
 20
1.4924E+002
 11
1.2388E+002
 21
1.5117E+002
  0
LINE
  8
V1L0
  6
CONTINUOUS
 62
40
 10
1.0313E+002
 20
1.229E+002
 11
1.0313E+002
 21
1.4189E+002
  0
LINE
  8
V1L0
  6
CONTINUOUS
 62
40
 10
1.0613E+002
 20
1.4648E+002
 11
1.0613E+002
 21
1.9205E+002
  0
LINE
  8
V1L0
  6
CONTINUOUS
 62
40
 10
1.0763E+002
 20
1.3705E+002
 11
1.0763E+002
 21
1.4648E+002
  0
LINE
  8
V1L0
  6
CONTINUOUS
 62
40
 10
1.1713E+002
 20
1.9355E+002
 11
1.1713E+002
 21
1.9505E+002
  0
LINE
  8
V1L0
  6
CONTINUOUS
 62
40
 10
1.0913E+002
 20
1.9505E+002
 11
1.1713E+002
 21
1.9505E+002
  0
LINE
  8
V1L0
  6
CONTINUOUS
 62
40
 10
1.0913E+002
 20
1.9355E+002
 11
1.1713E+002
 21
1.9355E+002
  0
LINE
  8
V1L0
  6
CONTINUOUS
 62
40
 10
1.0163E+002
 20
1.2295E+002
 11
1.0163E+002
 21
1.4189E+002
  0
LINE
  8
V1L0
  6
CONTINUOUS
 62
40
 10
9.964E+001
 20
1.1515E+002
 11
1.0113E+002
 21
1.1505E+002
  0
ARC
  8
V1L0
  6
CONTINUOUS
 62
40
 10
1.0463237E+002
 20
1.418884E+002
 40
3.0
 50
9.3E+001
 51
1.8E+002
  0
ARC
  8
V1L0
  6
CONTINUOUS
 62
40
 10
1.0463237E+002
 20
1.418884E+002
 40
1.5
 50
9.3E+001
 51
1.8E+002
  0
ARC
  8
V1L0
  6
CONTINUOUS
 62
40
 10
1.0463237E+002
 20
1.464784E+002
 40
1.5
 50
2.73E+002
 51
3.6E+002
  0
ARC
  8
V1L0
  6
CONTINUOUS
 62
40
 10
1.0463237E+002
 20
1.464784E+002
 40
3.0
 50
2.73E+002
 51
3.6E+002
  0
ARC
  8
V1L0
  6
CONTINUOUS
 62
40
 10
1.0913237E+002
 20
1.920484E+002
 40
3.0
 50
9.0E+001
 51
1.8E+002
  0
ARC
  8
V1L0
  6
CONTINUOUS
 62
40
 10
1.0913237E+002
 20
1.920484E+002
 40
1.5
 50
9.0E+001
 51
1.8E+002
  0
LINE
  8
V1L0
  6
CONTINUOUS
 62
40
 10
1.0063E+002
 20
1.468E+002
 11
1.0063E+002
 21
1.493E+002
  0
LINE
  8
V1L0
  6
CONTINUOUS
 62
40
 10
1.0063E+002
 20
1.468E+002
 11
1.0613E+002
 21
1.468E+002
  0
LINE
  8
V1L0
  6
CONTINUOUS
 62
40
 10
1.0063E+002
 20
1.493E+002
 11
1.0613E+002
 21
1.493E+002
  0
CIRCLE
  8
V1L0
  6
CONTINUOUS
 62
40
 10
7.6002371E+001
 20
4.79984E+001
 40
1.5E+001
  0
CIRCLE
  8
V1L0
  6
CONTINUOUS
 62
40
 10
8.3002371E+001
 20
4.79984E+001
 40
4.0
  0
TEXT
  8
V1L0
  6
CONTINUOUS
 62
40
 10
1.2496E+002
 20
3.081E+001
 40
4.0
  1
OESA ZX46
 50
9.0E+001
  0
LINE
  8
V1L0
  6
CONTINUOUS
 62
40
 10
1.0113E+002
 20
1.1505E+002
 11
1.0303E+002
 21
1.2212E+002
  0
LINE
  8
V1L0
  6
CONTINUOUS
 62
40
 10
9.964E+001
 20
1.1515E+002
 11
1.0153E+002
 21
1.2217E+002
  0
LINE
  8
V1L0
  6
CONTINUOUS
 62
40
 10
1.0447E+002
 20
1.4489E+002
 11
1.0471E+002
 21
1.4498E+002
  0
LINE
  8
V1L0
  6
CONTINUOUS
 62
40
 10
1.0455E+002
 20
1.4339E+002
 11
1.0479E+002
 21
1.4348E+002
  0
LINE
  8
V1L0
  6
CONTINUOUS
 62
40
 10
1.1413E+002
 20
1.0505E+002
 11
1.2213E+002
 21
1.0505E+002
  0
LINE
  8
V1L0
  6
CONTINUOUS
 62
40
 10
1.2213E+002
 20
1.0505E+002
 11
1.2213E+002
 21
1.3505E+002
  0
LINE
  8
V1L0
  6
CONTINUOUS
 62
40
 10
1.1413E+002
 20
1.0505E+002
 11
1.1413E+002
 21
1.3505E+002
  0
LINE
  8
V1L0
  6
LONG_DASH
 62
40
 10
1.1413E+002
 20
1.0905E+002
 11
1.2213E+002
 21
1.0905E+002
  0
LINE
  8
V1L0
  6
LONG_DASH
 62
40
 10
1.1413E+002
 20
1.1705E+002
 11
1.2213E+002
 21
1.1705E+002
  0
LINE
  8
V1L0
  6
CONTINUOUS
 62
40
 10
1.0763E+002
 20
1.4648E+002
 11
1.0763E+002
 21
1.9205E+002
  0
ARC
  8
V1L0
  6
CONTINUOUS
 62
40
 10
9.8632371E+001
 20
1.229484E+002
 40
3.0
 50
3.4492E+002
 51
3.6E+002
  0
ARC
  8
V1L0
  6
CONTINUOUS
 62
40
 10
1.0013237E+002
 20
1.228984E+002
 40
3.0
 50
3.45E+002
 51
3.6E+002
  0
LINE
  8
V1L0
  6
CONTINUOUS
 62
40
 10
1.1613E+002
 20
1.0205E+002
 11
1.2013E+002
 21
1.0205E+002
  0
LINE
  8
V1L0
  6
CONTINUOUS
 62
40
 10
1.2113E+002
 20
1.0305E+002
 11
1.2113E+002
 21
1.0505E+002
  0
LINE
  8
V1L0
  6
CONTINUOUS
 62
40
 10
1.1513E+002
 20
1.0305E+002
 11
1.1513E+002
 21
1.0505E+002
  0
ARC
  8
V1L0
  6
CONTINUOUS
 62
40
 10
1.1613237E+002
 20
1.030484E+002
 40
1.0
 50
1.8E+002
 51
2.7E+002
  0
ARC
  8
V1L0
  6
CONTINUOUS
 62
40
 10
1.2013237E+002
 20
1.030484E+002
 40
1.0
 50
2.7E+002
 51
3.6E+002
  0
LINE
  8
V1L0
  6
CONTINUOUS
 62
40
 10
9.07E+001
 20
4.5E+001
 11
9.3E+001
 21
4.5E+001
  0
LINE
  8
V1L0
  6
CONTINUOUS
 62
40
 10
9.07E+001
 20
5.1E+001
 11
9.3E+001
 21
5.1E+001
  0
LINE
  8
V1L0
  6
CONTINUOUS
 62
40
 10
9.4E+001
 20
4.6E+001
 11
9.4E+001
 21
5.0E+001
  0
ARC
  8
V1L0
  6
CONTINUOUS
 62
40
 10
9.3002371E+001
 20
4.99984E+001
 40
1.0
 50
0.0
 51
9.0E+001
  0
ARC
  8
V1L0
  6
CONTINUOUS
 62
40
 10
9.3002371E+001
 20
4.59984E+001
 40
1.0
 50
2.7E+002
 51
3.6E+002
  0
LINE
  8
V1L0
  6
CONTINUOUS
 62
40
 10
1.1413E+002
 20
1.3505E+002
 11
1.2213E+002
 21
1.3505E+002
  0
LINE
  8
V1L0
  6
CONTINUOUS
 62
40
 10
1.7376E+002
 20
4.525E+001
 11
1.7376E+002
 21
5.075E+001
  0
LINE
  8
V1L0
  6
CONTINUOUS
 62
40
 10
1.5326E+002
 20
6.65E+001
 11
1.5326E+002
 21
7.15E+001
  0
LINE
  8
V1L0
  6
CONTINUOUS
 62
40
 10
2.3326E+002
 20
2.45E+001
 11
2.3326E+002
 21
7.15E+001
  0
LINE
  8
V1L0
  6
CONTINUOUS
 62
40
 10
2.3176E+002
 20
1.0
 11
2.3176E+002
 21
2.45E+001
  0
CIRCLE
  8
V1L0
  6
CONTINUOUS
 62
40
 10
2.1376237E+002
 20
6.54984E+001
 40
1.25
  0
CIRCLE
  8
V1L0
  6
CONTINUOUS
 62
40
 10
2.1376237E+002
 20
3.04984E+001
 40
1.25
  0
LINE
  8
V1L0
  6
CONTINUOUS
 62
40
 10
1.5326E+002
 20
6.65E+001
 11
1.5976E+002
 21
6.65E+001
  0
LINE
  8
V1L0
  6
CONTINUOUS
 62
40
 10
1.5326E+002
 20
2.95E+001
 11
1.5976E+002
 21
2.95E+001
  0
LINE
  8
V1L0
  6
CONTINUOUS
 62
40
 10
1.7526E+002
 20
9.5E+001
 11
2.3176E+002
 21
9.5E+001
  0
LINE
  8
V1L0
  6
CONTINUOUS
 62
40
 10
1.7526E+002
 20
1.0
 11
2.3176E+002
 21
1.0
  0
LINE
  8
V1L0
  6
CONTINUOUS
 62
40
 10
2.3026E+002
 20
7.15E+001
 11
2.3326E+002
 21
7.15E+001
  0
LINE
  8
V1L0
  6
CONTINUOUS
 62
40
 10
2.3026E+002
 20
2.45E+001
 11
2.3326E+002
 21
2.45E+001
  0
LINE
  8
V1L0
  6
CONTINUOUS
 62
40
 10
1.5326E+002
 20
7.15E+001
 11
1.8626E+002
 21
7.15E+001
  0
LINE
  8
V1L0
  6
CONTINUOUS
 62
40
 10
1.5326E+002
 20
2.45E+001
 11
1.8626E+002
 21
2.45E+001
  0
LINE
  8
V1L0
  6
CONTINUOUS
 62
40
 10
1.7526E+002
 20
1.0
 11
1.7526E+002
 21
2.45E+001
  0
LINE
  8
V1L0
  6
CONTINUOUS
 62
40
 10
1.5326E+002
 20
2.45E+001
 11
1.5326E+002
 21
2.95E+001
  0
LINE
  8
V1L0
  6
CONTINUOUS
 62
40
 10
1.6076E+002
 20
3.05E+001
 11
1.6076E+002
 21
4.525E+001
  0
ARC
  8
V1L0
  6
CONTINUOUS
 62
40
 10
1.5976237E+002
 20
6.54984E+001
 40
1.0
 50
0.0
 51
9.0E+001
  0
ARC
  8
V1L0
  6
CONTINUOUS
 62
40
 10
1.5976237E+002
 20
3.04984E+001
 40
1.0
 50
2.7E+002
 51
3.6E+002
  0
LINE
  8
V1L0
  6
CONTINUOUS
 62
40
 10
1.7447E+002
 20
7.762E+001
 11
1.7526E+002
 21
7.783E+001
  0
LINE
  8
V1L0
  6
CONTINUOUS
 62
40
 10
1.7368E+002
 20
8.051E+001
 11
1.7526E+002
 21
8.094E+001
  0
LINE
  8
V1L0
  6
CONTINUOUS
 62
40
 10
1.7368E+002
 20
8.051E+001
 11
1.7447E+002
 21
7.762E+001
  0
LINE
  8
V1L0
  6
CONTINUOUS
 62
40
 10
1.7526E+002
 20
7.15E+001
 11
1.7526E+002
 21
9.5E+001
  0
LINE
  8
V1L0
  6
CONTINUOUS
 62
40
 10
1.7447E+002
 20
1.838E+001
 11
1.7526E+002
 21
1.817E+001
  0
LINE
  8
V1L0
  6
CONTINUOUS
 62
40
 10
1.7368E+002
 20
1.549E+001
 11
1.7526E+002
 21
1.506E+001
  0
LINE
  8
V1L0
  6
CONTINUOUS
 62
40
 10
1.7368E+002
 20
1.549E+001
 11
1.7447E+002
 21
1.838E+001
  0
ARC
  8
V1L0
  6
CONTINUOUS
 62
40
 10
1.5826237E+002
 20
4.79984E+001
 40
1.5E+001
 50
8.041E+001
 51
2.7959E+002
  0
CIRCLE
  8
V1L0
  6
CONTINUOUS
 62
40
 10
1.5126237E+002
 20
4.79984E+001
 40
4.0
  0
LINE
  8
V1L0
  6
CONTINUOUS
 62
40
 10
1.4126E+002
 20
4.5E+001
 11
1.4356E+002
 21
4.5E+001
  0
LINE
  8
V1L0
  6
CONTINUOUS
 62
40
 10
1.4126E+002
 20
5.1E+001
 11
1.4356E+002
 21
5.1E+001
  0
LINE
  8
V1L0
  6
CONTINUOUS
 62
40
 10
1.4026E+002
 20
4.6E+001
 11
1.4026E+002
 21
5.0E+001
  0
ARC
  8
V1L0
  6
CONTINUOUS
 62
40
 10
1.4126237E+002
 20
4.99984E+001
 40
1.0
 50
9.0E+001
 51
1.8E+002
  0
ARC
  8
V1L0
  6
CONTINUOUS
 62
40
 10
1.4126237E+002
 20
4.59984E+001
 40
1.0
 50
1.8E+002
 51
2.7E+002
  0
LINE
  8
V1L0
  6
CONTINUOUS
 62
40
 10
1.8726E+002
 20
7.35E+001
 11
2.2926E+002
 21
7.35E+001
  0
LINE
  8
V1L0
  6
CONTINUOUS
 62
40
 10
1.6076E+002
 20
4.525E+001
 11
1.7451E+002
 21
4.525E+001
  0
LINE
  8
V1L0
  6
CONTINUOUS
 62
40
 10
1.6076E+002
 20
5.075E+001
 11
1.7451E+002
 21
5.075E+001
  0
ARC
  8
V1L0
  6
CONTINUOUS
 62
40
 10
1.7451237E+002
 20
4.79984E+001
 40
2.75
 50
2.7E+002
 51
4.5E+002
  0
LINE
  8
V1L0
  6
CONTINUOUS
 62
40
 10
1.6076E+002
 20
5.075E+001
 11
1.6076E+002
 21
6.55E+001
  0
ARC
  8
V1L0
  6
CONTINUOUS
 62
40
 10
1.5826237E+002
 20
4.79984E+001
 40
1.5E+001
 50
3.4944E+002
 51
3.7056E+002
  0
LINE
  8
V1L0
  6
CONTINUOUS
 62
40
 10
1.7376E+002
 20
7.15E+001
 11
1.7376E+002
 21
7.3E+001
  0
LINE
  8
V1L0
  6
CONTINUOUS
 62
40
 10
2.2926E+002
 20
7.25E+001
 11
2.2926E+002
 21
7.35E+001
  0
LINE
  8
V1L0
  6
CONTINUOUS
 62
40
 10
1.8726E+002
 20
7.25E+001
 11
1.8726E+002
 21
7.35E+001
  0
ARC
  8
V1L0
  6
CONTINUOUS
 62
40
 10
1.8626237E+002
 20
7.24984E+001
 40
1.0
 50
2.7E+002
 51
3.6E+002
  0
ARC
  8
V1L0
  6
CONTINUOUS
 62
40
 10
2.3026237E+002
 20
7.24984E+001
 40
1.0
 50
1.8E+002
 51
2.7E+002
  0
LINE
  8
V1L0
  6
CONTINUOUS
 62
40
 10
1.7426E+002
 20
7.35E+001
 11
1.7526E+002
 21
7.35E+001
  0
ARC
  8
V1L0
  6
CONTINUOUS
 62
40
 10
1.7426237E+002
 20
7.29984E+001
 40
5.0E-001
 50
9.0E+001
 51
1.8E+002
  0
LINE
  8
V1L0
  6
CONTINUOUS
 62
40
 10
1.8426E+002
 20
2.45E+001
 11
1.8426E+002
 21
7.15E+001
  0
CIRCLE
  8
V1L0
  6
CONTINUOUS
 62
40
 10
1.8626237E+002
 20
3.04984E+001
 40
1.5
  0
CIRCLE
  8
V1L0
  6
CONTINUOUS
 62
40
 10
1.8626237E+002
 20
6.54984E+001
 40
1.5
  0
LINE
  8
V1L0
  6
CONTINUOUS
 62
40
 10
1.8726E+002
 20
2.25E+001
 11
2.2926E+002
 21
2.25E+001
  0
ARC
  8
V1L0
  6
CONTINUOUS
 62
40
 10
1.8626237E+002
 20
2.34984E+001
 40
1.0
 50
0.0
 51
9.0E+001
  0
ARC
  8
V1L0
  6
CONTINUOUS
 62
40
 10
2.3026237E+002
 20
2.34984E+001
 40
1.0
 50
9.0E+001
 51
1.8E+002
  0
LINE
  8
V1L0
  6
CONTINUOUS
 62
40
 10
2.2926E+002
 20
2.25E+001
 11
2.2926E+002
 21
2.35E+001
  0
LINE
  8
V1L0
  6
CONTINUOUS
 62
40
 10
1.8726E+002
 20
2.25E+001
 11
1.8726E+002
 21
2.35E+001
  0
LINE
  8
V1L0
  6
CONTINUOUS
 62
40
 10
2.3176E+002
 20
7.15E+001
 11
2.3176E+002
 21
9.5E+001
  0
LINE
  8
V1L0
  6
LONG_DASH
 62
40
 10
1.0163E+002
 20
1.3905E+002
 11
1.0313E+002
 21
1.3905E+002
  0
LINE
  8
V1L0
  6
CENTERLINE
 62
40
 10
9.861E+001
 20
1.363E+002
 11
1.0577E+002
 21
1.363E+002
  0
ENDSEC
  0
EOF
