  0
SECTION
  2
HEADER
  9
$ACADVER
  1
AC1009
  9
$DWGCODEPAGE
  3
iso8859-1
  9
$INSBASE
 10
0.0
 20
0.0
 30
0.0
  9
$EXTMIN
 10
1.0E20
 20
1.0E20
  9
$EXTMAX
 10
-1.0E20
 20
-1.0E20
  9
$LIMMIN
 10
0.0
 20
0.0
  9
$LIMMAX
 10
12.0
 20
9.0
  9
$ORTHOMODE
 70
     0
  9
$REGENMODE
 70
     1
  9
$FILLMODE
 70
     1
  9
$QTEXTMODE
 70
     0
  9
$MIRRTEXT
 70
     1
  9
$DRAGMODE
 70
     2
  9
$LTSCALE
 40
15.0
  9
$OSMODE
 70
     0
  9
$ATTMODE
 70
     1
  9
$TEXTSIZE
 40
0.2
  9
$TRACEWID
 40
0.05
  9
$TEXTSTYLE
  7
STANDARD
  9
$CLAYER
  8
0
  9
$CELTYPE
  6
DASHED
  9
$CECOLOR
 62
   256
  9
$DIMSCALE
 40
1.0
  9
$DIMASZ
 40
0.18
  9
$DIMEXO
 40
0.0625
  9
$DIMDLI
 40
0.38
  9
$DIMRND
 40
0.0
  9
$DIMDLE
 40
0.0
  9
$DIMEXE
 40
0.18
  9
$DIMTP
 40
0.0
  9
$DIMTM
 40
0.0
  9
$DIMTXT
 40
0.18
  9
$DIMCEN
 40
0.09
  9
$DIMTSZ
 40
0.0
  9
$DIMTOL
 70
     0
  9
$DIMLIM
 70
     0
  9
$DIMTIH
 70
     1
  9
$DIMTOH
 70
     1
  9
$DIMSE1
 70
     0
  9
$DIMSE2
 70
     0
  9
$DIMTAD
 70
     0
  9
$DIMZIN
 70
     0
  9
$DIMBLK
  1

  9
$DIMASO
 70
     1
  9
$DIMSHO
 70
     1
  9
$DIMPOST
  1

  9
$DIMAPOST
  1

  9
$DIMALT
 70
     0
  9
$DIMALTD
 70
     2
  9
$DIMALTF
 40
25.4
  9
$DIMLFAC
 40
1.0
  9
$DIMTOFL
 70
     0
  9
$DIMTVP
 40
0.0
  9
$DIMTIX
 70
     0
  9
$DIMSOXD
 70
     0
  9
$DIMSAH
 70
     0
  9
$DIMBLK1
  1

  9
$DIMBLK2
  1

  9
$DIMSTYLE
  2
STANDARD
  9
$DIMCLRD
 70
     0
  9
$DIMCLRE
 70
     0
  9
$DIMCLRT
 70
     0
  9
$DIMTFAC
 40
1.0
  9
$DIMGAP
 40
0.09
  9
$LUNITS
 70
     2
  9
$LUPREC
 70
     4
  9
$AXISMODE
 70
     0
  9
$AXISUNIT
 10
0.0
 20
0.0
  9
$SKETCHINC
 40
0.1
  9
$FILLETRAD
 40
0.0
  9
$AUNITS
 70
     0
  9
$AUPREC
 70
     0
  9
$MENU
  1
acad
  9
$ELEVATION
 40
0.0
  9
$PELEVATION
 40
0.0
  9
$THICKNESS
 40
0.0
  9
$LIMCHECK
 70
     0
  9
$BLIPMODE
 70
     1
  9
$CHAMFERA
 40
0.0
  9
$CHAMFERB
 40
0.0
  9
$SKPOLY
 70
     0
  9
$TDCREATE
 40
0.000000000
  9
$TDUPDATE
 40
0.000000000
  9
$TDINDWG
 40
0.0
  9
$TDUSRTIMER
 40
0.0
  9
$USRTIMER
 70
     1
  9
$ANGBASE
 50
0.0
  9
$ANGDIR
 70
     0
  9
$PDMODE
 70
     0
  9
$PDSIZE
 40
0.0
  9
$PLINEWID
 40
0.0
  9
$COORDS
 70
     1
  9
$SPLFRAME
 70
     0
  9
$SPLINETYPE
 70
     6
  9
$SPLINESEGS
 70
     8
  9
$ATTDIA
 70
     0
  9
$ATTREQ
 70
     1
  9
$HANDLING
 70
     1
  9
$HANDSEED
  5
   867
  9
$SURFTAB1
 70
     6
  9
$SURFTAB2
 70
     6
  9
$SURFTYPE
 70
     6
  9
$SURFU
 70
     6
  9
$SURFV
 70
     6
  9
$UCSNAME
  2

  9
$UCSORG
 10
0.0
 20
0.0
 30
0.0
  9
$UCSXDIR
 10
1.0
 20
0.0
 30
0.0
  9
$UCSYDIR
 10
0.0
 20
1.0
 30
0.0
  9
$PUCSNAME
  2

  9
$PUCSORG
 10
0.0
 20
0.0
 30
0.0
  9
$PUCSXDIR
 10
1.0
 20
0.0
 30
0.0
  9
$PUCSYDIR
 10
0.0
 20
1.0
 30
0.0
  9
$USERI1
 70
     0
  9
$USERI2
 70
     0
  9
$USERI3
 70
     0
  9
$USERI4
 70
     0
  9
$USERI5
 70
     0
  9
$USERR1
 40
0.0
  9
$USERR2
 40
0.0
  9
$USERR3
 40
0.0
  9
$USERR4
 40
0.0
  9
$USERR5
 40
0.0
  9
$WORLDVIEW
 70
     1
  9
$SHADEDGE
 70
     3
  9
$SHADEDIF
 70
    70
  9
$TILEMODE
 70
     1
  9
$MAXACTVP
 70
    16
  9
$PINSBASE
 10
0.0
 20
0.0
 30
0.0
  9
$PLIMCHECK
 70
     0
  9
$PEXTMIN
 10
1.0E20
 20
1.0E20
 30
1.0E20
  9
$PEXTMAX
 10
-1.0E20
 20
-1.0E20
 30
-1.0E20
  9
$PLIMMIN
 10
0.0
 20
0.0
  9
$PLIMMAX
 10
12.0
 20
9.0
  9
$UNITMODE
 70
     0
  9
$VISRETAIN
 70
     0
  0
ENDSEC
  0
SECTION
  2
TABLES
  0
TABLE
  2
VPORT
 70
     1
  0
VPORT
  2
*ACTIVE
 70
     0
 10
0.0
 20
0.0
 11
1.0
 21
1.0
 12
6.801242
 22
4.5
 13
0.0
 23
0.0
 14
1.0
 24
1.0
 15
0.0
 25
0.0
 16
0.0
 26
0.0
 36
1.0
 17
0.0
 27
0.0
 37
0.0
 40
9.0
 41
1.511387
 42
50.0
 43
0.0
 44
0.0
 50
0.0
 51
0.0
 71
     0
 72
   100
 73
     1
 74
     1
 75
     0
 76
     0
 77
     0
 78
     0
  0
ENDTAB
  0
TABLE
  2
LTYPE
 70
    41
  0
LTYPE
  2
BYBLOCK
 70
     0
  3

 72
    65
 73
     0
 40
0.0
  0
LTYPE
  2
BYLAYER
 70
     0
  3

 72
    65
 73
     0
 40
0.0
  0
LTYPE
  2
CONTINUOUS
 70
     0
  3
Solid line
 72
    65
 73
     0
 40
0.0
  0
LTYPE
  2
BORDER
 70
    64
  3
__ __ . __ __ . __ __ . __ __ . __ __ . __ __ .
 72
    65
 73
     6
 40
1.75
 49
0.5
 49
-0.25
 49
0.5
 49
-0.25
 49
0.0
 49
-0.25
  0
LTYPE
  2
BORDER2
 70
    64
  3
__.__.__.__.__.__.__.__.__.__.__.__.__.__.__.__
 72
    65
 73
     6
 40
0.875
 49
0.25
 49
-0.125
 49
0.25
 49
-0.125
 49
0.0
 49
-0.125
  0
LTYPE
  2
BORDERX2
 70
    64
  3
____  ____  .  ____  ____  .  ____  ____  .  __
 72
    65
 73
     6
 40
3.5
 49
1.0
 49
-0.5
 49
1.0
 49
-0.5
 49
0.0
 49
-0.5
  0
LTYPE
  2
CENTER
 70
    64
  3
____ _ ____ _ ____ _ ____ _ ____ _ ____ _ ____
 72
    65
 73
     4
 40
2.0
 49
1.25
 49
-0.25
 49
0.25
 49
-0.25
  0
LTYPE
  2
CENTER2
 70
    64
  3
___ _ ___ _ ___ _ ___ _ ___ _ ___ _ ___ _ ___ _
 72
    65
 73
     4
 40
1.125
 49
0.75
 49
-0.125
 49
0.125
 49
-0.125
  0
LTYPE
  2
CENTERX2
 70
    64
  3
________  __  ________  __  ________  __  _____
 72
    65
 73
     4
 40
4.0
 49
2.5
 49
-0.5
 49
0.5
 49
-0.5
  0
LTYPE
  2
DASHDOT
 70
    64
  3
__ . __ . __ . __ . __ . __ . __ . __ . __ . __
 72
    65
 73
     4
 40
1.0
 49
0.5
 49
-0.25
 49
0.0
 49
-0.25
  0
LTYPE
  2
DASHDOT2
 70
    64
  3
_._._._._._._._._._._._._._._._._._._._._._._._
 72
    65
 73
     4
 40
0.5
 49
0.25
 49
-0.125
 49
0.0
 49
-0.125
  0
LTYPE
  2
DASHDOTX2
 70
    64
  3
____  .  ____  .  ____  .  ____  .  ____  .  __
 72
    65
 73
     4
 40
2.0
 49
1.0
 49
-0.5
 49
0.0
 49
-0.5
  0
LTYPE
  2
DASHED
 70
    64
  3
__ __ __ __ __ __ __ __ __ __ __ __ __ __ __ __
 72
    65
 73
     2
 40
0.75
 49
0.5
 49
-0.25
  0
LTYPE
  2
DASHED2
 70
    64
  3
_ _ _ _ _ _ _ _ _ _ _ _ _ _ _ _ _ _ _ _ _ _ _ _
 72
    65
 73
     2
 40
0.375
 49
0.25
 49
-0.125
  0
LTYPE
  2
DASHEDX2
 70
    64
  3
____  ____  ____  ____  ____  ____  ____  ____
 72
    65
 73
     2
 40
1.5
 49
1.0
 49
-0.5
  0
LTYPE
  2
DIVIDE
 70
    64
  3
____ . . ____ . . ____ . . ____ . . ____ . . __
 72
    65
 73
     6
 40
1.25
 49
0.5
 49
-0.25
 49
0.0
 49
-0.25
 49
0.0
 49
-0.25
  0
LTYPE
  2
DIVIDE2
 70
    64
  3
__..__..__..__..__..__..__..__..__..__..__..__.
 72
    65
 73
     6
 40
0.625
 49
0.25
 49
-0.125
 49
0.0
 49
-0.125
 49
0.0
 49
-0.125
  0
LTYPE
  2
DIVIDEX2
 70
    64
  3
________  .  .  ________  .  .  ________  .  .
 72
    65
 73
     6
 40
2.5
 49
1.0
 49
-0.5
 49
0.0
 49
-0.5
 49
0.0
 49
-0.5
  0
LTYPE
  2
DOT
 70
    64
  3
. . . . . . . . . . . . . . . . . . . . . . . .
 72
    65
 73
     2
 40
0.25
 49
0.0
 49
-0.25
  0
LTYPE
  2
DOT2
 70
    64
  3
...............................................
 72
    65
 73
     2
 40
0.125
 49
0.0
 49
-0.125
  0
LTYPE
  2
DOTX2
 70
    64
  3
.  .  .  .  .  .  .  .  .  .  .  .  .  .  .  .
 72
    65
 73
     2
 40
0.5
 49
0.0
 49
-0.5
  0
LTYPE
  2
HIDDEN
 70
    64
  3
__ __ __ __ __ __ __ __ __ __ __ __ __ __ __ __
 72
    65
 73
     2
 40
0.375
 49
0.25
 49
-0.125
  0
LTYPE
  2
HIDDEN2
 70
    64
  3
_ _ _ _ _ _ _ _ _ _ _ _ _ _ _ _ _ _ _ _ _ _ _ _
 72
    65
 73
     2
 40
0.1875
 49
0.125
 49
-0.0625
  0
LTYPE
  2
HIDDENX2
 70
    64
  3
____ ____ ____ ____ ____ ____ ____ ____ ____ __
 72
    65
 73
     2
 40
0.75
 49
0.5
 49
-0.25
  0
LTYPE
  2
PHANTOM
 70
    64
  3
______  __  __  ______  __  __  ______  __  __
 72
    65
 73
     6
 40
2.5
 49
1.25
 49
-0.25
 49
0.25
 49
-0.25
 49
0.25
 49
-0.25
  0
LTYPE
  2
PHANTOM2
 70
    64
  3
___ _ _ ___ _ _ ___ _ _ ___ _ _ ___ _ _ ___ _ _
 72
    65
 73
     6
 40
1.25
 49
0.625
 49
-0.125
 49
0.125
 49
-0.125
 49
0.125
 49
-0.125
  0
LTYPE
  2
PHANTOMX2
 70
    64
  3
____________    ____    ____    ____________
 72
    65
 73
     6
 40
5.0
 49
2.5
 49
-0.5
 49
0.5
 49
-0.5
 49
0.5
 49
-0.5
  0
LTYPE
  2
ACAD_ISO02W100
 70
    64
  3
__ __ __ __ __ __ __ __ __ __ __ __ __ __ __ __
 72
    65
 73
     2
 40
15.0
 49
12.0
 49
-3.0
  0
LTYPE
  2
ACAD_ISO03W100
 70
    64
  3
__    __    __    __    __    __    __    __
 72
    65
 73
     2
 40
30.0
 49
12.0
 49
-18.0
  0
LTYPE
  2
ACAD_ISO04W100
 70
    64
  3
____ . ____ . ____ . ____ . ____ . ____ . ____
 72
    65
 73
     4
 40
30.5
 49
24.0
 49
-3.0
 49
0.5
 49
-3.0
  0
LTYPE
  2
ACAD_ISO05W100
 70
    64
  3
____ .. ____ .. ____ .. ____ .. ____ .. ____ ..
 72
    65
 73
     6
 40
34.0
 49
24.0
 49
-3.0
 49
0.5
 49
-3.0
 49
0.5
 49
-3.0
  0
LTYPE
  2
ACAD_ISO06W100
 70
    64
  3
____ ... ____ ... ____ ... ____ ... ____ ... __
 72
    65
 73
     8
 40
37.5
 49
24.0
 49
-3.0
 49
0.5
 49
-3.0
 49
0.5
 49
-3.0
 49
0.5
 49
-3.0
  0
LTYPE
  2
ACAD_ISO07W100
 70
    64
  3
. . . . . . . . . . . . . . . . . . . . . . . .
 72
    65
 73
     2
 40
3.5
 49
0.5
 49
-3.0
  0
LTYPE
  2
ACAD_ISO08W100
 70
    64
  3
____ __ ____ __ ____ __ ____ ____ __ __ ____ __
 72
    65
 73
     4
 40
36.0
 49
24.0
 49
-3.0
 49
6.0
 49
-3.0
  0
LTYPE
  2
ACAD_ISO09W100
 70
    64
  3
____ __ __ ____ __ __ ____ __ __ ____ __ __ ___
 72
    65
 73
     6
 40
45.0
 49
24.0
 49
-3.0
 49
6.0
 49
-3.0
 49
6.0
 49
-3.0
  0
LTYPE
  2
ACAD_ISO10W100
 70
    64
  3
__ . __ . __ . __ . __ . __ . __ . __ . __ . __
 72
    65
 73
     4
 40
18.5
 49
12.0
 49
-3.0
 49
0.5
 49
-3.0
  0
LTYPE
  2
ACAD_ISO11W100
 70
    64
  3
__ __ . __ __ . __ __ . __ __ . __ __ . __ __ .
 72
    65
 73
     6
 40
33.5
 49
12.0
 49
-3.0
 49
12.0
 49
-3.0
 49
0.5
 49
-3.0
  0
LTYPE
  2
ACAD_ISO12W100
 70
    64
  3
__ . . __ . . __ . . __ . . __ . . __ . . __ .
 72
    65
 73
     6
 40
22.0
 49
12.0
 49
-3.0
 49
0.5
 49
-3.0
 49
0.5
 49
-3.0
  0
LTYPE
  2
ACAD_ISO13W100
 70
    64
  3
__ __ . . __ __ . . __ __ . . __ __ . . __ __ .
 72
    65
 73
     8
 40
37.0
 49
12.0
 49
-3.0
 49
12.0
 49
-3.0
 49
0.5
 49
-3.0
 49
0.5
 49
-3.0
  0
LTYPE
  2
ACAD_ISO14W100
 70
    64
  3
__ . . . __ . . . __ . . . __ . . . __ . . . __
 72
    65
 73
     8
 40
25.5
 49
12.0
 49
-3.0
 49
0.5
 49
-3.0
 49
0.5
 49
-3.0
 49
0.5
 49
-3.0
  0
LTYPE
  2
ACAD_ISO15W100
 70
    64
  3
__ __ . . . __ __ . . . __ __ . . . __ __ . . .
 72
    65
 73
    10
 40
40.5
 49
12.0
 49
-3.0
 49
12.0
 49
-3.0
 49
0.5
 49
-3.0
 49
0.5
 49
-3.0
 49
0.5
 49
-3.0
  0
ENDTAB
  0
TABLE
  2
STYLE
 70
     4
  0
STYLE
  2
STANDARD
 70
    64
 40
0.0
 41
1.0
 50
0.0
 71
     0
 42
0.2
  3
txt
  4

  0
STYLE
  2
TOLERANCE
 70
    64
 40
0.0
 41
1.0
 50
0.0
 71
     0
 42
0.2
  3
../igesfont/iges1003.shx
  4

  0
STYLE
  2
ROMANS
 70
    64
 40
0.0
 41
1.0
 50
0.0
 71
     0
 42
0.2
  3
romans.shx
  4

  0
STYLE
  2
ROMANC
 70
    64
 40
0.0
 41
1.0
 50
0.0
 71
     0
 42
0.2
  3
romanc.shx
  4

  0
ENDTAB
  0
TABLE
  2
DIMSTYLE
 70
     2
  0
DIMSTYLE
  2
UNNAMED
 70
     0
  3

  4

  5

  6

  7

 40
1.0
 41
0.18
 42
0.0625
 43
0.38
 44
0.18
 45
0.0
 46
0.0
 47
0.0
 48
0.0
140
0.18
141
0.09
142
0.0
143
25.4
144
1.0
145
0.0
146
1.0
147
0.09
 71
     0
 72
     0
 73
     1
 74
     1
 75
     0
 76
     0
 77
     0
 78
     0
170
     0
171
     2
172
     0
173
     0
174
     0
175
     0
176
     0
177
     0
178
     0
  0
DIMSTYLE
  2
STANDARD
 70
     0
  3

  4

  5

  6

  7

 40
1.0
 41
0.18
 42
0.0625
 43
0.38
 44
0.18
 45
0.0
 46
0.0
 47
0.0
 48
0.0
140
0.18
141
0.09
142
0.0
143
25.4
144
1.0
145
0.0
146
1.0
147
0.09
 71
     0
 72
     0
 73
     1
 74
     1
 75
     0
 76
     0
 77
     0
 78
     0
170
     0
171
     2
172
     0
173
     0
174
     0
175
     0
176
     0
177
     0
178
     0
  0
ENDTAB
  0
TABLE
  2
LAYER
 70
     2
  0
LAYER
  2
0
 70
     0
 62
     7
  6
CONTINUOUS
  0
LAYER
  2
255
 70
     0
 62
     7
  6
CONTINUOUS
  0
ENDTAB
  0
ENDSEC
  0
SECTION
  2
BLOCKS
  0
BLOCK
  5
     B
  8
0
  6
CONTINUOUS
 62
     5
  2
*UDIM530
 70
    65
 10
0.0
 20
0.0
 30
0.0
  3
*UDIM530
  0
TEXT
  5
     C
  8
0
  6
CONTINUOUS
 62
     5
 10
-1051.87769359125
 20
-126.187380309351
 30
0.0
 40
3.00000002980232
  1
58
 50
359.999999896069
 41
0.933333333333333
 72
     1
 11
-1049.3776935637
 21
-124.687380298972
 31
0.0
 73
     2
  0
LINE
  5
     D
  8
0
  6
CONTINUOUS
 62
     5
 10
-1041.84252929688
 20
-127.187380313873
 30
0.0
 11
-1056.37377929688
 21
-127.187380313873
 31
0.0
  0
LINE
  5
     E
  8
0
  6
CONTINUOUS
 62
     5
 10
-1044.79695257408
 20
-127.708324743825
 30
0.0
 11
-1041.84252929688
 21
-127.187380313873
 31
0.0
  0
LINE
  5
     F
  8
0
  6
CONTINUOUS
 62
     5
 10
-1041.84252929688
 20
-127.187380313873
 30
0.0
 11
-1044.79695257408
 21
-126.666435883922
 31
0.0
  0
LINE
  5
    10
  8
0
  6
CONTINUOUS
 62
     5
 10
-1053.41935601967
 20
-126.666435883922
 30
0.0
 11
-1056.37377929688
 21
-127.187380313873
 31
0.0
  0
LINE
  5
    11
  8
0
  6
CONTINUOUS
 62
     5
 10
-1056.37377929688
 20
-127.187380313873
 30
0.0
 11
-1053.41935601967
 21
-127.708324743825
 31
0.0
  0
ENDBLK
  5
    12
  8
0
  6
CONTINUOUS
 62
     5
  0
BLOCK
  5
    13
  8
0
  6
CONTINUOUS
 62
     5
  2
*UDIM531
 70
    65
 10
0.0
 20
0.0
 30
0.0
  3
*UDIM531
  0
TEXT
  5
    14
  8
0
  6
CONTINUOUS
 62
     5
 10
-1100.13901139517
 20
-131.203631094823
 30
0.0
 40
3.00000002980232
  1
65,75
 50
449.999999896069
 41
0.933333333333333
 72
     1
 11
-1101.63901139796
 21
-124.503631025553
 31
0.0
 73
     2
  0
LINE
  5
    15
  8
0
  6
CONTINUOUS
 62
     5
 10
-1086.52149179517
 20
-116.051208496094
 30
0.0
 11
-1101.13901138306
 21
-116.051208496094
 31
0.0
  0
LINE
  5
    16
  8
0
  6
CONTINUOUS
 62
     5
 10
-1094.68817483313
 20
-132.488708496094
 30
0.0
 11
-1101.13901138306
 21
-132.488708496094
 31
0.0
  0
LINE
  5
    17
  8
0
  6
CONTINUOUS
 62
     5
 10
-1099.13901138306
 20
-116.051208496094
 30
0.0
 11
-1099.13901138306
 21
-132.488708496094
 31
0.0
  0
LINE
  5
    18
  8
0
  6
CONTINUOUS
 62
     5
 10
-1098.61806695311
 20
-119.005631773301
 30
0.0
 11
-1099.13901138306
 21
-116.051208496094
 31
0.0
  0
LINE
  5
    19
  8
0
  6
CONTINUOUS
 62
     5
 10
-1099.13901138306
 20
-116.051208496094
 30
0.0
 11
-1099.65995581301
 21
-119.005631773301
 31
0.0
  0
LINE
  5
    1A
  8
0
  6
CONTINUOUS
 62
     5
 10
-1099.65995581301
 20
-129.534285218887
 30
0.0
 11
-1099.13901138306
 21
-132.488708496094
 31
0.0
  0
LINE
  5
    1B
  8
0
  6
CONTINUOUS
 62
     5
 10
-1099.13901138306
 20
-132.488708496094
 30
0.0
 11
-1098.61806695311
 21
-129.534285218887
 31
0.0
  0
ENDBLK
  5
    1C
  8
0
  6
CONTINUOUS
 62
     5
  0
BLOCK
  5
    1D
  8
0
  6
CONTINUOUS
 62
     7
  2
*UDIM532
 70
    65
 10
0.0
 20
0.0
 30
0.0
  3
*UDIM532
  0
TEXT
  5
    1E
  8
0
  6
CONTINUOUS
 62
     7
 10
-1121.20879495512
 20
-160.313383365325
 30
0.0
 40
3.00000002980232
  1
6
 50
376.357446133893
 41
0.933333333333334
 72
     1
 11
-1120.57576253936
 21
-158.564306457542
 31
0.0
 73
     2
  0
TEXT
  5
    1F
  8
0
  6
CONTINUOUS
 62
     7
 10
-1124.23129369311
 20
-161.200514382402
 30
0.0
 40
3.00000002980232
  1
Ø
 50
376.357446133893
 41
0.933333333333334
 72
     1
 11
-1123.59826127734
 21
-159.45143747462
 31
0.0
 73
     2
  0
TEXT
  5
    20
  8
0
  6
CONTINUOUS
 62
     7
 10
-1118.57010555946
 20
-159.538903889183
 30
0.0
 40
3.00000002980232
  1
 (M5)
 50
376.357446133893
 41
0.933333333333333
 72
     1
 11
-1112.56374201465
 21
-156.212705172288
 31
0.0
 73
     2
  0
LINE
  5
    21
  8
0
  6
CONTINUOUS
 62
     7
 10
-1081.12288674248
 20
-149.589986826027
 30
0.0
 11
-1123.94966479652
 21
-162.160037789405
 31
0.0
  0
LINE
  5
    22
  8
0
  6
CONTINUOUS
 62
     7
 10
-1078.43476146053
 20
-148.258077494077
 30
0.0
 11
-1081.12288674248
 21
-149.589986826027
 31
0.0
  0
LINE
  5
    23
  8
0
  6
CONTINUOUS
 62
     7
 10
-1081.12288674248
 20
-149.589986826027
 30
0.0
 11
-1078.14133545385
 21
-149.257794241457
 31
0.0
  0
LINE
  5
    24
  8
0
  6
CONTINUOUS
 62
     7
 10
-1085.25029713322
 20
-151.344339498111
 30
0.0
 11
-1082.56217185127
 21
-150.01243016616
 31
0.0
  0
LINE
  5
    25
  8
0
  6
CONTINUOUS
 62
     7
 10
-1082.56217185127
 20
-150.01243016616
 30
0.0
 11
-1085.5437231399
 21
-150.34462275073
 31
0.0
  0
ENDBLK
  5
    26
  8
0
  6
CONTINUOUS
 62
     7
  0
BLOCK
  5
    27
  8
0
  6
CONTINUOUS
 62
     7
  2
*UDIM533
 70
    65
 10
0.0
 20
0.0
 30
0.0
  3
*UDIM533
  0
TEXT
  5
    28
  8
0
  6
CONTINUOUS
 62
     7
 10
-1066.01752934429
 20
-141.476656906703
 30
0.0
 40
3.00000002980232
  1
160
 50
359.999999896069
 41
0.933333333333333
 72
     1
 11
-1062.11752930284
 21
-139.976656898856
 31
0.0
 73
     2
  0
LINE
  5
    29
  8
0
  6
CONTINUOUS
 62
     7
 10
-1041.84252929688
 20
-142.476656913757
 30
0.0
 11
-1081.84252929688
 21
-142.476656913757
 31
0.0
  0
LINE
  5
    2A
  8
0
  6
CONTINUOUS
 62
     7
 10
-1044.79695257408
 20
-142.997601343709
 30
0.0
 11
-1041.84252929688
 21
-142.476656913757
 31
0.0
  0
LINE
  5
    2B
  8
0
  6
CONTINUOUS
 62
     7
 10
-1041.84252929688
 20
-142.476656913757
 30
0.0
 11
-1044.79695257408
 21
-141.955712483806
 31
0.0
  0
LINE
  5
    2C
  8
0
  6
CONTINUOUS
 62
     7
 10
-1078.88810601967
 20
-141.955712483806
 30
0.0
 11
-1081.84252929688
 21
-142.476656913757
 31
0.0
  0
LINE
  5
    2D
  8
0
  6
CONTINUOUS
 62
     7
 10
-1081.84252929688
 20
-142.476656913757
 30
0.0
 11
-1078.88810601967
 21
-142.997601343709
 31
0.0
  0
ENDBLK
  5
    2E
  8
0
  6
CONTINUOUS
 62
     7
  0
BLOCK
  5
    2F
  8
0
  6
CONTINUOUS
 62
     7
  2
*UDIM534
 70
    65
 10
0.0
 20
0.0
 30
0.0
  3
*UDIM534
  0
TEXT
  5
    30
  8
0
  6
CONTINUOUS
 62
     7
 10
-1107.96446991672
 20
-137.101204247519
 30
0.0
 40
3.00000002980232
  1
135
 50
449.999999896069
 41
0.933333333333333
 72
     1
 11
-1109.46446992457
 21
-133.201204206064
 31
0.0
 73
     2
  0
LINE
  5
    31
  8
0
  6
CONTINUOUS
 62
     7
 10
-1086.52149179517
 20
-116.051207480932
 30
0.0
 11
-1108.96446990967
 21
-116.051184697688
 31
0.0
  0
LINE
  5
    32
  8
0
  6
CONTINUOUS
 62
     7
 10
-1086.19227823548
 20
-149.801207491536
 30
0.0
 11
-1108.96446990967
 21
-149.801184615549
 31
0.0
  0
LINE
  5
    33
  8
0
  6
CONTINUOUS
 62
     7
 10
-1106.96446990967
 20
-116.051186728011
 30
0.0
 11
-1106.96446990967
 21
-149.801186624665
 31
0.0
  0
LINE
  5
    34
  8
0
  6
CONTINUOUS
 62
     7
 10
-1106.44352547972
 20
-119.005610005218
 30
0.0
 11
-1106.96446990967
 21
-116.051186728011
 31
0.0
  0
LINE
  5
    35
  8
0
  6
CONTINUOUS
 62
     7
 10
-1106.96446990967
 20
-116.051186728011
 30
0.0
 11
-1107.48541433962
 21
-119.005610005218
 31
0.0
  0
LINE
  5
    36
  8
0
  6
CONTINUOUS
 62
     7
 10
-1107.48541433962
 20
-146.846763347458
 30
0.0
 11
-1106.96446990967
 21
-149.801186624665
 31
0.0
  0
LINE
  5
    37
  8
0
  6
CONTINUOUS
 62
     7
 10
-1106.96446990967
 20
-149.801186624665
 30
0.0
 11
-1106.44352547972
 21
-146.846763347458
 31
0.0
  0
ENDBLK
  5
    38
  8
0
  6
CONTINUOUS
 62
     7
  0
BLOCK
  5
    39
  8
0
  6
CONTINUOUS
 62
     7
  2
MOSTRINA
 70
    64
 10
0.0
 20
0.0
 30
0.0
  3
MOSTRINA
  0
LINE
  5
    3A
  8
0
  6
CONTINUOUS
 62
     3
 10
173.338256835938
 20
30.7306251525879
 30
0.0
 11
173.338256835938
 21
189.230621337891
 31
0.0
  0
LINE
  5
    3B
  8
0
  6
CONTINUOUS
 62
     3
 10
57.5882568359375
 20
29.4806251525879
 30
0.0
 11
172.088256835938
 21
29.4806251525879
 31
0.0
  0
LINE
  5
    3C
  8
0
  6
CONTINUOUS
 62
     3
 10
56.3382568359375
 20
30.7306251525879
 30
0.0
 11
56.3382568359375
 21
189.230621337891
 31
0.0
  0
LINE
  5
    3D
  8
0
  6
CONTINUOUS
 62
     3
 10
57.5882568359375
 20
190.480621337891
 30
0.0
 11
172.088256835938
 21
190.480621337891
 31
0.0
  0
LINE
  5
    3E
  8
0
  6
CONTINUOUS
 62
     3
 10
167.838256835938
 20
56.9806251525879
 30
0.0
 11
167.838256835938
 21
162.980625152588
 31
0.0
  0
LINE
  5
    3F
  8
0
  6
CONTINUOUS
 62
     3
 10
61.8382568359375
 20
56.9806251525879
 30
0.0
 11
167.838256835938
 21
56.9806251525879
 31
0.0
  0
LINE
  5
    40
  8
0
  6
CONTINUOUS
 62
     3
 10
61.8382568359375
 20
56.9806251525879
 30
0.0
 11
61.8382568359375
 21
162.980625152588
 31
0.0
  0
LINE
  5
    41
  8
0
  6
CONTINUOUS
 62
     3
 10
61.8382568359375
 20
162.980621337891
 30
0.0
 11
167.838256835938
 21
162.980621337891
 31
0.0
  0
LINE
  5
    42
  8
0
  6
CONTINUOUS
 62
     3
 10
168.838256835938
 20
48.4806251525879
 30
0.0
 11
168.838256835938
 21
49.4806251525879
 31
0.0
  0
LINE
  5
    43
  8
0
  6
CONTINUOUS
 62
     3
 10
61.8382568359375
 20
50.4806251525879
 30
0.0
 11
167.838256835938
 21
50.4806251525879
 31
0.0
  0
LINE
  5
    44
  8
0
  6
CONTINUOUS
 62
     3
 10
60.8382568359375
 20
48.4806251525879
 30
0.0
 11
60.8382568359375
 21
49.4806251525879
 31
0.0
  0
LINE
  5
    45
  8
0
  6
CONTINUOUS
 62
     3
 10
61.8382568359375
 20
49.4806251525879
 30
0.0
 11
167.838256835938
 21
49.4806251525879
 31
0.0
  0
LINE
  5
    46
  8
0
  6
CONTINUOUS
 62
     3
 10
60.8382568359375
 20
29.4806251525879
 30
0.0
 11
60.8382568359375
 21
48.4806251525879
 31
0.0
  0
LINE
  5
    47
  8
0
  6
CONTINUOUS
 62
     3
 10
60.8382568359375
 20
49.4806213378906
 30
0.0
 11
60.8382568359375
 21
190.480621337891
 31
0.0
  0
LINE
  5
    48
  8
0
  6
CONTINUOUS
 62
     3
 10
61.8382568359375
 20
29.4806251525879
 30
0.0
 11
61.8382568359375
 21
49.4806251525879
 31
0.0
  0
LINE
  5
    49
  8
0
  6
CONTINUOUS
 62
     3
 10
61.8382568359375
 20
162.980621337891
 30
0.0
 11
61.8382568359375
 21
169.480621337891
 31
0.0
  0
LINE
  5
    4A
  8
0
  6
CONTINUOUS
 62
     3
 10
61.8382568359375
 20
50.4806251525879
 30
0.0
 11
61.8382568359375
 21
56.9806251525879
 31
0.0
  0
LINE
  5
    4B
  8
0
  6
CONTINUOUS
 62
     3
 10
168.838256835938
 20
29.4806251525879
 30
0.0
 11
168.838256835938
 21
48.4806251525879
 31
0.0
  0
LINE
  5
    4C
  8
0
  6
CONTINUOUS
 62
     3
 10
168.838256835938
 20
49.4806251525879
 30
0.0
 11
168.838256835938
 21
190.480621337891
 31
0.0
  0
LINE
  5
    4D
  8
0
  6
CONTINUOUS
 62
     3
 10
167.838256835938
 20
50.4806251525879
 30
0.0
 11
167.838256835938
 21
56.9806251525879
 31
0.0
  0
LINE
  5
    4E
  8
0
  6
CONTINUOUS
 62
     3
 10
167.838256835938
 20
162.980621337891
 30
0.0
 11
167.838256835938
 21
169.480621337891
 31
0.0
  0
LINE
  5
    4F
  8
0
  6
CONTINUOUS
 62
     3
 10
167.838256835938
 20
29.4806251525879
 30
0.0
 11
167.838256835938
 21
49.4806251525879
 31
0.0
  0
LINE
  5
    50
  8
0
  6
CONTINUOUS
 62
     3
 10
60.8382568359375
 20
170.480621337891
 30
0.0
 11
168.838256835938
 21
170.480621337891
 31
0.0
  0
LINE
  5
    51
  8
0
  6
CONTINUOUS
 62
     3
 10
61.8382568359375
 20
169.480621337891
 30
0.0
 11
167.838256835938
 21
169.480621337891
 31
0.0
  0
ARC
  5
    52
  8
0
  6
CONTINUOUS
 62
     3
 10
57.5882568359375
 20
30.7306251525879
 30
0.0
 40
1.25
 50
180.0
 51
270.0
  0
ARC
  5
    53
  8
0
  6
CONTINUOUS
 62
     3
 10
172.088256835938
 20
30.7306251525879
 30
0.0
 40
1.25
 50
270.0
 51
360.0
  0
ARC
  5
    54
  8
0
  6
CONTINUOUS
 62
     3
 10
172.088256835938
 20
189.230621337891
 30
0.0
 40
1.25
 50
0.0
 51
90.0
  0
ARC
  5
    55
  8
0
  6
CONTINUOUS
 62
     3
 10
57.5882568359375
 20
189.230621337891
 30
0.0
 40
1.25
 50
90.0
 51
180.0
  0
LINE
  5
    56
  8
0
  6
DOT
 62
     3
 10
60.3382577409677
 20
179.7306252571
 30
0.0
 11
60.8382568359375
 21
179.7306252571
 31
0.0
  0
LINE
  5
    57
  8
0
  6
DOT
 62
     3
 10
60.3382577409676
 20
181.2306252571
 30
0.0
 11
60.8382568359375
 21
181.2306252571
 31
0.0
  0
LINE
  5
    58
  8
0
  6
CONTINUOUS
 62
     3
 10
168.338257745313
 20
179.730625257273
 30
0.0
 11
168.838256835938
 21
179.730625257273
 31
0.0
  0
LINE
  5
    59
  8
0
  6
CONTINUOUS
 62
     3
 10
168.338257745314
 20
181.230625257273
 30
0.0
 11
168.838256835938
 21
181.230625257273
 31
0.0
  0
ARC
  5
    5A
  8
0
  6
DOT
 62
     3
 10
60.3382577401871
 20
180.480625257147
 30
0.0
 40
0.749999999345164
 50
90.0
 51
270.0
  0
ARC
  5
    5B
  8
0
  6
CONTINUOUS
 62
     3
 10
61.338257740822
 20
180.480625256974
 30
0.0
 40
0.750000000009701
 50
270.0
 51
450.0
  0
LINE
  5
    5C
  8
0
  6
CONTINUOUS
 62
     3
 10
60.8382568359375
 20
181.2306252571
 30
0.0
 11
61.3382577409688
 21
181.2306252571
 31
0.0
  0
LINE
  5
    5D
  8
0
  6
CONTINUOUS
 62
     3
 10
60.8382568359375
 20
179.7306252571
 30
0.0
 11
61.3382577409689
 21
179.7306252571
 31
0.0
  0
ARC
  5
    5E
  8
0
  6
CONTINUOUS
 62
     3
 10
168.338257745503
 20
180.480625256952
 30
0.0
 40
0.750000000048506
 50
90.0000000038822
 51
269.999999996024
  0
ARC
  5
    5F
  8
0
  6
DOT
 62
     3
 10
169.338257745421
 20
180.480625256965
 30
0.0
 40
0.750000000029104
 50
270.000000002449
 51
449.999999997486
  0
LINE
  5
    60
  8
0
  6
DOT
 62
     3
 10
168.838256835938
 20
181.230625257273
 30
0.0
 11
169.338257745315
 21
181.230625257273
 31
0.0
  0
LINE
  5
    61
  8
0
  6
DOT
 62
     3
 10
168.838256835938
 20
179.730625257273
 30
0.0
 11
169.338257745315
 21
179.730625257273
 31
0.0
  0
POINT
  5
    62
  8
0
  6
CONTINUOUS
 62
     3
 10
114.838256835938
 20
109.980621337891
 30
0.0
  0
ENDBLK
  5
    63
  8
0
  6
CONTINUOUS
 62
     7
  0
BLOCK
  5
    64
  8
0
  6
CONTINUOUS
 62
     7
  2
*UDIM535
 70
    65
 10
0.0
 20
0.0
 30
0.0
  3
*UDIM535
  0
TEXT
  5
    65
  8
0
  6
CONTINUOUS
 62
     7
 10
-1015.97501119822
 20
-3.075675699465
 30
0.0
 40
2.99999994291904
  1
161
 50
89.9999999480344
 41
0.933333333333333
 72
     1
 11
-1017.47501116614
 21
0.824324227688329
 31
0.0
 73
     2
  0
LINE
  5
    66
  8
0
  6
CONTINUOUS
 62
     7
 10
-1028.4662704338
 20
-36.7356737488354
 30
0.0
 11
-1012.97501119469
 21
-36.7356737488354
 31
0.0
  0
LINE
  5
    67
  8
0
  6
CONTINUOUS
 62
     7
 10
-1028.4662704338
 20
38.9343242663299
 30
0.0
 11
-1012.97501119469
 21
38.9343242663299
 31
0.0
  0
LINE
  5
    68
  8
0
  6
CONTINUOUS
 62
     7
 10
-1014.97501119469
 20
-36.7356737488354
 30
0.0
 11
-1014.97501119469
 21
38.9343242663299
 31
0.0
  0
LINE
  5
    69
  8
0
  6
CONTINUOUS
 62
     7
 10
-1015.49595562464
 20
-33.7812504716285
 30
0.0
 11
-1014.97501119469
 21
-36.7356737488354
 31
0.0
  0
LINE
  5
    6A
  8
0
  6
CONTINUOUS
 62
     7
 10
-1014.97501119469
 20
-36.7356737488354
 30
0.0
 11
-1014.45406676473
 21
-33.7812504716285
 31
0.0
  0
LINE
  5
    6B
  8
0
  6
CONTINUOUS
 62
     7
 10
-1014.45406676473
 20
35.9799009891229
 30
0.0
 11
-1014.97501119469
 21
38.9343242663299
 31
0.0
  0
LINE
  5
    6C
  8
0
  6
CONTINUOUS
 62
     7
 10
-1014.97501119469
 20
38.9343242663299
 30
0.0
 11
-1015.49595562464
 21
35.9799009891229
 31
0.0
  0
ENDBLK
  5
    6D
  8
0
  6
CONTINUOUS
 62
     7
  0
BLOCK
  5
    6E
  8
0
  6
CONTINUOUS
 62
     7
  2
*UDIM536
 70
    65
 10
0.0
 20
0.0
 30
0.0
  3
*UDIM536
  0
TEXT
  5
    6F
  8
0
  6
CONTINUOUS
 62
     7
 10
-1060.54876978298
 20
96.7952448409593
 30
0.0
 40
2.99999994291904
  1
117
 50
359.999999948034
 41
0.933333333333333
 72
     1
 11
-1056.64876985583
 21
98.2952448089012
 31
0.0
 73
     2
  0
LINE
  5
    70
  8
0
  6
CONTINUOUS
 62
     7
 10
-1028.87877043529
 20
39.34682426782
 30
0.0
 11
-1028.87877043529
 21
97.7952448374417
 31
0.0
  0
LINE
  5
    71
  8
0
  6
CONTINUOUS
 62
     7
 10
-1083.86877029582
 20
39.34682426782
 30
0.0
 11
-1083.86877029582
 21
97.7952448374417
 31
0.0
  0
LINE
  5
    72
  8
0
  6
CONTINUOUS
 62
     7
 10
-1028.87877043529
 20
95.7952448374417
 30
0.0
 11
-1083.86877029582
 21
95.7952448374417
 31
0.0
  0
LINE
  5
    73
  8
0
  6
CONTINUOUS
 62
     7
 10
-1031.8331937125
 20
95.27430040749
 30
0.0
 11
-1028.87877043529
 21
95.7952448374417
 31
0.0
  0
LINE
  5
    74
  8
0
  6
CONTINUOUS
 62
     7
 10
-1028.87877043529
 20
95.7952448374417
 30
0.0
 11
-1031.8331937125
 21
96.3161892673934
 31
0.0
  0
LINE
  5
    75
  8
0
  6
CONTINUOUS
 62
     7
 10
-1080.91434701861
 20
96.3161892673934
 30
0.0
 11
-1083.86877029582
 21
95.7952448374417
 31
0.0
  0
LINE
  5
    76
  8
0
  6
CONTINUOUS
 62
     7
 10
-1083.86877029582
 20
95.7952448374417
 30
0.0
 11
-1080.91434701861
 21
95.27430040749
 31
0.0
  0
ENDBLK
  5
    77
  8
0
  6
CONTINUOUS
 62
     7
  0
BLOCK
  5
    78
  8
0
  6
CONTINUOUS
 62
     7
  2
*UDIM537
 70
    65
 10
0.0
 20
0.0
 30
0.0
  3
*UDIM537
  0
TEXT
  5
    79
  8
0
  6
CONTINUOUS
 62
     7
 10
-1126.31870897171
 20
-3.89818286900968
 30
0.0
 40
2.99999994291904
  1
354
 50
89.9999999480344
 41
0.933333333333333
 72
     1
 11
-1127.81870893963
 21
1.81705814364364E-3
 31
0.0
 73
     2
  0
LINE
  5
    7A
  8
0
  6
CONTINUOUS
 62
     7
 10
-1110.24877004755
 20
-82.9131593601834
 30
0.0
 11
-1127.31870896817
 21
-82.9131593601834
 31
0.0
  0
LINE
  5
    7B
  8
0
  6
CONTINUOUS
 62
     7
 10
-1110.24874807341
 20
83.4667937456808
 30
0.0
 11
-1127.31870896817
 21
83.4667937456808
 31
0.0
  0
LINE
  5
    7C
  8
0
  6
CONTINUOUS
 62
     7
 10
-1125.31870896817
 20
-82.9131593601834
 30
0.0
 11
-1125.31870896817
 21
83.4667937456808
 31
0.0
  0
LINE
  5
    7D
  8
0
  6
CONTINUOUS
 62
     7
 10
-1125.83965339812
 20
-79.9587360829765
 30
0.0
 11
-1125.31870896817
 21
-82.9131593601834
 31
0.0
  0
LINE
  5
    7E
  8
0
  6
CONTINUOUS
 62
     7
 10
-1125.31870896817
 20
-82.9131593601834
 30
0.0
 11
-1124.79776453822
 21
-79.9587360829765
 31
0.0
  0
LINE
  5
    7F
  8
0
  6
CONTINUOUS
 62
     7
 10
-1124.79776453822
 20
80.5123704684739
 30
0.0
 11
-1125.31870896817
 21
83.4667937456808
 31
0.0
  0
LINE
  5
    80
  8
0
  6
CONTINUOUS
 62
     7
 10
-1125.31870896817
 20
83.4667937456808
 30
0.0
 11
-1125.83965339812
 21
80.5123704684739
 31
0.0
  0
ENDBLK
  5
    81
  8
0
  6
CONTINUOUS
 62
     7
  0
BLOCK
  5
    82
  8
0
  6
CONTINUOUS
 62
     7
  2
*UDIM538
 70
    65
 10
0.0
 20
0.0
 30
0.0
  3
*UDIM538
  0
TEXT
  5
    83
  8
0
  6
CONTINUOUS
 62
     7
 10
-1118.20569401196
 20
33.9080597724966
 30
0.0
 40
2.99999994291904
  1
175,25
 50
89.9999999480344
 41
0.933333333333333
 72
     1
 11
-1119.70569397608
 21
42.0080596197366
 31
0.0
 73
     2
  0
LINE
  5
    84
  8
0
  6
CONTINUOUS
 62
     7
 10
-1110.24874807341
 20
83.4667937456808
 30
0.0
 11
-1119.20569400462
 21
83.4667937456808
 31
0.0
  0
LINE
  5
    85
  8
0
  6
CONTINUOUS
 62
     7
 10
-1117.20569400462
 20
1.09932436229337
 30
0.0
 11
-1117.20569400462
 21
83.4667937456808
 31
0.0
  0
LINE
  5
    86
  8
0
  6
CONTINUOUS
 62
     7
 10
-1117.72663843457
 20
4.05374763950034
 30
0.0
 11
-1117.20569400462
 21
1.09932436229337
 31
0.0
  0
LINE
  5
    87
  8
0
  6
CONTINUOUS
 62
     7
 10
-1117.20569400462
 20
1.09932436229337
 30
0.0
 11
-1116.68474957467
 21
4.05374763950034
 31
0.0
  0
LINE
  5
    88
  8
0
  6
CONTINUOUS
 62
     7
 10
-1116.68474957467
 20
80.5123704684739
 30
0.0
 11
-1117.20569400462
 21
83.4667937456808
 31
0.0
  0
LINE
  5
    89
  8
0
  6
CONTINUOUS
 62
     7
 10
-1117.20569400462
 20
83.4667937456808
 30
0.0
 11
-1117.72663843457
 21
80.5123704684739
 31
0.0
  0
ENDBLK
  5
    8A
  8
0
  6
CONTINUOUS
 62
     7
  0
BLOCK
  5
    8B
  8
0
  6
CONTINUOUS
 62
     7
  2
*UDIM539
 70
    65
 10
0.0
 20
0.0
 30
0.0
  3
*UDIM539
  0
TEXT
  5
    8C
  8
0
  6
CONTINUOUS
 62
     7
 10
-1007.60276195377
 20
22.7455598008088
 30
0.0
 40
2.99999994291904
  1
127,75
 50
89.9999999480344
 41
0.933333333333333
 72
     1
 11
-1009.10276191789
 21
30.8455596480488
 31
0.0
 73
     2
  0
LINE
  5
    8D
  8
0
  6
CONTINUOUS
 62
     7
 10
-1013.9394910547
 20
1.09932436229337
 30
0.0
 11
-1004.60276194643
 21
1.09932436229337
 31
0.0
  0
LINE
  5
    8E
  8
0
  6
CONTINUOUS
 62
     7
 10
-1023.17875545883
 20
61.1417938023052
 30
0.0
 11
-1004.60276194643
 21
61.1417938023052
 31
0.0
  0
LINE
  5
    8F
  8
0
  6
CONTINUOUS
 62
     7
 10
-1006.60276194643
 20
1.09932436229337
 30
0.0
 11
-1006.60276194643
 21
61.1417938023052
 31
0.0
  0
LINE
  5
    90
  8
0
  6
CONTINUOUS
 62
     7
 10
-1007.12370637639
 20
4.05374763950034
 30
0.0
 11
-1006.60276194643
 21
1.09932436229337
 31
0.0
  0
LINE
  5
    91
  8
0
  6
CONTINUOUS
 62
     7
 10
-1006.60276194643
 20
1.09932436229337
 30
0.0
 11
-1006.08181751648
 21
4.05374763950034
 31
0.0
  0
LINE
  5
    92
  8
0
  6
CONTINUOUS
 62
     7
 10
-1006.08181751648
 20
58.1873705250983
 30
0.0
 11
-1006.60276194643
 21
61.1417938023052
 31
0.0
  0
LINE
  5
    93
  8
0
  6
CONTINUOUS
 62
     7
 10
-1006.60276194643
 20
61.1417938023052
 30
0.0
 11
-1007.12370637639
 21
58.1873705250983
 31
0.0
  0
ENDBLK
  5
    94
  8
0
  6
CONTINUOUS
 62
     7
  0
BLOCK
  5
    95
  8
0
  6
CONTINUOUS
 62
     7
  2
*UDIM540
 70
    65
 10
0.0
 20
0.0
 30
0.0
  3
*UDIM540
  0
TEXT
  5
    96
  8
0
  6
CONTINUOUS
 62
     7
 10
-1060.54877336879
 20
90.026200668675
 30
0.0
 40
2.99999994291904
  1
105
 50
359.999999948034
 41
0.933333333333333
 72
     1
 11
-1056.64877344164
 21
91.5262006366169
 31
0.0
 73
     2
  0
LINE
  5
    97
  8
0
  6
CONTINUOUS
 62
     7
 10
-1031.69877759977
 20
26.5393243003045
 30
0.0
 11
-1031.69877759977
 21
91.0262006651574
 31
0.0
  0
LINE
  5
    98
  8
0
  6
CONTINUOUS
 62
     7
 10
-1081.04877030295
 20
26.5393243003045
 30
0.0
 11
-1081.04877030295
 21
91.0262006651574
 31
0.0
  0
LINE
  5
    99
  8
0
  6
CONTINUOUS
 62
     7
 10
-1031.69877759977
 20
89.0262006651574
 30
0.0
 11
-1081.04877030295
 21
89.0262006651574
 31
0.0
  0
LINE
  5
    9A
  8
0
  6
CONTINUOUS
 62
     7
 10
-1034.65320087698
 20
88.5052562352057
 30
0.0
 11
-1031.69877759977
 21
89.0262006651574
 31
0.0
  0
LINE
  5
    9B
  8
0
  6
CONTINUOUS
 62
     7
 10
-1031.69877759977
 20
89.0262006651574
 30
0.0
 11
-1034.65320087698
 21
89.5471450951091
 31
0.0
  0
LINE
  5
    9C
  8
0
  6
CONTINUOUS
 62
     7
 10
-1078.09434702575
 20
89.5471450951091
 30
0.0
 11
-1081.04877030295
 21
89.0262006651574
 31
0.0
  0
LINE
  5
    9D
  8
0
  6
CONTINUOUS
 62
     7
 10
-1081.04877030295
 20
89.0262006651574
 30
0.0
 11
-1078.09434702575
 21
88.5052562352057
 31
0.0
  0
ENDBLK
  5
    9E
  8
0
  6
CONTINUOUS
 62
     7
  0
BLOCK
  5
    9F
  8
0
  6
CONTINUOUS
 62
     7
  2
*UDIM541
 70
    65
 10
0.0
 20
0.0
 30
0.0
  3
*UDIM541
  0
TEXT
  5
    A0
  8
0
  6
CONTINUOUS
 62
     7
 10
-999.764911704344
 20
-15.9120913183477
 30
0.0
 40
2.99999994291904
  1
259
 50
89.9999999480344
 41
0.933333333333333
 72
     1
 11
-1001.26491167227
 21
-12.0120913911944
 31
0.0
 73
     2
  0
LINE
  5
    A1
  8
0
  6
CONTINUOUS
 62
     7
 10
-1023.17877026332
 20
-60.5881594168079
 30
0.0
 11
-996.764911700811
 21
-60.5881594168079
 31
0.0
  0
LINE
  5
    A2
  8
0
  6
CONTINUOUS
 62
     7
 10
-1023.17875545883
 20
61.1417938023052
 30
0.0
 11
-996.764911700811
 21
61.1417938023052
 31
0.0
  0
LINE
  5
    A3
  8
0
  6
CONTINUOUS
 62
     7
 10
-998.764911700811
 20
-60.5881594168079
 30
0.0
 11
-998.764911700811
 21
61.1417938023052
 31
0.0
  0
LINE
  5
    A4
  8
0
  6
CONTINUOUS
 62
     7
 10
-999.285856130763
 20
-57.6337361396009
 30
0.0
 11
-998.764911700811
 21
-60.5881594168079
 31
0.0
  0
LINE
  5
    A5
  8
0
  6
CONTINUOUS
 62
     7
 10
-998.764911700811
 20
-60.5881594168079
 30
0.0
 11
-998.24396727086
 21
-57.6337361396009
 31
0.0
  0
LINE
  5
    A6
  8
0
  6
CONTINUOUS
 62
     7
 10
-998.24396727086
 20
58.1873705250983
 30
0.0
 11
-998.764911700811
 21
61.1417938023052
 31
0.0
  0
LINE
  5
    A7
  8
0
  6
CONTINUOUS
 62
     7
 10
-998.764911700811
 20
61.1417938023052
 30
0.0
 11
-999.285856130763
 21
58.1873705250983
 31
0.0
  0
ENDBLK
  5
    A8
  8
0
  6
CONTINUOUS
 62
     7
  0
BLOCK
  5
    A9
  8
0
  6
CONTINUOUS
 62
     7
  2
*UDIM542
 70
    65
 10
0.0
 20
0.0
 30
0.0
  3
*UDIM542
  0
TEXT
  5
    AA
  8
0
  6
CONTINUOUS
 62
     7
 10
-1053.06751029053
 20
-89.9758347761789
 30
0.0
 40
2.99999994291904
  1
43,75
 50
359.999999948034
 41
0.933333333333333
 72
     1
 11
-1046.36751041666
 21
-88.4758348107624
 31
0.0
 73
     2
  0
LINE
  5
    AB
  8
0
  6
CONTINUOUS
 62
     7
 10
-1035.81125453081
 20
-75.7351853135571
 30
0.0
 11
-1035.81126216702
 21
-92.9758347822217
 31
0.0
  0
LINE
  5
    AC
  8
0
  6
CONTINUOUS
 62
     7
 10
-1056.37377067947
 20
-80.6964644662878
 30
0.0
 11
-1056.37377453417
 21
-92.9758347822218
 31
0.0
  0
LINE
  5
    AD
  8
0
  6
CONTINUOUS
 62
     7
 10
-1035.81126128118
 20
-90.9758347822219
 30
0.0
 11
-1056.37377390633
 21
-90.9758347822219
 31
0.0
  0
LINE
  5
    AE
  8
0
  6
CONTINUOUS
 62
     7
 10
-1038.76568455839
 20
-91.4967792121736
 30
0.0
 11
-1035.81126128118
 21
-90.9758347822219
 31
0.0
  0
LINE
  5
    AF
  8
0
  6
CONTINUOUS
 62
     7
 10
-1035.81126128118
 20
-90.9758347822219
 30
0.0
 11
-1038.76568455839
 21
-90.4548903522702
 31
0.0
  0
LINE
  5
    B0
  8
0
  6
CONTINUOUS
 62
     7
 10
-1053.41935062913
 20
-90.4548903522702
 30
0.0
 11
-1056.37377390633
 21
-90.9758347822219
 31
0.0
  0
LINE
  5
    B1
  8
0
  6
CONTINUOUS
 62
     7
 10
-1056.37377390633
 20
-90.9758347822219
 30
0.0
 11
-1053.41935062913
 21
-91.4967792121736
 31
0.0
  0
ENDBLK
  5
    B2
  8
0
  6
CONTINUOUS
 62
     7
  0
BLOCK
  5
    B3
  8
0
  6
CONTINUOUS
 62
     7
  2
*UDIM543
 70
    65
 10
0.0
 20
0.0
 30
0.0
  3
*UDIM543
  0
TEXT
  5
    B4
  8
0
  6
CONTINUOUS
 62
     7
 10
-1073.63001023165
 20
-89.9758347761789
 30
0.0
 40
2.99999994291904
  1
43,75
 50
359.999999948034
 41
0.933333333333333
 72
     1
 11
-1066.93001035778
 21
-88.4758348107624
 31
0.0
 73
     2
  0
LINE
  5
    B5
  8
0
  6
CONTINUOUS
 62
     7
 10
-1076.93625460852
 20
-75.735185313557
 30
0.0
 11
-1076.93626538279
 21
-92.9758347822215
 31
0.0
  0
LINE
  5
    B6
  8
0
  6
CONTINUOUS
 62
     7
 10
-1056.37377390633
 20
-90.9758347822219
 30
0.0
 11
-1076.93626413292
 21
-90.9758347822219
 31
0.0
  0
LINE
  5
    B7
  8
0
  6
CONTINUOUS
 62
     7
 10
-1059.32819718354
 20
-91.4967792121736
 30
0.0
 11
-1056.37377390633
 21
-90.9758347822219
 31
0.0
  0
LINE
  5
    B8
  8
0
  6
CONTINUOUS
 62
     7
 10
-1056.37377390633
 20
-90.9758347822219
 30
0.0
 11
-1059.32819718354
 21
-90.4548903522702
 31
0.0
  0
LINE
  5
    B9
  8
0
  6
CONTINUOUS
 62
     7
 10
-1073.98184085572
 20
-90.4548903522702
 30
0.0
 11
-1076.93626413292
 21
-90.9758347822219
 31
0.0
  0
LINE
  5
    BA
  8
0
  6
CONTINUOUS
 62
     7
 10
-1076.93626413292
 20
-90.9758347822219
 30
0.0
 11
-1073.98184085572
 21
-91.4967792121736
 31
0.0
  0
ENDBLK
  5
    BB
  8
0
  6
CONTINUOUS
 62
     7
  0
BLOCK
  5
    BC
  8
0
  6
CONTINUOUS
 62
     7
  2
*UDIM544
 70
    65
 10
0.0
 20
0.0
 30
0.0
  3
*UDIM544
  0
TEXT
  5
    BD
  8
0
  6
CONTINUOUS
 62
     7
 10
-1094.19250302171
 20
-89.9758347761789
 30
0.0
 40
2.99999994291904
  1
43,75
 50
359.999999948034
 41
0.933333333333333
 72
     1
 11
-1087.49250314784
 21
-88.4758348107624
 31
0.0
 73
     2
  0
LINE
  5
    BE
  8
0
  6
CONTINUOUS
 62
     7
 10
-1097.49875455636
 20
-75.735185313557
 30
0.0
 11
-1097.49876533064
 21
-92.9758347822215
 31
0.0
  0
LINE
  5
    BF
  8
0
  6
CONTINUOUS
 62
     7
 10
-1076.93626413292
 20
-90.9758347822219
 30
0.0
 11
-1097.49876408077
 21
-90.9758347822219
 31
0.0
  0
LINE
  5
    C0
  8
0
  6
CONTINUOUS
 62
     7
 10
-1079.89068741013
 20
-91.4967792121736
 30
0.0
 11
-1076.93626413292
 21
-90.9758347822219
 31
0.0
  0
LINE
  5
    C1
  8
0
  6
CONTINUOUS
 62
     7
 10
-1076.93626413292
 20
-90.9758347822219
 30
0.0
 11
-1079.89068741013
 21
-90.4548903522702
 31
0.0
  0
LINE
  5
    C2
  8
0
  6
CONTINUOUS
 62
     7
 10
-1094.54434080356
 20
-90.4548903522702
 30
0.0
 11
-1097.49876408077
 21
-90.9758347822219
 31
0.0
  0
LINE
  5
    C3
  8
0
  6
CONTINUOUS
 62
     7
 10
-1097.49876408077
 20
-90.9758347822219
 30
0.0
 11
-1094.54434080356
 21
-91.4967792121736
 31
0.0
  0
ENDBLK
  5
    C4
  8
0
  6
CONTINUOUS
 62
     7
  0
BLOCK
  5
    C5
  8
0
  6
CONTINUOUS
 62
     7
  2
*UDIM545
 70
    65
 10
0.0
 20
0.0
 30
0.0
  3
*UDIM545
  0
TEXT
  5
    C6
  8
0
  6
CONTINUOUS
 62
     7
 10
-1042.69876382417
 20
-97.4574091628465
 30
0.0
 40
2.99999994291904
  1
70
 50
359.999999948034
 41
0.933333333333333
 72
     1
 11
-1040.19876387039
 21
-95.9574091936418
 31
0.0
 73
     2
  0
LINE
  5
    C7
  8
0
  6
CONTINUOUS
 62
     7
 10
-1023.47375577454
 20
47.686824241594
 30
0.0
 11
-1023.47380227945
 21
-100.457409165101
 31
0.0
  0
LINE
  5
    C8
  8
0
  6
CONTINUOUS
 62
     7
 10
-1056.37377067947
 20
18.8662699550238
 30
0.0
 11
-1056.37380813714
 21
-100.457409165101
 31
0.0
  0
LINE
  5
    C9
  8
0
  6
CONTINUOUS
 62
     7
 10
-1023.47380165162
 20
-98.4574091651014
 30
0.0
 11
-1056.3738075093
 21
-98.4574091651014
 31
0.0
  0
LINE
  5
    CA
  8
0
  6
CONTINUOUS
 62
     7
 10
-1026.42822492883
 20
-98.978353595053
 30
0.0
 11
-1023.47380165162
 21
-98.4574091651014
 31
0.0
  0
LINE
  5
    CB
  8
0
  6
CONTINUOUS
 62
     7
 10
-1023.47380165162
 20
-98.4574091651014
 30
0.0
 11
-1026.42822492883
 21
-97.9364647351497
 31
0.0
  0
LINE
  5
    CC
  8
0
  6
CONTINUOUS
 62
     7
 10
-1053.4193842321
 20
-97.9364647351497
 30
0.0
 11
-1056.3738075093
 21
-98.4574091651014
 31
0.0
  0
LINE
  5
    CD
  8
0
  6
CONTINUOUS
 62
     7
 10
-1056.3738075093
 20
-98.4574091651014
 30
0.0
 11
-1053.4193842321
 21
-98.978353595053
 31
0.0
  0
ENDBLK
  5
    CE
  8
0
  6
CONTINUOUS
 62
     7
  0
BLOCK
  5
    CF
  8
0
  6
CONTINUOUS
 62
     7
  2
*UDIM546
 70
    65
 10
0.0
 20
0.0
 30
0.0
  3
*UDIM546
  0
TEXT
  5
    D0
  8
0
  6
CONTINUOUS
 62
     7
 10
-1075.02999829787
 20
103.386145706937
 30
0.0
 40
2.99999994291904
  1
183,75
 50
359.999999948034
 41
0.933333333333333
 72
     1
 11
-1066.92999845063
 21
104.886145671091
 31
0.0
 73
     2
  0
LINE
  5
    D1
  8
0
  6
CONTINUOUS
 62
     7
 10
-1023.47375459646
 20
83.8792937471706
 30
0.0
 11
-1023.47373687519
 21
104.38614569963
 31
0.0
  0
LINE
  5
    D2
  8
0
  6
CONTINUOUS
 62
     7
 10
-1109.836247758
 20
83.8792937471709
 30
0.0
 11
-1109.83624132057
 21
104.386145699631
 31
0.0
  0
LINE
  5
    D3
  8
0
  6
CONTINUOUS
 62
     7
 10
-1023.47373860352
 20
102.386145699631
 30
0.0
 11
-1109.8362419484
 21
102.386145699631
 31
0.0
  0
LINE
  5
    D4
  8
0
  6
CONTINUOUS
 62
     7
 10
-1026.42816188073
 20
101.865201269679
 30
0.0
 11
-1023.47373860352
 21
102.386145699631
 31
0.0
  0
LINE
  5
    D5
  8
0
  6
CONTINUOUS
 62
     7
 10
-1023.47373860352
 20
102.386145699631
 30
0.0
 11
-1026.42816188073
 21
102.907090129583
 31
0.0
  0
LINE
  5
    D6
  8
0
  6
CONTINUOUS
 62
     7
 10
-1106.88181867119
 20
102.907090129583
 30
0.0
 11
-1109.8362419484
 21
102.386145699631
 31
0.0
  0
LINE
  5
    D7
  8
0
  6
CONTINUOUS
 62
     7
 10
-1109.8362419484
 20
102.386145699631
 30
0.0
 11
-1106.88181867119
 21
101.865201269679
 31
0.0
  0
ENDBLK
  5
    D8
  8
0
  6
CONTINUOUS
 62
     7
  0
BLOCK
  5
    D9
  8
0
  6
CONTINUOUS
 62
     7
  2
*UDIM547
 70
    65
 10
0.0
 20
0.0
 30
0.0
  3
*UDIM547
  0
TEXT
  5
    DA
  8
0
  6
CONTINUOUS
 62
     7
 10
-813.461655189574
 20
18.9700608090399
 30
0.0
 40
3.00000002980232
  1
7
 50
404.893139787217
 41
0.933333333333334
 72
     1
 11
-813.741068539112
 21
20.8090627799046
 31
0.0
 73
     2
  0
TEXT
  5
    DB
  8
0
  6
CONTINUOUS
 62
     7
 10
-815.693191889849
 20
16.7468325216362
 30
0.0
 40
3.00000002980232
  1
Ø
 50
404.893139787217
 41
0.933333333333334
 72
     1
 11
-815.972605239386
 21
18.5858344925009
 31
0.0
 73
     2
  0
LINE
  5
    DC
  8
0
  6
CONTINUOUS
 62
     7
 10
-803.265382602573
 20
27.7167875017963
 30
0.0
 11
-814.987405129176
 21
16.0384081753354
 31
0.0
  0
LINE
  5
    DD
  8
0
  6
CONTINUOUS
 62
     7
 10
-801.540072900586
 20
30.1710300391647
 30
0.0
 11
-803.265382602573
 21
27.7167875017963
 31
0.0
  0
LINE
  5
    DE
  8
0
  6
CONTINUOUS
 62
     7
 10
-803.265382602573
 20
27.7167875017963
 30
0.0
 11
-800.804721542376
 21
29.4329306038793
 31
0.0
  0
LINE
  5
    DF
  8
0
  6
CONTINUOUS
 62
     7
 10
-806.230434911914
 20
24.0274181419876
 30
0.0
 11
-804.505125209927
 21
26.4816606793561
 31
0.0
  0
LINE
  5
    E0
  8
0
  6
CONTINUOUS
 62
     7
 10
-804.505125209927
 20
26.4816606793561
 30
0.0
 11
-806.965786270125
 21
24.7655175772731
 31
0.0
  0
ENDBLK
  5
    E1
  8
0
  6
CONTINUOUS
 62
     7
  0
BLOCK
  5
    E2
  8
0
  6
CONTINUOUS
 62
     7
  2
*UDIM548
 70
    65
 10
0.0
 20
0.0
 30
0.0
  3
*UDIM548
  0
TEXT
  5
    E3
  8
0
  6
CONTINUOUS
 62
     7
 10
-796.66025394112
 20
75.3854026862331
 30
0.0
 40
3.00000002980232
  1
80
 50
359.999999844103
 41
0.933333333333333
 72
     1
 11
-794.160253912211
 21
76.8854026943445
 31
0.0
 73
     2
  0
LINE
  5
    E4
  8
0
  6
CONTINUOUS
 62
     7
 10
-803.88525390625
 20
65.2242240905762
 30
0.0
 11
-803.88525390625
 21
76.3854026794434
 31
0.0
  0
LINE
  5
    E5
  8
0
  6
CONTINUOUS
 62
     7
 10
-783.88525390625
 20
65.2242240905762
 30
0.0
 11
-783.88525390625
 21
76.3854026794434
 31
0.0
  0
LINE
  5
    E6
  8
0
  6
CONTINUOUS
 62
     7
 10
-803.88525390625
 20
74.3854026794434
 30
0.0
 11
-783.88525390625
 21
74.3854026794434
 31
0.0
  0
LINE
  5
    E7
  8
0
  6
CONTINUOUS
 62
     7
 10
-800.930830629043
 20
74.906347109395
 30
0.0
 11
-803.88525390625
 21
74.3854026794434
 31
0.0
  0
LINE
  5
    E8
  8
0
  6
CONTINUOUS
 62
     7
 10
-803.88525390625
 20
74.3854026794434
 30
0.0
 11
-800.930830629043
 21
73.8644582494917
 31
0.0
  0
LINE
  5
    E9
  8
0
  6
CONTINUOUS
 62
     7
 10
-786.839677183457
 20
73.8644582494917
 30
0.0
 11
-783.88525390625
 21
74.3854026794434
 31
0.0
  0
LINE
  5
    EA
  8
0
  6
CONTINUOUS
 62
     7
 10
-783.88525390625
 20
74.3854026794434
 30
0.0
 11
-786.839677183457
 21
74.906347109395
 31
0.0
  0
ENDBLK
  5
    EB
  8
0
  6
CONTINUOUS
 62
     7
  0
BLOCK
  5
    EC
  8
0
  6
CONTINUOUS
 62
     7
  2
*UDIM549
 70
    65
 10
0.0
 20
0.0
 30
0.0
  3
*UDIM549
  0
TEXT
  5
    ED
  8
0
  6
CONTINUOUS
 62
     7
 10
-798.060253955027
 20
81.8250618086877
 30
0.0
 40
3.00000002980232
  1
112
 50
359.999999844103
 41
0.933333333333333
 72
     1
 11
-794.160253912211
 21
83.3250618129969
 31
0.0
 73
     2
  0
LINE
  5
    EE
  8
0
  6
CONTINUOUS
 62
     7
 10
-807.88525390625
 20
59.8492240905762
 30
0.0
 11
-807.88525390625
 21
82.8250617980957
 31
0.0
  0
LINE
  5
    EF
  8
0
  6
CONTINUOUS
 62
     7
 10
-779.88525390625
 20
59.8492240905762
 30
0.0
 11
-779.88525390625
 21
82.8250617980957
 31
0.0
  0
LINE
  5
    F0
  8
0
  6
CONTINUOUS
 62
     7
 10
-807.88525390625
 20
80.8250617980957
 30
0.0
 11
-779.88525390625
 21
80.8250617980957
 31
0.0
  0
LINE
  5
    F1
  8
0
  6
CONTINUOUS
 62
     7
 10
-804.930830629043
 20
81.3460062280474
 30
0.0
 11
-807.88525390625
 21
80.8250617980957
 31
0.0
  0
LINE
  5
    F2
  8
0
  6
CONTINUOUS
 62
     7
 10
-807.88525390625
 20
80.8250617980957
 30
0.0
 11
-804.930830629043
 21
80.304117368144
 31
0.0
  0
LINE
  5
    F3
  8
0
  6
CONTINUOUS
 62
     7
 10
-782.839677183457
 20
80.304117368144
 30
0.0
 11
-779.88525390625
 21
80.8250617980957
 31
0.0
  0
LINE
  5
    F4
  8
0
  6
CONTINUOUS
 62
     7
 10
-779.88525390625
 20
80.8250617980957
 30
0.0
 11
-782.839677183457
 21
81.3460062280474
 31
0.0
  0
ENDBLK
  5
    F5
  8
0
  6
CONTINUOUS
 62
     7
  0
BLOCK
  5
    F6
  8
0
  6
CONTINUOUS
 62
     7
  2
*UDIM550
 70
    65
 10
0.0
 20
0.0
 30
0.0
  3
*UDIM550
  0
TEXT
  5
    F7
  8
0
  6
CONTINUOUS
 62
     7
 10
-818.304023753263
 20
40.6742240418007
 30
0.0
 40
3.00000002980232
  1
112
 50
449.999999844103
 41
0.933333333333333
 72
     1
 11
-819.804023757577
 21
44.5742240846157
 31
0.0
 73
     2
  0
LINE
  5
    F8
  8
0
  6
CONTINUOUS
 62
     7
 10
-808.88525390625
 20
58.8492240905762
 30
0.0
 11
-819.304023742676
 21
58.8492240905762
 31
0.0
  0
LINE
  5
    F9
  8
0
  6
CONTINUOUS
 62
     7
 10
-808.88525390625
 20
30.8492240905762
 30
0.0
 11
-819.304023742676
 21
30.8492240905762
 31
0.0
  0
LINE
  5
    FA
  8
0
  6
CONTINUOUS
 62
     7
 10
-817.304023742676
 20
58.8492240905762
 30
0.0
 11
-817.304023742676
 21
30.8492240905762
 31
0.0
  0
LINE
  5
    FB
  8
0
  6
CONTINUOUS
 62
     7
 10
-816.783079312724
 20
55.8948008133692
 30
0.0
 11
-817.304023742676
 21
58.8492240905762
 31
0.0
  0
LINE
  5
    FC
  8
0
  6
CONTINUOUS
 62
     7
 10
-817.304023742676
 20
58.8492240905762
 30
0.0
 11
-817.824968172628
 21
55.8948008133692
 31
0.0
  0
LINE
  5
    FD
  8
0
  6
CONTINUOUS
 62
     7
 10
-817.824968172628
 20
33.8036473677831
 30
0.0
 11
-817.304023742676
 21
30.8492240905762
 31
0.0
  0
LINE
  5
    FE
  8
0
  6
CONTINUOUS
 62
     7
 10
-817.304023742676
 20
30.8492240905762
 30
0.0
 11
-816.783079312724
 21
33.8036473677831
 31
0.0
  0
ENDBLK
  5
    FF
  8
0
  6
CONTINUOUS
 62
     7
  0
BLOCK
  5
   100
  8
0
  6
CONTINUOUS
 62
     7
  2
*UDIM551
 70
    65
 10
0.0
 20
0.0
 30
0.0
  3
*UDIM551
  0
TEXT
  5
   101
  8
0
  6
CONTINUOUS
 62
     7
 10
-827.668964396574
 20
40.6742240418007
 30
0.0
 40
3.00000002980232
  1
142
 50
449.999999844103
 41
0.933333333333333
 72
     1
 11
-829.168964400887
 21
44.5742240846157
 31
0.0
 73
     2
  0
LINE
  5
   102
  8
0
  6
CONTINUOUS
 62
     7
 10
-806.51025390625
 20
62.5992240905762
 30
0.0
 11
-828.668964385986
 21
62.5992240905762
 31
0.0
  0
LINE
  5
   103
  8
0
  6
CONTINUOUS
 62
     7
 10
-806.51025390625
 20
27.0992240905762
 30
0.0
 11
-828.668964385986
 21
27.0992240905762
 31
0.0
  0
LINE
  5
   104
  8
0
  6
CONTINUOUS
 62
     7
 10
-826.668964385986
 20
62.5992240905762
 30
0.0
 11
-826.668964385986
 21
27.0992240905762
 31
0.0
  0
LINE
  5
   105
  8
0
  6
CONTINUOUS
 62
     7
 10
-826.148019956035
 20
59.6448008133692
 30
0.0
 11
-826.668964385986
 21
62.5992240905762
 31
0.0
  0
LINE
  5
   106
  8
0
  6
CONTINUOUS
 62
     7
 10
-826.668964385986
 20
62.5992240905762
 30
0.0
 11
-827.189908815938
 21
59.6448008133692
 31
0.0
  0
LINE
  5
   107
  8
0
  6
CONTINUOUS
 62
     7
 10
-827.189908815938
 20
30.0536473677831
 30
0.0
 11
-826.668964385986
 21
27.0992240905762
 31
0.0
  0
LINE
  5
   108
  8
0
  6
CONTINUOUS
 62
     7
 10
-826.668964385986
 20
27.0992240905762
 30
0.0
 11
-826.148019956035
 21
30.0536473677831
 31
0.0
  0
ENDBLK
  5
   109
  8
0
  6
CONTINUOUS
 62
     7
  0
BLOCK
  5
   10A
  8
0
  6
CONTINUOUS
 62
     7
  2
*HATCH183
 70
    65
 10
0.0
 20
0.0
 30
0.0
  3
*HATCH183
  0
LINE
  5
   10B
  8
0
  6
CONTINUOUS
 62
    52
 10
187.863540649414
 20
-106.999984741211
 30
0.0
 11
185.863540649414
 21
-108.999984741211
 31
0.0
  0
LINE
  5
   10C
  8
0
  6
CONTINUOUS
 62
    52
 10
192.106185913086
 20
-106.999984741211
 30
0.0
 11
190.106185913086
 21
-108.999984741211
 31
0.0
  0
LINE
  5
   10D
  8
0
  6
CONTINUOUS
 62
    52
 10
196.348831176758
 20
-106.999984741211
 30
0.0
 11
194.348831176758
 21
-108.999984741211
 31
0.0
  0
LINE
  5
   10E
  8
0
  6
CONTINUOUS
 62
    52
 10
200.59147644043
 20
-106.999984741211
 30
0.0
 11
198.59147644043
 21
-108.999984741211
 31
0.0
  0
LINE
  5
   10F
  8
0
  6
CONTINUOUS
 62
    52
 10
204.834121704102
 20
-106.999984741211
 30
0.0
 11
202.834121704102
 21
-108.999984741211
 31
0.0
  0
LINE
  5
   110
  8
0
  6
CONTINUOUS
 62
    52
 10
209.076766967773
 20
-106.999984741211
 30
0.0
 11
207.076766967773
 21
-108.999984741211
 31
0.0
  0
LINE
  5
   111
  8
0
  6
CONTINUOUS
 62
    52
 10
213.319412231445
 20
-106.999984741211
 30
0.0
 11
211.319412231445
 21
-108.999984741211
 31
0.0
  0
LINE
  5
   112
  8
0
  6
CONTINUOUS
 62
    52
 10
217.562057495117
 20
-106.999984741211
 30
0.0
 11
215.562057495117
 21
-108.999984741211
 31
0.0
  0
LINE
  5
   113
  8
0
  6
CONTINUOUS
 62
    52
 10
221.804702758789
 20
-106.999984741211
 30
0.0
 11
219.804702758789
 21
-108.999984741211
 31
0.0
  0
LINE
  5
   114
  8
0
  6
CONTINUOUS
 62
    52
 10
226.047348022461
 20
-106.999984741211
 30
0.0
 11
224.047348022461
 21
-108.999984741211
 31
0.0
  0
LINE
  5
   115
  8
0
  6
CONTINUOUS
 62
    52
 10
230.289993286133
 20
-106.999984741211
 30
0.0
 11
228.289993286133
 21
-108.999984741211
 31
0.0
  0
LINE
  5
   116
  8
0
  6
CONTINUOUS
 62
    52
 10
234.532638549805
 20
-106.999984741211
 30
0.0
 11
232.532638549805
 21
-108.999984741211
 31
0.0
  0
LINE
  5
   117
  8
0
  6
CONTINUOUS
 62
    52
 10
238.775283813477
 20
-106.999984741211
 30
0.0
 11
236.775283813477
 21
-108.999984741211
 31
0.0
  0
LINE
  5
   118
  8
0
  6
CONTINUOUS
 62
    52
 10
243.017929077148
 20
-106.999984741211
 30
0.0
 11
241.017929077148
 21
-108.999984741211
 31
0.0
  0
LINE
  5
   119
  8
0
  6
CONTINUOUS
 62
    52
 10
247.26057434082
 20
-106.999984741211
 30
0.0
 11
245.26057434082
 21
-108.999984741211
 31
0.0
  0
LINE
  5
   11A
  8
0
  6
CONTINUOUS
 62
    52
 10
251.503219604492
 20
-106.999984741211
 30
0.0
 11
249.503219604492
 21
-108.999984741211
 31
0.0
  0
ENDBLK
  5
   11B
  8
0
  6
CONTINUOUS
 62
     7
  0
BLOCK
  5
   11C
  8
0
  6
CONTINUOUS
 62
     7
  2
*HATCH184
 70
    65
 10
0.0
 20
0.0
 30
0.0
  3
*HATCH184
  0
LINE
  5
   11D
  8
0
  6
CONTINUOUS
 62
    52
 10
168.771667480469
 20
-106.999984741211
 30
0.0
 11
166.771667480469
 21
-108.999984741211
 31
0.0
  0
LINE
  5
   11E
  8
0
  6
CONTINUOUS
 62
    52
 10
173.014312744141
 20
-106.999984741211
 30
0.0
 11
171.014312744141
 21
-108.999984741211
 31
0.0
  0
LINE
  5
   11F
  8
0
  6
CONTINUOUS
 62
    52
 10
177.256958007812
 20
-106.999984741211
 30
0.0
 11
175.256958007813
 21
-108.999984741211
 31
0.0
  0
ENDBLK
  5
   120
  8
0
  6
CONTINUOUS
 62
     7
  0
BLOCK
  5
   121
  8
0
  6
CONTINUOUS
 62
     7
  2
*HATCH185
 70
    65
 10
0.0
 20
0.0
 30
0.0
  3
*HATCH185
  0
LINE
  5
   122
  8
0
  6
CONTINUOUS
 62
    52
 10
45.7350769042969
 20
-106.999984741211
 30
0.0
 11
43.7350769042969
 21
-108.999984741211
 31
0.0
  0
LINE
  5
   123
  8
0
  6
CONTINUOUS
 62
    52
 10
49.9777145385742
 20
-106.999984741211
 30
0.0
 11
47.9777145385742
 21
-108.999984741211
 31
0.0
  0
LINE
  5
   124
  8
0
  6
CONTINUOUS
 62
    52
 10
53.9806251525879
 20
-107.239715576172
 30
0.0
 11
52.2203598022461
 21
-108.999984741211
 31
0.0
  0
ENDBLK
  5
   125
  8
0
  6
CONTINUOUS
 62
     7
  0
BLOCK
  5
   126
  8
0
  6
CONTINUOUS
 62
     7
  2
*HATCH186
 70
    65
 10
0.0
 20
0.0
 30
0.0
  3
*HATCH186
  0
LINE
  5
   127
  8
0
  6
CONTINUOUS
 62
    52
 10
-36.9964218139648
 20
-106.999984741211
 30
0.0
 11
-38.9964218139648
 21
-108.999984741211
 31
0.0
  0
LINE
  5
   128
  8
0
  6
CONTINUOUS
 62
    52
 10
-32.7537841796875
 20
-106.999984741211
 30
0.0
 11
-34.7537841796875
 21
-108.999984741211
 31
0.0
  0
LINE
  5
   129
  8
0
  6
CONTINUOUS
 62
    52
 10
-28.5111427307129
 20
-106.999984741211
 30
0.0
 11
-30.5111446380615
 21
-108.999984741211
 31
0.0
  0
LINE
  5
   12A
  8
0
  6
CONTINUOUS
 62
    52
 10
-24.2685012817383
 20
-106.999984741211
 30
0.0
 11
-26.2685031890869
 21
-108.999984741211
 31
0.0
  0
LINE
  5
   12B
  8
0
  6
CONTINUOUS
 62
    52
 10
-20.0258598327637
 20
-106.999984741211
 30
0.0
 11
-22.0258617401123
 21
-108.999984741211
 31
0.0
  0
LINE
  5
   12C
  8
0
  6
CONTINUOUS
 62
    52
 10
-15.7832183837891
 20
-106.999984741211
 30
0.0
 11
-17.7832202911377
 21
-108.999984741211
 31
0.0
  0
LINE
  5
   12D
  8
0
  6
CONTINUOUS
 62
    52
 10
-11.5405769348145
 20
-106.999984741211
 30
0.0
 11
-13.5405788421631
 21
-108.999984741211
 31
0.0
  0
LINE
  5
   12E
  8
0
  6
CONTINUOUS
 62
    52
 10
-7.29793548583984
 20
-106.999984741211
 30
0.0
 11
-9.29793739318848
 21
-108.999984741211
 31
0.0
  0
LINE
  5
   12F
  8
0
  6
CONTINUOUS
 62
    52
 10
-3.05529427528381
 20
-106.999984741211
 30
0.0
 11
-5.05529689788818
 21
-108.999984741211
 31
0.0
  0
LINE
  5
   130
  8
0
  6
CONTINUOUS
 62
    52
 10
1.18734669685364
 20
-106.999984741211
 30
0.0
 11
-0.812656402587891
 21
-108.999984741211
 31
0.0
  0
LINE
  5
   131
  8
0
  6
CONTINUOUS
 62
    52
 10
5.42998790740967
 20
-106.999984741211
 30
0.0
 11
3.4299840927124
 21
-108.999984741211
 31
0.0
  0
LINE
  5
   132
  8
0
  6
CONTINUOUS
 62
    52
 10
9.67262935638428
 20
-106.999984741211
 30
0.0
 11
7.6726245880127
 21
-108.999984741211
 31
0.0
  0
LINE
  5
   133
  8
0
  6
CONTINUOUS
 62
    52
 10
13.9152708053589
 20
-106.999984741211
 30
0.0
 11
11.9152660369873
 21
-108.999984741211
 31
0.0
  0
LINE
  5
   134
  8
0
  6
CONTINUOUS
 62
    52
 10
18.1579113006592
 20
-106.999984741211
 30
0.0
 11
16.1579074859619
 21
-108.999984741211
 31
0.0
  0
LINE
  5
   135
  8
0
  6
CONTINUOUS
 62
    52
 10
22.4005527496338
 20
-106.999984741211
 30
0.0
 11
20.4005489349365
 21
-108.999984741211
 31
0.0
  0
LINE
  5
   136
  8
0
  6
CONTINUOUS
 62
    52
 10
26.6431941986084
 20
-106.999984741211
 30
0.0
 11
24.6431903839111
 21
-108.999984741211
 31
0.0
  0
LINE
  5
   137
  8
0
  6
CONTINUOUS
 62
    52
 10
30.885835647583
 20
-106.999984741211
 30
0.0
 11
28.8858318328857
 21
-108.999984741211
 31
0.0
  0
LINE
  5
   138
  8
0
  6
CONTINUOUS
 62
    52
 10
35.128475189209
 20
-106.999984741211
 30
0.0
 11
33.1284713745117
 21
-108.999984741211
 31
0.0
  0
ENDBLK
  5
   139
  8
0
  6
CONTINUOUS
 62
     7
  0
BLOCK
  5
   13A
  8
0
  6
CONTINUOUS
 62
     7
  2
*HATCH187
 70
    65
 10
0.0
 20
0.0
 30
0.0
  3
*HATCH187
  0
LINE
  5
   13B
  8
0
  6
CONTINUOUS
 62
    92
 10
265.837066650391
 20
18.4196968078613
 30
0.0
 11
271.756774902344
 21
12.4999847412109
 31
0.0
  0
LINE
  5
   13C
  8
0
  6
CONTINUOUS
 62
    92
 10
274.242065429688
 20
18.4999847412109
 30
0.0
 11
274.737091064453
 21
18.0049724578857
 31
0.0
  0
ENDBLK
  5
   13D
  8
0
  6
CONTINUOUS
 62
     7
  0
BLOCK
  5
   13E
  8
0
  6
CONTINUOUS
 62
     7
  2
*HATCH188
 70
    65
 10
0.0
 20
0.0
 30
0.0
  3
*HATCH188
  0
LINE
  5
   13F
  8
0
  6
CONTINUOUS
 62
    92
 10
254.271514892578
 20
21.4999847412109
 30
0.0
 11
261.213745117188
 21
14.5577545166016
 31
0.0
  0
LINE
  5
   140
  8
0
  6
CONTINUOUS
 62
    92
 10
263.625701904297
 20
20.6310768127441
 30
0.0
 11
265.756774902344
 21
18.4999847412109
 31
0.0
  0
LINE
  5
   141
  8
0
  6
CONTINUOUS
 62
    92
 10
271.242065429688
 20
21.4999847412109
 30
0.0
 11
273.737091064453
 21
19.0049724578857
 31
0.0
  0
ENDBLK
  5
   142
  8
0
  6
CONTINUOUS
 62
     7
  0
BLOCK
  5
   143
  8
0
  6
CONTINUOUS
 62
     7
  2
*HATCH189
 70
    65
 10
0.0
 20
0.0
 30
0.0
  3
*HATCH189
  0
LINE
  5
   144
  8
0
  6
CONTINUOUS
 62
    92
 10
272.487060546875
 20
-7.52721977233887
 30
0.0
 11
271.014282226563
 21
-9.00001525878906
 31
0.0
  0
ENDBLK
  5
   145
  8
0
  6
CONTINUOUS
 62
     7
  0
BLOCK
  5
   146
  8
0
  6
CONTINUOUS
 62
     7
  2
*HATCH190
 70
    65
 10
0.0
 20
0.0
 30
0.0
  3
*HATCH190
  0
LINE
  5
   147
  8
0
  6
CONTINUOUS
 62
    92
 10
256.543701171875
 20
-6.5000205039978
 30
0.0
 11
254.265090942383
 21
-8.77864456176758
 31
0.0
  0
ENDBLK
  5
   148
  8
0
  6
CONTINUOUS
 62
     7
  0
BLOCK
  5
   149
  8
0
  6
CONTINUOUS
 62
     7
  2
*HATCH191
 70
    65
 10
0.0
 20
0.0
 30
0.0
  3
*HATCH191
  0
LINE
  5
   14A
  8
0
  6
CONTINUOUS
 62
    92
 10
272.300933837891
 20
-13.5000152587891
 30
0.0
 11
273.737060546875
 21
-14.9361734390259
 31
0.0
  0
ENDBLK
  5
   14B
  8
0
  6
CONTINUOUS
 62
     7
  0
BLOCK
  5
   14C
  8
0
  6
CONTINUOUS
 62
     7
  2
*HATCH192
 70
    65
 10
0.0
 20
0.0
 30
0.0
  3
*HATCH192
  0
LINE
  5
   14D
  8
0
  6
CONTINUOUS
 62
    92
 10
251.08772277832
 20
-13.5000152587891
 30
0.0
 11
253.737075805664
 21
-16.1493644714355
 31
0.0
  0
ENDBLK
  5
   14E
  8
0
  6
CONTINUOUS
 62
     7
  0
BLOCK
  5
   14F
  8
0
  6
CONTINUOUS
 62
     7
  2
*HATCH193
 70
    65
 10
0.0
 20
0.0
 30
0.0
  3
*HATCH193
  0
LINE
  5
   150
  8
0
  6
CONTINUOUS
 62
    92
 10
237.237075805664
 20
8.1344690322876
 30
0.0
 11
235.237075805664
 21
6.13446998596191
 31
0.0
  0
LINE
  5
   151
  8
0
  6
CONTINUOUS
 62
    92
 10
239.587966918945
 20
2.00007629394531
 30
0.0
 11
237.587966918945
 21
7.62939525884576E-5
 31
0.0
  0
LINE
  5
   152
  8
0
  6
CONTINUOUS
 62
    92
 10
240.737075805664
 20
-5.33609294891357
 30
0.0
 11
238.737075805664
 21
-7.33609294891357
 31
0.0
  0
LINE
  5
   153
  8
0
  6
CONTINUOUS
 62
    92
 10
240.737075805664
 20
-13.8213739395142
 30
0.0
 11
238.737075805664
 21
-15.8213739395142
 31
0.0
  0
LINE
  5
   154
  8
0
  6
CONTINUOUS
 62
    92
 10
240.737075805664
 20
-22.3066558837891
 30
0.0
 11
238.737075805664
 21
-24.3066558837891
 31
0.0
  0
LINE
  5
   155
  8
0
  6
CONTINUOUS
 62
    92
 10
240.737075805664
 20
-30.7919387817383
 30
0.0
 11
238.737075805664
 21
-32.7919387817383
 31
0.0
  0
LINE
  5
   156
  8
0
  6
CONTINUOUS
 62
    92
 10
240.737075805664
 20
-39.2772178649902
 30
0.0
 11
238.848480224609
 21
-41.1658058166504
 31
0.0
  0
LINE
  5
   157
  8
0
  6
CONTINUOUS
 62
    92
 10
248.999557495117
 20
-39.5000152587891
 30
0.0
 11
246.499557495117
 21
-42.0000152587891
 31
0.0
  0
LINE
  5
   158
  8
0
  6
CONTINUOUS
 62
    92
 10
257.484832763672
 20
-39.5000152587891
 30
0.0
 11
254.984848022461
 21
-42.0000152587891
 31
0.0
  0
LINE
  5
   159
  8
0
  6
CONTINUOUS
 62
    92
 10
265.970123291016
 20
-39.5000152587891
 30
0.0
 11
263.470123291016
 21
-42.0000152587891
 31
0.0
  0
LINE
  5
   15A
  8
0
  6
CONTINUOUS
 62
    92
 10
274.455413818359
 20
-39.5000152587891
 30
0.0
 11
271.955413818359
 21
-42.0000152587891
 31
0.0
  0
LINE
  5
   15B
  8
0
  6
CONTINUOUS
 62
    92
 10
278.698059082031
 20
-39.5000152587891
 30
0.0
 11
276.198059082031
 21
-42.0000152587891
 31
0.0
  0
LINE
  5
   15C
  8
0
  6
CONTINUOUS
 62
    92
 10
282.940704345703
 20
-39.5000152587891
 30
0.0
 11
280.440704345703
 21
-42.0000152587891
 31
0.0
  0
ENDBLK
  5
   15D
  8
0
  6
CONTINUOUS
 62
     7
  0
BLOCK
  5
   15E
  8
0
  6
CONTINUOUS
 62
     7
  2
*HATCH194
 70
    65
 10
0.0
 20
0.0
 30
0.0
  3
*HATCH194
  0
LINE
  5
   15F
  8
0
  6
CONTINUOUS
 62
    92
 10
-56.6837043762207
 20
18.4999847412109
 30
0.0
 11
-50.6837120056152
 21
12.4999847412109
 31
0.0
  0
ENDBLK
  5
   160
  8
0
  6
CONTINUOUS
 62
     7
  0
BLOCK
  5
   161
  8
0
  6
CONTINUOUS
 62
     7
  2
*HATCH195
 70
    65
 10
0.0
 20
0.0
 30
0.0
  3
*HATCH195
  0
LINE
  5
   162
  8
0
  6
CONTINUOUS
 62
    92
 10
-55.4410629272461
 20
21.4999847412109
 30
0.0
 11
-52.4410667419434
 21
18.4999847412109
 31
0.0
  0
LINE
  5
   163
  8
0
  6
CONTINUOUS
 62
    92
 10
-43.2923736572266
 20
17.8365669250488
 30
0.0
 11
-41.1212158203125
 21
15.6654071807861
 31
0.0
  0
LINE
  5
   164
  8
0
  6
CONTINUOUS
 62
    92
 10
-38.4705085754395
 20
21.4999847412109
 30
0.0
 11
-35.4705123901367
 21
18.4999847412109
 31
0.0
  0
ENDBLK
  5
   165
  8
0
  6
CONTINUOUS
 62
     7
  0
BLOCK
  5
   166
  8
0
  6
CONTINUOUS
 62
     7
  2
*HATCH196
 70
    65
 10
0.0
 20
0.0
 30
0.0
  3
*HATCH196
  0
LINE
  5
   167
  8
0
  6
CONTINUOUS
 62
    92
 10
-49.4116287231445
 20
-6.98521995544434
 30
0.0
 11
-51.4264259338379
 21
-9.00001525878906
 31
0.0
  0
ENDBLK
  5
   168
  8
0
  6
CONTINUOUS
 62
     7
  0
BLOCK
  5
   169
  8
0
  6
CONTINUOUS
 62
     7
  2
*HATCH197
 70
    65
 10
0.0
 20
0.0
 30
0.0
  3
*HATCH197
  0
LINE
  5
   16A
  8
0
  6
CONTINUOUS
 62
    92
 10
-36.1985015869141
 20
-6.50001525878906
 30
0.0
 11
-38.6985015869141
 21
-9.00001525878906
 31
0.0
  0
ENDBLK
  5
   16B
  8
0
  6
CONTINUOUS
 62
     7
  0
BLOCK
  5
   16C
  8
0
  6
CONTINUOUS
 62
     7
  2
*HATCH198
 70
    65
 10
0.0
 20
0.0
 30
0.0
  3
*HATCH198
  0
LINE
  5
   16D
  8
0
  6
CONTINUOUS
 62
    92
 10
-54.382209777832
 20
-13.5000152587891
 30
0.0
 11
-53.2628593444824
 21
-14.6193675994873
 31
0.0
  0
ENDBLK
  5
   16E
  8
0
  6
CONTINUOUS
 62
     7
  0
BLOCK
  5
   16F
  8
0
  6
CONTINUOUS
 62
     7
  2
*HATCH199
 70
    65
 10
0.0
 20
0.0
 30
0.0
  3
*HATCH199
  0
ENDBLK
  5
   170
  8
0
  6
CONTINUOUS
 62
     7
  0
BLOCK
  5
   171
  8
0
  6
CONTINUOUS
 62
     7
  2
*HATCH200
 70
    65
 10
0.0
 20
0.0
 30
0.0
  3
*HATCH200
  0
LINE
  5
   172
  8
0
  6
CONTINUOUS
 62
    92
 10
-66.7628631591797
 20
-32.8217315673828
 30
0.0
 11
-68.7628631591797
 21
-34.8217315673828
 31
0.0
  0
LINE
  5
   173
  8
0
  6
CONTINUOUS
 62
    92
 10
-66.7628631591797
 20
-37.0643692016602
 30
0.0
 11
-68.7628631591797
 21
-39.0643692016602
 31
0.0
  0
LINE
  5
   174
  8
0
  6
CONTINUOUS
 62
    92
 10
-23.4557685852051
 20
2.00007629394531
 30
0.0
 11
-24.2628593444824
 21
1.19298553466797
 31
0.0
  0
LINE
  5
   175
  8
0
  6
CONTINUOUS
 62
    92
 10
-18.7628593444824
 20
2.45034456253052
 30
0.0
 11
-21.2131271362305
 21
7.62939525884576E-5
 31
0.0
  0
LINE
  5
   176
  8
0
  6
CONTINUOUS
 62
    92
 10
-60.7132225036621
 20
-39.5000152587891
 30
0.0
 11
-63.2132225036621
 21
-42.0000152587891
 31
0.0
  0
LINE
  5
   177
  8
0
  6
CONTINUOUS
 62
    92
 10
-56.4705810546875
 20
-39.5000152587891
 30
0.0
 11
-58.9705810546875
 21
-42.0000152587891
 31
0.0
  0
LINE
  5
   178
  8
0
  6
CONTINUOUS
 62
    92
 10
-52.2279396057129
 20
-39.5000152587891
 30
0.0
 11
-54.7279396057129
 21
-42.0000152587891
 31
0.0
  0
LINE
  5
   179
  8
0
  6
CONTINUOUS
 62
    92
 10
-47.9852981567383
 20
-39.5000152587891
 30
0.0
 11
-50.4852981567383
 21
-42.0000152587891
 31
0.0
  0
LINE
  5
   17A
  8
0
  6
CONTINUOUS
 62
    92
 10
-43.7426567077637
 20
-39.5000152587891
 30
0.0
 11
-46.2426567077637
 21
-42.0000152587891
 31
0.0
  0
LINE
  5
   17B
  8
0
  6
CONTINUOUS
 62
    92
 10
-39.5000152587891
 20
-39.5000152587891
 30
0.0
 11
-42.0000152587891
 21
-42.0000152587891
 31
0.0
  0
LINE
  5
   17C
  8
0
  6
CONTINUOUS
 62
    92
 10
-35.2573738098145
 20
-39.5000152587891
 30
0.0
 11
-37.7573738098145
 21
-42.0000152587891
 31
0.0
  0
LINE
  5
   17D
  8
0
  6
CONTINUOUS
 62
    92
 10
-31.0147323608398
 20
-39.5000152587891
 30
0.0
 11
-33.5147323608398
 21
-42.0000152587891
 31
0.0
  0
LINE
  5
   17E
  8
0
  6
CONTINUOUS
 62
    92
 10
-26.7720909118652
 20
-39.5000152587891
 30
0.0
 11
-29.2720909118652
 21
-42.0000152587891
 31
0.0
  0
ENDBLK
  5
   17F
  8
0
  6
CONTINUOUS
 62
     7
  0
BLOCK
  5
   180
  8
0
  6
CONTINUOUS
 62
   218
  2
*HATCH201
 70
    65
 10
0.0
 20
0.0
 30
0.0
  3
*HATCH201
  0
LINE
  5
   181
  8
0
  6
CONTINUOUS
 62
     3
 10
307.964141845703
 20
15.2219152450562
 30
0.0
 11
305.022216796875
 21
12.2800025939941
 31
0.0
  0
LINE
  5
   182
  8
0
  6
CONTINUOUS
 62
     3
 10
308.875701904297
 20
14.0121421813965
 30
0.0
 11
304.751831054688
 21
9.88828659057617
 31
0.0
  0
LINE
  5
   183
  8
0
  6
CONTINUOUS
 62
     3
 10
309.423889160156
 20
12.4390382766724
 30
0.0
 11
304.862274169922
 21
7.87741422653198
 31
0.0
  0
LINE
  5
   184
  8
0
  6
CONTINUOUS
 62
     3
 10
309.683715820313
 20
10.5775318145752
 30
0.0
 11
305.249633789063
 21
6.14346599578857
 31
0.0
  0
LINE
  5
   185
  8
0
  6
CONTINUOUS
 62
     3
 10
309.670867919922
 20
8.44337844848633
 30
0.0
 11
305.90771484375
 21
4.68020629882813
 31
0.0
  0
LINE
  5
   186
  8
0
  6
CONTINUOUS
 62
     3
 10
309.094665527344
 20
5.7458553314209
 30
0.0
 11
307.131469726563
 21
3.7826554775238
 31
0.0
  0
ENDBLK
  5
   187
  8
0
  6
CONTINUOUS
 62
   218
  0
BLOCK
  5
   188
  8
0
  6
CONTINUOUS
 62
   218
  2
*HATCH202
 70
    65
 10
0.0
 20
0.0
 30
0.0
  3
*HATCH202
  0
LINE
  5
   189
  8
0
  6
CONTINUOUS
 62
     3
 10
-89.9079208374024
 20
15.0974378585815
 30
0.0
 11
-93.0317153930664
 21
11.9736480712891
 31
0.0
  0
LINE
  5
   18A
  8
0
  6
CONTINUOUS
 62
     3
 10
-89.0342330932617
 20
13.8498096466064
 30
0.0
 11
-93.2626571655273
 21
9.62138175964355
 31
0.0
  0
LINE
  5
   18B
  8
0
  6
CONTINUOUS
 62
     3
 10
-88.5382232666016
 20
12.2244968414307
 30
0.0
 11
-93.0998458862305
 21
7.66287326812744
 31
0.0
  0
LINE
  5
   18C
  8
0
  6
CONTINUOUS
 62
     3
 10
-88.3028335571289
 20
10.3385629653931
 30
0.0
 11
-92.6881713867188
 21
5.95322751998901
 31
0.0
  0
LINE
  5
   18D
  8
0
  6
CONTINUOUS
 62
     3
 10
-88.3440322875977
 20
8.17604637145996
 30
0.0
 11
-91.9977264404297
 21
4.5223536491394
 31
0.0
  0
LINE
  5
   18E
  8
0
  6
CONTINUOUS
 62
     3
 10
-89.0785903930664
 20
5.32016849517822
 30
0.0
 11
-90.5976638793945
 21
3.80109310150146
 31
0.0
  0
ENDBLK
  5
   18F
  8
0
  6
CONTINUOUS
 62
   218
  0
BLOCK
  5
   190
  8
0
  6
CONTINUOUS
 62
     7
  2
*UDIM552
 70
    65
 10
0.0
 20
0.0
 30
0.0
  3
*UDIM552
  0
TEXT
  5
   191
  8
0
  6
CONTINUOUS
 62
     7
 10
-989.255067711529
 20
-3.8981761629948
 30
0.0
 40
2.99999994291904
  1
305
 50
89.9999999480344
 41
0.933333333333333
 72
     1
 11
-990.755067679456
 21
1.82376415853014E-3
 31
0.0
 73
     2
  0
LINE
  5
   192
  8
0
  6
CONTINUOUS
 62
     7
 10
-956.670553518624
 20
-71.3981598471535
 30
0.0
 11
-990.255067707997
 21
-71.3981598471535
 31
0.0
  0
LINE
  5
   193
  8
0
  6
CONTINUOUS
 62
     7
 10
-956.670553518624
 20
71.95180938156
 30
0.0
 11
-990.255067707997
 21
71.95180938156
 31
0.0
  0
LINE
  5
   194
  8
0
  6
CONTINUOUS
 62
     7
 10
-988.255067707997
 20
-71.3981598471535
 30
0.0
 11
-988.255067707997
 21
71.95180938156
 31
0.0
  0
LINE
  5
   195
  8
0
  6
CONTINUOUS
 62
     7
 10
-988.776012137948
 20
-68.4437365699466
 30
0.0
 11
-988.255067707997
 21
-71.3981598471535
 31
0.0
  0
LINE
  5
   196
  8
0
  6
CONTINUOUS
 62
     7
 10
-988.255067707997
 20
-71.3981598471535
 30
0.0
 11
-987.734123278045
 21
-68.4437365699466
 31
0.0
  0
LINE
  5
   197
  8
0
  6
CONTINUOUS
 62
     7
 10
-987.734123278045
 20
68.9973861043531
 30
0.0
 11
-988.255067707997
 21
71.95180938156
 31
0.0
  0
LINE
  5
   198
  8
0
  6
CONTINUOUS
 62
     7
 10
-988.255067707997
 20
71.95180938156
 30
0.0
 11
-988.776012137948
 21
68.9973861043531
 31
0.0
  0
ENDBLK
  5
   199
  8
0
  6
CONTINUOUS
 62
     7
  0
BLOCK
  5
   19A
  8
0
  6
CONTINUOUS
 62
     7
  2
*UDIM553
 70
    65
 10
0.0
 20
0.0
 30
0.0
  3
*UDIM553
  0
TEXT
  5
   19B
  8
0
  6
CONTINUOUS
 62
     7
 10
-981.41721746971
 20
28.1505665132766
 30
0.0
 40
2.99999994291904
  1
150,75
 50
89.9999999480344
 41
0.933333333333333
 72
     1
 11
-982.917217433833
 21
36.2505663605166
 31
0.0
 73
     2
  0
LINE
  5
   19C
  8
0
  6
CONTINUOUS
 62
     7
 10
-956.670553518624
 20
71.95180938156
 30
0.0
 11
-982.417217462373
 21
71.95180938156
 31
0.0
  0
LINE
  5
   19D
  8
0
  6
CONTINUOUS
 62
     7
 10
-980.417217462373
 20
1.09932562570448
 30
0.0
 11
-980.417217462373
 21
71.95180938156
 31
0.0
  0
LINE
  5
   19E
  8
0
  6
CONTINUOUS
 62
     7
 10
-980.938161892325
 20
4.05374890291144
 30
0.0
 11
-980.417217462373
 21
1.09932562570448
 31
0.0
  0
LINE
  5
   19F
  8
0
  6
CONTINUOUS
 62
     7
 10
-980.417217462373
 20
1.09932562570448
 30
0.0
 11
-979.896273032422
 21
4.05374890291144
 31
0.0
  0
LINE
  5
   1A0
  8
0
  6
CONTINUOUS
 62
     7
 10
-979.896273032422
 20
68.9973861043531
 30
0.0
 11
-980.417217462373
 21
71.95180938156
 31
0.0
  0
LINE
  5
   1A1
  8
0
  6
CONTINUOUS
 62
     7
 10
-980.417217462373
 20
71.95180938156
 30
0.0
 11
-980.938161892325
 21
68.9973861043531
 31
0.0
  0
ENDBLK
  5
   1A2
  8
0
  6
CONTINUOUS
 62
     7
  0
BLOCK
  5
   1A3
  8
0
  6
CONTINUOUS
 62
     7
  2
*UDIM554
 70
    65
 10
0.0
 20
0.0
 30
0.0
  3
*UDIM554
  0
TEXT
  5
   1A4
  8
0
  6
CONTINUOUS
 62
     7
 10
-949.337066257246
 20
-106.098195652687
 30
0.0
 40
2.99999994291904
  1
91,5
 50
359.999999948034
 41
0.933333333333333
 72
     1
 11
-944.037066356736
 21
-104.598195686008
 31
0.0
 73
     2
  0
LINE
  5
   1A5
  8
0
  6
CONTINUOUS
 62
     7
 10
-922.259565632343
 20
-83.3256598194374
 30
0.0
 11
-922.259565632343
 21
-109.098195657467
 31
0.0
  0
LINE
  5
   1A6
  8
0
  6
CONTINUOUS
 62
     7
 10
-965.264565523267
 20
-90.4447915743751
 30
0.0
 11
-965.264565523267
 21
-109.098195657467
 31
0.0
  0
LINE
  5
   1A7
  8
0
  6
CONTINUOUS
 62
     7
 10
-922.259565632343
 20
-107.098195657467
 30
0.0
 11
-965.264565523267
 21
-107.098195657467
 31
0.0
  0
LINE
  5
   1A8
  8
0
  6
CONTINUOUS
 62
     7
 10
-925.21398890955
 20
-107.619140087419
 30
0.0
 11
-922.259565632343
 21
-107.098195657467
 31
0.0
  0
LINE
  5
   1A9
  8
0
  6
CONTINUOUS
 62
     7
 10
-922.259565632343
 20
-107.098195657467
 30
0.0
 11
-925.21398890955
 21
-106.577251227516
 31
0.0
  0
LINE
  5
   1AA
  8
0
  6
CONTINUOUS
 62
     7
 10
-962.31014224606
 20
-106.577251227516
 30
0.0
 11
-965.264565523267
 21
-107.098195657467
 31
0.0
  0
LINE
  5
   1AB
  8
0
  6
CONTINUOUS
 62
     7
 10
-965.264565523267
 20
-107.098195657467
 30
0.0
 11
-962.31014224606
 21
-107.619140087419
 31
0.0
  0
ENDBLK
  5
   1AC
  8
0
  6
CONTINUOUS
 62
     7
  0
BLOCK
  5
   1AD
  8
0
  6
CONTINUOUS
 62
     7
  2
*UDIM555
 70
    65
 10
0.0
 20
0.0
 30
0.0
  3
*UDIM555
  0
TEXT
  5
   1AE
  8
0
  6
CONTINUOUS
 62
     7
 10
-937.569344098422
 20
-98.7947430637474
 30
0.0
 40
2.99999994291904
  1
24x24
 50
359.999999948034
 41
0.933333333333333
 72
     1
 11
-930.86934422455
 21
-97.2947430983309
 31
0.0
 73
     2
  0
LINE
  5
   1AF
  8
0
  6
CONTINUOUS
 62
     7
 10
-939.649565588236
 20
-79.9181598280801
 30
0.0
 11
-939.649565588236
 21
-101.79474306979
 31
0.0
  0
LINE
  5
   1B0
  8
0
  6
CONTINUOUS
 62
     7
 10
-947.874565567374
 20
-79.9181598280801
 30
0.0
 11
-947.874565567374
 21
-101.79474306979
 31
0.0
  0
LINE
  5
   1B1
  8
0
  6
CONTINUOUS
 62
     7
 10
-924.169344352031
 20
-99.7947430697905
 30
0.0
 11
-947.874565567374
 21
-99.7947430697905
 31
0.0
  0
LINE
  5
   1B2
  8
0
  6
CONTINUOUS
 62
     7
 10
-942.603988865443
 20
-100.315687499742
 30
0.0
 11
-939.649565588236
 21
-99.7947430697905
 31
0.0
  0
LINE
  5
   1B3
  8
0
  6
CONTINUOUS
 62
     7
 10
-939.649565588236
 20
-99.7947430697905
 30
0.0
 11
-942.603988865443
 21
-99.2737986398388
 31
0.0
  0
LINE
  5
   1B4
  8
0
  6
CONTINUOUS
 62
     7
 10
-944.920142290167
 20
-99.2737986398388
 30
0.0
 11
-947.874565567374
 21
-99.7947430697905
 31
0.0
  0
LINE
  5
   1B5
  8
0
  6
CONTINUOUS
 62
     7
 10
-947.874565567374
 20
-99.7947430697905
 30
0.0
 11
-944.920142290167
 21
-100.315687499742
 31
0.0
  0
ENDBLK
  5
   1B6
  8
0
  6
CONTINUOUS
 62
     7
  0
BLOCK
  5
   1B7
  8
0
  6
CONTINUOUS
 62
     7
  2
*UDIM556
 70
    65
 10
0.0
 20
0.0
 30
0.0
  3
*UDIM556
  0
TEXT
  5
   1B8
  8
0
  6
CONTINUOUS
 62
     7
 10
-959.344566782293
 20
-98.7947430675356
 30
0.0
 40
2.99999994291904
  1
37
 50
359.999999948034
 41
0.933333333333333
 72
     1
 11
-956.844566828507
 21
-97.2947430983309
 31
0.0
 73
     2
  0
LINE
  5
   1B9
  8
0
  6
CONTINUOUS
 62
     7
 10
-965.264565523267
 20
-90.4447915743751
 30
0.0
 11
-965.264565523267
 21
-101.79474306979
 31
0.0
  0
LINE
  5
   1BA
  8
0
  6
CONTINUOUS
 62
     7
 10
-947.874565567374
 20
-99.7947430697905
 30
0.0
 11
-965.264565523267
 21
-99.7947430697905
 31
0.0
  0
LINE
  5
   1BB
  8
0
  6
CONTINUOUS
 62
     7
 10
-950.828988844581
 20
-100.315687499742
 30
0.0
 11
-947.874565567374
 21
-99.7947430697905
 31
0.0
  0
LINE
  5
   1BC
  8
0
  6
CONTINUOUS
 62
     7
 10
-947.874565567374
 20
-99.7947430697905
 30
0.0
 11
-950.828988844581
 21
-99.2737986398388
 31
0.0
  0
LINE
  5
   1BD
  8
0
  6
CONTINUOUS
 62
     7
 10
-962.31014224606
 20
-99.2737986398388
 30
0.0
 11
-965.264565523267
 21
-99.7947430697905
 31
0.0
  0
LINE
  5
   1BE
  8
0
  6
CONTINUOUS
 62
     7
 10
-965.264565523267
 20
-99.7947430697905
 30
0.0
 11
-962.31014224606
 21
-100.315687499742
 31
0.0
  0
ENDBLK
  5
   1BF
  8
0
  6
CONTINUOUS
 62
     7
  0
BLOCK
  5
   1C0
  8
0
  6
CONTINUOUS
 62
     7
  2
*UDIM557
 70
    65
 10
0.0
 20
0.0
 30
0.0
  3
*UDIM557
  0
TEXT
  5
   1C1
  8
0
  6
CONTINUOUS
 62
     7
 10
-972.42456756733
 20
-98.7947430687983
 30
0.0
 40
2.99999994291904
  1
3
 50
359.999999948034
 41
0.933333333333333
 72
     1
 11
-971.324567586906
 21
-97.2947430983309
 31
0.0
 73
     2
  0
TEXT
  5
   1C2
  8
0
  6
CONTINUOUS
 62
     7
 10
-975.174567537391
 20
-98.7947430687983
 30
0.0
 40
2.99999994291904
  1
_
 50
359.999999948034
 41
0.933333333333333
 72
     1
 11
-974.074567556968
 21
-97.2947430983309
 31
0.0
 73
     2
  0
LINE
  5
   1C3
  8
0
  6
CONTINUOUS
 62
     7
 10
-966.674565519691
 20
-90.4101194433154
 30
0.0
 11
-966.674565519691
 21
-101.79474306979
 31
0.0
  0
LINE
  5
   1C4
  8
0
  6
CONTINUOUS
 62
     7
 10
-965.264565523267
 20
-99.7947430697905
 30
0.0
 11
-975.174567536038
 21
-99.7947430697905
 31
0.0
  0
LINE
  5
   1C5
  8
0
  6
CONTINUOUS
 62
     7
 10
-962.31014224606
 20
-99.2737986398388
 30
0.0
 11
-965.264565523267
 21
-99.7947430697905
 31
0.0
  0
LINE
  5
   1C6
  8
0
  6
CONTINUOUS
 62
     7
 10
-965.264565523267
 20
-99.7947430697905
 30
0.0
 11
-962.31014224606
 21
-100.315687499742
 31
0.0
  0
LINE
  5
   1C7
  8
0
  6
CONTINUOUS
 62
     7
 10
-969.628988796898
 20
-100.315687499742
 30
0.0
 11
-966.674565519691
 21
-99.7947430697905
 31
0.0
  0
LINE
  5
   1C8
  8
0
  6
CONTINUOUS
 62
     7
 10
-966.674565519691
 20
-99.7947430697905
 30
0.0
 11
-969.628988796898
 21
-99.2737986398388
 31
0.0
  0
ENDBLK
  5
   1C9
  8
0
  6
CONTINUOUS
 62
     7
  0
BLOCK
  5
   1CA
  8
0
  6
CONTINUOUS
 62
     7
  2
*UDIM558
 70
    65
 10
0.0
 20
0.0
 30
0.0
  3
*UDIM558
  0
TEXT
  5
   1CB
  8
0
  6
CONTINUOUS
 62
     7
 10
-887.769579302432
 20
-120.526964693365
 30
0.0
 40
2.99999994291904
  1
2
 50
359.999999948034
 41
0.933333333333333
 72
     1
 11
-886.669579322008
 21
-119.026964722898
 31
0.0
 73
     2
  0
LINE
  5
   1CC
  8
0
  6
CONTINUOUS
 62
     7
 10
-890.769580055475
 20
-71.6379402466633
 30
0.0
 11
-890.769580055475
 21
-123.526964694357
 31
0.0
  0
LINE
  5
   1CD
  8
0
  6
CONTINUOUS
 62
     7
 10
-891.709580053091
 20
-70.9697474772737
 30
0.0
 11
-891.709580053091
 21
-123.526964694357
 31
0.0
  0
LINE
  5
   1CE
  8
0
  6
CONTINUOUS
 62
     7
 10
-885.569579342938
 20
-121.526964694357
 30
0.0
 11
-891.709580053091
 21
-121.526964694357
 31
0.0
  0
LINE
  5
   1CF
  8
0
  6
CONTINUOUS
 62
     7
 10
-887.815156778268
 20
-121.006020264405
 30
0.0
 11
-890.769580055475
 21
-121.526964694357
 31
0.0
  0
LINE
  5
   1D0
  8
0
  6
CONTINUOUS
 62
     7
 10
-890.769580055475
 20
-121.526964694357
 30
0.0
 11
-887.815156778268
 21
-122.047909124309
 31
0.0
  0
LINE
  5
   1D1
  8
0
  6
CONTINUOUS
 62
     7
 10
-894.664003330298
 20
-122.047909124309
 30
0.0
 11
-891.709580053091
 21
-121.526964694357
 31
0.0
  0
LINE
  5
   1D2
  8
0
  6
CONTINUOUS
 62
     7
 10
-891.709580053091
 20
-121.526964694357
 30
0.0
 11
-894.664003330298
 21
-121.006020264405
 31
0.0
  0
ENDBLK
  5
   1D3
  8
0
  6
CONTINUOUS
 62
     7
  0
BLOCK
  5
   1D4
  8
0
  6
CONTINUOUS
 62
     7
  2
*UDIM559
 70
    65
 10
0.0
 20
0.0
 30
0.0
  3
*UDIM559
  0
TEXT
  5
   1D5
  8
0
  6
CONTINUOUS
 62
     7
 10
-935.462074085308
 20
-120.526964688314
 30
0.0
 40
2.99999994291904
  1
156,5
 50
359.999999948034
 41
0.933333333333333
 72
     1
 11
-928.762074211437
 21
-119.026964722898
 31
0.0
 73
     2
  0
LINE
  5
   1D6
  8
0
  6
CONTINUOUS
 62
     7
 10
-965.264565523267
 20
-90.4447915743751
 30
0.0
 11
-965.264565523267
 21
-123.526964694357
 31
0.0
  0
LINE
  5
   1D7
  8
0
  6
CONTINUOUS
 62
     7
 10
-891.709580053091
 20
-121.526964694357
 30
0.0
 11
-965.264565523267
 21
-121.526964694357
 31
0.0
  0
LINE
  5
   1D8
  8
0
  6
CONTINUOUS
 62
     7
 10
-894.664003330298
 20
-122.047909124309
 30
0.0
 11
-891.709580053091
 21
-121.526964694357
 31
0.0
  0
LINE
  5
   1D9
  8
0
  6
CONTINUOUS
 62
     7
 10
-891.709580053091
 20
-121.526964694357
 30
0.0
 11
-894.664003330298
 21
-121.006020264405
 31
0.0
  0
LINE
  5
   1DA
  8
0
  6
CONTINUOUS
 62
     7
 10
-962.31014224606
 20
-121.006020264405
 30
0.0
 11
-965.264565523267
 21
-121.526964694357
 31
0.0
  0
LINE
  5
   1DB
  8
0
  6
CONTINUOUS
 62
     7
 10
-965.264565523267
 20
-121.526964694357
 30
0.0
 11
-962.31014224606
 21
-122.047909124309
 31
0.0
  0
ENDBLK
  5
   1DC
  8
0
  6
CONTINUOUS
 62
     7
  0
BLOCK
  5
   1DD
  8
0
  6
CONTINUOUS
 62
     7
  2
*UDIM560
 70
    65
 10
0.0
 20
0.0
 30
0.0
  3
*UDIM560
  0
TEXT
  5
   1DE
  8
0
  6
CONTINUOUS
 62
     7
 10
-933.484572867729
 20
-113.401655413258
 30
0.0
 40
2.99999994291904
  1
153
 50
359.999999948034
 41
0.933333333333333
 72
     1
 11
-929.584572940581
 21
-111.901655445316
 31
0.0
 73
     2
  0
LINE
  5
   1DF
  8
0
  6
CONTINUOUS
 62
     7
 10
-893.354580362835
 20
-24.5756599684489
 30
0.0
 11
-893.354609188528
 21
-116.401655416775
 31
0.0
  0
LINE
  5
   1E0
  8
0
  6
CONTINUOUS
 62
     7
 10
-965.264565837183
 20
-90.444791574375
 30
0.0
 11
-965.264573985471
 21
-116.401655416775
 31
0.0
  0
LINE
  5
   1E1
  8
0
  6
CONTINUOUS
 62
     7
 10
-893.354608560695
 20
-114.401655416775
 30
0.0
 11
-965.264573357638
 21
-114.401655416775
 31
0.0
  0
LINE
  5
   1E2
  8
0
  6
CONTINUOUS
 62
     7
 10
-896.309031837902
 20
-114.922599846727
 30
0.0
 11
-893.354608560695
 21
-114.401655416775
 31
0.0
  0
LINE
  5
   1E3
  8
0
  6
CONTINUOUS
 62
     7
 10
-893.354608560695
 20
-114.401655416775
 30
0.0
 11
-896.309031837902
 21
-113.880710986824
 31
0.0
  0
LINE
  5
   1E4
  8
0
  6
CONTINUOUS
 62
     7
 10
-962.310150080431
 20
-113.880710986824
 30
0.0
 11
-965.264573357638
 21
-114.401655416775
 31
0.0
  0
LINE
  5
   1E5
  8
0
  6
CONTINUOUS
 62
     7
 10
-965.264573357638
 20
-114.401655416775
 30
0.0
 11
-962.310150080431
 21
-114.922599846727
 31
0.0
  0
ENDBLK
  5
   1E6
  8
0
  6
CONTINUOUS
 62
     7
  0
BLOCK
  5
   1E7
  8
0
  6
CONTINUOUS
 62
     7
  2
*UDIM561
 70
    65
 10
0.0
 20
0.0
 30
0.0
  3
*UDIM561
  0
TEXT
  5
   1E8
  8
0
  6
CONTINUOUS
 62
     7
 10
-928.87171109286
 20
-128.18669672455
 30
0.0
 40
2.99999994291904
  1
184,5
 50
359.999999948034
 41
0.933333333333333
 72
     1
 11
-922.171711218988
 21
-126.686696759134
 31
0.0
 73
     2
  0
LINE
  5
   1E9
  8
0
  6
CONTINUOUS
 62
     7
 10
-878.528861573728
 20
-4.71816001881484
 30
0.0
 11
-878.528901274285
 21
-131.186696730593
 31
0.0
  0
LINE
  5
   1EA
  8
0
  6
CONTINUOUS
 62
     7
 10
-965.264565837183
 20
-90.444791574375
 30
0.0
 11
-965.264578626739
 21
-131.186696730593
 31
0.0
  0
LINE
  5
   1EB
  8
0
  6
CONTINUOUS
 62
     7
 10
-878.528900646452
 20
-129.186696730593
 30
0.0
 11
-965.264577998906
 21
-129.186696730593
 31
0.0
  0
LINE
  5
   1EC
  8
0
  6
CONTINUOUS
 62
     7
 10
-881.483323923659
 20
-129.707641160545
 30
0.0
 11
-878.528900646452
 21
-129.186696730593
 31
0.0
  0
LINE
  5
   1ED
  8
0
  6
CONTINUOUS
 62
     7
 10
-878.528900646452
 20
-129.186696730593
 30
0.0
 11
-881.483323923659
 21
-128.665752300642
 31
0.0
  0
LINE
  5
   1EE
  8
0
  6
CONTINUOUS
 62
     7
 10
-962.310154721699
 20
-128.665752300642
 30
0.0
 11
-965.264577998906
 21
-129.186696730593
 31
0.0
  0
LINE
  5
   1EF
  8
0
  6
CONTINUOUS
 62
     7
 10
-965.264577998906
 20
-129.186696730593
 30
0.0
 11
-962.310154721699
 21
-129.707641160545
 31
0.0
  0
ENDBLK
  5
   1F0
  8
0
  6
CONTINUOUS
 62
     7
  0
BLOCK
  5
   1F1
  8
0
  6
CONTINUOUS
 62
     7
  2
*UDIM562
 70
    65
 10
0.0
 20
0.0
 30
0.0
  3
*UDIM562
  0
TEXT
  5
   1F2
  8
0
  6
CONTINUOUS
 62
     7
 10
-869.365756721056
 20
-3.07566900130238
 30
0.0
 40
2.99999994291904
  1
105
 50
89.9999999480344
 41
0.933333333333333
 72
     1
 11
-870.865756688984
 21
0.824330925850944
 31
0.0
 73
     2
  0
LINE
  5
   1F3
  8
0
  6
CONTINUOUS
 62
     7
 10
-890.709580053091
 20
-23.575659968449
 30
0.0
 11
-866.365756717524
 21
-23.575659968449
 31
0.0
  0
LINE
  5
   1F4
  8
0
  6
CONTINUOUS
 62
     7
 10
-890.709580053091
 20
25.7743255631196
 30
0.0
 11
-866.365756717524
 21
25.7743255631196
 31
0.0
  0
LINE
  5
   1F5
  8
0
  6
CONTINUOUS
 62
     7
 10
-868.365756717524
 20
-23.575659968449
 30
0.0
 11
-868.365756717524
 21
25.7743255631196
 31
0.0
  0
LINE
  5
   1F6
  8
0
  6
CONTINUOUS
 62
     7
 10
-868.886701147476
 20
-20.621236691242
 30
0.0
 11
-868.365756717524
 21
-23.575659968449
 31
0.0
  0
LINE
  5
   1F7
  8
0
  6
CONTINUOUS
 62
     7
 10
-868.365756717524
 20
-23.575659968449
 30
0.0
 11
-867.844812287573
 21
-20.621236691242
 31
0.0
  0
LINE
  5
   1F8
  8
0
  6
CONTINUOUS
 62
     7
 10
-867.844812287573
 20
22.8199022859126
 30
0.0
 11
-868.365756717524
 21
25.7743255631196
 31
0.0
  0
LINE
  5
   1F9
  8
0
  6
CONTINUOUS
 62
     7
 10
-868.365756717524
 20
25.7743255631196
 30
0.0
 11
-868.886701147476
 21
22.8199022859126
 31
0.0
  0
ENDBLK
  5
   1FA
  8
0
  6
CONTINUOUS
 62
     7
  0
ENDSEC
  0
SECTION
  2
ENTITIES
  0
LINE
  5
   1FB
  8
0
  6
DASHDOT
 62
     7
 10
-1056.37377929688
 20
-105.526307530479
 30
0.0
 11
-1056.37377929688
 21
-157.994960898492
 31
0.0
  0
LINE
  5
   1FC
  8
0
  6
CONTINUOUS
 62
     7
 10
-1087.78002929688
 20
-108.676208496094
 30
0.0
 11
-1087.78002929688
 21
-157.176208496094
 31
0.0
  0
LINE
  5
   1FD
  8
0
  6
CONTINUOUS
 62
     7
 10
-1035.90502929688
 20
-108.676208496094
 30
0.0
 11
-1035.90502929688
 21
-157.176208496094
 31
0.0
  0
LINE
  5
   1FE
  8
0
  6
CONTINUOUS
 62
     7
 10
-1035.90502929688
 20
-108.676208496094
 30
0.0
 11
-1087.78002929688
 21
-108.676208496094
 31
0.0
  0
LINE
  5
   1FF
  8
0
  6
CONTINUOUS
 62
     7
 10
-1035.90502929688
 20
-157.176208496094
 30
0.0
 11
-1087.78002929688
 21
-157.176208496094
 31
0.0
  0
LINE
  5
   200
  8
0
  6
DASHDOT
 62
     7
 10
-1081.84252929688
 20
-110.25854906281
 30
0.0
 11
-1081.84252929688
 21
-157.171481318328
 31
0.0
  0
LINE
  5
   201
  8
0
  6
DASHDOT
 62
     7
 10
-1041.84252929688
 20
-110.25854906281
 30
0.0
 11
-1041.84252929688
 21
-157.66530165786
 31
0.0
  0
LINE
  5
   202
  8
0
  6
DASHDOT
 62
     7
 10
-1037.62091886059
 20
-116.051208496094
 30
0.0
 11
-1085.52149179517
 21
-116.051208496094
 31
0.0
  0
LINE
  5
   203
  8
0
  6
DASHDOT
 62
     7
 10
-1037.2917053009
 20
-149.801208496094
 30
0.0
 11
-1085.19227823548
 21
-149.801208496094
 31
0.0
  0
CIRCLE
  5
   204
  8
0
  6
CONTINUOUS
 62
     7
 10
-1081.84252929688
 20
-116.051208496094
 30
0.0
 40
0.75
  0
CIRCLE
  5
   205
  8
0
  6
CONTINUOUS
 62
     7
 10
-1041.84252929688
 20
-116.051208496094
 30
0.0
 40
0.75
  0
CIRCLE
  5
   206
  8
0
  6
CONTINUOUS
 62
     7
 10
-1041.84252929688
 20
-149.801208496094
 30
0.0
 40
0.75
  0
CIRCLE
  5
   207
  8
0
  6
CONTINUOUS
 62
     7
 10
-1081.84252929688
 20
-149.801208496094
 30
0.0
 40
0.75
  0
LINE
  5
   208
  8
0
  6
DASHDOT
 62
     7
 10
-1026.7787818064
 20
-132.488708496094
 30
0.0
 11
-1093.68817483313
 21
-132.488708496094
 31
0.0
  0
INSERT
  5
   209
  8
0
  6
CONTINUOUS
 62
     5
  2
*UDIM530
 10
0.0
 20
0.0
 30
0.0
  0
INSERT
  5
   20A
  8
0
  6
CONTINUOUS
 62
     5
  2
*UDIM531
 10
0.0
 20
0.0
 30
0.0
  0
INSERT
  5
   20B
  8
0
  6
CONTINUOUS
 62
     7
  2
*UDIM532
 10
0.0
 20
0.0
 30
0.0
  0
INSERT
  5
   20C
  8
0
  6
CONTINUOUS
 62
     7
  2
*UDIM533
 10
0.0
 20
0.0
 30
0.0
  0
INSERT
  5
   20D
  8
0
  6
CONTINUOUS
 62
     7
  2
*UDIM534
 10
0.0
 20
0.0
 30
0.0
  0
TEXT
  5
   20E
  8
0
  6
CONTINUOUS
 62
     7
 10
-1057.50821812425
 20
-104.028891479176
 30
0.0
 40
3.00000002980232
  1
Y
 50
359.999999896069
 41
0.916666604744064
 72
     2
 11
-1055.30821825538
 21
-104.028891483156
 31
0.0
  0
TEXT
  5
   20F
  8
0
  6
CONTINUOUS
 62
     7
 10
-1116.0704689053
 20
-134.171253351368
 30
0.0
 40
3.00000002980232
  1
X
 50
359.999999896069
 41
0.916666604744064
 72
     2
 11
-1113.87046903643
 21
-134.171253355347
 31
0.0
  0
TEXT
  5
   210
  8
0
  6
CONTINUOUS
 62
     7
 10
-1025.94359970364
 20
-134.37700226704
 30
0.0
 40
3.00000002980232
  1
X
 50
359.999999896069
 41
0.916666604744064
 72
     2
 11
-1023.74359983477
 21
-134.377002271019
 31
0.0
  0
TEXT
  5
   211
  8
0
  6
CONTINUOUS
 62
     7
 10
-1057.63469791684
 20
-163.517589596904
 30
0.0
 40
3.00000002980232
  1
Y
 50
359.999999896069
 41
0.916666604744064
 72
     2
 11
-1055.43469804797
 21
-163.517589600884
 31
0.0
  0
LINE
  5
   212
  8
0
  6
CONTINUOUS
 62
     7
 10
-1023.47375546062
 20
48.686824241594
 30
0.0
 11
-1023.47375546062
 21
82.8792937471709
 31
0.0
  0
LINE
  5
   213
  8
0
  6
CONTINUOUS
 62
     7
 10
-1109.83624807192
 20
48.686824241594
 30
0.0
 11
-1109.83624807192
 21
82.8792937471709
 31
0.0
  0
LINE
  5
   214
  8
0
  6
CONTINUOUS
 62
     7
 10
-1023.47377026511
 20
-82.3256593616736
 30
0.0
 11
-1023.47377026511
 21
-30.5081755855526
 31
0.0
  0
LINE
  5
   215
  8
0
  6
CONTINUOUS
 62
     7
 10
-1109.83627004606
 20
-82.3256593616736
 30
0.0
 11
-1109.83627004606
 21
-30.5081755855526
 31
0.0
  0
LINE
  5
   216
  8
0
  6
CONTINUOUS
 62
     1
 10
-1023.473770449
 20
26.0093314707433
 30
0.0
 11
-1023.473770449
 21
48.686824241594
 31
0.0
  0
LINE
  5
   217
  8
0
  6
CONTINUOUS
 62
     1
 10
-1109.83627022995
 20
-30.5081755855526
 30
0.0
 11
-1109.83627022995
 21
-23.3406827473486
 31
0.0
  0
LINE
  5
   218
  8
0
  6
CONTINUOUS
 62
     1
 10
-1109.83627022995
 20
26.0093171274816
 30
0.0
 11
-1109.83627022995
 21
48.686824241594
 31
0.0
  0
LINE
  5
   219
  8
0
  6
CONTINUOUS
 62
     1
 10
-1023.94377761944
 20
-30.9781755563463
 30
0.0
 11
-1028.87877043529
 21
-30.9781755563463
 31
0.0
  0
LINE
  5
   21A
  8
0
  6
CONTINUOUS
 62
     1
 10
-1109.83627022995
 20
-23.3406755757178
 30
0.0
 11
-1109.83627022995
 21
26.0093242991125
 31
0.0
  0
LINE
  5
   21B
  8
0
  6
CONTINUOUS
 62
     1
 10
-1023.473770449
 20
-30.5081755855526
 30
0.0
 11
-1023.473770449
 21
26.0093242991124
 31
0.0
  0
LINE
  5
   21C
  8
0
  6
CONTINUOUS
 62
     1
 10
-1023.473770449
 20
-30.5081755855526
 30
0.0
 11
-1028.87877043529
 21
-30.5081755855526
 31
0.0
  0
LINE
  5
   21D
  8
0
  6
CONTINUOUS
 62
     1
 10
-1023.94377761944
 20
-30.9781755563465
 30
0.0
 11
-1023.94377761944
 21
-30.5081755855527
 31
0.0
  0
LINE
  5
   21E
  8
0
  6
CONTINUOUS
 62
     1
 10
-1031.53427473153
 20
-23.3406827473486
 30
0.0
 11
-1031.53427473153
 21
26.0093171274816
 31
0.0
  0
LINE
  5
   21F
  8
0
  6
CONTINUOUS
 62
     1
 10
-1080.34377030476
 20
38.9343242663299
 30
0.0
 11
-1080.34377030476
 21
46.3368242475544
 31
0.0
  0
LINE
  5
   220
  8
0
  6
CONTINUOUS
 62
     1
 10
-1032.40377042635
 20
38.9343242663299
 30
0.0
 11
-1032.40377042635
 21
46.3368242475544
 31
0.0
  0
LINE
  5
   221
  8
0
  6
CONTINUOUS
 62
     1
 10
-1032.40377042635
 20
46.3368242475544
 30
0.0
 11
-1080.34377030476
 21
46.3368242475544
 31
0.0
  0
LINE
  5
   222
  8
0
  6
CONTINUOUS
 62
     3
 10
-1069.2987775044
 20
-23.5756755751217
 30
0.0
 11
-1073.99877032085
 21
-23.5756755751217
 31
0.0
  0
LINE
  5
   223
  8
0
  6
CONTINUOUS
 62
     3
 10
-1038.74878475352
 20
-23.5756755751217
 30
0.0
 11
-1043.4487847416
 21
-23.5756755751217
 31
0.0
  0
LINE
  5
   224
  8
0
  6
CONTINUOUS
 62
     3
 10
-1031.69877042814
 20
-23.3406755757178
 30
0.0
 11
-1031.69877042814
 21
-14.8806827688063
 31
0.0
  0
LINE
  5
   225
  8
0
  6
CONTINUOUS
 62
     3
 10
-1081.04877030297
 20
-23.5756827467526
 30
0.0
 11
-1081.04877030297
 21
-14.8806827688063
 31
0.0
  0
LINE
  5
   226
  8
0
  6
CONTINUOUS
 62
     3
 10
-1031.93377042754
 20
25.7743242997085
 30
0.0
 11
-1080.81377030355
 21
25.7743242997085
 31
0.0
  0
LINE
  5
   227
  8
0
  6
CONTINUOUS
 62
     3
 10
-1073.99877032085
 20
-23.5756755751217
 30
0.0
 11
-1080.81377030356
 21
-23.5756755751217
 31
0.0
  0
LINE
  5
   228
  8
0
  6
CONTINUOUS
 62
     3
 10
-1043.4487847416
 20
-23.5756755751217
 30
0.0
 11
-1069.2987775044
 21
-23.5756755751217
 31
0.0
  0
LINE
  5
   229
  8
0
  6
CONTINUOUS
 62
     3
 10
-1031.93377042754
 20
-23.5756755751217
 30
0.0
 11
-1038.74878475352
 21
-23.5756755751217
 31
0.0
  0
LINE
  5
   22A
  8
0
  6
CONTINUOUS
 62
     3
 10
-1051.32127037837
 20
-13.1181827732767
 30
0.0
 11
-1051.32127037837
 21
5.68181000740879
 31
0.0
  0
LINE
  5
   22B
  8
0
  6
CONTINUOUS
 62
     3
 10
-1061.42627035274
 20
-13.1181827732767
 30
0.0
 11
-1061.42627035274
 21
5.68181000740879
 31
0.0
  0
LINE
  5
   22C
  8
0
  6
CONTINUOUS
 62
     1
 10
-1031.69877042814
 20
20.3693099701559
 30
0.0
 11
-1081.04877030297
 21
20.3693099701559
 31
0.0
  0
LINE
  5
   22D
  8
0
  6
CONTINUOUS
 62
     1
 10
-1031.69877042814
 20
25.069309958235
 30
0.0
 11
-1081.04877030297
 21
25.069309958235
 31
0.0
  0
LINE
  5
   22E
  8
0
  6
CONTINUOUS
 62
     3
 10
-1051.32127037837
 20
5.55751130166936
 30
0.0
 11
-1061.42627035274
 21
5.55751130166936
 31
0.0
  0
LINE
  5
   22F
  8
0
  6
CONTINUOUS
 62
     3
 10
-1051.32127037837
 20
5.68181000740879
 30
0.0
 11
-1061.42627035274
 21
5.68181000740879
 31
0.0
  0
LINE
  5
   230
  8
0
  6
CONTINUOUS
 62
     3
 10
-1051.32127037837
 20
-13.1181827732767
 30
0.0
 11
-1061.42627035274
 21
-13.1181827732767
 31
0.0
  0
LINE
  5
   231
  8
0
  6
CONTINUOUS
 62
     3
 10
-1051.32127037837
 20
-12.9938697242756
 30
0.0
 11
-1061.42627035274
 21
-12.9938697242756
 31
0.0
  0
LINE
  5
   232
  8
0
  6
DASHDOT
 62
     3
 10
-1056.37377036555
 20
-79.6964644662879
 30
0.0
 11
-1056.37377036555
 21
15.5294543409075
 31
0.0
  0
LINE
  5
   233
  8
0
  6
DASHDOT
 62
     3
 10
-1056.37377036555
 20
19.8662699550238
 30
0.0
 11
-1056.37377036555
 21
105.592564595317
 31
0.0
  0
LINE
  5
   234
  8
0
  6
CONTINUOUS
 62
     3
 10
-1031.69877759977
 20
-14.4106827699984
 30
0.0
 11
-1031.69877759977
 21
-8.7706865223256
 31
0.0
  0
LINE
  5
   235
  8
0
  6
CONTINUOUS
 62
     3
 10
-1031.69877759977
 20
7.44431717456928
 30
0.0
 11
-1031.69877759977
 21
25.5393243003045
 31
0.0
  0
LINE
  5
   236
  8
0
  6
CONTINUOUS
 62
     3
 10
-1031.69877759977
 20
-8.30068652351767
 30
0.0
 11
-1031.69877759977
 21
0.864317191258579
 31
0.0
  0
LINE
  5
   237
  8
0
  6
CONTINUOUS
 62
     3
 10
-1031.69877759977
 20
1.33431719006649
 30
0.0
 11
-1031.69877759977
 21
6.97431717576137
 31
0.0
  0
LINE
  5
   238
  8
0
  6
CONTINUOUS
 62
     3
 10
-1081.04877030297
 20
-14.4106827699984
 30
0.0
 11
-1081.04877030297
 21
-8.77068278430249
 31
0.0
  0
LINE
  5
   239
  8
0
  6
CONTINUOUS
 62
     3
 10
-1081.04877030298
 20
-8.30068278549455
 30
0.0
 11
-1081.04877030298
 21
0.864317191258579
 31
0.0
  0
LINE
  5
   23A
  8
0
  6
CONTINUOUS
 62
     3
 10
-1081.04877030297
 20
1.33431719006649
 30
0.0
 11
-1081.04877030297
 21
6.97431717576137
 31
0.0
  0
LINE
  5
   23B
  8
0
  6
CONTINUOUS
 62
     3
 10
-1081.04877030295
 20
7.44431717456928
 30
0.0
 11
-1081.04877030295
 21
25.5393243003045
 31
0.0
  0
LINE
  5
   23C
  8
0
  6
CONTINUOUS
 62
     1
 10
-1061.42627410039
 20
-8.53567374425019
 30
0.0
 11
-1080.57877033217
 21
-8.53567374425019
 31
0.0
  0
LINE
  5
   23D
  8
0
  6
CONTINUOUS
 62
     3
 10
-1031.69877759977
 20
-8.77067748167988
 30
0.0
 11
-1032.16877759858
 21
-8.77067748167988
 31
0.0
  0
LINE
  5
   23E
  8
0
  6
CONTINUOUS
 62
     1
 10
-1061.42628329316
 20
-8.06567374543951
 30
0.0
 11
-1080.57877033217
 21
-8.06567374543951
 31
0.0
  0
LINE
  5
   23F
  8
0
  6
CONTINUOUS
 62
     3
 10
-1031.69877759977
 20
-8.30067748287201
 30
0.0
 11
-1032.16877759858
 21
-8.30067748287201
 31
0.0
  0
LINE
  5
   240
  8
0
  6
CONTINUOUS
 62
     3
 10
-1080.57877033217
 20
-8.77068278430352
 30
0.0
 11
-1080.57877033217
 21
-8.30068278549561
 31
0.0
  0
LINE
  5
   241
  8
0
  6
CONTINUOUS
 62
     3
 10
-1032.16877759858
 20
-8.77068278430352
 30
0.0
 11
-1032.16877759858
 21
-8.30068278549561
 31
0.0
  0
LINE
  5
   242
  8
0
  6
CONTINUOUS
 62
     3
 10
-1031.69877042814
 20
-14.8806827688063
 30
0.0
 11
-1032.16877759858
 21
-14.8806827688063
 31
0.0
  0
LINE
  5
   243
  8
0
  6
CONTINUOUS
 62
     3
 10
-1031.69877759977
 20
-14.4106827699984
 30
0.0
 11
-1032.16877759858
 21
-14.4106827699984
 31
0.0
  0
LINE
  5
   244
  8
0
  6
CONTINUOUS
 62
     3
 10
-1080.57877033217
 20
-14.8806827688063
 30
0.0
 11
-1080.57877033217
 21
-14.4106827699984
 31
0.0
  0
LINE
  5
   245
  8
0
  6
CONTINUOUS
 62
     3
 10
-1032.16877759858
 20
-14.8806827688063
 30
0.0
 11
-1032.16877759858
 21
-14.4106827699984
 31
0.0
  0
LINE
  5
   246
  8
0
  6
CONTINUOUS
 62
     3
 10
-1031.69877759977
 20
6.97431717576137
 30
0.0
 11
-1032.16877759858
 21
6.97431717576137
 31
0.0
  0
LINE
  5
   247
  8
0
  6
CONTINUOUS
 62
     3
 10
-1031.69877759977
 20
7.44431717456928
 30
0.0
 11
-1032.16877759858
 21
7.44431717456928
 31
0.0
  0
LINE
  5
   248
  8
0
  6
CONTINUOUS
 62
     3
 10
-1080.57877033217
 20
6.97431717576137
 30
0.0
 11
-1080.57877033217
 21
7.44431717456928
 31
0.0
  0
LINE
  5
   249
  8
0
  6
CONTINUOUS
 62
     3
 10
-1032.16877759858
 20
6.97431717576137
 30
0.0
 11
-1032.16877759858
 21
7.44431717456928
 31
0.0
  0
LINE
  5
   24A
  8
0
  6
CONTINUOUS
 62
     3
 10
-1031.69877759977
 20
0.864317191258579
 30
0.0
 11
-1032.16877759858
 21
0.864317191258579
 31
0.0
  0
LINE
  5
   24B
  8
0
  6
CONTINUOUS
 62
     1
 10
-1061.42627035274
 20
1.56931718947044
 30
0.0
 11
-1080.57877033217
 21
1.56931718947044
 31
0.0
  0
LINE
  5
   24C
  8
0
  6
CONTINUOUS
 62
     3
 10
-1031.69877759977
 20
1.33431719006649
 30
0.0
 11
-1032.16877759858
 21
1.33431719006649
 31
0.0
  0
LINE
  5
   24D
  8
0
  6
CONTINUOUS
 62
     3
 10
-1080.57877033217
 20
0.864317191258579
 30
0.0
 11
-1080.57877033217
 21
1.33431719006649
 31
0.0
  0
LINE
  5
   24E
  8
0
  6
CONTINUOUS
 62
     3
 10
-1032.16877759858
 20
0.864317191258579
 30
0.0
 11
-1032.16877759858
 21
1.33431719006649
 31
0.0
  0
ARC
  5
   24F
  8
0
  6
CONTINUOUS
 62
     3
 10
-1080.81377030356
 20
-23.3406755757178
 30
0.0
 40
0.234999999403954
 50
179.999999948034
 51
269.999999948034
  0
ARC
  5
   250
  8
0
  6
CONTINUOUS
 62
     3
 10
-1031.93377042754
 20
-23.3406755757178
 30
0.0
 40
0.234999999403954
 50
269.999999948034
 51
359.999999948034
  0
ARC
  5
   251
  8
0
  6
CONTINUOUS
 62
     3
 10
-1031.93377042754
 20
25.5393243003045
 30
0.0
 40
0.234999999403954
 50
359.999999948034
 51
449.999999948034
  0
ARC
  5
   252
  8
0
  6
CONTINUOUS
 62
     3
 10
-1080.81377030355
 20
25.5393243003045
 30
0.0
 40
0.234999999403954
 50
89.9999999480344
 51
179.999999948034
  0
LINE
  5
   253
  8
0
  6
CONTINUOUS
 62
     1
 10
-1066.94877033873
 20
6.50431717695346
 30
0.0
 11
-1067.65377033694
 21
6.50431717695346
 31
0.0
  0
LINE
  5
   254
  8
0
  6
CONTINUOUS
 62
     1
 10
-1066.94877033873
 20
2.2743171876823
 30
0.0
 11
-1067.65377033694
 21
2.2743171876823
 31
0.0
  0
CIRCLE
  5
   255
  8
0
  6
CONTINUOUS
 62
     1
 10
-1067.30127033784
 20
-11.355682777747
 30
0.0
 40
2.11499999463558
  0
CIRCLE
  5
   256
  8
0
  6
CONTINUOUS
 62
     1
 10
-1067.30127033784
 20
-11.355682777747
 30
0.0
 40
1.40999999642372
  0
LINE
  5
   257
  8
0
  6
CONTINUOUS
 62
     1
 10
-1067.65377033694
 20
2.2743171876823
 30
0.0
 11
-1067.65377033694
 21
6.50431717695346
 31
0.0
  0
LINE
  5
   258
  8
0
  6
CONTINUOUS
 62
     1
 10
-1066.94877033873
 20
2.2743171876823
 30
0.0
 11
-1066.94877033873
 21
6.50431717695346
 31
0.0
  0
LINE
  5
   259
  8
0
  6
CONTINUOUS
 62
     1
 10
-1062.71877034946
 20
-14.1756827705944
 30
0.0
 11
-1062.71877034946
 21
-8.53567606899178
 31
0.0
  0
LINE
  5
   25A
  8
0
  6
CONTINUOUS
 62
     1
 10
-1050.02877038165
 20
-14.1756827705944
 30
0.0
 11
-1050.02877038165
 21
-8.53567980701752
 31
0.0
  0
LINE
  5
   25B
  8
0
  6
CONTINUOUS
 62
     1
 10
-1050.02877038165
 20
1.56931718947044
 30
0.0
 11
-1050.02877038165
 21
7.20931717516532
 31
0.0
  0
LINE
  5
   25C
  8
0
  6
CONTINUOUS
 62
     1
 10
-1062.71877034946
 20
1.56931718947044
 30
0.0
 11
-1062.71877034946
 21
7.20931717516532
 31
0.0
  0
LINE
  5
   25D
  8
0
  6
CONTINUOUS
 62
     7
 10
-1023.47377026511
 20
-31.4481594907177
 30
0.0
 11
-1028.87877043529
 21
-31.4481594907177
 31
0.0
  0
LINE
  5
   25E
  8
0
  6
CONTINUOUS
 62
     7
 10
-1051.32127037837
 20
-8.80391135521467
 30
0.0
 11
-1061.42627035274
 21
-8.80391135521467
 31
0.0
  0
LINE
  5
   25F
  8
0
  6
CONTINUOUS
 62
     7
 10
-1051.32127037837
 20
-6.47923440841737
 30
0.0
 11
-1061.42627035274
 21
-6.47923440841737
 31
0.0
  0
LINE
  5
   260
  8
0
  6
CONTINUOUS
 62
     7
 10
-1051.32127037837
 20
-12.5267586225138
 30
0.0
 11
-1061.42627035274
 21
-12.5267586225138
 31
0.0
  0
LINE
  5
   261
  8
0
  6
CONTINUOUS
 62
     3
 10
-1080.57877033217
 20
7.44431717456928
 30
0.0
 11
-1081.04877030295
 21
7.44431717456928
 31
0.0
  0
LINE
  5
   262
  8
0
  6
CONTINUOUS
 62
     3
 10
-1080.57877033217
 20
6.97431717576137
 30
0.0
 11
-1081.04877030297
 21
6.97431717576137
 31
0.0
  0
LINE
  5
   263
  8
0
  6
CONTINUOUS
 62
     3
 10
-1080.57877033217
 20
1.33431719006649
 30
0.0
 11
-1081.04877030297
 21
1.33431719006649
 31
0.0
  0
LINE
  5
   264
  8
0
  6
CONTINUOUS
 62
     3
 10
-1080.57877033217
 20
0.864317191258579
 30
0.0
 11
-1081.04877030298
 21
0.864317191258579
 31
0.0
  0
LINE
  5
   265
  8
0
  6
CONTINUOUS
 62
     3
 10
-1080.57877033217
 20
-8.30067374484346
 30
0.0
 11
-1081.04877030298
 21
-8.30067374484346
 31
0.0
  0
LINE
  5
   266
  8
0
  6
CONTINUOUS
 62
     3
 10
-1080.57877033217
 20
-8.77067374365414
 30
0.0
 11
-1081.04877030297
 21
-8.77067374365414
 31
0.0
  0
LINE
  5
   267
  8
0
  6
CONTINUOUS
 62
     3
 10
-1080.57877033217
 20
-14.4106827699984
 30
0.0
 11
-1081.04877030297
 21
-14.4106827699984
 31
0.0
  0
LINE
  5
   268
  8
0
  6
CONTINUOUS
 62
     3
 10
-1080.57877033217
 20
-14.8806827688063
 30
0.0
 11
-1081.04877030297
 21
-14.8806827688063
 31
0.0
  0
LINE
  5
   269
  8
0
  6
CONTINUOUS
 62
     1
 10
-1032.16877759858
 20
-14.6456827694024
 30
0.0
 11
-1080.57877033217
 21
-14.6456827694024
 31
0.0
  0
LINE
  5
   26A
  8
0
  6
CONTINUOUS
 62
     1
 10
-1032.16877759858
 20
-14.1756827705944
 30
0.0
 11
-1080.57877033217
 21
-14.1756827705944
 31
0.0
  0
LINE
  5
   26B
  8
0
  6
CONTINUOUS
 62
     1
 10
-1032.16877759858
 20
-8.53567748227593
 30
0.0
 11
-1051.32127195341
 21
-8.53567748227593
 31
0.0
  0
LINE
  5
   26C
  8
0
  6
CONTINUOUS
 62
     1
 10
-1032.16877759858
 20
-8.06567748346806
 30
0.0
 11
-1051.3212717812
 21
-8.06567748346806
 31
0.0
  0
LINE
  5
   26D
  8
0
  6
CONTINUOUS
 62
     1
 10
-1032.16877759858
 20
1.09931719066253
 30
0.0
 11
-1051.32127037837
 21
1.09931719066253
 31
0.0
  0
LINE
  5
   26E
  8
0
  6
CONTINUOUS
 62
     1
 10
-1032.16877759858
 20
1.56931718947044
 30
0.0
 11
-1051.32127037837
 21
1.56931718947044
 31
0.0
  0
LINE
  5
   26F
  8
0
  6
CONTINUOUS
 62
     1
 10
-1032.16877759858
 20
7.20931717516532
 30
0.0
 11
-1080.57877033217
 21
7.20931717516532
 31
0.0
  0
LINE
  5
   270
  8
0
  6
CONTINUOUS
 62
     1
 10
-1032.16877759858
 20
7.67931717397323
 30
0.0
 11
-1080.57877033217
 21
7.67931717397323
 31
0.0
  0
LINE
  5
   271
  8
0
  6
CONTINUOUS
 62
     1
 10
-1083.86877029582
 20
26.0093242991123
 30
0.0
 11
-1109.83627022995
 21
26.0093242991123
 31
0.0
  0
LINE
  5
   272
  8
0
  6
CONTINUOUS
 62
     1
 10
-1083.86877029582
 20
-23.3406827473486
 30
0.0
 11
-1099.84877025528
 21
-23.3406827473486
 31
0.0
  0
LINE
  5
   273
  8
0
  6
CONTINUOUS
 62
     1
 10
-1101.0237702523
 20
-23.3406827473486
 30
0.0
 11
-1109.83627022995
 21
-23.3406827473486
 31
0.0
  0
LINE
  5
   274
  8
0
  6
CONTINUOUS
 62
     1
 10
-1101.0237702523
 20
19.6643171435749
 30
0.0
 11
-1101.0237702523
 21
22.0143171376144
 31
0.0
  0
LINE
  5
   275
  8
0
  6
CONTINUOUS
 62
     1
 10
-1099.84877025528
 20
19.6643171435749
 30
0.0
 11
-1101.0237702523
 21
19.6643171435749
 31
0.0
  0
LINE
  5
   276
  8
0
  6
CONTINUOUS
 62
     1
 10
-1099.84877025528
 20
19.6643171435749
 30
0.0
 11
-1099.84877025528
 21
22.0143171376144
 31
0.0
  0
LINE
  5
   277
  8
0
  6
CONTINUOUS
 62
     1
 10
-1099.84877025528
 20
22.0143171376144
 30
0.0
 11
-1101.0237702523
 21
22.0143171376144
 31
0.0
  0
LINE
  5
   278
  8
0
  6
CONTINUOUS
 62
     1
 10
-1101.0237702523
 20
-24.2806760215605
 30
0.0
 11
-1101.0237702523
 21
-20.0506827556933
 31
0.0
  0
LINE
  5
   279
  8
0
  6
CONTINUOUS
 62
     1
 10
-1099.84877025528
 20
-24.2806760215605
 30
0.0
 11
-1101.0237702523
 21
-24.2806760215605
 31
0.0
  0
LINE
  5
   27A
  8
0
  6
CONTINUOUS
 62
     1
 10
-1099.84877025528
 20
-24.2806760215605
 30
0.0
 11
-1099.84877025528
 21
-20.0506827556933
 31
0.0
  0
LINE
  5
   27B
  8
0
  6
CONTINUOUS
 62
     1
 10
-1099.84877025528
 20
-20.0506827556933
 30
0.0
 11
-1101.0237702523
 21
-20.0506827556933
 31
0.0
  0
LINE
  5
   27C
  8
0
  6
CONTINUOUS
 62
     1
 10
-1100.31877025409
 20
19.6643171435749
 30
0.0
 11
-1100.31877025409
 21
22.0143171376144
 31
0.0
  0
LINE
  5
   27D
  8
0
  6
CONTINUOUS
 62
     1
 10
-1100.31876308246
 20
-24.2806760215605
 30
0.0
 11
-1100.31876308246
 21
-20.0506827556933
 31
0.0
  0
LINE
  5
   27E
  8
0
  6
CONTINUOUS
 62
     1
 10
-1023.473770449
 20
-23.3406755757178
 30
0.0
 11
-1028.87877043529
 21
-23.3406755757178
 31
0.0
  0
LINE
  5
   27F
  8
0
  6
CONTINUOUS
 62
     1
 10
-1023.473770449
 20
26.0093242991125
 30
0.0
 11
-1028.87877043529
 21
26.0093242991125
 31
0.0
  0
LINE
  5
   280
  8
0
  6
DASHDOT
 62
     7
 10
-1097.49875393143
 20
-74.7351853135572
 30
0.0
 11
-1097.49875393143
 21
-68.0611681809089
 31
0.0
  0
LINE
  5
   281
  8
0
  6
DASHDOT
 62
     7
 10
-1076.93625398358
 20
-74.7351853135572
 30
0.0
 11
-1076.93625398358
 21
-68.0611681809089
 31
0.0
  0
LINE
  5
   282
  8
0
  6
DASHDOT
 62
     7
 10
-1056.37375403574
 20
-70.0351853254781
 30
0.0
 11
-1056.37375403574
 21
-63.3611681928298
 31
0.0
  0
LINE
  5
   283
  8
0
  6
DASHDOT
 62
     7
 10
-1035.81125408789
 20
-74.7351853135572
 30
0.0
 11
-1035.81125408789
 21
-68.0611681809089
 31
0.0
  0
LINE
  5
   284
  8
0
  6
DASHDOT
 62
     7
 10
-1056.37375403574
 20
63.9148025783272
 30
0.0
 11
-1056.37375403574
 21
70.5888197109755
 31
0.0
  0
LINE
  5
   285
  8
0
  6
CONTINUOUS
 62
     2
 10
-1024.00251031086
 20
47.5118010085056
 30
0.0
 11
-1109.30751009449
 21
47.5118010085056
 31
0.0
  0
LINE
  5
   286
  8
0
  6
CONTINUOUS
 62
     2
 10
-1024.17875545883
 20
61.1417938023052
 30
0.0
 11
-1109.13124807371
 21
61.1417938023052
 31
0.0
  0
LINE
  5
   287
  8
0
  6
CONTINUOUS
 62
     2
 10
-1107.803504361
 20
-30.5081755855526
 30
0.0
 11
-1107.803504361
 21
61.1417938023052
 31
0.0
  0
LINE
  5
   288
  8
0
  6
CONTINUOUS
 62
     2
 10
-1106.11150866827
 20
-30.5081755855526
 30
0.0
 11
-1106.11150866827
 21
61.1417938023052
 31
0.0
  0
LINE
  5
   289
  8
0
  6
CONTINUOUS
 62
     2
 10
-1104.41950580391
 20
-30.5081755855526
 30
0.0
 11
-1104.41950580391
 21
61.1417938023052
 31
0.0
  0
LINE
  5
   28A
  8
0
  6
CONTINUOUS
 62
     2
 10
-1102.72750293955
 20
-30.5081755855526
 30
0.0
 11
-1102.72750293955
 21
61.1417938023052
 31
0.0
  0
LINE
  5
   28B
  8
0
  6
CONTINUOUS
 62
     2
 10
-1101.03550724682
 20
-30.5081755855526
 30
0.0
 11
-1101.03550724682
 21
61.1417938023052
 31
0.0
  0
LINE
  5
   28C
  8
0
  6
CONTINUOUS
 62
     2
 10
-1099.34350438246
 20
-30.5081755855526
 30
0.0
 11
-1099.34350438246
 21
61.1417938023052
 31
0.0
  0
LINE
  5
   28D
  8
0
  6
CONTINUOUS
 62
     2
 10
-1097.65150868973
 20
-30.5081755855526
 30
0.0
 11
-1097.65150868973
 21
61.1417938023052
 31
0.0
  0
LINE
  5
   28E
  8
0
  6
CONTINUOUS
 62
     2
 10
-1095.95950985941
 20
-30.5081755855526
 30
0.0
 11
-1095.95950985941
 21
61.1417938023052
 31
0.0
  0
LINE
  5
   28F
  8
0
  6
CONTINUOUS
 62
     2
 10
-1094.26750968441
 20
-30.5081755855526
 30
0.0
 11
-1094.26750968441
 21
61.1417938023052
 31
0.0
  0
LINE
  5
   290
  8
0
  6
CONTINUOUS
 62
     2
 10
-1092.57550995764
 20
-30.5081755855526
 30
0.0
 11
-1092.57550995764
 21
61.1417938023052
 31
0.0
  0
LINE
  5
   291
  8
0
  6
CONTINUOUS
 62
     2
 10
-1090.88350978264
 20
-30.5081755855526
 30
0.0
 11
-1090.88350978264
 21
61.1417938023052
 31
0.0
  0
LINE
  5
   292
  8
0
  6
CONTINUOUS
 62
     2
 10
-1089.19151016793
 20
-30.5081755855526
 30
0.0
 11
-1089.19151016793
 21
61.1417938023052
 31
0.0
  0
LINE
  5
   293
  8
0
  6
CONTINUOUS
 62
     2
 10
-1087.4995103291
 20
-30.5081755855526
 30
0.0
 11
-1087.4995103291
 21
61.1417938023052
 31
0.0
  0
LINE
  5
   294
  8
0
  6
CONTINUOUS
 62
     2
 10
-1085.8075101541
 20
-30.5081755855526
 30
0.0
 11
-1085.8075101541
 21
61.1417938023052
 31
0.0
  0
LINE
  5
   295
  8
0
  6
CONTINUOUS
 62
     2
 10
-1084.11551042733
 20
-30.5081755855526
 30
0.0
 11
-1084.11551042733
 21
61.1417938023052
 31
0.0
  0
LINE
  5
   296
  8
0
  6
CONTINUOUS
 62
     2
 10
-1082.42351025233
 20
38.9343242663299
 30
0.0
 11
-1082.42351025233
 21
61.1417938023052
 31
0.0
  0
LINE
  5
   297
  8
0
  6
CONTINUOUS
 62
     2
 10
-1080.73151590428
 20
47.9818009793005
 30
0.0
 11
-1080.73151590428
 21
61.1417938023052
 31
0.0
  0
LINE
  5
   298
  8
0
  6
CONTINUOUS
 62
     2
 10
-1079.03951303992
 20
47.9818009793005
 30
0.0
 11
-1079.03951303992
 21
61.1417938023052
 31
0.0
  0
LINE
  5
   299
  8
0
  6
CONTINUOUS
 62
     2
 10
-1077.34751017556
 20
47.9818009793005
 30
0.0
 11
-1077.34751017556
 21
61.1417938023052
 31
0.0
  0
LINE
  5
   29A
  8
0
  6
CONTINUOUS
 62
     2
 10
-1075.65551448283
 20
47.9818009793005
 30
0.0
 11
-1075.65551448283
 21
61.1417938023052
 31
0.0
  0
LINE
  5
   29B
  8
0
  6
CONTINUOUS
 62
     2
 10
-1073.96351161846
 20
47.9818009793005
 30
0.0
 11
-1073.96351161846
 21
61.1417938023052
 31
0.0
  0
LINE
  5
   29C
  8
0
  6
CONTINUOUS
 62
     2
 10
-1072.27151592573
 20
47.9818009793005
 30
0.0
 11
-1072.27151592573
 21
61.1417938023052
 31
0.0
  0
LINE
  5
   29D
  8
0
  6
CONTINUOUS
 62
     2
 10
-1070.57951306137
 20
47.9818009793005
 30
0.0
 11
-1070.57951306137
 21
61.1417938023052
 31
0.0
  0
LINE
  5
   29E
  8
0
  6
CONTINUOUS
 62
     2
 10
-1068.88751019701
 20
47.9818009793005
 30
0.0
 11
-1068.88751019701
 21
61.1417938023052
 31
0.0
  0
LINE
  5
   29F
  8
0
  6
CONTINUOUS
 62
     2
 10
-1067.19551450428
 20
47.9818009793005
 30
0.0
 11
-1067.19551450428
 21
61.1417938023052
 31
0.0
  0
LINE
  5
   2A0
  8
0
  6
CONTINUOUS
 62
     2
 10
-1065.50351163992
 20
47.9818009793005
 30
0.0
 11
-1065.50351163992
 21
61.1417938023052
 31
0.0
  0
LINE
  5
   2A1
  8
0
  6
CONTINUOUS
 62
     2
 10
-1063.81151594719
 20
47.9818009793005
 30
0.0
 11
-1063.81151594719
 21
61.1417938023052
 31
0.0
  0
LINE
  5
   2A2
  8
0
  6
CONTINUOUS
 62
     2
 10
-1062.11951308283
 20
47.9818009793005
 30
0.0
 11
-1062.11951308283
 21
61.1417938023052
 31
0.0
  0
LINE
  5
   2A3
  8
0
  6
CONTINUOUS
 62
     2
 10
-1060.42751021847
 20
47.9818009793005
 30
0.0
 11
-1060.42751021847
 21
61.1417938023052
 31
0.0
  0
LINE
  5
   2A4
  8
0
  6
CONTINUOUS
 62
     2
 10
-1058.73551452574
 20
47.9818009793005
 30
0.0
 11
-1058.73551452574
 21
61.1417938023052
 31
0.0
  0
LINE
  5
   2A5
  8
0
  6
CONTINUOUS
 62
     2
 10
-1057.04351166138
 20
47.9818009793005
 30
0.0
 11
-1057.04351166138
 21
61.1417938023052
 31
0.0
  0
LINE
  5
   2A6
  8
0
  6
CONTINUOUS
 62
     2
 10
-1055.35151596865
 20
47.9818009793005
 30
0.0
 11
-1055.35151596865
 21
61.1417938023052
 31
0.0
  0
LINE
  5
   2A7
  8
0
  6
CONTINUOUS
 62
     2
 10
-1053.65951310429
 20
47.9818009793005
 30
0.0
 11
-1053.65951310429
 21
61.1417938023052
 31
0.0
  0
LINE
  5
   2A8
  8
0
  6
CONTINUOUS
 62
     2
 10
-1051.96751023993
 20
47.9818009793005
 30
0.0
 11
-1051.96751023993
 21
61.1417938023052
 31
0.0
  0
LINE
  5
   2A9
  8
0
  6
CONTINUOUS
 62
     2
 10
-1050.2755145472
 20
47.9818009793005
 30
0.0
 11
-1050.2755145472
 21
61.1417938023052
 31
0.0
  0
LINE
  5
   2AA
  8
0
  6
CONTINUOUS
 62
     2
 10
-1048.58351168284
 20
47.9818009793005
 30
0.0
 11
-1048.58351168284
 21
61.1417938023052
 31
0.0
  0
LINE
  5
   2AB
  8
0
  6
CONTINUOUS
 62
     2
 10
-1046.89151599011
 20
47.9818009793005
 30
0.0
 11
-1046.89151599011
 21
61.1417938023052
 31
0.0
  0
LINE
  5
   2AC
  8
0
  6
CONTINUOUS
 62
     2
 10
-1045.19951312575
 20
47.9818009793005
 30
0.0
 11
-1045.19951312575
 21
61.1417938023052
 31
0.0
  0
LINE
  5
   2AD
  8
0
  6
CONTINUOUS
 62
     2
 10
-1043.50751026139
 20
47.9818009793005
 30
0.0
 11
-1043.50751026139
 21
61.1417938023052
 31
0.0
  0
LINE
  5
   2AE
  8
0
  6
CONTINUOUS
 62
     2
 10
-1041.81551456866
 20
47.9818009793005
 30
0.0
 11
-1041.81551456866
 21
61.1417938023052
 31
0.0
  0
LINE
  5
   2AF
  8
0
  6
CONTINUOUS
 62
     2
 10
-1040.1235117043
 20
47.9818009793005
 30
0.0
 11
-1040.1235117043
 21
61.1417938023052
 31
0.0
  0
LINE
  5
   2B0
  8
0
  6
CONTINUOUS
 62
     2
 10
-1038.43151601157
 20
47.9818009793005
 30
0.0
 11
-1038.43151601157
 21
61.1417938023052
 31
0.0
  0
LINE
  5
   2B1
  8
0
  6
CONTINUOUS
 62
     2
 10
-1036.7395131472
 20
47.9818009793005
 30
0.0
 11
-1036.7395131472
 21
61.1417938023052
 31
0.0
  0
LINE
  5
   2B2
  8
0
  6
CONTINUOUS
 62
     2
 10
-1035.04751028284
 20
47.9818009793005
 30
0.0
 11
-1035.04751028284
 21
61.1417938023052
 31
0.0
  0
LINE
  5
   2B3
  8
0
  6
CONTINUOUS
 62
     2
 10
-1033.35551459011
 20
47.9818009793005
 30
0.0
 11
-1033.35551459011
 21
61.1417938023052
 31
0.0
  0
LINE
  5
   2B4
  8
0
  6
CONTINUOUS
 62
     2
 10
-1031.66351172575
 20
38.9343242663299
 30
0.0
 11
-1031.66351172575
 21
61.1417938023052
 31
0.0
  0
LINE
  5
   2B5
  8
0
  6
CONTINUOUS
 62
     2
 10
-1029.97151603302
 20
38.9343242663299
 30
0.0
 11
-1029.97151603302
 21
61.1417938023052
 31
0.0
  0
LINE
  5
   2B6
  8
0
  6
CONTINUOUS
 62
     2
 10
-1028.27951316866
 20
-30.5081755855526
 30
0.0
 11
-1028.27951316866
 21
61.1417938023052
 31
0.0
  0
LINE
  5
   2B7
  8
0
  6
CONTINUOUS
 62
     2
 10
-1026.5875103043
 20
-30.5081755855526
 30
0.0
 11
-1026.5875103043
 21
61.1417938023052
 31
0.0
  0
LINE
  5
   2B8
  8
0
  6
CONTINUOUS
 62
     2
 10
-1024.89551461157
 20
-30.5081755855526
 30
0.0
 11
-1024.89551461157
 21
61.1417938023052
 31
0.0
  0
LINE
  5
   2B9
  8
0
  6
CONTINUOUS
 62
     2
 10
-1109.30750292286
 20
47.9818009793005
 30
0.0
 11
-1109.77750292167
 21
47.9818009793005
 31
0.0
  0
LINE
  5
   2BA
  8
0
  6
CONTINUOUS
 62
     2
 10
-1109.30751009682
 20
47.511801008437
 30
0.0
 11
-1109.30750292519
 21
47.9818009790119
 31
0.0
  0
LINE
  5
   2BB
  8
0
  6
CONTINUOUS
 62
     2
 10
-1023.53251031205
 20
47.9818009793005
 30
0.0
 11
-1024.00251031086
 21
47.9818009793005
 31
0.0
  0
LINE
  5
   2BC
  8
0
  6
CONTINUOUS
 62
     2
 10
-1024.00251031086
 20
47.5118010085067
 30
0.0
 11
-1024.00251031086
 21
47.9818009793004
 31
0.0
  0
LINE
  5
   2BD
  8
0
  6
CONTINUOUS
 62
     2
 10
-1024.00251031086
 20
47.9818009793005
 30
0.0
 11
-1109.30750292286
 21
47.9818009793005
 31
0.0
  0
LINE
  5
   2BE
  8
0
  6
CONTINUOUS
 62
     2
 10
-1024.00251031086
 20
-46.9581666230082
 30
0.0
 11
-1109.30751009449
 21
-46.9581666230082
 31
0.0
  0
LINE
  5
   2BF
  8
0
  6
CONTINUOUS
 62
     2
 10
-1024.17877026332
 20
-60.5881594168079
 30
0.0
 11
-1109.13127004785
 21
-60.5881594168079
 31
0.0
  0
LINE
  5
   2C0
  8
0
  6
CONTINUOUS
 62
     2
 10
-1107.803504361
 20
-60.5881594168079
 30
0.0
 11
-1107.803504361
 21
-31.4481594907177
 31
0.0
  0
LINE
  5
   2C1
  8
0
  6
CONTINUOUS
 62
     2
 10
-1106.11150866827
 20
-60.5881594168079
 30
0.0
 11
-1106.11150866827
 21
-31.4481594907177
 31
0.0
  0
LINE
  5
   2C2
  8
0
  6
CONTINUOUS
 62
     2
 10
-1104.41950580391
 20
-60.5881594168079
 30
0.0
 11
-1104.41950580391
 21
-31.4481594907177
 31
0.0
  0
LINE
  5
   2C3
  8
0
  6
CONTINUOUS
 62
     2
 10
-1102.72750293955
 20
-60.5881594168079
 30
0.0
 11
-1102.72750293955
 21
-31.4481594907177
 31
0.0
  0
LINE
  5
   2C4
  8
0
  6
CONTINUOUS
 62
     2
 10
-1101.03550724682
 20
-60.5881594168079
 30
0.0
 11
-1101.03550724682
 21
-31.4481594907177
 31
0.0
  0
LINE
  5
   2C5
  8
0
  6
CONTINUOUS
 62
     2
 10
-1099.34350438246
 20
-60.5881594168079
 30
0.0
 11
-1099.34350438246
 21
-31.4481594907177
 31
0.0
  0
LINE
  5
   2C6
  8
0
  6
CONTINUOUS
 62
     2
 10
-1097.65150868973
 20
-60.5881594168079
 30
0.0
 11
-1097.65150868973
 21
-31.4481594907177
 31
0.0
  0
LINE
  5
   2C7
  8
0
  6
CONTINUOUS
 62
     2
 10
-1095.95950985941
 20
-60.5881594168079
 30
0.0
 11
-1095.95950985941
 21
-31.4481594907177
 31
0.0
  0
LINE
  5
   2C8
  8
0
  6
CONTINUOUS
 62
     2
 10
-1094.26750968441
 20
-60.5881594168079
 30
0.0
 11
-1094.26750968441
 21
-31.4481594907177
 31
0.0
  0
LINE
  5
   2C9
  8
0
  6
CONTINUOUS
 62
     2
 10
-1092.57550995764
 20
-60.5881594168079
 30
0.0
 11
-1092.57550995764
 21
-31.4481594907177
 31
0.0
  0
LINE
  5
   2CA
  8
0
  6
CONTINUOUS
 62
     2
 10
-1090.88350978264
 20
-60.5881594168079
 30
0.0
 11
-1090.88350978264
 21
-31.4481594907177
 31
0.0
  0
LINE
  5
   2CB
  8
0
  6
CONTINUOUS
 62
     2
 10
-1089.19151016793
 20
-60.5881594168079
 30
0.0
 11
-1089.19151016793
 21
-31.4481594907177
 31
0.0
  0
LINE
  5
   2CC
  8
0
  6
CONTINUOUS
 62
     2
 10
-1087.4995103291
 20
-60.5881594168079
 30
0.0
 11
-1087.4995103291
 21
-31.4481594907177
 31
0.0
  0
LINE
  5
   2CD
  8
0
  6
CONTINUOUS
 62
     2
 10
-1085.8075101541
 20
-60.5881594168079
 30
0.0
 11
-1085.8075101541
 21
-31.4481594907177
 31
0.0
  0
LINE
  5
   2CE
  8
0
  6
CONTINUOUS
 62
     2
 10
-1084.11551042733
 20
-60.5881594168079
 30
0.0
 11
-1084.11551042733
 21
-31.4481594907177
 31
0.0
  0
LINE
  5
   2CF
  8
0
  6
CONTINUOUS
 62
     2
 10
-1082.42351025233
 20
-60.5881594168079
 30
0.0
 11
-1082.42351025233
 21
-36.7356737488354
 31
0.0
  0
LINE
  5
   2D0
  8
0
  6
CONTINUOUS
 62
     2
 10
-1080.73151590428
 20
-60.5881594168079
 30
0.0
 11
-1080.73151590428
 21
-47.4281665938031
 31
0.0
  0
LINE
  5
   2D1
  8
0
  6
CONTINUOUS
 62
     2
 10
-1079.03951303992
 20
-60.5881594168079
 30
0.0
 11
-1079.03951303992
 21
-47.4281665938031
 31
0.0
  0
LINE
  5
   2D2
  8
0
  6
CONTINUOUS
 62
     2
 10
-1077.34751017556
 20
-60.5881594168079
 30
0.0
 11
-1077.34751017556
 21
-47.4281665938031
 31
0.0
  0
LINE
  5
   2D3
  8
0
  6
CONTINUOUS
 62
     2
 10
-1075.65551448283
 20
-60.5881594168079
 30
0.0
 11
-1075.65551448283
 21
-47.4281665938031
 31
0.0
  0
LINE
  5
   2D4
  8
0
  6
CONTINUOUS
 62
     2
 10
-1073.96351161846
 20
-60.5881594168079
 30
0.0
 11
-1073.96351161846
 21
-47.4281665938031
 31
0.0
  0
LINE
  5
   2D5
  8
0
  6
CONTINUOUS
 62
     2
 10
-1072.27151592573
 20
-60.5881594168079
 30
0.0
 11
-1072.27151592573
 21
-47.4281665938031
 31
0.0
  0
LINE
  5
   2D6
  8
0
  6
CONTINUOUS
 62
     2
 10
-1070.57951306137
 20
-60.5881594168079
 30
0.0
 11
-1070.57951306137
 21
-47.4281665938031
 31
0.0
  0
LINE
  5
   2D7
  8
0
  6
CONTINUOUS
 62
     2
 10
-1068.88751019701
 20
-60.5881594168079
 30
0.0
 11
-1068.88751019701
 21
-47.4281665938031
 31
0.0
  0
LINE
  5
   2D8
  8
0
  6
CONTINUOUS
 62
     2
 10
-1067.19551450428
 20
-60.5881594168079
 30
0.0
 11
-1067.19551450428
 21
-47.4281665938031
 31
0.0
  0
LINE
  5
   2D9
  8
0
  6
CONTINUOUS
 62
     2
 10
-1065.50351163992
 20
-60.5881594168079
 30
0.0
 11
-1065.50351163992
 21
-47.4281665938031
 31
0.0
  0
LINE
  5
   2DA
  8
0
  6
CONTINUOUS
 62
     2
 10
-1063.81151594719
 20
-60.5881594168079
 30
0.0
 11
-1063.81151594719
 21
-47.4281665938031
 31
0.0
  0
LINE
  5
   2DB
  8
0
  6
CONTINUOUS
 62
     2
 10
-1062.11951308283
 20
-60.5881594168079
 30
0.0
 11
-1062.11951308283
 21
-47.4281665938031
 31
0.0
  0
LINE
  5
   2DC
  8
0
  6
CONTINUOUS
 62
     2
 10
-1060.42751021847
 20
-60.5881594168079
 30
0.0
 11
-1060.42751021847
 21
-47.4281665938031
 31
0.0
  0
LINE
  5
   2DD
  8
0
  6
CONTINUOUS
 62
     2
 10
-1058.73551452574
 20
-60.5881594168079
 30
0.0
 11
-1058.73551452574
 21
-47.4281665938031
 31
0.0
  0
LINE
  5
   2DE
  8
0
  6
CONTINUOUS
 62
     2
 10
-1057.04351166138
 20
-60.5881594168079
 30
0.0
 11
-1057.04351166138
 21
-47.4281665938031
 31
0.0
  0
LINE
  5
   2DF
  8
0
  6
CONTINUOUS
 62
     2
 10
-1055.35151596865
 20
-60.5881594168079
 30
0.0
 11
-1055.35151596865
 21
-47.4281665938031
 31
0.0
  0
LINE
  5
   2E0
  8
0
  6
CONTINUOUS
 62
     2
 10
-1053.65951310429
 20
-60.5881594168079
 30
0.0
 11
-1053.65951310429
 21
-47.4281665938031
 31
0.0
  0
LINE
  5
   2E1
  8
0
  6
CONTINUOUS
 62
     2
 10
-1051.96751023993
 20
-60.5881594168079
 30
0.0
 11
-1051.96751023993
 21
-47.4281665938031
 31
0.0
  0
LINE
  5
   2E2
  8
0
  6
CONTINUOUS
 62
     2
 10
-1050.2755145472
 20
-60.5881594168079
 30
0.0
 11
-1050.2755145472
 21
-47.4281665938031
 31
0.0
  0
LINE
  5
   2E3
  8
0
  6
CONTINUOUS
 62
     2
 10
-1048.58351168284
 20
-60.5881594168079
 30
0.0
 11
-1048.58351168284
 21
-47.4281665938031
 31
0.0
  0
LINE
  5
   2E4
  8
0
  6
CONTINUOUS
 62
     2
 10
-1046.89151599011
 20
-60.5881594168079
 30
0.0
 11
-1046.89151599011
 21
-47.4281665938031
 31
0.0
  0
LINE
  5
   2E5
  8
0
  6
CONTINUOUS
 62
     2
 10
-1045.19951312575
 20
-60.5881594168079
 30
0.0
 11
-1045.19951312575
 21
-47.4281665938031
 31
0.0
  0
LINE
  5
   2E6
  8
0
  6
CONTINUOUS
 62
     2
 10
-1043.50751026139
 20
-60.5881594168079
 30
0.0
 11
-1043.50751026139
 21
-47.4281665938031
 31
0.0
  0
LINE
  5
   2E7
  8
0
  6
CONTINUOUS
 62
     2
 10
-1041.81551456866
 20
-60.5881594168079
 30
0.0
 11
-1041.81551456866
 21
-47.4281665938031
 31
0.0
  0
LINE
  5
   2E8
  8
0
  6
CONTINUOUS
 62
     2
 10
-1040.1235117043
 20
-60.5881594168079
 30
0.0
 11
-1040.1235117043
 21
-47.4281665938031
 31
0.0
  0
LINE
  5
   2E9
  8
0
  6
CONTINUOUS
 62
     2
 10
-1038.43151601157
 20
-60.5881594168079
 30
0.0
 11
-1038.43151601157
 21
-47.4281665938031
 31
0.0
  0
LINE
  5
   2EA
  8
0
  6
CONTINUOUS
 62
     2
 10
-1036.7395131472
 20
-60.5881594168079
 30
0.0
 11
-1036.7395131472
 21
-47.4281665938031
 31
0.0
  0
LINE
  5
   2EB
  8
0
  6
CONTINUOUS
 62
     2
 10
-1035.04751028284
 20
-60.5881594168079
 30
0.0
 11
-1035.04751028284
 21
-47.4281665938031
 31
0.0
  0
LINE
  5
   2EC
  8
0
  6
CONTINUOUS
 62
     2
 10
-1033.35551459011
 20
-60.5881594168079
 30
0.0
 11
-1033.35551459011
 21
-47.4281665938031
 31
0.0
  0
LINE
  5
   2ED
  8
0
  6
CONTINUOUS
 62
     2
 10
-1031.66351172575
 20
-60.5881594168079
 30
0.0
 11
-1031.66351172575
 21
-36.7356737488354
 31
0.0
  0
LINE
  5
   2EE
  8
0
  6
CONTINUOUS
 62
     2
 10
-1029.97151603302
 20
-60.5881594168079
 30
0.0
 11
-1029.97151603302
 21
-36.7356737488354
 31
0.0
  0
LINE
  5
   2EF
  8
0
  6
CONTINUOUS
 62
     2
 10
-1028.27951316866
 20
-60.5881594168079
 30
0.0
 11
-1028.27951316866
 21
-31.4481594907177
 31
0.0
  0
LINE
  5
   2F0
  8
0
  6
CONTINUOUS
 62
     2
 10
-1026.5875103043
 20
-60.5881594168079
 30
0.0
 11
-1026.5875103043
 21
-31.4481594907177
 31
0.0
  0
LINE
  5
   2F1
  8
0
  6
CONTINUOUS
 62
     2
 10
-1024.89551461157
 20
-60.5881594168079
 30
0.0
 11
-1024.89551461157
 21
-31.4481594907177
 31
0.0
  0
LINE
  5
   2F2
  8
0
  6
CONTINUOUS
 62
     2
 10
-1109.30750292286
 20
-47.4281665938031
 30
0.0
 11
-1109.77750292167
 21
-47.4281665938031
 31
0.0
  0
LINE
  5
   2F3
  8
0
  6
CONTINUOUS
 62
     2
 10
-1109.30750292519
 20
-47.4281665935145
 30
0.0
 11
-1109.30751009682
 21
-46.9581666229396
 31
0.0
  0
LINE
  5
   2F4
  8
0
  6
CONTINUOUS
 62
     2
 10
-1023.53251031205
 20
-47.4281665938031
 30
0.0
 11
-1024.00251031086
 21
-47.4281665938031
 31
0.0
  0
LINE
  5
   2F5
  8
0
  6
CONTINUOUS
 62
     2
 10
-1024.00251031086
 20
-47.4281665938031
 30
0.0
 11
-1024.00251031086
 21
-46.9581666230093
 31
0.0
  0
LINE
  5
   2F6
  8
0
  6
CONTINUOUS
 62
     2
 10
-1024.00251031086
 20
-47.4281665938031
 30
0.0
 11
-1109.30750292286
 21
-47.4281665938031
 31
0.0
  0
ARC
  5
   2F7
  8
0
  6
CONTINUOUS
 62
     7
 10
-1109.13124807371
 20
60.4367938040934
 30
0.0
 40
0.704999998211861
 50
89.9999999480344
 51
179.999999948034
  0
ARC
  5
   2F8
  8
0
  6
CONTINUOUS
 62
     7
 10
-1024.17875545883
 20
60.4367938040934
 30
0.0
 40
0.704999998211861
 50
359.999999948034
 51
449.999999948034
  0
ARC
  5
   2F9
  8
0
  6
CONTINUOUS
 62
     7
 10
-1024.17877026332
 20
-59.883159418596
 30
0.0
 40
0.704999998211861
 50
269.999999948034
 51
359.999999948034
  0
ARC
  5
   2FA
  8
0
  6
CONTINUOUS
 62
     7
 10
-1109.13127004785
 20
-59.883159418596
 30
0.0
 40
0.704999998211861
 50
179.999999948034
 51
269.999999948034
  0
LINE
  5
   2FB
  8
0
  6
DASHDOT
 62
     3
 10
-1014.9394910547
 20
1.09932436229337
 30
0.0
 11
-1117.44573047077
 21
1.09932436229337
 31
0.0
  0
LINE
  5
   2FC
  8
0
  6
CONTINUOUS
 62
     7
 10
-1024.06127026362
 20
-82.9131593601834
 30
0.0
 11
-1109.24877004755
 21
-82.9131593601834
 31
0.0
  0
LINE
  5
   2FD
  8
0
  6
CONTINUOUS
 62
     7
 10
-1024.06125545913
 20
83.4667937456808
 30
0.0
 11
-1109.24874807341
 21
83.4667937456808
 31
0.0
  0
LINE
  5
   2FE
  8
0
  6
CONTINUOUS
 62
     7
 10
-1023.47375546062
 20
61.6117938011131
 30
0.0
 11
-1109.83624807192
 21
61.6117938011131
 31
0.0
  0
LINE
  5
   2FF
  8
0
  6
CONTINUOUS
 62
     7
 10
-1023.47377026511
 20
-61.0581594156158
 30
0.0
 11
-1109.83627004606
 21
-61.0581594156158
 31
0.0
  0
ARC
  5
   300
  8
0
  6
CONTINUOUS
 62
     7
 10
-1109.24877004755
 20
-82.3256593616736
 30
0.0
 40
0.587499998509884
 50
179.999999948034
 51
269.999999948034
  0
ARC
  5
   301
  8
0
  6
CONTINUOUS
 62
     7
 10
-1024.06127026362
 20
-82.3256593616736
 30
0.0
 40
0.587499998509884
 50
269.999999948034
 51
359.999999948034
  0
ARC
  5
   302
  8
0
  6
CONTINUOUS
 62
     7
 10
-1024.06125545913
 20
82.8792937471709
 30
0.0
 40
0.587499998509884
 50
359.999999948034
 51
449.999999948034
  0
ARC
  5
   303
  8
0
  6
CONTINUOUS
 62
     7
 10
-1109.24874807341
 20
82.8792937471709
 30
0.0
 40
0.587499998509884
 50
89.9999999480344
 51
179.999999948034
  0
LINE
  5
   304
  8
0
  6
CONTINUOUS
 62
     2
 10
-1107.803504361
 20
61.6117938011131
 30
0.0
 11
-1107.803504361
 21
83.4667937456808
 31
0.0
  0
LINE
  5
   305
  8
0
  6
CONTINUOUS
 62
     2
 10
-1106.11150866827
 20
61.6117938011131
 30
0.0
 11
-1106.11150866827
 21
83.4667937456808
 31
0.0
  0
LINE
  5
   306
  8
0
  6
CONTINUOUS
 62
     2
 10
-1104.41950580391
 20
61.6117938011131
 30
0.0
 11
-1104.41950580391
 21
83.4667937456808
 31
0.0
  0
LINE
  5
   307
  8
0
  6
CONTINUOUS
 62
     2
 10
-1102.72750293955
 20
61.6117938011131
 30
0.0
 11
-1102.72750293955
 21
83.4667937456808
 31
0.0
  0
LINE
  5
   308
  8
0
  6
CONTINUOUS
 62
     2
 10
-1101.03550724682
 20
61.6117938011131
 30
0.0
 11
-1101.03550724682
 21
83.4667937456808
 31
0.0
  0
LINE
  5
   309
  8
0
  6
CONTINUOUS
 62
     2
 10
-1099.34350438246
 20
61.6117938011131
 30
0.0
 11
-1099.34350438246
 21
83.4667937456808
 31
0.0
  0
LINE
  5
   30A
  8
0
  6
CONTINUOUS
 62
     2
 10
-1097.65150868973
 20
61.6117938011131
 30
0.0
 11
-1097.65150868973
 21
83.4667937456808
 31
0.0
  0
LINE
  5
   30B
  8
0
  6
CONTINUOUS
 62
     2
 10
-1095.95950985941
 20
61.6117938011131
 30
0.0
 11
-1095.95950985941
 21
83.4667937456808
 31
0.0
  0
LINE
  5
   30C
  8
0
  6
CONTINUOUS
 62
     2
 10
-1094.26750968441
 20
61.6117938011131
 30
0.0
 11
-1094.26750968441
 21
83.4667937456808
 31
0.0
  0
LINE
  5
   30D
  8
0
  6
CONTINUOUS
 62
     2
 10
-1092.57550995764
 20
61.6117938011131
 30
0.0
 11
-1092.57550995764
 21
83.4667937456808
 31
0.0
  0
LINE
  5
   30E
  8
0
  6
CONTINUOUS
 62
     2
 10
-1090.88350978264
 20
61.6117938011131
 30
0.0
 11
-1090.88350978264
 21
83.4667937456808
 31
0.0
  0
LINE
  5
   30F
  8
0
  6
CONTINUOUS
 62
     2
 10
-1089.19151016793
 20
61.6117938011131
 30
0.0
 11
-1089.19151016793
 21
83.4667937456808
 31
0.0
  0
LINE
  5
   310
  8
0
  6
CONTINUOUS
 62
     2
 10
-1087.4995103291
 20
61.6117938011131
 30
0.0
 11
-1087.4995103291
 21
83.4667937456808
 31
0.0
  0
LINE
  5
   311
  8
0
  6
CONTINUOUS
 62
     2
 10
-1085.8075101541
 20
61.6117938011131
 30
0.0
 11
-1085.8075101541
 21
83.4667937456808
 31
0.0
  0
LINE
  5
   312
  8
0
  6
CONTINUOUS
 62
     2
 10
-1084.11551042733
 20
61.6117938011131
 30
0.0
 11
-1084.11551042733
 21
83.4667937456808
 31
0.0
  0
LINE
  5
   313
  8
0
  6
CONTINUOUS
 62
     2
 10
-1082.42351025233
 20
61.6117938011131
 30
0.0
 11
-1082.42351025233
 21
83.4667937456808
 31
0.0
  0
LINE
  5
   314
  8
0
  6
CONTINUOUS
 62
     2
 10
-1080.73151590428
 20
61.6117938011131
 30
0.0
 11
-1080.73151590428
 21
83.4667937456808
 31
0.0
  0
LINE
  5
   315
  8
0
  6
CONTINUOUS
 62
     2
 10
-1079.03951303992
 20
61.6117938011131
 30
0.0
 11
-1079.03951303992
 21
83.4667937456808
 31
0.0
  0
LINE
  5
   316
  8
0
  6
CONTINUOUS
 62
     2
 10
-1077.34751017556
 20
61.6117938011131
 30
0.0
 11
-1077.34751017556
 21
83.4667937456808
 31
0.0
  0
LINE
  5
   317
  8
0
  6
CONTINUOUS
 62
     2
 10
-1075.65551448283
 20
61.6117938011131
 30
0.0
 11
-1075.65551448283
 21
83.4667937456808
 31
0.0
  0
LINE
  5
   318
  8
0
  6
CONTINUOUS
 62
     2
 10
-1073.96351161846
 20
61.6117938011131
 30
0.0
 11
-1073.96351161846
 21
83.4667937456808
 31
0.0
  0
LINE
  5
   319
  8
0
  6
CONTINUOUS
 62
     2
 10
-1072.27151592573
 20
61.6117938011131
 30
0.0
 11
-1072.27151592573
 21
83.4667937456808
 31
0.0
  0
LINE
  5
   31A
  8
0
  6
CONTINUOUS
 62
     2
 10
-1070.57951306137
 20
61.6117938011131
 30
0.0
 11
-1070.57951306137
 21
83.4667937456808
 31
0.0
  0
LINE
  5
   31B
  8
0
  6
CONTINUOUS
 62
     2
 10
-1068.88751019701
 20
61.6117938011131
 30
0.0
 11
-1068.88751019701
 21
83.4667937456808
 31
0.0
  0
LINE
  5
   31C
  8
0
  6
CONTINUOUS
 62
     2
 10
-1067.19551450428
 20
61.6117938011131
 30
0.0
 11
-1067.19551450428
 21
83.4667937456808
 31
0.0
  0
LINE
  5
   31D
  8
0
  6
CONTINUOUS
 62
     2
 10
-1065.50351163992
 20
61.6117938011131
 30
0.0
 11
-1065.50351163992
 21
83.4667937456808
 31
0.0
  0
LINE
  5
   31E
  8
0
  6
CONTINUOUS
 62
     2
 10
-1063.81151594719
 20
61.6117938011131
 30
0.0
 11
-1063.81151594719
 21
83.4667937456808
 31
0.0
  0
LINE
  5
   31F
  8
0
  6
CONTINUOUS
 62
     2
 10
-1062.11951308283
 20
61.6117938011131
 30
0.0
 11
-1062.11951308283
 21
83.4667937456808
 31
0.0
  0
LINE
  5
   320
  8
0
  6
CONTINUOUS
 62
     2
 10
-1060.42751021847
 20
61.6117938011131
 30
0.0
 11
-1060.42751021847
 21
83.4667937456808
 31
0.0
  0
LINE
  5
   321
  8
0
  6
CONTINUOUS
 62
     2
 10
-1058.73551452574
 20
61.6117938011131
 30
0.0
 11
-1058.73551452574
 21
83.4667937456808
 31
0.0
  0
LINE
  5
   322
  8
0
  6
CONTINUOUS
 62
     2
 10
-1057.04351166138
 20
61.6117938011131
 30
0.0
 11
-1057.04351166138
 21
83.4667937456808
 31
0.0
  0
LINE
  5
   323
  8
0
  6
CONTINUOUS
 62
     2
 10
-1055.35151596865
 20
61.6117938011131
 30
0.0
 11
-1055.35151596865
 21
83.4667937456808
 31
0.0
  0
LINE
  5
   324
  8
0
  6
CONTINUOUS
 62
     2
 10
-1053.65951310429
 20
61.6117938011131
 30
0.0
 11
-1053.65951310429
 21
83.4667937456808
 31
0.0
  0
LINE
  5
   325
  8
0
  6
CONTINUOUS
 62
     2
 10
-1051.96751023993
 20
61.6117938011131
 30
0.0
 11
-1051.96751023993
 21
83.4667937456808
 31
0.0
  0
LINE
  5
   326
  8
0
  6
CONTINUOUS
 62
     2
 10
-1050.2755145472
 20
61.6117938011131
 30
0.0
 11
-1050.2755145472
 21
83.4667937456808
 31
0.0
  0
LINE
  5
   327
  8
0
  6
CONTINUOUS
 62
     2
 10
-1048.58351168284
 20
61.6117938011131
 30
0.0
 11
-1048.58351168284
 21
83.4667937456808
 31
0.0
  0
LINE
  5
   328
  8
0
  6
CONTINUOUS
 62
     2
 10
-1046.89151599011
 20
61.6117938011131
 30
0.0
 11
-1046.89151599011
 21
83.4667937456808
 31
0.0
  0
LINE
  5
   329
  8
0
  6
CONTINUOUS
 62
     2
 10
-1045.19951312575
 20
61.6117938011131
 30
0.0
 11
-1045.19951312575
 21
83.4667937456808
 31
0.0
  0
LINE
  5
   32A
  8
0
  6
CONTINUOUS
 62
     2
 10
-1043.50751026139
 20
61.6117938011131
 30
0.0
 11
-1043.50751026139
 21
83.4667937456808
 31
0.0
  0
LINE
  5
   32B
  8
0
  6
CONTINUOUS
 62
     2
 10
-1041.81551456866
 20
61.6117938011131
 30
0.0
 11
-1041.81551456866
 21
83.4667937456808
 31
0.0
  0
LINE
  5
   32C
  8
0
  6
CONTINUOUS
 62
     2
 10
-1040.1235117043
 20
61.6117938011131
 30
0.0
 11
-1040.1235117043
 21
83.4667937456808
 31
0.0
  0
LINE
  5
   32D
  8
0
  6
CONTINUOUS
 62
     2
 10
-1038.43151601157
 20
61.6117938011131
 30
0.0
 11
-1038.43151601157
 21
83.4667937456808
 31
0.0
  0
LINE
  5
   32E
  8
0
  6
CONTINUOUS
 62
     2
 10
-1036.7395131472
 20
61.6117938011131
 30
0.0
 11
-1036.7395131472
 21
83.4667937456808
 31
0.0
  0
LINE
  5
   32F
  8
0
  6
CONTINUOUS
 62
     2
 10
-1035.04751028284
 20
61.6117938011131
 30
0.0
 11
-1035.04751028284
 21
83.4667937456808
 31
0.0
  0
LINE
  5
   330
  8
0
  6
CONTINUOUS
 62
     2
 10
-1033.35551459011
 20
61.6117938011131
 30
0.0
 11
-1033.35551459011
 21
83.4667937456808
 31
0.0
  0
LINE
  5
   331
  8
0
  6
CONTINUOUS
 62
     2
 10
-1031.66351172575
 20
61.6117938011131
 30
0.0
 11
-1031.66351172575
 21
83.4667937456808
 31
0.0
  0
LINE
  5
   332
  8
0
  6
CONTINUOUS
 62
     2
 10
-1029.97151603302
 20
61.6117938011131
 30
0.0
 11
-1029.97151603302
 21
83.4667937456808
 31
0.0
  0
LINE
  5
   333
  8
0
  6
CONTINUOUS
 62
     2
 10
-1028.27951316866
 20
61.6117938011131
 30
0.0
 11
-1028.27951316866
 21
83.4667937456808
 31
0.0
  0
LINE
  5
   334
  8
0
  6
CONTINUOUS
 62
     2
 10
-1026.5875103043
 20
61.6117938011131
 30
0.0
 11
-1026.5875103043
 21
83.4667937456808
 31
0.0
  0
LINE
  5
   335
  8
0
  6
CONTINUOUS
 62
     2
 10
-1024.89551461157
 20
61.6117938011131
 30
0.0
 11
-1024.89551461157
 21
83.4667937456808
 31
0.0
  0
LINE
  5
   336
  8
0
  6
CONTINUOUS
 62
     2
 10
-1107.803504361
 20
-82.9131593601834
 30
0.0
 11
-1107.803504361
 21
-61.0581594156158
 31
0.0
  0
LINE
  5
   337
  8
0
  6
CONTINUOUS
 62
     2
 10
-1106.11150866827
 20
-82.9131593601834
 30
0.0
 11
-1106.11150866827
 21
-61.0581594156158
 31
0.0
  0
LINE
  5
   338
  8
0
  6
CONTINUOUS
 62
     2
 10
-1104.41950580391
 20
-82.9131593601834
 30
0.0
 11
-1104.41950580391
 21
-61.0581594156158
 31
0.0
  0
LINE
  5
   339
  8
0
  6
CONTINUOUS
 62
     2
 10
-1102.72750293955
 20
-82.9131593601834
 30
0.0
 11
-1102.72750293955
 21
-61.0581594156158
 31
0.0
  0
LINE
  5
   33A
  8
0
  6
CONTINUOUS
 62
     2
 10
-1101.03550724682
 20
-82.9131593601834
 30
0.0
 11
-1101.03550724682
 21
-61.0581594156158
 31
0.0
  0
LINE
  5
   33B
  8
0
  6
CONTINUOUS
 62
     2
 10
-1099.34350438246
 20
-82.9131593601834
 30
0.0
 11
-1099.34350438246
 21
-61.0581594156158
 31
0.0
  0
LINE
  5
   33C
  8
0
  6
CONTINUOUS
 62
     2
 10
-1097.65150868973
 20
-82.9131593601834
 30
0.0
 11
-1097.65150868973
 21
-61.0581594156158
 31
0.0
  0
LINE
  5
   33D
  8
0
  6
CONTINUOUS
 62
     2
 10
-1095.95950985941
 20
-82.9131593601834
 30
0.0
 11
-1095.95950985941
 21
-61.0581594156158
 31
0.0
  0
LINE
  5
   33E
  8
0
  6
CONTINUOUS
 62
     2
 10
-1094.26750968441
 20
-82.9131593601834
 30
0.0
 11
-1094.26750968441
 21
-61.0581594156158
 31
0.0
  0
LINE
  5
   33F
  8
0
  6
CONTINUOUS
 62
     2
 10
-1092.57550995764
 20
-82.9131593601834
 30
0.0
 11
-1092.57550995764
 21
-61.0581594156158
 31
0.0
  0
LINE
  5
   340
  8
0
  6
CONTINUOUS
 62
     2
 10
-1090.88350978264
 20
-82.9131593601834
 30
0.0
 11
-1090.88350978264
 21
-61.0581594156158
 31
0.0
  0
LINE
  5
   341
  8
0
  6
CONTINUOUS
 62
     2
 10
-1089.19151016793
 20
-82.9131593601834
 30
0.0
 11
-1089.19151016793
 21
-61.0581594156158
 31
0.0
  0
LINE
  5
   342
  8
0
  6
CONTINUOUS
 62
     2
 10
-1087.4995103291
 20
-82.9131593601834
 30
0.0
 11
-1087.4995103291
 21
-61.0581594156158
 31
0.0
  0
LINE
  5
   343
  8
0
  6
CONTINUOUS
 62
     2
 10
-1085.8075101541
 20
-82.9131593601834
 30
0.0
 11
-1085.8075101541
 21
-61.0581594156158
 31
0.0
  0
LINE
  5
   344
  8
0
  6
CONTINUOUS
 62
     2
 10
-1084.11551042733
 20
-82.9131593601834
 30
0.0
 11
-1084.11551042733
 21
-61.0581594156158
 31
0.0
  0
LINE
  5
   345
  8
0
  6
CONTINUOUS
 62
     2
 10
-1082.42351025233
 20
-82.9131593601834
 30
0.0
 11
-1082.42351025233
 21
-61.0581594156158
 31
0.0
  0
LINE
  5
   346
  8
0
  6
CONTINUOUS
 62
     2
 10
-1080.73151590428
 20
-82.9131593601834
 30
0.0
 11
-1080.73151590428
 21
-61.0581594156158
 31
0.0
  0
LINE
  5
   347
  8
0
  6
CONTINUOUS
 62
     2
 10
-1079.03951303992
 20
-82.9131593601834
 30
0.0
 11
-1079.03951303992
 21
-61.0581594156158
 31
0.0
  0
LINE
  5
   348
  8
0
  6
CONTINUOUS
 62
     2
 10
-1077.34751017556
 20
-82.9131593601834
 30
0.0
 11
-1077.34751017556
 21
-61.0581594156158
 31
0.0
  0
LINE
  5
   349
  8
0
  6
CONTINUOUS
 62
     2
 10
-1075.65551448283
 20
-82.9131593601834
 30
0.0
 11
-1075.65551448283
 21
-61.0581594156158
 31
0.0
  0
LINE
  5
   34A
  8
0
  6
CONTINUOUS
 62
     2
 10
-1073.96351161846
 20
-82.9131593601834
 30
0.0
 11
-1073.96351161846
 21
-61.0581594156158
 31
0.0
  0
LINE
  5
   34B
  8
0
  6
CONTINUOUS
 62
     2
 10
-1072.27151592573
 20
-82.9131593601834
 30
0.0
 11
-1072.27151592573
 21
-61.0581594156158
 31
0.0
  0
LINE
  5
   34C
  8
0
  6
CONTINUOUS
 62
     2
 10
-1070.57951306137
 20
-82.9131593601834
 30
0.0
 11
-1070.57951306137
 21
-61.0581594156158
 31
0.0
  0
LINE
  5
   34D
  8
0
  6
CONTINUOUS
 62
     2
 10
-1068.88751019701
 20
-82.9131593601834
 30
0.0
 11
-1068.88751019701
 21
-61.0581594156158
 31
0.0
  0
LINE
  5
   34E
  8
0
  6
CONTINUOUS
 62
     2
 10
-1067.19551450428
 20
-82.9131593601834
 30
0.0
 11
-1067.19551450428
 21
-61.0581594156158
 31
0.0
  0
LINE
  5
   34F
  8
0
  6
CONTINUOUS
 62
     2
 10
-1065.50351163992
 20
-82.9131593601834
 30
0.0
 11
-1065.50351163992
 21
-61.0581594156158
 31
0.0
  0
LINE
  5
   350
  8
0
  6
CONTINUOUS
 62
     2
 10
-1063.81151594719
 20
-82.9131593601834
 30
0.0
 11
-1063.81151594719
 21
-61.0581594156158
 31
0.0
  0
LINE
  5
   351
  8
0
  6
CONTINUOUS
 62
     2
 10
-1062.11951308283
 20
-82.9131593601834
 30
0.0
 11
-1062.11951308283
 21
-61.0581594156158
 31
0.0
  0
LINE
  5
   352
  8
0
  6
CONTINUOUS
 62
     2
 10
-1060.42751021847
 20
-82.9131593601834
 30
0.0
 11
-1060.42751021847
 21
-61.0581594156158
 31
0.0
  0
LINE
  5
   353
  8
0
  6
CONTINUOUS
 62
     2
 10
-1058.73551452574
 20
-82.9131593601834
 30
0.0
 11
-1058.73551452574
 21
-61.0581594156158
 31
0.0
  0
LINE
  5
   354
  8
0
  6
CONTINUOUS
 62
     2
 10
-1057.04351166138
 20
-82.9131593601834
 30
0.0
 11
-1057.04351166138
 21
-61.0581594156158
 31
0.0
  0
LINE
  5
   355
  8
0
  6
CONTINUOUS
 62
     2
 10
-1055.35151596865
 20
-82.9131593601834
 30
0.0
 11
-1055.35151596865
 21
-61.0581594156158
 31
0.0
  0
LINE
  5
   356
  8
0
  6
CONTINUOUS
 62
     2
 10
-1053.65951310429
 20
-82.9131593601834
 30
0.0
 11
-1053.65951310429
 21
-61.0581594156158
 31
0.0
  0
LINE
  5
   357
  8
0
  6
CONTINUOUS
 62
     2
 10
-1051.96751023993
 20
-82.9131593601834
 30
0.0
 11
-1051.96751023993
 21
-61.0581594156158
 31
0.0
  0
LINE
  5
   358
  8
0
  6
CONTINUOUS
 62
     2
 10
-1050.2755145472
 20
-82.9131593601834
 30
0.0
 11
-1050.2755145472
 21
-61.0581594156158
 31
0.0
  0
LINE
  5
   359
  8
0
  6
CONTINUOUS
 62
     2
 10
-1048.58351168284
 20
-82.9131593601834
 30
0.0
 11
-1048.58351168284
 21
-61.0581594156158
 31
0.0
  0
LINE
  5
   35A
  8
0
  6
CONTINUOUS
 62
     2
 10
-1046.89151599011
 20
-82.9131593601834
 30
0.0
 11
-1046.89151599011
 21
-61.0581594156158
 31
0.0
  0
LINE
  5
   35B
  8
0
  6
CONTINUOUS
 62
     2
 10
-1045.19951312575
 20
-82.9131593601834
 30
0.0
 11
-1045.19951312575
 21
-61.0581594156158
 31
0.0
  0
LINE
  5
   35C
  8
0
  6
CONTINUOUS
 62
     2
 10
-1043.50751026139
 20
-82.9131593601834
 30
0.0
 11
-1043.50751026139
 21
-61.0581594156158
 31
0.0
  0
LINE
  5
   35D
  8
0
  6
CONTINUOUS
 62
     2
 10
-1041.81551456866
 20
-82.9131593601834
 30
0.0
 11
-1041.81551456866
 21
-61.0581594156158
 31
0.0
  0
LINE
  5
   35E
  8
0
  6
CONTINUOUS
 62
     2
 10
-1040.1235117043
 20
-82.9131593601834
 30
0.0
 11
-1040.1235117043
 21
-61.0581594156158
 31
0.0
  0
LINE
  5
   35F
  8
0
  6
CONTINUOUS
 62
     2
 10
-1038.43151601157
 20
-82.9131593601834
 30
0.0
 11
-1038.43151601157
 21
-61.0581594156158
 31
0.0
  0
LINE
  5
   360
  8
0
  6
CONTINUOUS
 62
     2
 10
-1036.7395131472
 20
-82.9131593601834
 30
0.0
 11
-1036.7395131472
 21
-61.0581594156158
 31
0.0
  0
LINE
  5
   361
  8
0
  6
CONTINUOUS
 62
     2
 10
-1035.04751028284
 20
-82.9131593601834
 30
0.0
 11
-1035.04751028284
 21
-61.0581594156158
 31
0.0
  0
LINE
  5
   362
  8
0
  6
CONTINUOUS
 62
     2
 10
-1033.35551459011
 20
-82.9131593601834
 30
0.0
 11
-1033.35551459011
 21
-61.0581594156158
 31
0.0
  0
LINE
  5
   363
  8
0
  6
CONTINUOUS
 62
     2
 10
-1031.66351172575
 20
-82.9131593601834
 30
0.0
 11
-1031.66351172575
 21
-61.0581594156158
 31
0.0
  0
LINE
  5
   364
  8
0
  6
CONTINUOUS
 62
     2
 10
-1029.97151603302
 20
-82.9131593601834
 30
0.0
 11
-1029.97151603302
 21
-61.0581594156158
 31
0.0
  0
LINE
  5
   365
  8
0
  6
CONTINUOUS
 62
     2
 10
-1028.27951316866
 20
-82.9131593601834
 30
0.0
 11
-1028.27951316866
 21
-61.0581594156158
 31
0.0
  0
LINE
  5
   366
  8
0
  6
CONTINUOUS
 62
     2
 10
-1026.5875103043
 20
-82.9131593601834
 30
0.0
 11
-1026.5875103043
 21
-61.0581594156158
 31
0.0
  0
LINE
  5
   367
  8
0
  6
CONTINUOUS
 62
     2
 10
-1024.89551461157
 20
-82.9131593601834
 30
0.0
 11
-1024.89551461157
 21
-61.0581594156158
 31
0.0
  0
LINE
  5
   368
  8
0
  6
CONTINUOUS
 62
     7
 10
-1044.36527498585
 20
-9.7811827817405
 30
0.0
 11
-1044.57677498532
 21
-9.7811827817405
 31
0.0
  0
LINE
  5
   369
  8
0
  6
CONTINUOUS
 62
     7
 10
-1044.81177498472
 20
-13.4001827725614
 30
0.0
 11
-1045.18777498377
 21
-13.4001827725614
 31
0.0
  0
LINE
  5
   36A
  8
0
  6
CONTINUOUS
 62
     7
 10
-1048.19577497614
 20
-12.178182775661
 30
0.0
 11
-1048.19577497614
 21
-11.943182776257
 31
0.0
  0
LINE
  5
   36B
  8
0
  6
CONTINUOUS
 62
     7
 10
-1045.75177498234
 20
-12.178182775661
 30
0.0
 11
-1045.75177498234
 21
-11.943182776257
 31
0.0
  0
ARC
  5
   36C
  8
0
  6
CONTINUOUS
 62
     7
 10
-1046.97377497924
 20
-11.9431827762569
 30
0.0
 40
1.22199999690056
 50
359.999999948034
 51
539.999999948034
  0
ARC
  5
   36D
  8
0
  6
CONTINUOUS
 62
     7
 10
-1046.97377497924
 20
-12.1781827756608
 30
0.0
 40
1.22199999690056
 50
179.999999948034
 51
359.999999948034
  0
ARC
  5
   36E
  8
0
  6
CONTINUOUS
 62
     7
 10
-1046.97377497924
 20
-11.9431827762569
 30
0.0
 40
0.845999997854233
 50
359.999999948034
 51
539.999999948034
  0
ARC
  5
   36F
  8
0
  6
CONTINUOUS
 62
     7
 10
-1046.97377497924
 20
-12.1781827756608
 30
0.0
 40
0.845999997854232
 50
179.999999948034
 51
359.999999948034
  0
LINE
  5
   370
  8
0
  6
CONTINUOUS
 62
     7
 10
-1047.81977497709
 20
-12.178182775661
 30
0.0
 11
-1047.81977497709
 21
-11.943182776257
 31
0.0
  0
LINE
  5
   371
  8
0
  6
CONTINUOUS
 62
     7
 10
-1046.12777498138
 20
-12.178182775661
 30
0.0
 11
-1046.12777498138
 21
-11.943182776257
 31
0.0
  0
LINE
  5
   372
  8
0
  6
CONTINUOUS
 62
     7
 10
-1045.63427498264
 20
-11.285182777926
 30
0.0
 11
-1045.63427498264
 21
-10.9091827788796
 31
0.0
  0
LINE
  5
   373
  8
0
  6
CONTINUOUS
 62
     7
 10
-1045.18777498377
 20
-11.2851827779258
 30
0.0
 11
-1045.63427498264
 21
-11.2851827779258
 31
0.0
  0
LINE
  5
   374
  8
0
  6
CONTINUOUS
 62
     7
 10
-1044.36527498585
 20
-11.2851827779259
 30
0.0
 11
-1044.36527498585
 21
-10.9091827788796
 31
0.0
  0
LINE
  5
   375
  8
0
  6
CONTINUOUS
 62
     7
 10
-1045.18777498377
 20
-10.9091827788795
 30
0.0
 11
-1045.63427498264
 21
-10.9091827788795
 31
0.0
  0
LINE
  5
   376
  8
0
  6
CONTINUOUS
 62
     7
 10
-1045.18777498377
 20
-13.4001827725615
 30
0.0
 11
-1045.18777498377
 21
-11.2851827779259
 31
0.0
  0
LINE
  5
   377
  8
0
  6
CONTINUOUS
 62
     7
 10
-1044.81177498472
 20
-13.4001827725615
 30
0.0
 11
-1044.81177498472
 21
-11.2851827779259
 31
0.0
  0
LINE
  5
   378
  8
0
  6
CONTINUOUS
 62
     7
 10
-1044.36527498585
 20
-11.2851827779258
 30
0.0
 11
-1044.81177498472
 21
-11.2851827779258
 31
0.0
  0
LINE
  5
   379
  8
0
  6
CONTINUOUS
 62
     7
 10
-1044.36527498585
 20
-10.9091827788795
 30
0.0
 11
-1044.81177498472
 21
-10.9091827788795
 31
0.0
  0
LINE
  5
   37A
  8
0
  6
CONTINUOUS
 62
     7
 10
-1045.18777498377
 20
-10.9091827788796
 30
0.0
 11
-1045.18777498377
 21
-10.3921827801909
 31
0.0
  0
LINE
  5
   37B
  8
0
  6
CONTINUOUS
 62
     7
 10
-1044.81177498472
 20
-10.9091827788796
 30
0.0
 11
-1044.81177498472
 21
-10.3921827801909
 31
0.0
  0
ARC
  5
   37C
  8
0
  6
CONTINUOUS
 62
     7
 10
-1044.57677498532
 20
-10.3921827801908
 30
0.0
 40
0.610999998450279
 50
449.999999948034
 51
539.999999948034
  0
ARC
  5
   37D
  8
0
  6
CONTINUOUS
 62
     7
 10
-1044.57677498532
 20
-10.3921827801908
 30
0.0
 40
0.234999999403953
 50
449.999999948034
 51
539.999999948034
  0
LINE
  5
   37E
  8
0
  6
CONTINUOUS
 62
     7
 10
-1044.36527498585
 20
-10.157182780787
 30
0.0
 11
-1044.36527498585
 21
-9.78118278174065
 31
0.0
  0
LINE
  5
   37F
  8
0
  6
CONTINUOUS
 62
     7
 10
-1044.36527498585
 20
-10.1571827807868
 30
0.0
 11
-1044.57677498532
 21
-10.1571827807868
 31
0.0
  0
LINE
  5
   380
  8
0
  6
CONTINUOUS
 62
     7
 10
-1042.86127498967
 20
-9.7811827817405
 30
0.0
 11
-1043.07277498913
 21
-9.7811827817405
 31
0.0
  0
LINE
  5
   381
  8
0
  6
CONTINUOUS
 62
     7
 10
-1043.30777498854
 20
-13.4001827725614
 30
0.0
 11
-1043.68377498758
 21
-13.4001827725614
 31
0.0
  0
LINE
  5
   382
  8
0
  6
CONTINUOUS
 62
     7
 10
-1044.13027498645
 20
-11.2851827779259
 30
0.0
 11
-1044.13027498645
 21
-10.9091827788796
 31
0.0
  0
LINE
  5
   383
  8
0
  6
CONTINUOUS
 62
     7
 10
-1043.68377498758
 20
-11.2851827779258
 30
0.0
 11
-1044.13027498645
 21
-11.2851827779258
 31
0.0
  0
LINE
  5
   384
  8
0
  6
CONTINUOUS
 62
     7
 10
-1042.86127498967
 20
-11.285182777926
 30
0.0
 11
-1042.86127498967
 21
-10.9091827788796
 31
0.0
  0
LINE
  5
   385
  8
0
  6
CONTINUOUS
 62
     7
 10
-1043.68377498758
 20
-10.9091827788795
 30
0.0
 11
-1044.13027498645
 21
-10.9091827788795
 31
0.0
  0
LINE
  5
   386
  8
0
  6
CONTINUOUS
 62
     7
 10
-1043.68377498758
 20
-13.4001827725615
 30
0.0
 11
-1043.68377498758
 21
-11.2851827779259
 31
0.0
  0
LINE
  5
   387
  8
0
  6
CONTINUOUS
 62
     7
 10
-1043.30777498854
 20
-13.4001827725615
 30
0.0
 11
-1043.30777498854
 21
-11.2851827779259
 31
0.0
  0
LINE
  5
   388
  8
0
  6
CONTINUOUS
 62
     7
 10
-1042.86127498967
 20
-11.2851827779258
 30
0.0
 11
-1043.30777498854
 21
-11.2851827779258
 31
0.0
  0
LINE
  5
   389
  8
0
  6
CONTINUOUS
 62
     7
 10
-1042.86127498967
 20
-10.9091827788795
 30
0.0
 11
-1043.30777498854
 21
-10.9091827788795
 31
0.0
  0
LINE
  5
   38A
  8
0
  6
CONTINUOUS
 62
     7
 10
-1043.68377498758
 20
-10.9091827788796
 30
0.0
 11
-1043.68377498758
 21
-10.3921827801909
 31
0.0
  0
LINE
  5
   38B
  8
0
  6
CONTINUOUS
 62
     7
 10
-1043.30777498854
 20
-10.9091827788796
 30
0.0
 11
-1043.30777498854
 21
-10.3921827801909
 31
0.0
  0
ARC
  5
   38C
  8
0
  6
CONTINUOUS
 62
     7
 10
-1043.07277498913
 20
-10.3921827801908
 30
0.0
 40
0.610999998450279
 50
449.999999948034
 51
539.999999948034
  0
ARC
  5
   38D
  8
0
  6
CONTINUOUS
 62
     7
 10
-1043.07277498913
 20
-10.3921827801908
 30
0.0
 40
0.234999999403953
 50
449.999999948034
 51
539.999999948034
  0
LINE
  5
   38E
  8
0
  6
CONTINUOUS
 62
     7
 10
-1042.86127498967
 20
-10.157182780787
 30
0.0
 11
-1042.86127498967
 21
-9.78118278174064
 31
0.0
  0
LINE
  5
   38F
  8
0
  6
CONTINUOUS
 62
     7
 10
-1042.86127498967
 20
-10.1571827807868
 30
0.0
 11
-1043.07277498913
 21
-10.1571827807868
 31
0.0
  0
LINE
  5
   390
  8
0
  6
CONTINUOUS
 62
     7
 10
-1044.99977498425
 20
2.81481718631139
 30
0.0
 11
-1045.37577498329
 21
2.81481718631139
 31
0.0
  0
ARC
  5
   391
  8
0
  6
CONTINUOUS
 62
     7
 10
-1046.97377497924
 20
4.27181718261591
 30
0.0
 40
1.22199999690056
 50
359.999999948034
 51
539.999999948034
  0
ARC
  5
   392
  8
0
  6
CONTINUOUS
 62
     7
 10
-1046.97377497924
 20
4.27181718261591
 30
0.0
 40
0.845999997854233
 50
359.999999948034
 51
539.999999948034
  0
ARC
  5
   393
  8
0
  6
CONTINUOUS
 62
     7
 10
-1046.97377497924
 20
4.03681718321195
 30
0.0
 40
1.22199999690056
 50
179.999999948034
 51
359.999999948034
  0
ARC
  5
   394
  8
0
  6
CONTINUOUS
 62
     7
 10
-1046.97377497924
 20
4.03681718321195
 30
0.0
 40
0.845999997854232
 50
179.999999948034
 51
359.999999948034
  0
LINE
  5
   395
  8
0
  6
CONTINUOUS
 62
     7
 10
-1046.12777498138
 20
4.03681718321181
 30
0.0
 11
-1046.12777498138
 21
4.27181718261576
 31
0.0
  0
LINE
  5
   396
  8
0
  6
CONTINUOUS
 62
     7
 10
-1045.75177498234
 20
4.03681718321181
 30
0.0
 11
-1045.75177498234
 21
4.27181718261576
 31
0.0
  0
LINE
  5
   397
  8
0
  6
CONTINUOUS
 62
     7
 10
-1047.81977497709
 20
4.0368171832118
 30
0.0
 11
-1047.81977497709
 21
4.27181718261576
 31
0.0
  0
LINE
  5
   398
  8
0
  6
CONTINUOUS
 62
     7
 10
-1048.19577497614
 20
4.03681718321181
 30
0.0
 11
-1048.19577497614
 21
4.27181718261576
 31
0.0
  0
LINE
  5
   399
  8
0
  6
CONTINUOUS
 62
     7
 10
-1045.37577498329
 20
2.81481718631126
 30
0.0
 11
-1045.37577498329
 21
5.49381717951633
 31
0.0
  0
LINE
  5
   39A
  8
0
  6
CONTINUOUS
 62
     7
 10
-1044.99977498425
 20
2.81481718631125
 30
0.0
 11
-1044.99977498425
 21
4.45981718213893
 31
0.0
  0
LINE
  5
   39B
  8
0
  6
CONTINUOUS
 62
     7
 10
-1043.68377498758
 20
2.81481718631126
 30
0.0
 11
-1043.68377498758
 21
4.45981718213893
 31
0.0
  0
LINE
  5
   39C
  8
0
  6
CONTINUOUS
 62
     7
 10
-1043.30777498854
 20
2.81481718631125
 30
0.0
 11
-1043.30777498854
 21
4.55381718190051
 31
0.0
  0
LINE
  5
   39D
  8
0
  6
CONTINUOUS
 62
     7
 10
-1044.99977498425
 20
5.49381717951646
 30
0.0
 11
-1045.37577498329
 21
5.49381717951646
 31
0.0
  0
ARC
  5
   39E
  8
0
  6
CONTINUOUS
 62
     7
 10
-1044.34177498591
 20
4.45981718213906
 30
0.0
 40
0.657999998331069
 50
359.999999948034
 51
539.999999948034
  0
LINE
  5
   39F
  8
0
  6
CONTINUOUS
 62
     7
 10
-1044.99977498425
 20
5.11781718047001
 30
0.0
 11
-1044.99977498425
 21
5.49381717951633
 31
0.0
  0
ARC
  5
   3A0
  8
0
  6
CONTINUOUS
 62
     7
 10
-1044.24777498615
 20
4.55381718190063
 30
0.0
 40
0.939999997615814
 50
359.999999948034
 51
503.13010230219
  0
LINE
  5
   3A1
  8
0
  6
CONTINUOUS
 62
     7
 10
-1043.30777498854
 20
2.81481718631139
 30
0.0
 11
-1043.68377498758
 21
2.81481718631139
 31
0.0
  0
INSERT
  5
   3A2
  8
255
  6
CONTINUOUS
 62
     7
  2
MOSTRINA
 10
-1110.34775094155
 20
-50.5915675354081
 30
0.0
 41
0.469999998807907
 42
0.469999998807907
 50
359.999999792138
 43
0.469999998807907
  0
LINE
  5
   3A3
  8
0
  6
CONTINUOUS
 62
     1
 10
-1083.86877029582
 20
-30.5081755855526
 30
0.0
 11
-1109.83627004606
 21
-30.5081755855526
 31
0.0
  0
LINE
  5
   3A4
  8
0
  6
CONTINUOUS
 62
     1
 10
-1083.86877029582
 20
-30.9781755563463
 30
0.0
 11
-1109.83627004606
 21
-30.9781755563463
 31
0.0
  0
LINE
  5
   3A5
  8
0
  6
CONTINUOUS
 62
     7
 10
-1083.86877029582
 20
-31.4481594907177
 30
0.0
 11
-1109.83627004606
 21
-31.4481594907177
 31
0.0
  0
TEXT
  5
   3A6
  8
0
  6
CONTINUOUS
 62
     7
 10
-1011.59048486384
 20
-15.8615117909035
 30
0.0
 40
2.99999994291904
  1
=         =
 50
89.9999999480344
 41
0.916666599088244
 72
     2
 11
-1011.59048483694
 21
13.8384854466897
 31
0.0
  0
INSERT
  5
   3A7
  8
0
  6
CONTINUOUS
 62
     7
  2
*UDIM535
 10
0.0
 20
0.0
 30
0.0
  0
INSERT
  5
   3A8
  8
0
  6
CONTINUOUS
 62
     7
  2
*UDIM536
 10
0.0
 20
0.0
 30
0.0
  0
INSERT
  5
   3A9
  8
0
  6
CONTINUOUS
 62
     7
  2
*UDIM537
 10
0.0
 20
0.0
 30
0.0
  0
INSERT
  5
   3AA
  8
0
  6
CONTINUOUS
 62
     7
  2
*UDIM538
 10
0.0
 20
0.0
 30
0.0
  0
INSERT
  5
   3AB
  8
0
  6
CONTINUOUS
 62
     7
  2
*UDIM539
 10
0.0
 20
0.0
 30
0.0
  0
TEXT
  5
   3AC
  8
0
  6
CONTINUOUS
 62
     7
 10
-1073.26988925917
 20
85.4635360168127
 30
0.0
 40
2.99999994291904
  1
=          =
 50
359.999999948034
 41
0.916666599088244
 72
     2
 11
-1040.81989227664
 21
85.4635359875446
 31
0.0
  0
INSERT
  5
   3AD
  8
0
  6
CONTINUOUS
 62
     7
  2
*UDIM540
 10
0.0
 20
0.0
 30
0.0
  0
INSERT
  5
   3AE
  8
0
  6
CONTINUOUS
 62
     7
  2
*UDIM541
 10
0.0
 20
0.0
 30
0.0
  0
INSERT
  5
   3AF
  8
0
  6
CONTINUOUS
 62
     7
  2
*UDIM542
 10
0.0
 20
0.0
 30
0.0
  0
INSERT
  5
   3B0
  8
0
  6
CONTINUOUS
 62
     7
  2
*UDIM543
 10
0.0
 20
0.0
 30
0.0
  0
INSERT
  5
   3B1
  8
0
  6
CONTINUOUS
 62
     7
  2
*UDIM544
 10
0.0
 20
0.0
 30
0.0
  0
INSERT
  5
   3B2
  8
0
  6
CONTINUOUS
 62
     7
  2
*UDIM545
 10
0.0
 20
0.0
 30
0.0
  0
INSERT
  5
   3B3
  8
0
  6
CONTINUOUS
 62
     7
  2
*UDIM546
 10
0.0
 20
0.0
 30
0.0
  0
TEXT
  5
   3B4
  8
0
  6
CONTINUOUS
 62
     7
 10
-1136.06574662729
 20
-1.88298689938832
 30
0.0
 40
2.99999994291904
  1
X
 50
359.999999948034
 41
0.916666599088244
 72
     1
 11
-1134.96574673184
 21
-0.382986928920943
 31
0.0
 73
     2
  0
TEXT
  5
   3B5
  8
0
  6
CONTINUOUS
 62
     7
 10
-1057.6768596496
 20
106.942688636357
 30
0.0
 40
2.99999994291904
  1
Y
 50
359.999999948034
 41
0.916666599088244
 72
     1
 11
-1056.57685975415
 21
108.442688606825
 31
0.0
 73
     2
  0
LINE
  5
   3B6
  8
0
  6
CONTINUOUS
 62
     7
 10
-807.88525390625
 20
30.8492240905762
 30
0.0
 11
-779.88525390625
 21
30.8492240905762
 31
0.0
  0
LINE
  5
   3B7
  8
0
  6
CONTINUOUS
 62
     7
 10
-807.88525390625
 20
58.8492240905762
 30
0.0
 11
-779.88525390625
 21
58.8492240905762
 31
0.0
  0
LINE
  5
   3B8
  8
0
  6
CONTINUOUS
 62
     7
 10
-807.88525390625
 20
58.8492240905762
 30
0.0
 11
-807.88525390625
 21
30.8492240905762
 31
0.0
  0
LINE
  5
   3B9
  8
0
  6
CONTINUOUS
 62
     7
 10
-779.88525390625
 20
58.8492240905762
 30
0.0
 11
-779.88525390625
 21
30.8492240905762
 31
0.0
  0
CIRCLE
  5
   3BA
  8
0
  6
CONTINUOUS
 62
     7
 10
-803.88525390625
 20
62.5992240905762
 30
0.0
 40
0.875
  0
CIRCLE
  5
   3BB
  8
0
  6
CONTINUOUS
 62
     7
 10
-783.88525390625
 20
62.5992240905762
 30
0.0
 40
0.875
  0
CIRCLE
  5
   3BC
  8
0
  6
CONTINUOUS
 62
     7
 10
-803.88525390625
 20
27.0992240905762
 30
0.0
 40
0.875
  0
CIRCLE
  5
   3BD
  8
0
  6
CONTINUOUS
 62
     7
 10
-783.88525390625
 20
27.0992240905762
 30
0.0
 40
0.875
  0
LINE
  5
   3BE
  8
0
  6
DASHDOT
 62
     7
 10
-803.88525390625
 20
64.2242240905762
 30
0.0
 11
-803.88525390625
 21
60.9742240905762
 31
0.0
  0
LINE
  5
   3BF
  8
0
  6
DASHDOT
 62
     7
 10
-805.51025390625
 20
62.5992240905762
 30
0.0
 11
-802.26025390625
 21
62.5992240905762
 31
0.0
  0
LINE
  5
   3C0
  8
0
  6
DASHDOT
 62
     7
 10
-783.88525390625
 20
64.2242240905762
 30
0.0
 11
-783.88525390625
 21
60.9742240905762
 31
0.0
  0
LINE
  5
   3C1
  8
0
  6
DASHDOT
 62
     7
 10
-785.51025390625
 20
62.5992240905762
 30
0.0
 11
-782.26025390625
 21
62.5992240905762
 31
0.0
  0
LINE
  5
   3C2
  8
0
  6
DASHDOT
 62
     7
 10
-783.88525390625
 20
28.7242240905762
 30
0.0
 11
-783.88525390625
 21
25.4742240905762
 31
0.0
  0
LINE
  5
   3C3
  8
0
  6
DASHDOT
 62
     7
 10
-785.51025390625
 20
27.0992240905762
 30
0.0
 11
-782.26025390625
 21
27.0992240905762
 31
0.0
  0
LINE
  5
   3C4
  8
0
  6
DASHDOT
 62
     7
 10
-803.88525390625
 20
28.7242240905762
 30
0.0
 11
-803.88525390625
 21
25.4742240905762
 31
0.0
  0
LINE
  5
   3C5
  8
0
  6
DASHDOT
 62
     7
 10
-805.51025390625
 20
27.0992240905762
 30
0.0
 11
-802.26025390625
 21
27.0992240905762
 31
0.0
  0
LINE
  5
   3C6
  8
0
  6
DASHDOT
 62
     7
 10
-793.88525390625
 20
72.2193363759132
 30
0.0
 11
-793.88525390625
 21
15.7259732457552
 31
0.0
  0
LINE
  5
   3C7
  8
0
  6
CONTINUOUS
 62
     7
 10
-810.705830449916
 20
65.2504097457822
 30
0.0
 11
-776.751270226608
 21
65.2504097457822
 31
0.0
  0
LINE
  5
   3C8
  8
0
  6
CONTINUOUS
 62
     7
 10
-810.705830449916
 20
23.6853446448369
 30
0.0
 11
-776.751270226608
 21
23.6853446448369
 31
0.0
  0
LINE
  5
   3C9
  8
0
  6
CONTINUOUS
 62
     7
 10
-776.751270226608
 20
65.2504097457822
 30
0.0
 11
-776.751270226608
 21
23.6853446448369
 31
0.0
  0
LINE
  5
   3CA
  8
0
  6
CONTINUOUS
 62
     7
 10
-810.705830449916
 20
65.2504097457822
 30
0.0
 11
-810.705830449916
 21
23.6853446448369
 31
0.0
  0
LINE
  5
   3CB
  8
0
  6
DASHDOT
 62
     7
 10
-815.062589325266
 20
44.8492240905762
 30
0.0
 11
-770.08445930164
 21
44.8492240905762
 31
0.0
  0
TEXT
  5
   3CC
  8
0
  6
CONTINUOUS
 62
     1
 10
-909.013517707322
 20
-152.898639695301
 30
0.0
 40
2.00000008940697
  1
M 3076 95-01-16
 50
359.999999844103
 41
0.749999861419206
 72
     1
 11
-897.913519263268
 21
-151.898639680744
 31
0.0
 73
     2
  0
TEXT
  5
   3CD
  8
0
  6
CONTINUOUS
 62
     1
 10
-922.747116079658
 20
-138.469394588771
 30
0.0
 40
2.00000008940697
  1
94-05-03 BARCELLA
 50
359.999999844103
 41
0.749999861419206
 72
     2
 11
-897.547119617194
 21
-138.469394657212
 31
0.0
  0
TEXT
  5
   3CE
  8
0
  6
CONTINUOUS
 62
     7
 10
-813.120013174193
 20
35.083083455667
 30
0.0
 40
3.00000002980232
  1
=     =
 50
449.999999844103
 41
0.916666604744064
 72
     2
 11
-813.120013123429
 21
53.7830823738427
 31
0.0
  0
TEXT
  5
   3CF
  8
0
  6
CONTINUOUS
 62
     7
 10
-821.637465414183
 20
34.3359387565703
 30
0.0
 40
3.00000002980232
  1
=     =
 50
449.999999844103
 41
0.916666604744064
 72
     2
 11
-821.637465363419
 21
53.035937674746
 31
0.0
  0
INSERT
  5
   3D0
  8
0
  6
CONTINUOUS
 62
     7
  2
*UDIM547
 10
0.0
 20
0.0
 30
0.0
  0
TEXT
  5
   3D1
  8
0
  6
CONTINUOUS
 62
     7
 10
-800.785795899334
 20
78.0735699568533
 30
0.0
 40
3.00000002980232
  1
=   =
 50
359.999999844103
 41
0.916666604744064
 72
     2
 11
-787.585796664261
 21
78.0735699210036
 31
0.0
  0
TEXT
  5
   3D2
  8
0
  6
CONTINUOUS
 62
     7
 10
-800.844338150922
 20
71.5168282423757
 30
0.0
 40
3.00000002980232
  1
=   =
 50
359.999999844103
 41
0.916666604744064
 72
     2
 11
-787.644338915848
 21
71.516828206526
 31
0.0
  0
INSERT
  5
   3D3
  8
0
  6
CONTINUOUS
 62
     7
  2
*UDIM548
 10
0.0
 20
0.0
 30
0.0
  0
INSERT
  5
   3D4
  8
0
  6
CONTINUOUS
 62
     7
  2
*UDIM549
 10
0.0
 20
0.0
 30
0.0
  0
INSERT
  5
   3D5
  8
0
  6
CONTINUOUS
 62
     7
  2
*UDIM550
 10
0.0
 20
0.0
 30
0.0
  0
INSERT
  5
   3D6
  8
0
  6
CONTINUOUS
 62
     7
  2
*UDIM551
 10
0.0
 20
0.0
 30
0.0
  0
TEXT
  5
   3D7
  8
0
  6
CONTINUOUS
 62
     7
 10
-794.395705590748
 20
11.5183982157758
 30
0.0
 40
3.00000002980232
  1
Y
 50
359.999999844103
 41
0.916666604744064
 72
     2
 11
-792.195705721878
 21
11.5183982098008
 31
0.0
  0
TEXT
  5
   3D8
  8
0
  6
CONTINUOUS
 62
     7
 10
-794.136856446766
 20
87.6135863566449
 30
0.0
 40
3.00000002980232
  1
Y
 50
359.999999844103
 41
0.916666604744064
 72
     2
 11
-791.936856577896
 21
87.61358635067
 31
0.0
  0
TEXT
  5
   3D9
  8
0
  6
CONTINUOUS
 62
     7
 10
-768.05273045113
 20
44.7696260714582
 30
0.0
 40
3.00000002980232
  1
X
 50
359.999999844103
 41
0.916666604744064
 72
     2
 11
-765.85273058226
 21
44.7696260654832
 31
0.0
  0
TEXT
  5
   3DA
  8
0
  6
CONTINUOUS
 62
     7
 10
-836.05317677071
 20
42.945776155
 30
0.0
 40
3.00000002980232
  1
X
 50
359.999999844103
 41
0.916666604744064
 72
     2
 11
-833.85317690184
 21
42.9457761490251
 31
0.0
  0
TEXT
  5
   3DB
  8
0
  6
CONTINUOUS
 62
     1
 10
-813.979492169082
 20
-163.780124574096
 30
0.0
 40
4.00000017881393
  1
601812/541
 50
359.999999844103
 41
0.937499973922969
 72
     2
 11
-777.22949156931
 21
-163.780124673905
 31
0.0
  0
TEXT
  5
   3DC
  8
0
  6
CONTINUOUS
 62
     1
 10
-802.893798814312
 20
-154.79854199614
 30
0.0
 40
3.00000002980232
  1
 S5
 50
359.999999844103
 41
0.916666604744064
 72
     2
 11
-795.19379926234
 21
-154.798542017053
 31
0.0
  0
TEXT
  5
   3DD
  8
0
  6
CONTINUOUS
 62
     1
 10
-824.428218573074
 20
-136.488269773368
 30
0.0
 40
2.00000008940697
  1
4POLE LOW VOLTAGE M.C.C.B SERIES ISOMAX
 50
359.999999844103
 41
0.749999861419206
 72
     1
 11
-795.328222650296
 21
-135.488269807697
 31
0.0
 73
     2
  0
TEXT
  5
   3DE
  8
0
  6
CONTINUOUS
 62
     1
 10
-818.428219377724
 20
-139.488269789664
 30
0.0
 40
2.00000008940697
  1
PLUG-IN VERSION CABLE TERMINALS
 50
359.999999844103
 41
0.749999861419206
 72
     1
 11
-795.328222614521
 21
-138.488269807697
 31
0.0
 73
     2
  0
TEXT
  5
   3DF
  8
0
  6
CONTINUOUS
 62
     1
 10
-821.225826940427
 20
-144.558536515333
 30
0.0
 40
2.00000008940697
  1
INTERR.AUTOMATICO SERIE ISOMAX
 50
359.999999844103
 41
0.749999861419206
 72
     1
 11
-798.875830072171
 21
-143.55853653133
 31
0.0
 73
     2
  0
TEXT
  5
   3E0
  8
0
  6
CONTINUOUS
 62
     1
 10
-833.975825118748
 20
-147.558536480706
 30
0.0
 40
2.00000008940697
  1
TETRAP.ESECUZIONE RIMOVIBILE TERMINALI PER CAVI
 50
359.999999844103
 41
0.749999861419206
 72
     1
 11
-798.875830036396
 21
-146.55853653133
 31
0.0
 73
     2
  0
LINE
  5
   3E1
  8
0
  6
CONTINUOUS
 62
     7
 10
-941.059587099552
 20
14.1418166998183
 30
0.0
 11
-941.059587099552
 21
14.3768023559605
 31
0.0
  0
LINE
  5
   3E2
  8
0
  6
CONTINUOUS
 62
     7
 10
-941.059587099552
 20
21.4268023380791
 30
0.0
 11
-941.059587099552
 21
30.8267879709756
 31
0.0
  0
LINE
  5
   3E3
  8
0
  6
CONTINUOUS
 62
     7
 10
-939.884572759271
 20
14.3768023559605
 30
0.0
 11
-939.884572759271
 21
21.4268023380791
 31
0.0
  0
LINE
  5
   3E4
  8
0
  6
CONTINUOUS
 62
     7
 10
-939.884572759271
 20
14.3768023559605
 30
0.0
 11
-941.059587099552
 21
14.3768023559605
 31
0.0
  0
LINE
  5
   3E5
  8
0
  6
CONTINUOUS
 62
     7
 10
-939.884572759271
 20
21.4268023380791
 30
0.0
 11
-941.059587099552
 21
21.4268023380791
 31
0.0
  0
LINE
  5
   3E6
  8
0
  6
CONTINUOUS
 62
     7
 10
-939.884572759271
 20
30.8267879709756
 30
0.0
 11
-939.884572759271
 21
37.8767879530942
 31
0.0
  0
LINE
  5
   3E7
  8
0
  6
CONTINUOUS
 62
     7
 10
-939.884572759271
 20
30.8267879709756
 30
0.0
 11
-941.059587099552
 21
30.8267879709756
 31
0.0
  0
LINE
  5
   3E8
  8
0
  6
CONTINUOUS
 62
     7
 10
-939.884572759271
 20
37.8767879530942
 30
0.0
 11
-941.059587099552
 21
37.8767879530942
 31
0.0
  0
LINE
  5
   3E9
  8
0
  6
CONTINUOUS
 62
     7
 10
-908.864594352841
 20
14.1418023565566
 30
0.0
 11
-908.864594352841
 21
39.9917879477298
 31
0.0
  0
LINE
  5
   3EA
  8
0
  6
CONTINUOUS
 62
     2
 10
-941.059583893472
 20
39.7567879483258
 30
0.0
 11
-941.059576936281
 21
49.4456612147669
 31
0.0
  0
LINE
  5
   3EB
  8
0
  6
CONTINUOUS
 62
     7
 10
-907.219587185383
 20
48.2167879268682
 30
0.0
 11
-908.86458718121
 21
48.2167879268682
 31
0.0
  0
LINE
  5
   3EC
  8
0
  6
CONTINUOUS
 62
     7
 10
-908.864598450942
 20
39.9917838496994
 30
0.0
 11
-908.864591279312
 21
48.2167838288378
 31
0.0
  0
LINE
  5
   3ED
  8
0
  6
CONTINUOUS
 62
     7
 10
-939.179587104321
 20
40.9317879453456
 30
0.0
 11
-941.059587099552
 21
40.9317879453456
 31
0.0
  0
LINE
  5
   3EE
  8
0
  6
CONTINUOUS
 62
     7
 10
-939.179585909221
 20
40.9317819692678
 30
0.0
 11
-939.179583508116
 21
41.8759351654217
 31
0.0
  0
LINE
  5
   3EF
  8
0
  6
CONTINUOUS
 62
     7
 10
-908.864594352841
 20
9.67680953951231
 30
0.0
 11
-908.864594352841
 21
14.1418166998183
 31
0.0
  0
LINE
  5
   3F0
  8
0
  6
CONTINUOUS
 62
     7
 10
-941.059582305871
 20
-18.9931784318484
 30
0.0
 11
-941.05956796261
 21
-18.8548879303662
 31
0.0
  0
LINE
  5
   3F1
  8
0
  6
CONTINUOUS
 62
     7
 10
-941.059568883668
 20
-11.611470630084
 30
0.0
 11
-941.059583226929
 21
14.1418126908267
 31
0.0
  0
LINE
  5
   3F2
  8
0
  6
CONTINUOUS
 62
     7
 10
-907.689587184191
 20
-12.6481832322324
 30
0.0
 11
-939.649602880717
 21
-12.6481832322324
 31
0.0
  0
LINE
  5
   3F3
  8
0
  6
CONTINUOUS
 62
     7
 10
-907.689587184191
 20
-17.8181832191194
 30
0.0
 11
-939.649602880717
 21
-17.8181832191194
 31
0.0
  0
LINE
  5
   3F4
  8
0
  6
CONTINUOUS
 62
     7
 10
-937.190519381128
 20
-12.6481784526978
 30
0.0
 11
-941.059571024499
 21
-11.6114658850429
 31
0.0
  0
LINE
  5
   3F5
  8
0
  6
CONTINUOUS
 62
     7
 10
-941.059568855928
 20
-18.8548919487241
 30
0.0
 11
-937.19051712347
 21
-17.8181827168212
 31
0.0
  0
LINE
  5
   3F6
  8
0
  6
CONTINUOUS
 62
     7
 10
-907.219594357014
 20
-11.2381832358087
 30
0.0
 11
-910.979594347477
 21
-11.2381832358087
 31
0.0
  0
LINE
  5
   3F7
  8
0
  6
CONTINUOUS
 62
     7
 10
-910.979594347477
 20
-11.2381832358087
 30
0.0
 11
-910.979594347477
 21
8.73680954189649
 31
0.0
  0
LINE
  5
   3F8
  8
0
  6
CONTINUOUS
 62
     7
 10
-940.589572757483
 20
-14.998183226272
 30
0.0
 11
-940.589572757483
 21
-11.7374076302945
 31
0.0
  0
LINE
  5
   3F9
  8
0
  6
CONTINUOUS
 62
     7
 10
-940.589579377433
 20
-18.7289541486187
 30
0.0
 11
-940.589572205808
 21
-18.2881785454886
 31
0.0
  0
LINE
  5
   3FA
  8
0
  6
CONTINUOUS
 62
     2
 10
-941.05957275629
 20
-11.2381832358087
 30
0.0
 11
-941.999572753906
 21
-11.2381832358087
 31
0.0
  0
LINE
  5
   3FB
  8
0
  6
CONTINUOUS
 62
     2
 10
-941.05957275629
 20
-8.65318324236523
 30
0.0
 11
-941.999572753906
 21
-8.65318324236523
 31
0.0
  0
LINE
  5
   3FC
  8
0
  6
CONTINUOUS
 62
     7
 10
-907.219604513712
 20
-18.2881648756165
 30
0.0
 11
-907.689597325569
 21
-17.8181720637594
 31
0.0
  0
LINE
  5
   3FD
  8
0
  6
CONTINUOUS
 62
     7
 10
-907.689593123357
 20
-12.6481825733128
 30
0.0
 11
-907.219593140637
 21
-12.1781825905924
 31
0.0
  0
LINE
  5
   3FE
  8
0
  6
CONTINUOUS
 62
     7
 10
-908.864594352841
 20
8.73680954189649
 30
0.0
 11
-908.864594352841
 21
9.67680953951231
 31
0.0
  0
LINE
  5
   3FF
  8
0
  6
CONTINUOUS
 62
     2
 10
-940.119572758675
 20
-27.4531688514193
 30
0.0
 11
-941.999572753906
 21
-27.4531688514193
 31
0.0
  0
LINE
  5
   400
  8
0
  6
CONTINUOUS
 62
     7
 10
-941.059587099552
 20
-20.8731832113708
 30
0.0
 11
-941.059587099552
 21
-18.9931832161392
 31
0.0
  0
LINE
  5
   401
  8
0
  6
CONTINUOUS
 62
     7
 10
-907.219594357014
 20
-25.1031688573803
 30
0.0
 11
-911.919587173462
 21
-25.1031688573803
 31
0.0
  0
LINE
  5
   402
  8
0
  6
CONTINUOUS
 62
     7
 10
-911.919587173462
 20
-27.4531688514198
 30
0.0
 11
-911.919587173462
 21
-25.1031688573803
 31
0.0
  0
LINE
  5
   403
  8
0
  6
CONTINUOUS
 62
     7
 10
-941.059587099552
 20
-26.2781599615946
 30
0.0
 11
-941.059587099552
 21
-20.8731832113708
 31
0.0
  0
LINE
  5
   404
  8
0
  6
CONTINUOUS
 62
     2
 10
-941.059587099552
 20
39.7567879483258
 30
0.0
 11
-941.294572755695
 21
39.7567879483258
 31
0.0
  0
LINE
  5
   405
  8
0
  6
CONTINUOUS
 62
     7
 10
-941.059579927921
 20
6.62181671889175
 30
0.0
 11
-941.294572755695
 21
6.62181671889175
 31
0.0
  0
LINE
  5
   406
  8
0
  6
CONTINUOUS
 62
     7
 10
-941.05957275629
 20
-8.41818145005357
 30
0.0
 11
-941.294572755695
 21
-8.41818145005357
 31
0.0
  0
LINE
  5
   407
  8
0
  6
CONTINUOUS
 62
     7
 10
-940.589572757483
 20
-11.9431827857937
 30
0.0
 11
-941.294572755695
 21
-11.9431827857937
 31
0.0
  0
LINE
  5
   408
  8
0
  6
CONTINUOUS
 62
     7
 10
-941.059587099552
 20
-19.4631760433163
 30
0.0
 11
-941.294572755695
 21
-19.4631760433163
 31
0.0
  0
LINE
  5
   409
  8
0
  6
CONTINUOUS
 62
     2
 10
-941.294572755695
 20
-25.8551643665441
 30
0.0
 11
-941.294572755695
 21
-11.2381904074396
 31
0.0
  0
LINE
  5
   40A
  8
0
  6
CONTINUOUS
 62
     2
 10
-941.294572755695
 20
-8.65319041399607
 30
0.0
 11
-941.294572755695
 21
39.756780776695
 31
0.0
  0
LINE
  5
   40B
  8
0
  6
CONTINUOUS
 62
     7
 10
-940.589572757483
 20
30.8268094858681
 30
0.0
 11
-940.589572757483
 21
37.8767879530942
 31
0.0
  0
LINE
  5
   40C
  8
0
  6
CONTINUOUS
 62
     7
 10
-940.589572757483
 20
14.3768310424839
 30
0.0
 11
-940.589572757483
 21
21.4268238529717
 31
0.0
  0
LINE
  5
   40D
  8
0
  6
CONTINUOUS
 62
     7
 10
-940.589572757483
 20
-18.2881473597731
 30
0.0
 11
-940.589572757483
 21
-14.9981473681178
 31
0.0
  0
LINE
  5
   40E
  8
0
  6
CONTINUOUS
 62
     2
 10
-941.106576426416
 20
-26.0431606958222
 30
0.0
 11
-941.29457355512
 21
-25.8551635671183
 31
0.0
  0
LINE
  5
   40F
  8
0
  6
CONTINUOUS
 62
     2
 10
-941.05957275629
 20
47.2767879292523
 30
0.0
 11
-941.999572753906
 21
47.2767879292523
 31
0.0
  0
LINE
  5
   410
  8
0
  6
CONTINUOUS
 62
     2
 10
-941.05957275629
 20
52.4467879161393
 30
0.0
 11
-941.999572753906
 21
52.4467879161393
 31
0.0
  0
LINE
  5
   411
  8
0
  6
CONTINUOUS
 62
     2
 10
-941.05957275629
 20
51.183261308016
 30
0.0
 11
-941.999572753906
 21
51.183261308016
 31
0.0
  0
LINE
  5
   412
  8
0
  6
CONTINUOUS
 62
     2
 10
-941.05957275629
 20
49.4456612147669
 30
0.0
 11
-941.999572753906
 21
49.4456612147669
 31
0.0
  0
LINE
  5
   413
  8
0
  6
CONTINUOUS
 62
     7
 10
-908.629601525069
 20
15.551786046395
 30
0.0
 11
-908.629601525069
 21
41.1668074963185
 31
0.0
  0
LINE
  5
   414
  8
0
  6
CONTINUOUS
 62
     7
 10
-907.219587185383
 20
47.9817968202699
 30
0.0
 11
-907.219587185383
 21
48.4518039907086
 31
0.0
  0
LINE
  5
   415
  8
0
  6
CONTINUOUS
 62
     7
 10
-896.644587212205
 20
48.4518039907086
 30
0.0
 11
-896.785588646173
 21
48.4518039907086
 31
0.0
  0
LINE
  5
   416
  8
0
  6
CONTINUOUS
 62
     7
 10
-907.219587185383
 20
47.9818111635315
 30
0.0
 11
-908.629587181807
 21
47.9818111635315
 31
0.0
  0
LINE
  5
   417
  8
0
  6
CONTINUOUS
 62
     7
 10
-908.629587181807
 20
41.1668111808169
 30
0.0
 11
-908.629587181807
 21
47.9818111635315
 31
0.0
  0
LINE
  5
   418
  8
0
  6
CONTINUOUS
 62
     7
 10
-907.219608700276
 20
-24.6331814806593
 30
0.0
 11
-907.219608700276
 21
-21.2131741651149
 31
0.0
  0
LINE
  5
   419
  8
0
  6
CONTINUOUS
 62
     7
 10
-908.629594353437
 20
9.91180408846022
 30
0.0
 11
-908.629594353437
 21
15.5517897308934
 31
0.0
  0
LINE
  5
   41A
  8
0
  6
CONTINUOUS
 62
     7
 10
-908.629594353437
 20
8.73678974817877
 30
0.0
 11
-909.099594352245
 21
8.73678974817877
 31
0.0
  0
LINE
  5
   41B
  8
0
  6
CONTINUOUS
 62
     7
 10
-896.785603344773
 20
-26.0431671338113
 30
0.0
 11
-907.219609055613
 21
-26.0431671338113
 31
0.0
  0
LINE
  5
   41C
  8
0
  6
CONTINUOUS
 62
     7
 10
-907.219608700276
 20
-26.043181477083
 30
0.0
 11
-907.219608700276
 21
-24.6331814806593
 31
0.0
  0
LINE
  5
   41D
  8
0
  6
CONTINUOUS
 62
     7
 10
-907.219601528645
 20
-21.2131741651149
 30
0.0
 11
-907.219601528645
 21
-17.9356771688134
 31
0.0
  0
LINE
  5
   41E
  8
0
  6
CONTINUOUS
 62
     7
 10
-896.644608727098
 20
-27.4531886451375
 30
0.0
 11
-896.644608727098
 21
-26.0431886487138
 31
0.0
  0
LINE
  5
   41F
  8
0
  6
CONTINUOUS
 62
     7
 10
-896.644608727098
 20
-26.0431886487138
 30
0.0
 11
-896.785602961421
 21
-26.0431886487138
 31
0.0
  0
LINE
  5
   420
  8
0
  6
CONTINUOUS
 62
     7
 10
-909.099594352245
 20
8.73678974817877
 30
0.0
 11
-910.979594347477
 21
8.73678974817877
 31
0.0
  0
LINE
  5
   421
  8
0
  6
CONTINUOUS
 62
     7
 10
-908.629594353437
 20
8.73678974817877
 30
0.0
 11
-908.629594353437
 21
9.91180408846022
 31
0.0
  0
LINE
  5
   422
  8
0
  6
CONTINUOUS
 62
     7
 10
-896.785604943862
 20
-17.9356671543768
 30
0.0
 11
-907.219603483071
 21
-17.9356671543768
 31
0.0
  0
LINE
  5
   423
  8
0
  6
CONTINUOUS
 62
     7
 10
-896.785608400459
 20
-12.5306671680872
 30
0.0
 11
-907.219606939668
 21
-12.5306671680872
 31
0.0
  0
LINE
  5
   424
  8
0
  6
CONTINUOUS
 62
     7
 10
-906.609059569951
 20
-24.2806734367235
 30
0.0
 11
-906.514609206571
 21
-23.9281734424841
 31
0.0
  0
LINE
  5
   425
  8
0
  6
CONTINUOUS
 62
     7
 10
-906.867104310485
 20
-24.5387264968349
 30
0.0
 11
-906.60906187823
 21
-24.2806768865334
 31
0.0
  0
LINE
  5
   426
  8
0
  6
CONTINUOUS
 62
     7
 10
-907.219616824412
 20
-24.6331704658897
 30
0.0
 11
-906.867109667889
 21
-24.5387200953208
 31
0.0
  0
LINE
  5
   427
  8
0
  6
CONTINUOUS
 62
     7
 10
-906.867105740679
 20
-19.0876308502127
 30
0.0
 11
-907.2196057372
 21
-18.9931733087166
 31
0.0
  0
LINE
  5
   428
  8
0
  6
CONTINUOUS
 62
     7
 10
-906.609063906412
 20
-19.3456772325446
 30
0.0
 11
-906.867106342258
 21
-19.0876347966983
 31
0.0
  0
LINE
  5
   429
  8
0
  6
CONTINUOUS
 62
     7
 10
-906.514614085097
 20
-19.6981765781944
 30
0.0
 11
-906.609071626593
 21
-19.3456765816731
 31
0.0
  0
LINE
  5
   42A
  8
0
  6
CONTINUOUS
 62
     7
 10
-906.514612686287
 20
-23.9281786912441
 30
0.0
 11
-906.514605514656
 21
-19.6981787019729
 31
0.0
  0
LINE
  5
   42B
  8
0
  6
CONTINUOUS
 62
     7
 10
-896.785602989436
 20
-26.0431886487138
 30
0.0
 11
-896.785602989436
 21
48.4517981096995
 31
0.0
  0
LINE
  5
   42C
  8
0
  6
CONTINUOUS
 62
     7
 10
-896.785581474543
 20
58.6508097021449
 30
0.0
 11
-941.059570326433
 21
58.6508097021449
 31
0.0
  0
LINE
  5
   42D
  8
0
  6
CONTINUOUS
 62
     7
 10
-896.785631675965
 20
48.4518007519546
 30
0.0
 11
-896.785631675965
 21
58.6508064633908
 31
0.0
  0
LINE
  5
   42E
  8
0
  6
CONTINUOUS
 62
     7
 10
-907.219587185383
 20
48.4518111623394
 30
0.0
 11
-907.219587185383
 21
58.6508097021449
 31
0.0
  0
LINE
  5
   42F
  8
0
  6
CONTINUOUS
 62
     7
 10
-889.124580059648
 20
-23.575659968449
 30
0.0
 11
-889.124580059648
 21
-14.645683227166
 31
0.0
  0
LINE
  5
   430
  8
0
  6
CONTINUOUS
 62
     7
 10
-889.124580059648
 20
24.7168255658018
 30
0.0
 11
-889.124580059648
 21
24.8343255655038
 31
0.0
  0
LINE
  5
   431
  8
0
  6
CONTINUOUS
 62
     7
 10
-891.709580053091
 20
25.7743255631196
 30
0.0
 11
-893.354580048919
 21
25.7743255631196
 31
0.0
  0
LINE
  5
   432
  8
0
  6
CONTINUOUS
 62
     7
 10
-891.709580053091
 20
-23.575659968449
 30
0.0
 11
-893.354580048919
 21
-23.575659968449
 31
0.0
  0
LINE
  5
   433
  8
0
  6
CONTINUOUS
 62
     7
 10
-896.644580040574
 20
-31.2131599490774
 30
0.0
 11
-896.644580040574
 21
-26.0431886487138
 31
0.0
  0
LINE
  5
   434
  8
0
  6
CONTINUOUS
 62
     7
 10
-894.294580046535
 20
-31.2131599490774
 30
0.0
 11
-894.294580046535
 21
-23.575659968449
 31
0.0
  0
LINE
  5
   435
  8
0
  6
CONTINUOUS
 62
     7
 10
-894.294580046535
 20
25.7743255631196
 30
0.0
 11
-894.294580046535
 21
48.4518255056011
 31
0.0
  0
LINE
  5
   436
  8
0
  6
CONTINUOUS
 62
     7
 10
-894.294580046535
 20
48.4518255056011
 30
0.0
 11
-896.644580040574
 21
48.4518255056011
 31
0.0
  0
LINE
  5
   437
  8
0
  6
CONTINUOUS
 62
     7
 10
-894.294580046535
 20
-31.2131599490774
 30
0.0
 11
-896.644580040574
 21
-31.2131599490774
 31
0.0
  0
LINE
  5
   438
  8
0
  6
CONTINUOUS
 62
     7
 10
-893.354580048919
 20
-23.575659968449
 30
0.0
 11
-893.354580048919
 21
25.7743255631196
 31
0.0
  0
LINE
  5
   439
  8
0
  6
CONTINUOUS
 62
     7
 10
-893.354580048919
 20
-23.575659968449
 30
0.0
 11
-894.294580046535
 21
-23.575659968449
 31
0.0
  0
LINE
  5
   43A
  8
0
  6
CONTINUOUS
 62
     7
 10
-893.354580048919
 20
25.7743255631196
 30
0.0
 11
-894.294580046535
 21
25.7743255631196
 31
0.0
  0
LINE
  5
   43B
  8
0
  6
CONTINUOUS
 62
     7
 10
-896.785613874743
 20
-12.272195900766
 30
0.0
 11
-896.644612447313
 21
-12.2598606972291
 31
0.0
  0
LINE
  5
   43C
  8
0
  6
CONTINUOUS
 62
     7
 10
-896.64458820844
 20
-18.2065218383364
 30
0.0
 11
-896.785589639813
 21
-18.1941794631458
 31
0.0
  0
LINE
  5
   43D
  8
0
  6
CONTINUOUS
 62
     7
 10
-907.219601528645
 20
-12.5306771825212
 30
0.0
 11
-907.219601528645
 21
-11.2381958578956
 31
0.0
  0
LINE
  5
   43E
  8
0
  6
CONTINUOUS
 62
   218
 10
-896.78558192277
 20
-58.0971602394715
 30
0.0
 11
-941.059573204518
 21
-58.0971602394715
 31
0.0
  0
LINE
  5
   43F
  8
0
  6
CONTINUOUS
 62
     2
 10
-940.119572758675
 20
-26.2781599615946
 30
0.0
 11
-941.999572753906
 21
-26.2781599615946
 31
0.0
  0
LINE
  5
   440
  8
0
  6
CONTINUOUS
 62
     7
 10
-896.785574302912
 20
-26.2781599615946
 30
0.0
 11
-904.869580019712
 21
-26.2781599615946
 31
0.0
  0
LINE
  5
   441
  8
0
  6
CONTINUOUS
 62
     2
 10
-940.119572758675
 20
-27.4531599586144
 30
0.0
 11
-940.119572758675
 21
-26.2781599615946
 31
0.0
  0
LINE
  5
   442
  8
0
  6
CONTINUOUS
 62
   218
 10
-896.785578157867
 20
-46.2531670829824
 30
0.0
 11
-896.644580040609
 21
-46.2531654280167
 31
0.0
  0
LINE
  5
   443
  8
0
  6
CONTINUOUS
 62
   218
 10
-894.764580045343
 20
-48.1331670777932
 30
0.0
 11
-896.785574302912
 21
-48.1331670777932
 31
0.0
  0
LINE
  5
   444
  8
0
  6
CONTINUOUS
 62
   218
 10
-896.785574302912
 20
-58.0971584465638
 30
0.0
 11
-896.785574302912
 21
-46.2531599109307
 31
0.0
  0
LINE
  5
   445
  8
0
  6
CONTINUOUS
 62
   218
 10
-896.785574302912
 20
-46.2531599109307
 30
0.0
 11
-896.785574302912
 21
-26.2781599615946
 31
0.0
  0
LINE
  5
   446
  8
0
  6
CONTINUOUS
 62
     7
 10
-896.644580040574
 20
-31.6831599478856
 30
0.0
 11
-896.785574302912
 21
-31.6831599478856
 31
0.0
  0
LINE
  5
   447
  8
0
  6
CONTINUOUS
 62
   218
 10
-941.999572753753
 20
-43.433167089249
 30
0.0
 11
-941.059573204385
 21
-43.4331599176182
 31
0.0
  0
LINE
  5
   448
  8
0
  6
CONTINUOUS
 62
   218
 10
-941.059573204518
 20
-60.5881598745716
 30
0.0
 11
-941.059573204518
 21
-43.4331670897139
 31
0.0
  0
LINE
  5
   449
  8
0
  6
CONTINUOUS
 62
   218
 10
-941.05957275629
 20
-48.4856670768991
 30
0.0
 11
-941.999572753906
 21
-48.4856670768991
 31
0.0
  0
LINE
  5
   44A
  8
0
  6
CONTINUOUS
 62
     7
 10
-907.219585391463
 20
-26.2781599594747
 30
0.0
 11
-907.219578219832
 21
-25.3381599618374
 31
0.0
  0
LINE
  5
   44B
  8
0
  6
CONTINUOUS
 62
     7
 10
-907.219572842121
 20
-25.3381599639788
 30
0.0
 11
-911.9195728302
 21
-25.3381599639788
 31
0.0
  0
LINE
  5
   44C
  8
0
  6
CONTINUOUS
 62
     7
 10
-904.869580019712
 20
-26.2781599615946
 30
0.0
 11
-907.219580013752
 21
-26.2781599615946
 31
0.0
  0
LINE
  5
   44D
  8
0
  6
CONTINUOUS
 62
   218
 10
-941.05957275629
 20
-52.5829349707885
 30
0.0
 11
-941.999572753906
 21
-52.5829349707885
 31
0.0
  0
LINE
  5
   44E
  8
0
  6
CONTINUOUS
 62
   218
 10
-941.05957275629
 20
-51.4300303201635
 30
0.0
 11
-941.999572753906
 21
-51.4300303201635
 31
0.0
  0
LINE
  5
   44F
  8
0
  6
CONTINUOUS
 62
   218
 10
-941.05957275629
 20
-48.5457223135632
 30
0.0
 11
-941.999572753906
 21
-48.5457223135632
 31
0.0
  0
LINE
  5
   450
  8
0
  6
CONTINUOUS
 62
     7
 10
-894.294580046535
 20
-31.4481599484814
 30
0.0
 11
-896.644580040574
 21
-31.4481599484814
 31
0.0
  0
LINE
  5
   451
  8
0
  6
CONTINUOUS
 62
     7
 10
-894.294580046535
 20
-47.8981599067581
 30
0.0
 11
-896.644580040574
 21
-47.8981599067581
 31
0.0
  0
LINE
  5
   452
  8
0
  6
CONTINUOUS
 62
     7
 10
-894.294580046535
 20
-47.8981599067581
 30
0.0
 11
-894.294580046535
 21
-31.4481599484814
 31
0.0
  0
LINE
  5
   453
  8
0
  6
CONTINUOUS
 62
     7
 10
-895.23458004415
 20
-47.8981599067581
 30
0.0
 11
-895.23458004415
 21
-31.4481599484814
 31
0.0
  0
LINE
  5
   454
  8
0
  6
CONTINUOUS
 62
     7
 10
-896.644580040574
 20
-47.8981599067581
 30
0.0
 11
-896.644580040574
 21
-31.4481599484814
 31
0.0
  0
ARC
  5
   455
  8
0
  6
CONTINUOUS
 62
     7
 10
-879.407305282153
 20
-9.26128429333505
 30
0.0
 40
0.469999902813138
 50
348.623573369035
 51
436.688788706936
  0
ARC
  5
   456
  8
0
  6
CONTINUOUS
 62
     7
 10
-879.96977514865
 20
-12.0567587312036
 30
0.0
 40
0.470000349073874
 50
260.593992196011
 51
348.623573369035
  0
LINE
  5
   457
  8
0
  6
DASHDOT
 62
     7
 10
-872.451030513569
 20
-12.1323550856764
 30
0.0
 11
-896.005873094212
 21
-7.39295013987291
 31
0.0
  0
LINE
  5
   458
  8
0
  6
CONTINUOUS
 62
     7
 10
-879.299092508422
 20
-8.80391181297836
 30
0.0
 11
-889.124580059648
 21
-6.47923486618106
 31
0.0
  0
LINE
  5
   459
  8
0
  6
CONTINUOUS
 62
     7
 10
-879.509009291631
 20
-12.1494681591752
 30
0.0
 11
-878.94653957957
 21
-9.35399369023308
 31
0.0
  0
LINE
  5
   45A
  8
0
  6
CONTINUOUS
 62
     7
 10
-880.046587002733
 20
-12.5204397895267
 30
0.0
 11
-889.124580059648
 21
-11.0166098065337
 31
0.0
  0
LINE
  5
   45B
  8
0
  6
CONTINUOUS
 62
     7
 10
-939.649602880717
 20
-17.8181832191194
 30
0.0
 11
-939.649602880717
 21
-12.6481832322324
 31
0.0
  0
LINE
  5
   45C
  8
0
  6
CONTINUOUS
 62
     2
 10
-941.05957568858
 20
51.183261308016
 30
0.0
 11
-941.059568537746
 21
61.1418094089781
 31
0.0
  0
ARC
  5
   45D
  8
0
  6
CONTINUOUS
 62
     7
 10
-914.269579995871
 20
-3.71816001881488
 30
0.0
 40
35.7407187360592
 50
333.082565820193
 51
379.93594827737
  0
LINE
  5
   45E
  8
0
  6
CONTINUOUS
 62
     7
 10
-878.528861259811
 20
-3.71816001881489
 30
0.0
 11
-878.528861259811
 21
16.6560010740151
 31
0.0
  0
LINE
  5
   45F
  8
0
  6
CONTINUOUS
 62
     7
 10
-911.919587173462
 20
-27.4531688514193
 30
0.0
 11
-940.119572758675
 21
-27.4531688514193
 31
0.0
  0
LINE
  5
   460
  8
0
  6
CONTINUOUS
 62
     7
 10
-889.124580059648
 20
7.67931671620954
 30
0.0
 11
-889.124580059648
 21
25.7743255631196
 31
0.0
  0
LINE
  5
   461
  8
0
  6
CONTINUOUS
 62
     7
 10
-889.124580059648
 20
1.56931673170675
 30
0.0
 11
-889.124580059648
 21
7.20931671740163
 31
0.0
  0
LINE
  5
   462
  8
0
  6
CONTINUOUS
 62
     7
 10
-889.124580059648
 20
-8.06567794123175
 30
0.0
 11
-889.124580059648
 21
1.09931673289884
 31
0.0
  0
LINE
  5
   463
  8
0
  6
CONTINUOUS
 62
     7
 10
-889.124580059648
 20
-14.1756832283581
 30
0.0
 11
-889.124580059648
 21
-8.53567794003962
 31
0.0
  0
LINE
  5
   464
  8
0
  6
CONTINUOUS
 62
     7
 10
-941.999572753906
 20
47.2767879292523
 30
0.0
 11
-941.999572753906
 21
52.4467879161393
 31
0.0
  0
LINE
  5
   465
  8
0
  6
CONTINUOUS
 62
     7
 10
-941.999572753906
 20
-11.2381832358087
 30
0.0
 11
-941.999572753906
 21
-8.65318324236524
 31
0.0
  0
LINE
  5
   466
  8
0
  6
CONTINUOUS
 62
     7
 10
-941.999572753689
 20
-43.433167089249
 30
0.0
 11
-941.999572753689
 21
-26.2781599615946
 31
0.0
  0
LINE
  5
   467
  8
0
  6
CONTINUOUS
 62
     7
 10
-941.999572753906
 20
-52.5829349707885
 30
0.0
 11
-941.999572753906
 21
-48.5457223135632
 31
0.0
  0
LINE
  5
   468
  8
0
  6
CONTINUOUS
 62
     3
 10
-964.324572697282
 20
41.2550348622503
 30
0.0
 11
-965.029572695494
 21
41.2550348622503
 31
0.0
  0
LINE
  5
   469
  8
0
  6
CONTINUOUS
 62
     3
 10
-964.324572697282
 20
-40.5249649303255
 30
0.0
 11
-965.029572695494
 21
-40.5249649303255
 31
0.0
  0
LINE
  5
   46A
  8
0
  6
CONTINUOUS
 62
     3
 10
-964.324572697282
 20
-40.5249649303255
 30
0.0
 11
-964.324572697282
 21
41.2550348622503
 31
0.0
  0
LINE
  5
   46B
  8
0
  6
CONTINUOUS
 62
     3
 10
-965.029572695494
 20
-40.5249649303255
 30
0.0
 11
-965.029572695494
 21
41.2550348622503
 31
0.0
  0
LINE
  5
   46C
  8
0
  6
CONTINUOUS
 62
     2
 10
-941.999572753906
 20
58.6508079809701
 30
0.0
 11
-941.999572753906
 21
59.9668094119584
 31
0.0
  0
LINE
  5
   46D
  8
0
  6
CONTINUOUS
 62
     2
 10
-941.999572753906
 20
-50.9531401052918
 30
0.0
 11
-941.999572753906
 21
51.5068166050469
 31
0.0
  0
LINE
  5
   46E
  8
0
  6
CONTINUOUS
 62
     2
 10
-941.999572753906
 20
-59.4131974568809
 30
0.0
 11
-941.999572753906
 21
-58.0971243095842
 31
0.0
  0
LINE
  5
   46F
  8
0
  6
CONTINUOUS
 62
     2
 10
-962.444565530419
 20
-16.6432047369922
 30
0.0
 11
-962.444565530419
 21
-15.2331903973068
 31
0.0
  0
LINE
  5
   470
  8
0
  6
CONTINUOUS
 62
     2
 10
-959.389565538168
 20
-59.4131974568809
 30
0.0
 11
-959.389565538168
 21
-58.4731831160034
 31
0.0
  0
LINE
  5
   471
  8
0
  6
CONTINUOUS
 62
     7
 10
-959.389565538168
 20
-50.9531974783386
 30
0.0
 11
-959.389565538168
 21
-43.4331836023773
 31
0.0
  0
LINE
  5
   472
  8
0
  6
CONTINUOUS
 62
     2
 10
-959.389565538168
 20
17.1968095204388
 30
0.0
 11
-962.444565530419
 21
17.1968095204388
 31
0.0
  0
LINE
  5
   473
  8
0
  6
CONTINUOUS
 62
     2
 10
-959.389565538168
 20
17.1968095204388
 30
0.0
 11
-959.389565538168
 21
28.4768094918286
 31
0.0
  0
LINE
  5
   474
  8
0
  6
CONTINUOUS
 62
     2
 10
-965.264565523267
 20
28.4768094918286
 30
0.0
 11
-965.264565523267
 21
35.5268094739472
 31
0.0
  0
LINE
  5
   475
  8
0
  6
CONTINUOUS
 62
     2
 10
-965.264565523267
 20
-34.9731903472389
 30
0.0
 11
-965.264565523267
 21
-27.9231903651203
 31
0.0
  0
LINE
  5
   476
  8
0
  6
CONTINUOUS
 62
     7
 10
-964.559565525055
 20
43.9868094524895
 30
0.0
 11
-964.559565525055
 21
59.0268094143426
 31
0.0
  0
LINE
  5
   477
  8
0
  6
CONTINUOUS
 62
     7
 10
-964.559565525055
 20
-58.4731831160034
 30
0.0
 11
-964.559565525055
 21
-43.4331903257812
 31
0.0
  0
LINE
  5
   478
  8
0
  6
CONTINUOUS
 62
     2
 10
-962.444565530419
 20
-15.2331903973068
 30
0.0
 11
-964.324565525651
 21
-15.2331903973068
 31
0.0
  0
LINE
  5
   479
  8
0
  6
CONTINUOUS
 62
     2
 10
-962.444565530419
 20
-11.9431904056514
 30
0.0
 11
-964.324565525651
 21
-11.9431904056514
 31
0.0
  0
LINE
  5
   47A
  8
0
  6
CONTINUOUS
 62
     2
 10
-959.389565538168
 20
-19.9332047286475
 30
0.0
 11
-962.444565530419
 21
-19.9332047286475
 31
0.0
  0
LINE
  5
   47B
  8
0
  6
CONTINUOUS
 62
     2
 10
-962.444565530419
 20
-19.9332047286475
 30
0.0
 11
-962.444565530419
 21
-16.6432047369922
 31
0.0
  0
LINE
  5
   47C
  8
0
  6
CONTINUOUS
 62
     7
 10
-942.469558372421
 20
-12.6481974067527
 30
0.0
 11
-962.444565493388
 21
-12.6481902351219
 31
0.0
  0
LINE
  5
   47D
  8
0
  6
CONTINUOUS
 62
     7
 10
-942.46956123355
 20
-12.6482095385526
 30
0.0
 11
-941.999575632093
 21
-12.1782023850501
 31
0.0
  0
LINE
  5
   47E
  8
0
  6
CONTINUOUS
 62
     7
 10
-942.469558409453
 20
-17.8181832191194
 30
0.0
 11
-962.444565530419
 21
-17.8181832191194
 31
0.0
  0
LINE
  5
   47F
  8
0
  6
CONTINUOUS
 62
     7
 10
-941.999572145636
 20
-18.2881946480112
 30
0.0
 11
-942.469557747093
 21
-17.8181874945087
 31
0.0
  0
LINE
  5
   480
  8
0
  6
CONTINUOUS
 62
     7
 10
-941.999572753904
 20
58.6508151526009
 30
0.0
 11
-959.389565538166
 21
58.6508151526009
 31
0.0
  0
LINE
  5
   481
  8
0
  6
CONTINUOUS
 62
     2
 10
-941.999572753918
 20
51.506809433416
 30
0.0
 11
-941.999572753918
 21
58.6508151526009
 31
0.0
  0
LINE
  5
   482
  8
0
  6
CONTINUOUS
 62
     7
 10
-959.389565538168
 20
51.506809433416
 30
0.0
 11
-959.389565538168
 21
58.6508151526009
 31
0.0
  0
LINE
  5
   483
  8
0
  6
CONTINUOUS
 62
     7
 10
-941.999572753904
 20
-58.0971830273117
 30
0.0
 11
-959.389565538165
 21
-58.0971830273117
 31
0.0
  0
LINE
  5
   484
  8
0
  6
CONTINUOUS
 62
     2
 10
-941.999572753905
 20
-58.0971830273117
 30
0.0
 11
-941.999572753905
 21
-50.9531938925231
 31
0.0
  0
LINE
  5
   485
  8
0
  6
CONTINUOUS
 62
     7
 10
-959.389565538168
 20
-58.0971830273117
 30
0.0
 11
-959.389565538168
 21
-50.9531938925231
 31
0.0
  0
LINE
  5
   486
  8
0
  6
CONTINUOUS
 62
     1
 10
-961.2695655334
 20
59.0268094143426
 30
0.0
 11
-961.2695655334
 21
59.7318094125544
 31
0.0
  0
LINE
  5
   487
  8
0
  6
CONTINUOUS
 62
     1
 10
-961.2695655334
 20
43.2818094542777
 30
0.0
 11
-961.2695655334
 21
43.9868237957512
 31
0.0
  0
LINE
  5
   488
  8
0
  6
CONTINUOUS
 62
     1
 10
-965.029565523863
 20
43.7518094530856
 30
0.0
 11
-965.029565523863
 21
59.2618094137465
 31
0.0
  0
LINE
  5
   489
  8
0
  6
CONTINUOUS
 62
     2
 10
-959.389565538168
 20
35.5268094739472
 30
0.0
 11
-964.324565525651
 21
35.5268094739472
 31
0.0
  0
LINE
  5
   48A
  8
0
  6
CONTINUOUS
 62
     2
 10
-965.029565523863
 20
35.5268094739472
 30
0.0
 11
-965.264565523267
 21
35.5268094739472
 31
0.0
  0
LINE
  5
   48B
  8
0
  6
CONTINUOUS
 62
     2
 10
-959.389565538168
 20
28.4768094918286
 30
0.0
 11
-964.324565525651
 21
28.4768094918286
 31
0.0
  0
LINE
  5
   48C
  8
0
  6
CONTINUOUS
 62
     2
 10
-965.029565523863
 20
28.4768094918286
 30
0.0
 11
-965.264565523267
 21
28.4768094918286
 31
0.0
  0
LINE
  5
   48D
  8
0
  6
CONTINUOUS
 62
     2
 10
-959.389565538168
 20
-27.9231903651203
 30
0.0
 11
-964.324565525651
 21
-27.9231903651203
 31
0.0
  0
LINE
  5
   48E
  8
0
  6
CONTINUOUS
 62
     2
 10
-965.029565523863
 20
-27.9231903651203
 30
0.0
 11
-965.264565523267
 21
-27.9231903651203
 31
0.0
  0
LINE
  5
   48F
  8
0
  6
CONTINUOUS
 62
     2
 10
-959.389565538168
 20
-34.9731903472389
 30
0.0
 11
-964.324565525651
 21
-34.9731903472389
 31
0.0
  0
LINE
  5
   490
  8
0
  6
CONTINUOUS
 62
     2
 10
-965.029565523863
 20
-34.9731903472389
 30
0.0
 11
-965.264565523267
 21
-34.9731903472389
 31
0.0
  0
LINE
  5
   491
  8
0
  6
CONTINUOUS
 62
     2
 10
-959.389565538168
 20
59.0268094143426
 30
0.0
 11
-961.2695655334
 21
59.0268094143426
 31
0.0
  0
LINE
  5
   492
  8
0
  6
CONTINUOUS
 62
     2
 10
-959.389565538168
 20
43.9868094524895
 30
0.0
 11
-961.2695655334
 21
43.9868094524895
 31
0.0
  0
LINE
  5
   493
  8
0
  6
CONTINUOUS
 62
     2
 10
-959.389565538168
 20
-58.4731831160034
 30
0.0
 11
-961.2695655334
 21
-58.4731831160034
 31
0.0
  0
LINE
  5
   494
  8
0
  6
CONTINUOUS
 62
     2
 10
-959.389565538168
 20
-43.4331836023773
 30
0.0
 11
-961.2695655334
 21
-43.4331836023773
 31
0.0
  0
LINE
  5
   495
  8
0
  6
CONTINUOUS
 62
     1
 10
-961.2695655334
 20
43.2818094542777
 30
0.0
 11
-964.559572696686
 21
43.2818094542777
 31
0.0
  0
LINE
  5
   496
  8
0
  6
CONTINUOUS
 62
     1
 10
-961.2695655334
 20
59.7318094125544
 30
0.0
 11
-964.559572696686
 21
59.7318094125544
 31
0.0
  0
LINE
  5
   497
  8
0
  6
CONTINUOUS
 62
     1
 10
-964.559564335663
 20
43.2817983750814
 30
0.0
 11
-964.794564323137
 21
43.3447724524671
 31
0.0
  0
LINE
  5
   498
  8
0
  6
CONTINUOUS
 62
     1
 10
-964.794576099033
 20
43.3447793551092
 30
0.0
 11
-964.966601996391
 21
43.5168124304627
 31
0.0
  0
LINE
  5
   499
  8
0
  6
CONTINUOUS
 62
     1
 10
-964.966599099363
 20
43.5168159212532
 30
0.0
 11
-965.029566013094
 21
43.7518087461323
 31
0.0
  0
LINE
  5
   49A
  8
0
  6
CONTINUOUS
 62
     1
 10
-964.79456817571
 20
59.6688380004107
 30
0.0
 11
-964.55956818857
 21
59.7318049069142
 31
0.0
  0
LINE
  5
   49B
  8
0
  6
CONTINUOUS
 62
     1
 10
-964.966599907598
 20
59.4968096547641
 30
0.0
 11
-964.79457401024
 21
59.6688427301177
 31
0.0
  0
LINE
  5
   49C
  8
0
  6
CONTINUOUS
 62
     1
 10
-965.029560016354
 20
59.261797424369
 30
0.0
 11
-964.96659310985
 21
59.4967974115088
 31
0.0
  0
LINE
  5
   49D
  8
0
  6
DASHDOT
 62
     7
 10
-952.552446114142
 20
32.0018094828879
 30
0.0
 11
-971.880850073144
 21
32.0018094828879
 31
0.0
  0
LINE
  5
   49E
  8
0
  6
DASHDOT
 62
     7
 10
-952.860662375343
 20
-31.4481903561796
 30
0.0
 11
-970.866980792877
 21
-31.4481903561796
 31
0.0
  0
LINE
  5
   49F
  8
0
  6
CONTINUOUS
 62
     7
 10
-965.029565523863
 20
-58.7081902870382
 30
0.0
 11
-965.029565523863
 21
-43.1981903263772
 31
0.0
  0
LINE
  5
   4A0
  8
0
  6
CONTINUOUS
 62
     7
 10
-961.2695655334
 20
-59.1781902858461
 30
0.0
 11
-964.559572696686
 21
-59.1781902858461
 31
0.0
  0
LINE
  5
   4A1
  8
0
  6
CONTINUOUS
 62
     7
 10
-961.2695655334
 20
-42.7281903275693
 30
0.0
 11
-964.559572696686
 21
-42.7281903275693
 31
0.0
  0
LINE
  5
   4A2
  8
0
  6
CONTINUOUS
 62
     7
 10
-961.2695655334
 20
-59.1781902858461
 30
0.0
 11
-961.2695655334
 21
-58.4731902876342
 31
0.0
  0
LINE
  5
   4A3
  8
0
  6
CONTINUOUS
 62
     7
 10
-961.2695655334
 20
-43.4332046690429
 30
0.0
 11
-961.2695655334
 21
-42.7281903275693
 31
0.0
  0
LINE
  5
   4A4
  8
0
  6
CONTINUOUS
 62
     7
 10
-965.029566013094
 20
-43.198189619424
 30
0.0
 11
-964.966599099363
 21
-42.9631967945449
 31
0.0
  0
LINE
  5
   4A5
  8
0
  6
CONTINUOUS
 62
     7
 10
-964.966601996391
 20
-42.9631933037544
 30
0.0
 11
-964.794576099033
 21
-42.7911602284008
 31
0.0
  0
LINE
  5
   4A6
  8
0
  6
CONTINUOUS
 62
     7
 10
-964.794564323137
 20
-42.7911533257587
 30
0.0
 11
-964.559564335663
 21
-42.728179248373
 31
0.0
  0
LINE
  5
   4A7
  8
0
  6
CONTINUOUS
 62
     7
 10
-964.55956818857
 20
-59.1781857802059
 30
0.0
 11
-964.79456817571
 21
-59.1152188737024
 31
0.0
  0
LINE
  5
   4A8
  8
0
  6
CONTINUOUS
 62
     7
 10
-964.79457401024
 20
-59.1152236034094
 30
0.0
 11
-964.966599907598
 21
-58.9431905280558
 31
0.0
  0
LINE
  5
   4A9
  8
0
  6
CONTINUOUS
 62
     7
 10
-964.96659310985
 20
-58.9431782848005
 30
0.0
 11
-965.029560016354
 21
-58.7081782976607
 31
0.0
  0
LINE
  5
   4AA
  8
0
  6
CONTINUOUS
 62
     7
 10
-961.2695655334
 20
-58.4731831160034
 30
0.0
 11
-964.559565525055
 21
-58.4731831160034
 31
0.0
  0
LINE
  5
   4AB
  8
0
  6
CONTINUOUS
 62
     7
 10
-959.389565538168
 20
-58.4731831160034
 30
0.0
 11
-959.389565538168
 21
-58.0971825790848
 31
0.0
  0
LINE
  5
   4AC
  8
0
  6
CONTINUOUS
 62
     2
 10
-959.389565538168
 20
-43.4331836023773
 30
0.0
 11
-959.389565538168
 21
-34.9731903472389
 31
0.0
  0
LINE
  5
   4AD
  8
0
  6
CONTINUOUS
 62
     7
 10
-961.2695655334
 20
-43.4331836023773
 30
0.0
 11
-964.559565525055
 21
-43.4331836023773
 31
0.0
  0
LINE
  5
   4AE
  8
0
  6
CONTINUOUS
 62
     7
 10
-959.389565538168
 20
-34.9731903472389
 30
0.0
 11
-959.389565538168
 21
-27.9231903651203
 31
0.0
  0
LINE
  5
   4AF
  8
0
  6
CONTINUOUS
 62
     2
 10
-959.389565538168
 20
-27.9231903651203
 30
0.0
 11
-959.389565538168
 21
-19.9332047286475
 31
0.0
  0
LINE
  5
   4B0
  8
0
  6
CONTINUOUS
 62
     7
 10
-959.389565538168
 20
-19.9332047286475
 30
0.0
 11
-959.389565538168
 21
-18.2881832179273
 31
0.0
  0
LINE
  5
   4B1
  8
0
  6
CONTINUOUS
 62
     7
 10
-962.444565530419
 20
-15.2331903973068
 30
0.0
 11
-962.444565530419
 21
-11.9431904056514
 31
0.0
  0
LINE
  5
   4B2
  8
0
  6
CONTINUOUS
 62
     2
 10
-962.444565530419
 20
-11.9431904056514
 30
0.0
 11
-962.444565530419
 21
17.1968095204388
 31
0.0
  0
LINE
  5
   4B3
  8
0
  6
CONTINUOUS
 62
     7
 10
-959.389565538168
 20
28.4768094918286
 30
0.0
 11
-959.389565538168
 21
35.5268094739472
 31
0.0
  0
LINE
  5
   4B4
  8
0
  6
CONTINUOUS
 62
     2
 10
-959.389565538168
 20
35.5268094739472
 30
0.0
 11
-959.389565538168
 21
43.9868094524895
 31
0.0
  0
LINE
  5
   4B5
  8
0
  6
CONTINUOUS
 62
     7
 10
-959.389565538168
 20
43.9868094524895
 30
0.0
 11
-959.389565538168
 21
51.5068237766777
 31
0.0
  0
LINE
  5
   4B6
  8
0
  6
CONTINUOUS
 62
     7
 10
-961.2695655334
 20
43.9868094524895
 30
0.0
 11
-964.559565525055
 21
43.9868094524895
 31
0.0
  0
LINE
  5
   4B7
  8
0
  6
CONTINUOUS
 62
     2
 10
-959.389565538168
 20
59.0268094143426
 30
0.0
 11
-959.389565538168
 21
59.9668094119584
 31
0.0
  0
LINE
  5
   4B8
  8
0
  6
CONTINUOUS
 62
     7
 10
-961.2695655334
 20
59.0268094143426
 30
0.0
 11
-964.559565525055
 21
59.0268094143426
 31
0.0
  0
LINE
  5
   4B9
  8
0
  6
DASHDOT
 62
     7
 10
-965.264565523267
 20
35.5268094739472
 30
0.0
 11
-965.264565523267
 21
91.7444739230061
 31
0.0
  0
LINE
  5
   4BA
  8
0
  6
CONTINUOUS
 62
     7
 10
-965.264565523267
 20
-27.9231903651203
 30
0.0
 11
-965.264565523267
 21
28.4768094918286
 31
0.0
  0
LINE
  5
   4BB
  8
0
  6
DASHDOT
 62
     7
 10
-965.264565523267
 20
-89.444791574375
 30
0.0
 11
-965.264565523267
 21
-34.9731903472389
 31
0.0
  0
LINE
  5
   4BC
  8
0
  6
DASHDOT
 62
     7
 10
-966.674565519691
 20
-89.4101194433154
 30
0.0
 11
-966.674565519691
 21
91.7563226624718
 31
0.0
  0
LINE
  5
   4BD
  8
0
  6
CONTINUOUS
 62
     1
 10
-891.709580053091
 20
-24.753722180105
 30
0.0
 11
-891.709580053091
 21
-23.8137221824892
 31
0.0
  0
LINE
  5
   4BE
  8
0
  6
CONTINUOUS
 62
     1
 10
-890.769580055475
 20
-24.753722180105
 30
0.0
 11
-891.709580053091
 21
-24.753722180105
 31
0.0
  0
LINE
  5
   4BF
  8
0
  6
CONTINUOUS
 62
     1
 10
-891.709580053091
 20
26.0062758982413
 30
0.0
 11
-891.709580053091
 21
26.9462758958571
 31
0.0
  0
LINE
  5
   4C0
  8
0
  6
CONTINUOUS
 62
     1
 10
-890.769580055475
 20
26.9462758958571
 30
0.0
 11
-891.709580053091
 21
26.9462758958571
 31
0.0
  0
LINE
  5
   4C1
  8
0
  6
CONTINUOUS
 62
     1
 10
-891.709580053091
 20
-23.8137221824892
 30
0.0
 11
-891.709580053091
 21
26.006277691149
 31
0.0
  0
LINE
  5
   4C2
  8
0
  6
CONTINUOUS
 62
     1
 10
-893.824579963684
 20
33.3276288764978
 30
0.0
 11
-893.824579963684
 21
35.6049228770694
 31
0.0
  0
LINE
  5
   4C3
  8
0
  6
CONTINUOUS
 62
     1
 10
-893.824579963684
 20
-33.4123673684096
 30
0.0
 11
-893.824579963684
 21
-31.1350769536534
 31
0.0
  0
LINE
  5
   4C4
  8
0
  6
CONTINUOUS
 62
     1
 10
-890.769580055475
 20
-37.2087221485145
 30
0.0
 11
-890.769580055475
 21
39.4012776571743
 31
0.0
  0
LINE
  5
   4C5
  8
0
  6
CONTINUOUS
 62
     1
 10
-889.124580059648
 20
-37.2087221485145
 30
0.0
 11
-890.769580055475
 21
-37.2087221485145
 31
0.0
  0
LINE
  5
   4C6
  8
0
  6
CONTINUOUS
 62
     1
 10
-889.124580059648
 20
-37.2087239414223
 30
0.0
 11
-889.124580059648
 21
39.4012758642666
 31
0.0
  0
LINE
  5
   4C7
  8
0
  6
CONTINUOUS
 62
     1
 10
-889.124580059648
 20
39.4012758642666
 30
0.0
 11
-889.594580058455
 21
39.4012758642666
 31
0.0
  0
LINE
  5
   4C8
  8
0
  6
CONTINUOUS
 62
     1
 10
-890.064580057263
 20
39.4012758642666
 30
0.0
 11
-890.769580055475
 21
39.4012758642666
 31
0.0
  0
LINE
  5
   4C9
  8
0
  6
CONTINUOUS
 62
     1
 10
-890.769580055475
 20
33.0562758803599
 30
0.0
 11
-893.354581467291
 21
33.0562758803599
 31
0.0
  0
LINE
  5
   4CA
  8
0
  6
CONTINUOUS
 62
     1
 10
-890.769580055475
 20
35.8762758732073
 30
0.0
 11
-893.354578424908
 21
35.8762758732073
 31
0.0
  0
LINE
  5
   4CB
  8
0
  6
CONTINUOUS
 62
     1
 10
-893.354579971316
 20
33.0562758803599
 30
0.0
 11
-893.354579971316
 21
33.163606507529
 31
0.0
  0
LINE
  5
   4CC
  8
0
  6
CONTINUOUS
 62
     1
 10
-893.354579597325
 20
33.056274800741
 30
0.0
 11
-893.824579611609
 21
33.327627800281
 31
0.0
  0
LINE
  5
   4CD
  8
0
  6
CONTINUOUS
 62
     1
 10
-893.354579971316
 20
33.163606507529
 30
0.0
 11
-893.354579971316
 21
33.4692542423495
 31
0.0
  0
LINE
  5
   4CE
  8
0
  6
CONTINUOUS
 62
     1
 10
-893.354579971316
 20
33.4692542423495
 30
0.0
 11
-893.354579971316
 21
33.9266967155545
 31
0.0
  0
LINE
  5
   4CF
  8
0
  6
CONTINUOUS
 62
     1
 10
-893.354579971316
 20
33.9266967155545
 30
0.0
 11
-893.354579971316
 21
34.4662758767836
 31
0.0
  0
LINE
  5
   4D0
  8
0
  6
CONTINUOUS
 62
     1
 10
-893.354579971316
 20
34.4662758767836
 30
0.0
 11
-893.354579971316
 21
35.0058622096435
 31
0.0
  0
LINE
  5
   4D1
  8
0
  6
CONTINUOUS
 62
     1
 10
-893.354579971316
 20
35.0058622096435
 30
0.0
 11
-893.354579971316
 21
35.4632975112177
 31
0.0
  0
LINE
  5
   4D2
  8
0
  6
CONTINUOUS
 62
     1
 10
-893.354579971316
 20
35.4632975112177
 30
0.0
 11
-893.354579971316
 21
35.7689452460381
 31
0.0
  0
LINE
  5
   4D3
  8
0
  6
CONTINUOUS
 62
     1
 10
-893.354579971316
 20
35.7689452460381
 30
0.0
 11
-893.354579971316
 21
35.8762758732073
 31
0.0
  0
LINE
  5
   4D4
  8
0
  6
CONTINUOUS
 62
     1
 10
-893.824580372198
 20
35.6049217576525
 30
0.0
 11
-893.354580357914
 21
35.8762747571926
 31
0.0
  0
LINE
  5
   4D5
  8
0
  6
CONTINUOUS
 62
     1
 10
-890.769580055475
 20
-30.8637221646078
 30
0.0
 11
-893.354579028913
 21
-30.8637221646078
 31
0.0
  0
LINE
  5
   4D6
  8
0
  6
CONTINUOUS
 62
     1
 10
-890.769580055475
 20
-33.6837221574552
 30
0.0
 11
-893.354580760187
 21
-33.6837221574552
 31
0.0
  0
LINE
  5
   4D7
  8
0
  6
CONTINUOUS
 62
     1
 10
-893.824580209094
 20
-31.1350776117717
 30
0.0
 11
-893.35458019481
 21
-30.8637228377388
 31
0.0
  0
LINE
  5
   4D8
  8
0
  6
CONTINUOUS
 62
     1
 10
-893.354579955657
 20
-30.971052791777
 30
0.0
 11
-893.354579955657
 21
-30.8637221646078
 31
0.0
  0
LINE
  5
   4D9
  8
0
  6
CONTINUOUS
 62
     1
 10
-893.354579955669
 20
-31.2767023195052
 30
0.0
 11
-893.354579955669
 21
-30.971052791777
 31
0.0
  0
LINE
  5
   4DA
  8
0
  6
CONTINUOUS
 62
     1
 10
-893.354579955655
 20
-31.7341376210793
 30
0.0
 11
-893.354579955655
 21
-31.2767023195052
 31
0.0
  0
LINE
  5
   4DB
  8
0
  6
CONTINUOUS
 62
     1
 10
-893.354579955688
 20
-32.2737221610315
 30
0.0
 11
-893.354579955688
 21
-31.7341376210793
 31
0.0
  0
LINE
  5
   4DC
  8
0
  6
CONTINUOUS
 62
     1
 10
-893.35457995563
 20
-32.813304908076
 30
0.0
 11
-893.35457995563
 21
-32.2737221610315
 31
0.0
  0
LINE
  5
   4DD
  8
0
  6
CONTINUOUS
 62
     1
 10
-893.354579955656
 20
-33.2707420025579
 30
0.0
 11
-893.354579955656
 21
-32.813304908076
 31
0.0
  0
LINE
  5
   4DE
  8
0
  6
CONTINUOUS
 62
     1
 10
-893.354579955668
 20
-33.5763915302861
 30
0.0
 11
-893.354579955668
 21
-33.2707420025579
 31
0.0
  0
LINE
  5
   4DF
  8
0
  6
CONTINUOUS
 62
     1
 10
-893.354579760925
 20
-33.6837227343798
 30
0.0
 11
-893.824579775209
 21
-33.4123679603469
 31
0.0
  0
LINE
  5
   4E0
  8
0
  6
CONTINUOUS
 62
     1
 10
-893.354579955657
 20
-33.6837221574552
 30
0.0
 11
-893.354579955657
 21
-33.5763915302861
 31
0.0
  0
LINE
  5
   4E1
  8
0
  6
CONTINUOUS
 62
     1
 10
-889.594580058455
 20
39.4012758642666
 30
0.0
 11
-890.064580057263
 21
39.4012758642666
 31
0.0
  0
LINE
  5
   4E2
  8
0
  6
CONTINUOUS
 62
     7
 10
-890.769580055475
 20
39.4012758642666
 30
0.0
 11
-890.769580055475
 21
68.3195621960766
 31
0.0
  0
LINE
  5
   4E3
  8
0
  6
CONTINUOUS
 62
     7
 10
-891.709580053091
 20
26.9462758958571
 30
0.0
 11
-891.709580053091
 21
33.0562758803599
 31
0.0
  0
LINE
  5
   4E4
  8
0
  6
CONTINUOUS
 62
     7
 10
-890.769580055475
 20
-70.6379402466633
 30
0.0
 11
-890.769580055475
 21
-37.2087221485145
 31
0.0
  0
LINE
  5
   4E5
  8
0
  6
CONTINUOUS
 62
     7
 10
-891.709580053091
 20
-69.9697474772737
 30
0.0
 11
-891.709580053091
 21
-33.6837221574552
 31
0.0
  0
LINE
  5
   4E6
  8
0
  6
CONTINUOUS
 62
     7
 10
-887.838964360653
 20
-72.7211489935851
 30
0.0
 11
-893.890754382515
 21
-68.4192741587679
 31
0.0
  0
LINE
  5
   4E7
  8
0
  6
CONTINUOUS
 62
     7
 10
-893.744928116928
 20
66.470021509228
 30
0.0
 11
-888.349356290208
 21
69.8240256177295
 31
0.0
  0
LINE
  5
   4E8
  8
0
  6
CONTINUOUS
 62
     7
 10
-890.769580055475
 20
-30.6287221652038
 30
0.0
 11
-891.709580053091
 21
-30.6287221652038
 31
0.0
  0
LINE
  5
   4E9
  8
0
  6
CONTINUOUS
 62
     7
 10
-890.769580055475
 20
-33.9187221568592
 30
0.0
 11
-891.709580053091
 21
-33.9187221568592
 31
0.0
  0
LINE
  5
   4EA
  8
0
  6
CONTINUOUS
 62
     7
 10
-890.769580055475
 20
-25.2237221789129
 30
0.0
 11
-891.709580053091
 21
-25.2237221789129
 31
0.0
  0
LINE
  5
   4EB
  8
0
  6
CONTINUOUS
 62
     7
 10
-890.769580055475
 20
27.416275894665
 30
0.0
 11
-891.709580053091
 21
27.416275894665
 31
0.0
  0
LINE
  5
   4EC
  8
0
  6
CONTINUOUS
 62
     7
 10
-890.769580055475
 20
32.8212758809559
 30
0.0
 11
-891.709580053091
 21
32.8212758809559
 31
0.0
  0
LINE
  5
   4ED
  8
0
  6
CONTINUOUS
 62
     7
 10
-890.769580055475
 20
36.1112758726113
 30
0.0
 11
-891.709580053091
 21
36.1112758726113
 31
0.0
  0
LINE
  5
   4EE
  8
0
  6
CONTINUOUS
 62
     7
 10
-891.709580053091
 20
35.8762758732073
 30
0.0
 11
-891.709580053091
 21
67.7352378732344
 31
0.0
  0
LINE
  5
   4EF
  8
0
  6
CONTINUOUS
 62
     7
 10
-891.709580053091
 20
-30.8637221646078
 30
0.0
 11
-891.709580053091
 21
-24.753722180105
 31
0.0
  0
INSERT
  5
   4F0
  8
0
  6
CONTINUOUS
 62
     7
  2
*HATCH183
 10
-941.999572753906
 20
-50.5946159362793
 30
0.0
 41
0.469999998807907
 42
0.469999998807907
 50
89.9999999480344
 43
0.469999998807907
  0
INSERT
  5
   4F1
  8
0
  6
CONTINUOUS
 62
     7
  2
*HATCH184
 10
-941.999572753906
 20
-50.5946159362793
 30
0.0
 41
0.469999998807907
 42
0.469999998807907
 50
89.9999999480344
 43
0.469999998807907
  0
INSERT
  5
   4F2
  8
0
  6
CONTINUOUS
 62
     7
  2
*HATCH185
 10
-941.999572753906
 20
-50.5946159362793
 30
0.0
 41
0.469999998807907
 42
0.469999998807907
 50
89.9999999480344
 43
0.469999998807907
  0
INSERT
  5
   4F3
  8
0
  6
CONTINUOUS
 62
     7
  2
*HATCH186
 10
-941.999572753906
 20
-50.5946159362793
 30
0.0
 41
0.469999998807907
 42
0.469999998807907
 50
89.9999999480344
 43
0.469999998807907
  0
LINE
  5
   4F4
  8
0
  6
CONTINUOUS
 62
     7
 10
-894.764580045343
 20
61.1418094089781
 30
0.0
 11
-941.059568537746
 21
61.1418094089781
 31
0.0
  0
LINE
  5
   4F5
  8
0
  6
CONTINUOUS
 62
     7
 10
-894.764580045343
 20
-60.5881598745716
 30
0.0
 11
-941.059573204518
 21
-60.5881598745716
 31
0.0
  0
LINE
  5
   4F6
  8
0
  6
CONTINUOUS
 62
     7
 10
-894.294580046535
 20
-60.1181598757637
 30
0.0
 11
-894.294580046535
 21
-48.6031670766011
 31
0.0
  0
LINE
  5
   4F7
  8
0
  6
CONTINUOUS
 62
     7
 10
-894.294580046535
 20
48.921825504409
 30
0.0
 11
-894.294580046535
 21
60.6718094101702
 31
0.0
  0
ARC
  5
   4F8
  8
0
  6
CONTINUOUS
 62
     7
 10
-894.764580045343
 20
-60.1181598757637
 30
0.0
 40
0.469999998807907
 50
269.999999948034
 51
359.999999948034
  0
ARC
  5
   4F9
  8
0
  6
CONTINUOUS
 62
     7
 10
-894.764580045343
 20
60.6718094101702
 30
0.0
 40
0.469999998807907
 50
359.999999948034
 51
449.999999948034
  0
LINE
  5
   4FA
  8
0
  6
CONTINUOUS
 62
     7
 10
-894.294580046535
 20
48.921825504409
 30
0.0
 11
-894.764580045343
 21
48.921825504409
 31
0.0
  0
LINE
  5
   4FB
  8
0
  6
CONTINUOUS
 62
     7
 10
-894.764580045343
 20
48.4518255056011
 30
0.0
 11
-894.764580045343
 21
48.921825504409
 31
0.0
  0
LINE
  5
   4FC
  8
0
  6
CONTINUOUS
 62
     7
 10
-894.294580046535
 20
-48.6031670766011
 30
0.0
 11
-894.764580045343
 21
-48.6031670766011
 31
0.0
  0
LINE
  5
   4FD
  8
0
  6
CONTINUOUS
 62
     7
 10
-894.764580045343
 20
-48.6031670766011
 30
0.0
 11
-894.764580045343
 21
-48.1331670777932
 31
0.0
  0
LINE
  5
   4FE
  8
0
  6
DASHDOT
 62
     7
 10
-867.606379263405
 20
1.09932562570448
 30
0.0
 11
-982.259770130021
 21
1.09932562570448
 31
0.0
  0
LINE
  5
   4FF
  8
0
  6
CONTINUOUS
 62
     7
 10
-954.689565550089
 20
59.9668094119584
 30
0.0
 11
-954.924565549493
 21
59.9668094119584
 31
0.0
  0
LINE
  5
   500
  8
0
  6
CONTINUOUS
 62
     7
 10
-954.924565549493
 20
65.8745411975632
 30
0.0
 11
-954.924565549493
 21
83.7551991483204
 31
0.0
  0
LINE
  5
   501
  8
0
  6
CONTINUOUS
 62
     3
 10
-947.874565567374
 20
65.1731640252723
 30
0.0
 11
-947.874565567374
 21
66.7818093946731
 31
0.0
  0
LINE
  5
   502
  8
0
  6
CONTINUOUS
 62
     3
 10
-950.694565560222
 20
74.2543297339362
 30
0.0
 11
-950.694565560222
 21
78.5318093648707
 31
0.0
  0
LINE
  5
   503
  8
0
  6
CONTINUOUS
 62
     3
 10
-947.874565567374
 20
78.5318093648707
 30
0.0
 11
-950.694565560222
 21
78.5318093648707
 31
0.0
  0
LINE
  5
   504
  8
0
  6
DASHDOT
 62
     7
 10
-946.384440079283
 20
71.95180938156
 30
0.0
 11
-955.670553518624
 21
71.95180938156
 31
0.0
  0
LINE
  5
   505
  8
0
  6
CONTINUOUS
 62
     3
 10
-952.431443581493
 20
63.8990224063109
 30
0.0
 11
-950.988315559477
 21
64.7322127582972
 31
0.0
  0
LINE
  5
   506
  8
0
  6
CONTINUOUS
 62
     3
 10
-950.054159782804
 20
62.0152923374536
 30
0.0
 11
-949.519565563202
 21
62.3239404540482
 31
0.0
  0
ARC
  5
   507
  8
0
  6
CONTINUOUS
 62
     3
 10
-951.282065558732
 20
65.24100268173
 30
0.0
 40
0.587499998509884
 50
299.999999948034
 51
359.999999948034
  0
ARC
  5
   508
  8
0
  6
CONTINUOUS
 62
     3
 10
-951.16456555903
 20
65.1731640252723
 30
0.0
 40
3.28999999165535
 50
299.999999948034
 51
359.999999948034
  0
LINE
  5
   509
  8
0
  6
CONTINUOUS
 62
     3
 10
-947.874565567374
 20
74.3488093754804
 30
0.0
 11
-950.694565560222
 21
74.3488093754804
 31
0.0
  0
LINE
  5
   50A
  8
0
  6
CONTINUOUS
 62
     3
 10
-947.874565567374
 20
69.5548093876397
 30
0.0
 11
-950.694565560222
 21
69.5548093876397
 31
0.0
  0
LINE
  5
   50B
  8
0
  6
CONTINUOUS
 62
   130
 10
-941.999608612062
 20
59.9668094119584
 30
0.0
 11
-959.389608567957
 21
59.9668094119584
 31
0.0
  0
INSERT
  5
   50C
  8
0
  6
CONTINUOUS
 62
     7
  2
*HATCH187
 10
-941.999572753906
 20
-50.5946159362793
 30
0.0
 41
0.469999998807907
 42
0.469999998807907
 50
89.9999999480344
 43
0.469999998807907
  0
ARC
  5
   50D
  8
0
  6
CONTINUOUS
 62
     5
 10
-951.16456555903
 20
71.95180938156
 30
0.0
 40
2.34999999403954
 50
281.53695898085
 51
438.463040915219
  0
LINE
  5
   50E
  8
0
  6
CONTINUOUS
 62
     3
 10
-950.694565560222
 20
65.24100268173
 30
0.0
 11
-950.694565560222
 21
69.6492890291839
 31
0.0
  0
LINE
  5
   50F
  8
0
  6
CONTINUOUS
 62
     5
 10
-952.104565556646
 20
66.7818093946731
 30
0.0
 11
-952.104565556646
 21
78.0618093660628
 31
0.0
  0
ARC
  5
   510
  8
0
  6
CONTINUOUS
 62
     5
 10
-951.16456555903
 20
71.95180938156
 30
0.0
 40
0.939999997615814
 50
281.53695898085
 51
438.463040915219
  0
ARC
  5
   511
  8
0
  6
CONTINUOUS
 62
     5
 10
-950.694565560222
 20
74.2543297339362
 30
0.0
 40
1.40999999642372
 50
179.999999948034
 51
258.463040915219
  0
ARC
  5
   512
  8
0
  6
CONTINUOUS
 62
     5
 10
-950.694565560222
 20
69.6492890291839
 30
0.0
 40
1.40999999642372
 50
101.53695898085
 51
179.999999948034
  0
LINE
  5
   513
  8
0
  6
CONTINUOUS
 62
     5
 10
-931.424565609097
 20
76.1818093708312
 30
0.0
 11
-931.424565609097
 21
77.121809368447
 31
0.0
  0
LINE
  5
   514
  8
0
  6
CONTINUOUS
 62
     5
 10
-950.694565560222
 20
66.7818093946731
 30
0.0
 11
-952.104565556646
 21
66.7818093946731
 31
0.0
  0
LINE
  5
   515
  8
0
  6
CONTINUOUS
 62
     5
 10
-932.364565606713
 20
66.7818093946731
 30
0.0
 11
-939.649565588236
 21
66.7818093946731
 31
0.0
  0
LINE
  5
   516
  8
0
  6
CONTINUOUS
 62
     5
 10
-932.364565606713
 20
78.0618093660628
 30
0.0
 11
-939.649565588236
 21
78.0618093660628
 31
0.0
  0
LINE
  5
   517
  8
0
  6
CONTINUOUS
 62
     5
 10
-950.694565560222
 20
78.0618093660628
 30
0.0
 11
-952.104565556646
 21
78.0618093660628
 31
0.0
  0
ARC
  5
   518
  8
0
  6
CONTINUOUS
 62
     5
 10
-932.364565606713
 20
77.121809368447
 30
0.0
 40
0.939999997615814
 50
359.999999948034
 51
449.999999948034
  0
ARC
  5
   519
  8
0
  6
CONTINUOUS
 62
     5
 10
-932.364565606713
 20
67.7218093922889
 30
0.0
 40
0.939999997615814
 50
269.999999948034
 51
359.999999948034
  0
LINE
  5
   51A
  8
0
  6
CONTINUOUS
 62
     5
 10
-935.654565598369
 20
76.1818093708312
 30
0.0
 11
-935.654565598369
 21
78.0618093660628
 31
0.0
  0
LINE
  5
   51B
  8
0
  6
CONTINUOUS
 62
     5
 10
-933.774565603137
 20
76.1818093708312
 30
0.0
 11
-933.774565603137
 21
78.0618093660628
 31
0.0
  0
LINE
  5
   51C
  8
0
  6
DASHDOT
 62
     7
 10
-921.645507594821
 20
72.4218093803679
 30
0.0
 11
-943.569288962317
 21
72.4218093803679
 31
0.0
  0
LINE
  5
   51D
  8
0
  6
CONTINUOUS
 62
     1
 10
-937.769565593004
 20
77.4743093675529
 30
0.0
 11
-939.649565588236
 21
77.4743093675529
 31
0.0
  0
LINE
  5
   51E
  8
0
  6
CONTINUOUS
 62
     1
 10
-938.944565590024
 20
76.5343093699371
 30
0.0
 11
-938.944565590024
 21
77.4743093675529
 31
0.0
  0
LINE
  5
   51F
  8
0
  6
CONTINUOUS
 62
     1
 10
-937.769565593004
 20
76.5343093699371
 30
0.0
 11
-937.769565593004
 21
77.4743093675529
 31
0.0
  0
LINE
  5
   520
  8
0
  6
DASHDOT
 62
     7
 10
-937.33945763167
 20
76.1818093708312
 30
0.0
 11
-940.688672786902
 21
76.1818093708312
 31
0.0
  0
ARC
  5
   521
  8
0
  6
CONTINUOUS
 62
     1
 10
-938.797690590397
 20
76.1818093708312
 30
0.0
 40
0.381874999031427
 50
112.619864896076
 51
247.380134999993
  0
LINE
  5
   522
  8
0
  6
CONTINUOUS
 62
     1
 10
-938.944565590024
 20
72.4218093803679
 30
0.0
 11
-938.944565590024
 21
75.8293093717253
 31
0.0
  0
ARC
  5
   523
  8
0
  6
CONTINUOUS
 62
     1
 10
-937.622690593377
 20
76.1818093708312
 30
0.0
 40
0.381874999031427
 50
112.619864896076
 51
247.380134999993
  0
LINE
  5
   524
  8
0
  6
CONTINUOUS
 62
     1
 10
-937.769565593004
 20
75.2418093732154
 30
0.0
 11
-937.769565593004
 21
75.8293093717253
 31
0.0
  0
LINE
  5
   525
  8
0
  6
CONTINUOUS
 62
     1
 10
-938.944565590024
 20
76.5343093699371
 30
0.0
 11
-939.649565588236
 21
76.5343093699371
 31
0.0
  0
LINE
  5
   526
  8
0
  6
CONTINUOUS
 62
     1
 10
-938.944565590024
 20
75.8293093717253
 30
0.0
 11
-939.649565588236
 21
75.8293093717253
 31
0.0
  0
LINE
  5
   527
  8
0
  6
CONTINUOUS
 62
     1
 10
-937.064565594792
 20
74.3018093755996
 30
0.0
 11
-938.474565591216
 21
74.3018093755996
 31
0.0
  0
LINE
  5
   528
  8
0
  6
CONTINUOUS
 62
     1
 10
-937.064565594792
 20
75.0068093738114
 30
0.0
 11
-937.5345655936
 21
75.0068093738114
 31
0.0
  0
ARC
  5
   529
  8
0
  6
CONTINUOUS
 62
     1
 10
-937.5345655936
 20
75.2418093732154
 30
0.0
 40
0.234999999403954
 50
179.999999948034
 51
269.999999948034
  0
ARC
  5
   52A
  8
0
  6
CONTINUOUS
 62
     1
 10
-938.474565591216
 20
74.7718093744075
 30
0.0
 40
0.469999998807907
 50
179.999999948034
 51
269.999999948034
  0
LINE
  5
   52B
  8
0
  6
CONTINUOUS
 62
     1
 10
-937.769565593004
 20
67.3693093931829
 30
0.0
 11
-939.649565588236
 21
67.3693093931829
 31
0.0
  0
LINE
  5
   52C
  8
0
  6
CONTINUOUS
 62
     1
 10
-938.944565590024
 20
67.3693093931829
 30
0.0
 11
-938.944565590024
 21
68.3093093907987
 31
0.0
  0
LINE
  5
   52D
  8
0
  6
CONTINUOUS
 62
     1
 10
-937.769565593004
 20
67.3693093931829
 30
0.0
 11
-937.769565593004
 21
68.3093093907987
 31
0.0
  0
LINE
  5
   52E
  8
0
  6
DASHDOT
 62
     7
 10
-937.33945763167
 20
68.6618093899047
 30
0.0
 11
-940.688672786902
 21
68.6618093899047
 31
0.0
  0
ARC
  5
   52F
  8
0
  6
CONTINUOUS
 62
     1
 10
-938.797690590397
 20
68.6618093899047
 30
0.0
 40
0.381874999031427
 50
112.619864896076
 51
247.380134999993
  0
LINE
  5
   530
  8
0
  6
CONTINUOUS
 62
     1
 10
-938.944565590024
 20
69.0143093890106
 30
0.0
 11
-938.944565590024
 21
72.4218093803679
 31
0.0
  0
ARC
  5
   531
  8
0
  6
CONTINUOUS
 62
     1
 10
-937.622690593377
 20
68.6618093899047
 30
0.0
 40
0.381874999031427
 50
112.619864896076
 51
247.380134999993
  0
LINE
  5
   532
  8
0
  6
CONTINUOUS
 62
     1
 10
-937.769565593004
 20
69.0143093890106
 30
0.0
 11
-937.769565593004
 21
69.6018093875205
 31
0.0
  0
LINE
  5
   533
  8
0
  6
CONTINUOUS
 62
     1
 10
-938.944565590024
 20
68.3093093907987
 30
0.0
 11
-939.649565588236
 21
68.3093093907987
 31
0.0
  0
LINE
  5
   534
  8
0
  6
CONTINUOUS
 62
     1
 10
-938.944565590024
 20
69.0143093890106
 30
0.0
 11
-939.649565588236
 21
69.0143093890106
 31
0.0
  0
LINE
  5
   535
  8
0
  6
CONTINUOUS
 62
     1
 10
-937.064565594792
 20
70.5418093851363
 30
0.0
 11
-938.474565591216
 21
70.5418093851363
 31
0.0
  0
LINE
  5
   536
  8
0
  6
CONTINUOUS
 62
     1
 10
-937.064565594792
 20
69.8368093869244
 30
0.0
 11
-937.5345655936
 21
69.8368093869244
 31
0.0
  0
ARC
  5
   537
  8
0
  6
CONTINUOUS
 62
     1
 10
-937.5345655936
 20
69.6018093875205
 30
0.0
 40
0.234999999403954
 50
89.9999999480344
 51
179.999999948034
  0
ARC
  5
   538
  8
0
  6
CONTINUOUS
 62
     1
 10
-938.474565591216
 20
70.0718093863284
 30
0.0
 40
0.469999998807907
 50
89.9999999480344
 51
179.999999948034
  0
LINE
  5
   539
  8
0
  6
CONTINUOUS
 62
     2
 10
-924.374565626979
 20
69.3668093881165
 30
0.0
 11
-924.374565626979
 21
75.4768093726193
 31
0.0
  0
LINE
  5
   53A
  8
0
  6
CONTINUOUS
 62
     7
 10
-934.949565600157
 20
76.1818093708312
 30
0.0
 11
-935.654565598369
 21
76.1818093708312
 31
0.0
  0
LINE
  5
   53B
  8
0
  6
CONTINUOUS
 62
     7
 10
-934.949565600157
 20
68.6618093899047
 30
0.0
 11
-935.654565598369
 21
68.6618093899047
 31
0.0
  0
LINE
  5
   53C
  8
0
  6
CONTINUOUS
 62
     2
 10
-924.374565626979
 20
75.4768093726193
 30
0.0
 11
-925.079565625191
 21
76.1818093708312
 31
0.0
  0
LINE
  5
   53D
  8
0
  6
CONTINUOUS
 62
     2
 10
-925.079565625191
 20
68.6618093899046
 30
0.0
 11
-924.374565626979
 21
69.3668093881165
 31
0.0
  0
LINE
  5
   53E
  8
0
  6
CONTINUOUS
 62
     2
 10
-936.359565596581
 20
68.6618093899047
 30
0.0
 11
-937.064565594792
 21
69.3668093881166
 31
0.0
  0
LINE
  5
   53F
  8
0
  6
CONTINUOUS
 62
     2
 10
-937.064565594792
 20
75.4768093726193
 30
0.0
 11
-936.359565596581
 21
76.1818093708312
 31
0.0
  0
LINE
  5
   540
  8
0
  6
CONTINUOUS
 62
     5
 10
-933.774565603137
 20
66.7818093946731
 30
0.0
 11
-933.774565603137
 21
68.6618093899047
 31
0.0
  0
LINE
  5
   541
  8
0
  6
CONTINUOUS
 62
     2
 10
-925.079565625191
 20
68.6618093899047
 30
0.0
 11
-925.079565625191
 21
76.1818093708312
 31
0.0
  0
LINE
  5
   542
  8
0
  6
CONTINUOUS
 62
     2
 10
-936.359565596581
 20
68.6618093899047
 30
0.0
 11
-936.359565596581
 21
76.1818093708312
 31
0.0
  0
LINE
  5
   543
  8
0
  6
CONTINUOUS
 62
     2
 10
-925.079565625191
 20
76.1818093708312
 30
0.0
 11
-936.359565596581
 21
76.1818093708312
 31
0.0
  0
LINE
  5
   544
  8
0
  6
CONTINUOUS
 62
     2
 10
-925.079565625191
 20
68.6618093899047
 30
0.0
 11
-936.359565596581
 21
68.6618093899047
 31
0.0
  0
LINE
  5
   545
  8
0
  6
CONTINUOUS
 62
     7
 10
-924.727065626085
 20
69.0143093890106
 30
0.0
 11
-936.712065595687
 21
69.0143093890106
 31
0.0
  0
LINE
  5
   546
  8
0
  6
CONTINUOUS
 62
     2
 10
-924.727065626085
 20
75.8293093717253
 30
0.0
 11
-936.712065595687
 21
75.8293093717253
 31
0.0
  0
LINE
  5
   547
  8
0
  6
CONTINUOUS
 62
     5
 10
-931.424565609097
 20
67.7218093922889
 30
0.0
 11
-931.424565609097
 21
68.6618093899047
 31
0.0
  0
LINE
  5
   548
  8
0
  6
CONTINUOUS
 62
   130
 10
-922.259565632343
 20
62.199309406296
 30
0.0
 11
-922.259565632343
 21
82.8793093538439
 31
0.0
  0
LINE
  5
   549
  8
0
  6
CONTINUOUS
 62
   130
 10
-923.434565629363
 20
62.5518094054019
 30
0.0
 11
-923.434565629363
 21
82.5268093547379
 31
0.0
  0
LINE
  5
   54A
  8
0
  6
CONTINUOUS
 62
   130
 10
-922.847065630853
 20
83.4668093523537
 30
0.0
 11
-938.239565591812
 21
83.4668093523537
 31
0.0
  0
INSERT
  5
   54B
  8
0
  6
CONTINUOUS
 62
     7
  2
*HATCH188
 10
-941.999572753906
 20
-50.5946159362793
 30
0.0
 41
0.469999998807907
 42
0.469999998807907
 50
89.9999999480344
 43
0.469999998807907
  0
INSERT
  5
   54C
  8
0
  6
CONTINUOUS
 62
     7
  2
*HATCH189
 10
-941.999572753906
 20
-50.5946159362793
 30
0.0
 41
0.469999998807907
 42
0.469999998807907
 50
89.9999999480344
 43
0.469999998807907
  0
INSERT
  5
   54D
  8
0
  6
CONTINUOUS
 62
     7
  2
*HATCH190
 10
-941.999572753906
 20
-50.5946159362793
 30
0.0
 41
0.469999998807907
 42
0.469999998807907
 50
89.9999999480344
 43
0.469999998807907
  0
LINE
  5
   54E
  8
0
  6
CONTINUOUS
 62
   130
 10
-922.847065630853
 20
61.6118094077861
 30
0.0
 11
-941.999608612064
 21
61.6118094077861
 31
0.0
  0
LINE
  5
   54F
  8
0
  6
CONTINUOUS
 62
   130
 10
-923.434565629363
 20
62.5518094054019
 30
0.0
 11
-942.93960860968
 21
62.5518094054019
 31
0.0
  0
ARC
  5
   550
  8
0
  6
CONTINUOUS
 62
   130
 10
-922.847065630853
 20
82.8793093538439
 30
0.0
 40
0.587499998509884
 50
359.999999948034
 51
449.999999948034
  0
ARC
  5
   551
  8
0
  6
CONTINUOUS
 62
   130
 10
-922.847065630853
 20
62.199309406296
 30
0.0
 40
0.587499998509884
 50
269.999999948034
 51
359.999999948034
  0
LINE
  5
   552
  8
0
  6
CONTINUOUS
 62
   130
 10
-964.559565525055
 20
61.6118094077861
 30
0.0
 11
-964.559565525055
 21
83.4668093523537
 31
0.0
  0
LINE
  5
   553
  8
0
  6
CONTINUOUS
 62
   130
 10
-941.999608612064
 20
59.9668094119584
 30
0.0
 11
-941.999608612064
 21
61.6118094077861
 31
0.0
  0
LINE
  5
   554
  8
0
  6
CONTINUOUS
 62
   130
 10
-942.93960860968
 20
60.9068094095742
 30
0.0
 11
-942.93960860968
 21
62.5518094054019
 31
0.0
  0
LINE
  5
   555
  8
0
  6
CONTINUOUS
 62
   130
 10
-942.93960860968
 20
60.9068094095742
 30
0.0
 11
-948.655244646747
 21
60.9068094095742
 31
0.0
  0
LINE
  5
   556
  8
0
  6
CONTINUOUS
 62
   130
 10
-923.434565629363
 20
82.5268093547379
 30
0.0
 11
-938.239565591812
 21
82.5268093547379
 31
0.0
  0
LINE
  5
   557
  8
0
  6
CONTINUOUS
 62
   130
 10
-926.489565621615
 20
81.5868093571221
 30
0.0
 11
-938.239565591812
 21
81.5868093571221
 31
0.0
  0
LINE
  5
   558
  8
0
  6
CONTINUOUS
 62
   130
 10
-923.434565629363
 20
80.6468093595063
 30
0.0
 11
-938.239565591812
 21
80.6468093595063
 31
0.0
  0
LINE
  5
   559
  8
0
  6
CONTINUOUS
 62
   130
 10
-926.489565621615
 20
81.5868093571221
 30
0.0
 11
-926.489565621615
 21
82.5268093547379
 31
0.0
  0
LINE
  5
   55A
  8
0
  6
CONTINUOUS
 62
   130
 10
-927.42956561923
 20
82.5268093547379
 30
0.0
 11
-927.42956561923
 21
83.4668093523537
 31
0.0
  0
LINE
  5
   55B
  8
0
  6
CONTINUOUS
 62
     2
 10
-937.064565594792
 20
69.3668093881166
 30
0.0
 11
-937.064565594792
 21
75.4768093726193
 31
0.0
  0
LINE
  5
   55C
  8
0
  6
CONTINUOUS
 62
     5
 10
-935.654565598369
 20
66.7818093946731
 30
0.0
 11
-935.654565598369
 21
68.6618093899047
 31
0.0
  0
INSERT
  5
   55D
  8
0
  6
CONTINUOUS
 62
     7
  2
*HATCH191
 10
-941.999572753906
 20
-50.5946159362793
 30
0.0
 41
0.469999998807907
 42
0.469999998807907
 50
89.9999999480344
 43
0.469999998807907
  0
INSERT
  5
   55E
  8
0
  6
CONTINUOUS
 62
     7
  2
*HATCH192
 10
-941.999572753906
 20
-50.5946159362793
 30
0.0
 41
0.469999998807907
 42
0.469999998807907
 50
89.9999999480344
 43
0.469999998807907
  0
LINE
  5
   55F
  8
0
  6
CONTINUOUS
 62
     7
 10
-946.086648890619
 20
58.8714861287671
 30
0.0
 11
-954.924565549493
 21
65.8745411975632
 31
0.0
  0
INSERT
  5
   560
  8
0
  6
CONTINUOUS
 62
     7
  2
*HATCH193
 10
-941.999572753906
 20
-50.5946159362793
 30
0.0
 41
0.469999998807907
 42
0.469999998807907
 50
89.9999999480344
 43
0.469999998807907
  0
LINE
  5
   561
  8
0
  6
CONTINUOUS
 62
   130
 10
-959.389608567957
 20
61.1418094089781
 30
0.0
 11
-959.389608567957
 21
61.611809407786
 31
0.0
  0
LINE
  5
   562
  8
0
  6
CONTINUOUS
 62
   130
 10
-949.544960801695
 20
61.611809407786
 30
0.0
 11
-959.389608567956
 21
61.611809407786
 31
0.0
  0
LINE
  5
   563
  8
0
  6
CONTINUOUS
 62
   130
 10
-948.951816698396
 20
61.1418094089781
 30
0.0
 11
-959.389608567956
 21
61.1418094089781
 31
0.0
  0
LINE
  5
   564
  8
0
  6
CONTINUOUS
 62
   130
 10
-959.389608567956
 20
59.9668094119584
 30
0.0
 11
-964.559565525055
 21
61.6118094077861
 31
0.0
  0
LINE
  5
   565
  8
0
  6
CONTINUOUS
 62
     7
 10
-954.689565550089
 20
-59.4131598775519
 30
0.0
 11
-954.924565549493
 21
-59.4131598775519
 31
0.0
  0
LINE
  5
   566
  8
0
  6
CONTINUOUS
 62
     7
 10
-954.924565549493
 20
-83.2015496139139
 30
0.0
 11
-954.924565549493
 21
-65.3208916631567
 31
0.0
  0
LINE
  5
   567
  8
0
  6
CONTINUOUS
 62
     3
 10
-947.874565567374
 20
-66.2281598602666
 30
0.0
 11
-947.874565567374
 21
-64.6195144908658
 31
0.0
  0
LINE
  5
   568
  8
0
  6
CONTINUOUS
 62
     3
 10
-950.694565560222
 20
-77.9781598304642
 30
0.0
 11
-950.694565560222
 21
-73.7006801995297
 31
0.0
  0
LINE
  5
   569
  8
0
  6
CONTINUOUS
 62
     3
 10
-947.874565567374
 20
-77.9781598304642
 30
0.0
 11
-950.694565560222
 21
-77.9781598304642
 31
0.0
  0
LINE
  5
   56A
  8
0
  6
DASHDOT
 62
     7
 10
-946.384440079283
 20
-71.3981598471535
 30
0.0
 11
-955.670553518624
 21
-71.3981598471535
 31
0.0
  0
LINE
  5
   56B
  8
0
  6
CONTINUOUS
 62
     3
 10
-950.988315559477
 20
-64.1785632238907
 30
0.0
 11
-952.431443581493
 21
-63.3453728719044
 31
0.0
  0
LINE
  5
   56C
  8
0
  6
CONTINUOUS
 62
     3
 10
-949.519565563202
 20
-61.7702909196417
 30
0.0
 11
-950.054159782804
 21
-61.4616428030471
 31
0.0
  0
ARC
  5
   56D
  8
0
  6
CONTINUOUS
 62
     3
 10
-951.282065558732
 20
-64.6873531473235
 30
0.0
 40
0.587499998509884
 50
359.999999948034
 51
419.999999948035
  0
ARC
  5
   56E
  8
0
  6
CONTINUOUS
 62
     3
 10
-951.16456555903
 20
-64.6195144908658
 30
0.0
 40
3.28999999165535
 50
359.999999948034
 51
419.999999948035
  0
LINE
  5
   56F
  8
0
  6
CONTINUOUS
 62
     3
 10
-947.874565567374
 20
-73.7951598410739
 30
0.0
 11
-950.694565560222
 21
-73.7951598410739
 31
0.0
  0
LINE
  5
   570
  8
0
  6
CONTINUOUS
 62
     3
 10
-947.874565567374
 20
-69.0011598532332
 30
0.0
 11
-950.694565560222
 21
-69.0011598532332
 31
0.0
  0
LINE
  5
   571
  8
0
  6
CONTINUOUS
 62
   130
 10
-941.999608612062
 20
-59.4131598775519
 30
0.0
 11
-959.389608567957
 21
-59.4131598775519
 31
0.0
  0
INSERT
  5
   572
  8
0
  6
CONTINUOUS
 62
     7
  2
*HATCH194
 10
-941.999572753906
 20
-50.5946159362793
 30
0.0
 41
0.469999998807907
 42
0.469999998807907
 50
89.9999999480344
 43
0.469999998807907
  0
ARC
  5
   573
  8
0
  6
CONTINUOUS
 62
     5
 10
-951.16456555903
 20
-71.3981598471535
 30
0.0
 40
2.34999999403954
 50
281.53695898085
 51
438.463040915219
  0
LINE
  5
   574
  8
0
  6
CONTINUOUS
 62
     3
 10
-950.694565560222
 20
-69.0956394947774
 30
0.0
 11
-950.694565560222
 21
-64.6873531473235
 31
0.0
  0
LINE
  5
   575
  8
0
  6
CONTINUOUS
 62
     5
 10
-952.104565556646
 20
-77.5081598316563
 30
0.0
 11
-952.104565556646
 21
-66.2281598602666
 31
0.0
  0
ARC
  5
   576
  8
0
  6
CONTINUOUS
 62
     5
 10
-951.16456555903
 20
-71.3981598471535
 30
0.0
 40
0.939999997615814
 50
281.536958980849
 51
438.463040915219
  0
ARC
  5
   577
  8
0
  6
CONTINUOUS
 62
     5
 10
-950.694565560222
 20
-73.7006801995297
 30
0.0
 40
1.40999999642372
 50
101.53695898085
 51
179.999999948034
  0
ARC
  5
   578
  8
0
  6
CONTINUOUS
 62
     5
 10
-950.694565560222
 20
-69.0956394947774
 30
0.0
 40
1.40999999642372
 50
179.999999948034
 51
258.463040915219
  0
LINE
  5
   579
  8
0
  6
CONTINUOUS
 62
     5
 10
-931.424565609097
 20
-76.5681598340405
 30
0.0
 11
-931.424565609097
 21
-75.6281598364247
 31
0.0
  0
LINE
  5
   57A
  8
0
  6
CONTINUOUS
 62
     5
 10
-947.874565567374
 20
-66.2281598602666
 30
0.0
 11
-952.104565556646
 21
-66.2281598602666
 31
0.0
  0
LINE
  5
   57B
  8
0
  6
CONTINUOUS
 62
     5
 10
-932.364565606713
 20
-66.2281598602666
 30
0.0
 11
-939.649565588236
 21
-66.2281598602666
 31
0.0
  0
LINE
  5
   57C
  8
0
  6
CONTINUOUS
 62
     5
 10
-932.364565606713
 20
-77.5081598316563
 30
0.0
 11
-939.649565588236
 21
-77.5081598316563
 31
0.0
  0
LINE
  5
   57D
  8
0
  6
CONTINUOUS
 62
     5
 10
-950.694565560222
 20
-77.5081598316563
 30
0.0
 11
-952.104565556646
 21
-77.5081598316563
 31
0.0
  0
ARC
  5
   57E
  8
0
  6
CONTINUOUS
 62
     5
 10
-932.364565606713
 20
-76.5681598340406
 30
0.0
 40
0.939999997615814
 50
269.999999948034
 51
359.999999948034
  0
ARC
  5
   57F
  8
0
  6
CONTINUOUS
 62
     5
 10
-932.364565606713
 20
-67.1681598578824
 30
0.0
 40
0.939999997615814
 50
359.999999948034
 51
449.999999948034
  0
LINE
  5
   580
  8
0
  6
CONTINUOUS
 62
     5
 10
-935.654565598369
 20
-77.5081598316563
 30
0.0
 11
-935.654565598369
 21
-75.6281598364247
 31
0.0
  0
LINE
  5
   581
  8
0
  6
CONTINUOUS
 62
     5
 10
-933.774565603137
 20
-77.5081598316563
 30
0.0
 11
-933.774565603137
 21
-75.6281598364247
 31
0.0
  0
LINE
  5
   582
  8
0
  6
DASHDOT
 62
     7
 10
-921.645507594821
 20
-71.8681598459614
 30
0.0
 11
-943.569288962317
 21
-71.8681598459614
 31
0.0
  0
LINE
  5
   583
  8
0
  6
CONTINUOUS
 62
     1
 10
-937.769565593004
 20
-76.9206598331465
 30
0.0
 11
-939.649565588236
 21
-76.9206598331465
 31
0.0
  0
LINE
  5
   584
  8
0
  6
CONTINUOUS
 62
     1
 10
-938.944565590024
 20
-76.9206598331465
 30
0.0
 11
-938.944565590024
 21
-75.9806598355307
 31
0.0
  0
LINE
  5
   585
  8
0
  6
CONTINUOUS
 62
     1
 10
-937.769565593004
 20
-76.9206598331465
 30
0.0
 11
-937.769565593004
 21
-75.9806598355307
 31
0.0
  0
LINE
  5
   586
  8
0
  6
DASHDOT
 62
     7
 10
-937.33945763167
 20
-75.6281598364247
 30
0.0
 11
-940.688672786902
 21
-75.6281598364247
 31
0.0
  0
ARC
  5
   587
  8
0
  6
CONTINUOUS
 62
     1
 10
-938.797690590397
 20
-75.6281598364247
 30
0.0
 40
0.381874999031427
 50
112.619864896076
 51
247.380134999993
  0
LINE
  5
   588
  8
0
  6
CONTINUOUS
 62
     1
 10
-938.944565590024
 20
-75.2756598373188
 30
0.0
 11
-938.944565590024
 21
-71.8681598459615
 31
0.0
  0
ARC
  5
   589
  8
0
  6
CONTINUOUS
 62
     1
 10
-937.622690593377
 20
-75.6281598364247
 30
0.0
 40
0.381874999031427
 50
112.619864896076
 51
247.380134999993
  0
LINE
  5
   58A
  8
0
  6
CONTINUOUS
 62
     1
 10
-937.769565593004
 20
-75.2756598373188
 30
0.0
 11
-937.769565593004
 21
-74.6881598388089
 31
0.0
  0
LINE
  5
   58B
  8
0
  6
CONTINUOUS
 62
     1
 10
-938.944565590024
 20
-75.9806598355306
 30
0.0
 11
-939.649565588236
 21
-75.9806598355306
 31
0.0
  0
LINE
  5
   58C
  8
0
  6
CONTINUOUS
 62
     1
 10
-938.944565590024
 20
-75.2756598373188
 30
0.0
 11
-939.649565588236
 21
-75.2756598373188
 31
0.0
  0
LINE
  5
   58D
  8
0
  6
CONTINUOUS
 62
     1
 10
-937.064565594792
 20
-73.7481598411931
 30
0.0
 11
-938.474565591216
 21
-73.7481598411931
 31
0.0
  0
LINE
  5
   58E
  8
0
  6
CONTINUOUS
 62
     1
 10
-937.064565594792
 20
-74.4531598394049
 30
0.0
 11
-937.5345655936
 21
-74.4531598394049
 31
0.0
  0
ARC
  5
   58F
  8
0
  6
CONTINUOUS
 62
     1
 10
-937.5345655936
 20
-74.6881598388089
 30
0.0
 40
0.234999999403954
 50
89.9999999480344
 51
179.999999948034
  0
ARC
  5
   590
  8
0
  6
CONTINUOUS
 62
     1
 10
-938.474565591216
 20
-74.218159840001
 30
0.0
 40
0.469999998807907
 50
89.9999999480344
 51
179.999999948034
  0
LINE
  5
   591
  8
0
  6
CONTINUOUS
 62
     1
 10
-937.769565593004
 20
-66.8156598587764
 30
0.0
 11
-939.649565588236
 21
-66.8156598587764
 31
0.0
  0
LINE
  5
   592
  8
0
  6
CONTINUOUS
 62
     1
 10
-938.944565590024
 20
-67.7556598563923
 30
0.0
 11
-938.944565590024
 21
-66.8156598587765
 31
0.0
  0
LINE
  5
   593
  8
0
  6
CONTINUOUS
 62
     1
 10
-937.769565593004
 20
-67.7556598563923
 30
0.0
 11
-937.769565593004
 21
-66.8156598587765
 31
0.0
  0
LINE
  5
   594
  8
0
  6
DASHDOT
 62
     7
 10
-937.33945763167
 20
-68.1081598554982
 30
0.0
 11
-940.688672786902
 21
-68.1081598554982
 31
0.0
  0
ARC
  5
   595
  8
0
  6
CONTINUOUS
 62
     1
 10
-938.797690590397
 20
-68.1081598554982
 30
0.0
 40
0.381874999031427
 50
112.619864896076
 51
247.380134999993
  0
LINE
  5
   596
  8
0
  6
CONTINUOUS
 62
     1
 10
-938.944565590024
 20
-71.8681598459615
 30
0.0
 11
-938.944565590024
 21
-68.4606598546041
 31
0.0
  0
ARC
  5
   597
  8
0
  6
CONTINUOUS
 62
     1
 10
-937.622690593377
 20
-68.1081598554982
 30
0.0
 40
0.381874999031427
 50
112.619864896076
 51
247.380134999993
  0
LINE
  5
   598
  8
0
  6
CONTINUOUS
 62
     1
 10
-937.769565593004
 20
-69.048159853114
 30
0.0
 11
-937.769565593004
 21
-68.4606598546041
 31
0.0
  0
LINE
  5
   599
  8
0
  6
CONTINUOUS
 62
     1
 10
-938.944565590024
 20
-67.7556598563923
 30
0.0
 11
-939.649565588236
 21
-67.7556598563923
 31
0.0
  0
LINE
  5
   59A
  8
0
  6
CONTINUOUS
 62
     1
 10
-938.944565590024
 20
-68.4606598546041
 30
0.0
 11
-939.649565588236
 21
-68.4606598546041
 31
0.0
  0
LINE
  5
   59B
  8
0
  6
CONTINUOUS
 62
     1
 10
-937.064565594792
 20
-69.9881598507298
 30
0.0
 11
-938.474565591216
 21
-69.9881598507298
 31
0.0
  0
LINE
  5
   59C
  8
0
  6
CONTINUOUS
 62
     1
 10
-937.064565594792
 20
-69.283159852518
 30
0.0
 11
-937.5345655936
 21
-69.283159852518
 31
0.0
  0
ARC
  5
   59D
  8
0
  6
CONTINUOUS
 62
     1
 10
-937.5345655936
 20
-69.048159853114
 30
0.0
 40
0.234999999403954
 50
179.999999948034
 51
269.999999948034
  0
ARC
  5
   59E
  8
0
  6
CONTINUOUS
 62
     1
 10
-938.474565591216
 20
-69.5181598519219
 30
0.0
 40
0.469999998807907
 50
179.999999948034
 51
269.999999948034
  0
LINE
  5
   59F
  8
0
  6
CONTINUOUS
 62
     2
 10
-924.374565626979
 20
-74.9231598382128
 30
0.0
 11
-924.374565626979
 21
-68.8131598537101
 31
0.0
  0
LINE
  5
   5A0
  8
0
  6
CONTINUOUS
 62
     7
 10
-934.949565600157
 20
-75.6281598364247
 30
0.0
 11
-935.654565598369
 21
-75.6281598364247
 31
0.0
  0
LINE
  5
   5A1
  8
0
  6
CONTINUOUS
 62
     7
 10
-934.949565600157
 20
-68.1081598554982
 30
0.0
 11
-935.654565598369
 21
-68.1081598554982
 31
0.0
  0
LINE
  5
   5A2
  8
0
  6
CONTINUOUS
 62
     2
 10
-925.079565625191
 20
-75.6281598364247
 30
0.0
 11
-924.374565626979
 21
-74.9231598382128
 31
0.0
  0
LINE
  5
   5A3
  8
0
  6
CONTINUOUS
 62
     2
 10
-924.374565626979
 20
-68.8131598537101
 30
0.0
 11
-925.079565625191
 21
-68.1081598554982
 31
0.0
  0
LINE
  5
   5A4
  8
0
  6
CONTINUOUS
 62
     2
 10
-937.064565594792
 20
-68.8131598537101
 30
0.0
 11
-936.359565596581
 21
-68.1081598554982
 31
0.0
  0
LINE
  5
   5A5
  8
0
  6
CONTINUOUS
 62
     2
 10
-936.359565596581
 20
-75.6281598364247
 30
0.0
 11
-937.064565594792
 21
-74.9231598382129
 31
0.0
  0
LINE
  5
   5A6
  8
0
  6
CONTINUOUS
 62
     5
 10
-933.774565603137
 20
-68.1081598554982
 30
0.0
 11
-933.774565603137
 21
-66.2281598602666
 31
0.0
  0
LINE
  5
   5A7
  8
0
  6
CONTINUOUS
 62
     2
 10
-925.079565625191
 20
-75.6281598364247
 30
0.0
 11
-925.079565625191
 21
-68.1081598554982
 31
0.0
  0
LINE
  5
   5A8
  8
0
  6
CONTINUOUS
 62
     2
 10
-936.359565596581
 20
-75.6281598364247
 30
0.0
 11
-936.359565596581
 21
-68.1081598554982
 31
0.0
  0
LINE
  5
   5A9
  8
0
  6
CONTINUOUS
 62
     2
 10
-925.079565625191
 20
-75.6281598364247
 30
0.0
 11
-936.359565596581
 21
-75.6281598364247
 31
0.0
  0
LINE
  5
   5AA
  8
0
  6
CONTINUOUS
 62
     2
 10
-925.079565625191
 20
-68.1081598554982
 30
0.0
 11
-936.359565596581
 21
-68.1081598554982
 31
0.0
  0
LINE
  5
   5AB
  8
0
  6
CONTINUOUS
 62
     7
 10
-924.727065626085
 20
-68.4606598546041
 30
0.0
 11
-936.712065595687
 21
-68.4606598546041
 31
0.0
  0
LINE
  5
   5AC
  8
0
  6
CONTINUOUS
 62
     2
 10
-924.727065626085
 20
-75.2756598373188
 30
0.0
 11
-936.712065595687
 21
-75.2756598373188
 31
0.0
  0
LINE
  5
   5AD
  8
0
  6
CONTINUOUS
 62
     5
 10
-931.424565609097
 20
-68.1081598554982
 30
0.0
 11
-931.424565609097
 21
-67.1681598578824
 31
0.0
  0
LINE
  5
   5AE
  8
0
  6
CONTINUOUS
 62
   130
 10
-922.259565632343
 20
-82.3256598194374
 30
0.0
 11
-922.259565632343
 21
-61.6456598718895
 31
0.0
  0
LINE
  5
   5AF
  8
0
  6
CONTINUOUS
 62
   130
 10
-923.434565629363
 20
-81.9731598203315
 30
0.0
 11
-923.434565629363
 21
-61.9981598709954
 31
0.0
  0
LINE
  5
   5B0
  8
0
  6
CONTINUOUS
 62
   130
 10
-922.847065630853
 20
-82.9131598179472
 30
0.0
 11
-938.239565591812
 21
-82.9131598179472
 31
0.0
  0
INSERT
  5
   5B1
  8
0
  6
CONTINUOUS
 62
     7
  2
*HATCH195
 10
-941.999572753906
 20
-50.5946159362793
 30
0.0
 41
0.469999998807907
 42
0.469999998807907
 50
89.9999999480344
 43
0.469999998807907
  0
INSERT
  5
   5B2
  8
0
  6
CONTINUOUS
 62
     7
  2
*HATCH196
 10
-941.999572753906
 20
-50.5946159362793
 30
0.0
 41
0.469999998807907
 42
0.469999998807907
 50
89.9999999480344
 43
0.469999998807907
  0
INSERT
  5
   5B3
  8
0
  6
CONTINUOUS
 62
     7
  2
*HATCH197
 10
-941.999572753906
 20
-50.5946159362793
 30
0.0
 41
0.469999998807907
 42
0.469999998807907
 50
89.9999999480344
 43
0.469999998807907
  0
LINE
  5
   5B4
  8
0
  6
CONTINUOUS
 62
   130
 10
-922.847065630853
 20
-61.0581598733796
 30
0.0
 11
-941.999608612064
 21
-61.0581598733796
 31
0.0
  0
LINE
  5
   5B5
  8
0
  6
CONTINUOUS
 62
   130
 10
-923.434565629363
 20
-61.9981598709954
 30
0.0
 11
-942.93960860968
 21
-61.9981598709954
 31
0.0
  0
ARC
  5
   5B6
  8
0
  6
CONTINUOUS
 62
   130
 10
-922.847065630853
 20
-82.3256598194374
 30
0.0
 40
0.587499998509884
 50
269.999999948034
 51
359.999999948034
  0
ARC
  5
   5B7
  8
0
  6
CONTINUOUS
 62
   130
 10
-922.847065630853
 20
-61.6456598718895
 30
0.0
 40
0.587499998509884
 50
359.999999948034
 51
449.999999948034
  0
LINE
  5
   5B8
  8
0
  6
CONTINUOUS
 62
   130
 10
-964.559565525055
 20
-82.9131598179473
 30
0.0
 11
-964.559565525055
 21
-61.0581598733796
 31
0.0
  0
LINE
  5
   5B9
  8
0
  6
CONTINUOUS
 62
   130
 10
-941.999608612064
 20
-61.0581598733796
 30
0.0
 11
-941.999608612064
 21
-59.4131598775519
 31
0.0
  0
LINE
  5
   5BA
  8
0
  6
CONTINUOUS
 62
   130
 10
-942.93960860968
 20
-61.9981598709954
 30
0.0
 11
-942.93960860968
 21
-60.3531598751677
 31
0.0
  0
LINE
  5
   5BB
  8
0
  6
CONTINUOUS
 62
   130
 10
-942.93960860968
 20
-60.3531598751677
 30
0.0
 11
-948.655244646747
 21
-60.3531598751677
 31
0.0
  0
LINE
  5
   5BC
  8
0
  6
CONTINUOUS
 62
   130
 10
-923.434565629363
 20
-81.9731598203314
 30
0.0
 11
-938.239565591812
 21
-81.9731598203314
 31
0.0
  0
LINE
  5
   5BD
  8
0
  6
CONTINUOUS
 62
   130
 10
-926.489565621615
 20
-81.0331598227156
 30
0.0
 11
-938.239565591812
 21
-81.0331598227156
 31
0.0
  0
LINE
  5
   5BE
  8
0
  6
CONTINUOUS
 62
   130
 10
-923.434565629363
 20
-80.0931598250998
 30
0.0
 11
-938.239565591812
 21
-80.0931598250998
 31
0.0
  0
LINE
  5
   5BF
  8
0
  6
CONTINUOUS
 62
   130
 10
-926.489565621615
 20
-81.9731598203315
 30
0.0
 11
-926.489565621615
 21
-81.0331598227157
 31
0.0
  0
LINE
  5
   5C0
  8
0
  6
CONTINUOUS
 62
   130
 10
-927.42956561923
 20
-82.9131598179473
 30
0.0
 11
-927.42956561923
 21
-81.9731598203315
 31
0.0
  0
LINE
  5
   5C1
  8
0
  6
CONTINUOUS
 62
     2
 10
-937.064565594792
 20
-74.9231598382129
 30
0.0
 11
-937.064565594792
 21
-68.8131598537101
 31
0.0
  0
LINE
  5
   5C2
  8
0
  6
CONTINUOUS
 62
     5
 10
-935.654565598369
 20
-68.1081598554982
 30
0.0
 11
-935.654565598369
 21
-66.2281598602666
 31
0.0
  0
INSERT
  5
   5C3
  8
0
  6
CONTINUOUS
 62
     7
  2
*HATCH198
 10
-941.999572753906
 20
-50.5946159362793
 30
0.0
 41
0.469999998807907
 42
0.469999998807907
 50
89.9999999480344
 43
0.469999998807907
  0
INSERT
  5
   5C4
  8
0
  6
CONTINUOUS
 62
     7
  2
*HATCH199
 10
-941.999572753906
 20
-50.5946159362793
 30
0.0
 41
0.469999998807907
 42
0.469999998807907
 50
89.9999999480344
 43
0.469999998807907
  0
LINE
  5
   5C5
  8
0
  6
CONTINUOUS
 62
     7
 10
-954.924565549493
 20
-65.3208916631567
 30
0.0
 11
-946.086648890619
 21
-58.3178365943606
 31
0.0
  0
INSERT
  5
   5C6
  8
0
  6
CONTINUOUS
 62
     7
  2
*HATCH200
 10
-941.999572753906
 20
-50.5946159362793
 30
0.0
 41
0.469999998807907
 42
0.469999998807907
 50
89.9999999480344
 43
0.469999998807907
  0
LINE
  5
   5C7
  8
0
  6
CONTINUOUS
 62
   130
 10
-959.389608567957
 20
-61.0581598733796
 30
0.0
 11
-959.389608567957
 21
-60.5881598745716
 31
0.0
  0
LINE
  5
   5C8
  8
0
  6
CONTINUOUS
 62
   130
 10
-949.544960801695
 20
-61.0581598733795
 30
0.0
 11
-959.389608567956
 21
-61.0581598733795
 31
0.0
  0
LINE
  5
   5C9
  8
0
  6
CONTINUOUS
 62
   130
 10
-948.951816698396
 20
-60.5881598745716
 30
0.0
 11
-959.389608567956
 21
-60.5881598745716
 31
0.0
  0
LINE
  5
   5CA
  8
0
  6
CONTINUOUS
 62
   130
 10
-964.559565525055
 20
-61.0581598733796
 30
0.0
 11
-959.389608567957
 21
-59.4131598775519
 31
0.0
  0
LINE
  5
   5CB
  8
0
  6
CONTINUOUS
 62
   130
 10
-949.284565563798
 20
83.4668093523537
 30
0.0
 11
-964.559565525055
 21
83.4668093523537
 31
0.0
  0
LINE
  5
   5CC
  8
0
  6
CONTINUOUS
 62
   130
 10
-949.284565563798
 20
82.5268093547379
 30
0.0
 11
-964.559565525055
 21
82.5268093547379
 31
0.0
  0
LINE
  5
   5CD
  8
0
  6
CONTINUOUS
 62
   130
 10
-949.284565563798
 20
81.5868093571221
 30
0.0
 11
-964.559565525055
 21
81.5868093571221
 31
0.0
  0
LINE
  5
   5CE
  8
0
  6
CONTINUOUS
 62
   130
 10
-949.284565563798
 20
80.6468093595063
 30
0.0
 11
-964.559565525055
 21
80.6468093595063
 31
0.0
  0
LINE
  5
   5CF
  8
0
  6
CONTINUOUS
 62
     7
 10
-962.152706245894
 20
91.718323845045
 30
0.0
 11
-971.714964506894
 21
91.798678956482
 31
0.0
  0
LINE
  5
   5D0
  8
0
  6
CONTINUOUS
 62
   130
 10
-949.284565563798
 20
-80.0931598250998
 30
0.0
 11
-964.559565525055
 21
-80.0931598250998
 31
0.0
  0
LINE
  5
   5D1
  8
0
  6
CONTINUOUS
 62
   130
 10
-949.284565563798
 20
-81.0331598227156
 30
0.0
 11
-964.559565525055
 21
-81.0331598227156
 31
0.0
  0
LINE
  5
   5D2
  8
0
  6
CONTINUOUS
 62
   130
 10
-949.284565563798
 20
-81.9731598203314
 30
0.0
 11
-964.559565525055
 21
-81.9731598203314
 31
0.0
  0
LINE
  5
   5D3
  8
0
  6
CONTINUOUS
 62
   130
 10
-949.284565563798
 20
-82.9131598179472
 30
0.0
 11
-964.559565525055
 21
-82.9131598179472
 31
0.0
  0
LINE
  5
   5D4
  8
0
  6
CONTINUOUS
 62
     7
 10
-960.465248905717
 20
-89.5628075567738
 30
0.0
 11
-970.268572501029
 21
-89.3217422224629
 31
0.0
  0
LINE
  5
   5D5
  8
0
  6
CONTINUOUS
 62
   218
 10
-939.649565588236
 20
66.7818093946731
 30
0.0
 11
-947.874565567374
 21
66.7818093946731
 31
0.0
  0
LINE
  5
   5D6
  8
0
  6
CONTINUOUS
 62
   218
 10
-947.874565567374
 20
66.7818093946731
 30
0.0
 11
-947.874565567374
 21
79.4718093624865
 31
0.0
  0
LINE
  5
   5D7
  8
0
  6
CONTINUOUS
 62
   218
 10
-939.649565588236
 20
66.7818093946731
 30
0.0
 11
-939.649565588236
 21
79.4718093624865
 31
0.0
  0
LINE
  5
   5D8
  8
0
  6
CONTINUOUS
 62
   218
 10
-949.284565563798
 20
79.4718093624865
 30
0.0
 11
-949.284565563798
 21
93.8068093261277
 31
0.0
  0
LINE
  5
   5D9
  8
0
  6
CONTINUOUS
 62
   218
 10
-938.239565591812
 20
79.4718093624865
 30
0.0
 11
-938.239565591812
 21
93.8068093261277
 31
0.0
  0
LINE
  5
   5DA
  8
0
  6
CONTINUOUS
 62
   218
 10
-938.239565591812
 20
79.4718093624865
 30
0.0
 11
-949.284565563798
 21
79.4718093624865
 31
0.0
  0
LINE
  5
   5DB
  8
0
  6
DASHDOT
 62
   218
 10
-943.762065577805
 20
65.4258475823916
 30
0.0
 11
-943.762065577805
 21
96.7976169619927
 31
0.0
  0
LINE
  5
   5DC
  8
0
  6
CONTINUOUS
 62
   218
 10
-943.762065577805
 20
66.7818093946731
 30
0.0
 11
-941.52447619829
 21
79.4718093624865
 31
0.0
  0
LINE
  5
   5DD
  8
0
  6
CONTINUOUS
 62
   218
 10
-944.477941337369
 20
66.7818093946731
 30
0.0
 11
-942.240351957854
 21
79.4718093624865
 31
0.0
  0
LINE
  5
   5DE
  8
0
  6
CONTINUOUS
 62
   218
 10
-945.193817096933
 20
66.7818093946731
 30
0.0
 11
-942.956227717418
 21
79.4718093624865
 31
0.0
  0
LINE
  5
   5DF
  8
0
  6
CONTINUOUS
 62
   218
 10
-945.909692856496
 20
66.7818093946731
 30
0.0
 11
-943.672103476981
 21
79.4718093624865
 31
0.0
  0
LINE
  5
   5E0
  8
0
  6
CONTINUOUS
 62
   218
 10
-946.62556861606
 20
66.7818093946731
 30
0.0
 11
-944.387979236545
 21
79.4718093624865
 31
0.0
  0
LINE
  5
   5E1
  8
0
  6
CONTINUOUS
 62
   218
 10
-947.341444375624
 20
66.7818093946731
 30
0.0
 11
-945.103854996109
 21
79.4718093624865
 31
0.0
  0
LINE
  5
   5E2
  8
0
  6
CONTINUOUS
 62
   218
 10
-947.874565567374
 20
67.818262052564
 30
0.0
 11
-945.819730755673
 21
79.4718093624865
 31
0.0
  0
LINE
  5
   5E3
  8
0
  6
CONTINUOUS
 62
   218
 10
-947.874565567374
 20
71.8781952328828
 30
0.0
 11
-946.535606515236
 21
79.4718093624865
 31
0.0
  0
LINE
  5
   5E4
  8
0
  6
CONTINUOUS
 62
   218
 10
-947.874565567374
 20
75.9381284132016
 30
0.0
 11
-947.2514822748
 21
79.4718093624866
 31
0.0
  0
LINE
  5
   5E5
  8
0
  6
CONTINUOUS
 62
   218
 10
-943.046189818241
 20
66.7818093946731
 30
0.0
 11
-940.808600438726
 21
79.4718093624865
 31
0.0
  0
LINE
  5
   5E6
  8
0
  6
CONTINUOUS
 62
   218
 10
-942.330314058678
 20
66.7818093946731
 30
0.0
 11
-940.092724679163
 21
79.4718093624865
 31
0.0
  0
LINE
  5
   5E7
  8
0
  6
CONTINUOUS
 62
   218
 10
-941.614438299114
 20
66.7818093946731
 30
0.0
 11
-939.649565588236
 21
77.9251562777385
 31
0.0
  0
LINE
  5
   5E8
  8
0
  6
CONTINUOUS
 62
   218
 10
-940.89856253955
 20
66.7818093946731
 30
0.0
 11
-939.649565588236
 21
73.8652230974196
 31
0.0
  0
LINE
  5
   5E9
  8
0
  6
CONTINUOUS
 62
   218
 10
-940.182686779987
 20
66.7818093946731
 30
0.0
 11
-939.649565588236
 21
69.8052899171008
 31
0.0
  0
POLYLINE
  5
   5EA
  8
0
  6
CONTINUOUS
 62
   218
 66
     1
 10
0.0
 20
0.0
 30
0.0
 70
     1
  0
VERTEX
  5
   5EB
  8
0
  6
CONTINUOUS
 10
-949.284565563798
 20
93.8068093261242
 30
0.0
 40
0.0
 41
0.0
  0
VERTEX
  5
   5EC
  8
0
  6
CONTINUOUS
 10
-949.283733926925
 20
93.7779733826829
 30
0.0
 40
0.0
 41
0.0
  0
VERTEX
  5
   5ED
  8
0
  6
CONTINUOUS
 10
-949.281239517253
 20
93.7491548089357
 30
0.0
 40
0.0
 41
0.0
  0
VERTEX
  5
   5EE
  8
0
  6
CONTINUOUS
 10
-949.277083837321
 20
93.7203709641138
 30
0.0
 40
0.0
 41
0.0
  0
VERTEX
  5
   5EF
  8
0
  6
CONTINUOUS
 10
-949.271269390355
 20
93.6916391865291
 30
0.0
 40
0.0
 41
0.0
  0
VERTEX
  5
   5F0
  8
0
  6
CONTINUOUS
 10
-949.263799678761
 20
93.66297678313
 30
0.0
 40
0.0
 41
0.0
  0
VERTEX
  5
   5F1
  8
0
  6
CONTINUOUS
 10
-949.254679202014
 20
93.6344010190765
 30
0.0
 40
0.0
 41
0.0
  0
VERTEX
  5
   5F2
  8
0
  6
CONTINUOUS
 10
-949.243913453947
 20
93.6059291073404
 30
0.0
 40
0.0
 41
0.0
  0
VERTEX
  5
   5F3
  8
0
  6
CONTINUOUS
 10
-949.231508919446
 20
93.5775781983367
 30
0.0
 40
0.0
 41
0.0
  0
VERTEX
  5
   5F4
  8
0
  6
CONTINUOUS
 10
-949.217473070537
 20
93.549365369593
 30
0.0
 40
0.0
 41
0.0
  0
VERTEX
  5
   5F5
  8
0
  6
CONTINUOUS
 10
-949.201814361891
 20
93.5213076154621
 30
0.0
 40
0.0
 41
0.0
  0
VERTEX
  5
   5F6
  8
0
  6
CONTINUOUS
 10
-949.184542225729
 20
93.4934218368862
 30
0.0
 40
0.0
 41
0.0
  0
VERTEX
  5
   5F7
  8
0
  6
CONTINUOUS
 10
-949.16566706614
 20
93.4657248312155
 30
0.0
 40
0.0
 41
0.0
  0
VERTEX
  5
   5F8
  8
0
  6
CONTINUOUS
 10
-949.145200252814
 20
93.4382332820905
 30
0.0
 40
0.0
 41
0.0
  0
VERTEX
  5
   5F9
  8
0
  6
CONTINUOUS
 10
-949.123154114194
 20
93.4109637493926
 30
0.0
 40
0.0
 41
0.0
  0
VERTEX
  5
   5FA
  8
0
  6
CONTINUOUS
 10
-949.099541930049
 20
93.3839326592684
 30
0.0
 40
0.0
 41
0.0
  0
VERTEX
  5
   5FB
  8
0
  6
CONTINUOUS
 10
-949.074377923477
 20
93.357156294236
 30
0.0
 40
0.0
 41
0.0
  0
VERTEX
  5
   5FC
  8
0
  6
CONTINUOUS
 10
-949.047677252335
 20
93.3306507833764
 30
0.0
 40
0.0
 41
0.0
  0
VERTEX
  5
   5FD
  8
0
  6
CONTINUOUS
 10
-949.019456000107
 20
93.3044320926182
 30
0.0
 40
0.0
 41
0.0
  0
VERTEX
  5
   5FE
  8
0
  6
CONTINUOUS
 10
-948.989731166221
 20
93.2785160151204
 30
0.0
 40
0.0
 41
0.0
  0
VERTEX
  5
   5FF
  8
0
  6
CONTINUOUS
 10
-948.958520655806
 20
93.2529181617589
 30
0.0
 40
0.0
 41
0.0
  0
VERTEX
  5
   600
  8
0
  6
CONTINUOUS
 10
-948.925843268906
 20
93.2276539517236
 30
0.0
 40
0.0
 41
0.0
  0
VERTEX
  5
   601
  8
0
  6
CONTINUOUS
 10
-948.891718689157
 20
93.2027386032298
 30
0.0
 40
0.0
 41
0.0
  0
VERTEX
  5
   602
  8
0
  6
CONTINUOUS
 10
-948.85616747193
 20
93.1781871243518
 30
0.0
 40
0.0
 41
0.0
  0
VERTEX
  5
   603
  8
0
  6
CONTINUOUS
 10
-948.819211031948
 20
93.1540143039825
 30
0.0
 40
0.0
 41
0.0
  0
VERTEX
  5
   604
  8
0
  6
CONTINUOUS
 10
-948.78087163039
 20
93.1302347029249
 30
0.0
 40
0.0
 41
0.0
  0
VERTEX
  5
   605
  8
0
  6
CONTINUOUS
 10
-948.741172361476
 20
93.1068626451216
 30
0.0
 40
0.0
 41
0.0
  0
VERTEX
  5
   606
  8
0
  6
CONTINUOUS
 10
-948.700137138563
 20
93.0839122090262
 30
0.0
 40
0.0
 41
0.0
  0
VERTEX
  5
   607
  8
0
  6
CONTINUOUS
 10
-948.657790679735
 20
93.0613972191233
 30
0.0
 40
0.0
 41
0.0
  0
VERTEX
  5
   608
  8
0
  6
CONTINUOUS
 10
-948.614158492913
 20
93.0393312376009
 30
0.0
 40
0.0
 41
0.0
  0
VERTEX
  5
   609
  8
0
  6
CONTINUOUS
 10
-948.569266860498
 20
93.0177275561813
 30
0.0
 40
0.0
 41
0.0
  0
VERTEX
  5
   60A
  8
0
  6
CONTINUOUS
 10
-948.523142823528
 20
92.9965991881141
 30
0.0
 40
0.0
 41
0.0
  0
VERTEX
  5
   60B
  8
0
  6
CONTINUOUS
 10
-948.427309395126
 20
92.9558190058157
 30
0.0
 40
0.0
 41
0.0
  0
VERTEX
  5
   60C
  8
0
  6
CONTINUOUS
 10
-948.326889078832
 20
92.9170889337369
 30
0.0
 40
0.0
 41
0.0
  0
VERTEX
  5
   60D
  8
0
  6
CONTINUOUS
 10
-948.222123795982
 20
92.8805022760137
 30
0.0
 40
0.0
 41
0.0
  0
VERTEX
  5
   60E
  8
0
  6
CONTINUOUS
 10
-948.11326593532
 20
92.8461471731092
 30
0.0
 40
0.0
 41
0.0
  0
VERTEX
  5
   60F
  8
0
  6
CONTINUOUS
 10
-948.000577744967
 20
92.8141063894753
 30
0.0
 40
0.0
 41
0.0
  0
VERTEX
  5
   610
  8
0
  6
CONTINUOUS
 10
-947.884330700643
 20
92.7844571141663
 30
0.0
 40
0.0
 41
0.0
  0
VERTEX
  5
   611
  8
0
  6
CONTINUOUS
 10
-947.76480485166
 20
92.7572707748834
 30
0.0
 40
0.0
 41
0.0
  0
VERTEX
  5
   612
  8
0
  6
CONTINUOUS
 10
-947.70390206954
 20
92.7446219094003
 30
0.0
 40
0.0
 41
0.0
  0
VERTEX
  5
   613
  8
0
  6
CONTINUOUS
 10
-947.580000195738
 20
92.721250878179
 30
0.0
 40
0.0
 41
0.0
  0
VERTEX
  5
   614
  8
0
  6
CONTINUOUS
 10
-947.45355267612
 20
92.7004950523425
 30
0.0
 40
0.0
 41
0.0
  0
VERTEX
  5
   615
  8
0
  6
CONTINUOUS
 10
-947.324864133836
 20
92.6824044344932
 30
0.0
 40
0.0
 41
0.0
  0
VERTEX
  5
   616
  8
0
  6
CONTINUOUS
 10
-947.194244590856
 20
92.6670226065142
 30
0.0
 40
0.0
 41
0.0
  0
VERTEX
  5
   617
  8
0
  6
CONTINUOUS
 10
-947.062008721101
 20
92.6543866245762
 30
0.0
 40
0.0
 41
0.0
  0
VERTEX
  5
   618
  8
0
  6
CONTINUOUS
 10
-946.928475092362
 20
92.6445269298666
 30
0.0
 40
0.0
 41
0.0
  0
VERTEX
  5
   619
  8
0
  6
CONTINUOUS
 10
-946.793965398849
 20
92.6374672752534
 30
0.0
 40
0.0
 41
0.0
  0
VERTEX
  5
   61A
  8
0
  6
CONTINUOUS
 10
-946.658803686193
 20
92.6332246680631
 30
0.0
 40
0.0
 41
0.0
  0
VERTEX
  5
   61B
  8
0
  6
CONTINUOUS
 10
-946.5233155708
 20
92.6318093291079
 30
0.0
 40
0.0
 41
0.0
  0
VERTEX
  5
   61C
  8
0
  6
CONTINUOUS
 10
-946.387827455407
 20
92.6332246680634
 30
0.0
 40
0.0
 41
0.0
  0
VERTEX
  5
   61D
  8
0
  6
CONTINUOUS
 10
-946.252665742752
 20
92.6374672752541
 30
0.0
 40
0.0
 41
0.0
  0
VERTEX
  5
   61E
  8
0
  6
CONTINUOUS
 10
-946.118156049238
 20
92.6445269298675
 30
0.0
 40
0.0
 41
0.0
  0
VERTEX
  5
   61F
  8
0
  6
CONTINUOUS
 10
-945.984622420499
 20
92.6543866245775
 30
0.0
 40
0.0
 41
0.0
  0
VERTEX
  5
   620
  8
0
  6
CONTINUOUS
 10
-945.852386550744
 20
92.6670226065158
 30
0.0
 40
0.0
 41
0.0
  0
VERTEX
  5
   621
  8
0
  6
CONTINUOUS
 10
-945.721767007764
 20
92.6824044344952
 30
0.0
 40
0.0
 41
0.0
  0
VERTEX
  5
   622
  8
0
  6
CONTINUOUS
 10
-945.59307846548
 20
92.7004950523448
 30
0.0
 40
0.0
 41
0.0
  0
VERTEX
  5
   623
  8
0
  6
CONTINUOUS
 10
-945.466630945862
 20
92.7212508781816
 30
0.0
 40
0.0
 41
0.0
  0
VERTEX
  5
   624
  8
0
  6
CONTINUOUS
 10
-945.34272907206
 20
92.7446219094032
 30
0.0
 40
0.0
 41
0.0
  0
VERTEX
  5
   625
  8
0
  6
CONTINUOUS
 10
-945.221671334541
 20
92.7705518431483
 30
0.0
 40
0.0
 41
0.0
  0
VERTEX
  5
   626
  8
0
  6
CONTINUOUS
 10
-945.103749371997
 20
92.7989782119354
 30
0.0
 40
0.0
 41
0.0
  0
VERTEX
  5
   627
  8
0
  6
CONTINUOUS
 10
-944.989247268766
 20
92.8298325341521
 30
0.0
 40
0.0
 41
0.0
  0
VERTEX
  5
   628
  8
0
  6
CONTINUOUS
 10
-944.878440870443
 20
92.8630404790337
 30
0.0
 40
0.0
 41
0.0
  0
VERTEX
  5
   629
  8
0
  6
CONTINUOUS
 10
-944.771597119347
 20
92.8985220457324
 30
0.0
 40
0.0
 41
0.0
  0
VERTEX
  5
   62A
  8
0
  6
CONTINUOUS
 10
-944.668973411432
 20
92.9361917560462
 30
0.0
 40
0.0
 41
0.0
  0
VERTEX
  5
   62B
  8
0
  6
CONTINUOUS
 10
-944.570816976201
 20
92.9759588603433
 30
0.0
 40
0.0
 41
0.0
  0
VERTEX
  5
   62C
  8
0
  6
CONTINUOUS
 10
-944.523488318073
 20
92.9965991881191
 30
0.0
 40
0.0
 41
0.0
  0
VERTEX
  5
   62D
  8
0
  6
CONTINUOUS
 10
-944.477364281103
 20
93.0177275561864
 30
0.0
 40
0.0
 41
0.0
  0
VERTEX
  5
   62E
  8
0
  6
CONTINUOUS
 10
-944.432472648688
 20
93.0393312376062
 30
0.0
 40
0.0
 41
0.0
  0
VERTEX
  5
   62F
  8
0
  6
CONTINUOUS
 10
-944.388840461867
 20
93.0613972191287
 30
0.0
 40
0.0
 41
0.0
  0
VERTEX
  5
   630
  8
0
  6
CONTINUOUS
 10
-944.346494003038
 20
93.0839122090317
 30
0.0
 40
0.0
 41
0.0
  0
VERTEX
  5
   631
  8
0
  6
CONTINUOUS
 10
-944.305458780125
 20
93.1068626451272
 30
0.0
 40
0.0
 41
0.0
  0
VERTEX
  5
   632
  8
0
  6
CONTINUOUS
 10
-944.265759511212
 20
93.1302347029306
 30
0.0
 40
0.0
 41
0.0
  0
VERTEX
  5
   633
  8
0
  6
CONTINUOUS
 10
-944.227420109654
 20
93.1540143039883
 30
0.0
 40
0.0
 41
0.0
  0
VERTEX
  5
   634
  8
0
  6
CONTINUOUS
 10
-944.190463669672
 20
93.1781871243577
 30
0.0
 40
0.0
 41
0.0
  0
VERTEX
  5
   635
  8
0
  6
CONTINUOUS
 10
-944.154912452445
 20
93.2027386032358
 30
0.0
 40
0.0
 41
0.0
  0
VERTEX
  5
   636
  8
0
  6
CONTINUOUS
 10
-944.120787872696
 20
93.2276539517296
 30
0.0
 40
0.0
 41
0.0
  0
VERTEX
  5
   637
  8
0
  6
CONTINUOUS
 10
-944.088110485796
 20
93.2529181617651
 30
0.0
 40
0.0
 41
0.0
  0
VERTEX
  5
   638
  8
0
  6
CONTINUOUS
 10
-944.056899975381
 20
93.2785160151265
 30
0.0
 40
0.0
 41
0.0
  0
VERTEX
  5
   639
  8
0
  6
CONTINUOUS
 10
-944.027175141495
 20
93.3044320926244
 30
0.0
 40
0.0
 41
0.0
  0
VERTEX
  5
   63A
  8
0
  6
CONTINUOUS
 10
-943.998953889267
 20
93.3306507833827
 30
0.0
 40
0.0
 41
0.0
  0
VERTEX
  5
   63B
  8
0
  6
CONTINUOUS
 10
-943.972253218125
 20
93.3571562942424
 30
0.0
 40
0.0
 41
0.0
  0
VERTEX
  5
   63C
  8
0
  6
CONTINUOUS
 10
-943.947089211553
 20
93.3839326592749
 30
0.0
 40
0.0
 41
0.0
  0
VERTEX
  5
   63D
  8
0
  6
CONTINUOUS
 10
-943.923477027409
 20
93.4109637493991
 30
0.0
 40
0.0
 41
0.0
  0
VERTEX
  5
   63E
  8
0
  6
CONTINUOUS
 10
-943.901430888789
 20
93.4382332820971
 30
0.0
 40
0.0
 41
0.0
  0
VERTEX
  5
   63F
  8
0
  6
CONTINUOUS
 10
-943.880964075463
 20
93.4657248312221
 30
0.0
 40
0.0
 41
0.0
  0
VERTEX
  5
   640
  8
0
  6
CONTINUOUS
 10
-943.862088915873
 20
93.4934218368929
 30
0.0
 40
0.0
 41
0.0
  0
VERTEX
  5
   641
  8
0
  6
CONTINUOUS
 10
-943.844816779712
 20
93.5213076154688
 30
0.0
 40
0.0
 41
0.0
  0
VERTEX
  5
   642
  8
0
  6
CONTINUOUS
 10
-943.829158071066
 20
93.5493653695997
 30
0.0
 40
0.0
 41
0.0
  0
VERTEX
  5
   643
  8
0
  6
CONTINUOUS
 10
-943.815122222157
 20
93.5775781983435
 30
0.0
 40
0.0
 41
0.0
  0
VERTEX
  5
   644
  8
0
  6
CONTINUOUS
 10
-943.802717687655
 20
93.6059291073472
 30
0.0
 40
0.0
 41
0.0
  0
VERTEX
  5
   645
  8
0
  6
CONTINUOUS
 10
-943.791951939589
 20
93.6344010190834
 30
0.0
 40
0.0
 41
0.0
  0
VERTEX
  5
   646
  8
0
  6
CONTINUOUS
 10
-943.782831462842
 20
93.6629767831369
 30
0.0
 40
0.0
 41
0.0
  0
VERTEX
  5
   647
  8
0
  6
CONTINUOUS
 10
-943.775361751248
 20
93.691639186536
 30
0.0
 40
0.0
 41
0.0
  0
VERTEX
  5
   648
  8
0
  6
CONTINUOUS
 10
-943.769547304282
 20
93.7203709641208
 30
0.0
 40
0.0
 41
0.0
  0
VERTEX
  5
   649
  8
0
  6
CONTINUOUS
 10
-943.76539162435
 20
93.7491548089427
 30
0.0
 40
0.0
 41
0.0
  0
VERTEX
  5
   64A
  8
0
  6
CONTINUOUS
 10
-943.762897214678
 20
93.7779733826899
 30
0.0
 40
0.0
 41
0.0
  0
VERTEX
  5
   64B
  8
0
  6
CONTINUOUS
 10
-943.762065577805
 20
93.8068093261312
 30
0.0
 40
0.0
 41
0.0
  0
VERTEX
  5
   64C
  8
0
  6
CONTINUOUS
 10
-943.762897214678
 20
93.8356452695724
 30
0.0
 40
0.0
 41
0.0
  0
VERTEX
  5
   64D
  8
0
  6
CONTINUOUS
 10
-943.76539162435
 20
93.8644638433196
 30
0.0
 40
0.0
 41
0.0
  0
VERTEX
  5
   64E
  8
0
  6
CONTINUOUS
 10
-943.769547304282
 20
93.8932476881415
 30
0.0
 40
0.0
 41
0.0
  0
VERTEX
  5
   64F
  8
0
  6
CONTINUOUS
 10
-943.775361751248
 20
93.9219794657263
 30
0.0
 40
0.0
 41
0.0
  0
VERTEX
  5
   650
  8
0
  6
CONTINUOUS
 10
-943.782831462842
 20
93.9506418691254
 30
0.0
 40
0.0
 41
0.0
  0
VERTEX
  5
   651
  8
0
  6
CONTINUOUS
 10
-943.791951939589
 20
93.9792176331789
 30
0.0
 40
0.0
 41
0.0
  0
VERTEX
  5
   652
  8
0
  6
CONTINUOUS
 10
-943.802717687656
 20
94.0076895449149
 30
0.0
 40
0.0
 41
0.0
  0
VERTEX
  5
   653
  8
0
  6
CONTINUOUS
 10
-943.815122222158
 20
94.0360404539186
 30
0.0
 40
0.0
 41
0.0
  0
VERTEX
  5
   654
  8
0
  6
CONTINUOUS
 10
-943.829158071066
 20
94.0642532826624
 30
0.0
 40
0.0
 41
0.0
  0
VERTEX
  5
   655
  8
0
  6
CONTINUOUS
 10
-943.844816779712
 20
94.0923110367933
 30
0.0
 40
0.0
 41
0.0
  0
VERTEX
  5
   656
  8
0
  6
CONTINUOUS
 10
-943.862088915874
 20
94.1201968153692
 30
0.0
 40
0.0
 41
0.0
  0
VERTEX
  5
   657
  8
0
  6
CONTINUOUS
 10
-943.880964075463
 20
94.1478938210399
 30
0.0
 40
0.0
 41
0.0
  0
VERTEX
  5
   658
  8
0
  6
CONTINUOUS
 10
-943.90143088879
 20
94.1753853701648
 30
0.0
 40
0.0
 41
0.0
  0
VERTEX
  5
   659
  8
0
  6
CONTINUOUS
 10
-943.92347702741
 20
94.2026549028628
 30
0.0
 40
0.0
 41
0.0
  0
VERTEX
  5
   65A
  8
0
  6
CONTINUOUS
 10
-943.947089211554
 20
94.229685992987
 30
0.0
 40
0.0
 41
0.0
  0
VERTEX
  5
   65B
  8
0
  6
CONTINUOUS
 10
-943.972253218126
 20
94.2564623580194
 30
0.0
 40
0.0
 41
0.0
  0
VERTEX
  5
   65C
  8
0
  6
CONTINUOUS
 10
-943.998953889269
 20
94.282967868879
 30
0.0
 40
0.0
 41
0.0
  0
VERTEX
  5
   65D
  8
0
  6
CONTINUOUS
 10
-944.027175141496
 20
94.3091865596372
 30
0.0
 40
0.0
 41
0.0
  0
VERTEX
  5
   65E
  8
0
  6
CONTINUOUS
 10
-944.056899975382
 20
94.335102637135
 30
0.0
 40
0.0
 41
0.0
  0
VERTEX
  5
   65F
  8
0
  6
CONTINUOUS
 10
-944.088110485797
 20
94.3607004904964
 30
0.0
 40
0.0
 41
0.0
  0
VERTEX
  5
   660
  8
0
  6
CONTINUOUS
 10
-944.120787872697
 20
94.3859647005318
 30
0.0
 40
0.0
 41
0.0
  0
VERTEX
  5
   661
  8
0
  6
CONTINUOUS
 10
-944.154912452446
 20
94.4108800490255
 30
0.0
 40
0.0
 41
0.0
  0
VERTEX
  5
   662
  8
0
  6
CONTINUOUS
 10
-944.190463669674
 20
94.4354315279035
 30
0.0
 40
0.0
 41
0.0
  0
VERTEX
  5
   663
  8
0
  6
CONTINUOUS
 10
-944.227420109655
 20
94.4596043482729
 30
0.0
 40
0.0
 41
0.0
  0
VERTEX
  5
   664
  8
0
  6
CONTINUOUS
 10
-944.265759511214
 20
94.4833839493305
 30
0.0
 40
0.0
 41
0.0
  0
VERTEX
  5
   665
  8
0
  6
CONTINUOUS
 10
-944.305458780127
 20
94.5067560071338
 30
0.0
 40
0.0
 41
0.0
  0
VERTEX
  5
   666
  8
0
  6
CONTINUOUS
 10
-944.34649400304
 20
94.5297064432291
 30
0.0
 40
0.0
 41
0.0
  0
VERTEX
  5
   667
  8
0
  6
CONTINUOUS
 10
-944.388840461868
 20
94.552221433132
 30
0.0
 40
0.0
 41
0.0
  0
VERTEX
  5
   668
  8
0
  6
CONTINUOUS
 10
-944.43247264869
 20
94.5742874146544
 30
0.0
 40
0.0
 41
0.0
  0
VERTEX
  5
   669
  8
0
  6
CONTINUOUS
 10
-944.477364281106
 20
94.5958910960741
 30
0.0
 40
0.0
 41
0.0
  0
VERTEX
  5
   66A
  8
0
  6
CONTINUOUS
 10
-944.523488318075
 20
94.6170194641412
 30
0.0
 40
0.0
 41
0.0
  0
VERTEX
  5
   66B
  8
0
  6
CONTINUOUS
 10
-944.619321746477
 20
94.6577996464396
 30
0.0
 40
0.0
 41
0.0
  0
VERTEX
  5
   66C
  8
0
  6
CONTINUOUS
 10
-944.719742062771
 20
94.6965297185184
 30
0.0
 40
0.0
 41
0.0
  0
VERTEX
  5
   66D
  8
0
  6
CONTINUOUS
 10
-944.824507345621
 20
94.7331163762416
 30
0.0
 40
0.0
 41
0.0
  0
VERTEX
  5
   66E
  8
0
  6
CONTINUOUS
 10
-944.933365206283
 20
94.7674714791462
 30
0.0
 40
0.0
 41
0.0
  0
VERTEX
  5
   66F
  8
0
  6
CONTINUOUS
 10
-945.046053396636
 20
94.7995122627801
 30
0.0
 40
0.0
 41
0.0
  0
VERTEX
  5
   670
  8
0
  6
CONTINUOUS
 10
-945.16230044096
 20
94.829161538089
 30
0.0
 40
0.0
 41
0.0
  0
VERTEX
  5
   671
  8
0
  6
CONTINUOUS
 10
-945.281826289943
 20
94.856347877372
 30
0.0
 40
0.0
 41
0.0
  0
VERTEX
  5
   672
  8
0
  6
CONTINUOUS
 10
-945.342729072063
 20
94.8689967428551
 30
0.0
 40
0.0
 41
0.0
  0
VERTEX
  5
   673
  8
0
  6
CONTINUOUS
 10
-945.466630945865
 20
94.8923677740764
 30
0.0
 40
0.0
 41
0.0
  0
VERTEX
  5
   674
  8
0
  6
CONTINUOUS
 10
-945.593078465483
 20
94.9131235999129
 30
0.0
 40
0.0
 41
0.0
  0
VERTEX
  5
   675
  8
0
  6
CONTINUOUS
 10
-945.721767007767
 20
94.9312142177621
 30
0.0
 40
0.0
 41
0.0
  0
VERTEX
  5
   676
  8
0
  6
CONTINUOUS
 10
-945.852386550747
 20
94.9465960457412
 30
0.0
 40
0.0
 41
0.0
  0
VERTEX
  5
   677
  8
0
  6
CONTINUOUS
 10
-945.984622420502
 20
94.9592320276792
 30
0.0
 40
0.0
 41
0.0
  0
VERTEX
  5
   678
  8
0
  6
CONTINUOUS
 10
-946.118156049241
 20
94.9690917223888
 30
0.0
 40
0.0
 41
0.0
  0
VERTEX
  5
   679
  8
0
  6
CONTINUOUS
 10
-946.252665742754
 20
94.976151377002
 30
0.0
 40
0.0
 41
0.0
  0
VERTEX
  5
   67A
  8
0
  6
CONTINUOUS
 10
-946.38782745541
 20
94.9803939841923
 30
0.0
 40
0.0
 41
0.0
  0
VERTEX
  5
   67B
  8
0
  6
CONTINUOUS
 10
-946.523315570803
 20
94.9818093231474
 30
0.0
 40
0.0
 41
0.0
  0
VERTEX
  5
   67C
  8
0
  6
CONTINUOUS
 10
-946.658803686196
 20
94.9803939841919
 30
0.0
 40
0.0
 41
0.0
  0
VERTEX
  5
   67D
  8
0
  6
CONTINUOUS
 10
-946.793965398851
 20
94.9761513770013
 30
0.0
 40
0.0
 41
0.0
  0
VERTEX
  5
   67E
  8
0
  6
CONTINUOUS
 10
-946.928475092365
 20
94.9690917223878
 30
0.0
 40
0.0
 41
0.0
  0
VERTEX
  5
   67F
  8
0
  6
CONTINUOUS
 10
-947.062008721104
 20
94.9592320276778
 30
0.0
 40
0.0
 41
0.0
  0
VERTEX
  5
   680
  8
0
  6
CONTINUOUS
 10
-947.194244590859
 20
94.9465960457395
 30
0.0
 40
0.0
 41
0.0
  0
VERTEX
  5
   681
  8
0
  6
CONTINUOUS
 10
-947.324864133839
 20
94.9312142177601
 30
0.0
 40
0.0
 41
0.0
  0
VERTEX
  5
   682
  8
0
  6
CONTINUOUS
 10
-947.453552676123
 20
94.9131235999105
 30
0.0
 40
0.0
 41
0.0
  0
VERTEX
  5
   683
  8
0
  6
CONTINUOUS
 10
-947.580000195741
 20
94.8923677740737
 30
0.0
 40
0.0
 41
0.0
  0
VERTEX
  5
   684
  8
0
  6
CONTINUOUS
 10
-947.703902069543
 20
94.8689967428522
 30
0.0
 40
0.0
 41
0.0
  0
VERTEX
  5
   685
  8
0
  6
CONTINUOUS
 10
-947.824959807062
 20
94.843066809107
 30
0.0
 40
0.0
 41
0.0
  0
VERTEX
  5
   686
  8
0
  6
CONTINUOUS
 10
-947.942881769606
 20
94.81464044032
 30
0.0
 40
0.0
 41
0.0
  0
VERTEX
  5
   687
  8
0
  6
CONTINUOUS
 10
-948.057383872837
 20
94.7837861181033
 30
0.0
 40
0.0
 41
0.0
  0
VERTEX
  5
   688
  8
0
  6
CONTINUOUS
 10
-948.168190271161
 20
94.7505781732217
 30
0.0
 40
0.0
 41
0.0
  0
VERTEX
  5
   689
  8
0
  6
CONTINUOUS
 10
-948.275034022257
 20
94.715096606523
 30
0.0
 40
0.0
 41
0.0
  0
VERTEX
  5
   68A
  8
0
  6
CONTINUOUS
 10
-948.377657730171
 20
94.6774268962092
 30
0.0
 40
0.0
 41
0.0
  0
VERTEX
  5
   68B
  8
0
  6
CONTINUOUS
 10
-948.475814165402
 20
94.6376597919121
 30
0.0
 40
0.0
 41
0.0
  0
VERTEX
  5
   68C
  8
0
  6
CONTINUOUS
 10
-948.52314282353
 20
94.6170194641362
 30
0.0
 40
0.0
 41
0.0
  0
VERTEX
  5
   68D
  8
0
  6
CONTINUOUS
 10
-948.5692668605
 20
94.595891096069
 30
0.0
 40
0.0
 41
0.0
  0
VERTEX
  5
   68E
  8
0
  6
CONTINUOUS
 10
-948.614158492916
 20
94.5742874146491
 30
0.0
 40
0.0
 41
0.0
  0
VERTEX
  5
   68F
  8
0
  6
CONTINUOUS
 10
-948.657790679737
 20
94.5522214331267
 30
0.0
 40
0.0
 41
0.0
  0
VERTEX
  5
   690
  8
0
  6
CONTINUOUS
 10
-948.700137138565
 20
94.5297064432237
 30
0.0
 40
0.0
 41
0.0
  0
VERTEX
  5
   691
  8
0
  6
CONTINUOUS
 10
-948.741172361478
 20
94.5067560071282
 30
0.0
 40
0.0
 41
0.0
  0
VERTEX
  5
   692
  8
0
  6
CONTINUOUS
 10
-948.780871630391
 20
94.4833839493248
 30
0.0
 40
0.0
 41
0.0
  0
VERTEX
  5
   693
  8
0
  6
CONTINUOUS
 10
-948.81921103195
 20
94.4596043482671
 30
0.0
 40
0.0
 41
0.0
  0
VERTEX
  5
   694
  8
0
  6
CONTINUOUS
 10
-948.856167471931
 20
94.4354315278977
 30
0.0
 40
0.0
 41
0.0
  0
VERTEX
  5
   695
  8
0
  6
CONTINUOUS
 10
-948.891718689159
 20
94.4108800490196
 30
0.0
 40
0.0
 41
0.0
  0
VERTEX
  5
   696
  8
0
  6
CONTINUOUS
 10
-948.925843268908
 20
94.3859647005257
 30
0.0
 40
0.0
 41
0.0
  0
VERTEX
  5
   697
  8
0
  6
CONTINUOUS
 10
-948.958520655808
 20
94.3607004904903
 30
0.0
 40
0.0
 41
0.0
  0
VERTEX
  5
   698
  8
0
  6
CONTINUOUS
 10
-948.989731166223
 20
94.3351026371288
 30
0.0
 40
0.0
 41
0.0
  0
VERTEX
  5
   699
  8
0
  6
CONTINUOUS
 10
-949.019456000108
 20
94.3091865596309
 30
0.0
 40
0.0
 41
0.0
  0
VERTEX
  5
   69A
  8
0
  6
CONTINUOUS
 10
-949.047677252336
 20
94.2829678688727
 30
0.0
 40
0.0
 41
0.0
  0
VERTEX
  5
   69B
  8
0
  6
CONTINUOUS
 10
-949.074377923479
 20
94.256462358013
 30
0.0
 40
0.0
 41
0.0
  0
VERTEX
  5
   69C
  8
0
  6
CONTINUOUS
 10
-949.09954193005
 20
94.2296859929805
 30
0.0
 40
0.0
 41
0.0
  0
VERTEX
  5
   69D
  8
0
  6
CONTINUOUS
 10
-949.123154114195
 20
94.2026549028563
 30
0.0
 40
0.0
 41
0.0
  0
VERTEX
  5
   69E
  8
0
  6
CONTINUOUS
 10
-949.145200252815
 20
94.1753853701582
 30
0.0
 40
0.0
 41
0.0
  0
VERTEX
  5
   69F
  8
0
  6
CONTINUOUS
 10
-949.16566706614
 20
94.1478938210332
 30
0.0
 40
0.0
 41
0.0
  0
VERTEX
  5
   6A0
  8
0
  6
CONTINUOUS
 10
-949.18454222573
 20
94.1201968153625
 30
0.0
 40
0.0
 41
0.0
  0
VERTEX
  5
   6A1
  8
0
  6
CONTINUOUS
 10
-949.201814361892
 20
94.0923110367865
 30
0.0
 40
0.0
 41
0.0
  0
VERTEX
  5
   6A2
  8
0
  6
CONTINUOUS
 10
-949.217473070538
 20
94.0642532826556
 30
0.0
 40
0.0
 41
0.0
  0
VERTEX
  5
   6A3
  8
0
  6
CONTINUOUS
 10
-949.231508919446
 20
94.0360404539118
 30
0.0
 40
0.0
 41
0.0
  0
VERTEX
  5
   6A4
  8
0
  6
CONTINUOUS
 10
-949.243913453948
 20
94.0076895449081
 30
0.0
 40
0.0
 41
0.0
  0
VERTEX
  5
   6A5
  8
0
  6
CONTINUOUS
 10
-949.254679202014
 20
93.979217633172
 30
0.0
 40
0.0
 41
0.0
  0
VERTEX
  5
   6A6
  8
0
  6
CONTINUOUS
 10
-949.263799678762
 20
93.9506418691185
 30
0.0
 40
0.0
 41
0.0
  0
VERTEX
  5
   6A7
  8
0
  6
CONTINUOUS
 10
-949.271269390355
 20
93.9219794657193
 30
0.0
 40
0.0
 41
0.0
  0
VERTEX
  5
   6A8
  8
0
  6
CONTINUOUS
 10
-949.277083837321
 20
93.8932476881346
 30
0.0
 40
0.0
 41
0.0
  0
VERTEX
  5
   6A9
  8
0
  6
CONTINUOUS
 10
-949.281239517253
 20
93.8644638433127
 30
0.0
 40
0.0
 41
0.0
  0
VERTEX
  5
   6AA
  8
0
  6
CONTINUOUS
 10
-949.283733926925
 20
93.8356452695655
 30
0.0
 40
0.0
 41
0.0
  0
VERTEX
  5
   6AB
  8
0
  6
CONTINUOUS
 10
-949.284565563798
 20
93.8068093261242
 30
0.0
 40
0.0
 41
0.0
  0
SEQEND
  5
   6AC
  8
0
  6
CONTINUOUS
 62
   218
  0
POLYLINE
  5
   6AD
  8
0
  6
CONTINUOUS
 62
   218
 66
     1
 10
0.0
 20
0.0
 30
0.0
  0
VERTEX
  5
   6AE
  8
0
  6
CONTINUOUS
 10
-938.239565591812
 20
93.8068093261341
 30
0.0
 40
0.0
 41
0.0
  0
VERTEX
  5
   6AF
  8
0
  6
CONTINUOUS
 10
-938.240397228685
 20
93.8356452695754
 30
0.0
 40
0.0
 41
0.0
  0
VERTEX
  5
   6B0
  8
0
  6
CONTINUOUS
 10
-938.242891638358
 20
93.8644638433226
 30
0.0
 40
0.0
 41
0.0
  0
VERTEX
  5
   6B1
  8
0
  6
CONTINUOUS
 10
-938.24704731829
 20
93.8932476881445
 30
0.0
 40
0.0
 41
0.0
  0
VERTEX
  5
   6B2
  8
0
  6
CONTINUOUS
 10
-938.252861765256
 20
93.9219794657293
 30
0.0
 40
0.0
 41
0.0
  0
VERTEX
  5
   6B3
  8
0
  6
CONTINUOUS
 10
-938.26033147685
 20
93.9506418691285
 30
0.0
 40
0.0
 41
0.0
  0
VERTEX
  5
   6B4
  8
0
  6
CONTINUOUS
 10
-938.269451953597
 20
93.9792176331819
 30
0.0
 40
0.0
 41
0.0
  0
VERTEX
  5
   6B5
  8
0
  6
CONTINUOUS
 10
-938.280217701664
 20
94.007689544918
 30
0.0
 40
0.0
 41
0.0
  0
VERTEX
  5
   6B6
  8
0
  6
CONTINUOUS
 10
-938.292622236166
 20
94.0360404539217
 30
0.0
 40
0.0
 41
0.0
  0
VERTEX
  5
   6B7
  8
0
  6
CONTINUOUS
 10
-938.306658085075
 20
94.0642532826655
 30
0.0
 40
0.0
 41
0.0
  0
VERTEX
  5
   6B8
  8
0
  6
CONTINUOUS
 10
-938.322316793721
 20
94.0923110367963
 30
0.0
 40
0.0
 41
0.0
  0
VERTEX
  5
   6B9
  8
0
  6
CONTINUOUS
 10
-938.339588929883
 20
94.1201968153723
 30
0.0
 40
0.0
 41
0.0
  0
VERTEX
  5
   6BA
  8
0
  6
CONTINUOUS
 10
-938.358464089473
 20
94.147893821043
 30
0.0
 40
0.0
 41
0.0
  0
VERTEX
  5
   6BB
  8
0
  6
CONTINUOUS
 10
-938.378930902799
 20
94.1753853701679
 30
0.0
 40
0.0
 41
0.0
  0
VERTEX
  5
   6BC
  8
0
  6
CONTINUOUS
 10
-938.400977041419
 20
94.2026549028659
 30
0.0
 40
0.0
 41
0.0
  0
VERTEX
  5
   6BD
  8
0
  6
CONTINUOUS
 10
-938.424589225564
 20
94.22968599299
 30
0.0
 40
0.0
 41
0.0
  0
VERTEX
  5
   6BE
  8
0
  6
CONTINUOUS
 10
-938.449753232136
 20
94.2564623580225
 30
0.0
 40
0.0
 41
0.0
  0
VERTEX
  5
   6BF
  8
0
  6
CONTINUOUS
 10
-938.476453903279
 20
94.2829678688821
 30
0.0
 40
0.0
 41
0.0
  0
VERTEX
  5
   6C0
  8
0
  6
CONTINUOUS
 10
-938.504675155507
 20
94.3091865596402
 30
0.0
 40
0.0
 41
0.0
  0
VERTEX
  5
   6C1
  8
0
  6
CONTINUOUS
 10
-938.534399989392
 20
94.335102637138
 30
0.0
 40
0.0
 41
0.0
  0
VERTEX
  5
   6C2
  8
0
  6
CONTINUOUS
 10
-938.565610499808
 20
94.3607004904994
 30
0.0
 40
0.0
 41
0.0
  0
VERTEX
  5
   6C3
  8
0
  6
CONTINUOUS
 10
-938.598287886708
 20
94.3859647005347
 30
0.0
 40
0.0
 41
0.0
  0
VERTEX
  5
   6C4
  8
0
  6
CONTINUOUS
 10
-938.632412466458
 20
94.4108800490285
 30
0.0
 40
0.0
 41
0.0
  0
VERTEX
  5
   6C5
  8
0
  6
CONTINUOUS
 10
-938.667963683685
 20
94.4354315279065
 30
0.0
 40
0.0
 41
0.0
  0
VERTEX
  5
   6C6
  8
0
  6
CONTINUOUS
 10
-938.704920123667
 20
94.4596043482758
 30
0.0
 40
0.0
 41
0.0
  0
VERTEX
  5
   6C7
  8
0
  6
CONTINUOUS
 10
-938.743259525226
 20
94.4833839493333
 30
0.0
 40
0.0
 41
0.0
  0
VERTEX
  5
   6C8
  8
0
  6
CONTINUOUS
 10
-938.782958794139
 20
94.5067560071366
 30
0.0
 40
0.0
 41
0.0
  0
VERTEX
  5
   6C9
  8
0
  6
CONTINUOUS
 10
-938.823994017052
 20
94.5297064432319
 30
0.0
 40
0.0
 41
0.0
  0
VERTEX
  5
   6CA
  8
0
  6
CONTINUOUS
 10
-938.866340475881
 20
94.5522214331348
 30
0.0
 40
0.0
 41
0.0
  0
VERTEX
  5
   6CB
  8
0
  6
CONTINUOUS
 10
-938.909972662702
 20
94.5742874146571
 30
0.0
 40
0.0
 41
0.0
  0
VERTEX
  5
   6CC
  8
0
  6
CONTINUOUS
 10
-938.954864295118
 20
94.5958910960768
 30
0.0
 40
0.0
 41
0.0
  0
VERTEX
  5
   6CD
  8
0
  6
CONTINUOUS
 10
-939.000988332088
 20
94.6170194641439
 30
0.0
 40
0.0
 41
0.0
  0
VERTEX
  5
   6CE
  8
0
  6
CONTINUOUS
 10
-939.09682176049
 20
94.6577996464422
 30
0.0
 40
0.0
 41
0.0
  0
VERTEX
  5
   6CF
  8
0
  6
CONTINUOUS
 10
-939.197242076785
 20
94.6965297185208
 30
0.0
 40
0.0
 41
0.0
  0
VERTEX
  5
   6D0
  8
0
  6
CONTINUOUS
 10
-939.302007359635
 20
94.7331163762439
 30
0.0
 40
0.0
 41
0.0
  0
VERTEX
  5
   6D1
  8
0
  6
CONTINUOUS
 10
-939.410865220298
 20
94.7674714791484
 30
0.0
 40
0.0
 41
0.0
  0
VERTEX
  5
   6D2
  8
0
  6
CONTINUOUS
 10
-939.523553410651
 20
94.7995122627822
 30
0.0
 40
0.0
 41
0.0
  0
VERTEX
  5
   6D3
  8
0
  6
CONTINUOUS
 10
-939.639800454976
 20
94.829161538091
 30
0.0
 40
0.0
 41
0.0
  0
VERTEX
  5
   6D4
  8
0
  6
CONTINUOUS
 10
-939.759326303959
 20
94.8563478773737
 30
0.0
 40
0.0
 41
0.0
  0
VERTEX
  5
   6D5
  8
0
  6
CONTINUOUS
 10
-939.820229086079
 20
94.8689967428568
 30
0.0
 40
0.0
 41
0.0
  0
VERTEX
  5
   6D6
  8
0
  6
CONTINUOUS
 10
-939.944130959881
 20
94.892367774078
 30
0.0
 40
0.0
 41
0.0
  0
VERTEX
  5
   6D7
  8
0
  6
CONTINUOUS
 10
-940.070578479499
 20
94.9131235999143
 30
0.0
 40
0.0
 41
0.0
  0
VERTEX
  5
   6D8
  8
0
  6
CONTINUOUS
 10
-940.199267021783
 20
94.9312142177634
 30
0.0
 40
0.0
 41
0.0
  0
VERTEX
  5
   6D9
  8
0
  6
CONTINUOUS
 10
-940.329886564763
 20
94.9465960457422
 30
0.0
 40
0.0
 41
0.0
  0
VERTEX
  5
   6DA
  8
0
  6
CONTINUOUS
 10
-940.462122434519
 20
94.95923202768
 30
0.0
 40
0.0
 41
0.0
  0
VERTEX
  5
   6DB
  8
0
  6
CONTINUOUS
 10
-940.595656063258
 20
94.9690917223895
 30
0.0
 40
0.0
 41
0.0
  0
VERTEX
  5
   6DC
  8
0
  6
CONTINUOUS
 10
-940.730165756772
 20
94.9761513770024
 30
0.0
 40
0.0
 41
0.0
  0
VERTEX
  5
   6DD
  8
0
  6
CONTINUOUS
 10
-940.865327469428
 20
94.9803939841925
 30
0.0
 40
0.0
 41
0.0
  0
VERTEX
  5
   6DE
  8
0
  6
CONTINUOUS
 10
-941.000815584821
 20
94.9818093231474
 30
0.0
 40
0.0
 41
0.0
  0
VERTEX
  5
   6DF
  8
0
  6
CONTINUOUS
 10
-941.136303700214
 20
94.9803939841917
 30
0.0
 40
0.0
 41
0.0
  0
VERTEX
  5
   6E0
  8
0
  6
CONTINUOUS
 10
-941.271465412869
 20
94.9761513770008
 30
0.0
 40
0.0
 41
0.0
  0
VERTEX
  5
   6E1
  8
0
  6
CONTINUOUS
 10
-941.405975106383
 20
94.9690917223871
 30
0.0
 40
0.0
 41
0.0
  0
VERTEX
  5
   6E2
  8
0
  6
CONTINUOUS
 10
-941.539508735121
 20
94.9592320276769
 30
0.0
 40
0.0
 41
0.0
  0
VERTEX
  5
   6E3
  8
0
  6
CONTINUOUS
 10
-941.671744604877
 20
94.9465960457384
 30
0.0
 40
0.0
 41
0.0
  0
VERTEX
  5
   6E4
  8
0
  6
CONTINUOUS
 10
-941.802364147857
 20
94.9312142177588
 30
0.0
 40
0.0
 41
0.0
  0
VERTEX
  5
   6E5
  8
0
  6
CONTINUOUS
 10
-941.93105269014
 20
94.9131235999089
 30
0.0
 40
0.0
 41
0.0
  0
VERTEX
  5
   6E6
  8
0
  6
CONTINUOUS
 10
-942.057500209758
 20
94.8923677740719
 30
0.0
 40
0.0
 41
0.0
  0
VERTEX
  5
   6E7
  8
0
  6
CONTINUOUS
 10
-942.18140208356
 20
94.8689967428501
 30
0.0
 40
0.0
 41
0.0
  0
VERTEX
  5
   6E8
  8
0
  6
CONTINUOUS
 10
-942.302459821079
 20
94.8430668091047
 30
0.0
 40
0.0
 41
0.0
  0
VERTEX
  5
   6E9
  8
0
  6
CONTINUOUS
 10
-942.420381783623
 20
94.8146404403174
 30
0.0
 40
0.0
 41
0.0
  0
VERTEX
  5
   6EA
  8
0
  6
CONTINUOUS
 10
-942.534883886854
 20
94.7837861181005
 30
0.0
 40
0.0
 41
0.0
  0
VERTEX
  5
   6EB
  8
0
  6
CONTINUOUS
 10
-942.645690285177
 20
94.7505781732186
 30
0.0
 40
0.0
 41
0.0
  0
VERTEX
  5
   6EC
  8
0
  6
CONTINUOUS
 10
-942.752534036273
 20
94.7150966065197
 30
0.0
 40
0.0
 41
0.0
  0
VERTEX
  5
   6ED
  8
0
  6
CONTINUOUS
 10
-942.855157744187
 20
94.6774268962058
 30
0.0
 40
0.0
 41
0.0
  0
VERTEX
  5
   6EE
  8
0
  6
CONTINUOUS
 10
-942.953314179417
 20
94.6376597919084
 30
0.0
 40
0.0
 41
0.0
  0
VERTEX
  5
   6EF
  8
0
  6
CONTINUOUS
 10
-943.000642837545
 20
94.6170194641325
 30
0.0
 40
0.0
 41
0.0
  0
VERTEX
  5
   6F0
  8
0
  6
CONTINUOUS
 10
-943.046766874515
 20
94.5958910960651
 30
0.0
 40
0.0
 41
0.0
  0
VERTEX
  5
   6F1
  8
0
  6
CONTINUOUS
 10
-943.09165850693
 20
94.5742874146452
 30
0.0
 40
0.0
 41
0.0
  0
VERTEX
  5
   6F2
  8
0
  6
CONTINUOUS
 10
-943.135290693752
 20
94.5522214331226
 30
0.0
 40
0.0
 41
0.0
  0
VERTEX
  5
   6F3
  8
0
  6
CONTINUOUS
 10
-943.17763715258
 20
94.5297064432195
 30
0.0
 40
0.0
 41
0.0
  0
VERTEX
  5
   6F4
  8
0
  6
CONTINUOUS
 10
-943.218672375493
 20
94.5067560071239
 30
0.0
 40
0.0
 41
0.0
  0
VERTEX
  5
   6F5
  8
0
  6
CONTINUOUS
 10
-943.258371644406
 20
94.4833839493204
 30
0.0
 40
0.0
 41
0.0
  0
VERTEX
  5
   6F6
  8
0
  6
CONTINUOUS
 10
-943.296711045964
 20
94.4596043482627
 30
0.0
 40
0.0
 41
0.0
  0
VERTEX
  5
   6F7
  8
0
  6
CONTINUOUS
 10
-943.333667485945
 20
94.4354315278931
 30
0.0
 40
0.0
 41
0.0
  0
VERTEX
  5
   6F8
  8
0
  6
CONTINUOUS
 10
-943.369218703172
 20
94.410880049015
 30
0.0
 40
0.0
 41
0.0
  0
VERTEX
  5
   6F9
  8
0
  6
CONTINUOUS
 10
-943.403343282921
 20
94.385964700521
 30
0.0
 40
0.0
 41
0.0
  0
VERTEX
  5
   6FA
  8
0
  6
CONTINUOUS
 10
-943.436020669821
 20
94.3607004904855
 30
0.0
 40
0.0
 41
0.0
  0
VERTEX
  5
   6FB
  8
0
  6
CONTINUOUS
 10
-943.467231180236
 20
94.3351026371239
 30
0.0
 40
0.0
 41
0.0
  0
VERTEX
  5
   6FC
  8
0
  6
CONTINUOUS
 10
-943.496956014121
 20
94.3091865596259
 30
0.0
 40
0.0
 41
0.0
  0
VERTEX
  5
   6FD
  8
0
  6
CONTINUOUS
 10
-943.525177266348
 20
94.2829678688676
 30
0.0
 40
0.0
 41
0.0
  0
VERTEX
  5
   6FE
  8
0
  6
CONTINUOUS
 10
-943.551877937491
 20
94.2564623580078
 30
0.0
 40
0.0
 41
0.0
  0
VERTEX
  5
   6FF
  8
0
  6
CONTINUOUS
 10
-943.577041944062
 20
94.2296859929753
 30
0.0
 40
0.0
 41
0.0
  0
VERTEX
  5
   700
  8
0
  6
CONTINUOUS
 10
-943.600654128206
 20
94.202654902851
 30
0.0
 40
0.0
 41
0.0
  0
VERTEX
  5
   701
  8
0
  6
CONTINUOUS
 10
-943.622700266826
 20
94.1753853701529
 30
0.0
 40
0.0
 41
0.0
  0
VERTEX
  5
   702
  8
0
  6
CONTINUOUS
 10
-943.643167080152
 20
94.1478938210279
 30
0.0
 40
0.0
 41
0.0
  0
VERTEX
  5
   703
  8
0
  6
CONTINUOUS
 10
-943.66204223974
 20
94.120196815357
 30
0.0
 40
0.0
 41
0.0
  0
VERTEX
  5
   704
  8
0
  6
CONTINUOUS
 10
-943.679314375902
 20
94.092311036781
 30
0.0
 40
0.0
 41
0.0
  0
VERTEX
  5
   705
  8
0
  6
CONTINUOUS
 10
-943.694973084548
 20
94.0642532826501
 30
0.0
 40
0.0
 41
0.0
  0
VERTEX
  5
   706
  8
0
  6
CONTINUOUS
 10
-943.709008933456
 20
94.0360404539062
 30
0.0
 40
0.0
 41
0.0
  0
VERTEX
  5
   707
  8
0
  6
CONTINUOUS
 10
-943.721413467957
 20
94.0076895449024
 30
0.0
 40
0.0
 41
0.0
  0
VERTEX
  5
   708
  8
0
  6
CONTINUOUS
 10
-943.732179216023
 20
93.9792176331663
 30
0.0
 40
0.0
 41
0.0
  0
VERTEX
  5
   709
  8
0
  6
CONTINUOUS
 10
-943.74129969277
 20
93.9506418691128
 30
0.0
 40
0.0
 41
0.0
  0
VERTEX
  5
   70A
  8
0
  6
CONTINUOUS
 10
-943.748769404364
 20
93.9219794657136
 30
0.0
 40
0.0
 41
0.0
  0
VERTEX
  5
   70B
  8
0
  6
CONTINUOUS
 10
-943.754583851329
 20
93.8932476881288
 30
0.0
 40
0.0
 41
0.0
  0
VERTEX
  5
   70C
  8
0
  6
CONTINUOUS
 10
-943.758739531261
 20
93.8644638433069
 30
0.0
 40
0.0
 41
0.0
  0
VERTEX
  5
   70D
  8
0
  6
CONTINUOUS
 10
-943.761233940933
 20
93.8356452695596
 30
0.0
 40
0.0
 41
0.0
  0
VERTEX
  5
   70E
  8
0
  6
CONTINUOUS
 10
-943.762065577805
 20
93.8068093261183
 30
0.0
 40
0.0
 41
0.0
  0
SEQEND
  5
   70F
  8
0
  6
CONTINUOUS
 62
   218
  0
INSERT
  5
   710
  8
0
  6
CONTINUOUS
 62
   218
  2
*HATCH201
 10
-941.999572753906
 20
-50.5946159362793
 30
0.0
 41
0.469999998807907
 42
0.469999998807907
 50
89.9999999480344
 43
0.469999998807907
  0
LINE
  5
   711
  8
0
  6
CONTINUOUS
 62
   218
 10
-939.649565588236
 20
-66.2281598602666
 30
0.0
 11
-947.874565567374
 21
-66.2281598602666
 31
0.0
  0
LINE
  5
   712
  8
0
  6
CONTINUOUS
 62
   218
 10
-947.874565567374
 20
-78.9181598280801
 30
0.0
 11
-947.874565567374
 21
-66.2281598602666
 31
0.0
  0
LINE
  5
   713
  8
0
  6
CONTINUOUS
 62
   218
 10
-939.649565588236
 20
-78.9181598280801
 30
0.0
 11
-939.649565588236
 21
-66.2281598602666
 31
0.0
  0
LINE
  5
   714
  8
0
  6
CONTINUOUS
 62
   218
 10
-949.284565563798
 20
-93.2531597917212
 30
0.0
 11
-949.284565563798
 21
-78.9181598280801
 31
0.0
  0
LINE
  5
   715
  8
0
  6
CONTINUOUS
 62
   218
 10
-938.239565591812
 20
-93.2531597917212
 30
0.0
 11
-938.239565591812
 21
-78.9181598280801
 31
0.0
  0
LINE
  5
   716
  8
0
  6
CONTINUOUS
 62
   218
 10
-938.239565591812
 20
-78.9181598280801
 30
0.0
 11
-949.284565563798
 21
-78.9181598280801
 31
0.0
  0
LINE
  5
   717
  8
0
  6
DASHDOT
 62
   218
 10
-943.762065577805
 20
-96.2439674275862
 30
0.0
 11
-943.762065577805
 21
-64.8721980479851
 31
0.0
  0
LINE
  5
   718
  8
0
  6
CONTINUOUS
 62
   218
 10
-941.52447619829
 20
-78.9181598280801
 30
0.0
 11
-943.762065577805
 21
-66.2281598602666
 31
0.0
  0
LINE
  5
   719
  8
0
  6
CONTINUOUS
 62
   218
 10
-942.240351957854
 20
-78.9181598280801
 30
0.0
 11
-944.477941337369
 21
-66.2281598602666
 31
0.0
  0
LINE
  5
   71A
  8
0
  6
CONTINUOUS
 62
   218
 10
-942.956227717418
 20
-78.9181598280801
 30
0.0
 11
-945.193817096933
 21
-66.2281598602666
 31
0.0
  0
LINE
  5
   71B
  8
0
  6
CONTINUOUS
 62
   218
 10
-943.672103476981
 20
-78.9181598280801
 30
0.0
 11
-945.909692856496
 21
-66.2281598602666
 31
0.0
  0
LINE
  5
   71C
  8
0
  6
CONTINUOUS
 62
   218
 10
-944.387979236545
 20
-78.9181598280801
 30
0.0
 11
-946.62556861606
 21
-66.2281598602666
 31
0.0
  0
LINE
  5
   71D
  8
0
  6
CONTINUOUS
 62
   218
 10
-945.103854996109
 20
-78.9181598280801
 30
0.0
 11
-947.341444375624
 21
-66.2281598602666
 31
0.0
  0
LINE
  5
   71E
  8
0
  6
CONTINUOUS
 62
   218
 10
-945.819730755673
 20
-78.91815982808
 30
0.0
 11
-947.874565567374
 21
-67.2646125181575
 31
0.0
  0
LINE
  5
   71F
  8
0
  6
CONTINUOUS
 62
   218
 10
-946.535606515236
 20
-78.9181598280801
 30
0.0
 11
-947.874565567374
 21
-71.3245456984763
 31
0.0
  0
LINE
  5
   720
  8
0
  6
CONTINUOUS
 62
   218
 10
-947.2514822748
 20
-78.9181598280801
 30
0.0
 11
-947.874565567374
 21
-75.3844788787951
 31
0.0
  0
LINE
  5
   721
  8
0
  6
CONTINUOUS
 62
   218
 10
-940.808600438726
 20
-78.9181598280801
 30
0.0
 11
-943.046189818241
 21
-66.2281598602666
 31
0.0
  0
LINE
  5
   722
  8
0
  6
CONTINUOUS
 62
   218
 10
-940.092724679163
 20
-78.9181598280801
 30
0.0
 11
-942.330314058678
 21
-66.2281598602666
 31
0.0
  0
LINE
  5
   723
  8
0
  6
CONTINUOUS
 62
   218
 10
-939.649565588236
 20
-77.371506743332
 30
0.0
 11
-941.614438299114
 21
-66.2281598602666
 31
0.0
  0
LINE
  5
   724
  8
0
  6
CONTINUOUS
 62
   218
 10
-939.649565588236
 20
-73.3115735630132
 30
0.0
 11
-940.89856253955
 21
-66.2281598602666
 31
0.0
  0
LINE
  5
   725
  8
0
  6
CONTINUOUS
 62
   218
 10
-939.649565588236
 20
-69.2516403826944
 30
0.0
 11
-940.182686779987
 21
-66.2281598602666
 31
0.0
  0
POLYLINE
  5
   726
  8
0
  6
CONTINUOUS
 62
   218
 66
     1
 10
0.0
 20
0.0
 30
0.0
 70
     1
  0
VERTEX
  5
   727
  8
0
  6
CONTINUOUS
 10
-949.284565563798
 20
-93.2531597917247
 30
0.0
 40
0.0
 41
0.0
  0
VERTEX
  5
   728
  8
0
  6
CONTINUOUS
 10
-949.283733926925
 20
-93.2819957351659
 30
0.0
 40
0.0
 41
0.0
  0
VERTEX
  5
   729
  8
0
  6
CONTINUOUS
 10
-949.281239517253
 20
-93.3108143089131
 30
0.0
 40
0.0
 41
0.0
  0
VERTEX
  5
   72A
  8
0
  6
CONTINUOUS
 10
-949.277083837321
 20
-93.339598153735
 30
0.0
 40
0.0
 41
0.0
  0
VERTEX
  5
   72B
  8
0
  6
CONTINUOUS
 10
-949.271269390355
 20
-93.3683299313198
 30
0.0
 40
0.0
 41
0.0
  0
VERTEX
  5
   72C
  8
0
  6
CONTINUOUS
 10
-949.263799678761
 20
-93.3969923347189
 30
0.0
 40
0.0
 41
0.0
  0
VERTEX
  5
   72D
  8
0
  6
CONTINUOUS
 10
-949.254679202014
 20
-93.4255680987724
 30
0.0
 40
0.0
 41
0.0
  0
VERTEX
  5
   72E
  8
0
  6
CONTINUOUS
 10
-949.243913453947
 20
-93.4540400105085
 30
0.0
 40
0.0
 41
0.0
  0
VERTEX
  5
   72F
  8
0
  6
CONTINUOUS
 10
-949.231508919446
 20
-93.4823909195121
 30
0.0
 40
0.0
 41
0.0
  0
VERTEX
  5
   730
  8
0
  6
CONTINUOUS
 10
-949.217473070537
 20
-93.5106037482559
 30
0.0
 40
0.0
 41
0.0
  0
VERTEX
  5
   731
  8
0
  6
CONTINUOUS
 10
-949.201814361891
 20
-93.5386615023868
 30
0.0
 40
0.0
 41
0.0
  0
VERTEX
  5
   732
  8
0
  6
CONTINUOUS
 10
-949.184542225729
 20
-93.5665472809627
 30
0.0
 40
0.0
 41
0.0
  0
VERTEX
  5
   733
  8
0
  6
CONTINUOUS
 10
-949.16566706614
 20
-93.5942442866334
 30
0.0
 40
0.0
 41
0.0
  0
VERTEX
  5
   734
  8
0
  6
CONTINUOUS
 10
-949.145200252814
 20
-93.6217358357583
 30
0.0
 40
0.0
 41
0.0
  0
VERTEX
  5
   735
  8
0
  6
CONTINUOUS
 10
-949.123154114194
 20
-93.6490053684563
 30
0.0
 40
0.0
 41
0.0
  0
VERTEX
  5
   736
  8
0
  6
CONTINUOUS
 10
-949.099541930049
 20
-93.6760364585805
 30
0.0
 40
0.0
 41
0.0
  0
VERTEX
  5
   737
  8
0
  6
CONTINUOUS
 10
-949.074377923477
 20
-93.7028128236129
 30
0.0
 40
0.0
 41
0.0
  0
VERTEX
  5
   738
  8
0
  6
CONTINUOUS
 10
-949.047677252335
 20
-93.7293183344725
 30
0.0
 40
0.0
 41
0.0
  0
VERTEX
  5
   739
  8
0
  6
CONTINUOUS
 10
-949.019456000107
 20
-93.7555370252307
 30
0.0
 40
0.0
 41
0.0
  0
VERTEX
  5
   73A
  8
0
  6
CONTINUOUS
 10
-948.989731166221
 20
-93.7814531027285
 30
0.0
 40
0.0
 41
0.0
  0
VERTEX
  5
   73B
  8
0
  6
CONTINUOUS
 10
-948.958520655806
 20
-93.8070509560899
 30
0.0
 40
0.0
 41
0.0
  0
VERTEX
  5
   73C
  8
0
  6
CONTINUOUS
 10
-948.925843268906
 20
-93.8323151661253
 30
0.0
 40
0.0
 41
0.0
  0
VERTEX
  5
   73D
  8
0
  6
CONTINUOUS
 10
-948.891718689157
 20
-93.8572305146191
 30
0.0
 40
0.0
 41
0.0
  0
VERTEX
  5
   73E
  8
0
  6
CONTINUOUS
 10
-948.85616747193
 20
-93.881781993497
 30
0.0
 40
0.0
 41
0.0
  0
VERTEX
  5
   73F
  8
0
  6
CONTINUOUS
 10
-948.819211031948
 20
-93.9059548138664
 30
0.0
 40
0.0
 41
0.0
  0
VERTEX
  5
   740
  8
0
  6
CONTINUOUS
 10
-948.78087163039
 20
-93.929734414924
 30
0.0
 40
0.0
 41
0.0
  0
VERTEX
  5
   741
  8
0
  6
CONTINUOUS
 10
-948.741172361476
 20
-93.9531064727273
 30
0.0
 40
0.0
 41
0.0
  0
VERTEX
  5
   742
  8
0
  6
CONTINUOUS
 10
-948.700137138563
 20
-93.9760569088226
 30
0.0
 40
0.0
 41
0.0
  0
VERTEX
  5
   743
  8
0
  6
CONTINUOUS
 10
-948.657790679735
 20
-93.9985718987255
 30
0.0
 40
0.0
 41
0.0
  0
VERTEX
  5
   744
  8
0
  6
CONTINUOUS
 10
-948.614158492913
 20
-94.0206378802479
 30
0.0
 40
0.0
 41
0.0
  0
VERTEX
  5
   745
  8
0
  6
CONTINUOUS
 10
-948.569266860498
 20
-94.0422415616676
 30
0.0
 40
0.0
 41
0.0
  0
VERTEX
  5
   746
  8
0
  6
CONTINUOUS
 10
-948.523142823528
 20
-94.0633699297348
 30
0.0
 40
0.0
 41
0.0
  0
VERTEX
  5
   747
  8
0
  6
CONTINUOUS
 10
-948.427309395126
 20
-94.1041501120331
 30
0.0
 40
0.0
 41
0.0
  0
VERTEX
  5
   748
  8
0
  6
CONTINUOUS
 10
-948.326889078832
 20
-94.1428801841119
 30
0.0
 40
0.0
 41
0.0
  0
VERTEX
  5
   749
  8
0
  6
CONTINUOUS
 10
-948.222123795983
 20
-94.1794668418351
 30
0.0
 40
0.0
 41
0.0
  0
VERTEX
  5
   74A
  8
0
  6
CONTINUOUS
 10
-948.11326593532
 20
-94.2138219447397
 30
0.0
 40
0.0
 41
0.0
  0
VERTEX
  5
   74B
  8
0
  6
CONTINUOUS
 10
-948.000577744967
 20
-94.2458627283736
 30
0.0
 40
0.0
 41
0.0
  0
VERTEX
  5
   74C
  8
0
  6
CONTINUOUS
 10
-947.884330700643
 20
-94.2755120036826
 30
0.0
 40
0.0
 41
0.0
  0
VERTEX
  5
   74D
  8
0
  6
CONTINUOUS
 10
-947.76480485166
 20
-94.3026983429655
 30
0.0
 40
0.0
 41
0.0
  0
VERTEX
  5
   74E
  8
0
  6
CONTINUOUS
 10
-947.70390206954
 20
-94.3153472084486
 30
0.0
 40
0.0
 41
0.0
  0
VERTEX
  5
   74F
  8
0
  6
CONTINUOUS
 10
-947.580000195738
 20
-94.3387182396699
 30
0.0
 40
0.0
 41
0.0
  0
VERTEX
  5
   750
  8
0
  6
CONTINUOUS
 10
-947.45355267612
 20
-94.3594740655064
 30
0.0
 40
0.0
 41
0.0
  0
VERTEX
  5
   751
  8
0
  6
CONTINUOUS
 10
-947.324864133836
 20
-94.3775646833556
 30
0.0
 40
0.0
 41
0.0
  0
VERTEX
  5
   752
  8
0
  6
CONTINUOUS
 10
-947.194244590857
 20
-94.3929465113347
 30
0.0
 40
0.0
 41
0.0
  0
VERTEX
  5
   753
  8
0
  6
CONTINUOUS
 10
-947.062008721101
 20
-94.4055824932727
 30
0.0
 40
0.0
 41
0.0
  0
VERTEX
  5
   754
  8
0
  6
CONTINUOUS
 10
-946.928475092362
 20
-94.4154421879823
 30
0.0
 40
0.0
 41
0.0
  0
VERTEX
  5
   755
  8
0
  6
CONTINUOUS
 10
-946.793965398849
 20
-94.4225018425955
 30
0.0
 40
0.0
 41
0.0
  0
VERTEX
  5
   756
  8
0
  6
CONTINUOUS
 10
-946.658803686193
 20
-94.4267444497858
 30
0.0
 40
0.0
 41
0.0
  0
VERTEX
  5
   757
  8
0
  6
CONTINUOUS
 10
-946.5233155708
 20
-94.428159788741
 30
0.0
 40
0.0
 41
0.0
  0
VERTEX
  5
   758
  8
0
  6
CONTINUOUS
 10
-946.387827455407
 20
-94.4267444497854
 30
0.0
 40
0.0
 41
0.0
  0
VERTEX
  5
   759
  8
0
  6
CONTINUOUS
 10
-946.252665742752
 20
-94.4225018425948
 30
0.0
 40
0.0
 41
0.0
  0
VERTEX
  5
   75A
  8
0
  6
CONTINUOUS
 10
-946.118156049238
 20
-94.4154421879813
 30
0.0
 40
0.0
 41
0.0
  0
VERTEX
  5
   75B
  8
0
  6
CONTINUOUS
 10
-945.984622420499
 20
-94.4055824932713
 30
0.0
 40
0.0
 41
0.0
  0
VERTEX
  5
   75C
  8
0
  6
CONTINUOUS
 10
-945.852386550744
 20
-94.392946511333
 30
0.0
 40
0.0
 41
0.0
  0
VERTEX
  5
   75D
  8
0
  6
CONTINUOUS
 10
-945.721767007764
 20
-94.3775646833536
 30
0.0
 40
0.0
 41
0.0
  0
VERTEX
  5
   75E
  8
0
  6
CONTINUOUS
 10
-945.59307846548
 20
-94.3594740655041
 30
0.0
 40
0.0
 41
0.0
  0
VERTEX
  5
   75F
  8
0
  6
CONTINUOUS
 10
-945.466630945862
 20
-94.3387182396672
 30
0.0
 40
0.0
 41
0.0
  0
VERTEX
  5
   760
  8
0
  6
CONTINUOUS
 10
-945.34272907206
 20
-94.3153472084457
 30
0.0
 40
0.0
 41
0.0
  0
VERTEX
  5
   761
  8
0
  6
CONTINUOUS
 10
-945.221671334541
 20
-94.2894172747005
 30
0.0
 40
0.0
 41
0.0
  0
VERTEX
  5
   762
  8
0
  6
CONTINUOUS
 10
-945.103749371997
 20
-94.2609909059135
 30
0.0
 40
0.0
 41
0.0
  0
VERTEX
  5
   763
  8
0
  6
CONTINUOUS
 10
-944.989247268766
 20
-94.2301365836968
 30
0.0
 40
0.0
 41
0.0
  0
VERTEX
  5
   764
  8
0
  6
CONTINUOUS
 10
-944.878440870443
 20
-94.1969286388151
 30
0.0
 40
0.0
 41
0.0
  0
VERTEX
  5
   765
  8
0
  6
CONTINUOUS
 10
-944.771597119347
 20
-94.1614470721165
 30
0.0
 40
0.0
 41
0.0
  0
VERTEX
  5
   766
  8
0
  6
CONTINUOUS
 10
-944.668973411432
 20
-94.1237773618027
 30
0.0
 40
0.0
 41
0.0
  0
VERTEX
  5
   767
  8
0
  6
CONTINUOUS
 10
-944.570816976201
 20
-94.0840102575056
 30
0.0
 40
0.0
 41
0.0
  0
VERTEX
  5
   768
  8
0
  6
CONTINUOUS
 10
-944.523488318073
 20
-94.0633699297297
 30
0.0
 40
0.0
 41
0.0
  0
VERTEX
  5
   769
  8
0
  6
CONTINUOUS
 10
-944.477364281103
 20
-94.0422415616625
 30
0.0
 40
0.0
 41
0.0
  0
VERTEX
  5
   76A
  8
0
  6
CONTINUOUS
 10
-944.432472648688
 20
-94.0206378802426
 30
0.0
 40
0.0
 41
0.0
  0
VERTEX
  5
   76B
  8
0
  6
CONTINUOUS
 10
-944.388840461867
 20
-93.9985718987201
 30
0.0
 40
0.0
 41
0.0
  0
VERTEX
  5
   76C
  8
0
  6
CONTINUOUS
 10
-944.346494003038
 20
-93.9760569088172
 30
0.0
 40
0.0
 41
0.0
  0
VERTEX
  5
   76D
  8
0
  6
CONTINUOUS
 10
-944.305458780125
 20
-93.9531064727217
 30
0.0
 40
0.0
 41
0.0
  0
VERTEX
  5
   76E
  8
0
  6
CONTINUOUS
 10
-944.265759511212
 20
-93.9297344149183
 30
0.0
 40
0.0
 41
0.0
  0
VERTEX
  5
   76F
  8
0
  6
CONTINUOUS
 10
-944.227420109654
 20
-93.9059548138606
 30
0.0
 40
0.0
 41
0.0
  0
VERTEX
  5
   770
  8
0
  6
CONTINUOUS
 10
-944.190463669672
 20
-93.8817819934912
 30
0.0
 40
0.0
 41
0.0
  0
VERTEX
  5
   771
  8
0
  6
CONTINUOUS
 10
-944.154912452445
 20
-93.8572305146131
 30
0.0
 40
0.0
 41
0.0
  0
VERTEX
  5
   772
  8
0
  6
CONTINUOUS
 10
-944.120787872696
 20
-93.8323151661192
 30
0.0
 40
0.0
 41
0.0
  0
VERTEX
  5
   773
  8
0
  6
CONTINUOUS
 10
-944.088110485796
 20
-93.8070509560838
 30
0.0
 40
0.0
 41
0.0
  0
VERTEX
  5
   774
  8
0
  6
CONTINUOUS
 10
-944.056899975381
 20
-93.7814531027223
 30
0.0
 40
0.0
 41
0.0
  0
VERTEX
  5
   775
  8
0
  6
CONTINUOUS
 10
-944.027175141495
 20
-93.7555370252244
 30
0.0
 40
0.0
 41
0.0
  0
VERTEX
  5
   776
  8
0
  6
CONTINUOUS
 10
-943.998953889267
 20
-93.7293183344662
 30
0.0
 40
0.0
 41
0.0
  0
VERTEX
  5
   777
  8
0
  6
CONTINUOUS
 10
-943.972253218125
 20
-93.7028128236065
 30
0.0
 40
0.0
 41
0.0
  0
VERTEX
  5
   778
  8
0
  6
CONTINUOUS
 10
-943.947089211553
 20
-93.676036458574
 30
0.0
 40
0.0
 41
0.0
  0
VERTEX
  5
   779
  8
0
  6
CONTINUOUS
 10
-943.923477027409
 20
-93.6490053684498
 30
0.0
 40
0.0
 41
0.0
  0
VERTEX
  5
   77A
  8
0
  6
CONTINUOUS
 10
-943.901430888789
 20
-93.6217358357518
 30
0.0
 40
0.0
 41
0.0
  0
VERTEX
  5
   77B
  8
0
  6
CONTINUOUS
 10
-943.880964075463
 20
-93.5942442866268
 30
0.0
 40
0.0
 41
0.0
  0
VERTEX
  5
   77C
  8
0
  6
CONTINUOUS
 10
-943.862088915873
 20
-93.566547280956
 30
0.0
 40
0.0
 41
0.0
  0
VERTEX
  5
   77D
  8
0
  6
CONTINUOUS
 10
-943.844816779712
 20
-93.53866150238
 30
0.0
 40
0.0
 41
0.0
  0
VERTEX
  5
   77E
  8
0
  6
CONTINUOUS
 10
-943.829158071066
 20
-93.5106037482492
 30
0.0
 40
0.0
 41
0.0
  0
VERTEX
  5
   77F
  8
0
  6
CONTINUOUS
 10
-943.815122222157
 20
-93.4823909195053
 30
0.0
 40
0.0
 41
0.0
  0
VERTEX
  5
   780
  8
0
  6
CONTINUOUS
 10
-943.802717687655
 20
-93.4540400105016
 30
0.0
 40
0.0
 41
0.0
  0
VERTEX
  5
   781
  8
0
  6
CONTINUOUS
 10
-943.791951939589
 20
-93.4255680987655
 30
0.0
 40
0.0
 41
0.0
  0
VERTEX
  5
   782
  8
0
  6
CONTINUOUS
 10
-943.782831462842
 20
-93.396992334712
 30
0.0
 40
0.0
 41
0.0
  0
VERTEX
  5
   783
  8
0
  6
CONTINUOUS
 10
-943.775361751248
 20
-93.3683299313129
 30
0.0
 40
0.0
 41
0.0
  0
VERTEX
  5
   784
  8
0
  6
CONTINUOUS
 10
-943.769547304282
 20
-93.3395981537281
 30
0.0
 40
0.0
 41
0.0
  0
VERTEX
  5
   785
  8
0
  6
CONTINUOUS
 10
-943.76539162435
 20
-93.3108143089062
 30
0.0
 40
0.0
 41
0.0
  0
VERTEX
  5
   786
  8
0
  6
CONTINUOUS
 10
-943.762897214678
 20
-93.281995735159
 30
0.0
 40
0.0
 41
0.0
  0
VERTEX
  5
   787
  8
0
  6
CONTINUOUS
 10
-943.762065577805
 20
-93.2531597917177
 30
0.0
 40
0.0
 41
0.0
  0
VERTEX
  5
   788
  8
0
  6
CONTINUOUS
 10
-943.762897214678
 20
-93.2243238482764
 30
0.0
 40
0.0
 41
0.0
  0
VERTEX
  5
   789
  8
0
  6
CONTINUOUS
 10
-943.76539162435
 20
-93.1955052745292
 30
0.0
 40
0.0
 41
0.0
  0
VERTEX
  5
   78A
  8
0
  6
CONTINUOUS
 10
-943.769547304282
 20
-93.1667214297074
 30
0.0
 40
0.0
 41
0.0
  0
VERTEX
  5
   78B
  8
0
  6
CONTINUOUS
 10
-943.775361751248
 20
-93.1379896521226
 30
0.0
 40
0.0
 41
0.0
  0
VERTEX
  5
   78C
  8
0
  6
CONTINUOUS
 10
-943.782831462842
 20
-93.1093272487235
 30
0.0
 40
0.0
 41
0.0
  0
VERTEX
  5
   78D
  8
0
  6
CONTINUOUS
 10
-943.791951939589
 20
-93.08075148467
 30
0.0
 40
0.0
 41
0.0
  0
VERTEX
  5
   78E
  8
0
  6
CONTINUOUS
 10
-943.802717687656
 20
-93.0522795729339
 30
0.0
 40
0.0
 41
0.0
  0
VERTEX
  5
   78F
  8
0
  6
CONTINUOUS
 10
-943.815122222158
 20
-93.0239286639303
 30
0.0
 40
0.0
 41
0.0
  0
VERTEX
  5
   790
  8
0
  6
CONTINUOUS
 10
-943.829158071066
 20
-92.9957158351865
 30
0.0
 40
0.0
 41
0.0
  0
VERTEX
  5
   791
  8
0
  6
CONTINUOUS
 10
-943.844816779712
 20
-92.9676580810556
 30
0.0
 40
0.0
 41
0.0
  0
VERTEX
  5
   792
  8
0
  6
CONTINUOUS
 10
-943.862088915874
 20
-92.9397723024797
 30
0.0
 40
0.0
 41
0.0
  0
VERTEX
  5
   793
  8
0
  6
CONTINUOUS
 10
-943.880964075463
 20
-92.912075296809
 30
0.0
 40
0.0
 41
0.0
  0
VERTEX
  5
   794
  8
0
  6
CONTINUOUS
 10
-943.90143088879
 20
-92.8845837476841
 30
0.0
 40
0.0
 41
0.0
  0
VERTEX
  5
   795
  8
0
  6
CONTINUOUS
 10
-943.92347702741
 20
-92.8573142149861
 30
0.0
 40
0.0
 41
0.0
  0
VERTEX
  5
   796
  8
0
  6
CONTINUOUS
 10
-943.947089211554
 20
-92.8302831248619
 30
0.0
 40
0.0
 41
0.0
  0
VERTEX
  5
   797
  8
0
  6
CONTINUOUS
 10
-943.972253218126
 20
-92.8035067598295
 30
0.0
 40
0.0
 41
0.0
  0
VERTEX
  5
   798
  8
0
  6
CONTINUOUS
 10
-943.998953889269
 20
-92.7770012489699
 30
0.0
 40
0.0
 41
0.0
  0
VERTEX
  5
   799
  8
0
  6
CONTINUOUS
 10
-944.027175141496
 20
-92.7507825582117
 30
0.0
 40
0.0
 41
0.0
  0
VERTEX
  5
   79A
  8
0
  6
CONTINUOUS
 10
-944.056899975382
 20
-92.7248664807139
 30
0.0
 40
0.0
 41
0.0
  0
VERTEX
  5
   79B
  8
0
  6
CONTINUOUS
 10
-944.088110485797
 20
-92.6992686273524
 30
0.0
 40
0.0
 41
0.0
  0
VERTEX
  5
   79C
  8
0
  6
CONTINUOUS
 10
-944.120787872697
 20
-92.6740044173171
 30
0.0
 40
0.0
 41
0.0
  0
VERTEX
  5
   79D
  8
0
  6
CONTINUOUS
 10
-944.154912452446
 20
-92.6490890688233
 30
0.0
 40
0.0
 41
0.0
  0
VERTEX
  5
   79E
  8
0
  6
CONTINUOUS
 10
-944.190463669674
 20
-92.6245375899453
 30
0.0
 40
0.0
 41
0.0
  0
VERTEX
  5
   79F
  8
0
  6
CONTINUOUS
 10
-944.227420109655
 20
-92.600364769576
 30
0.0
 40
0.0
 41
0.0
  0
VERTEX
  5
   7A0
  8
0
  6
CONTINUOUS
 10
-944.265759511214
 20
-92.5765851685184
 30
0.0
 40
0.0
 41
0.0
  0
VERTEX
  5
   7A1
  8
0
  6
CONTINUOUS
 10
-944.305458780127
 20
-92.5532131107151
 30
0.0
 40
0.0
 41
0.0
  0
VERTEX
  5
   7A2
  8
0
  6
CONTINUOUS
 10
-944.34649400304
 20
-92.5302626746197
 30
0.0
 40
0.0
 41
0.0
  0
VERTEX
  5
   7A3
  8
0
  6
CONTINUOUS
 10
-944.388840461868
 20
-92.5077476847169
 30
0.0
 40
0.0
 41
0.0
  0
VERTEX
  5
   7A4
  8
0
  6
CONTINUOUS
 10
-944.43247264869
 20
-92.4856817031945
 30
0.0
 40
0.0
 41
0.0
  0
VERTEX
  5
   7A5
  8
0
  6
CONTINUOUS
 10
-944.477364281106
 20
-92.4640780217748
 30
0.0
 40
0.0
 41
0.0
  0
VERTEX
  5
   7A6
  8
0
  6
CONTINUOUS
 10
-944.523488318075
 20
-92.4429496537076
 30
0.0
 40
0.0
 41
0.0
  0
VERTEX
  5
   7A7
  8
0
  6
CONTINUOUS
 10
-944.619321746477
 20
-92.4021694714093
 30
0.0
 40
0.0
 41
0.0
  0
VERTEX
  5
   7A8
  8
0
  6
CONTINUOUS
 10
-944.719742062771
 20
-92.3634393993305
 30
0.0
 40
0.0
 41
0.0
  0
VERTEX
  5
   7A9
  8
0
  6
CONTINUOUS
 10
-944.824507345621
 20
-92.3268527416072
 30
0.0
 40
0.0
 41
0.0
  0
VERTEX
  5
   7AA
  8
0
  6
CONTINUOUS
 10
-944.933365206283
 20
-92.2924976387027
 30
0.0
 40
0.0
 41
0.0
  0
VERTEX
  5
   7AB
  8
0
  6
CONTINUOUS
 10
-945.046053396637
 20
-92.2604568550688
 30
0.0
 40
0.0
 41
0.0
  0
VERTEX
  5
   7AC
  8
0
  6
CONTINUOUS
 10
-945.16230044096
 20
-92.2308075797598
 30
0.0
 40
0.0
 41
0.0
  0
VERTEX
  5
   7AD
  8
0
  6
CONTINUOUS
 10
-945.281826289943
 20
-92.2036212404769
 30
0.0
 40
0.0
 41
0.0
  0
VERTEX
  5
   7AE
  8
0
  6
CONTINUOUS
 10
-945.342729072063
 20
-92.1909723749937
 30
0.0
 40
0.0
 41
0.0
  0
VERTEX
  5
   7AF
  8
0
  6
CONTINUOUS
 10
-945.466630945865
 20
-92.1676013437725
 30
0.0
 40
0.0
 41
0.0
  0
VERTEX
  5
   7B0
  8
0
  6
CONTINUOUS
 10
-945.593078465483
 20
-92.146845517936
 30
0.0
 40
0.0
 41
0.0
  0
VERTEX
  5
   7B1
  8
0
  6
CONTINUOUS
 10
-945.721767007767
 20
-92.1287549000867
 30
0.0
 40
0.0
 41
0.0
  0
VERTEX
  5
   7B2
  8
0
  6
CONTINUOUS
 10
-945.852386550747
 20
-92.1133730721077
 30
0.0
 40
0.0
 41
0.0
  0
VERTEX
  5
   7B3
  8
0
  6
CONTINUOUS
 10
-945.984622420502
 20
-92.1007370901697
 30
0.0
 40
0.0
 41
0.0
  0
VERTEX
  5
   7B4
  8
0
  6
CONTINUOUS
 10
-946.118156049241
 20
-92.0908773954601
 30
0.0
 40
0.0
 41
0.0
  0
VERTEX
  5
   7B5
  8
0
  6
CONTINUOUS
 10
-946.252665742755
 20
-92.0838177408469
 30
0.0
 40
0.0
 41
0.0
  0
VERTEX
  5
   7B6
  8
0
  6
CONTINUOUS
 10
-946.38782745541
 20
-92.0795751336566
 30
0.0
 40
0.0
 41
0.0
  0
VERTEX
  5
   7B7
  8
0
  6
CONTINUOUS
 10
-946.523315570803
 20
-92.0781597947014
 30
0.0
 40
0.0
 41
0.0
  0
VERTEX
  5
   7B8
  8
0
  6
CONTINUOUS
 10
-946.658803686196
 20
-92.0795751336569
 30
0.0
 40
0.0
 41
0.0
  0
VERTEX
  5
   7B9
  8
0
  6
CONTINUOUS
 10
-946.793965398852
 20
-92.0838177408476
 30
0.0
 40
0.0
 41
0.0
  0
VERTEX
  5
   7BA
  8
0
  6
CONTINUOUS
 10
-946.928475092365
 20
-92.0908773954611
 30
0.0
 40
0.0
 41
0.0
  0
VERTEX
  5
   7BB
  8
0
  6
CONTINUOUS
 10
-947.062008721104
 20
-92.100737090171
 30
0.0
 40
0.0
 41
0.0
  0
VERTEX
  5
   7BC
  8
0
  6
CONTINUOUS
 10
-947.194244590859
 20
-92.1133730721094
 30
0.0
 40
0.0
 41
0.0
  0
VERTEX
  5
   7BD
  8
0
  6
CONTINUOUS
 10
-947.324864133839
 20
-92.1287549000887
 30
0.0
 40
0.0
 41
0.0
  0
VERTEX
  5
   7BE
  8
0
  6
CONTINUOUS
 10
-947.453552676123
 20
-92.1468455179383
 30
0.0
 40
0.0
 41
0.0
  0
VERTEX
  5
   7BF
  8
0
  6
CONTINUOUS
 10
-947.580000195741
 20
-92.1676013437751
 30
0.0
 40
0.0
 41
0.0
  0
VERTEX
  5
   7C0
  8
0
  6
CONTINUOUS
 10
-947.703902069543
 20
-92.1909723749967
 30
0.0
 40
0.0
 41
0.0
  0
VERTEX
  5
   7C1
  8
0
  6
CONTINUOUS
 10
-947.824959807062
 20
-92.2169023087418
 30
0.0
 40
0.0
 41
0.0
  0
VERTEX
  5
   7C2
  8
0
  6
CONTINUOUS
 10
-947.942881769606
 20
-92.2453286775289
 30
0.0
 40
0.0
 41
0.0
  0
VERTEX
  5
   7C3
  8
0
  6
CONTINUOUS
 10
-948.057383872837
 20
-92.2761829997456
 30
0.0
 40
0.0
 41
0.0
  0
VERTEX
  5
   7C4
  8
0
  6
CONTINUOUS
 10
-948.168190271161
 20
-92.3093909446272
 30
0.0
 40
0.0
 41
0.0
  0
VERTEX
  5
   7C5
  8
0
  6
CONTINUOUS
 10
-948.275034022257
 20
-92.3448725113259
 30
0.0
 40
0.0
 41
0.0
  0
VERTEX
  5
   7C6
  8
0
  6
CONTINUOUS
 10
-948.377657730171
 20
-92.3825422216396
 30
0.0
 40
0.0
 41
0.0
  0
VERTEX
  5
   7C7
  8
0
  6
CONTINUOUS
 10
-948.475814165402
 20
-92.4223093259368
 30
0.0
 40
0.0
 41
0.0
  0
VERTEX
  5
   7C8
  8
0
  6
CONTINUOUS
 10
-948.52314282353
 20
-92.4429496537127
 30
0.0
 40
0.0
 41
0.0
  0
VERTEX
  5
   7C9
  8
0
  6
CONTINUOUS
 10
-948.5692668605
 20
-92.4640780217799
 30
0.0
 40
0.0
 41
0.0
  0
VERTEX
  5
   7CA
  8
0
  6
CONTINUOUS
 10
-948.614158492916
 20
-92.4856817031997
 30
0.0
 40
0.0
 41
0.0
  0
VERTEX
  5
   7CB
  8
0
  6
CONTINUOUS
 10
-948.657790679737
 20
-92.5077476847222
 30
0.0
 40
0.0
 41
0.0
  0
VERTEX
  5
   7CC
  8
0
  6
CONTINUOUS
 10
-948.700137138565
 20
-92.5302626746252
 30
0.0
 40
0.0
 41
0.0
  0
VERTEX
  5
   7CD
  8
0
  6
CONTINUOUS
 10
-948.741172361478
 20
-92.5532131107207
 30
0.0
 40
0.0
 41
0.0
  0
VERTEX
  5
   7CE
  8
0
  6
CONTINUOUS
 10
-948.780871630391
 20
-92.5765851685241
 30
0.0
 40
0.0
 41
0.0
  0
VERTEX
  5
   7CF
  8
0
  6
CONTINUOUS
 10
-948.81921103195
 20
-92.6003647695818
 30
0.0
 40
0.0
 41
0.0
  0
VERTEX
  5
   7D0
  8
0
  6
CONTINUOUS
 10
-948.856167471931
 20
-92.6245375899512
 30
0.0
 40
0.0
 41
0.0
  0
VERTEX
  5
   7D1
  8
0
  6
CONTINUOUS
 10
-948.891718689159
 20
-92.6490890688293
 30
0.0
 40
0.0
 41
0.0
  0
VERTEX
  5
   7D2
  8
0
  6
CONTINUOUS
 10
-948.925843268908
 20
-92.6740044173232
 30
0.0
 40
0.0
 41
0.0
  0
VERTEX
  5
   7D3
  8
0
  6
CONTINUOUS
 10
-948.958520655808
 20
-92.6992686273586
 30
0.0
 40
0.0
 41
0.0
  0
VERTEX
  5
   7D4
  8
0
  6
CONTINUOUS
 10
-948.989731166223
 20
-92.7248664807201
 30
0.0
 40
0.0
 41
0.0
  0
VERTEX
  5
   7D5
  8
0
  6
CONTINUOUS
 10
-949.019456000108
 20
-92.7507825582179
 30
0.0
 40
0.0
 41
0.0
  0
VERTEX
  5
   7D6
  8
0
  6
CONTINUOUS
 10
-949.047677252336
 20
-92.7770012489762
 30
0.0
 40
0.0
 41
0.0
  0
VERTEX
  5
   7D7
  8
0
  6
CONTINUOUS
 10
-949.074377923479
 20
-92.8035067598359
 30
0.0
 40
0.0
 41
0.0
  0
VERTEX
  5
   7D8
  8
0
  6
CONTINUOUS
 10
-949.09954193005
 20
-92.8302831248684
 30
0.0
 40
0.0
 41
0.0
  0
VERTEX
  5
   7D9
  8
0
  6
CONTINUOUS
 10
-949.123154114195
 20
-92.8573142149926
 30
0.0
 40
0.0
 41
0.0
  0
VERTEX
  5
   7DA
  8
0
  6
CONTINUOUS
 10
-949.145200252815
 20
-92.8845837476906
 30
0.0
 40
0.0
 41
0.0
  0
VERTEX
  5
   7DB
  8
0
  6
CONTINUOUS
 10
-949.165667066141
 20
-92.9120752968156
 30
0.0
 40
0.0
 41
0.0
  0
VERTEX
  5
   7DC
  8
0
  6
CONTINUOUS
 10
-949.18454222573
 20
-92.9397723024864
 30
0.0
 40
0.0
 41
0.0
  0
VERTEX
  5
   7DD
  8
0
  6
CONTINUOUS
 10
-949.201814361892
 20
-92.9676580810623
 30
0.0
 40
0.0
 41
0.0
  0
VERTEX
  5
   7DE
  8
0
  6
CONTINUOUS
 10
-949.217473070538
 20
-92.9957158351932
 30
0.0
 40
0.0
 41
0.0
  0
VERTEX
  5
   7DF
  8
0
  6
CONTINUOUS
 10
-949.231508919446
 20
-93.0239286639371
 30
0.0
 40
0.0
 41
0.0
  0
VERTEX
  5
   7E0
  8
0
  6
CONTINUOUS
 10
-949.243913453948
 20
-93.0522795729408
 30
0.0
 40
0.0
 41
0.0
  0
VERTEX
  5
   7E1
  8
0
  6
CONTINUOUS
 10
-949.254679202014
 20
-93.0807514846768
 30
0.0
 40
0.0
 41
0.0
  0
VERTEX
  5
   7E2
  8
0
  6
CONTINUOUS
 10
-949.263799678762
 20
-93.1093272487304
 30
0.0
 40
0.0
 41
0.0
  0
VERTEX
  5
   7E3
  8
0
  6
CONTINUOUS
 10
-949.271269390355
 20
-93.1379896521295
 30
0.0
 40
0.0
 41
0.0
  0
VERTEX
  5
   7E4
  8
0
  6
CONTINUOUS
 10
-949.277083837321
 20
-93.1667214297143
 30
0.0
 40
0.0
 41
0.0
  0
VERTEX
  5
   7E5
  8
0
  6
CONTINUOUS
 10
-949.281239517253
 20
-93.1955052745362
 30
0.0
 40
0.0
 41
0.0
  0
VERTEX
  5
   7E6
  8
0
  6
CONTINUOUS
 10
-949.283733926925
 20
-93.2243238482834
 30
0.0
 40
0.0
 41
0.0
  0
VERTEX
  5
   7E7
  8
0
  6
CONTINUOUS
 10
-949.284565563798
 20
-93.2531597917247
 30
0.0
 40
0.0
 41
0.0
  0
SEQEND
  5
   7E8
  8
0
  6
CONTINUOUS
 62
   218
  0
POLYLINE
  5
   7E9
  8
0
  6
CONTINUOUS
 62
   218
 66
     1
 10
0.0
 20
0.0
 30
0.0
  0
VERTEX
  5
   7EA
  8
0
  6
CONTINUOUS
 10
-943.762065577805
 20
-93.2531597917247
 30
0.0
 40
0.0
 41
0.0
  0
VERTEX
  5
   7EB
  8
0
  6
CONTINUOUS
 10
-943.761233940932
 20
-93.281995735166
 30
0.0
 40
0.0
 41
0.0
  0
VERTEX
  5
   7EC
  8
0
  6
CONTINUOUS
 10
-943.75873953126
 20
-93.3108143089132
 30
0.0
 40
0.0
 41
0.0
  0
VERTEX
  5
   7ED
  8
0
  6
CONTINUOUS
 10
-943.754583851328
 20
-93.3395981537351
 30
0.0
 40
0.0
 41
0.0
  0
VERTEX
  5
   7EE
  8
0
  6
CONTINUOUS
 10
-943.748769404362
 20
-93.3683299313198
 30
0.0
 40
0.0
 41
0.0
  0
VERTEX
  5
   7EF
  8
0
  6
CONTINUOUS
 10
-943.741299692768
 20
-93.396992334719
 30
0.0
 40
0.0
 41
0.0
  0
VERTEX
  5
   7F0
  8
0
  6
CONTINUOUS
 10
-943.732179216021
 20
-93.4255680987725
 30
0.0
 40
0.0
 41
0.0
  0
VERTEX
  5
   7F1
  8
0
  6
CONTINUOUS
 10
-943.721413467954
 20
-93.4540400105086
 30
0.0
 40
0.0
 41
0.0
  0
VERTEX
  5
   7F2
  8
0
  6
CONTINUOUS
 10
-943.709008933453
 20
-93.4823909195123
 30
0.0
 40
0.0
 41
0.0
  0
VERTEX
  5
   7F3
  8
0
  6
CONTINUOUS
 10
-943.694973084544
 20
-93.5106037482561
 30
0.0
 40
0.0
 41
0.0
  0
VERTEX
  5
   7F4
  8
0
  6
CONTINUOUS
 10
-943.679314375898
 20
-93.538661502387
 30
0.0
 40
0.0
 41
0.0
  0
VERTEX
  5
   7F5
  8
0
  6
CONTINUOUS
 10
-943.662042239736
 20
-93.5665472809629
 30
0.0
 40
0.0
 41
0.0
  0
VERTEX
  5
   7F6
  8
0
  6
CONTINUOUS
 10
-943.643167080147
 20
-93.5942442866336
 30
0.0
 40
0.0
 41
0.0
  0
VERTEX
  5
   7F7
  8
0
  6
CONTINUOUS
 10
-943.62270026682
 20
-93.6217358357586
 30
0.0
 40
0.0
 41
0.0
  0
VERTEX
  5
   7F8
  8
0
  6
CONTINUOUS
 10
-943.6006541282
 20
-93.6490053684566
 30
0.0
 40
0.0
 41
0.0
  0
VERTEX
  5
   7F9
  8
0
  6
CONTINUOUS
 10
-943.577041944056
 20
-93.6760364585808
 30
0.0
 40
0.0
 41
0.0
  0
VERTEX
  5
   7FA
  8
0
  6
CONTINUOUS
 10
-943.551877937484
 20
-93.7028128236132
 30
0.0
 40
0.0
 41
0.0
  0
VERTEX
  5
   7FB
  8
0
  6
CONTINUOUS
 10
-943.525177266341
 20
-93.7293183344729
 30
0.0
 40
0.0
 41
0.0
  0
VERTEX
  5
   7FC
  8
0
  6
CONTINUOUS
 10
-943.496956014114
 20
-93.7555370252311
 30
0.0
 40
0.0
 41
0.0
  0
VERTEX
  5
   7FD
  8
0
  6
CONTINUOUS
 10
-943.467231180228
 20
-93.7814531027289
 30
0.0
 40
0.0
 41
0.0
  0
VERTEX
  5
   7FE
  8
0
  6
CONTINUOUS
 10
-943.436020669813
 20
-93.8070509560903
 30
0.0
 40
0.0
 41
0.0
  0
VERTEX
  5
   7FF
  8
0
  6
CONTINUOUS
 10
-943.403343282913
 20
-93.8323151661257
 30
0.0
 40
0.0
 41
0.0
  0
VERTEX
  5
   800
  8
0
  6
CONTINUOUS
 10
-943.369218703164
 20
-93.8572305146195
 30
0.0
 40
0.0
 41
0.0
  0
VERTEX
  5
   801
  8
0
  6
CONTINUOUS
 10
-943.333667485936
 20
-93.8817819934975
 30
0.0
 40
0.0
 41
0.0
  0
VERTEX
  5
   802
  8
0
  6
CONTINUOUS
 10
-943.296711045954
 20
-93.9059548138668
 30
0.0
 40
0.0
 41
0.0
  0
VERTEX
  5
   803
  8
0
  6
CONTINUOUS
 10
-943.258371644396
 20
-93.9297344149244
 30
0.0
 40
0.0
 41
0.0
  0
VERTEX
  5
   804
  8
0
  6
CONTINUOUS
 10
-943.218672375483
 20
-93.9531064727277
 30
0.0
 40
0.0
 41
0.0
  0
VERTEX
  5
   805
  8
0
  6
CONTINUOUS
 10
-943.17763715257
 20
-93.9760569088231
 30
0.0
 40
0.0
 41
0.0
  0
VERTEX
  5
   806
  8
0
  6
CONTINUOUS
 10
-943.135290693741
 20
-93.998571898726
 30
0.0
 40
0.0
 41
0.0
  0
VERTEX
  5
   807
  8
0
  6
CONTINUOUS
 10
-943.09165850692
 20
-94.0206378802484
 30
0.0
 40
0.0
 41
0.0
  0
VERTEX
  5
   808
  8
0
  6
CONTINUOUS
 10
-943.046766874504
 20
-94.0422415616681
 30
0.0
 40
0.0
 41
0.0
  0
VERTEX
  5
   809
  8
0
  6
CONTINUOUS
 10
-943.000642837534
 20
-94.0633699297353
 30
0.0
 40
0.0
 41
0.0
  0
VERTEX
  5
   80A
  8
0
  6
CONTINUOUS
 10
-942.904809409132
 20
-94.1041501120337
 30
0.0
 40
0.0
 41
0.0
  0
VERTEX
  5
   80B
  8
0
  6
CONTINUOUS
 10
-942.804389092838
 20
-94.1428801841124
 30
0.0
 40
0.0
 41
0.0
  0
VERTEX
  5
   80C
  8
0
  6
CONTINUOUS
 10
-942.699623809988
 20
-94.1794668418357
 30
0.0
 40
0.0
 41
0.0
  0
VERTEX
  5
   80D
  8
0
  6
CONTINUOUS
 10
-942.590765949326
 20
-94.2138219447402
 30
0.0
 40
0.0
 41
0.0
  0
VERTEX
  5
   80E
  8
0
  6
CONTINUOUS
 10
-942.478077758972
 20
-94.2458627283741
 30
0.0
 40
0.0
 41
0.0
  0
VERTEX
  5
   80F
  8
0
  6
CONTINUOUS
 10
-942.361830714648
 20
-94.2755120036831
 30
0.0
 40
0.0
 41
0.0
  0
VERTEX
  5
   810
  8
0
  6
CONTINUOUS
 10
-942.242304865665
 20
-94.3026983429659
 30
0.0
 40
0.0
 41
0.0
  0
VERTEX
  5
   811
  8
0
  6
CONTINUOUS
 10
-942.181402083545
 20
-94.3153472084491
 30
0.0
 40
0.0
 41
0.0
  0
VERTEX
  5
   812
  8
0
  6
CONTINUOUS
 10
-942.057500209743
 20
-94.3387182396703
 30
0.0
 40
0.0
 41
0.0
  0
VERTEX
  5
   813
  8
0
  6
CONTINUOUS
 10
-941.931052690125
 20
-94.3594740655068
 30
0.0
 40
0.0
 41
0.0
  0
VERTEX
  5
   814
  8
0
  6
CONTINUOUS
 10
-941.80236414784
 20
-94.377564683356
 30
0.0
 40
0.0
 41
0.0
  0
VERTEX
  5
   815
  8
0
  6
CONTINUOUS
 10
-941.671744604861
 20
-94.392946511335
 30
0.0
 40
0.0
 41
0.0
  0
VERTEX
  5
   816
  8
0
  6
CONTINUOUS
 10
-941.539508735105
 20
-94.4055824932729
 30
0.0
 40
0.0
 41
0.0
  0
VERTEX
  5
   817
  8
0
  6
CONTINUOUS
 10
-941.405975106366
 20
-94.4154421879825
 30
0.0
 40
0.0
 41
0.0
  0
VERTEX
  5
   818
  8
0
  6
CONTINUOUS
 10
-941.271465412852
 20
-94.4225018425956
 30
0.0
 40
0.0
 41
0.0
  0
VERTEX
  5
   819
  8
0
  6
CONTINUOUS
 10
-941.136303700197
 20
-94.4267444497859
 30
0.0
 40
0.0
 41
0.0
  0
VERTEX
  5
   81A
  8
0
  6
CONTINUOUS
 10
-941.000815584804
 20
-94.428159788741
 30
0.0
 40
0.0
 41
0.0
  0
VERTEX
  5
   81B
  8
0
  6
CONTINUOUS
 10
-940.865327469411
 20
-94.4267444497854
 30
0.0
 40
0.0
 41
0.0
  0
VERTEX
  5
   81C
  8
0
  6
CONTINUOUS
 10
-940.730165756755
 20
-94.4225018425946
 30
0.0
 40
0.0
 41
0.0
  0
VERTEX
  5
   81D
  8
0
  6
CONTINUOUS
 10
-940.595656063241
 20
-94.4154421879811
 30
0.0
 40
0.0
 41
0.0
  0
VERTEX
  5
   81E
  8
0
  6
CONTINUOUS
 10
-940.462122434503
 20
-94.405582493271
 30
0.0
 40
0.0
 41
0.0
  0
VERTEX
  5
   81F
  8
0
  6
CONTINUOUS
 10
-940.329886564747
 20
-94.3929465113326
 30
0.0
 40
0.0
 41
0.0
  0
VERTEX
  5
   820
  8
0
  6
CONTINUOUS
 10
-940.199267021768
 20
-94.3775646833531
 30
0.0
 40
0.0
 41
0.0
  0
VERTEX
  5
   821
  8
0
  6
CONTINUOUS
 10
-940.070578479484
 20
-94.3594740655034
 30
0.0
 40
0.0
 41
0.0
  0
VERTEX
  5
   822
  8
0
  6
CONTINUOUS
 10
-939.944130959866
 20
-94.3387182396665
 30
0.0
 40
0.0
 41
0.0
  0
VERTEX
  5
   823
  8
0
  6
CONTINUOUS
 10
-939.820229086063
 20
-94.3153472084449
 30
0.0
 40
0.0
 41
0.0
  0
VERTEX
  5
   824
  8
0
  6
CONTINUOUS
 10
-939.699171348544
 20
-94.2894172746996
 30
0.0
 40
0.0
 41
0.0
  0
VERTEX
  5
   825
  8
0
  6
CONTINUOUS
 10
-939.581249386
 20
-94.2609909059125
 30
0.0
 40
0.0
 41
0.0
  0
VERTEX
  5
   826
  8
0
  6
CONTINUOUS
 10
-939.466747282769
 20
-94.2301365836957
 30
0.0
 40
0.0
 41
0.0
  0
VERTEX
  5
   827
  8
0
  6
CONTINUOUS
 10
-939.355940884446
 20
-94.1969286388139
 30
0.0
 40
0.0
 41
0.0
  0
VERTEX
  5
   828
  8
0
  6
CONTINUOUS
 10
-939.24909713335
 20
-94.1614470721151
 30
0.0
 40
0.0
 41
0.0
  0
VERTEX
  5
   829
  8
0
  6
CONTINUOUS
 10
-939.146473425436
 20
-94.1237773618013
 30
0.0
 40
0.0
 41
0.0
  0
VERTEX
  5
   82A
  8
0
  6
CONTINUOUS
 10
-939.048316990205
 20
-94.084010257504
 30
0.0
 40
0.0
 41
0.0
  0
VERTEX
  5
   82B
  8
0
  6
CONTINUOUS
 10
-939.000988332077
 20
-94.0633699297281
 30
0.0
 40
0.0
 41
0.0
  0
VERTEX
  5
   82C
  8
0
  6
CONTINUOUS
 10
-938.954864295107
 20
-94.0422415616608
 30
0.0
 40
0.0
 41
0.0
  0
VERTEX
  5
   82D
  8
0
  6
CONTINUOUS
 10
-938.909972662691
 20
-94.0206378802409
 30
0.0
 40
0.0
 41
0.0
  0
VERTEX
  5
   82E
  8
0
  6
CONTINUOUS
 10
-938.86634047587
 20
-93.9985718987184
 30
0.0
 40
0.0
 41
0.0
  0
VERTEX
  5
   82F
  8
0
  6
CONTINUOUS
 10
-938.823994017042
 20
-93.9760569088153
 30
0.0
 40
0.0
 41
0.0
  0
VERTEX
  5
   830
  8
0
  6
CONTINUOUS
 10
-938.782958794129
 20
-93.9531064727198
 30
0.0
 40
0.0
 41
0.0
  0
VERTEX
  5
   831
  8
0
  6
CONTINUOUS
 10
-938.743259525216
 20
-93.9297344149163
 30
0.0
 40
0.0
 41
0.0
  0
VERTEX
  5
   832
  8
0
  6
CONTINUOUS
 10
-938.704920123658
 20
-93.9059548138586
 30
0.0
 40
0.0
 41
0.0
  0
VERTEX
  5
   833
  8
0
  6
CONTINUOUS
 10
-938.667963683676
 20
-93.8817819934891
 30
0.0
 40
0.0
 41
0.0
  0
VERTEX
  5
   834
  8
0
  6
CONTINUOUS
 10
-938.632412466449
 20
-93.857230514611
 30
0.0
 40
0.0
 41
0.0
  0
VERTEX
  5
   835
  8
0
  6
CONTINUOUS
 10
-938.5982878867
 20
-93.8323151661171
 30
0.0
 40
0.0
 41
0.0
  0
VERTEX
  5
   836
  8
0
  6
CONTINUOUS
 10
-938.5656104998
 20
-93.8070509560816
 30
0.0
 40
0.0
 41
0.0
  0
VERTEX
  5
   837
  8
0
  6
CONTINUOUS
 10
-938.534399989385
 20
-93.7814531027201
 30
0.0
 40
0.0
 41
0.0
  0
VERTEX
  5
   838
  8
0
  6
CONTINUOUS
 10
-938.5046751555
 20
-93.7555370252221
 30
0.0
 40
0.0
 41
0.0
  0
VERTEX
  5
   839
  8
0
  6
CONTINUOUS
 10
-938.476453903272
 20
-93.7293183344638
 30
0.0
 40
0.0
 41
0.0
  0
VERTEX
  5
   83A
  8
0
  6
CONTINUOUS
 10
-938.44975323213
 20
-93.7028128236041
 30
0.0
 40
0.0
 41
0.0
  0
VERTEX
  5
   83B
  8
0
  6
CONTINUOUS
 10
-938.424589225558
 20
-93.6760364585716
 30
0.0
 40
0.0
 41
0.0
  0
VERTEX
  5
   83C
  8
0
  6
CONTINUOUS
 10
-938.400977041414
 20
-93.6490053684473
 30
0.0
 40
0.0
 41
0.0
  0
VERTEX
  5
   83D
  8
0
  6
CONTINUOUS
 10
-938.378930902794
 20
-93.6217358357492
 30
0.0
 40
0.0
 41
0.0
  0
VERTEX
  5
   83E
  8
0
  6
CONTINUOUS
 10
-938.358464089468
 20
-93.5942442866242
 30
0.0
 40
0.0
 41
0.0
  0
VERTEX
  5
   83F
  8
0
  6
CONTINUOUS
 10
-938.339588929879
 20
-93.5665472809534
 30
0.0
 40
0.0
 41
0.0
  0
VERTEX
  5
   840
  8
0
  6
CONTINUOUS
 10
-938.322316793717
 20
-93.5386615023774
 30
0.0
 40
0.0
 41
0.0
  0
VERTEX
  5
   841
  8
0
  6
CONTINUOUS
 10
-938.306658085071
 20
-93.5106037482465
 30
0.0
 40
0.0
 41
0.0
  0
VERTEX
  5
   842
  8
0
  6
CONTINUOUS
 10
-938.292622236163
 20
-93.4823909195026
 30
0.0
 40
0.0
 41
0.0
  0
VERTEX
  5
   843
  8
0
  6
CONTINUOUS
 10
-938.280217701661
 20
-93.4540400104989
 30
0.0
 40
0.0
 41
0.0
  0
VERTEX
  5
   844
  8
0
  6
CONTINUOUS
 10
-938.269451953595
 20
-93.4255680987627
 30
0.0
 40
0.0
 41
0.0
  0
VERTEX
  5
   845
  8
0
  6
CONTINUOUS
 10
-938.260331476848
 20
-93.3969923347092
 30
0.0
 40
0.0
 41
0.0
  0
VERTEX
  5
   846
  8
0
  6
CONTINUOUS
 10
-938.252861765254
 20
-93.36832993131
 30
0.0
 40
0.0
 41
0.0
  0
VERTEX
  5
   847
  8
0
  6
CONTINUOUS
 10
-938.247047318289
 20
-93.3395981537252
 30
0.0
 40
0.0
 41
0.0
  0
VERTEX
  5
   848
  8
0
  6
CONTINUOUS
 10
-938.242891638357
 20
-93.3108143089033
 30
0.0
 40
0.0
 41
0.0
  0
VERTEX
  5
   849
  8
0
  6
CONTINUOUS
 10
-938.240397228685
 20
-93.2819957351561
 30
0.0
 40
0.0
 41
0.0
  0
VERTEX
  5
   84A
  8
0
  6
CONTINUOUS
 10
-938.239565591812
 20
-93.2531597917148
 30
0.0
 40
0.0
 41
0.0
  0
SEQEND
  5
   84B
  8
0
  6
CONTINUOUS
 62
   218
  0
INSERT
  5
   84C
  8
0
  6
CONTINUOUS
 62
   218
  2
*HATCH202
 10
-941.999572753906
 20
-50.5946159362793
 30
0.0
 41
0.469999998807907
 42
0.469999998807907
 50
89.9999999480344
 43
0.469999998807907
  0
LINE
  5
   84D
  8
0
  6
CONTINUOUS
 62
     7
 10
-968.554565514922
 20
30.1218094876563
 30
0.0
 11
-968.554565514922
 21
33.8818094781195
 31
0.0
  0
LINE
  5
   84E
  8
0
  6
CONTINUOUS
 62
     7
 10
-970.434565510154
 20
30.8268094858681
 30
0.0
 11
-970.434565510154
 21
33.1768094799076
 31
0.0
  0
LINE
  5
   84F
  8
0
  6
CONTINUOUS
 62
     7
 10
-966.674565519691
 20
33.8818094781195
 30
0.0
 11
-968.554565514922
 21
33.8818094781195
 31
0.0
  0
LINE
  5
   850
  8
0
  6
CONTINUOUS
 62
     7
 10
-966.674565519691
 20
30.1218094876563
 30
0.0
 11
-968.554565514922
 21
30.1218094876563
 31
0.0
  0
LINE
  5
   851
  8
0
  6
CONTINUOUS
 62
     7
 10
-966.674565519691
 20
33.1768094799076
 30
0.0
 11
-970.434565510154
 21
33.1768094799076
 31
0.0
  0
LINE
  5
   852
  8
0
  6
CONTINUOUS
 62
     7
 10
-966.674565519691
 20
30.8268094858681
 30
0.0
 11
-970.434565510154
 21
30.8268094858681
 31
0.0
  0
LINE
  5
   853
  8
0
  6
CONTINUOUS
 62
     7
 10
-966.674565519691
 20
-29.5681903609479
 30
0.0
 11
-968.554565514922
 21
-29.5681903609479
 31
0.0
  0
LINE
  5
   854
  8
0
  6
CONTINUOUS
 62
     7
 10
-966.674565519691
 20
-30.2731903591598
 30
0.0
 11
-970.434565510154
 21
-30.2731903591598
 31
0.0
  0
LINE
  5
   855
  8
0
  6
CONTINUOUS
 62
     7
 10
-966.674565519691
 20
-32.6231903531993
 30
0.0
 11
-970.434565510154
 21
-32.6231903531993
 31
0.0
  0
LINE
  5
   856
  8
0
  6
CONTINUOUS
 62
     7
 10
-966.674565519691
 20
-33.3281903514112
 30
0.0
 11
-968.554565514922
 21
-33.3281903514112
 31
0.0
  0
LINE
  5
   857
  8
0
  6
CONTINUOUS
 62
     7
 10
-968.554565514922
 20
-33.3281903514112
 30
0.0
 11
-968.554565514922
 21
-29.5681903609479
 31
0.0
  0
LINE
  5
   858
  8
0
  6
CONTINUOUS
 62
     7
 10
-970.434565510154
 20
-32.6231903531993
 30
0.0
 11
-970.434565510154
 21
-30.2731903591598
 31
0.0
  0
TEXT
  5
   859
  8
0
  6
CONTINUOUS
 62
     7
 10
-1073.36441971675
 20
93.0118595809506
 30
0.0
 40
2.99999994291904
  1
=          =
 50
359.999999948034
 41
0.916666599088244
 72
     1
 11
-1057.13942122413
 21
94.5118595377761
 31
0.0
 73
     2
  0
INSERT
  5
   85A
  8
0
  6
CONTINUOUS
 62
     7
  2
*UDIM552
 10
0.0
 20
0.0
 30
0.0
  0
INSERT
  5
   85B
  8
0
  6
CONTINUOUS
 62
     7
  2
*UDIM553
 10
0.0
 20
0.0
 30
0.0
  0
INSERT
  5
   85C
  8
0
  6
CONTINUOUS
 62
     7
  2
*UDIM554
 10
0.0
 20
0.0
 30
0.0
  0
INSERT
  5
   85D
  8
0
  6
CONTINUOUS
 62
     7
  2
*UDIM555
 10
0.0
 20
0.0
 30
0.0
  0
INSERT
  5
   85E
  8
0
  6
CONTINUOUS
 62
     7
  2
*UDIM556
 10
0.0
 20
0.0
 30
0.0
  0
INSERT
  5
   85F
  8
0
  6
CONTINUOUS
 62
     7
  2
*UDIM557
 10
0.0
 20
0.0
 30
0.0
  0
TEXT
  5
   860
  8
0
  6
CONTINUOUS
 62
     7
 10
-864.268697262606
 20
-14.2583156890128
 30
0.0
 40
2.99999994291904
  1
=         =
 50
89.9999999480344
 41
0.916666599088244
 72
     2
 11
-864.268697235706
 21
15.4416815485804
 31
0.0
  0
INSERT
  5
   861
  8
0
  6
CONTINUOUS
 62
     7
  2
*UDIM558
 10
0.0
 20
0.0
 30
0.0
  0
INSERT
  5
   862
  8
0
  6
CONTINUOUS
 62
     7
  2
*UDIM559
 10
0.0
 20
0.0
 30
0.0
  0
INSERT
  5
   863
  8
0
  6
CONTINUOUS
 62
     7
  2
*UDIM560
 10
0.0
 20
0.0
 30
0.0
  0
INSERT
  5
   864
  8
0
  6
CONTINUOUS
 62
     7
  2
*UDIM561
 10
0.0
 20
0.0
 30
0.0
  0
INSERT
  5
   865
  8
0
  6
CONTINUOUS
 62
     7
  2
*UDIM562
 10
0.0
 20
0.0
 30
0.0
  0
TEXT
  5
   866
  8
0
  6
CONTINUOUS
 62
     7
 10
-861.368508685559
 20
-0.471484641806657
 30
0.0
 40
2.99999994291904
  1
X
 50
359.999999948034
 41
0.916666599088244
 72
     1
 11
-860.268508790112
 21
1.02851532866072
 31
0.0
 73
     2
  0
ENDSEC
  0
EOF
