ISO-10303-21;
HEADER;
FILE_DESCRIPTION((''),'2;1');
FILE_NAME('PTRS1201_ASM','2020-09-15T12:29:53',('SYSTEM'),(''),
'CREO PARAMETRIC BY PTC INC, 2019030','CREO PARAMETRIC BY PTC INC, 2019030','');
FILE_SCHEMA(('CONFIG_CONTROL_DESIGN','SHAPE_APPEARANCE_LAYERS_GROUPS'));
ENDSEC;
DATA;
#14=CARTESIAN_POINT('',(0.E0,0.E0,-1.05E2));
#15=DIRECTION('',(0.E0,0.E0,-1.E0));
#16=DIRECTION('',(1.E0,0.E0,0.E0));
#17=AXIS2_PLACEMENT_3D('',#14,#15,#16);
#19=CARTESIAN_POINT('',(0.E0,0.E0,-1.05E2));
#20=DIRECTION('',(0.E0,0.E0,-1.E0));
#21=DIRECTION('',(-1.E0,0.E0,0.E0));
#22=AXIS2_PLACEMENT_3D('',#19,#20,#21);
#24=DIRECTION('',(7.071067811866E-1,2.286489062944E-14,7.071067811865E-1));
#25=VECTOR('',#24,2.121320343560E0);
#26=CARTESIAN_POINT('',(3.5E0,6.876251346309E-13,-1.05E2));
#27=LINE('',#26,#25);
#28=DIRECTION('',(-7.071067811866E-1,-2.316027301409E-14,7.071067811865E-1));
#29=VECTOR('',#28,2.121320343560E0);
#30=CARTESIAN_POINT('',(-3.5E0,-6.878250163004E-13,-1.05E2));
#31=LINE('',#30,#29);
#32=CARTESIAN_POINT('',(0.E0,0.E0,1.035E2));
#33=DIRECTION('',(0.E0,0.E0,1.E0));
#34=DIRECTION('',(1.E0,0.E0,0.E0));
#35=AXIS2_PLACEMENT_3D('',#32,#33,#34);
#37=CARTESIAN_POINT('',(0.E0,0.E0,-1.035E2));
#38=DIRECTION('',(0.E0,0.E0,-1.E0));
#39=DIRECTION('',(-1.E0,0.E0,0.E0));
#40=AXIS2_PLACEMENT_3D('',#37,#38,#39);
#42=DIRECTION('',(0.E0,0.E0,1.E0));
#43=VECTOR('',#42,2.07E2);
#44=CARTESIAN_POINT('',(5.E0,7.361288922764E-13,-1.035E2));
#45=LINE('',#44,#43);
#46=DIRECTION('',(7.071067811865E-1,2.289978157297E-14,-7.071067811865E-1));
#47=VECTOR('',#46,2.121320343560E0);
#48=CARTESIAN_POINT('',(3.5E0,6.886613427872E-13,1.05E2));
#49=LINE('',#48,#47);
#50=CARTESIAN_POINT('',(0.E0,0.E0,1.05E2));
#51=DIRECTION('',(0.E0,0.E0,1.E0));
#52=DIRECTION('',(-1.E0,0.E0,0.E0));
#53=AXIS2_PLACEMENT_3D('',#50,#51,#52);
#55=CARTESIAN_POINT('',(0.E0,0.E0,1.05E2));
#56=DIRECTION('',(0.E0,0.E0,1.E0));
#57=DIRECTION('',(1.E0,0.E0,0.E0));
#58=AXIS2_PLACEMENT_3D('',#55,#56,#57);
#60=DIRECTION('',(-7.071067811866E-1,-2.315155027821E-14,-7.071067811865E-1));
#61=VECTOR('',#60,2.121320343560E0);
#62=CARTESIAN_POINT('',(-3.5E0,-6.875659642613E-13,1.05E2));
#63=LINE('',#62,#61);
#64=CARTESIAN_POINT('',(0.E0,0.E0,1.035E2));
#65=DIRECTION('',(0.E0,0.E0,1.E0));
#66=DIRECTION('',(-1.E0,0.E0,0.E0));
#67=AXIS2_PLACEMENT_3D('',#64,#65,#66);
#69=CARTESIAN_POINT('',(0.E0,0.E0,-1.035E2));
#70=DIRECTION('',(0.E0,0.E0,-1.E0));
#71=DIRECTION('',(1.E0,0.E0,0.E0));
#72=AXIS2_PLACEMENT_3D('',#69,#70,#71);
#74=DIRECTION('',(0.E0,0.E0,1.E0));
#75=VECTOR('',#74,2.07E2);
#76=CARTESIAN_POINT('',(-5.E0,-7.369553746076E-13,-1.035E2));
#77=LINE('',#76,#75);
#78=CARTESIAN_POINT('',(-3.5E0,0.E0,1.05E2));
#79=CARTESIAN_POINT('',(3.5E0,0.E0,1.05E2));
#80=VERTEX_POINT('',#78);
#81=VERTEX_POINT('',#79);
#82=CARTESIAN_POINT('',(-5.E0,0.E0,1.035E2));
#83=CARTESIAN_POINT('',(5.E0,0.E0,1.035E2));
#84=VERTEX_POINT('',#82);
#85=VERTEX_POINT('',#83);
#86=CARTESIAN_POINT('',(3.5E0,0.E0,-1.05E2));
#87=CARTESIAN_POINT('',(-3.5E0,0.E0,-1.05E2));
#88=VERTEX_POINT('',#86);
#89=VERTEX_POINT('',#87);
#90=CARTESIAN_POINT('',(5.E0,0.E0,-1.035E2));
#91=CARTESIAN_POINT('',(-5.E0,0.E0,-1.035E2));
#92=VERTEX_POINT('',#90);
#93=VERTEX_POINT('',#91);
#94=CARTESIAN_POINT('',(0.E0,0.E0,-1.05E2));
#95=DIRECTION('',(0.E0,0.E0,1.E0));
#96=DIRECTION('',(1.E0,0.E0,0.E0));
#97=AXIS2_PLACEMENT_3D('',#94,#95,#96);
#98=PLANE('',#97);
#100=ORIENTED_EDGE('',*,*,#99,.F.);
#102=ORIENTED_EDGE('',*,*,#101,.F.);
#103=EDGE_LOOP('',(#100,#102));
#104=FACE_OUTER_BOUND('',#103,.F.);
#105=ADVANCED_FACE('',(#104),#98,.F.);
#106=CARTESIAN_POINT('',(0.E0,0.E0,-1.0425E2));
#107=DIRECTION('',(0.E0,0.E0,1.E0));
#108=DIRECTION('',(0.E0,-1.E0,0.E0));
#109=AXIS2_PLACEMENT_3D('',#106,#107,#108);
#110=CONICAL_SURFACE('',#109,4.25E0,4.5E1);
#111=ORIENTED_EDGE('',*,*,#99,.T.);
#113=ORIENTED_EDGE('',*,*,#112,.T.);
#115=ORIENTED_EDGE('',*,*,#114,.F.);
#117=ORIENTED_EDGE('',*,*,#116,.F.);
#118=EDGE_LOOP('',(#111,#113,#115,#117));
#119=FACE_OUTER_BOUND('',#118,.F.);
#120=ADVANCED_FACE('',(#119),#110,.T.);
#121=CARTESIAN_POINT('',(0.E0,0.E0,-1.0425E2));
#122=DIRECTION('',(0.E0,0.E0,1.E0));
#123=DIRECTION('',(0.E0,-1.E0,0.E0));
#124=AXIS2_PLACEMENT_3D('',#121,#122,#123);
#125=CONICAL_SURFACE('',#124,4.25E0,4.5E1);
#126=ORIENTED_EDGE('',*,*,#101,.T.);
#127=ORIENTED_EDGE('',*,*,#116,.T.);
#129=ORIENTED_EDGE('',*,*,#128,.F.);
#130=ORIENTED_EDGE('',*,*,#112,.F.);
#131=EDGE_LOOP('',(#126,#127,#129,#130));
#132=FACE_OUTER_BOUND('',#131,.F.);
#133=ADVANCED_FACE('',(#132),#125,.T.);
#134=CARTESIAN_POINT('',(0.E0,0.E0,-1.05E2));
#135=DIRECTION('',(0.E0,0.E0,1.E0));
#136=DIRECTION('',(1.E0,0.E0,0.E0));
#137=AXIS2_PLACEMENT_3D('',#134,#135,#136);
#138=CYLINDRICAL_SURFACE('',#137,5.E0);
#140=ORIENTED_EDGE('',*,*,#139,.T.);
#142=ORIENTED_EDGE('',*,*,#141,.F.);
#143=ORIENTED_EDGE('',*,*,#128,.T.);
#145=ORIENTED_EDGE('',*,*,#144,.T.);
#146=EDGE_LOOP('',(#140,#142,#143,#145));
#147=FACE_OUTER_BOUND('',#146,.F.);
#148=ADVANCED_FACE('',(#147),#138,.T.);
#149=CARTESIAN_POINT('',(0.E0,0.E0,1.0425E2));
#150=DIRECTION('',(0.E0,0.E0,-1.E0));
#151=DIRECTION('',(0.E0,-1.E0,0.E0));
#152=AXIS2_PLACEMENT_3D('',#149,#150,#151);
#153=CONICAL_SURFACE('',#152,4.25E0,4.5E1);
#155=ORIENTED_EDGE('',*,*,#154,.T.);
#157=ORIENTED_EDGE('',*,*,#156,.T.);
#158=ORIENTED_EDGE('',*,*,#139,.F.);
#160=ORIENTED_EDGE('',*,*,#159,.F.);
#161=EDGE_LOOP('',(#155,#157,#158,#160));
#162=FACE_OUTER_BOUND('',#161,.F.);
#163=ADVANCED_FACE('',(#162),#153,.T.);
#164=CARTESIAN_POINT('',(0.E0,0.E0,1.05E2));
#165=DIRECTION('',(0.E0,0.E0,1.E0));
#166=DIRECTION('',(1.E0,0.E0,0.E0));
#167=AXIS2_PLACEMENT_3D('',#164,#165,#166);
#168=PLANE('',#167);
#170=ORIENTED_EDGE('',*,*,#169,.F.);
#171=ORIENTED_EDGE('',*,*,#154,.F.);
#172=EDGE_LOOP('',(#170,#171));
#173=FACE_OUTER_BOUND('',#172,.F.);
#174=ADVANCED_FACE('',(#173),#168,.T.);
#175=CARTESIAN_POINT('',(0.E0,0.E0,1.0425E2));
#176=DIRECTION('',(0.E0,0.E0,-1.E0));
#177=DIRECTION('',(0.E0,-1.E0,0.E0));
#178=AXIS2_PLACEMENT_3D('',#175,#176,#177);
#179=CONICAL_SURFACE('',#178,4.25E0,4.5E1);
#180=ORIENTED_EDGE('',*,*,#169,.T.);
#181=ORIENTED_EDGE('',*,*,#159,.T.);
#183=ORIENTED_EDGE('',*,*,#182,.F.);
#184=ORIENTED_EDGE('',*,*,#156,.F.);
#185=EDGE_LOOP('',(#180,#181,#183,#184));
#186=FACE_OUTER_BOUND('',#185,.F.);
#187=ADVANCED_FACE('',(#186),#179,.T.);
#188=CARTESIAN_POINT('',(0.E0,0.E0,-1.05E2));
#189=DIRECTION('',(0.E0,0.E0,1.E0));
#190=DIRECTION('',(1.E0,0.E0,0.E0));
#191=AXIS2_PLACEMENT_3D('',#188,#189,#190);
#192=CYLINDRICAL_SURFACE('',#191,5.E0);
#193=ORIENTED_EDGE('',*,*,#182,.T.);
#194=ORIENTED_EDGE('',*,*,#144,.F.);
#195=ORIENTED_EDGE('',*,*,#114,.T.);
#196=ORIENTED_EDGE('',*,*,#141,.T.);
#197=EDGE_LOOP('',(#193,#194,#195,#196));
#198=FACE_OUTER_BOUND('',#197,.F.);
#199=ADVANCED_FACE('',(#198),#192,.T.);
#200=CLOSED_SHELL('',(#105,#120,#133,#148,#163,#174,#187,#199));
#201=MANIFOLD_SOLID_BREP('',#200);
#203=DIMENSIONAL_EXPONENTS(0.E0,0.E0,0.E0,0.E0,0.E0,0.E0,0.E0);
#205=PLANE_ANGLE_MEASURE_WITH_UNIT(PLANE_ANGLE_MEASURE(1.745329251994E-2),#204);
#206=(CONVERSION_BASED_UNIT('DEGREE',#205)NAMED_UNIT(*)PLANE_ANGLE_UNIT());
#208=UNCERTAINTY_MEASURE_WITH_UNIT(LENGTH_MEASURE(1.2E-3),#202,'closure',
'Maximum model space distance between geometric entities at asserted connectivities');
#209=(GEOMETRIC_REPRESENTATION_CONTEXT(3)GLOBAL_UNCERTAINTY_ASSIGNED_CONTEXT((
#208))GLOBAL_UNIT_ASSIGNED_CONTEXT((#202,#206,#207))REPRESENTATION_CONTEXT
('ID1','3'));
#210=CARTESIAN_POINT('',(0.E0,0.E0,0.E0));
#211=DIRECTION('',(0.E0,0.E0,1.E0));
#212=DIRECTION('',(1.E0,0.E0,0.E0));
#215=APPLICATION_CONTEXT(
'CONFIGURATION CONTROLLED 3D DESIGNS OF MECHANICAL PARTS AND ASSEMBLIES');
#216=APPLICATION_PROTOCOL_DEFINITION('international standard',
'config_control_design',1994,#215);
#217=DESIGN_CONTEXT('',#215,'design');
#218=MECHANICAL_CONTEXT('',#215,'mechanical');
#219=PRODUCT('861007_001_PRT','861007_001_PRT','NOT SPECIFIED',(#218));
#220=PRODUCT_DEFINITION_FORMATION_WITH_SPECIFIED_SOURCE('1','LAST_VERSION',#219,
.MADE.);
#229=CARTESIAN_POINT('',(0.E0,0.E0,0.E0));
#230=DIRECTION('',(0.E0,0.E0,1.E0));
#231=DIRECTION('',(1.E0,0.E0,0.E0));
#232=AXIS2_PLACEMENT_3D('',#229,#230,#231);
#233=ITEM_DEFINED_TRANSFORMATION('','',#213,#232);
#234=(REPRESENTATION_RELATIONSHIP('','',#214,#226)REPRESENTATION_RELATIONSHIP_WITH_TRANSFORMATION(#233)SHAPE_REPRESENTATION_RELATIONSHIP());
#235=CONTEXT_DEPENDENT_SHAPE_REPRESENTATION(#234,#228);
#238=CARTESIAN_POINT('',(1.E2,0.E0,0.E0));
#239=DIRECTION('',(0.E0,0.E0,1.E0));
#240=DIRECTION('',(1.E0,0.E0,0.E0));
#241=AXIS2_PLACEMENT_3D('',#238,#239,#240);
#242=ITEM_DEFINED_TRANSFORMATION('','',#213,#241);
#243=(REPRESENTATION_RELATIONSHIP('','',#214,#226)REPRESENTATION_RELATIONSHIP_WITH_TRANSFORMATION(#242)SHAPE_REPRESENTATION_RELATIONSHIP());
#244=CONTEXT_DEPENDENT_SHAPE_REPRESENTATION(#243,#237);
#247=CARTESIAN_POINT('',(2.E2,0.E0,0.E0));
#248=DIRECTION('',(0.E0,0.E0,1.E0));
#249=DIRECTION('',(1.E0,0.E0,0.E0));
#250=AXIS2_PLACEMENT_3D('',#247,#248,#249);
#251=ITEM_DEFINED_TRANSFORMATION('','',#213,#250);
#252=(REPRESENTATION_RELATIONSHIP('','',#214,#226)REPRESENTATION_RELATIONSHIP_WITH_TRANSFORMATION(#251)SHAPE_REPRESENTATION_RELATIONSHIP());
#253=CONTEXT_DEPENDENT_SHAPE_REPRESENTATION(#252,#246);
#256=CARTESIAN_POINT('',(3.E2,0.E0,0.E0));
#257=DIRECTION('',(0.E0,0.E0,1.E0));
#258=DIRECTION('',(1.E0,0.E0,0.E0));
#259=AXIS2_PLACEMENT_3D('',#256,#257,#258);
#260=ITEM_DEFINED_TRANSFORMATION('','',#213,#259);
#261=(REPRESENTATION_RELATIONSHIP('','',#214,#226)REPRESENTATION_RELATIONSHIP_WITH_TRANSFORMATION(#260)SHAPE_REPRESENTATION_RELATIONSHIP());
#262=CONTEXT_DEPENDENT_SHAPE_REPRESENTATION(#261,#255);
#265=CARTESIAN_POINT('',(4.E2,0.E0,0.E0));
#266=DIRECTION('',(0.E0,0.E0,1.E0));
#267=DIRECTION('',(1.E0,0.E0,0.E0));
#268=AXIS2_PLACEMENT_3D('',#265,#266,#267);
#269=ITEM_DEFINED_TRANSFORMATION('','',#213,#268);
#270=(REPRESENTATION_RELATIONSHIP('','',#214,#226)REPRESENTATION_RELATIONSHIP_WITH_TRANSFORMATION(#269)SHAPE_REPRESENTATION_RELATIONSHIP());
#271=CONTEXT_DEPENDENT_SHAPE_REPRESENTATION(#270,#264);
#274=CARTESIAN_POINT('',(5.E2,0.E0,0.E0));
#275=DIRECTION('',(0.E0,0.E0,1.E0));
#276=DIRECTION('',(1.E0,0.E0,0.E0));
#277=AXIS2_PLACEMENT_3D('',#274,#275,#276);
#278=ITEM_DEFINED_TRANSFORMATION('','',#213,#277);
#279=(REPRESENTATION_RELATIONSHIP('','',#214,#226)REPRESENTATION_RELATIONSHIP_WITH_TRANSFORMATION(#278)SHAPE_REPRESENTATION_RELATIONSHIP());
#280=CONTEXT_DEPENDENT_SHAPE_REPRESENTATION(#279,#273);
#283=CARTESIAN_POINT('',(6.E2,0.E0,0.E0));
#284=DIRECTION('',(0.E0,0.E0,1.E0));
#285=DIRECTION('',(1.E0,0.E0,0.E0));
#286=AXIS2_PLACEMENT_3D('',#283,#284,#285);
#287=ITEM_DEFINED_TRANSFORMATION('','',#213,#286);
#288=(REPRESENTATION_RELATIONSHIP('','',#214,#226)REPRESENTATION_RELATIONSHIP_WITH_TRANSFORMATION(#287)SHAPE_REPRESENTATION_RELATIONSHIP());
#289=CONTEXT_DEPENDENT_SHAPE_REPRESENTATION(#288,#282);
#292=CARTESIAN_POINT('',(7.E2,0.E0,0.E0));
#293=DIRECTION('',(0.E0,0.E0,1.E0));
#294=DIRECTION('',(1.E0,0.E0,0.E0));
#295=AXIS2_PLACEMENT_3D('',#292,#293,#294);
#296=ITEM_DEFINED_TRANSFORMATION('','',#213,#295);
#297=(REPRESENTATION_RELATIONSHIP('','',#214,#226)REPRESENTATION_RELATIONSHIP_WITH_TRANSFORMATION(#296)SHAPE_REPRESENTATION_RELATIONSHIP());
#298=CONTEXT_DEPENDENT_SHAPE_REPRESENTATION(#297,#291);
#301=CARTESIAN_POINT('',(8.E2,0.E0,0.E0));
#302=DIRECTION('',(0.E0,0.E0,1.E0));
#303=DIRECTION('',(1.E0,0.E0,0.E0));
#304=AXIS2_PLACEMENT_3D('',#301,#302,#303);
#305=ITEM_DEFINED_TRANSFORMATION('','',#213,#304);
#306=(REPRESENTATION_RELATIONSHIP('','',#214,#226)REPRESENTATION_RELATIONSHIP_WITH_TRANSFORMATION(#305)SHAPE_REPRESENTATION_RELATIONSHIP());
#307=CONTEXT_DEPENDENT_SHAPE_REPRESENTATION(#306,#300);
#310=CARTESIAN_POINT('',(9.E2,0.E0,0.E0));
#311=DIRECTION('',(0.E0,0.E0,1.E0));
#312=DIRECTION('',(1.E0,0.E0,0.E0));
#313=AXIS2_PLACEMENT_3D('',#310,#311,#312);
#314=ITEM_DEFINED_TRANSFORMATION('','',#213,#313);
#315=(REPRESENTATION_RELATIONSHIP('','',#214,#226)REPRESENTATION_RELATIONSHIP_WITH_TRANSFORMATION(#314)SHAPE_REPRESENTATION_RELATIONSHIP());
#316=CONTEXT_DEPENDENT_SHAPE_REPRESENTATION(#315,#309);
#318=DIMENSIONAL_EXPONENTS(0.E0,0.E0,0.E0,0.E0,0.E0,0.E0,0.E0);
#320=PLANE_ANGLE_MEASURE_WITH_UNIT(PLANE_ANGLE_MEASURE(1.745329251994E-2),#319);
#321=(CONVERSION_BASED_UNIT('DEGREE',#320)NAMED_UNIT(*)PLANE_ANGLE_UNIT());
#323=UNCERTAINTY_MEASURE_WITH_UNIT(LENGTH_MEASURE(1.2E-3),#317,'closure',
'Maximum model space distance between geometric entities at asserted connectivities');
#324=(GEOMETRIC_REPRESENTATION_CONTEXT(3)GLOBAL_UNCERTAINTY_ASSIGNED_CONTEXT((
#323))GLOBAL_UNIT_ASSIGNED_CONTEXT((#317,#321,#322))REPRESENTATION_CONTEXT
('ID2','3'));
#325=CARTESIAN_POINT('',(0.E0,0.E0,0.E0));
#326=DIRECTION('',(0.E0,0.E0,1.E0));
#327=DIRECTION('',(1.E0,0.E0,0.E0));
#329=MECHANICAL_CONTEXT('',#215,'mechanical');
#330=PRODUCT('PTRS1201_ASM','PTRS1201_ASM','NOT SPECIFIED',(#329));
#331=PRODUCT_DEFINITION_FORMATION_WITH_SPECIFIED_SOURCE('1','LAST_VERSION',#330,
.MADE.);
#333=PRODUCT_CATEGORY('part','');
#334=PRODUCT_RELATED_PRODUCT_CATEGORY('assembly','',(#330));
#335=PRODUCT_CATEGORY_RELATIONSHIP('','',#333,#334);
#336=PRODUCT_CATEGORY('part','');
#337=PRODUCT_RELATED_PRODUCT_CATEGORY('detail','',(#219));
#338=PRODUCT_CATEGORY_RELATIONSHIP('','',#336,#337);
#339=SECURITY_CLASSIFICATION_LEVEL('unclassified');
#340=SECURITY_CLASSIFICATION('','',#339);
#341=CC_DESIGN_SECURITY_CLASSIFICATION(#340,(#220,#331,#227,#236,#245,#254,#263,
#272,#281,#290,#299,#308));
#342=APPROVAL_STATUS('approved');
#343=APPROVAL(#342,'');
#344=CC_DESIGN_APPROVAL(#343,(#340,#220,#331,#221,#332));
#345=CALENDAR_DATE(120,15,9);
#346=COORDINATED_UNIVERSAL_TIME_OFFSET(0,0,.BEHIND.);
#347=LOCAL_TIME(12,29,5.3E1,#346);
#348=DATE_AND_TIME(#345,#347);
#349=APPROVAL_DATE_TIME(#348,#343);
#350=DATE_TIME_ROLE('creation_date');
#351=CC_DESIGN_DATE_AND_TIME_ASSIGNMENT(#348,#350,(#221,#332));
#352=DATE_TIME_ROLE('classification_date');
#353=CC_DESIGN_DATE_AND_TIME_ASSIGNMENT(#348,#352,(#340));
#354=PERSON('UNSPECIFIED','UNSPECIFIED',$,$,$,$);
#355=ORGANIZATION('UNSPECIFIED','UNSPECIFIED','UNSPECIFIED');
#356=PERSON_AND_ORGANIZATION(#354,#355);
#357=APPROVAL_ROLE('approver');
#358=APPROVAL_PERSON_ORGANIZATION(#356,#343,#357);
#359=PERSON_AND_ORGANIZATION_ROLE('creator');
#360=CC_DESIGN_PERSON_AND_ORGANIZATION_ASSIGNMENT(#356,#359,(#220,#331,#221,
#332));
#361=PERSON_AND_ORGANIZATION_ROLE('design_supplier');
#362=CC_DESIGN_PERSON_AND_ORGANIZATION_ASSIGNMENT(#356,#361,(#220,#331));
#363=PERSON_AND_ORGANIZATION_ROLE('classification_officer');
#364=CC_DESIGN_PERSON_AND_ORGANIZATION_ASSIGNMENT(#356,#363,(#340));
#365=PERSON_AND_ORGANIZATION_ROLE('design_owner');
#366=CC_DESIGN_PERSON_AND_ORGANIZATION_ASSIGNMENT(#356,#365,(#330,#219));
#1=DRAUGHTING_PRE_DEFINED_COLOUR('green');
#2=COLOUR_RGB('',1.1E-2,1.2E-2,1.E0);
#3=COLOUR_RGB('',4.1E-1,2.61589E-1,1.12848E-1);
#4=COLOUR_RGB('',5.04854E-1,1.5455E-2,1.5455E-2);
#5=COLOUR_RGB('',6.35294E-1,6.86275E-1,7.4902E-1);
#6=COLOUR_RGB('',6.40777E-1,6.40777E-1,6.40777E-1);
#7=COLOUR_RGB('',6.69062E-1,6.69903E-1,6.55217E-1);
#8=COLOUR_RGB('',9.21569E-1,7.05882E-1,4.70588E-1);
#9=DRAUGHTING_PRE_DEFINED_COLOUR('red');
#10=DRAUGHTING_PRE_DEFINED_COLOUR('yellow');
#11=COLOUR_RGB('',1.E0,1.E0,5.3E-1);
#12=COLOUR_RGB('',1.E0,1.E0,9.49E-1);
#13=DRAUGHTING_PRE_DEFINED_COLOUR('white');
#18=CIRCLE('',#17,3.5E0);
#23=CIRCLE('',#22,3.5E0);
#36=CIRCLE('',#35,5.E0);
#41=CIRCLE('',#40,5.E0);
#54=CIRCLE('',#53,3.5E0);
#59=CIRCLE('',#58,3.5E0);
#68=CIRCLE('',#67,5.E0);
#73=CIRCLE('',#72,5.E0);
#99=EDGE_CURVE('',#88,#89,#18,.T.);
#101=EDGE_CURVE('',#89,#88,#23,.T.);
#112=EDGE_CURVE('',#89,#93,#31,.T.);
#114=EDGE_CURVE('',#92,#93,#73,.T.);
#116=EDGE_CURVE('',#88,#92,#27,.T.);
#128=EDGE_CURVE('',#93,#92,#41,.T.);
#139=EDGE_CURVE('',#85,#84,#36,.T.);
#141=EDGE_CURVE('',#93,#84,#77,.T.);
#144=EDGE_CURVE('',#92,#85,#45,.T.);
#154=EDGE_CURVE('',#81,#80,#59,.T.);
#156=EDGE_CURVE('',#80,#84,#63,.T.);
#159=EDGE_CURVE('',#81,#85,#49,.T.);
#169=EDGE_CURVE('',#80,#81,#54,.T.);
#182=EDGE_CURVE('',#84,#85,#68,.T.);
#202=(LENGTH_UNIT()NAMED_UNIT(*)SI_UNIT(.MILLI.,.METRE.));
#204=(NAMED_UNIT(*)PLANE_ANGLE_UNIT()SI_UNIT($,.RADIAN.));
#207=(NAMED_UNIT(*)SI_UNIT($,.STERADIAN.)SOLID_ANGLE_UNIT());
#213=AXIS2_PLACEMENT_3D('',#210,#211,#212);
#214=ADVANCED_BREP_SHAPE_REPRESENTATION('',(#213,#201),#209);
#221=PRODUCT_DEFINITION('design','',#220,#217);
#222=PRODUCT_DEFINITION_SHAPE('','SHAPE FOR 861007_001_PRT.',#221);
#223=SHAPE_DEFINITION_REPRESENTATION(#222,#214);
#224=SHAPE_DEFINITION_REPRESENTATION(#225,#226);
#225=PRODUCT_DEFINITION_SHAPE('','SHAPE FOR PTRS1201_ASM.',#332);
#226=SHAPE_REPRESENTATION('',(#232,#241,#250,#259,#268,#277,#286,#295,#304,#313,
#328),#324);
#227=NEXT_ASSEMBLY_USAGE_OCCURRENCE('20','Next assembly relationship',
'861007_001',#332,#221,$);
#228=PRODUCT_DEFINITION_SHAPE('Placement #20',
'Placement of 861007_001_PRT with respect to PTRS1201_ASM',#227);
#236=NEXT_ASSEMBLY_USAGE_OCCURRENCE('21','Next assembly relationship',
'861007_001',#332,#221,$);
#237=PRODUCT_DEFINITION_SHAPE('Placement #21',
'Placement of 861007_001_PRT with respect to PTRS1201_ASM',#236);
#245=NEXT_ASSEMBLY_USAGE_OCCURRENCE('22','Next assembly relationship',
'861007_001',#332,#221,$);
#246=PRODUCT_DEFINITION_SHAPE('Placement #22',
'Placement of 861007_001_PRT with respect to PTRS1201_ASM',#245);
#254=NEXT_ASSEMBLY_USAGE_OCCURRENCE('23','Next assembly relationship',
'861007_001',#332,#221,$);
#255=PRODUCT_DEFINITION_SHAPE('Placement #23',
'Placement of 861007_001_PRT with respect to PTRS1201_ASM',#254);
#263=NEXT_ASSEMBLY_USAGE_OCCURRENCE('24','Next assembly relationship',
'861007_001',#332,#221,$);
#264=PRODUCT_DEFINITION_SHAPE('Placement #24',
'Placement of 861007_001_PRT with respect to PTRS1201_ASM',#263);
#272=NEXT_ASSEMBLY_USAGE_OCCURRENCE('25','Next assembly relationship',
'861007_001',#332,#221,$);
#273=PRODUCT_DEFINITION_SHAPE('Placement #25',
'Placement of 861007_001_PRT with respect to PTRS1201_ASM',#272);
#281=NEXT_ASSEMBLY_USAGE_OCCURRENCE('26','Next assembly relationship',
'861007_001',#332,#221,$);
#282=PRODUCT_DEFINITION_SHAPE('Placement #26',
'Placement of 861007_001_PRT with respect to PTRS1201_ASM',#281);
#290=NEXT_ASSEMBLY_USAGE_OCCURRENCE('27','Next assembly relationship',
'861007_001',#332,#221,$);
#291=PRODUCT_DEFINITION_SHAPE('Placement #27',
'Placement of 861007_001_PRT with respect to PTRS1201_ASM',#290);
#299=NEXT_ASSEMBLY_USAGE_OCCURRENCE('28','Next assembly relationship',
'861007_001',#332,#221,$);
#300=PRODUCT_DEFINITION_SHAPE('Placement #28',
'Placement of 861007_001_PRT with respect to PTRS1201_ASM',#299);
#308=NEXT_ASSEMBLY_USAGE_OCCURRENCE('29','Next assembly relationship',
'861007_001',#332,#221,$);
#309=PRODUCT_DEFINITION_SHAPE('Placement #29',
'Placement of 861007_001_PRT with respect to PTRS1201_ASM',#308);
#317=(LENGTH_UNIT()NAMED_UNIT(*)SI_UNIT(.MILLI.,.METRE.));
#319=(NAMED_UNIT(*)PLANE_ANGLE_UNIT()SI_UNIT($,.RADIAN.));
#322=(NAMED_UNIT(*)SI_UNIT($,.STERADIAN.)SOLID_ANGLE_UNIT());
#328=AXIS2_PLACEMENT_3D('',#325,#326,#327);
#332=PRODUCT_DEFINITION('design','',#331,#217);
ENDSEC;
END-ISO-10303-21;
