  0
SECTION
  2
HEADER
  9
$ACADVER
  1
AC1009
  9
$DWGCODEPAGE
  3
iso8859-1
  9
$INSBASE
 10
0.0
 20
0.0
 30
0.0
  9
$EXTMIN
 10
1.0E20
 20
1.0E20
  9
$EXTMAX
 10
-1.0E20
 20
-1.0E20
  9
$LIMMIN
 10
0.0
 20
0.0
  9
$LIMMAX
 10
12.0
 20
9.0
  9
$ORTHOMODE
 70
     0
  9
$REGENMODE
 70
     1
  9
$FILLMODE
 70
     1
  9
$QTEXTMODE
 70
     0
  9
$MIRRTEXT
 70
     1
  9
$DRAGMODE
 70
     2
  9
$LTSCALE
 40
15.0
  9
$OSMODE
 70
     0
  9
$ATTMODE
 70
     1
  9
$TEXTSIZE
 40
0.2
  9
$TRACEWID
 40
0.05
  9
$TEXTSTYLE
  7
STANDARD
  9
$CLAYER
  8
0
  9
$CELTYPE
  6
DASHED
  9
$CECOLOR
 62
   256
  9
$DIMSCALE
 40
1.0
  9
$DIMASZ
 40
0.18
  9
$DIMEXO
 40
0.0625
  9
$DIMDLI
 40
0.38
  9
$DIMRND
 40
0.0
  9
$DIMDLE
 40
0.0
  9
$DIMEXE
 40
0.18
  9
$DIMTP
 40
0.0
  9
$DIMTM
 40
0.0
  9
$DIMTXT
 40
0.18
  9
$DIMCEN
 40
0.09
  9
$DIMTSZ
 40
0.0
  9
$DIMTOL
 70
     0
  9
$DIMLIM
 70
     0
  9
$DIMTIH
 70
     1
  9
$DIMTOH
 70
     1
  9
$DIMSE1
 70
     0
  9
$DIMSE2
 70
     0
  9
$DIMTAD
 70
     0
  9
$DIMZIN
 70
     0
  9
$DIMBLK
  1

  9
$DIMASO
 70
     1
  9
$DIMSHO
 70
     1
  9
$DIMPOST
  1

  9
$DIMAPOST
  1

  9
$DIMALT
 70
     0
  9
$DIMALTD
 70
     2
  9
$DIMALTF
 40
25.4
  9
$DIMLFAC
 40
1.0
  9
$DIMTOFL
 70
     0
  9
$DIMTVP
 40
0.0
  9
$DIMTIX
 70
     0
  9
$DIMSOXD
 70
     0
  9
$DIMSAH
 70
     0
  9
$DIMBLK1
  1

  9
$DIMBLK2
  1

  9
$DIMSTYLE
  2
STANDARD
  9
$DIMCLRD
 70
     0
  9
$DIMCLRE
 70
     0
  9
$DIMCLRT
 70
     0
  9
$DIMTFAC
 40
1.0
  9
$DIMGAP
 40
0.09
  9
$LUNITS
 70
     2
  9
$LUPREC
 70
     4
  9
$AXISMODE
 70
     0
  9
$AXISUNIT
 10
0.0
 20
0.0
  9
$SKETCHINC
 40
0.1
  9
$FILLETRAD
 40
0.0
  9
$AUNITS
 70
     0
  9
$AUPREC
 70
     0
  9
$MENU
  1
acad
  9
$ELEVATION
 40
0.0
  9
$PELEVATION
 40
0.0
  9
$THICKNESS
 40
0.0
  9
$LIMCHECK
 70
     0
  9
$BLIPMODE
 70
     1
  9
$CHAMFERA
 40
0.0
  9
$CHAMFERB
 40
0.0
  9
$SKPOLY
 70
     0
  9
$TDCREATE
 40
0.000000000
  9
$TDUPDATE
 40
0.000000000
  9
$TDINDWG
 40
0.0
  9
$TDUSRTIMER
 40
0.0
  9
$USRTIMER
 70
     1
  9
$ANGBASE
 50
0.0
  9
$ANGDIR
 70
     0
  9
$PDMODE
 70
     0
  9
$PDSIZE
 40
0.0
  9
$PLINEWID
 40
0.0
  9
$COORDS
 70
     1
  9
$SPLFRAME
 70
     0
  9
$SPLINETYPE
 70
     6
  9
$SPLINESEGS
 70
     8
  9
$ATTDIA
 70
     0
  9
$ATTREQ
 70
     1
  9
$HANDLING
 70
     1
  9
$HANDSEED
  5
   78E
  9
$SURFTAB1
 70
     6
  9
$SURFTAB2
 70
     6
  9
$SURFTYPE
 70
     6
  9
$SURFU
 70
     6
  9
$SURFV
 70
     6
  9
$UCSNAME
  2

  9
$UCSORG
 10
0.0
 20
0.0
 30
0.0
  9
$UCSXDIR
 10
1.0
 20
0.0
 30
0.0
  9
$UCSYDIR
 10
0.0
 20
1.0
 30
0.0
  9
$PUCSNAME
  2

  9
$PUCSORG
 10
0.0
 20
0.0
 30
0.0
  9
$PUCSXDIR
 10
1.0
 20
0.0
 30
0.0
  9
$PUCSYDIR
 10
0.0
 20
1.0
 30
0.0
  9
$USERI1
 70
     0
  9
$USERI2
 70
     0
  9
$USERI3
 70
     0
  9
$USERI4
 70
     0
  9
$USERI5
 70
     0
  9
$USERR1
 40
0.0
  9
$USERR2
 40
0.0
  9
$USERR3
 40
0.0
  9
$USERR4
 40
0.0
  9
$USERR5
 40
0.0
  9
$WORLDVIEW
 70
     1
  9
$SHADEDGE
 70
     3
  9
$SHADEDIF
 70
    70
  9
$TILEMODE
 70
     1
  9
$MAXACTVP
 70
    16
  9
$PINSBASE
 10
0.0
 20
0.0
 30
0.0
  9
$PLIMCHECK
 70
     0
  9
$PEXTMIN
 10
1.0E20
 20
1.0E20
 30
1.0E20
  9
$PEXTMAX
 10
-1.0E20
 20
-1.0E20
 30
-1.0E20
  9
$PLIMMIN
 10
0.0
 20
0.0
  9
$PLIMMAX
 10
12.0
 20
9.0
  9
$UNITMODE
 70
     0
  9
$VISRETAIN
 70
     0
  0
ENDSEC
  0
SECTION
  2
TABLES
  0
TABLE
  2
VPORT
 70
     1
  0
VPORT
  2
*ACTIVE
 70
     0
 10
0.0
 20
0.0
 11
1.0
 21
1.0
 12
6.801242
 22
4.5
 13
0.0
 23
0.0
 14
1.0
 24
1.0
 15
0.0
 25
0.0
 16
0.0
 26
0.0
 36
1.0
 17
0.0
 27
0.0
 37
0.0
 40
9.0
 41
1.511387
 42
50.0
 43
0.0
 44
0.0
 50
0.0
 51
0.0
 71
     0
 72
   100
 73
     1
 74
     1
 75
     0
 76
     0
 77
     0
 78
     0
  0
ENDTAB
  0
TABLE
  2
LTYPE
 70
    41
  0
LTYPE
  2
BYBLOCK
 70
     0
  3

 72
    65
 73
     0
 40
0.0
  0
LTYPE
  2
BYLAYER
 70
     0
  3

 72
    65
 73
     0
 40
0.0
  0
LTYPE
  2
CONTINUOUS
 70
     0
  3
Solid line
 72
    65
 73
     0
 40
0.0
  0
LTYPE
  2
BORDER
 70
    64
  3
__ __ . __ __ . __ __ . __ __ . __ __ . __ __ .
 72
    65
 73
     6
 40
1.75
 49
0.5
 49
-0.25
 49
0.5
 49
-0.25
 49
0.0
 49
-0.25
  0
LTYPE
  2
BORDER2
 70
    64
  3
__.__.__.__.__.__.__.__.__.__.__.__.__.__.__.__
 72
    65
 73
     6
 40
0.875
 49
0.25
 49
-0.125
 49
0.25
 49
-0.125
 49
0.0
 49
-0.125
  0
LTYPE
  2
BORDERX2
 70
    64
  3
____  ____  .  ____  ____  .  ____  ____  .  __
 72
    65
 73
     6
 40
3.5
 49
1.0
 49
-0.5
 49
1.0
 49
-0.5
 49
0.0
 49
-0.5
  0
LTYPE
  2
CENTER
 70
    64
  3
____ _ ____ _ ____ _ ____ _ ____ _ ____ _ ____
 72
    65
 73
     4
 40
2.0
 49
1.25
 49
-0.25
 49
0.25
 49
-0.25
  0
LTYPE
  2
CENTER2
 70
    64
  3
___ _ ___ _ ___ _ ___ _ ___ _ ___ _ ___ _ ___ _
 72
    65
 73
     4
 40
1.125
 49
0.75
 49
-0.125
 49
0.125
 49
-0.125
  0
LTYPE
  2
CENTERX2
 70
    64
  3
________  __  ________  __  ________  __  _____
 72
    65
 73
     4
 40
4.0
 49
2.5
 49
-0.5
 49
0.5
 49
-0.5
  0
LTYPE
  2
DASHDOT
 70
    64
  3
__ . __ . __ . __ . __ . __ . __ . __ . __ . __
 72
    65
 73
     4
 40
1.0
 49
0.5
 49
-0.25
 49
0.0
 49
-0.25
  0
LTYPE
  2
DASHDOT2
 70
    64
  3
_._._._._._._._._._._._._._._._._._._._._._._._
 72
    65
 73
     4
 40
0.5
 49
0.25
 49
-0.125
 49
0.0
 49
-0.125
  0
LTYPE
  2
DASHDOTX2
 70
    64
  3
____  .  ____  .  ____  .  ____  .  ____  .  __
 72
    65
 73
     4
 40
2.0
 49
1.0
 49
-0.5
 49
0.0
 49
-0.5
  0
LTYPE
  2
DASHED
 70
    64
  3
__ __ __ __ __ __ __ __ __ __ __ __ __ __ __ __
 72
    65
 73
     2
 40
0.75
 49
0.5
 49
-0.25
  0
LTYPE
  2
DASHED2
 70
    64
  3
_ _ _ _ _ _ _ _ _ _ _ _ _ _ _ _ _ _ _ _ _ _ _ _
 72
    65
 73
     2
 40
0.375
 49
0.25
 49
-0.125
  0
LTYPE
  2
DASHEDX2
 70
    64
  3
____  ____  ____  ____  ____  ____  ____  ____
 72
    65
 73
     2
 40
1.5
 49
1.0
 49
-0.5
  0
LTYPE
  2
DIVIDE
 70
    64
  3
____ . . ____ . . ____ . . ____ . . ____ . . __
 72
    65
 73
     6
 40
1.25
 49
0.5
 49
-0.25
 49
0.0
 49
-0.25
 49
0.0
 49
-0.25
  0
LTYPE
  2
DIVIDE2
 70
    64
  3
__..__..__..__..__..__..__..__..__..__..__..__.
 72
    65
 73
     6
 40
0.625
 49
0.25
 49
-0.125
 49
0.0
 49
-0.125
 49
0.0
 49
-0.125
  0
LTYPE
  2
DIVIDEX2
 70
    64
  3
________  .  .  ________  .  .  ________  .  .
 72
    65
 73
     6
 40
2.5
 49
1.0
 49
-0.5
 49
0.0
 49
-0.5
 49
0.0
 49
-0.5
  0
LTYPE
  2
DOT
 70
    64
  3
. . . . . . . . . . . . . . . . . . . . . . . .
 72
    65
 73
     2
 40
0.25
 49
0.0
 49
-0.25
  0
LTYPE
  2
DOT2
 70
    64
  3
...............................................
 72
    65
 73
     2
 40
0.125
 49
0.0
 49
-0.125
  0
LTYPE
  2
DOTX2
 70
    64
  3
.  .  .  .  .  .  .  .  .  .  .  .  .  .  .  .
 72
    65
 73
     2
 40
0.5
 49
0.0
 49
-0.5
  0
LTYPE
  2
HIDDEN
 70
    64
  3
__ __ __ __ __ __ __ __ __ __ __ __ __ __ __ __
 72
    65
 73
     2
 40
0.375
 49
0.25
 49
-0.125
  0
LTYPE
  2
HIDDEN2
 70
    64
  3
_ _ _ _ _ _ _ _ _ _ _ _ _ _ _ _ _ _ _ _ _ _ _ _
 72
    65
 73
     2
 40
0.1875
 49
0.125
 49
-0.0625
  0
LTYPE
  2
HIDDENX2
 70
    64
  3
____ ____ ____ ____ ____ ____ ____ ____ ____ __
 72
    65
 73
     2
 40
0.75
 49
0.5
 49
-0.25
  0
LTYPE
  2
PHANTOM
 70
    64
  3
______  __  __  ______  __  __  ______  __  __
 72
    65
 73
     6
 40
2.5
 49
1.25
 49
-0.25
 49
0.25
 49
-0.25
 49
0.25
 49
-0.25
  0
LTYPE
  2
PHANTOM2
 70
    64
  3
___ _ _ ___ _ _ ___ _ _ ___ _ _ ___ _ _ ___ _ _
 72
    65
 73
     6
 40
1.25
 49
0.625
 49
-0.125
 49
0.125
 49
-0.125
 49
0.125
 49
-0.125
  0
LTYPE
  2
PHANTOMX2
 70
    64
  3
____________    ____    ____    ____________
 72
    65
 73
     6
 40
5.0
 49
2.5
 49
-0.5
 49
0.5
 49
-0.5
 49
0.5
 49
-0.5
  0
LTYPE
  2
ACAD_ISO02W100
 70
    64
  3
__ __ __ __ __ __ __ __ __ __ __ __ __ __ __ __
 72
    65
 73
     2
 40
15.0
 49
12.0
 49
-3.0
  0
LTYPE
  2
ACAD_ISO03W100
 70
    64
  3
__    __    __    __    __    __    __    __
 72
    65
 73
     2
 40
30.0
 49
12.0
 49
-18.0
  0
LTYPE
  2
ACAD_ISO04W100
 70
    64
  3
____ . ____ . ____ . ____ . ____ . ____ . ____
 72
    65
 73
     4
 40
30.5
 49
24.0
 49
-3.0
 49
0.5
 49
-3.0
  0
LTYPE
  2
ACAD_ISO05W100
 70
    64
  3
____ .. ____ .. ____ .. ____ .. ____ .. ____ ..
 72
    65
 73
     6
 40
34.0
 49
24.0
 49
-3.0
 49
0.5
 49
-3.0
 49
0.5
 49
-3.0
  0
LTYPE
  2
ACAD_ISO06W100
 70
    64
  3
____ ... ____ ... ____ ... ____ ... ____ ... __
 72
    65
 73
     8
 40
37.5
 49
24.0
 49
-3.0
 49
0.5
 49
-3.0
 49
0.5
 49
-3.0
 49
0.5
 49
-3.0
  0
LTYPE
  2
ACAD_ISO07W100
 70
    64
  3
. . . . . . . . . . . . . . . . . . . . . . . .
 72
    65
 73
     2
 40
3.5
 49
0.5
 49
-3.0
  0
LTYPE
  2
ACAD_ISO08W100
 70
    64
  3
____ __ ____ __ ____ __ ____ ____ __ __ ____ __
 72
    65
 73
     4
 40
36.0
 49
24.0
 49
-3.0
 49
6.0
 49
-3.0
  0
LTYPE
  2
ACAD_ISO09W100
 70
    64
  3
____ __ __ ____ __ __ ____ __ __ ____ __ __ ___
 72
    65
 73
     6
 40
45.0
 49
24.0
 49
-3.0
 49
6.0
 49
-3.0
 49
6.0
 49
-3.0
  0
LTYPE
  2
ACAD_ISO10W100
 70
    64
  3
__ . __ . __ . __ . __ . __ . __ . __ . __ . __
 72
    65
 73
     4
 40
18.5
 49
12.0
 49
-3.0
 49
0.5
 49
-3.0
  0
LTYPE
  2
ACAD_ISO11W100
 70
    64
  3
__ __ . __ __ . __ __ . __ __ . __ __ . __ __ .
 72
    65
 73
     6
 40
33.5
 49
12.0
 49
-3.0
 49
12.0
 49
-3.0
 49
0.5
 49
-3.0
  0
LTYPE
  2
ACAD_ISO12W100
 70
    64
  3
__ . . __ . . __ . . __ . . __ . . __ . . __ .
 72
    65
 73
     6
 40
22.0
 49
12.0
 49
-3.0
 49
0.5
 49
-3.0
 49
0.5
 49
-3.0
  0
LTYPE
  2
ACAD_ISO13W100
 70
    64
  3
__ __ . . __ __ . . __ __ . . __ __ . . __ __ .
 72
    65
 73
     8
 40
37.0
 49
12.0
 49
-3.0
 49
12.0
 49
-3.0
 49
0.5
 49
-3.0
 49
0.5
 49
-3.0
  0
LTYPE
  2
ACAD_ISO14W100
 70
    64
  3
__ . . . __ . . . __ . . . __ . . . __ . . . __
 72
    65
 73
     8
 40
25.5
 49
12.0
 49
-3.0
 49
0.5
 49
-3.0
 49
0.5
 49
-3.0
 49
0.5
 49
-3.0
  0
LTYPE
  2
ACAD_ISO15W100
 70
    64
  3
__ __ . . . __ __ . . . __ __ . . . __ __ . . .
 72
    65
 73
    10
 40
40.5
 49
12.0
 49
-3.0
 49
12.0
 49
-3.0
 49
0.5
 49
-3.0
 49
0.5
 49
-3.0
 49
0.5
 49
-3.0
  0
ENDTAB
  0
TABLE
  2
STYLE
 70
     4
  0
STYLE
  2
STANDARD
 70
    64
 40
0.0
 41
1.0
 50
0.0
 71
     0
 42
0.2
  3
txt
  4

  0
STYLE
  2
TOLERANCE
 70
    64
 40
0.0
 41
1.0
 50
0.0
 71
     0
 42
0.2
  3
../igesfont/iges1003.shx
  4

  0
STYLE
  2
ROMANS
 70
    64
 40
0.0
 41
1.0
 50
0.0
 71
     0
 42
0.2
  3
romans.shx
  4

  0
STYLE
  2
ROMANC
 70
    64
 40
0.0
 41
1.0
 50
0.0
 71
     0
 42
0.2
  3
romanc.shx
  4

  0
ENDTAB
  0
TABLE
  2
DIMSTYLE
 70
     2
  0
DIMSTYLE
  2
UNNAMED
 70
     0
  3

  4

  5

  6

  7

 40
1.0
 41
0.18
 42
0.0625
 43
0.38
 44
0.18
 45
0.0
 46
0.0
 47
0.0
 48
0.0
140
0.18
141
0.09
142
0.0
143
25.4
144
1.0
145
0.0
146
1.0
147
0.09
 71
     0
 72
     0
 73
     1
 74
     1
 75
     0
 76
     0
 77
     0
 78
     0
170
     0
171
     2
172
     0
173
     0
174
     0
175
     0
176
     0
177
     0
178
     0
  0
DIMSTYLE
  2
STANDARD
 70
     0
  3

  4

  5

  6

  7

 40
1.0
 41
0.18
 42
0.0625
 43
0.38
 44
0.18
 45
0.0
 46
0.0
 47
0.0
 48
0.0
140
0.18
141
0.09
142
0.0
143
25.4
144
1.0
145
0.0
146
1.0
147
0.09
 71
     0
 72
     0
 73
     1
 74
     1
 75
     0
 76
     0
 77
     0
 78
     0
170
     0
171
     2
172
     0
173
     0
174
     0
175
     0
176
     0
177
     0
178
     0
  0
ENDTAB
  0
TABLE
  2
LAYER
 70
     2
  0
LAYER
  2
0
 70
     0
 62
     7
  6
CONTINUOUS
  0
LAYER
  2
255
 70
     0
 62
     7
  6
CONTINUOUS
  0
ENDTAB
  0
ENDSEC
  0
SECTION
  2
BLOCKS
  0
BLOCK
  5
     B
  8
0
  6
CONTINUOUS
 62
     7
  2
*HATCH255
 70
    65
 10
0.0
 20
0.0
 30
0.0
  3
*HATCH255
  0
LINE
  5
     C
  8
0
  6
CONTINUOUS
 62
   210
 10
-116.87760925293
 20
-29.9034690856934
 30
0.0
 11
-118.724739074707
 21
-31.7505989074707
 31
0.0
  0
LINE
  5
     D
  8
0
  6
CONTINUOUS
 62
   210
 10
-112.84691619873
 20
-30.1154136657715
 30
0.0
 11
-115.000244140625
 21
-32.2687454223633
 31
0.0
  0
LINE
  5
     E
  8
0
  6
CONTINUOUS
 62
   210
 10
-118.860778808594
 20
-38.2505989074707
 30
0.0
 11
-120.860786437988
 21
-40.250602722168
 31
0.0
  0
LINE
  5
     F
  8
0
  6
CONTINUOUS
 62
   210
 10
-106.800872802734
 20
-30.4333324432373
 30
0.0
 11
-116.618133544922
 21
-40.2505912780762
 31
0.0
  0
LINE
  5
    10
  8
0
  6
CONTINUOUS
 62
   210
 10
-100.754821777344
 20
-30.7512493133545
 30
0.0
 11
-110.25414276123
 21
-40.2505683898926
 31
0.0
  0
LINE
  5
    11
  8
0
  6
CONTINUOUS
 62
   210
 10
-94.7087707519531
 20
-31.0691661834717
 30
0.0
 11
-103.890151977539
 21
-40.250545501709
 31
0.0
  0
LINE
  5
    12
  8
0
  6
CONTINUOUS
 62
   210
 10
-88.6627197265625
 20
-31.3870830535889
 30
0.0
 11
-97.5261611938477
 21
-40.2505226135254
 31
0.0
  0
LINE
  5
    13
  8
0
  6
CONTINUOUS
 62
   210
 10
-82.6166687011719
 20
-31.7049999237061
 30
0.0
 11
-91.1621704101563
 21
-40.2504997253418
 31
0.0
  0
LINE
  5
    14
  8
0
  6
CONTINUOUS
 62
   210
 10
-76.5706176757813
 20
-32.0229187011719
 30
0.0
 11
-84.7981796264648
 21
-40.2504768371582
 31
0.0
  0
LINE
  5
    15
  8
0
  6
CONTINUOUS
 62
   210
 10
-70.5245666503906
 20
-32.3408355712891
 30
0.0
 11
-78.4341888427734
 21
-40.2504539489746
 31
0.0
  0
LINE
  5
    16
  8
0
  6
CONTINUOUS
 62
   210
 10
-64.478515625
 20
-32.6587524414063
 30
0.0
 11
-72.070198059082
 21
-40.250431060791
 31
0.0
  0
LINE
  5
    17
  8
0
  6
CONTINUOUS
 62
   210
 10
-58.4324760437012
 20
-32.9766693115234
 30
0.0
 11
-65.7062072753906
 21
-40.2504081726074
 31
0.0
  0
LINE
  5
    18
  8
0
  6
CONTINUOUS
 62
   210
 10
-120.963813781738
 20
-99.750602722168
 30
0.0
 11
-122.000038146973
 21
-100.786827087402
 31
0.0
  0
LINE
  5
    19
  8
0
  6
CONTINUOUS
 62
   210
 10
-50.3711395263672
 20
-33.4005737304688
 30
0.0
 11
-57.2209815979004
 21
-40.2504119873047
 31
0.0
  0
LINE
  5
    1A
  8
0
  6
CONTINUOUS
 62
   210
 10
-114.599838256836
 20
-99.7505874633789
 30
0.0
 11
-119.849891662598
 21
-105.000640869141
 31
0.0
  0
LINE
  5
    1B
  8
0
  6
CONTINUOUS
 62
   210
 10
-46.405948638916
 20
-35.7993431091309
 30
0.0
 11
-51.5002212524414
 21
-40.8936157226563
 31
0.0
  0
LINE
  5
    1C
  8
0
  6
CONTINUOUS
 62
   210
 10
-108.235855102539
 20
-99.7505645751953
 30
0.0
 11
-113.485908508301
 21
-105.000617980957
 31
0.0
  0
LINE
  5
    1D
  8
0
  6
CONTINUOUS
 62
   210
 10
-46.4059257507324
 20
-42.1632881164551
 30
0.0
 11
-51.5001983642578
 21
-47.2575607299805
 31
0.0
  0
LINE
  5
    1E
  8
0
  6
CONTINUOUS
 62
   210
 10
-101.871864318848
 20
-99.7505416870117
 30
0.0
 11
-107.121917724609
 21
-105.000595092773
 31
0.0
  0
LINE
  5
    1F
  8
0
  6
CONTINUOUS
 62
   210
 10
-46.4059028625488
 20
-48.5272331237793
 30
0.0
 11
-51.5001754760742
 21
-53.6215057373047
 31
0.0
  0
LINE
  5
    20
  8
0
  6
CONTINUOUS
 62
   210
 10
-95.5078735351563
 20
-99.7505187988281
 30
0.0
 11
-100.757926940918
 21
-105.00057220459
 31
0.0
  0
LINE
  5
    21
  8
0
  6
CONTINUOUS
 62
   210
 10
-46.4058799743652
 20
-54.8911781311035
 30
0.0
 11
-51.5001525878906
 21
-59.9854507446289
 31
0.0
  0
LINE
  5
    22
  8
0
  6
CONTINUOUS
 62
   210
 10
-89.1438827514648
 20
-99.7504959106445
 30
0.0
 11
-94.3939361572266
 21
-105.000549316406
 31
0.0
  0
LINE
  5
    23
  8
0
  6
CONTINUOUS
 62
   210
 10
-46.4058570861816
 20
-61.2551231384277
 30
0.0
 11
-51.500129699707
 21
-66.3493957519531
 31
0.0
  0
LINE
  5
    24
  8
0
  6
CONTINUOUS
 62
   210
 10
-82.7798919677734
 20
-99.7504730224609
 30
0.0
 11
-88.0299453735352
 21
-105.000526428223
 31
0.0
  0
LINE
  5
    25
  8
0
  6
CONTINUOUS
 62
   210
 10
-46.4058341979981
 20
-67.6190643310547
 30
0.0
 11
-51.5001068115234
 21
-72.7133407592773
 31
0.0
  0
LINE
  5
    26
  8
0
  6
CONTINUOUS
 62
   210
 10
-76.415901184082
 20
-99.7504501342774
 30
0.0
 11
-81.6659545898438
 21
-105.000503540039
 31
0.0
  0
LINE
  5
    27
  8
0
  6
CONTINUOUS
 62
   210
 10
-46.4058113098145
 20
-73.9830093383789
 30
0.0
 11
-51.5000839233398
 21
-79.0772857666016
 31
0.0
  0
LINE
  5
    28
  8
0
  6
CONTINUOUS
 62
   210
 10
-70.0519104003906
 20
-99.7504272460938
 30
0.0
 11
-75.3019638061523
 21
-105.000480651855
 31
0.0
  0
LINE
  5
    29
  8
0
  6
CONTINUOUS
 62
   210
 10
-46.4057884216309
 20
-80.3469543457031
 30
0.0
 11
-51.5000610351563
 21
-85.4412307739258
 31
0.0
  0
LINE
  5
    2A
  8
0
  6
CONTINUOUS
 62
   210
 10
-63.6879234313965
 20
-99.7504043579102
 30
0.0
 11
-68.9379730224609
 21
-105.000457763672
 31
0.0
  0
LINE
  5
    2B
  8
0
  6
CONTINUOUS
 62
   210
 10
-46.4057655334473
 20
-86.7108993530274
 30
0.0
 11
-51.5000381469727
 21
-91.80517578125
 31
0.0
  0
LINE
  5
    2C
  8
0
  6
CONTINUOUS
 62
   210
 10
-57.3239440917969
 20
-99.7503814697266
 30
0.0
 11
-62.5739860534668
 21
-105.000434875488
 31
0.0
  0
LINE
  5
    2D
  8
0
  6
CONTINUOUS
 62
   210
 10
-46.4057426452637
 20
-93.0748443603516
 30
0.0
 11
-51.5000152587891
 21
-98.1691207885742
 31
0.0
  0
LINE
  5
    2E
  8
0
  6
CONTINUOUS
 62
   210
 10
-46.4057655334473
 20
-97.3174514770508
 30
0.0
 11
-54.0887298583984
 21
-105.000411987305
 31
0.0
  0
LINE
  5
    2F
  8
0
  6
CONTINUOUS
 62
   210
 10
-46.4057426452637
 20
-103.681396484375
 30
0.0
 11
-47.7247505187988
 21
-105.000389099121
 31
0.0
  0
ENDBLK
  5
    30
  8
0
  6
CONTINUOUS
 62
     7
  0
BLOCK
  5
    31
  8
0
  6
CONTINUOUS
 62
     7
  2
MOSTRINA
 70
    64
 10
0.0
 20
0.0
 30
0.0
  3
MOSTRINA
  0
LINE
  5
    32
  8
0
  6
CONTINUOUS
 62
     3
 10
208.338256835938
 20
30.7306251525879
 30
0.0
 11
208.338256835938
 21
189.230621337891
 31
0.0
  0
LINE
  5
    33
  8
0
  6
CONTINUOUS
 62
     3
 10
57.5882568359375
 20
29.4806251525879
 30
0.0
 11
207.088256835938
 21
29.4806251525879
 31
0.0
  0
LINE
  5
    34
  8
0
  6
CONTINUOUS
 62
     3
 10
56.3382568359375
 20
30.7306251525879
 30
0.0
 11
56.3382568359375
 21
189.230621337891
 31
0.0
  0
LINE
  5
    35
  8
0
  6
CONTINUOUS
 62
     3
 10
57.5882568359375
 20
190.480621337891
 30
0.0
 11
207.088256835938
 21
190.480621337891
 31
0.0
  0
LINE
  5
    36
  8
0
  6
CONTINUOUS
 62
     3
 10
202.838256835938
 20
56.9806251525879
 30
0.0
 11
202.838256835938
 21
162.980625152588
 31
0.0
  0
LINE
  5
    37
  8
0
  6
CONTINUOUS
 62
     3
 10
61.8382568359375
 20
56.9806251525879
 30
0.0
 11
202.838256835938
 21
56.9806251525879
 31
0.0
  0
LINE
  5
    38
  8
0
  6
CONTINUOUS
 62
     3
 10
61.8382568359375
 20
56.9806251525879
 30
0.0
 11
61.8382568359375
 21
162.980625152588
 31
0.0
  0
LINE
  5
    39
  8
0
  6
CONTINUOUS
 62
     3
 10
61.8382568359375
 20
162.980621337891
 30
0.0
 11
202.838256835938
 21
162.980621337891
 31
0.0
  0
LINE
  5
    3A
  8
0
  6
CONTINUOUS
 62
     3
 10
203.838256835938
 20
48.4806251525879
 30
0.0
 11
203.838256835938
 21
49.4806251525879
 31
0.0
  0
LINE
  5
    3B
  8
0
  6
CONTINUOUS
 62
     3
 10
61.8382568359375
 20
50.4806251525879
 30
0.0
 11
202.838256835938
 21
50.4806251525879
 31
0.0
  0
LINE
  5
    3C
  8
0
  6
CONTINUOUS
 62
     3
 10
60.8382568359375
 20
48.4806251525879
 30
0.0
 11
60.8382568359375
 21
49.4806251525879
 31
0.0
  0
LINE
  5
    3D
  8
0
  6
CONTINUOUS
 62
     3
 10
61.8382568359375
 20
49.4806251525879
 30
0.0
 11
202.838256835938
 21
49.4806251525879
 31
0.0
  0
LINE
  5
    3E
  8
0
  6
CONTINUOUS
 62
     3
 10
60.8382568359375
 20
29.4806251525879
 30
0.0
 11
60.8382568359375
 21
48.4806251525879
 31
0.0
  0
LINE
  5
    3F
  8
0
  6
CONTINUOUS
 62
     3
 10
60.8382568359375
 20
49.4806213378906
 30
0.0
 11
60.8382568359375
 21
190.480621337891
 31
0.0
  0
LINE
  5
    40
  8
0
  6
CONTINUOUS
 62
     3
 10
61.8382568359375
 20
29.4806251525879
 30
0.0
 11
61.8382568359375
 21
49.4806251525879
 31
0.0
  0
LINE
  5
    41
  8
0
  6
CONTINUOUS
 62
     3
 10
61.8382568359375
 20
162.980621337891
 30
0.0
 11
61.8382568359375
 21
169.480621337891
 31
0.0
  0
LINE
  5
    42
  8
0
  6
CONTINUOUS
 62
     3
 10
61.8382568359375
 20
50.4806251525879
 30
0.0
 11
61.8382568359375
 21
56.9806251525879
 31
0.0
  0
LINE
  5
    43
  8
0
  6
CONTINUOUS
 62
     3
 10
203.838256835938
 20
29.4806251525879
 30
0.0
 11
203.838256835938
 21
48.4806251525879
 31
0.0
  0
LINE
  5
    44
  8
0
  6
CONTINUOUS
 62
     3
 10
203.838256835938
 20
49.4806251525879
 30
0.0
 11
203.838256835938
 21
190.480621337891
 31
0.0
  0
LINE
  5
    45
  8
0
  6
CONTINUOUS
 62
     3
 10
202.838256835938
 20
50.4806251525879
 30
0.0
 11
202.838256835938
 21
56.9806251525879
 31
0.0
  0
LINE
  5
    46
  8
0
  6
CONTINUOUS
 62
     3
 10
202.838256835938
 20
162.980621337891
 30
0.0
 11
202.838256835938
 21
169.480621337891
 31
0.0
  0
LINE
  5
    47
  8
0
  6
CONTINUOUS
 62
     3
 10
202.838256835938
 20
29.4806251525879
 30
0.0
 11
202.838256835938
 21
49.4806251525879
 31
0.0
  0
LINE
  5
    48
  8
0
  6
CONTINUOUS
 62
     3
 10
60.8382568359375
 20
170.480621337891
 30
0.0
 11
203.838256835938
 21
170.480621337891
 31
0.0
  0
LINE
  5
    49
  8
0
  6
CONTINUOUS
 62
     3
 10
61.8382568359375
 20
169.480621337891
 30
0.0
 11
202.838256835938
 21
169.480621337891
 31
0.0
  0
ARC
  5
    4A
  8
0
  6
CONTINUOUS
 62
     3
 10
57.5882568359375
 20
30.7306251525879
 30
0.0
 40
1.25
 50
180.0
 51
270.0
  0
ARC
  5
    4B
  8
0
  6
CONTINUOUS
 62
     3
 10
207.088256835938
 20
30.7306251525879
 30
0.0
 40
1.25
 50
270.0
 51
360.0
  0
ARC
  5
    4C
  8
0
  6
CONTINUOUS
 62
     3
 10
207.088256835938
 20
189.230621337891
 30
0.0
 40
1.25
 50
0.0
 51
90.0
  0
ARC
  5
    4D
  8
0
  6
CONTINUOUS
 62
     3
 10
57.5882568359375
 20
189.230621337891
 30
0.0
 40
1.25
 50
90.0
 51
180.0
  0
LINE
  5
    4E
  8
0
  6
DOT
 62
     3
 10
60.3382577409677
 20
179.7306252571
 30
0.0
 11
60.8382568359375
 21
179.7306252571
 31
0.0
  0
LINE
  5
    4F
  8
0
  6
DOT
 62
     3
 10
60.3382577409676
 20
181.2306252571
 30
0.0
 11
60.8382568359375
 21
181.2306252571
 31
0.0
  0
LINE
  5
    50
  8
0
  6
CONTINUOUS
 62
     3
 10
203.338257745313
 20
179.730625257273
 30
0.0
 11
203.838256835938
 21
179.730625257273
 31
0.0
  0
LINE
  5
    51
  8
0
  6
CONTINUOUS
 62
     3
 10
203.338257745314
 20
181.230625257273
 30
0.0
 11
203.838256835938
 21
181.230625257273
 31
0.0
  0
ARC
  5
    52
  8
0
  6
DOT
 62
     3
 10
60.3382577401871
 20
180.480625257147
 30
0.0
 40
0.749999999345164
 50
90.0
 51
270.0
  0
ARC
  5
    53
  8
0
  6
CONTINUOUS
 62
     3
 10
61.338257740822
 20
180.480625256974
 30
0.0
 40
0.750000000009701
 50
270.0
 51
450.0
  0
LINE
  5
    54
  8
0
  6
CONTINUOUS
 62
     3
 10
60.8382568359375
 20
181.2306252571
 30
0.0
 11
61.3382577409688
 21
181.2306252571
 31
0.0
  0
LINE
  5
    55
  8
0
  6
CONTINUOUS
 62
     3
 10
60.8382568359375
 20
179.7306252571
 30
0.0
 11
61.3382577409689
 21
179.7306252571
 31
0.0
  0
ARC
  5
    56
  8
0
  6
CONTINUOUS
 62
     3
 10
203.338257745503
 20
180.480625256952
 30
0.0
 40
0.750000000048506
 50
90.0000000038822
 51
269.999999996024
  0
ARC
  5
    57
  8
0
  6
DOT
 62
     3
 10
204.338257745421
 20
180.480625256965
 30
0.0
 40
0.750000000029104
 50
270.000000002449
 51
449.999999997486
  0
LINE
  5
    58
  8
0
  6
DOT
 62
     3
 10
203.838256835938
 20
181.230625257273
 30
0.0
 11
204.338257745315
 21
181.230625257273
 31
0.0
  0
LINE
  5
    59
  8
0
  6
DOT
 62
     3
 10
203.838256835938
 20
179.730625257273
 30
0.0
 11
204.338257745315
 21
179.730625257273
 31
0.0
  0
POINT
  5
    5A
  8
0
  6
CONTINUOUS
 62
     7
 10
132.338256835938
 20
109.980623245239
 30
0.0
  0
ENDBLK
  5
    5B
  8
0
  6
CONTINUOUS
 62
     7
  0
BLOCK
  5
    5C
  8
0
  6
CONTINUOUS
 62
     7
  2
*UDIM330
 70
    65
 10
0.0
 20
0.0
 30
0.0
  3
*UDIM330
  0
TEXT
  5
    5D
  8
0
  6
CONTINUOUS
 62
     7
 10
28.9693203827203
 20
-61.9538780692898
 30
0.0
 40
2.99999994039535
  1
161
 50
89.9999999480344
 41
0.933333333333333
 72
     1
 11
27.4693204160549
 21
-58.0538781454173
 31
0.0
 73
     2
  0
LINE
  5
    5E
  8
0
  6
CONTINUOUS
 62
     7
 10
12.754276022315
 20
-81.9288783729083
 30
0.0
 11
31.9693203862525
 21
-81.9288783729083
 31
0.0
  0
LINE
  5
    5F
  8
0
  6
CONTINUOUS
 62
     7
 10
12.754276022315
 20
-33.628877598048
 30
0.0
 11
31.9693203862525
 21
-33.628877598048
 31
0.0
  0
LINE
  5
    60
  8
0
  6
CONTINUOUS
 62
     7
 10
29.9693203862526
 20
-81.9288783729083
 30
0.0
 11
29.9693203862526
 21
-33.628877598048
 31
0.0
  0
LINE
  5
    61
  8
0
  6
CONTINUOUS
 62
     7
 10
29.4483759563009
 20
-78.9744550957014
 30
0.0
 11
29.9693203862526
 21
-81.9288783729083
 31
0.0
  0
LINE
  5
    62
  8
0
  6
CONTINUOUS
 62
     7
 10
29.9693203862526
 20
-81.9288783729083
 30
0.0
 11
30.4902648162042
 21
-78.9744550957014
 31
0.0
  0
LINE
  5
    63
  8
0
  6
CONTINUOUS
 62
     7
 10
30.4902648162042
 20
-36.583300875255
 30
0.0
 11
29.9693203862526
 21
-33.628877598048
 31
0.0
  0
LINE
  5
    64
  8
0
  6
CONTINUOUS
 62
     7
 10
29.9693203862526
 20
-33.628877598048
 30
0.0
 11
29.4483759563009
 21
-36.583300875255
 31
0.0
  0
ENDBLK
  5
    65
  8
0
  6
CONTINUOUS
 62
     7
  0
BLOCK
  5
    66
  8
0
  6
CONTINUOUS
 62
     7
  2
*UDIM331
 70
    65
 10
0.0
 20
0.0
 30
0.0
  3
*UDIM331
  0
TEXT
  5
    67
  8
0
  6
CONTINUOUS
 62
     7
 10
-14.8457249525804
 20
45.5760668811578
 30
0.0
 40
2.99999994039535
  1
152
 50
359.999999948034
 41
0.933333333333333
 72
     1
 11
-10.9457250287135
 21
47.0760668478379
 31
0.0
 73
     2
  0
LINE
  5
    68
  8
0
  6
CONTINUOUS
 62
     7
 10
12.1292760372162
 20
-33.0038776129492
 30
0.0
 11
12.1292760372162
 21
46.5760668776402
 31
0.0
  0
LINE
  5
    69
  8
0
  6
CONTINUOUS
 62
     7
 10
-33.470725774765
 20
-33.0038776129492
 30
0.0
 11
-33.470725774765
 21
46.5760668776402
 31
0.0
  0
LINE
  5
    6A
  8
0
  6
CONTINUOUS
 62
     7
 10
12.1292760372162
 20
44.5760668776402
 30
0.0
 11
-33.470725774765
 21
44.5760668776402
 31
0.0
  0
LINE
  5
    6B
  8
0
  6
CONTINUOUS
 62
     7
 10
9.17485276000923
 20
44.0551224476885
 30
0.0
 11
12.1292760372162
 21
44.5760668776402
 31
0.0
  0
LINE
  5
    6C
  8
0
  6
CONTINUOUS
 62
     7
 10
12.1292760372162
 20
44.5760668776402
 30
0.0
 11
9.17485276000923
 21
45.0970113075918
 31
0.0
  0
LINE
  5
    6D
  8
0
  6
CONTINUOUS
 62
     7
 10
-30.516302497558
 20
45.0970113075918
 30
0.0
 11
-33.470725774765
 21
44.5760668776402
 31
0.0
  0
LINE
  5
    6E
  8
0
  6
CONTINUOUS
 62
     7
 10
-33.470725774765
 20
44.5760668776402
 30
0.0
 11
-30.516302497558
 21
44.0551224476885
 31
0.0
  0
ENDBLK
  5
    6F
  8
0
  6
CONTINUOUS
 62
     7
  0
BLOCK
  5
    70
  8
0
  6
CONTINUOUS
 62
     7
  2
*UDIM332
 70
    65
 10
0.0
 20
0.0
 30
0.0
  3
*UDIM332
  0
TEXT
  5
    71
  8
0
  6
CONTINUOUS
 62
     7
 10
23.9117664649998
 20
-128.663574748356
 30
0.0
 40
2.99999994039535
  1
50
 50
359.999999948034
 41
0.933333333333333
 72
     1
 11
26.4117664166821
 21
-127.163574780413
 31
0.0
 73
     2
  0
LINE
  5
    72
  8
0
  6
CONTINUOUS
 62
     7
 10
17.8294536824296
 20
-113.828879183874
 30
0.0
 11
17.8294536824296
 21
-131.663574750611
 31
0.0
  0
LINE
  5
    73
  8
0
  6
CONTINUOUS
 62
     7
 10
2.82945308645039
 20
-113.828924100025
 30
0.0
 11
2.82945308645039
 21
-131.663574750611
 31
0.0
  0
LINE
  5
    74
  8
0
  6
CONTINUOUS
 62
     7
 10
28.9117663670116
 20
-129.663574750611
 30
0.0
 11
2.82945308645039
 21
-129.663574750611
 31
0.0
  0
LINE
  5
    75
  8
0
  6
CONTINUOUS
 62
     7
 10
20.7838769596366
 20
-129.142630320659
 30
0.0
 11
17.8294536824296
 21
-129.663574750611
 31
0.0
  0
LINE
  5
    76
  8
0
  6
CONTINUOUS
 62
     7
 10
17.8294536824296
 20
-129.663574750611
 30
0.0
 11
20.7838769596366
 21
-130.184519180562
 31
0.0
  0
LINE
  5
    77
  8
0
  6
CONTINUOUS
 62
     7
 10
-0.12497019075658
 20
-130.184519180562
 30
0.0
 11
2.82945308645039
 21
-129.663574750611
 31
0.0
  0
LINE
  5
    78
  8
0
  6
CONTINUOUS
 62
     7
 10
2.82945308645039
 20
-129.663574750611
 30
0.0
 11
-0.12497019075658
 21
-129.142630320659
 31
0.0
  0
ENDBLK
  5
    79
  8
0
  6
CONTINUOUS
 62
     7
  0
BLOCK
  5
    7A
  8
0
  6
CONTINUOUS
 62
     7
  2
*UDIM333
 70
    65
 10
0.0
 20
0.0
 30
0.0
  3
*UDIM333
  0
TEXT
  5
    7B
  8
0
  6
CONTINUOUS
 62
     7
 10
-13.4457241757332
 20
32.4631696303197
 30
0.0
 40
2.99999994039535
  1
50
 50
359.999999948034
 41
0.933333333333333
 72
     1
 11
-10.9457242240508
 21
33.9631695982625
 31
0.0
 73
     2
  0
LINE
  5
    7C
  8
0
  6
CONTINUOUS
 62
     7
 10
-3.17072457075119
 20
28.4211391329763
 30
0.0
 11
-3.17072457075119
 21
33.4631696280649
 31
0.0
  0
LINE
  5
    7D
  8
0
  6
CONTINUOUS
 62
     7
 10
-18.1707251667977
 20
28.4211391329763
 30
0.0
 11
-18.1707251667977
 21
33.4631696280649
 31
0.0
  0
LINE
  5
    7E
  8
0
  6
CONTINUOUS
 62
     7
 10
-3.17072457075119
 20
31.4631696280649
 30
0.0
 11
-18.1707251667977
 21
31.4631696280649
 31
0.0
  0
LINE
  5
    7F
  8
0
  6
CONTINUOUS
 62
     7
 10
-6.12514784795815
 20
30.9422251981132
 30
0.0
 11
-3.17072457075119
 21
31.4631696280649
 31
0.0
  0
LINE
  5
    80
  8
0
  6
CONTINUOUS
 62
     7
 10
-3.17072457075119
 20
31.4631696280649
 30
0.0
 11
-6.12514784795815
 21
31.9841140580165
 31
0.0
  0
LINE
  5
    81
  8
0
  6
CONTINUOUS
 62
     7
 10
-15.2163018895907
 20
31.9841140580165
 30
0.0
 11
-18.1707251667977
 21
31.4631696280649
 31
0.0
  0
LINE
  5
    82
  8
0
  6
CONTINUOUS
 62
     7
 10
-18.1707251667977
 20
31.4631696280649
 30
0.0
 11
-15.2163018895907
 21
30.9422251981132
 31
0.0
  0
ENDBLK
  5
    83
  8
0
  6
CONTINUOUS
 62
     7
  0
BLOCK
  5
    84
  8
0
  6
CONTINUOUS
 62
     7
  2
*UDIM334
 70
    65
 10
0.0
 20
0.0
 30
0.0
  3
*UDIM334
  0
TEXT
  5
    85
  8
0
  6
CONTINUOUS
 62
     7
 10
30.4053891666385
 20
22.7961342380762
 30
0.0
 40
2.99999994039535
  1
11
 50
89.9999999480344
 41
0.933333333333333
 72
     1
 11
28.9053891987051
 21
25.2961341897642
 31
0.0
 73
     2
  0
TEXT
  5
    86
  8
0
  6
CONTINUOUS
 62
     7
 10
30.4053891679064
 20
19.6461342937072
 30
0.0
 40
2.99999994039535
  1
Ø
 50
89.9999999480344
 41
0.933333333333333
 72
     1
 11
28.9053891987051
 21
20.7461342732107
 31
0.0
 73
     2
  0
LINE
  5
    87
  8
0
  6
CONTINUOUS
 62
     7
 10
14.6292760968208
 20
14.9711386382579
 30
0.0
 11
33.4053891689027
 21
14.9711386382579
 31
0.0
  0
LINE
  5
    88
  8
0
  6
CONTINUOUS
 62
     7
 10
14.6292760968208
 20
18.2711387693878
 30
0.0
 11
33.4053891689027
 21
18.2711387693878
 31
0.0
  0
LINE
  5
    89
  8
0
  6
CONTINUOUS
 62
     7
 10
31.4053891689027
 20
14.9711386382579
 30
0.0
 11
31.4053891689027
 21
27.7961341400937
 31
0.0
  0
LINE
  5
    8A
  8
0
  6
CONTINUOUS
 62
     7
 10
31.9263335988544
 20
12.0167153610509
 30
0.0
 11
31.4053891689027
 21
14.9711386382579
 31
0.0
  0
LINE
  5
    8B
  8
0
  6
CONTINUOUS
 62
     7
 10
31.4053891689027
 20
14.9711386382579
 30
0.0
 11
30.8844447389511
 21
12.0167153610509
 31
0.0
  0
LINE
  5
    8C
  8
0
  6
CONTINUOUS
 62
     7
 10
30.8844447389511
 20
21.2255620465948
 30
0.0
 11
31.4053891689027
 21
18.2711387693878
 31
0.0
  0
LINE
  5
    8D
  8
0
  6
CONTINUOUS
 62
     7
 10
31.4053891689027
 20
18.2711387693878
 30
0.0
 11
31.9263335988544
 21
21.2255620465948
 31
0.0
  0
ENDBLK
  5
    8E
  8
0
  6
CONTINUOUS
 62
     7
  0
BLOCK
  5
    8F
  8
0
  6
CONTINUOUS
 62
     7
  2
*UDIM335
 70
    65
 10
0.0
 20
0.0
 30
0.0
  3
*UDIM335
  0
TEXT
  5
    90
  8
0
  6
CONTINUOUS
 62
     7
 10
16.6042763626954
 20
32.4631696303197
 30
0.0
 40
2.99999994039535
  1
22
 50
359.999999948034
 41
0.933333333333333
 72
     1
 11
19.1042763143778
 21
33.9631695982625
 31
0.0
 73
     2
  0
LINE
  5
    91
  8
0
  6
CONTINUOUS
 62
     7
 10
13.6292760968208
 20
26.4711390554903
 30
0.0
 11
13.6292760968208
 21
33.4631696280649
 31
0.0
  0
LINE
  5
    92
  8
0
  6
CONTINUOUS
 62
     7
 10
7.0292758345604
 20
26.4711390554903
 30
0.0
 11
7.0292758345604
 21
33.4631696280649
 31
0.0
  0
LINE
  5
    93
  8
0
  6
CONTINUOUS
 62
     7
 10
21.6042762647072
 20
31.4631696280649
 30
0.0
 11
7.0292758345604
 21
31.4631696280649
 31
0.0
  0
LINE
  5
    94
  8
0
  6
CONTINUOUS
 62
     7
 10
16.5836993740278
 20
31.9841140580165
 30
0.0
 11
13.6292760968208
 21
31.4631696280649
 31
0.0
  0
LINE
  5
    95
  8
0
  6
CONTINUOUS
 62
     7
 10
13.6292760968208
 20
31.4631696280649
 30
0.0
 11
16.5836993740278
 21
30.9422251981132
 31
0.0
  0
LINE
  5
    96
  8
0
  6
CONTINUOUS
 62
     7
 10
4.07485255735343
 20
30.9422251981132
 30
0.0
 11
7.0292758345604
 21
31.4631696280649
 31
0.0
  0
LINE
  5
    97
  8
0
  6
CONTINUOUS
 62
     7
 10
7.0292758345604
 20
31.4631696280649
 30
0.0
 11
4.07485255735343
 21
31.9841140580165
 31
0.0
  0
ENDBLK
  5
    98
  8
0
  6
CONTINUOUS
 62
     7
  0
BLOCK
  5
    99
  8
0
  6
CONTINUOUS
 62
     7
  2
*UDIM336
 70
    65
 10
0.0
 20
0.0
 30
0.0
  3
*UDIM336
  0
TEXT
  5
    9A
  8
0
  6
CONTINUOUS
 62
     7
 10
28.2534917879488
 20
-91.9232523476615
 30
0.0
 40
2.99999994039535
  1
11
 50
384.025475316901
 41
0.933333333333333
 72
     1
 11
29.9261888703222
 21
-89.5353486366925
 31
0.0
 73
     2
  0
TEXT
  5
    9B
  8
0
  6
CONTINUOUS
 62
     7
 10
25.3763935999712
 20
-93.2057521200829
 30
0.0
 40
2.99999994039535
  1
Ø
 50
384.025475316901
 41
0.933333333333333
 72
     1
 11
25.7703803786573
 21
-91.3878483050441
 31
0.0
 73
     2
  0
LINE
  5
    9C
  8
0
  6
CONTINUOUS
 62
     7
 10
5.52237074281812
 20
-103.150765409863
 30
0.0
 11
33.2274570931552
 21
-90.8009029514289
 31
0.0
  0
LINE
  5
    9D
  8
0
  6
CONTINUOUS
 62
     7
 10
3.03600411267471
 20
-104.829449710293
 30
0.0
 11
5.52237074281812
 21
-103.150765409863
 31
0.0
  0
LINE
  5
    9E
  8
0
  6
CONTINUOUS
 62
     7
 10
5.52237074281812
 20
-103.150765409863
 30
0.0
 11
2.61180657359163
 21
-103.877825391443
 31
0.0
  0
LINE
  5
    9F
  8
0
  6
CONTINUOUS
 62
     7
 10
11.0228404100962
 20
-100.128509843368
 30
0.0
 11
8.53647377995281
 21
-101.807194143798
 31
0.0
  0
LINE
  5
    A0
  8
0
  6
CONTINUOUS
 62
     7
 10
8.53647377995281
 20
-101.807194143798
 30
0.0
 11
11.4470379491793
 21
-101.080134162218
 31
0.0
  0
ENDBLK
  5
    A1
  8
0
  6
CONTINUOUS
 62
     7
  0
BLOCK
  5
    A2
  8
0
  6
CONTINUOUS
 62
     7
  2
*UDIM337
 70
    65
 10
0.0
 20
0.0
 30
0.0
  3
*UDIM337
  0
TEXT
  5
    A3
  8
0
  6
CONTINUOUS
 62
     7
 10
-1.72001566424408
 20
-121.516697938486
 30
0.0
 40
2.99999994039535
  1
22
 50
359.999999948034
 41
0.933333333333333
 72
     1
 11
0.779984287438293
 21
-120.016697970543
 31
0.0
 73
     2
  0
LINE
  5
    A4
  8
0
  6
CONTINUOUS
 62
     7
 10
13.6294351001388
 20
-107.678960180598
 30
0.0
 11
13.6294351001388
 21
-124.51669794074
 31
0.0
  0
LINE
  5
    A5
  8
0
  6
CONTINUOUS
 62
     7
 10
7.02943483790796
 20
-107.678979943705
 30
0.0
 11
7.02943483790796
 21
-124.51669794074
 31
0.0
  0
LINE
  5
    A6
  8
0
  6
CONTINUOUS
 62
     7
 10
13.6294351001388
 20
-122.51669794074
 30
0.0
 11
-1.72001566289116
 21
-122.51669794074
 31
0.0
  0
LINE
  5
    A7
  8
0
  6
CONTINUOUS
 62
     7
 10
16.5838583773458
 20
-121.995753510789
 30
0.0
 11
13.6294351001388
 21
-122.51669794074
 31
0.0
  0
LINE
  5
    A8
  8
0
  6
CONTINUOUS
 62
     7
 10
13.6294351001388
 20
-122.51669794074
 30
0.0
 11
16.5838583773458
 21
-123.037642370692
 31
0.0
  0
LINE
  5
    A9
  8
0
  6
CONTINUOUS
 62
     7
 10
4.07501156070099
 20
-123.037642370692
 30
0.0
 11
7.02943483790796
 21
-122.51669794074
 31
0.0
  0
LINE
  5
    AA
  8
0
  6
CONTINUOUS
 62
     7
 10
7.02943483790796
 20
-122.51669794074
 30
0.0
 11
4.07501156070099
 21
-121.995753510789
 31
0.0
  0
ENDBLK
  5
    AB
  8
0
  6
CONTINUOUS
 62
     7
  0
BLOCK
  5
    AC
  8
0
  6
CONTINUOUS
 62
     7
  2
*UDIM338
 70
    65
 10
0.0
 20
0.0
 30
0.0
  3
*UDIM338
  0
TEXT
  5
    AD
  8
0
  6
CONTINUOUS
 62
     7
 10
-71.3198605433316
 20
-29.4039500251034
 30
0.0
 40
2.99999994039535
  1
217
 50
89.9999999480344
 41
0.933333333333333
 72
     1
 11
-72.8198605099969
 21
-25.5039501012309
 31
0.0
 73
     2
  0
LINE
  5
    AE
  8
0
  6
CONTINUOUS
 62
     7
 10
-47.202492391714
 20
-57.7788779854782
 30
0.0
 11
-72.3198605397993
 21
-57.7788779854782
 31
0.0
  0
LINE
  5
    AF
  8
0
  6
CONTINUOUS
 62
     7
 10
-63.7208248355786
 20
7.32097703001095
 30
0.0
 11
-72.3198605397993
 21
7.32097703001095
 31
0.0
  0
LINE
  5
    B0
  8
0
  6
CONTINUOUS
 62
     7
 10
-70.3198605397993
 20
-57.7788779854782
 30
0.0
 11
-70.3198605397993
 21
7.32097703001095
 31
0.0
  0
LINE
  5
    B1
  8
0
  6
CONTINUOUS
 62
     7
 10
-70.8408049697509
 20
-54.8244547082712
 30
0.0
 11
-70.3198605397993
 21
-57.7788779854782
 31
0.0
  0
LINE
  5
    B2
  8
0
  6
CONTINUOUS
 62
     7
 10
-70.3198605397993
 20
-57.7788779854782
 30
0.0
 11
-69.7989161098476
 21
-54.8244547082712
 31
0.0
  0
LINE
  5
    B3
  8
0
  6
CONTINUOUS
 62
     7
 10
-69.7989161098476
 20
4.36655375280398
 30
0.0
 11
-70.3198605397993
 21
7.32097703001095
 31
0.0
  0
LINE
  5
    B4
  8
0
  6
CONTINUOUS
 62
     7
 10
-70.3198605397993
 20
7.32097703001095
 30
0.0
 11
-70.8408049697509
 21
4.36655375280398
 31
0.0
  0
ENDBLK
  5
    B5
  8
0
  6
CONTINUOUS
 62
     7
  0
BLOCK
  5
    B6
  8
0
  6
CONTINUOUS
 62
     7
  2
*UDIM339
 70
    65
 10
0.0
 20
0.0
 30
0.0
  3
*UDIM339
  0
TEXT
  5
    B7
  8
0
  6
CONTINUOUS
 62
     7
 10
-14.8457226639657
 20
-133.929697392873
 30
0.0
 40
2.99999994039535
  1
140
 50
359.999999948034
 41
0.933333333333333
 72
     1
 11
-10.9457227400989
 21
-132.429697426193
 31
0.0
 73
     2
  0
LINE
  5
    B8
  8
0
  6
CONTINUOUS
 62
     7
 10
10.3292759656906
 20
-66.5038599818945
 30
0.0
 11
10.3292759656906
 21
-136.929697396391
 31
0.0
  0
LINE
  5
    B9
  8
0
  6
CONTINUOUS
 62
     7
 10
-31.6707310434818
 20
-66.5038544045246
 30
0.0
 11
-31.6707217563373
 21
-136.929697396391
 31
0.0
  0
LINE
  5
    BA
  8
0
  6
CONTINUOUS
 62
     7
 10
10.3292759656906
 20
-134.929697396391
 30
0.0
 11
-31.6707220200798
 21
-134.929697396391
 31
0.0
  0
LINE
  5
    BB
  8
0
  6
CONTINUOUS
 62
     7
 10
7.37485268848365
 20
-135.450641826343
 30
0.0
 11
10.3292759656906
 21
-134.929697396391
 31
0.0
  0
LINE
  5
    BC
  8
0
  6
CONTINUOUS
 62
     7
 10
10.3292759656906
 20
-134.929697396391
 30
0.0
 11
7.37485268848365
 21
-134.408752966439
 31
0.0
  0
LINE
  5
    BD
  8
0
  6
CONTINUOUS
 62
     7
 10
-28.7162987428728
 20
-134.408752966439
 30
0.0
 11
-31.6707220200798
 21
-134.929697396391
 31
0.0
  0
LINE
  5
    BE
  8
0
  6
CONTINUOUS
 62
     7
 10
-31.6707220200798
 20
-134.929697396391
 30
0.0
 11
-28.7162987428728
 21
-135.450641826343
 31
0.0
  0
ENDBLK
  5
    BF
  8
0
  6
CONTINUOUS
 62
     7
  0
BLOCK
  5
    C0
  8
0
  6
CONTINUOUS
 62
     7
  2
*UDIM340
 70
    65
 10
0.0
 20
0.0
 30
0.0
  3
*UDIM340
  0
TEXT
  5
    C1
  8
0
  6
CONTINUOUS
 62
     7
 10
38.8688080820461
 20
-117.603924280343
 30
0.0
 40
2.99999994039535
  1
22
 50
89.9999999480344
 41
0.933333333333333
 72
     1
 11
37.3688081141127
 21
-115.103924328655
 31
0.0
 73
     2
  0
LINE
  5
    C2
  8
0
  6
CONTINUOUS
 62
     7
 10
3.37944184008071
 20
-109.078925298515
 30
0.0
 11
41.8688080843103
 21
-109.078925298515
 31
0.0
  0
LINE
  5
    C3
  8
0
  6
CONTINUOUS
 62
     7
 10
10.4294223590448
 20
-102.478972590246
 30
0.0
 11
41.8688080843103
 21
-102.478972590246
 31
0.0
  0
LINE
  5
    C4
  8
0
  6
CONTINUOUS
 62
     7
 10
39.8688080843103
 20
-117.603924278984
 30
0.0
 11
39.8688080843103
 21
-102.478972590246
 31
0.0
  0
LINE
  5
    C5
  8
0
  6
CONTINUOUS
 62
     7
 10
40.389752514262
 20
-112.033348575722
 30
0.0
 11
39.8688080843103
 21
-109.078925298515
 31
0.0
  0
LINE
  5
    C6
  8
0
  6
CONTINUOUS
 62
     7
 10
39.8688080843103
 20
-109.078925298515
 30
0.0
 11
39.3478636543587
 21
-112.033348575722
 31
0.0
  0
LINE
  5
    C7
  8
0
  6
CONTINUOUS
 62
     7
 10
39.3478636543587
 20
-99.5245493130394
 30
0.0
 11
39.8688080843103
 21
-102.478972590246
 31
0.0
  0
LINE
  5
    C8
  8
0
  6
CONTINUOUS
 62
     7
 10
39.8688080843103
 20
-102.478972590246
 30
0.0
 11
40.389752514262
 21
-99.5245493130394
 31
0.0
  0
ENDBLK
  5
    C9
  8
0
  6
CONTINUOUS
 62
     7
  0
BLOCK
  5
    CA
  8
0
  6
CONTINUOUS
 62
     7
  2
*UDIM341
 70
    65
 10
0.0
 20
0.0
 30
0.0
  3
*UDIM341
  0
TEXT
  5
    CB
  8
0
  6
CONTINUOUS
 62
     7
 10
-81.0278565320254
 20
-122.329028365336
 30
0.0
 40
2.99999994039535
  1
7
 50
89.9999999480344
 41
0.933333333333333
 72
     1
 11
-82.5278565012268
 21
-121.229028385833
 31
0.0
 73
     2
  0
LINE
  5
    CC
  8
0
  6
CONTINUOUS
 62
     7
 10
-63.7955388536033
 20
-116.579028005334
 30
0.0
 11
-82.0278565310291
 21
-116.579028005334
 31
0.0
  0
LINE
  5
    CD
  8
0
  6
CONTINUOUS
 62
     7
 10
-64.1707126524605
 20
-114.478857796362
 30
0.0
 11
-82.0278565310291
 21
-114.478857796362
 31
0.0
  0
LINE
  5
    CE
  8
0
  6
CONTINUOUS
 62
     7
 10
-80.0278565310291
 20
-122.329028363978
 30
0.0
 11
-80.0278565310291
 21
-114.478857796362
 31
0.0
  0
LINE
  5
    CF
  8
0
  6
CONTINUOUS
 62
     7
 10
-79.5069121010775
 20
-119.533451282541
 30
0.0
 11
-80.0278565310291
 21
-116.579028005334
 31
0.0
  0
LINE
  5
    D0
  8
0
  6
CONTINUOUS
 62
     7
 10
-80.0278565310291
 20
-116.579028005334
 30
0.0
 11
-80.5488009609808
 21
-119.533451282541
 31
0.0
  0
LINE
  5
    D1
  8
0
  6
CONTINUOUS
 62
     7
 10
-80.5488009609808
 20
-111.524434519155
 30
0.0
 11
-80.0278565310291
 21
-114.478857796362
 31
0.0
  0
LINE
  5
    D2
  8
0
  6
CONTINUOUS
 62
     7
 10
-80.0278565310291
 20
-114.478857796362
 30
0.0
 11
-79.5069121010775
 21
-111.524434519155
 31
0.0
  0
ENDBLK
  5
    D3
  8
0
  6
CONTINUOUS
 62
     7
  0
BLOCK
  5
    D4
  8
0
  6
CONTINUOUS
 62
     7
  2
*UDIM342
 70
    65
 10
0.0
 20
0.0
 30
0.0
  3
*UDIM342
  0
TEXT
  5
    D5
  8
0
  6
CONTINUOUS
 62
     7
 10
-81.0278565345614
 20
-57.7539419869055
 30
0.0
 40
2.99999994039535
  1
406
 50
89.9999999480344
 41
0.933333333333333
 72
     1
 11
-82.5278565012268
 21
-53.853942063033
 31
0.0
 73
     2
  0
LINE
  5
    D6
  8
0
  6
CONTINUOUS
 62
     7
 10
-63.7208248355786
 20
7.32097703001095
 30
0.0
 11
-82.0278565310291
 21
7.32097703001095
 31
0.0
  0
LINE
  5
    D7
  8
0
  6
CONTINUOUS
 62
     7
 10
-80.0278565310291
 20
-114.478857796362
 30
0.0
 11
-80.0278565310291
 21
7.32097703001095
 31
0.0
  0
LINE
  5
    D8
  8
0
  6
CONTINUOUS
 62
     7
 10
-80.5488009609808
 20
-111.524434519155
 30
0.0
 11
-80.0278565310291
 21
-114.478857796362
 31
0.0
  0
LINE
  5
    D9
  8
0
  6
CONTINUOUS
 62
     7
 10
-80.0278565310291
 20
-114.478857796362
 30
0.0
 11
-79.5069121010775
 21
-111.524434519155
 31
0.0
  0
LINE
  5
    DA
  8
0
  6
CONTINUOUS
 62
     7
 10
-79.5069121010775
 20
4.36655375280398
 30
0.0
 11
-80.0278565310291
 21
7.32097703001095
 31
0.0
  0
LINE
  5
    DB
  8
0
  6
CONTINUOUS
 62
     7
 10
-80.0278565310291
 20
7.32097703001095
 30
0.0
 11
-80.5488009609808
 21
4.36655375280398
 31
0.0
  0
ENDBLK
  5
    DC
  8
0
  6
CONTINUOUS
 62
     7
  0
BLOCK
  5
    DD
  8
0
  6
CONTINUOUS
 62
     7
  2
*UDIM343
 70
    65
 10
0.0
 20
0.0
 30
0.0
  3
*UDIM343
  0
TEXT
  5
    DE
  8
0
  6
CONTINUOUS
 62
     7
 10
-81.0278565320254
 20
12.4209781944765
 30
0.0
 40
2.99999994039535
  1
7
 50
89.9999999480344
 41
0.933333333333333
 72
     1
 11
-82.5278565012268
 21
13.52097817398
 31
0.0
 73
     2
  0
LINE
  5
    DF
  8
0
  6
CONTINUOUS
 62
     7
 10
-63.7957275014407
 20
9.42097700131517
 30
0.0
 11
-82.0278565310291
 21
9.42097700131517
 31
0.0
  0
LINE
  5
    E0
  8
0
  6
CONTINUOUS
 62
     7
 10
-80.0278565310291
 20
7.32097703001095
 30
0.0
 11
-80.0278565310291
 21
14.620978152125
 31
0.0
  0
LINE
  5
    E1
  8
0
  6
CONTINUOUS
 62
     7
 10
-79.5069121010775
 20
4.36655375280398
 30
0.0
 11
-80.0278565310291
 21
7.32097703001095
 31
0.0
  0
LINE
  5
    E2
  8
0
  6
CONTINUOUS
 62
     7
 10
-80.0278565310291
 20
7.32097703001095
 30
0.0
 11
-80.5488009609808
 21
4.36655375280398
 31
0.0
  0
LINE
  5
    E3
  8
0
  6
CONTINUOUS
 62
     7
 10
-80.5488009609808
 20
12.3754002785222
 30
0.0
 11
-80.0278565310291
 21
9.42097700131517
 31
0.0
  0
LINE
  5
    E4
  8
0
  6
CONTINUOUS
 62
     7
 10
-80.0278565310291
 20
9.42097700131517
 30
0.0
 11
-79.5069121010775
 21
12.3754002785222
 31
0.0
  0
ENDBLK
  5
    E5
  8
0
  6
CONTINUOUS
 62
     7
  0
BLOCK
  5
    E6
  8
0
  6
CONTINUOUS
 62
     7
  2
*UDIM344
 70
    65
 10
0.0
 20
0.0
 30
0.0
  3
*UDIM344
  0
TEXT
  5
    E7
  8
0
  6
CONTINUOUS
 62
     7
 10
-2.94572317626455
 20
38.812571738091
 30
0.0
 40
2.99999994039535
  1
70
 50
359.999999948034
 41
0.933333333333333
 72
     1
 11
-0.44572322458218
 21
40.3125717060338
 31
0.0
 73
     2
  0
LINE
  5
    E8
  8
0
  6
CONTINUOUS
 62
     7
 10
10.3292767625789
 20
13.8605641754065
 30
0.0
 11
10.3292974434306
 21
39.8125717358355
 31
0.0
  0
LINE
  5
    E9
  8
0
  6
CONTINUOUS
 62
     7
 10
-10.670722586161
 20
15.6941923206372
 30
0.0
 11
-10.670667533225
 21
39.812571735831
 31
0.0
  0
LINE
  5
    EA
  8
0
  6
CONTINUOUS
 62
     7
 10
10.329295849654
 20
37.8125717358362
 30
0.0
 11
-10.6706720984518
 21
37.8125717358362
 31
0.0
  0
LINE
  5
    EB
  8
0
  6
CONTINUOUS
 62
     7
 10
7.37487257244703
 20
37.2916273058845
 30
0.0
 11
10.329295849654
 21
37.8125717358362
 31
0.0
  0
LINE
  5
    EC
  8
0
  6
CONTINUOUS
 62
     7
 10
10.329295849654
 20
37.8125717358362
 30
0.0
 11
7.37487257244703
 21
38.3335161657878
 31
0.0
  0
LINE
  5
    ED
  8
0
  6
CONTINUOUS
 62
     7
 10
-7.7162488212448
 20
38.3335161657878
 30
0.0
 11
-10.6706720984518
 21
37.8125717358362
 31
0.0
  0
LINE
  5
    EE
  8
0
  6
CONTINUOUS
 62
     7
 10
-10.6706720984518
 20
37.8125717358362
 30
0.0
 11
-7.7162488212448
 21
37.2916273058845
 31
0.0
  0
ENDBLK
  5
    EF
  8
0
  6
CONTINUOUS
 62
     7
  0
BLOCK
  5
    F0
  8
0
  6
CONTINUOUS
 62
     7
  2
*UDIM345
 70
    65
 10
0.0
 20
0.0
 30
0.0
  3
*UDIM345
  0
TEXT
  5
    F1
  8
0
  6
CONTINUOUS
 62
     7
 10
-23.9457268642464
 20
38.812571738091
 30
0.0
 40
2.99999994039535
  1
70
 50
359.999999948034
 41
0.933333333333333
 72
     1
 11
-21.445726912564
 21
40.3125717060338
 31
0.0
 73
     2
  0
LINE
  5
    F2
  8
0
  6
CONTINUOUS
 62
     7
 10
-31.6707236803096
 20
13.8605641754048
 30
0.0
 11
-31.67067118122
 21
39.8125717358321
 31
0.0
  0
LINE
  5
    F3
  8
0
  6
CONTINUOUS
 62
     7
 10
-10.6706720984518
 20
37.8125717358362
 30
0.0
 11
-31.6706752270796
 21
37.8125717358362
 31
0.0
  0
LINE
  5
    F4
  8
0
  6
CONTINUOUS
 62
     7
 10
-13.6250953756587
 20
37.2916273058845
 30
0.0
 11
-10.6706720984518
 21
37.8125717358362
 31
0.0
  0
LINE
  5
    F5
  8
0
  6
CONTINUOUS
 62
     7
 10
-10.6706720984518
 20
37.8125717358362
 30
0.0
 11
-13.6250953756587
 21
38.3335161657878
 31
0.0
  0
LINE
  5
    F6
  8
0
  6
CONTINUOUS
 62
     7
 10
-28.7162519498726
 20
38.3335161657878
 30
0.0
 11
-31.6706752270796
 21
37.8125717358362
 31
0.0
  0
LINE
  5
    F7
  8
0
  6
CONTINUOUS
 62
     7
 10
-31.6706752270796
 20
37.8125717358362
 30
0.0
 11
-28.7162519498726
 21
37.2916273058845
 31
0.0
  0
ENDBLK
  5
    F8
  8
0
  6
CONTINUOUS
 62
     7
  0
BLOCK
  5
    F9
  8
0
  6
CONTINUOUS
 62
     7
  2
*UDIM346
 70
    65
 10
0.0
 20
0.0
 30
0.0
  3
*UDIM346
  0
TEXT
  5
    FA
  8
0
  6
CONTINUOUS
 62
     7
 10
-44.945723131253
 20
38.812571738091
 30
0.0
 40
2.99999994039535
  1
70
 50
359.999999948034
 41
0.933333333333333
 72
     1
 11
-42.4457231795706
 21
40.3125717060338
 31
0.0
 73
     2
  0
LINE
  5
    FB
  8
0
  6
CONTINUOUS
 62
     7
 10
-52.6707257408162
 20
13.8605641754065
 30
0.0
 11
-52.6707050599646
 21
39.8125717358355
 31
0.0
  0
LINE
  5
    FC
  8
0
  6
CONTINUOUS
 62
     7
 10
-31.6706752270796
 20
37.8125717358362
 30
0.0
 11
-52.6707066537412
 21
37.8125717358362
 31
0.0
  0
LINE
  5
    FD
  8
0
  6
CONTINUOUS
 62
     7
 10
-34.6250985042865
 20
37.2916273058845
 30
0.0
 11
-31.6706752270796
 21
37.8125717358362
 31
0.0
  0
LINE
  5
    FE
  8
0
  6
CONTINUOUS
 62
     7
 10
-31.6706752270796
 20
37.8125717358362
 30
0.0
 11
-34.6250985042865
 21
38.3335161657878
 31
0.0
  0
LINE
  5
    FF
  8
0
  6
CONTINUOUS
 62
     7
 10
-49.7162833765342
 20
38.3335161657878
 30
0.0
 11
-52.6707066537412
 21
37.8125717358362
 31
0.0
  0
LINE
  5
   100
  8
0
  6
CONTINUOUS
 62
     7
 10
-52.6707066537412
 20
37.8125717358362
 30
0.0
 11
-49.7162833765342
 21
37.2916273058845
 31
0.0
  0
ENDBLK
  5
   101
  8
0
  6
CONTINUOUS
 62
     7
  0
BLOCK
  5
   102
  8
0
  6
CONTINUOUS
 62
     7
  2
*UDIM347
 70
    65
 10
0.0
 20
0.0
 30
0.0
  3
*UDIM347
  0
TEXT
  5
   103
  8
0
  6
CONTINUOUS
 62
     7
 10
-24.9621651802161
 20
-140.700429778617
 30
0.0
 40
2.99999994039535
  1
280
 50
359.999999948034
 41
0.933333333333333
 72
     1
 11
-21.0621652563493
 21
-139.200429811937
 31
0.0
 73
     2
  0
LINE
  5
   104
  8
0
  6
CONTINUOUS
 62
     7
 10
20.829264846414
 20
-93.5788587689398
 30
0.0
 11
20.8292491124272
 21
-143.700429782135
 31
0.0
  0
LINE
  5
   105
  8
0
  6
CONTINUOUS
 62
     7
 10
-63.1707160462608
 20
-93.5788587689398
 30
0.0
 11
-63.1707317802476
 21
-143.700429782135
 31
0.0
  0
LINE
  5
   106
  8
0
  6
CONTINUOUS
 62
     7
 10
20.8292497402602
 20
-141.700429782135
 30
0.0
 11
-63.1707311524147
 21
-141.700429782135
 31
0.0
  0
LINE
  5
   107
  8
0
  6
CONTINUOUS
 62
     7
 10
17.8748264630532
 20
-142.221374212087
 30
0.0
 11
20.8292497402602
 21
-141.700429782135
 31
0.0
  0
LINE
  5
   108
  8
0
  6
CONTINUOUS
 62
     7
 10
20.8292497402602
 20
-141.700429782135
 30
0.0
 11
17.8748264630532
 21
-141.179485352183
 31
0.0
  0
LINE
  5
   109
  8
0
  6
CONTINUOUS
 62
     7
 10
-60.2163078752077
 20
-141.179485352183
 30
0.0
 11
-63.1707311524147
 21
-141.700429782135
 31
0.0
  0
LINE
  5
   10A
  8
0
  6
CONTINUOUS
 62
     7
 10
-63.1707311524147
 20
-141.700429782135
 30
0.0
 11
-60.2163078752077
 21
-142.221374212087
 31
0.0
  0
ENDBLK
  5
   10B
  8
0
  6
CONTINUOUS
 62
     7
  0
BLOCK
  5
   10C
  8
0
  6
CONTINUOUS
 62
     1
  2
*HATCH256
 70
    65
 10
0.0
 20
0.0
 30
0.0
  3
*HATCH256
  0
LINE
  5
   10D
  8
0
  6
CONTINUOUS
 62
     3
 10
4.41387701034546
 20
206.999954223633
 30
0.0
 11
1.50000178813934
 21
204.08610534668
 31
0.0
  0
LINE
  5
   10E
  8
0
  6
CONTINUOUS
 62
     3
 10
7.59585857391357
 20
206.999954223633
 30
0.0
 11
1.50000178813934
 21
200.904144287109
 31
0.0
  0
LINE
  5
   10F
  8
0
  6
CONTINUOUS
 62
     3
 10
9.0
 20
205.222122192383
 30
0.0
 11
2.37348818778992
 21
198.595611572266
 31
0.0
  0
LINE
  5
   110
  8
0
  6
CONTINUOUS
 62
     3
 10
9.0
 20
202.040161132813
 30
0.0
 11
5.55546903610229
 21
198.595611572266
 31
0.0
  0
LINE
  5
   111
  8
0
  6
CONTINUOUS
 62
     3
 10
9.0
 20
198.858200073242
 30
0.0
 11
8.73744964599609
 21
198.595611572266
 31
0.0
  0
ENDBLK
  5
   112
  8
0
  6
CONTINUOUS
 62
     1
  0
BLOCK
  5
   113
  8
0
  6
CONTINUOUS
 62
     1
  2
*HATCH257
 70
    65
 10
0.0
 20
0.0
 30
0.0
  3
*HATCH257
  0
LINE
  5
   114
  8
0
  6
CONTINUOUS
 62
     3
 10
5.71340322494507
 20
272.999755859375
 30
0.0
 11
3.71340298652649
 21
270.999755859375
 31
0.0
  0
LINE
  5
   115
  8
0
  6
CONTINUOUS
 62
     3
 10
8.89538383483887
 20
272.999755859375
 30
0.0
 11
6.89538383483887
 21
270.999755859375
 31
0.0
  0
LINE
  5
   116
  8
0
  6
CONTINUOUS
 62
     3
 10
12.0773649215698
 20
272.999755859375
 30
0.0
 11
10.0773649215698
 21
270.999755859375
 31
0.0
  0
LINE
  5
   117
  8
0
  6
CONTINUOUS
 62
     3
 10
15.2593460083008
 20
272.999755859375
 30
0.0
 11
13.2593460083008
 21
270.999755859375
 31
0.0
  0
LINE
  5
   118
  8
0
  6
CONTINUOUS
 62
     3
 10
18.4413242340088
 20
272.999755859375
 30
0.0
 11
16.4413261413574
 21
270.999755859375
 31
0.0
  0
ENDBLK
  5
   119
  8
0
  6
CONTINUOUS
 62
     1
  0
BLOCK
  5
   11A
  8
0
  6
CONTINUOUS
 62
     1
  2
*HATCH258
 70
    65
 10
0.0
 20
0.0
 30
0.0
  3
*HATCH258
  0
LINE
  5
   11B
  8
0
  6
CONTINUOUS
 62
     3
 10
6.44132471084595
 20
260.999755859375
 30
0.0
 11
4.44132471084595
 21
258.999755859375
 31
0.0
  0
LINE
  5
   11C
  8
0
  6
CONTINUOUS
 62
     3
 10
9.62330532073975
 20
260.999755859375
 30
0.0
 11
7.6233057975769
 21
258.999755859375
 31
0.0
  0
LINE
  5
   11D
  8
0
  6
CONTINUOUS
 62
     3
 10
12.8052864074707
 20
260.999755859375
 30
0.0
 11
10.8052864074707
 21
258.999755859375
 31
0.0
  0
LINE
  5
   11E
  8
0
  6
CONTINUOUS
 62
     3
 10
15.9872674942017
 20
260.999755859375
 30
0.0
 11
13.9872674942017
 21
258.999755859375
 31
0.0
  0
LINE
  5
   11F
  8
0
  6
CONTINUOUS
 62
     3
 10
19.169246673584
 20
260.999755859375
 30
0.0
 11
17.169246673584
 21
258.999755859375
 31
0.0
  0
ENDBLK
  5
   120
  8
0
  6
CONTINUOUS
 62
     1
  0
BLOCK
  5
   121
  8
0
  6
CONTINUOUS
 62
     1
  2
*HATCH259
 70
    65
 10
0.0
 20
0.0
 30
0.0
  3
*HATCH259
  0
LINE
  5
   122
  8
0
  6
CONTINUOUS
 62
     3
 10
5.98751020431519
 20
251.0
 30
0.0
 11
3.98749470710754
 21
248.999984741211
 31
0.0
  0
LINE
  5
   123
  8
0
  6
CONTINUOUS
 62
     3
 10
9.16949081420898
 20
251.0
 30
0.0
 11
7.16947555541992
 21
248.999984741211
 31
0.0
  0
LINE
  5
   124
  8
0
  6
CONTINUOUS
 62
     3
 10
12.3514719009399
 20
251.0
 30
0.0
 11
10.3514566421509
 21
248.999984741211
 31
0.0
  0
LINE
  5
   125
  8
0
  6
CONTINUOUS
 62
     3
 10
15.5334529876709
 20
251.0
 30
0.0
 11
13.5334377288818
 21
248.999984741211
 31
0.0
  0
LINE
  5
   126
  8
0
  6
CONTINUOUS
 62
     3
 10
18.7154312133789
 20
251.0
 30
0.0
 11
16.7154178619385
 21
248.999984741211
 31
0.0
  0
ENDBLK
  5
   127
  8
0
  6
CONTINUOUS
 62
     1
  0
BLOCK
  5
   128
  8
0
  6
CONTINUOUS
 62
     1
  2
*HATCH260
 70
    65
 10
0.0
 20
0.0
 30
0.0
  3
*HATCH260
  0
LINE
  5
   129
  8
0
  6
CONTINUOUS
 62
     3
 10
5.65475606918335
 20
238.999984741211
 30
0.0
 11
3.65478658676147
 21
237.000015258789
 31
0.0
  0
LINE
  5
   12A
  8
0
  6
CONTINUOUS
 62
     3
 10
8.83673667907715
 20
238.999984741211
 30
0.0
 11
6.83676767349243
 21
237.000015258789
 31
0.0
  0
LINE
  5
   12B
  8
0
  6
CONTINUOUS
 62
     3
 10
12.0187177658081
 20
238.999984741211
 30
0.0
 11
10.0187482833862
 21
237.000015258789
 31
0.0
  0
LINE
  5
   12C
  8
0
  6
CONTINUOUS
 62
     3
 10
15.2006988525391
 20
238.999984741211
 30
0.0
 11
13.2007293701172
 21
237.000015258789
 31
0.0
  0
LINE
  5
   12D
  8
0
  6
CONTINUOUS
 62
     3
 10
18.3826770782471
 20
238.999984741211
 30
0.0
 11
16.3827095031738
 21
237.000015258789
 31
0.0
  0
ENDBLK
  5
   12E
  8
0
  6
CONTINUOUS
 62
     1
  0
BLOCK
  5
   12F
  8
0
  6
CONTINUOUS
 62
     1
  2
*HATCH261
 70
    65
 10
0.0
 20
0.0
 30
0.0
  3
*HATCH261
  0
LINE
  5
   130
  8
0
  6
CONTINUOUS
 62
   210
 10
2.0
 20
216.496124267578
 30
0.0
 11
2.99613332748413
 21
215.5
 31
0.0
  0
LINE
  5
   131
  8
0
  6
CONTINUOUS
 62
   210
 10
6.00001239776611
 20
214.617431640625
 30
0.0
 11
9.0
 21
211.617446899414
 31
0.0
  0
LINE
  5
   132
  8
0
  6
CONTINUOUS
 62
   210
 10
2.0
 20
224.981414794922
 30
0.0
 11
6.0
 21
220.981414794922
 31
0.0
  0
LINE
  5
   133
  8
0
  6
CONTINUOUS
 62
   210
 10
9.60274314880371
 20
219.499984741211
 30
0.0
 11
13.6027364730835
 21
215.5
 31
0.0
  0
LINE
  5
   134
  8
0
  6
CONTINUOUS
 62
   210
 10
2.0
 20
231.34538269043
 30
0.0
 11
9.55353164672852
 21
223.791839599609
 31
0.0
  0
LINE
  5
   135
  8
0
  6
CONTINUOUS
 62
   210
 10
6.25858211517334
 20
229.208114624023
 30
0.0
 11
11.6748514175415
 21
223.791839599609
 31
0.0
  0
LINE
  5
   136
  8
0
  6
CONTINUOUS
 62
   210
 10
8.37990093231201
 20
229.208114624023
 30
0.0
 11
13.7961702346802
 21
223.791839599609
 31
0.0
  0
LINE
  5
   137
  8
0
  6
CONTINUOUS
 62
   210
 10
10.5012197494507
 20
229.208114624023
 30
0.0
 11
15.9174890518188
 21
223.791839599609
 31
0.0
  0
LINE
  5
   138
  8
0
  6
CONTINUOUS
 62
   210
 10
12.6225395202637
 20
229.208114624023
 30
0.0
 11
18.0388069152832
 21
223.791839599609
 31
0.0
  0
LINE
  5
   139
  8
0
  6
CONTINUOUS
 62
   210
 10
14.7438583374023
 20
229.208114624023
 30
0.0
 11
19.0000019073486
 21
224.951965332031
 31
0.0
  0
LINE
  5
   13A
  8
0
  6
CONTINUOUS
 62
   210
 10
16.865177154541
 20
229.208114624023
 30
0.0
 11
19.0000038146973
 21
227.073287963867
 31
0.0
  0
LINE
  5
   13B
  8
0
  6
CONTINUOUS
 62
   210
 10
18.9864959716797
 20
229.208114624023
 30
0.0
 11
19.0000057220459
 21
229.194610595703
 31
0.0
  0
LINE
  5
   13C
  8
0
  6
CONTINUOUS
 62
   210
 10
2.0
 20
250.437271118164
 30
0.0
 11
3.5
 21
248.937271118164
 31
0.0
  0
LINE
  5
   13D
  8
0
  6
CONTINUOUS
 62
   210
 10
17.558536529541
 20
237.000045776367
 30
0.0
 11
18.9781169891357
 21
235.580459594727
 31
0.0
  0
LINE
  5
   13E
  8
0
  6
CONTINUOUS
 62
   210
 10
2.0
 20
258.922546386719
 30
0.0
 11
9.92255210876465
 21
251.0
 31
0.0
  0
LINE
  5
   13F
  8
0
  6
CONTINUOUS
 62
   210
 10
2.0
 20
263.165191650391
 30
0.0
 11
3.5
 21
261.665191650391
 31
0.0
  0
LINE
  5
   140
  8
0
  6
CONTINUOUS
 62
   210
 10
8.28676319122314
 20
258.999755859375
 30
0.0
 11
16.2865085601807
 21
251.0
 31
0.0
  0
LINE
  5
   141
  8
0
  6
CONTINUOUS
 62
   210
 10
2.0
 20
269.529174804688
 30
0.0
 11
3.5
 21
268.029174804688
 31
0.0
  0
LINE
  5
   142
  8
0
  6
CONTINUOUS
 62
   210
 10
14.6507205963135
 20
258.999755859375
 30
0.0
 11
19.0
 21
254.650466918945
 31
0.0
  0
LINE
  5
   143
  8
0
  6
CONTINUOUS
 62
   210
 10
2.0
 20
275.893127441406
 30
0.0
 11
4.89337587356567
 21
272.999755859375
 31
0.0
  0
LINE
  5
   144
  8
0
  6
CONTINUOUS
 62
   210
 10
5.13601875305176
 20
276.999755859375
 30
0.0
 11
9.13601398468018
 21
272.999755859375
 31
0.0
  0
LINE
  5
   145
  8
0
  6
CONTINUOUS
 62
   210
 10
11.4999752044678
 20
276.999755859375
 30
0.0
 11
15.4999704360962
 21
272.999755859375
 31
0.0
  0
LINE
  5
   146
  8
0
  6
CONTINUOUS
 62
   210
 10
17.8639335632324
 20
276.999755859375
 30
0.0
 11
19.0
 21
275.863677978516
 31
0.0
  0
ENDBLK
  5
   147
  8
0
  6
CONTINUOUS
 62
     1
  0
BLOCK
  5
   148
  8
0
  6
CONTINUOUS
 62
     1
  2
*HATCH262
 70
    65
 10
0.0
 20
0.0
 30
0.0
  3
*HATCH262
  0
LINE
  5
   149
  8
0
  6
CONTINUOUS
 62
   210
 10
25.4413261413574
 20
279.999755859375
 30
0.0
 11
19.4999904632568
 21
274.058380126953
 31
0.0
  0
LINE
  5
   14A
  8
0
  6
CONTINUOUS
 62
   210
 10
31.8052883148193
 20
279.999755859375
 30
0.0
 11
23.3052864074707
 21
271.499755859375
 31
0.0
  0
LINE
  5
   14B
  8
0
  6
CONTINUOUS
 62
   210
 10
33.4999694824219
 20
275.330505371094
 30
0.0
 11
29.6692485809326
 21
271.499755859375
 31
0.0
  0
ENDBLK
  5
   14C
  8
0
  6
CONTINUOUS
 62
     1
  0
BLOCK
  5
   14D
  8
0
  6
CONTINUOUS
 62
     1
  2
*HATCH263
 70
    65
 10
0.0
 20
0.0
 30
0.0
  3
*HATCH263
  0
LINE
  5
   14E
  8
0
  6
CONTINUOUS
 62
   210
 10
25.0332088470459
 20
260.499755859375
 30
0.0
 11
19.4999828338623
 21
254.966537475586
 31
0.0
  0
LINE
  5
   14F
  8
0
  6
CONTINUOUS
 62
   210
 10
31.3971691131592
 20
260.499755859375
 30
0.0
 11
20.3973979949951
 21
249.499984741211
 31
0.0
  0
LINE
  5
   150
  8
0
  6
CONTINUOUS
 62
   210
 10
33.4999694824219
 20
256.238616943359
 30
0.0
 11
26.761360168457
 21
249.499984741211
 31
0.0
  0
LINE
  5
   151
  8
0
  6
CONTINUOUS
 62
   210
 10
33.4999694824219
 20
249.874649047852
 30
0.0
 11
33.1253204345703
 21
249.499984741211
 31
0.0
  0
ENDBLK
  5
   152
  8
0
  6
CONTINUOUS
 62
     1
  0
BLOCK
  5
   153
  8
0
  6
CONTINUOUS
 62
     1
  2
*HATCH264
 70
    65
 10
0.0
 20
0.0
 30
0.0
  3
*HATCH264
  0
LINE
  5
   154
  8
0
  6
CONTINUOUS
 62
   210
 10
25.3385238647461
 20
220.499984741211
 30
0.0
 11
19.4999732971191
 21
214.661437988281
 31
0.0
  0
LINE
  5
   155
  8
0
  6
CONTINUOUS
 62
   210
 10
31.7024841308594
 20
220.499984741211
 30
0.0
 11
9.79811000823975
 21
198.595611572266
 31
0.0
  0
LINE
  5
   156
  8
0
  6
CONTINUOUS
 62
   210
 10
33.4999694824219
 20
215.933502197266
 30
0.0
 11
16.1620712280273
 21
198.595611572266
 31
0.0
  0
LINE
  5
   157
  8
0
  6
CONTINUOUS
 62
   210
 10
32.5916519165039
 20
208.661239624023
 30
0.0
 11
22.5260314941406
 21
198.595611572266
 31
0.0
  0
ENDBLK
  5
   158
  8
0
  6
CONTINUOUS
 62
     1
  0
BLOCK
  5
   159
  8
0
  6
CONTINUOUS
 62
     5
  2
*HATCH265
 70
    65
 10
0.0
 20
0.0
 30
0.0
  3
*HATCH265
  0
LINE
  5
   15A
  8
0
  6
CONTINUOUS
 62
   210
 10
19.75
 20
-93.9962844848633
 30
0.0
 11
24.2537422180176
 21
-98.5000305175781
 31
0.0
  0
LINE
  5
   15B
  8
0
  6
CONTINUOUS
 62
   210
 10
19.75
 20
-87.6323165893555
 30
0.0
 11
30.6176986694336
 21
-98.5000305175781
 31
0.0
  0
LINE
  5
   15C
  8
0
  6
CONTINUOUS
 62
   210
 10
25.9816703796387
 20
-87.5000305175781
 30
0.0
 11
33.75
 21
-95.2683715820313
 31
0.0
  0
LINE
  5
   15D
  8
0
  6
CONTINUOUS
 62
   210
 10
32.3456268310547
 20
-87.5000305175781
 30
0.0
 11
33.75
 21
-88.9044036865234
 31
0.0
  0
ENDBLK
  5
   15E
  8
0
  6
CONTINUOUS
 62
     5
  0
BLOCK
  5
   15F
  8
0
  6
CONTINUOUS
 62
     5
  2
*HATCH266
 70
    65
 10
0.0
 20
0.0
 30
0.0
  3
*HATCH266
  0
LINE
  5
   160
  8
0
  6
CONTINUOUS
 62
   210
 10
19.75
 20
-113.088172912598
 30
0.0
 11
24.6618480682373
 21
-118.000030517578
 31
0.0
  0
LINE
  5
   161
  8
0
  6
CONTINUOUS
 62
   210
 10
22.5258159637451
 20
-109.500030517578
 30
0.0
 11
31.0258007049561
 21
-118.000030517578
 31
0.0
  0
LINE
  5
   162
  8
0
  6
CONTINUOUS
 62
   210
 10
28.8897705078125
 20
-109.500030517578
 30
0.0
 11
33.75
 21
-114.36026763916
 31
0.0
  0
ENDBLK
  5
   163
  8
0
  6
CONTINUOUS
 62
     5
  0
BLOCK
  5
   164
  8
0
  6
CONTINUOUS
 62
     7
  2
*HATCH267
 70
    65
 10
0.0
 20
0.0
 30
0.0
  3
*HATCH267
  0
LINE
  5
   165
  8
0
  6
CONTINUOUS
 62
   210
 10
1.99901723861694
 20
-110.186431884766
 30
0.0
 11
6.81237745285034
 21
-114.999786376953
 31
0.0
  0
LINE
  5
   166
  8
0
  6
CONTINUOUS
 62
   210
 10
1.99903905391693
 20
-105.943809509277
 30
0.0
 11
3.49903154373169
 21
-107.443801879883
 31
0.0
  0
LINE
  5
   167
  8
0
  6
CONTINUOUS
 62
   210
 10
9.17635250091553
 20
-110.999794006348
 30
0.0
 11
13.1763668060303
 21
-114.999816894531
 31
0.0
  0
LINE
  5
   168
  8
0
  6
CONTINUOUS
 62
   210
 10
1.99907159805298
 20
-99.5798873901367
 30
0.0
 11
3.49906444549561
 21
-101.079879760742
 31
0.0
  0
LINE
  5
   169
  8
0
  6
CONTINUOUS
 62
   210
 10
15.5403413772583
 20
-110.99983215332
 30
0.0
 11
18.9989948272705
 21
-114.45849609375
 31
0.0
  0
LINE
  5
   16A
  8
0
  6
CONTINUOUS
 62
   210
 10
1.99910461902618
 20
-93.215934753418
 30
0.0
 11
5.78294706344604
 21
-96.9997863769531
 31
0.0
  0
LINE
  5
   16B
  8
0
  6
CONTINUOUS
 62
   210
 10
1.99913728237152
 20
-86.8520050048828
 30
0.0
 11
3.4991295337677
 21
-88.3519973754883
 31
0.0
  0
LINE
  5
   16C
  8
0
  6
CONTINUOUS
 62
   210
 10
6.268479347229
 20
-89.0000305175781
 30
0.0
 11
14.2682666778564
 21
-96.9998245239258
 31
0.0
  0
LINE
  5
   16D
  8
0
  6
CONTINUOUS
 62
   210
 10
1.99916982650757
 20
-80.4880828857422
 30
0.0
 11
3.49916243553162
 21
-81.9880752563477
 31
0.0
  0
LINE
  5
   16E
  8
0
  6
CONTINUOUS
 62
   210
 10
12.6324691772461
 20
-89.0000686645508
 30
0.0
 11
18.9990940093994
 21
-95.36669921875
 31
0.0
  0
LINE
  5
   16F
  8
0
  6
CONTINUOUS
 62
   210
 10
1.99920260906219
 20
-74.1241455078125
 30
0.0
 11
3.49919509887695
 21
-75.6241455078125
 31
0.0
  0
LINE
  5
   170
  8
0
  6
CONTINUOUS
 62
   210
 10
18.9964599609375
 20
-89.0000991821289
 30
0.0
 11
18.9991264343262
 21
-89.0027618408203
 31
0.0
  0
LINE
  5
   171
  8
0
  6
CONTINUOUS
 62
   210
 10
7.81951761245728
 20
-73.5804977416992
 30
0.0
 11
9.23908996582031
 21
-75.0000762939453
 31
0.0
  0
LINE
  5
   172
  8
0
  6
CONTINUOUS
 62
   210
 10
1.99925708770752
 20
-63.5175895690918
 30
0.0
 11
5.99923658370972
 21
-67.517578125
 31
0.0
  0
LINE
  5
   173
  8
0
  6
CONTINUOUS
 62
   210
 10
14.1835069656372
 20
-73.5805282592773
 30
0.0
 11
15.6030921936035
 21
-75.000114440918
 31
0.0
  0
LINE
  5
   174
  8
0
  6
CONTINUOUS
 62
   210
 10
1.99928987026215
 20
-57.1536560058594
 30
0.0
 11
5.99926948547363
 21
-61.1536407470703
 31
0.0
  0
LINE
  5
   175
  8
0
  6
CONTINUOUS
 62
   210
 10
1.99930083751678
 20
-55.0323448181152
 30
0.0
 11
5.99928045272827
 21
-59.0323295593262
 31
0.0
  0
LINE
  5
   176
  8
0
  6
CONTINUOUS
 62
   210
 10
10.8801612854004
 20
-61.7918968200684
 30
0.0
 11
16.2964572906494
 21
-67.2081985473633
 31
0.0
  0
LINE
  5
   177
  8
0
  6
CONTINUOUS
 62
   210
 10
5.99932527542114
 20
-52.6684112548828
 30
0.0
 11
10.8309507369995
 21
-57.5000419616699
 31
0.0
  0
LINE
  5
   178
  8
0
  6
CONTINUOUS
 62
   210
 10
17.2441520690918
 20
-61.7919273376465
 30
0.0
 11
18.9992599487305
 21
-63.5470390319824
 31
0.0
  0
LINE
  5
   179
  8
0
  6
CONTINUOUS
 62
   210
 10
5.99934434890747
 20
-46.3044624328613
 30
0.0
 11
8.99932956695557
 21
-49.3044509887695
 31
0.0
  0
LINE
  5
   17A
  8
0
  6
CONTINUOUS
 62
   210
 10
15.3162517547607
 20
-53.5000610351563
 30
0.0
 11
18.9993019104004
 21
-57.1831169128418
 31
0.0
  0
ENDBLK
  5
   17B
  8
0
  6
CONTINUOUS
 62
     7
  0
BLOCK
  5
   17C
  8
0
  6
CONTINUOUS
 62
     7
  2
*HATCH268
 70
    65
 10
0.0
 20
0.0
 30
0.0
  3
*HATCH268
  0
LINE
  5
   17D
  8
0
  6
CONTINUOUS
 62
     3
 10
6.61216497421265
 20
-108.999794006348
 30
0.0
 11
4.61217498779297
 21
-110.999778747559
 31
0.0
  0
LINE
  5
   17E
  8
0
  6
CONTINUOUS
 62
     3
 10
9.79412937164307
 20
-108.999816894531
 30
0.0
 11
7.79413890838623
 21
-110.999801635742
 31
0.0
  0
LINE
  5
   17F
  8
0
  6
CONTINUOUS
 62
     3
 10
12.9760932922363
 20
-108.999839782715
 30
0.0
 11
10.9761028289795
 21
-110.999824523926
 31
0.0
  0
LINE
  5
   180
  8
0
  6
CONTINUOUS
 62
     3
 10
16.1580581665039
 20
-108.999862670898
 30
0.0
 11
14.1580667495728
 21
-110.999847412109
 31
0.0
  0
LINE
  5
   181
  8
0
  6
CONTINUOUS
 62
     3
 10
19.3400249481201
 20
-108.999885559082
 30
0.0
 11
17.3400325775147
 21
-110.999870300293
 31
0.0
  0
ENDBLK
  5
   182
  8
0
  6
CONTINUOUS
 62
     7
  0
BLOCK
  5
   183
  8
0
  6
CONTINUOUS
 62
     7
  2
*HATCH269
 70
    65
 10
0.0
 20
0.0
 30
0.0
  3
*HATCH269
  0
LINE
  5
   184
  8
0
  6
CONTINUOUS
 62
     3
 10
5.88424730300903
 20
-96.9997863769531
 30
0.0
 11
3.88425731658936
 21
-98.9997787475586
 31
0.0
  0
LINE
  5
   185
  8
0
  6
CONTINUOUS
 62
     3
 10
9.06621170043945
 20
-96.9998092651367
 30
0.0
 11
7.06622123718262
 21
-98.9998016357422
 31
0.0
  0
LINE
  5
   186
  8
0
  6
CONTINUOUS
 62
     3
 10
12.2481756210327
 20
-96.9998321533203
 30
0.0
 11
10.2481851577759
 21
-98.9998245239258
 31
0.0
  0
LINE
  5
   187
  8
0
  6
CONTINUOUS
 62
     3
 10
15.430139541626
 20
-96.9998550415039
 30
0.0
 11
13.4301490783691
 21
-98.9998474121094
 31
0.0
  0
LINE
  5
   188
  8
0
  6
CONTINUOUS
 62
     3
 10
18.6121063232422
 20
-96.9998779296875
 30
0.0
 11
16.6121139526367
 21
-98.999870300293
 31
0.0
  0
ENDBLK
  5
   189
  8
0
  6
CONTINUOUS
 62
     7
  0
BLOCK
  5
   18A
  8
0
  6
CONTINUOUS
 62
     7
  2
*HATCH270
 70
    65
 10
0.0
 20
0.0
 30
0.0
  3
*HATCH270
  0
LINE
  5
   18B
  8
0
  6
CONTINUOUS
 62
     3
 10
6.33807468414307
 20
-87.0000152587891
 30
0.0
 11
4.33806943893433
 21
-89.0000228881836
 31
0.0
  0
LINE
  5
   18C
  8
0
  6
CONTINUOUS
 62
     3
 10
9.52003860473633
 20
-87.0000381469727
 30
0.0
 11
7.52003335952759
 21
-89.0000457763672
 31
0.0
  0
LINE
  5
   18D
  8
0
  6
CONTINUOUS
 62
     3
 10
12.7020025253296
 20
-87.0000610351562
 30
0.0
 11
10.701997756958
 21
-89.0000686645508
 31
0.0
  0
LINE
  5
   18E
  8
0
  6
CONTINUOUS
 62
     3
 10
15.8839664459229
 20
-87.0000839233398
 30
0.0
 11
13.8839616775513
 21
-89.0000915527344
 31
0.0
  0
LINE
  5
   18F
  8
0
  6
CONTINUOUS
 62
     3
 10
19.0659332275391
 20
-87.0001068115234
 30
0.0
 11
17.0659275054932
 21
-89.000114440918
 31
0.0
  0
ENDBLK
  5
   190
  8
0
  6
CONTINUOUS
 62
     7
  0
BLOCK
  5
   191
  8
0
  6
CONTINUOUS
 62
     7
  2
*HATCH271
 70
    65
 10
0.0
 20
0.0
 30
0.0
  3
*HATCH271
  0
LINE
  5
   192
  8
0
  6
CONTINUOUS
 62
     3
 10
6.67078113555908
 20
-75.0000534057617
 30
0.0
 11
4.67082166671753
 21
-77.0000076293945
 31
0.0
  0
LINE
  5
   193
  8
0
  6
CONTINUOUS
 62
     3
 10
9.85274505615234
 20
-75.0000762939453
 30
0.0
 11
7.85278558731079
 21
-77.0000305175781
 31
0.0
  0
LINE
  5
   194
  8
0
  6
CONTINUOUS
 62
     3
 10
13.0347089767456
 20
-75.0000991821289
 30
0.0
 11
11.0347499847412
 21
-77.0000534057617
 31
0.0
  0
LINE
  5
   195
  8
0
  6
CONTINUOUS
 62
     3
 10
16.2166728973389
 20
-75.0001220703125
 30
0.0
 11
14.2167139053345
 21
-77.0000762939453
 31
0.0
  0
LINE
  5
   196
  8
0
  6
CONTINUOUS
 62
     3
 10
19.3986396789551
 20
-75.0001449584961
 30
0.0
 11
17.3986797332764
 21
-77.0000991821289
 31
0.0
  0
ENDBLK
  5
   197
  8
0
  6
CONTINUOUS
 62
     7
  0
BLOCK
  5
   198
  8
0
  6
CONTINUOUS
 62
     7
  2
*HATCH272
 70
    65
 10
0.0
 20
0.0
 30
0.0
  3
*HATCH272
  0
LINE
  5
   199
  8
0
  6
CONTINUOUS
 62
   210
 10
5.60656023025513
 20
-41.0624847412109
 30
0.0
 11
1.66900670528412
 21
-45.0000381469727
 31
0.0
  0
LINE
  5
   19A
  8
0
  6
CONTINUOUS
 62
   210
 10
11.9705219268799
 20
-41.0624847412109
 30
0.0
 11
8.0329704284668
 21
-45.0000381469727
 31
0.0
  0
LINE
  5
   19B
  8
0
  6
CONTINUOUS
 62
   210
 10
18.3344841003418
 20
-41.0624847412109
 30
0.0
 11
14.3969326019287
 21
-45.0000381469727
 31
0.0
  0
ENDBLK
  5
   19C
  8
0
  6
CONTINUOUS
 62
     7
  0
BLOCK
  5
   19D
  8
0
  6
CONTINUOUS
 62
     7
  2
*HATCH273
 70
    65
 10
0.0
 20
0.0
 30
0.0
  3
*HATCH273
  0
LINE
  5
   19E
  8
0
  6
CONTINUOUS
 62
   210
 10
19.75
 20
-70.6617431640625
 30
0.0
 11
25.5882797241211
 21
-76.5000305175781
 31
0.0
  0
LINE
  5
   19F
  8
0
  6
CONTINUOUS
 62
   210
 10
19.75
 20
-64.2977752685547
 30
0.0
 11
31.9522361755371
 21
-76.5000305175781
 31
0.0
  0
LINE
  5
   1A0
  8
0
  6
CONTINUOUS
 62
   210
 10
19.75
 20
-57.9338111877441
 30
0.0
 11
33.75
 21
-71.9338302612305
 31
0.0
  0
LINE
  5
   1A1
  8
0
  6
CONTINUOUS
 62
   210
 10
19.75
 20
-51.5698432922363
 30
0.0
 11
33.75
 21
-65.5698623657227
 31
0.0
  0
LINE
  5
   1A2
  8
0
  6
CONTINUOUS
 62
   210
 10
19.75
 20
-45.2058753967285
 30
0.0
 11
33.75
 21
-59.2058944702148
 31
0.0
  0
LINE
  5
   1A3
  8
0
  6
CONTINUOUS
 62
   210
 10
21.9705638885498
 20
-41.0624847412109
 30
0.0
 11
33.75
 21
-52.8419342041016
 31
0.0
  0
LINE
  5
   1A4
  8
0
  6
CONTINUOUS
 62
   210
 10
28.3345203399658
 20
-41.0624847412109
 30
0.0
 11
33.75
 21
-46.4779663085938
 31
0.0
  0
ENDBLK
  5
   1A5
  8
0
  6
CONTINUOUS
 62
     7
  0
BLOCK
  5
   1A6
  8
0
  6
CONTINUOUS
 62
     7
  2
*HATCH274
 70
    65
 10
0.0
 20
0.0
 30
0.0
  3
*HATCH274
  0
LINE
  5
   1A7
  8
0
  6
CONTINUOUS
 62
   210
 10
24.2466411590576
 20
238.499984741211
 30
0.0
 11
19.4999732971191
 21
233.753311157227
 31
0.0
  0
LINE
  5
   1A8
  8
0
  6
CONTINUOUS
 62
   210
 10
30.6106014251709
 20
238.499984741211
 30
0.0
 11
24.6106014251709
 21
232.499984741211
 31
0.0
  0
LINE
  5
   1A9
  8
0
  6
CONTINUOUS
 62
   210
 10
33.4999694824219
 20
235.025390625
 30
0.0
 11
30.9745616912842
 21
232.499984741211
 31
0.0
  0
ENDBLK
  5
   1AA
  8
0
  6
CONTINUOUS
 62
     7
  0
BLOCK
  5
   1AB
  8
0
  6
CONTINUOUS
 62
     7
  2
*HATCH275
 70
    65
 10
0.0
 20
0.0
 30
0.0
  3
*HATCH275
  0
LINE
  5
   1AC
  8
0
  6
CONTINUOUS
 62
     3
 10
36.3696670532227
 20
213.499908447266
 30
0.0
 11
33.75
 21
210.880249023438
 31
0.0
  0
LINE
  5
   1AD
  8
0
  6
CONTINUOUS
 62
     3
 10
39.5516395568848
 20
213.499908447266
 30
0.0
 11
33.75
 21
207.698287963867
 31
0.0
  0
LINE
  5
   1AE
  8
0
  6
CONTINUOUS
 62
     3
 10
42.7336120605469
 20
213.499893188477
 30
0.0
 11
36.7336959838867
 21
207.499969482422
 31
0.0
  0
LINE
  5
   1AF
  8
0
  6
CONTINUOUS
 62
     3
 10
45.915584564209
 20
213.499893188477
 30
0.0
 11
39.9156799316406
 21
207.499969482422
 31
0.0
  0
LINE
  5
   1B0
  8
0
  6
CONTINUOUS
 62
     3
 10
49.0975570678711
 20
213.499893188477
 30
0.0
 11
43.0976638793945
 21
207.499969482422
 31
0.0
  0
ENDBLK
  5
   1B1
  8
0
  6
CONTINUOUS
 62
     7
  0
BLOCK
  5
   1B2
  8
0
  6
CONTINUOUS
 62
     7
  2
*HATCH276
 70
    65
 10
0.0
 20
0.0
 30
0.0
  3
*HATCH276
  0
LINE
  5
   1B3
  8
0
  6
CONTINUOUS
 62
   210
 10
38.9999694824219
 20
347.080505371094
 30
0.0
 11
43.5805015563965
 21
342.499969482422
 31
0.0
  0
LINE
  5
   1B4
  8
0
  6
CONTINUOUS
 62
   210
 10
41.4444694519043
 20
350.999969482422
 30
0.0
 11
49.9444618225098
 21
342.499969482422
 31
0.0
  0
LINE
  5
   1B5
  8
0
  6
CONTINUOUS
 62
   210
 10
47.8084297180176
 20
350.999969482422
 30
0.0
 11
53.9999694824219
 21
344.808410644531
 31
0.0
  0
ENDBLK
  5
   1B6
  8
0
  6
CONTINUOUS
 62
     7
  0
BLOCK
  5
   1B7
  8
0
  6
CONTINUOUS
 62
     7
  2
*HATCH277
 70
    65
 10
0.0
 20
0.0
 30
0.0
  3
*HATCH277
  0
LINE
  5
   1B8
  8
0
  6
CONTINUOUS
 62
   210
 10
38.9999694824219
 20
325.867279052734
 30
0.0
 11
44.3672866821289
 21
320.499969482422
 31
0.0
  0
LINE
  5
   1B9
  8
0
  6
CONTINUOUS
 62
   210
 10
39.731258392334
 20
331.499969482422
 30
0.0
 11
50.7312431335449
 21
320.499969482422
 31
0.0
  0
LINE
  5
   1BA
  8
0
  6
CONTINUOUS
 62
   210
 10
46.09521484375
 20
331.499969482422
 30
0.0
 11
53.9999694824219
 21
323.59521484375
 31
0.0
  0
LINE
  5
   1BB
  8
0
  6
CONTINUOUS
 62
   210
 10
52.459171295166
 20
331.499969482422
 30
0.0
 11
53.9999694824219
 21
329.959136962891
 31
0.0
  0
ENDBLK
  5
   1BC
  8
0
  6
CONTINUOUS
 62
     7
  0
BLOCK
  5
   1BD
  8
0
  6
CONTINUOUS
 62
     7
  2
*HATCH278
 70
    65
 10
0.0
 20
0.0
 30
0.0
  3
*HATCH278
  0
LINE
  5
   1BE
  8
0
  6
CONTINUOUS
 62
   210
 10
33.4999694824219
 20
276.212921142578
 30
0.0
 11
38.2131576538086
 21
271.499755859375
 31
0.0
  0
LINE
  5
   1BF
  8
0
  6
CONTINUOUS
 62
   210
 10
33.4999694824219
 20
282.576843261719
 30
0.0
 11
44.5771141052246
 21
271.499755859375
 31
0.0
  0
LINE
  5
   1C0
  8
0
  6
CONTINUOUS
 62
   210
 10
33.708438873291
 20
288.732421875
 30
0.0
 11
48.4999694824219
 21
273.940856933594
 31
0.0
  0
LINE
  5
   1C1
  8
0
  6
CONTINUOUS
 62
   210
 10
35.3527030944824
 20
293.452117919922
 30
0.0
 11
48.4999694824219
 21
280.304840087891
 31
0.0
  0
LINE
  5
   1C2
  8
0
  6
CONTINUOUS
 62
   210
 10
38.0843811035156
 20
297.084381103516
 30
0.0
 11
48.690975189209
 21
286.477783203125
 31
0.0
  0
LINE
  5
   1C3
  8
0
  6
CONTINUOUS
 62
   210
 10
38.9999694824219
 20
302.532775878906
 30
0.0
 11
51.596607208252
 21
289.936126708984
 31
0.0
  0
LINE
  5
   1C4
  8
0
  6
CONTINUOUS
 62
   210
 10
38.9999694824219
 20
308.896728515625
 30
0.0
 11
53.5109405517578
 21
294.3857421875
 31
0.0
  0
LINE
  5
   1C5
  8
0
  6
CONTINUOUS
 62
   210
 10
44.7606773376465
 20
309.499969482422
 30
0.0
 11
53.9999694824219
 21
300.260681152344
 31
0.0
  0
LINE
  5
   1C6
  8
0
  6
CONTINUOUS
 62
   210
 10
51.1246337890625
 20
309.499969482422
 30
0.0
 11
53.9999694824219
 21
306.624603271484
 31
0.0
  0
ENDBLK
  5
   1C7
  8
0
  6
CONTINUOUS
 62
     7
  0
BLOCK
  5
   1C8
  8
0
  6
CONTINUOUS
 62
     7
  2
*HATCH279
 70
    65
 10
0.0
 20
0.0
 30
0.0
  3
*HATCH279
  0
LINE
  5
   1C9
  8
0
  6
CONTINUOUS
 62
   210
 10
33.4999694824219
 20
254.999740600586
 30
0.0
 11
38.9997138977051
 21
249.499984741211
 31
0.0
  0
LINE
  5
   1CA
  8
0
  6
CONTINUOUS
 62
   210
 10
34.3639106750488
 20
260.499755859375
 30
0.0
 11
45.3636703491211
 21
249.499984741211
 31
0.0
  0
LINE
  5
   1CB
  8
0
  6
CONTINUOUS
 62
   210
 10
40.7278709411621
 20
260.499755859375
 30
0.0
 11
48.4999694824219
 21
252.727645874023
 31
0.0
  0
LINE
  5
   1CC
  8
0
  6
CONTINUOUS
 62
   210
 10
47.0918273925781
 20
260.499755859375
 30
0.0
 11
48.4999694824219
 21
259.091583251953
 31
0.0
  0
ENDBLK
  5
   1CD
  8
0
  6
CONTINUOUS
 62
     7
  0
BLOCK
  5
   1CE
  8
0
  6
CONTINUOUS
 62
     7
  2
*HATCH280
 70
    65
 10
0.0
 20
0.0
 30
0.0
  3
*HATCH280
  0
LINE
  5
   1CF
  8
0
  6
CONTINUOUS
 62
   210
 10
33.4999694824219
 20
235.907836914063
 30
0.0
 11
39.4078178405762
 21
229.999984741211
 31
0.0
  0
LINE
  5
   1D0
  8
0
  6
CONTINUOUS
 62
   210
 10
37.271785736084
 20
238.499984741211
 30
0.0
 11
45.7717742919922
 21
229.999984741211
 31
0.0
  0
LINE
  5
   1D1
  8
0
  6
CONTINUOUS
 62
   210
 10
43.6357421875
 20
238.499984741211
 30
0.0
 11
48.4999694824219
 21
233.635757446289
 31
0.0
  0
ENDBLK
  5
   1D2
  8
0
  6
CONTINUOUS
 62
     7
  0
BLOCK
  5
   1D3
  8
0
  6
CONTINUOUS
 62
     7
  2
*HATCH281
 70
    65
 10
0.0
 20
0.0
 30
0.0
  3
*HATCH281
  0
LINE
  5
   1D4
  8
0
  6
CONTINUOUS
 62
     3
 10
57.6546287536621
 20
290.999847412109
 30
0.0
 11
55.5
 21
288.84521484375
 31
0.0
  0
LINE
  5
   1D5
  8
0
  6
CONTINUOUS
 62
     3
 10
60.8366012573242
 20
290.999847412109
 30
0.0
 11
58.3366050720215
 21
288.499847412109
 31
0.0
  0
LINE
  5
   1D6
  8
0
  6
CONTINUOUS
 62
     3
 10
64.0185699462891
 20
290.999847412109
 30
0.0
 11
61.5185775756836
 21
288.499847412109
 31
0.0
  0
LINE
  5
   1D7
  8
0
  6
CONTINUOUS
 62
     3
 10
66.201042175293
 20
290.000335693359
 30
0.0
 11
64.700553894043
 21
288.499847412109
 31
0.0
  0
ENDBLK
  5
   1D8
  8
0
  6
CONTINUOUS
 62
     7
  0
BLOCK
  5
   1D9
  8
0
  6
CONTINUOUS
 62
     7
  2
*HATCH282
 70
    65
 10
0.0
 20
0.0
 30
0.0
  3
*HATCH282
  0
LINE
  5
   1DA
  8
0
  6
CONTINUOUS
 62
     3
 10
58.0547180175781
 20
-126.500152587891
 30
0.0
 11
55.5547256469727
 21
-129.000137329102
 31
0.0
  0
LINE
  5
   1DB
  8
0
  6
CONTINUOUS
 62
     3
 10
61.2366905212402
 20
-126.500152587891
 30
0.0
 11
58.7366981506348
 21
-129.000137329102
 31
0.0
  0
LINE
  5
   1DC
  8
0
  6
CONTINUOUS
 62
     3
 10
64.4186630249023
 20
-126.500152587891
 30
0.0
 11
61.9186706542969
 21
-129.000137329102
 31
0.0
  0
LINE
  5
   1DD
  8
0
  6
CONTINUOUS
 62
     3
 10
66.1999664306641
 20
-127.900840759277
 30
0.0
 11
65.1006469726563
 21
-129.00016784668
 31
0.0
  0
ENDBLK
  5
   1DE
  8
0
  6
CONTINUOUS
 62
     7
  0
BLOCK
  5
   1DF
  8
0
  6
CONTINUOUS
 62
     7
  2
*HATCH283
 70
    65
 10
0.0
 20
0.0
 30
0.0
  3
*HATCH283
  0
LINE
  5
   1E0
  8
0
  6
CONTINUOUS
 62
    52
 10
148.5
 20
226.988845825195
 30
0.0
 11
146.5
 21
224.988845825195
 31
0.0
  0
LINE
  5
   1E1
  8
0
  6
CONTINUOUS
 62
    52
 10
148.5
 20
220.624877929688
 30
0.0
 11
146.5
 21
218.624877929688
 31
0.0
  0
LINE
  5
   1E2
  8
0
  6
CONTINUOUS
 62
    52
 10
148.5
 20
214.26091003418
 30
0.0
 11
146.5
 21
212.26091003418
 31
0.0
  0
LINE
  5
   1E3
  8
0
  6
CONTINUOUS
 62
    52
 10
148.5
 20
207.896942138672
 30
0.0
 11
146.5
 21
205.896942138672
 31
0.0
  0
LINE
  5
   1E4
  8
0
  6
CONTINUOUS
 62
    52
 10
148.5
 20
201.532974243164
 30
0.0
 11
146.5
 21
199.532974243164
 31
0.0
  0
LINE
  5
   1E5
  8
0
  6
CONTINUOUS
 62
    52
 10
148.5
 20
195.169006347656
 30
0.0
 11
146.5
 21
193.169006347656
 31
0.0
  0
LINE
  5
   1E6
  8
0
  6
CONTINUOUS
 62
    52
 10
148.5
 20
188.805038452148
 30
0.0
 11
146.5
 21
186.805038452148
 31
0.0
  0
LINE
  5
   1E7
  8
0
  6
CONTINUOUS
 62
    52
 10
148.5
 20
182.441070556641
 30
0.0
 11
146.5
 21
180.441070556641
 31
0.0
  0
LINE
  5
   1E8
  8
0
  6
CONTINUOUS
 62
    52
 10
148.5
 20
176.077102661133
 30
0.0
 11
146.5
 21
174.077102661133
 31
0.0
  0
LINE
  5
   1E9
  8
0
  6
CONTINUOUS
 62
    52
 10
148.5
 20
169.713134765625
 30
0.0
 11
146.5
 21
167.713134765625
 31
0.0
  0
LINE
  5
   1EA
  8
0
  6
CONTINUOUS
 62
    52
 10
148.5
 20
163.349166870117
 30
0.0
 11
146.5
 21
161.349166870117
 31
0.0
  0
LINE
  5
   1EB
  8
0
  6
CONTINUOUS
 62
    52
 10
148.5
 20
156.985198974609
 30
0.0
 11
146.5
 21
154.985198974609
 31
0.0
  0
LINE
  5
   1EC
  8
0
  6
CONTINUOUS
 62
    52
 10
148.5
 20
150.621307373047
 30
0.0
 11
147.62858581543
 21
149.749893188477
 31
0.0
  0
ENDBLK
  5
   1ED
  8
0
  6
CONTINUOUS
 62
     7
  0
BLOCK
  5
   1EE
  8
0
  6
CONTINUOUS
 62
     7
  2
*HATCH284
 70
    65
 10
0.0
 20
0.0
 30
0.0
  3
*HATCH284
  0
LINE
  5
   1EF
  8
0
  6
CONTINUOUS
 62
    52
 10
148.5
 20
140.014709472656
 30
0.0
 11
146.5
 21
138.014709472656
 31
0.0
  0
LINE
  5
   1F0
  8
0
  6
CONTINUOUS
 62
    52
 10
148.5
 20
133.650741577148
 30
0.0
 11
146.5
 21
131.650741577148
 31
0.0
  0
ENDBLK
  5
   1F1
  8
0
  6
CONTINUOUS
 62
     7
  0
BLOCK
  5
   1F2
  8
0
  6
CONTINUOUS
 62
     7
  2
*HATCH285
 70
    65
 10
0.0
 20
0.0
 30
0.0
  3
*HATCH285
  0
LINE
  5
   1F3
  8
0
  6
CONTINUOUS
 62
    52
 10
148.5
 20
16.9781322479248
 30
0.0
 11
146.5
 21
14.9781322479248
 31
0.0
  0
LINE
  5
   1F4
  8
0
  6
CONTINUOUS
 62
    52
 10
148.5
 20
10.6141700744629
 30
0.0
 11
146.5
 21
8.61417007446289
 31
0.0
  0
ENDBLK
  5
   1F5
  8
0
  6
CONTINUOUS
 62
     7
  0
BLOCK
  5
   1F6
  8
0
  6
CONTINUOUS
 62
     7
  2
*HATCH286
 70
    65
 10
0.0
 20
0.0
 30
0.0
  3
*HATCH286
  0
LINE
  5
   1F7
  8
0
  6
CONTINUOUS
 62
    52
 10
148.5
 20
-2.11374998092651
 30
0.0
 11
146.5
 21
-4.11374950408936
 31
0.0
  0
LINE
  5
   1F8
  8
0
  6
CONTINUOUS
 62
    52
 10
148.5
 20
-8.47771072387695
 30
0.0
 11
146.5
 21
-10.477710723877
 31
0.0
  0
LINE
  5
   1F9
  8
0
  6
CONTINUOUS
 62
    52
 10
148.5
 20
-14.8416728973389
 30
0.0
 11
146.5
 21
-16.8416728973389
 31
0.0
  0
LINE
  5
   1FA
  8
0
  6
CONTINUOUS
 62
    52
 10
148.5
 20
-21.2056350708008
 30
0.0
 11
146.5
 21
-23.2056350708008
 31
0.0
  0
LINE
  5
   1FB
  8
0
  6
CONTINUOUS
 62
    52
 10
148.5
 20
-27.5695972442627
 30
0.0
 11
146.5
 21
-29.5695972442627
 31
0.0
  0
LINE
  5
   1FC
  8
0
  6
CONTINUOUS
 62
    52
 10
148.5
 20
-33.9335594177246
 30
0.0
 11
146.5
 21
-35.9335556030273
 31
0.0
  0
LINE
  5
   1FD
  8
0
  6
CONTINUOUS
 62
    52
 10
148.5
 20
-40.2975158691406
 30
0.0
 11
146.5
 21
-42.2975120544434
 31
0.0
  0
LINE
  5
   1FE
  8
0
  6
CONTINUOUS
 62
    52
 10
148.5
 20
-46.6614723205566
 30
0.0
 11
146.5
 21
-48.6614685058594
 31
0.0
  0
LINE
  5
   1FF
  8
0
  6
CONTINUOUS
 62
    52
 10
148.5
 20
-53.0254287719727
 30
0.0
 11
146.5
 21
-55.0254249572754
 31
0.0
  0
LINE
  5
   200
  8
0
  6
CONTINUOUS
 62
    52
 10
148.5
 20
-59.3893852233887
 30
0.0
 11
146.5
 21
-61.3893814086914
 31
0.0
  0
LINE
  5
   201
  8
0
  6
CONTINUOUS
 62
    52
 10
148.5
 20
-65.7533416748047
 30
0.0
 11
146.5
 21
-67.7533416748047
 31
0.0
  0
LINE
  5
   202
  8
0
  6
CONTINUOUS
 62
    52
 10
148.5
 20
-72.1173095703125
 30
0.0
 11
146.5
 21
-74.1173095703125
 31
0.0
  0
LINE
  5
   203
  8
0
  6
CONTINUOUS
 62
    52
 10
148.5
 20
-78.4812774658203
 30
0.0
 11
146.5
 21
-80.4812774658203
 31
0.0
  0
LINE
  5
   204
  8
0
  6
CONTINUOUS
 62
    52
 10
148.5
 20
-84.8452453613281
 30
0.0
 11
146.5
 21
-86.8452453613281
 31
0.0
  0
LINE
  5
   205
  8
0
  6
CONTINUOUS
 62
    52
 10
148.5
 20
-91.2092132568359
 30
0.0
 11
146.5
 21
-93.2092132568359
 31
0.0
  0
LINE
  5
   206
  8
0
  6
CONTINUOUS
 62
    52
 10
148.5
 20
-97.5731811523438
 30
0.0
 11
146.5
 21
-99.5731811523438
 31
0.0
  0
ENDBLK
  5
   207
  8
0
  6
CONTINUOUS
 62
     7
  0
BLOCK
  5
   208
  8
0
  6
CONTINUOUS
 62
     7
  2
*UDIM348
 70
    65
 10
0.0
 20
0.0
 30
0.0
  3
*UDIM348
  0
TEXT
  5
   209
  8
0
  6
CONTINUOUS
 62
     7
 10
92.7965288029445
 20
-169.398143629986
 30
0.0
 40
2.99999994039535
  1
214,5
 41
0.933333333333333
 72
     1
 11
99.4965286698274
 21
-167.898143659788
 31
0.0
 73
     2
  0
LINE
  5
   20A
  8
0
  6
CONTINUOUS
 62
     7
 10
67.5960235595703
 20
-121.521962263675
 30
0.0
 11
67.5960235595703
 21
-172.398143629986
 31
0.0
  0
LINE
  5
   20B
  8
0
  6
CONTINUOUS
 62
     7
 10
131.947032276061
 20
-62.2179830516792
 30
0.0
 11
131.947032276061
 21
-172.398143629986
 31
0.0
  0
LINE
  5
   20C
  8
0
  6
CONTINUOUS
 62
     7
 10
67.5960235595703
 20
-170.398143629986
 30
0.0
 11
131.947032276061
 21
-170.398143629986
 31
0.0
  0
LINE
  5
   20D
  8
0
  6
CONTINUOUS
 62
     7
 10
70.5504468367773
 20
-169.877199200034
 30
0.0
 11
67.5960235595703
 21
-170.398143629986
 31
0.0
  0
LINE
  5
   20E
  8
0
  6
CONTINUOUS
 62
     7
 10
67.5960235595703
 20
-170.398143629986
 30
0.0
 11
70.5504468367773
 21
-170.919088059937
 31
0.0
  0
LINE
  5
   20F
  8
0
  6
CONTINUOUS
 62
     7
 10
128.992608998854
 20
-170.919088059937
 30
0.0
 11
131.947032276061
 21
-170.398143629986
 31
0.0
  0
LINE
  5
   210
  8
0
  6
CONTINUOUS
 62
     7
 10
131.947032276061
 20
-170.398143629986
 30
0.0
 11
128.992608998854
 21
-169.877199200034
 31
0.0
  0
ENDBLK
  5
   211
  8
0
  6
CONTINUOUS
 62
     7
  0
BLOCK
  5
   212
  8
0
  6
CONTINUOUS
 62
     7
  2
*UDIM349
 70
    65
 10
0.0
 20
0.0
 30
0.0
  3
*UDIM349
  0
TEXT
  5
   213
  8
0
  6
CONTINUOUS
 62
     7
 10
156.739526897415
 20
-57.7541800269054
 30
0.0
 40
2.99999994039535
  1
326
 50
90.0
 41
0.933333333333333
 72
     1
 11
155.239526927213
 21
-53.8541801043934
 31
0.0
 73
     2
  0
LINE
  5
   214
  8
0
  6
CONTINUOUS
 62
     7
 10
88.5528518234274
 20
-102.47920878303
 30
0.0
 11
159.739526897411
 21
-102.47920878303
 31
0.0
  0
LINE
  5
   215
  8
0
  6
CONTINUOUS
 62
     7
 10
87.6185612575331
 20
-4.67920546531697
 30
0.0
 11
159.739526897411
 21
-4.67920546531697
 31
0.0
  0
LINE
  5
   216
  8
0
  6
CONTINUOUS
 62
     7
 10
157.739526897411
 20
-102.47920878303
 30
0.0
 11
157.739526897411
 21
-4.67920546531697
 31
0.0
  0
LINE
  5
   217
  8
0
  6
CONTINUOUS
 62
     7
 10
157.218582467459
 20
-99.5247855058227
 30
0.0
 11
157.739526897411
 21
-102.47920878303
 31
0.0
  0
LINE
  5
   218
  8
0
  6
CONTINUOUS
 62
     7
 10
157.739526897411
 20
-102.47920878303
 30
0.0
 11
158.260471327362
 21
-99.5247855058227
 31
0.0
  0
LINE
  5
   219
  8
0
  6
CONTINUOUS
 62
     7
 10
158.260471327362
 20
-7.63362874252392
 30
0.0
 11
157.739526897411
 21
-4.67920546531697
 31
0.0
  0
LINE
  5
   21A
  8
0
  6
CONTINUOUS
 62
     7
 10
157.739526897411
 20
-4.67920546531697
 30
0.0
 11
157.218582467459
 21
-7.63362874252392
 31
0.0
  0
ENDBLK
  5
   21B
  8
0
  6
CONTINUOUS
 62
     7
  0
BLOCK
  5
   21C
  8
0
  6
CONTINUOUS
 62
     7
  2
*UDIM350
 70
    65
 10
0.0
 20
0.0
 30
0.0
  3
*UDIM350
  0
TEXT
  5
   21D
  8
0
  6
CONTINUOUS
 62
     7
 10
156.739526897415
 20
7.19581797818603
 30
0.0
 40
2.99999994039535
  1
107
 50
90.0
 41
0.933333333333333
 72
     1
 11
155.239526927213
 21
11.0958179006981
 31
0.0
 73
     2
  0
LINE
  5
   21E
  8
0
  6
CONTINUOUS
 62
     7
 10
84.7960150480267
 20
27.4207958102224
 30
0.0
 11
159.739526897411
 21
27.4207958102224
 31
0.0
  0
LINE
  5
   21F
  8
0
  6
CONTINUOUS
 62
     7
 10
157.739526897411
 20
-4.67920546531697
 30
0.0
 11
157.739526897411
 21
27.4207958102224
 31
0.0
  0
LINE
  5
   220
  8
0
  6
CONTINUOUS
 62
     7
 10
157.218582467459
 20
-1.72478218811
 30
0.0
 11
157.739526897411
 21
-4.67920546531697
 31
0.0
  0
LINE
  5
   221
  8
0
  6
CONTINUOUS
 62
     7
 10
157.739526897411
 20
-4.67920546531697
 30
0.0
 11
158.260471327362
 21
-1.72478218811
 31
0.0
  0
LINE
  5
   222
  8
0
  6
CONTINUOUS
 62
     7
 10
158.260471327362
 20
24.4663725330155
 30
0.0
 11
157.739526897411
 21
27.4207958102224
 31
0.0
  0
LINE
  5
   223
  8
0
  6
CONTINUOUS
 62
     7
 10
157.739526897411
 20
27.4207958102224
 30
0.0
 11
157.218582467459
 21
24.4663725330155
 31
0.0
  0
ENDBLK
  5
   224
  8
0
  6
CONTINUOUS
 62
     7
  0
BLOCK
  5
   225
  8
0
  6
CONTINUOUS
 62
     7
  2
*UDIM351
 70
    65
 10
0.0
 20
0.0
 30
0.0
  3
*UDIM351
  0
TEXT
  5
   226
  8
0
  6
CONTINUOUS
 62
     7
 10
146.47925732467
 20
-35.404357668003
 30
0.0
 40
2.99999994039535
  1
177
 50
90.0
 41
0.933333333333333
 72
     1
 11
144.979257354467
 21
-31.5043577454909
 31
0.0
 73
     2
  0
LINE
  5
   227
  8
0
  6
CONTINUOUS
 62
     7
 10
135.642422426685
 20
-57.7792837207275
 30
0.0
 11
149.479257324665
 21
-57.7792837207275
 31
0.0
  0
LINE
  5
   228
  8
0
  6
CONTINUOUS
 62
     7
 10
87.6185612575331
 20
-4.67920546531697
 30
0.0
 11
149.479257324665
 21
-4.67920546531697
 31
0.0
  0
LINE
  5
   229
  8
0
  6
CONTINUOUS
 62
     7
 10
147.479257324665
 20
-57.7792837207275
 30
0.0
 11
147.479257324665
 21
-4.67920546531697
 31
0.0
  0
LINE
  5
   22A
  8
0
  6
CONTINUOUS
 62
     7
 10
146.958312894713
 20
-54.8248604435205
 30
0.0
 11
147.479257324665
 21
-57.7792837207275
 31
0.0
  0
LINE
  5
   22B
  8
0
  6
CONTINUOUS
 62
     7
 10
147.479257324665
 20
-57.7792837207275
 30
0.0
 11
148.000201754617
 21
-54.8248604435205
 31
0.0
  0
LINE
  5
   22C
  8
0
  6
CONTINUOUS
 62
     7
 10
148.000201754617
 20
-7.63362874252392
 30
0.0
 11
147.479257324665
 21
-4.67920546531697
 31
0.0
  0
LINE
  5
   22D
  8
0
  6
CONTINUOUS
 62
     7
 10
147.479257324665
 20
-4.67920546531697
 30
0.0
 11
146.958312894713
 21
-7.63362874252392
 31
0.0
  0
ENDBLK
  5
   22E
  8
0
  6
CONTINUOUS
 62
     7
  0
BLOCK
  5
   22F
  8
0
  6
CONTINUOUS
 62
     7
  2
*UDIM352
 70
    65
 10
0.0
 20
0.0
 30
0.0
  3
*UDIM352
  0
TEXT
  5
   230
  8
0
  6
CONTINUOUS
 62
     7
 10
146.479257324668
 20
3.19556448160853
 30
0.0
 40
2.99999994039535
  1
71
 50
90.0
 41
0.933333333333333
 72
     1
 11
144.979257354467
 21
5.69556443193611
 31
0.0
 73
     2
  0
LINE
  5
   231
  8
0
  6
CONTINUOUS
 62
     7
 10
87.3555797994443
 20
16.6207953810689
 30
0.0
 11
149.479257324665
 21
16.6207953810689
 31
0.0
  0
LINE
  5
   232
  8
0
  6
CONTINUOUS
 62
     7
 10
147.479257324665
 20
-4.67920546531697
 30
0.0
 11
147.479257324665
 21
16.6207953810689
 31
0.0
  0
LINE
  5
   233
  8
0
  6
CONTINUOUS
 62
     7
 10
146.958312894713
 20
-1.72478218811
 30
0.0
 11
147.479257324665
 21
-4.67920546531697
 31
0.0
  0
LINE
  5
   234
  8
0
  6
CONTINUOUS
 62
     7
 10
147.479257324665
 20
-4.67920546531697
 30
0.0
 11
148.000201754617
 21
-1.72478218811
 31
0.0
  0
LINE
  5
   235
  8
0
  6
CONTINUOUS
 62
     7
 10
148.000201754617
 20
13.666372103862
 30
0.0
 11
147.479257324665
 21
16.6207953810689
 31
0.0
  0
LINE
  5
   236
  8
0
  6
CONTINUOUS
 62
     7
 10
147.479257324665
 20
16.6207953810689
 30
0.0
 11
146.958312894713
 21
13.666372103862
 31
0.0
  0
ENDBLK
  5
   237
  8
0
  6
CONTINUOUS
 62
     7
  0
BLOCK
  5
   238
  8
0
  6
CONTINUOUS
 62
     7
  2
*UDIM353
 70
    65
 10
0.0
 20
0.0
 30
0.0
  3
*UDIM353
  0
TEXT
  5
   239
  8
0
  6
CONTINUOUS
 62
     7
 10
146.479257324668
 20
29.6001798959345
 30
0.0
 40
2.99999994039535
  1
22
 50
90.0
 41
0.933333333333333
 72
     1
 11
144.979257354467
 21
32.1001798462621
 31
0.0
 73
     2
  0
LINE
  5
   23A
  8
0
  6
CONTINUOUS
 62
     7
 10
87.3555797994443
 20
23.2207956433294
 30
0.0
 11
149.479257324665
 21
23.2207956433294
 31
0.0
  0
LINE
  5
   23B
  8
0
  6
CONTINUOUS
 62
     7
 10
147.479257324665
 20
16.6207953810689
 30
0.0
 11
147.479257324665
 21
34.6001797965915
 31
0.0
  0
LINE
  5
   23C
  8
0
  6
CONTINUOUS
 62
     7
 10
146.958312894713
 20
19.5752186582759
 30
0.0
 11
147.479257324665
 21
16.6207953810689
 31
0.0
  0
LINE
  5
   23D
  8
0
  6
CONTINUOUS
 62
     7
 10
147.479257324665
 20
16.6207953810689
 30
0.0
 11
148.000201754617
 21
19.5752186582759
 31
0.0
  0
LINE
  5
   23E
  8
0
  6
CONTINUOUS
 62
     7
 10
148.000201754617
 20
20.2663723661224
 30
0.0
 11
147.479257324665
 21
23.2207956433294
 31
0.0
  0
LINE
  5
   23F
  8
0
  6
CONTINUOUS
 62
     7
 10
147.479257324665
 20
23.2207956433294
 30
0.0
 11
146.958312894713
 21
20.2663723661224
 31
0.0
  0
ENDBLK
  5
   240
  8
0
  6
CONTINUOUS
 62
     7
  0
BLOCK
  5
   241
  8
0
  6
CONTINUOUS
 62
     7
  2
*UDIM354
 70
    65
 10
0.0
 20
0.0
 30
0.0
  3
*UDIM354
  0
TEXT
  5
   242
  8
0
  6
CONTINUOUS
 62
     7
 10
70.6710193544625
 20
36.2202513813754
 30
0.0
 40
2.99999994039535
  1
39
 41
0.933333333333333
 72
     1
 11
73.1710193047919
 21
37.7202513515731
 31
0.0
 73
     2
  0
LINE
  5
   243
  8
0
  6
CONTINUOUS
 62
     7
 10
67.5960235595703
 20
13.6422977936826
 30
0.0
 11
67.5960235595703
 21
37.2202513813754
 31
0.0
  0
LINE
  5
   244
  8
0
  6
CONTINUOUS
 62
     7
 10
79.2960148692127
 20
28.4207958102224
 30
0.0
 11
79.2960148692127
 21
37.2202513813754
 31
0.0
  0
LINE
  5
   245
  8
0
  6
CONTINUOUS
 62
     7
 10
67.5960235595703
 20
35.2202513813754
 30
0.0
 11
79.2960148692127
 21
35.2202513813754
 31
0.0
  0
LINE
  5
   246
  8
0
  6
CONTINUOUS
 62
     7
 10
70.5504468367773
 20
35.7411958113271
 30
0.0
 11
67.5960235595703
 21
35.2202513813754
 31
0.0
  0
LINE
  5
   247
  8
0
  6
CONTINUOUS
 62
     7
 10
67.5960235595703
 20
35.2202513813754
 30
0.0
 11
70.5504468367773
 21
34.6993069514238
 31
0.0
  0
LINE
  5
   248
  8
0
  6
CONTINUOUS
 62
     7
 10
76.3415915920058
 20
34.6993069514238
 30
0.0
 11
79.2960148692127
 21
35.2202513813754
 31
0.0
  0
LINE
  5
   249
  8
0
  6
CONTINUOUS
 62
     7
 10
79.2960148692127
 20
35.2202513813754
 30
0.0
 11
76.3415915920058
 21
35.7411958113271
 31
0.0
  0
ENDBLK
  5
   24A
  8
0
  6
CONTINUOUS
 62
     7
  0
BLOCK
  5
   24B
  8
0
  6
CONTINUOUS
 62
     7
  2
*UDIM355
 70
    65
 10
0.0
 20
0.0
 30
0.0
  3
*UDIM355
  0
TEXT
  5
   24C
  8
0
  6
CONTINUOUS
 62
     7
 10
86.7710153152542
 20
36.2202513813754
 30
0.0
 40
2.99999994039535
  1
15
 41
0.933333333333333
 72
     1
 11
89.2710152655836
 21
37.7202513515731
 31
0.0
 73
     2
  0
LINE
  5
   24D
  8
0
  6
CONTINUOUS
 62
     7
 10
83.7960150480267
 20
28.4207958102224
 30
0.0
 11
83.7960150480267
 21
37.2202513813754
 31
0.0
  0
LINE
  5
   24E
  8
0
  6
CONTINUOUS
 62
     7
 10
79.2960148692127
 20
35.2202513813754
 30
0.0
 11
91.7710152159131
 21
35.2202513813754
 31
0.0
  0
LINE
  5
   24F
  8
0
  6
CONTINUOUS
 62
     7
 10
76.3415915920058
 20
34.6993069514238
 30
0.0
 11
79.2960148692127
 21
35.2202513813754
 31
0.0
  0
LINE
  5
   250
  8
0
  6
CONTINUOUS
 62
     7
 10
79.2960148692127
 20
35.2202513813754
 30
0.0
 11
76.3415915920058
 21
35.7411958113271
 31
0.0
  0
LINE
  5
   251
  8
0
  6
CONTINUOUS
 62
     7
 10
86.7504383252336
 20
35.7411958113271
 30
0.0
 11
83.7960150480267
 21
35.2202513813754
 31
0.0
  0
LINE
  5
   252
  8
0
  6
CONTINUOUS
 62
     7
 10
83.7960150480267
 20
35.2202513813754
 30
0.0
 11
86.7504383252336
 21
34.6993069514238
 31
0.0
  0
ENDBLK
  5
   253
  8
0
  6
CONTINUOUS
 62
     7
  0
BLOCK
  5
   254
  8
0
  6
CONTINUOUS
 62
     7
  2
*UDIM356
 70
    65
 10
0.0
 20
0.0
 30
0.0
  3
*UDIM356
  0
TEXT
  5
   255
  8
0
  6
CONTINUOUS
 62
     7
 10
58.8957247535301
 20
-13.3343830975859
 30
0.0
 40
2.99999994039535
  1
37
 50
90.0
 41
0.933333333333333
 72
     1
 11
57.3957247833292
 21
-10.8343831472583
 31
0.0
 73
     2
  0
LINE
  5
   256
  8
0
  6
CONTINUOUS
 62
     7
 10
67.0460241159978
 20
-15.7792129556145
 30
0.0
 11
57.8957247535269
 21
-15.7792114074579
 31
0.0
  0
LINE
  5
   257
  8
0
  6
CONTINUOUS
 62
     7
 10
67.2745950768859
 20
-4.67920546531697
 30
0.0
 11
57.8957247535269
 21
-4.67920546531697
 31
0.0
  0
LINE
  5
   258
  8
0
  6
CONTINUOUS
 62
     7
 10
59.8957247535269
 20
-15.7792117458417
 30
0.0
 11
59.8957247535269
 21
-4.67920546531697
 31
0.0
  0
LINE
  5
   259
  8
0
  6
CONTINUOUS
 62
     7
 10
60.4166691834786
 20
-18.7336350230486
 30
0.0
 11
59.8957247535269
 21
-15.7792117458417
 31
0.0
  0
LINE
  5
   25A
  8
0
  6
CONTINUOUS
 62
     7
 10
59.8957247535269
 20
-15.7792117458417
 30
0.0
 11
59.3747803235753
 21
-18.7336350230486
 31
0.0
  0
LINE
  5
   25B
  8
0
  6
CONTINUOUS
 62
     7
 10
59.3747803235753
 20
-1.72478218811
 30
0.0
 11
59.8957247535269
 21
-4.67920546531697
 31
0.0
  0
LINE
  5
   25C
  8
0
  6
CONTINUOUS
 62
     7
 10
59.8957247535269
 20
-4.67920546531697
 30
0.0
 11
60.4166691834786
 21
-1.72478218811
 31
0.0
  0
ENDBLK
  5
   25D
  8
0
  6
CONTINUOUS
 62
     7
  0
BLOCK
  5
   25E
  8
0
  6
CONTINUOUS
 62
     7
  2
*UDIM357
 70
    65
 10
0.0
 20
0.0
 30
0.0
  3
*UDIM357
  0
TEXT
  5
   25F
  8
0
  6
CONTINUOUS
 62
     7
 10
89.5318935070347
 20
-134.345328516409
 30
0.0
 40
2.99999994039535
  1
10
 41
0.933333333333333
 72
     1
 11
92.0318934573642
 21
-132.845328546211
 31
0.0
 73
     2
  0
LINE
  5
   260
  8
0
  6
CONTINUOUS
 62
     7
 10
83.6456231732769
 20
-130.821353874247
 30
0.0
 11
83.6456231732769
 21
-137.345328516409
 31
0.0
  0
LINE
  5
   261
  8
0
  6
CONTINUOUS
 62
     7
 10
86.6456232924465
 20
-130.821369293632
 30
0.0
 11
86.6456232924465
 21
-137.345328516409
 31
0.0
  0
LINE
  5
   262
  8
0
  6
CONTINUOUS
 62
     7
 10
83.6456231732769
 20
-135.345328516409
 30
0.0
 11
94.5318934076936
 21
-135.345328516409
 31
0.0
  0
LINE
  5
   263
  8
0
  6
CONTINUOUS
 62
     7
 10
80.6911998960699
 20
-135.86627294636
 30
0.0
 11
83.6456231732769
 21
-135.345328516409
 31
0.0
  0
LINE
  5
   264
  8
0
  6
CONTINUOUS
 62
     7
 10
83.6456231732769
 20
-135.345328516409
 30
0.0
 11
80.6911998960699
 21
-134.824384086457
 31
0.0
  0
LINE
  5
   265
  8
0
  6
CONTINUOUS
 62
     7
 10
89.6000465696535
 20
-134.824384086457
 30
0.0
 11
86.6456232924465
 21
-135.345328516409
 31
0.0
  0
LINE
  5
   266
  8
0
  6
CONTINUOUS
 62
     7
 10
86.6456232924465
 20
-135.345328516409
 30
0.0
 11
89.6000465696535
 21
-135.86627294636
 31
0.0
  0
ENDBLK
  5
   267
  8
0
  6
CONTINUOUS
 62
     7
  0
BLOCK
  5
   268
  8
0
  6
CONTINUOUS
 62
     7
  2
*UDIM358
 70
    65
 10
0.0
 20
0.0
 30
0.0
  3
*UDIM358
  0
TEXT
  5
   269
  8
0
  6
CONTINUOUS
 62
     7
 10
69.1206222901592
 20
-140.453960656117
 30
0.0
 40
2.99999994039535
  1
10
 41
0.933333333333333
 72
     1
 11
71.6206222404886
 21
-138.953960685919
 31
0.0
 73
     2
  0
LINE
  5
   26A
  8
0
  6
CONTINUOUS
 62
     7
 10
77.645622406373
 20
-130.924160702178
 30
0.0
 11
77.645622406373
 21
-143.453960656117
 31
0.0
  0
LINE
  5
   26B
  8
0
  6
CONTINUOUS
 62
     7
 10
80.6456230541072
 20
-130.821338454863
 30
0.0
 11
80.6456230541072
 21
-143.453960656117
 31
0.0
  0
LINE
  5
   26C
  8
0
  6
CONTINUOUS
 62
     7
 10
69.1206222901591
 20
-141.453960656117
 30
0.0
 11
80.6456230541072
 21
-141.453960656117
 31
0.0
  0
LINE
  5
   26D
  8
0
  6
CONTINUOUS
 62
     7
 10
74.6911991291661
 20
-141.974905086068
 30
0.0
 11
77.645622406373
 21
-141.453960656117
 31
0.0
  0
LINE
  5
   26E
  8
0
  6
CONTINUOUS
 62
     7
 10
77.645622406373
 20
-141.453960656117
 30
0.0
 11
74.6911991291661
 21
-140.933016226165
 31
0.0
  0
LINE
  5
   26F
  8
0
  6
CONTINUOUS
 62
     7
 10
83.6000463313142
 20
-140.933016226165
 30
0.0
 11
80.6456230541072
 21
-141.453960656117
 31
0.0
  0
LINE
  5
   270
  8
0
  6
CONTINUOUS
 62
     7
 10
80.6456230541072
 20
-141.453960656117
 30
0.0
 11
83.6000463313142
 21
-141.974905086068
 31
0.0
  0
ENDBLK
  5
   271
  8
0
  6
CONTINUOUS
 62
     7
  0
BLOCK
  5
   272
  8
0
  6
CONTINUOUS
 62
     7
  2
*UDIM359
 70
    65
 10
0.0
 20
0.0
 30
0.0
  3
*UDIM359
  0
TEXT
  5
   273
  8
0
  6
CONTINUOUS
 62
     7
 10
86.6203630874254
 20
-140.453960656117
 30
0.0
 40
2.99999994039535
  1
10
 41
0.933333333333333
 72
     1
 11
89.1203630377549
 21
-138.953960685919
 31
0.0
 73
     2
  0
LINE
  5
   274
  8
0
  6
CONTINUOUS
 62
     7
 10
83.6456231732769
 20
-130.821353874247
 30
0.0
 11
83.6456231732769
 21
-143.453960656117
 31
0.0
  0
LINE
  5
   275
  8
0
  6
CONTINUOUS
 62
     7
 10
80.6456230541072
 20
-141.453960656117
 30
0.0
 11
91.6203629880843
 21
-141.453960656117
 31
0.0
  0
LINE
  5
   276
  8
0
  6
CONTINUOUS
 62
     7
 10
77.6911997769002
 20
-141.974905086068
 30
0.0
 11
80.6456230541072
 21
-141.453960656117
 31
0.0
  0
LINE
  5
   277
  8
0
  6
CONTINUOUS
 62
     7
 10
80.6456230541072
 20
-141.453960656117
 30
0.0
 11
77.6911997769002
 21
-140.933016226165
 31
0.0
  0
LINE
  5
   278
  8
0
  6
CONTINUOUS
 62
     7
 10
86.6000464504838
 20
-140.933016226165
 30
0.0
 11
83.6456231732769
 21
-141.453960656117
 31
0.0
  0
LINE
  5
   279
  8
0
  6
CONTINUOUS
 62
     7
 10
83.6456231732769
 20
-141.453960656117
 30
0.0
 11
86.6000464504838
 21
-141.974905086068
 31
0.0
  0
ENDBLK
  5
   27A
  8
0
  6
CONTINUOUS
 62
     7
  0
BLOCK
  5
   27B
  8
0
  6
CONTINUOUS
 62
     7
  2
*UDIM360
 70
    65
 10
0.0
 20
0.0
 30
0.0
  3
*UDIM360
  0
TEXT
  5
   27C
  8
0
  6
CONTINUOUS
 62
     7
 10
52.9124111082637
 20
-127.304726124824
 30
0.0
 40
2.99999994039535
  1
33,5
 41
0.933333333333333
 72
     1
 11
58.2124110029621
 21
-125.804726154626
 31
0.0
 73
     2
  0
LINE
  5
   27D
  8
0
  6
CONTINUOUS
 62
     7
 10
67.5960235595703
 20
-121.521962263675
 30
0.0
 11
67.5960235595703
 21
-130.304726124824
 31
0.0
  0
LINE
  5
   27E
  8
0
  6
CONTINUOUS
 62
     7
 10
77.645622406373
 20
-128.924160702178
 30
0.0
 11
77.645622406373
 21
-126.304726124824
 31
0.0
  0
LINE
  5
   27F
  8
0
  6
CONTINUOUS
 62
     7
 10
52.9124111082637
 20
-128.304726124824
 30
0.0
 11
77.645622406373
 21
-128.304726124824
 31
0.0
  0
LINE
  5
   280
  8
0
  6
CONTINUOUS
 62
     7
 10
64.6416002823633
 20
-128.825670554776
 30
0.0
 11
67.5960235595703
 21
-128.304726124824
 31
0.0
  0
LINE
  5
   281
  8
0
  6
CONTINUOUS
 62
     7
 10
67.5960235595703
 20
-128.304726124824
 30
0.0
 11
64.6416002823633
 21
-127.783781694872
 31
0.0
  0
LINE
  5
   282
  8
0
  6
CONTINUOUS
 62
     7
 10
80.60004568358
 20
-127.783781694872
 30
0.0
 11
77.645622406373
 21
-128.304726124824
 31
0.0
  0
LINE
  5
   283
  8
0
  6
CONTINUOUS
 62
     7
 10
77.645622406373
 20
-128.304726124824
 30
0.0
 11
80.60004568358
 21
-128.825670554776
 31
0.0
  0
ENDBLK
  5
   284
  8
0
  6
CONTINUOUS
 62
     7
  0
BLOCK
  5
   285
  8
0
  6
CONTINUOUS
 62
     7
  2
*UDIM361
 70
    65
 10
0.0
 20
0.0
 30
0.0
  3
*UDIM361
  0
TEXT
  5
   286
  8
0
  6
CONTINUOUS
 62
     7
 10
82.5960250496865
 20
-162.88498113973
 30
0.0
 40
2.99999994039535
  1
146,5
 41
0.933333333333333
 72
     1
 11
89.2960249165694
 21
-161.384981169533
 31
0.0
 73
     2
  0
LINE
  5
   287
  8
0
  6
CONTINUOUS
 62
     7
 10
67.5960235595703
 20
-121.521962263675
 30
0.0
 11
67.5960235595703
 21
-165.88498113973
 31
0.0
  0
LINE
  5
   288
  8
0
  6
CONTINUOUS
 62
     7
 10
111.546025305986
 20
-109.562856857326
 30
0.0
 11
111.546025305986
 21
-165.88498113973
 31
0.0
  0
LINE
  5
   289
  8
0
  6
CONTINUOUS
 62
     7
 10
67.5960235595703
 20
-163.88498113973
 30
0.0
 11
111.546025305986
 21
-163.88498113973
 31
0.0
  0
LINE
  5
   28A
  8
0
  6
CONTINUOUS
 62
     7
 10
70.5504468367773
 20
-163.364036709779
 30
0.0
 11
67.5960235595703
 21
-163.88498113973
 31
0.0
  0
LINE
  5
   28B
  8
0
  6
CONTINUOUS
 62
     7
 10
67.5960235595703
 20
-163.88498113973
 30
0.0
 11
70.5504468367773
 21
-164.405925569682
 31
0.0
  0
LINE
  5
   28C
  8
0
  6
CONTINUOUS
 62
     7
 10
108.591602028779
 20
-164.405925569682
 30
0.0
 11
111.546025305986
 21
-163.88498113973
 31
0.0
  0
LINE
  5
   28D
  8
0
  6
CONTINUOUS
 62
     7
 10
111.546025305986
 20
-163.88498113973
 30
0.0
 11
108.591602028779
 21
-163.364036709779
 31
0.0
  0
ENDBLK
  5
   28E
  8
0
  6
CONTINUOUS
 62
     7
  0
BLOCK
  5
   28F
  8
0
  6
CONTINUOUS
 62
     7
  2
*UDIM362
 70
    65
 10
0.0
 20
0.0
 30
0.0
  3
*UDIM362
  0
TEXT
  5
   290
  8
0
  6
CONTINUOUS
 62
     7
 10
115.14602560997
 20
-162.88498113973
 30
0.0
 40
2.99999994039535
  1
2
 41
0.933333333333333
 72
     1
 11
116.246025588115
 21
-161.384981169533
 31
0.0
 73
     2
  0
LINE
  5
   291
  8
0
  6
CONTINUOUS
 62
     7
 10
112.146025329828
 20
-109.388438245744
 30
0.0
 11
112.146025329828
 21
-165.88498113973
 31
0.0
  0
LINE
  5
   292
  8
0
  6
CONTINUOUS
 62
     7
 10
111.546025305986
 20
-163.88498113973
 30
0.0
 11
117.34602556626
 21
-163.88498113973
 31
0.0
  0
LINE
  5
   293
  8
0
  6
CONTINUOUS
 62
     7
 10
108.591602028779
 20
-164.405925569682
 30
0.0
 11
111.546025305986
 21
-163.88498113973
 31
0.0
  0
LINE
  5
   294
  8
0
  6
CONTINUOUS
 62
     7
 10
111.546025305986
 20
-163.88498113973
 30
0.0
 11
108.591602028779
 21
-163.364036709779
 31
0.0
  0
LINE
  5
   295
  8
0
  6
CONTINUOUS
 62
     7
 10
115.100448607035
 20
-163.364036709779
 30
0.0
 11
112.146025329828
 21
-163.88498113973
 31
0.0
  0
LINE
  5
   296
  8
0
  6
CONTINUOUS
 62
     7
 10
112.146025329828
 20
-163.88498113973
 30
0.0
 11
115.100448607035
 21
-164.405925569682
 31
0.0
  0
ENDBLK
  5
   297
  8
0
  6
CONTINUOUS
 62
     7
  0
BLOCK
  5
   298
  8
0
  6
CONTINUOUS
 62
     7
  2
*UDIM363
 70
    65
 10
0.0
 20
0.0
 30
0.0
  3
*UDIM363
  0
TEXT
  5
   299
  8
0
  6
CONTINUOUS
 62
     7
 10
81.3960227131843
 20
-148.526280007643
 30
0.0
 40
2.99999994039535
  1
138,5
 41
0.933333333333333
 72
     1
 11
88.0960225800673
 21
-147.026280037446
 31
0.0
 73
     2
  0
LINE
  5
   29A
  8
0
  6
CONTINUOUS
 62
     7
 10
67.5960235595703
 20
-100.629216636348
 30
0.0
 11
67.5960235595703
 21
-151.526280007643
 31
0.0
  0
LINE
  5
   29B
  8
0
  6
CONTINUOUS
 62
     7
 10
109.146020632982
 20
-81.4292036116123
 30
0.0
 11
109.146020632982
 21
-151.526280007643
 31
0.0
  0
LINE
  5
   29C
  8
0
  6
CONTINUOUS
 62
     7
 10
67.5960235595703
 20
-149.526280007643
 30
0.0
 11
109.146020632982
 21
-149.526280007643
 31
0.0
  0
LINE
  5
   29D
  8
0
  6
CONTINUOUS
 62
     7
 10
70.5504468367773
 20
-149.005335577692
 30
0.0
 11
67.5960235595703
 21
-149.526280007643
 31
0.0
  0
LINE
  5
   29E
  8
0
  6
CONTINUOUS
 62
     7
 10
67.5960235595703
 20
-149.526280007643
 30
0.0
 11
70.5504468367773
 21
-150.047224437595
 31
0.0
  0
LINE
  5
   29F
  8
0
  6
CONTINUOUS
 62
     7
 10
106.191597355775
 20
-150.047224437595
 30
0.0
 11
109.146020632982
 21
-149.526280007643
 31
0.0
  0
LINE
  5
   2A0
  8
0
  6
CONTINUOUS
 62
     7
 10
109.146020632982
 20
-149.526280007643
 30
0.0
 11
106.191597355775
 21
-149.005335577692
 31
0.0
  0
ENDBLK
  5
   2A1
  8
0
  6
CONTINUOUS
 62
     7
  0
BLOCK
  5
   2A2
  8
0
  6
CONTINUOUS
 62
     7
  2
*UDIM364
 70
    65
 10
0.0
 20
0.0
 30
0.0
  3
*UDIM364
  0
TEXT
  5
   2A3
  8
0
  6
CONTINUOUS
 62
     7
 10
54.6795741114469
 20
-99.1387031883536
 30
0.0
 40
2.99999994039535
  1
37
 50
90.0
 41
0.933333333333333
 72
     1
 11
53.1795741412461
 21
-96.638703238026
 31
0.0
 73
     2
  0
LINE
  5
   2A4
  8
0
  6
CONTINUOUS
 62
     7
 10
67.8536207133593
 20
-102.479214921478
 30
0.0
 11
53.6795741114456
 21
-102.479196125284
 31
0.0
  0
LINE
  5
   2A5
  8
0
  6
CONTINUOUS
 62
     7
 10
66.5960235595704
 20
-91.3792159946058
 30
0.0
 11
53.6795741114439
 21
-91.3792119399194
 31
0.0
  0
LINE
  5
   2A6
  8
0
  6
CONTINUOUS
 62
     7
 10
55.6795741114438
 20
-102.479198777483
 30
0.0
 11
55.6795741114438
 21
-91.3792125677524
 31
0.0
  0
LINE
  5
   2A7
  8
0
  6
CONTINUOUS
 62
     7
 10
56.2005185413955
 20
-105.43362205469
 30
0.0
 11
55.6795741114438
 21
-102.479198777483
 31
0.0
  0
LINE
  5
   2A8
  8
0
  6
CONTINUOUS
 62
     7
 10
55.6795741114438
 20
-102.479198777483
 30
0.0
 11
55.1586296814921
 21
-105.43362205469
 31
0.0
  0
LINE
  5
   2A9
  8
0
  6
CONTINUOUS
 62
     7
 10
55.1586296814921
 20
-88.4247892905454
 30
0.0
 11
55.6795741114438
 21
-91.3792125677524
 31
0.0
  0
LINE
  5
   2AA
  8
0
  6
CONTINUOUS
 62
     7
 10
55.6795741114438
 20
-91.3792125677524
 30
0.0
 11
56.2005185413955
 21
-88.4247892905454
 31
0.0
  0
ENDBLK
  5
   2AB
  8
0
  6
CONTINUOUS
 62
     7
  0
BLOCK
  5
   2AC
  8
0
  6
CONTINUOUS
 62
     7
  2
*UDIM365
 70
    65
 10
0.0
 20
0.0
 30
0.0
  3
*UDIM365
  0
TEXT
  5
   2AD
  8
0
  6
CONTINUOUS
 62
     7
 10
139.31484816547
 20
-61.9542122444536
 30
0.0
 40
2.99999994039535
  1
105
 50
90.0
 41
0.933333333333333
 72
     1
 11
137.814848195268
 21
-58.0542123219416
 31
0.0
 73
     2
  0
LINE
  5
   2AE
  8
0
  6
CONTINUOUS
 62
     7
 10
112.546025305986
 20
-73.5292088011889
 30
0.0
 11
142.314848165465
 21
-73.529218146113
 31
0.0
  0
LINE
  5
   2AF
  8
0
  6
CONTINUOUS
 62
     7
 10
112.546025305986
 20
-42.0292193317301
 30
0.0
 11
142.314848165465
 21
-42.029228676654
 31
0.0
  0
LINE
  5
   2B0
  8
0
  6
CONTINUOUS
 62
     7
 10
140.314848165465
 20
-73.52921751828
 30
0.0
 11
140.314848165465
 21
-42.0292280488211
 31
0.0
  0
LINE
  5
   2B1
  8
0
  6
CONTINUOUS
 62
     7
 10
139.793903735514
 20
-70.5747942410731
 30
0.0
 11
140.314848165465
 21
-73.52921751828
 31
0.0
  0
LINE
  5
   2B2
  8
0
  6
CONTINUOUS
 62
     7
 10
140.314848165465
 20
-73.52921751828
 30
0.0
 11
140.835792595417
 21
-70.5747942410731
 31
0.0
  0
LINE
  5
   2B3
  8
0
  6
CONTINUOUS
 62
     7
 10
140.835792595417
 20
-44.983651326028
 30
0.0
 11
140.314848165465
 21
-42.0292280488211
 31
0.0
  0
LINE
  5
   2B4
  8
0
  6
CONTINUOUS
 62
     7
 10
140.314848165465
 20
-42.0292280488211
 30
0.0
 11
139.793903735514
 21
-44.983651326028
 31
0.0
  0
ENDBLK
  5
   2B5
  8
0
  6
CONTINUOUS
 62
     7
  0
BLOCK
  5
   2B6
  8
0
  6
CONTINUOUS
 62
     7
  2
*UDIM366
 70
    65
 10
0.0
 20
0.0
 30
0.0
  3
*UDIM366
  0
TEXT
  5
   2B7
  8
0
  6
CONTINUOUS
 62
     7
 10
60.9460233608882
 20
-155.753718649328
 30
0.0
 40
2.99999994039535
  1
3
 41
0.933333333333333
 72
     1
 11
62.0460233390331
 21
-154.253718679131
 31
0.0
 73
     2
  0
TEXT
  5
   2B8
  8
0
  6
CONTINUOUS
 62
     7
 10
58.1960233926773
 20
-155.753718649328
 30
0.0
 40
2.99999994039535
  1
_
 41
0.933333333333333
 72
     1
 11
59.2960233708223
 21
-154.253718679131
 31
0.0
 73
     2
  0
LINE
  5
   2B9
  8
0
  6
CONTINUOUS
 62
     7
 10
66.6960235238075
 20
-121.521962263675
 30
0.0
 11
66.6960235238075
 21
-158.753718649328
 31
0.0
  0
LINE
  5
   2BA
  8
0
  6
CONTINUOUS
 62
     7
 10
67.5960235595703
 20
-121.521962263675
 30
0.0
 11
67.5960235595703
 21
-158.753718649328
 31
0.0
  0
LINE
  5
   2BB
  8
0
  6
CONTINUOUS
 62
     7
 10
58.1960233926773
 20
-156.753718649328
 30
0.0
 11
67.5960235595703
 21
-156.753718649328
 31
0.0
  0
LINE
  5
   2BC
  8
0
  6
CONTINUOUS
 62
     7
 10
63.7416002466006
 20
-157.27466307928
 30
0.0
 11
66.6960235238075
 21
-156.753718649328
 31
0.0
  0
LINE
  5
   2BD
  8
0
  6
CONTINUOUS
 62
     7
 10
66.6960235238075
 20
-156.753718649328
 30
0.0
 11
63.7416002466006
 21
-156.232774219377
 31
0.0
  0
LINE
  5
   2BE
  8
0
  6
CONTINUOUS
 62
     7
 10
70.5504468367773
 20
-156.232774219377
 30
0.0
 11
67.5960235595703
 21
-156.753718649328
 31
0.0
  0
LINE
  5
   2BF
  8
0
  6
CONTINUOUS
 62
     7
 10
67.5960235595703
 20
-156.753718649328
 30
0.0
 11
70.5504468367773
 21
-157.27466307928
 31
0.0
  0
ENDBLK
  5
   2C0
  8
0
  6
CONTINUOUS
 62
     7
  0
BLOCK
  5
   2C1
  8
0
  6
CONTINUOUS
 62
     7
  2
*UDIM367
 70
    65
 10
0.0
 20
0.0
 30
0.0
  3
*UDIM367
  0
TEXT
  5
   2C2
  8
0
  6
CONTINUOUS
 62
     7
 10
81.6960227251052
 20
-155.753718649328
 30
0.0
 40
2.99999994039535
  1
140,5
 41
0.933333333333333
 72
     1
 11
88.3960225919882
 21
-154.253718679131
 31
0.0
 73
     2
  0
LINE
  5
   2C3
  8
0
  6
CONTINUOUS
 62
     7
 10
109.746020656824
 20
-74.4542081981899
 30
0.0
 11
109.746020656824
 21
-158.753718649328
 31
0.0
  0
LINE
  5
   2C4
  8
0
  6
CONTINUOUS
 62
     7
 10
67.5960235595703
 20
-156.753718649328
 30
0.0
 11
109.746020656824
 21
-156.753718649328
 31
0.0
  0
LINE
  5
   2C5
  8
0
  6
CONTINUOUS
 62
     7
 10
70.5504468367773
 20
-156.232774219377
 30
0.0
 11
67.5960235595703
 21
-156.753718649328
 31
0.0
  0
LINE
  5
   2C6
  8
0
  6
CONTINUOUS
 62
     7
 10
67.5960235595703
 20
-156.753718649328
 30
0.0
 11
70.5504468367773
 21
-157.27466307928
 31
0.0
  0
LINE
  5
   2C7
  8
0
  6
CONTINUOUS
 62
     7
 10
106.791597379617
 20
-157.27466307928
 30
0.0
 11
109.746020656824
 21
-156.753718649328
 31
0.0
  0
LINE
  5
   2C8
  8
0
  6
CONTINUOUS
 62
     7
 10
109.746020656824
 20
-156.753718649328
 30
0.0
 11
106.791597379617
 21
-156.232774219377
 31
0.0
  0
ENDBLK
  5
   2C9
  8
0
  6
CONTINUOUS
 62
     7
  0
BLOCK
  5
   2CA
  8
0
  6
CONTINUOUS
 62
     7
  2
*UDIM368
 70
    65
 10
0.0
 20
0.0
 30
0.0
  3
*UDIM368
  0
TEXT
  5
   2CB
  8
0
  6
CONTINUOUS
 62
     7
 10
-20.3141845783827
 20
-193.571697190989
 30
0.0
 40
3.00000005960463
  1
35
 50
359.999999896069
 41
0.933333333333334
 72
     1
 11
-17.8141845259988
 21
-192.071697165708
 31
0.0
 73
     2
  0
LINE
  5
   2CC
  8
0
  6
CONTINUOUS
 62
     7
 10
-3.67072528600693
 20
-194.571697195511
 30
0.0
 11
-20.3141845756694
 21
-194.571697195511
 31
0.0
  0
LINE
  5
   2CD
  8
0
  6
CONTINUOUS
 62
     7
 10
-0.716302008799964
 20
-194.050752765559
 30
0.0
 11
-3.67072528600693
 21
-194.571697195511
 31
0.0
  0
LINE
  5
   2CE
  8
0
  6
CONTINUOUS
 62
     7
 10
-3.67072528600693
 20
-194.571697195511
 30
0.0
 11
-0.716302008799964
 21
-195.092641625462
 31
0.0
  0
LINE
  5
   2CF
  8
0
  6
CONTINUOUS
 62
     7
 10
-13.6251481459814
 20
-195.092641625462
 30
0.0
 11
-10.6707248687744
 21
-194.571697195511
 31
0.0
  0
LINE
  5
   2D0
  8
0
  6
CONTINUOUS
 62
     7
 10
-10.6707248687744
 20
-194.571697195511
 30
0.0
 11
-13.6251481459814
 21
-194.050752765559
 31
0.0
  0
ENDBLK
  5
   2D1
  8
0
  6
CONTINUOUS
 62
     7
  0
BLOCK
  5
   2D2
  8
0
  6
CONTINUOUS
 62
     7
  2
*UDIM369
 70
    65
 10
0.0
 20
0.0
 30
0.0
  3
*UDIM369
  0
TEXT
  5
   2D3
  8
0
  6
CONTINUOUS
 62
     7
 10
-41.9053574731137
 20
-175.04006690748
 30
0.0
 40
3.00000005960463
  1
203
 50
449.999999896069
 41
0.933333333333334
 72
     1
 11
-43.4053574958662
 21
-171.140066827282
 31
0.0
 73
     2
  0
LINE
  5
   2D4
  8
0
  6
CONTINUOUS
 62
     7
 10
-24.9946716718982
 20
-155.46506670351
 30
0.0
 11
-42.9053574660638
 21
-155.46506670351
 31
0.0
  0
LINE
  5
   2D5
  8
0
  6
CONTINUOUS
 62
     7
 10
-33.35445794661
 20
-181.107376098633
 30
0.0
 11
-42.9053574660638
 21
-181.107376098633
 31
0.0
  0
LINE
  5
   2D6
  8
0
  6
CONTINUOUS
 62
     7
 10
-40.9053574660638
 20
-155.46506670351
 30
0.0
 11
-40.9053574660638
 21
-181.107376098633
 31
0.0
  0
LINE
  5
   2D7
  8
0
  6
CONTINUOUS
 62
     7
 10
-40.3844130361122
 20
-158.419489980717
 30
0.0
 11
-40.9053574660638
 21
-155.46506670351
 31
0.0
  0
LINE
  5
   2D8
  8
0
  6
CONTINUOUS
 62
     7
 10
-40.9053574660638
 20
-155.46506670351
 30
0.0
 11
-41.4263018960155
 21
-158.419489980717
 31
0.0
  0
LINE
  5
   2D9
  8
0
  6
CONTINUOUS
 62
     7
 10
-41.4263018960155
 20
-178.152952821426
 30
0.0
 11
-40.9053574660638
 21
-181.107376098633
 31
0.0
  0
LINE
  5
   2DA
  8
0
  6
CONTINUOUS
 62
     7
 10
-40.9053574660638
 20
-181.107376098633
 30
0.0
 11
-40.3844130361122
 21
-178.152952821426
 31
0.0
  0
ENDBLK
  5
   2DB
  8
0
  6
CONTINUOUS
 62
     7
  0
BLOCK
  5
   2DC
  8
0
  6
CONTINUOUS
 62
     7
  2
*UDIM370
 70
    65
 10
0.0
 20
0.0
 30
0.0
  3
*UDIM370
  0
TEXT
  5
   2DD
  8
0
  6
CONTINUOUS
 62
     7
 10
-49.3720715056019
 20
-190.440065970603
 30
0.0
 40
3.00000005960463
  1
378
 50
449.999999896069
 41
0.933333333333334
 72
     1
 11
-50.8720715283544
 21
-186.540065890406
 31
0.0
 73
     2
  0
LINE
  5
   2DE
  8
0
  6
CONTINUOUS
 62
     7
 10
-24.9946716718981
 20
-155.465066389594
 30
0.0
 11
-50.3720714985519
 21
-155.46505842321
 31
0.0
  0
LINE
  5
   2DF
  8
0
  6
CONTINUOUS
 62
     7
 10
-26.6684049664615
 20
-207.194440363
 30
0.0
 11
-50.3720714985519
 21
-207.194432922029
 31
0.0
  0
LINE
  5
   2E0
  8
0
  6
CONTINUOUS
 62
     7
 10
-48.372071498552
 20
-155.465059051043
 30
0.0
 11
-48.372071498552
 21
-207.194433549862
 31
0.0
  0
LINE
  5
   2E1
  8
0
  6
CONTINUOUS
 62
     7
 10
-47.8511270686004
 20
-158.41948232825
 30
0.0
 11
-48.372071498552
 21
-155.465059051043
 31
0.0
  0
LINE
  5
   2E2
  8
0
  6
CONTINUOUS
 62
     7
 10
-48.372071498552
 20
-155.465059051043
 30
0.0
 11
-48.8930159285037
 21
-158.41948232825
 31
0.0
  0
LINE
  5
   2E3
  8
0
  6
CONTINUOUS
 62
     7
 10
-48.8930159285037
 20
-204.240010272655
 30
0.0
 11
-48.372071498552
 21
-207.194433549862
 31
0.0
  0
LINE
  5
   2E4
  8
0
  6
CONTINUOUS
 62
     7
 10
-48.372071498552
 20
-207.194433549862
 30
0.0
 11
-47.8511270686004
 21
-204.240010272655
 31
0.0
  0
ENDBLK
  5
   2E5
  8
0
  6
CONTINUOUS
 62
     7
  0
BLOCK
  5
   2E6
  8
0
  6
CONTINUOUS
 62
     7
  2
*UDIM371
 70
    65
 10
0.0
 20
0.0
 30
0.0
  3
*UDIM371
  0
TEXT
  5
   2E7
  8
0
  6
CONTINUOUS
 62
     7
 10
12.0405492224172
 20
-197.533907850898
 30
0.0
 40
3.00000005960463
  1
5,5
 50
388.478437992164
 41
0.933333333333334
 72
     1
 11
14.7533940845605
 21
-194.355783648205
 31
0.0
 73
     2
  0
TEXT
  5
   2E8
  8
0
  6
CONTINUOUS
 62
     7
 10
9.271709850886
 20
-199.035916084873
 30
0.0
 40
3.00000005960463
  1
Ø
 50
388.478437992164
 41
0.933333333333334
 72
     1
 11
9.52336413193456
 21
-197.192910317026
 31
0.0
 73
     2
  0
TEXT
  5
   2E9
  8
0
  6
CONTINUOUS
 62
     7
 10
19.3801711251541
 20
-193.552393928785
 30
0.0
 40
3.00000005960463
  1
 - M5
 50
388.478437992164
 41
0.933333333333333
 72
     1
 11
24.554206568392
 21
-189.039151291247
 31
0.0
 73
     2
  0
LINE
  5
   2EA
  8
0
  6
CONTINUOUS
 62
     7
 10
31.635554050132
 20
-188.041895167859
 30
0.0
 11
-4.15417339696952
 21
-207.456696063793
 31
0.0
  0
LINE
  5
   2EB
  8
0
  6
CONTINUOUS
 62
     7
 10
-0.838749999913329
 20
-205.065525142163
 30
0.0
 11
-3.18727717504434
 21
-206.93218529004
 31
0.0
  0
LINE
  5
   2EC
  8
0
  6
CONTINUOUS
 62
     7
 10
-3.18727717504434
 20
-206.93218529004
 30
0.0
 11
-0.341948213871525
 21
-205.981341926119
 31
0.0
  0
LINE
  5
   2ED
  8
0
  6
CONTINUOUS
 62
     7
 10
-6.50270057210053
 20
-209.32335621167
 30
0.0
 11
-4.15417339696952
 21
-207.456696063793
 31
0.0
  0
LINE
  5
   2EE
  8
0
  6
CONTINUOUS
 62
     7
 10
-4.15417339696952
 20
-207.456696063793
 30
0.0
 11
-6.99950235814233
 21
-208.407539427714
 31
0.0
  0
ENDBLK
  5
   2EF
  8
0
  6
CONTINUOUS
 62
     7
  0
BLOCK
  5
   2F0
  8
0
  6
CONTINUOUS
 62
     7
  2
*UDIM372
 70
    65
 10
0.0
 20
0.0
 30
0.0
  3
*UDIM372
  0
TEXT
  5
   2F1
  8
0
  6
CONTINUOUS
 62
     7
 10
-21.8457242769315
 20
-165.599918460196
 30
0.0
 40
3.00000005960463
  1
140
 50
359.999999896069
 41
0.933333333333334
 72
     1
 11
-17.9457241967321
 21
-164.099918437449
 31
0.0
 73
     2
  0
LINE
  5
   2F2
  8
0
  6
CONTINUOUS
 62
     7
 10
-3.67072528600693
 20
-166.599918467251
 30
0.0
 11
-31.6707236170769
 21
-166.599918467251
 31
0.0
  0
LINE
  5
   2F3
  8
0
  6
CONTINUOUS
 62
     7
 10
-6.62514856321389
 20
-167.120862897203
 30
0.0
 11
-3.67072528600693
 21
-166.599918467251
 31
0.0
  0
LINE
  5
   2F4
  8
0
  6
CONTINUOUS
 62
     7
 10
-3.67072528600693
 20
-166.599918467251
 30
0.0
 11
-6.62514856321389
 21
-166.078974037299
 31
0.0
  0
LINE
  5
   2F5
  8
0
  6
CONTINUOUS
 62
     7
 10
-28.7163003398699
 20
-166.078974037299
 30
0.0
 11
-31.6707236170769
 21
-166.599918467251
 31
0.0
  0
LINE
  5
   2F6
  8
0
  6
CONTINUOUS
 62
     7
 10
-31.6707236170769
 20
-166.599918467251
 30
0.0
 11
-28.7163003398699
 21
-167.120862897203
 31
0.0
  0
ENDBLK
  5
   2F7
  8
0
  6
CONTINUOUS
 62
     7
  0
BLOCK
  5
   2F8
  8
0
  6
CONTINUOUS
 62
     7
  2
*UDIM373
 70
    65
 10
0.0
 20
0.0
 30
0.0
  3
*UDIM373
  0
TEXT
  5
   2F9
  8
0
  6
CONTINUOUS
 62
     7
 10
241.412234448293
 20
-34.5478029145179
 30
0.0
 40
3.00000002980232
  1
147
 50
359.999999844103
 41
0.933333333333333
 72
     1
 11
245.31223449111
 21
-33.0478029102087
 31
0.0
 73
     2
  0
LINE
  5
   2FA
  8
0
  6
CONTINUOUS
 62
     7
 10
227.21223449707
 20
-21.3678407669067
 30
0.0
 11
227.21223449707
 21
-37.5478029251099
 31
0.0
  0
LINE
  5
   2FB
  8
0
  6
CONTINUOUS
 62
     7
 10
263.96223449707
 20
-21.3678407669067
 30
0.0
 11
263.96223449707
 21
-37.5478029251099
 31
0.0
  0
LINE
  5
   2FC
  8
0
  6
CONTINUOUS
 62
     7
 10
227.21223449707
 20
-35.5478029251099
 30
0.0
 11
263.96223449707
 21
-35.5478029251099
 31
0.0
  0
LINE
  5
   2FD
  8
0
  6
CONTINUOUS
 62
     7
 10
230.166657774277
 20
-35.0268584951582
 30
0.0
 11
227.21223449707
 21
-35.5478029251099
 31
0.0
  0
LINE
  5
   2FE
  8
0
  6
CONTINUOUS
 62
     7
 10
227.21223449707
 20
-35.5478029251099
 30
0.0
 11
230.166657774277
 21
-36.0687473550615
 31
0.0
  0
LINE
  5
   2FF
  8
0
  6
CONTINUOUS
 62
     7
 10
261.007811219863
 20
-36.0687473550615
 30
0.0
 11
263.96223449707
 21
-35.5478029251099
 31
0.0
  0
LINE
  5
   300
  8
0
  6
CONTINUOUS
 62
     7
 10
263.96223449707
 20
-35.5478029251099
 30
0.0
 11
261.007811219863
 21
-35.0268584951582
 31
0.0
  0
ENDBLK
  5
   301
  8
0
  6
CONTINUOUS
 62
     7
  0
BLOCK
  5
   302
  8
0
  6
CONTINUOUS
 62
     7
  2
*UDIM374
 70
    65
 10
0.0
 20
0.0
 30
0.0
  3
*UDIM374
  0
TEXT
  5
   303
  8
0
  6
CONTINUOUS
 62
     7
 10
241.412234448293
 20
20.6901846037926
 30
0.0
 40
3.00000002980232
  1
115
 50
359.999999844103
 41
0.933333333333333
 72
     1
 11
245.31223449111
 21
22.1901846081018
 31
0.0
 73
     2
  0
LINE
  5
   304
  8
0
  6
CONTINUOUS
 62
     7
 10
231.21223449707
 20
14.5071592330933
 30
0.0
 11
231.21223449707
 21
21.6901845932007
 31
0.0
  0
LINE
  5
   305
  8
0
  6
CONTINUOUS
 62
     7
 10
259.96223449707
 20
14.5071592330933
 30
0.0
 11
259.96223449707
 21
21.6901845932007
 31
0.0
  0
LINE
  5
   306
  8
0
  6
CONTINUOUS
 62
     7
 10
231.21223449707
 20
19.6901845932007
 30
0.0
 11
259.96223449707
 21
19.6901845932007
 31
0.0
  0
LINE
  5
   307
  8
0
  6
CONTINUOUS
 62
     7
 10
234.166657774277
 20
20.2111290231523
 30
0.0
 11
231.21223449707
 21
19.6901845932007
 31
0.0
  0
LINE
  5
   308
  8
0
  6
CONTINUOUS
 62
     7
 10
231.21223449707
 20
19.6901845932007
 30
0.0
 11
234.166657774277
 21
19.169240163249
 31
0.0
  0
LINE
  5
   309
  8
0
  6
CONTINUOUS
 62
     7
 10
257.007811219863
 20
19.169240163249
 30
0.0
 11
259.96223449707
 21
19.6901845932007
 31
0.0
  0
LINE
  5
   30A
  8
0
  6
CONTINUOUS
 62
     7
 10
259.96223449707
 20
19.6901845932007
 30
0.0
 11
257.007811219863
 21
20.2111290231523
 31
0.0
  0
ENDBLK
  5
   30B
  8
0
  6
CONTINUOUS
 62
     7
  0
BLOCK
  5
   30C
  8
0
  6
CONTINUOUS
 62
     7
  2
*UDIM375
 70
    65
 10
0.0
 20
0.0
 30
0.0
  3
*UDIM375
  0
TEXT
  5
   30D
  8
0
  6
CONTINUOUS
 62
     7
 10
207.077091206454
 20
-10.5428408156822
 30
0.0
 40
3.00000002980232
  1
142
 50
449.999999844103
 41
0.933333333333333
 72
     1
 11
205.57709120214
 21
-6.6428407728672
 31
0.0
 73
     2
  0
LINE
  5
   30E
  8
0
  6
CONTINUOUS
 62
     7
 10
228.08723449707
 20
11.3821592330933
 30
0.0
 11
206.077091217041
 21
11.3821592330933
 31
0.0
  0
LINE
  5
   30F
  8
0
  6
CONTINUOUS
 62
     7
 10
228.08723449707
 20
-24.1178407669067
 30
0.0
 11
206.077091217041
 21
-24.1178407669067
 31
0.0
  0
LINE
  5
   310
  8
0
  6
CONTINUOUS
 62
     7
 10
208.077091217041
 20
11.3821592330933
 30
0.0
 11
208.077091217041
 21
-24.1178407669067
 31
0.0
  0
LINE
  5
   311
  8
0
  6
CONTINUOUS
 62
     7
 10
208.598035646993
 20
8.4277359558863
 30
0.0
 11
208.077091217041
 21
11.3821592330933
 31
0.0
  0
LINE
  5
   312
  8
0
  6
CONTINUOUS
 62
     7
 10
208.077091217041
 20
11.3821592330933
 30
0.0
 11
207.556146787089
 21
8.4277359558863
 31
0.0
  0
LINE
  5
   313
  8
0
  6
CONTINUOUS
 62
     7
 10
207.556146787089
 20
-21.1634174896998
 30
0.0
 11
208.077091217041
 21
-24.1178407669067
 31
0.0
  0
LINE
  5
   314
  8
0
  6
CONTINUOUS
 62
     7
 10
208.077091217041
 20
-24.1178407669067
 30
0.0
 11
208.598035646993
 21
-21.1634174896998
 31
0.0
  0
ENDBLK
  5
   315
  8
0
  6
CONTINUOUS
 62
     7
  0
BLOCK
  5
   316
  8
0
  6
CONTINUOUS
 62
     7
  2
*UDIM376
 70
    65
 10
0.0
 20
0.0
 30
0.0
  3
*UDIM376
  0
TEXT
  5
   317
  8
0
  6
CONTINUOUS
 62
     7
 10
217.360095967196
 20
-10.5428408156822
 30
0.0
 40
3.00000002980232
  1
112
 50
449.999999844103
 41
0.933333333333333
 72
     1
 11
215.860095962882
 21
-6.6428407728672
 31
0.0
 73
     2
  0
LINE
  5
   318
  8
0
  6
CONTINUOUS
 62
     7
 10
226.21223449707
 20
7.63215923309326
 30
0.0
 11
216.360095977783
 21
7.63215923309326
 31
0.0
  0
LINE
  5
   319
  8
0
  6
CONTINUOUS
 62
     7
 10
226.21223449707
 20
-20.3678407669067
 30
0.0
 11
216.360095977783
 21
-20.3678407669067
 31
0.0
  0
LINE
  5
   31A
  8
0
  6
CONTINUOUS
 62
     7
 10
218.360095977783
 20
7.63215923309326
 30
0.0
 11
218.360095977783
 21
-20.3678407669067
 31
0.0
  0
LINE
  5
   31B
  8
0
  6
CONTINUOUS
 62
     7
 10
218.881040407735
 20
4.6777359558863
 30
0.0
 11
218.360095977783
 21
7.63215923309326
 31
0.0
  0
LINE
  5
   31C
  8
0
  6
CONTINUOUS
 62
     7
 10
218.360095977783
 20
7.63215923309326
 30
0.0
 11
217.839151547832
 21
4.6777359558863
 31
0.0
  0
LINE
  5
   31D
  8
0
  6
CONTINUOUS
 62
     7
 10
217.839151547832
 20
-17.4134174896998
 30
0.0
 11
218.360095977783
 21
-20.3678407669067
 31
0.0
  0
LINE
  5
   31E
  8
0
  6
CONTINUOUS
 62
     7
 10
218.360095977783
 20
-20.3678407669067
 30
0.0
 11
218.881040407735
 21
-17.4134174896998
 31
0.0
  0
ENDBLK
  5
   31F
  8
0
  6
CONTINUOUS
 62
     7
  0
BLOCK
  5
   320
  8
0
  6
CONTINUOUS
 62
     7
  2
*UDIM377
 70
    65
 10
0.0
 20
0.0
 30
0.0
  3
*UDIM377
  0
TEXT
  5
   321
  8
0
  6
CONTINUOUS
 62
     7
 10
271.876990660623
 20
24.6532896125463
 30
0.0
 40
3.00000002980232
  1
7
 50
404.868411918951
 41
0.933333333333334
 72
     1
 11
271.598371018553
 21
26.4924120021106
 31
0.0
 73
     2
  0
TEXT
  5
   322
  8
0
  6
CONTINUOUS
 62
     7
 10
269.644494661298
 20
22.4310246248409
 30
0.0
 40
3.00000002980232
  1
Ø
 50
404.868411918951
 41
0.933333333333334
 72
     1
 11
269.365875019228
 21
24.2701470144052
 31
0.0
 73
     2
  0
LINE
  5
   323
  8
0
  6
CONTINUOUS
 62
     7
 10
274.141675177527
 20
25.4966188240383
 30
0.0
 11
259.342096721436
 21
10.7648634051219
 31
0.0
  0
LINE
  5
   324
  8
0
  6
CONTINUOUS
 62
     7
 10
262.308741022644
 20
14.4529527560372
 30
0.0
 11
260.582372272705
 21
11.9994550610647
 31
0.0
  0
LINE
  5
   325
  8
0
  6
CONTINUOUS
 62
     7
 10
260.582372272705
 20
11.9994550610647
 30
0.0
 11
263.043773761419
 21
13.7145360245641
 31
0.0
  0
LINE
  5
   326
  8
0
  6
CONTINUOUS
 62
     7
 10
257.615727971497
 20
8.31136571014933
 30
0.0
 11
259.342096721436
 21
10.7648634051219
 31
0.0
  0
LINE
  5
   327
  8
0
  6
CONTINUOUS
 62
     7
 10
259.342096721436
 20
10.7648634051219
 30
0.0
 11
256.880695232722
 21
9.04978244162244
 31
0.0
  0
ENDBLK
  5
   328
  8
0
  6
CONTINUOUS
 62
     7
  0
ENDSEC
  0
SECTION
  2
ENTITIES
  0
LINE
  5
   329
  8
0
  6
CONTINUOUS
 62
   130
 10
-31.3707073807709
 20
-71.5038510650393
 30
0.0
 11
-31.3707073807709
 21
-71.2038510531183
 31
0.0
  0
LINE
  5
   32A
  8
0
  6
CONTINUOUS
 62
   130
 10
-31.5609631435171
 20
-71.5038510650393
 30
0.0
 11
-31.6707348585132
 21
-71.5038510650393
 31
0.0
  0
LINE
  5
   32B
  8
0
  6
CONTINUOUS
 62
   130
 10
-31.3707073807709
 20
-71.5038510650393
 30
0.0
 11
-31.5609631256357
 21
-71.5038510650393
 31
0.0
  0
LINE
  5
   32C
  8
0
  6
CONTINUOUS
 62
   130
 10
-31.3707073807709
 20
-71.2038510531183
 30
0.0
 11
-31.6707348585132
 21
-71.2038510531183
 31
0.0
  0
LINE
  5
   32D
  8
0
  6
CONTINUOUS
 62
   130
 10
10.0292576432221
 20
-71.5038556426762
 30
0.0
 11
10.0292576432221
 21
-71.2038556307552
 31
0.0
  0
LINE
  5
   32E
  8
0
  6
CONTINUOUS
 62
   130
 10
10.3292851209644
 20
-71.5038556426762
 30
0.0
 11
10.0292576432221
 21
-71.5038556426762
 31
0.0
  0
LINE
  5
   32F
  8
0
  6
CONTINUOUS
 62
   130
 10
10.3292851209644
 20
-71.2038556307552
 30
0.0
 11
10.2195042328131
 21
-71.2038556307552
 31
0.0
  0
LINE
  5
   330
  8
0
  6
CONTINUOUS
 62
   130
 10
10.2195042328131
 20
-71.2038556307552
 30
0.0
 11
10.0292576432221
 21
-71.2038556307552
 31
0.0
  0
LINE
  5
   331
  8
0
  6
CONTINUOUS
 62
     1
 10
10.0292582817703
 20
-72.1038579553363
 30
0.0
 11
-4.37072461843491
 21
-72.1038563631155
 31
0.0
  0
LINE
  5
   332
  8
0
  6
CONTINUOUS
 62
   130
 10
-31.3707073807709
 20
-65.8038508385416
 30
0.0
 11
-31.3707073807709
 21
-65.5038508266207
 31
0.0
  0
LINE
  5
   333
  8
0
  6
CONTINUOUS
 62
   130
 10
-31.5609631435171
 20
-65.8038508385416
 30
0.0
 11
-31.6707348585132
 21
-65.8038508385416
 31
0.0
  0
LINE
  5
   334
  8
0
  6
CONTINUOUS
 62
   130
 10
-31.3707073807709
 20
-65.8038508385416
 30
0.0
 11
-31.5609631256357
 21
-65.8038508385416
 31
0.0
  0
LINE
  5
   335
  8
0
  6
CONTINUOUS
 62
   130
 10
-31.3707073807709
 20
-65.5038508266207
 30
0.0
 11
-31.6707348585132
 21
-65.5038508266207
 31
0.0
  0
LINE
  5
   336
  8
0
  6
CONTINUOUS
 62
   130
 10
10.0292576432221
 20
-65.8038599938154
 30
0.0
 11
10.0292576432221
 21
-65.5038599818945
 31
0.0
  0
LINE
  5
   337
  8
0
  6
CONTINUOUS
 62
   130
 10
10.3292759656906
 20
-65.8038599938154
 30
0.0
 11
10.0292576432221
 21
-65.8038599938154
 31
0.0
  0
LINE
  5
   338
  8
0
  6
CONTINUOUS
 62
   130
 10
10.3292759656906
 20
-65.5038599818945
 30
0.0
 11
10.0292576432221
 21
-65.5038599818945
 31
0.0
  0
LINE
  5
   339
  8
0
  6
CONTINUOUS
 62
     1
 10
10.0292576432221
 20
-66.4038600176573
 30
0.0
 11
-4.37072461843491
 21
-66.4038600176573
 31
0.0
  0
LINE
  5
   33A
  8
0
  6
CONTINUOUS
 62
     1
 10
-16.9707178235013
 20
-66.4038605898605
 30
0.0
 11
-31.3707046627952
 21
-66.403851434587
 31
0.0
  0
LINE
  5
   33B
  8
0
  6
CONTINUOUS
 62
   130
 10
-31.3707165360447
 20
-52.4538594633341
 30
0.0
 11
-31.3707165360447
 21
-52.1538594514132
 31
0.0
  0
LINE
  5
   33C
  8
0
  6
CONTINUOUS
 62
   130
 10
-31.5609631435171
 20
-52.4538594633341
 30
0.0
 11
-31.6707257032394
 21
-52.4538594633341
 31
0.0
  0
LINE
  5
   33D
  8
0
  6
CONTINUOUS
 62
   130
 10
-31.3707165360447
 20
-52.4538594633341
 30
0.0
 11
-31.5609585479988
 21
-52.4538594633341
 31
0.0
  0
LINE
  5
   33E
  8
0
  6
CONTINUOUS
 62
   130
 10
-31.3707165360447
 20
-52.1538594514132
 30
0.0
 11
-31.5609585479988
 21
-52.1538594514132
 31
0.0
  0
LINE
  5
   33F
  8
0
  6
CONTINUOUS
 62
   130
 10
-31.5609585479988
 20
-52.1538594514132
 30
0.0
 11
-31.6707257032394
 21
-52.1538594514132
 31
0.0
  0
LINE
  5
   340
  8
0
  6
CONTINUOUS
 62
   130
 10
10.0292667984959
 20
-52.4538503080603
 30
0.0
 11
10.0292667984959
 21
-52.1538502961394
 31
0.0
  0
LINE
  5
   341
  8
0
  6
CONTINUOUS
 62
   130
 10
10.2194996551762
 20
-52.4538503080603
 30
0.0
 11
10.0292667984959
 21
-52.4538503080603
 31
0.0
  0
LINE
  5
   342
  8
0
  6
CONTINUOUS
 62
   130
 10
10.3292759478092
 20
-52.4538503080603
 30
0.0
 11
10.2194996551762
 21
-52.4538503080603
 31
0.0
  0
LINE
  5
   343
  8
0
  6
CONTINUOUS
 62
   130
 10
10.3292759656906
 20
-52.1538502961394
 30
0.0
 11
10.2195042506944
 21
-52.1538502961394
 31
0.0
  0
LINE
  5
   344
  8
0
  6
CONTINUOUS
 62
   130
 10
10.2194996551762
 20
-52.1538502961394
 30
0.0
 11
10.0292667984959
 21
-52.1538502961394
 31
0.0
  0
LINE
  5
   345
  8
0
  6
CONTINUOUS
 62
     1
 10
10.0292667984959
 20
-53.0538503319021
 30
0.0
 11
-4.37072461843491
 21
-53.0538503319021
 31
0.0
  0
LINE
  5
   346
  8
0
  6
CONTINUOUS
 62
     1
 10
-31.3707140088182
 20
-53.0538634925997
 30
0.0
 11
-16.9707180142505
 21
-53.0538543373261
 31
0.0
  0
LINE
  5
   347
  8
0
  6
CONTINUOUS
 62
   130
 10
-31.3707165360447
 20
-46.7538592368364
 30
0.0
 11
-31.3707165360447
 21
-46.4538592249155
 31
0.0
  0
LINE
  5
   348
  8
0
  6
CONTINUOUS
 62
   130
 10
-31.3707165360447
 20
-46.7538592368364
 30
0.0
 11
-31.6707348585132
 21
-46.7538592368364
 31
0.0
  0
LINE
  5
   349
  8
0
  6
CONTINUOUS
 62
   130
 10
-31.3707165360447
 20
-46.4538592249155
 30
0.0
 11
-31.6707348585132
 21
-46.4538592249155
 31
0.0
  0
LINE
  5
   34A
  8
0
  6
CONTINUOUS
 62
   130
 10
10.0292667984959
 20
-46.7538500815626
 30
0.0
 11
10.0292667984959
 21
-46.4538500696417
 31
0.0
  0
LINE
  5
   34B
  8
0
  6
CONTINUOUS
 62
   130
 10
10.21950881045
 20
-46.7538500815626
 30
0.0
 11
10.0292667984959
 21
-46.7538500815626
 31
0.0
  0
LINE
  5
   34C
  8
0
  6
CONTINUOUS
 62
   130
 10
10.3292759656906
 20
-46.7538500815626
 30
0.0
 11
10.21950881045
 21
-46.7538500815626
 31
0.0
  0
LINE
  5
   34D
  8
0
  6
CONTINUOUS
 62
   130
 10
10.3292759656906
 20
-46.4538500696417
 30
0.0
 11
10.0292667984959
 21
-46.4538500696417
 31
0.0
  0
LINE
  5
   34E
  8
0
  6
CONTINUOUS
 62
     1
 10
-31.3707141311314
 20
-47.3538592606774
 30
0.0
 11
10.0292646257723
 21
-47.3538501054038
 31
0.0
  0
LINE
  5
   34F
  8
0
  6
CONTINUOUS
 62
     1
 10
-41.2312266125481
 20
-80.7288600215398
 30
0.0
 11
-62.7957086294882
 21
-80.7287835126847
 31
0.0
  0
LINE
  5
   350
  8
0
  6
CONTINUOUS
 62
     1
 10
19.8897768749992
 20
-80.7288600215398
 30
0.0
 11
20.4542544364921
 21
-80.7288580188239
 31
0.0
  0
LINE
  5
   351
  8
0
  6
CONTINUOUS
 62
     1
 10
20.8292757078785
 20
-17.5788580775261
 30
0.0
 11
-63.1707262798923
 21
-17.5788580775261
 31
0.0
  0
LINE
  5
   352
  8
0
  6
CONTINUOUS
 62
     1
 10
19.8897759183446
 20
-80.7288603007793
 30
0.0
 11
12.1292760372162
 21
-80.7288603007793
 31
0.0
  0
LINE
  5
   353
  8
0
  6
CONTINUOUS
 62
     1
 10
20.7542672246691
 20
-80.4288602888584
 30
0.0
 11
12.1292760372162
 21
-80.4288602888584
 31
0.0
  0
LINE
  5
   354
  8
0
  6
CONTINUOUS
 62
     1
 10
-33.470725774765
 20
-42.0288773596294
 30
0.0
 11
-63.170722841389
 21
-42.0288773596294
 31
0.0
  0
LINE
  5
   355
  8
0
  6
CONTINUOUS
 62
     1
 10
20.7542672246691
 20
-42.0288773596294
 30
0.0
 11
12.1292760372162
 21
-42.0288773596294
 31
0.0
  0
LINE
  5
   356
  8
0
  6
CONTINUOUS
 62
     1
 10
20.7542672246691
 20
-73.5288651645186
 30
0.0
 11
12.1292760372162
 21
-73.5288651645186
 31
0.0
  0
LINE
  5
   357
  8
0
  6
CONTINUOUS
 62
     1
 10
-33.470725774765
 20
-73.5288651645186
 30
0.0
 11
-63.1707184114206
 21
-73.5288651645186
 31
0.0
  0
LINE
  5
   358
  8
0
  6
CONTINUOUS
 62
     1
 10
-41.5257187706229
 20
-42.0288773596294
 30
0.0
 11
-41.5257187706229
 21
-17.578862655163
 31
0.0
  0
LINE
  5
   359
  8
0
  6
CONTINUOUS
 62
     1
 10
-40.445707741379
 20
-42.0288773596294
 30
0.0
 11
-40.445707741379
 21
-17.578862655163
 31
0.0
  0
LINE
  5
   35A
  8
0
  6
CONTINUOUS
 62
     1
 10
-39.3657150226827
 20
-42.0288773596294
 30
0.0
 11
-39.3657150226827
 21
-17.578862655163
 31
0.0
  0
LINE
  5
   35B
  8
0
  6
CONTINUOUS
 62
     1
 10
-38.2857223039864
 20
-42.0288773596294
 30
0.0
 11
-38.2857223039864
 21
-17.578862655163
 31
0.0
  0
LINE
  5
   35C
  8
0
  6
CONTINUOUS
 62
     1
 10
-37.2057112747425
 20
-42.0288773596294
 30
0.0
 11
-37.2057112747425
 21
-17.578862655163
 31
0.0
  0
LINE
  5
   35D
  8
0
  6
CONTINUOUS
 62
     1
 10
-36.1257185560462
 20
-42.0288773596294
 30
0.0
 11
-36.1257185560462
 21
-17.578862655163
 31
0.0
  0
LINE
  5
   35E
  8
0
  6
CONTINUOUS
 62
     1
 10
-35.0457075268023
 20
-42.0288773596294
 30
0.0
 11
-35.0457075268023
 21
-17.578862655163
 31
0.0
  0
LINE
  5
   35F
  8
0
  6
CONTINUOUS
 62
     1
 10
-33.965714808106
 20
-42.0288773596294
 30
0.0
 11
-33.965714808106
 21
-17.578862655163
 31
0.0
  0
LINE
  5
   360
  8
0
  6
CONTINUOUS
 62
     1
 10
-32.8857220894097
 20
-33.628877598048
 30
0.0
 11
-32.8857220894097
 21
-17.578862655163
 31
0.0
  0
LINE
  5
   361
  8
0
  6
CONTINUOUS
 62
     1
 10
-31.8057110601658
 20
-33.628877598048
 30
0.0
 11
-31.8057110601658
 21
-17.578862655163
 31
0.0
  0
LINE
  5
   362
  8
0
  6
CONTINUOUS
 62
     1
 10
-41.5257187706229
 20
-73.5288557231424
 30
0.0
 11
-41.5257187706229
 21
-42.0288773596294
 31
0.0
  0
LINE
  5
   363
  8
0
  6
CONTINUOUS
 62
     1
 10
-40.445707741379
 20
-73.5288557231424
 30
0.0
 11
-40.445707741379
 21
-42.0288773596294
 31
0.0
  0
LINE
  5
   364
  8
0
  6
CONTINUOUS
 62
     1
 10
-39.3657150226827
 20
-73.5288557231424
 30
0.0
 11
-39.3657150226827
 21
-42.0288773596294
 31
0.0
  0
LINE
  5
   365
  8
0
  6
CONTINUOUS
 62
     1
 10
-38.2857223039864
 20
-73.5288557231424
 30
0.0
 11
-38.2857223039864
 21
-42.0288773596294
 31
0.0
  0
LINE
  5
   366
  8
0
  6
CONTINUOUS
 62
     1
 10
-37.2057112747425
 20
-73.5288557231424
 30
0.0
 11
-37.2057112747425
 21
-42.0288773596294
 31
0.0
  0
LINE
  5
   367
  8
0
  6
CONTINUOUS
 62
     1
 10
-36.1257185560462
 20
-73.5288557231424
 30
0.0
 11
-36.1257185560462
 21
-42.0288773596294
 31
0.0
  0
LINE
  5
   368
  8
0
  6
CONTINUOUS
 62
     1
 10
-35.0457075268023
 20
-73.5288557231424
 30
0.0
 11
-35.0457075268023
 21
-42.0288773596294
 31
0.0
  0
LINE
  5
   369
  8
0
  6
CONTINUOUS
 62
     1
 10
-33.965714808106
 20
-73.5288557231424
 30
0.0
 11
-33.965714808106
 21
-42.0288773596294
 31
0.0
  0
LINE
  5
   36A
  8
0
  6
CONTINUOUS
 62
     1
 10
-31.8057110601658
 20
-73.5288557231424
 30
0.0
 11
-31.8057110601658
 21
-42.0288773596294
 31
0.0
  0
LINE
  5
   36B
  8
0
  6
CONTINUOUS
 62
     2
 10
-41.5257187706229
 20
-114.478857796362
 30
0.0
 11
-41.5257187706229
 21
-102.16563845265
 31
0.0
  0
LINE
  5
   36C
  8
0
  6
CONTINUOUS
 62
     2
 10
-40.445707741379
 20
-114.478857796362
 30
0.0
 11
-40.445707741379
 21
-93.0288569440153
 31
0.0
  0
LINE
  5
   36D
  8
0
  6
CONTINUOUS
 62
     2
 10
-39.3657150226827
 20
-114.478857796362
 30
0.0
 11
-39.3657150226827
 21
-93.0288569440153
 31
0.0
  0
LINE
  5
   36E
  8
0
  6
CONTINUOUS
 62
     2
 10
-38.2857223039864
 20
-114.478857796362
 30
0.0
 11
-38.2857223039864
 21
-93.0288569440153
 31
0.0
  0
LINE
  5
   36F
  8
0
  6
CONTINUOUS
 62
     2
 10
-37.2057112747425
 20
-114.478857796362
 30
0.0
 11
-37.2057112747425
 21
-93.0288569440153
 31
0.0
  0
LINE
  5
   370
  8
0
  6
CONTINUOUS
 62
     2
 10
-36.1257185560462
 20
-114.478857796362
 30
0.0
 11
-36.1257185560462
 21
-93.0288569440153
 31
0.0
  0
LINE
  5
   371
  8
0
  6
CONTINUOUS
 62
     2
 10
-35.0457075268023
 20
-114.478857796362
 30
0.0
 11
-35.0457075268023
 21
-93.0288569440153
 31
0.0
  0
LINE
  5
   372
  8
0
  6
CONTINUOUS
 62
     2
 10
-33.965714808106
 20
-114.478857796362
 30
0.0
 11
-33.965714808106
 21
-93.0288569440153
 31
0.0
  0
LINE
  5
   373
  8
0
  6
CONTINUOUS
 62
     2
 10
-32.8857220894097
 20
-114.478857796362
 30
0.0
 11
-32.8857220894097
 21
-93.0288569440153
 31
0.0
  0
LINE
  5
   374
  8
0
  6
CONTINUOUS
 62
     2
 10
-31.8057110601658
 20
-92.5788587689399
 30
0.0
 11
-31.8057110601658
 21
-81.9288783729083
 31
0.0
  0
LINE
  5
   375
  8
0
  6
CONTINUOUS
 62
     1
 10
20.1842690330741
 20
-42.0288773596294
 30
0.0
 11
20.1842690330741
 21
-17.578862655163
 31
0.0
  0
LINE
  5
   376
  8
0
  6
CONTINUOUS
 62
     1
 10
19.1042580038302
 20
-42.0288773596294
 30
0.0
 11
19.1042580038302
 21
-17.578862655163
 31
0.0
  0
LINE
  5
   377
  8
0
  6
CONTINUOUS
 62
     1
 10
18.0242652851339
 20
-42.0288773596294
 30
0.0
 11
18.0242652851339
 21
-17.578862655163
 31
0.0
  0
LINE
  5
   378
  8
0
  6
CONTINUOUS
 62
     1
 10
16.9442725664376
 20
-42.0288773596294
 30
0.0
 11
16.9442725664376
 21
-17.578862655163
 31
0.0
  0
LINE
  5
   379
  8
0
  6
CONTINUOUS
 62
     1
 10
15.8642615371937
 20
-42.0288773596294
 30
0.0
 11
15.8642615371937
 21
-17.578862655163
 31
0.0
  0
LINE
  5
   37A
  8
0
  6
CONTINUOUS
 62
     1
 10
14.7842688184974
 20
-42.0288773596294
 30
0.0
 11
14.7842688184974
 21
-17.578862655163
 31
0.0
  0
LINE
  5
   37B
  8
0
  6
CONTINUOUS
 62
     1
 10
13.7042577892535
 20
-42.0288773596294
 30
0.0
 11
13.7042577892535
 21
-17.578862655163
 31
0.0
  0
LINE
  5
   37C
  8
0
  6
CONTINUOUS
 62
     1
 10
12.6242650705572
 20
-42.0288773596294
 30
0.0
 11
12.6242650705572
 21
-17.578862655163
 31
0.0
  0
LINE
  5
   37D
  8
0
  6
CONTINUOUS
 62
     1
 10
11.5442723518609
 20
-33.628877598048
 30
0.0
 11
11.5442723518609
 21
-17.578862655163
 31
0.0
  0
LINE
  5
   37E
  8
0
  6
CONTINUOUS
 62
     1
 10
10.464261322617
 20
-33.628877598048
 30
0.0
 11
10.464261322617
 21
-17.578862655163
 31
0.0
  0
LINE
  5
   37F
  8
0
  6
CONTINUOUS
 62
     1
 10
20.1842690330741
 20
-73.5288628757001
 30
0.0
 11
20.1842690330741
 21
-42.0288845121871
 31
0.0
  0
LINE
  5
   380
  8
0
  6
CONTINUOUS
 62
     1
 10
19.1042580038302
 20
-73.5288628757001
 30
0.0
 11
19.1042580038302
 21
-42.0288845121871
 31
0.0
  0
LINE
  5
   381
  8
0
  6
CONTINUOUS
 62
     1
 10
18.0242652851339
 20
-73.5288628757001
 30
0.0
 11
18.0242652851339
 21
-42.0288845121871
 31
0.0
  0
LINE
  5
   382
  8
0
  6
CONTINUOUS
 62
     1
 10
16.9442725664376
 20
-73.5288628757001
 30
0.0
 11
16.9442725664376
 21
-42.0288845121871
 31
0.0
  0
LINE
  5
   383
  8
0
  6
CONTINUOUS
 62
     1
 10
15.8642615371937
 20
-73.5288628757001
 30
0.0
 11
15.8642615371937
 21
-42.0288845121871
 31
0.0
  0
LINE
  5
   384
  8
0
  6
CONTINUOUS
 62
     1
 10
14.7842688184974
 20
-73.5288628757001
 30
0.0
 11
14.7842688184974
 21
-42.0288845121871
 31
0.0
  0
LINE
  5
   385
  8
0
  6
CONTINUOUS
 62
     1
 10
13.7042577892535
 20
-73.5288628757001
 30
0.0
 11
13.7042577892535
 21
-42.0288845121871
 31
0.0
  0
LINE
  5
   386
  8
0
  6
CONTINUOUS
 62
     1
 10
12.6242650705572
 20
-73.5288628757001
 30
0.0
 11
12.6242650705572
 21
-42.0288845121871
 31
0.0
  0
LINE
  5
   387
  8
0
  6
CONTINUOUS
 62
     1
 10
10.464261322617
 20
-73.5288628757001
 30
0.0
 11
10.464261322617
 21
-42.0288845121871
 31
0.0
  0
LINE
  5
   388
  8
0
  6
CONTINUOUS
 62
     1
 10
20.1842690330741
 20
-80.4288602888584
 30
0.0
 11
20.1842690330741
 21
-73.5288645923139
 31
0.0
  0
LINE
  5
   389
  8
0
  6
CONTINUOUS
 62
     1
 10
19.1042580038302
 20
-80.4288602888584
 30
0.0
 11
19.1042580038302
 21
-73.5288645923139
 31
0.0
  0
LINE
  5
   38A
  8
0
  6
CONTINUOUS
 62
     1
 10
18.0242652851339
 20
-80.4288602888584
 30
0.0
 11
18.0242652851339
 21
-73.5288645923139
 31
0.0
  0
LINE
  5
   38B
  8
0
  6
CONTINUOUS
 62
     1
 10
16.9442725664376
 20
-80.4288602888584
 30
0.0
 11
16.9442725664376
 21
-73.5288645923139
 31
0.0
  0
LINE
  5
   38C
  8
0
  6
CONTINUOUS
 62
     1
 10
15.8642615371937
 20
-80.4288602888584
 30
0.0
 11
15.8642615371937
 21
-73.5288645923139
 31
0.0
  0
LINE
  5
   38D
  8
0
  6
CONTINUOUS
 62
     1
 10
14.7842688184974
 20
-80.4288602888584
 30
0.0
 11
14.7842688184974
 21
-73.5288645923139
 31
0.0
  0
LINE
  5
   38E
  8
0
  6
CONTINUOUS
 62
     1
 10
13.7042577892535
 20
-80.4288602888584
 30
0.0
 11
13.7042577892535
 21
-73.5288645923139
 31
0.0
  0
LINE
  5
   38F
  8
0
  6
CONTINUOUS
 62
     1
 10
12.6242650705572
 20
-80.4288602888584
 30
0.0
 11
12.6242650705572
 21
-73.5288645923139
 31
0.0
  0
LINE
  5
   390
  8
0
  6
CONTINUOUS
 62
     1
 10
10.464261322617
 20
-80.4288602888584
 30
0.0
 11
10.464261322617
 21
-73.5288645923139
 31
0.0
  0
LINE
  5
   391
  8
0
  6
CONTINUOUS
 62
     1
 10
9.87927202841239
 20
-33.628877598048
 30
0.0
 11
9.87926622408415
 21
-19.0788590945435
 31
0.0
  0
LINE
  5
   392
  8
0
  6
CONTINUOUS
 62
     1
 10
-31.2207158718475
 20
-33.628877598048
 30
0.0
 11
-31.2207216761746
 21
-19.0788617573384
 31
0.0
  0
LINE
  5
   393
  8
0
  6
CONTINUOUS
 62
     1
 10
9.87926679253542
 20
-19.0788581371307
 30
0.0
 11
-31.2207211077211
 21
-19.0788581371307
 31
0.0
  0
LINE
  5
   394
  8
0
  6
CONTINUOUS
 62
     1
 10
20.4542580574744
 20
-80.7288582980632
 30
0.0
 11
20.4542580574744
 21
-80.4288602888584
 31
0.0
  0
LINE
  5
   395
  8
0
  6
CONTINUOUS
 62
     1
 10
-62.7957086294882
 20
-80.7288582980632
 30
0.0
 11
-62.7957086294882
 21
-80.4288602888584
 31
0.0
  0
LINE
  5
   396
  8
0
  6
CONTINUOUS
 62
     1
 10
-10.2056402094032
 20
-114.478857796362
 30
0.0
 11
-10.2056535632458
 21
-93.0288569440153
 31
0.0
  0
LINE
  5
   397
  8
0
  6
CONTINUOUS
 62
     1
 10
-9.12564162637242
 20
-114.478857796362
 30
0.0
 11
-9.12565472825579
 21
-93.0288569440153
 31
0.0
  0
LINE
  5
   398
  8
0
  6
CONTINUOUS
 62
     1
 10
-7.89564017483209
 20
-114.478857796362
 30
0.0
 11
-7.89565352867471
 21
-93.0288569440153
 31
0.0
  0
LINE
  5
   399
  8
0
  6
CONTINUOUS
 62
     1
 10
-6.81564030357792
 20
-114.478857796362
 30
0.0
 11
-6.81565365742054
 21
-93.0288569440153
 31
0.0
  0
LINE
  5
   39A
  8
0
  6
CONTINUOUS
 62
     1
 10
-5.73565459820295
 20
-114.478857796362
 30
0.0
 11
-5.73566669224932
 21
-93.0288569440153
 31
0.0
  0
LINE
  5
   39B
  8
0
  6
CONTINUOUS
 62
     1
 10
-4.65565272423267
 20
-114.478857796362
 30
0.0
 11
-4.65566481827904
 21
-93.0288569440153
 31
0.0
  0
LINE
  5
   39C
  8
0
  6
CONTINUOUS
 62
     1
 10
-3.57563481632481
 20
-114.478857796362
 30
0.0
 11
-3.57565094171916
 21
-93.0288569440153
 31
0.0
  0
LINE
  5
   39D
  8
0
  6
CONTINUOUS
 62
     1
 10
-2.49565355392902
 20
-114.478857796362
 30
0.0
 11
-2.49566564797539
 21
-93.0288569440153
 31
0.0
  0
LINE
  5
   39E
  8
0
  6
CONTINUOUS
 62
     1
 10
-1.41570435941139
 20
-107.541544046408
 30
0.0
 11
-1.41570435941139
 21
-101.502622868947
 31
0.0
  0
LINE
  5
   39F
  8
0
  6
CONTINUOUS
 62
     1
 10
0.744181086719198
 20
-17.1288330653889
 30
0.0
 11
0.74415127298502
 21
-7.17236945763948
 31
0.0
  0
LINE
  5
   3A0
  8
0
  6
CONTINUOUS
 62
     1
 10
1.82423329353112
 20
-17.1288392246817
 30
0.0
 11
1.82417846126009
 21
7.32100029082621
 31
0.0
  0
LINE
  5
   3A1
  8
0
  6
CONTINUOUS
 62
     1
 10
2.90423516749852
 20
-17.1288368026227
 30
0.0
 11
2.90418033522566
 21
7.32100352479461
 31
0.0
  0
LINE
  5
   3A2
  8
0
  6
CONTINUOUS
 62
     1
 10
3.9842370414659
 20
-17.1288343805636
 30
0.0
 11
3.98418220919123
 21
7.32100675876302
 31
0.0
  0
LINE
  5
   3A3
  8
0
  6
CONTINUOUS
 62
     1
 10
5.06420230491564
 20
-17.1288260440348
 30
0.0
 11
5.06413828236727
 21
7.3210099925943
 31
0.0
  0
LINE
  5
   3A4
  8
0
  6
CONTINUOUS
 62
     1
 10
6.14423163412688
 20
-17.1288295364662
 30
0.0
 11
6.14417680184856
 21
7.32101322667243
 31
0.0
  0
LINE
  5
   3A5
  8
0
  6
CONTINUOUS
 62
     1
 10
7.22423350809427
 20
-17.1288271144072
 30
0.0
 11
7.22417867581413
 21
7.32101646064083
 31
0.0
  0
LINE
  5
   3A6
  8
0
  6
CONTINUOUS
 62
     1
 10
8.30423538206166
 20
-17.1288246923481
 30
0.0
 11
8.3041805497797
 21
7.32101969460925
 31
0.0
  0
LINE
  5
   3A7
  8
0
  6
CONTINUOUS
 62
     1
 10
9.38422810075524
 20
-17.1288222703096
 30
0.0
 11
9.38417326847147
 21
7.32102292855025
 31
0.0
  0
LINE
  5
   3A8
  8
0
  6
CONTINUOUS
 62
     1
 10
20.8292757711631
 20
-17.1288626372816
 30
0.0
 11
-10.6707248687744
 21
-17.1288626372816
 31
0.0
  0
LINE
  5
   3A9
  8
0
  6
CONTINUOUS
 62
     1
 10
-11.2858125374173
 20
-114.478857796362
 30
0.0
 11
-11.285799435534
 21
-93.0288569440153
 31
0.0
  0
LINE
  5
   3AA
  8
0
  6
CONTINUOUS
 62
     1
 10
-12.3658172754626
 20
-114.478857796362
 30
0.0
 11
-12.3658031657423
 21
-93.0288569440153
 31
0.0
  0
LINE
  5
   3AB
  8
0
  6
CONTINUOUS
 62
     1
 10
-13.4458141403536
 20
-114.478857796362
 30
0.0
 11
-13.445800786511
 21
-93.0288569440153
 31
0.0
  0
LINE
  5
   3AC
  8
0
  6
CONTINUOUS
 62
     1
 10
-14.5258140116078
 20
-114.478857796362
 30
0.0
 11
-14.5258006577652
 21
-93.0288569440153
 31
0.0
  0
LINE
  5
   3AD
  8
0
  6
CONTINUOUS
 62
     1
 10
-15.6057997169204
 20
-114.478857796362
 30
0.0
 11
-15.6057876229106
 21
-93.0288569440153
 31
0.0
  0
LINE
  5
   3AE
  8
0
  6
CONTINUOUS
 62
     1
 10
-16.6858015908906
 20
-114.478857796362
 30
0.0
 11
-16.6857894968809
 21
-93.0288569440153
 31
0.0
  0
LINE
  5
   3AF
  8
0
  6
CONTINUOUS
 62
     1
 10
-17.7658194987798
 20
-114.478857796362
 30
0.0
 11
-17.765803373433
 21
-93.0288569440153
 31
0.0
  0
LINE
  5
   3B0
  8
0
  6
CONTINUOUS
 62
     1
 10
-18.8458007611943
 20
-114.478857796362
 30
0.0
 11
-18.8457886671845
 21
-93.0288569440153
 31
0.0
  0
LINE
  5
   3B1
  8
0
  6
CONTINUOUS
 62
     1
 10
-19.9257499557743
 20
-114.478857796362
 30
0.0
 11
-19.9257499557743
 21
-101.50265459283
 31
0.0
  0
LINE
  5
   3B2
  8
0
  6
CONTINUOUS
 62
     1
 10
-19.9257482824642
 20
-5.68396075192108
 30
0.0
 11
-19.9257298398202
 21
7.32099642753013
 31
0.0
  0
LINE
  5
   3B3
  8
0
  6
CONTINUOUS
 62
     1
 10
-20.8557466949456
 20
-4.87813873753062
 30
0.0
 11
-20.8557282436021
 21
7.32099642753018
 31
0.0
  0
LINE
  5
   3B4
  8
0
  6
CONTINUOUS
 62
     1
 10
-21.0057380968337
 20
-114.478857796362
 30
0.0
 11
-21.0057380968337
 21
-102.319483984028
 31
0.0
  0
LINE
  5
   3B5
  8
0
  6
CONTINUOUS
 62
     1
 10
-21.9357368597431
 20
-5.07150590986271
 30
0.0
 11
-21.9357184106074
 21
7.32099642753013
 31
0.0
  0
LINE
  5
   3B6
  8
0
  6
CONTINUOUS
 62
     1
 10
-22.0857399708038
 20
-114.478857796362
 30
0.0
 11
-22.0857399708038
 21
-101.972379389517
 31
0.0
  0
LINE
  5
   3B7
  8
0
  6
CONTINUOUS
 62
     1
 10
-23.1658105580925
 20
-114.478857796362
 30
0.0
 11
-23.1657944327409
 21
-93.0288569440153
 31
0.0
  0
LINE
  5
   3B8
  8
0
  6
CONTINUOUS
 62
     1
 10
-24.245812432063
 20
-114.478857796362
 30
0.0
 11
-24.2457963067113
 21
-93.0288569440153
 31
0.0
  0
LINE
  5
   3B9
  8
0
  6
CONTINUOUS
 62
     1
 10
-25.3258143060334
 20
-114.478857796362
 30
0.0
 11
-25.3257981806817
 21
-93.0288569440153
 31
0.0
  0
LINE
  5
   3BA
  8
0
  6
CONTINUOUS
 62
     1
 10
-26.4058161800038
 20
-114.478857796362
 30
0.0
 11
-26.4058000546521
 21
-93.0288569440153
 31
0.0
  0
LINE
  5
   3BB
  8
0
  6
CONTINUOUS
 62
     1
 10
-27.4858088987004
 20
-114.478857796362
 30
0.0
 11
-27.4857927733487
 21
-93.0288569440153
 31
0.0
  0
LINE
  5
   3BC
  8
0
  6
CONTINUOUS
 62
     1
 10
-28.5658107726708
 20
-114.478857796362
 30
0.0
 11
-28.5657946473191
 21
-93.0288569440153
 31
0.0
  0
LINE
  5
   3BD
  8
0
  6
CONTINUOUS
 62
     1
 10
-29.6458126466474
 20
-114.478857796362
 30
0.0
 11
-29.6457965212921
 21
-93.0288569440153
 31
0.0
  0
LINE
  5
   3BE
  8
0
  6
CONTINUOUS
 62
     1
 10
-30.7258145206178
 20
-114.478857796362
 30
0.0
 11
-30.7257983952625
 21
-93.0288569440153
 31
0.0
  0
LINE
  5
   3BF
  8
0
  6
CONTINUOUS
 62
     1
 10
-31.8057385259872
 20
-17.128844326734
 30
0.0
 11
-31.8057385259872
 21
7.32099642753019
 31
0.0
  0
LINE
  5
   3C0
  8
0
  6
CONTINUOUS
 62
     1
 10
-32.8857358756694
 20
-17.1289092186843
 30
0.0
 11
-32.8857266853803
 21
7.32099642753016
 31
0.0
  0
LINE
  5
   3C1
  8
0
  6
CONTINUOUS
 62
     1
 10
-33.965737802985
 20
-17.1289000565196
 30
0.0
 11
-33.9657194224138
 21
7.32099642753016
 31
0.0
  0
LINE
  5
   3C2
  8
0
  6
CONTINUOUS
 62
     1
 10
-35.0457349926237
 20
-17.128844326734
 30
0.0
 11
-35.0457349926237
 21
7.32099642753019
 31
0.0
  0
LINE
  5
   3C3
  8
0
  6
CONTINUOUS
 62
     1
 10
-36.1257323423057
 20
-17.1289080008267
 30
0.0
 11
-36.125723152017
 21
7.32099642753018
 31
0.0
  0
LINE
  5
   3C4
  8
0
  6
CONTINUOUS
 62
     1
 10
-37.2057387405639
 20
-17.128844326734
 30
0.0
 11
-37.2057387405639
 21
7.32099642753019
 31
0.0
  0
LINE
  5
   3C5
  8
0
  6
CONTINUOUS
 62
     1
 10
-38.2857360902457
 20
-17.1289071889193
 30
0.0
 11
-38.2857268999329
 21
7.3210615673644
 31
0.0
  0
LINE
  5
   3C6
  8
0
  6
CONTINUOUS
 62
     1
 10
-39.3657288089419
 20
-17.1289067829691
 30
0.0
 11
-39.3657196186263
 21
7.32106966972057
 31
0.0
  0
LINE
  5
   3C7
  8
0
  6
CONTINUOUS
 62
     1
 10
-40.4457352072004
 20
-17.128844326734
 30
0.0
 11
-40.4457352072004
 21
7.32105064627309
 31
0.0
  0
LINE
  5
   3C8
  8
0
  6
CONTINUOUS
 62
     1
 10
-41.5257325568717
 20
-17.1288968157844
 30
0.0
 11
-41.5257288869838
 21
-7.36550603489954
 31
0.0
  0
LINE
  5
   3C9
  8
0
  6
CONTINUOUS
 62
     1
 10
-10.6707267194492
 20
-17.1288626372641
 30
0.0
 11
-63.1707263431824
 21
-17.128824361391
 31
0.0
  0
LINE
  5
   3CA
  8
0
  6
CONTINUOUS
 62
     3
 10
20.8292763829231
 20
-15.628862577677
 30
0.0
 11
20.8292763829231
 21
6.87106965183921
 31
0.0
  0
LINE
  5
   3CB
  8
0
  6
CONTINUOUS
 62
     3
 10
20.6042599279418
 20
7.26072934271563
 30
0.0
 11
20.3789098527796
 21
7.32110144734914
 31
0.0
  0
LINE
  5
   3CC
  8
0
  6
CONTINUOUS
 62
     3
 10
20.7689428030258
 20
7.09603021993405
 30
0.0
 11
20.6042348514709
 21
7.26075190318092
 31
0.0
  0
LINE
  5
   3CD
  8
0
  6
CONTINUOUS
 62
     3
 10
20.8292891171715
 20
6.87101525796147
 30
0.0
 11
20.7689970668593
 21
7.09601526525238
 31
0.0
  0
LINE
  5
   3CE
  8
0
  6
CONTINUOUS
 62
     3
 10
-63.170726954937
 20
-15.628862577677
 30
0.0
 11
-63.170726954937
 21
6.87106965183921
 31
0.0
  0
LINE
  5
   3CF
  8
0
  6
CONTINUOUS
 62
     3
 10
-62.9457074773038
 20
7.26073015249507
 30
0.0
 11
-62.7207074744171
 21
7.32100847149293
 31
0.0
  0
LINE
  5
   3D0
  8
0
  6
CONTINUOUS
 62
     3
 10
-63.1103933750396
 20
7.09603021993405
 30
0.0
 11
-62.9456854234847
 21
7.26075190318092
 31
0.0
  0
LINE
  5
   3D1
  8
0
  6
CONTINUOUS
 62
     3
 10
-63.1707396891854
 20
6.87101525796147
 30
0.0
 11
-63.1104476388732
 21
7.09601526525238
 31
0.0
  0
LINE
  5
   3D2
  8
0
  6
CONTINUOUS
 62
     3
 10
20.8292651603305
 20
-92.5788587689399
 30
0.0
 11
20.8292759821135
 21
-15.628867007646
 31
0.0
  0
LINE
  5
   3D3
  8
0
  6
CONTINUOUS
 62
     3
 10
-63.1707157323443
 20
-92.5788587689399
 30
0.0
 11
-63.1707265541273
 21
-15.628867007646
 31
0.0
  0
LINE
  5
   3D4
  8
0
  6
CONTINUOUS
 62
   130
 10
10.3292954979752
 20
-72.9288651406767
 30
0.0
 11
-31.6707556142183
 21
-72.9288651406767
 31
0.0
  0
LINE
  5
   3D5
  8
0
  6
CONTINUOUS
 62
     1
 10
9.95434003770606
 20
-45.6288775026806
 30
0.0
 11
-31.2958080858025
 21
-45.6288775026806
 31
0.0
  0
LINE
  5
   3D6
  8
0
  6
CONTINUOUS
 62
   130
 10
9.95434003770606
 20
-42.0288773596294
 30
0.0
 11
-31.2958080858025
 21
-42.0288773596294
 31
0.0
  0
LINE
  5
   3D7
  8
0
  6
CONTINUOUS
 62
   130
 10
10.3292759656906
 20
-45.0288774788387
 30
0.0
 11
10.3292759656906
 21
-42.0288773596294
 31
0.0
  0
LINE
  5
   3D8
  8
0
  6
CONTINUOUS
 62
   130
 10
-31.6707257032394
 20
-45.0288774788387
 30
0.0
 11
-31.6707257032394
 21
-42.0288773596294
 31
0.0
  0
LINE
  5
   3D9
  8
0
  6
CONTINUOUS
 62
   130
 10
-4.37072461843491
 20
-47.7854663334929
 30
0.0
 11
-16.9707251191139
 21
-47.7854663334929
 31
0.0
  0
LINE
  5
   3DA
  8
0
  6
CONTINUOUS
 62
   130
 10
-4.37072461843491
 20
-47.5788775801666
 30
0.0
 11
-16.9707251191139
 21
-47.5788775801666
 31
0.0
  0
LINE
  5
   3DB
  8
0
  6
CONTINUOUS
 62
   130
 10
-16.9707182152775
 20
-52.1538520221341
 30
0.0
 11
-16.9707227929106
 21
-47.5788793061614
 31
0.0
  0
LINE
  5
   3DC
  8
0
  6
CONTINUOUS
 62
   130
 10
-16.970720541477
 20
-64.8267165478458
 30
0.0
 11
-16.970720541477
 21
-52.4538503080603
 31
0.0
  0
LINE
  5
   3DD
  8
0
  6
CONTINUOUS
 62
   130
 10
-16.970720541477
 20
-68.5788646817209
 30
0.0
 11
-16.970720541477
 21
-65.8038599938154
 31
0.0
  0
LINE
  5
   3DE
  8
0
  6
CONTINUOUS
 62
   130
 10
-16.9707213045141
 20
-70.3788716197108
 30
0.0
 11
-16.9707167268781
 21
-68.5788669705484
 31
0.0
  0
LINE
  5
   3DF
  8
0
  6
CONTINUOUS
 62
   130
 10
-4.37072461843491
 20
-70.3788693308834
 30
0.0
 11
-4.37072461843491
 21
-68.5788646817209
 31
0.0
  0
LINE
  5
   3E0
  8
0
  6
CONTINUOUS
 62
   130
 10
-4.37072461843491
 20
-68.5788646817209
 30
0.0
 11
-4.37072461843491
 21
-65.8038599938154
 31
0.0
  0
LINE
  5
   3E1
  8
0
  6
CONTINUOUS
 62
   130
 10
-4.37072461843491
 20
-64.8267165478458
 30
0.0
 11
-4.37072461843491
 21
-52.4538503080603
 31
0.0
  0
LINE
  5
   3E2
  8
0
  6
CONTINUOUS
 62
   130
 10
-4.37072461843491
 20
-52.1538502961394
 30
0.0
 11
-4.37072461843491
 21
-47.5788775801666
 31
0.0
  0
LINE
  5
   3E3
  8
0
  6
CONTINUOUS
 62
     1
 10
-31.2958080858025
 20
-45.6288775026806
 30
0.0
 11
-31.5609631256357
 21
-45.6288775026806
 31
0.0
  0
LINE
  5
   3E4
  8
0
  6
CONTINUOUS
 62
   130
 10
-31.2958080858025
 20
-72.9288651406767
 30
0.0
 11
-31.3707165360447
 21
-72.9288651406767
 31
0.0
  0
LINE
  5
   3E5
  8
0
  6
CONTINUOUS
 62
   130
 10
-31.2958040730985
 20
-42.0288793072672
 30
0.0
 11
-31.5609591128545
 21
-42.0288701519943
 31
0.0
  0
LINE
  5
   3E6
  8
0
  6
CONTINUOUS
 62
   130
 10
-31.6707556142183
 20
-72.9288651406767
 30
0.0
 11
-31.6707324209464
 21
-71.5038525935778
 31
0.0
  0
LINE
  5
   3E7
  8
0
  6
CONTINUOUS
 62
   130
 10
-31.6707348585132
 20
-71.2038510531183
 30
0.0
 11
-31.6707348585132
 21
-65.8038508385416
 31
0.0
  0
LINE
  5
   3E8
  8
0
  6
CONTINUOUS
 62
   130
 10
-31.670731175353
 20
-65.5038544045247
 30
0.0
 11
-31.6707220200798
 21
-52.4538630412381
 31
0.0
  0
LINE
  5
   3E9
  8
0
  6
CONTINUOUS
 62
   130
 10
-31.6707225243465
 20
-52.1538630117177
 30
0.0
 11
-31.6707316796198
 21
-46.753862797141
 31
0.0
  0
LINE
  5
   3EA
  8
0
  6
CONTINUOUS
 62
     1
 10
-31.5609631435171
 20
-45.6288775026806
 30
0.0
 11
-31.6707623243346
 21
-45.6288775026806
 31
0.0
  0
LINE
  5
   3EB
  8
0
  6
CONTINUOUS
 62
   130
 10
-31.6707339062659
 20
-46.4538611462268
 30
0.0
 11
-31.6707613720858
 21
-45.02887940015
 31
0.0
  0
LINE
  5
   3EC
  8
0
  6
CONTINUOUS
 62
   130
 10
-31.6707582629345
 20
-42.0288796041424
 30
0.0
 11
-31.5609590821275
 21
-42.0288704488693
 31
0.0
  0
LINE
  5
   3ED
  8
0
  6
CONTINUOUS
 62
   130
 10
9.95433610865282
 20
-42.0288793571214
 30
0.0
 11
10.2195094590645
 21
-42.0288702018492
 31
0.0
  0
LINE
  5
   3EE
  8
0
  6
CONTINUOUS
 62
     1
 10
9.95433897772526
 20
-45.6288795018615
 30
0.0
 11
10.219512328106
 21
-45.6288703465893
 31
0.0
  0
LINE
  5
   3EF
  8
0
  6
CONTINUOUS
 62
   130
 10
10.0292667984959
 20
-72.9288651406767
 30
0.0
 11
9.95434003770606
 21
-72.9288651406767
 31
0.0
  0
LINE
  5
   3F0
  8
0
  6
CONTINUOUS
 62
   130
 10
10.3292954979752
 20
-72.9288651406767
 30
0.0
 11
10.3292839013409
 21
-71.5038586954297
 31
0.0
  0
LINE
  5
   3F1
  8
0
  6
CONTINUOUS
 62
   130
 10
10.3292839765744
 20
-71.2038566479599
 30
0.0
 11
10.329274821304
 21
-65.80386101102
 31
0.0
  0
LINE
  5
   3F2
  8
0
  6
CONTINUOUS
 62
   130
 10
10.3292759656906
 20
-65.5038599818945
 30
0.0
 11
10.3292759656906
 21
-52.4538503080603
 31
0.0
  0
LINE
  5
   3F3
  8
0
  6
CONTINUOUS
 62
   130
 10
10.3292759656906
 20
-52.1538502961394
 30
0.0
 11
10.3292759656906
 21
-46.7538500815626
 31
0.0
  0
LINE
  5
   3F4
  8
0
  6
CONTINUOUS
 62
   130
 10
10.3292750172082
 20
-46.4538519932212
 30
0.0
 11
10.3293024830175
 21
-45.0288794024182
 31
0.0
  0
LINE
  5
   3F5
  8
0
  6
CONTINUOUS
 62
   130
 10
10.3293012181772
 20
-45.0288798789193
 30
0.0
 11
10.2195111747648
 21
-45.028870723646
 31
0.0
  0
LINE
  5
   3F6
  8
0
  6
CONTINUOUS
 62
   130
 10
10.3292996149501
 20
-42.0288797491457
 30
0.0
 11
10.2195095715378
 21
-42.0288705938725
 31
0.0
  0
LINE
  5
   3F7
  8
0
  6
CONTINUOUS
 62
   130
 10
-4.37072919607181
 20
-65.8038599938154
 30
0.0
 11
-4.37072919607181
 21
-65.5038599818945
 31
0.0
  0
LINE
  5
   3F8
  8
0
  6
CONTINUOUS
 62
   130
 10
-16.9707251191139
 20
-65.8038599938154
 30
0.0
 11
-16.9707251191139
 21
-65.5038599818945
 31
0.0
  0
LINE
  5
   3F9
  8
0
  6
CONTINUOUS
 62
   130
 10
-4.37072919607181
 20
-52.4538503080603
 30
0.0
 11
-4.37072919607181
 21
-52.1538502961394
 31
0.0
  0
LINE
  5
   3FA
  8
0
  6
CONTINUOUS
 62
   130
 10
-16.970720541477
 20
-52.4538503080603
 30
0.0
 11
-16.970720541477
 21
-52.1538502961394
 31
0.0
  0
LINE
  5
   3FB
  8
0
  6
CONTINUOUS
 62
   210
 10
-4.37072461843491
 20
-67.5084462306186
 30
0.0
 11
-16.970720541477
 21
-67.5084462306186
 31
0.0
  0
LINE
  5
   3FC
  8
0
  6
CONTINUOUS
 62
   210
 10
-4.37072461843491
 20
-65.4267165716876
 30
0.0
 11
-16.970720541477
 21
-65.4267165716876
 31
0.0
  0
LINE
  5
   3FD
  8
0
  6
CONTINUOUS
 62
   210
 10
-4.37072461843491
 20
-70.1827398664095
 30
0.0
 11
-16.970720541477
 21
-70.1827398664095
 31
0.0
  0
LINE
  5
   3FE
  8
0
  6
CONTINUOUS
 62
   210
 10
-4.37072461843491
 20
-72.5119288740516
 30
0.0
 11
-16.970720541477
 21
-72.5119288740516
 31
0.0
  0
LINE
  5
   3FF
  8
0
  6
CONTINUOUS
 62
   210
 10
-16.970720541477
 20
-72.5119288740516
 30
0.0
 11
-16.970720541477
 21
-65.4267165716876
 31
0.0
  0
LINE
  5
   400
  8
0
  6
CONTINUOUS
 62
   210
 10
-4.37072461843491
 20
-72.5119288740516
 30
0.0
 11
-4.37072461843491
 21
-65.4267165716876
 31
0.0
  0
LINE
  5
   401
  8
0
  6
CONTINUOUS
 62
     1
 10
-16.970720541477
 20
-72.103854969921
 30
0.0
 11
-31.3707067422227
 21
-72.1038533776998
 31
0.0
  0
CIRCLE
  5
   402
  8
0
  6
CONTINUOUS
 62
     1
 10
-21.1706963910821
 20
-6.17886379208299
 30
0.0
 40
1.35059393238156
  0
LINE
  5
   403
  8
0
  6
DASHDOT
 62
     7
 10
-21.1706963910821
 20
-8.91526019200739
 30
0.0
 11
-21.1706963910821
 21
-3.43132301981352
 31
0.0
  0
LINE
  5
   404
  8
0
  6
DASHDOT
 62
     7
 10
-18.9271117395369
 20
-6.17886379208299
 30
0.0
 11
-23.0717375231422
 21
-6.17886379208299
 31
0.0
  0
LINE
  5
   405
  8
0
  6
CONTINUOUS
 62
     1
 10
-0.845542119019516
 20
-114.478857796362
 30
0.0
 11
-63.1707126524605
 21
-114.478857796362
 31
0.0
  0
LINE
  5
   406
  8
0
  6
CONTINUOUS
 62
     1
 10
-0.652584384752307
 20
-93.0288569440153
 30
0.0
 11
-63.1707156690593
 21
-93.0288569440153
 31
0.0
  0
LINE
  5
   407
  8
0
  6
CONTINUOUS
 62
     1
 10
-0.636809497587748
 20
-92.7288569320944
 30
0.0
 11
-62.8707156993286
 21
-92.7288569320944
 31
0.0
  0
LINE
  5
   408
  8
0
  6
CONTINUOUS
 62
     1
 10
-0.62892215090565
 20
-92.5788587689399
 30
0.0
 11
-63.1707157323444
 21
-92.5788587689399
 31
0.0
  0
LINE
  5
   409
  8
0
  6
CONTINUOUS
 62
     1
 10
20.829266805748
 20
-80.8788583040237
 30
0.0
 11
12.1292760372162
 21
-80.8788583040237
 31
0.0
  0
LINE
  5
   40A
  8
0
  6
CONTINUOUS
 62
     1
 10
20.8292620804466
 20
-114.478857796362
 30
0.0
 11
20.8292650970455
 21
-93.0288569440153
 31
0.0
  0
LINE
  5
   40B
  8
0
  6
CONTINUOUS
 62
     1
 10
-63.1707126524605
 20
-114.478857796362
 30
0.0
 11
-63.1707156690593
 21
-93.0288569440153
 31
0.0
  0
LINE
  5
   40C
  8
0
  6
CONTINUOUS
 62
     1
 10
-62.8707156571384
 20
-93.0288569440153
 30
0.0
 11
-62.8707156993286
 21
-92.7288569320944
 31
0.0
  0
LINE
  5
   40D
  8
0
  6
CONTINUOUS
 62
     1
 10
20.5292650851245
 20
-93.0288569440153
 30
0.0
 11
20.5292651273147
 21
-92.7288569320944
 31
0.0
  0
LINE
  5
   40E
  8
0
  6
CONTINUOUS
 62
     1
 10
-31.6707257032394
 20
-92.5788587689399
 30
0.0
 11
-31.6707257032394
 21
-81.9288783729083
 31
0.0
  0
LINE
  5
   40F
  8
0
  6
CONTINUOUS
 62
     1
 10
10.3292759656906
 20
-92.5788587689399
 30
0.0
 11
10.3292759656906
 21
-81.9288783729083
 31
0.0
  0
LINE
  5
   410
  8
0
  6
CONTINUOUS
 62
     2
 10
-41.5257187706229
 20
-92.5788587689399
 30
0.0
 11
-41.5257187706229
 21
-80.8788583040237
 31
0.0
  0
LINE
  5
   411
  8
0
  6
CONTINUOUS
 62
     2
 10
-40.445707741379
 20
-92.5788587689399
 30
0.0
 11
-40.445707741379
 21
-80.8788583040237
 31
0.0
  0
LINE
  5
   412
  8
0
  6
CONTINUOUS
 62
     2
 10
-39.3657150226827
 20
-92.5788587689399
 30
0.0
 11
-39.3657150226827
 21
-80.8788583040237
 31
0.0
  0
LINE
  5
   413
  8
0
  6
CONTINUOUS
 62
     2
 10
-38.2857223039864
 20
-92.5788587689399
 30
0.0
 11
-38.2857223039864
 21
-80.8788583040237
 31
0.0
  0
LINE
  5
   414
  8
0
  6
CONTINUOUS
 62
     2
 10
-37.2057112747425
 20
-92.5788587689399
 30
0.0
 11
-37.2057112747425
 21
-80.8788583040237
 31
0.0
  0
LINE
  5
   415
  8
0
  6
CONTINUOUS
 62
     2
 10
-36.1257185560462
 20
-92.5788587689399
 30
0.0
 11
-36.1257185560462
 21
-80.8788583040237
 31
0.0
  0
LINE
  5
   416
  8
0
  6
CONTINUOUS
 62
     2
 10
-35.0457075268023
 20
-92.5788587689399
 30
0.0
 11
-35.0457075268023
 21
-80.8788583040237
 31
0.0
  0
LINE
  5
   417
  8
0
  6
CONTINUOUS
 62
     2
 10
-33.965714808106
 20
-92.5788587689399
 30
0.0
 11
-33.965714808106
 21
-80.8788583040237
 31
0.0
  0
LINE
  5
   418
  8
0
  6
CONTINUOUS
 62
     2
 10
-32.8857220894097
 20
-92.5788587689399
 30
0.0
 11
-32.8857220894097
 21
-81.9288783729083
 31
0.0
  0
LINE
  5
   419
  8
0
  6
CONTINUOUS
 62
     1
 10
-31.8057110601658
 20
-80.4288602888584
 30
0.0
 11
-31.8057110601658
 21
-73.5288645923139
 31
0.0
  0
LINE
  5
   41A
  8
0
  6
CONTINUOUS
 62
     1
 10
-41.5257187706229
 20
-80.4288602888584
 30
0.0
 11
-41.5257187706229
 21
-73.5288645923139
 31
0.0
  0
LINE
  5
   41B
  8
0
  6
CONTINUOUS
 62
     1
 10
-40.445707741379
 20
-80.4288602888584
 30
0.0
 11
-40.445707741379
 21
-73.5288645923139
 31
0.0
  0
LINE
  5
   41C
  8
0
  6
CONTINUOUS
 62
     1
 10
-39.3657150226827
 20
-80.4288602888584
 30
0.0
 11
-39.3657150226827
 21
-73.5288645923139
 31
0.0
  0
LINE
  5
   41D
  8
0
  6
CONTINUOUS
 62
     1
 10
-38.2857223039864
 20
-80.4288602888584
 30
0.0
 11
-38.2857223039864
 21
-73.5288645923139
 31
0.0
  0
LINE
  5
   41E
  8
0
  6
CONTINUOUS
 62
     1
 10
-37.2057112747425
 20
-80.4288602888584
 30
0.0
 11
-37.2057112747425
 21
-73.5288645923139
 31
0.0
  0
LINE
  5
   41F
  8
0
  6
CONTINUOUS
 62
     1
 10
-36.1257185560462
 20
-80.4288602888584
 30
0.0
 11
-36.1257185560462
 21
-73.5288645923139
 31
0.0
  0
LINE
  5
   420
  8
0
  6
CONTINUOUS
 62
     1
 10
-35.0457075268023
 20
-80.4288602888584
 30
0.0
 11
-35.0457075268023
 21
-73.5288645923139
 31
0.0
  0
LINE
  5
   421
  8
0
  6
CONTINUOUS
 62
     1
 10
-33.965714808106
 20
-80.4288602888584
 30
0.0
 11
-33.965714808106
 21
-73.5288645923139
 31
0.0
  0
LINE
  5
   422
  8
0
  6
CONTINUOUS
 62
     2
 10
-31.8057220464943
 20
-114.478857796362
 30
0.0
 11
-31.8057220464943
 21
-93.0288569440153
 31
0.0
  0
LINE
  5
   423
  8
0
  6
CONTINUOUS
 62
     1
 10
20.1842690330741
 20
-91.8005857201036
 30
0.0
 11
20.1842690330741
 21
-80.8788583040237
 31
0.0
  0
LINE
  5
   424
  8
0
  6
CONTINUOUS
 62
     1
 10
19.1042580038302
 20
-91.8005889540994
 30
0.0
 11
19.1042580038302
 21
-80.8788583040237
 31
0.0
  0
LINE
  5
   425
  8
0
  6
CONTINUOUS
 62
     1
 10
18.0242652851339
 20
-91.8005921880404
 30
0.0
 11
18.0242652851339
 21
-80.8788583040237
 31
0.0
  0
LINE
  5
   426
  8
0
  6
CONTINUOUS
 62
     1
 10
16.9442725664376
 20
-91.8005954219814
 30
0.0
 11
16.9442725664376
 21
-80.8788583040237
 31
0.0
  0
LINE
  5
   427
  8
0
  6
CONTINUOUS
 62
     1
 10
15.8642615371937
 20
-91.8005986559772
 30
0.0
 11
15.8642615371937
 21
-80.8788583040237
 31
0.0
  0
LINE
  5
   428
  8
0
  6
CONTINUOUS
 62
     1
 10
14.7842688184974
 20
-91.8006018899182
 30
0.0
 11
14.7842688184974
 21
-80.8788583040237
 31
0.0
  0
LINE
  5
   429
  8
0
  6
CONTINUOUS
 62
     1
 10
13.7042577892535
 20
-91.800605123914
 30
0.0
 11
13.7042577892535
 21
-80.8788583040237
 31
0.0
  0
LINE
  5
   42A
  8
0
  6
CONTINUOUS
 62
     1
 10
12.6242650705572
 20
-91.800608357855
 30
0.0
 11
12.6242650705572
 21
-80.8788583040237
 31
0.0
  0
LINE
  5
   42B
  8
0
  6
CONTINUOUS
 62
     1
 10
11.5442723518609
 20
-91.800611591796
 30
0.0
 11
11.5442723518609
 21
-81.9288783729083
 31
0.0
  0
LINE
  5
   42C
  8
0
  6
CONTINUOUS
 62
     1
 10
10.464261322617
 20
-91.8006148257919
 30
0.0
 11
10.464261322617
 21
-81.9288783729083
 31
0.0
  0
LINE
  5
   42D
  8
0
  6
CONTINUOUS
 62
     1
 10
20.1841598864511
 20
-17.1287748541235
 30
0.0
 11
20.1840866736353
 21
7.32105526791894
 31
0.0
  0
LINE
  5
   42E
  8
0
  6
CONTINUOUS
 62
     1
 10
19.1041488572121
 20
-17.1287780881191
 30
0.0
 11
19.1040756443963
 21
7.32105203392312
 31
0.0
  0
LINE
  5
   42F
  8
0
  6
CONTINUOUS
 62
     1
 10
18.0241561385206
 20
-17.12878132206
 30
0.0
 11
18.0240829257048
 21
7.32104879998212
 31
0.0
  0
LINE
  5
   430
  8
0
  6
CONTINUOUS
 62
     1
 10
16.9441634198291
 20
-17.1287845560009
 30
0.0
 11
16.9440902070134
 21
7.32104556604112
 31
0.0
  0
LINE
  5
   431
  8
0
  6
CONTINUOUS
 62
     1
 10
15.8641523905901
 20
-17.1287877899966
 30
0.0
 11
15.8640791777743
 21
7.32104233204529
 31
0.0
  0
LINE
  5
   432
  8
0
  6
CONTINUOUS
 62
     1
 10
14.7841596718986
 20
-17.1287910239375
 30
0.0
 11
14.7840864590828
 21
7.32103909810429
 31
0.0
  0
LINE
  5
   433
  8
0
  6
CONTINUOUS
 62
     1
 10
13.7041486426595
 20
-17.1287942579332
 30
0.0
 11
13.7040754298438
 21
7.32103586410847
 31
0.0
  0
LINE
  5
   434
  8
0
  6
CONTINUOUS
 62
     1
 10
12.6241559239681
 20
-17.1287974918741
 30
0.0
 11
12.6240827111523
 21
7.32103263016749
 31
0.0
  0
LINE
  5
   435
  8
0
  6
CONTINUOUS
 62
     1
 10
11.5441632052766
 20
-17.128800725815
 30
0.0
 11
11.5440899924608
 21
7.32102939622649
 31
0.0
  0
LINE
  5
   436
  8
0
  6
CONTINUOUS
 62
     1
 10
10.4641631623661
 20
-17.1288039597779
 30
0.0
 11
10.4640899495503
 21
7.32102616226356
 31
0.0
  0
CIRCLE
  5
   437
  8
0
  6
CONTINUOUS
 62
     1
 10
-21.1706963910821
 20
-100.979001708373
 30
0.0
 40
1.35059393238156
  0
LINE
  5
   438
  8
0
  6
DASHDOT
 62
     1
 10
-21.1706963910821
 20
-105.329595759964
 30
0.0
 11
-21.1706963910821
 21
-93.0288569440153
 31
0.0
  0
LINE
  5
   439
  8
0
  6
DASHDOT
 62
     1
 10
-16.8201023394913
 20
-100.979001708373
 30
0.0
 11
-25.521290442673
 21
-100.979001708373
 31
0.0
  0
LINE
  5
   43A
  8
0
  6
CONTINUOUS
 62
     1
 10
-10.2057008152989
 20
-17.1288626372816
 30
0.0
 11
-10.2057160367235
 21
7.32099642753013
 31
0.0
  0
LINE
  5
   43B
  8
0
  6
CONTINUOUS
 62
     1
 10
-9.12570108876083
 20
-17.1288626372816
 30
0.0
 11
-9.12571602298875
 21
7.32099642753016
 31
0.0
  0
LINE
  5
   43C
  8
0
  6
CONTINUOUS
 62
     1
 10
-7.89570078072776
 20
-17.1288626372816
 30
0.0
 11
-7.89571600215232
 21
7.32099642753013
 31
0.0
  0
LINE
  5
   43D
  8
0
  6
CONTINUOUS
 62
     1
 10
-6.81570090947359
 20
-17.1288626372816
 30
0.0
 11
-6.81571613089815
 21
7.32099642753013
 31
0.0
  0
LINE
  5
   43E
  8
0
  6
CONTINUOUS
 62
     1
 10
-5.73570948656233
 20
-17.1288626372816
 30
0.0
 11
-5.7357232720037
 21
7.32099642753013
 31
0.0
  0
LINE
  5
   43F
  8
0
  6
CONTINUOUS
 62
     1
 10
-4.65570761259205
 20
-17.1288626372816
 30
0.0
 11
-4.65572139803343
 21
7.32099642753013
 31
0.0
  0
LINE
  5
   440
  8
0
  6
CONTINUOUS
 62
     1
 10
-3.5757080008003
 20
-17.1288626372816
 30
0.0
 11
-3.57572638138787
 21
7.32099642753012
 31
0.0
  0
LINE
  5
   441
  8
0
  6
CONTINUOUS
 62
     1
 10
-2.4957084422884
 20
-17.1288626372816
 30
0.0
 11
-2.49572222772978
 21
7.32099642753012
 31
0.0
  0
LINE
  5
   442
  8
0
  6
CONTINUOUS
 62
     1
 10
-11.2857530750289
 20
-17.1288626372816
 30
0.0
 11
-11.285738140801
 21
7.32099642753018
 31
0.0
  0
LINE
  5
   443
  8
0
  6
CONTINUOUS
 62
     1
 10
-12.3657532390452
 20
-17.1288626372816
 30
0.0
 11
-12.3657371560307
 21
7.32099642753016
 31
0.0
  0
LINE
  5
   444
  8
0
  6
CONTINUOUS
 62
     1
 10
-13.445753534458
 20
-17.1288626372816
 30
0.0
 11
-13.4457383130334
 21
7.32099642753013
 31
0.0
  0
LINE
  5
   445
  8
0
  6
CONTINUOUS
 62
     1
 10
-14.5257534057121
 20
-17.1288626372816
 30
0.0
 11
-14.5257381842876
 21
7.32099642753013
 31
0.0
  0
LINE
  5
   446
  8
0
  6
CONTINUOUS
 62
     1
 10
-15.605744828727
 20
-17.1288626372816
 30
0.0
 11
-15.6057310433273
 21
7.32099642753013
 31
0.0
  0
LINE
  5
   447
  8
0
  6
CONTINUOUS
 62
     1
 10
-16.6857467026973
 20
-17.1288626372816
 30
0.0
 11
-16.6857329172976
 21
7.32099642753013
 31
0.0
  0
LINE
  5
   448
  8
0
  6
CONTINUOUS
 62
     1
 10
-17.7657463145201
 20
-17.1288626372816
 30
0.0
 11
-17.7657279339867
 21
7.32099642753013
 31
0.0
  0
LINE
  5
   449
  8
0
  6
CONTINUOUS
 62
     1
 10
-18.8457458730009
 20
-17.1288626372816
 30
0.0
 11
-18.8457320876012
 21
7.32099642753013
 31
0.0
  0
LINE
  5
   44A
  8
0
  6
CONTINUOUS
 62
     1
 10
-19.9257499557743
 20
-17.1288626372816
 30
0.0
 11
-19.9257499557743
 21
-6.67380088150276
 31
0.0
  0
LINE
  5
   44B
  8
0
  6
CONTINUOUS
 62
     1
 10
-21.0057380968337
 20
-17.1288626372816
 30
0.0
 11
-21.0057380968337
 21
-7.50332361954315
 31
0.0
  0
LINE
  5
   44C
  8
0
  6
CONTINUOUS
 62
     1
 10
-22.0857399708038
 20
-17.1288626372816
 30
0.0
 11
-22.0857399708038
 21
-7.15034203813411
 31
0.0
  0
LINE
  5
   44D
  8
0
  6
CONTINUOUS
 62
     1
 10
-23.1657373738107
 20
-17.1288626372816
 30
0.0
 11
-23.1657189932718
 21
7.32099642753013
 31
0.0
  0
LINE
  5
   44E
  8
0
  6
CONTINUOUS
 62
     1
 10
-24.2457392477812
 20
-17.1288626372816
 30
0.0
 11
-24.2457208672422
 21
7.32099642753012
 31
0.0
  0
LINE
  5
   44F
  8
0
  6
CONTINUOUS
 62
     1
 10
-25.3257411217516
 20
-17.1288626372816
 30
0.0
 11
-25.3257227412126
 21
7.32099642753012
 31
0.0
  0
LINE
  5
   450
  8
0
  6
CONTINUOUS
 62
     1
 10
-26.405742995722
 20
-17.1288626372816
 30
0.0
 11
-26.405724615183
 21
7.32099642753012
 31
0.0
  0
LINE
  5
   451
  8
0
  6
CONTINUOUS
 62
     1
 10
-27.4857357144186
 20
-17.1288626372816
 30
0.0
 11
-27.4857173338796
 21
7.32099642753012
 31
0.0
  0
LINE
  5
   452
  8
0
  6
CONTINUOUS
 62
     1
 10
-28.565737588389
 20
-17.1288626372816
 30
0.0
 11
-28.5657192078501
 21
7.32099642753013
 31
0.0
  0
LINE
  5
   453
  8
0
  6
CONTINUOUS
 62
     1
 10
-29.645739462349
 20
-17.1288626372816
 30
0.0
 11
-29.6457210818059
 21
7.32099642753012
 31
0.0
  0
LINE
  5
   454
  8
0
  6
CONTINUOUS
 62
     1
 10
-30.7257413363194
 20
-17.1288626372816
 30
0.0
 11
-30.7257229557763
 21
7.32099642753012
 31
0.0
  0
LINE
  5
   455
  8
0
  6
CONTINUOUS
 62
     1
 10
-1.41570435941139
 20
-100.455179501425
 30
0.0
 11
-1.41570435941139
 21
-93.0288569440153
 31
0.0
  0
LINE
  5
   456
  8
0
  6
CONTINUOUS
 62
     1
 10
-19.9257499557743
 20
-100.455348823916
 30
0.0
 11
-19.9257499557743
 21
-93.0288569440153
 31
0.0
  0
LINE
  5
   457
  8
0
  6
CONTINUOUS
 62
     1
 10
-21.0057380968337
 20
-99.6385194327182
 30
0.0
 11
-21.0057380968337
 21
-93.0288569440153
 31
0.0
  0
LINE
  5
   458
  8
0
  6
CONTINUOUS
 62
     1
 10
-22.0857399708038
 20
-99.9856240272285
 30
0.0
 11
-22.0857399708038
 21
-93.0288569440153
 31
0.0
  0
LINE
  5
   459
  8
0
  6
DASHDOT
 62
     7
 10
-10.6707248687744
 20
-130.290494370162
 30
0.0
 11
-10.6707248687744
 21
14.6941923206398
 31
0.0
  0
LINE
  5
   45A
  8
0
  6
DASHDOT
 62
     7
 10
10.3292759656906
 20
-25.5290018346532
 30
0.0
 11
10.3292759656906
 21
12.8605641754068
 31
0.0
  0
LINE
  5
   45B
  8
0
  6
CONTINUOUS
 62
     5
 10
1.47943102389789
 20
-105.478927850449
 30
0.0
 11
1.47939778594559
 21
-94.3789274094245
 31
0.0
  0
LINE
  5
   45C
  8
0
  6
CONTINUOUS
 62
     5
 10
2.82945308645039
 20
-112.828924100025
 30
0.0
 11
2.82943377250513
 21
-106.378923843754
 31
0.0
  0
LINE
  5
   45D
  8
0
  6
CONTINUOUS
 62
     5
 10
3.27945445073663
 20
-113.27892277042
 30
0.0
 11
10.3294547305914
 21
-113.278901659829
 31
0.0
  0
ARC
  5
   45E
  8
0
  6
CONTINUOUS
 62
     5
 10
3.27945310432976
 20
-112.828922752541
 30
0.0
 40
0.450000017881394
 50
180.000171515089
 51
270.000171515089
  0
CIRCLE
  5
   45F
  8
0
  6
CONTINUOUS
 62
     5
 10
13.6294422865175
 20
-109.078891611401
 30
0.0
 40
1.65000006556511
  0
LINE
  5
   460
  8
0
  6
CONTINUOUS
 62
     5
 10
1.9294323901494
 20
-105.928926520844
 30
0.0
 11
2.37943240983001
 21
-105.928925173359
 31
0.0
  0
LINE
  5
   461
  8
0
  6
CONTINUOUS
 62
     5
 10
1.92939645589323
 20
-93.9289260440606
 30
0.0
 11
3.1293965026799
 21
-93.9289224507685
 31
0.0
  0
ARC
  5
   462
  8
0
  6
CONTINUOUS
 62
     5
 10
2.37943375462575
 20
-106.378925191239
 30
0.0
 40
0.450000017881394
 50
360.000171515089
 51
450.000171515089
  0
ARC
  5
   463
  8
0
  6
CONTINUOUS
 62
     5
 10
1.92943104177727
 20
-105.478926502965
 30
0.0
 40
0.450000017881394
 50
180.000171515089
 51
270.000171515089
  0
ARC
  5
   464
  8
0
  6
CONTINUOUS
 62
     5
 10
1.92939780382496
 20
-94.37892606194
 30
0.0
 40
0.450000017881394
 50
90.0001715150895
 51
180.000171515089
  0
CIRCLE
  5
   465
  8
0
  6
CONTINUOUS
 62
     1
 10
6.27940651093337
 20
-97.2289818140455
 30
0.0
 40
1.95000007748604
  0
LINE
  5
   466
  8
0
  6
CONTINUOUS
 62
     5
 10
3.57939517441357
 20
-93.4789210854045
 30
0.0
 11
3.57939472525205
 21
-93.3289210794447
 31
0.0
  0
ARC
  5
   467
  8
0
  6
CONTINUOUS
 62
     5
 10
3.12939515653419
 20
-93.4789224328891
 30
0.0
 40
0.450000017881394
 50
270.000171515089
 51
360.000171515089
  0
LINE
  5
   468
  8
0
  6
DASHDOT
 62
     5
 10
7.02945594829368
 20
-113.728911559261
 30
0.0
 11
7.02942810027958
 21
-104.428911189754
 31
0.0
  0
LINE
  5
   469
  8
0
  6
DASHDOT
 62
     5
 10
2.37944184008071
 20
-109.078925298515
 30
0.0
 11
11.6794422069486
 21
-109.078897450501
 31
0.0
  0
LINE
  5
   46A
  8
0
  6
DASHDOT
 62
     5
 10
7.02943483790796
 20
-106.678979943705
 30
0.0
 11
7.02940968486297
 21
-98.2789796099565
 31
0.0
  0
LINE
  5
   46B
  8
0
  6
DASHDOT
 62
     5
 10
2.82942209602323
 20
-102.478992353353
 30
0.0
 11
56.5171859063608
 21
-102.478831590176
 31
0.0
  0
LINE
  5
   46C
  8
0
  6
DASHDOT
 62
     5
 10
1.32940631523502
 20
-97.2289966363756
 30
0.0
 11
11.2294067083437
 21
-97.2289669917154
 31
0.0
  0
LINE
  5
   46D
  8
0
  6
CONTINUOUS
 62
     5
 10
10.3294547305914
 20
-113.278901659829
 30
0.0
 11
17.3794550161411
 21
-113.278880549237
 31
0.0
  0
LINE
  5
   46E
  8
0
  6
CONTINUOUS
 62
     5
 10
17.8294536824296
 20
-112.828879183874
 30
0.0
 11
17.8294343684843
 21
-106.378878927602
 31
0.0
  0
LINE
  5
   46F
  8
0
  6
CONTINUOUS
 62
     5
 10
19.1794317271534
 20
-105.47887484939
 30
0.0
 11
19.1793984892011
 21
-94.3788744083654
 31
0.0
  0
LINE
  5
   470
  8
0
  6
CONTINUOUS
 62
     5
 10
17.0793957107949
 20
-93.4788806608679
 30
0.0
 11
17.0793952616333
 21
-93.3288806549081
 31
0.0
  0
ARC
  5
   471
  8
0
  6
CONTINUOUS
 62
     5
 10
17.5293957286742
 20
-93.4788793133834
 30
0.0
 40
0.450000017881394
 50
180.000171515089
 51
270.000171515089
  0
LINE
  5
   472
  8
0
  6
CONTINUOUS
 62
     5
 10
17.5293970755098
 20
-93.9288793312627
 30
0.0
 11
18.7293971251439
 21
-93.9288757379706
 31
0.0
  0
ARC
  5
   473
  8
0
  6
CONTINUOUS
 62
     5
 10
18.7293984713217
 20
-94.37887575585
 30
0.0
 40
0.450000017881394
 50
360.000171515089
 51
450.000171515089
  0
ARC
  5
   474
  8
0
  6
CONTINUOUS
 62
     5
 10
18.729431709274
 20
-105.478876196875
 30
0.0
 40
0.450000017881394
 50
270.000171515089
 51
360.000171515089
  0
ARC
  5
   475
  8
0
  6
CONTINUOUS
 62
     5
 10
18.2794343863637
 20
-106.378877580118
 30
0.0
 40
0.450000017881394
 50
90.0001715150895
 51
180.000171515089
  0
LINE
  5
   476
  8
0
  6
CONTINUOUS
 62
     5
 10
18.2794330397195
 20
-105.928877562239
 30
0.0
 11
18.7294330594001
 21
-105.928876214754
 31
0.0
  0
ARC
  5
   477
  8
0
  6
CONTINUOUS
 62
     5
 10
17.3794536645502
 20
-112.828880531358
 30
0.0
 40
0.450000017881394
 50
270.000171515089
 51
360.000171515089
  0
CIRCLE
  5
   478
  8
0
  6
CONTINUOUS
 62
     1
 10
14.3794068327622
 20
-97.2289575593236
 30
0.0
 40
1.95000007748604
  0
LINE
  5
   479
  8
0
  6
DASHDOT
 62
     5
 10
13.6294351001388
 20
-106.678960180598
 30
0.0
 11
13.6294099470938
 21
-98.2789598468497
 31
0.0
  0
LINE
  5
   47A
  8
0
  6
DASHDOT
 62
     5
 10
9.42942235904484
 20
-102.478972590246
 30
0.0
 11
17.8294226922465
 21
-102.478947437201
 31
0.0
  0
LINE
  5
   47B
  8
0
  6
DASHDOT
 62
     5
 10
14.3794216550922
 20
-102.178957755997
 30
0.0
 11
14.3793920104321
 21
-92.2789573626504
 31
0.0
  0
LINE
  5
   47C
  8
0
  6
DASHDOT
 62
     5
 10
9.42940663816371
 20
-97.2289723816536
 30
0.0
 11
19.3294070312724
 21
-97.2289427369935
 31
0.0
  0
LINE
  5
   47D
  8
0
  6
DASHDOT
 62
     7
 10
-31.6707257032394
 20
-25.5290018346532
 30
0.0
 11
-31.6707257032394
 21
12.8605641754068
 31
0.0
  0
LINE
  5
   47E
  8
0
  6
CONTINUOUS
 62
     5
 10
19.2544586798243
 20
-114.478874982397
 30
0.0
 11
19.2543953480503
 21
-93.3288741420661
 31
0.0
  0
LINE
  5
   47F
  8
0
  6
CONTINUOUS
 62
     5
 10
1.40445797060906
 20
-114.478928432617
 30
0.0
 11
1.40439463883507
 21
-93.3289275922867
 31
0.0
  0
LINE
  5
   480
  8
0
  6
CONTINUOUS
 62
     5
 10
1.40439463764346
 20
-93.3289275922867
 30
0.0
 11
19.2543953471206
 21
-93.3288741420661
 31
0.0
  0
LINE
  5
   481
  8
0
  6
CONTINUOUS
 62
     5
 10
18.6544586559851
 20
-114.478876779043
 30
0.0
 11
18.6544330537786
 21
-105.928876439335
 31
0.0
  0
LINE
  5
   482
  8
0
  6
CONTINUOUS
 62
     5
 10
2.00445799444822
 20
-114.478926635971
 30
0.0
 11
2.00443239224172
 21
-105.928926296263
 31
0.0
  0
LINE
  5
   483
  8
0
  6
CONTINUOUS
 62
     5
 10
18.6543971208572
 20
-93.9288759625514
 30
0.0
 11
18.6543953242111
 21
-93.3288759387122
 31
0.0
  0
LINE
  5
   484
  8
0
  6
CONTINUOUS
 62
     5
 10
2.0043964593203
 20
-93.9289258194798
 30
0.0
 11
2.00439466267423
 21
-93.3289257956407
 31
0.0
  0
LINE
  5
   485
  8
0
  6
CONTINUOUS
 62
     5
 10
0.5044556893652
 20
-113.728931097788
 30
0.0
 11
0.804455702485605
 21
-113.728930199465
 31
0.0
  0
LINE
  5
   486
  8
0
  6
CONTINUOUS
 62
     5
 10
-1.14554842148556
 20
-112.378935984926
 30
0.0
 11
0.804451658102112
 21
-112.378930145826
 31
0.0
  0
LINE
  5
   487
  8
0
  6
CONTINUOUS
 62
     5
 10
-1.145544376515
 20
-113.728936038564
 30
0.0
 11
-1.14554841896866
 21
-112.378935984926
 31
0.0
  0
LINE
  5
   488
  8
0
  6
CONTINUOUS
 62
     5
 10
0.804455700962299
 20
-113.728930199465
 30
0.0
 11
0.804451658508638
 21
-112.378930145826
 31
0.0
  0
LINE
  5
   489
  8
0
  6
CONTINUOUS
 62
     5
 10
-0.845542118787828
 20
-114.47893517004
 30
0.0
 11
-0.845544364595415
 21
-113.728935140241
 31
0.0
  0
LINE
  5
   48A
  8
0
  6
CONTINUOUS
 62
     5
 10
-1.14554437710207
 20
-113.728936038564
 30
0.0
 11
-0.845544363981666
 21
-113.728935140241
 31
0.0
  0
LINE
  5
   48B
  8
0
  6
CONTINUOUS
 62
     5
 10
0.504457934850306
 20
-114.478931127586
 30
0.0
 11
0.504455689042716
 21
-113.728931097788
 31
0.0
  0
LINE
  5
   48C
  8
0
  6
CONTINUOUS
 62
     1
 10
-1.80661057136352
 20
-114.975630073284
 30
0.0
 11
-0.571948419677851
 21
-91.4953568795623
 31
0.0
  0
LINE
  5
   48D
  8
0
  6
CONTINUOUS
 62
     1
 10
-0.985786406334334
 20
-91.8006491119293
 30
0.0
 11
21.4429252240159
 21
-91.8005819511709
 31
0.0
  0
CIRCLE
  5
   48E
  8
0
  6
CONTINUOUS
 62
     5
 10
7.02942226138546
 20
-102.478979776831
 30
0.0
 40
1.65000006556511
  0
LINE
  5
   48F
  8
0
  6
CONTINUOUS
 62
     5
 10
0.504457934188407
 20
-114.478931127586
 30
0.0
 11
2.00445799409548
 21
-114.478926635971
 31
0.0
  0
LINE
  5
   490
  8
0
  6
CONTINUOUS
 62
     5
 10
-62.7208248355786
 20
7.32097703001095
 30
0.0
 11
20.3789098527796
 21
7.32110144734916
 31
0.0
  0
LINE
  5
   491
  8
0
  6
CONTINUOUS
 62
     1
 10
-1.41570839937323
 20
-17.1288620283506
 30
0.0
 11
-1.41571427802666
 21
-6.70248221142543
 31
0.0
  0
LINE
  5
   492
  8
0
  6
CONTINUOUS
 62
     1
 10
-0.335708356458063
 20
-17.1288614194196
 30
0.0
 11
-0.335713774543072
 21
-7.51934580514927
 31
0.0
  0
INSERT
  5
   493
  8
0
  6
CONTINUOUS
 62
     7
  2
*HATCH255
 10
-10.6707248687744
 20
-77.8788604736328
 30
0.0
 41
0.300000011920929
 42
0.300000011920929
 50
89.9999999480344
 43
0.300000011920929
  0
LINE
  5
   494
  8
0
  6
DASHDOT
 62
     7
 10
40.413628858224
 20
-57.7788779854782
 30
0.0
 11
-46.202492391714
 21
-57.7788779854782
 31
0.0
  0
CIRCLE
  5
   495
  8
0
  6
CONTINUOUS
 62
     1
 10
-0.170753346466691
 20
-6.17886379208299
 30
0.0
 40
1.35059393238156
  0
LINE
  5
   496
  8
0
  6
DASHDOT
 62
     7
 10
-0.170753346466702
 20
-9.29533504552577
 30
0.0
 11
-0.170753346466702
 21
-2.94265535100416
 31
0.0
  0
LINE
  5
   497
  8
0
  6
DASHDOT
 62
     7
 10
2.3570800574928
 20
-6.17886379208299
 30
0.0
 11
-2.92777028666764
 21
-6.17886379208299
 31
0.0
  0
LINE
  5
   498
  8
0
  6
CONTINUOUS
 62
     1
 10
0.744145323042016
 20
-5.18535264734521
 30
0.0
 11
0.744107873903415
 21
7.32099705665205
 31
0.0
  0
LINE
  5
   499
  8
0
  6
CONTINUOUS
 62
     1
 10
-0.335715286137468
 20
-4.83838196503521
 30
0.0
 11
-0.335722141883188
 21
7.3209687027271
 31
0.0
  0
LINE
  5
   49A
  8
0
  6
CONTINUOUS
 62
     1
 10
-1.41571486848416
 20
-5.65524677662106
 30
0.0
 11
-1.41572218485508
 21
7.32106881631714
 31
0.0
  0
LINE
  5
   49B
  8
0
  6
CONTINUOUS
 62
     7
 10
18.6544586559851
 20
-114.478876779043
 30
0.0
 11
20.8292620804466
 21
-114.478857796362
 31
0.0
  0
LINE
  5
   49C
  8
0
  6
CONTINUOUS
 62
     7
 10
-39.1707260012627
 20
7.32101228933668
 30
0.0
 11
-39.1707260012627
 21
27.4211391329763
 31
0.0
  0
LINE
  5
   49D
  8
0
  6
CONTINUOUS
 62
     7
 10
-24.1707254052162
 20
7.32101228933668
 30
0.0
 11
-24.1707254052162
 21
27.4211391329763
 31
0.0
  0
LINE
  5
   49E
  8
0
  6
CONTINUOUS
 62
     7
 10
-24.1707254052162
 20
27.4211391329763
 30
0.0
 11
-39.1707260012627
 21
27.4211391329763
 31
0.0
  0
CIRCLE
  5
   49F
  8
0
  6
CONTINUOUS
 62
     7
 10
-28.3707255721092
 20
23.2211389660833
 30
0.0
 40
1.65000006556511
  0
CIRCLE
  5
   4A0
  8
0
  6
CONTINUOUS
 62
     7
 10
-34.9707258343697
 20
23.2211389660833
 30
0.0
 40
1.65000006556511
  0
CIRCLE
  5
   4A1
  8
0
  6
CONTINUOUS
 62
     7
 10
-34.9707258343697
 20
16.6211387038229
 30
0.0
 40
1.65000006556511
  0
CIRCLE
  5
   4A2
  8
0
  6
CONTINUOUS
 62
     7
 10
-28.3707255721092
 20
16.6211387038229
 30
0.0
 40
1.65000006556511
  0
LINE
  5
   4A3
  8
0
  6
CONTINUOUS
 62
     7
 10
-3.17072457075119
 20
27.4211391329763
 30
0.0
 11
-18.1707251667977
 21
27.4211391329763
 31
0.0
  0
LINE
  5
   4A4
  8
0
  6
CONTINUOUS
 62
     7
 10
17.8292762637138
 20
27.4211391329763
 30
0.0
 11
2.82927566766737
 21
27.4211391329763
 31
0.0
  0
CIRCLE
  5
   4A5
  8
0
  6
CONTINUOUS
 62
     7
 10
-7.37072473764419
 20
23.2211389660833
 30
0.0
 40
1.65000006556511
  0
CIRCLE
  5
   4A6
  8
0
  6
CONTINUOUS
 62
     7
 10
-13.9707249999046
 20
23.2211389660833
 30
0.0
 40
1.65000006556511
  0
CIRCLE
  5
   4A7
  8
0
  6
CONTINUOUS
 62
     7
 10
-7.37072473764419
 20
16.6211387038229
 30
0.0
 40
1.65000006556511
  0
CIRCLE
  5
   4A8
  8
0
  6
CONTINUOUS
 62
     7
 10
-13.9707249999046
 20
16.6211387038229
 30
0.0
 40
1.65000006556511
  0
LINE
  5
   4A9
  8
0
  6
CONTINUOUS
 62
     7
 10
-18.1707251667977
 20
7.32101228933668
 30
0.0
 11
-18.1707251667977
 21
27.4211391329763
 31
0.0
  0
LINE
  5
   4AA
  8
0
  6
CONTINUOUS
 62
     7
 10
-3.17072457075119
 20
7.32101228933668
 30
0.0
 11
-3.17072457075119
 21
27.4211391329763
 31
0.0
  0
CIRCLE
  5
   4AB
  8
0
  6
CONTINUOUS
 62
     7
 10
7.0292758345604
 20
23.2211389660833
 30
0.0
 40
1.65000006556511
  0
CIRCLE
  5
   4AC
  8
0
  6
CONTINUOUS
 62
     7
 10
13.6292760968208
 20
23.2211389660833
 30
0.0
 40
1.65000006556511
  0
CIRCLE
  5
   4AD
  8
0
  6
CONTINUOUS
 62
     7
 10
7.0292758345604
 20
16.6211387038229
 30
0.0
 40
1.65000006556511
  0
CIRCLE
  5
   4AE
  8
0
  6
CONTINUOUS
 62
     7
 10
13.6292760968208
 20
16.6211387038229
 30
0.0
 40
1.65000006556511
  0
LINE
  5
   4AF
  8
0
  6
CONTINUOUS
 62
     7
 10
2.82927566766737
 20
7.32101228933668
 30
0.0
 11
2.82927566766737
 21
27.4211391329763
 31
0.0
  0
LINE
  5
   4B0
  8
0
  6
CONTINUOUS
 62
     7
 10
17.8292762637138
 20
7.32101228933668
 30
0.0
 11
17.8292762637138
 21
27.4211391329763
 31
0.0
  0
LINE
  5
   4B1
  8
0
  6
DASHDOT
 62
     7
 10
13.6292760968208
 20
20.9711388766764
 30
0.0
 11
13.6292760968208
 21
25.4711390554903
 31
0.0
  0
LINE
  5
   4B2
  8
0
  6
DASHDOT
 62
     7
 10
15.8792761862278
 20
23.2211389660833
 30
0.0
 11
11.3792760074139
 21
23.2211389660833
 31
0.0
  0
LINE
  5
   4B3
  8
0
  6
DASHDOT
 62
     7
 10
13.6292760968208
 20
14.3711386144159
 30
0.0
 11
13.6292760968208
 21
18.8711387932298
 31
0.0
  0
LINE
  5
   4B4
  8
0
  6
DASHDOT
 62
     7
 10
15.8792761862278
 20
16.6211387038229
 30
0.0
 11
11.3792760074139
 21
16.6211387038229
 31
0.0
  0
LINE
  5
   4B5
  8
0
  6
DASHDOT
 62
     7
 10
7.0292758345604
 20
14.3711386144159
 30
0.0
 11
7.0292758345604
 21
18.8711387932298
 31
0.0
  0
LINE
  5
   4B6
  8
0
  6
DASHDOT
 62
     7
 10
9.27927592396737
 20
16.6211387038229
 30
0.0
 11
4.77927574515343
 21
16.6211387038229
 31
0.0
  0
LINE
  5
   4B7
  8
0
  6
DASHDOT
 62
     7
 10
7.0292758345604
 20
20.9711388766764
 30
0.0
 11
7.0292758345604
 21
25.4711390554903
 31
0.0
  0
LINE
  5
   4B8
  8
0
  6
DASHDOT
 62
     7
 10
9.27927592396737
 20
23.2211389660833
 30
0.0
 11
4.77927574515343
 21
23.2211389660833
 31
0.0
  0
LINE
  5
   4B9
  8
0
  6
DASHDOT
 62
     7
 10
-7.37072473764419
 20
20.9711388766764
 30
0.0
 11
-7.37072473764419
 21
25.4711390554903
 31
0.0
  0
LINE
  5
   4BA
  8
0
  6
DASHDOT
 62
     7
 10
-5.12072464823722
 20
23.2211389660833
 30
0.0
 11
-9.62072482705116
 21
23.2211389660833
 31
0.0
  0
LINE
  5
   4BB
  8
0
  6
DASHDOT
 62
     7
 10
-7.37072473764419
 20
14.3711386144159
 30
0.0
 11
-7.37072473764419
 21
18.8711387932298
 31
0.0
  0
LINE
  5
   4BC
  8
0
  6
DASHDOT
 62
     7
 10
-5.12072464823722
 20
16.6211387038229
 30
0.0
 11
-9.62072482705116
 21
16.6211387038229
 31
0.0
  0
LINE
  5
   4BD
  8
0
  6
DASHDOT
 62
     7
 10
-13.9707249999046
 20
14.3711386144159
 30
0.0
 11
-13.9707249999046
 21
18.8711387932298
 31
0.0
  0
LINE
  5
   4BE
  8
0
  6
DASHDOT
 62
     7
 10
-11.7207249104977
 20
16.6211387038229
 30
0.0
 11
-16.2207250893116
 21
16.6211387038229
 31
0.0
  0
LINE
  5
   4BF
  8
0
  6
DASHDOT
 62
     7
 10
-13.9707249999046
 20
20.9711388766764
 30
0.0
 11
-13.9707249999046
 21
25.4711390554903
 31
0.0
  0
LINE
  5
   4C0
  8
0
  6
DASHDOT
 62
     7
 10
-11.7207249104977
 20
23.2211389660833
 30
0.0
 11
-16.2207250893116
 21
23.2211389660833
 31
0.0
  0
LINE
  5
   4C1
  8
0
  6
DASHDOT
 62
     7
 10
-28.3707255721092
 20
20.9711388766764
 30
0.0
 11
-28.3707255721092
 21
25.4711390554903
 31
0.0
  0
LINE
  5
   4C2
  8
0
  6
DASHDOT
 62
     7
 10
-26.1207254827023
 20
23.2211389660833
 30
0.0
 11
-30.6207256615162
 21
23.2211389660833
 31
0.0
  0
LINE
  5
   4C3
  8
0
  6
DASHDOT
 62
     7
 10
-28.3707255721092
 20
14.3711386144159
 30
0.0
 11
-28.3707255721092
 21
18.8711387932298
 31
0.0
  0
LINE
  5
   4C4
  8
0
  6
DASHDOT
 62
     7
 10
-26.1207254827023
 20
16.6211387038229
 30
0.0
 11
-30.6207256615162
 21
16.6211387038229
 31
0.0
  0
LINE
  5
   4C5
  8
0
  6
DASHDOT
 62
     7
 10
-34.9707258343697
 20
14.3711386144159
 30
0.0
 11
-34.9707258343697
 21
18.8711387932298
 31
0.0
  0
LINE
  5
   4C6
  8
0
  6
DASHDOT
 62
     7
 10
-32.7207257449627
 20
16.6211387038229
 30
0.0
 11
-37.2207259237766
 21
16.6211387038229
 31
0.0
  0
LINE
  5
   4C7
  8
0
  6
DASHDOT
 62
     7
 10
-34.9707258343697
 20
20.9711388766764
 30
0.0
 11
-34.9707258343697
 21
25.4711390554903
 31
0.0
  0
LINE
  5
   4C8
  8
0
  6
DASHDOT
 62
     7
 10
-32.7207257449627
 20
23.2211389660833
 30
0.0
 11
-37.2207259237766
 21
23.2211389660833
 31
0.0
  0
LINE
  5
   4C9
  8
0
  6
CONTINUOUS
 62
     1
 10
-62.7957275014407
 20
9.42097700131517
 30
0.0
 11
20.4542758064305
 21
9.42110164363632
 31
0.0
  0
LINE
  5
   4CA
  8
0
  6
CONTINUOUS
 62
     1
 10
-63.170726954937
 20
7.62100780964276
 30
0.0
 11
-63.170726954937
 21
9.04600842772065
 31
0.0
  0
LINE
  5
   4CB
  8
0
  6
CONTINUOUS
 62
     1
 10
-63.1707269602725
 20
7.6210078096428
 30
0.0
 11
-62.8707269488583
 21
7.62100825880432
 31
0.0
  0
LINE
  5
   4CC
  8
0
  6
CONTINUOUS
 62
     1
 10
-62.8707269430173
 20
7.32100824688257
 30
0.0
 11
-62.8707269430173
 21
7.62100825880384
 31
0.0
  0
ARC
  5
   4CD
  8
0
  6
CONTINUOUS
 62
     1
 10
-62.7957269400358
 20
9.04600842772065
 30
0.0
 40
0.375000014901161
 50
89.9999999480344
 51
179.999999948034
  0
ARC
  5
   4CE
  8
0
  6
CONTINUOUS
 62
     1
 10
20.454276368022
 20
9.04600842772065
 30
0.0
 40
0.375000014901161
 50
359.999999948034
 51
450.000085731562
  0
LINE
  5
   4CF
  8
0
  6
CONTINUOUS
 62
     1
 10
20.8292763829231
 20
7.62100780964276
 30
0.0
 11
20.8292763829231
 21
9.04600842772065
 31
0.0
  0
LINE
  5
   4D0
  8
0
  6
CONTINUOUS
 62
     1
 10
20.8292763895357
 20
7.6210078096428
 30
0.0
 11
20.5292763781215
 21
7.62100825880432
 31
0.0
  0
LINE
  5
   4D1
  8
0
  6
CONTINUOUS
 62
     1
 10
20.5292763710034
 20
7.32100824688257
 30
0.0
 11
20.5292763710034
 21
7.62100825880384
 31
0.0
  0
LINE
  5
   4D2
  8
0
  6
CONTINUOUS
 62
     1
 10
-62.8705436851181
 20
-114.778996604797
 30
0.0
 11
-62.8705445834411
 21
-114.478996592877
 31
0.0
  0
LINE
  5
   4D3
  8
0
  6
CONTINUOUS
 62
     1
 10
-63.1705436862505
 20
-114.778997053959
 30
0.0
 11
-62.8705436828139
 21
-114.778996604798
 31
0.0
  0
LINE
  5
   4D4
  8
0
  6
CONTINUOUS
 62
     1
 10
-63.1705394300017
 20
-116.203997672031
 30
0.0
 11
-63.1705436970378
 21
-114.778997053959
 31
0.0
  0
ARC
  5
   4D5
  8
0
  6
CONTINUOUS
 62
     1
 10
-62.7955394151022
 20
-116.203996549127
 30
0.0
 40
0.375000014901161
 50
180.000171515089
 51
270.000171515089
  0
LINE
  5
   4D6
  8
0
  6
CONTINUOUS
 62
     1
 10
-62.7955388536033
 20
-116.579028005334
 30
0.0
 11
20.454464454268
 21
-116.578903363013
 31
0.0
  0
ARC
  5
   4D7
  8
0
  6
CONTINUOUS
 62
     1
 10
20.4544638926765
 20
-116.203810147097
 30
0.0
 40
0.375000014901161
 50
270.000171515089
 51
360.000171515089
  0
LINE
  5
   4D8
  8
0
  6
CONTINUOUS
 62
     1
 10
20.829463907576
 20
-116.203809024193
 30
0.0
 11
20.8294596405399
 21
-114.778808406122
 31
0.0
  0
LINE
  5
   4D9
  8
0
  6
CONTINUOUS
 62
     1
 10
20.5294596380697
 20
-114.778809753606
 30
0.0
 11
20.8294596506196
 21
-114.778808406122
 31
0.0
  0
LINE
  5
   4DA
  8
0
  6
CONTINUOUS
 62
     1
 10
20.5294596286229
 20
-114.778809753606
 30
0.0
 11
20.5294587302998
 21
-114.478809741686
 31
0.0
  0
LINE
  5
   4DB
  8
0
  6
CONTINUOUS
 62
     1
 10
18.2475339865588
 20
-114.478857796362
 30
0.0
 11
-0.632573769620944
 21
-114.478857796362
 31
0.0
  0
LINE
  5
   4DC
  8
0
  6
CONTINUOUS
 62
     7
 10
-60.1707268357277
 20
7.32101228933668
 30
0.0
 11
-60.1707268357277
 21
27.4211391329763
 31
0.0
  0
LINE
  5
   4DD
  8
0
  6
CONTINUOUS
 62
     7
 10
-45.1707262396812
 20
27.4211391329763
 30
0.0
 11
-60.1707268357277
 21
27.4211391329763
 31
0.0
  0
LINE
  5
   4DE
  8
0
  6
CONTINUOUS
 62
     7
 10
-45.1707262396812
 20
7.32101228933668
 30
0.0
 11
-45.1707262396812
 21
27.4211391329763
 31
0.0
  0
CIRCLE
  5
   4DF
  8
0
  6
CONTINUOUS
 62
     7
 10
-55.9707266688347
 20
23.2211389660833
 30
0.0
 40
1.65000006556511
  0
CIRCLE
  5
   4E0
  8
0
  6
CONTINUOUS
 62
     7
 10
-49.3707264065743
 20
23.2211389660833
 30
0.0
 40
1.65000006556511
  0
CIRCLE
  5
   4E1
  8
0
  6
CONTINUOUS
 62
     7
 10
-49.3707264065743
 20
16.6211387038229
 30
0.0
 40
1.65000006556511
  0
CIRCLE
  5
   4E2
  8
0
  6
CONTINUOUS
 62
     7
 10
-55.9707266688347
 20
16.6211387038229
 30
0.0
 40
1.65000006556511
  0
LINE
  5
   4E3
  8
0
  6
DASHDOT
 62
     7
 10
-53.7207265794277
 20
23.2211389660833
 30
0.0
 11
-58.2207267582417
 21
23.2211389660833
 31
0.0
  0
LINE
  5
   4E4
  8
0
  6
DASHDOT
 62
     7
 10
-47.1207263171673
 20
23.2211389660833
 30
0.0
 11
-51.6207264959812
 21
23.2211389660833
 31
0.0
  0
LINE
  5
   4E5
  8
0
  6
DASHDOT
 62
     7
 10
-47.1207263171673
 20
16.6211387038229
 30
0.0
 11
-51.6207264959812
 21
16.6211387038229
 31
0.0
  0
LINE
  5
   4E6
  8
0
  6
DASHDOT
 62
     7
 10
-53.7207265794277
 20
16.6211387038229
 30
0.0
 11
-58.2207267582417
 21
16.6211387038229
 31
0.0
  0
LINE
  5
   4E7
  8
0
  6
DASHDOT
 62
     7
 10
-55.9707266688347
 20
14.3711386144159
 30
0.0
 11
-55.9707266688347
 21
18.8711387932298
 31
0.0
  0
LINE
  5
   4E8
  8
0
  6
DASHDOT
 62
     7
 10
-49.3707264065743
 20
14.3711386144159
 30
0.0
 11
-49.3707264065743
 21
18.8711387932298
 31
0.0
  0
LINE
  5
   4E9
  8
0
  6
DASHDOT
 62
     7
 10
-49.3707264065743
 20
20.9711388766764
 30
0.0
 11
-49.3707264065743
 21
25.4711390554903
 31
0.0
  0
LINE
  5
   4EA
  8
0
  6
DASHDOT
 62
     7
 10
-55.9707266688347
 20
20.9711388766764
 30
0.0
 11
-55.9707266688347
 21
25.4711390554903
 31
0.0
  0
LINE
  5
   4EB
  8
0
  6
CONTINUOUS
 62
     1
 10
-62.5257333913367
 20
-17.1288968157844
 30
0.0
 11
-62.5257242010464
 21
7.32100479104425
 31
0.0
  0
LINE
  5
   4EC
  8
0
  6
CONTINUOUS
 62
     1
 10
-61.4457360416654
 20
-17.128844326734
 30
0.0
 11
-61.4457360416654
 21
7.32105064627309
 31
0.0
  0
LINE
  5
   4ED
  8
0
  6
CONTINUOUS
 62
     1
 10
-60.3657296434069
 20
-17.1289067829691
 30
0.0
 11
-60.3657204530913
 21
7.32106966972057
 31
0.0
  0
LINE
  5
   4EE
  8
0
  6
CONTINUOUS
 62
     1
 10
-59.2857369247107
 20
-17.1289071889193
 30
0.0
 11
-59.285727734398
 21
7.3210615673644
 31
0.0
  0
LINE
  5
   4EF
  8
0
  6
CONTINUOUS
 62
     1
 10
-58.2057395750289
 20
-17.128844326734
 30
0.0
 11
-58.2057395750289
 21
7.32099642753019
 31
0.0
  0
LINE
  5
   4F0
  8
0
  6
CONTINUOUS
 62
     1
 10
-57.1257331767707
 20
-17.1289080008267
 30
0.0
 11
-57.1257239864821
 21
7.32099642753018
 31
0.0
  0
LINE
  5
   4F1
  8
0
  6
CONTINUOUS
 62
     1
 10
-56.0457358270887
 20
-17.128844326734
 30
0.0
 11
-56.0457358270887
 21
7.32099642753019
 31
0.0
  0
LINE
  5
   4F2
  8
0
  6
CONTINUOUS
 62
     1
 10
-54.96573863745
 20
-17.1289000565196
 30
0.0
 11
-54.9657202568788
 21
7.32099642753016
 31
0.0
  0
LINE
  5
   4F3
  8
0
  6
CONTINUOUS
 62
     1
 10
-53.8857367101344
 20
-17.1289092186843
 30
0.0
 11
-53.8857275198453
 21
7.32099642753016
 31
0.0
  0
LINE
  5
   4F4
  8
0
  6
CONTINUOUS
 62
     1
 10
-52.8057393604522
 20
-17.128844326734
 30
0.0
 11
-52.8057393604522
 21
7.32099642753019
 31
0.0
  0
LINE
  5
   4F5
  8
0
  6
DASHDOT
 62
     7
 10
-52.6707265377045
 20
-25.5290018346532
 30
0.0
 11
-52.6707265377045
 21
12.8605641754068
 31
0.0
  0
LINE
  5
   4F6
  8
0
  6
CONTINUOUS
 62
     1
 10
-51.7257421707845
 20
-17.1288626372816
 30
0.0
 11
-51.7257237902414
 21
7.32099642753012
 31
0.0
  0
LINE
  5
   4F7
  8
0
  6
CONTINUOUS
 62
     1
 10
-50.6457402968141
 20
-17.1288626372816
 30
0.0
 11
-50.645721916271
 21
7.32099642753012
 31
0.0
  0
LINE
  5
   4F8
  8
0
  6
CONTINUOUS
 62
     1
 10
-49.565738422854
 20
-17.1288626372816
 30
0.0
 11
-49.5657200423151
 21
7.32099642753013
 31
0.0
  0
LINE
  5
   4F9
  8
0
  6
CONTINUOUS
 62
     1
 10
-48.4857365488836
 20
-17.1288626372816
 30
0.0
 11
-48.4857181683447
 21
7.32099642753012
 31
0.0
  0
LINE
  5
   4FA
  8
0
  6
CONTINUOUS
 62
     1
 10
-47.405743830187
 20
-17.1288626372816
 30
0.0
 11
-47.4057254496481
 21
7.32099642753012
 31
0.0
  0
LINE
  5
   4FB
  8
0
  6
CONTINUOUS
 62
     1
 10
-46.3257419562166
 20
-17.1288626372816
 30
0.0
 11
-46.3257235756777
 21
7.32099642753012
 31
0.0
  0
LINE
  5
   4FC
  8
0
  6
CONTINUOUS
 62
     1
 10
-45.2457400822462
 20
-17.1288626372816
 30
0.0
 11
-45.2457217017073
 21
7.32099642753012
 31
0.0
  0
LINE
  5
   4FD
  8
0
  6
CONTINUOUS
 62
     1
 10
-44.1657382082758
 20
-17.1288626372816
 30
0.0
 11
-44.1657198277368
 21
7.32099642753013
 31
0.0
  0
LINE
  5
   4FE
  8
0
  6
CONTINUOUS
 62
     1
 10
-42.7857376882477
 20
-5.07150590986271
 30
0.0
 11
-42.785719239112
 21
7.32099642753013
 31
0.0
  0
CIRCLE
  5
   4FF
  8
0
  6
CONTINUOUS
 62
     1
 10
-42.1706972255472
 20
-6.17886379208299
 30
0.0
 40
1.35059393238156
  0
LINE
  5
   500
  8
0
  6
DASHDOT
 62
     7
 10
-39.9271125740019
 20
-6.17886379208299
 30
0.0
 11
-44.0717383576072
 21
-6.17886379208299
 31
0.0
  0
LINE
  5
   501
  8
0
  6
DASHDOT
 62
     7
 10
-42.1706972255472
 20
-8.91526019200739
 30
0.0
 11
-42.1706972255472
 21
-3.43132301981352
 31
0.0
  0
LINE
  5
   502
  8
0
  6
CONTINUOUS
 62
     1
 10
-42.9357407993084
 20
-17.1288626372816
 30
0.0
 11
-42.9357407993084
 21
-7.15034203813411
 31
0.0
  0
LINE
  5
   503
  8
0
  6
CONTINUOUS
 62
     1
 10
-41.5257279949079
 20
-4.99222203413142
 30
0.0
 11
-41.5257233665813
 21
7.32100479104425
 31
0.0
  0
LINE
  5
   504
  8
0
  6
CONTINUOUS
 62
     1
 10
-62.5257196050879
 20
-42.0288773596294
 30
0.0
 11
-62.5257196050879
 21
-17.578862655163
 31
0.0
  0
LINE
  5
   505
  8
0
  6
CONTINUOUS
 62
     1
 10
-61.445708575844
 20
-42.0288773596294
 30
0.0
 11
-61.445708575844
 21
-17.578862655163
 31
0.0
  0
LINE
  5
   506
  8
0
  6
CONTINUOUS
 62
     1
 10
-60.3657158571477
 20
-42.0288773596294
 30
0.0
 11
-60.3657158571477
 21
-17.578862655163
 31
0.0
  0
LINE
  5
   507
  8
0
  6
CONTINUOUS
 62
     1
 10
-59.2857231384514
 20
-42.0288773596294
 30
0.0
 11
-59.2857231384514
 21
-17.578862655163
 31
0.0
  0
LINE
  5
   508
  8
0
  6
CONTINUOUS
 62
     1
 10
-58.2057121092075
 20
-42.0288773596294
 30
0.0
 11
-58.2057121092075
 21
-17.578862655163
 31
0.0
  0
LINE
  5
   509
  8
0
  6
CONTINUOUS
 62
     1
 10
-57.1257193905112
 20
-42.0288773596294
 30
0.0
 11
-57.1257193905112
 21
-17.578862655163
 31
0.0
  0
LINE
  5
   50A
  8
0
  6
CONTINUOUS
 62
     1
 10
-56.0457083612673
 20
-42.0288773596294
 30
0.0
 11
-56.0457083612673
 21
-17.578862655163
 31
0.0
  0
LINE
  5
   50B
  8
0
  6
CONTINUOUS
 62
     1
 10
-54.965715642571
 20
-42.0288773596294
 30
0.0
 11
-54.965715642571
 21
-17.578862655163
 31
0.0
  0
LINE
  5
   50C
  8
0
  6
CONTINUOUS
 62
     1
 10
-53.8857229238747
 20
-42.0288773596294
 30
0.0
 11
-53.8857229238747
 21
-17.578862655163
 31
0.0
  0
LINE
  5
   50D
  8
0
  6
CONTINUOUS
 62
     1
 10
-52.8057118946308
 20
-42.0288773596294
 30
0.0
 11
-52.8057118946308
 21
-17.578862655163
 31
0.0
  0
LINE
  5
   50E
  8
0
  6
CONTINUOUS
 62
     1
 10
-62.5257196050879
 20
-73.5288557231424
 30
0.0
 11
-62.5257196050879
 21
-42.0288773596294
 31
0.0
  0
LINE
  5
   50F
  8
0
  6
CONTINUOUS
 62
     1
 10
-61.445708575844
 20
-73.5288557231424
 30
0.0
 11
-61.445708575844
 21
-42.0288773596294
 31
0.0
  0
LINE
  5
   510
  8
0
  6
CONTINUOUS
 62
     1
 10
-60.3657158571477
 20
-73.5288557231424
 30
0.0
 11
-60.3657158571477
 21
-42.0288773596294
 31
0.0
  0
LINE
  5
   511
  8
0
  6
CONTINUOUS
 62
     1
 10
-59.2857231384514
 20
-73.5288557231424
 30
0.0
 11
-59.2857231384514
 21
-42.0288773596294
 31
0.0
  0
LINE
  5
   512
  8
0
  6
CONTINUOUS
 62
     1
 10
-58.2057121092075
 20
-73.5288557231424
 30
0.0
 11
-58.2057121092075
 21
-42.0288773596294
 31
0.0
  0
LINE
  5
   513
  8
0
  6
CONTINUOUS
 62
     1
 10
-57.1257193905112
 20
-73.5288557231424
 30
0.0
 11
-57.1257193905112
 21
-42.0288773596294
 31
0.0
  0
LINE
  5
   514
  8
0
  6
CONTINUOUS
 62
     1
 10
-56.0457083612673
 20
-73.5288557231424
 30
0.0
 11
-56.0457083612673
 21
-42.0288773596294
 31
0.0
  0
LINE
  5
   515
  8
0
  6
CONTINUOUS
 62
     1
 10
-54.965715642571
 20
-73.5288557231424
 30
0.0
 11
-54.965715642571
 21
-42.0288773596294
 31
0.0
  0
LINE
  5
   516
  8
0
  6
CONTINUOUS
 62
     1
 10
-53.8857229238747
 20
-73.5288557231424
 30
0.0
 11
-53.8857229238747
 21
-42.0288773596294
 31
0.0
  0
LINE
  5
   517
  8
0
  6
CONTINUOUS
 62
     1
 10
-62.5257196050879
 20
-80.4288602888584
 30
0.0
 11
-62.5257196050879
 21
-73.5288645923139
 31
0.0
  0
LINE
  5
   518
  8
0
  6
CONTINUOUS
 62
     1
 10
-61.445708575844
 20
-80.4288602888584
 30
0.0
 11
-61.445708575844
 21
-73.5288645923139
 31
0.0
  0
LINE
  5
   519
  8
0
  6
CONTINUOUS
 62
     1
 10
-60.3657158571477
 20
-80.4288602888584
 30
0.0
 11
-60.3657158571477
 21
-73.5288645923139
 31
0.0
  0
LINE
  5
   51A
  8
0
  6
CONTINUOUS
 62
     1
 10
-59.2857231384514
 20
-80.4288602888584
 30
0.0
 11
-59.2857231384514
 21
-73.5288645923139
 31
0.0
  0
LINE
  5
   51B
  8
0
  6
CONTINUOUS
 62
     1
 10
-58.2057121092075
 20
-80.4288602888584
 30
0.0
 11
-58.2057121092075
 21
-73.5288645923139
 31
0.0
  0
LINE
  5
   51C
  8
0
  6
CONTINUOUS
 62
     1
 10
-57.1257193905112
 20
-80.4288602888584
 30
0.0
 11
-57.1257193905112
 21
-73.5288645923139
 31
0.0
  0
LINE
  5
   51D
  8
0
  6
CONTINUOUS
 62
     1
 10
-56.0457083612673
 20
-80.4288602888584
 30
0.0
 11
-56.0457083612673
 21
-73.5288645923139
 31
0.0
  0
LINE
  5
   51E
  8
0
  6
CONTINUOUS
 62
     1
 10
-54.965715642571
 20
-80.4288602888584
 30
0.0
 11
-54.965715642571
 21
-73.5288645923139
 31
0.0
  0
LINE
  5
   51F
  8
0
  6
CONTINUOUS
 62
     1
 10
-53.8857229238747
 20
-80.4288602888584
 30
0.0
 11
-53.8857229238747
 21
-73.5288645923139
 31
0.0
  0
LINE
  5
   520
  8
0
  6
CONTINUOUS
 62
     1
 10
-52.8057118946308
 20
-80.4288602888584
 30
0.0
 11
-52.8057118946308
 21
-73.5288645923139
 31
0.0
  0
LINE
  5
   521
  8
0
  6
CONTINUOUS
 62
     1
 10
-52.8057118946308
 20
-73.5288557231424
 30
0.0
 11
-52.8057118946308
 21
-42.0288773596294
 31
0.0
  0
LINE
  5
   522
  8
0
  6
CONTINUOUS
 62
     2
 10
-62.5257196050879
 20
-92.5788587689399
 30
0.0
 11
-62.5257196050879
 21
-80.8788583040237
 31
0.0
  0
LINE
  5
   523
  8
0
  6
CONTINUOUS
 62
     2
 10
-61.445708575844
 20
-92.5788587689399
 30
0.0
 11
-61.445708575844
 21
-80.8788583040237
 31
0.0
  0
LINE
  5
   524
  8
0
  6
CONTINUOUS
 62
     2
 10
-60.3657158571477
 20
-92.5788587689399
 30
0.0
 11
-60.3657158571477
 21
-80.8788583040237
 31
0.0
  0
LINE
  5
   525
  8
0
  6
CONTINUOUS
 62
     2
 10
-59.2857231384514
 20
-92.5788587689399
 30
0.0
 11
-59.2857231384514
 21
-80.8788583040237
 31
0.0
  0
LINE
  5
   526
  8
0
  6
CONTINUOUS
 62
     2
 10
-58.2057121092075
 20
-92.5788587689399
 30
0.0
 11
-58.2057121092075
 21
-80.8788583040237
 31
0.0
  0
LINE
  5
   527
  8
0
  6
CONTINUOUS
 62
     2
 10
-57.1257193905112
 20
-92.5788587689399
 30
0.0
 11
-57.1257193905112
 21
-80.8788583040237
 31
0.0
  0
LINE
  5
   528
  8
0
  6
CONTINUOUS
 62
     2
 10
-56.0457083612673
 20
-92.5788587689399
 30
0.0
 11
-56.0457083612673
 21
-80.8788583040237
 31
0.0
  0
LINE
  5
   529
  8
0
  6
CONTINUOUS
 62
     2
 10
-54.965715642571
 20
-92.5788587689399
 30
0.0
 11
-54.965715642571
 21
-80.8788583040237
 31
0.0
  0
LINE
  5
   52A
  8
0
  6
CONTINUOUS
 62
     2
 10
-53.8857229238747
 20
-92.5788587689399
 30
0.0
 11
-53.8857229238747
 21
-80.8788583040237
 31
0.0
  0
LINE
  5
   52B
  8
0
  6
CONTINUOUS
 62
     2
 10
-52.8057118946308
 20
-92.5788587689399
 30
0.0
 11
-52.8057118946308
 21
-80.8788583040237
 31
0.0
  0
LINE
  5
   52C
  8
0
  6
CONTINUOUS
 62
     2
 10
-62.5257196050879
 20
-114.478857796362
 30
0.0
 11
-62.5257196050879
 21
-93.0288569440153
 31
0.0
  0
LINE
  5
   52D
  8
0
  6
CONTINUOUS
 62
     2
 10
-61.445708575844
 20
-114.478857796362
 30
0.0
 11
-61.445708575844
 21
-93.0288569440153
 31
0.0
  0
LINE
  5
   52E
  8
0
  6
CONTINUOUS
 62
     2
 10
-60.3657158571477
 20
-114.478857796362
 30
0.0
 11
-60.3657158571477
 21
-93.0288569440153
 31
0.0
  0
LINE
  5
   52F
  8
0
  6
CONTINUOUS
 62
     2
 10
-59.2857231384514
 20
-114.478857796362
 30
0.0
 11
-59.2857231384514
 21
-93.0288569440153
 31
0.0
  0
LINE
  5
   530
  8
0
  6
CONTINUOUS
 62
     2
 10
-58.2057121092075
 20
-114.478857796362
 30
0.0
 11
-58.2057121092075
 21
-93.0288569440153
 31
0.0
  0
LINE
  5
   531
  8
0
  6
CONTINUOUS
 62
     2
 10
-57.1257193905112
 20
-114.478857796362
 30
0.0
 11
-57.1257193905112
 21
-93.0288569440153
 31
0.0
  0
LINE
  5
   532
  8
0
  6
CONTINUOUS
 62
     2
 10
-56.0457083612673
 20
-114.478857796362
 30
0.0
 11
-56.0457083612673
 21
-93.0288569440153
 31
0.0
  0
LINE
  5
   533
  8
0
  6
CONTINUOUS
 62
     2
 10
-54.965715642571
 20
-114.478857796362
 30
0.0
 11
-54.965715642571
 21
-93.0288569440153
 31
0.0
  0
LINE
  5
   534
  8
0
  6
CONTINUOUS
 62
     2
 10
-53.8857229238747
 20
-114.478857796362
 30
0.0
 11
-53.8857229238747
 21
-93.0288569440153
 31
0.0
  0
LINE
  5
   535
  8
0
  6
CONTINUOUS
 62
     2
 10
-52.8057228809594
 20
-114.478857796362
 30
0.0
 11
-52.8057228809594
 21
-93.0288569440153
 31
0.0
  0
LINE
  5
   536
  8
0
  6
CONTINUOUS
 62
     1
 10
-51.7258153550829
 20
-114.478857796362
 30
0.0
 11
-51.7257992297276
 21
-93.0288569440153
 31
0.0
  0
LINE
  5
   537
  8
0
  6
CONTINUOUS
 62
     1
 10
-50.6458134811125
 20
-114.478857796362
 30
0.0
 11
-50.6457973557571
 21
-93.0288569440153
 31
0.0
  0
LINE
  5
   538
  8
0
  6
CONTINUOUS
 62
     1
 10
-49.5658116071358
 20
-114.478857796362
 30
0.0
 11
-49.5657954817842
 21
-93.0288569440153
 31
0.0
  0
LINE
  5
   539
  8
0
  6
CONTINUOUS
 62
     1
 10
-48.4858097331654
 20
-114.478857796362
 30
0.0
 11
-48.4857936078137
 21
-93.0288569440153
 31
0.0
  0
LINE
  5
   53A
  8
0
  6
CONTINUOUS
 62
     1
 10
-47.4058170144688
 20
-114.478857796362
 30
0.0
 11
-47.4058008891171
 21
-93.0288569440153
 31
0.0
  0
LINE
  5
   53B
  8
0
  6
CONTINUOUS
 62
     1
 10
-42.9357407993084
 20
-99.9856240272285
 30
0.0
 11
-42.9357407993084
 21
-93.0288569440153
 31
0.0
  0
LINE
  5
   53C
  8
0
  6
CONTINUOUS
 62
     1
 10
-44.1658113925576
 20
-114.478857796362
 30
0.0
 11
-44.1657952672059
 21
-93.0288569440153
 31
0.0
  0
LINE
  5
   53D
  8
0
  6
CONTINUOUS
 62
     1
 10
-45.245813266528
 20
-114.478857796362
 30
0.0
 11
-45.2457971411763
 21
-93.0288569440153
 31
0.0
  0
LINE
  5
   53E
  8
0
  6
CONTINUOUS
 62
     1
 10
-46.3258151404984
 20
-114.478857796362
 30
0.0
 11
-46.3257990151467
 21
-93.0288569440153
 31
0.0
  0
CIRCLE
  5
   53F
  8
0
  6
CONTINUOUS
 62
     1
 10
-42.1706972255472
 20
-100.979001708373
 30
0.0
 40
1.35059393238156
  0
LINE
  5
   540
  8
0
  6
DASHDOT
 62
     1
 10
-42.1706972255472
 20
-105.329595759964
 30
0.0
 11
-42.1706972255472
 21
-93.0288569440153
 31
0.0
  0
LINE
  5
   541
  8
0
  6
DASHDOT
 62
     1
 10
-37.8201031739563
 20
-100.979001708373
 30
0.0
 11
-46.521291277138
 21
-100.979001708373
 31
0.0
  0
LINE
  5
   542
  8
0
  6
CONTINUOUS
 62
     1
 10
-42.9357407993084
 20
-114.478857796362
 30
0.0
 11
-42.9357407993084
 21
-101.972379389517
 31
0.0
  0
LINE
  5
   543
  8
0
  6
CONTINUOUS
 62
     2
 10
-41.5257187706229
 20
-99.7923649640955
 30
0.0
 11
-41.5257187706229
 21
-93.0288569440153
 31
0.0
  0
LINE
  5
   544
  8
0
  6
CONTINUOUS
 62
     1
 10
-42.9357407993084
 20
-92.5788587689399
 30
0.0
 11
-42.9357407993084
 21
-80.8788583040237
 31
0.0
  0
LINE
  5
   545
  8
0
  6
CONTINUOUS
 62
     1
 10
-44.1657949289126
 20
-92.5788579569934
 30
0.0
 11
-44.1657861332662
 21
-80.8788574920838
 31
0.0
  0
LINE
  5
   546
  8
0
  6
CONTINUOUS
 62
     1
 10
-45.2457968028824
 20
-92.5788571450862
 30
0.0
 11
-45.245788007236
 21
-80.8788566801766
 31
0.0
  0
LINE
  5
   547
  8
0
  6
CONTINUOUS
 62
     1
 10
-46.3257986768522
 20
-92.578856333179
 30
0.0
 11
-46.3257898812058
 21
-80.8788558682694
 31
0.0
  0
LINE
  5
   548
  8
0
  6
CONTINUOUS
 62
     1
 10
-47.405800550822
 20
-92.5788555212718
 30
0.0
 11
-47.4057917551756
 21
-80.8788550563622
 31
0.0
  0
LINE
  5
   549
  8
0
  6
CONTINUOUS
 62
     1
 10
-48.485793269518
 20
-92.5788547093715
 30
0.0
 11
-48.4857844738716
 21
-80.8788542444619
 31
0.0
  0
LINE
  5
   54A
  8
0
  6
CONTINUOUS
 62
     1
 10
-49.5657951434878
 20
-92.5788538974643
 30
0.0
 11
-49.5657863478414
 21
-80.8788534325547
 31
0.0
  0
LINE
  5
   54B
  8
0
  6
CONTINUOUS
 62
     1
 10
-50.6457970174601
 20
-92.5788530855569
 30
0.0
 11
-50.6457882218117
 21
-80.8788526206473
 31
0.0
  0
LINE
  5
   54C
  8
0
  6
CONTINUOUS
 62
     1
 10
-51.7257988914299
 20
-92.5788522736496
 30
0.0
 11
-51.7257900957815
 21
-80.8788518087399
 31
0.0
  0
LINE
  5
   54D
  8
0
  6
CONTINUOUS
 62
     1
 10
-42.9357407993084
 20
-80.4288602888584
 30
0.0
 11
-42.9357407993084
 21
-73.5288645923139
 31
0.0
  0
LINE
  5
   54E
  8
0
  6
CONTINUOUS
 62
     1
 10
-44.1657857949736
 20
-80.4288594769188
 30
0.0
 11
-44.165780607801
 21
-73.5288637803782
 31
0.0
  0
LINE
  5
   54F
  8
0
  6
CONTINUOUS
 62
     1
 10
-45.2457876689435
 20
-80.4288586650116
 30
0.0
 11
-45.2457824817708
 21
-73.528862968471
 31
0.0
  0
LINE
  5
   550
  8
0
  6
CONTINUOUS
 62
     1
 10
-46.3257895429132
 20
-80.4288578531044
 30
0.0
 11
-46.3257843557406
 21
-73.5288621565638
 31
0.0
  0
LINE
  5
   551
  8
0
  6
CONTINUOUS
 62
     1
 10
-47.405791416883
 20
-80.4288570411972
 30
0.0
 11
-47.4057862297104
 21
-73.5288613446566
 31
0.0
  0
LINE
  5
   552
  8
0
  6
CONTINUOUS
 62
     1
 10
-48.4857841355791
 20
-80.4288562292969
 30
0.0
 11
-48.4857789484064
 21
-73.5288605327563
 31
0.0
  0
LINE
  5
   553
  8
0
  6
CONTINUOUS
 62
     1
 10
-49.5657860095488
 20
-80.4288554173897
 30
0.0
 11
-49.5657808223762
 21
-73.5288597208491
 31
0.0
  0
LINE
  5
   554
  8
0
  6
CONTINUOUS
 62
     1
 10
-50.6457878835191
 20
-80.4288546054823
 30
0.0
 11
-50.6457826963453
 21
-73.5288589089418
 31
0.0
  0
LINE
  5
   555
  8
0
  6
CONTINUOUS
 62
     1
 10
-51.7257897574889
 20
-80.4288537935749
 30
0.0
 11
-51.7257845703151
 21
-73.5288580970344
 31
0.0
  0
LINE
  5
   556
  8
0
  6
CONTINUOUS
 62
     1
 10
-42.9357407993084
 20
-73.5288557231424
 30
0.0
 11
-42.9357407993084
 21
-42.0288773596294
 31
0.0
  0
LINE
  5
   557
  8
0
  6
CONTINUOUS
 62
     1
 10
-44.1657806077944
 20
-73.5288549112067
 30
0.0
 11
-44.1657569272252
 21
-42.0288765477115
 31
0.0
  0
LINE
  5
   558
  8
0
  6
CONTINUOUS
 62
     1
 10
-45.2457824817642
 20
-73.5288540992995
 30
0.0
 11
-45.245758801195
 21
-42.0288757358043
 31
0.0
  0
LINE
  5
   559
  8
0
  6
CONTINUOUS
 62
     1
 10
-46.325784355734
 20
-73.5288532873923
 30
0.0
 11
-46.3257606751648
 21
-42.0288749238971
 31
0.0
  0
LINE
  5
   55A
  8
0
  6
CONTINUOUS
 62
     1
 10
-47.4057862297038
 20
-73.5288524754852
 30
0.0
 11
-47.4057625491346
 21
-42.0288741119899
 31
0.0
  0
LINE
  5
   55B
  8
0
  6
CONTINUOUS
 62
     1
 10
-48.4857789483998
 20
-73.5288516635848
 30
0.0
 11
-48.4857552678306
 21
-42.0288733000896
 31
0.0
  0
LINE
  5
   55C
  8
0
  6
CONTINUOUS
 62
     1
 10
-49.5657808223696
 20
-73.5288508516776
 30
0.0
 11
-49.5657571418004
 21
-42.0288724881824
 31
0.0
  0
LINE
  5
   55D
  8
0
  6
CONTINUOUS
 62
     1
 10
-50.6457826963386
 20
-73.5288500397703
 30
0.0
 11
-50.6457590157641
 21
-42.028871676275
 31
0.0
  0
LINE
  5
   55E
  8
0
  6
CONTINUOUS
 62
     1
 10
-51.7257845703084
 20
-73.5288492278629
 30
0.0
 11
-51.7257608897339
 21
-42.0288708643676
 31
0.0
  0
LINE
  5
   55F
  8
0
  6
CONTINUOUS
 62
     1
 10
-42.9357407993084
 20
-42.0288773596294
 30
0.0
 11
-42.9357407993084
 21
-17.578862655163
 31
0.0
  0
LINE
  5
   560
  8
0
  6
CONTINUOUS
 62
     1
 10
-44.1657569272252
 20
-42.0288765477115
 30
0.0
 11
-44.1657385465693
 21
-17.5788618432589
 31
0.0
  0
LINE
  5
   561
  8
0
  6
CONTINUOUS
 62
     1
 10
-45.245758801195
 20
-42.0288757358043
 30
0.0
 11
-45.2457404205391
 21
-17.5788610313517
 31
0.0
  0
LINE
  5
   562
  8
0
  6
CONTINUOUS
 62
     1
 10
-46.3257606751648
 20
-42.0288749238971
 30
0.0
 11
-46.3257422945089
 21
-17.5788602194445
 31
0.0
  0
LINE
  5
   563
  8
0
  6
CONTINUOUS
 62
     1
 10
-47.4057625491346
 20
-42.0288741119899
 30
0.0
 11
-47.4057441684787
 21
-17.5788594075373
 31
0.0
  0
LINE
  5
   564
  8
0
  6
CONTINUOUS
 62
     1
 10
-48.4857552678306
 20
-42.0288733000896
 30
0.0
 11
-48.4857368871747
 21
-17.578858595637
 31
0.0
  0
LINE
  5
   565
  8
0
  6
CONTINUOUS
 62
     1
 10
-49.5657571418004
 20
-42.0288724881824
 30
0.0
 11
-49.5657387611445
 21
-17.5788577837298
 31
0.0
  0
LINE
  5
   566
  8
0
  6
CONTINUOUS
 62
     1
 10
-50.645759015764
 20
-42.028871676275
 30
0.0
 11
-50.6457406351039
 21
-17.5788569718224
 31
0.0
  0
LINE
  5
   567
  8
0
  6
CONTINUOUS
 62
     1
 10
-51.7257608897339
 20
-42.0288708643676
 30
0.0
 11
-51.7257425090738
 21
-17.5788561599151
 31
0.0
  0
INSERT
  5
   568
  8
255
  6
CONTINUOUS
 62
     7
  2
MOSTRINA
 10
-50.3722034971506
 20
-90.7730662701211
 30
0.0
 41
0.300000011920929
 42
0.300000011920929
 50
359.999999792138
 43
0.300000011920929
  0
LINE
  5
   569
  8
0
  6
CONTINUOUS
 62
     1
 10
-33.470725774765
 20
-80.4288602888584
 30
0.0
 11
-63.1707174410469
 21
-80.4288602888584
 31
0.0
  0
LINE
  5
   56A
  8
0
  6
CONTINUOUS
 62
     1
 10
-33.470725774765
 20
-80.7288603007793
 30
0.0
 11
-41.2312210782566
 21
-80.7288603007793
 31
0.0
  0
LINE
  5
   56B
  8
0
  6
CONTINUOUS
 62
     1
 10
-33.470725774765
 20
-80.8788583040237
 30
0.0
 11
-63.1707173777619
 21
-80.8788583040237
 31
0.0
  0
TEXT
  5
   56C
  8
0
  6
CONTINUOUS
 62
     7
 10
32.9876584172744
 20
-71.8686185453911
 30
0.0
 40
2.99999994039535
  1
=        =
 50
89.9999999480344
 41
0.91666667064031
 72
     1
 11
31.4876584592812
 21
-58.3936187581126
 31
0.0
 73
     2
  0
INSERT
  5
   56D
  8
0
  6
CONTINUOUS
 62
     7
  2
*UDIM330
 10
0.0
 20
0.0
 30
0.0
  0
INSERT
  5
   56E
  8
0
  6
CONTINUOUS
 62
     7
  2
*UDIM331
 10
0.0
 20
0.0
 30
0.0
  0
INSERT
  5
   56F
  8
0
  6
CONTINUOUS
 62
     7
  2
*UDIM332
 10
0.0
 20
0.0
 30
0.0
  0
INSERT
  5
   570
  8
0
  6
CONTINUOUS
 62
     7
  2
*UDIM333
 10
0.0
 20
0.0
 30
0.0
  0
INSERT
  5
   571
  8
0
  6
CONTINUOUS
 62
     7
  2
*UDIM334
 10
0.0
 20
0.0
 30
0.0
  0
INSERT
  5
   572
  8
0
  6
CONTINUOUS
 62
     7
  2
*UDIM335
 10
0.0
 20
0.0
 30
0.0
  0
INSERT
  5
   573
  8
0
  6
CONTINUOUS
 62
     7
  2
*UDIM336
 10
0.0
 20
0.0
 30
0.0
  0
INSERT
  5
   574
  8
0
  6
CONTINUOUS
 62
     7
  2
*UDIM337
 10
0.0
 20
0.0
 30
0.0
  0
INSERT
  5
   575
  8
0
  6
CONTINUOUS
 62
     7
  2
*UDIM338
 10
0.0
 20
0.0
 30
0.0
  0
TEXT
  5
   576
  8
0
  6
CONTINUOUS
 62
     7
 10
-22.3961408241357
 20
-137.437372103073
 30
0.0
 40
2.99999994039535
  1
=       =
 50
359.999999948034
 41
0.916666655739148
 72
     2
 11
1.80385843279304
 21
-137.4373721249
 31
0.0
  0
INSERT
  5
   577
  8
0
  6
CONTINUOUS
 62
     7
  2
*UDIM339
 10
0.0
 20
0.0
 30
0.0
  0
TEXT
  5
   578
  8
0
  6
CONTINUOUS
 62
     7
 10
-11.1531540201752
 20
50.9254697535087
 30
0.0
 40
2.99999994039535
  1
Y
 50
359.999999948034
 41
0.916666655739148
 72
     2
 11
-8.9531540638853
 21
50.9254697515244
 31
0.0
  0
TEXT
  5
   579
  8
0
  6
CONTINUOUS
 62
     7
 10
-94.1558102973014
 20
-58.4447173927649
 30
0.0
 40
2.99999994039535
  1
X
 50
359.999999948034
 41
0.916666655739148
 72
     2
 11
-91.9558103410115
 21
-58.4447173947491
 31
0.0
  0
INSERT
  5
   57A
  8
0
  6
CONTINUOUS
 62
     7
  2
*UDIM340
 10
0.0
 20
0.0
 30
0.0
  0
INSERT
  5
   57B
  8
0
  6
CONTINUOUS
 62
     7
  2
*UDIM341
 10
0.0
 20
0.0
 30
0.0
  0
INSERT
  5
   57C
  8
0
  6
CONTINUOUS
 62
     7
  2
*UDIM342
 10
0.0
 20
0.0
 30
0.0
  0
INSERT
  5
   57D
  8
0
  6
CONTINUOUS
 62
     7
  2
*UDIM343
 10
0.0
 20
0.0
 30
0.0
  0
INSERT
  5
   57E
  8
0
  6
CONTINUOUS
 62
     7
  2
*UDIM344
 10
0.0
 20
0.0
 30
0.0
  0
INSERT
  5
   57F
  8
0
  6
CONTINUOUS
 62
     7
  2
*UDIM345
 10
0.0
 20
0.0
 30
0.0
  0
INSERT
  5
   580
  8
0
  6
CONTINUOUS
 62
     7
  2
*UDIM346
 10
0.0
 20
0.0
 30
0.0
  0
INSERT
  5
   581
  8
0
  6
CONTINUOUS
 62
     7
  2
*UDIM347
 10
0.0
 20
0.0
 30
0.0
  0
LINE
  5
   582
  8
0
  6
CONTINUOUS
 62
   130
 10
68.0460231735428
 20
9.42079851643906
 30
0.0
 11
68.0460232520807
 21
7.32079843298547
 31
0.0
  0
LINE
  5
   583
  8
0
  6
CONTINUOUS
 62
     3
 10
67.5960235595703
 20
1.32072610854812
 30
0.0
 11
67.5960235595703
 21
4.92072625159926
 31
0.0
  0
LINE
  5
   584
  8
0
  6
CONTINUOUS
 62
   130
 10
96.3960070218381
 20
-15.6292231339059
 30
0.0
 11
96.3960207547585
 21
7.32072557640249
 31
0.0
  0
LINE
  5
   585
  8
0
  6
CONTINUOUS
 62
     3
 10
68.94601782044
 20
-49.9792058834649
 30
0.0
 11
69.1710181131246
 21
-49.9189184149301
 31
0.0
  0
LINE
  5
   586
  8
0
  6
CONTINUOUS
 62
   130
 10
67.5960235595703
 20
-77.8792157720794
 30
0.0
 11
97.5960064411204
 21
-77.8792037963841
 31
0.0
  0
LINE
  5
   587
  8
0
  6
CONTINUOUS
 62
   130
 10
97.5959972859453
 20
-46.3791888115744
 30
0.0
 11
97.596001863582
 21
-47.879188871179
 31
0.0
  0
LINE
  5
   588
  8
0
  6
CONTINUOUS
 62
   130
 10
97.5959972858441
 20
-51.7791791870776
 30
0.0
 11
97.5960018634799
 21
-77.8792076900198
 31
0.0
  0
LINE
  5
   589
  8
0
  6
CONTINUOUS
 62
     3
 10
68.0460239046416
 20
-15.6292104659555
 30
0.0
 11
68.0460247629485
 21
-47.5174594137447
 31
0.0
  0
LINE
  5
   58A
  8
0
  6
CONTINUOUS
 62
     3
 10
68.046024179152
 20
-64.3792032704649
 30
0.0
 11
68.0460244652543
 21
-52.1409093271275
 31
0.0
  0
LINE
  5
   58B
  8
0
  6
CONTINUOUS
 62
     3
 10
68.046024071629
 20
-68.8792051085558
 30
0.0
 11
68.0460249299355
 21
-77.1292054363814
 31
0.0
  0
LINE
  5
   58C
  8
0
  6
CONTINUOUS
 62
     3
 10
68.0460250079632
 20
-77.1292051970959
 30
0.0
 11
68.346023017168
 21
-77.1292051970959
 31
0.0
  0
LINE
  5
   58D
  8
0
  6
CONTINUOUS
 62
     3
 10
68.3460233032703
 20
-77.8792154726883
 30
0.0
 11
68.3460233032703
 21
-77.129204284896
 31
0.0
  0
LINE
  5
   58E
  8
0
  6
CONTINUOUS
 62
     3
 10
68.3460233032703
 20
-52.0605305902691
 30
0.0
 11
68.3460233032703
 21
-49.9792072653772
 31
0.0
  0
LINE
  5
   58F
  8
0
  6
CONTINUOUS
 62
     3
 10
68.3460233032703
 20
-48.0292026102543
 30
0.0
 11
68.3460233032703
 21
-47.5978610403799
 31
0.0
  0
LINE
  5
   590
  8
0
  6
CONTINUOUS
 62
     3
 10
67.5960235595703
 20
-64.3792032599449
 30
0.0
 11
68.0460244357586
 21
-64.3792032599449
 31
0.0
  0
LINE
  5
   591
  8
0
  6
CONTINUOUS
 62
     3
 10
67.5960235595703
 20
-68.8792034387589
 30
0.0
 11
68.0460241496563
 21
-68.8792034387589
 31
0.0
  0
LINE
  5
   592
  8
0
  6
CONTINUOUS
 62
     3
 10
67.5960235595703
 20
-68.8792034387589
 30
0.0
 11
67.5960235595703
 21
-64.3792032599449
 31
0.0
  0
LINE
  5
   593
  8
0
  6
CONTINUOUS
 62
     3
 10
68.94601782044
 20
-49.9792058834649
 30
0.0
 11
69.1710181131246
 21
-49.9189184149301
 31
0.0
  0
LINE
  5
   594
  8
0
  6
CONTINUOUS
 62
     3
 10
69.1710206876142
 20
-49.9189258629184
 30
0.0
 11
69.3357320712651
 21
-49.7542133407648
 31
0.0
  0
LINE
  5
   595
  8
0
  6
CONTINUOUS
 62
     3
 10
69.3357352349933
 20
-49.7542108670951
 30
0.0
 11
69.3960092644251
 21
-49.5292245984202
 31
0.0
  0
LINE
  5
   596
  8
0
  6
CONTINUOUS
 62
     3
 10
69.3960084676725
 20
-49.5292036507644
 30
0.0
 11
69.396009039877
 21
-48.4792036090411
 31
0.0
  0
LINE
  5
   597
  8
0
  6
CONTINUOUS
 62
     3
 10
69.335728699847
 20
-48.2542095563464
 30
0.0
 11
69.3960073011497
 21
-48.4792095589025
 31
0.0
  0
LINE
  5
   598
  8
0
  6
CONTINUOUS
 62
     3
 10
69.1710168355037
 20
-48.0894993058035
 30
0.0
 11
69.3357282214464
 21
-48.2542072485175
 31
0.0
  0
LINE
  5
   599
  8
0
  6
CONTINUOUS
 62
     3
 10
68.9460188115895
 20
-48.0292090719907
 30
0.0
 11
69.1710188188804
 21
-48.0895011223028
 31
0.0
  0
LINE
  5
   59A
  8
0
  6
CONTINUOUS
 62
     3
 10
68.3460233032703
 20
-48.0292026102543
 30
0.0
 11
68.9460190355776
 21
-48.0292026102543
 31
0.0
  0
LINE
  5
   59B
  8
0
  6
CONTINUOUS
 62
     3
 10
68.3460233032703
 20
-49.9792026877403
 30
0.0
 11
68.9460190355776
 21
-49.9792026877403
 31
0.0
  0
LINE
  5
   59C
  8
0
  6
CONTINUOUS
 62
   130
 10
96.396006505079
 20
-46.3792159873065
 30
0.0
 11
96.396011082715
 21
-15.6292147654113
 31
0.0
  0
LINE
  5
   59D
  8
0
  6
CONTINUOUS
 62
   130
 10
96.3960063934319
 20
-46.379211699963
 30
0.0
 11
97.5959972858418
 21
-46.379211699963
 31
0.0
  0
LINE
  5
   59E
  8
0
  6
CONTINUOUS
 62
   130
 10
96.3959996975377
 20
-31.7007243841114
 30
0.0
 11
96.5460042765995
 21
-31.6605327353857
 31
0.0
  0
LINE
  5
   59F
  8
0
  6
CONTINUOUS
 62
   130
 10
96.3959961661006
 20
-34.057642278454
 30
0.0
 11
96.5460053262625
 21
-34.0978384998201
 31
0.0
  0
LINE
  5
   5A0
  8
0
  6
CONTINUOUS
 62
   130
 10
68.3460227836579
 20
-77.1292052496882
 30
0.0
 11
88.7460235942811
 21
-77.1292066801988
 31
0.0
  0
LINE
  5
   5A1
  8
0
  6
CONTINUOUS
 62
   130
 10
88.7460243999958
 20
-77.8792021816883
 30
0.0
 11
88.7460243999958
 21
-77.1292067295229
 31
0.0
  0
LINE
  5
   5A2
  8
0
  6
CONTINUOUS
 62
   130
 10
70.5156146191215
 20
-48.1791863018717
 30
0.0
 11
97.2959989840596
 21
-48.1792046124187
 31
0.0
  0
LINE
  5
   5A3
  8
0
  6
CONTINUOUS
 62
   130
 10
70.5156120767108
 20
-51.4791864330009
 30
0.0
 11
97.2959964416489
 21
-51.479204743548
 31
0.0
  0
LINE
  5
   5A4
  8
0
  6
CONTINUOUS
 62
     3
 10
68.0460262731911
 20
-47.5174628728992
 30
0.0
 11
68.3460233032703
 21
-47.5978468725384
 31
0.0
  0
LINE
  5
   5A5
  8
0
  6
CONTINUOUS
 62
     3
 10
68.0460201190332
 20
-52.1409131284459
 30
0.0
 11
68.3460233032703
 21
-52.0605274242672
 31
0.0
  0
LINE
  5
   5A6
  8
0
  6
CONTINUOUS
 62
   130
 10
97.2960197293138
 20
-48.1791882307172
 30
0.0
 11
97.5960105767214
 21
-47.8791928062678
 31
0.0
  0
LINE
  5
   5A7
  8
0
  6
CONTINUOUS
 62
   130
 10
97.2959989024523
 20
-51.4792005536004
 30
0.0
 11
97.5959989041047
 21
-51.7792005552528
 31
0.0
  0
LINE
  5
   5A8
  8
0
  6
CONTINUOUS
 62
   130
 10
96.5460796415828
 20
-17.4291922390457
 30
0.0
 11
96.5460796415828
 21
7.32072519076655
 31
0.0
  0
LINE
  5
   5A9
  8
0
  6
CONTINUOUS
 62
     2
 10
108.846098440888
 20
-17.1292059600355
 30
0.0
 11
108.995965695379
 21
-17.1292059600355
 31
0.0
  0
LINE
  5
   5AA
  8
0
  6
CONTINUOUS
 62
     2
 10
105.246089142564
 20
7.32072634696669
 30
0.0
 11
106.1460983336
 21
7.32072634696669
 31
0.0
  0
LINE
  5
   5AB
  8
0
  6
CONTINUOUS
 62
     2
 10
109.146098024811
 20
6.94572131258016
 30
0.0
 11
109.146116335357
 21
-17.1291835136995
 31
0.0
  0
LINE
  5
   5AC
  8
0
  6
CONTINUOUS
 62
     2
 10
108.246025174856
 20
-17.4291969529883
 30
0.0
 11
108.846094145512
 21
-17.4291786427641
 31
0.0
  0
LINE
  5
   5AD
  8
0
  6
CONTINUOUS
 62
   130
 10
107.256015064716
 20
-17.4291922390457
 30
0.0
 11
108.246025174856
 21
-17.4291922390457
 31
0.0
  0
LINE
  5
   5AE
  8
0
  6
CONTINUOUS
 62
     2
 10
106.1460983336
 20
7.32072634696669
 30
0.0
 11
108.396043491364
 21
7.32072634696669
 31
0.0
  0
LINE
  5
   5AF
  8
0
  6
CONTINUOUS
 62
     2
 10
96.8460979640513
 20
7.32072634696669
 30
0.0
 11
105.246089142564
 21
7.32072634696669
 31
0.0
  0
LINE
  5
   5B0
  8
0
  6
CONTINUOUS
 62
     2
 10
108.846098440888
 20
-17.129183071851
 30
0.0
 11
109.146116763357
 21
-17.129183071851
 31
0.0
  0
LINE
  5
   5B1
  8
0
  6
CONTINUOUS
 62
     2
 10
108.846098440888
 20
-17.429178506135
 30
0.0
 11
108.846098440888
 21
-17.129183071851
 31
0.0
  0
LINE
  5
   5B2
  8
0
  6
CONTINUOUS
 62
     2
 10
108.771054967152
 20
7.32062190889094
 30
0.0
 11
109.036219160584
 21
7.21075863421261
 31
0.0
  0
LINE
  5
   5B3
  8
0
  6
CONTINUOUS
 62
     2
 10
109.036276030575
 20
7.21082006412961
 30
0.0
 11
109.146111849661
 21
6.94568334647428
 31
0.0
  0
LINE
  5
   5B4
  8
0
  6
CONTINUOUS
 62
   130
 10
96.8460979640513
 20
-17.1291784942141
 30
0.0
 11
96.8460979640513
 21
7.32072441975025
 31
0.0
  0
LINE
  5
   5B5
  8
0
  6
CONTINUOUS
 62
   130
 10
96.8460936725275
 20
-17.1291804969515
 30
0.0
 11
108.846094149365
 21
-17.1291850745881
 31
0.0
  0
LINE
  5
   5B6
  8
0
  6
CONTINUOUS
 62
     2
 10
108.846020621061
 20
-80.7292016208171
 30
0.0
 11
108.846020621061
 21
-80.4292036116123
 31
0.0
  0
LINE
  5
   5B7
  8
0
  6
CONTINUOUS
 62
     2
 10
107.646016181471
 20
-17.5792056358254
 30
0.0
 11
107.646020759105
 21
-80.4292035556231
 31
0.0
  0
LINE
  5
   5B8
  8
0
  6
CONTINUOUS
 62
   130
 10
107.346016190414
 20
-17.5792036687133
 30
0.0
 11
107.346020768048
 21
-80.7292016004319
 31
0.0
  0
LINE
  5
   5B9
  8
0
  6
CONTINUOUS
 62
   130
 10
107.34601598382
 20
-17.57920140028
 30
0.0
 11
107.646016181471
 21
-17.57920140028
 31
0.0
  0
LINE
  5
   5BA
  8
0
  6
CONTINUOUS
 62
   130
 10
107.346020561457
 20
-80.7292016208171
 30
0.0
 11
107.946025162935
 21
-80.7292016208171
 31
0.0
  0
LINE
  5
   5BB
  8
0
  6
CONTINUOUS
 62
     2
 10
107.646016181471
 20
-17.57920140028
 30
0.0
 11
109.146020632982
 21
-17.57920140028
 31
0.0
  0
LINE
  5
   5BC
  8
0
  6
CONTINUOUS
 62
     2
 10
109.146020632982
 20
-80.4292036116123
 30
0.0
 11
109.146020632982
 21
-73.5292124927047
 31
0.0
  0
LINE
  5
   5BD
  8
0
  6
CONTINUOUS
 62
     2
 10
109.146020632982
 20
-42.0292206823833
 30
0.0
 11
109.146020632982
 21
-17.5792059779169
 31
0.0
  0
LINE
  5
   5BE
  8
0
  6
CONTINUOUS
 62
     2
 10
109.671017533876
 20
-42.0292277023956
 30
0.0
 11
109.746012957211
 21
-42.1042277027392
 31
0.0
  0
LINE
  5
   5BF
  8
0
  6
CONTINUOUS
 62
     2
 10
109.671010820623
 20
-73.5292111395349
 30
0.0
 11
109.746010821036
 21
-73.4542108546303
 31
0.0
  0
LINE
  5
   5C0
  8
0
  6
CONTINUOUS
 62
     2
 10
109.746020656824
 20
-73.4542081981899
 30
0.0
 11
109.746020656824
 21
-42.1042252630004
 31
0.0
  0
LINE
  5
   5C1
  8
0
  6
CONTINUOUS
 62
     2
 10
107.646020573377
 20
-80.4292036116123
 30
0.0
 11
108.846020621061
 21
-80.4292036116123
 31
0.0
  0
LINE
  5
   5C2
  8
0
  6
CONTINUOUS
 62
   130
 10
97.5960064411156
 20
-51.7792256474504
 30
0.0
 11
97.5960064411156
 21
-47.8792346477521
 31
0.0
  0
LINE
  5
   5C3
  8
0
  6
CONTINUOUS
 62
   130
 10
97.5960064411156
 20
-46.3792391657844
 30
0.0
 11
97.5960064411156
 21
-46.0792345762266
 31
0.0
  0
LINE
  5
   5C4
  8
0
  6
CONTINUOUS
 62
   130
 10
97.5960064411156
 20
-77.8792037963865
 30
0.0
 11
107.346020561457
 21
-77.8792037963865
 31
0.0
  0
LINE
  5
   5C5
  8
0
  6
CONTINUOUS
 62
     7
 10
108.246025174856
 20
-17.57920140028
 30
0.0
 11
108.246025174856
 21
-17.4292059719564
 31
0.0
  0
LINE
  5
   5C6
  8
0
  6
CONTINUOUS
 62
   130
 10
96.5460063993924
 20
-46.0792025327683
 30
0.0
 11
96.5460063993924
 21
-17.4292013943195
 31
0.0
  0
LINE
  5
   5C7
  8
0
  6
CONTINUOUS
 62
   130
 10
96.5460063993924
 20
-46.0792025327683
 30
0.0
 11
97.5960064411156
 21
-46.0792025327683
 31
0.0
  0
LINE
  5
   5C8
  8
0
  6
CONTINUOUS
 62
   130
 10
96.5460063993924
 20
-17.4292013943195
 30
0.0
 11
97.5960064411156
 21
-17.4292013943195
 31
0.0
  0
LINE
  5
   5C9
  8
0
  6
CONTINUOUS
 62
   130
 10
97.5960030433944
 20
-17.4292018776352
 30
0.0
 11
107.256016244632
 21
-17.4292064552717
 31
0.0
  0
LINE
  5
   5CA
  8
0
  6
CONTINUOUS
 62
   130
 10
107.256019642353
 20
-31.1541973620651
 30
0.0
 11
107.256019642353
 21
-17.4292059719564
 31
0.0
  0
LINE
  5
   5CB
  8
0
  6
CONTINUOUS
 62
   130
 10
107.256005909443
 20
-77.879207226829
 30
0.0
 11
107.256019642352
 21
-34.6042009295981
 31
0.0
  0
LINE
  5
   5CC
  8
0
  6
CONTINUOUS
 62
   130
 10
107.256015064716
 20
-25.2292017042637
 30
0.0
 11
107.34601598382
 21
-25.2292017042637
 31
0.0
  0
LINE
  5
   5CD
  8
0
  6
CONTINUOUS
 62
   130
 10
107.256015064716
 20
-26.4292017519474
 30
0.0
 11
107.34601598382
 21
-26.4292017519474
 31
0.0
  0
LINE
  5
   5CE
  8
0
  6
CONTINUOUS
 62
   130
 10
97.5960064411156
 20
-77.1292037665844
 30
0.0
 11
107.256019642353
 21
-77.1292037665844
 31
0.0
  0
LINE
  5
   5CF
  8
0
  6
CONTINUOUS
 62
   130
 10
105.846006768941
 20
-31.1541973620651
 30
0.0
 11
107.346020561457
 21
-31.1541973620651
 31
0.0
  0
LINE
  5
   5D0
  8
0
  6
CONTINUOUS
 62
   130
 10
105.846006768941
 20
-34.6041974991558
 30
0.0
 11
105.846006768941
 21
-31.1541973620651
 31
0.0
  0
LINE
  5
   5D1
  8
0
  6
CONTINUOUS
 62
   130
 10
105.846006768941
 20
-34.6041974991558
 30
0.0
 11
107.34601598382
 21
-34.6041974991558
 31
0.0
  0
LINE
  5
   5D2
  8
0
  6
CONTINUOUS
 62
   130
 10
109.746020656824
 20
-73.5292084872725
 30
0.0
 11
109.746020656824
 21
-73.4542084842922
 31
0.0
  0
LINE
  5
   5D3
  8
0
  6
CONTINUOUS
 62
   130
 10
109.746020200015
 20
-42.1042382343033
 30
0.0
 11
109.746024777651
 21
-42.0292199207755
 31
0.0
  0
LINE
  5
   5D4
  8
0
  6
CONTINUOUS
 62
   130
 10
109.746020656824
 20
-73.5292084872725
 30
0.0
 11
111.546025305986
 21
-73.5292084872725
 31
0.0
  0
LINE
  5
   5D5
  8
0
  6
CONTINUOUS
 62
   130
 10
113.196025371552
 20
-71.8041943997141
 30
0.0
 11
113.196025371552
 21
-69.1792080283167
 31
0.0
  0
LINE
  5
   5D6
  8
0
  6
CONTINUOUS
 62
   130
 10
113.196025371552
 20
-42.6292207062252
 30
0.0
 11
113.196025371552
 21
-42.1792206883438
 31
0.0
  0
LINE
  5
   5D7
  8
0
  6
CONTINUOUS
 62
   130
 10
109.74602398644
 20
-42.0292140240178
 30
0.0
 11
111.546025305986
 21
-42.0292190178136
 31
0.0
  0
LINE
  5
   5D8
  8
0
  6
CONTINUOUS
 62
   130
 10
109.671016076207
 20
-73.5292084872725
 30
0.0
 11
109.746020656824
 21
-73.5292084872725
 31
0.0
  0
LINE
  5
   5D9
  8
0
  6
CONTINUOUS
 62
     3
 10
67.5960235595703
 20
1.32072610854812
 30
0.0
 11
68.0460235774517
 21
1.32072610854812
 31
0.0
  0
LINE
  5
   5DA
  8
0
  6
CONTINUOUS
 62
     3
 10
67.5960235595703
 20
4.92072625159926
 30
0.0
 11
68.0460235774517
 21
4.92072625159926
 31
0.0
  0
LINE
  5
   5DB
  8
0
  6
CONTINUOUS
 62
   130
 10
69.3960022282159
 20
-51.3291903695999
 30
0.0
 11
70.2357121842959
 21
-51.5541949209623
 31
0.0
  0
LINE
  5
   5DC
  8
0
  6
CONTINUOUS
 62
   130
 10
69.3959963102558
 20
-51.3291872906155
 30
0.0
 11
69.3960083265515
 21
-49.5292055296375
 31
0.0
  0
LINE
  5
   5DD
  8
0
  6
CONTINUOUS
 62
   130
 10
69.3959992629646
 20
-48.3291864920335
 30
0.0
 11
69.3960089904429
 21
-48.4792048085416
 31
0.0
  0
LINE
  5
   5DE
  8
0
  6
CONTINUOUS
 62
   130
 10
69.3959913504102
 20
-48.3291970372071
 30
0.0
 11
70.2357030336989
 21
-48.1042016499729
 31
0.0
  0
LINE
  5
   5DF
  8
0
  6
CONTINUOUS
 62
     2
 10
108.396043491364
 20
7.32072634696669
 30
0.0
 11
108.771098437908
 21
7.32072634696669
 31
0.0
  0
LINE
  5
   5E0
  8
0
  6
CONTINUOUS
 62
     2
 10
108.846020621061
 20
-80.4292036116123
 30
0.0
 11
109.146020632982
 21
-80.4292036116123
 31
0.0
  0
LINE
  5
   5E1
  8
0
  6
CONTINUOUS
 62
     2
 10
109.146020632982
 20
-42.0292206823833
 30
0.0
 11
109.671025231481
 21
-42.0292206823833
 31
0.0
  0
LINE
  5
   5E2
  8
0
  6
CONTINUOUS
 62
     2
 10
109.146020632982
 20
-73.5292084872725
 30
0.0
 11
109.671020653844
 21
-73.5292084872725
 31
0.0
  0
LINE
  5
   5E3
  8
0
  6
CONTINUOUS
 62
   210
 10
129.980263788712
 20
-74.0007139773626
 30
0.0
 11
130.648149321354
 21
-71.6715249697205
 31
0.0
  0
LINE
  5
   5E4
  8
0
  6
CONTINUOUS
 62
   210
 10
111.006025284529
 20
-69.1721224470796
 30
0.0
 11
122.464529465805
 21
-72.4577877205801
 31
0.0
  0
LINE
  5
   5E5
  8
0
  6
CONTINUOUS
 62
   210
 10
122.464376818097
 20
-72.4577503556147
 30
0.0
 11
129.620520786751
 21
-74.2094246888048
 31
0.0
  0
LINE
  5
   5E6
  8
0
  6
CONTINUOUS
 62
   210
 10
129.620536659187
 20
-74.2094294783388
 30
0.0
 11
129.842420003445
 21
-74.1775200664225
 31
0.0
  0
LINE
  5
   5E7
  8
0
  6
CONTINUOUS
 62
   210
 10
129.842431233267
 20
-74.1775202224926
 30
0.0
 11
129.980261019828
 21
-74.0007189356337
 31
0.0
  0
LINE
  5
   5E8
  8
0
  6
CONTINUOUS
 62
   210
 10
130.624947822322
 20
-71.4485646735711
 30
0.0
 11
130.648140986844
 21
-71.6715313497314
 31
0.0
  0
LINE
  5
   5E9
  8
0
  6
CONTINUOUS
 62
   210
 10
130.453690361993
 20
-71.3039170220897
 30
0.0
 11
130.624948737603
 21
-71.4485615519466
 31
0.0
  0
LINE
  5
   5EA
  8
0
  6
CONTINUOUS
 62
   210
 10
123.456670338845
 20
-68.9972213665005
 30
0.0
 11
130.453666022451
 21
-71.3039092689764
 31
0.0
  0
LINE
  5
   5EB
  8
0
  6
CONTINUOUS
 62
   210
 10
111.006025284529
 20
-65.4270598944415
 30
0.0
 11
123.456752974989
 21
-68.9972486090206
 31
0.0
  0
LINE
  5
   5EC
  8
0
  6
CONTINUOUS
 62
   130
 10
122.464405567803
 20
-72.4577539375287
 30
0.0
 11
123.456701231509
 21
-68.9972293793483
 31
0.0
  0
LINE
  5
   5ED
  8
0
  6
CONTINUOUS
 62
     5
 10
68.0460235774517
 20
-114.4792170468
 30
0.0
 11
77.7104198392799
 21
-114.479213188869
 31
0.0
  0
LINE
  5
   5EE
  8
0
  6
CONTINUOUS
 62
     5
 10
67.5960235595703
 20
-99.6292166363484
 30
0.0
 11
68.0460235774517
 21
-99.6292164567129
 31
0.0
  0
LINE
  5
   5EF
  8
0
  6
CONTINUOUS
 62
     5
 10
67.5960235595703
 20
-112.079217131068
 30
0.0
 11
67.5960235595703
 21
-108.479216988017
 31
0.0
  0
LINE
  5
   5F0
  8
0
  6
CONTINUOUS
 62
     5
 10
67.5960235595703
 20
-99.6292166363484
 30
0.0
 11
67.5960235595703
 21
-77.8792037963867
 31
0.0
  0
LINE
  5
   5F1
  8
0
  6
CONTINUOUS
 62
     5
 10
68.0460235774517
 20
-114.4792170468
 30
0.0
 11
68.0460235774517
 21
-99.6292164567129
 31
0.0
  0
LINE
  5
   5F2
  8
0
  6
CONTINUOUS
 62
     5
 10
67.5960235595703
 20
-108.479216988017
 30
0.0
 11
68.0460211823112
 21
-108.479216808382
 31
0.0
  0
LINE
  5
   5F3
  8
0
  6
CONTINUOUS
 62
     5
 10
67.5960235595703
 20
-112.079217131068
 30
0.0
 11
68.0460226193955
 21
-112.079216951433
 31
0.0
  0
LINE
  5
   5F4
  8
0
  6
CONTINUOUS
 62
     5
 10
107.946025162935
 20
-92.7292002548483
 30
0.0
 11
107.946025162935
 21
-92.5792020916938
 31
0.0
  0
LINE
  5
   5F5
  8
0
  6
CONTINUOUS
 62
     1
 10
109.146025210619
 20
-114.479201119116
 30
0.0
 11
109.146025210619
 21
-93.0292002667692
 31
0.0
  0
LINE
  5
   5F6
  8
0
  6
CONTINUOUS
 62
     1
 10
107.946025162935
 20
-114.479201119116
 30
0.0
 11
109.146025210619
 21
-114.479201119116
 31
0.0
  0
LINE
  5
   5F7
  8
0
  6
CONTINUOUS
 62
   130
 10
97.7460247576237
 20
-92.7292002548483
 30
0.0
 11
107.946025162935
 21
-92.7292002548483
 31
0.0
  0
LINE
  5
   5F8
  8
0
  6
CONTINUOUS
 62
     1
 10
109.146025210619
 20
-92.5792020916938
 30
0.0
 11
109.146025210619
 21
-80.8792016267776
 31
0.0
  0
LINE
  5
   5F9
  8
0
  6
CONTINUOUS
 62
   130
 10
97.7460247576237
 20
-114.479205190855
 30
0.0
 11
97.7460247576237
 21
-92.7292002548483
 31
0.0
  0
LINE
  5
   5FA
  8
0
  6
CONTINUOUS
 62
   130
 10
97.7460247576237
 20
-93.0292002667692
 30
0.0
 11
109.146025210619
 21
-93.0292002667692
 31
0.0
  0
LINE
  5
   5FB
  8
0
  6
CONTINUOUS
 62
     1
 10
108.846025198698
 20
-93.0292002667692
 30
0.0
 11
108.846025198698
 21
-92.7292002548483
 31
0.0
  0
LINE
  5
   5FC
  8
0
  6
CONTINUOUS
 62
   130
 10
107.346020561457
 20
-80.8792016267776
 30
0.0
 11
107.646020573377
 21
-80.8792016267776
 31
0.0
  0
LINE
  5
   5FD
  8
0
  6
CONTINUOUS
 62
   130
 10
107.346020561457
 20
-92.5792020916938
 30
0.0
 11
107.646020573377
 21
-92.5792020916938
 31
0.0
  0
LINE
  5
   5FE
  8
0
  6
CONTINUOUS
 62
   130
 10
107.346020561457
 20
-92.5792020916938
 30
0.0
 11
107.346020561457
 21
-80.8792016267776
 31
0.0
  0
LINE
  5
   5FF
  8
0
  6
CONTINUOUS
 62
     1
 10
107.646020573377
 20
-92.5792020916938
 30
0.0
 11
107.646020573377
 21
-80.8792016267776
 31
0.0
  0
LINE
  5
   600
  8
0
  6
CONTINUOUS
 62
     5
 10
107.946025162935
 20
-80.8792016267776
 30
0.0
 11
107.946025162935
 21
-80.7292016208171
 31
0.0
  0
LINE
  5
   601
  8
0
  6
CONTINUOUS
 62
   130
 10
97.8960247635841
 20
-114.479205190855
 30
0.0
 11
97.8960247635841
 21
-93.0292002667692
 31
0.0
  0
LINE
  5
   602
  8
0
  6
CONTINUOUS
 62
     1
 10
77.6460148036476
 20
-13.8292270785026
 30
0.0
 11
82.4498987707959
 21
-13.8292394239912
 31
0.0
  0
LINE
  5
   603
  8
0
  6
CONTINUOUS
 62
     1
 10
77.232459226642
 20
-15.6292094517122
 30
0.0
 11
80.6822467127466
 21
-15.6292080745913
 31
0.0
  0
LINE
  5
   604
  8
0
  6
CONTINUOUS
 62
     1
 10
68.0460241159978
 20
-15.7792131248064
 30
0.0
 11
71.5004304713222
 21
-15.7792117458417
 31
0.0
  0
LINE
  5
   605
  8
0
  6
CONTINUOUS
 62
     1
 10
77.7210239619017
 20
-15.629209256682
 30
0.0
 11
77.7210239619017
 21
-13.8292272712685
 31
0.0
  0
LINE
  5
   606
  8
0
  6
CONTINUOUS
 62
     1
 10
70.2960236668587
 20
-18.3005177081507
 30
0.0
 11
70.2960236668587
 21
-15.7792122266289
 31
0.0
  0
LINE
  5
   607
  8
0
  6
CONTINUOUS
 62
     1
 10
67.1905202333644
 20
-18.3005177081507
 30
0.0
 11
78.0588977061548
 21
-18.3005177081507
 31
0.0
  0
INSERT
  5
   608
  8
0
  6
CONTINUOUS
 62
     1
  2
*HATCH256
 10
67.5960235595703
 20
-77.8792037963867
 30
0.0
 41
0.300000011920929
 42
0.300000011920929
 43
0.300000011920929
  0
LINE
  5
   609
  8
0
  6
CONTINUOUS
 62
     3
 10
74.9144130921274
 20
-18.3005177081507
 30
0.0
 11
76.4158784011731
 21
-16.7990631570106
 31
0.0
  0
LINE
  5
   60A
  8
0
  6
CONTINUOUS
 62
     3
 10
77.6460148036476
 20
-13.8292149841791
 30
0.0
 11
77.6460148036476
 21
-11.7292057454588
 31
0.0
  0
LINE
  5
   60B
  8
0
  6
CONTINUOUS
 62
     3
 10
73.4460237920284
 20
6.12072629928298
 30
0.0
 11
77.6460148036476
 21
6.12072629928298
 31
0.0
  0
LINE
  5
   60C
  8
0
  6
CONTINUOUS
 62
     3
 10
73.4460156005149
 20
-13.829211748856
 30
0.0
 11
73.4460160823744
 21
-11.7292057454588
 31
0.0
  0
LINE
  5
   60D
  8
0
  6
CONTINUOUS
 62
     3
 10
71.5261920455687
 20
-15.7490346811913
 30
0.0
 11
73.4460209063887
 21
-13.8292012891414
 31
0.0
  0
LINE
  5
   60E
  8
0
  6
CONTINUOUS
 62
   130
 10
68.6460236012936
 20
4.02072621583648
 30
0.0
 11
73.4460237920284
 21
4.02072621583648
 31
0.0
  0
LINE
  5
   60F
  8
0
  6
CONTINUOUS
 62
   130
 10
68.6460236012936
 20
-0.17927395105653
 30
0.0
 11
73.4460192143915
 21
-0.17927395105653
 31
0.0
  0
LINE
  5
   610
  8
0
  6
CONTINUOUS
 62
   130
 10
68.1960238686913
 20
-13.229203515768
 30
0.0
 11
69.3960279218073
 21
-13.2292080934049
 31
0.0
  0
LINE
  5
   611
  8
0
  6
CONTINUOUS
 62
   130
 10
70.2960236094853
 20
-13.229205347218
 30
0.0
 11
73.2960283063315
 21
-13.2292099248548
 31
0.0
  0
LINE
  5
   612
  8
0
  6
CONTINUOUS
 62
   130
 10
68.1960235834122
 20
5.22072626352019
 30
0.0
 11
73.296023786068
 21
5.22072626352019
 31
0.0
  0
LINE
  5
   613
  8
0
  6
CONTINUOUS
 62
   130
 10
68.1960235834122
 20
-13.2292012274265
 30
0.0
 11
68.1960235834122
 21
5.22072626352019
 31
0.0
  0
LINE
  5
   614
  8
0
  6
CONTINUOUS
 62
   130
 10
73.296023786068
 20
4.02072621583648
 30
0.0
 11
73.296023786068
 21
5.22072626352019
 31
0.0
  0
LINE
  5
   615
  8
0
  6
CONTINUOUS
 62
   130
 10
73.296023786068
 20
-2.57919164895975
 30
0.0
 11
73.296023786068
 21
-0.17927395105653
 31
0.0
  0
LINE
  5
   616
  8
0
  6
CONTINUOUS
 62
   130
 10
73.296023679749
 20
-6.77918777047516
 30
0.0
 11
73.2960282573857
 21
-13.2292063373227
 31
0.0
  0
LINE
  5
   617
  8
0
  6
CONTINUOUS
 62
   130
 10
69.3960227191006
 20
-15.6292065441515
 30
0.0
 11
69.3960235774075
 21
-13.2292018711472
 31
0.0
  0
LINE
  5
   618
  8
0
  6
CONTINUOUS
 62
   130
 10
70.2960214288112
 20
-15.629212886127
 30
0.0
 11
73.296025948818
 21
-13.2292128424246
 31
0.0
  0
LINE
  5
   619
  8
0
  6
CONTINUOUS
 62
   130
 10
69.396022772789
 20
-15.6292059004309
 30
0.0
 11
70.2960236668587
 21
-15.6292059004309
 31
0.0
  0
LINE
  5
   61A
  8
0
  6
CONTINUOUS
 62
   130
 10
70.2960236668587
 20
-15.6292059004309
 30
0.0
 11
70.2960236668587
 21
-13.2292012274265
 31
0.0
  0
LINE
  5
   61B
  8
0
  6
CONTINUOUS
 62
   130
 10
68.6460236012936
 20
-6.77919639348966
 30
0.0
 11
68.6460236012936
 21
-2.57920080423355
 31
0.0
  0
LINE
  5
   61C
  8
0
  6
CONTINUOUS
 62
   130
 10
68.6460236012936
 20
-0.17927395105653
 30
0.0
 11
68.6460236012936
 21
4.02072621583648
 31
0.0
  0
LINE
  5
   61D
  8
0
  6
CONTINUOUS
 62
   130
 10
69.3960236310959
 20
-9.11676667680604
 30
0.0
 11
69.3960236310959
 21
-7.20506339573313
 31
0.0
  0
LINE
  5
   61E
  8
0
  6
CONTINUOUS
 62
   130
 10
69.3960236310959
 20
-12.0292057573797
 30
0.0
 11
73.296023786068
 21
-12.0292057573797
 31
0.0
  0
LINE
  5
   61F
  8
0
  6
CONTINUOUS
 62
   130
 10
69.3960236310959
 20
-12.0292057573797
 30
0.0
 11
69.3960236310959
 21
-10.7416495347996
 31
0.0
  0
LINE
  5
   620
  8
0
  6
CONTINUOUS
 62
   130
 10
73.2960192084311
 20
-7.52919184565508
 30
0.0
 11
73.4460192143915
 21
-7.52919184565508
 31
0.0
  0
LINE
  5
   621
  8
0
  6
CONTINUOUS
 62
   130
 10
73.296023786068
 20
-12.3292057693006
 30
0.0
 11
73.4460192143915
 21
-12.3292057693006
 31
0.0
  0
LINE
  5
   622
  8
0
  6
CONTINUOUS
 62
   130
 10
68.6460236012936
 20
-2.57920080423355
 30
0.0
 11
73.4460237920284
 21
-2.57920080423355
 31
0.0
  0
LINE
  5
   623
  8
0
  6
CONTINUOUS
 62
   130
 10
68.6460236012936
 20
-6.77919639348966
 30
0.0
 11
73.4460237920284
 21
-6.77919639348966
 31
0.0
  0
LINE
  5
   624
  8
0
  6
CONTINUOUS
 62
   130
 10
68.6460236012936
 20
0.420726072785328
 30
0.0
 11
82.1460149824616
 21
0.420726072785328
 31
0.0
  0
LINE
  5
   625
  8
0
  6
CONTINUOUS
 62
   130
 10
68.6460236012936
 20
3.42072619199462
 30
0.0
 11
82.1460149824616
 21
3.42072619199462
 31
0.0
  0
LINE
  5
   626
  8
0
  6
CONTINUOUS
 62
   130
 10
69.3960236310959
 20
-10.7416492486973
 30
0.0
 11
73.296023786068
 21
-10.7416492486973
 31
0.0
  0
LINE
  5
   627
  8
0
  6
CONTINUOUS
 62
   130
 10
69.3960236310959
 20
-9.11676667680604
 30
0.0
 11
73.296023786068
 21
-9.11676667680604
 31
0.0
  0
LINE
  5
   628
  8
0
  6
CONTINUOUS
 62
   130
 10
73.2960192084311
 20
-9.92919651865941
 30
0.0
 11
73.4460192143915
 21
-9.92919651865941
 31
0.0
  0
LINE
  5
   629
  8
0
  6
CONTINUOUS
 62
   130
 10
68.6460236012936
 20
-6.1792055249216
 30
0.0
 11
82.1460149824616
 21
-6.1792055249216
 31
0.0
  0
LINE
  5
   62A
  8
0
  6
CONTINUOUS
 62
   130
 10
68.6460236012936
 20
-3.17920540571231
 30
0.0
 11
82.1460149824616
 21
-3.17920540571231
 31
0.0
  0
INSERT
  5
   62B
  8
0
  6
CONTINUOUS
 62
     1
  2
*HATCH257
 10
67.5960235595703
 20
-77.8792037963867
 30
0.0
 41
0.300000011920929
 42
0.300000011920929
 43
0.300000011920929
  0
INSERT
  5
   62C
  8
0
  6
CONTINUOUS
 62
     1
  2
*HATCH258
 10
67.5960235595703
 20
-77.8792037963867
 30
0.0
 41
0.300000011920929
 42
0.300000011920929
 43
0.300000011920929
  0
INSERT
  5
   62D
  8
0
  6
CONTINUOUS
 62
     1
  2
*HATCH259
 10
67.5960235595703
 20
-77.8792037963867
 30
0.0
 41
0.300000011920929
 42
0.300000011920929
 43
0.300000011920929
  0
INSERT
  5
   62E
  8
0
  6
CONTINUOUS
 62
     1
  2
*HATCH260
 10
67.5960235595703
 20
-77.8792037963867
 30
0.0
 41
0.300000011920929
 42
0.300000011920929
 43
0.300000011920929
  0
LINE
  5
   62F
  8
0
  6
CONTINUOUS
 62
   130
 10
69.3960236310959
 20
-7.20506339573315
 30
0.0
 11
73.296023679749
 21
-7.20506339573315
 31
0.0
  0
LINE
  5
   630
  8
0
  6
DASHDOT
 62
     7
 10
68.2745950768859
 20
-4.67920546531697
 30
0.0
 11
86.6185612575331
 21
-4.67920546531697
 31
0.0
  0
INSERT
  5
   631
  8
0
  6
CONTINUOUS
 62
     1
  2
*HATCH261
 10
67.5960235595703
 20
-77.8792037963867
 30
0.0
 41
0.300000011920929
 42
0.300000011920929
 43
0.300000011920929
  0
LINE
  5
   632
  8
0
  6
CONTINUOUS
 62
     3
 10
73.4460195930394
 20
3.57072619795505
 30
0.0
 11
77.6460148036476
 21
3.57072619795505
 31
0.0
  0
LINE
  5
   633
  8
0
  6
CONTINUOUS
 62
     3
 10
73.4460188358338
 20
0.270726066824835
 30
0.0
 11
77.6460148036476
 21
0.270726066824835
 31
0.0
  0
LINE
  5
   634
  8
0
  6
CONTINUOUS
 62
     3
 10
73.4460180786439
 20
-3.02920539975186
 30
0.0
 11
77.6460148036476
 21
-3.02920539975186
 31
0.0
  0
LINE
  5
   635
  8
0
  6
CONTINUOUS
 62
     3
 10
73.4460173214382
 20
-6.32920553088208
 30
0.0
 11
77.6460148036476
 21
-6.32920553088208
 31
0.0
  0
INSERT
  5
   636
  8
0
  6
CONTINUOUS
 62
     1
  2
*HATCH262
 10
67.5960235595703
 20
-77.8792037963867
 30
0.0
 41
0.300000011920929
 42
0.300000011920929
 43
0.300000011920929
  0
INSERT
  5
   637
  8
0
  6
CONTINUOUS
 62
     1
  2
*HATCH263
 10
67.5960235595703
 20
-77.8792037963867
 30
0.0
 41
0.300000011920929
 42
0.300000011920929
 43
0.300000011920929
  0
ARC
  5
   638
  8
0
  6
CONTINUOUS
 62
     3
 10
74.4962051388742
 20
-18.7189768214954
 30
0.0
 40
4.2001930438763
 50
135.000927993663
 51
174.282219258852
  0
ARC
  5
   639
  8
0
  6
CONTINUOUS
 62
     3
 10
73.4457561284745
 20
-13.8290805683672
 30
0.0
 40
4.20028305653238
 50
315.001035190355
 51
359.998126077519
  0
INSERT
  5
   63A
  8
0
  6
CONTINUOUS
 62
     1
  2
*HATCH264
 10
67.5960235595703
 20
-77.8792037963867
 30
0.0
 41
0.300000011920929
 42
0.300000011920929
 43
0.300000011920929
  0
LINE
  5
   63B
  8
0
  6
CONTINUOUS
 62
     1
 10
75.9637910103928
 20
-86.8911373873332
 30
0.0
 11
75.9638127215156
 21
-82.6670147973634
 31
0.0
  0
LINE
  5
   63C
  8
0
  6
CONTINUOUS
 62
     1
 10
75.9636183120324
 20
-120.491382476925
 30
0.0
 11
75.963639280189
 21
-116.41181161041
 31
0.0
  0
LINE
  5
   63D
  8
0
  6
DASHDOT
 62
     7
 10
75.963639280189
 20
-116.41181161041
 30
0.0
 11
75.9637910103928
 21
-86.8911373873332
 31
0.0
  0
LINE
  5
   63E
  8
0
  6
DASHDOT
 62
     7
 10
67.5960235595703
 20
-120.521962263675
 30
0.0
 11
67.5960235595703
 21
12.6422977936826
 31
0.0
  0
LINE
  5
   63F
  8
0
  6
DASHDOT
 62
     7
 10
66.6960235238075
 20
-120.521962263675
 30
0.0
 11
66.6960235238075
 21
12.818972122549
 31
0.0
  0
LINE
  5
   640
  8
0
  6
CONTINUOUS
 62
     1
 10
107.946025162935
 20
-92.7292002548483
 30
0.0
 11
108.846025198698
 21
-92.7292002548483
 31
0.0
  0
LINE
  5
   641
  8
0
  6
CONTINUOUS
 62
     2
 10
107.946025162935
 20
-80.7292016208171
 30
0.0
 11
108.846020621061
 21
-80.7292016208171
 31
0.0
  0
LINE
  5
   642
  8
0
  6
CONTINUOUS
 62
     1
 10
107.646020573377
 20
-80.8792016267776
 30
0.0
 11
109.146025210619
 21
-80.8792016267776
 31
0.0
  0
LINE
  5
   643
  8
0
  6
CONTINUOUS
 62
     1
 10
107.646020573377
 20
-92.5792020916938
 30
0.0
 11
109.146025210619
 21
-92.5792020916938
 31
0.0
  0
LINE
  5
   644
  8
0
  6
CONTINUOUS
 62
   130
 10
68.3460233032703
 20
-47.5978468725384
 30
0.0
 11
70.5156157510142
 21
-48.1791876894478
 31
0.0
  0
LINE
  5
   645
  8
0
  6
CONTINUOUS
 62
   130
 10
68.3460233032703
 20
-52.0605274242672
 30
0.0
 11
70.5156076623811
 21
-51.4791883730642
 31
0.0
  0
LINE
  5
   646
  8
0
  6
DASHED
 62
     7
 10
77.7210239619017
 20
-98.2792852472559
 30
0.0
 11
83.5175259424035
 21
-98.2792852472559
 31
0.0
  0
LINE
  5
   647
  8
0
  6
CONTINUOUS
 62
     5
 10
73.3710237890482
 20
-91.3792140031995
 30
0.0
 11
73.3710237890482
 21
-90.1979500513055
 31
0.0
  0
LINE
  5
   648
  8
0
  6
CONTINUOUS
 62
     5
 10
77.7210239619017
 20
-93.3292123442088
 30
0.0
 11
78.8576248725635
 21
-93.329211890489
 31
0.0
  0
LINE
  5
   649
  8
0
  6
DASHDOT
 62
     7
 10
68.8536207133584
 20
-102.479216247577
 30
0.0
 11
87.5528518234274
 21
-102.47920878303
 31
0.0
  0
LINE
  5
   64A
  8
0
  6
DASHDOT
 62
     7
 10
68.8739734051861
 20
-109.079216501713
 30
0.0
 11
88.5138940279646
 21
-109.079208661652
 31
0.0
  0
LINE
  5
   64B
  8
0
  6
CONTINUOUS
 62
     5
 10
73.5210237950087
 20
-113.27921481355
 30
0.0
 11
77.7210239619017
 21
-113.279213136952
 31
0.0
  0
LINE
  5
   64C
  8
0
  6
CONTINUOUS
 62
     5
 10
77.7210239619017
 20
-113.279213136952
 30
0.0
 11
77.7210239619017
 21
-90.1979500513055
 31
0.0
  0
LINE
  5
   64D
  8
0
  6
CONTINUOUS
 62
     5
 10
73.5210237950087
 20
-113.27921481355
 30
0.0
 11
73.5210237950087
 21
-90.1979500513055
 31
0.0
  0
LINE
  5
   64E
  8
0
  6
CONTINUOUS
 62
     5
 10
73.5210237950086
 20
-100.829214318831
 30
0.0
 11
77.7210239619017
 21
-100.829212642233
 31
0.0
  0
LINE
  5
   64F
  8
0
  6
CONTINUOUS
 62
     5
 10
73.5210237950087
 20
-104.129214449961
 30
0.0
 11
77.7210239619017
 21
-104.129212773363
 31
0.0
  0
LINE
  5
   650
  8
0
  6
CONTINUOUS
 62
     5
 10
73.5210237950087
 20
-107.429214581092
 30
0.0
 11
77.7210239619017
 21
-107.429212904493
 31
0.0
  0
LINE
  5
   651
  8
0
  6
CONTINUOUS
 62
     5
 10
73.5210237950086
 20
-110.729214712222
 30
0.0
 11
77.7210239619017
 21
-110.729213035624
 31
0.0
  0
INSERT
  5
   652
  8
0
  6
CONTINUOUS
 62
     5
  2
*HATCH265
 10
67.5960235595703
 20
-77.8792037963867
 30
0.0
 41
0.300000011920929
 42
0.300000011920929
 43
0.300000011920929
  0
INSERT
  5
   653
  8
0
  6
CONTINUOUS
 62
     5
  2
*HATCH266
 10
67.5960235595703
 20
-77.8792037963867
 30
0.0
 41
0.300000011920929
 42
0.300000011920929
 43
0.300000011920929
  0
LINE
  5
   654
  8
0
  6
DASHED
 62
     7
 10
77.645622406373
 20
-129.924160702178
 30
0.0
 11
77.6457210992923
 21
-110.722436579885
 31
0.0
  0
LINE
  5
   655
  8
0
  6
DASHED
 62
     7
 10
80.6456230541072
 20
-129.821338454863
 30
0.0
 11
80.6457851737841
 21
-98.2792852472559
 31
0.0
  0
LINE
  5
   656
  8
0
  6
DASHED
 62
     7
 10
83.5175259424035
 20
-98.2792852472559
 30
0.0
 11
83.5930334513089
 21
-117.555306648139
 31
0.0
  0
LINE
  5
   657
  8
0
  6
CONTINUOUS
 62
     5
 10
83.6457020287419
 20
-114.479210819563
 30
0.0
 11
107.946025162935
 21
-114.479201119116
 31
0.0
  0
LINE
  5
   658
  8
0
  6
CONTINUOUS
 62
     3
 10
68.0460230922443
 20
7.32079843298584
 30
0.0
 11
77.6460148036476
 21
7.32077376199274
 31
0.0
  0
LINE
  5
   659
  8
0
  6
CONTINUOUS
 62
   130
 10
84.0960150599476
 20
-105.329285527398
 30
0.0
 11
84.0960150599476
 21
-99.6292853009001
 31
0.0
  0
LINE
  5
   65A
  8
0
  6
CONTINUOUS
 62
   130
 10
85.9560151338574
 20
-105.329285527398
 30
0.0
 11
85.9560151338574
 21
-99.6292853009001
 31
0.0
  0
LINE
  5
   65B
  8
0
  6
CONTINUOUS
 62
   130
 10
83.6460150420662
 20
-111.929217125105
 30
0.0
 11
85.9560151338574
 21
-111.929217125105
 31
0.0
  0
LINE
  5
   65C
  8
0
  6
CONTINUOUS
 62
   130
 10
83.6460150420662
 20
-106.229216898607
 30
0.0
 11
85.9560151338574
 21
-106.229216898607
 31
0.0
  0
LINE
  5
   65D
  8
0
  6
CONTINUOUS
 62
   130
 10
83.6460150420662
 20
-105.329285527398
 30
0.0
 11
85.9560151338574
 21
-105.329285527398
 31
0.0
  0
LINE
  5
   65E
  8
0
  6
CONTINUOUS
 62
   130
 10
83.6460150420662
 20
-99.6292853009001
 30
0.0
 11
85.9560151338574
 21
-99.6292853009001
 31
0.0
  0
LINE
  5
   65F
  8
0
  6
CONTINUOUS
 62
   130
 10
84.0960150599476
 20
-111.929217125105
 30
0.0
 11
84.0960150599476
 21
-106.229216898607
 31
0.0
  0
LINE
  5
   660
  8
0
  6
CONTINUOUS
 62
   130
 10
85.9560151338574
 20
-111.929217125105
 30
0.0
 11
85.9560151338574
 21
-106.229216898607
 31
0.0
  0
LINE
  5
   661
  8
0
  6
CONTINUOUS
 62
     3
 10
73.446019558621
 20
3.42072619199456
 30
0.0
 11
73.4460201781515
 21
6.1207203793322
 31
0.0
  0
LINE
  5
   662
  8
0
  6
CONTINUOUS
 62
     3
 10
73.4460180442254
 20
-3.17920540571232
 30
0.0
 11
73.4460188702522
 21
0.420726072785271
 31
0.0
  0
LINE
  5
   663
  8
0
  6
CONTINUOUS
 62
   130
 10
84.0960150599476
 20
-110.4292170655
 30
0.0
 11
85.9560151338574
 21
-110.4292170655
 31
0.0
  0
LINE
  5
   664
  8
0
  6
CONTINUOUS
 62
   130
 10
84.0960150599476
 20
-107.729216958212
 30
0.0
 11
85.9560151338574
 21
-107.729216958212
 31
0.0
  0
LINE
  5
   665
  8
0
  6
CONTINUOUS
 62
   130
 10
84.0960150599476
 20
-103.829285467793
 30
0.0
 11
85.9560151338574
 21
-103.829285467793
 31
0.0
  0
LINE
  5
   666
  8
0
  6
CONTINUOUS
 62
   130
 10
84.0960150599476
 20
-101.129285360505
 30
0.0
 11
85.9560151338574
 21
-101.129285360505
 31
0.0
  0
LINE
  5
   667
  8
0
  6
CONTINUOUS
 62
   130
 10
69.2460236251354
 20
0.420726072785328
 30
0.0
 11
69.2460236251354
 21
3.42072619199462
 31
0.0
  0
LINE
  5
   668
  8
0
  6
CONTINUOUS
 62
   130
 10
69.2460236251354
 20
-6.1792055249216
 30
0.0
 11
69.2460236251354
 21
-3.17920540571231
 31
0.0
  0
LINE
  5
   669
  8
0
  6
CONTINUOUS
 62
     5
 10
67.5960235595703
 20
-91.3792163085222
 30
0.0
 11
73.5210237950087
 21
-91.379213943321
 31
0.0
  0
LINE
  5
   66A
  8
0
  6
CONTINUOUS
 62
     1
 10
65.4004403866933
 20
-90.1979500513055
 30
0.0
 11
79.374652696519
 21
-90.1979500513055
 31
0.0
  0
INSERT
  5
   66B
  8
0
  6
CONTINUOUS
 62
     7
  2
*HATCH267
 10
67.5960235595703
 20
-77.8792037963867
 30
0.0
 41
0.300000011920929
 42
0.300000011920929
 43
0.300000011920929
  0
LINE
  5
   66C
  8
0
  6
CONTINUOUS
 62
   130
 10
68.1957213638423
 20
-112.379135008043
 30
0.0
 11
73.2957215664307
 21
-112.379161220997
 31
0.0
  0
LINE
  5
   66D
  8
0
  6
CONTINUOUS
 62
   130
 10
68.6457275494715
 20
-111.179137273283
 30
0.0
 11
73.445727740143
 21
-111.179161944298
 31
0.0
  0
INSERT
  5
   66E
  8
0
  6
CONTINUOUS
 62
     7
  2
*HATCH268
 10
67.5960235595703
 20
-77.8792037963867
 30
0.0
 41
0.300000011920929
 42
0.300000011920929
 43
0.300000011920929
  0
LINE
  5
   66F
  8
0
  6
CONTINUOUS
 62
   130
 10
68.6457306333485
 20
-110.579137249449
 30
0.0
 11
73.5210237950087
 21
-110.579162307455
 31
0.0
  0
INSERT
  5
   670
  8
0
  6
CONTINUOUS
 62
     7
  2
*HATCH269
 10
67.5960235595703
 20
-77.8792037963867
 30
0.0
 41
0.300000011920929
 42
0.300000011920929
 43
0.300000011920929
  0
LINE
  5
   671
  8
0
  6
CONTINUOUS
 62
   130
 10
68.64574913661
 20
-106.979137106445
 30
0.0
 11
73.5210237950087
 21
-106.979162164356
 31
0.0
  0
LINE
  5
   672
  8
0
  6
CONTINUOUS
 62
   130
 10
68.6457614717413
 20
-104.5792102533
 30
0.0
 11
73.5210237950087
 21
-104.579235311147
 31
0.0
  0
INSERT
  5
   673
  8
0
  6
CONTINUOUS
 62
     7
  2
*HATCH270
 10
67.5960235595703
 20
-77.8792037963867
 30
0.0
 41
0.300000011920929
 42
0.300000011920929
 43
0.300000011920929
  0
LINE
  5
   674
  8
0
  6
CONTINUOUS
 62
   130
 10
68.6457645556417
 20
-103.979205651829
 30
0.0
 11
73.5210237950087
 21
-103.979230709661
 31
0.0
  0
LINE
  5
   675
  8
0
  6
CONTINUOUS
 62
   130
 10
68.6457799750263
 20
-100.979205532659
 30
0.0
 11
73.5210237950087
 21
-100.979230590412
 31
0.0
  0
INSERT
  5
   676
  8
0
  6
CONTINUOUS
 62
     7
  2
*HATCH271
 10
67.5960235595703
 20
-77.8792037963867
 30
0.0
 41
0.300000011920929
 42
0.300000011920929
 43
0.300000011920929
  0
LINE
  5
   677
  8
0
  6
CONTINUOUS
 62
   130
 10
68.6457830588562
 20
-100.379214664099
 30
0.0
 11
73.5210237950087
 21
-100.379239721836
 31
0.0
  0
LINE
  5
   678
  8
0
  6
CONTINUOUS
 62
   130
 10
69.3957852775176
 20
-99.9533515167076
 30
0.0
 11
73.2957853261192
 21
-99.953371561907
 31
0.0
  0
LINE
  5
   679
  8
0
  6
CONTINUOUS
 62
   130
 10
69.3957951032799
 20
-98.0416482356599
 30
0.0
 11
73.2957952582004
 21
-98.0416682808599
 31
0.0
  0
LINE
  5
   67A
  8
0
  6
CONTINUOUS
 62
   130
 10
69.3958034548427
 20
-96.4167656637902
 30
0.0
 11
73.2958036097632
 21
-96.4167857089902
 31
0.0
  0
LINE
  5
   67B
  8
0
  6
CONTINUOUS
 62
   130
 10
69.3958100726187
 20
-95.1292091551247
 30
0.0
 11
73.2958102275393
 21
-95.1292292003247
 31
0.0
  0
LINE
  5
   67C
  8
0
  6
CONTINUOUS
 62
   130
 10
68.1958164779721
 20
-93.9292052289999
 30
0.0
 11
69.3958205310957
 21
-93.9292068191374
 31
0.0
  0
LINE
  5
   67D
  8
0
  6
CONTINUOUS
 62
   130
 10
70.2958162187478
 20
-93.9292141911174
 30
0.0
 11
73.2958209155779
 21
-93.9292250328887
 31
0.0
  0
LINE
  5
   67E
  8
0
  6
CONTINUOUS
 62
   130
 10
70.2958263736196
 20
-91.5292066522289
 30
0.0
 11
73.2958185580793
 21
-93.9292221153068
 31
0.0
  0
LINE
  5
   67F
  8
0
  6
CONTINUOUS
 62
   130
 10
70.2958162760999
 20
-93.9292183108823
 30
0.0
 11
70.2958286116312
 21
-91.5292136379018
 31
0.0
  0
LINE
  5
   680
  8
0
  6
CONTINUOUS
 62
   130
 10
69.395816186664
 20
-93.9292130413646
 30
0.0
 11
69.3958276638883
 21
-91.5292083683822
 31
0.0
  0
LINE
  5
   681
  8
0
  6
CONTINUOUS
 62
   130
 10
69.3958277175733
 20
-91.5292090121167
 30
0.0
 11
70.2958286116312
 21
-91.5292136379365
 31
0.0
  0
LINE
  5
   682
  8
0
  6
CONTINUOUS
 62
   130
 10
68.1957213638423
 20
-112.379135008028
 30
0.0
 11
68.1958161926812
 21
-93.9292075173261
 31
0.0
  0
LINE
  5
   683
  8
0
  6
CONTINUOUS
 62
   130
 10
69.3958034548441
 20
-96.4167653776684
 30
0.0
 11
69.3958100726187
 21
-95.1292091551148
 31
0.0
  0
LINE
  5
   684
  8
0
  6
CONTINUOUS
 62
   130
 10
69.3957852775176
 20
-99.9533515166861
 30
0.0
 11
69.3957951032799
 21
-98.0416482356377
 31
0.0
  0
LINE
  5
   685
  8
0
  6
CONTINUOUS
 62
   130
 10
73.2957831372059
 20
-100.379247186996
 30
0.0
 11
73.2958208666136
 21
-93.9292286201839
 31
0.0
  0
LINE
  5
   686
  8
0
  6
CONTINUOUS
 62
     7
 10
73.2957948562861
 20
-97.2292384389938
 30
0.0
 11
73.5210237950087
 21
-97.2292395966243
 31
0.0
  0
LINE
  5
   687
  8
0
  6
CONTINUOUS
 62
     7
 10
73.2958117694778
 20
-94.8292291884078
 30
0.0
 11
73.4458071977993
 21
-94.8292299593535
 31
0.0
  0
LINE
  5
   688
  8
0
  6
CONTINUOUS
 62
   130
 10
68.6457614717413
 20
-104.579210253285
 30
0.0
 11
68.6457830588562
 21
-100.379214664084
 31
0.0
  0
LINE
  5
   689
  8
0
  6
CONTINUOUS
 62
   130
 10
73.295749321323
 20
-106.979161006161
 30
0.0
 11
73.2957616564072
 21
-104.579243308229
 31
0.0
  0
LINE
  5
   68A
  8
0
  6
CONTINUOUS
 62
   130
 10
68.6457275494715
 20
-111.179137273264
 30
0.0
 11
68.64574913661
 21
-106.979137106426
 31
0.0
  0
LINE
  5
   68B
  8
0
  6
CONTINUOUS
 62
   130
 10
73.2957215664307
 20
-112.379161220671
 30
0.0
 11
73.2957277341845
 21
-111.179161173025
 31
0.0
  0
LINE
  5
   68C
  8
0
  6
CONTINUOUS
 62
   130
 10
68.6457460527331
 20
-107.579137130279
 30
0.0
 11
73.5210237950087
 21
-107.579162188206
 31
0.0
  0
INSERT
  5
   68D
  8
0
  6
CONTINUOUS
 62
     7
  2
*HATCH272
 10
67.5960235595703
 20
-77.8792037963867
 30
0.0
 41
0.300000011920929
 42
0.300000011920929
 43
0.300000011920929
  0
INSERT
  5
   68E
  8
0
  6
CONTINUOUS
 62
     7
  2
*HATCH273
 10
67.5960235595703
 20
-77.8792037963867
 30
0.0
 41
0.300000011920929
 42
0.300000011920929
 43
0.300000011920929
  0
ARC
  5
   68F
  8
0
  6
CONTINUOUS
 62
   130
 10
89.7970306011701
 20
-61.2179830516792
 30
0.0
 40
42.1500016748905
 50
333.054582767096
 51
360.0
  0
LINE
  5
   690
  8
0
  6
CONTINUOUS
 62
   130
 10
131.947032276061
 20
-61.2179830516792
 30
0.0
 11
131.947032276061
 21
-56.2412360592781
 31
0.0
  0
LINE
  5
   691
  8
0
  6
CONTINUOUS
 62
     1
 10
65.3487493556363
 20
13.0834485114403
 30
0.0
 11
68.8325409547892
 21
12.3995634911814
 31
0.0
  0
LINE
  5
   692
  8
0
  6
CONTINUOUS
 62
     1
 10
65.8799401747685
 20
-120.521962263675
 30
0.0
 11
68.5027994561186
 21
-120.521962263675
 31
0.0
  0
LINE
  5
   693
  8
0
  6
DASHDOT
 62
     2
 10
53.1584222515044
 20
-57.7790576573023
 30
0.0
 11
134.642422426685
 21
-57.7792837207275
 31
0.0
  0
LINE
  5
   694
  8
0
  6
CONTINUOUS
 62
     1
 10
87.456015193462
 20
-116.844650643775
 30
0.0
 11
87.456015193462
 21
-98.4271423500219
 31
0.0
  0
LINE
  5
   695
  8
0
  6
CONTINUOUS
 62
     1
 10
79.374652696519
 20
-90.1979500513055
 30
0.0
 11
87.456015193462
 21
-98.4271423500219
 31
0.0
  0
LINE
  5
   696
  8
0
  6
CONTINUOUS
 62
     3
 10
73.446016908417
 20
-8.12920560240762
 30
0.0
 11
73.4460173558566
 21
-6.17920552492161
 31
0.0
  0
LINE
  5
   697
  8
0
  6
CONTINUOUS
 62
     3
 10
73.4460169084165
 20
-8.12920560240758
 30
0.0
 11
77.6460148036472
 21
-8.12920560240758
 31
0.0
  0
LINE
  5
   698
  8
0
  6
CONTINUOUS
 62
     3
 10
73.4460160823746
 20
-11.7292057454588
 30
0.0
 11
77.6460148036478
 21
-11.7292057454588
 31
0.0
  0
INSERT
  5
   699
  8
0
  6
CONTINUOUS
 62
     7
  2
*HATCH274
 10
67.5960235595703
 20
-77.8792037963867
 30
0.0
 41
0.300000011920929
 42
0.300000011920929
 43
0.300000011920929
  0
LINE
  5
   69A
  8
0
  6
DASHED
 62
     7
 10
83.5930334513089
 20
-117.555306648139
 30
0.0
 11
86.6456772788858
 21
-119.31775138373
 31
0.0
  0
LINE
  5
   69B
  8
0
  6
DASHED
 62
     7
 10
80.645677040388
 20
-119.317751383684
 30
0.0
 11
83.6456682572775
 21
-121.049797120322
 31
0.0
  0
LINE
  5
   69C
  8
0
  6
DASHED
 62
     7
 10
83.6456231732769
 20
-129.821353874247
 30
0.0
 11
83.6456682572775
 21
-121.049797120322
 31
0.0
  0
LINE
  5
   69D
  8
0
  6
DASHED
 62
     7
 10
86.6456232924465
 20
-129.821369293632
 30
0.0
 11
86.6456772788858
 21
-119.31775138373
 31
0.0
  0
LINE
  5
   69E
  8
0
  6
CONTINUOUS
 62
     1
 10
76.0212246886764
 20
-129.872750530204
 30
0.0
 11
89.259456475805
 21
-129.872750530204
 31
0.0
  0
LINE
  5
   69F
  8
0
  6
CONTINUOUS
 62
     7
 10
77.6460148036476
 20
-13.6792058229448
 30
0.0
 11
77.6460148036476
 21
-11.7292057454588
 31
0.0
  0
LINE
  5
   6A0
  8
0
  6
CONTINUOUS
 62
     7
 10
77.6460148036476
 20
-11.7292057454588
 30
0.0
 11
77.6460148036476
 21
-6.1792055249216
 31
0.0
  0
LINE
  5
   6A1
  8
0
  6
CONTINUOUS
 62
     1
 10
78.0588977061547
 20
-18.3005177081507
 30
0.0
 11
87.4562457024
 21
-8.73136538827201
 31
0.0
  0
LINE
  5
   6A2
  8
0
  6
CONTINUOUS
 62
     1
 10
87.4562457024
 20
-8.73136538911622
 30
0.0
 11
87.4563403646109
 21
9.68614290424941
 31
0.0
  0
INSERT
  5
   6A3
  8
0
  6
CONTINUOUS
 62
     7
  2
*HATCH275
 10
67.5960235595703
 20
-77.8792037963867
 30
0.0
 41
0.300000011920929
 42
0.300000011920929
 43
0.300000011920929
  0
LINE
  5
   6A4
  8
0
  6
CONTINUOUS
 62
     7
 10
77.6460148036476
 20
-8.87920563220997
 30
0.0
 11
82.1460149824616
 21
-8.87920563220997
 31
0.0
  0
LINE
  5
   6A5
  8
0
  6
CONTINUOUS
 62
     7
 10
82.1460149824616
 20
-8.87920563220997
 30
0.0
 11
82.1460149824616
 21
8.00683400810203
 31
0.0
  0
LINE
  5
   6A6
  8
0
  6
CONTINUOUS
 62
     7
 10
79.2960148692127
 20
27.4207958102224
 30
0.0
 11
83.7960150480267
 21
27.4207958102224
 31
0.0
  0
LINE
  5
   6A7
  8
0
  6
CONTINUOUS
 62
     7
 10
79.2960148692127
 20
11.5207951784132
 30
0.0
 11
79.2960148692127
 21
27.4207958102224
 31
0.0
  0
LINE
  5
   6A8
  8
0
  6
CONTINUOUS
 62
     7
 10
83.7960150480267
 20
11.5207951784132
 30
0.0
 11
83.7960150480267
 21
27.4207958102224
 31
0.0
  0
LINE
  5
   6A9
  8
0
  6
CONTINUOUS
 62
     7
 10
78.9640343406816
 20
11.188814649882
 30
0.0
 11
79.2960148692127
 21
11.5207951784132
 31
0.0
  0
LINE
  5
   6AA
  8
0
  6
CONTINUOUS
 62
     7
 10
82.1460149824616
 20
8.00683400810203
 30
0.0
 11
82.4779955109928
 21
8.33881453663322
 31
0.0
  0
ARC
  5
   6AB
  8
0
  6
CONTINUOUS
 62
     7
 10
79.2960148692127
 20
11.5207951784132
 30
0.0
 40
4.50000017881393
 50
315.0
 51
360.0
  0
ARC
  5
   6AC
  8
0
  6
CONTINUOUS
 62
     7
 10
82.1460149824616
 20
8.006834008102
 30
0.0
 40
4.50000017881393
 50
135.0
 51
180.0
  0
LINE
  5
   6AD
  8
0
  6
CONTINUOUS
 62
     3
 10
82.1460149824616
 20
7.3207621974543
 30
0.0
 11
96.8460979640513
 21
7.32072441975025
 31
0.0
  0
LINE
  5
   6AE
  8
0
  6
CONTINUOUS
 62
   130
 10
68.0460231735428
 20
9.42079851643908
 30
0.0
 11
77.8739221227521
 21
9.42077325974778
 31
0.0
  0
LINE
  5
   6AF
  8
0
  6
CONTINUOUS
 62
   130
 10
105.996024760081
 20
7.47072635292716
 30
0.0
 11
105.996024760081
 21
9.04570193764033
 31
0.0
  0
ARC
  5
   6B0
  8
0
  6
CONTINUOUS
 62
   130
 10
105.62102474518
 20
9.04570193764033
 30
0.0
 40
0.375000014901161
 50
0.0
 51
89.999852755729
  0
ARC
  5
   6B1
  8
0
  6
CONTINUOUS
 62
   130
 10
105.84602475412
 20
7.47072635292716
 30
0.0
 40
0.150000005960464
 50
270.0
 51
360.0
  0
LINE
  5
   6B2
  8
0
  6
CONTINUOUS
 62
   130
 10
83.2759459292354
 20
9.42075937710121
 30
0.0
 11
105.621025708891
 21
9.42070195254027
 31
0.0
  0
LINE
  5
   6B3
  8
0
  6
CONTINUOUS
 62
   130
 10
68.046023201592
 20
8.6707984866342
 30
0.0
 11
77.695263842558
 21
8.67077368907646
 31
0.0
  0
LINE
  5
   6B4
  8
0
  6
CONTINUOUS
 62
   130
 10
82.7784428524448
 20
8.67076062582827
 30
0.0
 11
87.4563351456926
 21
8.67074860412532
 31
0.0
  0
LINE
  5
   6B5
  8
0
  6
DASHDOT
 62
     7
 10
77.4594071552663
 20
23.2207956433294
 30
0.0
 11
86.3555797994443
 21
23.2207956433294
 31
0.0
  0
LINE
  5
   6B6
  8
0
  6
DASHDOT
 62
     7
 10
77.4594071552663
 20
16.6207953810689
 30
0.0
 11
86.3555797994443
 21
16.6207953810689
 31
0.0
  0
LINE
  5
   6B7
  8
0
  6
CONTINUOUS
 62
     7
 10
79.2960148692127
 20
24.8707957088945
 30
0.0
 11
83.7960150480267
 21
24.8707957088945
 31
0.0
  0
LINE
  5
   6B8
  8
0
  6
CONTINUOUS
 62
     7
 10
79.2960148692127
 20
21.5707955777643
 30
0.0
 11
83.7960150480267
 21
21.5707955777643
 31
0.0
  0
LINE
  5
   6B9
  8
0
  6
CONTINUOUS
 62
     7
 10
79.2960148692127
 20
18.2707954466341
 30
0.0
 11
83.7960150480267
 21
18.2707954466341
 31
0.0
  0
LINE
  5
   6BA
  8
0
  6
CONTINUOUS
 62
     7
 10
79.2960148692127
 20
14.9707953155038
 30
0.0
 11
83.7960150480267
 21
14.9707953155038
 31
0.0
  0
LINE
  5
   6BB
  8
0
  6
CONTINUOUS
 62
   130
 10
82.1459675494802
 20
-7.52919454474005
 30
0.0
 11
84.4559676412408
 21
-7.52920641766619
 31
0.0
  0
LINE
  5
   6BC
  8
0
  6
CONTINUOUS
 62
   130
 10
82.595975277048
 20
-6.02919679806293
 30
0.0
 11
84.4559753509331
 21
-6.02920635808138
 31
0.0
  0
LINE
  5
   6BD
  8
0
  6
CONTINUOUS
 62
   130
 10
82.5959891544941
 20
-3.32919669081024
 30
0.0
 11
84.4559892283793
 21
-3.32920625082869
 31
0.0
  0
LINE
  5
   6BE
  8
0
  6
CONTINUOUS
 62
   130
 10
82.145996846311
 20
-1.82919431831769
 30
0.0
 11
84.4559969380716
 21
-1.82920619124383
 31
0.0
  0
LINE
  5
   6BF
  8
0
  6
CONTINUOUS
 62
   130
 10
82.5959675673557
 20
-7.52919685852088
 30
0.0
 11
82.5959968641864
 21
-1.82919663220875
 31
0.0
  0
LINE
  5
   6C0
  8
0
  6
CONTINUOUS
 62
   130
 10
84.4559676412408
 20
-7.5292064187428
 30
0.0
 11
84.4559969380716
 21
-1.82920619243069
 31
0.0
  0
LINE
  5
   6C1
  8
0
  6
CONTINUOUS
 62
   130
 10
82.1460014717734
 20
-0.92926294712035
 30
0.0
 11
84.4560015635341
 21
-0.929274820046501
 31
0.0
  0
LINE
  5
   6C2
  8
0
  6
CONTINUOUS
 62
   130
 10
82.5960091993412
 20
0.570734799556774
 30
0.0
 11
84.4560092732264
 21
0.570725239538319
 31
0.0
  0
LINE
  5
   6C3
  8
0
  6
CONTINUOUS
 62
   130
 10
82.5960230767873
 20
3.27073490680949
 30
0.0
 11
84.4560231506725
 21
3.27072534679104
 31
0.0
  0
LINE
  5
   6C4
  8
0
  6
CONTINUOUS
 62
   130
 10
82.1460307686042
 20
4.77073727930201
 30
0.0
 11
84.4560308603648
 21
4.77072540637586
 31
0.0
  0
LINE
  5
   6C5
  8
0
  6
CONTINUOUS
 62
   130
 10
82.5960014896489
 20
-0.929265260676814
 30
0.0
 11
82.5960307864796
 21
4.77073496563531
 31
0.0
  0
LINE
  5
   6C6
  8
0
  6
CONTINUOUS
 62
   130
 10
84.4560015635341
 20
-0.929274821313484
 30
0.0
 11
84.4560308603648
 21
4.77072540541336
 31
0.0
  0
LINE
  5
   6C7
  8
0
  6
DASHDOT
 62
     7
 10
68.8742586638435
 20
1.92080427115803
 30
0.0
 11
88.5141792863222
 21
1.92069548593749
 31
0.0
  0
LINE
  5
   6C8
  8
0
  6
CONTINUOUS
 62
     7
 10
77.6460148036476
 20
3.42072619199462
 30
0.0
 11
77.6460148036476
 21
8.006834008102
 31
0.0
  0
LINE
  5
   6C9
  8
0
  6
CONTINUOUS
 62
     7
 10
77.6460148036476
 20
-3.17920540571231
 30
0.0
 11
77.6460148036476
 21
0.420726072785328
 31
0.0
  0
LINE
  5
   6CA
  8
0
  6
CONTINUOUS
 62
     7
 10
77.6460148036476
 20
3.57072619795505
 30
0.0
 11
82.1460149824616
 21
3.57072619795505
 31
0.0
  0
LINE
  5
   6CB
  8
0
  6
CONTINUOUS
 62
     7
 10
77.6460148036476
 20
-3.02920539975186
 30
0.0
 11
82.1460149824616
 21
-3.02920539975186
 31
0.0
  0
LINE
  5
   6CC
  8
0
  6
CONTINUOUS
 62
     7
 10
77.6460148036476
 20
-6.32920553088208
 30
0.0
 11
82.1460149824616
 21
-6.32920553088208
 31
0.0
  0
LINE
  5
   6CD
  8
0
  6
CONTINUOUS
 62
     7
 10
77.6460148036476
 20
0.270726066824835
 30
0.0
 11
82.1460149824616
 21
0.270726066824835
 31
0.0
  0
LINE
  5
   6CE
  8
0
  6
CONTINUOUS
 62
   130
 10
84.2460238453238
 20
8.67075685429577
 30
0.0
 11
84.2460238453238
 21
9.42075688410061
 31
0.0
  0
LINE
  5
   6CF
  8
0
  6
CONTINUOUS
 62
     3
 10
68.0460232520807
 20
7.32079843298547
 30
0.0
 11
68.0460241103877
 21
-15.6292058836012
 31
0.0
  0
INSERT
  5
   6D0
  8
0
  6
CONTINUOUS
 62
     7
  2
*HATCH276
 10
67.5960235595703
 20
-77.8792037963867
 30
0.0
 41
0.300000011920929
 42
0.300000011920929
 43
0.300000011920929
  0
INSERT
  5
   6D1
  8
0
  6
CONTINUOUS
 62
     7
  2
*HATCH277
 10
67.5960235595703
 20
-77.8792037963867
 30
0.0
 41
0.300000011920929
 42
0.300000011920929
 43
0.300000011920929
  0
INSERT
  5
   6D2
  8
0
  6
CONTINUOUS
 62
     7
  2
*HATCH278
 10
67.5960235595703
 20
-77.8792037963867
 30
0.0
 41
0.300000011920929
 42
0.300000011920929
 43
0.300000011920929
  0
INSERT
  5
   6D3
  8
0
  6
CONTINUOUS
 62
     7
  2
*HATCH279
 10
67.5960235595703
 20
-77.8792037963867
 30
0.0
 41
0.300000011920929
 42
0.300000011920929
 43
0.300000011920929
  0
INSERT
  5
   6D4
  8
0
  6
CONTINUOUS
 62
     7
  2
*HATCH280
 10
67.5960235595703
 20
-77.8792037963867
 30
0.0
 41
0.300000011920929
 42
0.300000011920929
 43
0.300000011920929
  0
LINE
  5
   6D5
  8
0
  6
CONTINUOUS
 62
   130
 10
68.045699366466
 20
-116.579206489974
 30
0.0
 11
68.0457102385731
 21
-114.479206406552
 31
0.0
  0
LINE
  5
   6D6
  8
0
  6
CONTINUOUS
 62
   130
 10
68.0457032493614
 20
-115.82920646014
 30
0.0
 11
77.6456948514169
 21
-115.829231131133
 31
0.0
  0
LINE
  5
   6D7
  8
0
  6
CONTINUOUS
 62
   130
 10
68.045699366466
 20
-116.579206489935
 30
0.0
 11
77.6456909965707
 21
-116.579231160928
 31
0.0
  0
LINE
  5
   6D8
  8
0
  6
CONTINUOUS
 62
   130
 10
83.589210054681
 20
-116.579246435162
 30
0.0
 11
105.620701901815
 21
-116.579303053834
 31
0.0
  0
LINE
  5
   6D9
  8
0
  6
CONTINUOUS
 62
   130
 10
84.245700038247
 20
-116.579248122251
 30
0.0
 11
84.2457038930932
 21
-115.829248092724
 31
0.0
  0
LINE
  5
   6DA
  8
0
  6
CONTINUOUS
 62
   130
 10
83.5862721748498
 20
-115.829246397807
 30
0.0
 11
87.456015193462
 21
-115.829256342649
 31
0.0
  0
ARC
  5
   6DB
  8
0
  6
CONTINUOUS
 62
   130
 10
105.620702865526
 20
-116.204303038934
 30
0.0
 40
0.375000014901161
 50
269.999852755729
 51
359.999705511458
  0
LINE
  5
   6DC
  8
0
  6
CONTINUOUS
 62
   130
 10
105.995702880422
 20
-116.204304968
 30
0.0
 11
105.995710975473
 21
-114.629329383331
 31
0.0
  0
ARC
  5
   6DD
  8
0
  6
CONTINUOUS
 62
   130
 10
105.845710969515
 20
-114.629328610695
 30
0.0
 40
0.150000005960464
 50
359.999705511458
 51
449.999705511458
  0
INSERT
  5
   6DE
  8
0
  6
CONTINUOUS
 62
     7
  2
*HATCH281
 10
67.5960235595703
 20
-77.8792037963867
 30
0.0
 41
0.300000011920929
 42
0.300000011920929
 43
0.300000011920929
  0
INSERT
  5
   6DF
  8
0
  6
CONTINUOUS
 62
     7
  2
*HATCH282
 10
67.5960235595703
 20
-77.8792037963867
 30
0.0
 41
0.300000011920929
 42
0.300000011920929
 43
0.300000011920929
  0
LINE
  5
   6E0
  8
0
  6
CONTINUOUS
 62
     1
 10
111.546025305986
 20
-71.8042340083196
 30
0.0
 11
111.546025305986
 21
-71.2042339844777
 31
0.0
  0
LINE
  5
   6E1
  8
0
  6
CONTINUOUS
 62
     1
 10
111.546025305986
 20
-71.8042340083196
 30
0.0
 11
112.146025329828
 21
-71.8042340083196
 31
0.0
  0
LINE
  5
   6E2
  8
0
  6
CONTINUOUS
 62
     1
 10
111.546025305986
 20
-39.4042338652685
 30
0.0
 11
111.546025305986
 21
-38.8042338414266
 31
0.0
  0
LINE
  5
   6E3
  8
0
  6
CONTINUOUS
 62
     1
 10
111.546025305986
 20
-38.8042338414266
 30
0.0
 11
112.146025329828
 21
-38.8042338414266
 31
0.0
  0
LINE
  5
   6E4
  8
0
  6
CONTINUOUS
 62
     1
 10
111.546025305986
 20
-71.2042339844777
 30
0.0
 11
111.546025305986
 21
-39.4042327208593
 31
0.0
  0
LINE
  5
   6E5
  8
0
  6
CONTINUOUS
 62
     1
 10
110.196025252342
 20
-34.7310296390447
 30
0.0
 11
110.196025252342
 21
-33.2774376623388
 31
0.0
  0
LINE
  5
   6E6
  8
0
  6
CONTINUOUS
 62
     1
 10
110.196025252342
 20
-77.3310290429982
 30
0.0
 11
110.196025252342
 21
-75.8774393551107
 31
0.0
  0
LINE
  5
   6E7
  8
0
  6
CONTINUOUS
 62
     1
 10
112.146025329828
 20
-79.4542354567125
 30
0.0
 11
112.146025329828
 21
-31.1542335374429
 31
0.0
  0
LINE
  5
   6E8
  8
0
  6
CONTINUOUS
 62
     1
 10
112.146025329828
 20
-79.4542343123033
 30
0.0
 11
113.196025371552
 21
-79.4542343123033
 31
0.0
  0
LINE
  5
   6E9
  8
0
  6
CONTINUOUS
 62
     1
 10
113.196025371552
 20
-79.4542343123033
 30
0.0
 11
113.196025371552
 21
-31.1542323930337
 31
0.0
  0
LINE
  5
   6EA
  8
0
  6
CONTINUOUS
 62
     1
 10
112.146025329828
 20
-31.1542335374429
 30
0.0
 11
112.59602534771
 21
-31.1542335374429
 31
0.0
  0
LINE
  5
   6EB
  8
0
  6
CONTINUOUS
 62
     1
 10
112.896025359631
 20
-31.1542335374429
 30
0.0
 11
113.196025371552
 21
-31.1542335374429
 31
0.0
  0
LINE
  5
   6EC
  8
0
  6
CONTINUOUS
 62
     1
 10
110.196025312953
 20
-34.7310302861372
 30
0.0
 11
110.496025334752
 21
-34.9042343357186
 31
0.0
  0
LINE
  5
   6ED
  8
0
  6
CONTINUOUS
 62
     1
 10
110.19602482747
 20
-33.2774384167147
 30
0.0
 11
110.496024849269
 21
-33.1042343671332
 31
0.0
  0
LINE
  5
   6EE
  8
0
  6
CONTINUOUS
 62
     1
 10
110.496025264263
 20
-34.9042336864545
 30
0.0
 11
110.496025264263
 21
-34.8816659365343
 31
0.0
  0
LINE
  5
   6EF
  8
0
  6
CONTINUOUS
 62
     1
 10
110.496025264263
 20
-34.9042336864545
 30
0.0
 11
112.146025329828
 21
-34.9042336864545
 31
0.0
  0
LINE
  5
   6F0
  8
0
  6
CONTINUOUS
 62
     1
 10
110.496025264263
 20
-34.8816659365343
 30
0.0
 11
110.496025264263
 21
-34.815102518362
 31
0.0
  0
LINE
  5
   6F1
  8
0
  6
CONTINUOUS
 62
     1
 10
110.496025264263
 20
-34.815102518362
 30
0.0
 11
110.496025264263
 21
-34.7078805292381
 31
0.0
  0
LINE
  5
   6F2
  8
0
  6
CONTINUOUS
 62
     1
 10
110.496025264263
 20
-34.7078805292381
 30
0.0
 11
110.496025264263
 21
-34.565374114884
 31
0.0
  0
LINE
  5
   6F3
  8
0
  6
CONTINUOUS
 62
     1
 10
110.496025264263
 20
-34.565374114884
 30
0.0
 11
110.496025264263
 21
-34.3947289665016
 31
0.0
  0
LINE
  5
   6F4
  8
0
  6
CONTINUOUS
 62
     1
 10
110.496025264263
 20
-34.3947289665016
 30
0.0
 11
110.496025264263
 21
-34.2045006874583
 31
0.0
  0
LINE
  5
   6F5
  8
0
  6
CONTINUOUS
 62
     1
 10
110.496025264263
 20
-34.2045006874583
 30
0.0
 11
110.496025264263
 21
-34.0042336506918
 31
0.0
  0
LINE
  5
   6F6
  8
0
  6
CONTINUOUS
 62
     1
 10
110.496025264263
 20
-34.0042336506918
 30
0.0
 11
110.496025264263
 21
-33.8039620362884
 31
0.0
  0
LINE
  5
   6F7
  8
0
  6
CONTINUOUS
 62
     1
 10
110.496025264263
 20
-33.8039620362884
 30
0.0
 11
110.496025264263
 21
-33.6137383348819
 31
0.0
  0
LINE
  5
   6F8
  8
0
  6
CONTINUOUS
 62
     1
 10
110.496025264263
 20
-33.6137383348819
 30
0.0
 11
110.496025264263
 21
-33.4430931864995
 31
0.0
  0
LINE
  5
   6F9
  8
0
  6
CONTINUOUS
 62
     1
 10
110.496025264263
 20
-33.4430931864995
 30
0.0
 11
110.496025264263
 21
-33.3005821945085
 31
0.0
  0
LINE
  5
   6FA
  8
0
  6
CONTINUOUS
 62
     1
 10
110.496025264263
 20
-33.3005821945085
 30
0.0
 11
110.496025264263
 21
-33.1933602053846
 31
0.0
  0
LINE
  5
   6FB
  8
0
  6
CONTINUOUS
 62
     1
 10
110.496025264263
 20
-33.1933602053846
 30
0.0
 11
110.496025264263
 21
-33.1267967872123
 31
0.0
  0
LINE
  5
   6FC
  8
0
  6
CONTINUOUS
 62
     1
 10
110.496025264263
 20
-33.104233614929
 30
0.0
 11
112.146025329828
 21
-33.104233614929
 31
0.0
  0
LINE
  5
   6FD
  8
0
  6
CONTINUOUS
 62
     1
 10
110.496025264263
 20
-33.1267967872123
 30
0.0
 11
110.496025264263
 21
-33.104233614929
 31
0.0
  0
LINE
  5
   6FE
  8
0
  6
CONTINUOUS
 62
     1
 10
110.196024909112
 20
-77.3310293001588
 30
0.0
 11
110.496024930912
 21
-77.5042344823953
 31
0.0
  0
LINE
  5
   6FF
  8
0
  6
CONTINUOUS
 62
     1
 10
110.196024632709
 20
-75.8774398958579
 30
0.0
 11
110.496024654508
 21
-75.7042347136215
 31
0.0
  0
LINE
  5
   700
  8
0
  6
CONTINUOUS
 62
     1
 10
110.496025264263
 20
-77.5042342348172
 30
0.0
 11
112.146025329828
 21
-77.5042342348172
 31
0.0
  0
LINE
  5
   701
  8
0
  6
CONTINUOUS
 62
     1
 10
110.496025264263
 20
-77.4151064999524
 30
0.0
 11
110.496025264263
 21
-77.30788222201
 31
0.0
  0
LINE
  5
   702
  8
0
  6
CONTINUOUS
 62
     1
 10
110.496025264263
 20
-77.30788222201
 30
0.0
 11
110.496025264263
 21
-77.1653746632467
 31
0.0
  0
LINE
  5
   703
  8
0
  6
CONTINUOUS
 62
     1
 10
110.496025264263
 20
-77.1653746632467
 30
0.0
 11
110.496025264263
 21
-76.9947295148643
 31
0.0
  0
LINE
  5
   704
  8
0
  6
CONTINUOUS
 62
     1
 10
110.496025264263
 20
-76.9947295148643
 30
0.0
 11
110.496025264263
 21
-76.8045035246394
 31
0.0
  0
LINE
  5
   705
  8
0
  6
CONTINUOUS
 62
     1
 10
110.496025264263
 20
-76.8045035246394
 30
0.0
 11
110.496025264263
 21
-76.6042341990545
 31
0.0
  0
LINE
  5
   706
  8
0
  6
CONTINUOUS
 62
     1
 10
110.496025264263
 20
-76.6042341990545
 30
0.0
 11
110.496025264263
 21
-76.4039648734695
 31
0.0
  0
LINE
  5
   707
  8
0
  6
CONTINUOUS
 62
     1
 10
110.496025264263
 20
-76.4039648734695
 30
0.0
 11
110.496025264263
 21
-76.2137388832446
 31
0.0
  0
LINE
  5
   708
  8
0
  6
CONTINUOUS
 62
     1
 10
110.496025264263
 20
-76.2137388832446
 30
0.0
 11
110.496025264263
 21
-76.0430937348622
 31
0.0
  0
LINE
  5
   709
  8
0
  6
CONTINUOUS
 62
     1
 10
110.496025264263
 20
-76.0430937348622
 30
0.0
 11
110.496025264263
 21
-75.9005861760989
 31
0.0
  0
LINE
  5
   70A
  8
0
  6
CONTINUOUS
 62
     1
 10
110.496025264263
 20
-75.9005861760989
 30
0.0
 11
110.496025264263
 21
-75.7933618981565
 31
0.0
  0
LINE
  5
   70B
  8
0
  6
CONTINUOUS
 62
     1
 10
110.496025264263
 20
-75.7933618981565
 30
0.0
 11
110.496025264263
 21
-75.7267984799842
 31
0.0
  0
LINE
  5
   70C
  8
0
  6
CONTINUOUS
 62
     1
 10
110.496025264263
 20
-75.7042341632917
 30
0.0
 11
112.146025329828
 21
-75.7042341632917
 31
0.0
  0
LINE
  5
   70D
  8
0
  6
CONTINUOUS
 62
     1
 10
112.59602534771
 20
-31.1542335374429
 30
0.0
 11
112.896025359631
 21
-31.1542335374429
 31
0.0
  0
LINE
  5
   70E
  8
0
  6
CONTINUOUS
 62
     7
 10
112.146025329828
 20
-31.1542335374429
 30
0.0
 11
112.146025329828
 21
-9.34414561569457
 31
0.0
  0
LINE
  5
   70F
  8
0
  6
CONTINUOUS
 62
     7
 10
111.546025305986
 20
-38.8042338414266
 30
0.0
 11
111.546025305986
 21
-34.9042336864545
 31
0.0
  0
LINE
  5
   710
  8
0
  6
CONTINUOUS
 62
     7
 10
112.146025329828
 20
-108.388438245744
 30
0.0
 11
112.146025329828
 21
-79.4542343123033
 31
0.0
  0
LINE
  5
   711
  8
0
  6
CONTINUOUS
 62
     7
 10
111.546025305986
 20
-108.562856857326
 30
0.0
 11
111.546025305986
 21
-77.5042342348172
 31
0.0
  0
LINE
  5
   712
  8
0
  6
CONTINUOUS
 62
     7
 10
109.451050621402
 20
-109.171861126101
 30
0.0
 11
114.241437698992
 21
-107.779306743081
 31
0.0
  0
LINE
  5
   713
  8
0
  6
CONTINUOUS
 62
     7
 10
110.063774549931
 20
-8.01671074350993
 30
0.0
 11
114.519948575596
 21
-10.8575216848712
 31
0.0
  0
LINE
  5
   714
  8
0
  6
CONTINUOUS
 62
     7
 10
111.546025305986
 20
-32.9542336089685
 30
0.0
 11
112.146025329828
 21
-32.9542336089685
 31
0.0
  0
LINE
  5
   715
  8
0
  6
CONTINUOUS
 62
     7
 10
111.546025305986
 20
-35.054233692415
 30
0.0
 11
112.146025329828
 21
-35.054233692415
 31
0.0
  0
LINE
  5
   716
  8
0
  6
CONTINUOUS
 62
     7
 10
111.546025305986
 20
-75.5542341573312
 30
0.0
 11
112.146025329828
 21
-75.5542341573312
 31
0.0
  0
LINE
  5
   717
  8
0
  6
CONTINUOUS
 62
     7
 10
111.546025305986
 20
-77.6542342407777
 30
0.0
 11
112.146025329828
 21
-77.6542342407777
 31
0.0
  0
LINE
  5
   718
  8
0
  6
CONTINUOUS
 62
     7
 10
111.546025305986
 20
-72.1042340202405
 30
0.0
 11
112.146025329828
 21
-72.1042340202405
 31
0.0
  0
LINE
  5
   719
  8
0
  6
CONTINUOUS
 62
     7
 10
111.546025305986
 20
-38.5042338295057
 30
0.0
 11
112.146025329828
 21
-38.5042338295057
 31
0.0
  0
LINE
  5
   71A
  8
0
  6
CONTINUOUS
 62
     7
 10
111.546025305986
 20
-33.104233614929
 30
0.0
 11
111.546025305986
 21
-8.96164560049539
 31
0.0
  0
LINE
  5
   71B
  8
0
  6
CONTINUOUS
 62
     7
 10
111.546025305986
 20
-75.7042341632917
 30
0.0
 11
111.546025305986
 21
-71.8042340083196
 31
0.0
  0
INSERT
  5
   71C
  8
0
  6
CONTINUOUS
 62
     7
  2
*HATCH283
 10
67.5960235595703
 20
-77.8792037963867
 30
0.0
 41
0.300000011920929
 42
0.300000011920929
 43
0.300000011920929
  0
INSERT
  5
   71D
  8
0
  6
CONTINUOUS
 62
     7
  2
*HATCH284
 10
67.5960235595703
 20
-77.8792037963867
 30
0.0
 41
0.300000011920929
 42
0.300000011920929
 43
0.300000011920929
  0
INSERT
  5
   71E
  8
0
  6
CONTINUOUS
 62
     7
  2
*HATCH285
 10
67.5960235595703
 20
-77.8792037963867
 30
0.0
 41
0.300000011920929
 42
0.300000011920929
 43
0.300000011920929
  0
INSERT
  5
   71F
  8
0
  6
CONTINUOUS
 62
     7
  2
*HATCH286
 10
67.5960235595703
 20
-77.8792037963867
 30
0.0
 41
0.300000011920929
 42
0.300000011920929
 43
0.300000011920929
  0
LINE
  5
   720
  8
0
  6
DASHDOT
 62
     7
 10
61.9923732513174
 20
3.12092025459414
 30
0.0
 11
68.3877857508867
 21
3.12090251161574
 31
0.0
  0
LINE
  5
   721
  8
0
  6
CONTINUOUS
 62
     7
 10
65.4960234761238
 20
1.92091048662738
 30
0.0
 11
65.4960234761238
 21
4.32091058200406
 31
0.0
  0
LINE
  5
   722
  8
0
  6
CONTINUOUS
 62
     7
 10
64.2960234284401
 20
2.37091383370546
 30
0.0
 11
64.2960234284401
 21
3.87091389331586
 31
0.0
  0
LINE
  5
   723
  8
0
  6
CONTINUOUS
 62
     7
 10
65.4960234761238
 20
4.32091058200406
 30
0.0
 11
66.6960235238075
 21
4.32090725280912
 31
0.0
  0
LINE
  5
   724
  8
0
  6
CONTINUOUS
 62
     7
 10
65.4960234761238
 20
1.92091048662738
 30
0.0
 11
66.6960235238075
 21
1.92090715743244
 31
0.0
  0
LINE
  5
   725
  8
0
  6
CONTINUOUS
 62
     7
 10
64.2960234284401
 20
3.87091389331586
 30
0.0
 11
66.6960235238075
 21
3.87090723492598
 31
0.0
  0
LINE
  5
   726
  8
0
  6
CONTINUOUS
 62
     7
 10
64.2960234284401
 20
2.37091383370546
 30
0.0
 11
66.6960235238075
 21
2.37090717531558
 31
0.0
  0
LINE
  5
   727
  8
0
  6
CONTINUOUS
 62
     7
 10
65.4960234761238
 20
-109.079093924544
 30
0.0
 11
66.6960235238075
 21
-109.079097253738
 31
0.0
  0
LINE
  5
   728
  8
0
  6
CONTINUOUS
 62
     7
 10
64.2960234284401
 20
-109.529090613232
 30
0.0
 11
66.6960235238075
 21
-109.529097271622
 31
0.0
  0
LINE
  5
   729
  8
0
  6
DASHDOT
 62
     7
 10
61.9923732513174
 20
-110.279084251953
 30
0.0
 11
68.3877857508867
 21
-110.279101994932
 31
0.0
  0
LINE
  5
   72A
  8
0
  6
CONTINUOUS
 62
     7
 10
64.2960234284401
 20
-111.029090672842
 30
0.0
 11
66.6960235238075
 21
-111.029097331232
 31
0.0
  0
LINE
  5
   72B
  8
0
  6
CONTINUOUS
 62
     7
 10
65.4960234761238
 20
-111.47909401992
 30
0.0
 11
66.6960235238075
 21
-111.479097349115
 31
0.0
  0
LINE
  5
   72C
  8
0
  6
CONTINUOUS
 62
     7
 10
65.4960234761238
 20
-111.47909401992
 30
0.0
 11
65.4960234761238
 21
-109.079093924544
 31
0.0
  0
LINE
  5
   72D
  8
0
  6
CONTINUOUS
 62
     7
 10
64.2960234284401
 20
-111.029090672842
 30
0.0
 11
64.2960234284401
 21
-109.529090613232
 31
0.0
  0
INSERT
  5
   72E
  8
0
  6
CONTINUOUS
 62
     7
  2
*UDIM348
 10
0.0
 20
0.0
 30
0.0
  0
INSERT
  5
   72F
  8
0
  6
CONTINUOUS
 62
     7
  2
*UDIM349
 10
0.0
 20
0.0
 30
0.0
  0
INSERT
  5
   730
  8
0
  6
CONTINUOUS
 62
     7
  2
*UDIM350
 10
0.0
 20
0.0
 30
0.0
  0
INSERT
  5
   731
  8
0
  6
CONTINUOUS
 62
     7
  2
*UDIM351
 10
0.0
 20
0.0
 30
0.0
  0
INSERT
  5
   732
  8
0
  6
CONTINUOUS
 62
     7
  2
*UDIM352
 10
0.0
 20
0.0
 30
0.0
  0
INSERT
  5
   733
  8
0
  6
CONTINUOUS
 62
     7
  2
*UDIM353
 10
0.0
 20
0.0
 30
0.0
  0
INSERT
  5
   734
  8
0
  6
CONTINUOUS
 62
     7
  2
*UDIM354
 10
0.0
 20
0.0
 30
0.0
  0
INSERT
  5
   735
  8
0
  6
CONTINUOUS
 62
     7
  2
*UDIM355
 10
0.0
 20
0.0
 30
0.0
  0
INSERT
  5
   736
  8
0
  6
CONTINUOUS
 62
     7
  2
*UDIM356
 10
0.0
 20
0.0
 30
0.0
  0
INSERT
  5
   737
  8
0
  6
CONTINUOUS
 62
     7
  2
*UDIM357
 10
0.0
 20
0.0
 30
0.0
  0
INSERT
  5
   738
  8
0
  6
CONTINUOUS
 62
     7
  2
*UDIM358
 10
0.0
 20
0.0
 30
0.0
  0
INSERT
  5
   739
  8
0
  6
CONTINUOUS
 62
     7
  2
*UDIM359
 10
0.0
 20
0.0
 30
0.0
  0
INSERT
  5
   73A
  8
0
  6
CONTINUOUS
 62
     7
  2
*UDIM360
 10
0.0
 20
0.0
 30
0.0
  0
TEXT
  5
   73B
  8
0
  6
CONTINUOUS
 62
     7
 10
143.256117756204
 20
-69.6111315382294
 30
0.0
 40
2.99999994039535
  1
=       =
 50
90.0
 41
0.916666655739148
 72
     2
 11
143.256117756173
 21
-45.4111322813007
 31
0.0
  0
INSERT
  5
   73C
  8
0
  6
CONTINUOUS
 62
     7
  2
*UDIM361
 10
0.0
 20
0.0
 30
0.0
  0
INSERT
  5
   73D
  8
0
  6
CONTINUOUS
 62
     7
  2
*UDIM362
 10
0.0
 20
0.0
 30
0.0
  0
TEXT
  5
   73E
  8
0
  6
CONTINUOUS
 62
     7
 10
162.949268516034
 20
-57.9321505734532
 30
0.0
 40
2.99999994039535
  1
X
 41
0.916666655739148
 72
     2
 11
165.149268472324
 21
-57.9321505734532
 31
0.0
  0
TEXT
  5
   73F
  8
0
  6
CONTINUOUS
 62
     7
 10
46.3595265632274
 20
-59.5425142877652
 30
0.0
 40
2.99999994039535
  1
X
 41
0.916666655739148
 72
     2
 11
48.5595265195173
 21
-59.5425142877652
 31
0.0
  0
INSERT
  5
   740
  8
0
  6
CONTINUOUS
 62
     7
  2
*UDIM363
 10
0.0
 20
0.0
 30
0.0
  0
INSERT
  5
   741
  8
0
  6
CONTINUOUS
 62
     7
  2
*UDIM364
 10
0.0
 20
0.0
 30
0.0
  0
INSERT
  5
   742
  8
0
  6
CONTINUOUS
 62
     7
  2
*UDIM365
 10
0.0
 20
0.0
 30
0.0
  0
INSERT
  5
   743
  8
0
  6
CONTINUOUS
 62
     7
  2
*UDIM366
 10
0.0
 20
0.0
 30
0.0
  0
INSERT
  5
   744
  8
0
  6
CONTINUOUS
 62
     7
  2
*UDIM367
 10
0.0
 20
0.0
 30
0.0
  0
LINE
  5
   745
  8
0
  6
DASHDOT
 62
     7
 10
5.27030138758911
 20
-155.46506670351
 30
0.0
 11
-23.9946716718982
 21
-155.46506670351
 31
0.0
  0
LINE
  5
   746
  8
0
  6
DASHDOT
 62
     7
 10
8.26273364150549
 20
-207.194440676917
 30
0.0
 11
-25.6684049664616
 21
-207.194440676917
 31
0.0
  0
LINE
  5
   747
  8
0
  6
DASHDOT
 62
     7
 10
-31.6707236170769
 20
-148.942685037725
 30
0.0
 11
-31.6707236170769
 21
-214.886509484613
 31
0.0
  0
LINE
  5
   748
  8
0
  6
DASHDOT
 62
     7
 10
-3.67072528600693
 20
-149.172735856247
 30
0.0
 11
-3.67072528600693
 21
-215.300600957952
 31
0.0
  0
LINE
  5
   749
  8
0
  6
CONTINUOUS
 62
     1
 10
0.329274475574493
 20
-151.465066941929
 30
0.0
 11
0.329274475574493
 21
-180.045555701908
 31
0.0
  0
LINE
  5
   74A
  8
0
  6
CONTINUOUS
 62
     1
 10
0.329274475574493
 20
-151.465066941929
 30
0.0
 11
-35.6707233786583
 21
-151.465066941929
 31
0.0
  0
LINE
  5
   74B
  8
0
  6
CONTINUOUS
 62
     1
 10
-35.6707233786583
 20
-151.465066941929
 30
0.0
 11
-35.6707233786583
 21
-180.107376158237
 31
0.0
  0
LINE
  5
   74C
  8
0
  6
CONTINUOUS
 62
     1
 10
0.329274475574493
 20
-211.194440438498
 30
0.0
 11
-35.6707233786583
 21
-211.194440438498
 31
0.0
  0
LINE
  5
   74D
  8
0
  6
DASHDOT
 62
     7
 10
8.081443170752
 20
-181.107376098633
 30
0.0
 11
-32.35445794661
 21
-181.107376098633
 31
0.0
  0
LINE
  5
   74E
  8
0
  6
DASHDOT
 62
     7
 10
-10.6707248687744
 20
-148.758644382908
 30
0.0
 11
-10.6707248687744
 21
-219.076113611648
 31
0.0
  0
CIRCLE
  5
   74F
  8
0
  6
CONTINUOUS
 62
     7
 10
-31.6707236170769
 20
-155.46506670351
 30
0.0
 40
0.549999967217445
  0
CIRCLE
  5
   750
  8
0
  6
CONTINUOUS
 62
     7
 10
-3.67072528600693
 20
-155.46506670351
 30
0.0
 40
0.549999967217445
  0
CIRCLE
  5
   751
  8
0
  6
CONTINUOUS
 62
     7
 10
-31.6707236170769
 20
-207.194440676917
 30
0.0
 40
0.549999967217445
  0
CIRCLE
  5
   752
  8
0
  6
CONTINUOUS
 62
     7
 10
-3.67072528600693
 20
-207.194440676917
 30
0.0
 40
0.549999967217445
  0
LINE
  5
   753
  8
0
  6
CONTINUOUS
 62
     1
 10
-35.6707233786583
 20
-182.107376039028
 30
0.0
 11
-35.6707233786583
 21
-211.194440438498
 31
0.0
  0
LINE
  5
   754
  8
0
  6
CONTINUOUS
 62
     1
 10
0.329274475574493
 20
-182.162023232311
 30
0.0
 11
0.329274475574493
 21
-211.194440438498
 31
0.0
  0
LINE
  5
   755
  8
0
  6
CONTINUOUS
 62
     1
 10
3.88155887692113
 20
-182.107376039028
 30
0.0
 11
-38.9539035318861
 21
-182.107376039028
 31
0.0
  0
LINE
  5
   756
  8
0
  6
CONTINUOUS
 62
     1
 10
2.9613556028329
 20
-180.107376158237
 30
0.0
 11
-38.1717307489111
 21
-180.107376158237
 31
0.0
  0
INSERT
  5
   757
  8
0
  6
CONTINUOUS
 62
     7
  2
*UDIM368
 10
0.0
 20
0.0
 30
0.0
  0
INSERT
  5
   758
  8
0
  6
CONTINUOUS
 62
     7
  2
*UDIM369
 10
0.0
 20
0.0
 30
0.0
  0
TEXT
  5
   759
  8
0
  6
CONTINUOUS
 62
     7
 10
-11.8026933022472
 20
-219.287275182409
 30
0.0
 40
3.00000005960463
  1
Y
 50
359.999999896069
 41
0.916666581564485
 72
     2
 11
-9.60269348106112
 21
-219.287275186389
 31
0.0
  0
TEXT
  5
   75A
  8
0
  6
CONTINUOUS
 62
     7
 10
-12.0059514230666
 20
-147.727623685978
 30
0.0
 40
3.00000005960463
  1
Y
 50
359.999999896069
 41
0.916666581564485
 72
     2
 11
-9.80595160188056
 21
-147.727623689958
 31
0.0
  0
TEXT
  5
   75B
  8
0
  6
CONTINUOUS
 62
     7
 10
13.6492077609624
 20
-183.936916061466
 30
0.0
 40
3.00000005960463
  1
X
 50
359.999999896069
 41
0.916666581564485
 72
     2
 11
15.8492075821485
 21
-183.936916065445
 31
0.0
  0
TEXT
  5
   75C
  8
0
  6
CONTINUOUS
 62
     7
 10
-58.019101565906
 20
-182.497445450815
 30
0.0
 40
3.00000005960463
  1
X
 50
359.999999896069
 41
0.916666581564485
 72
     2
 11
-55.8191017447199
 21
-182.497445454795
 31
0.0
  0
INSERT
  5
   75D
  8
0
  6
CONTINUOUS
 62
     7
  2
*UDIM370
 10
0.0
 20
0.0
 30
0.0
  0
INSERT
  5
   75E
  8
0
  6
CONTINUOUS
 62
     7
  2
*UDIM371
 10
0.0
 20
0.0
 30
0.0
  0
INSERT
  5
   75F
  8
0
  6
CONTINUOUS
 62
     7
  2
*UDIM372
 10
0.0
 20
0.0
 30
0.0
  0
LINE
  5
   760
  8
0
  6
DASHDOT
 62
     2
 10
221.15985096334
 20
-6.36784076690674
 30
0.0
 11
274.072342844319
 21
-6.36784076690674
 31
0.0
  0
LINE
  5
   761
  8
0
  6
CONTINUOUS
 62
     7
 10
227.21223449707
 20
-20.3678407669067
 30
0.0
 11
263.96223449707
 21
-20.3678407669067
 31
0.0
  0
LINE
  5
   762
  8
0
  6
CONTINUOUS
 62
     7
 10
227.21223449707
 20
7.63215923309326
 30
0.0
 11
263.96223449707
 21
7.63215923309326
 31
0.0
  0
LINE
  5
   763
  8
0
  6
CONTINUOUS
 62
     7
 10
227.21223449707
 20
7.63215923309326
 30
0.0
 11
227.21223449707
 21
-20.3678407669067
 31
0.0
  0
LINE
  5
   764
  8
0
  6
CONTINUOUS
 62
     7
 10
263.96223449707
 20
7.63215923309326
 30
0.0
 11
263.96223449707
 21
-20.3678407669067
 31
0.0
  0
LINE
  5
   765
  8
0
  6
DASHDOT
 62
     2
 10
245.58723449707
 20
17.7406084606821
 30
0.0
 11
245.58723449707
 21
-32.2056734256238
 31
0.0
  0
CIRCLE
  5
   766
  8
0
  6
CONTINUOUS
 62
     7
 10
231.21223449707
 20
11.3821592330933
 30
0.0
 40
0.875
  0
CIRCLE
  5
   767
  8
0
  6
CONTINUOUS
 62
     7
 10
259.96223449707
 20
11.3821592330933
 30
0.0
 40
0.875
  0
CIRCLE
  5
   768
  8
0
  6
CONTINUOUS
 62
     7
 10
259.96223449707
 20
-24.1178407669067
 30
0.0
 40
0.875
  0
CIRCLE
  5
   769
  8
0
  6
CONTINUOUS
 62
     7
 10
231.21223449707
 20
-24.1178407669067
 30
0.0
 40
0.875
  0
LINE
  5
   76A
  8
0
  6
DASHDOT
 62
     7
 10
259.96223449707
 20
13.5071592330933
 30
0.0
 11
259.96223449707
 21
9.25715923309326
 31
0.0
  0
LINE
  5
   76B
  8
0
  6
DASHDOT
 62
     7
 10
257.83723449707
 20
11.3821592330933
 30
0.0
 11
262.08723449707
 21
11.3821592330933
 31
0.0
  0
LINE
  5
   76C
  8
0
  6
DASHDOT
 62
     7
 10
231.21223449707
 20
13.5071592330933
 30
0.0
 11
231.21223449707
 21
9.25715923309326
 31
0.0
  0
LINE
  5
   76D
  8
0
  6
DASHDOT
 62
     7
 10
229.08723449707
 20
11.3821592330933
 30
0.0
 11
233.33723449707
 21
11.3821592330933
 31
0.0
  0
LINE
  5
   76E
  8
0
  6
DASHDOT
 62
     7
 10
231.21223449707
 20
-21.9928407669067
 30
0.0
 11
231.21223449707
 21
-26.2428407669067
 31
0.0
  0
LINE
  5
   76F
  8
0
  6
DASHDOT
 62
     7
 10
229.08723449707
 20
-24.1178407669067
 30
0.0
 11
233.33723449707
 21
-24.1178407669067
 31
0.0
  0
LINE
  5
   770
  8
0
  6
DASHDOT
 62
     7
 10
259.96223449707
 20
-21.9928407669067
 30
0.0
 11
259.96223449707
 21
-26.2428407669067
 31
0.0
  0
LINE
  5
   771
  8
0
  6
DASHDOT
 62
     7
 10
257.83723449707
 20
-24.1178407669067
 30
0.0
 11
262.08723449707
 21
-24.1178407669067
 31
0.0
  0
LINE
  5
   772
  8
0
  6
CONTINUOUS
 62
     7
 10
224.487335505686
 20
14.4913150294169
 30
0.0
 11
266.449639246597
 21
14.4913150294169
 31
0.0
  0
LINE
  5
   773
  8
0
  6
CONTINUOUS
 62
     7
 10
224.487335505686
 20
-27.8423365322105
 30
0.0
 11
266.449639246597
 21
-27.8423365322105
 31
0.0
  0
LINE
  5
   774
  8
0
  6
CONTINUOUS
 62
     7
 10
266.449639246597
 20
14.4913150294169
 30
0.0
 11
266.449639246597
 21
-27.8423365322105
 31
0.0
  0
LINE
  5
   775
  8
0
  6
CONTINUOUS
 62
     7
 10
224.487335505686
 20
14.4913150294169
 30
0.0
 11
224.487335505686
 21
-27.8423365322105
 31
0.0
  0
TEXT
  5
   776
  8
0
  6
CONTINUOUS
 62
     1
 10
187.729484483119
 20
-207.087308900261
 30
0.0
 40
2.00000008940697
  1
M4380 97-11-03
 50
359.999999844103
 41
0.749999861419206
 72
     1
 11
198.079483032227
 21
-206.087308883667
 31
0.0
 73
     2
  0
TEXT
  5
   777
  8
0
  6
CONTINUOUS
 62
     1
 10
130.243331906464
 20
-200.308639575443
 30
0.0
 40
2.00000008940697
  1
97-11-03 SCARPELLINI
 50
359.999999844103
 41
0.749999861419206
 72
     2
 11
159.943327738609
 21
-200.308639656105
 31
0.0
  0
TEXT
  5
   778
  8
0
  6
CONTINUOUS
 62
     1
 10
161.989488274123
 20
-207.087307946339
 30
0.0
 40
2.00000008940697
  1
M 3167 95-08-25
 50
359.999999844103
 41
0.749999861419206
 72
     1
 11
173.089486718178
 21
-206.087307931781
 31
0.0
 73
     2
  0
TEXT
  5
   779
  8
0
  6
CONTINUOUS
 62
     1
 10
137.149491936233
 20
-207.087307946339
 30
0.0
 40
2.00000008940697
  1
M 3076 95-01-16
 50
359.999999844103
 41
0.749999861419206
 72
     1
 11
148.249490380287
 21
-206.087307931781
 31
0.0
 73
     2
  0
TEXT
  5
   77A
  8
0
  6
CONTINUOUS
 62
     7
 10
244.946574320294
 20
-41.5822077488848
 30
0.0
 40
3.00000002980232
  1
Y
 50
359.999999844103
 41
0.916666604744064
 72
     2
 11
247.146574189163
 21
-41.5822077548598
 31
0.0
  0
TEXT
  5
   77B
  8
0
  6
CONTINUOUS
 62
     7
 10
244.203878750302
 20
26.7457913661054
 30
0.0
 40
3.00000002980232
  1
Y
 50
359.999999844103
 41
0.916666604744064
 72
     2
 11
246.403878619171
 21
26.7457913601304
 31
0.0
  0
TEXT
  5
   77C
  8
0
  6
CONTINUOUS
 62
     7
 10
199.270794023968
 20
-8.53224992401391
 30
0.0
 40
3.00000002980232
  1
X
 50
359.999999844103
 41
0.916666604744064
 72
     2
 11
201.470793892838
 21
-8.53224992998885
 31
0.0
  0
TEXT
  5
   77D
  8
0
  6
CONTINUOUS
 62
     7
 10
275.101806749798
 20
-7.59004909753292
 30
0.0
 40
3.00000002980232
  1
X
 50
359.999999844103
 41
0.916666604744064
 72
     2
 11
277.301806618668
 21
-7.59004910350787
 31
0.0
  0
TEXT
  5
   77E
  8
0
  6
CONTINUOUS
 62
     7
 10
235.722966458795
 20
-38.9827723371922
 30
0.0
 40
3.00000002980232
  1
=      =
 50
359.999999844103
 41
0.916666604744064
 72
     2
 11
257.172965218521
 21
-38.9827723954479
 31
0.0
  0
TEXT
  5
   77F
  8
0
  6
CONTINUOUS
 62
     7
 10
234.980270650384
 20
16.6265645158352
 30
0.0
 40
3.00000002980232
  1
=      =
 50
359.999999844103
 41
0.916666604744064
 72
     2
 11
256.430269410111
 21
16.6265644575795
 31
0.0
  0
INSERT
  5
   780
  8
0
  6
CONTINUOUS
 62
     7
  2
*UDIM373
 10
0.0
 20
0.0
 30
0.0
  0
INSERT
  5
   781
  8
0
  6
CONTINUOUS
 62
     7
  2
*UDIM374
 10
0.0
 20
0.0
 30
0.0
  0
INSERT
  5
   782
  8
0
  6
CONTINUOUS
 62
     7
  2
*UDIM375
 10
0.0
 20
0.0
 30
0.0
  0
INSERT
  5
   783
  8
0
  6
CONTINUOUS
 62
     7
  2
*UDIM376
 10
0.0
 20
0.0
 30
0.0
  0
INSERT
  5
   784
  8
0
  6
CONTINUOUS
 62
     7
  2
*UDIM377
 10
0.0
 20
0.0
 30
0.0
  0
TEXT
  5
   785
  8
0
  6
CONTINUOUS
 62
     1
 10
130.243331918389
 20
-191.841885482625
 30
0.0
 40
2.00000008940697
  1
93-04-05 ROTA S.
 50
359.999999844103
 41
0.749999861419206
 72
     2
 11
153.943328590959
 21
-191.841885546992
 31
0.0
  0
TEXT
  5
   786
  8
0
  6
CONTINUOUS
 62
     7
 10
222.177397790773
 20
-15.3562924217134
 30
0.0
 40
3.00000002980232
  1
=     =
 50
449.999999844103
 41
0.916666604744064
 72
     2
 11
222.177397841537
 21
3.34370649646229
 31
0.0
  0
TEXT
  5
   787
  8
0
  6
CONTINUOUS
 62
     7
 10
211.71119219385
 20
-15.6470209907442
 30
0.0
 40
3.00000002980232
  1
=     =
 50
449.999999844103
 41
0.916666604744064
 72
     2
 11
211.711192244613
 21
3.05297792743153
 31
0.0
  0
TEXT
  5
   788
  8
0
  6
CONTINUOUS
 62
     1
 10
231.973709124863
 20
-218.083676247986
 30
0.0
 40
4.00000017881393
  1
601840/091
 50
359.999999844103
 41
0.937499973922969
 72
     2
 11
268.723709724635
 21
-218.083676347794
 31
0.0
  0
TEXT
  5
   789
  8
0
  6
CONTINUOUS
 62
     1
 10
249.059402479634
 20
-209.102093690161
 30
0.0
 40
3.00000002980232
  1
S7
 50
359.999999844103
 41
0.916666604744064
 72
     2
 11
254.009402190055
 21
-209.102093703604
 31
0.0
  0
TEXT
  5
   78A
  8
0
  6
CONTINUOUS
 62
     1
 10
223.962477511798
 20
-190.791821453694
 30
0.0
 40
2.00000008940697
  1
4POLE LOW VOLTAGE M.C.C.B SERIES ISOMAX
 50
359.999999844103
 41
0.687499997764826
 72
     1
 11
250.637478616828
 21
-189.791821481437
 31
0.0
 73
     2
  0
TEXT
  5
   78B
  8
0
  6
CONTINUOUS
 62
     1
 10
220.524977405081
 20
-193.791821444358
 30
0.0
 40
2.00000008940697
  1
FIXED VERSION FRONT+EXTENDED FRONT TERMINALS
 50
359.999999844103
 41
0.687499997764826
 72
     1
 11
250.637478652602
 21
-192.791821481437
 31
0.0
 73
     2
  0
TEXT
  5
   78C
  8
0
  6
CONTINUOUS
 62
     1
 10
226.60237034641
 20
-198.862088194132
 30
0.0
 40
2.00000008940697
  1
INTERR.AUTOMATICO SERIE ISOMAX
 50
359.999999844103
 41
0.687499997764826
 72
     1
 11
247.089871194953
 21
-197.86208820507
 31
0.0
 73
     2
  0
TEXT
  5
   78D
  8
0
  6
CONTINUOUS
 62
     1
 10
212.852369812215
 20
-201.862088156788
 30
0.0
 40
2.00000008940697
  1
TETRAP. ESECUZIONE FISSA TERMINALI ANT.E ANT.PROL.
 50
359.999999844103
 41
0.687499997764826
 72
     1
 11
247.089871230727
 21
-200.86208820507
 31
0.0
 73
     2
  0
ENDSEC
  0
EOF
