  0
SECTION
  2
HEADER
  9
$ACADVER
  1
AC1009
  9
$DWGCODEPAGE
  3
iso8859-1
  9
$INSBASE
 10
0.0
 20
0.0
 30
0.0
  9
$EXTMIN
 10
1.0E20
 20
1.0E20
  9
$EXTMAX
 10
-1.0E20
 20
-1.0E20
  9
$LIMMIN
 10
0.0
 20
0.0
  9
$LIMMAX
 10
12.0
 20
9.0
  9
$ORTHOMODE
 70
     0
  9
$REGENMODE
 70
     1
  9
$FILLMODE
 70
     1
  9
$QTEXTMODE
 70
     0
  9
$MIRRTEXT
 70
     1
  9
$DRAGMODE
 70
     2
  9
$LTSCALE
 40
15.0
  9
$OSMODE
 70
     0
  9
$ATTMODE
 70
     1
  9
$TEXTSIZE
 40
0.2
  9
$TRACEWID
 40
0.05
  9
$TEXTSTYLE
  7
STANDARD
  9
$CLAYER
  8
0
  9
$CELTYPE
  6
DASHED
  9
$CECOLOR
 62
   256
  9
$DIMSCALE
 40
1.0
  9
$DIMASZ
 40
0.18
  9
$DIMEXO
 40
0.0625
  9
$DIMDLI
 40
0.38
  9
$DIMRND
 40
0.0
  9
$DIMDLE
 40
0.0
  9
$DIMEXE
 40
0.18
  9
$DIMTP
 40
0.0
  9
$DIMTM
 40
0.0
  9
$DIMTXT
 40
0.18
  9
$DIMCEN
 40
0.09
  9
$DIMTSZ
 40
0.0
  9
$DIMTOL
 70
     0
  9
$DIMLIM
 70
     0
  9
$DIMTIH
 70
     1
  9
$DIMTOH
 70
     1
  9
$DIMSE1
 70
     0
  9
$DIMSE2
 70
     0
  9
$DIMTAD
 70
     0
  9
$DIMZIN
 70
     0
  9
$DIMBLK
  1

  9
$DIMASO
 70
     1
  9
$DIMSHO
 70
     1
  9
$DIMPOST
  1

  9
$DIMAPOST
  1

  9
$DIMALT
 70
     0
  9
$DIMALTD
 70
     2
  9
$DIMALTF
 40
25.4
  9
$DIMLFAC
 40
1.0
  9
$DIMTOFL
 70
     0
  9
$DIMTVP
 40
0.0
  9
$DIMTIX
 70
     0
  9
$DIMSOXD
 70
     0
  9
$DIMSAH
 70
     0
  9
$DIMBLK1
  1

  9
$DIMBLK2
  1

  9
$DIMSTYLE
  2
STANDARD
  9
$DIMCLRD
 70
     0
  9
$DIMCLRE
 70
     0
  9
$DIMCLRT
 70
     0
  9
$DIMTFAC
 40
1.0
  9
$DIMGAP
 40
0.09
  9
$LUNITS
 70
     2
  9
$LUPREC
 70
     4
  9
$AXISMODE
 70
     0
  9
$AXISUNIT
 10
0.0
 20
0.0
  9
$SKETCHINC
 40
0.1
  9
$FILLETRAD
 40
0.0
  9
$AUNITS
 70
     0
  9
$AUPREC
 70
     0
  9
$MENU
  1
acad
  9
$ELEVATION
 40
0.0
  9
$PELEVATION
 40
0.0
  9
$THICKNESS
 40
0.0
  9
$LIMCHECK
 70
     0
  9
$BLIPMODE
 70
     1
  9
$CHAMFERA
 40
0.0
  9
$CHAMFERB
 40
0.0
  9
$SKPOLY
 70
     0
  9
$TDCREATE
 40
0.000000000
  9
$TDUPDATE
 40
0.000000000
  9
$TDINDWG
 40
0.0
  9
$TDUSRTIMER
 40
0.0
  9
$USRTIMER
 70
     1
  9
$ANGBASE
 50
0.0
  9
$ANGDIR
 70
     0
  9
$PDMODE
 70
     0
  9
$PDSIZE
 40
0.0
  9
$PLINEWID
 40
0.0
  9
$COORDS
 70
     1
  9
$SPLFRAME
 70
     0
  9
$SPLINETYPE
 70
     6
  9
$SPLINESEGS
 70
     8
  9
$ATTDIA
 70
     0
  9
$ATTREQ
 70
     1
  9
$HANDLING
 70
     1
  9
$HANDSEED
  5
   69E
  9
$SURFTAB1
 70
     6
  9
$SURFTAB2
 70
     6
  9
$SURFTYPE
 70
     6
  9
$SURFU
 70
     6
  9
$SURFV
 70
     6
  9
$UCSNAME
  2

  9
$UCSORG
 10
0.0
 20
0.0
 30
0.0
  9
$UCSXDIR
 10
1.0
 20
0.0
 30
0.0
  9
$UCSYDIR
 10
0.0
 20
1.0
 30
0.0
  9
$PUCSNAME
  2

  9
$PUCSORG
 10
0.0
 20
0.0
 30
0.0
  9
$PUCSXDIR
 10
1.0
 20
0.0
 30
0.0
  9
$PUCSYDIR
 10
0.0
 20
1.0
 30
0.0
  9
$USERI1
 70
     0
  9
$USERI2
 70
     0
  9
$USERI3
 70
     0
  9
$USERI4
 70
     0
  9
$USERI5
 70
     0
  9
$USERR1
 40
0.0
  9
$USERR2
 40
0.0
  9
$USERR3
 40
0.0
  9
$USERR4
 40
0.0
  9
$USERR5
 40
0.0
  9
$WORLDVIEW
 70
     1
  9
$SHADEDGE
 70
     3
  9
$SHADEDIF
 70
    70
  9
$TILEMODE
 70
     1
  9
$MAXACTVP
 70
    16
  9
$PINSBASE
 10
0.0
 20
0.0
 30
0.0
  9
$PLIMCHECK
 70
     0
  9
$PEXTMIN
 10
1.0E20
 20
1.0E20
 30
1.0E20
  9
$PEXTMAX
 10
-1.0E20
 20
-1.0E20
 30
-1.0E20
  9
$PLIMMIN
 10
0.0
 20
0.0
  9
$PLIMMAX
 10
12.0
 20
9.0
  9
$UNITMODE
 70
     0
  9
$VISRETAIN
 70
     0
  0
ENDSEC
  0
SECTION
  2
TABLES
  0
TABLE
  2
VPORT
 70
     1
  0
VPORT
  2
*ACTIVE
 70
     0
 10
0.0
 20
0.0
 11
1.0
 21
1.0
 12
6.801242
 22
4.5
 13
0.0
 23
0.0
 14
1.0
 24
1.0
 15
0.0
 25
0.0
 16
0.0
 26
0.0
 36
1.0
 17
0.0
 27
0.0
 37
0.0
 40
9.0
 41
1.511387
 42
50.0
 43
0.0
 44
0.0
 50
0.0
 51
0.0
 71
     0
 72
   100
 73
     1
 74
     1
 75
     0
 76
     0
 77
     0
 78
     0
  0
ENDTAB
  0
TABLE
  2
LTYPE
 70
    41
  0
LTYPE
  2
BYBLOCK
 70
     0
  3

 72
    65
 73
     0
 40
0.0
  0
LTYPE
  2
BYLAYER
 70
     0
  3

 72
    65
 73
     0
 40
0.0
  0
LTYPE
  2
CONTINUOUS
 70
     0
  3
Solid line
 72
    65
 73
     0
 40
0.0
  0
LTYPE
  2
BORDER
 70
    64
  3
__ __ . __ __ . __ __ . __ __ . __ __ . __ __ .
 72
    65
 73
     6
 40
1.75
 49
0.5
 49
-0.25
 49
0.5
 49
-0.25
 49
0.0
 49
-0.25
  0
LTYPE
  2
BORDER2
 70
    64
  3
__.__.__.__.__.__.__.__.__.__.__.__.__.__.__.__
 72
    65
 73
     6
 40
0.875
 49
0.25
 49
-0.125
 49
0.25
 49
-0.125
 49
0.0
 49
-0.125
  0
LTYPE
  2
BORDERX2
 70
    64
  3
____  ____  .  ____  ____  .  ____  ____  .  __
 72
    65
 73
     6
 40
3.5
 49
1.0
 49
-0.5
 49
1.0
 49
-0.5
 49
0.0
 49
-0.5
  0
LTYPE
  2
CENTER
 70
    64
  3
____ _ ____ _ ____ _ ____ _ ____ _ ____ _ ____
 72
    65
 73
     4
 40
2.0
 49
1.25
 49
-0.25
 49
0.25
 49
-0.25
  0
LTYPE
  2
CENTER2
 70
    64
  3
___ _ ___ _ ___ _ ___ _ ___ _ ___ _ ___ _ ___ _
 72
    65
 73
     4
 40
1.125
 49
0.75
 49
-0.125
 49
0.125
 49
-0.125
  0
LTYPE
  2
CENTERX2
 70
    64
  3
________  __  ________  __  ________  __  _____
 72
    65
 73
     4
 40
4.0
 49
2.5
 49
-0.5
 49
0.5
 49
-0.5
  0
LTYPE
  2
DASHDOT
 70
    64
  3
__ . __ . __ . __ . __ . __ . __ . __ . __ . __
 72
    65
 73
     4
 40
1.0
 49
0.5
 49
-0.25
 49
0.0
 49
-0.25
  0
LTYPE
  2
DASHDOT2
 70
    64
  3
_._._._._._._._._._._._._._._._._._._._._._._._
 72
    65
 73
     4
 40
0.5
 49
0.25
 49
-0.125
 49
0.0
 49
-0.125
  0
LTYPE
  2
DASHDOTX2
 70
    64
  3
____  .  ____  .  ____  .  ____  .  ____  .  __
 72
    65
 73
     4
 40
2.0
 49
1.0
 49
-0.5
 49
0.0
 49
-0.5
  0
LTYPE
  2
DASHED
 70
    64
  3
__ __ __ __ __ __ __ __ __ __ __ __ __ __ __ __
 72
    65
 73
     2
 40
0.75
 49
0.5
 49
-0.25
  0
LTYPE
  2
DASHED2
 70
    64
  3
_ _ _ _ _ _ _ _ _ _ _ _ _ _ _ _ _ _ _ _ _ _ _ _
 72
    65
 73
     2
 40
0.375
 49
0.25
 49
-0.125
  0
LTYPE
  2
DASHEDX2
 70
    64
  3
____  ____  ____  ____  ____  ____  ____  ____
 72
    65
 73
     2
 40
1.5
 49
1.0
 49
-0.5
  0
LTYPE
  2
DIVIDE
 70
    64
  3
____ . . ____ . . ____ . . ____ . . ____ . . __
 72
    65
 73
     6
 40
1.25
 49
0.5
 49
-0.25
 49
0.0
 49
-0.25
 49
0.0
 49
-0.25
  0
LTYPE
  2
DIVIDE2
 70
    64
  3
__..__..__..__..__..__..__..__..__..__..__..__.
 72
    65
 73
     6
 40
0.625
 49
0.25
 49
-0.125
 49
0.0
 49
-0.125
 49
0.0
 49
-0.125
  0
LTYPE
  2
DIVIDEX2
 70
    64
  3
________  .  .  ________  .  .  ________  .  .
 72
    65
 73
     6
 40
2.5
 49
1.0
 49
-0.5
 49
0.0
 49
-0.5
 49
0.0
 49
-0.5
  0
LTYPE
  2
DOT
 70
    64
  3
. . . . . . . . . . . . . . . . . . . . . . . .
 72
    65
 73
     2
 40
0.25
 49
0.0
 49
-0.25
  0
LTYPE
  2
DOT2
 70
    64
  3
...............................................
 72
    65
 73
     2
 40
0.125
 49
0.0
 49
-0.125
  0
LTYPE
  2
DOTX2
 70
    64
  3
.  .  .  .  .  .  .  .  .  .  .  .  .  .  .  .
 72
    65
 73
     2
 40
0.5
 49
0.0
 49
-0.5
  0
LTYPE
  2
HIDDEN
 70
    64
  3
__ __ __ __ __ __ __ __ __ __ __ __ __ __ __ __
 72
    65
 73
     2
 40
0.375
 49
0.25
 49
-0.125
  0
LTYPE
  2
HIDDEN2
 70
    64
  3
_ _ _ _ _ _ _ _ _ _ _ _ _ _ _ _ _ _ _ _ _ _ _ _
 72
    65
 73
     2
 40
0.1875
 49
0.125
 49
-0.0625
  0
LTYPE
  2
HIDDENX2
 70
    64
  3
____ ____ ____ ____ ____ ____ ____ ____ ____ __
 72
    65
 73
     2
 40
0.75
 49
0.5
 49
-0.25
  0
LTYPE
  2
PHANTOM
 70
    64
  3
______  __  __  ______  __  __  ______  __  __
 72
    65
 73
     6
 40
2.5
 49
1.25
 49
-0.25
 49
0.25
 49
-0.25
 49
0.25
 49
-0.25
  0
LTYPE
  2
PHANTOM2
 70
    64
  3
___ _ _ ___ _ _ ___ _ _ ___ _ _ ___ _ _ ___ _ _
 72
    65
 73
     6
 40
1.25
 49
0.625
 49
-0.125
 49
0.125
 49
-0.125
 49
0.125
 49
-0.125
  0
LTYPE
  2
PHANTOMX2
 70
    64
  3
____________    ____    ____    ____________
 72
    65
 73
     6
 40
5.0
 49
2.5
 49
-0.5
 49
0.5
 49
-0.5
 49
0.5
 49
-0.5
  0
LTYPE
  2
ACAD_ISO02W100
 70
    64
  3
__ __ __ __ __ __ __ __ __ __ __ __ __ __ __ __
 72
    65
 73
     2
 40
15.0
 49
12.0
 49
-3.0
  0
LTYPE
  2
ACAD_ISO03W100
 70
    64
  3
__    __    __    __    __    __    __    __
 72
    65
 73
     2
 40
30.0
 49
12.0
 49
-18.0
  0
LTYPE
  2
ACAD_ISO04W100
 70
    64
  3
____ . ____ . ____ . ____ . ____ . ____ . ____
 72
    65
 73
     4
 40
30.5
 49
24.0
 49
-3.0
 49
0.5
 49
-3.0
  0
LTYPE
  2
ACAD_ISO05W100
 70
    64
  3
____ .. ____ .. ____ .. ____ .. ____ .. ____ ..
 72
    65
 73
     6
 40
34.0
 49
24.0
 49
-3.0
 49
0.5
 49
-3.0
 49
0.5
 49
-3.0
  0
LTYPE
  2
ACAD_ISO06W100
 70
    64
  3
____ ... ____ ... ____ ... ____ ... ____ ... __
 72
    65
 73
     8
 40
37.5
 49
24.0
 49
-3.0
 49
0.5
 49
-3.0
 49
0.5
 49
-3.0
 49
0.5
 49
-3.0
  0
LTYPE
  2
ACAD_ISO07W100
 70
    64
  3
. . . . . . . . . . . . . . . . . . . . . . . .
 72
    65
 73
     2
 40
3.5
 49
0.5
 49
-3.0
  0
LTYPE
  2
ACAD_ISO08W100
 70
    64
  3
____ __ ____ __ ____ __ ____ ____ __ __ ____ __
 72
    65
 73
     4
 40
36.0
 49
24.0
 49
-3.0
 49
6.0
 49
-3.0
  0
LTYPE
  2
ACAD_ISO09W100
 70
    64
  3
____ __ __ ____ __ __ ____ __ __ ____ __ __ ___
 72
    65
 73
     6
 40
45.0
 49
24.0
 49
-3.0
 49
6.0
 49
-3.0
 49
6.0
 49
-3.0
  0
LTYPE
  2
ACAD_ISO10W100
 70
    64
  3
__ . __ . __ . __ . __ . __ . __ . __ . __ . __
 72
    65
 73
     4
 40
18.5
 49
12.0
 49
-3.0
 49
0.5
 49
-3.0
  0
LTYPE
  2
ACAD_ISO11W100
 70
    64
  3
__ __ . __ __ . __ __ . __ __ . __ __ . __ __ .
 72
    65
 73
     6
 40
33.5
 49
12.0
 49
-3.0
 49
12.0
 49
-3.0
 49
0.5
 49
-3.0
  0
LTYPE
  2
ACAD_ISO12W100
 70
    64
  3
__ . . __ . . __ . . __ . . __ . . __ . . __ .
 72
    65
 73
     6
 40
22.0
 49
12.0
 49
-3.0
 49
0.5
 49
-3.0
 49
0.5
 49
-3.0
  0
LTYPE
  2
ACAD_ISO13W100
 70
    64
  3
__ __ . . __ __ . . __ __ . . __ __ . . __ __ .
 72
    65
 73
     8
 40
37.0
 49
12.0
 49
-3.0
 49
12.0
 49
-3.0
 49
0.5
 49
-3.0
 49
0.5
 49
-3.0
  0
LTYPE
  2
ACAD_ISO14W100
 70
    64
  3
__ . . . __ . . . __ . . . __ . . . __ . . . __
 72
    65
 73
     8
 40
25.5
 49
12.0
 49
-3.0
 49
0.5
 49
-3.0
 49
0.5
 49
-3.0
 49
0.5
 49
-3.0
  0
LTYPE
  2
ACAD_ISO15W100
 70
    64
  3
__ __ . . . __ __ . . . __ __ . . . __ __ . . .
 72
    65
 73
    10
 40
40.5
 49
12.0
 49
-3.0
 49
12.0
 49
-3.0
 49
0.5
 49
-3.0
 49
0.5
 49
-3.0
 49
0.5
 49
-3.0
  0
ENDTAB
  0
TABLE
  2
STYLE
 70
     4
  0
STYLE
  2
STANDARD
 70
    64
 40
0.0
 41
1.0
 50
0.0
 71
     0
 42
0.2
  3
txt
  4

  0
STYLE
  2
TOLERANCE
 70
    64
 40
0.0
 41
1.0
 50
0.0
 71
     0
 42
0.2
  3
../igesfont/iges1003.shx
  4

  0
STYLE
  2
ROMANS
 70
    64
 40
0.0
 41
1.0
 50
0.0
 71
     0
 42
0.2
  3
romans.shx
  4

  0
STYLE
  2
ROMANC
 70
    64
 40
0.0
 41
1.0
 50
0.0
 71
     0
 42
0.2
  3
romanc.shx
  4

  0
ENDTAB
  0
TABLE
  2
DIMSTYLE
 70
     2
  0
DIMSTYLE
  2
UNNAMED
 70
     0
  3

  4

  5

  6

  7

 40
1.0
 41
0.18
 42
0.0625
 43
0.38
 44
0.18
 45
0.0
 46
0.0
 47
0.0
 48
0.0
140
0.18
141
0.09
142
0.0
143
25.4
144
1.0
145
0.0
146
1.0
147
0.09
 71
     0
 72
     0
 73
     1
 74
     1
 75
     0
 76
     0
 77
     0
 78
     0
170
     0
171
     2
172
     0
173
     0
174
     0
175
     0
176
     0
177
     0
178
     0
  0
DIMSTYLE
  2
STANDARD
 70
     0
  3

  4

  5

  6

  7

 40
1.0
 41
0.18
 42
0.0625
 43
0.38
 44
0.18
 45
0.0
 46
0.0
 47
0.0
 48
0.0
140
0.18
141
0.09
142
0.0
143
25.4
144
1.0
145
0.0
146
1.0
147
0.09
 71
     0
 72
     0
 73
     1
 74
     1
 75
     0
 76
     0
 77
     0
 78
     0
170
     0
171
     2
172
     0
173
     0
174
     0
175
     0
176
     0
177
     0
178
     0
  0
ENDTAB
  0
TABLE
  2
LAYER
 70
     1
  0
LAYER
  2
0
 70
     0
 62
     7
  6
CONTINUOUS
  0
ENDTAB
  0
ENDSEC
  0
SECTION
  2
BLOCKS
  0
BLOCK
  5
     B
  8
0
  6
CONTINUOUS
 62
     2
  2
*HATCH114
 70
    65
 10
0.0
 20
0.0
 30
0.0
  3
*HATCH114
  0
LINE
  5
     C
  8
0
  6
CONTINUOUS
 62
     7
 10
-41.9499015808105
 20
102.299880981445
 30
0.0
 11
-45.9499015808106
 21
98.2998809814453
 31
0.0
  0
LINE
  5
     D
  8
0
  6
CONTINUOUS
 62
     7
 10
-33.4646186828613
 20
102.299880981445
 30
0.0
 11
-37.4646186828613
 21
98.2998809814453
 31
0.0
  0
LINE
  5
     E
  8
0
  6
CONTINUOUS
 62
     7
 10
-27.8999786376953
 20
99.3792419433594
 30
0.0
 11
-28.9793376922607
 21
98.2998809814453
 31
0.0
  0
ENDBLK
  5
     F
  8
0
  6
CONTINUOUS
 62
     2
  0
BLOCK
  5
    10
  8
0
  6
CONTINUOUS
 62
     2
  2
*HATCH115
 70
    65
 10
0.0
 20
0.0
 30
0.0
  3
*HATCH115
  0
LINE
  5
    11
  8
0
  6
CONTINUOUS
 62
    52
 10
49.0999908447266
 20
55.4639472961426
 30
0.0
 11
46.0999908447266
 21
52.4639472961426
 31
0.0
  0
LINE
  5
    12
  8
0
  6
CONTINUOUS
 62
    52
 10
49.0999908447266
 20
51.2213096618652
 30
0.0
 11
46.0999908447266
 21
48.2213096618652
 31
0.0
  0
LINE
  5
    13
  8
0
  6
CONTINUOUS
 62
    52
 10
49.0999908447266
 20
46.9786720275879
 30
0.0
 11
46.0999908447266
 21
43.9786720275879
 31
0.0
  0
LINE
  5
    14
  8
0
  6
CONTINUOUS
 62
    52
 10
49.0999908447266
 20
42.7360343933105
 30
0.0
 11
46.0999908447266
 21
39.7360343933105
 31
0.0
  0
LINE
  5
    15
  8
0
  6
CONTINUOUS
 62
    52
 10
49.0999908447266
 20
38.4933967590332
 30
0.0
 11
46.0999908447266
 21
35.4933967590332
 31
0.0
  0
LINE
  5
    16
  8
0
  6
CONTINUOUS
 62
    52
 10
46.0278282165527
 20
33.2999038696289
 30
0.0
 11
44.5999908447266
 21
31.8720664978027
 31
0.0
  0
LINE
  5
    17
  8
0
  6
CONTINUOUS
 62
    52
 10
49.0999908447266
 20
32.1294250488281
 30
0.0
 11
48.7704696655273
 21
31.7999038696289
 31
0.0
  0
ENDBLK
  5
    18
  8
0
  6
CONTINUOUS
 62
     2
  0
BLOCK
  5
    19
  8
0
  6
CONTINUOUS
 62
     2
  2
*HATCH116
 70
    65
 10
0.0
 20
0.0
 30
0.0
  3
*HATCH116
  0
LINE
  5
    1A
  8
0
  6
CONTINUOUS
 62
    52
 10
48.4395141601563
 20
-15.2000961303711
 30
0.0
 11
46.0999908447266
 21
-17.5396213531494
 31
0.0
  0
LINE
  5
    1B
  8
0
  6
CONTINUOUS
 62
    52
 10
49.0999908447266
 20
-18.7822608947754
 30
0.0
 11
46.0999908447266
 21
-21.7822608947754
 31
0.0
  0
LINE
  5
    1C
  8
0
  6
CONTINUOUS
 62
    52
 10
49.0999908447266
 20
-23.02490234375
 30
0.0
 11
46.0999908447266
 21
-26.02490234375
 31
0.0
  0
LINE
  5
    1D
  8
0
  6
CONTINUOUS
 62
    52
 10
49.0999908447266
 20
-27.2675437927246
 30
0.0
 11
46.0999908447266
 21
-30.2675437927246
 31
0.0
  0
LINE
  5
    1E
  8
0
  6
CONTINUOUS
 62
    52
 10
49.0999908447266
 20
-31.5101852416992
 30
0.0
 11
46.0999908447266
 21
-34.510181427002
 31
0.0
  0
LINE
  5
    1F
  8
0
  6
CONTINUOUS
 62
    52
 10
49.0999908447266
 20
-35.7528228759766
 30
0.0
 11
46.0999908447266
 21
-38.7528190612793
 31
0.0
  0
ENDBLK
  5
    20
  8
0
  6
CONTINUOUS
 62
     2
  0
BLOCK
  5
    21
  8
0
  6
CONTINUOUS
 62
     2
  2
*HATCH117
 70
    65
 10
0.0
 20
0.0
 30
0.0
  3
*HATCH117
  0
LINE
  5
    22
  8
0
  6
CONTINUOUS
 62
     7
 10
54.753532409668
 20
151.485717773438
 30
0.0
 11
52.903263092041
 21
149.635452270508
 31
0.0
  0
LINE
  5
    23
  8
0
  6
CONTINUOUS
 62
     7
 10
55.4813919067383
 20
151.365051269531
 30
0.0
 11
52.9931335449219
 21
148.87678527832
 31
0.0
  0
LINE
  5
    24
  8
0
  6
CONTINUOUS
 62
     7
 10
56.0293045043945
 20
151.064422607422
 30
0.0
 11
53.2689437866211
 21
148.304061889648
 31
0.0
  0
LINE
  5
    25
  8
0
  6
CONTINUOUS
 62
     7
 10
56.4662017822266
 20
150.652801513672
 30
0.0
 11
53.7264099121094
 21
147.913009643555
 31
0.0
  0
LINE
  5
    26
  8
0
  6
CONTINUOUS
 62
     7
 10
56.7420120239258
 20
150.080078125
 30
0.0
 11
54.297248840332
 21
147.635314941406
 31
0.0
  0
LINE
  5
    27
  8
0
  6
CONTINUOUS
 62
     7
 10
56.8029747009277
 20
149.292526245117
 30
0.0
 11
55.0679321289063
 21
147.557479858398
 31
0.0
  0
ENDBLK
  5
    28
  8
0
  6
CONTINUOUS
 62
     2
  0
BLOCK
  5
    29
  8
0
  6
CONTINUOUS
 62
     2
  2
*HATCH118
 70
    65
 10
0.0
 20
0.0
 30
0.0
  3
*HATCH118
  0
LINE
  5
    2A
  8
0
  6
CONTINUOUS
 62
     7
 10
-35.5339660644531
 20
155.384826660156
 30
0.0
 11
-37.1968574523926
 21
153.721939086914
 31
0.0
  0
LINE
  5
    2B
  8
0
  6
CONTINUOUS
 62
     7
 10
-34.7364654541016
 20
155.333801269531
 30
0.0
 11
-37.1539916992188
 21
152.916275024414
 31
0.0
  0
LINE
  5
    2C
  8
0
  6
CONTINUOUS
 62
     7
 10
-34.1512680053711
 20
155.070465087891
 30
0.0
 11
-36.8781852722168
 21
152.343551635742
 31
0.0
  0
LINE
  5
    2D
  8
0
  6
CONTINUOUS
 62
     7
 10
-33.6809196472168
 20
154.692291259766
 30
0.0
 11
-36.4541625976563
 21
151.919052124023
 31
0.0
  0
LINE
  5
    2E
  8
0
  6
CONTINUOUS
 62
     7
 10
-33.4051132202148
 20
154.119567871094
 30
0.0
 11
-35.9206085205078
 21
151.604080200195
 31
0.0
  0
LINE
  5
    2F
  8
0
  6
CONTINUOUS
 62
     7
 10
-33.2971458435059
 20
153.379013061523
 30
0.0
 11
-35.2195663452148
 21
151.456588745117
 31
0.0
  0
ENDBLK
  5
    30
  8
0
  6
CONTINUOUS
 62
     2
  0
BLOCK
  5
    31
  8
0
  6
CONTINUOUS
 62
     2
  2
*HATCH119
 70
    65
 10
0.0
 20
0.0
 30
0.0
  3
*HATCH119
  0
LINE
  5
    32
  8
0
  6
CONTINUOUS
 62
   210
 10
-27.8999786376953
 20
102.146270751953
 30
0.0
 11
-26.0535907745361
 21
100.299880981445
 31
0.0
  0
LINE
  5
    33
  8
0
  6
CONTINUOUS
 62
   210
 10
-25.9322681427002
 20
102.299880981445
 30
0.0
 11
-23.9322719573975
 21
100.299880981445
 31
0.0
  0
LINE
  5
    34
  8
0
  6
CONTINUOUS
 62
   210
 10
-23.8109493255615
 20
102.299880981445
 30
0.0
 11
-19.8999786376953
 21
98.3889083862305
 31
0.0
  0
ENDBLK
  5
    35
  8
0
  6
CONTINUOUS
 62
     2
  0
BLOCK
  5
    36
  8
0
  6
CONTINUOUS
 62
     2
  2
*HATCH120
 70
    65
 10
0.0
 20
0.0
 30
0.0
  3
*HATCH120
  0
LINE
  5
    37
  8
0
  6
CONTINUOUS
 62
   210
 10
-27.8999786376953
 20
83.0543746948242
 30
0.0
 11
-25.8999805450439
 21
81.0543746948242
 31
0.0
  0
LINE
  5
    38
  8
0
  6
CONTINUOUS
 62
   210
 10
-25.9028415679932
 20
85.2998809814453
 30
0.0
 11
-23.9028453826904
 21
83.2998809814453
 31
0.0
  0
LINE
  5
    39
  8
0
  6
CONTINUOUS
 62
   210
 10
-24.8999786376953
 20
88.5396575927734
 30
0.0
 11
-23.6602020263672
 21
87.2998809814453
 31
0.0
  0
LINE
  5
    3A
  8
0
  6
CONTINUOUS
 62
   210
 10
-23.0388813018799
 20
88.7998809814453
 30
0.0
 11
-19.8999786376953
 21
85.6609725952148
 31
0.0
  0
ENDBLK
  5
    3B
  8
0
  6
CONTINUOUS
 62
     2
  0
BLOCK
  5
    3C
  8
0
  6
CONTINUOUS
 62
     2
  2
*HATCH121
 70
    65
 10
0.0
 20
0.0
 30
0.0
  3
*HATCH121
  0
LINE
  5
    3D
  8
0
  6
CONTINUOUS
 62
     3
 10
-45.3999786376953
 20
96.6653060913086
 30
0.0
 11
-43.4211235046387
 21
94.6864547729492
 31
0.0
  0
LINE
  5
    3E
  8
0
  6
CONTINUOUS
 62
     3
 10
-44.9132308959961
 20
98.2998809814453
 30
0.0
 11
-43.3999786376953
 21
96.7866287231445
 31
0.0
  0
ENDBLK
  5
    3F
  8
0
  6
CONTINUOUS
 62
     2
  0
BLOCK
  5
    40
  8
0
  6
CONTINUOUS
 62
     2
  2
*HATCH122
 70
    65
 10
0.0
 20
0.0
 30
0.0
  3
*HATCH122
  0
LINE
  5
    41
  8
0
  6
CONTINUOUS
 62
     3
 10
-45.3999786376953
 20
88.1800231933594
 30
0.0
 11
-43.5198364257813
 21
86.2998809814453
 31
0.0
  0
LINE
  5
    42
  8
0
  6
CONTINUOUS
 62
     3
 10
-45.0119476318359
 20
89.9133071899414
 30
0.0
 11
-43.3999786376953
 21
88.3013381958008
 31
0.0
  0
ENDBLK
  5
    43
  8
0
  6
CONTINUOUS
 62
     2
  0
BLOCK
  5
    44
  8
0
  6
CONTINUOUS
 62
     3
  2
*UDIM260
 70
    65
 10
0.0
 20
0.0
 30
0.0
  3
*UDIM260
  0
TEXT
  5
    45
  8
0
  6
CONTINUOUS
 62
     3
 10
70.3820082296927
 20
65.8591251373291
 30
0.0
 40
3.00000002980232
  1
28
 41
0.933333333333333
 72
     1
 11
72.882008254528
 21
67.3591251522303
 31
0.0
 73
     2
  0
LINE
  5
    46
  8
0
  6
CONTINUOUS
 62
     3
 10
66.1570124626158
 20
62.1243222242466
 30
0.0
 11
66.1570124626158
 21
66.8591251373291
 31
0.0
  0
LINE
  5
    47
  8
0
  6
CONTINUOUS
 62
     3
 10
80.1570053100586
 20
46.7351950715322
 30
0.0
 11
80.1570053100586
 21
66.8591251373291
 31
0.0
  0
LINE
  5
    48
  8
0
  6
CONTINUOUS
 62
     3
 10
66.1570124626158
 20
64.8591251373291
 30
0.0
 11
80.1570053100586
 21
64.8591251373291
 31
0.0
  0
LINE
  5
    49
  8
0
  6
CONTINUOUS
 62
     3
 10
69.1114357398228
 20
65.3800695672808
 30
0.0
 11
66.1570124626158
 21
64.8591251373291
 31
0.0
  0
LINE
  5
    4A
  8
0
  6
CONTINUOUS
 62
     3
 10
66.1570124626158
 20
64.8591251373291
 30
0.0
 11
69.1114357398228
 21
64.3381807073774
 31
0.0
  0
LINE
  5
    4B
  8
0
  6
CONTINUOUS
 62
     3
 10
77.2025820328517
 20
64.3381807073774
 30
0.0
 11
80.1570053100586
 21
64.8591251373291
 31
0.0
  0
LINE
  5
    4C
  8
0
  6
CONTINUOUS
 62
     3
 10
80.1570053100586
 20
64.8591251373291
 30
0.0
 11
77.2025820328517
 21
65.3800695672808
 31
0.0
  0
ENDBLK
  5
    4D
  8
0
  6
CONTINUOUS
 62
     3
  0
BLOCK
  5
    4E
  8
0
  6
CONTINUOUS
 62
     3
  2
*UDIM261
 70
    65
 10
0.0
 20
0.0
 30
0.0
  3
*UDIM261
  0
TEXT
  5
    4F
  8
0
  6
CONTINUOUS
 62
     3
 10
164.867023468022
 20
2.26102232635209
 30
0.0
 40
3.00000002980232
  1
124
 50
90.0
 41
0.933333333333333
 72
     1
 11
163.367023453116
 21
6.16102236509322
 31
0.0
 73
     2
  0
LINE
  5
    50
  8
0
  6
CONTINUOUS
 62
     3
 10
126.656997799873
 20
-24.5639820098877
 30
0.0
 11
167.867023468018
 21
-24.5639820098877
 31
0.0
  0
LINE
  5
    51
  8
0
  6
CONTINUOUS
 62
     3
 10
126.656997799873
 20
37.4360256195068
 30
0.0
 11
167.867023468018
 21
37.4360256195068
 31
0.0
  0
LINE
  5
    52
  8
0
  6
CONTINUOUS
 62
     3
 10
165.867023468018
 20
-24.5639820098877
 30
0.0
 11
165.867023468018
 21
37.4360256195068
 31
0.0
  0
LINE
  5
    53
  8
0
  6
CONTINUOUS
 62
     3
 10
165.346079038066
 20
-21.6095587326807
 30
0.0
 11
165.867023468018
 21
-24.5639820098877
 31
0.0
  0
LINE
  5
    54
  8
0
  6
CONTINUOUS
 62
     3
 10
165.867023468018
 20
-24.5639820098877
 30
0.0
 11
166.387967897969
 21
-21.6095587326807
 31
0.0
  0
LINE
  5
    55
  8
0
  6
CONTINUOUS
 62
     3
 10
166.387967897969
 20
34.4816023422999
 30
0.0
 11
165.867023468018
 21
37.4360256195068
 31
0.0
  0
LINE
  5
    56
  8
0
  6
CONTINUOUS
 62
     3
 10
165.867023468018
 20
37.4360256195068
 30
0.0
 11
165.346079038066
 21
34.4816023422999
 31
0.0
  0
ENDBLK
  5
    57
  8
0
  6
CONTINUOUS
 62
     3
  0
BLOCK
  5
    58
  8
0
  6
CONTINUOUS
 62
     3
  2
*UDIM262
 70
    65
 10
0.0
 20
0.0
 30
0.0
  3
*UDIM262
  0
TEXT
  5
    59
  8
0
  6
CONTINUOUS
 62
     3
 10
146.500064849857
 20
-14.83897432188
 30
0.0
 40
3.00000002980232
  1
50
 50
90.0
 41
0.933333333333333
 72
     1
 11
145.000064834952
 21
-12.3389742970467
 31
0.0
 73
     2
  0
LINE
  5
    5A
  8
0
  6
CONTINUOUS
 62
     3
 10
126.656997799873
 20
-24.5639820098877
 30
0.0
 11
149.500064849854
 21
-24.5639820098877
 31
0.0
  0
LINE
  5
    5B
  8
0
  6
CONTINUOUS
 62
     3
 10
147.500064849854
 20
-24.5639820098877
 30
0.0
 11
147.500064849854
 21
0.436033248901392
 31
0.0
  0
LINE
  5
    5C
  8
0
  6
CONTINUOUS
 62
     3
 10
146.979120419902
 20
-21.6095587326807
 30
0.0
 11
147.500064849854
 21
-24.5639820098877
 31
0.0
  0
LINE
  5
    5D
  8
0
  6
CONTINUOUS
 62
     3
 10
147.500064849854
 20
-24.5639820098877
 30
0.0
 11
148.021009279805
 21
-21.6095587326807
 31
0.0
  0
LINE
  5
    5E
  8
0
  6
CONTINUOUS
 62
     3
 10
148.021009279805
 20
-2.51839002830557
 30
0.0
 11
147.500064849854
 21
0.436033248901392
 31
0.0
  0
LINE
  5
    5F
  8
0
  6
CONTINUOUS
 62
     3
 10
147.500064849854
 20
0.436033248901392
 30
0.0
 11
146.979120419902
 21
-2.51839002830557
 31
0.0
  0
ENDBLK
  5
    60
  8
0
  6
CONTINUOUS
 62
     3
  0
BLOCK
  5
    61
  8
0
  6
CONTINUOUS
 62
     3
  2
*UDIM263
 70
    65
 10
0.0
 20
0.0
 30
0.0
  3
*UDIM263
  0
TEXT
  5
    62
  8
0
  6
CONTINUOUS
 62
     3
 10
78.8820044368506
 20
-50.6539897918701
 30
0.0
 40
3.00000002980232
  1
42
 41
0.933333333333333
 72
     1
 11
81.3820044616859
 21
-49.153989776969
 31
0.0
 73
     2
  0
LINE
  5
    63
  8
0
  6
CONTINUOUS
 62
     3
 10
71.1570053100586
 20
-26.9109297903315
 30
0.0
 11
71.1570053100586
 21
-53.6539897918701
 31
0.0
  0
LINE
  5
    64
  8
0
  6
CONTINUOUS
 62
     3
 10
92.1570045789083
 20
-25.0639781951904
 30
0.0
 11
92.1570045789083
 21
-53.6539897918701
 31
0.0
  0
LINE
  5
    65
  8
0
  6
CONTINUOUS
 62
     3
 10
71.1570053100586
 20
-51.6539897918701
 30
0.0
 11
92.1570045789083
 21
-51.6539897918701
 31
0.0
  0
LINE
  5
    66
  8
0
  6
CONTINUOUS
 62
     3
 10
74.1114285872656
 20
-51.1330453619185
 30
0.0
 11
71.1570053100586
 21
-51.6539897918701
 31
0.0
  0
LINE
  5
    67
  8
0
  6
CONTINUOUS
 62
     3
 10
71.1570053100586
 20
-51.6539897918701
 30
0.0
 11
74.1114285872656
 21
-52.1749342218218
 31
0.0
  0
LINE
  5
    68
  8
0
  6
CONTINUOUS
 62
     3
 10
89.2025813017014
 20
-52.1749342218218
 30
0.0
 11
92.1570045789083
 21
-51.6539897918701
 31
0.0
  0
LINE
  5
    69
  8
0
  6
CONTINUOUS
 62
     3
 10
92.1570045789083
 20
-51.6539897918701
 30
0.0
 11
89.2025813017014
 21
-51.1330453619185
 31
0.0
  0
ENDBLK
  5
    6A
  8
0
  6
CONTINUOUS
 62
     3
  0
BLOCK
  5
    6B
  8
0
  6
CONTINUOUS
 62
     3
  2
*UDIM264
 70
    65
 10
0.0
 20
0.0
 30
0.0
  3
*UDIM264
  0
TEXT
  5
    6C
  8
0
  6
CONTINUOUS
 62
     3
 10
108.132000622153
 20
-50.6539897918701
 30
0.0
 40
3.00000002980232
  1
75
 41
0.933333333333333
 72
     1
 11
110.632000646989
 21
-49.153989776969
 31
0.0
 73
     2
  0
LINE
  5
    6D
  8
0
  6
CONTINUOUS
 62
     3
 10
92.1570045789083
 20
-25.0639781951904
 30
0.0
 11
92.1570045789083
 21
-53.6539897918701
 31
0.0
  0
LINE
  5
    6E
  8
0
  6
CONTINUOUS
 62
     3
 10
129.656997799873
 20
-10.8139667510986
 30
0.0
 11
129.656997799873
 21
-53.6539897918701
 31
0.0
  0
LINE
  5
    6F
  8
0
  6
CONTINUOUS
 62
     3
 10
92.1570045789083
 20
-51.6539897918701
 30
0.0
 11
129.656997799873
 21
-51.6539897918701
 31
0.0
  0
LINE
  5
    70
  8
0
  6
CONTINUOUS
 62
     3
 10
95.1114278561153
 20
-51.1330453619185
 30
0.0
 11
92.1570045789083
 21
-51.6539897918701
 31
0.0
  0
LINE
  5
    71
  8
0
  6
CONTINUOUS
 62
     3
 10
92.1570045789083
 20
-51.6539897918701
 30
0.0
 11
95.1114278561153
 21
-52.1749342218218
 31
0.0
  0
LINE
  5
    72
  8
0
  6
CONTINUOUS
 62
     3
 10
126.702574522666
 20
-52.1749342218218
 30
0.0
 11
129.656997799873
 21
-51.6539897918701
 31
0.0
  0
LINE
  5
    73
  8
0
  6
CONTINUOUS
 62
     3
 10
129.656997799873
 20
-51.6539897918701
 30
0.0
 11
126.702574522666
 21
-51.1330453619185
 31
0.0
  0
ENDBLK
  5
    74
  8
0
  6
CONTINUOUS
 62
     3
  0
BLOCK
  5
    75
  8
0
  6
CONTINUOUS
 62
     3
  2
*UDIM265
 70
    65
 10
0.0
 20
0.0
 30
0.0
  3
*UDIM265
  0
TEXT
  5
    76
  8
0
  6
CONTINUOUS
 62
     3
 10
112.132003475229
 20
-59.2464199066162
 30
0.0
 40
3.00000002980232
  1
91
 41
0.933333333333333
 72
     1
 11
114.632003500064
 21
-57.7464198917151
 31
0.0
 73
     2
  0
LINE
  5
    77
  8
0
  6
CONTINUOUS
 62
     3
 10
92.1570045789083
 20
-25.0639781951904
 30
0.0
 11
92.1570045789083
 21
-62.2464199066162
 31
0.0
  0
LINE
  5
    78
  8
0
  6
CONTINUOUS
 62
     3
 10
137.657004578908
 20
-8.10842760200937
 30
0.0
 11
137.657004578908
 21
-62.2464199066162
 31
0.0
  0
LINE
  5
    79
  8
0
  6
CONTINUOUS
 62
     3
 10
92.1570045789083
 20
-60.2464199066162
 30
0.0
 11
137.657004578908
 21
-60.2464199066162
 31
0.0
  0
LINE
  5
    7A
  8
0
  6
CONTINUOUS
 62
     3
 10
95.1114278561153
 20
-59.7254754766645
 30
0.0
 11
92.1570045789083
 21
-60.2464199066162
 31
0.0
  0
LINE
  5
    7B
  8
0
  6
CONTINUOUS
 62
     3
 10
92.1570045789083
 20
-60.2464199066162
 30
0.0
 11
95.1114278561153
 21
-60.7673643365679
 31
0.0
  0
LINE
  5
    7C
  8
0
  6
CONTINUOUS
 62
     3
 10
134.702581301701
 20
-60.7673643365679
 30
0.0
 11
137.657004578908
 21
-60.2464199066162
 31
0.0
  0
LINE
  5
    7D
  8
0
  6
CONTINUOUS
 62
     3
 10
137.657004578908
 20
-60.2464199066162
 30
0.0
 11
134.702581301701
 21
-59.7254754766645
 31
0.0
  0
ENDBLK
  5
    7E
  8
0
  6
CONTINUOUS
 62
     3
  0
BLOCK
  5
    7F
  8
0
  6
CONTINUOUS
 62
     3
  2
*UDIM266
 70
    65
 10
0.0
 20
0.0
 30
0.0
  3
*UDIM266
  0
TEXT
  5
    80
  8
0
  6
CONTINUOUS
 62
     3
 10
76.3820082515478
 20
-59.2464199066162
 30
0.0
 40
3.00000002980232
  1
52
 41
0.933333333333333
 72
     1
 11
78.882008276383
 21
-57.7464198917151
 31
0.0
 73
     2
  0
LINE
  5
    81
  8
0
  6
CONTINUOUS
 62
     3
 10
66.1570124626158
 20
-36.808716907581
 30
0.0
 11
66.1570124626158
 21
-62.2464199066162
 31
0.0
  0
LINE
  5
    82
  8
0
  6
CONTINUOUS
 62
     3
 10
92.1570045789083
 20
-25.0639781951904
 30
0.0
 11
92.1570045789083
 21
-62.2464199066162
 31
0.0
  0
LINE
  5
    83
  8
0
  6
CONTINUOUS
 62
     3
 10
66.1570124626158
 20
-60.2464199066162
 30
0.0
 11
92.1570045789083
 21
-60.2464199066162
 31
0.0
  0
LINE
  5
    84
  8
0
  6
CONTINUOUS
 62
     3
 10
69.1114357398228
 20
-59.7254754766645
 30
0.0
 11
66.1570124626158
 21
-60.2464199066162
 31
0.0
  0
LINE
  5
    85
  8
0
  6
CONTINUOUS
 62
     3
 10
66.1570124626158
 20
-60.2464199066162
 30
0.0
 11
69.1114357398228
 21
-60.7673643365679
 31
0.0
  0
LINE
  5
    86
  8
0
  6
CONTINUOUS
 62
     3
 10
89.2025813017014
 20
-60.7673643365679
 30
0.0
 11
92.1570045789083
 21
-60.2464199066162
 31
0.0
  0
LINE
  5
    87
  8
0
  6
CONTINUOUS
 62
     3
 10
92.1570045789083
 20
-60.2464199066162
 30
0.0
 11
89.2025813017014
 21
-59.7254754766645
 31
0.0
  0
ENDBLK
  5
    88
  8
0
  6
CONTINUOUS
 62
     3
  0
BLOCK
  5
    89
  8
0
  6
CONTINUOUS
 62
     7
  2
*UDIM267
 70
    65
 10
0.0
 20
0.0
 30
0.0
  3
*UDIM267
  0
TEXT
  5
    8A
  8
0
  6
CONTINUOUS
 62
     7
 10
52.3570123851298
 20
54.3130359649658
 30
0.0
 40
3.00000002980232
  1
2.5
 41
0.933333333333333
 72
     1
 11
56.2570124238728
 21
55.813035979867
 31
0.0
 73
     2
  0
TEXT
  5
    8B
  8
0
  6
CONTINUOUS
 62
     7
 10
49.1570123632748
 20
54.3130359649658
 30
0.0
 40
3.00000002980232
  1
_
 41
0.933333333333334
 72
     1
 11
50.2570123742023
 21
55.813035979867
 31
0.0
 73
     2
  0
LINE
  5
    8C
  8
0
  6
CONTINUOUS
 62
     7
 10
65.1570124626158
 20
50.922215924656
 30
0.0
 11
65.1570124626158
 21
55.3130359649658
 31
0.0
  0
LINE
  5
    8D
  8
0
  6
CONTINUOUS
 62
     7
 10
66.1570124626158
 20
50.6807605172001
 30
0.0
 11
66.1570124626158
 21
55.3130359649658
 31
0.0
  0
LINE
  5
    8E
  8
0
  6
CONTINUOUS
 62
     7
 10
49.1570123632748
 20
53.3130359649658
 30
0.0
 11
71.1570124626158
 21
53.3130359649658
 31
0.0
  0
LINE
  5
    8F
  8
0
  6
CONTINUOUS
 62
     3
 10
62.2592349894053
 20
52.5365788085473
 30
0.0
 11
65.1570124626158
 21
53.3130359649658
 31
0.0
  0
LINE
  5
    90
  8
0
  6
CONTINUOUS
 62
     3
 10
65.1570124626158
 20
53.3130359649658
 30
0.0
 11
62.2592349894053
 21
54.0894931213844
 31
0.0
  0
LINE
  5
    91
  8
0
  6
CONTINUOUS
 62
     3
 10
69.0547899358264
 20
54.0894931213844
 30
0.0
 11
66.1570124626158
 21
53.3130359649658
 31
0.0
  0
LINE
  5
    92
  8
0
  6
CONTINUOUS
 62
     3
 10
66.1570124626158
 20
53.3130359649658
 30
0.0
 11
69.0547899358264
 21
52.5365788085473
 31
0.0
  0
ENDBLK
  5
    93
  8
0
  6
CONTINUOUS
 62
     7
  0
BLOCK
  5
    94
  8
0
  6
CONTINUOUS
 62
     7
  2
*UDIM268
 70
    65
 10
0.0
 20
0.0
 30
0.0
  3
*UDIM268
  0
TEXT
  5
    95
  8
0
  6
CONTINUOUS
 62
     7
 10
85.1570053100586
 20
59.508451461792
 30
0.0
 40
3.00000002980232
  1
10.5
 41
0.933333333333333
 72
     1
 11
90.4570053627094
 21
61.0084514766932
 31
0.0
 73
     2
  0
TEXT
  5
    96
  8
0
  6
CONTINUOUS
 62
     7
 10
96.7570054153602
 20
59.508451461792
 30
0.0
 40
3.00000002980232
  1
x11
 41
0.933333333333333
 72
     1
 11
100.657005454103
 21
61.0084514766932
 31
0.0
 73
     2
  0
LINE
  5
    97
  8
0
  6
CONTINUOUS
 62
     7
 10
73.6570053100586
 20
47.7351950715322
 30
0.0
 11
73.6570053100586
 21
60.508451461792
 31
0.0
  0
LINE
  5
    98
  8
0
  6
CONTINUOUS
 62
     7
 10
80.1570053100586
 20
47.7351950715322
 30
0.0
 11
80.1570053100586
 21
60.508451461792
 31
0.0
  0
LINE
  5
    99
  8
0
  6
CONTINUOUS
 62
     7
 10
68.6570053100586
 20
58.508451461792
 30
0.0
 11
104.557005492846
 21
58.508451461792
 31
0.0
  0
LINE
  5
    9A
  8
0
  6
CONTINUOUS
 62
     3
 10
70.7592278368481
 20
57.7319943053735
 30
0.0
 11
73.6570053100586
 21
58.508451461792
 31
0.0
  0
LINE
  5
    9B
  8
0
  6
CONTINUOUS
 62
     3
 10
73.6570053100586
 20
58.508451461792
 30
0.0
 11
70.7592278368481
 21
59.2849086182105
 31
0.0
  0
LINE
  5
    9C
  8
0
  6
CONTINUOUS
 62
     3
 10
83.0547827832691
 20
59.2849086182105
 30
0.0
 11
80.1570053100586
 21
58.508451461792
 31
0.0
  0
LINE
  5
    9D
  8
0
  6
CONTINUOUS
 62
     3
 10
80.1570053100586
 20
58.508451461792
 30
0.0
 11
83.0547827832691
 21
57.7319943053735
 31
0.0
  0
ENDBLK
  5
    9E
  8
0
  6
CONTINUOUS
 62
     7
  0
BLOCK
  5
    9F
  8
0
  6
CONTINUOUS
 62
     7
  2
*UDIM269
 70
    65
 10
0.0
 20
0.0
 30
0.0
  3
*UDIM269
  0
TEXT
  5
    A0
  8
0
  6
CONTINUOUS
 62
     7
 10
92.8820012181997
 20
71.6936283111572
 30
0.0
 40
3.00000002980232
  1
123
 41
0.933333333333333
 72
     1
 11
96.7820012569427
 21
73.1936283260584
 31
0.0
 73
     2
  0
LINE
  5
    A1
  8
0
  6
CONTINUOUS
 62
     7
 10
66.1570124626158
 20
50.6807605172001
 30
0.0
 11
66.1570124626158
 21
72.6936283111572
 31
0.0
  0
LINE
  5
    A2
  8
0
  6
CONTINUOUS
 62
     7
 10
127.40699005127
 20
51.4166017498791
 30
0.0
 11
127.40699005127
 21
72.6936283111572
 31
0.0
  0
LINE
  5
    A3
  8
0
  6
CONTINUOUS
 62
     7
 10
66.1570124626158
 20
70.6936283111572
 30
0.0
 11
127.40699005127
 21
70.6936283111572
 31
0.0
  0
LINE
  5
    A4
  8
0
  6
CONTINUOUS
 62
     3
 10
69.0547899358264
 20
71.4700854675758
 30
0.0
 11
66.1570124626158
 21
70.6936283111572
 31
0.0
  0
LINE
  5
    A5
  8
0
  6
CONTINUOUS
 62
     3
 10
66.1570124626158
 20
70.6936283111572
 30
0.0
 11
69.0547899358264
 21
69.9171711547387
 31
0.0
  0
LINE
  5
    A6
  8
0
  6
CONTINUOUS
 62
     3
 10
124.509212578059
 20
69.9171711547387
 30
0.0
 11
127.40699005127
 21
70.6936283111572
 31
0.0
  0
LINE
  5
    A7
  8
0
  6
CONTINUOUS
 62
     3
 10
127.40699005127
 20
70.6936283111572
 30
0.0
 11
124.509212578059
 21
71.4700854675758
 31
0.0
  0
ENDBLK
  5
    A8
  8
0
  6
CONTINUOUS
 62
     7
  0
BLOCK
  5
    A9
  8
0
  6
CONTINUOUS
 62
     7
  2
*UDIM270
 70
    65
 10
0.0
 20
0.0
 30
0.0
  3
*UDIM270
  0
TEXT
  5
    AA
  8
0
  6
CONTINUOUS
 62
     7
 10
131.670177039504
 20
49.8362331390381
 30
0.0
 40
3.00000002980232
  1
1.5
 41
0.933333333333333
 72
     1
 11
135.570177078247
 21
51.3362331539393
 31
0.0
 73
     2
  0
TEXT
  5
    AB
  8
0
  6
CONTINUOUS
 62
     7
 10
140.47017711699
 20
49.8362331390381
 30
0.0
 40
3.00000002980232
  1
-2
 41
0.933333333333333
 72
     1
 11
142.970177141825
 21
51.3362331539393
 31
0.0
 73
     2
  0
LINE
  5
    AC
  8
0
  6
CONTINUOUS
 62
     7
 10
122.40699005127
 20
48.8362331390381
 30
0.0
 11
145.470177166661
 21
48.8362331390381
 31
0.0
  0
LINE
  5
    AD
  8
0
  6
CONTINUOUS
 62
     3
 10
124.509212578059
 20
48.0597759826195
 30
0.0
 11
127.40699005127
 21
48.8362331390381
 31
0.0
  0
LINE
  5
    AE
  8
0
  6
CONTINUOUS
 62
     3
 10
127.40699005127
 20
48.8362331390381
 30
0.0
 11
124.509212578059
 21
49.6126902954566
 31
0.0
  0
LINE
  5
    AF
  8
0
  6
CONTINUOUS
 62
     3
 10
131.05476752448
 20
49.6126902954566
 30
0.0
 11
128.15699005127
 21
48.8362331390381
 31
0.0
  0
LINE
  5
    B0
  8
0
  6
CONTINUOUS
 62
     3
 10
128.15699005127
 20
48.8362331390381
 30
0.0
 11
131.05476752448
 21
48.0597759826195
 31
0.0
  0
ENDBLK
  5
    B1
  8
0
  6
CONTINUOUS
 62
     7
  0
BLOCK
  5
    B2
  8
0
  6
CONTINUOUS
 62
     3
  2
*UDIM271
 70
    65
 10
0.0
 20
0.0
 30
0.0
  3
*UDIM271
  0
TEXT
  5
    B3
  8
0
  6
CONTINUOUS
 62
     3
 10
-21.2754565054262
 20
-60.2653045654423
 30
0.0
 40
3.00000002980232
  1
50
 50
360.0
 41
0.933333333333333
 72
     1
 11
-18.7754564805985
 21
-58.7653045505285
 31
0.0
 73
     2
  0
LINE
  5
    B4
  8
0
  6
CONTINUOUS
 62
     3
 10
-31.0004577636719
 20
-119.106002807617
 30
0.0
 11
-31.0004389786906
 21
-59.2653045654298
 31
0.0
  0
LINE
  5
    B5
  8
0
  6
CONTINUOUS
 62
     3
 10
-6.00045776367188
 20
-119.106002807617
 30
0.0
 11
-6.0004389786905
 21
-59.2653045654298
 31
0.0
  0
LINE
  5
    B6
  8
0
  6
CONTINUOUS
 62
     3
 10
-31.0004396065236
 20
-61.2653045654297
 30
0.0
 11
-6.00043960652346
 21
-61.2653045654297
 31
0.0
  0
LINE
  5
    B7
  8
0
  6
CONTINUOUS
 62
     3
 10
-28.0460163293166
 20
-60.744360135478
 30
0.0
 11
-31.0004396065236
 21
-61.2653045654297
 31
0.0
  0
LINE
  5
    B8
  8
0
  6
CONTINUOUS
 62
     3
 10
-31.0004396065236
 20
-61.2653045654297
 30
0.0
 11
-28.0460163293166
 21
-61.7862489953814
 31
0.0
  0
LINE
  5
    B9
  8
0
  6
CONTINUOUS
 62
     3
 10
-8.95486288373043
 20
-61.7862489953814
 30
0.0
 11
-6.00043960652346
 21
-61.2653045654297
 31
0.0
  0
LINE
  5
    BA
  8
0
  6
CONTINUOUS
 62
     3
 10
-6.00043960652346
 20
-61.2653045654297
 30
0.0
 11
-8.95486288373043
 21
-60.744360135478
 31
0.0
  0
ENDBLK
  5
    BB
  8
0
  6
CONTINUOUS
 62
     3
  0
BLOCK
  5
    BC
  8
0
  6
CONTINUOUS
 62
     3
  2
*UDIM272
 70
    65
 10
0.0
 20
0.0
 30
0.0
  3
*UDIM272
  0
TEXT
  5
    BD
  8
0
  6
CONTINUOUS
 62
     3
 10
-21.2754560103781
 20
-67.1346511840946
 30
0.0
 40
3.00000002980232
  1
25
 50
360.0
 41
0.933333333333333
 72
     1
 11
-18.7754559855504
 21
-65.6346511691809
 31
0.0
 73
     2
  0
LINE
  5
    BE
  8
0
  6
CONTINUOUS
 62
     3
 10
-24.7504577636719
 20
-91.8560028076172
 30
0.0
 11
-24.7504496893157
 21
-66.1346511840821
 31
0.0
  0
LINE
  5
    BF
  8
0
  6
CONTINUOUS
 62
     3
 10
-12.2504577636719
 20
-91.8560028076172
 30
0.0
 11
-12.2504496893157
 21
-66.1346511840821
 31
0.0
  0
LINE
  5
    C0
  8
0
  6
CONTINUOUS
 62
     3
 10
-24.7504503171487
 20
-68.134651184082
 30
0.0
 11
-12.2504503171487
 21
-68.134651184082
 31
0.0
  0
LINE
  5
    C1
  8
0
  6
CONTINUOUS
 62
     3
 10
-21.7960270399417
 20
-67.6137067541304
 30
0.0
 11
-24.7504503171487
 21
-68.134651184082
 31
0.0
  0
LINE
  5
    C2
  8
0
  6
CONTINUOUS
 62
     3
 10
-24.7504503171487
 20
-68.134651184082
 30
0.0
 11
-21.7960270399417
 21
-68.6555956140337
 31
0.0
  0
LINE
  5
    C3
  8
0
  6
CONTINUOUS
 62
     3
 10
-15.2048735943556
 20
-68.6555956140337
 30
0.0
 11
-12.2504503171487
 21
-68.134651184082
 31
0.0
  0
LINE
  5
    C4
  8
0
  6
CONTINUOUS
 62
     3
 10
-12.2504503171487
 20
-68.134651184082
 30
0.0
 11
-15.2048735943556
 21
-67.6137067541304
 31
0.0
  0
ENDBLK
  5
    C5
  8
0
  6
CONTINUOUS
 62
     3
  0
BLOCK
  5
    C6
  8
0
  6
CONTINUOUS
 62
     3
  2
*UDIM273
 70
    65
 10
0.0
 20
0.0
 30
0.0
  3
*UDIM273
  0
TEXT
  5
    C7
  8
0
  6
CONTINUOUS
 62
     3
 10
-70.1468124389617
 20
-120.63100179533
 30
0.0
 40
3.00000002980232
  1
84
 50
90.0
 41
0.933333333333333
 72
     1
 11
-71.646812453866
 21
-118.131001770496
 31
0.0
 73
     2
  0
LINE
  5
    C8
  8
0
  6
CONTINUOUS
 62
     3
 10
-17.2504577636719
 20
-96.8560028076172
 30
0.0
 11
-71.1468124389648
 21
-96.8560028076172
 31
0.0
  0
LINE
  5
    C9
  8
0
  6
CONTINUOUS
 62
     3
 10
-52.2873635140382
 20
-138.856002807617
 30
0.0
 11
-71.1468124389648
 21
-138.856002807617
 31
0.0
  0
LINE
  5
    CA
  8
0
  6
CONTINUOUS
 62
     3
 10
-69.1468124389649
 20
-96.8560028076172
 30
0.0
 11
-69.1468124389649
 21
-138.856002807617
 31
0.0
  0
LINE
  5
    CB
  8
0
  6
CONTINUOUS
 62
     3
 10
-68.6258680090132
 20
-99.8104260848242
 30
0.0
 11
-69.1468124389649
 21
-96.8560028076172
 31
0.0
  0
LINE
  5
    CC
  8
0
  6
CONTINUOUS
 62
     3
 10
-69.1468124389649
 20
-96.8560028076172
 30
0.0
 11
-69.6677568689165
 21
-99.8104260848242
 31
0.0
  0
LINE
  5
    CD
  8
0
  6
CONTINUOUS
 62
     3
 10
-69.6677568689165
 20
-135.90157953041
 30
0.0
 11
-69.1468124389649
 21
-138.856002807617
 31
0.0
  0
LINE
  5
    CE
  8
0
  6
CONTINUOUS
 62
     3
 10
-69.1468124389649
 20
-138.856002807617
 30
0.0
 11
-68.6258680090132
 21
-135.90157953041
 31
0.0
  0
ENDBLK
  5
    CF
  8
0
  6
CONTINUOUS
 62
     3
  0
BLOCK
  5
    D0
  8
0
  6
CONTINUOUS
 62
     3
  2
*UDIM274
 70
    65
 10
0.0
 20
0.0
 30
0.0
  3
*UDIM274
  0
TEXT
  5
    D1
  8
0
  6
CONTINUOUS
 62
     3
 10
-84.356960296626
 20
-137.031004193423
 30
0.0
 40
3.00000002980232
  1
144
 50
90.0
 41
0.933333333333333
 72
     1
 11
-85.856960311532
 21
-133.131004154682
 31
0.0
 73
     2
  0
LINE
  5
    D2
  8
0
  6
CONTINUOUS
 62
     3
 10
-17.2504577636719
 20
-96.8560028076172
 30
0.0
 11
-85.3569602966309
 21
-96.8560028076172
 31
0.0
  0
LINE
  5
    D3
  8
0
  6
CONTINUOUS
 62
     3
 10
-16.0004577636719
 20
-168.856002807617
 30
0.0
 11
-85.3569602966309
 21
-168.856002807617
 31
0.0
  0
LINE
  5
    D4
  8
0
  6
CONTINUOUS
 62
     3
 10
-83.3569602966309
 20
-96.8560028076172
 30
0.0
 11
-83.3569602966309
 21
-168.856002807617
 31
0.0
  0
LINE
  5
    D5
  8
0
  6
CONTINUOUS
 62
     3
 10
-82.8360158666792
 20
-99.8104260848242
 30
0.0
 11
-83.3569602966309
 21
-96.8560028076172
 31
0.0
  0
LINE
  5
    D6
  8
0
  6
CONTINUOUS
 62
     3
 10
-83.3569602966309
 20
-96.8560028076172
 30
0.0
 11
-83.8779047265825
 21
-99.8104260848242
 31
0.0
  0
LINE
  5
    D7
  8
0
  6
CONTINUOUS
 62
     3
 10
-83.8779047265825
 20
-165.90157953041
 30
0.0
 11
-83.3569602966309
 21
-168.856002807617
 31
0.0
  0
LINE
  5
    D8
  8
0
  6
CONTINUOUS
 62
     3
 10
-83.3569602966309
 20
-168.856002807617
 30
0.0
 11
-82.8360158666792
 21
-165.90157953041
 31
0.0
  0
ENDBLK
  5
    D9
  8
0
  6
CONTINUOUS
 62
     3
  0
BLOCK
  5
    DA
  8
0
  6
CONTINUOUS
 62
     3
  2
*UDIM275
 70
    65
 10
0.0
 20
0.0
 30
0.0
  3
*UDIM275
  0
TEXT
  5
    DB
  8
0
  6
CONTINUOUS
 62
     3
 10
-11.4153881072949
 20
-135.906004372237
 30
0.0
 40
3.00000002980232
  1
5,5
 50
90.0
 41
0.933333333333333
 72
     1
 11
-12.915388122201
 21
-132.006004333496
 31
0.0
 73
     2
  0
LINE
  5
    DC
  8
0
  6
CONTINUOUS
 62
     3
 10
-8.50045776367188
 20
-141.606002807617
 30
0.0
 11
-12.4153881072998
 21
-141.606002807617
 31
0.0
  0
LINE
  5
    DD
  8
0
  6
CONTINUOUS
 62
     3
 10
-10.4153881072998
 20
-128.106004294753
 30
0.0
 11
-10.4153881072998
 21
-141.606002807617
 31
0.0
  0
LINE
  5
    DE
  8
0
  6
CONTINUOUS
 62
     3
 10
-10.9363325372515
 20
-135.90157953041
 30
0.0
 11
-10.4153881072998
 21
-138.856002807617
 31
0.0
  0
LINE
  5
    DF
  8
0
  6
CONTINUOUS
 62
     3
 10
-10.4153881072998
 20
-138.856002807617
 30
0.0
 11
-9.89444367734814
 21
-135.90157953041
 31
0.0
  0
LINE
  5
    E0
  8
0
  6
CONTINUOUS
 62
     3
 10
-9.89444367734814
 20
-144.560426084824
 30
0.0
 11
-10.4153881072998
 21
-141.606002807617
 31
0.0
  0
LINE
  5
    E1
  8
0
  6
CONTINUOUS
 62
     3
 10
-10.4153881072998
 20
-141.606002807617
 30
0.0
 11
-10.9363325372515
 21
-144.560426084824
 31
0.0
  0
ENDBLK
  5
    E2
  8
0
  6
CONTINUOUS
 62
     3
  0
BLOCK
  5
    E3
  8
0
  6
CONTINUOUS
 62
     3
  2
*UDIM276
 70
    65
 10
0.0
 20
0.0
 30
0.0
  3
*UDIM276
  0
TEXT
  5
    E4
  8
0
  6
CONTINUOUS
 62
     3
 10
29.3479194641145
 20
-135.631002749004
 30
0.0
 40
3.00000002980232
  1
35
 50
90.0
 41
0.933333333333333
 72
     1
 11
27.8479194492102
 21
-133.131002724171
 31
0.0
 73
     2
  0
LINE
  5
    E5
  8
0
  6
CONTINUOUS
 62
     3
 10
-1.00045776367188
 20
-124.106002807617
 30
0.0
 11
32.3479194641113
 21
-124.106002807617
 31
0.0
  0
LINE
  5
    E6
  8
0
  6
CONTINUOUS
 62
     3
 10
1.49954223632813
 20
-141.606002807617
 30
0.0
 11
32.3479194641113
 21
-141.606002807617
 31
0.0
  0
LINE
  5
    E7
  8
0
  6
CONTINUOUS
 62
     3
 10
30.3479194641113
 20
-124.106002807617
 30
0.0
 11
30.3479194641113
 21
-141.606002807617
 31
0.0
  0
LINE
  5
    E8
  8
0
  6
CONTINUOUS
 62
     3
 10
30.868863894063
 20
-127.060426084824
 30
0.0
 11
30.3479194641113
 21
-124.106002807617
 31
0.0
  0
LINE
  5
    E9
  8
0
  6
CONTINUOUS
 62
     3
 10
30.3479194641113
 20
-124.106002807617
 30
0.0
 11
29.8269750341597
 21
-127.060426084824
 31
0.0
  0
LINE
  5
    EA
  8
0
  6
CONTINUOUS
 62
     3
 10
29.8269750341597
 20
-138.65157953041
 30
0.0
 11
30.3479194641113
 21
-141.606002807617
 31
0.0
  0
LINE
  5
    EB
  8
0
  6
CONTINUOUS
 62
     3
 10
30.3479194641113
 20
-141.606002807617
 30
0.0
 11
30.868863894063
 21
-138.65157953041
 31
0.0
  0
ENDBLK
  5
    EC
  8
0
  6
CONTINUOUS
 62
     3
  0
BLOCK
  5
    ED
  8
0
  6
CONTINUOUS
 62
     7
  2
*UDIM277
 70
    65
 10
0.0
 20
0.0
 30
0.0
  3
*UDIM277
  0
TEXT
  5
    EE
  8
0
  6
CONTINUOUS
 62
     7
 10
13.2421826599354
 20
-75.8477913245939
 30
0.0
 40
3.00000002980232
  1
4.5
 50
37.756834874074
 41
0.933333333333333
 72
     1
 11
15.4071197753115
 21
-72.2738512532768
 31
0.0
 73
     2
  0
TEXT
  5
    EF
  8
0
  6
CONTINUOUS
 62
     7
 10
10.0797164920846
 20
-78.2970377343326
 30
0.0
 40
3.00000002980232
  1
Ø
 50
37.756834874074
 41
1.2
 72
     1
 11
10.3471739020391
 21
-76.19264551251
 31
0.0
 73
     2
  0
TEXT
  5
    F0
  8
0
  6
CONTINUOUS
 62
     7
 10
0.908564590398102
 20
-85.3998523341365
 30
0.0
 40
3.00000002980232
  1
M4 o
 50
37.756834874074
 41
0.933333333333333
 72
     1
 11
4.18036486727023
 21
-80.968676017281
 31
0.0
 73
     2
  0
LINE
  5
    F1
  8
0
  6
CONTINUOUS
 62
     7
 10
-12.2504577636718
 20
-96.8560028076171
 30
0.0
 11
20.0213033004292
 21
-71.8623773498109
 31
0.0
  0
LINE
  5
    F2
  8
0
  6
CONTINUOUS
 62
     3
 10
-9.64424416154923
 20
-93.8554685874269
 30
0.0
 11
-11.4598412275998
 21
-96.2436912097443
 31
0.0
  0
LINE
  5
    F3
  8
0
  6
CONTINUOUS
 62
     3
 10
-11.4598412275998
 20
-96.2436912097443
 30
0.0
 11
-8.69337671729634
 21
-95.0832283222587
 31
0.0
  0
ENDBLK
  5
    F4
  8
0
  6
CONTINUOUS
 62
     7
  0
BLOCK
  5
    F5
  8
0
  6
CONTINUOUS
 62
     7
  2
*UDIM278
 70
    65
 10
0.0
 20
0.0
 30
0.0
  3
*UDIM278
  0
TEXT
  5
    F6
  8
0
  6
CONTINUOUS
 62
     7
 10
39.1422805786164
 20
-141.124479795494
 30
0.0
 40
3.00000002980232
  1
60
 50
90.0
 41
0.933333333333333
 72
     1
 11
37.6422805637121
 21
-138.62447977066
 31
0.0
 73
     2
  0
TEXT
  5
    F7
  8
0
  6
CONTINUOUS
 62
     7
 10
39.1422805786199
 20
-135.124479745823
 30
0.0
 40
3.00000002980232
  1
 MAX
 50
90.0
 41
0.933333333333333
 72
     1
 11
37.6422805637121
 21
-129.824479693174
 31
0.0
 73
     2
  0
LINE
  5
    F8
  8
0
  6
CONTINUOUS
 62
     7
 10
11.1192187081292
 20
-117.856002807617
 30
0.0
 11
42.1422805786133
 21
-117.856002807617
 31
0.0
  0
LINE
  5
    F9
  8
0
  6
CONTINUOUS
 62
     7
 10
11.1192187081292
 20
-147.856002807617
 30
0.0
 11
42.1422805786133
 21
-147.856002807617
 31
0.0
  0
LINE
  5
    FA
  8
0
  6
CONTINUOUS
 62
     7
 10
40.1422805786133
 20
-117.856002807617
 30
0.0
 11
40.1422805786133
 21
-147.856002807617
 31
0.0
  0
LINE
  5
    FB
  8
0
  6
CONTINUOUS
 62
     3
 10
40.9187377350318
 20
-120.753780280828
 30
0.0
 11
40.1422805786133
 21
-117.856002807617
 31
0.0
  0
LINE
  5
    FC
  8
0
  6
CONTINUOUS
 62
     3
 10
40.1422805786133
 20
-117.856002807617
 30
0.0
 11
39.3658234221947
 21
-120.753780280828
 31
0.0
  0
LINE
  5
    FD
  8
0
  6
CONTINUOUS
 62
     3
 10
39.3658234221947
 20
-144.958225334407
 30
0.0
 11
40.1422805786133
 21
-147.856002807617
 31
0.0
  0
LINE
  5
    FE
  8
0
  6
CONTINUOUS
 62
     3
 10
40.1422805786133
 20
-147.856002807617
 30
0.0
 11
40.9187377350318
 21
-144.958225334407
 31
0.0
  0
ENDBLK
  5
    FF
  8
0
  6
CONTINUOUS
 62
     7
  0
BLOCK
  5
   100
  8
0
  6
CONTINUOUS
 62
     7
  2
*UDIM279
 70
    65
 10
0.0
 20
0.0
 30
0.0
  3
*UDIM279
  0
TEXT
  5
   101
  8
0
  6
CONTINUOUS
 62
     7
 10
55.3273735001195
 20
-94.7862685598229
 30
0.0
 40
3.00000002980232
  1
25
 50
449.999999896069
 41
0.933333333333333
 72
     1
 11
53.8273734897375
 21
-92.2862685322762
 31
0.0
 73
     2
  0
LINE
  5
   102
  8
0
  6
CONTINUOUS
 62
     3
 10
63.8292120963979
 20
-85.7612686157227
 30
0.0
 11
54.3273735046387
 21
-85.7612686157227
 31
0.0
  0
LINE
  5
   103
  8
0
  6
CONTINUOUS
 62
     3
 10
60.7725424452419
 20
-98.2612686157227
 30
0.0
 11
54.3273735046387
 21
-98.2612686157227
 31
0.0
  0
LINE
  5
   104
  8
0
  6
CONTINUOUS
 62
     3
 10
56.3273735046387
 20
-85.7612686157227
 30
0.0
 11
56.3273735046387
 21
-98.2612686157227
 31
0.0
  0
LINE
  5
   105
  8
0
  6
CONTINUOUS
 62
     3
 10
56.8483179345903
 20
-88.7156918929296
 30
0.0
 11
56.3273735046387
 21
-85.7612686157227
 31
0.0
  0
LINE
  5
   106
  8
0
  6
CONTINUOUS
 62
     3
 10
56.3273735046387
 20
-85.7612686157227
 30
0.0
 11
55.806429074687
 21
-88.7156918929296
 31
0.0
  0
LINE
  5
   107
  8
0
  6
CONTINUOUS
 62
     3
 10
55.806429074687
 20
-95.3068453385157
 30
0.0
 11
56.3273735046387
 21
-98.2612686157227
 31
0.0
  0
LINE
  5
   108
  8
0
  6
CONTINUOUS
 62
     3
 10
56.3273735046387
 20
-98.2612686157227
 30
0.0
 11
56.8483179345903
 21
-95.3068453385157
 31
0.0
  0
ENDBLK
  5
   109
  8
0
  6
CONTINUOUS
 62
     7
  0
BLOCK
  5
   10A
  8
0
  6
CONTINUOUS
 62
     7
  2
*UDIM280
 70
    65
 10
0.0
 20
0.0
 30
0.0
  3
*UDIM280
  0
TEXT
  5
   10B
  8
0
  6
CONTINUOUS
 62
     7
 10
55.3273735001195
 20
-107.286267606149
 30
0.0
 40
3.00000002980232
  1
25
 50
449.999999896069
 41
0.933333333333333
 72
     1
 11
53.8273734897375
 21
-104.786267578602
 31
0.0
 73
     2
  0
LINE
  5
   10C
  8
0
  6
CONTINUOUS
 62
     3
 10
63.8292120963979
 20
-110.761268615723
 30
0.0
 11
54.3273735046387
 21
-110.761268615723
 31
0.0
  0
LINE
  5
   10D
  8
0
  6
CONTINUOUS
 62
     3
 10
56.3273735046387
 20
-98.2612686157227
 30
0.0
 11
56.3273735046387
 21
-110.761268615723
 31
0.0
  0
LINE
  5
   10E
  8
0
  6
CONTINUOUS
 62
     3
 10
56.8483179345903
 20
-101.21569189293
 30
0.0
 11
56.3273735046387
 21
-98.2612686157227
 31
0.0
  0
LINE
  5
   10F
  8
0
  6
CONTINUOUS
 62
     3
 10
56.3273735046387
 20
-98.2612686157227
 30
0.0
 11
55.806429074687
 21
-101.21569189293
 31
0.0
  0
LINE
  5
   110
  8
0
  6
CONTINUOUS
 62
     3
 10
55.806429074687
 20
-107.806845338516
 30
0.0
 11
56.3273735046387
 21
-110.761268615723
 31
0.0
  0
LINE
  5
   111
  8
0
  6
CONTINUOUS
 62
     3
 10
56.3273735046387
 20
-110.761268615723
 30
0.0
 11
56.8483179345903
 21
-107.806845338516
 31
0.0
  0
ENDBLK
  5
   112
  8
0
  6
CONTINUOUS
 62
     7
  0
BLOCK
  5
   113
  8
0
  6
CONTINUOUS
 62
     3
  2
*UDIM281
 70
    65
 10
0.0
 20
0.0
 30
0.0
  3
*UDIM281
  0
TEXT
  5
   114
  8
0
  6
CONTINUOUS
 62
     3
 10
-9.41791411021396
 20
59.5337500797708
 30
0.0
 40
3.00000002980232
  1
78
 50
360.0
 41
0.933333333333333
 72
     1
 11
-6.91791408538623
 21
61.0337500946846
 31
0.0
 73
     2
  0
LINE
  5
   115
  8
0
  6
CONTINUOUS
 62
     3
 10
-26.4179037781586
 20
48.4360218048096
 30
0.0
 11
-26.4179046098452
 21
60.5337500797834
 31
0.0
  0
LINE
  5
   116
  8
0
  6
CONTINUOUS
 62
     3
 10
12.5820802584689
 20
48.4360218048095
 30
0.0
 11
12.5820755178591
 21
60.5337500797832
 31
0.0
  0
LINE
  5
   117
  8
0
  6
CONTINUOUS
 62
     3
 10
-26.4179044723506
 20
58.5337500797834
 30
0.0
 11
12.5820763015781
 21
58.5337500797834
 31
0.0
  0
LINE
  5
   118
  8
0
  6
CONTINUOUS
 62
     3
 10
-23.52012699914
 20
59.310207236202
 30
0.0
 11
-26.4179044723506
 21
58.5337500797834
 31
0.0
  0
LINE
  5
   119
  8
0
  6
CONTINUOUS
 62
     3
 10
-26.4179044723506
 20
58.5337500797834
 30
0.0
 11
-23.52012699914
 21
57.7572929233649
 31
0.0
  0
LINE
  5
   11A
  8
0
  6
CONTINUOUS
 62
     3
 10
9.68429882836756
 20
57.7572929233649
 30
0.0
 11
12.5820763015781
 21
58.5337500797834
 31
0.0
  0
LINE
  5
   11B
  8
0
  6
CONTINUOUS
 62
     3
 10
12.5820763015781
 20
58.5337500797834
 30
0.0
 11
9.68429882836756
 21
59.310207236202
 31
0.0
  0
ENDBLK
  5
   11C
  8
0
  6
CONTINUOUS
 62
     3
  0
BLOCK
  5
   11D
  8
0
  6
CONTINUOUS
 62
     3
  2
*UDIM282
 70
    65
 10
0.0
 20
0.0
 30
0.0
  3
*UDIM282
  0
TEXT
  5
   11E
  8
0
  6
CONTINUOUS
 62
     3
 10
-9.41796448329328
 20
67.1785266659928
 30
0.0
 40
3.00000002980232
  1
91
 50
360.0
 41
0.933333333333333
 72
     1
 11
-6.91796445846555
 21
68.6785266809065
 31
0.0
 73
     2
  0
LINE
  5
   11F
  8
0
  6
CONTINUOUS
 62
     3
 10
-29.6679644584655
 20
24.3110580444336
 30
0.0
 11
-29.6679644584655
 21
68.1785266660054
 31
0.0
  0
LINE
  5
   120
  8
0
  6
CONTINUOUS
 62
     3
 10
15.8320355415345
 20
24.3110580444336
 30
0.0
 11
15.8320355415345
 21
68.1785266660054
 31
0.0
  0
LINE
  5
   121
  8
0
  6
CONTINUOUS
 62
     3
 10
-29.6679644584655
 20
66.1785266660054
 30
0.0
 11
15.8320355415345
 21
66.1785266660054
 31
0.0
  0
LINE
  5
   122
  8
0
  6
CONTINUOUS
 62
     3
 10
-26.770186985255
 20
66.9549838224239
 30
0.0
 11
-29.6679644584655
 21
66.1785266660054
 31
0.0
  0
LINE
  5
   123
  8
0
  6
CONTINUOUS
 62
     3
 10
-29.6679644584655
 20
66.1785266660054
 30
0.0
 11
-26.770186985255
 21
65.4020695095868
 31
0.0
  0
LINE
  5
   124
  8
0
  6
CONTINUOUS
 62
     3
 10
12.9342580683239
 20
65.4020695095868
 30
0.0
 11
15.8320355415345
 21
66.1785266660054
 31
0.0
  0
LINE
  5
   125
  8
0
  6
CONTINUOUS
 62
     3
 10
15.8320355415345
 20
66.1785266660054
 30
0.0
 11
12.9342580683239
 21
66.9549838224239
 31
0.0
  0
ENDBLK
  5
   126
  8
0
  6
CONTINUOUS
 62
     3
  0
BLOCK
  5
   127
  8
0
  6
CONTINUOUS
 62
     3
  2
*UDIM283
 70
    65
 10
0.0
 20
0.0
 30
0.0
  3
*UDIM283
  0
TEXT
  5
   128
  8
0
  6
CONTINUOUS
 62
     3
 10
-47.433524667694
 20
-2.56394198039979
 30
0.0
 40
3.00000002980232
  1
96
 50
90.0
 41
0.933333333333333
 72
     1
 11
-48.9335246825983
 21
-6.39419555664063E-2
 31
0.0
 73
     2
  0
LINE
  5
   129
  8
0
  6
CONTINUOUS
 62
     3
 10
-30.0429644584655
 20
23.9360580444336
 30
0.0
 11
-48.4335246676971
 21
23.9360580444336
 31
0.0
  0
LINE
  5
   12A
  8
0
  6
CONTINUOUS
 62
     3
 10
-30.0429644584655
 20
-24.0639419555664
 30
0.0
 11
-48.4335246676971
 21
-24.0639419555664
 31
0.0
  0
LINE
  5
   12B
  8
0
  6
CONTINUOUS
 62
     3
 10
-46.4335246676971
 20
23.9360580444336
 30
0.0
 11
-46.4335246676971
 21
-24.0639419555664
 31
0.0
  0
LINE
  5
   12C
  8
0
  6
CONTINUOUS
 62
     3
 10
-45.6570675112786
 20
21.0382805712231
 30
0.0
 11
-46.4335246676971
 21
23.9360580444336
 31
0.0
  0
LINE
  5
   12D
  8
0
  6
CONTINUOUS
 62
     3
 10
-46.4335246676971
 20
23.9360580444336
 30
0.0
 11
-47.2099818241157
 21
21.0382805712231
 31
0.0
  0
LINE
  5
   12E
  8
0
  6
CONTINUOUS
 62
     3
 10
-47.2099818241157
 20
-21.1661644823559
 30
0.0
 11
-46.4335246676971
 21
-24.0639419555664
 31
0.0
  0
LINE
  5
   12F
  8
0
  6
CONTINUOUS
 62
     3
 10
-46.4335246676971
 20
-24.0639419555664
 30
0.0
 11
-45.6570675112786
 21
-21.1661644823559
 31
0.0
  0
ENDBLK
  5
   130
  8
0
  6
CONTINUOUS
 62
     3
  0
BLOCK
  5
   131
  8
0
  6
CONTINUOUS
 62
     7
  2
*UDIM284
 70
    65
 10
0.0
 20
0.0
 30
0.0
  3
*UDIM284
  0
TEXT
  5
   132
  8
0
  6
CONTINUOUS
 62
     7
 10
22.0445293188109
 20
4.46102322439289
 30
0.0
 40
3.00000002980232
  1
=
 50
90.0
 41
0.933333333333334
 72
     1
 11
20.5445293039083
 21
5.56102323531852
 31
0.0
 73
     2
  0
LINE
  5
   133
  8
0
  6
CONTINUOUS
 62
     3
 10
13.5820751190187
 20
11.1860232353185
 30
0.0
 11
25.0445293188095
 21
11.1860232353185
 31
0.0
  0
LINE
  5
   134
  8
0
  6
CONTINUOUS
 62
     3
 10
20.5807635050659
 20
-6.39767646814775E-2
 30
0.0
 11
25.0445293188095
 21
-6.39767646814775E-2
 31
0.0
  0
LINE
  5
   135
  8
0
  6
CONTINUOUS
 62
     3
 10
23.0445293188095
 20
11.1860232353185
 30
0.0
 11
23.0445293188095
 21
-6.39767646814775E-2
 31
0.0
  0
LINE
  5
   136
  8
0
  6
CONTINUOUS
 62
     3
 10
23.5654737487612
 20
8.23159995811156
 30
0.0
 11
23.0445293188095
 21
11.1860232353185
 31
0.0
  0
LINE
  5
   137
  8
0
  6
CONTINUOUS
 62
     3
 10
23.0445293188095
 20
11.1860232353185
 30
0.0
 11
22.5235848888578
 21
8.23159995811156
 31
0.0
  0
LINE
  5
   138
  8
0
  6
CONTINUOUS
 62
     3
 10
22.5235848888578
 20
2.89044651252549
 30
0.0
 11
23.0445293188095
 21
-6.39767646814775E-2
 31
0.0
  0
LINE
  5
   139
  8
0
  6
CONTINUOUS
 62
     3
 10
23.0445293188095
 20
-6.39767646814775E-2
 30
0.0
 11
23.5654737487612
 21
2.89044651252549
 31
0.0
  0
ENDBLK
  5
   13A
  8
0
  6
CONTINUOUS
 62
     7
  0
BLOCK
  5
   13B
  8
0
  6
CONTINUOUS
 62
     7
  2
*UDIM285
 70
    65
 10
0.0
 20
0.0
 30
0.0
  3
*UDIM285
  0
TEXT
  5
   13C
  8
0
  6
CONTINUOUS
 62
     7
 10
22.0445293188109
 20
-6.78897677560414
 30
0.0
 40
3.00000002980232
  1
=
 50
90.0
 41
0.933333333333334
 72
     1
 11
20.5445293039083
 21
-5.68897676467851
 31
0.0
 73
     2
  0
LINE
  5
   13D
  8
0
  6
CONTINUOUS
 62
     3
 10
13.5820716857919
 20
-11.3139767646755
 30
0.0
 11
25.0445293188095
 21
-11.3139767646755
 31
0.0
  0
LINE
  5
   13E
  8
0
  6
CONTINUOUS
 62
     3
 10
23.0445293188095
 20
-6.39767646814775E-2
 30
0.0
 11
23.0445293188095
 21
-11.3139767646755
 31
0.0
  0
LINE
  5
   13F
  8
0
  6
CONTINUOUS
 62
     3
 10
23.5654737487612
 20
-3.01840004188844
 30
0.0
 11
23.0445293188095
 21
-6.39767646814775E-2
 31
0.0
  0
LINE
  5
   140
  8
0
  6
CONTINUOUS
 62
     3
 10
23.0445293188095
 20
-6.39767646814775E-2
 30
0.0
 11
22.5235848888578
 21
-3.01840004188844
 31
0.0
  0
LINE
  5
   141
  8
0
  6
CONTINUOUS
 62
     3
 10
22.5235848888578
 20
-8.35955348746857
 30
0.0
 11
23.0445293188095
 21
-11.3139767646755
 31
0.0
  0
LINE
  5
   142
  8
0
  6
CONTINUOUS
 62
     3
 10
23.0445293188095
 20
-11.3139767646755
 30
0.0
 11
23.5654737487612
 21
-8.35955348746857
 31
0.0
  0
ENDBLK
  5
   143
  8
0
  6
CONTINUOUS
 62
     7
  0
BLOCK
  5
   144
  8
0
  6
CONTINUOUS
 62
     7
  2
*UDIM286
 70
    65
 10
0.0
 20
0.0
 30
0.0
  3
*UDIM286
  0
TEXT
  5
   145
  8
0
  6
CONTINUOUS
 62
     7
 10
30.0184268951447
 20
-19.8139775047693
 30
0.0
 40
3.00000002980232
  1
70
 50
90.0
 41
0.933333333333333
 72
     1
 11
28.5184268802404
 21
-17.313977479936
 31
0.0
 73
     2
  0
LINE
  5
   146
  8
0
  6
CONTINUOUS
 62
     7
 10
20.5807635050659
 20
-6.39767646814775E-2
 30
0.0
 11
33.0184268951416
 21
-6.39767646814775E-2
 31
0.0
  0
LINE
  5
   147
  8
0
  6
CONTINUOUS
 62
     7
 10
13.5820681381239
 20
-34.5639781951904
 30
0.0
 11
33.0184268951416
 21
-34.5639781951904
 31
0.0
  0
LINE
  5
   148
  8
0
  6
CONTINUOUS
 62
     7
 10
31.0184268951416
 20
-6.39767646814775E-2
 30
0.0
 11
31.0184268951416
 21
-34.5639781951904
 31
0.0
  0
LINE
  5
   149
  8
0
  6
CONTINUOUS
 62
     3
 10
31.7948840515601
 20
-2.96175423789201
 30
0.0
 11
31.0184268951416
 21
-6.39767646814775E-2
 31
0.0
  0
LINE
  5
   14A
  8
0
  6
CONTINUOUS
 62
     3
 10
31.0184268951416
 20
-6.39767646814775E-2
 30
0.0
 11
30.2419697387231
 21
-2.96175423789201
 31
0.0
  0
LINE
  5
   14B
  8
0
  6
CONTINUOUS
 62
     3
 10
30.2419697387231
 20
-31.6662007219799
 30
0.0
 11
31.0184268951416
 21
-34.5639781951904
 31
0.0
  0
LINE
  5
   14C
  8
0
  6
CONTINUOUS
 62
     3
 10
31.0184268951416
 20
-34.5639781951904
 30
0.0
 11
31.7948840515601
 21
-31.6662007219799
 31
0.0
  0
ENDBLK
  5
   14D
  8
0
  6
CONTINUOUS
 62
     7
  0
BLOCK
  5
   14E
  8
0
  6
CONTINUOUS
 62
     7
  2
*UDIM287
 70
    65
 10
0.0
 20
0.0
 30
0.0
  3
*UDIM287
  0
TEXT
  5
   14F
  8
0
  6
CONTINUOUS
 62
     7
 10
-55.84598922729
 20
2.53602176606843
 30
0.0
 40
3.00000002980232
  1
163
 50
90.0
 41
0.933333333333333
 72
     1
 11
-57.3459892421961
 21
6.43602180480956
 31
0.0
 73
     2
  0
LINE
  5
   150
  8
0
  6
CONTINUOUS
 62
     7
 10
-27.4179037094113
 20
47.4360218048096
 30
0.0
 11
-56.8459892272949
 21
47.4360218048096
 31
0.0
  0
LINE
  5
   151
  8
0
  6
CONTINUOUS
 62
     7
 10
-27.4178911972069
 20
-34.5639781951904
 30
0.0
 11
-56.8459892272949
 21
-34.5639781951904
 31
0.0
  0
LINE
  5
   152
  8
0
  6
CONTINUOUS
 62
     7
 10
-54.8459892272949
 20
47.4360218048096
 30
0.0
 11
-54.8459892272949
 21
-34.5639781951904
 31
0.0
  0
LINE
  5
   153
  8
0
  6
CONTINUOUS
 62
     3
 10
-54.0695320708764
 20
44.538244331599
 30
0.0
 11
-54.8459892272949
 21
47.4360218048096
 31
0.0
  0
LINE
  5
   154
  8
0
  6
CONTINUOUS
 62
     3
 10
-54.8459892272949
 20
47.4360218048096
 30
0.0
 11
-55.6224463837135
 21
44.538244331599
 31
0.0
  0
LINE
  5
   155
  8
0
  6
CONTINUOUS
 62
     3
 10
-55.6224463837135
 20
-31.6662007219799
 30
0.0
 11
-54.8459892272949
 21
-34.5639781951904
 31
0.0
  0
LINE
  5
   156
  8
0
  6
CONTINUOUS
 62
     3
 10
-54.8459892272949
 20
-34.5639781951904
 30
0.0
 11
-54.0695320708764
 21
-31.6662007219799
 31
0.0
  0
ENDBLK
  5
   157
  8
0
  6
CONTINUOUS
 62
     7
  0
BLOCK
  5
   158
  8
0
  6
CONTINUOUS
 62
     3
  2
*UDIM288
 70
    65
 10
0.0
 20
0.0
 30
0.0
  3
*UDIM288
  0
TEXT
  5
   159
  8
0
  6
CONTINUOUS
 62
     3
 10
214.222741337524
 20
32.8546203736756
 30
0.0
 40
2.99999997871263
  1
4
 50
44.8180950192147
 41
0.933333333333333
 72
     1
 11
213.945736916547
 21
34.6939867052301
 31
0.0
 73
     2
  0
TEXT
  5
   15A
  8
0
  6
CONTINUOUS
 62
     3
 10
212.272034012617
 20
30.916260260388
 30
0.0
 40
2.99999997871263
  1
Ø
 50
44.8180950192147
 41
0.933333333333333
 72
     1
 11
211.99502959164
 21
32.7556265919425
 31
0.0
 73
     2
  0
LINE
  5
   15B
  8
0
  6
CONTINUOUS
 62
     3
 10
216.488165559733
 20
33.6959603909897
 30
0.0
 11
204.565973680717
 21
21.8492313065286
 31
0.0
  0
LINE
  5
   15C
  8
0
  6
CONTINUOUS
 62
     3
 10
208.280671250948
 20
26.2748150833086
 30
0.0
 11
206.55214850952
 21
23.8228344283347
 31
0.0
  0
LINE
  5
   15D
  8
0
  6
CONTINUOUS
 62
     3
 10
206.55214850952
 20
23.8228344283347
 30
0.0
 11
209.015055230054
 21
25.535753132169
 31
0.0
  0
LINE
  5
   15E
  8
0
  6
CONTINUOUS
 62
     3
 10
202.837450939289
 20
19.3972506515547
 30
0.0
 11
204.565973680717
 21
21.8492313065286
 31
0.0
  0
LINE
  5
   15F
  8
0
  6
CONTINUOUS
 62
     3
 10
204.565973680717
 20
21.8492313065286
 30
0.0
 11
202.103066960183
 21
20.1363126026942
 31
0.0
  0
ENDBLK
  5
   160
  8
0
  6
CONTINUOUS
 62
     3
  0
BLOCK
  5
   161
  8
0
  6
CONTINUOUS
 62
     3
  2
*UDIM289
 70
    65
 10
0.0
 20
0.0
 30
0.0
  3
*UDIM289
  0
TEXT
  5
   162
  8
0
  6
CONTINUOUS
 62
     3
 10
183.937489333268
 20
-2.33896641149219
 30
0.0
 40
2.99999997871263
  1
64
 50
90.0
 41
0.933333333333333
 72
     1
 11
182.437489343908
 21
0.161033570766449
 31
0.0
 73
     2
  0
LINE
  5
   163
  8
0
  6
CONTINUOUS
 62
     3
 10
199.259061202407
 20
22.8360328674316
 30
0.0
 11
182.937489333265
 21
22.8360328674316
 31
0.0
  0
LINE
  5
   164
  8
0
  6
CONTINUOUS
 62
     3
 10
199.259061202407
 20
-21.9639663696289
 30
0.0
 11
182.937489333265
 21
-21.9639663696289
 31
0.0
  0
LINE
  5
   165
  8
0
  6
CONTINUOUS
 62
     3
 10
184.937489333265
 20
22.8360328674316
 30
0.0
 11
184.937489333265
 21
-21.9639663696289
 31
0.0
  0
LINE
  5
   166
  8
0
  6
CONTINUOUS
 62
     3
 10
185.458433763216
 20
19.8816095902247
 30
0.0
 11
184.937489333265
 21
22.8360328674316
 31
0.0
  0
LINE
  5
   167
  8
0
  6
CONTINUOUS
 62
     3
 10
184.937489333265
 20
22.8360328674316
 30
0.0
 11
184.416544903313
 21
19.8816095902247
 31
0.0
  0
LINE
  5
   168
  8
0
  6
CONTINUOUS
 62
     3
 10
184.416544903313
 20
-19.0095430924219
 30
0.0
 11
184.937489333265
 21
-21.9639663696289
 31
0.0
  0
LINE
  5
   169
  8
0
  6
CONTINUOUS
 62
     3
 10
184.937489333265
 20
-21.9639663696289
 30
0.0
 11
185.458433763216
 21
-19.0095430924219
 31
0.0
  0
ENDBLK
  5
   16A
  8
0
  6
CONTINUOUS
 62
     3
  0
BLOCK
  5
   16B
  8
0
  6
CONTINUOUS
 62
     3
  2
*UDIM290
 70
    65
 10
0.0
 20
0.0
 30
0.0
  3
*UDIM290
  0
TEXT
  5
   16C
  8
0
  6
CONTINUOUS
 62
     3
 10
236.348978656396
 20
-8.51178571927409
 30
0.0
 40
2.99999997871263
  1
86
 50
360.0
 41
0.933333333333333
 72
     1
 11
238.848978638649
 21
-7.01178572990521
 31
0.0
 73
     2
  0
LINE
  5
   16D
  8
0
  6
CONTINUOUS
 62
     3
 10
204.68406111002
 20
-9.51178571926152
 30
0.0
 11
264.88406008482
 21
-9.51178571926152
 31
0.0
  0
LINE
  5
   16E
  8
0
  6
CONTINUOUS
 62
     3
 10
207.638484387227
 20
-8.99084128930986
 30
0.0
 11
204.68406111002
 21
-9.51178571926152
 31
0.0
  0
LINE
  5
   16F
  8
0
  6
CONTINUOUS
 62
     3
 10
204.68406111002
 20
-9.51178571926152
 30
0.0
 11
207.638484387227
 21
-10.0327301492132
 31
0.0
  0
LINE
  5
   170
  8
0
  6
CONTINUOUS
 62
     3
 10
261.929636807613
 20
-10.0327301492132
 30
0.0
 11
264.88406008482
 21
-9.51178571926152
 31
0.0
  0
LINE
  5
   171
  8
0
  6
CONTINUOUS
 62
     3
 10
264.88406008482
 20
-9.51178571926152
 30
0.0
 11
261.929636807613
 21
-8.99084128930986
 31
0.0
  0
ENDBLK
  5
   172
  8
0
  6
CONTINUOUS
 62
     3
  0
BLOCK
  5
   173
  8
0
  6
CONTINUOUS
 62
     3
  2
*UDIM291
 70
    65
 10
0.0
 20
0.0
 30
0.0
  3
*UDIM291
  0
TEXT
  5
   174
  8
0
  6
CONTINUOUS
 62
     3
 10
286.165573682422
 20
-2.33896641149219
 30
0.0
 40
2.99999997871263
  1
53
 50
90.0
 41
0.933333333333333
 72
     1
 11
284.665573693062
 21
0.161033570766449
 31
0.0
 73
     2
  0
LINE
  5
   175
  8
0
  6
CONTINUOUS
 62
     3
 10
263.834060102701
 20
18.9860329329968
 30
0.0
 11
289.165573682419
 21
18.9860329329968
 31
0.0
  0
LINE
  5
   176
  8
0
  6
CONTINUOUS
 62
     3
 10
263.834060102701
 20
-18.113966435194
 30
0.0
 11
289.165573682419
 21
-18.113966435194
 31
0.0
  0
LINE
  5
   177
  8
0
  6
CONTINUOUS
 62
     3
 10
287.165573682419
 20
18.9860329329968
 30
0.0
 11
287.165573682419
 21
-18.113966435194
 31
0.0
  0
LINE
  5
   178
  8
0
  6
CONTINUOUS
 62
     3
 10
287.68651811237
 20
16.0316096557898
 30
0.0
 11
287.165573682419
 21
18.9860329329968
 31
0.0
  0
LINE
  5
   179
  8
0
  6
CONTINUOUS
 62
     3
 10
287.165573682419
 20
18.9860329329968
 30
0.0
 11
286.644629252467
 21
16.0316096557898
 31
0.0
  0
LINE
  5
   17A
  8
0
  6
CONTINUOUS
 62
     3
 10
286.644629252467
 20
-15.1595431579871
 30
0.0
 11
287.165573682419
 21
-18.113966435194
 31
0.0
  0
LINE
  5
   17B
  8
0
  6
CONTINUOUS
 62
     3
 10
287.165573682419
 20
-18.113966435194
 30
0.0
 11
287.68651811237
 21
-15.1595431579871
 31
0.0
  0
ENDBLK
  5
   17C
  8
0
  6
CONTINUOUS
 62
     3
  0
BLOCK
  5
   17D
  8
0
  6
CONTINUOUS
 62
     3
  2
*UDIM292
 70
    65
 10
0.0
 20
0.0
 30
0.0
  3
*UDIM292
  0
TEXT
  5
   17E
  8
0
  6
CONTINUOUS
 62
     3
 10
229.209061135714
 20
-39.1953900093716
 30
0.0
 40
2.99999997871263
  1
83,5
 50
360.0
 41
0.933333333333333
 72
     1
 11
234.509061098099
 21
-37.6953900199886
 31
0.0
 73
     2
  0
LINE
  5
   17F
  8
0
  6
CONTINUOUS
 62
     3
 10
205.559061095119
 20
-28.2639662623405
 30
0.0
 11
205.559061095119
 21
-42.1953900093449
 31
0.0
  0
LINE
  5
   180
  8
0
  6
CONTINUOUS
 62
     3
 10
264.009060099721
 20
-28.2639662623405
 30
0.0
 11
264.009060099721
 21
-42.1953900093449
 31
0.0
  0
LINE
  5
   181
  8
0
  6
CONTINUOUS
 62
     3
 10
205.559061095119
 20
-40.1953900093449
 30
0.0
 11
264.009060099721
 21
-40.1953900093449
 31
0.0
  0
LINE
  5
   182
  8
0
  6
CONTINUOUS
 62
     3
 10
208.513484372325
 20
-39.6744455793933
 30
0.0
 11
205.559061095119
 21
-40.1953900093449
 31
0.0
  0
LINE
  5
   183
  8
0
  6
CONTINUOUS
 62
     3
 10
205.559061095119
 20
-40.1953900093449
 30
0.0
 11
208.513484372325
 21
-40.7163344392966
 31
0.0
  0
LINE
  5
   184
  8
0
  6
CONTINUOUS
 62
     3
 10
261.054636822514
 20
-40.7163344392966
 30
0.0
 11
264.009060099721
 21
-40.1953900093449
 31
0.0
  0
LINE
  5
   185
  8
0
  6
CONTINUOUS
 62
     3
 10
264.009060099721
 20
-40.1953900093449
 30
0.0
 11
261.054636822514
 21
-39.6744455793933
 31
0.0
  0
ENDBLK
  5
   186
  8
0
  6
CONTINUOUS
 62
     3
  0
BLOCK
  5
   187
  8
0
  6
CONTINUOUS
 62
     7
  2
*UDIM293
 70
    65
 10
0.0
 20
0.0
 30
0.0
  3
*UDIM293
  0
TEXT
  5
   188
  8
0
  6
CONTINUOUS
 62
     7
 10
254.977601520822
 20
10.1497860689084
 30
0.0
 40
2.99999997871263
  1
1.5
 50
46.1851666330594
 41
0.933333333333333
 72
     1
 11
256.595317019096
 21
14.0024470089419
 31
0.0
 73
     2
  0
TEXT
  5
   189
  8
0
  6
CONTINUOUS
 62
     7
 10
252.208281503692
 20
7.26346202742913
 30
0.0
 40
2.99999997871263
  1
R
 50
46.1851666330594
 41
1.2
 72
     1
 11
252.164404994636
 21
9.38432854564545
 31
0.0
 73
     2
  0
LINE
  5
   18A
  8
0
  6
CONTINUOUS
 62
     7
 10
264.561006598687
 20
18.6936930028961
 30
0.0
 11
252.9298625179
 21
6.57113201946228
 31
0.0
  0
LINE
  5
   18B
  8
0
  6
CONTINUOUS
 62
     3
 10
263.115065039992
 20
16.0651472055321
 30
0.0
 11
264.561006598687
 21
18.6936930028961
 31
0.0
  0
LINE
  5
   18C
  8
0
  6
CONTINUOUS
 62
     3
 10
264.561006598687
 20
18.6936930028961
 30
0.0
 11
261.994511555153
 21
17.1402763841104
 31
0.0
  0
ENDBLK
  5
   18D
  8
0
  6
CONTINUOUS
 62
     7
  0
ENDSEC
  0
SECTION
  2
ENTITIES
  0
LINE
  5
   18E
  8
0
  6
CONTINUOUS
 62
   130
 10
71.1570053100586
 20
-34.5639781951904
 30
0.0
 11
92.1570045789083
 21
-34.5639781951904
 31
0.0
  0
LINE
  5
   18F
  8
0
  6
CONTINUOUS
 62
   130
 10
71.157012462616
 20
-4.45777581233282
 30
0.0
 11
71.157012462616
 21
0.629355430603027
 31
0.0
  0
LINE
  5
   190
  8
0
  6
CONTINUOUS
 62
   130
 10
91.1570053100586
 20
-34.5639781951904
 30
0.0
 11
91.1570053100586
 21
-32.5639751434326
 31
0.0
  0
LINE
  5
   191
  8
0
  6
CONTINUOUS
 62
   130
 10
71.157012462616
 20
0.629355430603028
 30
0.0
 11
71.407012462616
 21
0.629355430603028
 31
0.0
  0
LINE
  5
   192
  8
0
  6
CONTINUOUS
 62
   130
 10
71.157012462616
 20
-5.37064170837402
 30
0.0
 11
71.407012462616
 21
-5.37064170837402
 31
0.0
  0
LINE
  5
   193
  8
0
  6
CONTINUOUS
 62
   130
 10
71.157012462616
 20
13.8063569011139
 30
0.0
 11
71.157012462616
 21
18.2426853179932
 31
0.0
  0
LINE
  5
   194
  8
0
  6
CONTINUOUS
 62
   130
 10
91.1570053100586
 20
33.8703547267192
 30
0.0
 11
91.1570053100586
 21
39.6432639100771
 31
0.0
  0
LINE
  5
   195
  8
0
  6
CONTINUOUS
 62
   130
 10
71.157012462616
 20
12.2426881790161
 30
0.0
 11
71.407012462616
 21
12.2426881790161
 31
0.0
  0
LINE
  5
   196
  8
0
  6
CONTINUOUS
 62
   130
 10
71.157012462616
 20
18.2426853179932
 30
0.0
 11
71.407012462616
 21
18.2426853179932
 31
0.0
  0
LINE
  5
   197
  8
0
  6
CONTINUOUS
 62
   130
 10
66.6570124626158
 20
37.436014175415
 30
0.0
 11
71.1570053100586
 21
37.436014175415
 31
0.0
  0
LINE
  5
   198
  8
0
  6
CONTINUOUS
 62
   130
 10
66.6570124626158
 20
-24.5639705657959
 30
0.0
 11
71.1570053100586
 21
-24.5639705657959
 31
0.0
  0
LINE
  5
   199
  8
0
  6
CONTINUOUS
 62
   130
 10
71.1570053100586
 20
47.4360218048096
 30
0.0
 11
72.6570053100586
 21
47.4360218048096
 31
0.0
  0
LINE
  5
   19A
  8
0
  6
DASHDOT
 62
   130
 10
61.0429916828166
 20
15.2426867485046
 30
0.0
 11
74.5310838807177
 21
15.2426867485046
 31
0.0
  0
LINE
  5
   19B
  8
0
  6
DASHDOT
 62
   130
 10
62.4636719397373
 20
-2.3706431388855
 30
0.0
 11
75.0829819549026
 21
-2.3706431388855
 31
0.0
  0
LINE
  5
   19C
  8
0
  6
CONTINUOUS
 62
   130
 10
67.1570124626158
 20
26.9598836718071
 30
0.0
 11
67.1570124626158
 21
37.4360139211019
 31
0.0
  0
LINE
  5
   19D
  8
0
  6
CONTINUOUS
 62
   130
 10
67.1570124626158
 20
-15.5639705657959
 30
0.0
 11
67.1570124626158
 21
-13.5639703114828
 31
0.0
  0
LINE
  5
   19E
  8
0
  6
CONTINUOUS
 62
   130
 10
91.1570053100586
 20
-26.067250164668
 30
0.0
 11
91.1570053100586
 21
35.486014175415
 31
0.0
  0
LINE
  5
   19F
  8
0
  6
CONTINUOUS
 62
   130
 10
66.6570124626158
 20
26.436014175415
 30
0.0
 11
71.1570053100586
 21
26.436014175415
 31
0.0
  0
LINE
  5
   1A0
  8
0
  6
CONTINUOUS
 62
   130
 10
66.6570124626158
 20
-13.5639703114828
 30
0.0
 11
71.1570053100586
 21
-13.5639703114828
 31
0.0
  0
LINE
  5
   1A1
  8
0
  6
DASHDOT
 62
   130
 10
63.7400757611422
 20
42.4360218048096
 30
0.0
 11
93.0797064127798
 21
42.4360218048096
 31
0.0
  0
LINE
  5
   1A2
  8
0
  6
DASHDOT
 62
   130
 10
63.3890532608235
 20
-29.5639781951904
 30
0.0
 11
96.6844325532655
 21
-29.5639781951904
 31
0.0
  0
LINE
  5
   1A3
  8
0
  6
CONTINUOUS
 62
   130
 10
66.1570124626158
 20
45.4360218048096
 30
0.0
 11
70.4070053100586
 21
45.4360218048096
 31
0.0
  0
LINE
  5
   1A4
  8
0
  6
CONTINUOUS
 62
   130
 10
66.1570124626158
 20
39.4360218048096
 30
0.0
 11
70.4070053100586
 21
39.4360218048096
 31
0.0
  0
LINE
  5
   1A5
  8
0
  6
CONTINUOUS
 62
   130
 10
66.1570124626158
 20
-26.5639781951904
 30
0.0
 11
70.4070053100586
 21
-26.5639781951904
 31
0.0
  0
LINE
  5
   1A6
  8
0
  6
CONTINUOUS
 62
   130
 10
66.1570124626158
 20
-32.5639781951904
 30
0.0
 11
70.4070053100586
 21
-32.5639781951904
 31
0.0
  0
LINE
  5
   1A7
  8
0
  6
CONTINUOUS
 62
   130
 10
66.1570124626158
 20
39.4360218048096
 30
0.0
 11
66.1570124626158
 21
45.4360218048096
 31
0.0
  0
LINE
  5
   1A8
  8
0
  6
CONTINUOUS
 62
   130
 10
66.1570124626158
 20
-32.5639781951904
 30
0.0
 11
66.1570124626158
 21
-26.5639781951904
 31
0.0
  0
LINE
  5
   1A9
  8
0
  6
DOT
 62
   130
 10
83.6570124626158
 20
40.3110218048096
 30
0.0
 11
83.6570124626158
 21
44.5610218048096
 31
0.0
  0
LINE
  5
   1AA
  8
0
  6
DOT
 62
   130
 10
66.1570124626158
 20
43.4860218048096
 30
0.0
 11
83.6570124626158
 21
43.4860218048096
 31
0.0
  0
LINE
  5
   1AB
  8
0
  6
DOT
 62
   130
 10
66.1570124626158
 20
41.3860218048096
 30
0.0
 11
83.6570124626158
 21
41.3860218048096
 31
0.0
  0
LINE
  5
   1AC
  8
0
  6
DOT
 62
   130
 10
66.1570124626158
 20
-28.5139781951904
 30
0.0
 11
83.6570124626158
 21
-28.5139781951904
 31
0.0
  0
LINE
  5
   1AD
  8
0
  6
DOT
 62
   130
 10
66.1570124626158
 20
-30.6139781951904
 30
0.0
 11
83.6570124626158
 21
-30.6139781951904
 31
0.0
  0
LINE
  5
   1AE
  8
0
  6
DOT
 62
   130
 10
83.6570124626158
 20
-27.4389781951904
 30
0.0
 11
91.1570053100586
 21
-27.4389781951904
 31
0.0
  0
LINE
  5
   1AF
  8
0
  6
DOT
 62
   130
 10
83.6570124626158
 20
-31.6889781951904
 30
0.0
 11
91.1570053100586
 21
-31.6889781951904
 31
0.0
  0
LINE
  5
   1B0
  8
0
  6
DOT
 62
   130
 10
83.6570124626158
 20
44.5610218048096
 30
0.0
 11
91.1570053100586
 21
44.5610218048096
 31
0.0
  0
LINE
  5
   1B1
  8
0
  6
DOT
 62
   130
 10
83.6570124626158
 20
40.3110218048096
 30
0.0
 11
91.1570053100586
 21
40.3110218048096
 31
0.0
  0
LINE
  5
   1B2
  8
0
  6
DOT
 62
   130
 10
83.6570124626158
 20
-31.6889781951904
 30
0.0
 11
83.6570124626158
 21
-27.4389781951904
 31
0.0
  0
LINE
  5
   1B3
  8
0
  6
CONTINUOUS
 62
   130
 10
71.1570053100586
 20
22.436012828391
 30
0.0
 11
71.1570053100586
 21
26.436014175415
 31
0.0
  0
LINE
  5
   1B4
  8
0
  6
CONTINUOUS
 62
   130
 10
71.1570053100586
 20
-26.9109297903315
 30
0.0
 11
71.1570053100586
 21
-9.56397031148276
 31
0.0
  0
LINE
  5
   1B5
  8
0
  6
CONTINUOUS
 62
   130
 10
71.407012462616
 20
18.2426853179932
 30
0.0
 11
71.407012462616
 21
22.436012828391
 31
0.0
  0
LINE
  5
   1B6
  8
0
  6
CONTINUOUS
 62
   130
 10
71.1570053100586
 20
24.2789100624938
 30
0.0
 11
71.1570053100586
 21
47.4360218048096
 31
0.0
  0
ARC
  5
   1B7
  8
0
  6
CONTINUOUS
 62
   130
 10
70.4070053100586
 20
46.1860218048096
 30
0.0
 40
0.75
 50
270.0
 51
360.0
  0
ARC
  5
   1B8
  8
0
  6
CONTINUOUS
 62
   130
 10
70.4070053100586
 20
38.6860218048096
 30
0.0
 40
0.75
 50
360.0
 51
450.0
  0
LINE
  5
   1B9
  8
0
  6
CONTINUOUS
 62
   130
 10
71.1570053100586
 20
-34.5639781951904
 30
0.0
 11
71.1570053100586
 21
-24.5639705657959
 31
0.0
  0
ARC
  5
   1BA
  8
0
  6
CONTINUOUS
 62
   130
 10
70.4070053100586
 20
-25.8139781951904
 30
0.0
 40
0.75
 50
270.0
 51
360.0
  0
ARC
  5
   1BB
  8
0
  6
CONTINUOUS
 62
   130
 10
70.4070053100586
 20
-33.3139781951904
 30
0.0
 40
0.75
 50
360.0
 51
450.0
  0
LINE
  5
   1BC
  8
0
  6
CONTINUOUS
 62
   130
 10
67.1570124626158
 20
26.436014175415
 30
0.0
 11
67.1570124626158
 21
28.436014175415
 31
0.0
  0
LINE
  5
   1BD
  8
0
  6
DOT
 62
   130
 10
72.907012462616
 20
-22.5639705657959
 30
0.0
 11
72.907012462616
 21
-15.5639705657959
 31
0.0
  0
LINE
  5
   1BE
  8
0
  6
DOT
 62
   130
 10
75.9987000674383
 20
-21.5639705657959
 30
0.0
 11
75.9987000674383
 21
-16.5639705657959
 31
0.0
  0
LINE
  5
   1BF
  8
0
  6
DOT
 62
   130
 10
79.657012462616
 20
-21.5639705657959
 30
0.0
 11
79.657012462616
 21
-16.5639705657959
 31
0.0
  0
LINE
  5
   1C0
  8
0
  6
DOT
 62
   130
 10
79.657012462616
 20
-21.5639705657959
 30
0.0
 11
79.657012462616
 21
-16.5639705657959
 31
0.0
  0
ARC
  5
   1C1
  8
0
  6
DOT
 62
   130
 10
77.657012462616
 20
-24.0639705657959
 30
0.0
 40
3.0
 50
56.4426902380793
 51
123.557309761921
  0
ARC
  5
   1C2
  8
0
  6
DOT
 62
   130
 10
77.657012462616
 20
-14.0639705657959
 30
0.0
 40
3.0
 50
236.442690238079
 51
303.557309761921
  0
LINE
  5
   1C3
  8
0
  6
DOT
 62
   130
 10
72.907012462616
 20
-21.5639705657959
 30
0.0
 11
75.9987000674383
 21
-21.5639705657959
 31
0.0
  0
LINE
  5
   1C4
  8
0
  6
DOT
 62
   130
 10
72.907012462616
 20
-16.5639705657959
 30
0.0
 11
75.9987000674383
 21
-16.5639705657959
 31
0.0
  0
LINE
  5
   1C5
  8
0
  6
DOT
 62
   130
 10
80.157012462616
 20
-21.0639705657959
 30
0.0
 11
80.157012462616
 21
-17.0639705657959
 31
0.0
  0
ARC
  5
   1C6
  8
0
  6
DOT
 62
   130
 10
79.657012462616
 20
-21.0639705657959
 30
0.0
 40
0.5
 50
270.0
 51
360.0
  0
ARC
  5
   1C7
  8
0
  6
DOT
 62
   130
 10
79.657012462616
 20
-17.0639705657959
 30
0.0
 40
0.5
 50
360.0
 51
450.0
  0
LINE
  5
   1C8
  8
0
  6
DOT
 62
   130
 10
79.3153248577937
 20
-16.5639705657959
 30
0.0
 11
79.657012462616
 21
-16.5639705657959
 31
0.0
  0
LINE
  5
   1C9
  8
0
  6
CONTINUOUS
 62
   130
 10
67.1570124626158
 20
-24.563970820109
 30
0.0
 11
67.1570124626158
 21
-15.433011525459
 31
0.0
  0
LINE
  5
   1CA
  8
0
  6
CONTINUOUS
 62
   130
 10
91.1570053100586
 20
47.4360218048096
 30
0.0
 11
92.1570053100586
 21
47.4360218048096
 31
0.0
  0
LINE
  5
   1CB
  8
0
  6
CONTINUOUS
 62
   130
 10
91.1570053100586
 20
-34.5639781951904
 30
0.0
 11
94.6570053100586
 21
-34.5639781951904
 31
0.0
  0
LINE
  5
   1CC
  8
0
  6
DASHDOT
 62
   130
 10
90.5570053100586
 20
23.886014175415
 30
0.0
 11
90.8070053100586
 21
23.886014175415
 31
0.0
  0
LINE
  5
   1CD
  8
0
  6
DOT
 62
   130
 10
78.6252582991678
 20
-15.3139705657959
 30
0.0
 11
85.1887666260641
 21
-15.3139705657959
 31
0.0
  0
CIRCLE
  5
   1CE
  8
0
  6
DOT
 62
   130
 10
77.657012462616
 20
-15.7639705657959
 30
0.0
 40
0.55
  0
ARC
  5
   1CF
  8
0
  6
DOT
 62
   130
 10
77.657012462616
 20
-15.0639705657959
 30
0.0
 40
1.0
 50
241.040339060838
 51
345.52248781407
  0
CIRCLE
  5
   1D0
  8
0
  6
DOT
 62
   130
 10
86.1570124626159
 20
-15.7639705657959
 30
0.0
 40
0.55
  0
LINE
  5
   1D1
  8
0
  6
DOT
 62
   130
 10
76.6238817995654
 20
-15.38999444766
 30
0.0
 11
77.1728187379806
 21
-15.9389313860751
 31
0.0
  0
LINE
  5
   1D2
  8
0
  6
DOT
 62
   130
 10
86.6412061872514
 20
-15.9389313860751
 30
0.0
 11
87.1901431256665
 21
-15.38999444766
 31
0.0
  0
ARC
  5
   1D3
  8
0
  6
DOT
 62
   130
 10
86.157012462616
 20
-15.0639705657959
 30
0.0
 40
1.0
 50
194.47751218593
 51
298.959660939162
  0
LINE
  5
   1D4
  8
0
  6
DOT
 62
   130
 10
87.1901431256665
 20
-15.3899944476599
 30
0.0
 11
88.101556110879
 21
-16.3014074328724
 31
0.0
  0
LINE
  5
   1D5
  8
0
  6
DOT
 62
   130
 10
87.571226024989
 20
-16.478184128169
 30
0.0
 11
87.9247794155823
 21
-16.1246307375757
 31
0.0
  0
LINE
  5
   1D6
  8
0
  6
DOT
 62
   130
 10
87.7480027202857
 20
-16.6549608234656
 30
0.0
 11
88.1015561108789
 21
-16.3014074328724
 31
0.0
  0
LINE
  5
   1D7
  8
0
  6
DOT
 62
   130
 10
75.712468814353
 20
-16.3014074328724
 30
0.0
 11
76.6238817995654
 21
-15.3899944476599
 31
0.0
  0
LINE
  5
   1D8
  8
0
  6
DOT
 62
   130
 10
75.8892455096496
 20
-16.1246307375757
 30
0.0
 11
76.2427989002429
 21
-16.478184128169
 31
0.0
  0
LINE
  5
   1D9
  8
0
  6
DOT
 62
   130
 10
75.712468814353
 20
-16.3014074328724
 30
0.0
 11
76.0660222049462
 21
-16.6549608234656
 31
0.0
  0
ARC
  5
   1DA
  8
0
  6
DOT
 62
   130
 10
77.657012462616
 20
-15.0639705657959
 30
0.0
 40
2.0
 50
225.0
 51
321.31781254651
  0
ARC
  5
   1DB
  8
0
  6
DOT
 62
   130
 10
77.657012462616
 20
-15.0639705657959
 30
0.0
 40
2.25
 50
225.0
 51
318.189685104221
  0
LINE
  5
   1DC
  8
0
  6
DOT
 62
   130
 10
79.2182619622156
 20
-16.3139705657959
 30
0.0
 11
84.5957629630164
 21
-16.3139705657959
 31
0.0
  0
LINE
  5
   1DD
  8
0
  6
DOT
 62
   130
 10
79.3340634457408
 20
-16.5639705657959
 30
0.0
 11
84.4799614794911
 21
-16.5639705657959
 31
0.0
  0
ARC
  5
   1DE
  8
0
  6
DOT
 62
   130
 10
86.157012462616
 20
-15.0639705657959
 30
0.0
 40
2.0
 50
218.682187453489
 51
315.0
  0
ARC
  5
   1DF
  8
0
  6
DOT
 62
   130
 10
86.157012462616
 20
-15.0639705657959
 30
0.0
 40
2.25
 50
221.810314895778
 51
315.0
  0
LINE
  5
   1E0
  8
0
  6
DOT
 62
   130
 10
78.6252582991678
 20
-22.8139705657959
 30
0.0
 11
85.1887666260641
 21
-22.8139705657959
 31
0.0
  0
CIRCLE
  5
   1E1
  8
0
  6
DOT
 62
   130
 10
77.657012462616
 20
-22.6139705657959
 30
0.0
 40
0.55
  0
ARC
  5
   1E2
  8
0
  6
DOT
 62
   130
 10
77.657012462616
 20
-23.0639705657959
 30
0.0
 40
1.0
 50
14.47751218593
 51
118.959660939162
  0
CIRCLE
  5
   1E3
  8
0
  6
DOT
 62
   130
 10
86.1570124626159
 20
-22.6139705657959
 30
0.0
 40
0.55
  0
LINE
  5
   1E4
  8
0
  6
DOT
 62
   130
 10
76.6238817995654
 20
-22.7379466839318
 30
0.0
 11
77.1728187379806
 21
-22.1890097455167
 31
0.0
  0
LINE
  5
   1E5
  8
0
  6
DOT
 62
   130
 10
86.6412061872514
 20
-22.1890097455167
 30
0.0
 11
87.1901431256665
 21
-22.7379466839318
 31
0.0
  0
ARC
  5
   1E6
  8
0
  6
DOT
 62
   130
 10
86.157012462616
 20
-23.0639705657959
 30
0.0
 40
1.0
 50
61.0403390608383
 51
165.52248781407
  0
LINE
  5
   1E7
  8
0
  6
DOT
 62
   130
 10
87.1901431256665
 20
-22.7379466839318
 30
0.0
 11
88.101556110879
 21
-21.8265336987194
 31
0.0
  0
LINE
  5
   1E8
  8
0
  6
DOT
 62
   130
 10
87.571226024989
 20
-21.6497570034228
 30
0.0
 11
87.9247794155823
 21
-22.0033103940161
 31
0.0
  0
LINE
  5
   1E9
  8
0
  6
DOT
 62
   130
 10
87.7480027202857
 20
-21.4729803081261
 30
0.0
 11
88.1015561108789
 21
-21.8265336987194
 31
0.0
  0
LINE
  5
   1EA
  8
0
  6
DOT
 62
   130
 10
75.712468814353
 20
-21.8265336987194
 30
0.0
 11
76.6238817995654
 21
-22.7379466839318
 31
0.0
  0
LINE
  5
   1EB
  8
0
  6
DOT
 62
   130
 10
75.8892455096496
 20
-22.0033103940161
 30
0.0
 11
76.2427989002429
 21
-21.6497570034228
 31
0.0
  0
LINE
  5
   1EC
  8
0
  6
DOT
 62
   130
 10
75.712468814353
 20
-21.8265336987194
 30
0.0
 11
76.0660222049462
 21
-21.4729803081262
 31
0.0
  0
ARC
  5
   1ED
  8
0
  6
DOT
 62
   130
 10
77.657012462616
 20
-23.0639705657959
 30
0.0
 40
2.0
 50
38.6821874534895
 51
135.0
  0
ARC
  5
   1EE
  8
0
  6
DOT
 62
   130
 10
77.657012462616
 20
-23.0639705657959
 30
0.0
 40
2.25
 50
41.8103148957787
 51
135.0
  0
LINE
  5
   1EF
  8
0
  6
DOT
 62
   130
 10
79.2182619622156
 20
-21.8139705657959
 30
0.0
 11
84.5957629630164
 21
-21.8139705657959
 31
0.0
  0
ARC
  5
   1F0
  8
0
  6
DOT
 62
   130
 10
86.157012462616
 20
-23.0639705657959
 30
0.0
 40
2.0
 50
45.0000000000001
 51
141.317812546511
  0
ARC
  5
   1F1
  8
0
  6
DOT
 62
   130
 10
86.157012462616
 20
-23.0639705657959
 30
0.0
 40
2.25
 50
45.0000000000001
 51
138.189685104221
  0
LINE
  5
   1F2
  8
0
  6
CONTINUOUS
 62
   130
 10
71.407012462616
 20
0.629355430603028
 30
0.0
 11
71.407012462616
 21
12.2426881790161
 31
0.0
  0
LINE
  5
   1F3
  8
0
  6
CONTINUOUS
 62
   130
 10
71.407012462616
 20
-9.56397031148276
 30
0.0
 11
71.407012462616
 21
-5.37064170837402
 31
0.0
  0
LINE
  5
   1F4
  8
0
  6
DOT
 62
   130
 10
80.157012462616
 20
-19.4639692187719
 30
0.0
 11
82.407012462616
 21
-19.4639692187719
 31
0.0
  0
LINE
  5
   1F5
  8
0
  6
DOT
 62
   130
 10
80.157012462616
 20
-17.6639692187719
 30
0.0
 11
82.407012462616
 21
-17.6639692187719
 31
0.0
  0
LINE
  5
   1F6
  8
0
  6
DOT
 62
   130
 10
80.6070124626159
 20
-22.8639705657959
 30
0.0
 11
91.7070124626159
 21
-22.8639705657959
 31
0.0
  0
LINE
  5
   1F7
  8
0
  6
DOT
 62
   130
 10
92.1569976806641
 20
-22.8189110565186
 30
0.0
 11
98.4069900512695
 21
-22.8189110565186
 31
0.0
  0
LINE
  5
   1F8
  8
0
  6
DOT
 62
   130
 10
96.1569976806641
 20
-22.0689110565186
 30
0.0
 11
96.1569976806641
 21
-21.0689433730344
 31
0.0
  0
LINE
  5
   1F9
  8
0
  6
DOT
 62
   130
 10
92.1569976806641
 20
-16.0689186859131
 30
0.0
 11
96.1569976806641
 21
-16.0689186859131
 31
0.0
  0
LINE
  5
   1FA
  8
0
  6
DOT
 62
   130
 10
92.1569976806641
 20
-22.0689110565186
 30
0.0
 11
96.1569976806641
 21
-22.0689110565186
 31
0.0
  0
LINE
  5
   1FB
  8
0
  6
DASHDOT
 62
   130
 10
65.0261039091739
 20
-19.0689110565186
 30
0.0
 11
116.999984337206
 21
-19.0689110565186
 31
0.0
  0
LINE
  5
   1FC
  8
0
  6
CONTINUOUS
 62
   130
 10
128.15699005127
 20
11.6860332489014
 30
0.0
 11
128.15699005127
 21
12.1860332489014
 31
0.0
  0
LINE
  5
   1FD
  8
0
  6
CONTINUOUS
 62
   130
 10
128.15699005127
 20
-11.3139667510986
 30
0.0
 11
128.15699005127
 21
-10.8139667510986
 31
0.0
  0
LINE
  5
   1FE
  8
0
  6
DOT
 62
   130
 10
105.656994533539
 20
-20.3189113616943
 30
0.0
 11
105.656994533539
 21
-17.8189189910888
 31
0.0
  0
LINE
  5
   1FF
  8
0
  6
DOT
 62
   130
 10
105.656993664281
 20
-17.8189100786749
 30
0.0
 11
105.906993651446
 21
-17.5689100915106
 31
0.0
  0
LINE
  5
   200
  8
0
  6
DOT
 62
   130
 10
105.656992241588
 20
-20.318898702754
 30
0.0
 11
105.906992228723
 21
-20.5689063185849
 31
0.0
  0
LINE
  5
   201
  8
0
  6
DOT
 62
   130
 10
105.906994533539
 20
-20.5689189910888
 30
0.0
 11
105.906994533539
 21
-17.683092880249
 31
0.0
  0
LINE
  5
   202
  8
0
  6
DOT
 62
   130
 10
105.906994406382
 20
-17.5689178721199
 30
0.0
 11
113.406992975874
 21
-17.5689102427273
 31
0.0
  0
LINE
  5
   203
  8
0
  6
DOT
 62
   130
 10
105.906994533539
 20
-20.5689189910888
 30
0.0
 11
113.321413395345
 21
-20.5689189910888
 31
0.0
  0
LINE
  5
   204
  8
0
  6
DOT
 62
   130
 10
113.406990212468
 20
-17.5689043121602
 30
0.0
 11
113.656990199603
 21
-17.8189119279911
 31
0.0
  0
LINE
  5
   205
  8
0
  6
DOT
 62
   130
 10
113.406991823421
 20
-20.568912456332
 30
0.0
 11
113.656991810585
 21
-20.3189124691677
 31
0.0
  0
LINE
  5
   206
  8
0
  6
DOT
 62
   130
 10
105.656994533539
 20
-17.8189119279911
 30
0.0
 11
112.156993103028
 21
-17.8189119279911
 31
0.0
  0
LINE
  5
   207
  8
0
  6
DOT
 62
   130
 10
105.65699005127
 20
-20.318912163992
 30
0.0
 11
112.156993103028
 21
-20.318912163992
 31
0.0
  0
LINE
  5
   208
  8
0
  6
DOT
 62
   130
 10
112.156993103028
 20
-20.5689189910888
 30
0.0
 11
112.156993103028
 21
-17.5689115142929
 31
0.0
  0
LINE
  5
   209
  8
0
  6
DOT
 62
   130
 10
97.4069900512695
 20
-15.9939110565186
 30
0.0
 11
104.65699005127
 21
-15.9939110565186
 31
0.0
  0
LINE
  5
   20A
  8
0
  6
DOT
 62
   130
 10
97.4069900512695
 20
-22.1439110565186
 30
0.0
 11
98.4069900512695
 21
-22.1439110565186
 31
0.0
  0
LINE
  5
   20B
  8
0
  6
DOT
 62
   130
 10
97.4069900512695
 20
-22.1439110565186
 30
0.0
 11
97.4069900512695
 21
-21.0689421014765
 31
0.0
  0
LINE
  5
   20C
  8
0
  6
DOT
 62
   130
 10
96.1569976806641
 20
-16.9939110565186
 30
0.0
 11
97.4069900512695
 21
-16.9939110565186
 31
0.0
  0
LINE
  5
   20D
  8
0
  6
DOT
 62
   130
 10
96.1569976806641
 20
-21.1439110565186
 30
0.0
 11
97.4069900512695
 21
-21.1439110565186
 31
0.0
  0
LINE
  5
   20E
  8
0
  6
DOT
 62
   130
 10
104.65699005127
 20
-21.8189110565186
 30
0.0
 11
104.65699005127
 21
-15.5091033013528
 31
0.0
  0
LINE
  5
   20F
  8
0
  6
DOT
 62
   130
 10
105.65699005127
 20
-21.8189110565186
 30
0.0
 11
105.65699005127
 21
-15.5091033013528
 31
0.0
  0
LINE
  5
   210
  8
0
  6
DOT
 62
   130
 10
104.65699005127
 20
-21.8189110565186
 30
0.0
 11
105.65699005127
 21
-21.8189110565186
 31
0.0
  0
LINE
  5
   211
  8
0
  6
DOT
 62
   130
 10
113.406990212468
 20
-20.5689189910888
 30
0.0
 11
113.406990212468
 21
-17.5689102427301
 31
0.0
  0
LINE
  5
   212
  8
0
  6
DOT
 62
   130
 10
101.65699005127
 20
-16.0689110565186
 30
0.0
 11
104.65699005127
 21
-16.0689110565186
 31
0.0
  0
LINE
  5
   213
  8
0
  6
DOT
 62
   130
 10
101.65699005127
 20
-22.0689110565186
 30
0.0
 11
111.40699005127
 21
-22.0689110565186
 31
0.0
  0
LINE
  5
   214
  8
0
  6
DOT
 62
   130
 10
110.40699005127
 20
-22.068911819458
 30
0.0
 11
110.40699005127
 21
-20.5689189910888
 31
0.0
  0
LINE
  5
   215
  8
0
  6
DOT
 62
   130
 10
109.40699005127
 20
-22.068911819458
 30
0.0
 11
109.40699005127
 21
-20.5689189910888
 31
0.0
  0
LINE
  5
   216
  8
0
  6
DOT
 62
   130
 10
101.65699005127
 20
-22.0689110565186
 30
0.0
 11
101.65699005127
 21
-21.0689377781532
 31
0.0
  0
LINE
  5
   217
  8
0
  6
DOT
 62
   130
 10
102.65699005127
 20
-22.0689110565186
 30
0.0
 11
102.65699005127
 21
-21.0689367609006
 31
0.0
  0
LINE
  5
   218
  8
0
  6
DOT
 62
   130
 10
111.40699005127
 20
-22.068911819458
 30
0.0
 11
111.40699005127
 21
-20.5689189910888
 31
0.0
  0
LINE
  5
   219
  8
0
  6
DOT
 62
   130
 10
105.65699005127
 20
-16.0689110565186
 30
0.0
 11
111.419438284817
 21
-16.0689110565186
 31
0.0
  0
LINE
  5
   21A
  8
0
  6
DOT
 62
   130
 10
101.65699005127
 20
-17.0689110565186
 30
0.0
 11
102.65699005127
 21
-17.0689110565186
 31
0.0
  0
LINE
  5
   21B
  8
0
  6
DOT
 62
   130
 10
101.65699005127
 20
-21.0689110565186
 30
0.0
 11
102.65699005127
 21
-21.0689110565186
 31
0.0
  0
LINE
  5
   21C
  8
0
  6
CONTINUOUS
 62
   130
 10
101.65699005127
 20
-17.5689110565186
 30
0.0
 11
102.65699005127
 21
-17.5689110565186
 31
0.0
  0
LINE
  5
   21D
  8
0
  6
CONTINUOUS
 62
   130
 10
101.65699005127
 20
-20.5689110565186
 30
0.0
 11
102.65699005127
 21
-20.5689110565186
 31
0.0
  0
LINE
  5
   21E
  8
0
  6
DASHDOT
 62
   130
 10
61.3507900706881
 20
31.936014175415
 30
0.0
 11
93.185609309647
 21
31.936014175415
 31
0.0
  0
LINE
  5
   21F
  8
0
  6
CONTINUOUS
 62
   130
 10
101.657049572465
 20
-20.5689377780924
 30
0.0
 11
104.657049572465
 21
-20.5689347263348
 31
0.0
  0
LINE
  5
   220
  8
0
  6
CONTINUOUS
 62
   130
 10
101.657043468949
 20
-17.568937778097
 30
0.0
 11
104.657043468949
 21
-17.5689347263394
 31
0.0
  0
LINE
  5
   221
  8
0
  6
DOT
 62
   130
 10
83.6570505897171
 20
-21.0689560886374
 30
0.0
 11
104.657050589717
 21
-21.068934726334
 31
0.0
  0
LINE
  5
   222
  8
0
  6
DOT
 62
   130
 10
83.6570424516967
 20
-17.0689560886436
 30
0.0
 11
104.657042451697
 21
-17.0689347263402
 31
0.0
  0
LINE
  5
   223
  8
0
  6
DOT
 62
   130
 10
82.1570435624488
 20
-17.614914495835
 30
0.0
 11
82.1570494789712
 21
-20.5230037928339
 31
0.0
  0
LINE
  5
   224
  8
0
  6
DOT
 62
   130
 10
83.6570424516967
 20
-17.068956090478
 30
0.0
 11
83.6570505897171
 21
-21.0689560904738
 31
0.0
  0
LINE
  5
   225
  8
0
  6
DOT
 62
   130
 10
82.1570494789712
 20
-20.5230037889968
 30
0.0
 11
83.6570505897171
 21
-21.0689560886374
 31
0.0
  0
LINE
  5
   226
  8
0
  6
DOT
 62
   130
 10
82.1570435624488
 20
-17.6149144917994
 30
0.0
 11
83.6570424516967
 21
-17.0689560886436
 31
0.0
  0
LINE
  5
   227
  8
0
  6
DOT
 62
   130
 10
105.407045249157
 20
-18.4439416114513
 30
0.0
 11
105.407047792288
 21
-19.6939416114501
 31
0.0
  0
LINE
  5
   228
  8
0
  6
DOT
 62
   130
 10
96.1569976806641
 20
-17.0689433730323
 30
0.0
 11
96.1569976806641
 21
-16.0689186859131
 31
0.0
  0
LINE
  5
   229
  8
0
  6
DOT
 62
   130
 10
97.4069900512695
 20
-17.0689421014744
 30
0.0
 11
97.4069900512695
 21
-15.9939110565186
 31
0.0
  0
LINE
  5
   22A
  8
0
  6
CONTINUOUS
 62
   130
 10
91.1570053100586
 20
-33.4271512804013
 30
0.0
 11
91.1570053100586
 21
-24.2299561810182
 31
0.0
  0
LINE
  5
   22B
  8
0
  6
DOT
 62
   130
 10
104.65699005127
 20
-18.4439416115038
 30
0.0
 11
105.65699005127
 21
-18.4439416115038
 31
0.0
  0
LINE
  5
   22C
  8
0
  6
DOT
 62
   130
 10
104.65699005127
 20
-19.6939416114991
 30
0.0
 11
105.65699005127
 21
-19.6939416114991
 31
0.0
  0
LINE
  5
   22D
  8
0
  6
DOT
 62
   130
 10
102.65699005127
 20
-17.0689367608986
 30
0.0
 11
102.65699005127
 21
-16.0689110565186
 31
0.0
  0
LINE
  5
   22E
  8
0
  6
DOT
 62
   130
 10
101.65699005127
 20
-17.0689377781511
 30
0.0
 11
101.65699005127
 21
-16.0689110565186
 31
0.0
  0
LINE
  5
   22F
  8
0
  6
DOT
 62
   130
 10
98.4069900512695
 20
-23.3189110565185
 30
0.0
 11
98.4069900512695
 21
-21.9689110565185
 31
0.0
  0
LINE
  5
   230
  8
0
  6
DOT
 62
   130
 10
98.9069900512695
 20
-22.8189110565185
 30
0.0
 11
98.9069900512695
 21
-21.0689372721952
 31
0.0
  0
LINE
  5
   231
  8
0
  6
DOT
 62
   130
 10
97.9069900512695
 20
-21.4689110565185
 30
0.0
 11
98.3069621973518
 21
-21.0689376255731
 31
0.0
  0
LINE
  5
   232
  8
0
  6
DOT
 62
   130
 10
97.9069900512695
 20
-21.9689110565185
 30
0.0
 11
97.9069900512695
 21
-21.4689110565185
 31
0.0
  0
LINE
  5
   233
  8
0
  6
DOT
 62
   130
 10
97.9069900512695
 20
-21.9689110565185
 30
0.0
 11
98.4069900512695
 21
-21.9689110565185
 31
0.0
  0
LINE
  5
   234
  8
0
  6
DOT
 62
   130
 10
107.15699005127
 20
-22.8189110565185
 30
0.0
 11
107.15699005127
 21
-22.1689110565185
 31
0.0
  0
LINE
  5
   235
  8
0
  6
DOT
 62
   130
 10
98.9069900512695
 20
-22.8189110565186
 30
0.0
 11
107.15699005127
 21
-22.8189110565186
 31
0.0
  0
LINE
  5
   236
  8
0
  6
DOT
 62
   130
 10
108.40699005127
 20
-22.6689110565185
 30
0.0
 11
108.40699005127
 21
-22.1689110565185
 31
0.0
  0
LINE
  5
   237
  8
0
  6
DOT
 62
   130
 10
107.15699005127
 20
-22.1689110565185
 30
0.0
 11
108.40699005127
 21
-22.1689110565185
 31
0.0
  0
LINE
  5
   238
  8
0
  6
DOT
 62
   130
 10
107.65699005127
 20
-22.6689110565185
 30
0.0
 11
108.40699005127
 21
-22.6689110565185
 31
0.0
  0
LINE
  5
   239
  8
0
  6
DOT
 62
   130
 10
107.65699005127
 20
-23.5689110565186
 30
0.0
 11
107.65699005127
 21
-22.6689110565185
 31
0.0
  0
LINE
  5
   23A
  8
0
  6
DOT
 62
   130
 10
98.9069900512695
 20
-22.1439110565186
 30
0.0
 11
113.65699005127
 21
-22.1439110565186
 31
0.0
  0
LINE
  5
   23B
  8
0
  6
DOT
 62
   130
 10
109.40699005127
 20
-17.5689143117405
 30
0.0
 11
109.40699005127
 21
-16.0689110565186
 31
0.0
  0
LINE
  5
   23C
  8
0
  6
DOT
 62
   130
 10
110.40699005127
 20
-17.5689132944879
 30
0.0
 11
110.40699005127
 21
-16.068911819458
 31
0.0
  0
LINE
  5
   23D
  8
0
  6
DOT
 62
   130
 10
111.40699005127
 20
-17.5689122772354
 30
0.0
 11
111.40699005127
 21
-16.068911819458
 31
0.0
  0
LINE
  5
   23E
  8
0
  6
CONTINUOUS
 62
   130
 10
70.157012462616
 20
12.7926867485046
 30
0.0
 11
70.157012462616
 21
17.6926867485046
 31
0.0
  0
LINE
  5
   23F
  8
0
  6
CONTINUOUS
 62
   130
 10
69.757012462616
 20
12.7926867485046
 30
0.0
 11
69.757012462616
 21
17.6926867485046
 31
0.0
  0
LINE
  5
   240
  8
0
  6
CONTINUOUS
 62
   130
 10
68.257012462616
 20
13.2926867485046
 30
0.0
 11
68.257012462616
 21
17.1926867485046
 31
0.0
  0
LINE
  5
   241
  8
0
  6
CONTINUOUS
 62
   130
 10
66.4070053100586
 20
16.2426867485046
 30
0.0
 11
68.257012462616
 21
16.2426867485046
 31
0.0
  0
LINE
  5
   242
  8
0
  6
CONTINUOUS
 62
   130
 10
66.4070053100586
 20
14.2426867485046
 30
0.0
 11
68.257012462616
 21
14.2426867485046
 31
0.0
  0
LINE
  5
   243
  8
0
  6
CONTINUOUS
 62
   130
 10
71.157012462616
 20
12.2426881790161
 30
0.0
 11
71.157012462616
 21
14.2426867485046
 31
0.0
  0
LINE
  5
   244
  8
0
  6
CONTINUOUS
 62
   130
 10
68.257012462616
 20
17.1926867485046
 30
0.0
 11
69.757012462616
 21
17.1926867485046
 31
0.0
  0
LINE
  5
   245
  8
0
  6
CONTINUOUS
 62
   130
 10
68.257012462616
 20
13.2926867485046
 30
0.0
 11
69.757012462616
 21
13.2926867485046
 31
0.0
  0
LINE
  5
   246
  8
0
  6
CONTINUOUS
 62
   130
 10
69.757012462616
 20
17.6926867485046
 30
0.0
 11
70.157012462616
 21
17.6926867485046
 31
0.0
  0
LINE
  5
   247
  8
0
  6
CONTINUOUS
 62
   130
 10
69.757012462616
 20
12.7926867485046
 30
0.0
 11
70.157012462616
 21
12.7926867485046
 31
0.0
  0
LINE
  5
   248
  8
0
  6
CONTINUOUS
 62
   130
 10
68.257012462616
 20
16.2426867485046
 30
0.0
 11
69.757012462616
 21
16.2426867485046
 31
0.0
  0
LINE
  5
   249
  8
0
  6
CONTINUOUS
 62
   130
 10
68.257012462616
 20
14.2426867485046
 30
0.0
 11
69.757012462616
 21
14.2426867485046
 31
0.0
  0
LINE
  5
   24A
  8
0
  6
CONTINUOUS
 62
   130
 10
66.1570053100586
 20
14.4926867485046
 30
0.0
 11
66.1570053100586
 21
15.9926867485046
 31
0.0
  0
LINE
  5
   24B
  8
0
  6
CONTINUOUS
 62
   130
 10
66.1570053100586
 20
15.9926867485046
 30
0.0
 11
66.4070053100586
 21
16.2426867485046
 31
0.0
  0
LINE
  5
   24C
  8
0
  6
CONTINUOUS
 62
   130
 10
66.1570053100586
 20
14.4926867485046
 30
0.0
 11
66.4070053100586
 21
14.2426867485046
 31
0.0
  0
LINE
  5
   24D
  8
0
  6
CONTINUOUS
 62
   130
 10
66.4070053100586
 20
14.2426867485046
 30
0.0
 11
66.4070053100586
 21
16.2426867485046
 31
0.0
  0
LINE
  5
   24E
  8
0
  6
CONTINUOUS
 62
   130
 10
68.257012462616
 20
-3.3706431388855
 30
0.0
 11
69.757012462616
 21
-3.3706431388855
 31
0.0
  0
LINE
  5
   24F
  8
0
  6
CONTINUOUS
 62
   130
 10
68.257012462616
 20
-1.3706431388855
 30
0.0
 11
69.757012462616
 21
-1.3706431388855
 31
0.0
  0
LINE
  5
   250
  8
0
  6
CONTINUOUS
 62
   130
 10
68.257012462616
 20
-4.3206431388855
 30
0.0
 11
69.757012462616
 21
-4.3206431388855
 31
0.0
  0
LINE
  5
   251
  8
0
  6
CONTINUOUS
 62
   130
 10
68.257012462616
 20
-0.420643138885497
 30
0.0
 11
69.757012462616
 21
-0.420643138885497
 31
0.0
  0
LINE
  5
   252
  8
0
  6
CONTINUOUS
 62
   130
 10
66.4070053100586
 20
-3.3706431388855
 30
0.0
 11
68.257012462616
 21
-3.3706431388855
 31
0.0
  0
LINE
  5
   253
  8
0
  6
CONTINUOUS
 62
   130
 10
66.4070053100586
 20
-1.3706431388855
 30
0.0
 11
68.257012462616
 21
-1.3706431388855
 31
0.0
  0
LINE
  5
   254
  8
0
  6
CONTINUOUS
 62
   130
 10
70.157012462616
 20
-4.8206431388855
 30
0.0
 11
70.157012462616
 21
7.93568611145035E-2
 31
0.0
  0
LINE
  5
   255
  8
0
  6
CONTINUOUS
 62
   130
 10
69.757012462616
 20
-4.8206431388855
 30
0.0
 11
69.757012462616
 21
7.93568611145035E-2
 31
0.0
  0
LINE
  5
   256
  8
0
  6
CONTINUOUS
 62
   130
 10
69.757012462616
 20
-4.8206431388855
 30
0.0
 11
70.157012462616
 21
-4.8206431388855
 31
0.0
  0
LINE
  5
   257
  8
0
  6
CONTINUOUS
 62
   130
 10
69.757012462616
 20
7.93568611145035E-2
 30
0.0
 11
70.157012462616
 21
7.93568611145035E-2
 31
0.0
  0
LINE
  5
   258
  8
0
  6
CONTINUOUS
 62
   130
 10
68.257012462616
 20
-4.3206431388855
 30
0.0
 11
68.257012462616
 21
-0.420643138885497
 31
0.0
  0
LINE
  5
   259
  8
0
  6
CONTINUOUS
 62
   130
 10
66.4070053100586
 20
-3.3706431388855
 30
0.0
 11
66.4070053100586
 21
-1.3706431388855
 31
0.0
  0
LINE
  5
   25A
  8
0
  6
CONTINUOUS
 62
   130
 10
66.1570053100586
 20
-3.1206431388855
 30
0.0
 11
66.1570053100586
 21
-1.6206431388855
 31
0.0
  0
LINE
  5
   25B
  8
0
  6
CONTINUOUS
 62
   130
 10
66.4070053100586
 20
-3.3706431388855
 30
0.0
 11
66.4070053100586
 21
-1.3706431388855
 31
0.0
  0
LINE
  5
   25C
  8
0
  6
CONTINUOUS
 62
   130
 10
66.4070053100586
 20
-3.3706431388855
 30
0.0
 11
66.4070053100586
 21
-1.3706431388855
 31
0.0
  0
LINE
  5
   25D
  8
0
  6
CONTINUOUS
 62
   130
 10
66.1570053100586
 20
-3.12064313888551
 30
0.0
 11
66.4070053100586
 21
-3.37064313888551
 31
0.0
  0
LINE
  5
   25E
  8
0
  6
CONTINUOUS
 62
   130
 10
66.1570053100586
 20
-3.12064313888551
 30
0.0
 11
66.4070053100586
 21
-3.37064313888551
 31
0.0
  0
LINE
  5
   25F
  8
0
  6
CONTINUOUS
 62
   130
 10
66.1570053100586
 20
-1.62064313888548
 30
0.0
 11
66.4070053100586
 21
-1.37064313888548
 31
0.0
  0
LINE
  5
   260
  8
0
  6
CONTINUOUS
 62
   130
 10
66.4070053100586
 20
-3.1206431388855
 30
0.0
 11
68.257012462616
 21
-3.1206431388855
 31
0.0
  0
LINE
  5
   261
  8
0
  6
CONTINUOUS
 62
   130
 10
66.4070053100586
 20
-1.6206431388855
 30
0.0
 11
68.257012462616
 21
-1.6206431388855
 31
0.0
  0
LINE
  5
   262
  8
0
  6
CONTINUOUS
 62
   130
 10
71.157012462616
 20
-5.37064170837402
 30
0.0
 11
71.157012462616
 21
-3.3706431388855
 31
0.0
  0
LINE
  5
   263
  8
0
  6
DASHDOT
 62
   130
 10
91.382097157717
 20
3.53605503291587
 30
0.0
 11
131.522002244539
 21
3.53608726903723
 31
0.0
  0
LINE
  5
   264
  8
0
  6
DOT
 62
   130
 10
122.424130554203
 20
29.6810791595034
 30
0.0
 11
122.424130554203
 21
33.1810791595046
 31
0.0
  0
LINE
  5
   265
  8
0
  6
DOT
 62
   130
 10
122.424130554203
 20
33.1810791595046
 30
0.0
 11
123.424130152655
 21
33.1810799625984
 31
0.0
  0
LINE
  5
   266
  8
0
  6
DOT
 62
   130
 10
122.424130554203
 20
29.6810791595035
 30
0.0
 11
123.42413095575
 21
29.6810799625979
 31
0.0
  0
LINE
  5
   267
  8
0
  6
DOT
 62
   130
 10
123.924130554203
 20
30.1810799625977
 30
0.0
 11
123.924130554203
 21
32.6810799625985
 31
0.0
  0
LINE
  5
   268
  8
0
  6
DOT
 62
   130
 10
119.674130554203
 20
32.4310769509956
 30
0.0
 11
122.424130554203
 21
32.4310791595044
 31
0.0
  0
LINE
  5
   269
  8
0
  6
DOT
 62
   130
 10
119.674130554203
 20
30.4310769509949
 30
0.0
 11
122.424130554203
 21
30.4310791595037
 31
0.0
  0
LINE
  5
   26A
  8
0
  6
DOT
 62
   130
 10
123.603015934938
 20
31.5205227966276
 30
0.0
 11
123.924130554203
 21
31.6810803641453
 31
0.0
  0
LINE
  5
   26B
  8
0
  6
DOT
 62
   130
 10
123.603016049867
 20
31.3416373584276
 30
0.0
 11
123.924130554203
 21
31.1810803641451
 31
0.0
  0
ARC
  5
   26C
  8
0
  6
DOT
 62
   130
 10
123.647737351952
 20
31.43108010626
 30
0.0
 40
0.1
 50
116.565087988197
 51
243.434985634048
  0
ARC
  5
   26D
  8
0
  6
DOT
 62
   130
 10
123.424130554203
 20
32.6810799625985
 30
0.0
 40
0.5
 50
0.0
 51
90.0000460139031
  0
ARC
  5
   26E
  8
0
  6
DOT
 62
   130
 10
123.424130554203
 20
30.1810799625977
 30
0.0
 40
0.5
 50
270.000046013903
 51
360.0
  0
LINE
  5
   26F
  8
0
  6
DOT
 62
   130
 10
118.674172315096
 20
-19.5689230489877
 30
0.0
 11
121.424172315096
 21
-19.5689208404789
 31
0.0
  0
LINE
  5
   270
  8
0
  6
DOT
 62
   130
 10
118.67416910272
 20
-17.5689230489896
 30
0.0
 11
121.42416910272
 21
-17.5689208404808
 31
0.0
  0
LINE
  5
   271
  8
0
  6
DOT
 62
   130
 10
121.424167898079
 20
-16.8189208471734
 30
0.0
 11
121.424173519737
 21
-20.3189208471711
 31
0.0
  0
LINE
  5
   272
  8
0
  6
DOT
 62
   130
 10
122.924168701172
 20
-17.3189192421206
 30
0.0
 11
122.924172716643
 21
-19.818919242119
 31
0.0
  0
LINE
  5
   273
  8
0
  6
DOT
 62
   130
 10
121.424173519737
 20
-20.3189208404782
 30
0.0
 11
122.42417311819
 21
-20.3189200373844
 31
0.0
  0
LINE
  5
   274
  8
0
  6
DOT
 62
   130
 10
121.424167898079
 20
-16.8189208404816
 30
0.0
 11
122.424168299626
 21
-16.8189200373871
 31
0.0
  0
ARC
  5
   275
  8
0
  6
DOT
 62
   130
 10
122.424172716643
 20
-19.8189200373845
 30
0.0
 40
0.5
 50
270.000046013903
 51
360.000092027806
  0
ARC
  5
   276
  8
0
  6
DOT
 62
   130
 10
122.424168701173
 20
-17.318920037387
 30
0.0
 40
0.5
 50
9.20278061667574E-5
 51
90.0000460139032
  0
LINE
  5
   277
  8
0
  6
DOT
 62
   130
 10
122.603056233305
 20
-18.6583625840915
 30
0.0
 11
122.924171110455
 21
-18.8189196358384
 31
0.0
  0
LINE
  5
   278
  8
0
  6
DOT
 62
   130
 10
122.603056060911
 20
-18.4794771458916
 30
0.0
 11
122.924170307361
 21
-18.3189196358389
 31
0.0
  0
ARC
  5
   279
  8
0
  6
DOT
 62
   130
 10
122.647777506658
 20
-18.568919821893
 30
0.0
 40
0.1
 50
116.565106393758
 51
243.435004039609
  0
LINE
  5
   27A
  8
0
  6
DOT
 62
   130
 10
81.8241723150929
 20
-19.5689526430057
 30
0.0
 11
82.1570364017209
 21
-19.5689523756845
 31
0.0
  0
LINE
  5
   27B
  8
0
  6
DOT
 62
   130
 10
81.8241691027165
 20
-17.5689526430076
 30
0.0
 11
82.1570331893445
 21
-17.5689523756864
 31
0.0
  0
LINE
  5
   27C
  8
0
  6
DOT
 62
   130
 10
81.8241691027164
 20
-17.5689526379863
 30
0.0
 11
81.8241723150929
 21
-19.568952637985
 31
0.0
  0
LINE
  5
   27D
  8
0
  6
DOT
 62
   130
 10
81.5741719135459
 20
-19.3189528437795
 30
0.0
 11
81.8241723150929
 21
-19.5689526430057
 31
0.0
  0
LINE
  5
   27E
  8
0
  6
DOT
 62
   130
 10
81.5741695042636
 20
-17.8189528409813
 30
0.0
 11
81.5741719135459
 21
-19.3189528409804
 31
0.0
  0
LINE
  5
   27F
  8
0
  6
DOT
 62
   130
 10
81.5741695042636
 20
-17.8189528437808
 30
0.0
 11
81.8241691027165
 21
-17.5689526430076
 31
0.0
  0
LINE
  5
   280
  8
0
  6
DOT
 62
   130
 10
82.1570331893445
 20
-17.5689523756864
 30
0.0
 11
124.407028599787
 21
-17.5689184449639
 31
0.0
  0
LINE
  5
   281
  8
0
  6
DOT
 62
   130
 10
82.1570364017209
 20
-19.5689523756845
 30
0.0
 11
124.407031812163
 21
-19.568918444962
 31
0.0
  0
LINE
  5
   282
  8
0
  6
DOT
 62
   130
 10
80.9923493751187
 20
-18.5689533110374
 30
0.0
 11
133.751997145575
 21
-18.5689109400751
 31
0.0
  0
LINE
  5
   283
  8
0
  6
DOT
 62
   130
 10
71.157012462616
 20
-7.3706431388855
 30
0.0
 11
71.157012462616
 21
20.2426867485046
 31
0.0
  0
LINE
  5
   284
  8
0
  6
DOT
 62
   130
 10
70.157012462616
 20
-6.3706431388855
 30
0.0
 11
70.157012462616
 21
19.2426867485046
 31
0.0
  0
LINE
  5
   285
  8
0
  6
DOT
 62
   130
 10
65.157012462616
 20
20.2426867485046
 30
0.0
 11
71.157012462616
 21
20.2426867485046
 31
0.0
  0
LINE
  5
   286
  8
0
  6
DOT
 62
   130
 10
65.157012462616
 20
-7.3706431388855
 30
0.0
 11
71.157012462616
 21
-7.3706431388855
 31
0.0
  0
LINE
  5
   287
  8
0
  6
DOT
 62
   130
 10
65.157012462616
 20
19.2426867485046
 30
0.0
 11
70.157012462616
 21
19.2426867485046
 31
0.0
  0
LINE
  5
   288
  8
0
  6
DOT
 62
   130
 10
65.157012462616
 20
-6.3706431388855
 30
0.0
 11
70.157012462616
 21
-6.3706431388855
 31
0.0
  0
LINE
  5
   289
  8
0
  6
DOT
 62
   130
 10
65.157012462616
 20
19.2426867485046
 30
0.0
 11
65.157012462616
 21
20.2426867485046
 31
0.0
  0
LINE
  5
   28A
  8
0
  6
DOT
 62
   130
 10
65.157012462616
 20
-7.3706431388855
 30
0.0
 11
65.157012462616
 21
-6.3706431388855
 31
0.0
  0
LINE
  5
   28B
  8
0
  6
CONTINUOUS
 62
   130
 10
66.4070053100586
 20
14.4926867485046
 30
0.0
 11
68.257012462616
 21
14.4926867485046
 31
0.0
  0
LINE
  5
   28C
  8
0
  6
CONTINUOUS
 62
   130
 10
66.4070053100586
 20
15.9926867485046
 30
0.0
 11
68.257012462616
 21
15.9926867485046
 31
0.0
  0
LINE
  5
   28D
  8
0
  6
DOT
 62
   130
 10
66.1570124626158
 20
21.6029459930468
 30
0.0
 11
66.1570124626158
 21
49.6807605172001
 31
0.0
  0
LINE
  5
   28E
  8
0
  6
DOT
 62
   130
 10
65.1570124626158
 20
21.6374396226834
 30
0.0
 11
65.1570124626158
 21
49.922215924656
 31
0.0
  0
LINE
  5
   28F
  8
0
  6
DOT
 62
   130
 10
66.1570124626158
 20
-36.808716907581
 30
0.0
 11
66.1570124626158
 21
-8.73090238342771
 31
0.0
  0
LINE
  5
   290
  8
0
  6
DOT
 62
   130
 10
65.1570124626158
 20
-37.0501723150369
 30
0.0
 11
65.1570124626158
 21
-8.76539601306426
 31
0.0
  0
LINE
  5
   291
  8
0
  6
CONTINUOUS
 62
   130
 10
128.15699005127
 20
12.9360332489014
 30
0.0
 11
128.15699005127
 21
24.4360332489014
 31
0.0
  0
LINE
  5
   292
  8
0
  6
DASHDOT
 62
   130
 10
66.1570124626158
 20
47.0905312176589
 30
0.0
 11
66.1570124626158
 21
62.1243222242466
 31
0.0
  0
LINE
  5
   293
  8
0
  6
CONTINUOUS
 62
   130
 10
72.3596894326191
 20
39.4360218048095
 30
0.0
 11
80.1570053100586
 21
39.4360218048095
 31
0.0
  0
LINE
  5
   294
  8
0
  6
CONTINUOUS
 62
   130
 10
72.6570053100586
 20
39.4360218048095
 30
0.0
 11
72.6570053100586
 21
45.4360218048095
 31
0.0
  0
LINE
  5
   295
  8
0
  6
CONTINUOUS
 62
   130
 10
82.4070053100586
 20
43.6293068048096
 30
0.0
 11
82.4070053100586
 21
45.4360218048095
 31
0.0
  0
LINE
  5
   296
  8
0
  6
CONTINUOUS
 62
   130
 10
83.4070053100586
 20
43.6293068048096
 30
0.0
 11
83.4070053100586
 21
45.4360218048095
 31
0.0
  0
LINE
  5
   297
  8
0
  6
CONTINUOUS
 62
   130
 10
72.3596894326191
 20
45.4360218048095
 30
0.0
 11
73.6570053100586
 21
45.4360218048095
 31
0.0
  0
LINE
  5
   298
  8
0
  6
CONTINUOUS
 62
   130
 10
82.4070053100586
 20
39.4360218048095
 30
0.0
 11
82.4070053100586
 21
41.2427368048096
 31
0.0
  0
LINE
  5
   299
  8
0
  6
CONTINUOUS
 62
   130
 10
83.4070053100586
 20
39.4360218048095
 30
0.0
 11
83.4070053100586
 21
41.2427368048096
 31
0.0
  0
LINE
  5
   29A
  8
0
  6
CONTINUOUS
 62
   130
 10
72.6570053100586
 20
43.9360218048095
 30
0.0
 11
73.6570053100586
 21
43.9360218048095
 31
0.0
  0
LINE
  5
   29B
  8
0
  6
CONTINUOUS
 62
   130
 10
72.6570053100586
 20
40.9360218048095
 30
0.0
 11
73.6570053100586
 21
40.9360218048095
 31
0.0
  0
LINE
  5
   29C
  8
0
  6
CONTINUOUS
 62
   130
 10
81.4070053100586
 20
38.8610218048095
 30
0.0
 11
81.4070053100586
 21
45.1110218048095
 31
0.0
  0
LINE
  5
   29D
  8
0
  6
CONTINUOUS
 62
   130
 10
80.1570053100586
 20
38.8610218048095
 30
0.0
 11
80.1570053100586
 21
45.1110218048095
 31
0.0
  0
LINE
  5
   29E
  8
0
  6
CONTINUOUS
 62
   130
 10
80.1570053100586
 20
45.1110218048095
 30
0.0
 11
81.4070053100586
 21
45.1110218048095
 31
0.0
  0
ARC
  5
   29F
  8
0
  6
CONTINUOUS
 62
   130
 10
79.1570053100586
 20
38.8610218048095
 30
0.0
 40
1.0
 50
270.0
 51
360.0
  0
ARC
  5
   2A0
  8
0
  6
CONTINUOUS
 62
   130
 10
79.1570053100586
 20
38.8610218048095
 30
0.0
 40
2.25
 50
270.0
 51
360.0
  0
LINE
  5
   2A1
  8
0
  6
DOT
 62
   130
 10
72.6570053100586
 20
-26.5639781951904
 30
0.0
 11
80.1570053100586
 21
-26.5639781951904
 31
0.0
  0
LINE
  5
   2A2
  8
0
  6
DOT
 62
   130
 10
73.6570053100586
 20
-34.5639781951904
 30
0.0
 11
73.6570053100586
 21
-26.5639781951904
 31
0.0
  0
LINE
  5
   2A3
  8
0
  6
DOT
 62
   130
 10
72.6570053100586
 20
-32.5639781951904
 30
0.0
 11
72.6570053100586
 21
-26.5639781951904
 31
0.0
  0
LINE
  5
   2A4
  8
0
  6
DOT
 62
   130
 10
82.4070053100586
 20
-32.5639781951904
 30
0.0
 11
82.4070053100586
 21
-30.7572631951904
 31
0.0
  0
LINE
  5
   2A5
  8
0
  6
DOT
 62
   130
 10
83.4070053100586
 20
-32.5639781951904
 30
0.0
 11
83.4070053100586
 21
-30.7572631951904
 31
0.0
  0
LINE
  5
   2A6
  8
0
  6
DOT
 62
   130
 10
72.6570053100586
 20
-32.5639781951904
 30
0.0
 11
83.4070053100586
 21
-32.5639781951904
 31
0.0
  0
LINE
  5
   2A7
  8
0
  6
DOT
 62
   130
 10
82.4070053100586
 20
-28.3706931951904
 30
0.0
 11
82.4070053100586
 21
-26.5639781951904
 31
0.0
  0
LINE
  5
   2A8
  8
0
  6
DOT
 62
   130
 10
83.4070053100586
 20
-28.3706931951904
 30
0.0
 11
83.4070053100586
 21
-26.5639781951904
 31
0.0
  0
LINE
  5
   2A9
  8
0
  6
DOT
 62
   130
 10
72.6570053100586
 20
-31.0639781951904
 30
0.0
 11
73.6570053100586
 21
-31.0639781951904
 31
0.0
  0
LINE
  5
   2AA
  8
0
  6
DOT
 62
   130
 10
72.6570053100586
 20
-28.0639781951904
 30
0.0
 11
73.6570053100586
 21
-28.0639781951904
 31
0.0
  0
LINE
  5
   2AB
  8
0
  6
DOT
 62
   130
 10
81.4070053100586
 20
-32.2389781951904
 30
0.0
 11
81.4070053100586
 21
-25.9889781951904
 31
0.0
  0
LINE
  5
   2AC
  8
0
  6
DOT
 62
   130
 10
80.1570053100586
 20
-34.5639781951904
 30
0.0
 11
80.1570053100586
 21
-25.9889781951904
 31
0.0
  0
LINE
  5
   2AD
  8
0
  6
DOT
 62
   130
 10
80.1570053100586
 20
-32.2389781951904
 30
0.0
 11
81.4070053100586
 21
-32.2389781951904
 31
0.0
  0
ARC
  5
   2AE
  8
0
  6
DOT
 62
   130
 10
79.1570053100586
 20
-25.9889781951904
 30
0.0
 40
1.0
 50
5.99520433297584E-14
 51
90.0
  0
ARC
  5
   2AF
  8
0
  6
DOT
 62
   130
 10
79.1570053100586
 20
-25.9889781951904
 30
0.0
 40
2.25
 50
5.99520433297584E-14
 51
90.0
  0
LINE
  5
   2B0
  8
0
  6
CONTINUOUS
 62
   130
 10
72.3596894326191
 20
36.4551719420615
 30
0.0
 11
92.1570045789083
 21
36.4551719420615
 31
0.0
  0
LINE
  5
   2B1
  8
0
  6
CONTINUOUS
 62
   130
 10
72.3596894326191
 20
36.4551719420615
 30
0.0
 11
72.3596894326191
 21
47.4360218048096
 31
0.0
  0
LINE
  5
   2B2
  8
0
  6
CONTINUOUS
 62
   130
 10
73.6570053100586
 20
39.4360218048095
 30
0.0
 11
73.6570053100586
 21
46.7351950715322
 31
0.0
  0
LINE
  5
   2B3
  8
0
  6
CONTINUOUS
 62
   130
 10
80.1570053100586
 20
39.4360218048095
 30
0.0
 11
80.1570053100586
 21
46.7351950715322
 31
0.0
  0
LINE
  5
   2B4
  8
0
  6
CONTINUOUS
 62
   130
 10
72.6570053100586
 20
46.7351950715322
 30
0.0
 11
81.1570053100586
 21
46.7351950715322
 31
0.0
  0
LINE
  5
   2B5
  8
0
  6
CONTINUOUS
 62
   130
 10
81.1570053100586
 20
46.7351950715322
 30
0.0
 11
81.1570053100586
 21
55.6609572507121
 31
0.0
  0
LINE
  5
   2B6
  8
0
  6
CONTINUOUS
 62
   130
 10
72.6570053100586
 20
46.7351950715322
 30
0.0
 11
72.6570053100586
 21
55.6609572507121
 31
0.0
  0
LINE
  5
   2B7
  8
0
  6
CONTINUOUS
 62
   130
 10
72.0461298876498
 20
55.6609572507121
 30
0.0
 11
81.6762030632837
 21
55.6609572507121
 31
0.0
  0
LINE
  5
   2B8
  8
0
  6
CONTINUOUS
 62
   130
 10
71.7381213013369
 20
-42.7889136410929
 30
0.0
 11
81.8399662266065
 21
-42.7889136410929
 31
0.0
  0
LINE
  5
   2B9
  8
0
  6
CONTINUOUS
 62
   130
 10
72.6570053100586
 20
-42.7889136410929
 30
0.0
 11
72.6570053100586
 21
-34.5639781951904
 31
0.0
  0
LINE
  5
   2BA
  8
0
  6
CONTINUOUS
 62
   130
 10
81.1570053100586
 20
-42.7889136410929
 30
0.0
 11
81.1570053100586
 21
-34.5639781951904
 31
0.0
  0
LINE
  5
   2BB
  8
0
  6
CONTINUOUS
 62
   130
 10
66.6570124626158
 20
26.436014175415
 30
0.0
 11
66.6570124626158
 21
37.436014175415
 31
0.0
  0
LINE
  5
   2BC
  8
0
  6
CONTINUOUS
 62
   130
 10
66.6570124626158
 20
-24.5639705657959
 30
0.0
 11
66.6570124626158
 21
-13.5639703114828
 31
0.0
  0
LINE
  5
   2BD
  8
0
  6
CONTINUOUS
 62
   130
 10
81.875993101143
 20
45.4360218048095
 30
0.0
 11
81.875993101143
 21
47.4360218048096
 31
0.0
  0
LINE
  5
   2BE
  8
0
  6
CONTINUOUS
 62
   130
 10
81.1570053100586
 20
47.4360218048096
 30
0.0
 11
94.6570053100586
 21
47.4360218048096
 31
0.0
  0
LINE
  5
   2BF
  8
0
  6
CONTINUOUS
 62
   130
 10
80.1570053100586
 20
45.4360218048095
 30
0.0
 11
91.1570053100586
 21
45.4360218048095
 31
0.0
  0
LINE
  5
   2C0
  8
0
  6
CONTINUOUS
 62
   130
 10
81.4070053100586
 20
39.4360218048095
 30
0.0
 11
83.4070053100586
 21
39.4360218048095
 31
0.0
  0
LINE
  5
   2C1
  8
0
  6
CONTINUOUS
 62
   130
 10
72.3596894326191
 20
37.8610218048095
 30
0.0
 11
79.1570053100586
 21
37.8610218048095
 31
0.0
  0
INSERT
  5
   2C2
  8
0
  6
CONTINUOUS
 62
     2
  2
*HATCH114
 10
105.106994628906
 20
-3.71391868591309
 30
0.0
 41
0.5
 42
0.5
 43
0.5
  0
LINE
  5
   2C3
  8
0
  6
CONTINUOUS
 62
   130
 10
79.1217291296485
 20
39.4360218048095
 30
0.0
 11
80.1570053100586
 21
43.2997251099658
 31
0.0
  0
LINE
  5
   2C4
  8
0
  6
CONTINUOUS
 62
   130
 10
78.0864529492385
 20
39.4360218048095
 30
0.0
 11
80.0422605314716
 21
46.7351950715322
 31
0.0
  0
LINE
  5
   2C5
  8
0
  6
CONTINUOUS
 62
   130
 10
77.0511767688284
 20
39.4360218048095
 30
0.0
 11
79.0069843510615
 21
46.7351950715322
 31
0.0
  0
LINE
  5
   2C6
  8
0
  6
CONTINUOUS
 62
   130
 10
76.0159005884183
 20
39.4360218048095
 30
0.0
 11
77.9717081706515
 21
46.7351950715322
 31
0.0
  0
LINE
  5
   2C7
  8
0
  6
CONTINUOUS
 62
   130
 10
74.9806244080082
 20
39.4360218048095
 30
0.0
 11
76.9364319902414
 21
46.7351950715321
 31
0.0
  0
LINE
  5
   2C8
  8
0
  6
CONTINUOUS
 62
   130
 10
73.9453482275982
 20
39.4360218048095
 30
0.0
 11
75.9011558098313
 21
46.7351950715322
 31
0.0
  0
LINE
  5
   2C9
  8
0
  6
CONTINUOUS
 62
   130
 10
73.6570053100586
 20
42.2236146917057
 30
0.0
 11
74.8658796294212
 21
46.7351950715322
 31
0.0
  0
LINE
  5
   2CA
  8
0
  6
DASHDOT
 62
   130
 10
128.15699005127
 20
-33.8154148882972
 30
0.0
 11
128.15699005127
 21
50.1549923310963
 31
0.0
  0
LINE
  5
   2CB
  8
0
  6
CONTINUOUS
 62
   130
 10
91.1570045789084
 20
25.6860256195068
 30
0.0
 11
91.1570045789084
 21
36.4360179901123
 31
0.0
  0
LINE
  5
   2CC
  8
0
  6
CONTINUOUS
 62
   130
 10
128.656997799873
 20
-2.42379462331527
 30
0.0
 11
137.254814997731
 21
-5.02190859226597
 31
0.0
  0
LINE
  5
   2CD
  8
0
  6
CONTINUOUS
 62
   130
 10
137.254842062955
 20
-5.02191671229447
 30
0.0
 11
137.361928654965
 21
-5.08711863688184
 31
0.0
  0
LINE
  5
   2CE
  8
0
  6
CONTINUOUS
 62
   130
 10
137.361909597802
 20
-5.08711161576974
 30
0.0
 11
137.423878658619
 21
-5.19610449526517
 31
0.0
  0
LINE
  5
   2CF
  8
0
  6
CONTINUOUS
 62
   130
 10
137.423888973722
 20
-5.19611080771355
 30
0.0
 11
137.425151771938
 21
-5.32148099785623
 31
0.0
  0
LINE
  5
   2D0
  8
0
  6
CONTINUOUS
 62
   130
 10
137.060685570293
 20
-6.78911026819701
 30
0.0
 11
137.425147141421
 21
-5.3214768111312
 31
0.0
  0
LINE
  5
   2D1
  8
0
  6
CONTINUOUS
 62
   130
 10
136.998056924553
 20
-6.90235118643913
 30
0.0
 11
137.060688651884
 21
-6.78910784979241
 31
0.0
  0
LINE
  5
   2D2
  8
0
  6
CONTINUOUS
 62
   130
 10
136.887196763556
 20
-6.96911029137398
 30
0.0
 11
136.998060129674
 21
-6.90235512951291
 31
0.0
  0
LINE
  5
   2D3
  8
0
  6
CONTINUOUS
 62
   130
 10
136.757820697264
 20
-6.97149070088115
 30
0.0
 11
136.887208346601
 21
-6.96911029901801
 31
0.0
  0
LINE
  5
   2D4
  8
0
  6
CONTINUOUS
 62
   130
 10
128.656997799873
 20
-4.9598364448889
 30
0.0
 11
136.757807885739
 21
-6.97149015563124
 31
0.0
  0
LINE
  5
   2D5
  8
0
  6
CONTINUOUS
 62
   130
 10
91.1570045789084
 20
-23.5639743804932
 30
0.0
 11
91.1570045789084
 21
-3.16397438049317
 31
0.0
  0
LINE
  5
   2D6
  8
0
  6
DOT
 62
   130
 10
91.0230297446251
 20
12.1860199571238
 30
0.0
 11
91.1570043563843
 21
12.1860199571238
 31
0.0
  0
LINE
  5
   2D7
  8
0
  6
CONTINUOUS
 62
   130
 10
91.1570043563843
 20
-22.0639743208303
 30
0.0
 11
91.1570043563843
 21
36.4360179901123
 31
0.0
  0
LINE
  5
   2D8
  8
0
  6
CONTINUOUS
 62
   130
 10
127.156990170479
 20
-15.0639743804932
 30
0.0
 11
127.156990170479
 21
-10.8139667510986
 31
0.0
  0
LINE
  5
   2D9
  8
0
  6
CONTINUOUS
 62
   130
 10
127.156990008151
 20
-10.8139667510986
 30
0.0
 11
129.656997799873
 21
-10.8139667510986
 31
0.0
  0
LINE
  5
   2DA
  8
0
  6
CONTINUOUS
 62
   130
 10
127.156997637546
 20
11.6860332489014
 30
0.0
 11
129.656997799873
 21
11.6860332489014
 31
0.0
  0
LINE
  5
   2DB
  8
0
  6
CONTINUOUS
 62
   130
 10
127.156997799873
 20
11.6860332489014
 30
0.0
 11
127.156997799873
 21
27.9360256195068
 31
0.0
  0
LINE
  5
   2DC
  8
0
  6
CONTINUOUS
 62
   130
 10
129.656997799873
 20
-10.8139667510986
 30
0.0
 11
129.656997799873
 21
11.6860332489014
 31
0.0
  0
LINE
  5
   2DD
  8
0
  6
CONTINUOUS
 62
   130
 10
126.656990170479
 20
-16.3139743804932
 30
0.0
 11
126.656990170479
 21
-15.5639743804932
 31
0.0
  0
LINE
  5
   2DE
  8
0
  6
CONTINUOUS
 62
   130
 10
123.906990170479
 20
-16.3139743804932
 30
0.0
 11
125.906990170479
 21
-16.3139743804932
 31
0.0
  0
LINE
  5
   2DF
  8
0
  6
CONTINUOUS
 62
   130
 10
123.906990170479
 20
-15.5639743804932
 30
0.0
 11
126.656990170479
 21
-15.5639743804932
 31
0.0
  0
LINE
  5
   2E0
  8
0
  6
CONTINUOUS
 62
   130
 10
123.906990170479
 20
28.4360256195068
 30
0.0
 11
126.656997799873
 21
28.4360256195068
 31
0.0
  0
LINE
  5
   2E1
  8
0
  6
CONTINUOUS
 62
   130
 10
126.656990170479
 20
28.4360256195068
 30
0.0
 11
126.656990170479
 21
29.1860256195068
 31
0.0
  0
LINE
  5
   2E2
  8
0
  6
CONTINUOUS
 62
   130
 10
123.906990170479
 20
29.1860256195068
 30
0.0
 11
125.906990170479
 21
29.1860256195068
 31
0.0
  0
LINE
  5
   2E3
  8
0
  6
CONTINUOUS
 62
   130
 10
123.906990170479
 20
28.4360256195068
 30
0.0
 11
123.906990170479
 21
33.9360247797354
 31
0.0
  0
LINE
  5
   2E4
  8
0
  6
CONTINUOUS
 62
   130
 10
92.1570045789084
 20
34.4360247797354
 30
0.0
 11
123.406990170479
 21
34.4360247797354
 31
0.0
  0
ARC
  5
   2E5
  8
0
  6
CONTINUOUS
 62
   130
 10
123.406990170479
 20
33.9360247797354
 30
0.0
 40
0.5
 50
0.0
 51
90.0
  0
ARC
  5
   2E6
  8
0
  6
CONTINUOUS
 62
   130
 10
126.656997799873
 20
27.9360256195068
 30
0.0
 40
0.5
 50
0.0
 51
90.0
  0
LINE
  5
   2E7
  8
0
  6
CONTINUOUS
 62
   130
 10
123.906990170479
 20
-21.0639735407217
 30
0.0
 11
123.906990170479
 21
-15.5639743804932
 31
0.0
  0
ARC
  5
   2E8
  8
0
  6
CONTINUOUS
 62
   130
 10
126.656990170479
 20
-15.0639743804932
 30
0.0
 40
0.5
 50
270.0
 51
360.0
  0
LINE
  5
   2E9
  8
0
  6
CONTINUOUS
 62
   130
 10
91.1570043563843
 20
-21.5639735407217
 30
0.0
 11
123.406990170479
 21
-21.5639735407217
 31
0.0
  0
LINE
  5
   2EA
  8
0
  6
CONTINUOUS
 62
   130
 10
125.156997799873
 20
29.1860256195068
 30
0.0
 11
127.156997799873
 21
29.1860256195068
 31
0.0
  0
LINE
  5
   2EB
  8
0
  6
CONTINUOUS
 62
   130
 10
125.156997799873
 20
-16.3139743804932
 30
0.0
 11
127.156997799873
 21
-16.3139743804932
 31
0.0
  0
LINE
  5
   2EC
  8
0
  6
CONTINUOUS
 62
   130
 10
114.906994669053
 20
-22.5639820098877
 30
0.0
 11
114.906994669053
 21
35.4360256195068
 31
0.0
  0
ARC
  5
   2ED
  8
0
  6
CONTINUOUS
 62
   130
 10
123.406990170479
 20
-21.0639735407217
 30
0.0
 40
0.5
 50
270.0
 51
360.0
  0
LINE
  5
   2EE
  8
0
  6
CONTINUOUS
 62
   130
 10
92.1570045789083
 20
-25.0639781951904
 30
0.0
 11
92.1570045789083
 21
37.9360218048096
 31
0.0
  0
LINE
  5
   2EF
  8
0
  6
CONTINUOUS
 62
   130
 10
92.1570045789083
 20
37.4360256195068
 30
0.0
 11
95.1570053100586
 21
37.4360256195068
 31
0.0
  0
LINE
  5
   2F0
  8
0
  6
CONTINUOUS
 62
   130
 10
92.1570045789083
 20
37.4360256195068
 30
0.0
 11
126.656997799873
 21
37.4360256195068
 31
0.0
  0
LINE
  5
   2F1
  8
0
  6
CONTINUOUS
 62
   130
 10
127.156997799873
 20
29.1860256195068
 30
0.0
 11
127.156997799873
 21
36.9360256195068
 31
0.0
  0
ARC
  5
   2F2
  8
0
  6
CONTINUOUS
 62
   130
 10
126.656997799873
 20
36.9360256195068
 30
0.0
 40
0.5
 50
0.0
 51
90.0
  0
LINE
  5
   2F3
  8
0
  6
CONTINUOUS
 62
   130
 10
92.1570045789083
 20
35.4360256195068
 30
0.0
 11
125.156997799873
 21
35.4360256195068
 31
0.0
  0
LINE
  5
   2F4
  8
0
  6
CONTINUOUS
 62
   130
 10
125.156997799873
 20
29.1860256195068
 30
0.0
 11
125.156997799873
 21
35.4360256195068
 31
0.0
  0
LINE
  5
   2F5
  8
0
  6
CONTINUOUS
 62
   130
 10
92.1570045789083
 20
-24.5639820098877
 30
0.0
 11
126.656997799873
 21
-24.5639820098877
 31
0.0
  0
ARC
  5
   2F6
  8
0
  6
CONTINUOUS
 62
   130
 10
126.656997799873
 20
-24.0639820098877
 30
0.0
 40
0.5
 50
270.0
 51
360.0
  0
LINE
  5
   2F7
  8
0
  6
CONTINUOUS
 62
   130
 10
127.156997799873
 20
-24.0639820098877
 30
0.0
 11
127.156997799873
 21
-16.3139820098877
 31
0.0
  0
LINE
  5
   2F8
  8
0
  6
CONTINUOUS
 62
   130
 10
125.156997799873
 20
-22.5639820098877
 30
0.0
 11
125.156997799873
 21
-16.3139820098877
 31
0.0
  0
LINE
  5
   2F9
  8
0
  6
CONTINUOUS
 62
   130
 10
92.1570045789083
 20
-22.5639820098877
 30
0.0
 11
125.156997799873
 21
-22.5639820098877
 31
0.0
  0
LINE
  5
   2FA
  8
0
  6
DASHDOT
 62
   130
 10
59.0161615517996
 20
0.436033248901392
 30
0.0
 11
151.41933193427
 21
0.436033248901392
 31
0.0
  0
LINE
  5
   2FB
  8
0
  6
DASHDOT
 62
   130
 10
118.300685731241
 20
31.4310758479898
 30
0.0
 11
125.399429369472
 21
31.431081548949
 31
0.0
  0
LINE
  5
   2FC
  8
0
  6
CONTINUOUS
 62
   130
 10
129.65699005127
 20
-23.5639667510986
 30
0.0
 11
129.65699005127
 21
-10.8139667510986
 31
0.0
  0
LINE
  5
   2FD
  8
0
  6
CONTINUOUS
 62
   130
 10
127.40699005127
 20
12.1860332489014
 30
0.0
 11
128.15699005127
 21
12.1860332489014
 31
0.0
  0
LINE
  5
   2FE
  8
0
  6
CONTINUOUS
 62
   130
 10
127.40699005127
 20
12.9360332489014
 30
0.0
 11
128.15699005127
 21
12.9360332489014
 31
0.0
  0
LINE
  5
   2FF
  8
0
  6
CONTINUOUS
 62
   130
 10
127.40699005127
 20
12.1860332489014
 30
0.0
 11
127.40699005127
 21
12.9360332489014
 31
0.0
  0
LINE
  5
   300
  8
0
  6
CONTINUOUS
 62
   130
 10
128.15699005127
 20
24.4360332489014
 30
0.0
 11
129.65699005127
 21
24.4360332489014
 31
0.0
  0
LINE
  5
   301
  8
0
  6
CONTINUOUS
 62
   130
 10
128.15699005127
 20
-23.5639667510986
 30
0.0
 11
129.65699005127
 21
-23.5639667510986
 31
0.0
  0
LINE
  5
   302
  8
0
  6
CONTINUOUS
 62
   130
 10
128.15699005127
 20
-23.5639667510986
 30
0.0
 11
128.15699005127
 21
-12.0639667510986
 31
0.0
  0
LINE
  5
   303
  8
0
  6
CONTINUOUS
 62
   130
 10
127.40699005127
 20
-12.0639667510986
 30
0.0
 11
128.15699005127
 21
-12.0639667510986
 31
0.0
  0
LINE
  5
   304
  8
0
  6
CONTINUOUS
 62
   130
 10
127.40699005127
 20
-12.0639667510986
 30
0.0
 11
127.40699005127
 21
-11.3139667510986
 31
0.0
  0
LINE
  5
   305
  8
0
  6
DOT
 62
   130
 10
128.15699005127
 20
-10.8139667510986
 30
0.0
 11
128.15699005127
 21
11.6860332489014
 31
0.0
  0
LINE
  5
   306
  8
0
  6
CONTINUOUS
 62
   130
 10
129.65699005127
 20
11.6860332489014
 30
0.0
 11
129.65699005127
 21
24.4360332489014
 31
0.0
  0
LINE
  5
   307
  8
0
  6
CONTINUOUS
 62
   130
 10
127.15699005127
 20
17.1860332489014
 30
0.0
 11
128.15699005127
 21
17.1860332489014
 31
0.0
  0
LINE
  5
   308
  8
0
  6
CONTINUOUS
 62
   130
 10
127.15699005127
 20
15.6860332489014
 30
0.0
 11
128.15699005127
 21
15.6860332489014
 31
0.0
  0
LINE
  5
   309
  8
0
  6
CONTINUOUS
 62
   130
 10
127.15699005127
 20
15.3110332489014
 30
0.0
 11
127.15699005127
 21
17.5610332489014
 31
0.0
  0
LINE
  5
   30A
  8
0
  6
DOT
 62
   130
 10
126.15699005127
 20
16.886524732059
 30
0.0
 11
127.15699005127
 21
17.5610332489014
 31
0.0
  0
LINE
  5
   30B
  8
0
  6
DOT
 62
   130
 10
126.15699005127
 20
15.9855417657438
 30
0.0
 11
127.15699005127
 21
15.3110332489014
 31
0.0
  0
LINE
  5
   30C
  8
0
  6
DOT
 62
   130
 10
126.15699005127
 20
15.9855417657438
 30
0.0
 11
126.15699005127
 21
16.886524732059
 31
0.0
  0
LINE
  5
   30D
  8
0
  6
DOT
 62
   130
 10
126.15699005127
 20
-16.0144582342562
 30
0.0
 11
127.15699005127
 21
-16.6889667510986
 31
0.0
  0
LINE
  5
   30E
  8
0
  6
DOT
 62
   130
 10
126.15699005127
 20
-16.0144582342562
 30
0.0
 11
126.15699005127
 21
-15.113475267941
 31
0.0
  0
LINE
  5
   30F
  8
0
  6
DOT
 62
   130
 10
126.15699005127
 20
-15.113475267941
 30
0.0
 11
127.15699005127
 21
-14.4389667510986
 31
0.0
  0
LINE
  5
   310
  8
0
  6
CONTINUOUS
 62
   130
 10
127.15699005127
 20
-16.6889667510986
 30
0.0
 11
127.15699005127
 21
-14.4389667510986
 31
0.0
  0
LINE
  5
   311
  8
0
  6
CONTINUOUS
 62
   130
 10
127.15699005127
 20
-16.3139667510986
 30
0.0
 11
128.15699005127
 21
-16.3139667510986
 31
0.0
  0
LINE
  5
   312
  8
0
  6
CONTINUOUS
 62
   130
 10
127.15699005127
 20
-14.8139667510986
 30
0.0
 11
128.15699005127
 21
-14.8139667510986
 31
0.0
  0
LINE
  5
   313
  8
0
  6
CONTINUOUS
 62
   130
 10
128.15699005127
 20
12.1860332489014
 30
0.0
 11
129.65699005127
 21
12.1860332489014
 31
0.0
  0
LINE
  5
   314
  8
0
  6
CONTINUOUS
 62
   130
 10
127.40699005127
 20
-11.3139667510986
 30
0.0
 11
129.65699005127
 21
-11.3139667510986
 31
0.0
  0
INSERT
  5
   315
  8
0
  6
CONTINUOUS
 62
     2
  2
*HATCH115
 10
105.106994628906
 20
-3.71391868591309
 30
0.0
 41
0.5
 42
0.5
 43
0.5
  0
INSERT
  5
   316
  8
0
  6
CONTINUOUS
 62
     2
  2
*HATCH116
 10
105.106994628906
 20
-3.71391868591309
 30
0.0
 41
0.5
 42
0.5
 43
0.5
  0
LINE
  5
   317
  8
0
  6
DASHDOT
 62
   130
 10
127.40699005127
 20
-34.0815508018459
 30
0.0
 11
127.40699005127
 21
50.4166017498791
 31
0.0
  0
LINE
  5
   318
  8
0
  6
DASHDOT
 62
   130
 10
137.657004578908
 20
-8.10842760200937
 30
0.0
 11
137.657004578908
 21
-4.38428529295736
 31
0.0
  0
LINE
  5
   319
  8
0
  6
CONTINUOUS
 62
   130
 10
126.906997799873
 20
37.1860256195068
 30
0.0
 11
128.656997799873
 21
37.1860256195068
 31
0.0
  0
LINE
  5
   31A
  8
0
  6
CONTINUOUS
 62
   130
 10
126.906997799873
 20
34.6860256195068
 30
0.0
 11
128.656997799873
 21
34.6860256195068
 31
0.0
  0
LINE
  5
   31B
  8
0
  6
CONTINUOUS
 62
   130
 10
128.906997799873
 20
34.9360256195068
 30
0.0
 11
128.906997799873
 21
36.9360256195068
 31
0.0
  0
CIRCLE
  5
   31C
  8
0
  6
CONTINUOUS
 62
   130
 10
127.906997799873
 20
35.9360256195068
 30
0.0
 40
0.375
  0
LINE
  5
   31D
  8
0
  6
CONTINUOUS
 62
   130
 10
128.656997799873
 20
37.1860256195068
 30
0.0
 11
128.906997799873
 21
36.9360256195068
 31
0.0
  0
LINE
  5
   31E
  8
0
  6
CONTINUOUS
 62
   130
 10
128.656997799873
 20
34.6860256195068
 30
0.0
 11
128.906997799873
 21
34.9360256195068
 31
0.0
  0
LINE
  5
   31F
  8
0
  6
CONTINUOUS
 62
   130
 10
128.656997799873
 20
34.6860256195068
 30
0.0
 11
128.656997799873
 21
37.1860256195068
 31
0.0
  0
LINE
  5
   320
  8
0
  6
CONTINUOUS
 62
   130
 10
126.906997799873
 20
-24.3139743804932
 30
0.0
 11
128.656997799873
 21
-24.3139743804932
 31
0.0
  0
LINE
  5
   321
  8
0
  6
CONTINUOUS
 62
   130
 10
128.656997799873
 20
-24.3139743804932
 30
0.0
 11
128.656997799873
 21
-21.8139743804932
 31
0.0
  0
LINE
  5
   322
  8
0
  6
CONTINUOUS
 62
   130
 10
126.906997799873
 20
-21.8139743804932
 30
0.0
 11
128.656997799873
 21
-21.8139743804932
 31
0.0
  0
LINE
  5
   323
  8
0
  6
CONTINUOUS
 62
   130
 10
128.656997799873
 20
-24.3139743804932
 30
0.0
 11
128.906997799873
 21
-24.0639743804932
 31
0.0
  0
LINE
  5
   324
  8
0
  6
CONTINUOUS
 62
   130
 10
128.906997799873
 20
-24.0639743804932
 30
0.0
 11
128.906997799873
 21
-22.0639743804932
 31
0.0
  0
LINE
  5
   325
  8
0
  6
CONTINUOUS
 62
   130
 10
128.656997799873
 20
-21.8139743804932
 30
0.0
 11
128.906997799873
 21
-22.0639743804932
 31
0.0
  0
CIRCLE
  5
   326
  8
0
  6
CONTINUOUS
 62
   130
 10
127.906997799873
 20
-23.0639743804932
 30
0.0
 40
0.375
  0
CIRCLE
  5
   327
  8
0
  6
CONTINUOUS
 62
   130
 10
132.533554309062
 20
71.0403053541529
 30
0.0
 40
1.0
  0
CIRCLE
  5
   328
  8
0
  6
CONTINUOUS
 62
   130
 10
87.4834946102686
 20
73.0112454659751
 30
0.0
 40
1.0
  0
INSERT
  5
   329
  8
0
  6
CONTINUOUS
 62
     2
  2
*HATCH117
 10
105.106994628906
 20
-3.71391868591309
 30
0.0
 41
0.5
 42
0.5
 43
0.5
  0
INSERT
  5
   32A
  8
0
  6
CONTINUOUS
 62
     2
  2
*HATCH118
 10
105.106994628906
 20
-3.71391868591309
 30
0.0
 41
0.5
 42
0.5
 43
0.5
  0
LINE
  5
   32B
  8
0
  6
CONTINUOUS
 62
     7
 10
88.6570053100586
 20
40.9360218048096
 30
0.0
 11
88.6570053100586
 21
43.9360218048096
 31
0.0
  0
LINE
  5
   32C
  8
0
  6
CONTINUOUS
 62
     7
 10
91.4070053100586
 20
39.6651362707668
 30
0.0
 11
91.4070053100586
 21
45.2069073388523
 31
0.0
  0
LINE
  5
   32D
  8
0
  6
CONTINUOUS
 62
     7
 10
81.6570053100586
 20
40.9360218048096
 30
0.0
 11
82.4070053100586
 21
40.9360218048096
 31
0.0
  0
LINE
  5
   32E
  8
0
  6
CONTINUOUS
 62
     7
 10
81.6570053100586
 20
43.9360218048096
 30
0.0
 11
82.4070053100586
 21
43.9360218048096
 31
0.0
  0
ARC
  5
   32F
  8
0
  6
CONTINUOUS
 62
     7
 10
86.2070053100586
 20
42.4360218048096
 30
0.0
 40
6.0
 50
332.615940274844
 51
358.08978682829
  0
LINE
  5
   330
  8
0
  6
CONTINUOUS
 62
     7
 10
89.9070053100586
 20
39.5339021066284
 30
0.0
 11
91.5346656085789
 21
39.6763051991468
 31
0.0
  0
LINE
  5
   331
  8
0
  6
CONTINUOUS
 62
     7
 10
89.9070053100586
 20
45.3381415029907
 30
0.0
 11
91.5346656085789
 21
45.1957384104723
 31
0.0
  0
LINE
  5
   332
  8
0
  6
CONTINUOUS
 62
     7
 10
89.9070053100586
 20
39.5339021066284
 30
0.0
 11
89.9070053100586
 21
45.3381415029907
 31
0.0
  0
LINE
  5
   333
  8
0
  6
CONTINUOUS
 62
     7
 10
81.4070053100586
 20
41.2427368048096
 30
0.0
 11
88.6570053100586
 21
41.2427368048096
 31
0.0
  0
LINE
  5
   334
  8
0
  6
CONTINUOUS
 62
     2
 10
81.4070053100586
 20
43.6293068048096
 30
0.0
 11
88.6570053100586
 21
43.6293068048096
 31
0.0
  0
LINE
  5
   335
  8
0
  6
DASHDOT
 62
     7
 10
81.9070057868958
 20
42.4360218048096
 30
0.0
 11
96.9998342555041
 21
42.4360218048096
 31
0.0
  0
LINE
  5
   336
  8
0
  6
CONTINUOUS
 62
     7
 10
91.8070053100586
 20
42.2360218048096
 30
0.0
 11
91.8070053100586
 21
42.6360218048096
 31
0.0
  0
LINE
  5
   337
  8
0
  6
CONTINUOUS
 62
     7
 10
91.8070053100586
 20
42.2360218048096
 30
0.0
 11
92.2036710502846
 21
42.2360218048096
 31
0.0
  0
LINE
  5
   338
  8
0
  6
CONTINUOUS
 62
     7
 10
91.8070053100586
 20
42.6360218048096
 30
0.0
 11
92.2036710502846
 21
42.6360218048096
 31
0.0
  0
ARC
  5
   339
  8
0
  6
CONTINUOUS
 62
     7
 10
86.2070053100586
 20
42.4360218048096
 30
0.0
 40
6.0
 50
1.9102131717099
 51
27.3840597251555
  0
LINE
  5
   33A
  8
0
  6
CONTINUOUS
 62
   130
 10
92.6570053100586
 20
44.1860218048096
 30
0.0
 11
95.1570053100586
 21
44.1860218048096
 31
0.0
  0
LINE
  5
   33B
  8
0
  6
CONTINUOUS
 62
   130
 10
95.1570053100586
 20
38.4360218048096
 30
0.0
 11
95.1570053100586
 21
46.9360218048096
 31
0.0
  0
LINE
  5
   33C
  8
0
  6
CONTINUOUS
 62
   130
 10
92.1570045789083
 20
37.9360218048096
 30
0.0
 11
94.6570053100586
 21
37.9360218048096
 31
0.0
  0
LINE
  5
   33D
  8
0
  6
CONTINUOUS
 62
   130
 10
92.6570053100586
 20
39.9360218048096
 30
0.0
 11
92.6570053100586
 21
44.9360218048096
 31
0.0
  0
LINE
  5
   33E
  8
0
  6
CONTINUOUS
 62
   130
 10
92.6570053100586
 20
40.6860218048096
 30
0.0
 11
95.1570053100586
 21
40.6860218048096
 31
0.0
  0
LINE
  5
   33F
  8
0
  6
CONTINUOUS
 62
   130
 10
92.6570053100586
 20
44.9360218048096
 30
0.0
 11
94.1570053100586
 21
44.9360218048096
 31
0.0
  0
LINE
  5
   340
  8
0
  6
CONTINUOUS
 62
   130
 10
92.6570053100586
 20
39.9360218048096
 30
0.0
 11
94.1570053100586
 21
39.9360218048096
 31
0.0
  0
LINE
  5
   341
  8
0
  6
CONTINUOUS
 62
   130
 10
94.1570053100586
 20
38.9360218048096
 30
0.0
 11
94.1570053100586
 21
39.9360218048096
 31
0.0
  0
LINE
  5
   342
  8
0
  6
CONTINUOUS
 62
   130
 10
91.1570053100586
 20
46.4360218048096
 30
0.0
 11
94.1570053100586
 21
46.4360218048096
 31
0.0
  0
LINE
  5
   343
  8
0
  6
CONTINUOUS
 62
   130
 10
91.1570053100586
 20
38.9360218048096
 30
0.0
 11
94.1570053100586
 21
38.9360218048096
 31
0.0
  0
LINE
  5
   344
  8
0
  6
CONTINUOUS
 62
   130
 10
94.1570053100586
 20
44.9360218048096
 30
0.0
 11
94.1570053100586
 21
46.4360218048096
 31
0.0
  0
LINE
  5
   345
  8
0
  6
CONTINUOUS
 62
   130
 10
95.1570053100586
 20
-34.0639781951904
 30
0.0
 11
95.1570053100586
 21
-25.5639781951904
 31
0.0
  0
LINE
  5
   346
  8
0
  6
CONTINUOUS
 62
   130
 10
92.1570045789083
 20
-25.0639781951904
 30
0.0
 11
94.6570053100586
 21
-25.0639781951904
 31
0.0
  0
LINE
  5
   347
  8
0
  6
DOT
 62
   130
 10
92.6570053100586
 20
-27.8139781951904
 30
0.0
 11
95.1570053100586
 21
-27.8139781951904
 31
0.0
  0
LINE
  5
   348
  8
0
  6
DOT
 62
   130
 10
92.6570053100586
 20
-31.3139781951904
 30
0.0
 11
95.1570053100586
 21
-31.3139781951904
 31
0.0
  0
LINE
  5
   349
  8
0
  6
DOT
 62
   130
 10
92.6570053100586
 20
-27.0639781951904
 30
0.0
 11
94.1570053100586
 21
-27.0639781951904
 31
0.0
  0
LINE
  5
   34A
  8
0
  6
DOT
 62
   130
 10
92.6570053100586
 20
-32.0639781951904
 30
0.0
 11
94.1570053100586
 21
-32.0639781951904
 31
0.0
  0
LINE
  5
   34B
  8
0
  6
DOT
 62
   130
 10
94.1570053100586
 20
-33.5639781951904
 30
0.0
 11
94.1570053100586
 21
-32.0639781951904
 31
0.0
  0
LINE
  5
   34C
  8
0
  6
DOT
 62
   130
 10
91.1570053100586
 20
-26.0639781951904
 30
0.0
 11
94.1570053100586
 21
-26.0639781951904
 31
0.0
  0
LINE
  5
   34D
  8
0
  6
DOT
 62
   130
 10
91.1570053100586
 20
-33.5639781951904
 30
0.0
 11
94.1570053100586
 21
-33.5639781951904
 31
0.0
  0
LINE
  5
   34E
  8
0
  6
DOT
 62
   130
 10
92.6570053100586
 20
-32.0639781951904
 30
0.0
 11
92.6570053100586
 21
-27.0639781951904
 31
0.0
  0
LINE
  5
   34F
  8
0
  6
DOT
 62
   130
 10
94.1570053100586
 20
-27.0639781951904
 30
0.0
 11
94.1570053100586
 21
-26.0639781951904
 31
0.0
  0
LINE
  5
   350
  8
0
  6
CONTINUOUS
 62
     7
 10
81.6570053100586
 20
40.9360218048096
 30
0.0
 11
81.6570053100586
 21
43.9360218048096
 31
0.0
  0
LINE
  5
   351
  8
0
  6
CONTINUOUS
 62
     7
 10
81.4070053100586
 20
43.6860218048096
 30
0.0
 11
81.6570053100586
 21
43.9360218048096
 31
0.0
  0
LINE
  5
   352
  8
0
  6
CONTINUOUS
 62
     7
 10
81.4070053100586
 20
41.1860218048096
 30
0.0
 11
81.6570053100586
 21
40.9360218048096
 31
0.0
  0
ARC
  5
   353
  8
0
  6
CONTINUOUS
 62
   130
 10
94.6570053100586
 20
46.9360218048096
 30
0.0
 40
0.5
 50
0.0
 51
90.0
  0
ARC
  5
   354
  8
0
  6
CONTINUOUS
 62
   130
 10
94.6570053100586
 20
38.4360218048096
 30
0.0
 40
0.5
 50
270.0
 51
360.0
  0
ARC
  5
   355
  8
0
  6
CONTINUOUS
 62
   130
 10
94.6570053100586
 20
-25.5639781951904
 30
0.0
 40
0.5
 50
0.0
 51
90.0
  0
ARC
  5
   356
  8
0
  6
CONTINUOUS
 62
   130
 10
94.6570053100586
 20
-34.0639781951904
 30
0.0
 40
0.5
 50
270.0
 51
360.0
  0
LINE
  5
   357
  8
0
  6
CONTINUOUS
 62
   130
 10
91.1570053100586
 20
45.228779699542
 30
0.0
 11
91.1570053100586
 21
47.4360218048096
 31
0.0
  0
INSERT
  5
   358
  8
0
  6
CONTINUOUS
 62
     2
  2
*HATCH119
 10
105.106994628906
 20
-3.71391868591309
 30
0.0
 41
0.5
 42
0.5
 43
0.5
  0
INSERT
  5
   359
  8
0
  6
CONTINUOUS
 62
     2
  2
*HATCH120
 10
105.106994628906
 20
-3.71391868591309
 30
0.0
 41
0.5
 42
0.5
 43
0.5
  0
LINE
  5
   35A
  8
0
  6
CONTINUOUS
 62
     2
 10
82.4070053100586
 20
43.6293068048096
 30
0.0
 11
83.4070053100586
 21
43.6293068048096
 31
0.0
  0
LINE
  5
   35B
  8
0
  6
CONTINUOUS
 62
     2
 10
82.4070053100586
 20
41.2427368048096
 30
0.0
 11
83.4070053100586
 21
41.2427368048096
 31
0.0
  0
LINE
  5
   35C
  8
0
  6
CONTINUOUS
 62
     7
 10
83.4070053100586
 20
43.9360218048096
 30
0.0
 11
89.9070053100586
 21
43.9360218048096
 31
0.0
  0
LINE
  5
   35D
  8
0
  6
CONTINUOUS
 62
     2
 10
82.4070053100586
 20
43.9360218048096
 30
0.0
 11
83.4070053100586
 21
43.9360218048096
 31
0.0
  0
LINE
  5
   35E
  8
0
  6
CONTINUOUS
 62
     7
 10
82.4070053100586
 20
40.9360218048096
 30
0.0
 11
83.4070053100586
 21
40.9360218048096
 31
0.0
  0
LINE
  5
   35F
  8
0
  6
CONTINUOUS
 62
     7
 10
83.4070053100586
 20
40.9360218048096
 30
0.0
 11
89.9070053100586
 21
40.9360218048096
 31
0.0
  0
INSERT
  5
   360
  8
0
  6
CONTINUOUS
 62
     2
  2
*HATCH121
 10
105.106994628906
 20
-3.71391868591309
 30
0.0
 41
0.5
 42
0.5
 43
0.5
  0
INSERT
  5
   361
  8
0
  6
CONTINUOUS
 62
     2
  2
*HATCH122
 10
105.106994628906
 20
-3.71391868591309
 30
0.0
 41
0.5
 42
0.5
 43
0.5
  0
LINE
  5
   362
  8
0
  6
DOT
 62
     7
 10
83.4070053100586
 20
-28.0639781951904
 30
0.0
 11
89.9070053100586
 21
-28.0639781951904
 31
0.0
  0
LINE
  5
   363
  8
0
  6
DOT
 62
     7
 10
88.6570053100586
 20
-31.0639781951904
 30
0.0
 11
88.6570053100586
 21
-28.0639781951904
 31
0.0
  0
LINE
  5
   364
  8
0
  6
DOT
 62
     7
 10
89.9070053100586
 20
-32.4660978933716
 30
0.0
 11
89.9070053100586
 21
-26.6618584970093
 31
0.0
  0
LINE
  5
   365
  8
0
  6
DOT
 62
     7
 10
91.4070053100586
 20
-32.3348637292332
 30
0.0
 11
91.4070053100586
 21
-26.7930926611477
 31
0.0
  0
ARC
  5
   366
  8
0
  6
DOT
 62
     7
 10
86.2070053100586
 20
-29.5639781951904
 30
0.0
 40
6.0
 50
332.615940274844
 51
358.08978682829
  0
ARC
  5
   367
  8
0
  6
DOT
 62
     7
 10
86.2070053100586
 20
-29.5639781951904
 30
0.0
 40
6.0
 50
1.9102131717099
 51
27.3840597251555
  0
LINE
  5
   368
  8
0
  6
DOT
 62
     7
 10
89.9070053100586
 20
-32.4660978933716
 30
0.0
 11
91.5346656085789
 21
-32.3236948008532
 31
0.0
  0
LINE
  5
   369
  8
0
  6
DOT
 62
     7
 10
89.9070053100586
 20
-26.6618584970093
 30
0.0
 11
91.5346656085789
 21
-26.8042615895277
 31
0.0
  0
LINE
  5
   36A
  8
0
  6
DOT
 62
     7
 10
81.6570053100586
 20
-28.0639781951904
 30
0.0
 11
82.4070053100586
 21
-28.0639781951904
 31
0.0
  0
LINE
  5
   36B
  8
0
  6
DOT
 62
     7
 10
81.4070053100586
 20
-28.3139781951904
 30
0.0
 11
81.6570053100586
 21
-28.0639781951904
 31
0.0
  0
LINE
  5
   36C
  8
0
  6
DOT
 62
     7
 10
81.6570053100586
 20
-31.0639781951904
 30
0.0
 11
81.6570053100586
 21
-28.0639781951904
 31
0.0
  0
LINE
  5
   36D
  8
0
  6
DOT
 62
     2
 10
82.4070053100586
 20
-28.3706931951904
 30
0.0
 11
83.4070053100586
 21
-28.3706931951904
 31
0.0
  0
LINE
  5
   36E
  8
0
  6
DOT
 62
     7
 10
81.4070053100586
 20
-30.8139781951904
 30
0.0
 11
81.6570053100586
 21
-31.0639781951904
 31
0.0
  0
LINE
  5
   36F
  8
0
  6
DOT
 62
     7
 10
81.6570053100586
 20
-31.0639781951904
 30
0.0
 11
82.4070053100586
 21
-31.0639781951904
 31
0.0
  0
LINE
  5
   370
  8
0
  6
DOT
 62
     7
 10
83.4070053100586
 20
-31.0639781951904
 30
0.0
 11
89.9070053100586
 21
-31.0639781951904
 31
0.0
  0
LINE
  5
   371
  8
0
  6
DOT
 62
     2
 10
81.4070053100586
 20
-28.3706931951904
 30
0.0
 11
82.4070053100586
 21
-28.3706931951904
 31
0.0
  0
LINE
  5
   372
  8
0
  6
DOT
 62
     7
 10
88.6570053100586
 20
-31.0639781951904
 30
0.0
 11
88.6570053100586
 21
-28.0639781951904
 31
0.0
  0
LINE
  5
   373
  8
0
  6
DOT
 62
     7
 10
91.8070053100586
 20
-29.3639781951904
 30
0.0
 11
92.2036710502846
 21
-29.3639781951904
 31
0.0
  0
LINE
  5
   374
  8
0
  6
DOT
 62
     7
 10
91.8070053100586
 20
-29.7639781951904
 30
0.0
 11
92.2036710502846
 21
-29.7639781951904
 31
0.0
  0
LINE
  5
   375
  8
0
  6
DASHDOT
 62
     7
 10
81.9070057868958
 20
-29.5639781951904
 30
0.0
 11
96.9998342555041
 21
-29.5639781951904
 31
0.0
  0
LINE
  5
   376
  8
0
  6
DOT
 62
     7
 10
91.8070053100586
 20
-29.7639781951904
 30
0.0
 11
91.8070053100586
 21
-29.3639781951904
 31
0.0
  0
LINE
  5
   377
  8
0
  6
DOT
 62
     2
 10
81.4070053100586
 20
-30.7572631951904
 30
0.0
 11
82.4070053100586
 21
-30.7572631951904
 31
0.0
  0
LINE
  5
   378
  8
0
  6
DOT
 62
     2
 10
82.4070053100586
 20
-28.0639781951904
 30
0.0
 11
83.4070053100586
 21
-28.0639781951904
 31
0.0
  0
LINE
  5
   379
  8
0
  6
DOT
 62
     7
 10
82.4070053100586
 20
-31.0639781951904
 30
0.0
 11
83.4070053100586
 21
-31.0639781951904
 31
0.0
  0
LINE
  5
   37A
  8
0
  6
DOT
 62
     2
 10
82.4070053100586
 20
-30.7572631951904
 30
0.0
 11
83.4070053100586
 21
-30.7572631951904
 31
0.0
  0
LINE
  5
   37B
  8
0
  6
DOT
 62
     2
 10
83.4070053100586
 20
-28.3706931951904
 30
0.0
 11
88.6570053100586
 21
-28.3706931951904
 31
0.0
  0
LINE
  5
   37C
  8
0
  6
DOT
 62
     2
 10
83.4070053100586
 20
-30.7572631951904
 30
0.0
 11
88.6570053100586
 21
-30.7572631951904
 31
0.0
  0
LINE
  5
   37D
  8
0
  6
DOT
 62
   130
 10
91.1570053100586
 20
39.6432639100771
 30
0.0
 11
91.1570053100586
 21
45.228779699542
 31
0.0
  0
TEXT
  5
   37E
  8
0
  6
CONTINUOUS
 62
     2
 10
135.349182128906
 20
71.5403079539538
 30
0.0
 40
2.00000008940697
  1
127mm.CON VITI SIGILLABILI
 41
0.75
 11
135.349182128906
 21
72.5403079986572
 31
0.0
 73
     2
  0
TEXT
  5
   37F
  8
0
  6
CONTINUOUS
 62
     2
 10
135.349182128906
 20
68.5403079539537
 30
0.0
 40
2.00000008940697
  1
127mm.WITH SCREWS TO SEAL
 41
0.75
 11
135.349182128906
 21
69.5403079986572
 31
0.0
 73
     2
  0
TEXT
  5
   380
  8
0
  6
CONTINUOUS
 62
     2
 10
152.188641279936
 20
-1.10003949701786
 30
0.0
 40
3.00000002980232
  1
X
 41
0.983333351877
 72
     2
 11
154.388641357422
 21
0.399960517883301
 31
0.0
 73
     2
  0
TEXT
  5
   381
  8
0
  6
CONTINUOUS
 62
     2
 10
56.2937743365765
 20
-1.06439210474491
 30
0.0
 40
3.00000002980232
  1
X
 41
0.983333351877
 72
     2
 11
58.4937744140625
 21
0.43560791015625
 31
0.0
 73
     2
  0
INSERT
  5
   382
  8
0
  6
CONTINUOUS
 62
     3
  2
*UDIM260
 10
0.0
 20
0.0
 30
0.0
  0
INSERT
  5
   383
  8
0
  6
CONTINUOUS
 62
     3
  2
*UDIM261
 10
0.0
 20
0.0
 30
0.0
  0
INSERT
  5
   384
  8
0
  6
CONTINUOUS
 62
     3
  2
*UDIM262
 10
0.0
 20
0.0
 30
0.0
  0
INSERT
  5
   385
  8
0
  6
CONTINUOUS
 62
     3
  2
*UDIM263
 10
0.0
 20
0.0
 30
0.0
  0
INSERT
  5
   386
  8
0
  6
CONTINUOUS
 62
     3
  2
*UDIM264
 10
0.0
 20
0.0
 30
0.0
  0
INSERT
  5
   387
  8
0
  6
CONTINUOUS
 62
     3
  2
*UDIM265
 10
0.0
 20
0.0
 30
0.0
  0
INSERT
  5
   388
  8
0
  6
CONTINUOUS
 62
     3
  2
*UDIM266
 10
0.0
 20
0.0
 30
0.0
  0
TEXT
  5
   389
  8
0
  6
CONTINUOUS
 62
     2
 10
140.226177951276
 20
49.751235634024
 30
0.0
 40
3.5
  1
:
 41
0.933333333333334
 72
     1
 11
141.509511284609
 21
51.501235634024
 31
0.0
 73
     2
  0
INSERT
  5
   38A
  8
0
  6
CONTINUOUS
 62
     7
  2
*UDIM267
 10
0.0
 20
0.0
 30
0.0
  0
INSERT
  5
   38B
  8
0
  6
CONTINUOUS
 62
     7
  2
*UDIM268
 10
0.0
 20
0.0
 30
0.0
  0
INSERT
  5
   38C
  8
0
  6
CONTINUOUS
 62
     7
  2
*UDIM269
 10
0.0
 20
0.0
 30
0.0
  0
INSERT
  5
   38D
  8
0
  6
CONTINUOUS
 62
     7
  2
*UDIM270
 10
0.0
 20
0.0
 30
0.0
  0
CIRCLE
  5
   38E
  8
0
  6
CONTINUOUS
 62
   130
 10
-24.7504577636719
 20
-96.8560028076172
 30
0.0
 40
1.0
  0
CIRCLE
  5
   38F
  8
0
  6
CONTINUOUS
 62
   130
 10
-12.2504577636719
 20
-96.8560028076172
 30
0.0
 40
1.0
  0
CIRCLE
  5
   390
  8
0
  6
CONTINUOUS
 62
   130
 10
-23.5004577636719
 20
-168.856002807617
 30
0.0
 40
1.0
  0
CIRCLE
  5
   391
  8
0
  6
CONTINUOUS
 62
   130
 10
-12.2504577636719
 20
-168.856002807617
 30
0.0
 40
1.0
  0
LINE
  5
   392
  8
0
  6
CONTINUOUS
 62
   130
 10
-43.7794807898108
 20
-86.0030498603568
 30
0.0
 11
6.36131507097133
 21
-86.0030498603568
 31
0.0
  0
LINE
  5
   393
  8
0
  6
CONTINUOUS
 62
   130
 10
-43.7794807898108
 20
-182.156671506657
 30
0.0
 11
6.36131507097133
 21
-182.156671506657
 31
0.0
  0
LINE
  5
   394
  8
0
  6
DASHDOT
 62
   130
 10
-24.7504577636719
 20
-101.856002807617
 30
0.0
 11
-24.7504577636719
 21
-91.8560028076172
 31
0.0
  0
LINE
  5
   395
  8
0
  6
DASHDOT
 62
   130
 10
-29.7504577636719
 20
-96.8560028076172
 30
0.0
 11
-19.7504577636719
 21
-96.8560028076172
 31
0.0
  0
LINE
  5
   396
  8
0
  6
DASHDOT
 62
   130
 10
-12.2504577636719
 20
-101.856002807617
 30
0.0
 11
-12.2504577636719
 21
-91.8560028076172
 31
0.0
  0
LINE
  5
   397
  8
0
  6
DASHDOT
 62
   130
 10
-17.2504577636719
 20
-96.8560028076172
 30
0.0
 11
-7.25045776367188
 21
-96.8560028076172
 31
0.0
  0
LINE
  5
   398
  8
0
  6
DASHDOT
 62
   130
 10
-23.5004577636719
 20
-174.856002807617
 30
0.0
 11
-23.5004577636719
 21
-162.856002807617
 31
0.0
  0
LINE
  5
   399
  8
0
  6
DASHDOT
 62
   130
 10
-30.7504577636719
 20
-168.856002807617
 30
0.0
 11
-18.7504577636719
 21
-168.856002807617
 31
0.0
  0
LINE
  5
   39A
  8
0
  6
DASHDOT
 62
   130
 10
-12.2504577636719
 20
-173.856002807617
 30
0.0
 11
-12.2504577636719
 21
-163.856002807617
 31
0.0
  0
LINE
  5
   39B
  8
0
  6
DASHDOT
 62
   130
 10
-16.0004577636719
 20
-168.856002807617
 30
0.0
 11
-6.00045776367188
 21
-168.856002807617
 31
0.0
  0
CIRCLE
  5
   39C
  8
0
  6
CONTINUOUS
 62
   130
 10
-31.0004577636719
 20
-124.106002807617
 30
0.0
 40
1.0
  0
CIRCLE
  5
   39D
  8
0
  6
CONTINUOUS
 62
   130
 10
-6.00045776367188
 20
-124.106002807617
 30
0.0
 40
1.0
  0
CIRCLE
  5
   39E
  8
0
  6
CONTINUOUS
 62
   130
 10
-31.0004577636719
 20
-141.606002807617
 30
0.0
 40
1.0
  0
CIRCLE
  5
   39F
  8
0
  6
CONTINUOUS
 62
   130
 10
-6.00045776367188
 20
-141.606002807617
 30
0.0
 40
1.0
  0
LINE
  5
   3A0
  8
0
  6
DASHDOT
 62
   130
 10
-31.0004577636719
 20
-129.106002807617
 30
0.0
 11
-31.0004577636719
 21
-119.106002807617
 31
0.0
  0
LINE
  5
   3A1
  8
0
  6
DASHDOT
 62
   130
 10
-34.7504577636719
 20
-124.106002807617
 30
0.0
 11
-24.7504577636719
 21
-124.106002807617
 31
0.0
  0
LINE
  5
   3A2
  8
0
  6
DASHDOT
 62
   130
 10
-6.00045776367188
 20
-129.106002807617
 30
0.0
 11
-6.00045776367188
 21
-119.106002807617
 31
0.0
  0
LINE
  5
   3A3
  8
0
  6
DASHDOT
 62
   130
 10
-11.0004577636719
 20
-124.106002807617
 30
0.0
 11
-1.00045776367188
 21
-124.106002807617
 31
0.0
  0
LINE
  5
   3A4
  8
0
  6
DASHDOT
 62
   130
 10
-31.0004577636719
 20
-146.606002807617
 30
0.0
 11
-31.0004577636719
 21
-136.606002807617
 31
0.0
  0
LINE
  5
   3A5
  8
0
  6
DASHDOT
 62
   130
 10
-34.7504577636719
 20
-141.606002807617
 30
0.0
 11
-24.7504577636719
 21
-141.606002807617
 31
0.0
  0
LINE
  5
   3A6
  8
0
  6
DASHDOT
 62
   130
 10
-6.00045776367188
 20
-146.606002807617
 30
0.0
 11
-6.00045776367188
 21
-136.606002807617
 31
0.0
  0
LINE
  5
   3A7
  8
0
  6
DASHDOT
 62
   130
 10
-8.50045776367188
 20
-141.606002807617
 30
0.0
 11
1.49954223632813
 21
-141.606002807617
 31
0.0
  0
LINE
  5
   3A8
  8
0
  6
CONTINUOUS
 62
   130
 10
-43.7794807898108
 20
-182.156671506657
 30
0.0
 11
-43.7794807898108
 21
-86.0030498603568
 31
0.0
  0
LINE
  5
   3A9
  8
0
  6
CONTINUOUS
 62
   130
 10
6.36131507097133
 20
-182.156671506657
 30
0.0
 11
6.36131507097133
 21
-86.0030498603568
 31
0.0
  0
LINE
  5
   3AA
  8
0
  6
CONTINUOUS
 62
   130
 10
-49.5864255188362
 20
-117.856002807617
 30
0.0
 11
10.1192187081292
 21
-117.856002807617
 31
0.0
  0
LINE
  5
   3AB
  8
0
  6
CONTINUOUS
 62
   130
 10
-49.5864255188362
 20
-147.856002807617
 30
0.0
 11
10.1192187081292
 21
-147.856002807617
 31
0.0
  0
LINE
  5
   3AC
  8
0
  6
CONTINUOUS
 62
   130
 10
10.1192187081292
 20
-147.856002807617
 30
0.0
 11
10.1192187081292
 21
-117.856002807617
 31
0.0
  0
LINE
  5
   3AD
  8
0
  6
CONTINUOUS
 62
   130
 10
-49.5864255188362
 20
-147.856002807617
 30
0.0
 11
-49.5864255188362
 21
-117.856002807617
 31
0.0
  0
LINE
  5
   3AE
  8
0
  6
DASHDOT
 62
   130
 10
-52.2873635140382
 20
-138.856002807617
 30
0.0
 11
16.1423028673255
 21
-138.856002807617
 31
0.0
  0
LINE
  5
   3AF
  8
0
  6
DASHDOT
 62
   130
 10
-18.5004577636719
 20
-186.971210759101
 30
0.0
 11
-18.5004577636719
 21
-81.8210780067186
 31
0.0
  0
TEXT
  5
   3B0
  8
0
  6
CONTINUOUS
 62
     2
 10
-18.9181864559575
 20
-80.1824265156259
 30
0.0
 40
3.00000002980232
  1
Y
 50
360.0
 41
0.983333351877
 72
     2
 11
-16.718186378479
 21
-78.6824265007137
 31
0.0
 73
     2
  0
TEXT
  5
   3B1
  8
0
  6
CONTINUOUS
 62
     2
 10
18.6637885272578
 20
-140.366767469453
 30
0.0
 40
3.00000002980232
  1
X
 50
360.0
 41
0.983333351877
 72
     2
 11
20.8637886047363
 21
-138.866767454541
 31
0.0
 73
     2
  0
TEXT
  5
   3B2
  8
0
  6
CONTINUOUS
 62
     2
 10
-75.955924302332
 20
-140.366767469453
 30
0.0
 40
3.00000002980232
  1
X
 50
360.0
 41
0.983333351877
 72
     2
 11
-73.7559242248535
 21
-138.866767454541
 31
0.0
 73
     2
  0
TEXT
  5
   3B3
  8
0
  6
CONTINUOUS
 62
     2
 10
-19.0954597294255
 20
-192.618122163819
 30
0.0
 40
3.00000002980232
  1
Y
 50
360.0
 41
0.983333351877
 72
     2
 11
-16.895459651947
 21
-191.118122148907
 31
0.0
 73
     2
  0
INSERT
  5
   3B4
  8
0
  6
CONTINUOUS
 62
     3
  2
*UDIM271
 10
0.0
 20
0.0
 30
0.0
  0
INSERT
  5
   3B5
  8
0
  6
CONTINUOUS
 62
     3
  2
*UDIM272
 10
0.0
 20
0.0
 30
0.0
  0
INSERT
  5
   3B6
  8
0
  6
CONTINUOUS
 62
     3
  2
*UDIM273
 10
0.0
 20
0.0
 30
0.0
  0
INSERT
  5
   3B7
  8
0
  6
CONTINUOUS
 62
     3
  2
*UDIM274
 10
0.0
 20
0.0
 30
0.0
  0
INSERT
  5
   3B8
  8
0
  6
CONTINUOUS
 62
     3
  2
*UDIM275
 10
0.0
 20
0.0
 30
0.0
  0
INSERT
  5
   3B9
  8
0
  6
CONTINUOUS
 62
     3
  2
*UDIM276
 10
0.0
 20
0.0
 30
0.0
  0
INSERT
  5
   3BA
  8
0
  6
CONTINUOUS
 62
     7
  2
*UDIM277
 10
0.0
 20
0.0
 30
0.0
  0
INSERT
  5
   3BB
  8
0
  6
CONTINUOUS
 62
     7
  2
*UDIM278
 10
0.0
 20
0.0
 30
0.0
  0
LINE
  5
   3BC
  8
0
  6
DASHDOT
 62
   130
 10
90.8069900512695
 20
-102.711268615723
 30
0.0
 11
90.5569900512695
 21
-102.711268615723
 31
0.0
  0
LINE
  5
   3BD
  8
0
  6
CONTINUOUS
 62
   130
 10
67.1569972038268
 20
-94.5112686157227
 30
0.0
 11
67.1569972038268
 21
-98.2612686157227
 31
0.0
  0
LINE
  5
   3BE
  8
0
  6
CONTINUOUS
 62
   130
 10
71.1569900512695
 20
-80.2112838745117
 30
0.0
 11
67.1569972038268
 21
-80.2112838745117
 31
0.0
  0
LINE
  5
   3BF
  8
0
  6
CONTINUOUS
 62
   130
 10
67.1569972038268
 20
-80.2112838745117
 30
0.0
 11
67.1569972038268
 21
-89.4612841288249
 31
0.0
  0
LINE
  5
   3C0
  8
0
  6
CONTINUOUS
 62
   130
 10
71.1569900512695
 20
-78.7612686157227
 30
0.0
 11
71.1569900512695
 21
-98.2612686157227
 31
0.0
  0
LINE
  5
   3C1
  8
0
  6
CONTINUOUS
 62
   130
 10
91.1569900512695
 20
-78.7612686157227
 30
0.0
 11
91.1569900512695
 21
-98.2612686157227
 31
0.0
  0
LINE
  5
   3C2
  8
0
  6
DASHDOT
 62
   130
 10
144.111318284715
 20
-98.2612686157227
 30
0.0
 11
61.7725424452419
 21
-98.2612686157227
 31
0.0
  0
LINE
  5
   3C3
  8
0
  6
CONTINUOUS
 62
   130
 10
91.1569900512695
 20
-93.4362533569336
 30
0.0
 11
71.1569900512695
 21
-93.4362533569336
 31
0.0
  0
LINE
  5
   3C4
  8
0
  6
CONTINUOUS
 62
   130
 10
91.1569900512695
 20
-90.6862533569336
 30
0.0
 11
71.1569900512695
 21
-90.6862533569336
 31
0.0
  0
LINE
  5
   3C5
  8
0
  6
CONTINUOUS
 62
   130
 10
82.4070380099843
 20
-83.2612686157227
 30
0.0
 11
73.6570380099848
 21
-83.2612686157227
 31
0.0
  0
LINE
  5
   3C6
  8
0
  6
CONTINUOUS
 62
   130
 10
82.4070380099843
 20
-88.2612686157227
 30
0.0
 11
73.6570380099848
 21
-88.2612686157227
 31
0.0
  0
LINE
  5
   3C7
  8
0
  6
CONTINUOUS
 62
   130
 10
82.4070380099843
 20
-95.7612686157227
 30
0.0
 11
73.6570380099848
 21
-95.7612686157227
 31
0.0
  0
LINE
  5
   3C8
  8
0
  6
CONTINUOUS
 62
   130
 10
73.6570380099848
 20
-83.2612686157227
 30
0.0
 11
73.6570380099848
 21
-88.2612686157227
 31
0.0
  0
LINE
  5
   3C9
  8
0
  6
CONTINUOUS
 62
   130
 10
74.6570384710038
 20
-83.2612686157227
 30
0.0
 11
74.6570384710038
 21
-88.2612686157227
 31
0.0
  0
LINE
  5
   3CA
  8
0
  6
CONTINUOUS
 62
   130
 10
81.4070378946562
 20
-83.2612686157227
 30
0.0
 11
81.4070378946562
 21
-88.2612686157227
 31
0.0
  0
LINE
  5
   3CB
  8
0
  6
CONTINUOUS
 62
   130
 10
82.4070380099843
 20
-83.2612686157227
 30
0.0
 11
82.4070380099843
 21
-88.2612686157227
 31
0.0
  0
LINE
  5
   3CC
  8
0
  6
CONTINUOUS
 62
   130
 10
73.6570380099848
 20
-95.7612686157227
 30
0.0
 11
73.6570380099848
 21
-98.2612686157227
 31
0.0
  0
LINE
  5
   3CD
  8
0
  6
CONTINUOUS
 62
   130
 10
74.6570384710038
 20
-95.7612686157227
 30
0.0
 11
74.6570384710038
 21
-98.2612686157227
 31
0.0
  0
LINE
  5
   3CE
  8
0
  6
CONTINUOUS
 62
   130
 10
81.4070378946562
 20
-95.7612686157227
 30
0.0
 11
81.4070378946562
 21
-98.2612686157227
 31
0.0
  0
LINE
  5
   3CF
  8
0
  6
CONTINUOUS
 62
   130
 10
82.4070380099843
 20
-95.7612686157227
 30
0.0
 11
82.4070380099843
 21
-98.2612686157227
 31
0.0
  0
LINE
  5
   3D0
  8
0
  6
CONTINUOUS
 62
   130
 10
86.1569900512695
 20
-82.2612686157227
 30
0.0
 11
71.1569900512695
 21
-82.2612686157227
 31
0.0
  0
LINE
  5
   3D1
  8
0
  6
CONTINUOUS
 62
   130
 10
86.1569900512695
 20
-89.2612686157227
 30
0.0
 11
71.1569900512695
 21
-89.2612686157227
 31
0.0
  0
LINE
  5
   3D2
  8
0
  6
CONTINUOUS
 62
   130
 10
86.1569900512695
 20
-94.7612686157227
 30
0.0
 11
71.1569900512695
 21
-94.7612686157227
 31
0.0
  0
LINE
  5
   3D3
  8
0
  6
CONTINUOUS
 62
   130
 10
86.1569900512695
 20
-82.2612686157227
 30
0.0
 11
86.1569900512695
 21
-89.2612686157227
 31
0.0
  0
LINE
  5
   3D4
  8
0
  6
CONTINUOUS
 62
   130
 10
86.1569900512695
 20
-94.7612686157227
 30
0.0
 11
86.1569900512695
 21
-98.2612686157227
 31
0.0
  0
LINE
  5
   3D5
  8
0
  6
CONTINUOUS
 62
   130
 10
70.6569900512695
 20
-89.4612841288249
 30
0.0
 11
65.1569900512695
 21
-89.4612841288249
 31
0.0
  0
LINE
  5
   3D6
  8
0
  6
CONTINUOUS
 62
   130
 10
70.6569900512695
 20
-94.5112686157227
 30
0.0
 11
65.1569900512695
 21
-94.5112686157227
 31
0.0
  0
LINE
  5
   3D7
  8
0
  6
CONTINUOUS
 62
   130
 10
65.1569900512695
 20
-89.4612841288249
 30
0.0
 11
65.1569900512695
 21
-94.5112686157227
 31
0.0
  0
ARC
  5
   3D8
  8
0
  6
CONTINUOUS
 62
   130
 10
70.6569900512695
 20
-88.9612841288249
 30
0.0
 40
0.5
 50
269.999999896069
 51
359.999999896069
  0
ARC
  5
   3D9
  8
0
  6
CONTINUOUS
 62
   130
 10
70.6569900512695
 20
-95.0112686157227
 30
0.0
 40
0.5
 50
359.999999896069
 51
449.999999896069
  0
LINE
  5
   3DA
  8
0
  6
DASHDOT
 62
   130
 10
130.066032729521
 20
-85.7612686157227
 30
0.0
 11
64.8292120963979
 21
-85.7612686157227
 31
0.0
  0
LINE
  5
   3DB
  8
0
  6
DASHDOT
 62
   130
 10
94.3291810871718
 20
-91.9862763722738
 30
0.0
 11
63.5684773090329
 21
-91.9862763722738
 31
0.0
  0
LINE
  5
   3DC
  8
0
  6
CONTINUOUS
 62
   130
 10
127.156997799873
 20
-78.7612686157227
 30
0.0
 11
127.156997799873
 21
-98.2612686157227
 31
0.0
  0
LINE
  5
   3DD
  8
0
  6
CONTINUOUS
 62
   130
 10
129.656997799873
 20
-78.7612686157227
 30
0.0
 11
129.656997799873
 21
-98.2612686157227
 31
0.0
  0
LINE
  5
   3DE
  8
0
  6
CONTINUOUS
 62
   130
 10
138.339981069576
 20
-95.5112686157227
 30
0.0
 11
138.339981069576
 21
-98.2612686157227
 31
0.0
  0
LINE
  5
   3DF
  8
0
  6
CONTINUOUS
 62
   130
 10
137.839981069576
 20
-95.0112686157227
 30
0.0
 11
129.656997799873
 21
-95.0112686157227
 31
0.0
  0
ARC
  5
   3E0
  8
0
  6
CONTINUOUS
 62
   130
 10
137.839981069576
 20
-95.5112686157227
 30
0.0
 40
0.5
 50
359.999999896069
 51
449.999999896069
  0
LINE
  5
   3E1
  8
0
  6
CONTINUOUS
 62
   130
 10
114.906997799873
 20
-95.2612686157227
 30
0.0
 11
114.906997799873
 21
-97.5112686157227
 31
0.0
  0
LINE
  5
   3E2
  8
0
  6
CONTINUOUS
 62
   130
 10
126.156997799873
 20
-97.5112686157227
 30
0.0
 11
114.906997799873
 21
-97.5112686157227
 31
0.0
  0
LINE
  5
   3E3
  8
0
  6
CONTINUOUS
 62
   130
 10
126.156997799873
 20
-95.2612686157227
 30
0.0
 11
114.906997799873
 21
-95.2612686157227
 31
0.0
  0
LINE
  5
   3E4
  8
0
  6
CONTINUOUS
 62
   130
 10
126.156997799873
 20
-95.2612686157227
 30
0.0
 11
126.156997799873
 21
-97.5112686157227
 31
0.0
  0
LINE
  5
   3E5
  8
0
  6
CONTINUOUS
 62
   130
 10
126.156997799873
 20
-88.7612686157227
 30
0.0
 11
114.906997799873
 21
-88.7612686157227
 31
0.0
  0
LINE
  5
   3E6
  8
0
  6
CONTINUOUS
 62
   130
 10
114.906997799873
 20
-86.5112686157227
 30
0.0
 11
114.906997799873
 21
-88.7612686157227
 31
0.0
  0
LINE
  5
   3E7
  8
0
  6
CONTINUOUS
 62
   130
 10
126.156997799873
 20
-86.5112686157227
 30
0.0
 11
114.906997799873
 21
-86.5112686157227
 31
0.0
  0
LINE
  5
   3E8
  8
0
  6
CONTINUOUS
 62
   130
 10
126.156997799873
 20
-86.5112686157227
 30
0.0
 11
126.156997799873
 21
-88.7612686157227
 31
0.0
  0
LINE
  5
   3E9
  8
0
  6
CONTINUOUS
 62
   130
 10
126.156997799873
 20
-85.0112686157227
 30
0.0
 11
114.906997799873
 21
-85.0112686157227
 31
0.0
  0
LINE
  5
   3EA
  8
0
  6
CONTINUOUS
 62
   130
 10
114.906997799873
 20
-82.7612686157227
 30
0.0
 11
114.906997799873
 21
-85.0112686157227
 31
0.0
  0
LINE
  5
   3EB
  8
0
  6
CONTINUOUS
 62
   130
 10
126.156997799873
 20
-82.7612686157227
 30
0.0
 11
114.906997799873
 21
-82.7612686157227
 31
0.0
  0
LINE
  5
   3EC
  8
0
  6
CONTINUOUS
 62
   130
 10
126.156997799873
 20
-82.7612686157227
 30
0.0
 11
126.156997799873
 21
-85.0112686157227
 31
0.0
  0
LINE
  5
   3ED
  8
0
  6
DOT
 62
   130
 10
65.1569900512695
 20
-75.3743003087819
 30
0.0
 11
65.1569900512695
 21
-123.66305251691
 31
0.0
  0
LINE
  5
   3EE
  8
0
  6
DOT
 62
   130
 10
64.1569900512695
 20
-73.9968816146162
 30
0.0
 11
64.1569900512695
 21
-123.66305251691
 31
0.0
  0
LINE
  5
   3EF
  8
0
  6
CONTINUOUS
 62
   130
 10
92.1569900512695
 20
-78.7612686157227
 30
0.0
 11
92.1569900512695
 21
-98.2612686157227
 31
0.0
  0
LINE
  5
   3F0
  8
0
  6
CONTINUOUS
 62
   130
 10
129.656997799873
 20
-78.7612686157227
 30
0.0
 11
71.1569900512695
 21
-78.7612686157227
 31
0.0
  0
LINE
  5
   3F1
  8
0
  6
DASHDOT
 62
   130
 10
90.8069900512695
 20
-93.8112686157227
 30
0.0
 11
90.5569900512695
 21
-93.8112686157227
 31
0.0
  0
LINE
  5
   3F2
  8
0
  6
CONTINUOUS
 62
   130
 10
67.1569972038268
 20
-98.2612686157227
 30
0.0
 11
67.1569972038268
 21
-102.011268615723
 31
0.0
  0
LINE
  5
   3F3
  8
0
  6
CONTINUOUS
 62
   130
 10
71.1569900512695
 20
-116.311253356934
 30
0.0
 11
67.1569972038268
 21
-116.311253356934
 31
0.0
  0
LINE
  5
   3F4
  8
0
  6
CONTINUOUS
 62
   130
 10
67.1569972038268
 20
-107.06125310262
 30
0.0
 11
67.1569972038268
 21
-116.311253356934
 31
0.0
  0
LINE
  5
   3F5
  8
0
  6
CONTINUOUS
 62
   130
 10
71.1569900512695
 20
-98.2612686157227
 30
0.0
 11
71.1569900512695
 21
-117.761268615723
 31
0.0
  0
LINE
  5
   3F6
  8
0
  6
CONTINUOUS
 62
   130
 10
91.1569900512695
 20
-98.2612686157227
 30
0.0
 11
91.1569900512695
 21
-117.761268615723
 31
0.0
  0
LINE
  5
   3F7
  8
0
  6
DASHDOT
 62
   130
 10
144.111318284715
 20
-98.2612686157227
 30
0.0
 11
61.7725424452419
 21
-98.2612686157227
 31
0.0
  0
LINE
  5
   3F8
  8
0
  6
CONTINUOUS
 62
   130
 10
91.1569900512695
 20
-103.086283874512
 30
0.0
 11
71.1569900512695
 21
-103.086283874512
 31
0.0
  0
LINE
  5
   3F9
  8
0
  6
CONTINUOUS
 62
   130
 10
91.1569900512695
 20
-105.836283874512
 30
0.0
 11
71.1569900512695
 21
-105.836283874512
 31
0.0
  0
LINE
  5
   3FA
  8
0
  6
CONTINUOUS
 62
   130
 10
82.4070380099843
 20
-113.261268615723
 30
0.0
 11
73.6570380099848
 21
-113.261268615723
 31
0.0
  0
LINE
  5
   3FB
  8
0
  6
CONTINUOUS
 62
   130
 10
82.4070380099843
 20
-108.261268615723
 30
0.0
 11
73.6570380099848
 21
-108.261268615723
 31
0.0
  0
LINE
  5
   3FC
  8
0
  6
CONTINUOUS
 62
   130
 10
82.4070380099843
 20
-100.761268615723
 30
0.0
 11
73.6570380099848
 21
-100.761268615723
 31
0.0
  0
LINE
  5
   3FD
  8
0
  6
CONTINUOUS
 62
   130
 10
73.6570380099848
 20
-108.261268615723
 30
0.0
 11
73.6570380099848
 21
-113.261268615723
 31
0.0
  0
LINE
  5
   3FE
  8
0
  6
CONTINUOUS
 62
   130
 10
74.6570384710038
 20
-108.261268615723
 30
0.0
 11
74.6570384710038
 21
-113.261268615723
 31
0.0
  0
LINE
  5
   3FF
  8
0
  6
CONTINUOUS
 62
   130
 10
81.4070378946562
 20
-108.261268615723
 30
0.0
 11
81.4070378946562
 21
-113.261268615723
 31
0.0
  0
LINE
  5
   400
  8
0
  6
CONTINUOUS
 62
   130
 10
82.4070380099843
 20
-108.261268615723
 30
0.0
 11
82.4070380099843
 21
-113.261268615723
 31
0.0
  0
LINE
  5
   401
  8
0
  6
CONTINUOUS
 62
   130
 10
73.6570380099848
 20
-98.2612686157227
 30
0.0
 11
73.6570380099848
 21
-100.761268615723
 31
0.0
  0
LINE
  5
   402
  8
0
  6
CONTINUOUS
 62
   130
 10
74.6570384710038
 20
-98.2612686157227
 30
0.0
 11
74.6570384710038
 21
-100.761268615723
 31
0.0
  0
LINE
  5
   403
  8
0
  6
CONTINUOUS
 62
   130
 10
81.4070378946562
 20
-98.2612686157227
 30
0.0
 11
81.4070378946562
 21
-100.761268615723
 31
0.0
  0
LINE
  5
   404
  8
0
  6
CONTINUOUS
 62
   130
 10
82.4070380099843
 20
-98.2612686157227
 30
0.0
 11
82.4070380099843
 21
-100.761268615723
 31
0.0
  0
LINE
  5
   405
  8
0
  6
CONTINUOUS
 62
   130
 10
86.1569900512695
 20
-114.261268615723
 30
0.0
 11
71.1569900512695
 21
-114.261268615723
 31
0.0
  0
LINE
  5
   406
  8
0
  6
CONTINUOUS
 62
   130
 10
86.1569900512695
 20
-107.261268615723
 30
0.0
 11
71.1569900512695
 21
-107.261268615723
 31
0.0
  0
LINE
  5
   407
  8
0
  6
CONTINUOUS
 62
   130
 10
86.1569900512695
 20
-101.761268615723
 30
0.0
 11
71.1569900512695
 21
-101.761268615723
 31
0.0
  0
LINE
  5
   408
  8
0
  6
CONTINUOUS
 62
   130
 10
86.1569900512695
 20
-107.261268615723
 30
0.0
 11
86.1569900512695
 21
-114.261268615723
 31
0.0
  0
LINE
  5
   409
  8
0
  6
CONTINUOUS
 62
   130
 10
86.1569900512695
 20
-98.2612686157227
 30
0.0
 11
86.1569900512695
 21
-101.761268615723
 31
0.0
  0
LINE
  5
   40A
  8
0
  6
CONTINUOUS
 62
   130
 10
70.6569900512695
 20
-107.06125310262
 30
0.0
 11
65.1569900512695
 21
-107.06125310262
 31
0.0
  0
LINE
  5
   40B
  8
0
  6
CONTINUOUS
 62
   130
 10
70.6569900512695
 20
-102.011268615723
 30
0.0
 11
65.1569900512695
 21
-102.011268615723
 31
0.0
  0
LINE
  5
   40C
  8
0
  6
CONTINUOUS
 62
   130
 10
65.1569900512695
 20
-102.011268615723
 30
0.0
 11
65.1569900512695
 21
-107.06125310262
 31
0.0
  0
ARC
  5
   40D
  8
0
  6
CONTINUOUS
 62
   130
 10
70.6569900512695
 20
-107.56125310262
 30
0.0
 40
0.5
 50
359.999999896069
 51
449.999999896069
  0
ARC
  5
   40E
  8
0
  6
CONTINUOUS
 62
   130
 10
70.6569900512695
 20
-101.511268615723
 30
0.0
 40
0.5
 50
269.999999896069
 51
359.999999896069
  0
LINE
  5
   40F
  8
0
  6
DASHDOT
 62
   130
 10
130.066032729521
 20
-110.761268615723
 30
0.0
 11
64.8292120963979
 21
-110.761268615723
 31
0.0
  0
LINE
  5
   410
  8
0
  6
DASHDOT
 62
   130
 10
94.3291810871718
 20
-104.536260859172
 30
0.0
 11
63.5684773090329
 21
-104.536260859172
 31
0.0
  0
LINE
  5
   411
  8
0
  6
CONTINUOUS
 62
   130
 10
127.156997799873
 20
-98.2612686157227
 30
0.0
 11
127.156997799873
 21
-117.761268615723
 31
0.0
  0
LINE
  5
   412
  8
0
  6
CONTINUOUS
 62
   130
 10
129.656997799873
 20
-98.2612686157227
 30
0.0
 11
129.656997799873
 21
-117.761268615723
 31
0.0
  0
LINE
  5
   413
  8
0
  6
CONTINUOUS
 62
   130
 10
138.339981069576
 20
-98.2612686157227
 30
0.0
 11
138.339981069576
 21
-101.011268615723
 31
0.0
  0
LINE
  5
   414
  8
0
  6
CONTINUOUS
 62
   130
 10
137.839981069576
 20
-101.511268615723
 30
0.0
 11
129.656997799873
 21
-101.511268615723
 31
0.0
  0
ARC
  5
   415
  8
0
  6
CONTINUOUS
 62
   130
 10
137.839981069576
 20
-101.011268615723
 30
0.0
 40
0.5
 50
269.999999896069
 51
359.999999896069
  0
LINE
  5
   416
  8
0
  6
CONTINUOUS
 62
   130
 10
114.906997799873
 20
-99.0112686157227
 30
0.0
 11
114.906997799873
 21
-101.261268615723
 31
0.0
  0
LINE
  5
   417
  8
0
  6
CONTINUOUS
 62
   130
 10
126.156997799873
 20
-99.0112686157227
 30
0.0
 11
114.906997799873
 21
-99.0112686157227
 31
0.0
  0
LINE
  5
   418
  8
0
  6
CONTINUOUS
 62
   130
 10
126.156997799873
 20
-101.261268615723
 30
0.0
 11
114.906997799873
 21
-101.261268615723
 31
0.0
  0
LINE
  5
   419
  8
0
  6
CONTINUOUS
 62
   130
 10
126.156997799873
 20
-99.0112686157227
 30
0.0
 11
126.156997799873
 21
-101.261268615723
 31
0.0
  0
LINE
  5
   41A
  8
0
  6
CONTINUOUS
 62
   130
 10
126.156997799873
 20
-107.761268615723
 30
0.0
 11
114.906997799873
 21
-107.761268615723
 31
0.0
  0
LINE
  5
   41B
  8
0
  6
CONTINUOUS
 62
   130
 10
114.906997799873
 20
-107.761268615723
 30
0.0
 11
114.906997799873
 21
-110.011268615723
 31
0.0
  0
LINE
  5
   41C
  8
0
  6
CONTINUOUS
 62
   130
 10
126.156997799873
 20
-110.011268615723
 30
0.0
 11
114.906997799873
 21
-110.011268615723
 31
0.0
  0
LINE
  5
   41D
  8
0
  6
CONTINUOUS
 62
   130
 10
126.156997799873
 20
-107.761268615723
 30
0.0
 11
126.156997799873
 21
-110.011268615723
 31
0.0
  0
LINE
  5
   41E
  8
0
  6
CONTINUOUS
 62
   130
 10
126.156997799873
 20
-111.511268615723
 30
0.0
 11
114.906997799873
 21
-111.511268615723
 31
0.0
  0
LINE
  5
   41F
  8
0
  6
CONTINUOUS
 62
   130
 10
114.906997799873
 20
-111.511268615723
 30
0.0
 11
114.906997799873
 21
-113.761268615723
 31
0.0
  0
LINE
  5
   420
  8
0
  6
CONTINUOUS
 62
   130
 10
126.156997799873
 20
-113.761268615723
 30
0.0
 11
114.906997799873
 21
-113.761268615723
 31
0.0
  0
LINE
  5
   421
  8
0
  6
CONTINUOUS
 62
   130
 10
126.156997799873
 20
-111.511268615723
 30
0.0
 11
126.156997799873
 21
-113.761268615723
 31
0.0
  0
LINE
  5
   422
  8
0
  6
DOT
 62
   130
 10
65.1569900512695
 20
-72.8594847145355
 30
0.0
 11
65.1569900512695
 21
-121.148236922663
 31
0.0
  0
LINE
  5
   423
  8
0
  6
DOT
 62
   130
 10
64.1569900512695
 20
-72.8594847145355
 30
0.0
 11
64.1569900512695
 21
-122.525655616829
 31
0.0
  0
LINE
  5
   424
  8
0
  6
CONTINUOUS
 62
   130
 10
92.1569900512695
 20
-98.2612686157227
 30
0.0
 11
92.1569900512695
 21
-117.761268615723
 31
0.0
  0
LINE
  5
   425
  8
0
  6
CONTINUOUS
 62
   130
 10
129.656997799873
 20
-117.761268615723
 30
0.0
 11
71.1569900512695
 21
-117.761268615723
 31
0.0
  0
TEXT
  5
   426
  8
0
  6
CONTINUOUS
 62
     2
 10
223.819240192005
 20
-168.916168680616
 30
0.0
 40
2.00000008940697
  1
3 POLE LOW VOLTAGE M.C.C.B SERIES ISOMAX
 50
359.999999896069
 41
0.75
 72
     1
 11
253.569241523743
 21
-167.916168689728
 31
0.0
 73
     2
  0
TEXT
  5
   427
  8
0
  6
CONTINUOUS
 62
     2
 10
230.569240493754
 20
-172.116168502091
 30
0.0
 40
2.00000008940697
  1
PLUG-IN VERSION FRONT TERMINALS
 50
359.999999896069
 41
0.75
 72
     1
 11
253.569241523743
 21
-171.116168498993
 31
0.0
 73
     2
  0
TEXT
  5
   428
  8
0
  6
CONTINUOUS
 62
     2
 10
220.205822314994
 20
-177.396026779536
 30
0.0
 40
2.00000008940697
  1
   INTERR.AUTOMATICO SERIE ISOMAX
 50
359.999999896069
 41
0.75
 11
220.205822318612
 21
-175.396026690129
 31
0.0
 73
     3
  0
TEXT
  5
   429
  8
0
  6
CONTINUOUS
 62
     2
 10
220.205820305928
 20
-180.596028466872
 30
0.0
 40
2.00000008940697
  1
ESECUZ.RIMOVIBILE TRIP.TERMINALI ANT.
 50
359.999999896069
 41
0.75
 11
220.205820309546
 21
-178.596028377465
 31
0.0
 73
     3
  0
TEXT
  5
   42A
  8
0
  6
CONTINUOUS
 62
     2
 10
127.679623602012
 20
-168.307001149551
 30
0.0
 40
2.00000008940697
  1
3/11/92
 50
359.999999896069
 41
0.75
 72
     2
 11
137.679624050856
 21
-167.307001122936
 31
0.0
 73
     2
  0
TEXT
  5
   42B
  8
0
  6
CONTINUOUS
 62
     2
 10
129.311612127402
 20
-171.57098010768
 30
0.0
 40
2.00000008940697
  1
mostosi
 50
359.999999896069
 41
0.75
 72
     2
 11
139.311612576246
 21
-170.570980081066
 31
0.0
 73
     2
  0
TEXT
  5
   42C
  8
0
  6
CONTINUOUS
 62
     2
 10
137.778561589841
 20
-185.534686071528
 30
0.0
 40
2.50000005960464
  1
M3727 95-01-18
 50
359.999999896069
 41
0.649999919056892
 11
137.778561592102
 21
-184.284686041726
 31
0.0
 73
     2
  0
TEXT
  5
   42D
  8
0
  6
CONTINUOUS
 62
     2
 10
252.478552271693
 20
-187.432462993183
 30
0.0
 40
3.00000002980232
  1
S1
 50
359.999999896069
 41
0.983333351877
 72
     2
 11
257.628552436829
 21
-185.932462987597
 31
0.0
 73
     2
  0
TEXT
  5
   42E
  8
0
  6
CONTINUOUS
 62
     2
 10
231.682370151532
 20
-197.821296925107
 30
0.0
 40
5.00000011920929
  1
601855/081
 50
359.999999896069
 41
0.983334023157739
 72
     2
 11
279.599072456365
 21
-195.32129695218
 31
0.0
 73
     2
  0
TEXT
  5
   42F
  8
0
  6
CONTINUOUS
 62
     2
 10
287.93658722711
 20
-198.431125664358
 30
0.0
 40
2.50000005960464
  1
1/1
 50
359.999999896069
 41
1.01399994459152
 72
     1
 11
291.426587104797
 21
-197.181125640869
 31
0.0
 73
     2
  0
INSERT
  5
   430
  8
0
  6
CONTINUOUS
 62
     7
  2
*UDIM279
 10
0.0
 20
0.0
 30
0.0
  0
INSERT
  5
   431
  8
0
  6
CONTINUOUS
 62
     7
  2
*UDIM280
 10
0.0
 20
0.0
 30
0.0
  0
CIRCLE
  5
   432
  8
0
  6
CONTINUOUS
 62
     2
 10
5.58209194184741
 20
35.4360079765335
 30
0.0
 40
1.0
  0
LINE
  5
   433
  8
0
  6
CONTINUOUS
 62
     2
 10
4.79214283417897
 20
34.8228355641617
 30
0.0
 11
6.19526435421921
 21
36.2259570842019
 31
0.0
  0
LINE
  5
   434
  8
0
  6
CONTINUOUS
 62
     2
 10
4.96891952947562
 20
34.6460588688651
 30
0.0
 11
6.37204104951583
 21
36.0491803889053
 31
0.0
  0
LINE
  5
   435
  8
0
  6
DASHDOT
 62
     2
 10
5.58209194184741
 20
30.4360079765335
 30
0.0
 11
5.58209194184741
 21
40.4360079765335
 31
0.0
  0
LINE
  5
   436
  8
0
  6
DASHDOT
 62
     2
 10
0.582091941847406
 20
35.4360079765335
 30
0.0
 11
10.5820919418474
 21
35.4360079765335
 31
0.0
  0
LINE
  5
   437
  8
0
  6
CONTINUOUS
 62
     7
 10
15.8320355415345
 20
-23.4389419555664
 30
0.0
 11
15.8320355415345
 21
23.3110580444336
 31
0.0
  0
LINE
  5
   438
  8
0
  6
CONTINUOUS
 62
     7
 10
-29.0429644584655
 20
-24.0639419555664
 30
0.0
 11
15.2070355415345
 21
-24.0639419555664
 31
0.0
  0
LINE
  5
   439
  8
0
  6
CONTINUOUS
 62
     7
 10
-29.6679644584655
 20
-23.4389419555664
 30
0.0
 11
-29.6679644584655
 21
23.3110580444336
 31
0.0
  0
LINE
  5
   43A
  8
0
  6
CONTINUOUS
 62
     7
 10
-29.0429644584655
 20
23.9360580444336
 30
0.0
 11
15.2070355415345
 21
23.9360580444336
 31
0.0
  0
LINE
  5
   43B
  8
0
  6
CONTINUOUS
 62
     7
 10
-27.1679644584655
 20
-12.0639419555664
 30
0.0
 11
13.3320355415345
 21
-12.0639419555664
 31
0.0
  0
LINE
  5
   43C
  8
0
  6
CONTINUOUS
 62
     7
 10
-27.1679644584655
 20
11.9360580444336
 30
0.0
 11
13.3320355415345
 21
11.9360580444336
 31
0.0
  0
LINE
  5
   43D
  8
0
  6
CONTINUOUS
 62
     7
 10
-27.4179644584656
 20
-24.0639419555664
 30
0.0
 11
-27.4179644584656
 21
23.9360580444336
 31
0.0
  0
LINE
  5
   43E
  8
0
  6
CONTINUOUS
 62
     7
 10
-26.9179644584655
 20
11.9360580444336
 30
0.0
 11
-26.9179644584655
 21
17.1860580444336
 31
0.0
  0
LINE
  5
   43F
  8
0
  6
CONTINUOUS
 62
     7
 10
-26.9179644584655
 20
-17.3139419555664
 30
0.0
 11
-26.9179644584655
 21
-12.0639419555664
 31
0.0
  0
LINE
  5
   440
  8
0
  6
CONTINUOUS
 62
     7
 10
-26.9179644584655
 20
-24.0639419555664
 30
0.0
 11
-26.9179644584655
 21
-17.8139419555664
 31
0.0
  0
LINE
  5
   441
  8
0
  6
CONTINUOUS
 62
     7
 10
13.5820355415344
 20
-24.0639419555664
 30
0.0
 11
13.5820355415344
 21
23.9360580444336
 31
0.0
  0
LINE
  5
   442
  8
0
  6
CONTINUOUS
 62
     7
 10
13.0820355415344
 20
-17.3139419555664
 30
0.0
 11
13.0820355415344
 21
-12.0639419555664
 31
0.0
  0
LINE
  5
   443
  8
0
  6
CONTINUOUS
 62
     7
 10
13.0820355415344
 20
-24.0639419555664
 30
0.0
 11
13.0820355415344
 21
-17.8139419555664
 31
0.0
  0
LINE
  5
   444
  8
0
  6
CONTINUOUS
 62
     7
 10
13.0820355415344
 20
11.9360580444336
 30
0.0
 11
13.0820355415344
 21
17.1860580444336
 31
0.0
  0
LINE
  5
   445
  8
0
  6
CONTINUOUS
 62
     7
 10
-27.4179644584656
 20
17.6860580444336
 30
0.0
 11
13.5820355415344
 21
17.6860580444336
 31
0.0
  0
LINE
  5
   446
  8
0
  6
CONTINUOUS
 62
     7
 10
-26.9179644584655
 20
17.1860580444336
 30
0.0
 11
13.0820355415344
 21
17.1860580444336
 31
0.0
  0
LINE
  5
   447
  8
0
  6
CONTINUOUS
 62
     7
 10
-26.9179644584655
 20
-17.8139419555664
 30
0.0
 11
13.0820355415344
 21
-17.8139419555664
 31
0.0
  0
LINE
  5
   448
  8
0
  6
CONTINUOUS
 62
     7
 10
-26.9179644584655
 20
-17.3139419555664
 30
0.0
 11
13.0820355415344
 21
-17.3139419555664
 31
0.0
  0
LINE
  5
   449
  8
0
  6
CONTINUOUS
 62
     7
 10
-27.4179644584656
 20
21.1860580444336
 30
0.0
 11
-27.2679629325866
 21
21.1860580444336
 31
0.0
  0
LINE
  5
   44A
  8
0
  6
CONTINUOUS
 62
     7
 10
-27.4179644584656
 20
20.4360580444336
 30
0.0
 11
-27.2679629325866
 21
20.4360580444336
 31
0.0
  0
LINE
  5
   44B
  8
0
  6
CONTINUOUS
 62
     7
 10
13.432035446167
 20
21.1860580444336
 30
0.0
 11
13.5820355415344
 21
21.1860580444336
 31
0.0
  0
LINE
  5
   44C
  8
0
  6
CONTINUOUS
 62
     7
 10
13.432035446167
 20
20.4360580444336
 30
0.0
 11
13.5820355415344
 21
20.4360580444336
 31
0.0
  0
ARC
  5
   44D
  8
0
  6
CONTINUOUS
 62
     7
 10
-27.2679829039246
 20
20.8110455854564
 30
0.0
 40
0.375021724720464
 50
270.002994872341
 51
449.997011910154
  0
ARC
  5
   44E
  8
0
  6
CONTINUOUS
 62
     7
 10
13.4320428777258
 20
20.8110552893684
 30
0.0
 40
0.375007470094436
 50
90.0011356573896
 51
269.998857743064
  0
ARC
  5
   44F
  8
0
  6
CONTINUOUS
 62
     7
 10
15.2070355415345
 20
23.3110580444336
 30
0.0
 40
0.625
 50
360.0
 51
450.0
  0
ARC
  5
   450
  8
0
  6
CONTINUOUS
 62
     7
 10
-29.0429644584655
 20
23.3110580444336
 30
0.0
 40
0.625
 50
90.0
 51
180.0
  0
ARC
  5
   451
  8
0
  6
CONTINUOUS
 62
     7
 10
-29.0429644584655
 20
-23.4389419555664
 30
0.0
 40
0.625
 50
180.0
 51
270.0
  0
ARC
  5
   452
  8
0
  6
CONTINUOUS
 62
     7
 10
15.2070355415345
 20
-23.4389419555664
 30
0.0
 40
0.625
 50
270.0
 51
360.0
  0
LINE
  5
   453
  8
0
  6
CONTINUOUS
 62
     7
 10
13.3320355415345
 20
-12.0639419555664
 30
0.0
 11
13.3320355415345
 21
11.9360580444336
 31
0.0
  0
LINE
  5
   454
  8
0
  6
CONTINUOUS
 62
     7
 10
-27.1679644584655
 20
-12.0639419555664
 30
0.0
 11
-27.1679644584655
 21
11.9360580444336
 31
0.0
  0
LINE
  5
   455
  8
0
  6
CONTINUOUS
 62
   130
 10
22.0385093688965
 20
-1.31399202346802
 30
0.0
 11
22.0385093688965
 21
-1.31399202346802
 31
0.0
  0
LINE
  5
   456
  8
0
  6
CONTINUOUS
 62
   130
 10
22.0385093688965
 20
-1.31399202346802
 30
0.0
 11
22.0385093688965
 21
-1.31399202346802
 31
0.0
  0
LINE
  5
   457
  8
0
  6
CONTINUOUS
 62
   130
 10
22.0385093688965
 20
-1.31399202346802
 30
0.0
 11
22.0385093688965
 21
-1.31399202346802
 31
0.0
  0
LINE
  5
   458
  8
0
  6
CONTINUOUS
 62
   130
 10
22.0385093688965
 20
-1.31399202346802
 30
0.0
 11
22.0385093688965
 21
-1.31399202346802
 31
0.0
  0
LINE
  5
   459
  8
0
  6
CONTINUOUS
 62
   130
 10
22.0385093688965
 20
-1.31399202346802
 30
0.0
 11
22.0385093688965
 21
-1.31399202346802
 31
0.0
  0
LINE
  5
   45A
  8
0
  6
CONTINUOUS
 62
   130
 10
22.0385093688965
 20
-1.31399202346802
 30
0.0
 11
22.0385093688965
 21
-1.31399202346802
 31
0.0
  0
LINE
  5
   45B
  8
0
  6
CONTINUOUS
 62
   130
 10
22.0385093688965
 20
-1.31399202346802
 30
0.0
 11
22.0385093688965
 21
-1.31399202346802
 31
0.0
  0
LINE
  5
   45C
  8
0
  6
CONTINUOUS
 62
   130
 10
22.0385093688965
 20
-1.31399202346802
 30
0.0
 11
22.0385093688965
 21
-1.31399202346802
 31
0.0
  0
LINE
  5
   45D
  8
0
  6
CONTINUOUS
 62
   130
 10
-26.4178962707499
 20
23.9360580444336
 30
0.0
 11
-26.4178962707499
 21
47.4360218048096
 31
0.0
  0
LINE
  5
   45E
  8
0
  6
CONTINUOUS
 62
   130
 10
-26.4178947448748
 20
-11.3139767646755
 30
0.0
 11
-6.91791000366359
 21
-11.3139767646755
 31
0.0
  0
LINE
  5
   45F
  8
0
  6
CONTINUOUS
 62
   130
 10
-26.4178981781016
 20
11.1860232353185
 30
0.0
 11
-6.91791343689042
 21
11.1860232353185
 31
0.0
  0
LINE
  5
   460
  8
0
  6
CONTINUOUS
 62
   130
 10
-10.6679189994054
 20
7.00402495592616
 30
0.0
 11
-3.59569622671057
 21
7.00402495592616
 31
0.0
  0
LINE
  5
   461
  8
0
  6
CONTINUOUS
 62
   130
 10
-10.6679186820981
 20
-5.51990216199603
 30
0.0
 11
-10.6679186820981
 21
7.93602323531852
 31
0.0
  0
LINE
  5
   462
  8
0
  6
CONTINUOUS
 62
   130
 10
-10.6679185216553
 20
-5.51990216199603
 30
0.0
 11
-10.1679185216553
 21
-5.51990216199603
 31
0.0
  0
LINE
  5
   463
  8
0
  6
CONTINUOUS
 62
   130
 10
-10.6679185288308
 20
-5.3318004193991
 30
0.0
 11
-10.1679185288308
 21
-5.3318004193991
 31
0.0
  0
LINE
  5
   464
  8
0
  6
CONTINUOUS
 62
   130
 10
-26.4178975677502
 20
7.18602323531852
 30
0.0
 11
-10.6679190063481
 21
7.18602323531852
 31
0.0
  0
LINE
  5
   465
  8
0
  6
CONTINUOUS
 62
   130
 10
-26.4178952407853
 20
-8.06397676467554
 30
0.0
 11
-19.7179103851322
 21
-8.06397676467554
 31
0.0
  0
LINE
  5
   466
  8
0
  6
CONTINUOUS
 62
   130
 10
-26.4178953552262
 20
-7.31397676467554
 30
0.0
 11
-10.1679184532167
 21
-7.31397676467554
 31
0.0
  0
LINE
  5
   467
  8
0
  6
CONTINUOUS
 62
   130
 10
-14.7179103851322
 20
-8.06397676467554
 30
0.0
 11
12.5820721817024
 21
-8.06397676467554
 31
0.0
  0
LINE
  5
   468
  8
0
  6
CONTINUOUS
 62
   130
 10
-10.1679186820981
 20
-7.13031023503121
 30
0.0
 11
-10.1679186820981
 21
-2.9238046368956
 31
0.0
  0
LINE
  5
   469
  8
0
  6
CONTINUOUS
 62
   130
 10
22.0385093688965
 20
-1.31399202346802
 30
0.0
 11
22.0385093688965
 21
-1.31399202346802
 31
0.0
  0
LINE
  5
   46A
  8
0
  6
CONTINUOUS
 62
   130
 10
22.0385093688965
 20
-1.31399202346802
 30
0.0
 11
22.0385093688965
 21
-1.31399202346802
 31
0.0
  0
LINE
  5
   46B
  8
0
  6
CONTINUOUS
 62
   130
 10
22.0385093688965
 20
-1.31399202346802
 30
0.0
 11
22.0385093688965
 21
-1.31399202346802
 31
0.0
  0
LINE
  5
   46C
  8
0
  6
CONTINUOUS
 62
   130
 10
22.0385093688965
 20
-1.31399202346802
 30
0.0
 11
22.0385093688965
 21
-1.31399202346802
 31
0.0
  0
LINE
  5
   46D
  8
0
  6
CONTINUOUS
 62
   130
 10
22.0385093688965
 20
-1.31399202346802
 30
0.0
 11
22.0385093688965
 21
-1.31399202346802
 31
0.0
  0
LINE
  5
   46E
  8
0
  6
CONTINUOUS
 62
   130
 10
22.0385093688965
 20
-1.31399202346802
 30
0.0
 11
22.0385093688965
 21
-1.31399202346802
 31
0.0
  0
LINE
  5
   46F
  8
0
  6
CONTINUOUS
 62
   130
 10
22.0385093688965
 20
-1.31399202346802
 30
0.0
 11
22.0385093688965
 21
-1.31399202346802
 31
0.0
  0
LINE
  5
   470
  8
0
  6
CONTINUOUS
 62
   130
 10
-25.9179115295387
 20
27.9360020937747
 30
0.0
 11
-25.9179115295387
 21
28.6860020937747
 31
0.0
  0
LINE
  5
   471
  8
0
  6
CONTINUOUS
 62
   130
 10
-26.4179008483859
 20
28.6860020937747
 30
0.0
 11
-6.91792642745168
 21
28.6860020937747
 31
0.0
  0
LINE
  5
   472
  8
0
  6
CONTINUOUS
 62
   130
 10
-26.417900733945
 20
27.9360020937747
 30
0.0
 11
-6.91791152954102
 21
27.9360020937747
 31
0.0
  0
LINE
  5
   473
  8
0
  6
CONTINUOUS
 62
   130
 10
22.0385093688965
 20
-1.31399202346802
 30
0.0
 11
22.0385093688965
 21
-1.31399202346802
 31
0.0
  0
LINE
  5
   474
  8
0
  6
CONTINUOUS
 62
   130
 10
22.0385093688965
 20
-1.31399202346802
 30
0.0
 11
22.0385093688965
 21
-1.31399202346802
 31
0.0
  0
LINE
  5
   475
  8
0
  6
CONTINUOUS
 62
   130
 10
22.0385093688965
 20
-1.31399202346802
 30
0.0
 11
22.0385093688965
 21
-1.31399202346802
 31
0.0
  0
LINE
  5
   476
  8
0
  6
CONTINUOUS
 62
   130
 10
22.0385093688965
 20
-1.31399202346802
 30
0.0
 11
22.0385093688965
 21
-1.31399202346802
 31
0.0
  0
LINE
  5
   477
  8
0
  6
CONTINUOUS
 62
   130
 10
22.0385093688965
 20
-1.31399202346802
 30
0.0
 11
22.0385093688965
 21
-1.31399202346802
 31
0.0
  0
LINE
  5
   478
  8
0
  6
CONTINUOUS
 62
   130
 10
22.0385093688965
 20
-1.31399202346802
 30
0.0
 11
22.0385093688965
 21
-1.31399202346802
 31
0.0
  0
LINE
  5
   479
  8
0
  6
CONTINUOUS
 62
   130
 10
22.0385093688965
 20
-1.31399202346802
 30
0.0
 11
22.0385093688965
 21
-1.31399202346802
 31
0.0
  0
LINE
  5
   47A
  8
0
  6
CONTINUOUS
 62
   130
 10
22.0385093688965
 20
-1.31399202346802
 30
0.0
 11
22.0385093688965
 21
-1.31399202346802
 31
0.0
  0
LINE
  5
   47B
  8
0
  6
CONTINUOUS
 62
   130
 10
12.5820732116684
 20
23.9360580444336
 30
0.0
 11
12.5820732116684
 21
47.4360218048096
 31
0.0
  0
LINE
  5
   47C
  8
0
  6
CONTINUOUS
 62
   130
 10
-3.66790405967745
 20
7.00402495592616
 30
0.0
 11
-3.16790405967746
 21
7.00402495592616
 31
0.0
  0
LINE
  5
   47D
  8
0
  6
CONTINUOUS
 62
   130
 10
-3.16790437698475
 20
-5.51990216199603
 30
0.0
 11
-3.16790437698475
 21
7.93602323531852
 31
0.0
  0
LINE
  5
   47E
  8
0
  6
CONTINUOUS
 62
   130
 10
-3.66790453742761
 20
-5.51990216199603
 30
0.0
 11
-3.16790453742762
 21
-5.51990216199603
 31
0.0
  0
LINE
  5
   47F
  8
0
  6
CONTINUOUS
 62
   130
 10
-3.66790453025209
 20
-5.3318004193991
 30
0.0
 11
-3.16790453025211
 21
-5.3318004193991
 31
0.0
  0
LINE
  5
   480
  8
0
  6
CONTINUOUS
 62
   130
 10
-26.4178976821911
 20
7.93602323531852
 30
0.0
 11
12.5820746231082
 21
7.93602323531852
 31
0.0
  0
LINE
  5
   481
  8
0
  6
CONTINUOUS
 62
   130
 10
-3.16790405273478
 20
7.18602323531852
 30
0.0
 11
12.5820745086673
 21
7.18602323531852
 31
0.0
  0
LINE
  5
   482
  8
0
  6
CONTINUOUS
 62
   130
 10
-3.66790437698475
 20
-7.13031023503121
 30
0.0
 11
-3.66790437698475
 21
-2.9238046368956
 31
0.0
  0
LINE
  5
   483
  8
0
  6
CONTINUOUS
 62
   130
 10
22.0385093688965
 20
-1.31399202346802
 30
0.0
 11
22.0385093688965
 21
-1.31399202346802
 31
0.0
  0
LINE
  5
   484
  8
0
  6
CONTINUOUS
 62
   130
 10
22.0385093688965
 20
-1.31399202346802
 30
0.0
 11
22.0385093688965
 21
-1.31399202346802
 31
0.0
  0
LINE
  5
   485
  8
0
  6
CONTINUOUS
 62
   130
 10
22.0385093688965
 20
-1.31399202346802
 30
0.0
 11
22.0385093688965
 21
-1.31399202346802
 31
0.0
  0
LINE
  5
   486
  8
0
  6
CONTINUOUS
 62
   130
 10
22.0385093688965
 20
-1.31399202346802
 30
0.0
 11
22.0385093688965
 21
-1.31399202346802
 31
0.0
  0
LINE
  5
   487
  8
0
  6
CONTINUOUS
 62
   130
 10
22.0385093688965
 20
-1.31399202346802
 30
0.0
 11
22.0385093688965
 21
-1.31399202346802
 31
0.0
  0
LINE
  5
   488
  8
0
  6
CONTINUOUS
 62
   130
 10
22.0385093688965
 20
-1.31399202346802
 30
0.0
 11
22.0385093688965
 21
-1.31399202346802
 31
0.0
  0
LINE
  5
   489
  8
0
  6
CONTINUOUS
 62
   130
 10
12.0820884704572
 20
27.9360020937747
 30
0.0
 11
12.0820884704572
 21
28.6860020937747
 31
0.0
  0
LINE
  5
   48A
  8
0
  6
CONTINUOUS
 62
   130
 10
-6.91789663163122
 20
28.6860020937747
 30
0.0
 11
12.582077789303
 21
28.6860020937747
 31
0.0
  0
LINE
  5
   48B
  8
0
  6
CONTINUOUS
 62
   130
 10
-6.91791152954188
 20
27.9360020937747
 30
0.0
 11
12.5820776748621
 21
27.9360020937747
 31
0.0
  0
LINE
  5
   48C
  8
0
  6
DASHDOT
 62
   130
 10
-6.91789678421907
 20
-37.8785252612938
 30
0.0
 11
-6.91789678421907
 21
50.5003557784251
 31
0.0
  0
LINE
  5
   48D
  8
0
  6
DASHDOT
 62
   130
 10
-31.1880816405547
 20
-6.39767646814775E-2
 30
0.0
 11
18.5807635050659
 21
-6.39767646814775E-2
 31
0.0
  0
LINE
  5
   48E
  8
0
  6
CONTINUOUS
 62
   130
 10
-10.1679186206886
 20
-2.9238046368956
 30
0.0
 11
-3.6679044383943
 21
-2.9238046368956
 31
0.0
  0
LINE
  5
   48F
  8
0
  6
CONTINUOUS
 62
   130
 10
-9.9179185063278
 20
-5.67170271527892
 30
0.0
 11
-3.91790455275509
 21
-5.67170271527892
 31
0.0
  0
LINE
  5
   490
  8
0
  6
CONTINUOUS
 62
   130
 10
-9.91791846022306
 20
-7.38031022549446
 30
0.0
 11
-3.91790459885983
 21
-7.38031022549446
 31
0.0
  0
LINE
  5
   491
  8
0
  6
CONTINUOUS
 62
   130
 10
-3.66790460586616
 20
-7.31397676467554
 30
0.0
 11
12.5820722961433
 21
-7.31397676467554
 31
0.0
  0
ARC
  5
   492
  8
0
  6
CONTINUOUS
 62
   130
 10
-9.91791846022306
 20
-7.13031022549446
 30
0.0
 40
0.25
 50
180.000002185662
 51
270.0
  0
ARC
  5
   493
  8
0
  6
CONTINUOUS
 62
   130
 10
-3.91790459885983
 20
-7.13031022549446
 30
0.0
 40
0.25
 50
270.0
 51
359.999997814338
  0
ARC
  5
   494
  8
0
  6
CONTINUOUS
 62
   130
 10
-3.91790455275509
 20
-5.92170271527892
 30
0.0
 40
0.25
 50
359.999997814338
 51
450.0
  0
ARC
  5
   495
  8
0
  6
CONTINUOUS
 62
   130
 10
-9.9179185063278
 20
-5.92170271527892
 30
0.0
 40
0.25
 50
90.0
 51
180.000002185662
  0
LINE
  5
   496
  8
0
  6
CONTINUOUS
 62
   130
 10
-6.91791305541931
 20
-11.3139767646755
 30
0.0
 11
12.5820716857919
 21
-11.3139767646755
 31
0.0
  0
LINE
  5
   497
  8
0
  6
CONTINUOUS
 62
   130
 10
-6.91790962219248
 20
11.1860232353185
 30
0.0
 11
12.5820751190187
 21
11.1860232353185
 31
0.0
  0
LINE
  5
   498
  8
0
  6
DASHDOT
 62
   130
 10
-32.7035051769286
 20
-6.39767646814775E-2
 30
0.0
 11
19.5807635050659
 21
-6.39767646814775E-2
 31
0.0
  0
LINE
  5
   499
  8
0
  6
CONTINUOUS
 62
   130
 10
-13.8022651672363
 20
6.11409665590744
 30
0.0
 11
-13.4272651672363
 21
6.11409665590744
 31
0.0
  0
LINE
  5
   49A
  8
0
  6
CONTINUOUS
 62
   130
 10
-13.8022651672363
 20
3.86409665590744
 30
0.0
 11
-13.4272651672363
 21
3.86409665590744
 31
0.0
  0
CIRCLE
  5
   49B
  8
0
  6
CONTINUOUS
 62
   130
 10
-13.6147651672363
 20
-3.38590334409256
 30
0.0
 40
1.125
  0
CIRCLE
  5
   49C
  8
0
  6
CONTINUOUS
 62
   130
 10
-13.6147651672363
 20
-3.38590334409256
 30
0.0
 40
0.75
  0
LINE
  5
   49D
  8
0
  6
CONTINUOUS
 62
   130
 10
-13.8022651672363
 20
3.86409665590744
 30
0.0
 11
-13.8022651672363
 21
6.11409665590744
 31
0.0
  0
LINE
  5
   49E
  8
0
  6
CONTINUOUS
 62
   130
 10
-13.4272651672363
 20
3.86409665590744
 30
0.0
 11
-13.4272651672363
 21
6.11409665590744
 31
0.0
  0
LINE
  5
   49F
  8
0
  6
CONTINUOUS
 62
   130
 10
0.4727323913574
 20
-2.42340334409256
 30
0.0
 11
0.585232391357401
 21
-2.42340334409256
 31
0.0
  0
LINE
  5
   4A0
  8
0
  6
CONTINUOUS
 62
   130
 10
0.147732391357394
 20
-4.34840334409256
 30
0.0
 11
0.347732391357397
 21
-4.34840334409256
 31
0.0
  0
LINE
  5
   4A1
  8
0
  6
CONTINUOUS
 62
   130
 10
-0.152267608642589
 20
-3.69840334409254
 30
0.0
 11
-0.152267608642589
 21
-3.57340334409255
 31
0.0
  0
ARC
  5
   4A2
  8
0
  6
CONTINUOUS
 62
   130
 10
-0.802267608642602
 20
-3.57340334409256
 30
0.0
 40
0.65
 50
360.0
 51
540.0
  0
ARC
  5
   4A3
  8
0
  6
CONTINUOUS
 62
   130
 10
-0.802267608642602
 20
-3.69840334409256
 30
0.0
 40
0.649999999999999
 50
180.0
 51
360.0
  0
ARC
  5
   4A4
  8
0
  6
CONTINUOUS
 62
   130
 10
-0.802267608642602
 20
-3.57340334409256
 30
0.0
 40
0.45
 50
360.0
 51
540.0
  0
ARC
  5
   4A5
  8
0
  6
CONTINUOUS
 62
   130
 10
-0.802267608642602
 20
-3.69840334409256
 30
0.0
 40
0.449999999999999
 50
180.0
 51
360.0
  0
LINE
  5
   4A6
  8
0
  6
CONTINUOUS
 62
   130
 10
-0.352267608642592
 20
-3.69840334409254
 30
0.0
 11
-0.352267608642592
 21
-3.57340334409255
 31
0.0
  0
LINE
  5
   4A7
  8
0
  6
CONTINUOUS
 62
   130
 10
-8.97676086425925E-2
 20
-3.22340334409254
 30
0.0
 11
-8.97676086425925E-2
 21
-3.02340334409255
 31
0.0
  0
LINE
  5
   4A8
  8
0
  6
CONTINUOUS
 62
   130
 10
-8.97676086426031E-2
 20
-3.22340334409256
 30
0.0
 11
0.147732391357398
 21
-3.22340334409256
 31
0.0
  0
LINE
  5
   4A9
  8
0
  6
CONTINUOUS
 62
   130
 10
0.585232391357408
 20
-3.22340334409254
 30
0.0
 11
0.585232391357408
 21
-3.02340334409255
 31
0.0
  0
LINE
  5
   4AA
  8
0
  6
CONTINUOUS
 62
   130
 10
-8.97676086425996E-2
 20
-3.02340334409256
 30
0.0
 11
0.147732391357398
 21
-3.02340334409256
 31
0.0
  0
LINE
  5
   4AB
  8
0
  6
CONTINUOUS
 62
   130
 10
0.147732391357408
 20
-4.34840334409254
 30
0.0
 11
0.147732391357408
 21
-3.22340334409254
 31
0.0
  0
LINE
  5
   4AC
  8
0
  6
CONTINUOUS
 62
   130
 10
0.347732391357408
 20
-4.34840334409254
 30
0.0
 11
0.347732391357408
 21
-3.22340334409254
 31
0.0
  0
LINE
  5
   4AD
  8
0
  6
CONTINUOUS
 62
   130
 10
0.347732391357397
 20
-3.22340334409256
 30
0.0
 11
0.585232391357398
 21
-3.22340334409256
 31
0.0
  0
LINE
  5
   4AE
  8
0
  6
CONTINUOUS
 62
   130
 10
0.347732391357397
 20
-3.02340334409256
 30
0.0
 11
0.585232391357401
 21
-3.02340334409256
 31
0.0
  0
LINE
  5
   4AF
  8
0
  6
CONTINUOUS
 62
   130
 10
0.147732391357408
 20
-3.02340334409255
 30
0.0
 11
0.147732391357408
 21
-2.74840334409254
 31
0.0
  0
LINE
  5
   4B0
  8
0
  6
CONTINUOUS
 62
   130
 10
0.347732391357408
 20
-3.02340334409255
 30
0.0
 11
0.347732391357408
 21
-2.74840334409255
 31
0.0
  0
ARC
  5
   4B1
  8
0
  6
CONTINUOUS
 62
   130
 10
0.472732391357397
 20
-2.74840334409256
 30
0.0
 40
0.325
 50
89.9999999999997
 51
180.0
  0
ARC
  5
   4B2
  8
0
  6
CONTINUOUS
 62
   130
 10
0.472732391357397
 20
-2.74840334409256
 30
0.0
 40
0.125
 50
89.9999999999997
 51
180.0
  0
LINE
  5
   4B3
  8
0
  6
CONTINUOUS
 62
   130
 10
0.585232391357408
 20
-2.62340334409255
 30
0.0
 11
0.585232391357408
 21
-2.42340334409254
 31
0.0
  0
LINE
  5
   4B4
  8
0
  6
CONTINUOUS
 62
   130
 10
0.4727323913574
 20
-2.62340334409256
 30
0.0
 11
0.585232391357401
 21
-2.62340334409256
 31
0.0
  0
LINE
  5
   4B5
  8
0
  6
CONTINUOUS
 62
   130
 10
0.947732391357395
 20
-4.34840334409256
 30
0.0
 11
1.14773239135739
 21
-4.34840334409256
 31
0.0
  0
LINE
  5
   4B6
  8
0
  6
CONTINUOUS
 62
   130
 10
0.710232391357408
 20
-3.22340334409254
 30
0.0
 11
0.710232391357408
 21
-3.02340334409255
 31
0.0
  0
LINE
  5
   4B7
  8
0
  6
CONTINUOUS
 62
   130
 10
0.710232391357398
 20
-3.22340334409256
 30
0.0
 11
0.947732391357398
 21
-3.22340334409256
 31
0.0
  0
LINE
  5
   4B8
  8
0
  6
CONTINUOUS
 62
   130
 10
1.38523239135741
 20
-3.22340334409254
 30
0.0
 11
1.38523239135741
 21
-3.02340334409255
 31
0.0
  0
LINE
  5
   4B9
  8
0
  6
CONTINUOUS
 62
   130
 10
0.710232391357398
 20
-3.02340334409256
 30
0.0
 11
0.947732391357398
 21
-3.02340334409256
 31
0.0
  0
LINE
  5
   4BA
  8
0
  6
CONTINUOUS
 62
   130
 10
0.947732391357405
 20
-4.34840334409254
 30
0.0
 11
0.947732391357405
 21
-3.22340334409254
 31
0.0
  0
LINE
  5
   4BB
  8
0
  6
CONTINUOUS
 62
   130
 10
1.14773239135741
 20
-4.34840334409254
 30
0.0
 11
1.14773239135741
 21
-3.22340334409254
 31
0.0
  0
LINE
  5
   4BC
  8
0
  6
CONTINUOUS
 62
   130
 10
1.1477323913574
 20
-3.22340334409256
 30
0.0
 11
1.3852323913574
 21
-3.22340334409256
 31
0.0
  0
LINE
  5
   4BD
  8
0
  6
CONTINUOUS
 62
   130
 10
1.1477323913574
 20
-3.02340334409256
 30
0.0
 11
1.3852323913574
 21
-3.02340334409256
 31
0.0
  0
LINE
  5
   4BE
  8
0
  6
CONTINUOUS
 62
   130
 10
0.947732391357405
 20
-3.02340334409255
 30
0.0
 11
0.947732391357405
 21
-2.74840334409254
 31
0.0
  0
LINE
  5
   4BF
  8
0
  6
CONTINUOUS
 62
   130
 10
1.14773239135741
 20
-3.02340334409255
 30
0.0
 11
1.14773239135741
 21
-2.74840334409254
 31
0.0
  0
ARC
  5
   4C0
  8
0
  6
CONTINUOUS
 62
   130
 10
1.2727323913574
 20
-2.74840334409256
 30
0.0
 40
0.325
 50
89.9999999999997
 51
180.0
  0
ARC
  5
   4C1
  8
0
  6
CONTINUOUS
 62
   130
 10
1.2727323913574
 20
-2.74840334409256
 30
0.0
 40
0.125
 50
89.9999999999997
 51
180.0
  0
LINE
  5
   4C2
  8
0
  6
CONTINUOUS
 62
   130
 10
1.38523239135741
 20
-2.62340334409255
 30
0.0
 11
1.38523239135741
 21
-2.42340334409255
 31
0.0
  0
LINE
  5
   4C3
  8
0
  6
CONTINUOUS
 62
   130
 10
4.77323913574175E-2
 20
4.27659665590744
 30
0.0
 11
0.247732391357417
 21
4.27659665590744
 31
0.0
  0
ARC
  5
   4C4
  8
0
  6
CONTINUOUS
 62
   130
 10
-0.80226760864258
 20
5.05159665590744
 30
0.0
 40
0.65
 50
360.0
 51
540.0
  0
ARC
  5
   4C5
  8
0
  6
CONTINUOUS
 62
   130
 10
-0.80226760864258
 20
5.05159665590744
 30
0.0
 40
0.45
 50
360.0
 51
540.0
  0
ARC
  5
   4C6
  8
0
  6
CONTINUOUS
 62
   130
 10
-0.80226760864258
 20
4.92659665590744
 30
0.0
 40
0.649999999999999
 50
180.0
 51
360.0
  0
ARC
  5
   4C7
  8
0
  6
CONTINUOUS
 62
   130
 10
-0.80226760864258
 20
4.92659665590744
 30
0.0
 40
0.449999999999999
 50
180.0
 51
360.0
  0
LINE
  5
   4C8
  8
0
  6
CONTINUOUS
 62
   130
 10
4.77323913574104E-2
 20
4.27659665590745
 30
0.0
 11
4.77323913574104E-2
 21
5.70159665590745
 31
0.0
  0
LINE
  5
   4C9
  8
0
  6
CONTINUOUS
 62
   130
 10
0.24773239135741
 20
4.27659665590745
 30
0.0
 11
0.24773239135741
 21
5.15159665590745
 31
0.0
  0
LINE
  5
   4CA
  8
0
  6
CONTINUOUS
 62
   130
 10
0.947732391357409
 20
4.27659665590745
 30
0.0
 11
0.947732391357409
 21
5.15159665590745
 31
0.0
  0
LINE
  5
   4CB
  8
0
  6
CONTINUOUS
 62
   130
 10
1.14773239135741
 20
4.27659665590745
 30
0.0
 11
1.14773239135741
 21
5.20159665590745
 31
0.0
  0
LINE
  5
   4CC
  8
0
  6
CONTINUOUS
 62
   130
 10
0.047732391357421
 20
5.70159665590744
 30
0.0
 11
0.24773239135742
 21
5.70159665590744
 31
0.0
  0
ARC
  5
   4CD
  8
0
  6
CONTINUOUS
 62
   130
 10
0.597732391357418
 20
5.15159665590743
 30
0.0
 40
0.35
 50
360.0
 51
540.0
  0
LINE
  5
   4CE
  8
0
  6
CONTINUOUS
 62
   130
 10
0.24773239135741
 20
5.50159665590745
 30
0.0
 11
0.24773239135741
 21
5.70159665590745
 31
0.0
  0
ARC
  5
   4CF
  8
0
  6
CONTINUOUS
 62
   130
 10
0.647732391357419
 20
5.20159665590743
 30
0.0
 40
0.5
 50
360.0
 51
503.130102354155
  0
LINE
  5
   4D0
  8
0
  6
CONTINUOUS
 62
   130
 10
0.947732391357416
 20
4.27659665590744
 30
0.0
 11
1.14773239135742
 21
4.27659665590744
 31
0.0
  0
LINE
  5
   4D1
  8
0
  6
CONTINUOUS
 62
   130
 10
0.164878941383307
 20
10.4949451301119
 30
0.0
 11
0.281894788406504
 21
10.515577871765
 31
0.0
  0
LINE
  5
   4D2
  8
0
  6
CONTINUOUS
 62
   130
 10
6.19847186703559E-2
 20
10.4355396863244
 30
0.0
 11
0.164886168827927
 21
10.4949490579109
 31
0.0
  0
LINE
  5
   4D3
  8
0
  6
CONTINUOUS
 62
   130
 10
-1.43935766777901E-2
 20
10.3445149927527
 30
0.0
 11
6.19804858187294E-2
 21
10.4355353483537
 31
0.0
  0
LINE
  5
   4D4
  8
0
  6
CONTINUOUS
 62
   130
 10
-5.50301190328177E-2
 20
10.2328624628622
 30
0.0
 11
-1.43921512909273E-2
 21
10.3445155499833
 31
0.0
  0
LINE
  5
   4D5
  8
0
  6
CONTINUOUS
 62
   130
 10
-5.50337520714947E-2
 20
10.1140439060766
 30
0.0
 11
-5.50337520714947E-2
 21
10.2328626659948
 31
0.0
  0
LINE
  5
   4D6
  8
0
  6
CONTINUOUS
 62
   130
 10
-5.50304501725485E-2
 20
10.1140451167367
 30
0.0
 11
-1.43924824306545E-2
 21
10.0023920296156
 31
0.0
  0
LINE
  5
   4D7
  8
0
  6
CONTINUOUS
 62
   130
 10
-1.43942623888869E-2
 20
10.0023915530389
 30
0.0
 11
6.19798001076397E-2
 21
9.91137119743794
 31
0.0
  0
LINE
  5
   4D8
  8
0
  6
CONTINUOUS
 62
   130
 10
6.19863864072769E-2
 20
9.91136889724444
 30
0.0
 11
0.164887836564844
 21
9.85195952565793
 31
0.0
  0
LINE
  5
   4D9
  8
0
  6
CONTINUOUS
 62
   130
 10
0.164879754717148
 20
9.85196098946521
 30
0.0
 11
0.281895601740356
 21
9.83132824781211
 31
0.0
  0
LINE
  5
   4DA
  8
0
  6
CONTINUOUS
 62
   130
 10
0.281895569217568
 20
9.83132834707082
 30
0.0
 11
0.396607330692177
 21
9.83132834707082
 31
0.0
  0
LINE
  5
   4DB
  8
0
  6
CONTINUOUS
 62
   130
 10
0.396613434115057
 20
9.83133078023404
 30
0.0
 11
0.440379448358001
 21
9.81710959142772
 31
0.0
  0
LINE
  5
   4DC
  8
0
  6
CONTINUOUS
 62
   130
 10
0.440378965736038
 20
9.81710947675414
 30
0.0
 11
0.467428979431194
 21
9.77987827458233
 31
0.0
  0
LINE
  5
   4DD
  8
0
  6
CONTINUOUS
 62
   130
 10
0.46742337073124
 20
9.73385567937673
 30
0.0
 11
0.46742337073124
 21
9.77987594877065
 31
0.0
  0
LINE
  5
   4DE
  8
0
  6
CONTINUOUS
 62
   130
 10
0.440376966454949
 20
9.69662611791439
 30
0.0
 11
0.467426980150101
 21
9.73385732008621
 31
0.0
  0
LINE
  5
   4DF
  8
0
  6
CONTINUOUS
 62
   130
 10
0.396612202863324
 20
9.6824049301596
 30
0.0
 11
0.440378217106272
 21
9.69662611896592
 31
0.0
  0
LINE
  5
   4E0
  8
0
  6
CONTINUOUS
 62
   130
 10
-1.99804988976666E-2
 20
9.68240328107656
 30
0.0
 11
0.396607330692177
 21
9.68240328107656
 31
0.0
  0
LINE
  5
   4E1
  8
0
  6
CONTINUOUS
 62
   130
 10
-1.99804988976666E-2
 20
9.40870352063955
 30
0.0
 11
-1.99804988976666E-2
 21
9.68240328107656
 31
0.0
  0
LINE
  5
   4E2
  8
0
  6
CONTINUOUS
 62
   130
 10
-1.99804988976666E-2
 20
9.40870352063955
 30
0.0
 11
0.396607330692177
 21
9.40870352063955
 31
0.0
  0
LINE
  5
   4E3
  8
0
  6
CONTINUOUS
 62
   130
 10
0.396609948940689
 20
9.40870413287948
 30
0.0
 11
0.515685717309356
 21
9.42970070137208
 31
0.0
  0
LINE
  5
   4E4
  8
0
  6
CONTINUOUS
 62
   130
 10
0.515684676774761
 20
9.42970121758294
 30
0.0
 11
0.620401946230405
 21
9.49015917182397
 31
0.0
  0
LINE
  5
   4E5
  8
0
  6
CONTINUOUS
 62
   130
 10
0.620406233171181
 20
9.49015984924534
 30
0.0
 11
0.698130689564731
 21
9.58278641465595
 31
0.0
  0
LINE
  5
   4E6
  8
0
  6
CONTINUOUS
 62
   130
 10
0.698126901859343
 20
9.58278335899728
 30
0.0
 11
0.7394820365427
 21
9.69640675546565
 31
0.0
  0
LINE
  5
   4E7
  8
0
  6
CONTINUOUS
 62
   130
 10
0.739479950321083
 20
9.69640798841299
 30
0.0
 11
0.739479950321083
 21
9.8173236397344
 31
0.0
  0
LINE
  5
   4E8
  8
0
  6
CONTINUOUS
 62
   130
 10
0.698126806966076
 20
9.93094774202097
 30
0.0
 11
0.73948194164943
 21
9.81732434555262
 31
0.0
  0
LINE
  5
   4E9
  8
0
  6
CONTINUOUS
 62
   130
 10
0.620403667428789
 20
10.0235767735301
 30
0.0
 11
0.698128129034504
 21
9.93094995637581
 31
0.0
  0
LINE
  5
   4EA
  8
0
  6
CONTINUOUS
 62
   130
 10
0.515682505753773
 20
10.0840320190549
 30
0.0
 11
0.62039977052785
 21
10.0235743059511
 31
0.0
  0
LINE
  5
   4EB
  8
0
  6
CONTINUOUS
 62
   130
 10
0.396613472616057
 20
10.1050276436786
 30
0.0
 11
0.515689239268994
 21
10.0840308372409
 31
0.0
  0
LINE
  5
   4EC
  8
0
  6
CONTINUOUS
 62
   130
 10
0.281895569217568
 20
10.1050283459264
 30
0.0
 11
0.396607330692177
 21
10.1050283459264
 31
0.0
  0
LINE
  5
   4ED
  8
0
  6
CONTINUOUS
 62
   130
 10
0.241677617234906
 20
10.1180974867964
 30
0.0
 11
0.281899784621405
 21
10.1050295265806
 31
0.0
  0
LINE
  5
   4EE
  8
0
  6
CONTINUOUS
 62
   130
 10
0.216818303669868
 20
10.1523082039667
 30
0.0
 11
0.241674871065889
 21
10.1180956134859
 31
0.0
  0
LINE
  5
   4EF
  8
0
  6
CONTINUOUS
 62
   130
 10
0.216816833866005
 20
10.1523088959295
 30
0.0
 11
0.216816833866005
 21
10.1945976761419
 31
0.0
  0
LINE
  5
   4F0
  8
0
  6
CONTINUOUS
 62
   130
 10
0.216821995638274
 20
10.1945965219143
 30
0.0
 11
0.241678563034295
 21
10.2288091123951
 31
0.0
  0
LINE
  5
   4F1
  8
0
  6
CONTINUOUS
 62
   130
 10
0.241679169881579
 20
10.228812135474
 30
0.0
 11
0.281901337268089
 21
10.2418800956898
 31
0.0
  0
LINE
  5
   4F2
  8
0
  6
CONTINUOUS
 62
   130
 10
0.281895569217568
 20
10.2418782261449
 30
0.0
 11
0.70451824988163
 21
10.2418782261449
 31
0.0
  0
LINE
  5
   4F3
  8
0
  6
CONTINUOUS
 62
   130
 10
0.70451824988163
 20
10.2418782261449
 30
0.0
 11
0.70451824988163
 21
10.5155782250005
 31
0.0
  0
LINE
  5
   4F4
  8
0
  6
CONTINUOUS
 62
   130
 10
0.281895569217568
 20
10.5155782250005
 30
0.0
 11
0.70451824988163
 21
10.5155782250005
 31
0.0
  0
LINE
  5
   4F5
  8
0
  6
CONTINUOUS
 62
   130
 10
0.74476712073124
 20
9.40870352063955
 30
0.0
 11
1.0298165592078
 21
9.40870352063955
 31
0.0
  0
LINE
  5
   4F6
  8
0
  6
CONTINUOUS
 62
   130
 10
1.02981953187701
 20
9.40870431268758
 30
0.0
 11
1.09421924915141
 21
9.63007906055319
 31
0.0
  0
LINE
  5
   4F7
  8
0
  6
CONTINUOUS
 62
   130
 10
1.09421627844608
 20
9.63007827077688
 30
0.0
 11
1.40157406653202
 21
9.63007827077688
 31
0.0
  0
LINE
  5
   4F8
  8
0
  6
CONTINUOUS
 62
   130
 10
1.40157642372464
 20
9.63007886096925
 30
0.0
 11
1.46597614099905
 21
9.40870411310362
 31
0.0
  0
LINE
  5
   4F9
  8
0
  6
CONTINUOUS
 62
   130
 10
1.4659737857703
 20
9.40870352063955
 30
0.0
 11
1.7510194095496
 21
9.40870352063955
 31
0.0
  0
LINE
  5
   4FA
  8
0
  6
CONTINUOUS
 62
   130
 10
1.42901971757884
 20
10.5155783941634
 30
0.0
 11
1.75102221293869
 21
9.40870340939417
 31
0.0
  0
LINE
  5
   4FB
  8
0
  6
CONTINUOUS
 62
   130
 10
1.06676953161991
 20
10.5155782250005
 30
0.0
 11
1.42901699866093
 21
10.5155782250005
 31
0.0
  0
LINE
  5
   4FC
  8
0
  6
CONTINUOUS
 62
   130
 10
0.744768569583524
 20
9.40869902372775
 30
0.0
 11
1.06677106494337
 21
10.515574008497
 31
0.0
  0
LINE
  5
   4FD
  8
0
  6
CONTINUOUS
 62
   130
 10
1.24789736346249
 20
10.1583493884614
 30
0.0
 11
1.32195211920487
 21
9.90377830281966
 31
0.0
  0
LINE
  5
   4FE
  8
0
  6
CONTINUOUS
 62
   130
 10
1.17383663977421
 20
9.90377826963247
 30
0.0
 11
1.32194989050663
 21
9.90377826963247
 31
0.0
  0
LINE
  5
   4FF
  8
0
  6
CONTINUOUS
 62
   130
 10
1.1738411066622
 20
9.90377869213555
 30
0.0
 11
1.24789963382
 21
10.1583496376973
 31
0.0
  0
LINE
  5
   500
  8
0
  6
CONTINUOUS
 62
   130
 10
2.68470460266925
 20
10.3642703402155
 30
0.0
 11
2.78259736045103
 21
10.2408536737044
 31
0.0
  0
LINE
  5
   501
  8
0
  6
CONTINUOUS
 62
   130
 10
2.55601352453282
 20
10.4551070845629
 30
0.0
 11
2.68470614354785
 21
10.3642681823678
 31
0.0
  0
LINE
  5
   502
  8
0
  6
CONTINUOUS
 62
   130
 10
2.40693713080498
 20
10.5060067326198
 30
0.0
 11
2.55601168397364
 21
10.4551050864155
 31
0.0
  0
LINE
  5
   503
  8
0
  6
CONTINUOUS
 62
   130
 10
2.24956211782907
 20
10.5128483705963
 30
0.0
 11
2.40693745772211
 21
10.50600742611
 31
0.0
  0
LINE
  5
   504
  8
0
  6
CONTINUOUS
 62
   130
 10
2.09662810932669
 20
10.4750745738959
 30
0.0
 11
2.24955932258361
 21
10.5128486578683
 31
0.0
  0
LINE
  5
   505
  8
0
  6
CONTINUOUS
 62
   130
 10
1.9605411911456
 20
10.3957473299696
 30
0.0
 11
2.09663050808254
 21
10.4750763427182
 31
0.0
  0
LINE
  5
   506
  8
0
  6
CONTINUOUS
 62
   130
 10
1.8523084785938
 20
10.2812877937045
 30
0.0
 11
1.96053906826944
 21
10.3957449230559
 31
0.0
  0
LINE
  5
   507
  8
0
  6
CONTINUOUS
 62
   130
 10
1.78071306345563
 20
10.1409776104366
 30
0.0
 11
1.85231110825039
 21
10.2812900414455
 31
0.0
  0
LINE
  5
   508
  8
0
  6
CONTINUOUS
 62
   130
 10
1.75154464150382
 20
9.98617463316101
 30
0.0
 11
1.78071181678655
 21
10.1409752906216
 31
0.0
  0
LINE
  5
   509
  8
0
  6
CONTINUOUS
 62
   130
 10
1.75154495242554
 20
9.98617557714175
 30
0.0
 11
1.76716994494891
 21
9.82942776133745
 31
0.0
  0
LINE
  5
   50A
  8
0
  6
CONTINUOUS
 62
   130
 10
1.76716873086808
 20
9.82942812925124
 30
0.0
 11
1.82632323409935
 21
9.68343204305317
 31
0.0
  0
LINE
  5
   50B
  8
0
  6
CONTINUOUS
 62
   130
 10
1.82632352560794
 20
9.68343331418998
 30
0.0
 11
1.91434003838062
 21
9.56958486169444
 31
0.0
  0
LINE
  5
   50C
  8
0
  6
CONTINUOUS
 62
   130
 10
1.91434154818598
 20
9.56958225234235
 30
0.0
 11
2.02873668895156
 21
9.48227503485913
 31
0.0
  0
LINE
  5
   50D
  8
0
  6
CONTINUOUS
 62
   130
 10
2.02873435566423
 20
9.48227629905024
 30
0.0
 11
2.16177192035326
 21
9.42741332404599
 31
0.0
  0
LINE
  5
   50E
  8
0
  6
CONTINUOUS
 62
   130
 10
2.16177334135184
 20
9.42741265874244
 30
0.0
 11
2.30445827493864
 21
9.40870347678267
 31
0.0
  0
LINE
  5
   50F
  8
0
  6
CONTINUOUS
 62
   130
 10
2.30446033146335
 20
9.40870401146423
 30
0.0
 11
2.44714526505014
 21
9.427413193424
 31
0.0
  0
LINE
  5
   510
  8
0
  6
CONTINUOUS
 62
   130
 10
2.44714072701482
 20
9.42741274093191
 30
0.0
 11
2.58017829170385
 21
9.48227571593617
 31
0.0
  0
LINE
  5
   511
  8
0
  6
CONTINUOUS
 62
   130
 10
2.58018212601743
 20
9.48227859803398
 30
0.0
 11
2.69457726678301
 21
9.5695858155172
 31
0.0
  0
LINE
  5
   512
  8
0
  6
CONTINUOUS
 62
   130
 10
2.69457632283216
 20
9.56958322479766
 30
0.0
 11
2.78259664659916
 21
9.68343166965742
 31
0.0
  0
LINE
  5
   513
  8
0
  6
CONTINUOUS
 62
   130
 10
2.5461358026772
 20
9.82126703826639
 30
0.0
 11
2.78259741615543
 21
9.68343250819857
 31
0.0
  0
LINE
  5
   514
  8
0
  6
CONTINUOUS
 62
   130
 10
2.48367350128324
 20
9.7473502553115
 30
0.0
 11
2.54613154372737
 21
9.82126431243655
 31
0.0
  0
LINE
  5
   515
  8
0
  6
CONTINUOUS
 62
   130
 10
2.39976657910479
 20
9.69914164432866
 30
0.0
 11
2.48367467642218
 21
9.74735227416712
 31
0.0
  0
LINE
  5
   516
  8
0
  6
CONTINUOUS
 62
   130
 10
2.30445865024369
 20
9.68240334137711
 30
0.0
 11
2.39976887325456
 21
9.69914127895075
 31
0.0
  0
LINE
  5
   517
  8
0
  6
CONTINUOUS
 62
   130
 10
2.2091436815241
 20
9.69914138604429
 30
0.0
 11
2.30445390453497
 21
9.68240344847065
 31
0.0
  0
LINE
  5
   518
  8
0
  6
CONTINUOUS
 62
   130
 10
2.12523737561948
 20
9.74735293258761
 30
0.0
 11
2.20914547293687
 21
9.69914230274915
 31
0.0
  0
LINE
  5
   519
  8
0
  6
CONTINUOUS
 62
   130
 10
2.06277965237881
 20
9.82126745948073
 30
0.0
 11
2.12523769482295
 21
9.74735340235568
 31
0.0
  0
LINE
  5
   51A
  8
0
  6
CONTINUOUS
 62
   130
 10
2.02726799798363
 20
9.92447562868681
 30
0.0
 11
2.0627828294738
 21
9.82126684517228
 31
0.0
  0
LINE
  5
   51B
  8
0
  6
CONTINUOUS
 62
   130
 10
2.02726915460059
 20
9.92447350276347
 30
0.0
 11
2.03395631968888
 21
10.0334167379591
 31
0.0
  0
LINE
  5
   51C
  8
0
  6
CONTINUOUS
 62
   130
 10
2.03395616282942
 20
10.0334189566282
 30
0.0
 11
2.08182298647241
 21
10.1315108021968
 31
0.0
  0
LINE
  5
   51D
  8
0
  6
CONTINUOUS
 62
   130
 10
2.08181929319994
 20
10.1315108626022
 30
0.0
 11
2.16358352081454
 21
10.2038179833113
 31
0.0
  0
LINE
  5
   51E
  8
0
  6
CONTINUOUS
 62
   130
 10
2.16358429929836
 20
10.2038173950597
 30
0.0
 11
2.26679093381449
 21
10.2393312695107
 31
0.0
  0
LINE
  5
   51F
  8
0
  6
CONTINUOUS
 62
   130
 10
2.26678912848413
 20
10.2393302482742
 30
0.0
 11
2.37573310106715
 21
10.2326447512452
 31
0.0
  0
LINE
  5
   520
  8
0
  6
CONTINUOUS
 62
   130
 10
2.37573609825992
 20
10.2326438274188
 30
0.0
 11
2.47382723595292
 21
10.1847762839443
 31
0.0
  0
LINE
  5
   521
  8
0
  6
CONTINUOUS
 62
   130
 10
2.47382854882814
 20
10.184782111845
 30
0.0
 11
2.54613614101622
 21
10.1030202724016
 31
0.0
  0
LINE
  5
   522
  8
0
  6
CONTINUOUS
 62
   130
 10
2.54613757167688
 20
10.1030192110668
 30
0.0
 11
2.78259918515512
 21
10.2408537411346
 31
0.0
  0
LINE
  5
   523
  8
0
  6
CONTINUOUS
 62
   130
 10
2.88321774328983
 20
9.40870352063955
 30
0.0
 11
2.88321774328983
 21
10.5155779865819
 31
0.0
  0
LINE
  5
   524
  8
0
  6
CONTINUOUS
 62
   130
 10
2.88321774328983
 20
9.40870352063955
 30
0.0
 11
3.60771649206913
 21
9.40870352063955
 31
0.0
  0
LINE
  5
   525
  8
0
  6
CONTINUOUS
 62
   130
 10
3.60771649206913
 20
9.40870352063955
 30
0.0
 11
3.60771649206913
 21
9.68240328107656
 31
0.0
  0
LINE
  5
   526
  8
0
  6
CONTINUOUS
 62
   130
 10
3.15691845740116
 20
9.68240328107656
 30
0.0
 11
3.60771649206913
 21
9.68240328107656
 31
0.0
  0
LINE
  5
   527
  8
0
  6
CONTINUOUS
 62
   130
 10
3.15691845740116
 20
9.68240328107656
 30
0.0
 11
3.15691845740116
 21
9.82529087339223
 31
0.0
  0
LINE
  5
   528
  8
0
  6
CONTINUOUS
 62
   130
 10
3.15691845740116
 20
9.82529087339223
 30
0.0
 11
3.54734127844608
 21
9.82529087339223
 31
0.0
  0
LINE
  5
   529
  8
0
  6
CONTINUOUS
 62
   130
 10
3.54734127844608
 20
9.82529087339223
 30
0.0
 11
3.54734127844608
 21
10.0989908722478
 31
0.0
  0
LINE
  5
   52A
  8
0
  6
CONTINUOUS
 62
   130
 10
3.15691845740116
 20
10.0989908722478
 30
0.0
 11
3.54734127844608
 21
10.0989908722478
 31
0.0
  0
LINE
  5
   52B
  8
0
  6
CONTINUOUS
 62
   130
 10
3.15691845740116
 20
10.0989908722478
 30
0.0
 11
3.15691845740116
 21
10.2418782112438
 31
0.0
  0
LINE
  5
   52C
  8
0
  6
CONTINUOUS
 62
   130
 10
3.15691845740116
 20
10.2418782261449
 30
0.0
 11
3.60771649206913
 21
10.2418782261449
 31
0.0
  0
LINE
  5
   52D
  8
0
  6
CONTINUOUS
 62
   130
 10
3.60771649206913
 20
10.2418782261449
 30
0.0
 11
3.60771649206913
 21
10.5155782250005
 31
0.0
  0
LINE
  5
   52E
  8
0
  6
CONTINUOUS
 62
   130
 10
2.88321774328983
 20
10.5155782250005
 30
0.0
 11
3.60771649206913
 21
10.5155782250005
 31
0.0
  0
LINE
  5
   52F
  8
0
  6
CONTINUOUS
 62
   130
 10
-24.7980613249259
 20
9.96958994925036
 30
0.0
 11
-24.571132668567
 21
10.6179662659613
 31
0.0
  0
LINE
  5
   530
  8
0
  6
CONTINUOUS
 62
   130
 10
-24.7980651855469
 20
9.96959186345339
 30
0.0
 11
-24.3882598876953
 21
9.96959186345339
 31
0.0
  0
LINE
  5
   531
  8
0
  6
CONTINUOUS
 62
   130
 10
-24.5711364746094
 20
10.6179683282971
 30
0.0
 11
-24.3882598876953
 21
10.6179683282971
 31
0.0
  0
LINE
  5
   532
  8
0
  6
CONTINUOUS
 62
   130
 10
-25.0366363525391
 20
9.28797007352114
 30
0.0
 11
-24.7041358947754
 21
9.28797007352114
 31
0.0
  0
LINE
  5
   533
  8
0
  6
CONTINUOUS
 62
   130
 10
-24.7041330875522
 20
9.28796932236137
 30
0.0
 11
-24.6110315897223
 21
9.55396912883097
 31
0.0
  0
LINE
  5
   534
  8
0
  6
CONTINUOUS
 62
   130
 10
-24.6110343933105
 20
9.55396986752748
 30
0.0
 11
-24.3882598876953
 21
9.55396986752748
 31
0.0
  0
LINE
  5
   535
  8
0
  6
CONTINUOUS
 62
   130
 10
-24.8097038269043
 20
9.9363429620862
 30
0.0
 11
-24.3882598876953
 21
9.9363429620862
 31
0.0
  0
LINE
  5
   536
  8
0
  6
CONTINUOUS
 62
   130
 10
-25.0366336313737
 20
9.2879688595478
 30
0.0
 11
-24.8097011735534
 21
9.9363416132896
 31
0.0
  0
LINE
  5
   537
  8
0
  6
CONTINUOUS
 62
   130
 10
-23.9335599390599
 20
9.93634152392868
 30
0.0
 11
-23.7066274812396
 21
9.28796877018686
 31
0.0
  0
LINE
  5
   538
  8
0
  6
CONTINUOUS
 62
   130
 10
-24.3550109863281
 20
9.9363429620862
 30
0.0
 11
-23.9335670471191
 21
9.9363429620862
 31
0.0
  0
LINE
  5
   539
  8
0
  6
CONTINUOUS
 62
   130
 10
-24.3550109863281
 20
9.55396986752748
 30
0.0
 11
-24.3550109863281
 21
9.9363429620862
 31
0.0
  0
LINE
  5
   53A
  8
0
  6
CONTINUOUS
 62
   130
 10
-24.3550109863281
 20
9.55396986752748
 30
0.0
 11
-24.1322364807129
 21
9.55396986752748
 31
0.0
  0
LINE
  5
   53B
  8
0
  6
CONTINUOUS
 62
   130
 10
-24.132230689225
 20
9.55397028746144
 30
0.0
 11
-24.0391291913951
 21
9.28797048099182
 31
0.0
  0
LINE
  5
   53C
  8
0
  6
CONTINUOUS
 62
   130
 10
-24.039134979248
 20
9.28797007352114
 30
0.0
 11
-23.7066345214844
 21
9.28797007352114
 31
0.0
  0
LINE
  5
   53D
  8
0
  6
CONTINUOUS
 62
   130
 10
-24.3550109863281
 20
10.6179683282971
 30
0.0
 11
-24.1721343994141
 21
10.6179683282971
 31
0.0
  0
LINE
  5
   53E
  8
0
  6
CONTINUOUS
 62
   130
 10
-24.3550109863281
 20
9.96959186345339
 30
0.0
 11
-24.3550109863281
 21
10.6179683282971
 31
0.0
  0
LINE
  5
   53F
  8
0
  6
CONTINUOUS
 62
   130
 10
-24.3550109863281
 20
9.96959186345339
 30
0.0
 11
-23.9452018737793
 21
9.96959186345339
 31
0.0
  0
LINE
  5
   540
  8
0
  6
CONTINUOUS
 62
   130
 10
-24.1721305809394
 20
10.6179670128601
 30
0.0
 11
-23.9451981061738
 21
9.96959060172379
 31
0.0
  0
LINE
  5
   541
  8
0
  6
CONTINUOUS
 62
   130
 10
-23.6235084533691
 20
9.96959186345339
 30
0.0
 11
-23.2411346435547
 21
9.96959186345339
 31
0.0
  0
LINE
  5
   542
  8
0
  6
CONTINUOUS
 62
   130
 10
-23.2411346435547
 20
9.96959186345339
 30
0.0
 11
-23.2411346435547
 21
10.6179683282971
 31
0.0
  0
LINE
  5
   543
  8
0
  6
CONTINUOUS
 62
   130
 10
-23.6235084533691
 20
10.6179683282971
 30
0.0
 11
-23.2411346435547
 21
10.6179683282971
 31
0.0
  0
LINE
  5
   544
  8
0
  6
CONTINUOUS
 62
   130
 10
-23.6235084533691
 20
9.28797007352114
 30
0.0
 11
-23.2411346435547
 21
9.28797007352114
 31
0.0
  0
LINE
  5
   545
  8
0
  6
CONTINUOUS
 62
   130
 10
-23.2411346435547
 20
9.28797007352114
 30
0.0
 11
-23.2411346435547
 21
9.9363429620862
 31
0.0
  0
LINE
  5
   546
  8
0
  6
CONTINUOUS
 62
   130
 10
-23.6235084533691
 20
9.9363429620862
 30
0.0
 11
-23.2411346435547
 21
9.9363429620862
 31
0.0
  0
LINE
  5
   547
  8
0
  6
CONTINUOUS
 62
   130
 10
-22.5927619934082
 20
9.96959186345339
 30
0.0
 11
-22.5927619934082
 21
10.6179683282971
 31
0.0
  0
LINE
  5
   548
  8
0
  6
CONTINUOUS
 62
   130
 10
-22.5927619934082
 20
9.96959186345339
 30
0.0
 11
-22.2103843688965
 21
9.96959186345339
 31
0.0
  0
LINE
  5
   549
  8
0
  6
CONTINUOUS
 62
   130
 10
-22.2103843688965
 20
9.96959186345339
 30
0.0
 11
-22.2103843688965
 21
10.6179683282971
 31
0.0
  0
LINE
  5
   54A
  8
0
  6
CONTINUOUS
 62
   130
 10
-22.5927619934082
 20
10.6179683282971
 30
0.0
 11
-22.2103843688965
 21
10.6179683282971
 31
0.0
  0
LINE
  5
   54B
  8
0
  6
CONTINUOUS
 62
   130
 10
-22.5927619934082
 20
9.28797007352114
 30
0.0
 11
-22.2103843688965
 21
9.28797007352114
 31
0.0
  0
LINE
  5
   54C
  8
0
  6
CONTINUOUS
 62
   130
 10
-22.2103843688965
 20
9.28797007352114
 30
0.0
 11
-22.2103843688965
 21
9.9363429620862
 31
0.0
  0
LINE
  5
   54D
  8
0
  6
CONTINUOUS
 62
   130
 10
-22.5927619934082
 20
9.9363429620862
 30
0.0
 11
-22.2103843688965
 21
9.9363429620862
 31
0.0
  0
LINE
  5
   54E
  8
0
  6
CONTINUOUS
 62
   130
 10
-22.5927619934082
 20
9.28797007352114
 30
0.0
 11
-22.5927619934082
 21
9.9363429620862
 31
0.0
  0
LINE
  5
   54F
  8
0
  6
CONTINUOUS
 62
   130
 10
-22.1771354675293
 20
10.6179683282971
 30
0.0
 11
-22.0702667236328
 21
10.6179683282971
 31
0.0
  0
LINE
  5
   550
  8
0
  6
CONTINUOUS
 62
   130
 10
-22.1771354675293
 20
9.96959186345339
 30
0.0
 11
-22.1771354675293
 21
10.6179683282971
 31
0.0
  0
LINE
  5
   551
  8
0
  6
CONTINUOUS
 62
   130
 10
-22.1771354675293
 20
9.96959186345339
 30
0.0
 11
-21.7900466918945
 21
9.96959186345339
 31
0.0
  0
LINE
  5
   552
  8
0
  6
CONTINUOUS
 62
   130
 10
-21.8471542432007
 20
10.0126609744104
 30
0.0
 11
-21.7900482173233
 21
9.96959303581252
 31
0.0
  0
LINE
  5
   553
  8
0
  6
CONTINUOUS
 62
   130
 10
-21.9111354851334
 20
10.0446231917502
 30
0.0
 11
-21.8471515585375
 21
10.0126598404275
 31
0.0
  0
LINE
  5
   554
  8
0
  6
CONTINUOUS
 62
   130
 10
-21.9111347051038
 20
10.0446212721171
 30
0.0
 11
-21.834974281317
 21
10.1092880108947
 31
0.0
  0
LINE
  5
   555
  8
0
  6
CONTINUOUS
 62
   130
 10
-21.8349720083058
 20
10.1092872847783
 30
0.0
 11
-21.783450712754
 21
10.194889088562
 31
0.0
  0
LINE
  5
   556
  8
0
  6
CONTINUOUS
 62
   130
 10
-21.7834518905737
 20
10.1948893953071
 30
0.0
 11
-21.7619637034431
 21
10.2924578956182
 31
0.0
  0
LINE
  5
   557
  8
0
  6
CONTINUOUS
 62
   130
 10
-21.7727562669723
 20
10.3917862601252
 30
0.0
 11
-21.7619644916055
 21
10.2924591517633
 31
0.0
  0
LINE
  5
   558
  8
0
  6
CONTINUOUS
 62
   130
 10
-21.814701592999
 20
10.4824638182953
 30
0.0
 11
-21.7727589900068
 21
10.3917884532905
 31
0.0
  0
LINE
  5
   559
  8
0
  6
CONTINUOUS
 62
   130
 10
-21.8834057718259
 20
10.555004917179
 30
0.0
 11
-21.8147030675513
 21
10.4824646294241
 31
0.0
  0
LINE
  5
   55A
  8
0
  6
CONTINUOUS
 62
   130
 10
-21.9716703237684
 20
10.601797178326
 30
0.0
 11
-21.8834020399881
 21
10.5549984684364
 31
0.0
  0
LINE
  5
   55B
  8
0
  6
CONTINUOUS
 62
   130
 10
-22.1771354675293
 20
9.9363429620862
 30
0.0
 11
-21.7575569152832
 21
9.9363429620862
 31
0.0
  0
LINE
  5
   55C
  8
0
  6
CONTINUOUS
 62
   130
 10
-22.1771354675293
 20
9.28797007352114
 30
0.0
 11
-22.1771354675293
 21
9.9363429620862
 31
0.0
  0
LINE
  5
   55D
  8
0
  6
CONTINUOUS
 62
   130
 10
-22.1771354675293
 20
9.28797007352114
 30
0.0
 11
-22.0534782409668
 21
9.28797007352114
 31
0.0
  0
LINE
  5
   55E
  8
0
  6
CONTINUOUS
 62
   130
 10
-22.0534766313376
 20
9.28796934399193
 30
0.0
 11
-21.9430945393484
 21
9.3038430132118
 31
0.0
  0
LINE
  5
   55F
  8
0
  6
CONTINUOUS
 62
   130
 10
-21.9430951470921
 20
9.30384326123587
 30
0.0
 11
-21.8416585257905
 21
9.35017776706876
 31
0.0
  0
LINE
  5
   560
  8
0
  6
CONTINUOUS
 62
   130
 10
-21.8416594710568
 20
9.35017745444791
 30
0.0
 11
-21.7573928006622
 21
9.42321770378101
 31
0.0
  0
LINE
  5
   561
  8
0
  6
CONTINUOUS
 62
   130
 10
-21.7573921398375
 20
9.42321800595625
 30
0.0
 11
-21.6971199233275
 21
9.51704429878195
 31
0.0
  0
LINE
  5
   562
  8
0
  6
CONTINUOUS
 62
   130
 10
-21.6971157009593
 20
9.51704302285114
 30
0.0
 11
-21.6657283727169
 21
9.62405075947543
 31
0.0
  0
LINE
  5
   563
  8
0
  6
CONTINUOUS
 62
   130
 10
-21.6657659982303
 20
9.73556966438463
 30
0.0
 11
-21.6657316659565
 21
9.62405294499523
 31
0.0
  0
LINE
  5
   564
  8
0
  6
CONTINUOUS
 62
   130
 10
-21.6972212613032
 20
9.84255838114918
 30
0.0
 11
-21.6657652699997
 21
9.73557042253464
 31
0.0
  0
LINE
  5
   565
  8
0
  6
CONTINUOUS
 62
   130
 10
-21.7575559974716
 20
9.93634156237515
 30
0.0
 11
-21.6972227461654
 21
9.84255580107057
 31
0.0
  0
LINE
  5
   566
  8
0
  6
CONTINUOUS
 62
   130
 10
-23.2078857421875
 20
10.6179683282971
 30
0.0
 11
-23.1010131835938
 21
10.6179683282971
 31
0.0
  0
LINE
  5
   567
  8
0
  6
CONTINUOUS
 62
   130
 10
-23.2078857421875
 20
9.96959186345339
 30
0.0
 11
-23.2078857421875
 21
10.6179683282971
 31
0.0
  0
LINE
  5
   568
  8
0
  6
CONTINUOUS
 62
   130
 10
-23.2078857421875
 20
9.96959186345339
 30
0.0
 11
-22.8207969665527
 21
9.96959186345339
 31
0.0
  0
LINE
  5
   569
  8
0
  6
CONTINUOUS
 62
   130
 10
-22.8779020378473
 20
10.0126590335331
 30
0.0
 11
-22.8207960119698
 21
9.96959109493524
 31
0.0
  0
LINE
  5
   56A
  8
0
  6
CONTINUOUS
 62
   130
 10
-22.9418864989708
 20
10.0446232661375
 30
0.0
 11
-22.8779025723749
 21
10.0126599148147
 31
0.0
  0
LINE
  5
   56B
  8
0
  6
CONTINUOUS
 62
   130
 10
-22.9418855446979
 20
10.0446232664133
 30
0.0
 11
-22.8657251209111
 21
10.1092900051909
 31
0.0
  0
LINE
  5
   56C
  8
0
  6
CONTINUOUS
 62
   130
 10
-22.8657238293728
 20
10.109288423681
 30
0.0
 11
-22.814202533821
 21
10.1948902274646
 31
0.0
  0
LINE
  5
   56D
  8
0
  6
CONTINUOUS
 62
   130
 10
-22.8142027927757
 20
10.1948898090184
 30
0.0
 11
-22.7927107901727
 21
10.2924583150235
 31
0.0
  0
LINE
  5
   56E
  8
0
  6
CONTINUOUS
 62
   130
 10
-22.8035022884022
 20
10.3917879101105
 30
0.0
 11
-22.7927105130354
 21
10.2924608017485
 31
0.0
  0
LINE
  5
   56F
  8
0
  6
CONTINUOUS
 62
   130
 10
-22.845450350787
 20
10.4824607856099
 30
0.0
 11
-22.8035039366756
 21
10.3917854249224
 31
0.0
  0
LINE
  5
   570
  8
0
  6
CONTINUOUS
 62
   130
 10
-22.9141545020127
 20
10.5550066559114
 30
0.0
 11
-22.8454517977381
 21
10.4824663681564
 31
0.0
  0
LINE
  5
   571
  8
0
  6
CONTINUOUS
 62
   130
 10
-23.0024230900546
 20
10.6017983849976
 30
0.0
 11
-22.9141548062743
 21
10.554999675108
 31
0.0
  0
LINE
  5
   572
  8
0
  6
CONTINUOUS
 62
   130
 10
-23.101013496196
 20
10.6179685786314
 30
0.0
 11
-23.0024226245099
 21
10.6018018921324
 31
0.0
  0
LINE
  5
   573
  8
0
  6
CONTINUOUS
 62
   130
 10
-23.2078857421875
 20
9.9363429620862
 30
0.0
 11
-22.7883071899414
 21
9.9363429620862
 31
0.0
  0
LINE
  5
   574
  8
0
  6
CONTINUOUS
 62
   130
 10
-23.2078857421875
 20
9.28797007352114
 30
0.0
 11
-23.2078857421875
 21
9.9363429620862
 31
0.0
  0
LINE
  5
   575
  8
0
  6
CONTINUOUS
 62
   130
 10
-23.2078857421875
 20
9.28797007352114
 30
0.0
 11
-23.084228515625
 21
9.28797007352114
 31
0.0
  0
LINE
  5
   576
  8
0
  6
CONTINUOUS
 62
   130
 10
-23.0842281985963
 20
9.287966890948
 30
0.0
 11
-22.973846106607
 21
9.30384056016787
 31
0.0
  0
LINE
  5
   577
  8
0
  6
CONTINUOUS
 62
   130
 10
-22.9738453145241
 20
9.30384260756298
 30
0.0
 11
-22.8724086932224
 21
9.35017711339586
 31
0.0
  0
LINE
  5
   578
  8
0
  6
CONTINUOUS
 62
   130
 10
-22.8724094578473
 20
9.3501769672631
 30
0.0
 11
-22.7881427874527
 21
9.42321721659619
 31
0.0
  0
LINE
  5
   579
  8
0
  6
CONTINUOUS
 62
   130
 10
-22.7881429313049
 20
9.42321813414461
 30
0.0
 11
-22.7278707147949
 21
9.51704442697031
 31
0.0
  0
LINE
  5
   57A
  8
0
  6
CONTINUOUS
 62
   130
 10
-22.72786810005
 20
9.51704442606755
 30
0.0
 11
-22.6964769538941
 21
9.62405217423242
 31
0.0
  0
LINE
  5
   57B
  8
0
  6
CONTINUOUS
 62
   130
 10
-22.6965174455596
 20
9.73556978025774
 30
0.0
 11
-22.6964792986056
 21
9.62405305962186
 31
0.0
  0
LINE
  5
   57C
  8
0
  6
CONTINUOUS
 62
   130
 10
-22.7279706044991
 20
9.84255833012237
 30
0.0
 11
-22.6965146131955
 21
9.73557037150783
 31
0.0
  0
LINE
  5
   57D
  8
0
  6
CONTINUOUS
 62
   130
 10
-22.7883052734751
 20
9.9363418173903
 30
0.0
 11
-22.7279720221689
 21
9.84255605608573
 31
0.0
  0
LINE
  5
   57E
  8
0
  6
CONTINUOUS
 62
   130
 10
-23.6235084533691
 20
9.28797007352114
 30
0.0
 11
-23.6235084533691
 21
10.6179683282971
 31
0.0
  0
LINE
  5
   57F
  8
0
  6
CONTINUOUS
 62
   130
 10
-26.417897758485
 20
8.43602323531852
 30
0.0
 11
-12.4179190540319
 21
8.43602323531852
 31
0.0
  0
LINE
  5
   580
  8
0
  6
CONTINUOUS
 62
   130
 10
-12.1679186820981
 20
7.93602323531852
 30
0.0
 11
-12.1679186820981
 21
9.43602323531852
 31
0.0
  0
LINE
  5
   581
  8
0
  6
CONTINUOUS
 62
   130
 10
-1.66790437698476
 20
7.93602323531852
 30
0.0
 11
-1.66790437698476
 21
9.43602323531852
 31
0.0
  0
LINE
  5
   582
  8
0
  6
CONTINUOUS
 62
   130
 10
-12.1679190921789
 20
9.43602323531852
 30
0.0
 11
-1.66790396690403
 21
9.43602323531852
 31
0.0
  0
LINE
  5
   583
  8
0
  6
CONTINUOUS
 62
   130
 10
-1.41790400505103
 20
8.43602323531852
 30
0.0
 11
12.5820746994021
 21
8.43602323531852
 31
0.0
  0
LINE
  5
   584
  8
0
  6
CONTINUOUS
 62
   130
 10
-12.4179191017156
 20
9.68602323531852
 30
0.0
 11
-1.41790395736729
 21
9.68602323531852
 31
0.0
  0
LINE
  5
   585
  8
0
  6
CONTINUOUS
 62
   130
 10
-1.41790437698477
 20
7.93602323531852
 30
0.0
 11
-1.41790437698477
 21
9.68602323531852
 31
0.0
  0
LINE
  5
   586
  8
0
  6
CONTINUOUS
 62
   130
 10
-12.4179186820981
 20
7.93602323531852
 30
0.0
 11
-12.4179186820981
 21
9.68602323531852
 31
0.0
  0
LINE
  5
   587
  8
0
  6
CONTINUOUS
 62
   130
 10
-1.66790437698476
 20
-6.51990216199603
 30
0.0
 11
-1.66790437698476
 21
-5.01990216199603
 31
0.0
  0
LINE
  5
   588
  8
0
  6
CONTINUOUS
 62
   130
 10
-12.1679186820981
 20
-6.51990216199603
 30
0.0
 11
-12.1679186820981
 21
-5.01990216199603
 31
0.0
  0
LINE
  5
   589
  8
0
  6
CONTINUOUS
 62
   130
 10
-12.1679185407288
 20
-5.01990216199603
 30
0.0
 11
-10.6679185407288
 21
-5.01990216199603
 31
0.0
  0
LINE
  5
   58A
  8
0
  6
CONTINUOUS
 62
   130
 10
-3.16790451835412
 20
-5.01990216199603
 30
0.0
 11
-1.66790451835412
 21
-5.01990216199603
 31
0.0
  0
LINE
  5
   58B
  8
0
  6
CONTINUOUS
 62
   130
 10
-12.1679184835083
 20
-6.51990216199603
 30
0.0
 11
-10.1679184835083
 21
-6.51990216199603
 31
0.0
  0
LINE
  5
   58C
  8
0
  6
CONTINUOUS
 62
   130
 10
-3.6679045755746
 20
-6.51990216199603
 30
0.0
 11
-1.66790457557461
 21
-6.51990216199603
 31
0.0
  0
LINE
  5
   58D
  8
0
  6
CONTINUOUS
 62
   130
 10
-14.7179103851322
 20
-9.93898439407258
 30
0.0
 11
-14.7179103851322
 21
-7.68898439407258
 31
0.0
  0
LINE
  5
   58E
  8
0
  6
CONTINUOUS
 62
   130
 10
-19.7179103851322
 20
-9.93898439407258
 30
0.0
 11
-19.7179103851322
 21
-7.68898439407258
 31
0.0
  0
LINE
  5
   58F
  8
0
  6
CONTINUOUS
 62
   130
 10
-19.7179103851322
 20
-7.68898439407258
 30
0.0
 11
-14.7179103851322
 21
-7.68898439407258
 31
0.0
  0
LINE
  5
   590
  8
0
  6
CONTINUOUS
 62
   130
 10
-19.7179103851322
 20
-9.93898439407258
 30
0.0
 11
-14.7179103851322
 21
-9.93898439407258
 31
0.0
  0
LINE
  5
   591
  8
0
  6
CONTINUOUS
 62
   130
 10
-25.9179020309427
 20
36.9360079765335
 30
0.0
 11
12.0820789718598
 21
36.9360079765335
 31
0.0
  0
LINE
  5
   592
  8
0
  6
CONTINUOUS
 62
   130
 10
-25.9178927230845
 20
-25.0639843940726
 30
0.0
 11
12.0820696640016
 21
-25.0639843940726
 31
0.0
  0
ARC
  5
   593
  8
0
  6
CONTINUOUS
 62
   130
 10
12.0820789718598
 20
36.4360079765335
 30
0.0
 40
0.5
 50
359.99999125736
 51
450.0
  0
ARC
  5
   594
  8
0
  6
CONTINUOUS
 62
   130
 10
-25.9179020309427
 20
36.4360079765335
 30
0.0
 40
0.5
 50
90.0
 51
180.00000874264
  0
ARC
  5
   595
  8
0
  6
CONTINUOUS
 62
   130
 10
-25.9178927230845
 20
-24.5639843940726
 30
0.0
 40
0.5
 50
180.00000874264
 51
270.0
  0
ARC
  5
   596
  8
0
  6
CONTINUOUS
 62
   130
 10
12.0820696640016
 20
-24.5639843940726
 30
0.0
 40
0.5
 50
270.0
 51
359.99999125736
  0
LINE
  5
   597
  8
0
  6
CONTINUOUS
 62
   130
 10
-26.4178911972069
 20
-34.5639781951904
 30
0.0
 11
12.5820681381239
 21
-34.5639781951904
 31
0.0
  0
LINE
  5
   598
  8
0
  6
CONTINUOUS
 62
   130
 10
-26.4179037094113
 20
47.4360218048096
 30
0.0
 11
12.5820806503284
 21
47.4360218048096
 31
0.0
  0
CIRCLE
  5
   599
  8
0
  6
CONTINUOUS
 62
   130
 10
-19.4178966316312
 20
42.4360218048096
 30
0.0
 40
1.25
  0
CIRCLE
  5
   59A
  8
0
  6
CONTINUOUS
 62
   130
 10
-6.91789663163122
 20
42.4360218048096
 30
0.0
 40
1.25
  0
CIRCLE
  5
   59B
  8
0
  6
CONTINUOUS
 62
   130
 10
5.58210336836878
 20
42.4360218048096
 30
0.0
 40
1.25
  0
CIRCLE
  5
   59C
  8
0
  6
CONTINUOUS
 62
   130
 10
-19.4178966316312
 20
-29.5639781951904
 30
0.0
 40
1.25
  0
CIRCLE
  5
   59D
  8
0
  6
CONTINUOUS
 62
   130
 10
-6.91789663163122
 20
-29.5639781951904
 30
0.0
 40
1.25
  0
CIRCLE
  5
   59E
  8
0
  6
CONTINUOUS
 62
   130
 10
5.58210336836878
 20
-29.5639781951904
 30
0.0
 40
1.25
  0
LINE
  5
   59F
  8
0
  6
DASHDOT
 62
   130
 10
5.58210336836878
 20
40.6860218048096
 30
0.0
 11
5.58210336836878
 21
44.1860218048096
 31
0.0
  0
LINE
  5
   5A0
  8
0
  6
DASHDOT
 62
   130
 10
3.83210336836878
 20
42.4360218048096
 30
0.0
 11
7.33210336836878
 21
42.4360218048096
 31
0.0
  0
LINE
  5
   5A1
  8
0
  6
DASHDOT
 62
   130
 10
-6.91789663163122
 20
40.6860218048096
 30
0.0
 11
-6.91789663163122
 21
44.1860218048096
 31
0.0
  0
LINE
  5
   5A2
  8
0
  6
DASHDOT
 62
   130
 10
-8.66789663163122
 20
42.4360218048096
 30
0.0
 11
-5.16789663163122
 21
42.4360218048096
 31
0.0
  0
LINE
  5
   5A3
  8
0
  6
DASHDOT
 62
   130
 10
-19.4178966316312
 20
40.6860218048096
 30
0.0
 11
-19.4178966316312
 21
44.1860218048096
 31
0.0
  0
LINE
  5
   5A4
  8
0
  6
DASHDOT
 62
   130
 10
-21.1678966316312
 20
42.4360218048096
 30
0.0
 11
-17.6678966316312
 21
42.4360218048096
 31
0.0
  0
LINE
  5
   5A5
  8
0
  6
DASHDOT
 62
   130
 10
-19.4178966316312
 20
-31.3139781951904
 30
0.0
 11
-19.4178966316312
 21
-27.8139781951904
 31
0.0
  0
LINE
  5
   5A6
  8
0
  6
DASHDOT
 62
   130
 10
-21.1678966316312
 20
-29.5639781951904
 30
0.0
 11
-17.6678966316312
 21
-29.5639781951904
 31
0.0
  0
LINE
  5
   5A7
  8
0
  6
DASHDOT
 62
   130
 10
-6.91789663163122
 20
-31.3139781951904
 30
0.0
 11
-6.91789663163122
 21
-27.8139781951904
 31
0.0
  0
LINE
  5
   5A8
  8
0
  6
DASHDOT
 62
   130
 10
-8.66789663163122
 20
-29.5639781951904
 30
0.0
 11
-5.16789663163122
 21
-29.5639781951904
 31
0.0
  0
LINE
  5
   5A9
  8
0
  6
DASHDOT
 62
   130
 10
5.58210336836878
 20
-31.3139781951904
 30
0.0
 11
5.58210336836878
 21
-27.8139781951904
 31
0.0
  0
LINE
  5
   5AA
  8
0
  6
DASHDOT
 62
   130
 10
3.83210336836878
 20
-29.5639781951904
 30
0.0
 11
7.33210336836878
 21
-29.5639781951904
 31
0.0
  0
LINE
  5
   5AB
  8
0
  6
CONTINUOUS
 62
   130
 10
-6.59289663163122
 20
28.6860020937747
 30
0.0
 11
-6.59289663163122
 21
36.9360079765335
 31
0.0
  0
LINE
  5
   5AC
  8
0
  6
CONTINUOUS
 62
   130
 10
-6.34289663163122
 20
28.6860020937747
 30
0.0
 11
-6.34289663163122
 21
36.9360079765335
 31
0.0
  0
LINE
  5
   5AD
  8
0
  6
CONTINUOUS
 62
   130
 10
-5.69289663163122
 20
28.6860020937747
 30
0.0
 11
-5.69289663163122
 21
36.9360079765335
 31
0.0
  0
LINE
  5
   5AE
  8
0
  6
CONTINUOUS
 62
   130
 10
-5.69289663163122
 20
28.6860020937747
 30
0.0
 11
-5.69289663163122
 21
36.9360079765335
 31
0.0
  0
LINE
  5
   5AF
  8
0
  6
CONTINUOUS
 62
   130
 10
-5.44289663163122
 20
28.6860020937747
 30
0.0
 11
-5.44289663163122
 21
36.9360079765335
 31
0.0
  0
LINE
  5
   5B0
  8
0
  6
CONTINUOUS
 62
   130
 10
-5.44289663163122
 20
28.6860020937747
 30
0.0
 11
-5.44289663163122
 21
36.9360079765335
 31
0.0
  0
LINE
  5
   5B1
  8
0
  6
CONTINUOUS
 62
   130
 10
-4.79289663163122
 20
28.6860020937747
 30
0.0
 11
-4.79289663163122
 21
36.9360079765335
 31
0.0
  0
LINE
  5
   5B2
  8
0
  6
CONTINUOUS
 62
   130
 10
-4.79289663163122
 20
28.6860020937747
 30
0.0
 11
-4.79289663163122
 21
36.9360079765335
 31
0.0
  0
LINE
  5
   5B3
  8
0
  6
CONTINUOUS
 62
   130
 10
-4.54289663163122
 20
28.6860020937747
 30
0.0
 11
-4.54289663163122
 21
36.9360079765335
 31
0.0
  0
LINE
  5
   5B4
  8
0
  6
CONTINUOUS
 62
   130
 10
-3.89289663163122
 20
28.6860020937747
 30
0.0
 11
-3.89289663163122
 21
36.9360079765335
 31
0.0
  0
LINE
  5
   5B5
  8
0
  6
CONTINUOUS
 62
   130
 10
-3.64289663163122
 20
28.6860020937747
 30
0.0
 11
-3.64289663163122
 21
36.9360079765335
 31
0.0
  0
LINE
  5
   5B6
  8
0
  6
CONTINUOUS
 62
   130
 10
-2.99289663163122
 20
28.6860020937747
 30
0.0
 11
-2.99289663163122
 21
36.9360079765335
 31
0.0
  0
LINE
  5
   5B7
  8
0
  6
CONTINUOUS
 62
   130
 10
-2.74289663163122
 20
28.6860020937747
 30
0.0
 11
-2.74289663163122
 21
36.9360079765335
 31
0.0
  0
LINE
  5
   5B8
  8
0
  6
CONTINUOUS
 62
   130
 10
-2.09289663163122
 20
28.6860020937747
 30
0.0
 11
-2.09289663163122
 21
36.9360079765335
 31
0.0
  0
LINE
  5
   5B9
  8
0
  6
CONTINUOUS
 62
   130
 10
-1.84289663163122
 20
28.6860020937747
 30
0.0
 11
-1.84289663163122
 21
36.9360079765335
 31
0.0
  0
LINE
  5
   5BA
  8
0
  6
CONTINUOUS
 62
   130
 10
-1.19289663163122
 20
28.6860020937747
 30
0.0
 11
-1.19289663163122
 21
36.9360079765335
 31
0.0
  0
LINE
  5
   5BB
  8
0
  6
CONTINUOUS
 62
   130
 10
-0.942896631631225
 20
28.6860020937747
 30
0.0
 11
-0.942896631631225
 21
36.9360079765335
 31
0.0
  0
LINE
  5
   5BC
  8
0
  6
CONTINUOUS
 62
   130
 10
-0.292896631631226
 20
28.6860020937747
 30
0.0
 11
-0.292896631631226
 21
36.9360079765335
 31
0.0
  0
LINE
  5
   5BD
  8
0
  6
CONTINUOUS
 62
   130
 10
-4.28966316312263E-2
 20
28.6860020937747
 30
0.0
 11
-4.28966316312263E-2
 21
36.9360079765335
 31
0.0
  0
LINE
  5
   5BE
  8
0
  6
CONTINUOUS
 62
   130
 10
0.607103368368772
 20
28.6860020937747
 30
0.0
 11
0.607103368368772
 21
36.9360079765335
 31
0.0
  0
LINE
  5
   5BF
  8
0
  6
CONTINUOUS
 62
   130
 10
0.857103368368772
 20
28.6860020937747
 30
0.0
 11
0.857103368368772
 21
36.9360079765335
 31
0.0
  0
LINE
  5
   5C0
  8
0
  6
CONTINUOUS
 62
   130
 10
1.50710336836877
 20
28.6860020937747
 30
0.0
 11
1.50710336836877
 21
36.9360079765335
 31
0.0
  0
LINE
  5
   5C1
  8
0
  6
CONTINUOUS
 62
   130
 10
1.75710336836877
 20
28.6860020937747
 30
0.0
 11
1.75710336836877
 21
36.9360079765335
 31
0.0
  0
LINE
  5
   5C2
  8
0
  6
CONTINUOUS
 62
   130
 10
2.40710336836877
 20
28.6860020937747
 30
0.0
 11
2.40710336836877
 21
36.9360079765335
 31
0.0
  0
LINE
  5
   5C3
  8
0
  6
CONTINUOUS
 62
   130
 10
2.65710336836877
 20
28.6860020937747
 30
0.0
 11
2.65710336836877
 21
36.9360079765335
 31
0.0
  0
LINE
  5
   5C4
  8
0
  6
CONTINUOUS
 62
   130
 10
3.30710336836877
 20
28.6860020937747
 30
0.0
 11
3.30710336836877
 21
36.9360079765335
 31
0.0
  0
LINE
  5
   5C5
  8
0
  6
CONTINUOUS
 62
   130
 10
3.55710336836877
 20
28.6860020937747
 30
0.0
 11
3.55710336836877
 21
36.9360079765335
 31
0.0
  0
LINE
  5
   5C6
  8
0
  6
CONTINUOUS
 62
   130
 10
4.20710336836877
 20
28.6860020937747
 30
0.0
 11
4.20710336836877
 21
36.9360079765335
 31
0.0
  0
LINE
  5
   5C7
  8
0
  6
CONTINUOUS
 62
   130
 10
4.45710336836877
 20
28.6860020937747
 30
0.0
 11
4.45710336836877
 21
36.9360079765335
 31
0.0
  0
LINE
  5
   5C8
  8
0
  6
CONTINUOUS
 62
   130
 10
5.10710336836877
 20
28.6860020937747
 30
0.0
 11
5.10710336836877
 21
36.9360079765335
 31
0.0
  0
LINE
  5
   5C9
  8
0
  6
CONTINUOUS
 62
   130
 10
5.35710336836877
 20
28.6860020937747
 30
0.0
 11
5.35710336836877
 21
36.9360079765335
 31
0.0
  0
LINE
  5
   5CA
  8
0
  6
CONTINUOUS
 62
   130
 10
6.00710336836876
 20
28.6860020937747
 30
0.0
 11
6.00710336836876
 21
36.9360079765335
 31
0.0
  0
LINE
  5
   5CB
  8
0
  6
CONTINUOUS
 62
   130
 10
6.25710336836876
 20
28.6860020937747
 30
0.0
 11
6.25710336836876
 21
36.9360079765335
 31
0.0
  0
LINE
  5
   5CC
  8
0
  6
CONTINUOUS
 62
   130
 10
6.90710336836876
 20
28.6860020937747
 30
0.0
 11
6.90710336836876
 21
36.9360079765335
 31
0.0
  0
LINE
  5
   5CD
  8
0
  6
CONTINUOUS
 62
   130
 10
7.15710336836876
 20
28.6860020937747
 30
0.0
 11
7.15710336836876
 21
36.9360079765335
 31
0.0
  0
LINE
  5
   5CE
  8
0
  6
CONTINUOUS
 62
   130
 10
7.80710336836876
 20
28.6860020937747
 30
0.0
 11
7.80710336836876
 21
36.9360079765335
 31
0.0
  0
LINE
  5
   5CF
  8
0
  6
CONTINUOUS
 62
   130
 10
8.05710336836876
 20
28.6860020937747
 30
0.0
 11
8.05710336836876
 21
36.9360079765335
 31
0.0
  0
LINE
  5
   5D0
  8
0
  6
CONTINUOUS
 62
   130
 10
8.70710336836876
 20
28.6860020937747
 30
0.0
 11
8.70710336836876
 21
36.9360079765335
 31
0.0
  0
LINE
  5
   5D1
  8
0
  6
CONTINUOUS
 62
   130
 10
8.95710336836876
 20
28.6860020937747
 30
0.0
 11
8.95710336836876
 21
36.9360079765335
 31
0.0
  0
LINE
  5
   5D2
  8
0
  6
CONTINUOUS
 62
   130
 10
9.60710336836876
 20
28.6860020937747
 30
0.0
 11
9.60710336836876
 21
36.9360079765335
 31
0.0
  0
LINE
  5
   5D3
  8
0
  6
CONTINUOUS
 62
   130
 10
9.85710336836876
 20
28.6860020937747
 30
0.0
 11
9.85710336836876
 21
36.9360079765335
 31
0.0
  0
LINE
  5
   5D4
  8
0
  6
CONTINUOUS
 62
   130
 10
10.5071033683688
 20
28.6860020937747
 30
0.0
 11
10.5071033683688
 21
36.9360079765335
 31
0.0
  0
LINE
  5
   5D5
  8
0
  6
CONTINUOUS
 62
   130
 10
10.7571033683688
 20
28.6860020937747
 30
0.0
 11
10.7571033683688
 21
36.9360079765335
 31
0.0
  0
LINE
  5
   5D6
  8
0
  6
CONTINUOUS
 62
   130
 10
11.4071033683688
 20
28.6860020937747
 30
0.0
 11
11.4071033683688
 21
36.9360079765335
 31
0.0
  0
LINE
  5
   5D7
  8
0
  6
CONTINUOUS
 62
   130
 10
11.6571033683688
 20
28.6860020937747
 30
0.0
 11
11.6571033683688
 21
36.9360079765335
 31
0.0
  0
LINE
  5
   5D8
  8
0
  6
CONTINUOUS
 62
   130
 10
-7.24289663163121
 20
28.6860020937747
 30
0.0
 11
-7.24289663163121
 21
36.9360079765335
 31
0.0
  0
LINE
  5
   5D9
  8
0
  6
CONTINUOUS
 62
   130
 10
-7.49289663163121
 20
28.6860020937747
 30
0.0
 11
-7.49289663163121
 21
36.9360079765335
 31
0.0
  0
LINE
  5
   5DA
  8
0
  6
CONTINUOUS
 62
   130
 10
-8.14289663163121
 20
28.6860020937747
 30
0.0
 11
-8.14289663163121
 21
36.9360079765335
 31
0.0
  0
LINE
  5
   5DB
  8
0
  6
CONTINUOUS
 62
   130
 10
-8.14289663163121
 20
28.6860020937747
 30
0.0
 11
-8.14289663163121
 21
36.9360079765335
 31
0.0
  0
LINE
  5
   5DC
  8
0
  6
CONTINUOUS
 62
   130
 10
-8.39289663163121
 20
28.6860020937747
 30
0.0
 11
-8.39289663163121
 21
36.9360079765335
 31
0.0
  0
LINE
  5
   5DD
  8
0
  6
CONTINUOUS
 62
   130
 10
-8.39289663163121
 20
28.6860020937747
 30
0.0
 11
-8.39289663163121
 21
36.9360079765335
 31
0.0
  0
LINE
  5
   5DE
  8
0
  6
CONTINUOUS
 62
   130
 10
-9.04289663163121
 20
28.6860020937747
 30
0.0
 11
-9.04289663163121
 21
36.9360079765335
 31
0.0
  0
LINE
  5
   5DF
  8
0
  6
CONTINUOUS
 62
   130
 10
-9.04289663163121
 20
28.6860020937747
 30
0.0
 11
-9.04289663163121
 21
36.9360079765335
 31
0.0
  0
LINE
  5
   5E0
  8
0
  6
CONTINUOUS
 62
   130
 10
-9.29289663163121
 20
28.6860020937747
 30
0.0
 11
-9.29289663163121
 21
36.9360079765335
 31
0.0
  0
LINE
  5
   5E1
  8
0
  6
CONTINUOUS
 62
   130
 10
-9.94289663163121
 20
28.6860020937747
 30
0.0
 11
-9.94289663163121
 21
36.9360079765335
 31
0.0
  0
LINE
  5
   5E2
  8
0
  6
CONTINUOUS
 62
   130
 10
-10.1928966316312
 20
28.6860020937747
 30
0.0
 11
-10.1928966316312
 21
36.9360079765335
 31
0.0
  0
LINE
  5
   5E3
  8
0
  6
CONTINUOUS
 62
   130
 10
-10.8428966316312
 20
28.6860020937747
 30
0.0
 11
-10.8428966316312
 21
36.9360079765335
 31
0.0
  0
LINE
  5
   5E4
  8
0
  6
CONTINUOUS
 62
   130
 10
-11.0928966316312
 20
28.6860020937747
 30
0.0
 11
-11.0928966316312
 21
36.9360079765335
 31
0.0
  0
LINE
  5
   5E5
  8
0
  6
CONTINUOUS
 62
   130
 10
-11.7428966316312
 20
28.6860020937747
 30
0.0
 11
-11.7428966316312
 21
36.9360079765335
 31
0.0
  0
LINE
  5
   5E6
  8
0
  6
CONTINUOUS
 62
   130
 10
-11.9928966316312
 20
28.6860020937747
 30
0.0
 11
-11.9928966316312
 21
36.9360079765335
 31
0.0
  0
LINE
  5
   5E7
  8
0
  6
CONTINUOUS
 62
   130
 10
-12.6428966316312
 20
28.6860020937747
 30
0.0
 11
-12.6428966316312
 21
36.9360079765335
 31
0.0
  0
LINE
  5
   5E8
  8
0
  6
CONTINUOUS
 62
   130
 10
-12.8928966316312
 20
28.6860020937747
 30
0.0
 11
-12.8928966316312
 21
36.9360079765335
 31
0.0
  0
LINE
  5
   5E9
  8
0
  6
CONTINUOUS
 62
   130
 10
-13.5428966316312
 20
28.6860020937747
 30
0.0
 11
-13.5428966316312
 21
36.9360079765335
 31
0.0
  0
LINE
  5
   5EA
  8
0
  6
CONTINUOUS
 62
   130
 10
-13.7928966316312
 20
28.6860020937747
 30
0.0
 11
-13.7928966316312
 21
36.9360079765335
 31
0.0
  0
LINE
  5
   5EB
  8
0
  6
CONTINUOUS
 62
   130
 10
-14.4428966316312
 20
28.6860020937747
 30
0.0
 11
-14.4428966316312
 21
36.9360079765335
 31
0.0
  0
LINE
  5
   5EC
  8
0
  6
CONTINUOUS
 62
   130
 10
-14.6928966316312
 20
28.6860020937747
 30
0.0
 11
-14.6928966316312
 21
36.9360079765335
 31
0.0
  0
LINE
  5
   5ED
  8
0
  6
CONTINUOUS
 62
   130
 10
-15.3428966316312
 20
28.6860020937747
 30
0.0
 11
-15.3428966316312
 21
36.9360079765335
 31
0.0
  0
LINE
  5
   5EE
  8
0
  6
CONTINUOUS
 62
   130
 10
-15.5928966316312
 20
28.6860020937747
 30
0.0
 11
-15.5928966316312
 21
36.9360079765335
 31
0.0
  0
LINE
  5
   5EF
  8
0
  6
CONTINUOUS
 62
   130
 10
-16.2428966316312
 20
28.6860020937747
 30
0.0
 11
-16.2428966316312
 21
36.9360079765335
 31
0.0
  0
LINE
  5
   5F0
  8
0
  6
CONTINUOUS
 62
   130
 10
-16.4928966316312
 20
28.6860020937747
 30
0.0
 11
-16.4928966316312
 21
36.9360079765335
 31
0.0
  0
LINE
  5
   5F1
  8
0
  6
CONTINUOUS
 62
   130
 10
-17.1428966316312
 20
28.6860020937747
 30
0.0
 11
-17.1428966316312
 21
36.9360079765335
 31
0.0
  0
LINE
  5
   5F2
  8
0
  6
CONTINUOUS
 62
   130
 10
-17.3928966316312
 20
28.6860020937747
 30
0.0
 11
-17.3928966316312
 21
36.9360079765335
 31
0.0
  0
LINE
  5
   5F3
  8
0
  6
CONTINUOUS
 62
   130
 10
-18.0428966316312
 20
28.6860020937747
 30
0.0
 11
-18.0428966316312
 21
36.9360079765335
 31
0.0
  0
LINE
  5
   5F4
  8
0
  6
CONTINUOUS
 62
   130
 10
-18.2928966316312
 20
28.6860020937747
 30
0.0
 11
-18.2928966316312
 21
36.9360079765335
 31
0.0
  0
LINE
  5
   5F5
  8
0
  6
CONTINUOUS
 62
   130
 10
-18.9428966316312
 20
28.6860020937747
 30
0.0
 11
-18.9428966316312
 21
36.9360079765335
 31
0.0
  0
LINE
  5
   5F6
  8
0
  6
CONTINUOUS
 62
   130
 10
-19.1928966316312
 20
28.6860020937747
 30
0.0
 11
-19.1928966316312
 21
36.9360079765335
 31
0.0
  0
LINE
  5
   5F7
  8
0
  6
CONTINUOUS
 62
   130
 10
-19.8428966316312
 20
28.6860020937747
 30
0.0
 11
-19.8428966316312
 21
36.9360079765335
 31
0.0
  0
LINE
  5
   5F8
  8
0
  6
CONTINUOUS
 62
   130
 10
-20.0928966316312
 20
28.6860020937747
 30
0.0
 11
-20.0928966316312
 21
36.9360079765335
 31
0.0
  0
LINE
  5
   5F9
  8
0
  6
CONTINUOUS
 62
   130
 10
-20.7428966316312
 20
28.6860020937747
 30
0.0
 11
-20.7428966316312
 21
36.9360079765335
 31
0.0
  0
LINE
  5
   5FA
  8
0
  6
CONTINUOUS
 62
   130
 10
-20.9928966316312
 20
28.6860020937747
 30
0.0
 11
-20.9928966316312
 21
36.9360079765335
 31
0.0
  0
LINE
  5
   5FB
  8
0
  6
CONTINUOUS
 62
   130
 10
-21.6428966316312
 20
28.6860020937747
 30
0.0
 11
-21.6428966316312
 21
36.9360079765335
 31
0.0
  0
LINE
  5
   5FC
  8
0
  6
CONTINUOUS
 62
   130
 10
-21.8928966316312
 20
28.6860020937747
 30
0.0
 11
-21.8928966316312
 21
36.9360079765335
 31
0.0
  0
LINE
  5
   5FD
  8
0
  6
CONTINUOUS
 62
   130
 10
-22.5428966316312
 20
28.6860020937747
 30
0.0
 11
-22.5428966316312
 21
36.9360079765335
 31
0.0
  0
LINE
  5
   5FE
  8
0
  6
CONTINUOUS
 62
   130
 10
-22.7928966316312
 20
28.6860020937747
 30
0.0
 11
-22.7928966316312
 21
36.9360079765335
 31
0.0
  0
LINE
  5
   5FF
  8
0
  6
CONTINUOUS
 62
   130
 10
-23.4428966316312
 20
28.6860020937747
 30
0.0
 11
-23.4428966316312
 21
36.9360079765335
 31
0.0
  0
LINE
  5
   600
  8
0
  6
CONTINUOUS
 62
   130
 10
-23.6928966316312
 20
28.6860020937747
 30
0.0
 11
-23.6928966316312
 21
36.9360079765335
 31
0.0
  0
LINE
  5
   601
  8
0
  6
CONTINUOUS
 62
   130
 10
-24.3428966316312
 20
28.6860020937747
 30
0.0
 11
-24.3428966316312
 21
36.9360079765335
 31
0.0
  0
LINE
  5
   602
  8
0
  6
CONTINUOUS
 62
   130
 10
-24.5928966316312
 20
28.6860020937747
 30
0.0
 11
-24.5928966316312
 21
36.9360079765335
 31
0.0
  0
LINE
  5
   603
  8
0
  6
CONTINUOUS
 62
   130
 10
-25.2428966316312
 20
28.6860020937747
 30
0.0
 11
-25.2428966316312
 21
36.9360079765335
 31
0.0
  0
LINE
  5
   604
  8
0
  6
CONTINUOUS
 62
   130
 10
-25.4928966316312
 20
28.6860020937747
 30
0.0
 11
-25.4928966316312
 21
36.9360079765335
 31
0.0
  0
LINE
  5
   605
  8
0
  6
DASHDOT
 62
   130
 10
-6.91789678421907
 20
-39.6283121688059
 30
0.0
 11
-6.91789678421907
 21
48.750568870913
 31
0.0
  0
LINE
  5
   606
  8
0
  6
CONTINUOUS
 62
   130
 10
12.5820732116684
 20
-12.0639419555664
 30
0.0
 11
12.5820732116684
 21
11.9360580444336
 31
0.0
  0
LINE
  5
   607
  8
0
  6
CONTINUOUS
 62
   130
 10
-26.4178962707499
 20
-12.0639419555664
 30
0.0
 11
-26.4178962707499
 21
11.9360580444336
 31
0.0
  0
LINE
  5
   608
  8
0
  6
CONTINUOUS
 62
   130
 10
-7.24289678421907
 20
-25.0639643669144
 30
0.0
 11
-7.24289678421907
 21
-24.0639419555664
 31
0.0
  0
LINE
  5
   609
  8
0
  6
CONTINUOUS
 62
   130
 10
-7.49289678421907
 20
-25.0639643669144
 30
0.0
 11
-7.49289678421907
 21
-24.0639419555664
 31
0.0
  0
LINE
  5
   60A
  8
0
  6
CONTINUOUS
 62
   130
 10
-8.14289678421907
 20
-25.0639643669144
 30
0.0
 11
-8.14289678421907
 21
-24.0639419555664
 31
0.0
  0
LINE
  5
   60B
  8
0
  6
CONTINUOUS
 62
   130
 10
-8.14289678421907
 20
-25.0639643669144
 30
0.0
 11
-8.14289678421907
 21
-24.0639419555664
 31
0.0
  0
LINE
  5
   60C
  8
0
  6
CONTINUOUS
 62
   130
 10
-8.39289678421907
 20
-25.0639643669144
 30
0.0
 11
-8.39289678421907
 21
-24.0639419555664
 31
0.0
  0
LINE
  5
   60D
  8
0
  6
CONTINUOUS
 62
   130
 10
-8.39289678421907
 20
-25.0639643669144
 30
0.0
 11
-8.39289678421907
 21
-24.0639419555664
 31
0.0
  0
LINE
  5
   60E
  8
0
  6
CONTINUOUS
 62
   130
 10
-9.04289678421907
 20
-25.0639643669144
 30
0.0
 11
-9.04289678421907
 21
-24.0639419555664
 31
0.0
  0
LINE
  5
   60F
  8
0
  6
CONTINUOUS
 62
   130
 10
-9.04289678421907
 20
-25.0639643669144
 30
0.0
 11
-9.04289678421907
 21
-24.0639419555664
 31
0.0
  0
LINE
  5
   610
  8
0
  6
CONTINUOUS
 62
   130
 10
-9.29289678421907
 20
-25.0639643669144
 30
0.0
 11
-9.29289678421907
 21
-24.0639419555664
 31
0.0
  0
LINE
  5
   611
  8
0
  6
CONTINUOUS
 62
   130
 10
-9.94289678421907
 20
-25.0639643669144
 30
0.0
 11
-9.94289678421907
 21
-24.0639419555664
 31
0.0
  0
LINE
  5
   612
  8
0
  6
CONTINUOUS
 62
   130
 10
-10.1928967842191
 20
-25.0639643669144
 30
0.0
 11
-10.1928967842191
 21
-24.0639419555664
 31
0.0
  0
LINE
  5
   613
  8
0
  6
CONTINUOUS
 62
   130
 10
-10.8428967842191
 20
-25.0639643669144
 30
0.0
 11
-10.8428967842191
 21
-24.0639419555664
 31
0.0
  0
LINE
  5
   614
  8
0
  6
CONTINUOUS
 62
   130
 10
-11.0928967842191
 20
-25.0639643669144
 30
0.0
 11
-11.0928967842191
 21
-24.0639419555664
 31
0.0
  0
LINE
  5
   615
  8
0
  6
CONTINUOUS
 62
   130
 10
-11.7428967842191
 20
-25.0639643669144
 30
0.0
 11
-11.7428967842191
 21
-24.0639419555664
 31
0.0
  0
LINE
  5
   616
  8
0
  6
CONTINUOUS
 62
   130
 10
-11.9928967842191
 20
-25.0639643669144
 30
0.0
 11
-11.9928967842191
 21
-24.0639419555664
 31
0.0
  0
LINE
  5
   617
  8
0
  6
CONTINUOUS
 62
   130
 10
-12.6428967842191
 20
-25.0639643669144
 30
0.0
 11
-12.6428967842191
 21
-24.0639419555664
 31
0.0
  0
LINE
  5
   618
  8
0
  6
CONTINUOUS
 62
   130
 10
-12.8928967842191
 20
-25.0639643669144
 30
0.0
 11
-12.8928967842191
 21
-24.0639419555664
 31
0.0
  0
LINE
  5
   619
  8
0
  6
CONTINUOUS
 62
   130
 10
-13.5428967842191
 20
-25.0639643669144
 30
0.0
 11
-13.5428967842191
 21
-24.0639419555664
 31
0.0
  0
LINE
  5
   61A
  8
0
  6
CONTINUOUS
 62
   130
 10
-13.7928967842191
 20
-25.0639643669144
 30
0.0
 11
-13.7928967842191
 21
-24.0639419555664
 31
0.0
  0
LINE
  5
   61B
  8
0
  6
CONTINUOUS
 62
   130
 10
-14.4428967842191
 20
-25.0639643669144
 30
0.0
 11
-14.4428967842191
 21
-24.0639419555664
 31
0.0
  0
LINE
  5
   61C
  8
0
  6
CONTINUOUS
 62
   130
 10
-14.6928967842191
 20
-25.0639643669144
 30
0.0
 11
-14.6928967842191
 21
-24.0639419555664
 31
0.0
  0
LINE
  5
   61D
  8
0
  6
CONTINUOUS
 62
   130
 10
-15.3428967842191
 20
-25.0639643669144
 30
0.0
 11
-15.3428967842191
 21
-24.0639419555664
 31
0.0
  0
LINE
  5
   61E
  8
0
  6
CONTINUOUS
 62
   130
 10
-15.5928967842191
 20
-25.0639643669144
 30
0.0
 11
-15.5928967842191
 21
-24.0639419555664
 31
0.0
  0
LINE
  5
   61F
  8
0
  6
CONTINUOUS
 62
   130
 10
-16.2428967842191
 20
-25.0639643669144
 30
0.0
 11
-16.2428967842191
 21
-24.0639419555664
 31
0.0
  0
LINE
  5
   620
  8
0
  6
CONTINUOUS
 62
   130
 10
-16.4928967842191
 20
-25.0639643669144
 30
0.0
 11
-16.4928967842191
 21
-24.0639419555664
 31
0.0
  0
LINE
  5
   621
  8
0
  6
CONTINUOUS
 62
   130
 10
-17.1428967842191
 20
-25.0639643669144
 30
0.0
 11
-17.1428967842191
 21
-24.0639419555664
 31
0.0
  0
LINE
  5
   622
  8
0
  6
CONTINUOUS
 62
   130
 10
-17.3928967842191
 20
-25.0639643669144
 30
0.0
 11
-17.3928967842191
 21
-24.0639419555664
 31
0.0
  0
LINE
  5
   623
  8
0
  6
CONTINUOUS
 62
   130
 10
-18.0428967842191
 20
-25.0639643669144
 30
0.0
 11
-18.0428967842191
 21
-24.0639419555664
 31
0.0
  0
LINE
  5
   624
  8
0
  6
CONTINUOUS
 62
   130
 10
-18.2928967842191
 20
-25.0639643669144
 30
0.0
 11
-18.2928967842191
 21
-24.0639419555664
 31
0.0
  0
LINE
  5
   625
  8
0
  6
CONTINUOUS
 62
   130
 10
-18.9428967842191
 20
-25.0639643669144
 30
0.0
 11
-18.9428967842191
 21
-24.0639419555664
 31
0.0
  0
LINE
  5
   626
  8
0
  6
CONTINUOUS
 62
   130
 10
-19.1928967842191
 20
-25.0639643669144
 30
0.0
 11
-19.1928967842191
 21
-24.0639419555664
 31
0.0
  0
LINE
  5
   627
  8
0
  6
CONTINUOUS
 62
   130
 10
-19.8428967842191
 20
-25.0639643669144
 30
0.0
 11
-19.8428967842191
 21
-24.0639419555664
 31
0.0
  0
LINE
  5
   628
  8
0
  6
CONTINUOUS
 62
   130
 10
-20.0928967842191
 20
-25.0639643669144
 30
0.0
 11
-20.0928967842191
 21
-24.0639419555664
 31
0.0
  0
LINE
  5
   629
  8
0
  6
CONTINUOUS
 62
   130
 10
-20.7428967842191
 20
-25.0639643669144
 30
0.0
 11
-20.7428967842191
 21
-24.0639419555664
 31
0.0
  0
LINE
  5
   62A
  8
0
  6
CONTINUOUS
 62
   130
 10
-20.9928967842191
 20
-25.0639643669144
 30
0.0
 11
-20.9928967842191
 21
-24.0639419555664
 31
0.0
  0
LINE
  5
   62B
  8
0
  6
CONTINUOUS
 62
   130
 10
-21.6428967842191
 20
-25.0639643669144
 30
0.0
 11
-21.6428967842191
 21
-24.0639419555664
 31
0.0
  0
LINE
  5
   62C
  8
0
  6
CONTINUOUS
 62
   130
 10
-21.892896784219
 20
-25.0639643669144
 30
0.0
 11
-21.892896784219
 21
-24.0639419555664
 31
0.0
  0
LINE
  5
   62D
  8
0
  6
CONTINUOUS
 62
   130
 10
-22.5428967842191
 20
-25.0639643669144
 30
0.0
 11
-22.5428967842191
 21
-24.0639419555664
 31
0.0
  0
LINE
  5
   62E
  8
0
  6
CONTINUOUS
 62
   130
 10
-22.7928967842191
 20
-25.0639643669144
 30
0.0
 11
-22.7928967842191
 21
-24.0639419555664
 31
0.0
  0
LINE
  5
   62F
  8
0
  6
CONTINUOUS
 62
   130
 10
-23.442896784219
 20
-25.0639643669144
 30
0.0
 11
-23.442896784219
 21
-24.0639419555664
 31
0.0
  0
LINE
  5
   630
  8
0
  6
CONTINUOUS
 62
   130
 10
-23.692896784219
 20
-25.0639643669144
 30
0.0
 11
-23.692896784219
 21
-24.0639419555664
 31
0.0
  0
LINE
  5
   631
  8
0
  6
CONTINUOUS
 62
   130
 10
-24.3428967842191
 20
-25.0639643669144
 30
0.0
 11
-24.3428967842191
 21
-24.0639419555664
 31
0.0
  0
LINE
  5
   632
  8
0
  6
CONTINUOUS
 62
   130
 10
-24.5928967842191
 20
-25.0639643669144
 30
0.0
 11
-24.5928967842191
 21
-24.0639419555664
 31
0.0
  0
LINE
  5
   633
  8
0
  6
CONTINUOUS
 62
   130
 10
-25.242896784219
 20
-25.0639643669144
 30
0.0
 11
-25.242896784219
 21
-24.0639419555664
 31
0.0
  0
LINE
  5
   634
  8
0
  6
CONTINUOUS
 62
   130
 10
-25.492896784219
 20
-25.0639643669144
 30
0.0
 11
-25.492896784219
 21
-24.0639419555664
 31
0.0
  0
LINE
  5
   635
  8
0
  6
CONTINUOUS
 62
   130
 10
-26.4178962707499
 20
-34.5639781951904
 30
0.0
 11
-26.4178962707499
 21
-24.0639419555664
 31
0.0
  0
LINE
  5
   636
  8
0
  6
CONTINUOUS
 62
   130
 10
-6.59289678421908
 20
-25.0639643669144
 30
0.0
 11
-6.59289678421908
 21
-24.0639419555664
 31
0.0
  0
LINE
  5
   637
  8
0
  6
CONTINUOUS
 62
   130
 10
-6.34289678421908
 20
-25.0639643669144
 30
0.0
 11
-6.34289678421908
 21
-24.0639419555664
 31
0.0
  0
LINE
  5
   638
  8
0
  6
CONTINUOUS
 62
   130
 10
-5.69289678421908
 20
-25.0639643669144
 30
0.0
 11
-5.69289678421908
 21
-24.0639419555664
 31
0.0
  0
LINE
  5
   639
  8
0
  6
CONTINUOUS
 62
   130
 10
-5.69289678421908
 20
-25.0639643669144
 30
0.0
 11
-5.69289678421908
 21
-24.0639419555664
 31
0.0
  0
LINE
  5
   63A
  8
0
  6
CONTINUOUS
 62
   130
 10
-5.44289678421908
 20
-25.0639643669144
 30
0.0
 11
-5.44289678421908
 21
-24.0639419555664
 31
0.0
  0
LINE
  5
   63B
  8
0
  6
CONTINUOUS
 62
   130
 10
-5.44289678421908
 20
-25.0639643669144
 30
0.0
 11
-5.44289678421908
 21
-24.0639419555664
 31
0.0
  0
LINE
  5
   63C
  8
0
  6
CONTINUOUS
 62
   130
 10
-4.79289678421908
 20
-25.0639643669144
 30
0.0
 11
-4.79289678421908
 21
-24.0639419555664
 31
0.0
  0
LINE
  5
   63D
  8
0
  6
CONTINUOUS
 62
   130
 10
-4.79289678421908
 20
-25.0639643669144
 30
0.0
 11
-4.79289678421908
 21
-24.0639419555664
 31
0.0
  0
LINE
  5
   63E
  8
0
  6
CONTINUOUS
 62
   130
 10
-4.54289678421908
 20
-25.0639643669144
 30
0.0
 11
-4.54289678421908
 21
-24.0639419555664
 31
0.0
  0
LINE
  5
   63F
  8
0
  6
CONTINUOUS
 62
   130
 10
-3.89289678421908
 20
-25.0639643669144
 30
0.0
 11
-3.89289678421908
 21
-24.0639419555664
 31
0.0
  0
LINE
  5
   640
  8
0
  6
CONTINUOUS
 62
   130
 10
-3.64289678421908
 20
-25.0639643669144
 30
0.0
 11
-3.64289678421908
 21
-24.0639419555664
 31
0.0
  0
LINE
  5
   641
  8
0
  6
CONTINUOUS
 62
   130
 10
-2.99289678421908
 20
-25.0639643669144
 30
0.0
 11
-2.99289678421908
 21
-24.0639419555664
 31
0.0
  0
LINE
  5
   642
  8
0
  6
CONTINUOUS
 62
   130
 10
-2.74289678421908
 20
-25.0639643669144
 30
0.0
 11
-2.74289678421908
 21
-24.0639419555664
 31
0.0
  0
LINE
  5
   643
  8
0
  6
CONTINUOUS
 62
   130
 10
-2.09289678421908
 20
-25.0639643669144
 30
0.0
 11
-2.09289678421908
 21
-24.0639419555664
 31
0.0
  0
LINE
  5
   644
  8
0
  6
CONTINUOUS
 62
   130
 10
-1.84289678421908
 20
-25.0639643669144
 30
0.0
 11
-1.84289678421908
 21
-24.0639419555664
 31
0.0
  0
LINE
  5
   645
  8
0
  6
CONTINUOUS
 62
   130
 10
-1.19289678421908
 20
-25.0639643669144
 30
0.0
 11
-1.19289678421908
 21
-24.0639419555664
 31
0.0
  0
LINE
  5
   646
  8
0
  6
CONTINUOUS
 62
   130
 10
-0.942896784219084
 20
-25.0639643669144
 30
0.0
 11
-0.942896784219084
 21
-24.0639419555664
 31
0.0
  0
LINE
  5
   647
  8
0
  6
CONTINUOUS
 62
   130
 10
-0.292896784219085
 20
-25.0639643669144
 30
0.0
 11
-0.292896784219085
 21
-24.0639419555664
 31
0.0
  0
LINE
  5
   648
  8
0
  6
CONTINUOUS
 62
   130
 10
-0.042896784219085
 20
-25.0639643669144
 30
0.0
 11
-0.042896784219085
 21
-24.0639419555664
 31
0.0
  0
LINE
  5
   649
  8
0
  6
CONTINUOUS
 62
   130
 10
0.607103215780914
 20
-25.0639643669144
 30
0.0
 11
0.607103215780914
 21
-24.0639419555664
 31
0.0
  0
LINE
  5
   64A
  8
0
  6
CONTINUOUS
 62
   130
 10
0.857103215780914
 20
-25.0639643669144
 30
0.0
 11
0.857103215780914
 21
-24.0639419555664
 31
0.0
  0
LINE
  5
   64B
  8
0
  6
CONTINUOUS
 62
   130
 10
1.50710321578091
 20
-25.0639643669144
 30
0.0
 11
1.50710321578091
 21
-24.0639419555664
 31
0.0
  0
LINE
  5
   64C
  8
0
  6
CONTINUOUS
 62
   130
 10
1.75710321578091
 20
-25.0639643669144
 30
0.0
 11
1.75710321578091
 21
-24.0639419555664
 31
0.0
  0
LINE
  5
   64D
  8
0
  6
CONTINUOUS
 62
   130
 10
2.40710321578091
 20
-25.0639643669144
 30
0.0
 11
2.40710321578091
 21
-24.0639419555664
 31
0.0
  0
LINE
  5
   64E
  8
0
  6
CONTINUOUS
 62
   130
 10
2.65710321578091
 20
-25.0639643669144
 30
0.0
 11
2.65710321578091
 21
-24.0639419555664
 31
0.0
  0
LINE
  5
   64F
  8
0
  6
CONTINUOUS
 62
   130
 10
3.30710321578091
 20
-25.0639643669144
 30
0.0
 11
3.30710321578091
 21
-24.0639419555664
 31
0.0
  0
LINE
  5
   650
  8
0
  6
CONTINUOUS
 62
   130
 10
3.55710321578091
 20
-25.0639643669144
 30
0.0
 11
3.55710321578091
 21
-24.0639419555664
 31
0.0
  0
LINE
  5
   651
  8
0
  6
CONTINUOUS
 62
   130
 10
4.20710321578091
 20
-25.0639643669144
 30
0.0
 11
4.20710321578091
 21
-24.0639419555664
 31
0.0
  0
LINE
  5
   652
  8
0
  6
CONTINUOUS
 62
   130
 10
4.45710321578091
 20
-25.0639643669144
 30
0.0
 11
4.45710321578091
 21
-24.0639419555664
 31
0.0
  0
LINE
  5
   653
  8
0
  6
CONTINUOUS
 62
   130
 10
5.10710321578091
 20
-25.0639643669144
 30
0.0
 11
5.10710321578091
 21
-24.0639419555664
 31
0.0
  0
LINE
  5
   654
  8
0
  6
CONTINUOUS
 62
   130
 10
5.35710321578091
 20
-25.0639643669144
 30
0.0
 11
5.35710321578091
 21
-24.0639419555664
 31
0.0
  0
LINE
  5
   655
  8
0
  6
CONTINUOUS
 62
   130
 10
6.00710321578091
 20
-25.0639643669144
 30
0.0
 11
6.00710321578091
 21
-24.0639419555664
 31
0.0
  0
LINE
  5
   656
  8
0
  6
CONTINUOUS
 62
   130
 10
6.25710321578091
 20
-25.0639643669144
 30
0.0
 11
6.25710321578091
 21
-24.0639419555664
 31
0.0
  0
LINE
  5
   657
  8
0
  6
CONTINUOUS
 62
   130
 10
6.9071032157809
 20
-25.0639643669144
 30
0.0
 11
6.9071032157809
 21
-24.0639419555664
 31
0.0
  0
LINE
  5
   658
  8
0
  6
CONTINUOUS
 62
   130
 10
7.1571032157809
 20
-25.0639643669144
 30
0.0
 11
7.1571032157809
 21
-24.0639419555664
 31
0.0
  0
LINE
  5
   659
  8
0
  6
CONTINUOUS
 62
   130
 10
7.8071032157809
 20
-25.0639643669144
 30
0.0
 11
7.8071032157809
 21
-24.0639419555664
 31
0.0
  0
LINE
  5
   65A
  8
0
  6
CONTINUOUS
 62
   130
 10
8.0571032157809
 20
-25.0639643669144
 30
0.0
 11
8.0571032157809
 21
-24.0639419555664
 31
0.0
  0
LINE
  5
   65B
  8
0
  6
CONTINUOUS
 62
   130
 10
8.7071032157809
 20
-25.0639643669144
 30
0.0
 11
8.7071032157809
 21
-24.0639419555664
 31
0.0
  0
LINE
  5
   65C
  8
0
  6
CONTINUOUS
 62
   130
 10
8.9571032157809
 20
-25.0639643669144
 30
0.0
 11
8.9571032157809
 21
-24.0639419555664
 31
0.0
  0
LINE
  5
   65D
  8
0
  6
CONTINUOUS
 62
   130
 10
9.6071032157809
 20
-25.0639643669144
 30
0.0
 11
9.6071032157809
 21
-24.0639419555664
 31
0.0
  0
LINE
  5
   65E
  8
0
  6
CONTINUOUS
 62
   130
 10
9.8571032157809
 20
-25.0639643669144
 30
0.0
 11
9.8571032157809
 21
-24.0639419555664
 31
0.0
  0
LINE
  5
   65F
  8
0
  6
CONTINUOUS
 62
   130
 10
10.5071032157809
 20
-25.0639643669144
 30
0.0
 11
10.5071032157809
 21
-24.0639419555664
 31
0.0
  0
LINE
  5
   660
  8
0
  6
CONTINUOUS
 62
   130
 10
10.7571032157809
 20
-25.0639643669144
 30
0.0
 11
10.7571032157809
 21
-24.0639419555664
 31
0.0
  0
LINE
  5
   661
  8
0
  6
CONTINUOUS
 62
   130
 10
11.4071032157809
 20
-25.0639643669144
 30
0.0
 11
11.4071032157809
 21
-24.0639419555664
 31
0.0
  0
LINE
  5
   662
  8
0
  6
CONTINUOUS
 62
   130
 10
11.6571032157809
 20
-25.0639643669144
 30
0.0
 11
11.6571032157809
 21
-24.0639419555664
 31
0.0
  0
LINE
  5
   663
  8
0
  6
CONTINUOUS
 62
   130
 10
12.5820732116684
 20
-34.5639781951904
 30
0.0
 11
12.5820732116684
 21
-24.0639419555664
 31
0.0
  0
INSERT
  5
   664
  8
0
  6
CONTINUOUS
 62
     3
  2
*UDIM281
 10
0.0
 20
0.0
 30
0.0
  0
INSERT
  5
   665
  8
0
  6
CONTINUOUS
 62
     3
  2
*UDIM282
 10
0.0
 20
0.0
 30
0.0
  0
INSERT
  5
   666
  8
0
  6
CONTINUOUS
 62
     3
  2
*UDIM283
 10
0.0
 20
0.0
 30
0.0
  0
TEXT
  5
   667
  8
0
  6
CONTINUOUS
 62
     2
 10
34.018943175681
 20
-1.51848305762367
 30
0.0
 40
3.00000002980232
  1
X
 50
360.0
 41
0.983333351877
 72
     1
 11
35.1189432144165
 21
-0.01848304271698
 31
0.0
 73
     2
  0
TEXT
  5
   668
  8
0
  6
CONTINUOUS
 62
     2
 10
-34.8618751913234
 20
-1.49996925890998
 30
0.0
 40
3.00000002980232
  1
X
 50
360.0
 41
0.983333351877
 72
     1
 11
-33.7618751525879
 21
3.07559967041016E-5
 31
0.0
 73
     2
  0
TEXT
  5
   669
  8
0
  6
CONTINUOUS
 62
     2
 10
-7.70545925199232
 20
51.4904093593304
 30
0.0
 40
3.00000002980232
  1
Y
 50
360.0
 41
0.983333351877
 72
     1
 11
-6.60545921325684
 21
52.9904093742371
 31
0.0
 73
     2
  0
TEXT
  5
   66A
  8
0
  6
CONTINUOUS
 62
     2
 10
-7.98484386502943
 20
-43.1280751377399
 30
0.0
 40
3.00000002980232
  1
Y
 50
360.0
 41
0.983333351877
 72
     1
 11
-6.88484382629395
 21
-41.6280751228333
 31
0.0
 73
     2
  0
INSERT
  5
   66B
  8
0
  6
CONTINUOUS
 62
     7
  2
*UDIM284
 10
0.0
 20
0.0
 30
0.0
  0
INSERT
  5
   66C
  8
0
  6
CONTINUOUS
 62
     7
  2
*UDIM285
 10
0.0
 20
0.0
 30
0.0
  0
LINE
  5
   66D
  8
0
  6
CONTINUOUS
 62
     2
 10
4.79214283417896
 20
-24.1771644358383
 30
0.0
 11
4.90536531445087
 21
-24.0639419555664
 31
0.0
  0
LINE
  5
   66E
  8
0
  6
CONTINUOUS
 62
     2
 10
4.96891952947562
 20
-24.3539411311349
 30
0.0
 11
5.25891870504415
 21
-24.0639419555664
 31
0.0
  0
ARC
  5
   66F
  8
0
  6
CONTINUOUS
 62
     2
 10
5.58209194184741
 20
-23.5639920234665
 30
0.0
 40
1.0
 50
209.996687589673
 51
330.003312410327
  0
LINE
  5
   670
  8
0
  6
DASHDOT
 62
     2
 10
-19.4179080581526
 20
30.4360079765335
 30
0.0
 11
-19.4179080581526
 21
40.4360079765335
 31
0.0
  0
LINE
  5
   671
  8
0
  6
DASHDOT
 62
     2
 10
-24.4179080581526
 20
35.4360079765335
 30
0.0
 11
-14.4179080581526
 21
35.4360079765335
 31
0.0
  0
LINE
  5
   672
  8
0
  6
CONTINUOUS
 62
     2
 10
-20.207857165821
 20
34.8228355641617
 30
0.0
 11
-18.8047356457808
 21
36.2259570842019
 31
0.0
  0
LINE
  5
   673
  8
0
  6
CONTINUOUS
 62
     2
 10
-20.0310804705244
 20
34.6460588688651
 30
0.0
 11
-18.6279589504842
 21
36.0491803889053
 31
0.0
  0
CIRCLE
  5
   674
  8
0
  6
CONTINUOUS
 62
     2
 10
-19.4179080581526
 20
35.4360079765335
 30
0.0
 40
1.0
  0
LINE
  5
   675
  8
0
  6
CONTINUOUS
 62
     2
 10
-20.207857165821
 20
-24.1771644358383
 30
0.0
 11
-20.0946346855491
 21
-24.0639419555664
 31
0.0
  0
LINE
  5
   676
  8
0
  6
CONTINUOUS
 62
     2
 10
-20.0310804705244
 20
-24.3539411311349
 30
0.0
 11
-19.7410812949559
 21
-24.0639419555664
 31
0.0
  0
ARC
  5
   677
  8
0
  6
CONTINUOUS
 62
     2
 10
-19.4179080581526
 20
-23.5639920234665
 30
0.0
 40
1.0
 50
209.996687589673
 51
330.003312410327
  0
INSERT
  5
   678
  8
0
  6
CONTINUOUS
 62
     7
  2
*UDIM286
 10
0.0
 20
0.0
 30
0.0
  0
INSERT
  5
   679
  8
0
  6
CONTINUOUS
 62
     7
  2
*UDIM287
 10
0.0
 20
0.0
 30
0.0
  0
LINE
  5
   67A
  8
0
  6
DASHDOT
 62
   130
 10
195.116946321377
 20
0.436033248901367
 30
0.0
 11
273.648561629644
 21
0.436033248901367
 31
0.0
  0
LINE
  5
   67B
  8
0
  6
DASHDOT
 62
   130
 10
234.78406059742
 20
-29.3817805733127
 30
0.0
 11
234.78406059742
 21
31.7328342743743
 31
0.0
  0
CIRCLE
  5
   67C
  8
0
  6
CONTINUOUS
 62
   130
 10
264.009060099721
 20
22.8360328674316
 30
0.0
 40
1.39999997615814
  0
CIRCLE
  5
   67D
  8
0
  6
CONTINUOUS
 62
   130
 10
205.559061095119
 20
22.8360328674316
 30
0.0
 40
1.39999997615814
  0
CIRCLE
  5
   67E
  8
0
  6
CONTINUOUS
 62
   130
 10
205.559061095119
 20
-21.9639663696289
 30
0.0
 40
1.39999997615814
  0
CIRCLE
  5
   67F
  8
0
  6
CONTINUOUS
 62
   130
 10
264.009060099721
 20
-21.9639663696289
 30
0.0
 40
1.39999997615814
  0
LINE
  5
   680
  8
0
  6
CONTINUOUS
 62
   130
 10
264.88406008482
 20
-17.0639664530754
 30
0.0
 11
264.88406008482
 21
17.9360329508781
 31
0.0
  0
LINE
  5
   681
  8
0
  6
CONTINUOUS
 62
   130
 10
204.68406111002
 20
-17.0639664530754
 30
0.0
 11
204.68406111002
 21
17.9360329508781
 31
0.0
  0
LINE
  5
   682
  8
0
  6
CONTINUOUS
 62
   130
 10
205.734061092138
 20
18.9860329329968
 30
0.0
 11
263.834060102701
 21
18.9860329329968
 31
0.0
  0
LINE
  5
   683
  8
0
  6
CONTINUOUS
 62
   130
 10
205.734061092138
 20
-18.113966435194
 30
0.0
 11
263.834060102701
 21
-18.113966435194
 31
0.0
  0
ARC
  5
   684
  8
0
  6
CONTINUOUS
 62
   130
 10
263.834060102701
 20
17.9360329508781
 30
0.0
 40
1.04999998211861
 50
360.0
 51
450.0
  0
ARC
  5
   685
  8
0
  6
CONTINUOUS
 62
   130
 10
263.834060102701
 20
-17.0639664530754
 30
0.0
 40
1.04999998211861
 50
270.0
 51
360.0
  0
ARC
  5
   686
  8
0
  6
CONTINUOUS
 62
   130
 10
205.734061092138
 20
-17.0639664530754
 30
0.0
 40
1.04999998211861
 50
180.0
 51
270.0
  0
ARC
  5
   687
  8
0
  6
CONTINUOUS
 62
   130
 10
205.734061092138
 20
17.9360329508781
 30
0.0
 40
1.04999998211861
 50
90.0
 51
180.0
  0
LINE
  5
   688
  8
0
  6
CONTINUOUS
 62
   130
 10
200.458068899315
 20
28.506689001115
 30
0.0
 11
269.100445911793
 21
28.506689001115
 31
0.0
  0
LINE
  5
   689
  8
0
  6
CONTINUOUS
 62
   130
 10
200.458068899315
 20
-26.2685411401552
 30
0.0
 11
269.100445911793
 21
-26.2685411401552
 31
0.0
  0
LINE
  5
   68A
  8
0
  6
CONTINUOUS
 62
   130
 10
200.458068899315
 20
-26.2685411401552
 30
0.0
 11
200.458068899315
 21
28.506689001115
 31
0.0
  0
LINE
  5
   68B
  8
0
  6
CONTINUOUS
 62
   130
 10
269.100445911793
 20
-26.2685411401552
 30
0.0
 11
269.100445911793
 21
28.506689001115
 31
0.0
  0
LINE
  5
   68C
  8
0
  6
DASHDOT
 62
     2
 10
264.009060099721
 20
16.53603297472
 30
0.0
 11
264.009060099721
 21
29.1360327601433
 31
0.0
  0
LINE
  5
   68D
  8
0
  6
DASHDOT
 62
     2
 10
257.709060207009
 20
22.8360328674316
 30
0.0
 11
270.309059992433
 21
22.8360328674316
 31
0.0
  0
LINE
  5
   68E
  8
0
  6
DASHDOT
 62
     2
 10
264.009060099721
 20
-28.2639662623405
 30
0.0
 11
264.009060099721
 21
-15.6639664769173
 31
0.0
  0
LINE
  5
   68F
  8
0
  6
DASHDOT
 62
     2
 10
257.709060207009
 20
-21.9639663696289
 30
0.0
 11
270.309059992433
 21
-21.9639663696289
 31
0.0
  0
LINE
  5
   690
  8
0
  6
DASHDOT
 62
     2
 10
205.559061095119
 20
-28.2639662623405
 30
0.0
 11
205.559061095119
 21
-15.6639664769173
 31
0.0
  0
LINE
  5
   691
  8
0
  6
DASHDOT
 62
     2
 10
199.259061202407
 20
-21.9639663696289
 30
0.0
 11
211.85906098783
 21
-21.9639663696289
 31
0.0
  0
LINE
  5
   692
  8
0
  6
DASHDOT
 62
     2
 10
205.559061095119
 20
16.53603297472
 30
0.0
 11
205.559061095119
 21
29.1360327601433
 31
0.0
  0
LINE
  5
   693
  8
0
  6
DASHDOT
 62
     2
 10
199.259061202407
 20
22.8360328674316
 30
0.0
 11
211.85906098783
 21
22.8360328674316
 31
0.0
  0
TEXT
  5
   694
  8
0
  6
CONTINUOUS
 62
     2
 10
234.398657423868
 20
34.1328248331285
 30
0.0
 40
2.99999997871263
  1
Y
 50
360.0
 41
0.983333365784751
 72
     2
 11
236.598657505604
 21
35.6328248224959
 31
0.0
 73
     2
  0
TEXT
  5
   695
  8
0
  6
CONTINUOUS
 62
     2
 10
274.994007760976
 20
-1.05572129763324
 30
0.0
 40
2.99999997871263
  1
X
 50
360.0
 41
0.983333365784751
 72
     2
 11
277.194007842712
 21
0.444278691734128
 31
0.0
 73
     2
  0
TEXT
  5
   696
  8
0
  6
CONTINUOUS
 62
     2
 10
234.310021217797
 20
-32.2556414435092
 30
0.0
 40
2.99999997871263
  1
Y
 50
360.0
 41
0.983333365784751
 72
     2
 11
236.510021299533
 21
-30.7556414541418
 31
0.0
 73
     2
  0
TEXT
  5
   697
  8
0
  6
CONTINUOUS
 62
     2
 10
192.91694502605
 20
-1.05572129763324
 30
0.0
 40
2.99999997871263
  1
X
 50
360.0
 41
0.983333365784751
 72
     2
 11
195.116945107786
 21
0.444278691734128
 31
0.0
 73
     2
  0
INSERT
  5
   698
  8
0
  6
CONTINUOUS
 62
     3
  2
*UDIM288
 10
0.0
 20
0.0
 30
0.0
  0
INSERT
  5
   699
  8
0
  6
CONTINUOUS
 62
     3
  2
*UDIM289
 10
0.0
 20
0.0
 30
0.0
  0
INSERT
  5
   69A
  8
0
  6
CONTINUOUS
 62
     3
  2
*UDIM290
 10
0.0
 20
0.0
 30
0.0
  0
INSERT
  5
   69B
  8
0
  6
CONTINUOUS
 62
     3
  2
*UDIM291
 10
0.0
 20
0.0
 30
0.0
  0
INSERT
  5
   69C
  8
0
  6
CONTINUOUS
 62
     3
  2
*UDIM292
 10
0.0
 20
0.0
 30
0.0
  0
INSERT
  5
   69D
  8
0
  6
CONTINUOUS
 62
     7
  2
*UDIM293
 10
0.0
 20
0.0
 30
0.0
  0
ENDSEC
  0
EOF
